  0
SECTION
  2
HEADER
  9
$ACADVER
  1
AC1009
  9
$INSBASE
 10
0.0
 20
0.0
 30
0.0
  9
$EXTMIN
 10
0.236802
 20
0.237701
 30
0.0
  9
$EXTMAX
 10
392.236802
 20
262.737701
 30
0.0
  9
$LIMMIN
 10
0.0
 20
0.0
  9
$LIMMAX
 10
12.0
 20
9.0
  9
$ORTHOMODE
 70
     1
  9
$REGENMODE
 70
     1
  9
$FILLMODE
 70
     1
  9
$QTEXTMODE
 70
     0
  9
$MIRRTEXT
 70
     1
  9
$DRAGMODE
 70
     2
  9
$LTSCALE
 40
5.0
  9
$OSMODE
 70
     0
  9
$ATTMODE
 70
     1
  9
$TEXTSIZE
 40
2.0
  9
$TRACEWID
 40
0.05
  9
$TEXTSTYLE
  7
ROMANS
  9
$CLAYER
  8
0
  9
$CELTYPE
  6
CONTINUOUS
  9
$CECOLOR
 62
   256
  9
$DIMSCALE
 40
1.0
  9
$DIMASZ
 40
0.18
  9
$DIMEXO
 40
0.0625
  9
$DIMDLI
 40
0.38
  9
$DIMRND
 40
0.0
  9
$DIMDLE
 40
0.0
  9
$DIMEXE
 40
0.18
  9
$DIMTP
 40
0.0
  9
$DIMTM
 40
0.0
  9
$DIMTXT
 40
0.18
  9
$DIMCEN
 40
0.09
  9
$DIMTSZ
 40
0.0
  9
$DIMTOL
 70
     0
  9
$DIMLIM
 70
     0
  9
$DIMTIH
 70
     1
  9
$DIMTOH
 70
     1
  9
$DIMSE1
 70
     0
  9
$DIMSE2
 70
     0
  9
$DIMTAD
 70
     0
  9
$DIMZIN
 70
     0
  9
$DIMBLK
  1

  9
$DIMASO
 70
     1
  9
$DIMSHO
 70
     1
  9
$DIMPOST
  1

  9
$DIMAPOST
  1

  9
$DIMALT
 70
     0
  9
$DIMALTD
 70
     2
  9
$DIMALTF
 40
25.4
  9
$DIMLFAC
 40
1.0
  9
$DIMTOFL
 70
     0
  9
$DIMTVP
 40
0.0
  9
$DIMTIX
 70
     0
  9
$DIMSOXD
 70
     0
  9
$DIMSAH
 70
     0
  9
$DIMBLK1
  1

  9
$DIMBLK2
  1

  9
$DIMSTYLE
  2
*UNNAMED
  9
$DIMCLRD
 70
     0
  9
$DIMCLRE
 70
     0
  9
$DIMCLRT
 70
     0
  9
$DIMTFAC
 40
1.0
  9
$DIMGAP
 40
0.09
  9
$LUNITS
 70
     2
  9
$LUPREC
 70
     4
  9
$SKETCHINC
 40
0.1
  9
$FILLETRAD
 40
1.5
  9
$AUNITS
 70
     0
  9
$AUPREC
 70
     0
  9
$MENU
  1
acad
  9
$ELEVATION
 40
0.0
  9
$PELEVATION
 40
0.0
  9
$THICKNESS
 40
0.0
  9
$LIMCHECK
 70
     0
  9
$BLIPMODE
 70
     1
  9
$CHAMFERA
 40
0.0
  9
$CHAMFERB
 40
0.0
  9
$SKPOLY
 70
     0
  9
$TDCREATE
 40
2449767.571713889
  9
$TDUPDATE
 40
2449162.459898611
  9
$TDINDWG
 40
0.0955589120
  9
$TDUSRTIMER
 40
0.0955589120
  9
$USRTIMER
 70
     1
  9
$ANGBASE
 50
0.0
  9
$ANGDIR
 70
     0
  9
$PDMODE
 70
     0
  9
$PDSIZE
 40
0.0
  9
$PLINEWID
 40
0.0
  9
$COORDS
 70
     2
  9
$SPLFRAME
 70
     0
  9
$SPLINETYPE
 70
     6
  9
$SPLINESEGS
 70
     8
  9
$ATTDIA
 70
     0
  9
$ATTREQ
 70
     1
  9
$HANDLING
 70
     0
  9
$HANDSEED
  5
0
  9
$SURFTAB1
 70
   100
  9
$SURFTAB2
 70
   100
  9
$SURFTYPE
 70
     6
  9
$SURFU
 70
     6
  9
$SURFV
 70
     6
  9
$UCSNAME
  2

  9
$UCSORG
 10
0.0
 20
0.0
 30
0.0
  9
$UCSXDIR
 10
1.0
 20
0.0
 30
0.0
  9
$UCSYDIR
 10
0.0
 20
1.0
 30
0.0
  9
$PUCSNAME
  2

  9
$PUCSORG
 10
0.0
 20
0.0
 30
0.0
  9
$PUCSXDIR
 10
1.0
 20
0.0
 30
0.0
  9
$PUCSYDIR
 10
0.0
 20
1.0
 30
0.0
  9
$USERI1
 70
     0
  9
$USERI2
 70
     0
  9
$USERI3
 70
     0
  9
$USERI4
 70
     0
  9
$USERI5
 70
     0
  9
$USERR1
 40
0.0
  9
$USERR2
 40
0.0
  9
$USERR3
 40
0.0
  9
$USERR4
 40
0.0
  9
$USERR5
 40
0.0
  9
$WORLDVIEW
 70
     1
  9
$SHADEDGE
 70
     3
  9
$SHADEDIF
 70
    70
  9
$TILEMODE
 70
     1
  9
$MAXACTVP
 70
    16
  9
$PINSBASE
 10
0.0
 20
0.0
 30
0.0
  9
$PLIMCHECK
 70
     0
  9
$PEXTMIN
 10
1.000000E+20
 20
1.000000E+20
 30
1.000000E+20
  9
$PEXTMAX
 10
-1.000000E+20
 20
-1.000000E+20
 30
-1.000000E+20
  9
$PLIMMIN
 10
0.0
 20
0.0
  9
$PLIMMAX
 10
12.0
 20
9.0
  9
$UNITMODE
 70
     0
  9
$VISRETAIN
 70
     0
  9
$PLINEGEN
 70
     0
  9
$PSLTSCALE
 70
     0
  9
$TREEDEPTH
 70
  3020
  9
$DWGCODEPAGE
  3
undefined
  0
ENDSEC
  0
SECTION
  2
TABLES
  0
TABLE
  2
VPORT
 70
     2
  0
VPORT
  2
*ACTIVE
 70
     0
 10
0.0
 20
0.0
 11
1.0
 21
1.0
 12
222.522675
 22
142.040378
 13
0.0
 23
0.0
 14
2.5
 24
2.5
 15
0.0
 25
0.0
 16
0.0
 26
0.0
 36
1.0
 17
0.0
 27
0.0
 37
0.0
 40
284.080756
 41
1.566616
 42
50.0
 43
0.0
 44
0.0
 50
0.0
 51
0.0
 71
     0
 72
   100
 73
     1
 74
     1
 75
     1
 76
     0
 77
     0
 78
     0
  0
ENDTAB
  0
TABLE
  2
LTYPE
 70
     4
  0
LTYPE
  2
CONTINUOUS
 70
    64
  3
Solid line
 72
    65
 73
     0
 40
0.0
  0
LTYPE
  2
DASHED
 70
    64
  3
__ __ __ __ __ __ __ __ __ __ __ __ __ __ __ __
 72
    65
 73
     2
 40
0.75
 49
0.5
 49
-0.25
  0
LTYPE
  2
CENTER
 70
    64
  3
____ _ ____ _ ____ _ ____ _ ____ _ ____ _ ____ 
 72
    65
 73
     4
 40
2.0
 49
1.25
 49
-0.25
 49
0.25
 49
-0.25
  0
LTYPE
  2
HIDDEN
 70
    64
  3
__ __ __ __ __ __ __ __ __ __ __ __ __ __ __ __
 72
    65
 73
     2
 40
0.375
 49
0.25
 49
-0.125
  0
ENDTAB
  0
TABLE
  2
LAYER
 70
    13
  0
LAYER
  2
0
 70
    64
 62
     7
  6
CONTINUOUS
  0
LAYER
  2
RAAMI
 70
    64
 62
    -4
  6
CONTINUOUS
  0
LAYER
  2
PAKSU
 70
    64
 62
    -3
  6
CONTINUOUS
  0
LAYER
  2
OHUT
 70
    64
 62
    -6
  6
CONTINUOUS
  0
LAYER
  2
SWEDEN
 70
    64
 62
    -7
  6
CONTINUOUS
  0
LAYER
  2
SWEDEN2
 70
    64
 62
    -5
  6
CONTINUOUS
  0
LAYER
  2
BASE
 70
    64
 62
    -7
  6
CONTINUOUS
  0
LAYER
  2
21
 70
    64
 62
    -2
  6
CONTINUOUS
  0
LAYER
  2
HEL035
 70
    64
 62
    -7
  6
CONTINUOUS
  0
LAYER
  2
MUO
 70
    64
 62
    -7
  6
CONTINUOUS
  0
LAYER
  2
1
 70
    64
 62
    -2
  6
CONTINUOUS
  0
LAYER
  2
BASE1
 70
    64
 62
    -5
  6
CONTINUOUS
  0
LAYER
  2
TEKS
 70
    64
 62
    -5
  6
CONTINUOUS
  0
ENDTAB
  0
TABLE
  2
STYLE
 70
     4
  0
STYLE
  2
STANDARD
 70
    64
 40
0.0
 41
1.0
 50
0.0
 71
     0
 42
2.0
  3
txt
  4

  0
STYLE
  2
ROMANS
 70
    64
 40
0.0
 41
1.0
 50
0.0
 71
     0
 42
2.0
  3
romans
  4

  0
STYLE
  2
GREEKS
 70
    64
 40
0.0
 41
1.0
 50
0.0
 71
     0
 42
2.5
  3
TXT
  4

  0
STYLE
  2
STAND
 70
    64
 40
0.0
 41
1.0
 50
0.0
 71
     0
 42
2.0
  3
TXT
  4

  0
ENDTAB
  0
TABLE
  2
VIEW
 70
     0
  0
ENDTAB
  0
TABLE
  2
UCS
 70
     0
  0
ENDTAB
  0
TABLE
  2
APPID
 70
     1
  0
APPID
  2
ACAD
 70
    64
  0
ENDTAB
  0
TABLE
  2
DIMSTYLE
 70
     0
  0
ENDTAB
  0
ENDSEC
  0
SECTION
  2
BLOCKS
  0
BLOCK
  8
0
  2
1
 70
    64
 10
0.0
 20
0.0
 30
0.0
  3
1
  0
ENDBLK
  8
0
  0
BLOCK
  8
0
  2
BLC26
 70
     0
 10
0.0
 20
0.0
 30
0.0
  3
BLC26
  0
ARC
  8
0
  6
CONTINUOUS
 10
-0.180576
 20
1.17922
 30
0.0
 40
1.196859
 50
90.0
 51
265.706237
  0
LINE
  8
0
  6
CONTINUOUS
 10
-0.186638
 20
-0.01092
 30
0.0
 11
0.458942
 21
-0.01092
 31
0.0
  0
LINE
  8
0
  6
CONTINUOUS
 10
-0.186638
 20
2.375671
 30
0.0
 11
0.45288
 21
2.375671
 31
0.0
  0
LINE
  8
0
  6
CONTINUOUS
 10
-0.185509
 20
-2.404629
 30
0.0
 11
0.460071
 21
-2.404629
 31
0.0
  0
ARC
  8
0
  6
CONTINUOUS
 10
-0.180576
 20
-1.207779
 30
0.0
 40
1.196859
 50
90.0
 51
270.0
  0
LINE
  8
0
  6
CONTINUOUS
 10
0.451525
 20
-2.404586
 30
0.0
 11
1.401805
 21
-2.404586
 31
0.0
  0
LINE
  8
0
  6
CONTINUOUS
 10
0.446785
 20
2.375674
 30
0.0
 11
1.418544
 21
2.375674
 31
0.0
  0
LINE
  8
0
  6
CONTINUOUS
 10
0.456627
 20
-0.010911
 30
0.0
 11
1.422749
 21
-0.010911
 31
0.0
  0
ENDBLK
  8
0
  0
BLOCK
  8
0
  2
BLC29
 70
    64
 10
0.0
 20
0.0
 30
0.0
  3
BLC29
  0
LINE
  8
0
  6
CONTINUOUS
 10
0.004865
 20
1.206889
 30
0.0
 11
2.350631
 21
-0.128465
 31
0.0
  0
LINE
  8
0
  6
CONTINUOUS
 10
2.350631
 20
-0.128465
 30
0.0
 11
0.004865
 21
-1.318384
 31
0.0
  0
ENDBLK
  8
0
  0
BLOCK
  8
0
  2
WKU130
 70
    64
 10
190.0
 20
250.0
 30
0.0
  3
WKU130
  0
ARC
  8
21
 10
191.083333
 20
249.916667
 30
0.0
 40
1.086534
 50
32.471192
 51
175.601295
  0
ARC
  8
21
 10
192.916667
 20
251.083333
 30
0.0
 40
1.086534
 50
212.471192
 51
355.601295
  0
ENDBLK
  8
0
  0
BLOCK
  8
0
  2
BLC55
 70
    64
 10
0.0
 20
0.0
 30
0.0
  3
BLC55
  0
INSERT
  8
SWEDEN
  6
CENTER
  2
BLC5
 10
0.087066
 20
-0.756831
 30
0.0
 41
0.6
 42
0.6
 43
0.6
  0
ENDBLK
  8
0
  0
BLOCK
  8
0
  2
BLC5
 70
    64
 10
0.0
 20
0.0
 30
0.0
  3
BLC5
  0
TEXT
  8
0
 10
-3.043704
 20
-6.645912
 30
0.0
 40
3.2
  1
PE
  0
LINE
  8
0
 10
-2.946392
 20
1.181176
 30
0.0
 11
2.135458
 21
1.181176
 31
0.0
  0
LINE
  8
0
 10
-0.48656
 20
2.238362
 30
0.0
 11
-0.48656
 21
6.930438
 31
0.0
  0
LINE
  8
0
 10
-1.973271
 20
0.065258
 30
0.0
 11
1.225411
 21
0.065258
 31
0.0
  0
LINE
  8
0
 10
2.685091
 20
2.238362
 30
0.0
 11
1.68494
 21
2.238362
 31
0.0
  0
LINE
  8
0
 10
-3.505035
 20
2.238362
 30
0.0
 11
2.649049
 21
2.238362
 31
0.0
  0
CIRCLE
  8
0
 10
-0.47755
 20
1.422632
 30
0.0
 40
3.804563
  0
ENDBLK
  8
0
  0
BLOCK
  8
0
  2
BLC43
 70
    64
 10
0.0
 20
0.0
 30
0.0
  3
BLC43
  0
TEXT
  8
SWEDEN2
  6
CONTINUOUS
 10
-0.646672
 20
-0.986365
 30
0.0
 40
2.0
  1
+
  0
ENDBLK
  8
0
  0
BLOCK
  8
0
  2
BLC42
 70
    64
 10
0.0
 20
0.0
 30
0.0
  3
BLC42
  0
TEXT
  8
SWEDEN2
  6
CONTINUOUS
 10
-0.655237
 20
-0.99442
 30
0.0
 40
2.0
  1
-
  0
ENDBLK
  8
0
  0
BLOCK
  8
0
  2
BLC44
 70
    64
 10
0.0
 20
0.0
 30
0.0
  3
BLC44
  0
LINE
  8
HEL035
 10
-2.520993
 20
1.697877
 30
0.0
 11
1.479007
 21
1.697877
 31
0.0
  0
INSERT
  8
HEL035
  2
WKU130
 10
-2.181043
 20
-0.027675
 30
0.0
 41
0.8
 42
0.8
 43
0.8
  0
ENDBLK
  8
0
  0
BLOCK
  8
0
  2
B39
 70
    64
 10
0.0
 20
0.0
 30
0.0
  3
B39
  0
LINE
  8
0
 10
-10.0
 20
2.5
 30
0.0
 11
-11.519867
 21
2.5
 31
0.0
  0
ARC
  8
0
 10
-9.934151
 20
3.75
 30
0.0
 40
1.251733
 50
266.984476
 51
93.015524
  0
LINE
  8
0
 10
-10.0
 20
5.0
 30
0.0
 11
-11.519867
 21
5.0
 31
0.0
  0
LINE
  8
0
 10
-10.0
 20
7.5
 30
0.0
 11
-11.519867
 21
7.5
 31
0.0
  0
ARC
  8
0
 10
-9.934151
 20
6.25
 30
0.0
 40
1.251733
 50
266.984476
 51
93.015524
  0
LINE
  8
0
 10
-5.0
 20
0.0
 30
0.0
 11
-2.5
 21
0.0
 31
0.0
  0
ARC
  8
0
 10
-5.065849
 20
1.25
 30
0.0
 40
1.251733
 50
86.984476
 51
273.015524
  0
ARC
  8
0
 10
-5.065849
 20
3.75
 30
0.0
 40
1.251733
 50
86.984476
 51
273.015524
  0
LINE
  8
0
 10
-5.0
 20
2.5
 30
0.0
 11
-2.5
 21
2.5
 31
0.0
  0
LINE
  8
0
 10
-5.0
 20
5.0
 30
0.0
 11
-2.5
 21
5.0
 31
0.0
  0
LINE
  8
0
 10
-2.5
 20
5.0
 30
0.0
 11
0.0
 21
5.0
 31
0.0
  0
LINE
  8
0
 10
-2.5
 20
0.0
 30
0.0
 11
0.0
 21
0.0
 31
0.0
  0
LINE
  8
0
 10
-2.5
 20
5.0
 30
0.0
 11
0.0
 21
5.0
 31
0.0
  0
LINE
  8
0
 10
-2.5
 20
10.0
 30
0.0
 11
0.0
 21
10.0
 31
0.0
  0
LINE
  8
0
 10
-5.0
 20
10.0
 30
0.0
 11
-2.5
 21
10.0
 31
0.0
  0
LINE
  8
0
 10
-5.0
 20
7.5
 30
0.0
 11
-2.5
 21
7.5
 31
0.0
  0
ARC
  8
0
 10
-5.065849
 20
8.75
 30
0.0
 40
1.251733
 50
86.984476
 51
273.015524
  0
ARC
  8
0
 10
-5.065849
 20
6.25
 30
0.0
 40
1.251733
 50
86.984476
 51
273.015524
  0
LINE
  8
0
 10
-5.0
 20
5.0
 30
0.0
 11
-2.5
 21
5.0
 31
0.0
  0
ENDBLK
  8
0
  0
BLOCK
  8
0
  2
ABBA3SX
 70
    64
 10
0.0
 20
0.0
 30
0.0
  3
ABBA3SX
  0
TEXT
  8
RAAMI
  6
DASHED
 10
354.190282
 20
15.793111
 30
0.0
 40
1.4
  1
LEHTI SHEET
  7
STAND
  0
LINE
  8
PAKSU
 10
0.236802
 20
0.237701
 30
0.0
 11
0.236802
 21
262.737701
 31
0.0
  0
LINE
  8
PAKSU
 10
392.236802
 20
262.737701
 30
0.0
 11
392.236802
 21
0.237701
 31
0.0
  0
LINE
  8
PAKSU
 10
0.236802
 20
0.237701
 30
0.0
 11
392.236802
 21
0.237701
 31
0.0
  0
TEXT
  8
RAAMI
 10
42.236802
 20
5.587211
 30
0.0
 40
2.5
  1
C
  7
ROMANS
  0
TEXT
  8
RAAMI
 10
42.236802
 20
1.194994
 30
0.0
 40
2.5
  1
B
  7
ROMANS
  0
TEXT
  8
RAAMI
 10
257.406709
 20
1.741485
 30
0.0
 40
3.0
  1
Power
 41
0.8
  7
ROMANS
  0
TEXT
  8
RAAMI
 10
273.236802
 20
7.237701
 30
0.0
 40
1.4
  1
VAST.OSASTO RESP.DEPT.
  7
ROMANS
  0
TEXT
  8
RAAMI
 10
210.236802
 20
32.237701
 30
0.0
 40
1.4
  1
TEKI  PREPARED
  7
ROMANS
  0
LINE
  8
OHUT
 10
271.236802
 20
9.737701
 30
0.0
 11
271.236802
 21
0.237701
 31
0.0
  0
LINE
  8
OHUT
 10
257.236802
 20
9.737701
 30
0.0
 11
257.236802
 21
35.237701
 31
0.0
  0
LINE
  8
OHUT
 10
40.736802
 20
4.737701
 30
0.0
 11
209.236802
 21
4.737701
 31
0.0
  0
LINE
  8
OHUT
 10
46.736802
 20
0.237701
 30
0.0
 11
46.736802
 21
9.237701
 31
0.0
  0
LINE
  8
OHUT
 10
46.736802
 20
9.237701
 30
0.0
 11
209.236802
 21
9.237701
 31
0.0
  0
TEXT
  8
RAAMI
 10
27.736802
 20
2.471035
 30
0.0
 40
1.4
  1
REVISION
  7
ROMANS
  0
TEXT
  8
RAAMI
 10
27.736802
 20
4.737701
 30
0.0
 40
1.4
  1
MUUTOS
  7
ROMANS
  0
LINE
  8
OHUT
 10
282.236802
 20
9.737701
 30
0.0
 11
282.236802
 21
18.237701
 31
0.0
  0
TEXT
  8
RAAMI
 10
237.736802
 20
1.737701
 30
0.0
 40
3.0
  1
Strömberg
 41
0.8
  7
ROMANS
  0
TEXT
  8
RAAMI
 10
229.736802
 20
1.737701
 30
0.0
 40
3.0
  1
ABB 
 41
0.8
  7
ROMANS
  0
LINE
  8
RAAMI
 10
223.136802
 20
1.737701
 30
0.0
 11
223.136802
 21
5.097701
 31
0.0
  0
LINE
  8
RAAMI
 10
223.136802
 20
8.737701
 30
0.0
 11
225.096802
 21
8.737701
 31
0.0
  0
LINE
  8
RAAMI
 10
225.096802
 20
8.737701
 30
0.0
 11
225.096802
 21
5.377701
 31
0.0
  0
LINE
  8
RAAMI
 10
225.096802
 20
5.377701
 30
0.0
 11
223.136802
 21
5.377701
 31
0.0
  0
LINE
  8
RAAMI
 10
223.136802
 20
5.097701
 30
0.0
 11
225.096802
 21
5.097701
 31
0.0
  0
LINE
  8
RAAMI
 10
225.096802
 20
5.097701
 30
0.0
 11
225.096802
 21
1.737701
 31
0.0
  0
LINE
  8
RAAMI
 10
225.096802
 20
1.737701
 30
0.0
 11
223.136802
 21
1.737701
 31
0.0
  0
LINE
  8
RAAMI
 10
223.136802
 20
5.377701
 30
0.0
 11
223.136802
 21
8.737701
 31
0.0
  0
ARC
  8
RAAMI
 10
225.936802
 20
7.162701
 30
0.0
 40
1.575
 50
298.455859
 51
90.052437
  0
LINE
  8
RAAMI
 10
225.376802
 20
8.737701
 30
0.0
 11
225.935361
 21
8.737701
 31
0.0
  0
LINE
  8
RAAMI
 10
225.376802
 20
8.737701
 30
0.0
 11
225.376802
 21
5.377701
 31
0.0
  0
LINE
  8
RAAMI
 10
225.376802
 20
5.377701
 30
0.0
 11
227.361245
 21
5.377701
 31
0.0
  0
LINE
  8
RAAMI
 10
227.616802
 20
5.097701
 30
0.0
 11
225.376802
 21
5.097701
 31
0.0
  0
LINE
  8
RAAMI
 10
225.376802
 20
5.097701
 30
0.0
 11
225.376802
 21
1.737701
 31
0.0
  0
ARC
  8
RAAMI
 10
225.936802
 20
3.837701
 30
0.0
 40
2.1
 50
269.937724
 51
37.056553
  0
LINE
  8
RAAMI
 10
225.376802
 20
1.737701
 30
0.0
 11
225.93452
 21
1.737703
 31
0.0
  0
ARC
  8
RAAMI
 10
225.936802
 20
3.837701
 30
0.0
 40
2.1
 50
47.28622
 51
68.787999
  0
INSERT
  8
RAAMI
  2
*X15
 10
215.646802
 20
1.737701
 30
0.0
 41
0.7
 42
0.7
 43
0.7
  0
INSERT
  8
RAAMI
  2
*X16
 10
215.646802
 20
1.737701
 30
0.0
 41
0.7
 42
0.7
 43
0.7
  0
INSERT
  8
RAAMI
  2
*X17
 10
215.646802
 20
1.737701
 30
0.0
 41
0.7
 42
0.7
 43
0.7
  0
INSERT
  8
RAAMI
  2
*X18
 10
215.646802
 20
1.737701
 30
0.0
 41
0.7
 42
0.7
 43
0.7
  0
INSERT
  8
RAAMI
  2
*X18
 10
210.186802
 20
1.737701
 30
0.0
 41
0.7
 42
0.7
 43
0.7
  0
INSERT
  8
RAAMI
  2
*X17
 10
210.186802
 20
1.737701
 30
0.0
 41
0.7
 42
0.7
 43
0.7
  0
INSERT
  8
RAAMI
  2
*X16
 10
210.186802
 20
1.737701
 30
0.0
 41
0.7
 42
0.7
 43
0.7
  0
INSERT
  8
RAAMI
  2
*X15
 10
210.186802
 20
1.737701
 30
0.0
 41
0.7
 42
0.7
 43
0.7
  0
ARC
  8
RAAMI
 10
220.476802
 20
3.837701
 30
0.0
 40
2.1
 50
47.28622
 51
68.787999
  0
LINE
  8
RAAMI
 10
219.916802
 20
1.737701
 30
0.0
 11
220.47452
 21
1.737703
 31
0.0
  0
ARC
  8
RAAMI
 10
220.476802
 20
3.837701
 30
0.0
 40
2.1
 50
269.937724
 51
37.056553
  0
LINE
  8
RAAMI
 10
219.916802
 20
5.097701
 30
0.0
 11
219.916802
 21
1.737701
 31
0.0
  0
LINE
  8
RAAMI
 10
222.156802
 20
5.097701
 30
0.0
 11
219.916802
 21
5.097701
 31
0.0
  0
LINE
  8
RAAMI
 10
219.916802
 20
5.377701
 30
0.0
 11
221.901245
 21
5.377701
 31
0.0
  0
LINE
  8
RAAMI
 10
219.916802
 20
8.737701
 30
0.0
 11
219.916802
 21
5.377701
 31
0.0
  0
LINE
  8
RAAMI
 10
219.916802
 20
8.737701
 30
0.0
 11
220.475361
 21
8.737701
 31
0.0
  0
ARC
  8
RAAMI
 10
220.476802
 20
7.162701
 30
0.0
 40
1.575
 50
298.455859
 51
90.052437
  0
LINE
  8
RAAMI
 10
217.676802
 20
5.377701
 30
0.0
 11
217.676802
 21
8.737701
 31
0.0
  0
LINE
  8
RAAMI
 10
219.636802
 20
1.737701
 30
0.0
 11
217.676802
 21
1.737701
 31
0.0
  0
LINE
  8
RAAMI
 10
219.636802
 20
5.097701
 30
0.0
 11
219.636802
 21
1.737701
 31
0.0
  0
LINE
  8
RAAMI
 10
217.676802
 20
5.097701
 30
0.0
 11
219.636802
 21
5.097701
 31
0.0
  0
LINE
  8
RAAMI
 10
219.636802
 20
5.377701
 30
0.0
 11
217.676802
 21
5.377701
 31
0.0
  0
LINE
  8
RAAMI
 10
219.636802
 20
8.737701
 30
0.0
 11
219.636802
 21
5.377701
 31
0.0
  0
LINE
  8
RAAMI
 10
217.676802
 20
8.737701
 30
0.0
 11
219.636802
 21
8.737701
 31
0.0
  0
LINE
  8
RAAMI
 10
217.676802
 20
1.737701
 30
0.0
 11
217.676802
 21
5.097701
 31
0.0
  0
INSERT
  8
RAAMI
  2
*X14
 10
210.186802
 20
1.737701
 30
0.0
 41
0.7
 42
0.7
 43
0.7
  0
INSERT
  8
RAAMI
  2
*X13
 10
210.186802
 20
1.737701
 30
0.0
 41
0.7
 42
0.7
 43
0.7
  0
INSERT
  8
RAAMI
  2
*X12
 10
210.186802
 20
1.737701
 30
0.0
 41
0.7
 42
0.7
 43
0.7
  0
INSERT
  8
RAAMI
  2
*X11
 10
210.186802
 20
1.737701
 30
0.0
 41
0.7
 42
0.7
 43
0.7
  0
LINE
  8
RAAMI
 10
211.356691
 20
5.08024
 30
0.0
 11
210.186802
 21
1.737701
 31
0.0
  0
LINE
  8
RAAMI
 10
213.546802
 20
5.097701
 30
0.0
 11
213.546802
 21
3.137701
 31
0.0
  0
LINE
  8
RAAMI
 10
213.826802
 20
5.097701
 30
0.0
 11
213.826802
 21
3.137701
 31
0.0
  0
LINE
  8
RAAMI
 10
213.826802
 20
5.097701
 30
0.0
 11
216.010059
 21
5.097701
 31
0.0
  0
LINE
  8
RAAMI
 10
213.826802
 20
5.377701
 30
0.0
 11
215.911916
 21
5.377701
 31
0.0
  0
LINE
  8
RAAMI
 10
216.011294
 20
5.096296
 30
0.0
 11
217.186802
 21
1.737701
 31
0.0
  0
LINE
  8
RAAMI
 10
211.359785
 20
5.097701
 30
0.0
 11
213.546802
 21
5.097701
 31
0.0
  0
LINE
  8
RAAMI
 10
211.458743
 20
5.377701
 30
0.0
 11
213.546802
 21
5.377701
 31
0.0
  0
LINE
  8
RAAMI
 10
213.546802
 20
8.737701
 30
0.0
 11
212.636802
 21
8.737701
 31
0.0
  0
LINE
  8
RAAMI
 10
213.826802
 20
3.137701
 30
0.0
 11
214.946696
 21
3.137701
 31
0.0
  0
LINE
  8
RAAMI
 10
213.826802
 20
8.737701
 30
0.0
 11
213.826802
 21
5.377701
 31
0.0
  0
LINE
  8
RAAMI
 10
213.546802
 20
8.737701
 30
0.0
 11
213.546802
 21
5.377701
 31
0.0
  0
LINE
  8
RAAMI
 10
214.736802
 20
8.737701
 30
0.0
 11
213.826802
 21
8.737701
 31
0.0
  0
LINE
  8
RAAMI
 10
214.9479
 20
3.134565
 30
0.0
 11
215.436802
 21
1.737701
 31
0.0
  0
LINE
  8
RAAMI
 10
214.736802
 20
8.737701
 30
0.0
 11
215.913155
 21
5.376693
 31
0.0
  0
LINE
  8
RAAMI
 10
212.425592
 20
3.134244
 30
0.0
 11
211.936802
 21
1.737701
 31
0.0
  0
LINE
  8
RAAMI
 10
212.425589
 20
3.137701
 30
0.0
 11
213.546802
 21
3.137701
 31
0.0
  0
LINE
  8
RAAMI
 10
212.636802
 20
8.737701
 30
0.0
 11
211.459274
 21
5.373336
 31
0.0
  0
LINE
  8
RAAMI
 10
215.436802
 20
1.737701
 30
0.0
 11
217.186802
 21
1.737701
 31
0.0
  0
LINE
  8
RAAMI
 10
210.186802
 20
1.737701
 30
0.0
 11
211.936802
 21
1.737701
 31
0.0
  0
LINE
  8
OHUT
 10
369.736802
 20
9.737701
 30
0.0
 11
369.736802
 21
0.237701
 31
0.0
  0
TEXT
  8
RAAMI
 10
371.236802
 20
7.237701
 30
0.0
 40
1.4
  1
PAINOS  REVISION
  7
ROMANS
  0
LINE
  8
OHUT
 10
349.736802
 20
9.737701
 30
0.0
 11
349.736802
 21
18.237701
 31
0.0
  0
TEXT
  8
RAAMI
 10
309.236802
 20
7.237701
 30
0.0
 40
1.4
  1
PIIRUSTUS NO  DRAWING NR
  7
ROMANS
  0
TEXT
  8
RAAMI
 10
309.236802
 20
15.737701
 30
0.0
 40
1.4
  1
KOODI  CODE
  7
ROMANS
  0
TEXT
  8
RAAMI
 10
309.236802
 20
32.737701
 30
0.0
 40
1.4
  1
NIMITYS  NAME
  7
ROMANS
  0
TEXT
  8
RAAMI
 10
259.236802
 20
15.737701
 30
0.0
 40
1.4
  1
SUHDE  SCALE
  7
ROMANS
  0
TEXT
  8
RAAMI
 10
259.236802
 20
23.737701
 30
0.0
 40
1.4
  1
TOLERANSSIT  TOLERANCES
  7
ROMANS
  0
TEXT
  8
RAAMI
 10
259.236802
 20
32.737701
 30
0.0
 40
1.4
  1
LIITTYY  CONCERNING
  7
ROMANS
  0
LINE
  8
OHUT
 10
307.236802
 20
0.237701
 30
0.0
 11
307.236802
 21
35.237701
 31
0.0
  0
TEXT
  8
RAAMI
 10
209.979637
 20
15.704368
 30
0.0
 40
1.4
  1
HYVÄKSYI  APPROVED
  7
ROMANS
  0
TEXT
  8
RAAMI
 10
210.236802
 20
23.971035
 30
0.0
 40
1.4
  1
TARKASTI  CHECKED
  7
ROMANS
  0
LINE
  8
PAKSU
 10
209.236802
 20
35.237701
 30
0.0
 11
392.236802
 21
35.237701
 31
0.0
  0
LINE
  8
OHUT
 10
209.236802
 20
26.737701
 30
0.0
 11
307.236802
 21
26.737701
 31
0.0
  0
LINE
  8
OHUT
 10
209.236802
 20
9.737701
 30
0.0
 11
392.236802
 21
9.737701
 31
0.0
  0
LINE
  8
OHUT
 10
209.236802
 20
18.237701
 30
0.0
 11
392.236802
 21
18.237701
 31
0.0
  0
LINE
  8
PAKSU
 10
392.236802
 20
0.237701
 30
0.0
 11
392.236802
 21
35.237701
 31
0.0
  0
LINE
  8
PAKSU
 10
209.236802
 20
0.237701
 30
0.0
 11
209.236802
 21
35.237701
 31
0.0
  0
LINE
  8
PAKSU
 10
209.236802
 20
0.237701
 30
0.0
 11
392.236802
 21
0.237701
 31
0.0
  0
LINE
  8
RAAMI
 10
18.236802
 20
0.237701
 30
0.0
 11
0.236802
 21
0.237701
 31
0.0
  0
LINE
  8
PAKSU
 10
0.236802
 20
262.737701
 30
0.0
 11
392.236802
 21
262.737701
 31
0.0
  0
TEXT
  8
RAAMI
  6
DASHED
 10
292.216898
 20
11.813061
 30
0.0
 40
3.0
  1
A3
  7
GREEKS
  0
ENDBLK
  8
0
  0
BLOCK
  8
0
  2
*X11
 70
    65
 10
0.0
 20
0.0
 30
0.0
  3
*X
  0
LINE
  8
0
 62
     0
 10
2.284499
 20
6.52714
 30
0.0
 11
4.8
 21
9.042641
 31
0.0
  0
LINE
  8
0
 62
     0
 10
2.379686
 20
6.799104
 30
0.0
 11
4.8
 21
9.219417
 31
0.0
  0
LINE
  8
0
 62
     0
 10
2.474874
 20
7.071068
 30
0.0
 11
4.8
 21
9.396194
 31
0.0
  0
LINE
  8
0
 62
     0
 10
2.570061
 20
7.343032
 30
0.0
 11
4.8
 21
9.572971
 31
0.0
  0
LINE
  8
0
 62
     0
 10
2.665249
 20
7.614996
 30
0.0
 11
4.8
 21
9.749747
 31
0.0
  0
LINE
  8
0
 62
     0
 10
2.760436
 20
7.88696
 30
0.0
 11
4.8
 21
9.926524
 31
0.0
  0
LINE
  8
0
 62
     0
 10
2.855624
 20
8.158924
 30
0.0
 11
4.696699
 21
10.0
 31
0.0
  0
LINE
  8
0
 62
     0
 10
2.950811
 20
8.430889
 30
0.0
 11
4.519922
 21
10.0
 31
0.0
  0
LINE
  8
0
 62
     0
 10
3.045998
 20
8.702853
 30
0.0
 11
4.343146
 21
10.0
 31
0.0
  0
LINE
  8
0
 62
     0
 10
3.141186
 20
8.974817
 30
0.0
 11
4.166369
 21
10.0
 31
0.0
  0
LINE
  8
0
 62
     0
 10
3.236373
 20
9.246781
 30
0.0
 11
3.989592
 21
10.0
 31
0.0
  0
LINE
  8
0
 62
     0
 10
3.331561
 20
9.518745
 30
0.0
 11
3.812816
 21
10.0
 31
0.0
  0
LINE
  8
0
 62
     0
 10
3.426748
 20
9.790709
 30
0.0
 11
3.636039
 21
10.0
 31
0.0
  0
LINE
  8
0
 62
     0
 10
2.189311
 20
6.255175
 30
0.0
 11
4.8
 21
8.865864
 31
0.0
  0
LINE
  8
0
 62
     0
 10
2.094124
 20
5.983211
 30
0.0
 11
4.8
 21
8.689087
 31
0.0
  0
LINE
  8
0
 62
     0
 10
1.998936
 20
5.711247
 30
0.0
 11
4.8
 21
8.512311
 31
0.0
  0
LINE
  8
0
 62
     0
 10
1.903749
 20
5.439283
 30
0.0
 11
4.8
 21
8.335534
 31
0.0
  0
LINE
  8
0
 62
     0
 10
1.841243
 20
5.2
 30
0.0
 11
4.8
 21
8.158757
 31
0.0
  0
LINE
  8
0
 62
     0
 10
2.018019
 20
5.2
 30
0.0
 11
4.8
 21
7.981981
 31
0.0
  0
LINE
  8
0
 62
     0
 10
2.194796
 20
5.2
 30
0.0
 11
4.8
 21
7.805204
 31
0.0
  0
LINE
  8
0
 62
     0
 10
2.371573
 20
5.2
 30
0.0
 11
4.8
 21
7.628427
 31
0.0
  0
LINE
  8
0
 62
     0
 10
2.54835
 20
5.2
 30
0.0
 11
4.8
 21
7.45165
 31
0.0
  0
LINE
  8
0
 62
     0
 10
2.725126
 20
5.2
 30
0.0
 11
4.8
 21
7.274874
 31
0.0
  0
LINE
  8
0
 62
     0
 10
2.901903
 20
5.2
 30
0.0
 11
4.8
 21
7.098097
 31
0.0
  0
LINE
  8
0
 62
     0
 10
3.07868
 20
5.2
 30
0.0
 11
4.8
 21
6.92132
 31
0.0
  0
LINE
  8
0
 62
     0
 10
3.255456
 20
5.2
 30
0.0
 11
4.8
 21
6.744544
 31
0.0
  0
LINE
  8
0
 62
     0
 10
3.432233
 20
5.2
 30
0.0
 11
4.8
 21
6.567767
 31
0.0
  0
LINE
  8
0
 62
     0
 10
3.60901
 20
5.2
 30
0.0
 11
4.8
 21
6.39099
 31
0.0
  0
LINE
  8
0
 62
     0
 10
3.785786
 20
5.2
 30
0.0
 11
4.8
 21
6.214214
 31
0.0
  0
LINE
  8
0
 62
     0
 10
3.962563
 20
5.2
 30
0.0
 11
4.8
 21
6.037437
 31
0.0
  0
LINE
  8
0
 62
     0
 10
4.13934
 20
5.2
 30
0.0
 11
4.8
 21
5.86066
 31
0.0
  0
LINE
  8
0
 62
     0
 10
4.316117
 20
5.2
 30
0.0
 11
4.8
 21
5.683883
 31
0.0
  0
LINE
  8
0
 62
     0
 10
4.492893
 20
5.2
 30
0.0
 11
4.8
 21
5.507107
 31
0.0
  0
LINE
  8
0
 62
     0
 10
4.66967
 20
5.2
 30
0.0
 11
4.8
 21
5.33033
 31
0.0
  0
ENDBLK
  8
0
  0
BLOCK
  8
0
  2
*X12
 70
    65
 10
0.0
 20
0.0
 30
0.0
  3
*X
  0
LINE
  8
0
 62
     0
 10
5.2
 20
6.083883
 30
0.0
 11
7.178252
 21
8.062136
 31
0.0
  0
LINE
  8
0
 62
     0
 10
5.2
 20
6.26066
 30
0.0
 11
7.132421
 21
8.193082
 31
0.0
  0
LINE
  8
0
 62
     0
 10
5.2
 20
6.437437
 30
0.0
 11
7.08659
 21
8.324027
 31
0.0
  0
LINE
  8
0
 62
     0
 10
5.2
 20
6.614214
 30
0.0
 11
7.040759
 21
8.454973
 31
0.0
  0
LINE
  8
0
 62
     0
 10
5.2
 20
6.79099
 30
0.0
 11
6.994928
 21
8.585919
 31
0.0
  0
LINE
  8
0
 62
     0
 10
5.2
 20
6.967767
 30
0.0
 11
6.949097
 21
8.716864
 31
0.0
  0
LINE
  8
0
 62
     0
 10
5.2
 20
7.144544
 30
0.0
 11
6.903266
 21
8.84781
 31
0.0
  0
LINE
  8
0
 62
     0
 10
5.2
 20
7.32132
 30
0.0
 11
6.857435
 21
8.978756
 31
0.0
  0
LINE
  8
0
 62
     0
 10
5.2
 20
7.498097
 30
0.0
 11
6.811604
 21
9.109702
 31
0.0
  0
LINE
  8
0
 62
     0
 10
5.2
 20
7.674874
 30
0.0
 11
6.765773
 21
9.240647
 31
0.0
  0
LINE
  8
0
 62
     0
 10
5.2
 20
7.85165
 30
0.0
 11
6.719942
 21
9.371593
 31
0.0
  0
LINE
  8
0
 62
     0
 10
5.2
 20
8.028427
 30
0.0
 11
6.674111
 21
9.502539
 31
0.0
  0
LINE
  8
0
 62
     0
 10
5.2
 20
8.205204
 30
0.0
 11
6.62828
 21
9.633484
 31
0.0
  0
LINE
  8
0
 62
     0
 10
5.2
 20
8.381981
 30
0.0
 11
6.582449
 21
9.76443
 31
0.0
  0
LINE
  8
0
 62
     0
 10
5.2
 20
8.558757
 30
0.0
 11
6.536619
 21
9.895376
 31
0.0
  0
LINE
  8
0
 62
     0
 10
5.2
 20
8.735534
 30
0.0
 11
6.464466
 21
10.0
 31
0.0
  0
LINE
  8
0
 62
     0
 10
5.2
 20
8.912311
 30
0.0
 11
6.287689
 21
10.0
 31
0.0
  0
LINE
  8
0
 62
     0
 10
5.2
 20
9.089087
 30
0.0
 11
6.110913
 21
10.0
 31
0.0
  0
LINE
  8
0
 62
     0
 10
5.2
 20
9.265864
 30
0.0
 11
5.934136
 21
10.0
 31
0.0
  0
LINE
  8
0
 62
     0
 10
5.2
 20
9.442641
 30
0.0
 11
5.757359
 21
10.0
 31
0.0
  0
LINE
  8
0
 62
     0
 10
5.2
 20
9.619417
 30
0.0
 11
5.580583
 21
10.0
 31
0.0
  0
LINE
  8
0
 62
     0
 10
5.2
 20
9.796194
 30
0.0
 11
5.403806
 21
10.0
 31
0.0
  0
LINE
  8
0
 62
     0
 10
5.2
 20
9.972971
 30
0.0
 11
5.227029
 21
10.0
 31
0.0
  0
LINE
  8
0
 62
     0
 10
5.2
 20
5.907107
 30
0.0
 11
7.224083
 21
7.93119
 31
0.0
  0
LINE
  8
0
 62
     0
 10
5.2
 20
5.73033
 30
0.0
 11
7.269914
 21
7.800245
 31
0.0
  0
LINE
  8
0
 62
     0
 10
5.2
 20
5.553553
 30
0.0
 11
7.315745
 21
7.669299
 31
0.0
  0
LINE
  8
0
 62
     0
 10
5.2
 20
5.376777
 30
0.0
 11
7.361576
 21
7.538353
 31
0.0
  0
LINE
  8
0
 62
     0
 10
5.2
 20
5.2
 30
0.0
 11
7.407407
 21
7.407407
 31
0.0
  0
LINE
  8
0
 62
     0
 10
5.376777
 20
5.2
 30
0.0
 11
7.453238
 21
7.276462
 31
0.0
  0
LINE
  8
0
 62
     0
 10
5.553553
 20
5.2
 30
0.0
 11
7.499069
 21
7.145516
 31
0.0
  0
LINE
  8
0
 62
     0
 10
5.73033
 20
5.2
 30
0.0
 11
7.5449
 21
7.01457
 31
0.0
  0
LINE
  8
0
 62
     0
 10
5.907107
 20
5.2
 30
0.0
 11
7.590731
 21
6.883625
 31
0.0
  0
LINE
  8
0
 62
     0
 10
6.083883
 20
5.2
 30
0.0
 11
7.636562
 21
6.752679
 31
0.0
  0
LINE
  8
0
 62
     0
 10
6.26066
 20
5.2
 30
0.0
 11
7.682393
 21
6.621733
 31
0.0
  0
LINE
  8
0
 62
     0
 10
6.437437
 20
5.2
 30
0.0
 11
7.728224
 21
6.490788
 31
0.0
  0
LINE
  8
0
 62
     0
 10
6.614214
 20
5.2
 30
0.0
 11
7.774055
 21
6.359842
 31
0.0
  0
LINE
  8
0
 62
     0
 10
6.79099
 20
5.2
 30
0.0
 11
7.819886
 21
6.228896
 31
0.0
  0
LINE
  8
0
 62
     0
 10
6.967767
 20
5.2
 30
0.0
 11
7.865717
 21
6.09795
 31
0.0
  0
LINE
  8
0
 62
     0
 10
7.144544
 20
5.2
 30
0.0
 11
7.911548
 21
5.967005
 31
0.0
  0
LINE
  8
0
 62
     0
 10
7.32132
 20
5.2
 30
0.0
 11
7.957379
 21
5.836059
 31
0.0
  0
LINE
  8
0
 62
     0
 10
7.498097
 20
5.2
 30
0.0
 11
8.00321
 21
5.705113
 31
0.0
  0
LINE
  8
0
 62
     0
 10
7.674874
 20
5.2
 30
0.0
 11
8.049041
 21
5.574168
 31
0.0
  0
LINE
  8
0
 62
     0
 10
7.85165
 20
5.2
 30
0.0
 11
8.094872
 21
5.443222
 31
0.0
  0
LINE
  8
0
 62
     0
 10
8.028427
 20
5.2
 30
0.0
 11
8.140703
 21
5.312276
 31
0.0
  0
ENDBLK
  8
0
  0
BLOCK
  8
0
  2
*X13
 70
    65
 10
0.0
 20
0.0
 30
0.0
  3
*X
  0
LINE
  8
0
 62
     0
 10
0.0
 20
0.0
 30
0.0
 11
4.8
 21
4.8
 31
0.0
  0
LINE
  8
0
 62
     0
 10
0.095187
 20
0.271964
 30
0.0
 11
4.623223
 21
4.8
 31
0.0
  0
LINE
  8
0
 62
     0
 10
0.190375
 20
0.543928
 30
0.0
 11
4.446447
 21
4.8
 31
0.0
  0
LINE
  8
0
 62
     0
 10
0.285562
 20
0.815892
 30
0.0
 11
4.26967
 21
4.8
 31
0.0
  0
LINE
  8
0
 62
     0
 10
0.38075
 20
1.087857
 30
0.0
 11
4.092893
 21
4.8
 31
0.0
  0
LINE
  8
0
 62
     0
 10
0.475937
 20
1.359821
 30
0.0
 11
3.916117
 21
4.8
 31
0.0
  0
LINE
  8
0
 62
     0
 10
0.571125
 20
1.631785
 30
0.0
 11
3.73934
 21
4.8
 31
0.0
  0
LINE
  8
0
 62
     0
 10
0.666312
 20
1.903749
 30
0.0
 11
3.562563
 21
4.8
 31
0.0
  0
LINE
  8
0
 62
     0
 10
0.7615
 20
2.175713
 30
0.0
 11
3.385786
 21
4.8
 31
0.0
  0
LINE
  8
0
 62
     0
 10
0.856687
 20
2.447677
 30
0.0
 11
3.20901
 21
4.8
 31
0.0
  0
LINE
  8
0
 62
     0
 10
0.951875
 20
2.719641
 30
0.0
 11
3.032233
 21
4.8
 31
0.0
  0
LINE
  8
0
 62
     0
 10
1.047062
 20
2.991606
 30
0.0
 11
2.855456
 21
4.8
 31
0.0
  0
LINE
  8
0
 62
     0
 10
1.142249
 20
3.26357
 30
0.0
 11
2.67868
 21
4.8
 31
0.0
  0
LINE
  8
0
 62
     0
 10
1.237437
 20
3.535534
 30
0.0
 11
2.501903
 21
4.8
 31
0.0
  0
LINE
  8
0
 62
     0
 10
1.332624
 20
3.807498
 30
0.0
 11
2.325126
 21
4.8
 31
0.0
  0
LINE
  8
0
 62
     0
 10
1.427812
 20
4.079462
 30
0.0
 11
2.14835
 21
4.8
 31
0.0
  0
LINE
  8
0
 62
     0
 10
1.522999
 20
4.351426
 30
0.0
 11
1.971573
 21
4.8
 31
0.0
  0
LINE
  8
0
 62
     0
 10
1.618187
 20
4.62339
 30
0.0
 11
1.794796
 21
4.8
 31
0.0
  0
LINE
  8
0
 62
     0
 10
0.176777
 20
0.0
 30
0.0
 11
4.8
 21
4.623223
 31
0.0
  0
LINE
  8
0
 62
     0
 10
0.353553
 20
0.0
 30
0.0
 11
4.8
 21
4.446447
 31
0.0
  0
LINE
  8
0
 62
     0
 10
0.53033
 20
0.0
 30
0.0
 11
4.8
 21
4.26967
 31
0.0
  0
LINE
  8
0
 62
     0
 10
0.707107
 20
0.0
 30
0.0
 11
4.8
 21
4.092893
 31
0.0
  0
LINE
  8
0
 62
     0
 10
0.883883
 20
0.0
 30
0.0
 11
4.8
 21
3.916117
 31
0.0
  0
LINE
  8
0
 62
     0
 10
1.06066
 20
0.0
 30
0.0
 11
4.8
 21
3.73934
 31
0.0
  0
LINE
  8
0
 62
     0
 10
1.237437
 20
0.0
 30
0.0
 11
3.179842
 21
1.942405
 31
0.0
  0
LINE
  8
0
 62
     0
 10
3.237437
 20
2.0
 30
0.0
 11
4.8
 21
3.562563
 31
0.0
  0
LINE
  8
0
 62
     0
 10
1.414214
 20
0.0
 30
0.0
 11
3.084654
 21
1.670441
 31
0.0
  0
LINE
  8
0
 62
     0
 10
3.414214
 20
2.0
 30
0.0
 11
4.8
 21
3.385786
 31
0.0
  0
LINE
  8
0
 62
     0
 10
1.59099
 20
0.0
 30
0.0
 11
2.989467
 21
1.398477
 31
0.0
  0
LINE
  8
0
 62
     0
 10
3.59099
 20
2.0
 30
0.0
 11
4.8
 21
3.20901
 31
0.0
  0
LINE
  8
0
 62
     0
 10
1.767767
 20
0.0
 30
0.0
 11
2.894279
 21
1.126512
 31
0.0
  0
LINE
  8
0
 62
     0
 10
3.767767
 20
2.0
 30
0.0
 11
4.8
 21
3.032233
 31
0.0
  0
LINE
  8
0
 62
     0
 10
1.944544
 20
0.0
 30
0.0
 11
2.799092
 21
0.854548
 31
0.0
  0
LINE
  8
0
 62
     0
 10
3.944544
 20
2.0
 30
0.0
 11
4.8
 21
2.855456
 31
0.0
  0
LINE
  8
0
 62
     0
 10
2.12132
 20
0.0
 30
0.0
 11
2.703904
 21
0.582584
 31
0.0
  0
LINE
  8
0
 62
     0
 10
4.12132
 20
2.0
 30
0.0
 11
4.8
 21
2.67868
 31
0.0
  0
LINE
  8
0
 62
     0
 10
2.298097
 20
0.0
 30
0.0
 11
2.608717
 21
0.31062
 31
0.0
  0
LINE
  8
0
 62
     0
 10
4.298097
 20
2.0
 30
0.0
 11
4.8
 21
2.501903
 31
0.0
  0
LINE
  8
0
 62
     0
 10
2.474874
 20
0.0
 30
0.0
 11
2.51353
 21
0.038656
 31
0.0
  0
LINE
  8
0
 62
     0
 10
4.474874
 20
2.0
 30
0.0
 11
4.8
 21
2.325126
 31
0.0
  0
LINE
  8
0
 62
     0
 10
4.65165
 20
2.0
 30
0.0
 11
4.8
 21
2.14835
 31
0.0
  0
ENDBLK
  8
0
  0
BLOCK
  8
0
  2
*X14
 70
    65
 10
0.0
 20
0.0
 30
0.0
  3
*X
  0
LINE
  8
0
 62
     0
 10
6.884654
 20
1.75813
 30
0.0
 11
8.736506
 21
3.609982
 31
0.0
  0
LINE
  8
0
 62
     0
 10
6.838823
 20
1.889076
 30
0.0
 11
8.690675
 21
3.740928
 31
0.0
  0
LINE
  8
0
 62
     0
 10
6.772971
 20
2.0
 30
0.0
 11
8.644844
 21
3.871874
 31
0.0
  0
LINE
  8
0
 62
     0
 10
6.596194
 20
2.0
 30
0.0
 11
8.599013
 21
4.002819
 31
0.0
  0
LINE
  8
0
 62
     0
 10
6.419417
 20
2.0
 30
0.0
 11
8.553182
 21
4.133765
 31
0.0
  0
LINE
  8
0
 62
     0
 10
6.242641
 20
2.0
 30
0.0
 11
8.507351
 21
4.264711
 31
0.0
  0
LINE
  8
0
 62
     0
 10
6.065864
 20
2.0
 30
0.0
 11
8.46152
 21
4.395656
 31
0.0
  0
LINE
  8
0
 62
     0
 10
5.889087
 20
2.0
 30
0.0
 11
8.415689
 21
4.526602
 31
0.0
  0
LINE
  8
0
 62
     0
 10
5.712311
 20
2.0
 30
0.0
 11
8.369858
 21
4.657548
 31
0.0
  0
LINE
  8
0
 62
     0
 10
5.535534
 20
2.0
 30
0.0
 11
8.324027
 21
4.788493
 31
0.0
  0
LINE
  8
0
 62
     0
 10
5.358757
 20
2.0
 30
0.0
 11
8.158757
 21
4.8
 31
0.0
  0
LINE
  8
0
 62
     0
 10
5.2
 20
2.018019
 30
0.0
 11
7.981981
 21
4.8
 31
0.0
  0
LINE
  8
0
 62
     0
 10
5.2
 20
2.194796
 30
0.0
 11
7.805204
 21
4.8
 31
0.0
  0
LINE
  8
0
 62
     0
 10
5.2
 20
2.371573
 30
0.0
 11
7.628427
 21
4.8
 31
0.0
  0
LINE
  8
0
 62
     0
 10
5.2
 20
2.54835
 30
0.0
 11
7.45165
 21
4.8
 31
0.0
  0
LINE
  8
0
 62
     0
 10
5.2
 20
2.725126
 30
0.0
 11
7.274874
 21
4.8
 31
0.0
  0
LINE
  8
0
 62
     0
 10
5.2
 20
2.901903
 30
0.0
 11
7.098097
 21
4.8
 31
0.0
  0
LINE
  8
0
 62
     0
 10
5.2
 20
3.07868
 30
0.0
 11
6.92132
 21
4.8
 31
0.0
  0
LINE
  8
0
 62
     0
 10
5.2
 20
3.255456
 30
0.0
 11
6.744544
 21
4.8
 31
0.0
  0
LINE
  8
0
 62
     0
 10
5.2
 20
3.432233
 30
0.0
 11
6.567767
 21
4.8
 31
0.0
  0
LINE
  8
0
 62
     0
 10
5.2
 20
3.60901
 30
0.0
 11
6.39099
 21
4.8
 31
0.0
  0
LINE
  8
0
 62
     0
 10
5.2
 20
3.785786
 30
0.0
 11
6.214214
 21
4.8
 31
0.0
  0
LINE
  8
0
 62
     0
 10
5.2
 20
3.962563
 30
0.0
 11
6.037437
 21
4.8
 31
0.0
  0
LINE
  8
0
 62
     0
 10
5.2
 20
4.13934
 30
0.0
 11
5.86066
 21
4.8
 31
0.0
  0
LINE
  8
0
 62
     0
 10
5.2
 20
4.316117
 30
0.0
 11
5.683883
 21
4.8
 31
0.0
  0
LINE
  8
0
 62
     0
 10
5.2
 20
4.492893
 30
0.0
 11
5.507107
 21
4.8
 31
0.0
  0
LINE
  8
0
 62
     0
 10
5.2
 20
4.66967
 30
0.0
 11
5.33033
 21
4.8
 31
0.0
  0
LINE
  8
0
 62
     0
 10
6.930485
 20
1.627185
 30
0.0
 11
8.782337
 21
3.479036
 31
0.0
  0
LINE
  8
0
 62
     0
 10
6.976316
 20
1.496239
 30
0.0
 11
8.828168
 21
3.348091
 31
0.0
  0
LINE
  8
0
 62
     0
 10
7.022147
 20
1.365293
 30
0.0
 11
8.873999
 21
3.217145
 31
0.0
  0
LINE
  8
0
 62
     0
 10
7.067978
 20
1.234347
 30
0.0
 11
8.91983
 21
3.086199
 31
0.0
  0
LINE
  8
0
 62
     0
 10
7.113809
 20
1.103402
 30
0.0
 11
8.965661
 21
2.955254
 31
0.0
  0
LINE
  8
0
 62
     0
 10
7.15964
 20
0.972456
 30
0.0
 11
9.011492
 21
2.824308
 31
0.0
  0
LINE
  8
0
 62
     0
 10
7.205471
 20
0.84151
 30
0.0
 11
9.057323
 21
2.693362
 31
0.0
  0
LINE
  8
0
 62
     0
 10
7.251302
 20
0.710565
 30
0.0
 11
9.103154
 21
2.562416
 31
0.0
  0
LINE
  8
0
 62
     0
 10
7.297133
 20
0.579619
 30
0.0
 11
9.148985
 21
2.431471
 31
0.0
  0
LINE
  8
0
 62
     0
 10
7.342964
 20
0.448673
 30
0.0
 11
9.194816
 21
2.300525
 31
0.0
  0
LINE
  8
0
 62
     0
 10
7.388795
 20
0.317728
 30
0.0
 11
9.240647
 21
2.169579
 31
0.0
  0
LINE
  8
0
 62
     0
 10
7.434626
 20
0.186782
 30
0.0
 11
9.286478
 21
2.038634
 31
0.0
  0
LINE
  8
0
 62
     0
 10
7.480457
 20
0.055836
 30
0.0
 11
9.332309
 21
1.907688
 31
0.0
  0
LINE
  8
0
 62
     0
 10
7.601398
 20
0.0
 30
0.0
 11
9.37814
 21
1.776742
 31
0.0
  0
LINE
  8
0
 62
     0
 10
7.778175
 20
0.0
 30
0.0
 11
9.423971
 21
1.645797
 31
0.0
  0
LINE
  8
0
 62
     0
 10
7.954951
 20
0.0
 30
0.0
 11
9.469802
 21
1.514851
 31
0.0
  0
LINE
  8
0
 62
     0
 10
8.131728
 20
0.0
 30
0.0
 11
9.515633
 21
1.383905
 31
0.0
  0
LINE
  8
0
 62
     0
 10
8.308505
 20
0.0
 30
0.0
 11
9.561464
 21
1.252959
 31
0.0
  0
LINE
  8
0
 62
     0
 10
8.485281
 20
0.0
 30
0.0
 11
9.607295
 21
1.122014
 31
0.0
  0
LINE
  8
0
 62
     0
 10
8.662058
 20
0.0
 30
0.0
 11
9.653126
 21
0.991068
 31
0.0
  0
LINE
  8
0
 62
     0
 10
8.838835
 20
0.0
 30
0.0
 11
9.698957
 21
0.860122
 31
0.0
  0
LINE
  8
0
 62
     0
 10
9.015611
 20
0.0
 30
0.0
 11
9.744788
 21
0.729177
 31
0.0
  0
LINE
  8
0
 62
     0
 10
9.192388
 20
0.0
 30
0.0
 11
9.790619
 21
0.598231
 31
0.0
  0
LINE
  8
0
 62
     0
 10
9.369165
 20
0.0
 30
0.0
 11
9.83645
 21
0.467285
 31
0.0
  0
LINE
  8
0
 62
     0
 10
9.545942
 20
0.0
 30
0.0
 11
9.882281
 21
0.33634
 31
0.0
  0
LINE
  8
0
 62
     0
 10
9.722718
 20
0.0
 30
0.0
 11
9.928112
 21
0.205394
 31
0.0
  0
LINE
  8
0
 62
     0
 10
9.899495
 20
0.0
 30
0.0
 11
9.973943
 21
0.074448
 31
0.0
  0
ENDBLK
  8
0
  0
BLOCK
  8
0
  2
*X15
 70
    65
 10
0.0
 20
0.0
 30
0.0
  3
*X
  0
LINE
  8
0
 62
     0
 10
10.7
 20
6.280583
 30
0.0
 11
13.5
 21
9.080583
 31
0.0
  0
LINE
  8
0
 62
     0
 10
10.7
 20
6.457359
 30
0.0
 11
13.5
 21
9.257359
 31
0.0
  0
LINE
  8
0
 62
     0
 10
10.7
 20
6.634136
 30
0.0
 11
13.5
 21
9.434136
 31
0.0
  0
LINE
  8
0
 62
     0
 10
10.7
 20
6.810913
 30
0.0
 11
13.5
 21
9.610913
 31
0.0
  0
LINE
  8
0
 62
     0
 10
10.7
 20
6.987689
 30
0.0
 11
13.5
 21
9.787689
 31
0.0
  0
LINE
  8
0
 62
     0
 10
10.7
 20
7.164466
 30
0.0
 11
13.5
 21
9.964466
 31
0.0
  0
LINE
  8
0
 62
     0
 10
10.7
 20
7.341243
 30
0.0
 11
13.358757
 21
10.0
 31
0.0
  0
LINE
  8
0
 62
     0
 10
10.7
 20
7.518019
 30
0.0
 11
13.181981
 21
10.0
 31
0.0
  0
LINE
  8
0
 62
     0
 10
10.7
 20
7.694796
 30
0.0
 11
13.005204
 21
10.0
 31
0.0
  0
LINE
  8
0
 62
     0
 10
10.7
 20
7.871573
 30
0.0
 11
12.828427
 21
10.0
 31
0.0
  0
LINE
  8
0
 62
     0
 10
10.7
 20
8.04835
 30
0.0
 11
12.65165
 21
10.0
 31
0.0
  0
LINE
  8
0
 62
     0
 10
10.7
 20
8.225126
 30
0.0
 11
12.474874
 21
10.0
 31
0.0
  0
LINE
  8
0
 62
     0
 10
10.7
 20
8.401903
 30
0.0
 11
12.298097
 21
10.0
 31
0.0
  0
LINE
  8
0
 62
     0
 10
10.7
 20
8.57868
 30
0.0
 11
12.12132
 21
10.0
 31
0.0
  0
LINE
  8
0
 62
     0
 10
10.7
 20
8.755456
 30
0.0
 11
11.944544
 21
10.0
 31
0.0
  0
LINE
  8
0
 62
     0
 10
10.7
 20
8.932233
 30
0.0
 11
11.767767
 21
10.0
 31
0.0
  0
LINE
  8
0
 62
     0
 10
10.7
 20
9.10901
 30
0.0
 11
11.59099
 21
10.0
 31
0.0
  0
LINE
  8
0
 62
     0
 10
10.7
 20
9.285786
 30
0.0
 11
11.414214
 21
10.0
 31
0.0
  0
LINE
  8
0
 62
     0
 10
10.7
 20
9.462563
 30
0.0
 11
11.237437
 21
10.0
 31
0.0
  0
LINE
  8
0
 62
     0
 10
10.7
 20
9.63934
 30
0.0
 11
11.06066
 21
10.0
 31
0.0
  0
LINE
  8
0
 62
     0
 10
10.7
 20
9.816117
 30
0.0
 11
10.883883
 21
10.0
 31
0.0
  0
LINE
  8
0
 62
     0
 10
10.7
 20
9.992893
 30
0.0
 11
10.707107
 21
10.0
 31
0.0
  0
LINE
  8
0
 62
     0
 10
10.7
 20
6.103806
 30
0.0
 11
13.5
 21
8.903806
 31
0.0
  0
LINE
  8
0
 62
     0
 10
10.7
 20
5.927029
 30
0.0
 11
13.5
 21
8.727029
 31
0.0
  0
LINE
  8
0
 62
     0
 10
10.7
 20
5.750253
 30
0.0
 11
13.5
 21
8.550253
 31
0.0
  0
LINE
  8
0
 62
     0
 10
10.7
 20
5.573476
 30
0.0
 11
13.5
 21
8.373476
 31
0.0
  0
LINE
  8
0
 62
     0
 10
10.7
 20
5.396699
 30
0.0
 11
13.5
 21
8.196699
 31
0.0
  0
LINE
  8
0
 62
     0
 10
10.7
 20
5.219922
 30
0.0
 11
13.5
 21
8.019922
 31
0.0
  0
LINE
  8
0
 62
     0
 10
10.856854
 20
5.2
 30
0.0
 11
13.5
 21
7.843146
 31
0.0
  0
LINE
  8
0
 62
     0
 10
11.033631
 20
5.2
 30
0.0
 11
13.5
 21
7.666369
 31
0.0
  0
LINE
  8
0
 62
     0
 10
11.210408
 20
5.2
 30
0.0
 11
13.5
 21
7.489592
 31
0.0
  0
LINE
  8
0
 62
     0
 10
11.387184
 20
5.2
 30
0.0
 11
13.5
 21
7.312816
 31
0.0
  0
LINE
  8
0
 62
     0
 10
11.563961
 20
5.2
 30
0.0
 11
13.5
 21
7.136039
 31
0.0
  0
LINE
  8
0
 62
     0
 10
11.740738
 20
5.2
 30
0.0
 11
13.5
 21
6.959262
 31
0.0
  0
LINE
  8
0
 62
     0
 10
11.917514
 20
5.2
 30
0.0
 11
13.5
 21
6.782486
 31
0.0
  0
LINE
  8
0
 62
     0
 10
12.094291
 20
5.2
 30
0.0
 11
13.5
 21
6.605709
 31
0.0
  0
LINE
  8
0
 62
     0
 10
12.271068
 20
5.2
 30
0.0
 11
13.5
 21
6.428932
 31
0.0
  0
LINE
  8
0
 62
     0
 10
12.447845
 20
5.2
 30
0.0
 11
13.5
 21
6.252155
 31
0.0
  0
LINE
  8
0
 62
     0
 10
12.624621
 20
5.2
 30
0.0
 11
13.5
 21
6.075379
 31
0.0
  0
LINE
  8
0
 62
     0
 10
12.801398
 20
5.2
 30
0.0
 11
13.5
 21
5.898602
 31
0.0
  0
LINE
  8
0
 62
     0
 10
12.978175
 20
5.2
 30
0.0
 11
13.5
 21
5.721825
 31
0.0
  0
LINE
  8
0
 62
     0
 10
13.154951
 20
5.2
 30
0.0
 11
13.5
 21
5.545049
 31
0.0
  0
LINE
  8
0
 62
     0
 10
13.331728
 20
5.2
 30
0.0
 11
13.5
 21
5.368272
 31
0.0
  0
ENDBLK
  8
0
  0
BLOCK
  8
0
  2
*X16
 70
    65
 10
0.0
 20
0.0
 30
0.0
  3
*X
  0
LINE
  8
0
 62
     0
 10
10.7
 20
1.154058
 30
0.0
 11
13.5
 21
3.954058
 31
0.0
  0
LINE
  8
0
 62
     0
 10
10.7
 20
1.330835
 30
0.0
 11
13.5
 21
4.130835
 31
0.0
  0
LINE
  8
0
 62
     0
 10
10.7
 20
1.507612
 30
0.0
 11
13.5
 21
4.307612
 31
0.0
  0
LINE
  8
0
 62
     0
 10
10.7
 20
1.684389
 30
0.0
 11
13.5
 21
4.484389
 31
0.0
  0
LINE
  8
0
 62
     0
 10
10.7
 20
1.861165
 30
0.0
 11
13.5
 21
4.661165
 31
0.0
  0
LINE
  8
0
 62
     0
 10
10.7
 20
2.037942
 30
0.0
 11
13.462058
 21
4.8
 31
0.0
  0
LINE
  8
0
 62
     0
 10
10.7
 20
2.214719
 30
0.0
 11
13.285281
 21
4.8
 31
0.0
  0
LINE
  8
0
 62
     0
 10
10.7
 20
2.391495
 30
0.0
 11
13.108505
 21
4.8
 31
0.0
  0
LINE
  8
0
 62
     0
 10
10.7
 20
2.568272
 30
0.0
 11
12.931728
 21
4.8
 31
0.0
  0
LINE
  8
0
 62
     0
 10
10.7
 20
2.745049
 30
0.0
 11
12.754951
 21
4.8
 31
0.0
  0
LINE
  8
0
 62
     0
 10
10.7
 20
2.921825
 30
0.0
 11
12.578175
 21
4.8
 31
0.0
  0
LINE
  8
0
 62
     0
 10
10.7
 20
3.098602
 30
0.0
 11
12.401398
 21
4.8
 31
0.0
  0
LINE
  8
0
 62
     0
 10
10.7
 20
3.275379
 30
0.0
 11
12.224621
 21
4.8
 31
0.0
  0
LINE
  8
0
 62
     0
 10
10.7
 20
3.452155
 30
0.0
 11
12.047845
 21
4.8
 31
0.0
  0
LINE
  8
0
 62
     0
 10
10.7
 20
3.628932
 30
0.0
 11
11.871068
 21
4.8
 31
0.0
  0
LINE
  8
0
 62
     0
 10
10.7
 20
3.805709
 30
0.0
 11
11.694291
 21
4.8
 31
0.0
  0
LINE
  8
0
 62
     0
 10
10.7
 20
3.982486
 30
0.0
 11
11.517514
 21
4.8
 31
0.0
  0
LINE
  8
0
 62
     0
 10
10.7
 20
4.159262
 30
0.0
 11
11.340738
 21
4.8
 31
0.0
  0
LINE
  8
0
 62
     0
 10
10.7
 20
4.336039
 30
0.0
 11
11.163961
 21
4.8
 31
0.0
  0
LINE
  8
0
 62
     0
 10
10.7
 20
4.512816
 30
0.0
 11
10.987184
 21
4.8
 31
0.0
  0
LINE
  8
0
 62
     0
 10
10.7
 20
4.689592
 30
0.0
 11
10.810408
 21
4.8
 31
0.0
  0
LINE
  8
0
 62
     0
 10
10.7
 20
0.977282
 30
0.0
 11
13.5
 21
3.777282
 31
0.0
  0
LINE
  8
0
 62
     0
 10
10.7
 20
0.800505
 30
0.0
 11
13.5
 21
3.600505
 31
0.0
  0
LINE
  8
0
 62
     0
 10
10.7
 20
0.623728
 30
0.0
 11
13.5
 21
3.423728
 31
0.0
  0
LINE
  8
0
 62
     0
 10
10.7
 20
0.446952
 30
0.0
 11
13.5
 21
3.246952
 31
0.0
  0
LINE
  8
0
 62
     0
 10
10.7
 20
0.270175
 30
0.0
 11
13.5
 21
3.070175
 31
0.0
  0
LINE
  8
0
 62
     0
 10
10.7
 20
0.093398
 30
0.0
 11
13.5
 21
2.893398
 31
0.0
  0
LINE
  8
0
 62
     0
 10
10.783378
 20
0.0
 30
0.0
 11
13.5
 21
2.716622
 31
0.0
  0
LINE
  8
0
 62
     0
 10
10.960155
 20
0.0
 30
0.0
 11
13.5
 21
2.539845
 31
0.0
  0
LINE
  8
0
 62
     0
 10
11.136932
 20
0.0
 30
0.0
 11
13.5
 21
2.363068
 31
0.0
  0
LINE
  8
0
 62
     0
 10
11.313708
 20
0.0
 30
0.0
 11
13.5
 21
2.186292
 31
0.0
  0
LINE
  8
0
 62
     0
 10
11.490485
 20
0.0
 30
0.0
 11
13.5
 21
2.009515
 31
0.0
  0
LINE
  8
0
 62
     0
 10
11.667262
 20
0.0
 30
0.0
 11
13.5
 21
1.832738
 31
0.0
  0
LINE
  8
0
 62
     0
 10
11.844039
 20
0.0
 30
0.0
 11
13.5
 21
1.655961
 31
0.0
  0
LINE
  8
0
 62
     0
 10
12.020815
 20
0.0
 30
0.0
 11
13.5
 21
1.479185
 31
0.0
  0
LINE
  8
0
 62
     0
 10
12.197592
 20
0.0
 30
0.0
 11
13.5
 21
1.302408
 31
0.0
  0
LINE
  8
0
 62
     0
 10
12.374369
 20
0.0
 30
0.0
 11
13.5
 21
1.125631
 31
0.0
  0
LINE
  8
0
 62
     0
 10
12.551145
 20
0.0
 30
0.0
 11
13.5
 21
0.948855
 31
0.0
  0
LINE
  8
0
 62
     0
 10
12.727922
 20
0.0
 30
0.0
 11
13.5
 21
0.772078
 31
0.0
  0
LINE
  8
0
 62
     0
 10
12.904699
 20
0.0
 30
0.0
 11
13.5
 21
0.595301
 31
0.0
  0
LINE
  8
0
 62
     0
 10
13.081475
 20
0.0
 30
0.0
 11
13.5
 21
0.418525
 31
0.0
  0
LINE
  8
0
 62
     0
 10
13.258252
 20
0.0
 30
0.0
 11
13.5
 21
0.241748
 31
0.0
  0
LINE
  8
0
 62
     0
 10
13.435029
 20
0.0
 30
0.0
 11
13.5
 21
0.064971
 31
0.0
  0
ENDBLK
  8
0
  0
BLOCK
  8
0
  2
*X17
 70
    65
 10
0.0
 20
0.0
 30
0.0
  3
*X
  0
LINE
  8
0
 62
     0
 10
13.9
 20
6.298602
 30
0.0
 11
16.582995
 21
8.981597
 31
0.0
  0
LINE
  8
0
 62
     0
 10
13.9
 20
6.475379
 30
0.0
 11
16.510503
 21
9.085882
 31
0.0
  0
LINE
  8
0
 62
     0
 10
13.9
 20
6.652155
 30
0.0
 11
16.432927
 21
9.185083
 31
0.0
  0
LINE
  8
0
 62
     0
 10
13.9
 20
6.828932
 30
0.0
 11
16.350372
 21
9.279304
 31
0.0
  0
LINE
  8
0
 62
     0
 10
13.9
 20
7.005709
 30
0.0
 11
16.262892
 21
9.368601
 31
0.0
  0
LINE
  8
0
 62
     0
 10
13.9
 20
7.182486
 30
0.0
 11
16.170495
 21
9.452981
 31
0.0
  0
LINE
  8
0
 62
     0
 10
13.9
 20
7.359262
 30
0.0
 11
16.073145
 21
9.532407
 31
0.0
  0
LINE
  8
0
 62
     0
 10
13.9
 20
7.536039
 30
0.0
 11
15.970755
 21
9.606794
 31
0.0
  0
LINE
  8
0
 62
     0
 10
13.9
 20
7.712816
 30
0.0
 11
15.863189
 21
9.676004
 31
0.0
  0
LINE
  8
0
 62
     0
 10
13.9
 20
7.889592
 30
0.0
 11
15.75025
 21
9.739843
 31
0.0
  0
LINE
  8
0
 62
     0
 10
13.9
 20
8.066369
 30
0.0
 11
15.631675
 21
9.798044
 31
0.0
  0
LINE
  8
0
 62
     0
 10
13.9
 20
8.243146
 30
0.0
 11
15.50711
 21
9.850256
 31
0.0
  0
LINE
  8
0
 62
     0
 10
13.9
 20
8.419922
 30
0.0
 11
15.376096
 21
9.896018
 31
0.0
  0
LINE
  8
0
 62
     0
 10
13.9
 20
8.596699
 30
0.0
 11
15.238027
 21
9.934726
 31
0.0
  0
LINE
  8
0
 62
     0
 10
13.9
 20
8.773476
 30
0.0
 11
15.092096
 21
9.965572
 31
0.0
  0
LINE
  8
0
 62
     0
 10
13.9
 20
8.950253
 30
0.0
 11
14.937209
 21
9.987461
 31
0.0
  0
LINE
  8
0
 62
     0
 10
13.9
 20
9.127029
 30
0.0
 11
14.771824
 21
9.998853
 31
0.0
  0
LINE
  8
0
 62
     0
 10
13.9
 20
9.303806
 30
0.0
 11
14.596193
 21
9.999999
 31
0.0
  0
LINE
  8
0
 62
     0
 10
13.9
 20
9.480583
 30
0.0
 11
14.419417
 21
9.999999
 31
0.0
  0
LINE
  8
0
 62
     0
 10
13.9
 20
9.657359
 30
0.0
 11
14.24264
 21
10.0
 31
0.0
  0
LINE
  8
0
 62
     0
 10
13.9
 20
9.834136
 30
0.0
 11
14.065864
 21
10.0
 31
0.0
  0
LINE
  8
0
 62
     0
 10
13.9
 20
6.121825
 30
0.0
 11
16.650245
 21
8.872071
 31
0.0
  0
LINE
  8
0
 62
     0
 10
13.9
 20
5.945049
 30
0.0
 11
16.712035
 21
8.757083
 31
0.0
  0
LINE
  8
0
 62
     0
 10
13.9
 20
5.768272
 30
0.0
 11
16.768067
 21
8.636339
 31
0.0
  0
LINE
  8
0
 62
     0
 10
13.9
 20
5.591495
 30
0.0
 11
16.817955
 21
8.509451
 31
0.0
  0
LINE
  8
0
 62
     0
 10
13.9
 20
5.414719
 30
0.0
 11
16.861189
 21
8.375908
 31
0.0
  0
LINE
  8
0
 62
     0
 10
13.9
 20
5.237942
 30
0.0
 11
16.897097
 21
8.235039
 31
0.0
  0
LINE
  8
0
 62
     0
 10
14.038835
 20
5.2
 30
0.0
 11
16.924779
 21
8.085944
 31
0.0
  0
LINE
  8
0
 62
     0
 10
14.215611
 20
5.2
 30
0.0
 11
16.942997
 21
7.927385
 31
0.0
  0
LINE
  8
0
 62
     0
 10
14.392388
 20
5.2
 30
0.0
 11
16.949987
 21
7.757599
 31
0.0
  0
LINE
  8
0
 62
     0
 10
14.569165
 20
5.2
 30
0.0
 11
16.943101
 21
7.573936
 31
0.0
  0
LINE
  8
0
 62
     0
 10
14.745942
 20
5.2
 30
0.0
 11
16.918037
 21
7.372095
 31
0.0
  0
LINE
  8
0
 62
     0
 10
14.922718
 20
5.2
 30
0.0
 11
16.866909
 21
7.144191
 31
0.0
  0
LINE
  8
0
 62
     0
 10
15.099495
 20
5.2
 30
0.0
 11
16.771715
 21
6.87222
 31
0.0
  0
LINE
  8
0
 62
     0
 10
15.276272
 20
5.2
 30
0.0
 11
15.847951
 21
5.77168
 31
0.0
  0
LINE
  8
0
 62
     0
 10
15.96673
 20
5.890458
 30
0.0
 11
16.559542
 21
6.48327
 31
0.0
  0
LINE
  8
0
 62
     0
 10
15.453048
 20
5.2
 30
0.0
 11
15.970661
 21
5.717613
 31
0.0
  0
LINE
  8
0
 62
     0
 10
15.629825
 20
5.2
 30
0.0
 11
16.088934
 21
5.659109
 31
0.0
  0
LINE
  8
0
 62
     0
 10
15.806602
 20
5.2
 30
0.0
 11
16.202964
 21
5.596363
 31
0.0
  0
LINE
  8
0
 62
     0
 10
15.983378
 20
5.2
 30
0.0
 11
16.312909
 21
5.529531
 31
0.0
  0
LINE
  8
0
 62
     0
 10
16.160155
 20
5.2
 30
0.0
 11
16.418895
 21
5.45874
 31
0.0
  0
LINE
  8
0
 62
     0
 10
16.336932
 20
5.2
 30
0.0
 11
16.521021
 21
5.384089
 31
0.0
  0
LINE
  8
0
 62
     0
 10
16.513708
 20
5.2
 30
0.0
 11
16.619363
 21
5.305655
 31
0.0
  0
LINE
  8
0
 62
     0
 10
16.690485
 20
5.2
 30
0.0
 11
16.713975
 21
5.22349
 31
0.0
  0
ENDBLK
  8
0
  0
BLOCK
  8
0
  2
*X18
 70
    65
 10
0.0
 20
0.0
 30
0.0
  3
*X
  0
LINE
  8
0
 62
     0
 10
13.9
 20
0.818525
 30
0.0
 11
17.39645
 21
4.314974
 31
0.0
  0
LINE
  8
0
 62
     0
 10
13.9
 20
0.995301
 30
0.0
 11
17.336354
 21
4.431655
 31
0.0
  0
LINE
  8
0
 62
     0
 10
13.9
 20
1.172078
 30
0.0
 11
17.272078
 21
4.544156
 31
0.0
  0
LINE
  8
0
 62
     0
 10
13.9
 20
1.348855
 30
0.0
 11
17.203766
 21
4.652621
 31
0.0
  0
LINE
  8
0
 62
     0
 10
13.9
 20
1.525631
 30
0.0
 11
17.131535
 21
4.757167
 31
0.0
  0
LINE
  8
0
 62
     0
 10
13.9
 20
1.702408
 30
0.0
 11
16.997592
 21
4.8
 31
0.0
  0
LINE
  8
0
 62
     0
 10
13.9
 20
1.879185
 30
0.0
 11
16.820815
 21
4.8
 31
0.0
  0
LINE
  8
0
 62
     0
 10
13.9
 20
2.055961
 30
0.0
 11
16.644039
 21
4.8
 31
0.0
  0
LINE
  8
0
 62
     0
 10
13.9
 20
2.232738
 30
0.0
 11
16.467262
 21
4.8
 31
0.0
  0
LINE
  8
0
 62
     0
 10
13.9
 20
2.409515
 30
0.0
 11
16.290485
 21
4.8
 31
0.0
  0
LINE
  8
0
 62
     0
 10
13.9
 20
2.586292
 30
0.0
 11
16.113708
 21
4.8
 31
0.0
  0
LINE
  8
0
 62
     0
 10
13.9
 20
2.763068
 30
0.0
 11
15.936932
 21
4.8
 31
0.0
  0
LINE
  8
0
 62
     0
 10
13.9
 20
2.939845
 30
0.0
 11
15.760155
 21
4.8
 31
0.0
  0
LINE
  8
0
 62
     0
 10
13.9
 20
3.116622
 30
0.0
 11
15.583378
 21
4.8
 31
0.0
  0
LINE
  8
0
 62
     0
 10
13.9
 20
3.293398
 30
0.0
 11
15.406602
 21
4.8
 31
0.0
  0
LINE
  8
0
 62
     0
 10
13.9
 20
3.470175
 30
0.0
 11
15.229825
 21
4.8
 31
0.0
  0
LINE
  8
0
 62
     0
 10
13.9
 20
3.646952
 30
0.0
 11
15.053048
 21
4.8
 31
0.0
  0
LINE
  8
0
 62
     0
 10
13.9
 20
3.823728
 30
0.0
 11
14.876272
 21
4.8
 31
0.0
  0
LINE
  8
0
 62
     0
 10
13.9
 20
4.000505
 30
0.0
 11
14.699495
 21
4.8
 31
0.0
  0
LINE
  8
0
 62
     0
 10
13.9
 20
4.177282
 30
0.0
 11
14.522718
 21
4.8
 31
0.0
  0
LINE
  8
0
 62
     0
 10
13.9
 20
4.354058
 30
0.0
 11
14.345942
 21
4.8
 31
0.0
  0
LINE
  8
0
 62
     0
 10
13.9
 20
4.530835
 30
0.0
 11
14.169165
 21
4.8
 31
0.0
  0
LINE
  8
0
 62
     0
 10
13.9
 20
4.707612
 30
0.0
 11
13.992388
 21
4.8
 31
0.0
  0
LINE
  8
0
 62
     0
 10
13.9
 20
0.641748
 30
0.0
 11
17.452185
 21
4.193933
 31
0.0
  0
LINE
  8
0
 62
     0
 10
13.9
 20
0.464971
 30
0.0
 11
17.503339
 21
4.068311
 31
0.0
  0
LINE
  8
0
 62
     0
 10
13.9
 20
0.288194
 30
0.0
 11
17.549642
 21
3.937837
 31
0.0
  0
LINE
  8
0
 62
     0
 10
13.9
 20
0.111418
 30
0.0
 11
17.590762
 21
3.80218
 31
0.0
  0
LINE
  8
0
 62
     0
 10
13.965359
 20
0.0
 30
0.0
 11
17.62629
 21
3.660931
 31
0.0
  0
LINE
  8
0
 62
     0
 10
14.142136
 20
0.000001
 30
0.0
 11
17.655713
 21
3.513577
 31
0.0
  0
LINE
  8
0
 62
     0
 10
14.318913
 20
0.000001
 30
0.0
 11
17.678385
 21
3.359473
 31
0.0
  0
LINE
  8
0
 62
     0
 10
14.49569
 20
0.000001
 30
0.0
 11
17.693473
 21
3.197784
 31
0.0
  0
LINE
  8
0
 62
     0
 10
14.672467
 20
0.000002
 30
0.0
 11
17.699875
 21
3.027409
 31
0.0
  0
LINE
  8
0
 62
     0
 10
14.853154
 20
0.003912
 30
0.0
 11
17.696088
 21
2.846846
 31
0.0
  0
LINE
  8
0
 62
     0
 10
15.046044
 20
0.020025
 30
0.0
 11
17.679975
 21
2.653956
 31
0.0
  0
LINE
  8
0
 62
     0
 10
15.254483
 20
0.051687
 30
0.0
 11
17.648313
 21
2.445517
 31
0.0
  0
LINE
  8
0
 62
     0
 10
15.483762
 20
0.10419
 30
0.0
 11
17.59581
 21
2.216238
 31
0.0
  0
LINE
  8
0
 62
     0
 10
15.743786
 20
0.187437
 30
0.0
 11
17.512563
 21
1.956214
 31
0.0
  0
LINE
  8
0
 62
     0
 10
16.058176
 20
0.32505
 30
0.0
 11
17.37495
 21
1.641824
 31
0.0
  0
LINE
  8
0
 62
     0
 10
16.54193
 20
0.632028
 30
0.0
 11
17.067972
 21
1.15807
 31
0.0
  0
ENDBLK
  8
0
  0
BLOCK
  8
0
  2
B155
 70
     0
 10
0.0
 20
0.0
 30
0.0
  3
B155
  0
LINE
  8
0
  6
CONTINUOUS
 10
0.0
 20
0.0
 30
0.0
 11
0.0
 21
-1.35427
 31
0.0
  0
LINE
  8
0
  6
CONTINUOUS
 10
-1.210228
 20
-1.35427
 30
0.0
 11
-0.015887
 21
-1.35427
 31
0.0
  0
LINE
  8
0
  6
CONTINUOUS
 10
-0.015887
 20
-1.35427
 30
0.0
 11
1.178454
 21
-1.35427
 31
0.0
  0
LINE
  8
0
  6
CONTINUOUS
 10
-0.831823
 20
-1.833881
 30
0.0
 11
0.752749
 21
-1.833881
 31
0.0
  0
LINE
  8
0
  6
CONTINUOUS
 10
-0.500718
 20
-2.322055
 30
0.0
 11
0.386169
 21
-2.322055
 31
0.0
  0
ENDBLK
  8
0
  0
BLOCK
  8
0
  2
MAA
 70
    64
 10
0.0
 20
0.0
 30
0.0
  3
MAA
  0
LINE
  8
0
  6
CONTINUOUS
 10
-0.500718
 20
-2.587966
 30
0.0
 11
0.386169
 21
-2.587966
 31
0.0
  0
LINE
  8
0
  6
CONTINUOUS
 10
-0.831823
 20
-1.976333
 30
0.0
 11
0.752749
 21
-1.976333
 31
0.0
  0
LINE
  8
0
  6
CONTINUOUS
 10
-0.015887
 20
-1.35427
 30
0.0
 11
1.178454
 21
-1.35427
 31
0.0
  0
LINE
  8
0
  6
CONTINUOUS
 10
-1.210228
 20
-1.35427
 30
0.0
 11
-0.015887
 21
-1.35427
 31
0.0
  0
LINE
  8
0
  6
CONTINUOUS
 10
0.0
 20
0.0
 30
0.0
 11
0.0
 21
-1.35427
 31
0.0
  0
ENDBLK
  8
0
  0
BLOCK
  8
0
  2
B35
 70
     0
 10
0.0
 20
0.0
 30
0.0
  3
B35
  0
LINE
  8
BASE
  6
CONTINUOUS
 10
-0.020805
 20
49.573936
 30
0.0
 11
3.550053
 21
49.573936
 31
0.0
  0
LINE
  8
BASE
  6
CONTINUOUS
 10
-0.020805
 20
44.764263
 30
0.0
 11
3.550053
 21
44.764263
 31
0.0
  0
LINE
  8
BASE
  6
CONTINUOUS
 10
0.0
 20
40.0
 30
0.0
 11
15.0
 21
40.0
 31
0.0
  0
LINE
  8
BASE
  6
CONTINUOUS
 10
0.0
 20
29.574133
 30
0.0
 11
3.534195
 21
29.574133
 31
0.0
  0
LINE
  8
BASE
  6
CONTINUOUS
 10
0.0
 20
24.763478
 30
0.0
 11
3.534195
 21
24.763478
 31
0.0
  0
LINE
  8
BASE
  6
CONTINUOUS
 10
15.0
 20
20.0
 30
0.0
 11
0.0
 21
20.0
 31
0.0
  0
LINE
  8
BASE
  6
CONTINUOUS
 10
-0.000008
 20
9.573777
 30
0.0
 11
3.534195
 21
9.573777
 31
0.0
  0
LINE
  8
BASE
  6
CONTINUOUS
 10
0.0
 20
4.763594
 30
0.0
 11
3.534195
 21
4.763594
 31
0.0
  0
LINE
  8
BASE
  6
CONTINUOUS
 10
15.0
 20
0.0
 30
0.0
 11
0.0
 21
0.0
 31
0.0
  0
TEXT
  8
BASE
  6
CONTINUOUS
 10
6.80293
 20
10.994934
 30
0.0
 40
2.0
  1
2)
  0
TEXT
  8
BASE
  6
CONTINUOUS
 10
6.80293
 20
31.062499
 30
0.0
 40
2.0
  1
2)
  0
TEXT
  8
BASE
  6
CONTINUOUS
 10
6.80293
 20
51.138728
 30
0.0
 40
2.0
  1
2)
  0
CIRCLE
  8
BASE
  6
CONTINUOUS
 10
23.449551
 20
54.971218
 30
0.0
 40
1.0
  0
LINE
  8
BASE
 10
12.5
 20
44.99845
 30
0.0
 11
12.5
 21
54.99845
 31
0.0
  0
LINE
  8
BASE
 10
15.0
 20
55.0
 30
0.0
 11
17.5
 21
55.0
 31
0.0
  0
LINE
  8
BASE
 10
12.5
 20
54.99845
 30
0.0
 11
15.0
 21
54.99845
 31
0.0
  0
LINE
  8
BASE
 10
10.0
 20
50.0
 30
0.0
 11
15.0
 21
50.0
 31
0.0
  0
LINE
  8
BASE
 10
15.0
 20
50.0
 30
0.0
 11
17.5
 21
50.0
 31
0.0
  0
LINE
  8
BASE
 10
17.5
 20
50.0
 30
0.0
 11
17.5
 21
52.9
 31
0.0
  0
LINE
  8
BASE
 10
16.38095
 20
51.944425
 30
0.0
 11
17.060313
 21
51.008681
 31
0.0
  0
LINE
  8
BASE
 10
22.449552
 20
54.969558
 30
0.0
 11
16.7
 21
51.5
 31
0.0
  0
LINE
  8
BASE
 10
15.0
 20
44.99845
 30
0.0
 11
12.5
 21
44.99845
 31
0.0
  0
LINE
  8
BASE
 10
15.0
 20
45.0
 30
0.0
 11
17.5
 21
45.0
 31
0.0
  0
LINE
  8
BASE
  6
CONTINUOUS
 10
10.0
 20
50.0
 30
0.0
 11
6.0
 21
50.0
 31
0.0
  0
LINE
  8
BASE
 10
22.449552
 20
44.969558
 30
0.0
 11
16.7
 21
41.5
 31
0.0
  0
LINE
  8
BASE
 10
16.38095
 20
41.944425
 30
0.0
 11
17.060313
 21
41.008681
 31
0.0
  0
LINE
  8
BASE
 10
15.0
 20
40.0
 30
0.0
 11
17.5
 21
40.0
 31
0.0
  0
LINE
  8
BASE
 10
17.5
 20
40.0
 30
0.0
 11
17.5
 21
42.9
 31
0.0
  0
CIRCLE
  8
BASE
  6
CONTINUOUS
 10
23.449551
 20
44.971218
 30
0.0
 40
1.0
  0
LINE
  8
BASE
 10
22.449552
 20
34.969558
 30
0.0
 11
16.7
 21
31.5
 31
0.0
  0
LINE
  8
BASE
 10
16.38095
 20
31.944425
 30
0.0
 11
17.060313
 21
31.008681
 31
0.0
  0
LINE
  8
BASE
 10
17.5
 20
30.0
 30
0.0
 11
17.5
 21
32.9
 31
0.0
  0
LINE
  8
BASE
 10
15.0
 20
30.0
 30
0.0
 11
17.5
 21
30.0
 31
0.0
  0
LINE
  8
BASE
 10
10.0
 20
30.0
 30
0.0
 11
15.0
 21
30.0
 31
0.0
  0
LINE
  8
BASE
 10
12.5
 20
34.99845
 30
0.0
 11
15.0
 21
34.99845
 31
0.0
  0
LINE
  8
BASE
 10
15.0
 20
35.0
 30
0.0
 11
17.5
 21
35.0
 31
0.0
  0
CIRCLE
  8
BASE
  6
CONTINUOUS
 10
23.449551
 20
34.971218
 30
0.0
 40
1.0
  0
LINE
  8
BASE
 10
12.5
 20
24.99845
 30
0.0
 11
12.5
 21
34.99845
 31
0.0
  0
LINE
  8
BASE
 10
15.0
 20
24.99845
 30
0.0
 11
12.5
 21
24.99845
 31
0.0
  0
LINE
  8
BASE
 10
15.0
 20
25.0
 30
0.0
 11
17.5
 21
25.0
 31
0.0
  0
LINE
  8
BASE
 10
16.38095
 20
21.944425
 30
0.0
 11
17.060313
 21
21.008681
 31
0.0
  0
LINE
  8
BASE
 10
22.449552
 20
24.969558
 30
0.0
 11
16.7
 21
21.5
 31
0.0
  0
LINE
  8
BASE
 10
17.5
 20
20.0
 30
0.0
 11
17.5
 21
22.9
 31
0.0
  0
LINE
  8
BASE
 10
15.0
 20
20.0
 30
0.0
 11
17.5
 21
20.0
 31
0.0
  0
CIRCLE
  8
BASE
  6
CONTINUOUS
 10
23.449551
 20
24.971218
 30
0.0
 40
1.0
  0
LINE
  8
BASE
 10
15.0
 20
15.0
 30
0.0
 11
17.5
 21
15.0
 31
0.0
  0
LINE
  8
BASE
 10
12.5
 20
14.99845
 30
0.0
 11
15.0
 21
14.99845
 31
0.0
  0
LINE
  8
BASE
 10
10.0
 20
10.0
 30
0.0
 11
15.0
 21
10.0
 31
0.0
  0
LINE
  8
BASE
 10
15.0
 20
10.0
 30
0.0
 11
17.5
 21
10.0
 31
0.0
  0
LINE
  8
BASE
 10
17.5
 20
10.0
 30
0.0
 11
17.5
 21
12.9
 31
0.0
  0
LINE
  8
BASE
 10
16.38095
 20
11.944425
 30
0.0
 11
17.060313
 21
11.008681
 31
0.0
  0
LINE
  8
BASE
 10
22.449552
 20
14.969558
 30
0.0
 11
16.7
 21
11.5
 31
0.0
  0
LINE
  8
BASE
 10
12.5
 20
4.99845
 30
0.0
 11
12.5
 21
14.99845
 31
0.0
  0
LINE
  8
BASE
 10
15.0
 20
4.99845
 30
0.0
 11
12.5
 21
4.99845
 31
0.0
  0
LINE
  8
BASE
 10
15.0
 20
4.998451
 30
0.0
 11
17.5
 21
4.998451
 31
0.0
  0
CIRCLE
  8
BASE
  6
CONTINUOUS
 10
23.449551
 20
14.971218
 30
0.0
 40
1.0
  0
LINE
  8
BASE
 10
22.449552
 20
4.969558
 30
0.0
 11
16.7
 21
1.5
 31
0.0
  0
LINE
  8
BASE
 10
17.5
 20
0.0
 30
0.0
 11
17.5
 21
2.9
 31
0.0
  0
CIRCLE
  8
BASE
  6
CONTINUOUS
 10
23.449551
 20
4.971218
 30
0.0
 40
1.0
  0
LINE
  8
BASE
 10
15.0
 20
0.0
 30
0.0
 11
17.5
 21
0.0
 31
0.0
  0
LINE
  8
BASE
 10
16.38095
 20
1.944425
 30
0.0
 11
17.060313
 21
1.008681
 31
0.0
  0
LINE
  8
BASE
  6
CONTINUOUS
 10
24.449137
 20
55.0
 30
0.0
 11
32.5
 21
55.0
 31
0.0
  0
LINE
  8
BASE
  6
CONTINUOUS
 10
24.449137
 20
45.0
 30
0.0
 11
32.5
 21
45.0
 31
0.0
  0
LINE
  8
BASE
  6
CONTINUOUS
 10
24.449137
 20
35.0
 30
0.0
 11
32.5
 21
35.0
 31
0.0
  0
LINE
  8
BASE
  6
CONTINUOUS
 10
24.449137
 20
25.0
 30
0.0
 11
32.5
 21
25.0
 31
0.0
  0
LINE
  8
BASE
  6
CONTINUOUS
 10
24.449137
 20
15.0
 30
0.0
 11
32.5
 21
15.0
 31
0.0
  0
LINE
  8
BASE
  6
CONTINUOUS
 10
24.449137
 20
5.0
 30
0.0
 11
32.5
 21
5.0
 31
0.0
  0
LINE
  8
BASE
  6
CONTINUOUS
 10
6.0
 20
51.5
 30
0.0
 11
6.0
 21
44.5
 31
0.0
  0
LINE
  8
BASE
  6
CONTINUOUS
 10
6.0
 20
44.5
 30
0.0
 11
5.0
 21
43.5
 31
0.0
  0
LINE
  8
BASE
  6
CONTINUOUS
 10
6.0
 20
51.5
 30
0.0
 11
5.0
 21
52.5
 31
0.0
  0
LINE
  8
BASE
  6
CONTINUOUS
 10
6.0
 20
31.5
 30
0.0
 11
5.0
 21
32.5
 31
0.0
  0
LINE
  8
BASE
  6
CONTINUOUS
 10
6.0
 20
31.5
 30
0.0
 11
6.0
 21
24.5
 31
0.0
  0
LINE
  8
BASE
  6
CONTINUOUS
 10
6.0
 20
24.5
 30
0.0
 11
5.0
 21
23.5
 31
0.0
  0
LINE
  8
BASE
  6
CONTINUOUS
 10
10.0
 20
10.0
 30
0.0
 11
6.0
 21
10.0
 31
0.0
  0
LINE
  8
BASE
  6
CONTINUOUS
 10
10.0
 20
30.0
 30
0.0
 11
6.0
 21
30.0
 31
0.0
  0
TEXT
  8
BASE
  6
DASHED
 10
27.5
 20
52.265533
 30
0.0
 40
2.0
  1
3A
 11
27.5
 21
51.598866
 31
0.0
 73
     1
  0
TEXT
  8
BASE
  6
DASHED
 10
27.5
 20
42.333333
 30
0.0
 40
2.0
  1
4A
 11
27.5
 21
41.666667
 31
0.0
 73
     1
  0
TEXT
  8
BASE
  6
DASHED
 10
27.5
 20
32.037215
 30
0.0
 40
2.0
  1
5A
 11
27.5
 21
31.370548
 31
0.0
 73
     1
  0
TEXT
  8
BASE
  6
DASHED
 10
27.5
 20
22.286975
 30
0.0
 40
2.0
  1
6A
 11
27.5
 21
21.620309
 31
0.0
 73
     1
  0
TEXT
  8
BASE
  6
DASHED
 10
27.5
 20
12.333333
 30
0.0
 40
2.0
  1
7A
 11
27.5
 21
11.666667
 31
0.0
 73
     1
  0
TEXT
  8
BASE
  6
DASHED
 10
27.5
 20
2.045879
 30
0.0
 40
2.0
  1
8A
 11
27.5
 21
1.379213
 31
0.0
 73
     1
  0
TEXT
  8
BASE
  6
DASHED
 10
14.538363
 20
46.634942
 30
0.0
 40
2.0
  1
3B
 11
14.538363
 21
45.968275
 31
0.0
 73
     1
  0
TEXT
  8
BASE
  6
DASHED
 10
14.538363
 20
36.785715
 30
0.0
 40
2.0
  1
4B
 11
14.538363
 21
36.119049
 31
0.0
 73
     1
  0
TEXT
  8
BASE
  6
DASHED
 10
14.538363
 20
26.771858
 30
0.0
 40
2.0
  1
5B
 11
14.538363
 21
26.105192
 31
0.0
 73
     1
  0
TEXT
  8
BASE
  6
DASHED
 10
14.538363
 20
16.931297
 30
0.0
 40
2.0
  1
6B
 11
14.538363
 21
16.26463
 31
0.0
 73
     1
  0
TEXT
  8
BASE
  6
DASHED
 10
14.538363
 20
6.908775
 30
0.0
 40
2.0
  1
7B
 11
14.538363
 21
6.242108
 31
0.0
 73
     1
  0
TEXT
  8
BASE
  6
DASHED
 10
14.717817
 20
-3.113746
 30
0.0
 40
2.0
  1
8B
 11
14.717817
 21
-3.780413
 31
0.0
 73
     1
  0
LINE
  8
BASE
  6
CONTINUOUS
 10
6.0
 20
4.5
 30
0.0
 11
5.0
 21
3.5
 31
0.0
  0
LINE
  8
BASE
  6
CONTINUOUS
 10
6.0
 20
11.5
 30
0.0
 11
6.0
 21
4.5
 31
0.0
  0
LINE
  8
BASE
  6
CONTINUOUS
 10
6.0
 20
11.5
 30
0.0
 11
5.0
 21
12.5
 31
0.0
  0
TEXT
  8
BASE
  6
CONTINUOUS
 10
8.173717
 20
47.215999
 30
0.0
 40
2.0
  1
RI
  0
TEXT
  8
BASE
  6
CONTINUOUS
 10
8.173717
 20
17.073925
 30
0.0
 40
2.0
  1
TI
  0
TEXT
  8
BASE
  6
CONTINUOUS
 10
8.173717
 20
-2.748431
 30
0.0
 40
2.0
  1
NI
  0
TEXT
  8
BASE
  6
CONTINUOUS
 10
8.173717
 20
7.268022
 30
0.0
 40
2.0
  1
NI
  0
TEXT
  8
BASE
  6
CONTINUOUS
 10
8.173717
 20
27.255008
 30
0.0
 40
2.0
  1
TI
  0
TEXT
  8
BASE
  6
CONTINUOUS
 10
8.173717
 20
37.364177
 30
0.0
 40
2.0
  1
RI
  0
TEXT
  8
BASE
  6
CONTINUOUS
 10
12.887383
 20
59.086709
 30
0.0
 40
2.0
  1
101
  0
ENDBLK
  8
0
  0
BLOCK
  8
0
  2
B204
 70
     0
 10
0.0
 20
0.0
 30
0.0
  3
B204
  0
TEXT
  8
BASE
  6
CONTINUOUS
 10
-5.818294
 20
-13.161989
 30
0.0
 40
2.0
  1
12A
  0
TEXT
  8
BASE
  6
CONTINUOUS
 10
-5.818294
 20
-3.442734
 30
0.0
 40
2.0
  1
11A
  0
LINE
  8
BASE
  6
CONTINUOUS
 10
-5.0
 20
-10.0
 30
0.0
 11
0.0
 21
-10.0
 31
0.0
  0
LINE
  8
BASE
  6
CONTINUOUS
 10
-20.0
 20
-10.017028
 30
0.0
 11
-10.0
 21
-10.017028
 31
0.0
  0
LINE
  8
BASE
  6
CONTINUOUS
 10
-10.0
 20
-10.017028
 30
0.0
 11
-10.0
 21
-7.234339
 31
0.0
  0
LINE
  8
BASE
  6
CONTINUOUS
 10
-10.897173
 20
-7.565196
 30
0.0
 11
-11.342066
 21
-8.450894
 31
0.0
  0
LINE
  8
BASE
  6
CONTINUOUS
 10
-10.897173
 20
-7.565196
 30
0.0
 11
-5.0
 21
-10.0
 31
0.0
  0
LINE
  8
BASE
  6
CONTINUOUS
 10
-10.897173
 20
2.434804
 30
0.0
 11
-5.0
 21
0.0
 31
0.0
  0
LINE
  8
BASE
  6
CONTINUOUS
 10
-10.897173
 20
2.434804
 30
0.0
 11
-11.342066
 21
1.549106
 31
0.0
  0
LINE
  8
BASE
  6
CONTINUOUS
 10
-10.0
 20
-0.017028
 30
0.0
 11
-10.0
 21
2.765661
 31
0.0
  0
LINE
  8
BASE
  6
CONTINUOUS
 10
-20.0
 20
-0.017028
 30
0.0
 11
-10.0
 21
-0.017028
 31
0.0
  0
LINE
  8
BASE
  6
CONTINUOUS
 10
-5.0
 20
0.0
 30
0.0
 11
0.0
 21
0.0
 31
0.0
  0
ENDBLK
  8
0
  0
BLOCK
  8
0
  2
B137
 70
     0
 10
0.0
 20
0.0
 30
0.0
  3
B137
  0
LINE
  8
BASE
  6
CONTINUOUS
 10
0.0
 20
0.0
 30
0.0
 11
0.0
 21
-10.0
 31
0.0
  0
LINE
  8
BASE
  6
CONTINUOUS
 10
0.0
 20
-17.5
 30
0.0
 11
0.0
 21
-25.0
 31
0.0
  0
LINE
  8
BASE
  6
CONTINUOUS
 10
7.5
 20
-17.5
 30
0.0
 11
7.5
 21
-25.0
 31
0.0
  0
LINE
  8
BASE
  6
CONTINUOUS
 10
7.5
 20
0.0
 30
0.0
 11
7.5
 21
-10.0
 31
0.0
  0
TEXT
  8
BASE
  6
DASHED
 10
3.214777
 20
-8.15218
 30
0.0
 40
2.0
  1
2B
 50
90.0
  0
TEXT
  8
BASE
  6
DASHED
 10
10.545377
 20
-8.15218
 30
0.0
 40
2.0
  1
1B+
 50
90.0
  0
TEXT
  8
BASE
  6
DASHED
 10
18.218527
 20
-8.15218
 30
0.0
 40
2.0
  1
18B-
 50
90.0
  0
LINE
  8
BASE
  6
CONTINUOUS
 10
3.033279
 20
-4.186459
 30
0.0
 11
1.365905
 21
-4.186459
 31
0.0
  0
LINE
  8
BASE
  6
CONTINUOUS
 10
3.033279
 20
-2.499494
 30
0.0
 11
3.033279
 21
-4.186459
 31
0.0
  0
LINE
  8
BASE
  6
CONTINUOUS
 10
1.365905
 20
-2.499494
 30
0.0
 11
3.033279
 21
-2.499494
 31
0.0
  0
LINE
  8
BASE
  6
CONTINUOUS
 10
1.365905
 20
-4.186459
 30
0.0
 11
1.365905
 21
-2.499494
 31
0.0
  0
LINE
  8
BASE
  6
CONTINUOUS
 10
15.0
 20
-5.0
 30
0.0
 11
15.0
 21
-10.0
 31
0.0
  0
LINE
  8
BASE
  6
CONTINUOUS
 10
15.0
 20
-17.5
 30
0.0
 11
15.0
 21
-25.0
 31
0.0
  0
TEXT
  8
BASE
  6
CONTINUOUS
 10
3.078553
 20
-24.069736
 30
0.0
 40
2.0
  1
2A
 50
90.0
  0
TEXT
  8
BASE
  6
CONTINUOUS
 10
10.542942
 20
-24.069736
 30
0.0
 40
2.0
  1
1A
 50
90.0
  0
TEXT
  8
BASE
  6
CONTINUOUS
 10
18.210796
 20
-24.069736
 30
0.0
 40
2.0
  1
18A
 50
90.0
  0
LINE
  8
BASE
  6
CONTINUOUS
 10
14.993411
 20
-16.018035
 30
0.0
 11
17.434804
 21
-9.337159
 31
0.0
  0
LINE
  8
BASE
  6
CONTINUOUS
 10
15.0
 20
-10.0
 30
0.0
 11
17.765661
 21
-10.0
 31
0.0
  0
LINE
  8
BASE
  6
CONTINUOUS
 10
17.434804
 20
-9.337159
 30
0.0
 11
16.549106
 21
-8.892266
 31
0.0
  0
CIRCLE
  8
BASE
  6
CONTINUOUS
 10
15.0
 20
-16.758945
 30
0.0
 40
0.740939
  0
LINE
  8
BASE
  6
CONTINUOUS
 10
7.493411
 20
-16.018035
 30
0.0
 11
9.934804
 21
-9.337159
 31
0.0
  0
LINE
  8
BASE
  6
CONTINUOUS
 10
7.5
 20
-10.0
 30
0.0
 11
10.265661
 21
-10.0
 31
0.0
  0
LINE
  8
BASE
  6
CONTINUOUS
 10
9.934804
 20
-9.337159
 30
0.0
 11
9.049106
 21
-8.892266
 31
0.0
  0
CIRCLE
  8
BASE
  6
CONTINUOUS
 10
7.5
 20
-16.758945
 30
0.0
 40
0.740939
  0
LINE
  8
BASE
  6
CONTINUOUS
 10
-0.006589
 20
-16.018035
 30
0.0
 11
2.434804
 21
-9.337159
 31
0.0
  0
LINE
  8
BASE
  6
CONTINUOUS
 10
0.0
 20
-10.0
 30
0.0
 11
2.765661
 21
-10.0
 31
0.0
  0
LINE
  8
BASE
  6
CONTINUOUS
 10
2.434804
 20
-9.337159
 30
0.0
 11
1.549106
 21
-8.892266
 31
0.0
  0
CIRCLE
  8
BASE
  6
CONTINUOUS
 10
0.0
 20
-16.758945
 30
0.0
 40
0.740939
  0
ENDBLK
  8
0
  0
BLOCK
  8
0
  2
B37
 70
    64
 10
0.0
 20
0.0
 30
0.0
  3
B37
  0
LINE
  8
BASE
  6
CONTINUOUS
 10
-0.006589
 20
-6.018035
 30
0.0
 11
2.434804
 21
0.662841
 31
0.0
  0
LINE
  8
BASE
  6
CONTINUOUS
 10
0.0
 20
0.0
 30
0.0
 11
2.765661
 21
0.0
 31
0.0
  0
LINE
  8
BASE
  6
CONTINUOUS
 10
2.434804
 20
0.662841
 30
0.0
 11
1.549106
 21
1.107734
 31
0.0
  0
CIRCLE
  8
BASE
  6
CONTINUOUS
 10
0.0
 20
-6.758945
 30
0.0
 40
0.740939
  0
ENDBLK
  8
0
  0
BLOCK
  8
0
  2
B68
 70
     0
 10
0.0
 20
0.0
 30
0.0
  3
B68
  0
TEXT
  8
BASE
  6
CONTINUOUS
 10
-25.0
 20
-3.800404
 30
0.0
 40
2.0
  1
17A    17B
  0
CIRCLE
  8
BASE
  6
CONTINUOUS
 10
-2.5
 20
-2.5
 30
0.0
 40
0.806201
  0
CIRCLE
  8
BASE
  6
CONTINUOUS
 10
-2.5
 20
-2.5
 30
0.0
 40
1.484482
  0
LINE
  8
BASE
  6
CONTINUOUS
 10
-10.0
 20
0.0
 30
0.0
 11
0.0
 21
0.0
 31
0.0
  0
TEXT
  8
BASE
  6
DASHED
 10
-17.440617
 20
3.559927
 30
0.0
 40
2.0
  1
101
  0
LINE
  8
BASE
  6
DASHED
 10
-27.5
 20
0.0
 30
0.0
 11
-17.5
 21
0.0
 31
0.0
  0
LINE
  8
BASE
  6
CONTINUOUS
 10
-11.481965
 20
-0.006589
 30
0.0
 11
-18.162841
 21
2.434804
 31
0.0
  0
LINE
  8
BASE
  6
CONTINUOUS
 10
-17.5
 20
0.0
 30
0.0
 11
-17.5
 21
2.765661
 31
0.0
  0
LINE
  8
BASE
  6
CONTINUOUS
 10
-18.162841
 20
2.434804
 30
0.0
 11
-18.607734
 21
1.549106
 31
0.0
  0
CIRCLE
  8
BASE
  6
CONTINUOUS
 10
-10.741055
 20
0.0
 30
0.0
 40
0.740939
  0
ENDBLK
  8
0
  0
BLOCK
  8
0
  2
B67
 70
     0
 10
0.0
 20
0.0
 30
0.0
  3
B67
  0
LINE
  8
BASE
  6
CONTINUOUS
 10
-1.897097
 20
-3.556254
 30
0.0
 11
-2.963522
 21
-2.489829
 31
0.0
  0
LINE
  8
BASE
  6
CONTINUOUS
 10
-2.963522
 20
-2.489829
 30
0.0
 11
-1.897097
 21
-1.423405
 31
0.0
  0
LINE
  8
BASE
  6
CONTINUOUS
 10
-1.897097
 20
-1.423405
 30
0.0
 11
-0.830672
 21
-2.489829
 31
0.0
  0
LINE
  8
BASE
  6
CONTINUOUS
 10
-0.830672
 20
-2.489829
 30
0.0
 11
-1.897097
 21
-3.556254
 31
0.0
  0
LINE
  8
BASE
  6
DASHED
 10
0.0
 20
0.0
 30
0.0
 11
-5.000117
 21
0.0
 31
0.0
  0
TEXT
  8
BASE
  6
DASHED
 10
-8.422045
 20
-3.481615
 30
0.0
 40
2.0
  1
14B
  0
LINE
  8
BASE
  6
DASHED
 10
-12.5
 20
0.0
 30
0.0
 11
-30.0
 21
0.0
 31
0.0
  0
TEXT
  8
BASE
  6
DASHED
 10
-12.5
 20
3.402046
 30
0.0
 40
2.0
  1
101
  0
TEXT
  8
BASE
  6
DASHED
 10
-18.160336
 20
-3.602839
 30
0.0
 40
2.0
  1
14A 
  0
INSERT
  8
0
  6
CONTINUOUS
  2
B37
 10
-12.5
 20
0.0
 30
0.0
 50
90.0
  0
ENDBLK
  8
0
  0
BLOCK
  8
0
  2
B6
 70
     0
 10
0.0
 20
0.0
 30
0.0
  3
B6
  0
TEXT
  8
0
  6
DASHED
 10
0.813324
 20
-6.94985
 30
0.0
 40
2.0
  1
108 SPAJ 122
  0
TEXT
  8
0
  6
DASHED
 10
0.813324
 20
-3.616516
 30
0.0
 40
2.0
  1
101 RTXP 18
  0
TEXT
  8
0
  6
DASHED
 10
22.211341
 20
7.140379
 30
0.0
 40
2.0
  1
4S
  0
TEXT
  8
0
  6
DASHED
 10
9.617517
 20
15.041706
 30
0.0
 40
2.0
  1
30C
  0
TEXT
  8
0
  6
DASHED
 10
9.249881
 20
11.800442
 30
0.0
 40
2.0
  1
108
  0
TEXT
  8
0
  6
DASHED
 10
1.364387
 20
11.816142
 30
0.0
 40
2.0
  1
101  
  0
LINE
  8
0
  6
CONTINUOUS
 10
0.374793
 20
14.318353
 30
0.0
 11
21.053957
 21
14.318353
 31
0.0
  0
LINE
  8
0
  6
CONTINUOUS
 10
21.053957
 20
14.318353
 30
0.0
 11
21.053957
 21
0.172845
 31
0.0
  0
LINE
  8
0
  6
CONTINUOUS
 10
21.053957
 20
0.172845
 30
0.0
 11
0.374793
 21
0.172845
 31
0.0
  0
LINE
  8
0
  6
CONTINUOUS
 10
0.374793
 20
0.172845
 30
0.0
 11
0.374793
 21
14.318353
 31
0.0
  0
LINE
  8
0
  6
CONTINUOUS
 10
6.902051
 20
14.318353
 30
0.0
 11
6.902051
 21
0.172845
 31
0.0
  0
LINE
  8
0
  6
CONTINUOUS
 10
8.716235
 20
14.318353
 30
0.0
 11
8.716235
 21
0.172845
 31
0.0
  0
ENDBLK
  8
0
  0
BLOCK
  8
0
  2
B20
 70
     0
 10
0.0
 20
0.0
 30
0.0
  3
B20
  0
INSERT
  8
0
  6
CONTINUOUS
  2
BLC25
 10
-0.49118
 20
1.171798
 30
0.0
  0
ENDBLK
  8
0
  0
BLOCK
  8
0
  2
BLC25
 70
    64
 10
0.0
 20
0.0
 30
0.0
  3
BLC25
  0
TEXT
  8
0
  6
CONTINUOUS
 10
2.0
 20
30.666667
 30
0.0
 40
2.0
  1
1)
 11
2.0
 21
30.0
 31
0.0
 73
     1
  0
TEXT
  8
0
 10
6.0
 20
2.0
 30
0.0
 40
2.0
  1
7B    27     26
 11
6.0
 21
1.333333
 31
0.0
 73
     1
  0
TEXT
  8
0
 10
6.0
 20
5.333333
 30
0.0
 40
2.0
  1
5B     9      8
 11
6.0
 21
4.666667
 31
0.0
 73
     1
  0
TEXT
  8
0
 10
6.0
 20
8.666667
 30
0.0
 40
2.0
  1
3B     3      2
 11
6.0
 21
8.0
 31
0.0
 73
     1
  0
TEXT
  8
0
 10
32.0
 20
12.666667
 30
0.0
 40
2.0
  1
In=5A
 11
32.0
 21
12.0
 31
0.0
 73
     1
  0
TEXT
  8
0
 10
16.0
 20
12.666667
 30
0.0
 40
2.0
  1
In=1A 
 11
16.0
 21
12.0
 31
0.0
 73
     1
  0
TEXT
  8
0
 10
26.0
 20
18.666667
 30
0.0
 40
2.0
  1
108:
 11
26.0
 21
18.0
 31
0.0
 73
     1
  0
TEXT
  8
0
 10
6.0
 20
18.666667
 30
0.0
 40
2.0
  1
101:       
 11
6.0
 21
18.0
 31
0.0
 73
     1
  0
TEXT
  8
0
 10
6.0
 20
24.666667
 30
0.0
 40
2.0
  1
TERMINALS / UTTAG
 11
6.0
 21
24.0
 31
0.0
 73
     1
  0
LINE
  8
0
 10
0.0
 20
12.0
 30
0.0
 11
44.0
 21
12.0
 31
0.0
  0
LINE
  8
0
 10
28.0
 20
18.0
 30
0.0
 11
28.0
 21
0.0
 31
0.0
  0
LINE
  8
0
 10
14.0
 20
18.0
 30
0.0
 11
44.0
 21
18.0
 31
0.0
  0
LINE
  8
0
 10
14.0
 20
24.0
 30
0.0
 11
14.0
 21
0.0
 31
0.0
  0
LINE
  8
0
 10
0.0
 20
24.0
 30
0.0
 11
44.0
 21
24.0
 31
0.0
  0
LINE
  8
0
 10
44.0
 20
0.0
 30
0.0
 11
44.0
 21
30.0
 31
0.0
  0
LINE
  8
0
 10
0.0
 20
0.0
 30
0.0
 11
44.0
 21
0.0
 31
0.0
  0
LINE
  8
0
 10
0.0
 20
30.0
 30
0.0
 11
0.0
 21
0.0
 31
0.0
  0
LINE
  8
0
 10
44.0
 20
30.0
 30
0.0
 11
0.0
 21
30.0
 31
0.0
  0
ENDBLK
  8
0
  0
BLOCK
  8
0
  2
B62
 70
     0
 10
0.0
 20
0.0
 30
0.0
  3
B62
  0
TEXT
  8
0
  6
CONTINUOUS
 10
4.985331
 20
2.349187
 30
0.0
 40
2.0
  1
30
  0
TEXT
  8
0
  6
CONTINUOUS
 10
-8.994445
 20
2.349187
 30
0.0
 40
2.0
  1
29
  0
TEXT
  8
0
  6
CONTINUOUS
 10
2.016307
 20
5.688158
 30
0.0
 40
2.0
  1
Un=110V
  0
TEXT
  8
0
  6
CONTINUOUS
 10
-13.321163
 20
5.688158
 30
0.0
 40
2.0
  1
Un=100V 
  0
TEXT
  8
0
  6
CONTINUOUS
 10
-8.994445
 20
9.394523
 30
0.0
 40
2.0
  1
27     26
  0
TEXT
  8
0
  6
CONTINUOUS
 10
-22.093957
 20
2.344018
 30
0.0
 40
2.0
  1
11B
  0
TEXT
  8
0
  6
CONTINUOUS
 10
-22.093957
 20
9.394523
 30
0.0
 40
2.0
  1
9B
  0
LINE
  8
0
  6
CONTINUOUS
 10
16.00882
 20
5.061425
 30
0.0
 11
-13.99118
 21
5.061425
 31
0.0
  0
LINE
  8
0
  6
CONTINUOUS
 10
-13.99118
 20
8.559785
 30
0.0
 11
16.00882
 21
8.559785
 31
0.0
  0
TEXT
  8
0
  6
CONTINUOUS
 10
3.98571
 20
13.34942
 30
0.0
 40
2.0
  1
In=1A
  0
TEXT
  8
0
  6
CONTINUOUS
 10
-12.94817
 20
13.34942
 30
0.0
 40
2.0
  1
In=0,2A  
  0
LINE
  8
0
  6
CONTINUOUS
 10
16.00882
 20
12.733493
 30
0.0
 11
-13.99118
 21
12.733493
 31
0.0
  0
LINE
  8
0
  6
CONTINUOUS
 10
-13.99118
 20
16.231853
 30
0.0
 11
16.00882
 21
16.231853
 31
0.0
  0
TEXT
  8
0
  6
CONTINUOUS
 10
-22.019359
 20
17.126256
 30
0.0
 40
2.0
  1
7B     9      8
  0
TEXT
  8
0
  6
CONTINUOUS
 10
-22.019359
 20
20.157029
 30
0.0
 40
2.0
  1
5B     6      5
  0
LINE
  8
0
 10
16.00882
 20
38.671798
 30
0.0
 11
-27.99118
 21
38.671798
 31
0.0
  0
LINE
  8
0
 10
-27.99118
 20
38.671798
 30
0.0
 11
-27.99118
 21
1.518405
 31
0.0
  0
LINE
  8
0
 10
-27.99118
 20
1.518405
 30
0.0
 11
16.00882
 21
1.518405
 31
0.0
  0
LINE
  8
0
 10
16.00882
 20
1.518405
 30
0.0
 11
16.00882
 21
38.671798
 31
0.0
  0
LINE
  8
0
 10
-27.99118
 20
32.671798
 30
0.0
 11
16.00882
 21
32.671798
 31
0.0
  0
LINE
  8
0
 10
-13.99118
 20
32.671798
 30
0.0
 11
-13.99118
 21
1.518405
 31
0.0
  0
LINE
  8
0
 10
-13.99118
 20
29.171798
 30
0.0
 11
16.00882
 21
29.171798
 31
0.0
  0
LINE
  8
0
 10
0.00882
 20
29.171798
 30
0.0
 11
0.00882
 21
1.518405
 31
0.0
  0
LINE
  8
0
 10
-27.99118
 20
25.671798
 30
0.0
 11
16.00882
 21
25.671798
 31
0.0
  0
TEXT
  8
0
 10
-21.99118
 20
33.338465
 30
0.0
 40
2.0
  1
TERMINALS / UTTAG
 11
-21.99118
 21
32.671798
 31
0.0
 73
     1
  0
TEXT
  8
0
 10
-21.99118
 20
29.838465
 30
0.0
 40
2.0
  1
101:       
 11
-21.99118
 21
29.171798
 31
0.0
 73
     1
  0
TEXT
  8
0
 10
-1.99118
 20
29.838465
 30
0.0
 40
2.0
  1
108:
 11
-1.99118
 21
29.171798
 31
0.0
 73
     1
  0
TEXT
  8
0
 10
-11.99118
 20
26.338465
 30
0.0
 40
2.0
  1
In=1A 
 11
-11.99118
 21
25.671798
 31
0.0
 73
     1
  0
TEXT
  8
0
 10
4.00882
 20
26.338465
 30
0.0
 40
2.0
  1
In=5A
 11
4.00882
 21
25.671798
 31
0.0
 73
     1
  0
TEXT
  8
0
 10
-21.99118
 20
22.96825
 30
0.0
 40
2.0
  1
3B     3      2
 11
-21.99118
 21
22.301583
 31
0.0
 73
     1
  0
ENDBLK
  8
0
  0
ENDSEC
  0
SECTION
  2
ENTITIES
  0
INSERT
  8
0
  2
1
 10
65.405438
 20
98.713066
 30
0.0
  0
INSERT
  8
0
  2
1
 10
72.541652
 20
49.71056
 30
0.0
  0
INSERT
  8
0
  2
1
 10
85.390443
 20
73.497234
 30
0.0
  0
LINE
  8
0
  6
CENTER
 62
   249
 10
250.0
 20
247.5
 30
0.0
 11
250.0
 21
110.0
 31
0.0
  0
LINE
  8
0
  6
CENTER
 62
   249
 10
250.0
 20
110.0
 30
0.0
 11
250.0
 21
80.0
 31
0.0
  0
LINE
  8
0
  6
CONTINUOUS
 62
   249
 10
175.0
 20
107.5
 30
0.0
 11
175.0
 21
100.749065
 31
0.0
  0
LINE
  8
0
  6
CONTINUOUS
 62
   249
 10
220.0
 20
95.0
 30
0.0
 11
230.0
 21
95.0
 31
0.0
  0
LINE
  8
0
  6
CONTINUOUS
 62
   249
 10
220.0
 20
95.0
 30
0.0
 11
222.5
 21
97.5
 31
0.0
  0
LINE
  8
0
  6
CONTINUOUS
 62
   249
 10
225.0
 20
95.0
 30
0.0
 11
227.5
 21
97.5
 31
0.0
  0
LINE
  8
0
  6
CONTINUOUS
 62
   249
 10
230.0
 20
95.0
 30
0.0
 11
232.5
 21
97.5
 31
0.0
  0
LINE
  8
0
  6
CONTINUOUS
 62
   249
 10
225.0
 20
95.0
 30
0.0
 11
225.0
 21
80.0
 31
0.0
  0
LINE
  8
0
  6
CONTINUOUS
 62
   249
 10
212.5
 20
97.5
 30
0.0
 11
212.5
 21
80.0
 31
0.0
  0
LINE
  8
0
  6
CONTINUOUS
 62
   249
 10
207.5
 20
97.5
 30
0.0
 11
207.5
 21
80.0
 31
0.0
  0
LINE
  8
0
  6
DASHED
 62
   249
 10
212.5
 20
80.0
 30
0.0
 11
212.5
 21
55.0
 31
0.0
  0
LINE
  8
0
  6
DASHED
 62
   249
 10
192.5
 20
80.0
 30
0.0
 11
192.5
 21
72.5
 31
0.0
  0
LINE
  8
0
  6
DASHED
 62
   249
 10
182.5
 20
55.0
 30
0.0
 11
182.5
 21
47.5
 31
0.0
  0
LINE
  8
0
  6
DASHED
 62
   249
 10
175.0
 20
55.0
 30
0.0
 11
175.0
 21
47.5
 31
0.0
  0
TEXT
  8
0
  6
CONTINUOUS
 62
   249
 10
189.335932
 20
178.412104
 30
0.0
 40
2.5
  1
I
 11
189.335932
 21
177.578771
 31
0.0
 73
     1
  0
LINE
  8
0
  6
CONTINUOUS
 62
   249
 10
195.4249
 20
204.320633
 30
0.0
 11
193.079135
 21
203.130714
 31
0.0
  0
LINE
  8
0
  6
CONTINUOUS
 62
   249
 10
193.079135
 20
205.655987
 30
0.0
 11
195.4249
 21
204.320633
 31
0.0
  0
LINE
  8
0
  6
CONTINUOUS
 62
   249
 10
193.455418
 20
204.320633
 30
0.0
 11
191.109652
 21
203.130714
 31
0.0
  0
LINE
  8
0
  6
CONTINUOUS
 62
   249
 10
191.109652
 20
205.655987
 30
0.0
 11
193.455418
 21
204.320633
 31
0.0
  0
TEXT
  8
0
  6
CONTINUOUS
 62
   249
 10
189.300457
 20
203.139998
 30
0.0
 40
2.5
  1
I
 11
189.300457
 21
202.306664
 31
0.0
 73
     1
  0
TEXT
  8
0
  6
CONTINUOUS
 62
   249
 10
211.065851
 20
187.794697
 30
0.0
 40
2.5
  1
I
 11
211.065851
 21
186.961364
 31
0.0
 73
     1
  0
LINE
  8
0
  6
CONTINUOUS
 62
   249
 10
187.5
 20
160.232891
 30
0.0
 11
217.950615
 21
160.232891
 31
0.0
  0
TEXT
  8
0
  6
CONTINUOUS
 62
   249
 10
199.408766
 20
156.295815
 30
0.0
 40
2.5
  1
IRF
 11
199.408766
 21
155.462481
 31
0.0
 73
     1
  0
LINE
  8
0
  6
CONTINUOUS
 62
   249
 10
217.950615
 20
155.0
 30
0.0
 11
187.5
 21
155.0
 31
0.0
  0
LINE
  8
0
  6
CONTINUOUS
 62
   249
 10
217.950615
 20
209.709828
 30
0.0
 11
217.950615
 21
155.0
 31
0.0
  0
LINE
  8
0
  6
CONTINUOUS
 62
   249
 10
217.950615
 20
227.5
 30
0.0
 11
217.950615
 21
209.68832
 31
0.0
  0
LINE
  8
0
  6
CONTINUOUS
 62
   249
 10
192.5
 20
100.0
 30
0.0
 11
192.5
 21
80.0
 31
0.0
  0
LINE
  8
0
  6
CONTINUOUS
 62
   249
 10
175.0
 20
107.5
 30
0.0
 11
175.0
 21
80.0
 31
0.0
  0
LINE
  8
0
  6
CONTINUOUS
 62
   249
 10
187.5
 20
165.0
 30
0.0
 11
217.950615
 21
165.0
 31
0.0
  0
TEXT
  8
0
  6
CONTINUOUS
 62
   249
 10
191.230324
 20
160.995811
 30
0.0
 40
2.5
  1
SERIAL I/O
  0
LINE
  8
0
  6
CONTINUOUS
 62
   249
 10
187.5
 20
177.5
 30
0.0
 11
217.950615
 21
177.5
 31
0.0
  0
CIRCLE
  8
0
  6
CONTINUOUS
 62
   249
 10
186.512659
 20
157.498324
 30
0.0
 40
1.0
  0
TEXT
  8
0
  6
CONTINUOUS
 62
   249
 10
188.34902
 20
166.497146
 30
0.0
 40
1.5
  1
EN RESET
  0
TEXT
  8
0
  6
CONTINUOUS
 62
   249
 10
188.34902
 20
172.5
 30
0.0
 40
1.5
  1
EN RC SETTINGS
  0
TEXT
  8
0
  6
CONTINUOUS
 62
   249
 10
188.406909
 20
181.964509
 30
0.0
 40
1.5
  1
EN
  0
CIRCLE
  8
0
  6
CONTINUOUS
 62
   249
 10
186.512659
 20
182.718011
 30
0.0
 40
1.0
  0
LINE
  8
0
  6
CONTINUOUS
 62
   249
 10
198.432508
 20
179.13098
 30
0.0
 11
196.086742
 21
177.941061
 31
0.0
  0
LINE
  8
0
  6
CONTINUOUS
 62
   249
 10
196.086742
 20
180.466334
 30
0.0
 11
198.432508
 21
179.13098
 31
0.0
  0
LINE
  8
0
  6
CONTINUOUS
 62
   249
 10
194.11726
 20
180.466334
 30
0.0
 11
196.463026
 21
179.13098
 31
0.0
  0
LINE
  8
0
  6
CONTINUOUS
 62
   249
 10
196.463026
 20
179.13098
 30
0.0
 11
194.11726
 21
177.941061
 31
0.0
  0
LINE
  8
0
  6
CONTINUOUS
 62
   249
 10
215.906026
 20
215.706796
 30
0.0
 11
213.56026
 21
214.516877
 31
0.0
  0
LINE
  8
0
  6
CONTINUOUS
 62
   249
 10
213.56026
 20
217.04215
 30
0.0
 11
215.906026
 21
215.706796
 31
0.0
  0
LINE
  8
0
  6
CONTINUOUS
 62
   249
 10
196.463026
 20
194.455251
 30
0.0
 11
194.11726
 21
193.265332
 31
0.0
  0
LINE
  8
0
  6
CONTINUOUS
 62
   249
 10
194.11726
 20
195.790605
 30
0.0
 11
196.463026
 21
194.455251
 31
0.0
  0
TEXT
  8
0
  6
CONTINUOUS
 62
   249
 10
189.335932
 20
193.736375
 30
0.0
 40
2.5
  1
I
 11
189.335932
 21
192.903042
 31
0.0
 73
     1
  0
LINE
  8
0
  6
CONTINUOUS
 62
   249
 10
207.5
 20
177.5
 30
0.0
 11
207.5
 21
225.0
 31
0.0
  0
LINE
  8
0
  6
CONTINUOUS
 62
   249
 10
187.5
 20
197.5
 30
0.0
 11
207.5
 21
197.5
 31
0.0
  0
LINE
  8
0
  6
CONTINUOUS
 62
   249
 10
187.5
 20
192.5
 30
0.0
 11
207.5
 21
192.5
 31
0.0
  0
TEXT
  8
0
  6
CONTINUOUS
 62
   249
 10
189.335932
 20
185.989978
 30
0.0
 40
2.5
  1
I
 11
189.335932
 21
185.156645
 31
0.0
 73
     1
  0
LINE
  8
0
  6
CONTINUOUS
 62
   249
 10
196.463026
 20
186.708854
 30
0.0
 11
194.11726
 21
185.518935
 31
0.0
  0
LINE
  8
0
  6
CONTINUOUS
 62
   249
 10
194.11726
 20
188.044208
 30
0.0
 11
196.463026
 21
186.708854
 31
0.0
  0
TEXT
  8
0
  6
CONTINUOUS
 62
   249
 10
188.406909
 20
189.635468
 30
0.0
 40
1.5
  1
EN
  0
CIRCLE
  8
0
  6
CONTINUOUS
 62
   249
 10
186.512659
 20
190.38897
 30
0.0
 40
1.0
  0
LINE
  8
0
  6
CONTINUOUS
 62
   249
 10
196.463026
 20
199.764458
 30
0.0
 11
194.11726
 21
198.574538
 31
0.0
  0
LINE
  8
0
  6
CONTINUOUS
 62
   249
 10
194.11726
 20
201.099811
 30
0.0
 11
196.463026
 21
199.764458
 31
0.0
  0
LINE
  8
0
  6
CONTINUOUS
 62
   249
 10
187.5
 20
202.5
 30
0.0
 11
217.950615
 21
202.5
 31
0.0
  0
LINE
  8
0
  6
CONTINUOUS
 62
   249
 10
187.5
 20
210.0
 30
0.0
 11
207.5
 21
210.0
 31
0.0
  0
TEXT
  8
0
  6
CONTINUOUS
 62
   249
 10
188.406909
 20
219.839137
 30
0.0
 40
1.5
  1
EN
  0
CIRCLE
  8
0
  6
CONTINUOUS
 62
   249
 10
186.512659
 20
220.592639
 30
0.0
 40
1.0
  0
LINE
  8
0
  6
CONTINUOUS
 62
   249
 10
198.653232
 20
187.533887
 30
0.0
 11
198.653232
 21
185.745756
 31
0.0
  0
LINE
  8
0
  6
CONTINUOUS
 62
   249
 10
198.684263
 20
186.688609
 30
0.0
 11
206.472468
 21
186.688609
 31
0.0
  0
LINE
  8
0
  6
CONTINUOUS
 62
   249
 10
201.068408
 20
185.521006
 30
0.0
 11
203.944519
 21
188.349565
 31
0.0
  0
LINE
  8
0
  6
CONTINUOUS
 62
   249
 10
203.490396
 20
188.886772
 30
0.0
 11
204.391073
 21
187.763023
 31
0.0
  0
LINE
  8
0
  6
CONTINUOUS
 62
   249
 10
206.467927
 20
187.533887
 30
0.0
 11
206.467927
 21
185.745756
 31
0.0
  0
LINE
  8
0
  6
CONTINUOUS
 62
   249
 10
198.926606
 20
217.761888
 30
0.0
 11
198.926606
 21
215.973756
 31
0.0
  0
LINE
  8
0
  6
CONTINUOUS
 62
   249
 10
198.957637
 20
216.916609
 30
0.0
 11
206.745842
 21
216.916609
 31
0.0
  0
LINE
  8
0
  6
CONTINUOUS
 62
   249
 10
201.341782
 20
215.749007
 30
0.0
 11
204.217892
 21
218.577565
 31
0.0
  0
LINE
  8
0
  6
CONTINUOUS
 62
   249
 10
203.787189
 20
219.114772
 30
0.0
 11
204.687866
 21
217.991023
 31
0.0
  0
LINE
  8
0
  6
CONTINUOUS
 62
   249
 10
206.741301
 20
217.761888
 30
0.0
 11
206.741301
 21
215.973756
 31
0.0
  0
ARC
  8
0
  6
HIDDEN
 62
   249
 10
205.652505
 20
220.845153
 30
0.0
 40
4.998196
 50
206.402922
 51
282.21115
  0
LINE
  8
0
  6
CONTINUOUS
 62
   249
 10
187.5
 20
215.0
 30
0.0
 11
207.5
 21
215.0
 31
0.0
  0
TEXT
  8
0
  6
CONTINUOUS
 62
   249
 10
189.300457
 20
211.21687
 30
0.0
 40
2.5
  1
I
 11
189.300457
 21
210.383536
 31
0.0
 73
     1
  0
LINE
  8
0
  6
CONTINUOUS
 62
   249
 10
193.455418
 20
212.397505
 30
0.0
 11
191.109652
 21
211.207586
 31
0.0
  0
LINE
  8
0
  6
CONTINUOUS
 62
   249
 10
195.4249
 20
212.397505
 30
0.0
 11
193.079135
 21
211.207586
 31
0.0
  0
LINE
  8
0
  6
CONTINUOUS
 62
   249
 10
191.109652
 20
213.732859
 30
0.0
 11
193.455418
 21
212.397505
 31
0.0
  0
LINE
  8
0
  6
CONTINUOUS
 62
   249
 10
193.079135
 20
213.732859
 30
0.0
 11
195.4249
 21
212.397505
 31
0.0
  0
LINE
  8
0
  6
CONTINUOUS
 62
   249
 10
187.5
 20
222.5
 30
0.0
 11
207.5
 21
222.5
 31
0.0
  0
TEXT
  8
0
  6
CONTINUOUS
 62
   249
 10
189.300457
 20
215.688304
 30
0.0
 40
2.5
  1
I
 11
189.300457
 21
214.85497
 31
0.0
 73
     1
  0
LINE
  8
0
  6
CONTINUOUS
 62
   249
 10
193.455418
 20
216.868939
 30
0.0
 11
191.109652
 21
215.67902
 31
0.0
  0
LINE
  8
0
  6
CONTINUOUS
 62
   249
 10
191.109652
 20
218.204293
 30
0.0
 11
193.455418
 21
216.868939
 31
0.0
  0
LINE
  8
0
  6
CONTINUOUS
 62
   249
 10
187.5
 20
227.5
 30
0.0
 11
217.950615
 21
227.5
 31
0.0
  0
LINE
  8
0
  6
CONTINUOUS
 62
   249
 10
207.5
 20
225.0
 30
0.0
 11
207.5
 21
227.5
 31
0.0
  0
LINE
  8
0
  6
CONTINUOUS
 62
   249
 10
187.5
 20
222.5
 30
0.0
 11
187.5
 21
207.5
 31
0.0
  0
LINE
  8
0
  6
CONTINUOUS
 62
   249
 10
187.5
 20
222.5
 30
0.0
 11
187.5
 21
227.5
 31
0.0
  0
LINE
  8
0
  6
CONTINUOUS
 62
   249
 10
187.5
 20
207.5
 30
0.0
 11
187.5
 21
155.0
 31
0.0
  0
CIRCLE
  8
0
  6
CONTINUOUS
 62
   249
 10
186.512659
 20
207.903208
 30
0.0
 40
1.0
  0
TEXT
  8
0
  6
CONTINUOUS
 62
   249
 10
188.406909
 20
207.149707
 30
0.0
 40
1.5
  1
EN
  0
LINE
  8
0
  6
CONTINUOUS
 62
   249
 10
193.455418
 20
225.031151
 30
0.0
 11
191.109652
 21
223.841232
 31
0.0
  0
LINE
  8
0
  6
CONTINUOUS
 62
   249
 10
191.109652
 20
226.366505
 30
0.0
 11
193.455418
 21
225.031151
 31
0.0
  0
TEXT
  8
0
  6
CONTINUOUS
 62
   249
 10
189.300457
 20
223.850516
 30
0.0
 40
2.5
  1
I
 11
189.300457
 21
223.017182
 31
0.0
 73
     1
  0
LINE
  8
0
  6
CONTINUOUS
 62
   249
 10
92.5
 20
147.5
 30
0.0
 11
92.5
 21
142.5
 31
0.0
  0
LINE
  8
0
  6
CONTINUOUS
 62
   249
 10
92.5
 20
142.5
 30
0.0
 11
105.0
 21
142.5
 31
0.0
  0
LINE
  8
0
  6
CONTINUOUS
 62
   249
 10
105.0
 20
142.5
 30
0.0
 11
105.0
 21
147.5
 31
0.0
  0
LINE
  8
0
  6
CONTINUOUS
 62
   249
 10
105.0
 20
147.5
 30
0.0
 11
92.5
 21
147.5
 31
0.0
  0
LINE
  8
0
  6
CONTINUOUS
 62
   249
 10
95.0
 20
147.5
 30
0.0
 11
95.0
 21
150.0
 31
0.0
  0
LINE
  8
0
  6
CONTINUOUS
 62
   249
 10
97.5
 20
147.5
 30
0.0
 11
97.5
 21
150.0
 31
0.0
  0
LINE
  8
0
  6
CONTINUOUS
 62
   249
 10
100.0
 20
147.5
 30
0.0
 11
100.0
 21
150.0
 31
0.0
  0
LINE
  8
0
  6
CONTINUOUS
 62
   249
 10
102.5
 20
147.5
 30
0.0
 11
102.5
 21
150.0
 31
0.0
  0
LINE
  8
0
  6
CONTINUOUS
 62
   249
 10
97.5
 20
142.5
 30
0.0
 11
97.5
 21
140.0
 31
0.0
  0
LINE
  8
0
  6
CONTINUOUS
 62
   249
 10
102.5
 20
155.0
 30
0.0
 11
102.5
 21
157.5
 31
0.0
  0
LINE
  8
0
  6
CONTINUOUS
 62
   249
 10
100.0
 20
155.0
 30
0.0
 11
100.0
 21
157.5
 31
0.0
  0
LINE
  8
0
  6
CONTINUOUS
 62
   249
 10
97.5
 20
155.0
 30
0.0
 11
97.5
 21
157.5
 31
0.0
  0
LINE
  8
0
  6
CONTINUOUS
 62
   249
 10
95.0
 20
155.0
 30
0.0
 11
95.0
 21
157.5
 31
0.0
  0
LINE
  8
0
  6
CONTINUOUS
 62
   249
 10
102.5
 20
150.0
 30
0.0
 11
100.78221
 21
155.014966
 31
0.0
  0
LINE
  8
0
  6
CONTINUOUS
 62
   249
 10
100.0
 20
150.0
 30
0.0
 11
98.28221
 21
155.014966
 31
0.0
  0
LINE
  8
0
  6
CONTINUOUS
 62
   249
 10
97.5
 20
150.0
 30
0.0
 11
95.78221
 21
155.014966
 31
0.0
  0
LINE
  8
0
  6
CONTINUOUS
 62
   249
 10
95.0
 20
150.0
 30
0.0
 11
93.28221
 21
155.014966
 31
0.0
  0
LINE
  8
0
  6
CONTINUOUS
 62
   249
 10
98.74635
 20
145.289195
 30
0.0
 11
96.400585
 21
144.099276
 31
0.0
  0
LINE
  8
0
  6
CONTINUOUS
 62
   249
 10
96.392543
 20
143.299262
 30
0.0
 11
98.776004
 21
144.487454
 31
0.0
  0
LINE
  8
0
  6
CONTINUOUS
 62
   249
 10
96.400585
 20
146.624549
 30
0.0
 11
98.74635
 21
145.289195
 31
0.0
  0
TEXT
  8
0
  6
CONTINUOUS
 62
   249
 10
100.834447
 20
143.964455
 30
0.0
 40
2.5
  1
1
 11
100.834447
 21
143.131122
 31
0.0
 73
     1
  0
TEXT
  8
0
  6
CONTINUOUS
 62
   249
 10
115.834447
 20
143.964455
 30
0.0
 40
2.5
  1
1
 11
115.834447
 21
143.131122
 31
0.0
 73
     1
  0
LINE
  8
0
  6
CONTINUOUS
 62
   249
 10
111.400585
 20
146.624549
 30
0.0
 11
113.74635
 21
145.289195
 31
0.0
  0
LINE
  8
0
  6
CONTINUOUS
 62
   249
 10
111.392543
 20
143.299262
 30
0.0
 11
113.776004
 21
144.487454
 31
0.0
  0
LINE
  8
0
  6
CONTINUOUS
 62
   249
 10
113.74635
 20
145.289195
 30
0.0
 11
111.400585
 21
144.099276
 31
0.0
  0
LINE
  8
0
  6
CONTINUOUS
 62
   249
 10
110.0
 20
150.0
 30
0.0
 11
108.28221
 21
155.014966
 31
0.0
  0
LINE
  8
0
  6
CONTINUOUS
 62
   249
 10
112.5
 20
150.0
 30
0.0
 11
110.78221
 21
155.014966
 31
0.0
  0
LINE
  8
0
  6
CONTINUOUS
 62
   249
 10
115.0
 20
150.0
 30
0.0
 11
113.28221
 21
155.014966
 31
0.0
  0
LINE
  8
0
  6
CONTINUOUS
 62
   249
 10
117.5
 20
150.0
 30
0.0
 11
115.78221
 21
155.014966
 31
0.0
  0
LINE
  8
0
  6
CONTINUOUS
 62
   249
 10
110.0
 20
155.0
 30
0.0
 11
110.0
 21
157.5
 31
0.0
  0
LINE
  8
0
  6
CONTINUOUS
 62
   249
 10
112.5
 20
155.0
 30
0.0
 11
112.5
 21
157.5
 31
0.0
  0
LINE
  8
0
  6
CONTINUOUS
 62
   249
 10
115.0
 20
155.0
 30
0.0
 11
115.0
 21
157.5
 31
0.0
  0
LINE
  8
0
  6
CONTINUOUS
 62
   249
 10
117.5
 20
155.0
 30
0.0
 11
117.5
 21
157.5
 31
0.0
  0
LINE
  8
0
  6
CONTINUOUS
 62
   249
 10
112.5
 20
142.5
 30
0.0
 11
112.5
 21
140.0
 31
0.0
  0
LINE
  8
0
  6
CONTINUOUS
 62
   249
 10
117.5
 20
147.5
 30
0.0
 11
117.5
 21
150.0
 31
0.0
  0
LINE
  8
0
  6
CONTINUOUS
 62
   249
 10
115.0
 20
147.5
 30
0.0
 11
115.0
 21
150.0
 31
0.0
  0
LINE
  8
0
  6
CONTINUOUS
 62
   249
 10
112.5
 20
147.5
 30
0.0
 11
112.5
 21
150.0
 31
0.0
  0
LINE
  8
0
  6
CONTINUOUS
 62
   249
 10
110.0
 20
147.5
 30
0.0
 11
110.0
 21
150.0
 31
0.0
  0
LINE
  8
0
  6
CONTINUOUS
 62
   249
 10
120.0
 20
147.5
 30
0.0
 11
107.5
 21
147.5
 31
0.0
  0
LINE
  8
0
  6
CONTINUOUS
 62
   249
 10
120.0
 20
142.5
 30
0.0
 11
120.0
 21
147.5
 31
0.0
  0
LINE
  8
0
  6
CONTINUOUS
 62
   249
 10
107.5
 20
142.5
 30
0.0
 11
120.0
 21
142.5
 31
0.0
  0
LINE
  8
0
  6
CONTINUOUS
 62
   249
 10
107.5
 20
147.5
 30
0.0
 11
107.5
 21
142.5
 31
0.0
  0
LINE
  8
0
  6
CONTINUOUS
 62
   249
 10
122.5
 20
147.5
 30
0.0
 11
122.5
 21
142.5
 31
0.0
  0
LINE
  8
0
  6
CONTINUOUS
 62
   249
 10
122.5
 20
142.5
 30
0.0
 11
135.0
 21
142.5
 31
0.0
  0
LINE
  8
0
  6
CONTINUOUS
 62
   249
 10
135.0
 20
142.5
 30
0.0
 11
135.0
 21
147.5
 31
0.0
  0
LINE
  8
0
  6
CONTINUOUS
 62
   249
 10
135.0
 20
147.5
 30
0.0
 11
122.5
 21
147.5
 31
0.0
  0
LINE
  8
0
  6
CONTINUOUS
 62
   249
 10
125.0
 20
147.5
 30
0.0
 11
125.0
 21
150.0
 31
0.0
  0
LINE
  8
0
  6
CONTINUOUS
 62
   249
 10
127.5
 20
147.5
 30
0.0
 11
127.5
 21
150.0
 31
0.0
  0
LINE
  8
0
  6
CONTINUOUS
 62
   249
 10
130.0
 20
147.5
 30
0.0
 11
130.0
 21
150.0
 31
0.0
  0
LINE
  8
0
  6
CONTINUOUS
 62
   249
 10
132.5
 20
147.5
 30
0.0
 11
132.5
 21
150.0
 31
0.0
  0
LINE
  8
0
  6
CONTINUOUS
 62
   249
 10
127.5
 20
142.5
 30
0.0
 11
127.5
 21
140.0
 31
0.0
  0
LINE
  8
0
  6
CONTINUOUS
 62
   249
 10
132.5
 20
155.0
 30
0.0
 11
132.5
 21
157.5
 31
0.0
  0
LINE
  8
0
  6
CONTINUOUS
 62
   249
 10
130.0
 20
155.0
 30
0.0
 11
130.0
 21
157.5
 31
0.0
  0
LINE
  8
0
  6
CONTINUOUS
 62
   249
 10
127.5
 20
155.0
 30
0.0
 11
127.5
 21
157.5
 31
0.0
  0
LINE
  8
0
  6
CONTINUOUS
 62
   249
 10
125.0
 20
155.0
 30
0.0
 11
125.0
 21
157.5
 31
0.0
  0
LINE
  8
0
  6
CONTINUOUS
 62
   249
 10
132.5
 20
150.0
 30
0.0
 11
130.78221
 21
155.014966
 31
0.0
  0
LINE
  8
0
  6
CONTINUOUS
 62
   249
 10
130.0
 20
150.0
 30
0.0
 11
128.28221
 21
155.014966
 31
0.0
  0
LINE
  8
0
  6
CONTINUOUS
 62
   249
 10
127.5
 20
150.0
 30
0.0
 11
125.78221
 21
155.014966
 31
0.0
  0
LINE
  8
0
  6
CONTINUOUS
 62
   249
 10
125.0
 20
150.0
 30
0.0
 11
123.28221
 21
155.014966
 31
0.0
  0
LINE
  8
0
  6
CONTINUOUS
 62
   249
 10
128.74635
 20
145.289195
 30
0.0
 11
126.400585
 21
144.099276
 31
0.0
  0
LINE
  8
0
  6
CONTINUOUS
 62
   249
 10
126.392543
 20
143.299262
 30
0.0
 11
128.776004
 21
144.487454
 31
0.0
  0
LINE
  8
0
  6
CONTINUOUS
 62
   249
 10
126.400585
 20
146.624549
 30
0.0
 11
128.74635
 21
145.289195
 31
0.0
  0
TEXT
  8
0
  6
CONTINUOUS
 62
   249
 10
130.834447
 20
143.964455
 30
0.0
 40
2.5
  1
1
 11
130.834447
 21
143.131122
 31
0.0
 73
     1
  0
TEXT
  8
0
  6
CONTINUOUS
 62
   249
 10
85.834447
 20
143.964455
 30
0.0
 40
2.5
  1
1
 11
85.834447
 21
143.131122
 31
0.0
 73
     1
  0
LINE
  8
0
  6
CONTINUOUS
 62
   249
 10
81.400585
 20
146.624549
 30
0.0
 11
83.74635
 21
145.289195
 31
0.0
  0
LINE
  8
0
  6
CONTINUOUS
 62
   249
 10
81.392543
 20
143.299262
 30
0.0
 11
83.776004
 21
144.487454
 31
0.0
  0
LINE
  8
0
  6
CONTINUOUS
 62
   249
 10
83.74635
 20
145.289195
 30
0.0
 11
81.400585
 21
144.099276
 31
0.0
  0
LINE
  8
0
  6
CONTINUOUS
 62
   249
 10
82.5
 20
142.5
 30
0.0
 11
82.5
 21
140.0
 31
0.0
  0
LINE
  8
0
  6
CONTINUOUS
 62
   249
 10
87.5
 20
147.5
 30
0.0
 11
87.5
 21
150.0
 31
0.0
  0
LINE
  8
0
  6
CONTINUOUS
 62
   249
 10
85.0
 20
147.5
 30
0.0
 11
85.0
 21
150.0
 31
0.0
  0
LINE
  8
0
  6
CONTINUOUS
 62
   249
 10
82.5
 20
147.5
 30
0.0
 11
82.5
 21
156.152485
 31
0.0
  0
LINE
  8
0
  6
CONTINUOUS
 62
   249
 10
90.0
 20
147.5
 30
0.0
 11
77.5
 21
147.5
 31
0.0
  0
LINE
  8
0
  6
CONTINUOUS
 62
   249
 10
90.0
 20
142.5
 30
0.0
 11
90.0
 21
147.5
 31
0.0
  0
LINE
  8
0
  6
CONTINUOUS
 62
   249
 10
77.5
 20
142.5
 30
0.0
 11
90.0
 21
142.5
 31
0.0
  0
LINE
  8
0
  6
CONTINUOUS
 62
   249
 10
77.5
 20
147.5
 30
0.0
 11
77.5
 21
142.5
 31
0.0
  0
LINE
  8
0
  6
CONTINUOUS
 62
   249
 10
80.0
 20
147.5
 30
0.0
 11
80.0
 21
156.152485
 31
0.0
  0
LINE
  8
0
  6
CONTINUOUS
 62
   249
 10
137.5
 20
147.5
 30
0.0
 11
137.5
 21
142.5
 31
0.0
  0
LINE
  8
0
  6
CONTINUOUS
 62
   249
 10
137.5
 20
142.5
 30
0.0
 11
162.5
 21
142.5
 31
0.0
  0
LINE
  8
0
  6
CONTINUOUS
 62
   249
 10
162.5
 20
142.5
 30
0.0
 11
162.5
 21
147.5
 31
0.0
  0
LINE
  8
0
  6
CONTINUOUS
 62
   249
 10
162.5
 20
147.5
 30
0.0
 11
137.5
 21
147.5
 31
0.0
  0
LINE
  8
0
  6
CONTINUOUS
 62
   249
 10
145.777828
 20
143.299262
 30
0.0
 11
148.161289
 21
144.487454
 31
0.0
  0
LINE
  8
0
  6
CONTINUOUS
 62
   249
 10
148.131635
 20
145.289195
 30
0.0
 11
145.78587
 21
144.099276
 31
0.0
  0
LINE
  8
0
  6
CONTINUOUS
 62
   249
 10
145.78587
 20
146.624549
 30
0.0
 11
148.131635
 21
145.289195
 31
0.0
  0
TEXT
  8
0
  6
CONTINUOUS
 62
   249
 10
150.219732
 20
143.964455
 30
0.0
 40
2.5
  1
1
 11
150.219732
 21
143.131122
 31
0.0
 73
     1
  0
LINE
  8
0
  6
CONTINUOUS
 62
   249
 10
140.0
 20
147.5
 30
0.0
 11
140.0
 21
150.0
 31
0.0
  0
LINE
  8
0
  6
CONTINUOUS
 62
   249
 10
142.5
 20
147.5
 30
0.0
 11
142.5
 21
150.0
 31
0.0
  0
LINE
  8
0
  6
CONTINUOUS
 62
   249
 10
145.0
 20
147.5
 30
0.0
 11
145.0
 21
150.0
 31
0.0
  0
LINE
  8
0
  6
CONTINUOUS
 62
   249
 10
147.5
 20
147.5
 30
0.0
 11
147.5
 21
150.0
 31
0.0
  0
LINE
  8
0
  6
CONTINUOUS
 62
   249
 10
150.0
 20
147.5
 30
0.0
 11
150.0
 21
150.0
 31
0.0
  0
LINE
  8
0
  6
CONTINUOUS
 62
   249
 10
152.5
 20
147.5
 30
0.0
 11
152.5
 21
150.0
 31
0.0
  0
LINE
  8
0
  6
CONTINUOUS
 62
   249
 10
155.0
 20
147.5
 30
0.0
 11
155.0
 21
150.0
 31
0.0
  0
LINE
  8
0
  6
CONTINUOUS
 62
   249
 10
157.5
 20
147.5
 30
0.0
 11
157.5
 21
150.0
 31
0.0
  0
LINE
  8
0
  6
CONTINUOUS
 62
   249
 10
160.0
 20
147.5
 30
0.0
 11
160.0
 21
150.0
 31
0.0
  0
LINE
  8
0
  6
CONTINUOUS
 62
   249
 10
142.5
 20
150.0
 30
0.0
 11
140.78221
 21
155.014966
 31
0.0
  0
LINE
  8
0
  6
CONTINUOUS
 62
   249
 10
145.0
 20
150.0
 30
0.0
 11
143.28221
 21
155.014966
 31
0.0
  0
LINE
  8
0
  6
CONTINUOUS
 62
   249
 10
147.5
 20
150.0
 30
0.0
 11
145.78221
 21
155.014966
 31
0.0
  0
LINE
  8
0
  6
CONTINUOUS
 62
   249
 10
150.0
 20
150.0
 30
0.0
 11
148.28221
 21
155.014966
 31
0.0
  0
LINE
  8
0
  6
CONTINUOUS
 62
   249
 10
152.5
 20
150.0
 30
0.0
 11
150.78221
 21
155.014966
 31
0.0
  0
LINE
  8
0
  6
CONTINUOUS
 62
   249
 10
155.0
 20
150.0
 30
0.0
 11
153.28221
 21
155.014966
 31
0.0
  0
LINE
  8
0
  6
CONTINUOUS
 62
   249
 10
157.5
 20
150.0
 30
0.0
 11
155.78221
 21
155.014966
 31
0.0
  0
LINE
  8
0
  6
CONTINUOUS
 62
   249
 10
160.0
 20
150.0
 30
0.0
 11
158.28221
 21
155.014966
 31
0.0
  0
LINE
  8
0
  6
CONTINUOUS
 62
   249
 10
140.0
 20
150.0
 30
0.0
 11
140.0
 21
157.5
 31
0.0
  0
LINE
  8
0
  6
CONTINUOUS
 62
   249
 10
142.5
 20
155.0
 30
0.0
 11
142.5
 21
157.5
 31
0.0
  0
LINE
  8
0
  6
CONTINUOUS
 62
   249
 10
145.0
 20
155.0
 30
0.0
 11
145.0
 21
157.5
 31
0.0
  0
LINE
  8
0
  6
CONTINUOUS
 62
   249
 10
147.5
 20
155.0
 30
0.0
 11
147.5
 21
157.5
 31
0.0
  0
LINE
  8
0
  6
CONTINUOUS
 62
   249
 10
150.0
 20
155.0
 30
0.0
 11
150.0
 21
157.5
 31
0.0
  0
LINE
  8
0
  6
CONTINUOUS
 62
   249
 10
152.5
 20
155.0
 30
0.0
 11
152.5
 21
157.5
 31
0.0
  0
LINE
  8
0
  6
CONTINUOUS
 62
   249
 10
155.0
 20
155.0
 30
0.0
 11
155.0
 21
157.5
 31
0.0
  0
LINE
  8
0
  6
CONTINUOUS
 62
   249
 10
157.5
 20
155.0
 30
0.0
 11
157.5
 21
157.5
 31
0.0
  0
LINE
  8
0
  6
CONTINUOUS
 62
   249
 10
160.0
 20
155.0
 30
0.0
 11
160.0
 21
157.5
 31
0.0
  0
LINE
  8
0
  6
CONTINUOUS
 62
   249
 10
160.0
 20
157.5
 30
0.0
 11
160.0
 21
157.5
 31
0.0
  0
LINE
  8
0
  6
CONTINUOUS
 62
   249
 10
187.5
 20
178.893212
 30
0.0
 11
87.5
 21
178.893212
 31
0.0
  0
LINE
  8
0
  6
CONTINUOUS
 62
   249
 10
87.5
 20
178.893212
 30
0.0
 11
87.5
 21
170.0
 31
0.0
  0
LINE
  8
0
  6
CONTINUOUS
 62
   249
 10
185.515269
 20
167.5
 30
0.0
 11
182.5
 21
167.5
 31
0.0
  0
LINE
  8
0
  6
CONTINUOUS
 62
   249
 10
177.5
 20
167.5
 30
0.0
 11
170.0
 21
167.5
 31
0.0
  0
LINE
  8
0
  6
CONTINUOUS
 62
   249
 10
170.0
 20
167.5
 30
0.0
 11
170.0
 21
230.0
 31
0.0
  0
LINE
  8
0
  6
CONTINUOUS
 62
   249
 10
182.5
 20
167.5
 30
0.0
 11
177.016258
 21
166.208764
 31
0.0
  0
LINE
  8
0
  6
CONTINUOUS
 62
   249
 10
177.5
 20
173.219573
 30
0.0
 11
170.0
 21
173.219573
 31
0.0
  0
LINE
  8
0
  6
CONTINUOUS
 62
   249
 10
182.5
 20
173.219573
 30
0.0
 11
177.016258
 21
171.928337
 31
0.0
  0
LINE
  8
0
  6
CONTINUOUS
 62
   249
 10
185.514369
 20
173.219573
 30
0.0
 11
182.5
 21
173.219573
 31
0.0
  0
LINE
  8
0
  6
CONTINUOUS
 62
   249
 10
177.5
 20
182.670555
 30
0.0
 11
170.0
 21
182.670555
 31
0.0
  0
LINE
  8
0
  6
CONTINUOUS
 62
   249
 10
182.5
 20
182.670555
 30
0.0
 11
177.016258
 21
181.379319
 31
0.0
  0
LINE
  8
0
  6
CONTINUOUS
 62
   249
 10
185.513785
 20
182.670555
 30
0.0
 11
182.5
 21
182.670555
 31
0.0
  0
LINE
  8
0
  6
CONTINUOUS
 62
   249
 10
187.5
 20
195.0
 30
0.0
 11
132.5
 21
195.0
 31
0.0
  0
LINE
  8
0
  6
CONTINUOUS
 62
   249
 10
132.5
 20
195.0
 30
0.0
 11
132.5
 21
157.5
 31
0.0
  0
LINE
  8
0
  6
CONTINUOUS
 62
   249
 10
187.5
 20
186.731945
 30
0.0
 11
85.0
 21
186.731945
 31
0.0
  0
LINE
  8
0
  6
CONTINUOUS
 62
   249
 10
85.0
 20
186.731945
 30
0.0
 11
85.0
 21
170.0
 31
0.0
  0
LINE
  8
0
  6
CONTINUOUS
 62
   249
 10
177.5
 20
190.377043
 30
0.0
 11
170.0
 21
190.377043
 31
0.0
  0
LINE
  8
0
  6
CONTINUOUS
 62
   249
 10
182.5
 20
190.377043
 30
0.0
 11
177.016258
 21
189.085808
 31
0.0
  0
LINE
  8
0
  6
CONTINUOUS
 62
   249
 10
185.51273
 20
190.377043
 30
0.0
 11
182.5
 21
190.377043
 31
0.0
  0
LINE
  8
0
  6
CONTINUOUS
 62
   249
 10
187.5
 20
200.0
 30
0.0
 11
130.0
 21
200.0
 31
0.0
  0
LINE
  8
0
  6
CONTINUOUS
 62
   249
 10
130.0
 20
200.0
 30
0.0
 11
130.0
 21
157.5
 31
0.0
  0
LINE
  8
0
  6
CONTINUOUS
 62
   249
 10
187.5
 20
204.18117
 30
0.0
 11
82.5
 21
204.18117
 31
0.0
  0
LINE
  8
0
  6
CONTINUOUS
 62
   249
 10
82.5
 20
204.18117
 30
0.0
 11
82.5
 21
170.0
 31
0.0
  0
LINE
  8
0
  6
CONTINUOUS
 62
   249
 10
177.5
 20
207.909512
 30
0.0
 11
170.0
 21
207.909512
 31
0.0
  0
LINE
  8
0
  6
CONTINUOUS
 62
   249
 10
182.5
 20
207.909512
 30
0.0
 11
177.016258
 21
206.618276
 31
0.0
  0
LINE
  8
0
  6
CONTINUOUS
 62
   249
 10
185.51273
 20
207.909512
 30
0.0
 11
182.5
 21
207.909512
 31
0.0
  0
LINE
  8
0
  6
CONTINUOUS
 62
   249
 10
187.5
 20
212.5
 30
0.0
 11
127.5
 21
212.5
 31
0.0
  0
LINE
  8
0
  6
CONTINUOUS
 62
   249
 10
127.5
 20
212.5
 30
0.0
 11
127.5
 21
157.5
 31
0.0
  0
LINE
  8
0
  6
CONTINUOUS
 62
   249
 10
187.5
 20
216.639282
 30
0.0
 11
80.0
 21
216.639282
 31
0.0
  0
LINE
  8
0
  6
CONTINUOUS
 62
   249
 10
80.0
 20
216.639282
 30
0.0
 11
80.0
 21
170.0
 31
0.0
  0
LINE
  8
0
  6
CONTINUOUS
 62
   249
 10
177.5
 20
220.631988
 30
0.0
 11
170.0
 21
220.631988
 31
0.0
  0
LINE
  8
0
  6
CONTINUOUS
 62
   249
 10
182.5
 20
220.631988
 30
0.0
 11
177.016258
 21
219.340752
 31
0.0
  0
LINE
  8
0
  6
CONTINUOUS
 62
   249
 10
185.51273
 20
220.631988
 30
0.0
 11
182.5
 21
220.631988
 31
0.0
  0
LINE
  8
0
  6
CONTINUOUS
 62
   249
 10
187.5
 20
225.0
 30
0.0
 11
125.0
 21
225.0
 31
0.0
  0
LINE
  8
0
  6
CONTINUOUS
 62
   249
 10
125.0
 20
225.0
 30
0.0
 11
125.0
 21
157.5
 31
0.0
  0
LINE
  8
0
  6
CONTINUOUS
 62
   249
 10
160.0
 20
157.5
 30
0.0
 11
160.0
 21
178.893212
 31
0.0
  0
LINE
  8
0
  6
CONTINUOUS
 62
   249
 10
157.5
 20
157.5
 30
0.0
 11
157.5
 21
186.731945
 31
0.0
  0
LINE
  8
0
  6
CONTINUOUS
 62
   249
 10
155.0
 20
157.5
 30
0.0
 11
155.0
 21
195.0
 31
0.0
  0
LINE
  8
0
  6
CONTINUOUS
 62
   249
 10
152.5
 20
157.5
 30
0.0
 11
152.5
 21
200.0
 31
0.0
  0
LINE
  8
0
  6
CONTINUOUS
 62
   249
 10
150.0
 20
157.5
 30
0.0
 11
150.0
 21
204.18117
 31
0.0
  0
LINE
  8
0
  6
CONTINUOUS
 62
   249
 10
147.5
 20
157.5
 30
0.0
 11
147.5
 21
212.5
 31
0.0
  0
LINE
  8
0
  6
CONTINUOUS
 62
   249
 10
145.0
 20
157.5
 30
0.0
 11
145.0
 21
216.639282
 31
0.0
  0
LINE
  8
0
  6
CONTINUOUS
 62
   249
 10
142.5
 20
157.5
 30
0.0
 11
142.5
 21
225.0
 31
0.0
  0
LINE
  8
0
  6
CONTINUOUS
 62
   249
 10
95.0
 20
157.5
 30
0.0
 11
95.0
 21
216.639282
 31
0.0
  0
LINE
  8
0
  6
CONTINUOUS
 62
   249
 10
97.5
 20
157.5
 30
0.0
 11
97.5
 21
204.18117
 31
0.0
  0
LINE
  8
0
  6
CONTINUOUS
 62
   249
 10
100.0
 20
157.5
 30
0.0
 11
100.0
 21
186.731945
 31
0.0
  0
LINE
  8
0
  6
CONTINUOUS
 62
   249
 10
102.5
 20
157.5
 30
0.0
 11
102.5
 21
178.893212
 31
0.0
  0
LINE
  8
0
  6
CONTINUOUS
 62
   249
 10
110.0
 20
157.5
 30
0.0
 11
110.0
 21
216.639282
 31
0.0
  0
LINE
  8
0
  6
CONTINUOUS
 62
   249
 10
112.5
 20
157.5
 30
0.0
 11
112.5
 21
204.18117
 31
0.0
  0
LINE
  8
0
  6
CONTINUOUS
 62
   249
 10
115.0
 20
157.5
 30
0.0
 11
115.0
 21
186.731945
 31
0.0
  0
LINE
  8
0
  6
CONTINUOUS
 62
   249
 10
117.5
 20
157.5
 30
0.0
 11
117.5
 21
178.893212
 31
0.0
  0
TEXT
  8
0
  6
CONTINUOUS
 62
   249
 10
94.696757
 20
157.593919
 30
0.0
 40
1.5
  1
SGR2/2
 50
90.0
  7
ROMANS
  0
TEXT
  8
0
  6
CONTINUOUS
 62
   249
 10
97.248443
 20
157.593919
 30
0.0
 40
1.5
  1
SGR2/4
 50
90.0
  7
ROMANS
  0
TEXT
  8
0
  6
CONTINUOUS
 62
   249
 10
99.748443
 20
157.593919
 30
0.0
 40
1.5
  1
SGR2/6
 50
90.0
  7
ROMANS
  0
TEXT
  8
0
  6
CONTINUOUS
 62
   249
 10
102.196757
 20
157.593919
 30
0.0
 40
1.5
  1
SGR2/8
 50
90.0
  7
ROMANS
  0
TEXT
  8
0
  6
CONTINUOUS
 62
   249
 10
109.806493
 20
157.593919
 30
0.0
 40
1.5
  1
SGR2/1
 50
90.0
  7
ROMANS
  0
TEXT
  8
0
  6
CONTINUOUS
 62
   249
 10
112.306493
 20
157.593919
 30
0.0
 40
1.5
  1
SGR2/3
 50
90.0
  7
ROMANS
  0
TEXT
  8
0
  6
CONTINUOUS
 62
   249
 10
114.806493
 20
157.593919
 30
0.0
 40
1.5
  1
SGR2/5
 50
90.0
  7
ROMANS
  0
TEXT
  8
0
  6
CONTINUOUS
 62
   249
 10
117.306493
 20
157.593919
 30
0.0
 40
1.5
  1
SGR2/7
 50
90.0
  7
ROMANS
  0
TEXT
  8
0
  6
CONTINUOUS
 62
   249
 10
124.837329
 20
157.593919
 30
0.0
 40
1.5
  1
SGR1/1
 50
90.0
  7
ROMANS
  0
TEXT
  8
0
  6
CONTINUOUS
 62
   249
 10
127.3201
 20
157.593919
 30
0.0
 40
1.5
  1
SGR1/3
 50
90.0
  7
ROMANS
  0
TEXT
  8
0
  6
CONTINUOUS
 62
   249
 10
129.837329
 20
157.593919
 30
0.0
 40
1.5
  1
SGR1/5
 50
90.0
  7
ROMANS
  0
TEXT
  8
0
  6
CONTINUOUS
 62
   249
 10
132.337329
 20
157.593919
 30
0.0
 40
1.5
  1
SGR1/7
 50
90.0
  7
ROMANS
  0
TEXT
  8
0
  6
CONTINUOUS
 62
   249
 10
142.057526
 20
157.634798
 30
0.0
 40
1.5
  1
SGR3/1
 50
90.0
  7
ROMANS
  0
TEXT
  8
0
  6
CONTINUOUS
 62
   249
 10
144.592003
 20
157.634798
 30
0.0
 40
1.5
  1
SGR3/2
 50
90.0
  7
ROMANS
  0
TEXT
  8
0
  6
CONTINUOUS
 62
   249
 10
147.057526
 20
157.634798
 30
0.0
 40
1.5
  1
SGR3/3
 50
90.0
  7
ROMANS
  0
TEXT
  8
0
  6
CONTINUOUS
 62
   249
 10
149.557526
 20
157.634798
 30
0.0
 40
1.5
  1
SGR3/4
 50
90.0
  7
ROMANS
  0
TEXT
  8
0
  6
CONTINUOUS
 62
   249
 10
152.057526
 20
157.634798
 30
0.0
 40
1.5
  1
SGR3/7
 50
90.0
  7
ROMANS
  0
TEXT
  8
0
  6
CONTINUOUS
 62
   249
 10
154.774435
 20
157.634798
 30
0.0
 40
1.5
  1
SGR3/5
 50
90.0
  7
ROMANS
  0
TEXT
  8
0
  6
CONTINUOUS
 62
   249
 10
157.057526
 20
157.634798
 30
0.0
 40
1.5
  1
SGR3/6
 50
90.0
  7
ROMANS
  0
TEXT
  8
0
  6
CONTINUOUS
 62
   249
 10
159.574764
 20
157.634798
 30
0.0
 40
1.5
  1
SGR3/8
 50
90.0
  7
ROMANS
  0
CIRCLE
  8
0
  6
CONTINUOUS
 62
   249
 10
87.505242
 20
153.19998
 30
0.0
 40
0.7
  0
LINE
  8
0
  6
CONTINUOUS
 62
   249
 10
87.5
 20
150.0
 30
0.0
 11
87.5
 21
152.5
 31
0.0
  0
LINE
  8
0
  6
CONTINUOUS
 62
   249
 10
85.0
 20
150.0
 30
0.0
 11
85.0
 21
152.5
 31
0.0
  0
CIRCLE
  8
0
  6
CONTINUOUS
 62
   249
 10
85.005242
 20
153.19998
 30
0.0
 40
0.7
  0
LINE
  8
0
  6
CONTINUOUS
 62
   249
 10
87.5
 20
165.0
 30
0.0
 11
87.5
 21
153.899961
 31
0.0
  0
LINE
  8
0
  6
CONTINUOUS
 62
   249
 10
85.0
 20
165.0
 30
0.0
 11
85.0
 21
153.899961
 31
0.0
  0
CIRCLE
  8
0
  6
CONTINUOUS
 62
   249
 10
82.505242
 20
156.852465
 30
0.0
 40
0.7
  0
CIRCLE
  8
0
  6
CONTINUOUS
 62
   249
 10
80.005242
 20
156.852465
 30
0.0
 40
0.7
  0
LINE
  8
0
  6
CONTINUOUS
 62
   249
 10
82.5
 20
165.0
 30
0.0
 11
82.5
 21
157.552445
 31
0.0
  0
LINE
  8
0
  6
CONTINUOUS
 62
   249
 10
80.0
 20
165.0
 30
0.0
 11
80.0
 21
157.552445
 31
0.0
  0
LINE
  8
0
  6
CONTINUOUS
 62
   249
 10
85.705184
 20
153.190977
 30
0.0
 11
86.8053
 21
153.190977
 31
0.0
  0
LINE
  8
0
  6
CONTINUOUS
 62
   249
 10
80.705241
 20
156.851524
 30
0.0
 11
81.805243
 21
156.851524
 31
0.0
  0
LINE
  8
0
  6
CONTINUOUS
 62
   249
 10
77.5
 20
162.5
 30
0.0
 11
87.5
 21
162.5
 31
0.0
  0
LINE
  8
0
  6
CONTINUOUS
 62
   249
 10
87.5
 20
161.601912
 30
0.0
 11
86.206597
 21
162.5
 31
0.0
  0
LINE
  8
0
  6
CONTINUOUS
 62
   249
 10
86.206597
 20
162.5
 30
0.0
 11
87.5
 21
163.406769
 31
0.0
  0
LINE
  8
0
  6
CONTINUOUS
 62
   249
 10
85.0
 20
161.601912
 30
0.0
 11
83.706597
 21
162.5
 31
0.0
  0
LINE
  8
0
  6
CONTINUOUS
 62
   249
 10
83.706597
 20
162.5
 30
0.0
 11
85.0
 21
163.406769
 31
0.0
  0
LINE
  8
0
  6
CONTINUOUS
 62
   249
 10
82.5
 20
161.601912
 30
0.0
 11
81.206597
 21
162.5
 31
0.0
  0
LINE
  8
0
  6
CONTINUOUS
 62
   249
 10
81.206597
 20
162.5
 30
0.0
 11
82.5
 21
163.406769
 31
0.0
  0
LINE
  8
0
  6
CONTINUOUS
 62
   249
 10
80.0
 20
161.601912
 30
0.0
 11
78.706597
 21
162.5
 31
0.0
  0
LINE
  8
0
  6
CONTINUOUS
 62
   249
 10
78.706597
 20
162.5
 30
0.0
 11
80.0
 21
163.406769
 31
0.0
  0
LINE
  8
0
  6
CONTINUOUS
 62
   249
 10
87.5
 20
165.0
 30
0.0
 11
85.78221
 21
170.014966
 31
0.0
  0
LINE
  8
0
  6
CONTINUOUS
 62
   249
 10
85.0
 20
165.0
 30
0.0
 11
83.28221
 21
170.014966
 31
0.0
  0
LINE
  8
0
  6
CONTINUOUS
 62
   249
 10
82.5
 20
165.0
 30
0.0
 11
80.78221
 21
170.014966
 31
0.0
  0
LINE
  8
0
  6
CONTINUOUS
 62
   249
 10
80.0
 20
165.0
 30
0.0
 11
78.28221
 21
170.014966
 31
0.0
  0
LINE
  8
0
  6
CONTINUOUS
 62
   249
 10
79.305852
 20
156.823245
 30
0.0
 11
77.645492
 21
156.823245
 31
0.0
  0
LINE
  8
0
  6
CONTINUOUS
 62
   249
 10
84.305603
 20
153.1775
 30
0.0
 11
77.839749
 21
153.1775
 31
0.0
  0
LINE
  8
0
  6
CONTINUOUS
 62
   249
 10
72.198644
 20
153.130553
 30
0.0
 11
65.858768
 21
153.130553
 31
0.0
  0
LINE
  8
0
  6
CONTINUOUS
 62
   249
 10
72.198644
 20
156.854176
 30
0.0
 11
65.858768
 21
156.854176
 31
0.0
  0
LINE
  8
0
  6
CONTINUOUS
 62
   249
 10
77.839749
 20
153.1775
 30
0.0
 11
73.790766
 21
151.619972
 31
0.0
  0
LINE
  8
0
  6
CONTINUOUS
 62
   249
 10
77.645492
 20
156.823245
 30
0.0
 11
73.790766
 21
155.340443
 31
0.0
  0
TEXT
  8
0
  6
CONTINUOUS
 62
   249
 10
59.32003
 20
157.761802
 30
0.0
 40
1.5
  1
SEAL. IN
  7
ROMANS
  0
TEXT
  8
0
  6
CONTINUOUS
 62
   249
 10
79.714398
 20
172.667256
 30
0.0
 40
1.5
  1
SGR1/2
 50
90.0
  7
ROMANS
  0
TEXT
  8
0
  6
CONTINUOUS
 62
   249
 10
82.214398
 20
172.667256
 30
0.0
 40
1.5
  1
SGR1/4
 50
90.0
  7
ROMANS
  0
TEXT
  8
0
  6
CONTINUOUS
 62
   249
 10
84.714398
 20
172.667256
 30
0.0
 40
1.5
  1
SGR1/6
 50
90.0
  7
ROMANS
  0
TEXT
  8
0
  6
CONTINUOUS
 62
   249
 10
87.214398
 20
172.667256
 30
0.0
 40
1.5
  1
SGR1/8
 50
90.0
  7
ROMANS
  0
LINE
  8
0
  6
CENTER
 62
   249
 10
57.5
 20
247.5
 30
0.0
 11
57.5
 21
80.0
 31
0.0
  0
LINE
  8
0
  6
CONTINUOUS
 62
   249
 10
75.0
 20
130.0
 30
0.0
 11
80.0
 21
130.0
 31
0.0
  0
LINE
  8
0
  6
CONTINUOUS
 62
   249
 10
85.740939
 20
130.0
 30
0.0
 11
90.0
 21
130.0
 31
0.0
  0
LINE
  8
0
  6
CONTINUOUS
 62
   249
 10
85.0
 20
130.0
 30
0.0
 11
79.256076
 21
126.785297
 31
0.0
  0
LINE
  8
0
  6
CONTINUOUS
 62
   249
 10
100.0
 20
122.5
 30
0.0
 11
94.256076
 21
119.285297
 31
0.0
  0
LINE
  8
0
  6
CONTINUOUS
 62
   249
 10
100.0
 20
122.5
 30
0.0
 11
105.0
 21
122.5
 31
0.0
  0
LINE
  8
0
  6
CONTINUOUS
 62
   249
 10
115.0
 20
115.0
 30
0.0
 11
120.0
 21
115.0
 31
0.0
  0
LINE
  8
0
  6
CONTINUOUS
 62
   249
 10
115.0
 20
115.0
 30
0.0
 11
109.256076
 21
111.785297
 31
0.0
  0
LINE
  8
0
  6
CONTINUOUS
 62
   249
 10
130.0
 20
107.5
 30
0.0
 11
124.256076
 21
104.285297
 31
0.0
  0
LINE
  8
0
  6
CONTINUOUS
 62
   249
 10
130.0
 20
107.5
 30
0.0
 11
135.0
 21
107.5
 31
0.0
  0
LINE
  8
0
  6
CONTINUOUS
 62
   249
 10
145.0
 20
100.0
 30
0.0
 11
139.256076
 21
96.785297
 31
0.0
  0
LINE
  8
0
  6
CONTINUOUS
 62
   249
 10
145.0
 20
100.0
 30
0.0
 11
150.0
 21
100.0
 31
0.0
  0
LINE
  8
0
  6
CONTINUOUS
 62
   249
 10
95.0
 20
122.5
 30
0.0
 11
57.5
 21
122.5
 31
0.0
  0
LINE
  8
0
  6
CONTINUOUS
 62
   249
 10
110.0
 20
115.0
 30
0.0
 11
57.5
 21
115.0
 31
0.0
  0
LINE
  8
0
  6
CONTINUOUS
 62
   249
 10
125.0
 20
107.5
 30
0.0
 11
57.5
 21
107.5
 31
0.0
  0
LINE
  8
0
  6
CONTINUOUS
 62
   249
 10
80.0
 20
100.0
 30
0.0
 11
72.5
 21
100.0
 31
0.0
  0
LINE
  8
0
  6
CONTINUOUS
 62
   249
 10
57.5
 20
100.0
 30
0.0
 11
140.0
 21
100.0
 31
0.0
  0
LINE
  8
0
  6
CONTINUOUS
 62
   249
 10
147.5
 20
92.5
 30
0.0
 11
57.5
 21
92.5
 31
0.0
  0
LINE
  8
0
  6
CONTINUOUS
 62
   249
 10
147.5
 20
87.5
 30
0.0
 11
57.5
 21
87.5
 31
0.0
  0
LINE
  8
0
  6
CONTINUOUS
 62
   249
 10
82.5
 20
140.0
 30
0.0
 11
82.5
 21
135.0
 31
0.0
  0
LINE
  8
0
  6
CONTINUOUS
 62
   249
 10
97.5
 20
140.0
 30
0.0
 11
97.5
 21
135.0
 31
0.0
  0
LINE
  8
0
  6
CONTINUOUS
 62
   249
 10
112.5
 20
140.0
 30
0.0
 11
112.5
 21
135.0
 31
0.0
  0
LINE
  8
0
  6
CONTINUOUS
 62
   249
 10
127.5
 20
140.0
 30
0.0
 11
127.5
 21
135.0
 31
0.0
  0
LINE
  8
0
  6
CONTINUOUS
 62
   249
 10
142.5
 20
142.5
 30
0.0
 11
142.5
 21
135.0
 31
0.0
  0
LINE
  8
0
  6
DASHED
 62
   249
 10
82.5
 20
135.0
 30
0.0
 11
82.5
 21
128.600824
 31
0.0
  0
LINE
  8
0
  6
DASHED
 62
   249
 10
97.5
 20
135.0
 30
0.0
 11
97.5
 21
121.100824
 31
0.0
  0
LINE
  8
0
  6
DASHED
 62
   249
 10
112.5
 20
135.0
 30
0.0
 11
112.5
 21
113.600824
 31
0.0
  0
LINE
  8
0
  6
DASHED
 62
   249
 10
127.5
 20
135.0
 30
0.0
 11
127.5
 21
106.100824
 31
0.0
  0
LINE
  8
0
  6
DASHED
 62
   249
 10
142.5
 20
135.0
 30
0.0
 11
142.5
 21
98.600824
 31
0.0
  0
TEXT
  8
0
  6
DASHED
 62
   249
 10
78.197373
 20
130.903492
 30
0.0
 40
2.0
  1
A
  7
ROMANS
  0
TEXT
  8
0
  6
DASHED
 62
   249
 10
94.143373
 20
123.774588
 30
0.0
 40
2.0
  1
B
  7
ROMANS
  0
TEXT
  8
0
  6
DASHED
 62
   249
 10
108.555109
 20
115.634364
 30
0.0
 40
2.0
  1
C
  7
ROMANS
  0
TEXT
  8
0
  6
DASHED
 62
   249
 10
123.484014
 20
108.255752
 30
0.0
 40
2.0
  1
D
  7
ROMANS
  0
TEXT
  8
0
  6
DASHED
 62
   249
 10
138.171573
 20
100.864654
 30
0.0
 40
2.0
  1
E
  7
ROMANS
  0
TEXT
  8
0
  6
DASHED
 62
   249
 10
151.066284
 20
93.236332
 30
0.0
 40
2.0
  1
F
  7
ROMANS
  0
LINE
  8
0
  6
CENTER
 62
   249
 10
57.5
 20
80.0
 30
0.0
 11
250.0
 21
80.0
 31
0.0
  0
LINE
  8
0
  6
CONTINUOUS
 62
   249
 10
162.5
 20
92.5
 30
0.0
 11
165.0
 21
92.5
 31
0.0
  0
LINE
  8
0
  6
CONTINUOUS
 62
   249
 10
165.0
 20
92.5
 30
0.0
 11
165.0
 21
80.0
 31
0.0
  0
LINE
  8
0
  6
CONTINUOUS
 62
   249
 10
150.0
 20
100.0
 30
0.0
 11
170.0
 21
100.0
 31
0.0
  0
LINE
  8
0
  6
CONTINUOUS
 62
   249
 10
170.0
 20
100.0
 30
0.0
 11
170.0
 21
80.0
 31
0.0
  0
LINE
  8
0
  6
CONTINUOUS
 62
   249
 10
187.5
 20
102.5
 30
0.0
 11
187.5
 21
80.0
 31
0.0
  0
LINE
  8
0
  6
CONTINUOUS
 62
   249
 10
187.5
 20
107.5
 30
0.0
 11
187.5
 21
100.749065
 31
0.0
  0
LINE
  8
0
  6
CONTINUOUS
 62
   249
 10
135.0
 20
107.5
 30
0.0
 11
175.0
 21
107.5
 31
0.0
  0
LINE
  8
0
  6
CONTINUOUS
 62
   249
 10
120.0
 20
115.0
 30
0.0
 11
182.5
 21
115.0
 31
0.0
  0
LINE
  8
0
  6
CONTINUOUS
 62
   249
 10
105.0
 20
122.5
 30
0.0
 11
187.5
 21
122.5
 31
0.0
  0
LINE
  8
0
  6
CONTINUOUS
 62
   249
 10
187.5
 20
122.5
 30
0.0
 11
187.5
 21
107.5
 31
0.0
  0
LINE
  8
0
  6
CONTINUOUS
 62
   249
 10
85.0
 20
130.0
 30
0.0
 11
192.5
 21
130.0
 31
0.0
  0
LINE
  8
0
  6
CONTINUOUS
 62
   249
 10
192.5
 20
130.0
 30
0.0
 11
192.5
 21
100.0
 31
0.0
  0
LINE
  8
0
  6
CONTINUOUS
 62
   249
 10
185.51266
 20
157.5
 30
0.0
 11
177.5
 21
157.5
 31
0.0
  0
LINE
  8
0
  6
CONTINUOUS
 62
   249
 10
177.5
 20
157.5
 30
0.0
 11
177.5
 21
137.5
 31
0.0
  0
LINE
  8
0
  6
CONTINUOUS
 62
   249
 10
177.5
 20
137.5
 30
0.0
 11
155.0
 21
137.5
 31
0.0
  0
LINE
  8
0
  6
CONTINUOUS
 62
   249
 10
155.0
 20
137.5
 30
0.0
 11
155.0
 21
132.5
 31
0.0
  0
LINE
  8
0
  6
DASHED
 62
   249
 10
155.0
 20
132.5
 30
0.0
 11
155.0
 21
91.100824
 31
0.0
  0
LINE
  8
0
  6
CONTINUOUS
 62
   249
 10
147.5
 20
92.5
 30
0.0
 11
152.5
 21
92.5
 31
0.0
  0
LINE
  8
0
  6
CONTINUOUS
 62
   249
 10
152.5
 20
87.5
 30
0.0
 11
147.5
 21
87.5
 31
0.0
  0
LINE
  8
0
  6
CONTINUOUS
 62
   249
 10
152.5
 20
87.5
 30
0.0
 11
152.5
 21
90.0
 31
0.0
  0
LINE
  8
0
  6
CONTINUOUS
 62
   249
 10
157.5
 20
92.5
 30
0.0
 11
162.5
 21
92.5
 31
0.0
  0
LINE
  8
0
  6
CONTINUOUS
 62
   249
 10
157.5
 20
92.5
 30
0.0
 11
151.756076
 21
89.285297
 31
0.0
  0
LINE
  8
0
  6
CONTINUOUS
 62
   249
 10
100.221556
 20
230.0
 30
0.0
 11
170.0
 21
230.0
 31
0.0
  0
LINE
  8
0
  6
CONTINUOUS
 62
   249
 10
77.5
 20
162.5
 30
0.0
 11
70.0
 21
162.5
 31
0.0
  0
LINE
  8
0
  6
CONTINUOUS
 62
   249
 10
140.0
 20
157.5
 30
0.0
 11
140.0
 21
207.5
 31
0.0
  0
LINE
  8
0
  6
CONTINUOUS
 62
   249
 10
140.0
 20
207.5
 30
0.0
 11
70.0
 21
207.5
 31
0.0
  0
LINE
  8
0
  6
CONTINUOUS
 62
   249
 10
70.0
 20
207.5
 30
0.0
 11
70.0
 21
200.0
 31
0.0
  0
LINE
  8
0
  6
CONTINUOUS
 62
   249
 10
70.0
 20
195.0
 30
0.0
 11
70.0
 21
190.0
 31
0.0
  0
LINE
  8
0
  6
CONTINUOUS
 62
   249
 10
70.0
 20
195.0
 30
0.0
 11
67.629915
 21
199.92295
 31
0.0
  0
LINE
  8
0
  6
CONTINUOUS
 62
   249
 10
70.0
 20
162.5
 30
0.0
 11
70.0
 21
175.0
 31
0.0
  0
LINE
  8
0
  6
CONTINUOUS
 62
   249
 10
230.0
 20
210.0
 30
0.0
 11
231.0
 21
209.0
 31
0.0
  0
LINE
  8
0
  6
CONTINUOUS
 62
   249
 10
230.0
 20
235.0
 30
0.0
 11
231.0
 21
236.0
 31
0.0
  0
LINE
  8
0
  6
CONTINUOUS
 62
   249
 10
227.5
 20
162.5
 30
0.0
 11
217.950615
 21
162.5
 31
0.0
  0
LINE
  8
0
  6
CONTINUOUS
 62
   249
 10
230.0
 20
222.5
 30
0.0
 11
220.0
 21
222.5
 31
0.0
  0
LINE
  8
0
  6
CENTER
 62
   249
 10
250.0
 20
247.5
 30
0.0
 11
57.5
 21
247.5
 31
0.0
  0
LINE
  8
0
  6
CONTINUOUS
 62
   249
 10
230.0
 20
182.458863
 30
0.0
 11
220.0
 21
182.458863
 31
0.0
  0
LINE
  8
0
  6
CONTINUOUS
 62
   249
 10
220.0
 20
182.458863
 30
0.0
 11
220.0
 21
188.935772
 31
0.0
  0
LINE
  8
0
  6
CONTINUOUS
 62
   249
 10
220.0
 20
188.935772
 30
0.0
 11
217.950615
 21
188.935772
 31
0.0
  0
LINE
  8
0
  6
CONTINUOUS
 62
   249
 10
227.5
 20
162.5
 30
0.0
 11
235.0
 21
162.5
 31
0.0
  0
LINE
  8
0
  6
CONTINUOUS
 62
   249
 10
243.838166
 20
156.092819
 30
0.0
 11
245.757416
 21
158.780896
 31
0.0
  0
TEXT
  8
0
  6
CONTINUOUS
 62
   249
 10
228.447529
 20
153.642085
 30
0.0
 40
2.0
  1
SERIAL PORT
  7
ROMANS
  0
ARC
  8
0
  6
CONTINUOUS
 62
   249
 10
252.5
 20
157.5
 30
0.0
 40
2.5
 50
90.0
 51
270.0
  0
LINE
  8
0
  6
CONTINUOUS
 62
   249
 10
251.819436
 20
157.99
 30
0.0
 11
251.819436
 21
157.01
 31
0.0
  0
LINE
  8
0
  6
CONTINUOUS
 62
   249
 10
251.819436
 20
157.01
 30
0.0
 11
255.249436
 21
157.01
 31
0.0
  0
LINE
  8
0
  6
CONTINUOUS
 62
   249
 10
255.249436
 20
157.01
 30
0.0
 11
255.249436
 21
157.99
 31
0.0
  0
LINE
  8
0
  6
CONTINUOUS
 62
   249
 10
255.249436
 20
157.99
 30
0.0
 11
251.819436
 21
157.99
 31
0.0
  0
LINE
  8
0
  6
CONTINUOUS
 62
   249
 10
341.600968
 20
251.769581
 30
0.0
 11
361.576963
 21
251.769581
 31
0.0
  0
LINE
  8
0
  6
CONTINUOUS
 62
   249
 10
361.576963
 20
251.769581
 30
0.0
 11
361.576963
 21
209.024479
 31
0.0
  0
LINE
  8
0
  6
CONTINUOUS
 62
   249
 10
341.600968
 20
209.024479
 30
0.0
 11
341.600968
 21
251.769581
 31
0.0
  0
LINE
  8
0
  6
CONTINUOUS
 62
   249
 10
353.090683
 20
217.319143
 30
0.0
 11
355.436448
 21
215.983789
 31
0.0
  0
LINE
  8
0
  6
CONTINUOUS
 62
   249
 10
355.436448
 20
215.983789
 30
0.0
 11
353.090683
 21
214.79387
 31
0.0
  0
LINE
  8
0
  6
CONTINUOUS
 62
   249
 10
355.149194
 20
217.319143
 30
0.0
 11
357.494959
 21
215.983789
 31
0.0
  0
LINE
  8
0
  6
CONTINUOUS
 62
   249
 10
357.494959
 20
215.983789
 30
0.0
 11
355.149194
 21
214.79387
 31
0.0
  0
TEXT
  8
0
  6
CONTINUOUS
 62
   249
 10
347.96572
 20
227.533514
 30
0.0
 40
2.5
  1
I
 11
347.96572
 21
226.700181
 31
0.0
 73
     1
  0
LINE
  8
0
  6
CONTINUOUS
 62
   249
 10
347.193555
 20
243.920796
 30
0.0
 11
347.193555
 21
242.132665
 31
0.0
  0
LINE
  8
0
  6
CONTINUOUS
 62
   249
 10
347.224587
 20
243.075518
 30
0.0
 11
355.012792
 21
243.075518
 31
0.0
  0
LINE
  8
0
  6
CONTINUOUS
 62
   249
 10
352.054138
 20
245.27368
 30
0.0
 11
352.954815
 21
244.149931
 31
0.0
  0
ARC
  8
0
  6
HIDDEN
 62
   249
 10
353.919455
 20
247.004062
 30
0.0
 40
4.998196
 50
206.402922
 51
282.21115
  0
LINE
  8
0
  6
CONTINUOUS
 62
   249
 10
349.608731
 20
241.907915
 30
0.0
 11
352.484842
 21
244.736474
 31
0.0
  0
LINE
  8
0
  6
CONTINUOUS
 62
   249
 10
355.008251
 20
243.920796
 30
0.0
 11
355.008251
 21
242.132665
 31
0.0
  0
LINE
  8
0
  6
CONTINUOUS
 62
   249
 10
355.032149
 20
238.224213
 30
0.0
 11
352.686384
 21
237.034294
 31
0.0
  0
LINE
  8
0
  6
CONTINUOUS
 62
   249
 10
352.686384
 20
239.559567
 30
0.0
 11
355.032149
 21
238.224213
 31
0.0
  0
LINE
  8
0
  6
CONTINUOUS
 62
   249
 10
354.744894
 20
239.559567
 30
0.0
 11
357.09066
 21
238.224213
 31
0.0
  0
LINE
  8
0
  6
CONTINUOUS
 62
   249
 10
357.09066
 20
238.224213
 30
0.0
 11
354.744894
 21
237.034294
 31
0.0
  0
LINE
  8
0
  6
CONTINUOUS
 62
   249
 10
347.193555
 20
224.610086
 30
0.0
 11
347.193555
 21
222.821954
 31
0.0
  0
LINE
  8
0
  6
CONTINUOUS
 62
   249
 10
347.224587
 20
223.764807
 30
0.0
 11
355.012792
 21
223.764807
 31
0.0
  0
LINE
  8
0
  6
CONTINUOUS
 62
   249
 10
349.608731
 20
222.597204
 30
0.0
 11
352.484842
 21
225.425763
 31
0.0
  0
LINE
  8
0
  6
CONTINUOUS
 62
   249
 10
352.054138
 20
225.96297
 30
0.0
 11
352.954815
 21
224.839221
 31
0.0
  0
LINE
  8
0
  6
CONTINUOUS
 62
   249
 10
355.008251
 20
224.610086
 30
0.0
 11
355.008251
 21
222.821954
 31
0.0
  0
LINE
  8
0
  6
HIDDEN
 62
   249
 10
341.59328
 20
231.214653
 30
0.0
 11
361.576963
 21
231.214653
 31
0.0
  0
LINE
  8
0
  6
CONTINUOUS
 62
   249
 10
355.38626
 20
228.42366
 30
0.0
 11
353.040494
 21
227.233741
 31
0.0
  0
LINE
  8
0
  6
CONTINUOUS
 62
   249
 10
353.040494
 20
229.759014
 30
0.0
 11
355.38626
 21
228.42366
 31
0.0
  0
TEXT
  8
0
  6
CONTINUOUS
 62
   249
 10
347.96572
 20
214.781185
 30
0.0
 40
2.5
  1
I
 11
347.96572
 21
213.947852
 31
0.0
 73
     1
  0
LINE
  8
0
  6
CONTINUOUS
 62
   249
 10
355.008251
 20
234.266826
 30
0.0
 11
355.008251
 21
232.478694
 31
0.0
  0
LINE
  8
0
  6
CONTINUOUS
 62
   249
 10
352.054138
 20
235.61971
 30
0.0
 11
352.954815
 21
234.495961
 31
0.0
  0
LINE
  8
0
  6
CONTINUOUS
 62
   249
 10
349.608731
 20
232.253944
 30
0.0
 11
352.484842
 21
235.082503
 31
0.0
  0
LINE
  8
0
  6
CONTINUOUS
 62
   249
 10
347.224587
 20
233.421547
 30
0.0
 11
355.012792
 21
233.421547
 31
0.0
  0
LINE
  8
0
  6
CONTINUOUS
 62
   249
 10
347.193555
 20
234.266826
 30
0.0
 11
347.193555
 21
232.478694
 31
0.0
  0
LINE
  8
0
  6
DASHED
 62
   249
 10
32.5
 20
232.5
 30
0.0
 11
27.5
 21
232.5
 31
0.0
  0
LINE
  8
0
  6
DASHED
 62
   249
 10
57.5
 20
227.5
 30
0.0
 11
32.5
 21
227.5
 31
0.0
  0
TEXT
  8
0
  6
DASHED
 62
   249
 10
15.0
 20
232.5
 30
0.0
 40
2.0
  1
1)
  7
ROMANS
  0
LINE
  8
0
  6
DASHED
 62
   249
 10
32.5
 20
130.0
 30
0.0
 11
25.0
 21
130.0
 31
0.0
  0
LINE
  8
0
  6
DASHED
 62
   249
 10
57.5
 20
115.0
 30
0.0
 11
32.5
 21
115.0
 31
0.0
  0
LINE
  8
0
  6
DASHED
 62
   249
 10
32.5
 20
100.0
 30
0.0
 11
25.0
 21
100.0
 31
0.0
  0
LINE
  8
0
  6
CONTINUOUS
 62
   249
 10
22.5
 20
122.5
 30
0.0
 11
22.5
 21
114.999655
 31
0.0
  0
LINE
  8
0
  6
CONTINUOUS
 62
   249
 10
22.5
 20
122.5
 30
0.0
 11
23.5
 21
123.5
 31
0.0
  0
LINE
  8
0
  6
CONTINUOUS
 62
   249
 10
22.5
 20
114.999655
 30
0.0
 11
23.5
 21
113.999655
 31
0.0
  0
TEXT
  8
0
  6
CONTINUOUS
 62
   249
 10
15.0
 20
128.863971
 30
0.0
 40
2.0
  1
3)
  7
ROMANS
  0
TEXT
  8
0
  6
CONTINUOUS
 62
   249
 10
15.0
 20
117.687933
 30
0.0
 40
2.0
  1
4)
  7
ROMANS
  0
TEXT
  8
0
  6
CONTINUOUS
 62
   249
 10
15.0
 20
106.54309
 30
0.0
 40
2.0
  1
5)
  7
ROMANS
  0
TEXT
  8
0
  6
CONTINUOUS
 62
   249
 10
15.0
 20
98.960295
 30
0.0
 40
2.0
  1
6)
  7
ROMANS
  0
LINE
  8
0
  6
CONTINUOUS
 62
   249
 10
80.0
 20
130.0
 30
0.0
 11
57.5
 21
130.0
 31
0.0
  0
TEXT
  8
0
  6
CONTINUOUS
 62
   249
 10
14.990901
 20
86.49157
 30
0.0
 40
2.0
  1
7)
  7
ROMANS
  0
LINE
  8
0
  6
DASHED
 62
   249
 10
255.0
 20
157.5
 30
0.0
 11
282.5
 21
157.5
 31
0.0
  0
TEXT
  8
0
  6
DASHED
 62
   249
 10
290.060371
 20
156.508638
 30
0.0
 40
2.0
  1
2)
  7
ROMANS
  0
TEXT
  8
0
  6
DASHED
 62
   249
 10
330.228044
 20
144.892152
 30
0.0
 40
2.0
  1
1) EXTERNAL BLOCKING
  7
ROMANS
  0
TEXT
  8
0
  6
DASHED
 62
   249
 10
331.424421
 20
141.558818
 30
0.0
 40
2.0
  1
  EXTERN BLOCKERING
  7
ROMANS
  0
TEXT
  8
0
  6
DASHED
 62
   249
 10
330.228044
 20
135.725485
 30
0.0
 40
2.0
  1
2) BUS CONNECTION MODULE
  7
ROMANS
  0
TEXT
  8
0
  6
DASHED
 62
   249
 10
331.567059
 20
132.392152
 30
0.0
 40
2.0
  1
  BUSSANSLUTNINGSMODUL
  7
ROMANS
  0
TEXT
  8
0
  6
DASHED
 62
   249
 10
330.228044
 20
117.392152
 30
0.0
 40
2.0
  1
4) ALARM ETC.
  7
ROMANS
  0
TEXT
  8
0
  6
DASHED
 62
   249
 10
331.567059
 20
114.058818
 30
0.0
 40
2.0
  1
  SIGNAL MM.
  7
ROMANS
  0
TEXT
  8
0
  6
DASHED
 62
   249
 10
330.228044
 20
108.225485
 30
0.0
 40
2.0
  1
5) START, BLOCKING ETC.
  7
ROMANS
  0
TEXT
  8
0
  6
DASHED
 62
   249
 10
331.567059
 20
104.892152
 30
0.0
 40
2.0
  1
  START, BLOCKERING MM.
  7
ROMANS
  0
TEXT
  8
0
  6
DASHED
 62
   249
 10
330.228044
 20
89.892152
 30
0.0
 40
2.0
  1
7) INTERNAL RELAY FAULT
  7
ROMANS
  0
TEXT
  8
0
  6
DASHED
 62
   249
 10
331.551842
 20
86.558818
 30
0.0
 40
2.0
  1
  INTERNT RELÄFEL
  7
ROMANS
  0
LINE
  8
0
  6
CONTINUOUS
 62
   249
 10
92.798812
 20
227.5
 30
0.0
 11
57.5
 21
227.5
 31
0.0
  0
LINE
  8
0
  6
CONTINUOUS
 62
   249
 10
92.798812
 20
232.5
 30
0.0
 11
57.5
 21
232.5
 31
0.0
  0
LINE
  8
0
 62
   249
 10
92.798812
 20
234.089925
 30
0.0
 11
92.798812
 21
225.9
 31
0.0
  0
LINE
  8
0
 62
   249
 10
97.004853
 20
234.09384
 30
0.0
 11
95.09105
 21
231.815018
 31
0.0
  0
LINE
  8
0
 62
   249
 10
98.496971
 20
234.09384
 30
0.0
 11
96.642636
 21
231.815018
 31
0.0
  0
LINE
  8
0
 62
   249
 10
100.221556
 20
234.089925
 30
0.0
 11
92.798812
 21
234.089925
 31
0.0
  0
LINE
  8
0
 62
   249
 10
92.798812
 20
225.9
 30
0.0
 11
100.221556
 21
225.9
 31
0.0
  0
LINE
  8
0
 62
   249
 10
100.221556
 20
225.9
 30
0.0
 11
100.221556
 21
234.089925
 31
0.0
  0
LINE
  8
0
  6
CONTINUOUS
 62
   249
 10
100.221556
 20
230.0
 30
0.0
 11
103.098812
 21
230.0
 31
0.0
  0
LINE
  8
0
  6
CONTINUOUS
 62
   249
 10
70.0
 20
178.648475
 30
0.0
 11
70.0
 21
175.0
 31
0.0
  0
LINE
  8
0
  6
CONTINUOUS
 62
   249
 10
70.0
 20
186.8384
 30
0.0
 11
70.0
 21
190.0
 31
0.0
  0
LINE
  8
0
 62
   249
 10
67.442192
 20
184.826555
 30
0.0
 11
72.76563
 21
184.826555
 31
0.0
  0
LINE
  8
0
 62
   249
 10
67.442192
 20
185.544745
 30
0.0
 11
67.442192
 21
184.108365
 31
0.0
  0
LINE
  8
0
 62
   249
 10
72.759106
 20
185.544745
 30
0.0
 11
72.759106
 21
184.108365
 31
0.0
  0
LINE
  8
0
 62
   249
 10
74.901872
 20
178.648475
 30
0.0
 11
74.901872
 21
186.8384
 31
0.0
  0
LINE
  8
0
 62
   249
 10
65.124188
 20
178.648475
 30
0.0
 11
74.901872
 21
178.648475
 31
0.0
  0
LINE
  8
0
 62
   249
 10
74.901872
 20
186.8384
 30
0.0
 11
65.124188
 21
186.8384
 31
0.0
  0
LINE
  8
0
 62
   249
 10
65.124188
 20
186.8384
 30
0.0
 11
65.124188
 21
178.648475
 31
0.0
  0
LINE
  8
0
  6
CONTINUOUS
 62
   249
 10
212.5
 20
100.429605
 30
0.0
 11
212.5
 21
97.5
 31
0.0
  0
LINE
  8
0
  6
CONTINUOUS
 62
   249
 10
207.5
 20
100.429605
 30
0.0
 11
207.5
 21
97.5
 31
0.0
  0
LINE
  8
0
  6
CONTINUOUS
 62
   249
 10
212.5
 20
115.0
 30
0.0
 11
212.5
 21
109.752154
 31
0.0
  0
LINE
  8
0
  6
CONTINUOUS
 62
   249
 10
207.5
 20
115.0
 30
0.0
 11
207.5
 21
109.752154
 31
0.0
  0
LINE
  8
0
 62
   249
 10
209.966311
 20
102.72844
 30
0.0
 11
213.966311
 21
102.72844
 31
0.0
  0
LINE
  8
0
 62
   249
 10
206.209901
 20
107.674464
 30
0.0
 11
210.209901
 21
107.674464
 31
0.0
  0
LINE
  8
0
 62
   249
 10
205.295103
 20
101.386207
 30
0.0
 11
213.658613
 21
109.752154
 31
0.0
  0
LINE
  8
0
 62
   249
 10
206.279395
 20
100.429605
 30
0.0
 11
214.619756
 21
108.767352
 31
0.0
  0
LINE
  8
0
 62
   249
 10
205.295103
 20
100.429605
 30
0.0
 11
205.295103
 21
109.752154
 31
0.0
  0
LINE
  8
0
 62
   249
 10
214.619756
 20
100.429605
 30
0.0
 11
205.295103
 21
100.429605
 31
0.0
  0
LINE
  8
0
 62
   249
 10
214.619756
 20
109.752154
 30
0.0
 11
214.619756
 21
100.429605
 31
0.0
  0
LINE
  8
0
 62
   249
 10
205.295103
 20
109.752154
 30
0.0
 11
214.619756
 21
109.752154
 31
0.0
  0
TEXT
  8
0
  6
CONTINUOUS
 62
   249
 10
206.866734
 20
115.55315
 30
0.0
 40
2.0
  1
+
  0
TEXT
  8
0
  6
CONTINUOUS
 62
   249
 10
211.797086
 20
115.577719
 30
0.0
 40
2.0
  1
-
  0
LINE
  8
0
  6
CONTINUOUS
 62
   249
 10
235.0
 20
157.5
 30
0.0
 11
250.0
 21
157.5
 31
0.0
  0
LINE
  8
0
  6
CONTINUOUS
 62
   249
 10
235.0
 20
157.5
 30
0.0
 11
235.0
 21
162.5
 31
0.0
  0
ARC
  8
0
 62
   249
 10
211.172927
 20
100.936221
 30
0.0
 40
0.869227
 50
32.471192
 51
175.601295
  0
ARC
  8
0
 62
   249
 10
212.639595
 20
101.869554
 30
0.0
 40
0.869227
 50
212.471192
 51
355.601295
  0
TEXT
  8
0
  6
CONTINUOUS
 62
   249
 10
330.289908
 20
76.383725
 30
0.0
 40
2.0
  1
8)
  7
ROMANS
  0
TEXT
  8
0
  6
CONTINUOUS
 62
   249
 10
58.562135
 20
126.892602
 30
0.0
 40
2.0
  1
65
  7
ROMANS
  0
TEXT
  8
0
  6
CONTINUOUS
 62
   249
 10
58.562135
 20
119.569894
 30
0.0
 40
2.0
  1
68
  7
ROMANS
  0
TEXT
  8
0
  6
CONTINUOUS
 62
   249
 10
58.562135
 20
112.015758
 30
0.0
 40
2.0
  1
80
  7
ROMANS
  0
TEXT
  8
0
  6
CONTINUOUS
 62
   249
 10
58.562135
 20
104.450602
 30
0.0
 40
2.0
  1
77
  7
ROMANS
  0
TEXT
  8
0
  6
CONTINUOUS
 62
   249
 10
58.562135
 20
97.00667
 30
0.0
 40
2.0
  1
74
  7
ROMANS
  0
TEXT
  8
0
  6
CONTINUOUS
 62
   249
 10
58.562135
 20
89.441514
 30
0.0
 40
2.0
  1
70
  7
ROMANS
  0
TEXT
  8
0
  6
CONTINUOUS
 62
   249
 10
58.562135
 20
84.366962
 30
0.0
 40
2.0
  1
71
  7
ROMANS
  0
LINE
  8
0
  6
CONTINUOUS
 62
   249
 10
182.5
 20
80.0
 30
0.0
 11
182.5
 21
115.0
 31
0.0
  0
TEXT
  8
0
  6
CONTINUOUS
 62
   249
 10
167.825746
 20
81.124999
 30
0.0
 40
2.0
  1
72
 50
90.0
  7
ROMANS
  0
TEXT
  8
0
  6
CONTINUOUS
 62
   249
 10
173.121954
 20
81.124999
 30
0.0
 40
2.0
  1
75 
 50
90.0
  7
ROMANS
  0
TEXT
  8
0
  6
CONTINUOUS
 62
   249
 10
178.002764
 20
81.124999
 30
0.0
 40
2.0
  1
78
 50
90.0
  7
ROMANS
  0
TEXT
  8
0
  6
CONTINUOUS
 62
   249
 10
185.296841
 20
81.124999
 30
0.0
 40
2.0
  1
81
 50
90.0
  7
ROMANS
  0
TEXT
  8
0
  6
CONTINUOUS
 62
   249
 10
190.227863
 20
81.124999
 30
0.0
 40
2.0
  1
69
 50
90.0
  7
ROMANS
  0
TEXT
  8
0
  6
CONTINUOUS
 62
   249
 10
195.402342
 20
81.124999
 30
0.0
 40
2.0
  1
66
 50
90.0
  7
ROMANS
  0
TEXT
  8
0
  6
CONTINUOUS
 62
   249
 10
210.375976
 20
81.124999
 30
0.0
 40
2.0
  1
61
 50
90.0
  7
ROMANS
  0
TEXT
  8
0
  6
CONTINUOUS
 62
   249
 10
215.550455
 20
81.124999
 30
0.0
 40
2.0
  1
62
 50
90.0
  7
ROMANS
  0
TEXT
  8
0
  6
CONTINUOUS
 62
   249
 10
227.952571
 20
81.124999
 30
0.0
 40
2.0
  1
63
 50
90.0
  7
ROMANS
  0
TEXT
  8
0
  6
CONTINUOUS
 62
   249
 10
59.516185
 20
229.701648
 30
0.0
 40
2.0
  1
10
  7
ROMANS
  0
TEXT
  8
0
  6
CONTINUOUS
 62
   249
 10
59.516185
 20
224.814442
 30
0.0
 40
2.0
  1
11
  7
ROMANS
  0
LINE
  8
0
  6
CONTINUOUS
 62
   249
 10
198.653232
 20
205.460318
 30
0.0
 11
198.653232
 21
203.672187
 31
0.0
  0
LINE
  8
0
  6
CONTINUOUS
 62
   249
 10
206.467927
 20
205.460318
 30
0.0
 11
206.467927
 21
203.672187
 31
0.0
  0
LINE
  8
0
  6
CONTINUOUS
 62
   249
 10
198.684263
 20
204.615039
 30
0.0
 11
206.472468
 21
204.615039
 31
0.0
  0
LINE
  8
0
  6
CONTINUOUS
 62
   249
 10
201.068408
 20
203.447437
 30
0.0
 11
203.944519
 21
206.275995
 31
0.0
  0
LINE
  8
0
  6
CONTINUOUS
 62
   249
 10
203.490396
 20
206.813202
 30
0.0
 11
204.391073
 21
205.689453
 31
0.0
  0
TEXT
  8
0
  6
DASHED
 62
   249
 10
69.140763
 20
201.55783
 30
0.0
 40
1.5
  1
SGF1/4
 50
90.0
  7
ROMANS
  0
TEXT
  8
0
  6
DASHED
 62
   249
 10
65.80404
 20
180.860399
 30
0.0
 40
1.5
  1
0,1...1s
  7
ROMANS
  0
TEXT
  8
0
  6
DASHED
 62
   249
 10
59.305447
 20
154.457131
 30
0.0
 40
1.5
  1
SGB1/6
  7
ROMANS
  0
TEXT
  8
0
  6
DASHED
 62
   249
 10
59.305447
 20
150.954754
 30
0.0
 40
1.5
  1
SGB1/7
  7
ROMANS
  0
CIRCLE
  8
0
  6
CONTINUOUS
 62
   249
 10
186.512659
 20
173.278044
 30
0.0
 40
1.0
  0
CIRCLE
  8
0
  6
CONTINUOUS
 62
   249
 10
186.512659
 20
167.572207
 30
0.0
 40
1.0
  0
LINE
  8
0
  6
CONTINUOUS
 62
   249
 10
187.5
 20
185.0
 30
0.0
 11
207.5
 21
185.0
 31
0.0
  0
TEXT
  8
0
  6
DASHED
 62
   249
 10
188.667061
 20
199.002319
 30
0.0
 40
2.5
  1
U
  0
LINE
  8
0
  6
CONTINUOUS
 62
   249
 10
208.986076
 20
182.380922
 30
0.0
 11
216.529662
 21
182.380922
 31
0.0
  0
TEXT
  8
0
  6
DASHED
 62
   249
 10
210.339663
 20
195.047888
 30
0.0
 40
2.5
  1
U
  0
TEXT
  8
0
  6
DASHED
 62
   249
 10
209.030889
 20
214.532586
 30
0.0
 40
2.5
  1
2I
  0
TEXT
  8
0
  6
DASHED
 62
   249
 10
171.739899
 20
168.448446
 30
0.0
 40
1.5
  1
SGB1/8
  7
ROMANS
  0
TEXT
  8
0
  6
DASHED
 62
   249
 10
171.739899
 20
173.884531
 30
0.0
 40
1.5
  1
SGB1/5
  7
ROMANS
  0
TEXT
  8
0
  6
DASHED
 62
   249
 10
171.739899
 20
183.352163
 30
0.0
 40
1.5
  1
SGB1/4
  7
ROMANS
  0
TEXT
  8
0
  6
DASHED
 62
   249
 10
171.739899
 20
191.051116
 30
0.0
 40
1.5
  1
SGB1/3
  7
ROMANS
  0
TEXT
  8
0
  6
DASHED
 62
   249
 10
171.727928
 20
208.76391
 30
0.0
 40
1.5
  1
SGB1/2
  7
ROMANS
  0
TEXT
  8
0
  6
DASHED
 62
   249
 10
171.727928
 20
221.456779
 30
0.0
 40
1.5
  1
SGB1/1
  7
ROMANS
  0
LINE
  8
0
  6
CONTINUOUS
 62
   249
 10
230.0
 20
235.0
 30
0.0
 11
230.0
 21
210.0
 31
0.0
  0
LINE
  8
0
  6
CONTINUOUS
 62
   249
 10
230.0
 20
195.0
 30
0.0
 11
230.0
 21
170.0
 31
0.0
  0
LINE
  8
0
  6
CONTINUOUS
 62
   249
 10
230.0
 20
195.0
 30
0.0
 11
231.0
 21
196.0
 31
0.0
  0
LINE
  8
0
  6
CONTINUOUS
 62
   249
 10
230.0
 20
170.0
 30
0.0
 11
231.0
 21
169.0
 31
0.0
  0
LINE
  8
0
  6
CONTINUOUS
 62
   249
 10
220.0
 20
222.5
 30
0.0
 11
220.0
 21
215.0
 31
0.0
  0
LINE
  8
0
  6
CONTINUOUS
 62
   249
 10
220.0
 20
215.0
 30
0.0
 11
217.950615
 21
215.0
 31
0.0
  0
LINE
  8
0
  6
CONTINUOUS
 62
   249
 10
255.0
 20
177.8468
 30
0.0
 11
255.0
 21
172.16187
 31
0.0
  0
LINE
  8
0
  6
CONTINUOUS
 62
   249
 10
255.0
 20
172.16187
 30
0.0
 11
254.0
 21
171.16187
 31
0.0
  0
LINE
  8
0
  6
CONTINUOUS
 62
   249
 10
255.0
 20
177.8468
 30
0.0
 11
254.0
 21
178.8468
 31
0.0
  0
LINE
  8
0
  6
CONTINUOUS
 62
   249
 10
250.0
 20
172.5
 30
0.0
 11
252.5
 21
172.5
 31
0.0
  0
LINE
  8
0
  6
CONTINUOUS
 62
   249
 10
250.0
 20
177.5
 30
0.0
 11
252.5
 21
177.5
 31
0.0
  0
LINE
  8
0
  6
CONTINUOUS
 62
   249
 10
250.0
 20
192.5
 30
0.0
 11
252.5
 21
192.5
 31
0.0
  0
LINE
  8
0
  6
CONTINUOUS
 62
   249
 10
250.0
 20
197.5
 30
0.0
 11
252.5
 21
197.5
 31
0.0
  0
LINE
  8
0
  6
CONTINUOUS
 62
   249
 10
250.0
 20
212.5
 30
0.0
 11
252.5
 21
212.5
 31
0.0
  0
LINE
  8
0
  6
CONTINUOUS
 62
   249
 10
250.0
 20
217.5
 30
0.0
 11
252.5
 21
217.5
 31
0.0
  0
LINE
  8
0
  6
CONTINUOUS
 62
   249
 10
250.0
 20
232.5
 30
0.0
 11
252.5
 21
232.5
 31
0.0
  0
LINE
  8
0
  6
CONTINUOUS
 62
   249
 10
250.0
 20
237.5
 30
0.0
 11
252.5
 21
237.5
 31
0.0
  0
TEXT
  8
0
  6
DASHED
 62
   249
 10
348.063304
 20
247.052847
 30
0.0
 40
2.5
  1
2I
  0
LINE
  8
0
  6
CONTINUOUS
 62
   249
 10
347.075571
 20
220.144747
 30
0.0
 11
354.619158
 21
220.144747
 31
0.0
  0
LINE
  8
0
  6
CONTINUOUS
 62
   249
 10
352.65354
 20
249.562411
 30
0.0
 11
354.999305
 21
248.227058
 31
0.0
  0
LINE
  8
0
  6
CONTINUOUS
 62
   249
 10
354.999305
 20
248.227058
 30
0.0
 11
352.65354
 21
247.037139
 31
0.0
  0
TEXT
  8
0
  6
DASHED
 62
   249
 10
348.063304
 20
236.958187
 30
0.0
 40
2.5
  1
2I
  0
LINE
  8
0
  6
CONTINUOUS
 62
   249
 10
347.075571
 20
211.883399
 30
0.0
 11
354.619158
 21
211.883399
 31
0.0
  0
LINE
  8
0
  6
CONTINUOUS
 62
   249
 10
341.600968
 20
209.024479
 30
0.0
 11
361.576963
 21
209.024479
 31
0.0
  0
TEXT
  8
0
  6
CONTINUOUS
 62
   249
 10
336.642228
 20
204.179237
 30
0.0
 40
2.0
  1
FEEDER PROTECTION
  7
ROMANS
  0
TEXT
  8
0
  6
CONTINUOUS
 62
   249
 10
336.642228
 20
200.845903
 30
0.0
 40
2.0
  1
LEDNINGSSKYDD
  7
ROMANS
  0
TEXT
  8
0
  6
CONTINUOUS
 62
   249
 10
330.228044
 20
126.565974
 30
0.0
 40
2.0
  1
3) TRIP 1
  7
ROMANS
  0
TEXT
  8
0
  6
CONTINUOUS
 62
   249
 10
329.558536
 20
123.23264
 30
0.0
 40
2.0
  1
   UTLÖSNING 1
  7
ROMANS
  0
TEXT
  8
0
  6
CONTINUOUS
 62
   249
 10
330.212828
 20
99.037086
 30
0.0
 40
2.0
  1
6) START OR TRIP 2
  7
ROMANS
  0
TEXT
  8
0
  6
CONTINUOUS
 62
   249
 10
329.588968
 20
95.703752
 30
0.0
 40
2.0
  1
   START ELLER UTLÖSNING 2
  7
ROMANS
  0
LINE
  8
0
  6
CONTINUOUS
 62
   249
 10
290.0
 20
242.8468
 30
0.0
 11
289.0
 21
243.8468
 31
0.0
  0
LINE
  8
0
  6
CONTINUOUS
 62
   249
 10
290.0
 20
212.16187
 30
0.0
 11
289.0
 21
211.16187
 31
0.0
  0
LINE
  8
0
  6
CONTINUOUS
 62
   249
 10
290.0
 20
242.8468
 30
0.0
 11
290.0
 21
212.16187
 31
0.0
  0
LINE
  8
0
  6
CONTINUOUS
 62
   249
 10
290.0
 20
202.8468
 30
0.0
 11
289.0
 21
203.8468
 31
0.0
  0
LINE
  8
0
  6
CONTINUOUS
 62
   249
 10
290.0
 20
192.16187
 30
0.0
 11
289.0
 21
191.16187
 31
0.0
  0
LINE
  8
0
  6
CONTINUOUS
 62
   249
 10
290.0
 20
177.8468
 30
0.0
 11
289.0
 21
178.8468
 31
0.0
  0
LINE
  8
0
  6
CONTINUOUS
 62
   249
 10
290.0
 20
202.8468
 30
0.0
 11
290.0
 21
192.16187
 31
0.0
  0
LINE
  8
0
  6
CONTINUOUS
 62
   249
 10
290.0
 20
177.8468
 30
0.0
 11
290.0
 21
167.16187
 31
0.0
  0
LINE
  8
0
  6
DASHED
 62
   249
 10
290.0
 20
247.5
 30
0.0
 11
312.5
 21
247.5
 31
0.0
  0
LINE
  8
0
  6
DASHED
 62
   249
 10
305.0
 20
247.5
 30
0.0
 11
305.0
 21
182.5
 31
0.0
  0
LINE
  8
0
  6
DASHED
 62
   249
 10
297.5
 20
247.5
 30
0.0
 11
297.5
 21
242.5
 31
0.0
  0
LINE
  8
0
  6
DASHED
 62
   249
 10
297.5
 20
172.5
 30
0.0
 11
297.5
 21
234.187792
 31
0.0
  0
LINE
  8
0
  6
DASHED
 62
   249
 10
290.0
 20
227.5
 30
0.0
 11
302.5
 21
227.5
 31
0.0
  0
LINE
  8
0
  6
DASHED
 62
   249
 10
290.0
 20
172.5
 30
0.0
 11
297.5
 21
172.5
 31
0.0
  0
LINE
  8
0
  6
DASHED
 62
   249
 10
290.0
 20
197.5
 30
0.0
 11
302.5
 21
197.5
 31
0.0
  0
LINE
  8
0
  6
CONTINUOUS
 62
   249
 10
245.0
 20
237.5
 30
0.0
 11
250.0
 21
237.5
 31
0.0
  0
LINE
  8
0
  6
CONTINUOUS
 62
   249
 10
245.0
 20
232.5
 30
0.0
 11
250.0
 21
232.5
 31
0.0
  0
LINE
  8
0
  6
CONTINUOUS
 62
   249
 10
245.0
 20
227.5
 30
0.0
 11
250.0
 21
227.5
 31
0.0
  0
LINE
  8
0
  6
CONTINUOUS
 62
   249
 10
245.0
 20
217.5
 30
0.0
 11
250.0
 21
217.5
 31
0.0
  0
LINE
  8
0
  6
CONTINUOUS
 62
   249
 10
245.0
 20
212.5
 30
0.0
 11
250.0
 21
212.5
 31
0.0
  0
LINE
  8
0
  6
CONTINUOUS
 62
   249
 10
245.0
 20
207.5
 30
0.0
 11
250.0
 21
207.5
 31
0.0
  0
LINE
  8
0
  6
CONTINUOUS
 62
   249
 10
245.0
 20
197.5
 30
0.0
 11
250.0
 21
197.5
 31
0.0
  0
LINE
  8
0
  6
CONTINUOUS
 62
   249
 10
245.0
 20
192.5
 30
0.0
 11
250.0
 21
192.5
 31
0.0
  0
LINE
  8
0
  6
CONTINUOUS
 62
   249
 10
245.0
 20
187.5
 30
0.0
 11
250.0
 21
187.5
 31
0.0
  0
LINE
  8
0
  6
CONTINUOUS
 62
   249
 10
245.0
 20
177.5
 30
0.0
 11
250.0
 21
177.5
 31
0.0
  0
LINE
  8
0
  6
CONTINUOUS
 62
   249
 10
245.0
 20
172.5
 30
0.0
 11
250.0
 21
172.5
 31
0.0
  0
LINE
  8
0
  6
CONTINUOUS
 62
   249
 10
245.0
 20
167.5
 30
0.0
 11
250.0
 21
167.5
 31
0.0
  0
TEXT
  8
0
  6
CONTINUOUS
 62
   249
 10
246.660253
 20
234.592561
 30
0.0
 40
2.0
  1
3
  7
ROMANS
  0
TEXT
  8
0
  6
CONTINUOUS
 62
   249
 10
246.660253
 20
229.484947
 30
0.0
 40
2.0
  1
2
  7
ROMANS
  0
TEXT
  8
0
  6
CONTINUOUS
 62
   249
 10
247.025439
 20
224.641823
 30
0.0
 40
2.0
  1
1
  7
ROMANS
  0
TEXT
  8
0
  6
CONTINUOUS
 62
   249
 10
246.660253
 20
213.740161
 30
0.0
 40
2.0
  1
9
  7
ROMANS
  0
TEXT
  8
0
  6
CONTINUOUS
 62
   249
 10
246.660253
 20
209.820082
 30
0.0
 40
2.0
  1
8
  7
ROMANS
  0
TEXT
  8
0
  6
CONTINUOUS
 62
   249
 10
246.660253
 20
204.436959
 30
0.0
 40
2.0
  1
7
  7
ROMANS
  0
TEXT
  8
0
  6
CONTINUOUS
 62
   249
 10
245.336454
 20
194.678749
 30
0.0
 40
2.0
  1
27
  7
ROMANS
  0
TEXT
  8
0
  6
CONTINUOUS
 62
   249
 10
245.336454
 20
189.967869
 30
0.0
 40
2.0
  1
26
  7
ROMANS
  0
TEXT
  8
0
  6
CONTINUOUS
 62
   249
 10
245.336454
 20
184.893317
 30
0.0
 40
2.0
  1
25
  7
ROMANS
  0
TEXT
  8
0
  6
CONTINUOUS
 62
   249
 10
245.336454
 20
174.760415
 30
0.0
 40
2.0
  1
30
  7
ROMANS
  0
TEXT
  8
0
  6
CONTINUOUS
 62
   249
 10
245.336454
 20
169.282116
 30
0.0
 40
2.0
  1
29
  7
ROMANS
  0
TEXT
  8
0
  6
CONTINUOUS
 62
   249
 10
245.336454
 20
164.152462
 30
0.0
 40
2.0
  1
28
  7
ROMANS
  0
CIRCLE
  8
0
  6
CONTINUOUS
 62
   249
 10
305.0
 20
197.5
 30
0.0
 40
2.5
  0
CIRCLE
  8
0
  6
CONTINUOUS
 62
   249
 10
305.0
 20
227.5
 30
0.0
 40
2.5
  0
CIRCLE
  8
0
  6
CONTINUOUS
 62
   249
 10
297.5
 20
240.0
 30
0.0
 40
2.5
  0
CIRCLE
  8
0
  6
CONTINUOUS
 62
   249
 10
297.5
 20
236.687792
 30
0.0
 40
2.5
  0
TEXT
  8
0
  6
CONTINUOUS
 62
   249
 10
211.997891
 20
27.774321
 30
0.0
 40
2.0
  1
1993-02-18  KM / RITU
  7
ROMANS
  0
TEXT
  8
0
  6
CONTINUOUS
 62
   249
 10
317.5
 20
24.166667
 30
0.0
 40
2.0
  1
SPAA 120 C WITH TEST SWITCH
  7
ROMANS
  0
TEXT
  8
0
  6
CONTINUOUS
 62
   249
 10
372.5
 20
12.5
 30
0.0
 40
2.0
  1
1
  7
ROMANS
  0
TEXT
  8
0
  6
CONTINUOUS
 62
   249
 10
322.5
 20
2.5
 30
0.0
 40
2.5
  1
RS 10080-AA
  7
ROMANS
  0
TEXT
  8
0
  6
CONTINUOUS
 62
   249
 10
380.0
 20
2.5
 30
0.0
 40
2.5
  1
C
  7
ROMANS
  0
TEXT
  8
0
  6
CONTINUOUS
 62
   249
 10
51.313078
 20
1.443554
 30
0.0
 40
2.0
  1
REDRAWN WITH AUTOCAD 1993-02-18  KM / RITU Power
  7
ROMANS
  0
TEXT
  8
0
  6
CONTINUOUS
 62
   249
 10
317.5
 20
27.5
 30
0.0
 40
2.0
  1
CIRCUIT DIAGRAM / KRETSSCHEMA
  7
ROMANS
  0
LINE
  8
0
  6
CONTINUOUS
 62
   249
 10
250.0
 20
227.5
 30
0.0
 11
265.0
 21
227.5
 31
0.0
  0
LINE
  8
0
  6
CONTINUOUS
 62
   249
 10
265.0
 20
207.5
 30
0.0
 11
250.0
 21
207.5
 31
0.0
  0
LINE
  8
0
  6
CONTINUOUS
 62
   249
 10
265.0
 20
187.5
 30
0.0
 11
250.0
 21
187.5
 31
0.0
  0
CIRCLE
  8
0
  6
CONTINUOUS
 62
   249
 10
273.449551
 20
242.471218
 30
0.0
 40
1.0
  0
LINE
  8
0
 62
   249
 10
262.5
 20
232.49845
 30
0.0
 11
262.5
 21
242.49845
 31
0.0
  0
LINE
  8
0
 62
   249
 10
265.0
 20
242.5
 30
0.0
 11
267.5
 21
242.5
 31
0.0
  0
LINE
  8
0
 62
   249
 10
262.5
 20
242.49845
 30
0.0
 11
265.0
 21
242.49845
 31
0.0
  0
LINE
  8
0
 62
   249
 10
260.0
 20
237.5
 30
0.0
 11
265.0
 21
237.5
 31
0.0
  0
LINE
  8
0
 62
   249
 10
265.0
 20
237.5
 30
0.0
 11
267.5
 21
237.5
 31
0.0
  0
LINE
  8
0
 62
   249
 10
267.5
 20
237.5
 30
0.0
 11
267.5
 21
240.4
 31
0.0
  0
LINE
  8
0
 62
   249
 10
266.38095
 20
239.444425
 30
0.0
 11
267.060313
 21
238.508681
 31
0.0
  0
LINE
  8
0
 62
   249
 10
272.449552
 20
242.469558
 30
0.0
 11
266.7
 21
239.0
 31
0.0
  0
LINE
  8
0
 62
   249
 10
265.0
 20
232.49845
 30
0.0
 11
262.5
 21
232.49845
 31
0.0
  0
LINE
  8
0
 62
   249
 10
265.0
 20
232.5
 30
0.0
 11
267.5
 21
232.5
 31
0.0
  0
LINE
  8
0
  6
CONTINUOUS
 62
   249
 10
260.0
 20
237.5
 30
0.0
 11
256.0
 21
237.5
 31
0.0
  0
LINE
  8
0
 62
   249
 10
272.449552
 20
232.469558
 30
0.0
 11
266.7
 21
229.0
 31
0.0
  0
LINE
  8
0
 62
   249
 10
266.38095
 20
229.444425
 30
0.0
 11
267.060313
 21
228.508681
 31
0.0
  0
LINE
  8
0
 62
   249
 10
265.0
 20
227.5
 30
0.0
 11
267.5
 21
227.5
 31
0.0
  0
LINE
  8
0
 62
   249
 10
267.5
 20
227.5
 30
0.0
 11
267.5
 21
230.4
 31
0.0
  0
CIRCLE
  8
0
  6
CONTINUOUS
 62
   249
 10
273.449551
 20
232.471218
 30
0.0
 40
1.0
  0
LINE
  8
0
 62
   249
 10
272.449552
 20
222.469558
 30
0.0
 11
266.7
 21
219.0
 31
0.0
  0
LINE
  8
0
 62
   249
 10
266.38095
 20
219.444425
 30
0.0
 11
267.060313
 21
218.508681
 31
0.0
  0
LINE
  8
0
 62
   249
 10
267.5
 20
217.5
 30
0.0
 11
267.5
 21
220.4
 31
0.0
  0
LINE
  8
0
 62
   249
 10
265.0
 20
217.5
 30
0.0
 11
267.5
 21
217.5
 31
0.0
  0
LINE
  8
0
 62
   249
 10
260.0
 20
217.5
 30
0.0
 11
265.0
 21
217.5
 31
0.0
  0
LINE
  8
0
 62
   249
 10
262.5
 20
222.49845
 30
0.0
 11
265.0
 21
222.49845
 31
0.0
  0
LINE
  8
0
 62
   249
 10
265.0
 20
222.5
 30
0.0
 11
267.5
 21
222.5
 31
0.0
  0
CIRCLE
  8
0
  6
CONTINUOUS
 62
   249
 10
273.449551
 20
222.471218
 30
0.0
 40
1.0
  0
LINE
  8
0
 62
   249
 10
262.5
 20
212.49845
 30
0.0
 11
262.5
 21
222.49845
 31
0.0
  0
LINE
  8
0
 62
   249
 10
265.0
 20
212.49845
 30
0.0
 11
262.5
 21
212.49845
 31
0.0
  0
LINE
  8
0
 62
   249
 10
265.0
 20
212.5
 30
0.0
 11
267.5
 21
212.5
 31
0.0
  0
LINE
  8
0
 62
   249
 10
266.38095
 20
209.444425
 30
0.0
 11
267.060313
 21
208.508681
 31
0.0
  0
LINE
  8
0
 62
   249
 10
272.449552
 20
212.469558
 30
0.0
 11
266.7
 21
209.0
 31
0.0
  0
LINE
  8
0
 62
   249
 10
267.5
 20
207.5
 30
0.0
 11
267.5
 21
210.4
 31
0.0
  0
LINE
  8
0
 62
   249
 10
265.0
 20
207.5
 30
0.0
 11
267.5
 21
207.5
 31
0.0
  0
CIRCLE
  8
0
  6
CONTINUOUS
 62
   249
 10
273.449551
 20
212.471218
 30
0.0
 40
1.0
  0
LINE
  8
0
 62
   249
 10
265.0
 20
202.5
 30
0.0
 11
267.5
 21
202.5
 31
0.0
  0
LINE
  8
0
 62
   249
 10
262.5
 20
202.49845
 30
0.0
 11
265.0
 21
202.49845
 31
0.0
  0
LINE
  8
0
 62
   249
 10
260.0
 20
197.5
 30
0.0
 11
265.0
 21
197.5
 31
0.0
  0
LINE
  8
0
 62
   249
 10
265.0
 20
197.5
 30
0.0
 11
267.5
 21
197.5
 31
0.0
  0
LINE
  8
0
 62
   249
 10
267.5
 20
197.5
 30
0.0
 11
267.5
 21
200.4
 31
0.0
  0
LINE
  8
0
 62
   249
 10
266.38095
 20
199.444425
 30
0.0
 11
267.060313
 21
198.508681
 31
0.0
  0
LINE
  8
0
 62
   249
 10
272.449552
 20
202.469558
 30
0.0
 11
266.7
 21
199.0
 31
0.0
  0
LINE
  8
0
 62
   249
 10
262.5
 20
192.49845
 30
0.0
 11
262.5
 21
202.49845
 31
0.0
  0
LINE
  8
0
 62
   249
 10
265.0
 20
192.49845
 30
0.0
 11
262.5
 21
192.49845
 31
0.0
  0
LINE
  8
0
 62
   249
 10
265.0
 20
192.498451
 30
0.0
 11
267.5
 21
192.498451
 31
0.0
  0
CIRCLE
  8
0
  6
CONTINUOUS
 62
   249
 10
273.449551
 20
202.471218
 30
0.0
 40
1.0
  0
LINE
  8
0
 62
   249
 10
272.449552
 20
192.469558
 30
0.0
 11
266.7
 21
189.0
 31
0.0
  0
LINE
  8
0
 62
   249
 10
267.5
 20
187.5
 30
0.0
 11
267.5
 21
190.4
 31
0.0
  0
CIRCLE
  8
0
  6
CONTINUOUS
 62
   249
 10
273.449551
 20
192.471218
 30
0.0
 40
1.0
  0
LINE
  8
0
 62
   249
 10
265.0
 20
187.5
 30
0.0
 11
267.5
 21
187.5
 31
0.0
  0
LINE
  8
0
 62
   249
 10
266.38095
 20
189.444425
 30
0.0
 11
267.060313
 21
188.508681
 31
0.0
  0
LINE
  8
0
  6
CONTINUOUS
 62
   249
 10
274.449137
 20
242.5
 30
0.0
 11
282.5
 21
242.5
 31
0.0
  0
LINE
  8
0
  6
CONTINUOUS
 62
   249
 10
274.449137
 20
232.5
 30
0.0
 11
282.5
 21
232.5
 31
0.0
  0
LINE
  8
0
  6
CONTINUOUS
 62
   249
 10
274.449137
 20
222.5
 30
0.0
 11
282.5
 21
222.5
 31
0.0
  0
LINE
  8
0
  6
CONTINUOUS
 62
   249
 10
274.449137
 20
212.5
 30
0.0
 11
282.5
 21
212.5
 31
0.0
  0
LINE
  8
0
  6
CONTINUOUS
 62
   249
 10
274.449137
 20
202.5
 30
0.0
 11
282.5
 21
202.5
 31
0.0
  0
LINE
  8
0
  6
CONTINUOUS
 62
   249
 10
274.449137
 20
192.5
 30
0.0
 11
282.5
 21
192.5
 31
0.0
  0
LINE
  8
0
  6
CONTINUOUS
 62
   249
 10
256.0
 20
239.0
 30
0.0
 11
256.0
 21
232.0
 31
0.0
  0
LINE
  8
0
  6
CONTINUOUS
 62
   249
 10
256.0
 20
232.0
 30
0.0
 11
255.0
 21
231.0
 31
0.0
  0
LINE
  8
0
  6
CONTINUOUS
 62
   249
 10
256.0
 20
239.0
 30
0.0
 11
255.0
 21
240.0
 31
0.0
  0
LINE
  8
0
  6
CONTINUOUS
 62
   249
 10
256.0
 20
219.0
 30
0.0
 11
255.0
 21
220.0
 31
0.0
  0
LINE
  8
0
  6
CONTINUOUS
 62
   249
 10
256.0
 20
219.0
 30
0.0
 11
256.0
 21
212.0
 31
0.0
  0
LINE
  8
0
  6
CONTINUOUS
 62
   249
 10
256.0
 20
212.0
 30
0.0
 11
255.0
 21
211.0
 31
0.0
  0
LINE
  8
0
  6
CONTINUOUS
 62
   249
 10
260.0
 20
197.5
 30
0.0
 11
256.0
 21
197.5
 31
0.0
  0
LINE
  8
0
  6
CONTINUOUS
 62
   249
 10
260.0
 20
217.5
 30
0.0
 11
256.0
 21
217.5
 31
0.0
  0
TEXT
  8
0
  6
DASHED
 62
   249
 10
277.5
 20
239.765533
 30
0.0
 40
2.0
  1
3A
  7
ROMANS
 11
277.5
 21
239.098866
 31
0.0
 73
     1
  0
TEXT
  8
0
  6
DASHED
 62
   249
 10
277.5
 20
229.833333
 30
0.0
 40
2.0
  1
4A
  7
ROMANS
 11
277.5
 21
229.166667
 31
0.0
 73
     1
  0
TEXT
  8
0
  6
DASHED
 62
   249
 10
264.538363
 20
234.134942
 30
0.0
 40
2.0
  1
3B
  7
ROMANS
 11
264.538363
 21
233.468275
 31
0.0
 73
     1
  0
TEXT
  8
0
  6
DASHED
 62
   249
 10
264.538363
 20
224.285715
 30
0.0
 40
2.0
  1
4B
  7
ROMANS
 11
264.538363
 21
223.619049
 31
0.0
 73
     1
  0
LINE
  8
0
  6
CONTINUOUS
 62
   249
 10
256.0
 20
192.0
 30
0.0
 11
255.0
 21
191.0
 31
0.0
  0
LINE
  8
0
  6
CONTINUOUS
 62
   249
 10
256.0
 20
199.0
 30
0.0
 11
256.0
 21
192.0
 31
0.0
  0
LINE
  8
0
  6
CONTINUOUS
 62
   249
 10
256.0
 20
199.0
 30
0.0
 11
255.0
 21
200.0
 31
0.0
  0
TEXT
  8
0
  6
CONTINUOUS
 62
   249
 10
258.173717
 20
234.715999
 30
0.0
 40
2.0
  1
RI
  7
ROMANS
  0
TEXT
  8
0
  6
CONTINUOUS
 62
   249
 10
258.173717
 20
204.573925
 30
0.0
 40
2.0
  1
TI
  7
ROMANS
  0
TEXT
  8
0
  6
CONTINUOUS
 62
   249
 10
258.173717
 20
184.751569
 30
0.0
 40
2.0
  1
NI
  7
ROMANS
  0
TEXT
  8
0
  6
CONTINUOUS
 62
   249
 10
258.173717
 20
194.768022
 30
0.0
 40
2.0
  1
NI
  7
ROMANS
  0
TEXT
  8
0
  6
CONTINUOUS
 62
   249
 10
258.173717
 20
214.755008
 30
0.0
 40
2.0
  1
TI
  7
ROMANS
  0
TEXT
  8
0
  6
CONTINUOUS
 62
   249
 10
258.173717
 20
224.864177
 30
0.0
 40
2.0
  1
RI
  7
ROMANS
  0
TEXT
  8
0
  6
CONTINUOUS
 62
   249
 10
262.887383
 20
246.586709
 30
0.0
 40
2.0
  1
101
  7
ROMANS
  0
TEXT
  8
0
  6
CONTINUOUS
 62
   249
 10
275.751795
 20
164.338011
 30
0.0
 40
2.0
  1
12A
  7
ROMANS
  0
TEXT
  8
0
  6
CONTINUOUS
 62
   249
 10
275.751795
 20
174.057266
 30
0.0
 40
2.0
  1
11A
  7
ROMANS
  0
LINE
  8
0
  6
CONTINUOUS
 62
   249
 10
250.0
 20
167.482972
 30
0.0
 11
267.5
 21
167.482972
 31
0.0
  0
LINE
  8
0
  6
CONTINUOUS
 62
   249
 10
267.5
 20
167.482972
 30
0.0
 11
267.5
 21
170.265661
 31
0.0
  0
LINE
  8
0
  6
CONTINUOUS
 62
   249
 10
266.602827
 20
169.934804
 30
0.0
 11
266.157934
 21
169.049106
 31
0.0
  0
LINE
  8
0
  6
CONTINUOUS
 62
   249
 10
266.602827
 20
169.934804
 30
0.0
 11
272.5
 21
167.5
 31
0.0
  0
LINE
  8
0
  6
CONTINUOUS
 62
   249
 10
266.602827
 20
179.934804
 30
0.0
 11
272.5
 21
177.5
 31
0.0
  0
LINE
  8
0
  6
CONTINUOUS
 62
   249
 10
266.602827
 20
179.934804
 30
0.0
 11
266.157934
 21
179.049106
 31
0.0
  0
LINE
  8
0
  6
CONTINUOUS
 62
   249
 10
267.5
 20
177.482972
 30
0.0
 11
267.5
 21
180.265661
 31
0.0
  0
LINE
  8
0
  6
CONTINUOUS
 62
   249
 10
257.5
 20
177.482972
 30
0.0
 11
267.5
 21
177.482972
 31
0.0
  0
CIRCLE
  8
0
  6
CONTINUOUS
 62
   249
 10
273.449551
 20
177.471218
 30
0.0
 40
1.0
  0
CIRCLE
  8
0
  6
CONTINUOUS
 62
   249
 10
273.449551
 20
167.471218
 30
0.0
 40
1.0
  0
LINE
  8
0
  6
CONTINUOUS
 62
   249
 10
274.449137
 20
177.5
 30
0.0
 11
282.5
 21
177.5
 31
0.0
  0
LINE
  8
0
  6
CONTINUOUS
 62
   249
 10
274.449137
 20
167.5
 30
0.0
 11
282.5
 21
167.5
 31
0.0
  0
TEXT
  8
0
  6
CONTINUOUS
 62
   249
 10
277.011406
 20
219.008177
 30
0.0
 40
2.0
  1
7A
  7
ROMANS
  0
TEXT
  8
0
  6
CONTINUOUS
 62
   249
 10
277.011406
 20
209.644592
 30
0.0
 40
2.0
  1
8A
  7
ROMANS
  0
TEXT
  8
0
  6
CONTINUOUS
 62
   249
 10
277.011406
 20
199.778148
 30
0.0
 40
2.0
  1
9A
  7
ROMANS
  0
TEXT
  8
0
  6
CONTINUOUS
 62
   249
 10
275.778409
 20
189.148746
 30
0.0
 40
2.0
  1
10A
  7
ROMANS
  0
TEXT
  8
0
  6
CONTINUOUS
 62
   249
 10
257.786224
 20
173.707501
 30
0.0
 40
2.0
  1
NU
  7
ROMANS
  0
TEXT
  8
0
  6
CONTINUOUS
 62
   249
 10
258.037612
 20
164.352586
 30
0.0
 40
2.0
  1
NU
  7
ROMANS
  0
LINE
  8
0
  6
CONTINUOUS
 62
   249
 10
192.5
 20
62.5
 30
0.0
 11
192.5
 21
55.0
 31
0.0
  0
CIRCLE
  8
0
  6
CONTINUOUS
 62
   249
 10
192.5
 20
63.241055
 30
0.0
 40
0.740939
  0
LINE
  8
0
  6
CONTINUOUS
 62
   249
 10
192.493411
 20
63.981965
 30
0.0
 11
194.934804
 21
70.662841
 31
0.0
  0
LINE
  8
0
  6
CONTINUOUS
 62
   249
 10
194.934804
 20
70.662841
 30
0.0
 11
194.049106
 21
71.107734
 31
0.0
  0
LINE
  8
0
  6
CONTINUOUS
 62
   249
 10
192.5
 20
70.0
 30
0.0
 11
195.265661
 21
70.0
 31
0.0
  0
LINE
  8
0
  6
CONTINUOUS
 62
   249
 10
192.5
 20
80.0
 30
0.0
 11
192.5
 21
70.0
 31
0.0
  0
TEXT
  8
0
  6
DASHED
 62
   249
 10
195.545377
 20
71.431661
 30
0.0
 40
2.0
  1
1B+
 50
90.0
  7
ROMANS
  0
TEXT
  8
0
  6
CONTINUOUS
 62
   249
 10
195.542942
 20
55.930264
 30
0.0
 40
2.0
  1
1A
 50
90.0
  7
ROMANS
  0
LINE
  8
0
  6
CENTER
 62
   249
 10
282.5
 20
250.0
 30
0.0
 11
282.5
 21
55.0
 31
0.0
  0
LINE
  8
0
  6
CENTER
 62
   249
 10
282.5
 20
55.0
 30
0.0
 11
32.5
 21
55.0
 31
0.0
  0
LINE
  8
0
  6
CENTER
 62
   249
 10
32.5
 20
55.0
 30
0.0
 11
32.5
 21
200.0
 31
0.0
  0
LINE
  8
0
  6
CONTINUOUS
 62
   249
 10
182.493411
 20
63.981965
 30
0.0
 11
184.934804
 21
70.662841
 31
0.0
  0
CIRCLE
  8
0
  6
CONTINUOUS
 62
   249
 10
182.5
 20
63.241055
 30
0.0
 40
0.740939
  0
LINE
  8
0
  6
CONTINUOUS
 62
   249
 10
182.5
 20
62.5
 30
0.0
 11
182.5
 21
55.0
 31
0.0
  0
LINE
  8
0
  6
CONTINUOUS
 62
   249
 10
182.5
 20
70.0
 30
0.0
 11
185.265661
 21
70.0
 31
0.0
  0
LINE
  8
0
  6
CONTINUOUS
 62
   249
 10
182.5
 20
80.0
 30
0.0
 11
182.5
 21
70.0
 31
0.0
  0
LINE
  8
0
  6
CONTINUOUS
 62
   249
 10
175.0
 20
80.0
 30
0.0
 11
175.0
 21
70.0
 31
0.0
  0
LINE
  8
0
  6
CONTINUOUS
 62
   249
 10
176.976419
 20
79.355883
 30
0.0
 11
178.643792
 21
79.355883
 31
0.0
  0
LINE
  8
0
  6
CONTINUOUS
 62
   249
 10
178.643792
 20
79.355883
 30
0.0
 11
178.643792
 21
77.668917
 31
0.0
  0
LINE
  8
0
  6
CONTINUOUS
 62
   249
 10
178.643792
 20
77.668917
 30
0.0
 11
176.976419
 21
77.668917
 31
0.0
  0
LINE
  8
0
  6
CONTINUOUS
 62
   249
 10
176.976419
 20
77.668917
 30
0.0
 11
176.976419
 21
79.355883
 31
0.0
  0
LINE
  8
0
  6
CONTINUOUS
 62
   249
 10
175.0
 20
70.0
 30
0.0
 11
177.765661
 21
70.0
 31
0.0
  0
LINE
  8
0
  6
CONTINUOUS
 62
   249
 10
177.434804
 20
70.662841
 30
0.0
 11
176.549106
 21
71.107734
 31
0.0
  0
LINE
  8
0
  6
CONTINUOUS
 62
   249
 10
174.993411
 20
63.981965
 30
0.0
 11
177.434804
 21
70.662841
 31
0.0
  0
LINE
  8
0
  6
CONTINUOUS
 62
   249
 10
175.0
 20
62.5
 30
0.0
 11
175.0
 21
55.0
 31
0.0
  0
CIRCLE
  8
0
  6
CONTINUOUS
 62
   249
 10
175.0
 20
63.241055
 30
0.0
 40
0.740939
  0
CIRCLE
  8
0
  6
CONTINUOUS
 62
   249
 10
200.0
 20
63.241055
 30
0.0
 40
0.740939
  0
LINE
  8
0
  6
CONTINUOUS
 62
   249
 10
202.434804
 20
70.662841
 30
0.0
 11
201.549106
 21
71.107734
 31
0.0
  0
LINE
  8
0
  6
CONTINUOUS
 62
   249
 10
200.0
 20
70.0
 30
0.0
 11
202.765661
 21
70.0
 31
0.0
  0
LINE
  8
0
  6
CONTINUOUS
 62
   249
 10
199.993411
 20
63.981965
 30
0.0
 11
202.434804
 21
70.662841
 31
0.0
  0
TEXT
  8
0
  6
CONTINUOUS
 62
   249
 10
203.210796
 20
55.930264
 30
0.0
 40
2.0
  1
18A
 50
90.0
  7
ROMANS
  0
LINE
  8
0
  6
CONTINUOUS
 62
   249
 10
200.0
 20
62.5
 30
0.0
 11
200.0
 21
55.0
 31
0.0
  0
LINE
  8
0
  6
CONTINUOUS
 62
   249
 10
200.0
 20
75.0
 30
0.0
 11
200.0
 21
70.0
 31
0.0
  0
TEXT
  8
0
  6
DASHED
 62
   249
 10
203.003052
 20
71.431661
 30
0.0
 40
2.0
  1
18B-
 50
90.0
  7
ROMANS
  0
LINE
  8
0
  6
CONTINUOUS
 62
   249
 10
187.5
 20
80.0
 30
0.0
 11
187.5
 21
77.5
 31
0.0
  0
LINE
  8
0
  6
CONTINUOUS
 62
   249
 10
187.5
 20
77.5
 30
0.0
 11
182.5
 21
77.5
 31
0.0
  0
TEXT
  8
0
  6
CONTINUOUS
 62
   249
 10
173.471728
 20
64.43967
 30
0.0
 40
2.0
  1
101
 50
90.0
  7
ROMANS
  0
TEXT
  8
0
  6
CONTINUOUS
 62
   249
 10
178.331892
 20
56.133823
 30
0.0
 40
2.0
  1
13A
 50
90.0
  7
ROMANS
  0
TEXT
  8
0
  6
CONTINUOUS
 62
   249
 10
178.631163
 20
71.202259
 30
0.0
 40
2.0
  1
13B
 50
90.0
  7
ROMANS
  0
TEXT
  8
0
  6
CONTINUOUS
 62
   249
 10
32.5
 20
126.199596
 30
0.0
 40
2.0
  1
17A    17B
  7
ROMANS
  0
CIRCLE
  8
0
  6
CONTINUOUS
 62
   249
 10
55.0
 20
127.5
 30
0.0
 40
0.806201
  0
CIRCLE
  8
0
  6
CONTINUOUS
 62
   249
 10
55.0
 20
127.5
 30
0.0
 40
1.484482
  0
LINE
  8
0
  6
CONTINUOUS
 62
   249
 10
47.5
 20
130.0
 30
0.0
 11
57.5
 21
130.0
 31
0.0
  0
TEXT
  8
0
  6
DASHED
 62
   249
 10
40.059383
 20
133.559927
 30
0.0
 40
2.0
  1
101
  7
ROMANS
  0
LINE
  8
0
  6
DASHED
 62
   249
 10
32.5
 20
130.0
 30
0.0
 11
40.0
 21
130.0
 31
0.0
  0
LINE
  8
0
  6
CONTINUOUS
 62
   249
 10
46.018035
 20
129.993411
 30
0.0
 11
39.337159
 21
132.434804
 31
0.0
  0
LINE
  8
0
  6
CONTINUOUS
 62
   249
 10
40.0
 20
130.0
 30
0.0
 11
40.0
 21
132.765661
 31
0.0
  0
CIRCLE
  8
0
  6
CONTINUOUS
 62
   249
 10
46.758945
 20
130.0
 30
0.0
 40
0.740939
  0
CIRCLE
  8
0
  6
CONTINUOUS
 62
   249
 10
55.0
 20
97.5
 30
0.0
 40
0.806201
  0
CIRCLE
  8
0
  6
CONTINUOUS
 62
   249
 10
55.0
 20
97.5
 30
0.0
 40
1.484482
  0
LINE
  8
0
  6
CONTINUOUS
 62
   249
 10
47.5
 20
100.0
 30
0.0
 11
57.5
 21
100.0
 31
0.0
  0
TEXT
  8
0
  6
DASHED
 62
   249
 10
40.059383
 20
103.559927
 30
0.0
 40
2.0
  1
101
  7
ROMANS
  0
LINE
  8
0
  6
DASHED
 62
   249
 10
32.5
 20
100.0
 30
0.0
 11
40.0
 21
100.0
 31
0.0
  0
LINE
  8
0
  6
CONTINUOUS
 62
   249
 10
46.018035
 20
99.993411
 30
0.0
 11
39.337159
 21
102.434804
 31
0.0
  0
LINE
  8
0
  6
CONTINUOUS
 62
   249
 10
40.0
 20
100.0
 30
0.0
 11
40.0
 21
102.765661
 31
0.0
  0
CIRCLE
  8
0
  6
CONTINUOUS
 62
   249
 10
46.758945
 20
100.0
 30
0.0
 40
0.740939
  0
LINE
  8
0
  6
CENTER
 62
   249
 10
32.5
 20
200.0
 30
0.0
 11
32.5
 21
255.0
 31
0.0
  0
LINE
  8
0
  6
CENTER
 62
   249
 10
282.5
 20
250.0
 30
0.0
 11
282.5
 21
255.0
 31
0.0
  0
LINE
  8
0
  6
CENTER
 62
   249
 10
32.5
 20
252.5
 30
0.0
 11
32.5
 21
255.0
 31
0.0
  0
LINE
  8
0
  6
CENTER
 62
   249
 10
32.5
 20
255.0
 30
0.0
 11
282.5
 21
255.0
 31
0.0
  0
LINE
  8
0
  6
CONTINUOUS
 62
   249
 10
55.272228
 20
228.943746
 30
0.0
 11
54.205803
 21
230.010171
 31
0.0
  0
LINE
  8
0
  6
CONTINUOUS
 62
   249
 10
54.205803
 20
230.010171
 30
0.0
 11
55.272228
 21
231.076595
 31
0.0
  0
LINE
  8
0
  6
CONTINUOUS
 62
   249
 10
55.272228
 20
231.076595
 30
0.0
 11
56.338652
 21
230.010171
 31
0.0
  0
LINE
  8
0
  6
CONTINUOUS
 62
   249
 10
56.338652
 20
230.010171
 30
0.0
 11
55.272228
 21
228.943746
 31
0.0
  0
LINE
  8
0
  6
DASHED
 62
   249
 10
57.5
 20
232.5
 30
0.0
 11
47.499883
 21
232.5
 31
0.0
  0
TEXT
  8
0
  6
DASHED
 62
   249
 10
47.347482
 20
229.018385
 30
0.0
 40
2.0
  1
14B
  7
ROMANS
  0
LINE
  8
0
  6
DASHED
 62
   249
 10
40.0
 20
232.5
 30
0.0
 11
32.5
 21
232.5
 31
0.0
  0
TEXT
  8
0
  6
DASHED
 62
   249
 10
40.0
 20
235.902046
 30
0.0
 40
2.0
  1
101
  7
ROMANS
  0
TEXT
  8
0
  6
DASHED
 62
   249
 10
33.489787
 20
228.897161
 30
0.0
 40
2.0
  1
14A 
  7
ROMANS
  0
LINE
  8
0
  6
DASHED
 62
   249
 10
32.5
 20
115.0
 30
0.0
 11
25.0
 21
115.0
 31
0.0
  0
LINE
  8
0
  6
DASHED
 62
   249
 10
57.5
 20
122.5
 30
0.0
 11
32.5
 21
122.5
 31
0.0
  0
LINE
  8
0
  6
DASHED
 62
   249
 10
32.5
 20
122.5
 30
0.0
 11
25.0
 21
122.5
 31
0.0
  0
LINE
  8
0
  6
DASHED
 62
   249
 10
32.5
 20
107.5
 30
0.0
 11
25.0
 21
107.5
 31
0.0
  0
LINE
  8
0
  6
DASHED
 62
   249
 10
57.5
 20
107.5
 30
0.0
 11
32.5
 21
107.5
 31
0.0
  0
LINE
  8
0
  6
DASHED
 62
   249
 10
57.5
 20
87.5
 30
0.0
 11
32.5
 21
87.5
 31
0.0
  0
LINE
  8
0
  6
DASHED
 62
   249
 10
32.5
 20
87.5
 30
0.0
 11
25.0
 21
87.5
 31
0.0
  0
LINE
  8
0
  6
DASHED
 62
   249
 10
32.5
 20
227.5
 30
0.0
 11
27.5
 21
227.5
 31
0.0
  0
LINE
  8
0
  6
DASHED
 62
   249
 10
212.5
 20
55.0
 30
0.0
 11
212.5
 21
47.5
 31
0.0
  0
LINE
  8
0
  6
DASHED
 62
   249
 10
207.5
 20
80.0
 30
0.0
 11
207.5
 21
55.0
 31
0.0
  0
LINE
  8
0
  6
DASHED
 62
   249
 10
170.0
 20
80.0
 30
0.0
 11
170.0
 21
55.0
 31
0.0
  0
LINE
  8
0
  6
DASHED
 62
   249
 10
165.0
 20
80.0
 30
0.0
 11
165.0
 21
55.0
 31
0.0
  0
LINE
  8
0
  6
DASHED
 62
   249
 10
225.0
 20
80.0
 30
0.0
 11
225.0
 21
55.0
 31
0.0
  0
LINE
  8
0
  6
DASHED
 62
   249
 10
207.5
 20
55.0
 30
0.0
 11
207.5
 21
47.5
 31
0.0
  0
LINE
  8
0
  6
DASHED
 62
   249
 10
225.0
 20
55.0
 30
0.0
 11
225.0
 21
47.5
 31
0.0
  0
LINE
  8
0
  6
DASHED
 62
   249
 10
170.0
 20
55.0
 30
0.0
 11
170.0
 21
47.5
 31
0.0
  0
LINE
  8
0
  6
DASHED
 62
   249
 10
165.0
 20
55.0
 30
0.0
 11
165.0
 21
47.5
 31
0.0
  0
TEXT
  8
0
  6
DASHED
 62
   249
 10
340.341029
 20
164.231593
 30
0.0
 40
2.0
  1
108 SPAA 120 C
  7
ROMANS
  0
TEXT
  8
0
  6
DASHED
 62
   249
 10
340.341029
 20
170.698555
 30
0.0
 40
2.0
  1
101 RTXP 18
  7
ROMANS
  0
TEXT
  8
0
  6
DASHED
 62
   249
 10
361.739047
 20
181.45545
 30
0.0
 40
2.0
  1
4S
  7
ROMANS
  0
TEXT
  8
0
  6
DASHED
 62
   249
 10
349.145222
 20
189.899545
 30
0.0
 40
2.0
  1
30C
  7
ROMANS
  0
TEXT
  8
0
  6
DASHED
 62
   249
 10
348.777587
 20
185.572746
 30
0.0
 40
2.0
  1
108
  7
ROMANS
  0
TEXT
  8
0
  6
DASHED
 62
   249
 10
339.872948
 20
185.588446
 30
0.0
 40
2.0
  1
101  
  7
ROMANS
  0
LINE
  8
0
  6
CONTINUOUS
 62
   249
 10
339.902498
 20
188.633424
 30
0.0
 11
360.581662
 21
188.633424
 31
0.0
  0
LINE
  8
0
  6
CONTINUOUS
 62
   249
 10
360.581662
 20
188.633424
 30
0.0
 11
360.581662
 21
174.487916
 31
0.0
  0
LINE
  8
0
  6
CONTINUOUS
 62
   249
 10
360.581662
 20
174.487916
 30
0.0
 11
339.902498
 21
174.487916
 31
0.0
  0
LINE
  8
0
  6
CONTINUOUS
 62
   249
 10
339.902498
 20
174.487916
 30
0.0
 11
339.902498
 21
188.633424
 31
0.0
  0
LINE
  8
0
  6
CONTINUOUS
 62
   249
 10
346.429756
 20
188.633424
 30
0.0
 11
346.429756
 21
174.487916
 31
0.0
  0
LINE
  8
0
  6
CONTINUOUS
 62
   249
 10
348.24394
 20
188.633424
 30
0.0
 11
348.24394
 21
174.487916
 31
0.0
  0
LINE
  8
0
  6
CONTINUOUS
 62
   249
 10
282.5
 20
242.5
 30
0.0
 11
287.5
 21
242.5
 31
0.0
  0
LINE
  8
0
  6
CONTINUOUS
 62
   249
 10
282.5
 20
232.5
 30
0.0
 11
287.5
 21
232.5
 31
0.0
  0
LINE
  8
0
  6
CONTINUOUS
 62
   249
 10
282.5
 20
222.5
 30
0.0
 11
287.5
 21
222.5
 31
0.0
  0
LINE
  8
0
  6
CONTINUOUS
 62
   249
 10
282.5
 20
212.5
 30
0.0
 11
287.5
 21
212.5
 31
0.0
  0
LINE
  8
0
  6
CONTINUOUS
 62
   249
 10
282.5
 20
202.5
 30
0.0
 11
287.5
 21
202.5
 31
0.0
  0
LINE
  8
0
  6
CONTINUOUS
 62
   249
 10
282.5
 20
192.5
 30
0.0
 11
287.5
 21
192.5
 31
0.0
  0
LINE
  8
0
  6
CONTINUOUS
 62
   249
 10
282.5
 20
177.5
 30
0.0
 11
287.5
 21
177.5
 31
0.0
  0
LINE
  8
0
  6
CONTINUOUS
 62
   249
 10
282.5
 20
167.5
 30
0.0
 11
287.5
 21
167.5
 31
0.0
  0
LINE
  8
0
  6
CONTINUOUS
 62
   249
 10
282.5
 20
157.5
 30
0.0
 11
287.5
 21
157.5
 31
0.0
  0
LINE
  8
0
  6
CONTINUOUS
 62
   249
 10
290.0
 20
167.16187
 30
0.0
 11
289.0
 21
166.16187
 31
0.0
  0
TEXT
  8
0
 62
   249
 10
340.7975
 20
49.005208
 30
0.0
 40
2.0
  1
9B
  7
ROMANS
 11
340.7975
 21
48.338541
 31
0.0
 73
     1
  0
TEXT
  8
0
 62
   249
 10
340.7975
 20
52.338541
 30
0.0
 40
2.0
  1
7B   
  7
ROMANS
 11
340.7975
 21
51.671874
 31
0.0
 73
     1
  0
TEXT
  8
0
 62
   249
 10
340.7975
 20
55.671874
 30
0.0
 40
2.0
  1
3B     3      2
  7
ROMANS
 11
340.7975
 21
55.005208
 31
0.0
 73
     1
  0
TEXT
  8
0
 62
   249
 10
366.7975
 20
59.671874
 30
0.0
 40
2.0
  1
In=5A
 11
366.7975
 21
59.005208
 31
0.0
 73
     1
  0
TEXT
  8
0
 62
   249
 10
350.7975
 20
59.671874
 30
0.0
 40
2.0
  1
In=1A 
 11
350.7975
 21
59.005208
 31
0.0
 73
     1
  0
TEXT
  8
0
 62
   249
 10
360.7975
 20
65.671874
 30
0.0
 40
2.0
  1
108:
  7
ROMANS
 11
360.7975
 21
65.005208
 31
0.0
 73
     1
  0
TEXT
  8
0
 62
   249
 10
340.7975
 20
65.671874
 30
0.0
 40
2.0
  1
101:       
  7
ROMANS
 11
340.7975
 21
65.005208
 31
0.0
 73
     1
  0
TEXT
  8
0
 62
   249
 10
340.7975
 20
71.671874
 30
0.0
 40
2.0
  1
TERMINALS / UTTAG
  7
ROMANS
 11
340.7975
 21
71.005208
 31
0.0
 73
     1
  0
LINE
  8
0
 62
   249
 10
334.7975
 20
59.005208
 30
0.0
 11
378.7975
 21
59.005208
 31
0.0
  0
LINE
  8
0
 62
   249
 10
362.7975
 20
65.005208
 30
0.0
 11
362.7975
 21
39.605544
 31
0.0
  0
LINE
  8
0
 62
   249
 10
348.7975
 20
65.005208
 30
0.0
 11
378.7975
 21
65.005208
 31
0.0
  0
LINE
  8
0
 62
   249
 10
348.7975
 20
71.005208
 30
0.0
 11
348.7975
 21
39.605544
 31
0.0
  0
LINE
  8
0
 62
   249
 10
334.7975
 20
71.005208
 30
0.0
 11
378.7975
 21
71.005208
 31
0.0
  0
LINE
  8
0
 62
   249
 10
378.7975
 20
39.605544
 30
0.0
 11
378.7975
 21
77.005208
 31
0.0
  0
LINE
  8
0
 62
   249
 10
334.7975
 20
77.005208
 30
0.0
 11
334.7975
 21
39.605544
 31
0.0
  0
LINE
  8
0
 62
   249
 10
378.7975
 20
77.005208
 30
0.0
 11
334.7975
 21
77.005208
 31
0.0
  0
LINE
  8
0
 62
   249
 10
334.7975
 20
39.605544
 30
0.0
 11
378.7975
 21
39.605544
 31
0.0
  0
LINE
  8
0
  6
CONTINUOUS
 62
   249
 10
378.903703
 20
43.148564
 30
0.0
 11
348.903703
 21
43.148564
 31
0.0
  0
LINE
  8
0
  6
CONTINUOUS
 62
   249
 10
334.7975
 20
46.646924
 30
0.0
 11
378.903703
 21
46.646924
 31
0.0
  0
TEXT
  8
0
  6
CONTINUOUS
 62
   249
 10
348.792555
 20
43.775296
 30
0.0
 40
2.0
  1
Un=100V 
  7
ROMANS
  0
TEXT
  8
0
  6
CONTINUOUS
 62
   249
 10
364.130025
 20
43.775296
 30
0.0
 40
2.0
  1
Un=110V
  7
ROMANS
  0
TEXT
  8
0
  6
CONTINUOUS
 62
   249
 10
367.880213
 20
40.436326
 30
0.0
 40
2.0
  1
30
  7
ROMANS
  0
TEXT
  8
0
  6
CONTINUOUS
 62
   249
 10
353.900438
 20
40.436326
 30
0.0
 40
2.0
  1
29
  7
ROMANS
  0
TEXT
  8
0
  6
CONTINUOUS
 62
   249
 10
338.634299
 20
41.979004
 30
0.0
 40
2.0
  1
11B
  7
ROMANS
  0
TEXT
  8
0
  6
CONTINUOUS
 62
   249
 10
354.596852
 20
52.113838
 30
0.0
 40
2.0
  1
9
  7
ROMANS
  0
TEXT
  8
0
  6
CONTINUOUS
 62
   249
 10
368.687291
 20
52.263285
 30
0.0
 40
2.0
  1
8
  7
ROMANS
  0
TEXT
  8
0
  6
CONTINUOUS
 62
   249
 10
352.754483
 20
48.858021
 30
0.0
 40
2.0
  1
27
  7
ROMANS
  0
TEXT
  8
0
  6
CONTINUOUS
 62
   249
 10
366.844922
 20
49.018143
 30
0.0
 40
2.0
  1
26
  7
ROMANS
  0
LINE
  8
0
  6
DASHED
 62
   249
 10
200.0
 20
55.0
 30
0.0
 11
200.0
 21
47.5
 31
0.0
  0
LINE
  8
0
  6
DASHED
 62
   249
 10
192.5
 20
55.0
 30
0.0
 11
192.5
 21
47.5
 31
0.0
  0
TEXT
  8
0
  6
CONTINUOUS
 62
   249
 10
340.956281
 20
167.372102
 30
0.0
 40
2.0
  1
RK 926 115-AD
  7
ROMANS
  0
TEXT
  8
0
  6
CONTINUOUS
 62
   249
 10
317.5
 20
20.875669
 30
0.0
 40
2.0
  1
SPAA 120 C MED PROVDON
  7
ROMANS
  0
TEXT
  8
0
  6
CONTINUOUS
 62
   249
 10
32.898122
 20
96.471011
 30
0.0
 40
2.0
  1
16A    16B
  7
ROMANS
  0
TEXT
  8
0
  6
CONTINUOUS
 62
   249
 10
33.584214
 20
256.204636
 30
0.0
 40
2.0
  1
101
  7
ROMANS
  0
TEXT
  8
0
  6
CONTINUOUS
 62
   249
 10
58.675111
 20
248.583718
 30
0.0
 40
2.0
  1
108
  7
ROMANS
  0
TEXT
  8
0
  6
CONTINUOUS
 62
   249
 10
185.973108
 20
56.359243
 30
0.0
 40
2.0
  1
2A
 50
90.0
  7
ROMANS
  0
TEXT
  8
0
  6
CONTINUOUS
 62
   249
 10
185.613982
 20
70.58669
 30
0.0
 40
2.0
  1
2B   
 50
90.0
  7
ROMANS
  0
LINE
  8
0
  6
CONTINUOUS
 62
   249
 10
184.242723
 20
74.937872
 30
0.0
 11
184.242723
 21
76.581487
 31
0.0
  0
LINE
  8
0
  6
CONTINUOUS
 62
   249
 10
185.910097
 20
76.581487
 30
0.0
 11
185.910097
 21
74.937872
 31
0.0
  0
LINE
  8
0
  6
CONTINUOUS
 62
   249
 10
185.910097
 20
74.937872
 30
0.0
 11
184.242723
 21
74.937872
 31
0.0
  0
LINE
  8
0
  6
CONTINUOUS
 62
   249
 10
184.242723
 20
76.581487
 30
0.0
 11
185.910097
 21
76.581487
 31
0.0
  0
TEXT
  8
0
  6
CONTINUOUS
 62
   249
 10
51.468661
 20
5.648496
 30
0.0
 40
2.0
  1
ORDER OF SWITCHGROUP SGR3 IS CHANGED 1993-06-23  KM / RITU Power
  7
ROMANS
  0
TEXT
  8
0
  6
DASHED
 62
   249
 10
354.190282
 20
15.793111
 30
0.0
 40
1.4
  1
LEHTI SHEET
  7
STAND
  0
LINE
  8
PAKSU
 10
0.236802
 20
0.237701
 30
0.0
 11
0.236802
 21
262.737701
 31
0.0
  0
LINE
  8
0
 62
   249
 10
392.236802
 20
262.737701
 30
0.0
 11
392.236802
 21
0.237701
 31
0.0
  0
LINE
  8
0
 62
   249
 10
0.236802
 20
0.237701
 30
0.0
 11
392.236802
 21
0.237701
 31
0.0
  0
TEXT
  8
0
 62
   249
 10
42.236802
 20
5.587211
 30
0.0
 40
2.5
  1
C
  7
ROMANS
  0
TEXT
  8
0
 62
   249
 10
42.236802
 20
1.194994
 30
0.0
 40
2.5
  1
B
  7
ROMANS
  0
TEXT
  8
0
 62
   249
 10
257.406709
 20
1.741485
 30
0.0
 40
3.0
  1
Power
 41
0.8
  7
ROMANS
  0
TEXT
  8
0
 62
   249
 10
273.236802
 20
7.237701
 30
0.0
 40
1.4
  1
VAST.OSASTO RESP.DEPT.
  7
ROMANS
  0
TEXT
  8
0
 62
   249
 10
210.236802
 20
32.237701
 30
0.0
 40
1.4
  1
TEKI  PREPARED
  7
ROMANS
  0
LINE
  8
0
 62
   249
 10
271.236802
 20
9.737701
 30
0.0
 11
271.236802
 21
0.237701
 31
0.0
  0
LINE
  8
0
 62
   249
 10
257.236802
 20
9.737701
 30
0.0
 11
257.236802
 21
35.237701
 31
0.0
  0
LINE
  8
0
 62
   249
 10
40.736802
 20
4.737701
 30
0.0
 11
209.236802
 21
4.737701
 31
0.0
  0
LINE
  8
0
 62
   249
 10
46.736802
 20
0.237701
 30
0.0
 11
46.736802
 21
9.237701
 31
0.0
  0
LINE
  8
0
 62
   249
 10
46.736802
 20
9.237701
 30
0.0
 11
209.236802
 21
9.237701
 31
0.0
  0
TEXT
  8
0
 62
   249
 10
27.736802
 20
2.471035
 30
0.0
 40
1.4
  1
REVISION
  7
ROMANS
  0
TEXT
  8
0
 62
   249
 10
27.736802
 20
4.737701
 30
0.0
 40
1.4
  1
MUUTOS
  7
ROMANS
  0
LINE
  8
0
 62
   249
 10
282.236802
 20
9.737701
 30
0.0
 11
282.236802
 21
18.237701
 31
0.0
  0
TEXT
  8
0
 62
   249
 10
237.736802
 20
1.737701
 30
0.0
 40
3.0
  1
Strömberg
 41
0.8
  7
ROMANS
  0
TEXT
  8
0
 62
   249
 10
229.736802
 20
1.737701
 30
0.0
 40
3.0
  1
ABB 
 41
0.8
  7
ROMANS
  0
LINE
  8
0
 62
   249
 10
223.136802
 20
1.737701
 30
0.0
 11
223.136802
 21
5.097701
 31
0.0
  0
LINE
  8
0
 62
   249
 10
223.136802
 20
8.737701
 30
0.0
 11
225.096802
 21
8.737701
 31
0.0
  0
LINE
  8
0
 62
   249
 10
225.096802
 20
8.737701
 30
0.0
 11
225.096802
 21
5.377701
 31
0.0
  0
LINE
  8
0
 62
   249
 10
225.096802
 20
5.377701
 30
0.0
 11
223.136802
 21
5.377701
 31
0.0
  0
LINE
  8
0
 62
   249
 10
223.136802
 20
5.097701
 30
0.0
 11
225.096802
 21
5.097701
 31
0.0
  0
LINE
  8
0
 62
   249
 10
225.096802
 20
5.097701
 30
0.0
 11
225.096802
 21
1.737701
 31
0.0
  0
LINE
  8
0
 62
   249
 10
225.096802
 20
1.737701
 30
0.0
 11
223.136802
 21
1.737701
 31
0.0
  0
LINE
  8
0
 62
   249
 10
223.136802
 20
5.377701
 30
0.0
 11
223.136802
 21
8.737701
 31
0.0
  0
ARC
  8
0
 62
   249
 10
225.936802
 20
7.162701
 30
0.0
 40
1.575
 50
298.455859
 51
90.052437
  0
LINE
  8
0
 62
   249
 10
225.376802
 20
8.737701
 30
0.0
 11
225.935361
 21
8.737701
 31
0.0
  0
LINE
  8
0
 62
   249
 10
225.376802
 20
8.737701
 30
0.0
 11
225.376802
 21
5.377701
 31
0.0
  0
LINE
  8
0
 62
   249
 10
225.376802
 20
5.377701
 30
0.0
 11
227.361245
 21
5.377701
 31
0.0
  0
LINE
  8
0
 62
   249
 10
227.616802
 20
5.097701
 30
0.0
 11
225.376802
 21
5.097701
 31
0.0
  0
LINE
  8
0
 62
   249
 10
225.376802
 20
5.097701
 30
0.0
 11
225.376802
 21
1.737701
 31
0.0
  0
ARC
  8
0
 62
   249
 10
225.936802
 20
3.837701
 30
0.0
 40
2.1
 50
269.937724
 51
37.056553
  0
LINE
  8
0
 62
   249
 10
225.376802
 20
1.737701
 30
0.0
 11
225.93452
 21
1.737703
 31
0.0
  0
ARC
  8
0
 62
   249
 10
225.936802
 20
3.837701
 30
0.0
 40
2.1
 50
47.28622
 51
68.787999
  0
INSERT
  8
0
 62
   249
  2
*X15
 10
215.646802
 20
1.737701
 30
0.0
 41
0.7
 42
0.7
 43
0.7
  0
INSERT
  8
0
 62
   249
  2
*X16
 10
215.646802
 20
1.737701
 30
0.0
 41
0.7
 42
0.7
 43
0.7
  0
INSERT
  8
0
 62
   249
  2
*X17
 10
215.646802
 20
1.737701
 30
0.0
 41
0.7
 42
0.7
 43
0.7
  0
INSERT
  8
0
 62
   249
  2
*X18
 10
215.646802
 20
1.737701
 30
0.0
 41
0.7
 42
0.7
 43
0.7
  0
INSERT
  8
0
 62
   249
  2
*X18
 10
210.186802
 20
1.737701
 30
0.0
 41
0.7
 42
0.7
 43
0.7
  0
INSERT
  8
0
 62
   249
  2
*X17
 10
210.186802
 20
1.737701
 30
0.0
 41
0.7
 42
0.7
 43
0.7
  0
INSERT
  8
0
 62
   249
  2
*X16
 10
210.186802
 20
1.737701
 30
0.0
 41
0.7
 42
0.7
 43
0.7
  0
INSERT
  8
0
 62
   249
  2
*X15
 10
210.186802
 20
1.737701
 30
0.0
 41
0.7
 42
0.7
 43
0.7
  0
ARC
  8
0
 62
   249
 10
220.476802
 20
3.837701
 30
0.0
 40
2.1
 50
47.28622
 51
68.787999
  0
LINE
  8
0
 62
   249
 10
219.916802
 20
1.737701
 30
0.0
 11
220.47452
 21
1.737703
 31
0.0
  0
ARC
  8
0
 62
   249
 10
220.476802
 20
3.837701
 30
0.0
 40
2.1
 50
269.937724
 51
37.056553
  0
LINE
  8
0
 62
   249
 10
219.916802
 20
5.097701
 30
0.0
 11
219.916802
 21
1.737701
 31
0.0
  0
LINE
  8
0
 62
   249
 10
222.156802
 20
5.097701
 30
0.0
 11
219.916802
 21
5.097701
 31
0.0
  0
LINE
  8
0
 62
   249
 10
219.916802
 20
5.377701
 30
0.0
 11
221.901245
 21
5.377701
 31
0.0
  0
LINE
  8
0
 62
   249
 10
219.916802
 20
8.737701
 30
0.0
 11
219.916802
 21
5.377701
 31
0.0
  0
LINE
  8
0
 62
   249
 10
219.916802
 20
8.737701
 30
0.0
 11
220.475361
 21
8.737701
 31
0.0
  0
ARC
  8
0
 62
   249
 10
220.476802
 20
7.162701
 30
0.0
 40
1.575
 50
298.455859
 51
90.052437
  0
LINE
  8
0
 62
   249
 10
217.676802
 20
5.377701
 30
0.0
 11
217.676802
 21
8.737701
 31
0.0
  0
LINE
  8
0
 62
   249
 10
219.636802
 20
1.737701
 30
0.0
 11
217.676802
 21
1.737701
 31
0.0
  0
LINE
  8
0
 62
   249
 10
219.636802
 20
5.097701
 30
0.0
 11
219.636802
 21
1.737701
 31
0.0
  0
LINE
  8
0
 62
   249
 10
217.676802
 20
5.097701
 30
0.0
 11
219.636802
 21
5.097701
 31
0.0
  0
LINE
  8
0
 62
   249
 10
219.636802
 20
5.377701
 30
0.0
 11
217.676802
 21
5.377701
 31
0.0
  0
LINE
  8
0
 62
   249
 10
219.636802
 20
8.737701
 30
0.0
 11
219.636802
 21
5.377701
 31
0.0
  0
LINE
  8
0
 62
   249
 10
217.676802
 20
8.737701
 30
0.0
 11
219.636802
 21
8.737701
 31
0.0
  0
LINE
  8
0
 62
   249
 10
217.676802
 20
1.737701
 30
0.0
 11
217.676802
 21
5.097701
 31
0.0
  0
INSERT
  8
0
 62
   249
  2
*X14
 10
210.186802
 20
1.737701
 30
0.0
 41
0.7
 42
0.7
 43
0.7
  0
INSERT
  8
0
 62
   249
  2
*X13
 10
210.186802
 20
1.737701
 30
0.0
 41
0.7
 42
0.7
 43
0.7
  0
INSERT
  8
0
 62
   249
  2
*X12
 10
210.186802
 20
1.737701
 30
0.0
 41
0.7
 42
0.7
 43
0.7
  0
INSERT
  8
0
 62
   249
  2
*X11
 10
210.186802
 20
1.737701
 30
0.0
 41
0.7
 42
0.7
 43
0.7
  0
LINE
  8
0
 62
   249
 10
211.356691
 20
5.08024
 30
0.0
 11
210.186802
 21
1.737701
 31
0.0
  0
LINE
  8
0
 62
   249
 10
213.546802
 20
5.097701
 30
0.0
 11
213.546802
 21
3.137701
 31
0.0
  0
LINE
  8
0
 62
   249
 10
213.826802
 20
5.097701
 30
0.0
 11
213.826802
 21
3.137701
 31
0.0
  0
LINE
  8
0
 62
   249
 10
213.826802
 20
5.097701
 30
0.0
 11
216.010059
 21
5.097701
 31
0.0
  0
LINE
  8
0
 62
   249
 10
213.826802
 20
5.377701
 30
0.0
 11
215.911916
 21
5.377701
 31
0.0
  0
LINE
  8
0
 62
   249
 10
216.011294
 20
5.096296
 30
0.0
 11
217.186802
 21
1.737701
 31
0.0
  0
LINE
  8
0
 62
   249
 10
211.359785
 20
5.097701
 30
0.0
 11
213.546802
 21
5.097701
 31
0.0
  0
LINE
  8
0
 62
   249
 10
211.458743
 20
5.377701
 30
0.0
 11
213.546802
 21
5.377701
 31
0.0
  0
LINE
  8
0
 62
   249
 10
213.546802
 20
8.737701
 30
0.0
 11
212.636802
 21
8.737701
 31
0.0
  0
LINE
  8
0
 62
   249
 10
213.826802
 20
3.137701
 30
0.0
 11
214.946696
 21
3.137701
 31
0.0
  0
LINE
  8
0
 62
   249
 10
213.826802
 20
8.737701
 30
0.0
 11
213.826802
 21
5.377701
 31
0.0
  0
LINE
  8
0
 62
   249
 10
213.546802
 20
8.737701
 30
0.0
 11
213.546802
 21
5.377701
 31
0.0
  0
LINE
  8
0
 62
   249
 10
214.736802
 20
8.737701
 30
0.0
 11
213.826802
 21
8.737701
 31
0.0
  0
LINE
  8
0
 62
   249
 10
214.9479
 20
3.134565
 30
0.0
 11
215.436802
 21
1.737701
 31
0.0
  0
LINE
  8
0
 62
   249
 10
214.736802
 20
8.737701
 30
0.0
 11
215.913155
 21
5.376693
 31
0.0
  0
LINE
  8
0
 62
   249
 10
212.425592
 20
3.134244
 30
0.0
 11
211.936802
 21
1.737701
 31
0.0
  0
LINE
  8
0
 62
   249
 10
212.425589
 20
3.137701
 30
0.0
 11
213.546802
 21
3.137701
 31
0.0
  0
LINE
  8
0
 62
   249
 10
212.636802
 20
8.737701
 30
0.0
 11
211.459274
 21
5.373336
 31
0.0
  0
LINE
  8
0
 62
   249
 10
215.436802
 20
1.737701
 30
0.0
 11
217.186802
 21
1.737701
 31
0.0
  0
LINE
  8
0
 62
   249
 10
210.186802
 20
1.737701
 30
0.0
 11
211.936802
 21
1.737701
 31
0.0
  0
LINE
  8
0
 62
   249
 10
369.736802
 20
9.737701
 30
0.0
 11
369.736802
 21
0.237701
 31
0.0
  0
TEXT
  8
0
 62
   249
 10
371.236802
 20
7.237701
 30
0.0
 40
1.4
  1
PAINOS  REVISION
  7
ROMANS
  0
LINE
  8
0
 62
   249
 10
349.736802
 20
9.737701
 30
0.0
 11
349.736802
 21
18.237701
 31
0.0
  0
TEXT
  8
0
 62
   249
 10
309.236802
 20
7.237701
 30
0.0
 40
1.4
  1
PIIRUSTUS NO  DRAWING NR
  7
ROMANS
  0
TEXT
  8
0
 62
   249
 10
309.236802
 20
15.737701
 30
0.0
 40
1.4
  1
KOODI  CODE
  7
ROMANS
  0
TEXT
  8
0
 62
   249
 10
309.236802
 20
32.737701
 30
0.0
 40
1.4
  1
NIMITYS  NAME
  7
ROMANS
  0
TEXT
  8
0
 62
   249
 10
259.236802
 20
15.737701
 30
0.0
 40
1.4
  1
SUHDE  SCALE
  7
ROMANS
  0
TEXT
  8
0
 62
   249
 10
259.236802
 20
23.737701
 30
0.0
 40
1.4
  1
TOLERANSSIT  TOLERANCES
  7
ROMANS
  0
TEXT
  8
0
 62
   249
 10
259.236802
 20
32.737701
 30
0.0
 40
1.4
  1
LIITTYY  CONCERNING
  7
ROMANS
  0
LINE
  8
0
 62
   249
 10
307.236802
 20
0.237701
 30
0.0
 11
307.236802
 21
35.237701
 31
0.0
  0
TEXT
  8
0
 62
   249
 10
209.979637
 20
15.704368
 30
0.0
 40
1.4
  1
HYVÄKSYI  APPROVED
  7
ROMANS
  0
TEXT
  8
0
 62
   249
 10
210.236802
 20
23.971035
 30
0.0
 40
1.4
  1
TARKASTI  CHECKED
  7
ROMANS
  0
LINE
  8
0
 62
   249
 10
209.236802
 20
35.237701
 30
0.0
 11
392.236802
 21
35.237701
 31
0.0
  0
LINE
  8
0
 62
   249
 10
209.236802
 20
26.737701
 30
0.0
 11
307.236802
 21
26.737701
 31
0.0
  0
LINE
  8
0
 62
   249
 10
209.236802
 20
9.737701
 30
0.0
 11
392.236802
 21
9.737701
 31
0.0
  0
LINE
  8
0
 62
   249
 10
209.236802
 20
18.237701
 30
0.0
 11
392.236802
 21
18.237701
 31
0.0
  0
LINE
  8
0
 62
   249
 10
392.236802
 20
0.237701
 30
0.0
 11
392.236802
 21
35.237701
 31
0.0
  0
LINE
  8
0
 62
   249
 10
209.236802
 20
0.237701
 30
0.0
 11
209.236802
 21
35.237701
 31
0.0
  0
LINE
  8
0
 62
   249
 10
209.236802
 20
0.237701
 30
0.0
 11
392.236802
 21
0.237701
 31
0.0
  0
LINE
  8
0
 62
   249
 10
18.236802
 20
0.237701
 30
0.0
 11
0.236802
 21
0.237701
 31
0.0
  0
LINE
  8
0
 62
   249
 10
0.236802
 20
262.737701
 30
0.0
 11
392.236802
 21
262.737701
 31
0.0
  0
TEXT
  8
0
  6
DASHED
 62
   249
 10
292.216898
 20
11.813061
 30
0.0
 40
3.0
  1
A3
  7
GREEKS
  0
TEXT
  8
0
  6
CONTINUOUS
 62
   249
 10
164.296782
 20
41.513635
 30
0.0
 40
2.0
  1
+
  0
TEXT
  8
0
  6
CONTINUOUS
 62
   249
 10
169.296782
 20
41.513635
 30
0.0
 40
2.0
  1
+
  0
TEXT
  8
0
  6
CONTINUOUS
 62
   249
 10
174.296782
 20
41.513635
 30
0.0
 40
2.0
  1
+
  0
TEXT
  8
0
  6
CONTINUOUS
 62
   249
 10
181.796782
 20
41.513635
 30
0.0
 40
2.0
  1
+
  0
TEXT
  8
0
  6
CONTINUOUS
 62
   249
 10
191.796782
 20
41.513635
 30
0.0
 40
2.0
  1
+
  0
ARC
  8
0
  6
CONTINUOUS
 62
   249
 10
182.5
 20
77.5
 30
0.0
 40
0.5
 50
180.0
 51
0.0
  0
ARC
  8
0
  6
CONTINUOUS
 62
   249
 10
182.5
 20
77.5
 30
0.0
 40
0.5
 50
0.0
 51
180.0
  0
LINE
  8
0
  6
CONTINUOUS
 62
   249
 10
46.018035
 20
232.493411
 30
0.0
 11
39.337159
 21
234.934804
 31
0.0
  0
LINE
  8
0
  6
CONTINUOUS
 62
   249
 10
40.0
 20
232.5
 30
0.0
 11
40.0
 21
235.265661
 31
0.0
  0
LINE
  8
0
  6
CONTINUOUS
 62
   249
 10
39.337159
 20
234.934804
 30
0.0
 11
38.892266
 21
234.049106
 31
0.0
  0
CIRCLE
  8
0
  6
CONTINUOUS
 62
   249
 10
46.758945
 20
232.5
 30
0.0
 40
0.740939
  0
LINE
  8
0
 62
   249
 10
16.491073
 20
230.635937
 30
0.0
 11
20.491073
 21
230.635937
 31
0.0
  0
INSERT
  8
0
 62
   249
  2
WKU130
 10
16.831022
 20
228.910384
 30
0.0
 41
0.8
 42
0.8
 43
0.8
  0
TEXT
  8
0
  6
CONTINUOUS
 62
   249
 10
21.844763
 20
226.50558
 30
0.0
 40
2.0
  1
-
  0
TEXT
  8
0
  6
CONTINUOUS
 62
   249
 10
21.853328
 20
231.513635
 30
0.0
 40
2.0
  1
+
  0
LINE
  8
0
  6
CONTINUOUS
 62
   249
 10
185.266539
 20
211.164419
 30
0.0
 11
182.920774
 21
212.499773
 31
0.0
  0
LINE
  8
0
  6
CONTINUOUS
 62
   249
 10
182.920774
 20
212.499773
 30
0.0
 11
185.266539
 21
213.689692
 31
0.0
  0
3DFACE
  8
0
  6
CONTINUOUS
 62
   249
 10
86.206597
 20
162.5
 30
0.0
 11
86.219531
 21
162.491019
 31
0.0
 12
86.219531
 22
162.509068
 32
0.0
 13
86.206597
 23
162.5
 33
0.0
  0
3DFACE
  8
0
  6
CONTINUOUS
 62
   249
 10
86.219531
 20
162.491019
 30
0.0
 11
86.232465
 21
162.482038
 31
0.0
 12
86.232465
 22
162.518136
 32
0.0
 13
86.219531
 23
162.509068
 33
0.0
  0
3DFACE
  8
0
  6
CONTINUOUS
 62
   249
 10
86.232465
 20
162.482038
 30
0.0
 11
86.245399
 21
162.473057
 31
0.0
 12
86.245399
 22
162.527203
 32
0.0
 13
86.232465
 23
162.518136
 33
0.0
  0
3DFACE
  8
0
  6
CONTINUOUS
 62
   249
 10
86.245399
 20
162.473057
 30
0.0
 11
86.258333
 21
162.464077
 31
0.0
 12
86.258333
 22
162.536271
 32
0.0
 13
86.245399
 23
162.527203
 33
0.0
  0
3DFACE
  8
0
  6
CONTINUOUS
 62
   249
 10
86.258333
 20
162.464077
 30
0.0
 11
86.271267
 21
162.455096
 31
0.0
 12
86.271267
 22
162.545339
 32
0.0
 13
86.258333
 23
162.536271
 33
0.0
  0
3DFACE
  8
0
  6
CONTINUOUS
 62
   249
 10
86.271267
 20
162.455096
 30
0.0
 11
86.284202
 21
162.446115
 31
0.0
 12
86.284202
 22
162.554406
 32
0.0
 13
86.271267
 23
162.545339
 33
0.0
  0
3DFACE
  8
0
  6
CONTINUOUS
 62
   249
 10
86.284202
 20
162.446115
 30
0.0
 11
86.297136
 21
162.437134
 31
0.0
 12
86.297136
 22
162.563474
 32
0.0
 13
86.284202
 23
162.554406
 33
0.0
  0
3DFACE
  8
0
  6
CONTINUOUS
 62
   249
 10
86.297136
 20
162.437134
 30
0.0
 11
86.31007
 21
162.428153
 31
0.0
 12
86.31007
 22
162.572542
 32
0.0
 13
86.297136
 23
162.563474
 33
0.0
  0
3DFACE
  8
0
  6
CONTINUOUS
 62
   249
 10
86.31007
 20
162.428153
 30
0.0
 11
86.323004
 21
162.419172
 31
0.0
 12
86.323004
 22
162.581609
 32
0.0
 13
86.31007
 23
162.572542
 33
0.0
  0
3DFACE
  8
0
  6
CONTINUOUS
 62
   249
 10
86.323004
 20
162.419172
 30
0.0
 11
86.335938
 21
162.410191
 31
0.0
 12
86.335938
 22
162.590677
 32
0.0
 13
86.323004
 23
162.581609
 33
0.0
  0
3DFACE
  8
0
  6
CONTINUOUS
 62
   249
 10
86.335938
 20
162.410191
 30
0.0
 11
86.348872
 21
162.40121
 31
0.0
 12
86.348872
 22
162.599745
 32
0.0
 13
86.335938
 23
162.590677
 33
0.0
  0
3DFACE
  8
0
  6
CONTINUOUS
 62
   249
 10
86.348872
 20
162.40121
 30
0.0
 11
86.361806
 21
162.39223
 31
0.0
 12
86.361806
 22
162.608812
 32
0.0
 13
86.348872
 23
162.599745
 33
0.0
  0
3DFACE
  8
0
  6
CONTINUOUS
 62
   249
 10
86.361806
 20
162.39223
 30
0.0
 11
86.37474
 21
162.383249
 31
0.0
 12
86.37474
 22
162.61788
 32
0.0
 13
86.361806
 23
162.608812
 33
0.0
  0
3DFACE
  8
0
  6
CONTINUOUS
 62
   249
 10
86.37474
 20
162.383249
 30
0.0
 11
86.387674
 21
162.374268
 31
0.0
 12
86.387674
 22
162.626948
 32
0.0
 13
86.37474
 23
162.61788
 33
0.0
  0
3DFACE
  8
0
  6
CONTINUOUS
 62
   249
 10
86.387674
 20
162.374268
 30
0.0
 11
86.400608
 21
162.365287
 31
0.0
 12
86.400608
 22
162.636015
 32
0.0
 13
86.387674
 23
162.626948
 33
0.0
  0
3DFACE
  8
0
  6
CONTINUOUS
 62
   249
 10
86.400608
 20
162.365287
 30
0.0
 11
86.413542
 21
162.356306
 31
0.0
 12
86.413542
 22
162.645083
 32
0.0
 13
86.400608
 23
162.636015
 33
0.0
  0
3DFACE
  8
0
  6
CONTINUOUS
 62
   249
 10
86.413542
 20
162.356306
 30
0.0
 11
86.426476
 21
162.347325
 31
0.0
 12
86.426476
 22
162.654151
 32
0.0
 13
86.413542
 23
162.645083
 33
0.0
  0
3DFACE
  8
0
  6
CONTINUOUS
 62
   249
 10
86.426476
 20
162.347325
 30
0.0
 11
86.43941
 21
162.338344
 31
0.0
 12
86.43941
 22
162.663219
 32
0.0
 13
86.426476
 23
162.654151
 33
0.0
  0
3DFACE
  8
0
  6
CONTINUOUS
 62
   249
 10
86.43941
 20
162.338344
 30
0.0
 11
86.452344
 21
162.329363
 31
0.0
 12
86.452344
 22
162.672286
 32
0.0
 13
86.43941
 23
162.663219
 33
0.0
  0
3DFACE
  8
0
  6
CONTINUOUS
 62
   249
 10
86.452344
 20
162.329363
 30
0.0
 11
86.465278
 21
162.320383
 31
0.0
 12
86.465278
 22
162.681354
 32
0.0
 13
86.452344
 23
162.672286
 33
0.0
  0
3DFACE
  8
0
  6
CONTINUOUS
 62
   249
 10
86.465278
 20
162.320383
 30
0.0
 11
86.478212
 21
162.311402
 31
0.0
 12
86.478212
 22
162.690422
 32
0.0
 13
86.465278
 23
162.681354
 33
0.0
  0
3DFACE
  8
0
  6
CONTINUOUS
 62
   249
 10
86.478212
 20
162.311402
 30
0.0
 11
86.491146
 21
162.302421
 31
0.0
 12
86.491146
 22
162.699489
 32
0.0
 13
86.478212
 23
162.690422
 33
0.0
  0
3DFACE
  8
0
  6
CONTINUOUS
 62
   249
 10
86.491146
 20
162.302421
 30
0.0
 11
86.50408
 21
162.29344
 31
0.0
 12
86.50408
 22
162.708557
 32
0.0
 13
86.491146
 23
162.699489
 33
0.0
  0
3DFACE
  8
0
  6
CONTINUOUS
 62
   249
 10
86.50408
 20
162.29344
 30
0.0
 11
86.517014
 21
162.284459
 31
0.0
 12
86.517014
 22
162.717625
 32
0.0
 13
86.50408
 23
162.708557
 33
0.0
  0
3DFACE
  8
0
  6
CONTINUOUS
 62
   249
 10
86.517014
 20
162.284459
 30
0.0
 11
86.529948
 21
162.275478
 31
0.0
 12
86.529948
 22
162.726692
 32
0.0
 13
86.517014
 23
162.717625
 33
0.0
  0
3DFACE
  8
0
  6
CONTINUOUS
 62
   249
 10
86.529948
 20
162.275478
 30
0.0
 11
86.542882
 21
162.266497
 31
0.0
 12
86.542882
 22
162.73576
 32
0.0
 13
86.529948
 23
162.726692
 33
0.0
  0
3DFACE
  8
0
  6
CONTINUOUS
 62
   249
 10
86.542882
 20
162.266497
 30
0.0
 11
86.555816
 21
162.257516
 31
0.0
 12
86.555816
 22
162.744828
 32
0.0
 13
86.542882
 23
162.73576
 33
0.0
  0
3DFACE
  8
0
  6
CONTINUOUS
 62
   249
 10
86.555816
 20
162.257516
 30
0.0
 11
86.56875
 21
162.248536
 31
0.0
 12
86.56875
 22
162.753895
 32
0.0
 13
86.555816
 23
162.744828
 33
0.0
  0
3DFACE
  8
0
  6
CONTINUOUS
 62
   249
 10
86.56875
 20
162.248536
 30
0.0
 11
86.581684
 21
162.239555
 31
0.0
 12
86.581684
 22
162.762963
 32
0.0
 13
86.56875
 23
162.753895
 33
0.0
  0
3DFACE
  8
0
  6
CONTINUOUS
 62
   249
 10
86.581684
 20
162.239555
 30
0.0
 11
86.594618
 21
162.230574
 31
0.0
 12
86.594618
 22
162.772031
 32
0.0
 13
86.581684
 23
162.762963
 33
0.0
  0
3DFACE
  8
0
  6
CONTINUOUS
 62
   249
 10
86.594618
 20
162.230574
 30
0.0
 11
86.607552
 21
162.221593
 31
0.0
 12
86.607552
 22
162.781098
 32
0.0
 13
86.594618
 23
162.772031
 33
0.0
  0
3DFACE
  8
0
  6
CONTINUOUS
 62
   249
 10
86.607552
 20
162.221593
 30
0.0
 11
86.620486
 21
162.212612
 31
0.0
 12
86.620486
 22
162.790166
 32
0.0
 13
86.607552
 23
162.781098
 33
0.0
  0
3DFACE
  8
0
  6
CONTINUOUS
 62
   249
 10
86.620486
 20
162.212612
 30
0.0
 11
86.63342
 21
162.203631
 31
0.0
 12
86.63342
 22
162.799234
 32
0.0
 13
86.620486
 23
162.790166
 33
0.0
  0
3DFACE
  8
0
  6
CONTINUOUS
 62
   249
 10
86.63342
 20
162.203631
 30
0.0
 11
86.646354
 21
162.19465
 31
0.0
 12
86.646354
 22
162.808301
 32
0.0
 13
86.63342
 23
162.799234
 33
0.0
  0
3DFACE
  8
0
  6
CONTINUOUS
 62
   249
 10
86.646354
 20
162.19465
 30
0.0
 11
86.659288
 21
162.185669
 31
0.0
 12
86.659288
 22
162.817369
 32
0.0
 13
86.646354
 23
162.808301
 33
0.0
  0
3DFACE
  8
0
  6
CONTINUOUS
 62
   249
 10
86.659288
 20
162.185669
 30
0.0
 11
86.672222
 21
162.176689
 31
0.0
 12
86.672222
 22
162.826437
 32
0.0
 13
86.659288
 23
162.817369
 33
0.0
  0
3DFACE
  8
0
  6
CONTINUOUS
 62
   249
 10
86.672222
 20
162.176689
 30
0.0
 11
86.685156
 21
162.167708
 31
0.0
 12
86.685156
 22
162.835505
 32
0.0
 13
86.672222
 23
162.826437
 33
0.0
  0
3DFACE
  8
0
  6
CONTINUOUS
 62
   249
 10
86.685156
 20
162.167708
 30
0.0
 11
86.69809
 21
162.158727
 31
0.0
 12
86.69809
 22
162.844572
 32
0.0
 13
86.685156
 23
162.835505
 33
0.0
  0
3DFACE
  8
0
  6
CONTINUOUS
 62
   249
 10
86.69809
 20
162.158727
 30
0.0
 11
86.711024
 21
162.149746
 31
0.0
 12
86.711024
 22
162.85364
 32
0.0
 13
86.69809
 23
162.844572
 33
0.0
  0
3DFACE
  8
0
  6
CONTINUOUS
 62
   249
 10
86.711024
 20
162.149746
 30
0.0
 11
86.723958
 21
162.140765
 31
0.0
 12
86.723958
 22
162.862708
 32
0.0
 13
86.711024
 23
162.85364
 33
0.0
  0
3DFACE
  8
0
  6
CONTINUOUS
 62
   249
 10
86.723958
 20
162.140765
 30
0.0
 11
86.736892
 21
162.131784
 31
0.0
 12
86.736892
 22
162.871775
 32
0.0
 13
86.723958
 23
162.862708
 33
0.0
  0
3DFACE
  8
0
  6
CONTINUOUS
 62
   249
 10
86.736892
 20
162.131784
 30
0.0
 11
86.749826
 21
162.122803
 31
0.0
 12
86.749826
 22
162.880843
 32
0.0
 13
86.736892
 23
162.871775
 33
0.0
  0
3DFACE
  8
0
  6
CONTINUOUS
 62
   249
 10
86.749826
 20
162.122803
 30
0.0
 11
86.76276
 21
162.113822
 31
0.0
 12
86.76276
 22
162.889911
 32
0.0
 13
86.749826
 23
162.880843
 33
0.0
  0
3DFACE
  8
0
  6
CONTINUOUS
 62
   249
 10
86.76276
 20
162.113822
 30
0.0
 11
86.775695
 21
162.104842
 31
0.0
 12
86.775695
 22
162.898978
 32
0.0
 13
86.76276
 23
162.889911
 33
0.0
  0
3DFACE
  8
0
  6
CONTINUOUS
 62
   249
 10
86.775695
 20
162.104842
 30
0.0
 11
86.788629
 21
162.095861
 31
0.0
 12
86.788629
 22
162.908046
 32
0.0
 13
86.775695
 23
162.898978
 33
0.0
  0
3DFACE
  8
0
  6
CONTINUOUS
 62
   249
 10
86.788629
 20
162.095861
 30
0.0
 11
86.801563
 21
162.08688
 31
0.0
 12
86.801563
 22
162.917114
 32
0.0
 13
86.788629
 23
162.908046
 33
0.0
  0
3DFACE
  8
0
  6
CONTINUOUS
 62
   249
 10
86.801563
 20
162.08688
 30
0.0
 11
86.814497
 21
162.077899
 31
0.0
 12
86.814497
 22
162.926181
 32
0.0
 13
86.801563
 23
162.917114
 33
0.0
  0
3DFACE
  8
0
  6
CONTINUOUS
 62
   249
 10
86.814497
 20
162.077899
 30
0.0
 11
86.827431
 21
162.068918
 31
0.0
 12
86.827431
 22
162.935249
 32
0.0
 13
86.814497
 23
162.926181
 33
0.0
  0
3DFACE
  8
0
  6
CONTINUOUS
 62
   249
 10
86.827431
 20
162.068918
 30
0.0
 11
86.840365
 21
162.059937
 31
0.0
 12
86.840365
 22
162.944317
 32
0.0
 13
86.827431
 23
162.935249
 33
0.0
  0
3DFACE
  8
0
  6
CONTINUOUS
 62
   249
 10
86.840365
 20
162.059937
 30
0.0
 11
86.853299
 21
162.050956
 31
0.0
 12
86.853299
 22
162.953384
 32
0.0
 13
86.840365
 23
162.944317
 33
0.0
  0
3DFACE
  8
0
  6
CONTINUOUS
 62
   249
 10
86.853299
 20
162.050956
 30
0.0
 11
86.866233
 21
162.041975
 31
0.0
 12
86.866233
 22
162.962452
 32
0.0
 13
86.853299
 23
162.953384
 33
0.0
  0
3DFACE
  8
0
  6
CONTINUOUS
 62
   249
 10
86.866233
 20
162.041975
 30
0.0
 11
86.879167
 21
162.032995
 31
0.0
 12
86.879167
 22
162.97152
 32
0.0
 13
86.866233
 23
162.962452
 33
0.0
  0
3DFACE
  8
0
  6
CONTINUOUS
 62
   249
 10
86.879167
 20
162.032995
 30
0.0
 11
86.892101
 21
162.024014
 31
0.0
 12
86.892101
 22
162.980588
 32
0.0
 13
86.879167
 23
162.97152
 33
0.0
  0
3DFACE
  8
0
  6
CONTINUOUS
 62
   249
 10
86.892101
 20
162.024014
 30
0.0
 11
86.905035
 21
162.015033
 31
0.0
 12
86.905035
 22
162.989655
 32
0.0
 13
86.892101
 23
162.980588
 33
0.0
  0
3DFACE
  8
0
  6
CONTINUOUS
 62
   249
 10
86.905035
 20
162.015033
 30
0.0
 11
86.917969
 21
162.006052
 31
0.0
 12
86.917969
 22
162.998723
 32
0.0
 13
86.905035
 23
162.989655
 33
0.0
  0
3DFACE
  8
0
  6
CONTINUOUS
 62
   249
 10
86.917969
 20
162.006052
 30
0.0
 11
86.930903
 21
161.997071
 31
0.0
 12
86.930903
 22
163.007791
 32
0.0
 13
86.917969
 23
162.998723
 33
0.0
  0
3DFACE
  8
0
  6
CONTINUOUS
 62
   249
 10
86.930903
 20
161.997071
 30
0.0
 11
86.943837
 21
161.98809
 31
0.0
 12
86.943837
 22
163.016858
 32
0.0
 13
86.930903
 23
163.007791
 33
0.0
  0
3DFACE
  8
0
  6
CONTINUOUS
 62
   249
 10
86.943837
 20
161.98809
 30
0.0
 11
86.956771
 21
161.979109
 31
0.0
 12
86.956771
 22
163.025926
 32
0.0
 13
86.943837
 23
163.016858
 33
0.0
  0
3DFACE
  8
0
  6
CONTINUOUS
 62
   249
 10
86.956771
 20
161.979109
 30
0.0
 11
86.969705
 21
161.970128
 31
0.0
 12
86.969705
 22
163.034994
 32
0.0
 13
86.956771
 23
163.025926
 33
0.0
  0
3DFACE
  8
0
  6
CONTINUOUS
 62
   249
 10
86.969705
 20
161.970128
 30
0.0
 11
86.982639
 21
161.961147
 31
0.0
 12
86.982639
 22
163.044061
 32
0.0
 13
86.969705
 23
163.034994
 33
0.0
  0
3DFACE
  8
0
  6
CONTINUOUS
 62
   249
 10
86.982639
 20
161.961147
 30
0.0
 11
86.995573
 21
161.952167
 31
0.0
 12
86.995573
 22
163.053129
 32
0.0
 13
86.982639
 23
163.044061
 33
0.0
  0
3DFACE
  8
0
  6
CONTINUOUS
 62
   249
 10
86.995573
 20
161.952167
 30
0.0
 11
87.008507
 21
161.943186
 31
0.0
 12
87.008507
 22
163.062197
 32
0.0
 13
86.995573
 23
163.053129
 33
0.0
  0
3DFACE
  8
0
  6
CONTINUOUS
 62
   249
 10
87.008507
 20
161.943186
 30
0.0
 11
87.021441
 21
161.934205
 31
0.0
 12
87.021441
 22
163.071264
 32
0.0
 13
87.008507
 23
163.062197
 33
0.0
  0
3DFACE
  8
0
  6
CONTINUOUS
 62
   249
 10
87.021441
 20
161.934205
 30
0.0
 11
87.034375
 21
161.925224
 31
0.0
 12
87.034375
 22
163.080332
 32
0.0
 13
87.021441
 23
163.071264
 33
0.0
  0
3DFACE
  8
0
  6
CONTINUOUS
 62
   249
 10
87.034375
 20
161.925224
 30
0.0
 11
87.047309
 21
161.916243
 31
0.0
 12
87.047309
 22
163.0894
 32
0.0
 13
87.034375
 23
163.080332
 33
0.0
  0
3DFACE
  8
0
  6
CONTINUOUS
 62
   249
 10
87.047309
 20
161.916243
 30
0.0
 11
87.060243
 21
161.907262
 31
0.0
 12
87.060243
 22
163.098467
 32
0.0
 13
87.047309
 23
163.0894
 33
0.0
  0
3DFACE
  8
0
  6
CONTINUOUS
 62
   249
 10
87.060243
 20
161.907262
 30
0.0
 11
87.073177
 21
161.898281
 31
0.0
 12
87.073177
 22
163.107535
 32
0.0
 13
87.060243
 23
163.098467
 33
0.0
  0
3DFACE
  8
0
  6
CONTINUOUS
 62
   249
 10
87.073177
 20
161.898281
 30
0.0
 11
87.086111
 21
161.8893
 31
0.0
 12
87.086111
 22
163.116603
 32
0.0
 13
87.073177
 23
163.107535
 33
0.0
  0
3DFACE
  8
0
  6
CONTINUOUS
 62
   249
 10
87.086111
 20
161.8893
 30
0.0
 11
87.099045
 21
161.88032
 31
0.0
 12
87.099045
 22
163.125671
 32
0.0
 13
87.086111
 23
163.116603
 33
0.0
  0
3DFACE
  8
0
  6
CONTINUOUS
 62
   249
 10
87.099045
 20
161.88032
 30
0.0
 11
87.111979
 21
161.871339
 31
0.0
 12
87.111979
 22
163.134738
 32
0.0
 13
87.099045
 23
163.125671
 33
0.0
  0
3DFACE
  8
0
  6
CONTINUOUS
 62
   249
 10
87.111979
 20
161.871339
 30
0.0
 11
87.124913
 21
161.862358
 31
0.0
 12
87.124913
 22
163.143806
 32
0.0
 13
87.111979
 23
163.134738
 33
0.0
  0
3DFACE
  8
0
  6
CONTINUOUS
 62
   249
 10
87.124913
 20
161.862358
 30
0.0
 11
87.137847
 21
161.853377
 31
0.0
 12
87.137847
 22
163.152874
 32
0.0
 13
87.124913
 23
163.143806
 33
0.0
  0
3DFACE
  8
0
  6
CONTINUOUS
 62
   249
 10
87.137847
 20
161.853377
 30
0.0
 11
87.150781
 21
161.844396
 31
0.0
 12
87.150781
 22
163.161941
 32
0.0
 13
87.137847
 23
163.152874
 33
0.0
  0
3DFACE
  8
0
  6
CONTINUOUS
 62
   249
 10
87.150781
 20
161.844396
 30
0.0
 11
87.163715
 21
161.835415
 31
0.0
 12
87.163715
 22
163.171009
 32
0.0
 13
87.150781
 23
163.161941
 33
0.0
  0
3DFACE
  8
0
  6
CONTINUOUS
 62
   249
 10
87.163715
 20
161.835415
 30
0.0
 11
87.176649
 21
161.826434
 31
0.0
 12
87.176649
 22
163.180077
 32
0.0
 13
87.163715
 23
163.171009
 33
0.0
  0
3DFACE
  8
0
  6
CONTINUOUS
 62
   249
 10
87.176649
 20
161.826434
 30
0.0
 11
87.189583
 21
161.817453
 31
0.0
 12
87.189583
 22
163.189144
 32
0.0
 13
87.176649
 23
163.180077
 33
0.0
  0
3DFACE
  8
0
  6
CONTINUOUS
 62
   249
 10
87.189583
 20
161.817453
 30
0.0
 11
87.202517
 21
161.808473
 31
0.0
 12
87.202517
 22
163.198212
 32
0.0
 13
87.189583
 23
163.189144
 33
0.0
  0
3DFACE
  8
0
  6
CONTINUOUS
 62
   249
 10
87.202517
 20
161.808473
 30
0.0
 11
87.215451
 21
161.799492
 31
0.0
 12
87.215451
 22
163.20728
 32
0.0
 13
87.202517
 23
163.198212
 33
0.0
  0
3DFACE
  8
0
  6
CONTINUOUS
 62
   249
 10
87.215451
 20
161.799492
 30
0.0
 11
87.228385
 21
161.790511
 31
0.0
 12
87.228385
 22
163.216347
 32
0.0
 13
87.215451
 23
163.20728
 33
0.0
  0
3DFACE
  8
0
  6
CONTINUOUS
 62
   249
 10
87.228385
 20
161.790511
 30
0.0
 11
87.241319
 21
161.78153
 31
0.0
 12
87.241319
 22
163.225415
 32
0.0
 13
87.228385
 23
163.216347
 33
0.0
  0
3DFACE
  8
0
  6
CONTINUOUS
 62
   249
 10
87.241319
 20
161.78153
 30
0.0
 11
87.254253
 21
161.772549
 31
0.0
 12
87.254253
 22
163.234483
 32
0.0
 13
87.241319
 23
163.225415
 33
0.0
  0
3DFACE
  8
0
  6
CONTINUOUS
 62
   249
 10
87.254253
 20
161.772549
 30
0.0
 11
87.267188
 21
161.763568
 31
0.0
 12
87.267188
 22
163.24355
 32
0.0
 13
87.254253
 23
163.234483
 33
0.0
  0
3DFACE
  8
0
  6
CONTINUOUS
 62
   249
 10
87.267188
 20
161.763568
 30
0.0
 11
87.280122
 21
161.754587
 31
0.0
 12
87.280122
 22
163.252618
 32
0.0
 13
87.267188
 23
163.24355
 33
0.0
  0
3DFACE
  8
0
  6
CONTINUOUS
 62
   249
 10
87.280122
 20
161.754587
 30
0.0
 11
87.293056
 21
161.745606
 31
0.0
 12
87.293056
 22
163.261686
 32
0.0
 13
87.280122
 23
163.252618
 33
0.0
  0
3DFACE
  8
0
  6
CONTINUOUS
 62
   249
 10
87.293056
 20
161.745606
 30
0.0
 11
87.30599
 21
161.736626
 31
0.0
 12
87.30599
 22
163.270754
 32
0.0
 13
87.293056
 23
163.261686
 33
0.0
  0
3DFACE
  8
0
  6
CONTINUOUS
 62
   249
 10
87.30599
 20
161.736626
 30
0.0
 11
87.318924
 21
161.727645
 31
0.0
 12
87.318924
 22
163.279821
 32
0.0
 13
87.30599
 23
163.270754
 33
0.0
  0
3DFACE
  8
0
  6
CONTINUOUS
 62
   249
 10
87.318924
 20
161.727645
 30
0.0
 11
87.331858
 21
161.718664
 31
0.0
 12
87.331858
 22
163.288889
 32
0.0
 13
87.318924
 23
163.279821
 33
0.0
  0
3DFACE
  8
0
  6
CONTINUOUS
 62
   249
 10
87.331858
 20
161.718664
 30
0.0
 11
87.344792
 21
161.709683
 31
0.0
 12
87.344792
 22
163.297957
 32
0.0
 13
87.331858
 23
163.288889
 33
0.0
  0
3DFACE
  8
0
  6
CONTINUOUS
 62
   249
 10
87.344792
 20
161.709683
 30
0.0
 11
87.357726
 21
161.700702
 31
0.0
 12
87.357726
 22
163.307024
 32
0.0
 13
87.344792
 23
163.297957
 33
0.0
  0
3DFACE
  8
0
  6
CONTINUOUS
 62
   249
 10
87.357726
 20
161.700702
 30
0.0
 11
87.37066
 21
161.691721
 31
0.0
 12
87.37066
 22
163.316092
 32
0.0
 13
87.357726
 23
163.307024
 33
0.0
  0
3DFACE
  8
0
  6
CONTINUOUS
 62
   249
 10
87.37066
 20
161.691721
 30
0.0
 11
87.383594
 21
161.68274
 31
0.0
 12
87.383594
 22
163.32516
 32
0.0
 13
87.37066
 23
163.316092
 33
0.0
  0
3DFACE
  8
0
  6
CONTINUOUS
 62
   249
 10
87.383594
 20
161.68274
 30
0.0
 11
87.396528
 21
161.673759
 31
0.0
 12
87.396528
 22
163.334227
 32
0.0
 13
87.383594
 23
163.32516
 33
0.0
  0
3DFACE
  8
0
  6
CONTINUOUS
 62
   249
 10
87.396528
 20
161.673759
 30
0.0
 11
87.409462
 21
161.664779
 31
0.0
 12
87.409462
 22
163.343295
 32
0.0
 13
87.396528
 23
163.334227
 33
0.0
  0
3DFACE
  8
0
  6
CONTINUOUS
 62
   249
 10
87.409462
 20
161.664779
 30
0.0
 11
87.422396
 21
161.655798
 31
0.0
 12
87.422396
 22
163.352363
 32
0.0
 13
87.409462
 23
163.343295
 33
0.0
  0
3DFACE
  8
0
  6
CONTINUOUS
 62
   249
 10
87.422396
 20
161.655798
 30
0.0
 11
87.43533
 21
161.646817
 31
0.0
 12
87.43533
 22
163.36143
 32
0.0
 13
87.422396
 23
163.352363
 33
0.0
  0
3DFACE
  8
0
  6
CONTINUOUS
 62
   249
 10
87.43533
 20
161.646817
 30
0.0
 11
87.448264
 21
161.637836
 31
0.0
 12
87.448264
 22
163.370498
 32
0.0
 13
87.43533
 23
163.36143
 33
0.0
  0
3DFACE
  8
0
  6
CONTINUOUS
 62
   249
 10
87.448264
 20
161.637836
 30
0.0
 11
87.461198
 21
161.628855
 31
0.0
 12
87.461198
 22
163.379566
 32
0.0
 13
87.448264
 23
163.370498
 33
0.0
  0
3DFACE
  8
0
  6
CONTINUOUS
 62
   249
 10
87.461198
 20
161.628855
 30
0.0
 11
87.474132
 21
161.619874
 31
0.0
 12
87.474132
 22
163.388633
 32
0.0
 13
87.461198
 23
163.379566
 33
0.0
  0
3DFACE
  8
0
  6
CONTINUOUS
 62
   249
 10
87.474132
 20
161.619874
 30
0.0
 11
87.487066
 21
161.610893
 31
0.0
 12
87.487066
 22
163.397701
 32
0.0
 13
87.474132
 23
163.388633
 33
0.0
  0
3DFACE
  8
0
  6
CONTINUOUS
 62
   249
 10
87.487066
 20
161.610893
 30
0.0
 11
87.5
 21
161.601912
 31
0.0
 12
87.5
 22
163.406769
 32
0.0
 13
87.487066
 23
163.397701
 33
0.0
  0
3DFACE
  8
0
  6
CONTINUOUS
 62
   249
 10
83.706597
 20
162.5
 30
0.0
 11
83.719531
 21
162.491019
 31
0.0
 12
83.719531
 22
162.509068
 32
0.0
 13
83.706597
 23
162.5
 33
0.0
  0
3DFACE
  8
0
  6
CONTINUOUS
 62
   249
 10
83.719531
 20
162.491019
 30
0.0
 11
83.732465
 21
162.482038
 31
0.0
 12
83.732465
 22
162.518136
 32
0.0
 13
83.719531
 23
162.509068
 33
0.0
  0
3DFACE
  8
0
  6
CONTINUOUS
 62
   249
 10
83.732465
 20
162.482038
 30
0.0
 11
83.745399
 21
162.473057
 31
0.0
 12
83.745399
 22
162.527203
 32
0.0
 13
83.732465
 23
162.518136
 33
0.0
  0
3DFACE
  8
0
  6
CONTINUOUS
 62
   249
 10
83.745399
 20
162.473057
 30
0.0
 11
83.758333
 21
162.464077
 31
0.0
 12
83.758333
 22
162.536271
 32
0.0
 13
83.745399
 23
162.527203
 33
0.0
  0
3DFACE
  8
0
  6
CONTINUOUS
 62
   249
 10
83.758333
 20
162.464077
 30
0.0
 11
83.771267
 21
162.455096
 31
0.0
 12
83.771267
 22
162.545339
 32
0.0
 13
83.758333
 23
162.536271
 33
0.0
  0
3DFACE
  8
0
  6
CONTINUOUS
 62
   249
 10
83.771267
 20
162.455096
 30
0.0
 11
83.784202
 21
162.446115
 31
0.0
 12
83.784202
 22
162.554406
 32
0.0
 13
83.771267
 23
162.545339
 33
0.0
  0
3DFACE
  8
0
  6
CONTINUOUS
 62
   249
 10
83.784202
 20
162.446115
 30
0.0
 11
83.797136
 21
162.437134
 31
0.0
 12
83.797136
 22
162.563474
 32
0.0
 13
83.784202
 23
162.554406
 33
0.0
  0
3DFACE
  8
0
  6
CONTINUOUS
 62
   249
 10
83.797136
 20
162.437134
 30
0.0
 11
83.81007
 21
162.428153
 31
0.0
 12
83.81007
 22
162.572542
 32
0.0
 13
83.797136
 23
162.563474
 33
0.0
  0
3DFACE
  8
0
  6
CONTINUOUS
 62
   249
 10
83.81007
 20
162.428153
 30
0.0
 11
83.823004
 21
162.419172
 31
0.0
 12
83.823004
 22
162.581609
 32
0.0
 13
83.81007
 23
162.572542
 33
0.0
  0
3DFACE
  8
0
  6
CONTINUOUS
 62
   249
 10
83.823004
 20
162.419172
 30
0.0
 11
83.835938
 21
162.410191
 31
0.0
 12
83.835938
 22
162.590677
 32
0.0
 13
83.823004
 23
162.581609
 33
0.0
  0
3DFACE
  8
0
  6
CONTINUOUS
 62
   249
 10
83.835938
 20
162.410191
 30
0.0
 11
83.848872
 21
162.40121
 31
0.0
 12
83.848872
 22
162.599745
 32
0.0
 13
83.835938
 23
162.590677
 33
0.0
  0
3DFACE
  8
0
  6
CONTINUOUS
 62
   249
 10
83.848872
 20
162.40121
 30
0.0
 11
83.861806
 21
162.39223
 31
0.0
 12
83.861806
 22
162.608812
 32
0.0
 13
83.848872
 23
162.599745
 33
0.0
  0
3DFACE
  8
0
  6
CONTINUOUS
 62
   249
 10
83.861806
 20
162.39223
 30
0.0
 11
83.87474
 21
162.383249
 31
0.0
 12
83.87474
 22
162.61788
 32
0.0
 13
83.861806
 23
162.608812
 33
0.0
  0
3DFACE
  8
0
  6
CONTINUOUS
 62
   249
 10
83.87474
 20
162.383249
 30
0.0
 11
83.887674
 21
162.374268
 31
0.0
 12
83.887674
 22
162.626948
 32
0.0
 13
83.87474
 23
162.61788
 33
0.0
  0
3DFACE
  8
0
  6
CONTINUOUS
 62
   249
 10
83.887674
 20
162.374268
 30
0.0
 11
83.900608
 21
162.365287
 31
0.0
 12
83.900608
 22
162.636015
 32
0.0
 13
83.887674
 23
162.626948
 33
0.0
  0
3DFACE
  8
0
  6
CONTINUOUS
 62
   249
 10
83.900608
 20
162.365287
 30
0.0
 11
83.913542
 21
162.356306
 31
0.0
 12
83.913542
 22
162.645083
 32
0.0
 13
83.900608
 23
162.636015
 33
0.0
  0
3DFACE
  8
0
  6
CONTINUOUS
 62
   249
 10
83.913542
 20
162.356306
 30
0.0
 11
83.926476
 21
162.347325
 31
0.0
 12
83.926476
 22
162.654151
 32
0.0
 13
83.913542
 23
162.645083
 33
0.0
  0
3DFACE
  8
0
  6
CONTINUOUS
 62
   249
 10
83.926476
 20
162.347325
 30
0.0
 11
83.93941
 21
162.338344
 31
0.0
 12
83.93941
 22
162.663219
 32
0.0
 13
83.926476
 23
162.654151
 33
0.0
  0
3DFACE
  8
0
  6
CONTINUOUS
 62
   249
 10
83.93941
 20
162.338344
 30
0.0
 11
83.952344
 21
162.329363
 31
0.0
 12
83.952344
 22
162.672286
 32
0.0
 13
83.93941
 23
162.663219
 33
0.0
  0
3DFACE
  8
0
  6
CONTINUOUS
 62
   249
 10
83.952344
 20
162.329363
 30
0.0
 11
83.965278
 21
162.320383
 31
0.0
 12
83.965278
 22
162.681354
 32
0.0
 13
83.952344
 23
162.672286
 33
0.0
  0
3DFACE
  8
0
  6
CONTINUOUS
 62
   249
 10
83.965278
 20
162.320383
 30
0.0
 11
83.978212
 21
162.311402
 31
0.0
 12
83.978212
 22
162.690422
 32
0.0
 13
83.965278
 23
162.681354
 33
0.0
  0
3DFACE
  8
0
  6
CONTINUOUS
 62
   249
 10
83.978212
 20
162.311402
 30
0.0
 11
83.991146
 21
162.302421
 31
0.0
 12
83.991146
 22
162.699489
 32
0.0
 13
83.978212
 23
162.690422
 33
0.0
  0
3DFACE
  8
0
  6
CONTINUOUS
 62
   249
 10
83.991146
 20
162.302421
 30
0.0
 11
84.00408
 21
162.29344
 31
0.0
 12
84.00408
 22
162.708557
 32
0.0
 13
83.991146
 23
162.699489
 33
0.0
  0
3DFACE
  8
0
  6
CONTINUOUS
 62
   249
 10
84.00408
 20
162.29344
 30
0.0
 11
84.017014
 21
162.284459
 31
0.0
 12
84.017014
 22
162.717625
 32
0.0
 13
84.00408
 23
162.708557
 33
0.0
  0
3DFACE
  8
0
  6
CONTINUOUS
 62
   249
 10
84.017014
 20
162.284459
 30
0.0
 11
84.029948
 21
162.275478
 31
0.0
 12
84.029948
 22
162.726692
 32
0.0
 13
84.017014
 23
162.717625
 33
0.0
  0
3DFACE
  8
0
  6
CONTINUOUS
 62
   249
 10
84.029948
 20
162.275478
 30
0.0
 11
84.042882
 21
162.266497
 31
0.0
 12
84.042882
 22
162.73576
 32
0.0
 13
84.029948
 23
162.726692
 33
0.0
  0
3DFACE
  8
0
  6
CONTINUOUS
 62
   249
 10
84.042882
 20
162.266497
 30
0.0
 11
84.055816
 21
162.257516
 31
0.0
 12
84.055816
 22
162.744828
 32
0.0
 13
84.042882
 23
162.73576
 33
0.0
  0
3DFACE
  8
0
  6
CONTINUOUS
 62
   249
 10
84.055816
 20
162.257516
 30
0.0
 11
84.06875
 21
162.248536
 31
0.0
 12
84.06875
 22
162.753895
 32
0.0
 13
84.055816
 23
162.744828
 33
0.0
  0
3DFACE
  8
0
  6
CONTINUOUS
 62
   249
 10
84.06875
 20
162.248536
 30
0.0
 11
84.081684
 21
162.239555
 31
0.0
 12
84.081684
 22
162.762963
 32
0.0
 13
84.06875
 23
162.753895
 33
0.0
  0
3DFACE
  8
0
  6
CONTINUOUS
 62
   249
 10
84.081684
 20
162.239555
 30
0.0
 11
84.094618
 21
162.230574
 31
0.0
 12
84.094618
 22
162.772031
 32
0.0
 13
84.081684
 23
162.762963
 33
0.0
  0
3DFACE
  8
0
  6
CONTINUOUS
 62
   249
 10
84.094618
 20
162.230574
 30
0.0
 11
84.107552
 21
162.221593
 31
0.0
 12
84.107552
 22
162.781098
 32
0.0
 13
84.094618
 23
162.772031
 33
0.0
  0
3DFACE
  8
0
  6
CONTINUOUS
 62
   249
 10
84.107552
 20
162.221593
 30
0.0
 11
84.120486
 21
162.212612
 31
0.0
 12
84.120486
 22
162.790166
 32
0.0
 13
84.107552
 23
162.781098
 33
0.0
  0
3DFACE
  8
0
  6
CONTINUOUS
 62
   249
 10
84.120486
 20
162.212612
 30
0.0
 11
84.13342
 21
162.203631
 31
0.0
 12
84.13342
 22
162.799234
 32
0.0
 13
84.120486
 23
162.790166
 33
0.0
  0
3DFACE
  8
0
  6
CONTINUOUS
 62
   249
 10
84.13342
 20
162.203631
 30
0.0
 11
84.146354
 21
162.19465
 31
0.0
 12
84.146354
 22
162.808301
 32
0.0
 13
84.13342
 23
162.799234
 33
0.0
  0
3DFACE
  8
0
  6
CONTINUOUS
 62
   249
 10
84.146354
 20
162.19465
 30
0.0
 11
84.159288
 21
162.185669
 31
0.0
 12
84.159288
 22
162.817369
 32
0.0
 13
84.146354
 23
162.808301
 33
0.0
  0
3DFACE
  8
0
  6
CONTINUOUS
 62
   249
 10
84.159288
 20
162.185669
 30
0.0
 11
84.172222
 21
162.176689
 31
0.0
 12
84.172222
 22
162.826437
 32
0.0
 13
84.159288
 23
162.817369
 33
0.0
  0
3DFACE
  8
0
  6
CONTINUOUS
 62
   249
 10
84.172222
 20
162.176689
 30
0.0
 11
84.185156
 21
162.167708
 31
0.0
 12
84.185156
 22
162.835505
 32
0.0
 13
84.172222
 23
162.826437
 33
0.0
  0
3DFACE
  8
0
  6
CONTINUOUS
 62
   249
 10
84.185156
 20
162.167708
 30
0.0
 11
84.19809
 21
162.158727
 31
0.0
 12
84.19809
 22
162.844572
 32
0.0
 13
84.185156
 23
162.835505
 33
0.0
  0
3DFACE
  8
0
  6
CONTINUOUS
 62
   249
 10
84.19809
 20
162.158727
 30
0.0
 11
84.211024
 21
162.149746
 31
0.0
 12
84.211024
 22
162.85364
 32
0.0
 13
84.19809
 23
162.844572
 33
0.0
  0
3DFACE
  8
0
  6
CONTINUOUS
 62
   249
 10
84.211024
 20
162.149746
 30
0.0
 11
84.223958
 21
162.140765
 31
0.0
 12
84.223958
 22
162.862708
 32
0.0
 13
84.211024
 23
162.85364
 33
0.0
  0
3DFACE
  8
0
  6
CONTINUOUS
 62
   249
 10
84.223958
 20
162.140765
 30
0.0
 11
84.236892
 21
162.131784
 31
0.0
 12
84.236892
 22
162.871775
 32
0.0
 13
84.223958
 23
162.862708
 33
0.0
  0
3DFACE
  8
0
  6
CONTINUOUS
 62
   249
 10
84.236892
 20
162.131784
 30
0.0
 11
84.249826
 21
162.122803
 31
0.0
 12
84.249826
 22
162.880843
 32
0.0
 13
84.236892
 23
162.871775
 33
0.0
  0
3DFACE
  8
0
  6
CONTINUOUS
 62
   249
 10
84.249826
 20
162.122803
 30
0.0
 11
84.26276
 21
162.113822
 31
0.0
 12
84.26276
 22
162.889911
 32
0.0
 13
84.249826
 23
162.880843
 33
0.0
  0
3DFACE
  8
0
  6
CONTINUOUS
 62
   249
 10
84.26276
 20
162.113822
 30
0.0
 11
84.275695
 21
162.104842
 31
0.0
 12
84.275695
 22
162.898978
 32
0.0
 13
84.26276
 23
162.889911
 33
0.0
  0
3DFACE
  8
0
  6
CONTINUOUS
 62
   249
 10
84.275695
 20
162.104842
 30
0.0
 11
84.288629
 21
162.095861
 31
0.0
 12
84.288629
 22
162.908046
 32
0.0
 13
84.275695
 23
162.898978
 33
0.0
  0
3DFACE
  8
0
  6
CONTINUOUS
 62
   249
 10
84.288629
 20
162.095861
 30
0.0
 11
84.301563
 21
162.08688
 31
0.0
 12
84.301563
 22
162.917114
 32
0.0
 13
84.288629
 23
162.908046
 33
0.0
  0
3DFACE
  8
0
  6
CONTINUOUS
 62
   249
 10
84.301563
 20
162.08688
 30
0.0
 11
84.314497
 21
162.077899
 31
0.0
 12
84.314497
 22
162.926181
 32
0.0
 13
84.301563
 23
162.917114
 33
0.0
  0
3DFACE
  8
0
  6
CONTINUOUS
 62
   249
 10
84.314497
 20
162.077899
 30
0.0
 11
84.327431
 21
162.068918
 31
0.0
 12
84.327431
 22
162.935249
 32
0.0
 13
84.314497
 23
162.926181
 33
0.0
  0
3DFACE
  8
0
  6
CONTINUOUS
 62
   249
 10
84.327431
 20
162.068918
 30
0.0
 11
84.340365
 21
162.059937
 31
0.0
 12
84.340365
 22
162.944317
 32
0.0
 13
84.327431
 23
162.935249
 33
0.0
  0
3DFACE
  8
0
  6
CONTINUOUS
 62
   249
 10
84.340365
 20
162.059937
 30
0.0
 11
84.353299
 21
162.050956
 31
0.0
 12
84.353299
 22
162.953384
 32
0.0
 13
84.340365
 23
162.944317
 33
0.0
  0
3DFACE
  8
0
  6
CONTINUOUS
 62
   249
 10
84.353299
 20
162.050956
 30
0.0
 11
84.366233
 21
162.041975
 31
0.0
 12
84.366233
 22
162.962452
 32
0.0
 13
84.353299
 23
162.953384
 33
0.0
  0
3DFACE
  8
0
  6
CONTINUOUS
 62
   249
 10
84.366233
 20
162.041975
 30
0.0
 11
84.379167
 21
162.032995
 31
0.0
 12
84.379167
 22
162.97152
 32
0.0
 13
84.366233
 23
162.962452
 33
0.0
  0
3DFACE
  8
0
  6
CONTINUOUS
 62
   249
 10
84.379167
 20
162.032995
 30
0.0
 11
84.392101
 21
162.024014
 31
0.0
 12
84.392101
 22
162.980588
 32
0.0
 13
84.379167
 23
162.97152
 33
0.0
  0
3DFACE
  8
0
  6
CONTINUOUS
 62
   249
 10
84.392101
 20
162.024014
 30
0.0
 11
84.405035
 21
162.015033
 31
0.0
 12
84.405035
 22
162.989655
 32
0.0
 13
84.392101
 23
162.980588
 33
0.0
  0
3DFACE
  8
0
  6
CONTINUOUS
 62
   249
 10
84.405035
 20
162.015033
 30
0.0
 11
84.417969
 21
162.006052
 31
0.0
 12
84.417969
 22
162.998723
 32
0.0
 13
84.405035
 23
162.989655
 33
0.0
  0
3DFACE
  8
0
  6
CONTINUOUS
 62
   249
 10
84.417969
 20
162.006052
 30
0.0
 11
84.430903
 21
161.997071
 31
0.0
 12
84.430903
 22
163.007791
 32
0.0
 13
84.417969
 23
162.998723
 33
0.0
  0
3DFACE
  8
0
  6
CONTINUOUS
 62
   249
 10
84.430903
 20
161.997071
 30
0.0
 11
84.443837
 21
161.98809
 31
0.0
 12
84.443837
 22
163.016858
 32
0.0
 13
84.430903
 23
163.007791
 33
0.0
  0
3DFACE
  8
0
  6
CONTINUOUS
 62
   249
 10
84.443837
 20
161.98809
 30
0.0
 11
84.456771
 21
161.979109
 31
0.0
 12
84.456771
 22
163.025926
 32
0.0
 13
84.443837
 23
163.016858
 33
0.0
  0
3DFACE
  8
0
  6
CONTINUOUS
 62
   249
 10
84.456771
 20
161.979109
 30
0.0
 11
84.469705
 21
161.970128
 31
0.0
 12
84.469705
 22
163.034994
 32
0.0
 13
84.456771
 23
163.025926
 33
0.0
  0
3DFACE
  8
0
  6
CONTINUOUS
 62
   249
 10
84.469705
 20
161.970128
 30
0.0
 11
84.482639
 21
161.961147
 31
0.0
 12
84.482639
 22
163.044061
 32
0.0
 13
84.469705
 23
163.034994
 33
0.0
  0
3DFACE
  8
0
  6
CONTINUOUS
 62
   249
 10
84.482639
 20
161.961147
 30
0.0
 11
84.495573
 21
161.952167
 31
0.0
 12
84.495573
 22
163.053129
 32
0.0
 13
84.482639
 23
163.044061
 33
0.0
  0
3DFACE
  8
0
  6
CONTINUOUS
 62
   249
 10
84.495573
 20
161.952167
 30
0.0
 11
84.508507
 21
161.943186
 31
0.0
 12
84.508507
 22
163.062197
 32
0.0
 13
84.495573
 23
163.053129
 33
0.0
  0
3DFACE
  8
0
  6
CONTINUOUS
 62
   249
 10
84.508507
 20
161.943186
 30
0.0
 11
84.521441
 21
161.934205
 31
0.0
 12
84.521441
 22
163.071264
 32
0.0
 13
84.508507
 23
163.062197
 33
0.0
  0
3DFACE
  8
0
  6
CONTINUOUS
 62
   249
 10
84.521441
 20
161.934205
 30
0.0
 11
84.534375
 21
161.925224
 31
0.0
 12
84.534375
 22
163.080332
 32
0.0
 13
84.521441
 23
163.071264
 33
0.0
  0
3DFACE
  8
0
  6
CONTINUOUS
 62
   249
 10
84.534375
 20
161.925224
 30
0.0
 11
84.547309
 21
161.916243
 31
0.0
 12
84.547309
 22
163.0894
 32
0.0
 13
84.534375
 23
163.080332
 33
0.0
  0
3DFACE
  8
0
  6
CONTINUOUS
 62
   249
 10
84.547309
 20
161.916243
 30
0.0
 11
84.560243
 21
161.907262
 31
0.0
 12
84.560243
 22
163.098467
 32
0.0
 13
84.547309
 23
163.0894
 33
0.0
  0
3DFACE
  8
0
  6
CONTINUOUS
 62
   249
 10
84.560243
 20
161.907262
 30
0.0
 11
84.573177
 21
161.898281
 31
0.0
 12
84.573177
 22
163.107535
 32
0.0
 13
84.560243
 23
163.098467
 33
0.0
  0
3DFACE
  8
0
  6
CONTINUOUS
 62
   249
 10
84.573177
 20
161.898281
 30
0.0
 11
84.586111
 21
161.8893
 31
0.0
 12
84.586111
 22
163.116603
 32
0.0
 13
84.573177
 23
163.107535
 33
0.0
  0
3DFACE
  8
0
  6
CONTINUOUS
 62
   249
 10
84.586111
 20
161.8893
 30
0.0
 11
84.599045
 21
161.88032
 31
0.0
 12
84.599045
 22
163.125671
 32
0.0
 13
84.586111
 23
163.116603
 33
0.0
  0
3DFACE
  8
0
  6
CONTINUOUS
 62
   249
 10
84.599045
 20
161.88032
 30
0.0
 11
84.611979
 21
161.871339
 31
0.0
 12
84.611979
 22
163.134738
 32
0.0
 13
84.599045
 23
163.125671
 33
0.0
  0
3DFACE
  8
0
  6
CONTINUOUS
 62
   249
 10
84.611979
 20
161.871339
 30
0.0
 11
84.624913
 21
161.862358
 31
0.0
 12
84.624913
 22
163.143806
 32
0.0
 13
84.611979
 23
163.134738
 33
0.0
  0
3DFACE
  8
0
  6
CONTINUOUS
 62
   249
 10
84.624913
 20
161.862358
 30
0.0
 11
84.637847
 21
161.853377
 31
0.0
 12
84.637847
 22
163.152874
 32
0.0
 13
84.624913
 23
163.143806
 33
0.0
  0
3DFACE
  8
0
  6
CONTINUOUS
 62
   249
 10
84.637847
 20
161.853377
 30
0.0
 11
84.650781
 21
161.844396
 31
0.0
 12
84.650781
 22
163.161941
 32
0.0
 13
84.637847
 23
163.152874
 33
0.0
  0
3DFACE
  8
0
  6
CONTINUOUS
 62
   249
 10
84.650781
 20
161.844396
 30
0.0
 11
84.663715
 21
161.835415
 31
0.0
 12
84.663715
 22
163.171009
 32
0.0
 13
84.650781
 23
163.161941
 33
0.0
  0
3DFACE
  8
0
  6
CONTINUOUS
 62
   249
 10
84.663715
 20
161.835415
 30
0.0
 11
84.676649
 21
161.826434
 31
0.0
 12
84.676649
 22
163.180077
 32
0.0
 13
84.663715
 23
163.171009
 33
0.0
  0
3DFACE
  8
0
  6
CONTINUOUS
 62
   249
 10
84.676649
 20
161.826434
 30
0.0
 11
84.689583
 21
161.817453
 31
0.0
 12
84.689583
 22
163.189144
 32
0.0
 13
84.676649
 23
163.180077
 33
0.0
  0
3DFACE
  8
0
  6
CONTINUOUS
 62
   249
 10
84.689583
 20
161.817453
 30
0.0
 11
84.702517
 21
161.808473
 31
0.0
 12
84.702517
 22
163.198212
 32
0.0
 13
84.689583
 23
163.189144
 33
0.0
  0
3DFACE
  8
0
  6
CONTINUOUS
 62
   249
 10
84.702517
 20
161.808473
 30
0.0
 11
84.715451
 21
161.799492
 31
0.0
 12
84.715451
 22
163.20728
 32
0.0
 13
84.702517
 23
163.198212
 33
0.0
  0
3DFACE
  8
0
  6
CONTINUOUS
 62
   249
 10
84.715451
 20
161.799492
 30
0.0
 11
84.728385
 21
161.790511
 31
0.0
 12
84.728385
 22
163.216347
 32
0.0
 13
84.715451
 23
163.20728
 33
0.0
  0
3DFACE
  8
0
  6
CONTINUOUS
 62
   249
 10
84.728385
 20
161.790511
 30
0.0
 11
84.741319
 21
161.78153
 31
0.0
 12
84.741319
 22
163.225415
 32
0.0
 13
84.728385
 23
163.216347
 33
0.0
  0
3DFACE
  8
0
  6
CONTINUOUS
 62
   249
 10
84.741319
 20
161.78153
 30
0.0
 11
84.754253
 21
161.772549
 31
0.0
 12
84.754253
 22
163.234483
 32
0.0
 13
84.741319
 23
163.225415
 33
0.0
  0
3DFACE
  8
0
  6
CONTINUOUS
 62
   249
 10
84.754253
 20
161.772549
 30
0.0
 11
84.767188
 21
161.763568
 31
0.0
 12
84.767188
 22
163.24355
 32
0.0
 13
84.754253
 23
163.234483
 33
0.0
  0
3DFACE
  8
0
  6
CONTINUOUS
 62
   249
 10
84.767188
 20
161.763568
 30
0.0
 11
84.780122
 21
161.754587
 31
0.0
 12
84.780122
 22
163.252618
 32
0.0
 13
84.767188
 23
163.24355
 33
0.0
  0
3DFACE
  8
0
  6
CONTINUOUS
 62
   249
 10
84.780122
 20
161.754587
 30
0.0
 11
84.793056
 21
161.745606
 31
0.0
 12
84.793056
 22
163.261686
 32
0.0
 13
84.780122
 23
163.252618
 33
0.0
  0
3DFACE
  8
0
  6
CONTINUOUS
 62
   249
 10
84.793056
 20
161.745606
 30
0.0
 11
84.80599
 21
161.736626
 31
0.0
 12
84.80599
 22
163.270754
 32
0.0
 13
84.793056
 23
163.261686
 33
0.0
  0
3DFACE
  8
0
  6
CONTINUOUS
 62
   249
 10
84.80599
 20
161.736626
 30
0.0
 11
84.818924
 21
161.727645
 31
0.0
 12
84.818924
 22
163.279821
 32
0.0
 13
84.80599
 23
163.270754
 33
0.0
  0
3DFACE
  8
0
  6
CONTINUOUS
 62
   249
 10
84.818924
 20
161.727645
 30
0.0
 11
84.831858
 21
161.718664
 31
0.0
 12
84.831858
 22
163.288889
 32
0.0
 13
84.818924
 23
163.279821
 33
0.0
  0
3DFACE
  8
0
  6
CONTINUOUS
 62
   249
 10
84.831858
 20
161.718664
 30
0.0
 11
84.844792
 21
161.709683
 31
0.0
 12
84.844792
 22
163.297957
 32
0.0
 13
84.831858
 23
163.288889
 33
0.0
  0
3DFACE
  8
0
  6
CONTINUOUS
 62
   249
 10
84.844792
 20
161.709683
 30
0.0
 11
84.857726
 21
161.700702
 31
0.0
 12
84.857726
 22
163.307024
 32
0.0
 13
84.844792
 23
163.297957
 33
0.0
  0
3DFACE
  8
0
  6
CONTINUOUS
 62
   249
 10
84.857726
 20
161.700702
 30
0.0
 11
84.87066
 21
161.691721
 31
0.0
 12
84.87066
 22
163.316092
 32
0.0
 13
84.857726
 23
163.307024
 33
0.0
  0
3DFACE
  8
0
  6
CONTINUOUS
 62
   249
 10
84.87066
 20
161.691721
 30
0.0
 11
84.883594
 21
161.68274
 31
0.0
 12
84.883594
 22
163.32516
 32
0.0
 13
84.87066
 23
163.316092
 33
0.0
  0
3DFACE
  8
0
  6
CONTINUOUS
 62
   249
 10
84.883594
 20
161.68274
 30
0.0
 11
84.896528
 21
161.673759
 31
0.0
 12
84.896528
 22
163.334227
 32
0.0
 13
84.883594
 23
163.32516
 33
0.0
  0
3DFACE
  8
0
  6
CONTINUOUS
 62
   249
 10
84.896528
 20
161.673759
 30
0.0
 11
84.909462
 21
161.664779
 31
0.0
 12
84.909462
 22
163.343295
 32
0.0
 13
84.896528
 23
163.334227
 33
0.0
  0
3DFACE
  8
0
  6
CONTINUOUS
 62
   249
 10
84.909462
 20
161.664779
 30
0.0
 11
84.922396
 21
161.655798
 31
0.0
 12
84.922396
 22
163.352363
 32
0.0
 13
84.909462
 23
163.343295
 33
0.0
  0
3DFACE
  8
0
  6
CONTINUOUS
 62
   249
 10
84.922396
 20
161.655798
 30
0.0
 11
84.93533
 21
161.646817
 31
0.0
 12
84.93533
 22
163.36143
 32
0.0
 13
84.922396
 23
163.352363
 33
0.0
  0
3DFACE
  8
0
  6
CONTINUOUS
 62
   249
 10
84.93533
 20
161.646817
 30
0.0
 11
84.948264
 21
161.637836
 31
0.0
 12
84.948264
 22
163.370498
 32
0.0
 13
84.93533
 23
163.36143
 33
0.0
  0
3DFACE
  8
0
  6
CONTINUOUS
 62
   249
 10
84.948264
 20
161.637836
 30
0.0
 11
84.961198
 21
161.628855
 31
0.0
 12
84.961198
 22
163.379566
 32
0.0
 13
84.948264
 23
163.370498
 33
0.0
  0
3DFACE
  8
0
  6
CONTINUOUS
 62
   249
 10
84.961198
 20
161.628855
 30
0.0
 11
84.974132
 21
161.619874
 31
0.0
 12
84.974132
 22
163.388633
 32
0.0
 13
84.961198
 23
163.379566
 33
0.0
  0
3DFACE
  8
0
  6
CONTINUOUS
 62
   249
 10
84.974132
 20
161.619874
 30
0.0
 11
84.987066
 21
161.610893
 31
0.0
 12
84.987066
 22
163.397701
 32
0.0
 13
84.974132
 23
163.388633
 33
0.0
  0
3DFACE
  8
0
  6
CONTINUOUS
 62
   249
 10
84.987066
 20
161.610893
 30
0.0
 11
85.0
 21
161.601912
 31
0.0
 12
85.0
 22
163.406769
 32
0.0
 13
84.987066
 23
163.397701
 33
0.0
  0
3DFACE
  8
0
  6
CONTINUOUS
 62
   249
 10
81.206597
 20
162.5
 30
0.0
 11
81.219531
 21
162.491019
 31
0.0
 12
81.219531
 22
162.509068
 32
0.0
 13
81.206597
 23
162.5
 33
0.0
  0
3DFACE
  8
0
  6
CONTINUOUS
 62
   249
 10
81.219531
 20
162.491019
 30
0.0
 11
81.232465
 21
162.482038
 31
0.0
 12
81.232465
 22
162.518136
 32
0.0
 13
81.219531
 23
162.509068
 33
0.0
  0
3DFACE
  8
0
  6
CONTINUOUS
 62
   249
 10
81.232465
 20
162.482038
 30
0.0
 11
81.245399
 21
162.473057
 31
0.0
 12
81.245399
 22
162.527203
 32
0.0
 13
81.232465
 23
162.518136
 33
0.0
  0
3DFACE
  8
0
  6
CONTINUOUS
 62
   249
 10
81.245399
 20
162.473057
 30
0.0
 11
81.258333
 21
162.464077
 31
0.0
 12
81.258333
 22
162.536271
 32
0.0
 13
81.245399
 23
162.527203
 33
0.0
  0
3DFACE
  8
0
  6
CONTINUOUS
 62
   249
 10
81.258333
 20
162.464077
 30
0.0
 11
81.271267
 21
162.455096
 31
0.0
 12
81.271267
 22
162.545339
 32
0.0
 13
81.258333
 23
162.536271
 33
0.0
  0
3DFACE
  8
0
  6
CONTINUOUS
 62
   249
 10
81.271267
 20
162.455096
 30
0.0
 11
81.284202
 21
162.446115
 31
0.0
 12
81.284202
 22
162.554406
 32
0.0
 13
81.271267
 23
162.545339
 33
0.0
  0
3DFACE
  8
0
  6
CONTINUOUS
 62
   249
 10
81.284202
 20
162.446115
 30
0.0
 11
81.297136
 21
162.437134
 31
0.0
 12
81.297136
 22
162.563474
 32
0.0
 13
81.284202
 23
162.554406
 33
0.0
  0
3DFACE
  8
0
  6
CONTINUOUS
 62
   249
 10
81.297136
 20
162.437134
 30
0.0
 11
81.31007
 21
162.428153
 31
0.0
 12
81.31007
 22
162.572542
 32
0.0
 13
81.297136
 23
162.563474
 33
0.0
  0
3DFACE
  8
0
  6
CONTINUOUS
 62
   249
 10
81.31007
 20
162.428153
 30
0.0
 11
81.323004
 21
162.419172
 31
0.0
 12
81.323004
 22
162.581609
 32
0.0
 13
81.31007
 23
162.572542
 33
0.0
  0
3DFACE
  8
0
  6
CONTINUOUS
 62
   249
 10
81.323004
 20
162.419172
 30
0.0
 11
81.335938
 21
162.410191
 31
0.0
 12
81.335938
 22
162.590677
 32
0.0
 13
81.323004
 23
162.581609
 33
0.0
  0
3DFACE
  8
0
  6
CONTINUOUS
 62
   249
 10
81.335938
 20
162.410191
 30
0.0
 11
81.348872
 21
162.40121
 31
0.0
 12
81.348872
 22
162.599745
 32
0.0
 13
81.335938
 23
162.590677
 33
0.0
  0
3DFACE
  8
0
  6
CONTINUOUS
 62
   249
 10
81.348872
 20
162.40121
 30
0.0
 11
81.361806
 21
162.39223
 31
0.0
 12
81.361806
 22
162.608812
 32
0.0
 13
81.348872
 23
162.599745
 33
0.0
  0
3DFACE
  8
0
  6
CONTINUOUS
 62
   249
 10
81.361806
 20
162.39223
 30
0.0
 11
81.37474
 21
162.383249
 31
0.0
 12
81.37474
 22
162.61788
 32
0.0
 13
81.361806
 23
162.608812
 33
0.0
  0
3DFACE
  8
0
  6
CONTINUOUS
 62
   249
 10
81.37474
 20
162.383249
 30
0.0
 11
81.387674
 21
162.374268
 31
0.0
 12
81.387674
 22
162.626948
 32
0.0
 13
81.37474
 23
162.61788
 33
0.0
  0
3DFACE
  8
0
  6
CONTINUOUS
 62
   249
 10
81.387674
 20
162.374268
 30
0.0
 11
81.400608
 21
162.365287
 31
0.0
 12
81.400608
 22
162.636015
 32
0.0
 13
81.387674
 23
162.626948
 33
0.0
  0
3DFACE
  8
0
  6
CONTINUOUS
 62
   249
 10
81.400608
 20
162.365287
 30
0.0
 11
81.413542
 21
162.356306
 31
0.0
 12
81.413542
 22
162.645083
 32
0.0
 13
81.400608
 23
162.636015
 33
0.0
  0
3DFACE
  8
0
  6
CONTINUOUS
 62
   249
 10
81.413542
 20
162.356306
 30
0.0
 11
81.426476
 21
162.347325
 31
0.0
 12
81.426476
 22
162.654151
 32
0.0
 13
81.413542
 23
162.645083
 33
0.0
  0
3DFACE
  8
0
  6
CONTINUOUS
 62
   249
 10
81.426476
 20
162.347325
 30
0.0
 11
81.43941
 21
162.338344
 31
0.0
 12
81.43941
 22
162.663219
 32
0.0
 13
81.426476
 23
162.654151
 33
0.0
  0
3DFACE
  8
0
  6
CONTINUOUS
 62
   249
 10
81.43941
 20
162.338344
 30
0.0
 11
81.452344
 21
162.329363
 31
0.0
 12
81.452344
 22
162.672286
 32
0.0
 13
81.43941
 23
162.663219
 33
0.0
  0
3DFACE
  8
0
  6
CONTINUOUS
 62
   249
 10
81.452344
 20
162.329363
 30
0.0
 11
81.465278
 21
162.320383
 31
0.0
 12
81.465278
 22
162.681354
 32
0.0
 13
81.452344
 23
162.672286
 33
0.0
  0
3DFACE
  8
0
  6
CONTINUOUS
 62
   249
 10
81.465278
 20
162.320383
 30
0.0
 11
81.478212
 21
162.311402
 31
0.0
 12
81.478212
 22
162.690422
 32
0.0
 13
81.465278
 23
162.681354
 33
0.0
  0
3DFACE
  8
0
  6
CONTINUOUS
 62
   249
 10
81.478212
 20
162.311402
 30
0.0
 11
81.491146
 21
162.302421
 31
0.0
 12
81.491146
 22
162.699489
 32
0.0
 13
81.478212
 23
162.690422
 33
0.0
  0
3DFACE
  8
0
  6
CONTINUOUS
 62
   249
 10
81.491146
 20
162.302421
 30
0.0
 11
81.50408
 21
162.29344
 31
0.0
 12
81.50408
 22
162.708557
 32
0.0
 13
81.491146
 23
162.699489
 33
0.0
  0
3DFACE
  8
0
  6
CONTINUOUS
 62
   249
 10
81.50408
 20
162.29344
 30
0.0
 11
81.517014
 21
162.284459
 31
0.0
 12
81.517014
 22
162.717625
 32
0.0
 13
81.50408
 23
162.708557
 33
0.0
  0
3DFACE
  8
0
  6
CONTINUOUS
 62
   249
 10
81.517014
 20
162.284459
 30
0.0
 11
81.529948
 21
162.275478
 31
0.0
 12
81.529948
 22
162.726692
 32
0.0
 13
81.517014
 23
162.717625
 33
0.0
  0
3DFACE
  8
0
  6
CONTINUOUS
 62
   249
 10
81.529948
 20
162.275478
 30
0.0
 11
81.542882
 21
162.266497
 31
0.0
 12
81.542882
 22
162.73576
 32
0.0
 13
81.529948
 23
162.726692
 33
0.0
  0
3DFACE
  8
0
  6
CONTINUOUS
 62
   249
 10
81.542882
 20
162.266497
 30
0.0
 11
81.555816
 21
162.257516
 31
0.0
 12
81.555816
 22
162.744828
 32
0.0
 13
81.542882
 23
162.73576
 33
0.0
  0
3DFACE
  8
0
  6
CONTINUOUS
 62
   249
 10
81.555816
 20
162.257516
 30
0.0
 11
81.56875
 21
162.248536
 31
0.0
 12
81.56875
 22
162.753895
 32
0.0
 13
81.555816
 23
162.744828
 33
0.0
  0
3DFACE
  8
0
  6
CONTINUOUS
 62
   249
 10
81.56875
 20
162.248536
 30
0.0
 11
81.581684
 21
162.239555
 31
0.0
 12
81.581684
 22
162.762963
 32
0.0
 13
81.56875
 23
162.753895
 33
0.0
  0
3DFACE
  8
0
  6
CONTINUOUS
 62
   249
 10
81.581684
 20
162.239555
 30
0.0
 11
81.594618
 21
162.230574
 31
0.0
 12
81.594618
 22
162.772031
 32
0.0
 13
81.581684
 23
162.762963
 33
0.0
  0
3DFACE
  8
0
  6
CONTINUOUS
 62
   249
 10
81.594618
 20
162.230574
 30
0.0
 11
81.607552
 21
162.221593
 31
0.0
 12
81.607552
 22
162.781098
 32
0.0
 13
81.594618
 23
162.772031
 33
0.0
  0
3DFACE
  8
0
  6
CONTINUOUS
 62
   249
 10
81.607552
 20
162.221593
 30
0.0
 11
81.620486
 21
162.212612
 31
0.0
 12
81.620486
 22
162.790166
 32
0.0
 13
81.607552
 23
162.781098
 33
0.0
  0
3DFACE
  8
0
  6
CONTINUOUS
 62
   249
 10
81.620486
 20
162.212612
 30
0.0
 11
81.63342
 21
162.203631
 31
0.0
 12
81.63342
 22
162.799234
 32
0.0
 13
81.620486
 23
162.790166
 33
0.0
  0
3DFACE
  8
0
  6
CONTINUOUS
 62
   249
 10
81.63342
 20
162.203631
 30
0.0
 11
81.646354
 21
162.19465
 31
0.0
 12
81.646354
 22
162.808301
 32
0.0
 13
81.63342
 23
162.799234
 33
0.0
  0
3DFACE
  8
0
  6
CONTINUOUS
 62
   249
 10
81.646354
 20
162.19465
 30
0.0
 11
81.659288
 21
162.185669
 31
0.0
 12
81.659288
 22
162.817369
 32
0.0
 13
81.646354
 23
162.808301
 33
0.0
  0
3DFACE
  8
0
  6
CONTINUOUS
 62
   249
 10
81.659288
 20
162.185669
 30
0.0
 11
81.672222
 21
162.176689
 31
0.0
 12
81.672222
 22
162.826437
 32
0.0
 13
81.659288
 23
162.817369
 33
0.0
  0
3DFACE
  8
0
  6
CONTINUOUS
 62
   249
 10
81.672222
 20
162.176689
 30
0.0
 11
81.685156
 21
162.167708
 31
0.0
 12
81.685156
 22
162.835505
 32
0.0
 13
81.672222
 23
162.826437
 33
0.0
  0
3DFACE
  8
0
  6
CONTINUOUS
 62
   249
 10
81.685156
 20
162.167708
 30
0.0
 11
81.69809
 21
162.158727
 31
0.0
 12
81.69809
 22
162.844572
 32
0.0
 13
81.685156
 23
162.835505
 33
0.0
  0
3DFACE
  8
0
  6
CONTINUOUS
 62
   249
 10
81.69809
 20
162.158727
 30
0.0
 11
81.711024
 21
162.149746
 31
0.0
 12
81.711024
 22
162.85364
 32
0.0
 13
81.69809
 23
162.844572
 33
0.0
  0
3DFACE
  8
0
  6
CONTINUOUS
 62
   249
 10
81.711024
 20
162.149746
 30
0.0
 11
81.723958
 21
162.140765
 31
0.0
 12
81.723958
 22
162.862708
 32
0.0
 13
81.711024
 23
162.85364
 33
0.0
  0
3DFACE
  8
0
  6
CONTINUOUS
 62
   249
 10
81.723958
 20
162.140765
 30
0.0
 11
81.736892
 21
162.131784
 31
0.0
 12
81.736892
 22
162.871775
 32
0.0
 13
81.723958
 23
162.862708
 33
0.0
  0
3DFACE
  8
0
  6
CONTINUOUS
 62
   249
 10
81.736892
 20
162.131784
 30
0.0
 11
81.749826
 21
162.122803
 31
0.0
 12
81.749826
 22
162.880843
 32
0.0
 13
81.736892
 23
162.871775
 33
0.0
  0
3DFACE
  8
0
  6
CONTINUOUS
 62
   249
 10
81.749826
 20
162.122803
 30
0.0
 11
81.76276
 21
162.113822
 31
0.0
 12
81.76276
 22
162.889911
 32
0.0
 13
81.749826
 23
162.880843
 33
0.0
  0
3DFACE
  8
0
  6
CONTINUOUS
 62
   249
 10
81.76276
 20
162.113822
 30
0.0
 11
81.775695
 21
162.104842
 31
0.0
 12
81.775695
 22
162.898978
 32
0.0
 13
81.76276
 23
162.889911
 33
0.0
  0
3DFACE
  8
0
  6
CONTINUOUS
 62
   249
 10
81.775695
 20
162.104842
 30
0.0
 11
81.788629
 21
162.095861
 31
0.0
 12
81.788629
 22
162.908046
 32
0.0
 13
81.775695
 23
162.898978
 33
0.0
  0
3DFACE
  8
0
  6
CONTINUOUS
 62
   249
 10
81.788629
 20
162.095861
 30
0.0
 11
81.801563
 21
162.08688
 31
0.0
 12
81.801563
 22
162.917114
 32
0.0
 13
81.788629
 23
162.908046
 33
0.0
  0
3DFACE
  8
0
  6
CONTINUOUS
 62
   249
 10
81.801563
 20
162.08688
 30
0.0
 11
81.814497
 21
162.077899
 31
0.0
 12
81.814497
 22
162.926181
 32
0.0
 13
81.801563
 23
162.917114
 33
0.0
  0
3DFACE
  8
0
  6
CONTINUOUS
 62
   249
 10
81.814497
 20
162.077899
 30
0.0
 11
81.827431
 21
162.068918
 31
0.0
 12
81.827431
 22
162.935249
 32
0.0
 13
81.814497
 23
162.926181
 33
0.0
  0
3DFACE
  8
0
  6
CONTINUOUS
 62
   249
 10
81.827431
 20
162.068918
 30
0.0
 11
81.840365
 21
162.059937
 31
0.0
 12
81.840365
 22
162.944317
 32
0.0
 13
81.827431
 23
162.935249
 33
0.0
  0
3DFACE
  8
0
  6
CONTINUOUS
 62
   249
 10
81.840365
 20
162.059937
 30
0.0
 11
81.853299
 21
162.050956
 31
0.0
 12
81.853299
 22
162.953384
 32
0.0
 13
81.840365
 23
162.944317
 33
0.0
  0
3DFACE
  8
0
  6
CONTINUOUS
 62
   249
 10
81.853299
 20
162.050956
 30
0.0
 11
81.866233
 21
162.041975
 31
0.0
 12
81.866233
 22
162.962452
 32
0.0
 13
81.853299
 23
162.953384
 33
0.0
  0
3DFACE
  8
0
  6
CONTINUOUS
 62
   249
 10
81.866233
 20
162.041975
 30
0.0
 11
81.879167
 21
162.032995
 31
0.0
 12
81.879167
 22
162.97152
 32
0.0
 13
81.866233
 23
162.962452
 33
0.0
  0
3DFACE
  8
0
  6
CONTINUOUS
 62
   249
 10
81.879167
 20
162.032995
 30
0.0
 11
81.892101
 21
162.024014
 31
0.0
 12
81.892101
 22
162.980588
 32
0.0
 13
81.879167
 23
162.97152
 33
0.0
  0
3DFACE
  8
0
  6
CONTINUOUS
 62
   249
 10
81.892101
 20
162.024014
 30
0.0
 11
81.905035
 21
162.015033
 31
0.0
 12
81.905035
 22
162.989655
 32
0.0
 13
81.892101
 23
162.980588
 33
0.0
  0
3DFACE
  8
0
  6
CONTINUOUS
 62
   249
 10
81.905035
 20
162.015033
 30
0.0
 11
81.917969
 21
162.006052
 31
0.0
 12
81.917969
 22
162.998723
 32
0.0
 13
81.905035
 23
162.989655
 33
0.0
  0
3DFACE
  8
0
  6
CONTINUOUS
 62
   249
 10
81.917969
 20
162.006052
 30
0.0
 11
81.930903
 21
161.997071
 31
0.0
 12
81.930903
 22
163.007791
 32
0.0
 13
81.917969
 23
162.998723
 33
0.0
  0
3DFACE
  8
0
  6
CONTINUOUS
 62
   249
 10
81.930903
 20
161.997071
 30
0.0
 11
81.943837
 21
161.98809
 31
0.0
 12
81.943837
 22
163.016858
 32
0.0
 13
81.930903
 23
163.007791
 33
0.0
  0
3DFACE
  8
0
  6
CONTINUOUS
 62
   249
 10
81.943837
 20
161.98809
 30
0.0
 11
81.956771
 21
161.979109
 31
0.0
 12
81.956771
 22
163.025926
 32
0.0
 13
81.943837
 23
163.016858
 33
0.0
  0
3DFACE
  8
0
  6
CONTINUOUS
 62
   249
 10
81.956771
 20
161.979109
 30
0.0
 11
81.969705
 21
161.970128
 31
0.0
 12
81.969705
 22
163.034994
 32
0.0
 13
81.956771
 23
163.025926
 33
0.0
  0
3DFACE
  8
0
  6
CONTINUOUS
 62
   249
 10
81.969705
 20
161.970128
 30
0.0
 11
81.982639
 21
161.961147
 31
0.0
 12
81.982639
 22
163.044061
 32
0.0
 13
81.969705
 23
163.034994
 33
0.0
  0
3DFACE
  8
0
  6
CONTINUOUS
 62
   249
 10
81.982639
 20
161.961147
 30
0.0
 11
81.995573
 21
161.952167
 31
0.0
 12
81.995573
 22
163.053129
 32
0.0
 13
81.982639
 23
163.044061
 33
0.0
  0
3DFACE
  8
0
  6
CONTINUOUS
 62
   249
 10
81.995573
 20
161.952167
 30
0.0
 11
82.008507
 21
161.943186
 31
0.0
 12
82.008507
 22
163.062197
 32
0.0
 13
81.995573
 23
163.053129
 33
0.0
  0
3DFACE
  8
0
  6
CONTINUOUS
 62
   249
 10
82.008507
 20
161.943186
 30
0.0
 11
82.021441
 21
161.934205
 31
0.0
 12
82.021441
 22
163.071264
 32
0.0
 13
82.008507
 23
163.062197
 33
0.0
  0
3DFACE
  8
0
  6
CONTINUOUS
 62
   249
 10
82.021441
 20
161.934205
 30
0.0
 11
82.034375
 21
161.925224
 31
0.0
 12
82.034375
 22
163.080332
 32
0.0
 13
82.021441
 23
163.071264
 33
0.0
  0
3DFACE
  8
0
  6
CONTINUOUS
 62
   249
 10
82.034375
 20
161.925224
 30
0.0
 11
82.047309
 21
161.916243
 31
0.0
 12
82.047309
 22
163.0894
 32
0.0
 13
82.034375
 23
163.080332
 33
0.0
  0
3DFACE
  8
0
  6
CONTINUOUS
 62
   249
 10
82.047309
 20
161.916243
 30
0.0
 11
82.060243
 21
161.907262
 31
0.0
 12
82.060243
 22
163.098467
 32
0.0
 13
82.047309
 23
163.0894
 33
0.0
  0
3DFACE
  8
0
  6
CONTINUOUS
 62
   249
 10
82.060243
 20
161.907262
 30
0.0
 11
82.073177
 21
161.898281
 31
0.0
 12
82.073177
 22
163.107535
 32
0.0
 13
82.060243
 23
163.098467
 33
0.0
  0
3DFACE
  8
0
  6
CONTINUOUS
 62
   249
 10
82.073177
 20
161.898281
 30
0.0
 11
82.086111
 21
161.8893
 31
0.0
 12
82.086111
 22
163.116603
 32
0.0
 13
82.073177
 23
163.107535
 33
0.0
  0
3DFACE
  8
0
  6
CONTINUOUS
 62
   249
 10
82.086111
 20
161.8893
 30
0.0
 11
82.099045
 21
161.88032
 31
0.0
 12
82.099045
 22
163.125671
 32
0.0
 13
82.086111
 23
163.116603
 33
0.0
  0
3DFACE
  8
0
  6
CONTINUOUS
 62
   249
 10
82.099045
 20
161.88032
 30
0.0
 11
82.111979
 21
161.871339
 31
0.0
 12
82.111979
 22
163.134738
 32
0.0
 13
82.099045
 23
163.125671
 33
0.0
  0
3DFACE
  8
0
  6
CONTINUOUS
 62
   249
 10
82.111979
 20
161.871339
 30
0.0
 11
82.124913
 21
161.862358
 31
0.0
 12
82.124913
 22
163.143806
 32
0.0
 13
82.111979
 23
163.134738
 33
0.0
  0
3DFACE
  8
0
  6
CONTINUOUS
 62
   249
 10
82.124913
 20
161.862358
 30
0.0
 11
82.137847
 21
161.853377
 31
0.0
 12
82.137847
 22
163.152874
 32
0.0
 13
82.124913
 23
163.143806
 33
0.0
  0
3DFACE
  8
0
  6
CONTINUOUS
 62
   249
 10
82.137847
 20
161.853377
 30
0.0
 11
82.150781
 21
161.844396
 31
0.0
 12
82.150781
 22
163.161941
 32
0.0
 13
82.137847
 23
163.152874
 33
0.0
  0
3DFACE
  8
0
  6
CONTINUOUS
 62
   249
 10
82.150781
 20
161.844396
 30
0.0
 11
82.163715
 21
161.835415
 31
0.0
 12
82.163715
 22
163.171009
 32
0.0
 13
82.150781
 23
163.161941
 33
0.0
  0
3DFACE
  8
0
  6
CONTINUOUS
 62
   249
 10
82.163715
 20
161.835415
 30
0.0
 11
82.176649
 21
161.826434
 31
0.0
 12
82.176649
 22
163.180077
 32
0.0
 13
82.163715
 23
163.171009
 33
0.0
  0
3DFACE
  8
0
  6
CONTINUOUS
 62
   249
 10
82.176649
 20
161.826434
 30
0.0
 11
82.189583
 21
161.817453
 31
0.0
 12
82.189583
 22
163.189144
 32
0.0
 13
82.176649
 23
163.180077
 33
0.0
  0
3DFACE
  8
0
  6
CONTINUOUS
 62
   249
 10
82.189583
 20
161.817453
 30
0.0
 11
82.202517
 21
161.808473
 31
0.0
 12
82.202517
 22
163.198212
 32
0.0
 13
82.189583
 23
163.189144
 33
0.0
  0
3DFACE
  8
0
  6
CONTINUOUS
 62
   249
 10
82.202517
 20
161.808473
 30
0.0
 11
82.215451
 21
161.799492
 31
0.0
 12
82.215451
 22
163.20728
 32
0.0
 13
82.202517
 23
163.198212
 33
0.0
  0
3DFACE
  8
0
  6
CONTINUOUS
 62
   249
 10
82.215451
 20
161.799492
 30
0.0
 11
82.228385
 21
161.790511
 31
0.0
 12
82.228385
 22
163.216347
 32
0.0
 13
82.215451
 23
163.20728
 33
0.0
  0
3DFACE
  8
0
  6
CONTINUOUS
 62
   249
 10
82.228385
 20
161.790511
 30
0.0
 11
82.241319
 21
161.78153
 31
0.0
 12
82.241319
 22
163.225415
 32
0.0
 13
82.228385
 23
163.216347
 33
0.0
  0
3DFACE
  8
0
  6
CONTINUOUS
 62
   249
 10
82.241319
 20
161.78153
 30
0.0
 11
82.254253
 21
161.772549
 31
0.0
 12
82.254253
 22
163.234483
 32
0.0
 13
82.241319
 23
163.225415
 33
0.0
  0
3DFACE
  8
0
  6
CONTINUOUS
 62
   249
 10
82.254253
 20
161.772549
 30
0.0
 11
82.267188
 21
161.763568
 31
0.0
 12
82.267188
 22
163.24355
 32
0.0
 13
82.254253
 23
163.234483
 33
0.0
  0
3DFACE
  8
0
  6
CONTINUOUS
 62
   249
 10
82.267188
 20
161.763568
 30
0.0
 11
82.280122
 21
161.754587
 31
0.0
 12
82.280122
 22
163.252618
 32
0.0
 13
82.267188
 23
163.24355
 33
0.0
  0
3DFACE
  8
0
  6
CONTINUOUS
 62
   249
 10
82.280122
 20
161.754587
 30
0.0
 11
82.293056
 21
161.745606
 31
0.0
 12
82.293056
 22
163.261686
 32
0.0
 13
82.280122
 23
163.252618
 33
0.0
  0
3DFACE
  8
0
  6
CONTINUOUS
 62
   249
 10
82.293056
 20
161.745606
 30
0.0
 11
82.30599
 21
161.736626
 31
0.0
 12
82.30599
 22
163.270754
 32
0.0
 13
82.293056
 23
163.261686
 33
0.0
  0
3DFACE
  8
0
  6
CONTINUOUS
 62
   249
 10
82.30599
 20
161.736626
 30
0.0
 11
82.318924
 21
161.727645
 31
0.0
 12
82.318924
 22
163.279821
 32
0.0
 13
82.30599
 23
163.270754
 33
0.0
  0
3DFACE
  8
0
  6
CONTINUOUS
 62
   249
 10
82.318924
 20
161.727645
 30
0.0
 11
82.331858
 21
161.718664
 31
0.0
 12
82.331858
 22
163.288889
 32
0.0
 13
82.318924
 23
163.279821
 33
0.0
  0
3DFACE
  8
0
  6
CONTINUOUS
 62
   249
 10
82.331858
 20
161.718664
 30
0.0
 11
82.344792
 21
161.709683
 31
0.0
 12
82.344792
 22
163.297957
 32
0.0
 13
82.331858
 23
163.288889
 33
0.0
  0
3DFACE
  8
0
  6
CONTINUOUS
 62
   249
 10
82.344792
 20
161.709683
 30
0.0
 11
82.357726
 21
161.700702
 31
0.0
 12
82.357726
 22
163.307024
 32
0.0
 13
82.344792
 23
163.297957
 33
0.0
  0
3DFACE
  8
0
  6
CONTINUOUS
 62
   249
 10
82.357726
 20
161.700702
 30
0.0
 11
82.37066
 21
161.691721
 31
0.0
 12
82.37066
 22
163.316092
 32
0.0
 13
82.357726
 23
163.307024
 33
0.0
  0
3DFACE
  8
0
  6
CONTINUOUS
 62
   249
 10
82.37066
 20
161.691721
 30
0.0
 11
82.383594
 21
161.68274
 31
0.0
 12
82.383594
 22
163.32516
 32
0.0
 13
82.37066
 23
163.316092
 33
0.0
  0
3DFACE
  8
0
  6
CONTINUOUS
 62
   249
 10
82.383594
 20
161.68274
 30
0.0
 11
82.396528
 21
161.673759
 31
0.0
 12
82.396528
 22
163.334227
 32
0.0
 13
82.383594
 23
163.32516
 33
0.0
  0
3DFACE
  8
0
  6
CONTINUOUS
 62
   249
 10
82.396528
 20
161.673759
 30
0.0
 11
82.409462
 21
161.664779
 31
0.0
 12
82.409462
 22
163.343295
 32
0.0
 13
82.396528
 23
163.334227
 33
0.0
  0
3DFACE
  8
0
  6
CONTINUOUS
 62
   249
 10
82.409462
 20
161.664779
 30
0.0
 11
82.422396
 21
161.655798
 31
0.0
 12
82.422396
 22
163.352363
 32
0.0
 13
82.409462
 23
163.343295
 33
0.0
  0
3DFACE
  8
0
  6
CONTINUOUS
 62
   249
 10
82.422396
 20
161.655798
 30
0.0
 11
82.43533
 21
161.646817
 31
0.0
 12
82.43533
 22
163.36143
 32
0.0
 13
82.422396
 23
163.352363
 33
0.0
  0
3DFACE
  8
0
  6
CONTINUOUS
 62
   249
 10
82.43533
 20
161.646817
 30
0.0
 11
82.448264
 21
161.637836
 31
0.0
 12
82.448264
 22
163.370498
 32
0.0
 13
82.43533
 23
163.36143
 33
0.0
  0
3DFACE
  8
0
  6
CONTINUOUS
 62
   249
 10
82.448264
 20
161.637836
 30
0.0
 11
82.461198
 21
161.628855
 31
0.0
 12
82.461198
 22
163.379566
 32
0.0
 13
82.448264
 23
163.370498
 33
0.0
  0
3DFACE
  8
0
  6
CONTINUOUS
 62
   249
 10
82.461198
 20
161.628855
 30
0.0
 11
82.474132
 21
161.619874
 31
0.0
 12
82.474132
 22
163.388633
 32
0.0
 13
82.461198
 23
163.379566
 33
0.0
  0
3DFACE
  8
0
  6
CONTINUOUS
 62
   249
 10
82.474132
 20
161.619874
 30
0.0
 11
82.487066
 21
161.610893
 31
0.0
 12
82.487066
 22
163.397701
 32
0.0
 13
82.474132
 23
163.388633
 33
0.0
  0
3DFACE
  8
0
  6
CONTINUOUS
 62
   249
 10
82.487066
 20
161.610893
 30
0.0
 11
82.5
 21
161.601912
 31
0.0
 12
82.5
 22
163.406769
 32
0.0
 13
82.487066
 23
163.397701
 33
0.0
  0
3DFACE
  8
0
  6
CONTINUOUS
 62
   249
 10
78.706597
 20
162.5
 30
0.0
 11
78.719531
 21
162.491019
 31
0.0
 12
78.719531
 22
162.509068
 32
0.0
 13
78.706597
 23
162.5
 33
0.0
  0
3DFACE
  8
0
  6
CONTINUOUS
 62
   249
 10
78.719531
 20
162.491019
 30
0.0
 11
78.732465
 21
162.482038
 31
0.0
 12
78.732465
 22
162.518136
 32
0.0
 13
78.719531
 23
162.509068
 33
0.0
  0
3DFACE
  8
0
  6
CONTINUOUS
 62
   249
 10
78.732465
 20
162.482038
 30
0.0
 11
78.745399
 21
162.473057
 31
0.0
 12
78.745399
 22
162.527203
 32
0.0
 13
78.732465
 23
162.518136
 33
0.0
  0
3DFACE
  8
0
  6
CONTINUOUS
 62
   249
 10
78.745399
 20
162.473057
 30
0.0
 11
78.758333
 21
162.464077
 31
0.0
 12
78.758333
 22
162.536271
 32
0.0
 13
78.745399
 23
162.527203
 33
0.0
  0
3DFACE
  8
0
  6
CONTINUOUS
 62
   249
 10
78.758333
 20
162.464077
 30
0.0
 11
78.771267
 21
162.455096
 31
0.0
 12
78.771267
 22
162.545339
 32
0.0
 13
78.758333
 23
162.536271
 33
0.0
  0
3DFACE
  8
0
  6
CONTINUOUS
 62
   249
 10
78.771267
 20
162.455096
 30
0.0
 11
78.784202
 21
162.446115
 31
0.0
 12
78.784202
 22
162.554406
 32
0.0
 13
78.771267
 23
162.545339
 33
0.0
  0
3DFACE
  8
0
  6
CONTINUOUS
 62
   249
 10
78.784202
 20
162.446115
 30
0.0
 11
78.797136
 21
162.437134
 31
0.0
 12
78.797136
 22
162.563474
 32
0.0
 13
78.784202
 23
162.554406
 33
0.0
  0
3DFACE
  8
0
  6
CONTINUOUS
 62
   249
 10
78.797136
 20
162.437134
 30
0.0
 11
78.81007
 21
162.428153
 31
0.0
 12
78.81007
 22
162.572542
 32
0.0
 13
78.797136
 23
162.563474
 33
0.0
  0
3DFACE
  8
0
  6
CONTINUOUS
 62
   249
 10
78.81007
 20
162.428153
 30
0.0
 11
78.823004
 21
162.419172
 31
0.0
 12
78.823004
 22
162.581609
 32
0.0
 13
78.81007
 23
162.572542
 33
0.0
  0
3DFACE
  8
0
  6
CONTINUOUS
 62
   249
 10
78.823004
 20
162.419172
 30
0.0
 11
78.835938
 21
162.410191
 31
0.0
 12
78.835938
 22
162.590677
 32
0.0
 13
78.823004
 23
162.581609
 33
0.0
  0
3DFACE
  8
0
  6
CONTINUOUS
 62
   249
 10
78.835938
 20
162.410191
 30
0.0
 11
78.848872
 21
162.40121
 31
0.0
 12
78.848872
 22
162.599745
 32
0.0
 13
78.835938
 23
162.590677
 33
0.0
  0
3DFACE
  8
0
  6
CONTINUOUS
 62
   249
 10
78.848872
 20
162.40121
 30
0.0
 11
78.861806
 21
162.39223
 31
0.0
 12
78.861806
 22
162.608812
 32
0.0
 13
78.848872
 23
162.599745
 33
0.0
  0
3DFACE
  8
0
  6
CONTINUOUS
 62
   249
 10
78.861806
 20
162.39223
 30
0.0
 11
78.87474
 21
162.383249
 31
0.0
 12
78.87474
 22
162.61788
 32
0.0
 13
78.861806
 23
162.608812
 33
0.0
  0
3DFACE
  8
0
  6
CONTINUOUS
 62
   249
 10
78.87474
 20
162.383249
 30
0.0
 11
78.887674
 21
162.374268
 31
0.0
 12
78.887674
 22
162.626948
 32
0.0
 13
78.87474
 23
162.61788
 33
0.0
  0
3DFACE
  8
0
  6
CONTINUOUS
 62
   249
 10
78.887674
 20
162.374268
 30
0.0
 11
78.900608
 21
162.365287
 31
0.0
 12
78.900608
 22
162.636015
 32
0.0
 13
78.887674
 23
162.626948
 33
0.0
  0
3DFACE
  8
0
  6
CONTINUOUS
 62
   249
 10
78.900608
 20
162.365287
 30
0.0
 11
78.913542
 21
162.356306
 31
0.0
 12
78.913542
 22
162.645083
 32
0.0
 13
78.900608
 23
162.636015
 33
0.0
  0
3DFACE
  8
0
  6
CONTINUOUS
 62
   249
 10
78.913542
 20
162.356306
 30
0.0
 11
78.926476
 21
162.347325
 31
0.0
 12
78.926476
 22
162.654151
 32
0.0
 13
78.913542
 23
162.645083
 33
0.0
  0
3DFACE
  8
0
  6
CONTINUOUS
 62
   249
 10
78.926476
 20
162.347325
 30
0.0
 11
78.93941
 21
162.338344
 31
0.0
 12
78.93941
 22
162.663219
 32
0.0
 13
78.926476
 23
162.654151
 33
0.0
  0
3DFACE
  8
0
  6
CONTINUOUS
 62
   249
 10
78.93941
 20
162.338344
 30
0.0
 11
78.952344
 21
162.329363
 31
0.0
 12
78.952344
 22
162.672286
 32
0.0
 13
78.93941
 23
162.663219
 33
0.0
  0
3DFACE
  8
0
  6
CONTINUOUS
 62
   249
 10
78.952344
 20
162.329363
 30
0.0
 11
78.965278
 21
162.320383
 31
0.0
 12
78.965278
 22
162.681354
 32
0.0
 13
78.952344
 23
162.672286
 33
0.0
  0
3DFACE
  8
0
  6
CONTINUOUS
 62
   249
 10
78.965278
 20
162.320383
 30
0.0
 11
78.978212
 21
162.311402
 31
0.0
 12
78.978212
 22
162.690422
 32
0.0
 13
78.965278
 23
162.681354
 33
0.0
  0
3DFACE
  8
0
  6
CONTINUOUS
 62
   249
 10
78.978212
 20
162.311402
 30
0.0
 11
78.991146
 21
162.302421
 31
0.0
 12
78.991146
 22
162.699489
 32
0.0
 13
78.978212
 23
162.690422
 33
0.0
  0
3DFACE
  8
0
  6
CONTINUOUS
 62
   249
 10
78.991146
 20
162.302421
 30
0.0
 11
79.00408
 21
162.29344
 31
0.0
 12
79.00408
 22
162.708557
 32
0.0
 13
78.991146
 23
162.699489
 33
0.0
  0
3DFACE
  8
0
  6
CONTINUOUS
 62
   249
 10
79.00408
 20
162.29344
 30
0.0
 11
79.017014
 21
162.284459
 31
0.0
 12
79.017014
 22
162.717625
 32
0.0
 13
79.00408
 23
162.708557
 33
0.0
  0
3DFACE
  8
0
  6
CONTINUOUS
 62
   249
 10
79.017014
 20
162.284459
 30
0.0
 11
79.029948
 21
162.275478
 31
0.0
 12
79.029948
 22
162.726692
 32
0.0
 13
79.017014
 23
162.717625
 33
0.0
  0
3DFACE
  8
0
  6
CONTINUOUS
 62
   249
 10
79.029948
 20
162.275478
 30
0.0
 11
79.042882
 21
162.266497
 31
0.0
 12
79.042882
 22
162.73576
 32
0.0
 13
79.029948
 23
162.726692
 33
0.0
  0
3DFACE
  8
0
  6
CONTINUOUS
 62
   249
 10
79.042882
 20
162.266497
 30
0.0
 11
79.055816
 21
162.257516
 31
0.0
 12
79.055816
 22
162.744828
 32
0.0
 13
79.042882
 23
162.73576
 33
0.0
  0
3DFACE
  8
0
  6
CONTINUOUS
 62
   249
 10
79.055816
 20
162.257516
 30
0.0
 11
79.06875
 21
162.248536
 31
0.0
 12
79.06875
 22
162.753895
 32
0.0
 13
79.055816
 23
162.744828
 33
0.0
  0
3DFACE
  8
0
  6
CONTINUOUS
 62
   249
 10
79.06875
 20
162.248536
 30
0.0
 11
79.081684
 21
162.239555
 31
0.0
 12
79.081684
 22
162.762963
 32
0.0
 13
79.06875
 23
162.753895
 33
0.0
  0
3DFACE
  8
0
  6
CONTINUOUS
 62
   249
 10
79.081684
 20
162.239555
 30
0.0
 11
79.094618
 21
162.230574
 31
0.0
 12
79.094618
 22
162.772031
 32
0.0
 13
79.081684
 23
162.762963
 33
0.0
  0
3DFACE
  8
0
  6
CONTINUOUS
 62
   249
 10
79.094618
 20
162.230574
 30
0.0
 11
79.107552
 21
162.221593
 31
0.0
 12
79.107552
 22
162.781098
 32
0.0
 13
79.094618
 23
162.772031
 33
0.0
  0
3DFACE
  8
0
  6
CONTINUOUS
 62
   249
 10
79.107552
 20
162.221593
 30
0.0
 11
79.120486
 21
162.212612
 31
0.0
 12
79.120486
 22
162.790166
 32
0.0
 13
79.107552
 23
162.781098
 33
0.0
  0
3DFACE
  8
0
  6
CONTINUOUS
 62
   249
 10
79.120486
 20
162.212612
 30
0.0
 11
79.13342
 21
162.203631
 31
0.0
 12
79.13342
 22
162.799234
 32
0.0
 13
79.120486
 23
162.790166
 33
0.0
  0
3DFACE
  8
0
  6
CONTINUOUS
 62
   249
 10
79.13342
 20
162.203631
 30
0.0
 11
79.146354
 21
162.19465
 31
0.0
 12
79.146354
 22
162.808301
 32
0.0
 13
79.13342
 23
162.799234
 33
0.0
  0
3DFACE
  8
0
  6
CONTINUOUS
 62
   249
 10
79.146354
 20
162.19465
 30
0.0
 11
79.159288
 21
162.185669
 31
0.0
 12
79.159288
 22
162.817369
 32
0.0
 13
79.146354
 23
162.808301
 33
0.0
  0
3DFACE
  8
0
  6
CONTINUOUS
 62
   249
 10
79.159288
 20
162.185669
 30
0.0
 11
79.172222
 21
162.176689
 31
0.0
 12
79.172222
 22
162.826437
 32
0.0
 13
79.159288
 23
162.817369
 33
0.0
  0
3DFACE
  8
0
  6
CONTINUOUS
 62
   249
 10
79.172222
 20
162.176689
 30
0.0
 11
79.185156
 21
162.167708
 31
0.0
 12
79.185156
 22
162.835505
 32
0.0
 13
79.172222
 23
162.826437
 33
0.0
  0
3DFACE
  8
0
  6
CONTINUOUS
 62
   249
 10
79.185156
 20
162.167708
 30
0.0
 11
79.19809
 21
162.158727
 31
0.0
 12
79.19809
 22
162.844572
 32
0.0
 13
79.185156
 23
162.835505
 33
0.0
  0
3DFACE
  8
0
  6
CONTINUOUS
 62
   249
 10
79.19809
 20
162.158727
 30
0.0
 11
79.211024
 21
162.149746
 31
0.0
 12
79.211024
 22
162.85364
 32
0.0
 13
79.19809
 23
162.844572
 33
0.0
  0
3DFACE
  8
0
  6
CONTINUOUS
 62
   249
 10
79.211024
 20
162.149746
 30
0.0
 11
79.223958
 21
162.140765
 31
0.0
 12
79.223958
 22
162.862708
 32
0.0
 13
79.211024
 23
162.85364
 33
0.0
  0
3DFACE
  8
0
  6
CONTINUOUS
 62
   249
 10
79.223958
 20
162.140765
 30
0.0
 11
79.236892
 21
162.131784
 31
0.0
 12
79.236892
 22
162.871775
 32
0.0
 13
79.223958
 23
162.862708
 33
0.0
  0
3DFACE
  8
0
  6
CONTINUOUS
 62
   249
 10
79.236892
 20
162.131784
 30
0.0
 11
79.249826
 21
162.122803
 31
0.0
 12
79.249826
 22
162.880843
 32
0.0
 13
79.236892
 23
162.871775
 33
0.0
  0
3DFACE
  8
0
  6
CONTINUOUS
 62
   249
 10
79.249826
 20
162.122803
 30
0.0
 11
79.26276
 21
162.113822
 31
0.0
 12
79.26276
 22
162.889911
 32
0.0
 13
79.249826
 23
162.880843
 33
0.0
  0
3DFACE
  8
0
  6
CONTINUOUS
 62
   249
 10
79.26276
 20
162.113822
 30
0.0
 11
79.275695
 21
162.104842
 31
0.0
 12
79.275695
 22
162.898978
 32
0.0
 13
79.26276
 23
162.889911
 33
0.0
  0
3DFACE
  8
0
  6
CONTINUOUS
 62
   249
 10
79.275695
 20
162.104842
 30
0.0
 11
79.288629
 21
162.095861
 31
0.0
 12
79.288629
 22
162.908046
 32
0.0
 13
79.275695
 23
162.898978
 33
0.0
  0
3DFACE
  8
0
  6
CONTINUOUS
 62
   249
 10
79.288629
 20
162.095861
 30
0.0
 11
79.301563
 21
162.08688
 31
0.0
 12
79.301563
 22
162.917114
 32
0.0
 13
79.288629
 23
162.908046
 33
0.0
  0
3DFACE
  8
0
  6
CONTINUOUS
 62
   249
 10
79.301563
 20
162.08688
 30
0.0
 11
79.314497
 21
162.077899
 31
0.0
 12
79.314497
 22
162.926181
 32
0.0
 13
79.301563
 23
162.917114
 33
0.0
  0
3DFACE
  8
0
  6
CONTINUOUS
 62
   249
 10
79.314497
 20
162.077899
 30
0.0
 11
79.327431
 21
162.068918
 31
0.0
 12
79.327431
 22
162.935249
 32
0.0
 13
79.314497
 23
162.926181
 33
0.0
  0
3DFACE
  8
0
  6
CONTINUOUS
 62
   249
 10
79.327431
 20
162.068918
 30
0.0
 11
79.340365
 21
162.059937
 31
0.0
 12
79.340365
 22
162.944317
 32
0.0
 13
79.327431
 23
162.935249
 33
0.0
  0
3DFACE
  8
0
  6
CONTINUOUS
 62
   249
 10
79.340365
 20
162.059937
 30
0.0
 11
79.353299
 21
162.050956
 31
0.0
 12
79.353299
 22
162.953384
 32
0.0
 13
79.340365
 23
162.944317
 33
0.0
  0
3DFACE
  8
0
  6
CONTINUOUS
 62
   249
 10
79.353299
 20
162.050956
 30
0.0
 11
79.366233
 21
162.041975
 31
0.0
 12
79.366233
 22
162.962452
 32
0.0
 13
79.353299
 23
162.953384
 33
0.0
  0
3DFACE
  8
0
  6
CONTINUOUS
 62
   249
 10
79.366233
 20
162.041975
 30
0.0
 11
79.379167
 21
162.032995
 31
0.0
 12
79.379167
 22
162.97152
 32
0.0
 13
79.366233
 23
162.962452
 33
0.0
  0
3DFACE
  8
0
  6
CONTINUOUS
 62
   249
 10
79.379167
 20
162.032995
 30
0.0
 11
79.392101
 21
162.024014
 31
0.0
 12
79.392101
 22
162.980588
 32
0.0
 13
79.379167
 23
162.97152
 33
0.0
  0
3DFACE
  8
0
  6
CONTINUOUS
 62
   249
 10
79.392101
 20
162.024014
 30
0.0
 11
79.405035
 21
162.015033
 31
0.0
 12
79.405035
 22
162.989655
 32
0.0
 13
79.392101
 23
162.980588
 33
0.0
  0
3DFACE
  8
0
  6
CONTINUOUS
 62
   249
 10
79.405035
 20
162.015033
 30
0.0
 11
79.417969
 21
162.006052
 31
0.0
 12
79.417969
 22
162.998723
 32
0.0
 13
79.405035
 23
162.989655
 33
0.0
  0
3DFACE
  8
0
  6
CONTINUOUS
 62
   249
 10
79.417969
 20
162.006052
 30
0.0
 11
79.430903
 21
161.997071
 31
0.0
 12
79.430903
 22
163.007791
 32
0.0
 13
79.417969
 23
162.998723
 33
0.0
  0
3DFACE
  8
0
  6
CONTINUOUS
 62
   249
 10
79.430903
 20
161.997071
 30
0.0
 11
79.443837
 21
161.98809
 31
0.0
 12
79.443837
 22
163.016858
 32
0.0
 13
79.430903
 23
163.007791
 33
0.0
  0
3DFACE
  8
0
  6
CONTINUOUS
 62
   249
 10
79.443837
 20
161.98809
 30
0.0
 11
79.456771
 21
161.979109
 31
0.0
 12
79.456771
 22
163.025926
 32
0.0
 13
79.443837
 23
163.016858
 33
0.0
  0
3DFACE
  8
0
  6
CONTINUOUS
 62
   249
 10
79.456771
 20
161.979109
 30
0.0
 11
79.469705
 21
161.970128
 31
0.0
 12
79.469705
 22
163.034994
 32
0.0
 13
79.456771
 23
163.025926
 33
0.0
  0
3DFACE
  8
0
  6
CONTINUOUS
 62
   249
 10
79.469705
 20
161.970128
 30
0.0
 11
79.482639
 21
161.961147
 31
0.0
 12
79.482639
 22
163.044061
 32
0.0
 13
79.469705
 23
163.034994
 33
0.0
  0
3DFACE
  8
0
  6
CONTINUOUS
 62
   249
 10
79.482639
 20
161.961147
 30
0.0
 11
79.495573
 21
161.952167
 31
0.0
 12
79.495573
 22
163.053129
 32
0.0
 13
79.482639
 23
163.044061
 33
0.0
  0
3DFACE
  8
0
  6
CONTINUOUS
 62
   249
 10
79.495573
 20
161.952167
 30
0.0
 11
79.508507
 21
161.943186
 31
0.0
 12
79.508507
 22
163.062197
 32
0.0
 13
79.495573
 23
163.053129
 33
0.0
  0
3DFACE
  8
0
  6
CONTINUOUS
 62
   249
 10
79.508507
 20
161.943186
 30
0.0
 11
79.521441
 21
161.934205
 31
0.0
 12
79.521441
 22
163.071264
 32
0.0
 13
79.508507
 23
163.062197
 33
0.0
  0
3DFACE
  8
0
  6
CONTINUOUS
 62
   249
 10
79.521441
 20
161.934205
 30
0.0
 11
79.534375
 21
161.925224
 31
0.0
 12
79.534375
 22
163.080332
 32
0.0
 13
79.521441
 23
163.071264
 33
0.0
  0
3DFACE
  8
0
  6
CONTINUOUS
 62
   249
 10
79.534375
 20
161.925224
 30
0.0
 11
79.547309
 21
161.916243
 31
0.0
 12
79.547309
 22
163.0894
 32
0.0
 13
79.534375
 23
163.080332
 33
0.0
  0
3DFACE
  8
0
  6
CONTINUOUS
 62
   249
 10
79.547309
 20
161.916243
 30
0.0
 11
79.560243
 21
161.907262
 31
0.0
 12
79.560243
 22
163.098467
 32
0.0
 13
79.547309
 23
163.0894
 33
0.0
  0
3DFACE
  8
0
  6
CONTINUOUS
 62
   249
 10
79.560243
 20
161.907262
 30
0.0
 11
79.573177
 21
161.898281
 31
0.0
 12
79.573177
 22
163.107535
 32
0.0
 13
79.560243
 23
163.098467
 33
0.0
  0
3DFACE
  8
0
  6
CONTINUOUS
 62
   249
 10
79.573177
 20
161.898281
 30
0.0
 11
79.586111
 21
161.8893
 31
0.0
 12
79.586111
 22
163.116603
 32
0.0
 13
79.573177
 23
163.107535
 33
0.0
  0
3DFACE
  8
0
  6
CONTINUOUS
 62
   249
 10
79.586111
 20
161.8893
 30
0.0
 11
79.599045
 21
161.88032
 31
0.0
 12
79.599045
 22
163.125671
 32
0.0
 13
79.586111
 23
163.116603
 33
0.0
  0
3DFACE
  8
0
  6
CONTINUOUS
 62
   249
 10
79.599045
 20
161.88032
 30
0.0
 11
79.611979
 21
161.871339
 31
0.0
 12
79.611979
 22
163.134738
 32
0.0
 13
79.599045
 23
163.125671
 33
0.0
  0
3DFACE
  8
0
  6
CONTINUOUS
 62
   249
 10
79.611979
 20
161.871339
 30
0.0
 11
79.624913
 21
161.862358
 31
0.0
 12
79.624913
 22
163.143806
 32
0.0
 13
79.611979
 23
163.134738
 33
0.0
  0
3DFACE
  8
0
  6
CONTINUOUS
 62
   249
 10
79.624913
 20
161.862358
 30
0.0
 11
79.637847
 21
161.853377
 31
0.0
 12
79.637847
 22
163.152874
 32
0.0
 13
79.624913
 23
163.143806
 33
0.0
  0
3DFACE
  8
0
  6
CONTINUOUS
 62
   249
 10
79.637847
 20
161.853377
 30
0.0
 11
79.650781
 21
161.844396
 31
0.0
 12
79.650781
 22
163.161941
 32
0.0
 13
79.637847
 23
163.152874
 33
0.0
  0
3DFACE
  8
0
  6
CONTINUOUS
 62
   249
 10
79.650781
 20
161.844396
 30
0.0
 11
79.663715
 21
161.835415
 31
0.0
 12
79.663715
 22
163.171009
 32
0.0
 13
79.650781
 23
163.161941
 33
0.0
  0
3DFACE
  8
0
  6
CONTINUOUS
 62
   249
 10
79.663715
 20
161.835415
 30
0.0
 11
79.676649
 21
161.826434
 31
0.0
 12
79.676649
 22
163.180077
 32
0.0
 13
79.663715
 23
163.171009
 33
0.0
  0
3DFACE
  8
0
  6
CONTINUOUS
 62
   249
 10
79.676649
 20
161.826434
 30
0.0
 11
79.689583
 21
161.817453
 31
0.0
 12
79.689583
 22
163.189144
 32
0.0
 13
79.676649
 23
163.180077
 33
0.0
  0
3DFACE
  8
0
  6
CONTINUOUS
 62
   249
 10
79.689583
 20
161.817453
 30
0.0
 11
79.702517
 21
161.808473
 31
0.0
 12
79.702517
 22
163.198212
 32
0.0
 13
79.689583
 23
163.189144
 33
0.0
  0
3DFACE
  8
0
  6
CONTINUOUS
 62
   249
 10
79.702517
 20
161.808473
 30
0.0
 11
79.715451
 21
161.799492
 31
0.0
 12
79.715451
 22
163.20728
 32
0.0
 13
79.702517
 23
163.198212
 33
0.0
  0
3DFACE
  8
0
  6
CONTINUOUS
 62
   249
 10
79.715451
 20
161.799492
 30
0.0
 11
79.728385
 21
161.790511
 31
0.0
 12
79.728385
 22
163.216347
 32
0.0
 13
79.715451
 23
163.20728
 33
0.0
  0
3DFACE
  8
0
  6
CONTINUOUS
 62
   249
 10
79.728385
 20
161.790511
 30
0.0
 11
79.741319
 21
161.78153
 31
0.0
 12
79.741319
 22
163.225415
 32
0.0
 13
79.728385
 23
163.216347
 33
0.0
  0
3DFACE
  8
0
  6
CONTINUOUS
 62
   249
 10
79.741319
 20
161.78153
 30
0.0
 11
79.754253
 21
161.772549
 31
0.0
 12
79.754253
 22
163.234483
 32
0.0
 13
79.741319
 23
163.225415
 33
0.0
  0
3DFACE
  8
0
  6
CONTINUOUS
 62
   249
 10
79.754253
 20
161.772549
 30
0.0
 11
79.767188
 21
161.763568
 31
0.0
 12
79.767188
 22
163.24355
 32
0.0
 13
79.754253
 23
163.234483
 33
0.0
  0
3DFACE
  8
0
  6
CONTINUOUS
 62
   249
 10
79.767188
 20
161.763568
 30
0.0
 11
79.780122
 21
161.754587
 31
0.0
 12
79.780122
 22
163.252618
 32
0.0
 13
79.767188
 23
163.24355
 33
0.0
  0
3DFACE
  8
0
  6
CONTINUOUS
 62
   249
 10
79.780122
 20
161.754587
 30
0.0
 11
79.793056
 21
161.745606
 31
0.0
 12
79.793056
 22
163.261686
 32
0.0
 13
79.780122
 23
163.252618
 33
0.0
  0
3DFACE
  8
0
  6
CONTINUOUS
 62
   249
 10
79.793056
 20
161.745606
 30
0.0
 11
79.80599
 21
161.736626
 31
0.0
 12
79.80599
 22
163.270754
 32
0.0
 13
79.793056
 23
163.261686
 33
0.0
  0
3DFACE
  8
0
  6
CONTINUOUS
 62
   249
 10
79.80599
 20
161.736626
 30
0.0
 11
79.818924
 21
161.727645
 31
0.0
 12
79.818924
 22
163.279821
 32
0.0
 13
79.80599
 23
163.270754
 33
0.0
  0
3DFACE
  8
0
  6
CONTINUOUS
 62
   249
 10
79.818924
 20
161.727645
 30
0.0
 11
79.831858
 21
161.718664
 31
0.0
 12
79.831858
 22
163.288889
 32
0.0
 13
79.818924
 23
163.279821
 33
0.0
  0
3DFACE
  8
0
  6
CONTINUOUS
 62
   249
 10
79.831858
 20
161.718664
 30
0.0
 11
79.844792
 21
161.709683
 31
0.0
 12
79.844792
 22
163.297957
 32
0.0
 13
79.831858
 23
163.288889
 33
0.0
  0
3DFACE
  8
0
  6
CONTINUOUS
 62
   249
 10
79.844792
 20
161.709683
 30
0.0
 11
79.857726
 21
161.700702
 31
0.0
 12
79.857726
 22
163.307024
 32
0.0
 13
79.844792
 23
163.297957
 33
0.0
  0
3DFACE
  8
0
  6
CONTINUOUS
 62
   249
 10
79.857726
 20
161.700702
 30
0.0
 11
79.87066
 21
161.691721
 31
0.0
 12
79.87066
 22
163.316092
 32
0.0
 13
79.857726
 23
163.307024
 33
0.0
  0
3DFACE
  8
0
  6
CONTINUOUS
 62
   249
 10
79.87066
 20
161.691721
 30
0.0
 11
79.883594
 21
161.68274
 31
0.0
 12
79.883594
 22
163.32516
 32
0.0
 13
79.87066
 23
163.316092
 33
0.0
  0
3DFACE
  8
0
  6
CONTINUOUS
 62
   249
 10
79.883594
 20
161.68274
 30
0.0
 11
79.896528
 21
161.673759
 31
0.0
 12
79.896528
 22
163.334227
 32
0.0
 13
79.883594
 23
163.32516
 33
0.0
  0
3DFACE
  8
0
  6
CONTINUOUS
 62
   249
 10
79.896528
 20
161.673759
 30
0.0
 11
79.909462
 21
161.664779
 31
0.0
 12
79.909462
 22
163.343295
 32
0.0
 13
79.896528
 23
163.334227
 33
0.0
  0
3DFACE
  8
0
  6
CONTINUOUS
 62
   249
 10
79.909462
 20
161.664779
 30
0.0
 11
79.922396
 21
161.655798
 31
0.0
 12
79.922396
 22
163.352363
 32
0.0
 13
79.909462
 23
163.343295
 33
0.0
  0
3DFACE
  8
0
  6
CONTINUOUS
 62
   249
 10
79.922396
 20
161.655798
 30
0.0
 11
79.93533
 21
161.646817
 31
0.0
 12
79.93533
 22
163.36143
 32
0.0
 13
79.922396
 23
163.352363
 33
0.0
  0
3DFACE
  8
0
  6
CONTINUOUS
 62
   249
 10
79.93533
 20
161.646817
 30
0.0
 11
79.948264
 21
161.637836
 31
0.0
 12
79.948264
 22
163.370498
 32
0.0
 13
79.93533
 23
163.36143
 33
0.0
  0
3DFACE
  8
0
  6
CONTINUOUS
 62
   249
 10
79.948264
 20
161.637836
 30
0.0
 11
79.961198
 21
161.628855
 31
0.0
 12
79.961198
 22
163.379566
 32
0.0
 13
79.948264
 23
163.370498
 33
0.0
  0
3DFACE
  8
0
  6
CONTINUOUS
 62
   249
 10
79.961198
 20
161.628855
 30
0.0
 11
79.974132
 21
161.619874
 31
0.0
 12
79.974132
 22
163.388633
 32
0.0
 13
79.961198
 23
163.379566
 33
0.0
  0
3DFACE
  8
0
  6
CONTINUOUS
 62
   249
 10
79.974132
 20
161.619874
 30
0.0
 11
79.987066
 21
161.610893
 31
0.0
 12
79.987066
 22
163.397701
 32
0.0
 13
79.974132
 23
163.388633
 33
0.0
  0
3DFACE
  8
0
  6
CONTINUOUS
 62
   249
 10
79.987066
 20
161.610893
 30
0.0
 11
80.0
 21
161.601912
 31
0.0
 12
80.0
 22
163.406769
 32
0.0
 13
79.987066
 23
163.397701
 33
0.0
  0
ARC
  8
0
  6
CONTINUOUS
 62
   249
 10
102.5
 20
178.893212
 30
0.0
 40
0.5
 50
180.0
 51
0.0
  0
ARC
  8
0
  6
CONTINUOUS
 62
   249
 10
102.5
 20
178.893212
 30
0.0
 40
0.5
 50
0.0
 51
180.0
  0
ARC
  8
0
  6
CONTINUOUS
 62
   249
 10
100.0
 20
186.731945
 30
0.0
 40
0.5
 50
180.0
 51
0.0
  0
ARC
  8
0
  6
CONTINUOUS
 62
   249
 10
100.0
 20
186.731945
 30
0.0
 40
0.5
 50
0.0
 51
180.0
  0
ARC
  8
0
  6
CONTINUOUS
 62
   249
 10
97.5
 20
204.18117
 30
0.0
 40
0.5
 50
180.0
 51
0.0
  0
ARC
  8
0
  6
CONTINUOUS
 62
   249
 10
97.5
 20
204.18117
 30
0.0
 40
0.5
 50
0.0
 51
180.0
  0
ARC
  8
0
  6
CONTINUOUS
 62
   249
 10
117.5
 20
178.893212
 30
0.0
 40
0.5
 50
180.0
 51
0.0
  0
ARC
  8
0
  6
CONTINUOUS
 62
   249
 10
117.5
 20
178.893212
 30
0.0
 40
0.5
 50
0.0
 51
180.0
  0
ARC
  8
0
  6
CONTINUOUS
 62
   249
 10
115.0
 20
186.731945
 30
0.0
 40
0.5
 50
180.0
 51
0.0
  0
ARC
  8
0
  6
CONTINUOUS
 62
   249
 10
115.0
 20
186.731945
 30
0.0
 40
0.5
 50
0.0
 51
180.0
  0
ARC
  8
0
  6
CONTINUOUS
 62
   249
 10
112.5
 20
204.18117
 30
0.0
 40
0.5
 50
180.0
 51
0.0
  0
ARC
  8
0
  6
CONTINUOUS
 62
   249
 10
112.5
 20
204.18117
 30
0.0
 40
0.5
 50
0.0
 51
180.0
  0
LINE
  8
0
  6
CONTINUOUS
 62
   249
 10
178.835331
 20
151.332288
 30
0.0
 11
177.499977
 21
148.986522
 31
0.0
  0
LINE
  8
0
  6
CONTINUOUS
 62
   249
 10
177.499977
 20
148.986522
 30
0.0
 11
176.310058
 21
151.332288
 31
0.0
  0
ARC
  8
0
  6
CONTINUOUS
 62
   249
 10
160.0
 20
178.893212
 30
0.0
 40
0.5
 50
180.0
 51
0.0
  0
ARC
  8
0
  6
CONTINUOUS
 62
   249
 10
160.0
 20
178.893212
 30
0.0
 40
0.5
 50
0.0
 51
180.0
  0
ARC
  8
0
  6
CONTINUOUS
 62
   249
 10
157.5
 20
186.731945
 30
0.0
 40
0.5
 50
180.0
 51
0.0
  0
ARC
  8
0
  6
CONTINUOUS
 62
   249
 10
157.5
 20
186.731945
 30
0.0
 40
0.5
 50
0.0
 51
180.0
  0
ARC
  8
0
  6
CONTINUOUS
 62
   249
 10
150.0
 20
204.18117
 30
0.0
 40
0.5
 50
180.0
 51
0.0
  0
ARC
  8
0
  6
CONTINUOUS
 62
   249
 10
150.0
 20
204.18117
 30
0.0
 40
0.5
 50
0.0
 51
180.0
  0
ARC
  8
0
  6
CONTINUOUS
 62
   249
 10
147.5
 20
212.5
 30
0.0
 40
0.5
 50
180.0
 51
0.0
  0
ARC
  8
0
  6
CONTINUOUS
 62
   249
 10
147.5
 20
212.5
 30
0.0
 40
0.5
 50
0.0
 51
180.0
  0
ARC
  8
0
  6
CONTINUOUS
 62
   249
 10
155.0
 20
195.0
 30
0.0
 40
0.5
 50
180.0
 51
0.0
  0
ARC
  8
0
  6
CONTINUOUS
 62
   249
 10
155.0
 20
195.0
 30
0.0
 40
0.5
 50
0.0
 51
180.0
  0
ARC
  8
0
  6
CONTINUOUS
 62
   249
 10
152.5
 20
200.0
 30
0.0
 40
0.5
 50
180.0
 51
0.0
  0
ARC
  8
0
  6
CONTINUOUS
 62
   249
 10
152.5
 20
200.0
 30
0.0
 40
0.5
 50
0.0
 51
180.0
  0
ARC
  8
0
  6
CONTINUOUS
 62
   249
 10
170.0
 20
182.670555
 30
0.0
 40
0.5
 50
180.0
 51
0.0
  0
ARC
  8
0
  6
CONTINUOUS
 62
   249
 10
170.0
 20
182.670555
 30
0.0
 40
0.5
 50
0.0
 51
180.0
  0
ARC
  8
0
  6
CONTINUOUS
 62
   249
 10
170.0
 20
173.219573
 30
0.0
 40
0.5
 50
180.0
 51
0.0
  0
ARC
  8
0
  6
CONTINUOUS
 62
   249
 10
170.0
 20
173.219573
 30
0.0
 40
0.5
 50
0.0
 51
180.0
  0
ARC
  8
0
  6
CONTINUOUS
 62
   249
 10
170.0
 20
190.377043
 30
0.0
 40
0.5
 50
180.0
 51
0.0
  0
ARC
  8
0
  6
CONTINUOUS
 62
   249
 10
170.0
 20
190.377043
 30
0.0
 40
0.5
 50
0.0
 51
180.0
  0
LINE
  8
0
  6
CONTINUOUS
 62
   249
 10
185.266539
 20
177.55792
 30
0.0
 11
182.920774
 21
178.893273
 31
0.0
  0
LINE
  8
0
  6
CONTINUOUS
 62
   249
 10
182.920774
 20
178.893273
 30
0.0
 11
185.266539
 21
180.083193
 31
0.0
  0
LINE
  8
0
  6
CONTINUOUS
 62
   249
 10
191.673289
 20
177.822821
 30
0.0
 11
192.560175
 21
177.822821
 31
0.0
  0
LINE
  8
0
  6
CONTINUOUS
 62
   249
 10
191.342184
 20
178.434454
 30
0.0
 11
192.926755
 21
178.434454
 31
0.0
  0
LINE
  8
0
  6
CONTINUOUS
 62
   249
 10
192.15812
 20
179.056516
 30
0.0
 11
193.352461
 21
179.056516
 31
0.0
  0
LINE
  8
0
  6
CONTINUOUS
 62
   249
 10
190.963779
 20
179.056516
 30
0.0
 11
192.15812
 21
179.056516
 31
0.0
  0
LINE
  8
0
  6
CONTINUOUS
 62
   249
 10
192.174007
 20
180.410787
 30
0.0
 11
192.174007
 21
179.056516
 31
0.0
  0
LINE
  8
0
  6
CONTINUOUS
 62
   249
 10
185.266539
 20
185.396523
 30
0.0
 11
182.920774
 21
186.731877
 31
0.0
  0
LINE
  8
0
  6
CONTINUOUS
 62
   249
 10
182.920774
 20
186.731877
 30
0.0
 11
185.266539
 21
187.921796
 31
0.0
  0
LINE
  8
0
  6
CONTINUOUS
 62
   249
 10
191.673289
 20
185.521769
 30
0.0
 11
192.560175
 21
185.521769
 31
0.0
  0
LINE
  8
0
  6
CONTINUOUS
 62
   249
 10
191.342184
 20
186.133402
 30
0.0
 11
192.926755
 21
186.133402
 31
0.0
  0
LINE
  8
0
  6
CONTINUOUS
 62
   249
 10
192.15812
 20
186.755464
 30
0.0
 11
193.352461
 21
186.755464
 31
0.0
  0
LINE
  8
0
  6
CONTINUOUS
 62
   249
 10
190.963779
 20
186.755464
 30
0.0
 11
192.15812
 21
186.755464
 31
0.0
  0
LINE
  8
0
  6
CONTINUOUS
 62
   249
 10
192.174007
 20
188.109734
 30
0.0
 11
192.174007
 21
186.755464
 31
0.0
  0
ARC
  8
0
  6
CONTINUOUS
 62
   249
 10
170.0
 20
207.909512
 30
0.0
 40
0.5
 50
180.0
 51
0.0
  0
ARC
  8
0
  6
CONTINUOUS
 62
   249
 10
170.0
 20
207.909512
 30
0.0
 40
0.5
 50
0.0
 51
180.0
  0
LINE
  8
0
  6
CONTINUOUS
 62
   249
 10
185.266539
 20
202.845803
 30
0.0
 11
182.920774
 21
204.181157
 31
0.0
  0
LINE
  8
0
  6
CONTINUOUS
 62
   249
 10
182.920774
 20
204.181157
 30
0.0
 11
185.266539
 21
205.371076
 31
0.0
  0
LINE
  8
0
  6
CONTINUOUS
 62
   249
 10
185.266539
 20
193.664654
 30
0.0
 11
182.920774
 21
195.000008
 31
0.0
  0
LINE
  8
0
  6
CONTINUOUS
 62
   249
 10
182.920774
 20
195.000008
 30
0.0
 11
185.266539
 21
196.189927
 31
0.0
  0
LINE
  8
0
  6
CONTINUOUS
 62
   249
 10
185.266539
 20
198.664575
 30
0.0
 11
182.920774
 21
199.999929
 31
0.0
  0
LINE
  8
0
  6
CONTINUOUS
 62
   249
 10
182.920774
 20
199.999929
 30
0.0
 11
185.266539
 21
201.189848
 31
0.0
  0
LINE
  8
0
  6
CONTINUOUS
 62
   249
 10
191.673289
 20
192.951946
 30
0.0
 11
192.560175
 21
192.951946
 31
0.0
  0
LINE
  8
0
  6
CONTINUOUS
 62
   249
 10
191.342184
 20
193.56358
 30
0.0
 11
192.926755
 21
193.56358
 31
0.0
  0
LINE
  8
0
  6
CONTINUOUS
 62
   249
 10
192.15812
 20
194.185642
 30
0.0
 11
193.352461
 21
194.185642
 31
0.0
  0
LINE
  8
0
  6
CONTINUOUS
 62
   249
 10
190.963779
 20
194.185642
 30
0.0
 11
192.15812
 21
194.185642
 31
0.0
  0
LINE
  8
0
  6
CONTINUOUS
 62
   249
 10
192.174007
 20
195.539912
 30
0.0
 11
192.174007
 21
194.185642
 31
0.0
  0
LINE
  8
0
  6
CONTINUOUS
 62
   249
 10
191.673289
 20
198.266648
 30
0.0
 11
192.560175
 21
198.266648
 31
0.0
  0
LINE
  8
0
  6
CONTINUOUS
 62
   249
 10
191.342184
 20
198.878281
 30
0.0
 11
192.926755
 21
198.878281
 31
0.0
  0
LINE
  8
0
  6
CONTINUOUS
 62
   249
 10
192.15812
 20
199.500343
 30
0.0
 11
193.352461
 21
199.500343
 31
0.0
  0
LINE
  8
0
  6
CONTINUOUS
 62
   249
 10
190.963779
 20
199.500343
 30
0.0
 11
192.15812
 21
199.500343
 31
0.0
  0
LINE
  8
0
  6
CONTINUOUS
 62
   249
 10
192.174007
 20
200.854613
 30
0.0
 11
192.174007
 21
199.500343
 31
0.0
  0
ARC
  8
0
  6
CONTINUOUS
 62
   249
 10
95.0
 20
216.639282
 30
0.0
 40
0.5
 50
180.0
 51
0.0
  0
ARC
  8
0
  6
CONTINUOUS
 62
   249
 10
95.0
 20
216.639282
 30
0.0
 40
0.5
 50
0.0
 51
180.0
  0
ARC
  8
0
  6
CONTINUOUS
 62
   249
 10
110.0
 20
216.639282
 30
0.0
 40
0.5
 50
180.0
 51
0.0
  0
ARC
  8
0
  6
CONTINUOUS
 62
   249
 10
110.0
 20
216.639282
 30
0.0
 40
0.5
 50
0.0
 51
180.0
  0
ARC
  8
0
  6
CONTINUOUS
 62
   249
 10
145.0
 20
216.639282
 30
0.0
 40
0.5
 50
180.0
 51
0.0
  0
ARC
  8
0
  6
CONTINUOUS
 62
   249
 10
145.0
 20
216.639282
 30
0.0
 40
0.5
 50
0.0
 51
180.0
  0
ARC
  8
0
  6
CONTINUOUS
 62
   249
 10
142.5
 20
225.0
 30
0.0
 40
0.5
 50
180.0
 51
0.0
  0
ARC
  8
0
  6
CONTINUOUS
 62
   249
 10
142.5
 20
225.0
 30
0.0
 40
0.5
 50
0.0
 51
180.0
  0
ARC
  8
0
  6
CONTINUOUS
 62
   249
 10
170.0
 20
220.631988
 30
0.0
 40
0.5
 50
180.0
 51
0.0
  0
ARC
  8
0
  6
CONTINUOUS
 62
   249
 10
170.0
 20
220.631988
 30
0.0
 40
0.5
 50
0.0
 51
180.0
  0
LINE
  8
0
  6
CONTINUOUS
 62
   249
 10
185.266539
 20
223.664637
 30
0.0
 11
182.920774
 21
224.999991
 31
0.0
  0
LINE
  8
0
  6
CONTINUOUS
 62
   249
 10
182.920774
 20
224.999991
 30
0.0
 11
185.266539
 21
226.18991
 31
0.0
  0
LINE
  8
0
  6
CONTINUOUS
 62
   249
 10
185.266539
 20
215.30467
 30
0.0
 11
182.920774
 21
216.640024
 31
0.0
  0
LINE
  8
0
  6
CONTINUOUS
 62
   249
 10
182.920774
 20
216.640024
 30
0.0
 11
185.266539
 21
217.829943
 31
0.0
  0
INSERT
  8
0
  6
CENTER
 62
   249
  2
BLC5
 10
225.291926
 20
43.342005
 30
0.0
 41
0.6
 42
0.6
 43
0.6
  0
LINE
  8
0
 62
   249
 10
207.479007
 20
40.783527
 30
0.0
 11
211.479007
 21
40.783527
 31
0.0
  0
INSERT
  8
0
 62
   249
  2
WKU130
 10
207.818957
 20
39.057974
 30
0.0
 41
0.8
 42
0.8
 43
0.8
  0
TEXT
  8
0
  6
CONTINUOUS
 62
   249
 10
199.344763
 20
41.50558
 30
0.0
 40
2.0
  1
-
  0
TEXT
  8
0
  6
CONTINUOUS
 62
   249
 10
206.853328
 20
41.513635
 30
0.0
 40
2.0
  1
+
  0
TEXT
  8
0
  6
CONTINUOUS
 62
   249
 10
211.844763
 20
41.50558
 30
0.0
 40
2.0
  1
-
  0
LINE
  8
0
 62
   249
 10
235.0
 20
210.0
 30
0.0
 11
233.480133
 21
210.0
 31
0.0
  0
ARC
  8
0
 62
   249
 10
235.065849
 20
211.25
 30
0.0
 40
1.251733
 50
266.984476
 51
93.015524
  0
LINE
  8
0
 62
   249
 10
235.0
 20
212.5
 30
0.0
 11
233.480133
 21
212.5
 31
0.0
  0
LINE
  8
0
 62
   249
 10
235.0
 20
215.0
 30
0.0
 11
233.480133
 21
215.0
 31
0.0
  0
ARC
  8
0
 62
   249
 10
235.065849
 20
213.75
 30
0.0
 40
1.251733
 50
266.984476
 51
93.015524
  0
LINE
  8
0
 62
   249
 10
240.0
 20
207.5
 30
0.0
 11
242.5
 21
207.5
 31
0.0
  0
ARC
  8
0
 62
   249
 10
239.934151
 20
208.75
 30
0.0
 40
1.251733
 50
86.984476
 51
273.015524
  0
ARC
  8
0
 62
   249
 10
239.934151
 20
211.25
 30
0.0
 40
1.251733
 50
86.984476
 51
273.015524
  0
LINE
  8
0
 62
   249
 10
240.0
 20
210.0
 30
0.0
 11
242.5
 21
210.0
 31
0.0
  0
LINE
  8
0
 62
   249
 10
240.0
 20
212.5
 30
0.0
 11
242.5
 21
212.5
 31
0.0
  0
LINE
  8
0
 62
   249
 10
242.5
 20
212.5
 30
0.0
 11
245.0
 21
212.5
 31
0.0
  0
LINE
  8
0
 62
   249
 10
242.5
 20
207.5
 30
0.0
 11
245.0
 21
207.5
 31
0.0
  0
LINE
  8
0
 62
   249
 10
242.5
 20
212.5
 30
0.0
 11
245.0
 21
212.5
 31
0.0
  0
LINE
  8
0
 62
   249
 10
242.5
 20
217.5
 30
0.0
 11
245.0
 21
217.5
 31
0.0
  0
LINE
  8
0
 62
   249
 10
240.0
 20
217.5
 30
0.0
 11
242.5
 21
217.5
 31
0.0
  0
LINE
  8
0
 62
   249
 10
240.0
 20
215.0
 30
0.0
 11
242.5
 21
215.0
 31
0.0
  0
ARC
  8
0
 62
   249
 10
239.934151
 20
216.25
 30
0.0
 40
1.251733
 50
86.984476
 51
273.015524
  0
ARC
  8
0
 62
   249
 10
239.934151
 20
213.75
 30
0.0
 40
1.251733
 50
86.984476
 51
273.015524
  0
LINE
  8
0
 62
   249
 10
240.0
 20
212.5
 30
0.0
 11
242.5
 21
212.5
 31
0.0
  0
LINE
  8
0
 62
   249
 10
235.0
 20
170.0
 30
0.0
 11
233.480133
 21
170.0
 31
0.0
  0
ARC
  8
0
 62
   249
 10
235.065849
 20
171.25
 30
0.0
 40
1.251733
 50
266.984476
 51
93.015524
  0
LINE
  8
0
 62
   249
 10
235.0
 20
172.5
 30
0.0
 11
233.480133
 21
172.5
 31
0.0
  0
LINE
  8
0
 62
   249
 10
235.0
 20
175.0
 30
0.0
 11
233.480133
 21
175.0
 31
0.0
  0
ARC
  8
0
 62
   249
 10
235.065849
 20
173.75
 30
0.0
 40
1.251733
 50
266.984476
 51
93.015524
  0
LINE
  8
0
 62
   249
 10
240.0
 20
167.5
 30
0.0
 11
242.5
 21
167.5
 31
0.0
  0
ARC
  8
0
 62
   249
 10
239.934151
 20
168.75
 30
0.0
 40
1.251733
 50
86.984476
 51
273.015524
  0
ARC
  8
0
 62
   249
 10
239.934151
 20
171.25
 30
0.0
 40
1.251733
 50
86.984476
 51
273.015524
  0
LINE
  8
0
 62
   249
 10
240.0
 20
170.0
 30
0.0
 11
242.5
 21
170.0
 31
0.0
  0
LINE
  8
0
 62
   249
 10
240.0
 20
172.5
 30
0.0
 11
242.5
 21
172.5
 31
0.0
  0
LINE
  8
0
 62
   249
 10
242.5
 20
172.5
 30
0.0
 11
245.0
 21
172.5
 31
0.0
  0
LINE
  8
0
 62
   249
 10
242.5
 20
167.5
 30
0.0
 11
245.0
 21
167.5
 31
0.0
  0
LINE
  8
0
 62
   249
 10
242.5
 20
172.5
 30
0.0
 11
245.0
 21
172.5
 31
0.0
  0
LINE
  8
0
 62
   249
 10
242.5
 20
177.5
 30
0.0
 11
245.0
 21
177.5
 31
0.0
  0
LINE
  8
0
 62
   249
 10
240.0
 20
177.5
 30
0.0
 11
242.5
 21
177.5
 31
0.0
  0
LINE
  8
0
 62
   249
 10
240.0
 20
175.0
 30
0.0
 11
242.5
 21
175.0
 31
0.0
  0
ARC
  8
0
 62
   249
 10
239.934151
 20
176.25
 30
0.0
 40
1.251733
 50
86.984476
 51
273.015524
  0
ARC
  8
0
 62
   249
 10
239.934151
 20
173.75
 30
0.0
 40
1.251733
 50
86.984476
 51
273.015524
  0
LINE
  8
0
 62
   249
 10
240.0
 20
172.5
 30
0.0
 11
242.5
 21
172.5
 31
0.0
  0
LINE
  8
0
  6
CONTINUOUS
 62
   249
 10
224.489729
 20
161.164649
 30
0.0
 11
222.143963
 21
162.500003
 31
0.0
  0
LINE
  8
0
  6
CONTINUOUS
 62
   249
 10
222.143963
 20
162.500003
 30
0.0
 11
224.489729
 21
163.689922
 31
0.0
  0
LINE
  8
0
  6
CONTINUOUS
 62
   249
 10
228.133044
 20
163.835351
 30
0.0
 11
230.47881
 21
162.499997
 31
0.0
  0
LINE
  8
0
  6
CONTINUOUS
 62
   249
 10
230.47881
 20
162.499997
 30
0.0
 11
228.133044
 21
161.310078
 31
0.0
  0
3DFACE
  8
0
  6
CONTINUOUS
 62
   249
 10
251.819436
 20
157.01
 30
0.0
 11
251.833156
 21
157.01
 31
0.0
 12
251.833156
 22
157.99
 32
0.0
 13
251.819436
 23
157.99
 33
0.0
  0
3DFACE
  8
0
  6
CONTINUOUS
 62
   249
 10
251.833156
 20
157.01
 30
0.0
 11
251.846876
 21
157.01
 31
0.0
 12
251.846876
 22
157.99
 32
0.0
 13
251.833156
 23
157.99
 33
0.0
  0
3DFACE
  8
0
  6
CONTINUOUS
 62
   249
 10
251.846876
 20
157.01
 30
0.0
 11
251.860596
 21
157.01
 31
0.0
 12
251.860596
 22
157.99
 32
0.0
 13
251.846876
 23
157.99
 33
0.0
  0
3DFACE
  8
0
  6
CONTINUOUS
 62
   249
 10
251.860596
 20
157.01
 30
0.0
 11
251.874316
 21
157.01
 31
0.0
 12
251.874316
 22
157.99
 32
0.0
 13
251.860596
 23
157.99
 33
0.0
  0
3DFACE
  8
0
  6
CONTINUOUS
 62
   249
 10
251.874316
 20
157.01
 30
0.0
 11
251.888036
 21
157.01
 31
0.0
 12
251.888036
 22
157.99
 32
0.0
 13
251.874316
 23
157.99
 33
0.0
  0
3DFACE
  8
0
  6
CONTINUOUS
 62
   249
 10
251.888036
 20
157.01
 30
0.0
 11
251.901756
 21
157.01
 31
0.0
 12
251.901756
 22
157.99
 32
0.0
 13
251.888036
 23
157.99
 33
0.0
  0
3DFACE
  8
0
  6
CONTINUOUS
 62
   249
 10
251.901756
 20
157.01
 30
0.0
 11
251.915476
 21
157.01
 31
0.0
 12
251.915476
 22
157.99
 32
0.0
 13
251.901756
 23
157.99
 33
0.0
  0
3DFACE
  8
0
  6
CONTINUOUS
 62
   249
 10
251.915476
 20
157.01
 30
0.0
 11
251.929196
 21
157.01
 31
0.0
 12
251.929196
 22
157.99
 32
0.0
 13
251.915476
 23
157.99
 33
0.0
  0
3DFACE
  8
0
  6
CONTINUOUS
 62
   249
 10
251.929196
 20
157.01
 30
0.0
 11
251.942916
 21
157.01
 31
0.0
 12
251.942916
 22
157.99
 32
0.0
 13
251.929196
 23
157.99
 33
0.0
  0
3DFACE
  8
0
  6
CONTINUOUS
 62
   249
 10
251.942916
 20
157.01
 30
0.0
 11
251.956636
 21
157.01
 31
0.0
 12
251.956636
 22
157.99
 32
0.0
 13
251.942916
 23
157.99
 33
0.0
  0
3DFACE
  8
0
  6
CONTINUOUS
 62
   249
 10
251.956636
 20
157.01
 30
0.0
 11
251.970356
 21
157.01
 31
0.0
 12
251.970356
 22
157.99
 32
0.0
 13
251.956636
 23
157.99
 33
0.0
  0
3DFACE
  8
0
  6
CONTINUOUS
 62
   249
 10
251.970356
 20
157.01
 30
0.0
 11
251.984076
 21
157.01
 31
0.0
 12
251.984076
 22
157.99
 32
0.0
 13
251.970356
 23
157.99
 33
0.0
  0
3DFACE
  8
0
  6
CONTINUOUS
 62
   249
 10
251.984076
 20
157.01
 30
0.0
 11
251.997796
 21
157.01
 31
0.0
 12
251.997796
 22
157.99
 32
0.0
 13
251.984076
 23
157.99
 33
0.0
  0
3DFACE
  8
0
  6
CONTINUOUS
 62
   249
 10
251.997796
 20
157.01
 30
0.0
 11
252.011516
 21
157.01
 31
0.0
 12
252.011516
 22
157.99
 32
0.0
 13
251.997796
 23
157.99
 33
0.0
  0
3DFACE
  8
0
  6
CONTINUOUS
 62
   249
 10
252.011516
 20
157.01
 30
0.0
 11
252.025236
 21
157.01
 31
0.0
 12
252.025236
 22
157.99
 32
0.0
 13
252.011516
 23
157.99
 33
0.0
  0
3DFACE
  8
0
  6
CONTINUOUS
 62
   249
 10
252.025236
 20
157.01
 30
0.0
 11
252.038956
 21
157.01
 31
0.0
 12
252.038956
 22
157.99
 32
0.0
 13
252.025236
 23
157.99
 33
0.0
  0
3DFACE
  8
0
  6
CONTINUOUS
 62
   249
 10
252.038956
 20
157.01
 30
0.0
 11
252.052676
 21
157.01
 31
0.0
 12
252.052676
 22
157.99
 32
0.0
 13
252.038956
 23
157.99
 33
0.0
  0
3DFACE
  8
0
  6
CONTINUOUS
 62
   249
 10
252.052676
 20
157.01
 30
0.0
 11
252.066396
 21
157.01
 31
0.0
 12
252.066396
 22
157.99
 32
0.0
 13
252.052676
 23
157.99
 33
0.0
  0
3DFACE
  8
0
  6
CONTINUOUS
 62
   249
 10
252.066396
 20
157.01
 30
0.0
 11
252.080116
 21
157.01
 31
0.0
 12
252.080116
 22
157.99
 32
0.0
 13
252.066396
 23
157.99
 33
0.0
  0
3DFACE
  8
0
  6
CONTINUOUS
 62
   249
 10
252.080116
 20
157.01
 30
0.0
 11
252.093836
 21
157.01
 31
0.0
 12
252.093836
 22
157.99
 32
0.0
 13
252.080116
 23
157.99
 33
0.0
  0
3DFACE
  8
0
  6
CONTINUOUS
 62
   249
 10
252.093836
 20
157.01
 30
0.0
 11
252.107556
 21
157.01
 31
0.0
 12
252.107556
 22
157.99
 32
0.0
 13
252.093836
 23
157.99
 33
0.0
  0
3DFACE
  8
0
  6
CONTINUOUS
 62
   249
 10
252.107556
 20
157.01
 30
0.0
 11
252.121276
 21
157.01
 31
0.0
 12
252.121276
 22
157.99
 32
0.0
 13
252.107556
 23
157.99
 33
0.0
  0
3DFACE
  8
0
  6
CONTINUOUS
 62
   249
 10
252.121276
 20
157.01
 30
0.0
 11
252.134996
 21
157.01
 31
0.0
 12
252.134996
 22
157.99
 32
0.0
 13
252.121276
 23
157.99
 33
0.0
  0
3DFACE
  8
0
  6
CONTINUOUS
 62
   249
 10
252.134996
 20
157.01
 30
0.0
 11
252.148716
 21
157.01
 31
0.0
 12
252.148716
 22
157.99
 32
0.0
 13
252.134996
 23
157.99
 33
0.0
  0
3DFACE
  8
0
  6
CONTINUOUS
 62
   249
 10
252.148716
 20
157.01
 30
0.0
 11
252.162436
 21
157.01
 31
0.0
 12
252.162436
 22
157.99
 32
0.0
 13
252.148716
 23
157.99
 33
0.0
  0
3DFACE
  8
0
  6
CONTINUOUS
 62
   249
 10
252.162436
 20
157.01
 30
0.0
 11
252.176156
 21
157.01
 31
0.0
 12
252.176156
 22
157.99
 32
0.0
 13
252.162436
 23
157.99
 33
0.0
  0
3DFACE
  8
0
  6
CONTINUOUS
 62
   249
 10
252.176156
 20
157.01
 30
0.0
 11
252.189876
 21
157.01
 31
0.0
 12
252.189876
 22
157.99
 32
0.0
 13
252.176156
 23
157.99
 33
0.0
  0
3DFACE
  8
0
  6
CONTINUOUS
 62
   249
 10
252.189876
 20
157.01
 30
0.0
 11
252.203596
 21
157.01
 31
0.0
 12
252.203596
 22
157.99
 32
0.0
 13
252.189876
 23
157.99
 33
0.0
  0
3DFACE
  8
0
  6
CONTINUOUS
 62
   249
 10
252.203596
 20
157.01
 30
0.0
 11
252.217316
 21
157.01
 31
0.0
 12
252.217316
 22
157.99
 32
0.0
 13
252.203596
 23
157.99
 33
0.0
  0
3DFACE
  8
0
  6
CONTINUOUS
 62
   249
 10
252.217316
 20
157.01
 30
0.0
 11
252.231036
 21
157.01
 31
0.0
 12
252.231036
 22
157.99
 32
0.0
 13
252.217316
 23
157.99
 33
0.0
  0
3DFACE
  8
0
  6
CONTINUOUS
 62
   249
 10
252.231036
 20
157.01
 30
0.0
 11
252.244756
 21
157.01
 31
0.0
 12
252.244756
 22
157.99
 32
0.0
 13
252.231036
 23
157.99
 33
0.0
  0
3DFACE
  8
0
  6
CONTINUOUS
 62
   249
 10
252.244756
 20
157.01
 30
0.0
 11
252.258476
 21
157.01
 31
0.0
 12
252.258476
 22
157.99
 32
0.0
 13
252.244756
 23
157.99
 33
0.0
  0
3DFACE
  8
0
  6
CONTINUOUS
 62
   249
 10
252.258476
 20
157.01
 30
0.0
 11
252.272196
 21
157.01
 31
0.0
 12
252.272196
 22
157.99
 32
0.0
 13
252.258476
 23
157.99
 33
0.0
  0
3DFACE
  8
0
  6
CONTINUOUS
 62
   249
 10
252.272196
 20
157.01
 30
0.0
 11
252.285916
 21
157.01
 31
0.0
 12
252.285916
 22
157.99
 32
0.0
 13
252.272196
 23
157.99
 33
0.0
  0
3DFACE
  8
0
  6
CONTINUOUS
 62
   249
 10
252.285916
 20
157.01
 30
0.0
 11
252.299636
 21
157.01
 31
0.0
 12
252.299636
 22
157.99
 32
0.0
 13
252.285916
 23
157.99
 33
0.0
  0
3DFACE
  8
0
  6
CONTINUOUS
 62
   249
 10
252.299636
 20
157.01
 30
0.0
 11
252.313356
 21
157.01
 31
0.0
 12
252.313356
 22
157.99
 32
0.0
 13
252.299636
 23
157.99
 33
0.0
  0
3DFACE
  8
0
  6
CONTINUOUS
 62
   249
 10
252.313356
 20
157.01
 30
0.0
 11
252.327076
 21
157.01
 31
0.0
 12
252.327076
 22
157.99
 32
0.0
 13
252.313356
 23
157.99
 33
0.0
  0
3DFACE
  8
0
  6
CONTINUOUS
 62
   249
 10
252.327076
 20
157.01
 30
0.0
 11
252.340796
 21
157.01
 31
0.0
 12
252.340796
 22
157.99
 32
0.0
 13
252.327076
 23
157.99
 33
0.0
  0
3DFACE
  8
0
  6
CONTINUOUS
 62
   249
 10
252.340796
 20
157.01
 30
0.0
 11
252.354516
 21
157.01
 31
0.0
 12
252.354516
 22
157.99
 32
0.0
 13
252.340796
 23
157.99
 33
0.0
  0
3DFACE
  8
0
  6
CONTINUOUS
 62
   249
 10
252.354516
 20
157.01
 30
0.0
 11
252.368236
 21
157.01
 31
0.0
 12
252.368236
 22
157.99
 32
0.0
 13
252.354516
 23
157.99
 33
0.0
  0
3DFACE
  8
0
  6
CONTINUOUS
 62
   249
 10
252.368236
 20
157.01
 30
0.0
 11
252.381956
 21
157.01
 31
0.0
 12
252.381956
 22
157.99
 32
0.0
 13
252.368236
 23
157.99
 33
0.0
  0
3DFACE
  8
0
  6
CONTINUOUS
 62
   249
 10
252.381956
 20
157.01
 30
0.0
 11
252.395676
 21
157.01
 31
0.0
 12
252.395676
 22
157.99
 32
0.0
 13
252.381956
 23
157.99
 33
0.0
  0
3DFACE
  8
0
  6
CONTINUOUS
 62
   249
 10
252.395676
 20
157.01
 30
0.0
 11
252.409396
 21
157.01
 31
0.0
 12
252.409396
 22
157.99
 32
0.0
 13
252.395676
 23
157.99
 33
0.0
  0
3DFACE
  8
0
  6
CONTINUOUS
 62
   249
 10
252.409396
 20
157.01
 30
0.0
 11
252.423116
 21
157.01
 31
0.0
 12
252.423116
 22
157.99
 32
0.0
 13
252.409396
 23
157.99
 33
0.0
  0
3DFACE
  8
0
  6
CONTINUOUS
 62
   249
 10
252.423116
 20
157.01
 30
0.0
 11
252.436836
 21
157.01
 31
0.0
 12
252.436836
 22
157.99
 32
0.0
 13
252.423116
 23
157.99
 33
0.0
  0
3DFACE
  8
0
  6
CONTINUOUS
 62
   249
 10
252.436836
 20
157.01
 30
0.0
 11
252.450556
 21
157.01
 31
0.0
 12
252.450556
 22
157.99
 32
0.0
 13
252.436836
 23
157.99
 33
0.0
  0
3DFACE
  8
0
  6
CONTINUOUS
 62
   249
 10
252.450556
 20
157.01
 30
0.0
 11
252.464276
 21
157.01
 31
0.0
 12
252.464276
 22
157.99
 32
0.0
 13
252.450556
 23
157.99
 33
0.0
  0
3DFACE
  8
0
  6
CONTINUOUS
 62
   249
 10
252.464276
 20
157.01
 30
0.0
 11
252.477996
 21
157.01
 31
0.0
 12
252.477996
 22
157.99
 32
0.0
 13
252.464276
 23
157.99
 33
0.0
  0
3DFACE
  8
0
  6
CONTINUOUS
 62
   249
 10
252.477996
 20
157.01
 30
0.0
 11
252.491716
 21
157.01
 31
0.0
 12
252.491716
 22
157.99
 32
0.0
 13
252.477996
 23
157.99
 33
0.0
  0
3DFACE
  8
0
  6
CONTINUOUS
 62
   249
 10
252.491716
 20
157.01
 30
0.0
 11
252.505436
 21
157.01
 31
0.0
 12
252.505436
 22
157.99
 32
0.0
 13
252.491716
 23
157.99
 33
0.0
  0
3DFACE
  8
0
  6
CONTINUOUS
 62
   249
 10
252.505436
 20
157.01
 30
0.0
 11
252.519156
 21
157.01
 31
0.0
 12
252.519156
 22
157.99
 32
0.0
 13
252.505436
 23
157.99
 33
0.0
  0
3DFACE
  8
0
  6
CONTINUOUS
 62
   249
 10
252.519156
 20
157.01
 30
0.0
 11
252.532876
 21
157.01
 31
0.0
 12
252.532876
 22
157.99
 32
0.0
 13
252.519156
 23
157.99
 33
0.0
  0
3DFACE
  8
0
  6
CONTINUOUS
 62
   249
 10
252.532876
 20
157.01
 30
0.0
 11
252.546596
 21
157.01
 31
0.0
 12
252.546596
 22
157.99
 32
0.0
 13
252.532876
 23
157.99
 33
0.0
  0
3DFACE
  8
0
  6
CONTINUOUS
 62
   249
 10
252.546596
 20
157.01
 30
0.0
 11
252.560316
 21
157.01
 31
0.0
 12
252.560316
 22
157.99
 32
0.0
 13
252.546596
 23
157.99
 33
0.0
  0
3DFACE
  8
0
  6
CONTINUOUS
 62
   249
 10
252.560316
 20
157.01
 30
0.0
 11
252.574036
 21
157.01
 31
0.0
 12
252.574036
 22
157.99
 32
0.0
 13
252.560316
 23
157.99
 33
0.0
  0
3DFACE
  8
0
  6
CONTINUOUS
 62
   249
 10
252.574036
 20
157.01
 30
0.0
 11
252.587756
 21
157.01
 31
0.0
 12
252.587756
 22
157.99
 32
0.0
 13
252.574036
 23
157.99
 33
0.0
  0
3DFACE
  8
0
  6
CONTINUOUS
 62
   249
 10
252.587756
 20
157.01
 30
0.0
 11
252.601476
 21
157.01
 31
0.0
 12
252.601476
 22
157.99
 32
0.0
 13
252.587756
 23
157.99
 33
0.0
  0
3DFACE
  8
0
  6
CONTINUOUS
 62
   249
 10
252.601476
 20
157.01
 30
0.0
 11
252.615196
 21
157.01
 31
0.0
 12
252.615196
 22
157.99
 32
0.0
 13
252.601476
 23
157.99
 33
0.0
  0
3DFACE
  8
0
  6
CONTINUOUS
 62
   249
 10
252.615196
 20
157.01
 30
0.0
 11
252.628916
 21
157.01
 31
0.0
 12
252.628916
 22
157.99
 32
0.0
 13
252.615196
 23
157.99
 33
0.0
  0
3DFACE
  8
0
  6
CONTINUOUS
 62
   249
 10
252.628916
 20
157.01
 30
0.0
 11
252.642636
 21
157.01
 31
0.0
 12
252.642636
 22
157.99
 32
0.0
 13
252.628916
 23
157.99
 33
0.0
  0
3DFACE
  8
0
  6
CONTINUOUS
 62
   249
 10
252.642636
 20
157.01
 30
0.0
 11
252.656356
 21
157.01
 31
0.0
 12
252.656356
 22
157.99
 32
0.0
 13
252.642636
 23
157.99
 33
0.0
  0
3DFACE
  8
0
  6
CONTINUOUS
 62
   249
 10
252.656356
 20
157.01
 30
0.0
 11
252.670076
 21
157.01
 31
0.0
 12
252.670076
 22
157.99
 32
0.0
 13
252.656356
 23
157.99
 33
0.0
  0
3DFACE
  8
0
  6
CONTINUOUS
 62
   249
 10
252.670076
 20
157.01
 30
0.0
 11
252.683796
 21
157.01
 31
0.0
 12
252.683796
 22
157.99
 32
0.0
 13
252.670076
 23
157.99
 33
0.0
  0
3DFACE
  8
0
  6
CONTINUOUS
 62
   249
 10
252.683796
 20
157.01
 30
0.0
 11
252.697516
 21
157.01
 31
0.0
 12
252.697516
 22
157.99
 32
0.0
 13
252.683796
 23
157.99
 33
0.0
  0
3DFACE
  8
0
  6
CONTINUOUS
 62
   249
 10
252.697516
 20
157.01
 30
0.0
 11
252.711236
 21
157.01
 31
0.0
 12
252.711236
 22
157.99
 32
0.0
 13
252.697516
 23
157.99
 33
0.0
  0
3DFACE
  8
0
  6
CONTINUOUS
 62
   249
 10
252.711236
 20
157.01
 30
0.0
 11
252.724956
 21
157.01
 31
0.0
 12
252.724956
 22
157.99
 32
0.0
 13
252.711236
 23
157.99
 33
0.0
  0
3DFACE
  8
0
  6
CONTINUOUS
 62
   249
 10
252.724956
 20
157.01
 30
0.0
 11
252.738676
 21
157.01
 31
0.0
 12
252.738676
 22
157.99
 32
0.0
 13
252.724956
 23
157.99
 33
0.0
  0
3DFACE
  8
0
  6
CONTINUOUS
 62
   249
 10
252.738676
 20
157.01
 30
0.0
 11
252.752396
 21
157.01
 31
0.0
 12
252.752396
 22
157.99
 32
0.0
 13
252.738676
 23
157.99
 33
0.0
  0
3DFACE
  8
0
  6
CONTINUOUS
 62
   249
 10
252.752396
 20
157.01
 30
0.0
 11
252.766116
 21
157.01
 31
0.0
 12
252.766116
 22
157.99
 32
0.0
 13
252.752396
 23
157.99
 33
0.0
  0
3DFACE
  8
0
  6
CONTINUOUS
 62
   249
 10
252.766116
 20
157.01
 30
0.0
 11
252.779836
 21
157.01
 31
0.0
 12
252.779836
 22
157.99
 32
0.0
 13
252.766116
 23
157.99
 33
0.0
  0
3DFACE
  8
0
  6
CONTINUOUS
 62
   249
 10
252.779836
 20
157.01
 30
0.0
 11
252.793556
 21
157.01
 31
0.0
 12
252.793556
 22
157.99
 32
0.0
 13
252.779836
 23
157.99
 33
0.0
  0
3DFACE
  8
0
  6
CONTINUOUS
 62
   249
 10
252.793556
 20
157.01
 30
0.0
 11
252.807276
 21
157.01
 31
0.0
 12
252.807276
 22
157.99
 32
0.0
 13
252.793556
 23
157.99
 33
0.0
  0
3DFACE
  8
0
  6
CONTINUOUS
 62
   249
 10
252.807276
 20
157.01
 30
0.0
 11
252.820996
 21
157.01
 31
0.0
 12
252.820996
 22
157.99
 32
0.0
 13
252.807276
 23
157.99
 33
0.0
  0
3DFACE
  8
0
  6
CONTINUOUS
 62
   249
 10
252.820996
 20
157.01
 30
0.0
 11
252.834716
 21
157.01
 31
0.0
 12
252.834716
 22
157.99
 32
0.0
 13
252.820996
 23
157.99
 33
0.0
  0
3DFACE
  8
0
  6
CONTINUOUS
 62
   249
 10
252.834716
 20
157.01
 30
0.0
 11
252.848436
 21
157.01
 31
0.0
 12
252.848436
 22
157.99
 32
0.0
 13
252.834716
 23
157.99
 33
0.0
  0
3DFACE
  8
0
  6
CONTINUOUS
 62
   249
 10
252.848436
 20
157.01
 30
0.0
 11
252.862156
 21
157.01
 31
0.0
 12
252.862156
 22
157.99
 32
0.0
 13
252.848436
 23
157.99
 33
0.0
  0
3DFACE
  8
0
  6
CONTINUOUS
 62
   249
 10
252.862156
 20
157.01
 30
0.0
 11
252.875876
 21
157.01
 31
0.0
 12
252.875876
 22
157.99
 32
0.0
 13
252.862156
 23
157.99
 33
0.0
  0
3DFACE
  8
0
  6
CONTINUOUS
 62
   249
 10
252.875876
 20
157.01
 30
0.0
 11
252.889596
 21
157.01
 31
0.0
 12
252.889596
 22
157.99
 32
0.0
 13
252.875876
 23
157.99
 33
0.0
  0
3DFACE
  8
0
  6
CONTINUOUS
 62
   249
 10
252.889596
 20
157.01
 30
0.0
 11
252.903316
 21
157.01
 31
0.0
 12
252.903316
 22
157.99
 32
0.0
 13
252.889596
 23
157.99
 33
0.0
  0
3DFACE
  8
0
  6
CONTINUOUS
 62
   249
 10
252.903316
 20
157.01
 30
0.0
 11
252.917036
 21
157.01
 31
0.0
 12
252.917036
 22
157.99
 32
0.0
 13
252.903316
 23
157.99
 33
0.0
  0
3DFACE
  8
0
  6
CONTINUOUS
 62
   249
 10
252.917036
 20
157.01
 30
0.0
 11
252.930756
 21
157.01
 31
0.0
 12
252.930756
 22
157.99
 32
0.0
 13
252.917036
 23
157.99
 33
0.0
  0
3DFACE
  8
0
  6
CONTINUOUS
 62
   249
 10
252.930756
 20
157.01
 30
0.0
 11
252.944476
 21
157.01
 31
0.0
 12
252.944476
 22
157.99
 32
0.0
 13
252.930756
 23
157.99
 33
0.0
  0
3DFACE
  8
0
  6
CONTINUOUS
 62
   249
 10
252.944476
 20
157.01
 30
0.0
 11
252.958196
 21
157.01
 31
0.0
 12
252.958196
 22
157.99
 32
0.0
 13
252.944476
 23
157.99
 33
0.0
  0
3DFACE
  8
0
  6
CONTINUOUS
 62
   249
 10
252.958196
 20
157.01
 30
0.0
 11
252.971916
 21
157.01
 31
0.0
 12
252.971916
 22
157.99
 32
0.0
 13
252.958196
 23
157.99
 33
0.0
  0
3DFACE
  8
0
  6
CONTINUOUS
 62
   249
 10
252.971916
 20
157.01
 30
0.0
 11
252.985636
 21
157.01
 31
0.0
 12
252.985636
 22
157.99
 32
0.0
 13
252.971916
 23
157.99
 33
0.0
  0
3DFACE
  8
0
  6
CONTINUOUS
 62
   249
 10
252.985636
 20
157.01
 30
0.0
 11
252.999356
 21
157.01
 31
0.0
 12
252.999356
 22
157.99
 32
0.0
 13
252.985636
 23
157.99
 33
0.0
  0
3DFACE
  8
0
  6
CONTINUOUS
 62
   249
 10
252.999356
 20
157.01
 30
0.0
 11
253.013076
 21
157.01
 31
0.0
 12
253.013076
 22
157.99
 32
0.0
 13
252.999356
 23
157.99
 33
0.0
  0
3DFACE
  8
0
  6
CONTINUOUS
 62
   249
 10
253.013076
 20
157.01
 30
0.0
 11
253.026796
 21
157.01
 31
0.0
 12
253.026796
 22
157.99
 32
0.0
 13
253.013076
 23
157.99
 33
0.0
  0
3DFACE
  8
0
  6
CONTINUOUS
 62
   249
 10
253.026796
 20
157.01
 30
0.0
 11
253.040516
 21
157.01
 31
0.0
 12
253.040516
 22
157.99
 32
0.0
 13
253.026796
 23
157.99
 33
0.0
  0
3DFACE
  8
0
  6
CONTINUOUS
 62
   249
 10
253.040516
 20
157.01
 30
0.0
 11
253.054236
 21
157.01
 31
0.0
 12
253.054236
 22
157.99
 32
0.0
 13
253.040516
 23
157.99
 33
0.0
  0
3DFACE
  8
0
  6
CONTINUOUS
 62
   249
 10
253.054236
 20
157.01
 30
0.0
 11
253.067956
 21
157.01
 31
0.0
 12
253.067956
 22
157.99
 32
0.0
 13
253.054236
 23
157.99
 33
0.0
  0
3DFACE
  8
0
  6
CONTINUOUS
 62
   249
 10
253.067956
 20
157.01
 30
0.0
 11
253.081676
 21
157.01
 31
0.0
 12
253.081676
 22
157.99
 32
0.0
 13
253.067956
 23
157.99
 33
0.0
  0
3DFACE
  8
0
  6
CONTINUOUS
 62
   249
 10
253.081676
 20
157.01
 30
0.0
 11
253.095396
 21
157.01
 31
0.0
 12
253.095396
 22
157.99
 32
0.0
 13
253.081676
 23
157.99
 33
0.0
  0
3DFACE
  8
0
  6
CONTINUOUS
 62
   249
 10
253.095396
 20
157.01
 30
0.0
 11
253.109116
 21
157.01
 31
0.0
 12
253.109116
 22
157.99
 32
0.0
 13
253.095396
 23
157.99
 33
0.0
  0
3DFACE
  8
0
  6
CONTINUOUS
 62
   249
 10
253.109116
 20
157.01
 30
0.0
 11
253.122836
 21
157.01
 31
0.0
 12
253.122836
 22
157.99
 32
0.0
 13
253.109116
 23
157.99
 33
0.0
  0
3DFACE
  8
0
  6
CONTINUOUS
 62
   249
 10
253.122836
 20
157.01
 30
0.0
 11
253.136556
 21
157.01
 31
0.0
 12
253.136556
 22
157.99
 32
0.0
 13
253.122836
 23
157.99
 33
0.0
  0
3DFACE
  8
0
  6
CONTINUOUS
 62
   249
 10
253.136556
 20
157.01
 30
0.0
 11
253.150276
 21
157.01
 31
0.0
 12
253.150276
 22
157.99
 32
0.0
 13
253.136556
 23
157.99
 33
0.0
  0
3DFACE
  8
0
  6
CONTINUOUS
 62
   249
 10
253.150276
 20
157.01
 30
0.0
 11
253.163996
 21
157.01
 31
0.0
 12
253.163996
 22
157.99
 32
0.0
 13
253.150276
 23
157.99
 33
0.0
  0
3DFACE
  8
0
  6
CONTINUOUS
 62
   249
 10
253.163996
 20
157.01
 30
0.0
 11
253.177716
 21
157.01
 31
0.0
 12
253.177716
 22
157.99
 32
0.0
 13
253.163996
 23
157.99
 33
0.0
  0
3DFACE
  8
0
  6
CONTINUOUS
 62
   249
 10
253.177716
 20
157.01
 30
0.0
 11
253.191436
 21
157.01
 31
0.0
 12
253.191436
 22
157.99
 32
0.0
 13
253.177716
 23
157.99
 33
0.0
  0
3DFACE
  8
0
  6
CONTINUOUS
 62
   249
 10
253.191436
 20
157.01
 30
0.0
 11
253.205156
 21
157.01
 31
0.0
 12
253.205156
 22
157.99
 32
0.0
 13
253.191436
 23
157.99
 33
0.0
  0
3DFACE
  8
0
  6
CONTINUOUS
 62
   249
 10
253.205156
 20
157.01
 30
0.0
 11
253.218876
 21
157.01
 31
0.0
 12
253.218876
 22
157.99
 32
0.0
 13
253.205156
 23
157.99
 33
0.0
  0
3DFACE
  8
0
  6
CONTINUOUS
 62
   249
 10
253.218876
 20
157.01
 30
0.0
 11
253.232596
 21
157.01
 31
0.0
 12
253.232596
 22
157.99
 32
0.0
 13
253.218876
 23
157.99
 33
0.0
  0
3DFACE
  8
0
  6
CONTINUOUS
 62
   249
 10
253.232596
 20
157.01
 30
0.0
 11
253.246316
 21
157.01
 31
0.0
 12
253.246316
 22
157.99
 32
0.0
 13
253.232596
 23
157.99
 33
0.0
  0
3DFACE
  8
0
  6
CONTINUOUS
 62
   249
 10
253.246316
 20
157.01
 30
0.0
 11
253.260036
 21
157.01
 31
0.0
 12
253.260036
 22
157.99
 32
0.0
 13
253.246316
 23
157.99
 33
0.0
  0
3DFACE
  8
0
  6
CONTINUOUS
 62
   249
 10
253.260036
 20
157.01
 30
0.0
 11
253.273756
 21
157.01
 31
0.0
 12
253.273756
 22
157.99
 32
0.0
 13
253.260036
 23
157.99
 33
0.0
  0
3DFACE
  8
0
  6
CONTINUOUS
 62
   249
 10
253.273756
 20
157.01
 30
0.0
 11
253.287476
 21
157.01
 31
0.0
 12
253.287476
 22
157.99
 32
0.0
 13
253.273756
 23
157.99
 33
0.0
  0
3DFACE
  8
0
  6
CONTINUOUS
 62
   249
 10
253.287476
 20
157.01
 30
0.0
 11
253.301196
 21
157.01
 31
0.0
 12
253.301196
 22
157.99
 32
0.0
 13
253.287476
 23
157.99
 33
0.0
  0
3DFACE
  8
0
  6
CONTINUOUS
 62
   249
 10
253.301196
 20
157.01
 30
0.0
 11
253.314916
 21
157.01
 31
0.0
 12
253.314916
 22
157.99
 32
0.0
 13
253.301196
 23
157.99
 33
0.0
  0
3DFACE
  8
0
  6
CONTINUOUS
 62
   249
 10
253.314916
 20
157.01
 30
0.0
 11
253.328636
 21
157.01
 31
0.0
 12
253.328636
 22
157.99
 32
0.0
 13
253.314916
 23
157.99
 33
0.0
  0
3DFACE
  8
0
  6
CONTINUOUS
 62
   249
 10
253.328636
 20
157.01
 30
0.0
 11
253.342356
 21
157.01
 31
0.0
 12
253.342356
 22
157.99
 32
0.0
 13
253.328636
 23
157.99
 33
0.0
  0
3DFACE
  8
0
  6
CONTINUOUS
 62
   249
 10
253.342356
 20
157.01
 30
0.0
 11
253.356076
 21
157.01
 31
0.0
 12
253.356076
 22
157.99
 32
0.0
 13
253.342356
 23
157.99
 33
0.0
  0
3DFACE
  8
0
  6
CONTINUOUS
 62
   249
 10
253.356076
 20
157.01
 30
0.0
 11
253.369796
 21
157.01
 31
0.0
 12
253.369796
 22
157.99
 32
0.0
 13
253.356076
 23
157.99
 33
0.0
  0
3DFACE
  8
0
  6
CONTINUOUS
 62
   249
 10
253.369796
 20
157.01
 30
0.0
 11
253.383516
 21
157.01
 31
0.0
 12
253.383516
 22
157.99
 32
0.0
 13
253.369796
 23
157.99
 33
0.0
  0
3DFACE
  8
0
  6
CONTINUOUS
 62
   249
 10
253.383516
 20
157.01
 30
0.0
 11
253.397236
 21
157.01
 31
0.0
 12
253.397236
 22
157.99
 32
0.0
 13
253.383516
 23
157.99
 33
0.0
  0
3DFACE
  8
0
  6
CONTINUOUS
 62
   249
 10
253.397236
 20
157.01
 30
0.0
 11
253.410956
 21
157.01
 31
0.0
 12
253.410956
 22
157.99
 32
0.0
 13
253.397236
 23
157.99
 33
0.0
  0
3DFACE
  8
0
  6
CONTINUOUS
 62
   249
 10
253.410956
 20
157.01
 30
0.0
 11
253.424676
 21
157.01
 31
0.0
 12
253.424676
 22
157.99
 32
0.0
 13
253.410956
 23
157.99
 33
0.0
  0
3DFACE
  8
0
  6
CONTINUOUS
 62
   249
 10
253.424676
 20
157.01
 30
0.0
 11
253.438396
 21
157.01
 31
0.0
 12
253.438396
 22
157.99
 32
0.0
 13
253.424676
 23
157.99
 33
0.0
  0
3DFACE
  8
0
  6
CONTINUOUS
 62
   249
 10
253.438396
 20
157.01
 30
0.0
 11
253.452116
 21
157.01
 31
0.0
 12
253.452116
 22
157.99
 32
0.0
 13
253.438396
 23
157.99
 33
0.0
  0
3DFACE
  8
0
  6
CONTINUOUS
 62
   249
 10
253.452116
 20
157.01
 30
0.0
 11
253.465836
 21
157.01
 31
0.0
 12
253.465836
 22
157.99
 32
0.0
 13
253.452116
 23
157.99
 33
0.0
  0
3DFACE
  8
0
  6
CONTINUOUS
 62
   249
 10
253.465836
 20
157.01
 30
0.0
 11
253.479556
 21
157.01
 31
0.0
 12
253.479556
 22
157.99
 32
0.0
 13
253.465836
 23
157.99
 33
0.0
  0
3DFACE
  8
0
  6
CONTINUOUS
 62
   249
 10
253.479556
 20
157.01
 30
0.0
 11
253.493276
 21
157.01
 31
0.0
 12
253.493276
 22
157.99
 32
0.0
 13
253.479556
 23
157.99
 33
0.0
  0
3DFACE
  8
0
  6
CONTINUOUS
 62
   249
 10
253.493276
 20
157.01
 30
0.0
 11
253.506996
 21
157.01
 31
0.0
 12
253.506996
 22
157.99
 32
0.0
 13
253.493276
 23
157.99
 33
0.0
  0
3DFACE
  8
0
  6
CONTINUOUS
 62
   249
 10
253.506996
 20
157.01
 30
0.0
 11
253.520716
 21
157.01
 31
0.0
 12
253.520716
 22
157.99
 32
0.0
 13
253.506996
 23
157.99
 33
0.0
  0
3DFACE
  8
0
  6
CONTINUOUS
 62
   249
 10
253.520716
 20
157.01
 30
0.0
 11
253.534436
 21
157.01
 31
0.0
 12
253.534436
 22
157.99
 32
0.0
 13
253.520716
 23
157.99
 33
0.0
  0
3DFACE
  8
0
  6
CONTINUOUS
 62
   249
 10
253.534436
 20
157.01
 30
0.0
 11
253.548156
 21
157.01
 31
0.0
 12
253.548156
 22
157.99
 32
0.0
 13
253.534436
 23
157.99
 33
0.0
  0
3DFACE
  8
0
  6
CONTINUOUS
 62
   249
 10
253.548156
 20
157.01
 30
0.0
 11
253.561876
 21
157.01
 31
0.0
 12
253.561876
 22
157.99
 32
0.0
 13
253.548156
 23
157.99
 33
0.0
  0
3DFACE
  8
0
  6
CONTINUOUS
 62
   249
 10
253.561876
 20
157.01
 30
0.0
 11
253.575596
 21
157.01
 31
0.0
 12
253.575596
 22
157.99
 32
0.0
 13
253.561876
 23
157.99
 33
0.0
  0
3DFACE
  8
0
  6
CONTINUOUS
 62
   249
 10
253.575596
 20
157.01
 30
0.0
 11
253.589316
 21
157.01
 31
0.0
 12
253.589316
 22
157.99
 32
0.0
 13
253.575596
 23
157.99
 33
0.0
  0
3DFACE
  8
0
  6
CONTINUOUS
 62
   249
 10
253.589316
 20
157.01
 30
0.0
 11
253.603036
 21
157.01
 31
0.0
 12
253.603036
 22
157.99
 32
0.0
 13
253.589316
 23
157.99
 33
0.0
  0
3DFACE
  8
0
  6
CONTINUOUS
 62
   249
 10
253.603036
 20
157.01
 30
0.0
 11
253.616756
 21
157.01
 31
0.0
 12
253.616756
 22
157.99
 32
0.0
 13
253.603036
 23
157.99
 33
0.0
  0
3DFACE
  8
0
  6
CONTINUOUS
 62
   249
 10
253.616756
 20
157.01
 30
0.0
 11
253.630476
 21
157.01
 31
0.0
 12
253.630476
 22
157.99
 32
0.0
 13
253.616756
 23
157.99
 33
0.0
  0
3DFACE
  8
0
  6
CONTINUOUS
 62
   249
 10
253.630476
 20
157.01
 30
0.0
 11
253.644196
 21
157.01
 31
0.0
 12
253.644196
 22
157.99
 32
0.0
 13
253.630476
 23
157.99
 33
0.0
  0
3DFACE
  8
0
  6
CONTINUOUS
 62
   249
 10
253.644196
 20
157.01
 30
0.0
 11
253.657916
 21
157.01
 31
0.0
 12
253.657916
 22
157.99
 32
0.0
 13
253.644196
 23
157.99
 33
0.0
  0
3DFACE
  8
0
  6
CONTINUOUS
 62
   249
 10
253.657916
 20
157.01
 30
0.0
 11
253.671636
 21
157.01
 31
0.0
 12
253.671636
 22
157.99
 32
0.0
 13
253.657916
 23
157.99
 33
0.0
  0
3DFACE
  8
0
  6
CONTINUOUS
 62
   249
 10
253.671636
 20
157.01
 30
0.0
 11
253.685356
 21
157.01
 31
0.0
 12
253.685356
 22
157.99
 32
0.0
 13
253.671636
 23
157.99
 33
0.0
  0
3DFACE
  8
0
  6
CONTINUOUS
 62
   249
 10
253.685356
 20
157.01
 30
0.0
 11
253.699076
 21
157.01
 31
0.0
 12
253.699076
 22
157.99
 32
0.0
 13
253.685356
 23
157.99
 33
0.0
  0
3DFACE
  8
0
  6
CONTINUOUS
 62
   249
 10
253.699076
 20
157.01
 30
0.0
 11
253.712796
 21
157.01
 31
0.0
 12
253.712796
 22
157.99
 32
0.0
 13
253.699076
 23
157.99
 33
0.0
  0
3DFACE
  8
0
  6
CONTINUOUS
 62
   249
 10
253.712796
 20
157.01
 30
0.0
 11
253.726516
 21
157.01
 31
0.0
 12
253.726516
 22
157.99
 32
0.0
 13
253.712796
 23
157.99
 33
0.0
  0
3DFACE
  8
0
  6
CONTINUOUS
 62
   249
 10
253.726516
 20
157.01
 30
0.0
 11
253.740236
 21
157.01
 31
0.0
 12
253.740236
 22
157.99
 32
0.0
 13
253.726516
 23
157.99
 33
0.0
  0
3DFACE
  8
0
  6
CONTINUOUS
 62
   249
 10
253.740236
 20
157.01
 30
0.0
 11
253.753956
 21
157.01
 31
0.0
 12
253.753956
 22
157.99
 32
0.0
 13
253.740236
 23
157.99
 33
0.0
  0
3DFACE
  8
0
  6
CONTINUOUS
 62
   249
 10
253.753956
 20
157.01
 30
0.0
 11
253.767676
 21
157.01
 31
0.0
 12
253.767676
 22
157.99
 32
0.0
 13
253.753956
 23
157.99
 33
0.0
  0
3DFACE
  8
0
  6
CONTINUOUS
 62
   249
 10
253.767676
 20
157.01
 30
0.0
 11
253.781396
 21
157.01
 31
0.0
 12
253.781396
 22
157.99
 32
0.0
 13
253.767676
 23
157.99
 33
0.0
  0
3DFACE
  8
0
  6
CONTINUOUS
 62
   249
 10
253.781396
 20
157.01
 30
0.0
 11
253.795116
 21
157.01
 31
0.0
 12
253.795116
 22
157.99
 32
0.0
 13
253.781396
 23
157.99
 33
0.0
  0
3DFACE
  8
0
  6
CONTINUOUS
 62
   249
 10
253.795116
 20
157.01
 30
0.0
 11
253.808836
 21
157.01
 31
0.0
 12
253.808836
 22
157.99
 32
0.0
 13
253.795116
 23
157.99
 33
0.0
  0
3DFACE
  8
0
  6
CONTINUOUS
 62
   249
 10
253.808836
 20
157.01
 30
0.0
 11
253.822556
 21
157.01
 31
0.0
 12
253.822556
 22
157.99
 32
0.0
 13
253.808836
 23
157.99
 33
0.0
  0
3DFACE
  8
0
  6
CONTINUOUS
 62
   249
 10
253.822556
 20
157.01
 30
0.0
 11
253.836276
 21
157.01
 31
0.0
 12
253.836276
 22
157.99
 32
0.0
 13
253.822556
 23
157.99
 33
0.0
  0
3DFACE
  8
0
  6
CONTINUOUS
 62
   249
 10
253.836276
 20
157.01
 30
0.0
 11
253.849996
 21
157.01
 31
0.0
 12
253.849996
 22
157.99
 32
0.0
 13
253.836276
 23
157.99
 33
0.0
  0
3DFACE
  8
0
  6
CONTINUOUS
 62
   249
 10
253.849996
 20
157.01
 30
0.0
 11
253.863716
 21
157.01
 31
0.0
 12
253.863716
 22
157.99
 32
0.0
 13
253.849996
 23
157.99
 33
0.0
  0
3DFACE
  8
0
  6
CONTINUOUS
 62
   249
 10
253.863716
 20
157.01
 30
0.0
 11
253.877436
 21
157.01
 31
0.0
 12
253.877436
 22
157.99
 32
0.0
 13
253.863716
 23
157.99
 33
0.0
  0
3DFACE
  8
0
  6
CONTINUOUS
 62
   249
 10
253.877436
 20
157.01
 30
0.0
 11
253.891156
 21
157.01
 31
0.0
 12
253.891156
 22
157.99
 32
0.0
 13
253.877436
 23
157.99
 33
0.0
  0
3DFACE
  8
0
  6
CONTINUOUS
 62
   249
 10
253.891156
 20
157.01
 30
0.0
 11
253.904876
 21
157.01
 31
0.0
 12
253.904876
 22
157.99
 32
0.0
 13
253.891156
 23
157.99
 33
0.0
  0
3DFACE
  8
0
  6
CONTINUOUS
 62
   249
 10
253.904876
 20
157.01
 30
0.0
 11
253.918596
 21
157.01
 31
0.0
 12
253.918596
 22
157.99
 32
0.0
 13
253.904876
 23
157.99
 33
0.0
  0
3DFACE
  8
0
  6
CONTINUOUS
 62
   249
 10
253.918596
 20
157.01
 30
0.0
 11
253.932316
 21
157.01
 31
0.0
 12
253.932316
 22
157.99
 32
0.0
 13
253.918596
 23
157.99
 33
0.0
  0
3DFACE
  8
0
  6
CONTINUOUS
 62
   249
 10
253.932316
 20
157.01
 30
0.0
 11
253.946036
 21
157.01
 31
0.0
 12
253.946036
 22
157.99
 32
0.0
 13
253.932316
 23
157.99
 33
0.0
  0
3DFACE
  8
0
  6
CONTINUOUS
 62
   249
 10
253.946036
 20
157.01
 30
0.0
 11
253.959756
 21
157.01
 31
0.0
 12
253.959756
 22
157.99
 32
0.0
 13
253.946036
 23
157.99
 33
0.0
  0
3DFACE
  8
0
  6
CONTINUOUS
 62
   249
 10
253.959756
 20
157.01
 30
0.0
 11
253.973476
 21
157.01
 31
0.0
 12
253.973476
 22
157.99
 32
0.0
 13
253.959756
 23
157.99
 33
0.0
  0
3DFACE
  8
0
  6
CONTINUOUS
 62
   249
 10
253.973476
 20
157.01
 30
0.0
 11
253.987196
 21
157.01
 31
0.0
 12
253.987196
 22
157.99
 32
0.0
 13
253.973476
 23
157.99
 33
0.0
  0
3DFACE
  8
0
  6
CONTINUOUS
 62
   249
 10
253.987196
 20
157.01
 30
0.0
 11
254.000916
 21
157.01
 31
0.0
 12
254.000916
 22
157.99
 32
0.0
 13
253.987196
 23
157.99
 33
0.0
  0
3DFACE
  8
0
  6
CONTINUOUS
 62
   249
 10
254.000916
 20
157.01
 30
0.0
 11
254.014636
 21
157.01
 31
0.0
 12
254.014636
 22
157.99
 32
0.0
 13
254.000916
 23
157.99
 33
0.0
  0
3DFACE
  8
0
  6
CONTINUOUS
 62
   249
 10
254.014636
 20
157.01
 30
0.0
 11
254.028356
 21
157.01
 31
0.0
 12
254.028356
 22
157.99
 32
0.0
 13
254.014636
 23
157.99
 33
0.0
  0
3DFACE
  8
0
  6
CONTINUOUS
 62
   249
 10
254.028356
 20
157.01
 30
0.0
 11
254.042076
 21
157.01
 31
0.0
 12
254.042076
 22
157.99
 32
0.0
 13
254.028356
 23
157.99
 33
0.0
  0
3DFACE
  8
0
  6
CONTINUOUS
 62
   249
 10
254.042076
 20
157.01
 30
0.0
 11
254.055796
 21
157.01
 31
0.0
 12
254.055796
 22
157.99
 32
0.0
 13
254.042076
 23
157.99
 33
0.0
  0
3DFACE
  8
0
  6
CONTINUOUS
 62
   249
 10
254.055796
 20
157.01
 30
0.0
 11
254.069516
 21
157.01
 31
0.0
 12
254.069516
 22
157.99
 32
0.0
 13
254.055796
 23
157.99
 33
0.0
  0
3DFACE
  8
0
  6
CONTINUOUS
 62
   249
 10
254.069516
 20
157.01
 30
0.0
 11
254.083236
 21
157.01
 31
0.0
 12
254.083236
 22
157.99
 32
0.0
 13
254.069516
 23
157.99
 33
0.0
  0
3DFACE
  8
0
  6
CONTINUOUS
 62
   249
 10
254.083236
 20
157.01
 30
0.0
 11
254.096956
 21
157.01
 31
0.0
 12
254.096956
 22
157.99
 32
0.0
 13
254.083236
 23
157.99
 33
0.0
  0
3DFACE
  8
0
  6
CONTINUOUS
 62
   249
 10
254.096956
 20
157.01
 30
0.0
 11
254.110676
 21
157.01
 31
0.0
 12
254.110676
 22
157.99
 32
0.0
 13
254.096956
 23
157.99
 33
0.0
  0
3DFACE
  8
0
  6
CONTINUOUS
 62
   249
 10
254.110676
 20
157.01
 30
0.0
 11
254.124396
 21
157.01
 31
0.0
 12
254.124396
 22
157.99
 32
0.0
 13
254.110676
 23
157.99
 33
0.0
  0
3DFACE
  8
0
  6
CONTINUOUS
 62
   249
 10
254.124396
 20
157.01
 30
0.0
 11
254.138116
 21
157.01
 31
0.0
 12
254.138116
 22
157.99
 32
0.0
 13
254.124396
 23
157.99
 33
0.0
  0
3DFACE
  8
0
  6
CONTINUOUS
 62
   249
 10
254.138116
 20
157.01
 30
0.0
 11
254.151836
 21
157.01
 31
0.0
 12
254.151836
 22
157.99
 32
0.0
 13
254.138116
 23
157.99
 33
0.0
  0
3DFACE
  8
0
  6
CONTINUOUS
 62
   249
 10
254.151836
 20
157.01
 30
0.0
 11
254.165556
 21
157.01
 31
0.0
 12
254.165556
 22
157.99
 32
0.0
 13
254.151836
 23
157.99
 33
0.0
  0
3DFACE
  8
0
  6
CONTINUOUS
 62
   249
 10
254.165556
 20
157.01
 30
0.0
 11
254.179276
 21
157.01
 31
0.0
 12
254.179276
 22
157.99
 32
0.0
 13
254.165556
 23
157.99
 33
0.0
  0
3DFACE
  8
0
  6
CONTINUOUS
 62
   249
 10
254.179276
 20
157.01
 30
0.0
 11
254.192996
 21
157.01
 31
0.0
 12
254.192996
 22
157.99
 32
0.0
 13
254.179276
 23
157.99
 33
0.0
  0
3DFACE
  8
0
  6
CONTINUOUS
 62
   249
 10
254.192996
 20
157.01
 30
0.0
 11
254.206716
 21
157.01
 31
0.0
 12
254.206716
 22
157.99
 32
0.0
 13
254.192996
 23
157.99
 33
0.0
  0
3DFACE
  8
0
  6
CONTINUOUS
 62
   249
 10
254.206716
 20
157.01
 30
0.0
 11
254.220436
 21
157.01
 31
0.0
 12
254.220436
 22
157.99
 32
0.0
 13
254.206716
 23
157.99
 33
0.0
  0
3DFACE
  8
0
  6
CONTINUOUS
 62
   249
 10
254.220436
 20
157.01
 30
0.0
 11
254.234156
 21
157.01
 31
0.0
 12
254.234156
 22
157.99
 32
0.0
 13
254.220436
 23
157.99
 33
0.0
  0
3DFACE
  8
0
  6
CONTINUOUS
 62
   249
 10
254.234156
 20
157.01
 30
0.0
 11
254.247876
 21
157.01
 31
0.0
 12
254.247876
 22
157.99
 32
0.0
 13
254.234156
 23
157.99
 33
0.0
  0
3DFACE
  8
0
  6
CONTINUOUS
 62
   249
 10
254.247876
 20
157.01
 30
0.0
 11
254.261596
 21
157.01
 31
0.0
 12
254.261596
 22
157.99
 32
0.0
 13
254.247876
 23
157.99
 33
0.0
  0
3DFACE
  8
0
  6
CONTINUOUS
 62
   249
 10
254.261596
 20
157.01
 30
0.0
 11
254.275316
 21
157.01
 31
0.0
 12
254.275316
 22
157.99
 32
0.0
 13
254.261596
 23
157.99
 33
0.0
  0
3DFACE
  8
0
  6
CONTINUOUS
 62
   249
 10
254.275316
 20
157.01
 30
0.0
 11
254.289036
 21
157.01
 31
0.0
 12
254.289036
 22
157.99
 32
0.0
 13
254.275316
 23
157.99
 33
0.0
  0
3DFACE
  8
0
  6
CONTINUOUS
 62
   249
 10
254.289036
 20
157.01
 30
0.0
 11
254.302756
 21
157.01
 31
0.0
 12
254.302756
 22
157.99
 32
0.0
 13
254.289036
 23
157.99
 33
0.0
  0
3DFACE
  8
0
  6
CONTINUOUS
 62
   249
 10
254.302756
 20
157.01
 30
0.0
 11
254.316476
 21
157.01
 31
0.0
 12
254.316476
 22
157.99
 32
0.0
 13
254.302756
 23
157.99
 33
0.0
  0
3DFACE
  8
0
  6
CONTINUOUS
 62
   249
 10
254.316476
 20
157.01
 30
0.0
 11
254.330196
 21
157.01
 31
0.0
 12
254.330196
 22
157.99
 32
0.0
 13
254.316476
 23
157.99
 33
0.0
  0
3DFACE
  8
0
  6
CONTINUOUS
 62
   249
 10
254.330196
 20
157.01
 30
0.0
 11
254.343916
 21
157.01
 31
0.0
 12
254.343916
 22
157.99
 32
0.0
 13
254.330196
 23
157.99
 33
0.0
  0
3DFACE
  8
0
  6
CONTINUOUS
 62
   249
 10
254.343916
 20
157.01
 30
0.0
 11
254.357636
 21
157.01
 31
0.0
 12
254.357636
 22
157.99
 32
0.0
 13
254.343916
 23
157.99
 33
0.0
  0
3DFACE
  8
0
  6
CONTINUOUS
 62
   249
 10
254.357636
 20
157.01
 30
0.0
 11
254.371356
 21
157.01
 31
0.0
 12
254.371356
 22
157.99
 32
0.0
 13
254.357636
 23
157.99
 33
0.0
  0
3DFACE
  8
0
  6
CONTINUOUS
 62
   249
 10
254.371356
 20
157.01
 30
0.0
 11
254.385076
 21
157.01
 31
0.0
 12
254.385076
 22
157.99
 32
0.0
 13
254.371356
 23
157.99
 33
0.0
  0
3DFACE
  8
0
  6
CONTINUOUS
 62
   249
 10
254.385076
 20
157.01
 30
0.0
 11
254.398796
 21
157.01
 31
0.0
 12
254.398796
 22
157.99
 32
0.0
 13
254.385076
 23
157.99
 33
0.0
  0
3DFACE
  8
0
  6
CONTINUOUS
 62
   249
 10
254.398796
 20
157.01
 30
0.0
 11
254.412516
 21
157.01
 31
0.0
 12
254.412516
 22
157.99
 32
0.0
 13
254.398796
 23
157.99
 33
0.0
  0
3DFACE
  8
0
  6
CONTINUOUS
 62
   249
 10
254.412516
 20
157.01
 30
0.0
 11
254.426236
 21
157.01
 31
0.0
 12
254.426236
 22
157.99
 32
0.0
 13
254.412516
 23
157.99
 33
0.0
  0
3DFACE
  8
0
  6
CONTINUOUS
 62
   249
 10
254.426236
 20
157.01
 30
0.0
 11
254.439956
 21
157.01
 31
0.0
 12
254.439956
 22
157.99
 32
0.0
 13
254.426236
 23
157.99
 33
0.0
  0
3DFACE
  8
0
  6
CONTINUOUS
 62
   249
 10
254.439956
 20
157.01
 30
0.0
 11
254.453676
 21
157.01
 31
0.0
 12
254.453676
 22
157.99
 32
0.0
 13
254.439956
 23
157.99
 33
0.0
  0
3DFACE
  8
0
  6
CONTINUOUS
 62
   249
 10
254.453676
 20
157.01
 30
0.0
 11
254.467396
 21
157.01
 31
0.0
 12
254.467396
 22
157.99
 32
0.0
 13
254.453676
 23
157.99
 33
0.0
  0
3DFACE
  8
0
  6
CONTINUOUS
 62
   249
 10
254.467396
 20
157.01
 30
0.0
 11
254.481116
 21
157.01
 31
0.0
 12
254.481116
 22
157.99
 32
0.0
 13
254.467396
 23
157.99
 33
0.0
  0
3DFACE
  8
0
  6
CONTINUOUS
 62
   249
 10
254.481116
 20
157.01
 30
0.0
 11
254.494836
 21
157.01
 31
0.0
 12
254.494836
 22
157.99
 32
0.0
 13
254.481116
 23
157.99
 33
0.0
  0
3DFACE
  8
0
  6
CONTINUOUS
 62
   249
 10
254.494836
 20
157.01
 30
0.0
 11
254.508556
 21
157.01
 31
0.0
 12
254.508556
 22
157.99
 32
0.0
 13
254.494836
 23
157.99
 33
0.0
  0
3DFACE
  8
0
  6
CONTINUOUS
 62
   249
 10
254.508556
 20
157.01
 30
0.0
 11
254.522276
 21
157.01
 31
0.0
 12
254.522276
 22
157.99
 32
0.0
 13
254.508556
 23
157.99
 33
0.0
  0
3DFACE
  8
0
  6
CONTINUOUS
 62
   249
 10
254.522276
 20
157.01
 30
0.0
 11
254.535996
 21
157.01
 31
0.0
 12
254.535996
 22
157.99
 32
0.0
 13
254.522276
 23
157.99
 33
0.0
  0
3DFACE
  8
0
  6
CONTINUOUS
 62
   249
 10
254.535996
 20
157.01
 30
0.0
 11
254.549716
 21
157.01
 31
0.0
 12
254.549716
 22
157.99
 32
0.0
 13
254.535996
 23
157.99
 33
0.0
  0
3DFACE
  8
0
  6
CONTINUOUS
 62
   249
 10
254.549716
 20
157.01
 30
0.0
 11
254.563436
 21
157.01
 31
0.0
 12
254.563436
 22
157.99
 32
0.0
 13
254.549716
 23
157.99
 33
0.0
  0
3DFACE
  8
0
  6
CONTINUOUS
 62
   249
 10
254.563436
 20
157.01
 30
0.0
 11
254.577156
 21
157.01
 31
0.0
 12
254.577156
 22
157.99
 32
0.0
 13
254.563436
 23
157.99
 33
0.0
  0
3DFACE
  8
0
  6
CONTINUOUS
 62
   249
 10
254.577156
 20
157.01
 30
0.0
 11
254.590876
 21
157.01
 31
0.0
 12
254.590876
 22
157.99
 32
0.0
 13
254.577156
 23
157.99
 33
0.0
  0
3DFACE
  8
0
  6
CONTINUOUS
 62
   249
 10
254.590876
 20
157.01
 30
0.0
 11
254.604596
 21
157.01
 31
0.0
 12
254.604596
 22
157.99
 32
0.0
 13
254.590876
 23
157.99
 33
0.0
  0
3DFACE
  8
0
  6
CONTINUOUS
 62
   249
 10
254.604596
 20
157.01
 30
0.0
 11
254.618316
 21
157.01
 31
0.0
 12
254.618316
 22
157.99
 32
0.0
 13
254.604596
 23
157.99
 33
0.0
  0
3DFACE
  8
0
  6
CONTINUOUS
 62
   249
 10
254.618316
 20
157.01
 30
0.0
 11
254.632036
 21
157.01
 31
0.0
 12
254.632036
 22
157.99
 32
0.0
 13
254.618316
 23
157.99
 33
0.0
  0
3DFACE
  8
0
  6
CONTINUOUS
 62
   249
 10
254.632036
 20
157.01
 30
0.0
 11
254.645756
 21
157.01
 31
0.0
 12
254.645756
 22
157.99
 32
0.0
 13
254.632036
 23
157.99
 33
0.0
  0
3DFACE
  8
0
  6
CONTINUOUS
 62
   249
 10
254.645756
 20
157.01
 30
0.0
 11
254.659476
 21
157.01
 31
0.0
 12
254.659476
 22
157.99
 32
0.0
 13
254.645756
 23
157.99
 33
0.0
  0
3DFACE
  8
0
  6
CONTINUOUS
 62
   249
 10
254.659476
 20
157.01
 30
0.0
 11
254.673196
 21
157.01
 31
0.0
 12
254.673196
 22
157.99
 32
0.0
 13
254.659476
 23
157.99
 33
0.0
  0
3DFACE
  8
0
  6
CONTINUOUS
 62
   249
 10
254.673196
 20
157.01
 30
0.0
 11
254.686916
 21
157.01
 31
0.0
 12
254.686916
 22
157.99
 32
0.0
 13
254.673196
 23
157.99
 33
0.0
  0
3DFACE
  8
0
  6
CONTINUOUS
 62
   249
 10
254.686916
 20
157.01
 30
0.0
 11
254.700636
 21
157.01
 31
0.0
 12
254.700636
 22
157.99
 32
0.0
 13
254.686916
 23
157.99
 33
0.0
  0
3DFACE
  8
0
  6
CONTINUOUS
 62
   249
 10
254.700636
 20
157.01
 30
0.0
 11
254.714356
 21
157.01
 31
0.0
 12
254.714356
 22
157.99
 32
0.0
 13
254.700636
 23
157.99
 33
0.0
  0
3DFACE
  8
0
  6
CONTINUOUS
 62
   249
 10
254.714356
 20
157.01
 30
0.0
 11
254.728076
 21
157.01
 31
0.0
 12
254.728076
 22
157.99
 32
0.0
 13
254.714356
 23
157.99
 33
0.0
  0
3DFACE
  8
0
  6
CONTINUOUS
 62
   249
 10
254.728076
 20
157.01
 30
0.0
 11
254.741796
 21
157.01
 31
0.0
 12
254.741796
 22
157.99
 32
0.0
 13
254.728076
 23
157.99
 33
0.0
  0
3DFACE
  8
0
  6
CONTINUOUS
 62
   249
 10
254.741796
 20
157.01
 30
0.0
 11
254.755516
 21
157.01
 31
0.0
 12
254.755516
 22
157.99
 32
0.0
 13
254.741796
 23
157.99
 33
0.0
  0
3DFACE
  8
0
  6
CONTINUOUS
 62
   249
 10
254.755516
 20
157.01
 30
0.0
 11
254.769236
 21
157.01
 31
0.0
 12
254.769236
 22
157.99
 32
0.0
 13
254.755516
 23
157.99
 33
0.0
  0
3DFACE
  8
0
  6
CONTINUOUS
 62
   249
 10
254.769236
 20
157.01
 30
0.0
 11
254.782956
 21
157.01
 31
0.0
 12
254.782956
 22
157.99
 32
0.0
 13
254.769236
 23
157.99
 33
0.0
  0
3DFACE
  8
0
  6
CONTINUOUS
 62
   249
 10
254.782956
 20
157.01
 30
0.0
 11
254.796676
 21
157.01
 31
0.0
 12
254.796676
 22
157.99
 32
0.0
 13
254.782956
 23
157.99
 33
0.0
  0
3DFACE
  8
0
  6
CONTINUOUS
 62
   249
 10
254.796676
 20
157.01
 30
0.0
 11
254.810396
 21
157.01
 31
0.0
 12
254.810396
 22
157.99
 32
0.0
 13
254.796676
 23
157.99
 33
0.0
  0
3DFACE
  8
0
  6
CONTINUOUS
 62
   249
 10
254.810396
 20
157.01
 30
0.0
 11
254.824116
 21
157.01
 31
0.0
 12
254.824116
 22
157.99
 32
0.0
 13
254.810396
 23
157.99
 33
0.0
  0
3DFACE
  8
0
  6
CONTINUOUS
 62
   249
 10
254.824116
 20
157.01
 30
0.0
 11
254.837836
 21
157.01
 31
0.0
 12
254.837836
 22
157.99
 32
0.0
 13
254.824116
 23
157.99
 33
0.0
  0
3DFACE
  8
0
  6
CONTINUOUS
 62
   249
 10
254.837836
 20
157.01
 30
0.0
 11
254.851556
 21
157.01
 31
0.0
 12
254.851556
 22
157.99
 32
0.0
 13
254.837836
 23
157.99
 33
0.0
  0
3DFACE
  8
0
  6
CONTINUOUS
 62
   249
 10
254.851556
 20
157.01
 30
0.0
 11
254.865276
 21
157.01
 31
0.0
 12
254.865276
 22
157.99
 32
0.0
 13
254.851556
 23
157.99
 33
0.0
  0
3DFACE
  8
0
  6
CONTINUOUS
 62
   249
 10
254.865276
 20
157.01
 30
0.0
 11
254.878996
 21
157.01
 31
0.0
 12
254.878996
 22
157.99
 32
0.0
 13
254.865276
 23
157.99
 33
0.0
  0
3DFACE
  8
0
  6
CONTINUOUS
 62
   249
 10
254.878996
 20
157.01
 30
0.0
 11
254.892716
 21
157.01
 31
0.0
 12
254.892716
 22
157.99
 32
0.0
 13
254.878996
 23
157.99
 33
0.0
  0
3DFACE
  8
0
  6
CONTINUOUS
 62
   249
 10
254.892716
 20
157.01
 30
0.0
 11
254.906436
 21
157.01
 31
0.0
 12
254.906436
 22
157.99
 32
0.0
 13
254.892716
 23
157.99
 33
0.0
  0
3DFACE
  8
0
  6
CONTINUOUS
 62
   249
 10
254.906436
 20
157.01
 30
0.0
 11
254.920156
 21
157.01
 31
0.0
 12
254.920156
 22
157.99
 32
0.0
 13
254.906436
 23
157.99
 33
0.0
  0
3DFACE
  8
0
  6
CONTINUOUS
 62
   249
 10
254.920156
 20
157.01
 30
0.0
 11
254.933876
 21
157.01
 31
0.0
 12
254.933876
 22
157.99
 32
0.0
 13
254.920156
 23
157.99
 33
0.0
  0
3DFACE
  8
0
  6
CONTINUOUS
 62
   249
 10
254.933876
 20
157.01
 30
0.0
 11
254.947596
 21
157.01
 31
0.0
 12
254.947596
 22
157.99
 32
0.0
 13
254.933876
 23
157.99
 33
0.0
  0
3DFACE
  8
0
  6
CONTINUOUS
 62
   249
 10
254.947596
 20
157.01
 30
0.0
 11
254.961316
 21
157.01
 31
0.0
 12
254.961316
 22
157.99
 32
0.0
 13
254.947596
 23
157.99
 33
0.0
  0
3DFACE
  8
0
  6
CONTINUOUS
 62
   249
 10
254.961316
 20
157.01
 30
0.0
 11
254.975036
 21
157.01
 31
0.0
 12
254.975036
 22
157.99
 32
0.0
 13
254.961316
 23
157.99
 33
0.0
  0
3DFACE
  8
0
  6
CONTINUOUS
 62
   249
 10
254.975036
 20
157.01
 30
0.0
 11
254.988756
 21
157.01
 31
0.0
 12
254.988756
 22
157.99
 32
0.0
 13
254.975036
 23
157.99
 33
0.0
  0
3DFACE
  8
0
  6
CONTINUOUS
 62
   249
 10
254.988756
 20
157.01
 30
0.0
 11
255.002476
 21
157.01
 31
0.0
 12
255.002476
 22
157.99
 32
0.0
 13
254.988756
 23
157.99
 33
0.0
  0
3DFACE
  8
0
  6
CONTINUOUS
 62
   249
 10
255.002476
 20
157.01
 30
0.0
 11
255.016196
 21
157.01
 31
0.0
 12
255.016196
 22
157.99
 32
0.0
 13
255.002476
 23
157.99
 33
0.0
  0
3DFACE
  8
0
  6
CONTINUOUS
 62
   249
 10
255.016196
 20
157.01
 30
0.0
 11
255.029916
 21
157.01
 31
0.0
 12
255.029916
 22
157.99
 32
0.0
 13
255.016196
 23
157.99
 33
0.0
  0
3DFACE
  8
0
  6
CONTINUOUS
 62
   249
 10
255.029916
 20
157.01
 30
0.0
 11
255.043636
 21
157.01
 31
0.0
 12
255.043636
 22
157.99
 32
0.0
 13
255.029916
 23
157.99
 33
0.0
  0
3DFACE
  8
0
  6
CONTINUOUS
 62
   249
 10
255.043636
 20
157.01
 30
0.0
 11
255.057356
 21
157.01
 31
0.0
 12
255.057356
 22
157.99
 32
0.0
 13
255.043636
 23
157.99
 33
0.0
  0
3DFACE
  8
0
  6
CONTINUOUS
 62
   249
 10
255.057356
 20
157.01
 30
0.0
 11
255.071076
 21
157.01
 31
0.0
 12
255.071076
 22
157.99
 32
0.0
 13
255.057356
 23
157.99
 33
0.0
  0
3DFACE
  8
0
  6
CONTINUOUS
 62
   249
 10
255.071076
 20
157.01
 30
0.0
 11
255.084796
 21
157.01
 31
0.0
 12
255.084796
 22
157.99
 32
0.0
 13
255.071076
 23
157.99
 33
0.0
  0
3DFACE
  8
0
  6
CONTINUOUS
 62
   249
 10
255.084796
 20
157.01
 30
0.0
 11
255.098516
 21
157.01
 31
0.0
 12
255.098516
 22
157.99
 32
0.0
 13
255.084796
 23
157.99
 33
0.0
  0
3DFACE
  8
0
  6
CONTINUOUS
 62
   249
 10
255.098516
 20
157.01
 30
0.0
 11
255.112236
 21
157.01
 31
0.0
 12
255.112236
 22
157.99
 32
0.0
 13
255.098516
 23
157.99
 33
0.0
  0
3DFACE
  8
0
  6
CONTINUOUS
 62
   249
 10
255.112236
 20
157.01
 30
0.0
 11
255.125956
 21
157.01
 31
0.0
 12
255.125956
 22
157.99
 32
0.0
 13
255.112236
 23
157.99
 33
0.0
  0
3DFACE
  8
0
  6
CONTINUOUS
 62
   249
 10
255.125956
 20
157.01
 30
0.0
 11
255.139676
 21
157.01
 31
0.0
 12
255.139676
 22
157.99
 32
0.0
 13
255.125956
 23
157.99
 33
0.0
  0
3DFACE
  8
0
  6
CONTINUOUS
 62
   249
 10
255.139676
 20
157.01
 30
0.0
 11
255.153396
 21
157.01
 31
0.0
 12
255.153396
 22
157.99
 32
0.0
 13
255.139676
 23
157.99
 33
0.0
  0
3DFACE
  8
0
  6
CONTINUOUS
 62
   249
 10
255.153396
 20
157.01
 30
0.0
 11
255.167116
 21
157.01
 31
0.0
 12
255.167116
 22
157.99
 32
0.0
 13
255.153396
 23
157.99
 33
0.0
  0
3DFACE
  8
0
  6
CONTINUOUS
 62
   249
 10
255.167116
 20
157.01
 30
0.0
 11
255.180836
 21
157.01
 31
0.0
 12
255.180836
 22
157.99
 32
0.0
 13
255.167116
 23
157.99
 33
0.0
  0
3DFACE
  8
0
  6
CONTINUOUS
 62
   249
 10
255.180836
 20
157.01
 30
0.0
 11
255.194556
 21
157.01
 31
0.0
 12
255.194556
 22
157.99
 32
0.0
 13
255.180836
 23
157.99
 33
0.0
  0
3DFACE
  8
0
  6
CONTINUOUS
 62
   249
 10
255.194556
 20
157.01
 30
0.0
 11
255.208276
 21
157.01
 31
0.0
 12
255.208276
 22
157.99
 32
0.0
 13
255.194556
 23
157.99
 33
0.0
  0
3DFACE
  8
0
  6
CONTINUOUS
 62
   249
 10
255.208276
 20
157.01
 30
0.0
 11
255.221996
 21
157.01
 31
0.0
 12
255.221996
 22
157.99
 32
0.0
 13
255.208276
 23
157.99
 33
0.0
  0
3DFACE
  8
0
  6
CONTINUOUS
 62
   249
 10
255.221996
 20
157.01
 30
0.0
 11
255.235716
 21
157.01
 31
0.0
 12
255.235716
 22
157.99
 32
0.0
 13
255.221996
 23
157.99
 33
0.0
  0
3DFACE
  8
0
  6
CONTINUOUS
 62
   249
 10
255.235716
 20
157.01
 30
0.0
 11
255.249436
 21
157.01
 31
0.0
 12
255.249436
 22
157.99
 32
0.0
 13
255.235716
 23
157.99
 33
0.0
  0
LINE
  8
0
  6
CONTINUOUS
 62
   249
 10
210.984616
 20
181.656785
 30
0.0
 11
209.735943
 21
182.367607
 31
0.0
  0
LINE
  8
0
  6
CONTINUOUS
 62
   249
 10
209.735943
 20
182.367607
 30
0.0
 11
210.984616
 21
183.001012
 31
0.0
  0
LINE
  8
0
  6
CONTINUOUS
 62
   249
 10
214.608981
 20
183.091743
 30
0.0
 11
215.857655
 21
182.380922
 31
0.0
  0
LINE
  8
0
  6
CONTINUOUS
 62
   249
 10
215.857655
 20
182.380922
 30
0.0
 11
214.608981
 21
181.747517
 31
0.0
  0
LINE
  8
0
  6
CONTINUOUS
 62
   249
 10
224.923996
 20
181.123507
 30
0.0
 11
222.578231
 21
182.458861
 31
0.0
  0
LINE
  8
0
  6
CONTINUOUS
 62
   249
 10
222.578231
 20
182.458861
 30
0.0
 11
224.923996
 21
183.64878
 31
0.0
  0
LINE
  8
0
  6
CONTINUOUS
 62
   249
 10
213.532057
 20
186.934976
 30
0.0
 11
214.418944
 21
186.934976
 31
0.0
  0
LINE
  8
0
  6
CONTINUOUS
 62
   249
 10
213.200952
 20
187.546609
 30
0.0
 11
214.785524
 21
187.546609
 31
0.0
  0
LINE
  8
0
  6
CONTINUOUS
 62
   249
 10
214.016888
 20
188.168672
 30
0.0
 11
215.211229
 21
188.168672
 31
0.0
  0
LINE
  8
0
  6
CONTINUOUS
 62
   249
 10
212.822547
 20
188.168672
 30
0.0
 11
214.016888
 21
188.168672
 31
0.0
  0
LINE
  8
0
  6
CONTINUOUS
 62
   249
 10
214.032775
 20
189.522942
 30
0.0
 11
214.032775
 21
188.168672
 31
0.0
  0
LINE
  8
0
  6
CONTINUOUS
 62
   249
 10
213.532057
 20
194.339144
 30
0.0
 11
214.418944
 21
194.339144
 31
0.0
  0
LINE
  8
0
  6
CONTINUOUS
 62
   249
 10
213.200952
 20
194.950777
 30
0.0
 11
214.785524
 21
194.950777
 31
0.0
  0
LINE
  8
0
  6
CONTINUOUS
 62
   249
 10
214.016888
 20
195.572839
 30
0.0
 11
215.211229
 21
195.572839
 31
0.0
  0
LINE
  8
0
  6
CONTINUOUS
 62
   249
 10
212.822547
 20
195.572839
 30
0.0
 11
214.016888
 21
195.572839
 31
0.0
  0
LINE
  8
0
  6
CONTINUOUS
 62
   249
 10
214.032775
 20
196.92711
 30
0.0
 11
214.032775
 21
195.572839
 31
0.0
  0
LINE
  8
0
 62
   249
 10
235.0
 20
190.0
 30
0.0
 11
233.480133
 21
190.0
 31
0.0
  0
ARC
  8
0
 62
   249
 10
235.065849
 20
191.25
 30
0.0
 40
1.251733
 50
266.984476
 51
93.015524
  0
LINE
  8
0
 62
   249
 10
235.0
 20
192.5
 30
0.0
 11
233.480133
 21
192.5
 31
0.0
  0
LINE
  8
0
 62
   249
 10
235.0
 20
195.0
 30
0.0
 11
233.480133
 21
195.0
 31
0.0
  0
ARC
  8
0
 62
   249
 10
235.065849
 20
193.75
 30
0.0
 40
1.251733
 50
266.984476
 51
93.015524
  0
LINE
  8
0
 62
   249
 10
240.0
 20
187.5
 30
0.0
 11
242.5
 21
187.5
 31
0.0
  0
ARC
  8
0
 62
   249
 10
239.934151
 20
188.75
 30
0.0
 40
1.251733
 50
86.984476
 51
273.015524
  0
ARC
  8
0
 62
   249
 10
239.934151
 20
191.25
 30
0.0
 40
1.251733
 50
86.984476
 51
273.015524
  0
LINE
  8
0
 62
   249
 10
240.0
 20
190.0
 30
0.0
 11
242.5
 21
190.0
 31
0.0
  0
LINE
  8
0
 62
   249
 10
240.0
 20
192.5
 30
0.0
 11
242.5
 21
192.5
 31
0.0
  0
LINE
  8
0
 62
   249
 10
242.5
 20
192.5
 30
0.0
 11
245.0
 21
192.5
 31
0.0
  0
LINE
  8
0
 62
   249
 10
242.5
 20
187.5
 30
0.0
 11
245.0
 21
187.5
 31
0.0
  0
LINE
  8
0
 62
   249
 10
242.5
 20
192.5
 30
0.0
 11
245.0
 21
192.5
 31
0.0
  0
LINE
  8
0
 62
   249
 10
242.5
 20
197.5
 30
0.0
 11
245.0
 21
197.5
 31
0.0
  0
LINE
  8
0
 62
   249
 10
240.0
 20
197.5
 30
0.0
 11
242.5
 21
197.5
 31
0.0
  0
LINE
  8
0
 62
   249
 10
240.0
 20
195.0
 30
0.0
 11
242.5
 21
195.0
 31
0.0
  0
ARC
  8
0
 62
   249
 10
239.934151
 20
196.25
 30
0.0
 40
1.251733
 50
86.984476
 51
273.015524
  0
ARC
  8
0
 62
   249
 10
239.934151
 20
193.75
 30
0.0
 40
1.251733
 50
86.984476
 51
273.015524
  0
LINE
  8
0
 62
   249
 10
240.0
 20
192.5
 30
0.0
 11
242.5
 21
192.5
 31
0.0
  0
LINE
  8
0
  6
CONTINUOUS
 62
   249
 10
224.923996
 20
221.164635
 30
0.0
 11
222.578231
 21
222.499989
 31
0.0
  0
LINE
  8
0
  6
CONTINUOUS
 62
   249
 10
222.578231
 20
222.499989
 30
0.0
 11
224.923996
 21
223.689908
 31
0.0
  0
LINE
  8
0
 62
   249
 10
235.0
 20
230.0
 30
0.0
 11
233.480133
 21
230.0
 31
0.0
  0
ARC
  8
0
 62
   249
 10
235.065849
 20
231.25
 30
0.0
 40
1.251733
 50
266.984476
 51
93.015524
  0
LINE
  8
0
 62
   249
 10
235.0
 20
232.5
 30
0.0
 11
233.480133
 21
232.5
 31
0.0
  0
LINE
  8
0
 62
   249
 10
235.0
 20
235.0
 30
0.0
 11
233.480133
 21
235.0
 31
0.0
  0
ARC
  8
0
 62
   249
 10
235.065849
 20
233.75
 30
0.0
 40
1.251733
 50
266.984476
 51
93.015524
  0
LINE
  8
0
 62
   249
 10
240.0
 20
227.5
 30
0.0
 11
242.5
 21
227.5
 31
0.0
  0
ARC
  8
0
 62
   249
 10
239.934151
 20
228.75
 30
0.0
 40
1.251733
 50
86.984476
 51
273.015524
  0
ARC
  8
0
 62
   249
 10
239.934151
 20
231.25
 30
0.0
 40
1.251733
 50
86.984476
 51
273.015524
  0
LINE
  8
0
 62
   249
 10
240.0
 20
230.0
 30
0.0
 11
242.5
 21
230.0
 31
0.0
  0
LINE
  8
0
 62
   249
 10
240.0
 20
232.5
 30
0.0
 11
242.5
 21
232.5
 31
0.0
  0
LINE
  8
0
 62
   249
 10
242.5
 20
232.5
 30
0.0
 11
245.0
 21
232.5
 31
0.0
  0
LINE
  8
0
 62
   249
 10
242.5
 20
227.5
 30
0.0
 11
245.0
 21
227.5
 31
0.0
  0
LINE
  8
0
 62
   249
 10
242.5
 20
232.5
 30
0.0
 11
245.0
 21
232.5
 31
0.0
  0
LINE
  8
0
 62
   249
 10
242.5
 20
237.5
 30
0.0
 11
245.0
 21
237.5
 31
0.0
  0
LINE
  8
0
 62
   249
 10
240.0
 20
237.5
 30
0.0
 11
242.5
 21
237.5
 31
0.0
  0
LINE
  8
0
 62
   249
 10
240.0
 20
235.0
 30
0.0
 11
242.5
 21
235.0
 31
0.0
  0
ARC
  8
0
 62
   249
 10
239.934151
 20
236.25
 30
0.0
 40
1.251733
 50
86.984476
 51
273.015524
  0
ARC
  8
0
 62
   249
 10
239.934151
 20
233.75
 30
0.0
 40
1.251733
 50
86.984476
 51
273.015524
  0
LINE
  8
0
 62
   249
 10
240.0
 20
232.5
 30
0.0
 11
242.5
 21
232.5
 31
0.0
  0
ARC
  8
0
  6
CONTINUOUS
 62
   249
 10
297.5
 20
247.5
 30
0.0
 40
0.5
 50
180.0
 51
0.0
  0
ARC
  8
0
  6
CONTINUOUS
 62
   249
 10
297.5
 20
247.5
 30
0.0
 40
0.5
 50
0.0
 51
180.0
  0
ARC
  8
0
  6
CONTINUOUS
 62
   249
 10
305.0
 20
247.5
 30
0.0
 40
0.5
 50
180.0
 51
0.0
  0
ARC
  8
0
  6
CONTINUOUS
 62
   249
 10
305.0
 20
247.5
 30
0.0
 40
0.5
 50
0.0
 51
180.0
  0
LINE
  8
0
  6
CONTINUOUS
 62
   249
 10
349.074112
 20
211.159262
 30
0.0
 11
347.825439
 21
211.870084
 31
0.0
  0
LINE
  8
0
  6
CONTINUOUS
 62
   249
 10
347.825439
 20
211.870084
 30
0.0
 11
349.074112
 21
212.503489
 31
0.0
  0
LINE
  8
0
  6
CONTINUOUS
 62
   249
 10
352.698477
 20
212.59422
 30
0.0
 11
353.947151
 21
211.883399
 31
0.0
  0
LINE
  8
0
  6
CONTINUOUS
 62
   249
 10
353.947151
 20
211.883399
 30
0.0
 11
352.698477
 21
211.249993
 31
0.0
  0
LINE
  8
0
  6
CONTINUOUS
 62
   249
 10
349.074112
 20
219.42061
 30
0.0
 11
347.825439
 21
220.131432
 31
0.0
  0
LINE
  8
0
  6
CONTINUOUS
 62
   249
 10
347.825439
 20
220.131432
 30
0.0
 11
349.074112
 21
220.764837
 31
0.0
  0
LINE
  8
0
  6
CONTINUOUS
 62
   249
 10
350.337399
 20
213.901999
 30
0.0
 11
351.224285
 21
213.901999
 31
0.0
  0
LINE
  8
0
  6
CONTINUOUS
 62
   249
 10
350.006294
 20
214.513632
 30
0.0
 11
351.590865
 21
214.513632
 31
0.0
  0
LINE
  8
0
  6
CONTINUOUS
 62
   249
 10
350.82223
 20
215.135695
 30
0.0
 11
352.016571
 21
215.135695
 31
0.0
  0
LINE
  8
0
  6
CONTINUOUS
 62
   249
 10
349.627889
 20
215.135695
 30
0.0
 11
350.82223
 21
215.135695
 31
0.0
  0
LINE
  8
0
  6
CONTINUOUS
 62
   249
 10
350.838117
 20
216.489965
 30
0.0
 11
350.838117
 21
215.135695
 31
0.0
  0
LINE
  8
0
  6
CONTINUOUS
 62
   249
 10
352.698477
 20
220.855568
 30
0.0
 11
353.947151
 21
220.144747
 31
0.0
  0
LINE
  8
0
  6
CONTINUOUS
 62
   249
 10
353.947151
 20
220.144747
 30
0.0
 11
352.698477
 21
219.511341
 31
0.0
  0
LINE
  8
0
  6
CONTINUOUS
 62
   249
 10
350.48184
 20
226.636279
 30
0.0
 11
351.368727
 21
226.636279
 31
0.0
  0
LINE
  8
0
  6
CONTINUOUS
 62
   249
 10
350.150736
 20
227.247912
 30
0.0
 11
351.735307
 21
227.247912
 31
0.0
  0
LINE
  8
0
  6
CONTINUOUS
 62
   249
 10
350.966672
 20
227.869974
 30
0.0
 11
352.161013
 21
227.869974
 31
0.0
  0
LINE
  8
0
  6
CONTINUOUS
 62
   249
 10
349.772331
 20
227.869974
 30
0.0
 11
350.966672
 21
227.869974
 31
0.0
  0
LINE
  8
0
  6
CONTINUOUS
 62
   249
 10
350.982559
 20
229.224244
 30
0.0
 11
350.982559
 21
227.869974
 31
0.0
  0
ENDSEC
  0
EOF
