  0
SECTION
  2
HEADER
  9
$ACADVER
  1
AC1009
  9
$DWGCODEPAGE
  3
iso8859-1
  9
$INSBASE
 10
0.0
 20
0.0
 30
0.0
  9
$EXTMIN
 10
1.0E20
 20
1.0E20
 30
1.0E20
  9
$EXTMAX
 10
-1.0E20
 20
-1.0E20
 30
-1.0E20
  9
$LIMMIN
 10
0.0
 20
0.0
  9
$LIMMAX
 10
12.0
 20
9.0
  9
$ORTHOMODE
 70
     0
  9
$REGENMODE
 70
     1
  9
$FILLMODE
 70
     1
  9
$QTEXTMODE
 70
     0
  9
$MIRRTEXT
 70
     1
  9
$DRAGMODE
 70
     2
  9
$LTSCALE
 40
15.0
  9
$OSMODE
 70
     0
  9
$ATTMODE
 70
     1
  9
$TEXTSIZE
 40
0.2
  9
$TRACEWID
 40
0.05
  9
$TEXTSTYLE
  7
STANDARD
  9
$CLAYER
  8
0
  9
$CELTYPE
  6
DASHED
  9
$CECOLOR
 62
   256
  9
$DIMSCALE
 40
1.0
  9
$DIMASZ
 40
0.18
  9
$DIMEXO
 40
0.0625
  9
$DIMDLI
 40
0.38
  9
$DIMRND
 40
0.0
  9
$DIMDLE
 40
0.0
  9
$DIMEXE
 40
0.18
  9
$DIMTP
 40
0.0
  9
$DIMTM
 40
0.0
  9
$DIMTXT
 40
0.18
  9
$DIMCEN
 40
0.09
  9
$DIMTSZ
 40
0.0
  9
$DIMTOL
 70
     0
  9
$DIMLIM
 70
     0
  9
$DIMTIH
 70
     1
  9
$DIMTOH
 70
     1
  9
$DIMSE1
 70
     0
  9
$DIMSE2
 70
     0
  9
$DIMTAD
 70
     0
  9
$DIMZIN
 70
     0
  9
$DIMBLK
  1

  9
$DIMASO
 70
     1
  9
$DIMSHO
 70
     1
  9
$DIMPOST
  1

  9
$DIMAPOST
  1

  9
$DIMALT
 70
     0
  9
$DIMALTD
 70
     2
  9
$DIMALTF
 40
25.4
  9
$DIMLFAC
 40
1.0
  9
$DIMTOFL
 70
     0
  9
$DIMTVP
 40
0.0
  9
$DIMTIX
 70
     0
  9
$DIMSOXD
 70
     0
  9
$DIMSAH
 70
     0
  9
$DIMBLK1
  1

  9
$DIMBLK2
  1

  9
$DIMSTYLE
  2
STANDARD
  9
$DIMCLRD
 70
     0
  9
$DIMCLRE
 70
     0
  9
$DIMCLRT
 70
     0
  9
$DIMTFAC
 40
1.0
  9
$DIMGAP
 40
0.09
  9
$LUNITS
 70
     2
  9
$LUPREC
 70
     4
  9
$AXISMODE
 70
     0
  9
$AXISUNIT
 10
0.0
 20
0.0
  9
$SKETCHINC
 40
0.1
  9
$FILLETRAD
 40
0.0
  9
$AUNITS
 70
     0
  9
$AUPREC
 70
     0
  9
$MENU
  1
acad
  9
$ELEVATION
 40
0.0
  9
$PELEVATION
 40
0.0
  9
$THICKNESS
 40
0.0
  9
$LIMCHECK
 70
     0
  9
$BLIPMODE
 70
     1
  9
$CHAMFERA
 40
0.0
  9
$CHAMFERB
 40
0.0
  9
$SKPOLY
 70
     0
  9
$TDCREATE
 40
2450267.486451955
  9
$TDUPDATE
 40
2450267.486451955
  9
$TDINDWG
 40
0.0
  9
$TDUSRTIMER
 40
0.0
  9
$USRTIMER
 70
     1
  9
$ANGBASE
 50
0.0
  9
$ANGDIR
 70
     0
  9
$PDMODE
 70
     0
  9
$PDSIZE
 40
0.0
  9
$PLINEWID
 40
0.0
  9
$COORDS
 70
     1
  9
$SPLFRAME
 70
     0
  9
$SPLINETYPE
 70
     6
  9
$SPLINESEGS
 70
     8
  9
$ATTDIA
 70
     0
  9
$ATTREQ
 70
     1
  9
$HANDLING
 70
     1
  9
$HANDSEED
  5
   71D
  9
$SURFTAB1
 70
     6
  9
$SURFTAB2
 70
     6
  9
$SURFTYPE
 70
     6
  9
$SURFU
 70
     6
  9
$SURFV
 70
     6
  9
$UCSNAME
  2

  9
$UCSORG
 10
0.0
 20
0.0
 30
0.0
  9
$UCSXDIR
 10
1.0
 20
0.0
 30
0.0
  9
$UCSYDIR
 10
0.0
 20
1.0
 30
0.0
  9
$PUCSNAME
  2

  9
$PUCSORG
 10
0.0
 20
0.0
 30
0.0
  9
$PUCSXDIR
 10
1.0
 20
0.0
 30
0.0
  9
$PUCSYDIR
 10
0.0
 20
1.0
 30
0.0
  9
$USERI1
 70
     0
  9
$USERI2
 70
     0
  9
$USERI3
 70
     0
  9
$USERI4
 70
     0
  9
$USERI5
 70
     0
  9
$USERR1
 40
0.0
  9
$USERR2
 40
0.0
  9
$USERR3
 40
0.0
  9
$USERR4
 40
0.0
  9
$USERR5
 40
0.0
  9
$WORLDVIEW
 70
     1
  9
$SHADEDGE
 70
     3
  9
$SHADEDIF
 70
    70
  9
$TILEMODE
 70
     1
  9
$MAXACTVP
 70
    16
  9
$PINSBASE
 10
0.0
 20
0.0
 30
0.0
  9
$PLIMCHECK
 70
     0
  9
$PEXTMIN
 10
1.0E20
 20
1.0E20
 30
1.0E20
  9
$PEXTMAX
 10
-1.0E20
 20
-1.0E20
 30
-1.0E20
  9
$PLIMMIN
 10
0.0
 20
0.0
  9
$PLIMMAX
 10
12.0
 20
9.0
  9
$UNITMODE
 70
     0
  9
$VISRETAIN
 70
     0
  0
ENDSEC
  0
SECTION
  2
TABLES
  0
TABLE
  2
VPORT
 70
     1
  0
VPORT
  2
*ACTIVE
 70
     0
 10
0.0
 20
0.0
 11
1.0
 21
1.0
 12
6.801242
 22
4.5
 13
0.0
 23
0.0
 14
1.0
 24
1.0
 15
0.0
 25
0.0
 16
0.0
 26
0.0
 36
1.0
 17
0.0
 27
0.0
 37
0.0
 40
9.0
 41
1.511387
 42
50.0
 43
0.0
 44
0.0
 50
0.0
 51
0.0
 71
     0
 72
   100
 73
     1
 74
     1
 75
     0
 76
     0
 77
     0
 78
     0
  0
ENDTAB
  0
TABLE
  2
LTYPE
 70
    41
  0
LTYPE
  2
BYBLOCK
 70
     0
  3

 72
    65
 73
     0
 40
0.0
  0
LTYPE
  2
BYLAYER
 70
     0
  3

 72
    65
 73
     0
 40
0.0
  0
LTYPE
  2
CONTINUOUS
 70
     0
  3
Solid line
 72
    65
 73
     0
 40
0.0
  0
LTYPE
  2
BORDER
 70
    64
  3
__ __ . __ __ . __ __ . __ __ . __ __ . __ __ .
 72
    65
 73
     6
 40
1.75
 49
0.5
 49
-0.25
 49
0.5
 49
-0.25
 49
0.0
 49
-0.25
  0
LTYPE
  2
BORDER2
 70
    64
  3
__.__.__.__.__.__.__.__.__.__.__.__.__.__.__.__
 72
    65
 73
     6
 40
0.875
 49
0.25
 49
-0.125
 49
0.25
 49
-0.125
 49
0.0
 49
-0.125
  0
LTYPE
  2
BORDERX2
 70
    64
  3
____  ____  .  ____  ____  .  ____  ____  .  __
 72
    65
 73
     6
 40
3.5
 49
1.0
 49
-0.5
 49
1.0
 49
-0.5
 49
0.0
 49
-0.5
  0
LTYPE
  2
CENTER
 70
    64
  3
____ _ ____ _ ____ _ ____ _ ____ _ ____ _ ____
 72
    65
 73
     4
 40
2.0
 49
1.25
 49
-0.25
 49
0.25
 49
-0.25
  0
LTYPE
  2
CENTER2
 70
    64
  3
___ _ ___ _ ___ _ ___ _ ___ _ ___ _ ___ _ ___ _
 72
    65
 73
     4
 40
1.125
 49
0.75
 49
-0.125
 49
0.125
 49
-0.125
  0
LTYPE
  2
CENTERX2
 70
    64
  3
________  __  ________  __  ________  __  _____
 72
    65
 73
     4
 40
4.0
 49
2.5
 49
-0.5
 49
0.5
 49
-0.5
  0
LTYPE
  2
DASHDOT
 70
    64
  3
__ . __ . __ . __ . __ . __ . __ . __ . __ . __
 72
    65
 73
     4
 40
1.0
 49
0.5
 49
-0.25
 49
0.0
 49
-0.25
  0
LTYPE
  2
DASHDOT2
 70
    64
  3
_._._._._._._._._._._._._._._._._._._._._._._._
 72
    65
 73
     4
 40
0.5
 49
0.25
 49
-0.125
 49
0.0
 49
-0.125
  0
LTYPE
  2
DASHDOTX2
 70
    64
  3
____  .  ____  .  ____  .  ____  .  ____  .  __
 72
    65
 73
     4
 40
2.0
 49
1.0
 49
-0.5
 49
0.0
 49
-0.5
  0
LTYPE
  2
DASHED
 70
    64
  3
__ __ __ __ __ __ __ __ __ __ __ __ __ __ __ __
 72
    65
 73
     2
 40
0.75
 49
0.5
 49
-0.25
  0
LTYPE
  2
DASHED2
 70
    64
  3
_ _ _ _ _ _ _ _ _ _ _ _ _ _ _ _ _ _ _ _ _ _ _ _
 72
    65
 73
     2
 40
0.375
 49
0.25
 49
-0.125
  0
LTYPE
  2
DASHEDX2
 70
    64
  3
____  ____  ____  ____  ____  ____  ____  ____
 72
    65
 73
     2
 40
1.5
 49
1.0
 49
-0.5
  0
LTYPE
  2
DIVIDE
 70
    64
  3
____ . . ____ . . ____ . . ____ . . ____ . . __
 72
    65
 73
     6
 40
1.25
 49
0.5
 49
-0.25
 49
0.0
 49
-0.25
 49
0.0
 49
-0.25
  0
LTYPE
  2
DIVIDE2
 70
    64
  3
__..__..__..__..__..__..__..__..__..__..__..__.
 72
    65
 73
     6
 40
0.625
 49
0.25
 49
-0.125
 49
0.0
 49
-0.125
 49
0.0
 49
-0.125
  0
LTYPE
  2
DIVIDEX2
 70
    64
  3
________  .  .  ________  .  .  ________  .  .
 72
    65
 73
     6
 40
2.5
 49
1.0
 49
-0.5
 49
0.0
 49
-0.5
 49
0.0
 49
-0.5
  0
LTYPE
  2
DOT
 70
    64
  3
. . . . . . . . . . . . . . . . . . . . . . . .
 72
    65
 73
     2
 40
0.25
 49
0.0
 49
-0.25
  0
LTYPE
  2
DOT2
 70
    64
  3
...............................................
 72
    65
 73
     2
 40
0.125
 49
0.0
 49
-0.125
  0
LTYPE
  2
DOTX2
 70
    64
  3
.  .  .  .  .  .  .  .  .  .  .  .  .  .  .  .
 72
    65
 73
     2
 40
0.5
 49
0.0
 49
-0.5
  0
LTYPE
  2
HIDDEN
 70
    64
  3
__ __ __ __ __ __ __ __ __ __ __ __ __ __ __ __
 72
    65
 73
     2
 40
0.375
 49
0.25
 49
-0.125
  0
LTYPE
  2
HIDDEN2
 70
    64
  3
_ _ _ _ _ _ _ _ _ _ _ _ _ _ _ _ _ _ _ _ _ _ _ _
 72
    65
 73
     2
 40
0.1875
 49
0.125
 49
-0.0625
  0
LTYPE
  2
HIDDENX2
 70
    64
  3
____ ____ ____ ____ ____ ____ ____ ____ ____ __
 72
    65
 73
     2
 40
0.75
 49
0.5
 49
-0.25
  0
LTYPE
  2
PHANTOM
 70
    64
  3
______  __  __  ______  __  __  ______  __  __
 72
    65
 73
     6
 40
2.5
 49
1.25
 49
-0.25
 49
0.25
 49
-0.25
 49
0.25
 49
-0.25
  0
LTYPE
  2
PHANTOM2
 70
    64
  3
___ _ _ ___ _ _ ___ _ _ ___ _ _ ___ _ _ ___ _ _
 72
    65
 73
     6
 40
1.25
 49
0.625
 49
-0.125
 49
0.125
 49
-0.125
 49
0.125
 49
-0.125
  0
LTYPE
  2
PHANTOMX2
 70
    64
  3
____________    ____    ____    ____________
 72
    65
 73
     6
 40
5.0
 49
2.5
 49
-0.5
 49
0.5
 49
-0.5
 49
0.5
 49
-0.5
  0
LTYPE
  2
ACAD_ISO02W100
 70
    64
  3
__ __ __ __ __ __ __ __ __ __ __ __ __ __ __ __
 72
    65
 73
     2
 40
15.0
 49
12.0
 49
-3.0
  0
LTYPE
  2
ACAD_ISO03W100
 70
    64
  3
__    __    __    __    __    __    __    __
 72
    65
 73
     2
 40
30.0
 49
12.0
 49
-18.0
  0
LTYPE
  2
ACAD_ISO04W100
 70
    64
  3
____ . ____ . ____ . ____ . ____ . ____ . ____
 72
    65
 73
     4
 40
30.5
 49
24.0
 49
-3.0
 49
0.5
 49
-3.0
  0
LTYPE
  2
ACAD_ISO05W100
 70
    64
  3
____ .. ____ .. ____ .. ____ .. ____ .. ____ ..
 72
    65
 73
     6
 40
34.0
 49
24.0
 49
-3.0
 49
0.5
 49
-3.0
 49
0.5
 49
-3.0
  0
LTYPE
  2
ACAD_ISO06W100
 70
    64
  3
____ ... ____ ... ____ ... ____ ... ____ ... __
 72
    65
 73
     8
 40
37.5
 49
24.0
 49
-3.0
 49
0.5
 49
-3.0
 49
0.5
 49
-3.0
 49
0.5
 49
-3.0
  0
LTYPE
  2
ACAD_ISO07W100
 70
    64
  3
. . . . . . . . . . . . . . . . . . . . . . . .
 72
    65
 73
     2
 40
3.5
 49
0.5
 49
-3.0
  0
LTYPE
  2
ACAD_ISO08W100
 70
    64
  3
____ __ ____ __ ____ __ ____ ____ __ __ ____ __
 72
    65
 73
     4
 40
36.0
 49
24.0
 49
-3.0
 49
6.0
 49
-3.0
  0
LTYPE
  2
ACAD_ISO09W100
 70
    64
  3
____ __ __ ____ __ __ ____ __ __ ____ __ __ ___
 72
    65
 73
     6
 40
45.0
 49
24.0
 49
-3.0
 49
6.0
 49
-3.0
 49
6.0
 49
-3.0
  0
LTYPE
  2
ACAD_ISO10W100
 70
    64
  3
__ . __ . __ . __ . __ . __ . __ . __ . __ . __
 72
    65
 73
     4
 40
18.5
 49
12.0
 49
-3.0
 49
0.5
 49
-3.0
  0
LTYPE
  2
ACAD_ISO11W100
 70
    64
  3
__ __ . __ __ . __ __ . __ __ . __ __ . __ __ .
 72
    65
 73
     6
 40
33.5
 49
12.0
 49
-3.0
 49
12.0
 49
-3.0
 49
0.5
 49
-3.0
  0
LTYPE
  2
ACAD_ISO12W100
 70
    64
  3
__ . . __ . . __ . . __ . . __ . . __ . . __ .
 72
    65
 73
     6
 40
22.0
 49
12.0
 49
-3.0
 49
0.5
 49
-3.0
 49
0.5
 49
-3.0
  0
LTYPE
  2
ACAD_ISO13W100
 70
    64
  3
__ __ . . __ __ . . __ __ . . __ __ . . __ __ .
 72
    65
 73
     8
 40
37.0
 49
12.0
 49
-3.0
 49
12.0
 49
-3.0
 49
0.5
 49
-3.0
 49
0.5
 49
-3.0
  0
LTYPE
  2
ACAD_ISO14W100
 70
    64
  3
__ . . . __ . . . __ . . . __ . . . __ . . . __
 72
    65
 73
     8
 40
25.5
 49
12.0
 49
-3.0
 49
0.5
 49
-3.0
 49
0.5
 49
-3.0
 49
0.5
 49
-3.0
  0
LTYPE
  2
ACAD_ISO15W100
 70
    64
  3
__ __ . . . __ __ . . . __ __ . . . __ __ . . .
 72
    65
 73
    10
 40
40.5
 49
12.0
 49
-3.0
 49
12.0
 49
-3.0
 49
0.5
 49
-3.0
 49
0.5
 49
-3.0
 49
0.5
 49
-3.0
  0
ENDTAB
  0
TABLE
  2
STYLE
 70
     4
  0
STYLE
  2
STANDARD
 70
    64
 40
0.0
 41
1.0
 50
0.0
 71
     0
 42
0.2
  3
txt
  4

  0
STYLE
  2
TOLERANCE
 70
    64
 40
0.0
 41
1.0
 50
0.0
 71
     0
 42
0.2
  3
iges1003.shx
  4

  0
STYLE
  2
ROMANS
 70
    64
 40
0.0
 41
1.0
 50
0.0
 71
     0
 42
0.2
  3
romans.shx
  4

  0
STYLE
  2
ROMANC
 70
    64
 40
0.0
 41
1.0
 50
0.0
 71
     0
 42
0.2
  3
romanc.shx
  4

  0
ENDTAB
  0
TABLE
  2
DIMSTYLE
 70
     2
  0
DIMSTYLE
  2
UNNAMED
 70
     0
  3

  4

  5

  6

  7

 40
1.0
 41
0.18
 42
0.0625
 43
0.38
 44
0.18
 45
0.0
 46
0.0
 47
0.0
 48
0.0
140
0.18
141
0.09
142
0.0
143
25.4
144
1.0
145
0.0
146
1.0
147
0.09
 71
     0
 72
     0
 73
     1
 74
     1
 75
     0
 76
     0
 77
     0
 78
     0
170
     0
171
     2
172
     0
173
     0
174
     0
175
     0
176
     0
177
     0
178
     0
  0
DIMSTYLE
  2
STANDARD
 70
     0
  3

  4

  5

  6

  7

 40
1.0
 41
0.18
 42
0.0625
 43
0.38
 44
0.18
 45
0.0
 46
0.0
 47
0.0
 48
0.0
140
0.18
141
0.09
142
0.0
143
25.4
144
1.0
145
0.0
146
1.0
147
0.09
 71
     0
 72
     0
 73
     1
 74
     1
 75
     0
 76
     0
 77
     0
 78
     0
170
     0
171
     2
172
     0
173
     0
174
     0
175
     0
176
     0
177
     0
178
     0
  0
ENDTAB
  0
TABLE
  2
LAYER
 70
     2
  0
LAYER
  2
0
 70
     0
 62
     7
  6
CONTINUOUS
  0
LAYER
  2
255
 70
     0
 62
     7
  6
CONTINUOUS
  0
ENDTAB
  0
ENDSEC
  0
SECTION
  2
BLOCKS
  0
BLOCK
  5
     B
  8
0
  6
CONTINUOUS
 62
     7
  2
*HATCH1256
 70
    65
 10
0.0
 20
0.0
 30
0.0
  3
*HATCH1256
  0
LINE
  5
     C
  8
0
  6
CONTINUOUS
 62
    52
 10
122.068588256836
 20
496.565490722656
 30
0.0
 11
122.068580627441
 21
478.065490722656
 31
0.0
  0
LINE
  5
     D
  8
0
  6
CONTINUOUS
 62
    52
 10
123.568588256836
 20
496.565490722656
 30
0.0
 11
123.568580627441
 21
478.065490722656
 31
0.0
  0
LINE
  5
     E
  8
0
  6
CONTINUOUS
 62
    52
 10
125.068588256836
 20
496.565490722656
 30
0.0
 11
125.068580627441
 21
478.065490722656
 31
0.0
  0
LINE
  5
     F
  8
0
  6
CONTINUOUS
 62
    52
 10
126.568588256836
 20
496.565490722656
 30
0.0
 11
126.568580627441
 21
478.065490722656
 31
0.0
  0
LINE
  5
    10
  8
0
  6
CONTINUOUS
 62
    52
 10
128.068588256836
 20
496.565490722656
 30
0.0
 11
128.068580627441
 21
478.065490722656
 31
0.0
  0
LINE
  5
    11
  8
0
  6
CONTINUOUS
 62
    52
 10
129.568588256836
 20
496.565490722656
 30
0.0
 11
129.568580627441
 21
478.065490722656
 31
0.0
  0
LINE
  5
    12
  8
0
  6
CONTINUOUS
 62
    52
 10
131.068588256836
 20
496.565490722656
 30
0.0
 11
131.068580627441
 21
478.065490722656
 31
0.0
  0
LINE
  5
    13
  8
0
  6
CONTINUOUS
 62
    52
 10
132.568588256836
 20
496.565490722656
 30
0.0
 11
132.568580627441
 21
478.065490722656
 31
0.0
  0
LINE
  5
    14
  8
0
  6
CONTINUOUS
 62
    52
 10
134.068588256836
 20
496.565490722656
 30
0.0
 11
134.068580627441
 21
478.065490722656
 31
0.0
  0
LINE
  5
    15
  8
0
  6
CONTINUOUS
 62
    52
 10
135.568588256836
 20
496.565490722656
 30
0.0
 11
135.568580627441
 21
478.065490722656
 31
0.0
  0
LINE
  5
    16
  8
0
  6
CONTINUOUS
 62
    52
 10
137.068588256836
 20
496.565490722656
 30
0.0
 11
137.068580627441
 21
478.065490722656
 31
0.0
  0
LINE
  5
    17
  8
0
  6
CONTINUOUS
 62
    52
 10
138.568588256836
 20
496.565490722656
 30
0.0
 11
138.568580627441
 21
478.065490722656
 31
0.0
  0
LINE
  5
    18
  8
0
  6
CONTINUOUS
 62
    52
 10
140.068588256836
 20
496.565490722656
 30
0.0
 11
140.068580627441
 21
478.065490722656
 31
0.0
  0
LINE
  5
    19
  8
0
  6
CONTINUOUS
 62
    52
 10
141.568588256836
 20
496.565490722656
 30
0.0
 11
141.568580627441
 21
478.065490722656
 31
0.0
  0
LINE
  5
    1A
  8
0
  6
CONTINUOUS
 62
    52
 10
143.068588256836
 20
496.565490722656
 30
0.0
 11
143.068580627441
 21
478.065490722656
 31
0.0
  0
LINE
  5
    1B
  8
0
  6
CONTINUOUS
 62
    52
 10
144.568588256836
 20
496.565490722656
 30
0.0
 11
144.568580627441
 21
478.065490722656
 31
0.0
  0
ENDBLK
  5
    1C
  8
0
  6
CONTINUOUS
 62
     7
  0
BLOCK
  5
    1D
  8
0
  6
CONTINUOUS
 62
     7
  2
*HATCH1257
 70
    65
 10
0.0
 20
0.0
 30
0.0
  3
*HATCH1257
  0
LINE
  5
    1E
  8
0
  6
CONTINUOUS
 62
    52
 10
120.568634033203
 20
592.865489959717
 30
0.0
 11
120.568603515625
 21
532.565634465151
 31
0.0
  0
LINE
  5
    1F
  8
0
  6
CONTINUOUS
 62
    52
 10
122.068634033203
 20
592.865489959717
 30
0.0
 11
122.068588256836
 21
497.265491485596
 31
0.0
  0
LINE
  5
    20
  8
0
  6
CONTINUOUS
 62
    52
 10
123.568634033203
 20
592.865489959717
 30
0.0
 11
123.568588256836
 21
497.265491485596
 31
0.0
  0
LINE
  5
    21
  8
0
  6
CONTINUOUS
 62
    52
 10
125.068634033203
 20
592.865489959717
 30
0.0
 11
125.068588256836
 21
497.265491485596
 31
0.0
  0
LINE
  5
    22
  8
0
  6
CONTINUOUS
 62
    52
 10
126.568634033203
 20
592.865489959717
 30
0.0
 11
126.568588256836
 21
497.265491485596
 31
0.0
  0
LINE
  5
    23
  8
0
  6
CONTINUOUS
 62
    52
 10
128.068634033203
 20
592.865489959717
 30
0.0
 11
128.068588256836
 21
497.265491485596
 31
0.0
  0
LINE
  5
    24
  8
0
  6
CONTINUOUS
 62
    52
 10
129.568634033203
 20
592.865489959717
 30
0.0
 11
129.568588256836
 21
497.265491485596
 31
0.0
  0
LINE
  5
    25
  8
0
  6
CONTINUOUS
 62
    52
 10
131.068634033203
 20
592.865489959717
 30
0.0
 11
131.068588256836
 21
497.265491485596
 31
0.0
  0
LINE
  5
    26
  8
0
  6
CONTINUOUS
 62
    52
 10
132.568634033203
 20
592.865489959717
 30
0.0
 11
132.568588256836
 21
497.265491485596
 31
0.0
  0
LINE
  5
    27
  8
0
  6
CONTINUOUS
 62
    52
 10
134.068634033203
 20
592.865489959717
 30
0.0
 11
134.068588256836
 21
497.265491485596
 31
0.0
  0
LINE
  5
    28
  8
0
  6
CONTINUOUS
 62
    52
 10
135.568634033203
 20
592.865489959717
 30
0.0
 11
135.568588256836
 21
497.265491485596
 31
0.0
  0
LINE
  5
    29
  8
0
  6
CONTINUOUS
 62
    52
 10
137.068634033203
 20
592.865489959717
 30
0.0
 11
137.068588256836
 21
497.265491485596
 31
0.0
  0
LINE
  5
    2A
  8
0
  6
CONTINUOUS
 62
    52
 10
138.568634033203
 20
592.865489959717
 30
0.0
 11
138.568588256836
 21
497.265491485596
 31
0.0
  0
LINE
  5
    2B
  8
0
  6
CONTINUOUS
 62
    52
 10
140.068634033203
 20
592.865489959717
 30
0.0
 11
140.068588256836
 21
497.265491485596
 31
0.0
  0
LINE
  5
    2C
  8
0
  6
CONTINUOUS
 62
    52
 10
141.568634033203
 20
592.865489959717
 30
0.0
 11
141.568588256836
 21
497.265491485596
 31
0.0
  0
LINE
  5
    2D
  8
0
  6
CONTINUOUS
 62
    52
 10
143.068634033203
 20
592.865489959717
 30
0.0
 11
143.068588256836
 21
497.265491485596
 31
0.0
  0
LINE
  5
    2E
  8
0
  6
CONTINUOUS
 62
    52
 10
144.568634033203
 20
592.865489959717
 30
0.0
 11
144.568588256836
 21
497.265491485596
 31
0.0
  0
ENDBLK
  5
    2F
  8
0
  6
CONTINUOUS
 62
     7
  0
BLOCK
  5
    30
  8
0
  6
CONTINUOUS
 62
     7
  2
*HATCH1258
 70
    65
 10
0.0
 20
0.0
 30
0.0
  3
*HATCH1258
  0
LINE
  5
    31
  8
0
  6
CONTINUOUS
 62
    52
 10
120.568641662598
 20
611.065711975098
 30
0.0
 11
120.568634033203
 21
593.565486907959
 31
0.0
  0
LINE
  5
    32
  8
0
  6
CONTINUOUS
 62
    52
 10
122.068641662598
 20
612.065483093262
 30
0.0
 11
122.068634033203
 21
593.565486907959
 31
0.0
  0
LINE
  5
    33
  8
0
  6
CONTINUOUS
 62
    52
 10
123.568641662598
 20
612.065483093262
 30
0.0
 11
123.568634033203
 21
593.565486907959
 31
0.0
  0
LINE
  5
    34
  8
0
  6
CONTINUOUS
 62
    52
 10
125.068641662598
 20
612.065483093262
 30
0.0
 11
125.068634033203
 21
593.565486907959
 31
0.0
  0
LINE
  5
    35
  8
0
  6
CONTINUOUS
 62
    52
 10
126.568641662598
 20
612.065483093262
 30
0.0
 11
126.568634033203
 21
593.565486907959
 31
0.0
  0
LINE
  5
    36
  8
0
  6
CONTINUOUS
 62
    52
 10
128.068641662598
 20
612.065483093262
 30
0.0
 11
128.068634033203
 21
593.565486907959
 31
0.0
  0
LINE
  5
    37
  8
0
  6
CONTINUOUS
 62
    52
 10
129.568641662598
 20
612.065483093262
 30
0.0
 11
129.568634033203
 21
593.565486907959
 31
0.0
  0
LINE
  5
    38
  8
0
  6
CONTINUOUS
 62
    52
 10
131.068641662598
 20
612.065483093262
 30
0.0
 11
131.068634033203
 21
593.565486907959
 31
0.0
  0
LINE
  5
    39
  8
0
  6
CONTINUOUS
 62
    52
 10
132.568641662598
 20
612.065483093262
 30
0.0
 11
132.568634033203
 21
593.565486907959
 31
0.0
  0
LINE
  5
    3A
  8
0
  6
CONTINUOUS
 62
    52
 10
134.068641662598
 20
612.065483093262
 30
0.0
 11
134.068634033203
 21
593.565486907959
 31
0.0
  0
LINE
  5
    3B
  8
0
  6
CONTINUOUS
 62
    52
 10
135.568641662598
 20
612.065483093262
 30
0.0
 11
135.568634033203
 21
593.565486907959
 31
0.0
  0
LINE
  5
    3C
  8
0
  6
CONTINUOUS
 62
    52
 10
137.068641662598
 20
612.065483093262
 30
0.0
 11
137.068634033203
 21
593.565486907959
 31
0.0
  0
LINE
  5
    3D
  8
0
  6
CONTINUOUS
 62
    52
 10
138.568641662598
 20
612.065483093262
 30
0.0
 11
138.568634033203
 21
593.565486907959
 31
0.0
  0
LINE
  5
    3E
  8
0
  6
CONTINUOUS
 62
    52
 10
140.068641662598
 20
612.065483093262
 30
0.0
 11
140.068634033203
 21
593.565486907959
 31
0.0
  0
LINE
  5
    3F
  8
0
  6
CONTINUOUS
 62
    52
 10
141.568641662598
 20
612.065483093262
 30
0.0
 11
141.568634033203
 21
593.565486907959
 31
0.0
  0
LINE
  5
    40
  8
0
  6
CONTINUOUS
 62
    52
 10
143.068641662598
 20
612.065483093262
 30
0.0
 11
143.068634033203
 21
593.565486907959
 31
0.0
  0
LINE
  5
    41
  8
0
  6
CONTINUOUS
 62
    52
 10
144.568641662598
 20
612.065483093262
 30
0.0
 11
144.568634033203
 21
593.565486907959
 31
0.0
  0
ENDBLK
  5
    42
  8
0
  6
CONTINUOUS
 62
     7
  0
BLOCK
  5
    43
  8
0
  6
CONTINUOUS
 62
     7
  2
*UDIM1501
 70
    65
 10
0.0
 20
0.0
 30
0.0
  3
*UDIM1501
  0
LINE
  5
    44
  8
0
  6
CONTINUOUS
 62
     7
 10
157.468603515631
 20
563.065490722656
 30
0.0
 11
157.468603515631
 21
578.542249451241
 31
0.0
  0
LINE
  5
    45
  8
0
  6
CONTINUOUS
 62
     7
 10
233.668603515625
 20
563.065490722656
 30
0.0
 11
233.668603515625
 21
578.542249451241
 31
0.0
  0
LINE
  5
    46
  8
0
  6
CONTINUOUS
 62
     7
 10
157.468603515631
 20
576.542249451241
 30
0.0
 11
233.668603515625
 21
576.542249451241
 31
0.0
  0
LINE
  5
    47
  8
0
  6
CONTINUOUS
 62
     7
 10
160.366380988842
 20
577.318706607659
 30
0.0
 11
157.468603515631
 21
576.542249451241
 31
0.0
  0
LINE
  5
    48
  8
0
  6
CONTINUOUS
 62
     7
 10
157.468603515631
 20
576.542249451241
 30
0.0
 11
160.366380988842
 21
575.765792294822
 31
0.0
  0
LINE
  5
    49
  8
0
  6
CONTINUOUS
 62
     7
 10
230.770826042414
 20
575.765792294822
 30
0.0
 11
233.668603515625
 21
576.542249451241
 31
0.0
  0
LINE
  5
    4A
  8
0
  6
CONTINUOUS
 62
     7
 10
233.668603515625
 20
576.542249451241
 30
0.0
 11
230.770826042414
 21
577.318706607659
 31
0.0
  0
TEXT
  5
    4B
  8
0
  6
CONTINUOUS
 62
     7
 10
190.268603462977
 20
577.542249451241
 30
0.0
 40
3.00000002980232
  1
76,2
 41
0.933333333333333
 72
     1
 11
195.568603515628
 21
579.042249466142
 31
0.0
 73
     2
  0
TEXT
  5
    4C
  8
0
  6
CONTINUOUS
 62
     7
 10
191.668603476885
 20
573.542249421438
 30
0.0
 40
3.00000002980232
  1
= =
 41
0.933333333333333
 72
     1
 11
195.568603515628
 21
575.04224943634
 31
0.0
 73
     2
  0
ENDBLK
  5
    4D
  8
0
  6
CONTINUOUS
 62
     7
  0
BLOCK
  5
    4E
  8
0
  6
CONTINUOUS
 62
     7
  2
*UDIM1502
 70
    65
 10
0.0
 20
0.0
 30
0.0
  3
*UDIM1502
  0
LINE
  5
    4F
  8
0
  6
CONTINUOUS
 62
     7
 10
195.568603515625
 20
626.338204161125
 30
0.0
 11
195.568603515625
 21
629.833801030337
 31
0.0
  0
LINE
  5
    50
  8
0
  6
CONTINUOUS
 62
     7
 10
225.568603515625
 20
603.215490732348
 30
0.0
 11
225.568603515625
 21
629.833801030337
 31
0.0
  0
LINE
  5
    51
  8
0
  6
CONTINUOUS
 62
     7
 10
195.568603515625
 20
627.833801030337
 30
0.0
 11
225.568603515625
 21
627.833801030337
 31
0.0
  0
LINE
  5
    52
  8
0
  6
CONTINUOUS
 62
     7
 10
198.466380988836
 20
628.610258186756
 30
0.0
 11
195.568603515625
 21
627.833801030337
 31
0.0
  0
LINE
  5
    53
  8
0
  6
CONTINUOUS
 62
     7
 10
195.568603515625
 20
627.833801030337
 30
0.0
 11
198.466380988836
 21
627.057343873919
 31
0.0
  0
LINE
  5
    54
  8
0
  6
CONTINUOUS
 62
     7
 10
222.670826042415
 20
627.057343873919
 30
0.0
 11
225.568603515625
 21
627.833801030337
 31
0.0
  0
LINE
  5
    55
  8
0
  6
CONTINUOUS
 62
     7
 10
225.568603515625
 20
627.833801030337
 30
0.0
 11
222.670826042415
 21
628.610258186756
 31
0.0
  0
TEXT
  5
    56
  8
0
  6
CONTINUOUS
 62
     7
 10
208.06860349079
 20
628.833801030337
 30
0.0
 40
3.00000002980232
  1
30
 41
0.933333333333333
 72
     1
 11
210.568603515625
 21
630.333801045239
 31
0.0
 73
     2
  0
ENDBLK
  5
    57
  8
0
  6
CONTINUOUS
 62
     7
  0
BLOCK
  5
    58
  8
0
  6
CONTINUOUS
 62
     7
  2
*UDIM1503
 70
    65
 10
0.0
 20
0.0
 30
0.0
  3
*UDIM1503
  0
LINE
  5
    59
  8
0
  6
CONTINUOUS
 62
     7
 10
165.568603515625
 20
603.215490732348
 30
0.0
 11
165.568603515625
 21
629.833801030337
 31
0.0
  0
LINE
  5
    5A
  8
0
  6
CONTINUOUS
 62
     7
 10
195.568603515625
 20
626.338204161125
 30
0.0
 11
195.568603515625
 21
629.833801030337
 31
0.0
  0
LINE
  5
    5B
  8
0
  6
CONTINUOUS
 62
     7
 10
165.568603515625
 20
627.833801030337
 30
0.0
 11
195.568603515625
 21
627.833801030337
 31
0.0
  0
LINE
  5
    5C
  8
0
  6
CONTINUOUS
 62
     7
 10
168.466380988835
 20
628.610258186756
 30
0.0
 11
165.568603515625
 21
627.833801030337
 31
0.0
  0
LINE
  5
    5D
  8
0
  6
CONTINUOUS
 62
     7
 10
165.568603515625
 20
627.833801030337
 30
0.0
 11
168.466380988835
 21
627.057343873919
 31
0.0
  0
LINE
  5
    5E
  8
0
  6
CONTINUOUS
 62
     7
 10
192.670826042415
 20
627.057343873919
 30
0.0
 11
195.568603515625
 21
627.833801030337
 31
0.0
  0
LINE
  5
    5F
  8
0
  6
CONTINUOUS
 62
     7
 10
195.568603515625
 20
627.833801030337
 30
0.0
 11
192.670826042415
 21
628.610258186756
 31
0.0
  0
TEXT
  5
    60
  8
0
  6
CONTINUOUS
 62
     7
 10
178.06860349079
 20
628.833801030337
 30
0.0
 40
3.00000002980232
  1
30
 41
0.933333333333333
 72
     1
 11
180.568603515625
 21
630.333801045239
 31
0.0
 73
     2
  0
ENDBLK
  5
    61
  8
0
  6
CONTINUOUS
 62
     7
  0
BLOCK
  5
    62
  8
0
  6
CONTINUOUS
 62
     7
  2
*UDIM1504
 70
    65
 10
0.0
 20
0.0
 30
0.0
  3
*UDIM1504
  0
LINE
  5
    63
  8
0
  6
CONTINUOUS
 62
     7
 10
135.568603515625
 20
603.215490732348
 30
0.0
 11
135.568603515625
 21
629.833801030337
 31
0.0
  0
LINE
  5
    64
  8
0
  6
CONTINUOUS
 62
     7
 10
165.568603515625
 20
603.215490732348
 30
0.0
 11
165.568603515625
 21
629.833801030337
 31
0.0
  0
LINE
  5
    65
  8
0
  6
CONTINUOUS
 62
     7
 10
135.568603515625
 20
627.833801030337
 30
0.0
 11
165.568603515625
 21
627.833801030337
 31
0.0
  0
LINE
  5
    66
  8
0
  6
CONTINUOUS
 62
     7
 10
138.466380988835
 20
628.610258186756
 30
0.0
 11
135.568603515625
 21
627.833801030337
 31
0.0
  0
LINE
  5
    67
  8
0
  6
CONTINUOUS
 62
     7
 10
135.568603515625
 20
627.833801030337
 30
0.0
 11
138.466380988835
 21
627.057343873919
 31
0.0
  0
LINE
  5
    68
  8
0
  6
CONTINUOUS
 62
     7
 10
162.670826042414
 20
627.057343873919
 30
0.0
 11
165.568603515625
 21
627.833801030337
 31
0.0
  0
LINE
  5
    69
  8
0
  6
CONTINUOUS
 62
     7
 10
165.568603515625
 20
627.833801030337
 30
0.0
 11
162.670826042414
 21
628.610258186756
 31
0.0
  0
TEXT
  5
    6A
  8
0
  6
CONTINUOUS
 62
     7
 10
148.06860349079
 20
628.833801030337
 30
0.0
 40
3.00000002980232
  1
30
 41
0.933333333333333
 72
     1
 11
150.568603515625
 21
630.333801045239
 31
0.0
 73
     2
  0
ENDBLK
  5
    6B
  8
0
  6
CONTINUOUS
 62
     7
  0
BLOCK
  5
    6C
  8
0
  6
CONTINUOUS
 62
     7
  2
*UDIM1505
 70
    65
 10
0.0
 20
0.0
 30
0.0
  3
*UDIM1505
  0
LINE
  5
    6D
  8
0
  6
CONTINUOUS
 62
     7
 10
150.568603515684
 20
593.865489959717
 30
0.0
 11
150.568603515684
 21
641.270719556219
 31
0.0
  0
LINE
  5
    6E
  8
0
  6
CONTINUOUS
 62
     7
 10
240.568603515684
 20
593.865489959717
 30
0.0
 11
240.568603515684
 21
641.270719556219
 31
0.0
  0
LINE
  5
    6F
  8
0
  6
CONTINUOUS
 62
     7
 10
150.568603515684
 20
639.270719556219
 30
0.0
 11
240.568603515684
 21
639.270719556219
 31
0.0
  0
LINE
  5
    70
  8
0
  6
CONTINUOUS
 62
     7
 10
153.466380988894
 20
640.047176712638
 30
0.0
 11
150.568603515684
 21
639.270719556219
 31
0.0
  0
LINE
  5
    71
  8
0
  6
CONTINUOUS
 62
     7
 10
150.568603515684
 20
639.270719556219
 30
0.0
 11
153.466380988894
 21
638.494262399801
 31
0.0
  0
LINE
  5
    72
  8
0
  6
CONTINUOUS
 62
     7
 10
237.670826042473
 20
638.494262399801
 30
0.0
 11
240.568603515684
 21
639.270719556219
 31
0.0
  0
LINE
  5
    73
  8
0
  6
CONTINUOUS
 62
     7
 10
240.568603515684
 20
639.270719556219
 30
0.0
 11
237.670826042473
 21
640.047176712638
 31
0.0
  0
TEXT
  5
    74
  8
0
  6
CONTINUOUS
 62
     7
 10
193.068603490848
 20
640.270719556219
 30
0.0
 40
3.00000002980232
  1
90
 41
0.933333333333333
 72
     1
 11
195.568603515684
 21
641.77071957112
 31
0.0
 73
     2
  0
ENDBLK
  5
    75
  8
0
  6
CONTINUOUS
 62
     7
  0
BLOCK
  5
    76
  8
0
  6
CONTINUOUS
 62
     7
  2
*UDIM1506
 70
    65
 10
0.0
 20
0.0
 30
0.0
  3
*UDIM1506
  0
LINE
  5
    77
  8
0
  6
CONTINUOUS
 62
     7
 10
120.568603515684
 20
593.865489959717
 30
0.0
 11
120.568603515684
 21
652.464346213705
 31
0.0
  0
LINE
  5
    78
  8
0
  6
CONTINUOUS
 62
     7
 10
240.568603515684
 20
593.865489959717
 30
0.0
 11
240.568603515684
 21
652.464346213705
 31
0.0
  0
LINE
  5
    79
  8
0
  6
CONTINUOUS
 62
     7
 10
120.568603515684
 20
650.464346213705
 30
0.0
 11
240.568603515684
 21
650.464346213705
 31
0.0
  0
LINE
  5
    7A
  8
0
  6
CONTINUOUS
 62
     7
 10
123.466380988894
 20
651.240803370123
 30
0.0
 11
120.568603515684
 21
650.464346213705
 31
0.0
  0
LINE
  5
    7B
  8
0
  6
CONTINUOUS
 62
     7
 10
120.568603515684
 20
650.464346213705
 30
0.0
 11
123.466380988894
 21
649.687889057286
 31
0.0
  0
LINE
  5
    7C
  8
0
  6
CONTINUOUS
 62
     7
 10
237.670826042473
 20
649.687889057286
 30
0.0
 11
240.568603515684
 21
650.464346213705
 31
0.0
  0
LINE
  5
    7D
  8
0
  6
CONTINUOUS
 62
     7
 10
240.568603515684
 20
650.464346213705
 30
0.0
 11
237.670826042473
 21
651.240803370123
 31
0.0
  0
TEXT
  5
    7E
  8
0
  6
CONTINUOUS
 62
     7
 10
176.668603476941
 20
651.464346213705
 30
0.0
 40
3.00000002980232
  1
120
 41
0.933333333333333
 72
     1
 11
180.568603515684
 21
652.964346228606
 31
0.0
 73
     2
  0
ENDBLK
  5
    7F
  8
0
  6
CONTINUOUS
 62
     7
  0
BLOCK
  5
    80
  8
0
  6
CONTINUOUS
 62
     7
  2
*UDIM1507
 70
    65
 10
0.0
 20
0.0
 30
0.0
  3
*UDIM1507
  0
LINE
  5
    81
  8
0
  6
CONTINUOUS
 62
     7
 10
108.248380291028
 20
545.065490722656
 30
0.0
 11
101.799650301192
 21
545.065490722656
 31
0.0
  0
LINE
  5
    82
  8
0
  6
CONTINUOUS
 62
     7
 10
120.568603515625
 20
612.065485537219
 30
0.0
 11
101.799650301192
 21
612.065485537219
 31
0.0
  0
LINE
  5
    83
  8
0
  6
CONTINUOUS
 62
     7
 10
103.799650301192
 20
545.065490722656
 30
0.0
 11
103.799650301192
 21
612.065485537219
 31
0.0
  0
LINE
  5
    84
  8
0
  6
CONTINUOUS
 62
     7
 10
103.023193144774
 20
547.963268195867
 30
0.0
 11
103.799650301192
 21
545.065490722656
 31
0.0
  0
LINE
  5
    85
  8
0
  6
CONTINUOUS
 62
     7
 10
103.799650301192
 20
545.065490722656
 30
0.0
 11
104.576107457611
 21
547.963268195867
 31
0.0
  0
LINE
  5
    86
  8
0
  6
CONTINUOUS
 62
     7
 10
104.576107457611
 20
609.167708064009
 30
0.0
 11
103.799650301192
 21
612.065485537219
 31
0.0
  0
LINE
  5
    87
  8
0
  6
CONTINUOUS
 62
     7
 10
103.799650301192
 20
612.065485537219
 30
0.0
 11
103.023193144774
 21
609.167708064009
 31
0.0
  0
TEXT
  5
    88
  8
0
  6
CONTINUOUS
 62
     7
 10
102.799650301196
 20
576.065488105105
 30
0.0
 40
3.00000002980232
  1
67
 50
90.0
 41
0.933333333333333
 72
     1
 11
101.299650286291
 21
578.565488129938
 31
0.0
 73
     2
  0
ENDBLK
  5
    89
  8
0
  6
CONTINUOUS
 62
     7
  0
BLOCK
  5
    8A
  8
0
  6
CONTINUOUS
 62
     7
  2
*UDIM1508
 70
    65
 10
0.0
 20
0.0
 30
0.0
  3
*UDIM1508
  0
LINE
  5
    8B
  8
0
  6
CONTINUOUS
 62
     7
 10
120.568603515625
 20
478.065490729772
 30
0.0
 11
89.3817207280443
 21
478.065490951672
 31
0.0
  0
LINE
  5
    8C
  8
0
  6
CONTINUOUS
 62
     7
 10
120.568603515625
 20
612.065485539761
 30
0.0
 11
89.3817207280443
 21
612.065485619011
 31
0.0
  0
LINE
  5
    8D
  8
0
  6
CONTINUOUS
 62
     7
 10
91.3817207280443
 20
478.065490937442
 30
0.0
 11
91.3817207280443
 21
612.065485613928
 31
0.0
  0
LINE
  5
    8E
  8
0
  6
CONTINUOUS
 62
     7
 10
90.6052635716257
 20
480.963268410652
 30
0.0
 11
91.3817207280443
 21
478.065490937442
 31
0.0
  0
LINE
  5
    8F
  8
0
  6
CONTINUOUS
 62
     7
 10
91.3817207280443
 20
478.065490937442
 30
0.0
 11
92.1581778844628
 21
480.963268410652
 31
0.0
  0
LINE
  5
    90
  8
0
  6
CONTINUOUS
 62
     7
 10
92.1581778844628
 20
609.167708140718
 30
0.0
 11
91.3817207280443
 21
612.065485613928
 31
0.0
  0
LINE
  5
    91
  8
0
  6
CONTINUOUS
 62
     7
 10
91.3817207280443
 20
612.065485613928
 30
0.0
 11
90.6052635716257
 21
609.167708140718
 31
0.0
  0
TEXT
  5
    92
  8
0
  6
CONTINUOUS
 62
     7
 10
90.3817207280492
 20
541.165488236944
 30
0.0
 40
3.00000002980232
  1
134
 50
90.0
 41
0.933333333333333
 72
     1
 11
88.8817207131431
 21
545.065488275685
 31
0.0
 73
     2
  0
ENDBLK
  5
    93
  8
0
  6
CONTINUOUS
 62
     7
  0
BLOCK
  5
    94
  8
0
  6
CONTINUOUS
 62
     7
  2
*HATCH1259
 70
    65
 10
0.0
 20
0.0
 30
0.0
  3
*HATCH1259
  0
LINE
  5
    95
  8
0
  6
CONTINUOUS
 62
    52
 10
152.368583679199
 20
496.565494537354
 30
0.0
 11
152.368576049805
 21
478.065490722656
 31
0.0
  0
LINE
  5
    96
  8
0
  6
CONTINUOUS
 62
    52
 10
154.16858291626
 20
496.565494537354
 30
0.0
 11
154.168575286865
 21
478.065490722656
 31
0.0
  0
LINE
  5
    97
  8
0
  6
CONTINUOUS
 62
    52
 10
155.96858215332
 20
496.565494537354
 30
0.0
 11
155.968574523926
 21
478.065490722656
 31
0.0
  0
LINE
  5
    98
  8
0
  6
CONTINUOUS
 62
    52
 10
157.768581390381
 20
496.565494537354
 30
0.0
 11
157.768573760986
 21
478.065490722656
 31
0.0
  0
LINE
  5
    99
  8
0
  6
CONTINUOUS
 62
    52
 10
159.568580627441
 20
496.565494537354
 30
0.0
 11
159.568572998047
 21
478.065490722656
 31
0.0
  0
LINE
  5
    9A
  8
0
  6
CONTINUOUS
 62
    52
 10
161.368579864502
 20
496.565494537354
 30
0.0
 11
161.368572235107
 21
478.065490722656
 31
0.0
  0
LINE
  5
    9B
  8
0
  6
CONTINUOUS
 62
    52
 10
163.168579101563
 20
496.565494537354
 30
0.0
 11
163.168571472168
 21
478.065490722656
 31
0.0
  0
LINE
  5
    9C
  8
0
  6
CONTINUOUS
 62
    52
 10
164.968578338623
 20
496.565494537354
 30
0.0
 11
164.968570709229
 21
478.065490722656
 31
0.0
  0
LINE
  5
    9D
  8
0
  6
CONTINUOUS
 62
    52
 10
166.768577575684
 20
496.565494537354
 30
0.0
 11
166.768569946289
 21
478.065490722656
 31
0.0
  0
LINE
  5
    9E
  8
0
  6
CONTINUOUS
 62
    52
 10
168.568576812744
 20
496.565494537354
 30
0.0
 11
168.56856918335
 21
478.065490722656
 31
0.0
  0
LINE
  5
    9F
  8
0
  6
CONTINUOUS
 62
    52
 10
170.368576049805
 20
496.565494537354
 30
0.0
 11
170.36856842041
 21
478.065490722656
 31
0.0
  0
LINE
  5
    A0
  8
0
  6
CONTINUOUS
 62
    52
 10
172.168575286865
 20
496.565494537354
 30
0.0
 11
172.168567657471
 21
478.065490722656
 31
0.0
  0
LINE
  5
    A1
  8
0
  6
CONTINUOUS
 62
    52
 10
173.968574523926
 20
496.565494537354
 30
0.0
 11
173.968566894531
 21
478.065490722656
 31
0.0
  0
LINE
  5
    A2
  8
0
  6
CONTINUOUS
 62
    52
 10
175.768573760986
 20
496.565494537354
 30
0.0
 11
175.768566131592
 21
478.065490722656
 31
0.0
  0
LINE
  5
    A3
  8
0
  6
CONTINUOUS
 62
    52
 10
177.568572998047
 20
496.565494537354
 30
0.0
 11
177.568565368652
 21
478.065490722656
 31
0.0
  0
LINE
  5
    A4
  8
0
  6
CONTINUOUS
 62
    52
 10
179.368572235107
 20
496.565494537354
 30
0.0
 11
179.368564605713
 21
478.065490722656
 31
0.0
  0
LINE
  5
    A5
  8
0
  6
CONTINUOUS
 62
    52
 10
181.168572425842
 20
496.565494537354
 30
0.0
 11
181.168564796448
 21
478.065490722656
 31
0.0
  0
LINE
  5
    A6
  8
0
  6
CONTINUOUS
 62
    52
 10
182.968572616577
 20
496.565494537354
 30
0.0
 11
182.968564987183
 21
478.065490722656
 31
0.0
  0
LINE
  5
    A7
  8
0
  6
CONTINUOUS
 62
    52
 10
184.768572807312
 20
496.565494537354
 30
0.0
 11
184.768565177917
 21
478.065490722656
 31
0.0
  0
LINE
  5
    A8
  8
0
  6
CONTINUOUS
 62
    52
 10
186.568572998047
 20
496.565494537354
 30
0.0
 11
186.568565368652
 21
478.065490722656
 31
0.0
  0
LINE
  5
    A9
  8
0
  6
CONTINUOUS
 62
    52
 10
188.368573188782
 20
496.565494537354
 30
0.0
 11
188.368565559387
 21
478.065490722656
 31
0.0
  0
LINE
  5
    AA
  8
0
  6
CONTINUOUS
 62
    52
 10
190.168573379517
 20
496.565494537354
 30
0.0
 11
190.168565750122
 21
478.065490722656
 31
0.0
  0
LINE
  5
    AB
  8
0
  6
CONTINUOUS
 62
    52
 10
191.968573570251
 20
496.565494537354
 30
0.0
 11
191.968565940857
 21
478.065490722656
 31
0.0
  0
LINE
  5
    AC
  8
0
  6
CONTINUOUS
 62
    52
 10
193.768573641777
 20
496.565494537354
 30
0.0
 11
193.768566012383
 21
478.065490722656
 31
0.0
  0
LINE
  5
    AD
  8
0
  6
CONTINUOUS
 62
    52
 10
195.568573713303
 20
496.565494537354
 30
0.0
 11
195.568566083908
 21
478.065490722656
 31
0.0
  0
LINE
  5
    AE
  8
0
  6
CONTINUOUS
 62
    52
 10
197.368573784828
 20
496.565494537354
 30
0.0
 11
197.368566155434
 21
478.065490722656
 31
0.0
  0
LINE
  5
    AF
  8
0
  6
CONTINUOUS
 62
    52
 10
199.168573856354
 20
496.565494537354
 30
0.0
 11
199.168566226959
 21
478.065490722656
 31
0.0
  0
LINE
  5
    B0
  8
0
  6
CONTINUOUS
 62
    52
 10
200.968574047089
 20
496.565494537354
 30
0.0
 11
200.968566417694
 21
478.065490722656
 31
0.0
  0
LINE
  5
    B1
  8
0
  6
CONTINUOUS
 62
    52
 10
202.768574237823
 20
496.565494537354
 30
0.0
 11
202.768566608429
 21
478.065490722656
 31
0.0
  0
LINE
  5
    B2
  8
0
  6
CONTINUOUS
 62
    52
 10
204.568573951721
 20
496.565494537354
 30
0.0
 11
204.568566322327
 21
478.065490722656
 31
0.0
  0
LINE
  5
    B3
  8
0
  6
CONTINUOUS
 62
    52
 10
206.368574142456
 20
496.565494537354
 30
0.0
 11
206.368566513062
 21
478.065490722656
 31
0.0
  0
LINE
  5
    B4
  8
0
  6
CONTINUOUS
 62
    52
 10
208.168574333191
 20
496.565494537354
 30
0.0
 11
208.168566703796
 21
478.065490722656
 31
0.0
  0
LINE
  5
    B5
  8
0
  6
CONTINUOUS
 62
    52
 10
209.968574523926
 20
496.565494537354
 30
0.0
 11
209.968566894531
 21
478.065490722656
 31
0.0
  0
LINE
  5
    B6
  8
0
  6
CONTINUOUS
 62
    52
 10
211.768573760986
 20
496.565494537354
 30
0.0
 11
211.768566131592
 21
478.065490722656
 31
0.0
  0
LINE
  5
    B7
  8
0
  6
CONTINUOUS
 62
    52
 10
213.568572998047
 20
496.565494537354
 30
0.0
 11
213.568565368652
 21
478.065490722656
 31
0.0
  0
LINE
  5
    B8
  8
0
  6
CONTINUOUS
 62
    52
 10
215.368572235107
 20
496.565494537354
 30
0.0
 11
215.368564605713
 21
478.065490722656
 31
0.0
  0
LINE
  5
    B9
  8
0
  6
CONTINUOUS
 62
    52
 10
217.168571472168
 20
496.565494537354
 30
0.0
 11
217.168563842773
 21
478.065490722656
 31
0.0
  0
LINE
  5
    BA
  8
0
  6
CONTINUOUS
 62
    52
 10
218.968570709229
 20
496.565494537354
 30
0.0
 11
218.968563079834
 21
478.065490722656
 31
0.0
  0
LINE
  5
    BB
  8
0
  6
CONTINUOUS
 62
    52
 10
220.768569946289
 20
496.565494537354
 30
0.0
 11
220.768562316895
 21
478.065490722656
 31
0.0
  0
LINE
  5
    BC
  8
0
  6
CONTINUOUS
 62
    52
 10
222.56856918335
 20
496.565494537354
 30
0.0
 11
222.568561553955
 21
478.065490722656
 31
0.0
  0
LINE
  5
    BD
  8
0
  6
CONTINUOUS
 62
    52
 10
224.36856842041
 20
496.565494537354
 30
0.0
 11
224.368560791016
 21
478.065490722656
 31
0.0
  0
LINE
  5
    BE
  8
0
  6
CONTINUOUS
 62
    52
 10
226.168567657471
 20
496.565494537354
 30
0.0
 11
226.168560028076
 21
478.065490722656
 31
0.0
  0
LINE
  5
    BF
  8
0
  6
CONTINUOUS
 62
    52
 10
227.968566894531
 20
496.565494537354
 30
0.0
 11
227.968559265137
 21
478.065490722656
 31
0.0
  0
LINE
  5
    C0
  8
0
  6
CONTINUOUS
 62
    52
 10
229.768566131592
 20
496.565494537354
 30
0.0
 11
229.768558502197
 21
478.065490722656
 31
0.0
  0
LINE
  5
    C1
  8
0
  6
CONTINUOUS
 62
    52
 10
231.568565368652
 20
496.565494537354
 30
0.0
 11
231.568557739258
 21
478.065490722656
 31
0.0
  0
LINE
  5
    C2
  8
0
  6
CONTINUOUS
 62
    52
 10
233.368564605713
 20
496.565494537354
 30
0.0
 11
233.368556976318
 21
478.065490722656
 31
0.0
  0
LINE
  5
    C3
  8
0
  6
CONTINUOUS
 62
    52
 10
235.168563842773
 20
496.565494537354
 30
0.0
 11
235.168556213379
 21
478.065490722656
 31
0.0
  0
LINE
  5
    C4
  8
0
  6
CONTINUOUS
 62
    52
 10
236.968563079834
 20
496.565494537354
 30
0.0
 11
236.968555450439
 21
478.065490722656
 31
0.0
  0
LINE
  5
    C5
  8
0
  6
CONTINUOUS
 62
    52
 10
238.768562316895
 20
496.565494537354
 30
0.0
 11
238.7685546875
 21
478.065490722656
 31
0.0
  0
LINE
  5
    C6
  8
0
  6
CONTINUOUS
 62
    52
 10
240.568588256836
 20
496.565494537354
 30
0.0
 11
240.568580627441
 21
479.065238952637
 31
0.0
  0
ENDBLK
  5
    C7
  8
0
  6
CONTINUOUS
 62
     7
  0
BLOCK
  5
    C8
  8
0
  6
CONTINUOUS
 62
     7
  2
*HATCH1260
 70
    65
 10
0.0
 20
0.0
 30
0.0
  3
*HATCH1260
  0
LINE
  5
    C9
  8
0
  6
CONTINUOUS
 62
    52
 10
150.568630218506
 20
592.865493774414
 30
0.0
 11
150.568603515625
 21
536.411813974381
 31
0.0
  0
LINE
  5
    CA
  8
0
  6
CONTINUOUS
 62
    52
 10
152.368629455566
 20
592.865493774414
 30
0.0
 11
152.368583679199
 21
497.265491485596
 31
0.0
  0
LINE
  5
    CB
  8
0
  6
CONTINUOUS
 62
    52
 10
154.168628692627
 20
592.865493774414
 30
0.0
 11
154.16858291626
 21
497.265491485596
 31
0.0
  0
LINE
  5
    CC
  8
0
  6
CONTINUOUS
 62
    52
 10
155.968627929688
 20
592.865493774414
 30
0.0
 11
155.96858215332
 21
497.265491485596
 31
0.0
  0
ENDBLK
  5
    CD
  8
0
  6
CONTINUOUS
 62
     7
  0
BLOCK
  5
    CE
  8
0
  6
CONTINUOUS
 62
     7
  2
*HATCH1261
 70
    65
 10
0.0
 20
0.0
 30
0.0
  3
*HATCH1261
  0
LINE
  5
    CF
  8
0
  6
CONTINUOUS
 62
    52
 10
235.168632507324
 20
592.865493774414
 30
0.0
 11
235.168590545654
 21
497.265491485596
 31
0.0
  0
LINE
  5
    D0
  8
0
  6
CONTINUOUS
 62
    52
 10
236.968631744385
 20
592.865493774414
 30
0.0
 11
236.968589782715
 21
497.265491485596
 31
0.0
  0
LINE
  5
    D1
  8
0
  6
CONTINUOUS
 62
    52
 10
238.768630981445
 20
592.865493774414
 30
0.0
 11
238.768589019775
 21
497.265491485596
 31
0.0
  0
LINE
  5
    D2
  8
0
  6
CONTINUOUS
 62
    52
 10
240.568603515625
 20
528.719419956207
 30
0.0
 11
240.568588256836
 21
497.265495300293
 31
0.0
  0
ENDBLK
  5
    D3
  8
0
  6
CONTINUOUS
 62
     7
  0
BLOCK
  5
    D4
  8
0
  6
CONTINUOUS
 62
     7
  2
*HATCH1262
 70
    65
 10
0.0
 20
0.0
 30
0.0
  3
*HATCH1262
  0
LINE
  5
    D5
  8
0
  6
CONTINUOUS
 62
    52
 10
150.5686378479
 20
611.065704345703
 30
0.0
 11
150.568630218506
 21
593.565486907959
 31
0.0
  0
LINE
  5
    D6
  8
0
  6
CONTINUOUS
 62
    52
 10
152.368637084961
 20
612.065483093262
 30
0.0
 11
152.368629455566
 21
593.565486907959
 31
0.0
  0
LINE
  5
    D7
  8
0
  6
CONTINUOUS
 62
    52
 10
154.168636322022
 20
612.065483093262
 30
0.0
 11
154.168628692627
 21
593.565486907959
 31
0.0
  0
LINE
  5
    D8
  8
0
  6
CONTINUOUS
 62
    52
 10
155.968635559082
 20
612.065483093262
 30
0.0
 11
155.968627929688
 21
593.565486907959
 31
0.0
  0
LINE
  5
    D9
  8
0
  6
CONTINUOUS
 62
    52
 10
157.768634796143
 20
612.065483093262
 30
0.0
 11
157.768627166748
 21
593.565486907959
 31
0.0
  0
LINE
  5
    DA
  8
0
  6
CONTINUOUS
 62
    52
 10
159.568634033203
 20
612.065483093262
 30
0.0
 11
159.568626403809
 21
593.565486907959
 31
0.0
  0
LINE
  5
    DB
  8
0
  6
CONTINUOUS
 62
    52
 10
161.368633270264
 20
612.065483093262
 30
0.0
 11
161.368625640869
 21
593.565486907959
 31
0.0
  0
LINE
  5
    DC
  8
0
  6
CONTINUOUS
 62
    52
 10
163.168632507324
 20
612.065483093262
 30
0.0
 11
163.16862487793
 21
593.565486907959
 31
0.0
  0
LINE
  5
    DD
  8
0
  6
CONTINUOUS
 62
    52
 10
164.968631744385
 20
612.065483093262
 30
0.0
 11
164.96862411499
 21
593.565486907959
 31
0.0
  0
LINE
  5
    DE
  8
0
  6
CONTINUOUS
 62
    52
 10
166.768630981445
 20
612.065483093262
 30
0.0
 11
166.768623352051
 21
593.565486907959
 31
0.0
  0
LINE
  5
    DF
  8
0
  6
CONTINUOUS
 62
    52
 10
168.568630218506
 20
612.065483093262
 30
0.0
 11
168.568622589111
 21
593.565486907959
 31
0.0
  0
LINE
  5
    E0
  8
0
  6
CONTINUOUS
 62
    52
 10
170.368629455566
 20
612.065483093262
 30
0.0
 11
170.368621826172
 21
593.565486907959
 31
0.0
  0
LINE
  5
    E1
  8
0
  6
CONTINUOUS
 62
    52
 10
172.168628692627
 20
612.065483093262
 30
0.0
 11
172.168621063232
 21
593.565486907959
 31
0.0
  0
LINE
  5
    E2
  8
0
  6
CONTINUOUS
 62
    52
 10
173.968627929688
 20
612.065483093262
 30
0.0
 11
173.968620300293
 21
593.565486907959
 31
0.0
  0
LINE
  5
    E3
  8
0
  6
CONTINUOUS
 62
    52
 10
175.768627166748
 20
612.065483093262
 30
0.0
 11
175.768619537354
 21
593.565486907959
 31
0.0
  0
LINE
  5
    E4
  8
0
  6
CONTINUOUS
 62
    52
 10
177.568626403809
 20
612.065483093262
 30
0.0
 11
177.568618774414
 21
593.565486907959
 31
0.0
  0
LINE
  5
    E5
  8
0
  6
CONTINUOUS
 62
    52
 10
179.368625640869
 20
612.065483093262
 30
0.0
 11
179.368618011475
 21
593.565486907959
 31
0.0
  0
LINE
  5
    E6
  8
0
  6
CONTINUOUS
 62
    52
 10
181.168625831604
 20
612.065483093262
 30
0.0
 11
181.168618202209
 21
593.565486907959
 31
0.0
  0
LINE
  5
    E7
  8
0
  6
CONTINUOUS
 62
    52
 10
182.968626022339
 20
612.065483093262
 30
0.0
 11
182.968618392944
 21
593.565486907959
 31
0.0
  0
LINE
  5
    E8
  8
0
  6
CONTINUOUS
 62
    52
 10
184.768626213074
 20
612.065483093262
 30
0.0
 11
184.768618583679
 21
593.565486907959
 31
0.0
  0
LINE
  5
    E9
  8
0
  6
CONTINUOUS
 62
    52
 10
186.568626403809
 20
612.065483093262
 30
0.0
 11
186.568618774414
 21
593.565486907959
 31
0.0
  0
LINE
  5
    EA
  8
0
  6
CONTINUOUS
 62
    52
 10
188.368626594543
 20
612.065483093262
 30
0.0
 11
188.368618965149
 21
593.565486907959
 31
0.0
  0
LINE
  5
    EB
  8
0
  6
CONTINUOUS
 62
    52
 10
190.168626785278
 20
612.065483093262
 30
0.0
 11
190.168619155884
 21
593.565486907959
 31
0.0
  0
LINE
  5
    EC
  8
0
  6
CONTINUOUS
 62
    52
 10
191.968626976013
 20
612.065483093262
 30
0.0
 11
191.968619346619
 21
593.565486907959
 31
0.0
  0
LINE
  5
    ED
  8
0
  6
CONTINUOUS
 62
    52
 10
193.768627047539
 20
612.065483093262
 30
0.0
 11
193.768619418144
 21
593.565486907959
 31
0.0
  0
LINE
  5
    EE
  8
0
  6
CONTINUOUS
 62
    52
 10
195.568627119064
 20
612.065483093262
 30
0.0
 11
195.56861948967
 21
593.565486907959
 31
0.0
  0
LINE
  5
    EF
  8
0
  6
CONTINUOUS
 62
    52
 10
197.36862719059
 20
612.065483093262
 30
0.0
 11
197.368619561195
 21
593.565486907959
 31
0.0
  0
LINE
  5
    F0
  8
0
  6
CONTINUOUS
 62
    52
 10
199.168627262115
 20
612.065483093262
 30
0.0
 11
199.168619632721
 21
593.565486907959
 31
0.0
  0
LINE
  5
    F1
  8
0
  6
CONTINUOUS
 62
    52
 10
200.96862745285
 20
612.065483093262
 30
0.0
 11
200.968619823456
 21
593.565486907959
 31
0.0
  0
LINE
  5
    F2
  8
0
  6
CONTINUOUS
 62
    52
 10
202.768627643585
 20
612.065483093262
 30
0.0
 11
202.768620014191
 21
593.565486907959
 31
0.0
  0
LINE
  5
    F3
  8
0
  6
CONTINUOUS
 62
    52
 10
204.568627357483
 20
612.065483093262
 30
0.0
 11
204.568619728088
 21
593.565486907959
 31
0.0
  0
LINE
  5
    F4
  8
0
  6
CONTINUOUS
 62
    52
 10
206.368627548218
 20
612.065483093262
 30
0.0
 11
206.368619918823
 21
593.565486907959
 31
0.0
  0
LINE
  5
    F5
  8
0
  6
CONTINUOUS
 62
    52
 10
208.168627738953
 20
612.065483093262
 30
0.0
 11
208.168620109558
 21
593.565486907959
 31
0.0
  0
LINE
  5
    F6
  8
0
  6
CONTINUOUS
 62
    52
 10
209.968627929688
 20
612.065483093262
 30
0.0
 11
209.968620300293
 21
593.565486907959
 31
0.0
  0
LINE
  5
    F7
  8
0
  6
CONTINUOUS
 62
    52
 10
211.768627166748
 20
612.065483093262
 30
0.0
 11
211.768619537354
 21
593.565486907959
 31
0.0
  0
LINE
  5
    F8
  8
0
  6
CONTINUOUS
 62
    52
 10
213.568626403809
 20
612.065483093262
 30
0.0
 11
213.568618774414
 21
593.565486907959
 31
0.0
  0
LINE
  5
    F9
  8
0
  6
CONTINUOUS
 62
    52
 10
215.368625640869
 20
612.065483093262
 30
0.0
 11
215.368618011475
 21
593.565486907959
 31
0.0
  0
LINE
  5
    FA
  8
0
  6
CONTINUOUS
 62
    52
 10
217.16862487793
 20
612.065483093262
 30
0.0
 11
217.168617248535
 21
593.565486907959
 31
0.0
  0
LINE
  5
    FB
  8
0
  6
CONTINUOUS
 62
    52
 10
218.96862411499
 20
612.065483093262
 30
0.0
 11
218.968616485596
 21
593.565486907959
 31
0.0
  0
LINE
  5
    FC
  8
0
  6
CONTINUOUS
 62
    52
 10
220.768623352051
 20
612.065483093262
 30
0.0
 11
220.768615722656
 21
593.565486907959
 31
0.0
  0
LINE
  5
    FD
  8
0
  6
CONTINUOUS
 62
    52
 10
222.568622589111
 20
612.065483093262
 30
0.0
 11
222.568614959717
 21
593.565486907959
 31
0.0
  0
LINE
  5
    FE
  8
0
  6
CONTINUOUS
 62
    52
 10
224.368621826172
 20
612.065483093262
 30
0.0
 11
224.368614196777
 21
593.565486907959
 31
0.0
  0
LINE
  5
    FF
  8
0
  6
CONTINUOUS
 62
    52
 10
226.168621063232
 20
612.065483093262
 30
0.0
 11
226.168613433838
 21
593.565486907959
 31
0.0
  0
LINE
  5
   100
  8
0
  6
CONTINUOUS
 62
    52
 10
227.968620300293
 20
612.065483093262
 30
0.0
 11
227.968612670898
 21
593.565486907959
 31
0.0
  0
LINE
  5
   101
  8
0
  6
CONTINUOUS
 62
    52
 10
229.768619537354
 20
612.065483093262
 30
0.0
 11
229.768611907959
 21
593.565486907959
 31
0.0
  0
LINE
  5
   102
  8
0
  6
CONTINUOUS
 62
    52
 10
231.568618774414
 20
612.065483093262
 30
0.0
 11
231.56861114502
 21
593.565486907959
 31
0.0
  0
LINE
  5
   103
  8
0
  6
CONTINUOUS
 62
    52
 10
233.368618011475
 20
612.065483093262
 30
0.0
 11
233.36861038208
 21
593.565486907959
 31
0.0
  0
LINE
  5
   104
  8
0
  6
CONTINUOUS
 62
    52
 10
235.168617248535
 20
612.065483093262
 30
0.0
 11
235.168609619141
 21
593.565486907959
 31
0.0
  0
LINE
  5
   105
  8
0
  6
CONTINUOUS
 62
    52
 10
236.968616485596
 20
612.065483093262
 30
0.0
 11
236.968608856201
 21
593.565486907959
 31
0.0
  0
LINE
  5
   106
  8
0
  6
CONTINUOUS
 62
    52
 10
238.768615722656
 20
612.065483093262
 30
0.0
 11
238.768608093262
 21
593.565486907959
 31
0.0
  0
ENDBLK
  5
   107
  8
0
  6
CONTINUOUS
 62
     7
  0
BLOCK
  5
   108
  8
0
  6
CONTINUOUS
 62
     7
  2
$3DADO
 70
    64
 10
0.0
 20
0.0
 30
0.0
  3
$3DADO
  0
POINT
  5
   109
  8
0
  6
CONTINUOUS
 62
     7
 10
0.0
 20
0.0
 30
0.0
  0
ARC
  5
   10A
  8
0
  6
CONTINUOUS
 62
     7
 10
-5.0899999999997
 20
-1.4210854715202E-14
 30
0.0
 40
5.08999999999974
 50
334.391467869424
 51
385.608532130576
  0
ARC
  5
   10B
  8
0
  6
CONTINUOUS
 62
     7
 10
-5.0899999999997
 20
-1.4210854715202E-14
 30
0.0
 40
5.08999999999974
 50
334.391467869424
 51
385.608532130576
  0
ARC
  5
   10C
  8
0
  6
CONTINUOUS
 62
     7
 10
-0.94722499999996
 20
3.03499999999998
 30
0.0
 40
0.947225000000001
 50
298.173448635746
 51
421.826551364258
  0
LINE
  5
   10D
  8
0
  6
CONTINUOUS
 62
     7
 10
-3.50000000000001
 20
3.87
 30
0.0
 11
-0.499999999999954
 21
3.87
 31
0.0
  0
ARC
  5
   10E
  8
0
  6
CONTINUOUS
 62
     7
 10
-3.05277500000004
 20
3.03499999999998
 30
0.0
 40
0.947225000000001
 50
118.173448635742
 51
241.826551364254
  0
ARC
  5
   10F
  8
0
  6
CONTINUOUS
 62
     7
 10
1.0899999999997
 20
-1.4210854715202E-14
 30
0.0
 40
5.08999999999974
 50
154.391467869424
 51
205.608532130576
  0
LINE
  5
   110
  8
0
  6
CONTINUOUS
 62
     7
 10
-8.0
 20
1.5
 30
0.0
 11
-4.0
 21
1.5
 31
0.0
  0
LINE
  5
   111
  8
0
  6
CONTINUOUS
 62
     7
 10
-7.49999999999999
 20
2.0
 30
0.0
 11
-4.0
 21
2.0
 31
0.0
  0
LINE
  5
   112
  8
0
  6
CONTINUOUS
 62
     7
 10
-8.0
 20
-1.5
 30
0.0
 11
-8.0
 21
1.5
 31
0.0
  0
LINE
  5
   113
  8
0
  6
DASHDOT
 62
     7
 10
-9.54698811797346
 20
0.0
 30
0.0
 11
0.0
 21
0.0
 31
0.0
  0
LINE
  5
   114
  8
0
  6
CONTINUOUS
 62
     7
 10
-7.99999999999999
 20
1.5
 30
0.0
 11
-7.49999999999999
 21
2.00000000000001
 31
0.0
  0
LINE
  5
   115
  8
0
  6
CONTINUOUS
 62
     7
 10
-7.5
 20
-2.0
 30
0.0
 11
-7.5
 21
2.0
 31
0.0
  0
LINE
  5
   116
  8
0
  6
CONTINUOUS
 62
     7
 10
-8.0
 20
-1.49999999999999
 30
0.0
 11
-7.49999999999999
 21
-2.0
 31
0.0
  0
LINE
  5
   117
  8
0
  6
CONTINUOUS
 62
     7
 10
-7.5
 20
-2.0
 30
0.0
 11
-4.0
 21
-2.0
 31
0.0
  0
ARC
  5
   118
  8
0
  6
CONTINUOUS
 62
     7
 10
-3.05277499999966
 20
-3.035
 30
0.0
 40
0.947225000000154
 50
118.173448635768
 51
241.826551364238
  0
LINE
  5
   119
  8
0
  6
CONTINUOUS
 62
     7
 10
-4.0
 20
-3.035
 30
0.0
 11
-4.0
 21
3.03499999999998
 31
0.0
  0
LINE
  5
   11A
  8
0
  6
CONTINUOUS
 62
     7
 10
-3.50000000000001
 20
-2.2
 30
0.0
 11
-0.499999999999972
 21
-2.2
 31
0.0
  0
ARC
  5
   11B
  8
0
  6
CONTINUOUS
 62
     7
 10
-0.947225000000337
 20
-3.035
 30
0.0
 40
0.947225000000154
 50
298.173448635762
 51
421.826551364232
  0
ARC
  5
   11C
  8
0
  6
CONTINUOUS
 62
     7
 10
-0.947225000000337
 20
-3.035
 30
0.0
 40
0.947225000000154
 50
298.173448635762
 51
421.826551364232
  0
LINE
  5
   11D
  8
0
  6
CONTINUOUS
 62
     7
 10
-3.50000000000011
 20
-3.87
 30
0.0
 11
-0.499999999999968
 21
-3.87
 31
0.0
  0
LINE
  5
   11E
  8
0
  6
CONTINUOUS
 62
     7
 10
-3.50000000000009
 20
2.2
 30
0.0
 11
-0.499999999999876
 21
2.2
 31
0.0
  0
LINE
  5
   11F
  8
0
  6
CONTINUOUS
 62
     7
 10
0.0
 20
-3.035
 30
0.0
 11
0.0
 21
3.03499999999998
 31
0.0
  0
LINE
  5
   120
  8
0
  6
CONTINUOUS
 62
     7
 10
-8.0
 20
-1.5
 30
0.0
 11
-4.0
 21
-1.5
 31
0.0
  0
ENDBLK
  5
   121
  8
0
  6
CONTINUOUS
 62
     7
  0
BLOCK
  5
   122
  8
0
  6
CONTINUOUS
 62
     7
  2
*UDIM1509
 70
    65
 10
0.0
 20
0.0
 30
0.0
  3
*UDIM1509
  0
LINE
  5
   123
  8
0
  6
CONTINUOUS
 62
     7
 10
284.777801513672
 20
607.565490722656
 30
0.0
 11
284.777801513672
 21
652.464346213705
 31
0.0
  0
LINE
  5
   124
  8
0
  6
CONTINUOUS
 62
     7
 10
388.275001680218
 20
541.265490722656
 30
0.0
 11
388.275001680218
 21
652.464346213705
 31
0.0
  0
LINE
  5
   125
  8
0
  6
CONTINUOUS
 62
     7
 10
284.777801513672
 20
650.464346213705
 30
0.0
 11
388.275001680218
 21
650.464346213705
 31
0.0
  0
LINE
  5
   126
  8
0
  6
CONTINUOUS
 62
     7
 10
287.675578986882
 20
651.240803370123
 30
0.0
 11
284.777801513672
 21
650.464346213705
 31
0.0
  0
LINE
  5
   127
  8
0
  6
CONTINUOUS
 62
     7
 10
284.777801513672
 20
650.464346213705
 30
0.0
 11
287.675578986882
 21
649.687889057286
 31
0.0
  0
LINE
  5
   128
  8
0
  6
CONTINUOUS
 62
     7
 10
385.377224207008
 20
649.687889057286
 30
0.0
 11
388.275001680218
 21
650.464346213705
 31
0.0
  0
LINE
  5
   129
  8
0
  6
CONTINUOUS
 62
     7
 10
388.275001680218
 20
650.464346213705
 30
0.0
 11
385.377224207008
 21
651.240803370123
 31
0.0
  0
TEXT
  5
   12A
  8
0
  6
CONTINUOUS
 62
     7
 10
329.826401530387
 20
651.464346213705
 30
0.0
 40
3.00000002980232
  1
103,5
 41
0.933333333333333
 72
     1
 11
336.526401596945
 21
652.964346228606
 31
0.0
 73
     2
  0
ENDBLK
  5
   12B
  8
0
  6
CONTINUOUS
 62
     7
  0
BLOCK
  5
   12C
  8
0
  6
CONTINUOUS
 62
     7
  2
*UDIM1510
 70
    65
 10
0.0
 20
0.0
 30
0.0
  3
*UDIM1510
  0
LINE
  5
   12D
  8
0
  6
CONTINUOUS
 62
     7
 10
284.777801513672
 20
607.565490722656
 30
0.0
 11
284.777801513672
 21
643.529375703782
 31
0.0
  0
LINE
  5
   12E
  8
0
  6
CONTINUOUS
 62
     7
 10
369.274996531622
 20
561.265491485596
 30
0.0
 11
369.274996531622
 21
643.529375703782
 31
0.0
  0
LINE
  5
   12F
  8
0
  6
CONTINUOUS
 62
     7
 10
284.777801513672
 20
641.529375703782
 30
0.0
 11
369.274996531622
 21
641.529375703782
 31
0.0
  0
LINE
  5
   130
  8
0
  6
CONTINUOUS
 62
     7
 10
287.675578986882
 20
642.3058328602
 30
0.0
 11
284.777801513672
 21
641.529375703782
 31
0.0
  0
LINE
  5
   131
  8
0
  6
CONTINUOUS
 62
     7
 10
284.777801513672
 20
641.529375703782
 30
0.0
 11
287.675578986882
 21
640.752918547363
 31
0.0
  0
LINE
  5
   132
  8
0
  6
CONTINUOUS
 62
     7
 10
366.377219058412
 20
640.752918547363
 30
0.0
 11
369.274996531622
 21
641.529375703782
 31
0.0
  0
LINE
  5
   133
  8
0
  6
CONTINUOUS
 62
     7
 10
369.274996531622
 20
641.529375703782
 30
0.0
 11
366.377219058412
 21
642.3058328602
 31
0.0
  0
TEXT
  5
   134
  8
0
  6
CONTINUOUS
 62
     7
 10
321.726398969996
 20
642.529375703782
 30
0.0
 40
3.00000002980232
  1
84,5
 41
0.933333333333333
 72
     1
 11
327.026399022647
 21
644.029375718683
 31
0.0
 73
     2
  0
ENDBLK
  5
   135
  8
0
  6
CONTINUOUS
 62
     7
  0
BLOCK
  5
   136
  8
0
  6
CONTINUOUS
 62
     7
  2
*UDIM1511
 70
    65
 10
0.0
 20
0.0
 30
0.0
  3
*UDIM1511
  0
LINE
  5
   137
  8
0
  6
CONTINUOUS
 62
     7
 10
284.777801513672
 20
607.565490722656
 30
0.0
 11
284.777801513672
 21
633.852578384929
 31
0.0
  0
LINE
  5
   138
  8
0
  6
CONTINUOUS
 62
     7
 10
356.274997865479
 20
593.865489959717
 30
0.0
 11
356.274997865479
 21
633.852578384929
 31
0.0
  0
LINE
  5
   139
  8
0
  6
CONTINUOUS
 62
     7
 10
284.777801513672
 20
631.852578384929
 30
0.0
 11
356.274997865479
 21
631.852578384929
 31
0.0
  0
LINE
  5
   13A
  8
0
  6
CONTINUOUS
 62
     7
 10
287.675578986882
 20
632.629035541348
 30
0.0
 11
284.777801513672
 21
631.852578384929
 31
0.0
  0
LINE
  5
   13B
  8
0
  6
CONTINUOUS
 62
     7
 10
284.777801513672
 20
631.852578384929
 30
0.0
 11
287.675578986882
 21
631.076121228511
 31
0.0
  0
LINE
  5
   13C
  8
0
  6
CONTINUOUS
 62
     7
 10
353.377220392269
 20
631.076121228511
 30
0.0
 11
356.274997865479
 21
631.852578384929
 31
0.0
  0
LINE
  5
   13D
  8
0
  6
CONTINUOUS
 62
     7
 10
356.274997865479
 20
631.852578384929
 30
0.0
 11
353.377220392269
 21
632.629035541348
 31
0.0
  0
TEXT
  5
   13E
  8
0
  6
CONTINUOUS
 62
     7
 10
315.226399636925
 20
632.852578384929
 30
0.0
 40
3.00000002980232
  1
71,5
 41
0.933333333333333
 72
     1
 11
320.526399689576
 21
634.35257839983
 31
0.0
 73
     2
  0
ENDBLK
  5
   13F
  8
0
  6
CONTINUOUS
 62
     7
  0
BLOCK
  5
   140
  8
0
  6
CONTINUOUS
 62
     7
  2
*UDIM1512
 70
    65
 10
0.0
 20
0.0
 30
0.0
  3
*UDIM1512
  0
LINE
  5
   141
  8
0
  6
CONTINUOUS
 62
     7
 10
284.777801513672
 20
607.565490722656
 30
0.0
 11
284.777801513672
 21
623.986657991441
 31
0.0
  0
LINE
  5
   142
  8
0
  6
CONTINUOUS
 62
     7
 10
286.277801513672
 20
607.565490722656
 30
0.0
 11
286.277801513672
 21
623.986657991441
 31
0.0
  0
LINE
  5
   143
  8
0
  6
CONTINUOUS
 62
     7
 10
279.777801513672
 20
621.986657991441
 30
0.0
 11
298.636815491319
 21
621.986657991441
 31
0.0
  0
LINE
  5
   144
  8
0
  6
CONTINUOUS
 62
     7
 10
281.880024040461
 20
621.210200835023
 30
0.0
 11
284.777801513672
 21
621.986657991441
 31
0.0
  0
LINE
  5
   145
  8
0
  6
CONTINUOUS
 62
     7
 10
284.777801513672
 20
621.986657991441
 30
0.0
 11
281.880024040461
 21
622.76311514786
 31
0.0
  0
LINE
  5
   146
  8
0
  6
CONTINUOUS
 62
     7
 10
289.175578986882
 20
622.76311514786
 30
0.0
 11
286.277801513672
 21
621.986657991441
 31
0.0
  0
LINE
  5
   147
  8
0
  6
CONTINUOUS
 62
     7
 10
286.277801513672
 20
621.986657991441
 30
0.0
 11
289.175578986882
 21
621.210200835023
 31
0.0
  0
TEXT
  5
   148
  8
0
  6
CONTINUOUS
 62
     7
 10
290.836815413833
 20
622.986657991441
 30
0.0
 40
3.00000002980232
  1
1,5
 41
0.933333333333333
 72
     1
 11
294.736815452576
 21
624.486658006342
 31
0.0
 73
     2
  0
ENDBLK
  5
   149
  8
0
  6
CONTINUOUS
 62
     7
  0
BLOCK
  5
   14A
  8
0
  6
CONTINUOUS
 62
     7
  2
*UDIM1513
 70
    65
 10
0.0
 20
0.0
 30
0.0
  3
*UDIM1513
  0
LINE
  5
   14B
  8
0
  6
CONTINUOUS
 62
     7
 10
277.277801513672
 20
521.994878768921
 30
0.0
 11
277.277801513672
 21
578.81676864624
 31
0.0
  0
LINE
  5
   14C
  8
0
  6
CONTINUOUS
 62
     7
 10
277.277801513672
 20
582.829414367676
 30
0.0
 11
277.277801513672
 21
594.169506072998
 31
0.0
  0
LINE
  5
   14D
  8
0
  6
CONTINUOUS
 62
     7
 10
277.277801513672
 20
602.194801330566
 30
0.0
 11
277.277801513672
 21
652.464346213705
 31
0.0
  0
LINE
  5
   14E
  8
0
  6
CONTINUOUS
 62
     7
 10
284.777801513672
 20
607.565490722656
 30
0.0
 11
284.777801513672
 21
652.464346213705
 31
0.0
  0
LINE
  5
   14F
  8
0
  6
CONTINUOUS
 62
     7
 10
264.107420501113
 20
650.464346213705
 30
0.0
 11
289.777801513672
 21
650.464346213705
 31
0.0
  0
LINE
  5
   150
  8
0
  6
CONTINUOUS
 62
     7
 10
274.380024040461
 20
649.687889057286
 30
0.0
 11
277.277801513672
 21
650.464346213705
 31
0.0
  0
LINE
  5
   151
  8
0
  6
CONTINUOUS
 62
     7
 10
277.277801513672
 20
650.464346213705
 30
0.0
 11
274.380024040461
 21
651.240803370123
 31
0.0
  0
LINE
  5
   152
  8
0
  6
CONTINUOUS
 62
     7
 10
287.675578986882
 20
651.240803370123
 30
0.0
 11
284.777801513672
 21
650.464346213705
 31
0.0
  0
LINE
  5
   153
  8
0
  6
CONTINUOUS
 62
     7
 10
284.777801513672
 20
650.464346213705
 30
0.0
 11
287.675578986882
 21
649.687889057286
 31
0.0
  0
TEXT
  5
   154
  8
0
  6
CONTINUOUS
 62
     7
 10
264.107420501113
 20
651.464346213705
 30
0.0
 40
3.00000002980232
  1
7,5
 41
0.933333333333333
 72
     1
 11
268.007420539856
 21
652.964346228606
 31
0.0
 73
     2
  0
ENDBLK
  5
   155
  8
0
  6
CONTINUOUS
 62
     7
  0
BLOCK
  5
   156
  8
0
  6
CONTINUOUS
 62
     7
  2
*UDIM1514
 70
    65
 10
0.0
 20
0.0
 30
0.0
  3
*UDIM1514
  0
LINE
  5
   157
  8
0
  6
CONTINUOUS
 62
     7
 10
385.784417378242
 20
539.565490722657
 30
0.0
 11
409.868784111372
 21
539.565490722657
 31
0.0
  0
LINE
  5
   158
  8
0
  6
CONTINUOUS
 62
     7
 10
363.274997711182
 20
562.065490722658
 30
0.0
 11
409.868784111372
 21
562.065490722658
 31
0.0
  0
LINE
  5
   159
  8
0
  6
CONTINUOUS
 62
     7
 10
407.868784111372
 20
539.565490722657
 30
0.0
 11
407.868784111372
 21
562.065490722658
 31
0.0
  0
LINE
  5
   15A
  8
0
  6
CONTINUOUS
 62
     7
 10
407.092326954953
 20
542.463268195868
 30
0.0
 11
407.868784111372
 21
539.565490722657
 31
0.0
  0
LINE
  5
   15B
  8
0
  6
CONTINUOUS
 62
     7
 10
407.868784111372
 20
539.565490722657
 30
0.0
 11
408.64524126779
 21
542.463268195868
 31
0.0
  0
LINE
  5
   15C
  8
0
  6
CONTINUOUS
 62
     7
 10
408.64524126779
 20
559.167713249447
 30
0.0
 11
407.868784111372
 21
562.065490722658
 31
0.0
  0
LINE
  5
   15D
  8
0
  6
CONTINUOUS
 62
     7
 10
407.868784111372
 20
562.065490722658
 30
0.0
 11
407.092326954953
 21
559.167713249447
 31
0.0
  0
TEXT
  5
   15E
  8
0
  6
CONTINUOUS
 62
     7
 10
406.868784111378
 20
545.515490670009
 30
0.0
 40
3.00000002980232
  1
22,5
 50
90.0
 41
0.933333333333333
 72
     1
 11
405.368784096471
 21
550.815490722657
 31
0.0
 73
     2
  0
ENDBLK
  5
   15F
  8
0
  6
CONTINUOUS
 62
     7
  0
BLOCK
  5
   160
  8
0
  6
CONTINUOUS
 62
     7
  2
*UDIM1515
 70
    65
 10
0.0
 20
0.0
 30
0.0
  3
*UDIM1515
  0
LINE
  5
   161
  8
0
  6
CONTINUOUS
 62
     7
 10
363.274997711182
 20
517.065490722656
 30
0.0
 11
419.887457095778
 21
517.065490722656
 31
0.0
  0
LINE
  5
   162
  8
0
  6
CONTINUOUS
 62
     7
 10
363.274997711182
 20
562.065490722658
 30
0.0
 11
419.887457095778
 21
562.065490722658
 31
0.0
  0
LINE
  5
   163
  8
0
  6
CONTINUOUS
 62
     7
 10
417.887457095778
 20
517.065490722656
 30
0.0
 11
417.887457095778
 21
562.065490722658
 31
0.0
  0
LINE
  5
   164
  8
0
  6
CONTINUOUS
 62
     7
 10
417.110999939359
 20
519.963268195867
 30
0.0
 11
417.887457095778
 21
517.065490722656
 31
0.0
  0
LINE
  5
   165
  8
0
  6
CONTINUOUS
 62
     7
 10
417.887457095778
 20
517.065490722656
 30
0.0
 11
418.663914252196
 21
519.963268195867
 31
0.0
  0
LINE
  5
   166
  8
0
  6
CONTINUOUS
 62
     7
 10
418.663914252196
 20
559.167713249447
 30
0.0
 11
417.887457095778
 21
562.065490722658
 31
0.0
  0
LINE
  5
   167
  8
0
  6
CONTINUOUS
 62
     7
 10
417.887457095778
 20
562.065490722658
 30
0.0
 11
417.110999939359
 21
559.167713249447
 31
0.0
  0
TEXT
  5
   168
  8
0
  6
CONTINUOUS
 62
     7
 10
416.887457095781
 20
537.065490697824
 30
0.0
 40
3.00000002980232
  1
45
 50
90.0
 41
0.933333333333333
 72
     1
 11
415.387457080876
 21
539.565490722657
 31
0.0
 73
     2
  0
ENDBLK
  5
   169
  8
0
  6
CONTINUOUS
 62
     7
  0
BLOCK
  5
   16A
  8
0
  6
CONTINUOUS
 62
     7
  2
*UDIM1516
 70
    65
 10
0.0
 20
0.0
 30
0.0
  3
*UDIM1516
  0
LINE
  5
   16B
  8
0
  6
CONTINUOUS
 62
     7
 10
282.777801513672
 20
522.105490724488
 30
0.0
 11
255.776362495254
 21
522.105490724488
 31
0.0
  0
LINE
  5
   16C
  8
0
  6
CONTINUOUS
 62
     7
 10
282.777801513672
 20
557.105490724488
 30
0.0
 11
255.776362495254
 21
557.105490724488
 31
0.0
  0
LINE
  5
   16D
  8
0
  6
CONTINUOUS
 62
     7
 10
257.776362495254
 20
522.105490724488
 30
0.0
 11
257.776362495254
 21
557.105490724488
 31
0.0
  0
LINE
  5
   16E
  8
0
  6
CONTINUOUS
 62
     7
 10
256.999905338835
 20
525.003268197698
 30
0.0
 11
257.776362495254
 21
522.105490724488
 31
0.0
  0
LINE
  5
   16F
  8
0
  6
CONTINUOUS
 62
     7
 10
257.776362495254
 20
522.105490724488
 30
0.0
 11
258.552819651672
 21
525.003268197698
 31
0.0
  0
LINE
  5
   170
  8
0
  6
CONTINUOUS
 62
     7
 10
258.552819651672
 20
554.207713251277
 30
0.0
 11
257.776362495254
 21
557.105490724488
 31
0.0
  0
LINE
  5
   171
  8
0
  6
CONTINUOUS
 62
     7
 10
257.776362495254
 20
557.105490724488
 30
0.0
 11
256.999905338835
 21
554.207713251277
 31
0.0
  0
TEXT
  5
   172
  8
0
  6
CONTINUOUS
 62
     7
 10
256.776362495257
 20
537.105490699654
 30
0.0
 40
3.00000002980232
  1
35
 50
90.0
 41
0.933333333333333
 72
     1
 11
255.276362480352
 21
539.605490724488
 31
0.0
 73
     2
  0
ENDBLK
  5
   173
  8
0
  6
CONTINUOUS
 62
     7
  0
BLOCK
  5
   174
  8
0
  6
CONTINUOUS
 62
     7
  2
*UDIM1517
 70
    65
 10
0.0
 20
0.0
 30
0.0
  3
*UDIM1517
  0
LINE
  5
   175
  8
0
  6
CONTINUOUS
 62
     7
 10
272.354906883648
 20
539.565490722657
 30
0.0
 11
264.675122670122
 21
539.565490722657
 31
0.0
  0
LINE
  5
   176
  8
0
  6
CONTINUOUS
 62
     7
 10
269.227288937538
 20
545.065490722656
 30
0.0
 11
264.675122670122
 21
545.065490722656
 31
0.0
  0
LINE
  5
   177
  8
0
  6
CONTINUOUS
 62
     7
 10
266.675122670122
 20
527.906471785903
 30
0.0
 11
266.675122670122
 21
550.065490722656
 31
0.0
  0
LINE
  5
   178
  8
0
  6
CONTINUOUS
 62
     7
 10
267.451579826541
 20
536.667713249447
 30
0.0
 11
266.675122670122
 21
539.565490722657
 31
0.0
  0
LINE
  5
   179
  8
0
  6
CONTINUOUS
 62
     7
 10
266.675122670122
 20
539.565490722657
 30
0.0
 11
265.898665513704
 21
536.667713249447
 31
0.0
  0
LINE
  5
   17A
  8
0
  6
CONTINUOUS
 62
     7
 10
265.898665513704
 20
547.963268195867
 30
0.0
 11
266.675122670122
 21
545.065490722656
 31
0.0
  0
LINE
  5
   17B
  8
0
  6
CONTINUOUS
 62
     7
 10
266.675122670122
 20
545.065490722656
 30
0.0
 11
267.451579826541
 21
547.963268195867
 31
0.0
  0
TEXT
  5
   17C
  8
0
  6
CONTINUOUS
 62
     7
 10
265.675122670127
 20
527.906471785905
 30
0.0
 40
3.00000002980232
  1
5,5
 50
90.0
 41
0.933333333333333
 72
     1
 11
264.175122655221
 21
531.806471824646
 31
0.0
 73
     2
  0
ENDBLK
  5
   17D
  8
0
  6
CONTINUOUS
 62
     7
  0
ENDSEC
  0
SECTION
  2
ENTITIES
  0
POINT
  5
   17E
  8
0
  6
CONTINUOUS
 62
     3
 10
165.568603515625
 20
598.315490722656
 30
0.0
  0
POINT
  5
   17F
  8
0
  6
CONTINUOUS
 62
     3
 10
195.568603515625
 20
598.315490722656
 30
0.0
  0
POINT
  5
   180
  8
0
  6
CONTINUOUS
 62
     3
 10
225.568603515625
 20
598.315490722656
 30
0.0
  0
POINT
  5
   181
  8
0
  6
CONTINUOUS
 62
     3
 10
165.568603515625
 20
491.815485301805
 30
0.0
  0
POINT
  5
   182
  8
0
  6
CONTINUOUS
 62
     3
 10
195.568603515625
 20
491.815485301805
 30
0.0
  0
POINT
  5
   183
  8
0
  6
CONTINUOUS
 62
     3
 10
225.568603515625
 20
491.815485301805
 30
0.0
  0
TEXT
  5
   184
  8
0
  6
CONTINUOUS
 62
     1
 10
396.387479505692
 20
423.378633822798
 30
0.0
 40
2.00000008940697
  1
FIXED VERSION - DIN CHANNEL ASSEMBLY
 41
0.749999861419206
 72
     1
 11
423.237475740914
 21
424.378633867502
 31
0.0
 73
     2
  0
TEXT
  5
   185
  8
0
  6
CONTINUOUS
 62
     1
 10
394.88747945353
 20
426.378633822798
 30
0.0
 40
2.00000008940697
  1
3-4POLE LOW VOLTAGE M.C.C.B SERIES "T"
 41
0.749999861419206
 72
     1
 11
423.237475478645
 21
427.378633867502
 31
0.0
 73
     2
  0
TEXT
  5
   186
  8
0
  6
CONTINUOUS
 62
     1
 10
385.489873029296
 20
415.908382357955
 30
0.0
 40
2.00000008940697
  1
TRIP-TETRP. ESECUZIONE FISSA SU PROFILATO DIN
 41
0.749999861419206
 72
     1
 11
419.089868319039
 21
416.908382402658
 31
0.0
 73
     2
  0
TEXT
  5
   187
  8
0
  6
CONTINUOUS
 62
     1
 10
398.98987087607
 20
418.908382357955
 30
0.0
 40
2.00000008940697
  1
INTERR.AUTOMATICO SERIE "T"
 41
0.749999861419206
 72
     1
 11
419.08986805677
 21
419.908382402658
 31
0.0
 73
     2
  0
TEXT
  5
   188
  8
0
  6
CONTINUOUS
 62
     1
 10
308.985091168744
 20
410.815142334053
 30
0.0
 40
2.00000008940697
  1
N0030 00-02-14
 41
0.799999960511924
  0
TEXT
  5
   189
  8
0
  6
CONTINUOUS
 62
     1
 10
403.986206229533
 20
399.686795708586
 30
0.0
 40
4.00000017881393
  1
RH0012.128
 41
0.937499973922969
 72
     2
 11
440.736206829305
 21
399.686795708586
 31
0.0
  0
TEXT
  5
   18A
  8
0
  6
CONTINUOUS
 62
     1
 10
422.071899545197
 20
408.668392367966
 30
0.0
 40
3.00000002980232
  1
T2
 41
0.916666604744064
 72
     2
 11
427.021899255617
 21
408.668392367966
 31
0.0
  0
TEXT
  5
   18B
  8
0
  6
CONTINUOUS
 62
     7
 10
115.260232038705
 20
546.511916708336
 30
0.0
 40
3.00000002980232
  1
X
 41
0.933333333333334
 72
     1
 11
116.360232049632
 21
548.011916723237
 31
0.0
 73
     2
  0
TEXT
  5
   18C
  8
0
  6
CONTINUOUS
 62
     7
 10
191.571329746589
 20
615.851386598446
 30
0.0
 40
3.00000002980232
  1
Y
 41
0.933333333333334
 72
     1
 11
192.671329757517
 21
617.351386613348
 31
0.0
 73
     2
  0
LINE
  5
   18D
  8
0
  6
CONTINUOUS
 62
     7
 10
229.634845733643
 20
524.315490722663
 30
0.0
 11
229.87833404541
 21
524.315490722663
 31
0.0
  0
LINE
  5
   18E
  8
0
  6
CONTINUOUS
 62
     7
 10
221.283355712891
 20
524.315490722663
 30
0.0
 11
221.470283508301
 21
524.315490722663
 31
0.0
  0
LINE
  5
   18F
  8
0
  6
CONTINUOUS
 62
     7
 10
230.074043273926
 20
522.315490722663
 30
0.0
 11
230.153953552246
 21
522.315490722663
 31
0.0
  0
ARC
  5
   190
  8
0
  6
CONTINUOUS
 62
     3
 10
239.568614070064
 20
611.065494319677
 30
0.0
 40
0.999999999999154
 50
359.999356767253
 51
450.000604731576
  0
ARC
  5
   191
  8
0
  6
CONTINUOUS
 62
     3
 10
151.568604275839
 20
611.065485536425
 30
0.0
 40
0.999999999999607
 50
90.000043557182
 51
180.000139982427
  0
LINE
  5
   192
  8
0
  6
CONTINUOUS
 62
     3
 10
240.568604073684
 20
593.565483093262
 30
0.0
 11
240.568604073684
 21
611.065483093262
 31
0.0
  0
LINE
  5
   193
  8
0
  6
CONTINUOUS
 62
     3
 10
150.568604073683
 20
593.565486907959
 30
0.0
 11
150.568604073683
 21
611.065483093262
 31
0.0
  0
LINE
  5
   194
  8
0
  6
CONTINUOUS
 62
     3
 10
237.568603515625
 20
612.065484547672
 30
0.0
 11
239.568603515625
 21
612.06548452466
 31
0.0
  0
LINE
  5
   195
  8
0
  6
CONTINUOUS
 62
     3
 10
216.434629440308
 20
612.065484790848
 30
0.0
 11
216.890727996826
 21
612.065484785599
 31
0.0
  0
LINE
  5
   196
  8
0
  6
CONTINUOUS
 62
     3
 10
153.568603515625
 20
612.065485514207
 30
0.0
 11
237.568603515625
 21
612.065484547672
 31
0.0
  0
LINE
  5
   197
  8
0
  6
CONTINUOUS
 62
     3
 10
151.568603515625
 20
612.065485537219
 30
0.0
 11
153.568603515625
 21
612.065485514207
 31
0.0
  0
LINE
  5
   198
  8
0
  6
CONTINUOUS
 62
     3
 10
237.618602752686
 20
593.565484547097
 30
0.0
 11
238.118602752686
 21
593.565484541344
 31
0.0
  0
LINE
  5
   199
  8
0
  6
CONTINUOUS
 62
     3
 10
235.818603515625
 20
593.565484567808
 30
0.0
 11
236.318603515625
 21
593.565484562055
 31
0.0
  0
LINE
  5
   19A
  8
0
  6
CONTINUOUS
 62
     3
 10
234.018604278564
 20
593.56548458852
 30
0.0
 11
234.518604278564
 21
593.565484582767
 31
0.0
  0
LINE
  5
   19B
  8
0
  6
CONTINUOUS
 62
     3
 10
232.218605041504
 20
593.565484609231
 30
0.0
 11
232.718605041504
 21
593.565484603478
 31
0.0
  0
LINE
  5
   19C
  8
0
  6
CONTINUOUS
 62
     3
 10
230.418605804443
 20
593.565484629943
 30
0.0
 11
230.918605804443
 21
593.56548462419
 31
0.0
  0
LINE
  5
   19D
  8
0
  6
CONTINUOUS
 62
     3
 10
228.618602752686
 20
593.565484650654
 30
0.0
 11
229.118602752686
 21
593.565484644901
 31
0.0
  0
LINE
  5
   19E
  8
0
  6
CONTINUOUS
 62
     3
 10
226.818603515625
 20
593.565484671366
 30
0.0
 11
227.318603515625
 21
593.565484665613
 31
0.0
  0
LINE
  5
   19F
  8
0
  6
CONTINUOUS
 62
     3
 10
225.018604278565
 20
593.565484692077
 30
0.0
 11
225.518604278564
 21
593.565484686324
 31
0.0
  0
LINE
  5
   1A0
  8
0
  6
CONTINUOUS
 62
     3
 10
223.218603134155
 20
593.565484712789
 30
0.0
 11
223.718603134155
 21
593.565484707035
 31
0.0
  0
LINE
  5
   1A1
  8
0
  6
CONTINUOUS
 62
     3
 10
221.418603897095
 20
593.5654847335
 30
0.0
 11
221.918603897095
 21
593.565484727747
 31
0.0
  0
LINE
  5
   1A2
  8
0
  6
CONTINUOUS
 62
     3
 10
219.618604660034
 20
593.565484754211
 30
0.0
 11
220.118604660034
 21
593.565484748458
 31
0.0
  0
LINE
  5
   1A3
  8
0
  6
CONTINUOUS
 62
     3
 10
217.818603515625
 20
593.565484774923
 30
0.0
 11
218.318603515625
 21
593.56548476917
 31
0.0
  0
LINE
  5
   1A4
  8
0
  6
CONTINUOUS
 62
     3
 10
216.018604278565
 20
593.565484795634
 30
0.0
 11
216.518604278565
 21
593.565484789881
 31
0.0
  0
LINE
  5
   1A5
  8
0
  6
CONTINUOUS
 62
     3
 10
214.218603134155
 20
593.565484816346
 30
0.0
 11
214.718603134155
 21
593.565484810593
 31
0.0
  0
LINE
  5
   1A6
  8
0
  6
CONTINUOUS
 62
     3
 10
212.418603897095
 20
593.565484837057
 30
0.0
 11
212.918603897095
 21
593.565484831304
 31
0.0
  0
LINE
  5
   1A7
  8
0
  6
CONTINUOUS
 62
     3
 10
210.61860370636
 20
593.565484857769
 30
0.0
 11
211.11860370636
 21
593.565484852016
 31
0.0
  0
LINE
  5
   1A8
  8
0
  6
CONTINUOUS
 62
     3
 10
208.818604469299
 20
593.56548487848
 30
0.0
 11
209.318604469299
 21
593.565484872727
 31
0.0
  0
LINE
  5
   1A9
  8
0
  6
CONTINUOUS
 62
     3
 10
207.018604278564
 20
593.565484899192
 30
0.0
 11
207.518604278565
 21
593.565484893439
 31
0.0
  0
LINE
  5
   1AA
  8
0
  6
CONTINUOUS
 62
     3
 10
205.21860408783
 20
593.565484919903
 30
0.0
 11
205.71860408783
 21
593.56548491415
 31
0.0
  0
LINE
  5
   1AB
  8
0
  6
CONTINUOUS
 62
     3
 10
203.418603897095
 20
593.565484940615
 30
0.0
 11
203.918603897095
 21
593.565484934861
 31
0.0
  0
LINE
  5
   1AC
  8
0
  6
CONTINUOUS
 62
     3
 10
201.618604183197
 20
593.565484961326
 30
0.0
 11
202.118604183197
 21
593.565484955573
 31
0.0
  0
LINE
  5
   1AD
  8
0
  6
CONTINUOUS
 62
     3
 10
199.818603992462
 20
593.565484982037
 30
0.0
 11
200.318603992462
 21
593.565484976284
 31
0.0
  0
LINE
  5
   1AE
  8
0
  6
CONTINUOUS
 62
     3
 10
198.018604040146
 20
593.565485002749
 30
0.0
 11
198.518604040146
 21
593.565484996996
 31
0.0
  0
LINE
  5
   1AF
  8
0
  6
CONTINUOUS
 62
     3
 10
196.21860408783
 20
593.56548502346
 30
0.0
 11
196.71860408783
 21
593.565485017707
 31
0.0
  0
LINE
  5
   1B0
  8
0
  6
CONTINUOUS
 62
     3
 10
194.418604016304
 20
593.565485044172
 30
0.0
 11
194.918604075909
 21
593.565485038419
 31
0.0
  0
LINE
  5
   1B1
  8
0
  6
CONTINUOUS
 62
     3
 10
192.618604183197
 20
593.565485064883
 30
0.0
 11
193.118604183197
 21
593.56548505913
 31
0.0
  0
LINE
  5
   1B2
  8
0
  6
CONTINUOUS
 62
     3
 10
190.818603992462
 20
593.565485085595
 30
0.0
 11
191.318603992462
 21
593.565485079841
 31
0.0
  0
LINE
  5
   1B3
  8
0
  6
CONTINUOUS
 62
     3
 10
189.018604278564
 20
593.565485106306
 30
0.0
 11
189.518604278564
 21
593.565485100553
 31
0.0
  0
LINE
  5
   1B4
  8
0
  6
CONTINUOUS
 62
     3
 10
187.21860408783
 20
593.565485127018
 30
0.0
 11
187.71860408783
 21
593.565485121264
 31
0.0
  0
LINE
  5
   1B5
  8
0
  6
CONTINUOUS
 62
     3
 10
185.418603897095
 20
593.565485147729
 30
0.0
 11
185.918603897095
 21
593.565485141976
 31
0.0
  0
LINE
  5
   1B6
  8
0
  6
CONTINUOUS
 62
     3
 10
183.61860370636
 20
593.56548516844
 30
0.0
 11
184.11860370636
 21
593.565485162687
 31
0.0
  0
LINE
  5
   1B7
  8
0
  6
CONTINUOUS
 62
     3
 10
181.818604469299
 20
593.565485189152
 30
0.0
 11
182.318604469299
 21
593.565485183399
 31
0.0
  0
LINE
  5
   1B8
  8
0
  6
CONTINUOUS
 62
     3
 10
180.018604278564
 20
593.565485209863
 30
0.0
 11
180.518604278564
 21
593.56548520411
 31
0.0
  0
LINE
  5
   1B9
  8
0
  6
CONTINUOUS
 62
     3
 10
178.218603134155
 20
593.565485230575
 30
0.0
 11
178.718603134155
 21
593.565485224822
 31
0.0
  0
LINE
  5
   1BA
  8
0
  6
CONTINUOUS
 62
     3
 10
176.418603897095
 20
593.565485251286
 30
0.0
 11
176.918603897095
 21
593.565485245533
 31
0.0
  0
LINE
  5
   1BB
  8
0
  6
CONTINUOUS
 62
     3
 10
174.618604660034
 20
593.565485271998
 30
0.0
 11
175.118604660034
 21
593.565485266245
 31
0.0
  0
LINE
  5
   1BC
  8
0
  6
CONTINUOUS
 62
     3
 10
172.818603515625
 20
593.565485292709
 30
0.0
 11
173.318603515625
 21
593.565485286956
 31
0.0
  0
LINE
  5
   1BD
  8
0
  6
CONTINUOUS
 62
     3
 10
171.018604278564
 20
593.565485313421
 30
0.0
 11
171.518604278564
 21
593.565485307667
 31
0.0
  0
LINE
  5
   1BE
  8
0
  6
CONTINUOUS
 62
     3
 10
169.218603134155
 20
593.565485334132
 30
0.0
 11
169.718603134155
 21
593.565485328379
 31
0.0
  0
LINE
  5
   1BF
  8
0
  6
CONTINUOUS
 62
     3
 10
167.418603897095
 20
593.565485354844
 30
0.0
 11
167.918603897095
 21
593.56548534909
 31
0.0
  0
LINE
  5
   1C0
  8
0
  6
CONTINUOUS
 62
     3
 10
165.618604660034
 20
593.565485375555
 30
0.0
 11
166.118604660034
 21
593.565485369802
 31
0.0
  0
LINE
  5
   1C1
  8
0
  6
CONTINUOUS
 62
     3
 10
163.818603515625
 20
593.565485396266
 30
0.0
 11
164.318603515625
 21
593.565485390513
 31
0.0
  0
LINE
  5
   1C2
  8
0
  6
CONTINUOUS
 62
     3
 10
162.018604278564
 20
593.565485416978
 30
0.0
 11
162.518604278564
 21
593.565485411225
 31
0.0
  0
LINE
  5
   1C3
  8
0
  6
CONTINUOUS
 62
     3
 10
160.218605041504
 20
593.565485437689
 30
0.0
 11
160.718605041504
 21
593.565485431936
 31
0.0
  0
LINE
  5
   1C4
  8
0
  6
CONTINUOUS
 62
     3
 10
158.418605804443
 20
593.565485458401
 30
0.0
 11
158.918605804443
 21
593.565485452648
 31
0.0
  0
LINE
  5
   1C5
  8
0
  6
CONTINUOUS
 62
     3
 10
156.618602752686
 20
593.565485479112
 30
0.0
 11
157.118602752686
 21
593.565485473359
 31
0.0
  0
LINE
  5
   1C6
  8
0
  6
CONTINUOUS
 62
     3
 10
154.818603515625
 20
593.565485499824
 30
0.0
 11
155.318603515625
 21
593.565485494071
 31
0.0
  0
LINE
  5
   1C7
  8
0
  6
CONTINUOUS
 62
     3
 10
238.118602752686
 20
593.565484541344
 30
0.0
 11
240.568603515625
 21
593.565484513153
 31
0.0
  0
LINE
  5
   1C8
  8
0
  6
CONTINUOUS
 62
     3
 10
150.568603515625
 20
593.565485548726
 30
0.0
 11
153.018604278564
 21
593.565485520535
 31
0.0
  0
LINE
  5
   1C9
  8
0
  6
CONTINUOUS
 62
     3
 10
153.018604278564
 20
593.565485520535
 30
0.0
 11
153.518604278564
 21
593.565485514782
 31
0.0
  0
LINE
  5
   1CA
  8
0
  6
CONTINUOUS
 62
     3
 10
230.918605804443
 20
593.56548462419
 30
0.0
 11
232.218605041504
 21
593.565484609231
 31
0.0
  0
LINE
  5
   1CB
  8
0
  6
CONTINUOUS
 62
     3
 10
229.118602752686
 20
593.565484644901
 30
0.0
 11
230.418605804443
 21
593.565484629943
 31
0.0
  0
LINE
  5
   1CC
  8
0
  6
CONTINUOUS
 62
     3
 10
232.718605041504
 20
593.565484603478
 30
0.0
 11
234.018604278564
 21
593.56548458852
 31
0.0
  0
LINE
  5
   1CD
  8
0
  6
CONTINUOUS
 62
     3
 10
236.318603515625
 20
593.565484562055
 30
0.0
 11
237.618602752686
 21
593.565484547097
 31
0.0
  0
LINE
  5
   1CE
  8
0
  6
CONTINUOUS
 62
     3
 10
234.518604278564
 20
593.565484582767
 30
0.0
 11
235.818603515625
 21
593.565484567808
 31
0.0
  0
LINE
  5
   1CF
  8
0
  6
CONTINUOUS
 62
     3
 10
153.518604278564
 20
593.565485514782
 30
0.0
 11
154.818603515625
 21
593.565485499824
 31
0.0
  0
LINE
  5
   1D0
  8
0
  6
CONTINUOUS
 62
     3
 10
180.518604278564
 20
593.56548520411
 30
0.0
 11
181.818604469299
 21
593.565485189152
 31
0.0
  0
LINE
  5
   1D1
  8
0
  6
CONTINUOUS
 62
     3
 10
207.518604278565
 20
593.565484893439
 30
0.0
 11
208.818604469299
 21
593.56548487848
 31
0.0
  0
LINE
  5
   1D2
  8
0
  6
CONTINUOUS
 62
     3
 10
178.718603134155
 20
593.565485224822
 30
0.0
 11
180.018604278564
 21
593.565485209863
 31
0.0
  0
LINE
  5
   1D3
  8
0
  6
CONTINUOUS
 62
     3
 10
176.918603897095
 20
593.565485245533
 30
0.0
 11
178.218603134155
 21
593.565485230575
 31
0.0
  0
LINE
  5
   1D4
  8
0
  6
CONTINUOUS
 62
     3
 10
175.118604660034
 20
593.565485266245
 30
0.0
 11
176.418603897095
 21
593.565485251286
 31
0.0
  0
LINE
  5
   1D5
  8
0
  6
CONTINUOUS
 62
     3
 10
173.318603515625
 20
593.565485286956
 30
0.0
 11
174.618604660034
 21
593.565485271998
 31
0.0
  0
LINE
  5
   1D6
  8
0
  6
CONTINUOUS
 62
     3
 10
171.518604278564
 20
593.565485307667
 30
0.0
 11
172.818603515625
 21
593.565485292709
 31
0.0
  0
LINE
  5
   1D7
  8
0
  6
CONTINUOUS
 62
     3
 10
169.718603134155
 20
593.565485328379
 30
0.0
 11
171.018604278564
 21
593.565485313421
 31
0.0
  0
LINE
  5
   1D8
  8
0
  6
CONTINUOUS
 62
     3
 10
227.318603515625
 20
593.565484665612
 30
0.0
 11
228.618602752686
 21
593.565484650654
 31
0.0
  0
LINE
  5
   1D9
  8
0
  6
CONTINUOUS
 62
     3
 10
167.918603897095
 20
593.56548534909
 30
0.0
 11
169.218603134155
 21
593.565485334132
 31
0.0
  0
LINE
  5
   1DA
  8
0
  6
CONTINUOUS
 62
     3
 10
166.118604660034
 20
593.565485369802
 30
0.0
 11
167.418603897095
 21
593.565485354844
 31
0.0
  0
LINE
  5
   1DB
  8
0
  6
CONTINUOUS
 62
     3
 10
164.318603515625
 20
593.565485390513
 30
0.0
 11
165.618604660034
 21
593.565485375555
 31
0.0
  0
LINE
  5
   1DC
  8
0
  6
CONTINUOUS
 62
     3
 10
162.518604278564
 20
593.565485411225
 30
0.0
 11
163.818603515625
 21
593.565485396266
 31
0.0
  0
LINE
  5
   1DD
  8
0
  6
CONTINUOUS
 62
     3
 10
160.718605041504
 20
593.565485431936
 30
0.0
 11
162.018604278564
 21
593.565485416978
 31
0.0
  0
LINE
  5
   1DE
  8
0
  6
CONTINUOUS
 62
     3
 10
158.918605804443
 20
593.565485452648
 30
0.0
 11
160.218605041504
 21
593.565485437689
 31
0.0
  0
LINE
  5
   1DF
  8
0
  6
CONTINUOUS
 62
     3
 10
157.118602752686
 20
593.565485473359
 30
0.0
 11
158.418605804443
 21
593.565485458401
 31
0.0
  0
LINE
  5
   1E0
  8
0
  6
CONTINUOUS
 62
     3
 10
155.318603515625
 20
593.565485494071
 30
0.0
 11
156.618602752686
 21
593.565485479112
 31
0.0
  0
LINE
  5
   1E1
  8
0
  6
CONTINUOUS
 62
     3
 10
212.918603897095
 20
593.565484831304
 30
0.0
 11
214.218603134155
 21
593.565484816346
 31
0.0
  0
LINE
  5
   1E2
  8
0
  6
CONTINUOUS
 62
     3
 10
205.71860408783
 20
593.56548491415
 30
0.0
 11
207.018604278564
 21
593.565484899192
 31
0.0
  0
LINE
  5
   1E3
  8
0
  6
CONTINUOUS
 62
     3
 10
209.318604469299
 20
593.565484872727
 30
0.0
 11
210.61860370636
 21
593.565484857769
 31
0.0
  0
LINE
  5
   1E4
  8
0
  6
CONTINUOUS
 62
     3
 10
211.11860370636
 20
593.565484852016
 30
0.0
 11
212.418603897095
 21
593.565484837057
 31
0.0
  0
LINE
  5
   1E5
  8
0
  6
CONTINUOUS
 62
     3
 10
202.118604183197
 20
593.565484955573
 30
0.0
 11
203.418603897095
 21
593.565484940615
 31
0.0
  0
LINE
  5
   1E6
  8
0
  6
CONTINUOUS
 62
     3
 10
200.318603992462
 20
593.565484976284
 30
0.0
 11
201.618604183197
 21
593.565484961326
 31
0.0
  0
LINE
  5
   1E7
  8
0
  6
CONTINUOUS
 62
     3
 10
198.518604040146
 20
593.565484996996
 30
0.0
 11
199.818603992462
 21
593.565484982038
 31
0.0
  0
LINE
  5
   1E8
  8
0
  6
CONTINUOUS
 62
     3
 10
196.71860408783
 20
593.565485017707
 30
0.0
 11
198.018604040146
 21
593.565485002749
 31
0.0
  0
LINE
  5
   1E9
  8
0
  6
CONTINUOUS
 62
     3
 10
194.918604075909
 20
593.565485038419
 30
0.0
 11
196.21860408783
 21
593.56548502346
 31
0.0
  0
LINE
  5
   1EA
  8
0
  6
CONTINUOUS
 62
     3
 10
193.118604183197
 20
593.56548505913
 30
0.0
 11
194.418604016304
 21
593.565485044172
 31
0.0
  0
LINE
  5
   1EB
  8
0
  6
CONTINUOUS
 62
     3
 10
191.318603992462
 20
593.565485079841
 30
0.0
 11
192.618604183197
 21
593.565485064883
 31
0.0
  0
LINE
  5
   1EC
  8
0
  6
CONTINUOUS
 62
     3
 10
189.518604278564
 20
593.565485100553
 30
0.0
 11
190.818603992462
 21
593.565485085595
 31
0.0
  0
LINE
  5
   1ED
  8
0
  6
CONTINUOUS
 62
     3
 10
187.71860408783
 20
593.565485121264
 30
0.0
 11
189.018604278564
 21
593.565485106306
 31
0.0
  0
LINE
  5
   1EE
  8
0
  6
CONTINUOUS
 62
     3
 10
185.918603897095
 20
593.565485141976
 30
0.0
 11
187.21860408783
 21
593.565485127018
 31
0.0
  0
LINE
  5
   1EF
  8
0
  6
CONTINUOUS
 62
     3
 10
184.11860370636
 20
593.565485162687
 30
0.0
 11
185.418603897095
 21
593.565485147729
 31
0.0
  0
LINE
  5
   1F0
  8
0
  6
CONTINUOUS
 62
     3
 10
182.318604469299
 20
593.565485183399
 30
0.0
 11
183.61860370636
 21
593.56548516844
 31
0.0
  0
LINE
  5
   1F1
  8
0
  6
CONTINUOUS
 62
     3
 10
203.918603897095
 20
593.565484934861
 30
0.0
 11
205.21860408783
 21
593.565484919903
 31
0.0
  0
LINE
  5
   1F2
  8
0
  6
CONTINUOUS
 62
     3
 10
225.518604278564
 20
593.565484686324
 30
0.0
 11
226.818603515625
 21
593.565484671366
 31
0.0
  0
LINE
  5
   1F3
  8
0
  6
CONTINUOUS
 62
     3
 10
223.718603134155
 20
593.565484707035
 30
0.0
 11
225.018604278565
 21
593.565484692077
 31
0.0
  0
LINE
  5
   1F4
  8
0
  6
CONTINUOUS
 62
     3
 10
221.918603897095
 20
593.565484727747
 30
0.0
 11
223.218603134155
 21
593.565484712789
 31
0.0
  0
LINE
  5
   1F5
  8
0
  6
CONTINUOUS
 62
     3
 10
220.118604660034
 20
593.565484748458
 30
0.0
 11
221.418603897095
 21
593.5654847335
 31
0.0
  0
LINE
  5
   1F6
  8
0
  6
CONTINUOUS
 62
     3
 10
218.318603515625
 20
593.56548476917
 30
0.0
 11
219.618604660034
 21
593.565484754211
 31
0.0
  0
LINE
  5
   1F7
  8
0
  6
CONTINUOUS
 62
     3
 10
216.518604278565
 20
593.565484789881
 30
0.0
 11
217.818603515625
 21
593.565484774923
 31
0.0
  0
LINE
  5
   1F8
  8
0
  6
CONTINUOUS
 62
     3
 10
214.718603134155
 20
593.565484810593
 30
0.0
 11
216.018604278565
 21
593.565484795634
 31
0.0
  0
ARC
  5
   1F9
  8
0
  6
CONTINUOUS
 62
     3
 10
239.568613310644
 20
479.065480927638
 30
0.0
 40
0.999999999999655
 50
269.999438781278
 51
360.000561218351
  0
ARC
  5
   1FA
  8
0
  6
CONTINUOUS
 62
     3
 10
151.56860351642
 20
479.065490723452
 30
0.0
 40
1.0000000000006
 50
180.0
 51
269.999999954433
  0
LINE
  5
   1FB
  8
0
  6
CONTINUOUS
 62
     3
 10
240.568603515625
 20
479.065490722656
 30
0.0
 11
240.568603515625
 21
496.565490722656
 31
0.0
  0
LINE
  5
   1FC
  8
0
  6
CONTINUOUS
 62
     3
 10
150.568603515625
 20
479.065490722656
 30
0.0
 11
150.568603515625
 21
496.565490722656
 31
0.0
  0
LINE
  5
   1FD
  8
0
  6
CONTINUOUS
 62
     3
 10
237.568603515625
 20
478.065490722656
 30
0.0
 11
239.568603515625
 21
478.065490722656
 31
0.0
  0
LINE
  5
   1FE
  8
0
  6
CONTINUOUS
 62
     3
 10
153.568603515625
 20
478.065490722656
 30
0.0
 11
237.568603515625
 21
478.065490722656
 31
0.0
  0
LINE
  5
   1FF
  8
0
  6
CONTINUOUS
 62
     3
 10
151.568603515625
 20
478.065490722656
 30
0.0
 11
153.568603515625
 21
478.065490722656
 31
0.0
  0
LINE
  5
   200
  8
0
  6
CONTINUOUS
 62
     3
 10
237.618602752686
 20
496.565490722656
 30
0.0
 11
238.118602752686
 21
496.565490722656
 31
0.0
  0
LINE
  5
   201
  8
0
  6
CONTINUOUS
 62
     3
 10
235.818603515625
 20
496.565490722656
 30
0.0
 11
236.318603515625
 21
496.565490722656
 31
0.0
  0
LINE
  5
   202
  8
0
  6
CONTINUOUS
 62
     3
 10
234.018604278564
 20
496.565490722656
 30
0.0
 11
234.518604278564
 21
496.565490722656
 31
0.0
  0
LINE
  5
   203
  8
0
  6
CONTINUOUS
 62
     3
 10
232.218605041504
 20
496.565490722656
 30
0.0
 11
232.718605041504
 21
496.565490722656
 31
0.0
  0
LINE
  5
   204
  8
0
  6
CONTINUOUS
 62
     3
 10
230.418601989746
 20
496.565490722656
 30
0.0
 11
230.918601989746
 21
496.565490722656
 31
0.0
  0
LINE
  5
   205
  8
0
  6
CONTINUOUS
 62
     3
 10
228.618602752686
 20
496.565490722656
 30
0.0
 11
229.118602752686
 21
496.565490722656
 31
0.0
  0
LINE
  5
   206
  8
0
  6
CONTINUOUS
 62
     3
 10
226.818603515625
 20
496.565490722656
 30
0.0
 11
227.318603515625
 21
496.565490722656
 31
0.0
  0
LINE
  5
   207
  8
0
  6
CONTINUOUS
 62
     3
 10
225.018604278564
 20
496.565490722656
 30
0.0
 11
225.518604278564
 21
496.565490722656
 31
0.0
  0
LINE
  5
   208
  8
0
  6
CONTINUOUS
 62
     3
 10
223.218603134155
 20
496.565490722656
 30
0.0
 11
223.718603134155
 21
496.565490722656
 31
0.0
  0
LINE
  5
   209
  8
0
  6
CONTINUOUS
 62
     3
 10
221.418603897095
 20
496.565490722656
 30
0.0
 11
221.918603897095
 21
496.565490722656
 31
0.0
  0
LINE
  5
   20A
  8
0
  6
CONTINUOUS
 62
     3
 10
219.618602752686
 20
496.565490722656
 30
0.0
 11
220.118602752686
 21
496.565490722656
 31
0.0
  0
LINE
  5
   20B
  8
0
  6
CONTINUOUS
 62
     3
 10
217.818603515625
 20
496.565490722656
 30
0.0
 11
218.318603515625
 21
496.565490722656
 31
0.0
  0
LINE
  5
   20C
  8
0
  6
CONTINUOUS
 62
     3
 10
216.018604278564
 20
496.565490722656
 30
0.0
 11
216.518604278565
 21
496.565490722656
 31
0.0
  0
LINE
  5
   20D
  8
0
  6
CONTINUOUS
 62
     3
 10
214.218603134155
 20
496.565490722656
 30
0.0
 11
214.718603134155
 21
496.565490722656
 31
0.0
  0
LINE
  5
   20E
  8
0
  6
CONTINUOUS
 62
     3
 10
212.418603897095
 20
496.565490722656
 30
0.0
 11
212.918603897095
 21
496.565490722656
 31
0.0
  0
LINE
  5
   20F
  8
0
  6
CONTINUOUS
 62
     3
 10
210.61860370636
 20
496.565490722656
 30
0.0
 11
211.11860370636
 21
496.565490722656
 31
0.0
  0
LINE
  5
   210
  8
0
  6
CONTINUOUS
 62
     3
 10
208.818603515625
 20
496.565490722656
 30
0.0
 11
209.318603515625
 21
496.565490722656
 31
0.0
  0
LINE
  5
   211
  8
0
  6
CONTINUOUS
 62
     3
 10
207.01860332489
 20
496.565490722656
 30
0.0
 11
207.51860332489
 21
496.565490722656
 31
0.0
  0
LINE
  5
   212
  8
0
  6
CONTINUOUS
 62
     3
 10
205.218603134155
 20
496.565490722656
 30
0.0
 11
205.718603134155
 21
496.565490722656
 31
0.0
  0
LINE
  5
   213
  8
0
  6
CONTINUOUS
 62
     3
 10
203.418603420258
 20
496.565490722656
 30
0.0
 11
203.918603897095
 21
496.565490722656
 31
0.0
  0
LINE
  5
   214
  8
0
  6
CONTINUOUS
 62
     3
 10
201.61860370636
 20
496.565490722656
 30
0.0
 11
202.11860370636
 21
496.565490722656
 31
0.0
  0
LINE
  5
   215
  8
0
  6
CONTINUOUS
 62
     3
 10
199.818603515625
 20
496.565490722656
 30
0.0
 11
200.318603515625
 21
496.565490722656
 31
0.0
  0
LINE
  5
   216
  8
0
  6
CONTINUOUS
 62
     3
 10
198.018603563309
 20
496.565490722656
 30
0.0
 11
198.518603563309
 21
496.565490722656
 31
0.0
  0
LINE
  5
   217
  8
0
  6
CONTINUOUS
 62
     3
 10
196.218603491783
 20
496.565490722656
 30
0.0
 11
196.718603491783
 21
496.565490722656
 31
0.0
  0
LINE
  5
   218
  8
0
  6
CONTINUOUS
 62
     3
 10
194.418603539467
 20
496.565490722656
 30
0.0
 11
194.918603539467
 21
496.565490722656
 31
0.0
  0
LINE
  5
   219
  8
0
  6
CONTINUOUS
 62
     3
 10
192.618603467941
 20
496.565490722656
 30
0.0
 11
193.118603467941
 21
496.565490722656
 31
0.0
  0
LINE
  5
   21A
  8
0
  6
CONTINUOUS
 62
     3
 10
190.818603515625
 20
496.565490722656
 30
0.0
 11
191.318603515625
 21
496.565490722656
 31
0.0
  0
LINE
  5
   21B
  8
0
  6
CONTINUOUS
 62
     3
 10
189.01860332489
 20
496.565490722656
 30
0.0
 11
189.51860332489
 21
496.565490722656
 31
0.0
  0
LINE
  5
   21C
  8
0
  6
CONTINUOUS
 62
     3
 10
187.218603134155
 20
496.565490722656
 30
0.0
 11
187.718603610992
 21
496.565490722656
 31
0.0
  0
LINE
  5
   21D
  8
0
  6
CONTINUOUS
 62
     3
 10
185.418603897095
 20
496.565490722656
 30
0.0
 11
185.918603897095
 21
496.565490722656
 31
0.0
  0
LINE
  5
   21E
  8
0
  6
CONTINUOUS
 62
     3
 10
183.61860370636
 20
496.565490722656
 30
0.0
 11
184.11860370636
 21
496.565490722656
 31
0.0
  0
LINE
  5
   21F
  8
0
  6
CONTINUOUS
 62
     3
 10
181.818603515625
 20
496.565490722656
 30
0.0
 11
182.318603515625
 21
496.565490722656
 31
0.0
  0
LINE
  5
   220
  8
0
  6
CONTINUOUS
 62
     3
 10
180.01860332489
 20
496.565490722656
 30
0.0
 11
180.51860332489
 21
496.565490722656
 31
0.0
  0
LINE
  5
   221
  8
0
  6
CONTINUOUS
 62
     3
 10
178.218603134155
 20
496.565490722656
 30
0.0
 11
178.718603134155
 21
496.565490722656
 31
0.0
  0
LINE
  5
   222
  8
0
  6
CONTINUOUS
 62
     3
 10
176.418603897095
 20
496.565490722656
 30
0.0
 11
176.918603897095
 21
496.565490722656
 31
0.0
  0
LINE
  5
   223
  8
0
  6
CONTINUOUS
 62
     3
 10
174.618602752686
 20
496.565490722656
 30
0.0
 11
175.118602752686
 21
496.565490722656
 31
0.0
  0
LINE
  5
   224
  8
0
  6
CONTINUOUS
 62
     3
 10
172.818603515625
 20
496.565490722656
 30
0.0
 11
173.318603515625
 21
496.565490722656
 31
0.0
  0
LINE
  5
   225
  8
0
  6
CONTINUOUS
 62
     3
 10
171.018604278564
 20
496.565490722656
 30
0.0
 11
171.518604278564
 21
496.565490722656
 31
0.0
  0
LINE
  5
   226
  8
0
  6
CONTINUOUS
 62
     3
 10
169.218603134155
 20
496.565490722656
 30
0.0
 11
169.718603134155
 21
496.565490722656
 31
0.0
  0
LINE
  5
   227
  8
0
  6
CONTINUOUS
 62
     3
 10
167.418603897095
 20
496.565490722656
 30
0.0
 11
167.918603897095
 21
496.565490722656
 31
0.0
  0
LINE
  5
   228
  8
0
  6
CONTINUOUS
 62
     3
 10
165.618602752686
 20
496.565490722656
 30
0.0
 11
166.118602752686
 21
496.565490722656
 31
0.0
  0
LINE
  5
   229
  8
0
  6
CONTINUOUS
 62
     3
 10
163.818603515625
 20
496.565490722656
 30
0.0
 11
164.318603515625
 21
496.565490722656
 31
0.0
  0
LINE
  5
   22A
  8
0
  6
CONTINUOUS
 62
     3
 10
162.018604278564
 20
496.565490722656
 30
0.0
 11
162.518604278564
 21
496.565490722656
 31
0.0
  0
LINE
  5
   22B
  8
0
  6
CONTINUOUS
 62
     3
 10
160.218605041504
 20
496.565490722656
 30
0.0
 11
160.718605041504
 21
496.565490722656
 31
0.0
  0
LINE
  5
   22C
  8
0
  6
CONTINUOUS
 62
     3
 10
158.418601989746
 20
496.565490722656
 30
0.0
 11
158.918601989746
 21
496.565490722656
 31
0.0
  0
LINE
  5
   22D
  8
0
  6
CONTINUOUS
 62
     3
 10
156.618602752686
 20
496.565490722656
 30
0.0
 11
157.118602752686
 21
496.565490722656
 31
0.0
  0
LINE
  5
   22E
  8
0
  6
CONTINUOUS
 62
     3
 10
154.818603515625
 20
496.565490722656
 30
0.0
 11
155.318603515625
 21
496.565490722656
 31
0.0
  0
LINE
  5
   22F
  8
0
  6
CONTINUOUS
 62
     3
 10
238.118602752686
 20
496.565490722656
 30
0.0
 11
240.568603515625
 21
496.565490722656
 31
0.0
  0
LINE
  5
   230
  8
0
  6
CONTINUOUS
 62
     3
 10
150.568603515625
 20
496.565490722656
 30
0.0
 11
153.018604278564
 21
496.565490722656
 31
0.0
  0
LINE
  5
   231
  8
0
  6
CONTINUOUS
 62
     3
 10
153.018604278564
 20
496.565490722656
 30
0.0
 11
153.518604278564
 21
496.565490722656
 31
0.0
  0
LINE
  5
   232
  8
0
  6
CONTINUOUS
 62
     3
 10
227.318603515625
 20
496.565490722656
 30
0.0
 11
228.618602752686
 21
496.565490722656
 31
0.0
  0
LINE
  5
   233
  8
0
  6
CONTINUOUS
 62
     3
 10
230.918601989746
 20
496.565490722656
 30
0.0
 11
232.218605041504
 21
496.565490722656
 31
0.0
  0
LINE
  5
   234
  8
0
  6
CONTINUOUS
 62
     3
 10
166.118602752686
 20
496.565490722656
 30
0.0
 11
167.418603897095
 21
496.565490722656
 31
0.0
  0
LINE
  5
   235
  8
0
  6
CONTINUOUS
 62
     3
 10
225.518604278564
 20
496.565490722656
 30
0.0
 11
226.818603515625
 21
496.565490722656
 31
0.0
  0
LINE
  5
   236
  8
0
  6
CONTINUOUS
 62
     3
 10
164.318603515625
 20
496.565490722656
 30
0.0
 11
165.618602752686
 21
496.565490722656
 31
0.0
  0
LINE
  5
   237
  8
0
  6
CONTINUOUS
 62
     3
 10
162.518604278564
 20
496.565490722656
 30
0.0
 11
163.818603515625
 21
496.565490722656
 31
0.0
  0
LINE
  5
   238
  8
0
  6
CONTINUOUS
 62
     3
 10
160.718605041504
 20
496.565490722656
 30
0.0
 11
162.018604278564
 21
496.565490722656
 31
0.0
  0
LINE
  5
   239
  8
0
  6
CONTINUOUS
 62
     3
 10
158.918601989746
 20
496.565490722656
 30
0.0
 11
160.218605041504
 21
496.565490722656
 31
0.0
  0
LINE
  5
   23A
  8
0
  6
CONTINUOUS
 62
     3
 10
157.118602752686
 20
496.565490722656
 30
0.0
 11
158.418601989746
 21
496.565490722656
 31
0.0
  0
LINE
  5
   23B
  8
0
  6
CONTINUOUS
 62
     3
 10
155.318603515625
 20
496.565490722656
 30
0.0
 11
156.618602752686
 21
496.565490722656
 31
0.0
  0
LINE
  5
   23C
  8
0
  6
CONTINUOUS
 62
     3
 10
223.718603134155
 20
496.565490722656
 30
0.0
 11
225.018604278564
 21
496.565490722656
 31
0.0
  0
LINE
  5
   23D
  8
0
  6
CONTINUOUS
 62
     3
 10
167.918603897095
 20
496.565490722656
 30
0.0
 11
169.218603134155
 21
496.565490722656
 31
0.0
  0
LINE
  5
   23E
  8
0
  6
CONTINUOUS
 62
     3
 10
229.118602752686
 20
496.565490722656
 30
0.0
 11
230.418601989746
 21
496.565490722656
 31
0.0
  0
LINE
  5
   23F
  8
0
  6
CONTINUOUS
 62
     3
 10
232.718605041504
 20
496.565490722656
 30
0.0
 11
234.018604278564
 21
496.565490722656
 31
0.0
  0
LINE
  5
   240
  8
0
  6
CONTINUOUS
 62
     3
 10
221.918603897095
 20
496.565490722656
 30
0.0
 11
223.218603134155
 21
496.565490722656
 31
0.0
  0
LINE
  5
   241
  8
0
  6
CONTINUOUS
 62
     3
 10
178.718603134155
 20
496.565490722656
 30
0.0
 11
180.01860332489
 21
496.565490722656
 31
0.0
  0
LINE
  5
   242
  8
0
  6
CONTINUOUS
 62
     3
 10
176.918603897095
 20
496.565490722656
 30
0.0
 11
178.218603134155
 21
496.565490722656
 31
0.0
  0
LINE
  5
   243
  8
0
  6
CONTINUOUS
 62
     3
 10
175.118602752686
 20
496.565490722656
 30
0.0
 11
176.418603897095
 21
496.565490722656
 31
0.0
  0
LINE
  5
   244
  8
0
  6
CONTINUOUS
 62
     3
 10
173.318603515625
 20
496.565490722656
 30
0.0
 11
174.618602752686
 21
496.565490722656
 31
0.0
  0
LINE
  5
   245
  8
0
  6
CONTINUOUS
 62
     3
 10
171.518604278564
 20
496.565490722656
 30
0.0
 11
172.818603515625
 21
496.565490722656
 31
0.0
  0
LINE
  5
   246
  8
0
  6
CONTINUOUS
 62
     3
 10
169.718603134155
 20
496.565490722656
 30
0.0
 11
171.018604278564
 21
496.565490722656
 31
0.0
  0
LINE
  5
   247
  8
0
  6
CONTINUOUS
 62
     3
 10
153.518604278564
 20
496.565490722656
 30
0.0
 11
154.818603515625
 21
496.565490722656
 31
0.0
  0
LINE
  5
   248
  8
0
  6
CONTINUOUS
 62
     3
 10
234.518604278564
 20
496.565490722656
 30
0.0
 11
235.818603515625
 21
496.565490722656
 31
0.0
  0
LINE
  5
   249
  8
0
  6
CONTINUOUS
 62
     3
 10
236.318603515625
 20
496.565490722656
 30
0.0
 11
237.618602752686
 21
496.565490722656
 31
0.0
  0
LINE
  5
   24A
  8
0
  6
CONTINUOUS
 62
     3
 10
180.51860332489
 20
496.565490722656
 30
0.0
 11
181.818603515625
 21
496.565490722656
 31
0.0
  0
LINE
  5
   24B
  8
0
  6
CONTINUOUS
 62
     3
 10
220.118602752686
 20
496.565490722656
 30
0.0
 11
221.418603897095
 21
496.565490722656
 31
0.0
  0
LINE
  5
   24C
  8
0
  6
CONTINUOUS
 62
     3
 10
218.318603515625
 20
496.565490722656
 30
0.0
 11
219.618602752686
 21
496.565490722656
 31
0.0
  0
LINE
  5
   24D
  8
0
  6
CONTINUOUS
 62
     3
 10
216.518604278565
 20
496.565490722656
 30
0.0
 11
217.818603515625
 21
496.565490722656
 31
0.0
  0
LINE
  5
   24E
  8
0
  6
CONTINUOUS
 62
     3
 10
214.718603134155
 20
496.565490722656
 30
0.0
 11
216.018604278564
 21
496.565490722656
 31
0.0
  0
LINE
  5
   24F
  8
0
  6
CONTINUOUS
 62
     3
 10
212.918603897095
 20
496.565490722656
 30
0.0
 11
214.218603134155
 21
496.565490722656
 31
0.0
  0
LINE
  5
   250
  8
0
  6
CONTINUOUS
 62
     3
 10
211.11860370636
 20
496.565490722656
 30
0.0
 11
212.418603897095
 21
496.565490722656
 31
0.0
  0
LINE
  5
   251
  8
0
  6
CONTINUOUS
 62
     3
 10
209.318603515625
 20
496.565490722656
 30
0.0
 11
210.61860370636
 21
496.565490722656
 31
0.0
  0
LINE
  5
   252
  8
0
  6
CONTINUOUS
 62
     3
 10
207.51860332489
 20
496.565490722656
 30
0.0
 11
208.818603515625
 21
496.565490722656
 31
0.0
  0
LINE
  5
   253
  8
0
  6
CONTINUOUS
 62
     3
 10
205.718603134155
 20
496.565490722656
 30
0.0
 11
207.01860332489
 21
496.565490722656
 31
0.0
  0
LINE
  5
   254
  8
0
  6
CONTINUOUS
 62
     3
 10
203.918603897095
 20
496.565490722656
 30
0.0
 11
205.218603134155
 21
496.565490722656
 31
0.0
  0
LINE
  5
   255
  8
0
  6
CONTINUOUS
 62
     3
 10
202.11860370636
 20
496.565490722656
 30
0.0
 11
203.418603420258
 21
496.565490722656
 31
0.0
  0
LINE
  5
   256
  8
0
  6
CONTINUOUS
 62
     3
 10
200.318603515625
 20
496.565490722656
 30
0.0
 11
201.61860370636
 21
496.565490722656
 31
0.0
  0
LINE
  5
   257
  8
0
  6
CONTINUOUS
 62
     3
 10
198.518603563309
 20
496.565490722656
 30
0.0
 11
199.818603515625
 21
496.565490722656
 31
0.0
  0
LINE
  5
   258
  8
0
  6
CONTINUOUS
 62
     3
 10
196.718603491783
 20
496.565490722656
 30
0.0
 11
198.018603563309
 21
496.565490722656
 31
0.0
  0
LINE
  5
   259
  8
0
  6
CONTINUOUS
 62
     3
 10
194.918603539467
 20
496.565490722656
 30
0.0
 11
196.218603491783
 21
496.565490722656
 31
0.0
  0
LINE
  5
   25A
  8
0
  6
CONTINUOUS
 62
     3
 10
193.118603467941
 20
496.565490722656
 30
0.0
 11
194.418603539467
 21
496.565490722656
 31
0.0
  0
LINE
  5
   25B
  8
0
  6
CONTINUOUS
 62
     3
 10
191.318603515625
 20
496.565490722656
 30
0.0
 11
192.618603467941
 21
496.565490722656
 31
0.0
  0
LINE
  5
   25C
  8
0
  6
CONTINUOUS
 62
     3
 10
189.51860332489
 20
496.565490722656
 30
0.0
 11
190.818603515625
 21
496.565490722656
 31
0.0
  0
LINE
  5
   25D
  8
0
  6
CONTINUOUS
 62
     3
 10
187.718603610992
 20
496.565490722656
 30
0.0
 11
189.01860332489
 21
496.565490722656
 31
0.0
  0
LINE
  5
   25E
  8
0
  6
CONTINUOUS
 62
     3
 10
185.918603897095
 20
496.565490722656
 30
0.0
 11
187.218603134155
 21
496.565490722656
 31
0.0
  0
LINE
  5
   25F
  8
0
  6
CONTINUOUS
 62
     3
 10
184.11860370636
 20
496.565490722656
 30
0.0
 11
185.418603897095
 21
496.565490722656
 31
0.0
  0
LINE
  5
   260
  8
0
  6
CONTINUOUS
 62
     3
 10
182.318603515625
 20
496.565490722656
 30
0.0
 11
183.61860370636
 21
496.565490722656
 31
0.0
  0
LINE
  5
   261
  8
0
  6
CONTINUOUS
 62
   252
 10
240.568603515625
 20
525.565490722656
 30
0.0
 11
240.568603515625
 21
526.204518795014
 31
0.0
  0
LINE
  5
   262
  8
0
  6
CONTINUOUS
 62
   252
 10
240.568603515625
 20
553.926290512085
 30
0.0
 11
240.568603515625
 21
554.565490722656
 31
0.0
  0
LINE
  5
   263
  8
0
  6
CONTINUOUS
 62
   252
 10
240.568603515625
 20
592.865489959717
 30
0.0
 11
240.568603515625
 21
593.565483093262
 31
0.0
  0
LINE
  5
   264
  8
0
  6
CONTINUOUS
 62
   252
 10
240.568603515625
 20
554.565490722656
 30
0.0
 11
240.568603515625
 21
562.065490722656
 31
0.0
  0
LINE
  5
   265
  8
0
  6
CONTINUOUS
 62
   252
 10
240.568603515625
 20
593.565490722656
 30
0.0
 11
240.568603515625
 21
611.065483093262
 31
0.0
  0
LINE
  5
   266
  8
0
  6
CONTINUOUS
 62
   252
 10
240.568603515625
 20
562.065490722656
 30
0.0
 11
240.568603515625
 21
592.865489959717
 31
0.0
  0
LINE
  5
   267
  8
0
  6
CONTINUOUS
 62
   252
 10
240.568603515625
 20
517.065490722656
 30
0.0
 11
240.568603515625
 21
555.412925881604
 31
0.0
  0
LINE
  5
   268
  8
0
  6
CONTINUOUS
 62
   252
 10
240.568603515625
 20
497.265491485596
 30
0.0
 11
240.568603515625
 21
517.065490722656
 31
0.0
  0
LINE
  5
   269
  8
0
  6
CONTINUOUS
 62
   252
 10
240.568603515625
 20
479.065490722656
 30
0.0
 11
240.568603515625
 21
496.565490722656
 31
0.0
  0
LINE
  5
   26A
  8
0
  6
CONTINUOUS
 62
   252
 10
240.568603515625
 20
496.565490722656
 30
0.0
 11
240.568603515625
 21
497.265491485596
 31
0.0
  0
LINE
  5
   26B
  8
0
  6
CONTINUOUS
 62
     7
 10
151.268603515684
 20
592.865489959717
 30
0.0
 11
151.268603515684
 21
593.565486907959
 31
0.0
  0
LINE
  5
   26C
  8
0
  6
CONTINUOUS
 62
     7
 10
240.568603515684
 20
562.065490722656
 30
0.0
 11
240.568603515684
 21
592.865489959717
 31
0.0
  0
LINE
  5
   26D
  8
0
  6
CONTINUOUS
 62
     7
 10
240.568603515684
 20
497.265491485596
 30
0.0
 11
240.568603515684
 21
517.065490722656
 31
0.0
  0
LINE
  5
   26E
  8
0
  6
CONTINUOUS
 62
     1
 10
205.568603515625
 20
555.747343559546
 30
0.0
 11
206.068603515625
 21
555.747343559546
 31
0.0
  0
LINE
  5
   26F
  8
0
  6
CONTINUOUS
 62
     1
 10
185.068603515625
 20
555.747343559546
 30
0.0
 11
185.568603515625
 21
555.747343559546
 31
0.0
  0
LINE
  5
   270
  8
0
  6
CONTINUOUS
 62
     7
 10
185.068603515625
 20
526.838071187185
 30
0.0
 11
206.068603515625
 21
526.838071187185
 31
0.0
  0
LINE
  5
   271
  8
0
  6
CONTINUOUS
 62
     7
 10
205.86860370636
 20
526.345454445939
 30
0.0
 11
206.068603515625
 21
526.345454445939
 31
0.0
  0
LINE
  5
   272
  8
0
  6
CONTINUOUS
 62
     7
 10
185.068603515625
 20
526.345454445939
 30
0.0
 11
185.26860332489
 21
526.345454445939
 31
0.0
  0
CIRCLE
  5
   273
  8
0
  6
CONTINUOUS
 62
     7
 10
165.568587663947
 20
513.565485301805
 30
0.0
 40
3.25
  0
LINE
  5
   274
  8
0
  6
CONTINUOUS
 62
     7
 10
205.555653572083
 20
526.092807292938
 30
0.0
 11
205.86860370636
 21
526.152979373932
 31
0.0
  0
LINE
  5
   275
  8
0
  6
CONTINUOUS
 62
     7
 10
205.444629669189
 20
526.081463336945
 30
0.0
 11
205.555653572083
 21
526.092807292938
 31
0.0
  0
LINE
  5
   276
  8
0
  6
CONTINUOUS
 62
     7
 10
205.868603515625
 20
526.214221477509
 30
0.0
 11
205.868603515625
 21
526.345454216003
 31
0.0
  0
LINE
  5
   277
  8
0
  6
CONTINUOUS
 62
     7
 10
185.268603515625
 20
526.214221477509
 30
0.0
 11
185.268603515625
 21
526.345454216003
 31
0.0
  0
LINE
  5
   278
  8
0
  6
CONTINUOUS
 62
     7
 10
224.568602752599
 20
525.264137268066
 30
0.0
 11
224.568602752599
 21
525.412063121796
 31
0.0
  0
LINE
  5
   279
  8
0
  6
CONTINUOUS
 62
     7
 10
231.968603515624
 20
518.565490722656
 30
0.0
 11
231.968603515624
 21
518.665491104126
 31
0.0
  0
LINE
  5
   27A
  8
0
  6
CONTINUOUS
 62
     7
 10
231.968603515624
 20
560.465490341187
 30
0.0
 11
231.968603515624
 21
560.565490722656
 31
0.0
  0
LINE
  5
   27B
  8
0
  6
CONTINUOUS
 62
     7
 10
233.668603515625
 20
560.565490722656
 30
0.0
 11
233.668603515625
 21
562.065490722656
 31
0.0
  0
LINE
  5
   27C
  8
0
  6
CONTINUOUS
 62
     7
 10
233.668603515625
 20
517.065490722656
 30
0.0
 11
233.668603515625
 21
518.565490722656
 31
0.0
  0
LINE
  5
   27D
  8
0
  6
CONTINUOUS
 62
     7
 10
185.26860332489
 20
526.152979373932
 30
0.0
 11
185.581551551819
 21
526.092807292938
 31
0.0
  0
LINE
  5
   27E
  8
0
  6
CONTINUOUS
 62
     7
 10
185.581551551819
 20
526.092807292938
 30
0.0
 11
185.692558288574
 21
526.081464767456
 31
0.0
  0
POLYLINE
  5
   27F
  8
0
  6
CONTINUOUS
 62
     7
 66
     1
 10
0.0
 20
0.0
 30
0.0
  0
VERTEX
  5
   280
  8
0
  6
CONTINUOUS
 10
204.868604485733
 20
522.265490722656
 30
0.0
 40
0.0
 41
0.0
  0
VERTEX
  5
   281
  8
0
  6
CONTINUOUS
 10
205.468603514583
 20
522.065490722656
 30
0.0
 40
0.0
 41
0.0
  0
SEQEND
  5
   282
  8
0
  6
CONTINUOUS
 62
     7
  0
POLYLINE
  5
   283
  8
0
  6
CONTINUOUS
 62
     7
 66
     1
 10
0.0
 20
0.0
 30
0.0
  0
VERTEX
  5
   284
  8
0
  6
CONTINUOUS
 10
186.268602526925
 20
522.265490722656
 30
0.0
 40
0.0
 41
0.0
  0
VERTEX
  5
   285
  8
0
  6
CONTINUOUS
 10
185.668603515348
 20
522.065490722656
 30
0.0
 40
0.0
 41
0.0
  0
SEQEND
  5
   286
  8
0
  6
CONTINUOUS
 62
     7
  0
LINE
  5
   287
  8
0
  6
CONTINUOUS
 62
     7
 10
205.46860408783
 20
522.065490722656
 30
0.0
 11
205.76860332489
 21
522.065490722656
 31
0.0
  0
LINE
  5
   288
  8
0
  6
CONTINUOUS
 62
     7
 10
185.36860370636
 20
522.065490722656
 30
0.0
 11
185.66860294342
 21
522.065490722656
 31
0.0
  0
LINE
  5
   289
  8
0
  6
CONTINUOUS
 62
     7
 10
185.66860294342
 20
522.065490722656
 30
0.0
 11
205.46860408783
 21
522.065490722656
 31
0.0
  0
POLYLINE
  5
   28A
  8
0
  6
CONTINUOUS
 62
     7
 66
     1
 10
0.0
 20
0.0
 30
0.0
  0
VERTEX
  5
   28B
  8
0
  6
CONTINUOUS
 10
205.444629831156
 20
526.081463427471
 30
0.0
 40
0.0
 41
0.0
  0
VERTEX
  5
   28C
  8
0
  6
CONTINUOUS
 10
204.868603515625
 20
525.88222448785
 30
0.0
 40
0.0
 41
0.0
  0
SEQEND
  5
   28D
  8
0
  6
CONTINUOUS
 62
     7
  0
POLYLINE
  5
   28E
  8
0
  6
CONTINUOUS
 62
     7
 66
     1
 10
0.0
 20
0.0
 30
0.0
  0
VERTEX
  5
   28F
  8
0
  6
CONTINUOUS
 10
185.692577198526
 20
526.081463427471
 30
0.0
 40
0.0
 41
0.0
  0
VERTEX
  5
   290
  8
0
  6
CONTINUOUS
 10
186.268603433923
 20
525.88222448785
 30
0.0
 40
0.0
 41
0.0
  0
SEQEND
  5
   291
  8
0
  6
CONTINUOUS
 62
     7
  0
LINE
  5
   292
  8
0
  6
CONTINUOUS
 62
     7
 10
150.568603515625
 20
592.865490722656
 30
0.0
 11
153.018604278564
 21
592.865490722656
 31
0.0
  0
LINE
  5
   293
  8
0
  6
CONTINUOUS
 62
     7
 10
238.118602752686
 20
592.865490722656
 30
0.0
 11
240.568603515625
 21
592.865490722656
 31
0.0
  0
LINE
  5
   294
  8
0
  6
CONTINUOUS
 62
     7
 10
237.618602752686
 20
592.865490722656
 30
0.0
 11
238.118602752686
 21
592.865490722656
 31
0.0
  0
LINE
  5
   295
  8
0
  6
CONTINUOUS
 62
     7
 10
153.018604278564
 20
592.865490722656
 30
0.0
 11
153.518604278564
 21
592.865490722656
 31
0.0
  0
LINE
  5
   296
  8
0
  6
CONTINUOUS
 62
     7
 10
153.518604278564
 20
592.865490722656
 30
0.0
 11
154.818603515625
 21
592.865490722656
 31
0.0
  0
LINE
  5
   297
  8
0
  6
CONTINUOUS
 62
     7
 10
234.518604278564
 20
592.865490722656
 30
0.0
 11
235.818603515625
 21
592.865490722656
 31
0.0
  0
LINE
  5
   298
  8
0
  6
CONTINUOUS
 62
     7
 10
157.118602752686
 20
592.865490722656
 30
0.0
 11
234.018604278564
 21
592.865490722656
 31
0.0
  0
LINE
  5
   299
  8
0
  6
CONTINUOUS
 62
     7
 10
155.318603515625
 20
592.865490722656
 30
0.0
 11
156.618602752686
 21
592.865490722656
 31
0.0
  0
LINE
  5
   29A
  8
0
  6
CONTINUOUS
 62
     7
 10
236.318603515625
 20
592.865490722656
 30
0.0
 11
237.618602752686
 21
592.865490722656
 31
0.0
  0
LINE
  5
   29B
  8
0
  6
CONTINUOUS
 62
     7
 10
235.818603515625
 20
592.865490722656
 30
0.0
 11
236.318603515625
 21
592.865490722656
 31
0.0
  0
LINE
  5
   29C
  8
0
  6
CONTINUOUS
 62
     7
 10
234.018604278564
 20
592.865490722656
 30
0.0
 11
234.518604278564
 21
592.865490722656
 31
0.0
  0
LINE
  5
   29D
  8
0
  6
CONTINUOUS
 62
     7
 10
154.818603515625
 20
592.865490722656
 30
0.0
 11
155.318603515625
 21
592.865490722656
 31
0.0
  0
LINE
  5
   29E
  8
0
  6
CONTINUOUS
 62
     7
 10
156.618602752686
 20
592.865490722656
 30
0.0
 11
157.118602752686
 21
592.865490722656
 31
0.0
  0
LINE
  5
   29F
  8
0
  6
CONTINUOUS
 62
     7
 10
150.568603515625
 20
497.265490722656
 30
0.0
 11
153.018604278564
 21
497.265490722656
 31
0.0
  0
LINE
  5
   2A0
  8
0
  6
CONTINUOUS
 62
     7
 10
238.118602752686
 20
497.265490722656
 30
0.0
 11
240.568603515625
 21
497.265490722656
 31
0.0
  0
LINE
  5
   2A1
  8
0
  6
CONTINUOUS
 62
     7
 10
153.018604278564
 20
497.265490722656
 30
0.0
 11
153.518604278564
 21
497.265490722656
 31
0.0
  0
LINE
  5
   2A2
  8
0
  6
CONTINUOUS
 62
     7
 10
237.618602752686
 20
497.265490722656
 30
0.0
 11
238.118602752686
 21
497.265490722656
 31
0.0
  0
LINE
  5
   2A3
  8
0
  6
CONTINUOUS
 62
     7
 10
155.318603515625
 20
497.265490722656
 30
0.0
 11
156.618602752686
 21
497.265490722656
 31
0.0
  0
LINE
  5
   2A4
  8
0
  6
CONTINUOUS
 62
     7
 10
153.518604278564
 20
497.265490722656
 30
0.0
 11
154.818603515625
 21
497.265490722656
 31
0.0
  0
LINE
  5
   2A5
  8
0
  6
CONTINUOUS
 62
     7
 10
157.118602752686
 20
497.265490722656
 30
0.0
 11
234.018604278564
 21
497.265490722656
 31
0.0
  0
LINE
  5
   2A6
  8
0
  6
CONTINUOUS
 62
     7
 10
236.318603515625
 20
497.265490722656
 30
0.0
 11
237.618602752686
 21
497.265490722656
 31
0.0
  0
LINE
  5
   2A7
  8
0
  6
CONTINUOUS
 62
     7
 10
234.518604278564
 20
497.265490722656
 30
0.0
 11
235.818603515625
 21
497.265490722656
 31
0.0
  0
LINE
  5
   2A8
  8
0
  6
CONTINUOUS
 62
     7
 10
154.818603515625
 20
497.265490722656
 30
0.0
 11
155.318603515625
 21
497.265490722656
 31
0.0
  0
LINE
  5
   2A9
  8
0
  6
CONTINUOUS
 62
     7
 10
156.618602752686
 20
497.265490722656
 30
0.0
 11
157.118602752686
 21
497.265490722656
 31
0.0
  0
LINE
  5
   2AA
  8
0
  6
CONTINUOUS
 62
     7
 10
235.818603515625
 20
497.265490722656
 30
0.0
 11
236.318603515625
 21
497.265490722656
 31
0.0
  0
LINE
  5
   2AB
  8
0
  6
CONTINUOUS
 62
     7
 10
234.018604278564
 20
497.265490722656
 30
0.0
 11
234.518604278564
 21
497.265490722656
 31
0.0
  0
POLYLINE
  5
   2AC
  8
0
  6
CONTINUOUS
 62
     7
 66
     1
 10
0.0
 20
0.0
 30
0.0
  0
VERTEX
  5
   2AD
  8
0
  6
CONTINUOUS
 10
220.56860351563
 20
523.06549072266
 30
0.0
 40
0.0
 41
0.0
  0
VERTEX
  5
   2AE
  8
0
  6
CONTINUOUS
 10
220.85114032308
 20
523.893309992504
 30
0.0
 40
0.0
 41
0.0
  0
VERTEX
  5
   2AF
  8
0
  6
CONTINUOUS
 10
221.883339112103
 20
524.755435393884
 30
0.0
 40
0.0
 41
0.0
  0
SEQEND
  5
   2B0
  8
0
  6
CONTINUOUS
 62
     7
  0
POLYLINE
  5
   2B1
  8
0
  6
CONTINUOUS
 62
     7
 66
     1
 10
0.0
 20
0.0
 30
0.0
  0
VERTEX
  5
   2B2
  8
0
  6
CONTINUOUS
 10
221.995738894103
 20
524.814689465436
 30
0.0
 40
0.0
 41
0.0
  0
VERTEX
  5
   2B3
  8
0
  6
CONTINUOUS
 10
223.568226789044
 20
525.356817097651
 30
0.0
 40
0.0
 41
0.0
  0
VERTEX
  5
   2B4
  8
0
  6
CONTINUOUS
 10
225.264141439284
 20
525.560713383085
 30
0.0
 40
0.0
 41
0.0
  0
VERTEX
  5
   2B5
  8
0
  6
CONTINUOUS
 10
226.404041422447
 20
525.530435673786
 30
0.0
 40
0.0
 41
0.0
  0
SEQEND
  5
   2B6
  8
0
  6
CONTINUOUS
 62
     7
  0
POLYLINE
  5
   2B7
  8
0
  6
CONTINUOUS
 62
     7
 66
     1
 10
0.0
 20
0.0
 30
0.0
  0
VERTEX
  5
   2B8
  8
0
  6
CONTINUOUS
 10
226.604722466753
 20
525.511367361168
 30
0.0
 40
0.0
 41
0.0
  0
VERTEX
  5
   2B9
  8
0
  6
CONTINUOUS
 10
228.355731375589
 20
525.141026176137
 30
0.0
 40
0.0
 41
0.0
  0
VERTEX
  5
   2BA
  8
0
  6
CONTINUOUS
 10
228.978493740168
 20
524.894072126046
 30
0.0
 40
0.0
 41
0.0
  0
SEQEND
  5
   2BB
  8
0
  6
CONTINUOUS
 62
     7
  0
POLYLINE
  5
   2BC
  8
0
  6
CONTINUOUS
 62
     7
 66
     1
 10
0.0
 20
0.0
 30
0.0
  0
VERTEX
  5
   2BD
  8
0
  6
CONTINUOUS
 10
229.873256930429
 20
524.337085376353
 30
0.0
 40
0.0
 41
0.0
  0
VERTEX
  5
   2BE
  8
0
  6
CONTINUOUS
 10
230.180395465256
 20
524.031336014563
 30
0.0
 40
0.0
 41
0.0
  0
SEQEND
  5
   2BF
  8
0
  6
CONTINUOUS
 62
     7
  0
POLYLINE
  5
   2C0
  8
0
  6
CONTINUOUS
 62
     7
 66
     1
 10
0.0
 20
0.0
 30
0.0
  0
VERTEX
  5
   2C1
  8
0
  6
CONTINUOUS
 10
229.249504685851
 20
524.757542491636
 30
0.0
 40
0.0
 41
0.0
  0
VERTEX
  5
   2C2
  8
0
  6
CONTINUOUS
 10
229.763380709466
 20
524.425805254347
 30
0.0
 40
0.0
 41
0.0
  0
SEQEND
  5
   2C3
  8
0
  6
CONTINUOUS
 62
     7
  0
POLYLINE
  5
   2C4
  8
0
  6
CONTINUOUS
 62
     7
 66
     1
 10
0.0
 20
0.0
 30
0.0
  0
VERTEX
  5
   2C5
  8
0
  6
CONTINUOUS
 10
230.434829819785
 20
523.640650711761
 30
0.0
 40
0.0
 41
0.0
  0
VERTEX
  5
   2C6
  8
0
  6
CONTINUOUS
 10
230.56860351562
 20
523.06549072266
 30
0.0
 40
0.0
 41
0.0
  0
SEQEND
  5
   2C7
  8
0
  6
CONTINUOUS
 62
     7
  0
POLYLINE
  5
   2C8
  8
0
  6
CONTINUOUS
 62
     7
 66
     1
 10
0.0
 20
0.0
 30
0.0
  0
VERTEX
  5
   2C9
  8
0
  6
CONTINUOUS
 10
224.532478786213
 20
520.619614694945
 30
0.0
 40
0.0
 41
0.0
  0
VERTEX
  5
   2CA
  8
0
  6
CONTINUOUS
 10
222.781479014665
 20
520.989954143011
 30
0.0
 40
0.0
 41
0.0
  0
VERTEX
  5
   2CB
  8
0
  6
CONTINUOUS
 10
222.158718661309
 20
521.236906815323
 30
0.0
 40
0.0
 41
0.0
  0
SEQEND
  5
   2CC
  8
0
  6
CONTINUOUS
 62
     7
  0
POLYLINE
  5
   2CD
  8
0
  6
CONTINUOUS
 62
     7
 66
     1
 10
0.0
 20
0.0
 30
0.0
  0
VERTEX
  5
   2CE
  8
0
  6
CONTINUOUS
 10
221.26326724412
 20
521.794474102152
 30
0.0
 40
0.0
 41
0.0
  0
VERTEX
  5
   2CF
  8
0
  6
CONTINUOUS
 10
220.951579343963
 20
522.105905931426
 30
0.0
 40
0.0
 41
0.0
  0
SEQEND
  5
   2D0
  8
0
  6
CONTINUOUS
 62
     7
  0
POLYLINE
  5
   2D1
  8
0
  6
CONTINUOUS
 62
     7
 66
     1
 10
0.0
 20
0.0
 30
0.0
  0
VERTEX
  5
   2D2
  8
0
  6
CONTINUOUS
 10
220.702373531301
 20
522.490338514148
 30
0.0
 40
0.0
 41
0.0
  0
VERTEX
  5
   2D3
  8
0
  6
CONTINUOUS
 10
220.56860351563
 20
523.065490722652
 30
0.0
 40
0.0
 41
0.0
  0
SEQEND
  5
   2D4
  8
0
  6
CONTINUOUS
 62
     7
  0
POLYLINE
  5
   2D5
  8
0
  6
CONTINUOUS
 62
     7
 66
     1
 10
0.0
 20
0.0
 30
0.0
  0
VERTEX
  5
   2D6
  8
0
  6
CONTINUOUS
 10
230.56860351562
 20
523.065490722652
 30
0.0
 40
0.0
 41
0.0
  0
VERTEX
  5
   2D7
  8
0
  6
CONTINUOUS
 10
230.340944782764
 20
522.320420876982
 30
0.0
 40
0.0
 41
0.0
  0
VERTEX
  5
   2D8
  8
0
  6
CONTINUOUS
 10
229.807646342641
 20
521.739626903357
 30
0.0
 40
0.0
 41
0.0
  0
VERTEX
  5
   2D9
  8
0
  6
CONTINUOUS
 10
228.363923466152
 20
520.992993960425
 30
0.0
 40
0.0
 41
0.0
  0
VERTEX
  5
   2DA
  8
0
  6
CONTINUOUS
 10
226.450156043656
 20
520.604647593605
 30
0.0
 40
0.0
 41
0.0
  0
VERTEX
  5
   2DB
  8
0
  6
CONTINUOUS
 10
224.752003410115
 20
520.598973931957
 30
0.0
 40
0.0
 41
0.0
  0
SEQEND
  5
   2DC
  8
0
  6
CONTINUOUS
 62
     7
  0
POLYLINE
  5
   2DD
  8
0
  6
CONTINUOUS
 62
     7
 66
     1
 10
0.0
 20
0.0
 30
0.0
  0
VERTEX
  5
   2DE
  8
0
  6
CONTINUOUS
 10
221.95220548646
 20
521.338990597633
 30
0.0
 40
0.0
 41
0.0
  0
VERTEX
  5
   2DF
  8
0
  6
CONTINUOUS
 10
221.409719159841
 20
521.677886636614
 30
0.0
 40
0.0
 41
0.0
  0
SEQEND
  5
   2E0
  8
0
  6
CONTINUOUS
 62
     7
  0
LINE
  5
   2E1
  8
0
  6
CONTINUOUS
 62
     7
 10
228.568603515625
 20
560.465490341187
 30
0.0
 11
228.568603515625
 21
560.565490722656
 31
0.0
  0
LINE
  5
   2E2
  8
0
  6
CONTINUOUS
 62
     7
 10
222.568603515625
 20
560.465490341187
 30
0.0
 11
222.568603515625
 21
560.565490722656
 31
0.0
  0
LINE
  5
   2E3
  8
0
  6
CONTINUOUS
 62
     7
 10
168.568603515625
 20
560.465490341187
 30
0.0
 11
168.568603515625
 21
560.565490722656
 31
0.0
  0
LINE
  5
   2E4
  8
0
  6
CONTINUOUS
 62
     7
 10
162.568603515625
 20
560.465490341187
 30
0.0
 11
162.568603515625
 21
560.565490722656
 31
0.0
  0
LINE
  5
   2E5
  8
0
  6
CONTINUOUS
 62
     7
 10
162.568603515625
 20
518.565490722656
 30
0.0
 11
162.568603515625
 21
518.665491104126
 31
0.0
  0
LINE
  5
   2E6
  8
0
  6
CONTINUOUS
 62
     7
 10
168.568603515625
 20
518.565490722656
 30
0.0
 11
168.568603515625
 21
518.665491104126
 31
0.0
  0
LINE
  5
   2E7
  8
0
  6
CONTINUOUS
 62
     7
 10
229.568603515625
 20
518.565490722656
 30
0.0
 11
229.568603515625
 21
518.665491104126
 31
0.0
  0
LINE
  5
   2E8
  8
0
  6
CONTINUOUS
 62
     7
 10
221.568603515625
 20
518.565490722656
 30
0.0
 11
221.568603515625
 21
518.665491104126
 31
0.0
  0
LINE
  5
   2E9
  8
0
  6
CONTINUOUS
 62
     7
 10
159.168603515625
 20
560.465490341187
 30
0.0
 11
159.168603515625
 21
560.565490722656
 31
0.0
  0
LINE
  5
   2EA
  8
0
  6
CONTINUOUS
 62
     7
 10
159.168603515625
 20
518.565490722656
 30
0.0
 11
159.168603515625
 21
518.665491104126
 31
0.0
  0
LINE
  5
   2EB
  8
0
  6
CONTINUOUS
 62
     7
 10
157.468603515631
 20
560.565490722656
 30
0.0
 11
157.468603515631
 21
562.065490722656
 31
0.0
  0
LINE
  5
   2EC
  8
0
  6
CONTINUOUS
 62
     7
 10
182.068603515625
 20
560.565490722656
 30
0.0
 11
215.661374986161
 21
560.565490722656
 31
0.0
  0
LINE
  5
   2ED
  8
0
  6
CONTINUOUS
 62
     7
 10
222.568603515625
 20
560.565490722657
 30
0.0
 11
228.568603515625
 21
560.565490722657
 31
0.0
  0
LINE
  5
   2EE
  8
0
  6
CONTINUOUS
 62
     7
 10
213.253171920776
 20
560.565490722656
 30
0.0
 11
222.568603515625
 21
560.565490722656
 31
0.0
  0
LINE
  5
   2EF
  8
0
  6
CONTINUOUS
 62
     7
 10
228.568603515625
 20
560.565490722656
 30
0.0
 11
230.668601989746
 21
560.565490722656
 31
0.0
  0
LINE
  5
   2F0
  8
0
  6
CONTINUOUS
 62
     7
 10
230.668601989746
 20
560.565490722656
 30
0.0
 11
233.668601989746
 21
560.565490722656
 31
0.0
  0
LINE
  5
   2F1
  8
0
  6
CONTINUOUS
 62
     7
 10
157.468605041504
 20
560.565490722656
 30
0.0
 11
160.468605041504
 21
560.565490722656
 31
0.0
  0
LINE
  5
   2F2
  8
0
  6
CONTINUOUS
 62
     7
 10
162.568603515625
 20
560.565490722657
 30
0.0
 11
168.568603515625
 21
560.565490722657
 31
0.0
  0
LINE
  5
   2F3
  8
0
  6
CONTINUOUS
 62
     7
 10
160.468605041504
 20
560.565490722656
 30
0.0
 11
162.568603515625
 21
560.565490722656
 31
0.0
  0
LINE
  5
   2F4
  8
0
  6
CONTINUOUS
 62
     7
 10
168.568603515625
 20
560.565490722656
 30
0.0
 11
182.068603515625
 21
560.565490722656
 31
0.0
  0
LINE
  5
   2F5
  8
0
  6
CONTINUOUS
 62
     7
 10
182.068603515625
 20
562.065490722656
 30
0.0
 11
215.136673972375
 21
562.065490722656
 31
0.0
  0
LINE
  5
   2F6
  8
0
  6
CONTINUOUS
 62
     7
 10
210.084890365601
 20
562.065490722656
 30
0.0
 11
230.668601989746
 21
562.065490722656
 31
0.0
  0
LINE
  5
   2F7
  8
0
  6
CONTINUOUS
 62
     7
 10
230.668601989746
 20
562.065490722656
 30
0.0
 11
233.668601989746
 21
562.065490722656
 31
0.0
  0
LINE
  5
   2F8
  8
0
  6
CONTINUOUS
 62
     7
 10
157.468605041504
 20
562.065490722656
 30
0.0
 11
160.468605041504
 21
562.065490722656
 31
0.0
  0
LINE
  5
   2F9
  8
0
  6
CONTINUOUS
 62
     7
 10
160.468605041504
 20
562.065490722656
 30
0.0
 11
182.068603515625
 21
562.065490722656
 31
0.0
  0
LINE
  5
   2FA
  8
0
  6
CONTINUOUS
 62
     7
 10
157.468603515631
 20
517.065490722656
 30
0.0
 11
157.468603515631
 21
518.565490722656
 31
0.0
  0
LINE
  5
   2FB
  8
0
  6
CONTINUOUS
 62
     7
 10
182.068603515625
 20
517.065490722656
 30
0.0
 11
209.068603515625
 21
517.065490722656
 31
0.0
  0
LINE
  5
   2FC
  8
0
  6
CONTINUOUS
 62
     7
 10
209.068603515625
 20
517.065490722656
 30
0.0
 11
230.668601989746
 21
517.065490722656
 31
0.0
  0
LINE
  5
   2FD
  8
0
  6
CONTINUOUS
 62
     7
 10
230.668601989746
 20
517.065490722656
 30
0.0
 11
233.668601989746
 21
517.065490722656
 31
0.0
  0
LINE
  5
   2FE
  8
0
  6
CONTINUOUS
 62
     7
 10
157.468605041504
 20
517.065490722656
 30
0.0
 11
160.468605041504
 21
517.065490722656
 31
0.0
  0
LINE
  5
   2FF
  8
0
  6
CONTINUOUS
 62
     7
 10
160.468605041504
 20
517.065490722656
 30
0.0
 11
182.068603515625
 21
517.065490722656
 31
0.0
  0
LINE
  5
   300
  8
0
  6
CONTINUOUS
 62
     7
 10
182.068603515625
 20
518.565490722656
 30
0.0
 11
209.068603515625
 21
518.565490722656
 31
0.0
  0
LINE
  5
   301
  8
0
  6
CONTINUOUS
 62
     7
 10
209.068603515625
 20
518.565490722656
 30
0.0
 11
230.668601989746
 21
518.565490722656
 31
0.0
  0
LINE
  5
   302
  8
0
  6
CONTINUOUS
 62
     7
 10
230.668601989746
 20
518.565490722656
 30
0.0
 11
233.668601989746
 21
518.565490722656
 31
0.0
  0
LINE
  5
   303
  8
0
  6
CONTINUOUS
 62
     7
 10
157.468605041504
 20
518.565490722656
 30
0.0
 11
160.468605041504
 21
518.565490722656
 31
0.0
  0
LINE
  5
   304
  8
0
  6
CONTINUOUS
 62
     7
 10
160.468605041504
 20
518.565490722656
 30
0.0
 11
182.068603515625
 21
518.565490722656
 31
0.0
  0
LINE
  5
   305
  8
0
  6
CONTINUOUS
 62
     7
 10
150.568603515625
 20
562.065490722656
 30
0.0
 11
153.018604278564
 21
562.065490722656
 31
0.0
  0
LINE
  5
   306
  8
0
  6
CONTINUOUS
 62
     7
 10
238.118602752686
 20
562.065490722656
 30
0.0
 11
240.568603515625
 21
562.065490722656
 31
0.0
  0
LINE
  5
   307
  8
0
  6
CONTINUOUS
 62
     7
 10
153.018604278564
 20
562.065490722656
 30
0.0
 11
153.518604278564
 21
562.065490722656
 31
0.0
  0
LINE
  5
   308
  8
0
  6
CONTINUOUS
 62
     7
 10
237.618602752686
 20
562.065490722656
 30
0.0
 11
238.118602752686
 21
562.065490722656
 31
0.0
  0
LINE
  5
   309
  8
0
  6
CONTINUOUS
 62
     7
 10
235.818603515625
 20
562.065490722656
 30
0.0
 11
236.318603515625
 21
562.065490722656
 31
0.0
  0
LINE
  5
   30A
  8
0
  6
CONTINUOUS
 62
     7
 10
234.018604278564
 20
562.065490722656
 30
0.0
 11
234.518604278564
 21
562.065490722656
 31
0.0
  0
LINE
  5
   30B
  8
0
  6
CONTINUOUS
 62
     7
 10
154.818603515625
 20
562.065490722656
 30
0.0
 11
155.318603515625
 21
562.065490722656
 31
0.0
  0
LINE
  5
   30C
  8
0
  6
CONTINUOUS
 62
     7
 10
156.618602752686
 20
562.065490722656
 30
0.0
 11
157.118602752686
 21
562.065490722656
 31
0.0
  0
LINE
  5
   30D
  8
0
  6
CONTINUOUS
 62
     7
 10
150.568603515625
 20
517.065490722656
 30
0.0
 11
153.018604278564
 21
517.065490722656
 31
0.0
  0
LINE
  5
   30E
  8
0
  6
CONTINUOUS
 62
     7
 10
238.118602752686
 20
517.065490722656
 30
0.0
 11
240.568603515625
 21
517.065490722656
 31
0.0
  0
LINE
  5
   30F
  8
0
  6
CONTINUOUS
 62
     7
 10
153.018604278564
 20
517.065490722656
 30
0.0
 11
153.518604278564
 21
517.065490722656
 31
0.0
  0
LINE
  5
   310
  8
0
  6
CONTINUOUS
 62
     7
 10
237.618602752686
 20
517.065490722656
 30
0.0
 11
238.118602752686
 21
517.065490722656
 31
0.0
  0
LINE
  5
   311
  8
0
  6
CONTINUOUS
 62
     7
 10
235.818603515625
 20
517.065490722656
 30
0.0
 11
236.318603515625
 21
517.065490722656
 31
0.0
  0
LINE
  5
   312
  8
0
  6
CONTINUOUS
 62
     7
 10
234.018604278564
 20
517.065490722656
 30
0.0
 11
234.518604278564
 21
517.065490722656
 31
0.0
  0
LINE
  5
   313
  8
0
  6
CONTINUOUS
 62
     7
 10
154.818603515625
 20
517.065490722656
 30
0.0
 11
155.318603515625
 21
517.065490722656
 31
0.0
  0
LINE
  5
   314
  8
0
  6
CONTINUOUS
 62
     7
 10
156.618602752686
 20
517.065490722656
 30
0.0
 11
157.118602752686
 21
517.065490722656
 31
0.0
  0
LINE
  5
   315
  8
0
  6
CONTINUOUS
 62
     7
 10
205.868603515625
 20
526.152979373932
 30
0.0
 11
205.868603515625
 21
526.214221477509
 31
0.0
  0
LINE
  5
   316
  8
0
  6
CONTINUOUS
 62
     7
 10
205.868603515625
 20
522.165491104126
 30
0.0
 11
205.868603515625
 21
526.152979373932
 31
0.0
  0
LINE
  5
   317
  8
0
  6
CONTINUOUS
 62
     7
 10
185.268603515625
 20
526.152979373932
 30
0.0
 11
185.268603515625
 21
526.214221477509
 31
0.0
  0
LINE
  5
   318
  8
0
  6
CONTINUOUS
 62
     7
 10
185.268603515625
 20
522.165491104126
 30
0.0
 11
185.268603515625
 21
526.152979373932
 31
0.0
  0
LINE
  5
   319
  8
0
  6
CONTINUOUS
 62
     7
 10
239.868603515684
 20
496.565490722656
 30
0.0
 11
239.868603515684
 21
497.265491485596
 31
0.0
  0
LINE
  5
   31A
  8
0
  6
CONTINUOUS
 62
     7
 10
239.868603515684
 20
592.865489959717
 30
0.0
 11
239.868603515684
 21
593.565483093262
 31
0.0
  0
LINE
  5
   31B
  8
0
  6
CONTINUOUS
 62
     7
 10
234.518604278564
 20
562.065490722656
 30
0.0
 11
235.818603515625
 21
562.065490722656
 31
0.0
  0
LINE
  5
   31C
  8
0
  6
CONTINUOUS
 62
     7
 10
155.318603515625
 20
562.065490722656
 30
0.0
 11
156.618602752686
 21
562.065490722656
 31
0.0
  0
LINE
  5
   31D
  8
0
  6
CONTINUOUS
 62
     7
 10
233.668601989746
 20
562.065490722656
 30
0.0
 11
234.018604278564
 21
562.065490722656
 31
0.0
  0
LINE
  5
   31E
  8
0
  6
CONTINUOUS
 62
     7
 10
157.118602752686
 20
562.065490722656
 30
0.0
 11
157.468605041504
 21
562.065490722656
 31
0.0
  0
LINE
  5
   31F
  8
0
  6
CONTINUOUS
 62
     7
 10
150.568603515684
 20
517.065490722656
 30
0.0
 11
150.568603515684
 21
562.065490722656
 31
0.0
  0
LINE
  5
   320
  8
0
  6
CONTINUOUS
 62
     7
 10
150.568603515684
 20
497.265491485596
 30
0.0
 11
150.568603515684
 21
517.065490722656
 31
0.0
  0
LINE
  5
   321
  8
0
  6
CONTINUOUS
 62
     7
 10
150.568603515684
 20
562.065490722656
 30
0.0
 11
150.568603515684
 21
592.865489959717
 31
0.0
  0
LINE
  5
   322
  8
0
  6
CONTINUOUS
 62
     7
 10
234.518604278564
 20
517.065490722656
 30
0.0
 11
235.818603515625
 21
517.065490722656
 31
0.0
  0
LINE
  5
   323
  8
0
  6
CONTINUOUS
 62
     7
 10
157.118602752686
 20
517.065490722656
 30
0.0
 11
157.468605041504
 21
517.065490722656
 31
0.0
  0
LINE
  5
   324
  8
0
  6
CONTINUOUS
 62
     7
 10
233.668601989746
 20
517.065490722656
 30
0.0
 11
234.018604278564
 21
517.065490722656
 31
0.0
  0
LINE
  5
   325
  8
0
  6
CONTINUOUS
 62
     7
 10
155.318603515625
 20
517.065490722656
 30
0.0
 11
156.618602752686
 21
517.065490722656
 31
0.0
  0
LINE
  5
   326
  8
0
  6
CONTINUOUS
 62
     7
 10
153.518604278564
 20
562.065490722656
 30
0.0
 11
154.818603515625
 21
562.065490722656
 31
0.0
  0
LINE
  5
   327
  8
0
  6
CONTINUOUS
 62
     7
 10
153.518604278564
 20
517.065490722656
 30
0.0
 11
154.818603515625
 21
517.065490722656
 31
0.0
  0
LINE
  5
   328
  8
0
  6
CONTINUOUS
 62
     7
 10
236.318603515625
 20
562.065490722656
 30
0.0
 11
237.618602752686
 21
562.065490722656
 31
0.0
  0
LINE
  5
   329
  8
0
  6
CONTINUOUS
 62
     7
 10
236.318603515625
 20
517.065490722656
 30
0.0
 11
237.618602752686
 21
517.065490722656
 31
0.0
  0
LINE
  5
   32A
  8
0
  6
CONTINUOUS
 62
     7
 10
151.268603515684
 20
496.565490722656
 30
0.0
 11
151.268603515684
 21
497.265491485596
 31
0.0
  0
LINE
  5
   32B
  8
0
  6
CONTINUOUS
 62
     3
 10
227.160024185196
 20
521.965490798935
 30
0.0
 11
227.418602485672
 21
522.224069099411
 31
0.0
  0
LINE
  5
   32C
  8
0
  6
CONTINUOUS
 62
     3
 10
227.418602752684
 20
522.224069595337
 30
0.0
 11
227.418602752684
 21
522.906911849976
 31
0.0
  0
LINE
  5
   32D
  8
0
  6
CONTINUOUS
 62
     3
 10
227.1600241852
 20
523.165490646382
 30
0.0
 11
227.418602485676
 21
522.906912345906
 31
0.0
  0
LINE
  5
   32E
  8
0
  6
CONTINUOUS
 62
     3
 10
226.010025024414
 20
523.165490722661
 30
0.0
 11
227.160024642944
 21
523.165490722661
 31
0.0
  0
LINE
  5
   32F
  8
0
  6
CONTINUOUS
 62
     3
 10
225.868602581044
 20
523.306912250538
 30
0.0
 11
226.010024375935
 21
523.165490455647
 31
0.0
  0
LINE
  5
   330
  8
0
  6
CONTINUOUS
 62
     3
 10
225.868602752684
 20
523.30691242218
 30
0.0
 11
225.868602752684
 21
523.824069023132
 31
0.0
  0
LINE
  5
   331
  8
0
  6
CONTINUOUS
 62
     3
 10
225.868602581039
 20
523.824069194779
 30
0.0
 11
226.010024375931
 21
523.96549098967
 31
0.0
  0
LINE
  5
   332
  8
0
  6
CONTINUOUS
 62
     3
 10
226.010025024414
 20
523.965490722661
 30
0.0
 11
227.077180862427
 21
523.965490722661
 31
0.0
  0
LINE
  5
   333
  8
0
  6
CONTINUOUS
 62
     3
 10
227.077181320174
 20
523.965490798934
 30
0.0
 11
227.277181606276
 21
523.765490512831
 31
0.0
  0
LINE
  5
   334
  8
0
  6
CONTINUOUS
 62
     3
 10
227.277181415537
 20
523.765490741751
 30
0.0
 11
227.418602256754
 21
523.906911582968
 31
0.0
  0
LINE
  5
   335
  8
0
  6
CONTINUOUS
 62
     3
 10
227.1600241852
 20
524.165490646382
 30
0.0
 11
227.418602485676
 21
523.906912345906
 31
0.0
  0
LINE
  5
   336
  8
0
  6
CONTINUOUS
 62
     3
 10
225.927181243897
 20
524.165490722661
 30
0.0
 11
227.160024642944
 21
524.165490722661
 31
0.0
  0
LINE
  5
   337
  8
0
  6
CONTINUOUS
 62
     3
 10
225.668602256754
 20
523.906911582968
 30
0.0
 11
225.927181510904
 21
524.165490837118
 31
0.0
  0
LINE
  5
   338
  8
0
  6
CONTINUOUS
 62
     3
 10
225.668602752684
 20
523.224069595337
 30
0.0
 11
225.668602752684
 21
523.906911849976
 31
0.0
  0
LINE
  5
   339
  8
0
  6
CONTINUOUS
 62
     3
 10
225.668602256758
 20
523.224069862349
 30
0.0
 11
225.927181510909
 21
522.965490608199
 31
0.0
  0
LINE
  5
   33A
  8
0
  6
CONTINUOUS
 62
     3
 10
225.927181243897
 20
522.965490722661
 30
0.0
 11
227.077180862427
 21
522.965490722661
 31
0.0
  0
LINE
  5
   33B
  8
0
  6
CONTINUOUS
 62
     3
 10
227.077181320174
 20
522.965490798934
 30
0.0
 11
227.218603115065
 21
522.824069004042
 31
0.0
  0
LINE
  5
   33C
  8
0
  6
CONTINUOUS
 62
     3
 10
227.218602752684
 20
522.30691242218
 30
0.0
 11
227.218602752684
 21
522.824069023132
 31
0.0
  0
LINE
  5
   33D
  8
0
  6
CONTINUOUS
 62
     3
 10
227.077181320169
 20
522.165490646383
 30
0.0
 11
227.218603115061
 21
522.306912441275
 31
0.0
  0
LINE
  5
   33E
  8
0
  6
CONTINUOUS
 62
     3
 10
226.010025024414
 20
522.165490722661
 30
0.0
 11
227.077180862427
 21
522.165490722661
 31
0.0
  0
LINE
  5
   33F
  8
0
  6
CONTINUOUS
 62
     3
 10
225.810024089833
 20
522.365490741749
 30
0.0
 11
226.010024375935
 21
522.165490455647
 31
0.0
  0
LINE
  5
   340
  8
0
  6
CONTINUOUS
 62
     3
 10
225.668602485672
 20
522.224069099411
 30
0.0
 11
225.810024280563
 21
522.365490894303
 31
0.0
  0
LINE
  5
   341
  8
0
  6
CONTINUOUS
 62
     3
 10
225.668602256758
 20
522.224069862349
 30
0.0
 11
225.927181510909
 21
521.965490608199
 31
0.0
  0
LINE
  5
   342
  8
0
  6
CONTINUOUS
 62
     3
 10
225.927181243897
 20
521.965490722661
 30
0.0
 11
227.160024642944
 21
521.965490722661
 31
0.0
  0
LINE
  5
   343
  8
0
  6
CONTINUOUS
 62
     3
 10
228.668602752684
 20
521.965490341187
 30
0.0
 11
228.668602752684
 21
523.965490341187
 31
0.0
  0
LINE
  5
   344
  8
0
  6
CONTINUOUS
 62
     3
 10
228.468601226807
 20
521.965490722661
 30
0.0
 11
228.668601989746
 21
521.965490722661
 31
0.0
  0
LINE
  5
   345
  8
0
  6
CONTINUOUS
 62
     3
 10
228.468602752684
 20
521.965490341187
 30
0.0
 11
228.468602752684
 21
523.965490341187
 31
0.0
  0
LINE
  5
   346
  8
0
  6
CONTINUOUS
 62
     3
 10
227.718601226807
 20
523.965490722661
 30
0.0
 11
228.468601226807
 21
523.965490722661
 31
0.0
  0
LINE
  5
   347
  8
0
  6
CONTINUOUS
 62
     3
 10
227.718602752684
 20
523.965490341187
 30
0.0
 11
227.718602752684
 21
524.165491104126
 31
0.0
  0
LINE
  5
   348
  8
0
  6
CONTINUOUS
 62
     3
 10
227.718601226807
 20
524.165490722661
 30
0.0
 11
229.418601989746
 21
524.165490722661
 31
0.0
  0
LINE
  5
   349
  8
0
  6
CONTINUOUS
 62
     3
 10
229.418602752684
 20
523.965490341187
 30
0.0
 11
229.418602752684
 21
524.165491104126
 31
0.0
  0
LINE
  5
   34A
  8
0
  6
CONTINUOUS
 62
     3
 10
228.668601989746
 20
523.965490722661
 30
0.0
 11
229.418601989746
 21
523.965490722661
 31
0.0
  0
LINE
  5
   34B
  8
0
  6
CONTINUOUS
 62
     3
 10
222.668602752684
 20
521.965490341187
 30
0.0
 11
222.668602752684
 21
523.965490341187
 31
0.0
  0
LINE
  5
   34C
  8
0
  6
CONTINUOUS
 62
     3
 10
222.668601989746
 20
523.965490722661
 30
0.0
 11
223.418601989746
 21
523.965490722661
 31
0.0
  0
LINE
  5
   34D
  8
0
  6
CONTINUOUS
 62
     3
 10
223.418602752684
 20
523.965490341187
 30
0.0
 11
223.418602752684
 21
524.165491104126
 31
0.0
  0
LINE
  5
   34E
  8
0
  6
CONTINUOUS
 62
     3
 10
221.718603134155
 20
524.165490722661
 30
0.0
 11
223.418601989746
 21
524.165490722661
 31
0.0
  0
LINE
  5
   34F
  8
0
  6
CONTINUOUS
 62
     3
 10
221.718602752684
 20
523.965490341187
 30
0.0
 11
221.718602752684
 21
524.165491104126
 31
0.0
  0
LINE
  5
   350
  8
0
  6
CONTINUOUS
 62
     3
 10
221.718603134155
 20
523.965490722661
 30
0.0
 11
222.468603134155
 21
523.965490722661
 31
0.0
  0
LINE
  5
   351
  8
0
  6
CONTINUOUS
 62
     3
 10
222.468602752684
 20
521.965490341187
 30
0.0
 11
222.468602752684
 21
523.965490341187
 31
0.0
  0
LINE
  5
   352
  8
0
  6
CONTINUOUS
 62
     3
 10
222.468603134155
 20
521.965490722661
 30
0.0
 11
222.668601989746
 21
521.965490722661
 31
0.0
  0
LINE
  5
   353
  8
0
  6
CONTINUOUS
 62
     3
 10
225.068602752684
 20
522.965490341187
 30
0.0
 11
225.068602752684
 21
523.165491104126
 31
0.0
  0
LINE
  5
   354
  8
0
  6
CONTINUOUS
 62
     3
 10
223.918601989746
 20
523.165490722661
 30
0.0
 11
225.068603515625
 21
523.165490722661
 31
0.0
  0
LINE
  5
   355
  8
0
  6
CONTINUOUS
 62
     3
 10
223.918602752684
 20
523.165491104126
 30
0.0
 11
223.918602752684
 21
523.965490341187
 31
0.0
  0
LINE
  5
   356
  8
0
  6
CONTINUOUS
 62
     3
 10
223.918601989746
 20
523.965490722661
 30
0.0
 11
225.418601989746
 21
523.965490722661
 31
0.0
  0
LINE
  5
   357
  8
0
  6
CONTINUOUS
 62
     3
 10
225.418602752684
 20
523.965490341187
 30
0.0
 11
225.418602752684
 21
524.165491104126
 31
0.0
  0
LINE
  5
   358
  8
0
  6
CONTINUOUS
 62
     3
 10
223.718603134155
 20
524.165490722661
 30
0.0
 11
225.418601989746
 21
524.165490722661
 31
0.0
  0
LINE
  5
   359
  8
0
  6
CONTINUOUS
 62
     3
 10
223.718602752684
 20
521.965490341187
 30
0.0
 11
223.718602752684
 21
524.165491104126
 31
0.0
  0
LINE
  5
   35A
  8
0
  6
CONTINUOUS
 62
     3
 10
223.718603134155
 20
521.965490722661
 30
0.0
 11
225.418601989746
 21
521.965490722661
 31
0.0
  0
LINE
  5
   35B
  8
0
  6
CONTINUOUS
 62
     3
 10
225.418602752684
 20
521.965490341187
 30
0.0
 11
225.418602752684
 21
522.165491104126
 31
0.0
  0
LINE
  5
   35C
  8
0
  6
CONTINUOUS
 62
     3
 10
223.918601989746
 20
522.165490722661
 30
0.0
 11
225.418601989746
 21
522.165490722661
 31
0.0
  0
LINE
  5
   35D
  8
0
  6
CONTINUOUS
 62
     3
 10
223.918602752684
 20
522.165491104126
 30
0.0
 11
223.918602752684
 21
522.965490341187
 31
0.0
  0
LINE
  5
   35E
  8
0
  6
CONTINUOUS
 62
     3
 10
223.918601989746
 20
522.965490722661
 30
0.0
 11
225.068603515625
 21
522.965490722661
 31
0.0
  0
POLYLINE
  5
   35F
  8
0
  6
CONTINUOUS
 62
     1
 66
     1
 10
0.0
 20
0.0
 30
0.0
  0
VERTEX
  5
   360
  8
0
  6
CONTINUOUS
 10
220.668603515627
 20
523.065490722652
 30
0.0
 40
0.0
 41
0.0
  0
VERTEX
  5
   361
  8
0
  6
CONTINUOUS
 10
220.849329773116
 20
522.425276095237
 30
0.0
 40
0.0
 41
0.0
  0
VERTEX
  5
   362
  8
0
  6
CONTINUOUS
 10
221.557382371897
 20
521.693108105014
 30
0.0
 40
0.0
 41
0.0
  0
VERTEX
  5
   363
  8
0
  6
CONTINUOUS
 10
223.070787852499
 20
521.004077839441
 30
0.0
 40
0.0
 41
0.0
  0
VERTEX
  5
   364
  8
0
  6
CONTINUOUS
 10
224.709144281856
 20
520.703084950782
 30
0.0
 40
0.0
 41
0.0
  0
VERTEX
  5
   365
  8
0
  6
CONTINUOUS
 10
226.721588901955
 20
520.733332336663
 30
0.0
 40
0.0
 41
0.0
  0
VERTEX
  5
   366
  8
0
  6
CONTINUOUS
 10
228.664668836178
 20
521.211174454264
 30
0.0
 40
0.0
 41
0.0
  0
VERTEX
  5
   367
  8
0
  6
CONTINUOUS
 10
229.845563161878
 20
521.900994060064
 30
0.0
 40
0.0
 41
0.0
  0
VERTEX
  5
   368
  8
0
  6
CONTINUOUS
 10
230.279715131341
 20
522.411266449372
 30
0.0
 40
0.0
 41
0.0
  0
VERTEX
  5
   369
  8
0
  6
CONTINUOUS
 10
230.468601989741
 20
523.065490722652
 30
0.0
 40
0.0
 41
0.0
  0
SEQEND
  5
   36A
  8
0
  6
CONTINUOUS
 62
     1
  0
POLYLINE
  5
   36B
  8
0
  6
CONTINUOUS
 62
     1
 66
     1
 10
0.0
 20
0.0
 30
0.0
  0
VERTEX
  5
   36C
  8
0
  6
CONTINUOUS
 10
230.468601989741
 20
523.065490722661
 30
0.0
 40
0.0
 41
0.0
  0
VERTEX
  5
   36D
  8
0
  6
CONTINUOUS
 10
230.287875732252
 20
523.705705350075
 30
0.0
 40
0.0
 41
0.0
  0
VERTEX
  5
   36E
  8
0
  6
CONTINUOUS
 10
229.579823133473
 20
524.437873340298
 30
0.0
 40
0.0
 41
0.0
  0
VERTEX
  5
   36F
  8
0
  6
CONTINUOUS
 10
228.066417652868
 20
525.126903605872
 30
0.0
 40
0.0
 41
0.0
  0
VERTEX
  5
   370
  8
0
  6
CONTINUOUS
 10
226.428061223512
 20
525.42789649453
 30
0.0
 40
0.0
 41
0.0
  0
VERTEX
  5
   371
  8
0
  6
CONTINUOUS
 10
224.415616603413
 20
525.39764910865
 30
0.0
 40
0.0
 41
0.0
  0
VERTEX
  5
   372
  8
0
  6
CONTINUOUS
 10
222.472536669192
 20
524.919806991049
 30
0.0
 40
0.0
 41
0.0
  0
VERTEX
  5
   373
  8
0
  6
CONTINUOUS
 10
221.291642343489
 20
524.229987385249
 30
0.0
 40
0.0
 41
0.0
  0
VERTEX
  5
   374
  8
0
  6
CONTINUOUS
 10
220.857490374025
 20
523.71971499594
 30
0.0
 40
0.0
 41
0.0
  0
VERTEX
  5
   375
  8
0
  6
CONTINUOUS
 10
220.668603515627
 20
523.065490722661
 30
0.0
 40
0.0
 41
0.0
  0
SEQEND
  5
   376
  8
0
  6
CONTINUOUS
 62
     1
  0
ARC
  5
   377
  8
0
  6
CONTINUOUS
 62
     1
 10
205.568597255129
 20
522.365496982815
 30
0.0
 40
0.500013353960498
 50
270.00071739124
 51
359.999304504021
  0
ARC
  5
   378
  8
0
  6
CONTINUOUS
 62
     1
 10
185.568623694192
 20
522.365510901555
 30
0.0
 40
0.50002721176451
 50
180.002290382391
 51
269.997687798969
  0
ARC
  5
   379
  8
0
  6
CONTINUOUS
 62
     1
 10
185.568609775784
 20
557.265484462161
 30
0.0
 40
0.500013353960607
 50
90.0007173512598
 51
179.99919518349
  0
ARC
  5
   37A
  8
0
  6
CONTINUOUS
 62
     1
 10
205.568583336726
 20
557.265470544089
 30
0.0
 40
0.500027211764336
 50
2.39962313894724E-3
 51
89.9976877653564
  0
LINE
  5
   37B
  8
0
  6
CONTINUOUS
 62
     2
 10
163.068603515625
 20
560.465490341187
 30
0.0
 11
163.068603515625
 21
560.565490722656
 31
0.0
  0
LINE
  5
   37C
  8
0
  6
CONTINUOUS
 62
     2
 10
168.068603515625
 20
560.465490341187
 30
0.0
 11
168.068603515625
 21
560.565490722656
 31
0.0
  0
LINE
  5
   37D
  8
0
  6
CONTINUOUS
 62
     2
 10
228.068603515625
 20
560.465490341187
 30
0.0
 11
228.068603515625
 21
560.565490722656
 31
0.0
  0
LINE
  5
   37E
  8
0
  6
CONTINUOUS
 62
     2
 10
223.068603515625
 20
560.465490341187
 30
0.0
 11
223.068603515625
 21
560.565490722656
 31
0.0
  0
LINE
  5
   37F
  8
0
  6
CONTINUOUS
 62
     2
 10
228.068603515625
 20
518.565490722656
 30
0.0
 11
228.068603515625
 21
518.665491104126
 31
0.0
  0
LINE
  5
   380
  8
0
  6
CONTINUOUS
 62
     2
 10
223.068603515625
 20
518.565490722656
 30
0.0
 11
223.068603515625
 21
518.665491104126
 31
0.0
  0
LINE
  5
   381
  8
0
  6
CONTINUOUS
 62
     2
 10
163.068603515625
 20
518.565490722656
 30
0.0
 11
163.068603515625
 21
518.665491104126
 31
0.0
  0
LINE
  5
   382
  8
0
  6
CONTINUOUS
 62
     2
 10
168.068603515625
 20
518.565490722656
 30
0.0
 11
168.068603515625
 21
518.665491104126
 31
0.0
  0
POLYLINE
  5
   383
  8
0
  6
CONTINUOUS
 62
     1
 66
     1
 10
0.0
 20
0.0
 30
0.0
  0
VERTEX
  5
   384
  8
0
  6
CONTINUOUS
 10
233.467838287352
 20
518.66549072266
 30
0.0
 40
0.0
 41
0.0
  0
VERTEX
  5
   385
  8
0
  6
CONTINUOUS
 10
233.668603515625
 20
518.865490913394
 30
0.0
 40
0.0
 41
0.0
  0
SEQEND
  5
   386
  8
0
  6
CONTINUOUS
 62
     1
  0
POLYLINE
  5
   387
  8
0
  6
CONTINUOUS
 62
     1
 66
     1
 10
0.0
 20
0.0
 30
0.0
  0
VERTEX
  5
   388
  8
0
  6
CONTINUOUS
 10
233.668603515624
 20
560.265491485602
 30
0.0
 40
0.0
 41
0.0
  0
VERTEX
  5
   389
  8
0
  6
CONTINUOUS
 10
233.467838287351
 20
560.465490722652
 30
0.0
 40
0.0
 41
0.0
  0
SEQEND
  5
   38A
  8
0
  6
CONTINUOUS
 62
     1
  0
POLYLINE
  5
   38B
  8
0
  6
CONTINUOUS
 62
     1
 66
     1
 10
0.0
 20
0.0
 30
0.0
  0
VERTEX
  5
   38C
  8
0
  6
CONTINUOUS
 10
157.669368743899
 20
560.465490722652
 30
0.0
 40
0.0
 41
0.0
  0
VERTEX
  5
   38D
  8
0
  6
CONTINUOUS
 10
157.468603515626
 20
560.265491485601
 30
0.0
 40
0.0
 41
0.0
  0
SEQEND
  5
   38E
  8
0
  6
CONTINUOUS
 62
     1
  0
POLYLINE
  5
   38F
  8
0
  6
CONTINUOUS
 62
     1
 66
     1
 10
0.0
 20
0.0
 30
0.0
  0
VERTEX
  5
   390
  8
0
  6
CONTINUOUS
 10
157.468603515625
 20
518.865490913391
 30
0.0
 40
0.0
 41
0.0
  0
VERTEX
  5
   391
  8
0
  6
CONTINUOUS
 10
157.669368743901
 20
518.66549072266
 30
0.0
 40
0.0
 41
0.0
  0
SEQEND
  5
   392
  8
0
  6
CONTINUOUS
 62
     1
  0
LINE
  5
   393
  8
0
  6
CONTINUOUS
 62
     1
 10
185.568603515625
 20
521.865490722656
 30
0.0
 11
205.568603515625
 21
521.865490722656
 31
0.0
  0
LINE
  5
   394
  8
0
  6
CONTINUOUS
 62
     1
 10
206.068603515625
 20
522.365490913391
 30
0.0
 11
206.068603515625
 21
538.449075698853
 31
0.0
  0
LINE
  5
   395
  8
0
  6
CONTINUOUS
 62
     1
 10
206.068603515625
 20
536.348789047369
 30
0.0
 11
206.068603515625
 21
557.265491485596
 31
0.0
  0
LINE
  5
   396
  8
0
  6
CONTINUOUS
 62
     1
 10
185.068603515625
 20
522.365490913391
 30
0.0
 11
185.068603515625
 21
557.265491485596
 31
0.0
  0
LINE
  5
   397
  8
0
  6
CONTINUOUS
 62
     2
 10
233.668603515625
 20
525.504968095785
 30
0.0
 11
233.668603515625
 21
560.265491485596
 31
0.0
  0
LINE
  5
   398
  8
0
  6
CONTINUOUS
 62
     2
 10
233.668603515625
 20
518.865490913391
 30
0.0
 11
233.668603515625
 21
526.565490722656
 31
0.0
  0
LINE
  5
   399
  8
0
  6
CONTINUOUS
 62
     2
 10
157.468603515625
 20
518.865490913391
 30
0.0
 11
157.468603515625
 21
560.265491485596
 31
0.0
  0
LINE
  5
   39A
  8
0
  6
CONTINUOUS
 62
     1
 10
230.489135742188
 20
518.665490722656
 30
0.0
 11
233.271511077881
 21
518.665490722656
 31
0.0
  0
LINE
  5
   39B
  8
0
  6
CONTINUOUS
 62
     1
 10
157.865695953369
 20
518.665490722656
 30
0.0
 11
160.655040740967
 21
518.665490722656
 31
0.0
  0
LINE
  5
   39C
  8
0
  6
CONTINUOUS
 62
     1
 10
233.271511077881
 20
518.665490722656
 30
0.0
 11
233.467838287354
 21
518.665490722656
 31
0.0
  0
LINE
  5
   39D
  8
0
  6
CONTINUOUS
 62
     1
 10
160.655040740967
 20
518.665490722656
 30
0.0
 11
230.489135742188
 21
518.665490722656
 31
0.0
  0
LINE
  5
   39E
  8
0
  6
CONTINUOUS
 62
     1
 10
157.669368743896
 20
518.665490722656
 30
0.0
 11
157.865695953369
 21
518.665490722656
 31
0.0
  0
LINE
  5
   39F
  8
0
  6
CONTINUOUS
 62
     2
 10
223.068603515625
 20
525.230554103851
 30
0.0
 11
223.964673995972
 21
525.406300067902
 31
0.0
  0
POLYLINE
  5
   3A0
  8
0
  6
CONTINUOUS
 62
     1
 66
     1
 10
0.0
 20
0.0
 30
0.0
  0
VERTEX
  5
   3A1
  8
0
  6
CONTINUOUS
 10
230.243214926527
 20
522.178361315741
 30
0.0
 40
0.0
 41
0.0
  0
VERTEX
  5
   3A2
  8
0
  6
CONTINUOUS
 10
230.550866675279
 20
522.854907901464
 30
0.0
 40
0.0
 41
0.0
  0
VERTEX
  5
   3A3
  8
0
  6
CONTINUOUS
 10
230.568601989741
 20
523.065490722652
 30
0.0
 40
0.0
 41
0.0
  0
SEQEND
  5
   3A4
  8
0
  6
CONTINUOUS
 62
     1
  0
POLYLINE
  5
   3A5
  8
0
  6
CONTINUOUS
 62
     1
 66
     1
 10
0.0
 20
0.0
 30
0.0
  0
VERTEX
  5
   3A6
  8
0
  6
CONTINUOUS
 10
230.568601989741
 20
523.06549072266
 30
0.0
 40
0.0
 41
0.0
  0
VERTEX
  5
   3A7
  8
0
  6
CONTINUOUS
 10
230.375158535175
 20
523.754201506443
 30
0.0
 40
0.0
 41
0.0
  0
VERTEX
  5
   3A8
  8
0
  6
CONTINUOUS
 10
230.243214926527
 20
523.952620129572
 30
0.0
 40
0.0
 41
0.0
  0
SEQEND
  5
   3A9
  8
0
  6
CONTINUOUS
 62
     1
  0
POLYLINE
  5
   3AA
  8
0
  6
CONTINUOUS
 62
     1
 66
     1
 10
0.0
 20
0.0
 30
0.0
  0
VERTEX
  5
   3AB
  8
0
  6
CONTINUOUS
 10
223.068621521342
 20
525.230491725449
 30
0.0
 40
0.0
 41
0.0
  0
VERTEX
  5
   3AC
  8
0
  6
CONTINUOUS
 10
221.738121578571
 20
524.672379710785
 30
0.0
 40
0.0
 41
0.0
  0
VERTEX
  5
   3AD
  8
0
  6
CONTINUOUS
 10
220.870345884323
 20
523.920487485022
 30
0.0
 40
0.0
 41
0.0
  0
VERTEX
  5
   3AE
  8
0
  6
CONTINUOUS
 10
220.568603515627
 20
523.06549072266
 30
0.0
 40
0.0
 41
0.0
  0
SEQEND
  5
   3AF
  8
0
  6
CONTINUOUS
 62
     1
  0
POLYLINE
  5
   3B0
  8
0
  6
CONTINUOUS
 62
     1
 66
     1
 10
0.0
 20
0.0
 30
0.0
  0
VERTEX
  5
   3B1
  8
0
  6
CONTINUOUS
 10
230.238771547167
 20
523.958184768823
 30
0.0
 40
0.0
 41
0.0
  0
VERTEX
  5
   3B2
  8
0
  6
CONTINUOUS
 10
229.642461064956
 20
524.515046697589
 30
0.0
 40
0.0
 41
0.0
  0
VERTEX
  5
   3B3
  8
0
  6
CONTINUOUS
 10
228.785437022359
 20
524.979367107733
 30
0.0
 40
0.0
 41
0.0
  0
VERTEX
  5
   3B4
  8
0
  6
CONTINUOUS
 10
226.523285071668
 20
525.519474814676
 30
0.0
 40
0.0
 41
0.0
  0
VERTEX
  5
   3B5
  8
0
  6
CONTINUOUS
 10
224.021995257136
 20
525.442836132319
 30
0.0
 40
0.0
 41
0.0
  0
SEQEND
  5
   3B6
  8
0
  6
CONTINUOUS
 62
     1
  0
POLYLINE
  5
   3B7
  8
0
  6
CONTINUOUS
 62
     1
 66
     1
 10
0.0
 20
0.0
 30
0.0
  0
VERTEX
  5
   3B8
  8
0
  6
CONTINUOUS
 10
220.909942741234
 20
522.157866661776
 30
0.0
 40
0.0
 41
0.0
  0
VERTEX
  5
   3B9
  8
0
  6
CONTINUOUS
 10
221.987136060292
 20
521.320958184895
 30
0.0
 40
0.0
 41
0.0
  0
VERTEX
  5
   3BA
  8
0
  6
CONTINUOUS
 10
223.632614686188
 20
520.760562134914
 30
0.0
 40
0.0
 41
0.0
  0
VERTEX
  5
   3BB
  8
0
  6
CONTINUOUS
 10
225.584139174969
 20
520.565503030644
 30
0.0
 40
0.0
 41
0.0
  0
VERTEX
  5
   3BC
  8
0
  6
CONTINUOUS
 10
227.533212208047
 20
520.766625217664
 30
0.0
 40
0.0
 41
0.0
  0
VERTEX
  5
   3BD
  8
0
  6
CONTINUOUS
 10
229.171698029789
 20
521.332124853457
 30
0.0
 40
0.0
 41
0.0
  0
VERTEX
  5
   3BE
  8
0
  6
CONTINUOUS
 10
230.238441885104
 20
522.172365017426
 30
0.0
 40
0.0
 41
0.0
  0
SEQEND
  5
   3BF
  8
0
  6
CONTINUOUS
 62
     1
  0
POLYLINE
  5
   3C0
  8
0
  6
CONTINUOUS
 62
     1
 66
     1
 10
0.0
 20
0.0
 30
0.0
  0
VERTEX
  5
   3C1
  8
0
  6
CONTINUOUS
 10
220.568603515627
 20
523.065490722652
 30
0.0
 40
0.0
 41
0.0
  0
VERTEX
  5
   3C2
  8
0
  6
CONTINUOUS
 10
220.75952119937
 20
522.382008290723
 30
0.0
 40
0.0
 41
0.0
  0
SEQEND
  5
   3C3
  8
0
  6
CONTINUOUS
 62
     1
  0
POLYLINE
  5
   3C4
  8
0
  6
CONTINUOUS
 62
     1
 66
     1
 10
0.0
 20
0.0
 30
0.0
  0
VERTEX
  5
   3C5
  8
0
  6
CONTINUOUS
 10
223.960197256123
 20
525.43261762884
 30
0.0
 40
0.0
 41
0.0
  0
VERTEX
  5
   3C6
  8
0
  6
CONTINUOUS
 10
226.355246058183
 20
525.534379325287
 30
0.0
 40
0.0
 41
0.0
  0
VERTEX
  5
   3C7
  8
0
  6
CONTINUOUS
 10
227.149400170226
 20
525.437268880929
 30
0.0
 40
0.0
 41
0.0
  0
SEQEND
  5
   3C8
  8
0
  6
CONTINUOUS
 62
     1
  0
LINE
  5
   3C9
  8
0
  6
CONTINUOUS
 62
     1
 10
157.865695953369
 20
560.465490722656
 30
0.0
 11
160.648071289063
 21
560.465490722656
 31
0.0
  0
LINE
  5
   3CA
  8
0
  6
CONTINUOUS
 62
     1
 10
230.482166290283
 20
560.465490722656
 30
0.0
 11
233.271511077881
 21
560.465490722656
 31
0.0
  0
LINE
  5
   3CB
  8
0
  6
CONTINUOUS
 62
     1
 10
157.669368743896
 20
560.465490722656
 30
0.0
 11
157.865695953369
 21
560.465490722656
 31
0.0
  0
LINE
  5
   3CC
  8
0
  6
CONTINUOUS
 62
     1
 10
160.648071289063
 20
560.465490722656
 30
0.0
 11
198.587697029114
 21
560.465490722656
 31
0.0
  0
LINE
  5
   3CD
  8
0
  6
CONTINUOUS
 62
     1
 10
192.574530379564
 20
560.465490722656
 30
0.0
 11
230.482166290283
 21
560.465490722656
 31
0.0
  0
LINE
  5
   3CE
  8
0
  6
CONTINUOUS
 62
     1
 10
233.271511077881
 20
560.465490722656
 30
0.0
 11
233.467838287354
 21
560.465490722656
 31
0.0
  0
LINE
  5
   3CF
  8
0
  6
CONTINUOUS
 62
   212
 10
185.568603515625
 20
558.856042861939
 30
0.0
 11
185.654089927673
 21
559.190296173096
 31
0.0
  0
POLYLINE
  5
   3D0
  8
0
  6
CONTINUOUS
 62
   212
 66
     1
 10
0.0
 20
0.0
 30
0.0
  0
VERTEX
  5
   3D1
  8
0
  6
CONTINUOUS
 10
186.568603515625
 20
550.654391580008
 30
0.0
 40
0.0
 41
0.0
  0
VERTEX
  5
   3D2
  8
0
  6
CONTINUOUS
 10
185.861368685987
 20
550.935625994292
 30
0.0
 40
0.0
 41
0.0
  0
VERTEX
  5
   3D3
  8
0
  6
CONTINUOUS
 10
185.568603515625
 20
551.614124820031
 30
0.0
 40
0.0
 41
0.0
  0
SEQEND
  5
   3D4
  8
0
  6
CONTINUOUS
 62
   212
  0
LINE
  5
   3D5
  8
0
  6
CONTINUOUS
 62
   212
 10
205.483117103577
 20
559.190296173096
 30
0.0
 11
205.568603515625
 21
558.856042861939
 31
0.0
  0
POLYLINE
  5
   3D6
  8
0
  6
CONTINUOUS
 62
   212
 66
     1
 10
0.0
 20
0.0
 30
0.0
  0
VERTEX
  5
   3D7
  8
0
  6
CONTINUOUS
 10
204.568603515625
 20
550.654391580008
 30
0.0
 40
0.0
 41
0.0
  0
VERTEX
  5
   3D8
  8
0
  6
CONTINUOUS
 10
205.275838343074
 20
550.935626002496
 30
0.0
 40
0.0
 41
0.0
  0
VERTEX
  5
   3D9
  8
0
  6
CONTINUOUS
 10
205.568603515625
 20
551.614124826008
 30
0.0
 40
0.0
 41
0.0
  0
SEQEND
  5
   3DA
  8
0
  6
CONTINUOUS
 62
   212
  0
ARC
  5
   3DB
  8
0
  6
CONTINUOUS
 62
   212
 10
186.561969523097
 20
558.849298475629
 30
0.0
 40
0.993934879520548
 50
89.6177778246149
 51
148.670753481331
  0
ARC
  5
   3DC
  8
0
  6
CONTINUOUS
 62
   212
 10
204.575209988653
 20
558.849270660427
 30
0.0
 40
0.993962428159732
 50
31.3298293180118
 51
90.380626020504
  0
LINE
  5
   3DD
  8
0
  6
CONTINUOUS
 62
   212
 10
186.568603515625
 20
559.843731509237
 30
0.0
 11
204.568603515625
 21
559.843731509237
 31
0.0
  0
LINE
  5
   3DE
  8
0
  6
CONTINUOUS
 62
   212
 10
186.568603515625
 20
550.654391580008
 30
0.0
 11
204.568603515625
 21
550.654391580008
 31
0.0
  0
LINE
  5
   3DF
  8
0
  6
CONTINUOUS
 62
   212
 10
185.568603515625
 20
547.680755615234
 30
0.0
 11
185.568603515625
 21
549.055641174316
 31
0.0
  0
LINE
  5
   3E0
  8
0
  6
CONTINUOUS
 62
   212
 10
185.568603515625
 20
549.055641174316
 30
0.0
 11
185.568603515625
 21
551.614124298096
 31
0.0
  0
LINE
  5
   3E1
  8
0
  6
CONTINUOUS
 62
   212
 10
185.568603515625
 20
551.614124298096
 30
0.0
 11
185.568603515625
 21
554.569700241089
 31
0.0
  0
LINE
  5
   3E2
  8
0
  6
CONTINUOUS
 62
   212
 10
185.568603515625
 20
554.569700241089
 30
0.0
 11
185.568603515625
 21
558.856042861939
 31
0.0
  0
LINE
  5
   3E3
  8
0
  6
CONTINUOUS
 62
   212
 10
205.568603515625
 20
547.681032180786
 30
0.0
 11
205.568603515625
 21
549.055641174316
 31
0.0
  0
LINE
  5
   3E4
  8
0
  6
CONTINUOUS
 62
   212
 10
205.568603515625
 20
551.614124298096
 30
0.0
 11
205.568603515625
 21
554.569700241089
 31
0.0
  0
LINE
  5
   3E5
  8
0
  6
CONTINUOUS
 62
   212
 10
205.568603515625
 20
549.055641174316
 30
0.0
 11
205.568603515625
 21
551.614124298096
 31
0.0
  0
LINE
  5
   3E6
  8
0
  6
CONTINUOUS
 62
   212
 10
205.568603515625
 20
554.569700241089
 30
0.0
 11
205.568603515625
 21
558.856042861939
 31
0.0
  0
LINE
  5
   3E7
  8
0
  6
CONTINUOUS
 62
     7
 10
121.268603515684
 20
496.565490722656
 30
0.0
 11
121.268603515684
 21
497.265491485596
 31
0.0
  0
LINE
  5
   3E8
  8
0
  6
CONTINUOUS
 62
     7
 10
123.518604278564
 20
517.065490722656
 30
0.0
 11
124.818603515625
 21
517.065490722656
 31
0.0
  0
LINE
  5
   3E9
  8
0
  6
CONTINUOUS
 62
     7
 10
123.518604278564
 20
562.065490722656
 30
0.0
 11
124.818603515625
 21
562.065490722656
 31
0.0
  0
LINE
  5
   3EA
  8
0
  6
CONTINUOUS
 62
     7
 10
125.318603515625
 20
517.065490722656
 30
0.0
 11
126.618602752686
 21
517.065490722656
 31
0.0
  0
LINE
  5
   3EB
  8
0
  6
CONTINUOUS
 62
     7
 10
127.118602752686
 20
517.065490722656
 30
0.0
 11
127.468605041504
 21
517.065490722656
 31
0.0
  0
LINE
  5
   3EC
  8
0
  6
CONTINUOUS
 62
     7
 10
120.568603515684
 20
562.065490722656
 30
0.0
 11
120.568603515684
 21
592.865489959717
 31
0.0
  0
LINE
  5
   3ED
  8
0
  6
CONTINUOUS
 62
     7
 10
120.568603515684
 20
497.265491485596
 30
0.0
 11
120.568603515684
 21
517.065490722656
 31
0.0
  0
LINE
  5
   3EE
  8
0
  6
CONTINUOUS
 62
     7
 10
120.568603515684
 20
517.065490722656
 30
0.0
 11
120.568603515684
 21
562.065490722656
 31
0.0
  0
LINE
  5
   3EF
  8
0
  6
CONTINUOUS
 62
     7
 10
127.118602752686
 20
562.065490722656
 30
0.0
 11
127.468605041504
 21
562.065490722656
 31
0.0
  0
LINE
  5
   3F0
  8
0
  6
CONTINUOUS
 62
     7
 10
125.318603515625
 20
562.065490722656
 30
0.0
 11
126.618602752686
 21
562.065490722656
 31
0.0
  0
LINE
  5
   3F1
  8
0
  6
CONTINUOUS
 62
     7
 10
126.618602752686
 20
517.065490722656
 30
0.0
 11
127.118602752686
 21
517.065490722656
 31
0.0
  0
LINE
  5
   3F2
  8
0
  6
CONTINUOUS
 62
     7
 10
124.818603515625
 20
517.065490722656
 30
0.0
 11
125.318603515625
 21
517.065490722656
 31
0.0
  0
LINE
  5
   3F3
  8
0
  6
CONTINUOUS
 62
     7
 10
123.018604278564
 20
517.065490722656
 30
0.0
 11
123.518604278564
 21
517.065490722656
 31
0.0
  0
LINE
  5
   3F4
  8
0
  6
CONTINUOUS
 62
     7
 10
120.568603515625
 20
517.065490722656
 30
0.0
 11
123.018604278564
 21
517.065490722656
 31
0.0
  0
LINE
  5
   3F5
  8
0
  6
CONTINUOUS
 62
     7
 10
126.618602752686
 20
562.065490722656
 30
0.0
 11
127.118602752686
 21
562.065490722656
 31
0.0
  0
LINE
  5
   3F6
  8
0
  6
CONTINUOUS
 62
     7
 10
124.818603515625
 20
562.065490722656
 30
0.0
 11
125.318603515625
 21
562.065490722656
 31
0.0
  0
LINE
  5
   3F7
  8
0
  6
CONTINUOUS
 62
     7
 10
123.018604278564
 20
562.065490722656
 30
0.0
 11
123.518604278564
 21
562.065490722656
 31
0.0
  0
LINE
  5
   3F8
  8
0
  6
CONTINUOUS
 62
     7
 10
120.568603515625
 20
562.065490722656
 30
0.0
 11
123.018604278564
 21
562.065490722656
 31
0.0
  0
LINE
  5
   3F9
  8
0
  6
CONTINUOUS
 62
     7
 10
127.468605041504
 20
517.065490722656
 30
0.0
 11
145.568603515684
 21
517.065490722656
 31
0.0
  0
LINE
  5
   3FA
  8
0
  6
CONTINUOUS
 62
     7
 10
127.468605041504
 20
562.065490722656
 30
0.0
 11
145.568603515684
 21
562.065490722656
 31
0.0
  0
LINE
  5
   3FB
  8
0
  6
CONTINUOUS
 62
     7
 10
126.618602752686
 20
497.265490722656
 30
0.0
 11
145.568603515684
 21
497.265490722656
 31
0.0
  0
LINE
  5
   3FC
  8
0
  6
CONTINUOUS
 62
     7
 10
124.818603515625
 20
497.265490722656
 30
0.0
 11
125.318603515625
 21
497.265490722656
 31
0.0
  0
LINE
  5
   3FD
  8
0
  6
CONTINUOUS
 62
     7
 10
123.518604278564
 20
497.265490722656
 30
0.0
 11
124.818603515625
 21
497.265490722656
 31
0.0
  0
LINE
  5
   3FE
  8
0
  6
CONTINUOUS
 62
     7
 10
125.318603515625
 20
497.265490722656
 30
0.0
 11
126.618602752686
 21
497.265490722656
 31
0.0
  0
LINE
  5
   3FF
  8
0
  6
CONTINUOUS
 62
     7
 10
123.018604278564
 20
497.265490722656
 30
0.0
 11
123.518604278564
 21
497.265490722656
 31
0.0
  0
LINE
  5
   400
  8
0
  6
CONTINUOUS
 62
     7
 10
120.568603515625
 20
497.265490722656
 30
0.0
 11
123.018604278564
 21
497.265490722656
 31
0.0
  0
LINE
  5
   401
  8
0
  6
CONTINUOUS
 62
     7
 10
126.618602752686
 20
592.865490722656
 30
0.0
 11
127.118602752686
 21
592.865490722656
 31
0.0
  0
LINE
  5
   402
  8
0
  6
CONTINUOUS
 62
     7
 10
124.818603515625
 20
592.865490722656
 30
0.0
 11
125.318603515625
 21
592.865490722656
 31
0.0
  0
LINE
  5
   403
  8
0
  6
CONTINUOUS
 62
     7
 10
125.318603515625
 20
592.865490722656
 30
0.0
 11
126.618602752686
 21
592.865490722656
 31
0.0
  0
LINE
  5
   404
  8
0
  6
CONTINUOUS
 62
     7
 10
123.518604278564
 20
592.865490722656
 30
0.0
 11
145.568603515684
 21
592.865490722656
 31
0.0
  0
LINE
  5
   405
  8
0
  6
CONTINUOUS
 62
     7
 10
123.018604278564
 20
592.865490722656
 30
0.0
 11
123.518604278564
 21
592.865490722656
 31
0.0
  0
LINE
  5
   406
  8
0
  6
CONTINUOUS
 62
     7
 10
120.568603515625
 20
592.865490722656
 30
0.0
 11
123.018604278564
 21
592.865490722656
 31
0.0
  0
LINE
  5
   407
  8
0
  6
CONTINUOUS
 62
     7
 10
121.268603515684
 20
592.865489959717
 30
0.0
 11
121.268603515684
 21
593.565486907959
 31
0.0
  0
LINE
  5
   408
  8
0
  6
CONTINUOUS
 62
     3
 10
123.518604278564
 20
496.565490722656
 30
0.0
 11
124.818603515625
 21
496.565490722656
 31
0.0
  0
LINE
  5
   409
  8
0
  6
CONTINUOUS
 62
     3
 10
139.718603134155
 20
496.565490722656
 30
0.0
 11
141.018604278564
 21
496.565490722656
 31
0.0
  0
LINE
  5
   40A
  8
0
  6
CONTINUOUS
 62
     3
 10
141.518604278564
 20
496.565490722656
 30
0.0
 11
142.818603515625
 21
496.565490722656
 31
0.0
  0
LINE
  5
   40B
  8
0
  6
CONTINUOUS
 62
     3
 10
143.318603515625
 20
496.565490722656
 30
0.0
 11
144.618602752686
 21
496.565490722656
 31
0.0
  0
LINE
  5
   40C
  8
0
  6
CONTINUOUS
 62
     3
 10
137.918603897095
 20
496.565490722656
 30
0.0
 11
139.218603134155
 21
496.565490722656
 31
0.0
  0
LINE
  5
   40D
  8
0
  6
CONTINUOUS
 62
     3
 10
125.318603515625
 20
496.565490722656
 30
0.0
 11
126.618602752686
 21
496.565490722656
 31
0.0
  0
LINE
  5
   40E
  8
0
  6
CONTINUOUS
 62
     3
 10
127.118602752686
 20
496.565490722656
 30
0.0
 11
128.418601989746
 21
496.565490722656
 31
0.0
  0
LINE
  5
   40F
  8
0
  6
CONTINUOUS
 62
     3
 10
128.918601989746
 20
496.565490722656
 30
0.0
 11
130.218605041504
 21
496.565490722656
 31
0.0
  0
LINE
  5
   410
  8
0
  6
CONTINUOUS
 62
     3
 10
130.718605041504
 20
496.565490722656
 30
0.0
 11
132.018604278564
 21
496.565490722656
 31
0.0
  0
LINE
  5
   411
  8
0
  6
CONTINUOUS
 62
     3
 10
132.518604278564
 20
496.565490722656
 30
0.0
 11
133.818603515625
 21
496.565490722656
 31
0.0
  0
LINE
  5
   412
  8
0
  6
CONTINUOUS
 62
     3
 10
134.318603515625
 20
496.565490722656
 30
0.0
 11
135.618602752686
 21
496.565490722656
 31
0.0
  0
LINE
  5
   413
  8
0
  6
CONTINUOUS
 62
     3
 10
136.118602752686
 20
496.565490722656
 30
0.0
 11
137.418603897095
 21
496.565490722656
 31
0.0
  0
LINE
  5
   414
  8
0
  6
CONTINUOUS
 62
     3
 10
123.018604278564
 20
496.565490722656
 30
0.0
 11
123.518604278564
 21
496.565490722656
 31
0.0
  0
LINE
  5
   415
  8
0
  6
CONTINUOUS
 62
     3
 10
120.568603515625
 20
496.565490722656
 30
0.0
 11
123.018604278564
 21
496.565490722656
 31
0.0
  0
LINE
  5
   416
  8
0
  6
CONTINUOUS
 62
     3
 10
124.818603515625
 20
496.565490722656
 30
0.0
 11
125.318603515625
 21
496.565490722656
 31
0.0
  0
LINE
  5
   417
  8
0
  6
CONTINUOUS
 62
     3
 10
126.618602752686
 20
496.565490722656
 30
0.0
 11
127.118602752686
 21
496.565490722656
 31
0.0
  0
LINE
  5
   418
  8
0
  6
CONTINUOUS
 62
     3
 10
128.418601989746
 20
496.565490722656
 30
0.0
 11
128.918601989746
 21
496.565490722656
 31
0.0
  0
LINE
  5
   419
  8
0
  6
CONTINUOUS
 62
     3
 10
130.218605041504
 20
496.565490722656
 30
0.0
 11
130.718605041504
 21
496.565490722656
 31
0.0
  0
LINE
  5
   41A
  8
0
  6
CONTINUOUS
 62
     3
 10
132.018604278564
 20
496.565490722656
 30
0.0
 11
132.518604278564
 21
496.565490722656
 31
0.0
  0
LINE
  5
   41B
  8
0
  6
CONTINUOUS
 62
     3
 10
133.818603515625
 20
496.565490722656
 30
0.0
 11
134.318603515625
 21
496.565490722656
 31
0.0
  0
LINE
  5
   41C
  8
0
  6
CONTINUOUS
 62
     3
 10
135.618602752686
 20
496.565490722656
 30
0.0
 11
136.118602752686
 21
496.565490722656
 31
0.0
  0
LINE
  5
   41D
  8
0
  6
CONTINUOUS
 62
     3
 10
137.418603897095
 20
496.565490722656
 30
0.0
 11
137.918603897095
 21
496.565490722656
 31
0.0
  0
LINE
  5
   41E
  8
0
  6
CONTINUOUS
 62
     3
 10
139.218603134155
 20
496.565490722656
 30
0.0
 11
139.718603134155
 21
496.565490722656
 31
0.0
  0
LINE
  5
   41F
  8
0
  6
CONTINUOUS
 62
     3
 10
141.018604278564
 20
496.565490722656
 30
0.0
 11
141.518604278564
 21
496.565490722656
 31
0.0
  0
LINE
  5
   420
  8
0
  6
CONTINUOUS
 62
     3
 10
142.818603515625
 20
496.565490722656
 30
0.0
 11
143.318603515625
 21
496.565490722656
 31
0.0
  0
LINE
  5
   421
  8
0
  6
CONTINUOUS
 62
     3
 10
144.618602752686
 20
496.565490722656
 30
0.0
 11
145.568603515684
 21
496.565490722656
 31
0.0
  0
LINE
  5
   422
  8
0
  6
CONTINUOUS
 62
     3
 10
121.568603515625
 20
478.065490722656
 30
0.0
 11
145.568603515684
 21
478.065490722656
 31
0.0
  0
LINE
  5
   423
  8
0
  6
CONTINUOUS
 62
     3
 10
120.568603515625
 20
479.065490722656
 30
0.0
 11
120.568603515625
 21
496.565490722656
 31
0.0
  0
ARC
  5
   424
  8
0
  6
CONTINUOUS
 62
     3
 10
121.56860351642
 20
479.065490723452
 30
0.0
 40
1.0000000000006
 50
180.0
 51
269.999999954432
  0
LINE
  5
   425
  8
0
  6
CONTINUOUS
 62
     3
 10
125.318603515625
 20
593.565485494071
 30
0.0
 11
126.618602752686
 21
593.565485479112
 31
0.0
  0
LINE
  5
   426
  8
0
  6
CONTINUOUS
 62
     3
 10
127.118602752686
 20
593.565485473359
 30
0.0
 11
128.418605804443
 21
593.565485458401
 31
0.0
  0
LINE
  5
   427
  8
0
  6
CONTINUOUS
 62
     3
 10
128.918605804443
 20
593.565485452648
 30
0.0
 11
130.218605041504
 21
593.565485437689
 31
0.0
  0
LINE
  5
   428
  8
0
  6
CONTINUOUS
 62
     3
 10
130.718605041504
 20
593.565485431936
 30
0.0
 11
132.018604278564
 21
593.565485416978
 31
0.0
  0
LINE
  5
   429
  8
0
  6
CONTINUOUS
 62
     3
 10
132.518604278564
 20
593.565485411225
 30
0.0
 11
133.818603515625
 21
593.565485396267
 31
0.0
  0
LINE
  5
   42A
  8
0
  6
CONTINUOUS
 62
     3
 10
134.318603515625
 20
593.565485390513
 30
0.0
 11
135.618604660034
 21
593.565485375555
 31
0.0
  0
LINE
  5
   42B
  8
0
  6
CONTINUOUS
 62
     3
 10
136.118604660034
 20
593.565485369802
 30
0.0
 11
137.418603897095
 21
593.565485354844
 31
0.0
  0
LINE
  5
   42C
  8
0
  6
CONTINUOUS
 62
     3
 10
137.918603897095
 20
593.56548534909
 30
0.0
 11
139.218603134155
 21
593.565485334132
 31
0.0
  0
LINE
  5
   42D
  8
0
  6
CONTINUOUS
 62
     3
 10
139.718603134155
 20
593.565485328379
 30
0.0
 11
141.018604278564
 21
593.565485313421
 31
0.0
  0
LINE
  5
   42E
  8
0
  6
CONTINUOUS
 62
     3
 10
141.518604278564
 20
593.565485307668
 30
0.0
 11
142.818603515625
 21
593.565485292709
 31
0.0
  0
LINE
  5
   42F
  8
0
  6
CONTINUOUS
 62
     3
 10
143.318603515625
 20
593.565485286956
 30
0.0
 11
144.618604660034
 21
593.565485271998
 31
0.0
  0
LINE
  5
   430
  8
0
  6
CONTINUOUS
 62
     3
 10
123.518604278564
 20
593.565485514782
 30
0.0
 11
124.818603515625
 21
593.565485499824
 31
0.0
  0
LINE
  5
   431
  8
0
  6
CONTINUOUS
 62
     3
 10
123.018604278564
 20
593.565485520535
 30
0.0
 11
123.518604278564
 21
593.565485514782
 31
0.0
  0
LINE
  5
   432
  8
0
  6
CONTINUOUS
 62
     3
 10
120.568603515625
 20
593.565485548726
 30
0.0
 11
123.018604278564
 21
593.565485520535
 31
0.0
  0
LINE
  5
   433
  8
0
  6
CONTINUOUS
 62
     3
 10
124.818603515625
 20
593.565485499824
 30
0.0
 11
125.318603515625
 21
593.565485494071
 31
0.0
  0
LINE
  5
   434
  8
0
  6
CONTINUOUS
 62
     3
 10
126.618602752686
 20
593.565485479112
 30
0.0
 11
127.118602752686
 21
593.565485473359
 31
0.0
  0
LINE
  5
   435
  8
0
  6
CONTINUOUS
 62
     3
 10
128.418605804443
 20
593.565485458401
 30
0.0
 11
128.918605804443
 21
593.565485452648
 31
0.0
  0
LINE
  5
   436
  8
0
  6
CONTINUOUS
 62
     3
 10
130.218605041504
 20
593.565485437689
 30
0.0
 11
130.718605041504
 21
593.565485431936
 31
0.0
  0
LINE
  5
   437
  8
0
  6
CONTINUOUS
 62
     3
 10
132.018604278564
 20
593.565485416978
 30
0.0
 11
132.518604278564
 21
593.565485411225
 31
0.0
  0
LINE
  5
   438
  8
0
  6
CONTINUOUS
 62
     3
 10
133.818603515625
 20
593.565485396266
 30
0.0
 11
134.318603515625
 21
593.565485390513
 31
0.0
  0
LINE
  5
   439
  8
0
  6
CONTINUOUS
 62
     3
 10
135.618604660034
 20
593.565485375555
 30
0.0
 11
136.118604660034
 21
593.565485369802
 31
0.0
  0
LINE
  5
   43A
  8
0
  6
CONTINUOUS
 62
     3
 10
137.418603897095
 20
593.565485354844
 30
0.0
 11
137.918603897095
 21
593.56548534909
 31
0.0
  0
LINE
  5
   43B
  8
0
  6
CONTINUOUS
 62
     3
 10
139.218603134155
 20
593.565485334132
 30
0.0
 11
139.718603134155
 21
593.565485328379
 31
0.0
  0
LINE
  5
   43C
  8
0
  6
CONTINUOUS
 62
     3
 10
141.018604278564
 20
593.565485313421
 30
0.0
 11
141.518604278564
 21
593.565485307667
 31
0.0
  0
LINE
  5
   43D
  8
0
  6
CONTINUOUS
 62
     3
 10
142.818603515625
 20
593.565485292709
 30
0.0
 11
145.568603515684
 21
593.565485261067
 31
0.0
  0
LINE
  5
   43E
  8
0
  6
CONTINUOUS
 62
     3
 10
144.618604660034
 20
593.565485271998
 30
0.0
 11
145.118604660034
 21
593.565485266245
 31
0.0
  0
LINE
  5
   43F
  8
0
  6
CONTINUOUS
 62
     3
 10
121.568603515625
 20
612.065485537219
 30
0.0
 11
145.568603515684
 21
612.065485261067
 31
0.0
  0
LINE
  5
   440
  8
0
  6
CONTINUOUS
 62
     3
 10
120.568604073683
 20
593.565486907959
 30
0.0
 11
120.568604073683
 21
611.065483093262
 31
0.0
  0
ARC
  5
   441
  8
0
  6
CONTINUOUS
 62
     3
 10
121.568604275839
 20
611.065485536425
 30
0.0
 40
0.999999999999607
 50
90.0000435571812
 51
180.000139982427
  0
ARC
  5
   442
  8
0
  6
DOT
 62
     3
 10
238.06860351483
 20
609.065490721868
 30
0.0
 40
0.999999999999545
 50
0.0
 51
89.9999999544736
  0
ARC
  5
   443
  8
0
  6
DOT
 62
     3
 10
153.068593720607
 20
609.065500517681
 30
0.0
 40
0.999999999999769
 50
89.9994387813269
 51
180.000561218999
  0
LINE
  5
   444
  8
0
  6
DOT
 62
     3
 10
183.568603515625
 20
609.065490722656
 30
0.0
 11
183.568603515625
 21
610.065490722656
 31
0.0
  0
LINE
  5
   445
  8
0
  6
DOT
 62
     3
 10
183.568603515625
 20
608.065490722656
 30
0.0
 11
183.568603515625
 21
609.065490722656
 31
0.0
  0
LINE
  5
   446
  8
0
  6
DOT
 62
     3
 10
177.568603515625
 20
609.065490722656
 30
0.0
 11
177.568603515625
 21
610.065490722656
 31
0.0
  0
LINE
  5
   447
  8
0
  6
DOT
 62
     3
 10
177.568603515625
 20
608.065490722656
 30
0.0
 11
177.568603515625
 21
609.065490722656
 31
0.0
  0
LINE
  5
   448
  8
0
  6
DOT
 62
     3
 10
213.568603515625
 20
609.065490722656
 30
0.0
 11
213.568603515625
 21
610.065490722656
 31
0.0
  0
LINE
  5
   449
  8
0
  6
DOT
 62
     3
 10
213.568603515625
 20
608.065490722656
 30
0.0
 11
213.568603515625
 21
609.065490722656
 31
0.0
  0
LINE
  5
   44A
  8
0
  6
DOT
 62
     3
 10
207.568603515625
 20
609.065490722656
 30
0.0
 11
207.568603515625
 21
610.065490722656
 31
0.0
  0
LINE
  5
   44B
  8
0
  6
DOT
 62
     3
 10
207.568603515625
 20
608.065490722656
 30
0.0
 11
207.568603515625
 21
609.065490722656
 31
0.0
  0
POLYLINE
  5
   44C
  8
0
  6
DOT
 62
     3
 66
     1
 10
0.0
 20
0.0
 30
0.0
  0
VERTEX
  5
   44D
  8
0
  6
CONTINUOUS
 10
194.730696320527
 20
607.853157043442
 30
0.0
 40
0.0
 41
0.0
  0
VERTEX
  5
   44E
  8
0
  6
CONTINUOUS
 10
194.448040573685
 20
607.031265145316
 30
0.0
 40
0.0
 41
0.0
  0
VERTEX
  5
   44F
  8
0
  6
CONTINUOUS
 10
194.771230101596
 20
606.273735046373
 30
0.0
 40
0.0
 41
0.0
  0
SEQEND
  5
   450
  8
0
  6
DOT
 62
     3
  0
POLYLINE
  5
   451
  8
0
  6
DOT
 62
     3
 66
     1
 10
0.0
 20
0.0
 30
0.0
  0
VERTEX
  5
   452
  8
0
  6
CONTINUOUS
 10
196.406510710721
 20
606.277824401865
 30
0.0
 40
0.0
 41
0.0
  0
VERTEX
  5
   453
  8
0
  6
CONTINUOUS
 10
196.689166457568
 20
607.099716299992
 30
0.0
 40
0.0
 41
0.0
  0
VERTEX
  5
   454
  8
0
  6
CONTINUOUS
 10
196.365976929659
 20
607.857246398938
 30
0.0
 40
0.0
 41
0.0
  0
SEQEND
  5
   455
  8
0
  6
DOT
 62
     3
  0
ARC
  5
   456
  8
0
  6
DOT
 62
     3
 10
195.568455865085
 20
607.065490722663
 30
0.0
 40
1.1501216728319
 50
270.007356296949
 51
449.992643703051
  0
CIRCLE
  5
   457
  8
0
  6
DOT
 62
     3
 10
195.568603515625
 20
607.065490722663
 30
0.0
 40
1.15000000000009
  0
LINE
  5
   458
  8
0
  6
DOT
 62
     3
 10
240.568603515625
 20
596.565490722656
 30
0.0
 11
240.568603515625
 21
601.065490722656
 31
0.0
  0
LINE
  5
   459
  8
0
  6
DOT
 62
     3
 10
240.568603515625
 20
592.865489959717
 30
0.0
 11
240.568603515625
 21
595.415489196777
 31
0.0
  0
LINE
  5
   45A
  8
0
  6
DOT
 62
     3
 10
240.568603515625
 20
595.415489196777
 30
0.0
 11
240.568603515625
 21
596.565490722656
 31
0.0
  0
LINE
  5
   45B
  8
0
  6
DOT
 62
     3
 10
240.568603515625
 20
601.065490722656
 30
0.0
 11
240.568603515625
 21
604.065490722656
 31
0.0
  0
LINE
  5
   45C
  8
0
  6
DOT
 62
     3
 10
150.568603515625
 20
595.415489196777
 30
0.0
 11
150.568603515625
 21
604.065490722656
 31
0.0
  0
LINE
  5
   45D
  8
0
  6
DOT
 62
     3
 10
213.568603515625
 20
610.065490722663
 30
0.0
 11
238.068603515625
 21
610.065490722663
 31
0.0
  0
LINE
  5
   45E
  8
0
  6
DOT
 62
     3
 10
183.568603515625
 20
610.065490722663
 30
0.0
 11
207.568603515625
 21
610.065490722663
 31
0.0
  0
LINE
  5
   45F
  8
0
  6
DOT
 62
     3
 10
153.068603515625
 20
610.065490722663
 30
0.0
 11
177.568603515625
 21
610.065490722663
 31
0.0
  0
LINE
  5
   460
  8
0
  6
DOT
 62
     3
 10
182.068603515625
 20
610.065490722663
 30
0.0
 11
183.568603515625
 21
610.065490722663
 31
0.0
  0
LINE
  5
   461
  8
0
  6
DOT
 62
     3
 10
177.568603515625
 20
610.065490722663
 30
0.0
 11
179.068603515625
 21
610.065490722663
 31
0.0
  0
LINE
  5
   462
  8
0
  6
DOT
 62
     3
 10
212.068603515625
 20
610.065490722663
 30
0.0
 11
213.568603515625
 21
610.065490722663
 31
0.0
  0
LINE
  5
   463
  8
0
  6
DOT
 62
     3
 10
207.568603515625
 20
610.065490722663
 30
0.0
 11
209.068603515625
 21
610.065490722663
 31
0.0
  0
LINE
  5
   464
  8
0
  6
DOT
 62
     3
 10
177.568603515625
 20
606.065490722663
 30
0.0
 11
183.568603515625
 21
606.065490722663
 31
0.0
  0
LINE
  5
   465
  8
0
  6
DOT
 62
     3
 10
207.568603515625
 20
606.065490722663
 30
0.0
 11
213.568603515625
 21
606.065490722663
 31
0.0
  0
LINE
  5
   466
  8
0
  6
DOT
 62
     3
 10
152.068603515625
 20
608.065490722663
 30
0.0
 11
153.068603515625
 21
608.065490722663
 31
0.0
  0
LINE
  5
   467
  8
0
  6
DOT
 62
     3
 10
153.068603515625
 20
608.065490722663
 30
0.0
 11
153.568603515625
 21
608.065490722663
 31
0.0
  0
LINE
  5
   468
  8
0
  6
DOT
 62
     3
 10
153.568603515625
 20
605.065490722656
 30
0.0
 11
153.568603515625
 21
608.065490722656
 31
0.0
  0
LINE
  5
   469
  8
0
  6
DOT
 62
     3
 10
152.068603515625
 20
605.065490722663
 30
0.0
 11
153.068603515625
 21
605.065490722663
 31
0.0
  0
LINE
  5
   46A
  8
0
  6
DOT
 62
     3
 10
153.068603515625
 20
605.065490722663
 30
0.0
 11
153.568603515625
 21
605.065490722663
 31
0.0
  0
LINE
  5
   46B
  8
0
  6
DOT
 62
     3
 10
177.568603515625
 20
606.065490722656
 30
0.0
 11
177.568603515625
 21
608.065490722656
 31
0.0
  0
LINE
  5
   46C
  8
0
  6
DOT
 62
     3
 10
177.568603515625
 20
608.065490722663
 30
0.0
 11
179.068603515625
 21
608.065490722663
 31
0.0
  0
LINE
  5
   46D
  8
0
  6
DOT
 62
     3
 10
179.068603515625
 20
608.065490722656
 30
0.0
 11
179.068603515625
 21
610.065490722656
 31
0.0
  0
LINE
  5
   46E
  8
0
  6
DOT
 62
     3
 10
182.068603515625
 20
608.065490722656
 30
0.0
 11
182.068603515625
 21
610.065490722656
 31
0.0
  0
LINE
  5
   46F
  8
0
  6
DOT
 62
     3
 10
182.068603515625
 20
608.065490722663
 30
0.0
 11
183.568603515625
 21
608.065490722663
 31
0.0
  0
LINE
  5
   470
  8
0
  6
DOT
 62
     3
 10
183.568603515625
 20
606.065490722656
 30
0.0
 11
183.568603515625
 21
608.065490722656
 31
0.0
  0
LINE
  5
   471
  8
0
  6
DOT
 62
     3
 10
237.568603515625
 20
605.065490722656
 30
0.0
 11
237.568603515625
 21
608.065490722656
 31
0.0
  0
LINE
  5
   472
  8
0
  6
DOT
 62
     3
 10
238.068603515625
 20
608.065490722663
 30
0.0
 11
239.068603515625
 21
608.065490722663
 31
0.0
  0
LINE
  5
   473
  8
0
  6
DOT
 62
     3
 10
237.568603515625
 20
608.065490722663
 30
0.0
 11
238.068603515625
 21
608.065490722663
 31
0.0
  0
LINE
  5
   474
  8
0
  6
DOT
 62
     3
 10
238.068603515625
 20
605.065490722663
 30
0.0
 11
239.068603515625
 21
605.065490722663
 31
0.0
  0
LINE
  5
   475
  8
0
  6
DOT
 62
     3
 10
237.568603515625
 20
605.065490722663
 30
0.0
 11
238.068603515625
 21
605.065490722663
 31
0.0
  0
LINE
  5
   476
  8
0
  6
DOT
 62
     3
 10
207.568603515625
 20
606.065490722656
 30
0.0
 11
207.568603515625
 21
608.065490722656
 31
0.0
  0
LINE
  5
   477
  8
0
  6
DOT
 62
     3
 10
207.568603515625
 20
608.065490722663
 30
0.0
 11
209.068603515625
 21
608.065490722663
 31
0.0
  0
LINE
  5
   478
  8
0
  6
DOT
 62
     3
 10
209.068603515625
 20
608.065490722656
 30
0.0
 11
209.068603515625
 21
610.065490722656
 31
0.0
  0
LINE
  5
   479
  8
0
  6
DOT
 62
     3
 10
212.068603515625
 20
608.065490722656
 30
0.0
 11
212.068603515625
 21
610.065490722656
 31
0.0
  0
LINE
  5
   47A
  8
0
  6
DOT
 62
     3
 10
212.068603515625
 20
608.065490722663
 30
0.0
 11
213.568603515625
 21
608.065490722663
 31
0.0
  0
LINE
  5
   47B
  8
0
  6
DOT
 62
     3
 10
213.568603515625
 20
606.065490722656
 30
0.0
 11
213.568603515625
 21
608.065490722656
 31
0.0
  0
LINE
  5
   47C
  8
0
  6
DOT
 62
     3
 10
239.068603515625
 20
604.065490722663
 30
0.0
 11
240.568603515625
 21
604.065490722663
 31
0.0
  0
LINE
  5
   47D
  8
0
  6
DOT
 62
     3
 10
150.568603515625
 20
604.065490722663
 30
0.0
 11
152.068603515625
 21
604.065490722663
 31
0.0
  0
CIRCLE
  5
   47E
  8
0
  6
DOT
 62
     3
 10
180.568603515625
 20
598.565490722663
 30
0.0
 40
2.10000000000002
  0
CIRCLE
  5
   47F
  8
0
  6
DOT
 62
     3
 10
210.568603515625
 20
598.565490722663
 30
0.0
 40
2.10000000000007
  0
LINE
  5
   480
  8
0
  6
DOT
 62
     3
 10
238.755012512207
 20
604.065490722663
 30
0.0
 11
239.068603515625
 21
604.065490722663
 31
0.0
  0
LINE
  5
   481
  8
0
  6
DOT
 62
     3
 10
238.068603515625
 20
604.065490722663
 30
0.0
 11
238.753456115723
 21
604.065490722663
 31
0.0
  0
LINE
  5
   482
  8
0
  6
DOT
 62
     3
 10
152.068603515625
 20
604.065490722663
 30
0.0
 11
153.068603515625
 21
604.065490722663
 31
0.0
  0
LINE
  5
   483
  8
0
  6
DOT
 62
     3
 10
153.068603515625
 20
604.065490722663
 30
0.0
 11
238.068603515625
 21
604.065490722663
 31
0.0
  0
ARC
  5
   484
  8
0
  6
DOT
 62
     3
 10
180.568603515626
 20
598.565490722663
 30
0.0
 40
4.25000000000107
 50
179.974308650492
 51
194.431647155144
  0
ARC
  5
   485
  8
0
  6
DOT
 62
     3
 10
180.568603515629
 20
598.565490722666
 30
0.0
 40
4.25000000000562
 50
209.967083278846
 51
246.677064342243
  0
ARC
  5
   486
  8
0
  6
DOT
 62
     3
 10
180.568603515627
 20
598.565490722661
 30
0.0
 40
4.25000000000275
 50
119.968093564554
 51
148.694384037
  0
ARC
  5
   487
  8
0
  6
DOT
 62
     3
 10
180.56860351563
 20
598.565490722661
 30
0.0
 40
4.25000000000541
 50
149.95240814021
 51
161.763692140559
  0
ARC
  5
   488
  8
0
  6
DOT
 62
     3
 10
180.568603515628
 20
598.565490722666
 30
0.0
 40
4.2499999999952
 50
21.9533121878836
 51
60.135311942464
  0
ARC
  5
   489
  8
0
  6
DOT
 62
     3
 10
180.568603515638
 20
598.565490722669
 30
0.0
 40
4.24999999998603
 50
25.6503975439543
 51
30.0255031534844
  0
ARC
  5
   48A
  8
0
  6
DOT
 62
     3
 10
180.568603538162
 20
598.565490722663
 30
0.0
 40
4.24999997746298
 50
359.87583731412
 51
360.035739285513
  0
LINE
  5
   48B
  8
0
  6
DOT
 62
     3
 10
239.068603515625
 20
604.065490722656
 30
0.0
 11
239.068603515625
 21
605.065490722656
 31
0.0
  0
LINE
  5
   48C
  8
0
  6
DOT
 62
     3
 10
239.068603515625
 20
608.065490722656
 30
0.0
 11
239.068603515625
 21
609.065490722656
 31
0.0
  0
LINE
  5
   48D
  8
0
  6
DOT
 62
     3
 10
152.068603515625
 20
604.065490722656
 30
0.0
 11
152.068603515625
 21
605.065490722656
 31
0.0
  0
LINE
  5
   48E
  8
0
  6
DOT
 62
     3
 10
152.068603515625
 20
608.065490722656
 30
0.0
 11
152.068603515625
 21
609.065490722656
 31
0.0
  0
LINE
  5
   48F
  8
0
  6
DOT
 62
     3
 10
194.732977628708
 20
606.315490722656
 30
0.0
 11
194.740312933922
 21
606.315490722656
 31
0.0
  0
LINE
  5
   490
  8
0
  6
DOT
 62
     3
 10
196.429682075977
 20
606.315490722656
 30
0.0
 11
196.434496700764
 21
606.315490722656
 31
0.0
  0
ARC
  5
   491
  8
0
  6
DOT
 62
     3
 10
210.568587663946
 20
491.565485301806
 30
0.0
 40
2.10000000000078
 50
270.000198314904
 51
314.925562368276
  0
ARC
  5
   492
  8
0
  6
DOT
 62
     3
 10
210.568587663946
 20
491.565485301804
 30
0.0
 40
2.10000000000048
 50
45.3154137710574
 51
89.9998277048565
  0
ARC
  5
   493
  8
0
  6
DOT
 62
     3
 10
210.568587663947
 20
491.565485301805
 30
0.0
 40
2.09999999999952
 50
328.814107395689
 51
359.915109578659
  0
ARC
  5
   494
  8
0
  6
DOT
 62
     3
 10
210.568587663947
 20
491.565485301805
 30
0.0
 40
2.09999999999901
 50
21.8791064867554
 51
44.8998814087807
  0
ARC
  5
   495
  8
0
  6
DOT
 62
     3
 10
210.568587663947
 20
491.565485301805
 30
0.0
 40
2.1
 50
90.0006603413292
 51
199.846896196839
  0
ARC
  5
   496
  8
0
  6
DOT
 62
     3
 10
180.568587663946
 20
491.565485301805
 30
0.0
 40
2.09999999999988
 50
90.0018312538672
 51
174.648993209784
  0
ARC
  5
   497
  8
0
  6
DOT
 62
     3
 10
180.568587663947
 20
491.565485301805
 30
0.0
 40
2.09999999999985
 50
326.739109344249
 51
404.766349366482
  0
ARC
  5
   498
  8
0
  6
DOT
 62
     3
 10
180.568587663946
 20
491.565485301804
 30
0.0
 40
2.10000000000041
 50
45.5612170473842
 51
89.9998277048581
  0
ARC
  5
   499
  8
0
  6
DOT
 62
     3
 10
180.568587664018
 20
491.565485198182
 30
0.0
 40
2.09999989637774
 50
270.000380452306
 51
270.077886930859
  0
ARC
  5
   49A
  8
0
  6
DOT
 62
     3
 10
153.068593878814
 20
481.0654754924
 30
0.0
 40
0.999999999999704
 50
179.999345930258
 51
270.000552154896
  0
ARC
  5
   49B
  8
0
  6
DOT
 62
     3
 10
238.068603146627
 20
481.065484799196
 30
0.0
 40
0.999999999999386
 50
270.000021142012
 51
359.999902258766
  0
LINE
  5
   49C
  8
0
  6
DOT
 62
     3
 10
207.568587658193
 20
480.065483093262
 30
0.0
 11
207.568587658193
 21
481.065483093262
 31
0.0
  0
LINE
  5
   49D
  8
0
  6
DOT
 62
     3
 10
177.568587658193
 20
480.065486907959
 30
0.0
 11
177.568587658193
 21
481.065486907959
 31
0.0
  0
LINE
  5
   49E
  8
0
  6
DOT
 62
     3
 10
152.068603515625
 20
482.065485287422
 30
0.0
 11
153.068603515625
 21
482.065485287422
 31
0.0
  0
LINE
  5
   49F
  8
0
  6
DOT
 62
     3
 10
152.068603515625
 20
485.065485287422
 30
0.0
 11
153.068603515625
 21
485.065485287422
 31
0.0
  0
LINE
  5
   4A0
  8
0
  6
DOT
 62
     3
 10
238.068603515625
 20
482.065485042912
 30
0.0
 11
239.068603515625
 21
482.065485042912
 31
0.0
  0
LINE
  5
   4A1
  8
0
  6
DOT
 62
     3
 10
238.068603515625
 20
485.065485042912
 30
0.0
 11
239.068603515625
 21
485.065485042912
 31
0.0
  0
LINE
  5
   4A2
  8
0
  6
DOT
 62
     3
 10
239.068603515625
 20
486.06548529749
 30
0.0
 11
240.568588256836
 21
486.06548529749
 31
0.0
  0
ARC
  5
   4A3
  8
0
  6
DOT
 62
     3
 10
210.56860320783
 20
491.565484956614
 30
0.0
 40
2.10000000000005
 50
270.000008397793
 51
421.563640359905
  0
ARC
  5
   4A4
  8
0
  6
DOT
 62
     3
 10
210.56860320783
 20
491.565484956614
 30
0.0
 40
2.10000000000001
 50
118.437370607963
 51
270.000008397793
  0
LINE
  5
   4A5
  8
0
  6
DOT
 62
     3
 10
213.568587658193
 20
480.065483093262
 30
0.0
 11
213.568587658193
 21
481.065483093262
 31
0.0
  0
POLYLINE
  5
   4A6
  8
0
  6
DOT
 62
     3
 66
     1
 10
0.0
 20
0.0
 30
0.0
  0
VERTEX
  5
   4A7
  8
0
  6
CONTINUOUS
 10
194.771229743945
 20
483.857242584209
 30
0.0
 40
0.0
 41
0.0
  0
VERTEX
  5
   4A8
  8
0
  6
CONTINUOUS
 10
194.447344816666
 20
483.131630153143
 30
0.0
 40
0.0
 41
0.0
  0
VERTEX
  5
   4A9
  8
0
  6
CONTINUOUS
 10
194.730695962915
 20
482.277820587134
 30
0.0
 40
0.0
 41
0.0
  0
SEQEND
  5
   4AA
  8
0
  6
DOT
 62
     3
  0
POLYLINE
  5
   4AB
  8
0
  6
DOT
 62
     3
 66
     1
 10
0.0
 20
0.0
 30
0.0
  0
VERTEX
  5
   4AC
  8
0
  6
CONTINUOUS
 10
196.365976572045
 20
482.273727417007
 30
0.0
 40
0.0
 41
0.0
  0
VERTEX
  5
   4AD
  8
0
  6
CONTINUOUS
 10
196.689861499329
 20
482.999339848072
 30
0.0
 40
0.0
 41
0.0
  0
VERTEX
  5
   4AE
  8
0
  6
CONTINUOUS
 10
196.406510353084
 20
483.853149414081
 30
0.0
 40
0.0
 41
0.0
  0
SEQEND
  5
   4AF
  8
0
  6
DOT
 62
     3
  0
ARC
  5
   4B0
  8
0
  6
DOT
 62
     3
 10
195.568587450652
 20
483.065485042912
 30
0.0
 40
1.15001000780465
 50
270.000782294843
 51
449.999217045832
  0
CIRCLE
  5
   4B1
  8
0
  6
DOT
 62
     3
 10
195.568603158928
 20
483.065485042912
 30
0.0
 40
1.14999999999998
  0
ARC
  5
   4B2
  8
0
  6
DOT
 62
     3
 10
180.56860320783
 20
491.565485129209
 30
0.0
 40
2.10000000000003
 50
270.007684674219
 51
406.533418368853
  0
ARC
  5
   4B3
  8
0
  6
DOT
 62
     3
 10
180.56860320783
 20
491.565485129209
 30
0.0
 40
2.09999999999996
 50
133.693872912882
 51
269.990120152526
  0
LINE
  5
   4B4
  8
0
  6
DOT
 62
     3
 10
183.568587658193
 20
480.065486907959
 30
0.0
 11
183.568587658193
 21
481.065486907959
 31
0.0
  0
LINE
  5
   4B5
  8
0
  6
DOT
 62
     3
 10
213.568588256836
 20
480.065485042912
 30
0.0
 11
238.068603515625
 21
480.065485042912
 31
0.0
  0
LINE
  5
   4B6
  8
0
  6
DOT
 62
     3
 10
183.568587303162
 20
480.065485042912
 30
0.0
 11
207.568587303162
 21
480.065485042912
 31
0.0
  0
LINE
  5
   4B7
  8
0
  6
DOT
 62
     3
 10
153.068603515625
 20
480.065485042912
 30
0.0
 11
177.568588256836
 21
480.065485042912
 31
0.0
  0
LINE
  5
   4B8
  8
0
  6
DOT
 62
     3
 10
212.068588256836
 20
480.065485042912
 30
0.0
 11
213.568588256836
 21
480.065485042912
 31
0.0
  0
LINE
  5
   4B9
  8
0
  6
DOT
 62
     3
 10
207.568587303162
 20
480.065485042912
 30
0.0
 11
209.068587303162
 21
480.065485042912
 31
0.0
  0
LINE
  5
   4BA
  8
0
  6
DOT
 62
     3
 10
177.568588256836
 20
480.065485042912
 30
0.0
 11
179.068588256836
 21
480.065485042912
 31
0.0
  0
LINE
  5
   4BB
  8
0
  6
DOT
 62
     3
 10
182.068587303162
 20
480.065485042912
 30
0.0
 11
183.568587303162
 21
480.065485042912
 31
0.0
  0
LINE
  5
   4BC
  8
0
  6
DOT
 62
     3
 10
150.568588256836
 20
486.06548529749
 30
0.0
 11
152.068603515625
 21
486.06548529749
 31
0.0
  0
ARC
  5
   4BD
  8
0
  6
DOT
 62
     3
 10
210.568569278335
 20
491.565489004596
 30
0.0
 40
4.25002397135385
 50
299.965695540825
 51
329.806612807725
  0
ARC
  5
   4BE
  8
0
  6
DOT
 62
     3
 10
210.568569278335
 20
491.565489004596
 30
0.0
 40
4.25002397135339
 50
329.94688349121
 51
418.304612045571
  0
ARC
  5
   4BF
  8
0
  6
DOT
 62
     3
 10
210.568637133323
 20
491.565489004976
 30
0.0
 40
4.25002396903721
 50
148.707007243685
 51
230.736581822986
  0
LINE
  5
   4C0
  8
0
  6
DOT
 62
     3
 10
152.068603673837
 20
481.065486907959
 30
0.0
 11
152.068603673837
 21
482.065486907959
 31
0.0
  0
LINE
  5
   4C1
  8
0
  6
DOT
 62
     3
 10
152.068603673837
 20
485.065486907959
 30
0.0
 11
152.068603673837
 21
486.065486907959
 31
0.0
  0
LINE
  5
   4C2
  8
0
  6
DOT
 62
     3
 10
239.068603170434
 20
485.065483093262
 30
0.0
 11
239.068603170434
 21
486.065486907959
 31
0.0
  0
LINE
  5
   4C3
  8
0
  6
DOT
 62
     3
 10
239.068603147421
 20
481.065483093262
 30
0.0
 11
239.068603147421
 21
482.065483093262
 31
0.0
  0
LINE
  5
   4C4
  8
0
  6
DOT
 62
     3
 10
238.068603515625
 20
486.065485542
 30
0.0
 11
239.068603515625
 21
486.065485542
 31
0.0
  0
LINE
  5
   4C5
  8
0
  6
DOT
 62
     3
 10
152.068603515625
 20
486.06548529749
 30
0.0
 11
153.068603515625
 21
486.06548529749
 31
0.0
  0
LINE
  5
   4C6
  8
0
  6
DOT
 62
     3
 10
153.568588256836
 20
486.06548529749
 30
0.0
 11
153.883735656738
 21
486.06548529749
 31
0.0
  0
LINE
  5
   4C7
  8
0
  6
DOT
 62
     3
 10
207.568603515625
 20
484.065485042912
 30
0.0
 11
213.568603515625
 21
484.065485042912
 31
0.0
  0
LINE
  5
   4C8
  8
0
  6
DOT
 62
     3
 10
177.568603515625
 20
484.065485042912
 30
0.0
 11
183.568603515625
 21
484.065485042912
 31
0.0
  0
LINE
  5
   4C9
  8
0
  6
DOT
 62
     3
 10
207.568587663947
 20
481.065483093262
 30
0.0
 11
207.568587663947
 21
482.065486907959
 31
0.0
  0
LINE
  5
   4CA
  8
0
  6
DOT
 62
     3
 10
177.568587663947
 20
481.065486907959
 30
0.0
 11
177.568587663947
 21
482.065486907959
 31
0.0
  0
LINE
  5
   4CB
  8
0
  6
DOT
 62
     3
 10
153.568603153175
 20
482.065486907959
 30
0.0
 11
153.568603153175
 21
485.065486907959
 31
0.0
  0
LINE
  5
   4CC
  8
0
  6
DOT
 62
     3
 10
153.068603515625
 20
482.065485042911
 30
0.0
 11
153.568603515625
 21
482.065485042911
 31
0.0
  0
LINE
  5
   4CD
  8
0
  6
DOT
 62
     3
 10
153.068603515625
 20
485.065485042911
 30
0.0
 11
153.568603515625
 21
485.065485042911
 31
0.0
  0
LINE
  5
   4CE
  8
0
  6
DOT
 62
     3
 10
237.568603515625
 20
482.065485042911
 30
0.0
 11
238.068603515625
 21
482.065485042911
 31
0.0
  0
LINE
  5
   4CF
  8
0
  6
DOT
 62
     3
 10
237.568603153175
 20
482.065483093262
 30
0.0
 11
237.568603153175
 21
485.065483093262
 31
0.0
  0
LINE
  5
   4D0
  8
0
  6
DOT
 62
     3
 10
237.568603515625
 20
485.065485042912
 30
0.0
 11
238.068603515625
 21
485.065485042912
 31
0.0
  0
LINE
  5
   4D1
  8
0
  6
DOT
 62
     3
 10
213.568587663947
 20
481.065483093262
 30
0.0
 11
213.568587663947
 21
482.065483093262
 31
0.0
  0
LINE
  5
   4D2
  8
0
  6
DOT
 62
     3
 10
183.568587663947
 20
481.065486907959
 30
0.0
 11
183.568587663947
 21
482.065486907959
 31
0.0
  0
LINE
  5
   4D3
  8
0
  6
DOT
 62
     3
 10
153.068603515625
 20
486.06548529749
 30
0.0
 11
238.068603515625
 21
486.06548529749
 31
0.0
  0
LINE
  5
   4D4
  8
0
  6
DOT
 62
     3
 10
179.068587663947
 20
480.065486907959
 30
0.0
 11
179.068587663947
 21
482.065486907959
 31
0.0
  0
LINE
  5
   4D5
  8
0
  6
DOT
 62
     3
 10
182.068587663947
 20
480.065486907959
 30
0.0
 11
182.068587663947
 21
482.065486907959
 31
0.0
  0
LINE
  5
   4D6
  8
0
  6
DOT
 62
     3
 10
182.068587303162
 20
482.065485042911
 30
0.0
 11
183.568587303162
 21
482.065485042911
 31
0.0
  0
LINE
  5
   4D7
  8
0
  6
DOT
 62
     3
 10
183.568587663947
 20
482.065486907959
 30
0.0
 11
183.568587663947
 21
484.065486907959
 31
0.0
  0
LINE
  5
   4D8
  8
0
  6
DOT
 62
     3
 10
177.568587663947
 20
482.065486907959
 30
0.0
 11
177.568587663947
 21
484.065486907959
 31
0.0
  0
LINE
  5
   4D9
  8
0
  6
DOT
 62
     3
 10
177.568590164185
 20
482.065485042911
 30
0.0
 11
179.068588256836
 21
482.065485042911
 31
0.0
  0
LINE
  5
   4DA
  8
0
  6
DOT
 62
     3
 10
209.068587663947
 20
480.065483093262
 30
0.0
 11
209.068587663947
 21
482.065483093262
 31
0.0
  0
LINE
  5
   4DB
  8
0
  6
DOT
 62
     3
 10
212.068587663947
 20
480.065483093262
 30
0.0
 11
212.068587663947
 21
482.065483093262
 31
0.0
  0
LINE
  5
   4DC
  8
0
  6
DOT
 62
     3
 10
212.068588256836
 20
482.065485042911
 30
0.0
 11
213.568588256836
 21
482.065485042911
 31
0.0
  0
LINE
  5
   4DD
  8
0
  6
DOT
 62
     3
 10
213.568587663947
 20
482.065483093262
 30
0.0
 11
213.568587663947
 21
484.065483093262
 31
0.0
  0
LINE
  5
   4DE
  8
0
  6
DOT
 62
     3
 10
207.568587663947
 20
482.065486907959
 30
0.0
 11
207.568587663947
 21
484.065483093262
 31
0.0
  0
LINE
  5
   4DF
  8
0
  6
DOT
 62
     3
 10
207.568596839905
 20
482.065485042911
 30
0.0
 11
209.068587303162
 21
482.065485042911
 31
0.0
  0
LINE
  5
   4E0
  8
0
  6
DOT
 62
     3
 10
240.568587663947
 20
489.065483093262
 30
0.0
 11
240.568587663947
 21
493.565483093262
 31
0.0
  0
LINE
  5
   4E1
  8
0
  6
DOT
 62
     3
 10
240.568618855794
 20
493.565483093262
 30
0.0
 11
240.568618855794
 21
497.265491485596
 31
0.0
  0
LINE
  5
   4E2
  8
0
  6
DOT
 62
     3
 10
240.568618855794
 20
486.065486907959
 30
0.0
 11
240.568618855794
 21
489.065483093262
 31
0.0
  0
ARC
  5
   4E3
  8
0
  6
DOT
 62
     3
 10
180.56860320783
 20
491.56548512921
 30
0.0
 40
2.0999999999997
 50
89.9999916022043
 51
134.97280637214
  0
ARC
  5
   4E4
  8
0
  6
DOT
 62
     3
 10
180.56860320783
 20
491.565485129209
 30
0.0
 40
2.10000000000004
 50
45.5621574403328
 51
89.9999916022081
  0
ARC
  5
   4E5
  8
0
  6
DOT
 62
     3
 10
210.56860320783
 20
491.565484956614
 30
0.0
 40
2.09999999999948
 50
45.3163544844033
 51
89.999991602212
  0
ARC
  5
   4E6
  8
0
  6
DOT
 62
     3
 10
210.56860320783
 20
491.565484956614
 30
0.0
 40
2.1000000000001
 50
89.9999916022105
 51
134.97280300329
  0
LINE
  5
   4E7
  8
0
  6
DOT
 62
     3
 10
151.268603515684
 20
592.865489959717
 30
0.0
 11
151.268603515684
 21
593.565490722656
 31
0.0
  0
LINE
  5
   4E8
  8
0
  6
DOT
 62
     3
 10
151.268604278564
 20
593.565490722656
 30
0.0
 11
154.268604278564
 21
593.565490722656
 31
0.0
  0
LINE
  5
   4E9
  8
0
  6
DOT
 62
     3
 10
236.868602752686
 20
593.565490722656
 30
0.0
 11
239.868602752686
 21
593.565490722656
 31
0.0
  0
LINE
  5
   4EA
  8
0
  6
DOT
 62
     3
 10
154.268604278564
 20
593.565490722656
 30
0.0
 11
236.868602752686
 21
593.565490722656
 31
0.0
  0
LINE
  5
   4EB
  8
0
  6
DOT
 62
     3
 10
151.268604278564
 20
496.565490722656
 30
0.0
 11
154.268604278564
 21
496.565490722656
 31
0.0
  0
LINE
  5
   4EC
  8
0
  6
DOT
 62
     3
 10
236.868602752686
 20
496.565490722656
 30
0.0
 11
239.868602752686
 21
496.565490722656
 31
0.0
  0
LINE
  5
   4ED
  8
0
  6
DOT
 62
     3
 10
154.268604278564
 20
496.565490722656
 30
0.0
 11
236.868602752686
 21
496.565490722656
 31
0.0
  0
CIRCLE
  5
   4EE
  8
0
  6
DOT
 62
     3
 10
180.568603515625
 20
491.565490722656
 30
0.0
 40
2.09999999999998
  0
CIRCLE
  5
   4EF
  8
0
  6
DOT
 62
     3
 10
180.568603515625
 20
491.565490722656
 30
0.0
 40
4.50000000000001
  0
CIRCLE
  5
   4F0
  8
0
  6
DOT
 62
     3
 10
210.568603515625
 20
598.565490722656
 30
0.0
 40
2.09999999999998
  0
CIRCLE
  5
   4F1
  8
0
  6
DOT
 62
     3
 10
210.568603515625
 20
598.565490722656
 30
0.0
 40
4.5
  0
ARC
  5
   4F2
  8
0
  6
DOT
 62
     3
 10
165.568559122673
 20
598.315490722662
 30
0.0
 40
3.25002828292661
 50
17.9997249125242
 51
89.9989819969242
  0
CIRCLE
  5
   4F3
  8
0
  6
DOT
 62
     3
 10
165.568647908577
 20
598.315490722663
 30
0.0
 40
3.25002828292623
  0
ARC
  5
   4F4
  8
0
  6
DOT
 62
     3
 10
165.568603515624
 20
598.315490722664
 30
0.0
 40
3.25000000000145
 50
305.987326377815
 51
342.016110303983
  0
ARC
  5
   4F5
  8
0
  6
DOT
 62
     3
 10
165.568603515625
 20
598.315490722663
 30
0.0
 40
3.24999999999981
 50
125.987366199816
 51
162.016120780896
  0
CIRCLE
  5
   4F6
  8
0
  6
DOT
 62
     3
 10
165.568647908577
 20
491.815490722649
 30
0.0
 40
3.25002828292619
  0
ARC
  5
   4F7
  8
0
  6
DOT
 62
     3
 10
180.568545463303
 20
598.565490722662
 30
0.0
 40
4.25003698536544
 50
60.0052560911461
 51
89.9992173757549
  0
ARC
  5
   4F8
  8
0
  6
DOT
 62
     3
 10
180.568661567947
 20
598.565490722663
 30
0.0
 40
4.25003698536551
 50
240.005244942341
 51
305.426793421634
  0
ARC
  5
   4F9
  8
0
  6
DOT
 62
     3
 10
180.568603515625
 20
598.565490722663
 30
0.0
 40
4.25000000000006
 50
80.8971084868759
 51
210.015757359143
  0
ARC
  5
   4FA
  8
0
  6
DOT
 62
     3
 10
180.568603515625
 20
598.565490722663
 30
0.0
 40
4.25000000000006
 50
299.989118587865
 51
390.01571259671
  0
LINE
  5
   4FB
  8
0
  6
DOT
 62
     3
 10
210.568603515625
 20
487.315490722656
 30
0.0
 11
212.682600021362
 21
487.899150848389
 31
0.0
  0
LINE
  5
   4FC
  8
0
  6
DOT
 62
     3
 10
206.88799571991
 20
489.440490722656
 30
0.0
 11
208.4549741745
 21
487.901725769043
 31
0.0
  0
LINE
  5
   4FD
  8
0
  6
DOT
 62
     3
 10
208.4549741745
 20
487.901725769043
 30
0.0
 11
210.568603515625
 21
487.315490722656
 31
0.0
  0
ARC
  5
   4FE
  8
0
  6
DOT
 62
     3
 10
210.568661567947
 20
491.56549072265
 30
0.0
 40
4.250036985365
 50
90.000782624244
 51
120.000659630724
  0
ARC
  5
   4FF
  8
0
  6
DOT
 62
     3
 10
210.568661567947
 20
491.56549072265
 30
0.0
 40
4.25003698536551
 50
180.0
 51
209.999609840798
  0
ARC
  5
   500
  8
0
  6
DOT
 62
     3
 10
210.568545463303
 20
491.56549072265
 30
0.0
 40
4.25003698536508
 50
29.9996034126984
 51
89.9992173757552
  0
ARC
  5
   501
  8
0
  6
DOT
 62
     3
 10
210.568603515625
 20
491.56549072265
 30
0.0
 40
4.25
 50
116.277183981812
 51
202.824225932055
  0
ARC
  5
   502
  8
0
  6
DOT
 62
     3
 10
210.568603515625
 20
491.56549072265
 30
0.0
 40
4.25
 50
299.967572386953
 51
418.469147554207
  0
CIRCLE
  5
   503
  8
0
  6
DOT
 62
     3
 10
195.568647908577
 20
491.815490722649
 30
0.0
 40
3.2500282829262
  0
CIRCLE
  5
   504
  8
0
  6
DOT
 62
     3
 10
225.568647908577
 20
491.81549072265
 30
0.0
 40
3.25002828292628
  0
CIRCLE
  5
   505
  8
0
  6
DOT
 62
     3
 10
195.568559122673
 20
598.315490722663
 30
0.0
 40
3.25002828292574
  0
ARC
  5
   506
  8
0
  6
DOT
 62
     3
 10
195.568647908577
 20
598.315490722663
 30
0.0
 40
3.25002828292638
 50
197.99972101627
 51
269.998976445699
  0
CIRCLE
  5
   507
  8
0
  6
DOT
 62
     3
 10
225.568647908577
 20
598.315490722663
 30
0.0
 40
3.2500282829263
  0
LINE
  5
   508
  8
0
  6
DOT
 62
     3
 10
150.568603515625
 20
592.865490722656
 30
0.0
 11
153.018604278564
 21
592.865490722656
 31
0.0
  0
LINE
  5
   509
  8
0
  6
DOT
 62
     3
 10
238.118602752686
 20
592.865490722656
 30
0.0
 11
240.568603515625
 21
592.865490722656
 31
0.0
  0
LINE
  5
   50A
  8
0
  6
DOT
 62
     3
 10
237.618602752686
 20
592.865490722656
 30
0.0
 11
238.118602752686
 21
592.865490722656
 31
0.0
  0
LINE
  5
   50B
  8
0
  6
DOT
 62
     3
 10
153.018604278564
 20
592.865490722656
 30
0.0
 11
153.518604278564
 21
592.865490722656
 31
0.0
  0
LINE
  5
   50C
  8
0
  6
DOT
 62
     3
 10
236.318603515625
 20
592.865490722656
 30
0.0
 11
237.618602752686
 21
592.865490722656
 31
0.0
  0
LINE
  5
   50D
  8
0
  6
DOT
 62
     3
 10
157.118602752686
 20
592.865490722656
 30
0.0
 11
234.018604278564
 21
592.865490722656
 31
0.0
  0
LINE
  5
   50E
  8
0
  6
DOT
 62
     3
 10
155.318603515625
 20
592.865490722656
 30
0.0
 11
156.618602752686
 21
592.865490722656
 31
0.0
  0
LINE
  5
   50F
  8
0
  6
DOT
 62
     3
 10
234.518604278564
 20
592.865490722656
 30
0.0
 11
235.818603515625
 21
592.865490722656
 31
0.0
  0
LINE
  5
   510
  8
0
  6
DOT
 62
     3
 10
153.518604278564
 20
592.865490722656
 30
0.0
 11
154.818603515625
 21
592.865490722656
 31
0.0
  0
LINE
  5
   511
  8
0
  6
DOT
 62
     3
 10
235.818603515625
 20
592.865490722656
 30
0.0
 11
236.318603515625
 21
592.865490722656
 31
0.0
  0
LINE
  5
   512
  8
0
  6
DOT
 62
     3
 10
234.018604278564
 20
592.865490722656
 30
0.0
 11
234.518604278564
 21
592.865490722656
 31
0.0
  0
LINE
  5
   513
  8
0
  6
DOT
 62
     3
 10
154.818603515625
 20
592.865490722656
 30
0.0
 11
155.318603515625
 21
592.865490722656
 31
0.0
  0
LINE
  5
   514
  8
0
  6
DOT
 62
     3
 10
156.618602752686
 20
592.865490722656
 30
0.0
 11
157.118602752686
 21
592.865490722656
 31
0.0
  0
LINE
  5
   515
  8
0
  6
DOT
 62
     3
 10
150.568603515625
 20
497.265490722656
 30
0.0
 11
153.018604278564
 21
497.265490722656
 31
0.0
  0
LINE
  5
   516
  8
0
  6
DOT
 62
     3
 10
238.118602752686
 20
497.265490722656
 30
0.0
 11
240.568603515625
 21
497.265490722656
 31
0.0
  0
LINE
  5
   517
  8
0
  6
DOT
 62
     3
 10
153.018604278564
 20
497.265490722656
 30
0.0
 11
153.518604278564
 21
497.265490722656
 31
0.0
  0
LINE
  5
   518
  8
0
  6
DOT
 62
     3
 10
237.618602752686
 20
497.265490722656
 30
0.0
 11
238.118602752686
 21
497.265490722656
 31
0.0
  0
LINE
  5
   519
  8
0
  6
DOT
 62
     3
 10
234.518604278564
 20
497.265490722656
 30
0.0
 11
235.818603515625
 21
497.265490722656
 31
0.0
  0
LINE
  5
   51A
  8
0
  6
DOT
 62
     3
 10
157.118602752686
 20
497.265490722656
 30
0.0
 11
234.018604278564
 21
497.265490722656
 31
0.0
  0
LINE
  5
   51B
  8
0
  6
DOT
 62
     3
 10
153.518604278564
 20
497.265490722656
 30
0.0
 11
154.818603515625
 21
497.265490722656
 31
0.0
  0
LINE
  5
   51C
  8
0
  6
DOT
 62
     3
 10
155.318603515625
 20
497.265490722656
 30
0.0
 11
156.618602752686
 21
497.265490722656
 31
0.0
  0
LINE
  5
   51D
  8
0
  6
DOT
 62
     3
 10
236.318603515625
 20
497.265490722656
 30
0.0
 11
237.618602752686
 21
497.265490722656
 31
0.0
  0
LINE
  5
   51E
  8
0
  6
DOT
 62
     3
 10
154.818603515625
 20
497.265490722656
 30
0.0
 11
155.318603515625
 21
497.265490722656
 31
0.0
  0
LINE
  5
   51F
  8
0
  6
DOT
 62
     3
 10
156.618602752686
 20
497.265490722656
 30
0.0
 11
157.118602752686
 21
497.265490722656
 31
0.0
  0
LINE
  5
   520
  8
0
  6
DOT
 62
     3
 10
235.818603515625
 20
497.265490722656
 30
0.0
 11
236.318603515625
 21
497.265490722656
 31
0.0
  0
LINE
  5
   521
  8
0
  6
DOT
 62
     3
 10
234.018604278564
 20
497.265490722656
 30
0.0
 11
234.518604278564
 21
497.265490722656
 31
0.0
  0
LINE
  5
   522
  8
0
  6
DOT
 62
     3
 10
153.068603515625
 20
486.065490722656
 30
0.0
 11
238.068603515625
 21
486.065490722656
 31
0.0
  0
LINE
  5
   523
  8
0
  6
DOT
 62
     3
 10
152.068603515625
 20
486.065490722656
 30
0.0
 11
153.068603515625
 21
486.065490722656
 31
0.0
  0
LINE
  5
   524
  8
0
  6
DOT
 62
     3
 10
238.068603515625
 20
486.065490722656
 30
0.0
 11
239.068603515625
 21
486.065490722656
 31
0.0
  0
LINE
  5
   525
  8
0
  6
DOT
 62
     3
 10
153.068603515625
 20
604.065490722663
 30
0.0
 11
238.068603515625
 21
604.065490722663
 31
0.0
  0
LINE
  5
   526
  8
0
  6
DOT
 62
     3
 10
152.068603515625
 20
604.065490722663
 30
0.0
 11
153.068603515625
 21
604.065490722663
 31
0.0
  0
LINE
  5
   527
  8
0
  6
DOT
 62
     3
 10
238.068603515625
 20
604.065490722656
 30
0.0
 11
239.068603515625
 21
604.065490722656
 31
0.0
  0
LINE
  5
   528
  8
0
  6
DOT
 62
     3
 10
239.868603515684
 20
496.565490722656
 30
0.0
 11
239.868603515684
 21
497.265491485596
 31
0.0
  0
LINE
  5
   529
  8
0
  6
DOT
 62
     3
 10
239.868603515684
 20
592.865489959717
 30
0.0
 11
239.868603515684
 21
593.565490722656
 31
0.0
  0
LINE
  5
   52A
  8
0
  6
DOT
 62
     3
 10
239.068603515684
 20
486.065490722656
 30
0.0
 11
239.068603515684
 21
496.565490722656
 31
0.0
  0
LINE
  5
   52B
  8
0
  6
DOT
 62
     3
 10
152.068603515684
 20
486.065490722656
 30
0.0
 11
152.068603515684
 21
496.565490722656
 31
0.0
  0
LINE
  5
   52C
  8
0
  6
DOT
 62
     3
 10
239.068603515684
 20
593.565490722656
 30
0.0
 11
239.068603515684
 21
604.065490722656
 31
0.0
  0
LINE
  5
   52D
  8
0
  6
DOT
 62
     3
 10
152.068603515684
 20
593.565490722656
 30
0.0
 11
152.068603515684
 21
604.065490722656
 31
0.0
  0
LINE
  5
   52E
  8
0
  6
DOT
 62
     3
 10
151.268603515684
 20
496.565490722656
 30
0.0
 11
151.268603515684
 21
497.265491485596
 31
0.0
  0
LINE
  5
   52F
  8
0
  6
CONTINUOUS
 62
     1
 10
233.231159210205
 20
518.865490913391
 30
0.0
 11
233.231159210205
 21
555.412925881604
 31
0.0
  0
LINE
  5
   530
  8
0
  6
CONTINUOUS
 62
     1
 10
233.231159210205
 20
553.565490722656
 30
0.0
 11
233.231159210205
 21
560.265491485596
 31
0.0
  0
LINE
  5
   531
  8
0
  6
CONTINUOUS
 62
     1
 10
157.906047821045
 20
518.865490913391
 30
0.0
 11
157.906047821045
 21
560.265491485596
 31
0.0
  0
LINE
  5
   532
  8
0
  6
CONTINUOUS
 62
   212
 10
186.568603515625
 20
553.922510147095
 30
0.0
 11
204.568603515625
 21
553.922510147095
 31
0.0
  0
LINE
  5
   533
  8
0
  6
CONTINUOUS
 62
   212
 10
200.325932979584
 20
547.244856834412
 30
0.0
 11
204.568603515625
 21
547.244856834412
 31
0.0
  0
LINE
  5
   534
  8
0
  6
CONTINUOUS
 62
   212
 10
186.568603515625
 20
547.244856834412
 30
0.0
 11
202.019148627717
 21
547.244856834412
 31
0.0
  0
LINE
  5
   535
  8
0
  6
DASHDOT
 62
     7
 10
161.668587654261
 20
513.565485301805
 30
0.0
 11
169.533587675569
 21
513.565485301805
 31
0.0
  0
LINE
  5
   536
  8
0
  6
DASHDOT
 62
     7
 10
165.568587663947
 20
509.665485292119
 30
0.0
 11
165.568587663947
 21
517.465485311491
 31
0.0
  0
LINE
  5
   537
  8
0
  6
DASHDOT
 62
     7
 10
195.568603515625
 20
468.305646408295
 30
0.0
 11
195.568603515625
 21
625.338204161125
 31
0.0
  0
LINE
  5
   538
  8
0
  6
DASHDOT
 62
     7
 10
109.248380291028
 20
545.065490722656
 30
0.0
 11
247.765257298526
 21
545.065490722656
 31
0.0
  0
LINE
  5
   539
  8
0
  6
DASHDOT
 62
     7
 10
194.188603512198
 20
607.065490722663
 30
0.0
 11
196.971603519738
 21
607.065490722663
 31
0.0
  0
LINE
  5
   53A
  8
0
  6
DASHDOT
 62
     7
 10
195.568603515625
 20
605.685490719235
 30
0.0
 11
195.568603515625
 21
608.44549072609
 31
0.0
  0
LINE
  5
   53B
  8
0
  6
DASHDOT
 62
     7
 10
178.048603509367
 20
598.565490722663
 30
0.0
 11
183.130603523135
 21
598.565490722663
 31
0.0
  0
LINE
  5
   53C
  8
0
  6
DASHDOT
 62
     7
 10
180.568603515625
 20
596.045490716404
 30
0.0
 11
180.568603515625
 21
601.085490728921
 31
0.0
  0
LINE
  5
   53D
  8
0
  6
DASHDOT
 62
     7
 10
208.048603509367
 20
598.565490722663
 30
0.0
 11
213.130603523135
 21
598.565490722663
 31
0.0
  0
LINE
  5
   53E
  8
0
  6
DASHDOT
 62
     7
 10
210.568603515625
 20
596.045490716404
 30
0.0
 11
210.568603515625
 21
601.085490728921
 31
0.0
  0
LINE
  5
   53F
  8
0
  6
DASHDOT
 62
     7
 10
208.04858765769
 20
491.565485301805
 30
0.0
 11
213.130587671456
 21
491.565485301805
 31
0.0
  0
LINE
  5
   540
  8
0
  6
DASHDOT
 62
     7
 10
210.568587663947
 20
489.045485295548
 30
0.0
 11
210.568587663947
 21
494.085485308063
 31
0.0
  0
LINE
  5
   541
  8
0
  6
DASHDOT
 62
     7
 10
178.048587782106
 20
491.565485198182
 30
0.0
 11
183.130587545109
 21
491.565485198182
 31
0.0
  0
LINE
  5
   542
  8
0
  6
DASHDOT
 62
     7
 10
180.568587664018
 20
489.045485316271
 30
0.0
 11
180.568587664018
 21
494.085485080094
 31
0.0
  0
LINE
  5
   543
  8
0
  6
DASHDOT
 62
     7
 10
208.048603201571
 20
491.565484956614
 30
0.0
 11
213.13060321534
 21
491.565484956614
 31
0.0
  0
LINE
  5
   544
  8
0
  6
DASHDOT
 62
     7
 10
210.56860320783
 20
489.045484950355
 30
0.0
 11
210.56860320783
 21
494.085484962872
 31
0.0
  0
LINE
  5
   545
  8
0
  6
DASHDOT
 62
     7
 10
194.188603155501
 20
483.065485042912
 30
0.0
 11
196.971603163041
 21
483.065485042912
 31
0.0
  0
LINE
  5
   546
  8
0
  6
DASHDOT
 62
     7
 10
195.568603158928
 20
481.685485039484
 30
0.0
 11
195.568603158928
 21
484.445485046339
 31
0.0
  0
LINE
  5
   547
  8
0
  6
DASHDOT
 62
     7
 10
178.048603201571
 20
491.565485129209
 30
0.0
 11
183.13060321534
 21
491.565485129209
 31
0.0
  0
LINE
  5
   548
  8
0
  6
DASHDOT
 62
     7
 10
180.56860320783
 20
489.045485122951
 30
0.0
 11
180.56860320783
 21
494.085485135468
 31
0.0
  0
LINE
  5
   549
  8
0
  6
DASHDOT
 62
     7
 10
205.468608357813
 20
491.565489004976
 30
0.0
 11
215.753666390748
 21
491.565489004976
 31
0.0
  0
LINE
  5
   54A
  8
0
  6
DASHDOT
 62
     7
 10
210.568637133323
 20
486.465460229465
 30
0.0
 11
210.568637133323
 21
496.665517780487
 31
0.0
  0
LINE
  5
   54B
  8
0
  6
DASHDOT
 62
     7
 10
178.048603509367
 20
491.565490722656
 30
0.0
 11
183.130603523135
 21
491.565490722656
 31
0.0
  0
LINE
  5
   54C
  8
0
  6
DASHDOT
 62
     7
 10
180.568603515625
 20
489.045490716397
 30
0.0
 11
180.568603515625
 21
494.085490728914
 31
0.0
  0
LINE
  5
   54D
  8
0
  6
DASHDOT
 62
     7
 10
178.048603509367
 20
491.565490722656
 30
0.0
 11
183.130603523135
 21
491.565490722656
 31
0.0
  0
LINE
  5
   54E
  8
0
  6
DASHDOT
 62
     7
 10
180.568603515625
 20
489.045490716397
 30
0.0
 11
180.568603515625
 21
494.085490728914
 31
0.0
  0
LINE
  5
   54F
  8
0
  6
DASHDOT
 62
     7
 10
175.168603502214
 20
491.565490722656
 30
0.0
 11
186.058603531718
 21
491.565490722656
 31
0.0
  0
LINE
  5
   550
  8
0
  6
DASHDOT
 62
     7
 10
180.568603515625
 20
486.165490709245
 30
0.0
 11
180.568603515625
 21
496.965490736067
 31
0.0
  0
LINE
  5
   551
  8
0
  6
DASHDOT
 62
     7
 10
208.048603509367
 20
598.565490722656
 30
0.0
 11
213.130603523135
 21
598.565490722656
 31
0.0
  0
LINE
  5
   552
  8
0
  6
DASHDOT
 62
     7
 10
210.568603515625
 20
596.045490716398
 30
0.0
 11
210.568603515625
 21
601.085490728915
 31
0.0
  0
LINE
  5
   553
  8
0
  6
DASHDOT
 62
     7
 10
208.048603509367
 20
598.565490722656
 30
0.0
 11
213.130603523135
 21
598.565490722656
 31
0.0
  0
LINE
  5
   554
  8
0
  6
DASHDOT
 62
     7
 10
210.568603515625
 20
596.045490716398
 30
0.0
 11
210.568603515625
 21
601.085490728915
 31
0.0
  0
LINE
  5
   555
  8
0
  6
DASHDOT
 62
     7
 10
205.168603502214
 20
598.565490722656
 30
0.0
 11
216.058603531718
 21
598.565490722656
 31
0.0
  0
LINE
  5
   556
  8
0
  6
DASHDOT
 62
     7
 10
210.568603515625
 20
593.165490709245
 30
0.0
 11
210.568603515625
 21
603.965490736067
 31
0.0
  0
LINE
  5
   557
  8
0
  6
DASHDOT
 62
     7
 10
161.668603505939
 20
598.315490722663
 30
0.0
 11
169.533603527247
 21
598.315490722663
 31
0.0
  0
LINE
  5
   558
  8
0
  6
DASHDOT
 62
     7
 10
165.568603515625
 20
594.415490712977
 30
0.0
 11
165.568603515625
 21
602.215490732348
 31
0.0
  0
LINE
  5
   559
  8
0
  6
DASHDOT
 62
     7
 10
161.668603505939
 20
491.815490722649
 30
0.0
 11
169.533603527248
 21
491.815490722649
 31
0.0
  0
LINE
  5
   55A
  8
0
  6
DASHDOT
 62
     7
 10
165.568603515625
 20
487.915490712964
 30
0.0
 11
165.568603515625
 21
495.715490732335
 31
0.0
  0
LINE
  5
   55B
  8
0
  6
DASHDOT
 62
     7
 10
175.468603502959
 20
598.565490722663
 30
0.0
 11
185.753603530824
 21
598.565490722663
 31
0.0
  0
LINE
  5
   55C
  8
0
  6
DASHDOT
 62
     7
 10
180.568603515625
 20
593.465490709997
 30
0.0
 11
180.568603515625
 21
603.665490735329
 31
0.0
  0
LINE
  5
   55D
  8
0
  6
DASHDOT
 62
     7
 10
205.468603502959
 20
491.56549072265
 30
0.0
 11
215.753603530824
 21
491.56549072265
 31
0.0
  0
LINE
  5
   55E
  8
0
  6
DASHDOT
 62
     7
 10
210.568603515625
 20
486.465490709984
 30
0.0
 11
210.568603515625
 21
496.665490735316
 31
0.0
  0
LINE
  5
   55F
  8
0
  6
DASHDOT
 62
     7
 10
191.668603505939
 20
491.81549072265
 30
0.0
 11
199.533603527248
 21
491.81549072265
 31
0.0
  0
LINE
  5
   560
  8
0
  6
DASHDOT
 62
     7
 10
195.568603515625
 20
487.915490712964
 30
0.0
 11
195.568603515625
 21
495.715490732336
 31
0.0
  0
LINE
  5
   561
  8
0
  6
DASHDOT
 62
     7
 10
221.66860350594
 20
491.815490722649
 30
0.0
 11
229.533603527248
 21
491.815490722649
 31
0.0
  0
LINE
  5
   562
  8
0
  6
DASHDOT
 62
     7
 10
225.568603515625
 20
487.915490712964
 30
0.0
 11
225.568603515625
 21
495.715490732335
 31
0.0
  0
LINE
  5
   563
  8
0
  6
DASHDOT
 62
     7
 10
191.66860350594
 20
598.315490722663
 30
0.0
 11
199.533603527248
 21
598.315490722663
 31
0.0
  0
LINE
  5
   564
  8
0
  6
DASHDOT
 62
     7
 10
195.568603515625
 20
594.415490712977
 30
0.0
 11
195.568603515625
 21
602.215490732348
 31
0.0
  0
LINE
  5
   565
  8
0
  6
DASHDOT
 62
     7
 10
221.66860350594
 20
598.315490722662
 30
0.0
 11
229.533603527248
 21
598.315490722662
 31
0.0
  0
LINE
  5
   566
  8
0
  6
DASHDOT
 62
     7
 10
225.568603515625
 20
594.415490712977
 30
0.0
 11
225.568603515625
 21
602.215490732348
 31
0.0
  0
LINE
  5
   567
  8
0
  6
CONTINUOUS
 62
     7
 10
145.568603515684
 20
473.989825941782
 30
0.0
 11
145.568603515684
 21
616.358764991678
 31
0.0
  0
ARC
  5
   568
  8
0
  6
DOT
 62
     3
 10
123.068593720607
 20
609.065500517681
 30
0.0
 40
0.999999999999769
 50
89.9994387813277
 51
180.000561218999
  0
LINE
  5
   569
  8
0
  6
DOT
 62
     3
 10
120.568603515625
 20
595.415489196777
 30
0.0
 11
120.568603515625
 21
604.065490722656
 31
0.0
  0
LINE
  5
   56A
  8
0
  6
DOT
 62
     3
 10
123.068603515625
 20
610.065490722663
 30
0.0
 11
145.568603515684
 21
610.065490722663
 31
0.0
  0
LINE
  5
   56B
  8
0
  6
DOT
 62
     3
 10
122.068603515625
 20
608.065490722663
 30
0.0
 11
123.068603515625
 21
608.065490722663
 31
0.0
  0
LINE
  5
   56C
  8
0
  6
DOT
 62
     3
 10
123.068603515625
 20
608.065490722663
 30
0.0
 11
123.568603515625
 21
608.065490722663
 31
0.0
  0
LINE
  5
   56D
  8
0
  6
DOT
 62
     3
 10
123.568603515625
 20
605.065490722656
 30
0.0
 11
123.568603515625
 21
608.065490722656
 31
0.0
  0
LINE
  5
   56E
  8
0
  6
DOT
 62
     3
 10
122.068603515625
 20
605.065490722663
 30
0.0
 11
123.068603515625
 21
605.065490722663
 31
0.0
  0
LINE
  5
   56F
  8
0
  6
DOT
 62
     3
 10
123.068603515625
 20
605.065490722663
 30
0.0
 11
123.568603515625
 21
605.065490722663
 31
0.0
  0
LINE
  5
   570
  8
0
  6
DOT
 62
     3
 10
120.568603515625
 20
604.065490722663
 30
0.0
 11
122.068603515625
 21
604.065490722663
 31
0.0
  0
LINE
  5
   571
  8
0
  6
DOT
 62
     3
 10
122.068603515625
 20
604.065490722663
 30
0.0
 11
123.068603515625
 21
604.065490722663
 31
0.0
  0
LINE
  5
   572
  8
0
  6
DOT
 62
     3
 10
122.068603515625
 20
604.065490722656
 30
0.0
 11
122.068603515625
 21
605.065490722656
 31
0.0
  0
LINE
  5
   573
  8
0
  6
DOT
 62
     3
 10
122.068603515625
 20
608.065490722656
 30
0.0
 11
122.068603515625
 21
609.065490722656
 31
0.0
  0
ARC
  5
   574
  8
0
  6
DOT
 62
     3
 10
123.068593878814
 20
481.0654754924
 30
0.0
 40
0.999999999999718
 50
179.999345930258
 51
270.000552154896
  0
LINE
  5
   575
  8
0
  6
DOT
 62
     3
 10
122.068603515625
 20
482.065485287422
 30
0.0
 11
123.068603515625
 21
482.065485287422
 31
0.0
  0
LINE
  5
   576
  8
0
  6
DOT
 62
     3
 10
122.068603515625
 20
485.065485287422
 30
0.0
 11
123.068603515625
 21
485.065485287422
 31
0.0
  0
LINE
  5
   577
  8
0
  6
DOT
 62
     3
 10
123.068603515625
 20
480.065485042912
 30
0.0
 11
145.568603515684
 21
480.065485042912
 31
0.0
  0
LINE
  5
   578
  8
0
  6
DOT
 62
     3
 10
120.568588256836
 20
486.06548529749
 30
0.0
 11
122.068603515625
 21
486.06548529749
 31
0.0
  0
LINE
  5
   579
  8
0
  6
DOT
 62
     3
 10
122.068603673837
 20
481.065486907959
 30
0.0
 11
122.068603673837
 21
482.065486907959
 31
0.0
  0
LINE
  5
   57A
  8
0
  6
DOT
 62
     3
 10
122.068603673837
 20
485.065486907959
 30
0.0
 11
122.068603673837
 21
486.065486907959
 31
0.0
  0
LINE
  5
   57B
  8
0
  6
DOT
 62
     3
 10
122.068603515625
 20
486.06548529749
 30
0.0
 11
123.068603515625
 21
486.06548529749
 31
0.0
  0
LINE
  5
   57C
  8
0
  6
DOT
 62
     3
 10
123.568588256836
 20
486.06548529749
 30
0.0
 11
123.883735656738
 21
486.06548529749
 31
0.0
  0
LINE
  5
   57D
  8
0
  6
DOT
 62
     3
 10
123.568603153175
 20
482.065486907959
 30
0.0
 11
123.568603153175
 21
485.065486907959
 31
0.0
  0
LINE
  5
   57E
  8
0
  6
DOT
 62
     3
 10
123.068603515625
 20
482.065485042911
 30
0.0
 11
123.568603515625
 21
482.065485042911
 31
0.0
  0
LINE
  5
   57F
  8
0
  6
DOT
 62
     3
 10
123.068603515625
 20
485.065485042911
 30
0.0
 11
123.568603515625
 21
485.065485042911
 31
0.0
  0
LINE
  5
   580
  8
0
  6
DOT
 62
     3
 10
121.268603515684
 20
592.865489959717
 30
0.0
 11
121.268603515684
 21
593.565490722656
 31
0.0
  0
LINE
  5
   581
  8
0
  6
DOT
 62
     3
 10
121.268604278564
 20
593.565490722656
 30
0.0
 11
124.268604278564
 21
593.565490722656
 31
0.0
  0
LINE
  5
   582
  8
0
  6
DOT
 62
     3
 10
124.268604278564
 20
593.565490722656
 30
0.0
 11
139.191313309039
 21
593.565490722656
 31
0.0
  0
LINE
  5
   583
  8
0
  6
DOT
 62
     3
 10
121.268604278564
 20
496.565490722656
 30
0.0
 11
124.268604278564
 21
496.565490722656
 31
0.0
  0
LINE
  5
   584
  8
0
  6
DOT
 62
     3
 10
124.268604278564
 20
496.565490722656
 30
0.0
 11
139.956881098676
 21
496.565490722656
 31
0.0
  0
ARC
  5
   585
  8
0
  6
DOT
 62
     3
 10
135.568559122673
 20
598.315490722662
 30
0.0
 40
3.25002828292661
 50
17.9997249125242
 51
89.9989819969237
  0
CIRCLE
  5
   586
  8
0
  6
DOT
 62
     3
 10
135.568647908577
 20
598.315490722663
 30
0.0
 40
3.25002828292623
  0
ARC
  5
   587
  8
0
  6
DOT
 62
     3
 10
135.568603515624
 20
598.315490722664
 30
0.0
 40
3.25000000000145
 50
305.987326377815
 51
342.016110303983
  0
ARC
  5
   588
  8
0
  6
DOT
 62
     3
 10
135.568603515625
 20
598.315490722663
 30
0.0
 40
3.24999999999981
 50
125.987366199816
 51
162.016120780896
  0
CIRCLE
  5
   589
  8
0
  6
DOT
 62
     3
 10
135.568647908577
 20
491.815490722649
 30
0.0
 40
3.25002828292619
  0
LINE
  5
   58A
  8
0
  6
DOT
 62
     3
 10
120.568603515625
 20
592.865490722656
 30
0.0
 11
123.018604278564
 21
592.865490722656
 31
0.0
  0
LINE
  5
   58B
  8
0
  6
DOT
 62
     3
 10
123.018604278564
 20
592.865490722656
 30
0.0
 11
123.518604278564
 21
592.865490722656
 31
0.0
  0
LINE
  5
   58C
  8
0
  6
DOT
 62
     3
 10
125.318603515625
 20
592.865490722656
 30
0.0
 11
126.618602752686
 21
592.865490722656
 31
0.0
  0
LINE
  5
   58D
  8
0
  6
DOT
 62
     3
 10
123.518604278564
 20
592.865490722656
 30
0.0
 11
124.818603515625
 21
592.865490722656
 31
0.0
  0
LINE
  5
   58E
  8
0
  6
DOT
 62
     3
 10
124.818603515625
 20
592.865490722656
 30
0.0
 11
125.318603515625
 21
592.865490722656
 31
0.0
  0
LINE
  5
   58F
  8
0
  6
DOT
 62
     3
 10
126.618602752686
 20
592.865490722656
 30
0.0
 11
127.118602752686
 21
592.865490722656
 31
0.0
  0
LINE
  5
   590
  8
0
  6
DOT
 62
     3
 10
120.568603515625
 20
497.265490722656
 30
0.0
 11
123.018604278564
 21
497.265490722656
 31
0.0
  0
LINE
  5
   591
  8
0
  6
DOT
 62
     3
 10
123.018604278564
 20
497.265490722656
 30
0.0
 11
123.518604278564
 21
497.265490722656
 31
0.0
  0
LINE
  5
   592
  8
0
  6
DOT
 62
     3
 10
125.318603515625
 20
497.265490722656
 30
0.0
 11
126.618602752686
 21
497.265490722656
 31
0.0
  0
LINE
  5
   593
  8
0
  6
DOT
 62
     3
 10
126.618602752686
 20
497.265490722656
 30
0.0
 11
127.118602752686
 21
497.265490722656
 31
0.0
  0
LINE
  5
   594
  8
0
  6
DOT
 62
     3
 10
123.068603515625
 20
486.065490722656
 30
0.0
 11
145.568603515684
 21
486.065490722656
 31
0.0
  0
LINE
  5
   595
  8
0
  6
DOT
 62
     3
 10
122.068603515625
 20
486.065490722656
 30
0.0
 11
123.068603515625
 21
486.065490722656
 31
0.0
  0
LINE
  5
   596
  8
0
  6
DOT
 62
     3
 10
123.068603515625
 20
604.065490722663
 30
0.0
 11
145.568603515684
 21
604.065490722663
 31
0.0
  0
LINE
  5
   597
  8
0
  6
DOT
 62
     3
 10
122.068603515625
 20
604.065490722663
 30
0.0
 11
123.068603515625
 21
604.065490722663
 31
0.0
  0
LINE
  5
   598
  8
0
  6
DOT
 62
     3
 10
122.068603515684
 20
486.065490722656
 30
0.0
 11
122.068603515684
 21
496.565490722656
 31
0.0
  0
LINE
  5
   599
  8
0
  6
DOT
 62
     3
 10
122.068603515684
 20
593.565490722656
 30
0.0
 11
122.068603515684
 21
604.065490722656
 31
0.0
  0
LINE
  5
   59A
  8
0
  6
DOT
 62
     3
 10
121.268603515684
 20
496.565490722656
 30
0.0
 11
121.268603515684
 21
497.265491485596
 31
0.0
  0
LINE
  5
   59B
  8
0
  6
DASHDOT
 62
     7
 10
131.668603505939
 20
598.315490722663
 30
0.0
 11
139.533603527247
 21
598.315490722663
 31
0.0
  0
LINE
  5
   59C
  8
0
  6
DASHDOT
 62
     7
 10
135.568603515625
 20
594.415490712977
 30
0.0
 11
135.568603515625
 21
602.215490732348
 31
0.0
  0
LINE
  5
   59D
  8
0
  6
DASHDOT
 62
     7
 10
131.668603505939
 20
491.815490722649
 30
0.0
 11
139.533603527248
 21
491.815490722649
 31
0.0
  0
LINE
  5
   59E
  8
0
  6
DASHDOT
 62
     7
 10
135.568603515625
 20
487.915490712964
 30
0.0
 11
135.568603515625
 21
495.715490732335
 31
0.0
  0
INSERT
  5
   59F
  8
0
  6
CONTINUOUS
 62
     7
  2
*HATCH1256
 10
0.0
 20
0.0
 30
0.0
  0
INSERT
  5
   5A0
  8
0
  6
CONTINUOUS
 62
     7
  2
*HATCH1257
 10
0.0
 20
0.0
 30
0.0
  0
INSERT
  5
   5A1
  8
0
  6
CONTINUOUS
 62
     7
  2
*HATCH1258
 10
0.0
 20
0.0
 30
0.0
  0
INSERT
  5
   5A2
  8
0
  6
CONTINUOUS
 62
     7
  2
*UDIM1501
 10
0.0
 20
0.0
 30
0.0
  0
INSERT
  5
   5A3
  8
0
  6
CONTINUOUS
 62
     7
  2
*UDIM1502
 10
0.0
 20
0.0
 30
0.0
  0
INSERT
  5
   5A4
  8
0
  6
CONTINUOUS
 62
     7
  2
*UDIM1503
 10
0.0
 20
0.0
 30
0.0
  0
INSERT
  5
   5A5
  8
0
  6
CONTINUOUS
 62
     7
  2
*UDIM1504
 10
0.0
 20
0.0
 30
0.0
  0
INSERT
  5
   5A6
  8
0
  6
CONTINUOUS
 62
     7
  2
*UDIM1505
 10
0.0
 20
0.0
 30
0.0
  0
INSERT
  5
   5A7
  8
0
  6
CONTINUOUS
 62
     7
  2
*UDIM1506
 10
0.0
 20
0.0
 30
0.0
  0
INSERT
  5
   5A8
  8
0
  6
CONTINUOUS
 62
     7
  2
*UDIM1507
 10
0.0
 20
0.0
 30
0.0
  0
INSERT
  5
   5A9
  8
0
  6
CONTINUOUS
 62
     7
  2
*UDIM1508
 10
0.0
 20
0.0
 30
0.0
  0
TEXT
  5
   5AA
  8
0
  6
CONTINUOUS
 62
     7
 10
243.390033545883
 20
546.289447703964
 30
0.0
 40
3.00000002980232
  1
X
 41
0.933333333333334
 11
243.390033545883
 21
547.789447718866
 31
0.0
 73
     2
  0
TEXT
  5
   5AB
  8
0
  6
CONTINUOUS
 62
     7
 10
196.782049302258
 20
467.432327591234
 30
0.0
 40
3.00000002980232
  1
Y
 41
0.933333333333334
 72
     1
 11
197.882049313186
 21
468.932327606135
 31
0.0
 73
     2
  0
ARC
  5
   5AC
  8
0
  6
CONTINUOUS
 62
     2
 10
193.068636070586
 20
479.065490722201
 30
0.0
 40
2.50000000000022
 50
203.578178466823
 51
270.000002483977
  0
ARC
  5
   5AD
  8
0
  6
CONTINUOUS
 62
     2
 10
198.068570960664
 20
479.065490722201
 30
0.0
 40
4.49999999999983
 50
270.000001655648
 51
347.160411599042
  0
ARC
  5
   5AE
  8
0
  6
CONTINUOUS
 62
     2
 10
193.068636070586
 20
479.065490722201
 30
0.0
 40
4.49999999999985
 50
192.839588400959
 51
270.000001379992
  0
ARC
  5
   5AF
  8
0
  6
CONTINUOUS
 62
     2
 10
198.068570960664
 20
479.065490722201
 30
0.0
 40
2.50000000000017
 50
270.000002980173
 51
336.421821533178
  0
LINE
  5
   5B0
  8
0
  6
CONTINUOUS
 62
     2
 10
193.06863617897
 20
476.565490722201
 30
0.0
 11
198.068571090698
 21
476.565490722201
 31
0.0
  0
LINE
  5
   5B1
  8
0
  6
CONTINUOUS
 62
     2
 10
193.06863617897
 20
474.565490722201
 30
0.0
 11
198.068571090698
 21
474.565490722201
 31
0.0
  0
INSERT
  5
   5B2
  8
0
  6
CONTINUOUS
 62
     7
  2
*HATCH1259
 10
0.0
 20
0.0
 30
0.0
  0
INSERT
  5
   5B3
  8
0
  6
CONTINUOUS
 62
     7
  2
*HATCH1260
 10
0.0
 20
0.0
 30
0.0
  0
INSERT
  5
   5B4
  8
0
  6
CONTINUOUS
 62
     7
  2
*HATCH1261
 10
0.0
 20
0.0
 30
0.0
  0
INSERT
  5
   5B5
  8
0
  6
CONTINUOUS
 62
     7
  2
*HATCH1262
 10
0.0
 20
0.0
 30
0.0
  0
LINE
  5
   5B6
  8
0
  6
DASHDOT
 62
     7
 10
270.227288937538
 20
545.065490722656
 30
0.0
 11
396.300395884043
 21
545.065490722656
 31
0.0
  0
LINE
  5
   5B7
  8
0
  6
CONTINUOUS
 62
     2
 10
355.774997711182
 20
611.931518554688
 30
0.0
 11
355.982105255127
 21
611.772598266602
 31
0.0
  0
LINE
  5
   5B8
  8
0
  6
CONTINUOUS
 62
     2
 10
355.774997711182
 20
478.199466705322
 30
0.0
 11
355.982105255127
 21
478.358383178711
 31
0.0
  0
LINE
  5
   5B9
  8
0
  6
CONTINUOUS
 62
     2
 10
355.982105255127
 20
478.358383178711
 30
0.0
 11
356.273010253906
 21
479.051013946533
 31
0.0
  0
LINE
  5
   5BA
  8
0
  6
CONTINUOUS
 62
    98
 10
355.742595672607
 20
496.565490722656
 30
0.0
 11
355.742595672607
 21
497.265491485596
 31
0.0
  0
LINE
  5
   5BB
  8
0
  6
CONTINUOUS
 62
    98
 10
368.820739746094
 20
560.465490341187
 30
0.0
 11
368.820739746094
 21
560.565490722656
 31
0.0
  0
LINE
  5
   5BC
  8
0
  6
CONTINUOUS
 62
    98
 10
355.742595672607
 20
592.865489959717
 30
0.0
 11
355.742595672607
 21
593.565490722656
 31
0.0
  0
LINE
  5
   5BD
  8
0
  6
CONTINUOUS
 62
    98
 10
368.820972442627
 20
518.565490722656
 30
0.0
 11
368.820972442627
 21
518.665491104126
 31
0.0
  0
ARC
  5
   5BE
  8
0
  6
CONTINUOUS
 62
     1
 10
369.074998490628
 20
518.865488763651
 30
0.0
 40
0.199999999998376
 50
269.999558133837
 51
360.000615857294
  0
ARC
  5
   5BF
  8
0
  6
CONTINUOUS
 62
     1
 10
369.074996531464
 20
560.265490722498
 30
0.0
 40
0.199999999998886
 50
2.18611050606678E-4
 51
90.0075304280247
  0
LINE
  5
   5C0
  8
0
  6
CONTINUOUS
 62
     2
 10
368.717261695544
 20
518.565491053202
 30
0.0
 11
368.774996991693
 21
518.665491519523
 31
0.0
  0
LINE
  5
   5C1
  8
0
  6
CONTINUOUS
 62
     2
 10
364.274996531622
 20
518.865490913391
 30
0.0
 11
364.274996531622
 21
560.265491485596
 31
0.0
  0
LINE
  5
   5C2
  8
0
  6
CONTINUOUS
 62
     1
 10
364.608674509772
 20
560.465490722656
 30
0.0
 11
369.074970245361
 21
560.465490722656
 31
0.0
  0
LINE
  5
   5C3
  8
0
  6
CONTINUOUS
 62
     1
 10
364.274997711182
 20
560.465490722656
 30
0.0
 11
364.774996531622
 21
560.465490722656
 31
0.0
  0
LINE
  5
   5C4
  8
0
  6
CONTINUOUS
 62
     1
 10
369.274996531622
 20
518.865490913391
 30
0.0
 11
369.274996531622
 21
560.265491485596
 31
0.0
  0
LINE
  5
   5C5
  8
0
  6
CONTINUOUS
 62
     2
 10
367.774996531622
 20
518.565490722656
 30
0.0
 11
367.774996531622
 21
518.665491104126
 31
0.0
  0
LINE
  5
   5C6
  8
0
  6
CONTINUOUS
 62
     2
 10
353.274997711182
 20
592.865490722656
 30
0.0
 11
356.274997711182
 21
592.865490722656
 31
0.0
  0
LINE
  5
   5C7
  8
0
  6
CONTINUOUS
 62
     2
 10
356.274997865479
 20
562.065490722656
 30
0.0
 11
356.274997865479
 21
592.865489959717
 31
0.0
  0
LINE
  5
   5C8
  8
0
  6
CONTINUOUS
 62
     2
 10
355.574997865479
 20
592.865489959717
 30
0.0
 11
355.574997865479
 21
593.565490722656
 31
0.0
  0
LINE
  5
   5C9
  8
0
  6
CONTINUOUS
 62
     2
 10
353.274997711182
 20
497.265490722656
 30
0.0
 11
356.274997711182
 21
497.265490722656
 31
0.0
  0
LINE
  5
   5CA
  8
0
  6
CONTINUOUS
 62
     2
 10
356.274997865479
 20
497.265491485596
 30
0.0
 11
356.274997865479
 21
517.065490722656
 31
0.0
  0
LINE
  5
   5CB
  8
0
  6
CONTINUOUS
 62
     2
 10
355.574997865479
 20
496.565490722656
 30
0.0
 11
355.574997865479
 21
497.265491485596
 31
0.0
  0
LINE
  5
   5CC
  8
0
  6
CONTINUOUS
 62
     2
 10
369.274996531622
 20
517.065490722656
 30
0.0
 11
369.274996531622
 21
518.565490722656
 31
0.0
  0
LINE
  5
   5CD
  8
0
  6
CONTINUOUS
 62
     2
 10
363.640251221768
 20
517.065490722657
 30
0.0
 11
369.274997711182
 21
517.065490722657
 31
0.0
  0
LINE
  5
   5CE
  8
0
  6
CONTINUOUS
 62
     2
 10
366.774996531623
 20
518.565490722657
 30
0.0
 11
369.274997711182
 21
518.565490722657
 31
0.0
  0
LINE
  5
   5CF
  8
0
  6
CONTINUOUS
 62
     2
 10
369.274996531622
 20
560.565490722656
 30
0.0
 11
369.274996531622
 21
562.065490722656
 31
0.0
  0
LINE
  5
   5D0
  8
0
  6
CONTINUOUS
 62
     2
 10
366.774996531623
 20
560.565490722657
 30
0.0
 11
369.274997711182
 21
560.565490722657
 31
0.0
  0
LINE
  5
   5D1
  8
0
  6
CONTINUOUS
 62
     2
 10
366.774996531623
 20
562.065490722656
 30
0.0
 11
369.274997711182
 21
562.065490722656
 31
0.0
  0
LINE
  5
   5D2
  8
0
  6
CONTINUOUS
 62
     2
 10
367.57499653162
 20
560.465490341187
 30
0.0
 11
367.57499653162
 21
560.565490722656
 31
0.0
  0
LINE
  5
   5D3
  8
0
  6
CONTINUOUS
 62
     2
 10
367.57499653162
 20
518.565490722656
 30
0.0
 11
367.57499653162
 21
518.665491104126
 31
0.0
  0
LINE
  5
   5D4
  8
0
  6
CONTINUOUS
 62
     2
 10
348.974998474121
 20
497.265490722656
 30
0.0
 11
353.274997711182
 21
497.265490722656
 31
0.0
  0
LINE
  5
   5D5
  8
0
  6
CONTINUOUS
 62
     2
 10
348.974998474121
 20
592.865490722656
 30
0.0
 11
353.274997711182
 21
592.865490722656
 31
0.0
  0
LINE
  5
   5D6
  8
0
  6
CONTINUOUS
 62
     2
 10
348.974997865479
 20
586.065490722656
 30
0.0
 11
348.974997865479
 21
591.065490722656
 31
0.0
  0
LINE
  5
   5D7
  8
0
  6
CONTINUOUS
 62
     2
 10
353.274997711182
 20
562.065490722658
 30
0.0
 11
362.274997711182
 21
562.065490722658
 31
0.0
  0
LINE
  5
   5D8
  8
0
  6
CONTINUOUS
 62
     2
 10
362.274997711182
 20
562.065490722658
 30
0.0
 11
364.274997711182
 21
562.065490722658
 31
0.0
  0
LINE
  5
   5D9
  8
0
  6
CONTINUOUS
 62
     2
 10
353.274997711182
 20
517.065490722656
 30
0.0
 11
362.274997711182
 21
517.065490722656
 31
0.0
  0
LINE
  5
   5DA
  8
0
  6
CONTINUOUS
 62
     2
 10
362.274997711182
 20
517.065490722658
 30
0.0
 11
364.274997711182
 21
517.065490722658
 31
0.0
  0
LINE
  5
   5DB
  8
0
  6
CONTINUOUS
 62
     2
 10
364.274997711182
 20
517.065490722657
 30
0.0
 11
364.774996531622
 21
517.065490722657
 31
0.0
  0
LINE
  5
   5DC
  8
0
  6
CONTINUOUS
 62
     2
 10
364.274997711182
 20
518.565490722657
 30
0.0
 11
367.056077547839
 21
518.565490722657
 31
0.0
  0
LINE
  5
   5DD
  8
0
  6
CONTINUOUS
 62
     2
 10
364.274997711182
 20
560.565490722657
 30
0.0
 11
367.148586006332
 21
560.565490722657
 31
0.0
  0
LINE
  5
   5DE
  8
0
  6
CONTINUOUS
 62
     2
 10
364.274997711182
 20
562.065490722657
 30
0.0
 11
368.295604343502
 21
562.065490722657
 31
0.0
  0
LINE
  5
   5DF
  8
0
  6
CONTINUOUS
 62
     2
 10
364.274996531622
 20
518.565490722656
 30
0.0
 11
364.274996531622
 21
560.565490722656
 31
0.0
  0
LINE
  5
   5E0
  8
0
  6
CONTINUOUS
 62
     2
 10
348.277801513672
 20
593.565490722656
 30
0.0
 11
348.974998474121
 21
593.565490722656
 31
0.0
  0
LINE
  5
   5E1
  8
0
  6
CONTINUOUS
 62
     2
 10
348.277801513672
 20
496.565490722656
 30
0.0
 11
348.974998474121
 21
496.565490722656
 31
0.0
  0
LINE
  5
   5E2
  8
0
  6
CONTINUOUS
 62
     2
 10
348.974997865479
 20
497.265491485596
 30
0.0
 11
348.974997865479
 21
586.065490722656
 31
0.0
  0
LINE
  5
   5E3
  8
0
  6
CONTINUOUS
 62
     2
 10
348.974997865479
 20
591.065490722656
 30
0.0
 11
348.974997865479
 21
592.865489959717
 31
0.0
  0
LINE
  5
   5E4
  8
0
  6
CONTINUOUS
 62
     2
 10
348.274997865479
 20
535.065490722656
 30
0.0
 11
348.274997865479
 21
547.565490722656
 31
0.0
  0
LINE
  5
   5E5
  8
0
  6
CONTINUOUS
 62
     7
 10
374.320461436915
 20
549.99121040199
 30
0.0
 11
383.043746817653
 21
552.658186386001
 31
0.0
  0
LINE
  5
   5E6
  8
0
  6
CONTINUOUS
 62
     7
 10
369.274997642636
 20
557.097488725804
 30
0.0
 11
372.657169235884
 21
557.816391490642
 31
0.0
  0
LINE
  5
   5E7
  8
0
  6
CONTINUOUS
 62
     7
 10
369.274997738215
 20
548.918763987199
 30
0.0
 11
374.320461388966
 21
549.991210392834
 31
0.0
  0
LINE
  5
   5E8
  8
0
  6
CONTINUOUS
 62
     7
 10
374.0698432605
 20
550.960279456514
 30
0.0
 11
374.320453633127
 21
549.99120896171
 31
0.0
  0
ARC
  5
   5E9
  8
0
  6
CONTINUOUS
 62
     7
 10
381.832920753239
 20
557.935534066715
 30
0.0
 40
1.00000000000004
 50
11.9993863701991
 51
97.0005011880962
  0
ARC
  5
   5EA
  8
0
  6
CONTINUOUS
 62
     7
 10
382.751374730771
 20
553.614491025591
 30
0.0
 40
0.999999999999285
 50
287.000022888761
 51
372.000008871022
  0
LINE
  5
   5EB
  8
0
  6
CONTINUOUS
 62
     7
 10
372.657169294326
 20
557.816391379823
 30
0.0
 11
381.711044167021
 21
558.928067430536
 31
0.0
  0
LINE
  5
   5EC
  8
0
  6
CONTINUOUS
 62
     7
 10
372.657162749618
 20
557.816389887984
 30
0.0
 11
372.822372349686
 21
556.829166397821
 31
0.0
  0
LINE
  5
   5ED
  8
0
  6
CONTINUOUS
 62
     7
 10
382.811059028898
 20
558.143432826442
 30
0.0
 11
383.729522299749
 21
553.822402867946
 31
0.0
  0
LINE
  5
   5EE
  8
0
  6
CONTINUOUS
 62
     3
 10
348.277801513672
 20
562.565490722656
 30
0.0
 11
348.974998474121
 21
562.565490722656
 31
0.0
  0
LINE
  5
   5EF
  8
0
  6
CONTINUOUS
 62
   253
 10
348.277801513672
 20
591.065490722656
 30
0.0
 11
348.974998474121
 21
591.065490722656
 31
0.0
  0
LINE
  5
   5F0
  8
0
  6
CONTINUOUS
 62
     3
 10
348.277801513673
 20
562.565490722656
 30
0.0
 11
348.277801513673
 21
577.565490722656
 31
0.0
  0
LINE
  5
   5F1
  8
0
  6
CONTINUOUS
 62
     1
 10
348.277801513673
 20
534.065490722656
 30
0.0
 11
348.277801513673
 21
535.065490722656
 31
0.0
  0
LINE
  5
   5F2
  8
0
  6
CONTINUOUS
 62
   253
 10
348.277801513672
 20
521.265490531921
 30
0.0
 11
348.277801513672
 21
534.065490722656
 31
0.0
  0
LINE
  5
   5F3
  8
0
  6
CONTINUOUS
 62
   253
 10
348.277801513672
 20
548.465490341187
 30
0.0
 11
348.277801513672
 21
562.565490722656
 31
0.0
  0
LINE
  5
   5F4
  8
0
  6
CONTINUOUS
 62
   253
 10
348.277801513672
 20
591.065490722656
 30
0.0
 11
348.277801513672
 21
604.065490722656
 31
0.0
  0
LINE
  5
   5F5
  8
0
  6
CONTINUOUS
 62
   253
 10
348.277801513672
 20
547.565490722656
 30
0.0
 11
348.277801513672
 21
548.465490341187
 31
0.0
  0
LINE
  5
   5F6
  8
0
  6
CONTINUOUS
 62
   253
 10
348.277801513672
 20
577.565490722656
 30
0.0
 11
348.277801513672
 21
586.065490722656
 31
0.0
  0
LINE
  5
   5F7
  8
0
  6
CONTINUOUS
 62
   253
 10
348.277801513672
 20
486.065490722656
 30
0.0
 11
348.277801513672
 21
521.265490531921
 31
0.0
  0
LINE
  5
   5F8
  8
0
  6
CONTINUOUS
 62
   253
 10
348.277801513672
 20
586.065490722656
 30
0.0
 11
348.277801513672
 21
591.065490722656
 31
0.0
  0
LINE
  5
   5F9
  8
0
  6
CONTINUOUS
 62
   253
 10
335.777801513672
 20
604.065490722656
 30
0.0
 11
348.277801513672
 21
604.065490722656
 31
0.0
  0
LINE
  5
   5FA
  8
0
  6
CONTINUOUS
 62
   253
 10
335.777801513672
 20
486.065490722656
 30
0.0
 11
348.277801513672
 21
486.065490722656
 31
0.0
  0
LINE
  5
   5FB
  8
0
  6
CONTINUOUS
 62
   253
 10
335.077800750732
 20
486.065490722656
 30
0.0
 11
335.777801513672
 21
486.065490722656
 31
0.0
  0
LINE
  5
   5FC
  8
0
  6
CONTINUOUS
 62
   253
 10
286.277801513672
 20
486.065490722656
 30
0.0
 11
335.077800750732
 21
486.065490722656
 31
0.0
  0
LINE
  5
   5FD
  8
0
  6
CONTINUOUS
 62
   253
 10
335.077800750732
 20
604.065490722656
 30
0.0
 11
335.777801513672
 21
604.065490722656
 31
0.0
  0
LINE
  5
   5FE
  8
0
  6
CONTINUOUS
 62
   253
 10
286.277801513672
 20
604.065490722656
 30
0.0
 11
335.077800750732
 21
604.065490722656
 31
0.0
  0
LINE
  5
   5FF
  8
0
  6
CONTINUOUS
 62
     3
 10
286.277801513672
 20
536.065490722656
 30
0.0
 11
286.277801513672
 21
546.565490722656
 31
0.0
  0
LINE
  5
   600
  8
0
  6
CONTINUOUS
 62
   253
 10
286.277801513672
 20
546.565490722656
 30
0.0
 11
286.277801513672
 21
604.065490722656
 31
0.0
  0
LINE
  5
   601
  8
0
  6
CONTINUOUS
 62
   253
 10
286.277801513672
 20
486.065490722656
 30
0.0
 11
286.277801513672
 21
536.065490722656
 31
0.0
  0
ARC
  5
   602
  8
0
  6
CONTINUOUS
 62
     1
 10
355.274996720278
 20
611.065490721879
 30
0.0
 40
0.999999999982422
 50
60.0002389820122
 51
89.9999432253879
  0
POLYLINE
  5
   603
  8
0
  6
CONTINUOUS
 62
     1
 66
     1
 10
0.0
 20
0.0
 30
0.0
  0
VERTEX
  5
   604
  8
0
  6
CONTINUOUS
 10
355.774991880848
 20
611.92391439276
 30
0.0
 40
0.0
 41
0.0
  0
VERTEX
  5
   605
  8
0
  6
CONTINUOUS
 10
356.172582494672
 20
611.483353005286
 30
0.0
 40
0.0
 41
0.0
  0
VERTEX
  5
   606
  8
0
  6
CONTINUOUS
 10
356.264520204259
 20
611.065490722586
 30
0.0
 40
0.0
 41
0.0
  0
SEQEND
  5
   607
  8
0
  6
CONTINUOUS
 62
     1
  0
LINE
  5
   608
  8
0
  6
CONTINUOUS
 62
     1
 10
356.274996721069
 20
593.565490722656
 30
0.0
 11
356.274996721069
 21
611.065490722656
 31
0.0
  0
ARC
  5
   609
  8
0
  6
CONTINUOUS
 62
     1
 10
355.274996721072
 20
611.065490722658
 30
0.0
 40
0.99999999999568
 50
0.0
 51
42.656453855958
  0
ARC
  5
   60A
  8
0
  6
CONTINUOUS
 62
     1
 10
355.274996721228
 20
611.065490722903
 30
0.0
 40
0.999999999706666
 50
53.4176582658487
 51
60.0000204359528
  0
LINE
  5
   60B
  8
0
  6
CONTINUOUS
 62
     1
 10
355.774996721068
 20
611.924293518067
 30
0.0
 11
355.774996721068
 21
611.931526184082
 31
0.0
  0
LINE
  5
   60C
  8
0
  6
CONTINUOUS
 62
     1
 10
353.274997711182
 20
593.565490722656
 30
0.0
 11
356.269779205322
 21
593.565490722656
 31
0.0
  0
LINE
  5
   60D
  8
0
  6
CONTINUOUS
 62
     1
 10
356.269779205322
 20
593.565490722656
 30
0.0
 11
356.274997711182
 21
593.565490722656
 31
0.0
  0
LINE
  5
   60E
  8
0
  6
CONTINUOUS
 62
     1
 10
348.277801513672
 20
593.565490722656
 30
0.0
 11
348.974998474121
 21
593.565490722656
 31
0.0
  0
LINE
  5
   60F
  8
0
  6
CONTINUOUS
 62
     1
 10
286.274995803833
 20
604.065490722656
 30
0.0
 11
286.277801513672
 21
604.065490722656
 31
0.0
  0
LINE
  5
   610
  8
0
  6
CONTINUOUS
 62
     1
 10
286.274996721069
 20
611.065490722656
 30
0.0
 11
286.274996721069
 21
612.065490722656
 31
0.0
  0
LINE
  5
   611
  8
0
  6
CONTINUOUS
 62
     1
 10
286.274996721069
 20
604.065490722656
 30
0.0
 11
286.274996721069
 21
604.765487670899
 31
0.0
  0
LINE
  5
   612
  8
0
  6
CONTINUOUS
 62
     1
 10
286.274995803833
 20
612.065490722656
 30
0.0
 11
353.274997711182
 21
612.065490722656
 31
0.0
  0
LINE
  5
   613
  8
0
  6
CONTINUOUS
 62
     1
 10
353.274997711182
 20
612.065490722656
 30
0.0
 11
355.274997711182
 21
612.065490722656
 31
0.0
  0
LINE
  5
   614
  8
0
  6
CONTINUOUS
 62
     1
 10
325.266293525696
 20
612.065490722656
 30
0.0
 11
325.900493621826
 21
612.065490722656
 31
0.0
  0
LINE
  5
   615
  8
0
  6
CONTINUOUS
 62
     1
 10
325.900493621826
 20
612.065490722656
 30
0.0
 11
327.274820327759
 21
612.065490722656
 31
0.0
  0
LINE
  5
   616
  8
0
  6
CONTINUOUS
 62
     1
 10
356.274996721069
 20
593.565490722656
 30
0.0
 11
356.274996721069
 21
611.065490722656
 31
0.0
  0
LINE
  5
   617
  8
0
  6
CONTINUOUS
 62
     1
 10
348.974996721068
 20
604.065490722656
 30
0.0
 11
348.974996721068
 21
604.765487670899
 31
0.0
  0
LINE
  5
   618
  8
0
  6
CONTINUOUS
 62
     1
 10
286.274995803833
 20
604.765490722656
 30
0.0
 11
348.974998474121
 21
604.765490722656
 31
0.0
  0
LINE
  5
   619
  8
0
  6
CONTINUOUS
 62
     1
 10
348.974996721068
 20
593.565490722656
 30
0.0
 11
348.974996721068
 21
604.065490722656
 31
0.0
  0
LINE
  5
   61A
  8
0
  6
CONTINUOUS
 62
     1
 10
348.974998474121
 20
593.565490722656
 30
0.0
 11
353.274997711182
 21
593.565490722656
 31
0.0
  0
LINE
  5
   61B
  8
0
  6
CONTINUOUS
 62
     1
 10
286.274996721069
 20
604.765487670899
 30
0.0
 11
286.274996721069
 21
611.065490722656
 31
0.0
  0
ARC
  5
   61C
  8
0
  6
CONTINUOUS
 62
     1
 10
355.274996720272
 20
479.065490723456
 30
0.0
 40
1.00000000000498
 50
270.000056774957
 51
299.999542456619
  0
POLYLINE
  5
   61D
  8
0
  6
CONTINUOUS
 62
     1
 66
     1
 10
0.0
 20
0.0
 30
0.0
  0
VERTEX
  5
   61E
  8
0
  6
CONTINUOUS
 10
355.774991880848
 20
478.207067052553
 30
0.0
 40
0.0
 41
0.0
  0
VERTEX
  5
   61F
  8
0
  6
CONTINUOUS
 10
356.172582494672
 20
478.647628440026
 30
0.0
 40
0.0
 41
0.0
  0
VERTEX
  5
   620
  8
0
  6
CONTINUOUS
 10
356.264520204259
 20
479.065490722727
 30
0.0
 40
0.0
 41
0.0
  0
SEQEND
  5
   621
  8
0
  6
CONTINUOUS
 62
     1
  0
LINE
  5
   622
  8
0
  6
CONTINUOUS
 62
     1
 10
356.274996721069
 20
479.065490722656
 30
0.0
 11
356.274996721069
 21
496.565490722656
 31
0.0
  0
ARC
  5
   623
  8
0
  6
CONTINUOUS
 62
     1
 10
355.274996721036
 20
479.065490722709
 30
0.0
 40
1.00000000006221
 50
300.000088848053
 51
306.765703678634
  0
ARC
  5
   624
  8
0
  6
CONTINUOUS
 62
     1
 10
355.274996721069
 20
479.065490722655
 30
0.0
 40
0.999999999998925
 50
317.334043648021
 51
360.0
  0
LINE
  5
   625
  8
0
  6
CONTINUOUS
 62
     1
 10
355.774996721068
 20
478.199447631836
 30
0.0
 11
355.774996721068
 21
478.207065582275
 31
0.0
  0
LINE
  5
   626
  8
0
  6
CONTINUOUS
 62
     1
 10
353.274997711182
 20
496.565490722656
 30
0.0
 11
356.269779205322
 21
496.565490722656
 31
0.0
  0
LINE
  5
   627
  8
0
  6
CONTINUOUS
 62
     1
 10
356.269779205322
 20
496.565490722656
 30
0.0
 11
356.274997711182
 21
496.565490722656
 31
0.0
  0
LINE
  5
   628
  8
0
  6
CONTINUOUS
 62
     1
 10
348.277801513672
 20
496.565490722656
 30
0.0
 11
348.974998474121
 21
496.565490722656
 31
0.0
  0
LINE
  5
   629
  8
0
  6
CONTINUOUS
 62
     1
 10
286.274995803833
 20
486.065490722656
 30
0.0
 11
286.277801513672
 21
486.065490722656
 31
0.0
  0
LINE
  5
   62A
  8
0
  6
CONTINUOUS
 62
     1
 10
286.274996721069
 20
478.065490722656
 30
0.0
 11
286.274996721069
 21
479.065490722656
 31
0.0
  0
LINE
  5
   62B
  8
0
  6
CONTINUOUS
 62
     1
 10
286.274996721069
 20
485.365489959717
 30
0.0
 11
286.274996721069
 21
486.065490722656
 31
0.0
  0
LINE
  5
   62C
  8
0
  6
CONTINUOUS
 62
     1
 10
286.274995803833
 20
478.065490722656
 30
0.0
 11
353.274997711182
 21
478.065490722656
 31
0.0
  0
LINE
  5
   62D
  8
0
  6
CONTINUOUS
 62
     1
 10
353.274997711182
 20
478.065490722656
 30
0.0
 11
355.274997711182
 21
478.065490722656
 31
0.0
  0
LINE
  5
   62E
  8
0
  6
CONTINUOUS
 62
     1
 10
356.274996721069
 20
479.065490722656
 30
0.0
 11
356.274996721069
 21
496.565490722656
 31
0.0
  0
LINE
  5
   62F
  8
0
  6
CONTINUOUS
 62
     1
 10
348.974996721068
 20
485.365489959717
 30
0.0
 11
348.974996721068
 21
486.065490722656
 31
0.0
  0
LINE
  5
   630
  8
0
  6
CONTINUOUS
 62
     1
 10
286.274995803833
 20
485.365490722656
 30
0.0
 11
348.974998474121
 21
485.365490722656
 31
0.0
  0
LINE
  5
   631
  8
0
  6
CONTINUOUS
 62
     1
 10
348.974996721068
 20
486.065490722656
 30
0.0
 11
348.974996721068
 21
496.565490722656
 31
0.0
  0
LINE
  5
   632
  8
0
  6
CONTINUOUS
 62
     1
 10
348.974998474121
 20
496.565490722656
 30
0.0
 11
353.274997711182
 21
496.565490722656
 31
0.0
  0
LINE
  5
   633
  8
0
  6
CONTINUOUS
 62
     1
 10
286.274996721069
 20
479.065490722656
 30
0.0
 11
286.274996721069
 21
485.365489959717
 31
0.0
  0
LINE
  5
   634
  8
0
  6
CONTINUOUS
 62
     2
 10
286.274997711182
 20
585.065486907959
 30
0.0
 11
286.274997711182
 21
586.065486907959
 31
0.0
  0
LINE
  5
   635
  8
0
  6
CONTINUOUS
 62
     2
 10
286.274997711182
 20
586.065486907959
 30
0.0
 11
286.274997711182
 21
595.065490722656
 31
0.0
  0
LINE
  5
   636
  8
0
  6
CONTINUOUS
 62
     2
 10
286.274997711182
 20
585.065486907959
 30
0.0
 11
286.277801513672
 21
585.065486907959
 31
0.0
  0
LINE
  5
   637
  8
0
  6
CONTINUOUS
 62
   253
 10
286.274997711182
 20
563.065490722656
 30
0.0
 11
286.274997711182
 21
585.065486907959
 31
0.0
  0
LINE
  5
   638
  8
0
  6
CONTINUOUS
 62
   253
 10
286.274997711182
 20
563.065490722656
 30
0.0
 11
286.2778017574
 21
563.063871805817
 31
0.0
  0
LINE
  5
   639
  8
0
  6
CONTINUOUS
 62
     3
 10
375.272190093994
 20
558.137475967407
 30
0.0
 11
375.272190093994
 21
558.319761276245
 31
0.0
  0
ARC
  5
   63A
  8
0
  6
CONTINUOUS
 62
   253
 10
355.274997711245
 20
479.065490722649
 30
0.0
 40
0.999999999935932
 50
351.574187381416
 51
358.595557326838
  0
ARC
  5
   63B
  8
0
  6
CONTINUOUS
 62
   253
 10
355.274997708474
 20
479.065490724324
 30
0.0
 40
1.00000000318028
 50
327.878480310623
 51
329.246255031619
  0
LINE
  5
   63C
  8
0
  6
CONTINUOUS
 62
   253
 10
369.274997711182
 20
526.065490722656
 30
0.0
 11
369.274997711182
 21
526.070775032044
 31
0.0
  0
LINE
  5
   63D
  8
0
  6
CONTINUOUS
 62
   253
 10
356.274997711182
 20
479.04097366333
 30
0.0
 11
356.274997711182
 21
479.065490722656
 31
0.0
  0
LINE
  5
   63E
  8
0
  6
CONTINUOUS
 62
     2
 10
355.784671783447
 20
611.922080993652
 30
0.0
 11
355.982105255127
 21
611.772598266602
 31
0.0
  0
LINE
  5
   63F
  8
0
  6
CONTINUOUS
 62
     2
 10
355.963275909424
 20
478.371223449707
 30
0.0
 11
356.274997711182
 21
479.065490722656
 31
0.0
  0
LINE
  5
   640
  8
0
  6
CONTINUOUS
 62
     2
 10
355.784484863281
 20
478.208717346191
 30
0.0
 11
355.982105255127
 21
478.358383178711
 31
0.0
  0
LINE
  5
   641
  8
0
  6
CONTINUOUS
 62
     2
 10
356.273010253906
 20
611.065490722656
 30
0.0
 11
356.274997711182
 21
611.065490722656
 31
0.0
  0
LINE
  5
   642
  8
0
  6
CONTINUOUS
 62
     2
 10
356.273010253906
 20
479.065490722656
 30
0.0
 11
356.274997711182
 21
479.065490722656
 31
0.0
  0
LINE
  5
   643
  8
0
  6
CONTINUOUS
 62
    98
 10
356.274997711182
 20
592.865489959717
 30
0.0
 11
356.274997711182
 21
593.565490722656
 31
0.0
  0
LINE
  5
   644
  8
0
  6
CONTINUOUS
 62
    98
 10
356.274997711182
 20
496.565490722656
 30
0.0
 11
356.274997711182
 21
497.265491485596
 31
0.0
  0
LINE
  5
   645
  8
0
  6
CONTINUOUS
 62
    98
 10
369.274997711182
 20
518.565490722656
 30
0.0
 11
369.274997711182
 21
518.865490913391
 31
0.0
  0
LINE
  5
   646
  8
0
  6
CONTINUOUS
 62
    98
 10
369.274997711182
 20
560.265491485596
 30
0.0
 11
369.274997711182
 21
560.565490722656
 31
0.0
  0
POLYLINE
  5
   647
  8
0
  6
CONTINUOUS
 62
    98
 66
     1
 10
0.0
 20
0.0
 30
0.0
  0
VERTEX
  5
   648
  8
0
  6
CONTINUOUS
 10
355.806999422443
 20
611.909481966572
 30
0.0
 40
0.0
 41
0.0
  0
VERTEX
  5
   649
  8
0
  6
CONTINUOUS
 10
356.174687223481
 20
611.496719913297
 30
0.0
 40
0.0
 41
0.0
  0
VERTEX
  5
   64A
  8
0
  6
CONTINUOUS
 10
356.272106034509
 20
611.079934607682
 30
0.0
 40
0.0
 41
0.0
  0
SEQEND
  5
   64B
  8
0
  6
CONTINUOUS
 62
    98
  0
LINE
  5
   64C
  8
0
  6
CONTINUOUS
 62
    98
 10
356.274997711182
 20
611.069847106934
 30
0.0
 11
356.274997711182
 21
611.079963684082
 31
0.0
  0
LINE
  5
   64D
  8
0
  6
CONTINUOUS
 62
    98
 10
356.274997711182
 20
592.865489959717
 30
0.0
 11
356.274997711182
 21
593.565490722656
 31
0.0
  0
LINE
  5
   64E
  8
0
  6
CONTINUOUS
 62
    98
 10
356.182876114016
 20
592.865489959717
 30
0.0
 11
356.182876114016
 21
593.565490722656
 31
0.0
  0
LINE
  5
   64F
  8
0
  6
CONTINUOUS
 62
    98
 10
369.274997711182
 20
518.565490722656
 30
0.0
 11
369.274997711182
 21
518.864133834839
 31
0.0
  0
LINE
  5
   650
  8
0
  6
CONTINUOUS
 62
    98
 10
369.274997711182
 20
560.266813278198
 30
0.0
 11
369.274997711182
 21
560.565490722656
 31
0.0
  0
LINE
  5
   651
  8
0
  6
CONTINUOUS
 62
    98
 10
369.182876114016
 20
518.565490722656
 30
0.0
 11
369.182876114016
 21
518.773362159729
 31
0.0
  0
LINE
  5
   652
  8
0
  6
CONTINUOUS
 62
    98
 10
356.274997711182
 20
496.565490722656
 30
0.0
 11
356.274997711182
 21
497.265491485596
 31
0.0
  0
LINE
  5
   653
  8
0
  6
CONTINUOUS
 62
    98
 10
356.182876114016
 20
496.565490722656
 30
0.0
 11
356.182876114016
 21
497.265491485596
 31
0.0
  0
LINE
  5
   654
  8
0
  6
CONTINUOUS
 62
    98
 10
286.274997711182
 20
595.065490722656
 30
0.0
 11
286.274997711182
 21
604.065490722656
 31
0.0
  0
ARC
  5
   655
  8
0
  6
CONTINUOUS
 62
    98
 10
287.274997717777
 20
595.0654907227
 30
0.0
 40
1.00000000659583
 50
180.0
 51
180.350903741478
  0
LINE
  5
   656
  8
0
  6
CONTINUOUS
 62
    98
 10
286.274997711182
 20
486.065490722656
 30
0.0
 11
286.274997711182
 21
495.065490722656
 31
0.0
  0
POINT
  5
   657
  8
0
  6
CONTINUOUS
 62
     7
 10
286.277801513672
 20
545.065490722656
 30
0.0
  0
TEXT
  5
   658
  8
0
  6
CONTINUOUS
 62
     7
 10
271.914062888167
 20
546.318251007479
 30
0.0
 40
3.00000002980232
  1
X
 41
0.933333333333334
 72
     1
 11
273.014062899095
 21
547.81825102238
 31
0.0
 73
     2
  0
INSERT
  5
   659
  8
255
  6
CONTINUOUS
 62
     7
  2
$3DADO
 10
284.777801513672
 20
598.565490722656
 30
0.0
 41
1.0
 42
1.0
 43
1.0
  0
LINE
  5
   65A
  8
0
  6
CONTINUOUS
 62
    98
 10
344.874996185303
 20
531.561561510171
 30
0.0
 11
348.274997711182
 21
531.561561510171
 31
0.0
  0
LINE
  5
   65B
  8
0
  6
CONTINUOUS
 62
   252
 10
347.474994659424
 20
530.565490722656
 30
0.0
 11
348.274997711182
 21
530.565490722656
 31
0.0
  0
LINE
  5
   65C
  8
0
  6
CONTINUOUS
 62
   210
 10
319.77499653162
 20
541.065490722656
 30
0.0
 11
319.77499653162
 21
555.08344078064
 31
0.0
  0
LINE
  5
   65D
  8
0
  6
CONTINUOUS
 62
   210
 10
319.77499653162
 20
522.265490531921
 30
0.0
 11
319.77499653162
 21
530.565490722656
 31
0.0
  0
LINE
  5
   65E
  8
0
  6
CONTINUOUS
 62
   210
 10
319.77499696288
 20
555.083440662068
 30
0.0
 11
329.774997106041
 21
572.403948985719
 31
0.0
  0
LINE
  5
   65F
  8
0
  6
CONTINUOUS
 62
   210
 10
329.774996531628
 20
572.403949737549
 30
0.0
 11
329.774996531628
 21
590.065490722656
 31
0.0
  0
LINE
  5
   660
  8
0
  6
CONTINUOUS
 62
   210
 10
329.774996531628
 20
595.565490722656
 30
0.0
 11
329.774996531628
 21
604.065490722656
 31
0.0
  0
LINE
  5
   661
  8
0
  6
CONTINUOUS
 62
   210
 10
329.774996531515
 20
590.065490722656
 30
0.0
 11
329.774996531515
 21
595.565490722656
 31
0.0
  0
LINE
  5
   662
  8
0
  6
CONTINUOUS
 62
   210
 10
319.774996757507
 20
522.265490722663
 30
0.0
 11
320.774996757507
 21
522.265490722663
 31
0.0
  0
LINE
  5
   663
  8
0
  6
CONTINUOUS
 62
     7
 10
344.874996531628
 20
530.565490722656
 30
0.0
 11
344.874996531628
 21
541.065490722656
 31
0.0
  0
LINE
  5
   664
  8
0
  6
CONTINUOUS
 62
     7
 10
319.774996757507
 20
530.565490720151
 30
0.0
 11
320.774996757507
 21
530.565490720151
 31
0.0
  0
LINE
  5
   665
  8
0
  6
CONTINUOUS
 62
     7
 10
319.774996757507
 20
541.065490720151
 30
0.0
 11
320.774996757507
 21
541.065490720151
 31
0.0
  0
LINE
  5
   666
  8
0
  6
CONTINUOUS
 62
     7
 10
347.474994659424
 20
542.065490720151
 30
0.0
 11
348.274997711182
 21
542.065490720151
 31
0.0
  0
LINE
  5
   667
  8
0
  6
CONTINUOUS
 62
     7
 10
347.474996531628
 20
541.065490722656
 30
0.0
 11
347.474996531628
 21
542.065490722656
 31
0.0
  0
LINE
  5
   668
  8
0
  6
CONTINUOUS
 62
     7
 10
320.774996757507
 20
530.565490720151
 30
0.0
 11
347.474994659424
 21
530.565490720151
 31
0.0
  0
LINE
  5
   669
  8
0
  6
CONTINUOUS
 62
     7
 10
320.774996757507
 20
541.065490720151
 30
0.0
 11
347.474994659424
 21
541.065490720151
 31
0.0
  0
LINE
  5
   66A
  8
0
  6
CONTINUOUS
 62
     7
 10
347.474994659424
 20
529.565490720151
 30
0.0
 11
348.274997711182
 21
529.565490720151
 31
0.0
  0
LINE
  5
   66B
  8
0
  6
CONTINUOUS
 62
     7
 10
347.474996531628
 20
529.565490722656
 30
0.0
 11
347.474996531628
 21
530.565490722656
 31
0.0
  0
LINE
  5
   66C
  8
0
  6
CONTINUOUS
 62
     7
 10
320.774996757507
 20
522.265490722663
 30
0.0
 11
348.274997711182
 21
522.265490722663
 31
0.0
  0
LINE
  5
   66D
  8
0
  6
CONTINUOUS
 62
     7
 10
330.574996948242
 20
521.565490722663
 30
0.0
 11
331.274995803833
 21
521.565490722663
 31
0.0
  0
LINE
  5
   66E
  8
0
  6
CONTINUOUS
 62
     7
 10
320.774996531628
 20
530.565490722656
 30
0.0
 11
320.774996531628
 21
541.065490722656
 31
0.0
  0
LINE
  5
   66F
  8
0
  6
CONTINUOUS
 62
     7
 10
320.774996531628
 20
521.565490722656
 30
0.0
 11
320.774996531628
 21
522.265490531921
 31
0.0
  0
LINE
  5
   670
  8
0
  6
CONTINUOUS
 62
     7
 10
329.774996531402
 20
593.961139678955
 30
0.0
 11
329.774996531402
 21
595.565490722656
 31
0.0
  0
LINE
  5
   671
  8
0
  6
CONTINUOUS
 62
     7
 10
329.774996531402
 20
590.065490722656
 30
0.0
 11
329.774996531402
 21
591.669841766358
 31
0.0
  0
LINE
  5
   672
  8
0
  6
CONTINUOUS
 62
     7
 10
329.774996531402
 20
591.669841766358
 30
0.0
 11
329.774996531402
 21
591.977649688721
 31
0.0
  0
LINE
  5
   673
  8
0
  6
CONTINUOUS
 62
     7
 10
329.774996531402
 20
593.654880523682
 30
0.0
 11
329.774996531402
 21
593.961139678955
 31
0.0
  0
LINE
  5
   674
  8
0
  6
CONTINUOUS
 62
   253
 10
329.074996948242
 20
595.565490722656
 30
0.0
 11
329.774995803833
 21
595.565490722656
 31
0.0
  0
LINE
  5
   675
  8
0
  6
CONTINUOUS
 62
   253
 10
329.074996948242
 20
590.065490722656
 30
0.0
 11
329.774995803833
 21
590.065490722656
 31
0.0
  0
LINE
  5
   676
  8
0
  6
CONTINUOUS
 62
   253
 10
329.07580320208
 20
572.591296302364
 30
0.0
 11
329.774362177815
 21
572.40411797225
 31
0.0
  0
LINE
  5
   677
  8
0
  6
CONTINUOUS
 62
   253
 10
319.075840802833
 20
555.270778106726
 30
0.0
 11
319.775627856793
 21
555.08327074584
 31
0.0
  0
POLYLINE
  5
   678
  8
0
  6
CONTINUOUS
 62
   253
 66
     1
 10
0.0
 20
0.0
 30
0.0
  0
VERTEX
  5
   679
  8
0
  6
CONTINUOUS
 10
319.246641006217
 20
541.211937329551
 30
0.0
 40
0.0
 41
0.0
  0
VERTEX
  5
   67A
  8
0
  6
CONTINUOUS
 10
319.117665867817
 20
541.065629938669
 30
0.0
 40
0.0
 41
0.0
  0
SEQEND
  5
   67B
  8
0
  6
CONTINUOUS
 62
   253
  0
ARC
  5
   67C
  8
0
  6
CONTINUOUS
 62
   253
 10
320.574996531622
 20
540.515179412832
 30
0.0
 40
1.50000000000015
 50
124.210136268467
 51
152.321817821866
  0
LINE
  5
   67D
  8
0
  6
CONTINUOUS
 62
   253
 10
320.774996531622
 20
530.565490722656
 30
0.0
 11
320.774996531622
 21
541.065490722656
 31
0.0
  0
ARC
  5
   67E
  8
0
  6
CONTINUOUS
 62
   253
 10
320.574996531622
 20
531.115802027458
 30
0.0
 40
1.49999999999998
 50
207.678198137837
 51
235.789858220209
  0
POLYLINE
  5
   67F
  8
0
  6
CONTINUOUS
 62
   253
 66
     1
 10
0.0
 20
0.0
 30
0.0
  0
VERTEX
  5
   680
  8
0
  6
CONTINUOUS
 10
319.114787419477
 20
530.565490720145
 30
0.0
 40
0.0
 41
0.0
  0
VERTEX
  5
   681
  8
0
  6
CONTINUOUS
 10
319.246641006198
 20
530.419044110775
 30
0.0
 40
0.0
 41
0.0
  0
SEQEND
  5
   682
  8
0
  6
CONTINUOUS
 62
   253
  0
LINE
  5
   683
  8
0
  6
CONTINUOUS
 62
   253
 10
319.504087498263
 20
521.565490722656
 30
0.0
 11
319.504087498263
 21
522.265490531921
 31
0.0
  0
LINE
  5
   684
  8
0
  6
CONTINUOUS
 62
   253
 10
319.075420379639
 20
522.265490722656
 30
0.0
 11
319.50408744812
 21
522.265490722656
 31
0.0
  0
LINE
  5
   685
  8
0
  6
CONTINUOUS
 62
   253
 10
287.774996531622
 20
530.565490722656
 30
0.0
 11
287.774996531622
 21
536.815490722656
 31
0.0
  0
LINE
  5
   686
  8
0
  6
CONTINUOUS
 62
   253
 10
286.274995803833
 20
536.815490722656
 30
0.0
 11
287.774995803833
 21
536.815490722656
 31
0.0
  0
LINE
  5
   687
  8
0
  6
CONTINUOUS
 62
   253
 10
329.07541847229
 20
604.065490722656
 30
0.0
 11
329.336395263672
 21
604.065490722656
 31
0.0
  0
LINE
  5
   688
  8
0
  6
CONTINUOUS
 62
   253
 10
329.074996531622
 20
590.065490722656
 30
0.0
 11
329.074996531622
 21
595.565490722656
 31
0.0
  0
LINE
  5
   689
  8
0
  6
CONTINUOUS
 62
   253
 10
329.074996531622
 20
595.565490722656
 30
0.0
 11
329.074996531622
 21
604.065490722656
 31
0.0
  0
LINE
  5
   68A
  8
0
  6
CONTINUOUS
 62
   253
 10
329.075840511604
 20
572.59115600586
 30
0.0
 11
329.075840511604
 21
590.065490722656
 31
0.0
  0
LINE
  5
   68B
  8
0
  6
CONTINUOUS
 62
   253
 10
319.075840816056
 20
555.270778733346
 30
0.0
 11
329.075765375041
 21
572.591156141364
 31
0.0
  0
LINE
  5
   68C
  8
0
  6
CONTINUOUS
 62
   253
 10
319.074996531628
 20
522.265490531921
 30
0.0
 11
319.074996531628
 21
530.565490722656
 31
0.0
  0
LINE
  5
   68D
  8
0
  6
CONTINUOUS
 62
   253
 10
319.075840511604
 20
541.065490722656
 30
0.0
 11
319.075840511604
 21
555.270778656006
 31
0.0
  0
LINE
  5
   68E
  8
0
  6
CONTINUOUS
 62
   253
 10
286.274995803833
 20
541.065490722656
 30
0.0
 11
319.075420379639
 21
541.065490722656
 31
0.0
  0
LINE
  5
   68F
  8
0
  6
CONTINUOUS
 62
   253
 10
286.274995803833
 20
530.565490720145
 30
0.0
 11
319.07541847229
 21
530.565490720145
 31
0.0
  0
LINE
  5
   690
  8
0
  6
CONTINUOUS
 62
   253
 10
304.774996757507
 20
527.565490722656
 30
0.0
 11
305.474996566772
 21
527.565490722656
 31
0.0
  0
LINE
  5
   691
  8
0
  6
CONTINUOUS
 62
   253
 10
305.474996531622
 20
522.265490531921
 30
0.0
 11
305.474996531622
 21
527.565490722656
 31
0.0
  0
LINE
  5
   692
  8
0
  6
CONTINUOUS
 62
   253
 10
305.474996566772
 20
522.265490722656
 30
0.0
 11
319.075420379639
 21
522.265490722656
 31
0.0
  0
LINE
  5
   693
  8
0
  6
CONTINUOUS
 62
   253
 10
286.274995803833
 20
527.565490722656
 30
0.0
 11
304.774996757507
 21
527.565490722656
 31
0.0
  0
LINE
  5
   694
  8
0
  6
CONTINUOUS
 62
     3
 10
329.336372375488
 20
604.065485540671
 30
0.0
 11
329.774995803833
 21
604.065485540671
 31
0.0
  0
LINE
  5
   695
  8
0
  6
CONTINUOUS
 62
     3
 10
330.574996948242
 20
486.065490722656
 30
0.0
 11
331.274995803833
 21
486.065490722656
 31
0.0
  0
LINE
  5
   696
  8
0
  6
CONTINUOUS
 62
     7
 10
331.274996531622
 20
486.065486907959
 30
0.0
 11
331.274996531622
 21
521.56548500061
 31
0.0
  0
LINE
  5
   697
  8
0
  6
CONTINUOUS
 62
     7
 10
331.274995803833
 20
521.565485301805
 30
0.0
 11
332.274995803833
 21
521.565485301805
 31
0.0
  0
LINE
  5
   698
  8
0
  6
CONTINUOUS
 62
     7
 10
332.274995803833
 20
521.565487966662
 30
0.0
 11
348.274997711182
 21
521.565486028584
 31
0.0
  0
LINE
  5
   699
  8
0
  6
CONTINUOUS
 62
     7
 10
348.274996531622
 20
521.56548500061
 30
0.0
 11
348.274996531622
 21
522.265490531921
 31
0.0
  0
LINE
  5
   69A
  8
0
  6
CONTINUOUS
 62
     7
 10
348.274996531622
 20
529.565490722656
 30
0.0
 11
348.274996531622
 21
542.065490722656
 31
0.0
  0
LINE
  5
   69B
  8
0
  6
CONTINUOUS
 62
   212
 10
287.774997518805
 20
530.565490722656
 30
0.0
 11
287.774997518805
 21
536.815484046936
 31
0.0
  0
LINE
  5
   69C
  8
0
  6
CONTINUOUS
 62
   212
 10
286.274995803833
 20
536.815484192631
 30
0.0
 11
287.774997711182
 21
536.815484192631
 31
0.0
  0
LINE
  5
   69D
  8
0
  6
CONTINUOUS
 62
     7
 10
304.774996531622
 20
521.565490722656
 30
0.0
 11
304.774996531622
 21
526.865490913391
 31
0.0
  0
LINE
  5
   69E
  8
0
  6
CONTINUOUS
 62
     7
 10
304.774996757507
 20
521.565488874807
 30
0.0
 11
330.574996948242
 21
521.565487326161
 31
0.0
  0
LINE
  5
   69F
  8
0
  6
CONTINUOUS
 62
     7
 10
304.774996531622
 20
526.865490913391
 30
0.0
 11
304.774996531622
 21
527.565485477448
 31
0.0
  0
LINE
  5
   6A0
  8
0
  6
CONTINUOUS
 62
     7
 10
286.274995803833
 20
526.865490722656
 30
0.0
 11
304.774996757507
 21
526.865490722656
 31
0.0
  0
LINE
  5
   6A1
  8
0
  6
CONTINUOUS
 62
     7
 10
330.574996948242
 20
521.565485301805
 30
0.0
 11
331.274995803833
 21
521.565485301805
 31
0.0
  0
LINE
  5
   6A2
  8
0
  6
CONTINUOUS
 62
     7
 10
330.574996531622
 20
511.56548500061
 30
0.0
 11
330.574996531622
 21
521.565490722656
 31
0.0
  0
LINE
  5
   6A3
  8
0
  6
CONTINUOUS
 62
     7
 10
330.574996531622
 20
486.065486907959
 30
0.0
 11
330.574996531622
 21
511.56548500061
 31
0.0
  0
LINE
  5
   6A4
  8
0
  6
DASHDOT
 62
     7
 10
273.354906883648
 20
539.565490722657
 30
0.0
 11
384.784417378242
 21
539.565490722657
 31
0.0
  0
LINE
  5
   6A5
  8
0
  6
CONTINUOUS
 62
   252
 10
282.777801513672
 20
522.065490724488
 30
0.0
 11
284.777801513672
 21
522.065490724488
 31
0.0
  0
LINE
  5
   6A6
  8
0
  6
CONTINUOUS
 62
   252
 10
281.777801513672
 20
516.065490724488
 30
0.0
 11
284.777801513672
 21
516.065490724488
 31
0.0
  0
LINE
  5
   6A7
  8
0
  6
CONTINUOUS
 62
   252
 10
281.777801513672
 20
516.065490722656
 30
0.0
 11
281.777801513672
 21
521.065490722656
 31
0.0
  0
LINE
  5
   6A8
  8
0
  6
CONTINUOUS
 62
   252
 10
281.777801512756
 20
521.065490723572
 30
0.0
 11
282.777801512756
 21
522.065490723572
 31
0.0
  0
LINE
  5
   6A9
  8
0
  6
CONTINUOUS
 62
   252
 10
286.277801513672
 20
485.065485301805
 30
0.0
 11
288.277801513672
 21
485.065485301805
 31
0.0
  0
LINE
  5
   6AA
  8
0
  6
CONTINUOUS
 62
   252
 10
288.277801513672
 20
483.565486907959
 30
0.0
 11
288.277801513672
 21
485.065486907959
 31
0.0
  0
LINE
  5
   6AB
  8
0
  6
CONTINUOUS
 62
   252
 10
281.777801513672
 20
488.565490722201
 30
0.0
 11
283.277801513672
 21
488.565490722201
 31
0.0
  0
LINE
  5
   6AC
  8
0
  6
CONTINUOUS
 62
   252
 10
281.777801513672
 20
488.565490722656
 30
0.0
 11
281.777801513672
 21
493.065490722656
 31
0.0
  0
ARC
  5
   6AD
  8
0
  6
CONTINUOUS
 62
   252
 10
283.777801513672
 20
493.065490722201
 30
0.0
 40
1.99999999999981
 50
105.64851857235
 51
180.0
  0
LINE
  5
   6AE
  8
0
  6
CONTINUOUS
 62
   252
 10
286.277801513672
 20
605.065496143507
 30
0.0
 11
288.277801513672
 21
605.065496143507
 31
0.0
  0
LINE
  5
   6AF
  8
0
  6
CONTINUOUS
 62
   252
 10
288.277801513672
 20
605.065498352051
 30
0.0
 11
288.277801513672
 21
606.565498352051
 31
0.0
  0
LINE
  5
   6B0
  8
0
  6
CONTINUOUS
 62
   252
 10
284.777801513672
 20
608.565490722656
 30
0.0
 11
286.277801513672
 21
608.565490722656
 31
0.0
  0
LINE
  5
   6B1
  8
0
  6
CONTINUOUS
 62
   252
 10
284.777801513672
 20
481.565490722658
 30
0.0
 11
286.277801513672
 21
481.565490722658
 31
0.0
  0
LINE
  5
   6B2
  8
0
  6
CONTINUOUS
 62
   252
 10
286.277801513672
 20
606.565490722656
 30
0.0
 11
286.277801513672
 21
608.565490722656
 31
0.0
  0
LINE
  5
   6B3
  8
0
  6
CONTINUOUS
 62
   252
 10
286.277801513672
 20
481.565490722656
 30
0.0
 11
286.277801513672
 21
483.565490722656
 31
0.0
  0
LINE
  5
   6B4
  8
0
  6
CONTINUOUS
 62
   252
 10
286.277801513672
 20
483.565490722656
 30
0.0
 11
286.277801513672
 21
606.565490722656
 31
0.0
  0
LINE
  5
   6B5
  8
0
  6
CONTINUOUS
 62
   252
 10
286.277801513672
 20
606.565496143507
 30
0.0
 11
288.277801513672
 21
606.565496143507
 31
0.0
  0
LINE
  5
   6B6
  8
0
  6
CONTINUOUS
 62
   252
 10
284.777801513672
 20
606.565490722656
 30
0.0
 11
284.777801513672
 21
608.565490722656
 31
0.0
  0
LINE
  5
   6B7
  8
0
  6
CONTINUOUS
 62
   252
 10
284.777801513672
 20
481.565490722656
 30
0.0
 11
284.777801513672
 21
483.565490722656
 31
0.0
  0
LINE
  5
   6B8
  8
0
  6
CONTINUOUS
 62
   252
 10
284.777801513672
 20
483.565490722656
 30
0.0
 11
284.777801513672
 21
606.565490722656
 31
0.0
  0
LINE
  5
   6B9
  8
0
  6
CONTINUOUS
 62
   252
 10
286.277801513672
 20
483.565485301805
 30
0.0
 11
288.277801513672
 21
483.565485301805
 31
0.0
  0
LINE
  5
   6BA
  8
0
  6
CONTINUOUS
 62
   252
 10
282.881275177002
 20
558.231647491455
 30
0.0
 11
282.882598876953
 21
558.232141494751
 31
0.0
  0
ARC
  5
   6BB
  8
0
  6
CONTINUOUS
 62
   252
 10
283.777801513672
 20
557.065490724488
 30
0.0
 40
1.49999999999977
 50
89.9999999999935
 51
164.999970848238
  0
LINE
  5
   6BC
  8
0
  6
CONTINUOUS
 62
   252
 10
283.777801513672
 20
558.565490724488
 30
0.0
 11
284.777801513672
 21
558.565490724488
 31
0.0
  0
LINE
  5
   6BD
  8
0
  6
CONTINUOUS
 62
   252
 10
281.555014220969
 20
554.565490571438
 30
0.0
 11
282.328912971767
 21
557.453720029328
 31
0.0
  0
LINE
  5
   6BE
  8
0
  6
CONTINUOUS
 62
   252
 10
283.107928578836
 20
554.565490897065
 30
0.0
 11
283.777801513214
 21
557.065490722779
 31
0.0
  0
LINE
  5
   6BF
  8
0
  6
CONTINUOUS
 62
   252
 10
281.555013656616
 20
554.565490724488
 30
0.0
 11
283.107929229736
 21
554.565490724488
 31
0.0
  0
LINE
  5
   6C0
  8
0
  6
CONTINUOUS
 62
     2
 10
284.777801513672
 20
522.105490684509
 30
0.0
 11
284.777801513672
 21
525.305490493774
 31
0.0
  0
ARC
  5
   6C1
  8
0
  6
CONTINUOUS
 62
     2
 10
282.977801513672
 20
525.305490724488
 30
0.0
 40
1.80000000000003
 50
359.999992655558
 51
449.999975714884
  0
LINE
  5
   6C2
  8
0
  6
CONTINUOUS
 62
     2
 10
279.277801513672
 20
527.105490724488
 30
0.0
 11
282.977802276611
 21
527.105490724488
 31
0.0
  0
ARC
  5
   6C3
  8
0
  6
CONTINUOUS
 62
     2
 10
279.277801513672
 20
528.105490724488
 30
0.0
 40
0.999999999999887
 50
180.000002258873
 51
270.0
  0
LINE
  5
   6C4
  8
0
  6
CONTINUOUS
 62
     2
 10
278.277801513672
 20
528.105490684509
 30
0.0
 11
278.277801513672
 21
551.105491638184
 31
0.0
  0
ARC
  5
   6C5
  8
0
  6
CONTINUOUS
 62
     2
 10
279.277801513672
 20
551.105490724488
 30
0.0
 40
0.999999999999773
 50
90.0
 51
179.99994764759
  0
LINE
  5
   6C6
  8
0
  6
CONTINUOUS
 62
     2
 10
279.277801513672
 20
552.105490724488
 30
0.0
 11
282.977802276611
 21
552.105490724488
 31
0.0
  0
ARC
  5
   6C7
  8
0
  6
CONTINUOUS
 62
     2
 10
282.977801513672
 20
553.905490724488
 30
0.0
 40
1.79999999999989
 50
270.000024285125
 51
360.000004753613
  0
LINE
  5
   6C8
  8
0
  6
CONTINUOUS
 62
     2
 10
284.777801513672
 20
553.905490875244
 30
0.0
 11
284.777801513672
 21
557.105491638184
 31
0.0
  0
ARC
  5
   6C9
  8
0
  6
CONTINUOUS
 62
     2
 10
279.277801513672
 20
551.105490724488
 30
0.0
 40
2.00000000000011
 50
90.0
 51
179.999973823795
  0
LINE
  5
   6CA
  8
0
  6
CONTINUOUS
 62
     2
 10
277.277801513672
 20
528.105490684509
 30
0.0
 11
277.277801513672
 21
551.105491638184
 31
0.0
  0
ARC
  5
   6CB
  8
0
  6
CONTINUOUS
 62
     2
 10
279.277801513672
 20
528.105490724488
 30
0.0
 40
2.00000000000006
 50
180.00000120742
 51
270.0
  0
LINE
  5
   6CC
  8
0
  6
CONTINUOUS
 62
     2
 10
279.277801513672
 20
526.105490724488
 30
0.0
 11
282.977802276611
 21
526.105490724488
 31
0.0
  0
ARC
  5
   6CD
  8
0
  6
CONTINUOUS
 62
     2
 10
282.977801513672
 20
525.305490724488
 30
0.0
 40
0.799999999999988
 50
359.999983466742
 51
449.99994535849
  0
LINE
  5
   6CE
  8
0
  6
CONTINUOUS
 62
     2
 10
283.777801513672
 20
522.105490684509
 30
0.0
 11
283.777801513672
 21
525.305490493774
 31
0.0
  0
LINE
  5
   6CF
  8
0
  6
CONTINUOUS
 62
     2
 10
283.777801513672
 20
522.105490724488
 30
0.0
 11
284.777801513672
 21
522.105490724488
 31
0.0
  0
LINE
  5
   6D0
  8
0
  6
CONTINUOUS
 62
     2
 10
283.777801513672
 20
557.105490724488
 30
0.0
 11
284.777801513672
 21
557.105490724488
 31
0.0
  0
LINE
  5
   6D1
  8
0
  6
CONTINUOUS
 62
     2
 10
283.777801513672
 20
553.905490875244
 30
0.0
 11
283.777801513672
 21
557.105491638184
 31
0.0
  0
ARC
  5
   6D2
  8
0
  6
CONTINUOUS
 62
     2
 10
282.977801513672
 20
553.905490724488
 30
0.0
 40
0.799999999999864
 50
270.000054641559
 51
360.000010799474
  0
LINE
  5
   6D3
  8
0
  6
CONTINUOUS
 62
     2
 10
279.277801513672
 20
553.105490724488
 30
0.0
 11
282.977802276611
 21
553.105490724488
 31
0.0
  0
LINE
  5
   6D4
  8
0
  6
CONTINUOUS
 62
     2
 10
281.7708568573
 20
501.565490722656
 30
0.0
 11
281.811058044434
 21
501.527534484863
 31
0.0
  0
LINE
  5
   6D5
  8
0
  6
CONTINUOUS
 62
     2
 10
281.649101257324
 20
500.240859985352
 30
0.0
 11
281.83088684082
 21
500.446849822998
 31
0.0
  0
LINE
  5
   6D6
  8
0
  6
CONTINUOUS
 62
     2
 10
281.649101257324
 20
500.240859985352
 30
0.0
 11
281.751266479492
 21
500.10990524292
 31
0.0
  0
LINE
  5
   6D7
  8
0
  6
CONTINUOUS
 62
     2
 10
281.751266479492
 20
500.10990524292
 30
0.0
 11
281.919778823853
 21
499.901622772217
 31
0.0
  0
POLYLINE
  5
   6D8
  8
0
  6
CONTINUOUS
 62
     2
 66
     1
 10
0.0
 20
0.0
 30
0.0
  0
VERTEX
  5
   6D9
  8
0
  6
CONTINUOUS
 10
283.2775836512
 20
501.196264671041
 30
0.0
 40
0.0
 41
0.0
  0
VERTEX
  5
   6DA
  8
0
  6
CONTINUOUS
 10
281.873987491504
 20
501.416713743054
 30
0.0
 40
0.0
 41
0.0
  0
VERTEX
  5
   6DB
  8
0
  6
CONTINUOUS
 10
281.811023680025
 20
501.527589659473
 30
0.0
 40
0.0
 41
0.0
  0
SEQEND
  5
   6DC
  8
0
  6
CONTINUOUS
 62
     2
  0
POLYLINE
  5
   6DD
  8
0
  6
CONTINUOUS
 62
     2
 66
     1
 10
0.0
 20
0.0
 30
0.0
  0
VERTEX
  5
   6DE
  8
0
  6
CONTINUOUS
 10
282.572430155968
 20
500.195620210657
 30
0.0
 40
0.0
 41
0.0
  0
VERTEX
  5
   6DF
  8
0
  6
CONTINUOUS
 10
283.277295073264
 20
500.283886701327
 30
0.0
 40
0.0
 41
0.0
  0
SEQEND
  5
   6E0
  8
0
  6
CONTINUOUS
 62
     2
  0
POLYLINE
  5
   6E1
  8
0
  6
CONTINUOUS
 62
     2
 66
     1
 10
0.0
 20
0.0
 30
0.0
  0
VERTEX
  5
   6E2
  8
0
  6
CONTINUOUS
 10
283.277442142195
 20
499.696285085287
 30
0.0
 40
0.0
 41
0.0
  0
VERTEX
  5
   6E3
  8
0
  6
CONTINUOUS
 10
281.919786617285
 20
499.901648694331
 30
0.0
 40
0.0
 41
0.0
  0
SEQEND
  5
   6E4
  8
0
  6
CONTINUOUS
 62
     2
  0
POLYLINE
  5
   6E5
  8
0
  6
CONTINUOUS
 62
     2
 66
     1
 10
0.0
 20
0.0
 30
0.0
  0
VERTEX
  5
   6E6
  8
0
  6
CONTINUOUS
 10
283.277451391349
 20
500.097126113513
 30
0.0
 40
0.0
 41
0.0
  0
VERTEX
  5
   6E7
  8
0
  6
CONTINUOUS
 10
281.856002888718
 20
500.330777992175
 30
0.0
 40
0.0
 41
0.0
  0
VERTEX
  5
   6E8
  8
0
  6
CONTINUOUS
 10
281.777308350064
 20
500.388899337873
 30
0.0
 40
0.0
 41
0.0
  0
VERTEX
  5
   6E9
  8
0
  6
CONTINUOUS
 10
281.830910935463
 20
500.446799911684
 30
0.0
 40
0.0
 41
0.0
  0
SEQEND
  5
   6EA
  8
0
  6
CONTINUOUS
 62
     2
  0
POLYLINE
  5
   6EB
  8
0
  6
CONTINUOUS
 62
     2
 66
     1
 10
0.0
 20
0.0
 30
0.0
  0
VERTEX
  5
   6EC
  8
0
  6
CONTINUOUS
 10
281.830910935463
 20
500.446799911684
 30
0.0
 40
0.0
 41
0.0
  0
VERTEX
  5
   6ED
  8
0
  6
CONTINUOUS
 10
283.27731722255
 20
500.684633528513
 30
0.0
 40
0.0
 41
0.0
  0
SEQEND
  5
   6EE
  8
0
  6
CONTINUOUS
 62
     2
  0
LINE
  5
   6EF
  8
0
  6
CONTINUOUS
 62
     2
 10
283.277801513672
 20
474.565490722206
 30
0.0
 11
284.777801513672
 21
474.565490722206
 31
0.0
  0
LINE
  5
   6F0
  8
0
  6
CONTINUOUS
 62
     2
 10
284.777801513672
 20
474.565490722656
 30
0.0
 11
284.777801513672
 21
479.065490722656
 31
0.0
  0
LINE
  5
   6F1
  8
0
  6
CONTINUOUS
 62
     2
 10
284.777801513672
 20
479.065490722656
 30
0.0
 11
284.777801513672
 21
481.565490722656
 31
0.0
  0
LINE
  5
   6F2
  8
0
  6
CONTINUOUS
 62
     2
 10
283.277801513672
 20
474.565490722656
 30
0.0
 11
283.277801513672
 21
479.065490722656
 31
0.0
  0
LINE
  5
   6F3
  8
0
  6
CONTINUOUS
 62
     2
 10
283.277801513672
 20
479.065490722656
 30
0.0
 11
283.277801513672
 21
500.565490722656
 31
0.0
  0
LINE
  5
   6F4
  8
0
  6
CONTINUOUS
 62
     2
 10
283.277801513672
 20
500.565490722656
 30
0.0
 11
283.277801513672
 21
501.565490722656
 31
0.0
  0
LINE
  5
   6F5
  8
0
  6
CONTINUOUS
 62
     2
 10
277.77780148203
 20
521.860903794734
 30
0.0
 11
282.779270223587
 21
524.748503119016
 31
0.0
  0
ARC
  5
   6F6
  8
0
  6
CONTINUOUS
 62
     2
 10
278.277801513672
 20
520.994878409218
 30
0.0
 40
1.00000000000015
 50
120.000002093402
 51
179.999979402984
  0
LINE
  5
   6F7
  8
0
  6
CONTINUOUS
 62
     2
 10
277.277801513672
 20
512.908054351807
 30
0.0
 11
277.277801513672
 21
520.994878768921
 31
0.0
  0
ARC
  5
   6F8
  8
0
  6
CONTINUOUS
 62
     2
 10
279.277801513671
 20
512.908054361892
 30
0.0
 40
1.99999999999949
 50
180.0
 51
199.999978160185
  0
LINE
  5
   6F9
  8
0
  6
CONTINUOUS
 62
     2
 10
277.39841601136
 20
512.224014791619
 30
0.0
 11
281.158059167177
 21
501.894480115802
 31
0.0
  0
ARC
  5
   6FA
  8
0
  6
CONTINUOUS
 62
     2
 10
281.627905282777
 20
502.065490722656
 30
0.0
 40
0.499999999999673
 50
200.000065264163
 51
269.999955216624
  0
LINE
  5
   6FB
  8
0
  6
CONTINUOUS
 62
     2
 10
283.926666683152
 20
522.105490759164
 30
0.0
 11
283.933719764783
 21
522.065490745539
 31
0.0
  0
LINE
  5
   6FC
  8
0
  6
CONTINUOUS
 62
     2
 10
283.521674591033
 20
524.402315048287
 30
0.0
 11
283.777801514158
 21
522.949747085657
 31
0.0
  0
ARC
  5
   6FD
  8
0
  6
CONTINUOUS
 62
     2
 10
283.029270755958
 20
524.315490724488
 30
0.0
 40
0.499999999999898
 50
10.0000273403757
 51
120.000070442749
  0
LINE
  5
   6FE
  8
0
  6
CONTINUOUS
 62
     2
 10
283.277801513672
 20
501.565490722656
 30
0.0
 11
284.777801513672
 21
501.565490722656
 31
0.0
  0
LINE
  5
   6FF
  8
0
  6
CONTINUOUS
 62
     2
 10
281.627904891968
 20
501.565490722656
 30
0.0
 11
283.277801513672
 21
501.565490722656
 31
0.0
  0
ARC
  5
   700
  8
0
  6
CONTINUOUS
 62
     2
 10
278.277801513672
 20
520.994878409218
 30
0.0
 40
0.999999999999815
 50
120.000002093394
 51
178.595591338111
  0
LINE
  5
   701
  8
0
  6
CONTINUOUS
 62
     2
 10
277.277801513672
 20
520.994878768921
 30
0.0
 11
277.277801513672
 21
521.019394874573
 31
0.0
  0
LINE
  5
   702
  8
0
  6
CONTINUOUS
 62
     7
 10
281.277801513672
 20
495.435490717633
 30
0.0
 11
283.277801513672
 21
495.435490717633
 31
0.0
  0
ARC
  5
   703
  8
0
  6
CONTINUOUS
 62
     7
 10
281.725026513672
 20
494.600490717633
 30
0.0
 40
0.947225000000033
 50
118.173448635742
 51
241.826551364253
  0
ARC
  5
   704
  8
0
  6
CONTINUOUS
 62
     7
 10
285.867801513672
 20
491.565490717633
 30
0.0
 40
5.08999999999974
 50
154.391467869425
 51
205.608532130576
  0
LINE
  5
   705
  8
0
  6
CONTINUOUS
 62
     7
 10
276.777801513672
 20
493.065490717633
 30
0.0
 11
280.777801513672
 21
493.065490717633
 31
0.0
  0
LINE
  5
   706
  8
0
  6
CONTINUOUS
 62
     7
 10
277.277801513672
 20
493.565490717633
 30
0.0
 11
280.777801513672
 21
493.565490717633
 31
0.0
  0
LINE
  5
   707
  8
0
  6
CONTINUOUS
 62
     7
 10
276.777801513672
 20
490.065490717633
 30
0.0
 11
276.777801513672
 21
493.065490717633
 31
0.0
  0
LINE
  5
   708
  8
0
  6
DASHDOT
 62
     7
 10
275.230813395698
 20
491.565490717633
 30
0.0
 11
284.777801513672
 21
491.565490717633
 31
0.0
  0
LINE
  5
   709
  8
0
  6
CONTINUOUS
 62
     7
 10
276.777801513672
 20
493.065490717633
 30
0.0
 11
277.277801513672
 21
493.565490717633
 31
0.0
  0
LINE
  5
   70A
  8
0
  6
CONTINUOUS
 62
     7
 10
277.277801513672
 20
489.565490717633
 30
0.0
 11
277.277801513672
 21
493.565490717633
 31
0.0
  0
LINE
  5
   70B
  8
0
  6
CONTINUOUS
 62
     7
 10
276.777801513672
 20
490.065490717633
 30
0.0
 11
277.277801513672
 21
489.565490717633
 31
0.0
  0
LINE
  5
   70C
  8
0
  6
CONTINUOUS
 62
     7
 10
277.277801513672
 20
489.565490717633
 30
0.0
 11
280.777801513672
 21
489.565490717633
 31
0.0
  0
ARC
  5
   70D
  8
0
  6
CONTINUOUS
 62
     7
 10
281.725026513672
 20
488.530490717633
 30
0.0
 40
0.947225000000148
 50
118.17344863577
 51
241.82655136424
  0
LINE
  5
   70E
  8
0
  6
CONTINUOUS
 62
     7
 10
280.777801513672
 20
488.530490717633
 30
0.0
 11
280.777801513672
 21
494.600490717633
 31
0.0
  0
LINE
  5
   70F
  8
0
  6
CONTINUOUS
 62
     7
 10
281.277801513672
 20
489.365490717633
 30
0.0
 11
281.777801513672
 21
489.365490717633
 31
0.0
  0
LINE
  5
   710
  8
0
  6
CONTINUOUS
 62
     7
 10
281.277801513672
 20
487.695490717633
 30
0.0
 11
283.277801513672
 21
487.695490717633
 31
0.0
  0
LINE
  5
   711
  8
0
  6
CONTINUOUS
 62
     7
 10
281.277801513672
 20
493.765490717633
 30
0.0
 11
281.904302112446
 21
493.765490717633
 31
0.0
  0
LINE
  5
   712
  8
0
  6
CONTINUOUS
 62
     7
 10
276.777801513672
 20
490.065490717633
 30
0.0
 11
280.777801513672
 21
490.065490717633
 31
0.0
  0
INSERT
  5
   713
  8
0
  6
CONTINUOUS
 62
     7
  2
*UDIM1509
 10
0.0
 20
0.0
 30
0.0
  0
INSERT
  5
   714
  8
0
  6
CONTINUOUS
 62
     7
  2
*UDIM1510
 10
0.0
 20
0.0
 30
0.0
  0
INSERT
  5
   715
  8
0
  6
CONTINUOUS
 62
     7
  2
*UDIM1511
 10
0.0
 20
0.0
 30
0.0
  0
INSERT
  5
   716
  8
0
  6
CONTINUOUS
 62
     7
  2
*UDIM1512
 10
0.0
 20
0.0
 30
0.0
  0
INSERT
  5
   717
  8
0
  6
CONTINUOUS
 62
     7
  2
*UDIM1513
 10
0.0
 20
0.0
 30
0.0
  0
INSERT
  5
   718
  8
0
  6
CONTINUOUS
 62
     7
  2
*UDIM1514
 10
0.0
 20
0.0
 30
0.0
  0
INSERT
  5
   719
  8
0
  6
CONTINUOUS
 62
     7
  2
*UDIM1515
 10
0.0
 20
0.0
 30
0.0
  0
INSERT
  5
   71A
  8
0
  6
CONTINUOUS
 62
     7
  2
*UDIM1516
 10
0.0
 20
0.0
 30
0.0
  0
INSERT
  5
   71B
  8
0
  6
CONTINUOUS
 62
     7
  2
*UDIM1517
 10
0.0
 20
0.0
 30
0.0
  0
ARC
  5
   71C
  8
0
  6
DASHDOT
 62
     7
 10
329.777804148809
 20
540.265490722656
 30
0.0
 40
58.4971975314093
 50
341.646738215609
 51
375.744270154323
  0
ENDSEC
  0
EOF
