  0
SECTION
  2
HEADER
  9
$ACADVER
  1
AC1015
  9
$ACADMAINTVER
 70
    13
  9
$DWGCODEPAGE
  3
ANSI_1252
  9
$INSBASE
 10
0.0
 20
0.0
 30
0.0
  9
$EXTMIN
 10
0.5794608709704362
 20
0.5791515336964367
 30
0.0
  9
$EXTMAX
 10
392.5794608709704
 20
263.0791515336964
 30
0.0
  9
$LIMMIN
 10
0.0
 20
0.0
  9
$LIMMAX
 10
12.0
 20
9.0
  9
$ORTHOMODE
 70
     1
  9
$REGENMODE
 70
     1
  9
$FILLMODE
 70
     1
  9
$QTEXTMODE
 70
     0
  9
$MIRRTEXT
 70
     1
  9
$LTSCALE
 40
5.0
  9
$ATTMODE
 70
     1
  9
$TEXTSIZE
 40
2.0
  9
$TRACEWID
 40
0.05
  9
$TEXTSTYLE
  7
ROMANS
  9
$CLAYER
  8
0
  9
$CELTYPE
  6
CONTINUOUS
  9
$CECOLOR
 62
   256
  9
$CELTSCALE
 40
1.0
  9
$DISPSILH
 70
     0
  9
$DIMSCALE
 40
1.0
  9
$DIMASZ
 40
0.18
  9
$DIMEXO
 40
0.0625
  9
$DIMDLI
 40
0.38
  9
$DIMRND
 40
0.0
  9
$DIMDLE
 40
0.0
  9
$DIMEXE
 40
0.18
  9
$DIMTP
 40
0.0
  9
$DIMTM
 40
0.0
  9
$DIMTXT
 40
0.18
  9
$DIMCEN
 40
0.09
  9
$DIMTSZ
 40
0.0
  9
$DIMTOL
 70
     0
  9
$DIMLIM
 70
     0
  9
$DIMTIH
 70
     1
  9
$DIMTOH
 70
     1
  9
$DIMSE1
 70
     0
  9
$DIMSE2
 70
     0
  9
$DIMTAD
 70
     0
  9
$DIMZIN
 70
     0
  9
$DIMBLK
  1

  9
$DIMASO
 70
     1
  9
$DIMSHO
 70
     1
  9
$DIMPOST
  1

  9
$DIMAPOST
  1

  9
$DIMALT
 70
     0
  9
$DIMALTD
 70
     2
  9
$DIMALTF
 40
25.4
  9
$DIMLFAC
 40
1.0
  9
$DIMTOFL
 70
     0
  9
$DIMTVP
 40
0.0
  9
$DIMTIX
 70
     0
  9
$DIMSOXD
 70
     0
  9
$DIMSAH
 70
     0
  9
$DIMBLK1
  1

  9
$DIMBLK2
  1

  9
$DIMSTYLE
  2
Standard
  9
$DIMCLRD
 70
     0
  9
$DIMCLRE
 70
     0
  9
$DIMCLRT
 70
     0
  9
$DIMTFAC
 40
1.0
  9
$DIMGAP
 40
0.09
  9
$DIMJUST
 70
     0
  9
$DIMSD1
 70
     0
  9
$DIMSD2
 70
     0
  9
$DIMTOLJ
 70
     1
  9
$DIMTZIN
 70
     0
  9
$DIMALTZ
 70
     0
  9
$DIMALTTZ
 70
     0
  9
$DIMUPT
 70
     0
  9
$DIMDEC
 70
     4
  9
$DIMTDEC
 70
     4
  9
$DIMALTU
 70
     2
  9
$DIMALTTD
 70
     2
  9
$DIMTXSTY
  7
STANDARD
  9
$DIMAUNIT
 70
     0
  9
$DIMADEC
 70
     0
  9
$DIMALTRND
 40
0.0
  9
$DIMAZIN
 70
     0
  9
$DIMDSEP
 70
    46
  9
$DIMATFIT
 70
     3
  9
$DIMFRAC
 70
     0
  9
$DIMLDRBLK
  1

  9
$DIMLUNIT
 70
     2
  9
$DIMLWD
 70
    -2
  9
$DIMLWE
 70
    -2
  9
$DIMTMOVE
 70
     2
  9
$LUNITS
 70
     2
  9
$LUPREC
 70
     4
  9
$SKETCHINC
 40
0.1
  9
$FILLETRAD
 40
0.0
  9
$AUNITS
 70
     0
  9
$AUPREC
 70
     0
  9
$MENU
  1
acad
  9
$ELEVATION
 40
0.0
  9
$PELEVATION
 40
0.0
  9
$THICKNESS
 40
0.0
  9
$LIMCHECK
 70
     0
  9
$CHAMFERA
 40
0.0
  9
$CHAMFERB
 40
0.0
  9
$CHAMFERC
 40
0.0
  9
$CHAMFERD
 40
0.0
  9
$SKPOLY
 70
     0
  9
$TDCREATE
 40
2450724.493563310
  9
$TDUCREATE
 40
2450724.368563310
  9
$TDUPDATE
 40
2453201.456014479
  9
$TDUUPDATE
 40
2453201.331014479
  9
$TDINDWG
 40
0.0231532060
  9
$TDUSRTIMER
 40
0.0231532060
  9
$USRTIMER
 70
     1
  9
$ANGBASE
 50
0.0
  9
$ANGDIR
 70
     0
  9
$PDMODE
 70
     0
  9
$PDSIZE
 40
0.0
  9
$PLINEWID
 40
0.0
  9
$SPLFRAME
 70
     0
  9
$SPLINETYPE
 70
     6
  9
$SPLINESEGS
 70
     8
  9
$HANDSEED
  5
7AE
  9
$SURFTAB1
 70
   250
  9
$SURFTAB2
 70
   250
  9
$SURFTYPE
 70
     6
  9
$SURFU
 70
     6
  9
$SURFV
 70
     6
  9
$UCSBASE
  2

  9
$UCSNAME
  2

  9
$UCSORG
 10
0.0
 20
0.0
 30
0.0
  9
$UCSXDIR
 10
1.0
 20
0.0
 30
0.0
  9
$UCSYDIR
 10
0.0
 20
1.0
 30
0.0
  9
$UCSORTHOREF
  2

  9
$UCSORTHOVIEW
 70
     0
  9
$UCSORGTOP
 10
0.0
 20
0.0
 30
0.0
  9
$UCSORGBOTTOM
 10
0.0
 20
0.0
 30
0.0
  9
$UCSORGLEFT
 10
0.0
 20
0.0
 30
0.0
  9
$UCSORGRIGHT
 10
0.0
 20
0.0
 30
0.0
  9
$UCSORGFRONT
 10
0.0
 20
0.0
 30
0.0
  9
$UCSORGBACK
 10
0.0
 20
0.0
 30
0.0
  9
$PUCSBASE
  2

  9
$PUCSNAME
  2

  9
$PUCSORG
 10
0.0
 20
0.0
 30
0.0
  9
$PUCSXDIR
 10
1.0
 20
0.0
 30
0.0
  9
$PUCSYDIR
 10
0.0
 20
1.0
 30
0.0
  9
$PUCSORTHOREF
  2

  9
$PUCSORTHOVIEW
 70
     0
  9
$PUCSORGTOP
 10
0.0
 20
0.0
 30
0.0
  9
$PUCSORGBOTTOM
 10
0.0
 20
0.0
 30
0.0
  9
$PUCSORGLEFT
 10
0.0
 20
0.0
 30
0.0
  9
$PUCSORGRIGHT
 10
0.0
 20
0.0
 30
0.0
  9
$PUCSORGFRONT
 10
0.0
 20
0.0
 30
0.0
  9
$PUCSORGBACK
 10
0.0
 20
0.0
 30
0.0
  9
$USERI1
 70
     0
  9
$USERI2
 70
     0
  9
$USERI3
 70
     0
  9
$USERI4
 70
     0
  9
$USERI5
 70
     0
  9
$USERR1
 40
0.0
  9
$USERR2
 40
0.0
  9
$USERR3
 40
0.0
  9
$USERR4
 40
0.0
  9
$USERR5
 40
0.0
  9
$WORLDVIEW
 70
     1
  9
$SHADEDGE
 70
     3
  9
$SHADEDIF
 70
    70
  9
$TILEMODE
 70
     1
  9
$MAXACTVP
 70
    16
  9
$PINSBASE
 10
0.0
 20
0.0
 30
0.0
  9
$PLIMCHECK
 70
     0
  9
$PEXTMIN
 10
1.000000000000000E+20
 20
1.000000000000000E+20
 30
1.000000000000000E+20
  9
$PEXTMAX
 10
-1.000000000000000E+20
 20
-1.000000000000000E+20
 30
-1.000000000000000E+20
  9
$PLIMMIN
 10
0.0
 20
0.0
  9
$PLIMMAX
 10
12.0
 20
9.0
  9
$UNITMODE
 70
     0
  9
$VISRETAIN
 70
     0
  9
$PLINEGEN
 70
     0
  9
$PSLTSCALE
 70
     0
  9
$TREEDEPTH
 70
  3020
  9
$CMLSTYLE
  2
Standard
  9
$CMLJUST
 70
     0
  9
$CMLSCALE
 40
1.0
  9
$PROXYGRAPHICS
 70
     1
  9
$MEASUREMENT
 70
     0
  9
$CELWEIGHT
370
    -1
  9
$ENDCAPS
280
     0
  9
$JOINSTYLE
280
     0
  9
$LWDISPLAY
290
     0
  9
$INSUNITS
 70
     0
  9
$HYPERLINKBASE
  1

  9
$STYLESHEET
  1

  9
$XEDIT
290
     1
  9
$CEPSNTYPE
380
     0
  9
$PSTYLEMODE
290
     1
  9
$FINGERPRINTGUID
  2
{16BF42F1-023D-4AEF-816B-8A122EC5A319}
  9
$VERSIONGUID
  2
{B1799FA5-D302-404B-9CB8-7B8438739C1D}
  9
$EXTNAMES
290
     1
  9
$PSVPSCALE
 40
0.0
  9
$OLESTARTUP
290
     0
  0
ENDSEC
  0
SECTION
  2
CLASSES
  0
CLASS
  1
ACDBDICTIONARYWDFLT
  2
AcDbDictionaryWithDefault
  3
AutoCAD 2000
 90
        0
280
     0
281
     0
  0
CLASS
  1
ACDBPLACEHOLDER
  2
AcDbPlaceHolder
  3
AutoCAD 2000
 90
        0
280
     0
281
     0
  0
CLASS
  1
LAYOUT
  2
AcDbLayout
  3
AutoCAD 2000
 90
        0
280
     0
281
     0
  0
CLASS
  1
DICTIONARYVAR
  2
AcDbDictionaryVar
  3
AutoCAD 2000
 90
        0
280
     0
281
     0
  0
ENDSEC
  0
SECTION
  2
TABLES
  0
TABLE
  2
VPORT
  5
8
330
0
100
AcDbSymbolTable
 70
     3
  0
VPORT
  5
7AD
330
8
100
AcDbSymbolTableRecord
100
AcDbViewportTableRecord
  2
*Active
 70
     0
 10
0.0
 20
0.0
 11
1.0
 21
1.0
 12
239.4226186484771
 22
142.8775588884144
 13
0.0
 23
0.0
 14
0.5
 24
0.5
 15
0.0
 25
0.0
 16
0.0
 26
0.0
 36
1.0
 17
0.0
 27
0.0
 37
0.0
 40
285.7551177768288
 41
1.675718849840255
 42
50.0
 43
0.0
 44
0.0
 50
0.0
 51
0.0
 71
     0
 72
   100
 73
     1
 74
     1
 75
     1
 76
     0
 77
     0
 78
     0
281
     0
 65
     1
110
0.0
120
0.0
130
0.0
111
1.0
121
0.0
131
0.0
112
0.0
122
1.0
132
0.0
 79
     0
146
0.0
  0
ENDTAB
  0
TABLE
  2
LTYPE
  5
5
330
0
100
AcDbSymbolTable
 70
     7
  0
LTYPE
  5
13
330
5
100
AcDbSymbolTableRecord
100
AcDbLinetypeTableRecord
  2
ByBlock
 70
     0
  3

 72
    65
 73
     0
 40
0.0
  0
LTYPE
  5
14
330
5
100
AcDbSymbolTableRecord
100
AcDbLinetypeTableRecord
  2
ByLayer
 70
     0
  3

 72
    65
 73
     0
 40
0.0
  0
LTYPE
  5
15
330
5
100
AcDbSymbolTableRecord
100
AcDbLinetypeTableRecord
  2
CONTINUOUS
 70
     0
  3
Solid line
 72
    65
 73
     0
 40
0.0
  0
LTYPE
  5
42
330
5
100
AcDbSymbolTableRecord
100
AcDbLinetypeTableRecord
  2
DASHED
 70
     0
  3
__ __ __ __ __ __ __ __ __ __ __ __ __ __ __ __
 72
    65
 73
     2
 40
0.75
 49
0.5
 74
     0
 49
-0.25
 74
     0
  0
LTYPE
  5
43
330
5
100
AcDbSymbolTableRecord
100
AcDbLinetypeTableRecord
  2
CENTER
 70
     0
  3
____ _ ____ _ ____ _ ____ _ ____ _ ____ _ ____ 
 72
    65
 73
     4
 40
2.0
 49
1.25
 74
     0
 49
-0.25
 74
     0
 49
0.25
 74
     0
 49
-0.25
 74
     0
  0
LTYPE
  5
44
330
5
100
AcDbSymbolTableRecord
100
AcDbLinetypeTableRecord
  2
HIDDEN
 70
     0
  3
__ __ __ __ __ __ __ __ __ __ __ __ __ __ __ __
 72
    65
 73
     2
 40
0.375
 49
0.25
 74
     0
 49
-0.125
 74
     0
  0
LTYPE
  5
45
330
5
100
AcDbSymbolTableRecord
100
AcDbLinetypeTableRecord
  2
DOT
 70
     0
  3
. . . . . . . . . . . . . . . . . . . . . . . .
 72
    65
 73
     2
 40
0.25
 49
0.0
 74
     0
 49
-0.25
 74
     0
  0
LTYPE
  5
46
330
5
100
AcDbSymbolTableRecord
100
AcDbLinetypeTableRecord
  2
DASHDOT
 70
     0
  3
__ . __ . __ . __ . __ . __ . __ . __ . __ . __
 72
    65
 73
     4
 40
1.0
 49
0.5
 74
     0
 49
-0.25
 74
     0
 49
0.0
 74
     0
 49
-0.25
 74
     0
  0
LTYPE
  5
47
330
5
100
AcDbSymbolTableRecord
100
AcDbLinetypeTableRecord
  2
PHANTOM
 70
     0
  3
______  __  __  ______  __  __  ______  __  __ 
 72
    65
 73
     6
 40
2.5
 49
1.25
 74
     0
 49
-0.25
 74
     0
 49
0.25
 74
     0
 49
-0.25
 74
     0
 49
0.25
 74
     0
 49
-0.25
 74
     0
  0
ENDTAB
  0
TABLE
  2
LAYER
  5
2
330
0
100
AcDbSymbolTable
 70
    13
  0
LAYER
  5
10
330
2
100
AcDbSymbolTableRecord
100
AcDbLayerTableRecord
  2
0
 70
     0
 62
     7
  6
CONTINUOUS
370
    -3
390
F
  0
LAYER
  5
4B
330
2
100
AcDbSymbolTableRecord
100
AcDbLayerTableRecord
  2
RAAMI
 70
     0
 62
     4
  6
CONTINUOUS
370
    -3
390
F
  0
LAYER
  5
4C
330
2
100
AcDbSymbolTableRecord
100
AcDbLayerTableRecord
  2
PAKSU
 70
     0
 62
     3
  6
CONTINUOUS
370
    -3
390
F
  0
LAYER
  5
4D
330
2
100
AcDbSymbolTableRecord
100
AcDbLayerTableRecord
  2
OHUT
 70
     0
 62
     6
  6
CONTINUOUS
370
    -3
390
F
  0
LAYER
  5
4E
330
2
100
AcDbSymbolTableRecord
100
AcDbLayerTableRecord
  2
SWEDEN
 70
     0
 62
     7
  6
CONTINUOUS
370
    -3
390
F
  0
LAYER
  5
4F
330
2
100
AcDbSymbolTableRecord
100
AcDbLayerTableRecord
  2
SWEDEN2
 70
     0
 62
     5
  6
CONTINUOUS
370
    -3
390
F
  0
LAYER
  5
50
330
2
100
AcDbSymbolTableRecord
100
AcDbLayerTableRecord
  2
BASE
 70
     0
 62
     7
  6
CONTINUOUS
370
    -3
390
F
  0
LAYER
  5
51
330
2
100
AcDbSymbolTableRecord
100
AcDbLayerTableRecord
  2
21
 70
     0
 62
     2
  6
CONTINUOUS
370
    -3
390
F
  0
LAYER
  5
52
330
2
100
AcDbSymbolTableRecord
100
AcDbLayerTableRecord
  2
HEL035
 70
     0
 62
     7
  6
CONTINUOUS
370
    -3
390
F
  0
LAYER
  5
53
330
2
100
AcDbSymbolTableRecord
100
AcDbLayerTableRecord
  2
MUO
 70
     0
 62
     7
  6
CONTINUOUS
370
    -3
390
F
  0
LAYER
  5
54
330
2
100
AcDbSymbolTableRecord
100
AcDbLayerTableRecord
  2
1
 70
     0
 62
     2
  6
CONTINUOUS
370
    -3
390
F
  0
LAYER
  5
55
330
2
100
AcDbSymbolTableRecord
100
AcDbLayerTableRecord
  2
BASE1
 70
     0
 62
     1
  6
CONTINUOUS
370
    -3
390
F
  0
LAYER
  5
56
330
2
100
AcDbSymbolTableRecord
100
AcDbLayerTableRecord
  2
TEKS
 70
     0
 62
     5
  6
CONTINUOUS
370
    -3
390
F
  0
ENDTAB
  0
TABLE
  2
STYLE
  5
3
330
0
100
AcDbSymbolTable
 70
     6
  0
STYLE
  5
11
330
3
100
AcDbSymbolTableRecord
100
AcDbTextStyleTableRecord
  2
STANDARD
 70
     0
 40
0.0
 41
1.0
 50
0.0
 71
     0
 42
2.5
  3
txt
  4

  0
STYLE
  5
3D
330
3
100
AcDbSymbolTableRecord
100
AcDbTextStyleTableRecord
  2
ROMANS
 70
     0
 40
0.0
 41
1.0
 50
0.0
 71
     0
 42
2.0
  3
romans
  4

  0
STYLE
  5
3E
330
3
100
AcDbSymbolTableRecord
100
AcDbTextStyleTableRecord
  2
GREEKC
 70
     0
 40
0.0
 41
1.0
 50
0.0
 71
     0
 42
1.5
  3
GREEKC
  4

  0
STYLE
  5
3F
330
3
100
AcDbSymbolTableRecord
100
AcDbTextStyleTableRecord
  2
GREEKS
 70
     0
 40
0.0
 41
1.0
 50
0.0
 71
     0
 42
2.0
  3
TXT
  4

  0
STYLE
  5
40
330
3
100
AcDbSymbolTableRecord
100
AcDbTextStyleTableRecord
  2
MONOTXT
 70
     0
 40
0.0
 41
1.0
 50
0.0
 71
     0
 42
2.0
  3
monotxt
  4

  0
STYLE
  5
41
330
3
100
AcDbSymbolTableRecord
100
AcDbTextStyleTableRecord
  2
ROMANT
 70
     0
 40
0.0
 41
1.0
 50
0.0
 71
     0
 42
2.5
  3
romant
  4

  0
ENDTAB
  0
TABLE
  2
VIEW
  5
6
330
0
100
AcDbSymbolTable
 70
     0
  0
ENDTAB
  0
TABLE
  2
UCS
  5
7
330
0
100
AcDbSymbolTable
 70
     0
  0
ENDTAB
  0
TABLE
  2
APPID
  5
9
330
0
100
AcDbSymbolTable
 70
     1
  0
APPID
  5
12
330
9
100
AcDbSymbolTableRecord
100
AcDbRegAppTableRecord
  2
ACAD
 70
     0
  0
ENDTAB
  0
TABLE
  2
DIMSTYLE
  5
A
330
0
100
AcDbSymbolTable
 70
     1
100
AcDbDimStyleTable
 71
     0
  0
DIMSTYLE
105
7A6
330
A
100
AcDbSymbolTableRecord
100
AcDbDimStyleTableRecord
  2
Standard
 70
     0
340
11
  0
ENDTAB
  0
TABLE
  2
BLOCK_RECORD
  5
1
330
0
100
AcDbSymbolTable
 70
    27
  0
BLOCK_RECORD
  5
1E
330
1
100
AcDbSymbolTableRecord
100
AcDbBlockTableRecord
  2
*Model_Space
340
21
  0
BLOCK_RECORD
  5
1A
330
1
100
AcDbSymbolTableRecord
100
AcDbBlockTableRecord
  2
*Paper_Space
340
1D
  0
BLOCK_RECORD
  5
22
330
1
100
AcDbSymbolTableRecord
100
AcDbBlockTableRecord
  2
1
340
0
102
{BLKREFS
331
4E4
331
4E5
331
4E6
102
}
  0
BLOCK_RECORD
  5
23
330
1
100
AcDbSymbolTableRecord
100
AcDbBlockTableRecord
  2
BLC16
340
0
  0
BLOCK_RECORD
  5
24
330
1
100
AcDbSymbolTableRecord
100
AcDbBlockTableRecord
  2
BLC27
340
0
102
{BLKREFS
331
372
331
380
331
392
331
3AB
331
3BB
331
3BC
331
3ED
331
419
331
425
331
426
331
684
331
696
331
6AE
331
6E4
331
6F0
331
6F1
102
}
  0
BLOCK_RECORD
  5
25
330
1
100
AcDbSymbolTableRecord
100
AcDbBlockTableRecord
  2
BLC26
340
0
102
{BLKREFS
331
86
102
}
  0
BLOCK_RECORD
  5
26
330
1
100
AcDbSymbolTableRecord
100
AcDbBlockTableRecord
  2
BLC22
340
0
  0
BLOCK_RECORD
  5
27
330
1
100
AcDbSymbolTableRecord
100
AcDbBlockTableRecord
  2
BLC18
340
0
  0
BLOCK_RECORD
  5
28
330
1
100
AcDbSymbolTableRecord
100
AcDbBlockTableRecord
  2
BLC29
340
0
102
{BLKREFS
331
2AD
331
2D1
331
31A
331
5A9
331
5AA
331
5AB
331
5AC
331
612
331
795
102
}
  0
BLOCK_RECORD
  5
29
330
1
100
AcDbSymbolTableRecord
100
AcDbBlockTableRecord
  2
WKU130
340
0
  0
BLOCK_RECORD
  5
2A
330
1
100
AcDbSymbolTableRecord
100
AcDbBlockTableRecord
  2
BLC15
340
0
102
{BLKREFS
331
363
331
36A
331
375
331
431
331
434
331
442
331
443
331
67E
331
6FC
331
6FF
102
}
  0
BLOCK_RECORD
  5
2B
330
1
100
AcDbSymbolTableRecord
100
AcDbBlockTableRecord
  2
BLC5
340
0
  0
BLOCK_RECORD
  5
2C
330
1
100
AcDbSymbolTableRecord
100
AcDbBlockTableRecord
  2
BLC43
340
0
102
{BLKREFS
331
453
331
46E
331
480
331
485
331
4AA
331
4B0
331
4B6
331
720
331
73B
331
74D
331
752
331
777
331
77E
102
}
  0
BLOCK_RECORD
  5
2D
330
1
100
AcDbSymbolTableRecord
100
AcDbBlockTableRecord
  2
BLC42
340
0
102
{BLKREFS
331
499
331
4A8
331
4BA
331
766
331
775
102
}
  0
BLOCK_RECORD
  5
2E
330
1
100
AcDbSymbolTableRecord
100
AcDbBlockTableRecord
  2
BLC25
340
0
  0
BLOCK_RECORD
  5
2F
330
1
100
AcDbSymbolTableRecord
100
AcDbBlockTableRecord
  2
ABBA3V
340
0
102
{BLKREFS
331
5D1
102
}
  0
BLOCK_RECORD
  5
30
330
1
100
AcDbSymbolTableRecord
100
AcDbBlockTableRecord
  2
*X14
340
0
102
{BLKREFS
331
104
102
}
  0
BLOCK_RECORD
  5
31
330
1
100
AcDbSymbolTableRecord
100
AcDbBlockTableRecord
  2
*X15
340
0
102
{BLKREFS
331
105
102
}
  0
BLOCK_RECORD
  5
32
330
1
100
AcDbSymbolTableRecord
100
AcDbBlockTableRecord
  2
*X16
340
0
102
{BLKREFS
331
106
102
}
  0
BLOCK_RECORD
  5
33
330
1
100
AcDbSymbolTableRecord
100
AcDbBlockTableRecord
  2
*X17
340
0
102
{BLKREFS
331
107
102
}
  0
BLOCK_RECORD
  5
34
330
1
100
AcDbSymbolTableRecord
100
AcDbBlockTableRecord
  2
*X18
340
0
102
{BLKREFS
331
119
331
120
102
}
  0
BLOCK_RECORD
  5
35
330
1
100
AcDbSymbolTableRecord
100
AcDbBlockTableRecord
  2
*X19
340
0
102
{BLKREFS
331
11A
331
11F
102
}
  0
BLOCK_RECORD
  5
36
330
1
100
AcDbSymbolTableRecord
100
AcDbBlockTableRecord
  2
*X20
340
0
102
{BLKREFS
331
11B
331
11E
102
}
  0
BLOCK_RECORD
  5
37
330
1
100
AcDbSymbolTableRecord
100
AcDbBlockTableRecord
  2
*X21
340
0
102
{BLKREFS
331
11C
331
11D
102
}
  0
BLOCK_RECORD
  5
38
330
1
100
AcDbSymbolTableRecord
100
AcDbBlockTableRecord
  2
B507
340
0
102
{BLKREFS
331
393
331
697
102
}
  0
BLOCK_RECORD
  5
39
330
1
100
AcDbSymbolTableRecord
100
AcDbBlockTableRecord
  2
15
340
0
  0
BLOCK_RECORD
  5
3A
330
1
100
AcDbSymbolTableRecord
100
AcDbBlockTableRecord
  2
16
340
0
  0
BLOCK_RECORD
  5
3B
330
1
100
AcDbSymbolTableRecord
100
AcDbBlockTableRecord
  2
18
340
0
  0
BLOCK_RECORD
  5
3C
330
1
100
AcDbSymbolTableRecord
100
AcDbBlockTableRecord
  2
FII
340
0
102
{BLKREFS
331
4D5
331
4D6
331
4D7
331
4D8
102
}
  0
ENDTAB
  0
ENDSEC
  0
SECTION
  2
BLOCKS
  0
BLOCK
  5
59
330
1E
100
AcDbEntity
  8
0
100
AcDbBlockBegin
  2
*Model_Space
 70
     0
 10
0.0
 20
0.0
 30
0.0
  3
*Model_Space
  1

  0
ENDBLK
  5
5A
330
1E
100
AcDbEntity
  8
0
100
AcDbBlockEnd
  0
BLOCK
  5
57
330
1A
100
AcDbEntity
 67
     1
  8
0
100
AcDbBlockBegin
  2
*Paper_Space
 70
     0
 10
0.0
 20
0.0
 30
0.0
  3
*Paper_Space
  1

  0
ENDBLK
  5
58
330
1A
100
AcDbEntity
 67
     1
  8
0
100
AcDbBlockEnd
  0
BLOCK
  5
5B
330
22
100
AcDbEntity
  8
0
100
AcDbBlockBegin
  2
1
 70
     0
 10
0.0
 20
0.0
 30
0.0
  3
1
  1

  0
ENDBLK
  5
5C
330
22
100
AcDbEntity
  8
0
100
AcDbBlockEnd
  0
BLOCK
  5
5D
330
23
100
AcDbEntity
  8
0
100
AcDbBlockBegin
  2
BLC16
 70
     0
 10
0.0
 20
0.0
 30
0.0
  3
BLC16
  1

  0
LINE
  5
5E
330
23
100
AcDbEntity
  8
0
  6
Continuous
100
AcDbLine
 10
0.007688543809266
 20
38.05492790713048
 30
0.0
 11
19.98368297262045
 21
38.05492790713048
 31
0.0
  0
LINE
  5
5F
330
23
100
AcDbEntity
  8
0
  6
Continuous
100
AcDbLine
 10
19.98368297262045
 20
38.05492790713048
 30
0.0
 11
19.98368297262045
 21
-0.0037506651295445
 31
0.0
  0
LINE
  5
60
330
23
100
AcDbEntity
  8
0
  6
Continuous
100
AcDbLine
 10
19.98368297262045
 20
-0.0037506651295445
 30
0.0
 11
0.007688543809266
 21
-0.0037506651295445
 31
0.0
  0
LINE
  5
61
330
23
100
AcDbEntity
  8
0
  6
Continuous
100
AcDbLine
 10
0.007688543809266
 20
-0.0037506651295445
 30
0.0
 11
0.007688543809266
 21
38.05492790713048
 31
0.0
  0
LINE
  5
62
330
23
100
AcDbEntity
  8
0
  6
Continuous
100
AcDbLine
 10
14.15264305765733
 20
36.91973811995545
 30
0.0
 11
14.15264305765733
 21
33.52846854603386
 31
0.0
  0
LINE
  5
63
330
23
100
AcDbEntity
  8
0
  6
Continuous
100
AcDbLine
 10
14.15264305765733
 20
33.52846854603386
 30
0.0
 11
11.56043525426407
 21
33.52846854603386
 31
0.0
  0
LINE
  5
64
330
23
100
AcDbEntity
  8
0
  6
Continuous
100
AcDbLine
 10
11.56043525426407
 20
33.52846854603386
 30
0.0
 11
11.56043525426407
 21
30.77843318004674
 31
0.0
  0
LINE
  5
65
330
23
100
AcDbEntity
  8
0
  6
Continuous
100
AcDbLine
 10
11.56043525426407
 20
30.77843318004674
 30
0.0
 11
14.15264305765733
 21
30.77843318004674
 31
0.0
  0
LINE
  5
66
330
23
100
AcDbEntity
  8
0
  6
Continuous
100
AcDbLine
 10
14.15264305765733
 20
30.77843318004674
 30
0.0
 11
14.15264305765733
 21
27.3871636061251
 31
0.0
  0
TEXT
  5
67
330
23
100
AcDbEntity
  8
0
  6
Continuous
100
AcDbText
 10
6.558569492786901
 20
30.80526575700884
 30
0.0
 40
2.5
  1
2
 11
6.558569492786901
 21
29.97193242367551
 31
0.0
100
AcDbText
 73
     1
  0
TEXT
  5
69
330
23
100
AcDbEntity
  8
0
  6
Continuous
100
AcDbText
 10
6.553289092987213
 20
23.85407765705549
 30
0.0
 40
2.5
  1
2 I
 11
6.553289092987213
 21
23.02074432372215
 31
0.0
100
AcDbText
 73
     1
  0
LINE
  5
6A
330
23
100
AcDbEntity
  8
0
  6
Continuous
100
AcDbLine
 10
12.94253367881567
 20
26.35912860214402
 30
0.0
 11
15.2882991910413
 21
25.02377489077527
 31
0.0
  0
LINE
  5
6B
330
23
100
AcDbEntity
  8
0
  6
Continuous
100
AcDbLine
 10
15.2882991910413
 20
25.02377489077527
 30
0.0
 11
12.94253367881567
 21
23.83385574203085
 31
0.0
  0
LINE
  5
6C
330
23
100
AcDbEntity
  8
0
  6
Continuous
100
AcDbLine
 10
14.16982338783971
 20
26.35912860214402
 30
0.0
 11
16.51558890006533
 21
25.02377489077527
 31
0.0
  0
LINE
  5
6D
330
23
100
AcDbEntity
  8
0
  6
Continuous
100
AcDbLine
 10
16.51558890006533
 20
25.02377489077527
 30
0.0
 11
14.16982338783971
 21
23.83385574203085
 31
0.0
  0
TEXT
  5
6E
330
23
100
AcDbEntity
  8
0
  6
Continuous
100
AcDbText
 10
11.56644561204224
 20
19.2356793808035
 30
0.0
 40
2.5
  1
I
 11
11.56644561204224
 21
18.40234604747017
 31
0.0
100
AcDbText
 73
     1
  0
TEXT
  5
6F
330
23
100
AcDbEntity
  8
0
  6
Continuous
100
AcDbText
 10
13.01818129898113
 20
18.90234604747017
 30
0.0
 40
1.5
  1
2
 11
13.01818129898113
 21
18.40234604747017
 31
0.0
100
AcDbText
 73
     1
  0
LINE
  5
70
330
23
100
AcDbEntity
  8
0
  6
Continuous
100
AcDbLine
 10
10.65732992648723
 20
12.77382488441155
 30
0.0
 11
13.00309543871283
 21
13.96374403315597
 31
0.0
  0
LINE
  5
71
330
23
100
AcDbEntity
  8
0
  6
Continuous
100
AcDbLine
 10
13.00309543871283
 20
11.43847117304277
 30
0.0
 11
10.65732992648723
 21
12.77382488441155
 31
0.0
  0
LINE
  5
72
330
23
100
AcDbEntity
  8
0
  6
Continuous
100
AcDbLine
 10
6.557002402835379
 20
16.71465824609843
 30
0.0
 11
15.28174286348452
 21
16.71465824609843
 31
0.0
  0
LINE
  5
73
330
23
100
AcDbEntity
  8
0
  6
Continuous
100
AcDbLine
 10
6.557002402835379
 20
17.52398388997782
 30
0.0
 11
6.557002402835379
 21
15.90879125881686
 31
0.0
  0
LINE
  5
74
330
23
100
AcDbEntity
  8
0
  6
Continuous
100
AcDbLine
 10
15.28651830982313
 20
17.52398388997782
 30
0.0
 11
15.28651830982313
 21
15.90879125881686
 31
0.0
  0
ARC
  5
75
330
23
100
AcDbEntity
  8
0
  6
Continuous
100
AcDbCircle
 10
12.68484626207323
 20
18.50804481635963
 30
0.0
 40
2.922744400799075
100
AcDbArc
 50
193.1055130667446
 51
283.1055130667446
  0
TEXT
  5
76
330
23
100
AcDbEntity
  8
0
  6
Continuous
100
AcDbText
 10
6.557002402835379
 20
11.5679743218787
 30
0.0
 40
2.5
  1
2I
 11
6.557002402835379
 21
10.73464098854536
 31
0.0
100
AcDbText
 73
     1
  0
LINE
  5
77
330
23
100
AcDbEntity
  8
0
  6
Continuous
100
AcDbLine
 10
6.557002402835379
 20
9.441103420977455
 30
0.0
 11
15.28174286348452
 21
9.441103420977455
 31
0.0
  0
LINE
  5
78
330
23
100
AcDbEntity
  8
0
  6
Continuous
100
AcDbLine
 10
15.28651830982313
 20
10.25042906485684
 30
0.0
 11
15.28651830982313
 21
8.63523643369588
 31
0.0
  0
LINE
  5
79
330
23
100
AcDbEntity
  8
0
  6
Continuous
100
AcDbLine
 10
6.557002402835379
 20
10.25042906485684
 30
0.0
 11
6.557002402835379
 21
8.63523643369588
 31
0.0
  0
TEXT
  5
7A
330
23
100
AcDbEntity
  8
0
  6
Continuous
100
AcDbText
 10
6.557002402835379
 20
4.778631420446179
 30
0.0
 40
2.5
  1
I
 11
6.557002402835379
 21
3.945298087112846
 31
0.0
100
AcDbText
 73
     1
  0
LINE
  5
7B
330
23
100
AcDbEntity
  8
0
  6
Continuous
100
AcDbLine
 10
9.509028761221046
 20
6.822461571955827
 30
0.0
 11
9.509028761221046
 21
5.477735886740859
 31
0.0
  0
LINE
  5
7C
330
23
100
AcDbEntity
  8
0
  6
Continuous
100
AcDbLine
 10
8.615065206632394
 20
5.477735886740859
 30
0.0
 11
9.526220368040085
 21
5.477735886740859
 31
0.0
  0
LINE
  5
7D
330
23
100
AcDbEntity
  8
0
  6
Continuous
100
AcDbLine
 10
9.509028761221046
 20
5.477735886740859
 30
0.0
 11
10.40299231580975
 21
5.477735886740859
 31
0.0
  0
LINE
  5
7E
330
23
100
AcDbEntity
  8
0
  6
Continuous
100
AcDbLine
 10
8.90159198694927
 20
5.082327781630496
 30
0.0
 11
9.509028761221046
 21
5.082327781630496
 31
0.0
  0
LINE
  5
7F
330
23
100
AcDbEntity
  8
0
  6
Continuous
100
AcDbLine
 10
9.509028761221046
 20
5.082327781630525
 30
0.0
 11
10.15084874913087
 21
5.082327781630496
 31
0.0
  0
LINE
  5
80
330
23
100
AcDbEntity
  8
0
  6
Continuous
100
AcDbLine
 10
9.981861134137275
 20
4.719969133827802
 30
0.0
 11
9.072041111215057
 21
4.719969133827802
 31
0.0
  0
LINE
  5
81
330
23
100
AcDbEntity
  8
0
  6
Continuous
100
AcDbLine
 10
15.28651830982313
 20
2.79792376144114
 30
0.0
 11
15.28651830982313
 21
1.182731130280146
 31
0.0
  0
LINE
  5
82
330
23
100
AcDbEntity
  8
0
  6
Continuous
100
AcDbLine
 10
6.557002402835379
 20
1.98859811756175
 30
0.0
 11
15.28174286348452
 21
1.98859811756175
 31
0.0
  0
LINE
  5
83
330
23
100
AcDbEntity
  8
0
  6
Continuous
100
AcDbLine
 10
6.557002402835379
 20
2.79792376144114
 30
0.0
 11
6.557002402835379
 21
1.182731130280146
 31
0.0
  0
ENDBLK
  5
84
330
23
100
AcDbEntity
  8
0
100
AcDbBlockEnd
  0
BLOCK
  5
85
330
24
100
AcDbEntity
  8
0
100
AcDbBlockBegin
  2
BLC27
 70
     0
 10
0.0
 20
0.0
 30
0.0
  3
BLC27
  1

  0
INSERT
  5
86
330
24
100
AcDbEntity
  8
SWEDEN2
  6
CENTER
100
AcDbBlockReference
  2
BLC26
 10
0.0806298676206154
 20
0.0379850207146433
 30
0.0
 41
1.006224687463202
 42
1.006224687463202
 43
1.006224687463202
  0
ENDBLK
  5
87
330
24
100
AcDbEntity
  8
0
100
AcDbBlockEnd
  0
BLOCK
  5
88
330
25
100
AcDbEntity
  8
0
100
AcDbBlockBegin
  2
BLC26
 70
     0
 10
0.0
 20
0.0
 30
0.0
  3
BLC26
  1

  0
ARC
  5
89
330
25
100
AcDbEntity
  8
0
  6
Continuous
100
AcDbCircle
 10
-0.1805760986685527
 20
1.179220254965343
 30
0.0
 40
1.196858692389954
100
AcDbArc
 50
90.0
 51
265.7062371869478
  0
LINE
  5
8A
330
25
100
AcDbEntity
  8
0
  6
Continuous
100
AcDbLine
 10
-0.1866378806934961
 20
-0.0109199663277195
 30
0.0
 11
0.4589419049629271
 21
-0.0109199663277195
 31
0.0
  0
LINE
  5
8B
330
25
100
AcDbEntity
  8
0
  6
Continuous
100
AcDbLine
 10
-0.1866378806934961
 20
2.375670901630712
 30
0.0
 11
0.4528801229380406
 21
2.375670901630712
 31
0.0
  0
LINE
  5
8C
330
25
100
AcDbEntity
  8
0
  6
Continuous
100
AcDbLine
 10
-0.1855088671185854
 20
-2.40462935692193
 30
0.0
 11
0.4600709185378947
 21
-2.40462935692193
 31
0.0
  0
ARC
  5
8D
330
25
100
AcDbEntity
  8
0
  6
Continuous
100
AcDbCircle
 10
-0.1805760986685527
 20
-1.207778658717671
 30
0.0
 40
1.196858692389954
100
AcDbArc
 50
90.0
 51
270.0
  0
LINE
  5
8E
330
25
100
AcDbEntity
  8
0
  6
Continuous
100
AcDbLine
 10
0.4515250165858618
 20
-2.404586463428898
 30
0.0
 11
1.401804627155996
 21
-2.404586463428898
 31
0.0
  0
LINE
  5
8F
330
25
100
AcDbEntity
  8
0
  6
Continuous
100
AcDbLine
 10
0.4467851751237788
 20
2.375673621606836
 30
0.0
 11
1.418543909567034
 21
2.375673621606836
 31
0.0
  0
LINE
  5
90
330
25
100
AcDbEntity
  8
0
  6
Continuous
100
AcDbLine
 10
0.4566268661492927
 20
-0.0109105363144124
 30
0.0
 11
1.422748890188501
 21
-0.0109105363144124
 31
0.0
  0
ENDBLK
  5
91
330
25
100
AcDbEntity
  8
0
100
AcDbBlockEnd
  0
BLOCK
  5
92
330
26
100
AcDbEntity
  8
0
100
AcDbBlockBegin
  2
BLC22
 70
     0
 10
0.0
 20
0.0
 30
0.0
  3
BLC22
  1

  0
LINE
  5
93
330
26
100
AcDbEntity
  8
HEL035
100
AcDbLine
 10
0.0
 20
-0.0015500000000088
 30
0.0
 11
0.0
 21
9.998450000000048
 31
0.0
  0
LINE
  5
94
330
26
100
AcDbEntity
  8
21
100
AcDbLine
 10
2.5
 20
10.0
 30
0.0
 11
5.0
 21
10.0
 31
0.0
  0
LINE
  5
95
330
26
100
AcDbEntity
  8
HEL035
100
AcDbLine
 10
0.0
 20
9.998450000000048
 30
0.0
 11
2.5
 21
9.998450000000048
 31
0.0
  0
LINE
  5
96
330
26
100
AcDbEntity
  8
HEL035
100
AcDbLine
 10
-2.5
 20
5.0
 30
0.0
 11
2.5
 21
5.0
 31
0.0
  0
LINE
  5
97
330
26
100
AcDbEntity
  8
21
100
AcDbLine
 10
2.5
 20
5.0
 30
0.0
 11
5.0
 21
5.0
 31
0.0
  0
LINE
  5
98
330
26
100
AcDbEntity
  8
21
100
AcDbLine
 10
5.0
 20
5.0
 30
0.0
 11
5.0
 21
7.900000000000005
 31
0.0
  0
LINE
  5
99
330
26
100
AcDbEntity
  8
HEL035
100
AcDbLine
 10
3.880950475618021
 20
6.944424757063899
 30
0.0
 11
4.560313229692326
 21
6.008681430563825
 31
0.0
  0
LINE
  5
9A
330
26
100
AcDbEntity
  8
21
100
AcDbLine
 10
10.0
 20
10.0
 30
0.0
 11
4.199999999999988
 21
6.5
 31
0.0
  0
LINE
  5
9B
330
26
100
AcDbEntity
  8
HEL035
100
AcDbLine
 10
2.5
 20
-0.0015500000000088
 30
0.0
 11
0.0
 21
-0.0015500000000088
 31
0.0
  0
LINE
  5
9C
330
26
100
AcDbEntity
  8
21
100
AcDbLine
 10
2.5
 20
0.0
 30
0.0
 11
5.0
 21
0.0
 31
0.0
  0
ENDBLK
  5
9D
330
26
100
AcDbEntity
  8
0
100
AcDbBlockEnd
  0
BLOCK
  5
9E
330
27
100
AcDbEntity
  8
0
100
AcDbBlockBegin
  2
BLC18
 70
     0
 10
0.0
 20
0.0
 30
0.0
  3
BLC18
  1

  0
LINE
  5
9F
330
27
100
AcDbEntity
  8
MUO
100
AcDbLine
 10
-0.0562679883412756
 20
0.8495546738177921
 30
0.0
 11
8.307242059683858
 21
9.215501804109429
 31
0.0
  0
LINE
  5
A0
330
27
100
AcDbEntity
  8
MUO
100
AcDbLine
 10
0.9280248765246881
 20
-0.107047211869272
 30
0.0
 11
9.268385649226672
 21
8.230699888388677
 31
0.0
  0
LINE
  5
A1
330
27
100
AcDbEntity
  8
MUO
100
AcDbLine
 10
-0.0562679883412756
 20
-0.107047211869272
 30
0.0
 11
-0.0562679883412756
 21
9.215501804109429
 31
0.0
  0
LINE
  5
A2
330
27
100
AcDbEntity
  8
MUO
100
AcDbLine
 10
9.268385649226672
 20
-0.107047211869272
 30
0.0
 11
-0.0562679883412756
 21
-0.107047211869272
 31
0.0
  0
LINE
  5
A3
330
27
100
AcDbEntity
  8
MUO
100
AcDbLine
 10
9.268385649226672
 20
9.215501804109429
 30
0.0
 11
9.268385649226672
 21
-0.107047211869272
 31
0.0
  0
LINE
  5
A4
330
27
100
AcDbEntity
  8
MUO
100
AcDbLine
 10
-0.0562679883412756
 20
9.215501804109429
 30
0.0
 11
9.268385649226672
 21
9.215501804109429
 31
0.0
  0
ENDBLK
  5
A5
330
27
100
AcDbEntity
  8
0
100
AcDbBlockEnd
  0
BLOCK
  5
A6
330
28
100
AcDbEntity
  8
0
100
AcDbBlockBegin
  2
BLC29
 70
     0
 10
0.0
 20
0.0
 30
0.0
  3
BLC29
  1

  0
LINE
  5
A7
330
28
100
AcDbEntity
  8
0
  6
Continuous
100
AcDbLine
 10
0.0048653824876794
 20
1.206889041390212
 30
0.0
 11
2.350630894713304
 21
-0.1284646699785696
 31
0.0
  0
LINE
  5
A8
330
28
100
AcDbEntity
  8
0
  6
Continuous
100
AcDbLine
 10
2.350630894713304
 20
-0.1284646699785696
 30
0.0
 11
0.0048653824876794
 21
-1.318383818722992
 31
0.0
  0
ENDBLK
  5
A9
330
28
100
AcDbEntity
  8
0
100
AcDbBlockEnd
  0
BLOCK
  5
AA
330
29
100
AcDbEntity
  8
0
100
AcDbBlockBegin
  2
WKU130
 70
     0
 10
190.0
 20
250.0
 30
0.0
  3
WKU130
  1

  0
ARC
  5
AB
330
29
100
AcDbEntity
  8
21
100
AcDbCircle
 10
191.083333
 20
249.916667
 30
0.0
 40
1.086534
100
AcDbArc
 50
32.47119199999999
 51
175.6012949999999
  0
ARC
  5
AC
330
29
100
AcDbEntity
  8
21
100
AcDbCircle
 10
192.9166669999999
 20
251.083333
 30
0.0
 40
1.086534
100
AcDbArc
 50
212.471192
 51
355.6012949999999
  0
ENDBLK
  5
AD
330
29
100
AcDbEntity
  8
0
100
AcDbBlockEnd
  0
BLOCK
  5
AE
330
2A
100
AcDbEntity
  8
0
100
AcDbBlockBegin
  2
BLC15
 70
     0
 10
0.0
 20
0.0
 30
0.0
  3
BLC15
  1

  0
LINE
  5
AF
330
2A
100
AcDbEntity
  8
0
  6
Continuous
100
AcDbLine
 10
0.1420843676212655
 20
3.490022375113255
 30
0.0
 11
0.1420843676212655
 21
0.8443648832166417
 31
0.0
  0
LINE
  5
B0
330
2A
100
AcDbEntity
  8
0
  6
Continuous
100
AcDbLine
 10
-0.4616105474578376
 20
-0.9371884861638335
 30
0.0
 11
0.7457792827003687
 21
-0.9371884861638335
 31
0.0
  0
LINE
  5
B1
330
2A
100
AcDbEntity
  8
0
  6
Continuous
100
AcDbLine
 10
-0.8941083970667307
 20
-0.0496747197325362
 30
0.0
 11
1.169266760442411
 21
-0.0496747197325362
 31
0.0
  0
LINE
  5
B2
330
2A
100
AcDbEntity
  8
0
  6
Continuous
100
AcDbLine
 10
-1.389678849743603
 20
0.8443648832166417
 30
0.0
 11
1.673847584986134
 21
0.8443648832166417
 31
0.0
  0
ENDBLK
  5
B3
330
2A
100
AcDbEntity
  8
0
100
AcDbBlockEnd
  0
BLOCK
  5
B4
330
2B
100
AcDbEntity
  8
0
100
AcDbBlockBegin
  2
BLC5
 70
     0
 10
0.0
 20
0.0
 30
0.0
  3
BLC5
  1

  0
TEXT
  5
B5
330
2B
100
AcDbEntity
  8
0
100
AcDbText
 10
-3.043703616622593
 20
-6.645911909806137
 30
0.0
 40
3.2
  1
PE
100
AcDbText
  0
LINE
  5
B6
330
2B
100
AcDbEntity
  8
0
100
AcDbLine
 10
-2.946391600460657
 20
1.181176409735783
 30
0.0
 11
2.135458132443943
 21
1.181176409735783
 31
0.0
  0
LINE
  5
B7
330
2B
100
AcDbEntity
  8
0
100
AcDbLine
 10
-0.4865600808100226
 20
2.238361925631892
 30
0.0
 11
-0.4865600808100226
 21
6.930438381985624
 31
0.0
  0
LINE
  5
B8
330
2B
100
AcDbEntity
  8
0
100
AcDbLine
 10
-1.973271438840612
 20
0.0652583651787779
 30
0.0
 11
1.225410573891878
 21
0.0652583651787779
 31
0.0
  0
LINE
  5
B9
330
2B
100
AcDbEntity
  8
0
100
AcDbLine
 10
2.685090816321945
 20
2.238361925631892
 30
0.0
 11
1.68493953910135
 21
2.238361925631892
 31
0.0
  0
LINE
  5
BA
330
2B
100
AcDbEntity
  8
0
100
AcDbLine
 10
-3.505034656205481
 20
2.238361925631892
 30
0.0
 11
2.649049328854516
 21
2.238361925631892
 31
0.0
  0
CIRCLE
  5
BB
330
2B
100
AcDbEntity
  8
0
100
AcDbCircle
 10
-0.4775497089431724
 20
1.422632360897239
 30
0.0
 40
3.80456268992242
  0
ENDBLK
  5
BC
330
2B
100
AcDbEntity
  8
0
100
AcDbBlockEnd
  0
BLOCK
  5
BD
330
2C
100
AcDbEntity
  8
0
100
AcDbBlockBegin
  2
BLC43
 70
     0
 10
0.0
 20
0.0
 30
0.0
  3
BLC43
  1

  0
TEXT
  5
BE
330
2C
100
AcDbEntity
  8
SWEDEN2
  6
Continuous
100
AcDbText
 10
-0.6466721562502756
 20
-0.9863647580152061
 30
0.0
 40
2.0
  1
+
100
AcDbText
  0
ENDBLK
  5
BF
330
2C
100
AcDbEntity
  8
0
100
AcDbBlockEnd
  0
BLOCK
  5
C0
330
2D
100
AcDbEntity
  8
0
100
AcDbBlockBegin
  2
BLC42
 70
     0
 10
0.0
 20
0.0
 30
0.0
  3
BLC42
  1

  0
TEXT
  5
C1
330
2D
100
AcDbEntity
  8
SWEDEN2
  6
Continuous
100
AcDbText
 10
-0.6552371134230981
 20
-0.9944195846351995
 30
0.0
 40
2.0
  1
-
100
AcDbText
  0
ENDBLK
  5
C2
330
2D
100
AcDbEntity
  8
0
100
AcDbBlockEnd
  0
BLOCK
  5
C3
330
2E
100
AcDbEntity
  8
0
100
AcDbBlockBegin
  2
BLC25
 70
     0
 10
0.0
 20
0.0
 30
0.0
  3
BLC25
  1

  0
TEXT
  5
C4
330
2E
100
AcDbEntity
  8
0
  6
Continuous
100
AcDbText
 10
2.0
 20
30.66666666666666
 30
0.0
 40
2.0
  1
1)
 11
2.0
 21
30.0
 31
0.0
100
AcDbText
 73
     1
  0
TEXT
  5
C5
330
2E
100
AcDbEntity
  8
0
100
AcDbText
 10
6.0
 20
1.999999999999995
 30
0.0
 40
2.0
  1
7B    27     26
 11
6.0
 21
1.333333333333328
 31
0.0
100
AcDbText
 73
     1
  0
TEXT
  5
C6
330
2E
100
AcDbEntity
  8
0
100
AcDbText
 10
6.0
 20
5.333333333333331
 30
0.0
 40
2.0
  1
5B     9      8
 11
6.0
 21
4.666666666666664
 31
0.0
100
AcDbText
 73
     1
  0
TEXT
  5
C7
330
2E
100
AcDbEntity
  8
0
100
AcDbText
 10
6.0
 20
8.666666666666666
 30
0.0
 40
2.0
  1
3B     3      2
 11
6.0
 21
8.0
 31
0.0
100
AcDbText
 73
     1
  0
TEXT
  5
C8
330
2E
100
AcDbEntity
  8
0
100
AcDbText
 10
32.0
 20
12.66666666666666
 30
0.0
 40
2.0
  1
In=5A
 11
32.0
 21
12.0
 31
0.0
100
AcDbText
 73
     1
  0
TEXT
  5
C9
330
2E
100
AcDbEntity
  8
0
100
AcDbText
 10
16.0
 20
12.66666666666666
 30
0.0
 40
2.0
  1
In=1A 
 11
16.0
 21
12.0
 31
0.0
100
AcDbText
 73
     1
  0
TEXT
  5
CA
330
2E
100
AcDbEntity
  8
0
100
AcDbText
 10
26.0
 20
18.66666666666666
 30
0.0
 40
2.0
  1
108:
 11
26.0
 21
18.0
 31
0.0
100
AcDbText
 73
     1
  0
TEXT
  5
CB
330
2E
100
AcDbEntity
  8
0
100
AcDbText
 10
6.0
 20
18.66666666666666
 30
0.0
 40
2.0
  1
101:       
 11
6.0
 21
18.0
 31
0.0
100
AcDbText
 73
     1
  0
TEXT
  5
CC
330
2E
100
AcDbEntity
  8
0
100
AcDbText
 10
6.0
 20
24.66666666666666
 30
0.0
 40
2.0
  1
TERMINALS / UTTAG
 11
6.0
 21
24.0
 31
0.0
100
AcDbText
 73
     1
  0
LINE
  5
CD
330
2E
100
AcDbEntity
  8
0
100
AcDbLine
 10
0.0
 20
12.0
 30
0.0
 11
44.0
 21
12.0
 31
0.0
  0
LINE
  5
CE
330
2E
100
AcDbEntity
  8
0
100
AcDbLine
 10
28.0
 20
18.0
 30
0.0
 11
28.0
 21
0.0
 31
0.0
  0
LINE
  5
CF
330
2E
100
AcDbEntity
  8
0
100
AcDbLine
 10
14.0
 20
18.0
 30
0.0
 11
44.0
 21
18.0
 31
0.0
  0
LINE
  5
D0
330
2E
100
AcDbEntity
  8
0
100
AcDbLine
 10
14.0
 20
24.0
 30
0.0
 11
14.0
 21
0.0
 31
0.0
  0
LINE
  5
D1
330
2E
100
AcDbEntity
  8
0
100
AcDbLine
 10
0.0
 20
24.0
 30
0.0
 11
44.0
 21
24.0
 31
0.0
  0
LINE
  5
D2
330
2E
100
AcDbEntity
  8
0
100
AcDbLine
 10
44.0
 20
0.0
 30
0.0
 11
44.0
 21
30.0
 31
0.0
  0
LINE
  5
D3
330
2E
100
AcDbEntity
  8
0
100
AcDbLine
 10
0.0
 20
0.0
 30
0.0
 11
44.0
 21
0.0
 31
0.0
  0
LINE
  5
D4
330
2E
100
AcDbEntity
  8
0
100
AcDbLine
 10
0.0
 20
30.0
 30
0.0
 11
0.0
 21
0.0
 31
0.0
  0
LINE
  5
D5
330
2E
100
AcDbEntity
  8
0
100
AcDbLine
 10
44.0
 20
30.0
 30
0.0
 11
0.0
 21
30.0
 31
0.0
  0
ENDBLK
  5
D6
330
2E
100
AcDbEntity
  8
0
100
AcDbBlockEnd
  0
BLOCK
  5
D7
330
2F
100
AcDbEntity
  8
0
100
AcDbBlockBegin
  2
ABBA3V
 70
     0
 10
0.0
 20
0.0
 30
0.0
  3
ABBA3V
  1

  0
TEXT
  5
D8
330
2F
100
AcDbEntity
  8
RAAMI
  6
DASHED
100
AcDbText
 10
292.217194262135
 20
11.81335905974098
 30
0.0
 40
3.0
  1
A3
  7
GREEKS
100
AcDbText
  0
TEXT
  5
D9
330
2F
100
AcDbEntity
  8
RAAMI
  6
DASHED
100
AcDbText
 10
351.8185767466981
 20
15.69252984362215
 30
0.0
 40
1.399999999999999
  1
LEHTI SHEET
  7
GREEKS
100
AcDbText
  0
LINE
  5
DA
330
2F
100
AcDbEntity
  8
PAKSU
100
AcDbLine
 10
0.2370990874900258
 20
262.7379992524221
 30
0.0
 11
392.23709908749
 21
262.7379992524221
 31
0.0
  0
LINE
  5
DB
330
2F
100
AcDbEntity
  8
RAAMI
100
AcDbLine
 10
18.23709908749002
 20
0.2379992524221779
 30
0.0
 11
0.2370990874900258
 21
0.2379992524221779
 31
0.0
  0
LINE
  5
DC
330
2F
100
AcDbEntity
  8
PAKSU
100
AcDbLine
 10
209.23709908749
 20
0.2379992524221779
 30
0.0
 11
392.23709908749
 21
0.2379992524221779
 31
0.0
  0
LINE
  5
DD
330
2F
100
AcDbEntity
  8
PAKSU
100
AcDbLine
 10
209.23709908749
 20
0.2379992524221779
 30
0.0
 11
209.23709908749
 21
35.23799925242217
 31
0.0
  0
LINE
  5
DE
330
2F
100
AcDbEntity
  8
PAKSU
100
AcDbLine
 10
392.23709908749
 20
0.2379992524221779
 30
0.0
 11
392.23709908749
 21
35.23799925242217
 31
0.0
  0
LINE
  5
DF
330
2F
100
AcDbEntity
  8
OHUT
100
AcDbLine
 10
209.23709908749
 20
18.23799925242217
 30
0.0
 11
392.23709908749
 21
18.23799925242217
 31
0.0
  0
LINE
  5
E0
330
2F
100
AcDbEntity
  8
OHUT
100
AcDbLine
 10
209.23709908749
 20
9.737999252422177
 30
0.0
 11
392.23709908749
 21
9.737999252422177
 31
0.0
  0
LINE
  5
E1
330
2F
100
AcDbEntity
  8
OHUT
100
AcDbLine
 10
209.23709908749
 20
26.73799925242217
 30
0.0
 11
307.23709908749
 21
26.73799925242217
 31
0.0
  0
LINE
  5
E2
330
2F
100
AcDbEntity
  8
PAKSU
100
AcDbLine
 10
209.23709908749
 20
35.23799925242217
 30
0.0
 11
392.23709908749
 21
35.23799925242217
 31
0.0
  0
TEXT
  5
E3
330
2F
100
AcDbEntity
  8
RAAMI
100
AcDbText
 10
210.23709908749
 20
23.97133258575551
 30
0.0
 40
1.399999999999999
  1
TARKASTI  CHECKED
  7
ROMANS
100
AcDbText
  0
TEXT
  5
E5
330
2F
100
AcDbEntity
  8
RAAMI
100
AcDbText
 10
209.9799338133564
 20
15.70466591908884
 30
0.0
 40
1.399999999999999
  1
HYVKSYI  APPROVED
  7
ROMANS
100
AcDbText
  0
LINE
  5
E6
330
2F
100
AcDbEntity
  8
OHUT
100
AcDbLine
 10
307.23709908749
 20
0.2379992524221779
 30
0.0
 11
307.23709908749
 21
35.23799925242217
 31
0.0
  0
TEXT
  5
E7
330
2F
100
AcDbEntity
  8
RAAMI
100
AcDbText
 10
259.23709908749
 20
32.73799925242217
 30
0.0
 40
1.399999999999999
  1
LIITTYY  CONCERNING
  7
ROMANS
100
AcDbText
  0
TEXT
  5
E8
330
2F
100
AcDbEntity
  8
RAAMI
100
AcDbText
 10
259.23709908749
 20
23.73799925242217
 30
0.0
 40
1.399999999999999
  1
TOLERANSSIT  TOLERANCES
  7
ROMANS
100
AcDbText
  0
TEXT
  5
E9
330
2F
100
AcDbEntity
  8
RAAMI
100
AcDbText
 10
259.23709908749
 20
15.73799925242217
 30
0.0
 40
1.399999999999999
  1
SUHDE  SCALE
  7
ROMANS
100
AcDbText
  0
TEXT
  5
EA
330
2F
100
AcDbEntity
  8
RAAMI
100
AcDbText
 10
309.23709908749
 20
32.73799925242217
 30
0.0
 40
1.399999999999999
  1
NIMITYS  NAME
  7
ROMANS
100
AcDbText
  0
TEXT
  5
EB
330
2F
100
AcDbEntity
  8
RAAMI
100
AcDbText
 10
309.23709908749
 20
15.73799925242217
 30
0.0
 40
1.399999999999999
  1
KOODI  CODE
  7
ROMANS
100
AcDbText
  0
TEXT
  5
EC
330
2F
100
AcDbEntity
  8
RAAMI
100
AcDbText
 10
309.23709908749
 20
7.237999252422177
 30
0.0
 40
1.399999999999999
  1
PIIRUSTUS NO  DRAWING NR
  7
ROMANS
100
AcDbText
  0
LINE
  5
ED
330
2F
100
AcDbEntity
  8
OHUT
100
AcDbLine
 10
349.73709908749
 20
9.737999252422177
 30
0.0
 11
349.73709908749
 21
18.23799925242217
 31
0.0
  0
TEXT
  5
EE
330
2F
100
AcDbEntity
  8
RAAMI
100
AcDbText
 10
371.23709908749
 20
7.237999252422177
 30
0.0
 40
1.399999999999999
  1
PAINOS  REVISION
  7
ROMANS
100
AcDbText
  0
LINE
  5
EF
330
2F
100
AcDbEntity
  8
OHUT
100
AcDbLine
 10
369.73709908749
 20
9.737999252422177
 30
0.0
 11
369.73709908749
 21
0.2379992524221779
 31
0.0
  0
LINE
  5
F0
330
2F
100
AcDbEntity
  8
RAAMI
100
AcDbLine
 10
210.18709908749
 20
1.737999252422177
 30
0.0
 11
211.93709908749
 21
1.737999252422177
 31
0.0
  0
LINE
  5
F1
330
2F
100
AcDbEntity
  8
RAAMI
100
AcDbLine
 10
215.43709908749
 20
1.737999252422177
 30
0.0
 11
217.18709908749
 21
1.737999252422177
 31
0.0
  0
LINE
  5
F2
330
2F
100
AcDbEntity
  8
RAAMI
100
AcDbLine
 10
212.63709908749
 20
8.737999252422177
 30
0.0
 11
211.4595712478463
 21
5.373633996297456
 31
0.0
  0
LINE
  5
F3
330
2F
100
AcDbEntity
  8
RAAMI
100
AcDbLine
 10
212.4258857855872
 20
3.137999252422176
 30
0.0
 11
213.54709908749
 21
3.137999252422176
 31
0.0
  0
LINE
  5
F4
330
2F
100
AcDbEntity
  8
RAAMI
100
AcDbLine
 10
212.4258889824527
 20
3.134541809458486
 30
0.0
 11
211.93709908749
 21
1.737999252422177
 31
0.0
  0
LINE
  5
F5
330
2F
100
AcDbEntity
  8
RAAMI
100
AcDbLine
 10
214.73709908749
 20
8.737999252422177
 30
0.0
 11
215.9134520127146
 21
5.376990894637707
 31
0.0
  0
LINE
  5
F6
330
2F
100
AcDbEntity
  8
RAAMI
100
AcDbLine
 10
214.9481967907755
 20
3.134862957320585
 30
0.0
 11
215.43709908749
 21
1.737999252422177
 31
0.0
  0
LINE
  5
F7
330
2F
100
AcDbEntity
  8
RAAMI
100
AcDbLine
 10
214.73709908749
 20
8.737999252422177
 30
0.0
 11
213.82709908749
 21
8.737999252422177
 31
0.0
  0
LINE
  5
F8
330
2F
100
AcDbEntity
  8
RAAMI
100
AcDbLine
 10
213.54709908749
 20
8.737999252422177
 30
0.0
 11
213.54709908749
 21
5.377999252422178
 31
0.0
  0
LINE
  5
F9
330
2F
100
AcDbEntity
  8
RAAMI
100
AcDbLine
 10
213.82709908749
 20
8.737999252422177
 30
0.0
 11
213.82709908749
 21
5.377999252422178
 31
0.0
  0
LINE
  5
FA
330
2F
100
AcDbEntity
  8
RAAMI
100
AcDbLine
 10
213.82709908749
 20
3.137999252422176
 30
0.0
 11
214.9469924809167
 21
3.137999252422176
 31
0.0
  0
LINE
  5
FB
330
2F
100
AcDbEntity
  8
RAAMI
100
AcDbLine
 10
213.54709908749
 20
8.737999252422177
 30
0.0
 11
212.63709908749
 21
8.737999252422177
 31
0.0
  0
LINE
  5
FC
330
2F
100
AcDbEntity
  8
RAAMI
100
AcDbLine
 10
211.4590398011296
 20
5.377999252422178
 30
0.0
 11
213.54709908749
 21
5.377999252422178
 31
0.0
  0
LINE
  5
FD
330
2F
100
AcDbEntity
  8
RAAMI
100
AcDbLine
 10
211.3600815769602
 20
5.097999252422177
 30
0.0
 11
213.54709908749
 21
5.097999252422177
 31
0.0
  0
LINE
  5
FE
330
2F
100
AcDbEntity
  8
RAAMI
100
AcDbLine
 10
216.0115910012183
 20
5.096593784627025
 30
0.0
 11
217.18709908749
 21
1.737999252422177
 31
0.0
  0
LINE
  5
FF
330
2F
100
AcDbEntity
  8
RAAMI
100
AcDbLine
 10
213.82709908749
 20
5.377999252422178
 30
0.0
 11
215.9122127349171
 21
5.377999252422178
 31
0.0
  0
LINE
  5
100
330
2F
100
AcDbEntity
  8
RAAMI
100
AcDbLine
 10
213.82709908749
 20
5.097999252422177
 30
0.0
 11
216.0103556182099
 21
5.097999252422177
 31
0.0
  0
LINE
  5
101
330
2F
100
AcDbEntity
  8
RAAMI
100
AcDbLine
 10
213.82709908749
 20
5.097999252422177
 30
0.0
 11
213.82709908749
 21
3.137999252422176
 31
0.0
  0
LINE
  5
102
330
2F
100
AcDbEntity
  8
RAAMI
100
AcDbLine
 10
213.54709908749
 20
5.097999252422177
 30
0.0
 11
213.54709908749
 21
3.137999252422176
 31
0.0
  0
LINE
  5
103
330
2F
100
AcDbEntity
  8
RAAMI
100
AcDbLine
 10
211.3569877289154
 20
5.080538227923291
 30
0.0
 11
210.18709908749
 21
1.737999252422177
 31
0.0
  0
INSERT
  5
104
330
2F
100
AcDbEntity
  8
RAAMI
100
AcDbBlockReference
  2
*X14
 10
210.18709908749
 20
1.737999252422177
 30
0.0
 41
0.7
 42
0.7
 43
0.7
  0
INSERT
  5
105
330
2F
100
AcDbEntity
  8
RAAMI
100
AcDbBlockReference
  2
*X15
 10
210.18709908749
 20
1.737999252422177
 30
0.0
 41
0.7
 42
0.7
 43
0.7
  0
INSERT
  5
106
330
2F
100
AcDbEntity
  8
RAAMI
100
AcDbBlockReference
  2
*X16
 10
210.18709908749
 20
1.737999252422177
 30
0.0
 41
0.7
 42
0.7
 43
0.7
  0
INSERT
  5
107
330
2F
100
AcDbEntity
  8
RAAMI
100
AcDbBlockReference
  2
*X17
 10
210.18709908749
 20
1.737999252422177
 30
0.0
 41
0.7
 42
0.7
 43
0.7
  0
LINE
  5
108
330
2F
100
AcDbEntity
  8
RAAMI
100
AcDbLine
 10
217.67709908749
 20
1.737999252422177
 30
0.0
 11
217.67709908749
 21
5.097999252422177
 31
0.0
  0
LINE
  5
109
330
2F
100
AcDbEntity
  8
RAAMI
100
AcDbLine
 10
217.67709908749
 20
8.737999252422177
 30
0.0
 11
219.63709908749
 21
8.737999252422177
 31
0.0
  0
LINE
  5
10A
330
2F
100
AcDbEntity
  8
RAAMI
100
AcDbLine
 10
219.63709908749
 20
8.737999252422177
 30
0.0
 11
219.63709908749
 21
5.377999252422178
 31
0.0
  0
LINE
  5
10B
330
2F
100
AcDbEntity
  8
RAAMI
100
AcDbLine
 10
219.63709908749
 20
5.377999252422178
 30
0.0
 11
217.67709908749
 21
5.377999252422178
 31
0.0
  0
LINE
  5
10C
330
2F
100
AcDbEntity
  8
RAAMI
100
AcDbLine
 10
217.67709908749
 20
5.097999252422177
 30
0.0
 11
219.63709908749
 21
5.097999252422177
 31
0.0
  0
LINE
  5
10D
330
2F
100
AcDbEntity
  8
RAAMI
100
AcDbLine
 10
219.63709908749
 20
5.097999252422177
 30
0.0
 11
219.63709908749
 21
1.737999252422177
 31
0.0
  0
LINE
  5
10E
330
2F
100
AcDbEntity
  8
RAAMI
100
AcDbLine
 10
219.63709908749
 20
1.737999252422177
 30
0.0
 11
217.67709908749
 21
1.737999252422177
 31
0.0
  0
LINE
  5
10F
330
2F
100
AcDbEntity
  8
RAAMI
100
AcDbLine
 10
217.67709908749
 20
5.377999252422178
 30
0.0
 11
217.67709908749
 21
8.737999252422177
 31
0.0
  0
ARC
  5
110
330
2F
100
AcDbEntity
  8
RAAMI
100
AcDbCircle
 10
220.47709908749
 20
7.162999252422174
 30
0.0
 40
1.574999999999998
100
AcDbArc
 50
298.4558593394117
 51
90.0524369955635
  0
LINE
  5
111
330
2F
100
AcDbEntity
  8
RAAMI
100
AcDbLine
 10
219.91709908749
 20
8.737999252422177
 30
0.0
 11
220.4756576504909
 21
8.737998592821838
 31
0.0
  0
LINE
  5
112
330
2F
100
AcDbEntity
  8
RAAMI
100
AcDbLine
 10
219.91709908749
 20
8.737999252422177
 30
0.0
 11
219.91709908749
 21
5.377999252422178
 31
0.0
  0
LINE
  5
113
330
2F
100
AcDbEntity
  8
RAAMI
100
AcDbLine
 10
219.91709908749
 20
5.377999252422178
 30
0.0
 11
221.9015418540271
 21
5.377999252422178
 31
0.0
  0
LINE
  5
114
330
2F
100
AcDbEntity
  8
RAAMI
100
AcDbLine
 10
222.15709908749
 20
5.097999252422177
 30
0.0
 11
219.91709908749
 21
5.097999252422177
 31
0.0
  0
LINE
  5
115
330
2F
100
AcDbEntity
  8
RAAMI
100
AcDbLine
 10
219.91709908749
 20
5.097999252422177
 30
0.0
 11
219.91709908749
 21
1.737999252422177
 31
0.0
  0
ARC
  5
116
330
2F
100
AcDbEntity
  8
RAAMI
100
AcDbCircle
 10
220.47709908749
 20
3.837999252422179
 30
0.0
 40
2.099999999999998
100
AcDbArc
 50
269.9377244294032
 51
37.05655321680703
  0
LINE
  5
117
330
2F
100
AcDbEntity
  8
RAAMI
100
AcDbLine
 10
219.91709908749
 20
1.737999252422177
 30
0.0
 11
220.4748165690634
 21
1.738000492872633
 31
0.0
  0
ARC
  5
118
330
2F
100
AcDbEntity
  8
RAAMI
100
AcDbCircle
 10
220.47709908749
 20
3.837999252422179
 30
0.0
 40
2.099999999999998
100
AcDbArc
 50
47.28621969132301
 51
68.78799932186918
  0
INSERT
  5
119
330
2F
100
AcDbEntity
  8
RAAMI
100
AcDbBlockReference
  2
*X18
 10
210.18709908749
 20
1.737999252422177
 30
0.0
 41
0.7
 42
0.7
 43
0.7
  0
INSERT
  5
11A
330
2F
100
AcDbEntity
  8
RAAMI
100
AcDbBlockReference
  2
*X19
 10
210.18709908749
 20
1.737999252422177
 30
0.0
 41
0.7
 42
0.7
 43
0.7
  0
INSERT
  5
11B
330
2F
100
AcDbEntity
  8
RAAMI
100
AcDbBlockReference
  2
*X20
 10
210.18709908749
 20
1.737999252422177
 30
0.0
 41
0.7
 42
0.7
 43
0.7
  0
INSERT
  5
11C
330
2F
100
AcDbEntity
  8
RAAMI
100
AcDbBlockReference
  2
*X21
 10
210.18709908749
 20
1.737999252422177
 30
0.0
 41
0.7
 42
0.7
 43
0.7
  0
INSERT
  5
11D
330
2F
100
AcDbEntity
  8
RAAMI
100
AcDbBlockReference
  2
*X21
 10
215.64709908749
 20
1.737999252422177
 30
0.0
 41
0.7
 42
0.7
 43
0.7
  0
INSERT
  5
11E
330
2F
100
AcDbEntity
  8
RAAMI
100
AcDbBlockReference
  2
*X20
 10
215.64709908749
 20
1.737999252422177
 30
0.0
 41
0.7
 42
0.7
 43
0.7
  0
INSERT
  5
11F
330
2F
100
AcDbEntity
  8
RAAMI
100
AcDbBlockReference
  2
*X19
 10
215.64709908749
 20
1.737999252422177
 30
0.0
 41
0.7
 42
0.7
 43
0.7
  0
INSERT
  5
120
330
2F
100
AcDbEntity
  8
RAAMI
100
AcDbBlockReference
  2
*X18
 10
215.64709908749
 20
1.737999252422177
 30
0.0
 41
0.7
 42
0.7
 43
0.7
  0
ARC
  5
121
330
2F
100
AcDbEntity
  8
RAAMI
100
AcDbCircle
 10
225.93709908749
 20
3.837999252422179
 30
0.0
 40
2.099999999999998
100
AcDbArc
 50
47.28621969132301
 51
68.78799932186918
  0
LINE
  5
122
330
2F
100
AcDbEntity
  8
RAAMI
100
AcDbLine
 10
225.37709908749
 20
1.737999252422177
 30
0.0
 11
225.9348165690634
 21
1.738000492872633
 31
0.0
  0
ARC
  5
123
330
2F
100
AcDbEntity
  8
RAAMI
100
AcDbCircle
 10
225.93709908749
 20
3.837999252422179
 30
0.0
 40
2.099999999999998
100
AcDbArc
 50
269.9377244294032
 51
37.05655321680703
  0
LINE
  5
124
330
2F
100
AcDbEntity
  8
RAAMI
100
AcDbLine
 10
225.37709908749
 20
5.097999252422177
 30
0.0
 11
225.37709908749
 21
1.737999252422177
 31
0.0
  0
LINE
  5
125
330
2F
100
AcDbEntity
  8
RAAMI
100
AcDbLine
 10
227.61709908749
 20
5.097999252422177
 30
0.0
 11
225.37709908749
 21
5.097999252422177
 31
0.0
  0
LINE
  5
126
330
2F
100
AcDbEntity
  8
RAAMI
100
AcDbLine
 10
225.37709908749
 20
5.377999252422178
 30
0.0
 11
227.3615418540271
 21
5.377999252422178
 31
0.0
  0
LINE
  5
127
330
2F
100
AcDbEntity
  8
RAAMI
100
AcDbLine
 10
225.37709908749
 20
8.737999252422177
 30
0.0
 11
225.37709908749
 21
5.377999252422178
 31
0.0
  0
LINE
  5
128
330
2F
100
AcDbEntity
  8
RAAMI
100
AcDbLine
 10
225.37709908749
 20
8.737999252422177
 30
0.0
 11
225.9356576504909
 21
8.737998592821838
 31
0.0
  0
ARC
  5
129
330
2F
100
AcDbEntity
  8
RAAMI
100
AcDbCircle
 10
225.93709908749
 20
7.162999252422174
 30
0.0
 40
1.574999999999998
100
AcDbArc
 50
298.4558593394117
 51
90.0524369955635
  0
LINE
  5
12A
330
2F
100
AcDbEntity
  8
RAAMI
100
AcDbLine
 10
223.13709908749
 20
5.377999252422178
 30
0.0
 11
223.13709908749
 21
8.737999252422177
 31
0.0
  0
LINE
  5
12B
330
2F
100
AcDbEntity
  8
RAAMI
100
AcDbLine
 10
225.09709908749
 20
1.737999252422177
 30
0.0
 11
223.13709908749
 21
1.737999252422177
 31
0.0
  0
LINE
  5
12C
330
2F
100
AcDbEntity
  8
RAAMI
100
AcDbLine
 10
225.09709908749
 20
5.097999252422177
 30
0.0
 11
225.09709908749
 21
1.737999252422177
 31
0.0
  0
LINE
  5
12D
330
2F
100
AcDbEntity
  8
RAAMI
100
AcDbLine
 10
223.13709908749
 20
5.097999252422177
 30
0.0
 11
225.09709908749
 21
5.097999252422177
 31
0.0
  0
LINE
  5
12E
330
2F
100
AcDbEntity
  8
RAAMI
100
AcDbLine
 10
225.09709908749
 20
5.377999252422178
 30
0.0
 11
223.13709908749
 21
5.377999252422178
 31
0.0
  0
LINE
  5
12F
330
2F
100
AcDbEntity
  8
RAAMI
100
AcDbLine
 10
225.09709908749
 20
8.737999252422177
 30
0.0
 11
225.09709908749
 21
5.377999252422178
 31
0.0
  0
LINE
  5
130
330
2F
100
AcDbEntity
  8
RAAMI
100
AcDbLine
 10
223.13709908749
 20
8.737999252422177
 30
0.0
 11
225.09709908749
 21
8.737999252422177
 31
0.0
  0
LINE
  5
131
330
2F
100
AcDbEntity
  8
RAAMI
100
AcDbLine
 10
223.13709908749
 20
1.737999252422177
 30
0.0
 11
223.13709908749
 21
5.097999252422177
 31
0.0
  0
TEXT
  5
132
330
2F
100
AcDbEntity
  8
RAAMI
100
AcDbText
 10
229.73709908749
 20
1.737999252422177
 30
0.0
 40
3.0
  1
ABB 
 41
0.8
  7
ROMANS
100
AcDbText
  0
TEXT
  5
133
330
2F
100
AcDbEntity
  8
RAAMI
100
AcDbText
 10
237.73709908749
 20
1.737999252422177
 30
0.0
 40
3.0
  1
Strmberg
 41
0.8
  7
ROMANS
100
AcDbText
  0
LINE
  5
134
330
2F
100
AcDbEntity
  8
OHUT
100
AcDbLine
 10
282.23709908749
 20
9.737999252422177
 30
0.0
 11
282.23709908749
 21
18.23799925242217
 31
0.0
  0
TEXT
  5
135
330
2F
100
AcDbEntity
  8
RAAMI
100
AcDbText
 10
27.73709908749002
 20
4.737999252422177
 30
0.0
 40
1.399999999999999
  1
MUUTOS
  7
ROMANS
100
AcDbText
  0
TEXT
  5
136
330
2F
100
AcDbEntity
  8
RAAMI
100
AcDbText
 10
27.73709908749002
 20
2.471332585755512
 30
0.0
 40
1.399999999999999
  1
REVISION
  7
ROMANS
100
AcDbText
  0
LINE
  5
137
330
2F
100
AcDbEntity
  8
OHUT
100
AcDbLine
 10
46.73709908749002
 20
9.237999252422177
 30
0.0
 11
209.23709908749
 21
9.237999252422177
 31
0.0
  0
LINE
  5
138
330
2F
100
AcDbEntity
  8
OHUT
100
AcDbLine
 10
46.73709908749002
 20
0.2379992524221779
 30
0.0
 11
46.73709908749002
 21
9.237999252422177
 31
0.0
  0
LINE
  5
139
330
2F
100
AcDbEntity
  8
OHUT
100
AcDbLine
 10
40.73709908749002
 20
4.737999252422177
 30
0.0
 11
209.23709908749
 21
4.737999252422177
 31
0.0
  0
LINE
  5
13A
330
2F
100
AcDbEntity
  8
OHUT
100
AcDbLine
 10
257.23709908749
 20
9.737999252422177
 30
0.0
 11
257.23709908749
 21
35.23799925242217
 31
0.0
  0
LINE
  5
13B
330
2F
100
AcDbEntity
  8
OHUT
100
AcDbLine
 10
271.23709908749
 20
9.737999252422177
 30
0.0
 11
271.23709908749
 21
0.2379992524221779
 31
0.0
  0
TEXT
  5
13C
330
2F
100
AcDbEntity
  8
RAAMI
100
AcDbText
 10
210.23709908749
 20
32.23799925242218
 30
0.0
 40
1.399999999999999
  1
TEKI  PREPARED
  7
ROMANS
100
AcDbText
  0
TEXT
  5
13D
330
2F
100
AcDbEntity
  8
RAAMI
100
AcDbText
 10
273.23709908749
 20
7.237999252422177
 30
0.0
 40
1.399999999999999
  1
VAST.OSASTO RESP.DEPT.
  7
ROMANS
100
AcDbText
  0
TEXT
  5
13E
330
2F
100
AcDbEntity
  8
RAAMI
100
AcDbText
 10
257.4070059842234
 20
1.741782898647898
 30
0.0
 40
3.0
  1
Power
 41
0.8
  7
ROMANS
100
AcDbText
  0
TEXT
  5
13F
330
2F
100
AcDbEntity
  8
RAAMI
100
AcDbText
 10
42.23709908749002
 20
1.195292064563767
 30
0.0
 40
2.5
  1
B
  7
ROMANS
100
AcDbText
  0
TEXT
  5
140
330
2F
100
AcDbEntity
  8
RAAMI
100
AcDbText
 10
42.23709908749002
 20
5.587508451304787
 30
0.0
 40
2.5
  1
C
  7
ROMANS
100
AcDbText
  0
LINE
  5
141
330
2F
100
AcDbEntity
  8
PAKSU
100
AcDbLine
 10
0.2370990874900258
 20
0.2379992524221779
 30
0.0
 11
392.23709908749
 21
0.2379992524221779
 31
0.0
  0
LINE
  5
142
330
2F
100
AcDbEntity
  8
PAKSU
100
AcDbLine
 10
392.23709908749
 20
262.7379992524221
 30
0.0
 11
392.23709908749
 21
0.2379992524221779
 31
0.0
  0
LINE
  5
143
330
2F
100
AcDbEntity
  8
PAKSU
100
AcDbLine
 10
0.2370990874900258
 20
0.2379992524221779
 30
0.0
 11
0.2370990874900258
 21
262.7379992524221
 31
0.0
  0
ENDBLK
  5
144
330
2F
100
AcDbEntity
  8
0
100
AcDbBlockEnd
  0
BLOCK
  5
145
330
30
100
AcDbEntity
  8
0
100
AcDbBlockBegin
  2
*X14
 70
     1
 10
0.0
 20
0.0
 30
0.0
  3
*X14
  1

  0
LINE
  5
146
330
30
100
AcDbEntity
  8
0
 62
     0
100
AcDbLine
 10
2.284498831525768
 20
6.527139518645053
 30
0.0
 11
4.8
 21
9.042640687119284
 31
0.0
  0
LINE
  5
147
330
30
100
AcDbEntity
  8
0
 62
     0
100
AcDbLine
 10
2.379686282839342
 20
6.799103665255263
 30
0.0
 11
4.8
 21
9.219417382415922
 31
0.0
  0
LINE
  5
148
330
30
100
AcDbEntity
  8
0
 62
     0
100
AcDbLine
 10
2.474873734152915
 20
7.071067811865474
 30
0.0
 11
4.8
 21
9.396194077712559
 31
0.0
  0
LINE
  5
149
330
30
100
AcDbEntity
  8
0
 62
     0
100
AcDbLine
 10
2.570061185466489
 20
7.343031958475685
 30
0.0
 11
4.8
 21
9.572970773009195
 31
0.0
  0
LINE
  5
14A
330
30
100
AcDbEntity
  8
0
 62
     0
100
AcDbLine
 10
2.665248636780063
 20
7.614996105085896
 30
0.0
 11
4.8
 21
9.749747468305832
 31
0.0
  0
LINE
  5
14B
330
30
100
AcDbEntity
  8
0
 62
     0
100
AcDbLine
 10
2.760436088093637
 20
7.886960251696106
 30
0.0
 11
4.8
 21
9.926524163602469
 31
0.0
  0
LINE
  5
14C
330
30
100
AcDbEntity
  8
0
 62
     0
100
AcDbLine
 10
2.85562353940721
 20
8.158924398306316
 30
0.0
 11
4.696699141100895
 21
10.0
 31
0.0
  0
LINE
  5
14D
330
30
100
AcDbEntity
  8
0
 62
     0
100
AcDbLine
 10
2.950810990720784
 20
8.430888544916527
 30
0.0
 11
4.519922445804257
 21
10.0
 31
0.0
  0
LINE
  5
14E
330
30
100
AcDbEntity
  8
0
 62
     0
100
AcDbLine
 10
3.045998442034358
 20
8.702852691526738
 30
0.0
 11
4.343145750507621
 21
10.0
 31
0.0
  0
LINE
  5
14F
330
30
100
AcDbEntity
  8
0
 62
     0
100
AcDbLine
 10
3.141185893347932
 20
8.974816838136948
 30
0.0
 11
4.166369055210983
 21
10.0
 31
0.0
  0
LINE
  5
150
330
30
100
AcDbEntity
  8
0
 62
     0
100
AcDbLine
 10
3.236373344661505
 20
9.246780984747159
 30
0.0
 11
3.989592359914347
 21
10.0
 31
0.0
  0
LINE
  5
151
330
30
100
AcDbEntity
  8
0
 62
     0
100
AcDbLine
 10
3.331560795975079
 20
9.51874513135737
 30
0.0
 11
3.81281566461771
 21
10.0
 31
0.0
  0
LINE
  5
152
330
30
100
AcDbEntity
  8
0
 62
     0
100
AcDbLine
 10
3.426748247288653
 20
9.790709277967581
 30
0.0
 11
3.636038969321073
 21
10.0
 31
0.0
  0
LINE
  5
153
330
30
100
AcDbEntity
  8
0
 62
     0
100
AcDbLine
 10
2.189311380212195
 20
6.255175372034843
 30
0.0
 11
4.8
 21
8.865863991822648
 31
0.0
  0
LINE
  5
154
330
30
100
AcDbEntity
  8
0
 62
     0
100
AcDbLine
 10
2.094123928898621
 20
5.983211225424632
 30
0.0
 11
4.8
 21
8.689087296526011
 31
0.0
  0
LINE
  5
155
330
30
100
AcDbEntity
  8
0
 62
     0
100
AcDbLine
 10
1.998936477585047
 20
5.711247078814421
 30
0.0
 11
4.8
 21
8.512310601229374
 31
0.0
  0
LINE
  5
156
330
30
100
AcDbEntity
  8
0
 62
     0
100
AcDbLine
 10
1.903749026271473
 20
5.439282932204211
 30
0.0
 11
4.8
 21
8.335533905932738
 31
0.0
  0
LINE
  5
157
330
30
100
AcDbEntity
  8
0
 62
     0
100
AcDbLine
 10
1.841242789363899
 20
5.2
 30
0.0
 11
4.8
 21
8.1587572106361
 31
0.0
  0
LINE
  5
158
330
30
100
AcDbEntity
  8
0
 62
     0
100
AcDbLine
 10
2.018019484660536
 20
5.2
 30
0.0
 11
4.8
 21
7.981980515339463
 31
0.0
  0
LINE
  5
159
330
30
100
AcDbEntity
  8
0
 62
     0
100
AcDbLine
 10
2.194796179957173
 20
5.2
 30
0.0
 11
4.8
 21
7.805203820042827
 31
0.0
  0
LINE
  5
15A
330
30
100
AcDbEntity
  8
0
 62
     0
100
AcDbLine
 10
2.37157287525381
 20
5.2
 30
0.0
 11
4.8
 21
7.62842712474619
 31
0.0
  0
LINE
  5
15B
330
30
100
AcDbEntity
  8
0
 62
     0
100
AcDbLine
 10
2.548349570550447
 20
5.2
 30
0.0
 11
4.8
 21
7.451650429449553
 31
0.0
  0
LINE
  5
15C
330
30
100
AcDbEntity
  8
0
 62
     0
100
AcDbLine
 10
2.725126265847084
 20
5.2
 30
0.0
 11
4.8
 21
7.274873734152916
 31
0.0
  0
LINE
  5
15D
330
30
100
AcDbEntity
  8
0
 62
     0
100
AcDbLine
 10
2.901902961143721
 20
5.2
 30
0.0
 11
4.8
 21
7.098097038856279
 31
0.0
  0
LINE
  5
15E
330
30
100
AcDbEntity
  8
0
 62
     0
100
AcDbLine
 10
3.078679656440358
 20
5.2
 30
0.0
 11
4.8
 21
6.921320343559642
 31
0.0
  0
LINE
  5
15F
330
30
100
AcDbEntity
  8
0
 62
     0
100
AcDbLine
 10
3.255456351736994
 20
5.2
 30
0.0
 11
4.8
 21
6.744543648263006
 31
0.0
  0
LINE
  5
160
330
30
100
AcDbEntity
  8
0
 62
     0
100
AcDbLine
 10
3.432233047033631
 20
5.2
 30
0.0
 11
4.8
 21
6.567766952966368
 31
0.0
  0
LINE
  5
161
330
30
100
AcDbEntity
  8
0
 62
     0
100
AcDbLine
 10
3.609009742330268
 20
5.2
 30
0.0
 11
4.8
 21
6.390990257669732
 31
0.0
  0
LINE
  5
162
330
30
100
AcDbEntity
  8
0
 62
     0
100
AcDbLine
 10
3.785786437626905
 20
5.2
 30
0.0
 11
4.8
 21
6.214213562373095
 31
0.0
  0
LINE
  5
163
330
30
100
AcDbEntity
  8
0
 62
     0
100
AcDbLine
 10
3.962563132923542
 20
5.2
 30
0.0
 11
4.8
 21
6.037436867076458
 31
0.0
  0
LINE
  5
164
330
30
100
AcDbEntity
  8
0
 62
     0
100
AcDbLine
 10
4.139339828220179
 20
5.2
 30
0.0
 11
4.8
 21
5.860660171779821
 31
0.0
  0
LINE
  5
165
330
30
100
AcDbEntity
  8
0
 62
     0
100
AcDbLine
 10
4.316116523516816
 20
5.2
 30
0.0
 11
4.8
 21
5.683883476483184
 31
0.0
  0
LINE
  5
166
330
30
100
AcDbEntity
  8
0
 62
     0
100
AcDbLine
 10
4.492893218813453
 20
5.2
 30
0.0
 11
4.8
 21
5.507106781186547
 31
0.0
  0
LINE
  5
167
330
30
100
AcDbEntity
  8
0
 62
     0
100
AcDbLine
 10
4.669669914110089
 20
5.2
 30
0.0
 11
4.8
 21
5.330330085889911
 31
0.0
  0
ENDBLK
  5
168
330
30
100
AcDbEntity
  8
0
100
AcDbBlockEnd
  0
BLOCK
  5
169
330
31
100
AcDbEntity
  8
0
100
AcDbBlockBegin
  2
*X15
 70
     1
 10
0.0
 20
0.0
 30
0.0
  3
*X15
  1

  0
LINE
  5
16A
330
31
100
AcDbEntity
  8
0
 62
     0
100
AcDbLine
 10
5.2
 20
6.083883476483183
 30
0.0
 11
7.178252432022877
 21
8.062135908506061
 31
0.0
  0
LINE
  5
16B
330
31
100
AcDbEntity
  8
0
 62
     0
100
AcDbLine
 10
5.2
 20
6.260660171779821
 30
0.0
 11
7.132421436945971
 21
8.19308160872579
 31
0.0
  0
LINE
  5
16C
330
31
100
AcDbEntity
  8
0
 62
     0
100
AcDbLine
 10
5.2
 20
6.437436867076457
 30
0.0
 11
7.086590441869065
 21
8.324027308945522
 31
0.0
  0
LINE
  5
16D
330
31
100
AcDbEntity
  8
0
 62
     0
100
AcDbLine
 10
5.2
 20
6.614213562373095
 30
0.0
 11
7.04075944679216
 21
8.454973009165254
 31
0.0
  0
LINE
  5
16E
330
31
100
AcDbEntity
  8
0
 62
     0
100
AcDbLine
 10
5.2
 20
6.790990257669731
 30
0.0
 11
6.994928451715254
 21
8.585918709384984
 31
0.0
  0
LINE
  5
16F
330
31
100
AcDbEntity
  8
0
 62
     0
100
AcDbLine
 10
5.2
 20
6.967766952966368
 30
0.0
 11
6.949097456638348
 21
8.716864409604715
 31
0.0
  0
LINE
  5
170
330
31
100
AcDbEntity
  8
0
 62
     0
100
AcDbLine
 10
5.2
 20
7.144543648263005
 30
0.0
 11
6.903266461561442
 21
8.847810109824447
 31
0.0
  0
LINE
  5
171
330
31
100
AcDbEntity
  8
0
 62
     0
100
AcDbLine
 10
5.2
 20
7.321320343559642
 30
0.0
 11
6.857435466484536
 21
8.978755810044177
 31
0.0
  0
LINE
  5
172
330
31
100
AcDbEntity
  8
0
 62
     0
100
AcDbLine
 10
5.2
 20
7.498097038856279
 30
0.0
 11
6.81160447140763
 21
9.109701510263908
 31
0.0
  0
LINE
  5
173
330
31
100
AcDbEntity
  8
0
 62
     0
100
AcDbLine
 10
5.2
 20
7.674873734152916
 30
0.0
 11
6.765773476330724
 21
9.24064721048364
 31
0.0
  0
LINE
  5
174
330
31
100
AcDbEntity
  8
0
 62
     0
100
AcDbLine
 10
5.2
 20
7.851650429449552
 30
0.0
 11
6.719942481253818
 21
9.37159291070337
 31
0.0
  0
LINE
  5
175
330
31
100
AcDbEntity
  8
0
 62
     0
100
AcDbLine
 10
5.2
 20
8.028427124746189
 30
0.0
 11
6.674111486176912
 21
9.502538610923101
 31
0.0
  0
LINE
  5
176
330
31
100
AcDbEntity
  8
0
 62
     0
100
AcDbLine
 10
5.2
 20
8.205203820042827
 30
0.0
 11
6.628280491100007
 21
9.633484311142833
 31
0.0
  0
LINE
  5
177
330
31
100
AcDbEntity
  8
0
 62
     0
100
AcDbLine
 10
5.2
 20
8.381980515339463
 30
0.0
 11
6.582449496023101
 21
9.764430011362563
 31
0.0
  0
LINE
  5
178
330
31
100
AcDbEntity
  8
0
 62
     0
100
AcDbLine
 10
5.2
 20
8.5587572106361
 30
0.0
 11
6.536618500946195
 21
9.895375711582294
 31
0.0
  0
LINE
  5
179
330
31
100
AcDbEntity
  8
0
 62
     0
100
AcDbLine
 10
5.2
 20
8.735533905932737
 30
0.0
 11
6.464466094067264
 21
10.0
 31
0.0
  0
LINE
  5
17A
330
31
100
AcDbEntity
  8
0
 62
     0
100
AcDbLine
 10
5.2
 20
8.912310601229373
 30
0.0
 11
6.287689398770627
 21
10.0
 31
0.0
  0
LINE
  5
17B
330
31
100
AcDbEntity
  8
0
 62
     0
100
AcDbLine
 10
5.2
 20
9.089087296526011
 30
0.0
 11
6.11091270347399
 21
10.0
 31
0.0
  0
LINE
  5
17C
330
31
100
AcDbEntity
  8
0
 62
     0
100
AcDbLine
 10
5.2
 20
9.265863991822648
 30
0.0
 11
5.934136008177353
 21
10.0
 31
0.0
  0
LINE
  5
17D
330
31
100
AcDbEntity
  8
0
 62
     0
100
AcDbLine
 10
5.2
 20
9.442640687119284
 30
0.0
 11
5.757359312880716
 21
10.0
 31
0.0
  0
LINE
  5
17E
330
31
100
AcDbEntity
  8
0
 62
     0
100
AcDbLine
 10
5.2
 20
9.619417382415921
 30
0.0
 11
5.580582617584079
 21
10.0
 31
0.0
  0
LINE
  5
17F
330
31
100
AcDbEntity
  8
0
 62
     0
100
AcDbLine
 10
5.2
 20
9.796194077712558
 30
0.0
 11
5.403805922287442
 21
10.0
 31
0.0
  0
LINE
  5
180
330
31
100
AcDbEntity
  8
0
 62
     0
100
AcDbLine
 10
5.2
 20
9.972970773009194
 30
0.0
 11
5.227029226990805
 21
10.0
 31
0.0
  0
LINE
  5
181
330
31
100
AcDbEntity
  8
0
 62
     0
100
AcDbLine
 10
5.2
 20
5.907106781186547
 30
0.0
 11
7.224083427099783
 21
7.931190208286329
 31
0.0
  0
LINE
  5
182
330
31
100
AcDbEntity
  8
0
 62
     0
100
AcDbLine
 10
5.2
 20
5.73033008588991
 30
0.0
 11
7.269914422176689
 21
7.800244508066598
 31
0.0
  0
LINE
  5
183
330
31
100
AcDbEntity
  8
0
 62
     0
100
AcDbLine
 10
5.2
 20
5.553553390593273
 30
0.0
 11
7.315745417253594
 21
7.669298807846868
 31
0.0
  0
LINE
  5
184
330
31
100
AcDbEntity
  8
0
 62
     0
100
AcDbLine
 10
5.2
 20
5.376776695296636
 30
0.0
 11
7.3615764123305
 21
7.538353107627136
 31
0.0
  0
LINE
  5
185
330
31
100
AcDbEntity
  8
0
 62
     0
100
AcDbLine
 10
5.2
 20
5.2
 30
0.0
 11
7.407407407407406
 21
7.407407407407405
 31
0.0
  0
LINE
  5
186
330
31
100
AcDbEntity
  8
0
 62
     0
100
AcDbLine
 10
5.376776695296637
 20
5.2
 30
0.0
 11
7.453238402484312
 21
7.276461707187674
 31
0.0
  0
LINE
  5
187
330
31
100
AcDbEntity
  8
0
 62
     0
100
AcDbLine
 10
5.553553390593274
 20
5.2
 30
0.0
 11
7.499069397561219
 21
7.145516006967943
 31
0.0
  0
LINE
  5
188
330
31
100
AcDbEntity
  8
0
 62
     0
100
AcDbLine
 10
5.730330085889911
 20
5.2
 30
0.0
 11
7.544900392638124
 21
7.014570306748212
 31
0.0
  0
LINE
  5
189
330
31
100
AcDbEntity
  8
0
 62
     0
100
AcDbLine
 10
5.907106781186548
 20
5.2
 30
0.0
 11
7.59073138771503
 21
6.883624606528481
 31
0.0
  0
LINE
  5
18A
330
31
100
AcDbEntity
  8
0
 62
     0
100
AcDbLine
 10
6.083883476483184
 20
5.2
 30
0.0
 11
7.636562382791936
 21
6.752678906308751
 31
0.0
  0
LINE
  5
18B
330
31
100
AcDbEntity
  8
0
 62
     0
100
AcDbLine
 10
6.260660171779822
 20
5.2
 30
0.0
 11
7.682393377868842
 21
6.621733206089019
 31
0.0
  0
LINE
  5
18C
330
31
100
AcDbEntity
  8
0
 62
     0
100
AcDbLine
 10
6.437436867076458
 20
5.2
 30
0.0
 11
7.728224372945748
 21
6.490787505869288
 31
0.0
  0
LINE
  5
18D
330
31
100
AcDbEntity
  8
0
 62
     0
100
AcDbLine
 10
6.614213562373095
 20
5.2
 30
0.0
 11
7.774055368022653
 21
6.359841805649558
 31
0.0
  0
LINE
  5
18E
330
31
100
AcDbEntity
  8
0
 62
     0
100
AcDbLine
 10
6.790990257669732
 20
5.2
 30
0.0
 11
7.819886363099559
 21
6.228896105429826
 31
0.0
  0
LINE
  5
18F
330
31
100
AcDbEntity
  8
0
 62
     0
100
AcDbLine
 10
6.967766952966369
 20
5.2
 30
0.0
 11
7.865717358176465
 21
6.097950405210095
 31
0.0
  0
LINE
  5
190
330
31
100
AcDbEntity
  8
0
 62
     0
100
AcDbLine
 10
7.144543648263006
 20
5.2
 30
0.0
 11
7.911548353253371
 21
5.967004704990364
 31
0.0
  0
LINE
  5
191
330
31
100
AcDbEntity
  8
0
 62
     0
100
AcDbLine
 10
7.321320343559643
 20
5.2
 30
0.0
 11
7.957379348330277
 21
5.836059004770634
 31
0.0
  0
LINE
  5
192
330
31
100
AcDbEntity
  8
0
 62
     0
100
AcDbLine
 10
7.49809703885628
 20
5.2
 30
0.0
 11
8.003210343407182
 21
5.705113304550902
 31
0.0
  0
LINE
  5
193
330
31
100
AcDbEntity
  8
0
 62
     0
100
AcDbLine
 10
7.674873734152916
 20
5.2
 30
0.0
 11
8.049041338484089
 21
5.574167604331171
 31
0.0
  0
LINE
  5
194
330
31
100
AcDbEntity
  8
0
 62
     0
100
AcDbLine
 10
7.851650429449553
 20
5.2
 30
0.0
 11
8.094872333560994
 21
5.443221904111441
 31
0.0
  0
LINE
  5
195
330
31
100
AcDbEntity
  8
0
 62
     0
100
AcDbLine
 10
8.02842712474619
 20
5.2
 30
0.0
 11
8.140703328637901
 21
5.312276203891709
 31
0.0
  0
ENDBLK
  5
196
330
31
100
AcDbEntity
  8
0
100
AcDbBlockEnd
  0
BLOCK
  5
197
330
32
100
AcDbEntity
  8
0
100
AcDbBlockBegin
  2
*X16
 70
     1
 10
0.0
 20
0.0
 30
0.0
  3
*X16
  1

  0
LINE
  5
198
330
32
100
AcDbEntity
  8
0
 62
     0
100
AcDbLine
 10
0.0
 20
0.0
 30
0.0
 11
4.8
 21
4.799999999999999
 31
0.0
  0
LINE
  5
199
330
32
100
AcDbEntity
  8
0
 62
     0
100
AcDbLine
 10
0.0951874513135737
 20
0.2719641466102105
 30
0.0
 11
4.623223304703364
 21
4.8
 31
0.0
  0
LINE
  5
19A
330
32
100
AcDbEntity
  8
0
 62
     0
100
AcDbLine
 10
0.1903749026271474
 20
0.5439282932204211
 30
0.0
 11
4.446446609406727
 21
4.8
 31
0.0
  0
LINE
  5
19B
330
32
100
AcDbEntity
  8
0
 62
     0
100
AcDbLine
 10
0.2855623539407211
 20
0.8158924398306318
 30
0.0
 11
4.269669914110091
 21
4.8
 31
0.0
  0
LINE
  5
19C
330
32
100
AcDbEntity
  8
0
 62
     0
100
AcDbLine
 10
0.3807498052542948
 20
1.087856586440842
 30
0.0
 11
4.092893218813453
 21
4.8
 31
0.0
  0
LINE
  5
19D
330
32
100
AcDbEntity
  8
0
 62
     0
100
AcDbLine
 10
0.4759372565678686
 20
1.359820733051052
 30
0.0
 11
3.916116523516816
 21
4.8
 31
0.0
  0
LINE
  5
19E
330
32
100
AcDbEntity
  8
0
 62
     0
100
AcDbLine
 10
0.5711247078814422
 20
1.631784879661263
 30
0.0
 11
3.73933982822018
 21
4.8
 31
0.0
  0
LINE
  5
19F
330
32
100
AcDbEntity
  8
0
 62
     0
100
AcDbLine
 10
0.6663121591950159
 20
1.903749026271474
 30
0.0
 11
3.562563132923543
 21
4.8
 31
0.0
  0
LINE
  5
1A0
330
32
100
AcDbEntity
  8
0
 62
     0
100
AcDbLine
 10
0.7614996105085896
 20
2.175713172881684
 30
0.0
 11
3.385786437626906
 21
4.8
 31
0.0
  0
LINE
  5
1A1
330
32
100
AcDbEntity
  8
0
 62
     0
100
AcDbLine
 10
0.8566870618221631
 20
2.447677319491895
 30
0.0
 11
3.209009742330269
 21
4.8
 31
0.0
  0
LINE
  5
1A2
330
32
100
AcDbEntity
  8
0
 62
     0
100
AcDbLine
 10
0.951874513135737
 20
2.719641466102105
 30
0.0
 11
3.032233047033632
 21
4.8
 31
0.0
  0
LINE
  5
1A3
330
32
100
AcDbEntity
  8
0
 62
     0
100
AcDbLine
 10
1.04706196444931
 20
2.991605612712316
 30
0.0
 11
2.855456351736995
 21
4.8
 31
0.0
  0
LINE
  5
1A4
330
32
100
AcDbEntity
  8
0
 62
     0
100
AcDbLine
 10
1.142249415762884
 20
3.263569759322527
 30
0.0
 11
2.678679656440358
 21
4.8
 31
0.0
  0
LINE
  5
1A5
330
32
100
AcDbEntity
  8
0
 62
     0
100
AcDbLine
 10
1.237436867076458
 20
3.535533905932737
 30
0.0
 11
2.501902961143721
 21
4.8
 31
0.0
  0
LINE
  5
1A6
330
32
100
AcDbEntity
  8
0
 62
     0
100
AcDbLine
 10
1.332624318390031
 20
3.807498052542948
 30
0.0
 11
2.325126265847084
 21
4.8
 31
0.0
  0
LINE
  5
1A7
330
32
100
AcDbEntity
  8
0
 62
     0
100
AcDbLine
 10
1.427811769703605
 20
4.079462199153158
 30
0.0
 11
2.148349570550447
 21
4.8
 31
0.0
  0
LINE
  5
1A8
330
32
100
AcDbEntity
  8
0
 62
     0
100
AcDbLine
 10
1.522999221017179
 20
4.351426345763369
 30
0.0
 11
1.971572875253811
 21
4.8
 31
0.0
  0
LINE
  5
1A9
330
32
100
AcDbEntity
  8
0
 62
     0
100
AcDbLine
 10
1.618186672330752
 20
4.623390492373579
 30
0.0
 11
1.794796179957174
 21
4.8
 31
0.0
  0
LINE
  5
1AA
330
32
100
AcDbEntity
  8
0
 62
     0
100
AcDbLine
 10
0.1767766952966369
 20
0.0
 30
0.0
 11
4.8
 21
4.623223304703363
 31
0.0
  0
LINE
  5
1AB
330
32
100
AcDbEntity
  8
0
 62
     0
100
AcDbLine
 10
0.3535533905932738
 20
0.0
 30
0.0
 11
4.8
 21
4.446446609406725
 31
0.0
  0
LINE
  5
1AC
330
32
100
AcDbEntity
  8
0
 62
     0
100
AcDbLine
 10
0.5303300858899107
 20
0.0
 30
0.0
 11
4.8
 21
4.269669914110089
 31
0.0
  0
LINE
  5
1AD
330
32
100
AcDbEntity
  8
0
 62
     0
100
AcDbLine
 10
0.7071067811865476
 20
0.0
 30
0.0
 11
4.8
 21
4.092893218813452
 31
0.0
  0
LINE
  5
1AE
330
32
100
AcDbEntity
  8
0
 62
     0
100
AcDbLine
 10
0.8838834764831844
 20
0.0
 30
0.0
 11
4.8
 21
3.916116523516815
 31
0.0
  0
LINE
  5
1AF
330
32
100
AcDbEntity
  8
0
 62
     0
100
AcDbLine
 10
1.060660171779821
 20
0.0
 30
0.0
 11
4.8
 21
3.739339828220178
 31
0.0
  0
LINE
  5
1B0
330
32
100
AcDbEntity
  8
0
 62
     0
100
AcDbLine
 10
1.237436867076458
 20
0.0
 30
0.0
 11
3.17984168695883
 21
1.942404819882371
 31
0.0
  0
LINE
  5
1B1
330
32
100
AcDbEntity
  8
0
 62
     0
100
AcDbLine
 10
3.237436867076458
 20
2.0
 30
0.0
 11
4.8
 21
3.562563132923541
 31
0.0
  0
LINE
  5
1B2
330
32
100
AcDbEntity
  8
0
 62
     0
100
AcDbLine
 10
1.414213562373095
 20
0.0
 30
0.0
 11
3.084654235645256
 21
1.670440673272161
 31
0.0
  0
LINE
  5
1B3
330
32
100
AcDbEntity
  8
0
 62
     0
100
AcDbLine
 10
3.414213562373095
 20
2.0
 30
0.0
 11
4.8
 21
3.385786437626904
 31
0.0
  0
LINE
  5
1B4
330
32
100
AcDbEntity
  8
0
 62
     0
100
AcDbLine
 10
1.590990257669732
 20
0.0
 30
0.0
 11
2.989466784331682
 21
1.39847652666195
 31
0.0
  0
LINE
  5
1B5
330
32
100
AcDbEntity
  8
0
 62
     0
100
AcDbLine
 10
3.590990257669732
 20
2.0
 30
0.0
 11
4.8
 21
3.209009742330267
 31
0.0
  0
LINE
  5
1B6
330
32
100
AcDbEntity
  8
0
 62
     0
100
AcDbLine
 10
1.767766952966368
 20
0.0
 30
0.0
 11
2.894279333018109
 21
1.12651238005174
 31
0.0
  0
LINE
  5
1B7
330
32
100
AcDbEntity
  8
0
 62
     0
100
AcDbLine
 10
3.767766952966369
 20
2.0
 30
0.0
 11
4.8
 21
3.032233047033631
 31
0.0
  0
LINE
  5
1B8
330
32
100
AcDbEntity
  8
0
 62
     0
100
AcDbLine
 10
1.944543648263005
 20
0.0
 30
0.0
 11
2.799091881704535
 21
0.8545482334415293
 31
0.0
  0
LINE
  5
1B9
330
32
100
AcDbEntity
  8
0
 62
     0
100
AcDbLine
 10
3.944543648263006
 20
2.0
 30
0.0
 11
4.8
 21
2.855456351736994
 31
0.0
  0
LINE
  5
1BA
330
32
100
AcDbEntity
  8
0
 62
     0
100
AcDbLine
 10
2.121320343559642
 20
0.0
 30
0.0
 11
2.703904430390961
 21
0.5825840868313189
 31
0.0
  0
LINE
  5
1BB
330
32
100
AcDbEntity
  8
0
 62
     0
100
AcDbLine
 10
4.121320343559642
 20
2.0
 30
0.0
 11
4.8
 21
2.678679656440357
 31
0.0
  0
LINE
  5
1BC
330
32
100
AcDbEntity
  8
0
 62
     0
100
AcDbLine
 10
2.298097038856279
 20
0.0
 30
0.0
 11
2.608716979077388
 21
0.3106199402211083
 31
0.0
  0
LINE
  5
1BD
330
32
100
AcDbEntity
  8
0
 62
     0
100
AcDbLine
 10
4.29809703885628
 20
2.0
 30
0.0
 11
4.8
 21
2.50190296114372
 31
0.0
  0
LINE
  5
1BE
330
32
100
AcDbEntity
  8
0
 62
     0
100
AcDbLine
 10
2.474873734152916
 20
0.0
 30
0.0
 11
2.513529527763814
 21
0.0386557936108977
 31
0.0
  0
LINE
  5
1BF
330
32
100
AcDbEntity
  8
0
 62
     0
100
AcDbLine
 10
4.474873734152916
 20
2.0
 30
0.0
 11
4.8
 21
2.325126265847083
 31
0.0
  0
LINE
  5
1C0
330
32
100
AcDbEntity
  8
0
 62
     0
100
AcDbLine
 10
4.651650429449554
 20
2.0
 30
0.0
 11
4.8
 21
2.148349570550446
 31
0.0
  0
ENDBLK
  5
1C1
330
32
100
AcDbEntity
  8
0
100
AcDbBlockEnd
  0
BLOCK
  5
1C2
330
33
100
AcDbEntity
  8
0
100
AcDbBlockBegin
  2
*X17
 70
     1
 10
0.0
 20
0.0
 30
0.0
  3
*X17
  1

  0
LINE
  5
1C3
330
33
100
AcDbEntity
  8
0
 62
     0
100
AcDbLine
 10
6.884654412785825
 20
1.758130249183355
 30
0.0
 11
8.736506264637677
 21
3.609982101035206
 31
0.0
  0
LINE
  5
1C4
330
33
100
AcDbEntity
  8
0
 62
     0
100
AcDbLine
 10
6.838823417708919
 20
1.889075949403086
 30
0.0
 11
8.690675269560772
 21
3.740927801254938
 31
0.0
  0
LINE
  5
1C5
330
33
100
AcDbEntity
  8
0
 62
     0
100
AcDbLine
 10
6.772970773009196
 20
2.0
 30
0.0
 11
8.644844274483865
 21
3.871873501474668
 31
0.0
  0
LINE
  5
1C6
330
33
100
AcDbEntity
  8
0
 62
     0
100
AcDbLine
 10
6.596194077712559
 20
2.0
 30
0.0
 11
8.59901327940696
 21
4.0028192016944
 31
0.0
  0
LINE
  5
1C7
330
33
100
AcDbEntity
  8
0
 62
     0
100
AcDbLine
 10
6.419417382415922
 20
2.0
 30
0.0
 11
8.553182284330054
 21
4.133764901914131
 31
0.0
  0
LINE
  5
1C8
330
33
100
AcDbEntity
  8
0
 62
     0
100
AcDbLine
 10
6.242640687119285
 20
2.0
 30
0.0
 11
8.507351289253149
 21
4.264710602133861
 31
0.0
  0
LINE
  5
1C9
330
33
100
AcDbEntity
  8
0
 62
     0
100
AcDbLine
 10
6.065863991822649
 20
2.0
 30
0.0
 11
8.461520294176242
 21
4.395656302353593
 31
0.0
  0
LINE
  5
1CA
330
33
100
AcDbEntity
  8
0
 62
     0
100
AcDbLine
 10
5.889087296526011
 20
2.0
 30
0.0
 11
8.415689299099337
 21
4.526602002573324
 31
0.0
  0
LINE
  5
1CB
330
33
100
AcDbEntity
  8
0
 62
     0
100
AcDbLine
 10
5.712310601229375
 20
2.0
 30
0.0
 11
8.369858304022431
 21
4.657547702793054
 31
0.0
  0
LINE
  5
1CC
330
33
100
AcDbEntity
  8
0
 62
     0
100
AcDbLine
 10
5.535533905932737
 20
2.0
 30
0.0
 11
8.324027308945524
 21
4.788493403012786
 31
0.0
  0
LINE
  5
1CD
330
33
100
AcDbEntity
  8
0
 62
     0
100
AcDbLine
 10
5.358757210636101
 20
2.0
 30
0.0
 11
8.158757210636101
 21
4.8
 31
0.0
  0
LINE
  5
1CE
330
33
100
AcDbEntity
  8
0
 62
     0
100
AcDbLine
 10
5.2
 20
2.018019484660535
 30
0.0
 11
7.981980515339465
 21
4.8
 31
0.0
  0
LINE
  5
1CF
330
33
100
AcDbEntity
  8
0
 62
     0
100
AcDbLine
 10
5.2
 20
2.194796179957172
 30
0.0
 11
7.805203820042828
 21
4.8
 31
0.0
  0
LINE
  5
1D0
330
33
100
AcDbEntity
  8
0
 62
     0
100
AcDbLine
 10
5.2
 20
2.371572875253809
 30
0.0
 11
7.628427124746191
 21
4.8
 31
0.0
  0
LINE
  5
1D1
330
33
100
AcDbEntity
  8
0
 62
     0
100
AcDbLine
 10
5.2
 20
2.548349570550446
 30
0.0
 11
7.451650429449554
 21
4.8
 31
0.0
  0
LINE
  5
1D2
330
33
100
AcDbEntity
  8
0
 62
     0
100
AcDbLine
 10
5.2
 20
2.725126265847083
 30
0.0
 11
7.274873734152918
 21
4.8
 31
0.0
  0
LINE
  5
1D3
330
33
100
AcDbEntity
  8
0
 62
     0
100
AcDbLine
 10
5.2
 20
2.90190296114372
 30
0.0
 11
7.09809703885628
 21
4.8
 31
0.0
  0
LINE
  5
1D4
330
33
100
AcDbEntity
  8
0
 62
     0
100
AcDbLine
 10
5.2
 20
3.078679656440356
 30
0.0
 11
6.921320343559644
 21
4.8
 31
0.0
  0
LINE
  5
1D5
330
33
100
AcDbEntity
  8
0
 62
     0
100
AcDbLine
 10
5.2
 20
3.255456351736993
 30
0.0
 11
6.744543648263007
 21
4.8
 31
0.0
  0
LINE
  5
1D6
330
33
100
AcDbEntity
  8
0
 62
     0
100
AcDbLine
 10
5.2
 20
3.43223304703363
 30
0.0
 11
6.56776695296637
 21
4.8
 31
0.0
  0
LINE
  5
1D7
330
33
100
AcDbEntity
  8
0
 62
     0
100
AcDbLine
 10
5.2
 20
3.609009742330267
 30
0.0
 11
6.390990257669733
 21
4.8
 31
0.0
  0
LINE
  5
1D8
330
33
100
AcDbEntity
  8
0
 62
     0
100
AcDbLine
 10
5.2
 20
3.785786437626904
 30
0.0
 11
6.214213562373096
 21
4.8
 31
0.0
  0
LINE
  5
1D9
330
33
100
AcDbEntity
  8
0
 62
     0
100
AcDbLine
 10
5.2
 20
3.962563132923541
 30
0.0
 11
6.037436867076459
 21
4.8
 31
0.0
  0
LINE
  5
1DA
330
33
100
AcDbEntity
  8
0
 62
     0
100
AcDbLine
 10
5.2
 20
4.139339828220178
 30
0.0
 11
5.860660171779822
 21
4.8
 31
0.0
  0
LINE
  5
1DB
330
33
100
AcDbEntity
  8
0
 62
     0
100
AcDbLine
 10
5.2
 20
4.316116523516814
 30
0.0
 11
5.683883476483186
 21
4.8
 31
0.0
  0
LINE
  5
1DC
330
33
100
AcDbEntity
  8
0
 62
     0
100
AcDbLine
 10
5.2
 20
4.492893218813452
 30
0.0
 11
5.507106781186549
 21
4.8
 31
0.0
  0
LINE
  5
1DD
330
33
100
AcDbEntity
  8
0
 62
     0
100
AcDbLine
 10
5.2
 20
4.669669914110088
 30
0.0
 11
5.330330085889912
 21
4.8
 31
0.0
  0
LINE
  5
1DE
330
33
100
AcDbEntity
  8
0
 62
     0
100
AcDbLine
 10
6.930485407862731
 20
1.627184548963624
 30
0.0
 11
8.782337259714584
 21
3.479036400815475
 31
0.0
  0
LINE
  5
1DF
330
33
100
AcDbEntity
  8
0
 62
     0
100
AcDbLine
 10
6.976316402939636
 20
1.496238848743893
 30
0.0
 11
8.828168254791489
 21
3.348090700595744
 31
0.0
  0
LINE
  5
1E0
330
33
100
AcDbEntity
  8
0
 62
     0
100
AcDbLine
 10
7.022147398016543
 20
1.365293148524162
 30
0.0
 11
8.873999249868395
 21
3.217145000376013
 31
0.0
  0
LINE
  5
1E1
330
33
100
AcDbEntity
  8
0
 62
     0
100
AcDbLine
 10
7.067978393093449
 20
1.234347448304431
 30
0.0
 11
8.9198302449453
 21
3.086199300156282
 31
0.0
  0
LINE
  5
1E2
330
33
100
AcDbEntity
  8
0
 62
     0
100
AcDbLine
 10
7.113809388170355
 20
1.1034017480847
 30
0.0
 11
8.965661240022207
 21
2.955253599936551
 31
0.0
  0
LINE
  5
1E3
330
33
100
AcDbEntity
  8
0
 62
     0
100
AcDbLine
 10
7.159640383247261
 20
0.9724560478649696
 30
0.0
 11
9.011492235099112
 21
2.82430789971682
 31
0.0
  0
LINE
  5
1E4
330
33
100
AcDbEntity
  8
0
 62
     0
100
AcDbLine
 10
7.205471378324166
 20
0.8415103476452385
 30
0.0
 11
9.057323230176018
 21
2.693362199497089
 31
0.0
  0
LINE
  5
1E5
330
33
100
AcDbEntity
  8
0
 62
     0
100
AcDbLine
 10
7.251302373401072
 20
0.7105646474255075
 30
0.0
 11
9.103154225252923
 21
2.562416499277358
 31
0.0
  0
LINE
  5
1E6
330
33
100
AcDbEntity
  8
0
 62
     0
100
AcDbLine
 10
7.297133368477978
 20
0.5796189472057765
 30
0.0
 11
9.14898522032983
 21
2.431470799057627
 31
0.0
  0
LINE
  5
1E7
330
33
100
AcDbEntity
  8
0
 62
     0
100
AcDbLine
 10
7.342964363554884
 20
0.4486732469860454
 30
0.0
 11
9.194816215406737
 21
2.300525098837896
 31
0.0
  0
LINE
  5
1E8
330
33
100
AcDbEntity
  8
0
 62
     0
100
AcDbLine
 10
7.38879535863179
 20
0.3177275467663144
 30
0.0
 11
9.240647210483642
 21
2.169579398618165
 31
0.0
  0
LINE
  5
1E9
330
33
100
AcDbEntity
  8
0
 62
     0
100
AcDbLine
 10
7.434626353708695
 20
0.1867818465465834
 30
0.0
 11
9.286478205560548
 21
2.038633698398434
 31
0.0
  0
LINE
  5
1EA
330
33
100
AcDbEntity
  8
0
 62
     0
100
AcDbLine
 10
7.480457348785601
 20
0.0558361463268524
 30
0.0
 11
9.332309200637453
 21
1.907687998178703
 31
0.0
  0
LINE
  5
1EB
330
33
100
AcDbEntity
  8
0
 62
     0
100
AcDbLine
 10
7.601397897755386
 20
0.0
 30
0.0
 11
9.37814019571436
 21
1.776742297958972
 31
0.0
  0
LINE
  5
1EC
330
33
100
AcDbEntity
  8
0
 62
     0
100
AcDbLine
 10
7.778174593052023
 20
0.0
 30
0.0
 11
9.423971190791265
 21
1.645796597739241
 31
0.0
  0
LINE
  5
1ED
330
33
100
AcDbEntity
  8
0
 62
     0
100
AcDbLine
 10
7.954951288348659
 20
0.0
 30
0.0
 11
9.469802185868172
 21
1.51485089751951
 31
0.0
  0
LINE
  5
1EE
330
33
100
AcDbEntity
  8
0
 62
     0
100
AcDbLine
 10
8.131727983645296
 20
0.0
 30
0.0
 11
9.515633180945076
 21
1.383905197299779
 31
0.0
  0
LINE
  5
1EF
330
33
100
AcDbEntity
  8
0
 62
     0
100
AcDbLine
 10
8.308504678941934
 20
0.0
 30
0.0
 11
9.561464176021983
 21
1.252959497080048
 31
0.0
  0
LINE
  5
1F0
330
33
100
AcDbEntity
  8
0
 62
     0
100
AcDbLine
 10
8.485281374238571
 20
0.0
 30
0.0
 11
9.607295171098888
 21
1.122013796860317
 31
0.0
  0
LINE
  5
1F1
330
33
100
AcDbEntity
  8
0
 62
     0
100
AcDbLine
 10
8.662058069535207
 20
0.0
 30
0.0
 11
9.653126166175795
 21
0.9910680966405861
 31
0.0
  0
LINE
  5
1F2
330
33
100
AcDbEntity
  8
0
 62
     0
100
AcDbLine
 10
8.838834764831844
 20
0.0
 30
0.0
 11
9.6989571612527
 21
0.860122396420855
 31
0.0
  0
LINE
  5
1F3
330
33
100
AcDbEntity
  8
0
 62
     0
100
AcDbLine
 10
9.01561146012848
 20
0.0
 30
0.0
 11
9.744788156329606
 21
0.7291766962011242
 31
0.0
  0
LINE
  5
1F4
330
33
100
AcDbEntity
  8
0
 62
     0
100
AcDbLine
 10
9.192388155425119
 20
0.0
 30
0.0
 11
9.790619151406511
 21
0.5982309959813931
 31
0.0
  0
LINE
  5
1F5
330
33
100
AcDbEntity
  8
0
 62
     0
100
AcDbLine
 10
9.369164850721755
 20
0.0
 30
0.0
 11
9.836450146483418
 21
0.467285295761662
 31
0.0
  0
LINE
  5
1F6
330
33
100
AcDbEntity
  8
0
 62
     0
100
AcDbLine
 10
9.545941546018392
 20
0.0
 30
0.0
 11
9.882281141560325
 21
0.336339595541931
 31
0.0
  0
LINE
  5
1F7
330
33
100
AcDbEntity
  8
0
 62
     0
100
AcDbLine
 10
9.722718241315028
 20
0.0
 30
0.0
 11
9.92811213663723
 21
0.2053938953222
 31
0.0
  0
LINE
  5
1F8
330
33
100
AcDbEntity
  8
0
 62
     0
100
AcDbLine
 10
9.899494936611665
 20
0.0
 30
0.0
 11
9.973943131714136
 21
0.0744481951024689
 31
0.0
  0
ENDBLK
  5
1F9
330
33
100
AcDbEntity
  8
0
100
AcDbBlockEnd
  0
BLOCK
  5
1FA
330
34
100
AcDbEntity
  8
0
100
AcDbBlockBegin
  2
*X18
 70
     1
 10
0.0
 20
0.0
 30
0.0
  3
*X18
  1

  0
LINE
  5
1FB
330
34
100
AcDbEntity
  8
0
 62
     0
100
AcDbLine
 10
10.7
 20
6.280582617584078
 30
0.0
 11
13.5
 21
9.080582617584076
 31
0.0
  0
LINE
  5
1FC
330
34
100
AcDbEntity
  8
0
 62
     0
100
AcDbLine
 10
10.7
 20
6.457359312880715
 30
0.0
 11
13.5
 21
9.257359312880712
 31
0.0
  0
LINE
  5
1FD
330
34
100
AcDbEntity
  8
0
 62
     0
100
AcDbLine
 10
10.7
 20
6.634136008177351
 30
0.0
 11
13.5
 21
9.43413600817735
 31
0.0
  0
LINE
  5
1FE
330
34
100
AcDbEntity
  8
0
 62
     0
100
AcDbLine
 10
10.7
 20
6.810912703473989
 30
0.0
 11
13.5
 21
9.610912703473987
 31
0.0
  0
LINE
  5
1FF
330
34
100
AcDbEntity
  8
0
 62
     0
100
AcDbLine
 10
10.7
 20
6.987689398770625
 30
0.0
 11
13.5
 21
9.787689398770623
 31
0.0
  0
LINE
  5
200
330
34
100
AcDbEntity
  8
0
 62
     0
100
AcDbLine
 10
10.7
 20
7.164466094067263
 30
0.0
 11
13.5
 21
9.96446609406726
 31
0.0
  0
LINE
  5
201
330
34
100
AcDbEntity
  8
0
 62
     0
100
AcDbLine
 10
10.7
 20
7.341242789363899
 30
0.0
 11
13.3587572106361
 21
10.0
 31
0.0
  0
LINE
  5
202
330
34
100
AcDbEntity
  8
0
 62
     0
100
AcDbLine
 10
10.7
 20
7.518019484660536
 30
0.0
 11
13.18198051533946
 21
10.0
 31
0.0
  0
LINE
  5
203
330
34
100
AcDbEntity
  8
0
 62
     0
100
AcDbLine
 10
10.7
 20
7.694796179957173
 30
0.0
 11
13.00520382004282
 21
10.0
 31
0.0
  0
LINE
  5
204
330
34
100
AcDbEntity
  8
0
 62
     0
100
AcDbLine
 10
10.7
 20
7.87157287525381
 30
0.0
 11
12.82842712474619
 21
10.0
 31
0.0
  0
LINE
  5
205
330
34
100
AcDbEntity
  8
0
 62
     0
100
AcDbLine
 10
10.7
 20
8.048349570550447
 30
0.0
 11
12.65165042944955
 21
10.0
 31
0.0
  0
LINE
  5
206
330
34
100
AcDbEntity
  8
0
 62
     0
100
AcDbLine
 10
10.7
 20
8.225126265847084
 30
0.0
 11
12.47487373415292
 21
10.0
 31
0.0
  0
LINE
  5
207
330
34
100
AcDbEntity
  8
0
 62
     0
100
AcDbLine
 10
10.7
 20
8.40190296114372
 30
0.0
 11
12.29809703885628
 21
10.0
 31
0.0
  0
LINE
  5
208
330
34
100
AcDbEntity
  8
0
 62
     0
100
AcDbLine
 10
10.7
 20
8.578679656440357
 30
0.0
 11
12.12132034355964
 21
10.0
 31
0.0
  0
LINE
  5
209
330
34
100
AcDbEntity
  8
0
 62
     0
100
AcDbLine
 10
10.7
 20
8.755456351736995
 30
0.0
 11
11.944543648263
 21
10.0
 31
0.0
  0
LINE
  5
20A
330
34
100
AcDbEntity
  8
0
 62
     0
100
AcDbLine
 10
10.7
 20
8.932233047033632
 30
0.0
 11
11.76776695296637
 21
10.0
 31
0.0
  0
LINE
  5
20B
330
34
100
AcDbEntity
  8
0
 62
     0
100
AcDbLine
 10
10.7
 20
9.109009742330268
 30
0.0
 11
11.59099025766973
 21
10.0
 31
0.0
  0
LINE
  5
20C
330
34
100
AcDbEntity
  8
0
 62
     0
100
AcDbLine
 10
10.7
 20
9.285786437626905
 30
0.0
 11
11.41421356237309
 21
10.0
 31
0.0
  0
LINE
  5
20D
330
34
100
AcDbEntity
  8
0
 62
     0
100
AcDbLine
 10
10.7
 20
9.462563132923541
 30
0.0
 11
11.23743686707646
 21
10.0
 31
0.0
  0
LINE
  5
20E
330
34
100
AcDbEntity
  8
0
 62
     0
100
AcDbLine
 10
10.7
 20
9.63933982822018
 30
0.0
 11
11.06066017177982
 21
10.0
 31
0.0
  0
LINE
  5
20F
330
34
100
AcDbEntity
  8
0
 62
     0
100
AcDbLine
 10
10.7
 20
9.816116523516816
 30
0.0
 11
10.88388347648318
 21
10.0
 31
0.0
  0
LINE
  5
210
330
34
100
AcDbEntity
  8
0
 62
     0
100
AcDbLine
 10
10.7
 20
9.992893218813453
 30
0.0
 11
10.70710678118655
 21
10.0
 31
0.0
  0
LINE
  5
211
330
34
100
AcDbEntity
  8
0
 62
     0
100
AcDbLine
 10
10.7
 20
6.103805922287441
 30
0.0
 11
13.5
 21
8.903805922287439
 31
0.0
  0
LINE
  5
212
330
34
100
AcDbEntity
  8
0
 62
     0
100
AcDbLine
 10
10.7
 20
5.927029226990804
 30
0.0
 11
13.5
 21
8.727029226990802
 31
0.0
  0
LINE
  5
213
330
34
100
AcDbEntity
  8
0
 62
     0
100
AcDbLine
 10
10.7
 20
5.750252531694168
 30
0.0
 11
13.5
 21
8.550252531694166
 31
0.0
  0
LINE
  5
214
330
34
100
AcDbEntity
  8
0
 62
     0
100
AcDbLine
 10
10.7
 20
5.57347583639753
 30
0.0
 11
13.5
 21
8.373475836397528
 31
0.0
  0
LINE
  5
215
330
34
100
AcDbEntity
  8
0
 62
     0
100
AcDbLine
 10
10.7
 20
5.396699141100894
 30
0.0
 11
13.5
 21
8.196699141100891
 31
0.0
  0
LINE
  5
216
330
34
100
AcDbEntity
  8
0
 62
     0
100
AcDbLine
 10
10.7
 20
5.219922445804257
 30
0.0
 11
13.5
 21
8.019922445804255
 31
0.0
  0
LINE
  5
217
330
34
100
AcDbEntity
  8
0
 62
     0
100
AcDbLine
 10
10.85685424949238
 20
5.2
 30
0.0
 11
13.5
 21
7.843145750507618
 31
0.0
  0
LINE
  5
218
330
34
100
AcDbEntity
  8
0
 62
     0
100
AcDbLine
 10
11.03363094478901
 20
5.2
 30
0.0
 11
13.5
 21
7.666369055210981
 31
0.0
  0
LINE
  5
219
330
34
100
AcDbEntity
  8
0
 62
     0
100
AcDbLine
 10
11.21040764008565
 20
5.2
 30
0.0
 11
13.5
 21
7.489592359914344
 31
0.0
  0
LINE
  5
21A
330
34
100
AcDbEntity
  8
0
 62
     0
100
AcDbLine
 10
11.38718433538229
 20
5.2
 30
0.0
 11
13.5
 21
7.312815664617708
 31
0.0
  0
LINE
  5
21B
330
34
100
AcDbEntity
  8
0
 62
     0
100
AcDbLine
 10
11.56396103067893
 20
5.2
 30
0.0
 11
13.5
 21
7.13603896932107
 31
0.0
  0
LINE
  5
21C
330
34
100
AcDbEntity
  8
0
 62
     0
100
AcDbLine
 10
11.74073772597556
 20
5.2
 30
0.0
 11
13.5
 21
6.959262274024434
 31
0.0
  0
LINE
  5
21D
330
34
100
AcDbEntity
  8
0
 62
     0
100
AcDbLine
 10
11.9175144212722
 20
5.2
 30
0.0
 11
13.5
 21
6.782485578727796
 31
0.0
  0
LINE
  5
21E
330
34
100
AcDbEntity
  8
0
 62
     0
100
AcDbLine
 10
12.09429111656884
 20
5.2
 30
0.0
 11
13.5
 21
6.60570888343116
 31
0.0
  0
LINE
  5
21F
330
34
100
AcDbEntity
  8
0
 62
     0
100
AcDbLine
 10
12.27106781186547
 20
5.2
 30
0.0
 11
13.5
 21
6.428932188134523
 31
0.0
  0
LINE
  5
220
330
34
100
AcDbEntity
  8
0
 62
     0
100
AcDbLine
 10
12.44784450716211
 20
5.2
 30
0.0
 11
13.5
 21
6.252155492837886
 31
0.0
  0
LINE
  5
221
330
34
100
AcDbEntity
  8
0
 62
     0
100
AcDbLine
 10
12.62462120245875
 20
5.2
 30
0.0
 11
13.5
 21
6.075378797541249
 31
0.0
  0
LINE
  5
222
330
34
100
AcDbEntity
  8
0
 62
     0
100
AcDbLine
 10
12.80139789775538
 20
5.2
 30
0.0
 11
13.5
 21
5.898602102244612
 31
0.0
  0
LINE
  5
223
330
34
100
AcDbEntity
  8
0
 62
     0
100
AcDbLine
 10
12.97817459305202
 20
5.2
 30
0.0
 11
13.5
 21
5.721825406947975
 31
0.0
  0
LINE
  5
224
330
34
100
AcDbEntity
  8
0
 62
     0
100
AcDbLine
 10
13.15495128834866
 20
5.2
 30
0.0
 11
13.5
 21
5.545048711651339
 31
0.0
  0
LINE
  5
225
330
34
100
AcDbEntity
  8
0
 62
     0
100
AcDbLine
 10
13.3317279836453
 20
5.2
 30
0.0
 11
13.5
 21
5.368272016354701
 31
0.0
  0
ENDBLK
  5
226
330
34
100
AcDbEntity
  8
0
100
AcDbBlockEnd
  0
BLOCK
  5
227
330
35
100
AcDbEntity
  8
0
100
AcDbBlockBegin
  2
*X19
 70
     1
 10
0.0
 20
0.0
 30
0.0
  3
*X19
  1

  0
LINE
  5
228
330
35
100
AcDbEntity
  8
0
 62
     0
100
AcDbLine
 10
10.7
 20
1.154058453981608
 30
0.0
 11
13.5
 21
3.954058453981607
 31
0.0
  0
LINE
  5
229
330
35
100
AcDbEntity
  8
0
 62
     0
100
AcDbLine
 10
10.7
 20
1.330835149278245
 30
0.0
 11
13.5
 21
4.130835149278244
 31
0.0
  0
LINE
  5
22A
330
35
100
AcDbEntity
  8
0
 62
     0
100
AcDbLine
 10
10.7
 20
1.507611844574882
 30
0.0
 11
13.5
 21
4.30761184457488
 31
0.0
  0
LINE
  5
22B
330
35
100
AcDbEntity
  8
0
 62
     0
100
AcDbLine
 10
10.7
 20
1.684388539871519
 30
0.0
 11
13.5
 21
4.484388539871518
 31
0.0
  0
LINE
  5
22C
330
35
100
AcDbEntity
  8
0
 62
     0
100
AcDbLine
 10
10.7
 20
1.861165235168155
 30
0.0
 11
13.5
 21
4.661165235168154
 31
0.0
  0
LINE
  5
22D
330
35
100
AcDbEntity
  8
0
 62
     0
100
AcDbLine
 10
10.7
 20
2.037941930464792
 30
0.0
 11
13.46205806953521
 21
4.800000000000001
 31
0.0
  0
LINE
  5
22E
330
35
100
AcDbEntity
  8
0
 62
     0
100
AcDbLine
 10
10.7
 20
2.214718625761429
 30
0.0
 11
13.28528137423857
 21
4.800000000000001
 31
0.0
  0
LINE
  5
22F
330
35
100
AcDbEntity
  8
0
 62
     0
100
AcDbLine
 10
10.7
 20
2.391495321058066
 30
0.0
 11
13.10850467894193
 21
4.800000000000001
 31
0.0
  0
LINE
  5
230
330
35
100
AcDbEntity
  8
0
 62
     0
100
AcDbLine
 10
10.7
 20
2.568272016354703
 30
0.0
 11
12.9317279836453
 21
4.800000000000001
 31
0.0
  0
LINE
  5
231
330
35
100
AcDbEntity
  8
0
 62
     0
100
AcDbLine
 10
10.7
 20
2.74504871165134
 30
0.0
 11
12.75495128834866
 21
4.800000000000001
 31
0.0
  0
LINE
  5
232
330
35
100
AcDbEntity
  8
0
 62
     0
100
AcDbLine
 10
10.7
 20
2.921825406947977
 30
0.0
 11
12.57817459305202
 21
4.800000000000001
 31
0.0
  0
LINE
  5
233
330
35
100
AcDbEntity
  8
0
 62
     0
100
AcDbLine
 10
10.7
 20
3.098602102244614
 30
0.0
 11
12.40139789775539
 21
4.800000000000001
 31
0.0
  0
LINE
  5
234
330
35
100
AcDbEntity
  8
0
 62
     0
100
AcDbLine
 10
10.7
 20
3.275378797541251
 30
0.0
 11
12.22462120245875
 21
4.800000000000001
 31
0.0
  0
LINE
  5
235
330
35
100
AcDbEntity
  8
0
 62
     0
100
AcDbLine
 10
10.7
 20
3.452155492837887
 30
0.0
 11
12.04784450716211
 21
4.800000000000001
 31
0.0
  0
LINE
  5
236
330
35
100
AcDbEntity
  8
0
 62
     0
100
AcDbLine
 10
10.7
 20
3.628932188134524
 30
0.0
 11
11.87106781186547
 21
4.800000000000001
 31
0.0
  0
LINE
  5
237
330
35
100
AcDbEntity
  8
0
 62
     0
100
AcDbLine
 10
10.7
 20
3.805708883431161
 30
0.0
 11
11.69429111656884
 21
4.800000000000001
 31
0.0
  0
LINE
  5
238
330
35
100
AcDbEntity
  8
0
 62
     0
100
AcDbLine
 10
10.7
 20
3.982485578727798
 30
0.0
 11
11.5175144212722
 21
4.800000000000001
 31
0.0
  0
LINE
  5
239
330
35
100
AcDbEntity
  8
0
 62
     0
100
AcDbLine
 10
10.7
 20
4.159262274024435
 30
0.0
 11
11.34073772597556
 21
4.800000000000001
 31
0.0
  0
LINE
  5
23A
330
35
100
AcDbEntity
  8
0
 62
     0
100
AcDbLine
 10
10.7
 20
4.336038969321072
 30
0.0
 11
11.16396103067893
 21
4.800000000000001
 31
0.0
  0
LINE
  5
23B
330
35
100
AcDbEntity
  8
0
 62
     0
100
AcDbLine
 10
10.7
 20
4.512815664617709
 30
0.0
 11
10.98718433538229
 21
4.800000000000001
 31
0.0
  0
LINE
  5
23C
330
35
100
AcDbEntity
  8
0
 62
     0
100
AcDbLine
 10
10.7
 20
4.689592359914345
 30
0.0
 11
10.81040764008565
 21
4.800000000000001
 31
0.0
  0
LINE
  5
23D
330
35
100
AcDbEntity
  8
0
 62
     0
100
AcDbLine
 10
10.7
 20
0.9772817586849718
 30
0.0
 11
13.5
 21
3.77728175868497
 31
0.0
  0
LINE
  5
23E
330
35
100
AcDbEntity
  8
0
 62
     0
100
AcDbLine
 10
10.7
 20
0.800505063388335
 30
0.0
 11
13.5
 21
3.600505063388333
 31
0.0
  0
LINE
  5
23F
330
35
100
AcDbEntity
  8
0
 62
     0
100
AcDbLine
 10
10.7
 20
0.6237283680916982
 30
0.0
 11
13.5
 21
3.423728368091696
 31
0.0
  0
LINE
  5
240
330
35
100
AcDbEntity
  8
0
 62
     0
100
AcDbLine
 10
10.7
 20
0.4469516727950612
 30
0.0
 11
13.5
 21
3.246951672795059
 31
0.0
  0
LINE
  5
241
330
35
100
AcDbEntity
  8
0
 62
     0
100
AcDbLine
 10
10.7
 20
0.2701749774984243
 30
0.0
 11
13.5
 21
3.070174977498422
 31
0.0
  0
LINE
  5
242
330
35
100
AcDbEntity
  8
0
 62
     0
100
AcDbLine
 10
10.7
 20
0.0933982822017875
 30
0.0
 11
13.5
 21
2.893398282201785
 31
0.0
  0
LINE
  5
243
330
35
100
AcDbEntity
  8
0
 62
     0
100
AcDbLine
 10
10.78337841309485
 20
0.0
 30
0.0
 11
13.5
 21
2.716621586905149
 31
0.0
  0
LINE
  5
244
330
35
100
AcDbEntity
  8
0
 62
     0
100
AcDbLine
 10
10.96015510839148
 20
0.0
 30
0.0
 11
13.5
 21
2.539844891608512
 31
0.0
  0
LINE
  5
245
330
35
100
AcDbEntity
  8
0
 62
     0
100
AcDbLine
 10
11.13693180368812
 20
0.0
 30
0.0
 11
13.5
 21
2.363068196311875
 31
0.0
  0
LINE
  5
246
330
35
100
AcDbEntity
  8
0
 62
     0
100
AcDbLine
 10
11.31370849898476
 20
0.0
 30
0.0
 11
13.5
 21
2.186291501015238
 31
0.0
  0
LINE
  5
247
330
35
100
AcDbEntity
  8
0
 62
     0
100
AcDbLine
 10
11.49048519428139
 20
0.0
 30
0.0
 11
13.5
 21
2.009514805718601
 31
0.0
  0
LINE
  5
248
330
35
100
AcDbEntity
  8
0
 62
     0
100
AcDbLine
 10
11.66726188957803
 20
0.0
 30
0.0
 11
13.5
 21
1.832738110421964
 31
0.0
  0
LINE
  5
249
330
35
100
AcDbEntity
  8
0
 62
     0
100
AcDbLine
 10
11.84403858487467
 20
0.0
 30
0.0
 11
13.5
 21
1.655961415125327
 31
0.0
  0
LINE
  5
24A
330
35
100
AcDbEntity
  8
0
 62
     0
100
AcDbLine
 10
12.02081528017131
 20
0.0
 30
0.0
 11
13.5
 21
1.479184719828691
 31
0.0
  0
LINE
  5
24B
330
35
100
AcDbEntity
  8
0
 62
     0
100
AcDbLine
 10
12.19759197546794
 20
0.0
 30
0.0
 11
13.5
 21
1.302408024532054
 31
0.0
  0
LINE
  5
24C
330
35
100
AcDbEntity
  8
0
 62
     0
100
AcDbLine
 10
12.37436867076458
 20
0.0
 30
0.0
 11
13.5
 21
1.125631329235417
 31
0.0
  0
LINE
  5
24D
330
35
100
AcDbEntity
  8
0
 62
     0
100
AcDbLine
 10
12.55114536606122
 20
0.0
 30
0.0
 11
13.5
 21
0.9488546339387806
 31
0.0
  0
LINE
  5
24E
330
35
100
AcDbEntity
  8
0
 62
     0
100
AcDbLine
 10
12.72792206135785
 20
0.0
 30
0.0
 11
13.5
 21
0.7720779386421438
 31
0.0
  0
LINE
  5
24F
330
35
100
AcDbEntity
  8
0
 62
     0
100
AcDbLine
 10
12.90469875665449
 20
0.0
 30
0.0
 11
13.5
 21
0.5953012433455069
 31
0.0
  0
LINE
  5
250
330
35
100
AcDbEntity
  8
0
 62
     0
100
AcDbLine
 10
13.08147545195113
 20
0.0
 30
0.0
 11
13.5
 21
0.4185245480488699
 31
0.0
  0
LINE
  5
251
330
35
100
AcDbEntity
  8
0
 62
     0
100
AcDbLine
 10
13.25825214724776
 20
0.0
 30
0.0
 11
13.5
 21
0.2417478527522331
 31
0.0
  0
LINE
  5
252
330
35
100
AcDbEntity
  8
0
 62
     0
100
AcDbLine
 10
13.4350288425444
 20
0.0
 30
0.0
 11
13.5
 21
0.0649711574555962
 31
0.0
  0
ENDBLK
  5
253
330
35
100
AcDbEntity
  8
0
100
AcDbBlockEnd
  0
BLOCK
  5
254
330
36
100
AcDbEntity
  8
0
100
AcDbBlockBegin
  2
*X20
 70
     1
 10
0.0
 20
0.0
 30
0.0
  3
*X20
  1

  0
LINE
  5
255
330
36
100
AcDbEntity
  8
0
 62
     0
100
AcDbLine
 10
13.9
 20
6.298602102244612
 30
0.0
 11
16.58299474438346
 21
8.981596846628077
 31
0.0
  0
LINE
  5
256
330
36
100
AcDbEntity
  8
0
 62
     0
100
AcDbLine
 10
13.9
 20
6.47537879754125
 30
0.0
 11
16.51050279500106
 21
9.085881592542312
 31
0.0
  0
LINE
  5
257
330
36
100
AcDbEntity
  8
0
 62
     0
100
AcDbLine
 10
13.9
 20
6.652155492837886
 30
0.0
 11
16.43292735533684
 21
9.185082848174726
 31
0.0
  0
LINE
  5
258
330
36
100
AcDbEntity
  8
0
 62
     0
100
AcDbLine
 10
13.9
 20
6.828932188134523
 30
0.0
 11
16.35037215123712
 21
9.279304339371643
 31
0.0
  0
LINE
  5
259
330
36
100
AcDbEntity
  8
0
 62
     0
100
AcDbLine
 10
13.9
 20
7.00570888343116
 30
0.0
 11
16.26289196487371
 21
9.368600848304868
 31
0.0
  0
LINE
  5
25A
330
36
100
AcDbEntity
  8
0
 62
     0
100
AcDbLine
 10
13.9
 20
7.182485578727797
 30
0.0
 11
16.17049525263323
 21
9.452980831361033
 31
0.0
  0
LINE
  5
25B
330
36
100
AcDbEntity
  8
0
 62
     0
100
AcDbLine
 10
13.9
 20
7.359262274024434
 30
0.0
 11
16.07314454342055
 21
9.532406817444991
 31
0.0
  0
LINE
  5
25C
330
36
100
AcDbEntity
  8
0
 62
     0
100
AcDbLine
 10
13.9
 20
7.53603896932107
 30
0.0
 11
15.97075466195056
 21
9.606793631271633
 31
0.0
  0
LINE
  5
25D
330
36
100
AcDbEntity
  8
0
 62
     0
100
AcDbLine
 10
13.9
 20
7.712815664617708
 30
0.0
 11
15.86318857628903
 21
9.67600424090674
 31
0.0
  0
LINE
  5
25E
330
36
100
AcDbEntity
  8
0
 62
     0
100
AcDbLine
 10
13.9
 20
7.889592359914344
 30
0.0
 11
15.75025038159864
 21
9.739842741512989
 31
0.0
  0
LINE
  5
25F
330
36
100
AcDbEntity
  8
0
 62
     0
100
AcDbLine
 10
13.9
 20
8.066369055210982
 30
0.0
 11
15.63167453725327
 21
9.798043592464253
 31
0.0
  0
LINE
  5
260
330
36
100
AcDbEntity
  8
0
 62
     0
100
AcDbLine
 10
13.9
 20
8.243145750507618
 30
0.0
 11
15.50710986763958
 21
9.850255618147199
 31
0.0
  0
LINE
  5
261
330
36
100
AcDbEntity
  8
0
 62
     0
100
AcDbLine
 10
13.9
 20
8.419922445804255
 30
0.0
 11
15.37609582797506
 21
9.896018273779313
 31
0.0
  0
LINE
  5
262
330
36
100
AcDbEntity
  8
0
 62
     0
100
AcDbLine
 10
13.9
 20
8.596699141100891
 30
0.0
 11
15.23802674945604
 21
9.934725890556936
 31
0.0
  0
LINE
  5
263
330
36
100
AcDbEntity
  8
0
 62
     0
100
AcDbLine
 10
13.9
 20
8.773475836397528
 30
0.0
 11
15.09209641503479
 21
9.965572251432316
 31
0.0
  0
LINE
  5
264
330
36
100
AcDbEntity
  8
0
 62
     0
100
AcDbLine
 10
13.9
 20
8.950252531694166
 30
0.0
 11
14.93720855236614
 21
9.987461084060305
 31
0.0
  0
LINE
  5
265
330
36
100
AcDbEntity
  8
0
 62
     0
100
AcDbLine
 10
13.9
 20
9.127029226990803
 30
0.0
 11
14.77182410265905
 21
9.998853329649859
 31
0.0
  0
LINE
  5
266
330
36
100
AcDbEntity
  8
0
 62
     0
100
AcDbLine
 10
13.9
 20
9.303805922287439
 30
0.0
 11
14.59619325557977
 21
9.999999177867216
 31
0.0
  0
LINE
  5
267
330
36
100
AcDbEntity
  8
0
 62
     0
100
AcDbLine
 10
13.9
 20
9.480582617584076
 30
0.0
 11
14.41941676903803
 21
9.999999386622105
 31
0.0
  0
LINE
  5
268
330
36
100
AcDbEntity
  8
0
 62
     0
100
AcDbLine
 10
13.9
 20
9.657359312880712
 30
0.0
 11
14.24264028249628
 21
9.999999595376992
 31
0.0
  0
LINE
  5
269
330
36
100
AcDbEntity
  8
0
 62
     0
100
AcDbLine
 10
13.9
 20
9.834136008177351
 30
0.0
 11
14.06586379595453
 21
9.99999980413188
 31
0.0
  0
LINE
  5
26A
330
36
100
AcDbEntity
  8
0
 62
     0
100
AcDbLine
 10
13.9
 20
6.121825406947976
 30
0.0
 11
16.65024539739187
 21
8.872070804339848
 31
0.0
  0
LINE
  5
26B
330
36
100
AcDbEntity
  8
0
 62
     0
100
AcDbLine
 10
13.9
 20
5.945048711651339
 30
0.0
 11
16.71203459532913
 21
8.75708330698047
 31
0.0
  0
LINE
  5
26C
330
36
100
AcDbEntity
  8
0
 62
     0
100
AcDbLine
 10
13.9
 20
5.768272016354702
 30
0.0
 11
16.76806734382514
 21
8.636339360179849
 31
0.0
  0
LINE
  5
26D
330
36
100
AcDbEntity
  8
0
 62
     0
100
AcDbLine
 10
13.9
 20
5.591495321058065
 30
0.0
 11
16.81795531761595
 21
8.509450638674019
 31
0.0
  0
LINE
  5
26E
330
36
100
AcDbEntity
  8
0
 62
     0
100
AcDbLine
 10
13.9
 20
5.414718625761429
 30
0.0
 11
16.86118931399924
 21
8.375907939760674
 31
0.0
  0
LINE
  5
26F
330
36
100
AcDbEntity
  8
0
 62
     0
100
AcDbLine
 10
13.9
 20
5.237941930464791
 30
0.0
 11
16.89709737442627
 21
8.235039304891063
 31
0.0
  0
LINE
  5
270
330
36
100
AcDbEntity
  8
0
 62
     0
100
AcDbLine
 10
14.03883476483184
 20
5.2
 30
0.0
 11
16.92477897501023
 21
8.085944210178388
 31
0.0
  0
LINE
  5
271
330
36
100
AcDbEntity
  8
0
 62
     0
100
AcDbLine
 10
14.21561146012848
 20
5.2
 30
0.0
 11
16.94299675793814
 21
7.927385297809664
 31
0.0
  0
LINE
  5
272
330
36
100
AcDbEntity
  8
0
 62
     0
100
AcDbLine
 10
14.39238815542512
 20
5.2
 30
0.0
 11
16.9499871677438
 21
7.757599012318679
 31
0.0
  0
LINE
  5
273
330
36
100
AcDbEntity
  8
0
 62
     0
100
AcDbLine
 10
14.56916485072175
 20
5.2
 30
0.0
 11
16.94310086073496
 21
7.573936010013212
 31
0.0
  0
LINE
  5
274
330
36
100
AcDbEntity
  8
0
 62
     0
100
AcDbLine
 10
14.74594154601839
 20
5.2
 30
0.0
 11
16.91803700563266
 21
7.372095459614269
 31
0.0
  0
LINE
  5
275
330
36
100
AcDbEntity
  8
0
 62
     0
100
AcDbLine
 10
14.92271824131503
 20
5.2
 30
0.0
 11
16.86690917579153
 21
7.144190934476499
 31
0.0
  0
LINE
  5
276
330
36
100
AcDbEntity
  8
0
 62
     0
100
AcDbLine
 10
15.09949493661166
 20
5.2
 30
0.0
 11
16.77171472429693
 21
6.872219787685267
 31
0.0
  0
LINE
  5
277
330
36
100
AcDbEntity
  8
0
 62
     0
100
AcDbLine
 10
15.2762716319083
 20
5.2
 30
0.0
 11
15.84795125284192
 21
5.771679620933618
 31
0.0
  0
LINE
  5
278
330
36
100
AcDbEntity
  8
0
 62
     0
100
AcDbLine
 10
15.96672997781769
 20
5.89045834590939
 30
0.0
 11
16.55954165409061
 21
6.483270022182311
 31
0.0
  0
LINE
  5
279
330
36
100
AcDbEntity
  8
0
 62
     0
100
AcDbLine
 10
15.45304832720494
 20
5.2
 30
0.0
 11
15.97066124869689
 21
5.717612921491952
 31
0.0
  0
LINE
  5
27A
330
36
100
AcDbEntity
  8
0
 62
     0
100
AcDbLine
 10
15.62982502250157
 20
5.2
 30
0.0
 11
16.08893422102424
 21
5.659109198522661
 31
0.0
  0
LINE
  5
27B
330
36
100
AcDbEntity
  8
0
 62
     0
100
AcDbLine
 10
15.80660171779821
 20
5.2
 30
0.0
 11
16.20296425787942
 21
5.59636254008121
 31
0.0
  0
LINE
  5
27C
330
36
100
AcDbEntity
  8
0
 62
     0
100
AcDbLine
 10
15.98337841309485
 20
5.2
 30
0.0
 11
16.31290894781219
 21
5.529530534717341
 31
0.0
  0
LINE
  5
27D
330
36
100
AcDbEntity
  8
0
 62
     0
100
AcDbLine
 10
16.16015510839148
 20
5.2
 30
0.0
 11
16.41889477551746
 21
5.458739667125973
 31
0.0
  0
LINE
  5
27E
330
36
100
AcDbEntity
  8
0
 62
     0
100
AcDbLine
 10
16.33693180368812
 20
5.2
 30
0.0
 11
16.52102114525041
 21
5.384089341562286
 31
0.0
  0
LINE
  5
27F
330
36
100
AcDbEntity
  8
0
 62
     0
100
AcDbLine
 10
16.51370849898476
 20
5.2
 30
0.0
 11
16.61936335457592
 21
5.305654855591162
 31
0.0
  0
LINE
  5
280
330
36
100
AcDbEntity
  8
0
 62
     0
100
AcDbLine
 10
16.69048519428139
 20
5.2
 30
0.0
 11
16.71397473843326
 21
5.223489544151862
 31
0.0
  0
ENDBLK
  5
281
330
36
100
AcDbEntity
  8
0
100
AcDbBlockEnd
  0
BLOCK
  5
282
330
37
100
AcDbEntity
  8
0
100
AcDbBlockBegin
  2
*X21
 70
     1
 10
0.0
 20
0.0
 30
0.0
  3
*X21
  1

  0
LINE
  5
283
330
37
100
AcDbEntity
  8
0
 62
     0
100
AcDbLine
 10
13.9
 20
0.8185245480488701
 30
0.0
 11
17.39644991717202
 21
4.314974465220889
 31
0.0
  0
LINE
  5
284
330
37
100
AcDbEntity
  8
0
 62
     0
100
AcDbLine
 10
13.9
 20
0.995301243345507
 30
0.0
 11
17.33635410458252
 21
4.431655347928027
 31
0.0
  0
LINE
  5
285
330
37
100
AcDbEntity
  8
0
 62
     0
100
AcDbLine
 10
13.9
 20
1.172077938642143
 30
0.0
 11
17.27207765977055
 21
4.544155598412691
 31
0.0
  0
LINE
  5
286
330
37
100
AcDbEntity
  8
0
 62
     0
100
AcDbLine
 10
13.9
 20
1.34885463393878
 30
0.0
 11
17.20376610315736
 21
4.652620737096146
 31
0.0
  0
LINE
  5
287
330
37
100
AcDbEntity
  8
0
 62
     0
100
AcDbLine
 10
13.9
 20
1.525631329235417
 30
0.0
 11
17.13153548167385
 21
4.757166810909273
 31
0.0
  0
LINE
  5
288
330
37
100
AcDbEntity
  8
0
 62
     0
100
AcDbLine
 10
13.9
 20
1.702408024532054
 30
0.0
 11
16.99759197546794
 21
4.8
 31
0.0
  0
LINE
  5
289
330
37
100
AcDbEntity
  8
0
 62
     0
100
AcDbLine
 10
13.9
 20
1.879184719828691
 30
0.0
 11
16.82081528017131
 21
4.8
 31
0.0
  0
LINE
  5
28A
330
37
100
AcDbEntity
  8
0
 62
     0
100
AcDbLine
 10
13.9
 20
2.055961415125328
 30
0.0
 11
16.64403858487467
 21
4.8
 31
0.0
  0
LINE
  5
28B
330
37
100
AcDbEntity
  8
0
 62
     0
100
AcDbLine
 10
13.9
 20
2.232738110421965
 30
0.0
 11
16.46726188957803
 21
4.8
 31
0.0
  0
LINE
  5
28C
330
37
100
AcDbEntity
  8
0
 62
     0
100
AcDbLine
 10
13.9
 20
2.409514805718601
 30
0.0
 11
16.2904851942814
 21
4.8
 31
0.0
  0
LINE
  5
28D
330
37
100
AcDbEntity
  8
0
 62
     0
100
AcDbLine
 10
13.9
 20
2.586291501015238
 30
0.0
 11
16.11370849898476
 21
4.8
 31
0.0
  0
LINE
  5
28E
330
37
100
AcDbEntity
  8
0
 62
     0
100
AcDbLine
 10
13.9
 20
2.763068196311875
 30
0.0
 11
15.93693180368812
 21
4.8
 31
0.0
  0
LINE
  5
28F
330
37
100
AcDbEntity
  8
0
 62
     0
100
AcDbLine
 10
13.9
 20
2.939844891608512
 30
0.0
 11
15.76015510839149
 21
4.8
 31
0.0
  0
LINE
  5
290
330
37
100
AcDbEntity
  8
0
 62
     0
100
AcDbLine
 10
13.9
 20
3.116621586905149
 30
0.0
 11
15.58337841309485
 21
4.8
 31
0.0
  0
LINE
  5
291
330
37
100
AcDbEntity
  8
0
 62
     0
100
AcDbLine
 10
13.9
 20
3.293398282201786
 30
0.0
 11
15.40660171779821
 21
4.8
 31
0.0
  0
LINE
  5
292
330
37
100
AcDbEntity
  8
0
 62
     0
100
AcDbLine
 10
13.9
 20
3.470174977498423
 30
0.0
 11
15.22982502250157
 21
4.8
 31
0.0
  0
LINE
  5
293
330
37
100
AcDbEntity
  8
0
 62
     0
100
AcDbLine
 10
13.9
 20
3.64695167279506
 30
0.0
 11
15.05304832720494
 21
4.8
 31
0.0
  0
LINE
  5
294
330
37
100
AcDbEntity
  8
0
 62
     0
100
AcDbLine
 10
13.9
 20
3.823728368091696
 30
0.0
 11
14.8762716319083
 21
4.8
 31
0.0
  0
LINE
  5
295
330
37
100
AcDbEntity
  8
0
 62
     0
100
AcDbLine
 10
13.9
 20
4.000505063388334
 30
0.0
 11
14.69949493661166
 21
4.8
 31
0.0
  0
LINE
  5
296
330
37
100
AcDbEntity
  8
0
 62
     0
100
AcDbLine
 10
13.9
 20
4.17728175868497
 30
0.0
 11
14.52271824131503
 21
4.8
 31
0.0
  0
LINE
  5
297
330
37
100
AcDbEntity
  8
0
 62
     0
100
AcDbLine
 10
13.9
 20
4.354058453981607
 30
0.0
 11
14.34594154601839
 21
4.8
 31
0.0
  0
LINE
  5
298
330
37
100
AcDbEntity
  8
0
 62
     0
100
AcDbLine
 10
13.9
 20
4.530835149278244
 30
0.0
 11
14.16916485072175
 21
4.8
 31
0.0
  0
LINE
  5
299
330
37
100
AcDbEntity
  8
0
 62
     0
100
AcDbLine
 10
13.9
 20
4.707611844574881
 30
0.0
 11
13.99238815542512
 21
4.8
 31
0.0
  0
LINE
  5
29A
330
37
100
AcDbEntity
  8
0
 62
     0
100
AcDbLine
 10
13.9
 20
0.6417478527522334
 30
0.0
 11
17.45218526214292
 21
4.193933114895161
 31
0.0
  0
LINE
  5
29B
330
37
100
AcDbEntity
  8
0
 62
     0
100
AcDbLine
 10
13.9
 20
0.4649711574555965
 30
0.0
 11
17.50333949830906
 21
4.068310655764662
 31
0.0
  0
LINE
  5
29C
330
37
100
AcDbEntity
  8
0
 62
     0
100
AcDbLine
 10
13.9
 20
0.2881944621589596
 30
0.0
 11
17.54964242799989
 21
3.937836890158853
 31
0.0
  0
LINE
  5
29D
330
37
100
AcDbEntity
  8
0
 62
     0
100
AcDbLine
 10
13.9
 20
0.1114177668623227
 30
0.0
 11
17.59076236298873
 21
3.802180129851055
 31
0.0
  0
LINE
  5
29E
330
37
100
AcDbEntity
  8
0
 62
     0
100
AcDbLine
 10
13.96535907380306
 20
0.0000001453687495
 30
0.0
 11
17.62628957551245
 21
3.660930647078139
 31
0.0
  0
LINE
  5
29F
330
37
100
AcDbEntity
  8
0
 62
     0
100
AcDbLine
 10
14.14213616227945
 20
0.0000005385484993
 30
0.0
 11
17.65571284726207
 21
3.513577223531124
 31
0.0
  0
LINE
  5
2A0
330
37
100
AcDbEntity
  8
0
 62
     0
100
AcDbLine
 10
14.31891325075583
 20
0.0000009317282491
 30
0.0
 11
17.67838532706747
 21
3.359473008039884
 31
0.0
  0
LINE
  5
2A1
330
37
100
AcDbEntity
  8
0
 62
     0
100
AcDbLine
 10
14.49569033923222
 20
0.0000013249079989
 30
0.0
 11
17.6934731399576
 21
3.197784125633374
 31
0.0
  0
LINE
  5
2A2
330
37
100
AcDbEntity
  8
0
 62
     0
100
AcDbLine
 10
14.67246742770861
 20
0.0000017180877487
 30
0.0
 11
17.6998747877926
 21
3.027409078171735
 31
0.0
  0
LINE
  5
2A3
330
37
100
AcDbEntity
  8
0
 62
     0
100
AcDbLine
 10
14.85315433025688
 20
0.0039119253393838
 30
0.0
 11
17.69608807466061
 21
2.846845669743118
 31
0.0
  0
LINE
  5
2A4
330
37
100
AcDbEntity
  8
0
 62
     0
100
AcDbLine
 10
15.04604362941941
 20
0.0200245292052809
 30
0.0
 11
17.67997547079472
 21
2.653956370580586
 31
0.0
  0
LINE
  5
2A5
330
37
100
AcDbEntity
  8
0
 62
     0
100
AcDbLine
 10
15.25448294516349
 20
0.051687149652724
 30
0.0
 11
17.64831285034728
 21
2.445517054836507
 31
0.0
  0
LINE
  5
2A6
330
37
100
AcDbEntity
  8
0
 62
     0
100
AcDbLine
 10
15.48376230096711
 20
0.104189810159703
 30
0.0
 11
17.5958101898403
 21
2.216237699032893
 31
0.0
  0
LINE
  5
2A7
330
37
100
AcDbEntity
  8
0
 62
     0
100
AcDbLine
 10
15.74378625147994
 20
0.1874370653758922
 30
0.0
 11
17.51256293462411
 21
1.956213748520063
 31
0.0
  0
LINE
  5
2A8
330
37
100
AcDbEntity
  8
0
 62
     0
100
AcDbLine
 10
16.05817558800134
 20
0.3250497066006601
 30
0.0
 11
17.37495029339934
 21
1.641824411998659
 31
0.0
  0
LINE
  5
2A9
330
37
100
AcDbEntity
  8
0
 62
     0
100
AcDbLine
 10
16.54193023656893
 20
0.6320276598716133
 30
0.0
 11
17.06797234012839
 21
1.158069763431071
 31
0.0
  0
ENDBLK
  5
2AA
330
37
100
AcDbEntity
  8
0
100
AcDbBlockEnd
  0
BLOCK
  5
2AB
330
38
100
AcDbEntity
  8
0
100
AcDbBlockBegin
  2
B507
 70
     0
 10
0.0
 20
0.0
 30
0.0
  3
B507
  1

  0
LINE
  5
2AC
330
38
100
AcDbEntity
  8
0
  6
Continuous
100
AcDbLine
 10
0.0796223344630107
 20
0.1477539241558645
 30
0.0
 11
0.0796223344630107
 21
-9.002074349055391
 31
0.0
  0
INSERT
  5
2AD
330
38
100
AcDbEntity
  8
0
  6
Continuous
100
AcDbBlockReference
  2
BLC29
 10
0.2123686720277078
 20
-6.641508964427885
 30
0.0
 50
270.0
  0
ENDBLK
  5
2AE
330
38
100
AcDbEntity
  8
0
100
AcDbBlockEnd
  0
BLOCK
  5
2AF
330
39
100
AcDbEntity
  8
0
100
AcDbBlockBegin
  2
15
 70
     0
 10
0.0
 20
0.0
 30
0.0
  3
15
  1

  0
LINE
  5
2B0
330
39
100
AcDbEntity
  8
0
  6
DASHED
100
AcDbLine
 10
29.5
 20
69.0
 30
0.0
 11
29.5
 21
49.5
 31
0.0
  0
LINE
  5
2B1
330
39
100
AcDbEntity
  8
0
  6
Continuous
100
AcDbLine
 10
-30.0
 20
86.5
 30
0.0
 11
-30.0
 21
56.5
 31
0.0
  0
LINE
  5
2B2
330
39
100
AcDbEntity
  8
0
  6
DASHED
100
AcDbLine
 10
52.0
 20
72.5
 30
0.0
 11
52.0
 21
56.5
 31
0.0
  0
TEXT
  5
2B3
330
39
100
AcDbEntity
  8
0
  6
Continuous
100
AcDbText
 10
-3.983586620281073
 20
62.61428699592091
 30
0.0
 40
2.0
  1
24A
  7
ROMANS
100
AcDbText
  0
LINE
  5
2B4
330
39
100
AcDbEntity
  8
0
  6
DASHED
100
AcDbLine
 10
-6.0
 20
9.5
 30
0.0
 11
81.5
 21
9.5
 31
0.0
  0
LINE
  5
2B5
330
39
100
AcDbEntity
  8
0
  6
DASHED
100
AcDbLine
 10
-6.0
 20
18.5
 30
0.0
 11
2.5
 21
18.5
 31
0.0
  0
LINE
  5
2B6
330
39
100
AcDbEntity
  8
0
  6
DASHED
100
AcDbLine
 10
-6.0
 20
36.5
 30
0.0
 11
2.5
 21
36.5
 31
0.0
  0
LINE
  5
2B7
330
39
100
AcDbEntity
  8
0
  6
DASHED
100
AcDbLine
 10
-6.0
 20
0.0
 30
0.0
 11
12.5
 21
0.0
 31
0.0
  0
LINE
  5
2B8
330
39
100
AcDbEntity
  8
0
  6
Continuous
100
AcDbLine
 10
-5.0
 20
9.5
 30
0.0
 11
2.5
 21
9.5
 31
0.0
  0
TEXT
  5
2B9
330
39
100
AcDbEntity
  8
0
  6
Continuous
100
AcDbText
 10
-10.98358662028107
 20
6.114286995920906
 30
0.0
 40
2.0
  1
101:23A
  7
ROMANS
100
AcDbText
  0
TEXT
  5
2BA
330
39
100
AcDbEntity
  8
0
  6
Continuous
100
AcDbText
 10
-13.48358662028107
 20
-3.385713004079093
 30
0.0
 40
2.0
  1
108:X0:19
  7
ROMANS
100
AcDbText
  0
LINE
  5
2BB
330
39
100
AcDbEntity
  8
0
  6
Continuous
100
AcDbLine
 10
3.0
 20
0.0
 30
0.0
 11
-28.5
 21
0.0
 31
0.0
  0
TEXT
  5
2BC
330
39
100
AcDbEntity
  8
0
  6
Continuous
100
AcDbText
 10
-10.98358662028107
 20
24.6142869959209
 30
0.0
 40
2.0
  1
101:22A
  7
ROMANS
100
AcDbText
  0
LINE
  5
2BD
330
39
100
AcDbEntity
  8
0
  6
Continuous
100
AcDbLine
 10
-5.0
 20
28.0
 30
0.0
 11
2.5
 21
28.0
 31
0.0
  0
TEXT
  5
2BE
330
39
100
AcDbEntity
  8
0
  6
Continuous
100
AcDbText
 10
-13.48358662028107
 20
15.1142869959209
 30
0.0
 40
2.0
  1
108:X0:16
  7
ROMANS
100
AcDbText
  0
LINE
  5
2BF
330
39
100
AcDbEntity
  8
0
  6
Continuous
100
AcDbLine
 10
3.0
 20
18.5
 30
0.0
 11
-28.5
 21
18.5
 31
0.0
  0
TEXT
  5
2C0
330
39
100
AcDbEntity
  8
0
  6
Continuous
100
AcDbText
 10
-13.48358662028107
 20
33.1142869959209
 30
0.0
 40
2.0
  1
108:X0:13
  7
ROMANS
100
AcDbText
  0
LINE
  5
2C1
330
39
100
AcDbEntity
  8
0
  6
Continuous
100
AcDbLine
 10
-5.0
 20
46.0
 30
0.0
 11
2.5
 21
46.0
 31
0.0
  0
LINE
  5
2C2
330
39
100
AcDbEntity
  8
0
  6
Continuous
100
AcDbLine
 10
3.0
 20
36.5
 30
0.0
 11
-28.5
 21
36.5
 31
0.0
  0
TEXT
  5
2C3
330
39
100
AcDbEntity
  8
0
  6
Continuous
100
AcDbText
 10
-10.98358662028107
 20
42.6142869959209
 30
0.0
 40
2.0
  1
101:21A
  7
ROMANS
100
AcDbText
  0
LINE
  5
2C4
330
39
100
AcDbEntity
  8
0
  6
Continuous
100
AcDbLine
 10
3.0
 20
56.5
 30
0.0
 11
-28.5
 21
56.5
 31
0.0
  0
LINE
  5
2C5
330
39
100
AcDbEntity
  8
0
  6
DASHED
100
AcDbLine
 10
52.0
 20
56.5
 30
0.0
 11
-6.0
 21
56.5
 31
0.0
  0
TEXT
  5
2C6
330
39
100
AcDbEntity
  8
0
  6
Continuous
100
AcDbText
 10
-13.48358662028107
 20
53.11428699592091
 30
0.0
 40
2.0
  1
108:X0:28
  7
ROMANS
100
AcDbText
  0
LINE
  5
2C7
330
39
100
AcDbEntity
  8
BASE
  6
Continuous
100
AcDbLine
 10
-30.0
 20
46.0
 30
0.0
 11
-30.0
 21
2.5
 31
0.0
  0
LINE
  5
2C8
330
39
100
AcDbEntity
  8
0
  6
Continuous
100
AcDbLine
 10
-30.0
 20
3.0
 30
0.0
 11
-30.0
 21
0.0
 31
0.0
  0
LINE
  5
2C9
330
39
100
AcDbEntity
  8
BASE
  6
Continuous
100
AcDbLine
 10
-30.0
 20
0.0
 30
0.0
 11
-29.0
 21
-1.0
 31
0.0
  0
LINE
  5
2CA
330
39
100
AcDbEntity
  8
0
  6
Continuous
 62
     7
100
AcDbLine
 10
-17.5
 20
9.5
 30
0.0
 11
-12.0
 21
9.5
 31
0.0
  0
LINE
  5
2CB
330
39
100
AcDbEntity
  8
0
  6
Continuous
100
AcDbLine
 10
-17.5
 20
9.5
 30
0.0
 11
-28.5
 21
9.5
 31
0.0
  0
LINE
  5
2CC
330
39
100
AcDbEntity
  8
0
  6
Continuous
 62
     7
100
AcDbLine
 10
-6.37867965644034
 20
9.414213562373078
 30
0.0
 11
-13.09619407771253
 21
11.18198051533946
 31
0.0
  0
LINE
  5
2CD
330
39
100
AcDbEntity
  8
0
  6
Continuous
 62
     7
100
AcDbLine
 10
-12.0
 20
9.5
 30
0.0
 11
-12.0
 21
11.5
 31
0.0
  0
LINE
  5
2CE
330
39
100
AcDbEntity
  8
0
  6
Continuous
 62
     7
100
AcDbLine
 10
-13.09619407771253
 20
11.18198051533946
 30
0.0
 11
-13.25831065346813
 21
10.38934013452021
 31
0.0
  0
LINE
  5
2CF
330
39
100
AcDbEntity
  8
0
  6
Continuous
100
AcDbLine
 10
-12.0
 20
11.0
 30
0.0
 11
-12.0
 21
12.0
 31
0.0
  0
LINE
  5
2D0
330
39
100
AcDbEntity
  8
0
  6
Continuous
100
AcDbLine
 10
-6.0
 20
9.5
 30
0.0
 11
-6.5
 21
9.5
 31
0.0
  0
INSERT
  5
2D1
330
39
100
AcDbEntity
  8
BASE
  6
Continuous
100
AcDbBlockReference
  2
BLC29
 10
-32.60522492436772
 20
27.87299190694318
 30
0.0
 50
180.0
  0
LINE
  5
2D2
330
39
100
AcDbEntity
  8
0
  6
Continuous
 62
     7
100
AcDbLine
 10
-17.5
 20
28.0
 30
0.0
 11
-12.0
 21
28.0
 31
0.0
  0
LINE
  5
2D3
330
39
100
AcDbEntity
  8
0
  6
Continuous
100
AcDbLine
 10
-17.5
 20
28.0
 30
0.0
 11
-28.5
 21
28.0
 31
0.0
  0
LINE
  5
2D4
330
39
100
AcDbEntity
  8
0
  6
Continuous
 62
     7
100
AcDbLine
 10
-6.37867965644034
 20
27.91421356237307
 30
0.0
 11
-13.09619407771253
 21
29.68198051533946
 31
0.0
  0
LINE
  5
2D5
330
39
100
AcDbEntity
  8
0
  6
Continuous
 62
     7
100
AcDbLine
 10
-12.0
 20
28.0
 30
0.0
 11
-12.0
 21
30.0
 31
0.0
  0
LINE
  5
2D6
330
39
100
AcDbEntity
  8
0
  6
Continuous
100
AcDbLine
 10
-12.0
 20
29.5
 30
0.0
 11
-12.0
 21
30.5
 31
0.0
  0
LINE
  5
2D7
330
39
100
AcDbEntity
  8
0
  6
Continuous
 62
     7
100
AcDbLine
 10
-13.09619407771253
 20
29.68198051533946
 30
0.0
 11
-13.25831065346813
 21
28.88934013452021
 31
0.0
  0
LINE
  5
2D8
330
39
100
AcDbEntity
  8
0
  6
Continuous
100
AcDbLine
 10
-5.5
 20
28.0
 30
0.0
 11
-6.5
 21
28.0
 31
0.0
  0
LINE
  5
2D9
330
39
100
AcDbEntity
  8
0
  6
Continuous
 62
     7
100
AcDbLine
 10
-17.5
 20
46.0
 30
0.0
 11
-12.0
 21
46.0
 31
0.0
  0
LINE
  5
2DA
330
39
100
AcDbEntity
  8
0
  6
Continuous
100
AcDbLine
 10
-17.5
 20
46.0
 30
0.0
 11
-28.5
 21
46.0
 31
0.0
  0
LINE
  5
2DB
330
39
100
AcDbEntity
  8
BASE
  6
Continuous
100
AcDbLine
 10
-30.0
 20
46.0
 30
0.0
 11
-29.0
 21
47.0
 31
0.0
  0
LINE
  5
2DC
330
39
100
AcDbEntity
  8
BASE
  6
Continuous
100
AcDbLine
 10
-30.0
 20
56.5
 30
0.0
 11
-29.0
 21
55.5
 31
0.0
  0
LINE
  5
2DD
330
39
100
AcDbEntity
  8
0
  6
Continuous
 62
     7
100
AcDbLine
 10
-6.37867965644034
 20
45.91421356237307
 30
0.0
 11
-13.09619407771253
 21
47.68198051533945
 31
0.0
  0
LINE
  5
2DE
330
39
100
AcDbEntity
  8
0
  6
Continuous
 62
     7
100
AcDbLine
 10
-12.0
 20
46.0
 30
0.0
 11
-12.0
 21
48.0
 31
0.0
  0
LINE
  5
2DF
330
39
100
AcDbEntity
  8
0
  6
Continuous
 62
     7
100
AcDbLine
 10
-13.09619407771253
 20
47.68198051533945
 30
0.0
 11
-13.25831065346813
 21
46.88934013452021
 31
0.0
  0
LINE
  5
2E0
330
39
100
AcDbEntity
  8
0
  6
Continuous
100
AcDbLine
 10
-12.0
 20
47.5
 30
0.0
 11
-12.0
 21
48.5
 31
0.0
  0
LINE
  5
2E1
330
39
100
AcDbEntity
  8
0
  6
Continuous
100
AcDbLine
 10
-5.5
 20
46.0
 30
0.0
 11
-6.5
 21
46.0
 31
0.0
  0
LINE
  5
2E2
330
39
100
AcDbEntity
  8
0
  6
DASHED
100
AcDbLine
 10
12.5
 20
0.0
 30
0.0
 11
12.5
 21
46.0
 31
0.0
  0
LINE
  5
2E3
330
39
100
AcDbEntity
  8
0
  6
DASHED
100
AcDbLine
 10
7.700143843552325
 20
18.5
 30
0.0
 11
7.700143843552325
 21
9.5
 31
0.0
  0
LWPOLYLINE
  5
2E4
330
39
100
AcDbEntity
  8
0
  6
Continuous
100
AcDbPolyline
 90
        2
 70
     1
 43
0.5
 10
7.200143843552325
 20
9.5
 42
1.0
 10
8.200143843552325
 20
9.5
 42
1.0
  0
LINE
  5
2E8
330
39
100
AcDbEntity
  8
0
  6
DASHED
100
AcDbLine
 10
3.0
 20
18.5
 30
0.0
 11
7.5
 21
18.5
 31
0.0
  0
LINE
  5
2E9
330
39
100
AcDbEntity
  8
0
  6
DASHED
100
AcDbLine
 10
7.700143843552325
 20
36.5
 30
0.0
 11
7.700143843552325
 21
28.0
 31
0.0
  0
LWPOLYLINE
  5
2EA
330
39
100
AcDbEntity
  8
0
  6
Continuous
100
AcDbPolyline
 90
        2
 70
     1
 43
0.5
 10
7.200143843552325
 20
28.0
 42
1.0
 10
8.200143843552325
 20
28.0
 42
1.0
  0
LINE
  5
2EE
330
39
100
AcDbEntity
  8
0
  6
DASHED
100
AcDbLine
 10
3.0
 20
36.5
 30
0.0
 11
7.5
 21
36.5
 31
0.0
  0
LWPOLYLINE
  5
2EF
330
39
100
AcDbEntity
  8
0
  6
Continuous
100
AcDbPolyline
 90
        2
 70
     1
 43
0.5
 10
12.0
 20
46.0
 42
1.0
 10
13.0
 20
46.0
 42
1.0
  0
LINE
  5
2F3
330
39
100
AcDbEntity
  8
0
  6
DASHED
100
AcDbLine
 10
81.5
 20
9.5
 30
0.0
 11
81.5
 21
23.0
 31
0.0
  0
LINE
  5
2F4
330
39
100
AcDbEntity
  8
0
  6
DASHED
100
AcDbLine
 10
74.5
 20
191.5
 30
0.0
 11
17.0
 21
191.5
 31
0.0
  0
LINE
  5
2F5
330
39
100
AcDbEntity
  8
0
  6
DASHED
100
AcDbLine
 10
74.5
 20
186.4999999999999
 30
0.0
 11
17.0
 21
186.5
 31
0.0
  0
LINE
  5
2F6
330
39
100
AcDbEntity
  8
0
  6
DASHED
100
AcDbLine
 10
74.5
 20
181.4999999999999
 30
0.0
 11
17.0
 21
181.4999999999999
 31
0.0
  0
LINE
  5
2F7
330
39
100
AcDbEntity
  8
0
  6
Continuous
100
AcDbLine
 10
52.0
 20
164.1899802196788
 30
0.0
 11
72.0
 21
164.1899802196788
 31
0.0
  0
LINE
  5
2F8
330
39
100
AcDbEntity
  8
0
  6
Continuous
100
AcDbLine
 10
64.5
 20
151.5
 30
0.0
 11
59.5
 21
159.0
 31
0.0
  0
LINE
  5
2F9
330
39
100
AcDbEntity
  8
0
  6
DASHED
100
AcDbLine
 10
59.5
 20
139.0
 30
0.0
 11
77.0
 21
139.0
 31
0.0
  0
LINE
  5
2FA
330
39
100
AcDbEntity
  8
0
  6
DASHED
100
AcDbLine
 10
-30.0
 20
145.0
 30
0.0
 11
-30.0
 21
147.5
 31
0.0
  0
LINE
  5
2FB
330
39
100
AcDbEntity
  8
0
  6
DASHED
100
AcDbLine
 10
19.5
 20
147.5
 30
0.0
 11
19.5
 21
144.5
 31
0.0
  0
LINE
  5
2FC
330
39
100
AcDbEntity
  8
0
  6
Continuous
 62
     7
100
AcDbLine
 10
-19.5
 20
152.5
 30
0.0
 11
-19.5
 21
142.5
 31
0.0
  0
TEXT
  5
2FD
330
39
100
AcDbEntity
  8
0
  6
Continuous
100
AcDbText
 10
39.69534715705311
 20
146.5002205949603
 30
0.0
 40
2.0
  1
P/Q
  7
ROMANS
100
AcDbText
  0
LINE
  5
2FE
330
39
100
AcDbEntity
  8
0
  6
DASHED
100
AcDbLine
 10
34.5
 20
153.0
 30
0.0
 11
34.5
 21
120.5
 31
0.0
  0
LINE
  5
2FF
330
39
100
AcDbEntity
  8
0
  6
DASHED
100
AcDbLine
 10
29.5
 20
153.0
 30
0.0
 11
29.5
 21
120.5
 31
0.0
  0
LINE
  5
300
330
39
100
AcDbEntity
  8
0
  6
DASHED
100
AcDbLine
 10
24.5
 20
153.0
 30
0.0
 11
24.5
 21
120.5
 31
0.0
  0
LINE
  5
301
330
39
100
AcDbEntity
  8
0
  6
DASHED
100
AcDbLine
 10
52.0
 20
70.5
 30
0.0
 11
52.0
 21
148.0
 31
0.0
  0
LINE
  5
302
330
39
100
AcDbEntity
  8
0
  6
Continuous
100
AcDbLine
 10
3.0
 20
66.0
 30
0.0
 11
-5.0
 21
66.0
 31
0.0
  0
LINE
  5
303
330
39
100
AcDbEntity
  8
0
  6
DASHED
100
AcDbLine
 10
-6.0
 20
121.5
 30
0.0
 11
4.5
 21
121.5
 31
0.0
  0
LINE
  5
304
330
39
100
AcDbEntity
  8
0
  6
DASHED
100
AcDbLine
 10
-6.0
 20
142.5
 30
0.0
 11
2.5
 21
142.5
 31
0.0
  0
LINE
  5
305
330
39
100
AcDbEntity
  8
0
  6
DASHED
100
AcDbLine
 10
59.5
 20
66.0
 30
0.0
 11
-4.908885958758219
 21
66.0
 31
0.0
  0
LINE
  5
306
330
39
100
AcDbEntity
  8
0
  6
DASHED
100
AcDbLine
 10
19.5
 20
81.5
 30
0.0
 11
-6.5
 21
81.5
 31
0.0
  0
LINE
  5
307
330
39
100
AcDbEntity
  8
0
  6
Continuous
100
AcDbLine
 10
-7.5
 20
81.5
 30
0.0
 11
3.0
 21
81.5
 31
0.0
  0
LINE
  5
308
330
39
100
AcDbEntity
  8
0
  6
Continuous
100
AcDbLine
 10
-7.5
 20
91.5
 30
0.0
 11
3.0
 21
91.5
 31
0.0
  0
LINE
  5
309
330
39
100
AcDbEntity
  8
0
  6
Continuous
100
AcDbLine
 10
-7.5
 20
121.5
 30
0.0
 11
2.5
 21
121.5
 31
0.0
  0
LINE
  5
30A
330
39
100
AcDbEntity
  8
0
  6
Continuous
100
AcDbLine
 10
-7.5
 20
142.5
 30
0.0
 11
1.5
 21
142.5
 31
0.0
  0
LINE
  5
30B
330
39
100
AcDbEntity
  8
0
  6
Continuous
100
AcDbLine
 10
3.0
 20
101.5
 30
0.0
 11
-5.5
 21
101.5
 31
0.0
  0
LINE
  5
30C
330
39
100
AcDbEntity
  8
0
  6
Continuous
100
AcDbLine
 10
3.0
 20
111.4999999999999
 30
0.0
 11
-5.5
 21
111.4999999999999
 31
0.0
  0
LINE
  5
30D
330
39
100
AcDbEntity
  8
0
  6
Continuous
100
AcDbLine
 10
3.0
 20
131.4999999999999
 30
0.0
 11
-5.5
 21
131.4999999999999
 31
0.0
  0
TEXT
  5
30E
330
39
100
AcDbEntity
  8
0
  6
Continuous
100
AcDbText
 10
-4.483586620281073
 20
88.61428699592091
 30
0.0
 40
2.0
  1
19A
  7
ROMANS
100
AcDbText
  0
TEXT
  5
30F
330
39
100
AcDbEntity
  8
0
  6
Continuous
100
AcDbText
 10
-4.483586620281073
 20
78.61428699592091
 30
0.0
 40
2.0
  1
20A
  7
ROMANS
100
AcDbText
  0
TEXT
  5
310
330
39
100
AcDbEntity
  8
0
  6
Continuous
100
AcDbText
 10
-4.483586620281073
 20
108.6142869959209
 30
0.0
 40
2.0
  1
17A
  7
ROMANS
100
AcDbText
  0
TEXT
  5
311
330
39
100
AcDbEntity
  8
0
  6
Continuous
100
AcDbText
 10
-4.483586620281073
 20
98.61428699592091
 30
0.0
 40
2.0
  1
18A
  7
ROMANS
100
AcDbText
  0
TEXT
  5
312
330
39
100
AcDbEntity
  8
0
  6
Continuous
100
AcDbText
 10
-4.483586620281073
 20
128.6142869959209
 30
0.0
 40
2.0
  1
15A
  7
ROMANS
100
AcDbText
  0
TEXT
  5
313
330
39
100
AcDbEntity
  8
0
  6
Continuous
100
AcDbText
 10
-4.483586620281073
 20
118.6142869959209
 30
0.0
 40
2.0
  1
16A
  7
ROMANS
100
AcDbText
  0
TEXT
  5
314
330
39
100
AcDbEntity
  8
0
  6
Continuous
100
AcDbText
 10
-4.483586620281073
 20
139.6142869959209
 30
0.0
 40
2.0
  1
14A
  7
ROMANS
100
AcDbText
  0
LINE
  5
315
330
39
100
AcDbEntity
  8
0
  6
DASHED
100
AcDbLine
 10
28.5
 20
91.5
 30
0.0
 11
-6.5
 21
91.5
 31
0.0
  0
LINE
  5
316
330
39
100
AcDbEntity
  8
0
  6
DASHED
100
AcDbLine
 10
-5.5
 20
101.5
 30
0.0
 11
19.5
 21
101.5
 31
0.0
  0
LINE
  5
317
330
39
100
AcDbEntity
  8
0
  6
Continuous
 62
     7
100
AcDbLine
 10
-19.5
 20
111.4999999999999
 30
0.0
 11
-19.5
 21
101.5
 31
0.0
  0
LINE
  5
318
330
39
100
AcDbEntity
  8
0
  6
DASHED
100
AcDbLine
 10
-30.0
 20
104.0
 30
0.0
 11
-30.0
 21
106.4999999999999
 31
0.0
  0
LINE
  5
319
330
39
100
AcDbEntity
  8
BASE
  6
Continuous
100
AcDbLine
 10
-30.0
 20
145.5
 30
0.0
 11
-30.0
 21
100.5
 31
0.0
  0
INSERT
  5
31A
330
39
100
AcDbEntity
  8
BASE
  6
Continuous
100
AcDbBlockReference
  2
BLC29
 10
-31.68861172028675
 20
70.87153346023453
 30
0.0
 50
180.0
  0
LINE
  5
31B
330
39
100
AcDbEntity
  8
0
  6
Continuous
 62
     7
100
AcDbLine
 10
-19.5
 20
91.5
 30
0.0
 11
-19.5
 21
81.5
 31
0.0
  0
LINE
  5
31C
330
39
100
AcDbEntity
  8
0
  6
Continuous
 62
     7
100
AcDbLine
 10
-17.5
 20
66.0
 30
0.0
 11
-12.0
 21
66.0
 31
0.0
  0
LINE
  5
31D
330
39
100
AcDbEntity
  8
0
  6
Continuous
 62
     7
100
AcDbLine
 10
-19.5
 20
76.5
 30
0.0
 11
-12.5
 21
76.5
 31
0.0
  0
LINE
  5
31E
330
39
100
AcDbEntity
  8
0
  6
Continuous
 62
     7
100
AcDbLine
 10
-19.5
 20
81.5
 30
0.0
 11
-12.5
 21
81.5
 31
0.0
  0
LINE
  5
31F
330
39
100
AcDbEntity
  8
0
  6
Continuous
100
AcDbLine
 10
-17.5
 20
66.0
 30
0.0
 11
-28.5
 21
66.0
 31
0.0
  0
LINE
  5
320
330
39
100
AcDbEntity
  8
0
  6
Continuous
100
AcDbLine
 10
-19.5
 20
76.5
 30
0.0
 11
-28.5
 21
76.5
 31
0.0
  0
LINE
  5
321
330
39
100
AcDbEntity
  8
0
  6
Continuous
 62
     7
100
AcDbLine
 10
-6.37867965644034
 20
66.41421356237308
 30
0.0
 11
-13.09619407771253
 21
68.18198051533946
 31
0.0
  0
LINE
  5
322
330
39
100
AcDbEntity
  8
0
  6
Continuous
100
AcDbLine
 10
-12.0
 20
67.5
 30
0.0
 11
-12.0
 21
68.5
 31
0.0
  0
LINE
  5
323
330
39
100
AcDbEntity
  8
0
  6
Continuous
 62
     7
100
AcDbLine
 10
-13.09619407771253
 20
68.18198051533946
 30
0.0
 11
-13.25831065346813
 21
67.38934013452021
 31
0.0
  0
LINE
  5
324
330
39
100
AcDbEntity
  8
0
  6
Continuous
 62
     7
100
AcDbLine
 10
-12.0
 20
66.0
 30
0.0
 11
-12.0
 21
68.0
 31
0.0
  0
LINE
  5
325
330
39
100
AcDbEntity
  8
0
  6
Continuous
100
AcDbLine
 10
-6.920409745161691
 20
66.5416117607831
 30
0.0
 11
-4.920409745161691
 21
66.0416117607831
 31
0.0
  0
LINE
  5
326
330
39
100
AcDbEntity
  8
0
  6
Continuous
 62
     7
100
AcDbLine
 10
-7.5
 20
81.5
 30
0.0
 11
-13.5
 21
78.0
 31
0.0
  0
LINE
  5
327
330
39
100
AcDbEntity
  8
0
  6
DASHED
 62
     7
100
AcDbLine
 10
-13.83661427336011
 20
78.47305858068285
 30
0.0
 11
-13.16197839835797
 21
77.37214985645568
 31
0.0
  0
LINE
  5
328
330
39
100
AcDbEntity
  8
0
  6
DASHED
 62
     7
100
AcDbLine
 10
-12.5
 20
76.5
 30
0.0
 11
-12.5
 21
79.5
 31
0.0
  0
LINE
  5
329
330
39
100
AcDbEntity
  8
0
  6
Continuous
 62
     7
100
AcDbLine
 10
-21.0
 20
86.5
 30
0.0
 11
-15.5
 21
86.5
 31
0.0
  0
LINE
  5
32A
330
39
100
AcDbEntity
  8
0
  6
Continuous
 62
     7
100
AcDbLine
 10
-12.5
 20
86.5
 30
0.0
 11
-20.0
 21
86.5
 31
0.0
  0
LINE
  5
32B
330
39
100
AcDbEntity
  8
0
  6
Continuous
 62
     7
100
AcDbLine
 10
-19.5
 20
91.5
 30
0.0
 11
-12.5
 21
91.5
 31
0.0
  0
LINE
  5
32C
330
39
100
AcDbEntity
  8
0
  6
Continuous
 62
     7
100
AcDbLine
 10
-19.5
 20
101.5
 30
0.0
 11
-12.5
 21
101.5
 31
0.0
  0
LINE
  5
32D
330
39
100
AcDbEntity
  8
0
  6
Continuous
 62
     7
100
AcDbLine
 10
-19.5
 20
96.5
 30
0.0
 11
-12.5
 21
96.5
 31
0.0
  0
LINE
  5
32E
330
39
100
AcDbEntity
  8
0
  6
Continuous
100
AcDbLine
 10
-20.5
 20
86.5
 30
0.0
 11
-28.5
 21
86.5
 31
0.0
  0
LINE
  5
32F
330
39
100
AcDbEntity
  8
BASE
  6
Continuous
100
AcDbLine
 10
-30.0
 20
86.5
 30
0.0
 11
-29.0
 21
87.5
 31
0.0
  0
LINE
  5
330
330
39
100
AcDbEntity
  8
0
  6
Continuous
100
AcDbLine
 10
-19.5
 20
96.5
 30
0.0
 11
-28.5
 21
96.5
 31
0.0
  0
LINE
  5
331
330
39
100
AcDbEntity
  8
0
  6
Continuous
100
AcDbLine
 10
-30.0
 20
96.5
 30
0.0
 11
-30.0
 21
100.5
 31
0.0
  0
LINE
  5
332
330
39
100
AcDbEntity
  8
BASE
  6
Continuous
100
AcDbLine
 10
-30.0
 20
96.5
 30
0.0
 11
-29.0
 21
95.5
 31
0.0
  0
LINE
  5
333
330
39
100
AcDbEntity
  8
0
  6
Continuous
 62
     7
100
AcDbLine
 10
-7.5
 20
91.5
 30
0.0
 11
-13.5
 21
88.0
 31
0.0
  0
LINE
  5
334
330
39
100
AcDbEntity
  8
0
  6
DASHED
 62
     7
100
AcDbLine
 10
-13.83661427336011
 20
88.47305858068285
 30
0.0
 11
-13.16197839835797
 21
87.37214985645568
 31
0.0
  0
LINE
  5
335
330
39
100
AcDbEntity
  8
0
  6
DASHED
 62
     7
100
AcDbLine
 10
-12.5
 20
86.5
 30
0.0
 11
-12.5
 21
89.50000000000001
 31
0.0
  0
LINE
  5
336
330
39
100
AcDbEntity
  8
0
  6
Continuous
 62
     7
100
AcDbLine
 10
-7.5
 20
101.5
 30
0.0
 11
-13.5
 21
98.0
 31
0.0
  0
LINE
  5
337
330
39
100
AcDbEntity
  8
0
  6
DASHED
 62
     7
100
AcDbLine
 10
-12.5
 20
96.5
 30
0.0
 11
-12.5
 21
99.50000000000001
 31
0.0
  0
LINE
  5
338
330
39
100
AcDbEntity
  8
0
  6
DASHED
 62
     7
100
AcDbLine
 10
-13.83661427336011
 20
98.47305858068285
 30
0.0
 11
-13.16197839835797
 21
97.37214985645568
 31
0.0
  0
LINE
  5
339
330
39
100
AcDbEntity
  8
0
  6
Continuous
100
AcDbLine
 10
-7.5
 20
101.5
 30
0.0
 11
-5.0
 21
101.5
 31
0.0
  0
LINE
  5
33A
330
39
100
AcDbEntity
  8
0
  6
Continuous
 62
     7
100
AcDbLine
 10
-19.5
 20
131.4999999999999
 30
0.0
 11
-19.5
 21
121.5
 31
0.0
  0
LINE
  5
33B
330
39
100
AcDbEntity
  8
0
  6
DASHED
100
AcDbLine
 10
-30.0
 20
124.0
 30
0.0
 11
-30.0
 21
126.5
 31
0.0
  0
LINE
  5
33C
330
39
100
AcDbEntity
  8
0
  6
Continuous
 62
     7
100
AcDbLine
 10
-21.0
 20
106.4999999999999
 30
0.0
 11
-15.5
 21
106.4999999999999
 31
0.0
  0
LINE
  5
33D
330
39
100
AcDbEntity
  8
0
  6
Continuous
 62
     7
100
AcDbLine
 10
-19.5
 20
111.4999999999999
 30
0.0
 11
-12.5
 21
111.4999999999999
 31
0.0
  0
LINE
  5
33E
330
39
100
AcDbEntity
  8
0
  6
Continuous
 62
     7
100
AcDbLine
 10
-12.5
 20
106.4999999999999
 30
0.0
 11
-20.0
 21
106.4999999999999
 31
0.0
  0
LINE
  5
33F
330
39
100
AcDbEntity
  8
0
  6
Continuous
 62
     7
100
AcDbLine
 10
-19.5
 20
116.5
 30
0.0
 11
-12.5
 21
116.5
 31
0.0
  0
LINE
  5
340
330
39
100
AcDbEntity
  8
0
  6
Continuous
 62
     7
100
AcDbLine
 10
-19.5
 20
121.5
 30
0.0
 11
-12.5
 21
121.5
 31
0.0
  0
LINE
  5
341
330
39
100
AcDbEntity
  8
0
  6
Continuous
100
AcDbLine
 10
-20.5
 20
106.4999999999999
 30
0.0
 11
-28.5
 21
106.4999999999999
 31
0.0
  0
LINE
  5
342
330
39
100
AcDbEntity
  8
0
  6
Continuous
100
AcDbLine
 10
-19.5
 20
116.5
 30
0.0
 11
-28.5
 21
116.5
 31
0.0
  0
LINE
  5
343
330
39
100
AcDbEntity
  8
0
  6
Continuous
 62
     7
100
AcDbLine
 10
-7.5
 20
111.4999999999999
 30
0.0
 11
-13.5
 21
108.0
 31
0.0
  0
LINE
  5
344
330
39
100
AcDbEntity
  8
0
  6
DASHED
 62
     7
100
AcDbLine
 10
-12.5
 20
106.4999999999999
 30
0.0
 11
-12.5
 21
109.4999999999999
 31
0.0
  0
LINE
  5
345
330
39
100
AcDbEntity
  8
0
  6
DASHED
 62
     7
100
AcDbLine
 10
-13.83661427336011
 20
108.4730585806828
 30
0.0
 11
-13.16197839835797
 21
107.3721498564556
 31
0.0
  0
LINE
  5
346
330
39
100
AcDbEntity
  8
0
  6
Continuous
100
AcDbLine
 10
-7.5
 20
111.4999999999999
 30
0.0
 11
-5.5
 21
111.4999999999999
 31
0.0
  0
LINE
  5
347
330
39
100
AcDbEntity
  8
0
  6
Continuous
 62
     7
100
AcDbLine
 10
-7.5
 20
121.5
 30
0.0
 11
-13.5
 21
118.0
 31
0.0
  0
LINE
  5
348
330
39
100
AcDbEntity
  8
0
  6
DASHED
 62
     7
100
AcDbLine
 10
-13.83661427336011
 20
118.4730585806828
 30
0.0
 11
-13.16197839835797
 21
117.3721498564556
 31
0.0
  0
LINE
  5
349
330
39
100
AcDbEntity
  8
0
  6
DASHED
 62
     7
100
AcDbLine
 10
-12.5
 20
116.5
 30
0.0
 11
-12.5
 21
119.5
 31
0.0
  0
LINE
  5
34A
330
39
100
AcDbEntity
  8
0
  6
Continuous
 62
     7
100
AcDbLine
 10
-21.0
 20
126.5
 30
0.0
 11
-15.5
 21
126.5
 31
0.0
  0
LINE
  5
34B
330
39
100
AcDbEntity
  8
0
  6
Continuous
 62
     7
100
AcDbLine
 10
-12.5
 20
126.5
 30
0.0
 11
-20.0
 21
126.5
 31
0.0
  0
LINE
  5
34C
330
39
100
AcDbEntity
  8
0
  6
Continuous
 62
     7
100
AcDbLine
 10
-19.5
 20
131.4999999999999
 30
0.0
 11
-12.5
 21
131.4999999999999
 31
0.0
  0
LINE
  5
34D
330
39
100
AcDbEntity
  8
0
  6
Continuous
 62
     7
100
AcDbLine
 10
-19.5
 20
142.5
 30
0.0
 11
-12.5
 21
142.5
 31
0.0
  0
LINE
  5
34E
330
39
100
AcDbEntity
  8
0
  6
Continuous
 62
     7
100
AcDbLine
 10
-19.5
 20
137.5
 30
0.0
 11
-12.5
 21
137.5
 31
0.0
  0
LINE
  5
34F
330
39
100
AcDbEntity
  8
0
  6
Continuous
100
AcDbLine
 10
-20.5
 20
126.5
 30
0.0
 11
-28.5
 21
126.5
 31
0.0
  0
LINE
  5
350
330
39
100
AcDbEntity
  8
0
  6
Continuous
100
AcDbLine
 10
-19.5
 20
137.5
 30
0.0
 11
-28.5
 21
137.5
 31
0.0
  0
LINE
  5
351
330
39
100
AcDbEntity
  8
0
  6
Continuous
 62
     7
100
AcDbLine
 10
-7.5
 20
131.4999999999999
 30
0.0
 11
-13.5
 21
128.0
 31
0.0
  0
LINE
  5
352
330
39
100
AcDbEntity
  8
0
  6
DASHED
 62
     7
100
AcDbLine
 10
-13.83661427336011
 20
128.4730585806828
 30
0.0
 11
-13.16197839835797
 21
127.3721498564556
 31
0.0
  0
LINE
  5
353
330
39
100
AcDbEntity
  8
0
  6
DASHED
 62
     7
100
AcDbLine
 10
-12.5
 20
126.5
 30
0.0
 11
-12.5
 21
129.4999999999999
 31
0.0
  0
LINE
  5
354
330
39
100
AcDbEntity
  8
0
  6
Continuous
100
AcDbLine
 10
-7.5
 20
131.4999999999999
 30
0.0
 11
-5.5
 21
131.4999999999999
 31
0.0
  0
LINE
  5
355
330
39
100
AcDbEntity
  8
0
  6
Continuous
 62
     7
100
AcDbLine
 10
-7.5
 20
142.5
 30
0.0
 11
-13.5
 21
139.0
 31
0.0
  0
LINE
  5
356
330
39
100
AcDbEntity
  8
0
  6
DASHED
 62
     7
100
AcDbLine
 10
-12.5
 20
137.5
 30
0.0
 11
-12.5
 21
140.5
 31
0.0
  0
LINE
  5
357
330
39
100
AcDbEntity
  8
0
  6
DASHED
 62
     7
100
AcDbLine
 10
-13.83661427336011
 20
139.4730585806828
 30
0.0
 11
-13.16197839835797
 21
138.3721498564556
 31
0.0
  0
LINE
  5
358
330
39
100
AcDbEntity
  8
0
  6
DASHED
100
AcDbLine
 10
11.0
 20
142.5
 30
0.0
 11
11.0
 21
101.5
 31
0.0
  0
LINE
  5
359
330
39
100
AcDbEntity
  8
0
  6
DASHED
100
AcDbLine
 10
19.5
 20
145.0
 30
0.0
 11
19.5
 21
101.5
 31
0.0
  0
LINE
  5
35A
330
39
100
AcDbEntity
  8
0
  6
DASHED
100
AcDbLine
 10
34.5
 20
124.0
 30
0.0
 11
34.5
 21
99.0
 31
0.0
  0
LINE
  5
35B
330
39
100
AcDbEntity
  8
0
  6
DASHED
100
AcDbLine
 10
29.5
 20
124.0
 30
0.0
 11
29.5
 21
99.0
 31
0.0
  0
LINE
  5
35C
330
39
100
AcDbEntity
  8
0
  6
DASHED
100
AcDbLine
 10
24.5
 20
124.0
 30
0.0
 11
24.5
 21
99.0
 31
0.0
  0
LINE
  5
35D
330
39
100
AcDbEntity
  8
0
  6
DASHED
100
AcDbLine
 10
59.5
 20
84.0
 30
0.0
 11
59.5
 21
139.0
 31
0.0
  0
LINE
  5
35E
330
39
100
AcDbEntity
  8
0
  6
Continuous
100
AcDbLine
 10
29.5
 20
94.0
 30
0.0
 11
32.0
 21
99.0
 31
0.0
  0
LINE
  5
35F
330
39
100
AcDbEntity
  8
0
  6
Continuous
100
AcDbLine
 10
24.5
 20
99.0
 30
0.0
 11
34.5
 21
99.0
 31
0.0
  0
LINE
  5
360
330
39
100
AcDbEntity
  8
0
  6
DASHED
100
AcDbLine
 10
19.5
 20
86.5
 30
0.0
 11
19.5
 21
81.5
 31
0.0
  0
LINE
  5
361
330
39
100
AcDbEntity
  8
0
  6
Continuous
100
AcDbLine
 10
27.0
 20
99.0
 30
0.0
 11
27.0
 21
82.5
 31
0.0
  0
LINE
  5
362
330
39
100
AcDbEntity
  8
0
  6
Continuous
100
AcDbLine
 10
29.5
 20
94.0
 30
0.0
 11
29.5
 21
69.0
 31
0.0
  0
INSERT
  5
363
330
39
100
AcDbEntity
  8
0
  6
Continuous
100
AcDbBlockReference
  2
BLC15
 10
19.35791563237796
 20
76.5
 30
0.0
  0
LINE
  5
364
330
39
100
AcDbEntity
  8
0
  6
Continuous
100
AcDbLine
 10
19.5
 20
79.5
 30
0.0
 11
19.5
 21
80.5
 31
0.0
  0
LWPOLYLINE
  5
365
330
39
100
AcDbEntity
  8
0
  6
Continuous
100
AcDbPolyline
 90
        2
 70
     1
 43
0.5
 10
19.0
 20
81.5
 42
1.0
 10
20.0
 20
81.5
 42
1.0
  0
LINE
  5
369
330
39
100
AcDbEntity
  8
0
  6
Continuous
100
AcDbLine
 10
27.0
 20
83.0
 30
0.0
 11
27.0
 21
79.0
 31
0.0
  0
INSERT
  5
36A
330
39
100
AcDbEntity
  8
0
  6
Continuous
100
AcDbBlockReference
  2
BLC15
 10
26.85791563237796
 20
76.5
 30
0.0
  0
LWPOLYLINE
  5
36B
330
39
100
AcDbEntity
  8
0
  6
Continuous
100
AcDbPolyline
 90
        2
 70
     1
 43
0.5
 10
10.5
 20
101.5
 42
1.0
 10
11.5
 20
101.5
 42
1.0
  0
LINE
  5
36F
330
39
100
AcDbEntity
  8
0
  6
Continuous
100
AcDbLine
 10
27.0
 20
99.0
 30
0.0
 11
29.5
 21
94.0
 31
0.0
  0
LINE
  5
370
330
39
100
AcDbEntity
  8
0
  6
DASHED
100
AcDbLine
 10
28.0
 20
86.68215907889356
 30
0.0
 11
19.5
 21
86.68215907889356
 31
0.0
  0
LINE
  5
371
330
39
100
AcDbEntity
  8
0
  6
DASHED
100
AcDbLine
 10
19.50153667512785
 20
86.50230258920478
 30
0.0
 11
19.50153667512785
 21
86.68322702409268
 31
0.0
  0
INSERT
  5
372
330
39
100
AcDbEntity
  8
0
  6
Continuous
100
AcDbBlockReference
  2
BLC27
 10
28.99115548284925
 20
89.11843073073024
 30
0.0
 50
180.0
  0
LINE
  5
373
330
39
100
AcDbEntity
  8
0
  6
Continuous
100
AcDbLine
 10
28.0
 20
89.09164034804334
 30
0.0
 11
27.0
 21
89.09164034804334
 31
0.0
  0
LINE
  5
374
330
39
100
AcDbEntity
  8
0
  6
Continuous
100
AcDbLine
 10
19.5
 20
100.0
 30
0.0
 11
19.5
 21
101.0
 31
0.0
  0
INSERT
  5
375
330
39
100
AcDbEntity
  8
0
  6
Continuous
100
AcDbBlockReference
  2
BLC15
 10
19.35791563237796
 20
96.5
 30
0.0
  0
LWPOLYLINE
  5
376
330
39
100
AcDbEntity
  8
0
  6
Continuous
100
AcDbPolyline
 90
        2
 70
     1
 43
0.5
 10
19.0
 20
101.5
 42
1.0
 10
20.0
 20
101.5
 42
1.0
  0
LWPOLYLINE
  5
37A
330
39
100
AcDbEntity
  8
0
  6
Continuous
100
AcDbPolyline
 90
        2
 70
     1
 43
0.5
 10
26.5
 20
98.93351636782202
 42
1.0
 10
27.5
 20
98.93351636782202
 42
1.0
  0
LINE
  5
37E
330
39
100
AcDbEntity
  8
0
  6
DASHED
100
AcDbLine
 10
59.5
 20
86.5
 30
0.0
 11
59.5
 21
66.0
 31
0.0
  0
LINE
  5
37F
330
39
100
AcDbEntity
  8
0
  6
DASHED
100
AcDbLine
 10
34.5
 20
111.4999999999999
 30
0.0
 11
2.5
 21
111.4999999999999
 31
0.0
  0
INSERT
  5
380
330
39
100
AcDbEntity
  8
0
  6
Continuous
100
AcDbBlockReference
  2
BLC27
 10
31.0122703094795
 20
129.1184303520074
 30
0.0
 50
180.0
  0
LINE
  5
381
330
39
100
AcDbEntity
  8
0
  6
DASHED
100
AcDbLine
 10
34.50692101702634
 20
106.6899842626011
 30
0.0
 11
19.5
 21
106.6899842626011
 31
0.0
  0
LWPOLYLINE
  5
382
330
39
100
AcDbEntity
  8
0
  6
Continuous
100
AcDbPolyline
 90
        2
 70
     1
 43
0.5
 10
19.0
 20
126.6899838838781
 42
1.0
 10
20.0
 20
126.6899838838781
 42
1.0
  0
LINE
  5
386
330
39
100
AcDbEntity
  8
0
  6
DASHED
100
AcDbLine
 10
11.0
 20
121.5
 30
0.0
 11
3.0
 21
121.5
 31
0.0
  0
LWPOLYLINE
  5
387
330
39
100
AcDbEntity
  8
0
  6
Continuous
100
AcDbPolyline
 90
        2
 70
     1
 43
0.5
 10
10.5
 20
121.5
 42
1.0
 10
11.5
 20
121.5
 42
1.0
  0
LWPOLYLINE
  5
38B
330
39
100
AcDbEntity
  8
0
  6
Continuous
100
AcDbPolyline
 90
        2
 70
     1
 43
0.5
 10
19.0
 20
106.6899842626011
 42
1.0
 10
20.0
 20
106.6899842626011
 42
1.0
  0
LINE
  5
38F
330
39
100
AcDbEntity
  8
0
  6
DASHED
100
AcDbLine
 10
29.5
 20
131.4999999999999
 30
0.0
 11
2.5
 21
131.4999999999999
 31
0.0
  0
LINE
  5
390
330
39
100
AcDbEntity
  8
0
  6
DASHED
100
AcDbLine
 10
11.0
 20
142.5
 30
0.0
 11
3.0
 21
142.5
 31
0.0
  0
LINE
  5
391
330
39
100
AcDbEntity
  8
0
  6
DASHED
100
AcDbLine
 10
29.56979672434187
 20
126.6899838838781
 30
0.0
 11
19.5
 21
126.6899838838781
 31
0.0
  0
INSERT
  5
392
330
39
100
AcDbEntity
  8
0
  6
Continuous
100
AcDbBlockReference
  2
BLC27
 10
35.99115548284925
 20
109.1184307307302
 30
0.0
 50
180.0
  0
INSERT
  5
393
330
39
100
AcDbEntity
  8
0
  6
Continuous
100
AcDbBlockReference
  2
B507
 10
42.48455682827898
 20
144.3847424526004
 30
0.0
  0
LINE
  5
394
330
39
100
AcDbEntity
  8
0
  6
Continuous
100
AcDbLine
 10
3.0
 20
152.5
 30
0.0
 11
-5.5
 21
152.5
 31
0.0
  0
TEXT
  5
395
330
39
100
AcDbEntity
  8
0
  6
Continuous
100
AcDbText
 10
-4.483586620281073
 20
149.6142869959209
 30
0.0
 40
2.0
  1
13A
  7
ROMANS
100
AcDbText
  0
TEXT
  5
396
330
39
100
AcDbEntity
  8
0
  6
Continuous
100
AcDbText
 10
-19.48358662028107
 20
161.6142869959209
 30
0.0
 40
2.0
  1
101
  7
ROMANS
100
AcDbText
  0
LINE
  5
397
330
39
100
AcDbEntity
  8
0
  6
Continuous
 62
     7
100
AcDbLine
 10
-19.5
 20
152.5
 30
0.0
 11
-12.5
 21
152.5
 31
0.0
  0
LINE
  5
398
330
39
100
AcDbEntity
  8
0
  6
Continuous
 62
     7
100
AcDbLine
 10
-12.5
 20
147.5
 30
0.0
 11
-20.0
 21
147.5
 31
0.0
  0
LINE
  5
399
330
39
100
AcDbEntity
  8
0
  6
Continuous
 62
     7
100
AcDbLine
 10
-21.0
 20
147.5
 30
0.0
 11
-15.5
 21
147.5
 31
0.0
  0
LINE
  5
39A
330
39
100
AcDbEntity
  8
0
  6
Continuous
100
AcDbLine
 10
-20.5
 20
147.5
 30
0.0
 11
-28.5
 21
147.5
 31
0.0
  0
LINE
  5
39B
330
39
100
AcDbEntity
  8
BASE
  6
Continuous
100
AcDbLine
 10
-30.0
 20
147.5
 30
0.0
 11
-29.0
 21
148.5
 31
0.0
  0
LINE
  5
39C
330
39
100
AcDbEntity
  8
0
  6
Continuous
 62
     7
100
AcDbLine
 10
-7.5
 20
152.5
 30
0.0
 11
-13.5
 21
149.0
 31
0.0
  0
LINE
  5
39D
330
39
100
AcDbEntity
  8
0
  6
DASHED
 62
     7
100
AcDbLine
 10
-12.5
 20
147.5
 30
0.0
 11
-12.5
 21
150.5
 31
0.0
  0
LINE
  5
39E
330
39
100
AcDbEntity
  8
0
  6
DASHED
 62
     7
100
AcDbLine
 10
-13.83661427336011
 20
149.4730585806828
 30
0.0
 11
-13.16197839835797
 21
148.3721498564556
 31
0.0
  0
LINE
  5
39F
330
39
100
AcDbEntity
  8
0
  6
Continuous
100
AcDbLine
 10
-5.5
 20
152.5
 30
0.0
 11
-7.5
 21
152.5
 31
0.0
  0
TEXT
  5
3A0
330
39
100
AcDbEntity
  8
0
  6
Continuous
100
AcDbText
 10
11.0324524612817
 20
185.5547365563103
 30
0.0
 40
2.0
  1
L2
  7
GREEKS
100
AcDbText
  0
LINE
  5
3A1
330
39
100
AcDbEntity
  8
0
  6
DASHED
100
AcDbLine
 10
24.5
 20
176.5
 30
0.0
 11
24.5
 21
191.5
 31
0.0
  0
LINE
  5
3A2
330
39
100
AcDbEntity
  8
0
  6
DASHED
100
AcDbLine
 10
52.0
 20
169.0
 30
0.0
 11
52.0
 21
191.5
 31
0.0
  0
LINE
  5
3A3
330
39
100
AcDbEntity
  8
0
  6
DASHED
100
AcDbLine
 10
29.5
 20
186.5
 30
0.0
 11
29.5
 21
164.0
 31
0.0
  0
LINE
  5
3A4
330
39
100
AcDbEntity
  8
0
  6
DASHED
100
AcDbLine
 10
24.5
 20
164.0
 30
0.0
 11
24.5
 21
176.5
 31
0.0
  0
LINE
  5
3A5
330
39
100
AcDbEntity
  8
0
  6
DASHED
100
AcDbLine
 10
24.5
 20
152.5
 30
0.0
 11
3.5
 21
152.5
 31
0.0
  0
LINE
  5
3A6
330
39
100
AcDbEntity
  8
0
  6
Continuous
100
AcDbLine
 10
29.5
 20
156.4999999999999
 30
0.0
 11
27.0
 21
164.0
 31
0.0
  0
LINE
  5
3A7
330
39
100
AcDbEntity
  8
0
  6
Continuous
100
AcDbLine
 10
24.5
 20
156.4999999999999
 30
0.0
 11
22.0
 21
164.0
 31
0.0
  0
LINE
  5
3A8
330
39
100
AcDbEntity
  8
0
  6
DASHED
100
AcDbLine
 10
24.5
 20
147.5
 30
0.0
 11
19.5
 21
147.5
 31
0.0
  0
LINE
  5
3A9
330
39
100
AcDbEntity
  8
0
  6
DASHED
100
AcDbLine
 10
29.5
 20
150.5
 30
0.0
 11
29.5
 21
156.4999999999999
 31
0.0
  0
LINE
  5
3AA
330
39
100
AcDbEntity
  8
0
  6
DASHED
100
AcDbLine
 10
24.5
 20
150.5
 30
0.0
 11
24.5
 21
156.4999999999999
 31
0.0
  0
INSERT
  5
3AB
330
39
100
AcDbEntity
  8
0
  6
Continuous
100
AcDbBlockReference
  2
BLC27
 10
25.99115398123791
 20
150.1184330913903
 30
0.0
 50
180.0
  0
LINE
  5
3AC
330
39
100
AcDbEntity
  8
0
  6
Continuous
100
AcDbLine
 10
24.5
 20
164.0
 30
0.0
 11
24.0
 21
163.4999999999999
 31
0.0
  0
LINE
  5
3AD
330
39
100
AcDbEntity
  8
0
  6
Continuous
100
AcDbLine
 10
24.5
 20
164.0
 30
0.0
 11
25.0
 21
164.5
 31
0.0
  0
LINE
  5
3AE
330
39
100
AcDbEntity
  8
0
  6
Continuous
100
AcDbLine
 10
24.5
 20
164.0
 30
0.0
 11
25.0
 21
163.4999999999999
 31
0.0
  0
LINE
  5
3AF
330
39
100
AcDbEntity
  8
0
  6
Continuous
100
AcDbLine
 10
24.5
 20
164.0
 30
0.0
 11
24.0
 21
164.5
 31
0.0
  0
LINE
  5
3B0
330
39
100
AcDbEntity
  8
0
  6
Continuous
100
AcDbLine
 10
29.5
 20
164.0
 30
0.0
 11
29.0
 21
164.5
 31
0.0
  0
LINE
  5
3B1
330
39
100
AcDbEntity
  8
0
  6
Continuous
100
AcDbLine
 10
29.5
 20
164.0
 30
0.0
 11
29.0
 21
163.4999999999999
 31
0.0
  0
LINE
  5
3B2
330
39
100
AcDbEntity
  8
0
  6
Continuous
100
AcDbLine
 10
29.5
 20
164.0
 30
0.0
 11
30.0
 21
163.4999999999999
 31
0.0
  0
LINE
  5
3B3
330
39
100
AcDbEntity
  8
0
  6
Continuous
100
AcDbLine
 10
29.5
 20
164.0
 30
0.0
 11
30.0
 21
164.5
 31
0.0
  0
TEXT
  5
3B4
330
39
100
AcDbEntity
  8
0
  6
Continuous
100
AcDbText
 10
11.0324524612817
 20
180.4912048903936
 30
0.0
 40
2.0
  1
L3
  7
GREEKS
100
AcDbText
  0
LINE
  5
3B5
330
39
100
AcDbEntity
  8
0
  6
DASHED
100
AcDbLine
 10
29.5
 20
176.5
 30
0.0
 11
29.5
 21
184.0
 31
0.0
  0
LWPOLYLINE
  5
3B6
330
39
100
AcDbEntity
  8
0
  6
Continuous
100
AcDbPolyline
 90
        2
 70
     1
 43
0.5
 10
29.0
 20
186.5
 42
1.0
 10
30.0
 20
186.5
 42
1.0
  0
LINE
  5
3BA
330
39
100
AcDbEntity
  8
0
  6
DASHED
100
AcDbLine
 10
34.5
 20
181.4999999999999
 30
0.0
 11
34.5
 21
164.0
 31
0.0
  0
INSERT
  5
3BB
330
39
100
AcDbEntity
  8
0
  6
Continuous
100
AcDbBlockReference
  2
BLC27
 10
50.46593184822234
 20
166.5715494616068
 30
0.0
  0
INSERT
  5
3BC
330
39
100
AcDbEntity
  8
0
  6
Continuous
100
AcDbBlockReference
  2
BLC27
 10
57.96593184822234
 20
166.5715494616068
 30
0.0
  0
LINE
  5
3BD
330
39
100
AcDbEntity
  8
0
  6
Continuous
100
AcDbLine
 10
34.5
 20
156.4999999999999
 30
0.0
 11
32.0
 21
164.0
 31
0.0
  0
LINE
  5
3BE
330
39
100
AcDbEntity
  8
0
  6
DASHED
100
AcDbLine
 10
34.5
 20
150.5
 30
0.0
 11
34.5
 21
156.4999999999999
 31
0.0
  0
LINE
  5
3BF
330
39
100
AcDbEntity
  8
0
  6
Continuous
100
AcDbLine
 10
34.5
 20
164.0
 30
0.0
 11
35.0
 21
164.5
 31
0.0
  0
LINE
  5
3C0
330
39
100
AcDbEntity
  8
0
  6
Continuous
100
AcDbLine
 10
34.5
 20
164.0
 30
0.0
 11
35.0
 21
163.4999999999999
 31
0.0
  0
LINE
  5
3C1
330
39
100
AcDbEntity
  8
0
  6
Continuous
100
AcDbLine
 10
34.5
 20
164.0
 30
0.0
 11
34.0
 21
163.4999999999999
 31
0.0
  0
LINE
  5
3C2
330
39
100
AcDbEntity
  8
0
  6
Continuous
100
AcDbLine
 10
34.5
 20
164.0
 30
0.0
 11
34.0
 21
164.5
 31
0.0
  0
ARC
  5
3C3
330
39
100
AcDbEntity
  8
0
  6
Continuous
100
AcDbCircle
 10
57.86486158739683
 20
157.7960950148242
 30
0.0
 40
1.204308763687699
100
AcDbArc
 50
90.0
 51
265.7062371869478
  0
ARC
  5
3C4
330
39
100
AcDbEntity
  8
0
  6
Continuous
100
AcDbCircle
 10
50.36486158739683
 20
157.7960950148242
 30
0.0
 40
1.204308763687699
100
AcDbArc
 50
90.0
 51
265.7062371869478
  0
LINE
  5
3C5
330
39
100
AcDbEntity
  8
0
  6
Continuous
100
AcDbLine
 10
57.0
 20
151.5
 30
0.0
 11
52.0
 21
159.0
 31
0.0
  0
LINE
  5
3C6
330
39
100
AcDbEntity
  8
0
  6
Continuous
100
AcDbLine
 10
52.0
 20
154.1899802196795
 30
0.0
 11
52.0
 21
151.5
 31
0.0
  0
LINE
  5
3C7
330
39
100
AcDbEntity
  8
0
  6
Continuous
100
AcDbLine
 10
50.3587620726733
 20
156.5985465426162
 30
0.0
 11
51.008360390728
 21
156.5985465426162
 31
0.0
  0
LINE
  5
3C8
330
39
100
AcDbEntity
  8
0
  6
Continuous
100
AcDbLine
 10
50.35989811400487
 20
154.1899370591878
 30
0.0
 11
51.00949643205962
 21
154.1899370591878
 31
0.0
  0
ARC
  5
3C9
330
39
100
AcDbEntity
  8
0
  6
Continuous
100
AcDbCircle
 10
50.36486158739683
 20
155.3942377789285
 30
0.0
 40
1.204308763687699
100
AcDbArc
 50
90.0
 51
270.0
  0
LINE
  5
3CA
330
39
100
AcDbEntity
  8
0
  6
Continuous
100
AcDbLine
 10
51.00089733453882
 20
154.1899802196795
 30
0.0
 11
52.0
 21
154.1899802196795
 31
0.0
  0
LINE
  5
3CB
330
39
100
AcDbEntity
  8
0
  6
Continuous
100
AcDbLine
 10
51.00603094152131
 20
156.5985560313284
 30
0.0
 11
51.97816677321146
 21
156.5985560313284
 31
0.0
  0
LINE
  5
3CC
330
39
100
AcDbEntity
  8
0
  6
Continuous
100
AcDbLine
 10
59.5
 20
154.1899802196795
 30
0.0
 11
59.5
 21
151.5
 31
0.0
  0
LINE
  5
3CD
330
39
100
AcDbEntity
  8
0
  6
Continuous
100
AcDbLine
 10
59.5
 20
151.5
 30
0.0
 11
57.0
 21
151.5
 31
0.0
  0
LINE
  5
3CE
330
39
100
AcDbEntity
  8
0
  6
Continuous
100
AcDbLine
 10
57.8587620726733
 20
156.5985465426162
 30
0.0
 11
58.508360390728
 21
156.5985465426162
 31
0.0
  0
LINE
  5
3CF
330
39
100
AcDbEntity
  8
0
  6
Continuous
100
AcDbLine
 10
57.85989811400487
 20
154.1899370591878
 30
0.0
 11
58.50949643205962
 21
154.1899370591878
 31
0.0
  0
ARC
  5
3D0
330
39
100
AcDbEntity
  8
0
  6
Continuous
100
AcDbCircle
 10
57.86486158739683
 20
155.3942377789285
 30
0.0
 40
1.204308763687699
100
AcDbArc
 50
90.0
 51
270.0
  0
LINE
  5
3D1
330
39
100
AcDbEntity
  8
0
  6
Continuous
100
AcDbLine
 10
58.50089733453882
 20
154.1899802196795
 30
0.0
 11
59.5
 21
154.1899802196795
 31
0.0
  0
LINE
  5
3D2
330
39
100
AcDbEntity
  8
0
  6
Continuous
100
AcDbLine
 10
58.50603094152131
 20
156.5985560313284
 30
0.0
 11
59.47816677321146
 21
156.5985560313284
 31
0.0
  0
LINE
  5
3D3
330
39
100
AcDbEntity
  8
0
  6
Continuous
100
AcDbLine
 10
50.3587620726733
 20
158.9999931928302
 30
0.0
 11
51.00226087600453
 21
158.9999931928302
 31
0.0
  0
LINE
  5
3D4
330
39
100
AcDbEntity
  8
0
  6
Continuous
100
AcDbLine
 10
50.99612798904502
 20
158.9999959297373
 30
0.0
 11
51.97393561789983
 21
158.9999959297373
 31
0.0
  0
LINE
  5
3D5
330
39
100
AcDbEntity
  8
0
  6
Continuous
100
AcDbLine
 10
57.8587620726733
 20
158.9999931928302
 30
0.0
 11
58.50226087600453
 21
158.9999931928302
 31
0.0
  0
LINE
  5
3D6
330
39
100
AcDbEntity
  8
0
  6
Continuous
100
AcDbLine
 10
58.49612798904502
 20
158.9999959297373
 30
0.0
 11
59.47393561789983
 21
158.9999959297373
 31
0.0
  0
LWPOLYLINE
  5
3D7
330
39
100
AcDbEntity
  8
0
  6
Continuous
100
AcDbPolyline
 90
        2
 70
     1
 43
0.5
 10
34.0
 20
181.4999999999999
 42
1.0
 10
35.0
 20
181.4999999999999
 42
1.0
  0
LINE
  5
3DB
330
39
100
AcDbEntity
  8
0
  6
DASHED
100
AcDbLine
 10
59.5
 20
169.0
 30
0.0
 11
59.5
 21
186.5
 31
0.0
  0
LWPOLYLINE
  5
3DC
330
39
100
AcDbEntity
  8
0
  6
Continuous
100
AcDbPolyline
 90
        2
 70
     1
 43
0.5
 10
59.0
 20
186.5
 42
1.0
 10
60.0
 20
186.5
 42
1.0
  0
TEXT
  5
3E0
330
39
100
AcDbEntity
  8
0
  6
Continuous
100
AcDbText
 10
11.0324524612817
 20
190.4750033921404
 30
0.0
 40
2.0
  1
L1
  7
GREEKS
100
AcDbText
  0
LWPOLYLINE
  5
3E1
330
39
100
AcDbEntity
  8
0
  6
Continuous
100
AcDbPolyline
 90
        2
 70
     1
 43
0.5
 10
24.0
 20
191.5
 42
1.0
 10
25.0
 20
191.5
 42
1.0
  0
LWPOLYLINE
  5
3E5
330
39
100
AcDbEntity
  8
0
  6
Continuous
100
AcDbPolyline
 90
        2
 70
     1
 43
0.5
 10
51.5
 20
191.5
 42
1.0
 10
52.5
 20
191.5
 42
1.0
  0
LINE
  5
3E9
330
39
100
AcDbEntity
  8
0
  6
DASHED
100
AcDbLine
 10
77.0
 20
139.0
 30
0.0
 11
77.0
 21
159.0
 31
0.0
  0
TEXT
  5
3EA
330
39
100
AcDbEntity
  8
0
  6
DASHED
100
AcDbText
 10
72.0
 20
89.45824582992187
 30
0.0
 40
2.0
  1
L3(T)
  7
GREEKS
100
AcDbText
  0
TEXT
  5
3EB
330
39
100
AcDbEntity
  8
0
  6
DASHED
100
AcDbText
 10
72.0
 20
94.51075712429348
 30
0.0
 40
2.0
  1
L2(S)
  7
GREEKS
100
AcDbText
  0
TEXT
  5
3EC
330
39
100
AcDbEntity
  8
0
  6
DASHED
100
AcDbText
 10
72.0
 20
99.51918693248458
 30
0.0
 40
2.0
  1
L1(R)
  7
GREEKS
100
AcDbText
  0
INSERT
  5
3ED
330
39
100
AcDbEntity
  8
0
  6
Continuous
100
AcDbBlockReference
  2
BLC27
 10
65.46593184822234
 20
166.5715494616068
 30
0.0
  0
LWPOLYLINE
  5
3EE
330
39
100
AcDbEntity
  8
0
  6
Continuous
100
AcDbPolyline
 90
        2
 70
     1
 43
0.5
 10
76.5
 20
159.0
 42
1.0
 10
77.5
 20
159.0
 42
1.0
  0
LINE
  5
3F2
330
39
100
AcDbEntity
  8
0
  6
DASHED
100
AcDbLine
 10
72.0
 20
159.0
 30
0.0
 11
81.34681975791608
 21
159.0
 31
0.0
  0
LINE
  5
3F3
330
39
100
AcDbEntity
  8
0
  6
DASHED
100
AcDbLine
 10
72.0
 20
164.1899802196786
 30
0.0
 11
81.16336179785372
 21
164.1899802196786
 31
0.0
  0
ARC
  5
3F4
330
39
100
AcDbEntity
  8
0
  6
Continuous
100
AcDbCircle
 10
65.36486158739683
 20
157.7960950148242
 30
0.0
 40
1.204308763687699
100
AcDbArc
 50
90.0
 51
265.7062371869478
  0
LINE
  5
3F5
330
39
100
AcDbEntity
  8
0
  6
Continuous
100
AcDbLine
 10
67.0
 20
154.1899802196795
 30
0.0
 11
67.0
 21
151.5
 31
0.0
  0
LINE
  5
3F6
330
39
100
AcDbEntity
  8
0
  6
Continuous
100
AcDbLine
 10
67.0
 20
151.5
 30
0.0
 11
64.5
 21
151.5
 31
0.0
  0
LINE
  5
3F7
330
39
100
AcDbEntity
  8
0
  6
Continuous
100
AcDbLine
 10
65.3587620726733
 20
156.5985465426162
 30
0.0
 11
66.008360390728
 21
156.5985465426162
 31
0.0
  0
LINE
  5
3F8
330
39
100
AcDbEntity
  8
0
  6
Continuous
100
AcDbLine
 10
65.35989811400487
 20
154.1899370591878
 30
0.0
 11
66.00949643205962
 21
154.1899370591878
 31
0.0
  0
ARC
  5
3F9
330
39
100
AcDbEntity
  8
0
  6
Continuous
100
AcDbCircle
 10
65.36486158739683
 20
155.3942377789285
 30
0.0
 40
1.204308763687699
100
AcDbArc
 50
90.0
 51
270.0
  0
LINE
  5
3FA
330
39
100
AcDbEntity
  8
0
  6
Continuous
100
AcDbLine
 10
66.00089733453882
 20
154.1899802196795
 30
0.0
 11
67.0
 21
154.1899802196795
 31
0.0
  0
LINE
  5
3FB
330
39
100
AcDbEntity
  8
0
  6
Continuous
100
AcDbLine
 10
66.00603094152131
 20
156.5985560313284
 30
0.0
 11
66.97816677321146
 21
156.5985560313284
 31
0.0
  0
LINE
  5
3FC
330
39
100
AcDbEntity
  8
0
  6
Continuous
100
AcDbLine
 10
67.0
 20
159.0
 30
0.0
 11
72.0
 21
159.0
 31
0.0
  0
LINE
  5
3FD
330
39
100
AcDbEntity
  8
0
  6
Continuous
100
AcDbLine
 10
65.3587620726733
 20
158.9999931928302
 30
0.0
 11
66.00226087600453
 21
158.9999931928302
 31
0.0
  0
LINE
  5
3FE
330
39
100
AcDbEntity
  8
0
  6
Continuous
100
AcDbLine
 10
65.99612798904502
 20
158.9999959297373
 30
0.0
 11
66.97393561789983
 21
158.9999959297373
 31
0.0
  0
LINE
  5
3FF
330
39
100
AcDbEntity
  8
0
  6
DASHED
100
AcDbLine
 10
67.0
 20
169.0
 30
0.0
 11
67.0
 21
181.4999999999999
 31
0.0
  0
LWPOLYLINE
  5
400
330
39
100
AcDbEntity
  8
0
  6
Continuous
100
AcDbPolyline
 90
        2
 70
     1
 43
0.5
 10
66.5
 20
181.4999999999999
 42
1.0
 10
67.5
 20
181.4999999999999
 42
1.0
  0
LINE
  5
404
330
39
100
AcDbEntity
  8
0
  6
DASHED
100
AcDbLine
 10
81.5
 20
23.0
 30
0.0
 11
104.4999999999999
 21
23.0
 31
0.0
  0
LINE
  5
405
330
39
100
AcDbEntity
  8
0
  6
DASHED
100
AcDbLine
 10
-6.0
 20
28.0
 30
0.0
 11
97.0
 21
28.0
 31
0.0
  0
LINE
  5
406
330
39
100
AcDbEntity
  8
0
  6
DASHED
100
AcDbLine
 10
-6.0
 20
46.0
 30
0.0
 11
89.50000000000001
 21
46.0
 31
0.0
  0
ARC
  5
407
330
39
100
AcDbEntity
  8
0
  6
Continuous
100
AcDbCircle
 10
87.86486158739682
 20
64.39423777892859
 30
0.0
 40
1.204308763687699
100
AcDbArc
 50
90.0
 51
270.0
  0
ARC
  5
408
330
39
100
AcDbEntity
  8
0
  6
Continuous
100
AcDbCircle
 10
95.36486158739682
 20
64.39423777892859
 30
0.0
 40
1.204308763687699
100
AcDbArc
 50
90.0
 51
270.0
  0
ARC
  5
409
330
39
100
AcDbEntity
  8
0
  6
Continuous
100
AcDbCircle
 10
102.8648615873968
 20
64.39423777892859
 30
0.0
 40
1.204308763687699
100
AcDbArc
 50
90.0
 51
270.0
  0
LINE
  5
40A
330
39
100
AcDbEntity
  8
0
  6
Continuous
100
AcDbLine
 10
88.50089733453883
 20
63.18998021967951
 30
0.0
 11
89.50000000000001
 21
63.18998021967951
 31
0.0
  0
LINE
  5
40B
330
39
100
AcDbEntity
  8
0
  6
Continuous
100
AcDbLine
 10
87.85989811400487
 20
63.18993705918789
 30
0.0
 11
88.50949643205963
 21
63.18993705918789
 31
0.0
  0
LINE
  5
40C
330
39
100
AcDbEntity
  8
0
  6
Continuous
100
AcDbLine
 10
89.50000000000001
 20
63.18998021967951
 30
0.0
 11
89.50000000000001
 21
60.5
 31
0.0
  0
LINE
  5
40D
330
39
100
AcDbEntity
  8
0
  6
Continuous
100
AcDbLine
 10
96.00089733453883
 20
63.18998021967951
 30
0.0
 11
97.0
 21
63.18998021967951
 31
0.0
  0
LINE
  5
40E
330
39
100
AcDbEntity
  8
0
  6
Continuous
100
AcDbLine
 10
95.35989811400487
 20
63.18993705918789
 30
0.0
 11
96.00949643205963
 21
63.18993705918789
 31
0.0
  0
LINE
  5
40F
330
39
100
AcDbEntity
  8
0
  6
Continuous
100
AcDbLine
 10
97.0
 20
63.18998021967951
 30
0.0
 11
97.0
 21
60.5
 31
0.0
  0
LINE
  5
410
330
39
100
AcDbEntity
  8
0
  6
Continuous
100
AcDbLine
 10
103.5008973345388
 20
63.18998021967951
 30
0.0
 11
104.4999999999999
 21
63.18998021967951
 31
0.0
  0
LINE
  5
411
330
39
100
AcDbEntity
  8
0
  6
Continuous
100
AcDbLine
 10
102.8598981140048
 20
63.18993705918789
 30
0.0
 11
103.5094964320596
 21
63.18993705918789
 31
0.0
  0
LINE
  5
412
330
39
100
AcDbEntity
  8
0
  6
Continuous
100
AcDbLine
 10
104.4999999999999
 20
63.18998021967951
 30
0.0
 11
104.4999999999999
 21
60.5
 31
0.0
  0
LINE
  5
413
330
39
100
AcDbEntity
  8
0
  6
DASHED
100
AcDbLine
 10
82.0
 20
90.5
 30
0.0
 11
117.0
 21
90.5
 31
0.0
  0
LINE
  5
414
330
39
100
AcDbEntity
  8
0
  6
DASHED
100
AcDbLine
 10
82.0
 20
95.5
 30
0.0
 11
117.0
 21
95.5
 31
0.0
  0
LINE
  5
415
330
39
100
AcDbEntity
  8
0
  6
DASHED
100
AcDbLine
 10
82.0
 20
100.5
 30
0.0
 11
117.0
 21
100.5
 31
0.0
  0
LINE
  5
416
330
39
100
AcDbEntity
  8
0
  6
Continuous
100
AcDbLine
 10
89.50000000000001
 20
68.0
 30
0.0
 11
109.4999999999999
 21
68.0
 31
0.0
  0
LINE
  5
417
330
39
100
AcDbEntity
  8
0
  6
Continuous
100
AcDbLine
 10
89.50000000000001
 20
73.1899802196788
 30
0.0
 11
109.4999999999999
 21
73.1899802196788
 31
0.0
  0
LINE
  5
418
330
39
100
AcDbEntity
  8
0
  6
DASHED
100
AcDbLine
 10
89.50000000000001
 20
78.0
 30
0.0
 11
89.50000000000001
 21
100.5
 31
0.0
  0
INSERT
  5
419
330
39
100
AcDbEntity
  8
0
  6
Continuous
100
AcDbBlockReference
  2
BLC27
 10
87.96593184822233
 20
75.57154946160685
 30
0.0
  0
LINE
  5
41A
330
39
100
AcDbEntity
  8
0
  6
Continuous
100
AcDbLine
 10
88.50603094152132
 20
65.59855603132845
 30
0.0
 11
89.47816677321146
 21
65.59855603132845
 31
0.0
  0
LINE
  5
41B
330
39
100
AcDbEntity
  8
0
  6
Continuous
100
AcDbLine
 10
88.49612798904502
 20
67.9999959297374
 30
0.0
 11
89.47393561789983
 21
67.9999959297374
 31
0.0
  0
LINE
  5
41C
330
39
100
AcDbEntity
  8
0
  6
Continuous
100
AcDbLine
 10
87.8587620726733
 20
67.99999319283029
 30
0.0
 11
88.50226087600452
 21
67.99999319283029
 31
0.0
  0
LINE
  5
41D
330
39
100
AcDbEntity
  8
0
  6
Continuous
100
AcDbLine
 10
87.8587620726733
 20
65.59854654261627
 30
0.0
 11
88.50836039072801
 21
65.59854654261627
 31
0.0
  0
ARC
  5
41E
330
39
100
AcDbEntity
  8
0
  6
Continuous
100
AcDbCircle
 10
87.86486158739682
 20
66.79609501482426
 30
0.0
 40
1.204308763687699
100
AcDbArc
 50
90.0
 51
265.7062371869478
  0
LWPOLYLINE
  5
41F
330
39
100
AcDbEntity
  8
0
  6
Continuous
100
AcDbPolyline
 90
        2
 70
     1
 43
0.5
 10
89.0
 20
100.5
 42
1.0
 10
90.0
 20
100.5
 42
1.0
  0
LINE
  5
423
330
39
100
AcDbEntity
  8
0
  6
DASHED
100
AcDbLine
 10
97.0
 20
78.0
 30
0.0
 11
97.0
 21
95.5
 31
0.0
  0
LINE
  5
424
330
39
100
AcDbEntity
  8
0
  6
DASHED
100
AcDbLine
 10
104.4999999999999
 20
78.0
 30
0.0
 11
104.4999999999999
 21
90.5
 31
0.0
  0
INSERT
  5
425
330
39
100
AcDbEntity
  8
0
  6
Continuous
100
AcDbBlockReference
  2
BLC27
 10
95.46593184822233
 20
75.57154946160685
 30
0.0
  0
INSERT
  5
426
330
39
100
AcDbEntity
  8
0
  6
Continuous
100
AcDbBlockReference
  2
BLC27
 10
102.9659318482223
 20
75.57154946160685
 30
0.0
  0
LINE
  5
427
330
39
100
AcDbEntity
  8
0
  6
Continuous
100
AcDbLine
 10
96.00603094152132
 20
65.59855603132845
 30
0.0
 11
96.97816677321146
 21
65.59855603132845
 31
0.0
  0
LINE
  5
428
330
39
100
AcDbEntity
  8
0
  6
Continuous
100
AcDbLine
 10
95.99612798904502
 20
67.9999959297374
 30
0.0
 11
96.97393561789983
 21
67.9999959297374
 31
0.0
  0
LINE
  5
429
330
39
100
AcDbEntity
  8
0
  6
Continuous
100
AcDbLine
 10
95.3587620726733
 20
67.99999319283029
 30
0.0
 11
96.00226087600454
 21
67.99999319283029
 31
0.0
  0
LINE
  5
42A
330
39
100
AcDbEntity
  8
0
  6
Continuous
100
AcDbLine
 10
95.3587620726733
 20
65.59854654261627
 30
0.0
 11
96.00836039072801
 21
65.59854654261627
 31
0.0
  0
ARC
  5
42B
330
39
100
AcDbEntity
  8
0
  6
Continuous
100
AcDbCircle
 10
95.36486158739682
 20
66.79609501482426
 30
0.0
 40
1.204308763687699
100
AcDbArc
 50
90.0
 51
265.7062371869478
  0
LINE
  5
42C
330
39
100
AcDbEntity
  8
0
  6
Continuous
100
AcDbLine
 10
103.5060309415213
 20
65.59855603132845
 30
0.0
 11
104.4781667732114
 21
65.59855603132845
 31
0.0
  0
LINE
  5
42D
330
39
100
AcDbEntity
  8
0
  6
Continuous
100
AcDbLine
 10
103.496127989045
 20
67.9999959297374
 30
0.0
 11
104.4739356178998
 21
67.9999959297374
 31
0.0
  0
LINE
  5
42E
330
39
100
AcDbEntity
  8
0
  6
Continuous
100
AcDbLine
 10
102.8587620726733
 20
67.99999319283029
 30
0.0
 11
103.5022608760045
 21
67.99999319283029
 31
0.0
  0
LINE
  5
42F
330
39
100
AcDbEntity
  8
0
  6
Continuous
100
AcDbLine
 10
102.8587620726733
 20
65.59854654261627
 30
0.0
 11
103.5083603907279
 21
65.59854654261627
 31
0.0
  0
ARC
  5
430
330
39
100
AcDbEntity
  8
0
  6
Continuous
100
AcDbCircle
 10
102.8648615873968
 20
66.79609501482426
 30
0.0
 40
1.204308763687699
100
AcDbArc
 50
90.0
 51
265.7062371869478
  0
INSERT
  5
431
330
39
100
AcDbEntity
  8
0
  6
Continuous
100
AcDbBlockReference
  2
BLC15
 10
122.0
 20
73.04789585205759
 30
0.0
 50
90.0
  0
LINE
  5
432
330
39
100
AcDbEntity
  8
0
  6
DASHED
100
AcDbLine
 10
109.4999999999999
 20
73.1899802196786
 30
0.0
 11
118.6633617978537
 21
73.1899802196786
 31
0.0
  0
LINE
  5
433
330
39
100
AcDbEntity
  8
0
  6
DASHED
100
AcDbLine
 10
109.4999999999999
 20
68.0
 30
0.0
 11
118.846819757916
 21
68.0
 31
0.0
  0
INSERT
  5
434
330
39
100
AcDbEntity
  8
0
  6
Continuous
100
AcDbBlockReference
  2
BLC15
 10
122.0
 20
67.85791563237797
 30
0.0
 50
90.0
  0
LWPOLYLINE
  5
435
330
39
100
AcDbEntity
  8
0
  6
Continuous
100
AcDbPolyline
 90
        2
 70
     1
 43
0.5
 10
96.5
 20
95.5
 42
1.0
 10
97.5
 20
95.5
 42
1.0
  0
LWPOLYLINE
  5
439
330
39
100
AcDbEntity
  8
0
  6
Continuous
100
AcDbPolyline
 90
        2
 70
     1
 43
0.5
 10
104.0
 20
90.5
 42
1.0
 10
105.0
 20
90.5
 42
1.0
  0
LINE
  5
43D
330
39
100
AcDbEntity
  8
0
  6
DASHED
100
AcDbLine
 10
104.4999999999999
 20
60.5
 30
0.0
 11
104.4999999999999
 21
28.0
 31
0.0
  0
LINE
  5
43E
330
39
100
AcDbEntity
  8
0
  6
DASHED
100
AcDbLine
 10
97.0
 20
60.5
 30
0.0
 11
97.0
 21
35.5
 31
0.0
  0
LINE
  5
43F
330
39
100
AcDbEntity
  8
0
  6
DASHED
100
AcDbLine
 10
89.50000000000001
 20
46.0
 30
0.0
 11
89.50000000000001
 21
60.5
 31
0.0
  0
LINE
  5
440
330
39
100
AcDbEntity
  8
0
  6
DASHED
100
AcDbLine
 10
104.4999999999999
 20
23.0
 30
0.0
 11
104.4999999999999
 21
27.0
 31
0.0
  0
LINE
  5
441
330
39
100
AcDbEntity
  8
0
  6
DASHED
100
AcDbLine
 10
97.0
 20
28.0
 30
0.0
 11
97.0
 21
38.0
 31
0.0
  0
INSERT
  5
442
330
39
100
AcDbEntity
  8
0
  6
Continuous
100
AcDbBlockReference
  2
BLC15
 10
84.50000000000001
 20
158.8579156323779
 30
0.0
 50
90.0
  0
INSERT
  5
443
330
39
100
AcDbEntity
  8
0
  6
Continuous
100
AcDbBlockReference
  2
BLC15
 10
84.50000000000001
 20
164.0478958520575
 30
0.0
 50
90.0
  0
ENDBLK
  5
444
330
39
100
AcDbEntity
  8
0
100
AcDbBlockEnd
  0
BLOCK
  5
445
330
3A
100
AcDbEntity
  8
0
100
AcDbBlockBegin
  2
16
 70
     0
 10
0.0
 20
0.0
 30
0.0
  3
16
  1

  0
TEXT
  5
446
330
3A
100
AcDbEntity
  8
0
  6
Continuous
100
AcDbText
 10
-9.983586620281073
 20
62.1142869959209
 30
0.0
 40
2.0
  1
101:2A
  7
ROMANS
100
AcDbText
  0
TEXT
  5
447
330
3A
100
AcDbEntity
  8
0
  6
Continuous
100
AcDbText
 10
-36.5
 20
64.03437379744457
 30
0.0
 40
2.0
  1
3)
  7
ROMANS
100
AcDbText
  0
TEXT
  5
448
330
3A
100
AcDbEntity
  8
0
  6
Continuous
100
AcDbText
 10
-36.5
 20
33.73811804161633
 30
0.0
 40
2.0
  1
4b)
  7
ROMANS
100
AcDbText
  0
TEXT
  5
449
330
3A
100
AcDbEntity
  8
0
  6
Continuous
100
AcDbText
 10
-36.5
 20
51.32987828869366
 30
0.0
 40
2.0
  1
4a)
  7
ROMANS
100
AcDbText
  0
TEXT
  5
44A
330
3A
100
AcDbEntity
  8
0
  6
Continuous
100
AcDbText
 10
-36.5
 20
11.80065248656484
 30
0.0
 40
2.0
  1
4c)
  7
ROMANS
100
AcDbText
  0
TEXT
  5
44B
330
3A
100
AcDbEntity
  8
0
  6
Continuous
100
AcDbText
 10
-19.48358662028107
 20
21.6142869959209
 30
0.0
 40
2.0
  1
108:X2:6
  7
ROMANS
100
AcDbText
  0
LINE
  5
44C
330
3A
100
AcDbEntity
  8
0
  6
Continuous
100
AcDbLine
 10
-31.5
 20
25.0
 30
0.0
 11
-31.5
 21
-0.0003446355935353
 31
0.0
  0
LINE
  5
44D
330
3A
100
AcDbEntity
  8
0
  6
Continuous
100
AcDbLine
 10
-7.5
 20
15.0
 30
0.0
 11
-7.5
 21
0.0
 31
0.0
  0
LINE
  5
44E
330
3A
100
AcDbEntity
  8
0
  6
Continuous
100
AcDbLine
 10
-14.99221017245577
 20
1.502432298393074
 30
0.0
 11
-14.99221017245577
 21
2.502432298393074
 31
0.0
  0
TEXT
  5
44F
330
3A
100
AcDbEntity
  8
0
  6
Continuous
100
AcDbText
 10
-19.48358662028107
 20
-3.385713004079093
 30
0.0
 40
2.0
  1
101:5A
  7
ROMANS
100
AcDbText
  0
LINE
  5
450
330
3A
100
AcDbEntity
  8
0
  6
Continuous
100
AcDbLine
 10
-16.20361337946573
 20
1.770047413711452
 30
0.0
 11
-16.3816173529767
 21
1.098688386955799
 31
0.0
  0
LINE
  5
451
330
3A
100
AcDbEntity
  8
0
  6
Continuous
100
AcDbLine
 10
-15.0
 20
0.0
 30
0.0
 11
-20.5
 21
0.0
 31
0.0
  0
LINE
  5
452
330
3A
100
AcDbEntity
  8
0
  6
DASHED
100
AcDbLine
 10
-20.5
 20
0.0
 30
0.0
 11
-25.0
 21
0.0
 31
0.0
  0
INSERT
  5
453
330
3A
100
AcDbEntity
  8
0
  6
DASHED
100
AcDbBlockReference
  2
BLC43
 10
-27.5
 20
0.0
 30
0.0
  0
LINE
  5
454
330
3A
100
AcDbEntity
  8
0
  6
Continuous
100
AcDbLine
 10
-31.5
 20
-0.0003446355935353
 30
0.0
 11
-30.5
 21
-1.000344635593535
 31
0.0
  0
LINE
  5
455
330
3A
100
AcDbEntity
  8
0
  6
DASHED
100
AcDbLine
 10
-7.5
 20
0.0
 30
0.0
 11
-9.5
 21
0.0
 31
0.0
  0
LINE
  5
456
330
3A
100
AcDbEntity
  8
0
  6
Continuous
 62
     7
100
AcDbLine
 10
-9.481222462973153
 20
0.0009061210629966
 30
0.0
 11
-16.19873688424535
 21
1.768673074029379
 31
0.0
  0
LINE
  5
457
330
3A
100
AcDbEntity
  8
0
  6
Continuous
 62
     7
100
AcDbLine
 10
-14.99221017245577
 20
0.0024322983930745
 30
0.0
 11
-14.99221017245577
 21
2.002432298393074
 31
0.0
  0
LINE
  5
458
330
3A
100
AcDbEntity
  8
0
  6
Continuous
100
AcDbLine
 10
-2.5
 20
0.0
 30
0.0
 11
-7.0
 21
0.0
 31
0.0
  0
LWPOLYLINE
  5
459
330
3A
100
AcDbEntity
  8
0
  6
Continuous
100
AcDbPolyline
 90
        2
 70
     1
 43
0.5
 10
-8.0
 20
0.0
 42
1.0
 10
-7.0
 20
0.0
 42
1.0
  0
LINE
  5
45D
330
3A
100
AcDbEntity
  8
0
  6
Continuous
100
AcDbLine
 10
-2.5
 20
5.0
 30
0.0
 11
-20.5
 21
5.0
 31
0.0
  0
LINE
  5
45E
330
3A
100
AcDbEntity
  8
0
  6
Continuous
100
AcDbLine
 10
-3.0
 20
10.0
 30
0.0
 11
-20.5
 21
10.0
 31
0.0
  0
LINE
  5
45F
330
3A
100
AcDbEntity
  8
0
  6
Continuous
100
AcDbLine
 10
-3.0
 20
20.0
 30
0.0
 11
-20.5
 21
20.0
 31
0.0
  0
LINE
  5
460
330
3A
100
AcDbEntity
  8
0
  6
DASHED
100
AcDbLine
 10
-20.5
 20
10.0
 30
0.0
 11
-25.0
 21
10.0
 31
0.0
  0
LINE
  5
461
330
3A
100
AcDbEntity
  8
0
  6
Continuous
100
AcDbLine
 10
-3.0
 20
15.0
 30
0.0
 11
-7.5
 21
15.0
 31
0.0
  0
LINE
  5
462
330
3A
100
AcDbEntity
  8
0
  6
Continuous
100
AcDbLine
 10
-8.0
 20
50.0
 30
0.0
 11
-0.5
 21
50.0
 31
0.0
  0
LINE
  5
463
330
3A
100
AcDbEntity
  8
0
  6
Continuous
100
AcDbLine
 10
-8.0
 20
60.0
 30
0.0
 11
-0.5
 21
60.0
 31
0.0
  0
TEXT
  5
464
330
3A
100
AcDbEntity
  8
0
  6
Continuous
100
AcDbText
 10
-19.48358662028107
 20
37.1142869959209
 30
0.0
 40
2.0
  1
108:X2:3
  7
ROMANS
100
AcDbText
  0
LINE
  5
465
330
3A
100
AcDbEntity
  8
0
  6
Continuous
100
AcDbLine
 10
-3.0
 20
25.0
 30
0.0
 11
-20.5
 21
25.0
 31
0.0
  0
LINE
  5
466
330
3A
100
AcDbEntity
  8
0
  6
Continuous
100
AcDbLine
 10
-15.0
 20
30.0
 30
0.0
 11
-20.5
 21
30.0
 31
0.0
  0
LINE
  5
467
330
3A
100
AcDbEntity
  8
0
  6
Continuous
100
AcDbLine
 10
-3.5
 20
35.0
 30
0.0
 11
-20.5
 21
35.0
 31
0.0
  0
LINE
  5
468
330
3A
100
AcDbEntity
  8
0
  6
Continuous
100
AcDbLine
 10
-3.5
 20
40.0
 30
0.0
 11
-20.5
 21
40.0
 31
0.0
  0
TEXT
  5
469
330
3A
100
AcDbEntity
  8
0
  6
Continuous
100
AcDbText
 10
-19.48358662028107
 20
26.6142869959209
 30
0.0
 40
2.0
  1
101:6A
  7
ROMANS
100
AcDbText
  0
LINE
  5
46A
330
3A
100
AcDbEntity
  8
0
  6
Continuous
100
AcDbLine
 10
-31.5
 20
40.0
 30
0.0
 11
-31.5
 21
29.99965536440646
 31
0.0
  0
LINE
  5
46B
330
3A
100
AcDbEntity
  8
0
  6
DASHED
100
AcDbLine
 10
-20.5
 20
25.0
 30
0.0
 11
-25.0
 21
25.0
 31
0.0
  0
LINE
  5
46C
330
3A
100
AcDbEntity
  8
0
  6
DASHED
100
AcDbLine
 10
-20.5
 20
30.0
 30
0.0
 11
-25.0
 21
30.0
 31
0.0
  0
LINE
  5
46D
330
3A
100
AcDbEntity
  8
0
  6
Continuous
100
AcDbLine
 10
-31.5
 20
25.0
 30
0.0
 11
-30.5
 21
26.0
 31
0.0
  0
INSERT
  5
46E
330
3A
100
AcDbEntity
  8
0
  6
DASHED
100
AcDbBlockReference
  2
BLC43
 10
-27.5
 20
30.0
 30
0.0
  0
LINE
  5
46F
330
3A
100
AcDbEntity
  8
0
  6
Continuous
100
AcDbLine
 10
-31.5
 20
29.99965536440646
 30
0.0
 11
-30.5
 21
28.99965536440646
 31
0.0
  0
LINE
  5
470
330
3A
100
AcDbEntity
  8
0
  6
DASHED
100
AcDbLine
 10
-20.5
 20
40.0
 30
0.0
 11
-25.0
 21
40.0
 31
0.0
  0
LINE
  5
471
330
3A
100
AcDbEntity
  8
0
  6
Continuous
100
AcDbLine
 10
-31.5
 20
40.0
 30
0.0
 11
-30.5
 21
41.0
 31
0.0
  0
LINE
  5
472
330
3A
100
AcDbEntity
  8
0
  6
Continuous
100
AcDbLine
 10
-3.0
 20
30.0
 30
0.0
 11
-9.0
 21
30.0
 31
0.0
  0
LINE
  5
473
330
3A
100
AcDbEntity
  8
0
  6
DASHED
100
AcDbLine
 10
-7.5
 20
30.0
 30
0.0
 11
-9.5
 21
30.0
 31
0.0
  0
LINE
  5
474
330
3A
100
AcDbEntity
  8
0
  6
Continuous
 62
     7
100
AcDbLine
 10
-9.481222462973153
 20
30.000906121063
 30
0.0
 11
-16.19873688424535
 21
31.76867307402938
 31
0.0
  0
LINE
  5
475
330
3A
100
AcDbEntity
  8
0
  6
Continuous
100
AcDbLine
 10
-14.99221017245577
 20
31.50243229839307
 30
0.0
 11
-14.99221017245577
 21
32.50243229839307
 31
0.0
  0
LINE
  5
476
330
3A
100
AcDbEntity
  8
0
  6
Continuous
 62
     7
100
AcDbLine
 10
-14.99221017245577
 20
30.00243229839307
 30
0.0
 11
-14.99221017245577
 21
32.00243229839307
 31
0.0
  0
LINE
  5
477
330
3A
100
AcDbEntity
  8
0
  6
Continuous
100
AcDbLine
 10
-2.5
 20
35.0
 30
0.0
 11
-4.0
 21
35.0
 31
0.0
  0
LINE
  5
478
330
3A
100
AcDbEntity
  8
0
  6
Continuous
100
AcDbLine
 10
-2.0
 20
40.0
 30
0.0
 11
-4.0
 21
40.0
 31
0.0
  0
TEXT
  5
479
330
3A
100
AcDbEntity
  8
0
  6
Continuous
100
AcDbText
 10
-19.48358662028107
 20
47.1142869959209
 30
0.0
 40
2.0
  1
101:3A
  7
ROMANS
100
AcDbText
  0
LINE
  5
47A
330
3A
100
AcDbEntity
  8
0
  6
Continuous
100
AcDbLine
 10
-15.0
 20
50.0
 30
0.0
 11
-20.5
 21
50.0
 31
0.0
  0
LINE
  5
47B
330
3A
100
AcDbEntity
  8
0
  6
Continuous
100
AcDbLine
 10
-3.0
 20
55.0
 30
0.0
 11
-20.5
 21
55.0
 31
0.0
  0
LINE
  5
47C
330
3A
100
AcDbEntity
  8
0
  6
Continuous
 62
     7
100
AcDbLine
 10
-20.5
 20
60.0
 30
0.0
 11
-15.0
 21
60.0
 31
0.0
  0
TEXT
  5
47D
330
3A
100
AcDbEntity
  8
0
  6
Continuous
100
AcDbText
 10
-19.48358662028107
 20
56.6142869959209
 30
0.0
 40
2.0
  1
101:1A
  7
ROMANS
100
AcDbText
  0
LINE
  5
47E
330
3A
100
AcDbEntity
  8
0
  6
Continuous
100
AcDbLine
 10
-31.5
 20
55.0
 30
0.0
 11
-31.5
 21
50.0
 31
0.0
  0
LINE
  5
47F
330
3A
100
AcDbEntity
  8
0
  6
DASHED
100
AcDbLine
 10
-20.5
 20
50.0
 30
0.0
 11
-25.0
 21
50.0
 31
0.0
  0
INSERT
  5
480
330
3A
100
AcDbEntity
  8
0
  6
DASHED
100
AcDbBlockReference
  2
BLC43
 10
-27.5
 20
50.0
 30
0.0
  0
LINE
  5
481
330
3A
100
AcDbEntity
  8
0
  6
Continuous
100
AcDbLine
 10
-31.5
 20
49.99965536440647
 30
0.0
 11
-30.5
 21
48.99965536440646
 31
0.0
  0
LINE
  5
482
330
3A
100
AcDbEntity
  8
0
  6
DASHED
100
AcDbLine
 10
-20.5
 20
55.0
 30
0.0
 11
-25.0
 21
55.0
 31
0.0
  0
LINE
  5
483
330
3A
100
AcDbEntity
  8
0
  6
DASHED
100
AcDbLine
 10
-20.5
 20
60.0
 30
0.0
 11
-25.0
 21
60.0
 31
0.0
  0
LINE
  5
484
330
3A
100
AcDbEntity
  8
0
  6
Continuous
100
AcDbLine
 10
-31.5
 20
55.0
 30
0.0
 11
-30.5
 21
56.0
 31
0.0
  0
INSERT
  5
485
330
3A
100
AcDbEntity
  8
0
  6
DASHED
100
AcDbBlockReference
  2
BLC43
 10
-28.0
 20
60.0
 30
0.0
  0
LINE
  5
486
330
3A
100
AcDbEntity
  8
0
  6
DASHED
100
AcDbLine
 10
-7.5
 20
50.0
 30
0.0
 11
-9.5
 21
50.0
 31
0.0
  0
LINE
  5
487
330
3A
100
AcDbEntity
  8
0
  6
Continuous
 62
     7
100
AcDbLine
 10
-9.481222462973153
 20
50.000906121063
 30
0.0
 11
-16.19873688424535
 21
51.76867307402938
 31
0.0
  0
LINE
  5
488
330
3A
100
AcDbEntity
  8
0
  6
Continuous
 62
     7
100
AcDbLine
 10
-14.99221017245577
 20
50.00243229839307
 30
0.0
 11
-14.99221017245577
 21
52.00243229839307
 31
0.0
  0
LINE
  5
489
330
3A
100
AcDbEntity
  8
0
  6
Continuous
100
AcDbLine
 10
-14.99221017245577
 20
51.50243229839308
 30
0.0
 11
-14.99221017245577
 21
52.50243229839307
 31
0.0
  0
LINE
  5
48A
330
3A
100
AcDbEntity
  8
0
  6
DASHED
100
AcDbLine
 10
-7.5
 20
60.0
 30
0.0
 11
-9.5
 21
60.0
 31
0.0
  0
LINE
  5
48B
330
3A
100
AcDbEntity
  8
0
  6
Continuous
 62
     7
100
AcDbLine
 10
-9.481222462973153
 20
60.000906121063
 30
0.0
 11
-16.19873688424535
 21
61.76867307402938
 31
0.0
  0
LINE
  5
48C
330
3A
100
AcDbEntity
  8
0
  6
Continuous
 62
     7
100
AcDbLine
 10
-14.99221017245577
 20
60.00243229839307
 30
0.0
 11
-14.99221017245577
 21
62.00243229839307
 31
0.0
  0
LINE
  5
48D
330
3A
100
AcDbEntity
  8
0
  6
Continuous
100
AcDbLine
 10
-14.99221017245577
 20
61.50243229839308
 30
0.0
 11
-14.99221017245577
 21
62.50243229839307
 31
0.0
  0
LINE
  5
48E
330
3A
100
AcDbEntity
  8
0
  6
Continuous
 62
     7
100
AcDbLine
 10
-16.19873688424535
 20
61.76867307402938
 30
0.0
 11
-16.36085346000094
 21
60.97603269321012
 31
0.0
  0
TEXT
  5
48F
330
3A
100
AcDbEntity
  8
0
  6
Continuous
100
AcDbText
 10
-19.48358662028107
 20
145.6142869959209
 30
0.0
 40
2.0
  1
108:X2
  7
ROMANS
100
AcDbText
  0
TEXT
  5
490
330
3A
100
AcDbEntity
  8
0
  6
HIDDEN
100
AcDbText
 10
-36.54411204276368
 20
145.0273860109557
 30
0.0
 40
2.0
  1
2)
  7
ROMANS
100
AcDbText
  0
LINE
  5
491
330
3A
100
AcDbEntity
  8
0
  6
Continuous
100
AcDbLine
 10
-31.5
 20
152.5
 30
0.0
 11
-31.5
 21
139.9996553644064
 31
0.0
  0
LINE
  5
492
330
3A
100
AcDbEntity
  8
0
  6
Continuous
100
AcDbLine
 10
-8.0
 20
65.0
 30
0.0
 11
-0.5
 21
65.0
 31
0.0
  0
LINE
  5
493
330
3A
100
AcDbEntity
  8
0
  6
Continuous
100
AcDbLine
 10
-8.0
 20
77.5
 30
0.0
 11
-0.5
 21
77.5
 31
0.0
  0
LINE
  5
494
330
3A
100
AcDbEntity
  8
0
  6
Continuous
 62
     7
100
AcDbLine
 10
-20.5
 20
65.0
 30
0.0
 11
-15.0
 21
65.0
 31
0.0
  0
LINE
  5
495
330
3A
100
AcDbEntity
  8
0
  6
Continuous
 62
     7
100
AcDbLine
 10
-20.5
 20
77.5
 30
0.0
 11
-15.0
 21
77.5
 31
0.0
  0
TEXT
  5
496
330
3A
100
AcDbEntity
  8
0
  6
Continuous
100
AcDbText
 10
-19.48358662028107
 20
74.1142869959209
 30
0.0
 40
2.0
  1
101:12A
  7
ROMANS
100
AcDbText
  0
LINE
  5
497
330
3A
100
AcDbEntity
  8
0
  6
DASHED
100
AcDbLine
 10
-20.5
 20
65.0
 30
0.0
 11
-25.0
 21
65.0
 31
0.0
  0
LINE
  5
498
330
3A
100
AcDbEntity
  8
0
  6
DASHED
100
AcDbLine
 10
-20.5
 20
77.5
 30
0.0
 11
-25.0
 21
77.5
 31
0.0
  0
INSERT
  5
499
330
3A
100
AcDbEntity
  8
0
  6
DASHED
100
AcDbBlockReference
  2
BLC42
 10
-28.0
 20
77.5
 30
0.0
  0
LINE
  5
49A
330
3A
100
AcDbEntity
  8
0
  6
DASHED
100
AcDbLine
 10
-7.5
 20
65.0
 30
0.0
 11
-9.5
 21
65.0
 31
0.0
  0
LINE
  5
49B
330
3A
100
AcDbEntity
  8
0
  6
Continuous
 62
     7
100
AcDbLine
 10
-9.481222462973153
 20
65.000906121063
 30
0.0
 11
-16.19873688424535
 21
66.76867307402938
 31
0.0
  0
LINE
  5
49C
330
3A
100
AcDbEntity
  8
0
  6
Continuous
100
AcDbLine
 10
-14.99221017245577
 20
66.50243229839308
 30
0.0
 11
-14.99221017245577
 21
67.50243229839307
 31
0.0
  0
LINE
  5
49D
330
3A
100
AcDbEntity
  8
0
  6
Continuous
 62
     7
100
AcDbLine
 10
-14.99221017245577
 20
65.00243229839307
 30
0.0
 11
-14.99221017245577
 21
67.00243229839307
 31
0.0
  0
LINE
  5
49E
330
3A
100
AcDbEntity
  8
0
  6
DASHED
100
AcDbLine
 10
-7.5
 20
77.5
 30
0.0
 11
-9.5
 21
77.5
 31
0.0
  0
LINE
  5
49F
330
3A
100
AcDbEntity
  8
0
  6
Continuous
100
AcDbLine
 10
-14.99221017245577
 20
79.00243229839308
 30
0.0
 11
-14.99221017245577
 21
80.00243229839307
 31
0.0
  0
LINE
  5
4A0
330
3A
100
AcDbEntity
  8
0
  6
Continuous
 62
     7
100
AcDbLine
 10
-14.99221017245577
 20
77.50243229839307
 30
0.0
 11
-14.99221017245577
 21
79.50243229839307
 31
0.0
  0
LINE
  5
4A1
330
3A
100
AcDbEntity
  8
0
  6
Continuous
 62
     7
100
AcDbLine
 10
-16.19873688424535
 20
79.26867307402938
 30
0.0
 11
-16.36085346000094
 21
78.47603269321012
 31
0.0
  0
LINE
  5
4A2
330
3A
100
AcDbEntity
  8
0
  6
Continuous
 62
     7
100
AcDbLine
 10
-9.481222462973153
 20
77.500906121063
 30
0.0
 11
-16.19873688424535
 21
79.26867307402938
 31
0.0
  0
LINE
  5
4A3
330
3A
100
AcDbEntity
  8
0
  6
Continuous
100
AcDbLine
 10
-9.0
 20
140.0
 30
0.0
 11
-20.5
 21
140.0
 31
0.0
  0
LINE
  5
4A4
330
3A
100
AcDbEntity
  8
0
  6
Continuous
100
AcDbLine
 10
-9.0
 20
145.0
 30
0.0
 11
-20.5
 21
145.0
 31
0.0
  0
TEXT
  5
4A5
330
3A
100
AcDbEntity
  8
0
  6
Continuous
100
AcDbText
 10
-19.48358662028107
 20
142.1142869959209
 30
0.0
 40
2.0
  1
10
  7
ROMANS
100
AcDbText
  0
LINE
  5
4A6
330
3A
100
AcDbEntity
  8
0
  6
DASHED
100
AcDbLine
 10
-20.5
 20
140.0
 30
0.0
 11
-24.5
 21
140.0
 31
0.0
  0
LINE
  5
4A7
330
3A
100
AcDbEntity
  8
0
  6
DASHED
100
AcDbLine
 10
-20.5
 20
145.0
 30
0.0
 11
-24.5
 21
145.0
 31
0.0
  0
INSERT
  5
4A8
330
3A
100
AcDbEntity
  8
0
  6
DASHED
100
AcDbBlockReference
  2
BLC42
 10
-28.0
 20
140.0
 30
0.0
  0
LINE
  5
4A9
330
3A
100
AcDbEntity
  8
0
  6
Continuous
100
AcDbLine
 10
-31.5
 20
139.9996553644064
 30
0.0
 11
-30.5
 21
138.9996553644064
 31
0.0
  0
INSERT
  5
4AA
330
3A
100
AcDbEntity
  8
0
  6
DASHED
100
AcDbBlockReference
  2
BLC43
 10
-28.0
 20
145.0
 30
0.0
  0
TEXT
  5
4AB
330
3A
100
AcDbEntity
  8
0
  6
Continuous
100
AcDbText
 10
-19.48358662028107
 20
137.6142869959209
 30
0.0
 40
2.0
  1
11
  7
ROMANS
100
AcDbText
  0
LINE
  5
4AC
330
3A
100
AcDbEntity
  8
0
  6
Continuous
100
AcDbLine
 10
-2.5
 20
140.0
 30
0.0
 11
-9.0
 21
140.0
 31
0.0
  0
LINE
  5
4AD
330
3A
100
AcDbEntity
  8
0
  6
Continuous
100
AcDbLine
 10
-3.0
 20
145.0
 30
0.0
 11
-9.0
 21
145.0
 31
0.0
  0
TEXT
  5
4AE
330
3A
100
AcDbEntity
  8
0
  6
HIDDEN
100
AcDbText
 10
-36.54411204276368
 20
163.5273860109557
 30
0.0
 40
2.0
  1
1)
  7
ROMANS
100
AcDbText
  0
LINE
  5
4AF
330
3A
100
AcDbEntity
  8
0
  6
Continuous
100
AcDbLine
 10
-31.5
 20
167.0
 30
0.0
 11
-31.5
 21
162.0
 31
0.0
  0
INSERT
  5
4B0
330
3A
100
AcDbEntity
  8
0
  6
DASHED
100
AcDbBlockReference
  2
BLC43
 10
-28.0
 20
167.0
 30
0.0
  0
LINE
  5
4B1
330
3A
100
AcDbEntity
  8
0
  6
Continuous
100
AcDbLine
 10
-9.0
 20
162.0
 30
0.0
 11
-20.5
 21
162.0
 31
0.0
  0
TEXT
  5
4B2
330
3A
100
AcDbEntity
  8
0
  6
Continuous
100
AcDbText
 10
-19.48358662028107
 20
155.6142869959209
 30
0.0
 40
2.0
  1
101:4A
  7
ROMANS
100
AcDbText
  0
TEXT
  5
4B3
330
3A
100
AcDbEntity
  8
0
  6
Continuous
100
AcDbText
 10
-19.48358662028107
 20
164.1142869959208
 30
0.0
 40
2.0
  1
12
  7
ROMANS
100
AcDbText
  0
LINE
  5
4B4
330
3A
100
AcDbEntity
  8
0
  6
Continuous
 62
     7
100
AcDbLine
 10
-20.5
 20
152.5
 30
0.0
 11
-15.0
 21
152.5
 31
0.0
  0
LINE
  5
4B5
330
3A
100
AcDbEntity
  8
0
  6
DASHED
100
AcDbLine
 10
-20.5
 20
152.5
 30
0.0
 11
-24.5
 21
152.5
 31
0.0
  0
INSERT
  5
4B6
330
3A
100
AcDbEntity
  8
0
  6
DASHED
100
AcDbBlockReference
  2
BLC43
 10
-28.0
 20
152.5
 30
0.0
  0
LINE
  5
4B7
330
3A
100
AcDbEntity
  8
0
  6
Continuous
100
AcDbLine
 10
-31.5
 20
152.5
 30
0.0
 11
-30.5
 21
153.5
 31
0.0
  0
LINE
  5
4B8
330
3A
100
AcDbEntity
  8
0
  6
DASHED
100
AcDbLine
 10
-20.5
 20
162.0
 30
0.0
 11
-24.5
 21
162.0
 31
0.0
  0
LINE
  5
4B9
330
3A
100
AcDbEntity
  8
0
  6
Continuous
100
AcDbLine
 10
-31.5
 20
161.9996553644064
 30
0.0
 11
-30.5
 21
160.9996553644064
 31
0.0
  0
INSERT
  5
4BA
330
3A
100
AcDbEntity
  8
0
  6
DASHED
100
AcDbBlockReference
  2
BLC42
 10
-28.0
 20
162.0
 30
0.0
  0
TEXT
  5
4BB
330
3A
100
AcDbEntity
  8
0
  6
Continuous
100
AcDbText
 10
-19.48358662028107
 20
159.6142869959209
 30
0.0
 40
2.0
  1
11
  7
ROMANS
100
AcDbText
  0
LINE
  5
4BC
330
3A
100
AcDbEntity
  8
0
  6
Continuous
100
AcDbLine
 10
-3.0
 20
152.5
 30
0.0
 11
-9.5
 21
152.5
 31
0.0
  0
LINE
  5
4BD
330
3A
100
AcDbEntity
  8
0
  6
Continuous
 62
     7
100
AcDbLine
 10
-9.920828311704759
 20
152.5568842611268
 30
0.0
 11
-16.09619407771254
 21
154.1819805153394
 31
0.0
  0
LINE
  5
4BE
330
3A
100
AcDbEntity
  8
0
  6
Continuous
 62
     7
100
AcDbLine
 10
-16.09619407771254
 20
154.1819805153394
 30
0.0
 11
-16.25831065346813
 21
153.3893401345202
 31
0.0
  0
LINE
  5
4BF
330
3A
100
AcDbEntity
  8
0
  6
Continuous
 62
     7
100
AcDbLine
 10
-15.0
 20
152.5
 30
0.0
 11
-15.0
 21
154.4999999999999
 31
0.0
  0
LINE
  5
4C0
330
3A
100
AcDbEntity
  8
0
  6
Continuous
100
AcDbLine
 10
-15.0
 20
154.0
 30
0.0
 11
-15.0
 21
155.0
 31
0.0
  0
LINE
  5
4C1
330
3A
100
AcDbEntity
  8
0
  6
DASHED
100
AcDbLine
 10
-9.0
 20
152.5
 30
0.0
 11
-10.0
 21
152.5
 31
0.0
  0
LINE
  5
4C2
330
3A
100
AcDbEntity
  8
0
  6
Continuous
100
AcDbLine
 10
-9.0
 20
167.0
 30
0.0
 11
-20.5
 21
167.0
 31
0.0
  0
TEXT
  5
4C3
330
3A
100
AcDbEntity
  8
0
  6
Continuous
100
AcDbText
 10
-19.48358662028107
 20
167.6142869959209
 30
0.0
 40
2.0
  1
108:X1
  7
ROMANS
100
AcDbText
  0
LINE
  5
4C4
330
3A
100
AcDbEntity
  8
0
  6
DASHED
100
AcDbLine
 10
-20.5
 20
167.0
 30
0.0
 11
-24.5
 21
167.0
 31
0.0
  0
LINE
  5
4C5
330
3A
100
AcDbEntity
  8
0
  6
Continuous
100
AcDbLine
 10
-31.5
 20
167.0
 30
0.0
 11
-30.5
 21
168.0
 31
0.0
  0
TEXT
  5
4C6
330
3A
100
AcDbEntity
  8
0
  6
Continuous
100
AcDbText
 10
0.0164133797189265
 20
2.614286995920906
 30
0.0
 40
2.0
  1
7
  7
ROMANS
100
AcDbText
  0
TEXT
  5
4C7
330
3A
100
AcDbEntity
  8
0
  6
Continuous
100
AcDbText
 10
0.0164133797189265
 20
7.614286995920906
 30
0.0
 40
2.0
  1
9
  7
ROMANS
100
AcDbText
  0
TEXT
  5
4C8
330
3A
100
AcDbEntity
  8
0
  6
Continuous
100
AcDbText
 10
0.0164133797189265
 20
12.6142869959209
 30
0.0
 40
2.0
  1
5
  7
ROMANS
100
AcDbText
  0
TEXT
  5
4C9
330
3A
100
AcDbEntity
  8
0
  6
Continuous
100
AcDbText
 10
0.0164133797189265
 20
17.6142869959209
 30
0.0
 40
2.0
  1
4
  7
ROMANS
100
AcDbText
  0
TEXT
  5
4CA
330
3A
100
AcDbEntity
  8
0
  6
Continuous
100
AcDbText
 10
0.0164133797189265
 20
32.6142869959209
 30
0.0
 40
2.0
  1
1
  7
ROMANS
100
AcDbText
  0
ENDBLK
  5
4CB
330
3A
100
AcDbEntity
  8
0
100
AcDbBlockEnd
  0
BLOCK
  5
4CC
330
3B
100
AcDbEntity
  8
0
100
AcDbBlockBegin
  2
18
 70
     0
 10
0.0
 20
0.0
 30
0.0
  3
18
  1

  0
TEXT
  5
4CD
330
3B
100
AcDbEntity
  8
0
  6
Continuous
100
AcDbText
 10
-12.13906621222696
 20
-9.685424074527858
 30
0.0
 40
2.0
  1
FUNKTIONSKARAKTERISTIKEN
  7
ROMANS
100
AcDbText
  0
TEXT
  5
4CE
330
3B
100
AcDbEntity
  8
0
  6
Continuous
100
AcDbText
 10
-11.80005123682701
 20
-13.51875740786119
 30
0.0
 40
2.0
  1
SIN  ELLER COS   /
  7
ROMANS
100
AcDbText
  0
TEXT
  5
4CF
330
3B
100
AcDbEntity
  8
0
  6
Continuous
100
AcDbText
 10
-17.13906621222696
 20
-2.685424074527858
 30
0.0
 40
2.0
  1
1) OPERATING CHARACTERISTICS
  7
ROMANS
100
AcDbText
  0
TEXT
  5
4D0
330
3B
100
AcDbEntity
  8
0
  6
Continuous
100
AcDbText
 10
-11.80005123682701
 20
-6.018757407861194
 30
0.0
 40
2.0
  1
SIN  OR COS   /
  7
ROMANS
100
AcDbText
  0
TEXT
  5
4D1
330
3B
100
AcDbEntity
  8
0
  6
Continuous
100
AcDbText
 10
-16.30005123682701
 20
-24.01875740786119
 30
0.0
 40
2.0
  1
  BLOCKERING IN
  7
ROMANS
100
AcDbText
  0
TEXT
  5
4D2
330
3B
100
AcDbEntity
  8
0
  6
Continuous
100
AcDbText
 10
-17.63906621222696
 20
-20.68542407452786
 30
0.0
 40
2.0
  1
2) BLOCKING INPUT /
  7
ROMANS
100
AcDbText
  0
TEXT
  5
4D3
330
3B
100
AcDbEntity
  8
0
  6
Continuous
100
AcDbText
 10
-16.30005123682701
 20
-33.18542407452786
 30
0.0
 40
2.0
  1
  UTLSNING 1
  7
ROMANS
100
AcDbText
  0
TEXT
  5
4D4
330
3B
100
AcDbEntity
  8
0
  6
Continuous
100
AcDbText
 10
-17.63906621222694
 20
-29.85209074119453
 30
0.0
 40
2.0
  1
3) TRIP 1 /
  7
ROMANS
100
AcDbText
  0
INSERT
  5
4D5
330
3B
100
AcDbEntity
  8
0
  6
Continuous
100
AcDbBlockReference
  2
FII
 10
-5.0
 20
-4.781409105327718
 30
0.0
  0
INSERT
  5
4D6
330
3B
100
AcDbEntity
  8
0
  6
Continuous
100
AcDbBlockReference
  2
FII
 10
-5.0
 20
-12.28140910532771
 30
0.0
  0
INSERT
  5
4D7
330
3B
100
AcDbEntity
  8
0
  6
Continuous
100
AcDbBlockReference
  2
FII
 10
11.0
 20
-4.781409105327718
 30
0.0
  0
INSERT
  5
4D8
330
3B
100
AcDbEntity
  8
0
  6
Continuous
100
AcDbBlockReference
  2
FII
 10
15.5
 20
-12.28140910532771
 30
0.0
  0
TEXT
  5
4D9
330
3B
100
AcDbEntity
  8
0
  6
Continuous
100
AcDbText
 10
51.36093378777307
 20
-6.026879111568916
 30
0.0
 40
2.0
  1
4a) TRIP 2 OR ALARM OUTPUT /
  7
ROMANS
100
AcDbText
  0
TEXT
  5
4DA
330
3B
100
AcDbEntity
  8
0
  6
Continuous
100
AcDbText
 10
54.6890153752222
 20
-26.37735078731073
 30
0.0
 40
2.0
  1
  START, BLOCKERING MM.
  7
ROMANS
100
AcDbText
  0
TEXT
  5
4DB
330
3B
100
AcDbEntity
  8
0
  6
Continuous
100
AcDbText
 10
51.85063717940167
 20
-23.0440174539774
 30
0.0
 40
2.0
  1
4c) START, BLOCKING ETC.
  7
ROMANS
100
AcDbText
  0
TEXT
  5
4DC
330
3B
100
AcDbEntity
  8
0
  6
Continuous
100
AcDbText
 10
54.68878970156248
 20
-17.32040075509162
 30
0.0
 40
2.0
  1
  SIGNALUTGNG
  7
ROMANS
100
AcDbText
  0
TEXT
  5
4DD
330
3B
100
AcDbEntity
  8
0
  6
Continuous
100
AcDbText
 10
51.85063717940167
 20
-13.98706742175829
 30
0.0
 40
2.0
  1
4b) ALARM OUTPUT /
  7
ROMANS
100
AcDbText
  0
TEXT
  5
4DE
330
3B
100
AcDbEntity
  8
0
  6
Continuous
100
AcDbText
 10
54.18473268390709
 20
-9.360212444902245
 30
0.0
 40
2.0
  1
  UTLSNING 2 ELLER SIGNALUTGNG
  7
ROMANS
100
AcDbText
  0
ENDBLK
  5
4DF
330
3B
100
AcDbEntity
  8
0
100
AcDbBlockEnd
  0
BLOCK
  5
4E0
330
3C
100
AcDbEntity
  8
0
100
AcDbBlockBegin
  2
FII
 70
     0
 10
0.0
 20
0.0
 30
0.0
  3
FII
  1

  0
TEXT
  5
4E1
330
3C
100
AcDbEntity
  8
0
  6
Continuous
100
AcDbText
 10
-0.7868077746371256
 20
-0.6127150842119278
 30
0.0
 40
2.01451753023886
  1
f
  7
GREEKC
100
AcDbText
  0
ENDBLK
  5
4E3
330
3C
100
AcDbEntity
  8
0
100
AcDbBlockEnd
  0
ENDSEC
  0
SECTION
  2
ENTITIES
  0
INSERT
  5
4E4
330
1E
100
AcDbEntity
  8
0
100
AcDbBlockReference
  2
1
 10
65.40543794728922
 20
98.7130660876682
 30
0.0
  0
INSERT
  5
4E5
330
1E
100
AcDbEntity
  8
0
100
AcDbBlockReference
  2
1
 10
72.5416524658361
 20
49.71055967492806
 30
0.0
  0
INSERT
  5
4E6
330
1E
100
AcDbEntity
  8
0
100
AcDbBlockReference
  2
1
 10
85.39044274796726
 20
73.49723378259056
 30
0.0
  0
LINE
  5
4E7
330
1E
100
AcDbEntity
  8
BASE
  6
Continuous
100
AcDbLine
 10
210.4506146543173
 20
187.2098276043298
 30
0.0
 11
210.4506146543173
 21
130.0
 31
0.0
  0
LINE
  5
4E8
330
1E
100
AcDbEntity
  8
BASE
  6
Continuous
100
AcDbLine
 10
210.4506146522573
 20
215.0
 30
0.0
 11
210.4506146522573
 21
187.1883195992091
 31
0.0
  0
LINE
  5
4E9
330
1E
100
AcDbEntity
  8
BASE
  6
Continuous
100
AcDbLine
 10
180.0
 20
130.0
 30
0.0
 11
210.4506146543173
 21
130.0
 31
0.0
  0
LINE
  5
4EA
330
1E
100
AcDbEntity
  8
BASE
  6
Continuous
100
AcDbLine
 10
200.0
 20
130.0
 30
0.0
 11
200.0
 21
215.0
 31
0.0
  0
LINE
  5
4EB
330
1E
100
AcDbEntity
  8
BASE
  6
Continuous
100
AcDbLine
 10
180.0
 20
200.0
 30
0.0
 11
180.0
 21
185.0
 31
0.0
  0
LINE
  5
4EC
330
1E
100
AcDbEntity
  8
BASE
  6
Continuous
100
AcDbLine
 10
180.0
 20
200.0
 30
0.0
 11
180.0
 21
215.0
 31
0.0
  0
LINE
  5
4ED
330
1E
100
AcDbEntity
  8
BASE
  6
Continuous
100
AcDbLine
 10
180.0
 20
185.0
 30
0.0
 11
180.0
 21
130.0
 31
0.0
  0
LINE
  5
4EE
330
1E
100
AcDbEntity
  8
BASE
  6
Continuous
100
AcDbLine
 10
57.49999999999995
 20
132.4999999999999
 30
0.0
 11
51.75607594821684
 21
129.2852966948171
 31
0.0
  0
LINE
  5
4EF
330
1E
100
AcDbEntity
  8
BASE
  6
Continuous
100
AcDbLine
 10
75.0
 20
122.5
 30
0.0
 11
69.25607594821684
 21
119.2852966948171
 31
0.0
  0
LINE
  5
4F0
330
1E
100
AcDbEntity
  8
BASE
  6
Continuous
100
AcDbLine
 10
75.0
 20
122.5
 30
0.0
 11
77.5
 21
122.5
 31
0.0
  0
LINE
  5
4F1
330
1E
100
AcDbEntity
  8
BASE
  6
Continuous
100
AcDbLine
 10
70.0
 20
122.5
 30
0.0
 11
40.0
 21
122.5
 31
0.0
  0
LINE
  5
4F2
330
1E
100
AcDbEntity
  8
BASE
  6
DASHED
100
AcDbLine
 10
55.0
 20
137.5
 30
0.0
 11
55.0
 21
131.1008244206393
 31
0.0
  0
LINE
  5
4F3
330
1E
100
AcDbEntity
  8
BASE
  6
DASHED
100
AcDbLine
 10
72.5
 20
135.0
 30
0.0
 11
72.5
 21
121.1008244206393
 31
0.0
  0
LINE
  5
4F4
330
1E
100
AcDbEntity
  8
BASE
  6
DASHED
100
AcDbLine
 10
85.0
 20
135.0
 30
0.0
 11
85.00000000000001
 21
106.1008244206393
 31
0.0
  0
LINE
  5
4F5
330
1E
100
AcDbEntity
  8
BASE
  6
DASHED
100
AcDbLine
 10
97.50000000000001
 20
135.0
 30
0.0
 11
97.5
 21
91.10082442063939
 31
0.0
  0
LINE
  5
4F6
330
1E
100
AcDbEntity
  8
BASE
  6
DASHED
100
AcDbLine
 10
107.4999999999999
 20
112.5
 30
0.0
 11
107.5
 21
76.1008244206394
 31
0.0
  0
TEXT
  5
4F7
330
1E
100
AcDbEntity
  8
BASE
  6
DASHED
100
AcDbText
 10
50.69737272514714
 20
133.4034924824313
 30
0.0
 40
2.0
  1
A
  7
ROMANS
100
AcDbText
  0
TEXT
  5
4F8
330
1E
100
AcDbEntity
  8
BASE
  6
DASHED
100
AcDbText
 10
69.14337301197369
 20
123.7745883813304
 30
0.0
 40
2.0
  1
B
  7
ROMANS
100
AcDbText
  0
TEXT
  5
4F9
330
1E
100
AcDbEntity
  8
BASE
  6
DASHED
100
AcDbText
 10
81.05510948741914
 20
108.1343644375018
 30
0.0
 40
2.0
  1
C
  7
ROMANS
100
AcDbText
  0
TEXT
  5
4FA
330
1E
100
AcDbEntity
  8
BASE
  6
DASHED
100
AcDbText
 10
93.48401353973461
 20
93.25575173325827
 30
0.0
 40
2.0
  1
D
  7
ROMANS
100
AcDbText
  0
TEXT
  5
4FB
330
1E
100
AcDbEntity
  8
BASE
  6
DASHED
100
AcDbText
 10
103.171572722844
 20
78.36465359885756
 30
0.0
 40
2.0
  1
E
  7
ROMANS
100
AcDbText
  0
LINE
  5
4FC
330
1E
100
AcDbEntity
  8
BASE
  6
CENTER
100
AcDbLine
 10
40.0
 20
57.5
 30
0.0
 11
250.0
 21
57.5
 31
0.0
  0
LINE
  5
4FD
330
1E
100
AcDbEntity
  8
BASE
  6
CENTER
100
AcDbLine
 10
250.0
 20
242.5
 30
0.0
 11
40.0
 21
242.5
 31
0.0
  0
LINE
  5
4FE
330
1E
100
AcDbEntity
  8
BASE
  6
Continuous
100
AcDbLine
 10
180.0
 20
155.0
 30
0.0
 11
210.4506146543173
 21
155.0
 31
0.0
  0
LINE
  5
4FF
330
1E
100
AcDbEntity
  8
BASE
  6
Continuous
100
AcDbLine
 10
107.4999999999999
 20
127.4999999999999
 30
0.0
 11
107.4999999999999
 21
112.5
 31
0.0
  0
LINE
  5
500
330
1E
100
AcDbEntity
  8
BASE
  6
Continuous
100
AcDbLine
 10
180.0
 20
215.0
 30
0.0
 11
210.4506146522573
 21
215.0
 31
0.0
  0
TEXT
  5
501
330
1E
100
AcDbEntity
  8
BASE
  6
Continuous
100
AcDbText
 10
205.0
 20
210.0
 30
0.0
 40
2.5
  1
U1
  7
ROMANS
100
AcDbText
  0
LINE
  5
502
330
1E
100
AcDbEntity
  8
BASE
  6
Continuous
100
AcDbLine
 10
52.7988115360942
 20
215.0
 30
0.0
 11
47.5
 21
215.0
 31
0.0
  0
LINE
  5
503
330
1E
100
AcDbEntity
  8
BASE
  6
Continuous
100
AcDbLine
 10
52.7988115360942
 20
220.0
 30
0.0
 11
40.0
 21
220.0
 31
0.0
  0
LINE
  5
504
330
1E
100
AcDbEntity
  8
BASE
100
AcDbLine
 10
52.7988115360942
 20
221.5899248299359
 30
0.0
 11
52.7988115360942
 21
213.3999999999999
 31
0.0
  0
LINE
  5
505
330
1E
100
AcDbEntity
  8
BASE
100
AcDbLine
 10
57.00485312354079
 20
221.5938403318466
 30
0.0
 11
55.09105013902138
 21
219.3150182198039
 31
0.0
  0
LINE
  5
506
330
1E
100
AcDbEntity
  8
BASE
100
AcDbLine
 10
58.49697070469147
 20
221.5938403318466
 30
0.0
 11
56.6426361744933
 21
219.3150182198039
 31
0.0
  0
LINE
  5
507
330
1E
100
AcDbEntity
  8
BASE
100
AcDbLine
 10
60.221555880007
 20
221.5899248299359
 30
0.0
 11
52.7988115360942
 21
221.5899248299359
 31
0.0
  0
LINE
  5
508
330
1E
100
AcDbEntity
  8
BASE
100
AcDbLine
 10
60.22155588000697
 20
213.3999999999999
 30
0.0
 11
60.221555880007
 21
221.5899248299359
 31
0.0
  0
LINE
  5
509
330
1E
100
AcDbEntity
  8
BASE
  6
Continuous
100
AcDbLine
 10
60.22155588000697
 20
217.5
 30
0.0
 11
65.0
 21
217.5
 31
0.0
  0
LINE
  5
50A
330
1E
100
AcDbEntity
  8
BASE
  6
Continuous
100
AcDbLine
 10
60.22155588000697
 20
210.0
 30
0.0
 11
65.0
 21
210.0
 31
0.0
  0
LINE
  5
50B
330
1E
100
AcDbEntity
  8
BASE
100
AcDbLine
 10
60.22155588000697
 20
206.2042118258568
 30
0.0
 11
60.221555880007
 21
214.0899248299359
 31
0.0
  0
LINE
  5
50C
330
1E
100
AcDbEntity
  8
BASE
100
AcDbLine
 10
60.221555880007
 20
213.7042118258568
 30
0.0
 11
52.7988115360942
 21
213.7042118258568
 31
0.0
  0
LINE
  5
50D
330
1E
100
AcDbEntity
  8
BASE
100
AcDbLine
 10
58.49697070469147
 20
213.7081273277675
 30
0.0
 11
56.6426361744933
 21
211.4293052157248
 31
0.0
  0
LINE
  5
50E
330
1E
100
AcDbEntity
  8
BASE
100
AcDbLine
 10
57.00485312354079
 20
213.7081273277675
 30
0.0
 11
55.09105013902138
 21
211.4293052157248
 31
0.0
  0
LINE
  5
50F
330
1E
100
AcDbEntity
  8
BASE
100
AcDbLine
 10
52.7988115360942
 20
214.0899248299359
 30
0.0
 11
52.7988115360942
 21
206.2042118258568
 31
0.0
  0
LINE
  5
510
330
1E
100
AcDbEntity
  8
BASE
  6
Continuous
100
AcDbLine
 10
52.7988115360942
 20
212.5
 30
0.0
 11
40.0
 21
212.5
 31
0.0
  0
LINE
  5
511
330
1E
100
AcDbEntity
  8
BASE
  6
Continuous
100
AcDbLine
 10
52.7988115360942
 20
207.5
 30
0.0
 11
47.5
 21
207.5
 31
0.0
  0
LINE
  5
512
330
1E
100
AcDbEntity
  8
BASE
100
AcDbLine
 10
60.22155588000697
 20
206.2042118258568
 30
0.0
 11
52.7988115360942
 21
206.2042118258568
 31
0.0
  0
LINE
  5
513
330
1E
100
AcDbEntity
  8
BASE
  6
Continuous
100
AcDbLine
 10
222.9506146543173
 20
103.0
 30
0.0
 11
230.0
 21
103.0
 31
0.0
  0
LINE
  5
514
330
1E
100
AcDbEntity
  8
0
  6
Continuous
100
AcDbLine
 10
363.1858234033143
 20
214.2961811125461
 30
0.0
 11
367.6789726486699
 21
214.2961811125461
 31
0.0
  0
TEXT
  5
515
330
1E
100
AcDbEntity
  8
0
  6
Continuous
100
AcDbText
 10
361.3086594256458
 20
213.37955534273
 30
0.0
 40
2.0
  1
O
100
AcDbText
  0
TEXT
  5
516
330
1E
100
AcDbEntity
  8
0
  6
Continuous
100
AcDbText
 10
367.8317748093491
 20
213.3753040688634
 30
0.0
 40
2.0
  1
I
100
AcDbText
  0
LINE
  5
517
330
1E
100
AcDbEntity
  8
0
  6
Continuous
100
AcDbLine
 10
366.4302993589841
 20
215.0070025919233
 30
0.0
 11
367.6789726486712
 21
214.2961811125468
 31
0.0
  0
LINE
  5
518
330
1E
100
AcDbEntity
  8
0
  6
Continuous
100
AcDbLine
 10
367.6789726486712
 20
214.2961811125468
 30
0.0
 11
366.4302993589841
 21
213.6627758338944
 31
0.0
  0
TEXT
  5
519
330
1E
100
AcDbEntity
  8
0
  6
Continuous
100
AcDbText
 10
370.3365452133086
 20
11.97866463291774
 30
0.0
 40
2.0
  1
1/2
  7
ROMANS
100
AcDbText
  0
LINE
  5
51A
330
1E
100
AcDbEntity
  8
BASE
  6
Continuous
100
AcDbLine
 10
47.5
 20
207.5
 30
0.0
 11
40.0
 21
207.5
 31
0.0
  0
LINE
  5
51B
330
1E
100
AcDbEntity
  8
BASE
  6
Continuous
100
AcDbLine
 10
47.5
 20
215.0
 30
0.0
 11
47.5
 21
207.5
 31
0.0
  0
LINE
  5
51C
330
1E
100
AcDbEntity
  8
BASE
  6
Continuous
100
AcDbLine
 10
180.0
 20
185.0
 30
0.0
 11
210.4506146543173
 21
185.0
 31
0.0
  0
TEXT
  5
51D
330
1E
100
AcDbEntity
  8
BASE
  6
Continuous
100
AcDbText
 10
204.5087664684212
 20
180.7755858800325
 30
0.0
 40
2.5
  1
U2
  7
ROMANS
100
AcDbText
  0
LINE
  5
51E
330
1E
100
AcDbEntity
  8
BASE
  6
Continuous
100
AcDbLine
 10
191.0198453360816
 20
147.9979580521803
 30
0.0
 11
191.0198453360816
 21
146.2098266395898
 31
0.0
  0
LINE
  5
51F
330
1E
100
AcDbEntity
  8
BASE
  6
Continuous
100
AcDbLine
 10
191.0508770567911
 20
147.1526794996927
 30
0.0
 11
198.8390820836234
 21
147.1526794996927
 31
0.0
  0
LINE
  5
520
330
1E
100
AcDbEntity
  8
BASE
  6
Continuous
100
AcDbLine
 10
195.8804286937068
 20
149.3508422723744
 30
0.0
 11
196.7811054655173
 21
148.227093223996
 31
0.0
  0
ARC
  5
521
330
1E
100
AcDbEntity
  8
BASE
  6
HIDDEN
100
AcDbCircle
 10
197.7457449120744
 20
151.0812236987691
 30
0.0
 40
4.998195985283786
100
AcDbArc
 50
206.402921519098
 51
282.2111496748031
  0
LINE
  5
522
330
1E
100
AcDbEntity
  8
BASE
  6
Continuous
100
AcDbLine
 10
193.4350214527601
 20
145.9850768299141
 30
0.0
 11
196.3111321526593
 21
148.8136354102228
 31
0.0
  0
LINE
  5
523
330
1E
100
AcDbEntity
  8
BASE
  6
Continuous
100
AcDbLine
 10
198.8345408562025
 20
147.9979580521803
 30
0.0
 11
198.8345408562025
 21
146.2098266395898
 31
0.0
  0
LINE
  5
524
330
1E
100
AcDbEntity
  8
BASE
  6
HIDDEN
100
AcDbLine
 10
180.0
 20
150.0
 30
0.0
 11
200.0
 21
150.0
 31
0.0
  0
TEXT
  5
525
330
1E
100
AcDbEntity
  8
BASE
  6
Continuous
100
AcDbText
 10
181.2158960173333
 20
150.7774406850494
 30
0.0
 40
2.5
  1
U
  7
GREEKS
100
AcDbText
  0
LINE
  5
526
330
1E
100
AcDbEntity
  8
BASE
  6
Continuous
100
AcDbLine
 10
184.2170664694896
 20
153.40497557518
 30
0.0
 11
186.5628319817153
 21
152.0696218638112
 31
0.0
  0
LINE
  5
527
330
1E
100
AcDbEntity
  8
BASE
  6
Continuous
100
AcDbLine
 10
186.5628319817153
 20
152.0696218638112
 30
0.0
 11
184.2170664694896
 21
150.8797027150668
 31
0.0
  0
LINE
  5
528
330
1E
100
AcDbEntity
  8
BASE
  6
HIDDEN
100
AcDbLine
 10
180.0
 20
145.0
 30
0.0
 11
200.0
 21
145.0
 31
0.0
  0
LINE
  5
529
330
1E
100
AcDbEntity
  8
BASE
  6
Continuous
100
AcDbLine
 10
186.5628319817153
 20
147.1348433026706
 30
0.0
 11
184.2170664694896
 21
145.9449241539262
 31
0.0
  0
LINE
  5
52A
330
1E
100
AcDbEntity
  8
BASE
  6
Continuous
100
AcDbLine
 10
184.2170664694896
 20
148.4701970140394
 30
0.0
 11
186.5628319817153
 21
147.1348433026706
 31
0.0
  0
TEXT
  5
52B
330
1E
100
AcDbEntity
  8
BASE
  6
Continuous
100
AcDbText
 10
181.2158960173333
 20
145.8426621239089
 30
0.0
 40
2.5
  1
U
  7
GREEKS
100
AcDbText
  0
LINE
  5
52C
330
1E
100
AcDbEntity
  8
BASE
  6
HIDDEN
100
AcDbLine
 10
180.0
 20
140.0
 30
0.0
 11
200.0
 21
140.0
 31
0.0
  0
TEXT
  5
52D
330
1E
100
AcDbEntity
  8
BASE
  6
Continuous
100
AcDbText
 10
181.2158960173333
 20
141.1171710463882
 30
0.0
 40
2.5
  1
U
  7
GREEKS
100
AcDbText
  0
LINE
  5
52E
330
1E
100
AcDbEntity
  8
BASE
  6
Continuous
100
AcDbLine
 10
186.56204434001
 20
141.0719270877116
 30
0.0
 11
184.2162788277843
 21
142.4072807990804
 31
0.0
  0
LINE
  5
52F
330
1E
100
AcDbEntity
  8
BASE
  6
Continuous
100
AcDbLine
 10
184.2162788277843
 20
142.4072807990804
 30
0.0
 11
186.56204434001
 21
143.5971999478248
 31
0.0
  0
LINE
  5
530
330
1E
100
AcDbEntity
  8
BASE
  6
Continuous
100
AcDbLine
 10
189.9009358416169
 20
134.9600552776674
 30
0.0
 11
192.4009358416169
 21
134.9600552776674
 31
0.0
  0
LINE
  5
531
330
1E
100
AcDbEntity
  8
BASE
  6
Continuous
100
AcDbLine
 10
189.9009358416169
 20
134.9600552776674
 30
0.0
 11
187.6764891006496
 21
134.3994128879575
 31
0.0
  0
LINE
  5
532
330
1E
100
AcDbEntity
  8
BASE
  6
Continuous
100
AcDbLine
 10
184.9009358416169
 20
134.9600552776674
 30
0.0
 11
187.4009358416169
 21
134.9600552776674
 31
0.0
  0
TEXT
  5
533
330
1E
100
AcDbEntity
  8
BASE
  6
HIDDEN
100
AcDbText
 10
181.080478382033
 20
134.2268074994583
 30
0.0
 40
1.5
  1
EN
100
AcDbText
  0
TEXT
  5
534
330
1E
100
AcDbEntity
  8
BASE
  6
HIDDEN
100
AcDbText
 10
181.080478382033
 20
137.1678474008523
 30
0.0
 40
1.5
  1
EN
100
AcDbText
  0
LINE
  5
535
330
1E
100
AcDbEntity
  8
BASE
  6
Continuous
100
AcDbLine
 10
184.9009358416169
 20
137.9010951790614
 30
0.0
 11
187.4009358416169
 21
137.9010951790614
 31
0.0
  0
LINE
  5
536
330
1E
100
AcDbEntity
  8
BASE
  6
Continuous
100
AcDbLine
 10
189.9009358416169
 20
137.9010951790614
 30
0.0
 11
187.6764891006496
 21
137.3404527893514
 31
0.0
  0
LINE
  5
537
330
1E
100
AcDbEntity
  8
BASE
  6
Continuous
100
AcDbLine
 10
189.9009358416169
 20
137.9010951790614
 30
0.0
 11
192.4009358416169
 21
137.9010951790614
 31
0.0
  0
LINE
  5
538
330
1E
100
AcDbEntity
  8
BASE
  6
Continuous
100
AcDbLine
 10
178.0127296591571
 20
134.9716516622991
 30
0.0
 11
172.5
 21
134.9716516622991
 31
0.0
  0
LINE
  5
539
330
1E
100
AcDbEntity
  8
BASE
  6
Continuous
100
AcDbLine
 10
178.0127296591571
 20
138.0008126094277
 30
0.0
 11
170.0
 21
138.0008126094277
 31
0.0
  0
CIRCLE
  5
53A
330
1E
100
AcDbEntity
  8
BASE
  6
Continuous
100
AcDbCircle
 10
179.0126585353903
 20
137.9945094989803
 30
0.0
 40
1.0
  0
CIRCLE
  5
53B
330
1E
100
AcDbEntity
  8
BASE
  6
Continuous
100
AcDbCircle
 10
179.0126585353903
 20
134.9653485518516
 30
0.0
 40
1.0
  0
LINE
  5
53C
330
1E
100
AcDbEntity
  8
BASE
  6
Continuous
100
AcDbLine
 10
184.2162788277843
 20
131.8547855723558
 30
0.0
 11
186.56204434001
 21
133.0447047211002
 31
0.0
  0
LINE
  5
53D
330
1E
100
AcDbEntity
  8
BASE
  6
Continuous
100
AcDbLine
 10
186.56204434001
 20
130.519431860987
 30
0.0
 11
184.2162788277843
 21
131.8547855723558
 31
0.0
  0
TEXT
  5
53E
330
1E
100
AcDbEntity
  8
BASE
  6
Continuous
100
AcDbText
 10
181.2158960173333
 20
130.5646758196636
 30
0.0
 40
2.5
  1
U
  7
GREEKS
100
AcDbText
  0
LINE
  5
53F
330
1E
100
AcDbEntity
  8
BASE
  6
Continuous
100
AcDbLine
 10
191.0202994078982
 20
132.4297351883227
 30
0.0
 11
191.0202994078982
 21
130.6416037757322
 31
0.0
  0
LINE
  5
540
330
1E
100
AcDbEntity
  8
BASE
  6
Continuous
100
AcDbLine
 10
191.0513311286076
 20
131.584456635835
 30
0.0
 11
198.83953615544
 21
131.584456635835
 31
0.0
  0
LINE
  5
541
330
1E
100
AcDbEntity
  8
BASE
  6
Continuous
100
AcDbLine
 10
195.8808827655234
 20
133.7826194085168
 30
0.0
 11
196.7815595373338
 21
132.6588703601384
 31
0.0
  0
LINE
  5
542
330
1E
100
AcDbEntity
  8
BASE
  6
Continuous
100
AcDbLine
 10
193.4354755245767
 20
130.4168539660565
 30
0.0
 11
196.3115862244759
 21
133.2454125463651
 31
0.0
  0
LINE
  5
543
330
1E
100
AcDbEntity
  8
BASE
  6
Continuous
100
AcDbLine
 10
198.8349949280191
 20
132.4297351883227
 30
0.0
 11
198.8349949280191
 21
130.6416037757322
 31
0.0
  0
TEXT
  5
544
330
1E
100
AcDbEntity
  8
BASE
  6
Continuous
100
AcDbText
 10
204.5101250948818
 20
150.658649419022
 30
0.0
 40
2.5
  1
U3
  7
ROMANS
100
AcDbText
  0
TEXT
  5
545
330
1E
100
AcDbEntity
  8
BASE
  6
Continuous
100
AcDbText
 10
202.0794109627556
 20
139.4342312185706
 30
0.0
 40
2.5
  1
3U
  7
GREEKS
100
AcDbText
  0
LINE
  5
546
330
1E
100
AcDbEntity
  8
BASE
  6
Continuous
100
AcDbLine
 10
209.0712663814579
 20
141.5168745701535
 30
0.0
 11
207.0733891179584
 21
140.5034261243097
 31
0.0
  0
LINE
  5
547
330
1E
100
AcDbEntity
  8
BASE
  6
Continuous
100
AcDbLine
 10
207.0733891179584
 20
142.654188937156
 30
0.0
 11
209.0712663814579
 21
141.5168745701535
 31
0.0
  0
LINE
  5
548
330
1E
100
AcDbEntity
  8
BASE
  6
Continuous
100
AcDbLine
 10
207.0566192115284
 20
139.8496589097318
 30
0.0
 11
209.0544964750279
 21
140.8631073555756
 31
0.0
  0
LINE
  5
549
330
1E
100
AcDbEntity
  8
BASE
  6
Continuous
100
AcDbLine
 10
209.0544964750279
 20
138.7123445427293
 30
0.0
 11
207.0566192115284
 21
139.8496589097318
 31
0.0
  0
LINE
  5
54A
330
1E
100
AcDbEntity
  8
BASE
  6
HIDDEN
100
AcDbLine
 10
180.0
 20
130.0
 30
0.0
 11
180.0
 21
57.5
 31
0.0
  0
LINE
  5
54B
330
1E
100
AcDbEntity
  8
BASE
  6
HIDDEN
100
AcDbLine
 10
210.4506146543173
 20
130.0
 30
0.0
 11
210.4506146543173
 21
57.5
 31
0.0
  0
LINE
  5
54C
330
1E
100
AcDbEntity
  8
BASE
  6
Continuous
100
AcDbLine
 10
210.4506146543173
 20
140.0
 30
0.0
 11
222.5
 21
140.0
 31
0.0
  0
LINE
  5
54D
330
1E
100
AcDbEntity
  8
BASE
  6
Continuous
100
AcDbLine
 10
222.5
 20
140.0
 30
0.0
 11
222.5
 21
57.5
 31
0.0
  0
TEXT
  5
54E
330
1E
100
AcDbEntity
  8
BASE
  6
Continuous
100
AcDbText
 10
50.74477901216096
 20
154.2654004870835
 30
0.0
 40
2.0
  1
SGR
 50
90.0
  7
ROMANS
100
AcDbText
  0
LINE
  5
54F
330
1E
100
AcDbEntity
  8
BASE
  6
Continuous
100
AcDbLine
 10
55.0
 20
142.5
 30
0.0
 11
55.0
 21
137.5
 31
0.0
  0
LINE
  5
550
330
1E
100
AcDbEntity
  8
BASE
  6
Continuous
100
AcDbLine
 10
67.5
 20
147.5
 30
0.0
 11
77.5
 21
147.5
 31
0.0
  0
LINE
  5
551
330
1E
100
AcDbEntity
  8
BASE
  6
Continuous
100
AcDbLine
 10
77.5
 20
147.5
 30
0.0
 11
77.5
 21
142.5
 31
0.0
  0
LINE
  5
552
330
1E
100
AcDbEntity
  8
BASE
  6
Continuous
100
AcDbLine
 10
77.5
 20
142.5
 30
0.0
 11
67.5
 21
142.5
 31
0.0
  0
LINE
  5
553
330
1E
100
AcDbEntity
  8
BASE
  6
Continuous
100
AcDbLine
 10
67.5
 20
142.5
 30
0.0
 11
67.5
 21
147.5
 31
0.0
  0
LINE
  5
554
330
1E
100
AcDbEntity
  8
BASE
  6
Continuous
100
AcDbLine
 10
71.70739587321839
 20
145.2891950622866
 30
0.0
 11
69.36163036099276
 21
144.0992759135421
 31
0.0
  0
LINE
  5
555
330
1E
100
AcDbEntity
  8
BASE
  6
Continuous
100
AcDbLine
 10
69.35358861697284
 20
143.2992621767828
 30
0.0
 11
71.73704905005343
 21
144.4874540179833
 31
0.0
  0
LINE
  5
556
330
1E
100
AcDbEntity
  8
BASE
  6
Continuous
100
AcDbLine
 10
69.36163036099276
 20
146.6245487736553
 30
0.0
 11
71.70739587321839
 21
145.2891950622866
 31
0.0
  0
TEXT
  5
557
330
1E
100
AcDbEntity
  8
BASE
  6
Continuous
100
AcDbText
 10
73.79549215135035
 20
143.9644551552293
 30
0.0
 40
2.5
  1
1
 11
73.79549215135035
 21
143.131121821896
 31
0.0
100
AcDbText
 73
     1
  0
TEXT
  5
558
330
1E
100
AcDbEntity
  8
BASE
  6
Continuous
100
AcDbText
 10
97.16406626248129
 20
154.9958961847631
 30
0.0
 40
2.0
  1
5
  7
ROMANS
100
AcDbText
  0
LINE
  5
559
330
1E
100
AcDbEntity
  8
BASE
  6
Continuous
100
AcDbLine
 10
97.5
 20
157.5
 30
0.0
 11
97.5
 21
160.0
 31
0.0
  0
LINE
  5
55A
330
1E
100
AcDbEntity
  8
BASE
  6
Continuous
100
AcDbLine
 10
97.5
 20
152.5
 30
0.0
 11
95.78591352215198
 21
157.5862972944675
 31
0.0
  0
LINE
  5
55B
330
1E
100
AcDbEntity
  8
BASE
  6
Continuous
100
AcDbLine
 10
97.5
 20
147.5
 30
0.0
 11
97.5
 21
152.5
 31
0.0
  0
LINE
  5
55C
330
1E
100
AcDbEntity
  8
BASE
  6
Continuous
100
AcDbLine
 10
85.0
 20
152.5
 30
0.0
 11
83.28591352215198
 21
157.5862972944675
 31
0.0
  0
LINE
  5
55D
330
1E
100
AcDbEntity
  8
BASE
  6
Continuous
100
AcDbLine
 10
85.0
 20
157.5
 30
0.0
 11
85.0
 21
160.0
 31
0.0
  0
LINE
  5
55E
330
1E
100
AcDbEntity
  8
BASE
  6
Continuous
100
AcDbLine
 10
75.0
 20
157.5
 30
0.0
 11
75.0
 21
162.5
 31
0.0
  0
LINE
  5
55F
330
1E
100
AcDbEntity
  8
BASE
  6
Continuous
100
AcDbLine
 10
75.0
 20
152.5
 30
0.0
 11
73.28591352215198
 21
157.5862972944675
 31
0.0
  0
LINE
  5
560
330
1E
100
AcDbEntity
  8
BASE
  6
Continuous
100
AcDbLine
 10
75.0
 20
147.5
 30
0.0
 11
75.0
 21
152.5
 31
0.0
  0
TEXT
  5
561
330
1E
100
AcDbEntity
  8
BASE
  6
Continuous
100
AcDbText
 10
54.63021462945222
 20
155.0
 30
0.0
 40
2.0
  1
6
  7
ROMANS
100
AcDbText
  0
TEXT
  5
562
330
1E
100
AcDbEntity
  8
BASE
  6
Continuous
100
AcDbText
 10
74.56175138969936
 20
155.0
 30
0.0
 40
2.0
  1
7
  7
ROMANS
100
AcDbText
  0
TEXT
  5
563
330
1E
100
AcDbEntity
  8
BASE
  6
Continuous
100
AcDbText
 10
84.61957978446482
 20
155.0
 30
0.0
 40
2.0
  1
8
  7
ROMANS
100
AcDbText
  0
LINE
  5
564
330
1E
100
AcDbEntity
  8
BASE
  6
Continuous
100
AcDbLine
 10
55.0
 20
147.5
 30
0.0
 11
55.0
 21
152.5
 31
0.0
  0
LINE
  5
565
330
1E
100
AcDbEntity
  8
BASE
  6
Continuous
100
AcDbLine
 10
55.0
 20
152.5
 30
0.0
 11
53.28591352215198
 21
157.5862972944675
 31
0.0
  0
LINE
  5
566
330
1E
100
AcDbEntity
  8
BASE
  6
Continuous
100
AcDbLine
 10
55.0
 20
157.5
 30
0.0
 11
55.0
 21
160.0
 31
0.0
  0
LINE
  5
567
330
1E
100
AcDbEntity
  8
BASE
  6
Continuous
100
AcDbLine
 10
52.5
 20
132.4999999999999
 30
0.0
 11
40.0
 21
132.4999999999999
 31
0.0
  0
LINE
  5
568
330
1E
100
AcDbEntity
  8
BASE
  6
Continuous
100
AcDbLine
 10
60.0
 20
132.4999999999999
 30
0.0
 11
60.0
 21
127.5
 31
0.0
  0
LINE
  5
569
330
1E
100
AcDbEntity
  8
BASE
  6
Continuous
100
AcDbLine
 10
60.0
 20
127.5
 30
0.0
 11
40.0
 21
127.5
 31
0.0
  0
LINE
  5
56A
330
1E
100
AcDbEntity
  8
BASE
  6
Continuous
100
AcDbLine
 10
57.49999999999995
 20
132.4999999999999
 30
0.0
 11
60.0
 21
132.4999999999999
 31
0.0
  0
LINE
  5
56B
330
1E
100
AcDbEntity
  8
BASE
  6
Continuous
100
AcDbLine
 10
77.5
 20
122.5
 30
0.0
 11
77.5
 21
117.5
 31
0.0
  0
LINE
  5
56C
330
1E
100
AcDbEntity
  8
BASE
  6
Continuous
100
AcDbLine
 10
77.5
 20
117.5
 30
0.0
 11
40.0
 21
117.5
 31
0.0
  0
LINE
  5
56D
330
1E
100
AcDbEntity
  8
BASE
  6
Continuous
100
AcDbLine
 10
162.5
 20
125.0
 30
0.0
 11
162.5
 21
127.5
 31
0.0
  0
LINE
  5
56E
330
1E
100
AcDbEntity
  8
BASE
  6
Continuous
100
AcDbLine
 10
155.0
 20
125.0
 30
0.0
 11
167.5
 21
125.0
 31
0.0
  0
LINE
  5
56F
330
1E
100
AcDbEntity
  8
BASE
  6
Continuous
100
AcDbLine
 10
167.5
 20
125.0
 30
0.0
 11
167.5
 21
120.0
 31
0.0
  0
LINE
  5
570
330
1E
100
AcDbEntity
  8
BASE
  6
Continuous
100
AcDbLine
 10
167.5
 20
120.0
 30
0.0
 11
155.0
 21
120.0
 31
0.0
  0
LINE
  5
571
330
1E
100
AcDbEntity
  8
BASE
  6
Continuous
100
AcDbLine
 10
155.0
 20
120.0
 30
0.0
 11
155.0
 21
125.0
 31
0.0
  0
LINE
  5
572
330
1E
100
AcDbEntity
  8
BASE
  6
Continuous
100
AcDbLine
 10
161.0637575436592
 20
122.7891950622866
 30
0.0
 11
158.7179920314335
 21
121.5992759135421
 31
0.0
  0
LINE
  5
573
330
1E
100
AcDbEntity
  8
BASE
  6
Continuous
100
AcDbLine
 10
158.7099502874136
 20
120.7992621767828
 30
0.0
 11
161.0934107204942
 21
121.9874540179833
 31
0.0
  0
LINE
  5
574
330
1E
100
AcDbEntity
  8
BASE
  6
Continuous
100
AcDbLine
 10
158.7179920314335
 20
124.1245487736553
 30
0.0
 11
161.0637575436592
 21
122.7891950622866
 31
0.0
  0
TEXT
  5
575
330
1E
100
AcDbEntity
  8
BASE
  6
Continuous
100
AcDbText
 10
163.1518538217911
 20
121.4644551552293
 30
0.0
 40
2.5
  1
1
 11
163.1518538217911
 21
120.6311218218959
 31
0.0
100
AcDbText
 73
     1
  0
LINE
  5
576
330
1E
100
AcDbEntity
  8
BASE
  6
Continuous
100
AcDbLine
 10
72.5
 20
135.0
 30
0.0
 11
72.5
 21
142.5
 31
0.0
  0
LINE
  5
577
330
1E
100
AcDbEntity
  8
BASE
  6
Continuous
100
AcDbLine
 10
85.0
 20
135.0
 30
0.0
 11
85.0
 21
152.4999999999999
 31
0.0
  0
LINE
  5
578
330
1E
100
AcDbEntity
  8
BASE
  6
Continuous
100
AcDbLine
 10
97.5
 20
135.0
 30
0.0
 11
97.5
 21
142.5
 31
0.0
  0
LINE
  5
579
330
1E
100
AcDbEntity
  8
BASE
  6
Continuous
100
AcDbLine
 10
162.5
 20
120.0
 30
0.0
 11
162.5
 21
57.5
 31
0.0
  0
LINE
  5
57A
330
1E
100
AcDbEntity
  8
BASE
  6
Continuous
100
AcDbLine
 10
107.4999999999999
 20
127.5
 30
0.0
 11
105.7859135221519
 21
132.5862972944675
 31
0.0
  0
LINE
  5
57B
330
1E
100
AcDbEntity
  8
BASE
  6
Continuous
100
AcDbLine
 10
107.4999999999999
 20
132.4999999999999
 30
0.0
 11
107.4999999999999
 21
135.0
 31
0.0
  0
TEXT
  5
57C
330
1E
100
AcDbEntity
  8
BASE
  6
Continuous
100
AcDbText
 10
106.7909340986576
 20
130.0
 30
0.0
 40
2.0
  1
4
  7
ROMANS
100
AcDbText
  0
LINE
  5
57D
330
1E
100
AcDbEntity
  8
BASE
  6
Continuous
100
AcDbLine
 10
65.0
 20
217.5
 30
0.0
 11
172.5
 21
217.5
 31
0.0
  0
LINE
  5
57E
330
1E
100
AcDbEntity
  8
BASE
  6
Continuous
100
AcDbLine
 10
172.5
 20
217.5
 30
0.0
 11
172.5
 21
134.9716516622991
 31
0.0
  0
LINE
  5
57F
330
1E
100
AcDbEntity
  8
BASE
  6
Continuous
100
AcDbLine
 10
170.0
 20
208.0008126094277
 30
0.0
 11
170.0
 21
138.0008126094277
 31
0.0
  0
LINE
  5
580
330
1E
100
AcDbEntity
  8
BASE
  6
Continuous
100
AcDbLine
 10
180.0
 20
152.5
 30
0.0
 11
107.4999999999999
 21
152.5
 31
0.0
  0
LINE
  5
581
330
1E
100
AcDbEntity
  8
BASE
  6
Continuous
100
AcDbLine
 10
107.4999999999999
 20
152.5
 30
0.0
 11
107.4999999999999
 21
135.0
 31
0.0
  0
LINE
  5
582
330
1E
100
AcDbEntity
  8
BASE
  6
Continuous
100
AcDbLine
 10
40.0
 20
107.4999999999999
 30
0.0
 11
82.5
 21
107.4999999999999
 31
0.0
  0
LINE
  5
583
330
1E
100
AcDbEntity
  8
BASE
  6
Continuous
100
AcDbLine
 10
82.5
 20
102.4999999999999
 30
0.0
 11
40.0
 21
102.4999999999999
 31
0.0
  0
LINE
  5
584
330
1E
100
AcDbEntity
  8
BASE
  6
Continuous
100
AcDbLine
 10
82.5
 20
102.4999999999999
 30
0.0
 11
82.5
 21
105.0
 31
0.0
  0
LINE
  5
585
330
1E
100
AcDbEntity
  8
BASE
  6
Continuous
100
AcDbLine
 10
87.50000000000001
 20
107.4999999999999
 30
0.0
 11
90.0
 21
107.4999999999999
 31
0.0
  0
LINE
  5
586
330
1E
100
AcDbEntity
  8
BASE
  6
Continuous
100
AcDbLine
 10
87.50000000000001
 20
107.4999999999999
 30
0.0
 11
81.75607594821684
 21
104.2852966948171
 31
0.0
  0
LINE
  5
587
330
1E
100
AcDbEntity
  8
BASE
  6
Continuous
100
AcDbLine
 10
100.0
 20
92.5
 30
0.0
 11
94.25607594821684
 21
89.28529669481719
 31
0.0
  0
LINE
  5
588
330
1E
100
AcDbEntity
  8
BASE
  6
Continuous
100
AcDbLine
 10
100.0
 20
92.5
 30
0.0
 11
102.4999999999999
 21
92.5
 31
0.0
  0
LINE
  5
589
330
1E
100
AcDbEntity
  8
BASE
  6
Continuous
100
AcDbLine
 10
95.0
 20
87.5
 30
0.0
 11
95.0
 21
90.0
 31
0.0
  0
LINE
  5
58A
330
1E
100
AcDbEntity
  8
BASE
  6
Continuous
100
AcDbLine
 10
95.0
 20
87.5
 30
0.0
 11
40.0
 21
87.5
 31
0.0
  0
LINE
  5
58B
330
1E
100
AcDbEntity
  8
BASE
  6
Continuous
100
AcDbLine
 10
40.0
 20
92.5
 30
0.0
 11
95.0
 21
92.5
 31
0.0
  0
LINE
  5
58C
330
1E
100
AcDbEntity
  8
BASE
  6
Continuous
100
AcDbLine
 10
40.0
 20
77.5
 30
0.0
 11
105.0
 21
77.5
 31
0.0
  0
LINE
  5
58D
330
1E
100
AcDbEntity
  8
BASE
  6
Continuous
100
AcDbLine
 10
105.0
 20
72.5
 30
0.0
 11
40.0
 21
72.5
 31
0.0
  0
LINE
  5
58E
330
1E
100
AcDbEntity
  8
BASE
  6
Continuous
100
AcDbLine
 10
105.0
 20
72.5
 30
0.0
 11
105.0
 21
75.0
 31
0.0
  0
LINE
  5
58F
330
1E
100
AcDbEntity
  8
BASE
  6
Continuous
100
AcDbLine
 10
110.0
 20
77.5
 30
0.0
 11
112.5
 21
77.5
 31
0.0
  0
LINE
  5
590
330
1E
100
AcDbEntity
  8
BASE
  6
Continuous
100
AcDbLine
 10
110.0
 20
77.5
 30
0.0
 11
104.2560759482168
 21
74.28529669481719
 31
0.0
  0
LINE
  5
591
330
1E
100
AcDbEntity
  8
BASE
  6
Continuous
100
AcDbLine
 10
90.0
 20
107.4999999999999
 30
0.0
 11
90.0
 21
97.5
 31
0.0
  0
LINE
  5
592
330
1E
100
AcDbEntity
  8
BASE
  6
Continuous
100
AcDbLine
 10
90.0
 20
97.5
 30
0.0
 11
40.0
 21
97.5
 31
0.0
  0
LINE
  5
593
330
1E
100
AcDbEntity
  8
BASE
  6
Continuous
100
AcDbLine
 10
102.4999999999999
 20
92.5
 30
0.0
 11
102.4999999999999
 21
82.5
 31
0.0
  0
LINE
  5
594
330
1E
100
AcDbEntity
  8
BASE
  6
Continuous
100
AcDbLine
 10
102.4999999999999
 20
82.5
 30
0.0
 11
40.0
 21
82.5
 31
0.0
  0
LINE
  5
595
330
1E
100
AcDbEntity
  8
BASE
  6
Continuous
100
AcDbLine
 10
112.5
 20
77.5
 30
0.0
 11
112.5
 21
67.5
 31
0.0
  0
LINE
  5
596
330
1E
100
AcDbEntity
  8
BASE
  6
Continuous
100
AcDbLine
 10
112.5
 20
67.5
 30
0.0
 11
40.0
 21
67.5
 31
0.0
  0
LINE
  5
597
330
1E
100
AcDbEntity
  8
BASE
  6
Continuous
100
AcDbLine
 10
55.0
 20
160.0
 30
0.0
 11
55.0
 21
170.0
 31
0.0
  0
LINE
  5
598
330
1E
100
AcDbEntity
  8
BASE
  6
Continuous
100
AcDbLine
 10
57.5
 20
170.0
 30
0.0
 11
160.0
 21
170.0
 31
0.0
  0
LINE
  5
599
330
1E
100
AcDbEntity
  8
BASE
  6
Continuous
100
AcDbLine
 10
160.0
 20
170.0
 30
0.0
 11
160.0
 21
125.0
 31
0.0
  0
LINE
  5
59A
330
1E
100
AcDbEntity
  8
BASE
  6
Continuous
100
AcDbLine
 10
165.0
 20
125.0
 30
0.0
 11
165.0
 21
167.5
 31
0.0
  0
LINE
  5
59B
330
1E
100
AcDbEntity
  8
BASE
  6
Continuous
100
AcDbLine
 10
165.0
 20
167.5
 30
0.0
 11
77.5
 21
167.5
 31
0.0
  0
LINE
  5
59C
330
1E
100
AcDbEntity
  8
BASE
  6
Continuous
100
AcDbLine
 10
77.5
 20
167.5
 30
0.0
 11
72.5
 21
167.5
 31
0.0
  0
LINE
  5
59D
330
1E
100
AcDbEntity
  8
BASE
  6
Continuous
100
AcDbLine
 10
70.0
 20
167.5
 30
0.0
 11
70.0
 21
147.5
 31
0.0
  0
LINE
  5
59E
330
1E
100
AcDbEntity
  8
BASE
  6
Continuous
100
AcDbLine
 10
162.5
 20
127.5
 30
0.0
 11
162.5
 21
165.0
 31
0.0
  0
LINE
  5
59F
330
1E
100
AcDbEntity
  8
BASE
  6
Continuous
100
AcDbLine
 10
162.5
 20
165.0
 30
0.0
 11
100.0
 21
165.0
 31
0.0
  0
LINE
  5
5A0
330
1E
100
AcDbEntity
  8
BASE
  6
Continuous
100
AcDbLine
 10
97.5
 20
165.0
 30
0.0
 11
97.5
 21
160.0
 31
0.0
  0
LINE
  5
5A1
330
1E
100
AcDbEntity
  8
BASE
  6
Continuous
100
AcDbLine
 10
85.0
 20
160.0
 30
0.0
 11
85.0
 21
162.5
 31
0.0
  0
LINE
  5
5A2
330
1E
100
AcDbEntity
  8
BASE
  6
Continuous
100
AcDbLine
 10
85.0
 20
162.5
 30
0.0
 11
65.0
 21
162.5
 31
0.0
  0
LINE
  5
5A3
330
1E
100
AcDbEntity
  8
BASE
  6
Continuous
100
AcDbLine
 10
65.0
 20
162.5
 30
0.0
 11
65.0
 21
138.6444942999506
 31
0.0
  0
LINE
  5
5A4
330
1E
100
AcDbEntity
  8
BASE
  6
Continuous
100
AcDbLine
 10
65.0
 20
138.6444942999506
 30
0.0
 11
55.0
 21
138.6444942999506
 31
0.0
  0
LINE
  5
5A5
330
1E
100
AcDbEntity
  8
BASE
  6
Continuous
100
AcDbLine
 10
157.5
 20
125.0
 30
0.0
 11
157.5
 21
152.5
 31
0.0
  0
LINE
  5
5A6
330
1E
100
AcDbEntity
  8
BASE
  6
Continuous
100
AcDbLine
 10
180.0
 20
147.5
 30
0.0
 11
160.0
 21
147.5
 31
0.0
  0
LINE
  5
5A7
330
1E
100
AcDbEntity
  8
BASE
  6
Continuous
100
AcDbLine
 10
180.0
 20
142.5
 30
0.0
 11
162.5
 21
142.5
 31
0.0
  0
LINE
  5
5A8
330
1E
100
AcDbEntity
  8
BASE
  6
Continuous
100
AcDbLine
 10
180.0
 20
131.9219120696915
 30
0.0
 11
165.0
 21
131.9219120696915
 31
0.0
  0
INSERT
  5
5A9
330
1E
100
AcDbEntity
  8
BASE
  6
Continuous
100
AcDbBlockReference
  2
BLC29
 10
176.9945940143276
 20
152.3715239862387
 30
0.0
 50
180.0
  0
INSERT
  5
5AA
330
1E
100
AcDbEntity
  8
BASE
  6
Continuous
100
AcDbBlockReference
  2
BLC29
 10
176.9945940143276
 20
147.3715239862387
 30
0.0
 50
180.0
  0
INSERT
  5
5AB
330
1E
100
AcDbEntity
  8
BASE
  6
Continuous
100
AcDbBlockReference
  2
BLC29
 10
176.9945940143276
 20
142.3715239862387
 30
0.0
 50
180.0
  0
INSERT
  5
5AC
330
1E
100
AcDbEntity
  8
BASE
  6
Continuous
100
AcDbBlockReference
  2
BLC29
 10
176.9945940143276
 20
131.7934611625037
 30
0.0
 50
180.0
  0
LINE
  5
5AD
330
1E
100
AcDbEntity
  8
0
  6
Continuous
100
AcDbLine
 10
222.5003446355935
 20
45.0
 30
0.0
 11
223.5003446355935
 21
46.0
 31
0.0
  0
LINE
  5
5AE
330
1E
100
AcDbEntity
  8
0
  6
Continuous
100
AcDbLine
 10
161.0
 20
45.0
 30
0.0
 11
160.0
 21
46.0
 31
0.0
  0
LINE
  5
5AF
330
1E
100
AcDbEntity
  8
0
  6
Continuous
100
AcDbLine
 10
162.5
 20
57.5
 30
0.0
 11
162.5
 21
50.0
 31
0.0
  0
LINE
  5
5B0
330
1E
100
AcDbEntity
  8
0
  6
Continuous
100
AcDbLine
 10
215.0
 20
57.5
 30
0.0
 11
215.0
 21
50.0
 31
0.0
  0
LINE
  5
5B1
330
1E
100
AcDbEntity
  8
0
  6
Continuous
100
AcDbLine
 10
222.5
 20
57.5
 30
0.0
 11
222.5
 21
50.0
 31
0.0
  0
LINE
  5
5B2
330
1E
100
AcDbEntity
  8
0
  6
HIDDEN
100
AcDbLine
 10
180.0
 20
57.5
 30
0.0
 11
180.0
 21
50.0
 31
0.0
  0
LINE
  5
5B3
330
1E
100
AcDbEntity
  8
0
  6
HIDDEN
100
AcDbLine
 10
210.4506146543173
 20
57.5
 30
0.0
 11
210.4506146543173
 21
50.0
 31
0.0
  0
TEXT
  5
5B4
330
1E
100
AcDbEntity
  8
0
  6
HIDDEN
100
AcDbText
 10
168.4849262609486
 20
38.6678154209957
 30
0.0
 40
2.0
  1
SHEET 2
  7
ROMANS
100
AcDbText
  0
TEXT
  5
5B5
330
1E
100
AcDbEntity
  8
0
  6
HIDDEN
100
AcDbText
 10
361.5459810080577
 20
233.6431668578647
 30
0.0
 40
2.5
  1
3U
  7
GREEKS
100
AcDbText
  0
LINE
  5
5B6
330
1E
100
AcDbEntity
  8
0
  6
Continuous
100
AcDbLine
 10
369.1212270747933
 20
234.9119037297493
 30
0.0
 11
366.7754615625676
 21
233.7219845810049
 31
0.0
  0
LINE
  5
5B7
330
1E
100
AcDbEntity
  8
0
  6
Continuous
100
AcDbLine
 10
366.7754615625676
 20
236.2472574411181
 30
0.0
 11
369.1212270747933
 21
234.9119037297493
 31
0.0
  0
LINE
  5
5B8
330
1E
100
AcDbEntity
  8
0
  6
Continuous
100
AcDbLine
 10
361.3282595718541
 20
230.7058844755603
 30
0.0
 11
361.3282595718541
 21
228.9177530629698
 31
0.0
  0
LINE
  5
5B9
330
1E
100
AcDbEntity
  8
0
  6
Continuous
100
AcDbLine
 10
361.3592912925636
 20
229.8606059230727
 30
0.0
 11
369.1474963193959
 21
229.8606059230727
 31
0.0
  0
LINE
  5
5BA
330
1E
100
AcDbEntity
  8
0
  6
Continuous
100
AcDbLine
 10
366.1888429294793
 20
232.0587686957545
 30
0.0
 11
367.0895197012898
 21
230.935019647376
 31
0.0
  0
ARC
  5
5BB
330
1E
100
AcDbEntity
  8
0
  6
HIDDEN
100
AcDbCircle
 10
368.0541591478469
 20
233.7891501221491
 30
0.0
 40
4.998195985283786
100
AcDbArc
 50
206.402921519098
 51
282.2111496748031
  0
LINE
  5
5BC
330
1E
100
AcDbEntity
  8
0
  6
Continuous
100
AcDbLine
 10
363.7434356885327
 20
228.6930032532942
 30
0.0
 11
366.6195463884319
 21
231.5215618336028
 31
0.0
  0
LINE
  5
5BD
330
1E
100
AcDbEntity
  8
0
  6
Continuous
100
AcDbLine
 10
369.142955091975
 20
230.7058844755603
 30
0.0
 11
369.142955091975
 21
228.9177530629698
 31
0.0
  0
LINE
  5
5BE
330
1E
100
AcDbEntity
  8
0
  6
Continuous
100
AcDbLine
 10
368.8333783530962
 20
223.6809689557679
 30
0.0
 11
366.4876128408706
 21
225.0163226671366
 31
0.0
  0
LINE
  5
5BF
330
1E
100
AcDbEntity
  8
0
  6
Continuous
100
AcDbLine
 10
366.4876128408706
 20
225.0163226671366
 30
0.0
 11
368.8333783530962
 21
226.206241815881
 31
0.0
  0
TEXT
  5
5C0
330
1E
100
AcDbEntity
  8
0
  6
HIDDEN
100
AcDbText
 10
361.5459810080577
 20
223.7295492127163
 30
0.0
 40
2.5
  1
3U
  7
GREEKS
100
AcDbText
  0
LINE
  5
5C1
330
1E
100
AcDbEntity
  8
0
  6
Continuous
100
AcDbLine
 10
361.3282595718541
 20
220.9674634542598
 30
0.0
 11
361.3282595718541
 21
219.1793320416693
 31
0.0
  0
LINE
  5
5C2
330
1E
100
AcDbEntity
  8
0
  6
Continuous
100
AcDbLine
 10
361.3592912925636
 20
220.1221849017722
 30
0.0
 11
369.1474963193959
 21
220.1221849017722
 31
0.0
  0
LINE
  5
5C3
330
1E
100
AcDbEntity
  8
0
  6
Continuous
100
AcDbLine
 10
363.7434356885327
 20
218.9545822319936
 30
0.0
 11
366.6195463884319
 21
221.7831408123023
 31
0.0
  0
LINE
  5
5C4
330
1E
100
AcDbEntity
  8
0
  6
Continuous
100
AcDbLine
 10
366.1888429294793
 20
222.320347674454
 30
0.0
 11
367.0895197012898
 21
221.1965986260755
 31
0.0
  0
LINE
  5
5C5
330
1E
100
AcDbEntity
  8
0
  6
Continuous
100
AcDbLine
 10
369.142955091975
 20
220.9674634542598
 30
0.0
 11
369.142955091975
 21
219.1793320416693
 31
0.0
  0
LINE
  5
5C6
330
1E
100
AcDbEntity
  8
0
  6
Continuous
100
AcDbLine
 10
372.5193182677949
 20
210.6022254497213
 30
0.0
 11
372.5193182677949
 21
208.8140940371308
 31
0.0
  0
LINE
  5
5C7
330
1E
100
AcDbEntity
  8
0
  6
Continuous
100
AcDbLine
 10
369.5652061052992
 20
211.9551096699155
 30
0.0
 11
370.4658828771097
 21
210.831360621537
 31
0.0
  0
LINE
  5
5C8
330
1E
100
AcDbEntity
  8
0
  6
Continuous
100
AcDbLine
 10
367.1197988643526
 20
208.5893442274552
 30
0.0
 11
369.9959095642518
 21
211.4179028077638
 31
0.0
  0
LINE
  5
5C9
330
1E
100
AcDbEntity
  8
0
  6
Continuous
100
AcDbLine
 10
364.7356544683835
 20
209.7569468972337
 30
0.0
 11
372.5238594952158
 21
209.7569468972337
 31
0.0
  0
LINE
  5
5CA
330
1E
100
AcDbEntity
  8
0
  6
Continuous
100
AcDbLine
 10
364.7046227476741
 20
210.6022254497213
 30
0.0
 11
364.7046227476741
 21
208.8140940371308
 31
0.0
  0
TEXT
  5
5CB
330
1E
100
AcDbEntity
  8
0
  6
Continuous
100
AcDbText
 10
358.5954654399988
 20
209.1124707514809
 30
0.0
 40
2.5
  1
n
  7
GREEKS
100
AcDbText
  0
TEXT
  5
5CC
330
1E
100
AcDbEntity
  8
0
  6
Continuous
100
AcDbText
 10
361.987037458953
 20
209.0904404900472
 30
0.0
 40
2.0
  1
x
  7
GREEKS
100
AcDbText
  0
TEXT
  5
5CD
330
1E
100
AcDbEntity
  8
0
  6
DASHED
100
AcDbText
 10
317.5
 20
27.5
 30
0.0
 40
2.0
  1
TERMINAL DIAGRAM / UTTAGSSCHEMA
  7
ROMANS
100
AcDbText
  0
TEXT
  5
5CE
330
1E
100
AcDbEntity
  8
0
  6
DASHED
100
AcDbText
 10
317.5
 20
24.16666666666666
 30
0.0
 40
2.0
  1
SPAC 534 C6 WITH TEST SWITCH
  7
ROMANS
100
AcDbText
  0
TEXT
  5
5CF
330
1E
100
AcDbEntity
  8
0
  6
DASHED
100
AcDbText
 10
351.2494917353757
 20
199.6335513031689
 30
0.0
 40
2.0
  1
FEEDER TERMINAL /
  7
ROMANS
100
AcDbText
  0
TEXT
  5
5D0
330
1E
100
AcDbEntity
  8
0
  6
DASHED
100
AcDbText
 10
351.2494917353757
 20
196.3002179698355
 30
0.0
 40
2.0
  1
LEDNINGSTERMINAL
  7
ROMANS
100
AcDbText
  0
INSERT
  5
5D1
330
1E
100
AcDbEntity
  8
0
  6
DASHED
100
AcDbBlockReference
  2
ABBA3V
 10
0.3423617834804103
 20
0.3411522812742588
 30
0.0
  0
TEXT
  5
5D2
330
1E
100
AcDbEntity
  8
0
  6
DASHED
100
AcDbText
 10
212.7892604940932
 20
28.01330523106288
 30
0.0
 40
2.0
  1
1997-10-01 KL/VTOL
  7
ROMANS
100
AcDbText
  0
TEXT
  5
5D3
330
1E
100
AcDbEntity
  8
0
  6
DASHED
100
AcDbText
 10
322.4971920012927
 20
2.512165475662294
 30
0.0
 40
2.5
  1
1MRS 10242-AAG
  7
ROMANS
100
AcDbText
  0
TEXT
  5
5D4
330
1E
100
AcDbEntity
  8
0
  6
DASHED
100
AcDbText
 10
40.32000804291576
 20
52.48955043276759
 30
0.0
 40
2.0
  1
DIM. 190 X 250
  7
ROMANS
100
AcDbText
  0
TEXT
  5
5D5
330
1E
100
AcDbEntity
  8
0
  6
DASHED
100
AcDbText
 10
40.32000804291576
 20
49.15621709943426
 30
0.0
 40
2.0
  1
1MRS 10242-AAG
  7
ROMANS
100
AcDbText
  0
TEXT
  5
5D6
330
1E
100
AcDbEntity
  8
BASE
  6
DASHED
100
AcDbText
 10
45.12328306304879
 20
237.4995479321906
 30
0.0
 40
2.0
  1
1MRS 10242-AA SPAC 534 C
  7
ROMANS
100
AcDbText
  0
TEXT
  5
5D7
330
1E
100
AcDbEntity
  8
0
  6
Continuous
100
AcDbText
 10
380.0
 20
2.5
 30
0.0
 40
2.5
  1
A
  7
ROMANS
100
AcDbText
  0
LWPOLYLINE
  5
5D8
330
1E
100
AcDbEntity
  8
BASE
  6
Continuous
100
AcDbPolyline
 90
        2
 70
     1
 43
0.5
 10
162.0
 20
142.5
 42
1.0
 10
163.0
 20
142.5
 42
1.0
  0
LWPOLYLINE
  5
5DC
330
1E
100
AcDbEntity
  8
BASE
  6
Continuous
100
AcDbPolyline
 90
        2
 70
     1
 43
0.5
 10
159.4999999999999
 20
147.5
 42
1.0
 10
160.4999999999999
 20
147.5
 42
1.0
  0
LWPOLYLINE
  5
5E0
330
1E
100
AcDbEntity
  8
BASE
  6
Continuous
100
AcDbPolyline
 90
        2
 70
     1
 43
0.5
 10
157.0
 20
152.5
 42
1.0
 10
158.0
 20
152.5
 42
1.0
  0
LWPOLYLINE
  5
5E4
330
1E
100
AcDbEntity
  8
BASE
  6
Continuous
100
AcDbPolyline
 90
        2
 70
     1
 43
0.5
 10
74.5
 20
162.5
 42
1.0
 10
75.5
 20
162.5
 42
1.0
  0
LWPOLYLINE
  5
5E8
330
1E
100
AcDbEntity
  8
BASE
  6
Continuous
100
AcDbPolyline
 90
        2
 70
     1
 43
0.5
 10
54.5
 20
138.6444942999506
 42
1.0
 10
55.5
 20
138.6444942999506
 42
1.0
  0
LWPOLYLINE
  5
5EC
330
1E
100
AcDbEntity
  8
BASE
  6
Continuous
100
AcDbPolyline
 90
        2
 70
     1
 43
0.5
 10
47.0
 20
207.5
 42
1.0
 10
48.0
 20
207.5
 42
1.0
  0
LWPOLYLINE
  5
5F0
330
1E
100
AcDbEntity
  8
BASE
  6
Continuous
100
AcDbPolyline
 90
        2
 70
     1
 43
0.5
 10
164.5
 20
131.9219120696915
 42
1.0
 10
165.5
 20
131.9219120696915
 42
1.0
  0
LWPOLYLINE
  5
5F4
330
1E
100
AcDbEntity
  8
0
  6
Continuous
100
AcDbPolyline
 90
        2
 70
     1
 43
0.5
 10
222.0
 20
103.0
 42
1.0
 10
223.0
 20
103.0
 42
1.0
  0
TEXT
  5
5F8
330
1E
100
AcDbEntity
  8
0
  6
DASHED
100
AcDbText
 10
317.5
 20
20.66666666666666
 30
0.0
 40
2.0
  1
SPAC 534 C6 MED PROVDON
  7
ROMANS
100
AcDbText
  0
LINE
  5
5F9
330
1E
100
AcDbEntity
  8
0
  6
DASHED
100
AcDbLine
 10
254.4999999999999
 20
98.50000000000001
 30
0.0
 11
263.0
 21
98.50000000000001
 31
0.0
  0
LINE
  5
5FA
330
1E
100
AcDbEntity
  8
0
  6
DASHED
100
AcDbLine
 10
254.4999999999999
 20
116.5
 30
0.0
 11
263.0
 21
116.5
 31
0.0
  0
LINE
  5
5FB
330
1E
100
AcDbEntity
  8
0
  6
DASHED
100
AcDbLine
 10
254.4999999999999
 20
80.0
 30
0.0
 11
273.0
 21
80.0
 31
0.0
  0
LINE
  5
5FC
330
1E
100
AcDbEntity
  8
0
  6
Continuous
100
AcDbLine
 10
255.5
 20
89.50000000000001
 30
0.0
 11
263.0
 21
89.50000000000001
 31
0.0
  0
TEXT
  5
5FD
330
1E
100
AcDbEntity
  8
0
  6
Continuous
100
AcDbText
 10
249.5164133797189
 20
86.11428699592091
 30
0.0
 40
2.0
  1
101:23A
  7
ROMANS
100
AcDbText
  0
TEXT
  5
5FE
330
1E
100
AcDbEntity
  8
0
  6
Continuous
100
AcDbText
 10
247.0164133797189
 20
76.6142869959209
 30
0.0
 40
2.0
  1
108:X0:19
  7
ROMANS
100
AcDbText
  0
LINE
  5
5FF
330
1E
100
AcDbEntity
  8
0
  6
Continuous
100
AcDbLine
 10
263.5
 20
80.0
 30
0.0
 11
232.0
 21
80.0
 31
0.0
  0
TEXT
  5
600
330
1E
100
AcDbEntity
  8
0
  6
Continuous
100
AcDbText
 10
249.5164133797189
 20
104.6142869959209
 30
0.0
 40
2.0
  1
101:22A
  7
ROMANS
100
AcDbText
  0
LINE
  5
601
330
1E
100
AcDbEntity
  8
0
  6
Continuous
100
AcDbLine
 10
255.5
 20
108.0
 30
0.0
 11
263.0
 21
108.0
 31
0.0
  0
TEXT
  5
602
330
1E
100
AcDbEntity
  8
0
  6
Continuous
100
AcDbText
 10
247.0164133797189
 20
95.11428699592091
 30
0.0
 40
2.0
  1
108:X0:16
  7
ROMANS
100
AcDbText
  0
LINE
  5
603
330
1E
100
AcDbEntity
  8
0
  6
Continuous
100
AcDbLine
 10
263.5
 20
98.50000000000001
 30
0.0
 11
232.0
 21
98.50000000000001
 31
0.0
  0
TEXT
  5
604
330
1E
100
AcDbEntity
  8
0
  6
Continuous
100
AcDbText
 10
247.0164133797189
 20
113.1142869959208
 30
0.0
 40
2.0
  1
108:X0:13
  7
ROMANS
100
AcDbText
  0
LINE
  5
605
330
1E
100
AcDbEntity
  8
0
  6
Continuous
100
AcDbLine
 10
255.5
 20
126.0
 30
0.0
 11
263.0
 21
126.0
 31
0.0
  0
LINE
  5
606
330
1E
100
AcDbEntity
  8
0
  6
Continuous
100
AcDbLine
 10
263.5
 20
116.5
 30
0.0
 11
232.0
 21
116.5
 31
0.0
  0
TEXT
  5
607
330
1E
100
AcDbEntity
  8
0
  6
Continuous
100
AcDbText
 10
249.5164133797189
 20
122.6142869959209
 30
0.0
 40
2.0
  1
101:21A
  7
ROMANS
100
AcDbText
  0
LINE
  5
608
330
1E
100
AcDbEntity
  8
BASE
  6
Continuous
100
AcDbLine
 10
230.5
 20
126.0
 30
0.0
 11
230.5
 21
82.5
 31
0.0
  0
LINE
  5
609
330
1E
100
AcDbEntity
  8
0
  6
Continuous
100
AcDbLine
 10
230.5
 20
83.0
 30
0.0
 11
230.5
 21
80.0
 31
0.0
  0
LINE
  5
60A
330
1E
100
AcDbEntity
  8
BASE
  6
Continuous
100
AcDbLine
 10
230.5
 20
80.0
 30
0.0
 11
231.4999999999999
 21
79.0
 31
0.0
  0
LINE
  5
60B
330
1E
100
AcDbEntity
  8
0
  6
Continuous
 62
     7
100
AcDbLine
 10
243.0
 20
89.50000000000001
 30
0.0
 11
248.4999999999999
 21
89.50000000000001
 31
0.0
  0
LINE
  5
60C
330
1E
100
AcDbEntity
  8
0
  6
Continuous
100
AcDbLine
 10
243.0
 20
89.50000000000001
 30
0.0
 11
232.0
 21
89.50000000000001
 31
0.0
  0
LINE
  5
60D
330
1E
100
AcDbEntity
  8
0
  6
Continuous
 62
     7
100
AcDbLine
 10
254.1213203435596
 20
89.41421356237308
 30
0.0
 11
247.4038059222874
 21
91.18198051533946
 31
0.0
  0
LINE
  5
60E
330
1E
100
AcDbEntity
  8
0
  6
Continuous
 62
     7
100
AcDbLine
 10
248.4999999999999
 20
89.50000000000001
 30
0.0
 11
248.4999999999999
 21
91.5
 31
0.0
  0
LINE
  5
60F
330
1E
100
AcDbEntity
  8
0
  6
Continuous
 62
     7
100
AcDbLine
 10
247.4038059222874
 20
91.18198051533946
 30
0.0
 11
247.2416893465318
 21
90.38934013452021
 31
0.0
  0
LINE
  5
610
330
1E
100
AcDbEntity
  8
0
  6
Continuous
100
AcDbLine
 10
248.4999999999999
 20
91.0
 30
0.0
 11
248.4999999999999
 21
92.0
 31
0.0
  0
LINE
  5
611
330
1E
100
AcDbEntity
  8
0
  6
Continuous
100
AcDbLine
 10
254.4999999999999
 20
89.50000000000001
 30
0.0
 11
254.0
 21
89.50000000000001
 31
0.0
  0
INSERT
  5
612
330
1E
100
AcDbEntity
  8
BASE
  6
Continuous
100
AcDbBlockReference
  2
BLC29
 10
227.8947750756322
 20
102.8729919069431
 30
0.0
 50
180.0
  0
LINE
  5
613
330
1E
100
AcDbEntity
  8
0
  6
Continuous
 62
     7
100
AcDbLine
 10
243.0
 20
108.0
 30
0.0
 11
248.4999999999999
 21
108.0
 31
0.0
  0
LINE
  5
614
330
1E
100
AcDbEntity
  8
0
  6
Continuous
100
AcDbLine
 10
243.0
 20
108.0
 30
0.0
 11
232.0
 21
108.0
 31
0.0
  0
LINE
  5
615
330
1E
100
AcDbEntity
  8
0
  6
Continuous
 62
     7
100
AcDbLine
 10
254.1213203435596
 20
107.914213562373
 30
0.0
 11
247.4038059222874
 21
109.6819805153394
 31
0.0
  0
LINE
  5
616
330
1E
100
AcDbEntity
  8
0
  6
Continuous
 62
     7
100
AcDbLine
 10
248.4999999999999
 20
108.0
 30
0.0
 11
248.4999999999999
 21
110.0
 31
0.0
  0
LINE
  5
617
330
1E
100
AcDbEntity
  8
0
  6
Continuous
100
AcDbLine
 10
248.4999999999999
 20
109.4999999999999
 30
0.0
 11
248.4999999999999
 21
110.4999999999999
 31
0.0
  0
LINE
  5
618
330
1E
100
AcDbEntity
  8
0
  6
Continuous
 62
     7
100
AcDbLine
 10
247.4038059222874
 20
109.6819805153394
 30
0.0
 11
247.2416893465318
 21
108.8893401345202
 31
0.0
  0
LINE
  5
619
330
1E
100
AcDbEntity
  8
0
  6
Continuous
100
AcDbLine
 10
255.0
 20
108.0
 30
0.0
 11
254.0
 21
108.0
 31
0.0
  0
LINE
  5
61A
330
1E
100
AcDbEntity
  8
0
  6
Continuous
 62
     7
100
AcDbLine
 10
243.0
 20
126.0
 30
0.0
 11
248.4999999999999
 21
126.0
 31
0.0
  0
LINE
  5
61B
330
1E
100
AcDbEntity
  8
0
  6
Continuous
100
AcDbLine
 10
243.0
 20
126.0
 30
0.0
 11
232.0
 21
126.0
 31
0.0
  0
LINE
  5
61C
330
1E
100
AcDbEntity
  8
BASE
  6
Continuous
100
AcDbLine
 10
230.5
 20
126.0
 30
0.0
 11
231.4999999999999
 21
127.0
 31
0.0
  0
LINE
  5
61D
330
1E
100
AcDbEntity
  8
0
  6
Continuous
 62
     7
100
AcDbLine
 10
254.1213203435596
 20
125.914213562373
 30
0.0
 11
247.4038059222874
 21
127.6819805153394
 31
0.0
  0
LINE
  5
61E
330
1E
100
AcDbEntity
  8
0
  6
Continuous
 62
     7
100
AcDbLine
 10
248.4999999999999
 20
126.0
 30
0.0
 11
248.4999999999999
 21
128.0
 31
0.0
  0
LINE
  5
61F
330
1E
100
AcDbEntity
  8
0
  6
Continuous
 62
     7
100
AcDbLine
 10
247.4038059222874
 20
127.6819805153394
 30
0.0
 11
247.2416893465318
 21
126.8893401345202
 31
0.0
  0
LINE
  5
620
330
1E
100
AcDbEntity
  8
0
  6
Continuous
100
AcDbLine
 10
248.4999999999999
 20
127.5
 30
0.0
 11
248.4999999999999
 21
128.4999999999999
 31
0.0
  0
LINE
  5
621
330
1E
100
AcDbEntity
  8
0
  6
Continuous
100
AcDbLine
 10
255.0
 20
126.0
 30
0.0
 11
254.0
 21
126.0
 31
0.0
  0
LINE
  5
622
330
1E
100
AcDbEntity
  8
0
  6
DASHED
100
AcDbLine
 10
273.0
 20
80.0
 30
0.0
 11
273.0
 21
126.0
 31
0.0
  0
LINE
  5
623
330
1E
100
AcDbEntity
  8
0
  6
DASHED
100
AcDbLine
 10
268.2001438435523
 20
98.50000000000001
 30
0.0
 11
268.2001438435523
 21
89.50000000000001
 31
0.0
  0
LWPOLYLINE
  5
624
330
1E
100
AcDbEntity
  8
0
  6
Continuous
100
AcDbPolyline
 90
        2
 70
     1
 43
0.5
 10
267.7001438435523
 20
89.50000000000001
 42
1.0
 10
268.7001438435523
 20
89.50000000000001
 42
1.0
  0
LINE
  5
628
330
1E
100
AcDbEntity
  8
0
  6
DASHED
100
AcDbLine
 10
263.5
 20
98.50000000000001
 30
0.0
 11
268.0
 21
98.50000000000001
 31
0.0
  0
LINE
  5
629
330
1E
100
AcDbEntity
  8
0
  6
DASHED
100
AcDbLine
 10
268.2001438435523
 20
116.5
 30
0.0
 11
268.2001438435523
 21
108.0
 31
0.0
  0
LWPOLYLINE
  5
62A
330
1E
100
AcDbEntity
  8
0
  6
Continuous
100
AcDbPolyline
 90
        2
 70
     1
 43
0.5
 10
267.7001438435523
 20
108.0
 42
1.0
 10
268.7001438435523
 20
108.0
 42
1.0
  0
LINE
  5
62E
330
1E
100
AcDbEntity
  8
0
  6
DASHED
100
AcDbLine
 10
263.5
 20
116.5
 30
0.0
 11
268.0
 21
116.5
 31
0.0
  0
LWPOLYLINE
  5
62F
330
1E
100
AcDbEntity
  8
0
  6
Continuous
100
AcDbPolyline
 90
        2
 70
     1
 43
0.5
 10
272.5
 20
126.0
 42
1.0
 10
273.4999999999999
 20
126.0
 42
1.0
  0
LINE
  5
633
330
1E
100
AcDbEntity
  8
0
  6
DASHED
100
AcDbLine
 10
335.0
 20
258.4999999999999
 30
0.0
 11
277.4999999999999
 21
258.4999999999999
 31
0.0
  0
LINE
  5
634
330
1E
100
AcDbEntity
  8
0
  6
DASHED
100
AcDbLine
 10
335.0
 20
253.4999999999999
 30
0.0
 11
277.4999999999999
 21
253.5
 31
0.0
  0
LINE
  5
635
330
1E
100
AcDbEntity
  8
0
  6
DASHED
100
AcDbLine
 10
335.0
 20
248.4999999999999
 30
0.0
 11
277.4999999999999
 21
248.4999999999999
 31
0.0
  0
LINE
  5
636
330
1E
100
AcDbEntity
  8
0
  6
DASHED
100
AcDbLine
 10
230.5
 20
212.0
 30
0.0
 11
230.5
 21
214.5
 31
0.0
  0
LINE
  5
637
330
1E
100
AcDbEntity
  8
0
  6
DASHED
100
AcDbLine
 10
280.0
 20
214.5
 30
0.0
 11
280.0
 21
211.5
 31
0.0
  0
LINE
  5
638
330
1E
100
AcDbEntity
  8
0
  6
Continuous
 62
     7
100
AcDbLine
 10
241.0
 20
219.4999999999999
 30
0.0
 11
241.0
 21
209.5
 31
0.0
  0
TEXT
  5
639
330
1E
100
AcDbEntity
  8
0
  6
Continuous
100
AcDbText
 10
300.195347157053
 20
213.5002205949603
 30
0.0
 40
2.0
  1
P/Q
  7
ROMANS
100
AcDbText
  0
LINE
  5
63A
330
1E
100
AcDbEntity
  8
0
  6
DASHED
100
AcDbLine
 10
295.0
 20
220.0
 30
0.0
 11
295.0
 21
187.5
 31
0.0
  0
LINE
  5
63B
330
1E
100
AcDbEntity
  8
0
  6
DASHED
100
AcDbLine
 10
290.0
 20
220.0
 30
0.0
 11
290.0
 21
187.5
 31
0.0
  0
LINE
  5
63C
330
1E
100
AcDbEntity
  8
0
  6
DASHED
100
AcDbLine
 10
285.0
 20
220.0
 30
0.0
 11
285.0
 21
187.5
 31
0.0
  0
LINE
  5
63D
330
1E
100
AcDbEntity
  8
0
  6
DASHED
100
AcDbLine
 10
254.4999999999999
 20
188.4999999999999
 30
0.0
 11
265.0
 21
188.4999999999999
 31
0.0
  0
LINE
  5
63E
330
1E
100
AcDbEntity
  8
0
  6
DASHED
100
AcDbLine
 10
254.4999999999999
 20
209.5
 30
0.0
 11
263.0
 21
209.5
 31
0.0
  0
LINE
  5
63F
330
1E
100
AcDbEntity
  8
0
  6
Continuous
100
AcDbLine
 10
253.0
 20
188.4999999999999
 30
0.0
 11
263.0
 21
188.4999999999999
 31
0.0
  0
LINE
  5
640
330
1E
100
AcDbEntity
  8
0
  6
Continuous
100
AcDbLine
 10
253.0
 20
209.5
 30
0.0
 11
262.0
 21
209.5
 31
0.0
  0
LINE
  5
641
330
1E
100
AcDbEntity
  8
0
  6
Continuous
100
AcDbLine
 10
263.5
 20
168.5
 30
0.0
 11
255.0
 21
168.5
 31
0.0
  0
LINE
  5
642
330
1E
100
AcDbEntity
  8
0
  6
Continuous
100
AcDbLine
 10
263.5
 20
178.5
 30
0.0
 11
255.0
 21
178.5
 31
0.0
  0
LINE
  5
643
330
1E
100
AcDbEntity
  8
0
  6
Continuous
100
AcDbLine
 10
263.5
 20
198.5
 30
0.0
 11
255.0
 21
198.5
 31
0.0
  0
TEXT
  5
644
330
1E
100
AcDbEntity
  8
0
  6
Continuous
100
AcDbText
 10
256.0164133797189
 20
175.6142869959209
 30
0.0
 40
2.0
  1
17A
  7
ROMANS
100
AcDbText
  0
TEXT
  5
645
330
1E
100
AcDbEntity
  8
0
  6
Continuous
100
AcDbText
 10
256.0164133797189
 20
165.6142869959209
 30
0.0
 40
2.0
  1
18A
  7
ROMANS
100
AcDbText
  0
TEXT
  5
646
330
1E
100
AcDbEntity
  8
0
  6
Continuous
100
AcDbText
 10
256.0164133797189
 20
195.6142869959209
 30
0.0
 40
2.0
  1
15A
  7
ROMANS
100
AcDbText
  0
TEXT
  5
647
330
1E
100
AcDbEntity
  8
0
  6
Continuous
100
AcDbText
 10
256.0164133797189
 20
185.6142869959209
 30
0.0
 40
2.0
  1
16A
  7
ROMANS
100
AcDbText
  0
TEXT
  5
648
330
1E
100
AcDbEntity
  8
0
  6
Continuous
100
AcDbText
 10
256.0164133797189
 20
206.6142869959209
 30
0.0
 40
2.0
  1
14A
  7
ROMANS
100
AcDbText
  0
LINE
  5
649
330
1E
100
AcDbEntity
  8
0
  6
DASHED
100
AcDbLine
 10
255.0
 20
168.5
 30
0.0
 11
280.0
 21
168.5
 31
0.0
  0
LINE
  5
64A
330
1E
100
AcDbEntity
  8
0
  6
Continuous
 62
     7
100
AcDbLine
 10
241.0
 20
178.5
 30
0.0
 11
241.0
 21
168.5
 31
0.0
  0
LINE
  5
64B
330
1E
100
AcDbEntity
  8
0
  6
DASHED
100
AcDbLine
 10
230.5
 20
171.0
 30
0.0
 11
230.5
 21
173.5
 31
0.0
  0
LINE
  5
64C
330
1E
100
AcDbEntity
  8
BASE
  6
Continuous
100
AcDbLine
 10
230.5
 20
212.5
 30
0.0
 11
230.5
 21
167.5
 31
0.0
  0
LINE
  5
64D
330
1E
100
AcDbEntity
  8
0
  6
Continuous
 62
     7
100
AcDbLine
 10
241.0
 20
168.5
 30
0.0
 11
248.0
 21
168.5
 31
0.0
  0
LINE
  5
64E
330
1E
100
AcDbEntity
  8
0
  6
Continuous
 62
     7
100
AcDbLine
 10
241.0
 20
163.4999999999999
 30
0.0
 11
248.0
 21
163.4999999999999
 31
0.0
  0
LINE
  5
64F
330
1E
100
AcDbEntity
  8
0
  6
Continuous
100
AcDbLine
 10
241.0
 20
163.4999999999999
 30
0.0
 11
232.0
 21
163.4999999999999
 31
0.0
  0
LINE
  5
650
330
1E
100
AcDbEntity
  8
0
  6
Continuous
100
AcDbLine
 10
230.5
 20
163.4999999999999
 30
0.0
 11
230.5
 21
167.5
 31
0.0
  0
LINE
  5
651
330
1E
100
AcDbEntity
  8
BASE
  6
Continuous
100
AcDbLine
 10
230.5
 20
163.4999999999999
 30
0.0
 11
231.4999999999999
 21
162.5
 31
0.0
  0
LINE
  5
652
330
1E
100
AcDbEntity
  8
0
  6
Continuous
 62
     7
100
AcDbLine
 10
253.0
 20
168.5
 30
0.0
 11
247.0
 21
165.0
 31
0.0
  0
LINE
  5
653
330
1E
100
AcDbEntity
  8
0
  6
DASHED
 62
     7
100
AcDbLine
 10
248.0
 20
163.4999999999999
 30
0.0
 11
248.0
 21
166.5
 31
0.0
  0
LINE
  5
654
330
1E
100
AcDbEntity
  8
0
  6
DASHED
 62
     7
100
AcDbLine
 10
246.6633857266399
 20
165.4730585806828
 30
0.0
 11
247.338021601642
 21
164.3721498564556
 31
0.0
  0
LINE
  5
655
330
1E
100
AcDbEntity
  8
0
  6
Continuous
100
AcDbLine
 10
253.0
 20
168.5
 30
0.0
 11
255.5
 21
168.5
 31
0.0
  0
LINE
  5
656
330
1E
100
AcDbEntity
  8
0
  6
Continuous
 62
     7
100
AcDbLine
 10
241.0
 20
198.5
 30
0.0
 11
241.0
 21
188.4999999999999
 31
0.0
  0
LINE
  5
657
330
1E
100
AcDbEntity
  8
0
  6
DASHED
100
AcDbLine
 10
230.5
 20
191.0
 30
0.0
 11
230.5
 21
193.5
 31
0.0
  0
LINE
  5
658
330
1E
100
AcDbEntity
  8
0
  6
Continuous
 62
     7
100
AcDbLine
 10
239.5
 20
173.5
 30
0.0
 11
245.0
 21
173.5
 31
0.0
  0
LINE
  5
659
330
1E
100
AcDbEntity
  8
0
  6
Continuous
 62
     7
100
AcDbLine
 10
241.0
 20
178.5
 30
0.0
 11
248.0
 21
178.5
 31
0.0
  0
LINE
  5
65A
330
1E
100
AcDbEntity
  8
0
  6
Continuous
 62
     7
100
AcDbLine
 10
248.0
 20
173.5
 30
0.0
 11
240.5
 21
173.5
 31
0.0
  0
LINE
  5
65B
330
1E
100
AcDbEntity
  8
0
  6
Continuous
 62
     7
100
AcDbLine
 10
241.0
 20
183.4999999999999
 30
0.0
 11
248.0
 21
183.4999999999999
 31
0.0
  0
LINE
  5
65C
330
1E
100
AcDbEntity
  8
0
  6
Continuous
 62
     7
100
AcDbLine
 10
241.0
 20
188.4999999999999
 30
0.0
 11
248.0
 21
188.4999999999999
 31
0.0
  0
LINE
  5
65D
330
1E
100
AcDbEntity
  8
0
  6
Continuous
100
AcDbLine
 10
240.0
 20
173.5
 30
0.0
 11
232.0
 21
173.5
 31
0.0
  0
LINE
  5
65E
330
1E
100
AcDbEntity
  8
0
  6
Continuous
100
AcDbLine
 10
241.0
 20
183.4999999999999
 30
0.0
 11
232.0
 21
183.4999999999999
 31
0.0
  0
LINE
  5
65F
330
1E
100
AcDbEntity
  8
0
  6
Continuous
 62
     7
100
AcDbLine
 10
253.0
 20
178.5
 30
0.0
 11
247.0
 21
175.0
 31
0.0
  0
LINE
  5
660
330
1E
100
AcDbEntity
  8
0
  6
DASHED
 62
     7
100
AcDbLine
 10
248.0
 20
173.5
 30
0.0
 11
248.0
 21
176.5
 31
0.0
  0
LINE
  5
661
330
1E
100
AcDbEntity
  8
0
  6
DASHED
 62
     7
100
AcDbLine
 10
246.6633857266399
 20
175.4730585806828
 30
0.0
 11
247.338021601642
 21
174.3721498564556
 31
0.0
  0
LINE
  5
662
330
1E
100
AcDbEntity
  8
0
  6
Continuous
100
AcDbLine
 10
253.0
 20
178.5
 30
0.0
 11
255.0
 21
178.5
 31
0.0
  0
LINE
  5
663
330
1E
100
AcDbEntity
  8
0
  6
Continuous
 62
     7
100
AcDbLine
 10
253.0
 20
188.4999999999999
 30
0.0
 11
247.0
 21
185.0
 31
0.0
  0
LINE
  5
664
330
1E
100
AcDbEntity
  8
0
  6
DASHED
 62
     7
100
AcDbLine
 10
246.6633857266399
 20
185.4730585806828
 30
0.0
 11
247.338021601642
 21
184.3721498564556
 31
0.0
  0
LINE
  5
665
330
1E
100
AcDbEntity
  8
0
  6
DASHED
 62
     7
100
AcDbLine
 10
248.0
 20
183.4999999999999
 30
0.0
 11
248.0
 21
186.5
 31
0.0
  0
LINE
  5
666
330
1E
100
AcDbEntity
  8
0
  6
Continuous
 62
     7
100
AcDbLine
 10
239.5
 20
193.5
 30
0.0
 11
245.0
 21
193.5
 31
0.0
  0
LINE
  5
667
330
1E
100
AcDbEntity
  8
0
  6
Continuous
 62
     7
100
AcDbLine
 10
248.0
 20
193.5
 30
0.0
 11
240.5
 21
193.5
 31
0.0
  0
LINE
  5
668
330
1E
100
AcDbEntity
  8
0
  6
Continuous
 62
     7
100
AcDbLine
 10
241.0
 20
198.5
 30
0.0
 11
248.0
 21
198.5
 31
0.0
  0
LINE
  5
669
330
1E
100
AcDbEntity
  8
0
  6
Continuous
 62
     7
100
AcDbLine
 10
241.0
 20
209.5
 30
0.0
 11
248.0
 21
209.5
 31
0.0
  0
LINE
  5
66A
330
1E
100
AcDbEntity
  8
0
  6
Continuous
 62
     7
100
AcDbLine
 10
241.0
 20
204.4999999999999
 30
0.0
 11
248.0
 21
204.4999999999999
 31
0.0
  0
LINE
  5
66B
330
1E
100
AcDbEntity
  8
0
  6
Continuous
100
AcDbLine
 10
240.0
 20
193.5
 30
0.0
 11
232.0
 21
193.5
 31
0.0
  0
LINE
  5
66C
330
1E
100
AcDbEntity
  8
0
  6
Continuous
100
AcDbLine
 10
241.0
 20
204.4999999999999
 30
0.0
 11
232.0
 21
204.4999999999999
 31
0.0
  0
LINE
  5
66D
330
1E
100
AcDbEntity
  8
0
  6
Continuous
 62
     7
100
AcDbLine
 10
253.0
 20
198.5
 30
0.0
 11
247.0
 21
195.0
 31
0.0
  0
LINE
  5
66E
330
1E
100
AcDbEntity
  8
0
  6
DASHED
 62
     7
100
AcDbLine
 10
246.6633857266399
 20
195.4730585806828
 30
0.0
 11
247.338021601642
 21
194.3721498564556
 31
0.0
  0
LINE
  5
66F
330
1E
100
AcDbEntity
  8
0
  6
DASHED
 62
     7
100
AcDbLine
 10
248.0
 20
193.5
 30
0.0
 11
248.0
 21
196.5
 31
0.0
  0
LINE
  5
670
330
1E
100
AcDbEntity
  8
0
  6
Continuous
100
AcDbLine
 10
253.0
 20
198.5
 30
0.0
 11
255.0
 21
198.5
 31
0.0
  0
LINE
  5
671
330
1E
100
AcDbEntity
  8
0
  6
Continuous
 62
     7
100
AcDbLine
 10
253.0
 20
209.5
 30
0.0
 11
247.0
 21
206.0
 31
0.0
  0
LINE
  5
672
330
1E
100
AcDbEntity
  8
0
  6
DASHED
 62
     7
100
AcDbLine
 10
248.0
 20
204.4999999999999
 30
0.0
 11
248.0
 21
207.5
 31
0.0
  0
LINE
  5
673
330
1E
100
AcDbEntity
  8
0
  6
DASHED
 62
     7
100
AcDbLine
 10
246.6633857266399
 20
206.4730585806828
 30
0.0
 11
247.338021601642
 21
205.3721498564556
 31
0.0
  0
LINE
  5
674
330
1E
100
AcDbEntity
  8
0
  6
DASHED
100
AcDbLine
 10
271.4999999999999
 20
209.5
 30
0.0
 11
271.4999999999999
 21
168.5
 31
0.0
  0
LINE
  5
675
330
1E
100
AcDbEntity
  8
0
  6
DASHED
100
AcDbLine
 10
280.0
 20
212.0
 30
0.0
 11
280.0
 21
168.5
 31
0.0
  0
LINE
  5
676
330
1E
100
AcDbEntity
  8
0
  6
DASHED
100
AcDbLine
 10
295.0
 20
191.0
 30
0.0
 11
295.0
 21
166.0
 31
0.0
  0
LINE
  5
677
330
1E
100
AcDbEntity
  8
0
  6
DASHED
100
AcDbLine
 10
290.0
 20
191.0
 30
0.0
 11
290.0
 21
166.0
 31
0.0
  0
LINE
  5
678
330
1E
100
AcDbEntity
  8
0
  6
DASHED
100
AcDbLine
 10
285.0
 20
191.0
 30
0.0
 11
285.0
 21
166.0
 31
0.0
  0
LWPOLYLINE
  5
679
330
1E
100
AcDbEntity
  8
0
  6
Continuous
100
AcDbPolyline
 90
        2
 70
     1
 43
0.5
 10
271.0
 20
168.5
 42
1.0
 10
272.0
 20
168.5
 42
1.0
  0
LINE
  5
67D
330
1E
100
AcDbEntity
  8
0
  6
Continuous
100
AcDbLine
 10
280.0
 20
167.0
 30
0.0
 11
280.0
 21
168.0
 31
0.0
  0
INSERT
  5
67E
330
1E
100
AcDbEntity
  8
0
  6
Continuous
100
AcDbBlockReference
  2
BLC15
 10
279.8579156323779
 20
163.4999999999999
 30
0.0
  0
LWPOLYLINE
  5
67F
330
1E
100
AcDbEntity
  8
0
  6
Continuous
100
AcDbPolyline
 90
        2
 70
     1
 43
0.5
 10
279.4999999999999
 20
168.5
 42
1.0
 10
280.5
 20
168.5
 42
1.0
  0
LINE
  5
683
330
1E
100
AcDbEntity
  8
0
  6
DASHED
100
AcDbLine
 10
295.0
 20
178.5
 30
0.0
 11
263.0
 21
178.5
 31
0.0
  0
INSERT
  5
684
330
1E
100
AcDbEntity
  8
0
  6
Continuous
100
AcDbBlockReference
  2
BLC27
 10
291.5122703094795
 20
196.1184303520074
 30
0.0
 50
180.0
  0
LINE
  5
685
330
1E
100
AcDbEntity
  8
0
  6
DASHED
100
AcDbLine
 10
295.0069210170263
 20
173.6899842626011
 30
0.0
 11
280.0
 21
173.6899842626011
 31
0.0
  0
LWPOLYLINE
  5
686
330
1E
100
AcDbEntity
  8
0
  6
Continuous
100
AcDbPolyline
 90
        2
 70
     1
 43
0.5
 10
279.4999999999999
 20
193.6899838838782
 42
1.0
 10
280.5
 20
193.6899838838782
 42
1.0
  0
LINE
  5
68A
330
1E
100
AcDbEntity
  8
0
  6
DASHED
100
AcDbLine
 10
271.4999999999999
 20
188.4999999999999
 30
0.0
 11
263.5
 21
188.4999999999999
 31
0.0
  0
LWPOLYLINE
  5
68B
330
1E
100
AcDbEntity
  8
0
  6
Continuous
100
AcDbPolyline
 90
        2
 70
     1
 43
0.5
 10
271.0
 20
188.4999999999999
 42
1.0
 10
272.0
 20
188.4999999999999
 42
1.0
  0
LWPOLYLINE
  5
68F
330
1E
100
AcDbEntity
  8
0
  6
Continuous
100
AcDbPolyline
 90
        2
 70
     1
 43
0.5
 10
279.4999999999999
 20
173.6899842626011
 42
1.0
 10
280.5
 20
173.6899842626011
 42
1.0
  0
LINE
  5
693
330
1E
100
AcDbEntity
  8
0
  6
DASHED
100
AcDbLine
 10
290.0
 20
198.5
 30
0.0
 11
263.0
 21
198.5
 31
0.0
  0
LINE
  5
694
330
1E
100
AcDbEntity
  8
0
  6
DASHED
100
AcDbLine
 10
271.4999999999999
 20
209.5
 30
0.0
 11
263.5
 21
209.5
 31
0.0
  0
LINE
  5
695
330
1E
100
AcDbEntity
  8
0
  6
DASHED
100
AcDbLine
 10
290.0697967243418
 20
193.6899838838782
 30
0.0
 11
280.0
 21
193.6899838838782
 31
0.0
  0
INSERT
  5
696
330
1E
100
AcDbEntity
  8
0
  6
Continuous
100
AcDbBlockReference
  2
BLC27
 10
296.4911554828492
 20
176.1184307307302
 30
0.0
 50
180.0
  0
INSERT
  5
697
330
1E
100
AcDbEntity
  8
0
  6
Continuous
100
AcDbBlockReference
  2
B507
 10
302.984556828279
 20
211.3847424526004
 30
0.0
  0
LINE
  5
698
330
1E
100
AcDbEntity
  8
0
  6
Continuous
100
AcDbLine
 10
263.5
 20
219.4999999999999
 30
0.0
 11
255.0
 21
219.4999999999999
 31
0.0
  0
TEXT
  5
699
330
1E
100
AcDbEntity
  8
0
  6
Continuous
100
AcDbText
 10
256.0164133797189
 20
216.6142869959208
 30
0.0
 40
2.0
  1
13A
  7
ROMANS
100
AcDbText
  0
TEXT
  5
69A
330
1E
100
AcDbEntity
  8
0
  6
Continuous
100
AcDbText
 10
241.0164133797189
 20
228.6142869959209
 30
0.0
 40
2.0
  1
101
  7
ROMANS
100
AcDbText
  0
LINE
  5
69B
330
1E
100
AcDbEntity
  8
0
  6
Continuous
 62
     7
100
AcDbLine
 10
241.0
 20
219.4999999999999
 30
0.0
 11
248.0
 21
219.4999999999999
 31
0.0
  0
LINE
  5
69C
330
1E
100
AcDbEntity
  8
0
  6
Continuous
 62
     7
100
AcDbLine
 10
248.0
 20
214.5
 30
0.0
 11
240.5
 21
214.5
 31
0.0
  0
LINE
  5
69D
330
1E
100
AcDbEntity
  8
0
  6
Continuous
 62
     7
100
AcDbLine
 10
239.5
 20
214.5
 30
0.0
 11
245.0
 21
214.5
 31
0.0
  0
LINE
  5
69E
330
1E
100
AcDbEntity
  8
0
  6
Continuous
100
AcDbLine
 10
240.0
 20
214.5
 30
0.0
 11
232.0
 21
214.5
 31
0.0
  0
LINE
  5
69F
330
1E
100
AcDbEntity
  8
BASE
  6
Continuous
100
AcDbLine
 10
230.5
 20
214.5
 30
0.0
 11
231.4999999999999
 21
215.5
 31
0.0
  0
LINE
  5
6A0
330
1E
100
AcDbEntity
  8
0
  6
Continuous
 62
     7
100
AcDbLine
 10
253.0
 20
219.4999999999999
 30
0.0
 11
247.0
 21
216.0
 31
0.0
  0
LINE
  5
6A1
330
1E
100
AcDbEntity
  8
0
  6
DASHED
 62
     7
100
AcDbLine
 10
248.0
 20
214.5
 30
0.0
 11
248.0
 21
217.5
 31
0.0
  0
LINE
  5
6A2
330
1E
100
AcDbEntity
  8
0
  6
DASHED
 62
     7
100
AcDbLine
 10
246.6633857266399
 20
216.4730585806828
 30
0.0
 11
247.338021601642
 21
215.3721498564556
 31
0.0
  0
LINE
  5
6A3
330
1E
100
AcDbEntity
  8
0
  6
Continuous
100
AcDbLine
 10
255.0
 20
219.4999999999999
 30
0.0
 11
253.0
 21
219.4999999999999
 31
0.0
  0
TEXT
  5
6A4
330
1E
100
AcDbEntity
  8
0
  6
Continuous
100
AcDbText
 10
271.5324524612817
 20
252.5547365563103
 30
0.0
 40
2.0
  1
L2
  7
GREEKS
100
AcDbText
  0
LINE
  5
6A5
330
1E
100
AcDbEntity
  8
0
  6
DASHED
100
AcDbLine
 10
285.0
 20
243.5
 30
0.0
 11
285.0
 21
258.4999999999999
 31
0.0
  0
LINE
  5
6A6
330
1E
100
AcDbEntity
  8
0
  6
DASHED
100
AcDbLine
 10
290.0
 20
253.5
 30
0.0
 11
290.0
 21
231.0
 31
0.0
  0
LINE
  5
6A7
330
1E
100
AcDbEntity
  8
0
  6
DASHED
100
AcDbLine
 10
285.0
 20
231.0
 30
0.0
 11
285.0
 21
243.5
 31
0.0
  0
LINE
  5
6A8
330
1E
100
AcDbEntity
  8
0
  6
DASHED
100
AcDbLine
 10
285.0
 20
219.4999999999999
 30
0.0
 11
264.0
 21
219.4999999999999
 31
0.0
  0
LINE
  5
6A9
330
1E
100
AcDbEntity
  8
0
  6
Continuous
100
AcDbLine
 10
290.0
 20
223.4999999999999
 30
0.0
 11
287.5
 21
231.0
 31
0.0
  0
LINE
  5
6AA
330
1E
100
AcDbEntity
  8
0
  6
Continuous
100
AcDbLine
 10
285.0
 20
223.4999999999999
 30
0.0
 11
282.5
 21
231.0
 31
0.0
  0
LINE
  5
6AB
330
1E
100
AcDbEntity
  8
0
  6
DASHED
100
AcDbLine
 10
285.0
 20
214.5
 30
0.0
 11
280.0
 21
214.5
 31
0.0
  0
LINE
  5
6AC
330
1E
100
AcDbEntity
  8
0
  6
DASHED
100
AcDbLine
 10
290.0
 20
217.5
 30
0.0
 11
290.0
 21
223.4999999999999
 31
0.0
  0
LINE
  5
6AD
330
1E
100
AcDbEntity
  8
0
  6
DASHED
100
AcDbLine
 10
285.0
 20
217.5
 30
0.0
 11
285.0
 21
223.4999999999999
 31
0.0
  0
INSERT
  5
6AE
330
1E
100
AcDbEntity
  8
0
  6
Continuous
100
AcDbBlockReference
  2
BLC27
 10
286.4911539812379
 20
217.1184330913903
 30
0.0
 50
180.0
  0
LINE
  5
6AF
330
1E
100
AcDbEntity
  8
0
  6
Continuous
100
AcDbLine
 10
285.0
 20
231.0
 30
0.0
 11
284.5
 21
230.5
 31
0.0
  0
LINE
  5
6B0
330
1E
100
AcDbEntity
  8
0
  6
Continuous
100
AcDbLine
 10
285.0
 20
231.0
 30
0.0
 11
285.5
 21
231.4999999999999
 31
0.0
  0
LINE
  5
6B1
330
1E
100
AcDbEntity
  8
0
  6
Continuous
100
AcDbLine
 10
285.0
 20
231.0
 30
0.0
 11
285.5
 21
230.5
 31
0.0
  0
LINE
  5
6B2
330
1E
100
AcDbEntity
  8
0
  6
Continuous
100
AcDbLine
 10
285.0
 20
231.0
 30
0.0
 11
284.5
 21
231.4999999999999
 31
0.0
  0
LINE
  5
6B3
330
1E
100
AcDbEntity
  8
0
  6
Continuous
100
AcDbLine
 10
290.0
 20
231.0
 30
0.0
 11
289.4999999999999
 21
231.4999999999999
 31
0.0
  0
LINE
  5
6B4
330
1E
100
AcDbEntity
  8
0
  6
Continuous
100
AcDbLine
 10
290.0
 20
231.0
 30
0.0
 11
289.4999999999999
 21
230.5
 31
0.0
  0
LINE
  5
6B5
330
1E
100
AcDbEntity
  8
0
  6
Continuous
100
AcDbLine
 10
290.0
 20
231.0
 30
0.0
 11
290.5
 21
230.5
 31
0.0
  0
LINE
  5
6B6
330
1E
100
AcDbEntity
  8
0
  6
Continuous
100
AcDbLine
 10
290.0
 20
231.0
 30
0.0
 11
290.5
 21
231.4999999999999
 31
0.0
  0
TEXT
  5
6B7
330
1E
100
AcDbEntity
  8
0
  6
Continuous
100
AcDbText
 10
271.5324524612817
 20
247.4912048903936
 30
0.0
 40
2.0
  1
L3
  7
GREEKS
100
AcDbText
  0
LINE
  5
6B8
330
1E
100
AcDbEntity
  8
0
  6
DASHED
100
AcDbLine
 10
290.0
 20
243.5
 30
0.0
 11
290.0
 21
251.0
 31
0.0
  0
LWPOLYLINE
  5
6B9
330
1E
100
AcDbEntity
  8
0
  6
Continuous
100
AcDbPolyline
 90
        2
 70
     1
 43
0.5
 10
289.4999999999999
 20
253.5
 42
1.0
 10
290.5
 20
253.5
 42
1.0
  0
LINE
  5
6BD
330
1E
100
AcDbEntity
  8
0
  6
DASHED
100
AcDbLine
 10
295.0
 20
248.4999999999999
 30
0.0
 11
295.0
 21
231.0
 31
0.0
  0
LINE
  5
6BE
330
1E
100
AcDbEntity
  8
0
  6
Continuous
100
AcDbLine
 10
295.0
 20
223.4999999999999
 30
0.0
 11
292.5
 21
231.0
 31
0.0
  0
LINE
  5
6BF
330
1E
100
AcDbEntity
  8
0
  6
DASHED
100
AcDbLine
 10
295.0
 20
217.5
 30
0.0
 11
295.0
 21
223.4999999999999
 31
0.0
  0
LINE
  5
6C0
330
1E
100
AcDbEntity
  8
0
  6
Continuous
100
AcDbLine
 10
295.0
 20
231.0
 30
0.0
 11
295.5
 21
231.4999999999999
 31
0.0
  0
LINE
  5
6C1
330
1E
100
AcDbEntity
  8
0
  6
Continuous
100
AcDbLine
 10
295.0
 20
231.0
 30
0.0
 11
295.5
 21
230.5
 31
0.0
  0
LINE
  5
6C2
330
1E
100
AcDbEntity
  8
0
  6
Continuous
100
AcDbLine
 10
295.0
 20
231.0
 30
0.0
 11
294.4999999999999
 21
230.5
 31
0.0
  0
LINE
  5
6C3
330
1E
100
AcDbEntity
  8
0
  6
Continuous
100
AcDbLine
 10
295.0
 20
231.0
 30
0.0
 11
294.4999999999999
 21
231.4999999999999
 31
0.0
  0
LWPOLYLINE
  5
6C4
330
1E
100
AcDbEntity
  8
0
  6
Continuous
100
AcDbPolyline
 90
        2
 70
     1
 43
0.5
 10
294.4999999999999
 20
248.4999999999999
 42
1.0
 10
295.5
 20
248.4999999999999
 42
1.0
  0
TEXT
  5
6C8
330
1E
100
AcDbEntity
  8
0
  6
Continuous
100
AcDbText
 10
271.5324524612817
 20
257.4750033921404
 30
0.0
 40
2.0
  1
L1
  7
GREEKS
100
AcDbText
  0
LWPOLYLINE
  5
6C9
330
1E
100
AcDbEntity
  8
0
  6
Continuous
100
AcDbPolyline
 90
        2
 70
     1
 43
0.5
 10
284.5
 20
258.4999999999999
 42
1.0
 10
285.5
 20
258.4999999999999
 42
1.0
  0
TEXT
  5
6CD
330
1E
100
AcDbEntity
  8
0
  6
DASHED
100
AcDbText
 10
332.5
 20
169.4582458299218
 30
0.0
 40
2.0
  1
L3(T)
  7
GREEKS
100
AcDbText
  0
TEXT
  5
6CE
330
1E
100
AcDbEntity
  8
0
  6
DASHED
100
AcDbText
 10
332.5
 20
174.5107571242934
 30
0.0
 40
2.0
  1
L2(S)
  7
GREEKS
100
AcDbText
  0
TEXT
  5
6CF
330
1E
100
AcDbEntity
  8
0
  6
DASHED
100
AcDbText
 10
332.5
 20
179.5191869324845
 30
0.0
 40
2.0
  1
L1(R)
  7
GREEKS
100
AcDbText
  0
LINE
  5
6D0
330
1E
100
AcDbEntity
  8
0
  6
DASHED
100
AcDbLine
 10
254.4999999999999
 20
108.0
 30
0.0
 11
357.5
 21
108.0
 31
0.0
  0
LINE
  5
6D1
330
1E
100
AcDbEntity
  8
0
  6
DASHED
100
AcDbLine
 10
254.4999999999999
 20
126.0
 30
0.0
 11
350.0
 21
126.0
 31
0.0
  0
ARC
  5
6D2
330
1E
100
AcDbEntity
  8
0
  6
Continuous
100
AcDbCircle
 10
348.3648615873968
 20
144.3942377789285
 30
0.0
 40
1.204308763687699
100
AcDbArc
 50
90.0
 51
270.0
  0
ARC
  5
6D3
330
1E
100
AcDbEntity
  8
0
  6
Continuous
100
AcDbCircle
 10
355.8648615873968
 20
144.3942377789285
 30
0.0
 40
1.204308763687699
100
AcDbArc
 50
90.0
 51
270.0
  0
ARC
  5
6D4
330
1E
100
AcDbEntity
  8
0
  6
Continuous
100
AcDbCircle
 10
363.3648615873968
 20
144.3942377789285
 30
0.0
 40
1.204308763687699
100
AcDbArc
 50
90.0
 51
270.0
  0
LINE
  5
6D5
330
1E
100
AcDbEntity
  8
0
  6
Continuous
100
AcDbLine
 10
349.0008973345388
 20
143.1899802196795
 30
0.0
 11
350.0
 21
143.1899802196795
 31
0.0
  0
LINE
  5
6D6
330
1E
100
AcDbEntity
  8
0
  6
Continuous
100
AcDbLine
 10
348.3598981140048
 20
143.1899370591878
 30
0.0
 11
349.0094964320596
 21
143.1899370591878
 31
0.0
  0
LINE
  5
6D7
330
1E
100
AcDbEntity
  8
0
  6
Continuous
100
AcDbLine
 10
350.0
 20
143.1899802196795
 30
0.0
 11
350.0
 21
140.5
 31
0.0
  0
LINE
  5
6D8
330
1E
100
AcDbEntity
  8
0
  6
Continuous
100
AcDbLine
 10
356.5008973345388
 20
143.1899802196795
 30
0.0
 11
357.5
 21
143.1899802196795
 31
0.0
  0
LINE
  5
6D9
330
1E
100
AcDbEntity
  8
0
  6
Continuous
100
AcDbLine
 10
355.8598981140048
 20
143.1899370591878
 30
0.0
 11
356.5094964320596
 21
143.1899370591878
 31
0.0
  0
LINE
  5
6DA
330
1E
100
AcDbEntity
  8
0
  6
Continuous
100
AcDbLine
 10
357.5
 20
143.1899802196795
 30
0.0
 11
357.5
 21
140.5
 31
0.0
  0
LINE
  5
6DB
330
1E
100
AcDbEntity
  8
0
  6
Continuous
100
AcDbLine
 10
364.0008973345388
 20
143.1899802196795
 30
0.0
 11
365.0
 21
143.1899802196795
 31
0.0
  0
LINE
  5
6DC
330
1E
100
AcDbEntity
  8
0
  6
Continuous
100
AcDbLine
 10
363.3598981140048
 20
143.1899370591878
 30
0.0
 11
364.0094964320596
 21
143.1899370591878
 31
0.0
  0
LINE
  5
6DD
330
1E
100
AcDbEntity
  8
0
  6
Continuous
100
AcDbLine
 10
365.0
 20
143.1899802196795
 30
0.0
 11
365.0
 21
140.5
 31
0.0
  0
LINE
  5
6DE
330
1E
100
AcDbEntity
  8
0
  6
DASHED
100
AcDbLine
 10
342.5
 20
170.5
 30
0.0
 11
377.4999999999999
 21
170.5
 31
0.0
  0
LINE
  5
6DF
330
1E
100
AcDbEntity
  8
0
  6
DASHED
100
AcDbLine
 10
342.5
 20
175.5
 30
0.0
 11
377.4999999999999
 21
175.5
 31
0.0
  0
LINE
  5
6E0
330
1E
100
AcDbEntity
  8
0
  6
DASHED
100
AcDbLine
 10
342.5
 20
180.4999999999999
 30
0.0
 11
377.4999999999999
 21
180.4999999999999
 31
0.0
  0
LINE
  5
6E1
330
1E
100
AcDbEntity
  8
0
  6
Continuous
100
AcDbLine
 10
350.0
 20
148.0
 30
0.0
 11
370.0
 21
148.0
 31
0.0
  0
LINE
  5
6E2
330
1E
100
AcDbEntity
  8
0
  6
Continuous
100
AcDbLine
 10
350.0
 20
153.1899802196788
 30
0.0
 11
370.0
 21
153.1899802196788
 31
0.0
  0
LINE
  5
6E3
330
1E
100
AcDbEntity
  8
0
  6
DASHED
100
AcDbLine
 10
350.0
 20
158.0
 30
0.0
 11
350.0
 21
180.4999999999999
 31
0.0
  0
INSERT
  5
6E4
330
1E
100
AcDbEntity
  8
0
  6
Continuous
100
AcDbBlockReference
  2
BLC27
 10
348.4659318482223
 20
155.5715494616068
 30
0.0
  0
LINE
  5
6E5
330
1E
100
AcDbEntity
  8
0
  6
Continuous
100
AcDbLine
 10
349.0060309415213
 20
145.5985560313284
 30
0.0
 11
349.9781667732114
 21
145.5985560313284
 31
0.0
  0
LINE
  5
6E6
330
1E
100
AcDbEntity
  8
0
  6
Continuous
100
AcDbLine
 10
348.996127989045
 20
147.9999959297374
 30
0.0
 11
349.9739356178998
 21
147.9999959297374
 31
0.0
  0
LINE
  5
6E7
330
1E
100
AcDbEntity
  8
0
  6
Continuous
100
AcDbLine
 10
348.3587620726733
 20
147.9999931928302
 30
0.0
 11
349.0022608760045
 21
147.9999931928302
 31
0.0
  0
LINE
  5
6E8
330
1E
100
AcDbEntity
  8
0
  6
Continuous
100
AcDbLine
 10
348.3587620726733
 20
145.5985465426162
 30
0.0
 11
349.008360390728
 21
145.5985465426162
 31
0.0
  0
ARC
  5
6E9
330
1E
100
AcDbEntity
  8
0
  6
Continuous
100
AcDbCircle
 10
348.3648615873968
 20
146.7960950148242
 30
0.0
 40
1.204308763687699
100
AcDbArc
 50
90.0
 51
265.7062371869478
  0
LWPOLYLINE
  5
6EA
330
1E
100
AcDbEntity
  8
0
  6
Continuous
100
AcDbPolyline
 90
        2
 70
     1
 43
0.5
 10
349.5
 20
180.4999999999999
 42
1.0
 10
350.4999999999999
 20
180.4999999999999
 42
1.0
  0
LINE
  5
6EE
330
1E
100
AcDbEntity
  8
0
  6
DASHED
100
AcDbLine
 10
357.5
 20
158.0
 30
0.0
 11
357.5
 21
175.5
 31
0.0
  0
LINE
  5
6EF
330
1E
100
AcDbEntity
  8
0
  6
DASHED
100
AcDbLine
 10
365.0
 20
158.0
 30
0.0
 11
365.0
 21
170.5
 31
0.0
  0
INSERT
  5
6F0
330
1E
100
AcDbEntity
  8
0
  6
Continuous
100
AcDbBlockReference
  2
BLC27
 10
355.9659318482223
 20
155.5715494616068
 30
0.0
  0
INSERT
  5
6F1
330
1E
100
AcDbEntity
  8
0
  6
Continuous
100
AcDbBlockReference
  2
BLC27
 10
363.4659318482223
 20
155.5715494616068
 30
0.0
  0
LINE
  5
6F2
330
1E
100
AcDbEntity
  8
0
  6
Continuous
100
AcDbLine
 10
356.5060309415213
 20
145.5985560313284
 30
0.0
 11
357.4781667732114
 21
145.5985560313284
 31
0.0
  0
LINE
  5
6F3
330
1E
100
AcDbEntity
  8
0
  6
Continuous
100
AcDbLine
 10
356.496127989045
 20
147.9999959297374
 30
0.0
 11
357.4739356178998
 21
147.9999959297374
 31
0.0
  0
LINE
  5
6F4
330
1E
100
AcDbEntity
  8
0
  6
Continuous
100
AcDbLine
 10
355.8587620726733
 20
147.9999931928302
 30
0.0
 11
356.5022608760045
 21
147.9999931928302
 31
0.0
  0
LINE
  5
6F5
330
1E
100
AcDbEntity
  8
0
  6
Continuous
100
AcDbLine
 10
355.8587620726733
 20
145.5985465426162
 30
0.0
 11
356.508360390728
 21
145.5985465426162
 31
0.0
  0
ARC
  5
6F6
330
1E
100
AcDbEntity
  8
0
  6
Continuous
100
AcDbCircle
 10
355.8648615873968
 20
146.7960950148242
 30
0.0
 40
1.204308763687699
100
AcDbArc
 50
90.0
 51
265.7062371869478
  0
LINE
  5
6F7
330
1E
100
AcDbEntity
  8
0
  6
Continuous
100
AcDbLine
 10
364.0060309415213
 20
145.5985560313284
 30
0.0
 11
364.9781667732114
 21
145.5985560313284
 31
0.0
  0
LINE
  5
6F8
330
1E
100
AcDbEntity
  8
0
  6
Continuous
100
AcDbLine
 10
363.996127989045
 20
147.9999959297374
 30
0.0
 11
364.9739356178998
 21
147.9999959297374
 31
0.0
  0
LINE
  5
6F9
330
1E
100
AcDbEntity
  8
0
  6
Continuous
100
AcDbLine
 10
363.3587620726733
 20
147.9999931928302
 30
0.0
 11
364.0022608760045
 21
147.9999931928302
 31
0.0
  0
LINE
  5
6FA
330
1E
100
AcDbEntity
  8
0
  6
Continuous
100
AcDbLine
 10
363.3587620726733
 20
145.5985465426162
 30
0.0
 11
364.0083603907279
 21
145.5985465426162
 31
0.0
  0
ARC
  5
6FB
330
1E
100
AcDbEntity
  8
0
  6
Continuous
100
AcDbCircle
 10
363.3648615873968
 20
146.7960950148242
 30
0.0
 40
1.204308763687699
100
AcDbArc
 50
90.0
 51
265.7062371869478
  0
INSERT
  5
6FC
330
1E
100
AcDbEntity
  8
0
  6
Continuous
100
AcDbBlockReference
  2
BLC15
 10
382.5
 20
153.0478958520576
 30
0.0
 50
90.0
  0
LINE
  5
6FD
330
1E
100
AcDbEntity
  8
0
  6
DASHED
100
AcDbLine
 10
370.0
 20
153.1899802196786
 30
0.0
 11
379.1633617978537
 21
153.1899802196786
 31
0.0
  0
LINE
  5
6FE
330
1E
100
AcDbEntity
  8
0
  6
DASHED
100
AcDbLine
 10
370.0
 20
148.0
 30
0.0
 11
379.346819757916
 21
148.0
 31
0.0
  0
INSERT
  5
6FF
330
1E
100
AcDbEntity
  8
0
  6
Continuous
100
AcDbBlockReference
  2
BLC15
 10
382.5
 20
147.8579156323779
 30
0.0
 50
90.0
  0
LWPOLYLINE
  5
700
330
1E
100
AcDbEntity
  8
0
  6
Continuous
100
AcDbPolyline
 90
        2
 70
     1
 43
0.5
 10
357.0
 20
175.5
 42
1.0
 10
358.0
 20
175.5
 42
1.0
  0
LWPOLYLINE
  5
704
330
1E
100
AcDbEntity
  8
0
  6
Continuous
100
AcDbPolyline
 90
        2
 70
     1
 43
0.5
 10
364.5
 20
170.5
 42
1.0
 10
365.5
 20
170.5
 42
1.0
  0
LINE
  5
708
330
1E
100
AcDbEntity
  8
0
  6
DASHED
100
AcDbLine
 10
357.5
 20
140.5
 30
0.0
 11
357.5
 21
115.5
 31
0.0
  0
LINE
  5
709
330
1E
100
AcDbEntity
  8
0
  6
DASHED
100
AcDbLine
 10
350.0
 20
126.0
 30
0.0
 11
350.0
 21
140.5
 31
0.0
  0
LINE
  5
70A
330
1E
100
AcDbEntity
  8
0
  6
DASHED
100
AcDbLine
 10
357.5
 20
108.0
 30
0.0
 11
357.5
 21
118.0
 31
0.0
  0
LINE
  5
70B
330
1E
100
AcDbEntity
  8
0
  6
DASHED
100
AcDbLine
 10
254.4999999999999
 20
89.50000000000001
 30
0.0
 11
365.0
 21
89.50000000000001
 31
0.0
  0
LINE
  5
70C
330
1E
100
AcDbEntity
  8
0
  6
DASHED
100
AcDbLine
 10
365.0
 20
89.50000000000001
 30
0.0
 11
365.0
 21
140.5
 31
0.0
  0
LINE
  5
70D
330
1E
100
AcDbEntity
  8
0
  6
DASHDOT
100
AcDbLine
 10
246.4999999999999
 20
242.5
 30
0.0
 11
264.0
 21
242.5
 31
0.0
  0
LINE
  5
70E
330
1E
100
AcDbEntity
  8
0
  6
DASHDOT
100
AcDbLine
 10
264.0
 20
242.5
 30
0.0
 11
264.0
 21
57.5
 31
0.0
  0
LINE
  5
70F
330
1E
100
AcDbEntity
  8
0
  6
DASHDOT
100
AcDbLine
 10
264.0
 20
57.5
 30
0.0
 11
246.4999999999999
 21
57.5
 31
0.0
  0
LINE
  5
710
330
1E
100
AcDbEntity
  8
0
  6
DASHDOT
100
AcDbLine
 10
42.0
 20
242.5
 30
0.0
 11
21.0
 21
242.5
 31
0.0
  0
LINE
  5
711
330
1E
100
AcDbEntity
  8
0
  6
DASHDOT
100
AcDbLine
 10
21.0
 20
242.5
 30
0.0
 11
21.0
 21
57.5
 31
0.0
  0
LINE
  5
712
330
1E
100
AcDbEntity
  8
0
  6
DASHDOT
100
AcDbLine
 10
21.0
 20
57.5
 30
0.0
 11
43.0
 21
57.5
 31
0.0
  0
TEXT
  5
713
330
1E
100
AcDbEntity
  8
0
  6
Continuous
100
AcDbText
 10
33.01641337971892
 20
129.6142869959209
 30
0.0
 40
2.0
  1
101:2A
  7
ROMANS
100
AcDbText
  0
TEXT
  5
714
330
1E
100
AcDbEntity
  8
0
  6
Continuous
100
AcDbText
 10
6.5
 20
131.5343737974445
 30
0.0
 40
2.0
  1
2)
  7
ROMANS
100
AcDbText
  0
TEXT
  5
715
330
1E
100
AcDbEntity
  8
0
  6
Continuous
100
AcDbText
 10
6.5
 20
101.2381180416163
 30
0.0
 40
2.0
  1
3b)
  7
ROMANS
100
AcDbText
  0
TEXT
  5
716
330
1E
100
AcDbEntity
  8
0
  6
Continuous
100
AcDbText
 10
6.5
 20
118.8298782886936
 30
0.0
 40
2.0
  1
3a)
  7
ROMANS
100
AcDbText
  0
TEXT
  5
717
330
1E
100
AcDbEntity
  8
0
  6
Continuous
100
AcDbText
 10
6.5
 20
79.30065248656484
 30
0.0
 40
2.0
  1
3c)
  7
ROMANS
100
AcDbText
  0
TEXT
  5
718
330
1E
100
AcDbEntity
  8
0
  6
Continuous
100
AcDbText
 10
23.51641337971892
 20
89.11428699592091
 30
0.0
 40
2.0
  1
108:X2:6
  7
ROMANS
100
AcDbText
  0
LINE
  5
719
330
1E
100
AcDbEntity
  8
0
  6
Continuous
100
AcDbLine
 10
11.5
 20
92.5
 30
0.0
 11
11.5
 21
67.49965536440647
 31
0.0
  0
LINE
  5
71A
330
1E
100
AcDbEntity
  8
0
  6
Continuous
100
AcDbLine
 10
35.5
 20
82.5
 30
0.0
 11
35.5
 21
67.5
 31
0.0
  0
LINE
  5
71B
330
1E
100
AcDbEntity
  8
0
  6
Continuous
100
AcDbLine
 10
28.00778982754422
 20
69.00243229839308
 30
0.0
 11
28.00778982754422
 21
70.00243229839307
 31
0.0
  0
TEXT
  5
71C
330
1E
100
AcDbEntity
  8
0
  6
Continuous
100
AcDbText
 10
23.51641337971892
 20
64.1142869959209
 30
0.0
 40
2.0
  1
101:5A
  7
ROMANS
100
AcDbText
  0
LINE
  5
71D
330
1E
100
AcDbEntity
  8
0
  6
Continuous
100
AcDbLine
 10
26.79638662053426
 20
69.27004741371145
 30
0.0
 11
26.6183826470233
 21
68.5986883869558
 31
0.0
  0
LINE
  5
71E
330
1E
100
AcDbEntity
  8
0
  6
Continuous
100
AcDbLine
 10
28.0
 20
67.5
 30
0.0
 11
22.5
 21
67.5
 31
0.0
  0
LINE
  5
71F
330
1E
100
AcDbEntity
  8
0
  6
DASHED
100
AcDbLine
 10
22.5
 20
67.5
 30
0.0
 11
18.0
 21
67.5
 31
0.0
  0
INSERT
  5
720
330
1E
100
AcDbEntity
  8
0
  6
DASHED
100
AcDbBlockReference
  2
BLC43
 10
15.5
 20
67.5
 30
0.0
  0
LINE
  5
721
330
1E
100
AcDbEntity
  8
0
  6
Continuous
100
AcDbLine
 10
11.5
 20
67.49965536440647
 30
0.0
 11
12.5
 21
66.49965536440646
 31
0.0
  0
LINE
  5
722
330
1E
100
AcDbEntity
  8
0
  6
DASHED
100
AcDbLine
 10
35.5
 20
67.5
 30
0.0
 11
33.5
 21
67.5
 31
0.0
  0
LINE
  5
723
330
1E
100
AcDbEntity
  8
0
  6
Continuous
 62
     7
100
AcDbLine
 10
33.51877753702685
 20
67.500906121063
 30
0.0
 11
26.80126311575464
 21
69.26867307402938
 31
0.0
  0
LINE
  5
724
330
1E
100
AcDbEntity
  8
0
  6
Continuous
 62
     7
100
AcDbLine
 10
28.00778982754422
 20
67.50243229839307
 30
0.0
 11
28.00778982754422
 21
69.50243229839307
 31
0.0
  0
LINE
  5
725
330
1E
100
AcDbEntity
  8
0
  6
Continuous
100
AcDbLine
 10
40.49999999999999
 20
67.5
 30
0.0
 11
36.0
 21
67.5
 31
0.0
  0
LWPOLYLINE
  5
726
330
1E
100
AcDbEntity
  8
0
  6
Continuous
100
AcDbPolyline
 90
        2
 70
     1
 43
0.5
 10
35.0
 20
67.5
 42
1.0
 10
36.0
 20
67.5
 42
1.0
  0
LINE
  5
72A
330
1E
100
AcDbEntity
  8
0
  6
Continuous
100
AcDbLine
 10
40.49999999999999
 20
72.5
 30
0.0
 11
22.5
 21
72.5
 31
0.0
  0
LINE
  5
72B
330
1E
100
AcDbEntity
  8
0
  6
Continuous
100
AcDbLine
 10
40.0
 20
77.5
 30
0.0
 11
22.5
 21
77.5
 31
0.0
  0
LINE
  5
72C
330
1E
100
AcDbEntity
  8
0
  6
Continuous
100
AcDbLine
 10
40.0
 20
87.5
 30
0.0
 11
22.5
 21
87.5
 31
0.0
  0
LINE
  5
72D
330
1E
100
AcDbEntity
  8
0
  6
DASHED
100
AcDbLine
 10
22.5
 20
77.5
 30
0.0
 11
18.0
 21
77.5
 31
0.0
  0
LINE
  5
72E
330
1E
100
AcDbEntity
  8
0
  6
Continuous
100
AcDbLine
 10
40.0
 20
82.5
 30
0.0
 11
35.5
 21
82.5
 31
0.0
  0
LINE
  5
72F
330
1E
100
AcDbEntity
  8
0
  6
Continuous
100
AcDbLine
 10
35.0
 20
117.5
 30
0.0
 11
42.5
 21
117.5
 31
0.0
  0
LINE
  5
730
330
1E
100
AcDbEntity
  8
0
  6
Continuous
100
AcDbLine
 10
35.0
 20
127.5
 30
0.0
 11
42.5
 21
127.5
 31
0.0
  0
TEXT
  5
731
330
1E
100
AcDbEntity
  8
0
  6
Continuous
100
AcDbText
 10
23.51641337971892
 20
104.6142869959209
 30
0.0
 40
2.0
  1
108:X2:3
  7
ROMANS
100
AcDbText
  0
LINE
  5
732
330
1E
100
AcDbEntity
  8
0
  6
Continuous
100
AcDbLine
 10
40.0
 20
92.5
 30
0.0
 11
22.5
 21
92.5
 31
0.0
  0
LINE
  5
733
330
1E
100
AcDbEntity
  8
0
  6
Continuous
100
AcDbLine
 10
28.0
 20
97.5
 30
0.0
 11
22.5
 21
97.5
 31
0.0
  0
LINE
  5
734
330
1E
100
AcDbEntity
  8
0
  6
Continuous
100
AcDbLine
 10
39.5
 20
102.4999999999999
 30
0.0
 11
22.5
 21
102.4999999999999
 31
0.0
  0
LINE
  5
735
330
1E
100
AcDbEntity
  8
0
  6
Continuous
100
AcDbLine
 10
39.5
 20
107.4999999999999
 30
0.0
 11
22.5
 21
107.4999999999999
 31
0.0
  0
TEXT
  5
736
330
1E
100
AcDbEntity
  8
0
  6
Continuous
100
AcDbText
 10
23.51641337971892
 20
94.11428699592091
 30
0.0
 40
2.0
  1
101:6A
  7
ROMANS
100
AcDbText
  0
LINE
  5
737
330
1E
100
AcDbEntity
  8
0
  6
Continuous
100
AcDbLine
 10
11.5
 20
107.4999999999999
 30
0.0
 11
11.5
 21
97.49965536440647
 31
0.0
  0
LINE
  5
738
330
1E
100
AcDbEntity
  8
0
  6
DASHED
100
AcDbLine
 10
22.5
 20
92.5
 30
0.0
 11
18.0
 21
92.5
 31
0.0
  0
LINE
  5
739
330
1E
100
AcDbEntity
  8
0
  6
DASHED
100
AcDbLine
 10
22.5
 20
97.5
 30
0.0
 11
18.0
 21
97.5
 31
0.0
  0
LINE
  5
73A
330
1E
100
AcDbEntity
  8
0
  6
Continuous
100
AcDbLine
 10
11.5
 20
92.5
 30
0.0
 11
12.5
 21
93.49999999999999
 31
0.0
  0
INSERT
  5
73B
330
1E
100
AcDbEntity
  8
0
  6
DASHED
100
AcDbBlockReference
  2
BLC43
 10
15.5
 20
97.5
 30
0.0
  0
LINE
  5
73C
330
1E
100
AcDbEntity
  8
0
  6
Continuous
100
AcDbLine
 10
11.5
 20
97.49965536440647
 30
0.0
 11
12.5
 21
96.49965536440646
 31
0.0
  0
LINE
  5
73D
330
1E
100
AcDbEntity
  8
0
  6
DASHED
100
AcDbLine
 10
22.5
 20
107.4999999999999
 30
0.0
 11
18.0
 21
107.4999999999999
 31
0.0
  0
LINE
  5
73E
330
1E
100
AcDbEntity
  8
0
  6
Continuous
100
AcDbLine
 10
11.5
 20
107.4999999999999
 30
0.0
 11
12.5
 21
108.4999999999999
 31
0.0
  0
LINE
  5
73F
330
1E
100
AcDbEntity
  8
0
  6
Continuous
100
AcDbLine
 10
40.0
 20
97.5
 30
0.0
 11
34.0
 21
97.5
 31
0.0
  0
LINE
  5
740
330
1E
100
AcDbEntity
  8
0
  6
DASHED
100
AcDbLine
 10
35.5
 20
97.5
 30
0.0
 11
33.5
 21
97.5
 31
0.0
  0
LINE
  5
741
330
1E
100
AcDbEntity
  8
0
  6
Continuous
 62
     7
100
AcDbLine
 10
33.51877753702685
 20
97.500906121063
 30
0.0
 11
26.80126311575464
 21
99.26867307402938
 31
0.0
  0
LINE
  5
742
330
1E
100
AcDbEntity
  8
0
  6
Continuous
100
AcDbLine
 10
28.00778982754422
 20
99.00243229839308
 30
0.0
 11
28.00778982754422
 21
100.002432298393
 31
0.0
  0
LINE
  5
743
330
1E
100
AcDbEntity
  8
0
  6
Continuous
 62
     7
100
AcDbLine
 10
28.00778982754422
 20
97.50243229839307
 30
0.0
 11
28.00778982754422
 21
99.50243229839308
 31
0.0
  0
LINE
  5
744
330
1E
100
AcDbEntity
  8
0
  6
Continuous
100
AcDbLine
 10
40.49999999999999
 20
102.4999999999999
 30
0.0
 11
39.0
 21
102.4999999999999
 31
0.0
  0
LINE
  5
745
330
1E
100
AcDbEntity
  8
0
  6
Continuous
100
AcDbLine
 10
41.0
 20
107.4999999999999
 30
0.0
 11
39.0
 21
107.4999999999999
 31
0.0
  0
TEXT
  5
746
330
1E
100
AcDbEntity
  8
0
  6
Continuous
100
AcDbText
 10
23.51641337971892
 20
114.6142869959209
 30
0.0
 40
2.0
  1
101:3A
  7
ROMANS
100
AcDbText
  0
LINE
  5
747
330
1E
100
AcDbEntity
  8
0
  6
Continuous
100
AcDbLine
 10
28.0
 20
117.5
 30
0.0
 11
22.5
 21
117.5
 31
0.0
  0
LINE
  5
748
330
1E
100
AcDbEntity
  8
0
  6
Continuous
100
AcDbLine
 10
40.0
 20
122.5
 30
0.0
 11
22.5
 21
122.5
 31
0.0
  0
LINE
  5
749
330
1E
100
AcDbEntity
  8
0
  6
Continuous
 62
     7
100
AcDbLine
 10
22.5
 20
127.5
 30
0.0
 11
28.0
 21
127.5
 31
0.0
  0
TEXT
  5
74A
330
1E
100
AcDbEntity
  8
0
  6
Continuous
100
AcDbText
 10
23.51641337971892
 20
124.1142869959209
 30
0.0
 40
2.0
  1
101:1A
  7
ROMANS
100
AcDbText
  0
LINE
  5
74B
330
1E
100
AcDbEntity
  8
0
  6
Continuous
100
AcDbLine
 10
11.5
 20
122.5
 30
0.0
 11
11.5
 21
117.5
 31
0.0
  0
LINE
  5
74C
330
1E
100
AcDbEntity
  8
0
  6
DASHED
100
AcDbLine
 10
22.5
 20
117.5
 30
0.0
 11
18.0
 21
117.5
 31
0.0
  0
INSERT
  5
74D
330
1E
100
AcDbEntity
  8
0
  6
DASHED
100
AcDbBlockReference
  2
BLC43
 10
15.5
 20
117.5
 30
0.0
  0
LINE
  5
74E
330
1E
100
AcDbEntity
  8
0
  6
Continuous
100
AcDbLine
 10
11.5
 20
117.4996553644064
 30
0.0
 11
12.5
 21
116.4996553644064
 31
0.0
  0
LINE
  5
74F
330
1E
100
AcDbEntity
  8
0
  6
DASHED
100
AcDbLine
 10
22.5
 20
122.5
 30
0.0
 11
18.0
 21
122.5
 31
0.0
  0
LINE
  5
750
330
1E
100
AcDbEntity
  8
0
  6
DASHED
100
AcDbLine
 10
22.5
 20
127.5
 30
0.0
 11
18.0
 21
127.5
 31
0.0
  0
LINE
  5
751
330
1E
100
AcDbEntity
  8
0
  6
Continuous
100
AcDbLine
 10
11.5
 20
122.5
 30
0.0
 11
12.5
 21
123.5
 31
0.0
  0
INSERT
  5
752
330
1E
100
AcDbEntity
  8
0
  6
DASHED
100
AcDbBlockReference
  2
BLC43
 10
15.0
 20
127.5
 30
0.0
  0
LINE
  5
753
330
1E
100
AcDbEntity
  8
0
  6
DASHED
100
AcDbLine
 10
35.5
 20
117.5
 30
0.0
 11
33.5
 21
117.5
 31
0.0
  0
LINE
  5
754
330
1E
100
AcDbEntity
  8
0
  6
Continuous
 62
     7
100
AcDbLine
 10
33.51877753702685
 20
117.500906121063
 30
0.0
 11
26.80126311575464
 21
119.2686730740293
 31
0.0
  0
LINE
  5
755
330
1E
100
AcDbEntity
  8
0
  6
Continuous
 62
     7
100
AcDbLine
 10
28.00778982754422
 20
117.502432298393
 30
0.0
 11
28.00778982754422
 21
119.502432298393
 31
0.0
  0
LINE
  5
756
330
1E
100
AcDbEntity
  8
0
  6
Continuous
100
AcDbLine
 10
28.00778982754422
 20
119.002432298393
 30
0.0
 11
28.00778982754422
 21
120.002432298393
 31
0.0
  0
LINE
  5
757
330
1E
100
AcDbEntity
  8
0
  6
DASHED
100
AcDbLine
 10
35.5
 20
127.5
 30
0.0
 11
33.5
 21
127.5
 31
0.0
  0
LINE
  5
758
330
1E
100
AcDbEntity
  8
0
  6
Continuous
 62
     7
100
AcDbLine
 10
33.51877753702685
 20
127.5009061210629
 30
0.0
 11
26.80126311575464
 21
129.2686730740293
 31
0.0
  0
LINE
  5
759
330
1E
100
AcDbEntity
  8
0
  6
Continuous
 62
     7
100
AcDbLine
 10
28.00778982754422
 20
127.502432298393
 30
0.0
 11
28.00778982754422
 21
129.502432298393
 31
0.0
  0
LINE
  5
75A
330
1E
100
AcDbEntity
  8
0
  6
Continuous
100
AcDbLine
 10
28.00778982754422
 20
129.002432298393
 30
0.0
 11
28.00778982754422
 21
130.002432298393
 31
0.0
  0
LINE
  5
75B
330
1E
100
AcDbEntity
  8
0
  6
Continuous
 62
     7
100
AcDbLine
 10
26.80126311575464
 20
129.2686730740293
 30
0.0
 11
26.63914653999905
 21
128.4760326932101
 31
0.0
  0
TEXT
  5
75C
330
1E
100
AcDbEntity
  8
0
  6
Continuous
100
AcDbText
 10
23.51641337971892
 20
213.1142869959209
 30
0.0
 40
2.0
  1
108:X2
  7
ROMANS
100
AcDbText
  0
TEXT
  5
75D
330
1E
100
AcDbEntity
  8
0
  6
HIDDEN
100
AcDbText
 10
6.455887957236313
 20
212.5273860109557
 30
0.0
 40
2.0
  1
1)
  7
ROMANS
100
AcDbText
  0
LINE
  5
75E
330
1E
100
AcDbEntity
  8
0
  6
Continuous
100
AcDbLine
 10
11.5
 20
220.0
 30
0.0
 11
11.5
 21
207.4996553644064
 31
0.0
  0
LINE
  5
75F
330
1E
100
AcDbEntity
  8
0
  6
Continuous
100
AcDbLine
 10
35.0
 20
132.4999999999999
 30
0.0
 11
42.5
 21
132.4999999999999
 31
0.0
  0
LINE
  5
760
330
1E
100
AcDbEntity
  8
0
  6
Continuous
100
AcDbLine
 10
35.0
 20
145.0
 30
0.0
 11
42.5
 21
145.0
 31
0.0
  0
LINE
  5
761
330
1E
100
AcDbEntity
  8
0
  6
Continuous
 62
     7
100
AcDbLine
 10
22.5
 20
132.4999999999999
 30
0.0
 11
28.0
 21
132.4999999999999
 31
0.0
  0
LINE
  5
762
330
1E
100
AcDbEntity
  8
0
  6
Continuous
 62
     7
100
AcDbLine
 10
22.5
 20
145.0
 30
0.0
 11
28.0
 21
145.0
 31
0.0
  0
TEXT
  5
763
330
1E
100
AcDbEntity
  8
0
  6
Continuous
100
AcDbText
 10
23.51641337971892
 20
141.6142869959209
 30
0.0
 40
2.0
  1
101:12A
  7
ROMANS
100
AcDbText
  0
LINE
  5
764
330
1E
100
AcDbEntity
  8
0
  6
DASHED
100
AcDbLine
 10
22.5
 20
132.4999999999999
 30
0.0
 11
18.0
 21
132.4999999999999
 31
0.0
  0
LINE
  5
765
330
1E
100
AcDbEntity
  8
0
  6
DASHED
100
AcDbLine
 10
22.5
 20
145.0
 30
0.0
 11
18.0
 21
145.0
 31
0.0
  0
INSERT
  5
766
330
1E
100
AcDbEntity
  8
0
  6
DASHED
100
AcDbBlockReference
  2
BLC42
 10
15.0
 20
145.0
 30
0.0
  0
LINE
  5
767
330
1E
100
AcDbEntity
  8
0
  6
DASHED
100
AcDbLine
 10
35.5
 20
132.4999999999999
 30
0.0
 11
33.5
 21
132.4999999999999
 31
0.0
  0
LINE
  5
768
330
1E
100
AcDbEntity
  8
0
  6
Continuous
 62
     7
100
AcDbLine
 10
33.51877753702685
 20
132.500906121063
 30
0.0
 11
26.80126311575464
 21
134.2686730740293
 31
0.0
  0
LINE
  5
769
330
1E
100
AcDbEntity
  8
0
  6
Continuous
100
AcDbLine
 10
28.00778982754422
 20
134.002432298393
 30
0.0
 11
28.00778982754422
 21
135.002432298393
 31
0.0
  0
LINE
  5
76A
330
1E
100
AcDbEntity
  8
0
  6
Continuous
 62
     7
100
AcDbLine
 10
28.00778982754422
 20
132.502432298393
 30
0.0
 11
28.00778982754422
 21
134.502432298393
 31
0.0
  0
LINE
  5
76B
330
1E
100
AcDbEntity
  8
0
  6
DASHED
100
AcDbLine
 10
35.5
 20
145.0
 30
0.0
 11
33.5
 21
145.0
 31
0.0
  0
LINE
  5
76C
330
1E
100
AcDbEntity
  8
0
  6
Continuous
100
AcDbLine
 10
28.00778982754422
 20
146.502432298393
 30
0.0
 11
28.00778982754422
 21
147.502432298393
 31
0.0
  0
LINE
  5
76D
330
1E
100
AcDbEntity
  8
0
  6
Continuous
 62
     7
100
AcDbLine
 10
28.00778982754422
 20
145.002432298393
 30
0.0
 11
28.00778982754422
 21
147.002432298393
 31
0.0
  0
LINE
  5
76E
330
1E
100
AcDbEntity
  8
0
  6
Continuous
 62
     7
100
AcDbLine
 10
26.80126311575464
 20
146.7686730740293
 30
0.0
 11
26.63914653999905
 21
145.9760326932101
 31
0.0
  0
LINE
  5
76F
330
1E
100
AcDbEntity
  8
0
  6
Continuous
 62
     7
100
AcDbLine
 10
33.51877753702685
 20
145.000906121063
 30
0.0
 11
26.80126311575464
 21
146.7686730740293
 31
0.0
  0
LINE
  5
770
330
1E
100
AcDbEntity
  8
0
  6
Continuous
100
AcDbLine
 10
34.0
 20
207.5
 30
0.0
 11
22.5
 21
207.5
 31
0.0
  0
LINE
  5
771
330
1E
100
AcDbEntity
  8
0
  6
Continuous
100
AcDbLine
 10
34.0
 20
212.5
 30
0.0
 11
22.5
 21
212.5
 31
0.0
  0
TEXT
  5
772
330
1E
100
AcDbEntity
  8
0
  6
Continuous
100
AcDbText
 10
23.51641337971892
 20
209.6142869959209
 30
0.0
 40
2.0
  1
10
  7
ROMANS
100
AcDbText
  0
LINE
  5
773
330
1E
100
AcDbEntity
  8
0
  6
DASHED
100
AcDbLine
 10
22.5
 20
207.5
 30
0.0
 11
18.5
 21
207.5
 31
0.0
  0
LINE
  5
774
330
1E
100
AcDbEntity
  8
0
  6
DASHED
100
AcDbLine
 10
22.5
 20
212.5
 30
0.0
 11
18.5
 21
212.5
 31
0.0
  0
INSERT
  5
775
330
1E
100
AcDbEntity
  8
0
  6
DASHED
100
AcDbBlockReference
  2
BLC42
 10
15.0
 20
207.5
 30
0.0
  0
LINE
  5
776
330
1E
100
AcDbEntity
  8
0
  6
Continuous
100
AcDbLine
 10
11.5
 20
207.4996553644064
 30
0.0
 11
12.5
 21
206.4996553644064
 31
0.0
  0
INSERT
  5
777
330
1E
100
AcDbEntity
  8
0
  6
DASHED
100
AcDbBlockReference
  2
BLC43
 10
15.0
 20
212.5
 30
0.0
  0
TEXT
  5
778
330
1E
100
AcDbEntity
  8
0
  6
Continuous
100
AcDbText
 10
23.51641337971892
 20
205.1142869959209
 30
0.0
 40
2.0
  1
11
  7
ROMANS
100
AcDbText
  0
LINE
  5
779
330
1E
100
AcDbEntity
  8
0
  6
Continuous
100
AcDbLine
 10
40.49999999999999
 20
207.5
 30
0.0
 11
34.0
 21
207.5
 31
0.0
  0
LINE
  5
77A
330
1E
100
AcDbEntity
  8
0
  6
Continuous
100
AcDbLine
 10
40.0
 20
212.5
 30
0.0
 11
34.0
 21
212.5
 31
0.0
  0
TEXT
  5
77B
330
1E
100
AcDbEntity
  8
0
  6
Continuous
100
AcDbText
 10
23.51641337971892
 20
223.1142869959209
 30
0.0
 40
2.0
  1
101:4A
  7
ROMANS
100
AcDbText
  0
LINE
  5
77C
330
1E
100
AcDbEntity
  8
0
  6
Continuous
 62
     7
100
AcDbLine
 10
22.5
 20
220.0
 30
0.0
 11
28.0
 21
220.0
 31
0.0
  0
LINE
  5
77D
330
1E
100
AcDbEntity
  8
0
  6
DASHED
100
AcDbLine
 10
22.5
 20
220.0
 30
0.0
 11
18.5
 21
220.0
 31
0.0
  0
INSERT
  5
77E
330
1E
100
AcDbEntity
  8
0
  6
DASHED
100
AcDbBlockReference
  2
BLC43
 10
15.0
 20
220.0
 30
0.0
  0
LINE
  5
77F
330
1E
100
AcDbEntity
  8
0
  6
Continuous
100
AcDbLine
 10
11.5
 20
220.0
 30
0.0
 11
12.5
 21
221.0
 31
0.0
  0
LINE
  5
780
330
1E
100
AcDbEntity
  8
0
  6
Continuous
100
AcDbLine
 10
40.0
 20
220.0
 30
0.0
 11
33.5
 21
220.0
 31
0.0
  0
LINE
  5
781
330
1E
100
AcDbEntity
  8
0
  6
Continuous
 62
     7
100
AcDbLine
 10
33.07917168829524
 20
220.0568842611268
 30
0.0
 11
26.90380592228746
 21
221.6819805153394
 31
0.0
  0
LINE
  5
782
330
1E
100
AcDbEntity
  8
0
  6
Continuous
 62
     7
100
AcDbLine
 10
26.90380592228746
 20
221.6819805153394
 30
0.0
 11
26.74168934653187
 21
220.8893401345202
 31
0.0
  0
LINE
  5
783
330
1E
100
AcDbEntity
  8
0
  6
Continuous
 62
     7
100
AcDbLine
 10
28.0
 20
220.0
 30
0.0
 11
28.0
 21
222.0
 31
0.0
  0
LINE
  5
784
330
1E
100
AcDbEntity
  8
0
  6
Continuous
100
AcDbLine
 10
28.0
 20
221.4999999999999
 30
0.0
 11
28.0
 21
222.5
 31
0.0
  0
LINE
  5
785
330
1E
100
AcDbEntity
  8
0
  6
DASHED
100
AcDbLine
 10
34.0
 20
220.0
 30
0.0
 11
33.0
 21
220.0
 31
0.0
  0
TEXT
  5
786
330
1E
100
AcDbEntity
  8
0
  6
Continuous
100
AcDbText
 10
43.01641337971893
 20
70.11428699592091
 30
0.0
 40
2.0
  1
7
  7
ROMANS
100
AcDbText
  0
TEXT
  5
787
330
1E
100
AcDbEntity
  8
0
  6
Continuous
100
AcDbText
 10
43.01641337971893
 20
75.11428699592091
 30
0.0
 40
2.0
  1
9
  7
ROMANS
100
AcDbText
  0
TEXT
  5
788
330
1E
100
AcDbEntity
  8
0
  6
Continuous
100
AcDbText
 10
43.01641337971893
 20
80.11428699592091
 30
0.0
 40
2.0
  1
5
  7
ROMANS
100
AcDbText
  0
TEXT
  5
789
330
1E
100
AcDbEntity
  8
0
  6
Continuous
100
AcDbText
 10
43.01641337971893
 20
85.11428699592091
 30
0.0
 40
2.0
  1
4
  7
ROMANS
100
AcDbText
  0
TEXT
  5
78A
330
1E
100
AcDbEntity
  8
0
  6
Continuous
100
AcDbText
 10
43.01641337971893
 20
100.1142869959209
 30
0.0
 40
2.0
  1
1
  7
ROMANS
100
AcDbText
  0
TEXT
  5
78B
330
1E
100
AcDbEntity
  8
0
  6
Continuous
100
AcDbText
 10
19.19994876317298
 20
34.9812425921388
 30
0.0
 40
2.0
  1
  BLOCKERING IN
  7
ROMANS
100
AcDbText
  0
TEXT
  5
78C
330
1E
100
AcDbEntity
  8
0
  6
Continuous
100
AcDbText
 10
17.86093378777303
 20
38.31457592547214
 30
0.0
 40
2.0
  1
1) BLOCKING INPUT /
  7
ROMANS
100
AcDbText
  0
TEXT
  5
78D
330
1E
100
AcDbEntity
  8
0
  6
Continuous
100
AcDbText
 10
19.19994876317299
 20
25.81457592547214
 30
0.0
 40
2.0
  1
  UTLSNING 1
  7
ROMANS
100
AcDbText
  0
TEXT
  5
78E
330
1E
100
AcDbEntity
  8
0
  6
Continuous
100
AcDbText
 10
17.86093378777305
 20
29.14790925880547
 30
0.0
 40
2.0
  1
2) TRIP 1 /
  7
ROMANS
100
AcDbText
  0
TEXT
  5
78F
330
1E
100
AcDbEntity
  8
0
  6
Continuous
100
AcDbText
 10
86.86093378777306
 20
38.47312088843108
 30
0.0
 40
2.0
  1
3a) TRIP 2 OR ALARM OUTPUT /
  7
ROMANS
100
AcDbText
  0
TEXT
  5
790
330
1E
100
AcDbEntity
  8
0
  6
Continuous
100
AcDbText
 10
90.1890153752222
 20
18.12264921268926
 30
0.0
 40
2.0
  1
  START, BLOCKERING MM.
  7
ROMANS
100
AcDbText
  0
TEXT
  5
791
330
1E
100
AcDbEntity
  8
0
  6
Continuous
100
AcDbText
 10
87.35063717940168
 20
21.45598254602259
 30
0.0
 40
2.0
  1
3c) START, BLOCKING ETC.
  7
ROMANS
100
AcDbText
  0
TEXT
  5
792
330
1E
100
AcDbEntity
  8
0
  6
Continuous
100
AcDbText
 10
90.18878970156249
 20
27.17959924490837
 30
0.0
 40
2.0
  1
  SIGNALUTGNG
  7
ROMANS
100
AcDbText
  0
TEXT
  5
793
330
1E
100
AcDbEntity
  8
0
  6
Continuous
100
AcDbText
 10
87.35063717940168
 20
30.5129325782417
 30
0.0
 40
2.0
  1
3b) ALARM OUTPUT /
  7
ROMANS
100
AcDbText
  0
TEXT
  5
794
330
1E
100
AcDbEntity
  8
0
  6
Continuous
100
AcDbText
 10
89.68473268390708
 20
35.13978755509775
 30
0.0
 40
2.0
  1
  UTLSNING 2 ELLER SIGNALUTGNG
  7
ROMANS
100
AcDbText
  0
INSERT
  5
795
330
1E
100
AcDbEntity
  8
BASE
  6
Continuous
100
AcDbBlockReference
  2
BLC29
 10
227.8947750756322
 20
187.8729919069431
 30
0.0
 50
180.0
  0
LINE
  5
796
330
1E
100
AcDbEntity
  8
0
  6
Continuous
100
AcDbLine
 10
229.4999999999999
 20
103.0
 30
0.0
 11
230.5
 21
103.0
 31
0.0
  0
LINE
  5
797
330
1E
100
AcDbEntity
  8
BASE
  6
Continuous
100
AcDbLine
 10
215.0
 20
188.0
 30
0.0
 11
215.0
 21
57.5
 31
0.0
  0
LINE
  5
798
330
1E
100
AcDbEntity
  8
0
  6
Continuous
100
AcDbLine
 10
215.0
 20
188.0
 30
0.0
 11
230.5
 21
188.0
 31
0.0
  0
LINE
  5
799
330
1E
100
AcDbEntity
  8
0
  6
Continuous
100
AcDbLine
 10
64.5
 20
210.0
 30
0.0
 11
170.0
 21
210.0
 31
0.0
  0
LINE
  5
79A
330
1E
100
AcDbEntity
  8
0
  6
Continuous
100
AcDbLine
 10
170.0
 20
210.0
 30
0.0
 11
170.0
 21
205.0
 31
0.0
  0
LINE
  5
79B
330
1E
100
AcDbEntity
  8
0
  6
Continuous
100
AcDbLine
 10
97.5
 20
148.0
 30
0.0
 11
97.5
 21
141.5
 31
0.0
  0
LINE
  5
79C
330
1E
100
AcDbEntity
  8
0
  6
Continuous
100
AcDbLine
 10
100.0
 20
165.0
 30
0.0
 11
97.5
 21
165.0
 31
0.0
  0
LINE
  5
79D
330
1E
100
AcDbEntity
  8
0
  6
Continuous
100
AcDbLine
 10
70.0
 20
167.5
 30
0.0
 11
73.0
 21
167.5
 31
0.0
  0
LINE
  5
79E
330
1E
100
AcDbEntity
  8
0
  6
Continuous
100
AcDbLine
 10
55.0
 20
170.0
 30
0.0
 11
58.0
 21
170.0
 31
0.0
  0
LINE
  5
79F
330
1E
100
AcDbEntity
  8
0
  6
Continuous
100
AcDbLine
 10
55.0
 20
147.5
 30
0.0
 11
55.0
 21
142.0
 31
0.0
  0
LINE
  5
7A0
330
1E
100
AcDbEntity
  8
0
  6
Continuous
100
AcDbLine
 10
356.4999999999999
 20
207.5
 30
0.0
 11
374.5
 21
207.5
 31
0.0
  0
LINE
  5
7A1
330
1E
100
AcDbEntity
  8
0
  6
Continuous
100
AcDbLine
 10
374.5
 20
207.5
 30
0.0
 11
374.5
 21
238.0
 31
0.0
  0
LINE
  5
7A2
330
1E
100
AcDbEntity
  8
0
  6
Continuous
100
AcDbLine
 10
374.5
 20
238.0
 30
0.0
 11
356.4999999999999
 21
238.0
 31
0.0
  0
LINE
  5
7A3
330
1E
100
AcDbEntity
  8
0
  6
Continuous
100
AcDbLine
 10
356.4999999999999
 20
238.0
 30
0.0
 11
356.4999999999999
 21
207.5
 31
0.0
  0
LINE
  5
7A4
330
1E
100
AcDbEntity
  8
0
  6
Continuous
100
AcDbLine
 10
356.4999999999999
 20
217.5
 30
0.0
 11
374.5
 21
217.5
 31
0.0
  0
LINE
  5
7A5
330
1E
100
AcDbEntity
  8
0
  6
Continuous
100
AcDbLine
 10
161.0
 20
45.0
 30
0.0
 11
222.5003446355935
 21
45.0
 31
0.0
  0
ENDSEC
  0
SECTION
  2
OBJECTS
  0
DICTIONARY
  5
C
330
0
100
AcDbDictionary
281
     1
  3
ACAD_GROUP
350
D
  3
ACAD_LAYOUT
350
19
  3
ACAD_MLINESTYLE
350
16
  3
ACAD_PLOTSETTINGS
350
18
  3
ACAD_PLOTSTYLENAME
350
E
  3
AcDbVariableDictionary
350
7AA
  0
DICTIONARY
  5
D
102
{ACAD_REACTORS
330
C
102
}
330
C
100
AcDbDictionary
281
     1
  0
DICTIONARY
  5
19
102
{ACAD_REACTORS
330
C
102
}
330
C
100
AcDbDictionary
281
     1
  3
Layout1
350
1D
  3
Model
350
21
  0
DICTIONARY
  5
16
102
{ACAD_REACTORS
330
C
102
}
330
C
100
AcDbDictionary
281
     1
  3
Standard
350
17
  0
DICTIONARY
  5
18
102
{ACAD_REACTORS
330
C
102
}
330
C
100
AcDbDictionary
281
     1
  0
ACDBDICTIONARYWDFLT
  5
E
102
{ACAD_REACTORS
330
C
102
}
330
C
100
AcDbDictionary
281
     1
  3
Normal
350
F
100
AcDbDictionaryWithDefault
340
F
  0
DICTIONARY
  5
7AA
102
{ACAD_REACTORS
330
C
102
}
330
C
100
AcDbDictionary
281
     1
  3
DIMASSOC
350
7AC
  3
HIDETEXT
350
7AB
  0
LAYOUT
  5
1D
102
{ACAD_REACTORS
330
19
102
}
330
19
100
AcDbPlotSettings
  1

  2
\\FIVAA-S-IGS2002\FIVAA-P-234
  4

  6

 40
0.0
 41
0.0
 42
0.0
 43
0.0
 44
0.0
 45
0.0
 46
0.0
 47
0.0
 48
0.0
 49
0.0
140
0.0
141
0.0
142
1.0
143
1.0
 70
   688
 72
     0
 73
     0
 74
     5
  7

 75
    16
147
1.0
148
0.0
149
0.0
100
AcDbLayout
  1
Layout1
 70
     0
 71
     1
 10
0.0
 20
0.0
 11
12.0
 21
9.0
 12
0.0
 22
0.0
 32
0.0
 14
1.000000000000000E+20
 24
1.000000000000000E+20
 34
1.000000000000000E+20
 15
-1.000000000000000E+20
 25
-1.000000000000000E+20
 35
-1.000000000000000E+20
146
0.0
 13
0.0
 23
0.0
 33
0.0
 16
1.0
 26
0.0
 36
0.0
 17
0.0
 27
1.0
 37
0.0
 76
     0
330
1A
  0
LAYOUT
  5
21
102
{ACAD_REACTORS
330
19
102
}
330
19
100
AcDbPlotSettings
  1

  2
\\FIVAA-S-IGS2002\FIVAA-P-234
  4

  6

 40
0.0
 41
0.0
 42
0.0
 43
0.0
 44
0.0
 45
0.0
 46
0.0
 47
0.0
 48
0.0
 49
0.0
140
0.0
141
0.0
142
1.0
143
1.0
 70
  1712
 72
     0
 73
     0
 74
     0
  7

 75
     0
147
1.0
148
0.0
149
0.0
100
AcDbLayout
  1
Model
 70
     1
 71
     0
 10
0.0
 20
0.0
 11
12.0
 21
9.0
 12
0.0
 22
0.0
 32
0.0
 14
0.0
 24
0.0
 34
0.0
 15
0.0
 25
0.0
 35
0.0
146
0.0
 13
0.0
 23
0.0
 33
0.0
 16
1.0
 26
0.0
 36
0.0
 17
0.0
 27
1.0
 37
0.0
 76
     0
330
1E
  0
MLINESTYLE
  5
17
102
{ACAD_REACTORS
330
16
102
}
330
16
100
AcDbMlineStyle
  2
STANDARD
 70
     0
  3

 62
   256
 51
90.0
 52
90.0
 71
     2
 49
0.5
 62
   256
  6
BYLAYER
 49
-0.5
 62
   256
  6
BYLAYER
  0
ACDBPLACEHOLDER
  5
F
102
{ACAD_REACTORS
330
E
102
}
330
E
  0
DICTIONARYVAR
  5
7AC
102
{ACAD_REACTORS
330
7AA
102
}
330
7AA
100
DictionaryVariables
280
     0
  1
2
  0
DICTIONARYVAR
  5
7AB
102
{ACAD_REACTORS
330
7AA
102
}
330
7AA
100
DictionaryVariables
280
     0
  1
1
  0
ENDSEC
  0
EOF
