  0
SECTION
  2
HEADER
  9
$ACADVER
  1
AC1009
999
I-DEAS Drafting Master Series 7m3 Not Encoded
  9
$EXTMIN
 10
0.0
 20
0.0
  9
$EXTMAX
 10
2.3326E+002
 20
1.9455E+002
  9
$TEXTSIZE
 40
1.25E-001
  9
$LTSCALE
 40
1.0
  9
$CLAYER
  8
V1L0
  9
$CECOLOR
 62
2
  9
$DIMASZ
 40
1.25E-001
  9
$DIMEXO
 40
6.25E-002
  9
$DIMDLI
 40
2.5E-001
  9
$DIMEXE
 40
1.25E-001
  9
$DIMTP
 40
5.0E-003
  9
$DIMTM
 40
-5.0E-003
  9
$DIMTXT
 40
3.0
  9
$DIMLIM
 70
0
  9
$DIMTIH
 70
1
  9
$DIMTOH
 70
1
  9
$DIMSE1
 70
0
  9
$DIMSE2
 70
0
  9
$DIMTAD
 70
0
  9
$DIMASO
 70
1
  9
$DIMALT
 70
0
  9
$DIMALTD
 70
0
  9
$DIMTOFL
 70
1
  9
$DIMTIX
 70
0
  9
$DIMSAH
 70
0
  9
$DIMTFAC
 40
1.0
  9
$DIMGAP
 40
6.25E-002
  9
$LUNITS
 70
2
  9
$LUPREC
 70
3
  9
$FILLETRAD
 40
1.0E+001
  9
$AUNITS
 70
0
  9
$AUPREC
 70
1
  9
$CHAMFERA
 40
6.0
  9
$CHAMFERB
 40
6.0
  9
$ANGBASE
 50
0.0
  9
$ANGDIR
 70
0
  9
$PDMODE
 70
2
  9
$PDSIZE
 40
-1.0E-002
  9
$SPLINETYPE
 70
6
  0
ENDSEC
  0
SECTION
  2
TABLES
  0
TABLE
  2
LTYPE
 70
8
  0
LTYPE
  2
HIDDENNEW00
  3
_ 
 70
64
 72
65
 73
2
 40
4.5
 49
3.0
 49
-1.5
  0
LTYPE
  2
HIDDENNEW01
  3
_ 
 70
64
 72
65
 73
2
 40
4.5
 49
3.0
 49
-1.5
  0
LTYPE
  2
HIDDEN
  3
_ 
 70
64
 72
65
 73
2
 40
4.5
 49
3.0
 49
-1.5
  0
LTYPE
  2
CENTERLINE
  3
_ 
 70
64
 72
65
 73
4
 40
3.0E+001
 49
2.4E+001
 49
-1.5
 49
3.0
 49
-1.5
  0
LTYPE
  2
PHANTOM
  3
_ 
 70
64
 72
65
 73
6
 40
2.95E+001
 49
1.9E+001
 49
-1.5
 49
3.0
 49
-1.5
 49
3.0
 49
-1.5
  0
LTYPE
  2
SHORT_DASH
  3
_ 
 70
64
 72
65
 73
2
 40
3.0
 49
1.5
 49
-1.5
  0
LTYPE
  2
LONG_DASH
  3
_ 
 70
64
 72
65
 73
2
 40
9.0
 49
4.5
 49
-4.5
  0
LTYPE
  2
DASHED
  3
_ 
 70
64
 72
65
 73
2
 40
1.375
 49
1.125
 49
-2.5E-001
  0
ENDTAB
  0
TABLE
  2
LAYER
 70
258
  0
LAYER
  2
V1L0
 70
0
 62
7
  6
HIDDENNEW00
  0
LAYER
  2
Drafting_Hidden_Entities
 70
1
 62
7
  6
CONTINUOUS
  0
ENDTAB
  0
TABLE
  2
STYLE
 70
1
  0
STYLE
  2
STANDARD
 70
64
 40
0.0
 41
1.0
 50
0.0
 71
0
 42
1.0
  3
monotxt.shx
  4

  0
ENDTAB
  0
TABLE
  2
VIEW
 70
0
  0
ENDTAB
  0
TABLE
  2
DIMSTYLE
 70
0
  0
ENDTAB
  0
ENDSEC
  0
SECTION
  2
BLOCKS
  0
ENDSEC
  0
SECTION
  2
ENTITIES
  0
LINE
  8
V1L0
  6
CONTINUOUS
 62
40
 10
1.0613E+002
 20
9.5E+001
 11
1.0663E+002
 21
9.5E+001
  0
LINE
  8
V1L0
  6
CONTINUOUS
 62
40
 10
1.0613E+002
 20
1.0
 11
1.0663E+002
 21
1.0
  0
LINE
  8
V1L0
  6
CONTINUOUS
 62
40
 10
1.0663E+002
 20
1.0
 11
1.0663E+002
 21
9.5E+001
  0
LINE
  8
V1L0
  6
CONTINUOUS
 62
40
 10
1.0613E+002
 20
1.0
 11
1.0613E+002
 21
9.5E+001
  0
LINE
  8
V1L0
  6
CONTINUOUS
 62
40
 10
1.0663E+002
 20
2.25E+001
 11
1.2663E+002
 21
2.25E+001
  0
LINE
  8
V1L0
  6
CONTINUOUS
 62
40
 10
1.0663E+002
 20
7.35E+001
 11
1.2663E+002
 21
7.35E+001
  0
LINE
  8
V1L0
  6
CONTINUOUS
 62
40
 10
1.2663E+002
 20
2.25E+001
 11
1.2663E+002
 21
7.35E+001
  0
LINE
  8
V1L0
  6
CONTINUOUS
 62
40
 10
1.2663E+002
 20
2.8E+001
 11
1.3113E+002
 21
2.8E+001
  0
LINE
  8
V1L0
  6
CONTINUOUS
 62
40
 10
1.2663E+002
 20
3.3E+001
 11
1.3113E+002
 21
3.3E+001
  0
LINE
  8
V1L0
  6
CONTINUOUS
 62
40
 10
1.2663E+002
 20
6.3E+001
 11
1.3113E+002
 21
6.3E+001
  0
LINE
  8
V1L0
  6
CONTINUOUS
 62
40
 10
1.2663E+002
 20
6.8E+001
 11
1.3113E+002
 21
6.8E+001
  0
LINE
  8
V1L0
  6
CONTINUOUS
 62
40
 10
1.3113E+002
 20
6.3E+001
 11
1.3113E+002
 21
6.8E+001
  0
LINE
  8
V1L0
  6
CONTINUOUS
 62
40
 10
1.3113E+002
 20
2.8E+001
 11
1.3113E+002
 21
3.3E+001
  0
LINE
  8
V1L0
  6
CONTINUOUS
 62
40
 10
1.1713E+002
 20
7.6E+001
 11
1.1713E+002
 21
7.775E+001
  0
LINE
  8
V1L0
  6
CONTINUOUS
 62
40
 10
1.1713E+002
 20
7.6E+001
 11
1.2463E+002
 21
7.6E+001
  0
LINE
  8
V1L0
  6
CONTINUOUS
 62
40
 10
1.1663E+002
 20
7.564E+001
 11
1.1713E+002
 21
7.6E+001
  0
LINE
  8
V1L0
  6
CONTINUOUS
 62
40
 10
1.2063E+002
 20
7.35E+001
 11
1.2063E+002
 21
7.6E+001
  0
LINE
  8
V1L0
  6
CONTINUOUS
 62
40
 10
1.1713E+002
 20
8.45E+001
 11
1.2463E+002
 21
8.45E+001
  0
LINE
  8
V1L0
  6
CONTINUOUS
 62
40
 10
1.2463E+002
 20
7.6E+001
 11
1.2463E+002
 21
8.45E+001
  0
ARC
  8
V1L0
  6
CONTINUOUS
 62
40
 10
1.2088237E+002
 20
8.02484E+001
 40
3.5
 50
2.0179E+002
 51
5.1821E+002
  0
LINE
  8
V1L0
  6
CONTINUOUS
 62
40
 10
1.1855E+002
 20
7.764E+001
 11
1.2082E+002
 21
7.955E+001
  0
LINE
  8
V1L0
  6
CONTINUOUS
 62
40
 10
1.179E+002
 20
7.841E+001
 11
1.2018E+002
 21
8.031E+001
  0
LINE
  8
V1L0
  6
CONTINUOUS
 62
40
 10
1.1889E+002
 20
8.184E+001
 11
1.2018E+002
 21
8.031E+001
  0
LINE
  8
V1L0
  6
CONTINUOUS
 62
40
 10
1.1966E+002
 20
8.249E+001
 11
1.2094E+002
 21
8.095E+001
  0
LINE
  8
V1L0
  6
CONTINUOUS
 62
40
 10
1.221E+002
 20
7.801E+001
 11
1.2287E+002
 21
7.866E+001
  0
LINE
  8
V1L0
  6
CONTINUOUS
 62
40
 10
1.1889E+002
 20
8.184E+001
 11
1.1966E+002
 21
8.249E+001
  0
LINE
  8
V1L0
  6
CONTINUOUS
 62
40
 10
1.2094E+002
 20
8.095E+001
 11
1.2321E+002
 21
8.286E+001
  0
LINE
  8
V1L0
  6
CONTINUOUS
 62
40
 10
1.2158E+002
 20
8.019E+001
 11
1.2386E+002
 21
8.209E+001
  0
LINE
  8
V1L0
  6
CONTINUOUS
 62
40
 10
1.2082E+002
 20
7.955E+001
 11
1.221E+002
 21
7.801E+001
  0
LINE
  8
V1L0
  6
CONTINUOUS
 62
40
 10
1.2158E+002
 20
8.019E+001
 11
1.2287E+002
 21
7.866E+001
  0
LINE
  8
V1L0
  6
CONTINUOUS
 62
40
 10
1.1613E+002
 20
7.6E+001
 11
1.1613E+002
 21
8.45E+001
  0
LINE
  8
V1L0
  6
CONTINUOUS
 62
40
 10
1.0863E+002
 20
7.6E+001
 11
1.1613E+002
 21
7.6E+001
  0
LINE
  8
V1L0
  6
CONTINUOUS
 62
40
 10
1.1613E+002
 20
7.6E+001
 11
1.1963E+002
 21
7.35E+001
  0
LINE
  8
V1L0
  6
CONTINUOUS
 62
40
 10
1.1263E+002
 20
7.35E+001
 11
1.1263E+002
 21
7.6E+001
  0
LINE
  8
V1L0
  6
CONTINUOUS
 62
40
 10
1.0863E+002
 20
8.45E+001
 11
1.1613E+002
 21
8.45E+001
  0
LINE
  8
V1L0
  6
CONTINUOUS
 62
40
 10
1.0863E+002
 20
7.6E+001
 11
1.0863E+002
 21
8.45E+001
  0
LINE
  8
V1L0
  6
CONTINUOUS
 62
40
 10
1.1763E+002
 20
7.775E+001
 11
1.1763E+002
 21
8.275E+001
  0
LINE
  8
V1L0
  6
CONTINUOUS
 62
40
 10
1.1613E+002
 20
7.775E+001
 11
1.1763E+002
 21
7.775E+001
  0
LINE
  8
V1L0
  6
CONTINUOUS
 62
40
 10
1.1613E+002
 20
8.275E+001
 11
1.1763E+002
 21
8.275E+001
  0
CIRCLE
  8
V1L0
  6
CONTINUOUS
 62
40
 10
1.1238237E+002
 20
8.02484E+001
 40
3.5
  0
LINE
  8
V1L0
  6
CONTINUOUS
 62
40
 10
1.1244E+002
 20
7.955E+001
 11
1.1471E+002
 21
7.764E+001
  0
LINE
  8
V1L0
  6
CONTINUOUS
 62
40
 10
1.1308E+002
 20
8.031E+001
 11
1.1536E+002
 21
7.841E+001
  0
LINE
  8
V1L0
  6
CONTINUOUS
 62
40
 10
1.1308E+002
 20
8.031E+001
 11
1.1437E+002
 21
8.184E+001
  0
LINE
  8
V1L0
  6
CONTINUOUS
 62
40
 10
1.1232E+002
 20
8.095E+001
 11
1.136E+002
 21
8.249E+001
  0
LINE
  8
V1L0
  6
CONTINUOUS
 62
40
 10
1.1039E+002
 20
7.866E+001
 11
1.1116E+002
 21
7.801E+001
  0
LINE
  8
V1L0
  6
CONTINUOUS
 62
40
 10
1.136E+002
 20
8.249E+001
 11
1.1437E+002
 21
8.184E+001
  0
LINE
  8
V1L0
  6
CONTINUOUS
 62
40
 10
1.1005E+002
 20
8.286E+001
 11
1.1232E+002
 21
8.095E+001
  0
LINE
  8
V1L0
  6
CONTINUOUS
 62
40
 10
1.094E+002
 20
8.209E+001
 11
1.1168E+002
 21
8.019E+001
  0
LINE
  8
V1L0
  6
CONTINUOUS
 62
40
 10
1.1116E+002
 20
7.801E+001
 11
1.1244E+002
 21
7.955E+001
  0
LINE
  8
V1L0
  6
CONTINUOUS
 62
40
 10
1.1039E+002
 20
7.866E+001
 11
1.1168E+002
 21
8.019E+001
  0
LINE
  8
V1L0
  6
CONTINUOUS
 62
40
 10
1.1713E+002
 20
8.275E+001
 11
1.1713E+002
 21
8.45E+001
  0
LINE
  8
V1L0
  6
CONTINUOUS
 62
40
 10
1.1613E+002
 20
1.825E+001
 11
1.1613E+002
 21
2.0E+001
  0
LINE
  8
V1L0
  6
CONTINUOUS
 62
40
 10
1.0863E+002
 20
2.0E+001
 11
1.1613E+002
 21
2.0E+001
  0
LINE
  8
V1L0
  6
CONTINUOUS
 62
40
 10
1.1613E+002
 20
2.0E+001
 11
1.1663E+002
 21
2.036E+001
  0
LINE
  8
V1L0
  6
CONTINUOUS
 62
40
 10
1.1263E+002
 20
2.0E+001
 11
1.1263E+002
 21
2.25E+001
  0
LINE
  8
V1L0
  6
CONTINUOUS
 62
40
 10
1.0863E+002
 20
1.15E+001
 11
1.1613E+002
 21
1.15E+001
  0
LINE
  8
V1L0
  6
CONTINUOUS
 62
40
 10
1.0863E+002
 20
1.15E+001
 11
1.0863E+002
 21
2.0E+001
  0
ARC
  8
V1L0
  6
CONTINUOUS
 62
40
 10
1.1238237E+002
 20
1.57484E+001
 40
3.5
 50
2.179E+001
 51
3.3821E+002
  0
LINE
  8
V1L0
  6
CONTINUOUS
 62
40
 10
1.1244E+002
 20
1.645E+001
 11
1.1471E+002
 21
1.836E+001
  0
LINE
  8
V1L0
  6
CONTINUOUS
 62
40
 10
1.1308E+002
 20
1.569E+001
 11
1.1536E+002
 21
1.759E+001
  0
LINE
  8
V1L0
  6
CONTINUOUS
 62
40
 10
1.1308E+002
 20
1.569E+001
 11
1.1437E+002
 21
1.416E+001
  0
LINE
  8
V1L0
  6
CONTINUOUS
 62
40
 10
1.1232E+002
 20
1.505E+001
 11
1.136E+002
 21
1.351E+001
  0
LINE
  8
V1L0
  6
CONTINUOUS
 62
40
 10
1.1039E+002
 20
1.734E+001
 11
1.1116E+002
 21
1.799E+001
  0
LINE
  8
V1L0
  6
CONTINUOUS
 62
40
 10
1.136E+002
 20
1.351E+001
 11
1.1437E+002
 21
1.416E+001
  0
LINE
  8
V1L0
  6
CONTINUOUS
 62
40
 10
1.1005E+002
 20
1.314E+001
 11
1.1232E+002
 21
1.505E+001
  0
LINE
  8
V1L0
  6
CONTINUOUS
 62
40
 10
1.094E+002
 20
1.391E+001
 11
1.1168E+002
 21
1.581E+001
  0
LINE
  8
V1L0
  6
CONTINUOUS
 62
40
 10
1.1116E+002
 20
1.799E+001
 11
1.1244E+002
 21
1.645E+001
  0
LINE
  8
V1L0
  6
CONTINUOUS
 62
40
 10
1.1039E+002
 20
1.734E+001
 11
1.1168E+002
 21
1.581E+001
  0
LINE
  8
V1L0
  6
CONTINUOUS
 62
40
 10
1.1713E+002
 20
1.15E+001
 11
1.1713E+002
 21
2.0E+001
  0
LINE
  8
V1L0
  6
CONTINUOUS
 62
40
 10
1.1713E+002
 20
2.0E+001
 11
1.2463E+002
 21
2.0E+001
  0
LINE
  8
V1L0
  6
CONTINUOUS
 62
40
 10
1.1363E+002
 20
2.25E+001
 11
1.1713E+002
 21
2.0E+001
  0
LINE
  8
V1L0
  6
CONTINUOUS
 62
40
 10
1.2063E+002
 20
2.0E+001
 11
1.2063E+002
 21
2.25E+001
  0
LINE
  8
V1L0
  6
CONTINUOUS
 62
40
 10
1.1713E+002
 20
1.15E+001
 11
1.2463E+002
 21
1.15E+001
  0
LINE
  8
V1L0
  6
CONTINUOUS
 62
40
 10
1.2463E+002
 20
1.15E+001
 11
1.2463E+002
 21
2.0E+001
  0
LINE
  8
V1L0
  6
CONTINUOUS
 62
40
 10
1.1563E+002
 20
1.325E+001
 11
1.1563E+002
 21
1.825E+001
  0
LINE
  8
V1L0
  6
CONTINUOUS
 62
40
 10
1.1563E+002
 20
1.825E+001
 11
1.1713E+002
 21
1.825E+001
  0
LINE
  8
V1L0
  6
CONTINUOUS
 62
40
 10
1.1563E+002
 20
1.325E+001
 11
1.1713E+002
 21
1.325E+001
  0
CIRCLE
  8
V1L0
  6
CONTINUOUS
 62
40
 10
1.2088237E+002
 20
1.57484E+001
 40
3.5
  0
LINE
  8
V1L0
  6
CONTINUOUS
 62
40
 10
1.1855E+002
 20
1.836E+001
 11
1.2082E+002
 21
1.645E+001
  0
LINE
  8
V1L0
  6
CONTINUOUS
 62
40
 10
1.179E+002
 20
1.759E+001
 11
1.2018E+002
 21
1.569E+001
  0
LINE
  8
V1L0
  6
CONTINUOUS
 62
40
 10
1.1889E+002
 20
1.416E+001
 11
1.2018E+002
 21
1.569E+001
  0
LINE
  8
V1L0
  6
CONTINUOUS
 62
40
 10
1.1966E+002
 20
1.351E+001
 11
1.2094E+002
 21
1.505E+001
  0
LINE
  8
V1L0
  6
CONTINUOUS
 62
40
 10
1.221E+002
 20
1.799E+001
 11
1.2287E+002
 21
1.734E+001
  0
LINE
  8
V1L0
  6
CONTINUOUS
 62
40
 10
1.1889E+002
 20
1.416E+001
 11
1.1966E+002
 21
1.351E+001
  0
LINE
  8
V1L0
  6
CONTINUOUS
 62
40
 10
1.2094E+002
 20
1.505E+001
 11
1.2321E+002
 21
1.314E+001
  0
LINE
  8
V1L0
  6
CONTINUOUS
 62
40
 10
1.2158E+002
 20
1.581E+001
 11
1.2386E+002
 21
1.391E+001
  0
LINE
  8
V1L0
  6
CONTINUOUS
 62
40
 10
1.2082E+002
 20
1.645E+001
 11
1.221E+002
 21
1.799E+001
  0
LINE
  8
V1L0
  6
CONTINUOUS
 62
40
 10
1.2158E+002
 20
1.581E+001
 11
1.2287E+002
 21
1.734E+001
  0
LINE
  8
V1L0
  6
CONTINUOUS
 62
40
 10
1.1613E+002
 20
1.15E+001
 11
1.1613E+002
 21
1.325E+001
  0
LINE
  8
V1L0
  6
CONTINUOUS
 62
40
 10
3.4E+001
 20
2.25E+001
 11
3.4E+001
 21
7.35E+001
  0
LINE
  8
V1L0
  6
CONTINUOUS
 62
40
 10
5.9E+001
 20
4.8E+001
 11
5.9E+001
 21
7.35E+001
  0
LINE
  8
V1L0
  6
CONTINUOUS
 62
40
 10
1.0
 20
1.0
 11
1.0
 21
9.5E+001
  0
LINE
  8
V1L0
  6
CONTINUOUS
 62
40
 10
5.75E+001
 20
7.35E+001
 11
5.75E+001
 21
7.783E+001
  0
LINE
  8
V1L0
  6
CONTINUOUS
 62
40
 10
3.4E+001
 20
7.35E+001
 11
5.9E+001
 21
7.35E+001
  0
LINE
  8
V1L0
  6
CONTINUOUS
 62
40
 10
3.4E+001
 20
2.25E+001
 11
5.9E+001
 21
2.25E+001
  0
CIRCLE
  8
V1L0
  6
CONTINUOUS
 62
40
 10
1.9002371E+001
 20
6.54984E+001
 40
1.25
  0
CIRCLE
  8
V1L0
  6
CONTINUOUS
 62
40
 10
1.9002371E+001
 20
3.04984E+001
 40
1.25
  0
LINE
  8
V1L0
  6
CONTINUOUS
 62
40
 10
1.0
 20
9.5E+001
 11
5.75E+001
 21
9.5E+001
  0
LINE
  8
V1L0
  6
CONTINUOUS
 62
40
 10
1.0
 20
1.0
 11
5.75E+001
 21
1.0
  0
LINE
  8
V1L0
  6
CONTINUOUS
 62
40
 10
5.75E+001
 20
1.0
 11
5.75E+001
 21
1.506E+001
  0
LINE
  8
V1L0
  6
CONTINUOUS
 62
40
 10
5.9E+001
 20
2.25E+001
 11
5.9E+001
 21
4.8E+001
  0
CIRCLE
  8
V1L0
  6
CONTINUOUS
 62
40
 10
4.6502371E+001
 20
3.04984E+001
 40
2.75
  0
LINE
  8
V1L0
  6
CONTINUOUS
 62
40
 10
4.438E+001
 20
3.225E+001
 11
4.786E+001
 21
2.811E+001
  0
LINE
  8
V1L0
  6
CONTINUOUS
 62
40
 10
4.515E+001
 20
3.289E+001
 11
4.862E+001
 21
2.875E+001
  0
CIRCLE
  8
V1L0
  6
CONTINUOUS
 62
40
 10
4.6502371E+001
 20
6.54984E+001
 40
2.75
  0
LINE
  8
V1L0
  6
CONTINUOUS
 62
40
 10
4.515E+001
 20
6.789E+001
 11
4.862E+001
 21
6.375E+001
  0
LINE
  8
V1L0
  6
CONTINUOUS
 62
40
 10
4.438E+001
 20
6.725E+001
 11
4.786E+001
 21
6.311E+001
  0
LINE
  8
V1L0
  6
CONTINUOUS
 62
40
 10
5.25E+001
 20
7.35E+001
 11
5.345E+001
 21
7.696E+001
  0
LINE
  8
V1L0
  6
CONTINUOUS
 62
40
 10
5.55E+001
 20
8.45E+001
 11
5.695E+001
 21
8.411E+001
  0
LINE
  8
V1L0
  6
CONTINUOUS
 62
40
 10
5.406E+001
 20
7.35E+001
 11
5.695E+001
 21
8.411E+001
  0
LINE
  8
V1L0
  6
CONTINUOUS
 62
40
 10
5.029E+001
 20
7.679E+001
 11
5.261E+001
 21
8.529E+001
  0
LINE
  8
V1L0
  6
CONTINUOUS
 62
40
 10
4.822E+001
 20
7.868E+001
 11
4.986E+001
 21
8.471E+001
  0
LINE
  8
V1L0
  6
CONTINUOUS
 62
40
 10
5.029E+001
 20
7.679E+001
 11
5.29E+001
 21
7.608E+001
  0
LINE
  8
V1L0
  6
CONTINUOUS
 62
40
 10
5.048E+001
 20
8.507E+001
 11
5.24E+001
 21
8.454E+001
  0
LINE
  8
V1L0
  6
CONTINUOUS
 62
40
 10
4.857E+001
 20
7.807E+001
 11
5.05E+001
 21
7.754E+001
  0
ARC
  8
V1L0
  6
CONTINUOUS
 62
40
 10
5.0342371E+001
 20
8.45784E+001
 40
5.0E-001
 50
7.474E+001
 51
1.6474E+002
  0
ARC
  8
V1L0
  6
CONTINUOUS
 62
40
 10
4.8702371E+001
 20
7.85484E+001
 40
5.0E-001
 50
1.6474E+002
 51
2.5474E+002
  0
LINE
  8
V1L0
  6
CONTINUOUS
 62
40
 10
5.521E+001
 20
8.458E+001
 11
5.524E+001
 21
8.354E+001
  0
LINE
  8
V1L0
  6
CONTINUOUS
 62
40
 10
5.261E+001
 20
8.529E+001
 11
5.521E+001
 21
8.458E+001
  0
LINE
  8
V1L0
  6
CONTINUOUS
 62
40
 10
5.29E+001
 20
7.608E+001
 11
5.345E+001
 21
7.696E+001
  0
LINE
  8
V1L0
  6
CONTINUOUS
 62
40
 10
5.345E+001
 20
7.696E+001
 11
5.55E+001
 21
8.45E+001
  0
LINE
  8
V1L0
  6
CONTINUOUS
 62
40
 10
5.54E+001
 20
7.841E+001
 11
5.829E+001
 21
7.762E+001
  0
LINE
  8
V1L0
  6
CONTINUOUS
 62
40
 10
5.619E+001
 20
8.13E+001
 11
5.908E+001
 21
8.051E+001
  0
LINE
  8
V1L0
  6
CONTINUOUS
 62
40
 10
5.829E+001
 20
7.762E+001
 11
5.908E+001
 21
8.051E+001
  0
LINE
  8
V1L0
  6
CONTINUOUS
 62
40
 10
3.894E+001
 20
7.35E+001
 11
3.989E+001
 21
7.696E+001
  0
LINE
  8
V1L0
  6
CONTINUOUS
 62
40
 10
4.194E+001
 20
8.45E+001
 11
4.339E+001
 21
8.411E+001
  0
LINE
  8
V1L0
  6
CONTINUOUS
 62
40
 10
4.05E+001
 20
7.35E+001
 11
4.339E+001
 21
8.411E+001
  0
LINE
  8
V1L0
  6
CONTINUOUS
 62
40
 10
3.673E+001
 20
7.679E+001
 11
3.905E+001
 21
8.529E+001
  0
LINE
  8
V1L0
  6
CONTINUOUS
 62
40
 10
3.466E+001
 20
7.868E+001
 11
3.63E+001
 21
8.471E+001
  0
LINE
  8
V1L0
  6
CONTINUOUS
 62
40
 10
3.673E+001
 20
7.679E+001
 11
3.934E+001
 21
7.608E+001
  0
LINE
  8
V1L0
  6
CONTINUOUS
 62
40
 10
3.692E+001
 20
8.507E+001
 11
3.884E+001
 21
8.454E+001
  0
LINE
  8
V1L0
  6
CONTINUOUS
 62
40
 10
3.501E+001
 20
7.807E+001
 11
3.694E+001
 21
7.754E+001
  0
ARC
  8
V1L0
  6
CONTINUOUS
 62
40
 10
3.6782371E+001
 20
8.45784E+001
 40
5.0E-001
 50
7.474E+001
 51
1.6474E+002
  0
ARC
  8
V1L0
  6
CONTINUOUS
 62
40
 10
3.5142371E+001
 20
7.85484E+001
 40
5.0E-001
 50
1.6474E+002
 51
2.5474E+002
  0
LINE
  8
V1L0
  6
CONTINUOUS
 62
40
 10
4.165E+001
 20
8.458E+001
 11
4.168E+001
 21
8.354E+001
  0
LINE
  8
V1L0
  6
CONTINUOUS
 62
40
 10
3.905E+001
 20
8.529E+001
 11
4.165E+001
 21
8.458E+001
  0
LINE
  8
V1L0
  6
CONTINUOUS
 62
40
 10
3.934E+001
 20
7.608E+001
 11
3.989E+001
 21
7.696E+001
  0
LINE
  8
V1L0
  6
CONTINUOUS
 62
40
 10
3.989E+001
 20
7.696E+001
 11
4.013E+001
 21
7.784E+001
  0
LINE
  8
V1L0
  6
CONTINUOUS
 62
40
 10
3.771E+001
 20
7.85E+001
 11
3.903E+001
 21
8.332E+001
  0
LINE
  8
V1L0
  6
CONTINUOUS
 62
40
 10
3.771E+001
 20
7.85E+001
 11
4.157E+001
 21
7.744E+001
  0
LINE
  8
V1L0
  6
CONTINUOUS
 62
40
 10
3.903E+001
 20
8.332E+001
 11
4.289E+001
 21
8.227E+001
  0
LINE
  8
V1L0
  6
CONTINUOUS
 62
40
 10
4.184E+001
 20
7.841E+001
 11
4.473E+001
 21
7.762E+001
  0
LINE
  8
V1L0
  6
CONTINUOUS
 62
40
 10
4.263E+001
 20
8.13E+001
 11
4.552E+001
 21
8.051E+001
  0
LINE
  8
V1L0
  6
CONTINUOUS
 62
40
 10
4.473E+001
 20
7.762E+001
 11
4.552E+001
 21
8.051E+001
  0
LINE
  8
V1L0
  6
CONTINUOUS
 62
40
 10
4.144E+001
 20
8.266E+001
 11
4.194E+001
 21
8.45E+001
  0
LINE
  8
V1L0
  6
CONTINUOUS
 62
40
 10
5.75E+001
 20
8.094E+001
 11
5.75E+001
 21
9.5E+001
  0
LINE
  8
V1L0
  6
CONTINUOUS
 62
40
 10
5.25E+001
 20
2.25E+001
 11
5.345E+001
 21
1.904E+001
  0
LINE
  8
V1L0
  6
CONTINUOUS
 62
40
 10
5.55E+001
 20
1.15E+001
 11
5.695E+001
 21
1.189E+001
  0
LINE
  8
V1L0
  6
CONTINUOUS
 62
40
 10
5.406E+001
 20
2.25E+001
 11
5.695E+001
 21
1.189E+001
  0
LINE
  8
V1L0
  6
CONTINUOUS
 62
40
 10
5.029E+001
 20
1.921E+001
 11
5.261E+001
 21
1.071E+001
  0
LINE
  8
V1L0
  6
CONTINUOUS
 62
40
 10
4.822E+001
 20
1.732E+001
 11
4.986E+001
 21
1.129E+001
  0
LINE
  8
V1L0
  6
CONTINUOUS
 62
40
 10
5.029E+001
 20
1.921E+001
 11
5.29E+001
 21
1.992E+001
  0
LINE
  8
V1L0
  6
CONTINUOUS
 62
40
 10
5.048E+001
 20
1.093E+001
 11
5.24E+001
 21
1.146E+001
  0
LINE
  8
V1L0
  6
CONTINUOUS
 62
40
 10
4.857E+001
 20
1.793E+001
 11
5.05E+001
 21
1.846E+001
  0
ARC
  8
V1L0
  6
CONTINUOUS
 62
40
 10
5.0342371E+001
 20
1.14184E+001
 40
5.0E-001
 50
1.9526E+002
 51
2.8526E+002
  0
ARC
  8
V1L0
  6
CONTINUOUS
 62
40
 10
4.8702371E+001
 20
1.74484E+001
 40
5.0E-001
 50
1.0526E+002
 51
1.9526E+002
  0
LINE
  8
V1L0
  6
CONTINUOUS
 62
40
 10
5.521E+001
 20
1.142E+001
 11
5.524E+001
 21
1.246E+001
  0
LINE
  8
V1L0
  6
CONTINUOUS
 62
40
 10
5.261E+001
 20
1.071E+001
 11
5.521E+001
 21
1.142E+001
  0
LINE
  8
V1L0
  6
CONTINUOUS
 62
40
 10
5.29E+001
 20
1.992E+001
 11
5.345E+001
 21
1.904E+001
  0
LINE
  8
V1L0
  6
CONTINUOUS
 62
40
 10
5.5E+001
 20
1.334E+001
 11
5.55E+001
 21
1.15E+001
  0
LINE
  8
V1L0
  6
CONTINUOUS
 62
40
 10
5.54E+001
 20
1.759E+001
 11
5.829E+001
 21
1.838E+001
  0
LINE
  8
V1L0
  6
CONTINUOUS
 62
40
 10
5.619E+001
 20
1.47E+001
 11
5.908E+001
 21
1.549E+001
  0
LINE
  8
V1L0
  6
CONTINUOUS
 62
40
 10
3.894E+001
 20
2.25E+001
 11
3.989E+001
 21
1.904E+001
  0
LINE
  8
V1L0
  6
CONTINUOUS
 62
40
 10
4.194E+001
 20
1.15E+001
 11
4.339E+001
 21
1.189E+001
  0
LINE
  8
V1L0
  6
CONTINUOUS
 62
40
 10
4.05E+001
 20
2.25E+001
 11
4.339E+001
 21
1.189E+001
  0
LINE
  8
V1L0
  6
CONTINUOUS
 62
40
 10
3.673E+001
 20
1.921E+001
 11
3.905E+001
 21
1.071E+001
  0
LINE
  8
V1L0
  6
CONTINUOUS
 62
40
 10
3.466E+001
 20
1.732E+001
 11
3.63E+001
 21
1.129E+001
  0
LINE
  8
V1L0
  6
CONTINUOUS
 62
40
 10
3.673E+001
 20
1.921E+001
 11
3.934E+001
 21
1.992E+001
  0
LINE
  8
V1L0
  6
CONTINUOUS
 62
40
 10
3.692E+001
 20
1.093E+001
 11
3.884E+001
 21
1.146E+001
  0
LINE
  8
V1L0
  6
CONTINUOUS
 62
40
 10
3.501E+001
 20
1.793E+001
 11
3.694E+001
 21
1.846E+001
  0
ARC
  8
V1L0
  6
CONTINUOUS
 62
40
 10
3.6782371E+001
 20
1.14184E+001
 40
5.0E-001
 50
1.9526E+002
 51
2.8526E+002
  0
ARC
  8
V1L0
  6
CONTINUOUS
 62
40
 10
3.5142371E+001
 20
1.74484E+001
 40
5.0E-001
 50
1.0526E+002
 51
1.9526E+002
  0
LINE
  8
V1L0
  6
CONTINUOUS
 62
40
 10
4.165E+001
 20
1.142E+001
 11
4.168E+001
 21
1.246E+001
  0
LINE
  8
V1L0
  6
CONTINUOUS
 62
40
 10
3.905E+001
 20
1.071E+001
 11
4.165E+001
 21
1.142E+001
  0
LINE
  8
V1L0
  6
CONTINUOUS
 62
40
 10
3.934E+001
 20
1.992E+001
 11
3.989E+001
 21
1.904E+001
  0
LINE
  8
V1L0
  6
CONTINUOUS
 62
40
 10
3.989E+001
 20
1.904E+001
 11
4.194E+001
 21
1.15E+001
  0
LINE
  8
V1L0
  6
CONTINUOUS
 62
40
 10
5.127E+001
 20
1.75E+001
 11
5.259E+001
 21
1.268E+001
  0
LINE
  8
V1L0
  6
CONTINUOUS
 62
40
 10
5.127E+001
 20
1.75E+001
 11
5.513E+001
 21
1.856E+001
  0
LINE
  8
V1L0
  6
CONTINUOUS
 62
40
 10
5.259E+001
 20
1.268E+001
 11
5.645E+001
 21
1.373E+001
  0
LINE
  8
V1L0
  6
CONTINUOUS
 62
40
 10
4.184E+001
 20
1.759E+001
 11
4.473E+001
 21
1.838E+001
  0
LINE
  8
V1L0
  6
CONTINUOUS
 62
40
 10
4.263E+001
 20
1.47E+001
 11
4.552E+001
 21
1.549E+001
  0
LINE
  8
V1L0
  6
CONTINUOUS
 62
40
 10
4.473E+001
 20
1.838E+001
 11
4.552E+001
 21
1.549E+001
  0
LINE
  8
V1L0
  6
CONTINUOUS
 62
40
 10
5.829E+001
 20
1.838E+001
 11
5.908E+001
 21
1.549E+001
  0
LINE
  8
V1L0
  6
CONTINUOUS
 62
40
 10
5.75E+001
 20
1.817E+001
 11
5.75E+001
 21
2.25E+001
  0
LINE
  8
V1L0
  6
CONTINUOUS
 62
40
 10
5.345E+001
 20
1.904E+001
 11
5.369E+001
 21
1.816E+001
  0
LINE
  8
V1L0
  6
CONTINUOUS
 62
40
 10
1.2663E+002
 20
1.3555E+002
 11
1.2663E+002
 21
1.6055E+002
  0
LINE
  8
V1L0
  6
CONTINUOUS
 62
40
 10
1.0663E+002
 20
1.3555E+002
 11
1.0663E+002
 21
1.6055E+002
  0
LINE
  8
V1L0
  6
CONTINUOUS
 62
40
 10
1.0663E+002
 20
1.6055E+002
 11
1.2663E+002
 21
1.6055E+002
  0
LINE
  8
V1L0
  6
CONTINUOUS
 62
40
 10
1.0663E+002
 20
1.3555E+002
 11
1.1145E+002
 21
1.3555E+002
  0
LINE
  8
V1L0
  6
CONTINUOUS
 62
40
 10
1.0663E+002
 20
1.3705E+002
 11
1.0663E+002
 21
1.9355E+002
  0
LINE
  8
V1L0
  6
CONTINUOUS
 62
40
 10
1.0613E+002
 20
1.3705E+002
 11
1.0663E+002
 21
1.3705E+002
  0
LINE
  8
V1L0
  6
CONTINUOUS
 62
40
 10
1.3113E+002
 20
1.453E+002
 11
1.3113E+002
 21
1.508E+002
  0
LINE
  8
V1L0
  6
CONTINUOUS
 62
40
 10
1.2663E+002
 20
1.453E+002
 11
1.3113E+002
 21
1.453E+002
  0
LINE
  8
V1L0
  6
CONTINUOUS
 62
40
 10
1.2663E+002
 20
1.508E+002
 11
1.3113E+002
 21
1.508E+002
  0
LINE
  8
V1L0
  6
CONTINUOUS
 62
40
 10
1.1713E+002
 20
1.5261E+002
 11
1.1713E+002
 21
1.5684E+002
  0
LINE
  8
V1L0
  6
CONTINUOUS
 62
40
 10
1.2463E+002
 20
1.5117E+002
 11
1.2463E+002
 21
1.5663E+002
  0
LINE
  8
V1L0
  6
CONTINUOUS
 62
40
 10
1.1563E+002
 20
1.5117E+002
 11
1.1563E+002
 21
1.5684E+002
  0
LINE
  8
V1L0
  6
CONTINUOUS
 62
40
 10
1.1563E+002
 20
1.5117E+002
 11
1.2463E+002
 21
1.5117E+002
  0
LINE
  8
V1L0
  6
CONTINUOUS
 62
40
 10
1.1713E+002
 20
1.5261E+002
 11
1.2463E+002
 21
1.5261E+002
  0
LINE
  8
V1L0
  6
CONTINUOUS
 62
40
 10
1.1563E+002
 20
1.5553E+002
 11
1.1713E+002
 21
1.5553E+002
  0
LINE
  8
V1L0
  6
CONTINUOUS
 62
40
 10
1.1563E+002
 20
1.5684E+002
 11
1.1713E+002
 21
1.5684E+002
  0
LINE
  8
V1L0
  6
CONTINUOUS
 62
40
 10
1.2193E+002
 20
1.5362E+002
 11
1.2414E+002
 21
1.528E+002
  0
LINE
  8
V1L0
  6
CONTINUOUS
 62
40
 10
1.1762E+002
 20
1.528E+002
 11
1.1983E+002
 21
1.5362E+002
  0
ARC
  8
V1L0
  6
CONTINUOUS
 62
40
 10
1.2088237E+002
 20
1.508084E+002
 40
3.0
 50
6.96E+001
 51
1.104E+002
  0
ARC
  8
V1L0
  6
CONTINUOUS
 62
40
 10
1.2088237E+002
 20
1.523084E+002
 40
3.0
 50
6.96E+001
 51
1.104E+002
  0
LINE
  8
V1L0
  6
CONTINUOUS
 62
40
 10
1.2193E+002
 20
1.5512E+002
 11
1.2463E+002
 21
1.5411E+002
  0
LINE
  8
V1L0
  6
CONTINUOUS
 62
40
 10
1.1713E+002
 20
1.5411E+002
 11
1.1983E+002
 21
1.5512E+002
  0
LINE
  8
V1L0
  6
CONTINUOUS
 62
40
 10
1.2429E+002
 20
1.5676E+002
 11
1.2463E+002
 21
1.5663E+002
  0
LINE
  8
V1L0
  6
CONTINUOUS
 62
40
 10
1.1713E+002
 20
1.5663E+002
 11
1.1747E+002
 21
1.5676E+002
  0
LINE
  8
V1L0
  6
CONTINUOUS
 62
40
 10
1.2414E+002
 20
1.528E+002
 11
1.2463E+002
 21
1.5411E+002
  0
LINE
  8
V1L0
  6
CONTINUOUS
 62
40
 10
1.1713E+002
 20
1.5411E+002
 11
1.1762E+002
 21
1.528E+002
  0
LINE
  8
V1L0
  6
CONTINUOUS
 62
40
 10
1.2404E+002
 20
1.5908E+002
 11
1.2429E+002
 21
1.5676E+002
  0
LINE
  8
V1L0
  6
CONTINUOUS
 62
40
 10
1.1747E+002
 20
1.5676E+002
 11
1.1772E+002
 21
1.5908E+002
  0
LINE
  8
V1L0
  6
CONTINUOUS
 62
40
 10
1.2104E+002
 20
1.5853E+002
 11
1.2145E+002
 21
1.5894E+002
  0
LINE
  8
V1L0
  6
CONTINUOUS
 62
40
 10
1.1967E+002
 20
1.5857E+002
 11
1.2003E+002
 21
1.5894E+002
  0
LINE
  8
V1L0
  6
CONTINUOUS
 62
40
 10
1.1967E+002
 20
1.5811E+002
 11
1.1967E+002
 21
1.5857E+002
  0
LINE
  8
V1L0
  6
CONTINUOUS
 62
40
 10
1.2104E+002
 20
1.5806E+002
 11
1.2104E+002
 21
1.5853E+002
  0
LINE
  8
V1L0
  6
CONTINUOUS
 62
40
 10
1.2072E+002
 20
1.5916E+002
 11
1.2072E+002
 21
1.5963E+002
  0
LINE
  8
V1L0
  6
CONTINUOUS
 62
40
 10
1.1967E+002
 20
1.5811E+002
 11
1.2072E+002
 21
1.5916E+002
  0
LINE
  8
V1L0
  6
CONTINUOUS
 62
40
 10
1.1888E+002
 20
1.592E+002
 11
1.2029E+002
 21
1.592E+002
  0
LINE
  8
V1L0
  6
CONTINUOUS
 62
40
 10
1.2286E+002
 20
1.5894E+002
 11
1.2312E+002
 21
1.592E+002
  0
LINE
  8
V1L0
  6
CONTINUOUS
 62
40
 10
1.1862E+002
 20
1.5894E+002
 11
1.1888E+002
 21
1.592E+002
  0
LINE
  8
V1L0
  6
CONTINUOUS
 62
40
 10
1.1862E+002
 20
1.5894E+002
 11
1.2003E+002
 21
1.5894E+002
  0
LINE
  8
V1L0
  6
CONTINUOUS
 62
40
 10
1.2003E+002
 20
1.5847E+002
 11
1.2003E+002
 21
1.5894E+002
  0
LINE
  8
V1L0
  6
CONTINUOUS
 62
40
 10
1.2029E+002
 20
1.5873E+002
 11
1.2029E+002
 21
1.592E+002
  0
LINE
  8
V1L0
  6
CONTINUOUS
 62
40
 10
1.2145E+002
 20
1.5894E+002
 11
1.2286E+002
 21
1.5894E+002
  0
LINE
  8
V1L0
  6
CONTINUOUS
 62
40
 10
1.2171E+002
 20
1.592E+002
 11
1.2312E+002
 21
1.592E+002
  0
LINE
  8
V1L0
  6
CONTINUOUS
 62
40
 10
1.2029E+002
 20
1.592E+002
 11
1.2072E+002
 21
1.5963E+002
  0
LINE
  8
V1L0
  6
CONTINUOUS
 62
40
 10
1.2171E+002
 20
1.592E+002
 11
1.2209E+002
 21
1.5959E+002
  0
LINE
  8
V1L0
  6
CONTINUOUS
 62
40
 10
1.2003E+002
 20
1.5873E+002
 11
1.2029E+002
 21
1.5873E+002
  0
LINE
  8
V1L0
  6
CONTINUOUS
 62
40
 10
1.2171E+002
 20
1.5894E+002
 11
1.2171E+002
 21
1.592E+002
  0
LINE
  8
V1L0
  6
CONTINUOUS
 62
40
 10
1.0888E+002
 20
1.3761E+002
 11
1.1588E+002
 21
1.3761E+002
  0
LINE
  8
V1L0
  6
CONTINUOUS
 62
40
 10
1.1613E+002
 20
1.3905E+002
 11
1.1613E+002
 21
1.4328E+002
  0
LINE
  8
V1L0
  6
CONTINUOUS
 62
40
 10
1.0863E+002
 20
1.3761E+002
 11
1.0863E+002
 21
1.4307E+002
  0
LINE
  8
V1L0
  6
CONTINUOUS
 62
40
 10
1.1763E+002
 20
1.3761E+002
 11
1.1763E+002
 21
1.4328E+002
  0
LINE
  8
V1L0
  6
CONTINUOUS
 62
40
 10
1.0863E+002
 20
1.3761E+002
 11
1.1763E+002
 21
1.3761E+002
  0
LINE
  8
V1L0
  6
CONTINUOUS
 62
40
 10
1.0863E+002
 20
1.3905E+002
 11
1.1613E+002
 21
1.3905E+002
  0
LINE
  8
V1L0
  6
CONTINUOUS
 62
40
 10
1.1613E+002
 20
1.4197E+002
 11
1.1763E+002
 21
1.4197E+002
  0
LINE
  8
V1L0
  6
CONTINUOUS
 62
40
 10
1.1613E+002
 20
1.4328E+002
 11
1.1763E+002
 21
1.4328E+002
  0
LINE
  8
V1L0
  6
CONTINUOUS
 62
40
 10
1.0912E+002
 20
1.3924E+002
 11
1.1133E+002
 21
1.4006E+002
  0
LINE
  8
V1L0
  6
CONTINUOUS
 62
40
 10
1.1343E+002
 20
1.4006E+002
 11
1.1564E+002
 21
1.3924E+002
  0
ARC
  8
V1L0
  6
CONTINUOUS
 62
40
 10
1.1238237E+002
 20
1.372484E+002
 40
3.0
 50
6.96E+001
 51
1.104E+002
  0
ARC
  8
V1L0
  6
CONTINUOUS
 62
40
 10
1.1238237E+002
 20
1.387484E+002
 40
3.0
 50
6.96E+001
 51
1.104E+002
  0
LINE
  8
V1L0
  6
CONTINUOUS
 62
40
 10
1.0863E+002
 20
1.4055E+002
 11
1.1133E+002
 21
1.4156E+002
  0
LINE
  8
V1L0
  6
CONTINUOUS
 62
40
 10
1.1343E+002
 20
1.4156E+002
 11
1.1613E+002
 21
1.4055E+002
  0
LINE
  8
V1L0
  6
CONTINUOUS
 62
40
 10
1.0863E+002
 20
1.4307E+002
 11
1.0897E+002
 21
1.432E+002
  0
LINE
  8
V1L0
  6
CONTINUOUS
 62
40
 10
1.1579E+002
 20
1.432E+002
 11
1.1613E+002
 21
1.4307E+002
  0
LINE
  8
V1L0
  6
CONTINUOUS
 62
40
 10
1.0863E+002
 20
1.4055E+002
 11
1.0912E+002
 21
1.3924E+002
  0
LINE
  8
V1L0
  6
CONTINUOUS
 62
40
 10
1.1564E+002
 20
1.3924E+002
 11
1.1613E+002
 21
1.4055E+002
  0
LINE
  8
V1L0
  6
CONTINUOUS
 62
40
 10
1.0897E+002
 20
1.432E+002
 11
1.0922E+002
 21
1.4552E+002
  0
LINE
  8
V1L0
  6
CONTINUOUS
 62
40
 10
1.1554E+002
 20
1.4552E+002
 11
1.1579E+002
 21
1.432E+002
  0
LINE
  8
V1L0
  6
CONTINUOUS
 62
40
 10
1.1181E+002
 20
1.4538E+002
 11
1.1222E+002
 21
1.4497E+002
  0
LINE
  8
V1L0
  6
CONTINUOUS
 62
40
 10
1.1323E+002
 20
1.4538E+002
 11
1.1359E+002
 21
1.4501E+002
  0
LINE
  8
V1L0
  6
CONTINUOUS
 62
40
 10
1.1359E+002
 20
1.4455E+002
 11
1.1359E+002
 21
1.4501E+002
  0
LINE
  8
V1L0
  6
CONTINUOUS
 62
40
 10
1.1222E+002
 20
1.445E+002
 11
1.1222E+002
 21
1.4497E+002
  0
LINE
  8
V1L0
  6
CONTINUOUS
 62
40
 10
1.1254E+002
 20
1.456E+002
 11
1.1254E+002
 21
1.4607E+002
  0
LINE
  8
V1L0
  6
CONTINUOUS
 62
40
 10
1.1254E+002
 20
1.456E+002
 11
1.1359E+002
 21
1.4455E+002
  0
LINE
  8
V1L0
  6
CONTINUOUS
 62
40
 10
1.1297E+002
 20
1.4564E+002
 11
1.1438E+002
 21
1.4564E+002
  0
LINE
  8
V1L0
  6
CONTINUOUS
 62
40
 10
1.1014E+002
 20
1.4564E+002
 11
1.104E+002
 21
1.4538E+002
  0
LINE
  8
V1L0
  6
CONTINUOUS
 62
40
 10
1.1438E+002
 20
1.4564E+002
 11
1.1464E+002
 21
1.4538E+002
  0
LINE
  8
V1L0
  6
CONTINUOUS
 62
40
 10
1.1323E+002
 20
1.4538E+002
 11
1.1464E+002
 21
1.4538E+002
  0
LINE
  8
V1L0
  6
CONTINUOUS
 62
40
 10
1.1323E+002
 20
1.4491E+002
 11
1.1323E+002
 21
1.4538E+002
  0
LINE
  8
V1L0
  6
CONTINUOUS
 62
40
 10
1.1297E+002
 20
1.4517E+002
 11
1.1297E+002
 21
1.4564E+002
  0
LINE
  8
V1L0
  6
CONTINUOUS
 62
40
 10
1.104E+002
 20
1.4538E+002
 11
1.1181E+002
 21
1.4538E+002
  0
LINE
  8
V1L0
  6
CONTINUOUS
 62
40
 10
1.1014E+002
 20
1.4564E+002
 11
1.1155E+002
 21
1.4564E+002
  0
LINE
  8
V1L0
  6
CONTINUOUS
 62
40
 10
1.1254E+002
 20
1.4607E+002
 11
1.1297E+002
 21
1.4564E+002
  0
LINE
  8
V1L0
  6
CONTINUOUS
 62
40
 10
1.1117E+002
 20
1.4603E+002
 11
1.1155E+002
 21
1.4564E+002
  0
LINE
  8
V1L0
  6
CONTINUOUS
 62
40
 10
1.1297E+002
 20
1.4517E+002
 11
1.1323E+002
 21
1.4517E+002
  0
LINE
  8
V1L0
  6
CONTINUOUS
 62
40
 10
1.1155E+002
 20
1.4538E+002
 11
1.1155E+002
 21
1.4564E+002
  0
LINE
  8
V1L0
  6
CONTINUOUS
 62
40
 10
1.1088E+002
 20
1.3568E+002
 11
1.1088E+002
 21
1.3761E+002
  0
LINE
  8
V1L0
  6
CONTINUOUS
 62
40
 10
1.1388E+002
 20
1.3568E+002
 11
1.1388E+002
 21
1.3761E+002
  0
LINE
  8
V1L0
  6
CONTINUOUS
 62
40
 10
1.1331E+002
 20
1.3555E+002
 11
1.2663E+002
 21
1.3555E+002
  0
LINE
  8
V1L0
  6
CONTINUOUS
 62
40
 10
1.1938E+002
 20
1.4924E+002
 11
1.1938E+002
 21
1.5117E+002
  0
LINE
  8
V1L0
  6
CONTINUOUS
 62
40
 10
1.2238E+002
 20
1.4924E+002
 11
1.2238E+002
 21
1.5117E+002
  0
LINE
  8
V1L0
  6
CONTINUOUS
 62
40
 10
1.0613E+002
 20
1.3705E+002
 11
1.0613E+002
 21
1.9355E+002
  0
LINE
  8
V1L0
  6
CONTINUOUS
 62
40
 10
9.913E+001
 20
1.468E+002
 11
9.913E+001
 21
1.493E+002
  0
LINE
  8
V1L0
  6
CONTINUOUS
 62
40
 10
9.913E+001
 20
1.468E+002
 11
1.0613E+002
 21
1.468E+002
  0
LINE
  8
V1L0
  6
CONTINUOUS
 62
40
 10
9.913E+001
 20
1.493E+002
 11
1.0613E+002
 21
1.493E+002
  0
CIRCLE
  8
V1L0
  6
CONTINUOUS
 62
40
 10
7.4502371E+001
 20
4.79984E+001
 40
1.5E+001
  0
CIRCLE
  8
V1L0
  6
CONTINUOUS
 62
40
 10
8.1502371E+001
 20
4.79984E+001
 40
4.0
  0
TEXT
  8
V1L0
  6
CONTINUOUS
 62
40
 10
1.2346E+002
 20
3.081E+001
 40
4.0
  1
OESA ZX1
 50
9.0E+001
  0
LINE
  8
V1L0
  6
CONTINUOUS
 62
40
 10
1.1263E+002
 20
1.0505E+002
 11
1.2063E+002
 21
1.0505E+002
  0
LINE
  8
V1L0
  6
CONTINUOUS
 62
40
 10
1.2063E+002
 20
1.0505E+002
 11
1.2063E+002
 21
1.3505E+002
  0
LINE
  8
V1L0
  6
CONTINUOUS
 62
40
 10
1.1263E+002
 20
1.0505E+002
 11
1.1263E+002
 21
1.3505E+002
  0
LINE
  8
V1L0
  6
LONG_DASH
 62
40
 10
1.1263E+002
 20
1.0905E+002
 11
1.2063E+002
 21
1.0905E+002
  0
LINE
  8
V1L0
  6
LONG_DASH
 62
40
 10
1.1263E+002
 20
1.1705E+002
 11
1.2063E+002
 21
1.1705E+002
  0
LINE
  8
V1L0
  6
CONTINUOUS
 62
40
 10
1.1463E+002
 20
1.0205E+002
 11
1.1863E+002
 21
1.0205E+002
  0
LINE
  8
V1L0
  6
CONTINUOUS
 62
40
 10
1.1963E+002
 20
1.0305E+002
 11
1.1963E+002
 21
1.0505E+002
  0
LINE
  8
V1L0
  6
CONTINUOUS
 62
40
 10
1.1363E+002
 20
1.0305E+002
 11
1.1363E+002
 21
1.0505E+002
  0
ARC
  8
V1L0
  6
CONTINUOUS
 62
40
 10
1.1463237E+002
 20
1.030484E+002
 40
1.0
 50
1.8E+002
 51
2.7E+002
  0
ARC
  8
V1L0
  6
CONTINUOUS
 62
40
 10
1.1863237E+002
 20
1.030484E+002
 40
1.0
 50
2.7E+002
 51
3.6E+002
  0
LINE
  8
V1L0
  6
CONTINUOUS
 62
40
 10
8.92E+001
 20
4.5E+001
 11
9.15E+001
 21
4.5E+001
  0
LINE
  8
V1L0
  6
CONTINUOUS
 62
40
 10
8.92E+001
 20
5.1E+001
 11
9.15E+001
 21
5.1E+001
  0
LINE
  8
V1L0
  6
CONTINUOUS
 62
40
 10
9.25E+001
 20
4.6E+001
 11
9.25E+001
 21
5.0E+001
  0
ARC
  8
V1L0
  6
CONTINUOUS
 62
40
 10
9.1502371E+001
 20
4.99984E+001
 40
1.0
 50
0.0
 51
9.0E+001
  0
ARC
  8
V1L0
  6
CONTINUOUS
 62
40
 10
9.1502371E+001
 20
4.59984E+001
 40
1.0
 50
2.7E+002
 51
3.6E+002
  0
LINE
  8
V1L0
  6
CONTINUOUS
 62
40
 10
1.1263E+002
 20
1.3505E+002
 11
1.2063E+002
 21
1.3505E+002
  0
LINE
  8
V1L0
  6
CONTINUOUS
 62
40
 10
1.9926E+002
 20
2.25E+001
 11
1.9926E+002
 21
7.35E+001
  0
LINE
  8
V1L0
  6
CONTINUOUS
 62
40
 10
1.7426E+002
 20
4.8E+001
 11
1.7426E+002
 21
7.35E+001
  0
LINE
  8
V1L0
  6
CONTINUOUS
 62
40
 10
2.3226E+002
 20
1.0
 11
2.3226E+002
 21
9.5E+001
  0
LINE
  8
V1L0
  6
CONTINUOUS
 62
40
 10
1.7576E+002
 20
7.35E+001
 11
1.7576E+002
 21
7.783E+001
  0
LINE
  8
V1L0
  6
CONTINUOUS
 62
40
 10
1.7426E+002
 20
7.35E+001
 11
1.9926E+002
 21
7.35E+001
  0
LINE
  8
V1L0
  6
CONTINUOUS
 62
40
 10
1.7426E+002
 20
2.25E+001
 11
1.9926E+002
 21
2.25E+001
  0
CIRCLE
  8
V1L0
  6
CONTINUOUS
 62
40
 10
2.1426237E+002
 20
6.54984E+001
 40
1.25
  0
CIRCLE
  8
V1L0
  6
CONTINUOUS
 62
40
 10
2.1426237E+002
 20
3.04984E+001
 40
1.25
  0
LINE
  8
V1L0
  6
CONTINUOUS
 62
40
 10
1.7576E+002
 20
9.5E+001
 11
2.3226E+002
 21
9.5E+001
  0
LINE
  8
V1L0
  6
CONTINUOUS
 62
40
 10
1.7576E+002
 20
1.0
 11
2.3226E+002
 21
1.0
  0
LINE
  8
V1L0
  6
CONTINUOUS
 62
40
 10
1.7576E+002
 20
1.0
 11
1.7576E+002
 21
1.506E+001
  0
LINE
  8
V1L0
  6
CONTINUOUS
 62
40
 10
1.7426E+002
 20
2.25E+001
 11
1.7426E+002
 21
4.8E+001
  0
LINE
  8
V1L0
  6
CONTINUOUS
 62
40
 10
1.7957E+002
 20
7.784E+001
 11
1.8076E+002
 21
7.35E+001
  0
LINE
  8
V1L0
  6
CONTINUOUS
 62
40
 10
1.7631E+002
 20
8.411E+001
 11
1.7776E+002
 21
8.45E+001
  0
LINE
  8
V1L0
  6
CONTINUOUS
 62
40
 10
1.7631E+002
 20
8.411E+001
 11
1.792E+002
 21
7.35E+001
  0
LINE
  8
V1L0
  6
CONTINUOUS
 62
40
 10
1.8065E+002
 20
8.529E+001
 11
1.8297E+002
 21
7.679E+001
  0
LINE
  8
V1L0
  6
CONTINUOUS
 62
40
 10
1.834E+002
 20
8.471E+001
 11
1.8504E+002
 21
7.868E+001
  0
LINE
  8
V1L0
  6
CONTINUOUS
 62
40
 10
1.8036E+002
 20
7.608E+001
 11
1.8297E+002
 21
7.679E+001
  0
LINE
  8
V1L0
  6
CONTINUOUS
 62
40
 10
1.8086E+002
 20
8.454E+001
 11
1.8278E+002
 21
8.507E+001
  0
LINE
  8
V1L0
  6
CONTINUOUS
 62
40
 10
1.8276E+002
 20
7.754E+001
 11
1.8469E+002
 21
7.807E+001
  0
ARC
  8
V1L0
  6
CONTINUOUS
 62
40
 10
1.8292237E+002
 20
8.45784E+001
 40
5.0E-001
 50
1.526E+001
 51
1.0526E+002
  0
ARC
  8
V1L0
  6
CONTINUOUS
 62
40
 10
1.8456237E+002
 20
7.85484E+001
 40
5.0E-001
 50
2.8526E+002
 51
3.7526E+002
  0
LINE
  8
V1L0
  6
CONTINUOUS
 62
40
 10
1.7802E+002
 20
8.354E+001
 11
1.7805E+002
 21
8.458E+001
  0
LINE
  8
V1L0
  6
CONTINUOUS
 62
40
 10
1.7805E+002
 20
8.458E+001
 11
1.8065E+002
 21
8.529E+001
  0
LINE
  8
V1L0
  6
CONTINUOUS
 62
40
 10
1.7981E+002
 20
7.696E+001
 11
1.8036E+002
 21
7.608E+001
  0
LINE
  8
V1L0
  6
CONTINUOUS
 62
40
 10
1.7776E+002
 20
8.45E+001
 11
1.7826E+002
 21
8.266E+001
  0
LINE
  8
V1L0
  6
CONTINUOUS
 62
40
 10
1.7497E+002
 20
7.762E+001
 11
1.7786E+002
 21
7.841E+001
  0
LINE
  8
V1L0
  6
CONTINUOUS
 62
40
 10
1.7418E+002
 20
8.051E+001
 11
1.7707E+002
 21
8.13E+001
  0
LINE
  8
V1L0
  6
CONTINUOUS
 62
40
 10
1.7418E+002
 20
8.051E+001
 11
1.7497E+002
 21
7.762E+001
  0
LINE
  8
V1L0
  6
CONTINUOUS
 62
40
 10
1.8987E+002
 20
8.411E+001
 11
1.9132E+002
 21
8.45E+001
  0
LINE
  8
V1L0
  6
CONTINUOUS
 62
40
 10
1.8987E+002
 20
8.411E+001
 11
1.9276E+002
 21
7.35E+001
  0
LINE
  8
V1L0
  6
CONTINUOUS
 62
40
 10
1.9421E+002
 20
8.529E+001
 11
1.9653E+002
 21
7.679E+001
  0
LINE
  8
V1L0
  6
CONTINUOUS
 62
40
 10
1.9696E+002
 20
8.471E+001
 11
1.986E+002
 21
7.868E+001
  0
LINE
  8
V1L0
  6
CONTINUOUS
 62
40
 10
1.9392E+002
 20
7.608E+001
 11
1.9653E+002
 21
7.679E+001
  0
LINE
  8
V1L0
  6
CONTINUOUS
 62
40
 10
1.9442E+002
 20
8.454E+001
 11
1.9634E+002
 21
8.507E+001
  0
LINE
  8
V1L0
  6
CONTINUOUS
 62
40
 10
1.9632E+002
 20
7.754E+001
 11
1.9825E+002
 21
7.807E+001
  0
ARC
  8
V1L0
  6
CONTINUOUS
 62
40
 10
1.9648237E+002
 20
8.45784E+001
 40
5.0E-001
 50
1.526E+001
 51
1.0526E+002
  0
ARC
  8
V1L0
  6
CONTINUOUS
 62
40
 10
1.9812237E+002
 20
7.85484E+001
 40
5.0E-001
 50
2.8526E+002
 51
3.7526E+002
  0
LINE
  8
V1L0
  6
CONTINUOUS
 62
40
 10
1.9158E+002
 20
8.354E+001
 11
1.9161E+002
 21
8.458E+001
  0
LINE
  8
V1L0
  6
CONTINUOUS
 62
40
 10
1.9161E+002
 20
8.458E+001
 11
1.9421E+002
 21
8.529E+001
  0
LINE
  8
V1L0
  6
CONTINUOUS
 62
40
 10
1.9337E+002
 20
7.696E+001
 11
1.9392E+002
 21
7.608E+001
  0
LINE
  8
V1L0
  6
CONTINUOUS
 62
40
 10
1.8067E+002
 20
8.332E+001
 11
1.8199E+002
 21
7.85E+001
  0
LINE
  8
V1L0
  6
CONTINUOUS
 62
40
 10
1.7813E+002
 20
7.744E+001
 11
1.8199E+002
 21
7.85E+001
  0
LINE
  8
V1L0
  6
CONTINUOUS
 62
40
 10
1.7681E+002
 20
8.227E+001
 11
1.8067E+002
 21
8.332E+001
  0
LINE
  8
V1L0
  6
CONTINUOUS
 62
40
 10
1.8853E+002
 20
7.762E+001
 11
1.9142E+002
 21
7.841E+001
  0
LINE
  8
V1L0
  6
CONTINUOUS
 62
40
 10
1.8774E+002
 20
8.051E+001
 11
1.9063E+002
 21
8.13E+001
  0
LINE
  8
V1L0
  6
CONTINUOUS
 62
40
 10
1.8774E+002
 20
8.051E+001
 11
1.8853E+002
 21
7.762E+001
  0
LINE
  8
V1L0
  6
CONTINUOUS
 62
40
 10
1.9132E+002
 20
8.45E+001
 11
1.9432E+002
 21
7.35E+001
  0
LINE
  8
V1L0
  6
CONTINUOUS
 62
40
 10
1.7576E+002
 20
8.094E+001
 11
1.7576E+002
 21
9.5E+001
  0
LINE
  8
V1L0
  6
CONTINUOUS
 62
40
 10
1.7631E+002
 20
1.189E+001
 11
1.7776E+002
 21
1.15E+001
  0
LINE
  8
V1L0
  6
CONTINUOUS
 62
40
 10
1.7631E+002
 20
1.189E+001
 11
1.792E+002
 21
2.25E+001
  0
LINE
  8
V1L0
  6
CONTINUOUS
 62
40
 10
1.8065E+002
 20
1.071E+001
 11
1.8297E+002
 21
1.921E+001
  0
LINE
  8
V1L0
  6
CONTINUOUS
 62
40
 10
1.834E+002
 20
1.129E+001
 11
1.8504E+002
 21
1.732E+001
  0
LINE
  8
V1L0
  6
CONTINUOUS
 62
40
 10
1.8036E+002
 20
1.992E+001
 11
1.8297E+002
 21
1.921E+001
  0
LINE
  8
V1L0
  6
CONTINUOUS
 62
40
 10
1.8086E+002
 20
1.146E+001
 11
1.8278E+002
 21
1.093E+001
  0
LINE
  8
V1L0
  6
CONTINUOUS
 62
40
 10
1.8276E+002
 20
1.846E+001
 11
1.8469E+002
 21
1.793E+001
  0
ARC
  8
V1L0
  6
CONTINUOUS
 62
40
 10
1.8292237E+002
 20
1.14184E+001
 40
5.0E-001
 50
2.5474E+002
 51
3.4474E+002
  0
ARC
  8
V1L0
  6
CONTINUOUS
 62
40
 10
1.8456237E+002
 20
1.74484E+001
 40
5.0E-001
 50
3.4474E+002
 51
4.3474E+002
  0
LINE
  8
V1L0
  6
CONTINUOUS
 62
40
 10
1.7802E+002
 20
1.246E+001
 11
1.7805E+002
 21
1.142E+001
  0
LINE
  8
V1L0
  6
CONTINUOUS
 62
40
 10
1.7805E+002
 20
1.142E+001
 11
1.8065E+002
 21
1.071E+001
  0
LINE
  8
V1L0
  6
CONTINUOUS
 62
40
 10
1.7981E+002
 20
1.904E+001
 11
1.8036E+002
 21
1.992E+001
  0
LINE
  8
V1L0
  6
CONTINUOUS
 62
40
 10
1.7776E+002
 20
1.15E+001
 11
1.8076E+002
 21
2.25E+001
  0
LINE
  8
V1L0
  6
CONTINUOUS
 62
40
 10
1.7497E+002
 20
1.838E+001
 11
1.7786E+002
 21
1.759E+001
  0
LINE
  8
V1L0
  6
CONTINUOUS
 62
40
 10
1.7418E+002
 20
1.549E+001
 11
1.7707E+002
 21
1.47E+001
  0
LINE
  8
V1L0
  6
CONTINUOUS
 62
40
 10
1.9337E+002
 20
1.904E+001
 11
1.9432E+002
 21
2.25E+001
  0
LINE
  8
V1L0
  6
CONTINUOUS
 62
40
 10
1.8987E+002
 20
1.189E+001
 11
1.9132E+002
 21
1.15E+001
  0
LINE
  8
V1L0
  6
CONTINUOUS
 62
40
 10
1.8987E+002
 20
1.189E+001
 11
1.9276E+002
 21
2.25E+001
  0
LINE
  8
V1L0
  6
CONTINUOUS
 62
40
 10
1.9421E+002
 20
1.071E+001
 11
1.9653E+002
 21
1.921E+001
  0
LINE
  8
V1L0
  6
CONTINUOUS
 62
40
 10
1.9696E+002
 20
1.129E+001
 11
1.986E+002
 21
1.732E+001
  0
LINE
  8
V1L0
  6
CONTINUOUS
 62
40
 10
1.9392E+002
 20
1.992E+001
 11
1.9653E+002
 21
1.921E+001
  0
LINE
  8
V1L0
  6
CONTINUOUS
 62
40
 10
1.9442E+002
 20
1.146E+001
 11
1.9634E+002
 21
1.093E+001
  0
LINE
  8
V1L0
  6
CONTINUOUS
 62
40
 10
1.9632E+002
 20
1.846E+001
 11
1.9825E+002
 21
1.793E+001
  0
ARC
  8
V1L0
  6
CONTINUOUS
 62
40
 10
1.9648237E+002
 20
1.14184E+001
 40
5.0E-001
 50
2.5474E+002
 51
3.4474E+002
  0
ARC
  8
V1L0
  6
CONTINUOUS
 62
40
 10
1.9812237E+002
 20
1.74484E+001
 40
5.0E-001
 50
3.4474E+002
 51
4.3474E+002
  0
LINE
  8
V1L0
  6
CONTINUOUS
 62
40
 10
1.9158E+002
 20
1.246E+001
 11
1.9161E+002
 21
1.142E+001
  0
LINE
  8
V1L0
  6
CONTINUOUS
 62
40
 10
1.9161E+002
 20
1.142E+001
 11
1.9421E+002
 21
1.071E+001
  0
LINE
  8
V1L0
  6
CONTINUOUS
 62
40
 10
1.9337E+002
 20
1.904E+001
 11
1.9392E+002
 21
1.992E+001
  0
LINE
  8
V1L0
  6
CONTINUOUS
 62
40
 10
1.9132E+002
 20
1.15E+001
 11
1.9182E+002
 21
1.334E+001
  0
LINE
  8
V1L0
  6
CONTINUOUS
 62
40
 10
1.9423E+002
 20
1.268E+001
 11
1.9555E+002
 21
1.75E+001
  0
LINE
  8
V1L0
  6
CONTINUOUS
 62
40
 10
1.9169E+002
 20
1.856E+001
 11
1.9555E+002
 21
1.75E+001
  0
LINE
  8
V1L0
  6
CONTINUOUS
 62
40
 10
1.9037E+002
 20
1.373E+001
 11
1.9423E+002
 21
1.268E+001
  0
LINE
  8
V1L0
  6
CONTINUOUS
 62
40
 10
1.8853E+002
 20
1.838E+001
 11
1.9142E+002
 21
1.759E+001
  0
LINE
  8
V1L0
  6
CONTINUOUS
 62
40
 10
1.8774E+002
 20
1.549E+001
 11
1.9063E+002
 21
1.47E+001
  0
LINE
  8
V1L0
  6
CONTINUOUS
 62
40
 10
1.8774E+002
 20
1.549E+001
 11
1.8853E+002
 21
1.838E+001
  0
LINE
  8
V1L0
  6
CONTINUOUS
 62
40
 10
1.7418E+002
 20
1.549E+001
 11
1.7497E+002
 21
1.838E+001
  0
LINE
  8
V1L0
  6
CONTINUOUS
 62
40
 10
1.7576E+002
 20
1.817E+001
 11
1.7576E+002
 21
2.25E+001
  0
CIRCLE
  8
V1L0
  6
CONTINUOUS
 62
40
 10
1.5876237E+002
 20
4.79984E+001
 40
1.5E+001
  0
CIRCLE
  8
V1L0
  6
CONTINUOUS
 62
40
 10
1.5176237E+002
 20
4.79984E+001
 40
4.0
  0
LINE
  8
V1L0
  6
CONTINUOUS
 62
40
 10
1.4176E+002
 20
4.5E+001
 11
1.4406E+002
 21
4.5E+001
  0
LINE
  8
V1L0
  6
CONTINUOUS
 62
40
 10
1.4176E+002
 20
5.1E+001
 11
1.4406E+002
 21
5.1E+001
  0
LINE
  8
V1L0
  6
CONTINUOUS
 62
40
 10
1.4076E+002
 20
4.6E+001
 11
1.4076E+002
 21
5.0E+001
  0
ARC
  8
V1L0
  6
CONTINUOUS
 62
40
 10
1.4176237E+002
 20
4.99984E+001
 40
1.0
 50
9.0E+001
 51
1.8E+002
  0
ARC
  8
V1L0
  6
CONTINUOUS
 62
40
 10
1.4176237E+002
 20
4.59984E+001
 40
1.0
 50
1.8E+002
 51
2.7E+002
  0
CIRCLE
  8
V1L0
  6
CONTINUOUS
 62
40
 10
1.8676237E+002
 20
6.54984E+001
 40
1.5
  0
CIRCLE
  8
V1L0
  6
CONTINUOUS
 62
40
 10
1.8676237E+002
 20
3.04984E+001
 40
1.5
  0
LINE
  8
V1L0
  6
CONTINUOUS
 62
40
 10
1.0613E+002
 20
1.9355E+002
 11
1.0663E+002
 21
1.9355E+002
  0
LINE
  8
V1L0
  6
CONTINUOUS
 62
40
 10
9.913E+001
 20
6.675E+001
 11
1.0613E+002
 21
6.675E+001
  0
LINE
  8
V1L0
  6
CONTINUOUS
 62
40
 10
9.913E+001
 20
6.425E+001
 11
1.0613E+002
 21
6.425E+001
  0
LINE
  8
V1L0
  6
CONTINUOUS
 62
40
 10
9.913E+001
 20
6.425E+001
 11
9.913E+001
 21
6.675E+001
  0
LINE
  8
V1L0
  6
CONTINUOUS
 62
40
 10
9.913E+001
 20
3.175E+001
 11
1.0613E+002
 21
3.175E+001
  0
LINE
  8
V1L0
  6
CONTINUOUS
 62
40
 10
9.913E+001
 20
2.925E+001
 11
9.913E+001
 21
3.175E+001
  0
LINE
  8
V1L0
  6
CONTINUOUS
 62
40
 10
9.913E+001
 20
2.925E+001
 11
1.0613E+002
 21
2.925E+001
  0
LINE
  8
V1L0
  6
CONTINUOUS
 62
40
 10
1.9313E+002
 20
1.816E+001
 11
1.9337E+002
 21
1.904E+001
  0
ENDSEC
  0
EOF
