  0
SECTION
  2
HEADER
  9
$ACADVER
  1
AC1009
  9
$DWGCODEPAGE
  3
iso8859-1
  9
$INSBASE
 10
0.0
 20
0.0
 30
0.0
  9
$EXTMIN
 10
1.0E20
 20
1.0E20
  9
$EXTMAX
 10
-1.0E20
 20
-1.0E20
  9
$LIMMIN
 10
0.0
 20
0.0
  9
$LIMMAX
 10
12.0
 20
9.0
  9
$ORTHOMODE
 70
     0
  9
$REGENMODE
 70
     1
  9
$FILLMODE
 70
     1
  9
$QTEXTMODE
 70
     0
  9
$MIRRTEXT
 70
     1
  9
$DRAGMODE
 70
     2
  9
$LTSCALE
 40
15.0
  9
$OSMODE
 70
     0
  9
$ATTMODE
 70
     1
  9
$TEXTSIZE
 40
0.2
  9
$TRACEWID
 40
0.05
  9
$TEXTSTYLE
  7
STANDARD
  9
$CLAYER
  8
0
  9
$CELTYPE
  6
DASHED
  9
$CECOLOR
 62
   256
  9
$DIMSCALE
 40
1.0
  9
$DIMASZ
 40
0.18
  9
$DIMEXO
 40
0.0625
  9
$DIMDLI
 40
0.38
  9
$DIMRND
 40
0.0
  9
$DIMDLE
 40
0.0
  9
$DIMEXE
 40
0.18
  9
$DIMTP
 40
0.0
  9
$DIMTM
 40
0.0
  9
$DIMTXT
 40
0.18
  9
$DIMCEN
 40
0.09
  9
$DIMTSZ
 40
0.0
  9
$DIMTOL
 70
     0
  9
$DIMLIM
 70
     0
  9
$DIMTIH
 70
     1
  9
$DIMTOH
 70
     1
  9
$DIMSE1
 70
     0
  9
$DIMSE2
 70
     0
  9
$DIMTAD
 70
     0
  9
$DIMZIN
 70
     0
  9
$DIMBLK
  1

  9
$DIMASO
 70
     1
  9
$DIMSHO
 70
     1
  9
$DIMPOST
  1

  9
$DIMAPOST
  1

  9
$DIMALT
 70
     0
  9
$DIMALTD
 70
     2
  9
$DIMALTF
 40
25.4
  9
$DIMLFAC
 40
1.0
  9
$DIMTOFL
 70
     0
  9
$DIMTVP
 40
0.0
  9
$DIMTIX
 70
     0
  9
$DIMSOXD
 70
     0
  9
$DIMSAH
 70
     0
  9
$DIMBLK1
  1

  9
$DIMBLK2
  1

  9
$DIMSTYLE
  2
STANDARD
  9
$DIMCLRD
 70
     0
  9
$DIMCLRE
 70
     0
  9
$DIMCLRT
 70
     0
  9
$DIMTFAC
 40
1.0
  9
$DIMGAP
 40
0.09
  9
$LUNITS
 70
     2
  9
$LUPREC
 70
     4
  9
$AXISMODE
 70
     0
  9
$AXISUNIT
 10
0.0
 20
0.0
  9
$SKETCHINC
 40
0.1
  9
$FILLETRAD
 40
0.0
  9
$AUNITS
 70
     0
  9
$AUPREC
 70
     0
  9
$MENU
  1
acad
  9
$ELEVATION
 40
0.0
  9
$PELEVATION
 40
0.0
  9
$THICKNESS
 40
0.0
  9
$LIMCHECK
 70
     0
  9
$BLIPMODE
 70
     1
  9
$CHAMFERA
 40
0.0
  9
$CHAMFERB
 40
0.0
  9
$SKPOLY
 70
     0
  9
$TDCREATE
 40
0.000000000
  9
$TDUPDATE
 40
0.000000000
  9
$TDINDWG
 40
0.0
  9
$TDUSRTIMER
 40
0.0
  9
$USRTIMER
 70
     1
  9
$ANGBASE
 50
0.0
  9
$ANGDIR
 70
     0
  9
$PDMODE
 70
     0
  9
$PDSIZE
 40
0.0
  9
$PLINEWID
 40
0.0
  9
$COORDS
 70
     1
  9
$SPLFRAME
 70
     0
  9
$SPLINETYPE
 70
     6
  9
$SPLINESEGS
 70
     8
  9
$ATTDIA
 70
     0
  9
$ATTREQ
 70
     1
  9
$HANDLING
 70
     1
  9
$HANDSEED
  5
   609
  9
$SURFTAB1
 70
     6
  9
$SURFTAB2
 70
     6
  9
$SURFTYPE
 70
     6
  9
$SURFU
 70
     6
  9
$SURFV
 70
     6
  9
$UCSNAME
  2

  9
$UCSORG
 10
0.0
 20
0.0
 30
0.0
  9
$UCSXDIR
 10
1.0
 20
0.0
 30
0.0
  9
$UCSYDIR
 10
0.0
 20
1.0
 30
0.0
  9
$PUCSNAME
  2

  9
$PUCSORG
 10
0.0
 20
0.0
 30
0.0
  9
$PUCSXDIR
 10
1.0
 20
0.0
 30
0.0
  9
$PUCSYDIR
 10
0.0
 20
1.0
 30
0.0
  9
$USERI1
 70
     0
  9
$USERI2
 70
     0
  9
$USERI3
 70
     0
  9
$USERI4
 70
     0
  9
$USERI5
 70
     0
  9
$USERR1
 40
0.0
  9
$USERR2
 40
0.0
  9
$USERR3
 40
0.0
  9
$USERR4
 40
0.0
  9
$USERR5
 40
0.0
  9
$WORLDVIEW
 70
     1
  9
$SHADEDGE
 70
     3
  9
$SHADEDIF
 70
    70
  9
$TILEMODE
 70
     1
  9
$MAXACTVP
 70
    16
  9
$PINSBASE
 10
0.0
 20
0.0
 30
0.0
  9
$PLIMCHECK
 70
     0
  9
$PEXTMIN
 10
1.0E20
 20
1.0E20
 30
1.0E20
  9
$PEXTMAX
 10
-1.0E20
 20
-1.0E20
 30
-1.0E20
  9
$PLIMMIN
 10
0.0
 20
0.0
  9
$PLIMMAX
 10
12.0
 20
9.0
  9
$UNITMODE
 70
     0
  9
$VISRETAIN
 70
     0
  0
ENDSEC
  0
SECTION
  2
TABLES
  0
TABLE
  2
VPORT
 70
     1
  0
VPORT
  2
*ACTIVE
 70
     0
 10
0.0
 20
0.0
 11
1.0
 21
1.0
 12
6.801242
 22
4.5
 13
0.0
 23
0.0
 14
1.0
 24
1.0
 15
0.0
 25
0.0
 16
0.0
 26
0.0
 36
1.0
 17
0.0
 27
0.0
 37
0.0
 40
9.0
 41
1.511387
 42
50.0
 43
0.0
 44
0.0
 50
0.0
 51
0.0
 71
     0
 72
   100
 73
     1
 74
     1
 75
     0
 76
     0
 77
     0
 78
     0
  0
ENDTAB
  0
TABLE
  2
LTYPE
 70
    41
  0
LTYPE
  2
BYBLOCK
 70
     0
  3

 72
    65
 73
     0
 40
0.0
  0
LTYPE
  2
BYLAYER
 70
     0
  3

 72
    65
 73
     0
 40
0.0
  0
LTYPE
  2
CONTINUOUS
 70
     0
  3
Solid line
 72
    65
 73
     0
 40
0.0
  0
LTYPE
  2
BORDER
 70
    64
  3
__ __ . __ __ . __ __ . __ __ . __ __ . __ __ .
 72
    65
 73
     6
 40
1.75
 49
0.5
 49
-0.25
 49
0.5
 49
-0.25
 49
0.0
 49
-0.25
  0
LTYPE
  2
BORDER2
 70
    64
  3
__.__.__.__.__.__.__.__.__.__.__.__.__.__.__.__
 72
    65
 73
     6
 40
0.875
 49
0.25
 49
-0.125
 49
0.25
 49
-0.125
 49
0.0
 49
-0.125
  0
LTYPE
  2
BORDERX2
 70
    64
  3
____  ____  .  ____  ____  .  ____  ____  .  __
 72
    65
 73
     6
 40
3.5
 49
1.0
 49
-0.5
 49
1.0
 49
-0.5
 49
0.0
 49
-0.5
  0
LTYPE
  2
CENTER
 70
    64
  3
____ _ ____ _ ____ _ ____ _ ____ _ ____ _ ____
 72
    65
 73
     4
 40
2.0
 49
1.25
 49
-0.25
 49
0.25
 49
-0.25
  0
LTYPE
  2
CENTER2
 70
    64
  3
___ _ ___ _ ___ _ ___ _ ___ _ ___ _ ___ _ ___ _
 72
    65
 73
     4
 40
1.125
 49
0.75
 49
-0.125
 49
0.125
 49
-0.125
  0
LTYPE
  2
CENTERX2
 70
    64
  3
________  __  ________  __  ________  __  _____
 72
    65
 73
     4
 40
4.0
 49
2.5
 49
-0.5
 49
0.5
 49
-0.5
  0
LTYPE
  2
DASHDOT
 70
    64
  3
__ . __ . __ . __ . __ . __ . __ . __ . __ . __
 72
    65
 73
     4
 40
1.0
 49
0.5
 49
-0.25
 49
0.0
 49
-0.25
  0
LTYPE
  2
DASHDOT2
 70
    64
  3
_._._._._._._._._._._._._._._._._._._._._._._._
 72
    65
 73
     4
 40
0.5
 49
0.25
 49
-0.125
 49
0.0
 49
-0.125
  0
LTYPE
  2
DASHDOTX2
 70
    64
  3
____  .  ____  .  ____  .  ____  .  ____  .  __
 72
    65
 73
     4
 40
2.0
 49
1.0
 49
-0.5
 49
0.0
 49
-0.5
  0
LTYPE
  2
DASHED
 70
    64
  3
__ __ __ __ __ __ __ __ __ __ __ __ __ __ __ __
 72
    65
 73
     2
 40
0.75
 49
0.5
 49
-0.25
  0
LTYPE
  2
DASHED2
 70
    64
  3
_ _ _ _ _ _ _ _ _ _ _ _ _ _ _ _ _ _ _ _ _ _ _ _
 72
    65
 73
     2
 40
0.375
 49
0.25
 49
-0.125
  0
LTYPE
  2
DASHEDX2
 70
    64
  3
____  ____  ____  ____  ____  ____  ____  ____
 72
    65
 73
     2
 40
1.5
 49
1.0
 49
-0.5
  0
LTYPE
  2
DIVIDE
 70
    64
  3
____ . . ____ . . ____ . . ____ . . ____ . . __
 72
    65
 73
     6
 40
1.25
 49
0.5
 49
-0.25
 49
0.0
 49
-0.25
 49
0.0
 49
-0.25
  0
LTYPE
  2
DIVIDE2
 70
    64
  3
__..__..__..__..__..__..__..__..__..__..__..__.
 72
    65
 73
     6
 40
0.625
 49
0.25
 49
-0.125
 49
0.0
 49
-0.125
 49
0.0
 49
-0.125
  0
LTYPE
  2
DIVIDEX2
 70
    64
  3
________  .  .  ________  .  .  ________  .  .
 72
    65
 73
     6
 40
2.5
 49
1.0
 49
-0.5
 49
0.0
 49
-0.5
 49
0.0
 49
-0.5
  0
LTYPE
  2
DOT
 70
    64
  3
. . . . . . . . . . . . . . . . . . . . . . . .
 72
    65
 73
     2
 40
0.25
 49
0.0
 49
-0.25
  0
LTYPE
  2
DOT2
 70
    64
  3
...............................................
 72
    65
 73
     2
 40
0.125
 49
0.0
 49
-0.125
  0
LTYPE
  2
DOTX2
 70
    64
  3
.  .  .  .  .  .  .  .  .  .  .  .  .  .  .  .
 72
    65
 73
     2
 40
0.5
 49
0.0
 49
-0.5
  0
LTYPE
  2
HIDDEN
 70
    64
  3
__ __ __ __ __ __ __ __ __ __ __ __ __ __ __ __
 72
    65
 73
     2
 40
0.375
 49
0.25
 49
-0.125
  0
LTYPE
  2
HIDDEN2
 70
    64
  3
_ _ _ _ _ _ _ _ _ _ _ _ _ _ _ _ _ _ _ _ _ _ _ _
 72
    65
 73
     2
 40
0.1875
 49
0.125
 49
-0.0625
  0
LTYPE
  2
HIDDENX2
 70
    64
  3
____ ____ ____ ____ ____ ____ ____ ____ ____ __
 72
    65
 73
     2
 40
0.75
 49
0.5
 49
-0.25
  0
LTYPE
  2
PHANTOM
 70
    64
  3
______  __  __  ______  __  __  ______  __  __
 72
    65
 73
     6
 40
2.5
 49
1.25
 49
-0.25
 49
0.25
 49
-0.25
 49
0.25
 49
-0.25
  0
LTYPE
  2
PHANTOM2
 70
    64
  3
___ _ _ ___ _ _ ___ _ _ ___ _ _ ___ _ _ ___ _ _
 72
    65
 73
     6
 40
1.25
 49
0.625
 49
-0.125
 49
0.125
 49
-0.125
 49
0.125
 49
-0.125
  0
LTYPE
  2
PHANTOMX2
 70
    64
  3
____________    ____    ____    ____________
 72
    65
 73
     6
 40
5.0
 49
2.5
 49
-0.5
 49
0.5
 49
-0.5
 49
0.5
 49
-0.5
  0
LTYPE
  2
ACAD_ISO02W100
 70
    64
  3
__ __ __ __ __ __ __ __ __ __ __ __ __ __ __ __
 72
    65
 73
     2
 40
15.0
 49
12.0
 49
-3.0
  0
LTYPE
  2
ACAD_ISO03W100
 70
    64
  3
__    __    __    __    __    __    __    __
 72
    65
 73
     2
 40
30.0
 49
12.0
 49
-18.0
  0
LTYPE
  2
ACAD_ISO04W100
 70
    64
  3
____ . ____ . ____ . ____ . ____ . ____ . ____
 72
    65
 73
     4
 40
30.5
 49
24.0
 49
-3.0
 49
0.5
 49
-3.0
  0
LTYPE
  2
ACAD_ISO05W100
 70
    64
  3
____ .. ____ .. ____ .. ____ .. ____ .. ____ ..
 72
    65
 73
     6
 40
34.0
 49
24.0
 49
-3.0
 49
0.5
 49
-3.0
 49
0.5
 49
-3.0
  0
LTYPE
  2
ACAD_ISO06W100
 70
    64
  3
____ ... ____ ... ____ ... ____ ... ____ ... __
 72
    65
 73
     8
 40
37.5
 49
24.0
 49
-3.0
 49
0.5
 49
-3.0
 49
0.5
 49
-3.0
 49
0.5
 49
-3.0
  0
LTYPE
  2
ACAD_ISO07W100
 70
    64
  3
. . . . . . . . . . . . . . . . . . . . . . . .
 72
    65
 73
     2
 40
3.5
 49
0.5
 49
-3.0
  0
LTYPE
  2
ACAD_ISO08W100
 70
    64
  3
____ __ ____ __ ____ __ ____ ____ __ __ ____ __
 72
    65
 73
     4
 40
36.0
 49
24.0
 49
-3.0
 49
6.0
 49
-3.0
  0
LTYPE
  2
ACAD_ISO09W100
 70
    64
  3
____ __ __ ____ __ __ ____ __ __ ____ __ __ ___
 72
    65
 73
     6
 40
45.0
 49
24.0
 49
-3.0
 49
6.0
 49
-3.0
 49
6.0
 49
-3.0
  0
LTYPE
  2
ACAD_ISO10W100
 70
    64
  3
__ . __ . __ . __ . __ . __ . __ . __ . __ . __
 72
    65
 73
     4
 40
18.5
 49
12.0
 49
-3.0
 49
0.5
 49
-3.0
  0
LTYPE
  2
ACAD_ISO11W100
 70
    64
  3
__ __ . __ __ . __ __ . __ __ . __ __ . __ __ .
 72
    65
 73
     6
 40
33.5
 49
12.0
 49
-3.0
 49
12.0
 49
-3.0
 49
0.5
 49
-3.0
  0
LTYPE
  2
ACAD_ISO12W100
 70
    64
  3
__ . . __ . . __ . . __ . . __ . . __ . . __ .
 72
    65
 73
     6
 40
22.0
 49
12.0
 49
-3.0
 49
0.5
 49
-3.0
 49
0.5
 49
-3.0
  0
LTYPE
  2
ACAD_ISO13W100
 70
    64
  3
__ __ . . __ __ . . __ __ . . __ __ . . __ __ .
 72
    65
 73
     8
 40
37.0
 49
12.0
 49
-3.0
 49
12.0
 49
-3.0
 49
0.5
 49
-3.0
 49
0.5
 49
-3.0
  0
LTYPE
  2
ACAD_ISO14W100
 70
    64
  3
__ . . . __ . . . __ . . . __ . . . __ . . . __
 72
    65
 73
     8
 40
25.5
 49
12.0
 49
-3.0
 49
0.5
 49
-3.0
 49
0.5
 49
-3.0
 49
0.5
 49
-3.0
  0
LTYPE
  2
ACAD_ISO15W100
 70
    64
  3
__ __ . . . __ __ . . . __ __ . . . __ __ . . .
 72
    65
 73
    10
 40
40.5
 49
12.0
 49
-3.0
 49
12.0
 49
-3.0
 49
0.5
 49
-3.0
 49
0.5
 49
-3.0
 49
0.5
 49
-3.0
  0
ENDTAB
  0
TABLE
  2
STYLE
 70
     4
  0
STYLE
  2
STANDARD
 70
    64
 40
0.0
 41
1.0
 50
0.0
 71
     0
 42
0.2
  3
txt
  4

  0
STYLE
  2
TOLERANCE
 70
    64
 40
0.0
 41
1.0
 50
0.0
 71
     0
 42
0.2
  3
../igesfont/iges1003.shx
  4

  0
STYLE
  2
ROMANS
 70
    64
 40
0.0
 41
1.0
 50
0.0
 71
     0
 42
0.2
  3
romans.shx
  4

  0
STYLE
  2
ROMANC
 70
    64
 40
0.0
 41
1.0
 50
0.0
 71
     0
 42
0.2
  3
romanc.shx
  4

  0
ENDTAB
  0
TABLE
  2
DIMSTYLE
 70
     2
  0
DIMSTYLE
  2
UNNAMED
 70
     0
  3

  4

  5

  6

  7

 40
1.0
 41
0.18
 42
0.0625
 43
0.38
 44
0.18
 45
0.0
 46
0.0
 47
0.0
 48
0.0
140
0.18
141
0.09
142
0.0
143
25.4
144
1.0
145
0.0
146
1.0
147
0.09
 71
     0
 72
     0
 73
     1
 74
     1
 75
     0
 76
     0
 77
     0
 78
     0
170
     0
171
     2
172
     0
173
     0
174
     0
175
     0
176
     0
177
     0
178
     0
  0
DIMSTYLE
  2
STANDARD
 70
     0
  3

  4

  5

  6

  7

 40
1.0
 41
0.18
 42
0.0625
 43
0.38
 44
0.18
 45
0.0
 46
0.0
 47
0.0
 48
0.0
140
0.18
141
0.09
142
0.0
143
25.4
144
1.0
145
0.0
146
1.0
147
0.09
 71
     0
 72
     0
 73
     1
 74
     1
 75
     0
 76
     0
 77
     0
 78
     0
170
     0
171
     2
172
     0
173
     0
174
     0
175
     0
176
     0
177
     0
178
     0
  0
ENDTAB
  0
TABLE
  2
LAYER
 70
     2
  0
LAYER
  2
0
 70
     0
 62
     7
  6
CONTINUOUS
  0
LAYER
  2
255
 70
     0
 62
     7
  6
CONTINUOUS
  0
ENDTAB
  0
ENDSEC
  0
SECTION
  2
BLOCKS
  0
BLOCK
  5
     B
  8
0
  6
CONTINUOUS
 62
     7
  2
*HATCH31
 70
    65
 10
0.0
 20
0.0
 30
0.0
  3
*HATCH31
  0
LINE
  5
     C
  8
0
  6
CONTINUOUS
 62
    52
 10
-50.3687210083008
 20
-48.2473983764648
 30
0.0
 11
-50.5000152587891
 21
-48.3786926269531
 31
0.0
  0
LINE
  5
     D
  8
0
  6
CONTINUOUS
 62
    52
 10
-48.2474021911621
 20
-48.2473983764648
 30
0.0
 11
-50.5000152587891
 21
-50.5000114440918
 31
0.0
  0
LINE
  5
     E
  8
0
  6
CONTINUOUS
 62
    52
 10
-46.1260833740234
 20
-48.2473983764648
 30
0.0
 11
-49.1260833740234
 21
-51.2473983764648
 31
0.0
  0
LINE
  5
     F
  8
0
  6
CONTINUOUS
 62
    52
 10
-44.0047645568848
 20
-48.2473983764648
 30
0.0
 11
-47.0047645568848
 21
-51.2473983764648
 31
0.0
  0
LINE
  5
    10
  8
0
  6
CONTINUOUS
 62
    52
 10
-41.8834457397461
 20
-48.2473983764648
 30
0.0
 11
-44.8834457397461
 21
-51.2473983764648
 31
0.0
  0
LINE
  5
    11
  8
0
  6
CONTINUOUS
 62
    52
 10
-39.7621269226074
 20
-48.2473983764648
 30
0.0
 11
-42.7621269226074
 21
-51.2473983764648
 31
0.0
  0
LINE
  5
    12
  8
0
  6
CONTINUOUS
 62
    52
 10
-37.6408081054688
 20
-48.2473983764648
 30
0.0
 11
-40.6408081054688
 21
-51.2473983764648
 31
0.0
  0
LINE
  5
    13
  8
0
  6
CONTINUOUS
 62
    52
 10
-35.5194892883301
 20
-48.2473983764648
 30
0.0
 11
-38.5194892883301
 21
-51.2473983764648
 31
0.0
  0
LINE
  5
    14
  8
0
  6
CONTINUOUS
 62
    52
 10
-33.3981704711914
 20
-48.2473983764648
 30
0.0
 11
-36.3981704711914
 21
-51.2473983764648
 31
0.0
  0
LINE
  5
    15
  8
0
  6
CONTINUOUS
 62
    52
 10
-31.2768497467041
 20
-48.2473983764648
 30
0.0
 11
-34.2768516540527
 21
-51.2473983764648
 31
0.0
  0
LINE
  5
    16
  8
0
  6
CONTINUOUS
 62
    52
 10
-29.1555290222168
 20
-48.2473983764648
 30
0.0
 11
-32.1555328369141
 21
-51.2473983764648
 31
0.0
  0
LINE
  5
    17
  8
0
  6
CONTINUOUS
 62
    52
 10
-27.0342082977295
 20
-48.2473983764648
 30
0.0
 11
-30.0342121124268
 21
-51.2473983764648
 31
0.0
  0
LINE
  5
    18
  8
0
  6
CONTINUOUS
 62
    52
 10
-26.0000152587891
 20
-49.3345375061035
 30
0.0
 11
-27.912878036499
 21
-51.2473983764648
 31
0.0
  0
LINE
  5
    19
  8
0
  6
CONTINUOUS
 62
    52
 10
-26.0000152587891
 20
-51.4558563232422
 30
0.0
 11
-27.2915573120117
 21
-52.7473983764648
 31
0.0
  0
ENDBLK
  5
    1A
  8
0
  6
CONTINUOUS
 62
     7
  0
BLOCK
  5
    1B
  8
0
  6
CONTINUOUS
 62
     7
  2
*HATCH32
 70
    65
 10
0.0
 20
0.0
 30
0.0
  3
*HATCH32
  0
LINE
  5
    1C
  8
0
  6
CONTINUOUS
 62
    52
 10
21.7561721801758
 20
-48.2473983764648
 30
0.0
 11
20.9999847412109
 21
-49.0035858154297
 31
0.0
  0
LINE
  5
    1D
  8
0
  6
CONTINUOUS
 62
    52
 10
23.8774929046631
 20
-48.2473983764648
 30
0.0
 11
20.9999847412109
 21
-51.1249046325684
 31
0.0
  0
LINE
  5
    1E
  8
0
  6
CONTINUOUS
 62
    52
 10
25.9988136291504
 20
-48.2473983764648
 30
0.0
 11
22.9988117218018
 21
-51.2473983764648
 31
0.0
  0
LINE
  5
    1F
  8
0
  6
CONTINUOUS
 62
    52
 10
22.4999847412109
 20
-51.7462272644043
 30
0.0
 11
21.4988117218018
 21
-52.7473983764648
 31
0.0
  0
LINE
  5
    20
  8
0
  6
CONTINUOUS
 62
    52
 10
28.1201324462891
 20
-48.2473983764648
 30
0.0
 11
25.1201324462891
 21
-51.2473983764648
 31
0.0
  0
LINE
  5
    21
  8
0
  6
CONTINUOUS
 62
    52
 10
30.2414531707764
 20
-48.2473983764648
 30
0.0
 11
27.2414531707764
 21
-51.2473983764648
 31
0.0
  0
LINE
  5
    22
  8
0
  6
CONTINUOUS
 62
    52
 10
32.3627738952637
 20
-48.2473983764648
 30
0.0
 11
29.3627738952637
 21
-51.2473983764648
 31
0.0
  0
LINE
  5
    23
  8
0
  6
CONTINUOUS
 62
    52
 10
34.4840927124023
 20
-48.2473983764648
 30
0.0
 11
31.484094619751
 21
-51.2473983764648
 31
0.0
  0
LINE
  5
    24
  8
0
  6
CONTINUOUS
 62
    52
 10
36.605411529541
 20
-48.2473983764648
 30
0.0
 11
33.6054153442383
 21
-51.2473983764648
 31
0.0
  0
LINE
  5
    25
  8
0
  6
CONTINUOUS
 62
    52
 10
38.7267303466797
 20
-48.2473983764648
 30
0.0
 11
35.726734161377
 21
-51.2473983764648
 31
0.0
  0
LINE
  5
    26
  8
0
  6
CONTINUOUS
 62
    52
 10
40.8480491638184
 20
-48.2473983764648
 30
0.0
 11
37.8480529785156
 21
-51.2473983764648
 31
0.0
  0
LINE
  5
    27
  8
0
  6
CONTINUOUS
 62
    52
 10
42.969367980957
 20
-48.2473983764648
 30
0.0
 11
39.9693717956543
 21
-51.2473983764648
 31
0.0
  0
LINE
  5
    28
  8
0
  6
CONTINUOUS
 62
    52
 10
45.0906867980957
 20
-48.2473983764648
 30
0.0
 11
42.090690612793
 21
-51.2473983764648
 31
0.0
  0
LINE
  5
    29
  8
0
  6
CONTINUOUS
 62
    52
 10
45.4999847412109
 20
-49.9594306945801
 30
0.0
 11
44.2120170593262
 21
-51.2473983764648
 31
0.0
  0
ENDBLK
  5
    2A
  8
0
  6
CONTINUOUS
 62
     7
  0
BLOCK
  5
    2B
  8
0
  6
CONTINUOUS
 62
     3
  2
*HATCH33
 70
    65
 10
0.0
 20
0.0
 30
0.0
  3
*HATCH33
  0
LINE
  5
    2C
  8
0
  6
CONTINUOUS
 62
     7
 10
-35.4171371459961
 20
-125.803260803223
 30
0.0
 11
-35.3765678405762
 21
-125.84383392334
 31
0.0
  0
ENDBLK
  5
    2D
  8
0
  6
CONTINUOUS
 62
     3
  0
BLOCK
  5
    2E
  8
0
  6
CONTINUOUS
 62
     3
  2
*HATCH34
 70
    65
 10
0.0
 20
0.0
 30
0.0
  3
*HATCH34
  0
LINE
  5
    2F
  8
0
  6
CONTINUOUS
 62
     7
 10
-35.4171371459961
 20
-125.803260803223
 30
0.0
 11
-35.3765678405762
 21
-125.84383392334
 31
0.0
  0
ENDBLK
  5
    30
  8
0
  6
CONTINUOUS
 62
     3
  0
BLOCK
  5
    31
  8
0
  6
CONTINUOUS
 62
     3
  2
*HATCH35
 70
    65
 10
0.0
 20
0.0
 30
0.0
  3
*HATCH35
  0
LINE
  5
    32
  8
0
  6
CONTINUOUS
 62
   210
 10
-30.7072048187256
 20
-124.149238586426
 30
0.0
 11
-30.5318412780762
 21
-124.324600219727
 31
0.0
  0
ENDBLK
  5
    33
  8
0
  6
CONTINUOUS
 62
     3
  0
BLOCK
  5
    34
  8
0
  6
CONTINUOUS
 62
     3
  2
*HATCH36
 70
    65
 10
0.0
 20
0.0
 30
0.0
  3
*HATCH36
  0
LINE
  5
    35
  8
0
  6
CONTINUOUS
 62
   210
 10
-35.4136276245117
 20
-123.685455322266
 30
0.0
 11
-34.9064331054688
 21
-124.192649841309
 31
0.0
  0
ENDBLK
  5
    36
  8
0
  6
CONTINUOUS
 62
     3
  0
BLOCK
  5
    37
  8
0
  6
CONTINUOUS
 62
     3
  2
*HATCH37
 70
    65
 10
0.0
 20
0.0
 30
0.0
  3
*HATCH37
  0
LINE
  5
    38
  8
0
  6
CONTINUOUS
 62
   210
 10
-37.1537094116211
 20
-124.066688537598
 30
0.0
 11
-36.8765678405762
 21
-124.34383392334
 31
0.0
  0
ENDBLK
  5
    39
  8
0
  6
CONTINUOUS
 62
     3
  0
BLOCK
  5
    3A
  8
0
  6
CONTINUOUS
 62
     3
  2
*HATCH38
 70
    65
 10
0.0
 20
0.0
 30
0.0
  3
*HATCH38
  0
LINE
  5
    3B
  8
0
  6
CONTINUOUS
 62
   210
 10
-41.8004341125488
 20
-123.662605285645
 30
0.0
 11
-41.2932434082031
 21
-124.169792175293
 31
0.0
  0
ENDBLK
  5
    3C
  8
0
  6
CONTINUOUS
 62
     3
  0
BLOCK
  5
    3D
  8
0
  6
CONTINUOUS
 62
     3
  2
*HATCH39
 70
    65
 10
0.0
 20
0.0
 30
0.0
  3
*HATCH39
  0
LINE
  5
    3E
  8
0
  6
CONTINUOUS
 62
   210
 10
-43.591236114502
 20
-123.993118286133
 30
0.0
 11
-43.2405242919922
 21
-124.34383392334
 31
0.0
  0
ENDBLK
  5
    3F
  8
0
  6
CONTINUOUS
 62
     3
  0
BLOCK
  5
    40
  8
0
  6
CONTINUOUS
 62
     3
  2
*HATCH40
 70
    65
 10
0.0
 20
0.0
 30
0.0
  3
*HATCH40
  0
LINE
  5
    41
  8
0
  6
CONTINUOUS
 62
   210
 10
-45.4999885559082
 20
-128.448333740234
 30
0.0
 11
-45.2529640197754
 21
-128.695358276367
 31
0.0
  0
ENDBLK
  5
    42
  8
0
  6
CONTINUOUS
 62
     3
  0
BLOCK
  5
    43
  8
0
  6
CONTINUOUS
 62
     3
  2
*HATCH41
 70
    65
 10
0.0
 20
0.0
 30
0.0
  3
*HATCH41
  0
LINE
  5
    44
  8
0
  6
CONTINUOUS
 62
   210
 10
-41.1738166809082
 20
-128.531860351563
 30
0.0
 11
-40.8618469238281
 21
-128.843826293945
 31
0.0
  0
ENDBLK
  5
    45
  8
0
  6
CONTINUOUS
 62
     3
  0
BLOCK
  5
    46
  8
0
  6
CONTINUOUS
 62
     3
  2
*HATCH42
 70
    65
 10
0.0
 20
0.0
 30
0.0
  3
*HATCH42
  0
LINE
  5
    47
  8
0
  6
CONTINUOUS
 62
   210
 10
-39.4082412719727
 20
-128.176116943359
 30
0.0
 11
-38.9010467529297
 21
-128.683319091797
 31
0.0
  0
ENDBLK
  5
    48
  8
0
  6
CONTINUOUS
 62
     3
  0
BLOCK
  5
    49
  8
0
  6
CONTINUOUS
 62
     3
  2
*HATCH43
 70
    65
 10
0.0
 20
0.0
 30
0.0
  3
*HATCH43
  0
LINE
  5
    4A
  8
0
  6
CONTINUOUS
 62
   210
 10
-34.7245826721191
 20
-128.617141723633
 30
0.0
 11
-34.4978904724121
 21
-128.843826293945
 31
0.0
  0
ENDBLK
  5
    4B
  8
0
  6
CONTINUOUS
 62
     3
  0
BLOCK
  5
    4C
  8
0
  6
CONTINUOUS
 62
     3
  2
*HATCH44
 70
    65
 10
0.0
 20
0.0
 30
0.0
  3
*HATCH44
  0
LINE
  5
    4D
  8
0
  6
CONTINUOUS
 62
   210
 10
-33.0214233398438
 20
-128.198974609375
 30
0.0
 11
-32.5142364501953
 21
-128.706176757813
 31
0.0
  0
ENDBLK
  5
    4E
  8
0
  6
CONTINUOUS
 62
     3
  0
BLOCK
  5
    4F
  8
0
  6
CONTINUOUS
 62
     3
  2
*HATCH45
 70
    65
 10
0.0
 20
0.0
 30
0.0
  3
*HATCH45
  0
LINE
  5
    50
  8
0
  6
CONTINUOUS
 62
     7
 10
-35.4171371459961
 20
-125.803260803223
 30
0.0
 11
-35.3765678405762
 21
-125.84383392334
 31
0.0
  0
ENDBLK
  5
    51
  8
0
  6
CONTINUOUS
 62
     3
  0
BLOCK
  5
    52
  8
0
  6
CONTINUOUS
 62
     3
  2
*HATCH46
 70
    65
 10
0.0
 20
0.0
 30
0.0
  3
*HATCH46
  0
LINE
  5
    53
  8
0
  6
CONTINUOUS
 62
   210
 10
-30.7072048187256
 20
-124.149238586426
 30
0.0
 11
-30.5318412780762
 21
-124.324600219727
 31
0.0
  0
ENDBLK
  5
    54
  8
0
  6
CONTINUOUS
 62
     3
  0
BLOCK
  5
    55
  8
0
  6
CONTINUOUS
 62
     3
  2
*HATCH47
 70
    65
 10
0.0
 20
0.0
 30
0.0
  3
*HATCH47
  0
LINE
  5
    56
  8
0
  6
CONTINUOUS
 62
   210
 10
-35.4136276245117
 20
-123.685455322266
 30
0.0
 11
-34.9064331054688
 21
-124.192649841309
 31
0.0
  0
ENDBLK
  5
    57
  8
0
  6
CONTINUOUS
 62
     3
  0
BLOCK
  5
    58
  8
0
  6
CONTINUOUS
 62
     3
  2
*HATCH48
 70
    65
 10
0.0
 20
0.0
 30
0.0
  3
*HATCH48
  0
LINE
  5
    59
  8
0
  6
CONTINUOUS
 62
   210
 10
-37.1537094116211
 20
-124.066688537598
 30
0.0
 11
-36.8765678405762
 21
-124.34383392334
 31
0.0
  0
ENDBLK
  5
    5A
  8
0
  6
CONTINUOUS
 62
     3
  0
BLOCK
  5
    5B
  8
0
  6
CONTINUOUS
 62
     3
  2
*HATCH49
 70
    65
 10
0.0
 20
0.0
 30
0.0
  3
*HATCH49
  0
LINE
  5
    5C
  8
0
  6
CONTINUOUS
 62
   210
 10
-41.8004341125488
 20
-123.662605285645
 30
0.0
 11
-41.2932434082031
 21
-124.169792175293
 31
0.0
  0
ENDBLK
  5
    5D
  8
0
  6
CONTINUOUS
 62
     3
  0
BLOCK
  5
    5E
  8
0
  6
CONTINUOUS
 62
     3
  2
*HATCH50
 70
    65
 10
0.0
 20
0.0
 30
0.0
  3
*HATCH50
  0
LINE
  5
    5F
  8
0
  6
CONTINUOUS
 62
   210
 10
-43.591236114502
 20
-123.993118286133
 30
0.0
 11
-43.2405242919922
 21
-124.34383392334
 31
0.0
  0
ENDBLK
  5
    60
  8
0
  6
CONTINUOUS
 62
     3
  0
BLOCK
  5
    61
  8
0
  6
CONTINUOUS
 62
     3
  2
*HATCH51
 70
    65
 10
0.0
 20
0.0
 30
0.0
  3
*HATCH51
  0
LINE
  5
    62
  8
0
  6
CONTINUOUS
 62
   210
 10
-45.4999885559082
 20
-128.448333740234
 30
0.0
 11
-45.2529640197754
 21
-128.695358276367
 31
0.0
  0
ENDBLK
  5
    63
  8
0
  6
CONTINUOUS
 62
     3
  0
BLOCK
  5
    64
  8
0
  6
CONTINUOUS
 62
     3
  2
*HATCH52
 70
    65
 10
0.0
 20
0.0
 30
0.0
  3
*HATCH52
  0
LINE
  5
    65
  8
0
  6
CONTINUOUS
 62
   210
 10
-41.1738166809082
 20
-128.531860351563
 30
0.0
 11
-40.8618469238281
 21
-128.843826293945
 31
0.0
  0
ENDBLK
  5
    66
  8
0
  6
CONTINUOUS
 62
     3
  0
BLOCK
  5
    67
  8
0
  6
CONTINUOUS
 62
     3
  2
*HATCH53
 70
    65
 10
0.0
 20
0.0
 30
0.0
  3
*HATCH53
  0
LINE
  5
    68
  8
0
  6
CONTINUOUS
 62
   210
 10
-39.4082412719727
 20
-128.176116943359
 30
0.0
 11
-38.9010467529297
 21
-128.683319091797
 31
0.0
  0
ENDBLK
  5
    69
  8
0
  6
CONTINUOUS
 62
     3
  0
BLOCK
  5
    6A
  8
0
  6
CONTINUOUS
 62
     3
  2
*HATCH54
 70
    65
 10
0.0
 20
0.0
 30
0.0
  3
*HATCH54
  0
LINE
  5
    6B
  8
0
  6
CONTINUOUS
 62
   210
 10
-34.7245826721191
 20
-128.617141723633
 30
0.0
 11
-34.4978904724121
 21
-128.843826293945
 31
0.0
  0
ENDBLK
  5
    6C
  8
0
  6
CONTINUOUS
 62
     3
  0
BLOCK
  5
    6D
  8
0
  6
CONTINUOUS
 62
     3
  2
*HATCH55
 70
    65
 10
0.0
 20
0.0
 30
0.0
  3
*HATCH55
  0
LINE
  5
    6E
  8
0
  6
CONTINUOUS
 62
   210
 10
-33.0214233398438
 20
-128.198974609375
 30
0.0
 11
-32.5142364501953
 21
-128.706176757813
 31
0.0
  0
ENDBLK
  5
    6F
  8
0
  6
CONTINUOUS
 62
     3
  0
BLOCK
  5
    70
  8
0
  6
CONTINUOUS
 62
     7
  2
*UDIM406
 70
    65
 10
0.0
 20
0.0
 30
0.0
  3
*UDIM406
  0
TEXT
  5
    71
  8
0
  6
CONTINUOUS
 62
     7
 10
-268.35971832574
 20
-4.34468989674284
 30
0.0
 40
3.00000002980232
  1
=
 50
449.999999844103
 41
0.933333333333334
 72
     1
 11
-269.859718337655
 21
-3.24468988174337
 31
0.0
 73
     2
  0
LINE
  5
    72
  8
0
  6
CONTINUOUS
 62
     3
 10
-248.370797157288
 20
5.25529682647903
 30
0.0
 11
-269.359718322754
 21
5.25529682647903
 31
0.0
  0
LINE
  5
    73
  8
0
  6
CONTINUOUS
 62
     3
 10
-254.041588944739
 20
-11.7446765899658
 30
0.0
 11
-269.359718322754
 21
-11.7446765899658
 31
0.0
  0
LINE
  5
    74
  8
0
  6
CONTINUOUS
 62
     3
 10
-267.359718322754
 20
5.25529682647903
 30
0.0
 11
-267.359718322754
 21
-11.7446765899658
 31
0.0
  0
LINE
  5
    75
  8
0
  6
CONTINUOUS
 62
     3
 10
-266.838773892802
 20
2.30087354927206
 30
0.0
 11
-267.359718322754
 21
5.25529682647903
 31
0.0
  0
LINE
  5
    76
  8
0
  6
CONTINUOUS
 62
     3
 10
-267.359718322754
 20
5.25529682647903
 30
0.0
 11
-267.880662752706
 21
2.30087354927206
 31
0.0
  0
LINE
  5
    77
  8
0
  6
CONTINUOUS
 62
     3
 10
-267.880662752706
 20
-8.79025331275881
 30
0.0
 11
-267.359718322754
 21
-11.7446765899658
 31
0.0
  0
LINE
  5
    78
  8
0
  6
CONTINUOUS
 62
     3
 10
-267.359718322754
 20
-11.7446765899658
 30
0.0
 11
-266.838773892802
 21
-8.79025331275881
 31
0.0
  0
ENDBLK
  5
    79
  8
0
  6
CONTINUOUS
 62
     7
  0
BLOCK
  5
    7A
  8
0
  6
CONTINUOUS
 62
     7
  2
*UDIM407
 70
    65
 10
0.0
 20
0.0
 30
0.0
  3
*UDIM407
  0
TEXT
  5
    7B
  8
0
  6
CONTINUOUS
 62
     7
 10
-268.35971832574
 20
-22.0946898967428
 30
0.0
 40
3.00000002980232
  1
=
 50
449.999999844103
 41
0.933333333333334
 72
     1
 11
-269.859718337655
 21
-20.9946898817434
 31
0.0
 73
     2
  0
LINE
  5
    7C
  8
0
  6
CONTINUOUS
 62
     3
 10
-248.370797157288
 20
-30.244703173521
 30
0.0
 11
-269.359718322754
 21
-30.244703173521
 31
0.0
  0
LINE
  5
    7D
  8
0
  6
CONTINUOUS
 62
     3
 10
-267.359718322754
 20
-11.7446765899658
 30
0.0
 11
-267.359718322754
 21
-30.244703173521
 31
0.0
  0
LINE
  5
    7E
  8
0
  6
CONTINUOUS
 62
     3
 10
-266.838773892802
 20
-14.6990998671727
 30
0.0
 11
-267.359718322754
 21
-11.7446765899658
 31
0.0
  0
LINE
  5
    7F
  8
0
  6
CONTINUOUS
 62
     3
 10
-267.359718322754
 20
-11.7446765899658
 30
0.0
 11
-267.880662752706
 21
-14.6990998671727
 31
0.0
  0
LINE
  5
    80
  8
0
  6
CONTINUOUS
 62
     3
 10
-267.880662752706
 20
-27.290279896314
 30
0.0
 11
-267.359718322754
 21
-30.244703173521
 31
0.0
  0
LINE
  5
    81
  8
0
  6
CONTINUOUS
 62
     3
 10
-267.359718322754
 20
-30.244703173521
 30
0.0
 11
-266.838773892802
 21
-27.290279896314
 31
0.0
  0
ENDBLK
  5
    82
  8
0
  6
CONTINUOUS
 62
     7
  0
BLOCK
  5
    83
  8
0
  6
CONTINUOUS
 62
     3
  2
*UDIM408
 70
    65
 10
0.0
 20
0.0
 30
0.0
  3
*UDIM408
  0
TEXT
  5
    84
  8
0
  6
CONTINUOUS
 62
     3
 10
-141.44094086372
 20
-14.5196766248334
 30
0.0
 40
3.00000002980232
  1
45
 50
449.999999844103
 41
0.933333333333333
 72
     1
 11
-142.940940871835
 21
-12.0196765959262
 31
0.0
 73
     2
  0
LINE
  5
    85
  8
0
  6
CONTINUOUS
 62
     3
 10
-169.370795965195
 20
10.7553234100342
 30
0.0
 11
-138.440940856934
 21
10.7553234100342
 31
0.0
  0
LINE
  5
    86
  8
0
  6
CONTINUOUS
 62
     3
 10
-169.370795965195
 20
-34.2446765899658
 30
0.0
 11
-138.440940856934
 21
-34.2446765899658
 31
0.0
  0
LINE
  5
    87
  8
0
  6
CONTINUOUS
 62
     3
 10
-140.440940856934
 20
10.7553234100342
 30
0.0
 11
-140.440940856934
 21
-34.2446765899658
 31
0.0
  0
LINE
  5
    88
  8
0
  6
CONTINUOUS
 62
     3
 10
-139.919996426982
 20
7.80090013282727
 30
0.0
 11
-140.440940856934
 21
10.7553234100342
 31
0.0
  0
LINE
  5
    89
  8
0
  6
CONTINUOUS
 62
     3
 10
-140.440940856934
 20
10.7553234100342
 30
0.0
 11
-140.961885286885
 21
7.80090013282727
 31
0.0
  0
LINE
  5
    8A
  8
0
  6
CONTINUOUS
 62
     3
 10
-140.961885286885
 20
-31.2902533127588
 30
0.0
 11
-140.440940856934
 21
-34.2446765899658
 31
0.0
  0
LINE
  5
    8B
  8
0
  6
CONTINUOUS
 62
     3
 10
-140.440940856934
 20
-34.2446765899658
 30
0.0
 11
-139.919996426982
 21
-31.2902533127588
 31
0.0
  0
ENDBLK
  5
    8C
  8
0
  6
CONTINUOUS
 62
     3
  0
BLOCK
  5
    8D
  8
0
  6
CONTINUOUS
 62
     3
  2
*UDIM409
 70
    65
 10
0.0
 20
0.0
 30
0.0
  3
*UDIM409
  0
TEXT
  5
    8E
  8
0
  6
CONTINUOUS
 62
     3
 10
-237.188197389345
 20
-86.7873401497904
 30
0.0
 40
3.00000002980232
  1
25,5
 50
359.999999844103
 41
0.933333333333333
 72
     1
 11
-231.888197332621
 21
-85.2873401492834
 31
0.0
 73
     2
  0
LINE
  5
    8F
  8
0
  6
CONTINUOUS
 62
     3
 10
-244.370782852173
 20
-56.7446917294292
 30
0.0
 11
-244.370782852173
 21
-89.7873401641846
 31
0.0
  0
LINE
  5
    90
  8
0
  6
CONTINUOUS
 62
     3
 10
-218.855621337891
 20
-55.7188106413783
 30
0.0
 11
-218.855621337891
 21
-89.7873401641846
 31
0.0
  0
LINE
  5
    91
  8
0
  6
CONTINUOUS
 62
     3
 10
-244.370782852173
 20
-87.7873401641846
 30
0.0
 11
-218.855621337891
 21
-87.7873401641846
 31
0.0
  0
LINE
  5
    92
  8
0
  6
CONTINUOUS
 62
     3
 10
-241.416359574966
 20
-87.2663957342329
 30
0.0
 11
-244.370782852173
 21
-87.7873401641846
 31
0.0
  0
LINE
  5
    93
  8
0
  6
CONTINUOUS
 62
     3
 10
-244.370782852173
 20
-87.7873401641846
 30
0.0
 11
-241.416359574966
 21
-88.3082845941362
 31
0.0
  0
LINE
  5
    94
  8
0
  6
CONTINUOUS
 62
     3
 10
-221.810044615098
 20
-88.3082845941362
 30
0.0
 11
-218.855621337891
 21
-87.7873401641846
 31
0.0
  0
LINE
  5
    95
  8
0
  6
CONTINUOUS
 62
     3
 10
-218.855621337891
 20
-87.7873401641846
 30
0.0
 11
-221.810044615098
 21
-87.2663957342329
 31
0.0
  0
ENDBLK
  5
    96
  8
0
  6
CONTINUOUS
 62
     3
  0
BLOCK
  5
    97
  8
0
  6
CONTINUOUS
 62
     3
  2
*UDIM410
 70
    65
 10
0.0
 20
0.0
 30
0.0
  3
*UDIM410
  0
TEXT
  5
    98
  8
0
  6
CONTINUOUS
 62
     3
 10
-253.120796313982
 20
-86.7873401611971
 30
0.0
 40
3.00000002980232
  1
3
 50
359.999999844103
 41
0.933333333333334
 72
     1
 11
-252.020796298981
 21
-85.2873401492834
 31
0.0
 73
     2
  0
LINE
  5
    99
  8
0
  6
CONTINUOUS
 62
     3
 10
-247.370797157288
 20
-30.244703173521
 30
0.0
 11
-247.370797157288
 21
-89.7873401641846
 31
0.0
  0
LINE
  5
    9A
  8
0
  6
CONTINUOUS
 62
     3
 10
-244.370782852173
 20
-56.7446917294292
 30
0.0
 11
-244.370782852173
 21
-89.7873401641846
 31
0.0
  0
LINE
  5
    9B
  8
0
  6
CONTINUOUS
 62
     3
 10
-253.120796309908
 20
-87.7873401641846
 30
0.0
 11
-244.370782852173
 21
-87.7873401641846
 31
0.0
  0
LINE
  5
    9C
  8
0
  6
CONTINUOUS
 62
     3
 10
-250.325220434495
 20
-88.3082845941362
 30
0.0
 11
-247.370797157288
 21
-87.7873401641846
 31
0.0
  0
LINE
  5
    9D
  8
0
  6
CONTINUOUS
 62
     3
 10
-247.370797157288
 20
-87.7873401641846
 30
0.0
 11
-250.325220434495
 21
-87.2663957342329
 31
0.0
  0
LINE
  5
    9E
  8
0
  6
CONTINUOUS
 62
     3
 10
-241.416359574966
 20
-87.2663957342329
 30
0.0
 11
-244.370782852173
 21
-87.7873401641846
 31
0.0
  0
LINE
  5
    9F
  8
0
  6
CONTINUOUS
 62
     3
 10
-244.370782852173
 20
-87.7873401641846
 30
0.0
 11
-241.416359574966
 21
-88.3082845941362
 31
0.0
  0
ENDBLK
  5
    A0
  8
0
  6
CONTINUOUS
 62
     3
  0
BLOCK
  5
    A1
  8
0
  6
CONTINUOUS
 62
     3
  2
*UDIM411
 70
    65
 10
0.0
 20
0.0
 30
0.0
  3
*UDIM411
  0
TEXT
  5
    A2
  8
0
  6
CONTINUOUS
 62
     3
 10
-209.645788609088
 20
-105.686403267746
 30
0.0
 40
3.00000002980232
  1
75
 50
359.999999844103
 41
0.933333333333333
 72
     1
 11
-207.145788580179
 21
-104.186403259635
 31
0.0
 73
     2
  0
LINE
  5
    A3
  8
0
  6
CONTINUOUS
 62
     3
 10
-244.370782852173
 20
-56.7446917294292
 30
0.0
 11
-244.370782852173
 21
-108.686403274536
 31
0.0
  0
LINE
  5
    A4
  8
0
  6
CONTINUOUS
 62
     3
 10
-169.370795965195
 20
-34.2446765899658
 30
0.0
 11
-169.370795965195
 21
-108.686403274536
 31
0.0
  0
LINE
  5
    A5
  8
0
  6
CONTINUOUS
 62
     3
 10
-244.370782852173
 20
-106.686403274536
 30
0.0
 11
-169.370795965195
 21
-106.686403274536
 31
0.0
  0
LINE
  5
    A6
  8
0
  6
CONTINUOUS
 62
     3
 10
-241.416359574966
 20
-106.165458844584
 30
0.0
 11
-244.370782852173
 21
-106.686403274536
 31
0.0
  0
LINE
  5
    A7
  8
0
  6
CONTINUOUS
 62
     3
 10
-244.370782852173
 20
-106.686403274536
 30
0.0
 11
-241.416359574966
 21
-107.207347704488
 31
0.0
  0
LINE
  5
    A8
  8
0
  6
CONTINUOUS
 62
     3
 10
-172.325219242402
 20
-107.207347704488
 30
0.0
 11
-169.370795965195
 21
-106.686403274536
 31
0.0
  0
LINE
  5
    A9
  8
0
  6
CONTINUOUS
 62
     3
 10
-169.370795965195
 20
-106.686403274536
 30
0.0
 11
-172.325219242402
 21
-106.165458844584
 31
0.0
  0
ENDBLK
  5
    AA
  8
0
  6
CONTINUOUS
 62
     3
  0
BLOCK
  5
    AB
  8
0
  6
CONTINUOUS
 62
     3
  2
*UDIM412
 70
    65
 10
0.0
 20
0.0
 30
0.0
  3
*UDIM412
  0
TEXT
  5
    AC
  8
0
  6
CONTINUOUS
 62
     3
 10
-201.406955042044
 20
-116.062456124192
 30
0.0
 40
3.00000002980232
  1
91
 50
359.999999844103
 41
0.933333333333333
 72
     1
 11
-198.906955013135
 21
-114.56245611608
 31
0.0
 73
     2
  0
LINE
  5
    AD
  8
0
  6
CONTINUOUS
 62
     3
 10
-244.370782407125
 20
-60.7446918487549
 30
0.0
 11
-244.370782407125
 21
-119.062456130981
 31
0.0
  0
LINE
  5
    AE
  8
0
  6
CONTINUOUS
 62
     3
 10
-153.443127619145
 20
-30.9816946811597
 30
0.0
 11
-153.443127619145
 21
-119.062456130981
 31
0.0
  0
LINE
  5
    AF
  8
0
  6
CONTINUOUS
 62
     3
 10
-244.370782407125
 20
-117.062456130981
 30
0.0
 11
-153.443127619145
 21
-117.062456130981
 31
0.0
  0
LINE
  5
    B0
  8
0
  6
CONTINUOUS
 62
     3
 10
-241.473004933914
 20
-116.285998974563
 30
0.0
 11
-244.370782407125
 21
-117.062456130981
 31
0.0
  0
LINE
  5
    B1
  8
0
  6
CONTINUOUS
 62
     3
 10
-244.370782407125
 20
-117.062456130981
 30
0.0
 11
-241.473004933914
 21
-117.8389132874
 31
0.0
  0
LINE
  5
    B2
  8
0
  6
CONTINUOUS
 62
     3
 10
-156.340905092355
 20
-117.8389132874
 30
0.0
 11
-153.443127619145
 21
-117.062456130981
 31
0.0
  0
LINE
  5
    B3
  8
0
  6
CONTINUOUS
 62
     3
 10
-153.443127619145
 20
-117.062456130981
 30
0.0
 11
-156.340905092355
 21
-116.285998974563
 31
0.0
  0
ENDBLK
  5
    B4
  8
0
  6
CONTINUOUS
 62
     3
  0
BLOCK
  5
    B5
  8
0
  6
CONTINUOUS
 62
     3
  2
*UDIM413
 70
    65
 10
0.0
 20
0.0
 30
0.0
  3
*UDIM413
  0
TEXT
  5
    B6
  8
0
  6
CONTINUOUS
 62
     3
 10
-220.140816554527
 20
-28.9997587060038
 30
0.0
 40
3.00000002980232
  1
10.5
 50
359.999999844103
 41
0.933333333333333
 72
     1
 11
-214.840816497803
 21
-27.4997587054968
 31
0.0
 73
     2
  0
TEXT
  5
    B7
  8
0
  6
CONTINUOUS
 62
     3
 10
-208.540816449226
 20
-28.999758709806
 30
0.0
 40
3.00000002980232
  1
X11
 50
359.999999844103
 41
0.933333333333333
 72
     1
 11
-204.640816406409
 21
-27.4997587054968
 31
0.0
 73
     2
  0
LINE
  5
    B8
  8
0
  6
CONTINUOUS
 62
     3
 10
-230.355621337891
 20
-43.7446918487549
 30
0.0
 11
-230.355621337891
 21
-27.9997587203979
 31
0.0
  0
LINE
  5
    B9
  8
0
  6
CONTINUOUS
 62
     3
 10
-218.855621337891
 20
-43.7446918487549
 30
0.0
 11
-218.855621337891
 21
-27.9997587203979
 31
0.0
  0
LINE
  5
    BA
  8
0
  6
CONTINUOUS
 62
     3
 10
-230.355621337891
 20
-29.999758720398
 30
0.0
 11
-200.740816367666
 21
-29.999758720398
 31
0.0
  0
LINE
  5
    BB
  8
0
  6
CONTINUOUS
 62
     3
 10
-227.45784386468
 20
-29.2233015639794
 30
0.0
 11
-230.355621337891
 21
-29.999758720398
 31
0.0
  0
LINE
  5
    BC
  8
0
  6
CONTINUOUS
 62
     3
 10
-230.355621337891
 20
-29.999758720398
 30
0.0
 11
-227.45784386468
 21
-30.7762158768165
 31
0.0
  0
LINE
  5
    BD
  8
0
  6
CONTINUOUS
 62
     3
 10
-221.753398811101
 20
-30.7762158768165
 30
0.0
 11
-218.855621337891
 21
-29.999758720398
 31
0.0
  0
LINE
  5
    BE
  8
0
  6
CONTINUOUS
 62
     3
 10
-218.855621337891
 20
-29.999758720398
 30
0.0
 11
-221.753398811101
 21
-29.2233015639794
 31
0.0
  0
ENDBLK
  5
    BF
  8
0
  6
CONTINUOUS
 62
     3
  0
BLOCK
  5
    C0
  8
0
  6
CONTINUOUS
 62
     3
  2
*UDIM414
 70
    65
 10
0.0
 20
0.0
 30
0.0
  3
*UDIM414
  0
TEXT
  5
    C1
  8
0
  6
CONTINUOUS
 62
     3
 10
-211.620785519581
 20
97.943927977442
 30
0.0
 40
3.00000002980232
  1
71
 50
359.999999844103
 41
0.933333333333333
 72
     1
 11
-209.120785490672
 21
99.4439279855534
 31
0.0
 73
     2
  0
LINE
  5
    C2
  8
0
  6
CONTINUOUS
 62
     3
 10
-244.370782407125
 20
61.2552928924561
 30
0.0
 11
-244.370782407125
 21
98.9439279706523
 31
0.0
  0
LINE
  5
    C3
  8
0
  6
CONTINUOUS
 62
     3
 10
-173.870788574219
 20
72.8966619658505
 30
0.0
 11
-173.870788574219
 21
98.9439279706523
 31
0.0
  0
LINE
  5
    C4
  8
0
  6
CONTINUOUS
 62
     3
 10
-244.370782407125
 20
96.9439279706523
 30
0.0
 11
-173.870788574219
 21
96.9439279706523
 31
0.0
  0
LINE
  5
    C5
  8
0
  6
CONTINUOUS
 62
     3
 10
-241.473004933914
 20
97.7203851270708
 30
0.0
 11
-244.370782407125
 21
96.9439279706523
 31
0.0
  0
LINE
  5
    C6
  8
0
  6
CONTINUOUS
 62
     3
 10
-244.370782407125
 20
96.9439279706523
 30
0.0
 11
-241.473004933914
 21
96.1674708142337
 31
0.0
  0
LINE
  5
    C7
  8
0
  6
CONTINUOUS
 62
     3
 10
-176.768566047429
 20
96.1674708142337
 30
0.0
 11
-173.870788574219
 21
96.9439279706523
 31
0.0
  0
LINE
  5
    C8
  8
0
  6
CONTINUOUS
 62
     3
 10
-173.870788574219
 20
96.9439279706523
 30
0.0
 11
-176.768566047429
 21
97.7203851270708
 31
0.0
  0
ENDBLK
  5
    C9
  8
0
  6
CONTINUOUS
 62
     3
  0
BLOCK
  5
    CA
  8
0
  6
CONTINUOUS
 62
     3
  2
*UDIM415
 70
    65
 10
0.0
 20
0.0
 30
0.0
  3
*UDIM415
  0
TEXT
  5
    CB
  8
0
  6
CONTINUOUS
 62
     3
 10
-170.641270108124
 20
97.9439279812442
 30
0.0
 40
3.00000002980232
  1
1.5
 50
359.999999844103
 41
0.933333333333333
 72
     1
 11
-166.741270065308
 21
99.4439279855534
 31
0.0
 73
     2
  0
TEXT
  5
    CC
  8
0
  6
CONTINUOUS
 62
     3
 10
-161.841270030638
 20
97.943927977442
 30
0.0
 40
3.00000002980232
  1
-2
 50
359.999999844103
 41
0.933333333333333
 72
     1
 11
-159.341270001729
 21
99.4439279855534
 31
0.0
 73
     2
  0
LINE
  5
    CD
  8
0
  6
CONTINUOUS
 62
     3
 10
-173.870788574219
 20
72.8966619658505
 30
0.0
 11
-173.870788574219
 21
98.9439279706523
 31
0.0
  0
LINE
  5
    CE
  8
0
  6
CONTINUOUS
 62
     3
 10
-172.370788574219
 20
72.8966619658505
 30
0.0
 11
-172.370788574219
 21
98.9439279706523
 31
0.0
  0
LINE
  5
    CF
  8
0
  6
CONTINUOUS
 62
     3
 10
-178.870788574219
 20
96.9439279706523
 30
0.0
 11
-156.841269976894
 21
96.9439279706523
 31
0.0
  0
LINE
  5
    D0
  8
0
  6
CONTINUOUS
 62
     3
 10
-176.768566047429
 20
96.1674708142337
 30
0.0
 11
-173.870788574219
 21
96.9439279706523
 31
0.0
  0
LINE
  5
    D1
  8
0
  6
CONTINUOUS
 62
     3
 10
-173.870788574219
 20
96.9439279706523
 30
0.0
 11
-176.768566047429
 21
97.7203851270708
 31
0.0
  0
LINE
  5
    D2
  8
0
  6
CONTINUOUS
 62
     3
 10
-169.473011101008
 20
97.7203851270708
 30
0.0
 11
-172.370788574219
 21
96.9439279706523
 31
0.0
  0
LINE
  5
    D3
  8
0
  6
CONTINUOUS
 62
     3
 10
-172.370788574219
 20
96.9439279706523
 30
0.0
 11
-169.473011101008
 21
96.1674708142337
 31
0.0
  0
ENDBLK
  5
    D4
  8
0
  6
CONTINUOUS
 62
     3
  0
BLOCK
  5
    D5
  8
0
  6
CONTINUOUS
 62
     7
  2
DIA_LATO
 70
    64
 10
0.0
 20
0.0
 30
0.0
  3
DIA_LATO
  0
LINE
  5
    D6
  8
0
  6
CONTINUOUS
 62
   210
 10
0.0
 20
0.0
 30
0.0
 11
0.0
 21
23.1999950408936
 31
0.0
  0
ARC
  5
    D7
  8
0
  6
CONTINUOUS
 62
   210
 10
1.5
 20
23.1999950408936
 30
0.0
 40
1.5
 50
90.0
 51
180.0
  0
LINE
  5
    D8
  8
0
  6
CONTINUOUS
 62
   210
 10
0.0
 20
0.199995040893569
 30
0.0
 11
50.0
 21
0.199995040893569
 31
0.0
  0
LINE
  5
    D9
  8
0
  6
CONTINUOUS
 62
   210
 10
1.5
 20
24.6999950408936
 30
0.0
 11
48.5
 21
24.6999950408936
 31
0.0
  0
ARC
  5
    DA
  8
0
  6
CONTINUOUS
 62
   210
 10
48.5
 20
23.1999950408936
 30
0.0
 40
1.5
 50
1.27222187258541E-14
 51
90.0
  0
LINE
  5
    DB
  8
0
  6
CONTINUOUS
 62
   210
 10
50.0
 20
1.52587890767109E-5
 30
0.0
 11
50.0
 21
23.1999950408936
 31
0.0
  0
ENDBLK
  5
    DC
  8
0
  6
CONTINUOUS
 62
     7
  0
BLOCK
  5
    DD
  8
0
  6
CONTINUOUS
 62
     0
  2
SSS
 70
    64
 10
0.0
 20
0.0
 30
0.0
  3
SSS
  0
ARC
  5
    DE
  8
0
  6
CONTINUOUS
 62
     0
 10
2.55000000000001
 20
2.55
 30
0.0
 40
2.0
 50
178.557523870135
 51
271.442476129865
  0
CIRCLE
  5
    DF
  8
0
  6
CONTINUOUS
 62
     0
 10
0.0
 20
0.0
 30
0.0
 40
3.750066744417
  0
ARC
  5
    E0
  8
0
  6
CONTINUOUS
 62
     0
 10
-2.54999999999998
 20
2.55
 30
0.0
 40
2.0
 50
268.557523870135
 51
361.442476129865
  0
ARC
  5
    E1
  8
0
  6
CONTINUOUS
 62
     0
 10
1.4210854715202E-14
 20
0.0
 30
0.0
 40
2.6580067720004
 50
78.0440027883074
 51
101.955997211693
  0
ARC
  5
    E2
  8
0
  6
CONTINUOUS
 62
     0
 10
1.4210854715202E-14
 20
7.105427357601E-15
 30
0.0
 40
2.6580067720004
 50
168.044002788308
 51
191.955997211693
  0
ARC
  5
    E3
  8
0
  6
CONTINUOUS
 62
     0
 10
1.4210854715202E-14
 20
7.105427357601E-15
 30
0.0
 40
2.6580067720004
 50
348.044002788307
 51
371.955997211692
  0
ARC
  5
    E4
  8
0
  6
CONTINUOUS
 62
     0
 10
2.55000000000001
 20
-2.55
 30
0.0
 40
2.0
 50
88.5575238701351
 51
181.442476129865
  0
ARC
  5
    E5
  8
0
  6
CONTINUOUS
 62
     0
 10
-2.54999999999998
 20
-2.55
 30
0.0
 40
2.0
 50
358.557523870135
 51
451.442476129865
  0
ARC
  5
    E6
  8
0
  6
CONTINUOUS
 62
     0
 10
1.4210854715202E-14
 20
7.105427357601E-15
 30
0.0
 40
2.6580067720004
 50
258.044002788307
 51
281.955997211693
  0
LINE
  5
    E7
  8
0
  6
DASHDOT
 62
     0
 10
0.0
 20
-13.750066744417
 30
0.0
 11
0.0
 21
13.750066744417
 31
0.0
  0
LINE
  5
    E8
  8
0
  6
DASHDOT
 62
     0
 10
-13.750066744417
 20
0.0
 30
0.0
 11
13.750066744417
 21
0.0
 31
0.0
  0
POINT
  5
    E9
  8
0
  6
CONTINUOUS
 62
     0
 10
0.0
 20
0.0
 30
0.0
  0
ENDBLK
  5
    EA
  8
0
  6
CONTINUOUS
 62
     0
  0
BLOCK
  5
    EB
  8
0
  6
CONTINUOUS
 62
     3
  2
*UDIM416
 70
    65
 10
0.0
 20
0.0
 30
0.0
  3
*UDIM416
  0
TEXT
  5
    EC
  8
0
  6
CONTINUOUS
 62
     3
 10
-355.731667294372
 20
98.5222792351443
 30
0.0
 40
3.00000002980232
  1
103
 50
359.999999844103
 41
0.933333333333333
 72
     1
 11
-351.831667251555
 21
100.022279239453
 31
0.0
 73
     2
  0
LINE
  5
    ED
  8
0
  6
CONTINUOUS
 62
     3
 10
-403.33164514439
 20
56.2552933721245
 30
0.0
 11
-403.33164592538
 21
99.5222792245523
 31
0.0
  0
LINE
  5
    EE
  8
0
  6
CONTINUOUS
 62
     3
 10
-300.331685038428
 20
56.2552933721245
 30
0.0
 11
-300.331688787112
 21
99.5222792245523
 31
0.0
  0
LINE
  5
    EF
  8
0
  6
CONTINUOUS
 62
     3
 10
-403.331645889279
 20
97.5222792245523
 30
0.0
 11
-300.331688613831
 21
97.5222792245523
 31
0.0
  0
LINE
  5
    F0
  8
0
  6
CONTINUOUS
 62
     3
 10
-400.433868416068
 20
98.2987363809708
 30
0.0
 11
-403.331645889279
 21
97.5222792245523
 31
0.0
  0
LINE
  5
    F1
  8
0
  6
CONTINUOUS
 62
     3
 10
-403.331645889279
 20
97.5222792245523
 30
0.0
 11
-400.433868416068
 21
96.7458220681338
 31
0.0
  0
LINE
  5
    F2
  8
0
  6
CONTINUOUS
 62
     3
 10
-303.229466087041
 20
96.7458220681338
 30
0.0
 11
-300.331688613831
 21
97.5222792245523
 31
0.0
  0
LINE
  5
    F3
  8
0
  6
CONTINUOUS
 62
     3
 10
-300.331688613831
 20
97.5222792245523
 30
0.0
 11
-303.229466087041
 21
98.2987363809708
 31
0.0
  0
ENDBLK
  5
    F4
  8
0
  6
CONTINUOUS
 62
     3
  0
BLOCK
  5
    F5
  8
0
  6
CONTINUOUS
 62
     3
  2
*UDIM417
 70
    65
 10
0.0
 20
0.0
 30
0.0
  3
*UDIM417
  0
TEXT
  5
    F6
  8
0
  6
CONTINUOUS
 62
     3
 10
-355.731756634614
 20
107.679507421895
 30
0.0
 40
3.00000002980232
  1
116
 50
359.999999844103
 41
0.933333333333333
 72
     1
 11
-351.831756591797
 21
109.179507426204
 31
0.0
 73
     2
  0
LINE
  5
    F7
  8
0
  6
CONTINUOUS
 62
     3
 10
-409.831756591797
 20
36.0057525634766
 30
0.0
 11
-409.831756591797
 21
108.679507411303
 31
0.0
  0
LINE
  5
    F8
  8
0
  6
CONTINUOUS
 62
     3
 10
-293.831756591797
 20
36.0057525634766
 30
0.0
 11
-293.831756591797
 21
108.679507411303
 31
0.0
  0
LINE
  5
    F9
  8
0
  6
CONTINUOUS
 62
     3
 10
-409.831756591797
 20
106.679507411303
 30
0.0
 11
-293.831756591797
 21
106.679507411303
 31
0.0
  0
LINE
  5
    FA
  8
0
  6
CONTINUOUS
 62
     3
 10
-406.933979118586
 20
107.455964567721
 30
0.0
 11
-409.831756591797
 21
106.679507411303
 31
0.0
  0
LINE
  5
    FB
  8
0
  6
CONTINUOUS
 62
     3
 10
-409.831756591797
 20
106.679507411303
 30
0.0
 11
-406.933979118586
 21
105.903050254884
 31
0.0
  0
LINE
  5
    FC
  8
0
  6
CONTINUOUS
 62
     3
 10
-296.729534065007
 20
105.903050254884
 30
0.0
 11
-293.831756591797
 21
106.679507411303
 31
0.0
  0
LINE
  5
    FD
  8
0
  6
CONTINUOUS
 62
     3
 10
-293.831756591797
 20
106.679507411303
 30
0.0
 11
-296.729534065007
 21
107.455964567721
 31
0.0
  0
ENDBLK
  5
    FE
  8
0
  6
CONTINUOUS
 62
     3
  0
BLOCK
  5
    FF
  8
0
  6
CONTINUOUS
 62
     3
  2
*UDIM418
 70
    65
 10
0.0
 20
0.0
 30
0.0
  3
*UDIM418
  0
TEXT
  5
   100
  8
0
  6
CONTINUOUS
 62
     3
 10
-322.331663372364
 20
88.2083485367914
 30
0.0
 40
3.00000002980232
  1
39
 50
359.999999844103
 41
0.933333333333333
 72
     1
 11
-319.831663343455
 21
89.7083485449028
 31
0.0
 73
     2
  0
LINE
  5
   101
  8
0
  6
CONTINUOUS
 62
     3
 10
-339.331635243243
 20
66.0275641159907
 30
0.0
 11
-339.331635243243
 21
89.2083485300016
 31
0.0
  0
LINE
  5
   102
  8
0
  6
CONTINUOUS
 62
     3
 10
-300.331685154957
 20
56.2552933721244
 30
0.0
 11
-300.331691850006
 21
89.2083485300016
 31
0.0
  0
LINE
  5
   103
  8
0
  6
CONTINUOUS
 62
     3
 10
-339.331635243243
 20
87.2083485300016
 30
0.0
 11
-300.331691443667
 21
87.2083485300016
 31
0.0
  0
LINE
  5
   104
  8
0
  6
CONTINUOUS
 62
     3
 10
-336.433857770032
 20
87.9848056864202
 30
0.0
 11
-339.331635243243
 21
87.2083485300016
 31
0.0
  0
LINE
  5
   105
  8
0
  6
CONTINUOUS
 62
     3
 10
-339.331635243243
 20
87.2083485300016
 30
0.0
 11
-336.433857770032
 21
86.4318913735831
 31
0.0
  0
LINE
  5
   106
  8
0
  6
CONTINUOUS
 62
     3
 10
-303.229468916878
 20
86.4318913735831
 30
0.0
 11
-300.331691443667
 21
87.2083485300016
 31
0.0
  0
LINE
  5
   107
  8
0
  6
CONTINUOUS
 62
     3
 10
-300.331691443667
 20
87.2083485300016
 30
0.0
 11
-303.229468916878
 21
87.9848056864202
 31
0.0
  0
ENDBLK
  5
   108
  8
0
  6
CONTINUOUS
 62
     3
  0
BLOCK
  5
   109
  8
0
  6
CONTINUOUS
 62
     3
  2
*UDIM419
 70
    65
 10
0.0
 20
0.0
 30
0.0
  3
*UDIM419
  0
TEXT
  5
   10A
  8
0
  6
CONTINUOUS
 62
     3
 10
-419.389588955939
 20
-14.2442474654307
 30
0.0
 40
3.00000002980232
  1
96
 50
449.999999844103
 41
0.933333333333333
 72
     1
 11
-420.889588964054
 21
-11.7442474365234
 31
0.0
 73
     2
  0
LINE
  5
   10B
  8
0
  6
CONTINUOUS
 62
     3
 10
-409.581756591797
 20
36.2557525634766
 30
0.0
 11
-420.389588949152
 21
36.2557525634766
 31
0.0
  0
LINE
  5
   10C
  8
0
  6
CONTINUOUS
 62
     3
 10
-409.581756591797
 20
-59.7442474365234
 30
0.0
 11
-420.389588949152
 21
-59.7442474365234
 31
0.0
  0
LINE
  5
   10D
  8
0
  6
CONTINUOUS
 62
     3
 10
-418.389588949152
 20
36.2557525634766
 30
0.0
 11
-418.389588949152
 21
-59.7442474365234
 31
0.0
  0
LINE
  5
   10E
  8
0
  6
CONTINUOUS
 62
     3
 10
-417.613131792734
 20
33.357975090266
 30
0.0
 11
-418.389588949152
 21
36.2557525634766
 31
0.0
  0
LINE
  5
   10F
  8
0
  6
CONTINUOUS
 62
     3
 10
-418.389588949152
 20
36.2557525634766
 30
0.0
 11
-419.166046105571
 21
33.357975090266
 31
0.0
  0
LINE
  5
   110
  8
0
  6
CONTINUOUS
 62
     3
 10
-419.166046105571
 20
-56.8464699633129
 30
0.0
 11
-418.389588949152
 21
-59.7442474365234
 31
0.0
  0
LINE
  5
   111
  8
0
  6
CONTINUOUS
 62
     3
 10
-418.389588949152
 20
-59.7442474365234
 30
0.0
 11
-417.613131792734
 21
-56.8464699633129
 31
0.0
  0
ENDBLK
  5
   112
  8
0
  6
CONTINUOUS
 62
     3
  0
BLOCK
  5
   113
  8
0
  6
CONTINUOUS
 62
     7
  2
*UDIM420
 70
    65
 10
0.0
 20
0.0
 30
0.0
  3
*UDIM420
  0
TEXT
  5
   114
  8
0
  6
CONTINUOUS
 62
     7
 10
-426.721425600908
 20
-3.91970238794538
 30
0.0
 40
3.00000002980232
  1
120
 50
449.999999844103
 41
0.933333333333333
 72
     1
 11
-428.221425605222
 21
-1.97023451304119E-2
 31
0.0
 73
     2
  0
LINE
  5
   115
  8
0
  6
CONTINUOUS
 62
     3
 10
-325.331658515942
 20
60.2552900314361
 30
0.0
 11
-427.721425590321
 21
60.2552900314361
 31
0.0
  0
LINE
  5
   116
  8
0
  6
CONTINUOUS
 62
     3
 10
-325.331650733949
 20
-59.744694709776
 30
0.0
 11
-427.721425590321
 21
-59.744694709776
 31
0.0
  0
LINE
  5
   117
  8
0
  6
CONTINUOUS
 62
     3
 10
-425.721425590321
 20
60.2552900314361
 30
0.0
 11
-425.721425590321
 21
-59.744694709776
 31
0.0
  0
LINE
  5
   118
  8
0
  6
CONTINUOUS
 62
     3
 10
-425.200481160369
 20
57.3008667542291
 30
0.0
 11
-425.721425590321
 21
60.2552900314361
 31
0.0
  0
LINE
  5
   119
  8
0
  6
CONTINUOUS
 62
     3
 10
-425.721425590321
 20
60.2552900314361
 30
0.0
 11
-426.242370020272
 21
57.3008667542291
 31
0.0
  0
LINE
  5
   11A
  8
0
  6
CONTINUOUS
 62
     3
 10
-426.242370020272
 20
-56.7902714325691
 30
0.0
 11
-425.721425590321
 21
-59.744694709776
 31
0.0
  0
LINE
  5
   11B
  8
0
  6
CONTINUOUS
 62
     3
 10
-425.721425590321
 20
-59.744694709776
 30
0.0
 11
-425.200481160369
 21
-56.7902714325691
 31
0.0
  0
ENDBLK
  5
   11C
  8
0
  6
CONTINUOUS
 62
     7
  0
BLOCK
  5
   11D
  8
0
  6
CONTINUOUS
 62
     7
  2
*UDIM421
 70
    65
 10
0.0
 20
0.0
 30
0.0
  3
*UDIM421
  0
TEXT
  5
   11E
  8
0
  6
CONTINUOUS
 62
     7
 10
-426.721425604708
 20
67.3052899747128
 30
0.0
 40
3.00000002980232
  1
24.5
 50
449.999999844103
 41
0.933333333333333
 72
     1
 11
-428.221425605222
 21
72.6052900314355
 31
0.0
 73
     2
  0
LINE
  5
   11F
  8
0
  6
CONTINUOUS
 62
     3
 10
-377.58162889836
 20
84.9552900314349
 30
0.0
 11
-427.721425590321
 21
84.9552900314349
 31
0.0
  0
LINE
  5
   120
  8
0
  6
CONTINUOUS
 62
     3
 10
-425.721425590321
 20
84.9552900314349
 30
0.0
 11
-425.721425590321
 21
60.2552900314361
 31
0.0
  0
LINE
  5
   121
  8
0
  6
CONTINUOUS
 62
     3
 10
-425.200481160369
 20
82.000866754228
 30
0.0
 11
-425.721425590321
 21
84.9552900314349
 31
0.0
  0
LINE
  5
   122
  8
0
  6
CONTINUOUS
 62
     3
 10
-425.721425590321
 20
84.9552900314349
 30
0.0
 11
-426.242370020272
 21
82.000866754228
 31
0.0
  0
LINE
  5
   123
  8
0
  6
CONTINUOUS
 62
     2
 10
-426.497882746739
 20
63.1530675046467
 30
0.0
 11
-425.721425590321
 21
60.2552900314361
 31
0.0
  0
LINE
  5
   124
  8
0
  6
CONTINUOUS
 62
     2
 10
-425.721425590321
 20
60.2552900314361
 30
0.0
 11
-424.944968433902
 21
63.1530675046467
 31
0.0
  0
ENDBLK
  5
   125
  8
0
  6
CONTINUOUS
 62
     7
  0
BLOCK
  5
   126
  8
0
  6
CONTINUOUS
 62
     7
  2
*UDIM422
 70
    65
 10
0.0
 20
0.0
 30
0.0
  3
*UDIM422
  0
TEXT
  5
   127
  8
0
  6
CONTINUOUS
 62
     7
 10
-379.606695585009
 20
-70.9743318489842
 30
0.0
 40
3.00000002980232
  1
25
 50
359.999999844103
 41
0.933333333333333
 72
     1
 11
-377.1066955561
 21
-69.4743318408728
 31
0.0
 73
     2
  0
LINE
  5
   128
  8
0
  6
CONTINUOUS
 62
     3
 10
-389.331694834884
 20
-64.9447183418034
 30
0.0
 11
-389.331694834884
 21
-73.9743318557739
 31
0.0
  0
LINE
  5
   129
  8
0
  6
CONTINUOUS
 62
     3
 10
-364.331694834884
 20
-64.9447183418034
 30
0.0
 11
-364.331694834884
 21
-73.9743318557739
 31
0.0
  0
LINE
  5
   12A
  8
0
  6
CONTINUOUS
 62
     3
 10
-389.331694834884
 20
-71.9743318557739
 30
0.0
 11
-364.331694834884
 21
-71.9743318557739
 31
0.0
  0
LINE
  5
   12B
  8
0
  6
CONTINUOUS
 62
     3
 10
-386.377271557677
 20
-71.4533874258223
 30
0.0
 11
-389.331694834884
 21
-71.9743318557739
 31
0.0
  0
LINE
  5
   12C
  8
0
  6
CONTINUOUS
 62
     3
 10
-389.331694834884
 20
-71.9743318557739
 30
0.0
 11
-386.377271557677
 21
-72.4952762857256
 31
0.0
  0
LINE
  5
   12D
  8
0
  6
CONTINUOUS
 62
     3
 10
-367.286118112091
 20
-72.4952762857256
 30
0.0
 11
-364.331694834884
 21
-71.9743318557739
 31
0.0
  0
LINE
  5
   12E
  8
0
  6
CONTINUOUS
 62
     3
 10
-364.331694834884
 20
-71.9743318557739
 30
0.0
 11
-367.286118112091
 21
-71.4533874258223
 31
0.0
  0
ENDBLK
  5
   12F
  8
0
  6
CONTINUOUS
 62
     7
  0
BLOCK
  5
   130
  8
0
  6
CONTINUOUS
 62
     7
  2
*UDIM423
 70
    65
 10
0.0
 20
0.0
 30
0.0
  3
*UDIM423
  0
TEXT
  5
   131
  8
0
  6
CONTINUOUS
 62
     7
 10
-354.606695585009
 20
-70.9743318489842
 30
0.0
 40
3.00000002980232
  1
25
 50
359.999999844103
 41
0.933333333333333
 72
     1
 11
-352.1066955561
 21
-69.4743318408728
 31
0.0
 73
     2
  0
LINE
  5
   132
  8
0
  6
CONTINUOUS
 62
     3
 10
-339.331694834884
 20
-66.5017147274686
 30
0.0
 11
-339.331694834884
 21
-73.9743318557739
 31
0.0
  0
LINE
  5
   133
  8
0
  6
CONTINUOUS
 62
     3
 10
-364.331694834884
 20
-71.9743318557739
 30
0.0
 11
-339.331694834884
 21
-71.9743318557739
 31
0.0
  0
LINE
  5
   134
  8
0
  6
CONTINUOUS
 62
     3
 10
-361.377271557677
 20
-71.4533874258223
 30
0.0
 11
-364.331694834884
 21
-71.9743318557739
 31
0.0
  0
LINE
  5
   135
  8
0
  6
CONTINUOUS
 62
     3
 10
-364.331694834884
 20
-71.9743318557739
 30
0.0
 11
-361.377271557677
 21
-72.4952762857256
 31
0.0
  0
LINE
  5
   136
  8
0
  6
CONTINUOUS
 62
     3
 10
-342.286118112091
 20
-72.4952762857256
 30
0.0
 11
-339.331694834884
 21
-71.9743318557739
 31
0.0
  0
LINE
  5
   137
  8
0
  6
CONTINUOUS
 62
     3
 10
-339.331694834884
 20
-71.9743318557739
 30
0.0
 11
-342.286118112091
 21
-71.4533874258223
 31
0.0
  0
ENDBLK
  5
   138
  8
0
  6
CONTINUOUS
 62
     7
  0
BLOCK
  5
   139
  8
0
  6
CONTINUOUS
 62
     7
  2
*UDIM424
 70
    65
 10
0.0
 20
0.0
 30
0.0
  3
*UDIM424
  0
TEXT
  5
   13A
  8
0
  6
CONTINUOUS
 62
     7
 10
-329.606680329471
 20
-70.9743318489842
 30
0.0
 40
3.00000002980232
  1
25
 50
359.999999844103
 41
0.933333333333333
 72
     1
 11
-327.106680300562
 21
-69.4743318408728
 31
0.0
 73
     2
  0
LINE
  5
   13B
  8
0
  6
CONTINUOUS
 62
     3
 10
-314.331665039064
 20
-64.4447183418034
 30
0.0
 11
-314.331665039064
 21
-73.9743318557739
 31
0.0
  0
LINE
  5
   13C
  8
0
  6
CONTINUOUS
 62
     3
 10
-339.331694834884
 20
-71.9743318557739
 30
0.0
 11
-314.331665039064
 21
-71.9743318557739
 31
0.0
  0
LINE
  5
   13D
  8
0
  6
CONTINUOUS
 62
     3
 10
-336.377271557677
 20
-71.4533874258223
 30
0.0
 11
-339.331694834884
 21
-71.9743318557739
 31
0.0
  0
LINE
  5
   13E
  8
0
  6
CONTINUOUS
 62
     3
 10
-339.331694834884
 20
-71.9743318557739
 30
0.0
 11
-336.377271557677
 21
-72.4952762857256
 31
0.0
  0
LINE
  5
   13F
  8
0
  6
CONTINUOUS
 62
     3
 10
-317.286088316271
 20
-72.4952762857256
 30
0.0
 11
-314.331665039064
 21
-71.9743318557739
 31
0.0
  0
LINE
  5
   140
  8
0
  6
CONTINUOUS
 62
     3
 10
-314.331665039064
 20
-71.9743318557739
 30
0.0
 11
-317.286088316271
 21
-71.4533874258223
 31
0.0
  0
ENDBLK
  5
   141
  8
0
  6
CONTINUOUS
 62
     7
  0
BLOCK
  5
   142
  8
0
  6
CONTINUOUS
 62
     7
  2
*UDIM425
 70
    65
 10
0.0
 20
0.0
 30
0.0
  3
*UDIM425
  0
TEXT
  5
   143
  8
0
  6
CONTINUOUS
 62
     7
 10
-290.182108882076
 20
-1.59467946599328
 30
0.0
 40
3.00000002980232
  1
=
 50
449.999999844103
 41
0.933333333333334
 72
     1
 11
-291.682108893991
 21
-0.494679450993814
 31
0.0
 73
     2
  0
LINE
  5
   144
  8
0
  6
CONTINUOUS
 62
     3
 10
-299.331691741943
 20
10.7553205490062
 30
0.0
 11
-287.182108879089
 21
10.7553205490062
 31
0.0
  0
LINE
  5
   145
  8
0
  6
CONTINUOUS
 62
     3
 10
-289.182108879089
 20
10.7553205490062
 30
0.0
 11
-289.182108879089
 21
-11.7446794509938
 31
0.0
  0
LINE
  5
   146
  8
0
  6
CONTINUOUS
 62
     3
 10
-288.661164449138
 20
7.80089727179922
 30
0.0
 11
-289.182108879089
 21
10.7553205490062
 31
0.0
  0
LINE
  5
   147
  8
0
  6
CONTINUOUS
 62
     3
 10
-289.182108879089
 20
10.7553205490062
 30
0.0
 11
-289.703053309041
 21
7.80089727179922
 31
0.0
  0
LINE
  5
   148
  8
0
  6
CONTINUOUS
 62
     3
 10
-289.703053309041
 20
-8.79025617378685
 30
0.0
 11
-289.182108879089
 21
-11.7446794509938
 31
0.0
  0
LINE
  5
   149
  8
0
  6
CONTINUOUS
 62
     3
 10
-289.182108879089
 20
-11.7446794509938
 30
0.0
 11
-288.661164449138
 21
-8.79025617378685
 31
0.0
  0
ENDBLK
  5
   14A
  8
0
  6
CONTINUOUS
 62
     7
  0
BLOCK
  5
   14B
  8
0
  6
CONTINUOUS
 62
     7
  2
*UDIM426
 70
    65
 10
0.0
 20
0.0
 30
0.0
  3
*UDIM426
  0
TEXT
  5
   14C
  8
0
  6
CONTINUOUS
 62
     7
 10
-290.182108882076
 20
-24.0946794659873
 30
0.0
 40
3.00000002980232
  1
=
 50
449.999999844103
 41
0.933333333333334
 72
     1
 11
-291.682108893991
 21
-22.9946794509879
 31
0.0
 73
     2
  0
LINE
  5
   14D
  8
0
  6
CONTINUOUS
 62
     3
 10
-299.331698608397
 20
-34.2446794509819
 30
0.0
 11
-287.182108879089
 21
-34.2446794509819
 31
0.0
  0
LINE
  5
   14E
  8
0
  6
CONTINUOUS
 62
     3
 10
-289.182108879089
 20
-11.7446794509938
 30
0.0
 11
-289.182108879089
 21
-34.2446794509819
 31
0.0
  0
LINE
  5
   14F
  8
0
  6
CONTINUOUS
 62
     3
 10
-288.661164449138
 20
-14.6991027282008
 30
0.0
 11
-289.182108879089
 21
-11.7446794509938
 31
0.0
  0
LINE
  5
   150
  8
0
  6
CONTINUOUS
 62
     3
 10
-289.182108879089
 20
-11.7446794509938
 30
0.0
 11
-289.703053309041
 21
-14.6991027282008
 31
0.0
  0
LINE
  5
   151
  8
0
  6
CONTINUOUS
 62
     3
 10
-289.703053309041
 20
-31.290256173775
 30
0.0
 11
-289.182108879089
 21
-34.2446794509819
 31
0.0
  0
LINE
  5
   152
  8
0
  6
CONTINUOUS
 62
     3
 10
-289.182108879089
 20
-34.2446794509819
 30
0.0
 11
-288.661164449138
 21
-31.290256173775
 31
0.0
  0
ENDBLK
  5
   153
  8
0
  6
CONTINUOUS
 62
     7
  0
BLOCK
  5
   154
  8
0
  6
CONTINUOUS
 62
     3
  2
*UDIM427
 70
    65
 10
0.0
 20
0.0
 30
0.0
  3
*UDIM427
  0
TEXT
  5
   155
  8
0
  6
CONTINUOUS
 62
     3
 10
-282.535111054114
 20
-38.5196871152526
 30
0.0
 40
3.00000002980232
  1
48
 50
449.999999844103
 41
0.933333333333333
 72
     1
 11
-284.035111062229
 21
-36.0196870863454
 31
0.0
 73
     2
  0
LINE
  5
   156
  8
0
  6
CONTINUOUS
 62
     3
 10
-286.334314969849
 20
-11.7446794509938
 30
0.0
 11
-279.535111047328
 21
-11.7446794509938
 31
0.0
  0
LINE
  5
   157
  8
0
  6
CONTINUOUS
 62
     3
 10
-303.831653823859
 20
-59.744694709776
 30
0.0
 11
-279.535111047328
 21
-59.744694709776
 31
0.0
  0
LINE
  5
   158
  8
0
  6
CONTINUOUS
 62
     3
 10
-281.535111047328
 20
-11.7446794509938
 30
0.0
 11
-281.535111047328
 21
-59.744694709776
 31
0.0
  0
LINE
  5
   159
  8
0
  6
CONTINUOUS
 62
     3
 10
-281.014166617376
 20
-14.6991027282008
 30
0.0
 11
-281.535111047328
 21
-11.7446794509938
 31
0.0
  0
LINE
  5
   15A
  8
0
  6
CONTINUOUS
 62
     3
 10
-281.535111047328
 20
-11.7446794509938
 30
0.0
 11
-282.056055477279
 21
-14.6991027282008
 31
0.0
  0
LINE
  5
   15B
  8
0
  6
CONTINUOUS
 62
     3
 10
-282.056055477279
 20
-56.7902714325691
 30
0.0
 11
-281.535111047328
 21
-59.744694709776
 31
0.0
  0
LINE
  5
   15C
  8
0
  6
CONTINUOUS
 62
     3
 10
-281.535111047328
 20
-59.744694709776
 30
0.0
 11
-281.014166617376
 21
-56.7902714325691
 31
0.0
  0
ENDBLK
  5
   15D
  8
0
  6
CONTINUOUS
 62
     3
  0
BLOCK
  5
   15E
  8
0
  6
CONTINUOUS
 62
     7
  2
DIAFRAMMA
 70
    64
 10
0.0
 20
0.0
 30
0.0
  3
DIAFRAMMA
  0
LINE
  5
   15F
  8
0
  6
CONTINUOUS
 62
   210
 10
-0.75
 20
26.7
 30
0.0
 11
0.75
 21
26.7
 31
0.0
  0
LINE
  5
   160
  8
0
  6
CONTINUOUS
 62
   210
 10
0.75
 20
2.2
 30
0.0
 11
0.75
 21
26.7
 31
0.0
  0
LINE
  5
   161
  8
0
  6
CONTINUOUS
 62
   210
 10
-0.75
 20
2.2
 30
0.0
 11
-0.75
 21
26.7
 31
0.0
  0
LINE
  5
   162
  8
0
  6
CONTINUOUS
 62
   210
 10
-1.4
 20
2.2
 30
0.0
 11
-0.75
 21
2.2
 31
0.0
  0
LINE
  5
   163
  8
0
  6
CONTINUOUS
 62
   210
 10
0.75
 20
2.2
 30
0.0
 11
1.4
 21
2.2
 31
0.0
  0
LINE
  5
   164
  8
0
  6
CONTINUOUS
 62
   210
 10
-1.4
 20
-2.1
 30
0.0
 11
-1.4
 21
2.2
 31
0.0
  0
LINE
  5
   165
  8
0
  6
CONTINUOUS
 62
   210
 10
-2.25
 20
0.0
 30
0.0
 11
-1.4
 21
0.0
 31
0.0
  0
LINE
  5
   166
  8
0
  6
CONTINUOUS
 62
   210
 10
-2.25
 20
-1.3
 30
0.0
 11
-2.25
 21
2.22044604925031E-16
 31
0.0
  0
LINE
  5
   167
  8
0
  6
CONTINUOUS
 62
   210
 10
-2.25
 20
-1.3
 30
0.0
 11
2.25
 21
-1.3
 31
0.0
  0
LINE
  5
   168
  8
0
  6
CONTINUOUS
 62
   210
 10
-1.4
 20
-2.1
 30
0.0
 11
1.4
 21
-2.1
 31
0.0
  0
LINE
  5
   169
  8
0
  6
CONTINUOUS
 62
   210
 10
1.4
 20
0.0
 30
0.0
 11
2.25
 21
0.0
 31
0.0
  0
LINE
  5
   16A
  8
0
  6
CONTINUOUS
 62
   210
 10
1.4
 20
-2.1
 30
0.0
 11
1.4
 21
2.2
 31
0.0
  0
LINE
  5
   16B
  8
0
  6
CONTINUOUS
 62
   210
 10
2.25
 20
-1.3
 30
0.0
 11
2.25
 21
4.44089209850063E-16
 31
0.0
  0
ENDBLK
  5
   16C
  8
0
  6
CONTINUOUS
 62
     7
  0
BLOCK
  5
   16D
  8
0
  6
CONTINUOUS
 62
     7
  2
*UDIM428
 70
    65
 10
0.0
 20
0.0
 30
0.0
  3
*UDIM428
  0
TEXT
  5
   16E
  8
0
  6
CONTINUOUS
 62
     7
 10
-360.017671550135
 20
-110.7978360244
 30
0.0
 40
3.00000002980232
  1
4.5
 50
402.820488600107
 41
0.933333333333333
 72
     1
 11
-358.176628258924
 21
-107.04676151877
 31
0.0
 73
     2
  0
TEXT
  5
   16F
  8
0
  6
CONTINUOUS
 62
     7
 10
-362.951618975291
 20
-113.516650608891
 30
0.0
 40
3.00000002980232
  1
Ø
 50
402.820488600107
 41
1.2
 72
     1
 11
-362.870944150632
 21
-111.396864850359
 31
0.0
 73
     2
  0
TEXT
  5
   170
  8
0
  6
CONTINUOUS
 62
     7
 10
-371.460066541945
 20
-121.401212895314
 30
0.0
 40
3.00000002980232
  1
M4 o
 50
402.820488600107
 41
0.933333333333333
 72
     1
 11
-368.592141645245
 21
-116.69855328721
 31
0.0
 73
     2
  0
LINE
  5
   171
  8
0
  6
CONTINUOUS
 62
     7
 10
-345.67332119754
 20
-98.8686417757121
 30
0.0
 11
-370.780362889313
 21
-122.134699755032
 31
0.0
  0
LINE
  5
   172
  8
0
  6
CONTINUOUS
 62
     3
 10
-348.004528970478
 20
-102.087496426953
 30
0.0
 11
-346.406808049471
 21
-99.5483454155757
 31
0.0
  0
LINE
  5
   173
  8
0
  6
CONTINUOUS
 62
     3
 10
-346.406808049471
 20
-99.5483454155757
 30
0.0
 11
-349.06005048131
 21
-100.948454196311
 31
0.0
  0
ENDBLK
  5
   174
  8
0
  6
CONTINUOUS
 62
     7
  0
BLOCK
  5
   175
  8
0
  6
CONTINUOUS
 62
     3
  2
*UDIM429
 70
    65
 10
0.0
 20
0.0
 30
0.0
  3
*UDIM429
  0
TEXT
  5
   176
  8
0
  6
CONTINUOUS
 62
     3
 10
-341.831635444463
 20
-82.1101722649388
 30
0.0
 40
3.00000002980232
  1
25
 50
359.999999844103
 41
0.933333333333333
 72
     1
 11
-339.331635415554
 21
-80.6101722568274
 31
0.0
 73
     2
  0
TEXT
  5
   177
  8
0
  6
CONTINUOUS
 62
     3
 10
-344.631635472279
 20
-86.1101722871367
 30
0.0
 40
3.00000002980232
  1
=  =
 50
359.999999844103
 41
0.933333333333333
 72
     1
 11
-339.331635415554
 21
-84.6101722866297
 31
0.0
 73
     2
  0
LINE
  5
   178
  8
0
  6
CONTINUOUS
 62
     3
 10
-345.581635341048
 20
-94.5836788922548
 30
0.0
 11
-345.581635341048
 21
-81.1101722717285
 31
0.0
  0
LINE
  5
   179
  8
0
  6
CONTINUOUS
 62
     3
 10
-333.08163549006
 20
-144.583667615056
 30
0.0
 11
-333.08163549006
 21
-81.1101722717285
 31
0.0
  0
LINE
  5
   17A
  8
0
  6
CONTINUOUS
 62
     3
 10
-345.581635341048
 20
-83.1101722717285
 30
0.0
 11
-333.08163549006
 21
-83.1101722717285
 31
0.0
  0
LINE
  5
   17B
  8
0
  6
CONTINUOUS
 62
     3
 10
-342.627212063841
 20
-82.5892278417768
 30
0.0
 11
-345.581635341048
 21
-83.1101722717285
 31
0.0
  0
LINE
  5
   17C
  8
0
  6
CONTINUOUS
 62
     3
 10
-345.581635341048
 20
-83.1101722717285
 30
0.0
 11
-342.627212063841
 21
-83.6311167016802
 31
0.0
  0
LINE
  5
   17D
  8
0
  6
CONTINUOUS
 62
     3
 10
-336.036058767267
 20
-83.6311167016802
 30
0.0
 11
-333.08163549006
 21
-83.1101722717285
 31
0.0
  0
LINE
  5
   17E
  8
0
  6
CONTINUOUS
 62
     3
 10
-333.08163549006
 20
-83.1101722717285
 30
0.0
 11
-336.036058767267
 21
-82.5892278417768
 31
0.0
  0
ENDBLK
  5
   17F
  8
0
  6
CONTINUOUS
 62
     3
  0
BLOCK
  5
   180
  8
0
  6
CONTINUOUS
 62
     3
  2
*UDIM430
 70
    65
 10
0.0
 20
0.0
 30
0.0
  3
*UDIM430
  0
TEXT
  5
   181
  8
0
  6
CONTINUOUS
 62
     3
 10
-376.313453681103
 20
-117.058678080736
 30
0.0
 40
3.00000002980232
  1
62
 50
449.999999844103
 41
0.933333333333333
 72
     1
 11
-377.813453689218
 21
-114.558678051829
 31
0.0
 73
     2
  0
LINE
  5
   182
  8
0
  6
CONTINUOUS
 62
     3
 10
-351.031635269523
 20
-98.7836788207292
 30
0.0
 11
-377.313453674316
 21
-98.7836788207292
 31
0.0
  0
LINE
  5
   183
  8
0
  6
CONTINUOUS
 62
     3
 10
-357.730960072057
 20
-129.783678820729
 30
0.0
 11
-377.313453674316
 21
-129.783678820729
 31
0.0
  0
LINE
  5
   184
  8
0
  6
CONTINUOUS
 62
     3
 10
-375.313453674316
 20
-98.7836788207292
 30
0.0
 11
-375.313453674316
 21
-129.783678820729
 31
0.0
  0
LINE
  5
   185
  8
0
  6
CONTINUOUS
 62
     3
 10
-374.792509244365
 20
-101.738102097936
 30
0.0
 11
-375.313453674316
 21
-98.7836788207292
 31
0.0
  0
LINE
  5
   186
  8
0
  6
CONTINUOUS
 62
     3
 10
-375.313453674316
 20
-98.7836788207292
 30
0.0
 11
-375.834398104268
 21
-101.738102097936
 31
0.0
  0
LINE
  5
   187
  8
0
  6
CONTINUOUS
 62
     3
 10
-375.834398104268
 20
-126.829255543522
 30
0.0
 11
-375.313453674316
 21
-129.783678820729
 31
0.0
  0
LINE
  5
   188
  8
0
  6
CONTINUOUS
 62
     3
 10
-375.313453674316
 20
-129.783678820729
 30
0.0
 11
-374.792509244365
 21
-126.829255543522
 31
0.0
  0
ENDBLK
  5
   189
  8
0
  6
CONTINUOUS
 62
     3
  0
BLOCK
  5
   18A
  8
0
  6
CONTINUOUS
 62
     3
  2
*UDIM431
 70
    65
 10
0.0
 20
0.0
 30
0.0
  3
*UDIM431
  0
TEXT
  5
   18B
  8
0
  6
CONTINUOUS
 62
     3
 10
-390.307258616544
 20
-127.958672366638
 30
0.0
 40
3.00000002980232
  1
100
 50
449.999999844103
 41
0.933333333333333
 72
     1
 11
-391.807258620858
 21
-124.058672323823
 31
0.0
 73
     2
  0
LINE
  5
   18C
  8
0
  6
CONTINUOUS
 62
     3
 10
-351.031635269523
 20
-98.7836788207292
 30
0.0
 11
-391.307258605957
 21
-98.7836788207292
 31
0.0
  0
LINE
  5
   18D
  8
0
  6
CONTINUOUS
 62
     3
 10
-340.406635418534
 20
-148.783667543531
 30
0.0
 11
-391.307258605957
 21
-148.783667543531
 31
0.0
  0
LINE
  5
   18E
  8
0
  6
CONTINUOUS
 62
     3
 10
-389.307258605957
 20
-98.7836788207292
 30
0.0
 11
-389.307258605957
 21
-148.783667543531
 31
0.0
  0
LINE
  5
   18F
  8
0
  6
CONTINUOUS
 62
     3
 10
-388.786314176005
 20
-101.738102097936
 30
0.0
 11
-389.307258605957
 21
-98.7836788207292
 31
0.0
  0
LINE
  5
   190
  8
0
  6
CONTINUOUS
 62
     3
 10
-389.307258605957
 20
-98.7836788207292
 30
0.0
 11
-389.828203035909
 21
-101.738102097936
 31
0.0
  0
LINE
  5
   191
  8
0
  6
CONTINUOUS
 62
     3
 10
-389.828203035909
 20
-145.829244266324
 30
0.0
 11
-389.307258605957
 21
-148.783667543531
 31
0.0
  0
LINE
  5
   192
  8
0
  6
CONTINUOUS
 62
     3
 10
-389.307258605957
 20
-148.783667543531
 30
0.0
 11
-388.786314176005
 21
-145.829244266324
 31
0.0
  0
ENDBLK
  5
   193
  8
0
  6
CONTINUOUS
 62
     3
  0
BLOCK
  5
   194
  8
0
  6
CONTINUOUS
 62
     3
  2
*UDIM432
 70
    65
 10
0.0
 20
0.0
 30
0.0
  3
*UDIM432
  0
TEXT
  5
   195
  8
0
  6
CONTINUOUS
 62
     3
 10
-90.5792908063539
 20
88.9910812445827
 30
0.0
 40
3.00000002980232
  1
43
 50
359.999999844103
 41
0.933333333333333
 72
     1
 11
-88.0792907774448
 21
90.4910812526941
 31
0.0
 73
     2
  0
LINE
  5
   196
  8
0
  6
CONTINUOUS
 62
     3
 10
-98.5542907714844
 20
77.5901791063164
 30
0.0
 11
-98.5542907714844
 21
89.991081237793
 31
0.0
  0
LINE
  5
   197
  8
0
  6
CONTINUOUS
 62
     3
 10
-77.0542907714844
 20
69.4359245300293
 30
0.0
 11
-77.0542907714844
 21
89.991081237793
 31
0.0
  0
LINE
  5
   198
  8
0
  6
CONTINUOUS
 62
     3
 10
-98.5542907714844
 20
87.991081237793
 30
0.0
 11
-77.0542907714844
 21
87.991081237793
 31
0.0
  0
LINE
  5
   199
  8
0
  6
CONTINUOUS
 62
     3
 10
-95.5998674942774
 20
88.5120256677446
 30
0.0
 11
-98.5542907714844
 21
87.991081237793
 31
0.0
  0
LINE
  5
   19A
  8
0
  6
CONTINUOUS
 62
     3
 10
-98.5542907714844
 20
87.991081237793
 30
0.0
 11
-95.5998674942774
 21
87.4701368078413
 31
0.0
  0
LINE
  5
   19B
  8
0
  6
CONTINUOUS
 62
     3
 10
-80.0087140486913
 20
87.4701368078413
 30
0.0
 11
-77.0542907714844
 21
87.991081237793
 31
0.0
  0
LINE
  5
   19C
  8
0
  6
CONTINUOUS
 62
     3
 10
-77.0542907714844
 20
87.991081237793
 30
0.0
 11
-80.0087140486913
 21
88.5120256677446
 31
0.0
  0
ENDBLK
  5
   19D
  8
0
  6
CONTINUOUS
 62
     3
  0
BLOCK
  5
   19E
  8
0
  6
CONTINUOUS
 62
     3
  2
*UDIM433
 70
    65
 10
0.0
 20
0.0
 30
0.0
  3
*UDIM433
  0
TEXT
  5
   19F
  8
0
  6
CONTINUOUS
 62
     3
 10
-120.498965509942
 20
85.7036452826936
 30
0.0
 40
3.00000002980232
  1
4
 50
404.818094863318
 41
0.933333333333334
 72
     1
 11
-120.775969930641
 21
87.5430116463246
 31
0.0
 73
     2
  0
TEXT
  5
   1A0
  8
0
  6
CONTINUOUS
 62
     3
 10
-122.449672988267
 20
83.7652850169594
 30
0.0
 40
3.00000002980232
  1
Ø
 50
404.818094863318
 41
0.933333333333334
 72
     1
 11
-122.726677408965
 21
85.6046513805905
 31
0.0
 73
     2
  0
LINE
  5
   1A1
  8
0
  6
CONTINUOUS
 62
     3
 10
-118.233541256161
 20
86.5449853271681
 30
0.0
 11
-132.638638936708
 21
72.2310662602377
 31
0.0
  0
LINE
  5
   1A2
  8
0
  6
CONTINUOUS
 62
     3
 10
-129.491419864833
 20
76.0927634547948
 30
0.0
 11
-131.219942606261
 21
73.6407827998209
 31
0.0
  0
LINE
  5
   1A3
  8
0
  6
CONTINUOUS
 62
     3
 10
-131.219942606261
 20
73.6407827998209
 30
0.0
 11
-128.757035885726
 21
75.3537015036552
 31
0.0
  0
LINE
  5
   1A4
  8
0
  6
CONTINUOUS
 62
     3
 10
-134.367161678136
 20
69.7790856052638
 30
0.0
 11
-132.638638936708
 21
72.2310662602377
 31
0.0
  0
LINE
  5
   1A5
  8
0
  6
CONTINUOUS
 62
     3
 10
-132.638638936708
 20
72.2310662602377
 30
0.0
 11
-135.101545657243
 21
70.5181475564034
 31
0.0
  0
ENDBLK
  5
   1A6
  8
0
  6
CONTINUOUS
 62
     3
  0
BLOCK
  5
   1A7
  8
0
  6
CONTINUOUS
 62
     3
  2
*UDIM434
 70
    65
 10
0.0
 20
0.0
 30
0.0
  3
*UDIM434
  0
TEXT
  5
   1A8
  8
0
  6
CONTINUOUS
 62
     3
 10
-149.956844336621
 20
54.1609244951616
 30
0.0
 40
3.00000002980232
  1
64
 50
449.999999844103
 41
0.933333333333333
 72
     1
 11
-151.456844344735
 21
56.6609245240688
 31
0.0
 73
     2
  0
LINE
  5
   1A9
  8
0
  6
CONTINUOUS
 62
     3
 10
-131.929290771484
 20
72.9359245300293
 30
0.0
 11
-150.956844329834
 21
72.9359245300293
 31
0.0
  0
LINE
  5
   1AA
  8
0
  6
CONTINUOUS
 62
     3
 10
-131.929290771484
 20
40.9359245300293
 30
0.0
 11
-150.956844329834
 21
40.9359245300293
 31
0.0
  0
LINE
  5
   1AB
  8
0
  6
CONTINUOUS
 62
     3
 10
-148.956844329834
 20
72.9359245300293
 30
0.0
 11
-148.956844329834
 21
40.9359245300293
 31
0.0
  0
LINE
  5
   1AC
  8
0
  6
CONTINUOUS
 62
     3
 10
-148.435899899882
 20
69.9815012528223
 30
0.0
 11
-148.956844329834
 21
72.9359245300293
 31
0.0
  0
LINE
  5
   1AD
  8
0
  6
CONTINUOUS
 62
     3
 10
-148.956844329834
 20
72.9359245300293
 30
0.0
 11
-149.477788759786
 21
69.9815012528223
 31
0.0
  0
LINE
  5
   1AE
  8
0
  6
CONTINUOUS
 62
     3
 10
-149.477788759786
 20
43.8903478072363
 30
0.0
 11
-148.956844329834
 21
40.9359245300293
 31
0.0
  0
LINE
  5
   1AF
  8
0
  6
CONTINUOUS
 62
     3
 10
-148.956844329834
 20
40.9359245300293
 30
0.0
 11
-148.435899899882
 21
43.8903478072363
 31
0.0
  0
ENDBLK
  5
   1B0
  8
0
  6
CONTINUOUS
 62
     3
  0
BLOCK
  5
   1B1
  8
0
  6
CONTINUOUS
 62
     3
  2
*UDIM435
 70
    65
 10
0.0
 20
0.0
 30
0.0
  3
*UDIM435
  0
TEXT
  5
   1B2
  8
0
  6
CONTINUOUS
 62
     3
 10
-108.979288912913
 20
51.7922916518273
 30
0.0
 40
3.00000002980232
  1
111
 50
359.999999844103
 41
0.933333333333333
 72
     1
 11
-105.079288870096
 21
53.2922916561365
 31
0.0
 73
     2
  0
LINE
  5
   1B3
  8
0
  6
CONTINUOUS
 62
     3
 10
-132.554290771484
 20
50.7922916412354
 30
0.0
 11
-77.0542907714844
 21
50.7922916412354
 31
0.0
  0
LINE
  5
   1B4
  8
0
  6
CONTINUOUS
 62
     3
 10
-129.599867494277
 20
51.313236071187
 30
0.0
 11
-132.554290771484
 21
50.7922916412354
 31
0.0
  0
LINE
  5
   1B5
  8
0
  6
CONTINUOUS
 62
     3
 10
-132.554290771484
 20
50.7922916412354
 30
0.0
 11
-129.599867494277
 21
50.2713472112837
 31
0.0
  0
LINE
  5
   1B6
  8
0
  6
CONTINUOUS
 62
     3
 10
-80.0087140486913
 20
50.2713472112837
 30
0.0
 11
-77.0542907714844
 21
50.7922916412354
 31
0.0
  0
LINE
  5
   1B7
  8
0
  6
CONTINUOUS
 62
     3
 10
-77.0542907714844
 20
50.7922916412354
 30
0.0
 11
-80.0087140486913
 21
51.313236071187
 31
0.0
  0
ENDBLK
  5
   1B8
  8
0
  6
CONTINUOUS
 62
     3
  0
BLOCK
  5
   1B9
  8
0
  6
CONTINUOUS
 62
     3
  2
*UDIM436
 70
    65
 10
0.0
 20
0.0
 30
0.0
  3
*UDIM436
  0
TEXT
  5
   1BA
  8
0
  6
CONTINUOUS
 62
     3
 10
-55.5694541999018
 20
54.1609244951616
 30
0.0
 40
3.00000002980232
  1
53
 50
449.999999844103
 41
0.933333333333333
 72
     1
 11
-57.0694542080164
 21
56.6609245240688
 31
0.0
 73
     2
  0
LINE
  5
   1BB
  8
0
  6
CONTINUOUS
 62
     3
 10
-77.8042907714844
 20
70.1859245300293
 30
0.0
 11
-52.5694541931152
 21
70.1859245300293
 31
0.0
  0
LINE
  5
   1BC
  8
0
  6
CONTINUOUS
 62
     3
 10
-77.8042907714844
 20
43.6859245300293
 30
0.0
 11
-52.5694541931152
 21
43.6859245300293
 31
0.0
  0
LINE
  5
   1BD
  8
0
  6
CONTINUOUS
 62
     3
 10
-54.5694541931152
 20
70.1859245300293
 30
0.0
 11
-54.5694541931152
 21
43.6859245300293
 31
0.0
  0
LINE
  5
   1BE
  8
0
  6
CONTINUOUS
 62
     3
 10
-54.0485097631636
 20
67.2315012528223
 30
0.0
 11
-54.5694541931152
 21
70.1859245300293
 31
0.0
  0
LINE
  5
   1BF
  8
0
  6
CONTINUOUS
 62
     3
 10
-54.5694541931152
 20
70.1859245300293
 30
0.0
 11
-55.0903986230669
 21
67.2315012528223
 31
0.0
  0
LINE
  5
   1C0
  8
0
  6
CONTINUOUS
 62
     3
 10
-55.0903986230669
 20
46.6403478072363
 30
0.0
 11
-54.5694541931152
 21
43.6859245300293
 31
0.0
  0
LINE
  5
   1C1
  8
0
  6
CONTINUOUS
 62
     3
 10
-54.5694541931152
 20
43.6859245300293
 30
0.0
 11
-54.0485097631636
 21
46.6403478072363
 31
0.0
  0
ENDBLK
  5
   1C2
  8
0
  6
CONTINUOUS
 62
     3
  0
BLOCK
  5
   1C3
  8
0
  6
CONTINUOUS
 62
     3
  2
*UDIM437
 70
    65
 10
0.0
 20
0.0
 30
0.0
  3
*UDIM437
  0
TEXT
  5
   1C4
  8
0
  6
CONTINUOUS
 62
     3
 10
-111.779290848077
 20
16.987743395882
 30
0.0
 40
3.00000002980232
  1
108,5
 50
359.999999844103
 41
0.933333333333333
 72
     1
 11
-105.079290777445
 21
18.4877433925867
 31
0.0
 73
     2
  0
LINE
  5
   1C5
  8
0
  6
CONTINUOUS
 62
     3
 10
-131.929290771484
 20
37.4359245300293
 30
0.0
 11
-131.929290771484
 21
13.9877433776855
 31
0.0
  0
LINE
  5
   1C6
  8
0
  6
CONTINUOUS
 62
     3
 10
-77.6792907714844
 20
39.4359245300293
 30
0.0
 11
-77.6792907714844
 21
13.9877433776855
 31
0.0
  0
LINE
  5
   1C7
  8
0
  6
CONTINUOUS
 62
     3
 10
-131.929290771484
 20
15.9877433776855
 30
0.0
 11
-77.6792907714844
 21
15.9877433776855
 31
0.0
  0
LINE
  5
   1C8
  8
0
  6
CONTINUOUS
 62
     3
 10
-128.974867494277
 20
16.5086878076372
 30
0.0
 11
-131.929290771484
 21
15.9877433776855
 31
0.0
  0
LINE
  5
   1C9
  8
0
  6
CONTINUOUS
 62
     3
 10
-131.929290771484
 20
15.9877433776855
 30
0.0
 11
-128.974867494277
 21
15.4667989477339
 31
0.0
  0
LINE
  5
   1CA
  8
0
  6
CONTINUOUS
 62
     3
 10
-80.6337140486913
 20
15.4667989477339
 30
0.0
 11
-77.6792907714844
 21
15.9877433776855
 31
0.0
  0
LINE
  5
   1CB
  8
0
  6
CONTINUOUS
 62
     3
 10
-77.6792907714844
 20
15.9877433776855
 30
0.0
 11
-80.6337140486913
 21
16.5086878076372
 31
0.0
  0
ENDBLK
  5
   1CC
  8
0
  6
CONTINUOUS
 62
     3
  0
BLOCK
  5
   1CD
  8
0
  6
CONTINUOUS
 62
     7
  2
*UDIM438
 70
    65
 10
0.0
 20
0.0
 30
0.0
  3
*UDIM438
  0
TEXT
  5
   1CE
  8
0
  6
CONTINUOUS
 62
     7
 10
-86.8835345728588
 20
61.4503228631569
 30
0.0
 40
3.00000002980232
  1
1.5
 50
406.07704117137
 41
0.933333333333333
 72
     1
 11
-85.2585514008142
 21
65.2999241460784
 31
0.0
 73
     2
  0
TEXT
  5
   1CF
  8
0
  6
CONTINUOUS
 62
     7
 10
-89.6582965913334
 20
58.5692300185492
 30
0.0
 40
3.00000002980232
  1
R
 50
406.07704117137
 41
1.2
 72
     1
 11
-89.6981706420181
 21
60.6901755976457
 31
0.0
 73
     2
  0
LINE
  5
   1D0
  8
0
  6
CONTINUOUS
 62
     7
 10
-77.2840228960167
 20
69.9761294335207
 30
0.0
 11
-88.9380233809191
 21
57.8755395180338
 31
0.0
  0
LINE
  5
   1D1
  8
0
  6
CONTINUOUS
 62
     3
 10
-78.7349223177729
 20
67.3503170129645
 30
0.0
 11
-77.2840228960167
 21
69.9761294335207
 31
0.0
  0
LINE
  5
   1D2
  8
0
  6
CONTINUOUS
 62
     3
 10
-77.2840228960167
 20
69.9761294335207
 30
0.0
 11
-79.8534448864353
 21
68.4275589200621
 31
0.0
  0
ENDBLK
  5
   1D3
  8
0
  6
CONTINUOUS
 62
     7
  0
BLOCK
  5
   1D4
  8
0
  6
CONTINUOUS
 62
     3
  2
*UDIM439
 70
    65
 10
0.0
 20
0.0
 30
0.0
  3
*UDIM439
  0
TEXT
  5
   1D5
  8
0
  6
CONTINUOUS
 62
     3
 10
-90.6167908003935
 20
29.6969585486598
 30
0.0
 40
3.00000002980232
  1
42
 50
359.999999844103
 41
0.933333333333333
 72
     1
 11
-88.1167907714844
 21
31.1969585567713
 31
0.0
 73
     2
  0
LINE
  5
   1D6
  8
0
  6
CONTINUOUS
 62
     3
 10
-98.5542907714844
 20
35.658706626403
 30
0.0
 11
-98.5542907714844
 21
26.6969585418701
 31
0.0
  0
LINE
  5
   1D7
  8
0
  6
CONTINUOUS
 62
     3
 10
-77.6792907714844
 20
38.4359245300293
 30
0.0
 11
-77.6792907714844
 21
26.6969585418701
 31
0.0
  0
LINE
  5
   1D8
  8
0
  6
CONTINUOUS
 62
     3
 10
-98.5542907714844
 20
28.6969585418701
 30
0.0
 11
-77.6792907714844
 21
28.6969585418701
 31
0.0
  0
LINE
  5
   1D9
  8
0
  6
CONTINUOUS
 62
     3
 10
-95.6565132982738
 20
29.4734156982887
 30
0.0
 11
-98.5542907714844
 21
28.6969585418701
 31
0.0
  0
LINE
  5
   1DA
  8
0
  6
CONTINUOUS
 62
     3
 10
-98.5542907714844
 20
28.6969585418701
 30
0.0
 11
-95.6565132982738
 21
27.9205013854516
 31
0.0
  0
LINE
  5
   1DB
  8
0
  6
CONTINUOUS
 62
     3
 10
-80.5770682446949
 20
27.9205013854516
 30
0.0
 11
-77.6792907714844
 21
28.6969585418701
 31
0.0
  0
LINE
  5
   1DC
  8
0
  6
CONTINUOUS
 62
     3
 10
-77.6792907714844
 20
28.6969585418701
 30
0.0
 11
-80.5770682446949
 21
29.4734156982887
 31
0.0
  0
ENDBLK
  5
   1DD
  8
0
  6
CONTINUOUS
 62
     3
  0
ENDSEC
  0
SECTION
  2
ENTITIES
  0
INSERT
  5
   1DE
  8
0
  6
CONTINUOUS
 62
     7
  2
*HATCH31
 10
-121.123390197754
 20
-14.2446918487549
 30
0.0
 50
269.999999844103
  0
INSERT
  5
   1DF
  8
0
  6
CONTINUOUS
 62
     7
  2
*HATCH32
 10
-121.123390197754
 20
-14.2446918487549
 30
0.0
 50
269.999999844103
  0
LINE
  5
   1E0
  8
0
  6
DASHDOT
 62
   130
 10
-172.370788574219
 20
71.8966619658505
 30
0.0
 11
-172.370788574219
 21
-80.247572864363
 31
0.0
  0
LINE
  5
   1E1
  8
0
  6
DASHDOT
 62
   130
 10
-173.870788574219
 20
71.8966619658505
 30
0.0
 11
-173.870788574219
 21
-80.7798446914604
 31
0.0
  0
LINE
  5
   1E2
  8
0
  6
CONTINUOUS
 62
   130
 10
-244.370782407125
 20
-59.7446918487549
 30
0.0
 11
-232.355621337891
 21
-59.7446918487549
 31
0.0
  0
LINE
  5
   1E3
  8
0
  6
CONTINUOUS
 62
   130
 10
-244.370782407125
 20
60.2552928924561
 30
0.0
 11
-198.870796203613
 21
60.2552928924561
 31
0.0
  0
LINE
  5
   1E4
  8
0
  6
DOT
 62
   130
 10
-231.870796775818
 20
45.255292892449
 30
0.0
 11
-219.370796179771
 21
45.255292892449
 31
0.0
  0
LINE
  5
   1E5
  8
0
  6
CONTINUOUS
 62
   130
 10
-244.370782407125
 20
60.2552928924561
 30
0.0
 11
-244.370782407125
 21
38.7553081512451
 31
0.0
  0
LINE
  5
   1E6
  8
0
  6
CONTINUOUS
 62
   130
 10
-218.855621337891
 20
-44.2446765899658
 30
0.0
 11
-218.855621337891
 21
-55.7188106413783
 31
0.0
  0
LINE
  5
   1E7
  8
0
  6
CONTINUOUS
 62
   130
 10
-216.855621337891
 20
-44.2446765899658
 30
0.0
 11
-216.855621337891
 21
-56.7446918487549
 31
0.0
  0
LINE
  5
   1E8
  8
0
  6
CONTINUOUS
 62
   130
 10
-218.855621337891
 20
-55.7188106413783
 30
0.0
 11
-216.855621337891
 21
-55.7188106413783
 31
0.0
  0
LINE
  5
   1E9
  8
0
  6
DASHDOT
 62
   130
 10
-220.901043318851
 20
51.2552962066853
 30
0.0
 11
-195.870031841718
 21
51.2552962066853
 31
0.0
  0
LINE
  5
   1EA
  8
0
  6
DASHDOT
 62
   130
 10
-218.515619279562
 20
-50.7446765899541
 30
0.0
 11
-203.211363250086
 21
-50.7446765899541
 31
0.0
  0
LINE
  5
   1EB
  8
0
  6
CONTINUOUS
 62
   130
 10
-169.370795965195
 20
-18.068698281979
 30
0.0
 11
-154.006063483053
 21
-22.7116588349192
 31
0.0
  0
LINE
  5
   1EC
  8
0
  6
CONTINUOUS
 62
   130
 10
-154.006063483053
 20
-22.7116588349192
 30
0.0
 11
-153.837034247703
 21
-23.0089520782989
 31
0.0
  0
LINE
  5
   1ED
  8
0
  6
CONTINUOUS
 62
   130
 10
-153.837013617497
 20
-23.0089647031977
 30
0.0
 11
-153.834488021065
 21
-23.2597050834824
 31
0.0
  0
LINE
  5
   1EE
  8
0
  6
CONTINUOUS
 62
   130
 10
-153.834497282099
 20
-23.259696710031
 30
0.0
 11
-154.563420424356
 21
-26.1949636241626
 31
0.0
  0
LINE
  5
   1EF
  8
0
  6
CONTINUOUS
 62
   130
 10
-154.563414261172
 20
-26.1949587873533
 30
0.0
 11
-154.688677715835
 21
-26.4214454606467
 31
0.0
  0
LINE
  5
   1F0
  8
0
  6
CONTINUOUS
 62
   130
 10
-154.688671305593
 20
-26.4214533467943
 30
0.0
 11
-154.91039803783
 21
-26.5549636705165
 31
0.0
  0
LINE
  5
   1F1
  8
0
  6
CONTINUOUS
 62
   130
 10
-154.91037487174
 20
-26.5549636858046
 30
0.0
 11
-155.169150170413
 21
-26.5597244895309
 31
0.0
  0
LINE
  5
   1F2
  8
0
  6
CONTINUOUS
 62
   130
 10
-169.370795965195
 20
-23.0330709267229
 30
0.0
 11
-155.169175793463
 21
-26.559723399031
 31
0.0
  0
LINE
  5
   1F3
  8
0
  6
DOT
 62
   130
 10
-212.370796775818
 20
57.2552962066853
 30
0.0
 11
-212.370796775818
 21
54.2552962066853
 31
0.0
  0
LINE
  5
   1F4
  8
0
  6
DOT
 62
   130
 10
-229.870796775818
 20
57.2552962066853
 30
0.0
 11
-229.870796775818
 21
45.2552962066853
 31
0.0
  0
LINE
  5
   1F5
  8
0
  6
DOT
 62
   130
 10
-231.870796775818
 20
57.2552962066853
 30
0.0
 11
-231.870796775818
 21
45.2552962066853
 31
0.0
  0
LINE
  5
   1F6
  8
0
  6
DOT
 62
   130
 10
-231.870796775818
 20
57.2552962066853
 30
0.0
 11
-212.370796775818
 21
57.2552962066853
 31
0.0
  0
LINE
  5
   1F7
  8
0
  6
DOT
 62
   130
 10
-216.370796775818
 20
45.2552962066853
 30
0.0
 11
-212.370796775818
 21
45.2552962066853
 31
0.0
  0
LINE
  5
   1F8
  8
0
  6
DOT
 62
   130
 10
-215.870796775818
 20
54.2552962066853
 30
0.0
 11
-199.370796775818
 21
54.2552962066853
 31
0.0
  0
LINE
  5
   1F9
  8
0
  6
DOT
 62
   130
 10
-215.870796775818
 20
48.2552962066853
 30
0.0
 11
-199.370796775818
 21
48.2552962066853
 31
0.0
  0
LINE
  5
   1FA
  8
0
  6
DOT
 62
   130
 10
-215.870796775818
 20
54.2552962066853
 30
0.0
 11
-216.370796775818
 21
53.7552962066853
 31
0.0
  0
LINE
  5
   1FB
  8
0
  6
DOT
 62
   130
 10
-216.370796775818
 20
48.7552962066853
 30
0.0
 11
-215.870796775818
 21
48.2552962066853
 31
0.0
  0
LINE
  5
   1FC
  8
0
  6
DOT
 62
   130
 10
-215.870796775818
 20
54.2552962066853
 30
0.0
 11
-215.870796775818
 21
48.2552962066853
 31
0.0
  0
LINE
  5
   1FD
  8
0
  6
DOT
 62
   130
 10
-201.870796775818
 20
54.2552962066853
 30
0.0
 11
-201.870796775818
 21
48.2552962066853
 31
0.0
  0
LINE
  5
   1FE
  8
0
  6
DOT
 62
   130
 10
-212.370796775818
 20
48.2552962066853
 30
0.0
 11
-212.370796775818
 21
45.2552962066853
 31
0.0
  0
LINE
  5
   1FF
  8
0
  6
CONTINUOUS
 62
   130
 10
-212.855621337891
 20
-44.7446918487549
 30
0.0
 11
-212.855621337891
 21
-47.744679904195
 31
0.0
  0
LINE
  5
   200
  8
0
  6
CONTINUOUS
 62
   130
 10
-230.355621337891
 20
-44.7446918487549
 30
0.0
 11
-230.355621337891
 21
-56.7446918487549
 31
0.0
  0
LINE
  5
   201
  8
0
  6
CONTINUOUS
 62
   130
 10
-232.355621337891
 20
-44.7446918487549
 30
0.0
 11
-232.355621337891
 21
-56.7446918487549
 31
0.0
  0
LINE
  5
   202
  8
0
  6
CONTINUOUS
 62
   130
 10
-232.355621337891
 20
-44.7446918487549
 30
0.0
 11
-216.855621337891
 21
-44.7446918487549
 31
0.0
  0
LINE
  5
   203
  8
0
  6
CONTINUOUS
 62
   130
 10
-232.355621337891
 20
-56.7446918487549
 30
0.0
 11
-212.855621337891
 21
-56.7446918487549
 31
0.0
  0
LINE
  5
   204
  8
0
  6
CONTINUOUS
 62
   130
 10
-216.855621337891
 20
-44.7446918487549
 30
0.0
 11
-212.855621337891
 21
-44.7446918487549
 31
0.0
  0
LINE
  5
   205
  8
0
  6
CONTINUOUS
 62
   130
 10
-244.370782407125
 20
-18.9446918487549
 30
0.0
 11
-244.370782407125
 21
-59.7446918487549
 31
0.0
  0
INSERT
  5
   206
  8
0
  6
CONTINUOUS
 62
     3
  2
*HATCH33
 10
-121.123390197754
 20
-14.2446918487549
 30
0.0
 50
269.999999844103
  0
LINE
  5
   207
  8
0
  6
DOT
 62
   130
 10
-219.370783972739
 20
56.505291506992
 30
0.0
 11
-219.370783972739
 21
44.8053005218506
 31
0.0
  0
LINE
  5
   208
  8
0
  6
DOT
 62
   130
 10
-216.370784568785
 20
56.5052852630615
 30
0.0
 11
-216.370784568785
 21
44.3053005218506
 31
0.0
  0
LINE
  5
   209
  8
0
  6
DOT
 62
   130
 10
-219.370783972027
 20
56.5052984428086
 30
0.0
 11
-216.370784568259
 21
56.505277635363
 31
0.0
  0
LINE
  5
   20A
  8
0
  6
CONTINUOUS
 62
   130
 10
-245.570797920227
 20
43.755296826479
 30
0.0
 11
-244.370782852173
 21
43.755296826479
 31
0.0
  0
LINE
  5
   20B
  8
0
  6
CONTINUOUS
 62
   130
 10
-245.570797920227
 20
55.255296826479
 30
0.0
 11
-244.370782852173
 21
55.255296826479
 31
0.0
  0
LINE
  5
   20C
  8
0
  6
CONTINUOUS
 62
   130
 10
-245.570797920227
 20
-56.7446917294292
 30
0.0
 11
-244.370782852173
 21
-56.7446917294292
 31
0.0
  0
LINE
  5
   20D
  8
0
  6
DOT
 62
   130
 10
-244.638732075691
 20
11.755296826479
 30
0.0
 11
-244.370782852173
 21
11.755296826479
 31
0.0
  0
LINE
  5
   20E
  8
0
  6
CONTINUOUS
 62
   130
 10
-245.570797920227
 20
55.255296826479
 30
0.0
 11
-245.570797920227
 21
33.4552189513803
 31
0.0
  0
LINE
  5
   20F
  8
0
  6
CONTINUOUS
 62
   130
 10
-245.570797920227
 20
-36.2446726559429
 30
0.0
 11
-245.570797920227
 21
-56.7446879147319
 31
0.0
  0
LINE
  5
   210
  8
0
  6
CONTINUOUS
 62
   130
 10
-244.370782852173
 20
55.2552930117818
 30
0.0
 11
-244.370782852173
 21
-56.7446917294292
 31
0.0
  0
LINE
  5
   211
  8
0
  6
CONTINUOUS
 62
   130
 10
-246.770813560486
 20
32.4552785159322
 30
0.0
 11
-246.570797920227
 21
32.4552785159322
 31
0.0
  0
LINE
  5
   212
  8
0
  6
CONTINUOUS
 62
   130
 10
-246.770813560486
 20
31.255296826479
 30
0.0
 11
-246.570798110962
 21
31.255296826479
 31
0.0
  0
LINE
  5
   213
  8
0
  6
CONTINUOUS
 62
   130
 10
-252.370797157288
 20
32.4552785159322
 30
0.0
 11
-252.370797157288
 21
31.255296826479
 31
0.0
  0
LINE
  5
   214
  8
0
  6
CONTINUOUS
 62
   130
 10
-252.370797157288
 20
11.255296826479
 30
0.0
 11
-252.370797157288
 21
10.0552998782368
 31
0.0
  0
LINE
  5
   215
  8
0
  6
CONTINUOUS
 62
   130
 10
-252.370797157288
 20
-27.744703173521
 30
0.0
 11
-252.370797157288
 21
-32.744703173521
 31
0.0
  0
LINE
  5
   216
  8
0
  6
CONTINUOUS
 62
   130
 10
-252.370797157288
 20
-27.744703173521
 30
0.0
 11
-249.040655136108
 21
-27.744703173521
 31
0.0
  0
LINE
  5
   217
  8
0
  6
CONTINUOUS
 62
   130
 10
-249.040684578219
 20
-27.7447054558945
 30
0.0
 11
-248.370812040474
 21
-30.2447029374644
 31
0.0
  0
LINE
  5
   218
  8
0
  6
CONTINUOUS
 62
   130
 10
-248.370797157288
 20
-30.244703173521
 30
0.0
 11
-247.370797157288
 21
-30.244703173521
 31
0.0
  0
LINE
  5
   219
  8
0
  6
CONTINUOUS
 62
   130
 10
-247.370797157288
 20
5.25529682647903
 30
0.0
 11
-247.370797157288
 21
-30.244703173521
 31
0.0
  0
LINE
  5
   21A
  8
0
  6
CONTINUOUS
 62
   130
 10
-248.370797157288
 20
5.25529682647903
 30
0.0
 11
-247.370797157288
 21
5.25529682647903
 31
0.0
  0
LINE
  5
   21B
  8
0
  6
CONTINUOUS
 62
   130
 10
-252.370812753681
 20
6.32711325670601
 30
0.0
 11
-249.380181316886
 21
5.52576783846676
 31
0.0
  0
LINE
  5
   21C
  8
0
  6
CONTINUOUS
 62
   130
 10
-252.370797157288
 20
8.25529682647903
 30
0.0
 11
-252.370797157288
 21
6.32710468780715
 31
0.0
  0
LINE
  5
   21D
  8
0
  6
DOT
 62
   130
 10
-245.570797920227
 20
11.755296826479
 30
0.0
 11
-244.638732016087
 21
11.755296826479
 31
0.0
  0
LINE
  5
   21E
  8
0
  6
CONTINUOUS
 62
   130
 10
-248.870782852173
 20
-36.2446926831035
 30
0.0
 11
-244.370782852173
 21
-36.2446926831035
 31
0.0
  0
LINE
  5
   21F
  8
0
  6
CONTINUOUS
 62
   130
 10
-247.970767593384
 20
59.755296826479
 30
0.0
 11
-246.770813560486
 21
59.755296826479
 31
0.0
  0
LINE
  5
   220
  8
0
  6
CONTINUOUS
 62
   130
 10
-246.770813560486
 20
5.25528156768996
 30
0.0
 11
-246.770813560486
 21
4.43376362335403
 31
0.0
  0
LINE
  5
   221
  8
0
  6
CONTINUOUS
 62
   130
 10
-246.770813560486
 20
31.2552663089009
 30
0.0
 11
-246.770813560486
 21
5.25529682647903
 31
0.0
  0
LINE
  5
   222
  8
0
  6
CONTINUOUS
 62
   130
 10
-246.770813560486
 20
59.755296826479
 30
0.0
 11
-246.770813560486
 21
31.255296826479
 31
0.0
  0
LINE
  5
   223
  8
0
  6
CONTINUOUS
 62
   130
 10
-246.770744098348
 20
4.43376399308748
 30
0.0
 11
-248.931514201801
 21
0.69119379740382
 31
0.0
  0
LINE
  5
   224
  8
0
  6
CONTINUOUS
 62
   130
 10
-249.970784757203
 20
1.29117489874159
 30
0.0
 11
-248.93159384781
 21
0.691191612186323
 31
0.0
  0
LINE
  5
   225
  8
0
  6
CONTINUOUS
 62
   130
 10
-247.970797520828
 20
4.75528199886443
 30
0.0
 11
-249.970797470521
 21
1.29118609307255
 31
0.0
  0
LINE
  5
   226
  8
0
  6
CONTINUOUS
 62
   130
 10
-247.970767593384
 20
59.755296826479
 30
0.0
 11
-247.970767593384
 21
31.255296826479
 31
0.0
  0
LINE
  5
   227
  8
0
  6
CONTINUOUS
 62
   130
 10
-247.970767593384
 20
31.255296826479
 30
0.0
 11
-247.970767593384
 21
14.8263646383445
 31
0.0
  0
LINE
  5
   228
  8
0
  6
CONTINUOUS
 62
   130
 10
-247.970767593384
 20
5.55008137237746
 30
0.0
 11
-247.970767593384
 21
4.75529682647903
 31
0.0
  0
LINE
  5
   229
  8
0
  6
CONTINUOUS
 62
   130
 10
-246.770812988281
 20
-53.2446917294292
 30
0.0
 11
-246.570797920227
 21
-53.2446917294292
 31
0.0
  0
LINE
  5
   22A
  8
0
  6
CONTINUOUS
 62
   130
 10
-246.770812988281
 20
-48.2446926831035
 30
0.0
 11
-246.570797920227
 21
-48.2446926831035
 31
0.0
  0
ARC
  5
   22B
  8
0
  6
CONTINUOUS
 62
   130
 10
-248.870846069459
 20
8.25530451022751
 30
0.0
 40
3.49996037873244
 50
509.049876306511
 51
539.99994520259
  0
LINE
  5
   22C
  8
0
  6
CONTINUOUS
 62
   130
 10
-248.070798110962
 20
32.4552785159322
 30
0.0
 11
-248.070798110962
 21
31.255296826479
 31
0.0
  0
LINE
  5
   22D
  8
0
  6
CONTINUOUS
 62
   130
 10
-248.070798110962
 20
11.255296826479
 30
0.0
 11
-248.070798110962
 21
10.0552998782368
 31
0.0
  0
LINE
  5
   22E
  8
0
  6
CONTINUOUS
 62
   130
 10
-246.670783042908
 20
32.4552785159322
 30
0.0
 11
-246.670783042908
 21
31.255296826479
 31
0.0
  0
LINE
  5
   22F
  8
0
  6
CONTINUOUS
 62
   130
 10
-246.670783042908
 20
11.255296826479
 30
0.0
 11
-246.670783042908
 21
10.0552998782368
 31
0.0
  0
LINE
  5
   230
  8
0
  6
CONTINUOUS
 62
   130
 10
-252.370796203613
 20
32.4552785159322
 30
0.0
 11
-248.070798110962
 21
32.4552785159322
 31
0.0
  0
LINE
  5
   231
  8
0
  6
CONTINUOUS
 62
   130
 10
-252.370796203613
 20
31.255296826479
 30
0.0
 11
-248.070798110962
 21
31.255296826479
 31
0.0
  0
LINE
  5
   232
  8
0
  6
CONTINUOUS
 62
   130
 10
-252.370797157288
 20
11.255296826479
 30
0.0
 11
-248.070798110962
 21
11.255296826479
 31
0.0
  0
LINE
  5
   233
  8
0
  6
CONTINUOUS
 62
   130
 10
-252.370797157288
 20
10.0552998782368
 30
0.0
 11
-248.070798110962
 21
10.0552998782368
 31
0.0
  0
LINE
  5
   234
  8
0
  6
CONTINUOUS
 62
   130
 10
-247.980818559798
 20
14.6849368083511
 30
0.0
 11
-248.44652439239
 21
11.4249959802078
 31
0.0
  0
LINE
  5
   235
  8
0
  6
CONTINUOUS
 62
   130
 10
-246.780818750533
 20
14.5996540989685
 30
0.0
 11
-247.258584999997
 21
11.255290352723
 31
0.0
  0
LINE
  5
   236
  8
0
  6
CONTINUOUS
 62
   130
 10
-248.44652439239
 20
11.4249959802078
 30
0.0
 11
-247.258584999997
 21
11.255290352723
 31
0.0
  0
ARC
  5
   237
  8
0
  6
CONTINUOUS
 62
   130
 10
-248.970767593384
 20
14.8263646383445
 30
0.0
 40
1.0
 50
351.869897489947
 51
359.999999844103
  0
ARC
  5
   238
  8
0
  6
CONTINUOUS
 62
   130
 10
-247.770813560486
 20
14.7410819289619
 30
0.0
 40
1.0
 50
351.869897489947
 51
359.999999844103
  0
LINE
  5
   239
  8
0
  6
CONTINUOUS
 62
   130
 10
-246.770813560486
 20
11.255296826479
 30
0.0
 11
-246.570798110962
 21
11.255296826479
 31
0.0
  0
LINE
  5
   23A
  8
0
  6
CONTINUOUS
 62
   130
 10
-246.770813560486
 20
10.0552998782368
 30
0.0
 11
-246.570797920227
 21
10.0552998782368
 31
0.0
  0
LINE
  5
   23B
  8
0
  6
DOT
 62
   130
 10
-247.970767593384
 20
14.8263646383445
 30
0.0
 11
-247.970767593384
 21
11.3570372626879
 31
0.0
  0
LINE
  5
   23C
  8
0
  6
CONTINUOUS
 62
   130
 10
-247.970767593384
 20
11.3570372626879
 30
0.0
 11
-247.970767593384
 21
5.55005265549163
 31
0.0
  0
LINE
  5
   23D
  8
0
  6
CONTINUOUS
 62
   130
 10
-247.970767593384
 20
57.755296826479
 30
0.0
 11
-246.770813560486
 21
57.755296826479
 31
0.0
  0
LINE
  5
   23E
  8
0
  6
CONTINUOUS
 62
   130
 10
-247.970767593384
 20
39.755296826479
 30
0.0
 11
-246.770813560486
 21
39.755296826479
 31
0.0
  0
LINE
  5
   23F
  8
0
  6
CONTINUOUS
 62
   130
 10
-247.970767593384
 20
24.255296826479
 30
0.0
 11
-246.770813560486
 21
24.255296826479
 31
0.0
  0
LINE
  5
   240
  8
0
  6
CONTINUOUS
 62
   130
 10
-247.970767593384
 20
17.255296826479
 30
0.0
 11
-246.770813560486
 21
17.255296826479
 31
0.0
  0
LINE
  5
   241
  8
0
  6
CONTINUOUS
 62
   130
 10
-247.970767593384
 20
9.75529987823684
 30
0.0
 11
-246.770813560486
 21
9.75529987823684
 31
0.0
  0
ARC
  5
   242
  8
0
  6
CONTINUOUS
 62
   130
 10
-246.570797920227
 20
9.05529987823684
 30
0.0
 40
1.0
 50
359.999999844103
 51
449.999999844103
  0
ARC
  5
   243
  8
0
  6
CONTINUOUS
 62
   130
 10
-246.570798110962
 20
9.05529682647902
 30
0.0
 40
2.19999904632568
 50
359.999999844103
 51
449.999999844103
  0
LINE
  5
   244
  8
0
  6
CONTINUOUS
 62
   130
 10
-246.770813560486
 20
11.755296826479
 30
0.0
 11
-245.570797920227
 21
11.755296826479
 31
0.0
  0
ARC
  5
   245
  8
0
  6
CONTINUOUS
 62
   130
 10
-248.870846069459
 20
8.25530451022751
 30
0.0
 40
3.49996037873244
 50
467.486019062348
 51
481.001855151888
  0
ARC
  5
   246
  8
0
  6
DOT
 62
   130
 10
-248.870846069459
 20
8.25530451022751
 30
0.0
 40
3.49996037873244
 50
481.001855151888
 51
509.049876306511
  0
ARC
  5
   247
  8
0
  6
CONTINUOUS
 62
   130
 10
-248.870846069459
 20
8.25530451022751
 30
0.0
 40
3.49996037873244
 50
449.999999844103
 51
467.486019062348
  0
LINE
  5
   248
  8
0
  6
CONTINUOUS
 62
   130
 10
-248.870795309544
 20
11.755296826479
 30
0.0
 11
-248.399354280744
 21
11.755296826479
 31
0.0
  0
LINE
  5
   249
  8
0
  6
CONTINUOUS
 62
   130
 10
-249.380181316886
 20
5.52576783846676
 30
0.0
 11
-248.370811220358
 21
5.25530518893763
 31
0.0
  0
ARC
  5
   24A
  8
0
  6
CONTINUOUS
 62
   130
 10
-248.870851652497
 20
-32.7447212960424
 30
0.0
 40
3.49994520846391
 50
540.000159625357
 51
630.000829476908
  0
ARC
  5
   24B
  8
0
  6
CONTINUOUS
 62
   130
 10
-246.570798110962
 20
33.45528156769
 30
0.0
 40
2.19999904632568
 50
269.999999844103
 51
359.999999844103
  0
LINE
  5
   24C
  8
0
  6
DOT
 62
   130
 10
-245.570797920227
 20
11.0148885233716
 30
0.0
 11
-245.570797920227
 21
9.05529987823684
 31
0.0
  0
LINE
  5
   24D
  8
0
  6
CONTINUOUS
 62
   130
 10
-245.570797920227
 20
9.05529987823684
 30
0.0
 11
-245.570797920227
 21
-12.1435851610675
 31
0.0
  0
LINE
  5
   24E
  8
0
  6
CONTINUOUS
 62
   130
 10
-245.570797920227
 20
31.4957051295863
 30
0.0
 11
-245.570797920227
 21
11.0148885233716
 31
0.0
  0
LINE
  5
   24F
  8
0
  6
DOT
 62
   130
 10
-245.570797920227
 20
33.4552189513803
 30
0.0
 11
-245.570797920227
 21
31.4957051295863
 31
0.0
  0
LINE
  5
   250
  8
0
  6
CONTINUOUS
 62
   130
 10
-245.570797920227
 20
-45.2446917294292
 30
0.0
 11
-244.370782852173
 21
-45.2446917294292
 31
0.0
  0
ARC
  5
   251
  8
0
  6
CONTINUOUS
 62
   130
 10
-246.570798369397
 20
33.4553063495221
 30
0.0
 40
1.00003107655773
 50
270.00070276675
 51
359.997118270512
  0
ARC
  5
   252
  8
0
  6
CONTINUOUS
 62
   130
 10
-246.570797967839
 20
-47.2446938268192
 30
0.0
 40
0.999999854264095
 50
270.000056701202
 51
359.999980612941
  0
ARC
  5
   253
  8
0
  6
CONTINUOUS
 62
   130
 10
-246.570796810317
 20
-54.2446901756531
 30
0.0
 40
0.999999781581745
 50
359.999963768781
 51
449.999994616734
  0
LINE
  5
   254
  8
0
  6
DASHDOT
 62
   130
 10
-248.08227184747
 20
-50.7446917294292
 30
0.0
 11
-243.118655683331
 21
-50.7446917294292
 31
0.0
  0
LINE
  5
   255
  8
0
  6
DOT
 62
   130
 10
-246.770812988281
 20
-49.2446917294292
 30
0.0
 11
-244.370782852173
 21
-49.2446917294292
 31
0.0
  0
LINE
  5
   256
  8
0
  6
DOT
 62
   130
 10
-246.770812988281
 20
-52.2446917294292
 30
0.0
 11
-244.370782852173
 21
-52.2446917294292
 31
0.0
  0
LINE
  5
   257
  8
0
  6
DOT
 62
   130
 10
-246.770812988281
 20
-48.7446917294292
 30
0.0
 11
-244.370782852173
 21
-48.7446917294292
 31
0.0
  0
LINE
  5
   258
  8
0
  6
DOT
 62
   130
 10
-246.770812988281
 20
-52.7446917294292
 30
0.0
 11
-244.370782852173
 21
-52.7446917294292
 31
0.0
  0
LINE
  5
   259
  8
0
  6
CONTINUOUS
 62
   130
 10
-246.770812988281
 20
-48.2446926831035
 30
0.0
 11
-246.770812988281
 21
-53.2446917294292
 31
0.0
  0
ARC
  5
   25A
  8
0
  6
CONTINUOUS
 62
   130
 10
-246.570796810317
 20
52.7552914580057
 30
0.0
 40
0.999999781581745
 50
270.000005071472
 51
360.000035919426
  0
LINE
  5
   25B
  8
0
  6
CONTINUOUS
 62
   130
 10
-246.770812988281
 20
51.7552930117818
 30
0.0
 11
-246.570797920227
 21
51.7552930117818
 31
0.0
  0
LINE
  5
   25C
  8
0
  6
CONTINUOUS
 62
   130
 10
-246.770812988281
 20
51.7552930117818
 30
0.0
 11
-246.770812988281
 21
46.7552939654561
 31
0.0
  0
LINE
  5
   25D
  8
0
  6
CONTINUOUS
 62
   130
 10
-246.770812988281
 20
46.7552939654561
 30
0.0
 11
-246.570797920227
 21
46.7552939654561
 31
0.0
  0
ARC
  5
   25E
  8
0
  6
CONTINUOUS
 62
   130
 10
-246.570797967839
 20
45.7552951091718
 30
0.0
 40
0.999999854264095
 50
360.000019075265
 51
449.999888345491
  0
LINE
  5
   25F
  8
0
  6
DOT
 62
   130
 10
-246.770812988281
 20
47.2552930117818
 30
0.0
 11
-244.370782852173
 21
47.2552930117818
 31
0.0
  0
LINE
  5
   260
  8
0
  6
DOT
 62
   130
 10
-246.770812988281
 20
47.7552930117818
 30
0.0
 11
-244.370782852173
 21
47.7552930117818
 31
0.0
  0
LINE
  5
   261
  8
0
  6
DASHDOT
 62
   130
 10
-248.08227184747
 20
49.2552930117818
 30
0.0
 11
-243.118655683331
 21
49.2552930117818
 31
0.0
  0
LINE
  5
   262
  8
0
  6
DOT
 62
   130
 10
-246.770812988281
 20
50.7552930117818
 30
0.0
 11
-244.370782852173
 21
50.7552930117818
 31
0.0
  0
LINE
  5
   263
  8
0
  6
DOT
 62
   130
 10
-246.770812988281
 20
51.2552930117818
 30
0.0
 11
-244.370782852173
 21
51.2552930117818
 31
0.0
  0
LINE
  5
   264
  8
0
  6
CONTINUOUS
 62
   130
 10
-246.770813560486
 20
15.755296826479
 30
0.0
 11
-245.050237309121
 21
15.755296826479
 31
0.0
  0
LINE
  5
   265
  8
0
  6
DASHDOT
 62
   130
 10
-249.62078294754
 20
33.8552090791503
 30
0.0
 11
-249.62078294754
 21
13.689675335532
 31
0.0
  0
LINE
  5
   266
  8
0
  6
DASHDOT
 62
   130
 10
-245.12078294754
 20
33.9817065065263
 30
0.0
 11
-245.12078294754
 21
14.1751309917469
 31
0.0
  0
CIRCLE
  5
   267
  8
0
  6
CONTINUOUS
 62
   130
 10
-249.62078294754
 20
16.949026826479
 30
0.0
 40
0.39999988079071
  0
CIRCLE
  5
   268
  8
0
  6
CONTINUOUS
 62
   130
 10
-249.62078294754
 20
18.549026826479
 30
0.0
 40
0.39999988079071
  0
CIRCLE
  5
   269
  8
0
  6
CONTINUOUS
 62
   130
 10
-249.62078294754
 20
20.149026826479
 30
0.0
 40
0.39999988079071
  0
CIRCLE
  5
   26A
  8
0
  6
CONTINUOUS
 62
   130
 10
-249.62078294754
 20
21.7490115676899
 30
0.0
 40
0.39999988079071
  0
CIRCLE
  5
   26B
  8
0
  6
CONTINUOUS
 62
   130
 10
-249.62078294754
 20
23.34901156769
 30
0.0
 40
0.39999988079071
  0
CIRCLE
  5
   26C
  8
0
  6
CONTINUOUS
 62
   130
 10
-249.62078294754
 20
24.949026826479
 30
0.0
 40
0.39999988079071
  0
CIRCLE
  5
   26D
  8
0
  6
CONTINUOUS
 62
   130
 10
-249.62078294754
 20
26.549026826479
 30
0.0
 40
0.39999988079071
  0
CIRCLE
  5
   26E
  8
0
  6
CONTINUOUS
 62
   130
 10
-249.62078294754
 20
28.149026826479
 30
0.0
 40
0.39999988079071
  0
CIRCLE
  5
   26F
  8
0
  6
CONTINUOUS
 62
   130
 10
-249.62078294754
 20
29.7490115676899
 30
0.0
 40
0.39999988079071
  0
ARC
  5
   270
  8
0
  6
CONTINUOUS
 62
   130
 10
-249.62078294754
 20
31.3490115676899
 30
0.0
 40
0.39999988079071
 50
553.551673104685
 51
629.99994520259
  0
CIRCLE
  5
   271
  8
0
  6
CONTINUOUS
 62
   130
 10
-245.12078294754
 20
17.74901156769
 30
0.0
 40
0.39999988079071
  0
ARC
  5
   272
  8
0
  6
CONTINUOUS
 62
   130
 10
-245.12078294754
 20
16.149026826479
 30
0.0
 40
0.39999988079071
 50
280.158049687986
 51
619.841895358707
  0
CIRCLE
  5
   273
  8
0
  6
CONTINUOUS
 62
   130
 10
-245.12078294754
 20
19.34901156769
 30
0.0
 40
0.39999988079071
  0
CIRCLE
  5
   274
  8
0
  6
CONTINUOUS
 62
   130
 10
-245.12078294754
 20
20.949026826479
 30
0.0
 40
0.39999988079071
  0
CIRCLE
  5
   275
  8
0
  6
CONTINUOUS
 62
   130
 10
-245.12078294754
 20
22.549026826479
 30
0.0
 40
0.39999988079071
  0
CIRCLE
  5
   276
  8
0
  6
CONTINUOUS
 62
   130
 10
-245.12078294754
 20
24.149026826479
 30
0.0
 40
0.39999988079071
  0
CIRCLE
  5
   277
  8
0
  6
CONTINUOUS
 62
   130
 10
-245.12078294754
 20
25.7490115676899
 30
0.0
 40
0.39999988079071
  0
CIRCLE
  5
   278
  8
0
  6
CONTINUOUS
 62
   130
 10
-245.12078294754
 20
27.3490115676899
 30
0.0
 40
0.39999988079071
  0
LINE
  5
   279
  8
0
  6
CONTINUOUS
 62
   130
 10
-245.190779058514
 20
16.5428448187519
 30
0.0
 11
-246.770795866457
 21
16.2619529417842
 31
0.0
  0
LINE
  5
   27A
  8
0
  6
CONTINUOUS
 62
   130
 10
-245.050767413971
 20
17.3551921417265
 30
0.0
 11
-246.770810889689
 21
17.0494066349322
 31
0.0
  0
LINE
  5
   27B
  8
0
  6
CONTINUOUS
 62
   130
 10
-245.190796752542
 20
18.1428571711868
 30
0.0
 11
-246.770768490791
 21
17.8619733066093
 31
0.0
  0
LINE
  5
   27C
  8
0
  6
CONTINUOUS
 62
   130
 10
-245.050800131231
 20
18.9552018233646
 30
0.0
 11
-246.770783514022
 21
18.6494269997573
 31
0.0
  0
LINE
  5
   27D
  8
0
  6
CONTINUOUS
 62
   130
 10
-245.190824128208
 20
19.7428368063618
 30
0.0
 11
-246.770780843226
 21
19.4619556125809
 31
0.0
  0
LINE
  5
   27E
  8
0
  6
CONTINUOUS
 62
   130
 10
-245.050767413971
 20
20.5551921417265
 30
0.0
 11
-246.770795866457
 21
20.249409305729
 31
0.0
  0
LINE
  5
   27F
  8
0
  6
CONTINUOUS
 62
   130
 10
-245.190794081745
 20
21.3428421479552
 30
0.0
 11
-246.770810889689
 21
21.0619502709874
 31
0.0
  0
LINE
  5
   280
  8
0
  6
CONTINUOUS
 62
   130
 10
-245.050785108
 20
22.1552044941614
 30
0.0
 11
-246.770768490791
 21
21.849429670554
 31
0.0
  0
LINE
  5
   281
  8
0
  6
CONTINUOUS
 62
   130
 10
-245.190811775774
 20
22.9428545003901
 30
0.0
 11
-246.770783514022
 21
22.6619706358125
 31
0.0
  0
LINE
  5
   282
  8
0
  6
CONTINUOUS
 62
   130
 10
-245.050755061536
 20
23.7552098357548
 30
0.0
 11
-246.770783514022
 21
23.4494269997573
 31
0.0
  0
LINE
  5
   283
  8
0
  6
CONTINUOUS
 62
   130
 10
-245.190779058514
 20
24.5428448187519
 30
0.0
 11
-246.770795866457
 21
24.2619529417842
 31
0.0
  0
LINE
  5
   284
  8
0
  6
CONTINUOUS
 62
   130
 10
-245.050767413971
 20
25.3551921417265
 30
0.0
 11
-246.770810889689
 21
25.0494066349322
 31
0.0
  0
LINE
  5
   285
  8
0
  6
CONTINUOUS
 62
   130
 10
-245.190796752542
 20
26.1428571711868
 30
0.0
 11
-246.770768490791
 21
25.8619733066092
 31
0.0
  0
LINE
  5
   286
  8
0
  6
CONTINUOUS
 62
   130
 10
-245.050800131231
 20
26.9552018233646
 30
0.0
 11
-246.770783514022
 21
26.6494269997573
 31
0.0
  0
LINE
  5
   287
  8
0
  6
CONTINUOUS
 62
   130
 10
-245.190824128208
 20
27.7428368063617
 30
0.0
 11
-246.770780843226
 21
27.4619556125809
 31
0.0
  0
LINE
  5
   288
  8
0
  6
CONTINUOUS
 62
   130
 10
-245.05075239074
 20
28.5551948125232
 30
0.0
 11
-246.770795866457
 21
28.249409305729
 31
0.0
  0
LINE
  5
   289
  8
0
  6
CONTINUOUS
 62
   130
 10
-245.19078172931
 20
29.3428598419835
 30
0.0
 11
-246.770813560486
 21
29.061965294219
 31
0.0
  0
LINE
  5
   28A
  8
0
  6
CONTINUOUS
 62
   130
 10
-245.050785108
 20
30.1552044941614
 30
0.0
 11
-246.770768490791
 21
29.849429670554
 31
0.0
  0
LINE
  5
   28B
  8
0
  6
CONTINUOUS
 62
   130
 10
-245.190809104977
 20
30.9428394771585
 30
0.0
 11
-246.770765819994
 21
30.6619582833776
 31
0.0
  0
LINE
  5
   28C
  8
0
  6
CONTINUOUS
 62
   130
 10
-247.970780652491
 20
31.2360786771008
 30
0.0
 11
-249.55075239074
 21
30.9551948125232
 31
0.0
  0
CIRCLE
  5
   28D
  8
0
  6
CONTINUOUS
 62
   130
 10
-245.12078294754
 20
28.949026826479
 30
0.0
 40
0.39999988079071
  0
CIRCLE
  5
   28E
  8
0
  6
CONTINUOUS
 62
   130
 10
-245.12078294754
 20
30.549026826479
 30
0.0
 40
0.39999988079071
  0
ARC
  5
   28F
  8
0
  6
CONTINUOUS
 62
   130
 10
-249.62078294754
 20
31.3490115676899
 30
0.0
 40
0.39999988079071
 50
269.999999844103
 51
346.448162658981
  0
LINE
  5
   290
  8
0
  6
CONTINUOUS
 62
   130
 10
-247.970765629259
 20
30.4486249839527
 30
0.0
 11
-249.690809104977
 21
30.1428394771585
 31
0.0
  0
LINE
  5
   291
  8
0
  6
CONTINUOUS
 62
   130
 10
-247.970768300056
 20
29.6360963711291
 30
0.0
 11
-249.550785108
 21
29.3552044941614
 31
0.0
  0
LINE
  5
   292
  8
0
  6
CONTINUOUS
 62
   130
 10
-247.970813369751
 20
28.8486319947941
 30
0.0
 11
-249.69078172931
 21
28.5428598419836
 31
0.0
  0
LINE
  5
   293
  8
0
  6
CONTINUOUS
 62
   130
 10
-247.970795675722
 20
28.036076006304
 30
0.0
 11
-249.55075239074
 21
27.7551948125232
 31
0.0
  0
LINE
  5
   294
  8
0
  6
CONTINUOUS
 62
   130
 10
-247.970780652491
 20
27.248622313156
 30
0.0
 11
-249.690824128208
 21
26.9428368063617
 31
0.0
  0
LINE
  5
   295
  8
0
  6
CONTINUOUS
 62
   130
 10
-247.970768300056
 20
26.4360963711291
 30
0.0
 11
-249.550800131231
 21
26.1552018233646
 31
0.0
  0
LINE
  5
   296
  8
0
  6
CONTINUOUS
 62
   130
 10
-247.970813369751
 20
25.6486319947941
 30
0.0
 11
-249.690796752542
 21
25.3428571711868
 31
0.0
  0
LINE
  5
   297
  8
0
  6
CONTINUOUS
 62
   130
 10
-247.970810698954
 20
24.8360733355073
 30
0.0
 11
-249.550767413971
 21
24.5551921417265
 31
0.0
  0
LINE
  5
   298
  8
0
  6
CONTINUOUS
 62
   130
 10
-247.970795675722
 20
24.0486196423593
 30
0.0
 11
-249.690779058514
 21
23.7428448187519
 31
0.0
  0
LINE
  5
   299
  8
0
  6
CONTINUOUS
 62
   130
 10
-247.970783323288
 20
23.2360937003324
 30
0.0
 11
-249.550755061536
 21
22.9552098357548
 31
0.0
  0
LINE
  5
   29A
  8
0
  6
CONTINUOUS
 62
   130
 10
-247.970768300056
 20
22.4486400071844
 30
0.0
 11
-249.690811775774
 21
22.1428545003901
 31
0.0
  0
LINE
  5
   29B
  8
0
  6
CONTINUOUS
 62
   130
 10
-247.970768300056
 20
21.6360963711291
 30
0.0
 11
-249.550785108
 21
21.3552044941614
 31
0.0
  0
LINE
  5
   29C
  8
0
  6
CONTINUOUS
 62
   130
 10
-247.970810698954
 20
20.8486169715625
 30
0.0
 11
-249.690779058514
 21
20.5428448187519
 31
0.0
  0
LINE
  5
   29D
  8
0
  6
CONTINUOUS
 62
   130
 10
-247.970795675722
 20
20.0360760063041
 30
0.0
 11
-249.55075239074
 21
19.7551948125232
 31
0.0
  0
LINE
  5
   29E
  8
0
  6
CONTINUOUS
 62
   130
 10
-247.970780652491
 20
19.248622313156
 30
0.0
 11
-249.690824128208
 21
18.9428368063618
 31
0.0
  0
LINE
  5
   29F
  8
0
  6
CONTINUOUS
 62
   130
 10
-247.970768300056
 20
18.4360963711292
 30
0.0
 11
-249.550800131231
 21
18.1552018233647
 31
0.0
  0
LINE
  5
   2A0
  8
0
  6
CONTINUOUS
 62
   130
 10
-247.970768300056
 20
17.6486400071844
 30
0.0
 11
-249.690796752542
 21
17.3428571711868
 31
0.0
  0
LINE
  5
   2A1
  8
0
  6
CONTINUOUS
 62
   130
 10
-247.970810698954
 20
16.8360733355073
 30
0.0
 11
-249.550767413971
 21
16.5551921417265
 31
0.0
  0
LINE
  5
   2A2
  8
0
  6
CONTINUOUS
 62
   130
 10
-247.970795675722
 20
16.0486196423593
 30
0.0
 11
-249.620821020727
 21
15.7552818032474
 31
0.0
  0
LINE
  5
   2A3
  8
0
  6
CONTINUOUS
 62
   130
 10
-249.620793173946
 20
15.755296826479
 30
0.0
 11
-247.970767593384
 21
15.755296826479
 31
0.0
  0
INSERT
  5
   2A4
  8
0
  6
CONTINUOUS
 62
     3
  2
*HATCH34
 10
-121.123390197754
 20
-14.2446918487549
 30
0.0
 50
269.999999844103
  0
INSERT
  5
   2A5
  8
0
  6
CONTINUOUS
 62
     3
  2
*HATCH35
 10
-121.123390197754
 20
-14.2446918487549
 30
0.0
 50
269.999999844103
  0
INSERT
  5
   2A6
  8
0
  6
CONTINUOUS
 62
     3
  2
*HATCH36
 10
-121.123390197754
 20
-14.2446918487549
 30
0.0
 50
269.999999844103
  0
INSERT
  5
   2A7
  8
0
  6
CONTINUOUS
 62
     3
  2
*HATCH37
 10
-121.123390197754
 20
-14.2446918487549
 30
0.0
 50
269.999999844103
  0
INSERT
  5
   2A8
  8
0
  6
CONTINUOUS
 62
     3
  2
*HATCH38
 10
-121.123390197754
 20
-14.2446918487549
 30
0.0
 50
269.999999844103
  0
INSERT
  5
   2A9
  8
0
  6
CONTINUOUS
 62
     3
  2
*HATCH39
 10
-121.123390197754
 20
-14.2446918487549
 30
0.0
 50
269.999999844103
  0
INSERT
  5
   2AA
  8
0
  6
CONTINUOUS
 62
     3
  2
*HATCH40
 10
-121.123390197754
 20
-14.2446918487549
 30
0.0
 50
269.999999844103
  0
INSERT
  5
   2AB
  8
0
  6
CONTINUOUS
 62
     3
  2
*HATCH41
 10
-121.123390197754
 20
-14.2446918487549
 30
0.0
 50
269.999999844103
  0
INSERT
  5
   2AC
  8
0
  6
CONTINUOUS
 62
     3
  2
*HATCH42
 10
-121.123390197754
 20
-14.2446918487549
 30
0.0
 50
269.999999844103
  0
INSERT
  5
   2AD
  8
0
  6
CONTINUOUS
 62
     3
  2
*HATCH43
 10
-121.123390197754
 20
-14.2446918487549
 30
0.0
 50
269.999999844103
  0
INSERT
  5
   2AE
  8
0
  6
CONTINUOUS
 62
     3
  2
*HATCH44
 10
-121.123390197754
 20
-14.2446918487549
 30
0.0
 50
269.999999844103
  0
POLYLINE
  5
   2AF
  8
0
  6
CONTINUOUS
 62
   130
 66
     1
 10
0.0
 20
0.0
 30
0.0
  0
VERTEX
  5
   2B0
  8
0
  6
CONTINUOUS
 10
-244.37070889009
 20
-11.8373167305633
 30
0.0
 40
0.0
 41
0.0
  0
VERTEX
  5
   2B1
  8
0
  6
CONTINUOUS
 10
-244.471808841997
 20
-11.8213068819626
 30
0.0
 40
0.0
 41
0.0
  0
VERTEX
  5
   2B2
  8
0
  6
CONTINUOUS
 10
-244.571787036102
 20
-11.8086513562661
 30
0.0
 40
0.0
 41
0.0
  0
VERTEX
  5
   2B3
  8
0
  6
CONTINUOUS
 10
-244.621322487222
 20
-11.8039532214572
 30
0.0
 40
0.0
 41
0.0
  0
VERTEX
  5
   2B4
  8
0
  6
CONTINUOUS
 10
-244.719965044643
 20
-11.7985638449322
 30
0.0
 40
0.0
 41
0.0
  0
VERTEX
  5
   2B5
  8
0
  6
CONTINUOUS
 10
-244.817359794766
 20
-11.7996236590907
 30
0.0
 40
0.0
 41
0.0
  0
VERTEX
  5
   2B6
  8
0
  6
CONTINUOUS
 10
-244.865609948868
 20
-11.8029484720718
 30
0.0
 40
0.0
 41
0.0
  0
VERTEX
  5
   2B7
  8
0
  6
CONTINUOUS
 10
-244.913579198849
 20
-11.8083249256794
 30
0.0
 40
0.0
 41
0.0
  0
VERTEX
  5
   2B8
  8
0
  6
CONTINUOUS
 10
-244.961283386869
 20
-11.8158824386896
 30
0.0
 40
0.0
 41
0.0
  0
VERTEX
  5
   2B9
  8
0
  6
CONTINUOUS
 10
-245.008740021221
 20
-11.8257381290262
 30
0.0
 40
0.0
 41
0.0
  0
VERTEX
  5
   2BA
  8
0
  6
CONTINUOUS
 10
-245.055967724924
 20
-11.8379944688786
 30
0.0
 40
0.0
 41
0.0
  0
VERTEX
  5
   2BB
  8
0
  6
CONTINUOUS
 10
-245.102985684316
 20
-11.8527369398203
 30
0.0
 40
0.0
 41
0.0
  0
VERTEX
  5
   2BC
  8
0
  6
CONTINUOUS
 10
-245.149813097654
 20
-11.8700316879269
 30
0.0
 40
0.0
 41
0.0
  0
VERTEX
  5
   2BD
  8
0
  6
CONTINUOUS
 10
-245.196468623704
 20
-11.8899231788939
 30
0.0
 40
0.0
 41
0.0
  0
VERTEX
  5
   2BE
  8
0
  6
CONTINUOUS
 10
-245.242969830335
 20
-11.9124318531555
 30
0.0
 40
0.0
 41
0.0
  0
VERTEX
  5
   2BF
  8
0
  6
CONTINUOUS
 10
-245.28933264312
 20
-11.9375517810023
 30
0.0
 40
0.0
 41
0.0
  0
VERTEX
  5
   2C0
  8
0
  6
CONTINUOUS
 10
-245.335570793924
 20
-11.9652483176996
 30
0.0
 40
0.0
 41
0.0
  0
VERTEX
  5
   2C1
  8
0
  6
CONTINUOUS
 10
-245.381695269501
 20
-11.9954557586053
 30
0.0
 40
0.0
 41
0.0
  0
VERTEX
  5
   2C2
  8
0
  6
CONTINUOUS
 10
-245.473630108013
 20
-12.0629711656474
 30
0.0
 40
0.0
 41
0.0
  0
VERTEX
  5
   2C3
  8
0
  6
CONTINUOUS
 10
-245.565149197085
 20
-12.1388620613393
 30
0.0
 40
0.0
 41
0.0
  0
VERTEX
  5
   2C4
  8
0
  6
CONTINUOUS
 10
-245.670433529678
 20
-12.234614921287
 30
0.0
 40
0.0
 41
0.0
  0
VERTEX
  5
   2C5
  8
0
  6
CONTINUOUS
 10
-245.877999329794
 20
-12.4352449374836
 30
0.0
 40
0.0
 41
0.0
  0
VERTEX
  5
   2C6
  8
0
  6
CONTINUOUS
 10
-245.979515466434
 20
-12.5298543017303
 30
0.0
 40
0.0
 41
0.0
  0
VERTEX
  5
   2C7
  8
0
  6
CONTINUOUS
 10
-246.029527876883
 20
-12.573342121498
 30
0.0
 40
0.0
 41
0.0
  0
VERTEX
  5
   2C8
  8
0
  6
CONTINUOUS
 10
-246.078981048304
 20
-12.6133925390875
 30
0.0
 40
0.0
 41
0.0
  0
VERTEX
  5
   2C9
  8
0
  6
CONTINUOUS
 10
-246.127835413538
 20
-12.6493724303159
 30
0.0
 40
0.0
 41
0.0
  0
VERTEX
  5
   2CA
  8
0
  6
CONTINUOUS
 10
-246.176059271967
 20
-12.6806928774787
 30
0.0
 40
0.0
 41
0.0
  0
VERTEX
  5
   2CB
  8
0
  6
CONTINUOUS
 10
-246.223630656177
 20
-12.7068216772335
 30
0.0
 40
0.0
 41
0.0
  0
VERTEX
  5
   2CC
  8
0
  6
CONTINUOUS
 10
-246.270539198619
 20
-12.7272958484829
 30
0.0
 40
0.0
 41
0.0
  0
VERTEX
  5
   2CD
  8
0
  6
CONTINUOUS
 10
-246.316787998276
 20
-12.7417341402586
 30
0.0
 40
0.0
 41
0.0
  0
VERTEX
  5
   2CE
  8
0
  6
CONTINUOUS
 10
-246.362395487326
 20
-12.7498495396044
 30
0.0
 40
0.0
 41
0.0
  0
VERTEX
  5
   2CF
  8
0
  6
CONTINUOUS
 10
-246.407397297802
 20
-12.7514617794596
 30
0.0
 40
0.0
 41
0.0
  0
VERTEX
  5
   2D0
  8
0
  6
CONTINUOUS
 10
-246.451848128263
 20
-12.7465098465426
 30
0.0
 40
0.0
 41
0.0
  0
VERTEX
  5
   2D1
  8
0
  6
CONTINUOUS
 10
-246.49582361045
 20
-12.7350644892346
 30
0.0
 40
0.0
 41
0.0
  0
VERTEX
  5
   2D2
  8
0
  6
CONTINUOUS
 10
-246.539422175956
 20
-12.7173407254622
 30
0.0
 40
0.0
 41
0.0
  0
VERTEX
  5
   2D3
  8
0
  6
CONTINUOUS
 10
-246.567791927084
 20
-12.7025237932163
 30
0.0
 40
0.0
 41
0.0
  0
VERTEX
  5
   2D4
  8
0
  6
CONTINUOUS
 10
-246.62436621978
 20
-12.6658936407317
 30
0.0
 40
0.0
 41
0.0
  0
VERTEX
  5
   2D5
  8
0
  6
CONTINUOUS
 10
-246.65266289398
 20
-12.644443666738
 30
0.0
 40
0.0
 41
0.0
  0
VERTEX
  5
   2D6
  8
0
  6
CONTINUOUS
 10
-246.709525891241
 20
-12.5963476136272
 30
0.0
 40
0.0
 41
0.0
  0
VERTEX
  5
   2D7
  8
0
  6
CONTINUOUS
 10
-246.767099795986
 20
-12.5429532369268
 30
0.0
 40
0.0
 41
0.0
  0
VERTEX
  5
   2D8
  8
0
  6
CONTINUOUS
 10
-246.88605233542
 20
-12.428812522058
 30
0.0
 40
0.0
 41
0.0
  0
VERTEX
  5
   2D9
  8
0
  6
CONTINUOUS
 10
-246.94819160853
 20
-12.3724579223664
 30
0.0
 40
0.0
 41
0.0
  0
VERTEX
  5
   2DA
  8
0
  6
CONTINUOUS
 10
-247.012514152075
 20
-12.3193850542788
 30
0.0
 40
0.0
 41
0.0
  0
VERTEX
  5
   2DB
  8
0
  6
CONTINUOUS
 10
-247.079214863694
 20
-12.2714523219009
 30
0.0
 40
0.0
 41
0.0
  0
VERTEX
  5
   2DC
  8
0
  6
CONTINUOUS
 10
-247.148370449893
 20
-12.2302000637015
 30
0.0
 40
0.0
 41
0.0
  0
VERTEX
  5
   2DD
  8
0
  6
CONTINUOUS
 10
-247.191360376043
 20
-12.2089879615971
 30
0.0
 40
0.0
 41
0.0
  0
VERTEX
  5
   2DE
  8
0
  6
CONTINUOUS
 10
-247.235183612805
 20
-12.190801250879
 30
0.0
 40
0.0
 41
0.0
  0
VERTEX
  5
   2DF
  8
0
  6
CONTINUOUS
 10
-247.279778170831
 20
-12.175739236717
 30
0.0
 40
0.0
 41
0.0
  0
VERTEX
  5
   2E0
  8
0
  6
CONTINUOUS
 10
-247.325064837354
 20
-12.163844520899
 30
0.0
 40
0.0
 41
0.0
  0
VERTEX
  5
   2E1
  8
0
  6
CONTINUOUS
 10
-247.370949756318
 20
-12.1551095195016
 30
0.0
 40
0.0
 41
0.0
  0
SEQEND
  5
   2E2
  8
0
  6
CONTINUOUS
 62
   130
  0
LINE
  5
   2E3
  8
0
  6
DOT
 62
   130
 10
-245.570797920227
 20
-12.1435851610675
 30
0.0
 11
-245.570797920227
 21
-36.2446926831035
 31
0.0
  0
LINE
  5
   2E4
  8
0
  6
CONTINUOUS
 62
   130
 10
-248.270812988281
 20
32.4552785159322
 30
0.0
 11
-247.970767593384
 21
32.4552785159322
 31
0.0
  0
LINE
  5
   2E5
  8
0
  6
CONTINUOUS
 62
   130
 10
-248.270812988281
 20
31.255296826479
 30
0.0
 11
-247.970767593384
 21
31.255296826479
 31
0.0
  0
LINE
  5
   2E6
  8
0
  6
CONTINUOUS
 62
   130
 10
-248.070798110962
 20
11.255296826479
 30
0.0
 11
-247.970767593384
 21
11.255296826479
 31
0.0
  0
LINE
  5
   2E7
  8
0
  6
CONTINUOUS
 62
   130
 10
-248.070798110962
 20
10.0552998782368
 30
0.0
 11
-247.970767593384
 21
10.0552998782368
 31
0.0
  0
LINE
  5
   2E8
  8
0
  6
CONTINUOUS
 62
   130
 10
-248.399354280744
 20
11.755296826479
 30
0.0
 11
-247.970767593384
 21
11.755296826479
 31
0.0
  0
LINE
  5
   2E9
  8
0
  6
DOT
 62
   130
 10
-247.970767593384
 20
11.755296826479
 30
0.0
 11
-246.770813560486
 21
11.755296826479
 31
0.0
  0
INSERT
  5
   2EA
  8
0
  6
CONTINUOUS
 62
     3
  2
*HATCH45
 10
-121.123390197754
 20
-14.2446918487549
 30
0.0
 50
269.999999844103
  0
INSERT
  5
   2EB
  8
0
  6
CONTINUOUS
 62
     3
  2
*HATCH46
 10
-121.123390197754
 20
-14.2446918487549
 30
0.0
 50
269.999999844103
  0
INSERT
  5
   2EC
  8
0
  6
CONTINUOUS
 62
     3
  2
*HATCH47
 10
-121.123390197754
 20
-14.2446918487549
 30
0.0
 50
269.999999844103
  0
INSERT
  5
   2ED
  8
0
  6
CONTINUOUS
 62
     3
  2
*HATCH48
 10
-121.123390197754
 20
-14.2446918487549
 30
0.0
 50
269.999999844103
  0
INSERT
  5
   2EE
  8
0
  6
CONTINUOUS
 62
     3
  2
*HATCH49
 10
-121.123390197754
 20
-14.2446918487549
 30
0.0
 50
269.999999844103
  0
INSERT
  5
   2EF
  8
0
  6
CONTINUOUS
 62
     3
  2
*HATCH50
 10
-121.123390197754
 20
-14.2446918487549
 30
0.0
 50
269.999999844103
  0
INSERT
  5
   2F0
  8
0
  6
CONTINUOUS
 62
     3
  2
*HATCH51
 10
-121.123390197754
 20
-14.2446918487549
 30
0.0
 50
269.999999844103
  0
INSERT
  5
   2F1
  8
0
  6
CONTINUOUS
 62
     3
  2
*HATCH52
 10
-121.123390197754
 20
-14.2446918487549
 30
0.0
 50
269.999999844103
  0
INSERT
  5
   2F2
  8
0
  6
CONTINUOUS
 62
     3
  2
*HATCH53
 10
-121.123390197754
 20
-14.2446918487549
 30
0.0
 50
269.999999844103
  0
INSERT
  5
   2F3
  8
0
  6
CONTINUOUS
 62
     3
  2
*HATCH54
 10
-121.123390197754
 20
-14.2446918487549
 30
0.0
 50
269.999999844103
  0
INSERT
  5
   2F4
  8
0
  6
CONTINUOUS
 62
     3
  2
*HATCH55
 10
-121.123390197754
 20
-14.2446918487549
 30
0.0
 50
269.999999844103
  0
LINE
  5
   2F5
  8
0
  6
CONTINUOUS
 62
   130
 10
-174.370811223984
 20
-34.2446765899658
 30
0.0
 11
-174.370811223984
 21
-42.7446918487549
 31
0.0
  0
LINE
  5
   2F6
  8
0
  6
CONTINUOUS
 62
   130
 10
-174.370811548639
 20
-34.2446765899658
 30
0.0
 11
-169.370795965195
 21
-34.2446765899658
 31
0.0
  0
LINE
  5
   2F7
  8
0
  6
CONTINUOUS
 62
   130
 10
-198.870795965195
 20
60.2553081512451
 30
0.0
 11
-177.870811223984
 21
60.2553081512451
 31
0.0
  0
LINE
  5
   2F8
  8
0
  6
CONTINUOUS
 62
   130
 10
-198.870801988417
 20
-59.7446765899512
 30
0.0
 11
-177.870811223984
 21
-59.7446765899512
 31
0.0
  0
LINE
  5
   2F9
  8
0
  6
DASHDOT
 62
   130
 10
-201.070963606028
 20
51.2553137586898
 30
0.0
 11
-174.202822007054
 21
51.2553137586898
 31
0.0
  0
LINE
  5
   2FA
  8
0
  6
CONTINUOUS
 62
   130
 10
-174.37079628985
 20
10.7553234100342
 30
0.0
 11
-169.370795965195
 21
10.7553234100342
 31
0.0
  0
LINE
  5
   2FB
  8
0
  6
CONTINUOUS
 62
   130
 10
-174.370795965195
 20
43.2553081512451
 30
0.0
 11
-174.370795965195
 21
10.7553234100342
 31
0.0
  0
LINE
  5
   2FC
  8
0
  6
CONTINUOUS
 62
   130
 10
-169.370795965195
 20
10.7553234100342
 30
0.0
 11
-169.370795965195
 21
-34.2446765899658
 31
0.0
  0
LINE
  5
   2FD
  8
0
  6
CONTINUOUS
 62
   130
 10
-175.370811223984
 20
-43.7446918487549
 30
0.0
 11
-175.370811223984
 21
-45.2446918487549
 31
0.0
  0
LINE
  5
   2FE
  8
0
  6
CONTINUOUS
 62
   130
 10
-176.870811223984
 20
-45.2446918487549
 30
0.0
 11
-176.870811223984
 21
-58.7446765899512
 31
0.0
  0
LINE
  5
   2FF
  8
0
  6
CONTINUOUS
 62
   130
 10
-180.870811223984
 20
-45.2446918487549
 30
0.0
 11
-176.870811223984
 21
-45.2446918487549
 31
0.0
  0
LINE
  5
   300
  8
0
  6
CONTINUOUS
 62
   130
 10
-180.870811223984
 20
-43.7446918487549
 30
0.0
 11
-175.370811223984
 21
-43.7446918487549
 31
0.0
  0
LINE
  5
   301
  8
0
  6
CONTINUOUS
 62
   130
 10
-180.870811223984
 20
44.2553081512451
 30
0.0
 11
-175.370795965195
 21
44.2553081512451
 31
0.0
  0
LINE
  5
   302
  8
0
  6
CONTINUOUS
 62
   130
 10
-175.370811223984
 20
45.7553081512451
 30
0.0
 11
-175.370811223984
 21
44.2553081512451
 31
0.0
  0
LINE
  5
   303
  8
0
  6
CONTINUOUS
 62
   130
 10
-180.870811223984
 20
45.7553081512451
 30
0.0
 11
-176.870811223984
 21
45.7553081512451
 31
0.0
  0
LINE
  5
   304
  8
0
  6
CONTINUOUS
 62
   130
 10
-176.870811223984
 20
59.2553081512451
 30
0.0
 11
-176.870811223984
 21
45.7553081512451
 31
0.0
  0
LINE
  5
   305
  8
0
  6
CONTINUOUS
 62
   130
 10
-216.855621337891
 20
-53.744679904195
 30
0.0
 11
-206.514897991416
 21
-53.744679904195
 31
0.0
  0
LINE
  5
   306
  8
0
  6
CONTINUOUS
 62
   130
 10
-216.855621337891
 20
-53.244679904195
 30
0.0
 11
-206.514897991416
 21
-53.244679904195
 31
0.0
  0
LINE
  5
   307
  8
0
  6
CONTINUOUS
 62
   130
 10
-216.855621337891
 20
-48.244679904195
 30
0.0
 11
-206.514897991416
 21
-48.244679904195
 31
0.0
  0
LINE
  5
   308
  8
0
  6
CONTINUOUS
 62
   130
 10
-216.855621337891
 20
-47.744679904195
 30
0.0
 11
-206.514897991416
 21
-47.744679904195
 31
0.0
  0
LINE
  5
   309
  8
0
  6
CONTINUOUS
 62
   130
 10
-216.355621337891
 20
-47.744679904195
 30
0.0
 11
-216.355621337891
 21
-53.744679904195
 31
0.0
  0
LINE
  5
   30A
  8
0
  6
CONTINUOUS
 62
   130
 10
-216.855621337891
 20
-53.244679904195
 30
0.0
 11
-216.355621337891
 21
-53.744679904195
 31
0.0
  0
LINE
  5
   30B
  8
0
  6
CONTINUOUS
 62
   130
 10
-216.355621337891
 20
-47.744679904195
 30
0.0
 11
-216.855621337891
 21
-48.244679904195
 31
0.0
  0
LINE
  5
   30C
  8
0
  6
DOT
 62
   130
 10
-216.855621337891
 20
-48.244679904195
 30
0.0
 11
-216.855621337891
 21
-53.244679904195
 31
0.0
  0
LINE
  5
   30D
  8
0
  6
CONTINUOUS
 62
   130
 10
-212.855621337891
 20
-53.744679904195
 30
0.0
 11
-212.855621337891
 21
-56.7446918487549
 31
0.0
  0
LINE
  5
   30E
  8
0
  6
CONTINUOUS
 62
   130
 10
-180.870811223984
 20
55.2553064717022
 30
0.0
 11
-180.870811223984
 21
44.2553081512451
 31
0.0
  0
LINE
  5
   30F
  8
0
  6
CONTINUOUS
 62
   130
 10
-244.370782407125
 20
56.2553064717022
 30
0.0
 11
-181.870811223984
 21
56.2553064717022
 31
0.0
  0
ARC
  5
   310
  8
0
  6
CONTINUOUS
 62
   130
 10
-181.870811223984
 20
55.2553064717022
 30
0.0
 40
1.0
 50
359.999999844103
 51
449.999999844103
  0
ARC
  5
   311
  8
0
  6
CONTINUOUS
 62
   130
 10
-177.870811223984
 20
59.2553081512451
 30
0.0
 40
1.0
 50
359.999999844103
 51
449.999999844103
  0
ARC
  5
   312
  8
0
  6
CONTINUOUS
 62
   130
 10
-175.370795965195
 20
43.2553081512451
 30
0.0
 40
1.0
 50
359.999999844103
 51
449.999999844103
  0
ARC
  5
   313
  8
0
  6
CONTINUOUS
 62
   130
 10
-181.870811223984
 20
-54.7446901692119
 30
0.0
 40
1.0
 50
269.999999844103
 51
359.999999844103
  0
LINE
  5
   314
  8
0
  6
CONTINUOUS
 62
   130
 10
-180.870811223984
 20
-43.7446918487549
 30
0.0
 11
-180.870811223984
 21
-54.7446901692119
 31
0.0
  0
ARC
  5
   315
  8
0
  6
CONTINUOUS
 62
   130
 10
-175.370811223984
 20
-42.7446918487549
 30
0.0
 40
1.0
 50
269.999999844103
 51
359.999999844103
  0
ARC
  5
   316
  8
0
  6
CONTINUOUS
 62
   130
 10
-177.870811223984
 20
-58.7446765899512
 30
0.0
 40
1.0
 50
269.999999844103
 51
359.999999844103
  0
ARC
  5
   317
  8
0
  6
CONTINUOUS
 62
   130
 10
-205.870795965195
 20
-14.2446765899511
 30
0.0
 40
52.4276683460498
 50
340.405499850824
 51
359.999999844103
  0
LINE
  5
   318
  8
0
  6
CONTINUOUS
 62
   130
 10
-153.443127619145
 20
-14.2446765899511
 30
0.0
 11
-153.443127619145
 21
-29.9816946811597
 31
0.0
  0
LINE
  5
   319
  8
0
  6
DASHDOT
 62
   130
 10
-253.041588944739
 20
-11.7446765899658
 30
0.0
 11
-165.963425590116
 21
-11.7446765899658
 31
0.0
  0
POINT
  5
   31A
  8
0
  6
CONTINUOUS
 62
   130
 10
-247.370797157288
 20
5.25529682647903
 30
0.0
  0
POINT
  5
   31B
  8
0
  6
CONTINUOUS
 62
   130
 10
-247.370797157288
 20
-30.244703173521
 30
0.0
  0
LINE
  5
   31C
  8
0
  6
CONTINUOUS
 62
   130
 10
-218.855621337891
 20
-44.7446918487549
 30
0.0
 11
-218.855621337891
 21
-55.7446901692119
 31
0.0
  0
LINE
  5
   31D
  8
0
  6
CONTINUOUS
 62
   130
 10
-232.355621337891
 20
-57.2455525956746
 30
0.0
 11
-216.855621337891
 21
-57.2455525956746
 31
0.0
  0
LINE
  5
   31E
  8
0
  6
CONTINUOUS
 62
   130
 10
-232.355621337891
 20
-57.2455525956746
 30
0.0
 11
-232.355621337891
 21
-75.8675950718036
 31
0.0
  0
LINE
  5
   31F
  8
0
  6
CONTINUOUS
 62
   130
 10
-216.855621337891
 20
-57.2455525956746
 30
0.0
 11
-216.855621337891
 21
-75.8675950718036
 31
0.0
  0
LINE
  5
   320
  8
0
  6
CONTINUOUS
 62
   130
 10
-233.236304341625
 20
-75.8675950718036
 30
0.0
 11
-216.253160601666
 21
-75.8675950718036
 31
0.0
  0
LINE
  5
   321
  8
0
  6
CONTINUOUS
 62
   130
 10
-218.855621337891
 20
-44.7446918487549
 30
0.0
 11
-218.855621337891
 21
-57.2455525956746
 31
0.0
  0
LINE
  5
   322
  8
0
  6
CONTINUOUS
 62
   130
 10
-228.806477601758
 20
-44.7446918487549
 30
0.0
 11
-230.355621337891
 21
-48.3144578494076
 31
0.0
  0
LINE
  5
   323
  8
0
  6
CONTINUOUS
 62
   130
 10
-226.626272797886
 20
-44.7446918487549
 30
0.0
 11
-230.355621337891
 21
-53.3384080496353
 31
0.0
  0
LINE
  5
   324
  8
0
  6
CONTINUOUS
 62
   130
 10
-224.446067994014
 20
-44.7446918487549
 30
0.0
 11
-229.870969827583
 21
-57.2455525956746
 31
0.0
  0
LINE
  5
   325
  8
0
  6
CONTINUOUS
 62
   130
 10
-222.265863190141
 20
-44.7446918487549
 30
0.0
 11
-227.69076502371
 21
-57.2455525956746
 31
0.0
  0
LINE
  5
   326
  8
0
  6
CONTINUOUS
 62
   130
 10
-220.085658386269
 20
-44.7446918487549
 30
0.0
 11
-225.510560219838
 21
-57.2455525956746
 31
0.0
  0
LINE
  5
   327
  8
0
  6
CONTINUOUS
 62
   130
 10
-218.855621337891
 20
-46.9342088505456
 30
0.0
 11
-223.330355415965
 21
-57.2455525956746
 31
0.0
  0
LINE
  5
   328
  8
0
  6
CONTINUOUS
 62
   130
 10
-218.855621337891
 20
-51.9581590507732
 30
0.0
 11
-221.150150612093
 21
-57.2455525956746
 31
0.0
  0
LINE
  5
   329
  8
0
  6
CONTINUOUS
 62
   130
 10
-228.355621337891
 20
-56.7446918487549
 30
0.0
 11
-228.355621337891
 21
-57.2455525956746
 31
0.0
  0
LINE
  5
   32A
  8
0
  6
CONTINUOUS
 62
   130
 10
-216.855621337891
 20
-59.7446918487549
 30
0.0
 11
-198.870796203613
 21
-59.7446918487549
 31
0.0
  0
LINE
  5
   32B
  8
0
  6
CONTINUOUS
 62
   130
 10
-233.61341857527
 20
-43.7690744879496
 30
0.0
 11
-206.514897991416
 21
-43.7690744879496
 31
0.0
  0
LINE
  5
   32C
  8
0
  6
CONTINUOUS
 62
   130
 10
-206.514897991416
 20
-43.7690744879496
 30
0.0
 11
-206.514897991416
 21
-59.7446918487549
 31
0.0
  0
LINE
  5
   32D
  8
0
  6
CONTINUOUS
 62
   130
 10
-233.61341857527
 20
-43.7690744879496
 30
0.0
 11
-233.61341857527
 21
-59.7446918487549
 31
0.0
  0
LINE
  5
   32E
  8
0
  6
CONTINUOUS
 62
   130
 10
-199.514897991416
 20
-55.7446901692119
 30
0.0
 11
-181.870811223984
 21
-55.7446901692119
 31
0.0
  0
LINE
  5
   32F
  8
0
  6
CONTINUOUS
 62
   130
 10
-244.370782852173
 20
-55.744690169212
 30
0.0
 11
-233.61341857527
 21
-55.744690169212
 31
0.0
  0
LINE
  5
   330
  8
0
  6
CONTINUOUS
 62
   130
 10
-229.870796775818
 20
47.707869726252
 30
0.0
 11
-228.806477601758
 21
45.2553081512451
 31
0.0
  0
LINE
  5
   331
  8
0
  6
CONTINUOUS
 62
   130
 10
-229.870796775818
 20
52.7318199264796
 30
0.0
 11
-226.626272797886
 21
45.2553081512451
 31
0.0
  0
LINE
  5
   332
  8
0
  6
CONTINUOUS
 62
   130
 10
-229.870969827583
 20
57.7561688981648
 30
0.0
 11
-224.446067994014
 21
45.2553081512451
 31
0.0
  0
LINE
  5
   333
  8
0
  6
CONTINUOUS
 62
   130
 10
-227.69076502371
 20
57.7561688981648
 30
0.0
 11
-222.265863190141
 21
45.2553081512451
 31
0.0
  0
LINE
  5
   334
  8
0
  6
CONTINUOUS
 62
   130
 10
-225.510560219838
 20
57.7561688981648
 30
0.0
 11
-220.085658386269
 21
45.2553081512451
 31
0.0
  0
LINE
  5
   335
  8
0
  6
CONTINUOUS
 62
   130
 10
-223.330355415965
 20
57.7561688981648
 30
0.0
 11
-219.370783972739
 21
48.6319390507289
 31
0.0
  0
LINE
  5
   336
  8
0
  6
CONTINUOUS
 62
   130
 10
-221.150150612093
 20
57.7561688981648
 30
0.0
 11
-219.370783972739
 21
53.6558892509565
 31
0.0
  0
LINE
  5
   337
  8
0
  6
CONTINUOUS
 62
   130
 10
-232.355621337891
 20
57.7561688981648
 30
0.0
 11
-216.855621337891
 21
57.7561688981648
 31
0.0
  0
LINE
  5
   338
  8
0
  6
CONTINUOUS
 62
   130
 10
-232.355621337891
 20
75.6699275215909
 30
0.0
 11
-232.355621337891
 21
57.7561688981648
 31
0.0
  0
LINE
  5
   339
  8
0
  6
CONTINUOUS
 62
   130
 10
-216.855621337891
 20
75.6699275215909
 30
0.0
 11
-216.855621337891
 21
57.7561688981648
 31
0.0
  0
LINE
  5
   33A
  8
0
  6
CONTINUOUS
 62
   130
 10
-232.85657329424
 20
75.6699275215909
 30
0.0
 11
-216.515044082621
 21
75.6699275215909
 31
0.0
  0
LINE
  5
   33B
  8
0
  6
CONTINUOUS
 62
   130
 10
-176.870811223984
 20
45.7553081512451
 30
0.0
 11
-175.370811223984
 21
45.7553081512451
 31
0.0
  0
LINE
  5
   33C
  8
0
  6
CONTINUOUS
 62
   130
 10
-176.870811223984
 20
-45.2446918487549
 30
0.0
 11
-175.370811223984
 21
-45.2446918487549
 31
0.0
  0
LINE
  5
   33D
  8
0
  6
CONTINUOUS
 62
   130
 10
-200.870782852173
 20
60.2553081512451
 30
0.0
 11
-200.870782852173
 21
-59.7446765899512
 31
0.0
  0
LINE
  5
   33E
  8
0
  6
CONTINUOUS
 62
   130
 10
-241.870782407125
 20
2.15530815124511
 30
0.0
 11
-241.870782407125
 21
-16.4446918487549
 31
0.0
  0
LINE
  5
   33F
  8
0
  6
CONTINUOUS
 62
   130
 10
-241.870782407125
 20
-16.4446918487549
 30
0.0
 11
-244.370782407125
 21
-18.9446918487549
 31
0.0
  0
LINE
  5
   340
  8
0
  6
CONTINUOUS
 62
   130
 10
-244.370782852173
 20
4.65530859629325
 30
0.0
 11
-241.870782407125
 21
2.15530815124511
 31
0.0
  0
LINE
  5
   341
  8
0
  6
CONTINUOUS
 62
   130
 10
-172.370788574219
 20
11.7553234100342
 30
0.0
 11
-172.370788574219
 21
10.7553234100342
 31
0.0
  0
LINE
  5
   342
  8
0
  6
CONTINUOUS
 62
   130
 10
-172.370788574219
 20
-34.2446765899658
 30
0.0
 11
-172.370788574219
 21
-35.2446765899658
 31
0.0
  0
LINE
  5
   343
  8
0
  6
CONTINUOUS
 62
   130
 10
-172.370788574219
 20
36.2553234100342
 30
0.0
 11
-172.370788574219
 21
13.2553234100342
 31
0.0
  0
LINE
  5
   344
  8
0
  6
DASHDOT
 62
   130
 10
-172.370788574219
 20
71.8966619658505
 30
0.0
 11
-172.370788574219
 21
-80.247572864363
 31
0.0
  0
LINE
  5
   345
  8
0
  6
CONTINUOUS
 62
   130
 10
-169.370788574219
 20
-34.2446765899658
 30
0.0
 11
-169.370788574219
 21
-59.7446765899658
 31
0.0
  0
LINE
  5
   346
  8
0
  6
CONTINUOUS
 62
   130
 10
-173.870788574219
 20
11.7553234100342
 30
0.0
 11
-172.370788574219
 21
11.7553234100342
 31
0.0
  0
LINE
  5
   347
  8
0
  6
CONTINUOUS
 62
   130
 10
-173.870788574219
 20
13.2553234100342
 30
0.0
 11
-172.370788574219
 21
13.2553234100342
 31
0.0
  0
LINE
  5
   348
  8
0
  6
CONTINUOUS
 62
   130
 10
-173.870788574219
 20
13.2553234100342
 30
0.0
 11
-173.870788574219
 21
11.7553234100342
 31
0.0
  0
LINE
  5
   349
  8
0
  6
CONTINUOUS
 62
   130
 10
-172.370788574219
 20
36.2553234100342
 30
0.0
 11
-169.370788574219
 21
36.2553234100342
 31
0.0
  0
LINE
  5
   34A
  8
0
  6
CONTINUOUS
 62
   130
 10
-172.370788574219
 20
-59.7446765899658
 30
0.0
 11
-169.370788574219
 21
-59.7446765899658
 31
0.0
  0
LINE
  5
   34B
  8
0
  6
CONTINUOUS
 62
   130
 10
-172.370788574219
 20
-36.7446765899658
 30
0.0
 11
-172.370788574219
 21
-59.7446765899658
 31
0.0
  0
LINE
  5
   34C
  8
0
  6
CONTINUOUS
 62
   130
 10
-173.870788574219
 20
-36.7446765899658
 30
0.0
 11
-172.370788574219
 21
-36.7446765899658
 31
0.0
  0
LINE
  5
   34D
  8
0
  6
CONTINUOUS
 62
   130
 10
-173.870788574219
 20
-35.2446765899658
 30
0.0
 11
-173.870788574219
 21
-36.7446765899658
 31
0.0
  0
LINE
  5
   34E
  8
0
  6
DOT
 62
   130
 10
-172.370788574219
 20
10.7553234100342
 30
0.0
 11
-172.370788574219
 21
-34.2446765899658
 31
0.0
  0
LINE
  5
   34F
  8
0
  6
CONTINUOUS
 62
   130
 10
-169.370788574219
 20
36.2553234100342
 30
0.0
 11
-169.370788574219
 21
10.7553234100342
 31
0.0
  0
LINE
  5
   350
  8
0
  6
CONTINUOUS
 62
   130
 10
-174.370788574219
 20
21.7553234100342
 30
0.0
 11
-172.370788574219
 21
21.7553234100342
 31
0.0
  0
LINE
  5
   351
  8
0
  6
CONTINUOUS
 62
   130
 10
-174.370788574219
 20
18.7553234100342
 30
0.0
 11
-172.370788574219
 21
18.7553234100342
 31
0.0
  0
LINE
  5
   352
  8
0
  6
CONTINUOUS
 62
   130
 10
-174.370788574219
 20
22.5053234100342
 30
0.0
 11
-174.370788574219
 21
18.0053234100342
 31
0.0
  0
LINE
  5
   353
  8
0
  6
DOT
 62
   130
 10
-174.370788574219
 20
22.5053234100343
 30
0.0
 11
-176.370788574219
 21
21.1563063763494
 31
0.0
  0
LINE
  5
   354
  8
0
  6
DOT
 62
   130
 10
-176.370788574219
 20
19.3543404437191
 30
0.0
 11
-174.370788574219
 21
18.0053234100343
 31
0.0
  0
LINE
  5
   355
  8
0
  6
DOT
 62
   130
 10
-176.370788574219
 20
21.1563063763494
 30
0.0
 11
-176.370788574219
 21
19.3543404437191
 31
0.0
  0
LINE
  5
   356
  8
0
  6
DOT
 62
   130
 10
-176.370788574219
 20
-44.6456595562809
 30
0.0
 11
-174.370788574219
 21
-45.9946765899658
 31
0.0
  0
LINE
  5
   357
  8
0
  6
DOT
 62
   130
 10
-176.370788574219
 20
-42.8436936236506
 30
0.0
 11
-176.370788574219
 21
-44.6456595562809
 31
0.0
  0
LINE
  5
   358
  8
0
  6
DOT
 62
   130
 10
-174.370788574219
 20
-41.4946765899658
 30
0.0
 11
-176.370788574219
 21
-42.8436936236506
 31
0.0
  0
LINE
  5
   359
  8
0
  6
CONTINUOUS
 62
   130
 10
-174.370788574219
 20
-45.2446765899658
 30
0.0
 11
-172.370788574219
 21
-45.2446765899658
 31
0.0
  0
LINE
  5
   35A
  8
0
  6
CONTINUOUS
 62
   130
 10
-174.370788574219
 20
-42.2446765899658
 30
0.0
 11
-172.370788574219
 21
-42.2446765899658
 31
0.0
  0
LINE
  5
   35B
  8
0
  6
CONTINUOUS
 62
   130
 10
-172.370788574219
 20
11.7553234100342
 30
0.0
 11
-169.370788574219
 21
11.7553234100342
 31
0.0
  0
LINE
  5
   35C
  8
0
  6
CONTINUOUS
 62
   130
 10
-173.870788574219
 20
-35.2446765899658
 30
0.0
 11
-169.370788574219
 21
-35.2446765899658
 31
0.0
  0
LINE
  5
   35D
  8
0
  6
DASHDOT
 62
   130
 10
-173.870788574219
 20
71.8966619658505
 30
0.0
 11
-173.870788574219
 21
-80.7798446914604
 31
0.0
  0
LINE
  5
   35E
  8
0
  6
DOT
 62
   130
 10
-201.870796775818
 20
54.2552962066852
 30
0.0
 11
-201.870796775818
 21
48.2552962066852
 31
0.0
  0
LINE
  5
   35F
  8
0
  6
DOT
 62
   130
 10
-196.370796775818
 20
56.7970672747707
 30
0.0
 11
-196.370796775818
 21
45.7135251385998
 31
0.0
  0
ARC
  5
   360
  8
0
  6
DOT
 62
   130
 10
-206.770796775818
 20
51.2552962066853
 30
0.0
 40
12.0
 50
332.615940118948
 51
358.089786672393
  0
LINE
  5
   361
  8
0
  6
DOT
 62
   130
 10
-196.115476178777
 20
45.7358629953598
 30
0.0
 11
-199.370796775818
 21
45.4510568103229
 31
0.0
  0
LINE
  5
   362
  8
0
  6
DOT
 62
   130
 10
-199.370796775818
 20
57.0595356030476
 30
0.0
 11
-196.115476178777
 21
56.7747294180108
 31
0.0
  0
LINE
  5
   363
  8
0
  6
DOT
 62
   130
 10
-199.370796775818
 20
57.0595356030476
 30
0.0
 11
-199.370796775818
 21
45.4510568103229
 31
0.0
  0
LINE
  5
   364
  8
0
  6
DOT
 62
     7
 10
-216.370784568785
 20
48.8687262066853
 30
0.0
 11
-201.870796775818
 21
48.8687262066853
 31
0.0
  0
LINE
  5
   365
  8
0
  6
DOT
 62
     7
 10
-216.370784568785
 20
53.6418662066853
 30
0.0
 11
-201.870796775818
 21
53.6418662066853
 31
0.0
  0
LINE
  5
   366
  8
0
  6
DASHDOT
 62
     7
 10
-215.370795822144
 20
51.2552962066853
 30
0.0
 11
-190.770796775818
 21
51.2552962066853
 31
0.0
  0
LINE
  5
   367
  8
0
  6
DOT
 62
   130
 10
-195.570796775818
 20
51.6552962066853
 30
0.0
 11
-195.570796775818
 21
50.8552962066852
 31
0.0
  0
LINE
  5
   368
  8
0
  6
DOT
 62
   130
 10
-195.570796775818
 20
50.8552962066853
 30
0.0
 11
-194.777465295366
 21
50.8552962066853
 31
0.0
  0
LINE
  5
   369
  8
0
  6
DOT
 62
   130
 10
-195.570796775818
 20
51.6552962066853
 30
0.0
 11
-194.777465295366
 21
51.6552962066853
 31
0.0
  0
ARC
  5
   36A
  8
0
  6
DOT
 62
   130
 10
-206.770796775818
 20
51.2552962066853
 30
0.0
 40
12.0
 50
361.910213015813
 51
387.384059569259
  0
TEXT
  5
   36B
  8
0
  6
CONTINUOUS
 62
     2
 10
-118.816987236327
 20
-133.858355557313
 30
0.0
 40
2.00000008940697
  1
4POLE LOW VOLTAGE M.C.C.B SERIES ISOMAX
 50
359.999999844103
 41
0.625
 72
     1
 11
-94.5669861495515
 21
-132.85835557847
 31
0.0
 73
     2
  0
TEXT
  5
   36C
  8
0
  6
CONTINUOUS
 62
     2
 10
-112.566986825796
 20
-136.858355574287
 30
0.0
 40
2.00000008940697
  1
FIXED VERSION FRONT TERMINALS
 50
359.999999844103
 41
0.625
 72
     1
 11
-94.5669860184173
 21
-135.85835557847
 31
0.0
 73
     2
  0
TEXT
  5
   36D
  8
0
  6
CONTINUOUS
 62
     2
 10
-115.934708542487
 20
-142.399966290363
 30
0.0
 40
2.00000008940697
  1
INTERR.AUTOMATICO SERIE ISOMAX
 50
359.999999844103
 41
0.625
 72
     1
 11
-97.3097077071687
 21
-141.399966296243
 31
0.0
 73
     2
  0
TEXT
  5
   36E
  8
0
  6
CONTINUOUS
 62
     2
 10
-124.059708774569
 20
-145.399966268297
 30
0.0
 40
2.00000008940697
  1
TETRAP.ESECUZIONE FISSA TERMINALI ANTERIORI
 50
359.999999844103
 41
0.625
 72
     1
 11
-97.3097075760345
 21
-144.399966296243
 31
0.0
 73
     2
  0
TEXT
  5
   36F
  8
0
  6
CONTINUOUS
 62
     2
 10
-219.814914706085
 20
-133.250094317459
 30
0.0
 40
2.00000008940697
  1
3/11/92
 50
359.999999844103
 41
0.625
 11
-219.814914703369
 21
-132.250094272756
 31
0.0
 73
     2
  0
TEXT
  5
   370
  8
0
  6
CONTINUOUS
 62
     2
 10
-219.814914706085
 20
-137.250094317459
 30
0.0
 40
2.00000008940697
  1
MOSTOSI
 50
359.999999844103
 41
0.625
 11
-219.814914703369
 21
-136.250094272756
 31
0.0
 73
     2
  0
TEXT
  5
   371
  8
0
  6
CONTINUOUS
 62
     2
 10
-208.34817886692
 20
-150.185488266418
 30
0.0
 40
2.50000005960464
  1
M3727 95-01-18
 50
359.999999844103
 41
0.64999958527089
 11
-208.348178863525
 21
-148.935488236615
 31
0.0
 73
     2
  0
TEXT
  5
   372
  8
0
  6
CONTINUOUS
 62
     2
 10
-96.9636168026436
 20
-152.628130977274
 30
0.0
 40
3.00000002980232
  1
S1
 50
359.999999844103
 41
0.916666604744064
 72
     1
 11
-94.4886169433594
 21
-151.128130969095
 31
0.0
 73
     2
  0
TEXT
  5
   373
  8
0
  6
CONTINUOUS
 62
     2
 10
-116.876512051458
 20
-162.018923814385
 30
0.0
 40
5.00000011920929
  1
601855/011
 50
359.999999844103
 41
0.916666496197386
 72
     1
 11
-94.4181823730469
 21
-159.518923815775
 31
0.0
 73
     2
  0
TEXT
  5
   374
  8
0
  6
CONTINUOUS
 62
     2
 10
-58.5060282795403
 20
-163.074267464429
 30
0.0
 40
2.50000005960464
  1
1/1
 50
359.999999844103
 41
0.954999929332734
 72
     1
 11
-55.1635284423828
 21
-161.824267443704
 31
0.0
 73
     2
  0
TEXT
  5
   375
  8
0
  6
CONTINUOUS
 62
     2
 10
-164.675759930512
 20
-13.6667025208401
 30
0.0
 40
3.00000002980232
  1
X
 50
359.999999844103
 41
0.916666674282816
 72
     1
 11
-163.575759887695
 21
-12.1667025089264
 31
0.0
 73
     2
  0
TEXT
  5
   376
  8
0
  6
CONTINUOUS
 62
     2
 10
-271.903489727876
 20
-13.2158722996639
 30
0.0
 40
3.00000002980232
  1
X
 50
359.999999844103
 41
0.916666674282816
 72
     1
 11
-270.803489685059
 21
-11.7158722877502
 31
0.0
 73
     2
  0
INSERT
  5
   377
  8
0
  6
CONTINUOUS
 62
     7
  2
*UDIM406
 10
0.0
 20
0.0
 30
0.0
  0
INSERT
  5
   378
  8
0
  6
CONTINUOUS
 62
     7
  2
*UDIM407
 10
0.0
 20
0.0
 30
0.0
  0
INSERT
  5
   379
  8
0
  6
CONTINUOUS
 62
     3
  2
*UDIM408
 10
0.0
 20
0.0
 30
0.0
  0
INSERT
  5
   37A
  8
0
  6
CONTINUOUS
 62
     3
  2
*UDIM409
 10
0.0
 20
0.0
 30
0.0
  0
INSERT
  5
   37B
  8
0
  6
CONTINUOUS
 62
     3
  2
*UDIM410
 10
0.0
 20
0.0
 30
0.0
  0
INSERT
  5
   37C
  8
0
  6
CONTINUOUS
 62
     3
  2
*UDIM411
 10
0.0
 20
0.0
 30
0.0
  0
INSERT
  5
   37D
  8
0
  6
CONTINUOUS
 62
     3
  2
*UDIM412
 10
0.0
 20
0.0
 30
0.0
  0
INSERT
  5
   37E
  8
0
  6
CONTINUOUS
 62
     3
  2
*UDIM413
 10
0.0
 20
0.0
 30
0.0
  0
INSERT
  5
   37F
  8
0
  6
CONTINUOUS
 62
     3
  2
*UDIM414
 10
0.0
 20
0.0
 30
0.0
  0
INSERT
  5
   380
  8
0
  6
CONTINUOUS
 62
     3
  2
*UDIM415
 10
0.0
 20
0.0
 30
0.0
  0
INSERT
  5
   381
  8
255
  6
CONTINUOUS
 62
     7
  2
DIA_LATO
 10
-244.370782407125
 20
60.2552928924561
 30
0.0
 50
359.999999792138
  0
TEXT
  5
   382
  8
0
  6
CONTINUOUS
 62
     7
 10
-162.160133215729
 20
97.9892923679878
 30
0.0
 40
3.5
  1
:
 50
359.999999844103
 41
0.933333333333334
 72
     1
 11
-160.876799877643
 21
99.7392923645024
 31
0.0
 73
     2
  0
LINE
  5
   383
  8
0
  6
CONTINUOUS
 62
     7
 10
-293.831756591797
 20
35.0057525634766
 30
0.0
 11
-293.831756591797
 21
-32.1300711535152
 31
0.0
  0
LINE
  5
   384
  8
0
  6
CONTINUOUS
 62
     7
 10
-408.581756591797
 20
-59.7442474365234
 30
0.0
 11
-393.515766934341
 21
-59.7442474365234
 31
0.0
  0
LINE
  5
   385
  8
0
  6
CONTINUOUS
 62
     7
 10
-409.831756591797
 20
35.0057525634766
 30
0.0
 11
-409.831756591797
 21
-58.4942474365234
 31
0.0
  0
LINE
  5
   386
  8
0
  6
CONTINUOUS
 62
     7
 10
-408.581756591797
 20
36.2557525634766
 30
0.0
 11
-295.081756591797
 21
36.2557525634766
 31
0.0
  0
LINE
  5
   387
  8
0
  6
CONTINUOUS
 62
     7
 10
-404.831756591797
 20
-35.7442474365234
 30
0.0
 11
-393.515766934341
 21
-35.7442474365234
 31
0.0
  0
LINE
  5
   388
  8
0
  6
CONTINUOUS
 62
     7
 10
-404.831756591797
 20
12.2557525634766
 30
0.0
 11
-298.831756591797
 21
12.2557525634766
 31
0.0
  0
LINE
  5
   389
  8
0
  6
CONTINUOUS
 62
     7
 10
-405.331756591797
 20
36.2557525634766
 30
0.0
 11
-405.331756591797
 21
-59.7442474365234
 31
0.0
  0
LINE
  5
   38A
  8
0
  6
CONTINUOUS
 62
     7
 10
-404.331756591797
 20
22.7557525634766
 30
0.0
 11
-404.331756591797
 21
12.2557525634766
 31
0.0
  0
LINE
  5
   38B
  8
0
  6
CONTINUOUS
 62
     7
 10
-404.331756591797
 20
-35.7442474365234
 30
0.0
 11
-404.331756591797
 21
-46.2442474365234
 31
0.0
  0
LINE
  5
   38C
  8
0
  6
CONTINUOUS
 62
     7
 10
-404.331756591797
 20
-47.2442474365234
 30
0.0
 11
-404.331756591797
 21
-59.7442474365234
 31
0.0
  0
LINE
  5
   38D
  8
0
  6
CONTINUOUS
 62
     7
 10
-298.331756591797
 20
36.2557525634766
 30
0.0
 11
-298.331756591797
 21
-32.1300711535152
 31
0.0
  0
LINE
  5
   38E
  8
0
  6
CONTINUOUS
 62
     7
 10
-299.331756591797
 20
22.7557525634766
 30
0.0
 11
-299.331756591797
 21
12.2557525634766
 31
0.0
  0
LINE
  5
   38F
  8
0
  6
CONTINUOUS
 62
     7
 10
-405.331756591797
 20
23.7557525634766
 30
0.0
 11
-298.331756591797
 21
23.7557525634766
 31
0.0
  0
LINE
  5
   390
  8
0
  6
CONTINUOUS
 62
     7
 10
-404.331756591797
 20
22.7557525634766
 30
0.0
 11
-299.331756591797
 21
22.7557525634766
 31
0.0
  0
LINE
  5
   391
  8
0
  6
CONTINUOUS
 62
     7
 10
-404.331756591797
 20
-47.2442474365234
 30
0.0
 11
-393.515766934341
 21
-47.2442474365234
 31
0.0
  0
LINE
  5
   392
  8
0
  6
CONTINUOUS
 62
     7
 10
-404.331756591797
 20
-46.2442474365234
 30
0.0
 11
-393.515766934341
 21
-46.2442474365234
 31
0.0
  0
LINE
  5
   393
  8
0
  6
CONTINUOUS
 62
     7
 10
-405.331756591797
 20
30.7557525634766
 30
0.0
 11
-405.031753540039
 21
30.7557525634766
 31
0.0
  0
LINE
  5
   394
  8
0
  6
CONTINUOUS
 62
     7
 10
-405.331756591797
 20
29.2557525634766
 30
0.0
 11
-405.031753540039
 21
29.2557525634766
 31
0.0
  0
LINE
  5
   395
  8
0
  6
CONTINUOUS
 62
     7
 10
-298.631756782532
 20
30.7557525634766
 30
0.0
 11
-298.331756591797
 21
30.7557525634766
 31
0.0
  0
LINE
  5
   396
  8
0
  6
CONTINUOUS
 62
     7
 10
-298.631756782532
 20
29.2557525634766
 30
0.0
 11
-298.331756591797
 21
29.2557525634766
 31
0.0
  0
ARC
  5
   397
  8
0
  6
CONTINUOUS
 62
     7
 10
-405.031793482715
 20
30.0057276455221
 30
0.0
 40
0.750043449440929
 50
270.002994716444
 51
449.997011754257
  0
ARC
  5
   398
  8
0
  6
CONTINUOUS
 62
     7
 10
-298.631741919414
 20
30.0057470533462
 30
0.0
 40
0.750014940188872
 50
450.001135501493
 51
629.998857587167
  0
ARC
  5
   399
  8
0
  6
CONTINUOUS
 62
     7
 10
-295.081756591797
 20
35.0057525634766
 30
0.0
 40
1.25
 50
359.999999844103
 51
449.999999844103
  0
ARC
  5
   39A
  8
0
  6
CONTINUOUS
 62
     7
 10
-408.581756591797
 20
35.0057525634766
 30
0.0
 40
1.25
 50
449.999999844103
 51
539.999999844103
  0
ARC
  5
   39B
  8
0
  6
CONTINUOUS
 62
     7
 10
-408.581756591797
 20
-58.4942474365234
 30
0.0
 40
1.25
 50
539.999999844103
 51
629.999999844103
  0
LINE
  5
   39C
  8
0
  6
CONTINUOUS
 62
     7
 10
-298.831756591797
 20
12.2557525634766
 30
0.0
 11
-298.831756591797
 21
-32.1300711535152
 31
0.0
  0
LINE
  5
   39D
  8
0
  6
CONTINUOUS
 62
     7
 10
-404.831756591797
 20
12.2557525634766
 30
0.0
 11
-404.831756591797
 21
-35.7442474365234
 31
0.0
  0
LINE
  5
   39E
  8
0
  6
CONTINUOUS
 62
   130
 10
-281.418823242188
 20
-14.2447099685669
 30
0.0
 11
-281.418823242188
 21
-14.2447099685669
 31
0.0
  0
LINE
  5
   39F
  8
0
  6
CONTINUOUS
 62
   130
 10
-281.418823242188
 20
-14.2447099685669
 30
0.0
 11
-281.418823242188
 21
-14.2447099685669
 31
0.0
  0
LINE
  5
   3A0
  8
0
  6
CONTINUOUS
 62
   130
 10
-281.418823242188
 20
-14.2447099685669
 30
0.0
 11
-281.418823242188
 21
-14.2447099685669
 31
0.0
  0
LINE
  5
   3A1
  8
0
  6
CONTINUOUS
 62
   130
 10
-281.418823242188
 20
-14.2447099685669
 30
0.0
 11
-281.418823242188
 21
-14.2447099685669
 31
0.0
  0
LINE
  5
   3A2
  8
0
  6
CONTINUOUS
 62
   130
 10
-281.418823242188
 20
-14.2447099685669
 30
0.0
 11
-281.418823242188
 21
-14.2447099685669
 31
0.0
  0
LINE
  5
   3A3
  8
0
  6
CONTINUOUS
 62
   130
 10
-281.418823242188
 20
-14.2447099685669
 30
0.0
 11
-281.418823242188
 21
-14.2447099685669
 31
0.0
  0
LINE
  5
   3A4
  8
0
  6
CONTINUOUS
 62
   130
 10
-281.418823242188
 20
-14.2447099685669
 30
0.0
 11
-281.418823242188
 21
-14.2447099685669
 31
0.0
  0
LINE
  5
   3A5
  8
0
  6
CONTINUOUS
 62
   130
 10
-281.418823242188
 20
-14.2447099685669
 30
0.0
 11
-281.418823242188
 21
-14.2447099685669
 31
0.0
  0
LINE
  5
   3A6
  8
0
  6
CONTINUOUS
 62
   130
 10
-350.331679344177
 20
-59.744694709776
 30
0.0
 11
-336.831679270922
 21
-59.744694709776
 31
0.0
  0
LINE
  5
   3A7
  8
0
  6
CONTINUOUS
 62
   130
 10
-375.331708418242
 20
-59.744694709776
 30
0.0
 11
-353.331708418242
 21
-59.744694709776
 31
0.0
  0
LINE
  5
   3A8
  8
0
  6
CONTINUOUS
 62
   130
 10
-375.331708418242
 20
60.2552900314361
 30
0.0
 11
-353.331708418242
 21
60.2552900314361
 31
0.0
  0
LINE
  5
   3A9
  8
0
  6
CONTINUOUS
 62
   130
 10
-350.331680297852
 20
60.2552900314349
 30
0.0
 11
-336.831694834884
 21
60.2552900314349
 31
0.0
  0
LINE
  5
   3AA
  8
0
  6
CONTINUOUS
 62
   130
 10
-403.331645126339
 20
55.2552933721245
 30
0.0
 11
-403.33164222724
 21
36.2557525634766
 31
0.0
  0
LINE
  5
   3AB
  8
0
  6
CONTINUOUS
 62
   130
 10
-403.33163146973
 20
-34.2446794509819
 30
0.0
 11
-339.331661987308
 21
-34.2446794509819
 31
0.0
  0
LINE
  5
   3AC
  8
0
  6
CONTINUOUS
 62
   130
 10
-349.331679344177
 20
-56.244694709776
 30
0.0
 11
-349.331679344177
 21
-57.7447099685651
 31
0.0
  0
LINE
  5
   3AD
  8
0
  6
CONTINUOUS
 62
   130
 10
-350.331679344177
 20
-58.494694709776
 30
0.0
 11
-350.331679344177
 21
-59.744694709776
 31
0.0
  0
LINE
  5
   3AE
  8
0
  6
CONTINUOUS
 62
   130
 10
-353.331679344177
 20
-58.494679450987
 30
0.0
 11
-353.331679344177
 21
-59.744694709776
 31
0.0
  0
LINE
  5
   3AF
  8
0
  6
CONTINUOUS
 62
   130
 10
-354.331679344177
 20
-56.244694709776
 30
0.0
 11
-354.331679344177
 21
-57.7447099685651
 31
0.0
  0
LINE
  5
   3B0
  8
0
  6
CONTINUOUS
 62
   130
 10
-354.331680297852
 20
58.0052900314349
 30
0.0
 11
-354.331680297852
 21
56.7552900314349
 31
0.0
  0
LINE
  5
   3B1
  8
0
  6
CONTINUOUS
 62
   130
 10
-353.331680297852
 20
60.2552900314349
 30
0.0
 11
-353.331680297852
 21
59.0052900314349
 31
0.0
  0
LINE
  5
   3B2
  8
0
  6
CONTINUOUS
 62
   130
 10
-350.331680297852
 20
60.2552900314349
 30
0.0
 11
-350.331680297852
 21
59.0052900314349
 31
0.0
  0
LINE
  5
   3B3
  8
0
  6
CONTINUOUS
 62
   130
 10
-349.331678581262
 20
58.0052824021017
 30
0.0
 11
-349.331679534936
 21
56.7552824021013
 31
0.0
  0
LINE
  5
   3B4
  8
0
  6
CONTINUOUS
 62
   130
 10
-340.581680297852
 20
60.255305290224
 30
0.0
 11
-338.081681251526
 21
60.255305290224
 31
0.0
  0
CIRCLE
  5
   3B5
  8
0
  6
CONTINUOUS
 62
   130
 10
-351.831701179767
 20
50.2553559251153
 30
0.0
 40
4.4999575073053
  0
LINE
  5
   3B6
  8
0
  6
CONTINUOUS
 62
   130
 10
-403.331638336184
 20
10.7553205490062
 30
0.0
 11
-339.331668853761
 21
10.7553205490062
 31
0.0
  0
CIRCLE
  5
   3B7
  8
0
  6
CONTINUOUS
 62
   130
 10
-364.331679270922
 20
-56.744694709776
 30
0.0
 40
1.25
  0
ARC
  5
   3B8
  8
0
  6
CONTINUOUS
 62
   130
 10
-339.331679270922
 20
-56.744694709776
 30
0.0
 40
1.25
 50
449.999999844103
 51
629.999999844103
  0
ARC
  5
   3B9
  8
0
  6
CONTINUOUS
 62
   130
 10
-339.331694834884
 20
57.2552900314349
 30
0.0
 40
1.25
 50
449.999999844103
 51
629.999999844103
  0
CIRCLE
  5
   3BA
  8
0
  6
CONTINUOUS
 62
   130
 10
-364.331657063299
 20
57.2552808761692
 30
0.0
 40
1.25
  0
LINE
  5
   3BB
  8
0
  6
CONTINUOUS
 62
   130
 10
-346.831679978791
 20
2.39132399022147
 30
0.0
 11
-332.687234433402
 21
2.39132399022147
 31
0.0
  0
LINE
  5
   3BC
  8
0
  6
CONTINUOUS
 62
   130
 10
-350.331708418242
 20
60.2552900314349
 30
0.0
 11
-350.331708418242
 21
58.2552900314349
 31
0.0
  0
LINE
  5
   3BD
  8
0
  6
CONTINUOUS
 62
   130
 10
-353.331708418242
 20
60.2552900314349
 30
0.0
 11
-353.331708418242
 21
58.2552900314349
 31
0.0
  0
LINE
  5
   3BE
  8
0
  6
CONTINUOUS
 62
   130
 10
-354.331709371906
 20
58.2552900314349
 30
0.0
 11
-354.331708227488
 21
56.7552785874067
 31
0.0
  0
LINE
  5
   3BF
  8
0
  6
CONTINUOUS
 62
   130
 10
-349.331708418242
 20
58.2552900314349
 30
0.0
 11
-349.331708418242
 21
56.7552900314349
 31
0.0
  0
LINE
  5
   3C0
  8
0
  6
CONTINUOUS
 62
   130
 10
-350.331708418242
 20
58.2552900314349
 30
0.0
 11
-349.331708418242
 21
58.2552900314349
 31
0.0
  0
LINE
  5
   3C1
  8
0
  6
CONTINUOUS
 62
   130
 10
-354.331709371906
 20
58.2552900314349
 30
0.0
 11
-353.331708418242
 21
58.2552900314349
 31
0.0
  0
LINE
  5
   3C2
  8
0
  6
CONTINUOUS
 62
   130
 10
-353.331708418242
 20
-57.7447099685651
 30
0.0
 11
-353.331708418242
 21
-59.7447099685651
 31
0.0
  0
LINE
  5
   3C3
  8
0
  6
CONTINUOUS
 62
   130
 10
-350.331708418242
 20
-57.7447099685651
 30
0.0
 11
-350.331708418242
 21
-59.7447099685651
 31
0.0
  0
LINE
  5
   3C4
  8
0
  6
CONTINUOUS
 62
   130
 10
-354.331709371906
 20
-57.7447099685651
 30
0.0
 11
-353.331708418242
 21
-57.7447099685651
 31
0.0
  0
LINE
  5
   3C5
  8
0
  6
CONTINUOUS
 62
   130
 10
-350.331708418242
 20
-57.7447099685651
 30
0.0
 11
-349.331708418242
 21
-57.7447099685651
 31
0.0
  0
LINE
  5
   3C6
  8
0
  6
CONTINUOUS
 62
   130
 10
-346.831680049897
 20
4.25532054900618
 30
0.0
 11
-346.831679023291
 21
-22.6565302456229
 31
0.0
  0
LINE
  5
   3C7
  8
0
  6
CONTINUOUS
 62
   130
 10
-346.831679023291
 20
-22.6565302456229
 30
0.0
 11
-345.831679023291
 21
-22.6565302456229
 31
0.0
  0
LINE
  5
   3C8
  8
0
  6
CONTINUOUS
 62
   130
 10
-346.831679037642
 20
-22.2803267604291
 30
0.0
 11
-345.831679037642
 21
-22.2803267604291
 31
0.0
  0
LINE
  5
   3C9
  8
0
  6
CONTINUOUS
 62
   130
 10
-378.331692962647
 20
2.75532054900619
 30
0.0
 11
-346.831679992677
 21
2.75532054900619
 31
0.0
  0
LINE
  5
   3CA
  8
0
  6
CONTINUOUS
 62
   130
 10
-378.331697616577
 20
-27.7446794509819
 30
0.0
 11
-364.931662750245
 21
-27.7446794509819
 31
0.0
  0
LINE
  5
   3CB
  8
0
  6
CONTINUOUS
 62
   130
 10
-378.331697387695
 20
-26.2446794509819
 30
0.0
 11
-345.831678886414
 21
-26.2446794509819
 31
0.0
  0
LINE
  5
   3CC
  8
0
  6
CONTINUOUS
 62
   130
 10
-354.931662750245
 20
-27.7446794509819
 30
0.0
 11
-300.331697616576
 21
-27.7446794509819
 31
0.0
  0
LINE
  5
   3CD
  8
0
  6
CONTINUOUS
 62
   130
 10
-345.831679221358
 20
-17.4643351954221
 30
0.0
 11
-345.831678900427
 21
-25.8773463916933
 31
0.0
  0
LINE
  5
   3CE
  8
0
  6
CONTINUOUS
 62
   130
 10
-281.418823242188
 20
-14.2447099685669
 30
0.0
 11
-281.418823242188
 21
-14.2447099685669
 31
0.0
  0
LINE
  5
   3CF
  8
0
  6
CONTINUOUS
 62
   130
 10
-281.418823242188
 20
-14.2447099685669
 30
0.0
 11
-281.418823242188
 21
-14.2447099685669
 31
0.0
  0
LINE
  5
   3D0
  8
0
  6
CONTINUOUS
 62
   130
 10
-281.418823242188
 20
-14.2447099685669
 30
0.0
 11
-281.418823242188
 21
-14.2447099685669
 31
0.0
  0
LINE
  5
   3D1
  8
0
  6
CONTINUOUS
 62
   130
 10
-281.418823242188
 20
-14.2447099685669
 30
0.0
 11
-281.418823242188
 21
-14.2447099685669
 31
0.0
  0
CIRCLE
  5
   3D2
  8
0
  6
CONTINUOUS
 62
   130
 10
-339.331694834884
 20
51.4552984046733
 30
0.0
 40
3.0
  0
CIRCLE
  5
   3D3
  8
0
  6
CONTINUOUS
 62
   130
 10
-339.331694834884
 20
-50.9447183418034
 30
0.0
 40
3.0
  0
LINE
  5
   3D4
  8
0
  6
CONTINUOUS
 62
   130
 10
-281.418823242188
 20
-14.2447099685669
 30
0.0
 11
-281.418823242188
 21
-14.2447099685669
 31
0.0
  0
LINE
  5
   3D5
  8
0
  6
CONTINUOUS
 62
   130
 10
-281.418823242188
 20
-14.2447099685669
 30
0.0
 11
-281.418823242188
 21
-14.2447099685669
 31
0.0
  0
LINE
  5
   3D6
  8
0
  6
CONTINUOUS
 62
   130
 10
-281.418823242188
 20
-14.2447099685669
 30
0.0
 11
-281.418823242188
 21
-14.2447099685669
 31
0.0
  0
ARC
  5
   3D7
  8
0
  6
CONTINUOUS
 62
   130
 10
-399.831676254268
 20
59.2552935247077
 30
0.0
 40
1.0
 50
449.999999844103
 51
540.000008586744
  0
LINE
  5
   3D8
  8
0
  6
CONTINUOUS
 62
   130
 10
-402.33167419433
 20
45.7552782659186
 30
0.0
 11
-402.331673965448
 21
44.2552782659186
 31
0.0
  0
LINE
  5
   3D9
  8
0
  6
CONTINUOUS
 62
   130
 10
-402.33167419433
 20
45.7552782659186
 30
0.0
 11
-339.331694834884
 21
45.7552782659186
 31
0.0
  0
LINE
  5
   3DA
  8
0
  6
CONTINUOUS
 62
   130
 10
-403.331643447871
 20
44.2552782659186
 30
0.0
 11
-339.331665039063
 21
44.2552782659186
 31
0.0
  0
LINE
  5
   3DB
  8
0
  6
CONTINUOUS
 62
   130
 10
-400.831676254268
 20
59.2552933721198
 30
0.0
 11
-400.831675796505
 21
56.2552935247077
 31
0.0
  0
LINE
  5
   3DC
  8
0
  6
CONTINUOUS
 62
   130
 10
-402.331675643917
 20
56.2552935247077
 30
0.0
 11
-400.831675796505
 21
56.2552935247077
 31
0.0
  0
ARC
  5
   3DD
  8
0
  6
CONTINUOUS
 62
   130
 10
-402.331675643917
 20
55.2552935247077
 30
0.0
 40
1.0
 50
449.999999844103
 51
540.000008586744
  0
CIRCLE
  5
   3DE
  8
0
  6
CONTINUOUS
 62
   130
 10
-364.331694834884
 20
51.4552984046733
 30
0.0
 40
3.0
  0
CIRCLE
  5
   3DF
  8
0
  6
CONTINUOUS
 62
   130
 10
-364.331694834884
 20
-50.9447183418034
 30
0.0
 40
3.0
  0
LINE
  5
   3E0
  8
0
  6
CONTINUOUS
 62
   130
 10
-281.418823242188
 20
-14.2447099685669
 30
0.0
 11
-281.418823242188
 21
-14.2447099685669
 31
0.0
  0
LINE
  5
   3E1
  8
0
  6
CONTINUOUS
 62
   130
 10
-281.418823242188
 20
-14.2447099685669
 30
0.0
 11
-281.418823242188
 21
-14.2447099685669
 31
0.0
  0
LINE
  5
   3E2
  8
0
  6
CONTINUOUS
 62
   130
 10
-281.418823242188
 20
-14.2447099685669
 30
0.0
 11
-281.418823242188
 21
-14.2447099685669
 31
0.0
  0
LINE
  5
   3E3
  8
0
  6
CONTINUOUS
 62
   130
 10
-281.418823242188
 20
-14.2447099685669
 30
0.0
 11
-281.418823242188
 21
-14.2447099685669
 31
0.0
  0
LINE
  5
   3E4
  8
0
  6
CONTINUOUS
 62
   130
 10
-281.418823242188
 20
-14.2447099685669
 30
0.0
 11
-281.418823242188
 21
-14.2447099685669
 31
0.0
  0
LINE
  5
   3E5
  8
0
  6
CONTINUOUS
 62
   130
 10
-281.418823242188
 20
-14.2447099685669
 30
0.0
 11
-281.418823242188
 21
-14.2447099685669
 31
0.0
  0
LINE
  5
   3E6
  8
0
  6
CONTINUOUS
 62
   130
 10
-281.418823242188
 20
-14.2447099685669
 30
0.0
 11
-281.418823242188
 21
-14.2447099685669
 31
0.0
  0
LINE
  5
   3E7
  8
0
  6
CONTINUOUS
 62
   130
 10
-281.418823242188
 20
-14.2447099685669
 30
0.0
 11
-281.418823242188
 21
-14.2447099685669
 31
0.0
  0
LINE
  5
   3E8
  8
0
  6
CONTINUOUS
 62
   130
 10
-341.831650807205
 20
-59.744694709776
 30
0.0
 11
-328.331650733949
 21
-59.744694709776
 31
0.0
  0
LINE
  5
   3E9
  8
0
  6
CONTINUOUS
 62
   130
 10
-325.331650733949
 20
-59.744694709776
 30
0.0
 11
-303.831653823859
 21
-59.744694709776
 31
0.0
  0
LINE
  5
   3EA
  8
0
  6
CONTINUOUS
 62
   130
 10
-325.331658515942
 20
60.2552900314361
 30
0.0
 11
-303.831653823859
 21
60.2552900314361
 31
0.0
  0
LINE
  5
   3EB
  8
0
  6
CONTINUOUS
 62
   130
 10
-341.831635243243
 20
60.2552900314349
 30
0.0
 11
-328.331649780275
 21
60.2552900314349
 31
0.0
  0
LINE
  5
   3EC
  8
0
  6
CONTINUOUS
 62
   130
 10
-300.331684951788
 20
55.2552933721245
 30
0.0
 11
-300.331687850887
 21
36.2557525634766
 31
0.0
  0
LINE
  5
   3ED
  8
0
  6
CONTINUOUS
 62
   130
 10
-329.331650733949
 20
-56.244694709776
 30
0.0
 11
-329.331650733949
 21
-57.7447099685651
 31
0.0
  0
LINE
  5
   3EE
  8
0
  6
CONTINUOUS
 62
   130
 10
-328.331650733949
 20
-58.494694709776
 30
0.0
 11
-328.331650733949
 21
-59.744694709776
 31
0.0
  0
LINE
  5
   3EF
  8
0
  6
CONTINUOUS
 62
   130
 10
-325.331650733949
 20
-58.494679450987
 30
0.0
 11
-325.331650733949
 21
-59.744694709776
 31
0.0
  0
LINE
  5
   3F0
  8
0
  6
CONTINUOUS
 62
   130
 10
-324.331650733949
 20
-56.244694709776
 30
0.0
 11
-324.331650733949
 21
-57.7447099685651
 31
0.0
  0
LINE
  5
   3F1
  8
0
  6
CONTINUOUS
 62
   130
 10
-324.331649780275
 20
58.0052900314349
 30
0.0
 11
-324.331649780275
 21
56.7552900314349
 31
0.0
  0
LINE
  5
   3F2
  8
0
  6
CONTINUOUS
 62
   130
 10
-325.331649780275
 20
60.2552900314349
 30
0.0
 11
-325.331649780275
 21
59.0052900314349
 31
0.0
  0
LINE
  5
   3F3
  8
0
  6
CONTINUOUS
 62
   130
 10
-328.331649780275
 20
60.2552900314349
 30
0.0
 11
-328.331649780275
 21
59.0052900314349
 31
0.0
  0
LINE
  5
   3F4
  8
0
  6
CONTINUOUS
 62
   130
 10
-329.331651496865
 20
58.0052824021017
 30
0.0
 11
-329.331650543191
 21
56.7552824021013
 31
0.0
  0
LINE
  5
   3F5
  8
0
  6
CONTINUOUS
 62
   130
 10
-340.581648826601
 20
60.255305290224
 30
0.0
 11
-338.081649780275
 21
60.255305290224
 31
0.0
  0
CIRCLE
  5
   3F6
  8
0
  6
CONTINUOUS
 62
   130
 10
-326.83162889836
 20
50.2553559251153
 30
0.0
 40
4.4999575073053
  0
CIRCLE
  5
   3F7
  8
0
  6
CONTINUOUS
 62
   130
 10
-314.331650807205
 20
-56.744694709776
 30
0.0
 40
1.25
  0
ARC
  5
   3F8
  8
0
  6
CONTINUOUS
 62
   130
 10
-339.331650807205
 20
-56.744694709776
 30
0.0
 40
1.25
 50
269.999999844103
 51
449.999999844104
  0
ARC
  5
   3F9
  8
0
  6
CONTINUOUS
 62
   130
 10
-339.331635243243
 20
57.2552900314349
 30
0.0
 40
1.25
 50
269.999999844103
 51
449.999999844103
  0
CIRCLE
  5
   3FA
  8
0
  6
CONTINUOUS
 62
   130
 10
-314.331673014828
 20
57.2552808761692
 30
0.0
 40
1.25
  0
LINE
  5
   3FB
  8
0
  6
CONTINUOUS
 62
   130
 10
-332.831650099335
 20
2.39132399022147
 30
0.0
 11
-331.831650099335
 21
2.39132399022147
 31
0.0
  0
LINE
  5
   3FC
  8
0
  6
CONTINUOUS
 62
   130
 10
-328.331621659885
 20
60.2552900314349
 30
0.0
 11
-328.331621659885
 21
58.2552900314349
 31
0.0
  0
LINE
  5
   3FD
  8
0
  6
CONTINUOUS
 62
   130
 10
-325.331621659885
 20
60.2552900314349
 30
0.0
 11
-325.331621659885
 21
58.2552900314349
 31
0.0
  0
LINE
  5
   3FE
  8
0
  6
CONTINUOUS
 62
   130
 10
-324.331620706221
 20
58.2552900314349
 30
0.0
 11
-324.331621850639
 21
56.7552785874067
 31
0.0
  0
LINE
  5
   3FF
  8
0
  6
CONTINUOUS
 62
   130
 10
-329.331621659885
 20
58.2552900314349
 30
0.0
 11
-329.331621659885
 21
56.7552900314349
 31
0.0
  0
LINE
  5
   400
  8
0
  6
CONTINUOUS
 62
   130
 10
-329.331621659885
 20
58.2552900314349
 30
0.0
 11
-328.331621659885
 21
58.2552900314349
 31
0.0
  0
LINE
  5
   401
  8
0
  6
CONTINUOUS
 62
   130
 10
-325.331621659885
 20
58.2552900314349
 30
0.0
 11
-324.331620706221
 21
58.2552900314349
 31
0.0
  0
LINE
  5
   402
  8
0
  6
CONTINUOUS
 62
   130
 10
-325.331621659885
 20
-57.7447099685651
 30
0.0
 11
-325.331621659885
 21
-59.7447099685651
 31
0.0
  0
LINE
  5
   403
  8
0
  6
CONTINUOUS
 62
   130
 10
-328.331621659885
 20
-57.7447099685651
 30
0.0
 11
-328.331621659885
 21
-59.7447099685651
 31
0.0
  0
LINE
  5
   404
  8
0
  6
CONTINUOUS
 62
   130
 10
-325.331621659885
 20
-57.7447099685651
 30
0.0
 11
-324.331620706221
 21
-57.7447099685651
 31
0.0
  0
LINE
  5
   405
  8
0
  6
CONTINUOUS
 62
   130
 10
-329.331621659885
 20
-57.7447099685651
 30
0.0
 11
-328.331621659885
 21
-57.7447099685651
 31
0.0
  0
LINE
  5
   406
  8
0
  6
CONTINUOUS
 62
   130
 10
-331.83165002823
 20
4.25532054900618
 30
0.0
 11
-331.831651054836
 21
-22.6565302456229
 31
0.0
  0
LINE
  5
   407
  8
0
  6
CONTINUOUS
 62
   130
 10
-332.831651054836
 20
-22.6565302456229
 30
0.0
 11
-331.831651054836
 21
-22.6565302456229
 31
0.0
  0
LINE
  5
   408
  8
0
  6
CONTINUOUS
 62
   130
 10
-332.831651040485
 20
-22.2803267604291
 30
0.0
 11
-331.831651040485
 21
-22.2803267604291
 31
0.0
  0
LINE
  5
   409
  8
0
  6
CONTINUOUS
 62
   130
 10
-378.331692733765
 20
4.25532054900619
 30
0.0
 11
-300.331692733764
 21
4.25532054900619
 31
0.0
  0
LINE
  5
   40A
  8
0
  6
CONTINUOUS
 62
   130
 10
-331.83165008545
 20
2.75532054900619
 30
0.0
 11
-300.331692962646
 21
2.75532054900619
 31
0.0
  0
LINE
  5
   40B
  8
0
  6
CONTINUOUS
 62
   130
 10
-332.831650856769
 20
-17.4643351954221
 30
0.0
 11
-332.8316511777
 21
-25.8773463916933
 31
0.0
  0
LINE
  5
   40C
  8
0
  6
CONTINUOUS
 62
   130
 10
-281.418823242188
 20
-14.2447099685669
 30
0.0
 11
-281.418823242188
 21
-14.2447099685669
 31
0.0
  0
LINE
  5
   40D
  8
0
  6
CONTINUOUS
 62
   130
 10
-281.418823242188
 20
-14.2447099685669
 30
0.0
 11
-281.418823242188
 21
-14.2447099685669
 31
0.0
  0
LINE
  5
   40E
  8
0
  6
CONTINUOUS
 62
   130
 10
-281.418823242188
 20
-14.2447099685669
 30
0.0
 11
-281.418823242188
 21
-14.2447099685669
 31
0.0
  0
LINE
  5
   40F
  8
0
  6
CONTINUOUS
 62
   130
 10
-281.418823242188
 20
-14.2447099685669
 30
0.0
 11
-281.418823242188
 21
-14.2447099685669
 31
0.0
  0
CIRCLE
  5
   410
  8
0
  6
CONTINUOUS
 62
   130
 10
-339.331635243243
 20
51.4552984046733
 30
0.0
 40
3.0
  0
LINE
  5
   411
  8
0
  6
CONTINUOUS
 62
   130
 10
-281.418823242188
 20
-14.2447099685669
 30
0.0
 11
-281.418823242188
 21
-14.2447099685669
 31
0.0
  0
LINE
  5
   412
  8
0
  6
CONTINUOUS
 62
   130
 10
-281.418823242188
 20
-14.2447099685669
 30
0.0
 11
-281.418823242188
 21
-14.2447099685669
 31
0.0
  0
LINE
  5
   413
  8
0
  6
CONTINUOUS
 62
   130
 10
-281.418823242188
 20
-14.2447099685669
 30
0.0
 11
-281.418823242188
 21
-14.2447099685669
 31
0.0
  0
LINE
  5
   414
  8
0
  6
CONTINUOUS
 62
   130
 10
-339.331671714784
 20
-45.2446912165033
 30
0.0
 11
-301.331655883797
 21
-45.2446912165033
 31
0.0
  0
ARC
  5
   415
  8
0
  6
CONTINUOUS
 62
   130
 10
-303.831653823859
 20
59.2552935247077
 30
0.0
 40
1.0
 50
359.999991101463
 51
449.999999844103
  0
ARC
  5
   416
  8
0
  6
CONTINUOUS
 62
   130
 10
-303.831653823859
 20
-58.7447064752923
 30
0.0
 40
1.0
 50
269.999999844103
 51
360.000008586744
  0
LINE
  5
   417
  8
0
  6
CONTINUOUS
 62
   130
 10
-302.831655883797
 20
-45.2446912165033
 30
0.0
 11
-302.831654281624
 21
-55.7446912165033
 31
0.0
  0
LINE
  5
   418
  8
0
  6
CONTINUOUS
 62
   130
 10
-339.331650807205
 20
-43.7446912165033
 30
0.0
 11
-300.331700057983
 21
-43.7446912165033
 31
0.0
  0
LINE
  5
   419
  8
0
  6
CONTINUOUS
 62
   130
 10
-301.331656112679
 20
-43.7446912165033
 30
0.0
 11
-301.331655883797
 21
-45.2446912165033
 31
0.0
  0
LINE
  5
   41A
  8
0
  6
CONTINUOUS
 62
   130
 10
-301.331655883797
 20
45.7552782659186
 30
0.0
 11
-301.331656112679
 21
44.2552782659186
 31
0.0
  0
LINE
  5
   41B
  8
0
  6
CONTINUOUS
 62
   130
 10
-339.331635243243
 20
45.7552782659186
 30
0.0
 11
-301.331655883797
 21
45.7552782659186
 31
0.0
  0
LINE
  5
   41C
  8
0
  6
CONTINUOUS
 62
   130
 10
-339.331665039064
 20
44.2552782659186
 30
0.0
 11
-300.331686630256
 21
44.2552782659186
 31
0.0
  0
LINE
  5
   41D
  8
0
  6
CONTINUOUS
 62
   130
 10
-302.831653823859
 20
59.2552933721198
 30
0.0
 11
-302.831654281622
 21
56.2552935247077
 31
0.0
  0
LINE
  5
   41E
  8
0
  6
CONTINUOUS
 62
   130
 10
-302.831654281622
 20
56.2552935247077
 30
0.0
 11
-301.33165443421
 21
56.2552935247077
 31
0.0
  0
LINE
  5
   41F
  8
0
  6
CONTINUOUS
 62
   130
 10
-302.831654281624
 20
-55.7446912165033
 30
0.0
 11
-301.331671218872
 21
-55.7446912165033
 31
0.0
  0
ARC
  5
   420
  8
0
  6
CONTINUOUS
 62
   130
 10
-301.33165443421
 20
55.2552935247077
 30
0.0
 40
1.0
 50
359.999991101463
 51
449.999999844103
  0
ARC
  5
   421
  8
0
  6
CONTINUOUS
 62
   130
 10
-301.331671218872
 20
-54.7446912165033
 30
0.0
 40
1.0
 50
269.999999844103
 51
359.999991101463
  0
CIRCLE
  5
   422
  8
0
  6
CONTINUOUS
 62
   130
 10
-314.331635243243
 20
51.4552984046733
 30
0.0
 40
3.0
  0
CIRCLE
  5
   423
  8
0
  6
CONTINUOUS
 62
   130
 10
-314.331635243243
 20
-50.9447183418034
 30
0.0
 40
3.0
  0
LINE
  5
   424
  8
0
  6
DASHDOT
 62
   130
 10
-365.731648027849
 20
50.2552829950624
 30
0.0
 11
-342.931648027849
 21
50.2552829950624
 31
0.0
  0
LINE
  5
   425
  8
0
  6
DASHDOT
 62
   130
 10
-335.731682050278
 20
50.2552829950624
 30
0.0
 11
-312.931682050278
 21
50.2552829950624
 31
0.0
  0
LINE
  5
   426
  8
0
  6
DASHDOT
 62
   130
 10
-339.331635243243
 20
65.0275641159907
 30
0.0
 11
-339.331635243243
 21
-39.6073514640475
 31
0.0
  0
LINE
  5
   427
  8
0
  6
DASHDOT
 62
   130
 10
-352.331635243243
 20
51.4552984046733
 30
0.0
 11
-326.331635243243
 21
51.4552984046733
 31
0.0
  0
LINE
  5
   428
  8
0
  6
DASHDOT
 62
   130
 10
-364.331694834884
 20
64.4552984046733
 30
0.0
 11
-364.331694834884
 21
38.4552984046733
 31
0.0
  0
LINE
  5
   429
  8
0
  6
DASHDOT
 62
   130
 10
-382.331694834884
 20
51.4552984046733
 30
0.0
 11
-356.331694834884
 21
51.4552984046733
 31
0.0
  0
LINE
  5
   42A
  8
0
  6
DASHDOT
 62
   130
 10
-314.331635243243
 20
64.4552984046733
 30
0.0
 11
-314.331635243243
 21
38.4552984046733
 31
0.0
  0
LINE
  5
   42B
  8
0
  6
DASHDOT
 62
   130
 10
-322.331635243243
 20
51.4552984046733
 30
0.0
 11
-296.331635243243
 21
51.4552984046733
 31
0.0
  0
LINE
  5
   42C
  8
0
  6
DASHDOT
 62
   130
 10
-364.331694834884
 20
-37.9447183418034
 30
0.0
 11
-364.331694834884
 21
-63.9447183418034
 31
0.0
  0
LINE
  5
   42D
  8
0
  6
DASHDOT
 62
   130
 10
-377.331694834884
 20
-50.9447183418034
 30
0.0
 11
-351.331694834884
 21
-50.9447183418034
 31
0.0
  0
LINE
  5
   42E
  8
0
  6
DASHDOT
 62
   130
 10
-351.831583084669
 20
-35.4945953598457
 30
0.0
 11
-351.831583084669
 21
-63.9947288486798
 31
0.0
  0
LINE
  5
   42F
  8
0
  6
DASHDOT
 62
   130
 10
-368.581649829086
 20
-49.7446621042628
 30
0.0
 11
-340.081516340252
 21
-49.7446621042628
 31
0.0
  0
LINE
  5
   430
  8
0
  6
DASHDOT
 62
   130
 10
-339.331694834884
 20
-37.9447183418034
 30
0.0
 11
-339.331694834884
 21
-65.5017147274686
 31
0.0
  0
LINE
  5
   431
  8
0
  6
DASHDOT
 62
   130
 10
-352.331694834884
 20
-50.9447183418034
 30
0.0
 11
-326.331694834884
 21
-50.9447183418034
 31
0.0
  0
LINE
  5
   432
  8
0
  6
DASHDOT
 62
   130
 10
-326.831746993457
 20
-35.4945953598457
 30
0.0
 11
-326.831746993457
 21
-63.9947288486798
 31
0.0
  0
LINE
  5
   433
  8
0
  6
DASHDOT
 62
   130
 10
-343.581813737874
 20
-49.7446621042628
 30
0.0
 11
-315.08168024904
 21
-49.7446621042628
 31
0.0
  0
LINE
  5
   434
  8
0
  6
DASHDOT
 62
   130
 10
-322.331635243243
 20
-50.9447183418034
 30
0.0
 11
-296.331635243243
 21
-50.9447183418034
 31
0.0
  0
LINE
  5
   435
  8
0
  6
DASHDOT
 62
   130
 10
-326.83162889836
 20
64.7553134324205
 30
0.0
 11
-326.83162889836
 21
35.7553984178099
 31
0.0
  0
LINE
  5
   436
  8
0
  6
DASHDOT
 62
   130
 10
-338.831586405665
 20
50.2553559251153
 30
0.0
 11
-309.831671391054
 21
50.2553559251153
 31
0.0
  0
INSERT
  5
   437
  8
255
  6
CONTINUOUS
 62
   130
  2
SSS
 10
-326.83162889836
 20
50.2553559251153
 30
0.0
 50
359.999999792138
  0
INSERT
  5
   438
  8
0
  6
CONTINUOUS
 62
   130
  2
SSS
 10
-351.831583084669
 20
-49.7446621042628
 30
0.0
 50
359.999999792138
  0
LINE
  5
   439
  8
0
  6
CONTINUOUS
 62
   130
 10
-345.831679221358
 20
-17.4643351954221
 30
0.0
 11
-332.831650856769
 21
-17.4643351954221
 31
0.0
  0
LINE
  5
   43A
  8
0
  6
CONTINUOUS
 62
   130
 10
-345.331678992636
 20
-22.9601313521887
 30
0.0
 11
-333.331651085491
 21
-22.9601313521887
 31
0.0
  0
LINE
  5
   43B
  8
0
  6
CONTINUOUS
 62
   130
 10
-345.331678900427
 20
-26.3773463726198
 30
0.0
 11
-333.3316511777
 21
-26.3773463726198
 31
0.0
  0
LINE
  5
   43C
  8
0
  6
CONTINUOUS
 62
   130
 10
-332.831651191713
 20
-26.2446794509819
 30
0.0
 11
-300.331697387694
 21
-26.2446794509819
 31
0.0
  0
ARC
  5
   43D
  8
0
  6
CONTINUOUS
 62
   130
 10
-345.331678900427
 20
-25.8773463726198
 30
0.0
 40
0.5
 50
540.000002029765
 51
629.999999844103
  0
ARC
  5
   43E
  8
0
  6
CONTINUOUS
 62
   130
 10
-333.3316511777
 20
-25.8773463726198
 30
0.0
 40
0.5
 50
269.999999844103
 51
359.999997658442
  0
ARC
  5
   43F
  8
0
  6
CONTINUOUS
 62
   130
 10
-333.331651085491
 20
-23.4601313521887
 30
0.0
 40
0.5
 50
359.999997658442
 51
449.999999844103
  0
ARC
  5
   440
  8
0
  6
CONTINUOUS
 62
   130
 10
-345.331678992636
 20
-23.4601313521887
 30
0.0
 40
0.5
 50
449.999999844103
 51
540.000002029765
  0
CIRCLE
  5
   441
  8
0
  6
CONTINUOUS
 62
   130
 10
-351.831583084669
 20
-49.7446621042628
 30
0.0
 40
4.4999575073053
  0
LINE
  5
   442
  8
0
  6
CONTINUOUS
 62
   130
 10
-339.331668090819
 20
-34.2446794509819
 30
0.0
 11
-300.331698608397
 21
-34.2446794509819
 31
0.0
  0
LINE
  5
   443
  8
0
  6
CONTINUOUS
 62
   130
 10
-339.331661224365
 20
10.7553205490062
 30
0.0
 11
-300.331691741943
 21
10.7553205490062
 31
0.0
  0
LINE
  5
   444
  8
0
  6
DASHDOT
 62
   130
 10
-412.224576666555
 20
-11.7446794509938
 30
0.0
 11
-286.334314969849
 21
-11.7446794509938
 31
0.0
  0
LINE
  5
   445
  8
0
  6
CONTINUOUS
 62
   130
 10
-353.100372314453
 20
0.611467390184014
 30
0.0
 11
-352.350372314453
 21
0.611467390184014
 31
0.0
  0
LINE
  5
   446
  8
0
  6
CONTINUOUS
 62
   130
 10
-353.100372314453
 20
-3.88853260981599
 30
0.0
 11
-352.350372314453
 21
-3.88853260981599
 31
0.0
  0
CIRCLE
  5
   447
  8
0
  6
CONTINUOUS
 62
   130
 10
-352.725372314453
 20
-18.388532609816
 30
0.0
 40
2.25
  0
CIRCLE
  5
   448
  8
0
  6
CONTINUOUS
 62
   130
 10
-352.725372314453
 20
-18.388532609816
 30
0.0
 40
1.5
  0
LINE
  5
   449
  8
0
  6
CONTINUOUS
 62
   130
 10
-353.100372314453
 20
0.611467390184014
 30
0.0
 11
-353.100372314453
 21
-3.88853260981599
 31
0.0
  0
LINE
  5
   44A
  8
0
  6
CONTINUOUS
 62
   130
 10
-352.350372314453
 20
0.611467390184014
 30
0.0
 11
-352.350372314453
 21
-3.88853260981599
 31
0.0
  0
LINE
  5
   44B
  8
0
  6
CONTINUOUS
 62
   130
 10
-324.550377197266
 20
-16.463532609816
 30
0.0
 11
-324.325377197266
 21
-16.463532609816
 31
0.0
  0
LINE
  5
   44C
  8
0
  6
CONTINUOUS
 62
   130
 10
-325.200377197266
 20
-20.313532609816
 30
0.0
 11
-324.800377197266
 21
-20.313532609816
 31
0.0
  0
LINE
  5
   44D
  8
0
  6
CONTINUOUS
 62
   130
 10
-325.800377197266
 20
-18.763532609816
 30
0.0
 11
-325.800377197266
 21
-19.0135326098159
 31
0.0
  0
ARC
  5
   44E
  8
0
  6
CONTINUOUS
 62
   130
 10
-327.100377197266
 20
-18.763532609816
 30
0.0
 40
1.3
 50
359.999999844103
 51
539.999999844103
  0
ARC
  5
   44F
  8
0
  6
CONTINUOUS
 62
   130
 10
-327.100377197266
 20
-19.013532609816
 30
0.0
 40
1.3
 50
539.999999844103
 51
719.999999844103
  0
ARC
  5
   450
  8
0
  6
CONTINUOUS
 62
   130
 10
-327.100377197266
 20
-18.763532609816
 30
0.0
 40
0.900000000000001
 50
359.999999844103
 51
539.999999844103
  0
ARC
  5
   451
  8
0
  6
CONTINUOUS
 62
   130
 10
-327.100377197266
 20
-19.013532609816
 30
0.0
 40
0.899999999999999
 50
539.999999844103
 51
719.999999844103
  0
LINE
  5
   452
  8
0
  6
CONTINUOUS
 62
   130
 10
-326.200377197266
 20
-18.763532609816
 30
0.0
 11
-326.200377197266
 21
-19.0135326098159
 31
0.0
  0
LINE
  5
   453
  8
0
  6
CONTINUOUS
 62
   130
 10
-325.675377197266
 20
-17.663532609816
 30
0.0
 11
-325.675377197266
 21
-18.0635326098159
 31
0.0
  0
LINE
  5
   454
  8
0
  6
CONTINUOUS
 62
   130
 10
-325.675377197266
 20
-18.063532609816
 30
0.0
 11
-325.200377197266
 21
-18.063532609816
 31
0.0
  0
LINE
  5
   455
  8
0
  6
CONTINUOUS
 62
   130
 10
-324.325377197266
 20
-17.663532609816
 30
0.0
 11
-324.325377197266
 21
-18.0635326098159
 31
0.0
  0
LINE
  5
   456
  8
0
  6
CONTINUOUS
 62
   130
 10
-325.675377197266
 20
-17.663532609816
 30
0.0
 11
-325.200377197266
 21
-17.663532609816
 31
0.0
  0
LINE
  5
   457
  8
0
  6
CONTINUOUS
 62
   130
 10
-325.200377197266
 20
-18.0635326098159
 30
0.0
 11
-325.200377197266
 21
-20.3135326098159
 31
0.0
  0
LINE
  5
   458
  8
0
  6
CONTINUOUS
 62
   130
 10
-324.800377197266
 20
-18.063532609816
 30
0.0
 11
-324.800377197266
 21
-20.313532609816
 31
0.0
  0
LINE
  5
   459
  8
0
  6
CONTINUOUS
 62
   130
 10
-324.800377197266
 20
-18.063532609816
 30
0.0
 11
-324.325377197266
 21
-18.063532609816
 31
0.0
  0
LINE
  5
   45A
  8
0
  6
CONTINUOUS
 62
   130
 10
-324.800377197266
 20
-17.663532609816
 30
0.0
 11
-324.325377197266
 21
-17.663532609816
 31
0.0
  0
LINE
  5
   45B
  8
0
  6
CONTINUOUS
 62
   130
 10
-325.200377197266
 20
-17.1135326098159
 30
0.0
 11
-325.200377197266
 21
-17.663532609816
 31
0.0
  0
LINE
  5
   45C
  8
0
  6
CONTINUOUS
 62
   130
 10
-324.800377197266
 20
-17.1135326098159
 30
0.0
 11
-324.800377197266
 21
-17.663532609816
 31
0.0
  0
ARC
  5
   45D
  8
0
  6
CONTINUOUS
 62
   130
 10
-324.550377197266
 20
-17.113532609816
 30
0.0
 40
0.65
 50
449.999999844103
 51
539.999999844103
  0
ARC
  5
   45E
  8
0
  6
CONTINUOUS
 62
   130
 10
-324.550377197266
 20
-17.113532609816
 30
0.0
 40
0.25
 50
449.999999844103
 51
539.999999844103
  0
LINE
  5
   45F
  8
0
  6
CONTINUOUS
 62
   130
 10
-324.325377197266
 20
-16.4635326098159
 30
0.0
 11
-324.325377197266
 21
-16.8635326098159
 31
0.0
  0
LINE
  5
   460
  8
0
  6
CONTINUOUS
 62
   130
 10
-324.550377197266
 20
-16.863532609816
 30
0.0
 11
-324.325377197266
 21
-16.863532609816
 31
0.0
  0
LINE
  5
   461
  8
0
  6
CONTINUOUS
 62
   130
 10
-323.600377197266
 20
-20.313532609816
 30
0.0
 11
-323.200377197266
 21
-20.313532609816
 31
0.0
  0
LINE
  5
   462
  8
0
  6
CONTINUOUS
 62
   130
 10
-324.075377197266
 20
-17.663532609816
 30
0.0
 11
-324.075377197266
 21
-18.063532609816
 31
0.0
  0
LINE
  5
   463
  8
0
  6
CONTINUOUS
 62
   130
 10
-324.075377197266
 20
-18.063532609816
 30
0.0
 11
-323.600377197266
 21
-18.063532609816
 31
0.0
  0
LINE
  5
   464
  8
0
  6
CONTINUOUS
 62
   130
 10
-322.725377197266
 20
-17.663532609816
 30
0.0
 11
-322.725377197266
 21
-18.063532609816
 31
0.0
  0
LINE
  5
   465
  8
0
  6
CONTINUOUS
 62
   130
 10
-324.075377197266
 20
-17.663532609816
 30
0.0
 11
-323.600377197266
 21
-17.663532609816
 31
0.0
  0
LINE
  5
   466
  8
0
  6
CONTINUOUS
 62
   130
 10
-323.600377197266
 20
-18.0635326098159
 30
0.0
 11
-323.600377197266
 21
-20.3135326098159
 31
0.0
  0
LINE
  5
   467
  8
0
  6
CONTINUOUS
 62
   130
 10
-323.200377197266
 20
-18.0635326098159
 30
0.0
 11
-323.200377197266
 21
-20.3135326098159
 31
0.0
  0
LINE
  5
   468
  8
0
  6
CONTINUOUS
 62
   130
 10
-323.200377197266
 20
-18.063532609816
 30
0.0
 11
-322.725377197266
 21
-18.063532609816
 31
0.0
  0
LINE
  5
   469
  8
0
  6
CONTINUOUS
 62
   130
 10
-323.200377197266
 20
-17.663532609816
 30
0.0
 11
-322.725377197266
 21
-17.663532609816
 31
0.0
  0
LINE
  5
   46A
  8
0
  6
CONTINUOUS
 62
   130
 10
-323.600377197266
 20
-17.1135326098159
 30
0.0
 11
-323.600377197266
 21
-17.663532609816
 31
0.0
  0
LINE
  5
   46B
  8
0
  6
CONTINUOUS
 62
   130
 10
-323.200377197266
 20
-17.1135326098159
 30
0.0
 11
-323.200377197266
 21
-17.663532609816
 31
0.0
  0
ARC
  5
   46C
  8
0
  6
CONTINUOUS
 62
   130
 10
-322.950377197266
 20
-17.113532609816
 30
0.0
 40
0.65
 50
449.999999844103
 51
539.999999844103
  0
ARC
  5
   46D
  8
0
  6
CONTINUOUS
 62
   130
 10
-322.950377197266
 20
-17.113532609816
 30
0.0
 40
0.25
 50
449.999999844103
 51
539.999999844103
  0
LINE
  5
   46E
  8
0
  6
CONTINUOUS
 62
   130
 10
-322.725377197266
 20
-16.4635326098159
 30
0.0
 11
-322.725377197266
 21
-16.863532609816
 31
0.0
  0
LINE
  5
   46F
  8
0
  6
CONTINUOUS
 62
   130
 10
-325.400377197266
 20
-3.06353260981598
 30
0.0
 11
-325.000377197266
 21
-3.06353260981598
 31
0.0
  0
ARC
  5
   470
  8
0
  6
CONTINUOUS
 62
   130
 10
-327.100377197266
 20
-1.51353260981599
 30
0.0
 40
1.3
 50
359.999999844103
 51
539.999999844103
  0
ARC
  5
   471
  8
0
  6
CONTINUOUS
 62
   130
 10
-327.100377197266
 20
-1.51353260981599
 30
0.0
 40
0.900000000000001
 50
359.999999844103
 51
539.999999844103
  0
ARC
  5
   472
  8
0
  6
CONTINUOUS
 62
   130
 10
-327.100377197266
 20
-1.76353260981599
 30
0.0
 40
1.3
 50
539.999999844103
 51
719.999999844103
  0
ARC
  5
   473
  8
0
  6
CONTINUOUS
 62
   130
 10
-327.100377197266
 20
-1.76353260981599
 30
0.0
 40
0.899999999999999
 50
539.999999844103
 51
719.999999844103
  0
LINE
  5
   474
  8
0
  6
CONTINUOUS
 62
   130
 10
-325.400377197266
 20
-0.213532609815962
 30
0.0
 11
-325.400377197266
 21
-3.06353260981596
 31
0.0
  0
LINE
  5
   475
  8
0
  6
CONTINUOUS
 62
   130
 10
-325.000377197266
 20
-1.31353260981596
 30
0.0
 11
-325.000377197266
 21
-3.06353260981596
 31
0.0
  0
LINE
  5
   476
  8
0
  6
CONTINUOUS
 62
   130
 10
-323.600377197266
 20
-1.31353260981596
 30
0.0
 11
-323.600377197266
 21
-3.06353260981596
 31
0.0
  0
LINE
  5
   477
  8
0
  6
CONTINUOUS
 62
   130
 10
-323.200377197266
 20
-1.21353260981596
 30
0.0
 11
-323.200377197266
 21
-3.06353260981596
 31
0.0
  0
LINE
  5
   478
  8
0
  6
CONTINUOUS
 62
   130
 10
-325.400377197266
 20
-0.213532609815985
 30
0.0
 11
-325.000377197266
 21
-0.213532609815985
 31
0.0
  0
ARC
  5
   479
  8
0
  6
CONTINUOUS
 62
   130
 10
-324.300377197266
 20
-1.31353260981599
 30
0.0
 40
0.699999999999999
 50
359.999999844103
 51
539.999999844103
  0
LINE
  5
   47A
  8
0
  6
CONTINUOUS
 62
   130
 10
-325.000377197266
 20
-0.213532609815962
 30
0.0
 11
-325.000377197266
 21
-0.613532609815953
 31
0.0
  0
ARC
  5
   47B
  8
0
  6
CONTINUOUS
 62
   130
 10
-324.200377197266
 20
-1.21353260981599
 30
0.0
 40
1.0
 50
359.999999844103
 51
503.130102198259
  0
LINE
  5
   47C
  8
0
  6
CONTINUOUS
 62
   130
 10
-323.600377197266
 20
-3.06353260981598
 30
0.0
 11
-323.200377197266
 21
-3.06353260981598
 31
0.0
  0
LINE
  5
   47D
  8
0
  6
CONTINUOUS
 62
   130
 10
-324.932052403167
 20
9.41442982189914
 30
0.0
 11
-325.166084097214
 21
9.37316433859296
 31
0.0
  0
LINE
  5
   47E
  8
0
  6
CONTINUOUS
 62
   130
 10
-325.166069642325
 20
9.37317219419089
 30
0.0
 11
-325.37187254264
 21
9.25435345101786
 31
0.0
  0
LINE
  5
   47F
  8
0
  6
CONTINUOUS
 62
   130
 10
-325.371881008343
 20
9.25434477507654
 30
0.0
 11
-325.524629133336
 21
9.07230406387457
 31
0.0
  0
LINE
  5
   480
  8
0
  6
CONTINUOUS
 62
   130
 10
-325.524626282562
 20
9.07230517833565
 30
0.0
 11
-325.605902218046
 21
8.84899900409358
 31
0.0
  0
LINE
  5
   481
  8
0
  6
CONTINUOUS
 62
   130
 10
-325.605909484123
 20
8.84899941035869
 30
0.0
 11
-325.605909484123
 21
8.61136189052226
 31
0.0
  0
LINE
  5
   482
  8
0
  6
CONTINUOUS
 62
   130
 10
-325.605902880326
 20
8.61136431184251
 30
0.0
 11
-325.524626944842
 21
8.38805813760042
 31
0.0
  0
LINE
  5
   483
  8
0
  6
CONTINUOUS
 62
   130
 10
-325.524630504758
 20
8.38805718444703
 30
0.0
 11
-325.371882379765
 21
8.20601647324504
 31
0.0
  0
LINE
  5
   484
  8
0
  6
CONTINUOUS
 62
   130
 10
-325.371869207166
 20
8.20601187285803
 30
0.0
 11
-325.166066306851
 21
8.08719312968499
 31
0.0
  0
LINE
  5
   485
  8
0
  6
CONTINUOUS
 62
   130
 10
-325.166082470546
 20
8.08719605729956
 30
0.0
 11
-324.9320507765
 21
8.04593057399337
 31
0.0
  0
LINE
  5
   486
  8
0
  6
CONTINUOUS
 62
   130
 10
-324.932050841545
 20
8.04593077251079
 30
0.0
 11
-324.702627318596
 21
8.04593077251079
 31
0.0
  0
LINE
  5
   487
  8
0
  6
CONTINUOUS
 62
   130
 10
-324.70261511175
 20
8.04593563883722
 30
0.0
 11
-324.615083083265
 21
8.01749326122458
 31
0.0
  0
LINE
  5
   488
  8
0
  6
CONTINUOUS
 62
   130
 10
-324.615084048508
 20
8.01749303187745
 30
0.0
 11
-324.560984021118
 21
7.94303062753382
 31
0.0
  0
LINE
  5
   489
  8
0
  6
CONTINUOUS
 62
   130
 10
-324.560995238518
 20
7.94302597591044
 30
0.0
 11
-324.560995238518
 21
7.8509854371226
 31
0.0
  0
LINE
  5
   48A
  8
0
  6
CONTINUOUS
 62
   130
 10
-324.56098801968
 20
7.85098871854154
 30
0.0
 11
-324.615088047071
 21
7.77652631419792
 31
0.0
  0
LINE
  5
   48B
  8
0
  6
CONTINUOUS
 62
   130
 10
-324.615085545768
 20
7.77652631630098
 30
0.0
 11
-324.702617574254
 21
7.74808393868833
 31
0.0
  0
LINE
  5
   48C
  8
0
  6
CONTINUOUS
 62
   130
 10
-325.535802977776
 20
7.74808064052226
 30
0.0
 11
-324.702627318596
 21
7.74808064052226
 31
0.0
  0
LINE
  5
   48D
  8
0
  6
CONTINUOUS
 62
   130
 10
-325.535802977776
 20
7.74808064052226
 30
0.0
 11
-325.535802977776
 21
7.20068111964824
 31
0.0
  0
LINE
  5
   48E
  8
0
  6
CONTINUOUS
 62
   130
 10
-325.535802977776
 20
7.20068111964824
 30
0.0
 11
-324.702627318596
 21
7.20068111964824
 31
0.0
  0
LINE
  5
   48F
  8
0
  6
CONTINUOUS
 62
   130
 10
-324.464470545362
 20
7.2426754811133
 30
0.0
 11
-324.702622082099
 21
7.20068234412809
 31
0.0
  0
LINE
  5
   490
  8
0
  6
CONTINUOUS
 62
   130
 10
-324.25503808752
 20
7.36359242201708
 30
0.0
 11
-324.464472626431
 21
7.24267651353502
 31
0.0
  0
LINE
  5
   491
  8
0
  6
CONTINUOUS
 62
   130
 10
-324.099580600851
 20
7.54884690768102
 30
0.0
 11
-324.255029513638
 21
7.36359377685979
 31
0.0
  0
LINE
  5
   492
  8
0
  6
CONTINUOUS
 62
   130
 10
-324.016877906895
 20
7.77608758930043
 30
0.0
 11
-324.099588176262
 21
7.54884079636371
 31
0.0
  0
LINE
  5
   493
  8
0
  6
CONTINUOUS
 62
   130
 10
-324.016882079338
 20
8.01792135783793
 30
0.0
 11
-324.016882079338
 21
7.77609005519511
 31
0.0
  0
LINE
  5
   494
  8
0
  6
CONTINUOUS
 62
   130
 10
-324.099588366048
 20
8.24516956241109
 30
0.0
 11
-324.016878096682
 21
8.01792276947437
 31
0.0
  0
LINE
  5
   495
  8
0
  6
CONTINUOUS
 62
   130
 10
-324.255034645123
 20
8.43042762542941
 30
0.0
 11
-324.099585721912
 21
8.24517399112077
 31
0.0
  0
LINE
  5
   496
  8
0
  6
CONTINUOUS
 62
   130
 10
-324.464476968473
 20
8.55133811647903
 30
0.0
 11
-324.255042438925
 21
8.43042269027139
 31
0.0
  0
LINE
  5
   497
  8
0
  6
CONTINUOUS
 62
   130
 10
-324.702615034748
 20
8.59332936572643
 30
0.0
 11
-324.464463501443
 21
8.55133575285096
 31
0.0
  0
LINE
  5
   498
  8
0
  6
CONTINUOUS
 62
   130
 10
-324.932050841545
 20
8.59333077022197
 30
0.0
 11
-324.702627318596
 21
8.59333077022197
 31
0.0
  0
LINE
  5
   499
  8
0
  6
CONTINUOUS
 62
   130
 10
-325.012486745511
 20
8.61946905196188
 30
0.0
 11
-324.932042410738
 21
8.59333313153031
 31
0.0
  0
LINE
  5
   49A
  8
0
  6
CONTINUOUS
 62
   130
 10
-325.062205372641
 20
8.68789048630251
 30
0.0
 11
-325.012492237849
 21
8.61946530534091
 31
0.0
  0
LINE
  5
   49B
  8
0
  6
CONTINUOUS
 62
   130
 10
-325.062208312248
 20
8.77246943065288
 30
0.0
 11
-325.062208312248
 21
8.68789187022807
 31
0.0
  0
LINE
  5
   49C
  8
0
  6
CONTINUOUS
 62
   130
 10
-325.012484853912
 20
8.84089230315924
 30
0.0
 11
-325.062197988704
 21
8.77246712219764
 31
0.0
  0
LINE
  5
   49D
  8
0
  6
CONTINUOUS
 62
   130
 10
-324.932039305444
 20
8.86703426974873
 30
0.0
 11
-325.012483640217
 21
8.84089834931715
 31
0.0
  0
LINE
  5
   49E
  8
0
  6
CONTINUOUS
 62
   130
 10
-324.932050841545
 20
8.86703053065898
 30
0.0
 11
-324.086805480217
 21
8.86703053065898
 31
0.0
  0
LINE
  5
   49F
  8
0
  6
CONTINUOUS
 62
   130
 10
-324.086805480217
 20
9.41443052837016
 30
0.0
 11
-324.086805480217
 21
8.86703053065898
 31
0.0
  0
LINE
  5
   4A0
  8
0
  6
CONTINUOUS
 62
   130
 10
-324.932050841545
 20
9.41443052837016
 30
0.0
 11
-324.086805480217
 21
9.41443052837016
 31
0.0
  0
LINE
  5
   4A1
  8
0
  6
CONTINUOUS
 62
   130
 10
-324.006307738518
 20
7.20068111964824
 30
0.0
 11
-323.436208861565
 21
7.20068111964824
 31
0.0
  0
LINE
  5
   4A2
  8
0
  6
CONTINUOUS
 62
   130
 10
-323.307403481678
 20
7.64343219947548
 30
0.0
 11
-323.436202916226
 21
7.20068270374427
 31
0.0
  0
LINE
  5
   4A3
  8
0
  6
CONTINUOUS
 62
   130
 10
-323.307409423088
 20
7.6434306199229
 30
0.0
 11
-322.692693846916
 21
7.6434306199229
 31
0.0
  0
LINE
  5
   4A4
  8
0
  6
CONTINUOUS
 62
   130
 10
-322.692689132531
 20
7.64343180030764
 30
0.0
 11
-322.563889697982
 21
7.2006823045764
 31
0.0
  0
LINE
  5
   4A5
  8
0
  6
CONTINUOUS
 62
   130
 10
-322.56389440844
 20
7.20068111964824
 30
0.0
 11
-321.993803160881
 21
7.20068111964824
 31
0.0
  0
LINE
  5
   4A6
  8
0
  6
CONTINUOUS
 62
   130
 10
-322.637802544823
 20
9.414430866696
 30
0.0
 11
-321.993797554103
 21
7.20068089715751
 31
0.0
  0
LINE
  5
   4A7
  8
0
  6
CONTINUOUS
 62
   130
 10
-323.362302916741
 20
9.41443052837016
 30
0.0
 11
-322.637807982659
 21
9.41443052837016
 31
0.0
  0
LINE
  5
   4A8
  8
0
  6
CONTINUOUS
 62
   130
 10
-323.362299850094
 20
9.41442209536306
 30
0.0
 11
-324.006304840813
 21
7.20067212582459
 31
0.0
  0
LINE
  5
   4A9
  8
0
  6
CONTINUOUS
 62
   130
 10
-323.000047253056
 20
8.69997285529201
 30
0.0
 11
-322.851937741571
 21
8.1908306840085
 31
0.0
  0
LINE
  5
   4AA
  8
0
  6
CONTINUOUS
 62
   130
 10
-323.148168700432
 20
8.19083061763408
 30
0.0
 11
-322.851942198967
 21
8.19083061763408
 31
0.0
  0
LINE
  5
   4AB
  8
0
  6
CONTINUOUS
 62
   130
 10
-323.000042712341
 20
8.69997335376374
 30
0.0
 11
-323.148159766656
 21
8.19083146264026
 31
0.0
  0
LINE
  5
   4AC
  8
0
  6
CONTINUOUS
 62
   130
 10
-320.126432774642
 20
9.11181475880024
 30
0.0
 11
-319.930647259078
 21
8.86498142577791
 31
0.0
  0
LINE
  5
   4AD
  8
0
  6
CONTINUOUS
 62
   130
 10
-320.383814930915
 20
9.29348824749498
 30
0.0
 11
-320.126429692885
 21
9.11181044310471
 31
0.0
  0
LINE
  5
   4AE
  8
0
  6
CONTINUOUS
 62
   130
 10
-320.681967718371
 20
9.39528754360883
 30
0.0
 11
-320.383818612033
 21
9.29348425120005
 31
0.0
  0
LINE
  5
   4AF
  8
0
  6
CONTINUOUS
 62
   130
 10
-320.996717744322
 20
9.40897081956177
 30
0.0
 11
-320.681967064536
 21
9.39528893058922
 31
0.0
  0
LINE
  5
   4B0
  8
0
  6
CONTINUOUS
 62
   130
 10
-320.996723334813
 20
9.40897139410576
 30
0.0
 11
-321.302585761327
 21
9.33342322616089
 31
0.0
  0
LINE
  5
   4B1
  8
0
  6
CONTINUOUS
 62
   130
 10
-321.302580963815
 20
9.33342676380544
 30
0.0
 11
-321.574759597689
 21
9.17476873830831
 31
0.0
  0
LINE
  5
   4B2
  8
0
  6
CONTINUOUS
 62
   130
 10
-321.574763843442
 20
9.17476392448097
 30
0.0
 11
-321.791225022793
 21
8.94584966577815
 31
0.0
  0
LINE
  5
   4B3
  8
0
  6
CONTINUOUS
 62
   130
 10
-321.79121976348
 20
8.94585416126004
 30
0.0
 11
-321.934415853069
 21
8.66522929924239
 31
0.0
  0
LINE
  5
   4B4
  8
0
  6
CONTINUOUS
 62
   130
 10
-321.934418346407
 20
8.66522465961236
 30
0.0
 11
-321.992752696973
 21
8.35562334469112
 31
0.0
  0
LINE
  5
   4B5
  8
0
  6
CONTINUOUS
 62
   130
 10
-321.992752075129
 20
8.35562523265272
 30
0.0
 11
-321.961502090083
 21
8.04212960104412
 31
0.0
  0
LINE
  5
   4B6
  8
0
  6
CONTINUOUS
 62
   130
 10
-321.961504518244
 20
8.04213033687165
 30
0.0
 11
-321.843195511782
 21
7.7501381644755
 31
0.0
  0
LINE
  5
   4B7
  8
0
  6
CONTINUOUS
 62
   130
 10
-321.843194928765
 20
7.75014070674909
 30
0.0
 11
-321.667161903219
 21
7.52244380175803
 31
0.0
  0
LINE
  5
   4B8
  8
0
  6
CONTINUOUS
 62
   130
 10
-321.667158883609
 20
7.52243858305385
 30
0.0
 11
-321.438368602077
 21
7.3478241480874
 31
0.0
  0
LINE
  5
   4B9
  8
0
  6
CONTINUOUS
 62
   130
 10
-321.438373268652
 20
7.34782667646962
 30
0.0
 11
-321.172298139274
 21
7.23810072646112
 31
0.0
  0
LINE
  5
   4BA
  8
0
  6
CONTINUOUS
 62
   130
 10
-321.172295297277
 20
7.23809939585402
 30
0.0
 11
-320.886925430103
 21
7.20068103193449
 31
0.0
  0
LINE
  5
   4BB
  8
0
  6
CONTINUOUS
 62
   130
 10
-320.60155144988
 20
7.23810046521713
 30
0.0
 11
-320.886921317054
 21
7.20068210129759
 31
0.0
  0
LINE
  5
   4BC
  8
0
  6
CONTINUOUS
 62
   130
 10
-320.335485396573
 20
7.34782551024147
 30
0.0
 11
-320.601560525951
 21
7.23809956023297
 31
0.0
  0
LINE
  5
   4BD
  8
0
  6
CONTINUOUS
 62
   130
 10
-320.106687446415
 20
7.52244570940353
 30
0.0
 11
-320.335477727946
 21
7.34783127443708
 31
0.0
  0
LINE
  5
   4BE
  8
0
  6
CONTINUOUS
 62
   130
 10
-319.930648686782
 20
7.75013741768396
 30
0.0
 11
-320.106689334316
 21
7.52244052796444
 31
0.0
  0
LINE
  5
   4BF
  8
0
  6
CONTINUOUS
 62
   130
 10
-320.403570374626
 20
8.02580815490192
 30
0.0
 11
-319.93064714767
 21
7.75013909476628
 31
0.0
  0
LINE
  5
   4C0
  8
0
  6
CONTINUOUS
 62
   130
 10
-320.403578892526
 20
8.02580270324225
 30
0.0
 11
-320.528494977414
 21
7.87797458899215
 31
0.0
  0
LINE
  5
   4C1
  8
0
  6
CONTINUOUS
 62
   130
 10
-320.528492627136
 20
7.87797862670337
 30
0.0
 11
-320.696308821771
 21
7.78155736702645
 31
0.0
  0
LINE
  5
   4C2
  8
0
  6
CONTINUOUS
 62
   130
 10
-320.696304233471
 20
7.78155663627065
 30
0.0
 11
-320.886924679493
 21
7.74808076112337
 31
0.0
  0
LINE
  5
   4C3
  8
0
  6
CONTINUOUS
 62
   130
 10
-321.077554616932
 20
7.78155685045772
 30
0.0
 11
-320.886934170911
 21
7.74808097531044
 31
0.0
  0
LINE
  5
   4C4
  8
0
  6
CONTINUOUS
 62
   130
 10
-321.245367228742
 20
7.87797994354437
 30
0.0
 11
-321.077551034107
 21
7.78155868386744
 31
0.0
  0
LINE
  5
   4C5
  8
0
  6
CONTINUOUS
 62
   130
 10
-321.370282675223
 20
8.02580899733061
 30
0.0
 11
-321.245366590335
 21
7.8779808830805
 31
0.0
  0
LINE
  5
   4C6
  8
0
  6
CONTINUOUS
 62
   130
 10
-321.441305984013
 20
8.2322253357428
 30
0.0
 11
-321.370276321033
 21
8.02580776871372
 31
0.0
  0
LINE
  5
   4C7
  8
0
  6
CONTINUOUS
 62
   130
 10
-321.427929340603
 20
8.45010755428737
 30
0.0
 11
-321.441303670779
 21
8.23222108389606
 31
0.0
  0
LINE
  5
   4C8
  8
0
  6
CONTINUOUS
 62
   130
 10
-321.332196007036
 20
8.64629568276269
 30
0.0
 11
-321.427929654322
 21
8.4501119916256
 31
0.0
  0
LINE
  5
   4C9
  8
0
  6
CONTINUOUS
 62
   130
 10
-321.168674938351
 20
8.79091004499182
 30
0.0
 11
-321.332203393581
 21
8.64629580357354
 31
0.0
  0
LINE
  5
   4CA
  8
0
  6
CONTINUOUS
 62
   130
 10
-320.962260112352
 20
8.86193661739055
 30
0.0
 11
-321.168673381384
 21
8.79090886848848
 31
0.0
  0
LINE
  5
   4CB
  8
0
  6
CONTINUOUS
 62
   130
 10
-320.962263723012
 20
8.86193457491754
 30
0.0
 11
-320.744375777846
 21
8.84856358085952
 31
0.0
  0
LINE
  5
   4CC
  8
0
  6
CONTINUOUS
 62
   130
 10
-320.744369783461
 20
8.84856173320675
 30
0.0
 11
-320.548187508075
 21
8.75282664625783
 31
0.0
  0
LINE
  5
   4CD
  8
0
  6
CONTINUOUS
 62
   130
 10
-320.548184882324
 20
8.75283830205924
 30
0.0
 11
-320.403569697948
 21
8.58931462317232
 31
0.0
  0
LINE
  5
   4CE
  8
0
  6
CONTINUOUS
 62
   130
 10
-319.93064360967
 20
8.86498156063832
 30
0.0
 11
-320.403566836627
 21
8.58931250050267
 31
0.0
  0
LINE
  5
   4CF
  8
0
  6
CONTINUOUS
 62
   130
 10
-319.729406493401
 20
9.414430051533
 30
0.0
 11
-319.729406493401
 21
7.20068111964824
 31
0.0
  0
LINE
  5
   4D0
  8
0
  6
CONTINUOUS
 62
   130
 10
-319.729406493401
 20
7.20068111964824
 30
0.0
 11
-318.280408995842
 21
7.20068111964824
 31
0.0
  0
LINE
  5
   4D1
  8
0
  6
CONTINUOUS
 62
   130
 10
-318.280408995842
 20
7.74808064052226
 30
0.0
 11
-318.280408995842
 21
7.20068111964824
 31
0.0
  0
LINE
  5
   4D2
  8
0
  6
CONTINUOUS
 62
   130
 10
-319.182005065178
 20
7.74808064052226
 30
0.0
 11
-318.280408995842
 21
7.74808064052226
 31
0.0
  0
LINE
  5
   4D3
  8
0
  6
CONTINUOUS
 62
   130
 10
-319.182005065178
 20
8.03385582515361
 30
0.0
 11
-319.182005065178
 21
7.74808064052226
 31
0.0
  0
LINE
  5
   4D4
  8
0
  6
CONTINUOUS
 62
   130
 10
-319.182005065178
 20
8.03385582515361
 30
0.0
 11
-318.401159423088
 21
8.03385582515361
 31
0.0
  0
LINE
  5
   4D5
  8
0
  6
CONTINUOUS
 62
   130
 10
-318.401159423088
 20
8.58125582286479
 30
0.0
 11
-318.401159423088
 21
8.03385582515361
 31
0.0
  0
LINE
  5
   4D6
  8
0
  6
CONTINUOUS
 62
   130
 10
-319.182005065178
 20
8.58125582286479
 30
0.0
 11
-318.401159423088
 21
8.58125582286479
 31
0.0
  0
LINE
  5
   4D7
  8
0
  6
CONTINUOUS
 62
   130
 10
-319.182005065178
 20
8.86703050085666
 30
0.0
 11
-319.182005065178
 21
8.58125582286479
 31
0.0
  0
LINE
  5
   4D8
  8
0
  6
CONTINUOUS
 62
   130
 10
-319.182005065178
 20
8.86703053065898
 30
0.0
 11
-318.280408995842
 21
8.86703053065898
 31
0.0
  0
LINE
  5
   4D9
  8
0
  6
CONTINUOUS
 62
   130
 10
-318.280408995842
 20
9.41443052837016
 30
0.0
 11
-318.280408995842
 21
8.86703053065898
 31
0.0
  0
LINE
  5
   4DA
  8
0
  6
CONTINUOUS
 62
   130
 10
-319.729406493401
 20
9.41443052837016
 30
0.0
 11
-318.280408995842
 21
9.41443052837016
 31
0.0
  0
LINE
  5
   4DB
  8
0
  6
CONTINUOUS
 62
   130
 10
-374.702897366131
 20
9.61920661029177
 30
0.0
 11
-375.156754678849
 21
8.32245397686982
 31
0.0
  0
LINE
  5
   4DC
  8
0
  6
CONTINUOUS
 62
   130
 10
-375.156762400091
 20
8.32245780527592
 30
0.0
 11
-374.337151804388
 21
8.32245780527592
 31
0.0
  0
LINE
  5
   4DD
  8
0
  6
CONTINUOUS
 62
   130
 10
-374.702904978216
 20
9.61921073496342
 30
0.0
 11
-374.337151804388
 21
9.61921073496342
 31
0.0
  0
LINE
  5
   4DE
  8
0
  6
CONTINUOUS
 62
   130
 10
-375.633904734075
 20
6.95921422541142
 30
0.0
 11
-374.968903818548
 21
6.95921422541142
 31
0.0
  0
LINE
  5
   4DF
  8
0
  6
CONTINUOUS
 62
   130
 10
-374.782695208442
 20
7.49121233603104
 30
0.0
 11
-374.968898204102
 21
6.95921272309183
 31
0.0
  0
LINE
  5
   4E0
  8
0
  6
CONTINUOUS
 62
   130
 10
-374.782700815618
 20
7.49121381342411
 30
0.0
 11
-374.337151804388
 21
7.49121381342411
 31
0.0
  0
LINE
  5
   4E1
  8
0
  6
CONTINUOUS
 62
   130
 10
-375.180039682806
 20
8.25596000254154
 30
0.0
 11
-374.337151804388
 21
8.25596000254154
 31
0.0
  0
LINE
  5
   4E2
  8
0
  6
CONTINUOUS
 62
   130
 10
-375.180034376104
 20
8.25595730494829
 30
0.0
 11
-375.633899291745
 21
6.95921179746468
 31
0.0
  0
LINE
  5
   4E3
  8
0
  6
CONTINUOUS
 62
   130
 10
-373.427751907117
 20
8.25595712622653
 30
0.0
 11
-372.973886991477
 21
6.95921161874291
 31
0.0
  0
LINE
  5
   4E4
  8
0
  6
CONTINUOUS
 62
   130
 10
-374.270654001654
 20
8.25596000254154
 30
0.0
 11
-373.427766123236
 21
8.25596000254154
 31
0.0
  0
LINE
  5
   4E5
  8
0
  6
CONTINUOUS
 62
   130
 10
-374.270654001654
 20
8.25596000254154
 30
0.0
 11
-374.270654001654
 21
7.49121381342411
 31
0.0
  0
LINE
  5
   4E6
  8
0
  6
CONTINUOUS
 62
   130
 10
-374.270654001654
 20
7.49121381342411
 30
0.0
 11
-373.825104990423
 21
7.49121381342411
 31
0.0
  0
LINE
  5
   4E7
  8
0
  6
CONTINUOUS
 62
   130
 10
-373.825093407447
 20
7.49121465329208
 30
0.0
 11
-373.638890411788
 21
6.95921504035286
 31
0.0
  0
LINE
  5
   4E8
  8
0
  6
CONTINUOUS
 62
   130
 10
-373.638901987493
 20
6.95921422541142
 30
0.0
 11
-372.973901071966
 21
6.95921422541142
 31
0.0
  0
LINE
  5
   4E9
  8
0
  6
CONTINUOUS
 62
   130
 10
-374.270654001654
 20
9.61921073496342
 30
0.0
 11
-373.904900827825
 21
9.61921073496342
 31
0.0
  0
LINE
  5
   4EA
  8
0
  6
CONTINUOUS
 62
   130
 10
-374.270654001654
 20
9.61921073496342
 30
0.0
 11
-374.270654001654
 21
8.32245780527592
 31
0.0
  0
LINE
  5
   4EB
  8
0
  6
CONTINUOUS
 62
   130
 10
-374.270654001654
 20
8.32245780527592
 30
0.0
 11
-373.451035776556
 21
8.32245780527592
 31
0.0
  0
LINE
  5
   4EC
  8
0
  6
CONTINUOUS
 62
   130
 10
-373.904893190876
 20
9.61920810408945
 30
0.0
 11
-373.451028241345
 21
8.32245528181675
 31
0.0
  0
LINE
  5
   4ED
  8
0
  6
CONTINUOUS
 62
   130
 10
-372.807648935736
 20
8.32245780527592
 30
0.0
 11
-372.042901316107
 21
8.32245780527592
 31
0.0
  0
LINE
  5
   4EE
  8
0
  6
CONTINUOUS
 62
   130
 10
-372.042901316107
 20
9.61921073496342
 30
0.0
 11
-372.042901316107
 21
8.32245780527592
 31
0.0
  0
LINE
  5
   4EF
  8
0
  6
CONTINUOUS
 62
   130
 10
-372.807648935736
 20
9.61921073496342
 30
0.0
 11
-372.042901316107
 21
9.61921073496342
 31
0.0
  0
LINE
  5
   4F0
  8
0
  6
CONTINUOUS
 62
   130
 10
-372.807648935736
 20
6.95921422541142
 30
0.0
 11
-372.042901316107
 21
6.95921422541142
 31
0.0
  0
LINE
  5
   4F1
  8
0
  6
CONTINUOUS
 62
   130
 10
-372.042901316107
 20
8.25596000254154
 30
0.0
 11
-372.042901316107
 21
6.95921422541142
 31
0.0
  0
LINE
  5
   4F2
  8
0
  6
CONTINUOUS
 62
   130
 10
-372.807648935736
 20
8.25596000254154
 30
0.0
 11
-372.042901316107
 21
8.25596000254154
 31
0.0
  0
LINE
  5
   4F3
  8
0
  6
CONTINUOUS
 62
   130
 10
-370.746156015814
 20
9.61921073496342
 30
0.0
 11
-370.746156015814
 21
8.32245780527592
 31
0.0
  0
LINE
  5
   4F4
  8
0
  6
CONTINUOUS
 62
   130
 10
-370.746156015814
 20
8.32245780527592
 30
0.0
 11
-369.98140076679
 21
8.32245780527592
 31
0.0
  0
LINE
  5
   4F5
  8
0
  6
CONTINUOUS
 62
   130
 10
-369.98140076679
 20
9.61921073496342
 30
0.0
 11
-369.98140076679
 21
8.32245780527592
 31
0.0
  0
LINE
  5
   4F6
  8
0
  6
CONTINUOUS
 62
   130
 10
-370.746156015814
 20
9.61921073496342
 30
0.0
 11
-369.98140076679
 21
9.61921073496342
 31
0.0
  0
LINE
  5
   4F7
  8
0
  6
CONTINUOUS
 62
   130
 10
-370.746156015814
 20
6.95921422541142
 30
0.0
 11
-369.98140076679
 21
6.95921422541142
 31
0.0
  0
LINE
  5
   4F8
  8
0
  6
CONTINUOUS
 62
   130
 10
-369.98140076679
 20
8.25596000254154
 30
0.0
 11
-369.98140076679
 21
6.95921422541142
 31
0.0
  0
LINE
  5
   4F9
  8
0
  6
CONTINUOUS
 62
   130
 10
-370.746156015814
 20
8.25596000254154
 30
0.0
 11
-369.98140076679
 21
8.25596000254154
 31
0.0
  0
LINE
  5
   4FA
  8
0
  6
CONTINUOUS
 62
   130
 10
-370.746156015814
 20
8.25596000254154
 30
0.0
 11
-370.746156015814
 21
6.95921422541142
 31
0.0
  0
LINE
  5
   4FB
  8
0
  6
CONTINUOUS
 62
   130
 10
-369.914902964056
 20
9.61921073496342
 30
0.0
 11
-369.701165476263
 21
9.61921073496342
 31
0.0
  0
LINE
  5
   4FC
  8
0
  6
CONTINUOUS
 62
   130
 10
-369.914902964056
 20
9.61921073496342
 30
0.0
 11
-369.914902964056
 21
8.32245780527592
 31
0.0
  0
LINE
  5
   4FD
  8
0
  6
CONTINUOUS
 62
   130
 10
-369.914902964056
 20
8.32245780527592
 30
0.0
 11
-369.140725412786
 21
8.32245780527592
 31
0.0
  0
LINE
  5
   4FE
  8
0
  6
CONTINUOUS
 62
   130
 10
-369.254940515399
 20
8.40859602718999
 30
0.0
 11
-369.140728463644
 21
8.32246014999417
 31
0.0
  0
LINE
  5
   4FF
  8
0
  6
CONTINUOUS
 62
   130
 10
-369.382902999264
 20
8.47252046186963
 30
0.0
 11
-369.254935146072
 21
8.40859375922413
 31
0.0
  0
LINE
  5
   500
  8
0
  6
CONTINUOUS
 62
   130
 10
-369.230580591631
 20
8.60185010015842
 30
0.0
 11
-369.382901439205
 21
8.47251662260329
 31
0.0
  0
LINE
  5
   501
  8
0
  6
CONTINUOUS
 62
   130
 10
-369.127533454505
 20
8.77305225549308
 30
0.0
 11
-369.230576045609
 21
8.6018486479257
 31
0.0
  0
LINE
  5
   502
  8
0
  6
CONTINUOUS
 62
   130
 10
-369.084559435883
 20
8.96818986960548
 30
0.0
 11
-369.127535810145
 21
8.77305286898343
 31
0.0
  0
LINE
  5
   503
  8
0
  6
CONTINUOUS
 62
   130
 10
-369.106144562942
 20
9.16684659861958
 30
0.0
 11
-369.084561012208
 21
8.96819238189578
 31
0.0
  0
LINE
  5
   504
  8
0
  6
CONTINUOUS
 62
   130
 10
-369.190035214995
 20
9.34820171495978
 30
0.0
 11
-369.106150009011
 21
9.16685098495017
 31
0.0
  0
LINE
  5
   505
  8
0
  6
CONTINUOUS
 62
   130
 10
-369.327443572649
 20
9.49328391272722
 30
0.0
 11
-369.1900381641
 21
9.34820333721736
 31
0.0
  0
LINE
  5
   506
  8
0
  6
CONTINUOUS
 62
   130
 10
-369.503972676534
 20
9.58686843502117
 30
0.0
 11
-369.327436108973
 21
9.49327101524184
 31
0.0
  0
LINE
  5
   507
  8
0
  6
CONTINUOUS
 62
   130
 10
-369.914902964056
 20
8.25596000254154
 30
0.0
 11
-369.075745859564
 21
8.25596000254154
 31
0.0
  0
LINE
  5
   508
  8
0
  6
CONTINUOUS
 62
   130
 10
-369.914902964056
 20
8.25596000254154
 30
0.0
 11
-369.914902964056
 21
6.95921422541142
 31
0.0
  0
LINE
  5
   509
  8
0
  6
CONTINUOUS
 62
   130
 10
-369.914902964056
 20
6.95921422541142
 30
0.0
 11
-369.667588510931
 21
6.95921422541142
 31
0.0
  0
LINE
  5
   50A
  8
0
  6
CONTINUOUS
 62
   130
 10
-369.446821107694
 20
6.99096010479273
 30
0.0
 11
-369.667585291673
 21
6.95921276635299
 31
0.0
  0
LINE
  5
   50B
  8
0
  6
CONTINUOUS
 62
   130
 10
-369.243949080578
 20
7.08362961250665
 30
0.0
 11
-369.446822323182
 21
6.99096060084088
 31
0.0
  0
LINE
  5
   50C
  8
0
  6
CONTINUOUS
 62
   130
 10
-369.075417630322
 20
7.22970948593113
 30
0.0
 11
-369.243950971111
 21
7.08362898726494
 31
0.0
  0
LINE
  5
   50D
  8
0
  6
CONTINUOUS
 62
   130
 10
-368.954871875652
 20
7.41736267593302
 30
0.0
 11
-369.075416308672
 21
7.22971009028163
 31
0.0
  0
LINE
  5
   50E
  8
0
  6
CONTINUOUS
 62
   130
 10
-368.892088774431
 20
7.63137559732
 30
0.0
 11
-368.954863430916
 21
7.41736012407145
 31
0.0
  0
LINE
  5
   50F
  8
0
  6
CONTINUOUS
 62
   130
 10
-368.892164025458
 20
7.8544134071271
 30
0.0
 11
-368.89209536091
 21
7.6313799683652
 31
0.0
  0
LINE
  5
   510
  8
0
  6
CONTINUOUS
 62
   130
 10
-368.955074551604
 20
8.06839084066753
 30
0.0
 11
-368.892162568997
 21
7.85441492343848
 31
0.0
  0
LINE
  5
   511
  8
0
  6
CONTINUOUS
 62
   130
 10
-369.07574402394
 20
8.25595720311943
 30
0.0
 11
-368.955077521328
 21
8.06838568051028
 31
0.0
  0
LINE
  5
   512
  8
0
  6
CONTINUOUS
 62
   130
 10
-371.976403513372
 20
9.61921073496342
 30
0.0
 11
-371.762658396185
 21
9.61921073496342
 31
0.0
  0
LINE
  5
   513
  8
0
  6
CONTINUOUS
 62
   130
 10
-371.976403513372
 20
9.61921073496342
 30
0.0
 11
-371.976403513372
 21
8.32245780527592
 31
0.0
  0
LINE
  5
   514
  8
0
  6
CONTINUOUS
 62
   130
 10
-371.976403513372
 20
8.32245780527592
 30
0.0
 11
-371.202225962103
 21
8.32245780527592
 31
0.0
  0
LINE
  5
   515
  8
0
  6
CONTINUOUS
 62
   130
 10
-371.316436104692
 20
8.40859214543543
 30
0.0
 11
-371.202224052937
 21
8.32245626823961
 31
0.0
  0
LINE
  5
   516
  8
0
  6
CONTINUOUS
 62
   130
 10
-371.444405026939
 20
8.47252061064409
 30
0.0
 11
-371.316437173747
 21
8.4085939079986
 31
0.0
  0
LINE
  5
   517
  8
0
  6
CONTINUOUS
 62
   130
 10
-371.29208227082
 20
8.60185408875086
 30
0.0
 11
-371.444403118393
 21
8.47252061119571
 31
0.0
  0
LINE
  5
   518
  8
0
  6
CONTINUOUS
 62
   130
 10
-371.189037096639
 20
8.77305453329838
 30
0.0
 11
-371.292079687743
 21
8.601850925731
 31
0.0
  0
LINE
  5
   519
  8
0
  6
CONTINUOUS
 62
   130
 10
-371.146053609343
 20
8.96819070841613
 30
0.0
 11
-371.189037614549
 21
8.77305369640594
 31
0.0
  0
LINE
  5
   51A
  8
0
  6
CONTINUOUS
 62
   130
 10
-371.167636605802
 20
9.16684989859007
 30
0.0
 11
-371.146053055068
 21
8.96819568186626
 31
0.0
  0
LINE
  5
   51B
  8
0
  6
CONTINUOUS
 62
   130
 10
-371.251532730571
 20
9.3481956495889
 30
0.0
 11
-371.167639902349
 21
9.16684492821399
 31
0.0
  0
LINE
  5
   51C
  8
0
  6
CONTINUOUS
 62
   130
 10
-371.388941033023
 20
9.49328739019189
 30
0.0
 11
-371.251535624474
 21
9.34820681468204
 31
0.0
  0
LINE
  5
   51D
  8
0
  6
CONTINUOUS
 62
   130
 10
-371.565478209106
 20
9.58687084836437
 30
0.0
 11
-371.388941641546
 21
9.49327342858505
 31
0.0
  0
LINE
  5
   51E
  8
0
  6
CONTINUOUS
 62
   130
 10
-371.762659021389
 20
9.61921123563191
 30
0.0
 11
-371.565477278017
 21
9.58687786263394
 31
0.0
  0
LINE
  5
   51F
  8
0
  6
CONTINUOUS
 62
   130
 10
-371.976403513372
 20
8.25596000254154
 30
0.0
 11
-371.13724640888
 21
8.25596000254154
 31
0.0
  0
LINE
  5
   520
  8
0
  6
CONTINUOUS
 62
   130
 10
-371.976403513372
 20
8.25596000254154
 30
0.0
 11
-371.976403513372
 21
6.95921422541142
 31
0.0
  0
LINE
  5
   521
  8
0
  6
CONTINUOUS
 62
   130
 10
-371.976403513372
 20
6.95921422541142
 30
0.0
 11
-371.729089060247
 21
6.95921422541142
 31
0.0
  0
LINE
  5
   522
  8
0
  6
CONTINUOUS
 62
   130
 10
-371.508324242211
 20
6.99095519870488
 30
0.0
 11
-371.72908842619
 21
6.95920786026514
 31
0.0
  0
LINE
  5
   523
  8
0
  6
CONTINUOUS
 62
   130
 10
-371.305449415442
 20
7.08362830516084
 30
0.0
 11
-371.508322658045
 21
6.99095929349508
 31
0.0
  0
LINE
  5
   524
  8
0
  6
CONTINUOUS
 62
   130
 10
-371.136917603903
 20
7.2297085115615
 30
0.0
 11
-371.305450944692
 21
7.08362801289532
 31
0.0
  0
LINE
  5
   525
  8
0
  6
CONTINUOUS
 62
   130
 10
-371.016373458587
 20
7.4173629323097
 30
0.0
 11
-371.136917891607
 21
7.2297103466583
 31
0.0
  0
LINE
  5
   526
  8
0
  6
CONTINUOUS
 62
   130
 10
-370.953585936785
 20
7.63137842683392
 30
0.0
 11
-371.016368229097
 21
7.41736293050422
 31
0.0
  0
LINE
  5
   527
  8
0
  6
CONTINUOUS
 62
   130
 10
-370.953666920117
 20
7.8544136388727
 30
0.0
 11
-370.953590626209
 21
7.63138019763148
 31
0.0
  0
LINE
  5
   528
  8
0
  6
CONTINUOUS
 62
   130
 10
-371.016573237995
 20
8.06839073861392
 30
0.0
 11
-370.953661255388
 21
7.85441482138486
 31
0.0
  0
LINE
  5
   529
  8
0
  6
CONTINUOUS
 62
   130
 10
-371.137242575947
 20
8.25595771314975
 30
0.0
 11
-371.016576073335
 21
8.06838619054061
 31
0.0
  0
LINE
  5
   52A
  8
0
  6
CONTINUOUS
 62
   130
 10
-372.807648935736
 20
9.61921073496342
 30
0.0
 11
-372.807648935736
 21
6.95921422541142
 31
0.0
  0
LINE
  5
   52B
  8
0
  6
CONTINUOUS
 62
   130
 10
-378.331692581177
 20
5.25532054900619
 30
0.0
 11
-350.331680088044
 21
5.25532054900619
 31
0.0
  0
LINE
  5
   52C
  8
0
  6
CONTINUOUS
 62
   130
 10
-349.831680164338
 20
7.25532054900619
 30
0.0
 11
-349.831680049897
 21
4.25532054900619
 31
0.0
  0
LINE
  5
   52D
  8
0
  6
CONTINUOUS
 62
   130
 10
-328.831649913789
 20
7.25532054900619
 30
0.0
 11
-328.83165002823
 21
4.25532054900619
 31
0.0
  0
LINE
  5
   52E
  8
0
  6
CONTINUOUS
 62
   130
 10
-349.831680164338
 20
7.25532054900619
 30
0.0
 11
-328.831649913789
 21
7.25532054900619
 31
0.0
  0
LINE
  5
   52F
  8
0
  6
CONTINUOUS
 62
   130
 10
-328.331649990083
 20
5.25532054900618
 30
0.0
 11
-300.331692581176
 21
5.25532054900618
 31
0.0
  0
LINE
  5
   530
  8
0
  6
CONTINUOUS
 62
   130
 10
-350.331680183412
 20
7.75532054900619
 30
0.0
 11
-328.331649894715
 21
7.75532054900619
 31
0.0
  0
LINE
  5
   531
  8
0
  6
CONTINUOUS
 62
   130
 10
-328.331649894715
 20
7.75532054900619
 30
0.0
 11
-328.33165002823
 21
4.25532054900619
 31
0.0
  0
LINE
  5
   532
  8
0
  6
CONTINUOUS
 62
   130
 10
-350.331680183412
 20
7.75532054900619
 30
0.0
 11
-350.331680049897
 21
4.25532054900619
 31
0.0
  0
LINE
  5
   533
  8
0
  6
CONTINUOUS
 62
   130
 10
-302.831654281622
 20
56.2552935247077
 30
0.0
 11
-302.831655883797
 21
45.7552782659186
 31
0.0
  0
LINE
  5
   534
  8
0
  6
CONTINUOUS
 62
   130
 10
-400.831675796505
 20
56.2552935247077
 30
0.0
 11
-400.83167419433
 21
45.7552782659186
 31
0.0
  0
LINE
  5
   535
  8
0
  6
CONTINUOUS
 62
   130
 10
-302.831654281624
 20
-55.7446912165033
 30
0.0
 11
-302.831653823859
 21
-58.7447063227045
 31
0.0
  0
INSERT
  5
   536
  8
0
  6
CONTINUOUS
 62
   130
  2
SSS
 10
-326.831583084669
 20
-49.7446621042628
 30
0.0
 50
359.999999792138
  0
INSERT
  5
   537
  8
0
  6
CONTINUOUS
 62
   130
  2
SSS
 10
-351.83162889836
 20
50.2553559251153
 30
0.0
 50
359.999999792138
  0
CIRCLE
  5
   538
  8
0
  6
CONTINUOUS
 62
   130
 10
-326.831583084669
 20
-49.7446621042628
 30
0.0
 40
4.4999575073053
  0
LINE
  5
   539
  8
0
  6
CONTINUOUS
 62
   130
 10
-328.831651016689
 20
-21.6565302456229
 30
0.0
 11
-328.83165113113
 21
-24.6565302456229
 31
0.0
  0
LINE
  5
   53A
  8
0
  6
CONTINUOUS
 62
   130
 10
-349.831679061438
 20
-21.6565302456229
 30
0.0
 11
-349.831678946997
 21
-24.6565302456229
 31
0.0
  0
LINE
  5
   53B
  8
0
  6
CONTINUOUS
 62
   130
 10
-349.831679061438
 20
-21.6565302456229
 30
0.0
 11
-346.831679061438
 21
-21.6565302456229
 31
0.0
  0
LINE
  5
   53C
  8
0
  6
CONTINUOUS
 62
   130
 10
-331.831651016689
 20
-21.6565302456229
 30
0.0
 11
-328.831651016689
 21
-21.6565302456229
 31
0.0
  0
LINE
  5
   53D
  8
0
  6
CONTINUOUS
 62
   130
 10
-349.831678946997
 20
-24.6565302456229
 30
0.0
 11
-345.831678946997
 21
-24.6565302456229
 31
0.0
  0
LINE
  5
   53E
  8
0
  6
CONTINUOUS
 62
   130
 10
-332.83165113113
 20
-24.6565302456229
 30
0.0
 11
-328.83165113113
 21
-24.6565302456229
 31
0.0
  0
CIRCLE
  5
   53F
  8
0
  6
CONTINUOUS
 62
   130
 10
-389.331694834884
 20
-50.9447183418034
 30
0.0
 40
3.0
  0
CIRCLE
  5
   540
  8
0
  6
CONTINUOUS
 62
   130
 10
-389.331679270922
 20
-56.744694709776
 30
0.0
 40
1.25
  0
CIRCLE
  5
   541
  8
0
  6
CONTINUOUS
 62
   130
 10
-376.831583084669
 20
-49.7446621042628
 30
0.0
 40
4.4999575073053
  0
LINE
  5
   542
  8
0
  6
CONTINUOUS
 62
   130
 10
-379.331679344177
 20
-56.244694709776
 30
0.0
 11
-379.331679344177
 21
-57.7447099685651
 31
0.0
  0
LINE
  5
   543
  8
0
  6
CONTINUOUS
 62
   130
 10
-374.331679344177
 20
-56.244694709776
 30
0.0
 11
-374.331679344177
 21
-57.7447099685651
 31
0.0
  0
LINE
  5
   544
  8
0
  6
CONTINUOUS
 62
   130
 10
-378.331708418242
 20
-57.7447099685651
 30
0.0
 11
-378.331708418242
 21
-59.7447099685651
 31
0.0
  0
LINE
  5
   545
  8
0
  6
CONTINUOUS
 62
   130
 10
-375.331708418242
 20
-57.7447099685651
 30
0.0
 11
-375.331708418242
 21
-59.7447099685651
 31
0.0
  0
LINE
  5
   546
  8
0
  6
CONTINUOUS
 62
   130
 10
-375.331708418242
 20
-57.7447099685651
 30
0.0
 11
-374.331708418242
 21
-57.7447099685651
 31
0.0
  0
LINE
  5
   547
  8
0
  6
CONTINUOUS
 62
   130
 10
-379.331709371906
 20
-57.7447099685651
 30
0.0
 11
-378.331708418242
 21
-57.7447099685651
 31
0.0
  0
CIRCLE
  5
   548
  8
0
  6
CONTINUOUS
 62
   130
 10
-389.331657063299
 20
57.2552808761692
 30
0.0
 40
1.25
  0
INSERT
  5
   549
  8
0
  6
CONTINUOUS
 62
   130
  2
SSS
 10
-376.83162889836
 20
50.2553559251153
 30
0.0
 50
359.999999792138
  0
CIRCLE
  5
   54A
  8
0
  6
CONTINUOUS
 62
   130
 10
-376.831701179767
 20
50.2553559251153
 30
0.0
 40
4.4999575073053
  0
CIRCLE
  5
   54B
  8
0
  6
CONTINUOUS
 62
   130
 10
-389.331694834884
 20
51.4552984046733
 30
0.0
 40
3.0
  0
LINE
  5
   54C
  8
0
  6
CONTINUOUS
 62
   130
 10
-378.331708418242
 20
60.2552900314349
 30
0.0
 11
-378.331708418242
 21
58.2552900314349
 31
0.0
  0
LINE
  5
   54D
  8
0
  6
CONTINUOUS
 62
   130
 10
-375.331708418242
 20
60.2552900314349
 30
0.0
 11
-375.331708418242
 21
58.2552900314349
 31
0.0
  0
LINE
  5
   54E
  8
0
  6
CONTINUOUS
 62
   130
 10
-379.331709371906
 20
58.2552900314349
 30
0.0
 11
-378.331708418242
 21
58.2552900314349
 31
0.0
  0
LINE
  5
   54F
  8
0
  6
CONTINUOUS
 62
   130
 10
-375.331708418242
 20
58.2552900314349
 30
0.0
 11
-374.331708418242
 21
58.2552900314349
 31
0.0
  0
LINE
  5
   550
  8
0
  6
CONTINUOUS
 62
   130
 10
-379.331709371906
 20
58.2552900314349
 30
0.0
 11
-379.331708227488
 21
56.7552785874067
 31
0.0
  0
LINE
  5
   551
  8
0
  6
CONTINUOUS
 62
   130
 10
-374.331708418242
 20
58.2552900314349
 30
0.0
 11
-374.331708418242
 21
56.7552900314349
 31
0.0
  0
LINE
  5
   552
  8
0
  6
CONTINUOUS
 62
   130
 10
-399.831676254268
 20
60.2552900314361
 30
0.0
 11
-378.331708418242
 21
60.2552900314361
 31
0.0
  0
LINE
  5
   553
  8
0
  6
DASHDOT
 62
   130
 10
-389.331694834884
 20
-37.9447183418034
 30
0.0
 11
-389.331694834884
 21
-63.9447183418034
 31
0.0
  0
LINE
  5
   554
  8
0
  6
DASHDOT
 62
   130
 10
-402.331694834884
 20
-50.9447183418034
 30
0.0
 11
-376.331694834884
 21
-50.9447183418034
 31
0.0
  0
LINE
  5
   555
  8
0
  6
DASHDOT
 62
   130
 10
-389.331665039063
 20
63.9552984046733
 30
0.0
 11
-389.331665039063
 21
38.9552984046733
 31
0.0
  0
LINE
  5
   556
  8
0
  6
DASHDOT
 62
   130
 10
-401.831665039063
 20
51.4552984046733
 30
0.0
 11
-376.831665039063
 21
51.4552984046733
 31
0.0
  0
LINE
  5
   557
  8
0
  6
DASHDOT
 62
   130
 10
-376.831583084669
 20
-35.2447045969574
 30
0.0
 11
-376.831583084669
 21
-64.244619611568
 31
0.0
  0
LINE
  5
   558
  8
0
  6
DASHDOT
 62
   130
 10
-391.331540591975
 20
-49.7446621042628
 30
0.0
 11
-362.331625577364
 21
-49.7446621042628
 31
0.0
  0
LINE
  5
   559
  8
0
  6
DASHDOT
 62
   130
 10
-314.331665039064
 20
-38.4447183418034
 30
0.0
 11
-314.331665039064
 21
-63.4447183418034
 31
0.0
  0
LINE
  5
   55A
  8
0
  6
DASHDOT
 62
   130
 10
-326.831665039064
 20
-50.9447183418034
 30
0.0
 11
-301.831665039064
 21
-50.9447183418034
 31
0.0
  0
CIRCLE
  5
   55B
  8
0
  6
CONTINUOUS
 62
   130
 10
-376.831583084669
 20
-49.7446621042628
 30
0.0
 40
2.25
  0
LINE
  5
   55C
  8
0
  6
CONTINUOUS
 62
   130
 10
-350.33162889836
 20
56.7552900314349
 30
0.0
 11
-349.331680297852
 21
56.7552900314349
 31
0.0
  0
LINE
  5
   55D
  8
0
  6
CONTINUOUS
 62
   130
 10
-354.331708418242
 20
56.7552900314349
 30
0.0
 11
-353.33162889836
 21
56.7552900314349
 31
0.0
  0
LINE
  5
   55E
  8
0
  6
CONTINUOUS
 62
   130
 10
-353.33162889836
 20
55.7552900314349
 30
0.0
 11
-350.33162889836
 21
55.7552900314349
 31
0.0
  0
LINE
  5
   55F
  8
0
  6
CONTINUOUS
 62
   130
 10
-350.33162889836
 20
56.7552900314349
 30
0.0
 11
-350.33162889836
 21
55.7552900314349
 31
0.0
  0
LINE
  5
   560
  8
0
  6
CONTINUOUS
 62
   130
 10
-353.33162889836
 20
56.7552900314349
 30
0.0
 11
-353.33162889836
 21
55.7552900314349
 31
0.0
  0
LINE
  5
   561
  8
0
  6
CONTINUOUS
 62
   130
 10
-325.331641588126
 20
56.7552900314349
 30
0.0
 11
-325.331641588126
 21
55.7552900314349
 31
0.0
  0
LINE
  5
   562
  8
0
  6
CONTINUOUS
 62
   130
 10
-328.331641588126
 20
56.7552900314349
 30
0.0
 11
-328.331641588126
 21
55.7552900314349
 31
0.0
  0
LINE
  5
   563
  8
0
  6
CONTINUOUS
 62
   130
 10
-328.331641588126
 20
55.7552900314349
 30
0.0
 11
-325.331641588126
 21
55.7552900314349
 31
0.0
  0
LINE
  5
   564
  8
0
  6
CONTINUOUS
 62
   130
 10
-325.331641588126
 20
56.7552900314349
 30
0.0
 11
-324.331562068244
 21
56.7552900314349
 31
0.0
  0
LINE
  5
   565
  8
0
  6
CONTINUOUS
 62
   130
 10
-329.331590188634
 20
56.7552900314349
 30
0.0
 11
-328.331641588126
 21
56.7552900314349
 31
0.0
  0
LINE
  5
   566
  8
0
  6
CONTINUOUS
 62
   130
 10
-353.33162889836
 20
-55.244679450987
 30
0.0
 11
-353.33162889836
 21
-56.244679450987
 31
0.0
  0
LINE
  5
   567
  8
0
  6
CONTINUOUS
 62
   130
 10
-350.33162889836
 20
-55.244679450987
 30
0.0
 11
-350.33162889836
 21
-56.244679450987
 31
0.0
  0
LINE
  5
   568
  8
0
  6
CONTINUOUS
 62
   130
 10
-353.33162889836
 20
-55.244679450987
 30
0.0
 11
-350.33162889836
 21
-55.244679450987
 31
0.0
  0
LINE
  5
   569
  8
0
  6
CONTINUOUS
 62
   130
 10
-328.331641588126
 20
-55.244679450987
 30
0.0
 11
-328.331641588126
 21
-56.244679450987
 31
0.0
  0
LINE
  5
   56A
  8
0
  6
CONTINUOUS
 62
   130
 10
-325.331641588126
 20
-55.244679450987
 30
0.0
 11
-325.331641588126
 21
-56.244679450987
 31
0.0
  0
LINE
  5
   56B
  8
0
  6
CONTINUOUS
 62
   130
 10
-328.331641588126
 20
-55.244679450987
 30
0.0
 11
-325.331641588126
 21
-55.244679450987
 31
0.0
  0
LINE
  5
   56C
  8
0
  6
CONTINUOUS
 62
   130
 10
-354.331708418242
 20
-56.244679450987
 30
0.0
 11
-353.33162889836
 21
-56.244679450987
 31
0.0
  0
LINE
  5
   56D
  8
0
  6
CONTINUOUS
 62
   130
 10
-350.33162889836
 20
-56.244679450987
 30
0.0
 11
-349.331680297852
 21
-56.244679450987
 31
0.0
  0
LINE
  5
   56E
  8
0
  6
CONTINUOUS
 62
   130
 10
-329.331590188634
 20
-56.244679450987
 30
0.0
 11
-328.331641588126
 21
-56.244679450987
 31
0.0
  0
LINE
  5
   56F
  8
0
  6
CONTINUOUS
 62
   130
 10
-325.331641588126
 20
-56.244679450987
 30
0.0
 11
-324.331562068244
 21
-56.244679450987
 31
0.0
  0
LINE
  5
   570
  8
0
  6
CONTINUOUS
 62
   130
 10
-378.33162889836
 20
56.7552900314349
 30
0.0
 11
-378.33162889836
 21
55.7552900314349
 31
0.0
  0
LINE
  5
   571
  8
0
  6
CONTINUOUS
 62
   130
 10
-378.33162889836
 20
55.7552900314349
 30
0.0
 11
-375.33162889836
 21
55.7552900314349
 31
0.0
  0
LINE
  5
   572
  8
0
  6
CONTINUOUS
 62
   130
 10
-375.33162889836
 20
56.7552900314349
 30
0.0
 11
-375.33162889836
 21
55.7552900314349
 31
0.0
  0
LINE
  5
   573
  8
0
  6
CONTINUOUS
 62
   130
 10
-379.331708418242
 20
56.7552900314349
 30
0.0
 11
-378.33162889836
 21
56.7552900314349
 31
0.0
  0
LINE
  5
   574
  8
0
  6
CONTINUOUS
 62
   130
 10
-375.33162889836
 20
56.7552900314349
 30
0.0
 11
-374.331680297852
 21
56.7552900314349
 31
0.0
  0
LINE
  5
   575
  8
0
  6
CONTINUOUS
 62
   130
 10
-378.33162889836
 20
-55.244679450987
 30
0.0
 11
-375.33162889836
 21
-55.244679450987
 31
0.0
  0
LINE
  5
   576
  8
0
  6
CONTINUOUS
 62
   130
 10
-378.33162889836
 20
-55.244679450987
 30
0.0
 11
-378.33162889836
 21
-56.244679450987
 31
0.0
  0
LINE
  5
   577
  8
0
  6
CONTINUOUS
 62
   130
 10
-375.33162889836
 20
-55.244679450987
 30
0.0
 11
-375.33162889836
 21
-56.244679450987
 31
0.0
  0
LINE
  5
   578
  8
0
  6
CONTINUOUS
 62
   130
 10
-375.33162889836
 20
-56.244679450987
 30
0.0
 11
-374.331680297852
 21
-56.244679450987
 31
0.0
  0
LINE
  5
   579
  8
0
  6
CONTINUOUS
 62
   130
 10
-379.331708418242
 20
-56.244679450987
 30
0.0
 11
-378.33162889836
 21
-56.244679450987
 31
0.0
  0
LINE
  5
   57A
  8
0
  6
CONTINUOUS
 62
   130
 10
-364.931662750245
 20
-26.994694709776
 30
0.0
 11
-364.931662750245
 21
-31.494694709776
 31
0.0
  0
LINE
  5
   57B
  8
0
  6
CONTINUOUS
 62
   130
 10
-354.931662750245
 20
-26.994694709776
 30
0.0
 11
-354.931662750245
 21
-31.494694709776
 31
0.0
  0
LINE
  5
   57C
  8
0
  6
CONTINUOUS
 62
   130
 10
-364.931662750245
 20
-26.994694709776
 30
0.0
 11
-354.931662750245
 21
-26.994694709776
 31
0.0
  0
LINE
  5
   57D
  8
0
  6
CONTINUOUS
 62
   130
 10
-364.931662750245
 20
-31.494694709776
 30
0.0
 11
-354.931662750245
 21
-31.494694709776
 31
0.0
  0
LINE
  5
   57E
  8
0
  6
CONTINUOUS
 62
   130
 10
-378.331692733765
 20
4.25532054900618
 30
0.0
 11
-378.331692962647
 21
2.75532054900618
 31
0.0
  0
LINE
  5
   57F
  8
0
  6
CONTINUOUS
 62
   130
 10
-378.331697387695
 20
-26.2446794509819
 30
0.0
 11
-378.331697616577
 21
-27.7446794509819
 31
0.0
  0
LINE
  5
   580
  8
0
  6
CONTINUOUS
 62
   130
 10
-379.631686630257
 20
44.2552782659186
 30
0.0
 11
-379.631687850888
 21
36.2557525634766
 31
0.0
  0
LINE
  5
   581
  8
0
  6
CONTINUOUS
 62
   130
 10
-380.131686630257
 20
44.2552782659186
 30
0.0
 11
-380.131687850888
 21
36.2557525634766
 31
0.0
  0
LINE
  5
   582
  8
0
  6
CONTINUOUS
 62
   130
 10
-381.431686630257
 20
44.2552782659186
 30
0.0
 11
-381.431687850888
 21
36.2557525634766
 31
0.0
  0
LINE
  5
   583
  8
0
  6
CONTINUOUS
 62
   130
 10
-381.931686630257
 20
44.2552782659186
 30
0.0
 11
-381.931687850888
 21
36.2557525634766
 31
0.0
  0
LINE
  5
   584
  8
0
  6
CONTINUOUS
 62
   130
 10
-383.231686630257
 20
44.2552782659186
 30
0.0
 11
-383.231687850888
 21
36.2557525634766
 31
0.0
  0
LINE
  5
   585
  8
0
  6
CONTINUOUS
 62
   130
 10
-383.731686630257
 20
44.2552782659186
 30
0.0
 11
-383.731687850888
 21
36.2557525634766
 31
0.0
  0
LINE
  5
   586
  8
0
  6
CONTINUOUS
 62
   130
 10
-385.031686630257
 20
44.2552782659186
 30
0.0
 11
-385.031687850888
 21
36.2557525634766
 31
0.0
  0
LINE
  5
   587
  8
0
  6
CONTINUOUS
 62
   130
 10
-385.531686630257
 20
44.2552782659186
 30
0.0
 11
-385.531687850888
 21
36.2557525634766
 31
0.0
  0
LINE
  5
   588
  8
0
  6
CONTINUOUS
 62
   130
 10
-386.831686630257
 20
44.2552782659186
 30
0.0
 11
-386.831687850888
 21
36.2557525634766
 31
0.0
  0
LINE
  5
   589
  8
0
  6
CONTINUOUS
 62
   130
 10
-387.331686630257
 20
44.2552782659186
 30
0.0
 11
-387.331687850888
 21
36.2557525634766
 31
0.0
  0
LINE
  5
   58A
  8
0
  6
CONTINUOUS
 62
   130
 10
-388.631686630257
 20
44.2552782659186
 30
0.0
 11
-388.631687850888
 21
36.2557525634766
 31
0.0
  0
LINE
  5
   58B
  8
0
  6
CONTINUOUS
 62
   130
 10
-389.131686630257
 20
44.2552782659186
 30
0.0
 11
-389.131687850888
 21
36.2557525634766
 31
0.0
  0
LINE
  5
   58C
  8
0
  6
CONTINUOUS
 62
   130
 10
-390.431686630257
 20
44.2552782659186
 30
0.0
 11
-390.431687850888
 21
36.2557525634766
 31
0.0
  0
LINE
  5
   58D
  8
0
  6
CONTINUOUS
 62
   130
 10
-390.931686630257
 20
44.2552782659186
 30
0.0
 11
-390.931687850888
 21
36.2557525634766
 31
0.0
  0
LINE
  5
   58E
  8
0
  6
CONTINUOUS
 62
   130
 10
-392.231686630257
 20
44.2552782659186
 30
0.0
 11
-392.231687850888
 21
36.2557525634766
 31
0.0
  0
LINE
  5
   58F
  8
0
  6
CONTINUOUS
 62
   130
 10
-392.731686630257
 20
44.2552782659186
 30
0.0
 11
-392.731687850888
 21
36.2557525634766
 31
0.0
  0
LINE
  5
   590
  8
0
  6
CONTINUOUS
 62
   130
 10
-394.531686630257
 20
44.2552782659186
 30
0.0
 11
-394.531687850888
 21
36.2557525634766
 31
0.0
  0
LINE
  5
   591
  8
0
  6
CONTINUOUS
 62
   130
 10
-394.031686630257
 20
44.2552782659186
 30
0.0
 11
-394.031687850888
 21
36.2557525634766
 31
0.0
  0
LINE
  5
   592
  8
0
  6
CONTINUOUS
 62
   130
 10
-395.831686630257
 20
44.2552782659186
 30
0.0
 11
-395.831687850888
 21
36.2557525634766
 31
0.0
  0
LINE
  5
   593
  8
0
  6
CONTINUOUS
 62
   130
 10
-396.331686630257
 20
44.2552782659186
 30
0.0
 11
-396.331687850888
 21
36.2557525634766
 31
0.0
  0
LINE
  5
   594
  8
0
  6
CONTINUOUS
 62
   130
 10
-397.631686630257
 20
44.2552782659186
 30
0.0
 11
-397.631687850888
 21
36.2557525634766
 31
0.0
  0
LINE
  5
   595
  8
0
  6
CONTINUOUS
 62
   130
 10
-398.131686630257
 20
44.2552782659186
 30
0.0
 11
-398.131687850888
 21
36.2557525634766
 31
0.0
  0
LINE
  5
   596
  8
0
  6
CONTINUOUS
 62
   130
 10
-399.431686630257
 20
44.2552782659186
 30
0.0
 11
-399.431687850888
 21
36.2557525634766
 31
0.0
  0
LINE
  5
   597
  8
0
  6
CONTINUOUS
 62
   130
 10
-399.431686630257
 20
44.2552782659186
 30
0.0
 11
-399.431687850888
 21
36.2557525634766
 31
0.0
  0
LINE
  5
   598
  8
0
  6
CONTINUOUS
 62
   130
 10
-399.931686630257
 20
44.2552782659186
 30
0.0
 11
-399.931687850888
 21
36.2557525634766
 31
0.0
  0
LINE
  5
   599
  8
0
  6
CONTINUOUS
 62
   130
 10
-401.231686630257
 20
44.2552782659186
 30
0.0
 11
-401.231687850888
 21
36.2557525634766
 31
0.0
  0
LINE
  5
   59A
  8
0
  6
CONTINUOUS
 62
   130
 10
-401.731686630257
 20
44.2552782659186
 30
0.0
 11
-401.731687850888
 21
36.2557525634766
 31
0.0
  0
LINE
  5
   59B
  8
0
  6
CONTINUOUS
 62
   130
 10
-393.515766934341
 20
-35.0218286166226
 30
0.0
 11
-393.515766934341
 21
-60.6620781228416
 31
0.0
  0
LINE
  5
   59C
  8
0
  6
CONTINUOUS
 62
   130
 10
-299.726433214224
 20
-32.1300711535152
 30
0.0
 11
-292.97899913364
 21
-32.1300711535152
 31
0.0
  0
LINE
  5
   59D
  8
0
  6
CONTINUOUS
 62
   130
 10
-300.331691512995
 20
12.2557525634766
 30
0.0
 11
-300.33170173645
 21
-54.7446913690865
 31
0.0
  0
LINE
  5
   59E
  8
0
  6
CONTINUOUS
 62
   130
 10
-403.331638565131
 20
12.2557525634766
 30
0.0
 11
-403.331631240914
 21
-35.7442474365234
 31
0.0
  0
LINE
  5
   59F
  8
0
  6
CONTINUOUS
 62
   130
 10
-379.631691512996
 20
12.2557525634766
 30
0.0
 11
-379.631700057984
 21
-43.7446912165033
 31
0.0
  0
LINE
  5
   5A0
  8
0
  6
CONTINUOUS
 62
   130
 10
-380.131691512996
 20
12.2557525634766
 30
0.0
 11
-380.131700057984
 21
-43.7446912165033
 31
0.0
  0
LINE
  5
   5A1
  8
0
  6
CONTINUOUS
 62
   130
 10
-381.431691512996
 20
12.2557525634766
 30
0.0
 11
-381.431700057984
 21
-43.7446912165033
 31
0.0
  0
LINE
  5
   5A2
  8
0
  6
CONTINUOUS
 62
   130
 10
-381.931691512996
 20
12.2557525634766
 30
0.0
 11
-381.931700057984
 21
-43.7446912165033
 31
0.0
  0
LINE
  5
   5A3
  8
0
  6
CONTINUOUS
 62
   130
 10
-383.231691512996
 20
12.2557525634766
 30
0.0
 11
-383.231700057984
 21
-43.7446912165033
 31
0.0
  0
LINE
  5
   5A4
  8
0
  6
CONTINUOUS
 62
   130
 10
-383.731691512996
 20
12.2557525634766
 30
0.0
 11
-383.731700057984
 21
-43.7446912165033
 31
0.0
  0
LINE
  5
   5A5
  8
0
  6
CONTINUOUS
 62
   130
 10
-385.031691512996
 20
12.2557525634766
 30
0.0
 11
-385.031700057984
 21
-43.7446912165033
 31
0.0
  0
LINE
  5
   5A6
  8
0
  6
CONTINUOUS
 62
   130
 10
-385.531691512996
 20
12.2557525634766
 30
0.0
 11
-385.531700057984
 21
-43.7446912165033
 31
0.0
  0
LINE
  5
   5A7
  8
0
  6
CONTINUOUS
 62
   130
 10
-386.831691512996
 20
12.2557525634766
 30
0.0
 11
-386.831700057984
 21
-43.7446912165033
 31
0.0
  0
LINE
  5
   5A8
  8
0
  6
CONTINUOUS
 62
   130
 10
-387.331691512996
 20
12.2557525634766
 30
0.0
 11
-387.331700057984
 21
-43.7446912165033
 31
0.0
  0
LINE
  5
   5A9
  8
0
  6
CONTINUOUS
 62
   130
 10
-388.631691512996
 20
12.2557525634766
 30
0.0
 11
-388.631700057984
 21
-43.7446912165033
 31
0.0
  0
LINE
  5
   5AA
  8
0
  6
CONTINUOUS
 62
   130
 10
-389.131691512996
 20
12.2557525634766
 30
0.0
 11
-389.131700057984
 21
-43.7446912165033
 31
0.0
  0
LINE
  5
   5AB
  8
0
  6
CONTINUOUS
 62
   130
 10
-390.431691512996
 20
12.2557525634766
 30
0.0
 11
-390.431700057984
 21
-43.7446912165033
 31
0.0
  0
LINE
  5
   5AC
  8
0
  6
CONTINUOUS
 62
   130
 10
-390.931691512996
 20
12.2557525634766
 30
0.0
 11
-390.931700057984
 21
-43.7446912165033
 31
0.0
  0
LINE
  5
   5AD
  8
0
  6
CONTINUOUS
 62
   130
 10
-392.231691512996
 20
12.2557525634766
 30
0.0
 11
-392.231700057984
 21
-43.7446912165033
 31
0.0
  0
LINE
  5
   5AE
  8
0
  6
CONTINUOUS
 62
   130
 10
-392.731691512996
 20
12.2557525634766
 30
0.0
 11
-392.731700057984
 21
-43.7446912165033
 31
0.0
  0
LINE
  5
   5AF
  8
0
  6
CONTINUOUS
 62
   130
 10
-394.531691512996
 20
12.2557525634766
 30
0.0
 11
-394.531698837214
 21
-35.7442474365234
 31
0.0
  0
LINE
  5
   5B0
  8
0
  6
CONTINUOUS
 62
   130
 10
-394.031691512996
 20
12.2557525634766
 30
0.0
 11
-394.031698837214
 21
-35.7442474365234
 31
0.0
  0
LINE
  5
   5B1
  8
0
  6
CONTINUOUS
 62
   130
 10
-395.831691512996
 20
12.2557525634766
 30
0.0
 11
-395.831698837214
 21
-35.7442474365234
 31
0.0
  0
LINE
  5
   5B2
  8
0
  6
CONTINUOUS
 62
   130
 10
-396.331691512996
 20
12.2557525634766
 30
0.0
 11
-396.331698837214
 21
-35.7442474365234
 31
0.0
  0
LINE
  5
   5B3
  8
0
  6
CONTINUOUS
 62
   130
 10
-397.631691512997
 20
12.2557525634766
 30
0.0
 11
-397.631698837214
 21
-35.7442474365234
 31
0.0
  0
LINE
  5
   5B4
  8
0
  6
CONTINUOUS
 62
   130
 10
-398.131691512996
 20
12.2557525634766
 30
0.0
 11
-398.131698837214
 21
-35.7442474365234
 31
0.0
  0
LINE
  5
   5B5
  8
0
  6
CONTINUOUS
 62
   130
 10
-399.431691512996
 20
12.2557525634766
 30
0.0
 11
-399.431698837214
 21
-35.7442474365234
 31
0.0
  0
LINE
  5
   5B6
  8
0
  6
CONTINUOUS
 62
   130
 10
-399.931691512996
 20
12.2557525634766
 30
0.0
 11
-399.931698837214
 21
-35.7442474365234
 31
0.0
  0
LINE
  5
   5B7
  8
0
  6
CONTINUOUS
 62
   130
 10
-401.231691512996
 20
12.2557525634766
 30
0.0
 11
-401.231698837214
 21
-35.7442474365234
 31
0.0
  0
LINE
  5
   5B8
  8
0
  6
CONTINUOUS
 62
   130
 10
-401.731691512996
 20
12.2557525634766
 30
0.0
 11
-401.731698837214
 21
-35.7442474365234
 31
0.0
  0
LINE
  5
   5B9
  8
0
  6
CONTINUOUS
 62
   130
 10
-393.515766934341
 20
-59.744694709776
 30
0.0
 11
-378.331708418242
 21
-59.744694709776
 31
0.0
  0
LINE
  5
   5BA
  8
0
  6
CONTINUOUS
 62
   130
 10
-393.515766934341
 20
-43.7446912165033
 30
0.0
 11
-339.331679270922
 21
-43.7446912165033
 31
0.0
  0
LINE
  5
   5BB
  8
0
  6
CONTINUOUS
 62
   130
 10
-393.515766934341
 20
-45.2446912165033
 30
0.0
 11
-339.331658363342
 21
-45.2446912165033
 31
0.0
  0
INSERT
  5
   5BC
  8
0
  6
CONTINUOUS
 62
     3
  2
*UDIM416
 10
0.0
 20
0.0
 30
0.0
  0
INSERT
  5
   5BD
  8
0
  6
CONTINUOUS
 62
     3
  2
*UDIM417
 10
0.0
 20
0.0
 30
0.0
  0
INSERT
  5
   5BE
  8
0
  6
CONTINUOUS
 62
     3
  2
*UDIM418
 10
0.0
 20
0.0
 30
0.0
  0
INSERT
  5
   5BF
  8
0
  6
CONTINUOUS
 62
     3
  2
*UDIM419
 10
0.0
 20
0.0
 30
0.0
  0
INSERT
  5
   5C0
  8
0
  6
CONTINUOUS
 62
     7
  2
*UDIM420
 10
0.0
 20
0.0
 30
0.0
  0
INSERT
  5
   5C1
  8
0
  6
CONTINUOUS
 62
     7
  2
*UDIM421
 10
0.0
 20
0.0
 30
0.0
  0
TEXT
  5
   5C2
  8
0
  6
CONTINUOUS
 62
     2
 10
-415.295341194809
 20
-13.2399840613702
 30
0.0
 40
3.00000002980232
  1
X
 50
359.999999844103
 41
0.916666674282816
 72
     2
 11
-413.095341113249
 21
-11.739984052444
 31
0.0
 73
     2
  0
TEXT
  5
   5C3
  8
0
  6
CONTINUOUS
 62
     2
 10
-278.418787140748
 20
-13.320625555508
 30
0.0
 40
3.00000002980232
  1
X
 50
359.999999844103
 41
0.916666674282816
 72
     1
 11
-277.318787097931
 21
-11.8206255435944
 31
0.0
 73
     2
  0
TEXT
  5
   5C4
  8
0
  6
CONTINUOUS
 62
     2
 10
-340.505040368228
 20
91.2026854301383
 30
0.0
 40
3.00000002980232
  1
Y
 50
359.999999844103
 41
0.916666674282816
 72
     1
 11
-339.405040325411
 21
92.702685442052
 31
0.0
 73
     2
  0
TEXT
  5
   5C5
  8
0
  6
CONTINUOUS
 62
     2
 10
-340.043500561616
 20
-77.5023431897091
 30
0.0
 40
3.00000002980232
  1
Y
 50
359.999999844103
 41
0.916666674282816
 72
     1
 11
-338.943500518799
 21
-76.0023431777954
 31
0.0
 73
     2
  0
INSERT
  5
   5C6
  8
0
  6
CONTINUOUS
 62
     7
  2
*UDIM422
 10
0.0
 20
0.0
 30
0.0
  0
INSERT
  5
   5C7
  8
0
  6
CONTINUOUS
 62
     7
  2
*UDIM423
 10
0.0
 20
0.0
 30
0.0
  0
INSERT
  5
   5C8
  8
0
  6
CONTINUOUS
 62
     7
  2
*UDIM424
 10
0.0
 20
0.0
 30
0.0
  0
INSERT
  5
   5C9
  8
0
  6
CONTINUOUS
 62
     7
  2
*UDIM425
 10
0.0
 20
0.0
 30
0.0
  0
INSERT
  5
   5CA
  8
0
  6
CONTINUOUS
 62
     7
  2
*UDIM426
 10
0.0
 20
0.0
 30
0.0
  0
INSERT
  5
   5CB
  8
0
  6
CONTINUOUS
 62
     3
  2
*UDIM427
 10
0.0
 20
0.0
 30
0.0
  0
INSERT
  5
   5CC
  8
255
  6
CONTINUOUS
 62
     7
  2
DIAFRAMMA
 10
-376.83162889836
 20
58.2552900314349
 30
0.0
 50
359.999999792138
  0
INSERT
  5
   5CD
  8
255
  6
CONTINUOUS
 62
     7
  2
DIAFRAMMA
 10
-351.83162889836
 20
58.2552900314349
 30
0.0
 50
359.999999792138
  0
INSERT
  5
   5CE
  8
255
  6
CONTINUOUS
 62
     7
  2
DIAFRAMMA
 10
-326.83162889836
 20
58.2552900314349
 30
0.0
 50
359.999999792138
  0
LINE
  5
   5CF
  8
0
  6
CONTINUOUS
 62
   130
 10
-352.981635183096
 20
-96.9287334184431
 30
0.0
 11
-352.981635183096
 21
-150.580229909751
 31
0.0
  0
LINE
  5
   5D0
  8
0
  6
CONTINUOUS
 62
   130
 10
-325.681640988588
 20
-96.9287334184431
 30
0.0
 11
-325.681640988588
 21
-150.580229909751
 31
0.0
  0
CIRCLE
  5
   5D1
  8
0
  6
CONTINUOUS
 62
   130
 10
-345.581635341048
 20
-98.7836788207292
 30
0.0
 40
1.125
  0
CIRCLE
  5
   5D2
  8
0
  6
CONTINUOUS
 62
   130
 10
-333.08163549006
 20
-148.783667543531
 30
0.0
 40
1.125
  0
LINE
  5
   5D3
  8
0
  6
DASHDOT
 62
   130
 10
-345.581635341048
 20
-94.5836788922548
 30
0.0
 11
-345.581635341048
 21
-102.983678749204
 31
0.0
  0
LINE
  5
   5D4
  8
0
  6
DASHDOT
 62
   130
 10
-351.031635269523
 20
-98.7836788207292
 30
0.0
 11
-342.631635412574
 21
-98.7836788207292
 31
0.0
  0
LINE
  5
   5D5
  8
0
  6
CONTINUOUS
 62
   130
 10
-333.08163549006
 20
-144.583667615056
 30
0.0
 11
-333.08163549006
 21
-152.983667472005
 31
0.0
  0
LINE
  5
   5D6
  8
0
  6
DASHDOT
 62
   130
 10
-340.406635418534
 20
-148.783667543531
 30
0.0
 11
-332.006635561585
 21
-148.783667543531
 31
0.0
  0
LINE
  5
   5D7
  8
0
  6
DASHDOT
 62
   130
 10
-339.33164075613
 20
-91.9065484054192
 30
0.0
 11
-339.33164075613
 21
-153.706138859085
 31
0.0
  0
LINE
  5
   5D8
  8
0
  6
CONTINUOUS
 62
   130
 10
-352.981635183096
 20
-96.9287334184431
 30
0.0
 11
-325.681640988588
 21
-96.9287334184431
 31
0.0
  0
LINE
  5
   5D9
  8
0
  6
CONTINUOUS
 62
   130
 10
-352.981635183096
 20
-150.580229909751
 30
0.0
 11
-325.681640988588
 21
-150.580229909751
 31
0.0
  0
LINE
  5
   5DA
  8
0
  6
DASHDOT
 62
   130
 10
-357.730960072057
 20
-129.783678820729
 30
0.0
 11
-318.507879106508
 21
-129.783678820729
 31
0.0
  0
TEXT
  5
   5DB
  8
0
  6
CONTINUOUS
 62
     2
 10
-340.392488140961
 20
-90.9433174252438
 30
0.0
 40
3.00000002980232
  1
Y
 50
359.999999844103
 41
0.916666674282816
 72
     1
 11
-339.292488098145
 21
-89.4433174133301
 31
0.0
 73
     2
  0
TEXT
  5
   5DC
  8
0
  6
CONTINUOUS
 62
     2
 10
-340.440091137192
 20
-157.972572683882
 30
0.0
 40
3.00000002980232
  1
Y
 50
359.999999844103
 41
0.916666674282816
 11
-340.440091133118
 21
-156.472572668981
 31
0.0
 73
     2
  0
TEXT
  5
   5DD
  8
0
  6
CONTINUOUS
 62
     2
 10
-318.795074466965
 20
-131.437431692671
 30
0.0
 40
3.00000002980232
  1
X
 50
359.999999844103
 41
0.916666674282816
 11
-318.795074462891
 21
-129.93743167777
 31
0.0
 73
     2
  0
TEXT
  5
   5DE
  8
0
  6
CONTINUOUS
 62
     2
 10
-382.01602173259
 20
-131.221574186873
 30
0.0
 40
3.00000002980232
  1
X
 50
359.999999844103
 41
0.916666674282816
 11
-382.016021728516
 21
-129.721574171972
 31
0.0
 73
     2
  0
INSERT
  5
   5DF
  8
0
  6
CONTINUOUS
 62
     7
  2
*UDIM428
 10
0.0
 20
0.0
 30
0.0
  0
INSERT
  5
   5E0
  8
0
  6
CONTINUOUS
 62
     3
  2
*UDIM429
 10
0.0
 20
0.0
 30
0.0
  0
INSERT
  5
   5E1
  8
0
  6
CONTINUOUS
 62
     3
  2
*UDIM430
 10
0.0
 20
0.0
 30
0.0
  0
INSERT
  5
   5E2
  8
0
  6
CONTINUOUS
 62
     3
  2
*UDIM431
 10
0.0
 20
0.0
 30
0.0
  0
LINE
  5
   5E3
  8
0
  6
DASHDOT
 62
   130
 10
-142.721594260731
 20
56.9359245300293
 30
0.0
 11
-69.3960878447857
 21
56.9359245300293
 31
0.0
  0
LINE
  5
   5E4
  8
0
  6
DASHDOT
 62
   130
 10
-98.5542907714844
 20
77.5901791063164
 30
0.0
 11
-98.5542907714844
 21
36.658706626403
 31
0.0
  0
POINT
  5
   5E5
  8
0
  6
CONTINUOUS
 62
   130
 10
-131.929290771484
 20
72.9359245300293
 30
0.0
  0
POINT
  5
   5E6
  8
0
  6
CONTINUOUS
 62
   130
 10
-131.929290771484
 20
40.9359245300293
 30
0.0
  0
CIRCLE
  5
   5E7
  8
0
  6
CONTINUOUS
 62
   130
 10
-77.6792907714844
 20
72.9359245300293
 30
0.0
 40
1.0
  0
CIRCLE
  5
   5E8
  8
0
  6
CONTINUOUS
 62
   130
 10
-131.929290771484
 20
72.9359245300293
 30
0.0
 40
1.0
  0
CIRCLE
  5
   5E9
  8
0
  6
CONTINUOUS
 62
   130
 10
-131.929290771484
 20
40.9359245300293
 30
0.0
 40
1.0
  0
CIRCLE
  5
   5EA
  8
0
  6
CONTINUOUS
 62
   130
 10
-77.6792907714844
 20
40.9359245300293
 30
0.0
 40
1.0
  0
LINE
  5
   5EB
  8
0
  6
CONTINUOUS
 62
   130
 10
-77.0542907714844
 20
69.4359245300293
 30
0.0
 11
-77.0542907714844
 21
44.4359245300293
 31
0.0
  0
LINE
  5
   5EC
  8
0
  6
CONTINUOUS
 62
   130
 10
-132.554290771484
 20
69.4359245300293
 30
0.0
 11
-132.554290771484
 21
44.4359245300293
 31
0.0
  0
LINE
  5
   5ED
  8
0
  6
CONTINUOUS
 62
   130
 10
-131.804290771484
 20
70.1859245300293
 30
0.0
 11
-77.8042907714844
 21
70.1859245300293
 31
0.0
  0
LINE
  5
   5EE
  8
0
  6
CONTINUOUS
 62
   130
 10
-131.804290771484
 20
43.6859245300293
 30
0.0
 11
-77.8042907714844
 21
43.6859245300293
 31
0.0
  0
ARC
  5
   5EF
  8
0
  6
CONTINUOUS
 62
   130
 10
-77.8042907714844
 20
69.4359245300293
 30
0.0
 40
0.75
 50
359.999999844103
 51
449.999999844103
  0
ARC
  5
   5F0
  8
0
  6
CONTINUOUS
 62
   130
 10
-77.8042907714844
 20
44.4359245300293
 30
0.0
 40
0.75
 50
269.999999844103
 51
359.999999844103
  0
ARC
  5
   5F1
  8
0
  6
CONTINUOUS
 62
   130
 10
-131.804290771484
 20
44.4359245300293
 30
0.0
 40
0.75
 50
539.999999844103
 51
629.999999844103
  0
ARC
  5
   5F2
  8
0
  6
CONTINUOUS
 62
   130
 10
-131.804290771484
 20
69.4359245300293
 30
0.0
 40
0.75
 50
449.999999844103
 51
539.999999844103
  0
LINE
  5
   5F3
  8
0
  6
DASHDOT
 62
   130
 10
-77.6792907714844
 20
74.4359245300293
 30
0.0
 11
-77.6792907714844
 21
71.4359245300293
 31
0.0
  0
LINE
  5
   5F4
  8
0
  6
DASHDOT
 62
   130
 10
-135.429290771484
 20
72.9359245300293
 30
0.0
 11
-76.1792907714844
 21
72.9359245300293
 31
0.0
  0
LINE
  5
   5F5
  8
0
  6
DASHDOT
 62
   130
 10
-77.6792907714844
 20
42.4359245300293
 30
0.0
 11
-77.6792907714844
 21
39.4359245300293
 31
0.0
  0
LINE
  5
   5F6
  8
0
  6
CONTINUOUS
 62
     7
 10
-138.302749092139
 20
78.1419705753376
 30
0.0
 11
-72.1051096707459
 21
78.1419705753376
 31
0.0
  0
LINE
  5
   5F7
  8
0
  6
CONTINUOUS
 62
     7
 10
-72.1051096707459
 20
78.1419705753376
 30
0.0
 11
-72.1051096707459
 21
37.3069676712384
 31
0.0
  0
LINE
  5
   5F8
  8
0
  6
CONTINUOUS
 62
     7
 10
-138.302749092139
 20
37.3301298963683
 30
0.0
 11
-72.1051096707459
 21
37.3301298963683
 31
0.0
  0
LINE
  5
   5F9
  8
0
  6
CONTINUOUS
 62
     7
 10
-138.302749092139
 20
78.1419705753376
 30
0.0
 11
-138.302749092139
 21
37.3301298963683
 31
0.0
  0
LINE
  5
   5FA
  8
0
  6
DASHDOT
 62
     7
 10
-131.929290771484
 20
76.4359245300293
 30
0.0
 11
-131.929290771484
 21
69.4359245300293
 31
0.0
  0
LINE
  5
   5FB
  8
0
  6
DASHDOT
 62
     7
 10
-131.929290771484
 20
44.4359245300293
 30
0.0
 11
-131.929290771484
 21
37.4359245300293
 31
0.0
  0
LINE
  5
   5FC
  8
0
  6
DASHDOT
 62
     7
 10
-135.429290771484
 20
40.9359245300293
 30
0.0
 11
-76.1792907714844
 21
40.9359245300293
 31
0.0
  0
TEXT
  5
   5FD
  8
0
  6
CONTINUOUS
 62
     2
 10
-99.0690906386583
 20
22.2172278757948
 30
0.0
 40
3.00000002980232
  1
Y
 50
359.999999844103
 41
0.916666674282816
 72
     2
 11
-96.8690905570984
 21
23.717227884721
 31
0.0
 73
     2
  0
TEXT
  5
   5FE
  8
0
  6
CONTINUOUS
 62
     2
 10
-67.7795784812181
 20
55.3731456618566
 30
0.0
 40
3.00000002980232
  1
X
 50
359.999999844103
 41
0.916666674282816
 72
     2
 11
-65.5795783996582
 21
56.8731456707828
 31
0.0
 73
     2
  0
TEXT
  5
   5FF
  8
0
  6
CONTINUOUS
 62
     2
 10
-99.1402314048021
 20
92.1781806345839
 30
0.0
 40
3.00000002980232
  1
Y
 50
359.999999844103
 41
0.916666674282816
 72
     2
 11
-96.9402313232422
 21
93.6781806435101
 31
0.0
 73
     2
  0
TEXT
  5
   600
  8
0
  6
CONTINUOUS
 62
     2
 10
-144.829528127214
 20
55.3731456618566
 30
0.0
 40
3.00000002980232
  1
X
 50
359.999999844103
 41
0.916666674282816
 72
     2
 11
-142.629528045654
 21
56.8731456707828
 31
0.0
 73
     2
  0
INSERT
  5
   601
  8
0
  6
CONTINUOUS
 62
     3
  2
*UDIM432
 10
0.0
 20
0.0
 30
0.0
  0
INSERT
  5
   602
  8
0
  6
CONTINUOUS
 62
     3
  2
*UDIM433
 10
0.0
 20
0.0
 30
0.0
  0
INSERT
  5
   603
  8
0
  6
CONTINUOUS
 62
     3
  2
*UDIM434
 10
0.0
 20
0.0
 30
0.0
  0
INSERT
  5
   604
  8
0
  6
CONTINUOUS
 62
     3
  2
*UDIM435
 10
0.0
 20
0.0
 30
0.0
  0
INSERT
  5
   605
  8
0
  6
CONTINUOUS
 62
     3
  2
*UDIM436
 10
0.0
 20
0.0
 30
0.0
  0
INSERT
  5
   606
  8
0
  6
CONTINUOUS
 62
     3
  2
*UDIM437
 10
0.0
 20
0.0
 30
0.0
  0
INSERT
  5
   607
  8
0
  6
CONTINUOUS
 62
     7
  2
*UDIM438
 10
0.0
 20
0.0
 30
0.0
  0
INSERT
  5
   608
  8
0
  6
CONTINUOUS
 62
     3
  2
*UDIM439
 10
0.0
 20
0.0
 30
0.0
  0
ENDSEC
  0
EOF
