  0
SECTION
  2
HEADER
  9
$ACADVER
  1
AC1009
  9
$DWGCODEPAGE
  3
iso8859-1
  9
$INSBASE
 10
0.0
 20
0.0
 30
0.0
  9
$EXTMIN
 10
1.0E20
 20
1.0E20
  9
$EXTMAX
 10
-1.0E20
 20
-1.0E20
  9
$LIMMIN
 10
0.0
 20
0.0
  9
$LIMMAX
 10
12.0
 20
9.0
  9
$ORTHOMODE
 70
     0
  9
$REGENMODE
 70
     1
  9
$FILLMODE
 70
     1
  9
$QTEXTMODE
 70
     0
  9
$MIRRTEXT
 70
     1
  9
$DRAGMODE
 70
     2
  9
$LTSCALE
 40
15.0
  9
$OSMODE
 70
     0
  9
$ATTMODE
 70
     1
  9
$TEXTSIZE
 40
0.2
  9
$TRACEWID
 40
0.05
  9
$TEXTSTYLE
  7
STANDARD
  9
$CLAYER
  8
0
  9
$CELTYPE
  6
DASHED
  9
$CECOLOR
 62
   256
  9
$DIMSCALE
 40
1.0
  9
$DIMASZ
 40
0.18
  9
$DIMEXO
 40
0.0625
  9
$DIMDLI
 40
0.38
  9
$DIMRND
 40
0.0
  9
$DIMDLE
 40
0.0
  9
$DIMEXE
 40
0.18
  9
$DIMTP
 40
0.0
  9
$DIMTM
 40
0.0
  9
$DIMTXT
 40
0.18
  9
$DIMCEN
 40
0.09
  9
$DIMTSZ
 40
0.0
  9
$DIMTOL
 70
     0
  9
$DIMLIM
 70
     0
  9
$DIMTIH
 70
     1
  9
$DIMTOH
 70
     1
  9
$DIMSE1
 70
     0
  9
$DIMSE2
 70
     0
  9
$DIMTAD
 70
     0
  9
$DIMZIN
 70
     0
  9
$DIMBLK
  1

  9
$DIMASO
 70
     1
  9
$DIMSHO
 70
     1
  9
$DIMPOST
  1

  9
$DIMAPOST
  1

  9
$DIMALT
 70
     0
  9
$DIMALTD
 70
     2
  9
$DIMALTF
 40
25.4
  9
$DIMLFAC
 40
1.0
  9
$DIMTOFL
 70
     0
  9
$DIMTVP
 40
0.0
  9
$DIMTIX
 70
     0
  9
$DIMSOXD
 70
     0
  9
$DIMSAH
 70
     0
  9
$DIMBLK1
  1

  9
$DIMBLK2
  1

  9
$DIMSTYLE
  2
STANDARD
  9
$DIMCLRD
 70
     0
  9
$DIMCLRE
 70
     0
  9
$DIMCLRT
 70
     0
  9
$DIMTFAC
 40
1.0
  9
$DIMGAP
 40
0.09
  9
$LUNITS
 70
     2
  9
$LUPREC
 70
     4
  9
$AXISMODE
 70
     0
  9
$AXISUNIT
 10
0.0
 20
0.0
  9
$SKETCHINC
 40
0.1
  9
$FILLETRAD
 40
0.0
  9
$AUNITS
 70
     0
  9
$AUPREC
 70
     0
  9
$MENU
  1
acad
  9
$ELEVATION
 40
0.0
  9
$PELEVATION
 40
0.0
  9
$THICKNESS
 40
0.0
  9
$LIMCHECK
 70
     0
  9
$BLIPMODE
 70
     1
  9
$CHAMFERA
 40
0.0
  9
$CHAMFERB
 40
0.0
  9
$SKPOLY
 70
     0
  9
$TDCREATE
 40
0.000000000
  9
$TDUPDATE
 40
0.000000000
  9
$TDINDWG
 40
0.0
  9
$TDUSRTIMER
 40
0.0
  9
$USRTIMER
 70
     1
  9
$ANGBASE
 50
0.0
  9
$ANGDIR
 70
     0
  9
$PDMODE
 70
     0
  9
$PDSIZE
 40
0.0
  9
$PLINEWID
 40
0.0
  9
$COORDS
 70
     1
  9
$SPLFRAME
 70
     0
  9
$SPLINETYPE
 70
     6
  9
$SPLINESEGS
 70
     8
  9
$ATTDIA
 70
     0
  9
$ATTREQ
 70
     1
  9
$HANDLING
 70
     1
  9
$HANDSEED
  5
   89E
  9
$SURFTAB1
 70
     6
  9
$SURFTAB2
 70
     6
  9
$SURFTYPE
 70
     6
  9
$SURFU
 70
     6
  9
$SURFV
 70
     6
  9
$UCSNAME
  2

  9
$UCSORG
 10
0.0
 20
0.0
 30
0.0
  9
$UCSXDIR
 10
1.0
 20
0.0
 30
0.0
  9
$UCSYDIR
 10
0.0
 20
1.0
 30
0.0
  9
$PUCSNAME
  2

  9
$PUCSORG
 10
0.0
 20
0.0
 30
0.0
  9
$PUCSXDIR
 10
1.0
 20
0.0
 30
0.0
  9
$PUCSYDIR
 10
0.0
 20
1.0
 30
0.0
  9
$USERI1
 70
     0
  9
$USERI2
 70
     0
  9
$USERI3
 70
     0
  9
$USERI4
 70
     0
  9
$USERI5
 70
     0
  9
$USERR1
 40
0.0
  9
$USERR2
 40
0.0
  9
$USERR3
 40
0.0
  9
$USERR4
 40
0.0
  9
$USERR5
 40
0.0
  9
$WORLDVIEW
 70
     1
  9
$SHADEDGE
 70
     3
  9
$SHADEDIF
 70
    70
  9
$TILEMODE
 70
     1
  9
$MAXACTVP
 70
    16
  9
$PINSBASE
 10
0.0
 20
0.0
 30
0.0
  9
$PLIMCHECK
 70
     0
  9
$PEXTMIN
 10
1.0E20
 20
1.0E20
 30
1.0E20
  9
$PEXTMAX
 10
-1.0E20
 20
-1.0E20
 30
-1.0E20
  9
$PLIMMIN
 10
0.0
 20
0.0
  9
$PLIMMAX
 10
12.0
 20
9.0
  9
$UNITMODE
 70
     0
  9
$VISRETAIN
 70
     0
  0
ENDSEC
  0
SECTION
  2
TABLES
  0
TABLE
  2
VPORT
 70
     1
  0
VPORT
  2
*ACTIVE
 70
     0
 10
0.0
 20
0.0
 11
1.0
 21
1.0
 12
6.801242
 22
4.5
 13
0.0
 23
0.0
 14
1.0
 24
1.0
 15
0.0
 25
0.0
 16
0.0
 26
0.0
 36
1.0
 17
0.0
 27
0.0
 37
0.0
 40
9.0
 41
1.511387
 42
50.0
 43
0.0
 44
0.0
 50
0.0
 51
0.0
 71
     0
 72
   100
 73
     1
 74
     1
 75
     0
 76
     0
 77
     0
 78
     0
  0
ENDTAB
  0
TABLE
  2
LTYPE
 70
    41
  0
LTYPE
  2
BYBLOCK
 70
     0
  3

 72
    65
 73
     0
 40
0.0
  0
LTYPE
  2
BYLAYER
 70
     0
  3

 72
    65
 73
     0
 40
0.0
  0
LTYPE
  2
CONTINUOUS
 70
     0
  3
Solid line
 72
    65
 73
     0
 40
0.0
  0
LTYPE
  2
BORDER
 70
    64
  3
__ __ . __ __ . __ __ . __ __ . __ __ . __ __ .
 72
    65
 73
     6
 40
1.75
 49
0.5
 49
-0.25
 49
0.5
 49
-0.25
 49
0.0
 49
-0.25
  0
LTYPE
  2
BORDER2
 70
    64
  3
__.__.__.__.__.__.__.__.__.__.__.__.__.__.__.__
 72
    65
 73
     6
 40
0.875
 49
0.25
 49
-0.125
 49
0.25
 49
-0.125
 49
0.0
 49
-0.125
  0
LTYPE
  2
BORDERX2
 70
    64
  3
____  ____  .  ____  ____  .  ____  ____  .  __
 72
    65
 73
     6
 40
3.5
 49
1.0
 49
-0.5
 49
1.0
 49
-0.5
 49
0.0
 49
-0.5
  0
LTYPE
  2
CENTER
 70
    64
  3
____ _ ____ _ ____ _ ____ _ ____ _ ____ _ ____
 72
    65
 73
     4
 40
2.0
 49
1.25
 49
-0.25
 49
0.25
 49
-0.25
  0
LTYPE
  2
CENTER2
 70
    64
  3
___ _ ___ _ ___ _ ___ _ ___ _ ___ _ ___ _ ___ _
 72
    65
 73
     4
 40
1.125
 49
0.75
 49
-0.125
 49
0.125
 49
-0.125
  0
LTYPE
  2
CENTERX2
 70
    64
  3
________  __  ________  __  ________  __  _____
 72
    65
 73
     4
 40
4.0
 49
2.5
 49
-0.5
 49
0.5
 49
-0.5
  0
LTYPE
  2
DASHDOT
 70
    64
  3
__ . __ . __ . __ . __ . __ . __ . __ . __ . __
 72
    65
 73
     4
 40
1.0
 49
0.5
 49
-0.25
 49
0.0
 49
-0.25
  0
LTYPE
  2
DASHDOT2
 70
    64
  3
_._._._._._._._._._._._._._._._._._._._._._._._
 72
    65
 73
     4
 40
0.5
 49
0.25
 49
-0.125
 49
0.0
 49
-0.125
  0
LTYPE
  2
DASHDOTX2
 70
    64
  3
____  .  ____  .  ____  .  ____  .  ____  .  __
 72
    65
 73
     4
 40
2.0
 49
1.0
 49
-0.5
 49
0.0
 49
-0.5
  0
LTYPE
  2
DASHED
 70
    64
  3
__ __ __ __ __ __ __ __ __ __ __ __ __ __ __ __
 72
    65
 73
     2
 40
0.75
 49
0.5
 49
-0.25
  0
LTYPE
  2
DASHED2
 70
    64
  3
_ _ _ _ _ _ _ _ _ _ _ _ _ _ _ _ _ _ _ _ _ _ _ _
 72
    65
 73
     2
 40
0.375
 49
0.25
 49
-0.125
  0
LTYPE
  2
DASHEDX2
 70
    64
  3
____  ____  ____  ____  ____  ____  ____  ____
 72
    65
 73
     2
 40
1.5
 49
1.0
 49
-0.5
  0
LTYPE
  2
DIVIDE
 70
    64
  3
____ . . ____ . . ____ . . ____ . . ____ . . __
 72
    65
 73
     6
 40
1.25
 49
0.5
 49
-0.25
 49
0.0
 49
-0.25
 49
0.0
 49
-0.25
  0
LTYPE
  2
DIVIDE2
 70
    64
  3
__..__..__..__..__..__..__..__..__..__..__..__.
 72
    65
 73
     6
 40
0.625
 49
0.25
 49
-0.125
 49
0.0
 49
-0.125
 49
0.0
 49
-0.125
  0
LTYPE
  2
DIVIDEX2
 70
    64
  3
________  .  .  ________  .  .  ________  .  .
 72
    65
 73
     6
 40
2.5
 49
1.0
 49
-0.5
 49
0.0
 49
-0.5
 49
0.0
 49
-0.5
  0
LTYPE
  2
DOT
 70
    64
  3
. . . . . . . . . . . . . . . . . . . . . . . .
 72
    65
 73
     2
 40
0.25
 49
0.0
 49
-0.25
  0
LTYPE
  2
DOT2
 70
    64
  3
...............................................
 72
    65
 73
     2
 40
0.125
 49
0.0
 49
-0.125
  0
LTYPE
  2
DOTX2
 70
    64
  3
.  .  .  .  .  .  .  .  .  .  .  .  .  .  .  .
 72
    65
 73
     2
 40
0.5
 49
0.0
 49
-0.5
  0
LTYPE
  2
HIDDEN
 70
    64
  3
__ __ __ __ __ __ __ __ __ __ __ __ __ __ __ __
 72
    65
 73
     2
 40
0.375
 49
0.25
 49
-0.125
  0
LTYPE
  2
HIDDEN2
 70
    64
  3
_ _ _ _ _ _ _ _ _ _ _ _ _ _ _ _ _ _ _ _ _ _ _ _
 72
    65
 73
     2
 40
0.1875
 49
0.125
 49
-0.0625
  0
LTYPE
  2
HIDDENX2
 70
    64
  3
____ ____ ____ ____ ____ ____ ____ ____ ____ __
 72
    65
 73
     2
 40
0.75
 49
0.5
 49
-0.25
  0
LTYPE
  2
PHANTOM
 70
    64
  3
______  __  __  ______  __  __  ______  __  __
 72
    65
 73
     6
 40
2.5
 49
1.25
 49
-0.25
 49
0.25
 49
-0.25
 49
0.25
 49
-0.25
  0
LTYPE
  2
PHANTOM2
 70
    64
  3
___ _ _ ___ _ _ ___ _ _ ___ _ _ ___ _ _ ___ _ _
 72
    65
 73
     6
 40
1.25
 49
0.625
 49
-0.125
 49
0.125
 49
-0.125
 49
0.125
 49
-0.125
  0
LTYPE
  2
PHANTOMX2
 70
    64
  3
____________    ____    ____    ____________
 72
    65
 73
     6
 40
5.0
 49
2.5
 49
-0.5
 49
0.5
 49
-0.5
 49
0.5
 49
-0.5
  0
LTYPE
  2
ACAD_ISO02W100
 70
    64
  3
__ __ __ __ __ __ __ __ __ __ __ __ __ __ __ __
 72
    65
 73
     2
 40
15.0
 49
12.0
 49
-3.0
  0
LTYPE
  2
ACAD_ISO03W100
 70
    64
  3
__    __    __    __    __    __    __    __
 72
    65
 73
     2
 40
30.0
 49
12.0
 49
-18.0
  0
LTYPE
  2
ACAD_ISO04W100
 70
    64
  3
____ . ____ . ____ . ____ . ____ . ____ . ____
 72
    65
 73
     4
 40
30.5
 49
24.0
 49
-3.0
 49
0.5
 49
-3.0
  0
LTYPE
  2
ACAD_ISO05W100
 70
    64
  3
____ .. ____ .. ____ .. ____ .. ____ .. ____ ..
 72
    65
 73
     6
 40
34.0
 49
24.0
 49
-3.0
 49
0.5
 49
-3.0
 49
0.5
 49
-3.0
  0
LTYPE
  2
ACAD_ISO06W100
 70
    64
  3
____ ... ____ ... ____ ... ____ ... ____ ... __
 72
    65
 73
     8
 40
37.5
 49
24.0
 49
-3.0
 49
0.5
 49
-3.0
 49
0.5
 49
-3.0
 49
0.5
 49
-3.0
  0
LTYPE
  2
ACAD_ISO07W100
 70
    64
  3
. . . . . . . . . . . . . . . . . . . . . . . .
 72
    65
 73
     2
 40
3.5
 49
0.5
 49
-3.0
  0
LTYPE
  2
ACAD_ISO08W100
 70
    64
  3
____ __ ____ __ ____ __ ____ ____ __ __ ____ __
 72
    65
 73
     4
 40
36.0
 49
24.0
 49
-3.0
 49
6.0
 49
-3.0
  0
LTYPE
  2
ACAD_ISO09W100
 70
    64
  3
____ __ __ ____ __ __ ____ __ __ ____ __ __ ___
 72
    65
 73
     6
 40
45.0
 49
24.0
 49
-3.0
 49
6.0
 49
-3.0
 49
6.0
 49
-3.0
  0
LTYPE
  2
ACAD_ISO10W100
 70
    64
  3
__ . __ . __ . __ . __ . __ . __ . __ . __ . __
 72
    65
 73
     4
 40
18.5
 49
12.0
 49
-3.0
 49
0.5
 49
-3.0
  0
LTYPE
  2
ACAD_ISO11W100
 70
    64
  3
__ __ . __ __ . __ __ . __ __ . __ __ . __ __ .
 72
    65
 73
     6
 40
33.5
 49
12.0
 49
-3.0
 49
12.0
 49
-3.0
 49
0.5
 49
-3.0
  0
LTYPE
  2
ACAD_ISO12W100
 70
    64
  3
__ . . __ . . __ . . __ . . __ . . __ . . __ .
 72
    65
 73
     6
 40
22.0
 49
12.0
 49
-3.0
 49
0.5
 49
-3.0
 49
0.5
 49
-3.0
  0
LTYPE
  2
ACAD_ISO13W100
 70
    64
  3
__ __ . . __ __ . . __ __ . . __ __ . . __ __ .
 72
    65
 73
     8
 40
37.0
 49
12.0
 49
-3.0
 49
12.0
 49
-3.0
 49
0.5
 49
-3.0
 49
0.5
 49
-3.0
  0
LTYPE
  2
ACAD_ISO14W100
 70
    64
  3
__ . . . __ . . . __ . . . __ . . . __ . . . __
 72
    65
 73
     8
 40
25.5
 49
12.0
 49
-3.0
 49
0.5
 49
-3.0
 49
0.5
 49
-3.0
 49
0.5
 49
-3.0
  0
LTYPE
  2
ACAD_ISO15W100
 70
    64
  3
__ __ . . . __ __ . . . __ __ . . . __ __ . . .
 72
    65
 73
    10
 40
40.5
 49
12.0
 49
-3.0
 49
12.0
 49
-3.0
 49
0.5
 49
-3.0
 49
0.5
 49
-3.0
 49
0.5
 49
-3.0
  0
ENDTAB
  0
TABLE
  2
STYLE
 70
     4
  0
STYLE
  2
STANDARD
 70
    64
 40
0.0
 41
1.0
 50
0.0
 71
     0
 42
0.2
  3
txt
  4

  0
STYLE
  2
TOLERANCE
 70
    64
 40
0.0
 41
1.0
 50
0.0
 71
     0
 42
0.2
  3
../igesfont/iges1003.shx
  4

  0
STYLE
  2
ROMANS
 70
    64
 40
0.0
 41
1.0
 50
0.0
 71
     0
 42
0.2
  3
romans.shx
  4

  0
STYLE
  2
ROMANC
 70
    64
 40
0.0
 41
1.0
 50
0.0
 71
     0
 42
0.2
  3
romanc.shx
  4

  0
ENDTAB
  0
TABLE
  2
DIMSTYLE
 70
     2
  0
DIMSTYLE
  2
UNNAMED
 70
     0
  3

  4

  5

  6

  7

 40
1.0
 41
0.18
 42
0.0625
 43
0.38
 44
0.18
 45
0.0
 46
0.0
 47
0.0
 48
0.0
140
0.18
141
0.09
142
0.0
143
25.4
144
1.0
145
0.0
146
1.0
147
0.09
 71
     0
 72
     0
 73
     1
 74
     1
 75
     0
 76
     0
 77
     0
 78
     0
170
     0
171
     2
172
     0
173
     0
174
     0
175
     0
176
     0
177
     0
178
     0
  0
DIMSTYLE
  2
STANDARD
 70
     0
  3

  4

  5

  6

  7

 40
1.0
 41
0.18
 42
0.0625
 43
0.38
 44
0.18
 45
0.0
 46
0.0
 47
0.0
 48
0.0
140
0.18
141
0.09
142
0.0
143
25.4
144
1.0
145
0.0
146
1.0
147
0.09
 71
     0
 72
     0
 73
     1
 74
     1
 75
     0
 76
     0
 77
     0
 78
     0
170
     0
171
     2
172
     0
173
     0
174
     0
175
     0
176
     0
177
     0
178
     0
  0
ENDTAB
  0
TABLE
  2
LAYER
 70
     2
  0
LAYER
  2
0
 70
     0
 62
     7
  6
CONTINUOUS
  0
LAYER
  2
255
 70
     0
 62
     7
  6
CONTINUOUS
  0
ENDTAB
  0
ENDSEC
  0
SECTION
  2
BLOCKS
  0
BLOCK
  5
     B
  8
0
  6
CONTINUOUS
 62
     7
  2
*UDIM1819
 70
    65
 10
0.0
 20
0.0
 30
0.0
  3
*UDIM1819
  0
TEXT
  5
     C
  8
0
  6
CONTINUOUS
 62
     7
 10
35.7942803889306
 20
-99.4079331343989
 30
0.0
 40
2.50000001341104
  1
77,5
 50
449.999999896069
 41
0.933333333333333
 72
     1
 11
34.544280390209
 21
-94.9912664417798
 31
0.0
 73
     2
  0
LINE
  5
     D
  8
0
  6
CONTINUOUS
 62
     7
 10
55.6598812788725
 20
-87.0120997913182
 30
0.0
 11
34.7942803969145
 21
-87.0120997913182
 31
0.0
  0
LINE
  5
     E
  8
0
  6
CONTINUOUS
 62
     7
 10
55.6598812788725
 20
-102.512100022286
 30
0.0
 11
34.7942803969145
 21
-102.512100022286
 31
0.0
  0
LINE
  5
     F
  8
0
  6
CONTINUOUS
 62
     7
 10
36.7942803969145
 20
-87.0120997913182
 30
0.0
 11
36.7942803969145
 21
-102.512100022286
 31
0.0
  0
LINE
  5
    10
  8
0
  6
CONTINUOUS
 62
     7
 10
37.3152249149148
 20
-89.9665230529998
 30
0.0
 11
36.7942803969145
 21
-87.0120997913182
 31
0.0
  0
LINE
  5
    11
  8
0
  6
CONTINUOUS
 62
     7
 10
36.7942803969145
 20
-87.0120997913182
 30
0.0
 11
36.2733358789141
 21
-89.9665230529998
 31
0.0
  0
LINE
  5
    12
  8
0
  6
CONTINUOUS
 62
     7
 10
36.2733358789141
 20
-99.5576767606046
 30
0.0
 11
36.7942803969145
 21
-102.512100022286
 31
0.0
  0
LINE
  5
    13
  8
0
  6
CONTINUOUS
 62
     7
 10
36.7942803969145
 20
-102.512100022286
 30
0.0
 11
37.3152249149148
 21
-99.5576767606046
 31
0.0
  0
ENDBLK
  5
    14
  8
0
  6
CONTINUOUS
 62
     7
  0
BLOCK
  5
    15
  8
0
  6
CONTINUOUS
 62
     7
  2
*UDIM1820
 70
    65
 10
0.0
 20
0.0
 30
0.0
  3
*UDIM1820
  0
TEXT
  5
    16
  8
0
  6
CONTINUOUS
 62
     7
 10
35.7942803889306
 20
-112.766819021051
 30
0.0
 40
2.50000001341104
  1
57,5
 50
449.999999896069
 41
0.933333333333333
 72
     1
 11
34.544280390209
 21
-108.350152328432
 31
0.0
 73
     2
  0
LINE
  5
    17
  8
0
  6
CONTINUOUS
 62
     7
 10
36.7942803969145
 20
-102.512100022286
 30
0.0
 11
36.7942803969145
 21
-114.01210019365
 31
0.0
  0
LINE
  5
    18
  8
0
  6
CONTINUOUS
 62
     7
 10
36.2733358789141
 20
-99.5576767606046
 30
0.0
 11
36.7942803969145
 21
-102.512100022286
 31
0.0
  0
LINE
  5
    19
  8
0
  6
CONTINUOUS
 62
     7
 10
36.7942803969145
 20
-102.512100022286
 30
0.0
 11
37.3152249149148
 21
-99.5576767606046
 31
0.0
  0
LINE
  5
    1A
  8
0
  6
CONTINUOUS
 62
     7
 10
37.3152249149148
 20
-116.966523455331
 30
0.0
 11
36.7942803969145
 21
-114.01210019365
 31
0.0
  0
LINE
  5
    1B
  8
0
  6
CONTINUOUS
 62
     7
 10
36.7942803969145
 20
-114.01210019365
 30
0.0
 11
36.2733358789141
 21
-116.966523455331
 31
0.0
  0
ENDBLK
  5
    1C
  8
0
  6
CONTINUOUS
 62
     7
  0
BLOCK
  5
    1D
  8
0
  6
CONTINUOUS
 62
     7
  2
*UDIM1821
 70
    65
 10
0.0
 20
0.0
 30
0.0
  3
*UDIM1821
  0
TEXT
  5
    1E
  8
0
  6
CONTINUOUS
 62
     7
 10
35.7942803889306
 20
-127.30793507602
 30
0.0
 40
2.50000001341104
  1
86,5
 50
449.999999896069
 41
0.933333333333333
 72
     1
 11
34.544280390209
 21
-122.891268383401
 31
0.0
 73
     2
  0
LINE
  5
    1F
  8
0
  6
CONTINUOUS
 62
     7
 10
55.6598812788725
 20
-131.31210045144
 30
0.0
 11
34.7942803969145
 21
-131.31210045144
 31
0.0
  0
LINE
  5
    20
  8
0
  6
CONTINUOUS
 62
     7
 10
36.7942803969145
 20
-114.01210019365
 30
0.0
 11
36.7942803969145
 21
-131.31210045144
 31
0.0
  0
LINE
  5
    21
  8
0
  6
CONTINUOUS
 62
     7
 10
37.3152249149148
 20
-116.966523455331
 30
0.0
 11
36.7942803969145
 21
-114.01210019365
 31
0.0
  0
LINE
  5
    22
  8
0
  6
CONTINUOUS
 62
     7
 10
36.7942803969145
 20
-114.01210019365
 30
0.0
 11
36.2733358789141
 21
-116.966523455331
 31
0.0
  0
LINE
  5
    23
  8
0
  6
CONTINUOUS
 62
     7
 10
36.2733358789141
 20
-128.357677189758
 30
0.0
 11
36.7942803969145
 21
-131.31210045144
 31
0.0
  0
LINE
  5
    24
  8
0
  6
CONTINUOUS
 62
     7
 10
36.7942803969145
 20
-131.31210045144
 30
0.0
 11
37.3152249149148
 21
-128.357677189758
 31
0.0
  0
ENDBLK
  5
    25
  8
0
  6
CONTINUOUS
 62
     7
  0
BLOCK
  5
    26
  8
0
  6
CONTINUOUS
 62
     7
  2
*UDIM1822
 70
    65
 10
0.0
 20
0.0
 30
0.0
  3
*UDIM1822
  0
TEXT
  5
    27
  8
0
  6
CONTINUOUS
 62
     7
 10
35.7942803889306
 20
-143.707938372157
 30
0.0
 40
2.50000001341104
  1
77,5
 50
449.999999896069
 41
0.933333333333333
 72
     1
 11
34.544280390209
 21
-139.291271679538
 31
0.0
 73
     2
  0
LINE
  5
    28
  8
0
  6
CONTINUOUS
 62
     7
 10
55.6598812788725
 20
-146.812100682408
 30
0.0
 11
34.7942803969145
 21
-146.812100682408
 31
0.0
  0
LINE
  5
    29
  8
0
  6
CONTINUOUS
 62
     7
 10
36.7942803969145
 20
-131.31210045144
 30
0.0
 11
36.7942803969145
 21
-146.812100682408
 31
0.0
  0
LINE
  5
    2A
  8
0
  6
CONTINUOUS
 62
     7
 10
37.3152249149148
 20
-134.266523713121
 30
0.0
 11
36.7942803969145
 21
-131.31210045144
 31
0.0
  0
LINE
  5
    2B
  8
0
  6
CONTINUOUS
 62
     7
 10
36.7942803969145
 20
-131.31210045144
 30
0.0
 11
36.2733358789141
 21
-134.266523713121
 31
0.0
  0
LINE
  5
    2C
  8
0
  6
CONTINUOUS
 62
     7
 10
36.2733358789141
 20
-143.857677420726
 30
0.0
 11
36.7942803969145
 21
-146.812100682408
 31
0.0
  0
LINE
  5
    2D
  8
0
  6
CONTINUOUS
 62
     7
 10
36.7942803969145
 20
-146.812100682408
 30
0.0
 11
37.3152249149148
 21
-143.857677420726
 31
0.0
  0
ENDBLK
  5
    2E
  8
0
  6
CONTINUOUS
 62
     7
  0
BLOCK
  5
    2F
  8
0
  6
CONTINUOUS
 62
     7
  2
*UDIM1823
 70
    65
 10
0.0
 20
0.0
 30
0.0
  3
*UDIM1823
  0
TEXT
  5
    30
  8
0
  6
CONTINUOUS
 62
     7
 10
98.8807149998708
 20
-78.2338831168004
 30
0.0
 40
2.50000001341104
  1
107
 50
359.999999896069
 41
0.933333333333333
 72
     1
 11
102.130715019566
 21
-76.9838831159738
 31
0.0
 73
     2
  0
LINE
  5
    31
  8
0
  6
CONTINUOUS
 62
     7
 10
113.059882119298
 20
-86.4120997972786
 30
0.0
 11
113.059882119298
 21
-77.2338831226793
 31
0.0
  0
LINE
  5
    32
  8
0
  6
CONTINUOUS
 62
     7
 10
113.059882119298
 20
-79.2338831226794
 30
0.0
 11
91.6598818004131
 21
-79.2338831226794
 31
0.0
  0
LINE
  5
    33
  8
0
  6
CONTINUOUS
 62
     7
 10
110.105458857616
 20
-79.7548276406797
 30
0.0
 11
113.059882119298
 21
-79.2338831226794
 31
0.0
  0
LINE
  5
    34
  8
0
  6
CONTINUOUS
 62
     7
 10
113.059882119298
 20
-79.2338831226794
 30
0.0
 11
110.105458857616
 21
-78.712938604679
 31
0.0
  0
LINE
  5
    35
  8
0
  6
CONTINUOUS
 62
     7
 10
94.6143050620947
 20
-78.712938604679
 30
0.0
 11
91.6598818004131
 21
-79.2338831226794
 31
0.0
  0
LINE
  5
    36
  8
0
  6
CONTINUOUS
 62
     7
 10
91.6598818004131
 20
-79.2338831226794
 30
0.0
 11
94.6143050620947
 21
-79.7548276406797
 31
0.0
  0
ENDBLK
  5
    37
  8
0
  6
CONTINUOUS
 62
     7
  0
BLOCK
  5
    38
  8
0
  6
CONTINUOUS
 62
     7
  2
*UDIM1824
 70
    65
 10
0.0
 20
0.0
 30
0.0
  3
*UDIM1824
  0
TEXT
  5
    39
  8
0
  6
CONTINUOUS
 62
     7
 10
96.347382738229
 20
-154.493167702528
 30
0.0
 40
2.50000001341104
  1
70
 50
359.999999896069
 41
0.933333333333333
 72
     1
 11
98.4307160849994
 21
-153.243167699591
 31
0.0
 73
     2
  0
LINE
  5
    3A
  8
0
  6
CONTINUOUS
 62
     7
 10
105.659882009029
 20
-132.210930883847
 30
0.0
 11
105.659882009029
 21
-157.493167706297
 31
0.0
  0
LINE
  5
    3B
  8
0
  6
CONTINUOUS
 62
     7
 10
105.659882009029
 20
-155.493167706297
 30
0.0
 11
91.6598818004131
 21
-155.493167706297
 31
0.0
  0
LINE
  5
    3C
  8
0
  6
CONTINUOUS
 62
     7
 10
102.705458747348
 20
-156.014112224297
 30
0.0
 11
105.659882009029
 21
-155.493167706297
 31
0.0
  0
LINE
  5
    3D
  8
0
  6
CONTINUOUS
 62
     7
 10
105.659882009029
 20
-155.493167706297
 30
0.0
 11
102.705458747348
 21
-154.972223188297
 31
0.0
  0
LINE
  5
    3E
  8
0
  6
CONTINUOUS
 62
     7
 10
94.6143050620947
 20
-154.972223188297
 30
0.0
 11
91.6598818004131
 21
-155.493167706297
 31
0.0
  0
LINE
  5
    3F
  8
0
  6
CONTINUOUS
 62
     7
 10
91.6598818004131
 20
-155.493167706297
 30
0.0
 11
94.6143050620947
 21
-156.014112224297
 31
0.0
  0
ENDBLK
  5
    40
  8
0
  6
CONTINUOUS
 62
     7
  0
BLOCK
  5
    41
  8
0
  6
CONTINUOUS
 62
     7
  2
*UDIM1825
 70
    65
 10
0.0
 20
0.0
 30
0.0
  3
*UDIM1825
  0
TEXT
  5
    42
  8
0
  6
CONTINUOUS
 62
     7
 10
81.1807147361202
 20
-159.225925339301
 30
0.0
 40
2.50000001341104
  1
210
 50
359.999999896069
 41
0.933333333333333
 72
     1
 11
84.4307147558158
 21
-157.975925338474
 31
0.0
 73
     2
  0
LINE
  5
    43
  8
0
  6
CONTINUOUS
 62
     7
 10
105.659882009029
 20
-132.210930883847
 30
0.0
 11
105.659882009029
 21
-162.22592534518
 31
0.0
  0
LINE
  5
    44
  8
0
  6
CONTINUOUS
 62
     7
 10
63.6598813831806
 20
-132.762100458145
 30
0.0
 11
63.6598813831806
 21
-162.22592534518
 31
0.0
  0
LINE
  5
    45
  8
0
  6
CONTINUOUS
 62
     7
 10
105.659882009029
 20
-160.22592534518
 30
0.0
 11
63.6598813831806
 21
-160.22592534518
 31
0.0
  0
LINE
  5
    46
  8
0
  6
CONTINUOUS
 62
     7
 10
102.705458747348
 20
-160.74686986318
 30
0.0
 11
105.659882009029
 21
-160.22592534518
 31
0.0
  0
LINE
  5
    47
  8
0
  6
CONTINUOUS
 62
     7
 10
105.659882009029
 20
-160.22592534518
 30
0.0
 11
102.705458747348
 21
-159.704980827179
 31
0.0
  0
LINE
  5
    48
  8
0
  6
CONTINUOUS
 62
     7
 10
66.6143046448622
 20
-159.704980827179
 30
0.0
 11
63.6598813831806
 21
-160.22592534518
 31
0.0
  0
LINE
  5
    49
  8
0
  6
CONTINUOUS
 62
     7
 10
63.6598813831806
 20
-160.22592534518
 30
0.0
 11
66.6143046448622
 21
-160.74686986318
 31
0.0
  0
ENDBLK
  5
    4A
  8
0
  6
CONTINUOUS
 62
     7
  0
BLOCK
  5
    4B
  8
0
  6
CONTINUOUS
 62
     7
  2
*UDIM1826
 70
    65
 10
0.0
 20
0.0
 30
0.0
  3
*UDIM1826
  0
TEXT
  5
    4C
  8
0
  6
CONTINUOUS
 62
     7
 10
81.1807147361202
 20
-73.1332086023178
 30
0.0
 40
2.50000001341104
  1
284
 50
359.999999896069
 41
0.933333333333333
 72
     1
 11
84.4307147558158
 21
-71.8832086014913
 31
0.0
 73
     2
  0
LINE
  5
    4D
  8
0
  6
CONTINUOUS
 62
     7
 10
113.059882119298
 20
-86.4120997972786
 30
0.0
 11
113.059882119298
 21
-72.1332086081968
 31
0.0
  0
LINE
  5
    4E
  8
0
  6
CONTINUOUS
 62
     7
 10
56.259881272912
 20
-86.4120997972786
 30
0.0
 11
56.259881272912
 21
-72.1332086081968
 31
0.0
  0
LINE
  5
    4F
  8
0
  6
CONTINUOUS
 62
     7
 10
113.059882119298
 20
-74.1332086081968
 30
0.0
 11
56.259881272912
 21
-74.1332086081968
 31
0.0
  0
LINE
  5
    50
  8
0
  6
CONTINUOUS
 62
     7
 10
110.105458857616
 20
-74.6541531261972
 30
0.0
 11
113.059882119298
 21
-74.1332086081968
 31
0.0
  0
LINE
  5
    51
  8
0
  6
CONTINUOUS
 62
     7
 10
113.059882119298
 20
-74.1332086081968
 30
0.0
 11
110.105458857616
 21
-73.6122640901965
 31
0.0
  0
LINE
  5
    52
  8
0
  6
CONTINUOUS
 62
     7
 10
59.2143045345936
 20
-73.6122640901965
 30
0.0
 11
56.259881272912
 21
-74.1332086081968
 31
0.0
  0
LINE
  5
    53
  8
0
  6
CONTINUOUS
 62
     7
 10
56.259881272912
 20
-74.1332086081968
 30
0.0
 11
59.2143045345936
 21
-74.6541531261972
 31
0.0
  0
ENDBLK
  5
    54
  8
0
  6
CONTINUOUS
 62
     7
  0
BLOCK
  5
    55
  8
0
  6
CONTINUOUS
 62
     7
  2
*UDIM1827
 70
    65
 10
0.0
 20
0.0
 30
0.0
  3
*UDIM1827
  0
TEXT
  5
    56
  8
0
  6
CONTINUOUS
 62
     7
 10
83.8476837807112
 20
-122.219035846305
 30
0.0
 40
2.50000001341104
  1
8,5
 50
345.45340549187
 41
0.933333333333333
 72
     1
 11
87.307459895292
 21
-121.82539976175
 31
0.0
 73
     2
  0
TEXT
  5
    57
  8
0
  6
CONTINUOUS
 62
     7
 10
81.3068315258149
 20
-121.559721828003
 30
0.0
 40
2.50000001341104
  1
Ø
 50
345.45340549187
 41
0.933333333333333
 72
     1
 11
82.5080723181532
 21
-120.580028834061
 31
0.0
 73
     2
  0
TEXT
  5
    58
  8
0
  6
CONTINUOUS
 62
     7
 10
90.5829587421522
 20
-123.966741250634
 30
0.0
 40
2.50000001341104
  1
 - M8
 50
345.45340549187
 41
0.933333333333333
 72
     1
 11
96.3012701789753
 21
-124.159162075466
 31
0.0
 73
     2
  0
LINE
  5
    59
  8
0
  6
CONTINUOUS
 62
     7
 10
106.482634170364
 20
-129.125592576073
 30
0.0
 11
81.0556642838056
 21
-122.527665534971
 31
0.0
  0
LINE
  5
    5A
  8
0
  6
CONTINUOUS
 62
     7
 10
109.473193766557
 20
-129.363401956928
 30
0.0
 11
106.482634170364
 21
-129.125592576073
 31
0.0
  0
LINE
  5
    5B
  8
0
  6
CONTINUOUS
 62
     7
 10
106.482634170364
 20
-129.125592576073
 30
0.0
 11
109.211505369058
 21
-130.371891890419
 31
0.0
  0
LINE
  5
    5C
  8
0
  6
CONTINUOUS
 62
     7
 10
101.846570251502
 20
-128.460798874426
 30
0.0
 11
104.837129847694
 21
-128.698608255281
 31
0.0
  0
LINE
  5
    5D
  8
0
  6
CONTINUOUS
 62
     7
 10
104.837129847694
 20
-128.698608255281
 30
0.0
 11
102.108258649001
 21
-127.452308940934
 31
0.0
  0
ENDBLK
  5
    5E
  8
0
  6
CONTINUOUS
 62
     7
  0
BLOCK
  5
    5F
  8
0
  6
CONTINUOUS
 62
     7
  2
*UDIM1828
 70
    65
 10
0.0
 20
0.0
 30
0.0
  3
*UDIM1828
  0
TEXT
  5
    60
  8
0
  6
CONTINUOUS
 62
     7
 10
42.7839045186306
 20
-120.391267196846
 30
0.0
 40
2.50000001341104
  1
120
 50
449.999999896069
 41
0.933333333333333
 72
     1
 11
41.5339045178
 21
-117.141267177152
 31
0.0
 73
     2
  0
LINE
  5
    61
  8
0
  6
CONTINUOUS
 62
     7
 10
59.8098813407123
 20
-104.912100058049
 30
0.0
 11
41.7839045245055
 21
-104.912100058049
 31
0.0
  0
LINE
  5
    62
  8
0
  6
CONTINUOUS
 62
     7
 10
59.8098813407123
 20
-128.912100415677
 30
0.0
 11
41.7839045245055
 21
-128.912100415677
 31
0.0
  0
LINE
  5
    63
  8
0
  6
CONTINUOUS
 62
     7
 10
43.7839045245055
 20
-104.912100058049
 30
0.0
 11
43.7839045245055
 21
-128.912100415677
 31
0.0
  0
LINE
  5
    64
  8
0
  6
CONTINUOUS
 62
     7
 10
44.3048490425058
 20
-107.866523319731
 30
0.0
 11
43.7839045245055
 21
-104.912100058049
 31
0.0
  0
LINE
  5
    65
  8
0
  6
CONTINUOUS
 62
     7
 10
43.7839045245055
 20
-104.912100058049
 30
0.0
 11
43.2629600065051
 21
-107.866523319731
 31
0.0
  0
LINE
  5
    66
  8
0
  6
CONTINUOUS
 62
     7
 10
43.2629600065051
 20
-125.957677153995
 30
0.0
 11
43.7839045245055
 21
-128.912100415677
 31
0.0
  0
LINE
  5
    67
  8
0
  6
CONTINUOUS
 62
     7
 10
43.7839045245055
 20
-128.912100415677
 30
0.0
 11
44.3048490425058
 21
-125.957677153995
 31
0.0
  0
ENDBLK
  5
    68
  8
0
  6
CONTINUOUS
 62
     7
  0
BLOCK
  5
    69
  8
0
  6
CONTINUOUS
 62
     7
  2
*UDIM1829
 70
    65
 10
0.0
 20
0.0
 30
0.0
  3
*UDIM1829
  0
TEXT
  5
    6A
  8
0
  6
CONTINUOUS
 62
     7
 10
47.5421321264873
 20
-101.974600228729
 30
0.0
 40
2.50000001341104
  1
45,5
 50
449.999999896069
 41
0.933333333333333
 72
     1
 11
46.2921321277656
 21
-97.5579335361098
 31
0.0
 73
     2
  0
LINE
  5
    6B
  8
0
  6
CONTINUOUS
 62
     7
 10
67.3287970664402
 20
-104.912100058049
 30
0.0
 11
46.5421321344711
 21
-104.912100058049
 31
0.0
  0
LINE
  5
    6C
  8
0
  6
CONTINUOUS
 62
     7
 10
48.5421321344711
 20
-93.1412668457503
 30
0.0
 11
48.5421321344711
 21
-114.01210019365
 31
0.0
  0
LINE
  5
    6D
  8
0
  6
CONTINUOUS
 62
     7
 10
48.0211876164708
 20
-101.957676796367
 30
0.0
 11
48.5421321344711
 21
-104.912100058049
 31
0.0
  0
LINE
  5
    6E
  8
0
  6
CONTINUOUS
 62
     7
 10
48.5421321344711
 20
-104.912100058049
 30
0.0
 11
49.0630766524714
 21
-101.957676796367
 31
0.0
  0
LINE
  5
    6F
  8
0
  6
CONTINUOUS
 62
     7
 10
49.0630766524714
 20
-116.966523455331
 30
0.0
 11
48.5421321344711
 21
-114.01210019365
 31
0.0
  0
LINE
  5
    70
  8
0
  6
CONTINUOUS
 62
     7
 10
48.5421321344711
 20
-114.01210019365
 30
0.0
 11
48.0211876164708
 21
-116.966523455331
 31
0.0
  0
ENDBLK
  5
    71
  8
0
  6
CONTINUOUS
 62
     7
  0
BLOCK
  5
    72
  8
0
  6
CONTINUOUS
 62
     7
  2
*HATCH343
 70
    65
 10
0.0
 20
0.0
 30
0.0
  3
*HATCH343
  0
LINE
  5
    73
  8
0
  6
CONTINUOUS
 62
    52
 10
92.5330276489258
 20
39.5000114440918
 30
0.0
 11
90.5330276489258
 21
37.5000114440918
 31
0.0
  0
LINE
  5
    74
  8
0
  6
CONTINUOUS
 62
    52
 10
96.7756729125977
 20
39.5000114440918
 30
0.0
 11
94.7756729125977
 21
37.5000114440918
 31
0.0
  0
LINE
  5
    75
  8
0
  6
CONTINUOUS
 62
    52
 10
101.01831817627
 20
39.5000114440918
 30
0.0
 11
99.0183181762695
 21
37.5000114440918
 31
0.0
  0
LINE
  5
    76
  8
0
  6
CONTINUOUS
 62
    52
 10
105.260963439941
 20
39.5000114440918
 30
0.0
 11
103.260963439941
 21
37.5000114440918
 31
0.0
  0
LINE
  5
    77
  8
0
  6
CONTINUOUS
 62
    52
 10
109.503608703613
 20
39.5000114440918
 30
0.0
 11
107.503608703613
 21
37.5000114440918
 31
0.0
  0
LINE
  5
    78
  8
0
  6
CONTINUOUS
 62
    52
 10
113.746253967285
 20
39.5000114440918
 30
0.0
 11
111.746253967285
 21
37.5000114440918
 31
0.0
  0
LINE
  5
    79
  8
0
  6
CONTINUOUS
 62
    52
 10
117.988899230957
 20
39.5000114440918
 30
0.0
 11
115.988899230957
 21
37.5000114440918
 31
0.0
  0
ENDBLK
  5
    7A
  8
0
  6
CONTINUOUS
 62
     7
  0
BLOCK
  5
    7B
  8
0
  6
CONTINUOUS
 62
     7
  2
BASETT
 70
    64
 10
0.0
 20
0.0
 30
0.0
  3
BASETT
  0
LINE
  5
    7C
  8
0
  6
CONTINUOUS
 62
     1
 10
9.37916411203332E-13
 20
8.29115314964895E-16
 30
0.0
 11
48.5000000000009
 21
8.29115314964895E-16
 31
0.0
  0
LINE
  5
    7D
  8
0
  6
CONTINUOUS
 62
     1
 10
-2.00000000000001
 20
16.4999999606765
 30
0.0
 11
48.5000000000058
 21
16.4999900306657
 31
0.0
  0
LINE
  5
    7E
  8
0
  6
CONTINUOUS
 62
     1
 10
-2.5
 20
278.499999567409
 30
0.0
 11
48.5
 21
278.499999567409
 31
0.0
  0
LINE
  5
    7F
  8
0
  6
CONTINUOUS
 62
     1
 10
1.49317556230405E-11
 20
294.999952060667
 30
0.0
 11
48.5000000000149
 21
294.999952060667
 31
0.0
  0
LINE
  5
    80
  8
0
  6
CONTINUOUS
 62
     1
 10
0.0
 20
0.0
 30
0.0
 11
0.0
 21
16.4999995674088
 31
0.0
  0
LINE
  5
    81
  8
0
  6
CONTINUOUS
 62
     1
 10
0.0
 20
224.499952060667
 30
0.0
 11
0.0
 21
263.499999567409
 31
0.0
  0
LINE
  5
    82
  8
0
  6
CONTINUOUS
 62
     1
 10
48.5
 20
74.4999564682283
 30
0.0
 11
48.5
 21
81.4999995674093
 31
0.0
  0
LINE
  5
    83
  8
0
  6
CONTINUOUS
 62
     1
 10
45.5000901428785
 20
77.4999576057394
 30
0.0
 11
47.5
 21
77.4999576057394
 31
0.0
  0
LINE
  5
    84
  8
0
  6
CONTINUOUS
 62
     1
 10
49.5
 20
198.49998430862
 30
0.0
 11
49.5
 21
216.49998430862
 31
0.0
  0
LINE
  5
    85
  8
0
  6
CONTINUOUS
 62
     1
 10
49.5
 20
78.4999919380148
 30
0.0
 11
49.5
 21
96.4999919380148
 31
0.0
  0
LINE
  5
    86
  8
0
  6
CONTINUOUS
 62
     1
 10
48.5
 20
294.999999567409
 30
0.0
 11
61.0
 21
294.999999567409
 31
0.0
  0
LINE
  5
    87
  8
0
  6
CONTINUOUS
 62
     1
 10
48.5
 20
278.499999567409
 30
0.0
 11
63.0
 21
278.499999567409
 31
0.0
  0
LINE
  5
    88
  8
0
  6
CONTINUOUS
 62
     1
 10
63.0
 20
223.499960071298
 30
0.0
 11
63.0
 21
293.000130967507
 31
0.0
  0
LINE
  5
    89
  8
0
  6
CONTINUOUS
 62
     1
 10
48.5000000000152
 20
3.42048471119702E-5
 30
0.0
 11
61.0000000000152
 21
3.42048471119702E-5
 31
0.0
  0
LINE
  5
    8A
  8
0
  6
CONTINUOUS
 62
     1
 10
48.5000000000458
 20
16.499990030663
 30
0.0
 11
63.0000000000458
 21
16.4999824012685
 31
0.0
  0
LINE
  5
    8B
  8
0
  6
CONTINUOUS
 62
     1
 10
63.0
 20
1.99997801527987
 30
0.0
 11
63.0
 21
71.5000155985656
 31
0.0
  0
LINE
  5
    8C
  8
0
  6
CONTINUOUS
 62
     1
 10
47.5
 20
143.499991938015
 30
0.0
 11
47.5
 21
151.499991938015
 31
0.0
  0
LINE
  5
    8D
  8
0
  6
CONTINUOUS
 62
     1
 10
48.5
 20
216.49998430862
 30
0.0
 11
49.5
 21
216.49998430862
 31
0.0
  0
LINE
  5
    8E
  8
0
  6
CONTINUOUS
 62
     1
 10
45.5
 20
198.49998430862
 30
0.0
 11
49.5
 21
198.49998430862
 31
0.0
  0
LINE
  5
    8F
  8
0
  6
CONTINUOUS
 62
     1
 10
45.5
 20
96.4999919380148
 30
0.0
 11
49.5
 21
96.4999919380148
 31
0.0
  0
LINE
  5
    90
  8
0
  6
CONTINUOUS
 62
     1
 10
48.5
 20
78.4999919380148
 30
0.0
 11
49.5
 21
78.4999919380148
 31
0.0
  0
LINE
  5
    91
  8
0
  6
CONTINUOUS
 62
     1
 10
45.5
 20
151.499991938015
 30
0.0
 11
47.5
 21
151.499991938015
 31
0.0
  0
LINE
  5
    92
  8
0
  6
CONTINUOUS
 62
     1
 10
45.5
 20
143.499991938015
 30
0.0
 11
47.5
 21
143.499991938015
 31
0.0
  0
ARC
  5
    93
  8
0
  6
CONTINUOUS
 62
     1
 10
61.0001195664684
 20
293.000130967507
 30
0.0
 40
1.99983675500225
 50
359.996219692575
 51
450.003067297461
  0
ARC
  5
    94
  8
0
  6
CONTINUOUS
 62
     1
 10
60.999997541172
 20
1.99997801527987
 30
0.0
 40
1.99998559606681
 50
270.000149683848
 51
360.00043490088
  0
LINE
  5
    95
  8
0
  6
CONTINUOUS
 62
     1
 10
-2.5
 20
263.499999567409
 30
0.0
 11
-2.5
 21
278.499999567409
 31
0.0
  0
LINE
  5
    96
  8
0
  6
CONTINUOUS
 62
     1
 10
-2.0
 20
16.4999999606765
 30
0.0
 11
-2.0
 21
31.499999567409
 31
0.0
  0
LINE
  5
    97
  8
0
  6
CONTINUOUS
 62
     1
 10
-2.5
 20
263.499999567409
 30
0.0
 11
-1.92386683707583E-15
 21
263.499999567409
 31
0.0
  0
LINE
  5
    98
  8
0
  6
CONTINUOUS
 62
     1
 10
-2.0
 20
31.499999567409
 30
0.0
 11
-1.92881868216852E-15
 21
31.499999567409
 31
0.0
  0
LINE
  5
    99
  8
0
  6
CONTINUOUS
 62
     1
 10
0.0
 20
31.499999567409
 30
0.0
 11
0.0
 21
85.5
 31
0.0
  0
LINE
  5
    9A
  8
0
  6
CONTINUOUS
 62
     1
 10
0.0
 20
278.499999567409
 30
0.0
 11
0.0
 21
294.999952060667
 31
0.0
  0
LINE
  5
    9B
  8
0
  6
CONTINUOUS
 62
     1
 10
49.5
 20
73.499980493923
 30
0.0
 11
61.0
 21
73.499980493923
 31
0.0
  0
LINE
  5
    9C
  8
0
  6
CONTINUOUS
 62
     1
 10
48.7928895797786
 20
73.7928770569176
 30
0.0
 11
49.1173066946318
 21
73.5761030782846
 31
0.0
  0
LINE
  5
    9D
  8
0
  6
CONTINUOUS
 62
     1
 10
45.5
 20
217.499953791042
 30
0.0
 11
47.5
 21
217.499953791042
 31
0.0
  0
LINE
  5
    9E
  8
0
  6
CONTINUOUS
 62
     1
 10
48.5
 20
218.499953791042
 30
0.0
 11
48.5
 21
220.49998430862
 31
0.0
  0
LINE
  5
    9F
  8
0
  6
CONTINUOUS
 62
     1
 10
49.5
 20
221.49998430862
 30
0.0
 11
61.0
 21
221.49998430862
 31
0.0
  0
LINE
  5
    A0
  8
0
  6
CONTINUOUS
 62
     1
 10
48.5
 20
213.499999567409
 30
0.0
 11
48.5
 21
218.49998430862
 31
0.0
  0
LINE
  5
    A1
  8
0
  6
CONTINUOUS
 62
     1
 10
85.0
 20
20.4999995674093
 30
0.0
 11
85.0
 21
66.4999995674093
 31
0.0
  0
LINE
  5
    A2
  8
0
  6
CONTINUOUS
 62
     1
 10
85.0
 20
228.499999567409
 30
0.0
 11
85.0
 21
274.499999567409
 31
0.0
  0
LINE
  5
    A3
  8
0
  6
CONTINUOUS
 62
     1
 10
65.0
 20
18.4999995674093
 30
0.0
 11
83.0
 21
18.4999995674093
 31
0.0
  0
LINE
  5
    A4
  8
0
  6
CONTINUOUS
 62
     1
 10
65.0
 20
68.4999995674093
 30
0.0
 11
83.0
 21
68.4999995674093
 31
0.0
  0
LINE
  5
    A5
  8
0
  6
CONTINUOUS
 62
     1
 10
65.0
 20
276.499999567409
 30
0.0
 11
83.0
 21
276.499999567409
 31
0.0
  0
LINE
  5
    A6
  8
0
  6
CONTINUOUS
 62
     1
 10
65.0
 20
226.499999567409
 30
0.0
 11
83.0
 21
226.499999567409
 31
0.0
  0
ARC
  5
    A7
  8
0
  6
CONTINUOUS
 62
     1
 10
64.9999165137627
 20
278.499791758427
 30
0.0
 40
1.99978487451056
 50
179.993632987589
 51
270.002663206323
  0
ARC
  5
    A8
  8
0
  6
CONTINUOUS
 62
     1
 10
82.9999340347904
 20
274.4999314475
 30
0.0
 40
2.0000757729629
 50
0.002355312465183
 51
89.9978053040706
  0
ARC
  5
    A9
  8
0
  6
CONTINUOUS
 62
     1
 10
82.9999116167853
 20
228.500087346486
 30
0.0
 40
2.00011549437606
 50
270.002897544432
 51
359.997857039135
  0
ARC
  5
    AA
  8
0
  6
CONTINUOUS
 62
     1
 10
64.9999184375488
 20
224.50012847784
 30
0.0
 40
1.99984640930379
 50
89.9973313750434
 51
180.003331076003
  0
ARC
  5
    AB
  8
0
  6
CONTINUOUS
 62
     1
 10
61.0000256605929
 20
223.499960071298
 30
0.0
 40
1.99997025751221
 50
269.999590543356
 51
360.001042404463
  0
ARC
  5
    AC
  8
0
  6
CONTINUOUS
 62
     1
 10
49.4998375253428
 20
220.500158338518
 30
0.0
 40
0.999767477268007
 50
90.0
 51
180.0
  0
ARC
  5
    AD
  8
0
  6
CONTINUOUS
 62
     1
 10
47.4999789081749
 20
218.49996520695
 30
0.0
 40
1.00002296670393
 50
270.001612621459
 51
359.998496043313
  0
ARC
  5
    AE
  8
0
  6
CONTINUOUS
 62
     1
 10
61.0000128593571
 20
71.5000155985656
 30
0.0
 40
1.99996077363452
 50
359.998963444352
 51
450.00007365585
  0
ARC
  5
    AF
  8
0
  6
CONTINUOUS
 62
     1
 10
65.0000025173283
 20
70.5000043721036
 30
0.0
 40
2.00000239651892
 50
180.000166916245
 51
270.000162708079
  0
ARC
  5
    B0
  8
0
  6
CONTINUOUS
 62
     1
 10
83.0000105972873
 20
66.500007360899
 30
0.0
 40
1.99998409967202
 50
359.99975548358
 51
450.00004232059
  0
ARC
  5
    B1
  8
0
  6
CONTINUOUS
 62
     1
 10
82.9999123216256
 20
20.500063832728
 30
0.0
 40
2.00010029490385
 50
270.002773926169
 51
359.998166697101
  0
ARC
  5
    B2
  8
0
  6
CONTINUOUS
 62
     1
 10
64.9999636318814
 20
16.5000487387311
 30
0.0
 40
1.9999391421224
 50
89.9987223290514
 51
180.001392964213
  0
ARC
  5
    B3
  8
0
  6
CONTINUOUS
 62
     1
 10
49.4999889213575
 20
74.4999564682283
 30
0.0
 40
0.999975386078343
 50
180.0
 51
270.0
  0
ARC
  5
    B4
  8
0
  6
CONTINUOUS
 62
     1
 10
47.5
 20
76.4999576057394
 30
0.0
 40
1.0
 50
0.0
 51
90.0
  0
LINE
  5
    B5
  8
0
  6
DASHDOT
 62
     1
 10
-4.2589963029921
 20
251.499999567409
 30
0.0
 11
89.4453946237602
 21
251.499999567409
 31
0.0
  0
LINE
  5
    B6
  8
0
  6
CONTINUOUS
 62
     1
 10
47.5
 20
85.4999919380148
 30
0.0
 11
47.5
 21
89.4999919380148
 31
0.0
  0
LINE
  5
    B7
  8
0
  6
CONTINUOUS
 62
     1
 10
47.5
 20
205.49998430862
 30
0.0
 11
47.5
 21
209.49998430862
 31
0.0
  0
LINE
  5
    B8
  8
0
  6
CONTINUOUS
 62
     1
 10
45.5
 20
209.49998430862
 30
0.0
 11
47.5
 21
209.49998430862
 31
0.0
  0
LINE
  5
    B9
  8
0
  6
CONTINUOUS
 62
     1
 10
45.5
 20
205.49998430862
 30
0.0
 11
47.5
 21
205.49998430862
 31
0.0
  0
LINE
  5
    BA
  8
0
  6
CONTINUOUS
 62
     1
 10
45.5
 20
89.4999919380148
 30
0.0
 11
47.5
 21
89.4999919380148
 31
0.0
  0
LINE
  5
    BB
  8
0
  6
CONTINUOUS
 62
     1
 10
45.5
 20
85.4999919380148
 30
0.0
 11
47.5
 21
85.4999919380148
 31
0.0
  0
LINE
  5
    BC
  8
0
  6
DASHDOT
 62
     1
 10
-4.2589963029921
 20
43.4999995674093
 30
0.0
 11
99.2454243656788
 21
43.4999995674093
 31
0.0
  0
ENDBLK
  5
    BD
  8
0
  6
CONTINUOUS
 62
     7
  0
BLOCK
  5
    BE
  8
0
  6
CONTINUOUS
 62
     7
  2
*HATCH344
 70
    65
 10
0.0
 20
0.0
 30
0.0
  3
*HATCH344
  0
LINE
  5
    BF
  8
0
  6
CONTINUOUS
 62
    52
 10
41.621337890625
 20
39.5000152587891
 30
0.0
 11
39.621337890625
 21
37.5000152587891
 31
0.0
  0
LINE
  5
    C0
  8
0
  6
CONTINUOUS
 62
    52
 10
45.8639755249023
 20
39.5000152587891
 30
0.0
 11
43.8639755249023
 21
37.5000152587891
 31
0.0
  0
LINE
  5
    C1
  8
0
  6
CONTINUOUS
 62
    52
 10
50.1066131591797
 20
39.5000152587891
 30
0.0
 11
48.1066131591797
 21
37.5000152587891
 31
0.0
  0
LINE
  5
    C2
  8
0
  6
CONTINUOUS
 62
    52
 10
54.349250793457
 20
39.5000152587891
 30
0.0
 11
52.349250793457
 21
37.5000152587891
 31
0.0
  0
LINE
  5
    C3
  8
0
  6
CONTINUOUS
 62
    52
 10
58.5918884277344
 20
39.5000152587891
 30
0.0
 11
56.5918884277344
 21
37.5000152587891
 31
0.0
  0
LINE
  5
    C4
  8
0
  6
CONTINUOUS
 62
    52
 10
62.8345260620117
 20
39.5000152587891
 30
0.0
 11
60.8345260620117
 21
37.5000152587891
 31
0.0
  0
LINE
  5
    C5
  8
0
  6
CONTINUOUS
 62
    52
 10
67.0771713256836
 20
39.5000152587891
 30
0.0
 11
65.0771636962891
 21
37.5000152587891
 31
0.0
  0
LINE
  5
    C6
  8
0
  6
CONTINUOUS
 62
    52
 10
71.3198165893555
 20
39.5000152587891
 30
0.0
 11
69.3198089599609
 21
37.5000152587891
 31
0.0
  0
LINE
  5
    C7
  8
0
  6
CONTINUOUS
 62
    52
 10
75.2372512817383
 20
39.1748008728027
 30
0.0
 11
73.5624618530273
 21
37.5000152587891
 31
0.0
  0
ENDBLK
  5
    C8
  8
0
  6
CONTINUOUS
 62
     7
  0
BLOCK
  5
    C9
  8
0
  6
CONTINUOUS
 62
     7
  2
*HATCH345
 70
    65
 10
0.0
 20
0.0
 30
0.0
  3
*HATCH345
  0
LINE
  5
    CA
  8
0
  6
CONTINUOUS
 62
    52
 10
-22.018274307251
 20
39.5000152587891
 30
0.0
 11
-24.018274307251
 21
37.5000152587891
 31
0.0
  0
LINE
  5
    CB
  8
0
  6
CONTINUOUS
 62
    52
 10
-17.7756328582764
 20
39.5000152587891
 30
0.0
 11
-19.7756328582764
 21
37.5000152587891
 31
0.0
  0
LINE
  5
    CC
  8
0
  6
CONTINUOUS
 62
    52
 10
-13.5329914093018
 20
39.5000152587891
 30
0.0
 11
-15.5329914093018
 21
37.5000152587891
 31
0.0
  0
LINE
  5
    CD
  8
0
  6
CONTINUOUS
 62
    52
 10
-9.29034996032715
 20
39.5000152587891
 30
0.0
 11
-11.2903499603271
 21
37.5000152587891
 31
0.0
  0
LINE
  5
    CE
  8
0
  6
CONTINUOUS
 62
    52
 10
-5.04770851135254
 20
39.5000152587891
 30
0.0
 11
-7.04770851135254
 21
37.5000152587891
 31
0.0
  0
LINE
  5
    CF
  8
0
  6
CONTINUOUS
 62
    52
 10
-0.805067539215088
 20
39.5000152587891
 30
0.0
 11
-2.80506730079651
 21
37.5000152587891
 31
0.0
  0
LINE
  5
    D0
  8
0
  6
CONTINUOUS
 62
    52
 10
3.43757343292236
 20
39.5000152587891
 30
0.0
 11
1.43757367134094
 21
37.5000152587891
 31
0.0
  0
LINE
  5
    D1
  8
0
  6
CONTINUOUS
 62
    52
 10
7.68021488189697
 20
39.5000152587891
 30
0.0
 11
5.68021488189697
 21
37.5000152587891
 31
0.0
  0
LINE
  5
    D2
  8
0
  6
CONTINUOUS
 62
    52
 10
11.9228563308716
 20
39.5000152587891
 30
0.0
 11
9.92285633087158
 21
37.5000152587891
 31
0.0
  0
LINE
  5
    D3
  8
0
  6
CONTINUOUS
 62
    52
 10
16.1654968261719
 20
39.5000152587891
 30
0.0
 11
14.1654977798462
 21
37.5000152587891
 31
0.0
  0
LINE
  5
    D4
  8
0
  6
CONTINUOUS
 62
    52
 10
20.4081382751465
 20
39.5000152587891
 30
0.0
 11
18.4081382751465
 21
37.5000152587891
 31
0.0
  0
LINE
  5
    D5
  8
0
  6
CONTINUOUS
 62
    52
 10
24.6507797241211
 20
39.5000152587891
 30
0.0
 11
22.6507797241211
 21
37.5000152587891
 31
0.0
  0
LINE
  5
    D6
  8
0
  6
CONTINUOUS
 62
    52
 10
28.8934211730957
 20
39.5000152587891
 30
0.0
 11
26.8934211730957
 21
37.5000152587891
 31
0.0
  0
ENDBLK
  5
    D7
  8
0
  6
CONTINUOUS
 62
     7
  0
BLOCK
  5
    D8
  8
0
  6
CONTINUOUS
 62
     7
  2
*HATCH346
 70
    65
 10
0.0
 20
0.0
 30
0.0
  3
*HATCH346
  0
LINE
  5
    D9
  8
0
  6
CONTINUOUS
 62
    52
 10
128.595474243164
 20
39.5000152587891
 30
0.0
 11
126.595474243164
 21
37.5000114440918
 31
0.0
  0
LINE
  5
    DA
  8
0
  6
CONTINUOUS
 62
    52
 10
132.838119506836
 20
39.5000152587891
 30
0.0
 11
130.838119506836
 21
37.5000114440918
 31
0.0
  0
LINE
  5
    DB
  8
0
  6
CONTINUOUS
 62
    52
 10
137.080764770508
 20
39.5000152587891
 30
0.0
 11
135.080764770508
 21
37.5000114440918
 31
0.0
  0
LINE
  5
    DC
  8
0
  6
CONTINUOUS
 62
    52
 10
141.32341003418
 20
39.5000152587891
 30
0.0
 11
139.32341003418
 21
37.5000114440918
 31
0.0
  0
LINE
  5
    DD
  8
0
  6
CONTINUOUS
 62
    52
 10
145.566055297852
 20
39.5000152587891
 30
0.0
 11
143.566055297852
 21
37.5000114440918
 31
0.0
  0
LINE
  5
    DE
  8
0
  6
CONTINUOUS
 62
    52
 10
149.808700561523
 20
39.5000152587891
 30
0.0
 11
147.808700561523
 21
37.5000114440918
 31
0.0
  0
LINE
  5
    DF
  8
0
  6
CONTINUOUS
 62
    52
 10
154.051345825195
 20
39.5000152587891
 30
0.0
 11
152.051345825195
 21
37.5000114440918
 31
0.0
  0
LINE
  5
    E0
  8
0
  6
CONTINUOUS
 62
    52
 10
158.293991088867
 20
39.5000152587891
 30
0.0
 11
156.293991088867
 21
37.5000114440918
 31
0.0
  0
LINE
  5
    E1
  8
0
  6
CONTINUOUS
 62
    52
 10
162.536636352539
 20
39.5000152587891
 30
0.0
 11
160.536636352539
 21
37.5000114440918
 31
0.0
  0
LINE
  5
    E2
  8
0
  6
CONTINUOUS
 62
    52
 10
166.779281616211
 20
39.5000152587891
 30
0.0
 11
164.779281616211
 21
37.5000114440918
 31
0.0
  0
LINE
  5
    E3
  8
0
  6
CONTINUOUS
 62
    52
 10
171.021926879883
 20
39.5000152587891
 30
0.0
 11
169.021926879883
 21
37.5000114440918
 31
0.0
  0
LINE
  5
    E4
  8
0
  6
CONTINUOUS
 62
    52
 10
175.264572143555
 20
39.5000152587891
 30
0.0
 11
173.264572143555
 21
37.5000114440918
 31
0.0
  0
LINE
  5
    E5
  8
0
  6
CONTINUOUS
 62
    52
 10
179.507217407227
 20
39.5000152587891
 30
0.0
 11
177.507217407227
 21
37.5000114440918
 31
0.0
  0
LINE
  5
    E6
  8
0
  6
CONTINUOUS
 62
    52
 10
183.749862670898
 20
39.5000152587891
 30
0.0
 11
181.749862670898
 21
37.5000114440918
 31
0.0
  0
LINE
  5
    E7
  8
0
  6
CONTINUOUS
 62
    52
 10
187.99250793457
 20
39.5000152587891
 30
0.0
 11
185.99250793457
 21
37.5000114440918
 31
0.0
  0
LINE
  5
    E8
  8
0
  6
CONTINUOUS
 62
    52
 10
192.235153198242
 20
39.5000152587891
 30
0.0
 11
190.235153198242
 21
37.5000114440918
 31
0.0
  0
LINE
  5
    E9
  8
0
  6
CONTINUOUS
 62
    52
 10
196.477798461914
 20
39.5000152587891
 30
0.0
 11
194.477798461914
 21
37.5000114440918
 31
0.0
  0
LINE
  5
    EA
  8
0
  6
CONTINUOUS
 62
    52
 10
200.720443725586
 20
39.5000152587891
 30
0.0
 11
198.720443725586
 21
37.5000114440918
 31
0.0
  0
LINE
  5
    EB
  8
0
  6
CONTINUOUS
 62
    52
 10
204.963088989258
 20
39.5000152587891
 30
0.0
 11
202.963088989258
 21
37.5000114440918
 31
0.0
  0
LINE
  5
    EC
  8
0
  6
CONTINUOUS
 62
    52
 10
207.737045288086
 20
38.0314140319824
 30
0.0
 11
207.205642700195
 21
37.5000114440918
 31
0.0
  0
ENDBLK
  5
    ED
  8
0
  6
CONTINUOUS
 62
     7
  0
BLOCK
  5
    EE
  8
0
  6
CONTINUOUS
 62
     7
  2
*HATCH347
 70
    65
 10
0.0
 20
0.0
 30
0.0
  3
*HATCH347
  0
LINE
  5
    EF
  8
0
  6
CONTINUOUS
 62
    52
 10
217.691177368164
 20
39.5002555847168
 30
0.0
 11
215.694412231445
 21
37.503490447998
 31
0.0
  0
LINE
  5
    F0
  8
0
  6
CONTINUOUS
 62
    52
 10
221.934158325195
 20
39.5005989074707
 30
0.0
 11
219.952499389648
 21
37.5189399719238
 31
0.0
  0
LINE
  5
    F1
  8
0
  6
CONTINUOUS
 62
    52
 10
226.177139282227
 20
39.5009422302246
 30
0.0
 11
224.210586547852
 21
37.5343894958496
 31
0.0
  0
LINE
  5
    F2
  8
0
  6
CONTINUOUS
 62
    52
 10
230.420120239258
 20
39.5012855529785
 30
0.0
 11
228.468673706055
 21
37.5498390197754
 31
0.0
  0
LINE
  5
    F3
  8
0
  6
CONTINUOUS
 62
    52
 10
234.663101196289
 20
39.5016288757324
 30
0.0
 11
232.726760864258
 21
37.5652885437012
 31
0.0
  0
LINE
  5
    F4
  8
0
  6
CONTINUOUS
 62
    52
 10
238.90608215332
 20
39.5019721984863
 30
0.0
 11
236.984848022461
 21
37.580738067627
 31
0.0
  0
LINE
  5
    F5
  8
0
  6
CONTINUOUS
 62
    52
 10
243.149063110352
 20
39.5023155212402
 30
0.0
 11
241.242935180664
 21
37.5961875915527
 31
0.0
  0
LINE
  5
    F6
  8
0
  6
CONTINUOUS
 62
    52
 10
247.392044067383
 20
39.5026588439941
 30
0.0
 11
245.501022338867
 21
37.6116371154785
 31
0.0
  0
LINE
  5
    F7
  8
0
  6
CONTINUOUS
 62
    52
 10
251.635025024414
 20
39.503002166748
 30
0.0
 11
249.75910949707
 21
37.6270866394043
 31
0.0
  0
LINE
  5
    F8
  8
0
  6
CONTINUOUS
 62
    52
 10
255.878005981445
 20
39.503345489502
 30
0.0
 11
254.017196655273
 21
37.6425361633301
 31
0.0
  0
LINE
  5
    F9
  8
0
  6
CONTINUOUS
 62
    52
 10
260.121002197266
 20
39.5036888122559
 30
0.0
 11
258.275299072266
 21
37.6579856872559
 31
0.0
  0
LINE
  5
    FA
  8
0
  6
CONTINUOUS
 62
    52
 10
264.363983154297
 20
39.5040321350098
 30
0.0
 11
262.533416748047
 21
37.6734352111816
 31
0.0
  0
LINE
  5
    FB
  8
0
  6
CONTINUOUS
 62
    52
 10
268.606964111328
 20
39.5043754577637
 30
0.0
 11
266.791534423828
 21
37.6888847351074
 31
0.0
  0
LINE
  5
    FC
  8
0
  6
CONTINUOUS
 62
    52
 10
272.849945068359
 20
39.5047187805176
 30
0.0
 11
271.049652099609
 21
37.7043342590332
 31
0.0
  0
LINE
  5
    FD
  8
0
  6
CONTINUOUS
 62
    52
 10
277.092926025391
 20
39.5050621032715
 30
0.0
 11
275.307769775391
 21
37.719783782959
 31
0.0
  0
LINE
  5
    FE
  8
0
  6
CONTINUOUS
 62
    52
 10
281.335906982422
 20
39.5054054260254
 30
0.0
 11
279.565887451172
 21
37.7352333068848
 31
0.0
  0
LINE
  5
    FF
  8
0
  6
CONTINUOUS
 62
    52
 10
285.578887939453
 20
39.5057487487793
 30
0.0
 11
283.824005126953
 21
37.7506828308105
 31
0.0
  0
LINE
  5
   100
  8
0
  6
CONTINUOUS
 62
    52
 10
289.821868896484
 20
39.5060920715332
 30
0.0
 11
288.082122802734
 21
37.7661323547363
 31
0.0
  0
LINE
  5
   101
  8
0
  6
CONTINUOUS
 62
    52
 10
294.064849853516
 20
39.5064353942871
 30
0.0
 11
292.340240478516
 21
37.7815818786621
 31
0.0
  0
LINE
  5
   102
  8
0
  6
CONTINUOUS
 62
    52
 10
298.307830810547
 20
39.506778717041
 30
0.0
 11
296.598358154297
 21
37.7970314025879
 31
0.0
  0
LINE
  5
   103
  8
0
  6
CONTINUOUS
 62
    52
 10
302.550811767578
 20
39.5071220397949
 30
0.0
 11
300.856475830078
 21
37.8124809265137
 31
0.0
  0
LINE
  5
   104
  8
0
  6
CONTINUOUS
 62
    52
 10
306.793792724609
 20
39.5074653625488
 30
0.0
 11
305.114593505859
 21
37.8279304504395
 31
0.0
  0
LINE
  5
   105
  8
0
  6
CONTINUOUS
 62
    52
 10
311.036773681641
 20
39.5078086853027
 30
0.0
 11
309.372711181641
 21
37.8433799743652
 31
0.0
  0
LINE
  5
   106
  8
0
  6
CONTINUOUS
 62
    52
 10
315.279754638672
 20
39.5081520080566
 30
0.0
 11
313.630828857422
 21
37.858829498291
 31
0.0
  0
LINE
  5
   107
  8
0
  6
CONTINUOUS
 62
    52
 10
319.522735595703
 20
39.5084953308105
 30
0.0
 11
317.888946533203
 21
37.8742790222168
 31
0.0
  0
LINE
  5
   108
  8
0
  6
CONTINUOUS
 62
    52
 10
323.765716552734
 20
39.5088386535645
 30
0.0
 11
322.147064208984
 21
37.8897285461426
 31
0.0
  0
LINE
  5
   109
  8
0
  6
CONTINUOUS
 62
    52
 10
328.008697509766
 20
39.5091819763184
 30
0.0
 11
326.405181884766
 21
37.9051780700684
 31
0.0
  0
LINE
  5
   10A
  8
0
  6
CONTINUOUS
 62
    52
 10
332.251678466797
 20
39.5095252990723
 30
0.0
 11
330.663299560547
 21
37.9206275939941
 31
0.0
  0
LINE
  5
   10B
  8
0
  6
CONTINUOUS
 62
    52
 10
336.494659423828
 20
39.5098686218262
 30
0.0
 11
334.921417236328
 21
37.9360771179199
 31
0.0
  0
LINE
  5
   10C
  8
0
  6
CONTINUOUS
 62
    52
 10
340.737640380859
 20
39.5102119445801
 30
0.0
 11
339.179534912109
 21
37.9515266418457
 31
0.0
  0
LINE
  5
   10D
  8
0
  6
CONTINUOUS
 62
    52
 10
344.980621337891
 20
39.510555267334
 30
0.0
 11
343.437652587891
 21
37.9669761657715
 31
0.0
  0
LINE
  5
   10E
  8
0
  6
CONTINUOUS
 62
    52
 10
349.223602294922
 20
39.5108985900879
 30
0.0
 11
347.695770263672
 21
37.9824256896973
 31
0.0
  0
LINE
  5
   10F
  8
0
  6
CONTINUOUS
 62
    52
 10
353.466583251953
 20
39.5112419128418
 30
0.0
 11
351.953887939453
 21
37.997875213623
 31
0.0
  0
LINE
  5
   110
  8
0
  6
CONTINUOUS
 62
    52
 10
357.709564208984
 20
39.5115852355957
 30
0.0
 11
356.212005615234
 21
38.0133247375488
 31
0.0
  0
LINE
  5
   111
  8
0
  6
CONTINUOUS
 62
    52
 10
361.952545166016
 20
39.5119285583496
 30
0.0
 11
360.470123291016
 21
38.0287742614746
 31
0.0
  0
LINE
  5
   112
  8
0
  6
CONTINUOUS
 62
    52
 10
366.195526123047
 20
39.5122718811035
 30
0.0
 11
364.728240966797
 21
38.0442237854004
 31
0.0
  0
LINE
  5
   113
  8
0
  6
CONTINUOUS
 62
    52
 10
370.438507080078
 20
39.5126152038574
 30
0.0
 11
368.986358642578
 21
38.0596733093262
 31
0.0
  0
LINE
  5
   114
  8
0
  6
CONTINUOUS
 62
    52
 10
374.681488037109
 20
39.5129585266113
 30
0.0
 11
373.244476318359
 21
38.075122833252
 31
0.0
  0
LINE
  5
   115
  8
0
  6
CONTINUOUS
 62
    52
 10
378.924468994141
 20
39.5133018493652
 30
0.0
 11
377.502593994141
 21
38.0905723571777
 31
0.0
  0
LINE
  5
   116
  8
0
  6
CONTINUOUS
 62
    52
 10
382.896850585938
 20
39.2429428100586
 30
0.0
 11
381.760040283203
 21
38.1061325073242
 31
0.0
  0
ENDBLK
  5
   117
  8
0
  6
CONTINUOUS
 62
     7
  0
BLOCK
  5
   118
  8
0
  6
CONTINUOUS
 62
     7
  2
*HATCH348
 70
    65
 10
0.0
 20
0.0
 30
0.0
  3
*HATCH348
  0
LINE
  5
   119
  8
0
  6
CONTINUOUS
 62
    52
 10
198.084335327148
 20
30.5000228881836
 30
0.0
 11
195.584335327148
 21
28.0000171661377
 31
0.0
  0
LINE
  5
   11A
  8
0
  6
CONTINUOUS
 62
    52
 10
202.32698059082
 20
30.5000228881836
 30
0.0
 11
199.82698059082
 21
28.0000171661377
 31
0.0
  0
ENDBLK
  5
   11B
  8
0
  6
CONTINUOUS
 62
     7
  0
BLOCK
  5
   11C
  8
0
  6
CONTINUOUS
 62
     7
  2
*UDIM1830
 70
    65
 10
0.0
 20
0.0
 30
0.0
  3
*UDIM1830
  0
TEXT
  5
   11D
  8
0
  6
CONTINUOUS
 62
     7
 10
89.4048692794846
 20
77.9767825579953
 30
0.0
 40
2.4999999335834
  1
14,5
 50
89.9999999480344
 41
0.933333333333333
 72
     1
 11
88.1548693166931
 21
82.3934491084581
 31
0.0
 73
     2
  0
LINE
  5
   11E
  8
0
  6
CONTINUOUS
 62
     7
 10
61.1326737943732
 20
77.2055471386571
 30
0.0
 11
92.4048692834848
 21
77.2055471386571
 31
0.0
  0
LINE
  5
   11F
  8
0
  6
CONTINUOUS
 62
     7
 10
90.4048692834848
 20
77.2055471386571
 30
0.0
 11
90.4048692834848
 21
86.8101156577887
 31
0.0
  0
LINE
  5
   120
  8
0
  6
CONTINUOUS
 62
     7
 10
90.9258138014852
 20
74.2511238769755
 30
0.0
 11
90.4048692834848
 21
77.2055471386571
 31
0.0
  0
LINE
  5
   121
  8
0
  6
CONTINUOUS
 62
     7
 10
90.4048692834848
 20
77.2055471386571
 30
0.0
 11
89.8839247654845
 21
74.2511238769755
 31
0.0
  0
LINE
  5
   122
  8
0
  6
CONTINUOUS
 62
     7
 10
89.8839247654845
 20
85.234987219748
 30
0.0
 11
90.4048692834848
 21
82.2805639580664
 31
0.0
  0
LINE
  5
   123
  8
0
  6
CONTINUOUS
 62
     7
 10
90.4048692834848
 20
82.2805639580664
 30
0.0
 11
90.9258138014852
 21
85.234987219748
 31
0.0
  0
ENDBLK
  5
   124
  8
0
  6
CONTINUOUS
 62
     7
  0
BLOCK
  5
   125
  8
0
  6
CONTINUOUS
 62
     7
  2
*UDIM1831
 70
    65
 10
0.0
 20
0.0
 30
0.0
  3
*UDIM1831
  0
TEXT
  5
   126
  8
0
  6
CONTINUOUS
 62
     7
 10
140.146868186019
 20
123.437983368879
 30
0.0
 40
2.4999999335834
  1
14
 50
421.318116650303
 41
0.933333333333333
 72
     1
 11
140.050133491713
 21
125.865620051553
 31
0.0
 73
     2
  0
TEXT
  5
   127
  8
0
  6
CONTINUOUS
 62
     7
 10
138.887009627273
 20
121.135076236458
 30
0.0
 40
2.4999999335834
  1
Ø
 50
421.318116650303
 41
0.933333333333333
 72
     1
 11
138.230337803138
 21
122.539198654731
 31
0.0
 73
     2
  0
LINE
  5
   128
  8
0
  6
CONTINUOUS
 62
     7
 10
134.731811259979
 20
111.456183447807
 30
0.0
 11
143.02394161324
 21
126.613445334669
 31
0.0
  0
LINE
  5
   129
  8
0
  6
CONTINUOUS
 62
     7
 10
133.770870834459
 20
108.61424863177
 30
0.0
 11
134.731811259979
 21
111.456183447807
 31
0.0
  0
LINE
  5
   12A
  8
0
  6
CONTINUOUS
 62
     7
 10
134.731811259979
 20
111.456183447807
 30
0.0
 11
132.85682370378
 21
109.114299235447
 31
0.0
  0
LINE
  5
   12B
  8
0
  6
CONTINUOUS
 62
     7
 10
138.044487649333
 20
118.59687821744
 30
0.0
 11
137.083547223813
 21
115.754943401403
 31
0.0
  0
LINE
  5
   12C
  8
0
  6
CONTINUOUS
 62
     7
 10
137.083547223813
 20
115.754943401403
 30
0.0
 11
138.958534780012
 21
118.096827613763
 31
0.0
  0
ENDBLK
  5
   12D
  8
0
  6
CONTINUOUS
 62
     7
  0
BLOCK
  5
   12E
  8
0
  6
CONTINUOUS
 62
     7
  2
*UDIM1832
 70
    65
 10
0.0
 20
0.0
 30
0.0
  3
*UDIM1832
  0
TEXT
  5
   12F
  8
0
  6
CONTINUOUS
 62
     7
 10
130.724560872526
 20
111.293060768724
 30
0.0
 40
2.4999999335834
  1
40
 50
89.9999999480344
 41
0.933333333333333
 72
     1
 11
129.474560907622
 21
113.376394047843
 31
0.0
 73
     2
  0
LINE
  5
   130
  8
0
  6
CONTINUOUS
 62
     7
 10
131.724560874413
 20
106.605563543814
 30
0.0
 11
131.724560874413
 21
120.605563305396
 31
0.0
  0
LINE
  5
   131
  8
0
  6
CONTINUOUS
 62
     7
 10
131.203616356413
 20
109.559986805496
 30
0.0
 11
131.724560874413
 21
106.605563543814
 31
0.0
  0
LINE
  5
   132
  8
0
  6
CONTINUOUS
 62
     7
 10
131.724560874413
 20
106.605563543814
 30
0.0
 11
132.245505392414
 21
109.559986805496
 31
0.0
  0
LINE
  5
   133
  8
0
  6
CONTINUOUS
 62
     7
 10
132.245505392414
 20
117.651140043714
 30
0.0
 11
131.724560874413
 21
120.605563305396
 31
0.0
  0
LINE
  5
   134
  8
0
  6
CONTINUOUS
 62
     7
 10
131.724560874413
 20
120.605563305396
 30
0.0
 11
131.203616356413
 21
117.651140043714
 31
0.0
  0
ENDBLK
  5
   135
  8
0
  6
CONTINUOUS
 62
     7
  0
BLOCK
  5
   136
  8
0
  6
CONTINUOUS
 62
     7
  2
*UDIM1833
 70
    65
 10
0.0
 20
0.0
 30
0.0
  3
*UDIM1833
  0
TEXT
  5
   137
  8
0
  6
CONTINUOUS
 62
     7
 10
78.0035195347747
 20
0.314264600284808
 30
0.0
 40
2.4999999335834
  1
190
 50
359.999999948034
 41
0.933333333333333
 72
     1
 11
81.2535194495606
 21
1.56426456414518
 31
0.0
 73
     2
  0
LINE
  5
   138
  8
0
  6
CONTINUOUS
 62
     7
 10
114.732679602504
 20
14.04388375611
 30
0.0
 11
114.732679602504
 21
-2.68573540264651
 31
0.0
  0
LINE
  5
   139
  8
0
  6
CONTINUOUS
 62
     7
 10
48.2326914161445
 20
29.4096715513221
 30
0.0
 11
48.2326914161445
 21
-2.68573540264651
 31
0.0
  0
LINE
  5
   13A
  8
0
  6
CONTINUOUS
 62
     7
 10
114.732679602504
 20
-0.685735402646515
 30
0.0
 11
48.2326914161445
 21
-0.685735402646515
 31
0.0
  0
LINE
  5
   13B
  8
0
  6
CONTINUOUS
 62
     7
 10
111.778256340822
 20
-1.20667992064686
 30
0.0
 11
114.732679602504
 21
-0.685735402646515
 31
0.0
  0
LINE
  5
   13C
  8
0
  6
CONTINUOUS
 62
     7
 10
114.732679602504
 20
-0.685735402646515
 30
0.0
 11
111.778256340822
 21
-0.164790884646173
 31
0.0
  0
LINE
  5
   13D
  8
0
  6
CONTINUOUS
 62
     7
 10
51.1871146778261
 20
-0.164790884646173
 30
0.0
 11
48.2326914161445
 21
-0.685735402646515
 31
0.0
  0
LINE
  5
   13E
  8
0
  6
CONTINUOUS
 62
     7
 10
48.2326914161445
 20
-0.685735402646515
 30
0.0
 11
51.1871146778261
 21
-1.20667992064686
 31
0.0
  0
ENDBLK
  5
   13F
  8
0
  6
CONTINUOUS
 62
     7
  0
BLOCK
  5
   140
  8
0
  6
CONTINUOUS
 62
     7
  2
*UDIM1834
 70
    65
 10
0.0
 20
0.0
 30
0.0
  3
*UDIM1834
  0
TEXT
  5
   141
  8
0
  6
CONTINUOUS
 62
     7
 10
42.2410241915578
 20
0.314264598180269
 30
0.0
 40
2.4999999335834
  1
2
 50
359.999999948034
 41
0.933333333333333
 72
     1
 11
43.1576908349992
 21
1.56426456414518
 31
0.0
 73
     2
  0
LINE
  5
   142
  8
0
  6
CONTINUOUS
 62
     7
 10
47.5326914280654
 20
29.2638700270875
 30
0.0
 11
47.5326914280654
 21
-2.68573540264651
 31
0.0
  0
LINE
  5
   143
  8
0
  6
CONTINUOUS
 62
     7
 10
48.2326914161445
 20
-0.685735402646515
 30
0.0
 11
42.2410241926853
 21
-0.685735402646515
 31
0.0
  0
LINE
  5
   144
  8
0
  6
CONTINUOUS
 62
     7
 10
51.1871146778261
 20
-0.164790884646173
 30
0.0
 11
48.2326914161445
 21
-0.685735402646515
 31
0.0
  0
LINE
  5
   145
  8
0
  6
CONTINUOUS
 62
     7
 10
48.2326914161445
 20
-0.685735402646515
 30
0.0
 11
51.1871146778261
 21
-1.20667992064686
 31
0.0
  0
LINE
  5
   146
  8
0
  6
CONTINUOUS
 62
     7
 10
44.5782681663838
 20
-1.20667992064686
 30
0.0
 11
47.5326914280654
 21
-0.685735402646515
 31
0.0
  0
LINE
  5
   147
  8
0
  6
CONTINUOUS
 62
     7
 10
47.5326914280654
 20
-0.685735402646515
 30
0.0
 11
44.5782681663838
 21
-0.164790884646173
 31
0.0
  0
ENDBLK
  5
   148
  8
0
  6
CONTINUOUS
 62
     7
  0
BLOCK
  5
   149
  8
0
  6
CONTINUOUS
 62
     7
  2
*UDIM1835
 70
    65
 10
0.0
 20
0.0
 30
0.0
  3
*UDIM1835
  0
TEXT
  5
   14A
  8
0
  6
CONTINUOUS
 62
     7
 10
145.886844803685
 20
185.001099985529
 30
0.0
 40
2.4999999335834
  1
20
 50
359.999999948034
 41
0.933333333333333
 72
     1
 11
147.970178082799
 21
186.251099950441
 31
0.0
 73
     2
  0
LINE
  5
   14B
  8
0
  6
CONTINUOUS
 62
     7
 10
142.907679122687
 20
121.605563305396
 30
0.0
 11
142.907679122687
 21
186.00109998365
 31
0.0
  0
LINE
  5
   14C
  8
0
  6
CONTINUOUS
 62
     7
 10
135.907679241896
 20
120.555563323277
 30
0.0
 11
135.907679241896
 21
186.00109998365
 31
0.0
  0
LINE
  5
   14D
  8
0
  6
CONTINUOUS
 62
     7
 10
150.053511360785
 20
184.00109998365
 30
0.0
 11
135.907679241896
 21
184.00109998365
 31
0.0
  0
LINE
  5
   14E
  8
0
  6
CONTINUOUS
 62
     7
 10
139.953255861005
 20
183.480155465649
 30
0.0
 11
142.907679122687
 21
184.00109998365
 31
0.0
  0
LINE
  5
   14F
  8
0
  6
CONTINUOUS
 62
     7
 10
142.907679122687
 20
184.00109998365
 30
0.0
 11
139.953255861005
 21
184.52204450165
 31
0.0
  0
LINE
  5
   150
  8
0
  6
CONTINUOUS
 62
     7
 10
138.862102503578
 20
184.52204450165
 30
0.0
 11
135.907679241896
 21
184.00109998365
 31
0.0
  0
LINE
  5
   151
  8
0
  6
CONTINUOUS
 62
     7
 10
135.907679241896
 20
184.00109998365
 30
0.0
 11
138.862102503578
 21
183.480155465649
 31
0.0
  0
ENDBLK
  5
   152
  8
0
  6
CONTINUOUS
 62
     7
  0
BLOCK
  5
   153
  8
0
  6
CONTINUOUS
 62
     7
  2
*UDIM1836
 70
    65
 10
0.0
 20
0.0
 30
0.0
  3
*UDIM1836
  0
TEXT
  5
   154
  8
0
  6
CONTINUOUS
 62
     7
 10
120.674343432395
 20
185.001099987633
 30
0.0
 40
2.4999999335834
  1
60,5
 50
359.999999948034
 41
0.933333333333333
 72
     1
 11
125.091009982853
 21
186.251099950441
 31
0.0
 73
     2
  0
LINE
  5
   155
  8
0
  6
CONTINUOUS
 62
     7
 10
114.732679602504
 20
174.336494448102
 30
0.0
 11
114.732679602504
 21
186.00109998365
 31
0.0
  0
LINE
  5
   156
  8
0
  6
CONTINUOUS
 62
     7
 10
135.907679241896
 20
184.00109998365
 30
0.0
 11
114.732679602504
 21
184.00109998365
 31
0.0
  0
LINE
  5
   157
  8
0
  6
CONTINUOUS
 62
     7
 10
132.953255980214
 20
183.480155465649
 30
0.0
 11
135.907679241896
 21
184.00109998365
 31
0.0
  0
LINE
  5
   158
  8
0
  6
CONTINUOUS
 62
     7
 10
135.907679241896
 20
184.00109998365
 30
0.0
 11
132.953255980214
 21
184.52204450165
 31
0.0
  0
LINE
  5
   159
  8
0
  6
CONTINUOUS
 62
     7
 10
117.687102864186
 20
184.52204450165
 30
0.0
 11
114.732679602504
 21
184.00109998365
 31
0.0
  0
LINE
  5
   15A
  8
0
  6
CONTINUOUS
 62
     7
 10
114.732679602504
 20
184.00109998365
 30
0.0
 11
117.687102864186
 21
183.480155465649
 31
0.0
  0
ENDBLK
  5
   15B
  8
0
  6
CONTINUOUS
 62
     7
  0
BLOCK
  5
   15C
  8
0
  6
CONTINUOUS
 62
     7
  2
*UDIM1837
 70
    65
 10
0.0
 20
0.0
 30
0.0
  3
*UDIM1837
  0
TEXT
  5
   15D
  8
0
  6
CONTINUOUS
 62
     7
 10
74.7076848820926
 20
185.001099988685
 30
0.0
 40
2.4999999335834
  1
195,5
 50
359.999999948034
 41
0.933333333333333
 72
     1
 11
80.291018068223
 21
186.251099950441
 31
0.0
 73
     2
  0
LINE
  5
   15E
  8
0
  6
CONTINUOUS
 62
     7
 10
46.307692784071
 20
117.580563373941
 30
0.0
 11
46.307692784071
 21
186.00109998365
 31
0.0
  0
LINE
  5
   15F
  8
0
  6
CONTINUOUS
 62
     7
 10
114.732679602504
 20
184.00109998365
 30
0.0
 11
46.307692784071
 21
184.00109998365
 31
0.0
  0
LINE
  5
   160
  8
0
  6
CONTINUOUS
 62
     7
 10
111.778256340822
 20
183.480155465649
 30
0.0
 11
114.732679602504
 21
184.00109998365
 31
0.0
  0
LINE
  5
   161
  8
0
  6
CONTINUOUS
 62
     7
 10
114.732679602504
 20
184.00109998365
 30
0.0
 11
111.778256340822
 21
184.52204450165
 31
0.0
  0
LINE
  5
   162
  8
0
  6
CONTINUOUS
 62
     7
 10
49.2621160457526
 20
184.52204450165
 30
0.0
 11
46.307692784071
 21
184.00109998365
 31
0.0
  0
LINE
  5
   163
  8
0
  6
CONTINUOUS
 62
     7
 10
46.307692784071
 20
184.00109998365
 30
0.0
 11
49.2621160457526
 21
183.480155465649
 31
0.0
  0
ENDBLK
  5
   164
  8
0
  6
CONTINUOUS
 62
     7
  0
BLOCK
  5
   165
  8
0
  6
CONTINUOUS
 62
     7
  2
*UDIM1838
 70
    65
 10
0.0
 20
0.0
 30
0.0
  3
*UDIM1838
  0
TEXT
  5
   166
  8
0
  6
CONTINUOUS
 62
     7
 10
37.1953180700315
 20
185.001099987633
 30
0.0
 40
2.4999999335834
  1
27,5
 50
359.999999948034
 41
0.933333333333333
 72
     1
 11
41.6119846204896
 21
186.251099950441
 31
0.0
 73
     2
  0
LINE
  5
   167
  8
0
  6
CONTINUOUS
 62
     7
 10
36.6826929479838
 20
107.78056220569
 30
0.0
 11
36.6826929479838
 21
186.00109998365
 31
0.0
  0
LINE
  5
   168
  8
0
  6
CONTINUOUS
 62
     7
 10
46.307692784071
 20
184.00109998365
 30
0.0
 11
36.6826929479838
 21
184.00109998365
 31
0.0
  0
LINE
  5
   169
  8
0
  6
CONTINUOUS
 62
     7
 10
49.2621160457526
 20
184.52204450165
 30
0.0
 11
46.307692784071
 21
184.00109998365
 31
0.0
  0
LINE
  5
   16A
  8
0
  6
CONTINUOUS
 62
     7
 10
46.307692784071
 20
184.00109998365
 30
0.0
 11
49.2621160457526
 21
183.480155465649
 31
0.0
  0
LINE
  5
   16B
  8
0
  6
CONTINUOUS
 62
     7
 10
33.7282696863022
 20
183.480155465649
 30
0.0
 11
36.6826929479838
 21
184.00109998365
 31
0.0
  0
LINE
  5
   16C
  8
0
  6
CONTINUOUS
 62
     7
 10
36.6826929479838
 20
184.00109998365
 30
0.0
 11
33.7282696863022
 21
184.52204450165
 31
0.0
  0
ENDBLK
  5
   16D
  8
0
  6
CONTINUOUS
 62
     7
  0
BLOCK
  5
   16E
  8
0
  6
CONTINUOUS
 62
     7
  2
*UDIM1839
 70
    65
 10
0.0
 20
0.0
 30
0.0
  3
*UDIM1839
  0
TEXT
  5
   16F
  8
0
  6
CONTINUOUS
 62
     7
 10
146.443109951765
 20
2.22643542169985
 30
0.0
 40
2.4999999335834
  1
20
 50
89.9999999480344
 41
0.933333333333333
 72
     1
 11
145.19310998686
 21
4.30976870081815
 31
0.0
 73
     2
  0
LINE
  5
   170
  8
0
  6
CONTINUOUS
 62
     7
 10
104.882679787278
 20
9.8306012407711
 30
0.0
 11
149.443109953652
 21
9.8306012407711
 31
0.0
  0
LINE
  5
   171
  8
0
  6
CONTINUOUS
 62
     7
 10
109.85539447228
 20
16.8305650726733
 30
0.0
 11
149.443109953652
 21
16.8305650726733
 31
0.0
  0
LINE
  5
   172
  8
0
  6
CONTINUOUS
 62
     7
 10
147.443109953652
 20
2.22643542283199
 30
0.0
 11
147.443109953652
 21
16.8305650726733
 31
0.0
  0
LINE
  5
   173
  8
0
  6
CONTINUOUS
 62
     7
 10
146.922165435652
 20
12.7850245024527
 30
0.0
 11
147.443109953652
 21
9.8306012407711
 31
0.0
  0
LINE
  5
   174
  8
0
  6
CONTINUOUS
 62
     7
 10
147.443109953652
 20
9.8306012407711
 30
0.0
 11
147.964054471652
 21
12.7850245024527
 31
0.0
  0
LINE
  5
   175
  8
0
  6
CONTINUOUS
 62
     7
 10
147.964054471652
 20
13.8761418109917
 30
0.0
 11
147.443109953652
 21
16.8305650726733
 31
0.0
  0
LINE
  5
   176
  8
0
  6
CONTINUOUS
 62
     7
 10
147.443109953652
 20
16.8305650726733
 30
0.0
 11
146.922165435652
 21
13.8761418109917
 31
0.0
  0
ENDBLK
  5
   177
  8
0
  6
CONTINUOUS
 62
     7
  0
BLOCK
  5
   178
  8
0
  6
CONTINUOUS
 62
     7
  2
*UDIM1840
 70
    65
 10
0.0
 20
0.0
 30
0.0
  3
*UDIM1840
  0
TEXT
  5
   179
  8
0
  6
CONTINUOUS
 62
     7
 10
146.443109950708
 20
46.0763972056716
 30
0.0
 40
2.4999999335834
  1
187
 50
89.9999999480344
 41
0.933333333333333
 72
     1
 11
145.19310998686
 21
49.3263971204621
 31
0.0
 73
     2
  0
LINE
  5
   17A
  8
0
  6
CONTINUOUS
 62
     7
 10
127.161062131782
 20
82.2805639580664
 30
0.0
 11
149.443109953652
 21
82.2805639580664
 31
0.0
  0
LINE
  5
   17B
  8
0
  6
CONTINUOUS
 62
     7
 10
147.443109953652
 20
16.8305650726733
 30
0.0
 11
147.443109953652
 21
82.2805639580664
 31
0.0
  0
LINE
  5
   17C
  8
0
  6
CONTINUOUS
 62
     7
 10
146.922165435652
 20
19.7849883343549
 30
0.0
 11
147.443109953652
 21
16.8305650726733
 31
0.0
  0
LINE
  5
   17D
  8
0
  6
CONTINUOUS
 62
     7
 10
147.443109953652
 20
16.8305650726733
 30
0.0
 11
147.964054471652
 21
19.7849883343549
 31
0.0
  0
LINE
  5
   17E
  8
0
  6
CONTINUOUS
 62
     7
 10
147.964054471652
 20
79.3261406963848
 30
0.0
 11
147.443109953652
 21
82.2805639580664
 31
0.0
  0
LINE
  5
   17F
  8
0
  6
CONTINUOUS
 62
     7
 10
147.443109953652
 20
82.2805639580664
 30
0.0
 11
146.922165435652
 21
79.3261406963848
 31
0.0
  0
ENDBLK
  5
   180
  8
0
  6
CONTINUOUS
 62
     7
  0
BLOCK
  5
   181
  8
0
  6
CONTINUOUS
 62
     7
  2
*UDIM1841
 70
    65
 10
0.0
 20
0.0
 30
0.0
  3
*UDIM1841
  0
TEXT
  5
   182
  8
0
  6
CONTINUOUS
 62
     7
 10
146.443109949652
 20
93.2972317069579
 30
0.0
 40
2.4999999335834
  1
89,5
 50
89.9999999480344
 41
0.933333333333333
 72
     1
 11
145.19310998686
 21
97.7138982574207
 31
0.0
 73
     2
  0
LINE
  5
   183
  8
0
  6
CONTINUOUS
 62
     7
 10
142.857679140568
 20
113.605563424605
 30
0.0
 11
149.443109953652
 21
113.605563424605
 31
0.0
  0
LINE
  5
   184
  8
0
  6
CONTINUOUS
 62
     7
 10
147.443109953652
 20
82.2805639580664
 30
0.0
 11
147.443109953652
 21
113.605563424605
 31
0.0
  0
LINE
  5
   185
  8
0
  6
CONTINUOUS
 62
     7
 10
146.922165435652
 20
85.234987219748
 30
0.0
 11
147.443109953652
 21
82.2805639580664
 31
0.0
  0
LINE
  5
   186
  8
0
  6
CONTINUOUS
 62
     7
 10
147.443109953652
 20
82.2805639580664
 30
0.0
 11
147.964054471652
 21
85.234987219748
 31
0.0
  0
LINE
  5
   187
  8
0
  6
CONTINUOUS
 62
     7
 10
147.964054471652
 20
110.651140162923
 30
0.0
 11
147.443109953652
 21
113.605563424605
 31
0.0
  0
LINE
  5
   188
  8
0
  6
CONTINUOUS
 62
     7
 10
147.443109953652
 20
113.605563424605
 30
0.0
 11
146.922165435652
 21
110.651140162923
 31
0.0
  0
ENDBLK
  5
   189
  8
0
  6
CONTINUOUS
 62
     7
  0
BLOCK
  5
   18A
  8
0
  6
CONTINUOUS
 62
     7
  2
*UDIM1842
 70
    65
 10
0.0
 20
0.0
 30
0.0
  3
*UDIM1842
  0
TEXT
  5
   18B
  8
0
  6
CONTINUOUS
 62
     7
 10
118.782678619262
 20
5.10514853453634
 30
0.0
 40
2.4999999335834
  1
3
 50
359.999999948034
 41
0.933333333333333
 72
     1
 11
119.699345262704
 21
6.35514850050125
 31
0.0
 73
     2
  0
LINE
  5
   18C
  8
0
  6
CONTINUOUS
 62
     7
 10
115.782679584623
 20
14.3078004383239
 30
0.0
 11
115.782679584623
 21
2.10514853370955
 31
0.0
  0
LINE
  5
   18D
  8
0
  6
CONTINUOUS
 62
     7
 10
114.732679602504
 20
14.04388375611
 30
0.0
 11
114.732679602504
 21
2.10514853370955
 31
0.0
  0
LINE
  5
   18E
  8
0
  6
CONTINUOUS
 62
     7
 10
120.616011905018
 20
4.10514853370955
 30
0.0
 11
114.732679602504
 21
4.10514853370955
 31
0.0
  0
LINE
  5
   18F
  8
0
  6
CONTINUOUS
 62
     7
 10
118.737102846304
 20
4.62609305170989
 30
0.0
 11
115.782679584623
 21
4.10514853370955
 31
0.0
  0
LINE
  5
   190
  8
0
  6
CONTINUOUS
 62
     7
 10
115.782679584623
 20
4.10514853370955
 30
0.0
 11
118.737102846304
 21
3.58420401570921
 31
0.0
  0
LINE
  5
   191
  8
0
  6
CONTINUOUS
 62
     7
 10
111.778256340822
 20
3.58420401570921
 30
0.0
 11
114.732679602504
 21
4.10514853370955
 31
0.0
  0
LINE
  5
   192
  8
0
  6
CONTINUOUS
 62
     7
 10
114.732679602504
 20
4.10514853370955
 30
0.0
 11
111.778256340822
 21
4.62609305170989
 31
0.0
  0
ENDBLK
  5
   193
  8
0
  6
CONTINUOUS
 62
     7
  0
BLOCK
  5
   194
  8
0
  6
CONTINUOUS
 62
     7
  2
*UDIM1843
 70
    65
 10
0.0
 20
0.0
 30
0.0
  3
*UDIM1843
  0
TEXT
  5
   195
  8
0
  6
CONTINUOUS
 62
     7
 10
106.99517837416
 20
5.10514853558861
 30
0.0
 40
2.4999999335834
  1
31
 50
359.999999948034
 41
0.933333333333333
 72
     1
 11
109.078511653273
 21
6.35514850050125
 31
0.0
 73
     2
  0
LINE
  5
   196
  8
0
  6
CONTINUOUS
 62
     7
 10
103.882679787278
 20
8.83060124077111
 30
0.0
 11
103.882679787278
 21
2.10514853370955
 31
0.0
  0
LINE
  5
   197
  8
0
  6
CONTINUOUS
 62
     7
 10
114.732679602504
 20
4.10514853370955
 30
0.0
 11
103.882679787278
 21
4.10514853370955
 31
0.0
  0
LINE
  5
   198
  8
0
  6
CONTINUOUS
 62
     7
 10
111.778256340822
 20
3.58420401570921
 30
0.0
 11
114.732679602504
 21
4.10514853370955
 31
0.0
  0
LINE
  5
   199
  8
0
  6
CONTINUOUS
 62
     7
 10
114.732679602504
 20
4.10514853370955
 30
0.0
 11
111.778256340822
 21
4.62609305170989
 31
0.0
  0
LINE
  5
   19A
  8
0
  6
CONTINUOUS
 62
     7
 10
106.83710304896
 20
4.62609305170989
 30
0.0
 11
103.882679787278
 21
4.10514853370955
 31
0.0
  0
LINE
  5
   19B
  8
0
  6
CONTINUOUS
 62
     7
 10
103.882679787278
 20
4.10514853370955
 30
0.0
 11
106.83710304896
 21
3.58420401570921
 31
0.0
  0
ENDBLK
  5
   19C
  8
0
  6
CONTINUOUS
 62
     7
  0
BLOCK
  5
   19D
  8
0
  6
CONTINUOUS
 62
     7
  2
*UDIM1844
 70
    65
 10
0.0
 20
0.0
 30
0.0
  3
*UDIM1844
  0
TEXT
  5
   19E
  8
0
  6
CONTINUOUS
 62
     7
 10
92.7785140278166
 20
5.10514853558861
 30
0.0
 40
2.4999999335834
  1
10
 50
359.999999948034
 41
0.933333333333333
 72
     1
 11
94.8618473069302
 21
6.35514850050125
 31
0.0
 73
     2
  0
LINE
  5
   19F
  8
0
  6
CONTINUOUS
 62
     7
 10
100.382679846883
 20
8.83060124077111
 30
0.0
 11
100.382679846883
 21
2.10514853370955
 31
0.0
  0
LINE
  5
   1A0
  8
0
  6
CONTINUOUS
 62
     7
 10
103.882679787278
 20
4.10514853370955
 30
0.0
 11
92.778514028944
 21
4.10514853370955
 31
0.0
  0
LINE
  5
   1A1
  8
0
  6
CONTINUOUS
 62
     7
 10
106.83710304896
 20
4.62609305170989
 30
0.0
 11
103.882679787278
 21
4.10514853370955
 31
0.0
  0
LINE
  5
   1A2
  8
0
  6
CONTINUOUS
 62
     7
 10
103.882679787278
 20
4.10514853370955
 30
0.0
 11
106.83710304896
 21
3.58420401570921
 31
0.0
  0
LINE
  5
   1A3
  8
0
  6
CONTINUOUS
 62
     7
 10
97.4282565852015
 20
3.58420401570921
 30
0.0
 11
100.382679846883
 21
4.10514853370955
 31
0.0
  0
LINE
  5
   1A4
  8
0
  6
CONTINUOUS
 62
     7
 10
100.382679846883
 20
4.10514853370955
 30
0.0
 11
97.4282565852015
 21
4.62609305170989
 31
0.0
  0
ENDBLK
  5
   1A5
  8
0
  6
CONTINUOUS
 62
     7
  0
BLOCK
  5
   1A6
  8
0
  6
CONTINUOUS
 62
     7
  2
*UDIM1845
 70
    65
 10
0.0
 20
0.0
 30
0.0
  3
*UDIM1845
  0
TEXT
  5
   1A7
  8
0
  6
CONTINUOUS
 62
     7
 10
153.165010013237
 20
73.7263913965847
 30
0.0
 40
2.4999999335834
  1
295
 50
89.9999999480344
 41
0.933333333333333
 72
     1
 11
151.915010049389
 21
76.9763913113753
 31
0.0
 73
     2
  0
LINE
  5
   1A8
  8
0
  6
CONTINUOUS
 62
     7
 10
115.382679608465
 20
25.5805690805007
 30
0.0
 11
156.165010016181
 21
25.5805690805007
 31
0.0
  0
LINE
  5
   1A9
  8
0
  6
CONTINUOUS
 62
     7
 10
115.38267960847
 20
128.830550543398
 30
0.0
 11
156.165010016181
 21
128.830550543398
 31
0.0
  0
LINE
  5
   1AA
  8
0
  6
CONTINUOUS
 62
     7
 10
154.165010016181
 20
25.5805690805007
 30
0.0
 11
154.165010016181
 21
128.830550543398
 31
0.0
  0
LINE
  5
   1AB
  8
0
  6
CONTINUOUS
 62
     7
 10
153.64406549818
 20
28.5349923421823
 30
0.0
 11
154.165010016181
 21
25.5805690805007
 31
0.0
  0
LINE
  5
   1AC
  8
0
  6
CONTINUOUS
 62
     7
 10
154.165010016181
 20
25.5805690805007
 30
0.0
 11
154.685954534181
 21
28.5349923421823
 31
0.0
  0
LINE
  5
   1AD
  8
0
  6
CONTINUOUS
 62
     7
 10
154.685954534181
 20
125.876127281716
 30
0.0
 11
154.165010016181
 21
128.830550543398
 31
0.0
  0
LINE
  5
   1AE
  8
0
  6
CONTINUOUS
 62
     7
 10
154.165010016181
 20
128.830550543398
 30
0.0
 11
153.64406549818
 21
125.876127281716
 31
0.0
  0
ENDBLK
  5
   1AF
  8
0
  6
CONTINUOUS
 62
     7
  0
BLOCK
  5
   1B0
  8
0
  6
CONTINUOUS
 62
     7
  2
*UDIM1846
 70
    65
 10
0.0
 20
0.0
 30
0.0
  3
*UDIM1846
  0
TEXT
  5
   1B1
  8
0
  6
CONTINUOUS
 62
     7
 10
135.964077231216
 20
50.4513997937108
 30
0.0
 40
2.4999999335834
  1
162
 50
89.9999999480344
 41
0.933333333333333
 72
     1
 11
134.714077267368
 21
53.7013997085014
 31
0.0
 73
     2
  0
LINE
  5
   1B2
  8
0
  6
CONTINUOUS
 62
     7
 10
115.382679608465
 20
25.5805690805007
 30
0.0
 11
138.96407723416
 21
25.5805690805007
 31
0.0
  0
LINE
  5
   1B3
  8
0
  6
CONTINUOUS
 62
     7
 10
127.161062131782
 20
82.2805639580664
 30
0.0
 11
138.96407723416
 21
82.2805639580664
 31
0.0
  0
LINE
  5
   1B4
  8
0
  6
CONTINUOUS
 62
     7
 10
136.96407723416
 20
25.5805690805007
 30
0.0
 11
136.96407723416
 21
82.2805639580664
 31
0.0
  0
LINE
  5
   1B5
  8
0
  6
CONTINUOUS
 62
     7
 10
136.443132716159
 20
28.5349923421823
 30
0.0
 11
136.96407723416
 21
25.5805690805007
 31
0.0
  0
LINE
  5
   1B6
  8
0
  6
CONTINUOUS
 62
     7
 10
136.96407723416
 20
25.5805690805007
 30
0.0
 11
137.48502175216
 21
28.5349923421823
 31
0.0
  0
LINE
  5
   1B7
  8
0
  6
CONTINUOUS
 62
     7
 10
137.48502175216
 20
79.3261406963848
 30
0.0
 11
136.96407723416
 21
82.2805639580664
 31
0.0
  0
LINE
  5
   1B8
  8
0
  6
CONTINUOUS
 62
     7
 10
136.96407723416
 20
82.2805639580664
 30
0.0
 11
136.443132716159
 21
79.3261406963848
 31
0.0
  0
ENDBLK
  5
   1B9
  8
0
  6
CONTINUOUS
 62
     7
  0
BLOCK
  5
   1BA
  8
0
  6
CONTINUOUS
 62
     7
  2
*UDIM1847
 70
    65
 10
0.0
 20
0.0
 30
0.0
  3
*UDIM1847
  0
TEXT
  5
   1BB
  8
0
  6
CONTINUOUS
 62
     7
 10
61.6447141716896
 20
84.3681337081938
 30
0.0
 40
2.4999999335834
  1
5,5
 50
406.763716852172
 41
0.933333333333333
 72
     1
 11
62.960323341521
 21
87.5921330673771
 31
0.0
 73
     2
  0
TEXT
  5
   1BC
  8
0
  6
CONTINUOUS
 62
     7
 10
59.8465666312628
 20
82.455729391251
 30
0.0
 40
2.4999999335834
  1
Ø
 50
406.763716852172
 41
0.933333333333333
 72
     1
 11
59.563822453836
 21
83.9798138312482
 31
0.0
 73
     2
  0
LINE
  5
   1BD
  8
0
  6
CONTINUOUS
 62
     7
 10
55.6233533215536
 20
76.5043315874602
 30
0.0
 11
66.8258049087415
 21
88.4186023909585
 31
0.0
  0
LINE
  5
   1BE
  8
0
  6
CONTINUOUS
 62
     7
 10
53.9790743009996
 20
73.9950794075138
 30
0.0
 11
55.6233533215536
 21
76.5043315874602
 31
0.0
  0
LINE
  5
   1BF
  8
0
  6
CONTINUOUS
 62
     7
 10
55.6233533215536
 20
76.5043315874602
 30
0.0
 11
53.2200216874334
 21
74.7087823521461
 31
0.0
  0
LINE
  5
   1C0
  8
0
  6
CONTINUOUS
 62
     7
 10
58.5862745904864
 20
80.4160143619817
 30
0.0
 11
56.9419955699324
 21
77.9067621820353
 31
0.0
  0
LINE
  5
   1C1
  8
0
  6
CONTINUOUS
 62
     7
 10
56.9419955699324
 20
77.9067621820353
 30
0.0
 11
59.3453272040526
 21
79.7023114173494
 31
0.0
  0
ENDBLK
  5
   1C2
  8
0
  6
CONTINUOUS
 62
     7
  0
BLOCK
  5
   1C3
  8
0
  6
CONTINUOUS
 62
     7
  2
*UDIM1848
 70
    65
 10
0.0
 20
0.0
 30
0.0
  3
*UDIM1848
  0
TEXT
  5
   1C4
  8
0
  6
CONTINUOUS
 62
     7
 10
82.0285087673663
 20
179.052296376951
 30
0.0
 40
2.4999999335834
  1
167
 50
359.999999948034
 41
0.933333333333333
 72
     1
 11
85.2785086821522
 21
180.302296340811
 31
0.0
 73
     2
  0
LINE
  5
   1C5
  8
0
  6
CONTINUOUS
 62
     7
 10
114.732679602504
 20
174.336494448102
 30
0.0
 11
114.732679602504
 21
180.05229637402
 31
0.0
  0
LINE
  5
   1C6
  8
0
  6
CONTINUOUS
 62
     7
 10
56.282674596055
 20
82.0555463369754
 30
0.0
 11
56.282674596055
 21
180.05229637402
 31
0.0
  0
LINE
  5
   1C7
  8
0
  6
CONTINUOUS
 62
     7
 10
114.732679602504
 20
178.05229637402
 30
0.0
 11
56.282674596055
 21
178.05229637402
 31
0.0
  0
LINE
  5
   1C8
  8
0
  6
CONTINUOUS
 62
     7
 10
111.778256340822
 20
177.531351856019
 30
0.0
 11
114.732679602504
 21
178.05229637402
 31
0.0
  0
LINE
  5
   1C9
  8
0
  6
CONTINUOUS
 62
     7
 10
114.732679602504
 20
178.05229637402
 30
0.0
 11
111.778256340822
 21
178.57324089202
 31
0.0
  0
LINE
  5
   1CA
  8
0
  6
CONTINUOUS
 62
     7
 10
59.2370978577366
 20
178.57324089202
 30
0.0
 11
56.282674596055
 21
178.05229637402
 31
0.0
  0
LINE
  5
   1CB
  8
0
  6
CONTINUOUS
 62
     7
 10
56.282674596055
 20
178.05229637402
 30
0.0
 11
59.2370978577366
 21
177.531351856019
 31
0.0
  0
ENDBLK
  5
   1CC
  8
0
  6
CONTINUOUS
 62
     7
  0
BLOCK
  5
   1CD
  8
0
  6
CONTINUOUS
 62
     7
  2
*UDIM1849
 70
    65
 10
0.0
 20
0.0
 30
0.0
  3
*UDIM1849
  0
TEXT
  5
   1CE
  8
0
  6
CONTINUOUS
 62
     7
 10
129.905887942296
 20
73.7263967347949
 30
0.0
 40
2.4999999335834
  1
145
 50
89.9999999480344
 41
0.933333333333333
 72
     1
 11
128.655887978448
 21
76.9763966495855
 31
0.0
 73
     2
  0
LINE
  5
   1CF
  8
0
  6
CONTINUOUS
 62
     7
 10
122.732679483295
 20
51.8305631414828
 30
0.0
 11
132.90588794524
 21
51.8305631414828
 31
0.0
  0
LINE
  5
   1D0
  8
0
  6
CONTINUOUS
 62
     7
 10
122.732679483295
 20
102.580562277215
 30
0.0
 11
132.90588794524
 21
102.580562277215
 31
0.0
  0
LINE
  5
   1D1
  8
0
  6
CONTINUOUS
 62
     7
 10
130.90588794524
 20
51.8305631414828
 30
0.0
 11
130.90588794524
 21
102.580562277215
 31
0.0
  0
LINE
  5
   1D2
  8
0
  6
CONTINUOUS
 62
     7
 10
130.38494342724
 20
54.7849864031644
 30
0.0
 11
130.90588794524
 21
51.8305631414828
 31
0.0
  0
LINE
  5
   1D3
  8
0
  6
CONTINUOUS
 62
     7
 10
130.90588794524
 20
51.8305631414828
 30
0.0
 11
131.42683246324
 21
54.7849864031644
 31
0.0
  0
LINE
  5
   1D4
  8
0
  6
CONTINUOUS
 62
     7
 10
131.42683246324
 20
99.6261390155338
 30
0.0
 11
130.90588794524
 21
102.580562277215
 31
0.0
  0
LINE
  5
   1D5
  8
0
  6
CONTINUOUS
 62
     7
 10
130.90588794524
 20
102.580562277215
 30
0.0
 11
130.38494342724
 21
99.6261390155338
 31
0.0
  0
ENDBLK
  5
   1D6
  8
0
  6
CONTINUOUS
 62
     7
  0
BLOCK
  5
   1D7
  8
0
  6
CONTINUOUS
 62
     7
  2
*UDIM1850
 70
    65
 10
0.0
 20
0.0
 30
0.0
  3
*UDIM1850
  0
TEXT
  5
   1D8
  8
0
  6
CONTINUOUS
 62
     7
 10
124.011430035923
 20
90.1180611293326
 30
0.0
 40
2.4999999335834
  1
58
 50
89.9999999480344
 41
0.933333333333333
 72
     1
 11
122.761430071018
 21
92.2013944084509
 31
0.0
 73
     2
  0
LINE
  5
   1D9
  8
0
  6
CONTINUOUS
 62
     7
 10
122.732679483295
 20
102.580562277215
 30
0.0
 11
127.01143003781
 21
102.580562277215
 31
0.0
  0
LINE
  5
   1DA
  8
0
  6
CONTINUOUS
 62
     7
 10
125.01143003781
 20
82.2805639580664
 30
0.0
 11
125.01143003781
 21
102.580562277215
 31
0.0
  0
LINE
  5
   1DB
  8
0
  6
CONTINUOUS
 62
     7
 10
124.490485519809
 20
85.234987219748
 30
0.0
 11
125.01143003781
 21
82.2805639580664
 31
0.0
  0
LINE
  5
   1DC
  8
0
  6
CONTINUOUS
 62
     7
 10
125.01143003781
 20
82.2805639580664
 30
0.0
 11
125.53237455581
 21
85.234987219748
 31
0.0
  0
LINE
  5
   1DD
  8
0
  6
CONTINUOUS
 62
     7
 10
125.53237455581
 20
99.6261390155338
 30
0.0
 11
125.01143003781
 21
102.580562277215
 31
0.0
  0
LINE
  5
   1DE
  8
0
  6
CONTINUOUS
 62
     7
 10
125.01143003781
 20
102.580562277215
 30
0.0
 11
124.490485519809
 21
99.6261390155338
 31
0.0
  0
ENDBLK
  5
   1DF
  8
0
  6
CONTINUOUS
 62
     7
  0
BLOCK
  5
   1E0
  8
0
  6
CONTINUOUS
 62
     7
  2
*UDIM1851
 70
    65
 10
0.0
 20
0.0
 30
0.0
  3
*UDIM1851
  0
TEXT
  5
   1E1
  8
0
  6
CONTINUOUS
 62
     7
 10
31.0100266656675
 20
78.8013966483682
 30
0.0
 40
2.4999999335834
  1
140
 50
89.9999999480344
 41
0.933333333333333
 72
     1
 11
29.7600267018194
 21
82.0513965631587
 31
0.0
 73
     2
  0
LINE
  5
   1E2
  8
0
  6
CONTINUOUS
 62
     7
 10
47.2326914161445
 20
57.7805643752989
 30
0.0
 11
30.0100266686111
 21
57.7805643752989
 31
0.0
  0
LINE
  5
   1E3
  8
0
  6
CONTINUOUS
 62
     7
 10
47.2326927512885
 20
106.78056220569
 30
0.0
 11
30.0100266686111
 21
106.78056220569
 31
0.0
  0
LINE
  5
   1E4
  8
0
  6
CONTINUOUS
 62
     7
 10
32.0100266686111
 20
57.7805643752989
 30
0.0
 11
32.0100266686111
 21
106.78056220569
 31
0.0
  0
LINE
  5
   1E5
  8
0
  6
CONTINUOUS
 62
     7
 10
31.4890821506108
 20
60.7349876369805
 30
0.0
 11
32.0100266686111
 21
57.7805643752989
 31
0.0
  0
LINE
  5
   1E6
  8
0
  6
CONTINUOUS
 62
     7
 10
32.0100266686111
 20
57.7805643752989
 30
0.0
 11
32.5309711866114
 21
60.7349876369805
 31
0.0
  0
LINE
  5
   1E7
  8
0
  6
CONTINUOUS
 62
     7
 10
32.5309711866114
 20
103.826138944008
 30
0.0
 11
32.0100266686111
 21
106.78056220569
 31
0.0
  0
LINE
  5
   1E8
  8
0
  6
CONTINUOUS
 62
     7
 10
32.0100266686111
 20
106.78056220569
 30
0.0
 11
31.4890821506108
 21
103.826138944008
 31
0.0
  0
ENDBLK
  5
   1E9
  8
0
  6
CONTINUOUS
 62
     7
  0
BLOCK
  5
   1EA
  8
0
  6
CONTINUOUS
 62
     0
  2
$1MOSTRA
 70
    64
 10
0.0
 20
0.0
 30
0.0
  3
$1MOSTRA
  0
LINE
  5
   1EB
  8
0
  6
CONTINUOUS
 62
     0
 10
131.0
 20
-24.0000152587891
 30
0.0
 11
131.0
 21
169.499984741211
 31
0.0
  0
LINE
  5
   1EC
  8
0
  6
CONTINUOUS
 62
     0
 10
-94.7500023146612
 20
-25.250020980835
 30
0.0
 11
129.75
 21
-25.250020980835
 31
0.0
  0
LINE
  5
   1ED
  8
0
  6
CONTINUOUS
 62
     0
 10
-96.0
 20
-24.000020980835
 30
0.0
 11
-96.0
 21
169.499979019165
 31
0.0
  0
LINE
  5
   1EE
  8
0
  6
CONTINUOUS
 62
     0
 10
-87.0
 20
170.749984741211
 30
0.0
 11
129.75
 21
170.749984741211
 31
0.0
  0
LINE
  5
   1EF
  8
0
  6
CONTINUOUS
 62
     0
 10
-94.7500138961029
 20
170.749984741211
 30
0.0
 11
-87.0
 21
170.749984741211
 31
0.0
  0
LINE
  5
   1F0
  8
0
  6
CONTINUOUS
 62
     0
 10
78.0
 20
-5.25002145767212
 30
0.0
 11
78.0
 21
-4.2500216960907
 31
0.0
  0
LINE
  5
   1F1
  8
0
  6
CONTINUOUS
 62
     0
 10
-87.0
 20
-5.25002145767211
 30
0.0
 11
-87.0
 21
-4.25002169609069
 31
0.0
  0
LINE
  5
   1F2
  8
0
  6
CONTINUOUS
 62
     0
 10
-86.0
 20
-5.25002145767211
 30
0.0
 11
77.0
 21
-5.25002145767212
 31
0.0
  0
LINE
  5
   1F3
  8
0
  6
CONTINUOUS
 62
     0
 10
78.0
 20
149.749984741211
 30
0.0
 11
78.0
 21
150.749984741211
 31
0.0
  0
LINE
  5
   1F4
  8
0
  6
CONTINUOUS
 62
     0
 10
-87.0
 20
149.749984741211
 30
0.0
 11
-87.0
 21
150.749984741211
 31
0.0
  0
LINE
  5
   1F5
  8
0
  6
CONTINUOUS
 62
     0
 10
-86.0
 20
-25.250020980835
 30
0.0
 11
-86.0
 21
-5.25002098083496
 31
0.0
  0
LINE
  5
   1F6
  8
0
  6
CONTINUOUS
 62
     0
 10
-87.0
 20
-25.250020980835
 30
0.0
 11
-87.0
 21
-5.25002098083496
 31
0.0
  0
LINE
  5
   1F7
  8
0
  6
CONTINUOUS
 62
     0
 10
-87.0
 20
-4.25002169609069
 30
0.0
 11
-87.0
 21
149.749978303909
 31
0.0
  0
LINE
  5
   1F8
  8
0
  6
CONTINUOUS
 62
     0
 10
-87.0
 20
150.749984741211
 30
0.0
 11
-87.0
 21
170.749984741211
 31
0.0
  0
LINE
  5
   1F9
  8
0
  6
CONTINUOUS
 62
     0
 10
78.0
 20
-25.250020980835
 30
0.0
 11
78.0
 21
-5.25002098083497
 31
0.0
  0
LINE
  5
   1FA
  8
0
  6
CONTINUOUS
 62
     0
 10
78.0
 20
-4.2500216960907
 30
0.0
 11
78.0
 21
22.6249783039093
 31
0.0
  0
LINE
  5
   1FB
  8
0
  6
CONTINUOUS
 62
     0
 10
78.0
 20
23.624979019165
 30
0.0
 11
78.0
 21
64.624979019165
 31
0.0
  0
LINE
  5
   1FC
  8
0
  6
CONTINUOUS
 62
     0
 10
78.0
 20
65.6249771118164
 30
0.0
 11
78.0
 21
149.749984741211
 31
0.0
  0
LINE
  5
   1FD
  8
0
  6
CONTINUOUS
 62
     0
 10
78.0
 20
150.749984741211
 30
0.0
 11
78.0
 21
170.749984741211
 31
0.0
  0
LINE
  5
   1FE
  8
0
  6
CONTINUOUS
 62
     0
 10
77.0
 20
-25.250020980835
 30
0.0
 11
77.0
 21
-5.25002098083497
 31
0.0
  0
LINE
  5
   1FF
  8
0
  6
CONTINUOUS
 62
     0
 10
112.0
 20
23.624979019165
 30
0.0
 11
112.0
 21
64.624979019165
 31
0.0
  0
LINE
  5
   200
  8
0
  6
CONTINUOUS
 62
     0
 10
-86.0
 20
150.749984741211
 30
0.0
 11
77.0
 21
150.749984741211
 31
0.0
  0
LINE
  5
   201
  8
0
  6
DOT
 62
     0
 10
78.0
 20
22.6249809265137
 30
0.0
 11
78.0
 21
23.6249809265137
 31
0.0
  0
LINE
  5
   202
  8
0
  6
DOT
 62
     0
 10
78.0
 20
64.6249847412109
 30
0.0
 11
78.0
 21
65.6249847412109
 31
0.0
  0
LINE
  5
   203
  8
0
  6
CONTINUOUS
 62
     0
 10
-95.2283575359481
 20
170.654833276614
 30
0.0
 11
-94.7500021275396
 21
170.749987082197
 31
0.0
  0
LINE
  5
   204
  8
0
  6
CONTINUOUS
 62
     0
 10
-95.6338828572815
 20
170.383870758251
 30
0.0
 11
-95.2283576589463
 21
170.654836342308
 31
0.0
  0
LINE
  5
   205
  8
0
  6
CONTINUOUS
 62
     0
 10
-95.9048442813714
 20
169.978321294716
 30
0.0
 11
-95.6338787006842
 21
170.38385412157
 31
0.0
  0
LINE
  5
   206
  8
0
  6
CONTINUOUS
 62
     0
 10
-96.0000009070014
 20
169.49998927381
 30
0.0
 11
-95.9048471000262
 21
169.978337054874
 31
0.0
  0
LINE
  5
   207
  8
0
  6
CONTINUOUS
 62
     0
 10
129.750003154688
 20
170.749986935154
 30
0.0
 11
130.228350935752
 21
170.654833128179
 31
0.0
  0
LINE
  5
   208
  8
0
  6
CONTINUOUS
 62
     0
 10
130.228341409222
 20
170.654823450862
 30
0.0
 11
130.633874236076
 21
170.383857870175
 31
0.0
  0
LINE
  5
   209
  8
0
  6
CONTINUOUS
 62
     0
 10
130.633876465973
 20
170.383854910394
 30
0.0
 11
130.90484204666
 21
169.97832208354
 31
0.0
  0
LINE
  5
   20A
  8
0
  6
CONTINUOUS
 62
     0
 10
130.90484765696
 20
169.978336952213
 30
0.0
 11
131.000001463935
 21
169.499989171149
 31
0.0
  0
LINE
  5
   20B
  8
0
  6
CONTINUOUS
 62
     0
 10
129.750001912704
 20
-25.2500209810903
 30
0.0
 11
130.228349689786
 21
-25.1548709896053
 31
0.0
  0
LINE
  5
   20C
  8
0
  6
CONTINUOUS
 62
     0
 10
130.228338306514
 20
-25.1548722950462
 30
0.0
 11
130.633871133368
 21
-24.8839067143591
 31
0.0
  0
LINE
  5
   20D
  8
0
  6
CONTINUOUS
 62
     0
 10
130.633879356188
 20
-24.8839055654524
 30
0.0
 11
130.904844938572
 21
-24.4783765528653
 31
0.0
  0
LINE
  5
   20E
  8
0
  6
CONTINUOUS
 62
     0
 10
130.904848088874
 20
-24.4783766972257
 30
0.0
 11
131.000001894457
 21
-24.0000212888173
 31
0.0
  0
LINE
  5
   20F
  8
0
  6
CONTINUOUS
 62
     0
 10
-95.2283572980338
 20
-25.1548710672825
 30
0.0
 11
-94.750001893597
 21
-25.2500210645891
 31
0.0
  0
LINE
  5
   210
  8
0
  6
CONTINUOUS
 62
     0
 10
-95.6338848795916
 20
-24.8839050834456
 30
0.0
 11
-95.2283596812563
 21
-25.1548706675021
 31
0.0
  0
LINE
  5
   211
  8
0
  6
CONTINUOUS
 62
     0
 10
-95.9048453281177
 20
-24.4783764153605
 30
0.0
 11
-95.6338797457343
 21
-24.8839054279476
 31
0.0
  0
LINE
  5
   212
  8
0
  6
CONTINUOUS
 62
     0
 10
-96.0000013278323
 20
-24.0000213932639
 30
0.0
 11
-95.9048475222492
 21
-24.4783768016722
 31
0.0
  0
LINE
  5
   213
  8
0
  6
CONTINUOUS
 62
     0
 10
71.0
 20
161.499984741211
 30
0.0
 11
71.5
 21
161.499984741211
 31
0.0
  0
LINE
  5
   214
  8
0
  6
CONTINUOUS
 62
     0
 10
70.6249985834239
 20
161.39948892087
 30
0.0
 11
70.9999985887286
 21
161.499983299907
 31
0.0
  0
LINE
  5
   215
  8
0
  6
CONTINUOUS
 62
     0
 10
70.3504841000321
 20
161.124991898345
 30
0.0
 11
70.6250049664647
 21
161.399497515692
 31
0.0
  0
LINE
  5
   216
  8
0
  6
CONTINUOUS
 62
     0
 10
70.2500005005121
 20
160.74998610992
 30
0.0
 11
70.3504796223163
 21
161.124986104743
 31
0.0
  0
LINE
  5
   217
  8
0
  6
CONTINUOUS
 62
     0
 10
70.2500001717027
 20
160.749985945318
 30
0.0
 11
70.3504792935069
 21
160.374985950495
 31
0.0
  0
LINE
  5
   218
  8
0
  6
CONTINUOUS
 62
     0
 10
70.3504785443499
 20
160.374981262897
 30
0.0
 11
70.6249994243228
 21
160.100460382924
 31
0.0
  0
LINE
  5
   219
  8
0
  6
CONTINUOUS
 62
     0
 10
70.6250004494111
 20
160.100464493128
 30
0.0
 11
71.000000444234
 21
159.999985371324
 31
0.0
  0
LINE
  5
   21A
  8
0
  6
CONTINUOUS
 62
     0
 10
71.0
 20
159.999984741211
 30
0.0
 11
71.5
 21
159.999984741211
 31
0.0
  0
LINE
  5
   21B
  8
0
  6
CONTINUOUS
 62
     0
 10
-71.0000005237262
 20
159.999985364975
 30
0.0
 11
-70.6250005289034
 21
160.100464486779
 31
0.0
  0
LINE
  5
   21C
  8
0
  6
CONTINUOUS
 62
     0
 10
-70.6249991572831
 20
160.100460461707
 30
0.0
 11
-70.3504782773103
 21
160.37498134168
 31
0.0
  0
LINE
  5
   21D
  8
0
  6
CONTINUOUS
 62
     0
 10
-70.3504793419514
 20
160.374985939145
 30
0.0
 11
-70.2500002201472
 21
160.749985933968
 31
0.0
  0
LINE
  5
   21E
  8
0
  6
CONTINUOUS
 62
     0
 10
-70.3504796707608
 20
161.124986116093
 30
0.0
 11
-70.2500005489566
 21
160.74998612127
 31
0.0
  0
LINE
  5
   21F
  8
0
  6
CONTINUOUS
 62
     0
 10
-70.625005364328
 20
161.399497643651
 30
0.0
 11
-70.3504844978953
 21
161.124992026304
 31
0.0
  0
LINE
  5
   220
  8
0
  6
CONTINUOUS
 62
     0
 10
-70.9999984404592
 20
161.499983275092
 30
0.0
 11
-70.6249984351544
 21
161.399488896056
 31
0.0
  0
LINE
  5
   221
  8
0
  6
CONTINUOUS
 62
     0
 10
-71.5
 20
161.499984741211
 30
0.0
 11
-71.0
 21
161.499984741211
 31
0.0
  0
LINE
  5
   222
  8
0
  6
CONTINUOUS
 62
     0
 10
-71.5
 20
159.999984741211
 30
0.0
 11
-71.0
 21
159.999984741211
 31
0.0
  0
LINE
  5
   223
  8
0
  6
DOT
 62
     0
 10
129.207102522664
 20
93.2070806462287
 30
0.0
 11
129.423868885951
 21
92.8826559114065
 31
0.0
  0
LINE
  5
   224
  8
0
  6
CONTINUOUS
 62
     0
 10
78.0
 20
64.6249771118164
 30
0.0
 11
112.0
 21
64.6249771118164
 31
0.0
  0
LINE
  5
   225
  8
0
  6
CONTINUOUS
 62
     0
 10
78.0
 20
23.624979019165
 30
0.0
 11
112.0
 21
23.624979019165
 31
0.0
  0
LINE
  5
   226
  8
0
  6
CONTINUOUS
 62
     0
 10
78.0
 20
22.624979019165
 30
0.0
 11
131.0
 21
22.624979019165
 31
0.0
  0
LINE
  5
   227
  8
0
  6
CONTINUOUS
 62
     0
 10
113.0
 20
22.6249771118164
 30
0.0
 11
113.0
 21
65.6249771118164
 31
0.0
  0
LINE
  5
   228
  8
0
  6
CONTINUOUS
 62
     0
 10
121.443762073863
 20
22.6249762341869
 30
0.0
 11
121.469671496571
 21
22.655306892856
 31
0.0
  0
LINE
  5
   229
  8
0
  6
CONTINUOUS
 62
     0
 10
122.530331822982
 20
22.6553070669901
 30
0.0
 11
122.556233618116
 21
22.6249802236221
 31
0.0
  0
LINE
  5
   22A
  8
0
  6
CONTINUOUS
 62
     0
 10
77.0
 20
-4.2500216960907
 30
0.0
 11
77.0
 21
149.749978303909
 31
0.0
  0
LINE
  5
   22B
  8
0
  6
CONTINUOUS
 62
     0
 10
-86.0
 20
149.749984741211
 30
0.0
 11
77.0
 21
149.749984741211
 31
0.0
  0
LINE
  5
   22C
  8
0
  6
CONTINUOUS
 62
     0
 10
-86.0
 20
-4.25002169609069
 30
0.0
 11
77.0
 21
-4.2500216960907
 31
0.0
  0
LINE
  5
   22D
  8
0
  6
CONTINUOUS
 62
     0
 10
-86.0
 20
-4.25002169609069
 30
0.0
 11
-86.0
 21
149.749978303909
 31
0.0
  0
LINE
  5
   22E
  8
0
  6
CONTINUOUS
 62
     0
 10
70.0000086006236
 20
142.749981641769
 30
0.0
 11
77.0000047406314
 21
149.749991353068
 31
0.0
  0
LINE
  5
   22F
  8
0
  6
CONTINUOUS
 62
     0
 10
70.0000002534282
 20
2.74998164176941
 30
0.0
 11
77.0000028943928
 21
-4.25002276936366
 31
0.0
  0
LINE
  5
   230
  8
0
  6
CONTINUOUS
 62
     0
 10
-86.0000010794079
 20
149.749986269664
 30
0.0
 11
-70.0
 21
142.220568727026
 31
0.0
  0
LINE
  5
   231
  8
0
  6
CONTINUOUS
 62
     0
 10
-86.0000042824209
 20
-4.25002269924179
 30
0.0
 11
-70.0
 21
3.27939166971828
 31
0.0
  0
LINE
  5
   232
  8
0
  6
CONTINUOUS
 62
     0
 10
71.5
 20
150.749984741211
 30
0.0
 11
71.5
 21
170.749984741211
 31
0.0
  0
LINE
  5
   233
  8
0
  6
CONTINUOUS
 62
     0
 10
77.0
 20
150.749984741211
 30
0.0
 11
77.0
 21
170.749984741211
 31
0.0
  0
LINE
  5
   234
  8
0
  6
CONTINUOUS
 62
     0
 10
-71.5
 20
150.749984741211
 30
0.0
 11
-71.5
 21
170.749984741211
 31
0.0
  0
LINE
  5
   235
  8
0
  6
CONTINUOUS
 62
     0
 10
-86.0
 20
150.749984741211
 30
0.0
 11
-86.0
 21
170.749984741211
 31
0.0
  0
LINE
  5
   236
  8
0
  6
CONTINUOUS
 62
     0
 10
78.0
 20
65.6249771118164
 30
0.0
 11
131.0
 21
65.6249771118164
 31
0.0
  0
POINT
  5
   237
  8
0
  6
CONTINUOUS
 62
     0
 10
4.30031180087553E-6
 20
72.749980198372
 30
0.0
  0
ENDBLK
  5
   238
  8
0
  6
CONTINUOUS
 62
     0
  0
BLOCK
  5
   239
  8
0
  6
CONTINUOUS
 62
     7
  2
*UDIM1852
 70
    65
 10
0.0
 20
0.0
 30
0.0
  3
*UDIM1852
  0
TEXT
  5
   23A
  8
0
  6
CONTINUOUS
 62
     7
 10
239.5701082484
 20
4.62658218138586
 30
0.0
 40
2.4999999335834
  1
40
 41
0.933333333333333
 72
     1
 11
241.653441526386
 21
5.87658214817755
 31
0.0
 73
     2
  0
LINE
  5
   23B
  8
0
  6
CONTINUOUS
 62
     7
 10
234.882608352069
 20
8.83059055961894
 30
0.0
 11
234.882608352069
 21
1.62658218138586
 31
0.0
  0
LINE
  5
   23C
  8
0
  6
CONTINUOUS
 62
     7
 10
248.882608113651
 20
8.83059055961894
 30
0.0
 11
248.882608113651
 21
1.62658218138586
 31
0.0
  0
LINE
  5
   23D
  8
0
  6
CONTINUOUS
 62
     7
 10
234.882608352069
 20
3.62658218138586
 30
0.0
 11
248.882608113651
 21
3.62658218138586
 31
0.0
  0
LINE
  5
   23E
  8
0
  6
CONTINUOUS
 62
     7
 10
237.837031613751
 20
4.1475266993862
 30
0.0
 11
234.882608352069
 21
3.62658218138586
 31
0.0
  0
LINE
  5
   23F
  8
0
  6
CONTINUOUS
 62
     7
 10
234.882608352069
 20
3.62658218138586
 30
0.0
 11
237.837031613751
 21
3.10563766338552
 31
0.0
  0
LINE
  5
   240
  8
0
  6
CONTINUOUS
 62
     7
 10
245.928184851969
 20
3.10563766338552
 30
0.0
 11
248.882608113651
 21
3.62658218138586
 31
0.0
  0
LINE
  5
   241
  8
0
  6
CONTINUOUS
 62
     7
 10
248.882608113651
 20
3.62658218138586
 30
0.0
 11
245.928184851969
 21
4.1475266993862
 31
0.0
  0
ENDBLK
  5
   242
  8
0
  6
CONTINUOUS
 62
     7
  0
BLOCK
  5
   243
  8
0
  6
CONTINUOUS
 62
     7
  2
*UDIM1853
 70
    65
 10
0.0
 20
0.0
 30
0.0
  3
*UDIM1853
  0
TEXT
  5
   244
  8
0
  6
CONTINUOUS
 62
     7
 10
226.15344113291
 20
186.108329579051
 30
0.0
 40
2.4999999335834
  1
280
 41
0.933333333333333
 72
     1
 11
229.403441046569
 21
187.358329545843
 31
0.0
 73
     2
  0
LINE
  5
   245
  8
0
  6
CONTINUOUS
 62
     7
 10
180.632609275941
 20
173.84303653389
 30
0.0
 11
180.632609275941
 21
187.108329579051
 31
0.0
  0
LINE
  5
   246
  8
0
  6
CONTINUOUS
 62
     7
 10
278.632607607011
 20
173.84303653389
 30
0.0
 11
278.632607607011
 21
187.108329579051
 31
0.0
  0
LINE
  5
   247
  8
0
  6
CONTINUOUS
 62
     7
 10
180.632609275941
 20
185.108329579051
 30
0.0
 11
278.632607607011
 21
185.108329579051
 31
0.0
  0
LINE
  5
   248
  8
0
  6
CONTINUOUS
 62
     7
 10
183.587032537623
 20
185.629274097052
 30
0.0
 11
180.632609275941
 21
185.108329579051
 31
0.0
  0
LINE
  5
   249
  8
0
  6
CONTINUOUS
 62
     7
 10
180.632609275941
 20
185.108329579051
 30
0.0
 11
183.587032537623
 21
184.587385061051
 31
0.0
  0
LINE
  5
   24A
  8
0
  6
CONTINUOUS
 62
     7
 10
275.67818434533
 20
184.587385061051
 30
0.0
 11
278.632607607011
 21
185.108329579051
 31
0.0
  0
LINE
  5
   24B
  8
0
  6
CONTINUOUS
 62
     7
 10
278.632607607011
 20
185.108329579051
 30
0.0
 11
275.67818434533
 21
185.629274097052
 31
0.0
  0
ENDBLK
  5
   24C
  8
0
  6
CONTINUOUS
 62
     7
  0
BLOCK
  5
   24D
  8
0
  6
CONTINUOUS
 62
     7
  2
*UDIM1854
 70
    65
 10
0.0
 20
0.0
 30
0.0
  3
*UDIM1854
  0
TEXT
  5
   24E
  8
0
  6
CONTINUOUS
 62
     7
 10
202.207625524004
 20
-6.91463771484177
 30
0.0
 40
2.4999999335834
  1
193,5
 41
0.933333333333333
 72
     1
 11
207.790958709007
 21
-5.66463774805008
 31
0.0
 73
     2
  0
LINE
  5
   24F
  8
0
  6
CONTINUOUS
 62
     7
 10
174.157649440537
 20
72.7054906711767
 30
0.0
 11
174.157649440537
 21
-9.91463771484177
 31
0.0
  0
LINE
  5
   250
  8
0
  6
CONTINUOUS
 62
     7
 10
241.882599345985
 20
13.9055700330503
 30
0.0
 11
241.882599345985
 21
-9.91463771484177
 31
0.0
  0
LINE
  5
   251
  8
0
  6
CONTINUOUS
 62
     7
 10
174.157649440537
 20
-7.91463771484177
 30
0.0
 11
241.882599345985
 21
-7.91463771484177
 31
0.0
  0
LINE
  5
   252
  8
0
  6
CONTINUOUS
 62
     7
 10
177.112072702219
 20
-7.39369319684144
 30
0.0
 11
174.157649440537
 21
-7.91463771484177
 31
0.0
  0
LINE
  5
   253
  8
0
  6
CONTINUOUS
 62
     7
 10
174.157649440537
 20
-7.91463771484177
 30
0.0
 11
177.112072702219
 21
-8.43558223284211
 31
0.0
  0
LINE
  5
   254
  8
0
  6
CONTINUOUS
 62
     7
 10
238.928176084304
 20
-8.43558223284211
 30
0.0
 11
241.882599345985
 21
-7.91463771484177
 31
0.0
  0
LINE
  5
   255
  8
0
  6
CONTINUOUS
 62
     7
 10
241.882599345985
 20
-7.91463771484177
 30
0.0
 11
238.928176084304
 21
-7.39369319684144
 31
0.0
  0
ENDBLK
  5
   256
  8
0
  6
CONTINUOUS
 62
     7
  0
BLOCK
  5
   257
  8
0
  6
CONTINUOUS
 62
     7
  2
*UDIM1855
 70
    65
 10
0.0
 20
0.0
 30
0.0
  3
*UDIM1855
  0
TEXT
  5
   258
  8
0
  6
CONTINUOUS
 62
     7
 10
259.957627210816
 20
-6.91463771484177
 30
0.0
 40
2.4999999335834
  1
136,5
 41
0.933333333333333
 72
     1
 11
265.540960395818
 21
-5.66463774805008
 31
0.0
 73
     2
  0
LINE
  5
   259
  8
0
  6
CONTINUOUS
 62
     7
 10
289.657654149304
 20
72.7055467472255
 30
0.0
 11
289.657654149304
 21
-9.91463771484177
 31
0.0
  0
LINE
  5
   25A
  8
0
  6
CONTINUOUS
 62
     7
 10
241.882599345985
 20
-7.91463771484177
 30
0.0
 11
289.657654149304
 21
-7.91463771484177
 31
0.0
  0
LINE
  5
   25B
  8
0
  6
CONTINUOUS
 62
     7
 10
244.837022607667
 20
-7.39369319684144
 30
0.0
 11
241.882599345985
 21
-7.91463771484177
 31
0.0
  0
LINE
  5
   25C
  8
0
  6
CONTINUOUS
 62
     7
 10
241.882599345985
 20
-7.91463771484177
 30
0.0
 11
244.837022607667
 21
-8.43558223284211
 31
0.0
  0
LINE
  5
   25D
  8
0
  6
CONTINUOUS
 62
     7
 10
286.703230887623
 20
-8.43558223284211
 30
0.0
 11
289.657654149304
 21
-7.91463771484177
 31
0.0
  0
LINE
  5
   25E
  8
0
  6
CONTINUOUS
 62
     7
 10
289.657654149304
 20
-7.91463771484177
 30
0.0
 11
286.703230887623
 21
-7.39369319684144
 31
0.0
  0
ENDBLK
  5
   25F
  8
0
  6
CONTINUOUS
 62
     7
  0
BLOCK
  5
   260
  8
0
  6
CONTINUOUS
 62
     7
  2
*UDIM1856
 70
    65
 10
0.0
 20
0.0
 30
0.0
  3
*UDIM1856
  0
TEXT
  5
   261
  8
0
  6
CONTINUOUS
 62
     7
 10
222.770103192479
 20
-0.85644575563424
 30
0.0
 40
2.4999999335834
  1
96
 41
0.933333333333333
 72
     1
 11
224.853436470465
 21
0.393554211157458
 31
0.0
 73
     2
  0
LINE
  5
   262
  8
0
  6
CONTINUOUS
 62
     7
 10
208.282607299956
 20
47.4180627868749
 30
0.0
 11
208.282607299956
 21
-3.85644575563424
 31
0.0
  0
LINE
  5
   263
  8
0
  6
CONTINUOUS
 62
     7
 10
241.882599345985
 20
13.9055700330503
 30
0.0
 11
241.882599345985
 21
-3.85644575563424
 31
0.0
  0
LINE
  5
   264
  8
0
  6
CONTINUOUS
 62
     7
 10
208.282607299956
 20
-1.85644575563424
 30
0.0
 11
241.882599345985
 21
-1.85644575563424
 31
0.0
  0
LINE
  5
   265
  8
0
  6
CONTINUOUS
 62
     7
 10
211.237030561637
 20
-1.3355012376339
 30
0.0
 11
208.282607299956
 21
-1.85644575563424
 31
0.0
  0
LINE
  5
   266
  8
0
  6
CONTINUOUS
 62
     7
 10
208.282607299956
 20
-1.85644575563424
 30
0.0
 11
211.237030561637
 21
-2.37739027363458
 31
0.0
  0
LINE
  5
   267
  8
0
  6
CONTINUOUS
 62
     7
 10
238.928176084304
 20
-2.37739027363458
 30
0.0
 11
241.882599345985
 21
-1.85644575563424
 31
0.0
  0
LINE
  5
   268
  8
0
  6
CONTINUOUS
 62
     7
 10
241.882599345985
 20
-1.85644575563424
 30
0.0
 11
238.928176084304
 21
-1.3355012376339
 31
0.0
  0
ENDBLK
  5
   269
  8
0
  6
CONTINUOUS
 62
     7
  0
BLOCK
  5
   26A
  8
0
  6
CONTINUOUS
 62
     7
  2
*UDIM1857
 70
    65
 10
0.0
 20
0.0
 30
0.0
  3
*UDIM1857
  0
TEXT
  5
   26B
  8
0
  6
CONTINUOUS
 62
     7
 10
261.32843519186
 20
-0.85644575563424
 30
0.0
 40
2.4999999335834
  1
131
 41
0.933333333333333
 72
     1
 11
264.578435105519
 21
0.393554211157458
 31
0.0
 73
     2
  0
LINE
  5
   26C
  8
0
  6
CONTINUOUS
 62
     7
 10
287.73260594693
 20
47.4180647895909
 30
0.0
 11
287.73260594693
 21
-3.85644575563425
 31
0.0
  0
LINE
  5
   26D
  8
0
  6
CONTINUOUS
 62
     7
 10
241.882599345985
 20
-1.85644575563424
 30
0.0
 11
287.73260594693
 21
-1.85644575563425
 31
0.0
  0
LINE
  5
   26E
  8
0
  6
CONTINUOUS
 62
     7
 10
244.837022607667
 20
-1.3355012376339
 30
0.0
 11
241.882599345985
 21
-1.85644575563424
 31
0.0
  0
LINE
  5
   26F
  8
0
  6
CONTINUOUS
 62
     7
 10
241.882599345985
 20
-1.85644575563424
 30
0.0
 11
244.837022607667
 21
-2.37739027363458
 31
0.0
  0
LINE
  5
   270
  8
0
  6
CONTINUOUS
 62
     7
 10
284.778182685249
 20
-2.37739027363458
 30
0.0
 11
287.73260594693
 21
-1.85644575563425
 31
0.0
  0
LINE
  5
   271
  8
0
  6
CONTINUOUS
 62
     7
 10
287.73260594693
 20
-1.85644575563425
 30
0.0
 11
284.778182685249
 21
-1.33550123763391
 31
0.0
  0
ENDBLK
  5
   272
  8
0
  6
CONTINUOUS
 62
     7
  0
BLOCK
  5
   273
  8
0
  6
CONTINUOUS
 62
     7
  2
*UDIM1858
 70
    65
 10
0.0
 20
0.0
 30
0.0
  3
*UDIM1858
  0
TEXT
  5
   274
  8
0
  6
CONTINUOUS
 62
     7
 10
238.403483648909
 20
180.638607687337
 30
0.0
 40
2.4999999335834
  1
140
 41
0.933333333333333
 72
     1
 11
241.653483562568
 21
181.888607654129
 31
0.0
 73
     2
  0
LINE
  5
   275
  8
0
  6
CONTINUOUS
 62
     7
 10
217.382649371992
 20
107.780563540834
 30
0.0
 11
217.382649371992
 21
181.638607687337
 31
0.0
  0
LINE
  5
   276
  8
0
  6
CONTINUOUS
 62
     7
 10
266.382649205099
 20
107.78056220569
 30
0.0
 11
266.382649205099
 21
181.638607687337
 31
0.0
  0
LINE
  5
   277
  8
0
  6
CONTINUOUS
 62
     7
 10
217.382649371992
 20
179.638607687337
 30
0.0
 11
266.382649205099
 21
179.638607687337
 31
0.0
  0
LINE
  5
   278
  8
0
  6
CONTINUOUS
 62
     7
 10
220.337072633674
 20
180.159552205337
 30
0.0
 11
217.382649371992
 21
179.638607687337
 31
0.0
  0
LINE
  5
   279
  8
0
  6
CONTINUOUS
 62
     7
 10
217.382649371992
 20
179.638607687337
 30
0.0
 11
220.337072633674
 21
179.117663169337
 31
0.0
  0
LINE
  5
   27A
  8
0
  6
CONTINUOUS
 62
     7
 10
263.428225943417
 20
179.117663169337
 30
0.0
 11
266.382649205099
 21
179.638607687337
 31
0.0
  0
LINE
  5
   27B
  8
0
  6
CONTINUOUS
 62
     7
 10
266.382649205099
 20
179.638607687337
 30
0.0
 11
263.428225943417
 21
180.159552205337
 31
0.0
  0
ENDBLK
  5
   27C
  8
0
  6
CONTINUOUS
 62
     7
  0
BLOCK
  5
   27D
  8
0
  6
CONTINUOUS
 62
     7
  2
*UDIM1859
 70
    65
 10
0.0
 20
0.0
 30
0.0
  3
*UDIM1859
  0
TEXT
  5
   27E
  8
0
  6
CONTINUOUS
 62
     7
 10
160.552572102409
 20
97.8763802947557
 30
0.0
 40
2.4999999335834
  1
411
 50
90.0
 41
0.933333333333333
 72
     1
 11
159.302572135613
 21
101.126380208413
 31
0.0
 73
     2
  0
LINE
  5
   27F
  8
0
  6
CONTINUOUS
 62
     7
 10
180.070109268491
 20
29.4305526720528
 30
0.0
 11
159.552572102405
 21
29.4305526720528
 31
0.0
  0
LINE
  5
   280
  8
0
  6
CONTINUOUS
 62
     7
 10
180.070109268491
 20
173.28053652644
 30
0.0
 11
159.552572102405
 21
173.28053652644
 31
0.0
  0
LINE
  5
   281
  8
0
  6
CONTINUOUS
 62
     7
 10
161.552572102405
 20
29.4305526720528
 30
0.0
 11
161.552572102405
 21
173.28053652644
 31
0.0
  0
LINE
  5
   282
  8
0
  6
CONTINUOUS
 62
     7
 10
161.031627584405
 20
32.3849759337344
 30
0.0
 11
161.552572102405
 21
29.4305526720528
 31
0.0
  0
LINE
  5
   283
  8
0
  6
CONTINUOUS
 62
     7
 10
161.552572102405
 20
29.4305526720528
 30
0.0
 11
162.073516620405
 21
32.3849759337344
 31
0.0
  0
LINE
  5
   284
  8
0
  6
CONTINUOUS
 62
     7
 10
162.073516620405
 20
170.326113264758
 30
0.0
 11
161.552572102405
 21
173.28053652644
 31
0.0
  0
LINE
  5
   285
  8
0
  6
CONTINUOUS
 62
     7
 10
161.552572102405
 20
173.28053652644
 30
0.0
 11
161.031627584405
 21
170.326113264758
 31
0.0
  0
ENDBLK
  5
   286
  8
0
  6
CONTINUOUS
 62
     7
  0
BLOCK
  5
   287
  8
0
  6
CONTINUOUS
 62
     7
  2
*UDIM1860
 70
    65
 10
0.0
 20
0.0
 30
0.0
  3
*UDIM1860
  0
TEXT
  5
   288
  8
0
  6
CONTINUOUS
 62
     7
 10
167.265702939013
 20
52.3763917575136
 30
0.0
 40
2.4999999335834
  1
151
 50
90.0
 41
0.933333333333333
 72
     1
 11
166.015702972217
 21
55.6263916711704
 31
0.0
 73
     2
  0
LINE
  5
   289
  8
0
  6
CONTINUOUS
 62
     7
 10
180.070109268491
 20
29.4305526720528
 30
0.0
 11
166.265702939009
 21
29.4305526720528
 31
0.0
  0
LINE
  5
   28A
  8
0
  6
CONTINUOUS
 62
     7
 10
168.265702939009
 20
29.4305526720528
 30
0.0
 11
168.265702939009
 21
82.2805626229224
 31
0.0
  0
LINE
  5
   28B
  8
0
  6
CONTINUOUS
 62
     7
 10
167.744758421009
 20
32.3849759337344
 30
0.0
 11
168.265702939009
 21
29.4305526720528
 31
0.0
  0
LINE
  5
   28C
  8
0
  6
CONTINUOUS
 62
     7
 10
168.265702939009
 20
29.4305526720528
 30
0.0
 11
168.786647457009
 21
32.3849759337344
 31
0.0
  0
LINE
  5
   28D
  8
0
  6
CONTINUOUS
 62
     7
 10
168.786647457009
 20
79.3261393612408
 30
0.0
 11
168.265702939009
 21
82.2805626229224
 31
0.0
  0
LINE
  5
   28E
  8
0
  6
CONTINUOUS
 62
     7
 10
168.265702939009
 20
82.2805626229224
 30
0.0
 11
167.744758421009
 21
79.3261393612408
 31
0.0
  0
ENDBLK
  5
   28F
  8
0
  6
CONTINUOUS
 62
     7
  0
BLOCK
  5
   290
  8
0
  6
CONTINUOUS
 62
     7
  2
*UDIM1861
 70
    65
 10
0.0
 20
0.0
 30
0.0
  3
*UDIM1861
  0
TEXT
  5
   291
  8
0
  6
CONTINUOUS
 62
     7
 10
293.313290666703
 20
78.8013966331504
 30
0.0
 40
2.4999999335834
  1
196
 50
90.0
 41
0.933333333333333
 72
     1
 11
292.063290699907
 21
82.0513965468072
 31
0.0
 73
     2
  0
LINE
  5
   292
  8
0
  6
CONTINUOUS
 62
     7
 10
288.295105954381
 20
47.9805627943255
 30
0.0
 11
296.313290666699
 21
47.9805627943255
 31
0.0
  0
LINE
  5
   293
  8
0
  6
CONTINUOUS
 62
     7
 10
288.295105954381
 20
116.580563628791
 30
0.0
 11
296.313290666699
 21
116.580563628791
 31
0.0
  0
LINE
  5
   294
  8
0
  6
CONTINUOUS
 62
     7
 10
294.313290666699
 20
47.9805627943255
 30
0.0
 11
294.313290666699
 21
116.580563628791
 31
0.0
  0
LINE
  5
   295
  8
0
  6
CONTINUOUS
 62
     7
 10
293.792346148699
 20
50.9349860560071
 30
0.0
 11
294.313290666699
 21
47.9805627943255
 31
0.0
  0
LINE
  5
   296
  8
0
  6
CONTINUOUS
 62
     7
 10
294.313290666699
 20
47.9805627943255
 30
0.0
 11
294.834235184699
 21
50.9349860560071
 31
0.0
  0
LINE
  5
   297
  8
0
  6
CONTINUOUS
 62
     7
 10
294.834235184699
 20
113.626140367109
 30
0.0
 11
294.313290666699
 21
116.580563628791
 31
0.0
  0
LINE
  5
   298
  8
0
  6
CONTINUOUS
 62
     7
 10
294.313290666699
 20
116.580563628791
 30
0.0
 11
293.792346148699
 21
113.626140367109
 31
0.0
  0
ENDBLK
  5
   299
  8
0
  6
CONTINUOUS
 62
     7
  0
BLOCK
  5
   29A
  8
0
  6
CONTINUOUS
 62
     7
  2
*UDIM1862
 70
    65
 10
0.0
 20
0.0
 30
0.0
  3
*UDIM1862
  0
TEXT
  5
   29B
  8
0
  6
CONTINUOUS
 62
     7
 10
276.831873465734
 20
14.5558660333119
 30
0.0
 40
2.4999999335834
  1
14
 50
342.353162155895
 41
0.933333333333333
 72
     1
 11
279.196107921457
 21
15.1154845663488
 31
0.0
 73
     2
  0
TEXT
  5
   29C
  8
0
  6
CONTINUOUS
 62
     7
 10
274.330397672951
 20
15.3516321463896
 30
0.0
 40
2.4999999335834
  1
Ø
 50
342.353162155895
 41
0.933333333333333
 72
     1
 11
275.582865126978
 21
16.2649245019427
 31
0.0
 73
     2
  0
LINE
  5
   29D
  8
0
  6
CONTINUOUS
 62
     7
 10
264.047900671791
 20
17.5733057345046
 30
0.0
 11
280.499320901563
 21
12.3398020689784
 31
0.0
  0
LINE
  5
   29E
  8
0
  6
CONTINUOUS
 62
     7
 10
261.074579395336
 20
17.9725056680927
 30
0.0
 11
264.047900671791
 21
17.5733057345046
 31
0.0
  0
LINE
  5
   29F
  8
0
  6
CONTINUOUS
 62
     7
 10
264.047900671791
 20
17.5733057345046
 30
0.0
 11
261.390427013446
 21
18.9653667084566
 31
0.0
  0
LINE
  5
   2A0
  8
0
  6
CONTINUOUS
 62
     7
 10
271.690639524856
 20
15.6886769648801
 30
0.0
 11
268.7173182484
 21
16.0878768984682
 31
0.0
  0
LINE
  5
   2A1
  8
0
  6
CONTINUOUS
 62
     7
 10
268.7173182484
 20
16.0878768984682
 30
0.0
 11
271.374791906746
 21
14.6958159245162
 31
0.0
  0
ENDBLK
  5
   2A2
  8
0
  6
CONTINUOUS
 62
     7
  0
BLOCK
  5
   2A3
  8
0
  6
CONTINUOUS
 62
     7
  2
*HATCH349
 70
    65
 10
0.0
 20
0.0
 30
0.0
  3
*HATCH349
  0
LINE
  5
   2A4
  8
0
  6
CONTINUOUS
 62
    52
 10
79.7483520507813
 20
-251.177612304688
 30
0.0
 11
72.7667999267578
 21
-258.1591796875
 31
0.0
  0
LINE
  5
   2A5
  8
0
  6
CONTINUOUS
 62
    52
 10
88.233642578125
 20
-251.177612304688
 30
0.0
 11
80.233642578125
 21
-259.177612304688
 31
0.0
  0
LINE
  5
   2A6
  8
0
  6
CONTINUOUS
 62
    52
 10
96.7189331054688
 20
-251.177612304688
 30
0.0
 11
88.7189331054688
 21
-259.177612304688
 31
0.0
  0
LINE
  5
   2A7
  8
0
  6
CONTINUOUS
 62
    52
 10
105.204223632812
 20
-251.177612304688
 30
0.0
 11
97.2042236328125
 21
-259.177612304688
 31
0.0
  0
LINE
  5
   2A8
  8
0
  6
CONTINUOUS
 62
    52
 10
109.486633300781
 20
-255.380462646484
 30
0.0
 11
105.689491271973
 21
-259.177612304688
 31
0.0
  0
ENDBLK
  5
   2A9
  8
0
  6
CONTINUOUS
 62
     7
  0
BLOCK
  5
   2AA
  8
0
  6
CONTINUOUS
 62
     7
  2
*HATCH350
 70
    65
 10
0.0
 20
0.0
 30
0.0
  3
*HATCH350
  0
LINE
  5
   2AB
  8
0
  6
CONTINUOUS
 62
    52
 10
143.387969970703
 20
-251.177612304688
 30
0.0
 11
135.387969970703
 21
-259.177612304688
 31
0.0
  0
LINE
  5
   2AC
  8
0
  6
CONTINUOUS
 62
    52
 10
151.873260498047
 20
-251.177612304688
 30
0.0
 11
143.873260498047
 21
-259.177612304688
 31
0.0
  0
LINE
  5
   2AD
  8
0
  6
CONTINUOUS
 62
    52
 10
158.672821044922
 20
-252.863327026367
 30
0.0
 11
152.358535766602
 21
-259.177612304688
 31
0.0
  0
ENDBLK
  5
   2AE
  8
0
  6
CONTINUOUS
 62
     7
  0
BLOCK
  5
   2AF
  8
0
  6
CONTINUOUS
 62
     7
  2
*UDIM1863
 70
    65
 10
0.0
 20
0.0
 30
0.0
  3
*UDIM1863
  0
TEXT
  5
   2B0
  8
0
  6
CONTINUOUS
 62
     7
 10
273.409113150295
 20
-146.771960798906
 30
0.0
 40
2.99999994933605
  1
7
 50
303.9048177505
 41
0.933333333333333
 72
     1
 11
275.26765758365
 21
-146.848200371173
 31
0.0
 73
     2
  0
TEXT
  5
   2B1
  8
0
  6
CONTINUOUS
 62
     7
 10
271.177853574041
 20
-143.452099311124
 30
0.0
 40
2.99999994933605
  1
Ø
 50
303.9048177505
 41
1.2
 72
     1
 11
273.259523963268
 21
-143.860325031313
 31
0.0
 73
     2
  0
LINE
  5
   2B2
  8
0
  6
CONTINUOUS
 62
     7
 10
258.903054234418
 20
-126.981297795674
 30
0.0
 11
273.806340530037
 21
-149.155699515548
 31
0.0
  0
LINE
  5
   2B3
  8
0
  6
CONTINUOUS
 62
     7
 10
259.431272725153
 20
-129.159189090927
 30
0.0
 11
261.69212874119
 21
-131.131124707206
 31
0.0
  0
LINE
  5
   2B4
  8
0
  6
CONTINUOUS
 62
     7
 10
261.69212874119
 20
-131.131124707206
 30
0.0
 11
260.720137846496
 21
-128.2929503467
 31
0.0
  0
LINE
  5
   2B5
  8
0
  6
CONTINUOUS
 62
     7
 10
264.733925630761
 20
-134.265011876027
 30
0.0
 11
262.473069614723
 21
-132.293076259749
 31
0.0
  0
LINE
  5
   2B6
  8
0
  6
CONTINUOUS
 62
     7
 10
262.473069614723
 20
-132.293076259749
 30
0.0
 11
263.445060509418
 21
-135.131250620254
 31
0.0
  0
ENDBLK
  5
   2B7
  8
0
  6
CONTINUOUS
 62
     7
  0
BLOCK
  5
   2B8
  8
0
  6
CONTINUOUS
 62
     7
  2
*UDIM1864
 70
    65
 10
0.0
 20
0.0
 30
0.0
  3
*UDIM1864
  0
TEXT
  5
   2B9
  8
0
  6
CONTINUOUS
 62
     7
 10
215.728453099834
 20
-90.1014319562812
 30
0.0
 40
2.99999994933605
  1
7
 50
339.630333405035
 41
0.933333333333333
 72
     1
 11
217.281779788911
 21
-89.0781157392023
 31
0.0
 73
     2
  0
TEXT
  5
   2BA
  8
0
  6
CONTINUOUS
 62
     7
 10
211.978587550422
 20
-88.7091288441609
 30
0.0
 40
2.99999994933605
  1
Ø
 50
339.630333405035
 41
1.2
 72
     1
 11
213.906900792516
 21
-87.8250429386229
 31
0.0
 73
     2
  0
LINE
  5
   2BB
  8
0
  6
CONTINUOUS
 62
     7
 10
211.630511770639
 20
-89.64659524872
 30
0.0
 11
234.92615717958
 21
-98.2961319180566
 31
0.0
  0
LINE
  5
   2BC
  8
0
  6
CONTINUOUS
 62
     7
 10
225.939537258467
 20
-95.787703238888
 30
0.0
 11
228.926372204365
 21
-96.0684469048164
 31
0.0
  0
LINE
  5
   2BD
  8
0
  6
CONTINUOUS
 62
     7
 10
228.926372204365
 20
-96.0684469048164
 30
0.0
 11
226.480069122572
 21
-94.3318982495778
 31
0.0
  0
LINE
  5
   2BE
  8
0
  6
CONTINUOUS
 62
     7
 10
233.225660128871
 20
-96.836496673064
 30
0.0
 11
230.238825182973
 21
-96.5557530071357
 31
0.0
  0
LINE
  5
   2BF
  8
0
  6
CONTINUOUS
 62
     7
 10
230.238825182973
 20
-96.5557530071357
 30
0.0
 11
232.685128264765
 21
-98.2923016623742
 31
0.0
  0
ENDBLK
  5
   2C0
  8
0
  6
CONTINUOUS
 62
     7
  0
BLOCK
  5
   2C1
  8
0
  6
CONTINUOUS
 62
     7
  2
*UDIM1865
 70
    65
 10
0.0
 20
0.0
 30
0.0
  3
*UDIM1865
  0
TEXT
  5
   2C2
  8
0
  6
CONTINUOUS
 62
     7
 10
266.902434898793
 20
-89.4783884148494
 30
0.0
 40
2.50000001341104
  1
8
 50
407.936580148673
 41
0.933333333333333
 72
     1
 11
266.588553622208
 21
-87.9604106983574
 31
0.0
 73
     2
  0
TEXT
  5
   2C3
  8
0
  6
CONTINUOUS
 62
     7
 10
265.143808856896
 20
-91.427198205646
 30
0.0
 40
2.50000001341104
  1
Ø
 50
407.936580148673
 41
0.933333333333333
 72
     1
 11
264.829927580312
 21
-89.909220489154
 31
0.0
 73
     2
  0
TEXT
  5
   2C4
  8
0
  6
CONTINUOUS
 62
     7
 10
268.43774330751
 20
-87.7770465458398
 30
0.0
 40
2.50000001341104
  1
(5 fori)
 50
407.936580148673
 41
0.933333333333333
 72
     1
 11
273.595143034061
 21
-80.1961050866948
 31
0.0
 73
     2
  0
LINE
  5
   2C5
  8
0
  6
CONTINUOUS
 62
     7
 10
281.350955774978
 20
-74.9599983185268
 30
0.0
 11
261.546636953743
 21
-96.9060229419675
 31
0.0
  0
LINE
  5
   2C6
  8
0
  6
CONTINUOUS
 62
     7
 10
264.211134302107
 20
-93.1757939228437
 30
0.0
 11
262.618561402171
 21
-95.7181769699845
 31
0.0
  0
LINE
  5
   2C7
  8
0
  6
CONTINUOUS
 62
     7
 10
262.618561402171
 20
-95.7181769699845
 30
0.0
 11
264.984636599747
 21
-93.8738103688414
 31
0.0
  0
LINE
  5
   2C8
  8
0
  6
CONTINUOUS
 62
     7
 10
259.954064053806
 20
-99.4484059891083
 30
0.0
 11
261.546636953743
 21
-96.9060229419675
 31
0.0
  0
LINE
  5
   2C9
  8
0
  6
CONTINUOUS
 62
     7
 10
261.546636953743
 20
-96.9060229419675
 30
0.0
 11
259.180561756166
 21
-98.7503895431106
 31
0.0
  0
ENDBLK
  5
   2CA
  8
0
  6
CONTINUOUS
 62
     7
  0
BLOCK
  5
   2CB
  8
0
  6
CONTINUOUS
 62
     7
  2
*UDIM1866
 70
    65
 10
0.0
 20
0.0
 30
0.0
  3
*UDIM1866
  0
TEXT
  5
   2CC
  8
0
  6
CONTINUOUS
 62
     7
 10
176.265630134992
 20
-144.95082950542
 30
0.0
 40
2.50000001341104
  1
Ø4
 50
449.999999844103
 41
0.933333333333333
 72
     1
 11
175.015630133942
 21
-142.867496157518
 31
0.0
 73
     2
  0
LINE
  5
   2CD
  8
0
  6
CONTINUOUS
 62
     7
 10
188.694352308992
 20
-136.546664764502
 30
0.0
 11
175.265630140648
 21
-136.546664764502
 31
0.0
  0
LINE
  5
   2CE
  8
0
  6
CONTINUOUS
 62
     7
 10
188.724530123359
 20
-139.746664812186
 30
0.0
 11
175.265630140648
 21
-139.746664812186
 31
0.0
  0
LINE
  5
   2CF
  8
0
  6
CONTINUOUS
 62
     7
 10
177.265630140648
 20
-136.546664764502
 30
0.0
 11
177.265630140648
 21
-144.950829502027
 31
0.0
  0
LINE
  5
   2D0
  8
0
  6
CONTINUOUS
 62
     7
 10
176.744685622647
 20
-133.592241502821
 30
0.0
 11
177.265630140648
 21
-136.546664764502
 31
0.0
  0
LINE
  5
   2D1
  8
0
  6
CONTINUOUS
 62
     7
 10
177.265630140648
 20
-136.546664764502
 30
0.0
 11
177.786574658648
 21
-133.592241502821
 31
0.0
  0
LINE
  5
   2D2
  8
0
  6
CONTINUOUS
 62
     7
 10
177.786574658648
 20
-142.701088073867
 30
0.0
 11
177.265630140648
 21
-139.746664812186
 31
0.0
  0
LINE
  5
   2D3
  8
0
  6
CONTINUOUS
 62
     7
 10
177.265630140648
 20
-139.746664812186
 30
0.0
 11
176.744685622647
 21
-142.701088073867
 31
0.0
  0
ENDBLK
  5
   2D4
  8
0
  6
CONTINUOUS
 62
     7
  0
BLOCK
  5
   2D5
  8
0
  6
CONTINUOUS
 62
     7
  2
*UDIM1867
 70
    65
 10
0.0
 20
0.0
 30
0.0
  3
*UDIM1867
  0
TEXT
  5
   2D6
  8
0
  6
CONTINUOUS
 62
     7
 10
204.57856087545
 20
-141.394265592634
 30
0.0
 40
2.50000001341104
  1
80
 50
449.138233404105
 41
0.933333333333333
 72
     1
 11
203.36003579098
 21
-139.292367769326
 31
0.0
 73
     2
  0
TEXT
  5
   2D7
  8
0
  6
CONTINUOUS
 62
     7
 10
204.141284482513
 20
-137.220550142066
 30
0.0
 40
2.50000001341104
  1
°
 50
449.138233404105
 41
0.933333333333333
 72
     1
 11
202.905212617655
 21
-136.285187031578
 31
0.0
 73
     2
  0
LINE
  5
   2D8
  8
0
  6
CONTINUOUS
 62
     7
 10
192.413120110567
 20
-141.732011851762
 30
0.0
 11
203.066857212198
 21
-150.6715587244
 31
0.0
  0
LINE
  5
   2D9
  8
0
  6
CONTINUOUS
 62
     7
 10
192.413120110567
 20
-134.561317724926
 30
0.0
 11
203.066857212198
 21
-125.621770852288
 31
0.0
  0
ARC
  5
   2DA
  8
0
  6
CONTINUOUS
 62
     7
 10
188.140269867042
 20
-138.146664788344
 30
0.0
 40
17.4852759252214
 50
319.999999815233
 51
399.999999769042
  0
LINE
  5
   2DB
  8
0
  6
CONTINUOUS
 62
     7
 10
203.034768339151
 20
-146.787907301289
 30
0.0
 11
201.53476832596
 21
-149.385983505027
 31
0.0
  0
LINE
  5
   2DC
  8
0
  6
CONTINUOUS
 62
     7
 10
201.53476832596
 20
-149.385983505027
 30
0.0
 11
203.832901645526
 21
-147.457620664299
 31
0.0
  0
LINE
  5
   2DD
  8
0
  6
CONTINUOUS
 62
     7
 10
203.832901645526
 20
-128.835708912389
 30
0.0
 11
201.53476832596
 21
-126.907346071661
 31
0.0
  0
LINE
  5
   2DE
  8
0
  6
CONTINUOUS
 62
     7
 10
201.53476832596
 20
-126.907346071661
 30
0.0
 11
203.034768339151
 21
-129.505422275399
 31
0.0
  0
ENDBLK
  5
   2DF
  8
0
  6
CONTINUOUS
 62
     7
  0
BLOCK
  5
   2E0
  8
0
  6
CONTINUOUS
 62
     7
  2
*UDIM1868
 70
    65
 10
0.0
 20
0.0
 30
0.0
  3
*UDIM1868
  0
TEXT
  5
   2E1
  8
0
  6
CONTINUOUS
 62
     7
 10
254.232607929143
 20
-160.060288148821
 30
0.0
 40
2.50000001341104
  1
R min.200
 50
359.999999844103
 41
0.933333333333333
 72
     1
 11
264.482607987523
 21
-158.810288169953
 31
0.0
 73
     2
  0
LINE
  5
   2E2
  8
0
  6
CONTINUOUS
 62
     7
 10
241.882598876953
 20
-138.749067513062
 30
0.0
 11
241.882598876953
 21
-163.060288176659
 31
0.0
  0
LINE
  5
   2E3
  8
0
  6
CONTINUOUS
 62
     7
 10
281.882599473
 20
-158.170978309857
 30
0.0
 11
281.882599473
 21
-163.060288176659
 31
0.0
  0
LINE
  5
   2E4
  8
0
  6
CONTINUOUS
 62
     7
 10
241.882598876953
 20
-161.060288176659
 30
0.0
 11
281.882599473
 21
-161.060288176659
 31
0.0
  0
LINE
  5
   2E5
  8
0
  6
CONTINUOUS
 62
     7
 10
244.837022138635
 20
-160.539343658658
 30
0.0
 11
241.882598876953
 21
-161.060288176659
 31
0.0
  0
LINE
  5
   2E6
  8
0
  6
CONTINUOUS
 62
     7
 10
241.882598876953
 20
-161.060288176659
 30
0.0
 11
244.837022138635
 21
-161.581232694659
 31
0.0
  0
LINE
  5
   2E7
  8
0
  6
CONTINUOUS
 62
     7
 10
278.928176211318
 20
-161.581232694659
 30
0.0
 11
281.882599473
 21
-161.060288176659
 31
0.0
  0
LINE
  5
   2E8
  8
0
  6
CONTINUOUS
 62
     7
 10
281.882599473
 20
-161.060288176659
 30
0.0
 11
278.928176211318
 21
-160.539343658658
 31
0.0
  0
ENDBLK
  5
   2E9
  8
0
  6
CONTINUOUS
 62
     7
  0
BLOCK
  5
   2EA
  8
0
  6
CONTINUOUS
 62
     7
  2
*UDIM1869
 70
    65
 10
0.0
 20
0.0
 30
0.0
  3
*UDIM1869
  0
TEXT
  5
   2EB
  8
0
  6
CONTINUOUS
 62
     7
 10
212.664889100235
 20
-107.32460001618
 30
0.0
 40
2.50000001341104
  1
90
 50
449.999999844103
 41
0.933333333333333
 72
     1
 11
211.414889099185
 21
-105.241266668277
 31
0.0
 73
     2
  0
LINE
  5
   2EC
  8
0
  6
CONTINUOUS
 62
     7
 10
238.99659884885
 20
-96.0120999515057
 30
0.0
 11
211.664889105891
 21
-96.0120999515057
 31
0.0
  0
LINE
  5
   2ED
  8
0
  6
CONTINUOUS
 62
     7
 10
217.037778769209
 20
-114.012100219727
 30
0.0
 11
211.664889105891
 21
-114.012100219727
 31
0.0
  0
LINE
  5
   2EE
  8
0
  6
CONTINUOUS
 62
     7
 10
213.664889105891
 20
-96.0120999515057
 30
0.0
 11
213.664889105891
 21
-114.012100219727
 31
0.0
  0
LINE
  5
   2EF
  8
0
  6
CONTINUOUS
 62
     7
 10
214.185833623891
 20
-98.9665232131873
 30
0.0
 11
213.664889105891
 21
-96.0120999515057
 31
0.0
  0
LINE
  5
   2F0
  8
0
  6
CONTINUOUS
 62
     7
 10
213.664889105891
 20
-96.0120999515057
 30
0.0
 11
213.14394458789
 21
-98.9665232131873
 31
0.0
  0
LINE
  5
   2F1
  8
0
  6
CONTINUOUS
 62
     7
 10
213.14394458789
 20
-111.057676958045
 30
0.0
 11
213.664889105891
 21
-114.012100219727
 31
0.0
  0
LINE
  5
   2F2
  8
0
  6
CONTINUOUS
 62
     7
 10
213.664889105891
 20
-114.012100219727
 30
0.0
 11
214.185833623891
 21
-111.057676958045
 31
0.0
  0
ENDBLK
  5
   2F3
  8
0
  6
CONTINUOUS
 62
     7
  0
BLOCK
  5
   2F4
  8
0
  6
CONTINUOUS
 62
     7
  2
*UDIM1870
 70
    65
 10
0.0
 20
0.0
 30
0.0
  3
*UDIM1870
  0
TEXT
  5
   2F5
  8
0
  6
CONTINUOUS
 62
     7
 10
217.66802943041
 20
-117.491267180843
 30
0.0
 40
2.50000001341104
  1
161
 50
449.999999844103
 41
0.933333333333333
 72
     1
 11
216.418029432527
 21
-114.241267160016
 31
0.0
 73
     2
  0
LINE
  5
   2F6
  8
0
  6
CONTINUOUS
 62
     7
 10
222.982598610222
 20
-97.9120999798179
 30
0.0
 11
216.668029439232
 21
-97.9120999798179
 31
0.0
  0
LINE
  5
   2F7
  8
0
  6
CONTINUOUS
 62
     7
 10
222.982598610222
 20
-130.112100459635
 30
0.0
 11
216.668029439232
 21
-130.112100459635
 31
0.0
  0
LINE
  5
   2F8
  8
0
  6
CONTINUOUS
 62
     7
 10
218.668029439232
 20
-97.9120999798179
 30
0.0
 11
218.668029439232
 21
-130.112100459635
 31
0.0
  0
LINE
  5
   2F9
  8
0
  6
CONTINUOUS
 62
     7
 10
219.188973957233
 20
-100.866523241499
 30
0.0
 11
218.668029439232
 21
-97.9120999798179
 31
0.0
  0
LINE
  5
   2FA
  8
0
  6
CONTINUOUS
 62
     7
 10
218.668029439232
 20
-97.9120999798179
 30
0.0
 11
218.147084921232
 21
-100.866523241499
 31
0.0
  0
LINE
  5
   2FB
  8
0
  6
CONTINUOUS
 62
     7
 10
218.147084921232
 20
-127.157677197954
 30
0.0
 11
218.668029439232
 21
-130.112100459635
 31
0.0
  0
LINE
  5
   2FC
  8
0
  6
CONTINUOUS
 62
     7
 10
218.668029439232
 20
-130.112100459635
 30
0.0
 11
219.188973957233
 21
-127.157677197954
 31
0.0
  0
ENDBLK
  5
   2FD
  8
0
  6
CONTINUOUS
 62
     7
  0
BLOCK
  5
   2FE
  8
0
  6
CONTINUOUS
 62
     7
  2
*UDIM1871
 70
    65
 10
0.0
 20
0.0
 30
0.0
  3
*UDIM1871
  0
TEXT
  5
   2FF
  8
0
  6
CONTINUOUS
 62
     7
 10
274.390851320567
 20
-117.491267180843
 30
0.0
 40
2.50000001341104
  1
177
 50
449.999999844103
 41
0.933333333333333
 72
     1
 11
273.140851322684
 21
-114.241267160016
 31
0.0
 73
     2
  0
LINE
  5
   300
  8
0
  6
CONTINUOUS
 62
     7
 10
264.382599197328
 20
-96.312099955976
 30
0.0
 11
277.39085132939
 21
-96.312099955976
 31
0.0
  0
LINE
  5
   301
  8
0
  6
CONTINUOUS
 62
     7
 10
264.382599197328
 20
-131.712100483477
 30
0.0
 11
277.39085132939
 21
-131.712100483477
 31
0.0
  0
LINE
  5
   302
  8
0
  6
CONTINUOUS
 62
     7
 10
275.39085132939
 20
-96.312099955976
 30
0.0
 11
275.39085132939
 21
-131.712100483477
 31
0.0
  0
LINE
  5
   303
  8
0
  6
CONTINUOUS
 62
     7
 10
275.91179584739
 20
-99.2665232176576
 30
0.0
 11
275.39085132939
 21
-96.312099955976
 31
0.0
  0
LINE
  5
   304
  8
0
  6
CONTINUOUS
 62
     7
 10
275.39085132939
 20
-96.312099955976
 30
0.0
 11
274.86990681139
 21
-99.2665232176576
 31
0.0
  0
LINE
  5
   305
  8
0
  6
CONTINUOUS
 62
     7
 10
274.86990681139
 20
-128.757677221796
 30
0.0
 11
275.39085132939
 21
-131.712100483477
 31
0.0
  0
LINE
  5
   306
  8
0
  6
CONTINUOUS
 62
     7
 10
275.39085132939
 20
-131.712100483477
 30
0.0
 11
275.91179584739
 21
-128.757677221796
 31
0.0
  0
ENDBLK
  5
   307
  8
0
  6
CONTINUOUS
 62
     7
  0
BLOCK
  5
   308
  8
0
  6
CONTINUOUS
 62
     7
  2
*UDIM1872
 70
    65
 10
0.0
 20
0.0
 30
0.0
  3
*UDIM1872
  0
TEXT
  5
   309
  8
0
  6
CONTINUOUS
 62
     7
 10
249.829327523406
 20
-111.012100423988
 30
0.0
 40
2.50000001341104
  1
9
 50
449.999999844103
 41
0.933333333333333
 72
     1
 11
248.579327519189
 21
-110.09543374901
 31
0.0
 73
     2
  0
LINE
  5
   30A
  8
0
  6
CONTINUOUS
 62
     7
 10
265.082599237561
 20
-115.812100246549
 30
0.0
 11
248.829327525895
 21
-115.812100246549
 31
0.0
  0
LINE
  5
   30B
  8
0
  6
CONTINUOUS
 62
     7
 10
250.829327525895
 20
-109.178767077426
 30
0.0
 11
250.829327525895
 21
-115.812100246549
 31
0.0
  0
LINE
  5
   30C
  8
0
  6
CONTINUOUS
 62
     7
 10
250.308383007894
 20
-111.057676958045
 30
0.0
 11
250.829327525895
 21
-114.012100219727
 31
0.0
  0
LINE
  5
   30D
  8
0
  6
CONTINUOUS
 62
     7
 10
250.829327525895
 20
-114.012100219727
 30
0.0
 11
251.350272043895
 21
-111.057676958045
 31
0.0
  0
LINE
  5
   30E
  8
0
  6
CONTINUOUS
 62
     7
 10
251.350272043895
 20
-118.76652350823
 30
0.0
 11
250.829327525895
 21
-115.812100246549
 31
0.0
  0
LINE
  5
   30F
  8
0
  6
CONTINUOUS
 62
     7
 10
250.829327525895
 20
-115.812100246549
 30
0.0
 11
250.308383007894
 21
-118.76652350823
 31
0.0
  0
ENDBLK
  5
   310
  8
0
  6
CONTINUOUS
 62
     7
  0
BLOCK
  5
   311
  8
0
  6
CONTINUOUS
 62
     7
  2
*UDIM1873
 70
    65
 10
0.0
 20
0.0
 30
0.0
  3
*UDIM1873
  0
TEXT
  5
   312
  8
0
  6
CONTINUOUS
 62
     7
 10
249.829327520239
 20
-122.183347338423
 30
0.0
 40
2.50000001341104
  1
39
 50
449.999999844103
 41
0.933333333333333
 72
     1
 11
248.579327519189
 21
-120.10001399052
 31
0.0
 73
     2
  0
LINE
  5
   313
  8
0
  6
CONTINUOUS
 62
     7
 10
265.082599237561
 20
-123.612100362778
 30
0.0
 11
248.829327525895
 21
-123.612100362778
 31
0.0
  0
LINE
  5
   314
  8
0
  6
CONTINUOUS
 62
     7
 10
250.829327525895
 20
-115.812100246549
 30
0.0
 11
250.829327525895
 21
-123.612100362778
 31
0.0
  0
LINE
  5
   315
  8
0
  6
CONTINUOUS
 62
     7
 10
250.308383007894
 20
-112.857676984867
 30
0.0
 11
250.829327525895
 21
-115.812100246549
 31
0.0
  0
LINE
  5
   316
  8
0
  6
CONTINUOUS
 62
     7
 10
250.829327525895
 20
-115.812100246549
 30
0.0
 11
251.350272043895
 21
-112.857676984867
 31
0.0
  0
LINE
  5
   317
  8
0
  6
CONTINUOUS
 62
     7
 10
251.350272043895
 20
-126.566523624459
 30
0.0
 11
250.829327525895
 21
-123.612100362778
 31
0.0
  0
LINE
  5
   318
  8
0
  6
CONTINUOUS
 62
     7
 10
250.829327525895
 20
-123.612100362778
 30
0.0
 11
250.308383007894
 21
-126.566523624459
 31
0.0
  0
ENDBLK
  5
   319
  8
0
  6
CONTINUOUS
 62
     7
  0
BLOCK
  5
   31A
  8
0
  6
CONTINUOUS
 62
     7
  2
*UDIM1874
 70
    65
 10
0.0
 20
0.0
 30
0.0
  3
*UDIM1874
  0
TEXT
  5
   31B
  8
0
  6
CONTINUOUS
 62
     7
 10
250.503432096139
 20
-153.233997172558
 30
0.0
 40
2.50000001341104
  1
121
 50
359.999999844103
 41
0.933333333333333
 72
     1
 11
253.753432116968
 21
-151.983997174679
 31
0.0
 73
     2
  0
LINE
  5
   31C
  8
0
  6
CONTINUOUS
 62
     7
 10
241.882598876953
 20
-138.749067513062
 30
0.0
 11
241.882598876953
 21
-156.233997181384
 31
0.0
  0
LINE
  5
   31D
  8
0
  6
CONTINUOUS
 62
     7
 10
266.082599237561
 20
-125.212100371718
 30
0.0
 11
266.082599237561
 21
-156.233997181384
 31
0.0
  0
LINE
  5
   31E
  8
0
  6
CONTINUOUS
 62
     7
 10
241.882598876953
 20
-154.233997181384
 30
0.0
 11
266.082599237561
 21
-154.233997181384
 31
0.0
  0
LINE
  5
   31F
  8
0
  6
CONTINUOUS
 62
     7
 10
244.837022138635
 20
-153.713052663384
 30
0.0
 11
241.882598876953
 21
-154.233997181384
 31
0.0
  0
LINE
  5
   320
  8
0
  6
CONTINUOUS
 62
     7
 10
241.882598876953
 20
-154.233997181384
 30
0.0
 11
244.837022138635
 21
-154.754941699385
 31
0.0
  0
LINE
  5
   321
  8
0
  6
CONTINUOUS
 62
     7
 10
263.12817597588
 20
-154.754941699385
 30
0.0
 11
266.082599237561
 21
-154.233997181384
 31
0.0
  0
LINE
  5
   322
  8
0
  6
CONTINUOUS
 62
     7
 10
266.082599237561
 20
-154.233997181384
 30
0.0
 11
263.12817597588
 21
-153.713052663384
 31
0.0
  0
ENDBLK
  5
   323
  8
0
  6
CONTINUOUS
 62
     7
  0
BLOCK
  5
   324
  8
0
  6
CONTINUOUS
 62
     7
  2
*UDIM1875
 70
    65
 10
0.0
 20
0.0
 30
0.0
  3
*UDIM1875
  0
TEXT
  5
   325
  8
0
  6
CONTINUOUS
 62
     7
 10
269.742723006491
 20
-138.281752385049
 30
0.0
 40
2.50000001341104
  1
16
 50
359.999999844103
 41
0.933333333333333
 72
     1
 11
271.826056354395
 21
-137.031752384002
 31
0.0
 73
     2
  0
LINE
  5
   326
  8
0
  6
CONTINUOUS
 62
     7
 10
264.482599213719
 20
-123.012100338936
 30
0.0
 11
264.482599213719
 21
-141.281752390707
 31
0.0
  0
LINE
  5
   327
  8
0
  6
CONTINUOUS
 62
     7
 10
267.682599261403
 20
-123.012100338936
 30
0.0
 11
267.682599261403
 21
-141.281752390707
 31
0.0
  0
LINE
  5
   328
  8
0
  6
CONTINUOUS
 62
     7
 10
264.482599213719
 20
-139.281752390707
 30
0.0
 11
273.909389698905
 21
-139.281752390707
 31
0.0
  0
LINE
  5
   329
  8
0
  6
CONTINUOUS
 62
     7
 10
261.528175952038
 20
-139.802696908708
 30
0.0
 11
264.482599213719
 21
-139.281752390707
 31
0.0
  0
LINE
  5
   32A
  8
0
  6
CONTINUOUS
 62
     7
 10
264.482599213719
 20
-139.281752390707
 30
0.0
 11
261.528175952038
 21
-138.760807872707
 31
0.0
  0
LINE
  5
   32B
  8
0
  6
CONTINUOUS
 62
     7
 10
270.637022523085
 20
-138.760807872707
 30
0.0
 11
267.682599261403
 21
-139.281752390707
 31
0.0
  0
LINE
  5
   32C
  8
0
  6
CONTINUOUS
 62
     7
 10
267.682599261403
 20
-139.281752390707
 30
0.0
 11
270.637022523085
 21
-139.802696908708
 31
0.0
  0
ENDBLK
  5
   32D
  8
0
  6
CONTINUOUS
 62
     7
  0
BLOCK
  5
   32E
  8
0
  6
CONTINUOUS
 62
     7
  2
*UDIM1876
 70
    65
 10
0.0
 20
0.0
 30
0.0
  3
*UDIM1876
  0
TEXT
  5
   32F
  8
0
  6
CONTINUOUS
 62
     7
 10
240.020099463309
 20
-148.488159693158
 30
0.0
 40
2.50000001341104
  1
162,5
 50
359.999999844103
 41
0.933333333333333
 72
     1
 11
245.603432829989
 21
-147.238159701616
 31
0.0
 73
     2
  0
LINE
  5
   330
  8
0
  6
CONTINUOUS
 62
     7
 10
229.582598693669
 20
-134.012100502849
 30
0.0
 11
229.582598693669
 21
-151.488159708322
 31
0.0
  0
LINE
  5
   331
  8
0
  6
CONTINUOUS
 62
     7
 10
262.082599177957
 20
-134.012100502849
 30
0.0
 11
262.082599177957
 21
-151.488159708322
 31
0.0
  0
LINE
  5
   332
  8
0
  6
CONTINUOUS
 62
     7
 10
229.582598693669
 20
-149.488159708322
 30
0.0
 11
262.082599177957
 21
-149.488159708322
 31
0.0
  0
LINE
  5
   333
  8
0
  6
CONTINUOUS
 62
     7
 10
232.53702195535
 20
-148.967215190322
 30
0.0
 11
229.582598693669
 21
-149.488159708322
 31
0.0
  0
LINE
  5
   334
  8
0
  6
CONTINUOUS
 62
     7
 10
229.582598693669
 20
-149.488159708322
 30
0.0
 11
232.53702195535
 21
-150.009104226322
 31
0.0
  0
LINE
  5
   335
  8
0
  6
CONTINUOUS
 62
     7
 10
259.128175916275
 20
-150.009104226322
 30
0.0
 11
262.082599177957
 21
-149.488159708322
 31
0.0
  0
LINE
  5
   336
  8
0
  6
CONTINUOUS
 62
     7
 10
262.082599177957
 20
-149.488159708322
 30
0.0
 11
259.128175916275
 21
-148.967215190322
 31
0.0
  0
ENDBLK
  5
   337
  8
0
  6
CONTINUOUS
 62
     7
  0
BLOCK
  5
   338
  8
0
  6
CONTINUOUS
 62
     7
  2
*UDIM1877
 70
    65
 10
0.0
 20
0.0
 30
0.0
  3
*UDIM1877
  0
TEXT
  5
   339
  8
0
  6
CONTINUOUS
 62
     7
 10
248.503432066336
 20
-143.170535718889
 30
0.0
 40
2.50000001341104
  1
101
 50
359.999999844103
 41
0.933333333333333
 72
     1
 11
251.753432087166
 21
-141.92053572101
 31
0.0
 73
     2
  0
LINE
  5
   33A
  8
0
  6
CONTINUOUS
 62
     7
 10
241.882598876953
 20
-138.749067513062
 30
0.0
 11
241.882598876953
 21
-146.170535727716
 31
0.0
  0
LINE
  5
   33B
  8
0
  6
CONTINUOUS
 62
     7
 10
262.082599177957
 20
-134.012100502849
 30
0.0
 11
262.082599177957
 21
-146.170535727716
 31
0.0
  0
LINE
  5
   33C
  8
0
  6
CONTINUOUS
 62
     7
 10
241.882598876953
 20
-144.170535727716
 30
0.0
 11
262.082599177957
 21
-144.170535727716
 31
0.0
  0
LINE
  5
   33D
  8
0
  6
CONTINUOUS
 62
     7
 10
244.837022138635
 20
-143.649591209716
 30
0.0
 11
241.882598876953
 21
-144.170535727716
 31
0.0
  0
LINE
  5
   33E
  8
0
  6
CONTINUOUS
 62
     7
 10
241.882598876953
 20
-144.170535727716
 30
0.0
 11
244.837022138635
 21
-144.691480245716
 31
0.0
  0
LINE
  5
   33F
  8
0
  6
CONTINUOUS
 62
     7
 10
259.128175916275
 20
-144.691480245716
 30
0.0
 11
262.082599177957
 21
-144.170535727716
 31
0.0
  0
LINE
  5
   340
  8
0
  6
CONTINUOUS
 62
     7
 10
262.082599177957
 20
-144.170535727716
 30
0.0
 11
259.128175916275
 21
-143.649591209716
 31
0.0
  0
ENDBLK
  5
   341
  8
0
  6
CONTINUOUS
 62
     7
  0
BLOCK
  5
   342
  8
0
  6
CONTINUOUS
 62
     7
  2
*UDIM1878
 70
    65
 10
0.0
 20
0.0
 30
0.0
  3
*UDIM1878
  0
TEXT
  5
   343
  8
0
  6
CONTINUOUS
 62
     7
 10
227.340933315017
 20
-137.738554735613
 30
0.0
 40
2.50000001341104
  1
19,75
 50
359.999999844103
 41
0.933333333333333
 72
     1
 11
232.924266681696
 21
-136.488554744072
 31
0.0
 73
     2
  0
LINE
  5
   344
  8
0
  6
CONTINUOUS
 62
     7
 10
245.832598935813
 20
-134.012100502849
 30
0.0
 11
245.832598935813
 21
-140.738554750777
 31
0.0
  0
LINE
  5
   345
  8
0
  6
CONTINUOUS
 62
     7
 10
227.340933318411
 20
-138.738554750777
 30
0.0
 11
245.832598935813
 21
-138.738554750777
 31
0.0
  0
LINE
  5
   346
  8
0
  6
CONTINUOUS
 62
     7
 10
238.928175615272
 20
-139.259499268777
 30
0.0
 11
241.882598876953
 21
-138.738554750777
 31
0.0
  0
LINE
  5
   347
  8
0
  6
CONTINUOUS
 62
     7
 10
241.882598876953
 20
-138.738554750777
 30
0.0
 11
238.928175615272
 21
-138.217610232777
 31
0.0
  0
LINE
  5
   348
  8
0
  6
CONTINUOUS
 62
     7
 10
248.787022197494
 20
-138.217610232777
 30
0.0
 11
245.832598935813
 21
-138.738554750777
 31
0.0
  0
LINE
  5
   349
  8
0
  6
CONTINUOUS
 62
     7
 10
245.832598935813
 20
-138.738554750777
 30
0.0
 11
248.787022197494
 21
-139.259499268777
 31
0.0
  0
ENDBLK
  5
   34A
  8
0
  6
CONTINUOUS
 62
     7
  0
BLOCK
  5
   34B
  8
0
  6
CONTINUOUS
 62
     7
  2
*UDIM1879
 70
    65
 10
0.0
 20
0.0
 30
0.0
  3
*UDIM1879
  0
TEXT
  5
   34C
  8
0
  6
CONTINUOUS
 62
     7
 10
237.503431902424
 20
-79.839116928498
 30
0.0
 40
2.50000001341104
  1
170
 50
359.999999844103
 41
0.933333333333333
 72
     1
 11
240.753431923253
 21
-78.5891169306191
 31
0.0
 73
     2
  0
LINE
  5
   34D
  8
0
  6
CONTINUOUS
 62
     7
 10
223.982598610222
 20
-96.9120999798179
 30
0.0
 11
223.982598610222
 21
-78.8391169373247
 31
0.0
  0
LINE
  5
   34E
  8
0
  6
CONTINUOUS
 62
     7
 10
257.982599116862
 20
-96.9120999798179
 30
0.0
 11
257.982599116862
 21
-78.8391169373247
 31
0.0
  0
LINE
  5
   34F
  8
0
  6
CONTINUOUS
 62
     7
 10
223.982598610222
 20
-80.8391169373247
 30
0.0
 11
257.982599116862
 21
-80.8391169373247
 31
0.0
  0
LINE
  5
   350
  8
0
  6
CONTINUOUS
 62
     7
 10
226.937021871904
 20
-80.3181724193243
 30
0.0
 11
223.982598610222
 21
-80.8391169373247
 31
0.0
  0
LINE
  5
   351
  8
0
  6
CONTINUOUS
 62
     7
 10
223.982598610222
 20
-80.8391169373247
 30
0.0
 11
226.937021871904
 21
-81.360061455325
 31
0.0
  0
LINE
  5
   352
  8
0
  6
CONTINUOUS
 62
     7
 10
255.02817585518
 20
-81.360061455325
 30
0.0
 11
257.982599116862
 21
-80.8391169373247
 31
0.0
  0
LINE
  5
   353
  8
0
  6
CONTINUOUS
 62
     7
 10
257.982599116862
 20
-80.8391169373247
 30
0.0
 11
255.02817585518
 21
-80.3181724193243
 31
0.0
  0
ENDBLK
  5
   354
  8
0
  6
CONTINUOUS
 62
     7
  0
BLOCK
  5
   355
  8
0
  6
CONTINUOUS
 62
     7
  2
*UDIM1880
 70
    65
 10
0.0
 20
0.0
 30
0.0
  3
*UDIM1880
  0
TEXT
  5
   356
  8
0
  6
CONTINUOUS
 62
     7
 10
245.286765768175
 20
-84.3276484863545
 30
0.0
 40
2.50000001341104
  1
80,5
 50
359.999999844103
 41
0.933333333333333
 72
     1
 11
249.70343246193
 21
-83.0776484916441
 31
0.0
 73
     2
  0
LINE
  5
   357
  8
0
  6
CONTINUOUS
 62
     7
 10
241.882598876953
 20
-88.1499415175557
 30
0.0
 11
241.882598876953
 21
-83.3276484983496
 31
0.0
  0
LINE
  5
   358
  8
0
  6
CONTINUOUS
 62
     7
 10
257.982599116862
 20
-96.9120999798179
 30
0.0
 11
257.982599116862
 21
-83.3276484983496
 31
0.0
  0
LINE
  5
   359
  8
0
  6
CONTINUOUS
 62
     7
 10
241.882598876953
 20
-85.3276484983496
 30
0.0
 11
257.982599116862
 21
-85.3276484983496
 31
0.0
  0
LINE
  5
   35A
  8
0
  6
CONTINUOUS
 62
     7
 10
244.837022138635
 20
-84.8067039803493
 30
0.0
 11
241.882598876953
 21
-85.3276484983496
 31
0.0
  0
LINE
  5
   35B
  8
0
  6
CONTINUOUS
 62
     7
 10
241.882598876953
 20
-85.3276484983496
 30
0.0
 11
244.837022138635
 21
-85.84859301635
 31
0.0
  0
LINE
  5
   35C
  8
0
  6
CONTINUOUS
 62
     7
 10
255.02817585518
 20
-85.84859301635
 30
0.0
 11
257.982599116862
 21
-85.3276484983496
 31
0.0
  0
LINE
  5
   35D
  8
0
  6
CONTINUOUS
 62
     7
 10
257.982599116862
 20
-85.3276484983496
 30
0.0
 11
255.02817585518
 21
-84.8067039803493
 31
0.0
  0
ENDBLK
  5
   35E
  8
0
  6
CONTINUOUS
 62
     7
  0
BLOCK
  5
   35F
  8
0
  6
CONTINUOUS
 62
     7
  2
*UDIM1881
 70
    65
 10
0.0
 20
0.0
 30
0.0
  3
*UDIM1881
  0
TEXT
  5
   360
  8
0
  6
CONTINUOUS
 62
     7
 10
244.165461654291
 20
-88.6446453221565
 30
0.0
 40
2.50000001341104
  1
45
 50
359.999999844103
 41
0.933333333333333
 72
     1
 11
246.248795002195
 21
-87.3946453211091
 31
0.0
 73
     2
  0
LINE
  5
   361
  8
0
  6
CONTINUOUS
 62
     7
 10
241.332598868757
 20
-93.6760999315977
 30
0.0
 11
241.332598868757
 21
-87.6446453278146
 31
0.0
  0
LINE
  5
   362
  8
0
  6
CONTINUOUS
 62
     7
 10
250.332599002868
 20
-93.6760999315977
 30
0.0
 11
250.332599002868
 21
-87.6446453278146
 31
0.0
  0
LINE
  5
   363
  8
0
  6
CONTINUOUS
 62
     7
 10
241.332598868757
 20
-89.6446453278146
 30
0.0
 11
250.332599002868
 21
-89.6446453278146
 31
0.0
  0
LINE
  5
   364
  8
0
  6
CONTINUOUS
 62
     7
 10
244.287022130439
 20
-89.1237008098143
 30
0.0
 11
241.332598868757
 21
-89.6446453278146
 31
0.0
  0
LINE
  5
   365
  8
0
  6
CONTINUOUS
 62
     7
 10
241.332598868757
 20
-89.6446453278146
 30
0.0
 11
244.287022130439
 21
-90.1655898458149
 31
0.0
  0
LINE
  5
   366
  8
0
  6
CONTINUOUS
 62
     7
 10
247.378175741186
 20
-90.1655898458149
 30
0.0
 11
250.332599002868
 21
-89.6446453278146
 31
0.0
  0
LINE
  5
   367
  8
0
  6
CONTINUOUS
 62
     7
 10
250.332599002868
 20
-89.6446453278146
 30
0.0
 11
247.378175741186
 21
-89.1237008098143
 31
0.0
  0
ENDBLK
  5
   368
  8
0
  6
CONTINUOUS
 62
     7
  0
BLOCK
  5
   369
  8
0
  6
CONTINUOUS
 62
     7
  2
BASETT_1
 70
    64
 10
0.0
 20
0.0
 30
0.0
  3
BASETT_1
  0
LINE
  5
   36A
  8
0
  6
CONTINUOUS
 62
     1
 10
210.0
 20
-5.0
 30
0.0
 11
210.0
 21
7.54761783868338
 31
0.0
  0
LINE
  5
   36B
  8
0
  6
CONTINUOUS
 62
     1
 10
210.000007629395
 20
0.0
 30
0.0
 11
210.000007629395
 21
2.54761783868338
 31
0.0
  0
LINE
  5
   36C
  8
0
  6
CONTINUOUS
 62
     1
 10
152.0
 20
44.0476178386834
 30
0.0
 11
198.0
 21
44.0476178386834
 31
0.0
  0
LINE
  5
   36D
  8
0
  6
CONTINUOUS
 62
     1
 10
210.0
 20
7.54761783868338
 30
0.0
 11
210.0
 21
22.0476178386834
 31
0.0
  0
LINE
  5
   36E
  8
0
  6
CONTINUOUS
 62
     1
 10
82.0
 20
44.0476178386834
 30
0.0
 11
128.0
 21
44.0476178386834
 31
0.0
  0
LINE
  5
   36F
  8
0
  6
CONTINUOUS
 62
     1
 10
12.0
 20
44.0476178386834
 30
0.0
 11
58.0
 21
44.0476178386834
 31
0.0
  0
LINE
  5
   370
  8
0
  6
CONTINUOUS
 62
     1
 10
200.0
 20
24.0476178386834
 30
0.0
 11
200.0
 21
42.0476178386834
 31
0.0
  0
LINE
  5
   371
  8
0
  6
CONTINUOUS
 62
     1
 10
150.0
 20
24.0476178386834
 30
0.0
 11
150.0
 21
42.0476178386834
 31
0.0
  0
LINE
  5
   372
  8
0
  6
CONTINUOUS
 62
     1
 10
130.0
 20
24.0476178386834
 30
0.0
 11
130.0
 21
42.0476178386834
 31
0.0
  0
LINE
  5
   373
  8
0
  6
CONTINUOUS
 62
     1
 10
80.0
 20
24.0476178386834
 30
0.0
 11
80.0
 21
42.0476178386834
 31
0.0
  0
LINE
  5
   374
  8
0
  6
CONTINUOUS
 62
     1
 10
60.0
 20
24.0476178386834
 30
0.0
 11
60.0
 21
42.0476178386834
 31
0.0
  0
LINE
  5
   375
  8
0
  6
CONTINUOUS
 62
     1
 10
10.0
 20
24.0476178386834
 30
0.0
 11
10.0
 21
42.0476178386834
 31
0.0
  0
ARC
  5
   376
  8
0
  6
CONTINUOUS
 62
     1
 10
12.0000111838347
 20
42.0475380330993
 30
0.0
 40
2.00007783126227
 50
90.0001807661626
 51
179.997830672605
  0
ARC
  5
   377
  8
0
  6
CONTINUOUS
 62
     1
 10
58.0000129063801
 20
42.0476401501283
 30
0.0
 40
1.99997510265494
 50
359.999226374319
 51
450.000285340162
  0
ARC
  5
   378
  8
0
  6
CONTINUOUS
 62
     1
 10
81.9999903249801
 20
42.0476447404943
 30
0.0
 40
1.99997081808889
 50
89.9996952185933
 51
180.000394138682
  0
ARC
  5
   379
  8
0
  6
CONTINUOUS
 62
     1
 10
127.999995507033
 20
42.0476121773215
 30
0.0
 40
2.00000657851261
 50
5.38727676514194E-4
 51
89.9998988942161
  0
ARC
  5
   37A
  8
0
  6
CONTINUOUS
 62
     1
 10
151.999999983491
 20
42.0476201025244
 30
0.0
 40
1.99999862788034
 50
90.0000839312064
 51
180.000255608246
  0
ARC
  5
   37B
  8
0
  6
CONTINUOUS
 62
     1
 10
197.99998881617
 20
42.0475380331107
 30
0.0
 40
2.00007783125045
 50
2.16932706530805E-3
 51
89.9998192339624
  0
ARC
  5
   37C
  8
0
  6
CONTINUOUS
 62
     1
 10
7.99999999999999
 20
24.0476178386834
 30
0.0
 40
2.0
 50
270.0
 51
360.0
  0
ARC
  5
   37D
  8
0
  6
CONTINUOUS
 62
     1
 10
62.0
 20
24.0476178386834
 30
0.0
 40
2.0
 50
180.0
 51
270.0
  0
ARC
  5
   37E
  8
0
  6
CONTINUOUS
 62
     1
 10
78.0
 20
24.0476178386834
 30
0.0
 40
2.0
 50
270.0
 51
360.0
  0
ARC
  5
   37F
  8
0
  6
CONTINUOUS
 62
     1
 10
132.0
 20
24.0476178386834
 30
0.0
 40
2.0
 50
180.0
 51
270.0
  0
ARC
  5
   380
  8
0
  6
CONTINUOUS
 62
     1
 10
148.0
 20
24.0476178386834
 30
0.0
 40
2.0
 50
270.0
 51
360.0
  0
ARC
  5
   381
  8
0
  6
CONTINUOUS
 62
     1
 10
202.0
 20
24.0476178386834
 30
0.0
 40
2.0
 50
180.0
 51
270.0
  0
LINE
  5
   382
  8
0
  6
DASHDOT
 62
     1
 10
35.0
 20
-10.891941734382
 30
0.0
 11
35.0
 21
48.6276703687375
 31
0.0
  0
LINE
  5
   383
  8
0
  6
DASHDOT
 62
     1
 10
105.0
 20
-11.3095241650931
 30
0.0
 11
105.0
 21
48.6276703687375
 31
0.0
  0
LINE
  5
   384
  8
0
  6
DASHDOT
 62
     1
 10
175.0
 20
-11.8663007393746
 30
0.0
 11
175.0
 21
48.6276703687375
 31
0.0
  0
LINE
  5
   385
  8
0
  6
CONTINUOUS
 62
     1
 10
-70.0
 20
22.0476178386834
 30
0.0
 11
210.0
 21
22.0476178386834
 31
0.0
  0
LINE
  5
   386
  8
0
  6
CONTINUOUS
 62
     1
 10
-77.5204135212739
 20
-5.0
 30
0.0
 11
216.355314856302
 21
-5.0
 31
0.0
  0
LINE
  5
   387
  8
0
  6
CONTINUOUS
 62
     1
 10
30.0
 20
44.0476178386834
 30
0.0
 11
30.0
 21
84.0476178386834
 31
0.0
  0
LINE
  5
   388
  8
0
  6
CONTINUOUS
 62
     1
 10
40.0
 20
44.0476178386834
 30
0.0
 11
40.0
 21
84.0476178386834
 31
0.0
  0
LINE
  5
   389
  8
0
  6
CONTINUOUS
 62
     1
 10
35.0
 20
44.0476178386834
 30
0.0
 11
35.0
 21
84.0476178386834
 31
0.0
  0
LINE
  5
   38A
  8
0
  6
CONTINUOUS
 62
     1
 10
30.0
 20
84.0476178386834
 30
0.0
 11
40.0
 21
84.0476178386834
 31
0.0
  0
LINE
  5
   38B
  8
0
  6
CONTINUOUS
 62
     1
 10
110.0
 20
44.0476178386834
 30
0.0
 11
110.0
 21
84.0476178386834
 31
0.0
  0
LINE
  5
   38C
  8
0
  6
CONTINUOUS
 62
     1
 10
105.0
 20
44.0476178386834
 30
0.0
 11
105.0
 21
84.0476178386834
 31
0.0
  0
LINE
  5
   38D
  8
0
  6
CONTINUOUS
 62
     1
 10
100.0
 20
44.0476178386834
 30
0.0
 11
100.0
 21
84.0476178386834
 31
0.0
  0
LINE
  5
   38E
  8
0
  6
CONTINUOUS
 62
     1
 10
100.0
 20
84.0476178386834
 30
0.0
 11
110.0
 21
84.0476178386834
 31
0.0
  0
LINE
  5
   38F
  8
0
  6
CONTINUOUS
 62
     1
 10
180.0
 20
44.0476178386834
 30
0.0
 11
180.0
 21
84.0476178386834
 31
0.0
  0
LINE
  5
   390
  8
0
  6
CONTINUOUS
 62
     1
 10
175.0
 20
44.0476178386834
 30
0.0
 11
175.0
 21
84.0476178386834
 31
0.0
  0
LINE
  5
   391
  8
0
  6
CONTINUOUS
 62
     1
 10
170.0
 20
44.0476178386834
 30
0.0
 11
170.0
 21
84.0476178386834
 31
0.0
  0
LINE
  5
   392
  8
0
  6
CONTINUOUS
 62
     1
 10
170.0
 20
84.0476178386834
 30
0.0
 11
180.0
 21
84.0476178386834
 31
0.0
  0
LINE
  5
   393
  8
0
  6
DASHDOT
 62
     1
 10
24.6373634119567
 20
64.0476178386834
 30
0.0
 11
45.2380966603725
 21
64.0476178386834
 31
0.0
  0
LINE
  5
   394
  8
0
  6
DASHDOT
 62
     1
 10
164.805865987326
 20
64.0476178386834
 30
0.0
 11
184.849822661461
 21
64.0476178386834
 31
0.0
  0
LINE
  5
   395
  8
0
  6
DASHDOT
 62
     1
 10
94.3040322689304
 20
64.0476178386834
 30
0.0
 11
114.626377230205
 21
64.0476178386834
 31
0.0
  0
LINE
  5
   396
  8
0
  6
DOT
 62
     1
 10
170.0
 20
71.0476178386834
 30
0.0
 11
180.0
 21
71.0476178386834
 31
0.0
  0
LINE
  5
   397
  8
0
  6
DOT
 62
     1
 10
170.0
 20
57.0476178386834
 30
0.0
 11
180.0
 21
57.0476178386834
 31
0.0
  0
LINE
  5
   398
  8
0
  6
DOT
 62
     1
 10
100.0
 20
71.0476178386834
 30
0.0
 11
110.0
 21
71.0476178386834
 31
0.0
  0
LINE
  5
   399
  8
0
  6
DOT
 62
     1
 10
100.0
 20
57.0476178386834
 30
0.0
 11
110.0
 21
57.0476178386834
 31
0.0
  0
LINE
  5
   39A
  8
0
  6
DOT
 62
     1
 10
30.0
 20
71.0476178386833
 30
0.0
 11
40.0
 21
71.0476178386833
 31
0.0
  0
LINE
  5
   39B
  8
0
  6
DOT
 62
     1
 10
30.0
 20
57.0476178386834
 30
0.0
 11
40.0
 21
57.0476178386834
 31
0.0
  0
LINE
  5
   39C
  8
0
  6
CONTINUOUS
 62
     1
 10
73.5
 20
-5.0
 30
0.0
 11
73.5
 21
22.0476178386834
 31
0.0
  0
LINE
  5
   39D
  8
0
  6
CONTINUOUS
 62
     1
 10
66.5
 20
-5.0
 30
0.0
 11
66.5
 21
22.0476178386834
 31
0.0
  0
LINE
  5
   39E
  8
0
  6
CONTINUOUS
 62
     1
 10
143.5
 20
-5.0
 30
0.0
 11
143.5
 21
22.0476178386834
 31
0.0
  0
LINE
  5
   39F
  8
0
  6
CONTINUOUS
 62
     1
 10
136.5
 20
-5.0
 30
0.0
 11
136.5
 21
22.0476178386834
 31
0.0
  0
LINE
  5
   3A0
  8
0
  6
CONTINUOUS
 62
     1
 10
12.5
 20
4.76178386833652E-2
 30
0.0
 11
57.5
 21
4.76178386833652E-2
 31
0.0
  0
LINE
  5
   3A1
  8
0
  6
CONTINUOUS
 62
     1
 10
57.5
 20
-5.0
 30
0.0
 11
57.5
 21
4.76178386833652E-2
 31
0.0
  0
LINE
  5
   3A2
  8
0
  6
CONTINUOUS
 62
     1
 10
12.5
 20
-5.0
 30
0.0
 11
12.5
 21
4.76178386833652E-2
 31
0.0
  0
LINE
  5
   3A3
  8
0
  6
CONTINUOUS
 62
     1
 10
127.5
 20
-5.0
 30
0.0
 11
127.5
 21
4.76178386833652E-2
 31
0.0
  0
LINE
  5
   3A4
  8
0
  6
CONTINUOUS
 62
     1
 10
82.5
 20
-5.0
 30
0.0
 11
82.5
 21
4.76178386833652E-2
 31
0.0
  0
LINE
  5
   3A5
  8
0
  6
CONTINUOUS
 62
     1
 10
82.5
 20
4.76178386833652E-2
 30
0.0
 11
127.5
 21
4.76178386833652E-2
 31
0.0
  0
LINE
  5
   3A6
  8
0
  6
CONTINUOUS
 62
     1
 10
152.5
 20
4.76178386833652E-2
 30
0.0
 11
197.5
 21
4.76178386833652E-2
 31
0.0
  0
LINE
  5
   3A7
  8
0
  6
CONTINUOUS
 62
     1
 10
197.5
 20
-5.0
 30
0.0
 11
197.5
 21
4.76178386833652E-2
 31
0.0
  0
LINE
  5
   3A8
  8
0
  6
CONTINUOUS
 62
     1
 10
152.5
 20
-5.0
 30
0.0
 11
152.5
 21
4.76178386833652E-2
 31
0.0
  0
LINE
  5
   3A9
  8
0
  6
CONTINUOUS
 62
     1
 10
207.5
 20
-5.0
 30
0.0
 11
207.5
 21
22.0476178386834
 31
0.0
  0
LINE
  5
   3AA
  8
0
  6
CONTINUOUS
 62
     1
 10
-40.0
 20
44.0476178386834
 30
0.0
 11
-40.0
 21
84.0476178386834
 31
0.0
  0
LINE
  5
   3AB
  8
0
  6
CONTINUOUS
 62
     1
 10
-35.0
 20
44.0476178386834
 30
0.0
 11
-35.0
 21
84.0476178386834
 31
0.0
  0
LINE
  5
   3AC
  8
0
  6
CONTINUOUS
 62
     1
 10
-30.0
 20
44.0476178386834
 30
0.0
 11
-30.0
 21
84.0476178386834
 31
0.0
  0
LINE
  5
   3AD
  8
0
  6
CONTINUOUS
 62
     1
 10
-40.0
 20
84.0476178386834
 30
0.0
 11
-30.0
 21
84.0476178386834
 31
0.0
  0
LINE
  5
   3AE
  8
0
  6
CONTINUOUS
 62
     1
 10
-58.0
 20
44.0476178386834
 30
0.0
 11
-12.0
 21
44.0476178386834
 31
0.0
  0
ARC
  5
   3AF
  8
0
  6
CONTINUOUS
 62
     1
 10
-57.9999888161653
 20
42.0475380330993
 30
0.0
 40
2.00007783126227
 50
90.0001807661626
 51
179.997830672605
  0
ARC
  5
   3B0
  8
0
  6
CONTINUOUS
 62
     1
 10
-11.9999870936199
 20
42.0476401501283
 30
0.0
 40
1.99997510265494
 50
359.999226374319
 51
450.000285340162
  0
LINE
  5
   3B1
  8
0
  6
CONTINUOUS
 62
     1
 10
-60.0
 20
24.0476178386834
 30
0.0
 11
-60.0
 21
42.0476178386834
 31
0.0
  0
LINE
  5
   3B2
  8
0
  6
CONTINUOUS
 62
     1
 10
-10.0
 20
24.0476178386834
 30
0.0
 11
-10.0
 21
42.0476178386834
 31
0.0
  0
ARC
  5
   3B3
  8
0
  6
CONTINUOUS
 62
     1
 10
-8.00000000000001
 20
24.0476178386834
 30
0.0
 40
2.0
 50
180.0
 51
270.0
  0
ARC
  5
   3B4
  8
0
  6
CONTINUOUS
 62
     1
 10
-62.0
 20
24.0476178386834
 30
0.0
 40
2.0
 50
270.0
 51
360.0
  0
LINE
  5
   3B5
  8
0
  6
CONTINUOUS
 62
     1
 10
-3.5
 20
-5.0
 30
0.0
 11
-3.5
 21
22.0476178386834
 31
0.0
  0
LINE
  5
   3B6
  8
0
  6
CONTINUOUS
 62
     1
 10
3.5
 20
-5.0
 30
0.0
 11
3.5
 21
22.0476178386834
 31
0.0
  0
LINE
  5
   3B7
  8
0
  6
CONTINUOUS
 62
     1
 10
-70.0
 20
-5.0
 30
0.0
 11
-70.0
 21
22.0476178386834
 31
0.0
  0
LINE
  5
   3B8
  8
0
  6
CONTINUOUS
 62
     1
 10
-67.5
 20
-5.0
 30
0.0
 11
-67.5
 21
22.0476178386834
 31
0.0
  0
LINE
  5
   3B9
  8
0
  6
CONTINUOUS
 62
     1
 10
-57.5
 20
-5.0
 30
0.0
 11
-57.5
 21
4.76178386833652E-2
 31
0.0
  0
LINE
  5
   3BA
  8
0
  6
CONTINUOUS
 62
     1
 10
-57.5
 20
4.76178386833652E-2
 30
0.0
 11
-12.5
 21
4.76178386833652E-2
 31
0.0
  0
LINE
  5
   3BB
  8
0
  6
CONTINUOUS
 62
     1
 10
-12.5
 20
-5.0
 30
0.0
 11
-12.5
 21
4.76178386833652E-2
 31
0.0
  0
LINE
  5
   3BC
  8
0
  6
DASHDOT
 62
     1
 10
-35.0
 20
-10.891941734382
 30
0.0
 11
-35.0
 21
48.6276703687375
 31
0.0
  0
LINE
  5
   3BD
  8
0
  6
DASHDOT
 62
     1
 10
-45.3626365880433
 20
64.0476178386834
 30
0.0
 11
-24.7619033396275
 21
64.0476178386834
 31
0.0
  0
LINE
  5
   3BE
  8
0
  6
DOT
 62
     1
 10
-40.0
 20
71.0476178386833
 30
0.0
 11
-30.0
 21
71.0476178386833
 31
0.0
  0
LINE
  5
   3BF
  8
0
  6
DOT
 62
     1
 10
-40.0
 20
57.0476178386834
 30
0.0
 11
-30.0
 21
57.0476178386834
 31
0.0
  0
ENDBLK
  5
   3C0
  8
0
  6
CONTINUOUS
 62
     7
  0
BLOCK
  5
   3C1
  8
0
  6
CONTINUOUS
 62
     7
  2
*UDIM1882
 70
    65
 10
0.0
 20
0.0
 30
0.0
  3
*UDIM1882
  0
TEXT
  5
   3C2
  8
0
  6
CONTINUOUS
 62
     7
 10
251.820090093544
 20
-24.5985792957053
 30
0.0
 40
2.4999999335834
  1
70
 50
359.999999896069
 41
0.933333333333333
 72
     1
 11
253.903423373792
 21
-23.3485793326822
 31
0.0
 73
     2
  0
LINE
  5
   3C3
  8
0
  6
CONTINUOUS
 62
     7
 10
266.382592541937
 20
-33.7188628218768
 30
0.0
 11
266.382592541937
 21
-23.5985792994739
 31
0.0
  0
LINE
  5
   3C4
  8
0
  6
CONTINUOUS
 62
     7
 10
241.88259295917
 20
-33.7188628218768
 30
0.0
 11
241.88259295917
 21
-23.5985792994739
 31
0.0
  0
LINE
  5
   3C5
  8
0
  6
CONTINUOUS
 62
     7
 10
266.382592541937
 20
-25.5985792994739
 30
0.0
 11
241.88259295917
 21
-25.5985792994739
 31
0.0
  0
LINE
  5
   3C6
  8
0
  6
CONTINUOUS
 62
     7
 10
263.428169280256
 20
-26.1195238174742
 30
0.0
 11
266.382592541937
 21
-25.5985792994739
 31
0.0
  0
LINE
  5
   3C7
  8
0
  6
CONTINUOUS
 62
     7
 10
266.382592541937
 20
-25.5985792994739
 30
0.0
 11
263.428169280256
 21
-25.0776347814735
 31
0.0
  0
LINE
  5
   3C8
  8
0
  6
CONTINUOUS
 62
     7
 10
244.837016220852
 20
-25.0776347814735
 30
0.0
 11
241.88259295917
 21
-25.5985792994739
 31
0.0
  0
LINE
  5
   3C9
  8
0
  6
CONTINUOUS
 62
     7
 10
241.88259295917
 20
-25.5985792994739
 30
0.0
 11
244.837016220852
 21
-26.1195238174742
 31
0.0
  0
ENDBLK
  5
   3CA
  8
0
  6
CONTINUOUS
 62
     7
  0
BLOCK
  5
   3CB
  8
0
  6
CONTINUOUS
 62
     7
  2
*UDIM1883
 70
    65
 10
0.0
 20
0.0
 30
0.0
  3
*UDIM1883
  0
TEXT
  5
   3CC
  8
0
  6
CONTINUOUS
 62
     7
 10
227.320093181065
 20
-24.5985792957053
 30
0.0
 40
2.4999999335834
  1
70
 50
359.999999896069
 41
0.933333333333333
 72
     1
 11
229.403426461312
 21
-23.3485793326822
 31
0.0
 73
     2
  0
LINE
  5
   3CD
  8
0
  6
CONTINUOUS
 62
     7
 10
217.382593376402
 20
-33.7188628218768
 30
0.0
 11
217.382593376402
 21
-23.5985792994739
 31
0.0
  0
LINE
  5
   3CE
  8
0
  6
CONTINUOUS
 62
     7
 10
241.88259295917
 20
-25.5985792994739
 30
0.0
 11
217.382593376402
 21
-25.5985792994739
 31
0.0
  0
LINE
  5
   3CF
  8
0
  6
CONTINUOUS
 62
     7
 10
238.928169697488
 20
-26.1195238174742
 30
0.0
 11
241.88259295917
 21
-25.5985792994739
 31
0.0
  0
LINE
  5
   3D0
  8
0
  6
CONTINUOUS
 62
     7
 10
241.88259295917
 20
-25.5985792994739
 30
0.0
 11
238.928169697488
 21
-25.0776347814735
 31
0.0
  0
LINE
  5
   3D1
  8
0
  6
CONTINUOUS
 62
     7
 10
220.337016638084
 20
-25.0776347814735
 30
0.0
 11
217.382593376402
 21
-25.5985792994739
 31
0.0
  0
LINE
  5
   3D2
  8
0
  6
CONTINUOUS
 62
     7
 10
217.382593376402
 20
-25.5985792994739
 30
0.0
 11
220.337016638084
 21
-26.1195238174742
 31
0.0
  0
ENDBLK
  5
   3D3
  8
0
  6
CONTINUOUS
 62
     7
  0
BLOCK
  5
   3D4
  8
0
  6
CONTINUOUS
 62
     7
  2
*UDIM1884
 70
    65
 10
0.0
 20
0.0
 30
0.0
  3
*UDIM1884
  0
TEXT
  5
   3D5
  8
0
  6
CONTINUOUS
 62
     7
 10
202.820096268585
 20
-24.5985792957053
 30
0.0
 40
2.4999999335834
  1
70
 50
359.999999896069
 41
0.933333333333333
 72
     1
 11
204.903429548833
 21
-23.3485793326822
 31
0.0
 73
     2
  0
LINE
  5
   3D6
  8
0
  6
CONTINUOUS
 62
     7
 10
192.882593793635
 20
-33.7188628218768
 30
0.0
 11
192.882593793635
 21
-23.5985792994739
 31
0.0
  0
LINE
  5
   3D7
  8
0
  6
CONTINUOUS
 62
     7
 10
217.382593376402
 20
-25.5985792994739
 30
0.0
 11
192.882593793635
 21
-25.5985792994739
 31
0.0
  0
LINE
  5
   3D8
  8
0
  6
CONTINUOUS
 62
     7
 10
214.428170114721
 20
-26.1195238174742
 30
0.0
 11
217.382593376402
 21
-25.5985792994739
 31
0.0
  0
LINE
  5
   3D9
  8
0
  6
CONTINUOUS
 62
     7
 10
217.382593376402
 20
-25.5985792994739
 30
0.0
 11
214.428170114721
 21
-25.0776347814735
 31
0.0
  0
LINE
  5
   3DA
  8
0
  6
CONTINUOUS
 62
     7
 10
195.837017055317
 20
-25.0776347814735
 30
0.0
 11
192.882593793635
 21
-25.5985792994739
 31
0.0
  0
LINE
  5
   3DB
  8
0
  6
CONTINUOUS
 62
     7
 10
192.882593793635
 20
-25.5985792994739
 30
0.0
 11
195.837017055317
 21
-26.1195238174742
 31
0.0
  0
ENDBLK
  5
   3DC
  8
0
  6
CONTINUOUS
 62
     7
  0
BLOCK
  5
   3DD
  8
0
  6
CONTINUOUS
 62
     7
  2
*UDIM1885
 70
    65
 10
0.0
 20
0.0
 30
0.0
  3
*UDIM1885
  0
TEXT
  5
   3DE
  8
0
  6
CONTINUOUS
 62
     7
 10
268.379950720517
 20
-29.3894595963542
 30
0.0
 40
2.4999999335834
  1
10
 50
359.999999896069
 41
0.933333333333333
 72
     1
 11
270.463284000764
 21
-28.1394596333311
 31
0.0
 73
     2
  0
LINE
  5
   3DF
  8
0
  6
CONTINUOUS
 62
     7
 10
268.132592512135
 20
-33.7188628218768
 30
0.0
 11
268.132592512135
 21
-28.3894596001228
 31
0.0
  0
LINE
  5
   3E0
  8
0
  6
CONTINUOUS
 62
     7
 10
264.63259257174
 20
-33.7188628218768
 30
0.0
 11
264.63259257174
 21
-28.3894596001228
 31
0.0
  0
LINE
  5
   3E1
  8
0
  6
CONTINUOUS
 62
     7
 10
272.54661727875
 20
-30.3894596001228
 30
0.0
 11
264.63259257174
 21
-30.3894596001228
 31
0.0
  0
LINE
  5
   3E2
  8
0
  6
CONTINUOUS
 62
     7
 10
271.087015773817
 20
-29.8685150821224
 30
0.0
 11
268.132592512135
 21
-30.3894596001228
 31
0.0
  0
LINE
  5
   3E3
  8
0
  6
CONTINUOUS
 62
     7
 10
268.132592512135
 20
-30.3894596001228
 30
0.0
 11
271.087015773817
 21
-30.9104041181231
 31
0.0
  0
LINE
  5
   3E4
  8
0
  6
CONTINUOUS
 62
     7
 10
261.678169310058
 20
-30.9104041181231
 30
0.0
 11
264.63259257174
 21
-30.3894596001228
 31
0.0
  0
LINE
  5
   3E5
  8
0
  6
CONTINUOUS
 62
     7
 10
264.63259257174
 20
-30.3894596001228
 30
0.0
 11
261.678169310058
 21
-29.8685150821224
 31
0.0
  0
ENDBLK
  5
   3E6
  8
0
  6
CONTINUOUS
 62
     7
  0
ENDSEC
  0
SECTION
  2
ENTITIES
  0
LINE
  5
   3E7
  8
0
  6
DASHDOT
 62
     2
 10
91.6598818004131
 20
-71.156419988913
 30
0.0
 11
91.6598818004131
 21
-162.216026259371
 31
0.0
  0
LINE
  5
   3E8
  8
0
  6
DASHDOT
 62
     2
 10
123.936696908824
 20
-114.01210019365
 30
0.0
 11
30.7322983325635
 21
-114.01210019365
 31
0.0
  0
CIRCLE
  5
   3E9
  8
0
  6
CONTINUOUS
 62
     7
 10
63.6598813831806
 20
-104.912100058049
 30
0.0
 40
0.850000012665987
  0
CIRCLE
  5
   3EA
  8
0
  6
CONTINUOUS
 62
     7
 10
105.659882009029
 20
-104.912100058049
 30
0.0
 40
0.850000012665987
  0
CIRCLE
  5
   3EB
  8
0
  6
CONTINUOUS
 62
     7
 10
105.659882009029
 20
-128.912100415677
 30
0.0
 40
0.850000012665987
  0
CIRCLE
  5
   3EC
  8
0
  6
CONTINUOUS
 62
     7
 10
63.6598813831806
 20
-128.912100415677
 30
0.0
 40
0.850000012665987
  0
LINE
  5
   3ED
  8
0
  6
DASHDOT
 62
     7
 10
63.6598813831806
 20
-102.062100015581
 30
0.0
 11
63.6598813831806
 21
-107.762100100517
 31
0.0
  0
LINE
  5
   3EE
  8
0
  6
DASHDOT
 62
     7
 10
66.5098814256489
 20
-104.912100058049
 30
0.0
 11
60.8098813407123
 21
-104.912100058049
 31
0.0
  0
LINE
  5
   3EF
  8
0
  6
DASHDOT
 62
     7
 10
105.659882009029
 20
-102.062100015581
 30
0.0
 11
105.659882009029
 21
-131.210930883847
 31
0.0
  0
LINE
  5
   3F0
  8
0
  6
DASHDOT
 62
     7
 10
107.746577649451
 20
-104.912100058049
 30
0.0
 11
68.3287970664402
 21
-104.912100058049
 31
0.0
  0
LINE
  5
   3F1
  8
0
  6
DASHDOT
 62
     7
 10
91.6598818004131
 20
-126.062100373209
 30
0.0
 11
91.6598818004131
 21
-131.762100458145
 31
0.0
  0
LINE
  5
   3F2
  8
0
  6
DASHDOT
 62
     7
 10
107.091638256737
 20
-128.912100415677
 30
0.0
 11
68.0348645007673
 21
-128.912100415677
 31
0.0
  0
LINE
  5
   3F3
  8
0
  6
DASHDOT
 62
     7
 10
63.6598813831806
 20
-109.290866035119
 30
0.0
 11
63.6598813831806
 21
-131.762100458145
 31
0.0
  0
LINE
  5
   3F4
  8
0
  6
DASHDOT
 62
     7
 10
66.5098814256489
 20
-128.912100415677
 30
0.0
 11
60.8098813407123
 21
-128.912100415677
 31
0.0
  0
LINE
  5
   3F5
  8
0
  6
CONTINUOUS
 62
     7
 10
112.659882113338
 20
-102.512100022286
 30
0.0
 11
56.6598812788725
 21
-102.512100022286
 31
0.0
  0
LINE
  5
   3F6
  8
0
  6
CONTINUOUS
 62
     7
 10
112.659882113338
 20
-131.31210045144
 30
0.0
 11
56.6598812788725
 21
-131.31210045144
 31
0.0
  0
LINE
  5
   3F7
  8
0
  6
CONTINUOUS
 62
     7
 10
112.659882113338
 20
-87.0120997913182
 30
0.0
 11
56.6598812788725
 21
-87.0120997913182
 31
0.0
  0
LINE
  5
   3F8
  8
0
  6
CONTINUOUS
 62
     7
 10
112.659882113338
 20
-146.812100682408
 30
0.0
 11
56.6598812788725
 21
-146.812100682408
 31
0.0
  0
LINE
  5
   3F9
  8
0
  6
CONTINUOUS
 62
     7
 10
113.059882119298
 20
-87.4120997972786
 30
0.0
 11
113.059882119298
 21
-102.112100016326
 31
0.0
  0
LINE
  5
   3FA
  8
0
  6
CONTINUOUS
 62
     7
 10
56.259881272912
 20
-87.4120997972786
 30
0.0
 11
56.259881272912
 21
-102.112100016326
 31
0.0
  0
LINE
  5
   3FB
  8
0
  6
CONTINUOUS
 62
     7
 10
113.059882119298
 20
-131.7121004574
 30
0.0
 11
113.059882119298
 21
-146.412100676447
 31
0.0
  0
LINE
  5
   3FC
  8
0
  6
CONTINUOUS
 62
     7
 10
56.259881272912
 20
-131.7121004574
 30
0.0
 11
56.259881272912
 21
-146.412100676447
 31
0.0
  0
ARC
  5
   3FD
  8
0
  6
CONTINUOUS
 62
     7
 10
56.6598812788725
 20
-87.4120997972786
 30
0.0
 40
0.400000005960464
 50
449.999999896069
 51
539.999999896069
  0
ARC
  5
   3FE
  8
0
  6
CONTINUOUS
 62
     7
 10
56.6598812788725
 20
-102.112100016326
 30
0.0
 40
0.400000005960464
 50
179.999999896069
 51
269.999999896069
  0
ARC
  5
   3FF
  8
0
  6
CONTINUOUS
 62
     7
 10
112.659882113338
 20
-102.112100016326
 30
0.0
 40
0.400000005960464
 50
269.999999896069
 51
359.999999896069
  0
ARC
  5
   400
  8
0
  6
CONTINUOUS
 62
     7
 10
112.659882113338
 20
-87.4120997972786
 30
0.0
 40
0.400000005960464
 50
359.999999896069
 51
449.999999896069
  0
ARC
  5
   401
  8
0
  6
CONTINUOUS
 62
     7
 10
112.659882113338
 20
-131.7121004574
 30
0.0
 40
0.400000005960464
 50
359.999999896069
 51
449.999999896069
  0
ARC
  5
   402
  8
0
  6
CONTINUOUS
 62
     7
 10
112.659882113338
 20
-146.412100676447
 30
0.0
 40
0.400000005960464
 50
269.999999896069
 51
359.999999896069
  0
ARC
  5
   403
  8
0
  6
CONTINUOUS
 62
     7
 10
56.6598812788725
 20
-146.412100676447
 30
0.0
 40
0.400000005960464
 50
179.999999896069
 51
269.999999896069
  0
ARC
  5
   404
  8
0
  6
CONTINUOUS
 62
     7
 10
56.6598812788725
 20
-131.7121004574
 30
0.0
 40
0.400000005960464
 50
449.999999896069
 51
539.999999896069
  0
LINE
  5
   405
  8
0
  6
CONTINUOUS
 62
     7
 10
116.915729147446
 20
-83.9120997451246
 30
0.0
 11
53.659881234169
 21
-83.9120997451246
 31
0.0
  0
LINE
  5
   406
  8
0
  6
CONTINUOUS
 62
     7
 10
117.243198843803
 20
-149.912100728601
 30
0.0
 11
53.659881234169
 21
-149.912100728601
 31
0.0
  0
LINE
  5
   407
  8
0
  6
CONTINUOUS
 62
     7
 10
115.659882158041
 20
-83.9120997451246
 30
0.0
 11
115.659882158041
 21
-149.912100728601
 31
0.0
  0
LINE
  5
   408
  8
0
  6
CONTINUOUS
 62
     7
 10
53.659881234169
 20
-83.9120997451246
 30
0.0
 11
53.659881234169
 21
-149.912100728601
 31
0.0
  0
TEXT
  5
   409
  8
0
  6
CONTINUOUS
 62
     7
 10
28.7612292751747
 20
-115.729869031063
 30
0.0
 40
2.99999994933605
  1
X
 50
359.999999896069
 41
0.916666607525612
 72
     1
 11
29.861229186991
 21
-114.229869058385
 31
0.0
 73
     2
  0
INSERT
  5
   40A
  8
0
  6
CONTINUOUS
 62
     7
  2
*UDIM1819
 10
0.0
 20
0.0
 30
0.0
  0
INSERT
  5
   40B
  8
0
  6
CONTINUOUS
 62
     7
  2
*UDIM1820
 10
0.0
 20
0.0
 30
0.0
  0
INSERT
  5
   40C
  8
0
  6
CONTINUOUS
 62
     7
  2
*UDIM1821
 10
0.0
 20
0.0
 30
0.0
  0
INSERT
  5
   40D
  8
0
  6
CONTINUOUS
 62
     7
  2
*UDIM1822
 10
0.0
 20
0.0
 30
0.0
  0
TEXT
  5
   40E
  8
0
  6
CONTINUOUS
 62
     7
 10
126.525104485201
 20
-115.926216030577
 30
0.0
 40
2.99999994933605
  1
X
 50
359.999999896069
 41
0.916666607525612
 72
     2
 11
128.725104303407
 21
-115.926216034556
 31
0.0
  0
INSERT
  5
   40F
  8
0
  6
CONTINUOUS
 62
     7
  2
*UDIM1823
 10
0.0
 20
0.0
 30
0.0
  0
INSERT
  5
   410
  8
0
  6
CONTINUOUS
 62
     7
  2
*UDIM1824
 10
0.0
 20
0.0
 30
0.0
  0
INSERT
  5
   411
  8
0
  6
CONTINUOUS
 62
     7
  2
*UDIM1825
 10
0.0
 20
0.0
 30
0.0
  0
INSERT
  5
   412
  8
0
  6
CONTINUOUS
 62
     7
  2
*UDIM1826
 10
0.0
 20
0.0
 30
0.0
  0
INSERT
  5
   413
  8
0
  6
CONTINUOUS
 62
     7
  2
*UDIM1827
 10
0.0
 20
0.0
 30
0.0
  0
INSERT
  5
   414
  8
0
  6
CONTINUOUS
 62
     7
  2
*UDIM1828
 10
0.0
 20
0.0
 30
0.0
  0
INSERT
  5
   415
  8
0
  6
CONTINUOUS
 62
     7
  2
*UDIM1829
 10
0.0
 20
0.0
 30
0.0
  0
TEXT
  5
   416
  8
0
  6
CONTINUOUS
 62
     7
 10
90.7141130458137
 20
-166.202713666962
 30
0.0
 40
2.99999994933605
  1
Y
 50
359.999999896069
 41
0.916666607525612
 72
     2
 11
92.9141128640196
 21
-166.202713670941
 31
0.0
  0
TEXT
  5
   417
  8
0
  6
CONTINUOUS
 62
     7
 10
90.6304948805052
 20
-69.791579417824
 30
0.0
 40
2.99999994933605
  1
Y
 50
359.999999896069
 41
0.916666607525612
 72
     2
 11
92.8304946987111
 21
-69.7915794218036
 31
0.0
  0
LINE
  5
   418
  8
0
  6
CONTINUOUS
 62
     7
 10
142.907679122687
 20
120.605563305396
 30
0.0
 11
127.157679390908
 21
120.605563305396
 31
0.0
  0
LINE
  5
   419
  8
0
  6
CONTINUOUS
 62
     7
 10
142.907679122687
 20
106.605563543814
 30
0.0
 11
127.157679390908
 21
106.605563543814
 31
0.0
  0
LINE
  5
   41A
  8
0
  6
CONTINUOUS
 62
     7
 10
142.907679122687
 20
106.605563543814
 30
0.0
 11
142.907679122687
 21
120.605563305396
 31
0.0
  0
CIRCLE
  5
   41B
  8
0
  6
CONTINUOUS
 62
     7
 10
135.907679241896
 20
113.605563424605
 30
0.0
 40
2.44999995827675
  0
LINE
  5
   41C
  8
0
  6
DASHDOT
 62
     7
 10
135.907679241896
 20
107.655563525933
 30
0.0
 11
135.907679241896
 21
119.555563323277
 31
0.0
  0
LINE
  5
   41D
  8
0
  6
DASHDOT
 62
     7
 10
141.857679140568
 20
113.605563424605
 30
0.0
 11
129.957679343224
 21
113.605563424605
 31
0.0
  0
LINE
  5
   41E
  8
0
  6
DOT
 62
     7
 10
142.907679122687
 20
115.355563394803
 30
0.0
 11
127.157679390908
 21
115.355563394803
 31
0.0
  0
LINE
  5
   41F
  8
0
  6
DOT
 62
     7
 10
142.907679122687
 20
111.855567459839
 30
0.0
 11
127.157679390908
 21
111.855567459839
 31
0.0
  0
LINE
  5
   420
  8
0
  6
CONTINUOUS
 62
   210
 10
100.382679846883
 20
9.8306012407711
 30
0.0
 11
100.382679846883
 21
25.5805582479416
 31
0.0
  0
LINE
  5
   421
  8
0
  6
CONTINUOUS
 62
   210
 10
102.132679817081
 20
9.8306012407711
 30
0.0
 11
102.132679817081
 21
25.5805582479416
 31
0.0
  0
LINE
  5
   422
  8
0
  6
CONTINUOUS
 62
     3
 10
103.882679787278
 20
9.8306012407711
 30
0.0
 11
103.882679787278
 21
25.5805582479416
 31
0.0
  0
LINE
  5
   423
  8
0
  6
CONTINUOUS
 62
     3
 10
103.882679787278
 20
9.8306012407711
 30
0.0
 11
102.132679817081
 21
9.8306012407711
 31
0.0
  0
LINE
  5
   424
  8
0
  6
CONTINUOUS
 62
   210
 10
102.132679817081
 20
9.8306012407711
 30
0.0
 11
100.382679846883
 21
9.8306012407711
 31
0.0
  0
LINE
  5
   425
  8
0
  6
DASHDOT
 62
     2
 10
108.85539447228
 20
16.8305650726733
 30
0.0
 11
94.1796518723043
 21
16.8305650726733
 31
0.0
  0
LINE
  5
   426
  8
0
  6
CONTINUOUS
 62
     3
 10
96.8826745659104
 20
54.6305627600131
 30
0.0
 11
96.5326745927325
 21
54.6305627600131
 31
0.0
  0
LINE
  5
   427
  8
0
  6
CONTINUOUS
 62
     3
 10
96.5326745927325
 20
54.6305627600131
 30
0.0
 11
80.9702465740676
 21
54.6305627600131
 31
0.0
  0
LINE
  5
   428
  8
0
  6
CONTINUOUS
 62
     3
 10
97.4076744457079
 20
54.630562537489
 30
0.0
 11
96.8826744546486
 21
54.630562537489
 31
0.0
  0
LINE
  5
   429
  8
0
  6
CONTINUOUS
 62
     3
 10
80.782693978322
 20
53.9305615436271
 30
0.0
 11
80.9702549952976
 21
54.6305611669747
 31
0.0
  0
LINE
  5
   42A
  8
0
  6
CONTINUOUS
 62
     3
 10
80.9576801776876
 20
53.93056310572
 30
0.0
 11
69.5826963931309
 21
53.93056310572
 31
0.0
  0
LINE
  5
   42B
  8
0
  6
CONTINUOUS
 62
     3
 10
61.8826965242624
 20
53.9305470839918
 30
0.0
 11
61.8826965242624
 21
55.1555555879409
 31
0.0
  0
LINE
  5
   42C
  8
0
  6
CONTINUOUS
 62
     3
 10
61.8826965242624
 20
104.155562250393
 30
0.0
 11
61.8826965242624
 21
115.530540694374
 31
0.0
  0
LINE
  5
   42D
  8
0
  6
CONTINUOUS
 62
     3
 10
63.6326964944601
 20
115.530540694374
 30
0.0
 11
61.8826965242624
 21
115.530540694374
 31
0.0
  0
LINE
  5
   42E
  8
0
  6
CONTINUOUS
 62
     3
 10
64.6827014833688
 20
53.9305470839918
 30
0.0
 11
61.8826965242624
 21
53.9305470839918
 31
0.0
  0
LINE
  5
   42F
  8
0
  6
CONTINUOUS
 62
     3
 10
70.6326963752508
 20
104.155562250393
 30
0.0
 11
70.6326963752508
 21
114.724209502738
 31
0.0
  0
LINE
  5
   430
  8
0
  6
CONTINUOUS
 62
     3
 10
70.6326967089952
 20
113.080550470175
 30
0.0
 11
70.6326970427812
 21
113.255550467195
 31
0.0
  0
LINE
  5
   431
  8
0
  6
CONTINUOUS
 62
     3
 10
69.5826963931322
 20
53.93056310572
 30
0.0
 11
63.6327018350362
 21
53.93056310572
 31
0.0
  0
LINE
  5
   432
  8
0
  6
CONTINUOUS
 62
     3
 10
69.5826963931322
 20
115.005547036279
 30
0.0
 11
69.5826963931322
 21
124.105556570071
 31
0.0
  0
LINE
  5
   433
  8
0
  6
CONTINUOUS
 62
     3
 10
62.9327018469571
 20
115.530551375526
 30
0.0
 11
62.2326941311371
 21
115.530551375526
 31
0.0
  0
LINE
  5
   434
  8
0
  6
CONTINUOUS
 62
     3
 10
63.6326964944601
 20
104.155562250393
 30
0.0
 11
63.6326964944601
 21
115.530540694374
 31
0.0
  0
LINE
  5
   435
  8
0
  6
CONTINUOUS
 62
     3
 10
70.6326971068631
 20
114.724205220275
 30
0.0
 11
69.5826974774641
 21
115.005546745738
 31
0.0
  0
LINE
  5
   436
  8
0
  6
CONTINUOUS
 62
     3
 10
63.6327032962585
 20
112.623475237313
 30
0.0
 11
63.7376990161211
 21
112.668175853016
 31
0.0
  0
LINE
  5
   437
  8
0
  6
CONTINUOUS
 62
     3
 10
63.7376933075483
 20
114.192937382456
 30
0.0
 11
63.6326975822659
 21
114.237632657871
 31
0.0
  0
LINE
  5
   438
  8
0
  6
CONTINUOUS
 62
     3
 10
96.707679909468
 20
31.285557883757
 30
0.0
 11
63.7376815390576
 21
31.285557883757
 31
0.0
  0
LINE
  5
   439
  8
0
  6
CONTINUOUS
 62
     2
 10
96.7076799094667
 20
30.3055581674753
 30
0.0
 11
80.7870968370867
 21
30.3055581674753
 31
0.0
  0
LINE
  5
   43A
  8
0
  6
CONTINUOUS
 62
     2
 10
80.7870861559346
 20
30.3055581674761
 30
0.0
 11
62.7576804876317
 21
30.3055581674761
 31
0.0
  0
LINE
  5
   43B
  8
0
  6
CONTINUOUS
 62
     3
 10
97.4076798975458
 20
54.455557756203
 30
0.0
 11
80.9576801776876
 21
54.455557756203
 31
0.0
  0
LINE
  5
   43C
  8
0
  6
CONTINUOUS
 62
     2
 10
62.7576804876317
 20
30.3055581674751
 30
0.0
 11
62.7576804876317
 21
38.7055526838478
 31
0.0
  0
LINE
  5
   43D
  8
0
  6
CONTINUOUS
 62
     2
 10
63.7376802039136
 20
38.7055526838478
 30
0.0
 11
62.2326804965724
 21
38.7055526838478
 31
0.0
  0
LINE
  5
   43E
  8
0
  6
CONTINUOUS
 62
     3
 10
63.7376802039136
 20
31.285559218901
 30
0.0
 11
63.7376802039136
 21
38.7055526838478
 31
0.0
  0
LINE
  5
   43F
  8
0
  6
CONTINUOUS
 62
     3
 10
80.9576801776876
 20
53.9305524245676
 30
0.0
 11
80.9576801776876
 21
54.455557756203
 31
0.0
  0
LINE
  5
   440
  8
0
  6
CONTINUOUS
 62
     2
 10
63.7376802039136
 20
40.105552660006
 30
0.0
 11
63.7376802039136
 21
53.7555577681242
 31
0.0
  0
LINE
  5
   441
  8
0
  6
CONTINUOUS
 62
     3
 10
77.1951802417626
 20
30.3055581674759
 30
0.0
 11
77.1951802417626
 21
31.2855578837577
 31
0.0
  0
LINE
  5
   442
  8
0
  6
CONTINUOUS
 62
     2
 10
96.7076799094667
 20
29.4305581823765
 30
0.0
 11
96.7076799094667
 21
33.9805581048902
 31
0.0
  0
LINE
  5
   443
  8
0
  6
CONTINUOUS
 62
     3
 10
77.2782582432774
 20
30.3055581674757
 30
0.0
 11
77.2782582432774
 21
31.2855568823996
 31
0.0
  0
LINE
  5
   444
  8
0
  6
CONTINUOUS
 62
     7
 10
61.8826802355041
 20
40.1055524902752
 30
0.0
 11
61.8826802355041
 21
53.7555522578171
 31
0.0
  0
LINE
  5
   445
  8
0
  6
CONTINUOUS
 62
     7
 10
63.7376802039136
 20
53.7555522578171
 30
0.0
 11
61.8826802355041
 21
53.7555522578171
 31
0.0
  0
LINE
  5
   446
  8
0
  6
CONTINUOUS
 62
     7
 10
63.7376802039136
 20
40.1055524902752
 30
0.0
 11
61.8826802355041
 21
40.1055524902752
 31
0.0
  0
LINE
  5
   447
  8
0
  6
CONTINUOUS
 62
     7
 10
62.7576802206029
 20
40.1055524902752
 30
0.0
 11
62.7576802206029
 21
53.7555522578171
 31
0.0
  0
LINE
  5
   448
  8
0
  6
CONTINUOUS
 62
     2
 10
63.7376802039136
 20
38.7055526838478
 30
0.0
 11
63.7376802039136
 21
40.105552660006
 31
0.0
  0
LINE
  5
   449
  8
0
  6
CONTINUOUS
 62
     7
 10
64.6827014833688
 20
53.7555577681242
 30
0.0
 11
64.6827014833688
 21
55.1555577442823
 31
0.0
  0
LINE
  5
   44A
  8
0
  6
CONTINUOUS
 62
     7
 10
64.6827014833688
 20
53.7555577681242
 30
0.0
 11
63.2827013403177
 21
53.7555577681242
 31
0.0
  0
LINE
  5
   44B
  8
0
  6
CONTINUOUS
 62
     7
 10
96.7076799094667
 20
29.4305581823765
 30
0.0
 11
61.8826805025329
 21
29.4305581823765
 31
0.0
  0
LINE
  5
   44C
  8
0
  6
CONTINUOUS
 62
     7
 10
61.8826805025329
 20
29.4305581823765
 30
0.0
 11
61.8826805025329
 21
38.3555526898083
 31
0.0
  0
LINE
  5
   44D
  8
0
  6
CONTINUOUS
 62
     7
 10
62.2326804965724
 20
38.3555526898083
 30
0.0
 11
61.8826805025329
 21
38.3555526898083
 31
0.0
  0
LINE
  5
   44E
  8
0
  6
CONTINUOUS
 62
     7
 10
62.2326804965724
 20
38.3555526898083
 30
0.0
 11
62.2326804965724
 21
38.7055526838478
 31
0.0
  0
LINE
  5
   44F
  8
0
  6
CONTINUOUS
 62
     7
 10
63.807701665163
 20
53.7555577681242
 30
0.0
 11
62.4077013552188
 21
53.7555577681242
 31
0.0
  0
LINE
  5
   450
  8
0
  6
CONTINUOUS
 62
     7
 10
52.0827200554071
 20
59.0055536765477
 30
0.0
 11
52.0827020309622
 21
60.4055629987139
 31
0.0
  0
LINE
  5
   451
  8
0
  6
CONTINUOUS
 62
     3
 10
56.8772469322729
 20
56.5555523812456
 30
0.0
 11
56.9827016137808
 21
56.5555537163896
 31
0.0
  0
LINE
  5
   452
  8
0
  6
CONTINUOUS
 62
     7
 10
52.0827020310187
 20
55.1555550764279
 30
0.0
 11
52.082719387891
 21
56.5555497120099
 31
0.0
  0
LINE
  5
   453
  8
0
  6
CONTINUOUS
 62
     7
 10
98.1076800312187
 20
55.1555137158882
 30
0.0
 11
97.4076800431396
 21
55.1555577756408
 31
0.0
  0
LINE
  5
   454
  8
0
  6
CONTINUOUS
 62
     7
 10
53.8327020019293
 20
55.1555550739943
 30
0.0
 11
95.6576745867734
 21
55.1555577442823
 31
0.0
  0
LINE
  5
   455
  8
0
  6
CONTINUOUS
 62
     7
 10
113.332690307498
 20
104.155562250393
 30
0.0
 11
98.10767454505
 21
104.155562250393
 31
0.0
  0
LINE
  5
   456
  8
0
  6
CONTINUOUS
 62
     7
 10
113.332690307933
 20
55.1554696248433
 30
0.0
 11
98.1076798860614
 21
55.1555136845951
 31
0.0
  0
LINE
  5
   457
  8
0
  6
CONTINUOUS
 62
     7
 10
113.332690307548
 20
55.1554696248074
 30
0.0
 11
113.332695648124
 21
59.0055456624515
 31
0.0
  0
LINE
  5
   458
  8
0
  6
CONTINUOUS
 62
     3
 10
83.7576961517334
 20
92.9555677817043
 30
0.0
 11
52.0827020317315
 21
92.9555677817043
 31
0.0
  0
LINE
  5
   459
  8
0
  6
CONTINUOUS
 62
     3
 10
83.7576961517334
 20
82.45555193879
 30
0.0
 11
71.6826896816493
 21
82.45555193879
 31
0.0
  0
LINE
  5
   45A
  8
0
  6
CONTINUOUS
 62
     7
 10
52.0827193886034
 20
56.5555497095776
 30
0.0
 11
52.0827200561754
 21
59.0055536732864
 31
0.0
  0
LINE
  5
   45B
  8
0
  6
CONTINUOUS
 62
     7
 10
98.10767454505
 20
104.155562250393
 30
0.0
 11
52.0827020317315
 21
104.155562250393
 31
0.0
  0
LINE
  5
   45C
  8
0
  6
CONTINUOUS
 62
     7
 10
52.0827020317315
 20
92.9555677817043
 30
0.0
 11
52.0827020317315
 21
104.155562250393
 31
0.0
  0
LINE
  5
   45D
  8
0
  6
CONTINUOUS
 62
     3
 10
87.8701747195098
 20
56.5555710719091
 30
0.0
 11
96.7076799095842
 21
56.5555870936372
 31
0.0
  0
LINE
  5
   45E
  8
0
  6
CONTINUOUS
 62
     3
 10
73.5639463253416
 20
56.5555630610202
 30
0.0
 11
86.4701747432452
 21
56.555571071884
 31
0.0
  0
LINE
  5
   45F
  8
0
  6
CONTINUOUS
 62
     3
 10
53.4827400594987
 20
56.5555497095801
 30
0.0
 11
72.1639470167503
 21
56.5555617258761
 31
0.0
  0
LINE
  5
   460
  8
0
  6
CONTINUOUS
 62
     3
 10
53.4827433973588
 20
58.13055368819
 30
0.0
 11
72.1639476843223
 21
58.1305657044864
 31
0.0
  0
LINE
  5
   461
  8
0
  6
CONTINUOUS
 62
     3
 10
73.5639476604856
 20
58.1305670396304
 30
0.0
 11
86.4701774135332
 21
58.1305750504943
 31
0.0
  0
LINE
  5
   462
  8
0
  6
CONTINUOUS
 62
     3
 10
87.8701773896946
 20
58.1305763856381
 30
0.0
 11
96.7076799094809
 21
58.1305817262142
 31
0.0
  0
LINE
  5
   463
  8
0
  6
CONTINUOUS
 62
     3
 10
53.4827400594829
 20
56.5555497096259
 30
0.0
 11
53.482742729771
 21
58.1305536882358
 31
0.0
  0
LINE
  5
   464
  8
0
  6
CONTINUOUS
 62
     3
 10
96.707679909468
 20
56.5555870936089
 30
0.0
 11
96.707679909468
 21
58.1305817262107
 31
0.0
  0
LINE
  5
   465
  8
0
  6
CONTINUOUS
 62
     3
 10
87.8701747194317
 20
56.5555710719347
 30
0.0
 11
87.8701773897198
 21
58.1305830614088
 31
0.0
  0
LINE
  5
   466
  8
0
  6
CONTINUOUS
 62
     3
 10
86.4701747432716
 20
56.5555710719302
 30
0.0
 11
86.4701774135597
 21
58.1305817262603
 31
0.0
  0
LINE
  5
   467
  8
0
  6
CONTINUOUS
 62
     3
 10
73.5639463253363
 20
56.55556306103
 30
0.0
 11
73.5639476604803
 21
58.1305737153601
 31
0.0
  0
LINE
  5
   468
  8
0
  6
CONTINUOUS
 62
     3
 10
72.1639470167497
 20
56.5555617258849
 30
0.0
 11
72.1639483518937
 21
58.130573715359
 31
0.0
  0
LINE
  5
   469
  8
0
  6
CONTINUOUS
 62
     7
 10
64.6827014833688
 20
53.7555577681242
 30
0.0
 11
64.6827014833688
 21
55.1555577442823
 31
0.0
  0
LINE
  5
   46A
  8
0
  6
CONTINUOUS
 62
     7
 10
64.6827014833688
 20
53.7555577681242
 30
0.0
 11
63.2827013403177
 21
53.7555577681242
 31
0.0
  0
LINE
  5
   46B
  8
0
  6
CONTINUOUS
 62
     7
 10
92.5952013418078
 20
53.7555764601404
 30
0.0
 11
92.5952013418078
 21
55.1555524037062
 31
0.0
  0
LINE
  5
   46C
  8
0
  6
CONTINUOUS
 62
     7
 10
93.9952013179659
 20
53.7555764601404
 30
0.0
 11
93.9952013179659
 21
55.1555524037062
 31
0.0
  0
LINE
  5
   46D
  8
0
  6
CONTINUOUS
 62
     7
 10
93.9952013179659
 20
53.7555764601404
 30
0.0
 11
92.5952013418078
 21
53.7555764601404
 31
0.0
  0
LINE
  5
   46E
  8
0
  6
CONTINUOUS
 62
     7
 10
53.8327020019292
 20
53.4930577725945
 30
0.0
 11
53.8327020019292
 21
54.3680577576934
 31
0.0
  0
LINE
  5
   46F
  8
0
  6
CONTINUOUS
 62
     7
 10
52.0827020317315
 20
53.4930577725945
 30
0.0
 11
52.0827020317315
 21
55.1555550739943
 31
0.0
  0
LINE
  5
   470
  8
0
  6
CONTINUOUS
 62
     7
 10
53.8327020019292
 20
53.4930577725945
 30
0.0
 11
52.0827020317315
 21
53.4930577725945
 31
0.0
  0
LINE
  5
   471
  8
0
  6
CONTINUOUS
 62
     7
 10
53.8327020019292
 20
54.3680577576934
 30
0.0
 11
53.8327020019292
 21
55.1555577442823
 31
0.0
  0
LINE
  5
   472
  8
0
  6
CONTINUOUS
 62
     7
 10
95.6576692461972
 20
53.4930577725945
 30
0.0
 11
95.6576692461972
 21
54.3680577576934
 31
0.0
  0
LINE
  5
   473
  8
0
  6
CONTINUOUS
 62
     7
 10
97.4076692163949
 20
53.4930577725945
 30
0.0
 11
95.6576692461972
 21
53.4930577725945
 31
0.0
  0
LINE
  5
   474
  8
0
  6
CONTINUOUS
 62
     7
 10
97.4076692171389
 20
53.4930577731794
 30
0.0
 11
97.4076798982912
 21
55.1555577448672
 31
0.0
  0
LINE
  5
   475
  8
0
  6
CONTINUOUS
 62
     7
 10
95.657669246986
 20
54.3680577583853
 30
0.0
 11
95.657674587562
 21
55.1555524043982
 31
0.0
  0
LINE
  5
   476
  8
0
  6
CONTINUOUS
 62
     3
 10
54.5326993655446
 20
96.9805737525527
 30
0.0
 11
53.4826993603604
 21
98.030573757737
 31
0.0
  0
LINE
  5
   477
  8
0
  6
CONTINUOUS
 62
     7
 10
52.0827020317315
 20
60.4055629954514
 30
0.0
 11
52.0827020317315
 21
82.4555599496541
 31
0.0
  0
LINE
  5
   478
  8
0
  6
CONTINUOUS
 62
     3
 10
71.6826883465051
 20
82.4555572793665
 30
0.0
 11
52.0827020317313
 21
82.4555599496545
 31
0.0
  0
LINE
  5
   479
  8
0
  6
CONTINUOUS
 62
     3
 10
83.7576961517334
 20
82.45555193879
 30
0.0
 11
83.7576961517334
 21
92.9555677817043
 31
0.0
  0
LINE
  5
   47A
  8
0
  6
CONTINUOUS
 62
     3
 10
87.8701747194065
 20
99.5180623293804
 30
0.0
 11
96.7076799094809
 21
99.5180676699566
 31
0.0
  0
LINE
  5
   47B
  8
0
  6
CONTINUOUS
 62
     3
 10
87.8701747193936
 20
96.9805623725829
 30
0.0
 11
87.8701747193936
 21
99.5180623293695
 31
0.0
  0
LINE
  5
   47C
  8
0
  6
CONTINUOUS
 62
     3
 10
87.8701747194065
 20
96.9805623725933
 30
0.0
 11
96.7076799094809
 21
96.9805677131695
 31
0.0
  0
LINE
  5
   47D
  8
0
  6
CONTINUOUS
 62
     3
 10
96.707679909468
 20
96.980567713159
 30
0.0
 11
96.707679909468
 21
99.5180676699456
 31
0.0
  0
LINE
  5
   47E
  8
0
  6
CONTINUOUS
 62
     3
 10
72.1639470167458
 20
96.980567713159
 30
0.0
 11
72.1639470167458
 21
99.5180676699456
 31
0.0
  0
LINE
  5
   47F
  8
0
  6
CONTINUOUS
 62
     3
 10
86.4701747432355
 20
96.980567713159
 30
0.0
 11
72.1639463491738
 21
96.980567713159
 31
0.0
  0
LINE
  5
   480
  8
0
  6
CONTINUOUS
 62
     3
 10
86.4701747432355
 20
96.980567713159
 30
0.0
 11
86.4701747432355
 21
99.5180676699456
 31
0.0
  0
LINE
  5
   481
  8
0
  6
CONTINUOUS
 62
     3
 10
86.4701747432355
 20
99.5180676699456
 30
0.0
 11
72.1639463491738
 21
99.5180676699456
 31
0.0
  0
LINE
  5
   482
  8
0
  6
CONTINUOUS
 62
     3
 10
70.7639470405877
 20
96.980567713159
 30
0.0
 11
53.4827026754617
 21
96.980567713159
 31
0.0
  0
LINE
  5
   483
  8
0
  6
CONTINUOUS
 62
     3
 10
70.7639470405877
 20
96.980567713159
 30
0.0
 11
70.7639470405877
 21
99.5180676699456
 31
0.0
  0
LINE
  5
   484
  8
0
  6
CONTINUOUS
 62
     3
 10
70.7639470405877
 20
99.5180676699456
 30
0.0
 11
53.4827026754617
 21
99.5180676699456
 31
0.0
  0
LINE
  5
   485
  8
0
  6
CONTINUOUS
 62
     3
 10
53.4827020078897
 20
96.980567713159
 30
0.0
 11
53.4827020078897
 21
99.5180676699456
 31
0.0
  0
LINE
  5
   486
  8
0
  6
CONTINUOUS
 62
     3
 10
56.982701614499
 20
56.5555537150084
 30
0.0
 11
56.982701614499
 21
58.1305616990504
 31
0.0
  0
LINE
  5
   487
  8
0
  6
CONTINUOUS
 62
     3
 10
58.3827025920152
 20
56.5555537150084
 30
0.0
 11
58.3827025920152
 21
58.1305630341944
 31
0.0
  0
LINE
  5
   488
  8
0
  6
CONTINUOUS
 62
     3
 10
53.482838860151
 20
56.5555403635713
 30
0.0
 11
53.482839527723
 21
58.1305536881894
 31
0.0
  0
LINE
  5
   489
  8
0
  6
CONTINUOUS
 62
     7
 10
52.082702031664
 20
55.1555363822083
 30
0.0
 11
52.0827033668081
 21
55.5055617439843
 31
0.0
  0
LINE
  5
   48A
  8
0
  6
CONTINUOUS
 62
     7
 10
98.1076772238946
 20
55.1555136863728
 30
0.0
 11
97.4076799061036
 21
55.155524367525
 31
0.0
  0
LINE
  5
   48B
  8
0
  6
CONTINUOUS
 62
     7
 10
113.332695648075
 20
59.0055456624213
 30
0.0
 11
113.332690307499
 21
104.15556091525
 31
0.0
  0
LINE
  5
   48C
  8
0
  6
CONTINUOUS
 62
     3
 10
87.8883967649817
 20
56.5555643961606
 30
0.0
 11
87.8883967649817
 21
58.1305763856346
 31
0.0
  0
LINE
  5
   48D
  8
0
  6
CONTINUOUS
 62
     3
 10
86.469750167437
 20
56.5555483744323
 30
0.0
 11
86.469750167437
 21
58.1305750504906
 31
0.0
  0
LINE
  5
   48E
  8
0
  6
CONTINUOUS
 62
     3
 10
67.8326804012063
 20
70.1180468083203
 30
0.0
 11
63.1077018439769
 21
70.1180468083203
 31
0.0
  0
LINE
  5
   48F
  8
0
  6
CONTINUOUS
 62
     3
 10
67.8326804012063
 20
66.4430468709052
 30
0.0
 11
63.1077018439769
 21
66.4430468709052
 31
0.0
  0
LINE
  5
   490
  8
0
  6
CONTINUOUS
 62
     3
 10
63.1077016770839
 20
66.4430468709052
 30
0.0
 11
63.1077016770839
 21
70.1180468083203
 31
0.0
  0
LINE
  5
   491
  8
0
  6
CONTINUOUS
 62
     3
 10
67.8326804012063
 20
66.4430468709052
 30
0.0
 11
67.8326804012063
 21
70.1180468083203
 31
0.0
  0
LINE
  5
   492
  8
0
  6
CONTINUOUS
 62
   130
 10
58.2076932489873
 20
106.78056220569
 30
0.0
 11
48.2326927512885
 21
106.78056220569
 31
0.0
  0
LINE
  5
   493
  8
0
  6
CONTINUOUS
 62
   130
 10
58.2076932489873
 20
105.730562223571
 30
0.0
 11
58.2076932489873
 21
106.78056220569
 31
0.0
  0
LINE
  5
   494
  8
0
  6
CONTINUOUS
 62
   130
 10
58.2076932489873
 20
104.155562250393
 30
0.0
 11
58.2076932489873
 21
105.730562223571
 31
0.0
  0
LINE
  5
   495
  8
0
  6
CONTINUOUS
 62
     3
 10
58.2076932489873
 20
57.7805643752989
 30
0.0
 11
58.2076932489873
 21
58.1305563584743
 31
0.0
  0
LINE
  5
   496
  8
0
  6
CONTINUOUS
 62
     3
 10
58.2076932489873
 20
57.7805643752989
 30
0.0
 11
56.982701614499
 21
57.7805643752989
 31
0.0
  0
LINE
  5
   497
  8
0
  6
CONTINUOUS
 62
   130
 10
52.0827200561758
 20
57.7805643752989
 30
0.0
 11
48.2326914161445
 21
57.7805643752989
 31
0.0
  0
LINE
  5
   498
  8
0
  6
CONTINUOUS
 62
   130
 10
46.307692784071
 20
106.080562217611
 30
0.0
 11
46.307692784071
 21
106.78056220569
 31
0.0
  0
LINE
  5
   499
  8
0
  6
CONTINUOUS
 62
     3
 10
58.3827025920152
 20
57.7805630401549
 30
0.0
 11
58.2076932489873
 21
57.7805630401549
 31
0.0
  0
LINE
  5
   49A
  8
0
  6
CONTINUOUS
 62
     2
 10
61.8826930195094
 20
106.78056220569
 30
0.0
 11
58.2076930820943
 21
106.78056220569
 31
0.0
  0
LINE
  5
   49B
  8
0
  6
CONTINUOUS
 62
     3
 10
54.5327433794723
 20
56.5555590555878
 30
0.0
 11
54.5327427119003
 21
58.1305603639098
 31
0.0
  0
LINE
  5
   49C
  8
0
  6
CONTINUOUS
 62
     3
 10
96.707679909468
 20
97.5055677042183
 30
0.0
 11
87.8701800599697
 21
97.5055677042183
 31
0.0
  0
LINE
  5
   49D
  8
0
  6
CONTINUOUS
 62
     3
 10
86.4701774135235
 20
97.5055677042183
 30
0.0
 11
72.1639503546059
 21
97.5055677042183
 31
0.0
  0
LINE
  5
   49E
  8
0
  6
CONTINUOUS
 62
     3
 10
70.7639503784477
 20
97.5055677042183
 30
0.0
 11
54.5327019900083
 21
97.5055677042183
 31
0.0
  0
LINE
  5
   49F
  8
0
  6
CONTINUOUS
 62
     3
 10
54.2702032553128
 20
97.2430733367205
 30
0.0
 11
54.5327032566088
 21
97.5055733380166
 31
0.0
  0
LINE
  5
   4A0
  8
0
  6
CONTINUOUS
 62
     3
 10
54.5327019900083
 20
97.5055677042183
 30
0.0
 11
54.5327019900083
 21
99.5180676699456
 31
0.0
  0
LINE
  5
   4A1
  8
0
  6
CONTINUOUS
 62
     3
 10
63.9827016621827
 20
67.3617968552589
 30
0.0
 11
63.9827016621827
 21
67.8049658693183
 31
0.0
  0
LINE
  5
   4A2
  8
0
  6
CONTINUOUS
 62
     3
 10
63.9827016621827
 20
67.8049658693183
 30
0.0
 11
63.9827016621827
 21
68.2805468396127
 31
0.0
  0
LINE
  5
   4A3
  8
0
  6
CONTINUOUS
 62
     3
 10
63.9827016621827
 20
68.2805468396127
 30
0.0
 11
63.9827016621827
 21
68.7561278099072
 31
0.0
  0
LINE
  5
   4A4
  8
0
  6
CONTINUOUS
 62
     3
 10
63.9827016621827
 20
68.7561278099072
 30
0.0
 11
63.9827016621827
 21
69.1992968239665
 31
0.0
  0
LINE
  5
   4A5
  8
0
  6
CONTINUOUS
 62
     3
 10
63.9827016621827
 20
69.1992968239665
 30
0.0
 11
63.9827016621827
 21
69.5798555943411
 31
0.0
  0
LINE
  5
   4A6
  8
0
  6
CONTINUOUS
 62
     3
 10
63.9827016621827
 20
69.5798555943411
 30
0.0
 11
63.9827016621827
 21
69.8718676132939
 31
0.0
  0
LINE
  5
   4A7
  8
0
  6
CONTINUOUS
 62
     3
 10
63.9827016621827
 20
69.8718676132939
 30
0.0
 11
63.9827016621827
 21
70.0554365646356
 31
0.0
  0
LINE
  5
   4A8
  8
0
  6
CONTINUOUS
 62
     3
 10
63.9827016621827
 20
70.0554365646356
 30
0.0
 11
63.9827016621827
 21
70.1180468083203
 31
0.0
  0
LINE
  5
   4A9
  8
0
  6
CONTINUOUS
 62
     3
 10
63.9827016621827
 20
66.4430468709052
 30
0.0
 11
63.9827016621827
 21
66.5056571145899
 31
0.0
  0
LINE
  5
   4AA
  8
0
  6
CONTINUOUS
 62
     3
 10
63.9827016621827
 20
66.5056571145899
 30
0.0
 11
63.9827016621827
 21
66.6892260659315
 31
0.0
  0
LINE
  5
   4AB
  8
0
  6
CONTINUOUS
 62
     3
 10
63.9827016621827
 20
66.6892260659315
 30
0.0
 11
63.9827016621827
 21
66.9812380848844
 31
0.0
  0
LINE
  5
   4AC
  8
0
  6
CONTINUOUS
 62
     3
 10
63.9827016621827
 20
66.9812380848844
 30
0.0
 11
63.9827016621827
 21
67.3617968552589
 31
0.0
  0
LINE
  5
   4AD
  8
0
  6
CONTINUOUS
 62
     7
 10
52.0827020317306
 20
82.4555599496544
 30
0.0
 11
52.0827020317306
 21
92.9555677817042
 31
0.0
  0
LINE
  5
   4AE
  8
0
  6
CONTINUOUS
 62
     7
 10
46.307692784071
 20
102.580562277215
 30
0.0
 11
46.307692784071
 21
106.080562217611
 31
0.0
  0
CIRCLE
  5
   4AF
  8
0
  6
CONTINUOUS
 62
     7
 10
56.282674596055
 20
77.2055471386571
 30
0.0
 40
3.49999920427875
  0
CIRCLE
  5
   4B0
  8
0
  6
CONTINUOUS
 62
     7
 10
56.282674445743
 20
77.2055468847477
 30
0.0
 40
0.962500513221885
  0
CIRCLE
  5
   4B1
  8
0
  6
CONTINUOUS
 62
     7
 10
106.157678341341
 20
96.1055754904352
 30
0.0
 40
2.10000119521557
  0
CIRCLE
  5
   4B2
  8
0
  6
CONTINUOUS
 62
     7
 10
106.157680936279
 20
96.1055720525265
 30
0.0
 40
1.13749792246321
  0
CIRCLE
  5
   4B3
  8
0
  6
CONTINUOUS
 62
     7
 10
106.157678360062
 20
61.1055600047571
 30
0.0
 40
2.10000165327577
  0
CIRCLE
  5
   4B4
  8
0
  6
CONTINUOUS
 62
     7
 10
106.157676533108
 20
61.1055617734413
 30
0.0
 40
1.13749951227535
  0
LINE
  5
   4B5
  8
0
  6
DASHDOT
 62
     7
 10
106.157678360062
 20
58.6555583574418
 30
0.0
 11
106.157678360062
 21
63.5555616520724
 31
0.0
  0
LINE
  5
   4B6
  8
0
  6
DASHDOT
 62
     7
 10
108.607680007378
 20
61.1055600047571
 30
0.0
 11
103.707676712747
 21
61.1055600047571
 31
0.0
  0
LINE
  5
   4B7
  8
0
  6
DASHDOT
 62
     7
 10
106.157678341341
 20
93.6555743011801
 30
0.0
 11
106.157678341341
 21
98.5555766796903
 31
0.0
  0
LINE
  5
   4B8
  8
0
  6
DASHDOT
 62
     7
 10
108.607679530596
 20
96.1055754904352
 30
0.0
 11
103.707677152085
 21
96.1055754904352
 31
0.0
  0
LINE
  5
   4B9
  8
0
  6
DASHDOT
 62
     7
 10
56.282674596055
 20
73.3555479403388
 30
0.0
 11
56.282674596055
 21
81.0555463369754
 31
0.0
  0
LINE
  5
   4BA
  8
0
  6
DASHDOT
 62
     7
 10
60.1326737943732
 20
77.2055471386571
 30
0.0
 11
52.4326753977367
 21
77.2055471386571
 31
0.0
  0
LINE
  5
   4BB
  8
0
  6
CONTINUOUS
 62
     3
 10
78.5076962411404
 20
82.45555193879
 30
0.0
 11
78.5076962411404
 21
92.9555677817043
 31
0.0
  0
LINE
  5
   4BC
  8
0
  6
DASHDOT
 62
     2
 10
126.161062131782
 20
82.2805639580664
 30
0.0
 11
25.6962959733367
 21
82.2805639580664
 31
0.0
  0
LINE
  5
   4BD
  8
0
  6
DASHDOT
 62
     2
 10
122.293063160508
 20
98.2055623517213
 30
0.0
 11
110.47454149272
 21
98.2055623517213
 31
0.0
  0
LINE
  5
   4BE
  8
0
  6
DASHDOT
 62
     2
 10
123.040944463334
 20
56.205565737265
 30
0.0
 11
110.47454149272
 21
56.205565737265
 31
0.0
  0
LINE
  5
   4BF
  8
0
  6
DASHDOT
 62
     2
 10
122.907062857584
 20
77.2055627093491
 30
0.0
 11
106.97368710117
 21
77.2055627093491
 31
0.0
  0
LINE
  5
   4C0
  8
0
  6
DOT
 62
     7
 10
114.732679602504
 20
15.04388375611
 30
0.0
 11
114.732679602504
 21
173.336494448102
 31
0.0
  0
LINE
  5
   4C1
  8
0
  6
DOT
 62
     7
 10
115.782679584623
 20
15.3078004383238
 30
0.0
 11
115.782679584623
 21
171.371675030121
 31
0.0
  0
LINE
  5
   4C2
  8
0
  6
DOT
 62
     7
 10
121.732679483295
 20
101.530562295097
 30
0.0
 11
121.732679483295
 21
102.580562277215
 31
0.0
  0
LINE
  5
   4C3
  8
0
  6
CONTINUOUS
 62
     7
 10
118.582679536939
 20
100.722062308866
 30
0.0
 11
115.782679584623
 21
100.722062308866
 31
0.0
  0
LINE
  5
   4C4
  8
0
  6
CONTINUOUS
 62
     7
 10
118.582679536939
 20
95.689062394577
 30
0.0
 11
115.782679584623
 21
95.689062394577
 31
0.0
  0
LINE
  5
   4C5
  8
0
  6
CONTINUOUS
 62
     7
 10
118.582679536939
 20
95.689062394577
 30
0.0
 11
118.582679536939
 21
100.722062308866
 31
0.0
  0
LINE
  5
   4C6
  8
0
  6
CONTINUOUS
 62
     7
 10
118.582679536939
 20
53.6890631098327
 30
0.0
 11
118.582679536939
 21
58.7220630241213
 31
0.0
  0
LINE
  5
   4C7
  8
0
  6
CONTINUOUS
 62
     7
 10
118.582679536939
 20
53.6890631098327
 30
0.0
 11
115.782679584623
 21
53.6890631098327
 31
0.0
  0
LINE
  5
   4C8
  8
0
  6
CONTINUOUS
 62
     7
 10
118.582679536939
 20
58.7220630241213
 30
0.0
 11
115.782679584623
 21
58.7220630241213
 31
0.0
  0
LINE
  5
   4C9
  8
0
  6
CONTINUOUS
 62
     7
 10
48.2326914161445
 20
30.4096715513221
 30
0.0
 11
48.2326914161445
 21
50.2555645034489
 31
0.0
  0
LINE
  5
   4CA
  8
0
  6
CONTINUOUS
 62
     7
 10
47.5326914280654
 20
30.2638700270875
 30
0.0
 11
47.5326914280654
 21
54.1055631027398
 31
0.0
  0
LINE
  5
   4CB
  8
0
  6
CONTINUOUS
 62
     7
 10
49.6813565970009
 20
173.142837179601
 30
0.0
 11
46.5192506075736
 21
174.009866241218
 31
0.0
  0
LINE
  5
   4CC
  8
0
  6
CONTINUOUS
 62
     7
 10
47.5326914280654
 20
54.1055631027398
 30
0.0
 11
47.5326914280654
 21
173.731987306567
 31
0.0
  0
LINE
  5
   4CD
  8
0
  6
CONTINUOUS
 62
     7
 10
51.0326927036048
 20
66.0056343302891
 30
0.0
 11
51.0326927036048
 21
70.5555621550259
 31
0.0
  0
LINE
  5
   4CE
  8
0
  6
CONTINUOUS
 62
     1
 10
46.307692784071
 20
47.9805645421919
 30
0.0
 11
46.307692784071
 21
65.6555622384724
 31
0.0
  0
LINE
  5
   4CF
  8
0
  6
CONTINUOUS
 62
     1
 10
46.307692784071
 20
75.7180620671091
 30
0.0
 11
46.307692784071
 21
116.580563373941
 31
0.0
  0
LINE
  5
   4D0
  8
0
  6
CONTINUOUS
 62
     1
 10
48.2326927512885
 20
83.330564607757
 30
0.0
 11
48.2326927512885
 21
112.205563448447
 31
0.0
  0
LINE
  5
   4D1
  8
0
  6
CONTINUOUS
 62
     1
 10
48.2326927512885
 20
70.5555621550259
 30
0.0
 11
48.2326927512885
 21
81.2305673138079
 31
0.0
  0
LINE
  5
   4D2
  8
0
  6
CONTINUOUS
 62
     7
 10
49.8076927244664
 20
112.407634825621
 30
0.0
 11
49.8076927244664
 21
114.10349203551
 31
0.0
  0
LINE
  5
   4D3
  8
0
  6
CONTINUOUS
 62
     7
 10
49.8076927244664
 20
81.4326360206938
 30
0.0
 11
49.8076927244664
 21
83.128490560295
 31
0.0
  0
LINE
  5
   4D4
  8
0
  6
CONTINUOUS
 62
     7
 10
46.6576927781106
 20
65.6555622384724
 30
0.0
 11
46.307692784071
 21
65.6555622384724
 31
0.0
  0
LINE
  5
   4D5
  8
0
  6
CONTINUOUS
 62
     7
 10
46.6576927781106
 20
64.2555622623143
 30
0.0
 11
46.6576927781106
 21
65.6555622384724
 31
0.0
  0
LINE
  5
   4D6
  8
0
  6
CONTINUOUS
 62
     7
 10
47.0076927721501
 20
64.2555622623143
 30
0.0
 11
46.6576927781106
 21
64.2555622623143
 31
0.0
  0
LINE
  5
   4D7
  8
0
  6
CONTINUOUS
 62
     7
 10
47.0076927721501
 20
64.2555622623143
 30
0.0
 11
47.0076927721501
 21
72.3055621252236
 31
0.0
  0
LINE
  5
   4D8
  8
0
  6
CONTINUOUS
 62
     7
 10
47.0076927721501
 20
72.3055621252236
 30
0.0
 11
46.6576927781106
 21
72.3055621252236
 31
0.0
  0
LINE
  5
   4D9
  8
0
  6
CONTINUOUS
 62
     7
 10
46.6576927781106
 20
70.9055621490655
 30
0.0
 11
46.6576927781106
 21
72.3055621252236
 31
0.0
  0
LINE
  5
   4DA
  8
0
  6
CONTINUOUS
 62
     7
 10
46.6576927781106
 20
70.9055621490655
 30
0.0
 11
46.307692784071
 21
70.9055621490655
 31
0.0
  0
LINE
  5
   4DB
  8
0
  6
CONTINUOUS
 62
     7
 10
51.0326927036048
 20
66.0056343302891
 30
0.0
 11
47.5326927632094
 21
66.0056343302891
 31
0.0
  0
LINE
  5
   4DC
  8
0
  6
CONTINUOUS
 62
     7
 10
51.0326927036048
 20
70.5555621550259
 30
0.0
 11
47.5326927632094
 21
70.5555621550259
 31
0.0
  0
LINE
  5
   4DD
  8
0
  6
CONTINUOUS
 62
     1
 10
46.307692784071
 20
70.9055621490655
 30
0.0
 11
46.307692784071
 21
75.7180647373971
 31
0.0
  0
LINE
  5
   4DE
  8
0
  6
CONTINUOUS
 62
     7
 10
49.4576927304269
 20
112.205563448447
 30
0.0
 11
47.5326927632094
 21
112.205563448447
 31
0.0
  0
LINE
  5
   4DF
  8
0
  6
CONTINUOUS
 62
     7
 10
49.4576927304269
 20
114.305563412684
 30
0.0
 11
47.5326927632094
 21
114.305563412684
 31
0.0
  0
LINE
  5
   4E0
  8
0
  6
CONTINUOUS
 62
     7
 10
49.4576927304269
 20
112.205562734308
 30
0.0
 11
49.4576927304269
 21
114.305562818738
 31
0.0
  0
LINE
  5
   4E1
  8
0
  6
CONTINUOUS
 62
     7
 10
49.457692666932
 20
112.20556269765
 30
0.0
 11
49.8076926724959
 21
112.407634077357
 31
0.0
  0
LINE
  5
   4E2
  8
0
  6
CONTINUOUS
 62
     7
 10
49.8076932389117
 20
114.10349114867
 30
0.0
 11
49.4576932333477
 21
114.305562528378
 31
0.0
  0
LINE
  5
   4E3
  8
0
  6
CONTINUOUS
 62
     7
 10
49.4576927304269
 20
81.2305646435198
 30
0.0
 11
47.5326927632094
 21
81.2305646435198
 31
0.0
  0
LINE
  5
   4E4
  8
0
  6
CONTINUOUS
 62
     7
 10
49.4576927304269
 20
83.330564607757
 30
0.0
 11
47.5326927632094
 21
83.330564607757
 31
0.0
  0
LINE
  5
   4E5
  8
0
  6
CONTINUOUS
 62
     7
 10
49.4576927304269
 20
81.2305646435198
 30
0.0
 11
49.4576927304269
 21
83.330564607757
 31
0.0
  0
LINE
  5
   4E6
  8
0
  6
CONTINUOUS
 62
     7
 10
49.4576927780327
 20
81.2305642134433
 30
0.0
 11
49.8076927835966
 21
81.4326355931508
 31
0.0
  0
LINE
  5
   4E7
  8
0
  6
CONTINUOUS
 62
     7
 10
49.8076932843259
 20
83.1284897723793
 30
0.0
 11
49.4576932787623
 21
83.3305638190407
 31
0.0
  0
LINE
  5
   4E8
  8
0
  6
CONTINUOUS
 62
     7
 10
48.2326914161445
 20
52.3555644676861
 30
0.0
 11
48.2326914161445
 21
66.0056343302891
 31
0.0
  0
LINE
  5
   4E9
  8
0
  6
CONTINUOUS
 62
     7
 10
48.2326927512885
 20
65.6556343362495
 30
0.0
 11
47.5326927632094
 21
65.6556343362495
 31
0.0
  0
LINE
  5
   4EA
  8
0
  6
CONTINUOUS
 62
     7
 10
48.2326927512885
 20
70.9055621490655
 30
0.0
 11
47.5326927632094
 21
70.9055621490655
 31
0.0
  0
LINE
  5
   4EB
  8
0
  6
CONTINUOUS
 62
     7
 10
48.2326927512885
 20
83.5055646047768
 30
0.0
 11
47.5326927632094
 21
83.5055646047768
 31
0.0
  0
LINE
  5
   4EC
  8
0
  6
CONTINUOUS
 62
     7
 10
48.2326927512885
 20
81.0555646465001
 30
0.0
 11
47.5326927632094
 21
81.0555646465001
 31
0.0
  0
LINE
  5
   4ED
  8
0
  6
CONTINUOUS
 62
     7
 10
48.2326914161445
 20
114.305563412684
 30
0.0
 11
48.2326914161445
 21
173.540051825964
 31
0.0
  0
LINE
  5
   4EE
  8
0
  6
CONTINUOUS
 62
     7
 10
48.2326914161445
 20
114.480563409704
 30
0.0
 11
47.5326927632094
 21
114.480563409704
 31
0.0
  0
LINE
  5
   4EF
  8
0
  6
CONTINUOUS
 62
     7
 10
48.2326914161445
 20
112.030563451427
 30
0.0
 11
47.5326927632094
 21
112.030563451427
 31
0.0
  0
LINE
  5
   4F0
  8
0
  6
CONTINUOUS
 62
   130
 10
46.307692784071
 20
65.6555622384724
 30
0.0
 11
46.307692784071
 21
70.9055621490655
 31
0.0
  0
LINE
  5
   4F1
  8
0
  6
CONTINUOUS
 62
     7
 10
45.2820482346934
 20
29.7950882932445
 30
0.0
 11
50.511441410115
 21
30.8843075915057
 31
0.0
  0
INSERT
  5
   4F2
  8
0
  6
CONTINUOUS
 62
     7
  2
*HATCH343
 10
61.3576965332031
 20
39.3225975036621
 30
0.0
 41
0.349999994039536
 42
0.349999994039536
 50
89.9999999480344
 43
0.349999994039536
  0
INSERT
  5
   4F3
  8
255
  6
CONTINUOUS
 62
     7
  2
BASETT
 10
97.407679897547
 20
25.5805690805007
 30
0.0
 41
0.349999994039536
 42
0.349999994039536
 50
3.50835464724173E-15
 43
0.349999994039536
  0
LINE
  5
   4F4
  8
0
  6
DOT
 62
     7
 10
121.732679483295
 20
102.580562277215
 30
0.0
 11
116.307679575682
 21
102.580562277215
 31
0.0
  0
LINE
  5
   4F5
  8
0
  6
DOT
 62
     7
 10
121.732679483295
 20
101.530562295097
 30
0.0
 11
116.307679575682
 21
101.530562295097
 31
0.0
  0
LINE
  5
   4F6
  8
0
  6
DOT
 62
     7
 10
121.732679483295
 20
51.8305631414828
 30
0.0
 11
116.307679575682
 21
51.8305631414828
 31
0.0
  0
LINE
  5
   4F7
  8
0
  6
DOT
 62
     7
 10
121.732679483295
 20
52.8805631236014
 30
0.0
 11
116.307679575682
 21
52.8805631236014
 31
0.0
  0
LINE
  5
   4F8
  8
0
  6
DOT
 62
     7
 10
121.732679483295
 20
51.8305631414828
 30
0.0
 11
121.732679483295
 21
52.8805631236014
 31
0.0
  0
ARC
  5
   4F9
  8
0
  6
DOT
 62
     7
 10
116.307679575682
 20
53.4055631146607
 30
0.0
 40
0.524999991059303
 50
179.999999948034
 51
269.999999948034
  0
ARC
  5
   4FA
  8
0
  6
DOT
 62
     7
 10
116.307679575682
 20
53.4055631146607
 30
0.0
 40
1.57499997317791
 50
179.999999948034
 51
269.999999948034
  0
ARC
  5
   4FB
  8
0
  6
DOT
 62
     7
 10
116.307679575682
 20
101.005562304038
 30
0.0
 40
1.57499997317791
 50
89.9999999480344
 51
179.999999948034
  0
ARC
  5
   4FC
  8
0
  6
DOT
 62
     7
 10
116.307679575682
 20
101.005562304038
 30
0.0
 40
0.524999991059303
 50
89.9999999480344
 51
179.999999948034
  0
LINE
  5
   4FD
  8
0
  6
CONTINUOUS
 62
     7
 10
48.2326914161445
 20
50.0805645064291
 30
0.0
 11
47.5326927632094
 21
50.0805645064291
 31
0.0
  0
LINE
  5
   4FE
  8
0
  6
CONTINUOUS
 62
     7
 10
49.4576927304269
 20
50.2555645034489
 30
0.0
 11
47.5326927632094
 21
50.2555645034489
 31
0.0
  0
LINE
  5
   4FF
  8
0
  6
CONTINUOUS
 62
     7
 10
49.4576927304269
 20
52.3555644676861
 30
0.0
 11
47.5326927632094
 21
52.3555644676861
 31
0.0
  0
LINE
  5
   500
  8
0
  6
CONTINUOUS
 62
     7
 10
48.2326914161445
 20
52.5305644647059
 30
0.0
 11
47.5326927632094
 21
52.5305644647059
 31
0.0
  0
LINE
  5
   501
  8
0
  6
CONTINUOUS
 62
     7
 10
49.4576927304269
 20
50.2555650973953
 30
0.0
 11
49.4576927304269
 21
52.3555651818244
 31
0.0
  0
LINE
  5
   502
  8
0
  6
CONTINUOUS
 62
     7
 10
49.8076927244664
 20
50.4576358806229
 30
0.0
 11
49.8076927244664
 21
52.1534930905121
 31
0.0
  0
LINE
  5
   503
  8
0
  6
CONTINUOUS
 62
     7
 10
49.8076926724959
 20
52.1534938387754
 30
0.0
 11
49.457692666932
 21
52.3555652184829
 31
0.0
  0
LINE
  5
   504
  8
0
  6
CONTINUOUS
 62
     7
 10
49.4576932333477
 20
50.255565387755
 30
0.0
 11
49.8076932389117
 21
50.4576367674625
 31
0.0
  0
LINE
  5
   505
  8
0
  6
CONTINUOUS
 62
     7
 10
47.5326927632094
 20
116.580563373941
 30
0.0
 11
46.307692784071
 21
116.580563373941
 31
0.0
  0
LINE
  5
   506
  8
0
  6
CONTINUOUS
 62
     7
 10
47.5326927632094
 20
47.9805645421919
 30
0.0
 11
46.307692784071
 21
47.9805645421919
 31
0.0
  0
INSERT
  5
   507
  8
0
  6
CONTINUOUS
 62
     7
  2
*HATCH344
 10
61.3576965332031
 20
39.3225975036621
 30
0.0
 41
0.349999994039536
 42
0.349999994039536
 50
89.9999999480344
 43
0.349999994039536
  0
INSERT
  5
   508
  8
0
  6
CONTINUOUS
 62
     7
  2
*HATCH345
 10
61.3576965332031
 20
39.3225975036621
 30
0.0
 41
0.349999994039536
 42
0.349999994039536
 50
89.9999999480344
 43
0.349999994039536
  0
INSERT
  5
   509
  8
0
  6
CONTINUOUS
 62
     7
  2
*HATCH346
 10
61.3576965332031
 20
39.3225975036621
 30
0.0
 41
0.349999994039536
 42
0.349999994039536
 50
89.9999999480344
 43
0.349999994039536
  0
INSERT
  5
   50A
  8
0
  6
CONTINUOUS
 62
     7
  2
*HATCH347
 10
61.3576965332031
 20
39.3225975036621
 30
0.0
 41
0.349999994039536
 42
0.349999994039536
 50
89.9999999480344
 43
0.349999994039536
  0
LINE
  5
   50B
  8
0
  6
CONTINUOUS
 62
     7
 10
51.5576906919481
 20
107.305563531893
 30
0.0
 11
50.6826887041332
 21
107.305563531893
 31
0.0
  0
LINE
  5
   50C
  8
0
  6
CONTINUOUS
 62
     7
 10
51.5576906919481
 20
107.305563531893
 30
0.0
 11
51.5576906919481
 21
110.980563469308
 31
0.0
  0
LINE
  5
   50D
  8
0
  6
CONTINUOUS
 62
     7
 10
50.3326887100937
 20
112.205563448447
 30
0.0
 11
49.4576887249948
 21
112.205563448447
 31
0.0
  0
LINE
  5
   50E
  8
0
  6
CONTINUOUS
 62
     7
 10
49.1076887309553
 20
114.305563412684
 30
0.0
 11
49.1076887309553
 21
115.355563394803
 31
0.0
  0
LINE
  5
   50F
  8
0
  6
CONTINUOUS
 62
     7
 10
49.1076887309553
 20
115.355563394803
 30
0.0
 11
48.2326914161445
 21
115.355563394803
 31
0.0
  0
LINE
  5
   510
  8
0
  6
CONTINUOUS
 62
     7
 10
50.3326887100937
 20
111.330563463348
 30
0.0
 11
49.4576887249948
 21
111.330563463348
 31
0.0
  0
LINE
  5
   511
  8
0
  6
CONTINUOUS
 62
     7
 10
50.6826887041332
 20
107.305563531893
 30
0.0
 11
50.6826887041332
 21
110.980563469308
 31
0.0
  0
ARC
  5
   512
  8
0
  6
CONTINUOUS
 62
     7
 10
50.3326835813664
 20
110.980559029102
 30
0.0
 40
1.2250064377287
 50
360.000319242658
 51
449.999813057862
  0
ARC
  5
   513
  8
0
  6
CONTINUOUS
 62
     7
 10
50.3327041969459
 20
110.980577782482
 30
0.0
 40
0.349982431475061
 50
359.998830132094
 51
450.002235749312
  0
ARC
  5
   514
  8
0
  6
CONTINUOUS
 62
     7
 10
49.4576819516613
 20
112.555552226059
 30
0.0
 40
1.22498984871903
 50
196.601143374767
 51
270.000346548696
  0
LINE
  5
   515
  8
0
  6
CONTINUOUS
 62
     7
 10
51.5576906919481
 20
110.455563478249
 30
0.0
 11
50.6826887041332
 21
110.455563478249
 31
0.0
  0
INSERT
  5
   516
  8
0
  6
CONTINUOUS
 62
     7
  2
*HATCH348
 10
61.3576965332031
 20
39.3225975036621
 30
0.0
 41
0.349999994039536
 42
0.349999994039536
 50
89.9999999480344
 43
0.349999994039536
  0
LINE
  5
   517
  8
0
  6
DOT
 62
     7
 10
41.970746338648
 20
106.78056220569
 30
0.0
 11
36.6826929479838
 21
106.78056220569
 31
0.0
  0
LINE
  5
   518
  8
0
  6
DOT
 62
     7
 10
36.6826929479838
 20
57.7805643752989
 30
0.0
 11
36.6826929479838
 21
106.78056220569
 31
0.0
  0
LINE
  5
   519
  8
0
  6
DOT
 62
     7
 10
42.4577202200886
 20
57.7805643752989
 30
0.0
 11
36.6826929479838
 21
57.7805643752989
 31
0.0
  0
LINE
  5
   51A
  8
0
  6
CONTINUOUS
 62
     7
 10
119.982679513097
 20
57.6055657134232
 30
0.0
 11
115.782679584623
 21
57.6055657134232
 31
0.0
  0
LINE
  5
   51B
  8
0
  6
CONTINUOUS
 62
     7
 10
119.982679513097
 20
54.8055657611069
 30
0.0
 11
115.782679584623
 21
54.8055657611069
 31
0.0
  0
LINE
  5
   51C
  8
0
  6
CONTINUOUS
 62
     7
 10
119.982679513097
 20
54.8055657611069
 30
0.0
 11
119.982679513097
 21
57.6055657134232
 31
0.0
  0
LINE
  5
   51D
  8
0
  6
CONTINUOUS
 62
     7
 10
119.982679513097
 20
99.6055623278794
 30
0.0
 11
115.782679584623
 21
99.6055623278794
 31
0.0
  0
LINE
  5
   51E
  8
0
  6
CONTINUOUS
 62
     7
 10
119.982679513097
 20
96.8055623755631
 30
0.0
 11
115.782679584623
 21
96.8055623755631
 31
0.0
  0
LINE
  5
   51F
  8
0
  6
CONTINUOUS
 62
     7
 10
119.982679513097
 20
96.8055623755631
 30
0.0
 11
119.982679513097
 21
99.6055623278794
 31
0.0
  0
CIRCLE
  5
   520
  8
0
  6
CONTINUOUS
 62
     7
 10
117.899260506407
 20
56.0427675456685
 30
0.0
 40
0.139999997615814
  0
LINE
  5
   521
  8
0
  6
CONTINUOUS
 62
   130
 10
97.4076718360187
 20
168.73054728508
 30
0.0
 11
96.5326721847059
 21
168.73054728508
 31
0.0
  0
LINE
  5
   522
  8
0
  6
CONTINUOUS
 62
   130
 10
97.4076718360187
 20
165.230542004108
 30
0.0
 11
96.5326721847059
 21
165.230542004108
 31
0.0
  0
LINE
  5
   523
  8
0
  6
CONTINUOUS
 62
   130
 10
97.4076718360187
 20
165.230542004108
 30
0.0
 11
97.4076718360187
 21
165.698376468798
 31
0.0
  0
LINE
  5
   524
  8
0
  6
CONTINUOUS
 62
   130
 10
97.4076718360187
 20
165.698408512254
 30
0.0
 11
97.4076718360187
 21
166.303250115723
 31
0.0
  0
LINE
  5
   525
  8
0
  6
CONTINUOUS
 62
   130
 10
97.4076718360187
 20
166.303292840332
 30
0.0
 11
97.4076718360187
 21
168.730546951294
 31
0.0
  0
LINE
  5
   526
  8
0
  6
CONTINUOUS
 62
   130
 10
96.5326721833371
 20
160.155542097279
 30
0.0
 11
96.8826721773806
 21
160.155547437855
 31
0.0
  0
LINE
  5
   527
  8
0
  6
CONTINUOUS
 62
   130
 10
96.5326721308999
 20
160.155532553502
 30
0.0
 11
96.5326728193334
 21
160.366298388421
 31
0.0
  0
LINE
  5
   528
  8
0
  6
CONTINUOUS
 62
   130
 10
96.5326721847059
 20
160.155542090535
 30
0.0
 11
96.5326721847059
 21
173.28053652644
 31
0.0
  0
LINE
  5
   529
  8
0
  6
CONTINUOUS
 62
     3
 10
61.8826941370975
 20
115.985542842746
 30
0.0
 11
61.8826941370975
 21
163.830526006222
 31
0.0
  0
LINE
  5
   52A
  8
0
  6
CONTINUOUS
 62
     3
 10
96.8826721787455
 20
123.049820833399
 30
0.0
 11
96.8826721787455
 21
159.10931235772
 31
0.0
  0
LINE
  5
   52B
  8
0
  6
CONTINUOUS
 62
     3
 10
63.6326941072952
 20
163.83054202795
 30
0.0
 11
61.8826941370975
 21
163.83054202795
 31
0.0
  0
LINE
  5
   52C
  8
0
  6
CONTINUOUS
 62
   130
 10
96.8826721787455
 20
159.10931235772
 30
0.0
 11
96.8826721787455
 21
160.155547431111
 31
0.0
  0
LINE
  5
   52D
  8
0
  6
CONTINUOUS
 62
     7
 10
96.5326721847059
 20
173.28053652644
 30
0.0
 11
62.3201941296469
 21
173.28053652644
 31
0.0
  0
LINE
  5
   52E
  8
0
  6
CONTINUOUS
 62
     7
 10
61.8826941370975
 20
164.285542020202
 30
0.0
 11
61.8826941370975
 21
172.84303653389
 31
0.0
  0
ARC
  5
   52F
  8
0
  6
CONTINUOUS
 62
     7
 10
62.3201941296469
 20
172.84303653389
 30
0.0
 40
0.437499992549419
 50
449.999999948034
 51
539.999999948034
  0
LINE
  5
   530
  8
0
  6
CONTINUOUS
 62
     7
 10
62.2326941311371
 20
163.83054202795
 30
0.0
 11
62.2326941311371
 21
164.285542020202
 31
0.0
  0
LINE
  5
   531
  8
0
  6
CONTINUOUS
 62
     7
 10
62.2326941311371
 20
164.285542020202
 30
0.0
 11
61.8826941370975
 21
164.285542020202
 31
0.0
  0
LINE
  5
   532
  8
0
  6
CONTINUOUS
 62
     7
 10
96.5326721847059
 20
171.530536556242
 30
0.0
 11
63.6326941072952
 21
171.530536556242
 31
0.0
  0
LINE
  5
   533
  8
0
  6
CONTINUOUS
 62
     7
 10
63.6326941072952
 20
115.635537508128
 30
0.0
 11
63.6326941072952
 21
163.83054202795
 31
0.0
  0
LINE
  5
   534
  8
0
  6
CONTINUOUS
 62
     7
 10
63.807694104315
 20
104.155562250393
 30
0.0
 11
63.807694104315
 21
124.105537363885
 31
0.0
  0
LINE
  5
   535
  8
0
  6
CONTINUOUS
 62
     7
 10
96.5326721847059
 20
171.355536559222
 30
0.0
 11
63.807694104315
 21
171.355536559222
 31
0.0
  0
LINE
  5
   536
  8
0
  6
CONTINUOUS
 62
     7
 10
63.6326941072952
 20
163.935536685584
 30
0.0
 11
62.2326941311371
 21
163.935536685584
 31
0.0
  0
LINE
  5
   537
  8
0
  6
CONTINUOUS
 62
     7
 10
63.6326964944601
 20
115.635537508128
 30
0.0
 11
62.2326941311371
 21
115.635537508128
 31
0.0
  0
LINE
  5
   538
  8
0
  6
CONTINUOUS
 62
     7
 10
62.2326941311371
 20
115.985537502168
 30
0.0
 11
61.8826965242624
 21
115.985537502168
 31
0.0
  0
LINE
  5
   539
  8
0
  6
CONTINUOUS
 62
     7
 10
62.2326941311371
 20
115.530551375526
 30
0.0
 11
62.2326941311371
 21
115.985542842746
 31
0.0
  0
LINE
  5
   53A
  8
0
  6
CONTINUOUS
 62
     7
 10
63.6326941072952
 20
163.935536685584
 30
0.0
 11
63.6326941072952
 21
171.530536556242
 31
0.0
  0
LINE
  5
   53B
  8
0
  6
CONTINUOUS
 62
     7
 10
96.8826721787455
 20
124.105537363885
 30
0.0
 11
63.807694104315
 21
124.105537363885
 31
0.0
  0
LINE
  5
   53C
  8
0
  6
CONTINUOUS
 62
     7
 10
96.8826721787455
 20
124.280537360905
 30
0.0
 11
63.807694104315
 21
124.280537360905
 31
0.0
  0
LINE
  5
   53D
  8
0
  6
CONTINUOUS
 62
     7
 10
63.807694104315
 20
124.280537360905
 30
0.0
 11
63.807694104315
 21
171.355536559222
 31
0.0
  0
LINE
  5
   53E
  8
0
  6
CONTINUOUS
 62
     3
 10
70.6326963752508
 20
126.730537319181
 30
0.0
 11
69.5826963931322
 21
126.730537319181
 31
0.0
  0
LINE
  5
   53F
  8
0
  6
CONTINUOUS
 62
     3
 10
70.6326963752508
 20
163.130536699293
 30
0.0
 11
69.5826963931322
 21
163.130536699293
 31
0.0
  0
LINE
  5
   540
  8
0
  6
CONTINUOUS
 62
     3
 10
69.5826963931322
 20
124.280537360905
 30
0.0
 11
69.5826963931322
 21
126.730537319181
 31
0.0
  0
LINE
  5
   541
  8
0
  6
CONTINUOUS
 62
     3
 10
69.5826963931322
 20
163.130536699293
 30
0.0
 11
69.5826963931322
 21
171.530536556242
 31
0.0
  0
LINE
  5
   542
  8
0
  6
CONTINUOUS
 62
     7
 10
37.2438631383214
 20
185.928971915289
 30
0.0
 11
31.9834388227448
 21
185.928971915289
 31
0.0
  0
LINE
  5
   543
  8
0
  6
CONTINUOUS
 62
     7
 10
31.9834388227448
 20
151.227210436413
 30
0.0
 11
31.9834388227448
 21
185.928971915289
 31
0.0
  0
INSERT
  5
   544
  8
0
  6
CONTINUOUS
 62
     7
  2
*UDIM1830
 10
0.0
 20
0.0
 30
0.0
  0
INSERT
  5
   545
  8
0
  6
CONTINUOUS
 62
     7
  2
*UDIM1831
 10
0.0
 20
0.0
 30
0.0
  0
INSERT
  5
   546
  8
0
  6
CONTINUOUS
 62
     7
  2
*UDIM1832
 10
0.0
 20
0.0
 30
0.0
  0
INSERT
  5
   547
  8
0
  6
CONTINUOUS
 62
     7
  2
*UDIM1833
 10
0.0
 20
0.0
 30
0.0
  0
INSERT
  5
   548
  8
0
  6
CONTINUOUS
 62
     7
  2
*UDIM1834
 10
0.0
 20
0.0
 30
0.0
  0
TEXT
  5
   549
  8
0
  6
CONTINUOUS
 62
     7
 10
31.2677826329524
 20
131.311662966124
 30
0.0
 40
2.00000003448554
  1
              CORSA DI SEZIONAMENTO
 50
89.9999999480344
 41
0.749999888539317
 72
     1
 11
30.2677826393488
 21
157.411659539784
 31
0.0
 73
     2
  0
TEXT
  5
   54A
  8
0
  6
CONTINUOUS
 62
     7
 10
34.7777826281706
 20
136.561662276423
 30
0.0
 40
2.00000003448554
  1
          ISOLATING DISTANCE
 50
89.9999999480344
 41
0.749999888539317
 72
     1
 11
33.777782629812
 21
157.411659539784
 31
0.0
 73
     2
  0
INSERT
  5
   54B
  8
0
  6
CONTINUOUS
 62
     7
  2
*UDIM1835
 10
0.0
 20
0.0
 30
0.0
  0
INSERT
  5
   54C
  8
0
  6
CONTINUOUS
 62
     7
  2
*UDIM1836
 10
0.0
 20
0.0
 30
0.0
  0
INSERT
  5
   54D
  8
0
  6
CONTINUOUS
 62
     7
  2
*UDIM1837
 10
0.0
 20
0.0
 30
0.0
  0
INSERT
  5
   54E
  8
0
  6
CONTINUOUS
 62
     7
  2
*UDIM1838
 10
0.0
 20
0.0
 30
0.0
  0
INSERT
  5
   54F
  8
0
  6
CONTINUOUS
 62
     7
  2
*UDIM1839
 10
0.0
 20
0.0
 30
0.0
  0
INSERT
  5
   550
  8
0
  6
CONTINUOUS
 62
     7
  2
*UDIM1840
 10
0.0
 20
0.0
 30
0.0
  0
INSERT
  5
   551
  8
0
  6
CONTINUOUS
 62
     7
  2
*UDIM1841
 10
0.0
 20
0.0
 30
0.0
  0
INSERT
  5
   552
  8
0
  6
CONTINUOUS
 62
     7
  2
*UDIM1842
 10
0.0
 20
0.0
 30
0.0
  0
INSERT
  5
   553
  8
0
  6
CONTINUOUS
 62
     7
  2
*UDIM1843
 10
0.0
 20
0.0
 30
0.0
  0
INSERT
  5
   554
  8
0
  6
CONTINUOUS
 62
     7
  2
*UDIM1844
 10
0.0
 20
0.0
 30
0.0
  0
INSERT
  5
   555
  8
0
  6
CONTINUOUS
 62
     7
  2
*UDIM1845
 10
0.0
 20
0.0
 30
0.0
  0
INSERT
  5
   556
  8
0
  6
CONTINUOUS
 62
     7
  2
*UDIM1846
 10
0.0
 20
0.0
 30
0.0
  0
INSERT
  5
   557
  8
0
  6
CONTINUOUS
 62
     7
  2
*UDIM1847
 10
0.0
 20
0.0
 30
0.0
  0
INSERT
  5
   558
  8
0
  6
CONTINUOUS
 62
     7
  2
*UDIM1848
 10
0.0
 20
0.0
 30
0.0
  0
INSERT
  5
   559
  8
0
  6
CONTINUOUS
 62
     7
  2
*UDIM1849
 10
0.0
 20
0.0
 30
0.0
  0
INSERT
  5
   55A
  8
0
  6
CONTINUOUS
 62
     7
  2
*UDIM1850
 10
0.0
 20
0.0
 30
0.0
  0
TEXT
  5
   55B
  8
0
  6
CONTINUOUS
 62
     7
 10
139.350333731567
 20
82.855542468351
 30
0.0
 40
2.99999997871263
  1
X
 50
359.999999948034
 41
0.91666663951344
 72
     2
 11
141.550333667279
 21
82.8555424663667
 31
0.0
  0
TEXT
  5
   55C
  8
0
  6
CONTINUOUS
 62
     7
 10
38.8671571133173
 20
82.7122521418117
 30
0.0
 40
2.99999997871263
  1
X
 50
359.999999948034
 41
0.91666663951344
 72
     2
 11
41.0671570490294
 21
82.7122521398274
 31
0.0
  0
INSERT
  5
   55D
  8
0
  6
CONTINUOUS
 62
     7
  2
*UDIM1851
 10
0.0
 20
0.0
 30
0.0
  0
LINE
  5
   55E
  8
0
  6
CONTINUOUS
 62
     7
 10
259.382607934837
 20
9.83059055961894
 30
0.0
 11
273.382607696418
 21
9.83059055961894
 31
0.0
  0
LINE
  5
   55F
  8
0
  6
CONTINUOUS
 62
     7
 10
234.882608352069
 20
9.83059055961894
 30
0.0
 11
248.882608113651
 21
9.83059055961894
 31
0.0
  0
LINE
  5
   560
  8
0
  6
CONTINUOUS
 62
     7
 10
210.382608769302
 20
9.83059055961894
 30
0.0
 11
224.382608530883
 21
9.83059055961894
 31
0.0
  0
LINE
  5
   561
  8
0
  6
CONTINUOUS
 62
     7
 10
210.382608769302
 20
9.83059055961894
 30
0.0
 11
210.382608769302
 21
25.5805662588057
 31
0.0
  0
LINE
  5
   562
  8
0
  6
CONTINUOUS
 62
     7
 10
224.382608530883
 20
9.83059055961894
 30
0.0
 11
224.382608530883
 21
25.5805662588057
 31
0.0
  0
LINE
  5
   563
  8
0
  6
CONTINUOUS
 62
     7
 10
234.882608352069
 20
9.83059055961894
 30
0.0
 11
234.882608352069
 21
25.5805662588057
 31
0.0
  0
LINE
  5
   564
  8
0
  6
CONTINUOUS
 62
     7
 10
248.882608113651
 20
9.83059055961894
 30
0.0
 11
248.882608113651
 21
25.5805662588057
 31
0.0
  0
LINE
  5
   565
  8
0
  6
CONTINUOUS
 62
     7
 10
259.382607934837
 20
9.83059055961894
 30
0.0
 11
259.382607934837
 21
25.5805662588057
 31
0.0
  0
LINE
  5
   566
  8
0
  6
CONTINUOUS
 62
     7
 10
273.382607696418
 20
9.83059055961894
 30
0.0
 11
273.382607696418
 21
25.5805662588057
 31
0.0
  0
CIRCLE
  5
   567
  8
0
  6
CONTINUOUS
 62
     7
 10
266.382609460096
 20
16.8305913164864
 30
0.0
 40
2.44999792508453
  0
CIRCLE
  5
   568
  8
0
  6
CONTINUOUS
 62
     7
 10
241.882599345985
 20
16.8305788654453
 30
0.0
 40
2.4500088234543
  0
CIRCLE
  5
   569
  8
0
  6
CONTINUOUS
 62
     7
 10
217.382608537028
 20
16.8305551224184
 30
0.0
 40
2.4499673102628
  0
LINE
  5
   56A
  8
0
  6
DASHDOT
 62
     7
 10
217.382608537028
 20
14.9055878032149
 30
0.0
 11
217.382608537028
 21
20.5055224118196
 31
0.0
  0
LINE
  5
   56B
  8
0
  6
DASHDOT
 62
     7
 10
214.582641232725
 20
16.8305551224184
 30
0.0
 11
220.18257584133
 21
16.8305551224184
 31
0.0
  0
LINE
  5
   56C
  8
0
  6
DASHDOT
 62
     7
 10
241.882599345985
 20
14.9055700330503
 30
0.0
 11
241.882599345985
 21
20.505587668038
 31
0.0
  0
LINE
  5
   56D
  8
0
  6
DASHDOT
 62
     7
 10
239.082590528492
 20
16.8305788654453
 30
0.0
 11
244.682608163479
 21
16.8305788654453
 31
0.0
  0
LINE
  5
   56E
  8
0
  6
DASHDOT
 62
     7
 10
266.382609460096
 20
14.9055933824612
 30
0.0
 11
266.382609460096
 21
20.5055892207093
 31
0.0
  0
LINE
  5
   56F
  8
0
  6
DASHDOT
 62
     7
 10
263.582611540972
 20
16.8305913164864
 30
0.0
 11
269.18260737922
 21
16.8305913164864
 31
0.0
  0
LINE
  5
   570
  8
0
  6
CONTINUOUS
 62
     1
 10
181.070117038
 20
53.9305522548369
 30
0.0
 11
208.282607299956
 21
53.9305522548369
 31
0.0
  0
LINE
  5
   571
  8
0
  6
CONTINUOUS
 62
     1
 10
180.720117064823
 20
54.2805522280148
 30
0.0
 11
208.282607299956
 21
54.2805522280148
 31
0.0
  0
LINE
  5
   572
  8
0
  6
CONTINUOUS
 62
     1
 10
181.070117038
 20
53.9305522548369
 30
0.0
 11
181.070117038
 21
54.2805522280148
 31
0.0
  0
LINE
  5
   573
  8
0
  6
CONTINUOUS
 62
     1
 10
277.075111151446
 20
116.580563628791
 30
0.0
 11
277.075111151446
 21
163.760536688564
 31
0.0
  0
LINE
  5
   574
  8
0
  6
CONTINUOUS
 62
     1
 10
277.880112205852
 20
116.580563628791
 30
0.0
 11
277.880112205852
 21
163.760536688564
 31
0.0
  0
LINE
  5
   575
  8
0
  6
CONTINUOUS
 62
     1
 10
272.035113373507
 20
116.580563628791
 30
0.0
 11
272.035113373507
 21
163.760536688564
 31
0.0
  0
LINE
  5
   576
  8
0
  6
CONTINUOUS
 62
     1
 10
273.295110147704
 20
116.580563628791
 30
0.0
 11
273.295110147704
 21
163.760536688564
 31
0.0
  0
LINE
  5
   577
  8
0
  6
CONTINUOUS
 62
     1
 10
274.555112262476
 20
116.580563628791
 30
0.0
 11
274.555112262476
 21
163.760536688564
 31
0.0
  0
LINE
  5
   578
  8
0
  6
CONTINUOUS
 62
     1
 10
275.815114377249
 20
116.580563628791
 30
0.0
 11
275.815114377249
 21
163.760536688564
 31
0.0
  0
LINE
  5
   579
  8
0
  6
CONTINUOUS
 62
     1
 10
268.255112369765
 20
116.580563628791
 30
0.0
 11
268.255112369765
 21
163.760536688564
 31
0.0
  0
LINE
  5
   57A
  8
0
  6
CONTINUOUS
 62
     1
 10
269.515114484538
 20
116.580563628791
 30
0.0
 11
269.515114484538
 21
163.760536688564
 31
0.0
  0
LINE
  5
   57B
  8
0
  6
CONTINUOUS
 62
     1
 10
270.775111258734
 20
116.580563628791
 30
0.0
 11
270.775111258734
 21
163.760536688564
 31
0.0
  0
LINE
  5
   57C
  8
0
  6
CONTINUOUS
 62
     1
 10
181.385116919983
 20
98.6430461528115
 30
0.0
 11
181.385116919983
 21
115.460537511108
 31
0.0
  0
LINE
  5
   57D
  8
0
  6
CONTINUOUS
 62
     1
 10
211.73011333238
 20
116.580563628791
 30
0.0
 11
211.73011333238
 21
163.760536688564
 31
0.0
  0
LINE
  5
   57E
  8
0
  6
CONTINUOUS
 62
     1
 10
210.470116558183
 20
116.580563628791
 30
0.0
 11
210.470116558183
 21
163.760536688564
 31
0.0
  0
LINE
  5
   57F
  8
0
  6
CONTINUOUS
 62
     1
 10
207.95011633407
 20
98.6430461528115
 30
0.0
 11
207.95011633407
 21
115.460537511108
 31
0.0
  0
LINE
  5
   580
  8
0
  6
CONTINUOUS
 62
     1
 10
216.770116450895
 20
116.580563628791
 30
0.0
 11
216.770116450895
 21
163.760536688564
 31
0.0
  0
LINE
  5
   581
  8
0
  6
CONTINUOUS
 62
     1
 10
215.510114336122
 20
116.580563628791
 30
0.0
 11
215.510114336122
 21
163.760536688564
 31
0.0
  0
LINE
  5
   582
  8
0
  6
CONTINUOUS
 62
     1
 10
214.250112221349
 20
116.580563628791
 30
0.0
 11
214.250112221349
 21
163.760536688564
 31
0.0
  0
LINE
  5
   583
  8
0
  6
CONTINUOUS
 62
     1
 10
212.990115447153
 20
116.580563628791
 30
0.0
 11
212.990115447153
 21
163.760536688564
 31
0.0
  0
LINE
  5
   584
  8
0
  6
CONTINUOUS
 62
     1
 10
207.95011633407
 20
61.8930467786602
 30
0.0
 11
207.95011633407
 21
98.6430461528115
 31
0.0
  0
LINE
  5
   585
  8
0
  6
CONTINUOUS
 62
     1
 10
181.385116919983
 20
61.8930467786602
 30
0.0
 11
181.385116919983
 21
98.6430461528115
 31
0.0
  0
LINE
  5
   586
  8
0
  6
CONTINUOUS
 62
     1
 10
181.385116919983
 20
54.2805522280148
 30
0.0
 11
181.385116919983
 21
61.8930467577986
 31
0.0
  0
LINE
  5
   587
  8
0
  6
CONTINUOUS
 62
     1
 10
207.95011633407
 20
54.2805522280148
 30
0.0
 11
207.95011633407
 21
61.8930467577986
 31
0.0
  0
ARC
  5
   588
  8
0
  6
CONTINUOUS
 62
     1
 10
180.895117061842
 20
98.4680461557917
 30
0.0
 40
0.174999997019768
 50
90.0
 51
180.0
  0
ARC
  5
   589
  8
0
  6
CONTINUOUS
 62
     1
 10
180.895117061842
 20
62.06804677568
 30
0.0
 40
0.174999997019768
 50
180.0
 51
270.0
  0
LINE
  5
   58A
  8
0
  6
CONTINUOUS
 62
     1
 10
234.53260835803
 20
84.905557067912
 30
0.0
 11
249.23260810769
 21
84.905557067912
 31
0.0
  0
LINE
  5
   58B
  8
0
  6
CONTINUOUS
 62
     7
 10
234.53260835803
 20
85.0711683321815
 30
0.0
 11
249.23260810769
 21
85.0711683321815
 31
0.0
  0
LINE
  5
   58C
  8
0
  6
DASHDOT
 62
     7
 10
241.88260823286
 20
164.285536679624
 30
0.0
 11
241.88260823286
 21
173.28053652644
 31
0.0
  0
LINE
  5
   58D
  8
0
  6
CONTINUOUS
 62
     1
 10
277.932591669105
 20
38.0755525248293
 30
0.0
 11
277.932591669105
 21
47.9805627943255
 31
0.0
  0
LINE
  5
   58E
  8
0
  6
CONTINUOUS
 62
     1
 10
181.332617054392
 20
38.0755525248293
 30
0.0
 11
181.332617054392
 21
53.9305522548369
 31
0.0
  0
LINE
  5
   58F
  8
0
  6
CONTINUOUS
 62
     1
 10
253.940108027522
 20
81.895557119172
 30
0.0
 11
253.940108027522
 21
83.1205570983104
 31
0.0
  0
LINE
  5
   590
  8
0
  6
CONTINUOUS
 62
     7
 10
234.53260835803
 20
69.68841214575
 30
0.0
 11
249.23260810769
 21
69.68841214575
 31
0.0
  0
LINE
  5
   591
  8
0
  6
CONTINUOUS
 62
     7
 10
234.53260835803
 20
72.5655898438818
 30
0.0
 11
249.23260810769
 21
72.5655898438818
 31
0.0
  0
LINE
  5
   592
  8
0
  6
CONTINUOUS
 62
     7
 10
234.53260835803
 20
66.6649543164024
 30
0.0
 11
249.23260810769
 21
66.6649543164024
 31
0.0
  0
LINE
  5
   593
  8
0
  6
CONTINUOUS
 62
     7
 10
249.23260810769
 20
72.5655898438818
 30
0.0
 11
249.23260810769
 21
85.0711683321815
 31
0.0
  0
LINE
  5
   594
  8
0
  6
CONTINUOUS
 62
     7
 10
234.53260835803
 20
72.5655898438818
 30
0.0
 11
234.53260835803
 21
85.0711683321815
 31
0.0
  0
LINE
  5
   595
  8
0
  6
CONTINUOUS
 62
     1
 10
180.895117061842
 20
98.6430461528115
 30
0.0
 11
208.282607299956
 21
98.6430461528115
 31
0.0
  0
LINE
  5
   596
  8
0
  6
CONTINUOUS
 62
   130
 10
181.50760926104
 20
25.836504880085
 30
0.0
 11
181.50760926104
 21
29.4305526720528
 31
0.0
  0
LINE
  5
   597
  8
0
  6
CONTINUOUS
 62
   130
 10
181.507609637995
 20
26.8055695906587
 30
0.0
 11
181.534252436523
 21
26.6716306168366
 31
0.0
  0
LINE
  5
   598
  8
0
  6
CONTINUOUS
 62
   130
 10
181.534252251345
 20
25.7966301796371
 30
0.0
 11
181.61012180844
 21
25.6830815190853
 31
0.0
  0
LINE
  5
   599
  8
0
  6
CONTINUOUS
 62
   130
 10
181.610121890295
 20
25.6830814442085
 30
0.0
 11
181.723670550847
 21
25.6072118871141
 31
0.0
  0
LINE
  5
   59A
  8
0
  6
CONTINUOUS
 62
   130
 10
181.723669943537
 20
25.6072115836942
 30
0.0
 11
181.857608924209
 21
25.5805661153007
 31
0.0
  0
LINE
  5
   59B
  8
0
  6
CONTINUOUS
 62
   130
 10
181.85760925508
 20
25.5805662588057
 30
0.0
 11
277.407614251636
 21
25.5805662588057
 31
0.0
  0
LINE
  5
   59C
  8
0
  6
CONTINUOUS
 62
   130
 10
277.407606006457
 20
25.580566293927
 30
0.0
 11
277.541547652624
 21
25.6072117623708
 31
0.0
  0
LINE
  5
   59D
  8
0
  6
CONTINUOUS
 62
   130
 10
277.541550422397
 20
25.6072118504355
 30
0.0
 11
277.655096413505
 21
25.6830814104273
 31
0.0
  0
LINE
  5
   59E
  8
0
  6
CONTINUOUS
 62
   130
 10
277.655092469837
 20
25.683081085301
 30
0.0
 11
277.730960695696
 21
25.7966297405551
 31
0.0
  0
LINE
  5
   59F
  8
0
  6
CONTINUOUS
 62
   130
 10
277.730962982681
 20
25.796630066548
 30
0.0
 11
277.757607116139
 21
25.9305690437954
 31
0.0
  0
LINE
  5
   5A0
  8
0
  6
CONTINUOUS
 62
   130
 10
277.757607621913
 20
25.9305715862959
 30
0.0
 11
277.757607621913
 21
29.4305526720528
 31
0.0
  0
LINE
  5
   5A1
  8
0
  6
CONTINUOUS
 62
   130
 10
181.723671043116
 20
25.6072080537936
 30
0.0
 11
181.857610016938
 21
25.5805652552659
 31
0.0
  0
LINE
  5
   5A2
  8
0
  6
CONTINUOUS
 62
   130
 10
181.610121739548
 20
25.683078686577
 30
0.0
 11
181.723670397251
 21
25.6072077900969
 31
0.0
  0
LINE
  5
   5A3
  8
0
  6
CONTINUOUS
 62
   130
 10
277.730965613807
 20
25.7966254296554
 30
0.0
 11
277.757609747281
 21
25.9305657426768
 31
0.0
  0
LINE
  5
   5A4
  8
0
  6
CONTINUOUS
 62
   130
 10
277.655095155857
 20
25.6830786088708
 30
0.0
 11
277.730963380276
 21
25.7966259291302
 31
0.0
  0
LINE
  5
   5A5
  8
0
  6
CONTINUOUS
 62
   130
 10
277.541548184901
 20
25.6072076060744
 30
0.0
 11
277.655094173166
 21
25.6830784973038
 31
0.0
  0
LINE
  5
   5A6
  8
0
  6
CONTINUOUS
 62
   130
 10
277.407607548138
 20
25.5805649253894
 30
0.0
 11
277.541549195604
 21
25.6072077239202
 31
0.0
  0
LINE
  5
   5A7
  8
0
  6
DASHDOT
 62
     7
 10
241.882599345985
 20
14.9055700330503
 30
0.0
 11
241.882599345985
 21
181.384558227781
 31
0.0
  0
LINE
  5
   5A8
  8
0
  6
CONTINUOUS
 62
   130
 10
217.382649371992
 20
106.78056220569
 30
0.0
 11
266.382648537527
 21
106.78056220569
 31
0.0
  0
LINE
  5
   5A9
  8
0
  6
CONTINUOUS
 62
   130
 10
217.382649371992
 20
57.7805643752989
 30
0.0
 11
266.382648537527
 21
57.7805643752989
 31
0.0
  0
LINE
  5
   5AA
  8
0
  6
CONTINUOUS
 62
     1
 10
217.382649371992
 20
102.580562277215
 30
0.0
 11
266.382648537527
 21
102.580562277215
 31
0.0
  0
LINE
  5
   5AB
  8
0
  6
CONTINUOUS
 62
     1
 10
217.382650039564
 20
106.080562217611
 30
0.0
 11
266.382649205099
 21
106.080562217611
 31
0.0
  0
LINE
  5
   5AC
  8
0
  6
CONTINUOUS
 62
   130
 10
217.382649371992
 20
57.7805643752989
 30
0.0
 11
217.382649371992
 21
106.780563540834
 31
0.0
  0
LINE
  5
   5AD
  8
0
  6
CONTINUOUS
 62
   130
 10
266.382649205099
 20
57.7805630401549
 30
0.0
 11
266.382649205099
 21
106.78056220569
 31
0.0
  0
LINE
  5
   5AE
  8
0
  6
CONTINUOUS
 62
   130
 10
218.607646347056
 20
101.530562295097
 30
0.0
 11
253.957643074761
 21
101.530562295097
 31
0.0
  0
LINE
  5
   5AF
  8
0
  6
CONTINUOUS
 62
   130
 10
218.607646347056
 20
59.0055630192933
 30
0.0
 11
253.957643074761
 21
59.0055630192933
 31
0.0
  0
LINE
  5
   5B0
  8
0
  6
CONTINUOUS
 62
   130
 10
218.607646347056
 20
59.0055630192933
 30
0.0
 11
218.607646347056
 21
101.530562295097
 31
0.0
  0
LINE
  5
   5B1
  8
0
  6
CONTINUOUS
 62
   130
 10
253.957644076119
 20
59.0055630192933
 30
0.0
 11
253.957644076119
 21
101.530562295097
 31
0.0
  0
LINE
  5
   5B2
  8
0
  6
CONTINUOUS
 62
     1
 10
264.28265191115
 20
86.3055625543771
 30
0.0
 11
264.28265191115
 21
87.0055358395757
 31
0.0
  0
LINE
  5
   5B3
  8
0
  6
CONTINUOUS
 62
     1
 10
264.282651911472
 20
85.0805625758944
 30
0.0
 11
264.28265458176
 21
84.3805625878153
 31
0.0
  0
LINE
  5
   5B4
  8
0
  6
CONTINUOUS
 62
     1
 10
263.232643919423
 20
77.5555627056141
 30
0.0
 11
263.232649259999
 21
78.2555626936932
 31
0.0
  0
LINE
  5
   5B5
  8
0
  6
CONTINUOUS
 62
     1
 10
261.518020426019
 20
64.779889129658
 30
0.0
 11
261.937634812995
 21
64.2798536557724
 31
0.0
  0
LINE
  5
   5B6
  8
0
  6
CONTINUOUS
 62
     1
 10
260.987999580896
 20
65.1609267026426
 30
0.0
 11
261.518022379328
 21
64.7798899658466
 31
0.0
  0
LINE
  5
   5B7
  8
0
  6
CONTINUOUS
 62
     1
 10
260.38034574483
 20
65.3993993537053
 30
0.0
 11
260.98799914332
 21
65.1609266063326
 31
0.0
  0
LINE
  5
   5B8
  8
0
  6
CONTINUOUS
 62
     1
 10
259.732642924365
 20
65.4805641394963
 30
0.0
 11
260.380350677715
 21
65.3994007351047
 31
0.0
  0
LINE
  5
   5B9
  8
0
  6
CONTINUOUS
 62
     1
 10
259.084935479937
 20
65.3994012811081
 30
0.0
 11
259.732643233286
 21
65.4805646854997
 31
0.0
  0
LINE
  5
   5BA
  8
0
  6
CONTINUOUS
 62
     1
 10
258.477276719503
 20
65.16092635854
 30
0.0
 11
259.084930117993
 21
65.3993991059127
 31
0.0
  0
LINE
  5
   5BB
  8
0
  6
CONTINUOUS
 62
     1
 10
257.947254396864
 20
64.7798898114056
 30
0.0
 11
258.477277195296
 21
65.1609265482017
 31
0.0
  0
LINE
  5
   5BC
  8
0
  6
CONTINUOUS
 62
     1
 10
257.52763875521
 20
64.2798555622762
 30
0.0
 11
257.947255810248
 21
64.7798910306165
 31
0.0
  0
LINE
  5
   5BD
  8
0
  6
CONTINUOUS
 62
     1
 10
257.527637606631
 20
61.431274037554
 30
0.0
 11
257.527637606631
 21
64.2798545401904
 31
0.0
  0
LINE
  5
   5BE
  8
0
  6
CONTINUOUS
 62
     1
 10
257.527638380428
 20
61.4312743129998
 30
0.0
 11
257.947255435466
 21
60.9312388446596
 31
0.0
  0
LINE
  5
   5BF
  8
0
  6
CONTINUOUS
 62
     1
 10
257.947254481214
 20
60.9312385277281
 30
0.0
 11
258.477277279646
 21
60.5502017909321
 31
0.0
  0
LINE
  5
   5C0
  8
0
  6
CONTINUOUS
 62
     1
 10
258.477275358938
 20
60.5502014551762
 30
0.0
 11
259.084928756602
 21
60.3117273770991
 31
0.0
  0
LINE
  5
   5C1
  8
0
  6
CONTINUOUS
 62
     1
 10
259.084935150201
 20
60.3117286755175
 30
0.0
 11
259.732642903551
 21
60.2305652711259
 31
0.0
  0
LINE
  5
   5C2
  8
0
  6
CONTINUOUS
 62
     1
 10
259.732643254101
 20
60.2305658171293
 30
0.0
 11
260.38035100745
 21
60.3117292215209
 31
0.0
  0
LINE
  5
   5C3
  8
0
  6
CONTINUOUS
 62
     1
 10
260.380343660527
 20
60.3117265032223
 30
0.0
 11
260.98799705819
 21
60.5502005812994
 31
0.0
  0
LINE
  5
   5C4
  8
0
  6
CONTINUOUS
 62
     1
 10
260.987999496546
 20
60.5502016364911
 30
0.0
 11
261.518022294978
 21
60.9312383732872
 31
0.0
  0
LINE
  5
   5C5
  8
0
  6
CONTINUOUS
 62
     1
 10
261.518019369072
 20
60.9312360208684
 30
0.0
 11
261.937633756048
 21
61.431271494754
 31
0.0
  0
LINE
  5
   5C6
  8
0
  6
CONTINUOUS
 62
     1
 10
261.937636997472
 20
61.431274037554
 30
0.0
 11
261.937636997472
 21
64.2798545401904
 31
0.0
  0
LINE
  5
   5C7
  8
0
  6
CONTINUOUS
 62
     1
 10
264.406382816341
 20
69.3668551608691
 30
0.0
 11
264.457638995367
 21
69.2431113427643
 31
0.0
  0
LINE
  5
   5C8
  8
0
  6
CONTINUOUS
 62
     1
 10
264.282639335678
 20
69.4181111124521
 30
0.0
 11
264.406383153782
 21
69.3668549334259
 31
0.0
  0
LINE
  5
   5C9
  8
0
  6
CONTINUOUS
 62
     1
 10
263.232638577591
 20
69.4181109071542
 30
0.0
 11
264.28263855971
 21
69.4181109071542
 31
0.0
  0
LINE
  5
   5CA
  8
0
  6
CONTINUOUS
 62
     1
 10
263.108895743141
 20
69.3668552685453
 30
0.0
 11
263.232639561246
 21
69.4181114475715
 31
0.0
  0
LINE
  5
   5CB
  8
0
  6
CONTINUOUS
 62
     1
 10
263.057639231933
 20
69.2431116789096
 30
0.0
 11
263.10889541096
 21
69.3668554970143
 31
0.0
  0
LINE
  5
   5CC
  8
0
  6
CONTINUOUS
 62
     1
 10
263.057638580571
 20
68.3681109250356
 30
0.0
 11
263.057638580571
 21
69.2431109101344
 31
0.0
  0
LINE
  5
   5CD
  8
0
  6
CONTINUOUS
 62
     1
 10
263.057638580571
 20
67.6681109369565
 30
0.0
 11
263.057638580571
 21
68.3681109250356
 31
0.0
  0
LINE
  5
   5CE
  8
0
  6
CONTINUOUS
 62
     1
 10
263.057638580571
 20
66.9681109488774
 30
0.0
 11
263.057638580571
 21
67.6681109369565
 31
0.0
  0
LINE
  5
   5CF
  8
0
  6
CONTINUOUS
 62
     1
 10
263.057638580571
 20
66.2681109607984
 30
0.0
 11
263.057638580571
 21
66.9681109488774
 31
0.0
  0
LINE
  5
   5D0
  8
0
  6
CONTINUOUS
 62
     1
 10
263.057638580571
 20
65.3931109756995
 30
0.0
 11
263.057638580571
 21
66.2681109607984
 31
0.0
  0
LINE
  5
   5D1
  8
0
  6
CONTINUOUS
 62
     1
 10
263.057639017582
 20
65.3931113334023
 30
0.0
 11
263.108895196608
 21
65.2693675152975
 31
0.0
  0
LINE
  5
   5D2
  8
0
  6
CONTINUOUS
 62
     1
 10
263.108895527764
 20
65.2693673156808
 30
0.0
 11
263.232639345869
 21
65.2181111366546
 31
0.0
  0
LINE
  5
   5D3
  8
0
  6
CONTINUOUS
 62
     1
 10
263.232638577591
 20
65.2181109786798
 30
0.0
 11
264.28263855971
 21
65.2181109786798
 31
0.0
  0
LINE
  5
   5D4
  8
0
  6
CONTINUOUS
 62
     1
 10
264.282639551055
 20
65.2181114717741
 30
0.0
 11
264.40638336916
 21
65.2693676508003
 31
0.0
  0
LINE
  5
   5D5
  8
0
  6
CONTINUOUS
 62
     1
 10
264.406383030693
 20
65.2693678514428
 30
0.0
 11
264.457639209719
 21
65.3931116695476
 31
0.0
  0
LINE
  5
   5D6
  8
0
  6
CONTINUOUS
 62
     1
 10
264.457638556729
 20
65.3931109756995
 30
0.0
 11
264.457638556729
 21
66.2681109607984
 31
0.0
  0
LINE
  5
   5D7
  8
0
  6
CONTINUOUS
 62
     1
 10
264.457638556729
 20
66.2681109607984
 30
0.0
 11
264.457638556729
 21
66.9681109488774
 31
0.0
  0
LINE
  5
   5D8
  8
0
  6
CONTINUOUS
 62
     1
 10
264.457638556729
 20
66.9681109488774
 30
0.0
 11
264.457638556729
 21
67.6681109369565
 31
0.0
  0
LINE
  5
   5D9
  8
0
  6
CONTINUOUS
 62
     1
 10
264.457638556729
 20
67.6681109369565
 30
0.0
 11
264.457638556729
 21
68.3681109250356
 31
0.0
  0
LINE
  5
   5DA
  8
0
  6
CONTINUOUS
 62
     1
 10
264.457638556729
 20
68.3681109250356
 30
0.0
 11
264.457638556729
 21
69.2431109101344
 31
0.0
  0
LINE
  5
   5DB
  8
0
  6
CONTINUOUS
 62
     1
 10
263.232649258743
 20
99.16806233533
 30
0.0
 11
263.232649258743
 21
100.218062317449
 31
0.0
  0
LINE
  5
   5DC
  8
0
  6
CONTINUOUS
 62
     1
 10
263.23264835996
 20
99.1680593043495
 30
0.0
 11
263.332915002385
 21
98.8594701315633
 31
0.0
  0
LINE
  5
   5DD
  8
0
  6
CONTINUOUS
 62
     1
 10
263.332915605636
 20
98.8594727572825
 30
0.0
 11
263.595415598848
 21
98.6687554393639
 31
0.0
  0
LINE
  5
   5DE
  8
0
  6
CONTINUOUS
 62
     1
 10
263.595415899904
 20
98.668755855796
 30
0.0
 11
263.919882599701
 21
98.668755855796
 31
0.0
  0
LINE
  5
   5DF
  8
0
  6
CONTINUOUS
 62
     1
 10
263.919881904018
 20
98.6687551606379
 30
0.0
 11
264.18238189723
 21
98.8594724785566
 31
0.0
  0
LINE
  5
   5E0
  8
0
  6
CONTINUOUS
 62
     1
 10
264.182380609591
 20
98.859469356886
 30
0.0
 11
264.282647252017
 21
99.1680585296722
 31
0.0
  0
LINE
  5
   5E1
  8
0
  6
CONTINUOUS
 62
     1
 10
264.282649240862
 20
99.16806233533
 30
0.0
 11
264.282649240862
 21
100.218062317449
 31
0.0
  0
LINE
  5
   5E2
  8
0
  6
CONTINUOUS
 62
     1
 10
264.182381677107
 20
100.526648383948
 30
0.0
 11
264.282648319533
 21
100.218059211162
 31
0.0
  0
LINE
  5
   5E3
  8
0
  6
CONTINUOUS
 62
     1
 10
263.919882300357
 20
100.717368370714
 30
0.0
 11
264.182382293569
 21
100.526651052795
 31
0.0
  0
LINE
  5
   5E4
  8
0
  6
CONTINUOUS
 62
     1
 10
263.595415899904
 20
100.717368796983
 30
0.0
 11
263.919882599701
 21
100.717368796983
 31
0.0
  0
LINE
  5
   5E5
  8
0
  6
CONTINUOUS
 62
     1
 10
263.332915209297
 20
100.526650774069
 30
0.0
 11
263.595415202509
 21
100.717368091988
 31
0.0
  0
LINE
  5
   5E6
  8
0
  6
CONTINUOUS
 62
     1
 10
263.232647292443
 20
100.218058436485
 30
0.0
 11
263.332913934869
 21
100.526647609271
 31
0.0
  0
LINE
  5
   5E7
  8
0
  6
CONTINUOUS
 62
     1
 10
263.232649258759
 20
77.5555627034161
 30
0.0
 11
263.232657269623
 21
87.0055625424836
 31
0.0
  0
LINE
  5
   5E8
  8
0
  6
CONTINUOUS
 62
     1
 10
263.232649258743
 20
77.5555627033887
 30
0.0
 11
264.282662592302
 21
77.5555627033887
 31
0.0
  0
LINE
  5
   5E9
  8
0
  6
CONTINUOUS
 62
     1
 10
264.282651911178
 20
87.0055358396246
 30
0.0
 11
264.28266259233
 21
77.5555627034375
 31
0.0
  0
LINE
  5
   5EA
  8
0
  6
CONTINUOUS
 62
     1
 10
263.232657297526
 20
87.0055625578754
 30
0.0
 11
264.282651939069
 21
87.0055358549959
 31
0.0
  0
LINE
  5
   5EB
  8
0
  6
CONTINUOUS
 62
     5
 10
174.857662779597
 20
55.1555831122619
 30
0.0
 11
180.632652000097
 21
55.155551068806
 31
0.0
  0
LINE
  5
   5EC
  8
0
  6
CONTINUOUS
 62
     5
 10
174.857662780057
 20
104.155562250393
 30
0.0
 11
180.632652000557
 21
104.155562250393
 31
0.0
  0
LINE
  5
   5ED
  8
0
  6
CONTINUOUS
 62
     5
 10
180.632652000557
 20
102.755524890203
 30
0.0
 11
180.632652000557
 21
104.155562250393
 31
0.0
  0
LINE
  5
   5EE
  8
0
  6
CONTINUOUS
 62
     5
 10
180.632652000557
 20
55.1555510685622
 30
0.0
 11
180.632652000557
 21
56.5555069849677
 31
0.0
  0
LINE
  5
   5EF
  8
0
  6
CONTINUOUS
 62
     5
 10
174.507647197879
 20
55.5055163488575
 30
0.0
 11
174.507647197879
 21
103.805563591498
 31
0.0
  0
LINE
  5
   5F0
  8
0
  6
CONTINUOUS
 62
     1
 10
180.282649336229
 20
55.155604474323
 30
0.0
 11
180.282649336229
 21
56.5555136606878
 31
0.0
  0
LINE
  5
   5F1
  8
0
  6
CONTINUOUS
 62
     1
 10
180.282649336229
 20
99.5181424380107
 30
0.0
 11
180.282649336229
 21
104.155562250393
 31
0.0
  0
LINE
  5
   5F2
  8
0
  6
CONTINUOUS
 62
     5
 10
174.50765593165
 20
55.5056047229728
 30
0.0
 11
174.534292055704
 21
55.3715776246104
 31
0.0
  0
LINE
  5
   5F3
  8
0
  6
CONTINUOUS
 62
     5
 10
174.534305816795
 20
55.3716652456969
 30
0.0
 11
174.61016335753
 21
55.2580284704361
 31
0.0
  0
LINE
  5
   5F4
  8
0
  6
CONTINUOUS
 62
     5
 10
174.610175799961
 20
55.2581163641764
 30
0.0
 11
174.723724460513
 21
55.182246807082
 31
0.0
  0
LINE
  5
   5F5
  8
0
  6
CONTINUOUS
 62
     5
 10
174.723724218329
 20
55.1822470794742
 30
0.0
 11
174.857663197999
 21
55.1555829174012
 31
0.0
  0
LINE
  5
   5F6
  8
0
  6
CONTINUOUS
 62
     5
 10
174.723724052761
 20
104.128917559765
 30
0.0
 11
174.857663030008
 21
104.155561693223
 31
0.0
  0
LINE
  5
   5F7
  8
0
  6
CONTINUOUS
 62
     5
 10
174.610178066415
 20
104.053046475859
 30
0.0
 11
174.72372405222
 21
104.128914696483
 31
0.0
  0
LINE
  5
   5F8
  8
0
  6
CONTINUOUS
 62
     5
 10
174.53430561418
 20
103.939505155021
 30
0.0
 11
174.610175174171
 21
104.053051146129
 31
0.0
  0
LINE
  5
   5F9
  8
0
  6
CONTINUOUS
 62
     5
 10
174.507656138114
 20
103.805561898361
 30
0.0
 11
174.5343056135
 21
103.939503546641
 31
0.0
  0
LINE
  5
   5FA
  8
0
  6
CONTINUOUS
 62
     1
 10
180.282649334228
 20
56.5555176672483
 30
0.0
 11
180.632650663411
 21
56.5555136618163
 31
0.0
  0
LINE
  5
   5FB
  8
0
  6
CONTINUOUS
 62
     1
 10
180.282649332753
 20
102.755556941044
 30
0.0
 11
180.632650661936
 21
102.75556228162
 31
0.0
  0
LINE
  5
   5FC
  8
0
  6
CONTINUOUS
 62
     1
 10
179.3201493522
 20
60.4054722059308
 30
0.0
 11
180.632649329848
 21
60.4054655302104
 31
0.0
  0
LINE
  5
   5FD
  8
0
  6
CONTINUOUS
 62
     1
 10
179.32014935262
 20
59.0054655537798
 30
0.0
 11
180.632649330269
 21
59.0054655537798
 31
0.0
  0
LINE
  5
   5FE
  8
0
  6
CONTINUOUS
 62
     1
 10
180.282649336229
 20
96.8055143103784
 30
0.0
 11
180.632649330269
 21
96.8055143103784
 31
0.0
  0
LINE
  5
   5FF
  8
0
  6
CONTINUOUS
 62
     1
 10
180.282649336229
 20
95.4055143342202
 30
0.0
 11
180.632649330269
 21
95.4055143342202
 31
0.0
  0
LINE
  5
   600
  8
0
  6
CONTINUOUS
 62
     5
 10
180.632649330269
 20
62.8554935262391
 30
0.0
 11
180.632649330269
 21
94.3554929897973
 31
0.0
  0
LINE
  5
   601
  8
0
  6
CONTINUOUS
 62
     5
 10
180.632649330242
 20
57.2554936194378
 30
0.0
 11
180.632650665386
 21
56.5555136579461
 31
0.0
  0
LINE
  5
   602
  8
0
  6
CONTINUOUS
 62
     5
 10
180.632649330269
 20
58.655780653729
 30
0.0
 11
180.632649330269
 21
60.7551984951734
 31
0.0
  0
LINE
  5
   603
  8
0
  6
CONTINUOUS
 62
     5
 10
180.632620418584
 20
99.9554928944443
 30
0.0
 11
180.632620418584
 21
102.755524890217
 31
0.0
  0
LINE
  5
   604
  8
0
  6
CONTINUOUS
 62
     5
 10
180.632649330269
 20
95.0554983184525
 30
0.0
 11
180.632649330269
 21
97.1554982826897
 31
0.0
  0
LINE
  5
   605
  8
0
  6
CONTINUOUS
 62
     1
 10
177.657649380933
 20
60.4054815516662
 30
0.0
 11
177.657649380933
 21
60.7556430981322
 31
0.0
  0
LINE
  5
   606
  8
0
  6
CONTINUOUS
 62
     1
 10
180.282650671373
 20
99.9554928944299
 30
0.0
 11
180.632649330269
 21
99.9554928944299
 31
0.0
  0
LINE
  5
   607
  8
0
  6
CONTINUOUS
 62
     1
 10
178.882649360071
 20
94.3554929897973
 30
0.0
 11
180.632649330269
 21
94.3554929897973
 31
0.0
  0
LINE
  5
   608
  8
0
  6
CONTINUOUS
 62
     1
 10
179.32014935262
 20
57.2554976270386
 30
0.0
 11
180.632649330269
 21
57.2554976270386
 31
0.0
  0
LINE
  5
   609
  8
0
  6
CONTINUOUS
 62
     1
 10
178.882649360071
 20
62.8554988668152
 30
0.0
 11
180.632649330269
 21
62.8554988668152
 31
0.0
  0
LINE
  5
   60A
  8
0
  6
CONTINUOUS
 62
     5
 10
174.157649440537
 20
73.7054906711767
 30
0.0
 11
174.157649440537
 21
80.7054905519674
 31
0.0
  0
LINE
  5
   60B
  8
0
  6
CONTINUOUS
 62
     1
 10
176.170140060256
 20
99.5179875613044
 30
0.0
 11
177.395149385403
 21
99.5179875613044
 31
0.0
  0
LINE
  5
   60C
  8
0
  6
CONTINUOUS
 62
     1
 10
176.170140060256
 20
99.5179875613044
 30
0.0
 11
177.395149385403
 21
99.5179875613044
 31
0.0
  0
LINE
  5
   60D
  8
0
  6
CONTINUOUS
 62
     1
 10
178.882649360071
 20
94.7055196867173
 30
0.0
 11
180.282649336229
 21
94.7055196867173
 31
0.0
  0
LINE
  5
   60E
  8
0
  6
CONTINUOUS
 62
     1
 10
180.282649336229
 20
94.7055196867173
 30
0.0
 11
180.282649336229
 21
99.5179875613044
 31
0.0
  0
LINE
  5
   60F
  8
0
  6
CONTINUOUS
 62
     1
 10
178.182648035877
 20
92.9556051672978
 30
0.0
 11
178.882640013092
 21
92.9555998267218
 31
0.0
  0
LINE
  5
   610
  8
0
  6
CONTINUOUS
 62
     1
 10
178.882640013995
 20
92.9555998261414
 30
0.0
 11
178.882644019427
 21
94.3555624157884
 31
0.0
  0
LINE
  5
   611
  8
0
  6
CONTINUOUS
 62
     1
 10
178.182648032801
 20
93.8306104977575
 30
0.0
 11
178.88264134516
 21
93.8305998166054
 31
0.0
  0
LINE
  5
   612
  8
0
  6
CONTINUOUS
 62
     1
 10
177.395149385403
 20
97.5054875955771
 30
0.0
 11
177.395149385403
 21
99.5179875613044
 31
0.0
  0
LINE
  5
   613
  8
0
  6
CONTINUOUS
 62
     1
 10
177.395145659177
 20
97.5054940099064
 30
0.0
 11
177.920145661769
 21
96.9804940073143
 31
0.0
  0
LINE
  5
   614
  8
0
  6
CONTINUOUS
 62
     1
 10
177.920149376462
 20
96.9804876045178
 30
0.0
 11
179.145149355601
 21
96.9804876045178
 31
0.0
  0
LINE
  5
   615
  8
0
  6
CONTINUOUS
 62
     1
 10
179.145149355601
 20
96.9804876045178
 30
0.0
 11
179.145149355601
 21
99.5181424380107
 31
0.0
  0
LINE
  5
   616
  8
0
  6
CONTINUOUS
 62
     1
 10
177.395149385403
 20
99.5180676699456
 30
0.0
 11
180.282649336229
 21
99.5180676699456
 31
0.0
  0
LINE
  5
   617
  8
0
  6
CONTINUOUS
 62
     1
 10
177.920149376398
 20
58.1305443422124
 30
0.0
 11
179.320149352556
 21
58.1305416719243
 31
0.0
  0
LINE
  5
   618
  8
0
  6
CONTINUOUS
 62
     1
 10
179.32014935262
 20
56.5556431696577
 30
0.0
 11
179.32014935262
 21
58.1305416718901
 31
0.0
  0
LINE
  5
   619
  8
0
  6
CONTINUOUS
 62
     1
 10
177.920149376462
 20
56.5556431696577
 30
0.0
 11
177.920149376462
 21
58.1305443421782
 31
0.0
  0
LINE
  5
   61A
  8
0
  6
CONTINUOUS
 62
     1
 10
176.69514539177
 20
60.4055109249028
 30
0.0
 11
179.320149352498
 21
60.4055176006232
 31
0.0
  0
LINE
  5
   61B
  8
0
  6
CONTINUOUS
 62
     1
 10
179.32014935262
 20
58.1305176392978
 30
0.0
 11
179.32014935262
 21
60.4055176005547
 31
0.0
  0
LINE
  5
   61C
  8
0
  6
CONTINUOUS
 62
     1
 10
178.882649360071
 20
90.8555731580432
 30
0.0
 11
178.882649360071
 21
92.9555838034326
 31
0.0
  0
LINE
  5
   61D
  8
0
  6
CONTINUOUS
 62
     1
 10
176.695145695351
 20
60.4055105445439
 30
0.0
 11
176.721867267385
 21
60.4322321165784
 31
0.0
  0
LINE
  5
   61E
  8
0
  6
CONTINUOUS
 62
     1
 10
176.695146400027
 20
60.4055589779774
 30
0.0
 11
177.045238520474
 21
60.7556417437016
 31
0.0
  0
LINE
  5
   61F
  8
0
  6
CONTINUOUS
 62
     1
 10
178.882652212191
 20
60.7556430981331
 30
0.0
 11
178.882652212191
 21
90.8555731580441
 31
0.0
  0
LINE
  5
   620
  8
0
  6
CONTINUOUS
 62
     1
 10
178.882649360071
 20
94.3555624172864
 30
0.0
 11
178.882649360071
 21
95.9306424991055
 31
0.0
  0
LINE
  5
   621
  8
0
  6
CONTINUOUS
 62
     1
 10
176.695149397324
 20
60.7556430981322
 30
0.0
 11
178.882649360071
 21
60.7556430981322
 31
0.0
  0
LINE
  5
   622
  8
0
  6
CONTINUOUS
 62
     1
 10
176.695149397324
 20
56.5556431696577
 30
0.0
 11
180.282649336229
 21
56.5556431696577
 31
0.0
  0
LINE
  5
   623
  8
0
  6
CONTINUOUS
 62
     1
 10
176.695149397324
 20
56.5556431696577
 30
0.0
 11
176.695149397324
 21
60.7556430981322
 31
0.0
  0
LINE
  5
   624
  8
0
  6
CONTINUOUS
 62
     1
 10
176.170146735977
 20
95.9306424991055
 30
0.0
 11
178.882649360071
 21
95.9306424991055
 31
0.0
  0
LINE
  5
   625
  8
0
  6
CONTINUOUS
 62
     1
 10
176.170146735977
 20
95.9306424991055
 30
0.0
 11
176.170146735977
 21
99.5181424380107
 31
0.0
  0
LINE
  5
   626
  8
0
  6
CONTINUOUS
 62
     1
 10
178.532649366032
 20
94.3555624172864
 30
0.0
 11
178.882649360071
 21
94.3555624172864
 31
0.0
  0
LINE
  5
   627
  8
0
  6
CONTINUOUS
 62
     1
 10
178.398710591819
 20
94.3289178099403
 30
0.0
 11
178.532649569066
 21
94.3555619433985
 31
0.0
  0
LINE
  5
   628
  8
0
  6
CONTINUOUS
 62
     1
 10
178.285161884755
 20
94.2530474891262
 30
0.0
 11
178.398710540009
 21
94.3289157149847
 31
0.0
  0
LINE
  5
   629
  8
0
  6
CONTINUOUS
 62
     1
 10
178.2092922037
 20
94.1395051350677
 30
0.0
 11
178.285161763692
 21
94.2530511261757
 31
0.0
  0
LINE
  5
   62A
  8
0
  6
CONTINUOUS
 62
     1
 10
178.182649377484
 20
94.0055623479195
 30
0.0
 11
178.209292176015
 21
94.1395039953857
 31
0.0
  0
LINE
  5
   62B
  8
0
  6
CONTINUOUS
 62
     1
 10
178.182649371992
 20
91.2055731520827
 30
0.0
 11
178.182649371992
 21
94.0055624232468
 31
0.0
  0
LINE
  5
   62C
  8
0
  6
CONTINUOUS
 62
     1
 10
178.182649392613
 20
91.2055730754668
 30
0.0
 11
178.209292191144
 21
91.0716314280006
 31
0.0
  0
LINE
  5
   62D
  8
0
  6
CONTINUOUS
 62
     1
 10
178.209291586318
 20
91.071632704088
 30
0.0
 11
178.28516114631
 21
90.9580867129799
 31
0.0
  0
LINE
  5
   62E
  8
0
  6
CONTINUOUS
 62
     1
 10
178.285163864736
 20
90.9580824769774
 30
0.0
 11
178.398712519991
 21
90.8822142511189
 31
0.0
  0
LINE
  5
   62F
  8
0
  6
CONTINUOUS
 62
     1
 10
178.398710771155
 20
90.8822167925237
 30
0.0
 11
178.532649748402
 21
90.8555726590656
 31
0.0
  0
LINE
  5
   630
  8
0
  6
CONTINUOUS
 62
     1
 10
178.532649366032
 20
90.8555731580432
 30
0.0
 11
178.882645354639
 21
90.8555731580432
 31
0.0
  0
LINE
  5
   631
  8
0
  6
CONTINUOUS
 62
     1
 10
288.957659501801
 20
92.9555677817043
 30
0.0
 11
289.307654155265
 21
92.9555677817043
 31
0.0
  0
LINE
  5
   632
  8
0
  6
CONTINUOUS
 62
     7
 10
288.957659501801
 20
104.155562250393
 30
0.0
 11
289.307654155265
 21
104.155562250393
 31
0.0
  0
LINE
  5
   633
  8
0
  6
DOT
 62
     7
 10
278.632607607011
 20
104.155562250393
 30
0.0
 11
287.73260594693
 21
104.155562250393
 31
0.0
  0
LINE
  5
   634
  8
0
  6
DOT
 62
     7
 10
278.632607607011
 20
92.9555677817043
 30
0.0
 11
287.73260594693
 21
92.9555677817043
 31
0.0
  0
LINE
  5
   635
  8
0
  6
DOT
 62
     7
 10
278.632607607011
 20
53.4930577725945
 30
0.0
 11
287.73260594693
 21
53.4930577725945
 31
0.0
  0
LINE
  5
   636
  8
0
  6
CONTINUOUS
 62
     7
 10
289.307659495841
 20
53.4930577725945
 30
0.0
 11
289.307659495841
 21
55.1555550739943
 31
0.0
  0
LINE
  5
   637
  8
0
  6
DOT
 62
     7
 10
278.632607607011
 20
82.45554909045
 30
0.0
 11
287.73260594693
 21
82.4555583474537
 31
0.0
  0
LINE
  5
   638
  8
0
  6
CONTINUOUS
 62
     7
 10
289.307654155265
 20
104.155562250394
 30
0.0
 11
289.307659495841
 21
55.155552403707
 31
0.0
  0
LINE
  5
   639
  8
0
  6
CONTINUOUS
 62
     7
 10
289.657654149304
 20
73.7055467472255
 30
0.0
 11
289.657654149304
 21
80.7055466280162
 31
0.0
  0
LINE
  5
   63A
  8
0
  6
CONTINUOUS
 62
     1
 10
218.607646680842
 20
86.7626037148066
 30
0.0
 11
253.957643408547
 21
86.7626037148066
 31
0.0
  0
LINE
  5
   63B
  8
0
  6
CONTINUOUS
 62
     1
 10
218.607646680842
 20
87.1126037088461
 30
0.0
 11
253.957643408547
 21
87.1126037088461
 31
0.0
  0
LINE
  5
   63C
  8
0
  6
CONTINUOUS
 62
   210
 10
234.532648412357
 20
65.1061164279747
 30
0.0
 11
234.532648412357
 21
85.8050063800401
 31
0.0
  0
LINE
  5
   63D
  8
0
  6
CONTINUOUS
 62
   210
 10
249.232649497162
 20
65.1061164279747
 30
0.0
 11
249.232649497162
 21
85.8050063800401
 31
0.0
  0
LINE
  5
   63E
  8
0
  6
CONTINUOUS
 62
     1
 10
218.607646680842
 20
80.1126038280554
 30
0.0
 11
234.532649079929
 21
80.1126038280554
 31
0.0
  0
LINE
  5
   63F
  8
0
  6
CONTINUOUS
 62
     1
 10
249.232649497162
 20
80.1126038280554
 30
0.0
 11
253.957644076119
 21
80.1126038280554
 31
0.0
  0
LINE
  5
   640
  8
0
  6
CONTINUOUS
 62
     1
 10
249.232649497162
 20
80.4626038220949
 30
0.0
 11
253.957644076119
 21
80.4626038220949
 31
0.0
  0
LINE
  5
   641
  8
0
  6
CONTINUOUS
 62
     1
 10
218.607646680842
 20
80.4626038220949
 30
0.0
 11
234.532649079929
 21
80.4626038220949
 31
0.0
  0
LINE
  5
   642
  8
0
  6
CONTINUOUS
 62
     1
 10
249.232649497162
 20
70.722202147763
 30
0.0
 11
253.957644076119
 21
70.722202147763
 31
0.0
  0
LINE
  5
   643
  8
0
  6
CONTINUOUS
 62
     1
 10
218.607646680842
 20
70.722202147763
 30
0.0
 11
234.532649079929
 21
70.722202147763
 31
0.0
  0
LINE
  5
   644
  8
0
  6
CONTINUOUS
 62
     1
 10
218.607646680842
 20
70.3722021537235
 30
0.0
 11
234.532649079929
 21
70.3722021537235
 31
0.0
  0
LINE
  5
   645
  8
0
  6
CONTINUOUS
 62
     1
 10
249.232649497162
 20
70.3722021537235
 30
0.0
 11
253.957644076119
 21
70.3722021537235
 31
0.0
  0
LINE
  5
   646
  8
0
  6
CONTINUOUS
 62
     1
 10
218.607646680842
 20
64.0722022610119
 30
0.0
 11
253.957643408547
 21
64.0722022610119
 31
0.0
  0
LINE
  5
   647
  8
0
  6
CONTINUOUS
 62
     1
 10
218.607646680842
 20
63.7222022669723
 30
0.0
 11
253.957643408547
 21
63.7222022669723
 31
0.0
  0
LINE
  5
   648
  8
0
  6
CONTINUOUS
 62
     1
 10
174.507656110297
 20
103.805562256354
 30
0.0
 11
180.282649336229
 21
103.805562256354
 31
0.0
  0
LINE
  5
   649
  8
0
  6
CONTINUOUS
 62
     1
 10
174.50765610039
 20
55.5056044723872
 30
0.0
 11
175.645149405299
 21
55.5056298401232
 31
0.0
  0
LINE
  5
   64A
  8
0
  6
CONTINUOUS
 62
     1
 10
177.657649380933
 20
60.7554842159938
 30
0.0
 11
180.632649330269
 21
60.7554842159938
 31
0.0
  0
LINE
  5
   64B
  8
0
  6
CONTINUOUS
 62
     1
 10
179.32014935262
 20
58.6554842517566
 30
0.0
 11
180.632649330269
 21
58.6554842517566
 31
0.0
  0
LINE
  5
   64C
  8
0
  6
CONTINUOUS
 62
     1
 10
180.282649336229
 20
97.1554982826897
 30
0.0
 11
180.632649330269
 21
97.1554982826897
 31
0.0
  0
LINE
  5
   64D
  8
0
  6
CONTINUOUS
 62
     1
 10
180.282649336229
 20
95.0554983184525
 30
0.0
 11
180.632649330269
 21
95.0554983184525
 31
0.0
  0
LINE
  5
   64E
  8
0
  6
CONTINUOUS
 62
     5
 10
180.632649330269
 20
97.3304929391334
 30
0.0
 11
180.632649330269
 21
99.9554928944299
 31
0.0
  0
LINE
  5
   64F
  8
0
  6
CONTINUOUS
 62
     5
 10
180.632649330269
 20
97.1554982826897
 30
0.0
 11
180.632649330269
 21
97.3304929391334
 31
0.0
  0
LINE
  5
   650
  8
0
  6
CONTINUOUS
 62
     5
 10
180.632649330269
 20
94.8804929808566
 30
0.0
 11
180.632649330269
 21
95.0554983184525
 31
0.0
  0
LINE
  5
   651
  8
0
  6
CONTINUOUS
 62
     5
 10
180.632649330269
 20
94.3554929897973
 30
0.0
 11
180.632649330269
 21
94.8804929808566
 31
0.0
  0
LINE
  5
   652
  8
0
  6
CONTINUOUS
 62
     5
 10
180.632649330269
 20
60.9304842130135
 30
0.0
 11
180.632649330269
 21
62.8554988668152
 31
0.0
  0
LINE
  5
   653
  8
0
  6
CONTINUOUS
 62
     5
 10
180.632649330269
 20
60.7554842159938
 30
0.0
 11
180.632649330269
 21
60.9304842130135
 31
0.0
  0
LINE
  5
   654
  8
0
  6
CONTINUOUS
 62
     5
 10
180.632649330269
 20
58.4804842547368
 30
0.0
 11
180.632649330269
 21
58.6554842517566
 31
0.0
  0
LINE
  5
   655
  8
0
  6
CONTINUOUS
 62
     5
 10
180.632649330269
 20
57.2554976270386
 30
0.0
 11
180.632649330269
 21
58.4804842547368
 31
0.0
  0
LINE
  5
   656
  8
0
  6
CONTINUOUS
 62
     5
 10
174.157649440537
 20
73.7054906711767
 30
0.0
 11
174.507649434577
 21
73.7054906711767
 31
0.0
  0
LINE
  5
   657
  8
0
  6
CONTINUOUS
 62
     5
 10
174.157649440537
 20
80.7054905519674
 30
0.0
 11
174.507649434577
 21
80.7054905519674
 31
0.0
  0
LINE
  5
   658
  8
0
  6
CONTINUOUS
 62
     1
 10
177.657649344988
 20
97.2429862663788
 30
0.0
 11
178.4451493415
 21
98.0304862628913
 31
0.0
  0
LINE
  5
   659
  8
0
  6
CONTINUOUS
 62
     1
 10
175.645149415205
 20
55.5056298360989
 30
0.0
 11
175.645149415205
 21
61.8056457505388
 31
0.0
  0
LINE
  5
   65A
  8
0
  6
CONTINUOUS
 62
     1
 10
175.645149415205
 20
61.8056457505388
 30
0.0
 11
176.695149397324
 21
61.8056457505388
 31
0.0
  0
LINE
  5
   65B
  8
0
  6
CONTINUOUS
 62
     1
 10
175.645150118914
 20
61.8056450029513
 30
0.0
 11
176.695150124096
 21
60.755642342514
 31
0.0
  0
LINE
  5
   65C
  8
0
  6
CONTINUOUS
 62
     1
 10
175.645149414931
 20
55.5056298362167
 30
0.0
 11
176.695149397049
 21
55.5056338416487
 31
0.0
  0
LINE
  5
   65D
  8
0
  6
CONTINUOUS
 62
     1
 10
175.645148869379
 20
55.5056301947327
 30
0.0
 11
176.695148874521
 21
56.555643564725
 31
0.0
  0
LINE
  5
   65E
  8
0
  6
CONTINUOUS
 62
     1
 10
178.970149358581
 20
56.5556351587936
 30
0.0
 11
178.970149358581
 21
58.1305416718901
 31
0.0
  0
LINE
  5
   65F
  8
0
  6
CONTINUOUS
 62
     1
 10
176.695149397324
 20
61.8056457505388
 30
0.0
 11
178.882649360071
 21
61.8056457505388
 31
0.0
  0
LINE
  5
   660
  8
0
  6
CONTINUOUS
 62
     1
 10
176.695149397152
 20
55.5056338416218
 30
0.0
 11
180.282649336058
 21
55.505645857918
 31
0.0
  0
LINE
  5
   661
  8
0
  6
CONTINUOUS
 62
     1
 10
175.120149424146
 20
94.880647857563
 30
0.0
 11
175.120149424146
 21
100.568147760705
 31
0.0
  0
LINE
  5
   662
  8
0
  6
CONTINUOUS
 62
     1
 10
175.120149424146
 20
100.568147760705
 30
0.0
 11
176.170146735977
 21
100.568147760705
 31
0.0
  0
LINE
  5
   663
  8
0
  6
CONTINUOUS
 62
     1
 10
175.120150472619
 20
100.568146014234
 30
0.0
 11
176.170147822547
 21
99.5181406985413
 31
0.0
  0
LINE
  5
   664
  8
0
  6
CONTINUOUS
 62
     1
 10
175.120149230186
 20
94.880652769442
 30
0.0
 11
176.170146550611
 21
95.9306474346255
 31
0.0
  0
LINE
  5
   665
  8
0
  6
CONTINUOUS
 62
     1
 10
178.445149367522
 20
98.0304875866364
 30
0.0
 11
179.145149355601
 21
98.0304875866364
 31
0.0
  0
LINE
  5
   666
  8
0
  6
CONTINUOUS
 62
     1
 10
178.445149367522
 20
98.0304875866364
 30
0.0
 11
178.445149367522
 21
99.5180676699456
 31
0.0
  0
LINE
  5
   667
  8
0
  6
CONTINUOUS
 62
     1
 10
176.170146735977
 20
100.568147760705
 30
0.0
 11
180.282649336229
 21
100.568147760705
 31
0.0
  0
LINE
  5
   668
  8
0
  6
CONTINUOUS
 62
     1
 10
175.120149424146
 20
94.880647857563
 30
0.0
 11
178.882649360071
 21
94.880647857563
 31
0.0
  0
LINE
  5
   669
  8
0
  6
CONTINUOUS
 62
     7
 10
289.307659495841
 20
80.7055466280162
 30
0.0
 11
289.657654149304
 21
80.7055466280162
 31
0.0
  0
LINE
  5
   66A
  8
0
  6
CONTINUOUS
 62
     7
 10
289.307654155265
 20
73.7055467472255
 30
0.0
 11
289.657654149304
 21
73.7055467472255
 31
0.0
  0
LINE
  5
   66B
  8
0
  6
CONTINUOUS
 62
   210
 10
234.532648412357
 20
65.1061164279747
 30
0.0
 11
249.232649497162
 21
65.1061164279747
 31
0.0
  0
LINE
  5
   66C
  8
0
  6
CONTINUOUS
 62
   210
 10
234.532648412357
 20
65.4882853820377
 30
0.0
 11
249.232649497162
 21
65.4882853820377
 31
0.0
  0
LINE
  5
   66D
  8
0
  6
CONTINUOUS
 62
   210
 10
234.532648412357
 20
85.4228400962652
 30
0.0
 11
249.232649497162
 21
85.4228400962652
 31
0.0
  0
LINE
  5
   66E
  8
0
  6
CONTINUOUS
 62
   210
 10
234.532648412357
 20
85.8050063800401
 30
0.0
 11
249.232649497162
 21
85.8050063800401
 31
0.0
  0
CIRCLE
  5
   66F
  8
0
  6
CONTINUOUS
 62
     7
 10
284.582658881242
 20
68.2805497913071
 30
0.0
 40
1.83750002924935
  0
LINE
  5
   670
  8
0
  6
CONTINUOUS
 62
     1
 10
180.632649330269
 20
61.8930467786602
 30
0.0
 11
208.282607299956
 21
61.8930467786602
 31
0.0
  0
LINE
  5
   671
  8
0
  6
DASHDOT
 62
     2
 10
168.547625132814
 20
82.2805626229224
 30
0.0
 11
283.948398606118
 21
82.2805626229224
 31
0.0
  0
LINE
  5
   672
  8
0
  6
CONTINUOUS
 62
     7
 10
181.070109268491
 20
29.4305526720528
 30
0.0
 11
278.195107614462
 21
29.4305526720528
 31
0.0
  0
LINE
  5
   673
  8
0
  6
CONTINUOUS
 62
     1
 10
218.030116429437
 20
164.285536679624
 30
0.0
 11
218.030116429437
 21
173.28053652644
 31
0.0
  0
LINE
  5
   674
  8
0
  6
CONTINUOUS
 62
     1
 10
219.290116407979
 20
164.285536679624
 30
0.0
 11
219.290116407979
 21
173.28053652644
 31
0.0
  0
LINE
  5
   675
  8
0
  6
CONTINUOUS
 62
     1
 10
220.550116386522
 20
164.285536679624
 30
0.0
 11
220.550116386522
 21
173.28053652644
 31
0.0
  0
LINE
  5
   676
  8
0
  6
CONTINUOUS
 62
     1
 10
221.810116365064
 20
164.285536679624
 30
0.0
 11
221.810116365064
 21
173.28053652644
 31
0.0
  0
LINE
  5
   677
  8
0
  6
CONTINUOUS
 62
     1
 10
223.070116343606
 20
164.285536679624
 30
0.0
 11
223.070116343606
 21
173.28053652644
 31
0.0
  0
LINE
  5
   678
  8
0
  6
CONTINUOUS
 62
     1
 10
224.330116322149
 20
164.285536679624
 30
0.0
 11
224.330116322149
 21
173.28053652644
 31
0.0
  0
LINE
  5
   679
  8
0
  6
CONTINUOUS
 62
     1
 10
225.590116300691
 20
164.285536679624
 30
0.0
 11
225.590116300691
 21
173.28053652644
 31
0.0
  0
LINE
  5
   67A
  8
0
  6
CONTINUOUS
 62
     1
 10
226.850116279233
 20
164.285536679624
 30
0.0
 11
226.850116279233
 21
173.28053652644
 31
0.0
  0
LINE
  5
   67B
  8
0
  6
CONTINUOUS
 62
     1
 10
228.110116257776
 20
164.285536679624
 30
0.0
 11
228.110116257776
 21
173.28053652644
 31
0.0
  0
LINE
  5
   67C
  8
0
  6
CONTINUOUS
 62
     1
 10
229.370116236318
 20
164.285536679624
 30
0.0
 11
229.370116236318
 21
173.28053652644
 31
0.0
  0
LINE
  5
   67D
  8
0
  6
CONTINUOUS
 62
     1
 10
230.63011621486
 20
164.285536679624
 30
0.0
 11
230.63011621486
 21
173.28053652644
 31
0.0
  0
LINE
  5
   67E
  8
0
  6
CONTINUOUS
 62
     1
 10
231.890116193403
 20
164.285536679624
 30
0.0
 11
231.890116193403
 21
173.28053652644
 31
0.0
  0
LINE
  5
   67F
  8
0
  6
CONTINUOUS
 62
     1
 10
233.150116171945
 20
164.285536679624
 30
0.0
 11
233.150116171945
 21
173.28053652644
 31
0.0
  0
LINE
  5
   680
  8
0
  6
CONTINUOUS
 62
     1
 10
234.410116150487
 20
164.285536679624
 30
0.0
 11
234.410116150487
 21
173.28053652644
 31
0.0
  0
LINE
  5
   681
  8
0
  6
CONTINUOUS
 62
     1
 10
235.67011612903
 20
164.285536679624
 30
0.0
 11
235.67011612903
 21
173.28053652644
 31
0.0
  0
LINE
  5
   682
  8
0
  6
CONTINUOUS
 62
     1
 10
236.930116107572
 20
164.285536679624
 30
0.0
 11
236.930116107572
 21
173.28053652644
 31
0.0
  0
LINE
  5
   683
  8
0
  6
CONTINUOUS
 62
     1
 10
238.190116086114
 20
164.285536679624
 30
0.0
 11
238.190116086114
 21
173.28053652644
 31
0.0
  0
LINE
  5
   684
  8
0
  6
CONTINUOUS
 62
     1
 10
239.450116064657
 20
164.285536679624
 30
0.0
 11
239.450116064657
 21
173.28053652644
 31
0.0
  0
LINE
  5
   685
  8
0
  6
CONTINUOUS
 62
     1
 10
240.710116043199
 20
164.285536679624
 30
0.0
 11
240.710116043199
 21
173.28053652644
 31
0.0
  0
LINE
  5
   686
  8
0
  6
CONTINUOUS
 62
     1
 10
265.735100036283
 20
164.285536679624
 30
0.0
 11
265.735100036283
 21
173.28053652644
 31
0.0
  0
LINE
  5
   687
  8
0
  6
CONTINUOUS
 62
     1
 10
264.475100057741
 20
164.285536679624
 30
0.0
 11
264.475100057741
 21
173.28053652644
 31
0.0
  0
LINE
  5
   688
  8
0
  6
CONTINUOUS
 62
     1
 10
263.215100079199
 20
164.285536679624
 30
0.0
 11
263.215100079199
 21
173.28053652644
 31
0.0
  0
LINE
  5
   689
  8
0
  6
CONTINUOUS
 62
     1
 10
261.955100100656
 20
164.285536679624
 30
0.0
 11
261.955100100656
 21
173.28053652644
 31
0.0
  0
LINE
  5
   68A
  8
0
  6
CONTINUOUS
 62
     1
 10
260.695100122114
 20
164.285536679624
 30
0.0
 11
260.695100122114
 21
173.28053652644
 31
0.0
  0
LINE
  5
   68B
  8
0
  6
CONTINUOUS
 62
     1
 10
259.435100143572
 20
164.285536679624
 30
0.0
 11
259.435100143572
 21
173.28053652644
 31
0.0
  0
LINE
  5
   68C
  8
0
  6
CONTINUOUS
 62
     1
 10
258.175100165029
 20
164.285536679624
 30
0.0
 11
258.175100165029
 21
173.28053652644
 31
0.0
  0
LINE
  5
   68D
  8
0
  6
CONTINUOUS
 62
     1
 10
256.915100186487
 20
164.285536679624
 30
0.0
 11
256.915100186487
 21
173.28053652644
 31
0.0
  0
LINE
  5
   68E
  8
0
  6
CONTINUOUS
 62
     1
 10
255.655100207945
 20
164.285536679624
 30
0.0
 11
255.655100207945
 21
173.28053652644
 31
0.0
  0
LINE
  5
   68F
  8
0
  6
CONTINUOUS
 62
     1
 10
254.395100229402
 20
164.285536679624
 30
0.0
 11
254.395100229402
 21
173.28053652644
 31
0.0
  0
LINE
  5
   690
  8
0
  6
CONTINUOUS
 62
     1
 10
253.13510025086
 20
164.285536679624
 30
0.0
 11
253.13510025086
 21
173.28053652644
 31
0.0
  0
LINE
  5
   691
  8
0
  6
CONTINUOUS
 62
     1
 10
251.875100272318
 20
164.285536679624
 30
0.0
 11
251.875100272318
 21
173.28053652644
 31
0.0
  0
LINE
  5
   692
  8
0
  6
CONTINUOUS
 62
     1
 10
250.615100293775
 20
164.285536679624
 30
0.0
 11
250.615100293775
 21
173.28053652644
 31
0.0
  0
LINE
  5
   693
  8
0
  6
CONTINUOUS
 62
     1
 10
249.355100315233
 20
164.285536679624
 30
0.0
 11
249.355100315233
 21
173.28053652644
 31
0.0
  0
LINE
  5
   694
  8
0
  6
CONTINUOUS
 62
     1
 10
248.095100336691
 20
164.285536679624
 30
0.0
 11
248.095100336691
 21
173.28053652644
 31
0.0
  0
LINE
  5
   695
  8
0
  6
CONTINUOUS
 62
     1
 10
246.835100358148
 20
164.285536679624
 30
0.0
 11
246.835100358148
 21
173.28053652644
 31
0.0
  0
LINE
  5
   696
  8
0
  6
CONTINUOUS
 62
     1
 10
245.575100379606
 20
164.285536679624
 30
0.0
 11
245.575100379606
 21
173.28053652644
 31
0.0
  0
LINE
  5
   697
  8
0
  6
CONTINUOUS
 62
     1
 10
244.315100401064
 20
164.285536679624
 30
0.0
 11
244.315100401064
 21
173.28053652644
 31
0.0
  0
LINE
  5
   698
  8
0
  6
CONTINUOUS
 62
     1
 10
243.055100422521
 20
164.285536679624
 30
0.0
 11
243.055100422521
 21
173.28053652644
 31
0.0
  0
LINE
  5
   699
  8
0
  6
CONTINUOUS
 62
     1
 10
218.030116429437
 20
29.4305526720528
 30
0.0
 11
218.030116429437
 21
37.55055253377
 31
0.0
  0
LINE
  5
   69A
  8
0
  6
CONTINUOUS
 62
     1
 10
219.290116407979
 20
29.4305526720528
 30
0.0
 11
219.290116407979
 21
37.55055253377
 31
0.0
  0
LINE
  5
   69B
  8
0
  6
CONTINUOUS
 62
     1
 10
220.550116386522
 20
29.4305526720528
 30
0.0
 11
220.550116386522
 21
37.55055253377
 31
0.0
  0
LINE
  5
   69C
  8
0
  6
CONTINUOUS
 62
     1
 10
221.810116365064
 20
29.4305526720528
 30
0.0
 11
221.810116365064
 21
37.55055253377
 31
0.0
  0
LINE
  5
   69D
  8
0
  6
CONTINUOUS
 62
     1
 10
223.070116343606
 20
29.4305526720528
 30
0.0
 11
223.070116343606
 21
37.55055253377
 31
0.0
  0
LINE
  5
   69E
  8
0
  6
CONTINUOUS
 62
     1
 10
224.330116322149
 20
29.4305526720528
 30
0.0
 11
224.330116322149
 21
37.55055253377
 31
0.0
  0
LINE
  5
   69F
  8
0
  6
CONTINUOUS
 62
     1
 10
225.590116300691
 20
29.4305526720528
 30
0.0
 11
225.590116300691
 21
37.55055253377
 31
0.0
  0
LINE
  5
   6A0
  8
0
  6
CONTINUOUS
 62
     1
 10
226.850116279233
 20
29.4305526720528
 30
0.0
 11
226.850116279233
 21
37.55055253377
 31
0.0
  0
LINE
  5
   6A1
  8
0
  6
CONTINUOUS
 62
     1
 10
228.110116257776
 20
29.4305526720528
 30
0.0
 11
228.110116257776
 21
37.55055253377
 31
0.0
  0
LINE
  5
   6A2
  8
0
  6
CONTINUOUS
 62
     1
 10
229.370116236318
 20
29.4305526720528
 30
0.0
 11
229.370116236318
 21
37.55055253377
 31
0.0
  0
LINE
  5
   6A3
  8
0
  6
CONTINUOUS
 62
     1
 10
230.63011621486
 20
29.4305526720528
 30
0.0
 11
230.63011621486
 21
37.55055253377
 31
0.0
  0
LINE
  5
   6A4
  8
0
  6
CONTINUOUS
 62
     1
 10
231.890116193403
 20
29.4305526720528
 30
0.0
 11
231.890116193403
 21
37.55055253377
 31
0.0
  0
LINE
  5
   6A5
  8
0
  6
CONTINUOUS
 62
     1
 10
233.150116171945
 20
29.4305526720528
 30
0.0
 11
233.150116171945
 21
37.55055253377
 31
0.0
  0
LINE
  5
   6A6
  8
0
  6
CONTINUOUS
 62
     1
 10
234.410116150487
 20
29.4305526720528
 30
0.0
 11
234.410116150487
 21
37.55055253377
 31
0.0
  0
LINE
  5
   6A7
  8
0
  6
CONTINUOUS
 62
     1
 10
235.67011612903
 20
29.4305526720528
 30
0.0
 11
235.67011612903
 21
37.55055253377
 31
0.0
  0
LINE
  5
   6A8
  8
0
  6
CONTINUOUS
 62
     1
 10
236.930116107572
 20
29.4305526720528
 30
0.0
 11
236.930116107572
 21
37.55055253377
 31
0.0
  0
LINE
  5
   6A9
  8
0
  6
CONTINUOUS
 62
     1
 10
238.190116086114
 20
29.4305526720528
 30
0.0
 11
238.190116086114
 21
37.55055253377
 31
0.0
  0
LINE
  5
   6AA
  8
0
  6
CONTINUOUS
 62
     1
 10
239.450116064657
 20
29.4305526720528
 30
0.0
 11
239.450116064657
 21
37.55055253377
 31
0.0
  0
LINE
  5
   6AB
  8
0
  6
CONTINUOUS
 62
     1
 10
240.710116043199
 20
29.4305526720528
 30
0.0
 11
240.710116043199
 21
37.55055253377
 31
0.0
  0
LINE
  5
   6AC
  8
0
  6
CONTINUOUS
 62
     1
 10
265.735100036283
 20
29.4305526720528
 30
0.0
 11
265.735100036283
 21
37.55055253377
 31
0.0
  0
LINE
  5
   6AD
  8
0
  6
CONTINUOUS
 62
     1
 10
264.475100057741
 20
29.4305526720528
 30
0.0
 11
264.475100057741
 21
37.55055253377
 31
0.0
  0
LINE
  5
   6AE
  8
0
  6
CONTINUOUS
 62
     1
 10
263.215100079199
 20
29.4305526720528
 30
0.0
 11
263.215100079199
 21
37.55055253377
 31
0.0
  0
LINE
  5
   6AF
  8
0
  6
CONTINUOUS
 62
     1
 10
261.955100100656
 20
29.4305526720528
 30
0.0
 11
261.955100100656
 21
37.55055253377
 31
0.0
  0
LINE
  5
   6B0
  8
0
  6
CONTINUOUS
 62
     1
 10
260.695100122114
 20
29.4305526720528
 30
0.0
 11
260.695100122114
 21
37.55055253377
 31
0.0
  0
LINE
  5
   6B1
  8
0
  6
CONTINUOUS
 62
     1
 10
259.435100143572
 20
29.4305526720528
 30
0.0
 11
259.435100143572
 21
37.55055253377
 31
0.0
  0
LINE
  5
   6B2
  8
0
  6
CONTINUOUS
 62
     1
 10
258.175100165029
 20
29.4305526720528
 30
0.0
 11
258.175100165029
 21
37.55055253377
 31
0.0
  0
LINE
  5
   6B3
  8
0
  6
CONTINUOUS
 62
     1
 10
256.915100186487
 20
29.4305526720528
 30
0.0
 11
256.915100186487
 21
37.55055253377
 31
0.0
  0
LINE
  5
   6B4
  8
0
  6
CONTINUOUS
 62
     1
 10
255.655100207945
 20
29.4305526720528
 30
0.0
 11
255.655100207945
 21
37.55055253377
 31
0.0
  0
LINE
  5
   6B5
  8
0
  6
CONTINUOUS
 62
     1
 10
254.395100229402
 20
29.4305526720528
 30
0.0
 11
254.395100229402
 21
37.55055253377
 31
0.0
  0
LINE
  5
   6B6
  8
0
  6
CONTINUOUS
 62
     1
 10
253.13510025086
 20
29.4305526720528
 30
0.0
 11
253.13510025086
 21
37.55055253377
 31
0.0
  0
LINE
  5
   6B7
  8
0
  6
CONTINUOUS
 62
     1
 10
251.875100272318
 20
29.4305526720528
 30
0.0
 11
251.875100272318
 21
37.55055253377
 31
0.0
  0
LINE
  5
   6B8
  8
0
  6
CONTINUOUS
 62
     1
 10
250.615100293775
 20
29.4305526720528
 30
0.0
 11
250.615100293775
 21
37.55055253377
 31
0.0
  0
LINE
  5
   6B9
  8
0
  6
CONTINUOUS
 62
     1
 10
249.355100315233
 20
29.4305526720528
 30
0.0
 11
249.355100315233
 21
37.55055253377
 31
0.0
  0
LINE
  5
   6BA
  8
0
  6
CONTINUOUS
 62
     1
 10
248.095100336691
 20
29.4305526720528
 30
0.0
 11
248.095100336691
 21
37.55055253377
 31
0.0
  0
LINE
  5
   6BB
  8
0
  6
CONTINUOUS
 62
     1
 10
246.835100358148
 20
29.4305526720528
 30
0.0
 11
246.835100358148
 21
37.55055253377
 31
0.0
  0
LINE
  5
   6BC
  8
0
  6
CONTINUOUS
 62
     1
 10
245.575100379606
 20
29.4305526720528
 30
0.0
 11
245.575100379606
 21
37.55055253377
 31
0.0
  0
LINE
  5
   6BD
  8
0
  6
CONTINUOUS
 62
     1
 10
244.315100401064
 20
29.4305526720528
 30
0.0
 11
244.315100401064
 21
37.55055253377
 31
0.0
  0
LINE
  5
   6BE
  8
0
  6
CONTINUOUS
 62
     1
 10
243.055100422521
 20
29.4305526720528
 30
0.0
 11
243.055100422521
 21
37.55055253377
 31
0.0
  0
LINE
  5
   6BF
  8
0
  6
CONTINUOUS
 62
     1
 10
216.770116450895
 20
29.4305526720528
 30
0.0
 11
216.770116450895
 21
37.55055253377
 31
0.0
  0
LINE
  5
   6C0
  8
0
  6
CONTINUOUS
 62
     1
 10
215.510116472352
 20
29.4305526720528
 30
0.0
 11
215.510116472352
 21
37.55055253377
 31
0.0
  0
LINE
  5
   6C1
  8
0
  6
CONTINUOUS
 62
     1
 10
214.25011649381
 20
29.4305526720528
 30
0.0
 11
214.25011649381
 21
37.55055253377
 31
0.0
  0
LINE
  5
   6C2
  8
0
  6
CONTINUOUS
 62
     1
 10
212.990116515268
 20
29.4305526720528
 30
0.0
 11
212.990116515268
 21
37.55055253377
 31
0.0
  0
LINE
  5
   6C3
  8
0
  6
CONTINUOUS
 62
     1
 10
211.730116536725
 20
29.4305526720528
 30
0.0
 11
211.730116536725
 21
37.55055253377
 31
0.0
  0
LINE
  5
   6C4
  8
0
  6
CONTINUOUS
 62
     1
 10
210.470116558183
 20
29.4305526720528
 30
0.0
 11
210.470116558183
 21
37.55055253377
 31
0.0
  0
LINE
  5
   6C5
  8
0
  6
CONTINUOUS
 62
     1
 10
209.210116579641
 20
29.4305526720528
 30
0.0
 11
209.210116579641
 21
37.55055253377
 31
0.0
  0
LINE
  5
   6C6
  8
0
  6
CONTINUOUS
 62
     1
 10
207.950116601098
 20
29.4305526720528
 30
0.0
 11
207.950116601098
 21
37.55055253377
 31
0.0
  0
LINE
  5
   6C7
  8
0
  6
CONTINUOUS
 62
     1
 10
266.995100014826
 20
29.4305526720528
 30
0.0
 11
266.995100014826
 21
37.55055253377
 31
0.0
  0
LINE
  5
   6C8
  8
0
  6
CONTINUOUS
 62
     1
 10
268.255099993368
 20
29.4305526720528
 30
0.0
 11
268.255099993368
 21
37.55055253377
 31
0.0
  0
LINE
  5
   6C9
  8
0
  6
CONTINUOUS
 62
     1
 10
269.51509997191
 20
29.4305526720528
 30
0.0
 11
269.51509997191
 21
37.55055253377
 31
0.0
  0
LINE
  5
   6CA
  8
0
  6
CONTINUOUS
 62
     1
 10
270.775099950452
 20
29.4305526720528
 30
0.0
 11
270.775099950452
 21
37.55055253377
 31
0.0
  0
LINE
  5
   6CB
  8
0
  6
CONTINUOUS
 62
     1
 10
272.035099928995
 20
29.4305526720528
 30
0.0
 11
272.035099928995
 21
37.55055253377
 31
0.0
  0
LINE
  5
   6CC
  8
0
  6
CONTINUOUS
 62
     1
 10
273.295099907537
 20
29.4305526720528
 30
0.0
 11
273.295099907537
 21
37.55055253377
 31
0.0
  0
LINE
  5
   6CD
  8
0
  6
CONTINUOUS
 62
     1
 10
274.555099886079
 20
29.4305526720528
 30
0.0
 11
274.555099886079
 21
37.55055253377
 31
0.0
  0
LINE
  5
   6CE
  8
0
  6
CONTINUOUS
 62
     1
 10
275.815099864622
 20
29.4305526720528
 30
0.0
 11
275.815099864622
 21
37.55055253377
 31
0.0
  0
LINE
  5
   6CF
  8
0
  6
CONTINUOUS
 62
     1
 10
277.075099843164
 20
29.4305526720528
 30
0.0
 11
277.075099843164
 21
37.55055253377
 31
0.0
  0
LINE
  5
   6D0
  8
0
  6
CONTINUOUS
 62
     7
 10
287.73260594693
 20
104.155562250393
 30
0.0
 11
288.957659501801
 21
104.155562250393
 31
0.0
  0
LINE
  5
   6D1
  8
0
  6
CONTINUOUS
 62
     1
 10
287.73260594693
 20
92.9555677817043
 30
0.0
 11
288.957659501801
 21
92.9555677817043
 31
0.0
  0
LINE
  5
   6D2
  8
0
  6
CONTINUOUS
 62
     1
 10
287.73260594693
 20
82.4555583474537
 30
0.0
 11
289.307654155328
 21
82.4555599496768
 31
0.0
  0
LINE
  5
   6D3
  8
0
  6
CONTINUOUS
 62
     7
 10
287.73260594693
 20
53.4930577725945
 30
0.0
 11
289.307659495841
 21
53.4930577725945
 31
0.0
  0
LINE
  5
   6D4
  8
0
  6
DASHDOT
 62
     7
 10
284.582658881242
 20
65.3930497799391
 30
0.0
 11
284.582658881242
 21
71.168049802675
 31
0.0
  0
LINE
  5
   6D5
  8
0
  6
DASHDOT
 62
     7
 10
281.695158869874
 20
68.2805497913071
 30
0.0
 11
287.47015889261
 21
68.2805497913071
 31
0.0
  0
CIRCLE
  5
   6D6
  8
0
  6
CONTINUOUS
 62
     7
 10
284.343052973849
 20
113.20894463041
 30
0.0
 40
0.139999997615814
  0
INSERT
  5
   6D7
  8
255
  6
CONTINUOUS
 62
     2
  2
$1MOSTRA
 10
241.882606727751
 20
56.8180699871159
 30
0.0
 41
0.349999994039536
 42
0.349999994039536
 50
359.999999792138
 43
0.349999994039536
  0
LINE
  5
   6D8
  8
0
  6
CONTINUOUS
 62
     7
 10
181.070109268491
 20
173.28053652644
 30
0.0
 11
278.195107614462
 21
173.28053652644
 31
0.0
  0
LINE
  5
   6D9
  8
0
  6
CONTINUOUS
 62
     7
 10
180.632609275941
 20
29.8680526646022
 30
0.0
 11
180.632609275941
 21
172.84303653389
 31
0.0
  0
ARC
  5
   6DA
  8
0
  6
CONTINUOUS
 62
     7
 10
181.070109268491
 20
29.8680526646022
 30
0.0
 40
0.437499992549419
 50
180.0
 51
270.0
  0
LINE
  5
   6DB
  8
0
  6
CONTINUOUS
 62
     7
 10
278.632607607011
 20
29.8680526646022
 30
0.0
 11
278.632607607011
 21
47.9805627943255
 31
0.0
  0
LINE
  5
   6DC
  8
0
  6
CONTINUOUS
 62
     7
 10
278.632607607011
 20
116.580563628791
 30
0.0
 11
278.632607607011
 21
172.84303653389
 31
0.0
  0
ARC
  5
   6DD
  8
0
  6
CONTINUOUS
 62
     7
 10
278.195107614462
 20
29.8680526646022
 30
0.0
 40
0.437499992549419
 50
270.0
 51
360.0
  0
LINE
  5
   6DE
  8
0
  6
DOT
 62
     7
 10
278.632607607011
 20
47.9805627943255
 30
0.0
 11
278.632607607011
 21
116.580563628791
 31
0.0
  0
LINE
  5
   6DF
  8
0
  6
CONTINUOUS
 62
     7
 10
180.982609269981
 20
115.635537508128
 30
0.0
 11
208.282607299956
 21
115.635537508128
 31
0.0
  0
LINE
  5
   6E0
  8
0
  6
CONTINUOUS
 62
     7
 10
180.632609275941
 20
115.460537511108
 30
0.0
 11
208.282607299956
 21
115.460537511108
 31
0.0
  0
LINE
  5
   6E1
  8
0
  6
CONTINUOUS
 62
     7
 10
180.632609275941
 20
115.985537502168
 30
0.0
 11
208.282607299956
 21
115.985537502168
 31
0.0
  0
LINE
  5
   6E2
  8
0
  6
CONTINUOUS
 62
     7
 10
180.982609269981
 20
115.460537511108
 30
0.0
 11
180.982609269981
 21
115.985537502168
 31
0.0
  0
LINE
  5
   6E3
  8
0
  6
CONTINUOUS
 62
     7
 10
278.282607612972
 20
116.580563628791
 30
0.0
 11
278.282607612972
 21
116.847664454602
 31
0.0
  0
LINE
  5
   6E4
  8
0
  6
CONTINUOUS
 62
     1
 10
181.385116919983
 20
115.985537502168
 30
0.0
 11
181.385116919983
 21
163.760536688564
 31
0.0
  0
LINE
  5
   6E5
  8
0
  6
CONTINUOUS
 62
     1
 10
207.95011633407
 20
115.985537502168
 30
0.0
 11
207.95011633407
 21
163.760536688564
 31
0.0
  0
LINE
  5
   6E6
  8
0
  6
CONTINUOUS
 62
     1
 10
209.210116446126
 20
116.580563628791
 30
0.0
 11
209.210116446126
 21
163.760536688564
 31
0.0
  0
ARC
  5
   6E7
  8
0
  6
CONTINUOUS
 62
     7
 10
181.070109268491
 20
172.84303653389
 30
0.0
 40
0.437499992549419
 50
90.0
 51
180.0
  0
ARC
  5
   6E8
  8
0
  6
CONTINUOUS
 62
     7
 10
278.195107614462
 20
172.84303653389
 30
0.0
 40
0.437499992549419
 50
0.0
 51
90.0
  0
LINE
  5
   6E9
  8
0
  6
CONTINUOUS
 62
     1
 10
180.982609269981
 20
163.935536685584
 30
0.0
 11
278.282607612972
 21
163.935536685584
 31
0.0
  0
LINE
  5
   6EA
  8
0
  6
CONTINUOUS
 62
     1
 10
180.632609275941
 20
163.760536688564
 30
0.0
 11
278.632607607011
 21
163.760536688564
 31
0.0
  0
LINE
  5
   6EB
  8
0
  6
CONTINUOUS
 62
     1
 10
180.632609275941
 20
164.285536679624
 30
0.0
 11
278.632607607011
 21
164.285536679624
 31
0.0
  0
LINE
  5
   6EC
  8
0
  6
CONTINUOUS
 62
     1
 10
180.982609269981
 20
163.760536688564
 30
0.0
 11
180.982609269981
 21
164.285536679624
 31
0.0
  0
LINE
  5
   6ED
  8
0
  6
CONTINUOUS
 62
     1
 10
278.282607612972
 20
163.760536688564
 30
0.0
 11
278.282607612972
 21
164.285536679624
 31
0.0
  0
LINE
  5
   6EE
  8
0
  6
CONTINUOUS
 62
     1
 10
216.770116450895
 20
164.285536679624
 30
0.0
 11
216.770116450895
 21
173.28053652644
 31
0.0
  0
LINE
  5
   6EF
  8
0
  6
CONTINUOUS
 62
     1
 10
215.510114336122
 20
164.285536679624
 30
0.0
 11
215.510114336122
 21
173.28053652644
 31
0.0
  0
LINE
  5
   6F0
  8
0
  6
CONTINUOUS
 62
     1
 10
214.250112221349
 20
164.285536679624
 30
0.0
 11
214.250112221349
 21
173.28053652644
 31
0.0
  0
LINE
  5
   6F1
  8
0
  6
CONTINUOUS
 62
     1
 10
211.73011333238
 20
164.285536679624
 30
0.0
 11
211.73011333238
 21
173.28053652644
 31
0.0
  0
LINE
  5
   6F2
  8
0
  6
CONTINUOUS
 62
     1
 10
210.470116558183
 20
164.285536679624
 30
0.0
 11
210.470116558183
 21
173.28053652644
 31
0.0
  0
LINE
  5
   6F3
  8
0
  6
CONTINUOUS
 62
     1
 10
212.990115447153
 20
164.285536679624
 30
0.0
 11
212.990115447153
 21
173.28053652644
 31
0.0
  0
LINE
  5
   6F4
  8
0
  6
CONTINUOUS
 62
     1
 10
181.385116919983
 20
164.285536679624
 30
0.0
 11
181.385116919983
 21
173.28053652644
 31
0.0
  0
LINE
  5
   6F5
  8
0
  6
CONTINUOUS
 62
     1
 10
207.95011633407
 20
164.285536679624
 30
0.0
 11
207.95011633407
 21
173.28053652644
 31
0.0
  0
LINE
  5
   6F6
  8
0
  6
CONTINUOUS
 62
     1
 10
209.210116446126
 20
164.285536679624
 30
0.0
 11
209.210116446126
 21
173.28053652644
 31
0.0
  0
LINE
  5
   6F7
  8
0
  6
CONTINUOUS
 62
     1
 10
277.075111151446
 20
164.285536679624
 30
0.0
 11
277.075111151446
 21
173.28053652644
 31
0.0
  0
LINE
  5
   6F8
  8
0
  6
CONTINUOUS
 62
     1
 10
277.880112205852
 20
164.285536679624
 30
0.0
 11
277.880112205852
 21
173.28053652644
 31
0.0
  0
LINE
  5
   6F9
  8
0
  6
CONTINUOUS
 62
     1
 10
272.035113373507
 20
164.285536679624
 30
0.0
 11
272.035113373507
 21
173.28053652644
 31
0.0
  0
LINE
  5
   6FA
  8
0
  6
CONTINUOUS
 62
     1
 10
273.295110147704
 20
164.285536679624
 30
0.0
 11
273.295110147704
 21
173.28053652644
 31
0.0
  0
LINE
  5
   6FB
  8
0
  6
CONTINUOUS
 62
     1
 10
274.555112262476
 20
164.285536679624
 30
0.0
 11
274.555112262476
 21
173.28053652644
 31
0.0
  0
LINE
  5
   6FC
  8
0
  6
CONTINUOUS
 62
     1
 10
275.815114377249
 20
164.285536679624
 30
0.0
 11
275.815114377249
 21
173.28053652644
 31
0.0
  0
LINE
  5
   6FD
  8
0
  6
CONTINUOUS
 62
     1
 10
267.170110252012
 20
164.285536679624
 30
0.0
 11
267.170110252012
 21
173.28053652644
 31
0.0
  0
LINE
  5
   6FE
  8
0
  6
CONTINUOUS
 62
     1
 10
268.255112369765
 20
164.285536679624
 30
0.0
 11
268.255112369765
 21
173.28053652644
 31
0.0
  0
LINE
  5
   6FF
  8
0
  6
CONTINUOUS
 62
     1
 10
269.515114484538
 20
164.285536679624
 30
0.0
 11
269.515114484538
 21
173.28053652644
 31
0.0
  0
LINE
  5
   700
  8
0
  6
CONTINUOUS
 62
     1
 10
270.775111258734
 20
164.285536679624
 30
0.0
 11
270.775111258734
 21
173.28053652644
 31
0.0
  0
LINE
  5
   701
  8
0
  6
CONTINUOUS
 62
     7
 10
180.982609269981
 20
37.9005525278096
 30
0.0
 11
278.282607612972
 21
37.9005525278096
 31
0.0
  0
LINE
  5
   702
  8
0
  6
CONTINUOUS
 62
     7
 10
180.632609275941
 20
37.55055253377
 30
0.0
 11
278.632607607011
 21
37.55055253377
 31
0.0
  0
LINE
  5
   703
  8
0
  6
CONTINUOUS
 62
     7
 10
180.632609275941
 20
38.0755525248293
 30
0.0
 11
278.632607607011
 21
38.0755525248293
 31
0.0
  0
LINE
  5
   704
  8
0
  6
CONTINUOUS
 62
     7
 10
180.982609269981
 20
37.55055253377
 30
0.0
 11
180.982609269981
 21
38.0755525248293
 31
0.0
  0
LINE
  5
   705
  8
0
  6
CONTINUOUS
 62
     7
 10
278.282607612972
 20
37.55055253377
 30
0.0
 11
278.282607612972
 21
38.0755525248293
 31
0.0
  0
LINE
  5
   706
  8
0
  6
CONTINUOUS
 62
     1
 10
216.770116450895
 20
38.0755525248293
 30
0.0
 11
216.770116450895
 21
47.9805627943255
 31
0.0
  0
LINE
  5
   707
  8
0
  6
CONTINUOUS
 62
     1
 10
215.510116472352
 20
38.0755525248293
 30
0.0
 11
215.510116472352
 21
47.9805627943255
 31
0.0
  0
LINE
  5
   708
  8
0
  6
CONTINUOUS
 62
     1
 10
214.25011649381
 20
38.0755525248293
 30
0.0
 11
214.25011649381
 21
47.9805627943255
 31
0.0
  0
LINE
  5
   709
  8
0
  6
CONTINUOUS
 62
     1
 10
212.990116515268
 20
38.0755525248293
 30
0.0
 11
212.990116515268
 21
47.9805627943255
 31
0.0
  0
LINE
  5
   70A
  8
0
  6
CONTINUOUS
 62
     1
 10
211.730116536725
 20
38.0755525248293
 30
0.0
 11
211.730116536725
 21
47.9805627943255
 31
0.0
  0
LINE
  5
   70B
  8
0
  6
CONTINUOUS
 62
     1
 10
210.470116558183
 20
38.0755525248293
 30
0.0
 11
210.470116558183
 21
47.9805627943255
 31
0.0
  0
LINE
  5
   70C
  8
0
  6
CONTINUOUS
 62
     1
 10
209.210116579641
 20
38.0755525248293
 30
0.0
 11
209.210116579641
 21
47.9805627943255
 31
0.0
  0
LINE
  5
   70D
  8
0
  6
CONTINUOUS
 62
     1
 10
207.950116601098
 20
38.0755525248293
 30
0.0
 11
207.950116601098
 21
53.9305522548369
 31
0.0
  0
LINE
  5
   70E
  8
0
  6
CONTINUOUS
 62
     1
 10
266.995100014826
 20
38.0755525248293
 30
0.0
 11
266.995100014826
 21
47.9805627943255
 31
0.0
  0
LINE
  5
   70F
  8
0
  6
CONTINUOUS
 62
     1
 10
268.255099993368
 20
38.0755525248293
 30
0.0
 11
268.255099993368
 21
47.9805627943255
 31
0.0
  0
LINE
  5
   710
  8
0
  6
CONTINUOUS
 62
     1
 10
269.51509997191
 20
38.0755525248293
 30
0.0
 11
269.51509997191
 21
47.9805627943255
 31
0.0
  0
LINE
  5
   711
  8
0
  6
CONTINUOUS
 62
     1
 10
270.775099950452
 20
38.0755525248293
 30
0.0
 11
270.775099950452
 21
47.9805627943255
 31
0.0
  0
LINE
  5
   712
  8
0
  6
CONTINUOUS
 62
     1
 10
272.035099928995
 20
38.0755525248293
 30
0.0
 11
272.035099928995
 21
47.9805627943255
 31
0.0
  0
LINE
  5
   713
  8
0
  6
CONTINUOUS
 62
     1
 10
273.295099907537
 20
38.0755525248293
 30
0.0
 11
273.295099907537
 21
47.9805627943255
 31
0.0
  0
LINE
  5
   714
  8
0
  6
CONTINUOUS
 62
     1
 10
274.555099886079
 20
38.0755525248293
 30
0.0
 11
274.555099886079
 21
47.9805627943255
 31
0.0
  0
LINE
  5
   715
  8
0
  6
CONTINUOUS
 62
     1
 10
275.815099864622
 20
38.0755525248293
 30
0.0
 11
275.815099864622
 21
47.9805627943255
 31
0.0
  0
LINE
  5
   716
  8
0
  6
CONTINUOUS
 62
     1
 10
277.075099843164
 20
38.0755525248293
 30
0.0
 11
277.075099843164
 21
47.9805627943255
 31
0.0
  0
LINE
  5
   717
  8
0
  6
CONTINUOUS
 62
     1
 10
266.382607815628
 20
38.0755525248293
 30
0.0
 11
266.382607815628
 21
47.9805627943255
 31
0.0
  0
LINE
  5
   718
  8
0
  6
CONTINUOUS
 62
     1
 10
217.382608650093
 20
38.0755525248293
 30
0.0
 11
217.382608650093
 21
47.9805627943255
 31
0.0
  0
LINE
  5
   719
  8
0
  6
CONTINUOUS
 62
     1
 10
217.907608641152
 20
162.080536717174
 30
0.0
 11
265.857607824568
 21
162.080536717174
 31
0.0
  0
LINE
  5
   71A
  8
0
  6
CONTINUOUS
 62
     1
 10
217.907608641152
 20
154.730536842344
 30
0.0
 11
265.857607824568
 21
154.730536842344
 31
0.0
  0
LINE
  5
   71B
  8
0
  6
CONTINUOUS
 62
     1
 10
217.907608641152
 20
154.730536842344
 30
0.0
 11
217.907608641152
 21
162.080536717174
 31
0.0
  0
LINE
  5
   71C
  8
0
  6
CONTINUOUS
 62
     1
 10
265.857607824568
 20
154.730536842344
 30
0.0
 11
265.857607824568
 21
162.080536717174
 31
0.0
  0
LINE
  5
   71D
  8
0
  6
CONTINUOUS
 62
     1
 10
236.755108320181
 20
117.280537480114
 30
0.0
 11
237.385108309452
 21
117.280537480114
 31
0.0
  0
LINE
  5
   71E
  8
0
  6
CONTINUOUS
 62
     1
 10
236.755108320181
 20
121.480537408588
 30
0.0
 11
237.385108309452
 21
121.480537408588
 31
0.0
  0
LINE
  5
   71F
  8
0
  6
CONTINUOUS
 62
     1
 10
242.425108223621
 20
117.280537480114
 30
0.0
 11
242.425108223621
 21
120.25553742945
 31
0.0
  0
LINE
  5
   720
  8
0
  6
CONTINUOUS
 62
     1
 10
241.79510823435
 20
117.280537480114
 30
0.0
 11
241.79510823435
 21
120.25553742945
 31
0.0
  0
LINE
  5
   721
  8
0
  6
CONTINUOUS
 62
     1
 10
240.535108255808
 20
117.280537480114
 30
0.0
 11
240.535108255808
 21
120.25553742945
 31
0.0
  0
LINE
  5
   722
  8
0
  6
CONTINUOUS
 62
     1
 10
241.165108245079
 20
117.280537480114
 30
0.0
 11
241.165108245079
 21
120.25553742945
 31
0.0
  0
LINE
  5
   723
  8
0
  6
CONTINUOUS
 62
     1
 10
239.905108266537
 20
117.280537480114
 30
0.0
 11
239.905108266537
 21
121.480537408588
 31
0.0
  0
LINE
  5
   724
  8
0
  6
CONTINUOUS
 62
     1
 10
243.055108212893
 20
117.280537480114
 30
0.0
 11
243.055108212893
 21
121.480537408588
 31
0.0
  0
LINE
  5
   725
  8
0
  6
CONTINUOUS
 62
     1
 10
243.685108202164
 20
117.280537480114
 30
0.0
 11
243.685108202164
 21
121.480537408588
 31
0.0
  0
LINE
  5
   726
  8
0
  6
CONTINUOUS
 62
     1
 10
244.315108191435
 20
117.280537480114
 30
0.0
 11
244.315108191435
 21
121.480537408588
 31
0.0
  0
LINE
  5
   727
  8
0
  6
CONTINUOUS
 62
     1
 10
244.945108180706
 20
117.280537480114
 30
0.0
 11
244.945108180706
 21
121.480537408588
 31
0.0
  0
LINE
  5
   728
  8
0
  6
CONTINUOUS
 62
     1
 10
245.575108169977
 20
117.280537480114
 30
0.0
 11
245.575108169977
 21
121.480537408588
 31
0.0
  0
LINE
  5
   729
  8
0
  6
CONTINUOUS
 62
     1
 10
246.205108159248
 20
117.280537480114
 30
0.0
 11
246.205108159248
 21
121.480537408588
 31
0.0
  0
LINE
  5
   72A
  8
0
  6
CONTINUOUS
 62
     1
 10
239.275108277266
 20
117.280537480114
 30
0.0
 11
239.275108277266
 21
121.480537408588
 31
0.0
  0
LINE
  5
   72B
  8
0
  6
CONTINUOUS
 62
     1
 10
238.645108287994
 20
117.280537480114
 30
0.0
 11
238.645108287994
 21
121.480537408588
 31
0.0
  0
LINE
  5
   72C
  8
0
  6
CONTINUOUS
 62
     1
 10
238.015108298723
 20
117.280537480114
 30
0.0
 11
238.015108298723
 21
121.480537408588
 31
0.0
  0
LINE
  5
   72D
  8
0
  6
CONTINUOUS
 62
     1
 10
237.385108309452
 20
117.280537480114
 30
0.0
 11
237.385108309452
 21
121.480537408588
 31
0.0
  0
LINE
  5
   72E
  8
0
  6
CONTINUOUS
 62
     1
 10
236.755108320181
 20
117.280537480114
 30
0.0
 11
236.755108320181
 21
121.480537408588
 31
0.0
  0
LINE
  5
   72F
  8
0
  6
CONTINUOUS
 62
     1
 10
239.275108277266
 20
121.480537408588
 30
0.0
 11
239.905108266537
 21
121.480537408588
 31
0.0
  0
LINE
  5
   730
  8
0
  6
CONTINUOUS
 62
     1
 10
238.015108298723
 20
121.480537408588
 30
0.0
 11
238.645108287994
 21
121.480537408588
 31
0.0
  0
LINE
  5
   731
  8
0
  6
CONTINUOUS
 62
     1
 10
238.015108298723
 20
117.280537480114
 30
0.0
 11
238.645108287994
 21
117.280537480114
 31
0.0
  0
LINE
  5
   732
  8
0
  6
CONTINUOUS
 62
     1
 10
239.275108277266
 20
117.280537480114
 30
0.0
 11
239.905108266537
 21
117.280537480114
 31
0.0
  0
LINE
  5
   733
  8
0
  6
CONTINUOUS
 62
     1
 10
244.315108191435
 20
121.480537408588
 30
0.0
 11
244.945108180706
 21
121.480537408588
 31
0.0
  0
LINE
  5
   734
  8
0
  6
CONTINUOUS
 62
     1
 10
244.315108191435
 20
117.280537480114
 30
0.0
 11
244.945108180706
 21
117.280537480114
 31
0.0
  0
LINE
  5
   735
  8
0
  6
CONTINUOUS
 62
     1
 10
245.575108169977
 20
117.280537480114
 30
0.0
 11
246.205108159248
 21
117.280537480114
 31
0.0
  0
LINE
  5
   736
  8
0
  6
CONTINUOUS
 62
     1
 10
245.575108169977
 20
121.480537408588
 30
0.0
 11
246.205108159248
 21
121.480537408588
 31
0.0
  0
LINE
  5
   737
  8
0
  6
CONTINUOUS
 62
     1
 10
243.055108212893
 20
121.480537408588
 30
0.0
 11
243.685108202164
 21
121.480537408588
 31
0.0
  0
LINE
  5
   738
  8
0
  6
CONTINUOUS
 62
     1
 10
240.535108255808
 20
120.25553742945
 30
0.0
 11
241.165108245079
 21
120.25553742945
 31
0.0
  0
LINE
  5
   739
  8
0
  6
CONTINUOUS
 62
     1
 10
241.79510823435
 20
120.25553742945
 30
0.0
 11
242.378215300478
 21
120.25553742945
 31
0.0
  0
LINE
  5
   73A
  8
0
  6
CONTINUOUS
 62
     1
 10
241.79510823435
 20
117.280537480114
 30
0.0
 11
242.425108223621
 21
117.280537480114
 31
0.0
  0
LINE
  5
   73B
  8
0
  6
CONTINUOUS
 62
     1
 10
240.535108255808
 20
117.280537480114
 30
0.0
 11
241.165108245079
 21
117.280537480114
 31
0.0
  0
LINE
  5
   73C
  8
0
  6
CONTINUOUS
 62
     1
 10
243.055108212893
 20
117.280537480114
 30
0.0
 11
243.685108202164
 21
117.280537480114
 31
0.0
  0
LINE
  5
   73D
  8
0
  6
CONTINUOUS
 62
     1
 10
212.360116525997
 20
117.280537480114
 30
0.0
 11
212.360116525997
 21
121.480537408588
 31
0.0
  0
LINE
  5
   73E
  8
0
  6
CONTINUOUS
 62
     1
 10
212.360116525997
 20
121.480537408588
 30
0.0
 11
212.990116515268
 21
121.480537408588
 31
0.0
  0
LINE
  5
   73F
  8
0
  6
CONTINUOUS
 62
     1
 10
212.360116525997
 20
117.280537480114
 30
0.0
 11
212.990116515268
 21
117.280537480114
 31
0.0
  0
LINE
  5
   740
  8
0
  6
CONTINUOUS
 62
     1
 10
213.620116504539
 20
121.480537408588
 30
0.0
 11
214.25011649381
 21
121.480537408588
 31
0.0
  0
LINE
  5
   741
  8
0
  6
CONTINUOUS
 62
     1
 10
213.620116504539
 20
117.280537480114
 30
0.0
 11
213.620116504539
 21
121.480537408588
 31
0.0
  0
LINE
  5
   742
  8
0
  6
CONTINUOUS
 62
     1
 10
213.620116504539
 20
117.280537480114
 30
0.0
 11
214.25011649381
 21
117.280537480114
 31
0.0
  0
LINE
  5
   743
  8
0
  6
CONTINUOUS
 62
     1
 10
214.880116483081
 20
121.480537408588
 30
0.0
 11
215.510116472352
 21
121.480537408588
 31
0.0
  0
LINE
  5
   744
  8
0
  6
CONTINUOUS
 62
     1
 10
214.880116483081
 20
117.280537480114
 30
0.0
 11
214.880116483081
 21
121.480537408588
 31
0.0
  0
LINE
  5
   745
  8
0
  6
CONTINUOUS
 62
     1
 10
214.880116483081
 20
117.280537480114
 30
0.0
 11
215.510116472352
 21
117.280537480114
 31
0.0
  0
LINE
  5
   746
  8
0
  6
CONTINUOUS
 62
     1
 10
216.140116461624
 20
120.25553742945
 30
0.0
 11
216.770116450895
 21
120.25553742945
 31
0.0
  0
LINE
  5
   747
  8
0
  6
CONTINUOUS
 62
     1
 10
216.140116461624
 20
117.280537480114
 30
0.0
 11
216.770116450895
 21
117.280537480114
 31
0.0
  0
LINE
  5
   748
  8
0
  6
CONTINUOUS
 62
     1
 10
217.400116440166
 20
117.280537480114
 30
0.0
 11
218.030116429437
 21
117.280537480114
 31
0.0
  0
LINE
  5
   749
  8
0
  6
CONTINUOUS
 62
     1
 10
217.400116440166
 20
117.280537480114
 30
0.0
 11
217.400116440166
 21
120.25553742945
 31
0.0
  0
LINE
  5
   74A
  8
0
  6
CONTINUOUS
 62
     1
 10
217.400116440166
 20
120.25553742945
 30
0.0
 11
218.030116429437
 21
120.25553742945
 31
0.0
  0
LINE
  5
   74B
  8
0
  6
CONTINUOUS
 62
     1
 10
216.140116461624
 20
117.280537480114
 30
0.0
 11
216.140116461624
 21
120.25553742945
 31
0.0
  0
LINE
  5
   74C
  8
0
  6
CONTINUOUS
 62
     1
 10
218.030116429437
 20
117.280537480114
 30
0.0
 11
218.030116429437
 21
120.25553742945
 31
0.0
  0
LINE
  5
   74D
  8
0
  6
CONTINUOUS
 62
     1
 10
218.660116418708
 20
121.480537408588
 30
0.0
 11
219.290116407979
 21
121.480537408588
 31
0.0
  0
LINE
  5
   74E
  8
0
  6
CONTINUOUS
 62
     1
 10
218.660116418708
 20
117.280537480114
 30
0.0
 11
218.660116418708
 21
121.480537408588
 31
0.0
  0
LINE
  5
   74F
  8
0
  6
CONTINUOUS
 62
     1
 10
218.660116418708
 20
117.280537480114
 30
0.0
 11
219.290116407979
 21
117.280537480114
 31
0.0
  0
LINE
  5
   750
  8
0
  6
CONTINUOUS
 62
     1
 10
219.290116407979
 20
117.280537480114
 30
0.0
 11
219.290116407979
 21
121.480537408588
 31
0.0
  0
LINE
  5
   751
  8
0
  6
CONTINUOUS
 62
     1
 10
219.920116397251
 20
121.480537408588
 30
0.0
 11
220.550116386522
 21
121.480537408588
 31
0.0
  0
LINE
  5
   752
  8
0
  6
CONTINUOUS
 62
     1
 10
221.180116375793
 20
121.480537408588
 30
0.0
 11
221.810116365064
 21
121.480537408588
 31
0.0
  0
LINE
  5
   753
  8
0
  6
CONTINUOUS
 62
     1
 10
221.810116365064
 20
117.280537480114
 30
0.0
 11
221.810116365064
 21
121.480537408588
 31
0.0
  0
LINE
  5
   754
  8
0
  6
CONTINUOUS
 62
     1
 10
221.180116375793
 20
117.280537480114
 30
0.0
 11
221.180116375793
 21
121.480537408588
 31
0.0
  0
LINE
  5
   755
  8
0
  6
CONTINUOUS
 62
     1
 10
220.550116386522
 20
117.280537480114
 30
0.0
 11
220.550116386522
 21
121.480537408588
 31
0.0
  0
LINE
  5
   756
  8
0
  6
CONTINUOUS
 62
     1
 10
219.920116397251
 20
117.280537480114
 30
0.0
 11
219.920116397251
 21
121.480537408588
 31
0.0
  0
LINE
  5
   757
  8
0
  6
CONTINUOUS
 62
     1
 10
219.920116397251
 20
117.280537480114
 30
0.0
 11
220.550116386522
 21
117.280537480114
 31
0.0
  0
LINE
  5
   758
  8
0
  6
CONTINUOUS
 62
     1
 10
221.180116375793
 20
117.280537480114
 30
0.0
 11
221.810116365064
 21
117.280537480114
 31
0.0
  0
LINE
  5
   759
  8
0
  6
CONTINUOUS
 62
     1
 10
268.255112369765
 20
117.280537480114
 30
0.0
 11
268.885112359036
 21
117.280537480114
 31
0.0
  0
LINE
  5
   75A
  8
0
  6
CONTINUOUS
 62
     1
 10
265.73511241268
 20
117.280537480114
 30
0.0
 11
266.365112401951
 21
117.280537480114
 31
0.0
  0
LINE
  5
   75B
  8
0
  6
CONTINUOUS
 62
     1
 10
266.995112391222
 20
117.280537480114
 30
0.0
 11
267.625112380494
 21
117.280537480114
 31
0.0
  0
LINE
  5
   75C
  8
0
  6
CONTINUOUS
 62
     1
 10
266.995112391222
 20
120.25553742945
 30
0.0
 11
267.625112380494
 21
120.25553742945
 31
0.0
  0
LINE
  5
   75D
  8
0
  6
CONTINUOUS
 62
     1
 10
265.73511241268
 20
120.25553742945
 30
0.0
 11
266.365112401951
 21
120.25553742945
 31
0.0
  0
LINE
  5
   75E
  8
0
  6
CONTINUOUS
 62
     1
 10
268.255112369765
 20
121.480537408588
 30
0.0
 11
268.885112359036
 21
121.480537408588
 31
0.0
  0
LINE
  5
   75F
  8
0
  6
CONTINUOUS
 62
     1
 10
269.515112348307
 20
117.280537480114
 30
0.0
 11
270.145112337578
 21
117.280537480114
 31
0.0
  0
LINE
  5
   760
  8
0
  6
CONTINUOUS
 62
     1
 10
269.515112348307
 20
121.480537408588
 30
0.0
 11
270.145112337578
 21
121.480537408588
 31
0.0
  0
LINE
  5
   761
  8
0
  6
CONTINUOUS
 62
     1
 10
264.475112434138
 20
117.280537480114
 30
0.0
 11
265.105112423409
 21
117.280537480114
 31
0.0
  0
LINE
  5
   762
  8
0
  6
CONTINUOUS
 62
     1
 10
263.215112455595
 20
117.280537480114
 30
0.0
 11
263.845112444867
 21
117.280537480114
 31
0.0
  0
LINE
  5
   763
  8
0
  6
CONTINUOUS
 62
     1
 10
263.215112455595
 20
121.480537408588
 30
0.0
 11
263.845112444867
 21
121.480537408588
 31
0.0
  0
LINE
  5
   764
  8
0
  6
CONTINUOUS
 62
     1
 10
264.475112434138
 20
121.480537408588
 30
0.0
 11
265.105112423409
 21
121.480537408588
 31
0.0
  0
LINE
  5
   765
  8
0
  6
CONTINUOUS
 62
     1
 10
261.955112477053
 20
117.280537480114
 30
0.0
 11
261.955112477053
 21
121.480537408588
 31
0.0
  0
LINE
  5
   766
  8
0
  6
CONTINUOUS
 62
     1
 10
262.585112466324
 20
117.280537480114
 30
0.0
 11
262.585112466324
 21
121.480537408588
 31
0.0
  0
LINE
  5
   767
  8
0
  6
CONTINUOUS
 62
     1
 10
263.215112455595
 20
117.280537480114
 30
0.0
 11
263.215112455595
 21
121.480537408588
 31
0.0
  0
LINE
  5
   768
  8
0
  6
CONTINUOUS
 62
     1
 10
263.845112444867
 20
117.280537480114
 30
0.0
 11
263.845112444867
 21
121.480537408588
 31
0.0
  0
LINE
  5
   769
  8
0
  6
CONTINUOUS
 62
     1
 10
264.475112434138
 20
117.280537480114
 30
0.0
 11
264.475112434138
 21
121.480537408588
 31
0.0
  0
LINE
  5
   76A
  8
0
  6
CONTINUOUS
 62
     1
 10
271.405112316121
 20
117.280537480114
 30
0.0
 11
271.405112316121
 21
121.480537408588
 31
0.0
  0
LINE
  5
   76B
  8
0
  6
CONTINUOUS
 62
     1
 10
270.145112337578
 20
117.280537480114
 30
0.0
 11
270.145112337578
 21
121.480537408588
 31
0.0
  0
LINE
  5
   76C
  8
0
  6
CONTINUOUS
 62
     1
 10
268.885112359036
 20
117.280537480114
 30
0.0
 11
268.885112359036
 21
121.480537408588
 31
0.0
  0
LINE
  5
   76D
  8
0
  6
CONTINUOUS
 62
     1
 10
265.105112423409
 20
117.280537480114
 30
0.0
 11
265.105112423409
 21
121.480537408588
 31
0.0
  0
LINE
  5
   76E
  8
0
  6
CONTINUOUS
 62
     1
 10
266.365112401951
 20
117.280537480114
 30
0.0
 11
266.365112401951
 21
120.25553742945
 31
0.0
  0
LINE
  5
   76F
  8
0
  6
CONTINUOUS
 62
     1
 10
265.73511241268
 20
117.280537480114
 30
0.0
 11
265.73511241268
 21
120.25553742945
 31
0.0
  0
LINE
  5
   770
  8
0
  6
CONTINUOUS
 62
     1
 10
267.625112380494
 20
117.280537480114
 30
0.0
 11
267.625112380494
 21
120.25553742945
 31
0.0
  0
LINE
  5
   771
  8
0
  6
CONTINUOUS
 62
     1
 10
261.955112477053
 20
121.480537408588
 30
0.0
 11
262.585112466324
 21
121.480537408588
 31
0.0
  0
LINE
  5
   772
  8
0
  6
CONTINUOUS
 62
     1
 10
261.955112477053
 20
117.280537480114
 30
0.0
 11
262.585112466324
 21
117.280537480114
 31
0.0
  0
LINE
  5
   773
  8
0
  6
CONTINUOUS
 62
     1
 10
266.995112391222
 20
116.580563628791
 30
0.0
 11
266.995112391222
 21
163.760536688564
 31
0.0
  0
LINE
  5
   774
  8
0
  6
CONTINUOUS
 62
     1
 10
270.775111258734
 20
121.480537408588
 30
0.0
 11
271.405112316121
 21
121.480537408588
 31
0.0
  0
LINE
  5
   775
  8
0
  6
CONTINUOUS
 62
     1
 10
270.775111258734
 20
117.280537480114
 30
0.0
 11
271.405112316121
 21
117.280537480114
 31
0.0
  0
CIRCLE
  5
   776
  8
0
  6
CONTINUOUS
 62
     1
 10
205.132608858709
 20
118.348037461935
 30
0.0
 40
1.39999997615814
  0
CIRCLE
  5
   777
  8
0
  6
CONTINUOUS
 62
     1
 10
254.132608024244
 20
118.348037461935
 30
0.0
 40
1.39999997615814
  0
LINE
  5
   778
  8
0
  6
CONTINUOUS
 62
     1
 10
277.932591669105
 20
29.4305526720528
 30
0.0
 11
277.932591669105
 21
37.55055253377
 31
0.0
  0
LINE
  5
   779
  8
0
  6
CONTINUOUS
 62
     1
 10
181.332617054392
 20
29.4305526720528
 30
0.0
 11
181.332617054392
 21
37.55055253377
 31
0.0
  0
LINE
  5
   77A
  8
0
  6
CONTINUOUS
 62
     7
 10
185.882609186534
 20
9.83059055961894
 30
0.0
 11
185.882609186534
 21
25.5805662588057
 31
0.0
  0
LINE
  5
   77B
  8
0
  6
CONTINUOUS
 62
     7
 10
199.882608948116
 20
9.83059055961894
 30
0.0
 11
199.882608948116
 21
25.5805662588057
 31
0.0
  0
CIRCLE
  5
   77C
  8
0
  6
CONTINUOUS
 62
     7
 10
192.88260895426
 20
16.8305551224184
 30
0.0
 40
2.4499673102628
  0
LINE
  5
   77D
  8
0
  6
DASHDOT
 62
     7
 10
192.88260895426
 20
14.9055878032149
 30
0.0
 11
192.88260895426
 21
20.5055224118196
 31
0.0
  0
LINE
  5
   77E
  8
0
  6
DASHDOT
 62
     7
 10
190.082641649958
 20
16.8305551224184
 30
0.0
 11
195.682576258563
 21
16.8305551224184
 31
0.0
  0
LINE
  5
   77F
  8
0
  6
CONTINUOUS
 62
     7
 10
185.882609186534
 20
9.83059055961894
 30
0.0
 11
199.882608948116
 21
9.83059055961894
 31
0.0
  0
LINE
  5
   780
  8
0
  6
CONTINUOUS
 62
     1
 10
206.690116222013
 20
29.4305526720528
 30
0.0
 11
206.690116222013
 21
37.55055253377
 31
0.0
  0
LINE
  5
   781
  8
0
  6
CONTINUOUS
 62
     1
 10
205.430116109956
 20
29.4305526720528
 30
0.0
 11
205.430116109956
 21
37.55055253377
 31
0.0
  0
LINE
  5
   782
  8
0
  6
CONTINUOUS
 62
     1
 10
204.170115997899
 20
29.4305526720528
 30
0.0
 11
204.170115997899
 21
37.55055253377
 31
0.0
  0
LINE
  5
   783
  8
0
  6
CONTINUOUS
 62
     1
 10
202.910115885843
 20
29.4305526720528
 30
0.0
 11
202.910115885843
 21
37.55055253377
 31
0.0
  0
LINE
  5
   784
  8
0
  6
CONTINUOUS
 62
     1
 10
201.650115773786
 20
29.4305526720528
 30
0.0
 11
201.650115773786
 21
37.55055253377
 31
0.0
  0
LINE
  5
   785
  8
0
  6
CONTINUOUS
 62
     1
 10
200.390115661729
 20
29.4305526720528
 30
0.0
 11
200.390115661729
 21
37.55055253377
 31
0.0
  0
LINE
  5
   786
  8
0
  6
CONTINUOUS
 62
     1
 10
199.130115549673
 20
29.4305526720528
 30
0.0
 11
199.130115549673
 21
37.55055253377
 31
0.0
  0
LINE
  5
   787
  8
0
  6
CONTINUOUS
 62
     1
 10
197.870115437616
 20
29.4305526720528
 30
0.0
 11
197.870115437616
 21
37.55055253377
 31
0.0
  0
LINE
  5
   788
  8
0
  6
CONTINUOUS
 62
     1
 10
196.610115325559
 20
29.4305526720528
 30
0.0
 11
196.610115325559
 21
37.55055253377
 31
0.0
  0
LINE
  5
   789
  8
0
  6
CONTINUOUS
 62
     1
 10
195.350115213502
 20
29.4305526720528
 30
0.0
 11
195.350115213502
 21
37.55055253377
 31
0.0
  0
LINE
  5
   78A
  8
0
  6
CONTINUOUS
 62
     1
 10
194.090115101446
 20
29.4305526720528
 30
0.0
 11
194.090115101446
 21
37.55055253377
 31
0.0
  0
LINE
  5
   78B
  8
0
  6
CONTINUOUS
 62
     1
 10
192.830114989389
 20
29.4305526720528
 30
0.0
 11
192.830114989389
 21
37.55055253377
 31
0.0
  0
LINE
  5
   78C
  8
0
  6
CONTINUOUS
 62
     1
 10
191.570114877332
 20
29.4305526720528
 30
0.0
 11
191.570114877332
 21
37.55055253377
 31
0.0
  0
LINE
  5
   78D
  8
0
  6
CONTINUOUS
 62
     1
 10
190.310114765275
 20
29.4305526720528
 30
0.0
 11
190.310114765275
 21
37.55055253377
 31
0.0
  0
LINE
  5
   78E
  8
0
  6
CONTINUOUS
 62
     1
 10
189.050114653219
 20
29.4305526720528
 30
0.0
 11
189.050114653219
 21
37.55055253377
 31
0.0
  0
LINE
  5
   78F
  8
0
  6
CONTINUOUS
 62
     1
 10
187.790114541162
 20
29.4305526720528
 30
0.0
 11
187.790114541162
 21
37.55055253377
 31
0.0
  0
LINE
  5
   790
  8
0
  6
CONTINUOUS
 62
     1
 10
186.530114429105
 20
29.4305526720528
 30
0.0
 11
186.530114429105
 21
37.55055253377
 31
0.0
  0
LINE
  5
   791
  8
0
  6
CONTINUOUS
 62
     1
 10
185.270114317048
 20
29.4305526720528
 30
0.0
 11
185.270114317048
 21
37.55055253377
 31
0.0
  0
LINE
  5
   792
  8
0
  6
CONTINUOUS
 62
     1
 10
184.010114204992
 20
29.4305526720528
 30
0.0
 11
184.010114204992
 21
37.55055253377
 31
0.0
  0
LINE
  5
   793
  8
0
  6
CONTINUOUS
 62
     1
 10
182.750114092935
 20
29.4305526720528
 30
0.0
 11
182.750114092935
 21
37.55055253377
 31
0.0
  0
LINE
  5
   794
  8
0
  6
CONTINUOUS
 62
     1
 10
206.690116222013
 20
164.285536679624
 30
0.0
 11
206.690116222013
 21
173.28053652644
 31
0.0
  0
LINE
  5
   795
  8
0
  6
CONTINUOUS
 62
     1
 10
205.430116109956
 20
164.285536679624
 30
0.0
 11
205.430116109956
 21
173.28053652644
 31
0.0
  0
LINE
  5
   796
  8
0
  6
CONTINUOUS
 62
     1
 10
204.170115997899
 20
164.285536679624
 30
0.0
 11
204.170115997899
 21
173.28053652644
 31
0.0
  0
LINE
  5
   797
  8
0
  6
CONTINUOUS
 62
     1
 10
202.910115885843
 20
164.285536679624
 30
0.0
 11
202.910115885843
 21
173.28053652644
 31
0.0
  0
LINE
  5
   798
  8
0
  6
CONTINUOUS
 62
     1
 10
201.650115773786
 20
164.285536679624
 30
0.0
 11
201.650115773786
 21
173.28053652644
 31
0.0
  0
LINE
  5
   799
  8
0
  6
CONTINUOUS
 62
     1
 10
200.390115661729
 20
164.285536679624
 30
0.0
 11
200.390115661729
 21
173.28053652644
 31
0.0
  0
LINE
  5
   79A
  8
0
  6
CONTINUOUS
 62
     1
 10
199.130115549673
 20
164.285536679624
 30
0.0
 11
199.130115549673
 21
173.28053652644
 31
0.0
  0
LINE
  5
   79B
  8
0
  6
CONTINUOUS
 62
     1
 10
197.870115437616
 20
164.285536679624
 30
0.0
 11
197.870115437616
 21
173.28053652644
 31
0.0
  0
LINE
  5
   79C
  8
0
  6
CONTINUOUS
 62
     1
 10
196.610115325559
 20
164.285536679624
 30
0.0
 11
196.610115325559
 21
173.28053652644
 31
0.0
  0
LINE
  5
   79D
  8
0
  6
CONTINUOUS
 62
     1
 10
195.350115213502
 20
164.285536679624
 30
0.0
 11
195.350115213502
 21
173.28053652644
 31
0.0
  0
LINE
  5
   79E
  8
0
  6
CONTINUOUS
 62
     1
 10
194.090115101446
 20
164.285536679624
 30
0.0
 11
194.090115101446
 21
173.28053652644
 31
0.0
  0
LINE
  5
   79F
  8
0
  6
CONTINUOUS
 62
     1
 10
192.830114989389
 20
164.285536679624
 30
0.0
 11
192.830114989389
 21
173.28053652644
 31
0.0
  0
LINE
  5
   7A0
  8
0
  6
CONTINUOUS
 62
     1
 10
191.570114877332
 20
164.285536679624
 30
0.0
 11
191.570114877332
 21
173.28053652644
 31
0.0
  0
LINE
  5
   7A1
  8
0
  6
CONTINUOUS
 62
     1
 10
190.310114765275
 20
164.285536679624
 30
0.0
 11
190.310114765275
 21
173.28053652644
 31
0.0
  0
LINE
  5
   7A2
  8
0
  6
CONTINUOUS
 62
     1
 10
189.050114653219
 20
164.285536679624
 30
0.0
 11
189.050114653219
 21
173.28053652644
 31
0.0
  0
LINE
  5
   7A3
  8
0
  6
CONTINUOUS
 62
     1
 10
187.790114541162
 20
164.285536679624
 30
0.0
 11
187.790114541162
 21
173.28053652644
 31
0.0
  0
LINE
  5
   7A4
  8
0
  6
CONTINUOUS
 62
     1
 10
186.530114429105
 20
164.285536679624
 30
0.0
 11
186.530114429105
 21
173.28053652644
 31
0.0
  0
LINE
  5
   7A5
  8
0
  6
CONTINUOUS
 62
     1
 10
185.270114317048
 20
164.285536679624
 30
0.0
 11
185.270114317048
 21
173.28053652644
 31
0.0
  0
LINE
  5
   7A6
  8
0
  6
CONTINUOUS
 62
     1
 10
184.010114204992
 20
164.285536679624
 30
0.0
 11
184.010114204992
 21
173.28053652644
 31
0.0
  0
LINE
  5
   7A7
  8
0
  6
CONTINUOUS
 62
     1
 10
182.750114092935
 20
164.285536679624
 30
0.0
 11
182.750114092935
 21
173.28053652644
 31
0.0
  0
LINE
  5
   7A8
  8
0
  6
CONTINUOUS
 62
     1
 10
206.690116222013
 20
115.985537502168
 30
0.0
 11
206.690116222013
 21
163.760536688564
 31
0.0
  0
LINE
  5
   7A9
  8
0
  6
CONTINUOUS
 62
     1
 10
205.430116109956
 20
115.985537502168
 30
0.0
 11
205.430116109956
 21
116.980013570075
 31
0.0
  0
LINE
  5
   7AA
  8
0
  6
CONTINUOUS
 62
     1
 10
204.170115997899
 20
115.985537502168
 30
0.0
 11
204.170115997899
 21
117.331372607553
 31
0.0
  0
LINE
  5
   7AB
  8
0
  6
CONTINUOUS
 62
     1
 10
202.910115885843
 20
115.985537502168
 30
0.0
 11
202.910115885843
 21
163.760536688564
 31
0.0
  0
LINE
  5
   7AC
  8
0
  6
CONTINUOUS
 62
     1
 10
201.650115773786
 20
115.985537502168
 30
0.0
 11
201.650115773786
 21
163.760536688564
 31
0.0
  0
LINE
  5
   7AD
  8
0
  6
CONTINUOUS
 62
     1
 10
200.390115661729
 20
115.985537502168
 30
0.0
 11
200.390115661729
 21
163.760536688564
 31
0.0
  0
LINE
  5
   7AE
  8
0
  6
CONTINUOUS
 62
     1
 10
199.130115549673
 20
115.985537502168
 30
0.0
 11
199.130115549673
 21
163.760536688564
 31
0.0
  0
LINE
  5
   7AF
  8
0
  6
CONTINUOUS
 62
     1
 10
197.870115437616
 20
115.985537502168
 30
0.0
 11
197.870115437616
 21
163.760536688564
 31
0.0
  0
LINE
  5
   7B0
  8
0
  6
CONTINUOUS
 62
     1
 10
196.610115325559
 20
115.985537502168
 30
0.0
 11
196.610115325559
 21
163.760536688564
 31
0.0
  0
LINE
  5
   7B1
  8
0
  6
CONTINUOUS
 62
     1
 10
195.350115213502
 20
115.985537502168
 30
0.0
 11
195.350115213502
 21
163.760536688564
 31
0.0
  0
LINE
  5
   7B2
  8
0
  6
CONTINUOUS
 62
     1
 10
194.090115101446
 20
115.985537502168
 30
0.0
 11
194.090115101446
 21
163.760536688564
 31
0.0
  0
LINE
  5
   7B3
  8
0
  6
CONTINUOUS
 62
     1
 10
192.830114989389
 20
115.985537502168
 30
0.0
 11
192.830114989389
 21
163.760536688564
 31
0.0
  0
LINE
  5
   7B4
  8
0
  6
CONTINUOUS
 62
     1
 10
191.570114877332
 20
115.985537502168
 30
0.0
 11
191.570114877332
 21
163.760536688564
 31
0.0
  0
LINE
  5
   7B5
  8
0
  6
CONTINUOUS
 62
     1
 10
190.310114765275
 20
115.985537502168
 30
0.0
 11
190.310114765275
 21
163.760536688564
 31
0.0
  0
LINE
  5
   7B6
  8
0
  6
CONTINUOUS
 62
     1
 10
189.050114653219
 20
115.985537502168
 30
0.0
 11
189.050114653219
 21
163.760536688564
 31
0.0
  0
LINE
  5
   7B7
  8
0
  6
CONTINUOUS
 62
     1
 10
187.790114541162
 20
115.985537502168
 30
0.0
 11
187.790114541162
 21
163.760536688564
 31
0.0
  0
LINE
  5
   7B8
  8
0
  6
CONTINUOUS
 62
     1
 10
186.530114429105
 20
115.985537502168
 30
0.0
 11
186.530114429105
 21
163.760536688564
 31
0.0
  0
LINE
  5
   7B9
  8
0
  6
CONTINUOUS
 62
     1
 10
185.270114317048
 20
115.985537502168
 30
0.0
 11
185.270114317048
 21
163.760536688564
 31
0.0
  0
LINE
  5
   7BA
  8
0
  6
CONTINUOUS
 62
     1
 10
184.010114204992
 20
115.985537502168
 30
0.0
 11
184.010114204992
 21
163.760536688564
 31
0.0
  0
LINE
  5
   7BB
  8
0
  6
CONTINUOUS
 62
     1
 10
182.750114092935
 20
115.985537502168
 30
0.0
 11
182.750114092935
 21
163.760536688564
 31
0.0
  0
LINE
  5
   7BC
  8
0
  6
CONTINUOUS
 62
     1
 10
206.690116222013
 20
54.2805522280148
 30
0.0
 11
206.690116222013
 21
115.460537511108
 31
0.0
  0
LINE
  5
   7BD
  8
0
  6
CONTINUOUS
 62
     1
 10
205.430116109956
 20
54.2805522280148
 30
0.0
 11
205.430116109956
 21
115.460537511108
 31
0.0
  0
LINE
  5
   7BE
  8
0
  6
CONTINUOUS
 62
     1
 10
204.170115997899
 20
54.2805522280148
 30
0.0
 11
204.170115997899
 21
115.460537511108
 31
0.0
  0
LINE
  5
   7BF
  8
0
  6
CONTINUOUS
 62
     1
 10
202.910115885843
 20
54.2805522280148
 30
0.0
 11
202.910115885843
 21
115.460537511108
 31
0.0
  0
LINE
  5
   7C0
  8
0
  6
CONTINUOUS
 62
     1
 10
201.650115773786
 20
54.2805522280148
 30
0.0
 11
201.650115773786
 21
115.460537511108
 31
0.0
  0
LINE
  5
   7C1
  8
0
  6
CONTINUOUS
 62
     1
 10
200.390115661729
 20
54.2805522280148
 30
0.0
 11
200.390115661729
 21
115.460537511108
 31
0.0
  0
LINE
  5
   7C2
  8
0
  6
CONTINUOUS
 62
     1
 10
199.130115549673
 20
54.2805522280148
 30
0.0
 11
199.130115549673
 21
115.460537511108
 31
0.0
  0
LINE
  5
   7C3
  8
0
  6
CONTINUOUS
 62
     1
 10
197.870115437616
 20
54.2805522280148
 30
0.0
 11
197.870115437616
 21
115.460537511108
 31
0.0
  0
LINE
  5
   7C4
  8
0
  6
CONTINUOUS
 62
     1
 10
196.610115325559
 20
54.2805522280148
 30
0.0
 11
196.610115325559
 21
115.460537511108
 31
0.0
  0
LINE
  5
   7C5
  8
0
  6
CONTINUOUS
 62
     1
 10
195.350115213502
 20
54.2805522280148
 30
0.0
 11
195.350115213502
 21
115.460537511108
 31
0.0
  0
LINE
  5
   7C6
  8
0
  6
CONTINUOUS
 62
     1
 10
194.090115101446
 20
54.2805522280148
 30
0.0
 11
194.090115101446
 21
115.460537511108
 31
0.0
  0
LINE
  5
   7C7
  8
0
  6
CONTINUOUS
 62
     1
 10
192.830114989389
 20
54.2805522280148
 30
0.0
 11
192.830114989389
 21
115.460537511108
 31
0.0
  0
LINE
  5
   7C8
  8
0
  6
CONTINUOUS
 62
     1
 10
191.570114877332
 20
54.2805522280148
 30
0.0
 11
191.570114877332
 21
115.460537511108
 31
0.0
  0
LINE
  5
   7C9
  8
0
  6
CONTINUOUS
 62
     1
 10
190.310114765275
 20
54.2805522280148
 30
0.0
 11
190.310114765275
 21
115.460537511108
 31
0.0
  0
LINE
  5
   7CA
  8
0
  6
CONTINUOUS
 62
     1
 10
189.050114653219
 20
54.2805522280148
 30
0.0
 11
189.050114653219
 21
115.460537511108
 31
0.0
  0
LINE
  5
   7CB
  8
0
  6
CONTINUOUS
 62
     1
 10
187.790114541162
 20
54.2805522280148
 30
0.0
 11
187.790114541162
 21
115.460537511108
 31
0.0
  0
LINE
  5
   7CC
  8
0
  6
CONTINUOUS
 62
     1
 10
186.530114429105
 20
54.2805522280148
 30
0.0
 11
186.530114429105
 21
115.460537511108
 31
0.0
  0
LINE
  5
   7CD
  8
0
  6
CONTINUOUS
 62
     1
 10
185.270114317048
 20
54.2805522280148
 30
0.0
 11
185.270114317048
 21
115.460537511108
 31
0.0
  0
LINE
  5
   7CE
  8
0
  6
CONTINUOUS
 62
     1
 10
184.010114204992
 20
54.2805522280148
 30
0.0
 11
184.010114204992
 21
115.460537511108
 31
0.0
  0
LINE
  5
   7CF
  8
0
  6
CONTINUOUS
 62
     1
 10
182.750114092935
 20
54.2805522280148
 30
0.0
 11
182.750114092935
 21
115.460537511108
 31
0.0
  0
LINE
  5
   7D0
  8
0
  6
CONTINUOUS
 62
     1
 10
206.690116222013
 20
38.0755525248293
 30
0.0
 11
206.690116222013
 21
53.9305522548369
 31
0.0
  0
LINE
  5
   7D1
  8
0
  6
CONTINUOUS
 62
     1
 10
205.430116109956
 20
38.0755525248293
 30
0.0
 11
205.430116109956
 21
53.9305522548369
 31
0.0
  0
LINE
  5
   7D2
  8
0
  6
CONTINUOUS
 62
     1
 10
204.170115997899
 20
38.0755525248293
 30
0.0
 11
204.170115997899
 21
53.9305522548369
 31
0.0
  0
LINE
  5
   7D3
  8
0
  6
CONTINUOUS
 62
     1
 10
202.910115885843
 20
38.0755525248293
 30
0.0
 11
202.910115885843
 21
53.9305522548369
 31
0.0
  0
LINE
  5
   7D4
  8
0
  6
CONTINUOUS
 62
     1
 10
201.650115773786
 20
38.0755525248293
 30
0.0
 11
201.650115773786
 21
53.9305522548369
 31
0.0
  0
LINE
  5
   7D5
  8
0
  6
CONTINUOUS
 62
     1
 10
200.390115661729
 20
38.0755525248293
 30
0.0
 11
200.390115661729
 21
53.9305522548369
 31
0.0
  0
LINE
  5
   7D6
  8
0
  6
CONTINUOUS
 62
     1
 10
199.130115549673
 20
38.0755525248293
 30
0.0
 11
199.130115549673
 21
53.9305522548369
 31
0.0
  0
LINE
  5
   7D7
  8
0
  6
CONTINUOUS
 62
     1
 10
197.870115437616
 20
38.0755525248293
 30
0.0
 11
197.870115437616
 21
53.9305522548369
 31
0.0
  0
LINE
  5
   7D8
  8
0
  6
CONTINUOUS
 62
     1
 10
196.610115325559
 20
38.0755525248293
 30
0.0
 11
196.610115325559
 21
53.9305522548369
 31
0.0
  0
LINE
  5
   7D9
  8
0
  6
CONTINUOUS
 62
     1
 10
195.350115213502
 20
38.0755525248293
 30
0.0
 11
195.350115213502
 21
53.9305522548369
 31
0.0
  0
LINE
  5
   7DA
  8
0
  6
CONTINUOUS
 62
     1
 10
194.090115101446
 20
38.0755525248293
 30
0.0
 11
194.090115101446
 21
53.9305522548369
 31
0.0
  0
LINE
  5
   7DB
  8
0
  6
CONTINUOUS
 62
     1
 10
192.830114989389
 20
38.0755525248293
 30
0.0
 11
192.830114989389
 21
53.9305522548369
 31
0.0
  0
LINE
  5
   7DC
  8
0
  6
CONTINUOUS
 62
     1
 10
191.570114877332
 20
38.0755525248293
 30
0.0
 11
191.570114877332
 21
53.9305522548369
 31
0.0
  0
LINE
  5
   7DD
  8
0
  6
CONTINUOUS
 62
     1
 10
190.310114765275
 20
38.0755525248293
 30
0.0
 11
190.310114765275
 21
53.9305522548369
 31
0.0
  0
LINE
  5
   7DE
  8
0
  6
CONTINUOUS
 62
     1
 10
189.050114653219
 20
38.0755525248293
 30
0.0
 11
189.050114653219
 21
53.9305522548369
 31
0.0
  0
LINE
  5
   7DF
  8
0
  6
CONTINUOUS
 62
     1
 10
187.790114541162
 20
38.0755525248293
 30
0.0
 11
187.790114541162
 21
53.9305522548369
 31
0.0
  0
LINE
  5
   7E0
  8
0
  6
CONTINUOUS
 62
     1
 10
186.530114429105
 20
38.0755525248293
 30
0.0
 11
186.530114429105
 21
53.9305522548369
 31
0.0
  0
LINE
  5
   7E1
  8
0
  6
CONTINUOUS
 62
     1
 10
185.270114317048
 20
38.0755525248293
 30
0.0
 11
185.270114317048
 21
53.9305522548369
 31
0.0
  0
LINE
  5
   7E2
  8
0
  6
CONTINUOUS
 62
     1
 10
184.010114204992
 20
38.0755525248293
 30
0.0
 11
184.010114204992
 21
53.9305522548369
 31
0.0
  0
LINE
  5
   7E3
  8
0
  6
CONTINUOUS
 62
     1
 10
182.750114092935
 20
38.0755525248293
 30
0.0
 11
182.750114092935
 21
53.9305522548369
 31
0.0
  0
LINE
  5
   7E4
  8
0
  6
CONTINUOUS
 62
     1
 10
188.420115732063
 20
121.480537408588
 30
0.0
 11
189.050115721334
 21
121.480537408588
 31
0.0
  0
LINE
  5
   7E5
  8
0
  6
CONTINUOUS
 62
     1
 10
188.420115732063
 20
117.280537480114
 30
0.0
 11
188.420115732063
 21
121.480537408588
 31
0.0
  0
LINE
  5
   7E6
  8
0
  6
CONTINUOUS
 62
     1
 10
188.420115732063
 20
117.280537480114
 30
0.0
 11
189.050115721334
 21
117.280537480114
 31
0.0
  0
LINE
  5
   7E7
  8
0
  6
CONTINUOUS
 62
     1
 10
189.680115710605
 20
121.480537408588
 30
0.0
 11
190.310115699876
 21
121.480537408588
 31
0.0
  0
LINE
  5
   7E8
  8
0
  6
CONTINUOUS
 62
     1
 10
189.680115710605
 20
117.280537480114
 30
0.0
 11
189.680115710605
 21
121.480537408588
 31
0.0
  0
LINE
  5
   7E9
  8
0
  6
CONTINUOUS
 62
     1
 10
189.680115710605
 20
117.280537480114
 30
0.0
 11
190.310115699876
 21
117.280537480114
 31
0.0
  0
LINE
  5
   7EA
  8
0
  6
CONTINUOUS
 62
     1
 10
190.940115689147
 20
121.480537408588
 30
0.0
 11
191.570115678419
 21
121.480537408588
 31
0.0
  0
LINE
  5
   7EB
  8
0
  6
CONTINUOUS
 62
     1
 10
190.940115689147
 20
117.280537480114
 30
0.0
 11
190.940115689147
 21
121.480537408588
 31
0.0
  0
LINE
  5
   7EC
  8
0
  6
CONTINUOUS
 62
     1
 10
190.940115689147
 20
117.280537480114
 30
0.0
 11
191.570115678419
 21
117.280537480114
 31
0.0
  0
LINE
  5
   7ED
  8
0
  6
CONTINUOUS
 62
     1
 10
192.20011566769
 20
120.25553742945
 30
0.0
 11
192.830115656961
 21
120.25553742945
 31
0.0
  0
LINE
  5
   7EE
  8
0
  6
CONTINUOUS
 62
     1
 10
192.20011566769
 20
117.280537480114
 30
0.0
 11
192.20011566769
 21
120.25553742945
 31
0.0
  0
LINE
  5
   7EF
  8
0
  6
CONTINUOUS
 62
     1
 10
192.20011566769
 20
117.280537480114
 30
0.0
 11
192.830115656961
 21
117.280537480114
 31
0.0
  0
LINE
  5
   7F0
  8
0
  6
CONTINUOUS
 62
     1
 10
193.460115646232
 20
120.25553742945
 30
0.0
 11
194.090115635503
 21
120.25553742945
 31
0.0
  0
LINE
  5
   7F1
  8
0
  6
CONTINUOUS
 62
     1
 10
193.460115646232
 20
117.280537480114
 30
0.0
 11
194.090115635503
 21
117.280537480114
 31
0.0
  0
LINE
  5
   7F2
  8
0
  6
CONTINUOUS
 62
     1
 10
193.460115646232
 20
117.280537480114
 30
0.0
 11
193.460115646232
 21
120.25553742945
 31
0.0
  0
LINE
  5
   7F3
  8
0
  6
CONTINUOUS
 62
     1
 10
194.720115624774
 20
117.280537480114
 30
0.0
 11
194.720115624774
 21
121.480537408588
 31
0.0
  0
LINE
  5
   7F4
  8
0
  6
CONTINUOUS
 62
     1
 10
194.720115624774
 20
121.480537408588
 30
0.0
 11
195.350115614046
 21
121.480537408588
 31
0.0
  0
LINE
  5
   7F5
  8
0
  6
CONTINUOUS
 62
     1
 10
194.720115624774
 20
117.280537480114
 30
0.0
 11
195.350115614046
 21
117.280537480114
 31
0.0
  0
LINE
  5
   7F6
  8
0
  6
CONTINUOUS
 62
     1
 10
195.980115603317
 20
121.480537408588
 30
0.0
 11
196.610115592588
 21
121.480537408588
 31
0.0
  0
LINE
  5
   7F7
  8
0
  6
CONTINUOUS
 62
     1
 10
195.980115603317
 20
117.280537480114
 30
0.0
 11
195.980115603317
 21
121.480537408588
 31
0.0
  0
LINE
  5
   7F8
  8
0
  6
CONTINUOUS
 62
     1
 10
195.980115603317
 20
117.280537480114
 30
0.0
 11
196.610115592588
 21
117.280537480114
 31
0.0
  0
LINE
  5
   7F9
  8
0
  6
CONTINUOUS
 62
     1
 10
197.240115581859
 20
121.480537408588
 30
0.0
 11
197.87011557113
 21
121.480537408588
 31
0.0
  0
LINE
  5
   7FA
  8
0
  6
CONTINUOUS
 62
     1
 10
197.240115581859
 20
117.280537480114
 30
0.0
 11
197.240115581859
 21
121.480537408588
 31
0.0
  0
LINE
  5
   7FB
  8
0
  6
CONTINUOUS
 62
     1
 10
197.240115581859
 20
117.280537480114
 30
0.0
 11
197.87011557113
 21
117.280537480114
 31
0.0
  0
LINE
  5
   7FC
  8
0
  6
CONTINUOUS
 62
     1
 10
205.430116109956
 20
119.716061353794
 30
0.0
 11
205.430116109956
 21
163.760536688564
 31
0.0
  0
LINE
  5
   7FD
  8
0
  6
CONTINUOUS
 62
     1
 10
204.170115997899
 20
119.364702316316
 30
0.0
 11
204.170115997899
 21
163.760536688564
 31
0.0
  0
TEXT
  5
   7FE
  8
0
  6
CONTINUOUS
 62
     7
 10
240.383777767262
 20
174.118393338423
 30
0.0
 40
2.99999997871263
  1
Y
 41
0.933333333333333
 72
     1
 11
241.483777759457
 21
175.61839332778
 31
0.0
 73
     2
  0
INSERT
  5
   7FF
  8
0
  6
CONTINUOUS
 62
     7
  2
*UDIM1852
 10
0.0
 20
0.0
 30
0.0
  0
INSERT
  5
   800
  8
0
  6
CONTINUOUS
 62
     7
  2
*UDIM1853
 10
0.0
 20
0.0
 30
0.0
  0
INSERT
  5
   801
  8
0
  6
CONTINUOUS
 62
     7
  2
*UDIM1854
 10
0.0
 20
0.0
 30
0.0
  0
INSERT
  5
   802
  8
0
  6
CONTINUOUS
 62
     7
  2
*UDIM1855
 10
0.0
 20
0.0
 30
0.0
  0
INSERT
  5
   803
  8
0
  6
CONTINUOUS
 62
     7
  2
*UDIM1856
 10
0.0
 20
0.0
 30
0.0
  0
INSERT
  5
   804
  8
0
  6
CONTINUOUS
 62
     7
  2
*UDIM1857
 10
0.0
 20
0.0
 30
0.0
  0
INSERT
  5
   805
  8
0
  6
CONTINUOUS
 62
     7
  2
*UDIM1858
 10
0.0
 20
0.0
 30
0.0
  0
INSERT
  5
   806
  8
0
  6
CONTINUOUS
 62
     7
  2
*UDIM1859
 10
0.0
 20
0.0
 30
0.0
  0
INSERT
  5
   807
  8
0
  6
CONTINUOUS
 62
     7
  2
*UDIM1860
 10
0.0
 20
0.0
 30
0.0
  0
INSERT
  5
   808
  8
0
  6
CONTINUOUS
 62
     7
  2
*UDIM1861
 10
0.0
 20
0.0
 30
0.0
  0
TEXT
  5
   809
  8
0
  6
CONTINUOUS
 62
     7
 10
240.925569244175
 20
-15.1189736458839
 30
0.0
 40
2.99999997871263
  1
Y
 41
0.91666663951344
 72
     2
 11
243.125569179887
 21
-15.1189736458839
 31
0.0
  0
INSERT
  5
   80A
  8
0
  6
CONTINUOUS
 62
     7
  2
*UDIM1862
 10
0.0
 20
0.0
 30
0.0
  0
LINE
  5
   80B
  8
0
  6
CONTINUOUS
 62
     7
 10
191.647075667448
 20
-128.580056051309
 30
0.0
 11
191.647075667448
 21
-147.713273525379
 31
0.0
  0
LINE
  5
   80C
  8
0
  6
CONTINUOUS
 62
     7
 10
190.047075643606
 20
-128.580056051309
 30
0.0
 11
190.047075643606
 21
-147.713273525379
 31
0.0
  0
LINE
  5
   80D
  8
0
  6
CONTINUOUS
 62
     7
 10
191.647075667448
 20
-135.204105334613
 30
0.0
 11
190.047075643606
 21
-136.546664764502
 31
0.0
  0
LINE
  5
   80E
  8
0
  6
CONTINUOUS
 62
     7
 10
190.047075643606
 20
-139.746664812186
 30
0.0
 11
191.647075667448
 21
-141.089224242075
 31
0.0
  0
LINE
  5
   80F
  8
0
  6
CONTINUOUS
 62
     7
 10
190.047075643606
 20
-145.746664901593
 30
0.0
 11
191.647075667448
 21
-145.746664901593
 31
0.0
  0
CIRCLE
  5
   810
  8
0
  6
CONTINUOUS
 62
     7
 10
190.847075655527
 20
-138.146664788344
 30
0.0
 40
9.60000014305115
  0
LINE
  5
   811
  8
0
  6
CONTINUOUS
 62
     7
 10
185.247081675596
 20
-141.746664841988
 30
0.0
 11
187.247081705399
 21
-141.746664841988
 31
0.0
  0
LINE
  5
   812
  8
0
  6
CONTINUOUS
 62
     7
 10
188.04708171732
 20
-134.5466647347
 30
0.0
 11
188.04708171732
 21
-140.946664830067
 31
0.0
  0
LINE
  5
   813
  8
0
  6
CONTINUOUS
 62
     7
 10
188.04708171732
 20
-134.5466647347
 30
0.0
 11
190.047075643606
 21
-134.5466647347
 31
0.0
  0
LINE
  5
   814
  8
0
  6
CONTINUOUS
 62
     7
 10
185.247081675596
 20
-143.74666487179
 30
0.0
 11
187.247081705399
 21
-143.74666487179
 31
0.0
  0
LINE
  5
   815
  8
0
  6
CONTINUOUS
 62
     7
 10
184.447081663675
 20
-144.546664883711
 30
0.0
 11
184.447081663675
 21
-145.302087882113
 31
0.0
  0
ARC
  5
   816
  8
0
  6
CONTINUOUS
 62
     7
 10
187.247085023223
 20
-140.946665367138
 30
0.0
 40
0.79999759416018
 50
629.999840735313
 51
720.000252836193
  0
ARC
  5
   817
  8
0
  6
CONTINUOUS
 62
     7
 10
185.247093398402
 20
-144.546675032755
 30
0.0
 40
2.80001480421589
 50
450.000186734275
 51
513.408761128067
  0
ARC
  5
   818
  8
0
  6
CONTINUOUS
 62
     7
 10
185.247046277076
 20
-144.546632167885
 30
0.0
 40
0.799959868915134
 50
449.997764042825
 51
540.001169660043
  0
ARC
  5
   819
  8
0
  6
CONTINUOUS
 62
     7
 10
187.247097187304
 20
-140.946690467615
 30
0.0
 40
2.79997688647829
 50
629.999653243441
 51
720.000420168909
  0
INSERT
  5
   81A
  8
0
  6
CONTINUOUS
 62
     7
  2
*HATCH349
 10
241.882598876953
 20
-114.012100219727
 30
0.0
 41
0.200000002980232
 42
0.200000002980232
 50
269.999999844103
 43
0.200000002980232
  0
INSERT
  5
   81B
  8
0
  6
CONTINUOUS
 62
     7
  2
*HATCH350
 10
241.882598876953
 20
-114.012100219727
 30
0.0
 41
0.200000002980232
 42
0.200000002980232
 50
269.999999844103
 43
0.200000002980232
  0
LINE
  5
   81C
  8
0
  6
DASHDOT
 62
     2
 10
241.882598876953
 20
-89.1499415175557
 30
0.0
 11
241.882598876953
 21
-137.749067513062
 31
0.0
  0
LINE
  5
   81D
  8
0
  6
DASHDOT
 62
     2
 10
218.037778769209
 20
-114.012100219727
 30
0.0
 11
284.738846486818
 21
-114.012100219727
 31
0.0
  0
LINE
  5
   81E
  8
0
  6
CONTINUOUS
 62
     7
 10
223.982598610222
 20
-97.9120999798179
 30
0.0
 11
257.982599116862
 21
-97.9120999798179
 31
0.0
  0
LINE
  5
   81F
  8
0
  6
CONTINUOUS
 62
     7
 10
223.982598610222
 20
-130.112100459635
 30
0.0
 11
257.982599116862
 21
-130.112100459635
 31
0.0
  0
CIRCLE
  5
   820
  8
0
  6
CONTINUOUS
 62
     7
 10
262.082599177957
 20
-114.012100219727
 30
0.0
 40
0.800000011920929
  0
CIRCLE
  5
   821
  8
0
  6
CONTINUOUS
 62
     7
 10
245.832598935813
 20
-96.312099955976
 30
0.0
 40
0.700000010430813
  0
CIRCLE
  5
   822
  8
0
  6
CONTINUOUS
 62
     7
 10
229.582598693669
 20
-96.312099955976
 30
0.0
 40
0.700000010430813
  0
CIRCLE
  5
   823
  8
0
  6
CONTINUOUS
 62
     7
 10
262.082599177957
 20
-131.712100483477
 30
0.0
 40
0.700000010430813
  0
CIRCLE
  5
   824
  8
0
  6
CONTINUOUS
 62
     7
 10
245.832598935813
 20
-131.712100483477
 30
0.0
 40
0.800000011920929
  0
CIRCLE
  5
   825
  8
0
  6
CONTINUOUS
 62
     7
 10
229.582598693669
 20
-131.712100483477
 30
0.0
 40
0.800000011920929
  0
CIRCLE
  5
   826
  8
0
  6
CONTINUOUS
 62
     7
 10
262.082599177957
 20
-96.312099955976
 30
0.0
 40
0.800000011920929
  0
LINE
  5
   827
  8
0
  6
DASHDOT
 62
     7
 10
262.082599177957
 20
-95.0120999366045
 30
0.0
 11
262.082599177957
 21
-112.87254084391
 31
0.0
  0
LINE
  5
   828
  8
0
  6
DASHDOT
 62
     7
 10
260.782599158585
 20
-96.312099955976
 30
0.0
 11
263.382599197328
 21
-96.312099955976
 31
0.0
  0
LINE
  5
   829
  8
0
  6
DASHDOT
 62
     7
 10
245.832598935813
 20
-89.0949379715834
 30
0.0
 11
245.832598935813
 21
-97.6120999753475
 31
0.0
  0
LINE
  5
   82A
  8
0
  6
DASHDOT
 62
     7
 10
244.532598916441
 20
-96.312099955976
 30
0.0
 11
247.132598955184
 21
-96.312099955976
 31
0.0
  0
LINE
  5
   82B
  8
0
  6
DASHDOT
 62
     7
 10
229.582598693669
 20
-95.0120999366045
 30
0.0
 11
229.582598693669
 21
-97.6120999753475
 31
0.0
  0
LINE
  5
   82C
  8
0
  6
DASHDOT
 62
     7
 10
228.282598674297
 20
-96.312099955976
 30
0.0
 11
230.88259871304
 21
-96.312099955976
 31
0.0
  0
LINE
  5
   82D
  8
0
  6
DASHDOT
 62
     7
 10
245.832598935813
 20
-130.412100464106
 30
0.0
 11
245.832598935813
 21
-133.012100502849
 31
0.0
  0
LINE
  5
   82E
  8
0
  6
DASHDOT
 62
     7
 10
244.532598916441
 20
-131.712100483477
 30
0.0
 11
247.132598955184
 21
-131.712100483477
 31
0.0
  0
LINE
  5
   82F
  8
0
  6
DASHDOT
 62
     7
 10
262.082599177957
 20
-130.412100464106
 30
0.0
 11
262.082599177957
 21
-133.012100502849
 31
0.0
  0
LINE
  5
   830
  8
0
  6
DASHDOT
 62
     7
 10
260.782599158585
 20
-131.712100483477
 30
0.0
 11
263.382599197328
 21
-131.712100483477
 31
0.0
  0
LINE
  5
   831
  8
0
  6
DASHDOT
 62
     7
 10
229.582598693669
 20
-130.412100464106
 30
0.0
 11
229.582598693669
 21
-133.012100502849
 31
0.0
  0
LINE
  5
   832
  8
0
  6
DASHDOT
 62
     7
 10
228.282598674297
 20
-131.712100483477
 30
0.0
 11
230.88259871304
 21
-131.712100483477
 31
0.0
  0
LINE
  5
   833
  8
0
  6
DASHDOT
 62
     7
 10
262.082599177957
 20
-112.712100200355
 30
0.0
 11
262.082599177957
 21
-130.235122025077
 31
0.0
  0
ARC
  5
   834
  8
0
  6
CONTINUOUS
 62
     7
 10
266.082599237561
 20
-117.412100270391
 30
0.0
 40
1.60000002384186
 50
359.999999844103
 51
539.999999844103
  0
ARC
  5
   835
  8
0
  6
CONTINUOUS
 62
     7
 10
266.082599237561
 20
-122.012100338936
 30
0.0
 40
1.60000002384186
 50
539.999999844103
 51
719.999999844103
  0
LINE
  5
   836
  8
0
  6
CONTINUOUS
 62
     7
 10
267.682599261403
 20
-117.412100270391
 30
0.0
 11
267.682599261403
 21
-122.012100338936
 31
0.0
  0
LINE
  5
   837
  8
0
  6
CONTINUOUS
 62
     7
 10
264.482599213719
 20
-117.412100270391
 30
0.0
 11
264.482599213719
 21
-122.012100338936
 31
0.0
  0
LINE
  5
   838
  8
0
  6
DASHDOT
 62
     7
 10
266.082599237561
 20
-115.212100237608
 30
0.0
 11
266.082599237561
 21
-119.612100303173
 31
0.0
  0
LINE
  5
   839
  8
0
  6
DASHDOT
 62
     7
 10
263.882599204779
 20
-117.412100270391
 30
0.0
 11
268.282599270344
 21
-117.412100270391
 31
0.0
  0
LINE
  5
   83A
  8
0
  6
DASHDOT
 62
     7
 10
266.082599237561
 20
-119.812100306153
 30
0.0
 11
266.082599237561
 21
-124.212100371718
 31
0.0
  0
LINE
  5
   83B
  8
0
  6
DASHDOT
 62
     7
 10
263.882599204779
 20
-122.012100338936
 30
0.0
 11
268.282599270344
 21
-122.012100338936
 31
0.0
  0
POINT
  5
   83C
  8
0
  6
CONTINUOUS
 62
     7
 10
266.082599237561
 20
-115.812100246549
 30
0.0
  0
POINT
  5
   83D
  8
0
  6
CONTINUOUS
 62
     7
 10
266.082599237561
 20
-123.612100362778
 30
0.0
  0
CIRCLE
  5
   83E
  8
0
  6
CONTINUOUS
 62
     7
 10
250.332599002868
 20
-96.0120999515057
 30
0.0
 40
0.400000005960464
  0
CIRCLE
  5
   83F
  8
0
  6
CONTINUOUS
 62
     7
 10
241.332598868757
 20
-96.0120999515057
 30
0.0
 40
0.400000005960464
  0
CIRCLE
  5
   840
  8
0
  6
CONTINUOUS
 62
     7
 10
241.332598868757
 20
-96.0120999515057
 30
0.0
 40
0.736000010967255
  0
CIRCLE
  5
   841
  8
0
  6
CONTINUOUS
 62
     7
 10
250.332599002868
 20
-96.0120999515057
 30
0.0
 40
0.736000010967255
  0
LINE
  5
   842
  8
0
  6
DASHDOT
 62
     7
 10
250.332599002868
 20
-94.6760999315977
 30
0.0
 11
250.332599002868
 21
-97.3480999714136
 31
0.0
  0
LINE
  5
   843
  8
0
  6
DASHDOT
 62
     7
 10
248.99659898296
 20
-96.0120999515057
 30
0.0
 11
251.668599022776
 21
-96.0120999515057
 31
0.0
  0
LINE
  5
   844
  8
0
  6
DASHDOT
 62
     7
 10
241.332598868757
 20
-94.6760999315977
 30
0.0
 11
241.332598868757
 21
-97.3480999714136
 31
0.0
  0
LINE
  5
   845
  8
0
  6
DASHDOT
 62
     7
 10
239.99659884885
 20
-96.0120999515057
 30
0.0
 11
242.668598888665
 21
-96.0120999515057
 31
0.0
  0
LINE
  5
   846
  8
0
  6
CONTINUOUS
 62
     7
 10
221.875258072002
 20
-92.7190656243488
 30
0.0
 11
280.500870852011
 21
-92.7190656243488
 31
0.0
  0
LINE
  5
   847
  8
0
  6
CONTINUOUS
 62
     7
 10
221.875258072002
 20
-134.206778925869
 30
0.0
 11
280.500870852011
 21
-134.206778925869
 31
0.0
  0
LINE
  5
   848
  8
0
  6
CONTINUOUS
 62
     7
 10
221.875258072002
 20
-92.7190656243488
 30
0.0
 11
221.875258072002
 21
-134.206778925869
 31
0.0
  0
LINE
  5
   849
  8
0
  6
CONTINUOUS
 62
     7
 10
257.982599116862
 20
-97.9120999798179
 30
0.0
 11
257.982599116862
 21
-130.112100459635
 31
0.0
  0
LINE
  5
   84A
  8
0
  6
CONTINUOUS
 62
     7
 10
223.982598610222
 20
-97.9120999798179
 30
0.0
 11
223.982598610222
 21
-130.112100459635
 31
0.0
  0
LINE
  5
   84B
  8
0
  6
CONTINUOUS
 62
     7
 10
283.264328093988
 20
-98.8313254236603
 30
0.0
 11
283.264328093988
 21
-105.586443126273
 31
0.0
  0
LINE
  5
   84C
  8
0
  6
CONTINUOUS
 62
     7
 10
280.500870852011
 20
-92.7190656243488
 30
0.0
 11
280.500870852011
 21
-122.437757313181
 31
0.0
  0
LINE
  5
   84D
  8
0
  6
CONTINUOUS
 62
     7
 10
280.500870852011
 20
-98.8313254236603
 30
0.0
 11
283.264328093988
 21
-98.8313254236603
 31
0.0
  0
LINE
  5
   84E
  8
0
  6
CONTINUOUS
 62
     7
 10
280.500870852011
 20
-105.586443126273
 30
0.0
 11
283.264328093988
 21
-105.586443126273
 31
0.0
  0
LINE
  5
   84F
  8
0
  6
CONTINUOUS
 62
     7
 10
280.500870852011
 20
-129.192875015793
 30
0.0
 11
283.264328093988
 21
-129.192875015793
 31
0.0
  0
LINE
  5
   850
  8
0
  6
CONTINUOUS
 62
     7
 10
280.500870852011
 20
-122.437757313181
 30
0.0
 11
283.264328093988
 21
-122.437757313181
 31
0.0
  0
LINE
  5
   851
  8
0
  6
CONTINUOUS
 62
     7
 10
283.264328093988
 20
-122.437757313181
 30
0.0
 11
283.264328093988
 21
-129.192875015793
 31
0.0
  0
LINE
  5
   852
  8
0
  6
CONTINUOUS
 62
     7
 10
280.500870852011
 20
-122.437757313181
 30
0.0
 11
280.500870852011
 21
-134.206778925869
 31
0.0
  0
LINE
  5
   853
  8
0
  6
DASHDOT
 62
     2
 10
281.882599473
 20
-93.7138120125904
 30
0.0
 11
281.882599473
 21
-157.170978309857
 31
0.0
  0
CIRCLE
  5
   854
  8
0
  6
CONTINUOUS
 62
     1
 10
241.332598868757
 20
-96.0120999515057
 30
0.0
 40
1.53600002288818
  0
CIRCLE
  5
   855
  8
0
  6
CONTINUOUS
 62
     1
 10
250.332599002868
 20
-96.0120999515057
 30
0.0
 40
1.53600002288818
  0
LINE
  5
   856
  8
0
  6
CONTINUOUS
 62
     7
 10
189.694352308992
 20
-136.546664764502
 30
0.0
 11
190.047075643606
 21
-136.546664764502
 31
0.0
  0
LINE
  5
   857
  8
0
  6
CONTINUOUS
 62
     7
 10
189.724530123359
 20
-139.746664812186
 30
0.0
 11
190.047075643606
 21
-139.746664812186
 31
0.0
  0
LINE
  5
   858
  8
0
  6
DASHDOT
 62
     7
 10
187.357757645498
 20
-138.146664788344
 30
0.0
 11
192.948684923894
 21
-138.146664788344
 31
0.0
  0
LINE
  5
   859
  8
0
  6
CONTINUOUS
 62
     1
 10
248.425511235301
 20
-106.887816615578
 30
0.0
 11
199.125398313332
 21
-133.285659057031
 31
0.0
  0
LINE
  5
   85A
  8
0
  6
CONTINUOUS
 62
     1
 10
239.544579928494
 20
-107.031604626816
 30
0.0
 11
198.740026523168
 21
-132.682112716345
 31
0.0
  0
LINE
  5
   85B
  8
0
  6
CONTINUOUS
 62
     1
 10
241.075911525206
 20
-97.5265000564889
 30
0.0
 11
239.544579928494
 21
-107.031604626816
 31
0.0
  0
LINE
  5
   85C
  8
0
  6
CONTINUOUS
 62
     1
 10
250.103587365668
 20
-97.5309316539466
 30
0.0
 11
248.425511235301
 21
-106.887816615578
 31
0.0
  0
LINE
  5
   85D
  8
0
  6
CONTINUOUS
 62
     7
 10
250.103587365668
 20
-97.5309316539466
 30
0.0
 11
250.274088150857
 21
-99.5476158760666
 31
0.0
  0
LINE
  5
   85E
  8
0
  6
CONTINUOUS
 62
     7
 10
250.103587365668
 20
-97.5309316539466
 30
0.0
 11
249.237471911836
 21
-99.3742410888041
 31
0.0
  0
LINE
  5
   85F
  8
0
  6
CONTINUOUS
 62
     7
 10
241.075911525206
 20
-97.5265000564889
 30
0.0
 11
241.282931286231
 21
-99.5477511650551
 31
0.0
  0
LINE
  5
   860
  8
0
  6
CONTINUOUS
 62
     7
 10
241.075911525206
 20
-97.5265000564889
 30
0.0
 11
240.246105565651
 21
-99.3770410616787
 31
0.0
  0
TEXT
  5
   861
  8
0
  6
CONTINUOUS
 62
     7
 10
240.60154496578
 20
-74.1363131320708
 30
0.0
 40
2.99999994933605
  1
Y
 50
359.999999844103
 41
0.91666673368878
 72
     1
 11
241.70154504585
 21
-72.6363131603903
 31
0.0
 73
     2
  0
TEXT
  5
   862
  8
0
  6
CONTINUOUS
 62
     7
 10
240.38377784628
 20
-168.211780853904
 30
0.0
 40
2.99999994933605
  1
Y
 50
359.999999844103
 41
0.916666607525612
 72
     1
 11
241.483777759457
 21
-166.711780882223
 31
0.0
 73
     2
  0
TEXT
  5
   863
  8
0
  6
CONTINUOUS
 62
     1
 10
233.059402461747
 20
-195.708282390911
 30
0.0
 40
2.99999994933605
  1
  S6X IV
 50
359.999999844103
 41
0.916666607525612
 72
     2
 11
254.509400712897
 21
-195.708282449167
 31
0.0
  0
TEXT
  5
   864
  8
0
  6
CONTINUOUS
 62
     7
 10
206.847615741738
 20
-115.729864833159
 30
0.0
 40
2.99999994933605
  1
X
 50
359.999999844103
 41
0.916666607525612
 72
     1
 11
207.947615654915
 21
-114.229864861478
 31
0.0
 73
     2
  0
TEXT
  5
   865
  8
0
  6
CONTINUOUS
 62
     7
 10
286.114907988838
 20
-115.512097546766
 30
0.0
 40
2.99999994933605
  1
X
 50
359.999999844103
 41
0.916666607525612
 72
     1
 11
287.214907902015
 21
-114.012097575085
 31
0.0
 73
     2
  0
TEXT
  5
   866
  8
0
  6
CONTINUOUS
 62
     7
 10
283.719467766193
 20
80.6962274934456
 30
0.0
 40
2.99999994933605
  1
X
 50
359.999999844103
 41
0.933333333333333
 72
     1
 11
284.81946775169
 21
82.1962274651262
 31
0.0
 73
     2
  0
TEXT
  5
   867
  8
0
  6
CONTINUOUS
 62
     7
 10
163.076391104398
 20
80.2606929206594
 30
0.0
 40
2.99999994933605
  1
X
 50
359.999999844103
 41
0.933333333333333
 72
     1
 11
164.176391089895
 21
81.7606928923399
 31
0.0
 73
     2
  0
TEXT
  5
   868
  8
0
  6
CONTINUOUS
 62
     1
 10
219.67497728702
 20
-177.398010208185
 30
0.0
 40
2.00000007748604
  1
4 POLE LOW VOLTAGE M.C.C.B SER.ISOMAX SUPERLIMIT.
 50
359.999999844103
 41
0.637500002980232
 72
     1
 11
250.774978637695
 21
-176.398010253906
 31
0.0
 73
     2
  0
TEXT
  5
   869
  8
0
  6
CONTINUOUS
 62
     1
 10
226.162476976294
 20
-180.398010225805
 30
0.0
 40
2.00000007748604
  1
WITHDRAWABLE VERSION MIXED TERMINALS
 50
359.999999844103
 41
0.687500019669532
 72
     1
 11
250.774978637695
 21
-179.398010253906
 31
0.0
 73
     2
  0
TEXT
  5
   86A
  8
0
  6
CONTINUOUS
 62
     1
 10
212.877375177559
 20
-185.468276922991
 30
0.0
 40
2.00000007748604
  1
INTERR.AUTOMATICO SERIE ISOMAX SUPERLIMITATORE
 50
359.999999844103
 41
0.749999884366991
 72
     1
 11
247.22737121582
 21
-184.468276977539
 31
0.0
 73
     2
  0
TEXT
  5
   86B
  8
0
  6
CONTINUOUS
 62
     1
 10
214.377375004407
 20
-188.468276927065
 30
0.0
 40
2.00000007748604
  1
TETRAP ESECUZIONE ESTRAIBILE TERMINALI MISTI
 50
359.999999844103
 41
0.749999884366991
 72
     1
 11
247.22737121582
 21
-187.468276977539
 31
0.0
 73
     2
  0
TEXT
  5
   86C
  8
0
  6
CONTINUOUS
 62
     1
 10
162.622581147369
 20
-193.442703257704
 30
0.0
 40
2.00000007748604
  1
M4371 97-07-07
 50
359.999999844103
 41
0.749999884366991
 72
     1
 11
172.972579956055
 21
-192.44270324707
 31
0.0
 73
     2
  0
INSERT
  5
   86D
  8
0
  6
CONTINUOUS
 62
     7
  2
*UDIM1863
 10
0.0
 20
0.0
 30
0.0
  0
INSERT
  5
   86E
  8
0
  6
CONTINUOUS
 62
     7
  2
*UDIM1864
 10
0.0
 20
0.0
 30
0.0
  0
INSERT
  5
   86F
  8
0
  6
CONTINUOUS
 62
     7
  2
*UDIM1865
 10
0.0
 20
0.0
 30
0.0
  0
TEXT
  5
   870
  8
0
  6
CONTINUOUS
 62
     1
 10
187.462581147369
 20
-193.442703257704
 30
0.0
 40
2.00000007748604
  1
M4504 98-11-17
 50
359.999999844103
 41
0.749999884366991
 72
     1
 11
197.812579956055
 21
-192.44270324707
 31
0.0
 73
     2
  0
TEXT
  5
   871
  8
0
  6
CONTINUOUS
 62
     1
 10
130.357192990448
 20
-187.156173761542
 30
0.0
 40
2.00000007748604
  1
SCARPELLINI
 50
359.999999844103
 41
0.749999884366991
 72
     2
 11
146.557191121843
 21
-187.156173805539
 31
0.0
  0
INSERT
  5
   872
  8
0
  6
CONTINUOUS
 62
     7
  2
*UDIM1866
 10
0.0
 20
0.0
 30
0.0
  0
INSERT
  5
   873
  8
0
  6
CONTINUOUS
 62
     7
  2
*UDIM1867
 10
0.0
 20
0.0
 30
0.0
  0
TEXT
  5
   874
  8
0
  6
CONTINUOUS
 62
     1
 10
136.88258657467
 20
-193.442704426163
 30
0.0
 40
2.00000007748604
  1
M 4352 96-12-17
 50
359.999999844103
 41
0.749999884366991
 72
     1
 11
147.98258529678
 21
-192.442704417566
 31
0.0
 73
     2
  0
TEXT
  5
   875
  8
0
  6
CONTINUOUS
 62
     1
 10
130.357194392273
 20
-178.689420393622
 30
0.0
 40
2.00000007748604
  1
96-11-29 ZANCHI.
 50
359.999999844103
 41
0.749999884366991
 72
     2
 11
154.05719165791
 21
-178.689420457988
 31
0.0
  0
TEXT
  5
   876
  8
0
  6
CONTINUOUS
 62
     1
 10
231.973708977209
 20
-204.689866289852
 30
0.0
 40
4.00000015497208
  1
605031/091
 50
359.999999844103
 41
0.93749995827675
 72
     2
 11
268.723708732085
 21
-204.689866389661
 31
0.0
  0
INSERT
  5
   877
  8
0
  6
CONTINUOUS
 62
     7
  2
*UDIM1868
 10
0.0
 20
0.0
 30
0.0
  0
TEXT
  5
   878
  8
0
  6
CONTINUOUS
 62
     7
 10
220.640695975102
 20
-119.343353155425
 30
0.0
 40
2.50000001341104
  1
=  =
 50
449.999999844103
 41
0.899999922823905
 72
     2
 11
220.640695998312
 21
-110.793353861949
 31
0.0
  0
INSERT
  5
   879
  8
0
  6
CONTINUOUS
 62
     7
  2
*UDIM1869
 10
0.0
 20
0.0
 30
0.0
  0
INSERT
  5
   87A
  8
0
  6
CONTINUOUS
 62
     7
  2
*UDIM1870
 10
0.0
 20
0.0
 30
0.0
  0
INSERT
  5
   87B
  8
0
  6
CONTINUOUS
 62
     7
  2
*UDIM1871
 10
0.0
 20
0.0
 30
0.0
  0
INSERT
  5
   87C
  8
0
  6
CONTINUOUS
 62
     7
  2
*UDIM1872
 10
0.0
 20
0.0
 30
0.0
  0
INSERT
  5
   87D
  8
0
  6
CONTINUOUS
 62
     7
  2
*UDIM1873
 10
0.0
 20
0.0
 30
0.0
  0
INSERT
  5
   87E
  8
0
  6
CONTINUOUS
 62
     7
  2
*UDIM1874
 10
0.0
 20
0.0
 30
0.0
  0
INSERT
  5
   87F
  8
0
  6
CONTINUOUS
 62
     7
  2
*UDIM1875
 10
0.0
 20
0.0
 30
0.0
  0
INSERT
  5
   880
  8
0
  6
CONTINUOUS
 62
     7
  2
*UDIM1876
 10
0.0
 20
0.0
 30
0.0
  0
INSERT
  5
   881
  8
0
  6
CONTINUOUS
 62
     7
  2
*UDIM1877
 10
0.0
 20
0.0
 30
0.0
  0
INSERT
  5
   882
  8
0
  6
CONTINUOUS
 62
     7
  2
*UDIM1878
 10
0.0
 20
0.0
 30
0.0
  0
INSERT
  5
   883
  8
0
  6
CONTINUOUS
 62
     7
  2
*UDIM1879
 10
0.0
 20
0.0
 30
0.0
  0
INSERT
  5
   884
  8
0
  6
CONTINUOUS
 62
     7
  2
*UDIM1880
 10
0.0
 20
0.0
 30
0.0
  0
TEXT
  5
   885
  8
0
  6
CONTINUOUS
 62
     7
 10
240.716094221963
 20
-91.4743650934625
 30
0.0
 40
2.50000001341104
  1
=  =
 50
359.999999844103
 41
0.899999922823905
 72
     2
 11
249.266093515439
 21
-91.4743651166833
 31
0.0
  0
INSERT
  5
   886
  8
0
  6
CONTINUOUS
 62
     7
  2
*UDIM1881
 10
0.0
 20
0.0
 30
0.0
  0
TEXT
  5
   887
  8
0
  6
CONTINUOUS
 62
     7
 10
179.303721805554
 20
-122.6952172009
 30
0.0
 40
2.99999994933605
  1
PART. Z
 50
359.999999844103
 41
0.91666673368878
 72
     1
 11
188.653722349497
 21
-121.195217251626
 31
0.0
 73
     2
  0
INSERT
  5
   888
  8
255
  6
CONTINUOUS
 62
     7
  2
BASETT_1
 10
205.132593585019
 20
-64.1355285644531
 30
0.0
 41
0.349999994039536
 42
0.349999994039536
 50
7.01670929448346E-15
 43
0.349999994039536
  0
CIRCLE
  5
   889
  8
0
  6
CONTINUOUS
 62
     7
 10
216.458849826494
 20
-40.6522174897964
 30
0.0
 40
8.74999985098839E-2
  0
LINE
  5
   88A
  8
0
  6
DOT
 62
     7
 10
210.382593495612
 20
-34.7188628218768
 30
0.0
 11
210.382593495612
 21
-48.7188625834582
 31
0.0
  0
LINE
  5
   88B
  8
0
  6
DOT
 62
     7
 10
224.382593257193
 20
-34.7188628218768
 30
0.0
 11
224.382593257193
 21
-48.7188625834582
 31
0.0
  0
LINE
  5
   88C
  8
0
  6
DOT
 62
     7
 10
234.882593078379
 20
-34.7188628218768
 30
0.0
 11
234.882593078379
 21
-48.7188625834582
 31
0.0
  0
LINE
  5
   88D
  8
0
  6
DOT
 62
     7
 10
248.882592839961
 20
-34.7188628218768
 30
0.0
 11
248.882592839961
 21
-48.7188625834582
 31
0.0
  0
LINE
  5
   88E
  8
0
  6
DOT
 62
     7
 10
259.382592661147
 20
-34.7188628218768
 30
0.0
 11
259.382592661147
 21
-48.7188625834582
 31
0.0
  0
LINE
  5
   88F
  8
0
  6
DOT
 62
     7
 10
273.382592422728
 20
-34.7188628218768
 30
0.0
 11
273.382592422728
 21
-48.7188625834582
 31
0.0
  0
LINE
  5
   890
  8
0
  6
DOT
 62
     7
 10
273.382592422728
 20
-34.7188628218768
 30
0.0
 11
268.132592512135
 21
-34.7188628218768
 31
0.0
  0
LINE
  5
   891
  8
0
  6
DOT
 62
     7
 10
264.63259257174
 20
-34.7188628218768
 30
0.0
 11
259.382592661147
 21
-34.7188628218768
 31
0.0
  0
LINE
  5
   892
  8
0
  6
DOT
 62
     7
 10
248.882592839961
 20
-34.7188628218768
 30
0.0
 11
243.632592929368
 21
-34.7188628218768
 31
0.0
  0
LINE
  5
   893
  8
0
  6
DOT
 62
     7
 10
240.132592988972
 20
-34.7188628218768
 30
0.0
 11
234.882593078379
 21
-34.7188628218768
 31
0.0
  0
LINE
  5
   894
  8
0
  6
DOT
 62
     7
 10
224.382593257193
 20
-34.7188628218768
 30
0.0
 11
219.1325933466
 21
-34.7188628218768
 31
0.0
  0
LINE
  5
   895
  8
0
  6
DOT
 62
     7
 10
215.632593406205
 20
-34.7188628218768
 30
0.0
 11
210.382593495612
 21
-34.7188628218768
 31
0.0
  0
LINE
  5
   896
  8
0
  6
DOT
 62
     7
 10
185.882593912844
 20
-34.7188628218768
 30
0.0
 11
185.882593912844
 21
-48.7188625834582
 31
0.0
  0
LINE
  5
   897
  8
0
  6
DOT
 62
     7
 10
191.132593823437
 20
-34.7188628218768
 30
0.0
 11
185.882593912844
 21
-34.7188628218768
 31
0.0
  0
LINE
  5
   898
  8
0
  6
DOT
 62
     7
 10
199.882593674426
 20
-34.7188628218768
 30
0.0
 11
194.632593763833
 21
-34.7188628218768
 31
0.0
  0
LINE
  5
   899
  8
0
  6
DOT
 62
     7
 10
199.882593674426
 20
-34.7188628218768
 30
0.0
 11
199.882593674426
 21
-48.7188625834582
 31
0.0
  0
INSERT
  5
   89A
  8
0
  6
CONTINUOUS
 62
     7
  2
*UDIM1882
 10
0.0
 20
0.0
 30
0.0
  0
INSERT
  5
   89B
  8
0
  6
CONTINUOUS
 62
     7
  2
*UDIM1883
 10
0.0
 20
0.0
 30
0.0
  0
INSERT
  5
   89C
  8
0
  6
CONTINUOUS
 62
     7
  2
*UDIM1884
 10
0.0
 20
0.0
 30
0.0
  0
INSERT
  5
   89D
  8
0
  6
CONTINUOUS
 62
     7
  2
*UDIM1885
 10
0.0
 20
0.0
 30
0.0
  0
ENDSEC
  0
EOF
