  0
SECTION
  2
HEADER
  9
$ACADVER
  1
AC1009
  9
$DWGCODEPAGE
  3
iso8859-1
  9
$INSBASE
 10
0.0
 20
0.0
 30
0.0
  9
$EXTMIN
 10
1.0E20
 20
1.0E20
  9
$EXTMAX
 10
-1.0E20
 20
-1.0E20
  9
$LIMMIN
 10
0.0
 20
0.0
  9
$LIMMAX
 10
12.0
 20
9.0
  9
$ORTHOMODE
 70
     0
  9
$REGENMODE
 70
     1
  9
$FILLMODE
 70
     1
  9
$QTEXTMODE
 70
     0
  9
$MIRRTEXT
 70
     1
  9
$DRAGMODE
 70
     2
  9
$LTSCALE
 40
15.0
  9
$OSMODE
 70
     0
  9
$ATTMODE
 70
     1
  9
$TEXTSIZE
 40
0.2
  9
$TRACEWID
 40
0.05
  9
$TEXTSTYLE
  7
STANDARD
  9
$CLAYER
  8
0
  9
$CELTYPE
  6
DASHED
  9
$CECOLOR
 62
   256
  9
$DIMSCALE
 40
1.0
  9
$DIMASZ
 40
0.18
  9
$DIMEXO
 40
0.0625
  9
$DIMDLI
 40
0.38
  9
$DIMRND
 40
0.0
  9
$DIMDLE
 40
0.0
  9
$DIMEXE
 40
0.18
  9
$DIMTP
 40
0.0
  9
$DIMTM
 40
0.0
  9
$DIMTXT
 40
0.18
  9
$DIMCEN
 40
0.09
  9
$DIMTSZ
 40
0.0
  9
$DIMTOL
 70
     0
  9
$DIMLIM
 70
     0
  9
$DIMTIH
 70
     1
  9
$DIMTOH
 70
     1
  9
$DIMSE1
 70
     0
  9
$DIMSE2
 70
     0
  9
$DIMTAD
 70
     0
  9
$DIMZIN
 70
     0
  9
$DIMBLK
  1

  9
$DIMASO
 70
     1
  9
$DIMSHO
 70
     1
  9
$DIMPOST
  1

  9
$DIMAPOST
  1

  9
$DIMALT
 70
     0
  9
$DIMALTD
 70
     2
  9
$DIMALTF
 40
25.4
  9
$DIMLFAC
 40
1.0
  9
$DIMTOFL
 70
     0
  9
$DIMTVP
 40
0.0
  9
$DIMTIX
 70
     0
  9
$DIMSOXD
 70
     0
  9
$DIMSAH
 70
     0
  9
$DIMBLK1
  1

  9
$DIMBLK2
  1

  9
$DIMSTYLE
  2
STANDARD
  9
$DIMCLRD
 70
     0
  9
$DIMCLRE
 70
     0
  9
$DIMCLRT
 70
     0
  9
$DIMTFAC
 40
1.0
  9
$DIMGAP
 40
0.09
  9
$LUNITS
 70
     2
  9
$LUPREC
 70
     4
  9
$AXISMODE
 70
     0
  9
$AXISUNIT
 10
0.0
 20
0.0
  9
$SKETCHINC
 40
0.1
  9
$FILLETRAD
 40
0.0
  9
$AUNITS
 70
     0
  9
$AUPREC
 70
     0
  9
$MENU
  1
acad
  9
$ELEVATION
 40
0.0
  9
$PELEVATION
 40
0.0
  9
$THICKNESS
 40
0.0
  9
$LIMCHECK
 70
     0
  9
$BLIPMODE
 70
     1
  9
$CHAMFERA
 40
0.0
  9
$CHAMFERB
 40
0.0
  9
$SKPOLY
 70
     0
  9
$TDCREATE
 40
0.000000000
  9
$TDUPDATE
 40
0.000000000
  9
$TDINDWG
 40
0.0
  9
$TDUSRTIMER
 40
0.0
  9
$USRTIMER
 70
     1
  9
$ANGBASE
 50
0.0
  9
$ANGDIR
 70
     0
  9
$PDMODE
 70
     0
  9
$PDSIZE
 40
0.0
  9
$PLINEWID
 40
0.0
  9
$COORDS
 70
     1
  9
$SPLFRAME
 70
     0
  9
$SPLINETYPE
 70
     6
  9
$SPLINESEGS
 70
     8
  9
$ATTDIA
 70
     0
  9
$ATTREQ
 70
     1
  9
$HANDLING
 70
     1
  9
$HANDSEED
  5
   31C
  9
$SURFTAB1
 70
     6
  9
$SURFTAB2
 70
     6
  9
$SURFTYPE
 70
     6
  9
$SURFU
 70
     6
  9
$SURFV
 70
     6
  9
$UCSNAME
  2

  9
$UCSORG
 10
0.0
 20
0.0
 30
0.0
  9
$UCSXDIR
 10
1.0
 20
0.0
 30
0.0
  9
$UCSYDIR
 10
0.0
 20
1.0
 30
0.0
  9
$PUCSNAME
  2

  9
$PUCSORG
 10
0.0
 20
0.0
 30
0.0
  9
$PUCSXDIR
 10
1.0
 20
0.0
 30
0.0
  9
$PUCSYDIR
 10
0.0
 20
1.0
 30
0.0
  9
$USERI1
 70
     0
  9
$USERI2
 70
     0
  9
$USERI3
 70
     0
  9
$USERI4
 70
     0
  9
$USERI5
 70
     0
  9
$USERR1
 40
0.0
  9
$USERR2
 40
0.0
  9
$USERR3
 40
0.0
  9
$USERR4
 40
0.0
  9
$USERR5
 40
0.0
  9
$WORLDVIEW
 70
     1
  9
$SHADEDGE
 70
     3
  9
$SHADEDIF
 70
    70
  9
$TILEMODE
 70
     1
  9
$MAXACTVP
 70
    16
  9
$PINSBASE
 10
0.0
 20
0.0
 30
0.0
  9
$PLIMCHECK
 70
     0
  9
$PEXTMIN
 10
1.0E20
 20
1.0E20
 30
1.0E20
  9
$PEXTMAX
 10
-1.0E20
 20
-1.0E20
 30
-1.0E20
  9
$PLIMMIN
 10
0.0
 20
0.0
  9
$PLIMMAX
 10
12.0
 20
9.0
  9
$UNITMODE
 70
     0
  9
$VISRETAIN
 70
     0
  0
ENDSEC
  0
SECTION
  2
TABLES
  0
TABLE
  2
VPORT
 70
     1
  0
VPORT
  2
*ACTIVE
 70
     0
 10
0.0
 20
0.0
 11
1.0
 21
1.0
 12
6.801242
 22
4.5
 13
0.0
 23
0.0
 14
1.0
 24
1.0
 15
0.0
 25
0.0
 16
0.0
 26
0.0
 36
1.0
 17
0.0
 27
0.0
 37
0.0
 40
9.0
 41
1.511387
 42
50.0
 43
0.0
 44
0.0
 50
0.0
 51
0.0
 71
     0
 72
   100
 73
     1
 74
     1
 75
     0
 76
     0
 77
     0
 78
     0
  0
ENDTAB
  0
TABLE
  2
LTYPE
 70
    41
  0
LTYPE
  2
BYBLOCK
 70
     0
  3

 72
    65
 73
     0
 40
0.0
  0
LTYPE
  2
BYLAYER
 70
     0
  3

 72
    65
 73
     0
 40
0.0
  0
LTYPE
  2
CONTINUOUS
 70
     0
  3
Solid line
 72
    65
 73
     0
 40
0.0
  0
LTYPE
  2
BORDER
 70
    64
  3
__ __ . __ __ . __ __ . __ __ . __ __ . __ __ .
 72
    65
 73
     6
 40
1.75
 49
0.5
 49
-0.25
 49
0.5
 49
-0.25
 49
0.0
 49
-0.25
  0
LTYPE
  2
BORDER2
 70
    64
  3
__.__.__.__.__.__.__.__.__.__.__.__.__.__.__.__
 72
    65
 73
     6
 40
0.875
 49
0.25
 49
-0.125
 49
0.25
 49
-0.125
 49
0.0
 49
-0.125
  0
LTYPE
  2
BORDERX2
 70
    64
  3
____  ____  .  ____  ____  .  ____  ____  .  __
 72
    65
 73
     6
 40
3.5
 49
1.0
 49
-0.5
 49
1.0
 49
-0.5
 49
0.0
 49
-0.5
  0
LTYPE
  2
CENTER
 70
    64
  3
____ _ ____ _ ____ _ ____ _ ____ _ ____ _ ____
 72
    65
 73
     4
 40
2.0
 49
1.25
 49
-0.25
 49
0.25
 49
-0.25
  0
LTYPE
  2
CENTER2
 70
    64
  3
___ _ ___ _ ___ _ ___ _ ___ _ ___ _ ___ _ ___ _
 72
    65
 73
     4
 40
1.125
 49
0.75
 49
-0.125
 49
0.125
 49
-0.125
  0
LTYPE
  2
CENTERX2
 70
    64
  3
________  __  ________  __  ________  __  _____
 72
    65
 73
     4
 40
4.0
 49
2.5
 49
-0.5
 49
0.5
 49
-0.5
  0
LTYPE
  2
DASHDOT
 70
    64
  3
__ . __ . __ . __ . __ . __ . __ . __ . __ . __
 72
    65
 73
     4
 40
1.0
 49
0.5
 49
-0.25
 49
0.0
 49
-0.25
  0
LTYPE
  2
DASHDOT2
 70
    64
  3
_._._._._._._._._._._._._._._._._._._._._._._._
 72
    65
 73
     4
 40
0.5
 49
0.25
 49
-0.125
 49
0.0
 49
-0.125
  0
LTYPE
  2
DASHDOTX2
 70
    64
  3
____  .  ____  .  ____  .  ____  .  ____  .  __
 72
    65
 73
     4
 40
2.0
 49
1.0
 49
-0.5
 49
0.0
 49
-0.5
  0
LTYPE
  2
DASHED
 70
    64
  3
__ __ __ __ __ __ __ __ __ __ __ __ __ __ __ __
 72
    65
 73
     2
 40
0.75
 49
0.5
 49
-0.25
  0
LTYPE
  2
DASHED2
 70
    64
  3
_ _ _ _ _ _ _ _ _ _ _ _ _ _ _ _ _ _ _ _ _ _ _ _
 72
    65
 73
     2
 40
0.375
 49
0.25
 49
-0.125
  0
LTYPE
  2
DASHEDX2
 70
    64
  3
____  ____  ____  ____  ____  ____  ____  ____
 72
    65
 73
     2
 40
1.5
 49
1.0
 49
-0.5
  0
LTYPE
  2
DIVIDE
 70
    64
  3
____ . . ____ . . ____ . . ____ . . ____ . . __
 72
    65
 73
     6
 40
1.25
 49
0.5
 49
-0.25
 49
0.0
 49
-0.25
 49
0.0
 49
-0.25
  0
LTYPE
  2
DIVIDE2
 70
    64
  3
__..__..__..__..__..__..__..__..__..__..__..__.
 72
    65
 73
     6
 40
0.625
 49
0.25
 49
-0.125
 49
0.0
 49
-0.125
 49
0.0
 49
-0.125
  0
LTYPE
  2
DIVIDEX2
 70
    64
  3
________  .  .  ________  .  .  ________  .  .
 72
    65
 73
     6
 40
2.5
 49
1.0
 49
-0.5
 49
0.0
 49
-0.5
 49
0.0
 49
-0.5
  0
LTYPE
  2
DOT
 70
    64
  3
. . . . . . . . . . . . . . . . . . . . . . . .
 72
    65
 73
     2
 40
0.25
 49
0.0
 49
-0.25
  0
LTYPE
  2
DOT2
 70
    64
  3
...............................................
 72
    65
 73
     2
 40
0.125
 49
0.0
 49
-0.125
  0
LTYPE
  2
DOTX2
 70
    64
  3
.  .  .  .  .  .  .  .  .  .  .  .  .  .  .  .
 72
    65
 73
     2
 40
0.5
 49
0.0
 49
-0.5
  0
LTYPE
  2
HIDDEN
 70
    64
  3
__ __ __ __ __ __ __ __ __ __ __ __ __ __ __ __
 72
    65
 73
     2
 40
0.375
 49
0.25
 49
-0.125
  0
LTYPE
  2
HIDDEN2
 70
    64
  3
_ _ _ _ _ _ _ _ _ _ _ _ _ _ _ _ _ _ _ _ _ _ _ _
 72
    65
 73
     2
 40
0.1875
 49
0.125
 49
-0.0625
  0
LTYPE
  2
HIDDENX2
 70
    64
  3
____ ____ ____ ____ ____ ____ ____ ____ ____ __
 72
    65
 73
     2
 40
0.75
 49
0.5
 49
-0.25
  0
LTYPE
  2
PHANTOM
 70
    64
  3
______  __  __  ______  __  __  ______  __  __
 72
    65
 73
     6
 40
2.5
 49
1.25
 49
-0.25
 49
0.25
 49
-0.25
 49
0.25
 49
-0.25
  0
LTYPE
  2
PHANTOM2
 70
    64
  3
___ _ _ ___ _ _ ___ _ _ ___ _ _ ___ _ _ ___ _ _
 72
    65
 73
     6
 40
1.25
 49
0.625
 49
-0.125
 49
0.125
 49
-0.125
 49
0.125
 49
-0.125
  0
LTYPE
  2
PHANTOMX2
 70
    64
  3
____________    ____    ____    ____________
 72
    65
 73
     6
 40
5.0
 49
2.5
 49
-0.5
 49
0.5
 49
-0.5
 49
0.5
 49
-0.5
  0
LTYPE
  2
ACAD_ISO02W100
 70
    64
  3
__ __ __ __ __ __ __ __ __ __ __ __ __ __ __ __
 72
    65
 73
     2
 40
15.0
 49
12.0
 49
-3.0
  0
LTYPE
  2
ACAD_ISO03W100
 70
    64
  3
__    __    __    __    __    __    __    __
 72
    65
 73
     2
 40
30.0
 49
12.0
 49
-18.0
  0
LTYPE
  2
ACAD_ISO04W100
 70
    64
  3
____ . ____ . ____ . ____ . ____ . ____ . ____
 72
    65
 73
     4
 40
30.5
 49
24.0
 49
-3.0
 49
0.5
 49
-3.0
  0
LTYPE
  2
ACAD_ISO05W100
 70
    64
  3
____ .. ____ .. ____ .. ____ .. ____ .. ____ ..
 72
    65
 73
     6
 40
34.0
 49
24.0
 49
-3.0
 49
0.5
 49
-3.0
 49
0.5
 49
-3.0
  0
LTYPE
  2
ACAD_ISO06W100
 70
    64
  3
____ ... ____ ... ____ ... ____ ... ____ ... __
 72
    65
 73
     8
 40
37.5
 49
24.0
 49
-3.0
 49
0.5
 49
-3.0
 49
0.5
 49
-3.0
 49
0.5
 49
-3.0
  0
LTYPE
  2
ACAD_ISO07W100
 70
    64
  3
. . . . . . . . . . . . . . . . . . . . . . . .
 72
    65
 73
     2
 40
3.5
 49
0.5
 49
-3.0
  0
LTYPE
  2
ACAD_ISO08W100
 70
    64
  3
____ __ ____ __ ____ __ ____ ____ __ __ ____ __
 72
    65
 73
     4
 40
36.0
 49
24.0
 49
-3.0
 49
6.0
 49
-3.0
  0
LTYPE
  2
ACAD_ISO09W100
 70
    64
  3
____ __ __ ____ __ __ ____ __ __ ____ __ __ ___
 72
    65
 73
     6
 40
45.0
 49
24.0
 49
-3.0
 49
6.0
 49
-3.0
 49
6.0
 49
-3.0
  0
LTYPE
  2
ACAD_ISO10W100
 70
    64
  3
__ . __ . __ . __ . __ . __ . __ . __ . __ . __
 72
    65
 73
     4
 40
18.5
 49
12.0
 49
-3.0
 49
0.5
 49
-3.0
  0
LTYPE
  2
ACAD_ISO11W100
 70
    64
  3
__ __ . __ __ . __ __ . __ __ . __ __ . __ __ .
 72
    65
 73
     6
 40
33.5
 49
12.0
 49
-3.0
 49
12.0
 49
-3.0
 49
0.5
 49
-3.0
  0
LTYPE
  2
ACAD_ISO12W100
 70
    64
  3
__ . . __ . . __ . . __ . . __ . . __ . . __ .
 72
    65
 73
     6
 40
22.0
 49
12.0
 49
-3.0
 49
0.5
 49
-3.0
 49
0.5
 49
-3.0
  0
LTYPE
  2
ACAD_ISO13W100
 70
    64
  3
__ __ . . __ __ . . __ __ . . __ __ . . __ __ .
 72
    65
 73
     8
 40
37.0
 49
12.0
 49
-3.0
 49
12.0
 49
-3.0
 49
0.5
 49
-3.0
 49
0.5
 49
-3.0
  0
LTYPE
  2
ACAD_ISO14W100
 70
    64
  3
__ . . . __ . . . __ . . . __ . . . __ . . . __
 72
    65
 73
     8
 40
25.5
 49
12.0
 49
-3.0
 49
0.5
 49
-3.0
 49
0.5
 49
-3.0
 49
0.5
 49
-3.0
  0
LTYPE
  2
ACAD_ISO15W100
 70
    64
  3
__ __ . . . __ __ . . . __ __ . . . __ __ . . .
 72
    65
 73
    10
 40
40.5
 49
12.0
 49
-3.0
 49
12.0
 49
-3.0
 49
0.5
 49
-3.0
 49
0.5
 49
-3.0
 49
0.5
 49
-3.0
  0
ENDTAB
  0
TABLE
  2
STYLE
 70
     4
  0
STYLE
  2
STANDARD
 70
    64
 40
0.0
 41
1.0
 50
0.0
 71
     0
 42
0.2
  3
txt
  4

  0
STYLE
  2
TOLERANCE
 70
    64
 40
0.0
 41
1.0
 50
0.0
 71
     0
 42
0.2
  3
../igesfont/iges1003.shx
  4

  0
STYLE
  2
ROMANS
 70
    64
 40
0.0
 41
1.0
 50
0.0
 71
     0
 42
0.2
  3
romans.shx
  4

  0
STYLE
  2
ROMANC
 70
    64
 40
0.0
 41
1.0
 50
0.0
 71
     0
 42
0.2
  3
romanc.shx
  4

  0
ENDTAB
  0
TABLE
  2
DIMSTYLE
 70
     2
  0
DIMSTYLE
  2
UNNAMED
 70
     0
  3

  4

  5

  6

  7

 40
1.0
 41
0.18
 42
0.0625
 43
0.38
 44
0.18
 45
0.0
 46
0.0
 47
0.0
 48
0.0
140
0.18
141
0.09
142
0.0
143
25.4
144
1.0
145
0.0
146
1.0
147
0.09
 71
     0
 72
     0
 73
     1
 74
     1
 75
     0
 76
     0
 77
     0
 78
     0
170
     0
171
     2
172
     0
173
     0
174
     0
175
     0
176
     0
177
     0
178
     0
  0
DIMSTYLE
  2
STANDARD
 70
     0
  3

  4

  5

  6

  7

 40
1.0
 41
0.18
 42
0.0625
 43
0.38
 44
0.18
 45
0.0
 46
0.0
 47
0.0
 48
0.0
140
0.18
141
0.09
142
0.0
143
25.4
144
1.0
145
0.0
146
1.0
147
0.09
 71
     0
 72
     0
 73
     1
 74
     1
 75
     0
 76
     0
 77
     0
 78
     0
170
     0
171
     2
172
     0
173
     0
174
     0
175
     0
176
     0
177
     0
178
     0
  0
ENDTAB
  0
TABLE
  2
LAYER
 70
     1
  0
LAYER
  2
0
 70
     0
 62
     7
  6
CONTINUOUS
  0
ENDTAB
  0
ENDSEC
  0
SECTION
  2
BLOCKS
  0
BLOCK
  5
     B
  8
0
  6
CONTINUOUS
 62
     7
  2
*UDIM128
 70
    65
 10
0.0
 20
0.0
 30
0.0
  3
*UDIM128
  0
TEXT
  5
     C
  8
0
  6
CONTINUOUS
 62
     7
 10
133.298581357927
 20
-254.250099182129
 30
0.0
 40
3.00000013411045
  1
11
 41
0.933333333333333
 72
     1
 11
135.798581469686
 21
-252.750099115074
 31
0.0
 73
     2
  0
LINE
  5
     D
  8
0
  6
CONTINUOUS
 62
     7
 10
141.823579987777
 20
-233.863750124392
 30
0.0
 11
141.823579987777
 21
-257.250099182129
 31
0.0
  0
LINE
  5
     E
  8
0
  6
CONTINUOUS
 62
     7
 10
150.073562161495
 20
-233.863750124392
 30
0.0
 11
150.073562161495
 21
-257.250099182129
 31
0.0
  0
LINE
  5
     F
  8
0
  6
CONTINUOUS
 62
     7
 10
133.298581357927
 20
-255.250099182129
 30
0.0
 11
150.073562161495
 21
-255.250099182129
 31
0.0
  0
LINE
  5
    10
  8
0
  6
CONTINUOUS
 62
     7
 10
138.86915671057
 20
-255.771043612081
 30
0.0
 11
141.823579987777
 21
-255.250099182129
 31
0.0
  0
LINE
  5
    11
  8
0
  6
CONTINUOUS
 62
     7
 10
141.823579987777
 20
-255.250099182129
 30
0.0
 11
138.86915671057
 21
-254.729154752177
 31
0.0
  0
LINE
  5
    12
  8
0
  6
CONTINUOUS
 62
     7
 10
153.027985438702
 20
-254.729154752177
 30
0.0
 11
150.073562161495
 21
-255.250099182129
 31
0.0
  0
LINE
  5
    13
  8
0
  6
CONTINUOUS
 62
     7
 10
150.073562161495
 20
-255.250099182129
 30
0.0
 11
153.027985438702
 21
-255.771043612081
 31
0.0
  0
ENDBLK
  5
    14
  8
0
  6
CONTINUOUS
 62
     7
  0
BLOCK
  5
    15
  8
0
  6
CONTINUOUS
 62
     7
  2
*UDIM129
 70
    65
 10
0.0
 20
0.0
 30
0.0
  3
*UDIM129
  0
TEXT
  5
    16
  8
0
  6
CONTINUOUS
 62
     7
 10
231.28754425049
 20
-237.582674004343
 30
0.0
 40
3.00000013411045
  1
=
 50
90.0
 41
0.933333333333333
 72
     1
 11
229.787544183433
 21
-236.482673955171
 31
0.0
 73
     2
  0
LINE
  5
    17
  8
0
  6
CONTINUOUS
 62
     7
 10
161.948577880859
 20
-240.36375617981
 30
0.0
 11
234.287544250488
 21
-240.36375617981
 31
0.0
  0
LINE
  5
    18
  8
0
  6
CONTINUOUS
 62
     7
 10
152.573562161495
 20
-232.863750124392
 30
0.0
 11
234.287544250488
 21
-232.863750124392
 31
0.0
  0
LINE
  5
    19
  8
0
  6
CONTINUOUS
 62
     7
 10
232.287544250488
 20
-240.36375617981
 30
0.0
 11
232.287544250488
 21
-232.863750124392
 31
0.0
  0
LINE
  5
    1A
  8
0
  6
CONTINUOUS
 62
     7
 10
232.80848868044
 20
-243.318179457017
 30
0.0
 11
232.287544250488
 21
-240.36375617981
 31
0.0
  0
LINE
  5
    1B
  8
0
  6
CONTINUOUS
 62
     7
 10
232.287544250488
 20
-240.36375617981
 30
0.0
 11
231.766599820537
 21
-243.318179457017
 31
0.0
  0
LINE
  5
    1C
  8
0
  6
CONTINUOUS
 62
     7
 10
231.766599820537
 20
-229.909326847186
 30
0.0
 11
232.287544250488
 21
-232.863750124392
 31
0.0
  0
LINE
  5
    1D
  8
0
  6
CONTINUOUS
 62
     7
 10
232.287544250488
 20
-232.863750124392
 30
0.0
 11
232.80848868044
 21
-229.909326847186
 31
0.0
  0
ENDBLK
  5
    1E
  8
0
  6
CONTINUOUS
 62
     7
  0
BLOCK
  5
    1F
  8
0
  6
CONTINUOUS
 62
     7
  2
*UDIM130
 70
    65
 10
0.0
 20
0.0
 30
0.0
  3
*UDIM130
  0
TEXT
  5
    20
  8
0
  6
CONTINUOUS
 62
     7
 10
231.287544250491
 20
-226.263757246045
 30
0.0
 40
3.00000013411045
  1
25
 50
90.0
 41
0.933333333333333
 72
     1
 11
229.787544183433
 21
-223.763757134288
 31
0.0
 73
     2
  0
LINE
  5
    21
  8
0
  6
CONTINUOUS
 62
     7
 10
152.573572181157
 20
-214.113761986496
 30
0.0
 11
234.287544250488
 21
-214.113761986496
 31
0.0
  0
LINE
  5
    22
  8
0
  6
CONTINUOUS
 62
     7
 10
232.287544250488
 20
-232.863750124392
 30
0.0
 11
232.287544250488
 21
-214.113761986496
 31
0.0
  0
LINE
  5
    23
  8
0
  6
CONTINUOUS
 62
     7
 10
231.766599820537
 20
-229.909326847186
 30
0.0
 11
232.287544250488
 21
-232.863750124392
 31
0.0
  0
LINE
  5
    24
  8
0
  6
CONTINUOUS
 62
     7
 10
232.287544250488
 20
-232.863750124392
 30
0.0
 11
232.80848868044
 21
-229.909326847186
 31
0.0
  0
LINE
  5
    25
  8
0
  6
CONTINUOUS
 62
     7
 10
232.80848868044
 20
-217.068185263703
 30
0.0
 11
232.287544250488
 21
-214.113761986496
 31
0.0
  0
LINE
  5
    26
  8
0
  6
CONTINUOUS
 62
     7
 10
232.287544250488
 20
-214.113761986496
 30
0.0
 11
231.766599820537
 21
-217.068185263703
 31
0.0
  0
ENDBLK
  5
    27
  8
0
  6
CONTINUOUS
 62
     7
  0
BLOCK
  5
    28
  8
0
  6
CONTINUOUS
 62
     7
  2
*UDIM131
 70
    65
 10
0.0
 20
0.0
 30
0.0
  3
*UDIM131
  0
TEXT
  5
    29
  8
0
  6
CONTINUOUS
 62
     7
 10
231.287544250493
 20
-175.163722012191
 30
0.0
 40
3.00000013411045
  1
115
 50
90.0
 41
0.933333333333333
 72
     1
 11
229.787544183433
 21
-171.26372183785
 31
0.0
 73
     2
  0
LINE
  5
    2A
  8
0
  6
CONTINUOUS
 62
     7
 10
152.573451377195
 20
-127.863678771556
 30
0.0
 11
234.287544250488
 21
-127.863678771556
 31
0.0
  0
LINE
  5
    2B
  8
0
  6
CONTINUOUS
 62
     7
 10
232.287544250488
 20
-214.113761986496
 30
0.0
 11
232.287544250488
 21
-127.863678771556
 31
0.0
  0
LINE
  5
    2C
  8
0
  6
CONTINUOUS
 62
     7
 10
231.766599820537
 20
-211.159338709289
 30
0.0
 11
232.287544250488
 21
-214.113761986496
 31
0.0
  0
LINE
  5
    2D
  8
0
  6
CONTINUOUS
 62
     7
 10
232.287544250488
 20
-214.113761986496
 30
0.0
 11
232.80848868044
 21
-211.159338709289
 31
0.0
  0
LINE
  5
    2E
  8
0
  6
CONTINUOUS
 62
     7
 10
232.80848868044
 20
-130.818102048763
 30
0.0
 11
232.287544250488
 21
-127.863678771556
 31
0.0
  0
LINE
  5
    2F
  8
0
  6
CONTINUOUS
 62
     7
 10
232.287544250488
 20
-127.863678771556
 30
0.0
 11
231.766599820537
 21
-130.818102048763
 31
0.0
  0
ENDBLK
  5
    30
  8
0
  6
CONTINUOUS
 62
     7
  0
BLOCK
  5
    31
  8
0
  6
CONTINUOUS
 62
     7
  2
*UDIM132
 70
    65
 10
0.0
 20
0.0
 30
0.0
  3
*UDIM132
  0
TEXT
  5
    32
  8
0
  6
CONTINUOUS
 62
     7
 10
231.287544250491
 20
-121.263737214605
 30
0.0
 40
3.00000013411045
  1
25
 50
90.0
 41
0.933333333333333
 72
     1
 11
229.787544183433
 21
-118.763737102848
 31
0.0
 73
     2
  0
LINE
  5
    33
  8
0
  6
CONTINUOUS
 62
     7
 10
152.573536637374
 20
-109.113798953795
 30
0.0
 11
234.287544250488
 21
-109.113798953795
 31
0.0
  0
LINE
  5
    34
  8
0
  6
CONTINUOUS
 62
     7
 10
232.287544250488
 20
-127.863678771556
 30
0.0
 11
232.287544250488
 21
-109.113798953795
 31
0.0
  0
LINE
  5
    35
  8
0
  6
CONTINUOUS
 62
     7
 10
231.766599820537
 20
-124.909255494349
 30
0.0
 11
232.287544250488
 21
-127.863678771556
 31
0.0
  0
LINE
  5
    36
  8
0
  6
CONTINUOUS
 62
     7
 10
232.287544250488
 20
-127.863678771556
 30
0.0
 11
232.80848868044
 21
-124.909255494349
 31
0.0
  0
LINE
  5
    37
  8
0
  6
CONTINUOUS
 62
     7
 10
232.80848868044
 20
-112.068222231002
 30
0.0
 11
232.287544250488
 21
-109.113798953795
 31
0.0
  0
LINE
  5
    38
  8
0
  6
CONTINUOUS
 62
     7
 10
232.287544250488
 20
-109.113798953795
 30
0.0
 11
231.766599820537
 21
-112.068222231002
 31
0.0
  0
ENDBLK
  5
    39
  8
0
  6
CONTINUOUS
 62
     7
  0
BLOCK
  5
    3A
  8
0
  6
CONTINUOUS
 62
     7
  2
*UDIM133
 70
    65
 10
0.0
 20
0.0
 30
0.0
  3
*UDIM133
  0
TEXT
  5
    3B
  8
0
  6
CONTINUOUS
 62
     7
 10
231.28754425049
 20
-106.598005268077
 30
0.0
 40
3.00000013411045
  1
=
 50
90.0
 41
0.933333333333333
 72
     1
 11
229.787544183433
 21
-105.498005218905
 31
0.0
 73
     2
  0
LINE
  5
    3C
  8
0
  6
CONTINUOUS
 62
     7
 10
161.948577880859
 20
-101.61375617981
 30
0.0
 11
234.287544250488
 21
-101.61375617981
 31
0.0
  0
LINE
  5
    3D
  8
0
  6
CONTINUOUS
 62
     7
 10
232.287544250488
 20
-109.113798953795
 30
0.0
 11
232.287544250488
 21
-101.61375617981
 31
0.0
  0
LINE
  5
    3E
  8
0
  6
CONTINUOUS
 62
     7
 10
232.80848868044
 20
-112.068222231002
 30
0.0
 11
232.287544250488
 21
-109.113798953795
 31
0.0
  0
LINE
  5
    3F
  8
0
  6
CONTINUOUS
 62
     7
 10
232.287544250488
 20
-109.113798953795
 30
0.0
 11
231.766599820537
 21
-112.068222231002
 31
0.0
  0
LINE
  5
    40
  8
0
  6
CONTINUOUS
 62
     7
 10
231.766599820537
 20
-98.6593329026026
 30
0.0
 11
232.287544250488
 21
-101.61375617981
 31
0.0
  0
LINE
  5
    41
  8
0
  6
CONTINUOUS
 62
     7
 10
232.287544250488
 20
-101.61375617981
 30
0.0
 11
232.80848868044
 21
-98.6593329026026
 31
0.0
  0
ENDBLK
  5
    42
  8
0
  6
CONTINUOUS
 62
     7
  0
BLOCK
  5
    43
  8
0
  6
CONTINUOUS
 62
     7
  2
*UDIM134
 70
    65
 10
0.0
 20
0.0
 30
0.0
  3
*UDIM134
  0
TEXT
  5
    44
  8
0
  6
CONTINUOUS
 62
     7
 10
83.6310138702442
 20
-175.163756360112
 30
0.0
 40
3.00000013411045
  1
185
 50
90.0
 41
0.933333333333333
 72
     1
 11
82.131013803184
 21
-171.26375618577
 31
0.0
 73
     2
  0
LINE
  5
    45
  8
0
  6
CONTINUOUS
 62
     7
 10
129.948577880859
 20
-240.36375617981
 30
0.0
 11
82.6310138702393
 21
-240.36375617981
 31
0.0
  0
LINE
  5
    46
  8
0
  6
CONTINUOUS
 62
     7
 10
129.948577880859
 20
-101.61375617981
 30
0.0
 11
82.6310138702393
 21
-101.61375617981
 31
0.0
  0
LINE
  5
    47
  8
0
  6
CONTINUOUS
 62
     7
 10
84.6310138702393
 20
-240.36375617981
 30
0.0
 11
84.6310138702393
 21
-101.61375617981
 31
0.0
  0
LINE
  5
    48
  8
0
  6
CONTINUOUS
 62
     7
 10
84.1100694402876
 20
-237.409332902603
 30
0.0
 11
84.6310138702393
 21
-240.36375617981
 31
0.0
  0
LINE
  5
    49
  8
0
  6
CONTINUOUS
 62
     7
 10
84.6310138702393
 20
-240.36375617981
 30
0.0
 11
85.1519583001909
 21
-237.409332902603
 31
0.0
  0
LINE
  5
    4A
  8
0
  6
CONTINUOUS
 62
     7
 10
85.1519583001909
 20
-104.568179457017
 30
0.0
 11
84.6310138702393
 21
-101.61375617981
 31
0.0
  0
LINE
  5
    4B
  8
0
  6
CONTINUOUS
 62
     7
 10
84.6310138702393
 20
-101.61375617981
 30
0.0
 11
84.1100694402876
 21
-104.568179457017
 31
0.0
  0
ENDBLK
  5
    4C
  8
0
  6
CONTINUOUS
 62
     7
  0
BLOCK
  5
    4D
  8
0
  6
CONTINUOUS
 62
     7
  2
*UDIM135
 70
    65
 10
0.0
 20
0.0
 30
0.0
  3
*UDIM135
  0
TEXT
  5
    4E
  8
0
  6
CONTINUOUS
 62
     7
 10
105.979677200319
 20
-195.634116626529
 30
0.0
 40
3.00000013411045
  1
=
 50
90.0
 41
0.933333333333333
 72
     1
 11
104.479677133262
 21
-194.534116577357
 31
0.0
 73
     2
  0
LINE
  5
    4F
  8
0
  6
CONTINUOUS
 62
     7
 10
132.198577880859
 20
-199.863757610321
 30
0.0
 11
104.979677200317
 21
-199.863757610321
 31
0.0
  0
LINE
  5
    50
  8
0
  6
CONTINUOUS
 62
     7
 10
120.573576718569
 20
-189.363757252693
 30
0.0
 11
104.979677200317
 21
-189.363757252693
 31
0.0
  0
LINE
  5
    51
  8
0
  6
CONTINUOUS
 62
     7
 10
106.979677200317
 20
-199.863757610321
 30
0.0
 11
106.979677200317
 21
-189.363757252693
 31
0.0
  0
LINE
  5
    52
  8
0
  6
CONTINUOUS
 62
     7
 10
106.458732770366
 20
-196.909334333114
 30
0.0
 11
106.979677200317
 21
-199.863757610321
 31
0.0
  0
LINE
  5
    53
  8
0
  6
CONTINUOUS
 62
     7
 10
106.979677200317
 20
-199.863757610321
 30
0.0
 11
107.500621630269
 21
-196.909334333114
 31
0.0
  0
LINE
  5
    54
  8
0
  6
CONTINUOUS
 62
     7
 10
107.500621630269
 20
-192.3181805299
 30
0.0
 11
106.979677200317
 21
-189.363757252693
 31
0.0
  0
LINE
  5
    55
  8
0
  6
CONTINUOUS
 62
     7
 10
106.979677200317
 20
-189.363757252693
 30
0.0
 11
106.458732770366
 21
-192.3181805299
 31
0.0
  0
ENDBLK
  5
    56
  8
0
  6
CONTINUOUS
 62
     7
  0
BLOCK
  5
    57
  8
0
  6
CONTINUOUS
 62
     7
  2
*UDIM136
 70
    65
 10
0.0
 20
0.0
 30
0.0
  3
*UDIM136
  0
TEXT
  5
    58
  8
0
  6
CONTINUOUS
 62
     7
 10
105.979677200321
 20
-173.763755805789
 30
0.0
 40
3.00000013411045
  1
49
 50
90.0
 41
0.933333333333333
 72
     1
 11
104.479677133262
 21
-171.263755694032
 31
0.0
 73
     2
  0
LINE
  5
    59
  8
0
  6
CONTINUOUS
 62
     7
 10
118.698577880859
 20
-152.61375617981
 30
0.0
 11
104.979677200317
 21
-152.61375617981
 31
0.0
  0
LINE
  5
    5A
  8
0
  6
CONTINUOUS
 62
     7
 10
106.979677200317
 20
-189.363757252693
 30
0.0
 11
106.979677200317
 21
-152.61375617981
 31
0.0
  0
LINE
  5
    5B
  8
0
  6
CONTINUOUS
 62
     7
 10
106.458732770366
 20
-186.409333975486
 30
0.0
 11
106.979677200317
 21
-189.363757252693
 31
0.0
  0
LINE
  5
    5C
  8
0
  6
CONTINUOUS
 62
     7
 10
106.979677200317
 20
-189.363757252693
 30
0.0
 11
107.500621630269
 21
-186.409333975486
 31
0.0
  0
LINE
  5
    5D
  8
0
  6
CONTINUOUS
 62
     7
 10
107.500621630269
 20
-155.568179457017
 30
0.0
 11
106.979677200317
 21
-152.61375617981
 31
0.0
  0
LINE
  5
    5E
  8
0
  6
CONTINUOUS
 62
     7
 10
106.979677200317
 20
-152.61375617981
 30
0.0
 11
106.458732770366
 21
-155.568179457017
 31
0.0
  0
ENDBLK
  5
    5F
  8
0
  6
CONTINUOUS
 62
     7
  0
BLOCK
  5
    60
  8
0
  6
CONTINUOUS
 62
     7
  2
*UDIM137
 70
    65
 10
0.0
 20
0.0
 30
0.0
  3
*UDIM137
  0
TEXT
  5
    61
  8
0
  6
CONTINUOUS
 62
     7
 10
105.979677200319
 20
-148.247784580288
 30
0.0
 40
3.00000013411045
  1
=
 50
90.0
 41
0.933333333333333
 72
     1
 11
104.479677133262
 21
-147.147784531116
 31
0.0
 73
     2
  0
LINE
  5
    62
  8
0
  6
CONTINUOUS
 62
     7
 10
129.948577880859
 20
-142.11375617981
 30
0.0
 11
104.979677200317
 21
-142.11375617981
 31
0.0
  0
LINE
  5
    63
  8
0
  6
CONTINUOUS
 62
     7
 10
106.979677200317
 20
-152.61375617981
 30
0.0
 11
106.979677200317
 21
-142.11375617981
 31
0.0
  0
LINE
  5
    64
  8
0
  6
CONTINUOUS
 62
     7
 10
106.458732770366
 20
-149.659332902603
 30
0.0
 11
106.979677200317
 21
-152.61375617981
 31
0.0
  0
LINE
  5
    65
  8
0
  6
CONTINUOUS
 62
     7
 10
106.979677200317
 20
-152.61375617981
 30
0.0
 11
107.500621630269
 21
-149.659332902603
 31
0.0
  0
LINE
  5
    66
  8
0
  6
CONTINUOUS
 62
     7
 10
107.500621630269
 20
-145.068179457017
 30
0.0
 11
106.979677200317
 21
-142.11375617981
 31
0.0
  0
LINE
  5
    67
  8
0
  6
CONTINUOUS
 62
     7
 10
106.979677200317
 20
-142.11375617981
 30
0.0
 11
106.458732770366
 21
-145.068179457017
 31
0.0
  0
ENDBLK
  5
    68
  8
0
  6
CONTINUOUS
 62
     7
  0
BLOCK
  5
    69
  8
0
  6
CONTINUOUS
 62
     7
  2
*UDIM138
 70
    65
 10
0.0
 20
0.0
 30
0.0
  3
*UDIM138
  0
TEXT
  5
    6A
  8
0
  6
CONTINUOUS
 62
     7
 10
94.9248619079604
 20
-222.980353321133
 30
0.0
 40
3.00000013411045
  1
=
 50
90.0
 41
0.933333333333333
 72
     1
 11
93.4248618409038
 21
-221.880353271961
 31
0.0
 73
     2
  0
LINE
  5
    6B
  8
0
  6
CONTINUOUS
 62
     7
 10
129.948577880859
 20
-240.36375617981
 30
0.0
 11
93.924861907959
 21
-240.36375617981
 31
0.0
  0
LINE
  5
    6C
  8
0
  6
CONTINUOUS
 62
     7
 10
132.198577880859
 20
-199.863757610321
 30
0.0
 11
93.924861907959
 21
-199.863757610321
 31
0.0
  0
LINE
  5
    6D
  8
0
  6
CONTINUOUS
 62
     7
 10
95.924861907959
 20
-240.36375617981
 30
0.0
 11
95.924861907959
 21
-199.863757610321
 31
0.0
  0
LINE
  5
    6E
  8
0
  6
CONTINUOUS
 62
     7
 10
95.4039174780073
 20
-237.409332902603
 30
0.0
 11
95.924861907959
 21
-240.36375617981
 31
0.0
  0
LINE
  5
    6F
  8
0
  6
CONTINUOUS
 62
     7
 10
95.924861907959
 20
-240.36375617981
 30
0.0
 11
96.4458063379107
 21
-237.409332902603
 31
0.0
  0
LINE
  5
    70
  8
0
  6
CONTINUOUS
 62
     7
 10
96.4458063379107
 20
-202.818180887528
 30
0.0
 11
95.924861907959
 21
-199.863757610321
 31
0.0
  0
LINE
  5
    71
  8
0
  6
CONTINUOUS
 62
     7
 10
95.924861907959
 20
-199.863757610321
 30
0.0
 11
95.4039174780073
 21
-202.818180887528
 31
0.0
  0
ENDBLK
  5
    72
  8
0
  6
CONTINUOUS
 62
     7
  0
BLOCK
  5
    73
  8
0
  6
CONTINUOUS
 62
     7
  2
*UDIM139
 70
    65
 10
0.0
 20
0.0
 30
0.0
  3
*UDIM139
  0
TEXT
  5
    74
  8
0
  6
CONTINUOUS
 62
     7
 10
94.9248619079621
 20
-173.763760097323
 30
0.0
 40
3.00000013411045
  1
77
 50
90.0
 41
0.933333333333333
 72
     1
 11
93.4248618409038
 21
-171.263759985566
 31
0.0
 73
     2
  0
LINE
  5
    75
  8
0
  6
CONTINUOUS
 62
     7
 10
129.948577880859
 20
-142.11375617981
 30
0.0
 11
93.924861907959
 21
-142.11375617981
 31
0.0
  0
LINE
  5
    76
  8
0
  6
CONTINUOUS
 62
     7
 10
95.924861907959
 20
-199.863757610321
 30
0.0
 11
95.924861907959
 21
-142.11375617981
 31
0.0
  0
LINE
  5
    77
  8
0
  6
CONTINUOUS
 62
     7
 10
95.4039174780073
 20
-196.909334333114
 30
0.0
 11
95.924861907959
 21
-199.863757610321
 31
0.0
  0
LINE
  5
    78
  8
0
  6
CONTINUOUS
 62
     7
 10
95.924861907959
 20
-199.863757610321
 30
0.0
 11
96.4458063379107
 21
-196.909334333114
 31
0.0
  0
LINE
  5
    79
  8
0
  6
CONTINUOUS
 62
     7
 10
96.4458063379107
 20
-145.068179457017
 30
0.0
 11
95.924861907959
 21
-142.11375617981
 31
0.0
  0
LINE
  5
    7A
  8
0
  6
CONTINUOUS
 62
     7
 10
95.924861907959
 20
-142.11375617981
 30
0.0
 11
95.4039174780073
 21
-145.068179457017
 31
0.0
  0
ENDBLK
  5
    7B
  8
0
  6
CONTINUOUS
 62
     7
  0
BLOCK
  5
    7C
  8
0
  6
CONTINUOUS
 62
     7
  2
*UDIM140
 70
    65
 10
0.0
 20
0.0
 30
0.0
  3
*UDIM140
  0
TEXT
  5
    7D
  8
0
  6
CONTINUOUS
 62
     7
 10
94.9248619079604
 20
-124.730356182156
 30
0.0
 40
3.00000013411045
  1
=
 50
90.0
 41
0.933333333333333
 72
     1
 11
93.4248618409038
 21
-123.630356132984
 31
0.0
 73
     2
  0
LINE
  5
    7E
  8
0
  6
CONTINUOUS
 62
     7
 10
129.948577880859
 20
-101.61375617981
 30
0.0
 11
93.924861907959
 21
-101.61375617981
 31
0.0
  0
LINE
  5
    7F
  8
0
  6
CONTINUOUS
 62
     7
 10
95.924861907959
 20
-142.11375617981
 30
0.0
 11
95.924861907959
 21
-101.61375617981
 31
0.0
  0
LINE
  5
    80
  8
0
  6
CONTINUOUS
 62
     7
 10
95.4039174780073
 20
-139.159332902603
 30
0.0
 11
95.924861907959
 21
-142.11375617981
 31
0.0
  0
LINE
  5
    81
  8
0
  6
CONTINUOUS
 62
     7
 10
95.924861907959
 20
-142.11375617981
 30
0.0
 11
96.4458063379107
 21
-139.159332902603
 31
0.0
  0
LINE
  5
    82
  8
0
  6
CONTINUOUS
 62
     7
 10
96.4458063379107
 20
-104.568179457017
 30
0.0
 11
95.924861907959
 21
-101.61375617981
 31
0.0
  0
LINE
  5
    83
  8
0
  6
CONTINUOUS
 62
     7
 10
95.924861907959
 20
-101.61375617981
 30
0.0
 11
95.4039174780073
 21
-104.568179457017
 31
0.0
  0
ENDBLK
  5
    84
  8
0
  6
CONTINUOUS
 62
     7
  0
BLOCK
  5
    85
  8
0
  6
CONTINUOUS
 62
     7
  2
*UDIM141
 70
    65
 10
0.0
 20
0.0
 30
0.0
  3
*UDIM141
  0
TEXT
  5
    86
  8
0
  6
CONTINUOUS
 62
     7
 10
143.173576824367
 20
-79.512996673584
 30
0.0
 40
3.00000013411045
  1
75
 41
0.933333333333333
 72
     1
 11
145.673576936126
 21
-78.0129966065288
 31
0.0
 73
     2
  0
LINE
  5
    87
  8
0
  6
CONTINUOUS
 62
     7
 10
117.823577880859
 20
-153.48875617981
 30
0.0
 11
117.823577880859
 21
-78.512996673584
 31
0.0
  0
LINE
  5
    88
  8
0
  6
CONTINUOUS
 62
     7
 10
174.073577880859
 20
-153.48875617981
 30
0.0
 11
174.073577880859
 21
-78.512996673584
 31
0.0
  0
LINE
  5
    89
  8
0
  6
CONTINUOUS
 62
     7
 10
117.823577880859
 20
-80.512996673584
 30
0.0
 11
174.073577880859
 21
-80.512996673584
 31
0.0
  0
LINE
  5
    8A
  8
0
  6
CONTINUOUS
 62
     7
 10
120.778001158066
 20
-79.9920522436323
 30
0.0
 11
117.823577880859
 21
-80.512996673584
 31
0.0
  0
LINE
  5
    8B
  8
0
  6
CONTINUOUS
 62
     7
 10
117.823577880859
 20
-80.512996673584
 30
0.0
 11
120.778001158066
 21
-81.0339411035357
 31
0.0
  0
LINE
  5
    8C
  8
0
  6
CONTINUOUS
 62
     7
 10
171.119154603652
 20
-81.0339411035357
 30
0.0
 11
174.073577880859
 21
-80.512996673584
 31
0.0
  0
LINE
  5
    8D
  8
0
  6
CONTINUOUS
 62
     7
 10
174.073577880859
 20
-80.512996673584
 30
0.0
 11
171.119154603652
 21
-79.9920522436323
 31
0.0
  0
ENDBLK
  5
    8E
  8
0
  6
CONTINUOUS
 62
     7
  0
BLOCK
  5
    8F
  8
0
  6
CONTINUOUS
 62
     7
  2
*UDIM142
 70
    65
 10
0.0
 20
0.0
 30
0.0
  3
*UDIM142
  0
TEXT
  5
    90
  8
0
  6
CONTINUOUS
 62
     7
 10
143.17357968539
 20
-91.0557708740234
 30
0.0
 40
3.00000013411045
  1
40
 41
0.933333333333333
 72
     1
 11
145.673579797149
 21
-89.5557708069682
 31
0.0
 73
     2
  0
LINE
  5
    91
  8
0
  6
CONTINUOUS
 62
     7
 10
130.948577880859
 20
-100.61375617981
 30
0.0
 11
130.948577880859
 21
-90.0557708740234
 31
0.0
  0
LINE
  5
    92
  8
0
  6
CONTINUOUS
 62
     7
 10
160.948577880859
 20
-100.61375617981
 30
0.0
 11
160.948577880859
 21
-90.0557708740234
 31
0.0
  0
LINE
  5
    93
  8
0
  6
CONTINUOUS
 62
     7
 10
130.948577880859
 20
-92.0557708740234
 30
0.0
 11
160.948577880859
 21
-92.0557708740234
 31
0.0
  0
LINE
  5
    94
  8
0
  6
CONTINUOUS
 62
     7
 10
133.903001158066
 20
-91.5348264440718
 30
0.0
 11
130.948577880859
 21
-92.0557708740234
 31
0.0
  0
LINE
  5
    95
  8
0
  6
CONTINUOUS
 62
     7
 10
130.948577880859
 20
-92.0557708740234
 30
0.0
 11
133.903001158066
 21
-92.5767153039751
 31
0.0
  0
LINE
  5
    96
  8
0
  6
CONTINUOUS
 62
     7
 10
157.994154603652
 20
-92.5767153039751
 30
0.0
 11
160.948577880859
 21
-92.0557708740234
 31
0.0
  0
LINE
  5
    97
  8
0
  6
CONTINUOUS
 62
     7
 10
160.948577880859
 20
-92.0557708740234
 30
0.0
 11
157.994154603652
 21
-91.5348264440718
 31
0.0
  0
ENDBLK
  5
    98
  8
0
  6
CONTINUOUS
 62
     7
  0
BLOCK
  5
    99
  8
0
  6
CONTINUOUS
 62
     7
  2
*HATCH50
 70
    65
 10
0.0
 20
0.0
 30
0.0
  3
*HATCH50
  0
LINE
  5
    9A
  8
0
  6
CONTINUOUS
 62
    52
 10
-41.1358184814453
 20
96.75
 30
0.0
 11
-44.4000015258789
 21
93.4858169555664
 31
0.0
  0
LINE
  5
    9B
  8
0
  6
CONTINUOUS
 62
    52
 10
-39.0144996643066
 20
96.75
 30
0.0
 11
-41.5144996643066
 21
94.25
 31
0.0
  0
LINE
  5
    9C
  8
0
  6
CONTINUOUS
 62
    52
 10
-41.9000015258789
 20
93.864501953125
 30
0.0
 11
-44.4000015258789
 21
91.364501953125
 31
0.0
  0
LINE
  5
    9D
  8
0
  6
CONTINUOUS
 62
    52
 10
-36.893180847168
 20
96.75
 30
0.0
 11
-39.393180847168
 21
94.25
 31
0.0
  0
LINE
  5
    9E
  8
0
  6
CONTINUOUS
 62
    52
 10
-41.9000015258789
 20
91.7431793212891
 30
0.0
 11
-44.4000015258789
 21
89.2431793212891
 31
0.0
  0
LINE
  5
    9F
  8
0
  6
CONTINUOUS
 62
    52
 10
-34.9000015258789
 20
96.6218566894531
 30
0.0
 11
-37.271858215332
 21
94.25
 31
0.0
  0
LINE
  5
    A0
  8
0
  6
CONTINUOUS
 62
    52
 10
-41.9000015258789
 20
89.6218566894531
 30
0.0
 11
-44.4000015258789
 21
87.1218566894531
 31
0.0
  0
LINE
  5
    A1
  8
0
  6
CONTINUOUS
 62
    52
 10
-34.9000015258789
 20
94.5005340576172
 30
0.0
 11
-35.1505393981934
 21
94.25
 31
0.0
  0
LINE
  5
    A2
  8
0
  6
CONTINUOUS
 62
    52
 10
-41.9000015258789
 20
87.5005340576172
 30
0.0
 11
-44.4000015258789
 21
85.0005340576172
 31
0.0
  0
LINE
  5
    A3
  8
0
  6
CONTINUOUS
 62
    52
 10
-41.9000015258789
 20
85.3792190551758
 30
0.0
 11
-44.4000015258789
 21
82.8792190551758
 31
0.0
  0
LINE
  5
    A4
  8
0
  6
CONTINUOUS
 62
    52
 10
-41.9000015258789
 20
83.2578964233399
 30
0.0
 11
-44.4000015258789
 21
80.7578964233399
 31
0.0
  0
LINE
  5
    A5
  8
0
  6
CONTINUOUS
 62
    52
 10
-41.9000015258789
 20
81.1365737915039
 30
0.0
 11
-42.2865791320801
 21
80.75
 31
0.0
  0
ENDBLK
  5
    A6
  8
0
  6
CONTINUOUS
 62
     7
  0
BLOCK
  5
    A7
  8
0
  6
CONTINUOUS
 62
     7
  2
*HATCH51
 70
    65
 10
0.0
 20
0.0
 30
0.0
  3
*HATCH51
  0
LINE
  5
    A8
  8
0
  6
CONTINUOUS
 62
    52
 10
-19.8999996185303
 20
81.4183502197266
 30
0.0
 11
-19.2316474914551
 21
80.75
 31
0.0
  0
LINE
  5
    A9
  8
0
  6
CONTINUOUS
 62
    52
 10
-18.3603267669678
 20
82.0
 30
0.0
 11
-17.1103286743164
 21
80.75
 31
0.0
  0
LINE
  5
    AA
  8
0
  6
CONTINUOUS
 62
    52
 10
-16.2390079498291
 20
82.0
 30
0.0
 11
-14.9890098571777
 21
80.75
 31
0.0
  0
LINE
  5
    AB
  8
0
  6
CONTINUOUS
 62
    52
 10
-14.1176891326904
 20
82.0
 30
0.0
 11
-12.8676910400391
 21
80.75
 31
0.0
  0
LINE
  5
    AC
  8
0
  6
CONTINUOUS
 62
    52
 10
-11.9963703155518
 20
82.0
 30
0.0
 11
-10.7463722229004
 21
80.75
 31
0.0
  0
LINE
  5
    AD
  8
0
  6
CONTINUOUS
 62
    52
 10
-9.87505149841309
 20
82.0
 30
0.0
 11
-8.62505340576172
 21
80.75
 31
0.0
  0
LINE
  5
    AE
  8
0
  6
CONTINUOUS
 62
    52
 10
-7.75373268127441
 20
82.0
 30
0.0
 11
-6.50373458862305
 21
80.75
 31
0.0
  0
LINE
  5
    AF
  8
0
  6
CONTINUOUS
 62
    52
 10
-5.63241386413574
 20
82.0
 30
0.0
 11
-4.38241577148438
 21
80.75
 31
0.0
  0
LINE
  5
    B0
  8
0
  6
CONTINUOUS
 62
    52
 10
-3.51109480857849
 20
82.0
 30
0.0
 11
-2.26109671592712
 21
80.75
 31
0.0
  0
LINE
  5
    B1
  8
0
  6
CONTINUOUS
 62
    52
 10
-1.38977575302124
 20
82.0
 30
0.0
 11
-0.139777660369873
 21
80.75
 31
0.0
  0
LINE
  5
    B2
  8
0
  6
CONTINUOUS
 62
    52
 10
0.731543302536011
 20
82.0
 30
0.0
 11
1.98154139518738
 21
80.75
 31
0.0
  0
LINE
  5
    B3
  8
0
  6
CONTINUOUS
 62
    52
 10
3.07000970840454
 20
81.7828521728516
 30
0.0
 11
4.10286140441895
 21
80.75
 31
0.0
  0
ENDBLK
  5
    B4
  8
0
  6
CONTINUOUS
 62
     7
  0
BLOCK
  5
    B5
  8
0
  6
CONTINUOUS
 62
     7
  2
*HATCH52
 70
    65
 10
0.0
 20
0.0
 30
0.0
  3
*HATCH52
  0
LINE
  5
    B6
  8
0
  6
CONTINUOUS
 62
    52
 10
-39.5
 20
81.9264831542969
 30
0.0
 11
-38.3235206604004
 21
80.75
 31
0.0
  0
LINE
  5
    B7
  8
0
  6
CONTINUOUS
 62
    52
 10
-39.5
 20
84.0478057861328
 30
0.0
 11
-38.0
 21
82.5478057861328
 31
0.0
  0
LINE
  5
    B8
  8
0
  6
CONTINUOUS
 62
    52
 10
-39.5
 20
86.1691284179688
 30
0.0
 11
-38.0
 21
84.6691284179687
 31
0.0
  0
LINE
  5
    B9
  8
0
  6
CONTINUOUS
 62
    52
 10
-39.5
 20
88.2904510498047
 30
0.0
 11
-38.0
 21
86.7904510498047
 31
0.0
  0
LINE
  5
    BA
  8
0
  6
CONTINUOUS
 62
    52
 10
-39.5
 20
90.4117736816406
 30
0.0
 11
-38.0
 21
88.9117736816406
 31
0.0
  0
LINE
  5
    BB
  8
0
  6
CONTINUOUS
 62
    52
 10
-39.5
 20
92.5330963134766
 30
0.0
 11
-38.0
 21
91.0330963134766
 31
0.0
  0
LINE
  5
    BC
  8
0
  6
CONTINUOUS
 62
    52
 10
-38.095588684082
 20
93.25
 30
0.0
 11
-38.0
 21
93.154411315918
 31
0.0
  0
ENDBLK
  5
    BD
  8
0
  6
CONTINUOUS
 62
     7
  0
BLOCK
  5
    BE
  8
0
  6
CONTINUOUS
 62
     7
  2
*UDIM143
 70
    65
 10
0.0
 20
0.0
 30
0.0
  3
*UDIM143
  0
TEXT
  5
    BF
  8
0
  6
CONTINUOUS
 62
     7
 10
295.195269591013
 20
-79.6071586502967
 30
0.0
 40
3.00000013411045
  1
115
 50
359.999999844103
 41
0.933333333333333
 72
     1
 11
299.09526976943
 21
-78.1071585938335
 31
0.0
 73
     2
  0
LINE
  5
    C0
  8
0
  6
CONTINUOUS
 62
     7
 10
256.245269775391
 20
-153.48875617981
 30
0.0
 11
256.245269775391
 21
-78.6071586608887
 31
0.0
  0
LINE
  5
    C1
  8
0
  6
CONTINUOUS
 62
     7
 10
342.495269775391
 20
-153.48875617981
 30
0.0
 11
342.495269775391
 21
-78.6071586608887
 31
0.0
  0
LINE
  5
    C2
  8
0
  6
CONTINUOUS
 62
     7
 10
256.245269775391
 20
-80.6071586608887
 30
0.0
 11
342.495269775391
 21
-80.6071586608887
 31
0.0
  0
LINE
  5
    C3
  8
0
  6
CONTINUOUS
 62
     7
 10
259.199693052598
 20
-80.086214230937
 30
0.0
 11
256.245269775391
 21
-80.6071586608887
 31
0.0
  0
LINE
  5
    C4
  8
0
  6
CONTINUOUS
 62
     7
 10
256.245269775391
 20
-80.6071586608887
 30
0.0
 11
259.199693052598
 21
-81.1281030908403
 31
0.0
  0
LINE
  5
    C5
  8
0
  6
CONTINUOUS
 62
     7
 10
339.540846498184
 20
-81.1281030908403
 30
0.0
 11
342.495269775391
 21
-80.6071586608887
 31
0.0
  0
LINE
  5
    C6
  8
0
  6
CONTINUOUS
 62
     7
 10
342.495269775391
 20
-80.6071586608887
 30
0.0
 11
339.540846498184
 21
-80.086214230937
 31
0.0
  0
ENDBLK
  5
    C7
  8
0
  6
CONTINUOUS
 62
     7
  0
BLOCK
  5
    C8
  8
0
  6
CONTINUOUS
 62
     7
  2
*UDIM144
 70
    65
 10
0.0
 20
0.0
 30
0.0
  3
*UDIM144
  0
TEXT
  5
    C9
  8
0
  6
CONTINUOUS
 62
     7
 10
270.357769014338
 20
-91.2595329140726
 30
0.0
 40
3.00000013411045
  1
52,5
 50
359.999999844103
 41
0.933333333333333
 72
     1
 11
275.65776925534
 21
-89.7595328614116
 31
0.0
 73
     2
  0
LINE
  5
    CA
  8
0
  6
CONTINUOUS
 62
     7
 10
256.245269775391
 20
-153.48875617981
 30
0.0
 11
256.245269775391
 21
-90.2595329284668
 31
0.0
  0
LINE
  5
    CB
  8
0
  6
CONTINUOUS
 62
     7
 10
295.620269775391
 20
-100.61375617981
 30
0.0
 11
295.620269775391
 21
-90.2595329284668
 31
0.0
  0
LINE
  5
    CC
  8
0
  6
CONTINUOUS
 62
     7
 10
256.245269775391
 20
-92.2595329284668
 30
0.0
 11
295.620269775391
 21
-92.2595329284668
 31
0.0
  0
LINE
  5
    CD
  8
0
  6
CONTINUOUS
 62
     7
 10
259.199693052598
 20
-91.7385884985151
 30
0.0
 11
256.245269775391
 21
-92.2595329284668
 31
0.0
  0
LINE
  5
    CE
  8
0
  6
CONTINUOUS
 62
     7
 10
256.245269775391
 20
-92.2595329284668
 30
0.0
 11
259.199693052598
 21
-92.7804773584185
 31
0.0
  0
LINE
  5
    CF
  8
0
  6
CONTINUOUS
 62
     7
 10
292.665846498184
 20
-92.7804773584185
 30
0.0
 11
295.620269775391
 21
-92.2595329284668
 31
0.0
  0
LINE
  5
    D0
  8
0
  6
CONTINUOUS
 62
     7
 10
295.620269775391
 20
-92.2595329284668
 30
0.0
 11
292.665846498184
 21
-91.7385884985151
 31
0.0
  0
ENDBLK
  5
    D1
  8
0
  6
CONTINUOUS
 62
     7
  0
BLOCK
  5
    D2
  8
0
  6
CONTINUOUS
 62
     7
  2
*UDIM145
 70
    65
 10
0.0
 20
0.0
 30
0.0
  3
*UDIM145
  0
TEXT
  5
    D3
  8
0
  6
CONTINUOUS
 62
     7
 10
306.095269802609
 20
-91.2595329216771
 30
0.0
 40
3.00000013411045
  1
10
 50
359.999999844103
 41
0.933333333333333
 72
     1
 11
308.595269918442
 21
-89.7595328614116
 31
0.0
 73
     2
  0
LINE
  5
    D4
  8
0
  6
CONTINUOUS
 62
     7
 10
303.120269775391
 20
-100.61375617981
 30
0.0
 11
303.120269775391
 21
-90.2595329284668
 31
0.0
  0
LINE
  5
    D5
  8
0
  6
CONTINUOUS
 62
     7
 10
295.620269775391
 20
-92.2595329284668
 30
0.0
 11
311.0952700302
 21
-92.2595329284668
 31
0.0
  0
LINE
  5
    D6
  8
0
  6
CONTINUOUS
 62
     7
 10
298.574693052598
 20
-91.7385884985151
 30
0.0
 11
295.620269775391
 21
-92.2595329284668
 31
0.0
  0
LINE
  5
    D7
  8
0
  6
CONTINUOUS
 62
     7
 10
295.620269775391
 20
-92.2595329284668
 30
0.0
 11
298.574693052598
 21
-92.7804773584185
 31
0.0
  0
LINE
  5
    D8
  8
0
  6
CONTINUOUS
 62
     7
 10
300.165846498184
 20
-92.7804773584185
 30
0.0
 11
303.120269775391
 21
-92.2595329284668
 31
0.0
  0
LINE
  5
    D9
  8
0
  6
CONTINUOUS
 62
     7
 10
303.120269775391
 20
-92.2595329284668
 30
0.0
 11
300.165846498184
 21
-91.7385884985151
 31
0.0
  0
ENDBLK
  5
    DA
  8
0
  6
CONTINUOUS
 62
     7
  0
ENDSEC
  0
SECTION
  2
ENTITIES
  0
LINE
  5
    DB
  8
0
  6
CONTINUOUS
 62
   130
 10
117.823577880859
 20
-170.988757610321
 30
0.0
 11
134.511077880859
 21
-170.988757610321
 31
0.0
  0
LINE
  5
    DC
  8
0
  6
CONTINUOUS
 62
   130
 10
151.573579311371
 20
-170.988757610321
 30
0.0
 11
154.011077880859
 21
-170.988757610321
 31
0.0
  0
LINE
  5
    DD
  8
0
  6
CONTINUOUS
 62
   130
 10
117.823577880859
 20
-187.488757252693
 30
0.0
 11
117.823577880859
 21
-185.051257610321
 31
0.0
  0
LINE
  5
    DE
  8
0
  6
CONTINUOUS
 62
   130
 10
119.698577880859
 20
-189.363757252693
 30
0.0
 11
121.573577880859
 21
-189.363757252693
 31
0.0
  0
LINE
  5
    DF
  8
0
  6
CONTINUOUS
 62
   130
 10
121.573576718569
 20
-189.363757252693
 30
0.0
 11
127.948580931422
 21
-189.363757252693
 31
0.0
  0
LINE
  5
    E0
  8
0
  6
CONTINUOUS
 62
   130
 10
174.073577880859
 20
-187.488757252693
 30
0.0
 11
174.073577880859
 21
-170.988757252693
 31
0.0
  0
LINE
  5
    E1
  8
0
  6
CONTINUOUS
 62
   130
 10
156.261077880859
 20
-199.863757610321
 30
0.0
 11
160.948577880859
 21
-199.863757610321
 31
0.0
  0
LINE
  5
    E2
  8
0
  6
CONTINUOUS
 62
   130
 10
130.573577880859
 20
-199.863757610321
 30
0.0
 11
130.948577880859
 21
-199.863757610321
 31
0.0
  0
LINE
  5
    E3
  8
0
  6
CONTINUOUS
 62
   130
 10
139.761077880859
 20
-199.863757610321
 30
0.0
 11
152.136077880859
 21
-199.863757610321
 31
0.0
  0
LINE
  5
    E4
  8
0
  6
CONTINUOUS
 62
   130
 10
163.198577880859
 20
-199.863757610321
 30
0.0
 11
163.198577880859
 21
-190.113757610321
 31
0.0
  0
LINE
  5
    E5
  8
0
  6
CONTINUOUS
 62
   130
 10
133.198577880859
 20
-199.863757610321
 30
0.0
 11
133.198577880859
 21
-189.363757610321
 31
0.0
  0
LINE
  5
    E6
  8
0
  6
CONTINUOUS
 62
   130
 10
133.198577880859
 20
-199.863757610321
 30
0.0
 11
135.636077880859
 21
-199.863757610321
 31
0.0
  0
LINE
  5
    E7
  8
0
  6
CONTINUOUS
 62
   130
 10
158.698577880859
 20
-199.863757610321
 30
0.0
 11
158.698577880859
 21
-189.363757610321
 31
0.0
  0
LINE
  5
    E8
  8
0
  6
CONTINUOUS
 62
   130
 10
156.261077880859
 20
-199.863757610321
 30
0.0
 11
158.698577880859
 21
-199.863757610321
 31
0.0
  0
LINE
  5
    E9
  8
0
  6
CONTINUOUS
 62
   130
 10
128.698577880859
 20
-199.863757610321
 30
0.0
 11
130.573577880859
 21
-199.863757610321
 31
0.0
  0
LINE
  5
    EA
  8
0
  6
CONTINUOUS
 62
   130
 10
130.573577880859
 20
-199.863757610321
 30
0.0
 11
130.573577880859
 21
-189.363757610321
 31
0.0
  0
LINE
  5
    EB
  8
0
  6
CONTINUOUS
 62
   130
 10
128.698577880859
 20
-199.863757610321
 30
0.0
 11
128.698577880859
 21
-190.113757610321
 31
0.0
  0
LINE
  5
    EC
  8
0
  6
CONTINUOUS
 62
   130
 10
161.323577880859
 20
-199.863757610321
 30
0.0
 11
163.198577880859
 21
-199.863757610321
 31
0.0
  0
LINE
  5
    ED
  8
0
  6
CONTINUOUS
 62
   130
 10
161.323577880859
 20
-199.863757610321
 30
0.0
 11
161.323577880859
 21
-189.363757610321
 31
0.0
  0
LINE
  5
    EE
  8
0
  6
CONTINUOUS
 62
   130
 10
163.198577880859
 20
-199.863757610321
 30
0.0
 11
163.198577880859
 21
-190.113757610321
 31
0.0
  0
LINE
  5
    EF
  8
0
  6
CONTINUOUS
 62
   130
 10
139.948577880859
 20
-189.363757252693
 30
0.0
 11
139.948577880859
 21
-184.997052708641
 31
0.0
  0
LINE
  5
    F0
  8
0
  6
CONTINUOUS
 62
   130
 10
151.948577880859
 20
-189.363757252693
 30
0.0
 11
151.948577880859
 21
-170.988757252693
 31
0.0
  0
LINE
  5
    F1
  8
0
  6
CONTINUOUS
 62
   130
 10
156.261077880859
 20
-199.863757610321
 30
0.0
 11
156.261077880859
 21
-198.11793422699
 31
0.0
  0
LINE
  5
    F2
  8
0
  6
CONTINUOUS
 62
   130
 10
152.136077880859
 20
-199.863757610321
 30
0.0
 11
152.136077880859
 21
-198.11793422699
 31
0.0
  0
LINE
  5
    F3
  8
0
  6
CONTINUOUS
 62
   130
 10
135.636077880859
 20
-199.863757610321
 30
0.0
 11
135.636077880859
 21
-198.11793422699
 31
0.0
  0
LINE
  5
    F4
  8
0
  6
CONTINUOUS
 62
   130
 10
139.761077880859
 20
-199.863757610321
 30
0.0
 11
139.761077880859
 21
-198.11793422699
 31
0.0
  0
LINE
  5
    F5
  8
0
  6
CONTINUOUS
 62
   210
 10
174.073577880859
 20
-170.988757610321
 30
0.0
 11
174.073577880859
 21
-154.48875617981
 31
0.0
  0
LINE
  5
    F6
  8
0
  6
CONTINUOUS
 62
   210
 10
119.698577880859
 20
-152.61375617981
 30
0.0
 11
127.948578851787
 21
-152.61375617981
 31
0.0
  0
LINE
  5
    F7
  8
0
  6
CONTINUOUS
 62
   210
 10
117.823577880859
 20
-170.988757610321
 30
0.0
 11
117.823577880859
 21
-154.48875617981
 31
0.0
  0
LINE
  5
    F8
  8
0
  6
CONTINUOUS
 62
   210
 10
130.573577880859
 20
-142.11375617981
 30
0.0
 11
130.948577880859
 21
-142.11375617981
 31
0.0
  0
LINE
  5
    F9
  8
0
  6
CONTINUOUS
 62
   210
 10
161.323577880859
 20
-142.11375617981
 30
0.0
 11
163.198577880859
 21
-142.11375617981
 31
0.0
  0
LINE
  5
    FA
  8
0
  6
CONTINUOUS
 62
   210
 10
161.323577880859
 20
-152.61375617981
 30
0.0
 11
161.323577880859
 21
-142.11375617981
 31
0.0
  0
LINE
  5
    FB
  8
0
  6
CONTINUOUS
 62
   210
 10
163.198577880859
 20
-151.86375617981
 30
0.0
 11
163.198577880859
 21
-142.11375617981
 31
0.0
  0
LINE
  5
    FC
  8
0
  6
CONTINUOUS
 62
   210
 10
128.698577880859
 20
-142.11375617981
 30
0.0
 11
130.573577880859
 21
-142.11375617981
 31
0.0
  0
LINE
  5
    FD
  8
0
  6
CONTINUOUS
 62
   210
 10
130.573577880859
 20
-152.61375617981
 30
0.0
 11
130.573577880859
 21
-142.11375617981
 31
0.0
  0
LINE
  5
    FE
  8
0
  6
CONTINUOUS
 62
   210
 10
128.698577880859
 20
-151.86375617981
 30
0.0
 11
128.698577880859
 21
-142.11375617981
 31
0.0
  0
LINE
  5
    FF
  8
0
  6
CONTINUOUS
 62
   210
 10
139.948577880859
 20
-160.11375617981
 30
0.0
 11
151.948577880859
 21
-160.11375617981
 31
0.0
  0
LINE
  5
   100
  8
0
  6
CONTINUOUS
 62
   210
 10
139.948577880859
 20
-170.988757610321
 30
0.0
 11
139.948577880859
 21
-160.11375617981
 31
0.0
  0
LINE
  5
   101
  8
0
  6
CONTINUOUS
 62
   210
 10
151.948577880859
 20
-170.988757610321
 30
0.0
 11
151.948577880859
 21
-160.11375617981
 31
0.0
  0
LINE
  5
   102
  8
0
  6
CONTINUOUS
 62
     2
 10
140.323577880859
 20
-171.663757324219
 30
0.0
 11
143.744199520893
 21
-171.663757324219
 31
0.0
  0
LINE
  5
   103
  8
0
  6
CONTINUOUS
 62
     2
 10
151.573577880859
 20
-171.663757324219
 30
0.0
 11
151.573577880859
 21
-160.11375617981
 31
0.0
  0
LINE
  5
   104
  8
0
  6
CONTINUOUS
 62
     2
 10
140.323577880859
 20
-171.663757324219
 30
0.0
 11
140.323577880859
 21
-160.11375617981
 31
0.0
  0
LINE
  5
   105
  8
0
  6
CONTINUOUS
 62
     2
 10
141.073577880859
 20
-164.538757324219
 30
0.0
 11
141.073577880859
 21
-160.11375617981
 31
0.0
  0
LINE
  5
   106
  8
0
  6
CONTINUOUS
 62
     2
 10
141.073577880859
 20
-164.538757324219
 30
0.0
 11
141.223494624429
 21
-164.538757324219
 31
0.0
  0
LINE
  5
   107
  8
0
  6
CONTINUOUS
 62
     2
 10
143.323577880859
 20
-164.538757324219
 30
0.0
 11
143.323577880859
 21
-160.11375617981
 31
0.0
  0
LINE
  5
   108
  8
0
  6
CONTINUOUS
 62
     2
 10
144.823577880859
 20
-164.538757324219
 30
0.0
 11
144.823577880859
 21
-160.11375617981
 31
0.0
  0
LINE
  5
   109
  8
0
  6
CONTINUOUS
 62
     2
 10
144.823577880859
 20
-164.538757324219
 30
0.0
 11
147.073577880859
 21
-164.538757324219
 31
0.0
  0
LINE
  5
   10A
  8
0
  6
CONTINUOUS
 62
     2
 10
147.073577880859
 20
-164.538757324219
 30
0.0
 11
147.073577880859
 21
-160.11375617981
 31
0.0
  0
LINE
  5
   10B
  8
0
  6
CONTINUOUS
 62
     2
 10
148.573577880859
 20
-164.538757324219
 30
0.0
 11
148.573577880859
 21
-160.11375617981
 31
0.0
  0
LINE
  5
   10C
  8
0
  6
CONTINUOUS
 62
     2
 10
148.573577880859
 20
-164.538757324219
 30
0.0
 11
148.723577880859
 21
-164.538757324219
 31
0.0
  0
LINE
  5
   10D
  8
0
  6
CONTINUOUS
 62
     2
 10
150.823577880859
 20
-164.538757324219
 30
0.0
 11
150.823577880859
 21
-160.11375617981
 31
0.0
  0
LINE
  5
   10E
  8
0
  6
CONTINUOUS
 62
     5
 10
138.073577880859
 20
-195.363757610321
 30
0.0
 11
140.248579025269
 21
-195.363757610321
 31
0.0
  0
LINE
  5
   10F
  8
0
  6
CONTINUOUS
 62
     5
 10
140.248579025269
 20
-195.363757610321
 30
0.0
 11
140.248579025269
 21
-194.613757610321
 31
0.0
  0
LINE
  5
   110
  8
0
  6
CONTINUOUS
 62
     5
 10
138.073577880859
 20
-194.613757610321
 30
0.0
 11
140.248579025269
 21
-194.613757610321
 31
0.0
  0
LINE
  5
   111
  8
0
  6
CONTINUOUS
 62
     5
 10
138.073577880859
 20
-194.613757610321
 30
0.0
 11
138.073577880859
 21
-192.438757181168
 31
0.0
  0
LINE
  5
   112
  8
0
  6
CONTINUOUS
 62
     5
 10
137.323577880859
 20
-192.438757181168
 30
0.0
 11
138.073577880859
 21
-192.438757181168
 31
0.0
  0
LINE
  5
   113
  8
0
  6
CONTINUOUS
 62
     5
 10
137.323577880859
 20
-194.613757610321
 30
0.0
 11
137.323577880859
 21
-192.438757181168
 31
0.0
  0
LINE
  5
   114
  8
0
  6
CONTINUOUS
 62
     5
 10
135.14857673645
 20
-194.613757610321
 30
0.0
 11
137.323577880859
 21
-194.613757610321
 31
0.0
  0
LINE
  5
   115
  8
0
  6
CONTINUOUS
 62
     5
 10
135.14857673645
 20
-195.363757610321
 30
0.0
 11
135.14857673645
 21
-194.613757610321
 31
0.0
  0
LINE
  5
   116
  8
0
  6
CONTINUOUS
 62
     5
 10
135.14857673645
 20
-195.363757610321
 30
0.0
 11
137.323577880859
 21
-195.363757610321
 31
0.0
  0
LINE
  5
   117
  8
0
  6
CONTINUOUS
 62
     5
 10
137.323577880859
 20
-197.538757324219
 30
0.0
 11
137.323577880859
 21
-195.363757610321
 31
0.0
  0
LINE
  5
   118
  8
0
  6
CONTINUOUS
 62
     5
 10
137.323577880859
 20
-197.538757324219
 30
0.0
 11
138.073577880859
 21
-197.538757324219
 31
0.0
  0
LINE
  5
   119
  8
0
  6
CONTINUOUS
 62
     5
 10
138.073577880859
 20
-197.538757324219
 30
0.0
 11
138.073577880859
 21
-195.363757610321
 31
0.0
  0
LINE
  5
   11A
  8
0
  6
CONTINUOUS
 62
     5
 10
154.573577880859
 20
-195.363757610321
 30
0.0
 11
156.748577594757
 21
-195.363757610321
 31
0.0
  0
LINE
  5
   11B
  8
0
  6
CONTINUOUS
 62
     5
 10
156.748577594757
 20
-195.363757610321
 30
0.0
 11
156.748577594757
 21
-194.613757610321
 31
0.0
  0
LINE
  5
   11C
  8
0
  6
CONTINUOUS
 62
     5
 10
154.573577880859
 20
-194.613757610321
 30
0.0
 11
156.748577594757
 21
-194.613757610321
 31
0.0
  0
LINE
  5
   11D
  8
0
  6
CONTINUOUS
 62
     5
 10
154.573577880859
 20
-194.613757610321
 30
0.0
 11
154.573577880859
 21
-192.438757181168
 31
0.0
  0
LINE
  5
   11E
  8
0
  6
CONTINUOUS
 62
     5
 10
153.823577880859
 20
-192.438757181168
 30
0.0
 11
154.573577880859
 21
-192.438757181168
 31
0.0
  0
LINE
  5
   11F
  8
0
  6
CONTINUOUS
 62
     5
 10
153.823577880859
 20
-194.613757610321
 30
0.0
 11
153.823577880859
 21
-192.438757181168
 31
0.0
  0
LINE
  5
   120
  8
0
  6
CONTINUOUS
 62
     5
 10
151.648578166962
 20
-194.613757610321
 30
0.0
 11
153.823577880859
 21
-194.613757610321
 31
0.0
  0
LINE
  5
   121
  8
0
  6
CONTINUOUS
 62
     5
 10
151.648578166962
 20
-195.363757610321
 30
0.0
 11
151.648578166962
 21
-194.613757610321
 31
0.0
  0
LINE
  5
   122
  8
0
  6
CONTINUOUS
 62
     5
 10
151.648578166962
 20
-195.363757610321
 30
0.0
 11
153.823577880859
 21
-195.363757610321
 31
0.0
  0
LINE
  5
   123
  8
0
  6
CONTINUOUS
 62
     5
 10
153.823577880859
 20
-197.538757324219
 30
0.0
 11
153.823577880859
 21
-195.363757610321
 31
0.0
  0
LINE
  5
   124
  8
0
  6
CONTINUOUS
 62
     5
 10
153.823577880859
 20
-197.538757324219
 30
0.0
 11
154.573577880859
 21
-197.538757324219
 31
0.0
  0
LINE
  5
   125
  8
0
  6
CONTINUOUS
 62
     5
 10
154.573577880859
 20
-197.538757324219
 30
0.0
 11
154.573577880859
 21
-195.363757610321
 31
0.0
  0
LINE
  5
   126
  8
0
  6
CONTINUOUS
 62
     1
 10
130.948577880859
 20
-240.36375617981
 30
0.0
 11
160.948577880859
 21
-240.36375617981
 31
0.0
  0
LINE
  5
   127
  8
0
  6
CONTINUOUS
 62
     1
 10
130.948577880859
 20
-101.61375617981
 30
0.0
 11
160.948577880859
 21
-101.61375617981
 31
0.0
  0
LINE
  5
   128
  8
0
  6
CONTINUOUS
 62
     1
 10
160.948577880859
 20
-240.36375617981
 30
0.0
 11
160.948577880859
 21
-223.755448255674
 31
0.0
  0
LINE
  5
   129
  8
0
  6
CONTINUOUS
 62
     1
 10
160.948577880859
 20
-142.113753318787
 30
0.0
 11
160.948577880859
 21
-101.61375617981
 31
0.0
  0
LINE
  5
   12A
  8
0
  6
CONTINUOUS
 62
     1
 10
130.948577880859
 20
-240.36375617981
 30
0.0
 11
130.948577880859
 21
-223.755448255674
 31
0.0
  0
LINE
  5
   12B
  8
0
  6
CONTINUOUS
 62
     1
 10
130.948577880859
 20
-142.113753318787
 30
0.0
 11
130.948577880859
 21
-101.61375617981
 31
0.0
  0
LINE
  5
   12C
  8
0
  6
CONTINUOUS
 62
   210
 10
168.241497305337
 20
-152.613755076166
 30
0.0
 11
168.334839610034
 21
-152.644233552328
 31
0.0
  0
LINE
  5
   12D
  8
0
  6
CONTINUOUS
 62
   210
 10
168.33483994478
 20
-152.64423432874
 30
0.0
 11
168.761036509894
 21
-152.737952857079
 31
0.0
  0
LINE
  5
   12E
  8
0
  6
CONTINUOUS
 62
   210
 10
168.761036848979
 20
-152.737953979795
 30
0.0
 11
169.247280921363
 21
-152.807594142621
 31
0.0
  0
LINE
  5
   12F
  8
0
  6
CONTINUOUS
 62
   210
 10
169.24728061047
 20
-152.80759278147
 30
0.0
 11
169.774886247862
 21
-152.850479516772
 31
0.0
  0
LINE
  5
   130
  8
0
  6
CONTINUOUS
 62
   210
 10
169.774886381736
 20
-152.850480518096
 30
0.0
 11
170.323577912246
 21
-152.864960154856
 31
0.0
  0
LINE
  5
   131
  8
0
  6
CONTINUOUS
 62
   210
 10
170.323577889172
 20
-152.864960154332
 30
0.0
 11
170.872269419682
 21
-152.850480517572
 31
0.0
  0
LINE
  5
   132
  8
0
  6
CONTINUOUS
 62
   210
 10
170.872269460055
 20
-152.850479518966
 30
0.0
 11
171.399875097447
 21
-152.807592783663
 31
0.0
  0
LINE
  5
   133
  8
0
  6
CONTINUOUS
 62
   210
 10
171.399874921876
 20
-152.807594131276
 30
0.0
 11
171.886118994259
 21
-152.73795396845
 31
0.0
  0
LINE
  5
   134
  8
0
  6
CONTINUOUS
 62
   210
 10
171.886119224607
 20
-152.73795286
 30
0.0
 11
172.312315789721
 21
-152.644234331662
 31
0.0
  0
LINE
  5
   135
  8
0
  6
CONTINUOUS
 62
   210
 10
123.562314931538
 20
-152.644234642396
 30
0.0
 11
123.65565866696
 21
-152.613756164424
 31
0.0
  0
LINE
  5
   136
  8
0
  6
CONTINUOUS
 62
   210
 10
123.136121411269
 20
-152.737953637785
 30
0.0
 11
123.562316544881
 21
-152.644235107952
 31
0.0
  0
LINE
  5
   137
  8
0
  6
CONTINUOUS
 62
   210
 10
122.649873154104
 20
-152.807592026513
 30
0.0
 11
123.136115456411
 21
-152.737951868335
 31
0.0
  0
LINE
  5
   138
  8
0
  6
CONTINUOUS
 62
   210
 10
122.122270578461
 20
-152.850480080526
 30
0.0
 11
122.649877552549
 21
-152.807593346999
 31
0.0
  0
LINE
  5
   139
  8
0
  6
CONTINUOUS
 62
   210
 10
121.573579324007
 20
-152.864960184141
 30
0.0
 11
122.122272016404
 21
-152.850480547391
 31
0.0
  0
LINE
  5
   13A
  8
0
  6
CONTINUOUS
 62
   210
 10
121.024886657255
 20
-152.8504805858
 30
0.0
 11
121.573579349651
 21
-152.86496022255
 31
0.0
  0
LINE
  5
   13B
  8
0
  6
CONTINUOUS
 62
   210
 10
120.497278208252
 20
-152.807593347847
 30
0.0
 11
121.024885182339
 21
-152.850480081373
 31
0.0
  0
LINE
  5
   13C
  8
0
  6
CONTINUOUS
 62
   210
 10
120.011030819121
 20
-152.737951201335
 30
0.0
 11
120.497273121427
 21
-152.807591359513
 31
0.0
  0
LINE
  5
   13D
  8
0
  6
CONTINUOUS
 62
   210
 10
119.584842726469
 20
-152.644235484719
 30
0.0
 11
120.01103786008
 21
-152.737954014552
 31
0.0
  0
LINE
  5
   13E
  8
0
  6
CONTINUOUS
 62
     2
 10
140.323577880859
 20
-167.163757324219
 30
0.0
 11
141.223494624429
 21
-167.163757324219
 31
0.0
  0
ARC
  5
   13F
  8
0
  6
CONTINUOUS
 62
   210
 10
172.198589483005
 20
-154.488751194345
 30
0.0
 40
1.87498826442756
 50
0.0
 51
90.0
  0
ARC
  5
   140
  8
0
  6
CONTINUOUS
 62
   130
 10
172.198577469836
 20
-187.488756229416
 30
0.0
 40
1.87500105610381
 50
270.000012947068
 51
359.99996496274
  0
ARC
  5
   141
  8
0
  6
CONTINUOUS
 62
   130
 10
163.948578472685
 20
-190.113757411824
 30
0.0
 40
0.750000332983732
 50
90.0000154272331
 51
179.99996796398
  0
ARC
  5
   142
  8
0
  6
CONTINUOUS
 62
   210
 10
119.698583566436
 20
-154.488761175161
 30
0.0
 40
1.87500528199359
 50
90.0
 51
180.0
  0
ARC
  5
   143
  8
0
  6
CONTINUOUS
 62
   130
 10
119.698576617935
 20
-187.488758874338
 30
0.0
 40
1.87499828433714
 50
179.999952727441
 51
270.000009747953
  0
CIRCLE
  5
   144
  8
0
  6
CONTINUOUS
 62
     1
 10
145.948578686966
 20
-109.113798953795
 30
0.0
 40
4.1249579504076
  0
CIRCLE
  5
   145
  8
0
  6
CONTINUOUS
 62
     1
 10
145.948536252644
 20
-127.863678771556
 30
0.0
 40
4.12491512455063
  0
ARC
  5
   146
  8
0
  6
CONTINUOUS
 62
   210
 10
127.948578851787
 20
-151.863757303236
 30
0.0
 40
0.749998627100916
 50
269.999869172933
 51
360.000124954796
  0
ARC
  5
   147
  8
0
  6
CONTINUOUS
 62
   210
 10
163.948578917568
 20
-151.863757814144
 30
0.0
 40
0.750000411392194
 50
180.000024991179
 51
270.000019738473
  0
CIRCLE
  5
   148
  8
0
  6
CONTINUOUS
 62
     5
 10
154.198580185237
 20
-194.988752434672
 30
0.0
 40
3.5871317543785
  0
CIRCLE
  5
   149
  8
0
  6
CONTINUOUS
 62
     5
 10
154.198575322159
 20
-194.988759662467
 30
0.0
 40
3.7500031680561
  0
ARC
  5
   14A
  8
0
  6
CONTINUOUS
 62
   130
 10
127.948580931422
 20
-190.11375688815
 30
0.0
 40
0.74999929116047
 50
359.999944813395
 51
450.00004969222
  0
CIRCLE
  5
   14B
  8
0
  6
CONTINUOUS
 62
     1
 10
145.948571074636
 20
-232.863750124392
 30
0.0
 40
4.12499108685891
  0
LINE
  5
   14C
  8
0
  6
DASHDOT
 62
     7
 10
145.948578686966
 20
-121.708144912782
 30
0.0
 11
145.948578686966
 21
-99.3663760269234
 31
0.0
  0
LINE
  5
   14D
  8
0
  6
DASHDOT
 62
     7
 10
140.323620736559
 20
-109.113798953795
 30
0.0
 11
151.573536637374
 21
-109.113798953795
 31
0.0
  0
LINE
  5
   14E
  8
0
  6
DASHDOT
 62
     7
 10
145.948536252644
 20
-207.92918479352
 30
0.0
 11
145.948536252644
 21
-122.238763647005
 31
0.0
  0
LINE
  5
   14F
  8
0
  6
DASHDOT
 62
     7
 10
140.323621128094
 20
-127.863678771556
 30
0.0
 11
151.573451377195
 21
-127.863678771556
 31
0.0
  0
LINE
  5
   150
  8
0
  6
DASHDOT
 62
     7
 10
137.698591594738
 20
-200.238678396263
 30
0.0
 11
137.698591594738
 21
-189.738758834697
 31
0.0
  0
LINE
  5
   151
  8
0
  6
DASHDOT
 62
     7
 10
132.448631813955
 20
-194.98871861548
 30
0.0
 11
142.948551375522
 21
-194.98871861548
 31
0.0
  0
LINE
  5
   152
  8
0
  6
DASHDOT
 62
     7
 10
154.198575322159
 20
-200.238762830523
 30
0.0
 11
154.198575322159
 21
-189.738756494411
 31
0.0
  0
LINE
  5
   153
  8
0
  6
DASHDOT
 62
     7
 10
148.948572154102
 20
-194.988759662467
 30
0.0
 11
159.448578490215
 21
-194.988759662467
 31
0.0
  0
LINE
  5
   154
  8
0
  6
DASHDOT
 62
     7
 10
145.948574733809
 20
-227.223231631143
 30
0.0
 11
145.948574733809
 21
-208.488764539149
 31
0.0
  0
LINE
  5
   155
  8
0
  6
DASHDOT
 62
     7
 10
140.323577286462
 20
-214.113761986496
 30
0.0
 11
151.573572181157
 21
-214.113761986496
 31
0.0
  0
LINE
  5
   156
  8
0
  6
DASHDOT
 62
     7
 10
145.948571074636
 20
-241.921116992797
 30
0.0
 11
145.948571074636
 21
-227.238759037534
 31
0.0
  0
LINE
  5
   157
  8
0
  6
DASHDOT
 62
     7
 10
140.323579987777
 20
-232.863750124392
 30
0.0
 11
151.573562161495
 21
-232.863750124392
 31
0.0
  0
LINE
  5
   158
  8
0
  6
DASHDOT
 62
     7
 10
121.573577880859
 20
-190.601410245082
 30
0.0
 11
121.573577880859
 21
-150.587769160179
 31
0.0
  0
LINE
  5
   159
  8
0
  6
DASHDOT
 62
     7
 10
170.323577880859
 20
-190.601410245082
 30
0.0
 11
170.323577880859
 21
-150.587769160179
 31
0.0
  0
LINE
  5
   15A
  8
0
  6
CONTINUOUS
 62
   130
 10
172.011077893528
 20
-170.988757610321
 30
0.0
 11
174.073577880859
 21
-170.988757610321
 31
0.0
  0
LINE
  5
   15B
  8
0
  6
CONTINUOUS
 62
     7
 10
140.136077880859
 20
-154.676251194345
 30
0.0
 11
172.011077893528
 21
-154.676251194345
 31
0.0
  0
LINE
  5
   15C
  8
0
  6
CONTINUOUS
 62
     7
 10
140.136077880859
 20
-159.73875617981
 30
0.0
 11
140.136077880859
 21
-154.676251194345
 31
0.0
  0
LINE
  5
   15D
  8
0
  6
CONTINUOUS
 62
     7
 10
172.011077893528
 20
-187.113757376008
 30
0.0
 11
172.011077893528
 21
-154.676251194345
 31
0.0
  0
LINE
  5
   15E
  8
0
  6
CONTINUOUS
 62
     7
 10
154.011077880859
 20
-187.113757376008
 30
0.0
 11
154.011077880859
 21
-159.73875617981
 31
0.0
  0
LINE
  5
   15F
  8
0
  6
CONTINUOUS
 62
     7
 10
140.136077880859
 20
-159.73875617981
 30
0.0
 11
154.011077880859
 21
-159.73875617981
 31
0.0
  0
LINE
  5
   160
  8
0
  6
CONTINUOUS
 62
     7
 10
154.011077880859
 20
-187.113757376008
 30
0.0
 11
172.011077893528
 21
-187.113757376008
 31
0.0
  0
LINE
  5
   161
  8
0
  6
CONTINUOUS
 62
     7
 10
154.386077880859
 20
-186.738757376008
 30
0.0
 11
171.636077893528
 21
-186.738757376008
 31
0.0
  0
LINE
  5
   162
  8
0
  6
CONTINUOUS
 62
     7
 10
171.636077893528
 20
-186.738757376008
 30
0.0
 11
171.636077893528
 21
-155.051251194345
 31
0.0
  0
LINE
  5
   163
  8
0
  6
CONTINUOUS
 62
     7
 10
140.511077880859
 20
-155.051251194345
 30
0.0
 11
151.385994624429
 21
-155.051251194345
 31
0.0
  0
LINE
  5
   164
  8
0
  6
CONTINUOUS
 62
     7
 10
140.511077880859
 20
-159.36375617981
 30
0.0
 11
140.511077880859
 21
-155.051251194345
 31
0.0
  0
LINE
  5
   165
  8
0
  6
CONTINUOUS
 62
     7
 10
140.511077880859
 20
-159.36375617981
 30
0.0
 11
151.385994624429
 21
-159.36375617981
 31
0.0
  0
LINE
  5
   166
  8
0
  6
CONTINUOUS
 62
     7
 10
154.386077880859
 20
-186.738757376008
 30
0.0
 11
154.386077880859
 21
-165.6137532549
 31
0.0
  0
LINE
  5
   167
  8
0
  6
CONTINUOUS
 62
     7
 10
144.073577880859
 20
-159.36375617981
 30
0.0
 11
144.073577880859
 21
-155.051251194345
 31
0.0
  0
LINE
  5
   168
  8
0
  6
CONTINUOUS
 62
     7
 10
147.823577880859
 20
-159.36375617981
 30
0.0
 11
147.823577880859
 21
-155.051251194345
 31
0.0
  0
LINE
  5
   169
  8
0
  6
CONTINUOUS
 62
     7
 10
151.385994624429
 20
-159.36375617981
 30
0.0
 11
151.385994624429
 21
-155.051251194345
 31
0.0
  0
LINE
  5
   16A
  8
0
  6
CONTINUOUS
 62
     7
 10
154.386077880859
 20
-155.051251194345
 30
0.0
 11
171.636077893528
 21
-155.051251194345
 31
0.0
  0
LINE
  5
   16B
  8
0
  6
CONTINUOUS
 62
     7
 10
154.386077880859
 20
-165.6137532549
 30
0.0
 11
154.386077880859
 21
-155.051251194345
 31
0.0
  0
LINE
  5
   16C
  8
0
  6
CONTINUOUS
 62
     7
 10
154.386077880859
 20
-159.36375617981
 30
0.0
 11
171.636077893528
 21
-159.36375617981
 31
0.0
  0
LINE
  5
   16D
  8
0
  6
CONTINUOUS
 62
     7
 10
154.386077880859
 20
-182.426252390544
 30
0.0
 11
171.636077893528
 21
-182.426252390544
 31
0.0
  0
LINE
  5
   16E
  8
0
  6
CONTINUOUS
 62
     7
 10
154.386077880859
 20
-163.676261165274
 30
0.0
 11
171.636077893528
 21
-163.676261165274
 31
0.0
  0
LINE
  5
   16F
  8
0
  6
CONTINUOUS
 62
     7
 10
154.386077880859
 20
-167.426259410328
 30
0.0
 11
171.636077893528
 21
-167.426259410328
 31
0.0
  0
LINE
  5
   170
  8
0
  6
CONTINUOUS
 62
     7
 10
154.386077880859
 20
-171.176257655382
 30
0.0
 11
171.636077893528
 21
-171.176257655382
 31
0.0
  0
LINE
  5
   171
  8
0
  6
CONTINUOUS
 62
     7
 10
154.386077880859
 20
-174.926255900436
 30
0.0
 11
171.636077893528
 21
-174.926255900436
 31
0.0
  0
LINE
  5
   172
  8
0
  6
CONTINUOUS
 62
     7
 10
154.386077880859
 20
-178.67625414549
 30
0.0
 11
171.636077893528
 21
-178.67625414549
 31
0.0
  0
LINE
  5
   173
  8
0
  6
CONTINUOUS
 62
     7
 10
165.636077893528
 20
-182.426252390544
 30
0.0
 11
165.636077893528
 21
-163.676261165274
 31
0.0
  0
LINE
  5
   174
  8
0
  6
CONTINUOUS
 62
     2
 10
150.673577880859
 20
-164.538757324219
 30
0.0
 11
150.823577880859
 21
-164.538757324219
 31
0.0
  0
LINE
  5
   175
  8
0
  6
CONTINUOUS
 62
     2
 10
150.673577880859
 20
-167.163757324219
 30
0.0
 11
151.573577880859
 21
-167.163757324219
 31
0.0
  0
LINE
  5
   176
  8
0
  6
CONTINUOUS
 62
     2
 10
148.152872984396
 20
-171.663757324219
 30
0.0
 11
151.573577880859
 21
-171.663757324219
 31
0.0
  0
LINE
  5
   177
  8
0
  6
CONTINUOUS
 62
     2
 10
143.173494624429
 20
-164.538757324219
 30
0.0
 11
143.323577880859
 21
-164.538757324219
 31
0.0
  0
LINE
  5
   178
  8
0
  6
CONTINUOUS
 62
     2
 10
143.173494624429
 20
-167.163757324219
 30
0.0
 11
148.723577880859
 21
-167.163757324219
 31
0.0
  0
LINE
  5
   179
  8
0
  6
CONTINUOUS
 62
     2
 10
145.889214588885
 20
-171.663757324219
 30
0.0
 11
146.007857916404
 21
-171.663757324219
 31
0.0
  0
CIRCLE
  5
   17A
  8
0
  6
CONTINUOUS
 62
     5
 10
137.698587890708
 20
-194.988732954562
 30
0.0
 40
3.58711073850301
  0
CIRCLE
  5
   17B
  8
0
  6
CONTINUOUS
 62
     5
 10
137.698591594738
 20
-194.98871861548
 30
0.0
 40
3.74995978078309
  0
LINE
  5
   17C
  8
0
  6
CONTINUOUS
 62
     7
 10
203.993906732032
 20
-227.280448255674
 30
0.0
 11
203.993906732032
 21
-222.855448255674
 31
0.0
  0
LINE
  5
   17D
  8
0
  6
DOT
 62
     7
 10
201.981088446228
 20
-225.333904571778
 30
0.0
 11
202.816159450304
 21
-224.587246508095
 31
0.0
  0
LINE
  5
   17E
  8
0
  6
CONTINUOUS
 62
     7
 10
201.8951043315
 20
-224.102881620721
 30
0.0
 11
202.166281384934
 21
-223.860415372169
 31
0.0
  0
LINE
  5
   17F
  8
0
  6
CONTINUOUS
 62
     7
 10
196.604500068515
 20
-219.477194262781
 30
0.0
 11
202.017269368411
 21
-224.209693099851
 31
0.0
  0
LINE
  5
   180
  8
0
  6
CONTINUOUS
 62
     7
 10
195.962740324061
 20
-220.211203411496
 30
0.0
 11
201.375509623956
 21
-224.943702248566
 31
0.0
  0
ARC
  5
   181
  8
0
  6
CONTINUOUS
 62
     7
 10
194.975417640284
 20
-221.340448255674
 30
0.0
 40
1.5
 50
48.8361104607293
 51
90.0
  0
ARC
  5
   182
  8
0
  6
CONTINUOUS
 62
     7
 10
194.975417640284
 20
-221.340448255674
 30
0.0
 40
2.475
 50
48.8361104607293
 51
90.0
  0
ARC
  5
   183
  8
0
  6
CONTINUOUS
 62
     7
 10
203.004592052187
 20
-223.080448255674
 30
0.0
 40
2.475
 50
228.836110460729
 51
270.0
  0
ARC
  5
   184
  8
0
  6
CONTINUOUS
 62
     7
 10
203.004592052187
 20
-223.080448255674
 30
0.0
 40
1.5
 50
228.836110460729
 51
270.0
  0
ARC
  5
   185
  8
0
  6
CONTINUOUS
 62
     7
 10
194.396461436206
 20
-228.795448255674
 30
0.0
 40
1.5
 50
270.0
 51
311.80070212131
  0
ARC
  5
   186
  8
0
  6
CONTINUOUS
 62
     7
 10
203.815971858565
 20
-225.705448255674
 30
0.0
 40
1.5
 50
90.0
 51
130.850093265688
  0
ARC
  5
   187
  8
0
  6
CONTINUOUS
 62
     7
 10
194.396461436206
 20
-228.795448255674
 30
0.0
 40
2.475
 50
270.0
 51
311.80070212131
  0
ARC
  5
   188
  8
0
  6
CONTINUOUS
 62
     7
 10
203.815971858565
 20
-225.705448255674
 30
0.0
 40
2.475
 50
90.0
 51
131.80070212131
  0
LINE
  5
   189
  8
0
  6
DOT
 62
     7
 10
201.162759110488
 20
-224.757689968753
 30
0.0
 11
201.8951043315
 21
-224.102881620721
 31
0.0
  0
LINE
  5
   18A
  8
0
  6
CONTINUOUS
 62
     7
 10
195.396273844467
 20
-229.913650003252
 30
0.0
 11
201.162759110488
 21
-224.757689968753
 31
0.0
  0
LINE
  5
   18B
  8
0
  6
CONTINUOUS
 62
     7
 10
196.046151909836
 20
-230.640481139178
 30
0.0
 11
201.981088446228
 21
-225.333904571778
 31
0.0
  0
ARC
  5
   18C
  8
0
  6
DOT
 62
     7
 10
203.815971858565
 20
-225.705448255674
 30
0.0
 40
1.5
 50
130.850093265688
 51
131.80070212131
  0
LINE
  5
   18D
  8
0
  6
CONTINUOUS
 62
     7
 10
200.659277404892
 20
-223.022371964951
 30
0.0
 11
203.660269229415
 21
-223.224834843402
 31
0.0
  0
LINE
  5
   18E
  8
0
  6
DOT
 62
     7
 10
201.915817745778
 20
-224.084361234165
 30
0.0
 11
203.660194719578
 21
-224.20204618763
 31
0.0
  0
ARC
  5
   18F
  8
0
  6
CONTINUOUS
 62
     7
 10
203.826867189621
 20
-220.755448255674
 30
0.0
 40
2.475
 50
266.140370511094
 51
270.0
  0
ARC
  5
   190
  8
0
  6
CONTINUOUS
 62
     7
 10
195.433631490929
 20
-225.150448255674
 30
0.0
 40
2.475
 50
86.1403705110936
 51
90.0
  0
ARC
  5
   191
  8
0
  6
CONTINUOUS
 62
     7
 10
195.433631490929
 20
-225.150448255674
 30
0.0
 40
1.5
 50
86.1403705110935
 51
90.0
  0
ARC
  5
   192
  8
0
  6
DOT
 62
     7
 10
203.761163180309
 20
-222.705448255674
 30
0.0
 40
1.5
 50
266.140370511094
 51
270.0
  0
LINE
  5
   193
  8
0
  6
CONTINUOUS
 62
     7
 10
195.600229451135
 20
-222.681061667945
 30
0.0
 11
199.054141527171
 21
-222.914080956807
 31
0.0
  0
LINE
  5
   194
  8
0
  6
DOT
 62
     7
 10
199.054141527171
 20
-222.914080956807
 30
0.0
 11
200.659277404892
 21
-223.022371964951
 31
0.0
  0
LINE
  5
   195
  8
0
  6
DOT
 62
     7
 10
200.265282726431
 20
-223.973007358332
 30
0.0
 11
201.870418604152
 21
-224.081298366476
 31
0.0
  0
LINE
  5
   196
  8
0
  6
CONTINUOUS
 62
     7
 10
195.484173036553
 20
-223.650448255674
 30
0.0
 11
200.265282726431
 21
-223.973007358332
 31
0.0
  0
LINE
  5
   197
  8
0
  6
CONTINUOUS
 62
     7
 10
201.870418604152
 20
-224.081298366476
 30
0.0
 11
201.915817745778
 21
-224.084361234165
 31
0.0
  0
LINE
  5
   198
  8
0
  6
CONTINUOUS
 62
     7
 10
199.981485184243
 20
-227.121800322488
 30
0.0
 11
202.933666615095
 21
-226.90931847428
 31
0.0
  0
LINE
  5
   199
  8
0
  6
CONTINUOUS
 62
     7
 10
201.170466871016
 20
-226.05870178396
 30
0.0
 11
202.863672517998
 21
-225.936834116374
 31
0.0
  0
ARC
  5
   19A
  8
0
  6
CONTINUOUS
 62
     7
 10
203.041349841399
 20
-228.405448255674
 30
0.0
 40
1.5
 50
90.0
 51
94.1167374646507
  0
ARC
  5
   19B
  8
0
  6
CONTINUOUS
 62
     7
 10
195.187423313924
 20
-224.985448255674
 30
0.0
 40
2.475
 50
270.0
 51
274.116737464651
  0
ARC
  5
   19C
  8
0
  6
CONTINUOUS
 62
     7
 10
203.041349841399
 20
-228.405448255674
 30
0.0
 40
2.475
 50
90.0
 51
94.1167374646508
  0
LINE
  5
   19D
  8
0
  6
CONTINUOUS
 62
     7
 10
195.241334476405
 20
-226.485448255674
 30
0.0
 11
199.579635060061
 21
-226.173201143602
 31
0.0
  0
LINE
  5
   19E
  8
0
  6
DOT
 62
     7
 10
199.579635060061
 20
-226.173201143602
 30
0.0
 11
201.170466871016
 21
-226.05870178396
 31
0.0
  0
LINE
  5
   19F
  8
0
  6
DOT
 62
     7
 10
198.390653373288
 20
-227.23629968213
 30
0.0
 11
199.981485184243
 21
-227.121800322488
 31
0.0
  0
LINE
  5
   1A0
  8
0
  6
CONTINUOUS
 62
     7
 10
195.365100637326
 20
-227.454062394973
 30
0.0
 11
198.390653373288
 21
-227.23629968213
 31
0.0
  0
LINE
  5
   1A1
  8
0
  6
CONTINUOUS
 62
     7
 10
203.826867189621
 20
-223.230448255674
 30
0.0
 11
203.993906732032
 21
-223.230448255674
 31
0.0
  0
LINE
  5
   1A2
  8
0
  6
CONTINUOUS
 62
     7
 10
203.761163180309
 20
-224.205448255674
 30
0.0
 11
203.993906732032
 21
-224.205448255674
 31
0.0
  0
LINE
  5
   1A3
  8
0
  6
CONTINUOUS
 62
     7
 10
203.004592052187
 20
-224.580448255674
 30
0.0
 11
203.993906732032
 21
-224.580448255674
 31
0.0
  0
LINE
  5
   1A4
  8
0
  6
CONTINUOUS
 62
     7
 10
203.004592052187
 20
-225.555448255674
 30
0.0
 11
203.993906732032
 21
-225.555448255674
 31
0.0
  0
LINE
  5
   1A5
  8
0
  6
CONTINUOUS
 62
     7
 10
203.041349841399
 20
-225.930448255674
 30
0.0
 11
203.993906732032
 21
-225.930448255674
 31
0.0
  0
LINE
  5
   1A6
  8
0
  6
CONTINUOUS
 62
     7
 10
203.041349841399
 20
-226.905448255674
 30
0.0
 11
203.993906732032
 21
-226.905448255674
 31
0.0
  0
LINE
  5
   1A7
  8
0
  6
CONTINUOUS
 62
     7
 10
213.723112575785
 20
-228.767570370178
 30
0.0
 11
213.723112575785
 21
-221.088157924007
 31
0.0
  0
LINE
  5
   1A8
  8
0
  6
CONTINUOUS
 62
     7
 10
203.993906732032
 20
-222.855448255674
 30
0.0
 11
213.723112575785
 21
-222.855448255674
 31
0.0
  0
LINE
  5
   1A9
  8
0
  6
CONTINUOUS
 62
     7
 10
203.993906732032
 20
-227.280448255674
 30
0.0
 11
213.723112575785
 21
-227.280448255674
 31
0.0
  0
LINE
  5
   1AA
  8
0
  6
CONTINUOUS
 62
     7
 10
188.310402238668
 20
-218.865448255674
 30
0.0
 11
194.975417640284
 21
-218.865448255674
 31
0.0
  0
LINE
  5
   1AB
  8
0
  6
CONTINUOUS
 62
     7
 10
188.310402238668
 20
-219.840448255674
 30
0.0
 11
194.975417640284
 21
-219.840448255674
 31
0.0
  0
LINE
  5
   1AC
  8
0
  6
CONTINUOUS
 62
     7
 10
188.310402238668
 20
-222.675448255674
 30
0.0
 11
195.433631490929
 21
-222.675448255674
 31
0.0
  0
LINE
  5
   1AD
  8
0
  6
CONTINUOUS
 62
     7
 10
188.310402238668
 20
-223.650448255674
 30
0.0
 11
195.484173036554
 21
-223.650448255674
 31
0.0
  0
LINE
  5
   1AE
  8
0
  6
CONTINUOUS
 62
     7
 10
188.310402238668
 20
-226.485448255674
 30
0.0
 11
195.241334476405
 21
-226.485448255674
 31
0.0
  0
LINE
  5
   1AF
  8
0
  6
CONTINUOUS
 62
     7
 10
188.310402238668
 20
-227.460448255674
 30
0.0
 11
195.187423313924
 21
-227.460448255674
 31
0.0
  0
LINE
  5
   1B0
  8
0
  6
CONTINUOUS
 62
     7
 10
188.310402238668
 20
-230.295448255674
 30
0.0
 11
194.396461436206
 21
-230.295448255674
 31
0.0
  0
LINE
  5
   1B1
  8
0
  6
CONTINUOUS
 62
     7
 10
188.310402238668
 20
-231.270448255674
 30
0.0
 11
194.396461436206
 21
-231.270448255674
 31
0.0
  0
LINE
  5
   1B2
  8
0
  6
CONTINUOUS
 62
     7
 10
171.060402238668
 20
-217.657948255674
 30
0.0
 11
189.810402238668
 21
-217.657948255674
 31
0.0
  0
LINE
  5
   1B3
  8
0
  6
CONTINUOUS
 62
     7
 10
185.08539994985
 20
-220.807948112622
 30
0.0
 11
185.08539994985
 21
-218.257948398725
 31
0.0
  0
LINE
  5
   1B4
  8
0
  6
CONTINUOUS
 62
     7
 10
182.08539994985
 20
-220.807948112622
 30
0.0
 11
182.08539994985
 21
-218.257948398725
 31
0.0
  0
LINE
  5
   1B5
  8
0
  6
CONTINUOUS
 62
     7
 10
178.785404527487
 20
-220.807948112622
 30
0.0
 11
178.785404527487
 21
-218.257948398725
 31
0.0
  0
LINE
  5
   1B6
  8
0
  6
CONTINUOUS
 62
     7
 10
175.785404527487
 20
-220.807948112622
 30
0.0
 11
175.785404527487
 21
-218.257948398725
 31
0.0
  0
LINE
  5
   1B7
  8
0
  6
CONTINUOUS
 62
     7
 10
188.310407960714
 20
-220.807948112622
 30
0.0
 11
189.810402238668
 21
-220.807948112622
 31
0.0
  0
LINE
  5
   1B8
  8
0
  6
CONTINUOUS
 62
     7
 10
188.310407960714
 20
-218.257948398725
 30
0.0
 11
189.810402238668
 21
-218.257948398725
 31
0.0
  0
LINE
  5
   1B9
  8
0
  6
CONTINUOUS
 62
     7
 10
171.060402238668
 20
-218.257948398725
 30
0.0
 11
172.560407960714
 21
-218.257948398725
 31
0.0
  0
LINE
  5
   1BA
  8
0
  6
CONTINUOUS
 62
     7
 10
171.060402238668
 20
-232.657948255674
 30
0.0
 11
171.060402238668
 21
-223.33141175116
 31
0.0
  0
LINE
  5
   1BB
  8
0
  6
CONTINUOUS
 62
     7
 10
171.449765580574
 20
-221.407948255674
 30
0.0
 11
189.810402238668
 21
-221.407948255674
 31
0.0
  0
LINE
  5
   1BC
  8
0
  6
CONTINUOUS
 62
     7
 10
185.08539994985
 20
-224.55794847025
 30
0.0
 11
185.08539994985
 21
-222.007948398725
 31
0.0
  0
LINE
  5
   1BD
  8
0
  6
CONTINUOUS
 62
     7
 10
182.08539994985
 20
-224.55794847025
 30
0.0
 11
182.08539994985
 21
-222.007948398725
 31
0.0
  0
LINE
  5
   1BE
  8
0
  6
CONTINUOUS
 62
     7
 10
178.785404527487
 20
-224.55794847025
 30
0.0
 11
178.785404527487
 21
-222.007948398725
 31
0.0
  0
LINE
  5
   1BF
  8
0
  6
CONTINUOUS
 62
     7
 10
175.785404527487
 20
-224.55794847025
 30
0.0
 11
175.785404527487
 21
-222.007948398725
 31
0.0
  0
LINE
  5
   1C0
  8
0
  6
CONTINUOUS
 62
     7
 10
188.310407960714
 20
-224.55794847025
 30
0.0
 11
189.810402238668
 21
-224.55794847025
 31
0.0
  0
LINE
  5
   1C1
  8
0
  6
CONTINUOUS
 62
     7
 10
188.310407960714
 20
-222.007948398725
 30
0.0
 11
189.810402238668
 21
-222.007948398725
 31
0.0
  0
LINE
  5
   1C2
  8
0
  6
CONTINUOUS
 62
     7
 10
171.060402238668
 20
-224.55794847025
 30
0.0
 11
172.560407960714
 21
-224.55794847025
 31
0.0
  0
LINE
  5
   1C3
  8
0
  6
CONTINUOUS
 62
     7
 10
189.810402238668
 20
-232.657948255674
 30
0.0
 11
189.810402238668
 21
-231.270448255674
 31
0.0
  0
LINE
  5
   1C4
  8
0
  6
CONTINUOUS
 62
     7
 10
171.060402238668
 20
-232.657948255674
 30
0.0
 11
189.810402238668
 21
-232.657948255674
 31
0.0
  0
LINE
  5
   1C5
  8
0
  6
CONTINUOUS
 62
     7
 10
185.08539994985
 20
-232.05794847025
 30
0.0
 11
185.08539994985
 21
-229.507948219911
 31
0.0
  0
LINE
  5
   1C6
  8
0
  6
CONTINUOUS
 62
     7
 10
182.08539994985
 20
-232.05794847025
 30
0.0
 11
182.08539994985
 21
-229.507948219911
 31
0.0
  0
LINE
  5
   1C7
  8
0
  6
CONTINUOUS
 62
     7
 10
178.785404527487
 20
-232.05794847025
 30
0.0
 11
178.785404527487
 21
-229.507948219911
 31
0.0
  0
LINE
  5
   1C8
  8
0
  6
CONTINUOUS
 62
     7
 10
175.785404527487
 20
-232.05794847025
 30
0.0
 11
175.785404527487
 21
-229.507948219911
 31
0.0
  0
LINE
  5
   1C9
  8
0
  6
CONTINUOUS
 62
     7
 10
188.310407960714
 20
-232.05794847025
 30
0.0
 11
189.810402238668
 21
-232.05794847025
 31
0.0
  0
LINE
  5
   1CA
  8
0
  6
CONTINUOUS
 62
     7
 10
188.310407960714
 20
-229.507948219911
 30
0.0
 11
189.810402238668
 21
-229.507948219911
 31
0.0
  0
LINE
  5
   1CB
  8
0
  6
CONTINUOUS
 62
     7
 10
171.060402238668
 20
-232.05794847025
 30
0.0
 11
172.560407960714
 21
-232.05794847025
 31
0.0
  0
LINE
  5
   1CC
  8
0
  6
CONTINUOUS
 62
     7
 10
171.060402238668
 20
-229.507948219911
 30
0.0
 11
172.560407960714
 21
-229.507948219911
 31
0.0
  0
LINE
  5
   1CD
  8
0
  6
CONTINUOUS
 62
     7
 10
171.060402238668
 20
-228.907948345081
 30
0.0
 11
189.810402238668
 21
-228.907948345081
 31
0.0
  0
LINE
  5
   1CE
  8
0
  6
CONTINUOUS
 62
     7
 10
171.060402238668
 20
-225.157948255674
 30
0.0
 11
189.810402238668
 21
-225.157948255674
 31
0.0
  0
LINE
  5
   1CF
  8
0
  6
CONTINUOUS
 62
     7
 10
185.08539994985
 20
-228.307948291436
 30
0.0
 11
185.08539994985
 21
-225.757948219911
 31
0.0
  0
LINE
  5
   1D0
  8
0
  6
CONTINUOUS
 62
     7
 10
182.08539994985
 20
-228.307948291436
 30
0.0
 11
182.08539994985
 21
-225.757948219911
 31
0.0
  0
LINE
  5
   1D1
  8
0
  6
CONTINUOUS
 62
     7
 10
178.785404527487
 20
-228.307948291436
 30
0.0
 11
178.785404527487
 21
-225.757948219911
 31
0.0
  0
LINE
  5
   1D2
  8
0
  6
CONTINUOUS
 62
     7
 10
175.785404527487
 20
-228.307948291436
 30
0.0
 11
175.785404527487
 21
-225.757948219911
 31
0.0
  0
LINE
  5
   1D3
  8
0
  6
CONTINUOUS
 62
     7
 10
188.310407960714
 20
-228.307948313788
 30
0.0
 11
189.810402238668
 21
-228.307948313788
 31
0.0
  0
LINE
  5
   1D4
  8
0
  6
CONTINUOUS
 62
     7
 10
188.310407960714
 20
-225.757948219911
 30
0.0
 11
189.810402238668
 21
-225.757948219911
 31
0.0
  0
LINE
  5
   1D5
  8
0
  6
CONTINUOUS
 62
     7
 10
171.060402238668
 20
-228.307948313788
 30
0.0
 11
172.560407960714
 21
-228.307948313788
 31
0.0
  0
LINE
  5
   1D6
  8
0
  6
CONTINUOUS
 62
     7
 10
171.060402238668
 20
-225.757948219911
 30
0.0
 11
172.560407960714
 21
-225.757948219911
 31
0.0
  0
LINE
  5
   1D7
  8
0
  6
CONTINUOUS
 62
     7
 10
182.685402238668
 20
-234.757948398725
 30
0.0
 11
182.685402238668
 21
-232.657948255674
 31
0.0
  0
LINE
  5
   1D8
  8
0
  6
CONTINUOUS
 62
     7
 10
178.185402238668
 20
-234.757948398725
 30
0.0
 11
178.185402238668
 21
-232.657948255674
 31
0.0
  0
LINE
  5
   1D9
  8
0
  6
CONTINUOUS
 62
     7
 10
182.392977083029
 20
-235.657948255674
 30
0.0
 11
187.560402238668
 21
-235.657948255674
 31
0.0
  0
LINE
  5
   1DA
  8
0
  6
CONTINUOUS
 62
     7
 10
173.310402238668
 20
-235.657948255674
 30
0.0
 11
178.477827394308
 21
-235.657948255674
 31
0.0
  0
LINE
  5
   1DB
  8
0
  6
CONTINUOUS
 62
     7
 10
182.685402238668
 20
-217.657948255674
 30
0.0
 11
182.685402238668
 21
-215.557948112622
 31
0.0
  0
LINE
  5
   1DC
  8
0
  6
CONTINUOUS
 62
     7
 10
178.185402238668
 20
-217.657948255674
 30
0.0
 11
178.185402238668
 21
-215.557948112622
 31
0.0
  0
LINE
  5
   1DD
  8
0
  6
CONTINUOUS
 62
     7
 10
182.392977083029
 20
-214.657948970929
 30
0.0
 11
187.560402238668
 21
-214.657948970929
 31
0.0
  0
LINE
  5
   1DE
  8
0
  6
CONTINUOUS
 62
     7
 10
173.310402238668
 20
-214.657948970929
 30
0.0
 11
178.477827394308
 21
-214.657948970929
 31
0.0
  0
LINE
  5
   1DF
  8
0
  6
CONTINUOUS
 62
     7
 10
175.185402238668
 20
-232.657948255674
 30
0.0
 11
175.185402238668
 21
-217.657948255674
 31
0.0
  0
LINE
  5
   1E0
  8
0
  6
CONTINUOUS
 62
     7
 10
182.08539994985
 20
-218.257948398725
 30
0.0
 11
185.08539994985
 21
-218.257948398725
 31
0.0
  0
LINE
  5
   1E1
  8
0
  6
CONTINUOUS
 62
     7
 10
182.08539994985
 20
-218.919174432889
 30
0.0
 11
185.08539994985
 21
-218.919174432889
 31
0.0
  0
LINE
  5
   1E2
  8
0
  6
CONTINUOUS
 62
     7
 10
182.08539994985
 20
-220.146722078458
 30
0.0
 11
185.08539994985
 21
-220.146722078458
 31
0.0
  0
LINE
  5
   1E3
  8
0
  6
CONTINUOUS
 62
     7
 10
182.08539994985
 20
-220.807948112622
 30
0.0
 11
185.08539994985
 21
-220.807948112622
 31
0.0
  0
LINE
  5
   1E4
  8
0
  6
CONTINUOUS
 62
     7
 10
175.785404527487
 20
-218.257948398725
 30
0.0
 11
178.785404527487
 21
-218.257948398725
 31
0.0
  0
LINE
  5
   1E5
  8
0
  6
CONTINUOUS
 62
     7
 10
175.785404527487
 20
-218.919174432889
 30
0.0
 11
178.785404527487
 21
-218.919174432889
 31
0.0
  0
LINE
  5
   1E6
  8
0
  6
CONTINUOUS
 62
     7
 10
175.785404527487
 20
-220.146722078458
 30
0.0
 11
178.785404527487
 21
-220.146722078458
 31
0.0
  0
LINE
  5
   1E7
  8
0
  6
CONTINUOUS
 62
     7
 10
175.785404527487
 20
-220.807948112622
 30
0.0
 11
178.785404527487
 21
-220.807948112622
 31
0.0
  0
LINE
  5
   1E8
  8
0
  6
CONTINUOUS
 62
     7
 10
182.08539994985
 20
-222.007948398725
 30
0.0
 11
185.08539994985
 21
-222.007948398725
 31
0.0
  0
LINE
  5
   1E9
  8
0
  6
CONTINUOUS
 62
     7
 10
182.08539994985
 20
-222.669174432889
 30
0.0
 11
185.08539994985
 21
-222.669174432889
 31
0.0
  0
LINE
  5
   1EA
  8
0
  6
CONTINUOUS
 62
     7
 10
182.08539994985
 20
-223.896722078458
 30
0.0
 11
185.08539994985
 21
-223.896722078458
 31
0.0
  0
LINE
  5
   1EB
  8
0
  6
CONTINUOUS
 62
     7
 10
182.08539994985
 20
-224.55794847025
 30
0.0
 11
185.08539994985
 21
-224.55794847025
 31
0.0
  0
LINE
  5
   1EC
  8
0
  6
CONTINUOUS
 62
     7
 10
175.785404527487
 20
-222.007948398725
 30
0.0
 11
178.785404527487
 21
-222.007948398725
 31
0.0
  0
LINE
  5
   1ED
  8
0
  6
CONTINUOUS
 62
     7
 10
175.785404527487
 20
-222.669174432889
 30
0.0
 11
178.785404527487
 21
-222.669174432889
 31
0.0
  0
LINE
  5
   1EE
  8
0
  6
CONTINUOUS
 62
     7
 10
175.785404527487
 20
-223.896722078458
 30
0.0
 11
178.785404527487
 21
-223.896722078458
 31
0.0
  0
LINE
  5
   1EF
  8
0
  6
CONTINUOUS
 62
     7
 10
175.785404527487
 20
-224.55794847025
 30
0.0
 11
178.785404527487
 21
-224.55794847025
 31
0.0
  0
LINE
  5
   1F0
  8
0
  6
CONTINUOUS
 62
     7
 10
188.310402238668
 20
-232.657948255674
 30
0.0
 11
188.310402238668
 21
-217.657948255674
 31
0.0
  0
LINE
  5
   1F1
  8
0
  6
CONTINUOUS
 62
     7
 10
185.685402238668
 20
-232.657948255674
 30
0.0
 11
185.685402238668
 21
-217.657948255674
 31
0.0
  0
LINE
  5
   1F2
  8
0
  6
CONTINUOUS
 62
     7
 10
182.08539994985
 20
-229.507948219911
 30
0.0
 11
185.08539994985
 21
-229.507948219911
 31
0.0
  0
LINE
  5
   1F3
  8
0
  6
CONTINUOUS
 62
     7
 10
182.08539994985
 20
-230.169174432889
 30
0.0
 11
185.08539994985
 21
-230.169174432889
 31
0.0
  0
LINE
  5
   1F4
  8
0
  6
CONTINUOUS
 62
     7
 10
182.08539994985
 20
-231.396722078458
 30
0.0
 11
185.08539994985
 21
-231.396722078458
 31
0.0
  0
LINE
  5
   1F5
  8
0
  6
CONTINUOUS
 62
     7
 10
182.08539994985
 20
-232.05794847025
 30
0.0
 11
185.08539994985
 21
-232.05794847025
 31
0.0
  0
LINE
  5
   1F6
  8
0
  6
CONTINUOUS
 62
     7
 10
175.785404527487
 20
-229.507948219911
 30
0.0
 11
178.785404527487
 21
-229.507948219911
 31
0.0
  0
LINE
  5
   1F7
  8
0
  6
CONTINUOUS
 62
     7
 10
175.785404527487
 20
-230.169174432889
 30
0.0
 11
178.785404527487
 21
-230.169174432889
 31
0.0
  0
LINE
  5
   1F8
  8
0
  6
CONTINUOUS
 62
     7
 10
175.785404527487
 20
-231.396722078458
 30
0.0
 11
178.785404527487
 21
-231.396722078458
 31
0.0
  0
LINE
  5
   1F9
  8
0
  6
CONTINUOUS
 62
     7
 10
175.785404527487
 20
-232.05794847025
 30
0.0
 11
178.785404527487
 21
-232.05794847025
 31
0.0
  0
LINE
  5
   1FA
  8
0
  6
CONTINUOUS
 62
     7
 10
182.08539994985
 20
-225.757948219911
 30
0.0
 11
185.08539994985
 21
-225.757948219911
 31
0.0
  0
LINE
  5
   1FB
  8
0
  6
CONTINUOUS
 62
     7
 10
182.08539994985
 20
-226.419174432889
 30
0.0
 11
185.08539994985
 21
-226.419174432889
 31
0.0
  0
LINE
  5
   1FC
  8
0
  6
CONTINUOUS
 62
     7
 10
182.08539994985
 20
-227.646722123162
 30
0.0
 11
185.08539994985
 21
-227.646722123162
 31
0.0
  0
LINE
  5
   1FD
  8
0
  6
CONTINUOUS
 62
     7
 10
182.08539994985
 20
-228.307948313788
 30
0.0
 11
185.08539994985
 21
-228.307948313788
 31
0.0
  0
LINE
  5
   1FE
  8
0
  6
CONTINUOUS
 62
     7
 10
175.785404527487
 20
-225.757948219911
 30
0.0
 11
178.785404527487
 21
-225.757948219911
 31
0.0
  0
LINE
  5
   1FF
  8
0
  6
CONTINUOUS
 62
     7
 10
175.785404527487
 20
-226.419174432889
 30
0.0
 11
178.785404527487
 21
-226.419174432889
 31
0.0
  0
LINE
  5
   200
  8
0
  6
CONTINUOUS
 62
     7
 10
175.785404527487
 20
-227.646722123162
 30
0.0
 11
178.785404527487
 21
-227.646722123162
 31
0.0
  0
LINE
  5
   201
  8
0
  6
CONTINUOUS
 62
     7
 10
175.785404527487
 20
-228.307948313788
 30
0.0
 11
178.785404527487
 21
-228.307948313788
 31
0.0
  0
LINE
  5
   202
  8
0
  6
CONTINUOUS
 62
     7
 10
187.560402238668
 20
-235.657948255674
 30
0.0
 11
187.560402238668
 21
-232.657948255674
 31
0.0
  0
LINE
  5
   203
  8
0
  6
CONTINUOUS
 62
     7
 10
173.310402238668
 20
-235.657948255674
 30
0.0
 11
173.310402238668
 21
-232.657948255674
 31
0.0
  0
LINE
  5
   204
  8
0
  6
CONTINUOUS
 62
     7
 10
187.560402238668
 20
-217.657948255674
 30
0.0
 11
187.560402238668
 21
-214.657948970929
 31
0.0
  0
LINE
  5
   205
  8
0
  6
CONTINUOUS
 62
     7
 10
173.310402238668
 20
-217.657948255674
 30
0.0
 11
173.310402238668
 21
-214.657948970929
 31
0.0
  0
CIRCLE
  5
   206
  8
0
  6
CONTINUOUS
 62
     7
 10
180.435385876328
 20
-215.557944404708
 30
0.0
 40
1.31248403643736
  0
ARC
  5
   207
  8
0
  6
CONTINUOUS
 62
     7
 10
180.435407378744
 20
-215.557760184661
 30
0.0
 40
2.24989084230573
 50
359.995250053543
 51
540.00478310189
  0
CIRCLE
  5
   208
  8
0
  6
CONTINUOUS
 62
     7
 10
180.435410471472
 20
-234.757928289413
 30
0.0
 40
1.31252016254673
  0
ARC
  5
   209
  8
0
  6
CONTINUOUS
 62
     7
 10
180.435399920708
 20
-234.757769332112
 30
0.0
 40
2.25009926121912
 50
180.004552853546
 51
359.995413958505
  0
LINE
  5
   20A
  8
0
  6
CONTINUOUS
 62
     7
 10
174.060402238668
 20
-217.657948255674
 30
0.0
 11
174.060402238668
 21
-214.657948970929
 31
0.0
  0
LINE
  5
   20B
  8
0
  6
CONTINUOUS
 62
     7
 10
186.810402238668
 20
-217.657948255674
 30
0.0
 11
186.810402238668
 21
-214.657948970929
 31
0.0
  0
LINE
  5
   20C
  8
0
  6
CONTINUOUS
 62
     7
 10
174.060402238668
 20
-235.657948255674
 30
0.0
 11
174.060402238668
 21
-232.657948255674
 31
0.0
  0
LINE
  5
   20D
  8
0
  6
CONTINUOUS
 62
     7
 10
186.810402238668
 20
-235.657948255674
 30
0.0
 11
186.810402238668
 21
-232.657948255674
 31
0.0
  0
LINE
  5
   20E
  8
0
  6
DASHDOT
 62
     7
 10
180.435385876328
 20
-218.745428441145
 30
0.0
 11
180.435385876328
 21
-212.37046036827
 31
0.0
  0
LINE
  5
   20F
  8
0
  6
DASHDOT
 62
     7
 10
177.24790183989
 20
-215.557944404708
 30
0.0
 11
183.622869912765
 21
-215.557944404708
 31
0.0
  0
LINE
  5
   210
  8
0
  6
DASHDOT
 62
     7
 10
180.435410471472
 20
-237.945448451959
 30
0.0
 11
180.435410471472
 21
-231.570408126866
 31
0.0
  0
LINE
  5
   211
  8
0
  6
DASHDOT
 62
     7
 10
177.247890308926
 20
-234.757928289413
 30
0.0
 11
183.622930634019
 21
-234.757928289413
 31
0.0
  0
LINE
  5
   212
  8
0
  6
CONTINUOUS
 62
     7
 10
189.810402238668
 20
-218.865448255674
 30
0.0
 11
189.810402238668
 21
-217.657948255674
 31
0.0
  0
LINE
  5
   213
  8
0
  6
CONTINUOUS
 62
     7
 10
189.810402238668
 20
-222.675448255674
 30
0.0
 11
189.810402238668
 21
-219.840448255674
 31
0.0
  0
LINE
  5
   214
  8
0
  6
CONTINUOUS
 62
     7
 10
189.810402238668
 20
-226.485448255674
 30
0.0
 11
189.810402238668
 21
-223.650448255674
 31
0.0
  0
LINE
  5
   215
  8
0
  6
CONTINUOUS
 62
     7
 10
189.810402238668
 20
-230.295448255674
 30
0.0
 11
189.810402238668
 21
-227.460448255674
 31
0.0
  0
LINE
  5
   216
  8
0
  6
CONTINUOUS
 62
     1
 10
160.948577880859
 20
-218.880448255674
 30
0.0
 11
160.948577880859
 21
-199.86375617981
 31
0.0
  0
LINE
  5
   217
  8
0
  6
CONTINUOUS
 62
     7
 10
172.560402238668
 20
-218.511029744053
 30
0.0
 11
172.560402238668
 21
-217.657948255674
 31
0.0
  0
LINE
  5
   218
  8
0
  6
CONTINUOUS
 62
     7
 10
171.060402238668
 20
-219.304484760187
 30
0.0
 11
171.060402238668
 21
-217.657948255674
 31
0.0
  0
LINE
  5
   219
  8
0
  6
CONTINUOUS
 62
     7
 10
172.560402238668
 20
-232.657948255674
 30
0.0
 11
172.560402238668
 21
-224.124866767294
 31
0.0
  0
LINE
  5
   21A
  8
0
  6
CONTINUOUS
 62
     7
 10
171.060402238668
 20
-221.334884266122
 30
0.0
 11
171.060402238668
 21
-221.301012245225
 31
0.0
  0
LINE
  5
   21B
  8
0
  6
CONTINUOUS
 62
     7
 10
172.560402238668
 20
-221.940607216442
 30
0.0
 11
172.560402238668
 21
-220.695289294905
 31
0.0
  0
ARC
  5
   21C
  8
0
  6
DOT
 62
     1
 10
145.948574733809
 20
-214.113761986496
 30
0.0
 40
4.12499744734705
 50
341.963226716816
 51
360.0
  0
CIRCLE
  5
   21D
  8
0
  6
CONTINUOUS
 62
     1
 10
145.948574733809
 20
-214.113761986496
 30
0.0
 40
4.12499744734705
  0
LINE
  5
   21E
  8
0
  6
CONTINUOUS
 62
   210
 10
160.948577880859
 20
-142.11375617981
 30
0.0
 11
161.323577880859
 21
-142.11375617981
 31
0.0
  0
LINE
  5
   21F
  8
0
  6
CONTINUOUS
 62
   210
 10
130.948577880859
 20
-142.11375617981
 30
0.0
 11
160.948577880859
 21
-142.11375617981
 31
0.0
  0
LINE
  5
   220
  8
0
  6
CONTINUOUS
 62
   130
 10
130.948577880859
 20
-199.863757610321
 30
0.0
 11
133.198577880859
 21
-199.863757610321
 31
0.0
  0
LINE
  5
   221
  8
0
  6
CONTINUOUS
 62
   130
 10
160.948577880859
 20
-199.863757610321
 30
0.0
 11
163.198577880859
 21
-199.863757610321
 31
0.0
  0
LINE
  5
   222
  8
0
  6
CONTINUOUS
 62
   210
 10
163.948578917568
 20
-152.61375617981
 30
0.0
 11
172.198577880859
 21
-152.61375617981
 31
0.0
  0
LINE
  5
   223
  8
0
  6
CONTINUOUS
 62
   210
 10
127.948578851787
 20
-152.61375617981
 30
0.0
 11
163.948578917568
 21
-152.61375617981
 31
0.0
  0
LINE
  5
   224
  8
0
  6
CONTINUOUS
 62
   130
 10
127.948580931422
 20
-189.363757252693
 30
0.0
 11
163.948578472685
 21
-189.363757252693
 31
0.0
  0
LINE
  5
   225
  8
0
  6
CONTINUOUS
 62
   130
 10
163.948578472685
 20
-189.363757252693
 30
0.0
 11
172.198577469836
 21
-189.363757252693
 31
0.0
  0
POINT
  5
   226
  8
0
  6
CONTINUOUS
 62
     7
 10
142.198494624429
 20
-163.563757324219
 30
0.0
  0
LINE
  5
   227
  8
0
  6
CONTINUOUS
 62
   130
 10
117.823577880859
 20
-180.176257610321
 30
0.0
 11
117.823577880859
 21
-170.988757252693
 31
0.0
  0
LINE
  5
   228
  8
0
  6
CONTINUOUS
 62
     1
 10
130.948577880859
 20
-218.880448255674
 30
0.0
 11
130.948577880859
 21
-199.86375617981
 31
0.0
  0
LINE
  5
   229
  8
0
  6
CONTINUOUS
 62
   130
 10
139.948577880859
 20
-180.237461385797
 30
0.0
 11
139.948577880859
 21
-170.988757252693
 31
0.0
  0
LINE
  5
   22A
  8
0
  6
CONTINUOUS
 62
   130
 10
137.886077880859
 20
-170.988757610321
 30
0.0
 11
140.323577880859
 21
-170.988757610321
 31
0.0
  0
LINE
  5
   22B
  8
0
  6
CONTINUOUS
 62
   130
 10
139.948577880859
 20
-189.363757252693
 30
0.0
 11
139.948577880859
 21
-184.997052708641
 31
0.0
  0
ARC
  5
   22C
  8
0
  6
CONTINUOUS
 62
     7
 10
149.698577880859
 20
-163.563757324219
 30
0.0
 40
0.975000000000003
 50
0.0
 51
180.0
  0
ARC
  5
   22D
  8
0
  6
CONTINUOUS
 62
     7
 10
142.198494624429
 20
-163.563757324219
 30
0.0
 40
0.975000000000003
 50
0.0
 51
180.0
  0
LINE
  5
   22E
  8
0
  6
CONTINUOUS
 62
     7
 10
150.673577880859
 20
-168.709671971746
 30
0.0
 11
150.673577880859
 21
-163.563757324219
 31
0.0
  0
LINE
  5
   22F
  8
0
  6
CONTINUOUS
 62
     7
 10
148.723577880859
 20
-168.709671971746
 30
0.0
 11
148.723577880859
 21
-163.563757324219
 31
0.0
  0
LINE
  5
   230
  8
0
  6
CONTINUOUS
 62
     7
 10
143.173494624429
 20
-168.709671971746
 30
0.0
 11
143.173494624429
 21
-163.563757324219
 31
0.0
  0
LINE
  5
   231
  8
0
  6
CONTINUOUS
 62
     7
 10
141.223494624429
 20
-168.709671971746
 30
0.0
 11
141.223494624429
 21
-163.563757324219
 31
0.0
  0
LINE
  5
   232
  8
0
  6
CONTINUOUS
 62
     7
 10
172.365271442461
 20
-220.807948112622
 30
0.0
 11
172.560407960714
 21
-220.807948112622
 31
0.0
  0
LINE
  5
   233
  8
0
  6
CONTINUOUS
 62
     7
 10
164.255462899375
 20
-225.797576325996
 30
0.0
 11
164.255462899375
 21
-216.681706782525
 31
0.0
  0
LINE
  5
   234
  8
0
  6
CONTINUOUS
 62
     7
 10
166.483217534999
 20
-225.695150825508
 30
0.0
 11
166.483217534999
 21
-217.552323536676
 31
0.0
  0
LINE
  5
   235
  8
0
  6
CONTINUOUS
 62
     7
 10
173.397617476646
 20
-218.377948255674
 30
0.0
 11
175.185402238668
 21
-218.377948255674
 31
0.0
  0
LINE
  5
   236
  8
0
  6
CONTINUOUS
 62
     7
 10
173.397617476646
 20
-220.327948255674
 30
0.0
 11
175.185402238668
 21
-220.327948255674
 31
0.0
  0
LINE
  5
   237
  8
0
  6
CONTINUOUS
 62
     7
 10
173.397617476646
 20
-222.307948255674
 30
0.0
 11
175.185402238668
 21
-222.307948255674
 31
0.0
  0
LINE
  5
   238
  8
0
  6
CONTINUOUS
 62
     7
 10
173.397617476646
 20
-224.257948255674
 30
0.0
 11
175.185402238668
 21
-224.257948255674
 31
0.0
  0
LINE
  5
   239
  8
0
  6
CONTINUOUS
 62
   130
 10
138.073577880859
 20
-189.363757252693
 30
0.0
 11
138.073577880859
 21
-184.908189309761
 31
0.0
  0
LINE
  5
   23A
  8
0
  6
CONTINUOUS
 62
   130
 10
134.323577880859
 20
-189.363757252693
 30
0.0
 11
134.323577880859
 21
-184.908189309761
 31
0.0
  0
LINE
  5
   23B
  8
0
  6
CONTINUOUS
 62
   130
 10
138.073577880859
 20
-180.321658868813
 30
0.0
 11
138.073577880859
 21
-170.988757610321
 31
0.0
  0
LINE
  5
   23C
  8
0
  6
CONTINUOUS
 62
   130
 10
134.323577880859
 20
-180.321658868813
 30
0.0
 11
134.323577880859
 21
-170.988757610321
 31
0.0
  0
LINE
  5
   23D
  8
0
  6
CONTINUOUS
 62
     7
 10
118.112103121227
 20
-180.176257610321
 30
0.0
 11
131.085626461104
 21
-180.176257610321
 31
0.0
  0
LINE
  5
   23E
  8
0
  6
CONTINUOUS
 62
     7
 10
118.112103121227
 20
-185.051257610321
 30
0.0
 11
131.304865262038
 21
-185.051257610321
 31
0.0
  0
LINE
  5
   23F
  8
0
  6
CONTINUOUS
 62
     7
 10
143.589818927799
 20
-169.381356815611
 30
0.0
 11
144.449768760512
 21
-169.808557700249
 31
0.0
  0
LINE
  5
   240
  8
0
  6
CONTINUOUS
 62
     7
 10
142.722262116562
 20
-171.127737409661
 30
0.0
 11
143.582211949274
 21
-171.554938294299
 31
0.0
  0
LINE
  5
   241
  8
0
  6
CONTINUOUS
 62
     7
 10
145.948536252644
 20
-172.413757324219
 30
0.0
 11
145.948536252644
 21
-172.226623138165
 31
0.0
  0
LINE
  5
   242
  8
0
  6
CONTINUOUS
 62
     7
 10
143.998536252644
 20
-172.413757324219
 30
0.0
 11
143.998536252644
 21
-172.226623138165
 31
0.0
  0
ARC
  5
   243
  8
0
  6
CONTINUOUS
 62
     7
 10
143.923494624429
 20
-168.709671971746
 30
0.0
 40
0.75
 50
180.0
 51
243.582999603266
  0
ARC
  5
   244
  8
0
  6
CONTINUOUS
 62
     7
 10
143.248536252644
 20
-172.226623138165
 30
0.0
 40
0.75
 50
0.0
 51
63.5829996032664
  0
ARC
  5
   245
  8
0
  6
CONTINUOUS
 62
     7
 10
143.923494624429
 20
-168.709671971746
 30
0.0
 40
2.7
 50
180.0
 51
243.582999603266
  0
ARC
  5
   246
  8
0
  6
CONTINUOUS
 62
     7
 10
143.248536252644
 20
-172.226623138165
 30
0.0
 40
2.7
 50
0.0
 51
63.5829996032664
  0
ARC
  5
   247
  8
0
  6
CONTINUOUS
 62
     7
 10
147.973577880859
 20
-168.709671971746
 30
0.0
 40
0.75
 50
296.417000396734
 51
360.0
  0
LINE
  5
   248
  8
0
  6
CONTINUOUS
 62
     7
 10
147.447303744777
 20
-169.808557700249
 30
0.0
 11
148.307253577489
 21
-169.381356815611
 31
0.0
  0
ARC
  5
   249
  8
0
  6
CONTINUOUS
 62
     7
 10
148.648536252644
 20
-172.226623138165
 30
0.0
 40
2.7
 50
116.417000396734
 51
180.0
  0
LINE
  5
   24A
  8
0
  6
CONTINUOUS
 62
     7
 10
147.898536252644
 20
-172.413757324219
 30
0.0
 11
147.898536252644
 21
-172.226623138165
 31
0.0
  0
ARC
  5
   24B
  8
0
  6
CONTINUOUS
 62
     7
 10
148.648536252644
 20
-172.226623138165
 30
0.0
 40
0.75
 50
116.417000396734
 51
180.0
  0
ARC
  5
   24C
  8
0
  6
CONTINUOUS
 62
     7
 10
147.973577880859
 20
-168.709671971746
 30
0.0
 40
2.7
 50
296.417000396734
 51
360.0
  0
LINE
  5
   24D
  8
0
  6
CONTINUOUS
 62
     7
 10
148.314860556014
 20
-171.554938294299
 30
0.0
 11
149.174810388727
 21
-171.127737409661
 31
0.0
  0
LINE
  5
   24E
  8
0
  6
CONTINUOUS
 62
     7
 10
143.511036252644
 20
-172.413757324219
 30
0.0
 11
148.386036252644
 21
-172.413757324219
 31
0.0
  0
LINE
  5
   24F
  8
0
  6
CONTINUOUS
 62
     7
 10
148.386036252644
 20
-177.926257610321
 30
0.0
 11
148.386036252644
 21
-172.413757324219
 31
0.0
  0
LINE
  5
   250
  8
0
  6
CONTINUOUS
 62
     7
 10
143.511036252644
 20
-177.926257610321
 30
0.0
 11
143.511036252644
 21
-172.413757324219
 31
0.0
  0
ARC
  5
   251
  8
0
  6
CONTINUOUS
 62
     7
 10
141.261036252644
 20
-177.926257610321
 30
0.0
 40
2.25
 50
270.0
 51
360.0
  0
ARC
  5
   252
  8
0
  6
CONTINUOUS
 62
     7
 10
141.261036252644
 20
-177.926257610321
 30
0.0
 40
7.125
 50
267.286564955015
 51
360.0
  0
LINE
  5
   253
  8
0
  6
CONTINUOUS
 62
     7
 10
115.862103121227
 20
-216.630448255674
 30
0.0
 11
115.862103121227
 21
-187.301257610321
 31
0.0
  0
LINE
  5
   254
  8
0
  6
CONTINUOUS
 62
     7
 10
110.987103121227
 20
-216.630448255674
 30
0.0
 11
110.987103121227
 21
-187.301257610321
 31
0.0
  0
ARC
  5
   255
  8
0
  6
CONTINUOUS
 62
     7
 10
118.112103121227
 20
-187.301257610321
 30
0.0
 40
7.125
 50
90.0
 51
180.0
  0
ARC
  5
   256
  8
0
  6
CONTINUOUS
 62
     7
 10
118.112103121227
 20
-187.301257610321
 30
0.0
 40
2.25
 50
90.0
 51
180.0
  0
LINE
  5
   257
  8
0
  6
CONTINUOUS
 62
     7
 10
168.83362270616
 20
-221.317948255674
 30
0.0
 11
170.758462463265
 21
-221.317948255674
 31
0.0
  0
LINE
  5
   258
  8
0
  6
CONTINUOUS
 62
     7
 10
118.112103121227
 20
-218.880448255674
 30
0.0
 11
164.255462899375
 21
-218.880448255674
 31
0.0
  0
LINE
  5
   259
  8
0
  6
CONTINUOUS
 62
     7
 10
118.112103121227
 20
-223.755448255674
 30
0.0
 11
164.255462899375
 21
-223.755448255674
 31
0.0
  0
ARC
  5
   25A
  8
0
  6
CONTINUOUS
 62
     7
 10
118.112103121227
 20
-216.630448255674
 30
0.0
 40
2.25
 50
180.0
 51
270.0
  0
ARC
  5
   25B
  8
0
  6
CONTINUOUS
 62
     7
 10
118.112103121227
 20
-216.630448255674
 30
0.0
 40
7.125
 50
180.0
 51
270.0
  0
LINE
  5
   25C
  8
0
  6
CONTINUOUS
 62
     7
 10
135.261077880859
 20
-179.613757610321
 30
0.0
 11
137.136077880859
 21
-179.613757610321
 31
0.0
  0
LINE
  5
   25D
  8
0
  6
CONTINUOUS
 62
     7
 10
135.261077880859
 20
-185.613757610321
 30
0.0
 11
137.136077880859
 21
-185.613757610321
 31
0.0
  0
LINE
  5
   25E
  8
0
  6
CONTINUOUS
 62
     7
 10
137.136077880859
 20
-185.613757610321
 30
0.0
 11
137.136077880859
 21
-184.488757610321
 31
0.0
  0
LINE
  5
   25F
  8
0
  6
CONTINUOUS
 62
     7
 10
135.261077880859
 20
-185.613757610321
 30
0.0
 11
135.261077880859
 21
-184.488757610321
 31
0.0
  0
LINE
  5
   260
  8
0
  6
CONTINUOUS
 62
     7
 10
137.136077880859
 20
-180.363757610321
 30
0.0
 11
141.361971516134
 21
-180.173992486276
 31
0.0
  0
LINE
  5
   261
  8
0
  6
CONTINUOUS
 62
     7
 10
137.136077880859
 20
-184.863757610321
 30
0.0
 11
140.923733944167
 21
-185.043269072494
 31
0.0
  0
LINE
  5
   262
  8
0
  6
CONTINUOUS
 62
     7
 10
131.085626461104
 20
-180.176257610321
 30
0.0
 11
135.261077880859
 21
-180.363757610321
 31
0.0
  0
LINE
  5
   263
  8
0
  6
CONTINUOUS
 62
     7
 10
131.304865262038
 20
-185.051257610321
 30
0.0
 11
135.261077880859
 21
-184.863757610321
 31
0.0
  0
LINE
  5
   264
  8
0
  6
CONTINUOUS
 62
     7
 10
138.448577880859
 20
-184.488757610321
 30
0.0
 11
138.448577880859
 21
-180.738757610321
 31
0.0
  0
LINE
  5
   265
  8
0
  6
CONTINUOUS
 62
     7
 10
133.948577880859
 20
-184.488757610321
 30
0.0
 11
133.948577880859
 21
-180.738757610321
 31
0.0
  0
LINE
  5
   266
  8
0
  6
CONTINUOUS
 62
     7
 10
133.948577880859
 20
-180.738757610321
 30
0.0
 11
138.448577880859
 21
-180.738757610321
 31
0.0
  0
LINE
  5
   267
  8
0
  6
CONTINUOUS
 62
     7
 10
133.948577880859
 20
-184.488757610321
 30
0.0
 11
138.448577880859
 21
-184.488757610321
 31
0.0
  0
LINE
  5
   268
  8
0
  6
CONTINUOUS
 62
     7
 10
135.261077880859
 20
-180.738757610321
 30
0.0
 11
135.261077880859
 21
-179.613757610321
 31
0.0
  0
LINE
  5
   269
  8
0
  6
CONTINUOUS
 62
     7
 10
137.136077880859
 20
-180.738757610321
 30
0.0
 11
137.136077880859
 21
-179.613757610321
 31
0.0
  0
LINE
  5
   26A
  8
0
  6
CONTINUOUS
 62
     7
 10
138.073577880859
 20
-184.113757610321
 30
0.0
 11
138.073577880859
 21
-181.113757610321
 31
0.0
  0
LINE
  5
   26B
  8
0
  6
CONTINUOUS
 62
     7
 10
134.323577880859
 20
-184.113757610321
 30
0.0
 11
134.323577880859
 21
-181.113757610321
 31
0.0
  0
LINE
  5
   26C
  8
0
  6
CONTINUOUS
 62
     7
 10
134.323577880859
 20
-181.113757610321
 30
0.0
 11
138.073577880859
 21
-181.113757610321
 31
0.0
  0
LINE
  5
   26D
  8
0
  6
CONTINUOUS
 62
     7
 10
134.323577880859
 20
-184.113757610321
 30
0.0
 11
138.073577880859
 21
-184.113757610321
 31
0.0
  0
LINE
  5
   26E
  8
0
  6
CONTINUOUS
 62
     7
 10
133.948577880859
 20
-180.738757610321
 30
0.0
 11
134.323577880859
 21
-181.113757610321
 31
0.0
  0
LINE
  5
   26F
  8
0
  6
CONTINUOUS
 62
     7
 10
133.948577880859
 20
-184.488757610321
 30
0.0
 11
134.323577880859
 21
-184.113757610321
 31
0.0
  0
LINE
  5
   270
  8
0
  6
CONTINUOUS
 62
     7
 10
138.073577880859
 20
-184.113757610321
 30
0.0
 11
138.448577880859
 21
-184.488757610321
 31
0.0
  0
LINE
  5
   271
  8
0
  6
CONTINUOUS
 62
     7
 10
138.073577880859
 20
-181.113757610321
 30
0.0
 11
138.448577880859
 21
-180.738757610321
 31
0.0
  0
LINE
  5
   272
  8
0
  6
CONTINUOUS
 62
     7
 10
137.511077880859
 20
-183.551257610321
 30
0.0
 11
137.511077880859
 21
-181.676257610321
 31
0.0
  0
LINE
  5
   273
  8
0
  6
CONTINUOUS
 62
     7
 10
134.886077880859
 20
-183.551257610321
 30
0.0
 11
134.886077880859
 21
-181.676257610321
 31
0.0
  0
LINE
  5
   274
  8
0
  6
CONTINUOUS
 62
     7
 10
134.886077880859
 20
-181.676257610321
 30
0.0
 11
137.511077880859
 21
-181.676257610321
 31
0.0
  0
LINE
  5
   275
  8
0
  6
CONTINUOUS
 62
     7
 10
134.886077880859
 20
-183.551257610321
 30
0.0
 11
137.511077880859
 21
-183.551257610321
 31
0.0
  0
LINE
  5
   276
  8
0
  6
CONTINUOUS
 62
     7
 10
135.264550182484
 20
-182.301257610321
 30
0.0
 11
137.132605579235
 21
-182.301257610321
 31
0.0
  0
LINE
  5
   277
  8
0
  6
CONTINUOUS
 62
     7
 10
135.264550182484
 20
-182.926257610321
 30
0.0
 11
137.132605579235
 21
-182.926257610321
 31
0.0
  0
LINE
  5
   278
  8
0
  6
CONTINUOUS
 62
     7
 10
137.132605579235
 20
-182.926257610321
 30
0.0
 11
137.132605579235
 21
-181.72223074783
 31
0.0
  0
LINE
  5
   279
  8
0
  6
CONTINUOUS
 62
     7
 10
135.264550182484
 20
-182.926257610321
 30
0.0
 11
135.264550182484
 21
-181.72223074783
 31
0.0
  0
LINE
  5
   27A
  8
0
  6
CONTINUOUS
 62
     7
 10
137.132605579235
 20
-182.457507610321
 30
0.0
 11
137.511077880859
 21
-182.457507610321
 31
0.0
  0
LINE
  5
   27B
  8
0
  6
CONTINUOUS
 62
     7
 10
134.886077880859
 20
-182.457507610321
 30
0.0
 11
135.264550182484
 21
-182.457507610321
 31
0.0
  0
LINE
  5
   27C
  8
0
  6
CONTINUOUS
 62
     7
 10
168.83362270616
 20
-223.755448255674
 30
0.0
 11
168.83362270616
 21
-218.880448255674
 31
0.0
  0
LINE
  5
   27D
  8
0
  6
CONTINUOUS
 62
     7
 10
166.483217534999
 20
-218.880448255674
 30
0.0
 11
168.83362270616
 21
-218.880448255674
 31
0.0
  0
LINE
  5
   27E
  8
0
  6
CONTINUOUS
 62
     7
 10
166.483217534999
 20
-223.755448255674
 30
0.0
 11
168.83362270616
 21
-223.755448255674
 31
0.0
  0
LINE
  5
   27F
  8
0
  6
CONTINUOUS
 62
     7
 10
168.83362270616
 20
-219.367948255674
 30
0.0
 11
170.758462463265
 21
-219.367948255674
 31
0.0
  0
LINE
  5
   280
  8
0
  6
CONTINUOUS
 62
     7
 10
171.133462463265
 20
-219.267467308512
 30
0.0
 11
172.047617476646
 21
-218.739679665456
 31
0.0
  0
LINE
  5
   281
  8
0
  6
CONTINUOUS
 62
     7
 10
172.108462463265
 20
-220.956216845892
 30
0.0
 11
173.022617476646
 21
-220.428429202835
 31
0.0
  0
ARC
  5
   282
  8
0
  6
CONTINUOUS
 62
     7
 10
170.758462463265
 20
-218.617948255674
 30
0.0
 40
0.75
 50
270.0
 51
300.0
  0
ARC
  5
   283
  8
0
  6
CONTINUOUS
 62
     7
 10
173.397617476646
 20
-221.077948255674
 30
0.0
 40
0.75
 50
90.0
 51
120.0
  0
ARC
  5
   284
  8
0
  6
CONTINUOUS
 62
     7
 10
170.758462463265
 20
-218.617948255674
 30
0.0
 40
2.7
 50
270.0
 51
300.0
  0
ARC
  5
   285
  8
0
  6
CONTINUOUS
 62
     7
 10
173.397617476646
 20
-221.077948255674
 30
0.0
 40
2.7
 50
90.0
 51
120.0
  0
ARC
  5
   286
  8
0
  6
CONTINUOUS
 62
     7
 10
173.397617476646
 20
-221.557948255674
 30
0.0
 40
2.7
 50
240.0
 51
270.0
  0
ARC
  5
   287
  8
0
  6
CONTINUOUS
 62
     7
 10
173.397617476646
 20
-221.557948255674
 30
0.0
 40
0.75
 50
240.0
 51
270.0
  0
ARC
  5
   288
  8
0
  6
CONTINUOUS
 62
     7
 10
170.758462463265
 20
-224.017948255674
 30
0.0
 40
2.7
 50
60.0
 51
90.0
  0
LINE
  5
   289
  8
0
  6
CONTINUOUS
 62
     7
 10
171.133462463265
 20
-223.368429202835
 30
0.0
 11
172.047617476646
 21
-223.896216845892
 31
0.0
  0
ARC
  5
   28A
  8
0
  6
CONTINUOUS
 62
     7
 10
170.758462463265
 20
-224.017948255674
 30
0.0
 40
0.75
 50
60.0000000000001
 51
90.0
  0
LINE
  5
   28B
  8
0
  6
CONTINUOUS
 62
     7
 10
168.83362270616
 20
-223.267948255674
 30
0.0
 11
170.758462463265
 21
-223.267948255674
 31
0.0
  0
LINE
  5
   28C
  8
0
  6
CONTINUOUS
 62
     7
 10
172.108462463265
 20
-221.679679665456
 30
0.0
 11
173.022617476646
 21
-222.207467308512
 31
0.0
  0
LINE
  5
   28D
  8
0
  6
CONTINUOUS
 62
   210
 10
135.261077880859
 20
-179.238757610321
 30
0.0
 11
137.136077880859
 21
-179.238757610321
 31
0.0
  0
LINE
  5
   28E
  8
0
  6
CONTINUOUS
 62
   210
 10
134.511077880859
 20
-178.488757610321
 30
0.0
 11
134.511077880859
 21
-170.988757610321
 31
0.0
  0
LINE
  5
   28F
  8
0
  6
CONTINUOUS
 62
   210
 10
137.886077880859
 20
-178.488757610321
 30
0.0
 11
137.886077880859
 21
-170.988757610321
 31
0.0
  0
ARC
  5
   290
  8
0
  6
CONTINUOUS
 62
   210
 10
135.261077880859
 20
-178.488757610321
 30
0.0
 40
0.75
 50
180.0
 51
270.0
  0
ARC
  5
   291
  8
0
  6
CONTINUOUS
 62
   210
 10
137.136077880859
 20
-178.488757610321
 30
0.0
 40
0.75
 50
270.0
 51
360.0
  0
POINT
  5
   292
  8
0
  6
CONTINUOUS
 62
     7
 10
142.198494624429
 20
-163.563757324219
 30
0.0
  0
POINT
  5
   293
  8
0
  6
CONTINUOUS
 62
     7
 10
150.073562161495
 20
-232.863750124392
 30
0.0
  0
POINT
  5
   294
  8
0
  6
CONTINUOUS
 62
     7
 10
141.823579987777
 20
-232.863750124392
 30
0.0
  0
TEXT
  5
   295
  8
0
  6
CONTINUOUS
 62
     7
 10
141.641808694229
 20
-158.066888842732
 30
0.0
 40
1.50000006705523
  1
6
 41
0.916666646301747
 72
     1
 11
142.191808700562
 21
-157.316888809204
 31
0.0
 73
     2
  0
TEXT
  5
   296
  8
0
  6
CONTINUOUS
 62
     7
 10
148.954308694229
 20
-158.066888842732
 30
0.0
 40
1.50000006705523
  1
5
 41
0.916666646301747
 72
     1
 11
149.504308700562
 21
-157.316888809204
 31
0.0
 73
     2
  0
INSERT
  5
   297
  8
0
  6
CONTINUOUS
 62
     7
  2
*UDIM128
 10
0.0
 20
0.0
 30
0.0
  0
INSERT
  5
   298
  8
0
  6
CONTINUOUS
 62
     7
  2
*UDIM129
 10
0.0
 20
0.0
 30
0.0
  0
INSERT
  5
   299
  8
0
  6
CONTINUOUS
 62
     7
  2
*UDIM130
 10
0.0
 20
0.0
 30
0.0
  0
INSERT
  5
   29A
  8
0
  6
CONTINUOUS
 62
     7
  2
*UDIM131
 10
0.0
 20
0.0
 30
0.0
  0
INSERT
  5
   29B
  8
0
  6
CONTINUOUS
 62
     7
  2
*UDIM132
 10
0.0
 20
0.0
 30
0.0
  0
INSERT
  5
   29C
  8
0
  6
CONTINUOUS
 62
     7
  2
*UDIM133
 10
0.0
 20
0.0
 30
0.0
  0
INSERT
  5
   29D
  8
0
  6
CONTINUOUS
 62
     7
  2
*UDIM134
 10
0.0
 20
0.0
 30
0.0
  0
INSERT
  5
   29E
  8
0
  6
CONTINUOUS
 62
     7
  2
*UDIM135
 10
0.0
 20
0.0
 30
0.0
  0
INSERT
  5
   29F
  8
0
  6
CONTINUOUS
 62
     7
  2
*UDIM136
 10
0.0
 20
0.0
 30
0.0
  0
INSERT
  5
   2A0
  8
0
  6
CONTINUOUS
 62
     7
  2
*UDIM137
 10
0.0
 20
0.0
 30
0.0
  0
INSERT
  5
   2A1
  8
0
  6
CONTINUOUS
 62
     7
  2
*UDIM138
 10
0.0
 20
0.0
 30
0.0
  0
INSERT
  5
   2A2
  8
0
  6
CONTINUOUS
 62
     7
  2
*UDIM139
 10
0.0
 20
0.0
 30
0.0
  0
INSERT
  5
   2A3
  8
0
  6
CONTINUOUS
 62
     7
  2
*UDIM140
 10
0.0
 20
0.0
 30
0.0
  0
INSERT
  5
   2A4
  8
0
  6
CONTINUOUS
 62
     7
  2
*UDIM141
 10
0.0
 20
0.0
 30
0.0
  0
INSERT
  5
   2A5
  8
0
  6
CONTINUOUS
 62
     7
  2
*UDIM142
 10
0.0
 20
0.0
 30
0.0
  0
TEXT
  5
   2A6
  8
0
  6
CONTINUOUS
 62
     7
 10
207.255166028999
 20
-225.822950396687
 30
0.0
 40
1.50000006705523
  1
X3
 41
0.916666646301747
 72
     1
 11
208.492666050792
 21
-225.072950363159
 31
0.0
 73
     2
  0
TEXT
  5
   2A7
  8
0
  6
CONTINUOUS
 62
     7
 10
181.185402909717
 20
-220.22044850327
 30
0.0
 40
1.50000006705523
  1
6
 50
90.0
 41
0.916666646301747
 72
     1
 11
180.435402876189
 21
-219.670448496938
 31
0.0
 73
     2
  0
TEXT
  5
   2A8
  8
0
  6
CONTINUOUS
 62
     7
 10
181.185402909717
 20
-223.97044850327
 30
0.0
 40
1.50000006705523
  1
5
 50
90.0
 41
0.916666646301747
 72
     1
 11
180.435402876189
 21
-223.420448496938
 31
0.0
 73
     2
  0
TEXT
  5
   2A9
  8
0
  6
CONTINUOUS
 62
     7
 10
181.185402909717
 20
-227.72044850327
 30
0.0
 40
1.50000006705523
  1
4
 50
90.0
 41
0.916666646301747
 72
     1
 11
180.435402876189
 21
-227.170448496938
 31
0.0
 73
     2
  0
TEXT
  5
   2AA
  8
0
  6
CONTINUOUS
 62
     7
 10
181.185402909717
 20
-231.47044850327
 30
0.0
 40
1.50000006705523
  1
1
 50
90.0
 41
0.916666646301747
 72
     1
 11
180.435402876189
 21
-230.920448496938
 31
0.0
 73
     2
  0
TEXT
  5
   2AB
  8
0
  6
CONTINUOUS
 62
     7
 10
156.556033469737
 20
-166.327346552163
 30
0.0
 40
1.40000007301569
  1
 630 A
 41
0.714285712689162
 72
     1
 11
159.456033609808
 21
-165.627346515656
 31
0.0
 73
     2
  0
TEXT
  5
   2AC
  8
0
  6
CONTINUOUS
 62
     7
 10
156.556033469737
 20
-170.077345121652
 30
0.0
 40
1.40000007301569
  1
 800 A
 41
0.714285712689162
 72
     1
 11
159.456033609808
 21
-169.377345085144
 31
0.0
 73
     2
  0
TEXT
  5
   2AD
  8
0
  6
CONTINUOUS
 62
     7
 10
156.556033469737
 20
-173.82734369114
 30
0.0
 40
1.40000007301569
  1
1000 A
 41
0.714285712689162
 72
     1
 11
159.456033609808
 21
-173.127343654633
 31
0.0
 73
     2
  0
TEXT
  5
   2AE
  8
0
  6
CONTINUOUS
 62
     7
 10
156.556033469737
 20
-177.577342260629
 30
0.0
 40
1.40000007301569
  1
1250 A
 41
0.714285712689162
 72
     1
 11
159.456033609808
 21
-176.877342224121
 31
0.0
 73
     2
  0
TEXT
  5
   2AF
  8
0
  6
CONTINUOUS
 62
     7
 10
156.556033469737
 20
-181.32734047249
 30
0.0
 40
1.40000007301569
  1
1600 A
 41
0.714285712689162
 72
     1
 11
159.456033609808
 21
-180.627340435982
 31
0.0
 73
     2
  0
TEXT
  5
   2B0
  8
0
  6
CONTINUOUS
 62
     7
 10
161.38607796724
 20
-162.64500715211
 30
0.0
 40
2.0000000372529
  1
In
 41
0.812499943189324
 72
     1
 11
162.84857788682
 21
-161.645007133484
 31
0.0
 73
     2
  0
TEXT
  5
   2B1
  8
0
  6
CONTINUOUS
 62
     7
 10
159.761078050593
 20
-185.707502592355
 30
0.0
 40
2.0000000372529
  1
LOAD
 41
0.812499943189324
 72
     1
 11
162.84857788682
 21
-184.707502573729
 31
0.0
 73
     2
  0
TEXT
  5
   2B2
  8
0
  6
CONTINUOUS
 62
     7
 10
159.761078050593
 20
-158.332501430064
 30
0.0
 40
2.0000000372529
  1
LINE
 41
0.812499943189324
 72
     1
 11
162.84857788682
 21
-157.332501411438
 31
0.0
 73
     2
  0
LINE
  5
   2B3
  8
0
  6
CONTINUOUS
 62
     2
 10
332.745269775391
 20
-165.663757324219
 30
0.0
 11
332.745269775391
 21
-171.663757324219
 31
0.0
  0
LINE
  5
   2B4
  8
0
  6
CONTINUOUS
 62
     2
 10
331.245269775391
 20
-165.663757324219
 30
0.0
 11
332.745269775391
 21
-165.663757324219
 31
0.0
  0
LINE
  5
   2B5
  8
0
  6
CONTINUOUS
 62
     2
 10
331.245269775391
 20
-157.413757324219
 30
0.0
 11
331.245269775391
 21
-165.663757324219
 31
0.0
  0
LINE
  5
   2B6
  8
0
  6
CONTINUOUS
 62
     2
 10
331.245269775391
 20
-157.413757324219
 30
0.0
 11
339.870269775391
 21
-157.413757324219
 31
0.0
  0
LINE
  5
   2B7
  8
0
  6
CONTINUOUS
 62
     2
 10
339.120269775391
 20
-157.413757324219
 30
0.0
 11
339.120269775391
 21
-167.163757324219
 31
0.0
  0
LINE
  5
   2B8
  8
0
  6
CONTINUOUS
 62
     2
 10
339.120270367396
 20
-167.163756916455
 30
0.0
 11
337.245270333869
 21
-171.663756938806
 31
0.0
  0
LINE
  5
   2B9
  8
0
  6
CONTINUOUS
 62
     2
 10
332.745269775391
 20
-171.663757324219
 30
0.0
 11
337.245269775391
 21
-171.663757324219
 31
0.0
  0
LINE
  5
   2BA
  8
0
  6
CONTINUOUS
 62
   130
 10
256.245269775391
 20
-170.988757610321
 30
0.0
 11
332.745269775391
 21
-170.988757610321
 31
0.0
  0
LINE
  5
   2BB
  8
0
  6
CONTINUOUS
 62
   130
 10
337.526519775391
 20
-170.988757610321
 30
0.0
 11
342.495269775391
 21
-170.988757610321
 31
0.0
  0
LINE
  5
   2BC
  8
0
  6
CONTINUOUS
 62
   130
 10
305.745269775391
 20
-189.363757252693
 30
0.0
 11
324.306802921476
 21
-189.363757252693
 31
0.0
  0
LINE
  5
   2BD
  8
0
  6
CONTINUOUS
 62
   130
 10
258.120271205902
 20
-189.363757252693
 30
0.0
 11
274.05873631782
 21
-189.363757252693
 31
0.0
  0
LINE
  5
   2BE
  8
0
  6
CONTINUOUS
 62
   130
 10
342.495269775391
 20
-170.988757610321
 30
0.0
 11
342.495269775391
 21
-187.488757610321
 31
0.0
  0
LINE
  5
   2BF
  8
0
  6
CONTINUOUS
 62
   130
 10
256.245269775391
 20
-170.988757610321
 30
0.0
 11
256.245269775391
 21
-187.488757252693
 31
0.0
  0
LINE
  5
   2C0
  8
0
  6
CONTINUOUS
 62
   130
 10
304.995269775391
 20
-190.113757252693
 30
0.0
 11
304.995269775391
 21
-199.863757252693
 31
0.0
  0
LINE
  5
   2C1
  8
0
  6
CONTINUOUS
 62
   130
 10
292.245269174
 20
-199.863757610321
 30
0.0
 11
295.620269775391
 21
-199.863757610321
 31
0.0
  0
LINE
  5
   2C2
  8
0
  6
CONTINUOUS
 62
   130
 10
293.370269775391
 20
-190.113757252693
 30
0.0
 11
293.370269775391
 21
-199.863757252693
 31
0.0
  0
LINE
  5
   2C3
  8
0
  6
CONTINUOUS
 62
   130
 10
304.995269775391
 20
-199.863757610321
 30
0.0
 11
306.120269775391
 21
-199.863757610321
 31
0.0
  0
LINE
  5
   2C4
  8
0
  6
CONTINUOUS
 62
   130
 10
324.306802269952
 20
-189.363757628851
 30
0.0
 11
306.12026914899
 21
-199.863757610321
 31
0.0
  0
LINE
  5
   2C5
  8
0
  6
CONTINUOUS
 62
   130
 10
274.058737035748
 20
-189.36375766719
 30
0.0
 11
292.245270201644
 21
-199.863758203631
 31
0.0
  0
LINE
  5
   2C6
  8
0
  6
CONTINUOUS
 62
   130
 10
331.432769775391
 20
-170.988757610321
 30
0.0
 11
331.432769775391
 21
-187.488757610321
 31
0.0
  0
LINE
  5
   2C7
  8
0
  6
CONTINUOUS
 62
     3
 10
330.495269775391
 20
-157.413757324219
 30
0.0
 11
331.245269775391
 21
-157.413757324219
 31
0.0
  0
LINE
  5
   2C8
  8
0
  6
CONTINUOUS
 62
     3
 10
330.495269775391
 20
-156.288757324219
 30
0.0
 11
339.870269775391
 21
-156.288757324219
 31
0.0
  0
LINE
  5
   2C9
  8
0
  6
CONTINUOUS
 62
     1
 10
303.120269775391
 20
-101.61375617981
 30
0.0
 11
303.120269775391
 21
-142.11375617981
 31
0.0
  0
LINE
  5
   2CA
  8
0
  6
CONTINUOUS
 62
     1
 10
303.120269775391
 20
-199.863759040833
 30
0.0
 11
303.120269775391
 21
-240.363759040833
 31
0.0
  0
LINE
  5
   2CB
  8
0
  6
CONTINUOUS
 62
     1
 10
295.620269775391
 20
-199.863757610321
 30
0.0
 11
295.620269775391
 21
-240.363759040833
 31
0.0
  0
LINE
  5
   2CC
  8
0
  6
CONTINUOUS
 62
     1
 10
295.620269775391
 20
-101.61375617981
 30
0.0
 11
295.620269775391
 21
-142.113753318787
 31
0.0
  0
LINE
  5
   2CD
  8
0
  6
CONTINUOUS
 62
     1
 10
295.620269775391
 20
-101.61375617981
 30
0.0
 11
303.120269775391
 21
-101.61375617981
 31
0.0
  0
LINE
  5
   2CE
  8
0
  6
CONTINUOUS
 62
   210
 10
258.120269775391
 20
-152.61375617981
 30
0.0
 11
274.433734414419
 21
-152.61375617981
 31
0.0
  0
LINE
  5
   2CF
  8
0
  6
CONTINUOUS
 62
   210
 10
305.370269775391
 20
-152.61375617981
 30
0.0
 11
324.681809652667
 21
-152.61375617981
 31
0.0
  0
LINE
  5
   2D0
  8
0
  6
CONTINUOUS
 62
   210
 10
256.245269775391
 20
-154.48875617981
 30
0.0
 11
256.245269775391
 21
-170.988757610321
 31
0.0
  0
LINE
  5
   2D1
  8
0
  6
CONTINUOUS
 62
   210
 10
342.495269775391
 20
-154.48875617981
 30
0.0
 11
342.495269775391
 21
-170.988757610321
 31
0.0
  0
LINE
  5
   2D2
  8
0
  6
CONTINUOUS
 62
   210
 10
293.745269775391
 20
-142.11375617981
 30
0.0
 11
293.745269775391
 21
-151.86375617981
 31
0.0
  0
LINE
  5
   2D3
  8
0
  6
CONTINUOUS
 62
   210
 10
293.745269775391
 20
-142.11375617981
 30
0.0
 11
295.620269775391
 21
-142.11375617981
 31
0.0
  0
LINE
  5
   2D4
  8
0
  6
CONTINUOUS
 62
   210
 10
305.370269775391
 20
-142.11375617981
 30
0.0
 11
305.370269775391
 21
-151.863757375303
 31
0.0
  0
LINE
  5
   2D5
  8
0
  6
CONTINUOUS
 62
   210
 10
292.620269775391
 20
-142.11375617981
 30
0.0
 11
293.745269775391
 21
-142.11375617981
 31
0.0
  0
LINE
  5
   2D6
  8
0
  6
CONTINUOUS
 62
   210
 10
292.620268819174
 20
-142.11375617981
 30
0.0
 11
274.43373729429
 21
-152.613754517115
 31
0.0
  0
LINE
  5
   2D7
  8
0
  6
CONTINUOUS
 62
   210
 10
306.495272834855
 20
-142.113753534933
 30
0.0
 11
324.68180600075
 21
-152.613754071375
 31
0.0
  0
LINE
  5
   2D8
  8
0
  6
CONTINUOUS
 62
   210
 10
340.620269775391
 20
-154.48875617981
 30
0.0
 11
340.620269775391
 21
-170.988757610321
 31
0.0
  0
LINE
  5
   2D9
  8
0
  6
CONTINUOUS
 62
   210
 10
330.495269775391
 20
-154.48875617981
 30
0.0
 11
340.620269775391
 21
-154.48875617981
 31
0.0
  0
LINE
  5
   2DA
  8
0
  6
CONTINUOUS
 62
   210
 10
333.495269775391
 20
-156.063757896423
 30
0.0
 11
337.245269775391
 21
-156.063757896423
 31
0.0
  0
LINE
  5
   2DB
  8
0
  6
DOT
 62
     1
 10
295.620269775391
 20
-104.98875617981
 30
0.0
 11
303.120269775391
 21
-104.98875617981
 31
0.0
  0
LINE
  5
   2DC
  8
0
  6
DOT
 62
     1
 10
295.620269775391
 20
-123.73875617981
 30
0.0
 11
303.120269775391
 21
-123.73875617981
 31
0.0
  0
LINE
  5
   2DD
  8
0
  6
DOT
 62
     1
 10
295.620269775391
 20
-113.23875617981
 30
0.0
 11
303.120269775391
 21
-113.23875617981
 31
0.0
  0
LINE
  5
   2DE
  8
0
  6
DOT
 62
     1
 10
295.620269775391
 20
-209.98875617981
 30
0.0
 11
303.120269775391
 21
-209.98875617981
 31
0.0
  0
LINE
  5
   2DF
  8
0
  6
DOT
 62
     1
 10
295.620269775391
 20
-131.98875617981
 30
0.0
 11
303.120269775391
 21
-131.98875617981
 31
0.0
  0
LINE
  5
   2E0
  8
0
  6
CONTINUOUS
 62
   210
 10
333.495269775391
 20
-155.23875617981
 30
0.0
 11
333.495269775391
 21
-156.063757896423
 31
0.0
  0
LINE
  5
   2E1
  8
0
  6
CONTINUOUS
 62
     5
 10
290.45764348108
 20
-143.362348437389
 30
0.0
 11
290.008730150131
 21
-143.401623370061
 31
0.0
  0
LINE
  5
   2E2
  8
0
  6
CONTINUOUS
 62
     5
 10
290.00873374939
 20
-143.470547676086
 30
0.0
 11
290.00873374939
 21
-143.621526578636
 31
0.0
  0
LINE
  5
   2E3
  8
0
  6
CONTINUOUS
 62
     5
 10
290.00873374939
 20
-143.401619911194
 30
0.0
 11
290.00873374939
 21
-143.470547676086
 31
0.0
  0
LINE
  5
   2E4
  8
0
  6
CONTINUOUS
 62
     5
 10
290.008734753254
 20
-143.401617586561
 30
0.0
 11
289.897129538875
 21
-143.685961296341
 31
0.0
  0
LINE
  5
   2E5
  8
0
  6
CONTINUOUS
 62
     5
 10
308.731800164487
 20
-198.575893130845
 30
0.0
 11
308.282890144814
 21
-198.615167773817
 31
0.0
  0
LINE
  5
   2E6
  8
0
  6
CONTINUOUS
 62
     5
 10
308.731805801392
 20
-198.355986193996
 30
0.0
 11
308.731805801392
 21
-198.506967544556
 31
0.0
  0
LINE
  5
   2E7
  8
0
  6
CONTINUOUS
 62
     5
 10
308.731805801392
 20
-198.506967544556
 30
0.0
 11
308.731805801392
 21
-198.575893878937
 31
0.0
  0
LINE
  5
   2E8
  8
0
  6
CONTINUOUS
 62
     5
 10
308.843412203087
 20
-198.291550206778
 30
0.0
 11
308.731806747751
 21
-198.575894127936
 31
0.0
  0
ARC
  5
   2E9
  8
0
  6
CONTINUOUS
 62
   210
 10
340.620265218073
 20
-154.488759400595
 30
0.0
 40
1.87500307357753
 50
360.000087227159
 51
449.99989290418
  0
ARC
  5
   2EA
  8
0
  6
CONTINUOUS
 62
   210
 10
332.745270139587
 20
-155.238757532867
 30
0.0
 40
0.750001059645617
 50
360.00016351002
 51
450.000204088927
  0
ARC
  5
   2EB
  8
0
  6
CONTINUOUS
 62
   130
 10
340.620241722997
 20
-187.488739910325
 30
0.0
 40
1.87502741751231
 50
270.000897113961
 51
359.99946610559
  0
ARC
  5
   2EC
  8
0
  6
CONTINUOUS
 62
   130
 10
329.557744919316
 20
-187.488741933157
 30
0.0
 40
1.87502431847365
 50
300.00044784785
 51
359.999528613733
  0
ARC
  5
   2ED
  8
0
  6
CONTINUOUS
 62
   210
 10
306.120268610386
 20
-151.863757375303
 30
0.0
 40
0.749998523952766
 50
539.99986647068
 51
630.000133935105
  0
ARC
  5
   2EE
  8
0
  6
CONTINUOUS
 62
   130
 10
305.745267154147
 20
-190.113756826995
 30
0.0
 40
0.749999325865626
 50
449.99994772403
 51
540.000053932515
  0
ARC
  5
   2EF
  8
0
  6
CONTINUOUS
 62
   130
 10
292.620269769976
 20
-190.113755505289
 30
0.0
 40
0.749998617772041
 50
359.999923349023
 51
450.000100226602
  0
ARC
  5
   2F0
  8
0
  6
CONTINUOUS
 62
   130
 10
258.120268246692
 20
-187.488758325362
 30
0.0
 40
1.87499811131874
 50
539.999967357842
 51
630.000040276859
  0
ARC
  5
   2F1
  8
0
  6
CONTINUOUS
 62
   210
 10
258.120270170217
 20
-154.488759048131
 30
0.0
 40
1.87500261214559
 50
450.00000794938
 51
539.999957902746
  0
ARC
  5
   2F2
  8
0
  6
CONTINUOUS
 62
   210
 10
292.995272438043
 20
-151.863757910388
 30
0.0
 40
0.749997765350624
 50
629.999841748028
 51
720.000191506679
  0
LINE
  5
   2F3
  8
0
  6
DASHDOT
 62
     7
 10
293.932254653706
 20
-109.11375617981
 30
0.0
 11
305.920104384797
 21
-109.11375617981
 31
0.0
  0
LINE
  5
   2F4
  8
0
  6
DASHDOT
 62
     7
 10
293.932254653706
 20
-127.86375617981
 30
0.0
 11
305.920104384797
 21
-127.86375617981
 31
0.0
  0
LINE
  5
   2F5
  8
0
  6
DASHDOT
 62
     7
 10
292.124563027589
 20
-194.988757431507
 30
0.0
 11
310.891256356618
 21
-194.988757431507
 31
0.0
  0
LINE
  5
   2F6
  8
0
  6
DASHDOT
 62
     7
 10
288.556750607621
 20
-146.98875617981
 30
0.0
 11
306.752593949456
 21
-146.98875617981
 31
0.0
  0
LINE
  5
   2F7
  8
0
  6
CONTINUOUS
 62
     7
 10
330.495269775391
 20
-150.78381582957
 30
0.0
 11
330.495269775391
 21
-192.89511132551
 31
0.0
  0
LINE
  5
   2F8
  8
0
  6
CONTINUOUS
 62
     3
 10
339.870269775391
 20
-156.288757324219
 30
0.0
 11
339.870269775391
 21
-157.413757324219
 31
0.0
  0
LINE
  5
   2F9
  8
0
  6
CONTINUOUS
 62
   210
 10
337.245269775391
 20
-155.23875617981
 30
0.0
 11
337.245269775391
 21
-156.063757896423
 31
0.0
  0
ARC
  5
   2FA
  8
0
  6
CONTINUOUS
 62
   210
 10
337.995269775391
 20
-155.23875617981
 30
0.0
 40
0.75
 50
449.999999844103
 51
539.999999844103
  0
LINE
  5
   2FB
  8
0
  6
DASHDOT
 62
     7
 10
293.932254653706
 20
-214.113759040833
 30
0.0
 11
305.920104384797
 21
-214.113759040833
 31
0.0
  0
LINE
  5
   2FC
  8
0
  6
DOT
 62
     1
 10
295.620269775391
 20
-218.238759040833
 30
0.0
 11
303.120269775391
 21
-218.238759040833
 31
0.0
  0
LINE
  5
   2FD
  8
0
  6
DOT
 62
     1
 10
295.620269775391
 20
-228.738759040833
 30
0.0
 11
303.120269775391
 21
-228.738759040833
 31
0.0
  0
LINE
  5
   2FE
  8
0
  6
DASHDOT
 62
     7
 10
293.932254653706
 20
-232.863759040833
 30
0.0
 11
305.920104384797
 21
-232.863759040833
 31
0.0
  0
LINE
  5
   2FF
  8
0
  6
DOT
 62
     1
 10
295.620269775391
 20
-236.988759040833
 30
0.0
 11
303.120269775391
 21
-236.988759040833
 31
0.0
  0
LINE
  5
   300
  8
0
  6
CONTINUOUS
 62
     1
 10
295.620269775391
 20
-240.363759040833
 30
0.0
 11
303.120269775391
 21
-240.363759040833
 31
0.0
  0
LINE
  5
   301
  8
0
  6
CONTINUOUS
 62
   210
 10
340.620269775391
 20
-159.738757610321
 30
0.0
 11
342.495269775391
 21
-159.738757610321
 31
0.0
  0
INSERT
  5
   302
  8
0
  6
CONTINUOUS
 62
     7
  2
*HATCH50
 10
269.932769775391
 20
-185.913757324219
 30
0.0
 41
0.75
 42
0.75
 50
269.999999844103
 43
0.75
  0
INSERT
  5
   303
  8
0
  6
CONTINUOUS
 62
     7
  2
*HATCH51
 10
269.932769775391
 20
-185.913757324219
 30
0.0
 41
0.75
 42
0.75
 50
269.999999844103
 43
0.75
  0
INSERT
  5
   304
  8
0
  6
CONTINUOUS
 62
     7
  2
*HATCH52
 10
269.932769775391
 20
-185.913757324219
 30
0.0
 41
0.75
 42
0.75
 50
269.999999844103
 43
0.75
  0
LINE
  5
   305
  8
0
  6
CONTINUOUS
 62
   210
 10
324.681809652667
 20
-152.61375617981
 30
0.0
 11
340.620269775391
 21
-152.61375617981
 31
0.0
  0
LINE
  5
   306
  8
0
  6
CONTINUOUS
 62
   210
 10
274.433734414419
 20
-152.61375617981
 30
0.0
 11
305.370269775391
 21
-152.61375617981
 31
0.0
  0
LINE
  5
   307
  8
0
  6
CONTINUOUS
 62
   130
 10
274.05873631782
 20
-189.363757252693
 30
0.0
 11
305.745267154147
 21
-189.363757252693
 31
0.0
  0
LINE
  5
   308
  8
0
  6
CONTINUOUS
 62
   130
 10
324.306802921476
 20
-189.363757252693
 30
0.0
 11
340.620269775391
 21
-189.363757252693
 31
0.0
  0
LINE
  5
   309
  8
0
  6
CONTINUOUS
 62
   210
 10
303.120269775391
 20
-142.11375617981
 30
0.0
 11
306.495277415916
 21
-142.11375617981
 31
0.0
  0
LINE
  5
   30A
  8
0
  6
CONTINUOUS
 62
   210
 10
295.620269775391
 20
-142.11375617981
 30
0.0
 11
303.120269775391
 21
-142.11375617981
 31
0.0
  0
LINE
  5
   30B
  8
0
  6
CONTINUOUS
 62
   130
 10
295.620269775391
 20
-199.863757610321
 30
0.0
 11
303.120269775391
 21
-199.863757610321
 31
0.0
  0
LINE
  5
   30C
  8
0
  6
CONTINUOUS
 62
   130
 10
303.120269775391
 20
-199.863757610321
 30
0.0
 11
304.995269775391
 21
-199.863757610321
 31
0.0
  0
TEXT
  5
   30D
  8
0
  6
CONTINUOUS
 62
     2
 10
252.556212971065
 20
-324.960666653568
 30
0.0
 40
2.0000000372529
  1
M3142 95-06-12
 50
359.999999844103
 41
0.749999998137355
 72
     1
 11
262.906213134527
 21
-323.960666663051
 31
0.0
 73
     2
  0
INSERT
  5
   30E
  8
0
  6
CONTINUOUS
 62
     7
  2
*UDIM143
 10
0.0
 20
0.0
 30
0.0
  0
INSERT
  5
   30F
  8
0
  6
CONTINUOUS
 62
     7
  2
*UDIM144
 10
0.0
 20
0.0
 30
0.0
  0
INSERT
  5
   310
  8
0
  6
CONTINUOUS
 62
     7
  2
*UDIM145
 10
0.0
 20
0.0
 30
0.0
  0
TEXT
  5
   311
  8
0
  6
CONTINUOUS
 62
     2
 10
358.743192985612
 20
-327.405895243221
 30
0.0
 40
2.50000000745058
  1
S6-7
 50
359.999999844103
 41
1.09999993224939
 72
     1
 11
363.784859359264
 21
-326.155895253189
 31
0.0
 73
     2
  0
TEXT
  5
   312
  8
0
  6
CONTINUOUS
 62
     2
 10
401.24905418737
 20
-319.317394270393
 30
0.0
 40
2.50000000745058
  1
ITA
 50
359.999999844103
 41
1.09999993224939
 72
     1
 11
404.915720641613
 21
-318.067394276626
 31
0.0
 73
     2
  0
TEXT
  5
   313
  8
0
  6
CONTINUOUS
 62
     2
 10
241.617280003014
 20
-308.22504757949
 30
0.0
 40
2.50000000745058
  1
95-05-08
 50
359.999999844103
 41
1.09999993224939
 11
241.617280006409
 21
-306.975047575765
 31
0.0
 73
     2
  0
TEXT
  5
   314
  8
0
  6
CONTINUOUS
 62
     2
 10
241.742461201134
 20
-312.120673648495
 30
0.0
 40
2.50000000745058
  1
BARCELLA
 50
359.999999844103
 41
1.09799997588396
 11
241.742461204529
 21
-310.87067364477
 31
0.0
 73
     2
  0
TEXT
  5
   315
  8
0
  6
CONTINUOUS
 62
     2
 10
343.592256056367
 20
-336.885509484403
 30
0.0
 40
4.50000004470348
  1
601840/421
 50
359.999999844103
 41
1.09999992714988
 72
     1
 11
367.517254710197
 21
-334.635509527029
 31
0.0
 73
     2
  0
TEXT
  5
   316
  8
0
  6
CONTINUOUS
 62
     2
 10
401.436794513298
 20
-337.841133131477
 30
0.0
 40
2.50000000745058
  1
1/1
 50
359.999999844103
 41
1.09999993224939
 72
     1
 11
405.103460967541
 21
-336.59113313771
 31
0.0
 73
     2
  0
TEXT
  5
   317
  8
0
  6
CONTINUOUS
 62
     2
 10
401.280365222526
 20
-313.935489668342
 30
0.0
 40
2.50000000745058
  1
ENG
 50
359.999999844103
 41
1.09999993224939
 72
     1
 11
404.947031676769
 21
-312.685489674575
 31
0.0
 73
     2
  0
TEXT
  5
   318
  8
0
  6
CONTINUOUS
 62
     1
 10
340.153834786344
 20
-318.566749756436
 30
0.0
 40
2.0000000372529
  1
NEUTRO ESTERNO PER
 50
359.999999844103
 41
0.625
 72
     1
 11
351.278834996279
 21
-317.566749768024
 31
0.0
 73
     2
  0
TEXT
  5
   319
  8
0
  6
CONTINUOUS
 62
     1
 10
362.653835200783
 20
-318.566749414922
 30
0.0
 40
2.0000000372529
  1
 INTERRUTTORI SERIE ISOMAX
 50
359.999999844103
 41
0.625
 72
     1
 11
378.77883550385
 21
-317.56674944009
 31
0.0
 73
     2
  0
TEXT
  5
   31A
  8
0
  6
CONTINUOUS
 62
     1
 10
342.497405542139
 20
-310.274875776438
 30
0.0
 40
2.0000000372529
  1
EXTERNAL NEUTRAL FOR
 50
359.999999844103
 41
0.625
 72
     1
 11
354.872405775357
 21
-309.274875791421
 31
0.0
 73
     2
  0
TEXT
  5
   31B
  8
0
  6
CONTINUOUS
 62
     1
 10
367.497406003144
 20
-310.274875478316
 30
0.0
 40
2.0000000372529
  1
 MCCBS ISOMAX SERIES
 50
359.999999844103
 41
0.625
 72
     1
 11
379.872406236362
 21
-309.274875493299
 31
0.0
 73
     2
  0
ENDSEC
  0
EOF
