ISO-10303-21;
HEADER;
FILE_DESCRIPTION(('CATIA V5 STEP Exchange'),'2;1');

FILE_NAME('C:\\Users\\uff.tecnico\\Desktop\\STP\\1SDH001295R0499_1PA_001_00_XT3_4P_FIXED_MOSTRINA.stp','2014-11-11T15:29:27+00:00',('none'),('none'),'CATIA Version 5 Release 20 SP 1 (IN-10)','CATIA V5 STEP AP214','none');

FILE_SCHEMA(('AUTOMOTIVE_DESIGN { 1 0 10303 214 1 1 1 1 }'));

ENDSEC;
/* file written by CATIA V5R20 */
DATA;
#5=PRODUCT('1SDH001295R0499_1PA_001_00_XT3_4P_FIXED_MOSTRINA','','',(#2)) ;
#2=PRODUCT_CONTEXT(' ',#1,'mechanical') ;
#1=APPLICATION_CONTEXT('automotive design') ;
#10=PRODUCT_DEFINITION('',' ',#6,#3) ;
#3=PRODUCT_DEFINITION_CONTEXT('part definition',#1,' ') ;
#11=PRODUCT_DEFINITION_SHAPE(' ',' ',#10) ;
#532=MECHANICAL_DESIGN_GEOMETRIC_PRESENTATION_REPRESENTATION(' ',(#30),#17) ;
#20=SHAPE_REPRESENTATION(' ',(#19),#17) ;
#19=AXIS2_PLACEMENT_3D(' ',#18,$,$) ;
#35=AXIS2_PLACEMENT_3D('Plane Axis2P3D',#32,#33,#34) ;
#75=AXIS2_PLACEMENT_3D('Plane Axis2P3D',#72,#73,#74) ;
#106=AXIS2_PLACEMENT_3D('Plane Axis2P3D',#103,#104,#105) ;
#137=AXIS2_PLACEMENT_3D('Plane Axis2P3D',#134,#135,#136) ;
#159=AXIS2_PLACEMENT_3D('Cylinder Axis2P3D',#156,#157,#158) ;
#163=AXIS2_PLACEMENT_3D('Circle Axis2P3D',#161,#162,$) ;
#179=AXIS2_PLACEMENT_3D('Circle Axis2P3D',#177,#178,$) ;
#199=AXIS2_PLACEMENT_3D('Plane Axis2P3D',#196,#197,#198) ;
#203=AXIS2_PLACEMENT_3D('Circle Axis2P3D',#201,#202,$) ;
#246=AXIS2_PLACEMENT_3D('Plane Axis2P3D',#243,#244,#245) ;
#250=AXIS2_PLACEMENT_3D('Circle Axis2P3D',#248,#249,$) ;
#293=AXIS2_PLACEMENT_3D('Plane Axis2P3D',#290,#291,#292) ;
#316=AXIS2_PLACEMENT_3D('Cylinder Axis2P3D',#313,#314,#315) ;
#333=AXIS2_PLACEMENT_3D('Plane Axis2P3D',#330,#331,#332) ;
#350=AXIS2_PLACEMENT_3D('Plane Axis2P3D',#347,#348,#349) ;
#367=AXIS2_PLACEMENT_3D('Plane Axis2P3D',#364,#365,#366) ;
#413=AXIS2_PLACEMENT_3D('Plane Axis2P3D',#410,#411,#412) ;
#444=AXIS2_PLACEMENT_3D('Plane Axis2P3D',#441,#442,#443) ;
#475=AXIS2_PLACEMENT_3D('Plane Axis2P3D',#472,#473,#474) ;
#492=AXIS2_PLACEMENT_3D('Plane Axis2P3D',#489,#490,#491) ;
#509=AXIS2_PLACEMENT_3D('Plane Axis2P3D',#506,#507,#508) ;
#529=AXIS2_PLACEMENT_3D('Sistema di assi.1',#526,#527,#528) ;
#18=CARTESIAN_POINT(' ',(0.,0.,0.)) ;
#32=CARTESIAN_POINT('Axis2P3D Location',(86.,0.,13.5)) ;
#37=CARTESIAN_POINT('Line Origine',(17.5,74.,13.5)) ;
#41=CARTESIAN_POINT('Vertex',(86.,74.,13.5)) ;
#43=CARTESIAN_POINT('Vertex',(-51.,74.,13.5)) ;
#46=CARTESIAN_POINT('Line Origine',(-51.,76.25,13.5)) ;
#50=CARTESIAN_POINT('Vertex',(-51.,78.5,13.5)) ;
#53=CARTESIAN_POINT('Line Origine',(17.5,78.5,13.5)) ;
#57=CARTESIAN_POINT('Vertex',(86.,78.5,13.5)) ;
#60=CARTESIAN_POINT('Line Origine',(86.,76.25,13.5)) ;
#72=CARTESIAN_POINT('Axis2P3D Location',(-51.,0.,-33.5)) ;
#77=CARTESIAN_POINT('Line Origine',(-51.,76.25,-33.5)) ;
#81=CARTESIAN_POINT('Vertex',(-51.,74.,-33.5)) ;
#83=CARTESIAN_POINT('Vertex',(-51.,78.5,-33.5)) ;
#86=CARTESIAN_POINT('Line Origine',(-51.,78.5,-10.)) ;
#91=CARTESIAN_POINT('Line Origine',(-51.,74.,-10.)) ;
#103=CARTESIAN_POINT('Axis2P3D Location',(86.,0.,13.5)) ;
#108=CARTESIAN_POINT('Line Origine',(86.,78.5,-10.)) ;
#112=CARTESIAN_POINT('Vertex',(86.,78.5,-33.5)) ;
#115=CARTESIAN_POINT('Line Origine',(86.,76.25,-33.5)) ;
#119=CARTESIAN_POINT('Vertex',(86.,74.,-33.5)) ;
#122=CARTESIAN_POINT('Line Origine',(86.,74.,-10.)) ;
#134=CARTESIAN_POINT('Axis2P3D Location',(-51.,0.,-33.5)) ;
#139=CARTESIAN_POINT('Line Origine',(17.5,74.,-33.5)) ;
#144=CARTESIAN_POINT('Line Origine',(17.5,78.5,-33.5)) ;
#156=CARTESIAN_POINT('Axis2P3D Location',(91.,76.5,-10.)) ;
#161=CARTESIAN_POINT('Axis2P3D Location',(91.,76.5,31.)) ;
#165=CARTESIAN_POINT('Vertex',(91.,78.5,31.)) ;
#167=CARTESIAN_POINT('Vertex',(93.,76.5,31.)) ;
#170=CARTESIAN_POINT('Line Origine',(93.,76.5,-10.)) ;
#174=CARTESIAN_POINT('Vertex',(93.,76.5,-51.)) ;
#177=CARTESIAN_POINT('Axis2P3D Location',(91.,76.5,-51.)) ;
#181=CARTESIAN_POINT('Vertex',(91.,78.5,-51.)) ;
#184=CARTESIAN_POINT('Line Origine',(91.,78.5,-10.)) ;
#196=CARTESIAN_POINT('Axis2P3D Location',(0.,78.5,-51.)) ;
#201=CARTESIAN_POINT('Axis2P3D Location',(-56.,76.5,-51.)) ;
#205=CARTESIAN_POINT('Vertex',(-56.,78.5,-51.)) ;
#207=CARTESIAN_POINT('Vertex',(-58.,76.5,-51.)) ;
#210=CARTESIAN_POINT('Line Origine',(17.5,78.5,-51.)) ;
#215=CARTESIAN_POINT('Line Origine',(93.,76.25,-51.)) ;
#219=CARTESIAN_POINT('Vertex',(93.,76.,-51.)) ;
#222=CARTESIAN_POINT('Line Origine',(17.5,76.,-51.)) ;
#226=CARTESIAN_POINT('Vertex',(-58.,76.,-51.)) ;
#229=CARTESIAN_POINT('Line Origine',(-58.,76.25,-51.)) ;
#243=CARTESIAN_POINT('Axis2P3D Location',(0.,76.,31.)) ;
#248=CARTESIAN_POINT('Axis2P3D Location',(-56.,76.5,31.)) ;
#252=CARTESIAN_POINT('Vertex',(-58.,76.5,31.)) ;
#254=CARTESIAN_POINT('Vertex',(-56.,78.5,31.)) ;
#257=CARTESIAN_POINT('Line Origine',(-58.,76.25,31.)) ;
#261=CARTESIAN_POINT('Vertex',(-58.,76.,31.)) ;
#264=CARTESIAN_POINT('Line Origine',(17.5,76.,31.)) ;
#268=CARTESIAN_POINT('Vertex',(93.,76.,31.)) ;
#271=CARTESIAN_POINT('Line Origine',(93.,76.25,31.)) ;
#276=CARTESIAN_POINT('Line Origine',(17.5,78.5,31.)) ;
#290=CARTESIAN_POINT('Axis2P3D Location',(0.,78.5,-51.)) ;
#295=CARTESIAN_POINT('Line Origine',(-56.,78.5,-10.)) ;
#313=CARTESIAN_POINT('Axis2P3D Location',(-56.,76.5,-10.)) ;
#318=CARTESIAN_POINT('Line Origine',(-58.,76.5,-10.)) ;
#330=CARTESIAN_POINT('Axis2P3D Location',(-58.,0.,0.)) ;
#335=CARTESIAN_POINT('Line Origine',(-58.,76.,-10.)) ;
#347=CARTESIAN_POINT('Axis2P3D Location',(93.,0.,0.)) ;
#352=CARTESIAN_POINT('Line Origine',(93.,76.,-10.)) ;
#364=CARTESIAN_POINT('Axis2P3D Location',(0.,74.,16.5)) ;
#369=CARTESIAN_POINT('Line Origine',(-54.,74.,-10.)) ;
#373=CARTESIAN_POINT('Vertex',(-54.,74.,16.5)) ;
#375=CARTESIAN_POINT('Vertex',(-54.,74.,-36.5)) ;
#378=CARTESIAN_POINT('Line Origine',(17.5,74.,-36.5)) ;
#382=CARTESIAN_POINT('Vertex',(89.,74.,-36.5)) ;
#385=CARTESIAN_POINT('Line Origine',(89.,74.,-10.)) ;
#389=CARTESIAN_POINT('Vertex',(89.,74.,16.5)) ;
#392=CARTESIAN_POINT('Line Origine',(17.5,74.,16.5)) ;
#410=CARTESIAN_POINT('Axis2P3D Location',(0.,74.,-36.5)) ;
#415=CARTESIAN_POINT('Line Origine',(-54.,75.,-36.5)) ;
#419=CARTESIAN_POINT('Vertex',(-54.,76.,-36.5)) ;
#422=CARTESIAN_POINT('Line Origine',(17.5,76.,-36.5)) ;
#426=CARTESIAN_POINT('Vertex',(89.,76.,-36.5)) ;
#429=CARTESIAN_POINT('Line Origine',(89.,75.,-36.5)) ;
#441=CARTESIAN_POINT('Axis2P3D Location',(0.,74.,16.5)) ;
#446=CARTESIAN_POINT('Line Origine',(89.,75.,16.5)) ;
#450=CARTESIAN_POINT('Vertex',(89.,76.,16.5)) ;
#453=CARTESIAN_POINT('Line Origine',(17.5,76.,16.5)) ;
#457=CARTESIAN_POINT('Vertex',(-54.,76.,16.5)) ;
#460=CARTESIAN_POINT('Line Origine',(-54.,75.,16.5)) ;
#472=CARTESIAN_POINT('Axis2P3D Location',(-54.,51.,0.)) ;
#477=CARTESIAN_POINT('Line Origine',(-54.,76.,-10.)) ;
#489=CARTESIAN_POINT('Axis2P3D Location',(89.,51.,0.)) ;
#494=CARTESIAN_POINT('Line Origine',(89.,76.,-10.)) ;
#506=CARTESIAN_POINT('Axis2P3D Location',(0.,76.,31.)) ;
#526=CARTESIAN_POINT('Axis2P3D Location',(0.,0.,0.)) ;
#33=DIRECTION('Axis2P3D Direction',(0.,0.,-1.)) ;
#34=DIRECTION('Axis2P3D XDirection',(-1.,0.,0.)) ;
#38=DIRECTION('Vector Direction',(-1.,0.,0.)) ;
#47=DIRECTION('Vector Direction',(0.,1.,0.)) ;
#54=DIRECTION('Vector Direction',(-1.,0.,0.)) ;
#61=DIRECTION('Vector Direction',(0.,1.,0.)) ;
#73=DIRECTION('Axis2P3D Direction',(-1.,0.,0.)) ;
#74=DIRECTION('Axis2P3D XDirection',(0.,0.,1.)) ;
#78=DIRECTION('Vector Direction',(0.,1.,0.)) ;
#87=DIRECTION('Vector Direction',(0.,0.,1.)) ;
#92=DIRECTION('Vector Direction',(0.,0.,1.)) ;
#104=DIRECTION('Axis2P3D Direction',(1.,-0.,0.)) ;
#105=DIRECTION('Axis2P3D XDirection',(0.,0.,-1.)) ;
#109=DIRECTION('Vector Direction',(0.,0.,-1.)) ;
#116=DIRECTION('Vector Direction',(0.,1.,0.)) ;
#123=DIRECTION('Vector Direction',(0.,0.,-1.)) ;
#135=DIRECTION('Axis2P3D Direction',(0.,0.,1.)) ;
#136=DIRECTION('Axis2P3D XDirection',(1.,0.,0.)) ;
#140=DIRECTION('Vector Direction',(1.,0.,0.)) ;
#145=DIRECTION('Vector Direction',(1.,0.,0.)) ;
#157=DIRECTION('Axis2P3D Direction',(0.,-0.,1.)) ;
#158=DIRECTION('Axis2P3D XDirection',(1.,-1.83697019872E-016,-0.)) ;
#162=DIRECTION('Axis2P3D Direction',(0.,-0.,1.)) ;
#171=DIRECTION('Vector Direction',(0.,0.,1.)) ;
#178=DIRECTION('Axis2P3D Direction',(0.,-0.,1.)) ;
#185=DIRECTION('Vector Direction',(0.,0.,1.)) ;
#197=DIRECTION('Axis2P3D Direction',(-0.,0.,1.)) ;
#198=DIRECTION('Axis2P3D XDirection',(0.,-1.,0.)) ;
#202=DIRECTION('Axis2P3D Direction',(-0.,0.,1.)) ;
#211=DIRECTION('Vector Direction',(1.,0.,0.)) ;
#216=DIRECTION('Vector Direction',(0.,-1.,0.)) ;
#223=DIRECTION('Vector Direction',(1.,0.,0.)) ;
#230=DIRECTION('Vector Direction',(0.,-1.,0.)) ;
#244=DIRECTION('Axis2P3D Direction',(0.,0.,-1.)) ;
#245=DIRECTION('Axis2P3D XDirection',(0.,1.,0.)) ;
#249=DIRECTION('Axis2P3D Direction',(0.,0.,-1.)) ;
#258=DIRECTION('Vector Direction',(0.,1.,0.)) ;
#265=DIRECTION('Vector Direction',(1.,0.,0.)) ;
#272=DIRECTION('Vector Direction',(0.,1.,0.)) ;
#277=DIRECTION('Vector Direction',(1.,0.,0.)) ;
#291=DIRECTION('Axis2P3D Direction',(0.,1.,0.)) ;
#292=DIRECTION('Axis2P3D XDirection',(0.,0.,1.)) ;
#296=DIRECTION('Vector Direction',(0.,0.,1.)) ;
#314=DIRECTION('Axis2P3D Direction',(0.,0.,1.)) ;
#315=DIRECTION('Axis2P3D XDirection',(1.83697019872E-016,1.,-0.)) ;
#319=DIRECTION('Vector Direction',(0.,0.,1.)) ;
#331=DIRECTION('Axis2P3D Direction',(1.,0.,0.)) ;
#332=DIRECTION('Axis2P3D XDirection',(0.,1.,0.)) ;
#336=DIRECTION('Vector Direction',(0.,0.,1.)) ;
#348=DIRECTION('Axis2P3D Direction',(1.,0.,0.)) ;
#349=DIRECTION('Axis2P3D XDirection',(0.,1.,0.)) ;
#353=DIRECTION('Vector Direction',(0.,0.,1.)) ;
#365=DIRECTION('Axis2P3D Direction',(0.,-1.,0.)) ;
#366=DIRECTION('Axis2P3D XDirection',(0.,0.,-1.)) ;
#370=DIRECTION('Vector Direction',(0.,0.,-1.)) ;
#379=DIRECTION('Vector Direction',(1.,0.,0.)) ;
#386=DIRECTION('Vector Direction',(0.,0.,-1.)) ;
#393=DIRECTION('Vector Direction',(1.,0.,0.)) ;
#411=DIRECTION('Axis2P3D Direction',(0.,0.,-1.)) ;
#412=DIRECTION('Axis2P3D XDirection',(0.,1.,0.)) ;
#416=DIRECTION('Vector Direction',(0.,-1.,0.)) ;
#423=DIRECTION('Vector Direction',(1.,0.,0.)) ;
#430=DIRECTION('Vector Direction',(0.,-1.,0.)) ;
#442=DIRECTION('Axis2P3D Direction',(0.,0.,-1.)) ;
#443=DIRECTION('Axis2P3D XDirection',(0.,1.,0.)) ;
#447=DIRECTION('Vector Direction',(0.,-1.,0.)) ;
#454=DIRECTION('Vector Direction',(1.,0.,0.)) ;
#461=DIRECTION('Vector Direction',(0.,-1.,0.)) ;
#473=DIRECTION('Axis2P3D Direction',(-1.,0.,0.)) ;
#474=DIRECTION('Axis2P3D XDirection',(0.,1.,0.)) ;
#478=DIRECTION('Vector Direction',(0.,0.,-1.)) ;
#490=DIRECTION('Axis2P3D Direction',(-1.,0.,0.)) ;
#491=DIRECTION('Axis2P3D XDirection',(0.,1.,0.)) ;
#495=DIRECTION('Vector Direction',(0.,0.,-1.)) ;
#507=DIRECTION('Axis2P3D Direction',(0.,-1.,0.)) ;
#508=DIRECTION('Axis2P3D XDirection',(0.,0.,-1.)) ;
#527=DIRECTION('Axis2P3D Direction',(0.,0.,1.)) ;
#528=DIRECTION('Axis2P3D XDirection',(1.,0.,0.)) ;
#8=PRODUCT_RELATED_PRODUCT_CATEGORY('part',$,(#5)) ;
#7=PRODUCT_CATEGORY('part','specification') ;
#30=STYLED_ITEM(' ',(#29),#22) ;
#29=PRESENTATION_STYLE_ASSIGNMENT((#28)) ;
#28=SURFACE_STYLE_USAGE(.BOTH.,#27) ;
#27=SURFACE_SIDE_STYLE(' ',(#26)) ;
#26=SURFACE_STYLE_FILL_AREA(#25) ;
#25=FILL_AREA_STYLE(' ',(#24)) ;
#24=FILL_AREA_STYLE_COLOUR(' ',#23) ;
#39=VECTOR('Line Direction',#38,1.) ;
#48=VECTOR('Line Direction',#47,1.) ;
#55=VECTOR('Line Direction',#54,1.) ;
#62=VECTOR('Line Direction',#61,1.) ;
#79=VECTOR('Line Direction',#78,1.) ;
#88=VECTOR('Line Direction',#87,1.) ;
#93=VECTOR('Line Direction',#92,1.) ;
#110=VECTOR('Line Direction',#109,1.) ;
#117=VECTOR('Line Direction',#116,1.) ;
#124=VECTOR('Line Direction',#123,1.) ;
#141=VECTOR('Line Direction',#140,1.) ;
#146=VECTOR('Line Direction',#145,1.) ;
#172=VECTOR('Line Direction',#171,1.) ;
#186=VECTOR('Line Direction',#185,1.) ;
#212=VECTOR('Line Direction',#211,1.) ;
#217=VECTOR('Line Direction',#216,1.) ;
#224=VECTOR('Line Direction',#223,1.) ;
#231=VECTOR('Line Direction',#230,1.) ;
#259=VECTOR('Line Direction',#258,1.) ;
#266=VECTOR('Line Direction',#265,1.) ;
#273=VECTOR('Line Direction',#272,1.) ;
#278=VECTOR('Line Direction',#277,1.) ;
#297=VECTOR('Line Direction',#296,1.) ;
#320=VECTOR('Line Direction',#319,1.) ;
#337=VECTOR('Line Direction',#336,1.) ;
#354=VECTOR('Line Direction',#353,1.) ;
#371=VECTOR('Line Direction',#370,1.) ;
#380=VECTOR('Line Direction',#379,1.) ;
#387=VECTOR('Line Direction',#386,1.) ;
#394=VECTOR('Line Direction',#393,1.) ;
#417=VECTOR('Line Direction',#416,1.) ;
#424=VECTOR('Line Direction',#423,1.) ;
#431=VECTOR('Line Direction',#430,1.) ;
#448=VECTOR('Line Direction',#447,1.) ;
#455=VECTOR('Line Direction',#454,1.) ;
#462=VECTOR('Line Direction',#461,1.) ;
#479=VECTOR('Line Direction',#478,1.) ;
#496=VECTOR('Line Direction',#495,1.) ;
#16=UNCERTAINTY_MEASURE_WITH_UNIT(LENGTH_MEASURE(0.005),#12,'distance_accuracy_value','CONFUSED CURVE UNCERTAINTY') ;
#525=SHAPE_REPRESENTATION_RELATIONSHIP(' ',' ',#20,#524) ;
#66=ORIENTED_EDGE('',*,*,#45,.T.) ;
#67=ORIENTED_EDGE('',*,*,#52,.T.) ;
#68=ORIENTED_EDGE('',*,*,#59,.F.) ;
#69=ORIENTED_EDGE('',*,*,#64,.F.) ;
#97=ORIENTED_EDGE('',*,*,#85,.T.) ;
#98=ORIENTED_EDGE('',*,*,#90,.T.) ;
#99=ORIENTED_EDGE('',*,*,#52,.F.) ;
#100=ORIENTED_EDGE('',*,*,#95,.F.) ;
#128=ORIENTED_EDGE('',*,*,#64,.T.) ;
#129=ORIENTED_EDGE('',*,*,#114,.T.) ;
#130=ORIENTED_EDGE('',*,*,#121,.F.) ;
#131=ORIENTED_EDGE('',*,*,#126,.F.) ;
#150=ORIENTED_EDGE('',*,*,#143,.T.) ;
#151=ORIENTED_EDGE('',*,*,#121,.T.) ;
#152=ORIENTED_EDGE('',*,*,#148,.F.) ;
#153=ORIENTED_EDGE('',*,*,#85,.F.) ;
#190=ORIENTED_EDGE('',*,*,#169,.T.) ;
#191=ORIENTED_EDGE('',*,*,#176,.F.) ;
#192=ORIENTED_EDGE('',*,*,#183,.T.) ;
#193=ORIENTED_EDGE('',*,*,#188,.T.) ;
#235=ORIENTED_EDGE('',*,*,#209,.F.) ;
#236=ORIENTED_EDGE('',*,*,#214,.T.) ;
#237=ORIENTED_EDGE('',*,*,#183,.F.) ;
#238=ORIENTED_EDGE('',*,*,#221,.F.) ;
#239=ORIENTED_EDGE('',*,*,#228,.F.) ;
#240=ORIENTED_EDGE('',*,*,#233,.T.) ;
#282=ORIENTED_EDGE('',*,*,#256,.F.) ;
#283=ORIENTED_EDGE('',*,*,#263,.T.) ;
#284=ORIENTED_EDGE('',*,*,#270,.T.) ;
#285=ORIENTED_EDGE('',*,*,#275,.F.) ;
#286=ORIENTED_EDGE('',*,*,#169,.F.) ;
#287=ORIENTED_EDGE('',*,*,#280,.F.) ;
#301=ORIENTED_EDGE('',*,*,#280,.T.) ;
#302=ORIENTED_EDGE('',*,*,#188,.F.) ;
#303=ORIENTED_EDGE('',*,*,#214,.F.) ;
#304=ORIENTED_EDGE('',*,*,#299,.T.) ;
#307=ORIENTED_EDGE('',*,*,#90,.F.) ;
#308=ORIENTED_EDGE('',*,*,#148,.T.) ;
#309=ORIENTED_EDGE('',*,*,#114,.F.) ;
#310=ORIENTED_EDGE('',*,*,#59,.T.) ;
#324=ORIENTED_EDGE('',*,*,#256,.T.) ;
#325=ORIENTED_EDGE('',*,*,#299,.F.) ;
#326=ORIENTED_EDGE('',*,*,#209,.T.) ;
#327=ORIENTED_EDGE('',*,*,#322,.T.) ;
#341=ORIENTED_EDGE('',*,*,#263,.F.) ;
#342=ORIENTED_EDGE('',*,*,#322,.F.) ;
#343=ORIENTED_EDGE('',*,*,#233,.F.) ;
#344=ORIENTED_EDGE('',*,*,#339,.F.) ;
#358=ORIENTED_EDGE('',*,*,#356,.T.) ;
#359=ORIENTED_EDGE('',*,*,#221,.T.) ;
#360=ORIENTED_EDGE('',*,*,#176,.T.) ;
#361=ORIENTED_EDGE('',*,*,#275,.T.) ;
#398=ORIENTED_EDGE('',*,*,#377,.T.) ;
#399=ORIENTED_EDGE('',*,*,#384,.T.) ;
#400=ORIENTED_EDGE('',*,*,#391,.F.) ;
#401=ORIENTED_EDGE('',*,*,#396,.F.) ;
#404=ORIENTED_EDGE('',*,*,#45,.F.) ;
#405=ORIENTED_EDGE('',*,*,#126,.T.) ;
#406=ORIENTED_EDGE('',*,*,#143,.F.) ;
#407=ORIENTED_EDGE('',*,*,#95,.T.) ;
#435=ORIENTED_EDGE('',*,*,#421,.F.) ;
#436=ORIENTED_EDGE('',*,*,#428,.T.) ;
#437=ORIENTED_EDGE('',*,*,#433,.T.) ;
#438=ORIENTED_EDGE('',*,*,#384,.F.) ;
#466=ORIENTED_EDGE('',*,*,#396,.T.) ;
#467=ORIENTED_EDGE('',*,*,#452,.F.) ;
#468=ORIENTED_EDGE('',*,*,#459,.F.) ;
#469=ORIENTED_EDGE('',*,*,#464,.T.) ;
#483=ORIENTED_EDGE('',*,*,#481,.T.) ;
#484=ORIENTED_EDGE('',*,*,#421,.T.) ;
#485=ORIENTED_EDGE('',*,*,#377,.F.) ;
#486=ORIENTED_EDGE('',*,*,#464,.F.) ;
#500=ORIENTED_EDGE('',*,*,#452,.T.) ;
#501=ORIENTED_EDGE('',*,*,#391,.T.) ;
#502=ORIENTED_EDGE('',*,*,#433,.F.) ;
#503=ORIENTED_EDGE('',*,*,#498,.F.) ;
#512=ORIENTED_EDGE('',*,*,#270,.F.) ;
#513=ORIENTED_EDGE('',*,*,#339,.T.) ;
#514=ORIENTED_EDGE('',*,*,#228,.T.) ;
#515=ORIENTED_EDGE('',*,*,#356,.F.) ;
#518=ORIENTED_EDGE('',*,*,#498,.T.) ;
#519=ORIENTED_EDGE('',*,*,#428,.F.) ;
#520=ORIENTED_EDGE('',*,*,#481,.F.) ;
#521=ORIENTED_EDGE('',*,*,#459,.T.) ;
#311=FACE_BOUND('',#306,.T.) ;
#408=FACE_BOUND('',#403,.T.) ;
#522=FACE_BOUND('',#517,.T.) ;
#31=CLOSED_SHELL('Closed Shell',(#71,#102,#133,#155,#195,#242,#289,#312,#329,#346,#363,#409,#440,#471,#488,#505,#523)) ;
#524=ADVANCED_BREP_SHAPE_REPRESENTATION('NONE',(#22),#17) ;
#71=ADVANCED_FACE('Mostrina',(#70),#36,.T.) ;
#102=ADVANCED_FACE('Mostrina',(#101),#76,.F.) ;
#133=ADVANCED_FACE('Mostrina',(#132),#107,.F.) ;
#155=ADVANCED_FACE('Mostrina',(#154),#138,.T.) ;
#195=ADVANCED_FACE('Mostrina',(#194),#160,.T.) ;
#242=ADVANCED_FACE('Mostrina',(#241),#200,.F.) ;
#289=ADVANCED_FACE('Mostrina',(#288),#247,.F.) ;
#312=ADVANCED_FACE('Mostrina',(#305,#311),#294,.T.) ;
#329=ADVANCED_FACE('Mostrina',(#328),#317,.T.) ;
#346=ADVANCED_FACE('Mostrina',(#345),#334,.F.) ;
#363=ADVANCED_FACE('Mostrina',(#362),#351,.T.) ;
#409=ADVANCED_FACE('Mostrina',(#402,#408),#368,.T.) ;
#440=ADVANCED_FACE('Mostrina',(#439),#414,.T.) ;
#471=ADVANCED_FACE('Mostrina',(#470),#445,.F.) ;
#488=ADVANCED_FACE('Mostrina',(#487),#476,.T.) ;
#505=ADVANCED_FACE('Mostrina',(#504),#493,.F.) ;
#523=ADVANCED_FACE('Mostrina',(#516,#522),#510,.T.) ;
#4=APPLICATION_PROTOCOL_DEFINITION('international standard','automotive_design',2001,#1) ;
#22=MANIFOLD_SOLID_BREP('Mostrina',#31) ;
#164=CIRCLE('generated circle',#163,2.) ;
#180=CIRCLE('generated circle',#179,2.) ;
#204=CIRCLE('generated circle',#203,2.) ;
#251=CIRCLE('generated circle',#250,2.) ;
#23=COLOUR_RGB('Colour',0.341176470588,0.364705882353,0.36862745098) ;
#530=CONSTRUCTIVE_GEOMETRY_REPRESENTATION('supplemental geometry',(#529),#17) ;
#531=CONSTRUCTIVE_GEOMETRY_REPRESENTATION_RELATIONSHIP('supplemental geometry','',#20,#530) ;
#160=CYLINDRICAL_SURFACE('generated cylinder',#159,2.) ;
#317=CYLINDRICAL_SURFACE('generated cylinder',#316,2.) ;
#45=EDGE_CURVE('',#42,#44,#40,.T.) ;
#52=EDGE_CURVE('',#44,#51,#49,.T.) ;
#59=EDGE_CURVE('',#58,#51,#56,.T.) ;
#64=EDGE_CURVE('',#42,#58,#63,.T.) ;
#85=EDGE_CURVE('',#82,#84,#80,.T.) ;
#90=EDGE_CURVE('',#84,#51,#89,.T.) ;
#95=EDGE_CURVE('',#82,#44,#94,.T.) ;
#114=EDGE_CURVE('',#58,#113,#111,.T.) ;
#121=EDGE_CURVE('',#120,#113,#118,.T.) ;
#126=EDGE_CURVE('',#42,#120,#125,.T.) ;
#143=EDGE_CURVE('',#82,#120,#142,.T.) ;
#148=EDGE_CURVE('',#84,#113,#147,.T.) ;
#169=EDGE_CURVE('',#166,#168,#164,.F.) ;
#176=EDGE_CURVE('',#175,#168,#173,.T.) ;
#183=EDGE_CURVE('',#175,#182,#180,.T.) ;
#188=EDGE_CURVE('',#182,#166,#187,.T.) ;
#209=EDGE_CURVE('',#206,#208,#204,.T.) ;
#214=EDGE_CURVE('',#206,#182,#213,.T.) ;
#221=EDGE_CURVE('',#220,#175,#218,.F.) ;
#228=EDGE_CURVE('',#227,#220,#225,.T.) ;
#233=EDGE_CURVE('',#227,#208,#232,.F.) ;
#256=EDGE_CURVE('',#253,#255,#251,.T.) ;
#263=EDGE_CURVE('',#253,#262,#260,.F.) ;
#270=EDGE_CURVE('',#262,#269,#267,.T.) ;
#275=EDGE_CURVE('',#168,#269,#274,.F.) ;
#280=EDGE_CURVE('',#255,#166,#279,.T.) ;
#299=EDGE_CURVE('',#206,#255,#298,.T.) ;
#322=EDGE_CURVE('',#208,#253,#321,.T.) ;
#339=EDGE_CURVE('',#262,#227,#338,.F.) ;
#356=EDGE_CURVE('',#269,#220,#355,.F.) ;
#377=EDGE_CURVE('',#374,#376,#372,.T.) ;
#384=EDGE_CURVE('',#376,#383,#381,.T.) ;
#391=EDGE_CURVE('',#390,#383,#388,.T.) ;
#396=EDGE_CURVE('',#374,#390,#395,.T.) ;
#421=EDGE_CURVE('',#420,#376,#418,.T.) ;
#428=EDGE_CURVE('',#420,#427,#425,.T.) ;
#433=EDGE_CURVE('',#427,#383,#432,.T.) ;
#452=EDGE_CURVE('',#451,#390,#449,.T.) ;
#459=EDGE_CURVE('',#458,#451,#456,.T.) ;
#464=EDGE_CURVE('',#458,#374,#463,.T.) ;
#481=EDGE_CURVE('',#458,#420,#480,.T.) ;
#498=EDGE_CURVE('',#451,#427,#497,.T.) ;
#65=EDGE_LOOP('',(#66,#67,#68,#69)) ;
#96=EDGE_LOOP('',(#97,#98,#99,#100)) ;
#127=EDGE_LOOP('',(#128,#129,#130,#131)) ;
#149=EDGE_LOOP('',(#150,#151,#152,#153)) ;
#189=EDGE_LOOP('',(#190,#191,#192,#193)) ;
#234=EDGE_LOOP('',(#235,#236,#237,#238,#239,#240)) ;
#281=EDGE_LOOP('',(#282,#283,#284,#285,#286,#287)) ;
#300=EDGE_LOOP('',(#301,#302,#303,#304)) ;
#306=EDGE_LOOP('',(#307,#308,#309,#310)) ;
#323=EDGE_LOOP('',(#324,#325,#326,#327)) ;
#340=EDGE_LOOP('',(#341,#342,#343,#344)) ;
#357=EDGE_LOOP('',(#358,#359,#360,#361)) ;
#397=EDGE_LOOP('',(#398,#399,#400,#401)) ;
#403=EDGE_LOOP('',(#404,#405,#406,#407)) ;
#434=EDGE_LOOP('',(#435,#436,#437,#438)) ;
#465=EDGE_LOOP('',(#466,#467,#468,#469)) ;
#482=EDGE_LOOP('',(#483,#484,#485,#486)) ;
#499=EDGE_LOOP('',(#500,#501,#502,#503)) ;
#511=EDGE_LOOP('',(#512,#513,#514,#515)) ;
#517=EDGE_LOOP('',(#518,#519,#520,#521)) ;
#70=FACE_OUTER_BOUND('',#65,.T.) ;
#101=FACE_OUTER_BOUND('',#96,.T.) ;
#132=FACE_OUTER_BOUND('',#127,.T.) ;
#154=FACE_OUTER_BOUND('',#149,.T.) ;
#194=FACE_OUTER_BOUND('',#189,.T.) ;
#241=FACE_OUTER_BOUND('',#234,.T.) ;
#288=FACE_OUTER_BOUND('',#281,.T.) ;
#305=FACE_OUTER_BOUND('',#300,.T.) ;
#328=FACE_OUTER_BOUND('',#323,.T.) ;
#345=FACE_OUTER_BOUND('',#340,.T.) ;
#362=FACE_OUTER_BOUND('',#357,.T.) ;
#402=FACE_OUTER_BOUND('',#397,.T.) ;
#439=FACE_OUTER_BOUND('',#434,.T.) ;
#470=FACE_OUTER_BOUND('',#465,.T.) ;
#487=FACE_OUTER_BOUND('',#482,.T.) ;
#504=FACE_OUTER_BOUND('',#499,.T.) ;
#516=FACE_OUTER_BOUND('',#511,.T.) ;
#40=LINE('Line',#37,#39) ;
#49=LINE('Line',#46,#48) ;
#56=LINE('Line',#53,#55) ;
#63=LINE('Line',#60,#62) ;
#80=LINE('Line',#77,#79) ;
#89=LINE('Line',#86,#88) ;
#94=LINE('Line',#91,#93) ;
#111=LINE('Line',#108,#110) ;
#118=LINE('Line',#115,#117) ;
#125=LINE('Line',#122,#124) ;
#142=LINE('Line',#139,#141) ;
#147=LINE('Line',#144,#146) ;
#173=LINE('Line',#170,#172) ;
#187=LINE('Line',#184,#186) ;
#213=LINE('Line',#210,#212) ;
#218=LINE('Line',#215,#217) ;
#225=LINE('Line',#222,#224) ;
#232=LINE('Line',#229,#231) ;
#260=LINE('Line',#257,#259) ;
#267=LINE('Line',#264,#266) ;
#274=LINE('Line',#271,#273) ;
#279=LINE('Line',#276,#278) ;
#298=LINE('Line',#295,#297) ;
#321=LINE('Line',#318,#320) ;
#338=LINE('Line',#335,#337) ;
#355=LINE('Line',#352,#354) ;
#372=LINE('Line',#369,#371) ;
#381=LINE('Line',#378,#380) ;
#388=LINE('Line',#385,#387) ;
#395=LINE('Line',#392,#394) ;
#418=LINE('Line',#415,#417) ;
#425=LINE('Line',#422,#424) ;
#432=LINE('Line',#429,#431) ;
#449=LINE('Line',#446,#448) ;
#456=LINE('Line',#453,#455) ;
#463=LINE('Line',#460,#462) ;
#480=LINE('Line',#477,#479) ;
#497=LINE('Line',#494,#496) ;
#36=PLANE('',#35) ;
#76=PLANE('',#75) ;
#107=PLANE('',#106) ;
#138=PLANE('',#137) ;
#200=PLANE('',#199) ;
#247=PLANE('',#246) ;
#294=PLANE('',#293) ;
#334=PLANE('',#333) ;
#351=PLANE('',#350) ;
#368=PLANE('',#367) ;
#414=PLANE('',#413) ;
#445=PLANE('',#444) ;
#476=PLANE('',#475) ;
#493=PLANE('',#492) ;
#510=PLANE('',#509) ;
#14=PLANE_ANGLE_MEASURE_WITH_UNIT(PLANE_ANGLE_MEASURE(0.0174532925199),#13) ;
#9=PRODUCT_CATEGORY_RELATIONSHIP(' ',' ',#7,#8) ;
#6=PRODUCT_DEFINITION_FORMATION_WITH_SPECIFIED_SOURCE('',' ',#5,.NOT_KNOWN.) ;
#21=SHAPE_DEFINITION_REPRESENTATION(#11,#20) ;
#42=VERTEX_POINT('',#41) ;
#44=VERTEX_POINT('',#43) ;
#51=VERTEX_POINT('',#50) ;
#58=VERTEX_POINT('',#57) ;
#82=VERTEX_POINT('',#81) ;
#84=VERTEX_POINT('',#83) ;
#113=VERTEX_POINT('',#112) ;
#120=VERTEX_POINT('',#119) ;
#166=VERTEX_POINT('',#165) ;
#168=VERTEX_POINT('',#167) ;
#175=VERTEX_POINT('',#174) ;
#182=VERTEX_POINT('',#181) ;
#206=VERTEX_POINT('',#205) ;
#208=VERTEX_POINT('',#207) ;
#220=VERTEX_POINT('',#219) ;
#227=VERTEX_POINT('',#226) ;
#253=VERTEX_POINT('',#252) ;
#255=VERTEX_POINT('',#254) ;
#262=VERTEX_POINT('',#261) ;
#269=VERTEX_POINT('',#268) ;
#374=VERTEX_POINT('',#373) ;
#376=VERTEX_POINT('',#375) ;
#383=VERTEX_POINT('',#382) ;
#390=VERTEX_POINT('',#389) ;
#420=VERTEX_POINT('',#419) ;
#427=VERTEX_POINT('',#426) ;
#451=VERTEX_POINT('',#450) ;
#458=VERTEX_POINT('',#457) ;
#12=(LENGTH_UNIT()NAMED_UNIT(*)SI_UNIT(.MILLI.,.METRE.)) ;
#13=(NAMED_UNIT(*)PLANE_ANGLE_UNIT()SI_UNIT($,.RADIAN.)) ;
#15=(NAMED_UNIT(*)SI_UNIT($,.STERADIAN.)SOLID_ANGLE_UNIT()) ;
#17=(GEOMETRIC_REPRESENTATION_CONTEXT(3)GLOBAL_UNCERTAINTY_ASSIGNED_CONTEXT((#16))GLOBAL_UNIT_ASSIGNED_CONTEXT((#12,#13,#15))REPRESENTATION_CONTEXT(' ',' ')) ;
ENDSEC;
END-ISO-10303-21;
