  0
SECTION
  2
HEADER
  9
$ACADVER
  1
AC1009
  9
$DWGCODEPAGE
  3
iso8859-1
  9
$INSBASE
 10
0.0
 20
0.0
 30
0.0
  9
$EXTMIN
 10
1.0E20
 20
1.0E20
  9
$EXTMAX
 10
-1.0E20
 20
-1.0E20
  9
$LIMMIN
 10
0.0
 20
0.0
  9
$LIMMAX
 10
12.0
 20
9.0
  9
$ORTHOMODE
 70
     0
  9
$REGENMODE
 70
     1
  9
$FILLMODE
 70
     1
  9
$QTEXTMODE
 70
     0
  9
$MIRRTEXT
 70
     1
  9
$DRAGMODE
 70
     2
  9
$LTSCALE
 40
15.0
  9
$OSMODE
 70
     0
  9
$ATTMODE
 70
     1
  9
$TEXTSIZE
 40
0.2
  9
$TRACEWID
 40
0.05
  9
$TEXTSTYLE
  7
STANDARD
  9
$CLAYER
  8
0
  9
$CELTYPE
  6
DASHED
  9
$CECOLOR
 62
   256
  9
$DIMSCALE
 40
1.0
  9
$DIMASZ
 40
0.18
  9
$DIMEXO
 40
0.0625
  9
$DIMDLI
 40
0.38
  9
$DIMRND
 40
0.0
  9
$DIMDLE
 40
0.0
  9
$DIMEXE
 40
0.18
  9
$DIMTP
 40
0.0
  9
$DIMTM
 40
0.0
  9
$DIMTXT
 40
0.18
  9
$DIMCEN
 40
0.09
  9
$DIMTSZ
 40
0.0
  9
$DIMTOL
 70
     0
  9
$DIMLIM
 70
     0
  9
$DIMTIH
 70
     1
  9
$DIMTOH
 70
     1
  9
$DIMSE1
 70
     0
  9
$DIMSE2
 70
     0
  9
$DIMTAD
 70
     0
  9
$DIMZIN
 70
     0
  9
$DIMBLK
  1

  9
$DIMASO
 70
     1
  9
$DIMSHO
 70
     1
  9
$DIMPOST
  1

  9
$DIMAPOST
  1

  9
$DIMALT
 70
     0
  9
$DIMALTD
 70
     2
  9
$DIMALTF
 40
25.4
  9
$DIMLFAC
 40
1.0
  9
$DIMTOFL
 70
     0
  9
$DIMTVP
 40
0.0
  9
$DIMTIX
 70
     0
  9
$DIMSOXD
 70
     0
  9
$DIMSAH
 70
     0
  9
$DIMBLK1
  1

  9
$DIMBLK2
  1

  9
$DIMSTYLE
  2
STANDARD
  9
$DIMCLRD
 70
     0
  9
$DIMCLRE
 70
     0
  9
$DIMCLRT
 70
     0
  9
$DIMTFAC
 40
1.0
  9
$DIMGAP
 40
0.09
  9
$LUNITS
 70
     2
  9
$LUPREC
 70
     4
  9
$AXISMODE
 70
     0
  9
$AXISUNIT
 10
0.0
 20
0.0
  9
$SKETCHINC
 40
0.1
  9
$FILLETRAD
 40
0.0
  9
$AUNITS
 70
     0
  9
$AUPREC
 70
     0
  9
$MENU
  1
acad
  9
$ELEVATION
 40
0.0
  9
$PELEVATION
 40
0.0
  9
$THICKNESS
 40
0.0
  9
$LIMCHECK
 70
     0
  9
$BLIPMODE
 70
     1
  9
$CHAMFERA
 40
0.0
  9
$CHAMFERB
 40
0.0
  9
$SKPOLY
 70
     0
  9
$TDCREATE
 40
0.000000000
  9
$TDUPDATE
 40
0.000000000
  9
$TDINDWG
 40
0.0
  9
$TDUSRTIMER
 40
0.0
  9
$USRTIMER
 70
     1
  9
$ANGBASE
 50
0.0
  9
$ANGDIR
 70
     0
  9
$PDMODE
 70
     0
  9
$PDSIZE
 40
0.0
  9
$PLINEWID
 40
0.0
  9
$COORDS
 70
     1
  9
$SPLFRAME
 70
     0
  9
$SPLINETYPE
 70
     6
  9
$SPLINESEGS
 70
     8
  9
$ATTDIA
 70
     0
  9
$ATTREQ
 70
     1
  9
$HANDLING
 70
     1
  9
$HANDSEED
  5
   99A
  9
$SURFTAB1
 70
     6
  9
$SURFTAB2
 70
     6
  9
$SURFTYPE
 70
     6
  9
$SURFU
 70
     6
  9
$SURFV
 70
     6
  9
$UCSNAME
  2

  9
$UCSORG
 10
0.0
 20
0.0
 30
0.0
  9
$UCSXDIR
 10
1.0
 20
0.0
 30
0.0
  9
$UCSYDIR
 10
0.0
 20
1.0
 30
0.0
  9
$PUCSNAME
  2

  9
$PUCSORG
 10
0.0
 20
0.0
 30
0.0
  9
$PUCSXDIR
 10
1.0
 20
0.0
 30
0.0
  9
$PUCSYDIR
 10
0.0
 20
1.0
 30
0.0
  9
$USERI1
 70
     0
  9
$USERI2
 70
     0
  9
$USERI3
 70
     0
  9
$USERI4
 70
     0
  9
$USERI5
 70
     0
  9
$USERR1
 40
0.0
  9
$USERR2
 40
0.0
  9
$USERR3
 40
0.0
  9
$USERR4
 40
0.0
  9
$USERR5
 40
0.0
  9
$WORLDVIEW
 70
     1
  9
$SHADEDGE
 70
     3
  9
$SHADEDIF
 70
    70
  9
$TILEMODE
 70
     1
  9
$MAXACTVP
 70
    16
  9
$PINSBASE
 10
0.0
 20
0.0
 30
0.0
  9
$PLIMCHECK
 70
     0
  9
$PEXTMIN
 10
1.0E20
 20
1.0E20
 30
1.0E20
  9
$PEXTMAX
 10
-1.0E20
 20
-1.0E20
 30
-1.0E20
  9
$PLIMMIN
 10
0.0
 20
0.0
  9
$PLIMMAX
 10
12.0
 20
9.0
  9
$UNITMODE
 70
     0
  9
$VISRETAIN
 70
     0
  0
ENDSEC
  0
SECTION
  2
TABLES
  0
TABLE
  2
VPORT
 70
     1
  0
VPORT
  2
*ACTIVE
 70
     0
 10
0.0
 20
0.0
 11
1.0
 21
1.0
 12
6.801242
 22
4.5
 13
0.0
 23
0.0
 14
1.0
 24
1.0
 15
0.0
 25
0.0
 16
0.0
 26
0.0
 36
1.0
 17
0.0
 27
0.0
 37
0.0
 40
9.0
 41
1.511387
 42
50.0
 43
0.0
 44
0.0
 50
0.0
 51
0.0
 71
     0
 72
   100
 73
     1
 74
     1
 75
     0
 76
     0
 77
     0
 78
     0
  0
ENDTAB
  0
TABLE
  2
LTYPE
 70
    41
  0
LTYPE
  2
BYBLOCK
 70
     0
  3

 72
    65
 73
     0
 40
0.0
  0
LTYPE
  2
BYLAYER
 70
     0
  3

 72
    65
 73
     0
 40
0.0
  0
LTYPE
  2
CONTINUOUS
 70
     0
  3
Solid line
 72
    65
 73
     0
 40
0.0
  0
LTYPE
  2
BORDER
 70
    64
  3
__ __ . __ __ . __ __ . __ __ . __ __ . __ __ .
 72
    65
 73
     6
 40
1.75
 49
0.5
 49
-0.25
 49
0.5
 49
-0.25
 49
0.0
 49
-0.25
  0
LTYPE
  2
BORDER2
 70
    64
  3
__.__.__.__.__.__.__.__.__.__.__.__.__.__.__.__
 72
    65
 73
     6
 40
0.875
 49
0.25
 49
-0.125
 49
0.25
 49
-0.125
 49
0.0
 49
-0.125
  0
LTYPE
  2
BORDERX2
 70
    64
  3
____  ____  .  ____  ____  .  ____  ____  .  __
 72
    65
 73
     6
 40
3.5
 49
1.0
 49
-0.5
 49
1.0
 49
-0.5
 49
0.0
 49
-0.5
  0
LTYPE
  2
CENTER
 70
    64
  3
____ _ ____ _ ____ _ ____ _ ____ _ ____ _ ____
 72
    65
 73
     4
 40
2.0
 49
1.25
 49
-0.25
 49
0.25
 49
-0.25
  0
LTYPE
  2
CENTER2
 70
    64
  3
___ _ ___ _ ___ _ ___ _ ___ _ ___ _ ___ _ ___ _
 72
    65
 73
     4
 40
1.125
 49
0.75
 49
-0.125
 49
0.125
 49
-0.125
  0
LTYPE
  2
CENTERX2
 70
    64
  3
________  __  ________  __  ________  __  _____
 72
    65
 73
     4
 40
4.0
 49
2.5
 49
-0.5
 49
0.5
 49
-0.5
  0
LTYPE
  2
DASHDOT
 70
    64
  3
__ . __ . __ . __ . __ . __ . __ . __ . __ . __
 72
    65
 73
     4
 40
1.0
 49
0.5
 49
-0.25
 49
0.0
 49
-0.25
  0
LTYPE
  2
DASHDOT2
 70
    64
  3
_._._._._._._._._._._._._._._._._._._._._._._._
 72
    65
 73
     4
 40
0.5
 49
0.25
 49
-0.125
 49
0.0
 49
-0.125
  0
LTYPE
  2
DASHDOTX2
 70
    64
  3
____  .  ____  .  ____  .  ____  .  ____  .  __
 72
    65
 73
     4
 40
2.0
 49
1.0
 49
-0.5
 49
0.0
 49
-0.5
  0
LTYPE
  2
DASHED
 70
    64
  3
__ __ __ __ __ __ __ __ __ __ __ __ __ __ __ __
 72
    65
 73
     2
 40
0.75
 49
0.5
 49
-0.25
  0
LTYPE
  2
DASHED2
 70
    64
  3
_ _ _ _ _ _ _ _ _ _ _ _ _ _ _ _ _ _ _ _ _ _ _ _
 72
    65
 73
     2
 40
0.375
 49
0.25
 49
-0.125
  0
LTYPE
  2
DASHEDX2
 70
    64
  3
____  ____  ____  ____  ____  ____  ____  ____
 72
    65
 73
     2
 40
1.5
 49
1.0
 49
-0.5
  0
LTYPE
  2
DIVIDE
 70
    64
  3
____ . . ____ . . ____ . . ____ . . ____ . . __
 72
    65
 73
     6
 40
1.25
 49
0.5
 49
-0.25
 49
0.0
 49
-0.25
 49
0.0
 49
-0.25
  0
LTYPE
  2
DIVIDE2
 70
    64
  3
__..__..__..__..__..__..__..__..__..__..__..__.
 72
    65
 73
     6
 40
0.625
 49
0.25
 49
-0.125
 49
0.0
 49
-0.125
 49
0.0
 49
-0.125
  0
LTYPE
  2
DIVIDEX2
 70
    64
  3
________  .  .  ________  .  .  ________  .  .
 72
    65
 73
     6
 40
2.5
 49
1.0
 49
-0.5
 49
0.0
 49
-0.5
 49
0.0
 49
-0.5
  0
LTYPE
  2
DOT
 70
    64
  3
. . . . . . . . . . . . . . . . . . . . . . . .
 72
    65
 73
     2
 40
0.25
 49
0.0
 49
-0.25
  0
LTYPE
  2
DOT2
 70
    64
  3
...............................................
 72
    65
 73
     2
 40
0.125
 49
0.0
 49
-0.125
  0
LTYPE
  2
DOTX2
 70
    64
  3
.  .  .  .  .  .  .  .  .  .  .  .  .  .  .  .
 72
    65
 73
     2
 40
0.5
 49
0.0
 49
-0.5
  0
LTYPE
  2
HIDDEN
 70
    64
  3
__ __ __ __ __ __ __ __ __ __ __ __ __ __ __ __
 72
    65
 73
     2
 40
0.375
 49
0.25
 49
-0.125
  0
LTYPE
  2
HIDDEN2
 70
    64
  3
_ _ _ _ _ _ _ _ _ _ _ _ _ _ _ _ _ _ _ _ _ _ _ _
 72
    65
 73
     2
 40
0.1875
 49
0.125
 49
-0.0625
  0
LTYPE
  2
HIDDENX2
 70
    64
  3
____ ____ ____ ____ ____ ____ ____ ____ ____ __
 72
    65
 73
     2
 40
0.75
 49
0.5
 49
-0.25
  0
LTYPE
  2
PHANTOM
 70
    64
  3
______  __  __  ______  __  __  ______  __  __
 72
    65
 73
     6
 40
2.5
 49
1.25
 49
-0.25
 49
0.25
 49
-0.25
 49
0.25
 49
-0.25
  0
LTYPE
  2
PHANTOM2
 70
    64
  3
___ _ _ ___ _ _ ___ _ _ ___ _ _ ___ _ _ ___ _ _
 72
    65
 73
     6
 40
1.25
 49
0.625
 49
-0.125
 49
0.125
 49
-0.125
 49
0.125
 49
-0.125
  0
LTYPE
  2
PHANTOMX2
 70
    64
  3
____________    ____    ____    ____________
 72
    65
 73
     6
 40
5.0
 49
2.5
 49
-0.5
 49
0.5
 49
-0.5
 49
0.5
 49
-0.5
  0
LTYPE
  2
ACAD_ISO02W100
 70
    64
  3
__ __ __ __ __ __ __ __ __ __ __ __ __ __ __ __
 72
    65
 73
     2
 40
15.0
 49
12.0
 49
-3.0
  0
LTYPE
  2
ACAD_ISO03W100
 70
    64
  3
__    __    __    __    __    __    __    __
 72
    65
 73
     2
 40
30.0
 49
12.0
 49
-18.0
  0
LTYPE
  2
ACAD_ISO04W100
 70
    64
  3
____ . ____ . ____ . ____ . ____ . ____ . ____
 72
    65
 73
     4
 40
30.5
 49
24.0
 49
-3.0
 49
0.5
 49
-3.0
  0
LTYPE
  2
ACAD_ISO05W100
 70
    64
  3
____ .. ____ .. ____ .. ____ .. ____ .. ____ ..
 72
    65
 73
     6
 40
34.0
 49
24.0
 49
-3.0
 49
0.5
 49
-3.0
 49
0.5
 49
-3.0
  0
LTYPE
  2
ACAD_ISO06W100
 70
    64
  3
____ ... ____ ... ____ ... ____ ... ____ ... __
 72
    65
 73
     8
 40
37.5
 49
24.0
 49
-3.0
 49
0.5
 49
-3.0
 49
0.5
 49
-3.0
 49
0.5
 49
-3.0
  0
LTYPE
  2
ACAD_ISO07W100
 70
    64
  3
. . . . . . . . . . . . . . . . . . . . . . . .
 72
    65
 73
     2
 40
3.5
 49
0.5
 49
-3.0
  0
LTYPE
  2
ACAD_ISO08W100
 70
    64
  3
____ __ ____ __ ____ __ ____ ____ __ __ ____ __
 72
    65
 73
     4
 40
36.0
 49
24.0
 49
-3.0
 49
6.0
 49
-3.0
  0
LTYPE
  2
ACAD_ISO09W100
 70
    64
  3
____ __ __ ____ __ __ ____ __ __ ____ __ __ ___
 72
    65
 73
     6
 40
45.0
 49
24.0
 49
-3.0
 49
6.0
 49
-3.0
 49
6.0
 49
-3.0
  0
LTYPE
  2
ACAD_ISO10W100
 70
    64
  3
__ . __ . __ . __ . __ . __ . __ . __ . __ . __
 72
    65
 73
     4
 40
18.5
 49
12.0
 49
-3.0
 49
0.5
 49
-3.0
  0
LTYPE
  2
ACAD_ISO11W100
 70
    64
  3
__ __ . __ __ . __ __ . __ __ . __ __ . __ __ .
 72
    65
 73
     6
 40
33.5
 49
12.0
 49
-3.0
 49
12.0
 49
-3.0
 49
0.5
 49
-3.0
  0
LTYPE
  2
ACAD_ISO12W100
 70
    64
  3
__ . . __ . . __ . . __ . . __ . . __ . . __ .
 72
    65
 73
     6
 40
22.0
 49
12.0
 49
-3.0
 49
0.5
 49
-3.0
 49
0.5
 49
-3.0
  0
LTYPE
  2
ACAD_ISO13W100
 70
    64
  3
__ __ . . __ __ . . __ __ . . __ __ . . __ __ .
 72
    65
 73
     8
 40
37.0
 49
12.0
 49
-3.0
 49
12.0
 49
-3.0
 49
0.5
 49
-3.0
 49
0.5
 49
-3.0
  0
LTYPE
  2
ACAD_ISO14W100
 70
    64
  3
__ . . . __ . . . __ . . . __ . . . __ . . . __
 72
    65
 73
     8
 40
25.5
 49
12.0
 49
-3.0
 49
0.5
 49
-3.0
 49
0.5
 49
-3.0
 49
0.5
 49
-3.0
  0
LTYPE
  2
ACAD_ISO15W100
 70
    64
  3
__ __ . . . __ __ . . . __ __ . . . __ __ . . .
 72
    65
 73
    10
 40
40.5
 49
12.0
 49
-3.0
 49
12.0
 49
-3.0
 49
0.5
 49
-3.0
 49
0.5
 49
-3.0
 49
0.5
 49
-3.0
  0
ENDTAB
  0
TABLE
  2
STYLE
 70
     4
  0
STYLE
  2
STANDARD
 70
    64
 40
0.0
 41
1.0
 50
0.0
 71
     0
 42
0.2
  3
txt
  4

  0
STYLE
  2
TOLERANCE
 70
    64
 40
0.0
 41
1.0
 50
0.0
 71
     0
 42
0.2
  3
../igesfont/iges1003.shx
  4

  0
STYLE
  2
ROMANS
 70
    64
 40
0.0
 41
1.0
 50
0.0
 71
     0
 42
0.2
  3
romans.shx
  4

  0
STYLE
  2
ROMANC
 70
    64
 40
0.0
 41
1.0
 50
0.0
 71
     0
 42
0.2
  3
romanc.shx
  4

  0
ENDTAB
  0
TABLE
  2
DIMSTYLE
 70
     2
  0
DIMSTYLE
  2
UNNAMED
 70
     0
  3

  4

  5

  6

  7

 40
1.0
 41
0.18
 42
0.0625
 43
0.38
 44
0.18
 45
0.0
 46
0.0
 47
0.0
 48
0.0
140
0.18
141
0.09
142
0.0
143
25.4
144
1.0
145
0.0
146
1.0
147
0.09
 71
     0
 72
     0
 73
     1
 74
     1
 75
     0
 76
     0
 77
     0
 78
     0
170
     0
171
     2
172
     0
173
     0
174
     0
175
     0
176
     0
177
     0
178
     0
  0
DIMSTYLE
  2
STANDARD
 70
     0
  3

  4

  5

  6

  7

 40
1.0
 41
0.18
 42
0.0625
 43
0.38
 44
0.18
 45
0.0
 46
0.0
 47
0.0
 48
0.0
140
0.18
141
0.09
142
0.0
143
25.4
144
1.0
145
0.0
146
1.0
147
0.09
 71
     0
 72
     0
 73
     1
 74
     1
 75
     0
 76
     0
 77
     0
 78
     0
170
     0
171
     2
172
     0
173
     0
174
     0
175
     0
176
     0
177
     0
178
     0
  0
ENDTAB
  0
TABLE
  2
LAYER
 70
     2
  0
LAYER
  2
0
 70
     0
 62
     7
  6
CONTINUOUS
  0
LAYER
  2
255
 70
     0
 62
     7
  6
CONTINUOUS
  0
ENDTAB
  0
ENDSEC
  0
SECTION
  2
BLOCKS
  0
BLOCK
  5
     B
  8
0
  6
CONTINUOUS
 62
     3
  2
*UDIM176
 70
    65
 10
0.0
 20
0.0
 30
0.0
  3
*UDIM176
  0
TEXT
  5
     C
  8
0
  6
CONTINUOUS
 62
     3
 10
2250.11293950137
 20
-1082.93976358867
 30
0.0
 40
2.99999994933605
  1
111
 50
359.999999896069
 41
0.933333333333333
 72
     1
 11
2254.01293943822
 21
-1081.43976362105
 31
0.0
 73
     2
  0
LINE
  5
     D
  8
0
  6
CONTINUOUS
 62
     3
 10
2276.48793983459
 20
-1125.1622703135
 30
0.0
 11
2276.48793983459
 21
-1081.93976359572
 31
0.0
  0
LINE
  5
     E
  8
0
  6
CONTINUOUS
 62
     3
 10
2232.08793917298
 20
-1125.1622703135
 30
0.0
 11
2232.08793917298
 21
-1081.93976359572
 31
0.0
  0
LINE
  5
     F
  8
0
  6
CONTINUOUS
 62
     3
 10
2276.48793983459
 20
-1083.93976359572
 30
0.0
 11
2232.08793917298
 21
-1083.93976359572
 31
0.0
  0
LINE
  5
    10
  8
0
  6
CONTINUOUS
 62
     3
 10
2273.53351655739
 20
-1084.46070802567
 30
0.0
 11
2276.48793983459
 21
-1083.93976359572
 31
0.0
  0
LINE
  5
    11
  8
0
  6
CONTINUOUS
 62
     3
 10
2276.48793983459
 20
-1083.93976359572
 30
0.0
 11
2273.53351655739
 21
-1083.41881916577
 31
0.0
  0
LINE
  5
    12
  8
0
  6
CONTINUOUS
 62
     3
 10
2235.04236245019
 20
-1083.41881916577
 30
0.0
 11
2232.08793917298
 21
-1083.93976359572
 31
0.0
  0
LINE
  5
    13
  8
0
  6
CONTINUOUS
 62
     3
 10
2232.08793917298
 20
-1083.93976359572
 30
0.0
 11
2235.04236245019
 21
-1084.46070802567
 31
0.0
  0
ENDBLK
  5
    14
  8
0
  6
CONTINUOUS
 62
     3
  0
BLOCK
  5
    15
  8
0
  6
CONTINUOUS
 62
     3
  2
*UDIM177
 70
    65
 10
0.0
 20
0.0
 30
0.0
  3
*UDIM177
  0
TEXT
  5
    16
  8
0
  6
CONTINUOUS
 62
     3
 10
2247.31293951886
 20
-1090.50167470703
 30
0.0
 40
2.99999994933605
  1
108,5
 50
359.999999896069
 41
0.933333333333333
 72
     1
 11
2254.01293940842
 21
-1089.00167474448
 31
0.0
 73
     2
  0
LINE
  5
    17
  8
0
  6
CONTINUOUS
 62
     3
 10
2275.98793982714
 20
-1143.96227059364
 30
0.0
 11
2275.98793982714
 21
-1089.50167471915
 31
0.0
  0
LINE
  5
    18
  8
0
  6
CONTINUOUS
 62
     3
 10
2232.58793918043
 20
-1143.96227059364
 30
0.0
 11
2232.58793918043
 21
-1089.50167471915
 31
0.0
  0
LINE
  5
    19
  8
0
  6
CONTINUOUS
 62
     3
 10
2275.98793982714
 20
-1091.50167471915
 30
0.0
 11
2232.58793918043
 21
-1091.50167471915
 31
0.0
  0
LINE
  5
    1A
  8
0
  6
CONTINUOUS
 62
     3
 10
2273.03351654994
 20
-1092.0226191491
 30
0.0
 11
2275.98793982714
 21
-1091.50167471915
 31
0.0
  0
LINE
  5
    1B
  8
0
  6
CONTINUOUS
 62
     3
 10
2275.98793982714
 20
-1091.50167471915
 30
0.0
 11
2273.03351654994
 21
-1090.98073028919
 31
0.0
  0
LINE
  5
    1C
  8
0
  6
CONTINUOUS
 62
     3
 10
2235.54236245764
 20
-1090.98073028919
 30
0.0
 11
2232.58793918043
 21
-1091.50167471915
 31
0.0
  0
LINE
  5
    1D
  8
0
  6
CONTINUOUS
 62
     3
 10
2232.58793918043
 20
-1091.50167471915
 30
0.0
 11
2235.54236245764
 21
-1092.0226191491
 31
0.0
  0
ENDBLK
  5
    1E
  8
0
  6
CONTINUOUS
 62
     3
  0
BLOCK
  5
    1F
  8
0
  6
CONTINUOUS
 62
     3
  2
*UDIM178
 70
    65
 10
0.0
 20
0.0
 30
0.0
  3
*UDIM178
  0
TEXT
  5
    20
  8
0
  6
CONTINUOUS
 62
     3
 10
2265.12294030638
 20
-1099.7061365217
 30
0.0
 40
2.99999994933605
  1
43
 50
359.999999896069
 41
0.933333333333333
 72
     1
 11
2267.62294026688
 21
-1098.20613655156
 31
0.0
 73
     2
  0
LINE
  5
    21
  8
0
  6
CONTINUOUS
 62
     3
 10
2276.48793983459
 20
-1125.1622703135
 30
0.0
 11
2276.48793983459
 21
-1098.70613652623
 31
0.0
  0
LINE
  5
    22
  8
0
  6
CONTINUOUS
 62
     3
 10
2259.30793957859
 20
-1122.6211248325
 30
0.0
 11
2259.30793957859
 21
-1098.70613652623
 31
0.0
  0
LINE
  5
    23
  8
0
  6
CONTINUOUS
 62
     3
 10
2276.48793983459
 20
-1100.70613652623
 30
0.0
 11
2259.30793957859
 21
-1100.70613652623
 31
0.0
  0
LINE
  5
    24
  8
0
  6
CONTINUOUS
 62
     3
 10
2273.53351655739
 20
-1101.22708095618
 30
0.0
 11
2276.48793983459
 21
-1100.70613652623
 31
0.0
  0
LINE
  5
    25
  8
0
  6
CONTINUOUS
 62
     3
 10
2276.48793983459
 20
-1100.70613652623
 30
0.0
 11
2273.53351655739
 21
-1100.18519209627
 31
0.0
  0
LINE
  5
    26
  8
0
  6
CONTINUOUS
 62
     3
 10
2262.2623628558
 20
-1100.18519209627
 30
0.0
 11
2259.30793957859
 21
-1100.70613652623
 31
0.0
  0
LINE
  5
    27
  8
0
  6
CONTINUOUS
 62
     3
 10
2259.30793957859
 20
-1100.70613652623
 30
0.0
 11
2262.2623628558
 21
-1101.22708095618
 31
0.0
  0
ENDBLK
  5
    28
  8
0
  6
CONTINUOUS
 62
     3
  0
BLOCK
  5
    29
  8
0
  6
CONTINUOUS
 62
     3
  2
*UDIM179
 70
    65
 10
0.0
 20
0.0
 30
0.0
  3
*UDIM179
  0
TEXT
  5
    2A
  8
0
  6
CONTINUOUS
 62
     3
 10
2243.43341704421
 20
-1118.20261273651
 30
0.0
 40
2.99999994933605
  1
4
 50
376.04505809483
 41
0.933333333333333
 72
     1
 11
2244.07597630341
 21
-1116.45701327456
 31
0.0
 73
     2
  0
TEXT
  5
    2B
  8
0
  6
CONTINUOUS
 62
     3
 10
2240.79054432589
 20
-1118.96269408477
 30
0.0
 40
2.99999994933605
  1
Ø
 50
376.04505809483
 41
0.933333333333333
 72
     1
 11
2241.43310358509
 21
-1117.21709462282
 31
0.0
 73
     2
  0
LINE
  5
    2C
  8
0
  6
CONTINUOUS
 62
     3
 10
2245.82410842581
 20
-1118.55559229741
 30
0.0
 11
2231.81910346205
 21
-1122.58338485114
 31
0.0
  0
LINE
  5
    2D
  8
0
  6
CONTINUOUS
 62
     3
 10
2236.05212202646
 20
-1120.82392228048
 30
0.0
 11
2233.35677489882
 21
-1122.14115569241
 31
0.0
  0
LINE
  5
    2E
  8
0
  6
CONTINUOUS
 62
     3
 10
2233.35677489882
 20
-1122.14115569241
 30
0.0
 11
2236.34009304343
 21
-1121.82522397817
 31
0.0
  0
LINE
  5
    2F
  8
0
  6
CONTINUOUS
 62
     3
 10
2229.1237563344
 20
-1123.90061826307
 30
0.0
 11
2231.81910346205
 21
-1122.58338485114
 31
0.0
  0
LINE
  5
    30
  8
0
  6
CONTINUOUS
 62
     3
 10
2231.81910346205
 20
-1122.58338485114
 30
0.0
 11
2228.83578531744
 21
-1122.89931656539
 31
0.0
  0
ENDBLK
  5
    31
  8
0
  6
CONTINUOUS
 62
     3
  0
BLOCK
  5
    32
  8
0
  6
CONTINUOUS
 62
     3
  2
*UDIM180
 70
    65
 10
0.0
 20
0.0
 30
0.0
  3
*UDIM180
  0
TEXT
  5
    33
  8
0
  6
CONTINUOUS
 62
     3
 10
2207.50544980086
 20
-1164.33940156168
 30
0.0
 40
2.99999994933605
  1
125
 50
449.999999896069
 41
0.933333333333333
 72
     1
 11
2206.00544983324
 21
-1160.43940162483
 31
0.0
 73
     2
  0
LINE
  5
    34
  8
0
  6
CONTINUOUS
 62
     3
 10
2221.69909112934
 20
-1135.16227046251
 30
0.0
 11
2206.50544980791
 21
-1135.16227046251
 31
0.0
  0
LINE
  5
    35
  8
0
  6
CONTINUOUS
 62
     3
 10
2221.69909112934
 20
-1185.16652902013
 30
0.0
 11
2206.50544980791
 21
-1185.16652902013
 31
0.0
  0
LINE
  5
    36
  8
0
  6
CONTINUOUS
 62
     3
 10
2208.5054498079
 20
-1135.16227046251
 30
0.0
 11
2208.5054498079
 21
-1185.16652902013
 31
0.0
  0
LINE
  5
    37
  8
0
  6
CONTINUOUS
 62
     3
 10
2209.02639423786
 20
-1138.11669373972
 30
0.0
 11
2208.5054498079
 21
-1135.16227046251
 31
0.0
  0
LINE
  5
    38
  8
0
  6
CONTINUOUS
 62
     3
 10
2208.5054498079
 20
-1135.16227046251
 30
0.0
 11
2207.98450537795
 21
-1138.11669373972
 31
0.0
  0
LINE
  5
    39
  8
0
  6
CONTINUOUS
 62
     3
 10
2207.98450537795
 20
-1182.21210574293
 30
0.0
 11
2208.5054498079
 21
-1185.16652902013
 31
0.0
  0
LINE
  5
    3A
  8
0
  6
CONTINUOUS
 62
     3
 10
2208.5054498079
 20
-1185.16652902013
 30
0.0
 11
2209.02639423786
 21
-1182.21210574293
 31
0.0
  0
ENDBLK
  5
    3B
  8
0
  6
CONTINUOUS
 62
     3
  0
BLOCK
  5
    3C
  8
0
  6
CONTINUOUS
 62
     3
  2
*UDIM181
 70
    65
 10
0.0
 20
0.0
 30
0.0
  3
*UDIM181
  0
TEXT
  5
    3D
  8
0
  6
CONTINUOUS
 62
     3
 10
2250.11293950137
 20
-1156.68920011242
 30
0.0
 40
2.99999994933605
  1
111
 50
359.999999896069
 41
0.933333333333333
 72
     1
 11
2254.01293943822
 21
-1155.18920014481
 31
0.0
 73
     2
  0
LINE
  5
    3E
  8
0
  6
CONTINUOUS
 62
     3
 10
2276.48793983459
 20
-1175.16652887112
 30
0.0
 11
2276.48793983459
 21
-1155.68920011948
 31
0.0
  0
LINE
  5
    3F
  8
0
  6
CONTINUOUS
 62
     3
 10
2232.08793917298
 20
-1175.16652887112
 30
0.0
 11
2232.08793917298
 21
-1155.68920011948
 31
0.0
  0
LINE
  5
    40
  8
0
  6
CONTINUOUS
 62
     3
 10
2276.48793983459
 20
-1157.68920011948
 30
0.0
 11
2232.08793917298
 21
-1157.68920011948
 31
0.0
  0
LINE
  5
    41
  8
0
  6
CONTINUOUS
 62
     3
 10
2273.53351655739
 20
-1158.21014454943
 30
0.0
 11
2276.48793983459
 21
-1157.68920011948
 31
0.0
  0
LINE
  5
    42
  8
0
  6
CONTINUOUS
 62
     3
 10
2276.48793983459
 20
-1157.68920011948
 30
0.0
 11
2273.53351655739
 21
-1157.16825568953
 31
0.0
  0
LINE
  5
    43
  8
0
  6
CONTINUOUS
 62
     3
 10
2235.04236245019
 20
-1157.16825568953
 30
0.0
 11
2232.08793917298
 21
-1157.68920011948
 31
0.0
  0
LINE
  5
    44
  8
0
  6
CONTINUOUS
 62
     3
 10
2232.08793917298
 20
-1157.68920011948
 30
0.0
 11
2235.04236245019
 21
-1158.21014454943
 31
0.0
  0
ENDBLK
  5
    45
  8
0
  6
CONTINUOUS
 62
     3
  0
BLOCK
  5
    46
  8
0
  6
CONTINUOUS
 62
     3
  2
*UDIM182
 70
    65
 10
0.0
 20
0.0
 30
0.0
  3
*UDIM182
  0
TEXT
  5
    47
  8
0
  6
CONTINUOUS
 62
     3
 10
2243.43341399427
 20
-1168.20686334202
 30
0.0
 40
2.99999994933605
  1
4
 50
376.045100105181
 41
0.933333333333333
 72
     1
 11
2244.07597197356
 21
-1166.46126340894
 31
0.0
 73
     2
  0
TEXT
  5
    48
  8
0
  6
CONTINUOUS
 62
     3
 10
2240.79054183326
 20
-1168.96694662809
 30
0.0
 40
2.99999994933605
  1
Ø
 50
376.045100105181
 41
0.933333333333333
 72
     1
 11
2241.43309981255
 21
-1167.22134669501
 31
0.0
 73
     2
  0
LINE
  5
    49
  8
0
  6
CONTINUOUS
 62
     3
 10
2245.82410563467
 20
-1168.55984115002
 30
0.0
 11
2231.81910362417
 21
-1172.58764397249
 31
0.0
  0
LINE
  5
    4A
  8
0
  6
CONTINUOUS
 62
     3
 10
2236.05212089852
 20
-1170.8281782981
 30
0.0
 11
2233.35677473669
 21
-1172.14541368631
 31
0.0
  0
LINE
  5
    4B
  8
0
  6
CONTINUOUS
 62
     3
 10
2233.35677473669
 20
-1172.14541368631
 30
0.0
 11
2236.34009264965
 21
-1171.82947978464
 31
0.0
  0
LINE
  5
    4C
  8
0
  6
CONTINUOUS
 62
     3
 10
2229.12375746235
 20
-1173.9048793607
 30
0.0
 11
2231.81910362417
 21
-1172.58764397249
 31
0.0
  0
LINE
  5
    4D
  8
0
  6
CONTINUOUS
 62
     3
 10
2231.81910362417
 20
-1172.58764397249
 30
0.0
 11
2228.83578571122
 21
-1172.90357787416
 31
0.0
  0
ENDBLK
  5
    4E
  8
0
  6
CONTINUOUS
 62
     3
  0
BLOCK
  5
    4F
  8
0
  6
CONTINUOUS
 62
     3
  2
*UDIM183
 70
    65
 10
0.0
 20
0.0
 30
0.0
  3
*UDIM183
  0
TEXT
  5
    50
  8
0
  6
CONTINUOUS
 62
     3
 10
2262.5759939406
 20
-1163.99162026265
 30
0.0
 40
2.99999994933605
  1
41,7
 50
359.999999896069
 41
0.933333333333333
 72
     1
 11
2267.87599385381
 21
-1162.49162029757
 31
0.0
 73
     2
  0
LINE
  5
    51
  8
0
  6
CONTINUOUS
 62
     3
 10
2275.98793982714
 20
-1167.56652875787
 30
0.0
 11
2275.98793982714
 21
-1162.99162027224
 31
0.0
  0
LINE
  5
    52
  8
0
  6
CONTINUOUS
 62
     3
 10
2275.98793982714
 20
-1164.99162027224
 30
0.0
 11
2259.30793957859
 21
-1164.99162027224
 31
0.0
  0
LINE
  5
    53
  8
0
  6
CONTINUOUS
 62
     3
 10
2273.03351654994
 20
-1165.51256470219
 30
0.0
 11
2275.98793982714
 21
-1164.99162027224
 31
0.0
  0
LINE
  5
    54
  8
0
  6
CONTINUOUS
 62
     3
 10
2275.98793982714
 20
-1164.99162027224
 30
0.0
 11
2273.03351654994
 21
-1164.47067584229
 31
0.0
  0
LINE
  5
    55
  8
0
  6
CONTINUOUS
 62
     3
 10
2262.2623628558
 20
-1164.47067584229
 30
0.0
 11
2259.30793957859
 21
-1164.99162027224
 31
0.0
  0
LINE
  5
    56
  8
0
  6
CONTINUOUS
 62
     3
 10
2259.30793957859
 20
-1164.99162027224
 30
0.0
 11
2262.2623628558
 21
-1165.51256470219
 31
0.0
  0
ENDBLK
  5
    57
  8
0
  6
CONTINUOUS
 62
     3
  0
BLOCK
  5
    58
  8
0
  6
CONTINUOUS
 62
     3
  2
*UDIM184
 70
    65
 10
0.0
 20
0.0
 30
0.0
  3
*UDIM184
  0
TEXT
  5
    59
  8
0
  6
CONTINUOUS
 62
     3
 10
2297.79274973276
 20
-1187.94152901639
 30
0.0
 40
2.99999994933605
  1
53
 50
449.999999896069
 41
0.933333333333333
 72
     1
 11
2296.29274976261
 21
-1185.4415290559
 31
0.0
 73
     2
  0
LINE
  5
    5A
  8
0
  6
CONTINUOUS
 62
     3
 10
2275.88793982565
 20
-1174.56652886218
 30
0.0
 11
2300.79274973727
 21
-1174.56652886218
 31
0.0
  0
LINE
  5
    5B
  8
0
  6
CONTINUOUS
 62
     3
 10
2275.88793982565
 20
-1195.76652917809
 30
0.0
 11
2300.79274973727
 21
-1195.76652917809
 31
0.0
  0
LINE
  5
    5C
  8
0
  6
CONTINUOUS
 62
     3
 10
2298.79274973728
 20
-1174.56652886218
 30
0.0
 11
2298.79274973728
 21
-1195.76652917809
 31
0.0
  0
LINE
  5
    5D
  8
0
  6
CONTINUOUS
 62
     3
 10
2299.31369416723
 20
-1177.52095213939
 30
0.0
 11
2298.79274973728
 21
-1174.56652886218
 31
0.0
  0
LINE
  5
    5E
  8
0
  6
CONTINUOUS
 62
     3
 10
2298.79274973728
 20
-1174.56652886218
 30
0.0
 11
2298.27180530732
 21
-1177.52095213939
 31
0.0
  0
LINE
  5
    5F
  8
0
  6
CONTINUOUS
 62
     3
 10
2298.27180530732
 20
-1192.81210590088
 30
0.0
 11
2298.79274973728
 21
-1195.76652917809
 31
0.0
  0
LINE
  5
    60
  8
0
  6
CONTINUOUS
 62
     3
 10
2298.79274973728
 20
-1195.76652917809
 30
0.0
 11
2299.31369416723
 21
-1192.81210590088
 31
0.0
  0
ENDBLK
  5
    61
  8
0
  6
CONTINUOUS
 62
     3
  0
BLOCK
  5
    62
  8
0
  6
CONTINUOUS
 62
     3
  2
*UDIM185
 70
    65
 10
0.0
 20
0.0
 30
0.0
  3
*UDIM185
  0
TEXT
  5
    63
  8
0
  6
CONTINUOUS
 62
     3
 10
2307.12200402216
 20
-1187.94152901639
 30
0.0
 40
2.99999994933605
  1
64
 50
449.999999896069
 41
0.933333333333333
 72
     1
 11
2305.62200405201
 21
-1185.4415290559
 31
0.0
 73
     2
  0
LINE
  5
    64
  8
0
  6
CONTINUOUS
 62
     3
 10
2280.78793989867
 20
-1172.3665288294
 30
0.0
 11
2310.12200402668
 21
-1172.3665288294
 31
0.0
  0
LINE
  5
    65
  8
0
  6
CONTINUOUS
 62
     3
 10
2279.98793988675
 20
-1197.96652921087
 30
0.0
 11
2310.12200402668
 21
-1197.96652921087
 31
0.0
  0
LINE
  5
    66
  8
0
  6
CONTINUOUS
 62
     3
 10
2308.12200402668
 20
-1172.3665288294
 30
0.0
 11
2308.12200402668
 21
-1197.96652921087
 31
0.0
  0
LINE
  5
    67
  8
0
  6
CONTINUOUS
 62
     3
 10
2308.64294845663
 20
-1175.32095210661
 30
0.0
 11
2308.12200402668
 21
-1172.3665288294
 31
0.0
  0
LINE
  5
    68
  8
0
  6
CONTINUOUS
 62
     3
 10
2308.12200402668
 20
-1172.3665288294
 30
0.0
 11
2307.60105959673
 21
-1175.32095210661
 31
0.0
  0
LINE
  5
    69
  8
0
  6
CONTINUOUS
 62
     3
 10
2307.60105959673
 20
-1195.01210593366
 30
0.0
 11
2308.12200402668
 21
-1197.96652921087
 31
0.0
  0
LINE
  5
    6A
  8
0
  6
CONTINUOUS
 62
     3
 10
2308.12200402668
 20
-1197.96652921087
 30
0.0
 11
2308.64294845663
 21
-1195.01210593366
 31
0.0
  0
ENDBLK
  5
    6B
  8
0
  6
CONTINUOUS
 62
     3
  0
BLOCK
  5
    6C
  8
0
  6
CONTINUOUS
 62
     7
  2
*UDIM186
 70
    65
 10
0.0
 20
0.0
 30
0.0
  3
*UDIM186
  0
TEXT
  5
    6D
  8
0
  6
CONTINUOUS
 62
     7
 10
2265.66376454626
 20
-1131.89326106556
 30
0.0
 40
2.99999994933605
  1
1.5
 50
398.044436839686
 41
0.933333333333333
 72
     1
 11
2267.81073465112
 21
-1128.30849904011
 31
0.0
 73
     2
  0
TEXT
  5
    6E
  8
0
  6
CONTINUOUS
 62
     7
 10
2262.5136324789
 20
-1134.35835083123
 30
0.0
 40
2.99999994933605
  1
R
 50
398.044436839686
 41
1.2
 72
     1
 11
2262.77052334704
 21
-1132.25264265348
 31
0.0
 73
     2
  0
LINE
  5
    6F
  8
0
  6
CONTINUOUS
 62
     7
 10
2276.36045964919
 20
-1124.79250683897
 30
0.0
 11
2263.12990493107
 21
-1135.14588385918
 31
0.0
  0
LINE
  5
    70
  8
0
  6
CONTINUOUS
 62
     3
 10
2274.55687333557
 20
-1127.18981291232
 30
0.0
 11
2276.36045964919
 21
-1124.79250683897
 31
0.0
  0
LINE
  5
    71
  8
0
  6
CONTINUOUS
 62
     3
 10
2276.36045964919
 20
-1124.79250683897
 30
0.0
 11
2273.59985502989
 21
-1125.96684160211
 31
0.0
  0
ENDBLK
  5
    72
  8
0
  6
CONTINUOUS
 62
     7
  0
BLOCK
  5
    73
  8
0
  6
CONTINUOUS
 62
     7
  2
*UDIM187
 70
    65
 10
0.0
 20
0.0
 30
0.0
  3
*UDIM187
  0
TEXT
  5
    74
  8
0
  6
CONTINUOUS
 62
     7
 10
2265.66069681468
 20
-1181.89285751626
 30
0.0
 40
2.99999994933605
  1
1.5
 50
398.018314539366
 41
0.933333333333333
 72
     1
 11
2267.80930106158
 21
-1178.30907471028
 31
0.0
 73
     2
  0
TEXT
  5
    75
  8
0
  6
CONTINUOUS
 62
     7
 10
2262.50944119066
 20
-1184.35651081711
 30
0.0
 40
2.99999994933605
  1
R
 50
398.018314539366
 41
1.2
 72
     1
 11
2262.76729206685
 21
-1182.25091997992
 31
0.0
 73
     2
  0
LINE
  5
    76
  8
0
  6
CONTINUOUS
 62
     7
 10
2276.36062818269
 20
-1174.79698086632
 30
0.0
 11
2263.12535452662
 21
-1185.14432473423
 31
0.0
  0
LINE
  5
    77
  8
0
  6
CONTINUOUS
 62
     3
 10
2274.55594907642
 20
-1177.19346439921
 30
0.0
 11
2276.36062818269
 21
-1174.79698086632
 31
0.0
  0
LINE
  5
    78
  8
0
  6
CONTINUOUS
 62
     3
 10
2276.36062818269
 20
-1174.79698086632
 30
0.0
 11
2273.59948844745
 21
-1175.97005689219
 31
0.0
  0
ENDBLK
  5
    79
  8
0
  6
CONTINUOUS
 62
     7
  0
BLOCK
  5
    7A
  8
0
  6
CONTINUOUS
 62
     3
  2
*UDIM188
 70
    65
 10
0.0
 20
0.0
 30
0.0
  3
*UDIM188
  0
TEXT
  5
    7B
  8
0
  6
CONTINUOUS
 62
     3
 10
2297.792746681
 20
-1137.93727111442
 30
0.0
 40
2.99999994933605
  1
53
 50
449.999999896069
 41
0.933333333333333
 72
     1
 11
2296.29274671085
 21
-1135.43727115393
 31
0.0
 73
     2
  0
LINE
  5
    7C
  8
0
  6
CONTINUOUS
 62
     3
 10
2275.88793982565
 20
-1124.56227030456
 30
0.0
 11
2300.79274668552
 21
-1124.56227030456
 31
0.0
  0
LINE
  5
    7D
  8
0
  6
CONTINUOUS
 62
     3
 10
2275.88793982565
 20
-1145.76227062047
 30
0.0
 11
2300.79274668552
 21
-1145.76227062047
 31
0.0
  0
LINE
  5
    7E
  8
0
  6
CONTINUOUS
 62
     3
 10
2298.79274668552
 20
-1124.56227030456
 30
0.0
 11
2298.79274668552
 21
-1145.76227062047
 31
0.0
  0
LINE
  5
    7F
  8
0
  6
CONTINUOUS
 62
     3
 10
2299.31369111547
 20
-1127.51669358177
 30
0.0
 11
2298.79274668552
 21
-1124.56227030456
 31
0.0
  0
LINE
  5
    80
  8
0
  6
CONTINUOUS
 62
     3
 10
2298.79274668552
 20
-1124.56227030456
 30
0.0
 11
2298.27180225557
 21
-1127.51669358177
 31
0.0
  0
LINE
  5
    81
  8
0
  6
CONTINUOUS
 62
     3
 10
2298.27180225557
 20
-1142.80784734326
 30
0.0
 11
2298.79274668552
 21
-1145.76227062047
 31
0.0
  0
LINE
  5
    82
  8
0
  6
CONTINUOUS
 62
     3
 10
2298.79274668552
 20
-1145.76227062047
 30
0.0
 11
2299.31369111547
 21
-1142.80784734326
 31
0.0
  0
ENDBLK
  5
    83
  8
0
  6
CONTINUOUS
 62
     3
  0
BLOCK
  5
    84
  8
0
  6
CONTINUOUS
 62
     3
  2
*UDIM189
 70
    65
 10
0.0
 20
0.0
 30
0.0
  3
*UDIM189
  0
TEXT
  5
    85
  8
0
  6
CONTINUOUS
 62
     3
 10
2307.12200402216
 20
-1137.93727111442
 30
0.0
 40
2.99999994933605
  1
64
 50
449.999999896069
 41
0.933333333333333
 72
     1
 11
2305.62200405201
 21
-1135.43727115393
 31
0.0
 73
     2
  0
LINE
  5
    86
  8
0
  6
CONTINUOUS
 62
     3
 10
2280.78793989867
 20
-1122.36227027178
 30
0.0
 11
2310.12200402668
 21
-1122.36227027178
 31
0.0
  0
LINE
  5
    87
  8
0
  6
CONTINUOUS
 62
     3
 10
2279.98793988675
 20
-1147.96227065325
 30
0.0
 11
2310.12200402668
 21
-1147.96227065325
 31
0.0
  0
LINE
  5
    88
  8
0
  6
CONTINUOUS
 62
     3
 10
2308.12200402668
 20
-1122.36227027178
 30
0.0
 11
2308.12200402668
 21
-1147.96227065325
 31
0.0
  0
LINE
  5
    89
  8
0
  6
CONTINUOUS
 62
     3
 10
2308.64294845663
 20
-1125.31669354899
 30
0.0
 11
2308.12200402668
 21
-1122.36227027178
 31
0.0
  0
LINE
  5
    8A
  8
0
  6
CONTINUOUS
 62
     3
 10
2308.12200402668
 20
-1122.36227027178
 30
0.0
 11
2307.60105959673
 21
-1125.31669354899
 31
0.0
  0
LINE
  5
    8B
  8
0
  6
CONTINUOUS
 62
     3
 10
2307.60105959673
 20
-1145.00784737604
 30
0.0
 11
2308.12200402668
 21
-1147.96227065325
 31
0.0
  0
LINE
  5
    8C
  8
0
  6
CONTINUOUS
 62
     3
 10
2308.12200402668
 20
-1147.96227065325
 30
0.0
 11
2308.64294845663
 21
-1145.00784737604
 31
0.0
  0
ENDBLK
  5
    8D
  8
0
  6
CONTINUOUS
 62
     3
  0
BLOCK
  5
    8E
  8
0
  6
CONTINUOUS
 62
     7
  2
*HATCH24
 70
    65
 10
0.0
 20
0.0
 30
0.0
  3
*HATCH24
  0
LINE
  5
    8F
  8
0
  6
CONTINUOUS
 62
     7
 10
-6.72705316543579
 20
2.18249082565308
 30
0.0
 11
-7.30467510223389
 21
1.60486936569214
 31
0.0
  0
LINE
  5
    90
  8
0
  6
CONTINUOUS
 62
     7
 10
-6.27154493331909
 20
2.21373534202576
 30
0.0
 11
-7.22455787658691
 21
1.26072216033936
 31
0.0
  0
LINE
  5
    91
  8
0
  6
CONTINUOUS
 62
     7
 10
-5.84726810455322
 20
2.21374821662903
 30
0.0
 11
-6.39466667175293
 21
1.66634941101074
 31
0.0
  0
LINE
  5
    92
  8
0
  6
CONTINUOUS
 62
     7
 10
-6.66426229476929
 20
1.39675414562225
 30
0.0
 11
-7.0505313873291
 21
1.01048505306244
 31
0.0
  0
LINE
  5
    93
  8
0
  6
CONTINUOUS
 62
     7
 10
-5.806396484375
 20
1.83035564422607
 30
0.0
 11
-5.97040271759033
 21
1.66634941101074
 31
0.0
  0
LINE
  5
    94
  8
0
  6
CONTINUOUS
 62
     7
 10
-6.29627180099487
 20
1.34048020839691
 30
0.0
 11
-6.75053644180298
 21
0.886215686798096
 31
0.0
  0
LINE
  5
    95
  8
0
  6
CONTINUOUS
 62
     7
 10
-7.08935260772705
 20
0.547399520874023
 30
0.0
 11
-7.25539398193359
 21
0.381358295679092
 31
0.0
  0
LINE
  5
    96
  8
0
  6
CONTINUOUS
 62
     7
 10
-5.99627304077148
 20
1.2162150144577
 30
0.0
 11
-6.38071584701538
 21
0.83177250623703
 31
0.0
  0
LINE
  5
    97
  8
0
  6
CONTINUOUS
 62
     7
 10
-6.66508865356445
 20
0.547399520874023
 30
0.0
 11
-7.21248769760132
 21
5.17343551109661E-7
 31
0.0
  0
LINE
  5
    98
  8
0
  6
CONTINUOUS
 62
     7
 10
-5.83309316635132
 20
0.955130934715271
 30
0.0
 11
-6.78821849822998
 21
5.63298863198725E-6
 31
0.0
  0
LINE
  5
    99
  8
0
  6
CONTINUOUS
 62
     7
 10
-5.76708984375
 20
0.596870422363281
 30
0.0
 11
-6.32275247573853
 21
4.12076637148857E-2
 31
0.0
  0
ENDBLK
  5
    9A
  8
0
  6
CONTINUOUS
 62
     7
  0
BLOCK
  5
    9B
  8
0
  6
CONTINUOUS
 62
     7
  2
*HATCH25
 70
    65
 10
0.0
 20
0.0
 30
0.0
  3
*HATCH25
  0
LINE
  5
    9C
  8
0
  6
CONTINUOUS
 62
     7
 10
-4.99874639511108
 20
2.21374201774597
 30
0.0
 11
-5.11600208282471
 21
2.09648633003235
 31
0.0
  0
LINE
  5
    9D
  8
0
  6
CONTINUOUS
 62
     7
 10
-4.5744776725769
 20
2.21374702453613
 30
0.0
 11
-5.29006290435791
 21
1.49816131591797
 31
0.0
  0
LINE
  5
    9E
  8
0
  6
CONTINUOUS
 62
     7
 10
-4.31070804595947
 20
2.05325198173523
 30
0.0
 11
-5.46412372589111
 21
0.899836301803589
 31
0.0
  0
LINE
  5
    9F
  8
0
  6
CONTINUOUS
 62
     7
 10
-4.21509790420532
 20
1.72459805011749
 30
0.0
 11
-4.65671157836914
 21
1.28298437595367
 31
0.0
  0
LINE
  5
    A0
  8
0
  6
CONTINUOUS
 62
     7
 10
-4.8342022895813
 20
1.10549378395081
 30
0.0
 11
-5.63818502426147
 21
0.301511287689209
 31
0.0
  0
LINE
  5
    A1
  8
0
  6
CONTINUOUS
 62
     7
 10
-4.11948823928833
 20
1.39594399929047
 30
0.0
 11
-5.51543140411377
 21
5.84804922709736E-7
 31
0.0
  0
LINE
  5
    A2
  8
0
  6
CONTINUOUS
 62
     7
 10
-4.02387809753418
 20
1.06729006767273
 30
0.0
 11
-4.64841794967651
 21
0.442750215530396
 31
0.0
  0
LINE
  5
    A3
  8
0
  6
CONTINUOUS
 62
     7
 10
-3.92826819419861
 20
0.738636076450348
 30
0.0
 11
-4.36988687515259
 21
0.297017365694046
 31
0.0
  0
LINE
  5
    A4
  8
0
  6
CONTINUOUS
 62
     7
 10
-3.83265805244446
 20
0.409982055425644
 30
0.0
 11
-4.24264001846313
 21
-1.59405963984227E-8
 31
0.0
  0
LINE
  5
    A5
  8
0
  6
CONTINUOUS
 62
     7
 10
-3.73704814910889
 20
8.13280642032623E-2
 30
0.0
 11
-3.81837606430054
 21
-1.81517350483773E-7
 31
0.0
  0
ENDBLK
  5
    A6
  8
0
  6
CONTINUOUS
 62
     7
  0
BLOCK
  5
    A7
  8
0
  6
CONTINUOUS
 62
     7
  2
*HATCH26
 70
    65
 10
0.0
 20
0.0
 30
0.0
  3
*HATCH26
  0
LINE
  5
    A8
  8
0
  6
CONTINUOUS
 62
     7
 10
-2.9884078502655
 20
2.10276007652283
 30
0.0
 11
-3.5777416229248
 21
1.51342642307281
 31
0.0
  0
LINE
  5
    A9
  8
0
  6
CONTINUOUS
 62
     7
 10
-2.51154756546021
 20
2.15535640716553
 30
0.0
 11
-3.66166138648987
 21
1.00524282455444
 31
0.0
  0
LINE
  5
    AA
  8
0
  6
CONTINUOUS
 62
     7
 10
-2.14052557945251
 20
2.10211443901062
 30
0.0
 11
-2.58813261985779
 21
1.65450739860535
 31
0.0
  0
LINE
  5
    AB
  8
0
  6
CONTINUOUS
 62
     7
 10
-3.09122323989868
 20
1.15141689777374
 30
0.0
 11
-3.58603048324585
 21
0.65660959482193
 31
0.0
  0
LINE
  5
    AC
  8
0
  6
CONTINUOUS
 62
     7
 10
-1.91638314723969
 20
1.90199279785156
 30
0.0
 11
-2.31821155548096
 21
1.50016450881958
 31
0.0
  0
LINE
  5
    AD
  8
0
  6
CONTINUOUS
 62
     7
 10
-3.04562044143677
 20
0.772755563259125
 30
0.0
 11
-3.43465447425842
 21
0.383721768856049
 31
0.0
  0
LINE
  5
    AE
  8
0
  6
CONTINUOUS
 62
     7
 10
-1.69224071502686
 20
1.70187127590179
 30
0.0
 11
-1.84102010726929
 21
1.55309188365936
 31
0.0
  0
LINE
  5
    AF
  8
0
  6
CONTINUOUS
 62
     7
 10
-2.80736231803894
 20
0.586749851703644
 30
0.0
 11
-3.20844173431396
 21
0.185670480132103
 31
0.0
  0
LINE
  5
    B0
  8
0
  6
CONTINUOUS
 62
     7
 10
-2.35260963439941
 20
0.617238461971283
 30
0.0
 11
-2.92059206962585
 21
4.92561422288418E-2
 31
0.0
  0
LINE
  5
    B1
  8
0
  6
CONTINUOUS
 62
     7
 10
-1.86875593662262
 20
0.676828145980835
 30
0.0
 11
-2.53638815879822
 21
9.19588841497898E-3
 31
0.0
  0
ENDBLK
  5
    B2
  8
0
  6
CONTINUOUS
 62
     7
  0
BLOCK
  5
    B3
  8
0
  6
CONTINUOUS
 62
     7
  2
*HATCH27
 70
    65
 10
0.0
 20
0.0
 30
0.0
  3
*HATCH27
  0
LINE
  5
    B4
  8
0
  6
CONTINUOUS
 62
     7
 10
-1.18036293983459
 20
2.21374893188477
 30
0.0
 11
-1.44899749755859
 21
1.94511449337006
 31
0.0
  0
LINE
  5
    B5
  8
0
  6
CONTINUOUS
 62
     7
 10
-0.756098747253418
 20
2.21374917030334
 30
0.0
 11
-1.44899749755859
 21
1.52085041999817
 31
0.0
  0
LINE
  5
    B6
  8
0
  6
CONTINUOUS
 62
     7
 10
-0.331834644079208
 20
2.21374940872192
 30
0.0
 11
-0.879234552383423
 21
1.66634941101074
 31
0.0
  0
LINE
  5
    B7
  8
0
  6
CONTINUOUS
 62
     7
 10
-0.901596069335938
 20
1.64398789405823
 30
0.0
 11
-1.44899749755859
 21
1.09658646583557
 31
0.0
  0
LINE
  5
    B8
  8
0
  6
CONTINUOUS
 62
     7
 10
1.8455197529913E-16
 20
2.12132000923157
 30
0.0
 11
-0.45497053861618
 21
1.66634941101074
 31
0.0
  0
LINE
  5
    B9
  8
0
  6
CONTINUOUS
 62
     7
 10
-0.740745306015015
 20
1.38057470321655
 30
0.0
 11
-1.44899749755859
 21
0.672322511672974
 31
0.0
  0
LINE
  5
    BA
  8
0
  6
CONTINUOUS
 62
     7
 10
1.24556434776123E-17
 20
1.69705593585968
 30
0.0
 11
-3.07065322995186E-2
 21
1.66634941101074
 31
0.0
  0
LINE
  5
    BB
  8
0
  6
CONTINUOUS
 62
     7
 10
-0.31648126244545
 20
1.38057470321655
 30
0.0
 11
-0.863881289958954
 21
0.833174705505371
 31
0.0
  0
LINE
  5
    BC
  8
0
  6
CONTINUOUS
 62
     7
 10
-0.901596069335938
 20
0.795459926128387
 30
0.0
 11
-1.44899749755859
 21
0.248058557510376
 31
0.0
  0
LINE
  5
    BD
  8
0
  6
CONTINUOUS
 62
     7
 10
-0.120750427246094
 20
1.15204155445099
 30
0.0
 11
-0.439617276191711
 21
0.833174705505371
 31
0.0
  0
LINE
  5
    BE
  8
0
  6
CONTINUOUS
 62
     7
 10
-0.725392460823059
 20
0.547399520874023
 30
0.0
 11
-1.27279210090637
 21
1.13804191595359E-15
 31
0.0
  0
LINE
  5
    BF
  8
0
  6
CONTINUOUS
 62
     7
 10
-0.301128476858139
 20
0.547399520874023
 30
0.0
 11
-0.848528027534485
 21
7.58694610635728E-16
 31
0.0
  0
LINE
  5
    C0
  8
0
  6
CONTINUOUS
 62
     7
 10
0.0
 20
0.42426398396492
 30
0.0
 11
-0.424264013767242
 21
3.79347305317864E-16
 31
0.0
  0
LINE
  5
    C1
  8
0
  6
CONTINUOUS
 62
     7
 10
0.0
 20
0.0
 30
0.0
 11
0.0
 21
2.64697796016969E-23
 31
0.0
  0
ENDBLK
  5
    C2
  8
0
  6
CONTINUOUS
 62
     7
  0
BLOCK
  5
    C3
  8
0
  6
CONTINUOUS
 62
     7
  2
$2SACE
 70
    64
 10
0.0
 20
0.0
 30
0.0
  3
$2SACE
  0
LINE
  5
    C4
  8
0
  6
CONTINUOUS
 62
     7
 10
-6.65164184570313
 20
0.84524965286255
 30
0.0
 11
-6.42221832275391
 21
0.84524965286255
 31
0.0
  0
LINE
  5
    C5
  8
0
  6
CONTINUOUS
 62
     7
 10
-6.42220611590814
 20
0.845254519188986
 30
0.0
 11
-6.33467408742227
 21
0.816812141576352
 31
0.0
  0
LINE
  5
    C6
  8
0
  6
CONTINUOUS
 62
     7
 10
-6.33467505266625
 20
0.816811912229198
 30
0.0
 11
-6.28057502527593
 21
0.742349507885551
 31
0.0
  0
LINE
  5
    C7
  8
0
  6
CONTINUOUS
 62
     7
 10
-6.28058624267578
 20
0.650304317474365
 30
0.0
 11
-6.28058624267578
 21
0.742344856262207
 31
0.0
  0
LINE
  5
    C8
  8
0
  6
CONTINUOUS
 62
     7
 10
-6.33467905122843
 20
0.575845194549701
 30
0.0
 11
-6.28057902383813
 21
0.650307598893328
 31
0.0
  0
LINE
  5
    C9
  8
0
  6
CONTINUOUS
 62
     7
 10
-6.42220857841173
 20
0.547402819040099
 30
0.0
 11
-6.33467654992582
 21
0.575845196652746
 31
0.0
  0
LINE
  5
    CA
  8
0
  6
CONTINUOUS
 62
     7
 10
-7.25539398193359
 20
0.547399520874025
 30
0.0
 11
-6.42221832275391
 21
0.547399520874025
 31
0.0
  0
LINE
  5
    CB
  8
0
  6
CONTINUOUS
 62
     7
 10
-7.25539398193359
 20
0.0
 30
0.0
 11
-7.25539398193359
 21
0.547399520874023
 31
0.0
  0
LINE
  5
    CC
  8
0
  6
CONTINUOUS
 62
     7
 10
-7.25539398193359
 20
1.29559252739714E-15
 30
0.0
 11
-6.42221832275391
 21
1.29559252739714E-15
 31
0.0
  0
LINE
  5
    CD
  8
0
  6
CONTINUOUS
 62
     7
 10
-6.65164184570313
 20
1.39264965057373
 30
0.0
 11
-6.42221832275391
 21
1.39264965057373
 31
0.0
  0
LINE
  5
    CE
  8
0
  6
CONTINUOUS
 62
     7
 10
-6.73207774966845
 20
1.41878793231365
 30
0.0
 11
-6.65163341489544
 21
1.39265201188207
 31
0.0
  0
LINE
  5
    CF
  8
0
  6
CONTINUOUS
 62
     7
 10
-6.78179637679859
 20
1.4872093666543
 30
0.0
 11
-6.73208324200653
 21
1.41878418569267
 31
0.0
  0
LINE
  5
    D0
  8
0
  6
CONTINUOUS
 62
     7
 10
-6.78179931640625
 20
1.48721075057983
 30
0.0
 11
-6.78179931640625
 21
1.57178831100464
 31
0.0
  0
LINE
  5
    D1
  8
0
  6
CONTINUOUS
 62
     7
 10
-6.78178899286177
 20
1.57178600254942
 30
0.0
 11
-6.73207585806973
 21
1.64021118351102
 31
0.0
  0
LINE
  5
    D2
  8
0
  6
CONTINUOUS
 62
     7
 10
-6.73207464437523
 20
1.64021722966892
 30
0.0
 11
-6.65163030960224
 21
1.66635315010049
 31
0.0
  0
LINE
  5
    D3
  8
0
  6
CONTINUOUS
 62
     7
 10
-6.65164184570313
 20
1.66634941101074
 30
0.0
 11
-5.806396484375
 21
1.66634941101074
 31
0.0
  0
LINE
  5
    D4
  8
0
  6
CONTINUOUS
 62
     7
 10
-5.806396484375
 20
1.66634941101074
 30
0.0
 11
-5.806396484375
 21
2.21374940872192
 31
0.0
  0
LINE
  5
    D5
  8
0
  6
CONTINUOUS
 62
     7
 10
-6.65164184570313
 20
2.21374940872193
 30
0.0
 11
-5.806396484375
 21
2.21374940872193
 31
0.0
  0
LINE
  5
    D6
  8
0
  6
CONTINUOUS
 62
     7
 10
-5.72589874267578
 20
1.29559252739714E-15
 30
0.0
 11
-5.15579986572266
 21
1.29559252739714E-15
 31
0.0
  0
LINE
  5
    D7
  8
0
  6
CONTINUOUS
 62
     7
 10
-5.1557939203843
 20
1.58409603323584E-6
 30
0.0
 11
-5.02699448583549
 21
0.442751079827253
 31
0.0
  0
LINE
  5
    D8
  8
0
  6
CONTINUOUS
 62
     7
 10
-5.02700042724609
 20
0.442749500274659
 30
0.0
 11
-4.41228485107422
 21
0.442749500274659
 31
0.0
  0
LINE
  5
    D9
  8
0
  6
CONTINUOUS
 62
     7
 10
-4.41228013668901
 20
0.442750680659383
 30
0.0
 11
-4.2834807021402
 21
1.18492813960813E-6
 31
0.0
  0
LINE
  5
    DA
  8
0
  6
CONTINUOUS
 62
     7
 10
-4.28348541259766
 20
1.29559252739714E-15
 30
0.0
 11
-3.71339416503906
 21
1.29559252739714E-15
 31
0.0
  0
LINE
  5
    DB
  8
0
  6
CONTINUOUS
 62
     7
 10
-4.35739354898064
 20
2.21374974704771
 30
0.0
 11
-3.71338855826095
 21
-2.22490751156101E-7
 31
0.0
  0
LINE
  5
    DC
  8
0
  6
CONTINUOUS
 62
     7
 10
-5.08189392089844
 20
2.21374940872193
 30
0.0
 11
-4.35739898681641
 21
2.21374940872193
 31
0.0
  0
LINE
  5
    DD
  8
0
  6
CONTINUOUS
 62
     7
 10
-5.72589584497131
 20
-8.99382360142198E-6
 30
0.0
 11
-5.08189085425162
 21
2.21374097571486
 31
0.0
  0
LINE
  5
    DE
  8
0
  6
CONTINUOUS
 62
     7
 10
-4.71963825721332
 20
1.49929173564375
 30
0.0
 11
-4.57152874572855
 21
0.990149564360237
 31
0.0
  0
LINE
  5
    DF
  8
0
  6
CONTINUOUS
 62
     7
 10
-4.86775970458984
 20
0.990149497985841
 30
0.0
 11
-4.571533203125
 21
0.990149497985841
 31
0.0
  0
LINE
  5
    E0
  8
0
  6
CONTINUOUS
 62
     7
 10
-4.86775077081381
 20
0.990150342992026
 30
0.0
 11
-4.71963371649822
 21
1.4992922341155
 31
0.0
  0
LINE
  5
    E1
  8
0
  6
CONTINUOUS
 62
     7
 10
-3.56278593292238
 20
0.549459587100848
 30
0.0
 11
-3.38675290737703
 21
0.321762682109787
 31
0.0
  0
LINE
  5
    E2
  8
0
  6
CONTINUOUS
 62
     7
 10
-3.38674988776631
 20
0.321757463405608
 30
0.0
 11
-3.15795960623514
 21
0.14714302843915
 31
0.0
  0
LINE
  5
    E3
  8
0
  6
CONTINUOUS
 62
     7
 10
-3.15796427280975
 20
0.147145556821385
 30
0.0
 11
-2.89188914343168
 21
3.74196068128748E-2
 31
0.0
  0
LINE
  5
    E4
  8
0
  6
CONTINUOUS
 62
     7
 10
-2.8918863014344
 20
3.74182762057862E-2
 30
0.0
 11
-2.60651643426088
 21
-8.77137409371898E-8
 31
0.0
  0
LINE
  5
    E5
  8
0
  6
CONTINUOUS
 62
     7
 10
-2.6065123212118
 20
9.81649358411385E-7
 30
0.0
 11
-2.32114245403815
 21
3.74193455689014E-2
 31
0.0
  0
LINE
  5
    E6
  8
0
  6
CONTINUOUS
 62
     7
 10
-2.32115153010861
 20
3.74184405847322E-2
 30
0.0
 11
-2.05507640073053
 21
0.147144390593243
 31
0.0
  0
LINE
  5
    E7
  8
0
  6
CONTINUOUS
 62
     7
 10
-2.05506873210346
 20
0.147150154788858
 30
0.0
 11
-1.82627845057229
 21
0.321764589755316
 31
0.0
  0
LINE
  5
    E8
  8
0
  6
CONTINUOUS
 62
     7
 10
-1.82628033847405
 20
0.321759408316239
 30
0.0
 11
-1.65023969094006
 21
0.549456298035748
 31
0.0
  0
LINE
  5
    E9
  8
0
  6
CONTINUOUS
 62
     7
 10
-2.12316137878389
 20
0.825127035253691
 30
0.0
 11
-1.65023815182741
 21
0.549457975118036
 31
0.0
  0
LINE
  5
    EA
  8
0
  6
CONTINUOUS
 62
     7
 10
-2.24808598157176
 20
0.677293469343914
 30
0.0
 11
-2.12316989668348
 21
0.825121583594019
 31
0.0
  0
LINE
  5
    EB
  8
0
  6
CONTINUOUS
 62
     7
 10
-2.41589982592873
 20
0.580876247378224
 30
0.0
 11
-2.24808363129394
 21
0.677297507055141
 31
0.0
  0
LINE
  5
    EC
  8
0
  6
CONTINUOUS
 62
     7
 10
-2.60651568365088
 20
0.547399641475173
 30
0.0
 11
-2.41589523762909
 21
0.580875516622462
 31
0.0
  0
LINE
  5
    ED
  8
0
  6
CONTINUOUS
 62
     7
 10
-2.79714562109014
 20
0.580875730809506
 30
0.0
 11
-2.60652517506844
 21
0.547399855662232
 31
0.0
  0
LINE
  5
    EE
  8
0
  6
CONTINUOUS
 62
     7
 10
-2.96495823289931
 20
0.677298823896134
 30
0.0
 11
-2.7971420382645
 21
0.580877564219204
 31
0.0
  0
LINE
  5
    EF
  8
0
  6
CONTINUOUS
 62
     7
 10
-3.08987367938059
 20
0.825127877682344
 30
0.0
 11
-2.96495759449232
 21
0.677299763432247
 31
0.0
  0
LINE
  5
    F0
  8
0
  6
CONTINUOUS
 62
     7
 10
-2.12315784078463
 20
1.38863138085445
 30
0.0
 11
-1.65023461382815
 21
1.6643004409901
 31
0.0
  0
LINE
  5
    F1
  8
0
  6
CONTINUOUS
 62
     7
 10
-1.44899749755859
 20
0.0
 30
0.0
 11
-1.44899749755859
 21
2.21374893188477
 31
0.0
  0
LINE
  5
    F2
  8
0
  6
CONTINUOUS
 62
     7
 10
-1.44899749755859
 20
1.29559252739714E-15
 30
0.0
 11
7.93321620838069E-32
 21
1.29559252739714E-15
 31
0.0
  0
LINE
  5
    F3
  8
0
  6
CONTINUOUS
 62
     7
 10
0.0
 20
0.0
 30
0.0
 11
0.0
 21
0.547399520874023
 31
0.0
  0
LINE
  5
    F4
  8
0
  6
CONTINUOUS
 62
     7
 10
-0.901596069335938
 20
0.547399520874025
 30
0.0
 11
3.35185535546584E-17
 21
0.547399520874025
 31
0.0
  0
LINE
  5
    F5
  8
0
  6
CONTINUOUS
 62
     7
 10
-0.901596069335938
 20
0.547399520874023
 30
0.0
 11
-0.901596069335938
 21
0.833174705505371
 31
0.0
  0
LINE
  5
    F6
  8
0
  6
CONTINUOUS
 62
     7
 10
-0.901596069335938
 20
0.833174705505373
 30
0.0
 11
-0.120750427246094
 21
0.833174705505373
 31
0.0
  0
LINE
  5
    F7
  8
0
  6
CONTINUOUS
 62
     7
 10
-0.120750427246094
 20
0.833174705505371
 30
0.0
 11
-0.120750427246094
 21
1.38057470321655
 31
0.0
  0
LINE
  5
    F8
  8
0
  6
CONTINUOUS
 62
     7
 10
-0.901596069335937
 20
1.38057470321655
 30
0.0
 11
-0.120750427246094
 21
1.38057470321655
 31
0.0
  0
LINE
  5
    F9
  8
0
  6
CONTINUOUS
 62
     7
 10
-0.901596069335938
 20
1.38057470321655
 30
0.0
 11
-0.901596069335938
 21
1.66634938120842
 31
0.0
  0
LINE
  5
    FA
  8
0
  6
CONTINUOUS
 62
     7
 10
-0.901596069335937
 20
1.66634941101074
 30
0.0
 11
1.02034473622769E-16
 21
1.66634941101074
 31
0.0
  0
LINE
  5
    FB
  8
0
  6
CONTINUOUS
 62
     7
 10
0.0
 20
1.66634941101074
 30
0.0
 11
0.0
 21
2.21374940872192
 31
0.0
  0
LINE
  5
    FC
  8
0
  6
CONTINUOUS
 62
     7
 10
-1.44899749755859
 20
2.21374940872193
 30
0.0
 11
1.35553056375283E-16
 21
2.21374940872193
 31
0.0
  0
ARC
  5
    FD
  8
0
  6
CONTINUOUS
 62
     7
 10
-6.65167272329478
 20
1.52950251971625
 30
0.0
 40
0.684221325991138
 50
89.9975452090749
 51
270.002590974911
  0
ARC
  5
    FE
  8
0
  6
CONTINUOUS
 62
     7
 10
-6.4222121249208
 20
0.696328140844565
 30
0.0
 40
0.696318094728419
 50
269.999920898491
 51
449.999499220325
  0
ARC
  5
    FF
  8
0
  6
CONTINUOUS
 62
     7
 10
-2.60648164577671
 20
1.10683590907698
 30
0.0
 40
1.10692783346537
 50
30.24104526357
 51
210.235617348036
  0
ARC
  5
   100
  8
0
  6
CONTINUOUS
 62
     7
 10
-2.60650097665835
 20
1.10686381958204
 30
0.0
 40
0.5594873152035
 50
30.2406197505008
 51
210.236398393491
  0
INSERT
  5
   101
  8
0
  6
CONTINUOUS
 62
     7
  2
*HATCH24
 10
0.0
 20
0.0
 30
0.0
  0
INSERT
  5
   102
  8
0
  6
CONTINUOUS
 62
     7
  2
*HATCH25
 10
0.0
 20
0.0
 30
0.0
  0
INSERT
  5
   103
  8
0
  6
CONTINUOUS
 62
     7
  2
*HATCH26
 10
0.0
 20
0.0
 30
0.0
  0
INSERT
  5
   104
  8
0
  6
CONTINUOUS
 62
     7
  2
*HATCH27
 10
0.0
 20
0.0
 30
0.0
  0
ENDBLK
  5
   105
  8
0
  6
CONTINUOUS
 62
     7
  0
BLOCK
  5
   106
  8
0
  6
CONTINUOUS
 62
     7
  2
*HATCH28
 70
    65
 10
0.0
 20
0.0
 30
0.0
  3
*HATCH28
  0
LINE
  5
   107
  8
0
  6
CONTINUOUS
 62
     7
 10
-3.7039635181427
 20
2.659996509552
 30
0.0
 11
-4.09285688400269
 21
2.27110314369202
 31
0.0
  0
LINE
  5
   108
  8
0
  6
CONTINUOUS
 62
     7
 10
-3.6409957408905
 20
2.2987003326416
 30
0.0
 11
-4.3212947845459
 21
1.61840128898621
 31
0.0
  0
LINE
  5
   109
  8
0
  6
CONTINUOUS
 62
     7
 10
-3.6409957408905
 20
1.87443625926971
 30
0.0
 11
-4.10218858718872
 21
1.41324353218079
 31
0.0
  0
LINE
  5
   10A
  8
0
  6
CONTINUOUS
 62
     7
 10
-3.6409957408905
 20
1.45017230510712
 30
0.0
 11
-3.67792463302612
 21
1.41324353218079
 31
0.0
  0
ENDBLK
  5
   10B
  8
0
  6
CONTINUOUS
 62
     7
  0
BLOCK
  5
   10C
  8
0
  6
CONTINUOUS
 62
     7
  2
*HATCH29
 70
    65
 10
0.0
 20
0.0
 30
0.0
  3
*HATCH29
  0
LINE
  5
   10D
  8
0
  6
CONTINUOUS
 62
     7
 10
-4.26868629455566
 20
1.24674582481384
 30
0.0
 11
-4.54975318908691
 21
0.965678870677948
 31
0.0
  0
LINE
  5
   10E
  8
0
  6
CONTINUOUS
 62
     7
 10
-3.84442234039307
 20
1.24674582481384
 30
0.0
 11
-4.77821111679077
 21
0.312956929206848
 31
0.0
  0
LINE
  5
   10F
  8
0
  6
CONTINUOUS
 62
     7
 10
-3.6409957408905
 20
1.02590835094452
 30
0.0
 11
-4.66690492630005
 21
-4.98909855650709E-7
 31
0.0
  0
LINE
  5
   110
  8
0
  6
CONTINUOUS
 62
     7
 10
-3.6409957408905
 20
0.601644337177277
 30
0.0
 11
-3.71064043045044
 21
0.531999588012695
 31
0.0
  0
LINE
  5
   111
  8
0
  6
CONTINUOUS
 62
     7
 10
-4.21202754974365
 20
3.06128244847059E-2
 30
0.0
 11
-4.24264144897461
 21
-1.45736464673973E-6
 31
0.0
  0
ENDBLK
  5
   112
  8
0
  6
CONTINUOUS
 62
     7
  0
BLOCK
  5
   113
  8
0
  6
CONTINUOUS
 62
     7
  2
*HATCH30
 70
    65
 10
0.0
 20
0.0
 30
0.0
  3
*HATCH30
  0
LINE
  5
   114
  8
0
  6
CONTINUOUS
 62
     7
 10
-3.42015838623047
 20
1.24674582481384
 30
0.0
 11
-3.47449803352356
 21
1.19240605831146
 31
0.0
  0
LINE
  5
   115
  8
0
  6
CONTINUOUS
 62
     7
 10
-2.99589443206787
 20
1.24674582481384
 30
0.0
 11
-3.47449803352356
 21
0.768142104148865
 31
0.0
  0
LINE
  5
   116
  8
0
  6
CONTINUOUS
 62
     7
 10
-2.64012384414673
 20
1.17825222015381
 30
0.0
 11
-3.28637623786926
 21
0.532000005245209
 31
0.0
  0
LINE
  5
   117
  8
0
  6
CONTINUOUS
 62
     7
 10
-2.53012871742249
 20
0.863983333110809
 30
0.0
 11
-3.02272534370422
 21
0.371386826038361
 31
0.0
  0
LINE
  5
   118
  8
0
  6
CONTINUOUS
 62
     7
 10
-2.42013359069824
 20
0.54971444606781
 30
0.0
 11
-2.91273474693298
 21
0.057113379240036
 31
0.0
  0
LINE
  5
   119
  8
0
  6
CONTINUOUS
 62
     7
 10
-2.310138463974
 20
0.235445529222488
 30
0.0
 11
-2.54558539390564
 21
-1.36076994294854E-6
 31
0.0
  0
ENDBLK
  5
   11A
  8
0
  6
CONTINUOUS
 62
     7
  0
BLOCK
  5
   11B
  8
0
  6
CONTINUOUS
 62
     7
  2
*HATCH31
 70
    65
 10
0.0
 20
0.0
 30
0.0
  3
*HATCH31
  0
LINE
  5
   11C
  8
0
  6
CONTINUOUS
 62
     7
 10
-3.27970123291016
 20
2.65999484062195
 30
0.0
 11
-3.47449803352356
 21
2.46519804000854
 31
0.0
  0
LINE
  5
   11D
  8
0
  6
CONTINUOUS
 62
     7
 10
-3.08010387420654
 20
2.43532824516296
 30
0.0
 11
-3.47449803352356
 21
2.04093408584595
 31
0.0
  0
LINE
  5
   11E
  8
0
  6
CONTINUOUS
 62
     7
 10
-2.97010922431946
 20
2.12105894088745
 30
0.0
 11
-3.47449803352356
 21
1.61667013168335
 31
0.0
  0
LINE
  5
   11F
  8
0
  6
CONTINUOUS
 62
     7
 10
-2.86011457443237
 20
1.80678939819336
 30
0.0
 11
-3.25366044044495
 21
1.41324353218079
 31
0.0
  0
LINE
  5
   120
  8
0
  6
CONTINUOUS
 62
     7
 10
-2.75011992454529
 20
1.49252009391785
 30
0.0
 11
-2.82939648628235
 21
1.41324353218079
 31
0.0
  0
ENDBLK
  5
   121
  8
0
  6
CONTINUOUS
 62
     7
  0
BLOCK
  5
   122
  8
0
  6
CONTINUOUS
 62
     7
  2
*HATCH32
 70
    65
 10
0.0
 20
0.0
 30
0.0
  3
*HATCH32
  0
LINE
  5
   123
  8
0
  6
CONTINUOUS
 62
     7
 10
-2.00690746307373
 20
2.659996509552
 30
0.0
 11
-2.06149291992188
 21
2.60541105270386
 31
0.0
  0
LINE
  5
   124
  8
0
  6
CONTINUOUS
 62
     7
 10
-1.58264350891113
 20
2.659996509552
 30
0.0
 11
-2.06149291992188
 21
2.18114709854126
 31
0.0
  0
LINE
  5
   125
  8
0
  6
CONTINUOUS
 62
     7
 10
-1.34674525260925
 20
2.47163057327271
 30
0.0
 11
-2.06149291992188
 21
1.75688314437866
 31
0.0
  0
LINE
  5
   126
  8
0
  6
CONTINUOUS
 62
     7
 10
-1.34674525260925
 20
2.04736661911011
 30
0.0
 11
-1.98086845874786
 21
1.41324353218079
 31
0.0
  0
LINE
  5
   127
  8
0
  6
CONTINUOUS
 62
     7
 10
-1.34674525260925
 20
1.62310266494751
 30
0.0
 11
-1.55660438537598
 21
1.41324353218079
 31
0.0
  0
ENDBLK
  5
   128
  8
0
  6
CONTINUOUS
 62
     7
  0
BLOCK
  5
   129
  8
0
  6
CONTINUOUS
 62
     7
  2
*HATCH33
 70
    65
 10
0.0
 20
0.0
 30
0.0
  3
*HATCH33
  0
LINE
  5
   12A
  8
0
  6
CONTINUOUS
 62
     7
 10
-1.72310221195221
 20
1.24674582481384
 30
0.0
 11
-2.06149291992188
 21
0.908355116844177
 31
0.0
  0
LINE
  5
   12B
  8
0
  6
CONTINUOUS
 62
     7
 10
-1.34674525260925
 20
1.19883871078491
 30
0.0
 11
-2.06149291992188
 21
0.484091132879257
 31
0.0
  0
LINE
  5
   12C
  8
0
  6
CONTINUOUS
 62
     7
 10
-1.34674525260925
 20
0.774574756622314
 30
0.0
 11
-2.06149291992188
 21
5.98271489143372E-2
 31
0.0
  0
LINE
  5
   12D
  8
0
  6
CONTINUOUS
 62
     7
 10
-1.34674525260925
 20
0.350310742855072
 30
0.0
 11
-1.69705605506897
 21
6.53578086579266E-16
 31
0.0
  0
ENDBLK
  5
   12E
  8
0
  6
CONTINUOUS
 62
     7
  0
BLOCK
  5
   12F
  8
0
  6
CONTINUOUS
 62
     7
  2
*HATCH34
 70
    65
 10
0.0
 20
0.0
 30
0.0
  3
*HATCH34
  0
LINE
  5
   130
  8
0
  6
CONTINUOUS
 62
     7
 10
-1.15837943553925
 20
2.659996509552
 30
0.0
 11
-1.18024754524231
 21
2.63812851905823
 31
0.0
  0
LINE
  5
   131
  8
0
  6
CONTINUOUS
 62
     7
 10
-0.823453903198242
 20
2.57065796852112
 30
0.0
 11
-1.18024754524231
 21
2.21386456489563
 31
0.0
  0
LINE
  5
   132
  8
0
  6
CONTINUOUS
 62
     7
 10
-0.5418501496315
 20
2.42799782752991
 30
0.0
 11
-1.18024754524231
 21
1.78960049152374
 31
0.0
  0
LINE
  5
   133
  8
0
  6
CONTINUOUS
 62
     7
 10
-0.449764907360077
 20
2.09581899642944
 30
0.0
 11
-1.13234043121338
 21
1.41324353218079
 31
0.0
  0
LINE
  5
   134
  8
0
  6
CONTINUOUS
 62
     7
 10
-0.638074100017548
 20
1.48324584960938
 30
0.0
 11
-0.708076417446136
 21
1.41324353218079
 31
0.0
  0
ENDBLK
  5
   135
  8
0
  6
CONTINUOUS
 62
     7
  0
BLOCK
  5
   136
  8
0
  6
CONTINUOUS
 62
     7
  2
*HATCH35
 70
    65
 10
0.0
 20
0.0
 30
0.0
  3
*HATCH35
  0
LINE
  5
   137
  8
0
  6
CONTINUOUS
 62
     7
 10
-0.874574244022369
 20
1.24674582481384
 30
0.0
 11
-1.18024754524231
 21
0.941072523593903
 31
0.0
  0
LINE
  5
   138
  8
0
  6
CONTINUOUS
 62
     7
 10
-0.450310230255127
 20
1.24674582481384
 30
0.0
 11
-1.18024754524231
 21
0.51680850982666
 31
0.0
  0
LINE
  5
   139
  8
0
  6
CONTINUOUS
 62
     7
 10
-0.281659334897995
 20
0.991132616996765
 30
0.0
 11
-1.18024754524231
 21
9.25445482134819E-2
 31
0.0
  0
LINE
  5
   13A
  8
0
  6
CONTINUOUS
 62
     7
 10
-0.263972669839859
 20
0.584555327892303
 30
0.0
 11
-0.764747977256775
 21
8.37800353765488E-2
 31
0.0
  0
ENDBLK
  5
   13B
  8
0
  6
CONTINUOUS
 62
     7
  0
BLOCK
  5
   13C
  8
0
  6
CONTINUOUS
 62
     7
  2
*HATCH36
 70
    65
 10
0.0
 20
0.0
 30
0.0
  3
*HATCH36
  0
LINE
  5
   13D
  8
0
  6
CONTINUOUS
 62
     7
 10
0.114412605762482
 20
2.659996509552
 30
0.0
 11
0.0
 21
2.54558396339417
 31
0.0
  0
LINE
  5
   13E
  8
0
  6
CONTINUOUS
 62
     7
 10
0.538676619529724
 20
2.659996509552
 30
0.0
 11
0.0
 21
2.12132000923157
 31
0.0
  0
LINE
  5
   13F
  8
0
  6
CONTINUOUS
 62
     7
 10
0.714747607707977
 20
2.41180348396301
 30
0.0
 11
0.0
 21
1.69705593585968
 31
0.0
  0
LINE
  5
   140
  8
0
  6
CONTINUOUS
 62
     7
 10
0.714747607707977
 20
1.98753952980042
 30
0.0
 11
0.140451639890671
 21
1.41324353218079
 31
0.0
  0
LINE
  5
   141
  8
0
  6
CONTINUOUS
 62
     7
 10
0.714747607707977
 20
1.56327557563782
 30
0.0
 11
0.564715623855591
 21
1.41324353218079
 31
0.0
  0
ENDBLK
  5
   142
  8
0
  6
CONTINUOUS
 62
     7
  0
BLOCK
  5
   143
  8
0
  6
CONTINUOUS
 62
     7
  2
*HATCH37
 70
    65
 10
0.0
 20
0.0
 30
0.0
  3
*HATCH37
  0
LINE
  5
   144
  8
0
  6
CONTINUOUS
 62
     7
 10
0.962940633296967
 20
2.659996509552
 30
0.0
 11
0.88124543428421
 21
2.57830119132996
 31
0.0
  0
LINE
  5
   145
  8
0
  6
CONTINUOUS
 62
     7
 10
1.2789386510849
 20
2.55173063278198
 30
0.0
 11
0.88124543428421
 21
2.15403723716736
 31
0.0
  0
LINE
  5
   146
  8
0
  6
CONTINUOUS
 62
     7
 10
1.53262805938721
 20
2.3811559677124
 30
0.0
 11
0.88124543428421
 21
1.72977328300476
 31
0.0
  0
LINE
  5
   147
  8
0
  6
CONTINUOUS
 62
     7
 10
1.62471330165863
 20
2.04897713661194
 30
0.0
 11
0.988979697227478
 21
1.41324353218079
 31
0.0
  0
LINE
  5
   148
  8
0
  6
CONTINUOUS
 62
     7
 10
1.46331548690796
 20
1.46331536769867
 30
0.0
 11
1.41324365139008
 21
1.41324353218079
 31
0.0
  0
ENDBLK
  5
   149
  8
0
  6
CONTINUOUS
 62
     7
  0
BLOCK
  5
   14A
  8
0
  6
CONTINUOUS
 62
     7
  2
*HATCH38
 70
    65
 10
0.0
 20
0.0
 30
0.0
  3
*HATCH38
  0
LINE
  5
   14B
  8
0
  6
CONTINUOUS
 62
     7
 10
0.39821782708168
 20
1.24674582481384
 30
0.0
 11
0.0
 21
0.84852796792984
 31
0.0
  0
LINE
  5
   14C
  8
0
  6
CONTINUOUS
 62
     7
 10
0.714747607707977
 20
1.13901150226593
 30
0.0
 11
0.0
 21
0.42426398396492
 31
0.0
  0
LINE
  5
   14D
  8
0
  6
CONTINUOUS
 62
     7
 10
0.714747607707977
 20
0.714747548103333
 30
0.0
 11
0.0
 21
0.0
 31
0.0
  0
LINE
  5
   14E
  8
0
  6
CONTINUOUS
 62
     7
 10
0.714747607707977
 20
0.290483593940735
 30
0.0
 11
0.424264013767242
 21
7.91553348000328E-16
 31
0.0
  0
ENDBLK
  5
   14F
  8
0
  6
CONTINUOUS
 62
     7
  0
BLOCK
  5
   150
  8
0
  6
CONTINUOUS
 62
     7
  2
*HATCH39
 70
    65
 10
0.0
 20
0.0
 30
0.0
  3
*HATCH39
  0
LINE
  5
   151
  8
0
  6
CONTINUOUS
 62
     7
 10
1.24674582481384
 20
1.24674582481384
 30
0.0
 11
0.88124543428421
 21
0.881245374679565
 31
0.0
  0
LINE
  5
   152
  8
0
  6
CONTINUOUS
 62
     7
 10
1.67100977897644
 20
1.24674582481384
 30
0.0
 11
0.88124543428421
 21
0.456981390714645
 31
0.0
  0
LINE
  5
   153
  8
0
  6
CONTINUOUS
 62
     7
 10
1.79262113571167
 20
0.944092988967896
 30
0.0
 11
0.88124543428421
 21
3.27173843979836E-2
 31
0.0
  0
LINE
  5
   154
  8
0
  6
CONTINUOUS
 62
     7
 10
1.73607635498047
 20
0.463284254074097
 30
0.0
 11
1.39401113986969
 21
0.121219135820866
 31
0.0
  0
ENDBLK
  5
   155
  8
0
  6
CONTINUOUS
 62
     7
  0
BLOCK
  5
   156
  8
0
  6
CONTINUOUS
 62
     7
  2
$2ABB
 70
    64
 10
0.0
 20
0.0
 30
0.0
  3
$2ABB
  0
LINE
  5
   157
  8
0
  6
CONTINUOUS
 62
     7
 10
-4.39309755866065
 20
1.4132435798645
 30
0.0
 11
-3.95674135031761
 21
2.6599923848804
 31
0.0
  0
LINE
  5
   158
  8
0
  6
CONTINUOUS
 62
     7
 10
-4.88774871826172
 20
1.33351129624183E-15
 30
0.0
 11
-4.22274780273438
 21
1.33351129624183E-15
 31
0.0
  0
LINE
  5
   159
  8
0
  6
CONTINUOUS
 62
     7
 10
-4.22274218828809
 20
-1.50231959450409E-6
 30
0.0
 11
-4.0365391926282
 21
0.531998110619612
 31
0.0
  0
LINE
  5
   15A
  8
0
  6
CONTINUOUS
 62
     7
 10
-4.03654479980469
 20
0.531999588012697
 30
0.0
 11
-3.64099578857422
 21
0.531999588012697
 31
0.0
  0
LINE
  5
   15B
  8
0
  6
CONTINUOUS
 62
     7
 10
-4.88774327593104
 20
-2.42794669391699E-6
 30
0.0
 11
-4.45137756989492
 21
1.24674577713013
 31
0.0
  0
LINE
  5
   15C
  8
0
  6
CONTINUOUS
 62
     7
 10
-2.66409674425225
 20
1.24674577713013
 30
0.0
 11
-2.22773097566292
 21
-2.60666856455316E-6
 31
0.0
  0
LINE
  5
   15D
  8
0
  6
CONTINUOUS
 62
     7
 10
-3.47449798583984
 20
0.531999588012697
 30
0.0
 11
-3.07894897460938
 21
0.531999588012697
 31
0.0
  0
LINE
  5
   15E
  8
0
  6
CONTINUOUS
 62
     7
 10
-3.07893739163377
 20
0.53200042788059
 30
0.0
 11
-2.89273439597387
 21
8.14941384263967E-7
 31
0.0
  0
LINE
  5
   15F
  8
0
  6
CONTINUOUS
 62
     7
 10
-2.89274597167969
 20
1.33351129624183E-15
 30
0.0
 11
-2.22774505615234
 21
1.33351129624183E-15
 31
0.0
  0
LINE
  5
   160
  8
0
  6
CONTINUOUS
 62
     7
 10
-3.15873717506253
 20
2.65999387867798
 30
0.0
 11
-2.72237316510625
 21
1.4132435798645
 31
0.0
  0
LINE
  5
   161
  8
0
  6
CONTINUOUS
 62
     7
 10
-2.06149291992188
 20
1.33351129624183E-15
 30
0.0
 11
-1.34674530029297
 21
1.33351129624183E-15
 31
0.0
  0
LINE
  5
   162
  8
0
  6
CONTINUOUS
 62
     7
 10
-0.698249011125256
 20
1.51330638523267
 30
0.0
 11
-0.497944258065633
 21
1.4132435798645
 31
0.0
  0
LINE
  5
   163
  8
0
  6
CONTINUOUS
 62
     7
 10
-1.18024749755859
 20
1.33351129624183E-15
 30
0.0
 11
-0.982933044433594
 21
1.33351129624183E-15
 31
0.0
  0
LINE
  5
   164
  8
0
  6
CONTINUOUS
 62
     7
 10
-2.06149291992188
 20
0.0
 30
0.0
 11
-2.06149291992188
 21
1.24674577713013
 31
0.0
  0
LINE
  5
   165
  8
0
  6
CONTINUOUS
 62
     7
 10
-3.95674896240234
 20
2.659996509552
 30
0.0
 11
-3.64099578857422
 21
2.659996509552
 31
0.0
  0
LINE
  5
   166
  8
0
  6
CONTINUOUS
 62
     7
 10
-3.47449798583984
 20
2.659996509552
 30
0.0
 11
-3.15874481201172
 21
2.659996509552
 31
0.0
  0
LINE
  5
   167
  8
0
  6
CONTINUOUS
 62
     7
 10
-2.06149291992188
 20
2.659996509552
 30
0.0
 11
-1.34674530029297
 21
2.659996509552
 31
0.0
  0
LINE
  5
   168
  8
0
  6
CONTINUOUS
 62
     7
 10
-1.18024749755859
 20
2.659996509552
 30
0.0
 11
-1.01650238037109
 21
2.659996509552
 31
0.0
  0
LINE
  5
   169
  8
0
  6
CONTINUOUS
 62
     7
 10
-3.47449798583984
 20
1.4132435798645
 30
0.0
 11
-3.47449798583984
 21
2.659996509552
 31
0.0
  0
LINE
  5
   16A
  8
0
  6
CONTINUOUS
 62
     7
 10
-3.47449798583984
 20
0.531999588012695
 30
0.0
 11
-3.47449798583984
 21
1.24674577713013
 31
0.0
  0
LINE
  5
   16B
  8
0
  6
CONTINUOUS
 62
     7
 10
-3.64099578857422
 20
1.4132435798645
 30
0.0
 11
-3.64099578857422
 21
2.659996509552
 31
0.0
  0
LINE
  5
   16C
  8
0
  6
CONTINUOUS
 62
     7
 10
-3.64099578857422
 20
0.531999588012695
 30
0.0
 11
-3.64099578857422
 21
1.24674577713013
 31
0.0
  0
LINE
  5
   16D
  8
0
  6
CONTINUOUS
 62
     7
 10
-4.39309755866065
 20
1.4132435798645
 30
0.0
 11
-3.64099578857422
 21
1.4132435798645
 31
0.0
  0
LINE
  5
   16E
  8
0
  6
CONTINUOUS
 62
     7
 10
-4.45137756989492
 20
1.24674577713013
 30
0.0
 11
-3.64099578857422
 21
1.24674577713013
 31
0.0
  0
LINE
  5
   16F
  8
0
  6
CONTINUOUS
 62
     7
 10
-3.47449798583984
 20
1.24674577713013
 30
0.0
 11
-2.66409674425225
 21
1.24674577713013
 31
0.0
  0
LINE
  5
   170
  8
0
  6
CONTINUOUS
 62
     7
 10
-1.34674530029297
 20
1.4132435798645
 30
0.0
 11
-1.34674530029297
 21
2.659996509552
 31
0.0
  0
LINE
  5
   171
  8
0
  6
CONTINUOUS
 62
     7
 10
-2.06149291992188
 20
1.4132435798645
 30
0.0
 11
-1.34674530029297
 21
1.4132435798645
 31
0.0
  0
LINE
  5
   172
  8
0
  6
CONTINUOUS
 62
     7
 10
-1.18024749755859
 20
1.4132435798645
 30
0.0
 11
-1.18024749755859
 21
2.659996509552
 31
0.0
  0
LINE
  5
   173
  8
0
  6
CONTINUOUS
 62
     7
 10
-1.18024749755859
 20
1.4132435798645
 30
0.0
 11
-0.497944258065633
 21
1.4132435798645
 31
0.0
  0
LINE
  5
   174
  8
0
  6
CONTINUOUS
 62
     7
 10
-2.06149291992188
 20
1.24674577713013
 30
0.0
 11
-1.34674530029297
 21
1.24674577713013
 31
0.0
  0
LINE
  5
   175
  8
0
  6
CONTINUOUS
 62
     7
 10
-1.18024749755859
 20
1.24674577713013
 30
0.0
 11
-0.351146494976341
 21
1.24674577713013
 31
0.0
  0
LINE
  5
   176
  8
0
  6
CONTINUOUS
 62
     7
 10
-1.18024749755859
 20
0.0
 30
0.0
 11
-1.18024749755859
 21
1.24674577713013
 31
0.0
  0
LINE
  5
   177
  8
0
  6
CONTINUOUS
 62
     7
 10
-1.34674530029297
 20
0.0
 30
0.0
 11
-1.34674530029297
 21
1.24674577713013
 31
0.0
  0
ARC
  5
   178
  8
0
  6
CONTINUOUS
 62
     7
 10
-1.01636629288394
 20
2.0426469527994
 30
0.0
 40
0.617302755021266
 50
300.988438672012
 51
450.0
  0
ARC
  5
   179
  8
0
  6
CONTINUOUS
 62
     7
 10
-0.983116632612569
 20
0.783417365308862
 30
0.0
 40
0.783619468916367
 50
270.01347311298
 51
396.246977192996
  0
LINE
  5
   17A
  8
0
  6
CONTINUOUS
 62
     7
 10
-2.06149291992188
 20
1.4132435798645
 30
0.0
 11
-2.06149291992188
 21
2.659996509552
 31
0.0
  0
LINE
  5
   17B
  8
0
  6
CONTINUOUS
 62
     7
 10
-3.47449798583984
 20
1.4132435798645
 30
0.0
 11
-2.72237316510625
 21
1.4132435798645
 31
0.0
  0
LINE
  5
   17C
  8
0
  6
CONTINUOUS
 62
     7
 10
0.0
 20
1.33351129624183E-15
 30
0.0
 11
0.714747619628906
 21
1.33351129624183E-15
 31
0.0
  0
LINE
  5
   17D
  8
0
  6
CONTINUOUS
 62
     7
 10
1.36324390879662
 20
1.51330638523267
 30
0.0
 11
1.56354866185624
 21
1.4132435798645
 31
0.0
  0
LINE
  5
   17E
  8
0
  6
CONTINUOUS
 62
     7
 10
0.881245422363281
 20
1.33351129624183E-15
 30
0.0
 11
1.07855987548828
 21
1.33351129624183E-15
 31
0.0
  0
LINE
  5
   17F
  8
0
  6
CONTINUOUS
 62
     7
 10
0.0
 20
0.0
 30
0.0
 11
0.0
 21
1.24674577713013
 31
0.0
  0
LINE
  5
   180
  8
0
  6
CONTINUOUS
 62
     7
 10
0.0
 20
2.659996509552
 30
0.0
 11
0.714747619628906
 21
2.659996509552
 31
0.0
  0
LINE
  5
   181
  8
0
  6
CONTINUOUS
 62
     7
 10
0.881245422363281
 20
2.659996509552
 30
0.0
 11
1.04499053955078
 21
2.659996509552
 31
0.0
  0
LINE
  5
   182
  8
0
  6
CONTINUOUS
 62
     7
 10
0.714747619628906
 20
1.4132435798645
 30
0.0
 11
0.714747619628906
 21
2.659996509552
 31
0.0
  0
LINE
  5
   183
  8
0
  6
CONTINUOUS
 62
     7
 10
0.0
 20
1.4132435798645
 30
0.0
 11
0.714747619628906
 21
1.4132435798645
 31
0.0
  0
LINE
  5
   184
  8
0
  6
CONTINUOUS
 62
     7
 10
0.881245422363281
 20
1.4132435798645
 30
0.0
 11
0.881245422363281
 21
2.659996509552
 31
0.0
  0
LINE
  5
   185
  8
0
  6
CONTINUOUS
 62
     7
 10
0.881245422363281
 20
1.4132435798645
 30
0.0
 11
1.56354866185624
 21
1.4132435798645
 31
0.0
  0
LINE
  5
   186
  8
0
  6
CONTINUOUS
 62
     7
 10
0.0
 20
1.24674577713013
 30
0.0
 11
0.714747619628906
 21
1.24674577713013
 31
0.0
  0
LINE
  5
   187
  8
0
  6
CONTINUOUS
 62
     7
 10
0.881245422363281
 20
1.24674577713013
 30
0.0
 11
1.71034642494553
 21
1.24674577713013
 31
0.0
  0
LINE
  5
   188
  8
0
  6
CONTINUOUS
 62
     7
 10
0.881245422363281
 20
0.0
 30
0.0
 11
0.881245422363281
 21
1.24674577713013
 31
0.0
  0
LINE
  5
   189
  8
0
  6
CONTINUOUS
 62
     7
 10
0.714747619628906
 20
0.0
 30
0.0
 11
0.714747619628906
 21
1.24674577713013
 31
0.0
  0
ARC
  5
   18A
  8
0
  6
CONTINUOUS
 62
     7
 10
1.04512662703793
 20
2.0426469527994
 30
0.0
 40
0.617302755021266
 50
300.988438672012
 51
450.0
  0
ARC
  5
   18B
  8
0
  6
CONTINUOUS
 62
     7
 10
1.07837628730931
 20
0.783417365308862
 30
0.0
 40
0.783619468916367
 50
270.01347311298
 51
396.246977192996
  0
LINE
  5
   18C
  8
0
  6
CONTINUOUS
 62
     7
 10
0.0
 20
1.4132435798645
 30
0.0
 11
0.0
 21
2.659996509552
 31
0.0
  0
INSERT
  5
   18D
  8
0
  6
CONTINUOUS
 62
     7
  2
*HATCH28
 10
0.0
 20
0.0
 30
0.0
  0
INSERT
  5
   18E
  8
0
  6
CONTINUOUS
 62
     7
  2
*HATCH29
 10
0.0
 20
0.0
 30
0.0
  0
INSERT
  5
   18F
  8
0
  6
CONTINUOUS
 62
     7
  2
*HATCH30
 10
0.0
 20
0.0
 30
0.0
  0
INSERT
  5
   190
  8
0
  6
CONTINUOUS
 62
     7
  2
*HATCH31
 10
0.0
 20
0.0
 30
0.0
  0
INSERT
  5
   191
  8
0
  6
CONTINUOUS
 62
     7
  2
*HATCH32
 10
0.0
 20
0.0
 30
0.0
  0
INSERT
  5
   192
  8
0
  6
CONTINUOUS
 62
     7
  2
*HATCH33
 10
0.0
 20
0.0
 30
0.0
  0
INSERT
  5
   193
  8
0
  6
CONTINUOUS
 62
     7
  2
*HATCH34
 10
0.0
 20
0.0
 30
0.0
  0
INSERT
  5
   194
  8
0
  6
CONTINUOUS
 62
     7
  2
*HATCH35
 10
0.0
 20
0.0
 30
0.0
  0
INSERT
  5
   195
  8
0
  6
CONTINUOUS
 62
     7
  2
*HATCH36
 10
0.0
 20
0.0
 30
0.0
  0
INSERT
  5
   196
  8
0
  6
CONTINUOUS
 62
     7
  2
*HATCH37
 10
0.0
 20
0.0
 30
0.0
  0
INSERT
  5
   197
  8
0
  6
CONTINUOUS
 62
     7
  2
*HATCH38
 10
0.0
 20
0.0
 30
0.0
  0
INSERT
  5
   198
  8
0
  6
CONTINUOUS
 62
     7
  2
*HATCH39
 10
0.0
 20
0.0
 30
0.0
  0
ENDBLK
  5
   199
  8
0
  6
CONTINUOUS
 62
     7
  0
BLOCK
  5
   19A
  8
0
  6
CONTINUOUS
 62
     7
  2
$2SETTORE
 70
    64
 10
0.0
 20
0.0
 30
0.0
  3
$2SETTORE
  0
LINE
  5
   19B
  8
0
  6
CONTINUOUS
 62
     7
 10
0.0
 20
0.0
 30
0.0
 11
0.0
 21
6.24258713789282
 31
0.0
  0
LINE
  5
   19C
  8
0
  6
CONTINUOUS
 62
     7
 10
0.0
 20
6.24258713789282
 30
0.0
 11
10.246732288018
 21
6.24258713789282
 31
0.0
  0
LINE
  5
   19D
  8
0
  6
CONTINUOUS
 62
     7
 10
0.0
 20
0.0
 30
0.0
 11
10.246732288018
 21
0.0
 31
0.0
  0
ARC
  5
   19E
  8
0
  6
CONTINUOUS
 62
     7
 10
3.00394911306302
 20
1.0864500117421
 30
0.0
 40
1.56546573367076
 50
6.88816001651171
 51
173.111839983488
  0
ARC
  5
   19F
  8
0
  6
CONTINUOUS
 62
     7
 10
7.01184733918905
 20
1.08645001174209
 30
0.0
 40
1.56546573367076
 50
6.88816001651175
 51
173.111839983488
  0
LINE
  5
   1A0
  8
0
  6
CONTINUOUS
 62
     7
 10
4.55811554458609
 20
1.27419895694331
 30
0.0
 11
5.45768090766596
 21
1.27419895694331
 31
0.0
  0
LINE
  5
   1A1
  8
0
  6
CONTINUOUS
 62
     7
 10
8.56601377071214
 20
1.27419895694331
 30
0.0
 11
9.32812373766353
 21
1.27419895694331
 31
0.0
  0
LINE
  5
   1A2
  8
0
  6
CONTINUOUS
 62
     7
 10
10.246732288018
 20
0.0
 30
0.0
 11
10.246732288018
 21
6.24258713789282
 31
0.0
  0
POLYLINE
  5
   1A3
  8
0
  6
CONTINUOUS
 62
     7
 66
     1
 10
0.0
 20
0.0
 30
0.0
  0
VERTEX
  5
   1A4
  8
0
  6
CONTINUOUS
 10
1.47743232669794
 20
4.62974475182398
 30
0.0
 40
0.0
 41
0.0
  0
VERTEX
  5
   1A5
  8
0
  6
CONTINUOUS
 10
1.50907090971912
 20
4.68541072145247
 30
0.0
 40
0.0
 41
0.0
  0
VERTEX
  5
   1A6
  8
0
  6
CONTINUOUS
 10
1.54295933904664
 20
4.7397363550725
 30
0.0
 40
0.0
 41
0.0
  0
VERTEX
  5
   1A7
  8
0
  6
CONTINUOUS
 10
1.57904092337672
 20
4.79263077238764
 30
0.0
 40
0.0
 41
0.0
  0
VERTEX
  5
   1A8
  8
0
  6
CONTINUOUS
 10
1.61725530251987
 20
4.84400548735488
 30
0.0
 40
0.0
 41
0.0
  0
VERTEX
  5
   1A9
  8
0
  6
CONTINUOUS
 10
1.65753854837676
 20
4.89377455621077
 30
0.0
 40
0.0
 41
0.0
  0
VERTEX
  5
   1AA
  8
0
  6
CONTINUOUS
 10
1.69982327188269
 20
4.94185472124475
 30
0.0
 40
0.0
 41
0.0
  0
VERTEX
  5
   1AB
  8
0
  6
CONTINUOUS
 10
1.74403873574163
 20
4.98816555007912
 30
0.0
 40
0.0
 41
0.0
  0
VERTEX
  5
   1AC
  8
0
  6
CONTINUOUS
 10
1.79011097276124
 20
5.0326295702228
 30
0.0
 40
0.0
 41
0.0
  0
VERTEX
  5
   1AD
  8
0
  6
CONTINUOUS
 10
1.83796290959098
 20
5.07517239867363
 30
0.0
 40
0.0
 41
0.0
  0
VERTEX
  5
   1AE
  8
0
  6
CONTINUOUS
 10
1.88751449565626
 20
5.11572286635262
 30
0.0
 40
0.0
 41
0.0
  0
VERTEX
  5
   1AF
  8
0
  6
CONTINUOUS
 10
1.93868283707304
 20
5.15421313716167
 30
0.0
 40
0.0
 41
0.0
  0
VERTEX
  5
   1B0
  8
0
  6
CONTINUOUS
 10
1.99138233531874
 20
5.19057882146581
 30
0.0
 40
0.0
 41
0.0
  0
VERTEX
  5
   1B1
  8
0
  6
CONTINUOUS
 10
2.04552483042776
 20
5.22475908380999
 30
0.0
 40
0.0
 41
0.0
  0
VERTEX
  5
   1B2
  8
0
  6
CONTINUOUS
 10
2.10101974847194
 20
5.25669674469012
 30
0.0
 40
0.0
 41
0.0
  0
VERTEX
  5
   1B3
  8
0
  6
CONTINUOUS
 10
2.15777425307935
 20
5.28633837620813
 30
0.0
 40
0.0
 41
0.0
  0
VERTEX
  5
   1B4
  8
0
  6
CONTINUOUS
 10
2.21569340073804
 20
5.31363439145094
 30
0.0
 40
0.0
 41
0.0
  0
VERTEX
  5
   1B5
  8
0
  6
CONTINUOUS
 10
2.2746802996249
 20
5.33853912744377
 30
0.0
 40
0.0
 41
0.0
  0
VERTEX
  5
   1B6
  8
0
  6
CONTINUOUS
 10
2.3346362716941
 20
5.36101092153898
 30
0.0
 40
0.0
 41
0.0
  0
VERTEX
  5
   1B7
  8
0
  6
CONTINUOUS
 10
2.39546101775383
 20
5.38101218111262
 30
0.0
 40
0.0
 41
0.0
  0
VERTEX
  5
   1B8
  8
0
  6
CONTINUOUS
 10
2.45705278525531
 20
5.39850944645206
 30
0.0
 40
0.0
 41
0.0
  0
VERTEX
  5
   1B9
  8
0
  6
CONTINUOUS
 10
2.51930853851338
 20
5.4134734467295
 30
0.0
 40
0.0
 41
0.0
  0
VERTEX
  5
   1BA
  8
0
  6
CONTINUOUS
 10
2.58212413107371
 20
5.42587914896778
 30
0.0
 40
0.0
 41
0.0
  0
VERTEX
  5
   1BB
  8
0
  6
CONTINUOUS
 10
2.64539447993848
 20
5.43570579991652
 30
0.0
 40
0.0
 41
0.0
  0
VERTEX
  5
   1BC
  8
0
  6
CONTINUOUS
 10
2.70901374135873
 20
5.44293696076883
 30
0.0
 40
0.0
 41
0.0
  0
VERTEX
  5
   1BD
  8
0
  6
CONTINUOUS
 10
2.77287548789944
 20
5.44756053466028
 30
0.0
 40
0.0
 41
0.0
  0
VERTEX
  5
   1BE
  8
0
  6
CONTINUOUS
 10
2.83687288648079
 20
5.44956878690456
 30
0.0
 40
0.0
 41
0.0
  0
VERTEX
  5
   1BF
  8
0
  6
CONTINUOUS
 10
2.90089887709781
 20
5.44895835793193
 30
0.0
 40
0.0
 41
0.0
  0
VERTEX
  5
   1C0
  8
0
  6
CONTINUOUS
 10
2.96484635191918
 20
5.44573026890904
 30
0.0
 40
0.0
 41
0.0
  0
VERTEX
  5
   1C1
  8
0
  6
CONTINUOUS
 10
3.02860833446559
 20
5.43988992003082
 30
0.0
 40
0.0
 41
0.0
  0
VERTEX
  5
   1C2
  8
0
  6
CONTINUOUS
 10
3.09207815856758
 20
5.43144708148745
 30
0.0
 40
0.0
 41
0.0
  0
VERTEX
  5
   1C3
  8
0
  6
CONTINUOUS
 10
3.15514964680372
 20
5.42041587712159
 30
0.0
 40
0.0
 41
0.0
  0
VERTEX
  5
   1C4
  8
0
  6
CONTINUOUS
 10
3.2177172881204
 20
5.40681476080326
 30
0.0
 40
0.0
 41
0.0
  0
VERTEX
  5
   1C5
  8
0
  6
CONTINUOUS
 10
3.27967641433626
 20
5.39066648556181
 30
0.0
 40
0.0
 41
0.0
  0
VERTEX
  5
   1C6
  8
0
  6
CONTINUOUS
 10
3.34092337523629
 20
5.37199806552637
 30
0.0
 40
0.0
 41
0.0
  0
VERTEX
  5
   1C7
  8
0
  6
CONTINUOUS
 10
3.40135571196283
 20
5.35084073073817
 30
0.0
 40
0.0
 41
0.0
  0
VERTEX
  5
   1C8
  8
0
  6
CONTINUOUS
 10
3.46087232841431
 20
5.32722987490957
 30
0.0
 40
0.0
 41
0.0
  0
VERTEX
  5
   1C9
  8
0
  6
CONTINUOUS
 10
3.51937366036546
 20
5.30120499621645
 30
0.0
 40
0.0
 41
0.0
  0
VERTEX
  5
   1CA
  8
0
  6
CONTINUOUS
 10
3.57676184202738
 20
5.27280963122154
 30
0.0
 40
0.0
 41
0.0
  0
VERTEX
  5
   1CB
  8
0
  6
CONTINUOUS
 10
3.63294086977031
 20
5.24209128203773
 30
0.0
 40
0.0
 41
0.0
  0
VERTEX
  5
   1CC
  8
0
  6
CONTINUOUS
 10
3.6878167627369
 20
5.20910133685067
 30
0.0
 40
0.0
 41
0.0
  0
VERTEX
  5
   1CD
  8
0
  6
CONTINUOUS
 10
3.74129772007988
 20
5.17389498393089
 30
0.0
 40
0.0
 41
0.0
  0
VERTEX
  5
   1CE
  8
0
  6
CONTINUOUS
 10
3.79329427456388
 20
5.13653111927552
 30
0.0
 40
0.0
 41
0.0
  0
VERTEX
  5
   1CF
  8
0
  6
CONTINUOUS
 10
3.84371944227804
 20
5.09707224802936
 30
0.0
 40
0.0
 41
0.0
  0
VERTEX
  5
   1D0
  8
0
  6
CONTINUOUS
 10
3.89248886821343
 20
5.05558437984477
 30
0.0
 40
0.0
 41
0.0
  0
VERTEX
  5
   1D1
  8
0
  6
CONTINUOUS
 10
6.0912629150773
 20
3.70503503045824
 30
0.0
 40
0.0
 41
0.0
  0
VERTEX
  5
   1D2
  8
0
  6
CONTINUOUS
 10
6.14003234101554
 20
3.6635471622731
 30
0.0
 40
0.0
 41
0.0
  0
VERTEX
  5
   1D3
  8
0
  6
CONTINUOUS
 10
6.19045750872971
 20
3.62408829102695
 30
0.0
 40
0.0
 41
0.0
  0
VERTEX
  5
   1D4
  8
0
  6
CONTINUOUS
 10
6.2424540632137
 20
3.58672442637157
 30
0.0
 40
0.0
 41
0.0
  0
VERTEX
  5
   1D5
  8
0
  6
CONTINUOUS
 10
6.29593502055669
 20
3.55151807345179
 30
0.0
 40
0.0
 41
0.0
  0
VERTEX
  5
   1D6
  8
0
  6
CONTINUOUS
 10
6.35081091352328
 20
3.51852812826473
 30
0.0
 40
0.0
 41
0.0
  0
VERTEX
  5
   1D7
  8
0
  6
CONTINUOUS
 10
6.4069899412662
 20
3.48780977908092
 30
0.0
 40
0.0
 41
0.0
  0
VERTEX
  5
   1D8
  8
0
  6
CONTINUOUS
 10
6.46437812292813
 20
3.45941441408601
 30
0.0
 40
0.0
 41
0.0
  0
VERTEX
  5
   1D9
  8
0
  6
CONTINUOUS
 10
6.52287945487927
 20
3.43338953539289
 30
0.0
 40
0.0
 41
0.0
  0
VERTEX
  5
   1DA
  8
0
  6
CONTINUOUS
 10
6.58239607133076
 20
3.40977867956429
 30
0.0
 40
0.0
 41
0.0
  0
VERTEX
  5
   1DB
  8
0
  6
CONTINUOUS
 10
6.6428284080573
 20
3.38862134477609
 30
0.0
 40
0.0
 41
0.0
  0
VERTEX
  5
   1DC
  8
0
  6
CONTINUOUS
 10
6.70407536895733
 20
3.36995292474065
 30
0.0
 40
0.0
 41
0.0
  0
VERTEX
  5
   1DD
  8
0
  6
CONTINUOUS
 10
6.7660344951732
 20
3.3538046494992
 30
0.0
 40
0.0
 41
0.0
  0
VERTEX
  5
   1DE
  8
0
  6
CONTINUOUS
 10
6.82860213648987
 20
3.34020353318088
 30
0.0
 40
0.0
 41
0.0
  0
VERTEX
  5
   1DF
  8
0
  6
CONTINUOUS
 10
6.89167362472602
 20
3.32917232881501
 30
0.0
 40
0.0
 41
0.0
  0
VERTEX
  5
   1E0
  8
0
  6
CONTINUOUS
 10
6.95514344882801
 20
3.32072949027164
 30
0.0
 40
0.0
 41
0.0
  0
VERTEX
  5
   1E1
  8
0
  6
CONTINUOUS
 10
7.01890543137442
 20
3.31488914139342
 30
0.0
 40
0.0
 41
0.0
  0
VERTEX
  5
   1E2
  8
0
  6
CONTINUOUS
 10
7.08285290619579
 20
3.31166105237053
 30
0.0
 40
0.0
 41
0.0
  0
VERTEX
  5
   1E3
  8
0
  6
CONTINUOUS
 10
7.14687889681281
 20
3.3110506233979
 30
0.0
 40
0.0
 41
0.0
  0
VERTEX
  5
   1E4
  8
0
  6
CONTINUOUS
 10
7.21087629539416
 20
3.31305887564218
 30
0.0
 40
0.0
 41
0.0
  0
VERTEX
  5
   1E5
  8
0
  6
CONTINUOUS
 10
7.27473804193487
 20
3.31768244953363
 30
0.0
 40
0.0
 41
0.0
  0
VERTEX
  5
   1E6
  8
0
  6
CONTINUOUS
 10
7.33835730335512
 20
3.32491361038594
 30
0.0
 40
0.0
 41
0.0
  0
VERTEX
  5
   1E7
  8
0
  6
CONTINUOUS
 10
7.40162765221989
 20
3.33474026133469
 30
0.0
 40
0.0
 41
0.0
  0
VERTEX
  5
   1E8
  8
0
  6
CONTINUOUS
 10
7.46444324478022
 20
3.34714596357296
 30
0.0
 40
0.0
 41
0.0
  0
VERTEX
  5
   1E9
  8
0
  6
CONTINUOUS
 10
7.52669899803829
 20
3.36210996385041
 30
0.0
 40
0.0
 41
0.0
  0
VERTEX
  5
   1EA
  8
0
  6
CONTINUOUS
 10
7.58829076553978
 20
3.37960722918985
 30
0.0
 40
0.0
 41
0.0
  0
VERTEX
  5
   1EB
  8
0
  6
CONTINUOUS
 10
7.6491155115995
 20
3.39960848876349
 30
0.0
 40
0.0
 41
0.0
  0
VERTEX
  5
   1EC
  8
0
  6
CONTINUOUS
 10
7.70907148366871
 20
3.4220802828587
 30
0.0
 40
0.0
 41
0.0
  0
VERTEX
  5
   1ED
  8
0
  6
CONTINUOUS
 10
7.76805838255557
 20
3.44698501885154
 30
0.0
 40
0.0
 41
0.0
  0
VERTEX
  5
   1EE
  8
0
  6
CONTINUOUS
 10
7.82597753021426
 20
3.47428103409435
 30
0.0
 40
0.0
 41
0.0
  0
VERTEX
  5
   1EF
  8
0
  6
CONTINUOUS
 10
7.88273203482167
 20
3.50392266561236
 30
0.0
 40
0.0
 41
0.0
  0
VERTEX
  5
   1F0
  8
0
  6
CONTINUOUS
 10
7.93822695286585
 20
3.53586032649249
 30
0.0
 40
0.0
 41
0.0
  0
VERTEX
  5
   1F1
  8
0
  6
CONTINUOUS
 10
7.99236944797487
 20
3.57004058883668
 30
0.0
 40
0.0
 41
0.0
  0
VERTEX
  5
   1F2
  8
0
  6
CONTINUOUS
 10
8.04506894622057
 20
3.60640627314082
 30
0.0
 40
0.0
 41
0.0
  0
VERTEX
  5
   1F3
  8
0
  6
CONTINUOUS
 10
8.09623728763735
 20
3.64489654394987
 30
0.0
 40
0.0
 41
0.0
  0
VERTEX
  5
   1F4
  8
0
  6
CONTINUOUS
 10
8.14578887370264
 20
3.68544701162886
 30
0.0
 40
0.0
 41
0.0
  0
VERTEX
  5
   1F5
  8
0
  6
CONTINUOUS
 10
8.19364081053237
 20
3.7279898400797
 30
0.0
 40
0.0
 41
0.0
  0
VERTEX
  5
   1F6
  8
0
  6
CONTINUOUS
 10
8.23971304755198
 20
3.77245386022337
 30
0.0
 40
0.0
 41
0.0
  0
VERTEX
  5
   1F7
  8
0
  6
CONTINUOUS
 10
8.28392851141091
 20
3.81876468905774
 30
0.0
 40
0.0
 41
0.0
  0
VERTEX
  5
   1F8
  8
0
  6
CONTINUOUS
 10
8.32621323491685
 20
3.86684485409172
 30
0.0
 40
0.0
 41
0.0
  0
VERTEX
  5
   1F9
  8
0
  6
CONTINUOUS
 10
8.36649648077374
 20
3.91661392294762
 30
0.0
 40
0.0
 41
0.0
  0
VERTEX
  5
   1FA
  8
0
  6
CONTINUOUS
 10
8.40471085991688
 20
3.96798863791486
 30
0.0
 40
0.0
 41
0.0
  0
VERTEX
  5
   1FB
  8
0
  6
CONTINUOUS
 10
8.44079244424696
 20
4.02088305523
 30
0.0
 40
0.0
 41
0.0
  0
VERTEX
  5
   1FC
  8
0
  6
CONTINUOUS
 10
8.47468087357449
 20
4.07520868885003
 30
0.0
 40
0.0
 41
0.0
  0
VERTEX
  5
   1FD
  8
0
  6
CONTINUOUS
 10
8.50631945659566
 20
4.13087465847852
 30
0.0
 40
0.0
 41
0.0
  0
SEQEND
  5
   1FE
  8
0
  6
CONTINUOUS
 62
     7
  0
ENDBLK
  5
   1FF
  8
0
  6
CONTINUOUS
 62
     7
  0
BLOCK
  5
   200
  8
0
  6
CONTINUOUS
 62
     3
  2
*UDIM190
 70
    65
 10
0.0
 20
0.0
 30
0.0
  3
*UDIM190
  0
TEXT
  5
   201
  8
0
  6
CONTINUOUS
 62
     3
 10
2050.33375328252
 20
-1197.93723837708
 30
0.0
 40
2.99999994933605
  1
50
 50
449.999999844103
 41
0.933333333333333
 72
     1
 11
2048.83375331464
 21
-1195.43723841523
 31
0.0
 73
     2
  0
LINE
  5
   202
  8
0
  6
CONTINUOUS
 62
     3
 10
2032.72049989672
 20
-1185.16220091879
 30
0.0
 11
2053.33375328931
 21
-1185.16220091879
 31
0.0
  0
LINE
  5
   203
  8
0
  6
CONTINUOUS
 62
     3
 10
2029.17131036175
 20
-1205.16227625736
 30
0.0
 11
2053.33375328931
 21
-1205.16227625736
 31
0.0
  0
LINE
  5
   204
  8
0
  6
CONTINUOUS
 62
     3
 10
2051.33375328931
 20
-1185.16220091879
 30
0.0
 11
2051.33375328931
 21
-1205.16227625736
 31
0.0
  0
LINE
  5
   205
  8
0
  6
CONTINUOUS
 62
     3
 10
2051.85469771926
 20
-1188.116624196
 30
0.0
 11
2051.33375328931
 21
-1185.16220091879
 31
0.0
  0
LINE
  5
   206
  8
0
  6
CONTINUOUS
 62
     3
 10
2051.33375328931
 20
-1185.16220091879
 30
0.0
 11
2050.81280885935
 21
-1188.116624196
 31
0.0
  0
LINE
  5
   207
  8
0
  6
CONTINUOUS
 62
     3
 10
2050.81280885935
 20
-1202.20785298016
 30
0.0
 11
2051.33375328931
 21
-1205.16227625736
 31
0.0
  0
LINE
  5
   208
  8
0
  6
CONTINUOUS
 62
     3
 10
2051.33375328931
 20
-1205.16227625736
 30
0.0
 11
2051.85469771926
 21
-1202.20785298016
 31
0.0
  0
ENDBLK
  5
   209
  8
0
  6
CONTINUOUS
 62
     3
  0
BLOCK
  5
   20A
  8
0
  6
CONTINUOUS
 62
     3
  2
*UDIM191
 70
    65
 10
0.0
 20
0.0
 30
0.0
  3
*UDIM191
  0
TEXT
  5
   20B
  8
0
  6
CONTINUOUS
 62
     3
 10
2005.07131344895
 20
-1084.52249362782
 30
0.0
 40
2.99999994933605
  1
116
 50
359.999999844103
 41
0.933333333333333
 72
     1
 11
2008.97131338716
 21
-1083.02249366374
 31
0.0
 73
     2
  0
LINE
  5
   20C
  8
0
  6
CONTINUOUS
 62
     3
 10
1985.77131304145
 20
-1115.4622059986
 30
0.0
 11
1985.77131304145
 21
-1083.52249363841
 31
0.0
  0
LINE
  5
   20D
  8
0
  6
CONTINUOUS
 62
     3
 10
2032.17131373286
 20
-1115.4622059986
 30
0.0
 11
2032.17131373286
 21
-1083.52249363841
 31
0.0
  0
LINE
  5
   20E
  8
0
  6
CONTINUOUS
 62
     3
 10
1985.77131304145
 20
-1085.52249363841
 30
0.0
 11
2032.17131373286
 21
-1085.52249363841
 31
0.0
  0
LINE
  5
   20F
  8
0
  6
CONTINUOUS
 62
     3
 10
1988.66909051466
 20
-1084.74603648199
 30
0.0
 11
1985.77131304145
 21
-1085.52249363841
 31
0.0
  0
LINE
  5
   210
  8
0
  6
CONTINUOUS
 62
     3
 10
1985.77131304145
 20
-1085.52249363841
 30
0.0
 11
1988.66909051466
 21
-1086.29895079483
 31
0.0
  0
LINE
  5
   211
  8
0
  6
CONTINUOUS
 62
     3
 10
2029.27353625965
 20
-1086.29895079483
 30
0.0
 11
2032.17131373286
 21
-1085.52249363841
 31
0.0
  0
LINE
  5
   212
  8
0
  6
CONTINUOUS
 62
     3
 10
2032.17131373286
 20
-1085.52249363841
 30
0.0
 11
2029.27353625965
 21
-1084.74603648199
 31
0.0
  0
ENDBLK
  5
   213
  8
0
  6
CONTINUOUS
 62
     3
  0
BLOCK
  5
   214
  8
0
  6
CONTINUOUS
 62
     3
  2
*UDIM192
 70
    65
 10
0.0
 20
0.0
 30
0.0
  3
*UDIM192
  0
TEXT
  5
   215
  8
0
  6
CONTINUOUS
 62
     3
 10
2005.07135415322
 20
-1092.57598672322
 30
0.0
 40
2.99999994933605
  1
103
 50
359.999999844103
 41
0.933333333333333
 72
     1
 11
2008.97135409143
 21
-1091.07598675915
 31
0.0
 73
     2
  0
LINE
  5
   216
  8
0
  6
CONTINUOUS
 62
     3
 10
1988.37136284763
 20
-1104.9622748402
 30
0.0
 11
1988.37136202309
 21
-1091.57598673381
 31
0.0
  0
LINE
  5
   217
  8
0
  6
CONTINUOUS
 62
     3
 10
2029.5713481406
 20
-1104.9622748402
 30
0.0
 11
2029.57134566701
 21
-1091.57598673381
 31
0.0
  0
LINE
  5
   218
  8
0
  6
CONTINUOUS
 62
     3
 10
1988.37136214629
 20
-1093.57598673381
 30
0.0
 11
2029.57134603658
 21
-1093.57598673381
 31
0.0
  0
LINE
  5
   219
  8
0
  6
CONTINUOUS
 62
     3
 10
1991.2691396195
 20
-1092.7995295774
 30
0.0
 11
1988.37136214629
 21
-1093.57598673381
 31
0.0
  0
LINE
  5
   21A
  8
0
  6
CONTINUOUS
 62
     3
 10
1988.37136214629
 20
-1093.57598673381
 30
0.0
 11
1991.2691396195
 21
-1094.35244389023
 31
0.0
  0
LINE
  5
   21B
  8
0
  6
CONTINUOUS
 62
     3
 10
2026.67356856337
 20
-1094.35244389023
 30
0.0
 11
2029.57134603658
 21
-1093.57598673381
 31
0.0
  0
LINE
  5
   21C
  8
0
  6
CONTINUOUS
 62
     3
 10
2029.57134603658
 20
-1093.57598673381
 30
0.0
 11
2026.67356856337
 21
-1092.7995295774
 31
0.0
  0
ENDBLK
  5
   21D
  8
0
  6
CONTINUOUS
 62
     3
  0
BLOCK
  5
   21E
  8
0
  6
CONTINUOUS
 62
     3
  2
*UDIM193
 70
    65
 10
0.0
 20
0.0
 30
0.0
  3
*UDIM193
  0
TEXT
  5
   21F
  8
0
  6
CONTINUOUS
 62
     3
 10
1966.24159921098
 20
-1137.6622062391
 30
0.0
 40
2.99999994933605
  1
96
 50
449.999999844103
 41
0.933333333333333
 72
     1
 11
1964.7415992431
 21
-1135.16220627725
 31
0.0
 73
     2
  0
LINE
  5
   220
  8
0
  6
CONTINUOUS
 62
     3
 10
1985.2713130489
 20
-1115.96220599115
 30
0.0
 11
1965.24159921777
 21
-1115.96220599115
 31
0.0
  0
LINE
  5
   221
  8
0
  6
CONTINUOUS
 62
     3
 10
1985.2713130489
 20
-1154.36220656335
 30
0.0
 11
1965.24159921777
 21
-1154.36220656335
 31
0.0
  0
LINE
  5
   222
  8
0
  6
CONTINUOUS
 62
     3
 10
1967.24159921777
 20
-1115.96220599115
 30
0.0
 11
1967.24159921777
 21
-1154.36220656335
 31
0.0
  0
LINE
  5
   223
  8
0
  6
CONTINUOUS
 62
     3
 10
1968.01805637419
 20
-1118.85998346436
 30
0.0
 11
1967.24159921777
 21
-1115.96220599115
 31
0.0
  0
LINE
  5
   224
  8
0
  6
CONTINUOUS
 62
     3
 10
1967.24159921777
 20
-1115.96220599115
 30
0.0
 11
1966.46514206135
 21
-1118.85998346436
 31
0.0
  0
LINE
  5
   225
  8
0
  6
CONTINUOUS
 62
     3
 10
1966.46514206135
 20
-1151.46442909014
 30
0.0
 11
1967.24159921777
 21
-1154.36220656335
 31
0.0
  0
LINE
  5
   226
  8
0
  6
CONTINUOUS
 62
     3
 10
1967.24159921777
 20
-1154.36220656335
 30
0.0
 11
1968.01805637419
 21
-1151.46442909014
 31
0.0
  0
ENDBLK
  5
   227
  8
0
  6
CONTINUOUS
 62
     3
  0
BLOCK
  5
   228
  8
0
  6
CONTINUOUS
 62
     3
  2
*UDIM194
 70
    65
 10
0.0
 20
0.0
 30
0.0
  3
*UDIM194
  0
TEXT
  5
   229
  8
0
  6
CONTINUOUS
 62
     3
 10
1958.84510160114
 20
-1159.53727373092
 30
0.0
 40
2.99999994933605
  1
249
 50
449.999999844103
 41
0.933333333333333
 72
     1
 11
1957.34510163706
 21
-1155.63727379271
 31
0.0
 73
     2
  0
LINE
  5
   22A
  8
0
  6
CONTINUOUS
 62
     3
 10
1988.77136291519
 20
-1105.56227477321
 30
0.0
 11
1957.84510161173
 21
-1105.56227477321
 31
0.0
  0
LINE
  5
   22B
  8
0
  6
CONTINUOUS
 62
     3
 10
1988.77132196678
 20
-1205.16227625736
 30
0.0
 11
1957.84510161173
 21
-1205.16227625736
 31
0.0
  0
LINE
  5
   22C
  8
0
  6
CONTINUOUS
 62
     3
 10
1959.84510161173
 20
-1105.56227477321
 30
0.0
 11
1959.84510161173
 21
-1205.16227625736
 31
0.0
  0
LINE
  5
   22D
  8
0
  6
CONTINUOUS
 62
     3
 10
1960.36604604168
 20
-1108.51669805042
 30
0.0
 11
1959.84510161173
 21
-1105.56227477321
 31
0.0
  0
LINE
  5
   22E
  8
0
  6
CONTINUOUS
 62
     3
 10
1959.84510161173
 20
-1105.56227477321
 30
0.0
 11
1959.32415718178
 21
-1108.51669805042
 31
0.0
  0
LINE
  5
   22F
  8
0
  6
CONTINUOUS
 62
     3
 10
1959.32415718178
 20
-1202.20785298016
 30
0.0
 11
1959.84510161173
 21
-1205.16227625736
 31
0.0
  0
LINE
  5
   230
  8
0
  6
CONTINUOUS
 62
     3
 10
1959.84510161173
 20
-1205.16227625736
 30
0.0
 11
1960.36604604168
 21
-1202.20785298016
 31
0.0
  0
ENDBLK
  5
   231
  8
0
  6
CONTINUOUS
 62
     3
  0
BLOCK
  5
   232
  8
0
  6
CONTINUOUS
 62
     3
  2
*UDIM195
 70
    65
 10
0.0
 20
0.0
 30
0.0
  3
*UDIM195
  0
TEXT
  5
   233
  8
0
  6
CONTINUOUS
 62
     3
 10
2019.27135762445
 20
-1100.2903853763
 30
0.0
 40
2.99999994933605
  1
39
 50
359.999999844103
 41
0.933333333333333
 72
     1
 11
2021.7713575863
 21
-1098.79038540842
 31
0.0
 73
     2
  0
LINE
  5
   234
  8
0
  6
CONTINUOUS
 62
     3
 10
2013.97136761014
 20
-1104.56227477321
 30
0.0
 11
2013.97136761015
 21
-1099.29038538309
 31
0.0
  0
LINE
  5
   235
  8
0
  6
CONTINUOUS
 62
     3
 10
2029.57134816208
 20
-1104.9622748402
 30
0.0
 11
2029.57134723585
 21
-1099.29038538309
 31
0.0
  0
LINE
  5
   236
  8
0
  6
CONTINUOUS
 62
     3
 10
2013.97136761014
 20
-1101.29038538309
 30
0.0
 11
2029.57134756246
 21
-1101.29038538309
 31
0.0
  0
LINE
  5
   237
  8
0
  6
CONTINUOUS
 62
     3
 10
2016.86914508336
 20
-1100.51392822667
 30
0.0
 11
2013.97136761014
 21
-1101.29038538309
 31
0.0
  0
LINE
  5
   238
  8
0
  6
CONTINUOUS
 62
     3
 10
2013.97136761014
 20
-1101.29038538309
 30
0.0
 11
2016.86914508336
 21
-1102.06684253951
 31
0.0
  0
LINE
  5
   239
  8
0
  6
CONTINUOUS
 62
     3
 10
2026.67357008925
 20
-1102.06684253951
 30
0.0
 11
2029.57134756246
 21
-1101.29038538309
 31
0.0
  0
LINE
  5
   23A
  8
0
  6
CONTINUOUS
 62
     3
 10
2029.57134756246
 20
-1101.29038538309
 30
0.0
 11
2026.67357008925
 21
-1100.51392822667
 31
0.0
  0
ENDBLK
  5
   23B
  8
0
  6
CONTINUOUS
 62
     3
  0
BLOCK
  5
   23C
  8
0
  6
CONTINUOUS
 62
     3
  2
*UDIM196
 70
    65
 10
0.0
 20
0.0
 30
0.0
  3
*UDIM196
  0
TEXT
  5
   23D
  8
0
  6
CONTINUOUS
 62
     3
 10
2043.8671879387
 20
-1137.66223504007
 30
0.0
 40
2.99999994933605
  1
45
 50
449.999999844103
 41
0.933333333333333
 72
     1
 11
2042.36718797082
 21
-1135.16223507822
 31
0.0
 73
     2
  0
TEXT
  5
   23E
  8
0
  6
CONTINUOUS
 62
     3
 10
2047.86718787663
 20
-1141.86223496914
 30
0.0
 40
2.99999994933605
  1
=   =
 50
449.999999844103
 41
0.933333333333333
 72
     1
 11
2046.36718792015
 21
-1135.16223507822
 31
0.0
 73
     2
  0
LINE
  5
   23F
  8
0
  6
CONTINUOUS
 62
     3
 10
2029.57134524312
 20
-1126.16223494411
 30
0.0
 11
2046.86718794548
 21
-1126.16223494411
 31
0.0
  0
LINE
  5
   240
  8
0
  6
CONTINUOUS
 62
     3
 10
2029.57134249654
 20
-1144.16223521232
 30
0.0
 11
2046.86718794548
 21
-1144.16223521232
 31
0.0
  0
LINE
  5
   241
  8
0
  6
CONTINUOUS
 62
     3
 10
2044.86718794548
 20
-1126.16223494411
 30
0.0
 11
2044.86718794548
 21
-1144.16223521232
 31
0.0
  0
LINE
  5
   242
  8
0
  6
CONTINUOUS
 62
     3
 10
2045.38813237544
 20
-1129.11665822132
 30
0.0
 11
2044.86718794548
 21
-1126.16223494411
 31
0.0
  0
LINE
  5
   243
  8
0
  6
CONTINUOUS
 62
     3
 10
2044.86718794548
 20
-1126.16223494411
 30
0.0
 11
2044.34624351553
 21
-1129.11665822132
 31
0.0
  0
LINE
  5
   244
  8
0
  6
CONTINUOUS
 62
     3
 10
2044.34624351553
 20
-1141.20781193512
 30
0.0
 11
2044.86718794548
 21
-1144.16223521232
 31
0.0
  0
LINE
  5
   245
  8
0
  6
CONTINUOUS
 62
     3
 10
2044.86718794548
 20
-1144.16223521232
 30
0.0
 11
2045.38813237544
 21
-1141.20781193512
 31
0.0
  0
ENDBLK
  5
   246
  8
0
  6
CONTINUOUS
 62
     3
  0
BLOCK
  5
   247
  8
0
  6
CONTINUOUS
 62
     3
  2
*UDIM197
 70
    65
 10
0.0
 20
0.0
 30
0.0
  3
*UDIM197
  0
TEXT
  5
   248
  8
0
  6
CONTINUOUS
 62
     3
 10
2043.8671879387
 20
-1162.93721734047
 30
0.0
 40
2.99999994933605
  1
80
 50
449.999999844103
 41
0.933333333333333
 72
     1
 11
2042.36718797082
 21
-1160.43721737862
 31
0.0
 73
     2
  0
LINE
  5
   249
  8
0
  6
CONTINUOUS
 62
     3
 10
2029.57134249654
 20
-1144.16223521232
 30
0.0
 11
2046.86718794548
 21
-1144.16223521232
 31
0.0
  0
LINE
  5
   24A
  8
0
  6
CONTINUOUS
 62
     3
 10
2029.45130602021
 20
-1176.16220078469
 30
0.0
 11
2046.86718794548
 21
-1176.16220078469
 31
0.0
  0
LINE
  5
   24B
  8
0
  6
CONTINUOUS
 62
     3
 10
2044.86718794548
 20
-1144.16223521232
 30
0.0
 11
2044.86718794548
 21
-1176.16220078469
 31
0.0
  0
LINE
  5
   24C
  8
0
  6
CONTINUOUS
 62
     3
 10
2045.38813237544
 20
-1147.11665848953
 30
0.0
 11
2044.86718794548
 21
-1144.16223521232
 31
0.0
  0
LINE
  5
   24D
  8
0
  6
CONTINUOUS
 62
     3
 10
2044.86718794548
 20
-1144.16223521232
 30
0.0
 11
2044.34624351553
 21
-1147.11665848953
 31
0.0
  0
LINE
  5
   24E
  8
0
  6
CONTINUOUS
 62
     3
 10
2044.34624351553
 20
-1173.20777750748
 30
0.0
 11
2044.86718794548
 21
-1176.16220078469
 31
0.0
  0
LINE
  5
   24F
  8
0
  6
CONTINUOUS
 62
     3
 10
2044.86718794548
 20
-1176.16220078469
 30
0.0
 11
2045.38813237544
 21
-1173.20777750748
 31
0.0
  0
ENDBLK
  5
   250
  8
0
  6
CONTINUOUS
 62
     3
  0
BLOCK
  5
   251
  8
0
  6
CONTINUOUS
 62
     3
  2
*UDIM198
 70
    65
 10
0.0
 20
0.0
 30
0.0
  3
*UDIM198
  0
TEXT
  5
   252
  8
0
  6
CONTINUOUS
 62
     3
 10
2043.8671879387
 20
-1187.66220088065
 30
0.0
 40
2.99999994933605
  1
45
 50
449.999999844103
 41
0.933333333333333
 72
     1
 11
2042.36718797082
 21
-1185.16220091879
 31
0.0
 73
     2
  0
TEXT
  5
   253
  8
0
  6
CONTINUOUS
 62
     3
 10
2047.86718787663
 20
-1191.86220080972
 30
0.0
 40
2.99999994933605
  1
=   =
 50
449.999999844103
 41
0.933333333333333
 72
     1
 11
2046.36718792015
 21
-1185.16220091879
 31
0.0
 73
     2
  0
LINE
  5
   254
  8
0
  6
CONTINUOUS
 62
     3
 10
2029.45130602021
 20
-1176.16220078469
 30
0.0
 11
2046.86718794548
 21
-1176.16220078469
 31
0.0
  0
LINE
  5
   255
  8
0
  6
CONTINUOUS
 62
     3
 10
2029.17138407345
 20
-1194.1622010529
 30
0.0
 11
2046.86718794548
 21
-1194.1622010529
 31
0.0
  0
LINE
  5
   256
  8
0
  6
CONTINUOUS
 62
     3
 10
2044.86718794548
 20
-1176.16220078469
 30
0.0
 11
2044.86718794548
 21
-1194.1622010529
 31
0.0
  0
LINE
  5
   257
  8
0
  6
CONTINUOUS
 62
     3
 10
2045.38813237544
 20
-1179.11662406189
 30
0.0
 11
2044.86718794548
 21
-1176.16220078469
 31
0.0
  0
LINE
  5
   258
  8
0
  6
CONTINUOUS
 62
     3
 10
2044.86718794548
 20
-1176.16220078469
 30
0.0
 11
2044.34624351553
 21
-1179.11662406189
 31
0.0
  0
LINE
  5
   259
  8
0
  6
CONTINUOUS
 62
     3
 10
2044.34624351553
 20
-1191.2077777757
 30
0.0
 11
2044.86718794548
 21
-1194.1622010529
 31
0.0
  0
LINE
  5
   25A
  8
0
  6
CONTINUOUS
 62
     3
 10
2044.86718794548
 20
-1194.1622010529
 30
0.0
 11
2045.38813237544
 21
-1191.2077777757
 31
0.0
  0
ENDBLK
  5
   25B
  8
0
  6
CONTINUOUS
 62
     3
  0
BLOCK
  5
   25C
  8
0
  6
CONTINUOUS
 62
     3
  2
*UDIM199
 70
    65
 10
0.0
 20
0.0
 30
0.0
  3
*UDIM199
  0
TEXT
  5
   25D
  8
0
  6
CONTINUOUS
 62
     3
 10
2035.63191197182
 20
-1276.55087905288
 30
0.0
 40
2.99999994933605
  1
38
 50
449.999999844103
 41
0.933333333333333
 72
     1
 11
2034.13191200394
 21
-1274.05087909102
 31
0.0
 73
     2
  0
LINE
  5
   25E
  8
0
  6
CONTINUOUS
 62
     3
 10
2032.63191197861
 20
-1266.45087897778
 30
0.0
 11
2038.63191197861
 21
-1266.45087897778
 31
0.0
  0
LINE
  5
   25F
  8
0
  6
CONTINUOUS
 62
     3
 10
2018.74658210576
 20
-1281.65087920427
 30
0.0
 11
2038.63191197861
 21
-1281.65087920427
 31
0.0
  0
LINE
  5
   260
  8
0
  6
CONTINUOUS
 62
     3
 10
2036.63191197861
 20
-1266.45087897778
 30
0.0
 11
2036.63191197861
 21
-1281.65087920427
 31
0.0
  0
LINE
  5
   261
  8
0
  6
CONTINUOUS
 62
     3
 10
2037.40836913503
 20
-1269.34865645099
 30
0.0
 11
2036.63191197861
 21
-1266.45087897778
 31
0.0
  0
LINE
  5
   262
  8
0
  6
CONTINUOUS
 62
     3
 10
2036.63191197861
 20
-1266.45087897778
 30
0.0
 11
2035.85545482219
 21
-1269.34865645099
 31
0.0
  0
LINE
  5
   263
  8
0
  6
CONTINUOUS
 62
     3
 10
2035.85545482219
 20
-1278.75310173106
 30
0.0
 11
2036.63191197861
 21
-1281.65087920427
 31
0.0
  0
LINE
  5
   264
  8
0
  6
CONTINUOUS
 62
     3
 10
2036.63191197861
 20
-1281.65087920427
 30
0.0
 11
2037.40836913503
 21
-1278.75310173106
 31
0.0
  0
ENDBLK
  5
   265
  8
0
  6
CONTINUOUS
 62
     3
  0
BLOCK
  5
   266
  8
0
  6
CONTINUOUS
 62
     7
  2
*UDIM200
 70
    65
 10
0.0
 20
0.0
 30
0.0
  3
*UDIM200
  0
TEXT
  5
   267
  8
0
  6
CONTINUOUS
 62
     7
 10
2005.54376212676
 20
-1228.53321648712
 30
0.0
 40
2.99999994933605
  1
25
 50
359.999999844103
 41
0.933333333333333
 72
     1
 11
2008.04376208861
 21
-1227.03321651924
 31
0.0
 73
     2
  0
LINE
  5
   268
  8
0
  6
CONTINUOUS
 62
     3
 10
2002.74658230131
 20
-1233.05087849498
 30
0.0
 11
2002.74658461363
 21
-1227.53321649391
 31
0.0
  0
LINE
  5
   269
  8
0
  6
CONTINUOUS
 62
     3
 10
2012.74658245033
 20
-1233.05087849498
 30
0.0
 11
2012.74658476264
 21
-1227.53321649391
 31
0.0
  0
LINE
  5
   26A
  8
0
  6
CONTINUOUS
 62
     3
 10
2002.74658377548
 20
-1229.53321649391
 30
0.0
 11
2012.74658392449
 21
-1229.53321649391
 31
0.0
  0
LINE
  5
   26B
  8
0
  6
CONTINUOUS
 62
     3
 10
1999.79216049827
 20
-1230.05416092386
 30
0.0
 11
2002.74658377548
 21
-1229.53321649391
 31
0.0
  0
LINE
  5
   26C
  8
0
  6
CONTINUOUS
 62
     3
 10
2002.74658377548
 20
-1229.53321649391
 30
0.0
 11
1999.79216049827
 21
-1229.01227206396
 31
0.0
  0
LINE
  5
   26D
  8
0
  6
CONTINUOUS
 62
     3
 10
2015.7010072017
 20
-1229.01227206396
 30
0.0
 11
2012.74658392449
 21
-1229.53321649391
 31
0.0
  0
LINE
  5
   26E
  8
0
  6
CONTINUOUS
 62
     3
 10
2012.74658392449
 20
-1229.53321649391
 30
0.0
 11
2015.7010072017
 21
-1230.05416092386
 31
0.0
  0
ENDBLK
  5
   26F
  8
0
  6
CONTINUOUS
 62
     7
  0
BLOCK
  5
   270
  8
0
  6
CONTINUOUS
 62
     7
  2
*UDIM201
 70
    65
 10
0.0
 20
0.0
 30
0.0
  3
*UDIM201
  0
TEXT
  5
   271
  8
0
  6
CONTINUOUS
 62
     7
 10
2016.15390364249
 20
-1228.53321648712
 30
0.0
 40
2.99999994933605
  1
25
 50
359.999999844103
 41
0.933333333333333
 72
     1
 11
2018.65390360435
 21
-1227.03321651924
 31
0.0
 73
     2
  0
LINE
  5
   272
  8
0
  6
CONTINUOUS
 62
     3
 10
2022.74658259934
 20
-1233.05087849498
 30
0.0
 11
2022.74658491165
 21
-1227.53321649391
 31
0.0
  0
LINE
  5
   273
  8
0
  6
CONTINUOUS
 62
     3
 10
2012.74658392449
 20
-1229.53321649391
 30
0.0
 11
2022.7465840735
 21
-1229.53321649391
 31
0.0
  0
LINE
  5
   274
  8
0
  6
CONTINUOUS
 62
     3
 10
2015.7010072017
 20
-1229.01227206396
 30
0.0
 11
2012.74658392449
 21
-1229.53321649391
 31
0.0
  0
LINE
  5
   275
  8
0
  6
CONTINUOUS
 62
     3
 10
2012.74658392449
 20
-1229.53321649391
 30
0.0
 11
2015.7010072017
 21
-1230.05416092386
 31
0.0
  0
LINE
  5
   276
  8
0
  6
CONTINUOUS
 62
     3
 10
2019.79216079629
 20
-1230.05416092386
 30
0.0
 11
2022.7465840735
 21
-1229.53321649391
 31
0.0
  0
LINE
  5
   277
  8
0
  6
CONTINUOUS
 62
     3
 10
2022.7465840735
 20
-1229.53321649391
 30
0.0
 11
2019.79216079629
 21
-1229.01227206396
 31
0.0
  0
ENDBLK
  5
   278
  8
0
  6
CONTINUOUS
 62
     7
  0
BLOCK
  5
   279
  8
0
  6
CONTINUOUS
 62
     3
  2
*UDIM202
 70
    65
 10
0.0
 20
0.0
 30
0.0
  3
*UDIM202
  0
TEXT
  5
   27A
  8
0
  6
CONTINUOUS
 62
     3
 10
1995.73084389508
 20
-1228.53321648712
 30
0.0
 40
2.99999994933605
  1
25
 50
359.999999844103
 41
0.933333333333333
 72
     1
 11
1998.23084385693
 21
-1227.03321651924
 31
0.0
 73
     2
  0
LINE
  5
   27B
  8
0
  6
CONTINUOUS
 62
     3
 10
1992.74658173323
 20
-1233.65087848902
 30
0.0
 11
1992.74658173323
 21
-1227.53321649391
 31
0.0
  0
LINE
  5
   27C
  8
0
  6
CONTINUOUS
 62
     3
 10
2002.74658188224
 20
-1234.05087849498
 30
0.0
 11
2002.74658188224
 21
-1227.53321649391
 31
0.0
  0
LINE
  5
   27D
  8
0
  6
CONTINUOUS
 62
     3
 10
1992.74658173323
 20
-1229.53321649391
 30
0.0
 11
2002.74658188224
 21
-1229.53321649391
 31
0.0
  0
LINE
  5
   27E
  8
0
  6
CONTINUOUS
 62
     3
 10
1995.70100501043
 20
-1229.01227206396
 30
0.0
 11
1992.74658173323
 21
-1229.53321649391
 31
0.0
  0
LINE
  5
   27F
  8
0
  6
CONTINUOUS
 62
     3
 10
1992.74658173323
 20
-1229.53321649391
 30
0.0
 11
1995.70100501043
 21
-1230.05416092386
 31
0.0
  0
LINE
  5
   280
  8
0
  6
CONTINUOUS
 62
     3
 10
1999.79215860503
 20
-1230.05416092386
 30
0.0
 11
2002.74658188224
 21
-1229.53321649391
 31
0.0
  0
LINE
  5
   281
  8
0
  6
CONTINUOUS
 62
     3
 10
2002.74658188224
 20
-1229.53321649391
 30
0.0
 11
1999.79215860503
 21
-1229.01227206396
 31
0.0
  0
ENDBLK
  5
   282
  8
0
  6
CONTINUOUS
 62
     3
  0
BLOCK
  5
   283
  8
0
  6
CONTINUOUS
 62
     3
  2
*UDIM203
 70
    65
 10
0.0
 20
0.0
 30
0.0
  3
*UDIM203
  0
TEXT
  5
   284
  8
0
  6
CONTINUOUS
 62
     3
 10
2049.37905268766
 20
-1265.82587891002
 30
0.0
 40
2.99999994933605
  1
100
 50
449.999999844103
 41
0.933333333333333
 72
     1
 11
2047.87905272358
 21
-1261.92587897182
 31
0.0
 73
     2
  0
LINE
  5
   285
  8
0
  6
CONTINUOUS
 62
     3
 10
2012.54658202827
 20
-1241.65087860823
 30
0.0
 11
2052.37905269825
 21
-1241.65087860823
 31
0.0
  0
LINE
  5
   286
  8
0
  6
CONTINUOUS
 62
     3
 10
2022.54658217728
 20
-1281.65087920427
 30
0.0
 11
2052.37905269825
 21
-1281.65087920427
 31
0.0
  0
LINE
  5
   287
  8
0
  6
CONTINUOUS
 62
     3
 10
2050.37905269825
 20
-1241.65087860823
 30
0.0
 11
2050.37905269825
 21
-1281.65087920427
 31
0.0
  0
LINE
  5
   288
  8
0
  6
CONTINUOUS
 62
     3
 10
2050.8999971282
 20
-1244.60530188543
 30
0.0
 11
2050.37905269825
 21
-1241.65087860823
 31
0.0
  0
LINE
  5
   289
  8
0
  6
CONTINUOUS
 62
     3
 10
2050.37905269825
 20
-1241.65087860823
 30
0.0
 11
2049.8581082683
 21
-1244.60530188543
 31
0.0
  0
LINE
  5
   28A
  8
0
  6
CONTINUOUS
 62
     3
 10
2049.8581082683
 20
-1278.69645592707
 30
0.0
 11
2050.37905269825
 21
-1281.65087920427
 31
0.0
  0
LINE
  5
   28B
  8
0
  6
CONTINUOUS
 62
     3
 10
2050.37905269825
 20
-1281.65087920427
 30
0.0
 11
2050.8999971282
 21
-1278.69645592707
 31
0.0
  0
ENDBLK
  5
   28C
  8
0
  6
CONTINUOUS
 62
     3
  0
BLOCK
  5
   28D
  8
0
  6
CONTINUOUS
 62
     3
  2
*UDIM204
 70
    65
 10
0.0
 20
0.0
 30
0.0
  3
*UDIM204
  0
TEXT
  5
   28E
  8
0
  6
CONTINUOUS
 62
     3
 10
2049.37905268766
 20
-1315.82587965508
 30
0.0
 40
2.99999994933605
  1
100
 50
449.999999844103
 41
0.933333333333333
 72
     1
 11
2047.87905272358
 21
-1311.92587971687
 31
0.0
 73
     2
  0
LINE
  5
   28F
  8
0
  6
CONTINUOUS
 62
     3
 10
2017.54658210278
 20
-1291.65087935329
 30
0.0
 11
2052.37905269825
 21
-1291.65087935329
 31
0.0
  0
LINE
  5
   290
  8
0
  6
CONTINUOUS
 62
     3
 10
2022.54658217728
 20
-1331.65087994933
 30
0.0
 11
2052.37905269825
 21
-1331.65087994933
 31
0.0
  0
LINE
  5
   291
  8
0
  6
CONTINUOUS
 62
     3
 10
2050.37905269825
 20
-1291.65087935329
 30
0.0
 11
2050.37905269825
 21
-1331.65087994933
 31
0.0
  0
LINE
  5
   292
  8
0
  6
CONTINUOUS
 62
     3
 10
2050.8999971282
 20
-1294.60530263049
 30
0.0
 11
2050.37905269825
 21
-1291.65087935329
 31
0.0
  0
LINE
  5
   293
  8
0
  6
CONTINUOUS
 62
     3
 10
2050.37905269825
 20
-1291.65087935329
 30
0.0
 11
2049.8581082683
 21
-1294.60530263049
 31
0.0
  0
LINE
  5
   294
  8
0
  6
CONTINUOUS
 62
     3
 10
2049.8581082683
 20
-1328.69645667212
 30
0.0
 11
2050.37905269825
 21
-1331.65087994933
 31
0.0
  0
LINE
  5
   295
  8
0
  6
CONTINUOUS
 62
     3
 10
2050.37905269825
 20
-1331.65087994933
 30
0.0
 11
2050.8999971282
 21
-1328.69645667212
 31
0.0
  0
ENDBLK
  5
   296
  8
0
  6
CONTINUOUS
 62
     3
  0
BLOCK
  5
   297
  8
0
  6
CONTINUOUS
 62
     3
  2
*UDIM205
 70
    65
 10
0.0
 20
0.0
 30
0.0
  3
*UDIM205
  0
TEXT
  5
   298
  8
0
  6
CONTINUOUS
 62
     3
 10
1968.73447200853
 20
-1328.26378015339
 30
0.0
 40
2.99999994933605
  1
39
 50
449.999999844103
 41
0.933333333333333
 72
     1
 11
1967.23447204065
 21
-1325.76378019154
 31
0.0
 73
     2
  0
LINE
  5
   299
  8
0
  6
CONTINUOUS
 62
     3
 10
1983.38343496546
 20
-1316.45087972283
 30
0.0
 11
1967.73447201532
 21
-1316.45087972283
 31
0.0
  0
LINE
  5
   29A
  8
0
  6
CONTINUOUS
 62
     3
 10
1985.14658161998
 20
-1332.05087995529
 30
0.0
 11
1967.73447201532
 21
-1332.05087995529
 31
0.0
  0
LINE
  5
   29B
  8
0
  6
CONTINUOUS
 62
     3
 10
1969.73447201532
 20
-1316.45087972283
 30
0.0
 11
1969.73447201532
 21
-1332.05087995529
 31
0.0
  0
LINE
  5
   29C
  8
0
  6
CONTINUOUS
 62
     3
 10
1970.25541644527
 20
-1319.40530300004
 30
0.0
 11
1969.73447201532
 21
-1316.45087972283
 31
0.0
  0
LINE
  5
   29D
  8
0
  6
CONTINUOUS
 62
     3
 10
1969.73447201532
 20
-1316.45087972283
 30
0.0
 11
1969.21352758537
 21
-1319.40530300004
 31
0.0
  0
LINE
  5
   29E
  8
0
  6
CONTINUOUS
 62
     3
 10
1969.21352758537
 20
-1329.09645667809
 30
0.0
 11
1969.73447201532
 21
-1332.05087995529
 31
0.0
  0
LINE
  5
   29F
  8
0
  6
CONTINUOUS
 62
     3
 10
1969.73447201532
 20
-1332.05087995529
 30
0.0
 11
1970.25541644527
 21
-1329.09645667809
 31
0.0
  0
ENDBLK
  5
   2A0
  8
0
  6
CONTINUOUS
 62
     3
  0
BLOCK
  5
   2A1
  8
0
  6
CONTINUOUS
 62
     3
  2
*UDIM206
 70
    65
 10
0.0
 20
0.0
 30
0.0
  3
*UDIM206
  0
TEXT
  5
   2A2
  8
0
  6
CONTINUOUS
 62
     3
 10
2036.95596658701
 20
-1227.40599857085
 30
0.0
 40
2.99999994933605
  1
18
 50
401.366350268003
 41
0.933333333333333
 72
     1
 11
2037.84090807336
 21
-1224.62807159581
 31
0.0
 73
     2
  0
TEXT
  5
   2A3
  8
0
  6
CONTINUOUS
 62
     3
 10
2034.89209346199
 20
-1229.22339439593
 30
0.0
 40
2.99999994933605
  1
Ø
 50
401.366350268003
 41
0.933333333333333
 72
     1
 11
2034.72633590719
 21
-1227.37068710223
 31
0.0
 73
     2
  0
LINE
  5
   2A4
  8
0
  6
CONTINUOUS
 62
     3
 10
2041.36933437528
 20
-1224.8521418843
 30
0.0
 11
2020.04478456644
 21
-1243.63001500865
 31
0.0
  0
LINE
  5
   2A5
  8
0
  6
CONTINUOUS
 62
     3
 10
2027.32139529439
 20
-1236.52828045401
 30
0.0
 11
2025.44837979408
 21
-1238.87174219588
 31
0.0
  0
LINE
  5
   2A6
  8
0
  6
CONTINUOUS
 62
     3
 10
2025.44837979408
 20
-1238.87174219588
 30
0.0
 11
2028.00994965024
 21
-1237.31021734112
 31
0.0
  0
LINE
  5
   2A7
  8
0
  6
CONTINUOUS
 62
     3
 10
2018.17176906614
 20
-1245.97347675053
 30
0.0
 11
2020.04478456644
 21
-1243.63001500865
 31
0.0
  0
LINE
  5
   2A8
  8
0
  6
CONTINUOUS
 62
     3
 10
2020.04478456644
 20
-1243.63001500865
 30
0.0
 11
2017.48321471029
 21
-1245.19153986341
 31
0.0
  0
ENDBLK
  5
   2A9
  8
0
  6
CONTINUOUS
 62
     3
  0
BLOCK
  5
   2AA
  8
0
  6
CONTINUOUS
 62
     3
  2
*UDIM207
 70
    65
 10
0.0
 20
0.0
 30
0.0
  3
*UDIM207
  0
TEXT
  5
   2AB
  8
0
  6
CONTINUOUS
 62
     3
 10
1978.67485911955
 20
-1256.82587879062
 30
0.0
 40
2.99999994933605
  1
62
 50
449.999999844103
 41
0.933333333333333
 72
     1
 11
1977.17485915167
 21
-1254.32587882876
 31
0.0
 73
     2
  0
LINE
  5
   2AC
  8
0
  6
CONTINUOUS
 62
     3
 10
2002.94658188522
 20
-1241.65087860823
 30
0.0
 11
1977.67485912633
 21
-1241.65087860823
 31
0.0
  0
LINE
  5
   2AD
  8
0
  6
CONTINUOUS
 62
     3
 10
1993.11981002722
 20
-1266.45087897778
 30
0.0
 11
1977.67485912633
 21
-1266.45087897778
 31
0.0
  0
LINE
  5
   2AE
  8
0
  6
CONTINUOUS
 62
     3
 10
1979.67485912633
 20
-1241.65087860823
 30
0.0
 11
1979.67485912633
 21
-1266.45087897778
 31
0.0
  0
LINE
  5
   2AF
  8
0
  6
CONTINUOUS
 62
     3
 10
1980.19580355629
 20
-1244.60530188543
 30
0.0
 11
1979.67485912633
 21
-1241.65087860823
 31
0.0
  0
LINE
  5
   2B0
  8
0
  6
CONTINUOUS
 62
     3
 10
1979.67485912633
 20
-1241.65087860823
 30
0.0
 11
1979.15391469638
 21
-1244.60530188543
 31
0.0
  0
LINE
  5
   2B1
  8
0
  6
CONTINUOUS
 62
     3
 10
1979.15391469638
 20
-1263.49645570057
 30
0.0
 11
1979.67485912633
 21
-1266.45087897778
 31
0.0
  0
LINE
  5
   2B2
  8
0
  6
CONTINUOUS
 62
     3
 10
1979.67485912633
 20
-1266.45087897778
 30
0.0
 11
1980.19580355629
 21
-1263.49645570057
 31
0.0
  0
ENDBLK
  5
   2B3
  8
0
  6
CONTINUOUS
 62
     3
  0
BLOCK
  5
   2B4
  8
0
  6
CONTINUOUS
 62
     3
  2
*UDIM208
 70
    65
 10
0.0
 20
0.0
 30
0.0
  3
*UDIM208
  0
TEXT
  5
   2B5
  8
0
  6
CONTINUOUS
 62
     3
 10
1968.73447200853
 20
-1256.62587878764
 30
0.0
 40
2.99999994933605
  1
63
 50
449.999999844103
 41
0.933333333333333
 72
     1
 11
1967.23447204065
 21
-1254.12587882578
 31
0.0
 73
     2
  0
LINE
  5
   2B6
  8
0
  6
CONTINUOUS
 62
     3
 10
1995.54658177495
 20
-1241.25087860227
 30
0.0
 11
1967.73447201532
 21
-1241.25087860227
 31
0.0
  0
LINE
  5
   2B7
  8
0
  6
CONTINUOUS
 62
     3
 10
1993.11981002722
 20
-1266.45087897778
 30
0.0
 11
1967.73447201532
 21
-1266.45087897778
 31
0.0
  0
LINE
  5
   2B8
  8
0
  6
CONTINUOUS
 62
     3
 10
1969.73447201532
 20
-1241.25087860227
 30
0.0
 11
1969.73447201532
 21
-1266.45087897778
 31
0.0
  0
LINE
  5
   2B9
  8
0
  6
CONTINUOUS
 62
     3
 10
1970.25541644527
 20
-1244.20530187947
 30
0.0
 11
1969.73447201532
 21
-1241.25087860227
 31
0.0
  0
LINE
  5
   2BA
  8
0
  6
CONTINUOUS
 62
     3
 10
1969.73447201532
 20
-1241.25087860227
 30
0.0
 11
1969.21352758537
 21
-1244.20530187947
 31
0.0
  0
LINE
  5
   2BB
  8
0
  6
CONTINUOUS
 62
     3
 10
1969.21352758537
 20
-1263.49645570057
 30
0.0
 11
1969.73447201532
 21
-1266.45087897778
 31
0.0
  0
LINE
  5
   2BC
  8
0
  6
CONTINUOUS
 62
     3
 10
1969.73447201532
 20
-1266.45087897778
 30
0.0
 11
1970.25541644527
 21
-1263.49645570057
 31
0.0
  0
ENDBLK
  5
   2BD
  8
0
  6
CONTINUOUS
 62
     3
  0
BLOCK
  5
   2BE
  8
0
  6
CONTINUOUS
 62
     3
  2
*UDIM209
 70
    65
 10
0.0
 20
0.0
 30
0.0
  3
*UDIM209
  0
TEXT
  5
   2BF
  8
0
  6
CONTINUOUS
 62
     3
 10
1958.1906363984
 20
-1290.82587928255
 30
0.0
 40
2.99999994933605
  1
227
 50
449.999999844103
 41
0.933333333333333
 72
     1
 11
1956.69063643432
 21
-1286.92587934434
 31
0.0
 73
     2
  0
LINE
  5
   2C0
  8
0
  6
CONTINUOUS
 62
     3
 10
1985.14658161998
 20
-1241.25087860227
 30
0.0
 11
1957.19063640899
 21
-1241.25087860227
 31
0.0
  0
LINE
  5
   2C1
  8
0
  6
CONTINUOUS
 62
     3
 10
1985.14658161998
 20
-1332.05087995529
 30
0.0
 11
1957.19063640899
 21
-1332.05087995529
 31
0.0
  0
LINE
  5
   2C2
  8
0
  6
CONTINUOUS
 62
     3
 10
1959.19063640899
 20
-1241.25087860227
 30
0.0
 11
1959.19063640899
 21
-1332.05087995529
 31
0.0
  0
LINE
  5
   2C3
  8
0
  6
CONTINUOUS
 62
     3
 10
1959.71158083894
 20
-1244.20530187947
 30
0.0
 11
1959.19063640899
 21
-1241.25087860227
 31
0.0
  0
LINE
  5
   2C4
  8
0
  6
CONTINUOUS
 62
     3
 10
1959.19063640899
 20
-1241.25087860227
 30
0.0
 11
1958.66969197903
 21
-1244.20530187947
 31
0.0
  0
LINE
  5
   2C5
  8
0
  6
CONTINUOUS
 62
     3
 10
1958.66969197903
 20
-1329.09645667809
 30
0.0
 11
1959.19063640899
 21
-1332.05087995529
 31
0.0
  0
LINE
  5
   2C6
  8
0
  6
CONTINUOUS
 62
     3
 10
1959.19063640899
 20
-1332.05087995529
 30
0.0
 11
1959.71158083894
 21
-1329.09645667809
 31
0.0
  0
ENDBLK
  5
   2C7
  8
0
  6
CONTINUOUS
 62
     3
  0
BLOCK
  5
   2C8
  8
0
  6
CONTINUOUS
 62
     3
  2
*UDIM210
 70
    65
 10
0.0
 20
0.0
 30
0.0
  3
*UDIM210
  0
TEXT
  5
   2C9
  8
0
  6
CONTINUOUS
 62
     3
 10
2010.20924663524
 20
-1298.06525018452
 30
0.0
 40
2.99999994933605
  1
25
 50
359.999999844103
 41
0.933333333333333
 72
     1
 11
2012.70924659709
 21
-1296.56525021664
 31
0.0
 73
     2
  0
TEXT
  5
   2CA
  8
0
  6
CONTINUOUS
 62
     3
 10
2008.80924665888
 20
-1302.06525013005
 30
0.0
 40
2.99999994933605
  1
= =
 50
359.999999844103
 41
0.933333333333333
 72
     1
 11
2012.70924659709
 21
-1300.56525016597
 31
0.0
 73
     2
  0
LINE
  5
   2CB
  8
0
  6
CONTINUOUS
 62
     3
 10
2007.74658195674
 20
-1246.45087867975
 30
0.0
 11
2007.74656481239
 21
-1301.06525019131
 31
0.0
  0
LINE
  5
   2CC
  8
0
  6
CONTINUOUS
 62
     3
 10
2017.74658210576
 20
-1286.4508792758
 30
0.0
 11
2017.74657751806
 21
-1301.06525019131
 31
0.0
  0
LINE
  5
   2CD
  8
0
  6
CONTINUOUS
 62
     3
 10
2007.74656544023
 20
-1299.06525019131
 30
0.0
 11
2017.7465781459
 21
-1299.06525019131
 31
0.0
  0
LINE
  5
   2CE
  8
0
  6
CONTINUOUS
 62
     3
 10
2004.79214216302
 20
-1299.58619462126
 30
0.0
 11
2007.74656544023
 21
-1299.06525019131
 31
0.0
  0
LINE
  5
   2CF
  8
0
  6
CONTINUOUS
 62
     3
 10
2007.74656544023
 20
-1299.06525019131
 30
0.0
 11
2004.79214216302
 21
-1298.54430576136
 31
0.0
  0
LINE
  5
   2D0
  8
0
  6
CONTINUOUS
 62
     3
 10
2020.7010014231
 20
-1298.54430576136
 30
0.0
 11
2017.7465781459
 21
-1299.06525019131
 31
0.0
  0
LINE
  5
   2D1
  8
0
  6
CONTINUOUS
 62
     3
 10
2017.7465781459
 20
-1299.06525019131
 30
0.0
 11
2020.7010014231
 21
-1299.58619462126
 31
0.0
  0
ENDBLK
  5
   2D2
  8
0
  6
CONTINUOUS
 62
     3
  0
BLOCK
  5
   2D3
  8
0
  6
CONTINUOUS
 62
     3
  2
*UDIM211
 70
    65
 10
0.0
 20
0.0
 30
0.0
  3
*UDIM211
  0
TEXT
  5
   2D4
  8
0
  6
CONTINUOUS
 62
     3
 10
1978.67485911955
 20
-1326.8258798337
 30
0.0
 40
2.99999994933605
  1
38
 50
449.999999844103
 41
0.933333333333333
 72
     1
 11
1977.17485915167
 21
-1324.32587987185
 31
0.0
 73
     2
  0
LINE
  5
   2D5
  8
0
  6
CONTINUOUS
 62
     3
 10
1983.38343496546
 20
-1316.45087972283
 30
0.0
 11
1977.67485912633
 21
-1316.45087972283
 31
0.0
  0
LINE
  5
   2D6
  8
0
  6
CONTINUOUS
 62
     3
 10
2012.94658203423
 20
-1331.65087994933
 30
0.0
 11
1977.67485912633
 21
-1331.65087994933
 31
0.0
  0
LINE
  5
   2D7
  8
0
  6
CONTINUOUS
 62
     3
 10
1979.67485912633
 20
-1316.45087972283
 30
0.0
 11
1979.67485912633
 21
-1331.65087994933
 31
0.0
  0
LINE
  5
   2D8
  8
0
  6
CONTINUOUS
 62
     3
 10
1980.19580355629
 20
-1319.40530300004
 30
0.0
 11
1979.67485912633
 21
-1316.45087972283
 31
0.0
  0
LINE
  5
   2D9
  8
0
  6
CONTINUOUS
 62
     3
 10
1979.67485912633
 20
-1316.45087972283
 30
0.0
 11
1979.15391469638
 21
-1319.40530300004
 31
0.0
  0
LINE
  5
   2DA
  8
0
  6
CONTINUOUS
 62
     3
 10
1979.15391469638
 20
-1328.69645667212
 30
0.0
 11
1979.67485912633
 21
-1331.65087994933
 31
0.0
  0
LINE
  5
   2DB
  8
0
  6
CONTINUOUS
 62
     3
 10
1979.67485912633
 20
-1331.65087994933
 30
0.0
 11
1980.19580355629
 21
-1328.69645667212
 31
0.0
  0
ENDBLK
  5
   2DC
  8
0
  6
CONTINUOUS
 62
     3
  0
BLOCK
  5
   2DD
  8
0
  6
CONTINUOUS
 62
     7
  2
*UDIM212
 70
    65
 10
0.0
 20
0.0
 30
0.0
  3
*UDIM212
  0
TEXT
  5
   2DE
  8
0
  6
CONTINUOUS
 62
     7
 10
1994.53654095229
 20
-1287.88460618854
 30
0.0
 40
2.99999994933605
  1
4.5
 50
348.261555955293
 41
0.933333333333333
 72
     1
 11
1998.66014475578
 21
-1287.20940911944
 31
0.0
 73
     2
  0
TEXT
  5
   2DF
  8
0
  6
CONTINUOUS
 62
     7
 10
1990.62019489848
 20
-1287.07082908053
 30
0.0
 40
2.99999994933605
  1
Ø
 50
348.261555955293
 41
1.2
 72
     1
 11
1992.39399108173
 21
-1285.90736573847
 31
0.0
 73
     2
  0
TEXT
  5
   2E0
  8
0
  6
CONTINUOUS
 62
     7
 10
1979.2627913798
 20
-1284.71087544521
 30
0.0
 40
2.99999994933605
  1
M4 o
 50
348.261555955293
 41
0.933333333333333
 72
     1
 11
1984.7571162951
 21
-1284.32050036867
 31
0.0
 73
     2
  0
LINE
  5
   2E1
  8
0
  6
CONTINUOUS
 62
     7
 10
2007.84449059617
 20
-1291.67122377867
 30
0.0
 11
1979.05934709969
 21
-1285.68996198565
 31
0.0
  0
LINE
  5
   2E2
  8
0
  6
CONTINUOUS
 62
     3
 10
2003.87026342462
 20
-1291.63846198195
 30
0.0
 11
2006.86540407064
 21
-1291.4677794975
 31
0.0
  0
LINE
  5
   2E3
  8
0
  6
CONTINUOUS
 62
     3
 10
2006.86540407064
 20
-1291.4677794975
 30
0.0
 11
2004.18619496072
 21
-1290.11802450296
 31
0.0
  0
ENDBLK
  5
   2E4
  8
0
  6
CONTINUOUS
 62
     7
  0
BLOCK
  5
   2E5
  8
0
  6
CONTINUOUS
 62
     3
  2
*UDIM213
 70
    65
 10
0.0
 20
0.0
 30
0.0
  3
*UDIM213
  0
TEXT
  5
   2E6
  8
0
  6
CONTINUOUS
 62
     3
 10
2110.25236643474
 20
-1242.81660709437
 30
0.0
 40
2.99999994933605
  1
42
 50
359.999999896069
 41
0.933333333333333
 72
     1
 11
2112.75236639523
 21
-1241.31660712422
 31
0.0
 73
     2
  0
LINE
  5
   2E7
  8
0
  6
CONTINUOUS
 62
     3
 10
2121.42736637735
 20
-1258.1349851191
 30
0.0
 11
2121.42736637735
 21
-1241.81660709889
 31
0.0
  0
LINE
  5
   2E8
  8
0
  6
CONTINUOUS
 62
     3
 10
2104.62736612701
 20
-1262.33498518169
 30
0.0
 11
2104.62736612701
 21
-1241.81660709889
 31
0.0
  0
LINE
  5
   2E9
  8
0
  6
CONTINUOUS
 62
     3
 10
2121.42736637735
 20
-1243.81660709889
 30
0.0
 11
2104.62736612701
 21
-1243.81660709889
 31
0.0
  0
LINE
  5
   2EA
  8
0
  6
CONTINUOUS
 62
     3
 10
2118.47294310015
 20
-1244.33755152884
 30
0.0
 11
2121.42736637735
 21
-1243.81660709889
 31
0.0
  0
LINE
  5
   2EB
  8
0
  6
CONTINUOUS
 62
     3
 10
2121.42736637735
 20
-1243.81660709889
 30
0.0
 11
2118.47294310015
 21
-1243.29566266894
 31
0.0
  0
LINE
  5
   2EC
  8
0
  6
CONTINUOUS
 62
     3
 10
2107.58178940422
 20
-1243.29566266894
 30
0.0
 11
2104.62736612701
 21
-1243.81660709889
 31
0.0
  0
LINE
  5
   2ED
  8
0
  6
CONTINUOUS
 62
     3
 10
2104.62736612701
 20
-1243.81660709889
 30
0.0
 11
2107.58178940422
 21
-1244.33755152884
 31
0.0
  0
ENDBLK
  5
   2EE
  8
0
  6
CONTINUOUS
 62
     3
  0
BLOCK
  5
   2EF
  8
0
  6
CONTINUOUS
 62
     3
  2
*UDIM214
 70
    65
 10
0.0
 20
0.0
 30
0.0
  3
*UDIM214
  0
TEXT
  5
   2F0
  8
0
  6
CONTINUOUS
 62
     3
 10
2103.65236824374
 20
-1312.56044105693
 30
0.0
 40
2.99999994933605
  1
75
 50
359.999999896069
 41
0.933333333333333
 72
     1
 11
2106.15236820424
 21
-1311.06044108678
 31
0.0
 73
     2
  0
LINE
  5
   2F1
  8
0
  6
CONTINUOUS
 62
     3
 10
2121.42736637735
 20
-1299.33498573303
 30
0.0
 11
2121.42736637735
 21
-1315.56044106145
 31
0.0
  0
LINE
  5
   2F2
  8
0
  6
CONTINUOUS
 62
     3
 10
2091.42736593032
 20
-1295.13498567045
 30
0.0
 11
2091.42736593032
 21
-1315.56044106145
 31
0.0
  0
LINE
  5
   2F3
  8
0
  6
CONTINUOUS
 62
     3
 10
2121.42736637735
 20
-1313.56044106145
 30
0.0
 11
2091.42736593032
 21
-1313.56044106145
 31
0.0
  0
LINE
  5
   2F4
  8
0
  6
CONTINUOUS
 62
     3
 10
2118.47294310015
 20
-1314.0813854914
 30
0.0
 11
2121.42736637735
 21
-1313.56044106145
 31
0.0
  0
LINE
  5
   2F5
  8
0
  6
CONTINUOUS
 62
     3
 10
2121.42736637735
 20
-1313.56044106145
 30
0.0
 11
2118.47294310015
 21
-1313.0394966315
 31
0.0
  0
LINE
  5
   2F6
  8
0
  6
CONTINUOUS
 62
     3
 10
2094.38178920753
 20
-1313.0394966315
 30
0.0
 11
2091.42736593032
 21
-1313.56044106145
 31
0.0
  0
LINE
  5
   2F7
  8
0
  6
CONTINUOUS
 62
     3
 10
2091.42736593032
 20
-1313.56044106145
 30
0.0
 11
2094.38178920753
 21
-1314.0813854914
 31
0.0
  0
ENDBLK
  5
   2F8
  8
0
  6
CONTINUOUS
 62
     3
  0
BLOCK
  5
   2F9
  8
0
  6
CONTINUOUS
 62
     3
  2
*UDIM215
 70
    65
 10
0.0
 20
0.0
 30
0.0
  3
*UDIM215
  0
TEXT
  5
   2FA
  8
0
  6
CONTINUOUS
 62
     3
 10
2106.52736623209
 20
-1306.989602921
 30
0.0
 40
2.99999994933605
  1
62
 50
359.999999896069
 41
0.933333333333333
 72
     1
 11
2109.02736619258
 21
-1305.48960295086
 31
0.0
 73
     2
  0
LINE
  5
   2FB
  8
0
  6
CONTINUOUS
 62
     3
 10
2121.42736637735
 20
-1300.33498573303
 30
0.0
 11
2121.42736637735
 21
-1309.98960292552
 31
0.0
  0
LINE
  5
   2FC
  8
0
  6
CONTINUOUS
 62
     3
 10
2096.6273660078
 20
-1298.33498570323
 30
0.0
 11
2096.6273660078
 21
-1309.98960292552
 31
0.0
  0
LINE
  5
   2FD
  8
0
  6
CONTINUOUS
 62
     3
 10
2121.42736637735
 20
-1307.98960292552
 30
0.0
 11
2096.6273660078
 21
-1307.98960292552
 31
0.0
  0
LINE
  5
   2FE
  8
0
  6
CONTINUOUS
 62
     3
 10
2118.52958890414
 20
-1308.76606008194
 30
0.0
 11
2121.42736637735
 21
-1307.98960292552
 31
0.0
  0
LINE
  5
   2FF
  8
0
  6
CONTINUOUS
 62
     3
 10
2121.42736637735
 20
-1307.98960292552
 30
0.0
 11
2118.52958890414
 21
-1307.21314576911
 31
0.0
  0
LINE
  5
   300
  8
0
  6
CONTINUOUS
 62
     3
 10
2099.52514348101
 20
-1307.21314576911
 30
0.0
 11
2096.6273660078
 21
-1307.98960292552
 31
0.0
  0
LINE
  5
   301
  8
0
  6
CONTINUOUS
 62
     3
 10
2096.6273660078
 20
-1307.98960292552
 30
0.0
 11
2099.52514348101
 21
-1308.76606008194
 31
0.0
  0
ENDBLK
  5
   302
  8
0
  6
CONTINUOUS
 62
     3
  0
BLOCK
  5
   303
  8
0
  6
CONTINUOUS
 62
     3
  2
*UDIM216
 70
    65
 10
0.0
 20
0.0
 30
0.0
  3
*UDIM216
  0
TEXT
  5
   304
  8
0
  6
CONTINUOUS
 62
     3
 10
2113.12736633043
 20
-1248.11973904985
 30
0.0
 40
2.99999994933605
  1
29
 50
359.999999896069
 41
0.933333333333333
 72
     1
 11
2115.62736629093
 21
-1246.6197390797
 31
0.0
 73
     2
  0
LINE
  5
   305
  8
0
  6
CONTINUOUS
 62
     3
 10
2121.42736637735
 20
-1257.1349851191
 30
0.0
 11
2121.42736637735
 21
-1247.11973905437
 31
0.0
  0
LINE
  5
   306
  8
0
  6
CONTINUOUS
 62
     3
 10
2109.8273662045
 20
-1259.13498514891
 30
0.0
 11
2109.8273662045
 21
-1247.11973905437
 31
0.0
  0
LINE
  5
   307
  8
0
  6
CONTINUOUS
 62
     3
 10
2126.42736637735
 20
-1249.11973905437
 30
0.0
 11
2104.8273662045
 21
-1249.11973905437
 31
0.0
  0
LINE
  5
   308
  8
0
  6
CONTINUOUS
 62
     3
 10
2124.32514385056
 20
-1248.34328189795
 30
0.0
 11
2121.42736637735
 21
-1249.11973905437
 31
0.0
  0
LINE
  5
   309
  8
0
  6
CONTINUOUS
 62
     3
 10
2121.42736637735
 20
-1249.11973905437
 30
0.0
 11
2124.32514385056
 21
-1249.89619621079
 31
0.0
  0
LINE
  5
   30A
  8
0
  6
CONTINUOUS
 62
     3
 10
2106.92958873129
 20
-1249.89619621079
 30
0.0
 11
2109.8273662045
 21
-1249.11973905437
 31
0.0
  0
LINE
  5
   30B
  8
0
  6
CONTINUOUS
 62
     3
 10
2109.8273662045
 20
-1249.11973905437
 30
0.0
 11
2106.92958873129
 21
-1248.34328189795
 31
0.0
  0
ENDBLK
  5
   30C
  8
0
  6
CONTINUOUS
 62
     3
  0
BLOCK
  5
   30D
  8
0
  6
CONTINUOUS
 62
     7
  2
*UDIM217
 70
    65
 10
0.0
 20
0.0
 30
0.0
  3
*UDIM217
  0
TEXT
  5
   30E
  8
0
  6
CONTINUOUS
 62
     7
 10
2078.33611371585
 20
-1271.23498523755
 30
0.0
 40
2.99999994933605
  1
25
 50
449.999999896069
 41
0.933333333333333
 72
     1
 11
2076.8361137457
 21
-1268.73498527706
 31
0.0
 73
     2
  0
LINE
  5
   30F
  8
0
  6
CONTINUOUS
 62
     3
 10
2093.41309471126
 20
-1263.73498520255
 30
0.0
 11
2077.33611372037
 21
-1263.73498520255
 31
0.0
  0
LINE
  5
   310
  8
0
  6
CONTINUOUS
 62
     3
 10
2087.85675693932
 20
-1273.73498535156
 30
0.0
 11
2077.33611372037
 21
-1273.73498535156
 31
0.0
  0
LINE
  5
   311
  8
0
  6
CONTINUOUS
 62
     3
 10
2079.33611372037
 20
-1263.73498520255
 30
0.0
 11
2079.33611372037
 21
-1273.73498535156
 31
0.0
  0
LINE
  5
   312
  8
0
  6
CONTINUOUS
 62
     3
 10
2079.85705815032
 20
-1266.68940847976
 30
0.0
 11
2079.33611372037
 21
-1263.73498520255
 31
0.0
  0
LINE
  5
   313
  8
0
  6
CONTINUOUS
 62
     3
 10
2079.33611372037
 20
-1263.73498520255
 30
0.0
 11
2078.81516929042
 21
-1266.68940847976
 31
0.0
  0
LINE
  5
   314
  8
0
  6
CONTINUOUS
 62
     3
 10
2078.81516929042
 20
-1270.78056207436
 30
0.0
 11
2079.33611372037
 21
-1273.73498535156
 31
0.0
  0
LINE
  5
   315
  8
0
  6
CONTINUOUS
 62
     3
 10
2079.33611372037
 20
-1273.73498535156
 30
0.0
 11
2079.85705815032
 21
-1270.78056207436
 31
0.0
  0
ENDBLK
  5
   316
  8
0
  6
CONTINUOUS
 62
     7
  0
BLOCK
  5
   317
  8
0
  6
CONTINUOUS
 62
     7
  2
*UDIM218
 70
    65
 10
0.0
 20
0.0
 30
0.0
  3
*UDIM218
  0
TEXT
  5
   318
  8
0
  6
CONTINUOUS
 62
     7
 10
2078.33611371585
 20
-1281.23498538656
 30
0.0
 40
2.99999994933605
  1
25
 50
449.999999896069
 41
0.933333333333333
 72
     1
 11
2076.8361137457
 21
-1278.73498542607
 31
0.0
 73
     2
  0
LINE
  5
   319
  8
0
  6
CONTINUOUS
 62
     3
 10
2092.25260750113
 20
-1283.73498550057
 30
0.0
 11
2077.33611372037
 21
-1283.73498550057
 31
0.0
  0
LINE
  5
   31A
  8
0
  6
CONTINUOUS
 62
     3
 10
2079.33611372037
 20
-1273.73498535156
 30
0.0
 11
2079.33611372037
 21
-1283.73498550057
 31
0.0
  0
LINE
  5
   31B
  8
0
  6
CONTINUOUS
 62
     3
 10
2078.81516929042
 20
-1270.78056207436
 30
0.0
 11
2079.33611372037
 21
-1273.73498535156
 31
0.0
  0
LINE
  5
   31C
  8
0
  6
CONTINUOUS
 62
     3
 10
2079.33611372037
 20
-1273.73498535156
 30
0.0
 11
2079.85705815032
 21
-1270.78056207436
 31
0.0
  0
LINE
  5
   31D
  8
0
  6
CONTINUOUS
 62
     3
 10
2079.85705815032
 20
-1286.68940877778
 30
0.0
 11
2079.33611372037
 21
-1283.73498550057
 31
0.0
  0
LINE
  5
   31E
  8
0
  6
CONTINUOUS
 62
     3
 10
2079.33611372037
 20
-1283.73498550057
 30
0.0
 11
2078.81516929042
 21
-1286.68940877778
 31
0.0
  0
ENDBLK
  5
   31F
  8
0
  6
CONTINUOUS
 62
     7
  0
BLOCK
  5
   320
  8
0
  6
CONTINUOUS
 62
     3
  2
*UDIM219
 70
    65
 10
0.0
 20
0.0
 30
0.0
  3
*UDIM219
  0
TEXT
  5
   321
  8
0
  6
CONTINUOUS
 62
     3
 10
2078.33611371585
 20
-1291.23498553557
 30
0.0
 40
2.99999994933605
  1
25
 50
449.999999896069
 41
0.933333333333333
 72
     1
 11
2076.8361137457
 21
-1288.73498557508
 31
0.0
 73
     2
  0
LINE
  5
   322
  8
0
  6
CONTINUOUS
 62
     3
 10
2093.25260750113
 20
-1283.73498550057
 30
0.0
 11
2077.33611372037
 21
-1283.73498550057
 31
0.0
  0
LINE
  5
   323
  8
0
  6
CONTINUOUS
 62
     3
 10
2088.85675693932
 20
-1293.73498564959
 30
0.0
 11
2077.33611372037
 21
-1293.73498564959
 31
0.0
  0
LINE
  5
   324
  8
0
  6
CONTINUOUS
 62
     3
 10
2079.33611372037
 20
-1283.73498550057
 30
0.0
 11
2079.33611372037
 21
-1293.73498564959
 31
0.0
  0
LINE
  5
   325
  8
0
  6
CONTINUOUS
 62
     3
 10
2079.85705815032
 20
-1286.68940877778
 30
0.0
 11
2079.33611372037
 21
-1283.73498550057
 31
0.0
  0
LINE
  5
   326
  8
0
  6
CONTINUOUS
 62
     3
 10
2079.33611372037
 20
-1283.73498550057
 30
0.0
 11
2078.81516929042
 21
-1286.68940877778
 31
0.0
  0
LINE
  5
   327
  8
0
  6
CONTINUOUS
 62
     3
 10
2078.81516929042
 20
-1290.78056237238
 30
0.0
 11
2079.33611372037
 21
-1293.73498564959
 31
0.0
  0
LINE
  5
   328
  8
0
  6
CONTINUOUS
 62
     3
 10
2079.33611372037
 20
-1293.73498564959
 30
0.0
 11
2079.85705815032
 21
-1290.78056237238
 31
0.0
  0
ENDBLK
  5
   329
  8
0
  6
CONTINUOUS
 62
     3
  0
BLOCK
  5
   32A
  8
0
  6
CONTINUOUS
 62
     3
  2
*UDIM220
 70
    65
 10
0.0
 20
0.0
 30
0.0
  3
*UDIM220
  0
TEXT
  5
   32B
  8
0
  6
CONTINUOUS
 62
     3
 10
2102.21608286669
 20
-1282.65998694592
 30
0.0
 40
2.99999994933605
  1
11
 50
449.999999896069
 41
0.933333333333333
 72
     1
 11
2100.71608289654
 21
-1280.15998698543
 31
0.0
 73
     2
  0
TEXT
  5
   32C
  8
0
  6
CONTINUOUS
 62
     3
 10
2102.21608286922
 20
-1285.40998692068
 30
0.0
 40
2.99999994933605
  1
Ø
 50
449.999999896069
 41
0.933333333333333
 72
     1
 11
2100.71608289654
 21
-1284.30998693655
 31
0.0
 73
     2
  0
LINE
  5
   32D
  8
0
  6
CONTINUOUS
 62
     3
 10
2103.21608287121
 20
-1271.53498531878
 30
0.0
 11
2103.21608287121
 21
-1285.40998691797
 31
0.0
  0
LINE
  5
   32E
  8
0
  6
CONTINUOUS
 62
     3
 10
2102.69513844125
 20
-1268.58056204157
 30
0.0
 11
2103.21608287121
 21
-1271.53498531878
 31
0.0
  0
LINE
  5
   32F
  8
0
  6
CONTINUOUS
 62
     3
 10
2103.21608287121
 20
-1271.53498531878
 30
0.0
 11
2103.73702730116
 21
-1268.58056204157
 31
0.0
  0
LINE
  5
   330
  8
0
  6
CONTINUOUS
 62
     3
 10
2103.73702730116
 20
-1278.88940866155
 30
0.0
 11
2103.21608287121
 21
-1275.93498538435
 31
0.0
  0
LINE
  5
   331
  8
0
  6
CONTINUOUS
 62
     3
 10
2103.21608287121
 20
-1275.93498538435
 30
0.0
 11
2102.69513844125
 21
-1278.88940866155
 31
0.0
  0
ENDBLK
  5
   332
  8
0
  6
CONTINUOUS
 62
     3
  0
BLOCK
  5
   333
  8
0
  6
CONTINUOUS
 62
     7
  2
*UDIM221
 70
    65
 10
0.0
 20
0.0
 30
0.0
  3
*UDIM221
  0
TEXT
  5
   334
  8
0
  6
CONTINUOUS
 62
     7
 10
2086.22736594025
 20
-1265.88114412629
 30
0.0
 40
2.99999994933605
  1
8
 50
449.999999896069
 41
0.933333333333333
 72
     1
 11
2084.72736596757
 21
-1264.78114414215
 31
0.0
 73
     2
  0
TEXT
  5
   335
  8
0
  6
CONTINUOUS
 62
     7
 10
2086.22736594025
 20
-1269.08114408913
 30
0.0
 40
2.99999994933605
  1
M
 50
449.999999896069
 41
0.933333333333333
 72
     1
 11
2084.72736596757
 21
-1267.981144105
 31
0.0
 73
     2
  0
LINE
  5
   336
  8
0
  6
CONTINUOUS
 62
     7
 10
2090.6273659333
 20
-1272.13498532772
 30
0.0
 11
2085.22736594224
 21
-1272.13498532772
 31
0.0
  0
LINE
  5
   337
  8
0
  6
CONTINUOUS
 62
     7
 10
2090.6273659333
 20
-1275.3349853754
 30
0.0
 11
2085.22736594224
 21
-1275.3349853754
 31
0.0
  0
LINE
  5
   338
  8
0
  6
CONTINUOUS
 62
     7
 10
2087.22736594224
 20
-1263.68114416073
 30
0.0
 11
2087.22736594224
 21
-1280.3349853754
 31
0.0
  0
LINE
  5
   339
  8
0
  6
CONTINUOUS
 62
     3
 10
2086.45090878582
 20
-1269.23720785451
 30
0.0
 11
2087.22736594224
 21
-1272.13498532772
 31
0.0
  0
LINE
  5
   33A
  8
0
  6
CONTINUOUS
 62
     3
 10
2087.22736594224
 20
-1272.13498532772
 30
0.0
 11
2088.00382309866
 21
-1269.23720785451
 31
0.0
  0
LINE
  5
   33B
  8
0
  6
CONTINUOUS
 62
     3
 10
2088.00382309866
 20
-1278.23276284862
 30
0.0
 11
2087.22736594224
 21
-1275.3349853754
 31
0.0
  0
LINE
  5
   33C
  8
0
  6
CONTINUOUS
 62
     3
 10
2087.22736594224
 20
-1275.3349853754
 30
0.0
 11
2086.45090878582
 21
-1278.23276284862
 31
0.0
  0
ENDBLK
  5
   33D
  8
0
  6
CONTINUOUS
 62
     7
  0
BLOCK
  5
   33E
  8
0
  6
CONTINUOUS
 62
     3
  2
*HATCH40
 70
    65
 10
0.0
 20
0.0
 30
0.0
  3
*HATCH40
  0
ENDBLK
  5
   33F
  8
0
  6
CONTINUOUS
 62
     3
  0
BLOCK
  5
   340
  8
0
  6
CONTINUOUS
 62
     3
  2
*HATCH41
 70
    65
 10
0.0
 20
0.0
 30
0.0
  3
*HATCH41
  0
ENDBLK
  5
   341
  8
0
  6
CONTINUOUS
 62
     3
  0
BLOCK
  5
   342
  8
0
  6
CONTINUOUS
 62
     3
  2
*HATCH42
 70
    65
 10
0.0
 20
0.0
 30
0.0
  3
*HATCH42
  0
ENDBLK
  5
   343
  8
0
  6
CONTINUOUS
 62
     3
  0
BLOCK
  5
   344
  8
0
  6
CONTINUOUS
 62
     3
  2
*HATCH43
 70
    65
 10
0.0
 20
0.0
 30
0.0
  3
*HATCH43
  0
ENDBLK
  5
   345
  8
0
  6
CONTINUOUS
 62
     3
  0
BLOCK
  5
   346
  8
0
  6
CONTINUOUS
 62
     7
  2
*HATCH44
 70
    65
 10
0.0
 20
0.0
 30
0.0
  3
*HATCH44
  0
LINE
  5
   347
  8
0
  6
CONTINUOUS
 62
    52
 10
-51.7261390686035
 20
9.79215240478516
 30
0.0
 11
-54.5000152587891
 21
7.01827669143677
 31
0.0
  0
LINE
  5
   348
  8
0
  6
CONTINUOUS
 62
    52
 10
-47.4835014343262
 20
9.79215240478516
 30
0.0
 11
-50.4835014343262
 21
6.79215240478516
 31
0.0
  0
LINE
  5
   349
  8
0
  6
CONTINUOUS
 62
    52
 10
-43.2408638000488
 20
9.79215240478516
 30
0.0
 11
-46.2408638000488
 21
6.79215240478516
 31
0.0
  0
LINE
  5
   34A
  8
0
  6
CONTINUOUS
 62
    52
 10
-38.9982261657715
 20
9.79215240478516
 30
0.0
 11
-41.9982261657715
 21
6.79215240478516
 31
0.0
  0
LINE
  5
   34B
  8
0
  6
CONTINUOUS
 62
    52
 10
-34.7555885314941
 20
9.79215240478516
 30
0.0
 11
-37.7555885314941
 21
6.79215240478516
 31
0.0
  0
LINE
  5
   34C
  8
0
  6
CONTINUOUS
 62
    52
 10
-30.5129489898682
 20
9.79215240478516
 30
0.0
 11
-33.5129508972168
 21
6.79215240478516
 31
0.0
  0
LINE
  5
   34D
  8
0
  6
CONTINUOUS
 62
    52
 10
-30.0000152587891
 20
6.06243133544922
 30
0.0
 11
-30.7702941894531
 21
5.29215240478516
 31
0.0
  0
ENDBLK
  5
   34E
  8
0
  6
CONTINUOUS
 62
     7
  0
BLOCK
  5
   34F
  8
0
  6
CONTINUOUS
 62
     7
  2
*HATCH45
 70
    65
 10
0.0
 20
0.0
 30
0.0
  3
*HATCH45
  0
LINE
  5
   350
  8
0
  6
CONTINUOUS
 62
    52
 10
20.3987560272217
 20
9.79215240478516
 30
0.0
 11
16.9999847412109
 21
6.39338254928589
 31
0.0
  0
LINE
  5
   351
  8
0
  6
CONTINUOUS
 62
    52
 10
18.4999847412109
 20
5.77206182479858
 30
0.0
 11
18.0200748443604
 21
5.29215240478516
 31
0.0
  0
LINE
  5
   352
  8
0
  6
CONTINUOUS
 62
    52
 10
26.762716293335
 20
9.79215240478516
 30
0.0
 11
23.762716293335
 21
6.79215240478516
 31
0.0
  0
LINE
  5
   353
  8
0
  6
CONTINUOUS
 62
    52
 10
31.0053577423096
 20
9.79215240478516
 30
0.0
 11
28.0053577423096
 21
6.79215240478516
 31
0.0
  0
LINE
  5
   354
  8
0
  6
CONTINUOUS
 62
    52
 10
35.2479972839356
 20
9.79215240478516
 30
0.0
 11
32.2479972839355
 21
6.79215240478516
 31
0.0
  0
LINE
  5
   355
  8
0
  6
CONTINUOUS
 62
    52
 10
39.4906349182129
 20
9.79215240478516
 30
0.0
 11
36.4906349182129
 21
6.79215240478516
 31
0.0
  0
LINE
  5
   356
  8
0
  6
CONTINUOUS
 62
    52
 10
41.4999847412109
 20
7.55885744094849
 30
0.0
 11
40.7332763671875
 21
6.79215240478516
 31
0.0
  0
ENDBLK
  5
   357
  8
0
  6
CONTINUOUS
 62
     7
  0
BLOCK
  5
   358
  8
0
  6
CONTINUOUS
 62
     7
  2
*HATCH46
 70
    65
 10
0.0
 20
0.0
 30
0.0
  3
*HATCH46
  0
LINE
  5
   359
  8
0
  6
CONTINUOUS
 62
    52
 10
73.4315872192383
 20
9.79197025299072
 30
0.0
 11
70.5
 21
6.86038446426392
 31
0.0
  0
LINE
  5
   35A
  8
0
  6
CONTINUOUS
 62
    52
 10
77.6742248535156
 20
9.79197025299072
 30
0.0
 11
74.6742248535156
 21
6.79196977615356
 31
0.0
  0
LINE
  5
   35B
  8
0
  6
CONTINUOUS
 62
    52
 10
81.9168701171875
 20
9.79197025299072
 30
0.0
 11
78.9168701171875
 21
6.79196977615356
 31
0.0
  0
LINE
  5
   35C
  8
0
  6
CONTINUOUS
 62
    52
 10
86.1595153808594
 20
9.79197025299072
 30
0.0
 11
83.1595153808594
 21
6.79196977615356
 31
0.0
  0
LINE
  5
   35D
  8
0
  6
CONTINUOUS
 62
    52
 10
90.4021606445312
 20
9.79197025299072
 30
0.0
 11
87.4021606445313
 21
6.79196977615356
 31
0.0
  0
LINE
  5
   35E
  8
0
  6
CONTINUOUS
 62
    52
 10
94.6448059082031
 20
9.79197025299072
 30
0.0
 11
91.6448059082031
 21
6.79196977615356
 31
0.0
  0
LINE
  5
   35F
  8
0
  6
CONTINUOUS
 62
    52
 10
95.0
 20
5.90454006195068
 30
0.0
 11
94.3874282836914
 21
5.29196977615356
 31
0.0
  0
ENDBLK
  5
   360
  8
0
  6
CONTINUOUS
 62
     7
  0
BLOCK
  5
   361
  8
0
  6
CONTINUOUS
 62
     7
  2
*HATCH47
 70
    65
 10
0.0
 20
0.0
 30
0.0
  3
*HATCH47
  0
LINE
  5
   362
  8
0
  6
CONTINUOUS
 62
    52
 10
145.55647277832
 20
9.79197025299072
 30
0.0
 11
142.0
 21
6.23549032211304
 31
0.0
  0
LINE
  5
   363
  8
0
  6
CONTINUOUS
 62
    52
 10
143.5
 20
5.61417007446289
 30
0.0
 11
143.177795410156
 21
5.29196977615356
 31
0.0
  0
LINE
  5
   364
  8
0
  6
CONTINUOUS
 62
    52
 10
151.920440673828
 20
9.79197025299072
 30
0.0
 11
148.920440673828
 21
6.79196977615356
 31
0.0
  0
LINE
  5
   365
  8
0
  6
CONTINUOUS
 62
    52
 10
156.1630859375
 20
9.79197025299072
 30
0.0
 11
153.1630859375
 21
6.79196977615356
 31
0.0
  0
LINE
  5
   366
  8
0
  6
CONTINUOUS
 62
    52
 10
160.405731201172
 20
9.79197025299072
 30
0.0
 11
157.405731201172
 21
6.79196977615356
 31
0.0
  0
LINE
  5
   367
  8
0
  6
CONTINUOUS
 62
    52
 10
164.648376464844
 20
9.79197025299072
 30
0.0
 11
161.648376464844
 21
6.79196977615356
 31
0.0
  0
LINE
  5
   368
  8
0
  6
CONTINUOUS
 62
    52
 10
166.5
 20
7.40096616744995
 30
0.0
 11
165.891006469727
 21
6.79196977615356
 31
0.0
  0
ENDBLK
  5
   369
  8
0
  6
CONTINUOUS
 62
     7
  0
BLOCK
  5
   36A
  8
0
  6
CONTINUOUS
 62
     7
  2
*HATCH48
 70
    65
 10
0.0
 20
0.0
 30
0.0
  3
*HATCH48
  0
LINE
  5
   36B
  8
0
  6
CONTINUOUS
 62
     7
 10
-98.0099411010742
 20
-43.7041435241699
 30
0.0
 11
-99.8741683959961
 21
-45.5683708190918
 31
0.0
  0
LINE
  5
   36C
  8
0
  6
CONTINUOUS
 62
     7
 10
-97.1262359619141
 20
-43.6689643859863
 30
0.0
 11
-99.9093551635742
 21
-46.4520835876465
 31
0.0
  0
LINE
  5
   36D
  8
0
  6
CONTINUOUS
 62
     7
 10
-96.447868347168
 20
-43.8391265869141
 30
0.0
 11
-99.7391891479492
 21
-47.1304473876953
 31
0.0
  0
LINE
  5
   36E
  8
0
  6
CONTINUOUS
 62
     7
 10
-95.9392166137695
 20
-44.1790008544922
 30
0.0
 11
-99.3993148803711
 21
-47.6390991210938
 31
0.0
  0
LINE
  5
   36F
  8
0
  6
CONTINUOUS
 62
     7
 10
-95.5239105224609
 20
-44.6122207641602
 30
0.0
 11
-98.9660949707031
 21
-48.0544090270996
 31
0.0
  0
LINE
  5
   370
  8
0
  6
CONTINUOUS
 62
     7
 10
-95.1840362548828
 20
-45.1208724975586
 30
0.0
 11
-98.4574432373047
 21
-48.3942832946777
 31
0.0
  0
LINE
  5
   371
  8
0
  6
CONTINUOUS
 62
     7
 10
-95.0350112915039
 20
-45.8203773498535
 30
0.0
 11
-97.757942199707
 21
-48.5433082580566
 31
0.0
  0
LINE
  5
   372
  8
0
  6
CONTINUOUS
 62
     7
 10
-95.1074981689453
 20
-46.741397857666
 30
0.0
 11
-96.8369140625
 21
-48.4708137512207
 31
0.0
  0
ENDBLK
  5
   373
  8
0
  6
CONTINUOUS
 62
     7
  0
BLOCK
  5
   374
  8
0
  6
CONTINUOUS
 62
     7
  2
*HATCH49
 70
    65
 10
0.0
 20
0.0
 30
0.0
  3
*HATCH49
  0
LINE
  5
   375
  8
0
  6
CONTINUOUS
 62
     7
 10
-131.936447143555
 20
-43.689525604248
 30
0.0
 11
-133.888793945313
 21
-45.6418724060059
 31
0.0
  0
LINE
  5
   376
  8
0
  6
CONTINUOUS
 62
     7
 10
-131.077133178711
 20
-43.6787300109863
 30
0.0
 11
-133.89958190918
 21
-46.5011940002441
 31
0.0
  0
LINE
  5
   377
  8
0
  6
CONTINUOUS
 62
     7
 10
-130.412567138672
 20
-43.8627128601074
 30
0.0
 11
-133.715606689453
 21
-47.1657409667969
 31
0.0
  0
LINE
  5
   378
  8
0
  6
CONTINUOUS
 62
     7
 10
-129.903900146484
 20
-44.2025871276855
 30
0.0
 11
-133.375732421875
 21
-47.6743927001953
 31
0.0
  0
LINE
  5
   379
  8
0
  6
CONTINUOUS
 62
     7
 10
-129.50032043457
 20
-44.647518157959
 30
0.0
 11
-132.930786132813
 21
-48.0779914855957
 31
0.0
  0
LINE
  5
   37A
  8
0
  6
CONTINUOUS
 62
     7
 10
-129.166015625
 20
-45.1617393493652
 30
0.0
 11
-132.416580200195
 21
-48.412296295166
 31
0.0
  0
LINE
  5
   37B
  8
0
  6
CONTINUOUS
 62
     7
 10
-129.025238037109
 20
-45.8694877624512
 30
0.0
 11
-131.708847045898
 21
-48.5530738830566
 31
0.0
  0
LINE
  5
   37C
  8
0
  6
CONTINUOUS
 62
     7
 10
-129.122116088867
 20
-46.8148956298828
 30
0.0
 11
-130.763412475586
 21
-48.4561958312988
 31
0.0
  0
ENDBLK
  5
   37D
  8
0
  6
CONTINUOUS
 62
     7
  0
BLOCK
  5
   37E
  8
0
  6
CONTINUOUS
 62
     3
  2
*UDIM222
 70
    65
 10
0.0
 20
0.0
 30
0.0
  3
*UDIM222
  0
TEXT
  5
   37F
  8
0
  6
CONTINUOUS
 62
     3
 10
2132.85231153483
 20
-1099.56608525437
 30
0.0
 40
2.99999994933605
  1
71
 50
359.999999844103
 41
0.933333333333333
 72
     1
 11
2135.35231149669
 21
-1098.06608528649
 31
0.0
 73
     2
  0
LINE
  5
   380
  8
0
  6
CONTINUOUS
 62
     3
 10
2121.42731207783
 20
-1105.96232862771
 30
0.0
 11
2121.42731207783
 21
-1098.56608526116
 31
0.0
  0
LINE
  5
   381
  8
0
  6
CONTINUOUS
 62
     3
 10
2149.82731021221
 20
-1102.1057870444
 30
0.0
 11
2149.82731021221
 21
-1098.56608526116
 31
0.0
  0
LINE
  5
   382
  8
0
  6
CONTINUOUS
 62
     3
 10
2121.42731207783
 20
-1100.56608526116
 30
0.0
 11
2149.82731021221
 21
-1100.56608526116
 31
0.0
  0
LINE
  5
   383
  8
0
  6
CONTINUOUS
 62
     3
 10
2124.38173535504
 20
-1100.04514083121
 30
0.0
 11
2121.42731207783
 21
-1100.56608526116
 31
0.0
  0
LINE
  5
   384
  8
0
  6
CONTINUOUS
 62
     3
 10
2121.42731207783
 20
-1100.56608526116
 30
0.0
 11
2124.38173535504
 21
-1101.08702969111
 31
0.0
  0
LINE
  5
   385
  8
0
  6
CONTINUOUS
 62
     3
 10
2146.872886935
 20
-1101.08702969111
 30
0.0
 11
2149.82731021221
 21
-1100.56608526116
 31
0.0
  0
LINE
  5
   386
  8
0
  6
CONTINUOUS
 62
     3
 10
2149.82731021221
 20
-1100.56608526116
 30
0.0
 11
2146.872886935
 21
-1100.04514083121
 31
0.0
  0
ENDBLK
  5
   387
  8
0
  6
CONTINUOUS
 62
     3
  0
BLOCK
  5
   388
  8
0
  6
CONTINUOUS
 62
     3
  2
*UDIM223
 70
    65
 10
0.0
 20
0.0
 30
0.0
  3
*UDIM223
  0
TEXT
  5
   389
  8
0
  6
CONTINUOUS
 62
     3
 10
2083.77219143437
 20
-1159.53729885002
 30
0.0
 40
2.99999994933605
  1
227
 50
449.999999844103
 41
0.933333333333333
 72
     1
 11
2082.27219147029
 21
-1155.63729891181
 31
0.0
 73
     2
  0
LINE
  5
   38A
  8
0
  6
CONTINUOUS
 62
     3
 10
2088.89770320583
 20
-1109.96231037676
 30
0.0
 11
2082.77219144496
 21
-1109.96231037676
 31
0.0
  0
LINE
  5
   38B
  8
0
  6
CONTINUOUS
 62
     3
 10
2088.94832825196
 20
-1200.76228731573
 30
0.0
 11
2082.77219144496
 21
-1200.76228731573
 31
0.0
  0
LINE
  5
   38C
  8
0
  6
CONTINUOUS
 62
     3
 10
2084.77219144496
 20
-1109.96231037676
 30
0.0
 11
2084.77219144496
 21
-1200.76228731573
 31
0.0
  0
LINE
  5
   38D
  8
0
  6
CONTINUOUS
 62
     3
 10
2085.29313587491
 20
-1112.91673365397
 30
0.0
 11
2084.77219144496
 21
-1109.96231037676
 31
0.0
  0
LINE
  5
   38E
  8
0
  6
CONTINUOUS
 62
     3
 10
2084.77219144496
 20
-1109.96231037676
 30
0.0
 11
2084.25124701501
 21
-1112.91673365397
 31
0.0
  0
LINE
  5
   38F
  8
0
  6
CONTINUOUS
 62
     3
 10
2084.25124701501
 20
-1197.80786403852
 30
0.0
 11
2084.77219144496
 21
-1200.76228731573
 31
0.0
  0
LINE
  5
   390
  8
0
  6
CONTINUOUS
 62
     3
 10
2084.77219144496
 20
-1200.76228731573
 30
0.0
 11
2085.29313587491
 21
-1197.80786403852
 31
0.0
  0
ENDBLK
  5
   391
  8
0
  6
CONTINUOUS
 62
     3
  0
BLOCK
  5
   392
  8
0
  6
CONTINUOUS
 62
     7
  2
*UDIM224
 70
    65
 10
0.0
 20
0.0
 30
0.0
  3
*UDIM224
  0
TEXT
  5
   393
  8
0
  6
CONTINUOUS
 62
     7
 10
2153.70637998824
 20
-1099.56608525057
 30
0.0
 40
2.99999994933605
  1
1.5
 50
359.999999844103
 41
0.933333333333333
 72
     1
 11
2157.60637992646
 21
-1098.06608528649
 31
0.0
 73
     2
  0
TEXT
  5
   394
  8
0
  6
CONTINUOUS
 62
     7
 10
2162.50637985652
 20
-1099.56608525437
 30
0.0
 40
2.99999994933605
  1
-2
 50
359.999999844103
 41
0.933333333333333
 72
     1
 11
2165.00637981837
 21
-1098.06608528649
 31
0.0
 73
     2
  0
LINE
  5
   395
  8
0
  6
CONTINUOUS
 62
     7
 10
2149.82731021221
 20
-1101.1057870444
 30
0.0
 11
2149.82731021221
 21
-1098.56608526116
 31
0.0
  0
LINE
  5
   396
  8
0
  6
CONTINUOUS
 62
     7
 10
2150.42731022115
 20
-1101.1057870444
 30
0.0
 11
2150.42731022115
 21
-1098.56608526116
 31
0.0
  0
LINE
  5
   397
  8
0
  6
CONTINUOUS
 62
     7
 10
2144.82731021221
 20
-1100.56608526116
 30
0.0
 11
2167.50637977615
 21
-1100.56608526116
 31
0.0
  0
LINE
  5
   398
  8
0
  6
CONTINUOUS
 62
     3
 10
2146.929532739
 20
-1101.34254241758
 30
0.0
 11
2149.82731021221
 21
-1100.56608526116
 31
0.0
  0
LINE
  5
   399
  8
0
  6
CONTINUOUS
 62
     3
 10
2149.82731021221
 20
-1100.56608526116
 30
0.0
 11
2146.929532739
 21
-1099.78962810474
 31
0.0
  0
LINE
  5
   39A
  8
0
  6
CONTINUOUS
 62
     3
 10
2153.32508769436
 20
-1099.78962810474
 30
0.0
 11
2150.42731022115
 21
-1100.56608526116
 31
0.0
  0
LINE
  5
   39B
  8
0
  6
CONTINUOUS
 62
     3
 10
2150.42731022115
 20
-1100.56608526116
 30
0.0
 11
2153.32508769436
 21
-1101.34254241758
 31
0.0
  0
ENDBLK
  5
   39C
  8
0
  6
CONTINUOUS
 62
     7
  0
ENDSEC
  0
SECTION
  2
ENTITIES
  0
LINE
  5
   39D
  8
0
  6
CONTINUOUS
 62
     7
 10
2275.88793982565
 20
-1124.56227030456
 30
0.0
 11
2232.68793918192
 21
-1124.56227030456
 31
0.0
  0
LINE
  5
   39E
  8
0
  6
CONTINUOUS
 62
     7
 10
2275.88793982565
 20
-1145.76227062047
 30
0.0
 11
2232.68793918192
 21
-1145.76227062047
 31
0.0
  0
LINE
  5
   39F
  8
0
  6
CONTINUOUS
 62
     7
 10
2276.48793983459
 20
-1125.1622703135
 30
0.0
 11
2276.48793983459
 21
-1145.16227061152
 31
0.0
  0
LINE
  5
   3A0
  8
0
  6
CONTINUOUS
 62
     7
 10
2232.08793917298
 20
-1125.1622703135
 30
0.0
 11
2232.08793917298
 21
-1145.16227061152
 31
0.0
  0
ARC
  5
   3A1
  8
0
  6
CONTINUOUS
 62
     7
 10
2275.88793982565
 20
-1125.1622703135
 30
0.0
 40
0.600000008940697
 50
359.999999896069
 51
449.999999896069
  0
ARC
  5
   3A2
  8
0
  6
CONTINUOUS
 62
     7
 10
2275.88793982565
 20
-1145.16227061152
 30
0.0
 40
0.600000008940697
 50
269.999999896069
 51
359.999999896069
  0
ARC
  5
   3A3
  8
0
  6
CONTINUOUS
 62
     7
 10
2232.68793918192
 20
-1145.16227061152
 30
0.0
 40
0.600000008940697
 50
179.999999896069
 51
269.999999896069
  0
ARC
  5
   3A4
  8
0
  6
CONTINUOUS
 62
     7
 10
2232.68793918192
 20
-1125.1622703135
 30
0.0
 40
0.600000008940697
 50
449.999999896069
 51
539.999999896069
  0
LINE
  5
   3A5
  8
0
  6
DASHDOT
 62
     7
 10
2286.98540635512
 20
-1135.16227046251
 30
0.0
 11
2221.69909112934
 21
-1135.16227046251
 31
0.0
  0
CIRCLE
  5
   3A6
  8
0
  6
CONTINUOUS
 62
     7
 10
2232.58793918043
 20
-1122.36227027178
 30
0.0
 40
0.800000011920929
  0
CIRCLE
  5
   3A7
  8
0
  6
CONTINUOUS
 62
     7
 10
2275.98793982714
 20
-1122.36227027178
 30
0.0
 40
0.800000011920929
  0
CIRCLE
  5
   3A8
  8
0
  6
CONTINUOUS
 62
     7
 10
2275.98793982714
 20
-1147.96227065325
 30
0.0
 40
0.800000011920929
  0
CIRCLE
  5
   3A9
  8
0
  6
CONTINUOUS
 62
     7
 10
2232.58793918043
 20
-1147.96227065325
 30
0.0
 40
0.800000011920929
  0
LINE
  5
   3AA
  8
0
  6
DASHDOT
 62
     7
 10
2237.38793925196
 20
-1122.36227027178
 30
0.0
 11
2227.78793910891
 21
-1122.36227027178
 31
0.0
  0
LINE
  5
   3AB
  8
0
  6
DASHDOT
 62
     7
 10
2232.58793918043
 20
-1143.96227059364
 30
0.0
 11
2232.58793918043
 21
-1151.96227071285
 31
0.0
  0
LINE
  5
   3AC
  8
0
  6
DASHDOT
 62
     7
 10
2236.58793924004
 20
-1147.96227065325
 30
0.0
 11
2228.58793912083
 21
-1147.96227065325
 31
0.0
  0
LINE
  5
   3AD
  8
0
  6
DASHDOT
 62
     7
 10
2275.98793982714
 20
-1143.96227059364
 30
0.0
 11
2275.98793982714
 21
-1151.96227071285
 31
0.0
  0
LINE
  5
   3AE
  8
0
  6
DASHDOT
 62
     7
 10
2279.98793988675
 20
-1147.96227065325
 30
0.0
 11
2271.98793976754
 21
-1147.96227065325
 31
0.0
  0
LINE
  5
   3AF
  8
0
  6
DASHDOT
 62
     7
 10
2275.98793982714
 20
-1117.56227020025
 30
0.0
 11
2275.98793982714
 21
-1127.1622703433
 31
0.0
  0
LINE
  5
   3B0
  8
0
  6
DASHDOT
 62
     7
 10
2280.78793989867
 20
-1122.36227027178
 30
0.0
 11
2271.18793975562
 21
-1122.36227027178
 31
0.0
  0
LINE
  5
   3B1
  8
0
  6
CONTINUOUS
 62
     7
 10
2275.88793982565
 20
-1174.56652886218
 30
0.0
 11
2232.68793918192
 21
-1174.56652886218
 31
0.0
  0
LINE
  5
   3B2
  8
0
  6
CONTINUOUS
 62
     7
 10
2275.88793982565
 20
-1195.76652917809
 30
0.0
 11
2232.68793918192
 21
-1195.76652917809
 31
0.0
  0
LINE
  5
   3B3
  8
0
  6
CONTINUOUS
 62
     7
 10
2276.48793983459
 20
-1175.16652887112
 30
0.0
 11
2276.48793983459
 21
-1195.16652916915
 31
0.0
  0
LINE
  5
   3B4
  8
0
  6
CONTINUOUS
 62
     7
 10
2232.08793917298
 20
-1175.16652887112
 30
0.0
 11
2232.08793917298
 21
-1195.16652916915
 31
0.0
  0
ARC
  5
   3B5
  8
0
  6
CONTINUOUS
 62
     7
 10
2275.88793982565
 20
-1175.16652887112
 30
0.0
 40
0.600000008940697
 50
359.999999896069
 51
449.999999896069
  0
ARC
  5
   3B6
  8
0
  6
CONTINUOUS
 62
     7
 10
2275.88793982565
 20
-1195.16652916915
 30
0.0
 40
0.600000008940697
 50
269.999999896069
 51
359.999999896069
  0
ARC
  5
   3B7
  8
0
  6
CONTINUOUS
 62
     7
 10
2232.68793918192
 20
-1195.16652916915
 30
0.0
 40
0.600000008940697
 50
179.999999896069
 51
269.999999896069
  0
ARC
  5
   3B8
  8
0
  6
CONTINUOUS
 62
     7
 10
2232.68793918192
 20
-1175.16652887112
 30
0.0
 40
0.600000008940697
 50
449.999999896069
 51
539.999999896069
  0
LINE
  5
   3B9
  8
0
  6
DASHDOT
 62
     7
 10
2286.04936892106
 20
-1185.16652902013
 30
0.0
 11
2221.69909112934
 21
-1185.16652902013
 31
0.0
  0
CIRCLE
  5
   3BA
  8
0
  6
CONTINUOUS
 62
     7
 10
2232.58793918043
 20
-1172.3665288294
 30
0.0
 40
0.800000011920929
  0
CIRCLE
  5
   3BB
  8
0
  6
CONTINUOUS
 62
     7
 10
2275.98793982714
 20
-1172.3665288294
 30
0.0
 40
0.800000011920929
  0
CIRCLE
  5
   3BC
  8
0
  6
CONTINUOUS
 62
     7
 10
2275.98793982714
 20
-1197.96652921087
 30
0.0
 40
0.800000011920929
  0
CIRCLE
  5
   3BD
  8
0
  6
CONTINUOUS
 62
     7
 10
2232.58793918043
 20
-1197.96652921087
 30
0.0
 40
0.800000011920929
  0
LINE
  5
   3BE
  8
0
  6
DASHDOT
 62
     7
 10
2232.58793918043
 20
-1169.84929676881
 30
0.0
 11
2232.58793918043
 21
-1177.16652890093
 31
0.0
  0
LINE
  5
   3BF
  8
0
  6
DASHDOT
 62
     7
 10
2237.38793925196
 20
-1172.3665288294
 30
0.0
 11
2227.78793910891
 21
-1172.3665288294
 31
0.0
  0
LINE
  5
   3C0
  8
0
  6
DASHDOT
 62
     7
 10
2232.58793918043
 20
-1193.96652915126
 30
0.0
 11
2232.58793918043
 21
-1201.96652927047
 31
0.0
  0
LINE
  5
   3C1
  8
0
  6
DASHDOT
 62
     7
 10
2236.987939246
 20
-1197.96652921087
 30
0.0
 11
2228.98793912679
 21
-1197.96652921087
 31
0.0
  0
LINE
  5
   3C2
  8
0
  6
DASHDOT
 62
     7
 10
2275.98793982714
 20
-1193.96652915126
 30
0.0
 11
2275.98793982714
 21
-1201.96652927047
 31
0.0
  0
LINE
  5
   3C3
  8
0
  6
DASHDOT
 62
     7
 10
2279.98793988675
 20
-1197.96652921087
 30
0.0
 11
2271.98793976754
 21
-1197.96652921087
 31
0.0
  0
LINE
  5
   3C4
  8
0
  6
DASHDOT
 62
     7
 10
2275.98793982714
 20
-1167.56652875787
 30
0.0
 11
2275.98793982714
 21
-1177.16652890093
 31
0.0
  0
LINE
  5
   3C5
  8
0
  6
DASHDOT
 62
     7
 10
2280.78793989867
 20
-1172.3665288294
 30
0.0
 11
2271.18793975562
 21
-1172.3665288294
 31
0.0
  0
LINE
  5
   3C6
  8
0
  6
CONTINUOUS
 62
     7
 10
2283.27239905234
 20
-1108.32062842531
 30
0.0
 11
2283.27239905234
 21
-1204.65975763993
 31
0.0
  0
LINE
  5
   3C7
  8
0
  6
CONTINUOUS
 62
     7
 10
2225.6764118927
 20
-1108.32062842531
 30
0.0
 11
2225.6764118927
 21
-1204.65975763993
 31
0.0
  0
LINE
  5
   3C8
  8
0
  6
CONTINUOUS
 62
     7
 10
2283.27239905234
 20
-1108.32062842531
 30
0.0
 11
2225.6764118927
 21
-1108.32062842531
 31
0.0
  0
LINE
  5
   3C9
  8
0
  6
CONTINUOUS
 62
     7
 10
2283.27239905234
 20
-1204.65975763993
 30
0.0
 11
2225.6764118927
 21
-1204.65975763993
 31
0.0
  0
LINE
  5
   3CA
  8
0
  6
DASHDOT
 62
     7
 10
2259.30793957859
 20
-1122.6211248325
 30
0.0
 11
2259.30793957859
 21
-1211.07693205483
 31
0.0
  0
TEXT
  5
   3CB
  8
0
  6
CONTINUOUS
 62
     2
 10
2258.21699431144
 20
-1214.152888831
 30
0.0
 40
2.99999994933605
  1
Y
 50
359.999999896069
 41
0.916666718787619
 72
     1
 11
2259.31699439286
 21
-1211.15288888366
 31
0.0
 73
     3
  0
TEXT
  5
   3CC
  8
0
  6
CONTINUOUS
 62
     2
 10
2201.56013986814
 20
-1186.60890152388
 30
0.0
 40
2.99999994933605
  1
X
 50
359.999999896069
 41
0.916666718787619
 72
     2
 11
2203.76014002285
 21
-1185.10890155319
 31
0.0
 73
     2
  0
TEXT
  5
   3CD
  8
0
  6
CONTINUOUS
 62
     2
 10
2204.2226398844
 20
-1186.60890181775
 30
0.0
 40
1.49999997466803
  1
2
 50
359.999999896069
 41
0.75
 72
     2
 11
2204.97263987309
 21
-1185.85890183177
 31
0.0
 73
     2
  0
TEXT
  5
   3CE
  8
0
  6
CONTINUOUS
 62
     2
 10
2200.96098794048
 20
-1136.72631671467
 30
0.0
 40
2.99999994933605
  1
X
 50
359.999999896069
 41
0.916666718787619
 72
     2
 11
2203.16098809518
 21
-1135.22631674399
 31
0.0
 73
     2
  0
TEXT
  5
   3CF
  8
0
  6
CONTINUOUS
 62
     2
 10
2203.62348800442
 20
-1136.72631688537
 30
0.0
 40
1.49999997466803
  1
1
 50
359.999999896069
 41
0.75
 72
     2
 11
2204.37348799311
 21
-1135.97631689939
 31
0.0
 73
     2
  0
TEXT
  5
   3D0
  8
0
  6
CONTINUOUS
 62
     2
 10
2258.19149893772
 20
-1098.3338556942
 30
0.0
 40
2.99999994933605
  1
Y
 50
359.999999896069
 41
0.916666718787619
 72
     1
 11
2259.29149901371
 21
-1098.33385569619
 31
0.0
  0
TEXT
  5
   3D1
  8
0
  6
CONTINUOUS
 62
     2
 10
2285.57069445151
 20
-1186.61633358802
 30
0.0
 40
2.99999994933605
  1
X
 50
359.999999896069
 41
0.916666718787619
 72
     1
 11
2286.67069453022
 21
-1185.11633361535
 31
0.0
 73
     2
  0
TEXT
  5
   3D2
  8
0
  6
CONTINUOUS
 62
     2
 10
2288.23319446777
 20
-1186.61633388189
 30
0.0
 40
1.49999997466803
  1
2
 50
359.999999896069
 41
0.75
 72
     1
 11
2288.60819446279
 21
-1185.86633389523
 31
0.0
 73
     2
  0
TEXT
  5
   3D3
  8
0
  6
CONTINUOUS
 62
     2
 10
2286.29954272897
 20
-1136.82158492122
 30
0.0
 40
2.99999994933605
  1
X
 50
359.999999896069
 41
0.916666718787619
 72
     1
 11
2287.39954280768
 21
-1135.32158494854
 31
0.0
 73
     2
  0
TEXT
  5
   3D4
  8
0
  6
CONTINUOUS
 62
     2
 10
2288.96204274523
 20
-1136.82158521509
 30
0.0
 40
1.49999997466803
  1
1
 50
359.999999896069
 41
0.75
 72
     1
 11
2289.33704274026
 21
-1136.07158522843
 31
0.0
 73
     2
  0
INSERT
  5
   3D5
  8
0
  6
CONTINUOUS
 62
     3
  2
*UDIM176
 10
0.0
 20
0.0
 30
0.0
  0
INSERT
  5
   3D6
  8
0
  6
CONTINUOUS
 62
     3
  2
*UDIM177
 10
0.0
 20
0.0
 30
0.0
  0
INSERT
  5
   3D7
  8
0
  6
CONTINUOUS
 62
     3
  2
*UDIM178
 10
0.0
 20
0.0
 30
0.0
  0
INSERT
  5
   3D8
  8
0
  6
CONTINUOUS
 62
     3
  2
*UDIM179
 10
0.0
 20
0.0
 30
0.0
  0
INSERT
  5
   3D9
  8
0
  6
CONTINUOUS
 62
     3
  2
*UDIM180
 10
0.0
 20
0.0
 30
0.0
  0
INSERT
  5
   3DA
  8
0
  6
CONTINUOUS
 62
     3
  2
*UDIM181
 10
0.0
 20
0.0
 30
0.0
  0
INSERT
  5
   3DB
  8
0
  6
CONTINUOUS
 62
     3
  2
*UDIM182
 10
0.0
 20
0.0
 30
0.0
  0
INSERT
  5
   3DC
  8
0
  6
CONTINUOUS
 62
     3
  2
*UDIM183
 10
0.0
 20
0.0
 30
0.0
  0
INSERT
  5
   3DD
  8
0
  6
CONTINUOUS
 62
     3
  2
*UDIM184
 10
0.0
 20
0.0
 30
0.0
  0
INSERT
  5
   3DE
  8
0
  6
CONTINUOUS
 62
     3
  2
*UDIM185
 10
0.0
 20
0.0
 30
0.0
  0
INSERT
  5
   3DF
  8
0
  6
CONTINUOUS
 62
     7
  2
*UDIM186
 10
0.0
 20
0.0
 30
0.0
  0
INSERT
  5
   3E0
  8
0
  6
CONTINUOUS
 62
     7
  2
*UDIM187
 10
0.0
 20
0.0
 30
0.0
  0
INSERT
  5
   3E1
  8
0
  6
CONTINUOUS
 62
     3
  2
*UDIM188
 10
0.0
 20
0.0
 30
0.0
  0
INSERT
  5
   3E2
  8
0
  6
CONTINUOUS
 62
     3
  2
*UDIM189
 10
0.0
 20
0.0
 30
0.0
  0
LINE
  5
   3E3
  8
0
  6
CONTINUOUS
 62
     7
 10
2032.17131373286
 20
-1116.4622059986
 30
0.0
 11
2032.17131373286
 21
-1153.8622065559
 31
0.0
  0
LINE
  5
   3E4
  8
0
  6
CONTINUOUS
 62
     7
 10
1986.2713130489
 20
-1154.36220656335
 30
0.0
 11
2031.67131372541
 21
-1154.36220656335
 31
0.0
  0
LINE
  5
   3E5
  8
0
  6
CONTINUOUS
 62
     7
 10
1985.77131304145
 20
-1116.4622059986
 30
0.0
 11
1985.77131304145
 21
-1153.8622065559
 31
0.0
  0
LINE
  5
   3E6
  8
0
  6
CONTINUOUS
 62
     7
 10
1986.2713130489
 20
-1115.96220599115
 30
0.0
 11
2031.67131372541
 21
-1115.96220599115
 31
0.0
  0
LINE
  5
   3E7
  8
0
  6
CONTINUOUS
 62
     7
 10
1987.77131307125
 20
-1144.7622064203
 30
0.0
 11
2030.17131370306
 21
-1144.7622064203
 31
0.0
  0
LINE
  5
   3E8
  8
0
  6
CONTINUOUS
 62
     7
 10
1987.77131307125
 20
-1125.5622061342
 30
0.0
 11
2030.17131370306
 21
-1125.5622061342
 31
0.0
  0
LINE
  5
   3E9
  8
0
  6
CONTINUOUS
 62
     7
 10
1987.57131306827
 20
-1115.96220599115
 30
0.0
 11
1987.57131306827
 21
-1154.36220656335
 31
0.0
  0
LINE
  5
   3EA
  8
0
  6
CONTINUOUS
 62
     7
 10
1987.97131307423
 20
-1121.36220607162
 30
0.0
 11
1987.97131307423
 21
-1125.5622061342
 31
0.0
  0
LINE
  5
   3EB
  8
0
  6
CONTINUOUS
 62
     7
 10
1987.97131307423
 20
-1144.7622064203
 30
0.0
 11
1987.97131307423
 21
-1148.96220648289
 31
0.0
  0
LINE
  5
   3EC
  8
0
  6
CONTINUOUS
 62
     7
 10
1987.97131307423
 20
-1149.36220648885
 30
0.0
 11
1987.97131307423
 21
-1154.36220656335
 31
0.0
  0
LINE
  5
   3ED
  8
0
  6
CONTINUOUS
 62
     7
 10
2030.37131370604
 20
-1115.96220599115
 30
0.0
 11
2030.37131370604
 21
-1154.36220656335
 31
0.0
  0
LINE
  5
   3EE
  8
0
  6
CONTINUOUS
 62
     7
 10
2029.97131370008
 20
-1144.7622064203
 30
0.0
 11
2029.97131370008
 21
-1148.96220648289
 31
0.0
  0
LINE
  5
   3EF
  8
0
  6
CONTINUOUS
 62
     7
 10
2029.97131370008
 20
-1149.36220648885
 30
0.0
 11
2029.97131370008
 21
-1154.36220656335
 31
0.0
  0
LINE
  5
   3F0
  8
0
  6
CONTINUOUS
 62
     7
 10
2029.97131370008
 20
-1121.36220607162
 30
0.0
 11
2029.97131370008
 21
-1125.5622061342
 31
0.0
  0
LINE
  5
   3F1
  8
0
  6
CONTINUOUS
 62
     7
 10
1987.57131306827
 20
-1120.96220606565
 30
0.0
 11
2030.37131370604
 21
-1120.96220606565
 31
0.0
  0
LINE
  5
   3F2
  8
0
  6
CONTINUOUS
 62
     7
 10
1987.97131307423
 20
-1121.36220607162
 30
0.0
 11
2029.97131370008
 21
-1121.36220607162
 31
0.0
  0
LINE
  5
   3F3
  8
0
  6
CONTINUOUS
 62
     7
 10
1987.97131307423
 20
-1149.36220648885
 30
0.0
 11
2029.97131370008
 21
-1149.36220648885
 31
0.0
  0
LINE
  5
   3F4
  8
0
  6
CONTINUOUS
 62
     7
 10
1987.97131307423
 20
-1148.96220648289
 30
0.0
 11
2029.97131370008
 21
-1148.96220648289
 31
0.0
  0
LINE
  5
   3F5
  8
0
  6
CONTINUOUS
 62
     7
 10
1987.57131306827
 20
-1118.16220602393
 30
0.0
 11
1987.69131429076
 21
-1118.16220602393
 31
0.0
  0
LINE
  5
   3F6
  8
0
  6
CONTINUOUS
 62
     7
 10
1987.57131306827
 20
-1118.76220603287
 30
0.0
 11
1987.69131429076
 21
-1118.76220603287
 31
0.0
  0
LINE
  5
   3F7
  8
0
  6
CONTINUOUS
 62
     7
 10
2030.25131362796
 20
-1118.16220602393
 30
0.0
 11
2030.37131370604
 21
-1118.16220602393
 31
0.0
  0
LINE
  5
   3F8
  8
0
  6
CONTINUOUS
 62
     7
 10
2030.25131362796
 20
-1118.76220603287
 30
0.0
 11
2030.37131370604
 21
-1118.76220603287
 31
0.0
  0
ARC
  5
   3F9
  8
0
  6
CONTINUOUS
 62
     7
 10
1987.69129831369
 20
-1118.46221599558
 30
0.0
 40
0.300017384246979
 50
270.002994716444
 51
449.997011754257
  0
ARC
  5
   3FA
  8
0
  6
CONTINUOUS
 62
     7
 10
2030.25131957321
 20
-1118.46220823245
 30
0.0
 40
0.300005980545986
 50
450.001135501493
 51
629.998857587167
  0
ARC
  5
   3FB
  8
0
  6
CONTINUOUS
 62
     7
 10
2031.67131372541
 20
-1116.4622059986
 30
0.0
 40
0.500000007450581
 50
359.999999844103
 51
449.999999844103
  0
ARC
  5
   3FC
  8
0
  6
CONTINUOUS
 62
     7
 10
1986.2713130489
 20
-1116.4622059986
 30
0.0
 40
0.500000007450581
 50
449.999999844103
 51
539.999999844103
  0
ARC
  5
   3FD
  8
0
  6
CONTINUOUS
 62
     7
 10
1986.2713130489
 20
-1153.8622065559
 30
0.0
 40
0.500000007450581
 50
539.999999844103
 51
629.999999844103
  0
ARC
  5
   3FE
  8
0
  6
CONTINUOUS
 62
     7
 10
2031.67131372541
 20
-1153.8622065559
 30
0.0
 40
0.500000007450581
 50
269.999999844103
 51
359.999999844103
  0
LINE
  5
   3FF
  8
0
  6
CONTINUOUS
 62
     7
 10
2030.17131370306
 20
-1125.5622061342
 30
0.0
 11
2030.17131370306
 21
-1144.7622064203
 31
0.0
  0
LINE
  5
   400
  8
0
  6
CONTINUOUS
 62
     7
 10
1987.77131307125
 20
-1125.5622061342
 30
0.0
 11
1987.77131307125
 21
-1144.7622064203
 31
0.0
  0
LINE
  5
   401
  8
0
  6
CONTINUOUS
 62
     7
 10
1988.37136290922
 20
-1105.9622748402
 30
0.0
 11
1988.37136443509
 21
-1115.96220599115
 31
0.0
  0
LINE
  5
   402
  8
0
  6
CONTINUOUS
 62
     7
 10
1988.37136873807
 20
-1144.16223521232
 30
0.0
 11
2013.97135691251
 21
-1144.16223521232
 31
0.0
  0
LINE
  5
   403
  8
0
  6
CONTINUOUS
 62
     7
 10
1988.37136599149
 20
-1126.16223494411
 30
0.0
 11
2013.97135416593
 21
-1126.16223494411
 31
0.0
  0
LINE
  5
   404
  8
0
  6
CONTINUOUS
 62
     7
 10
2010.97134967122
 20
-1129.50783361748
 30
0.0
 11
2016.62912797368
 21
-1129.50783361748
 31
0.0
  0
LINE
  5
   405
  8
0
  6
CONTINUOUS
 62
     7
 10
2010.97134964277
 20
-1128.76223498285
 30
0.0
 11
2010.97135005342
 21
-1139.52697546111
 31
0.0
  0
LINE
  5
   406
  8
0
  6
CONTINUOUS
 62
     7
 10
2010.97135005342
 20
-1139.52697546111
 30
0.0
 11
2011.37135005938
 21
-1139.52697546111
 31
0.0
  0
LINE
  5
   407
  8
0
  6
CONTINUOUS
 62
     7
 10
2010.97135004768
 20
-1139.37649406479
 30
0.0
 11
2011.37135005364
 21
-1139.37649406479
 31
0.0
  0
LINE
  5
   408
  8
0
  6
CONTINUOUS
 62
     7
 10
1998.37134428992
 20
-1129.36223499179
 30
0.0
 11
2010.97134966566
 21
-1129.36223499179
 31
0.0
  0
LINE
  5
   409
  8
0
  6
CONTINUOUS
 62
     7
 10
1998.37134242835
 20
-1141.56223517358
 30
0.0
 11
2003.73135645475
 21
-1141.56223517358
 31
0.0
  0
LINE
  5
   40A
  8
0
  6
CONTINUOUS
 62
     7
 10
1998.3713425199
 20
-1140.96223516464
 30
0.0
 11
2011.37135011413
 21
-1140.96223516464
 31
0.0
  0
LINE
  5
   40B
  8
0
  6
CONTINUOUS
 62
     7
 10
2007.73135651436
 20
-1141.56223517358
 30
0.0
 11
2029.57134289326
 21
-1141.56223517358
 31
0.0
  0
LINE
  5
   40C
  8
0
  6
CONTINUOUS
 62
     7
 10
2011.37134998015
 20
-1137.45009741008
 30
0.0
 11
2011.37135010852
 21
-1140.81530193874
 31
0.0
  0
LINE
  5
   40D
  8
0
  6
CONTINUOUS
 62
     7
 10
1988.7713516542
 20
-1112.16225164873
 30
0.0
 11
1988.77135174575
 21
-1112.76225165767
 31
0.0
  0
LINE
  5
   40E
  8
0
  6
CONTINUOUS
 62
     7
 10
1988.37136394682
 20
-1112.76225165767
 30
0.0
 11
2013.97135569181
 21
-1112.76225165767
 31
0.0
  0
LINE
  5
   40F
  8
0
  6
CONTINUOUS
 62
     7
 10
2029.57134832539
 20
-1105.9622748402
 30
0.0
 11
2029.57134679952
 21
-1115.96220599115
 31
0.0
  0
LINE
  5
   410
  8
0
  6
CONTINUOUS
 62
     7
 10
2016.57136170645
 20
-1129.50783361748
 30
0.0
 11
2016.97136171241
 21
-1129.50783361748
 31
0.0
  0
LINE
  5
   411
  8
0
  6
CONTINUOUS
 62
     7
 10
2016.97136174085
 20
-1128.76223498285
 30
0.0
 11
2016.97136133021
 21
-1139.52697546111
 31
0.0
  0
LINE
  5
   412
  8
0
  6
CONTINUOUS
 62
     7
 10
2016.57136132425
 20
-1139.52697546111
 30
0.0
 11
2016.97136133021
 21
-1139.52697546111
 31
0.0
  0
LINE
  5
   413
  8
0
  6
CONTINUOUS
 62
     7
 10
2016.57136132999
 20
-1139.37649406479
 30
0.0
 11
2016.97136133595
 21
-1139.37649406479
 31
0.0
  0
LINE
  5
   414
  8
0
  6
CONTINUOUS
 62
     7
 10
1998.37134438147
 20
-1128.76223498285
 30
0.0
 11
2029.57134484639
 21
-1128.76223498285
 31
0.0
  0
LINE
  5
   415
  8
0
  6
CONTINUOUS
 62
     7
 10
2016.97136171796
 20
-1129.36223499179
 30
0.0
 11
2029.57134475484
 21
-1129.36223499179
 31
0.0
  0
LINE
  5
   416
  8
0
  6
CONTINUOUS
 62
     7
 10
2016.57136140347
 20
-1137.45009741008
 30
0.0
 11
2016.5713612751
 21
-1140.81530193874
 31
0.0
  0
LINE
  5
   417
  8
0
  6
CONTINUOUS
 62
     7
 10
2013.97135569181
 20
-1112.76225165767
 30
0.0
 11
2029.57134728779
 21
-1112.76225165767
 31
0.0
  0
LINE
  5
   418
  8
0
  6
CONTINUOUS
 62
     7
 10
2011.37134998015
 20
-1137.45009741008
 30
0.0
 11
2016.57136140347
 21
-1137.45009741008
 31
0.0
  0
LINE
  5
   419
  8
0
  6
CONTINUOUS
 62
     7
 10
2011.57135007462
 20
-1139.64841590555
 30
0.0
 11
2016.371361309
 21
-1139.64841590555
 31
0.0
  0
LINE
  5
   41A
  8
0
  6
CONTINUOUS
 62
     7
 10
2011.5713501115
 20
-1141.01530193409
 30
0.0
 11
2016.37136127212
 21
-1141.01530193409
 31
0.0
  0
LINE
  5
   41B
  8
0
  6
CONTINUOUS
 62
     7
 10
2016.57136126949
 20
-1140.96223516464
 30
0.0
 11
2029.57134298482
 21
-1140.96223516464
 31
0.0
  0
ARC
  5
   41C
  8
0
  6
CONTINUOUS
 62
     7
 10
2011.5713501115
 20
-1140.81530193111
 30
0.0
 40
0.200000002980232
 50
540.000002029765
 51
629.999999844103
  0
ARC
  5
   41D
  8
0
  6
CONTINUOUS
 62
     7
 10
2016.37136127212
 20
-1140.81530193111
 30
0.0
 40
0.200000002980232
 50
269.999999844103
 51
359.999997658442
  0
ARC
  5
   41E
  8
0
  6
CONTINUOUS
 62
     7
 10
2016.371361309
 20
-1139.84841590853
 30
0.0
 40
0.200000002980232
 50
359.999997658442
 51
449.999999844103
  0
ARC
  5
   41F
  8
0
  6
CONTINUOUS
 62
     7
 10
2011.57135007462
 20
-1139.84841590853
 30
0.0
 40
0.200000002980232
 50
449.999999844103
 51
540.000002029765
  0
LINE
  5
   420
  8
0
  6
CONTINUOUS
 62
     7
 10
2013.97135447111
 20
-1144.16223521232
 30
0.0
 11
2029.57134249654
 21
-1144.16223521232
 31
0.0
  0
LINE
  5
   421
  8
0
  6
CONTINUOUS
 62
     7
 10
2013.97135721769
 20
-1126.16223494411
 30
0.0
 11
2029.57134524312
 21
-1126.16223494411
 31
0.0
  0
LINE
  5
   422
  8
0
  6
DASHDOT
 62
     7
 10
1983.11545797686
 20
-1135.16223507822
 30
0.0
 11
2035.17029603539
 21
-1135.16223507822
 31
0.0
  0
LINE
  5
   423
  8
0
  6
CONTINUOUS
 62
     7
 10
2008.46387269959
 20
-1130.2197762681
 30
0.0
 11
2008.76387270406
 21
-1130.2197762681
 31
0.0
  0
LINE
  5
   424
  8
0
  6
CONTINUOUS
 62
     7
 10
2008.46387269959
 20
-1132.01977629492
 30
0.0
 11
2008.76387270406
 21
-1132.01977629492
 31
0.0
  0
CIRCLE
  5
   425
  8
0
  6
CONTINUOUS
 62
     7
 10
2008.61387270182
 20
-1137.81977638135
 30
0.0
 40
0.900000013411045
  0
CIRCLE
  5
   426
  8
0
  6
CONTINUOUS
 62
     7
 10
2008.61387270182
 20
-1137.81977638135
 30
0.0
 40
0.600000008940697
  0
LINE
  5
   427
  8
0
  6
CONTINUOUS
 62
     7
 10
2008.46387269959
 20
-1130.2197762681
 30
0.0
 11
2008.46387269959
 21
-1132.01977629492
 31
0.0
  0
LINE
  5
   428
  8
0
  6
CONTINUOUS
 62
     7
 10
2008.76387270406
 20
-1130.2197762681
 30
0.0
 11
2008.76387270406
 21
-1132.01977629492
 31
0.0
  0
LINE
  5
   429
  8
0
  6
CONTINUOUS
 62
     7
 10
2019.88387091663
 20
-1137.04977636987
 30
0.0
 11
2019.97387091797
 21
-1137.04977636987
 31
0.0
  0
LINE
  5
   42A
  8
0
  6
CONTINUOUS
 62
     7
 10
2019.62387091276
 20
-1138.58977639282
 30
0.0
 11
2019.78387091514
 21
-1138.58977639282
 31
0.0
  0
LINE
  5
   42B
  8
0
  6
CONTINUOUS
 62
     7
 10
2019.38387090918
 20
-1137.96977638358
 30
0.0
 11
2019.38387090918
 21
-1138.06977638507
 31
0.0
  0
ARC
  5
   42C
  8
0
  6
CONTINUOUS
 62
     7
 10
2018.86387090143
 20
-1137.96977638358
 30
0.0
 40
0.520000007748604
 50
359.999999844103
 51
539.999999844103
  0
ARC
  5
   42D
  8
0
  6
CONTINUOUS
 62
     7
 10
2018.86387090143
 20
-1138.06977638507
 30
0.0
 40
0.520000007748603
 50
539.999999844103
 51
719.999999844103
  0
ARC
  5
   42E
  8
0
  6
CONTINUOUS
 62
     7
 10
2018.86387090143
 20
-1137.96977638358
 30
0.0
 40
0.360000005364418
 50
359.999999844103
 51
539.999999844103
  0
ARC
  5
   42F
  8
0
  6
CONTINUOUS
 62
     7
 10
2018.86387090143
 20
-1138.06977638507
 30
0.0
 40
0.360000005364418
 50
539.999999844103
 51
719.999999844103
  0
LINE
  5
   430
  8
0
  6
CONTINUOUS
 62
     7
 10
2019.2238709068
 20
-1137.96977638358
 30
0.0
 11
2019.2238709068
 21
-1138.06977638507
 31
0.0
  0
LINE
  5
   431
  8
0
  6
CONTINUOUS
 62
     7
 10
2019.43387090993
 20
-1137.52977637703
 30
0.0
 11
2019.43387090993
 21
-1137.68977637941
 31
0.0
  0
LINE
  5
   432
  8
0
  6
CONTINUOUS
 62
     7
 10
2019.43387090993
 20
-1137.68977637941
 30
0.0
 11
2019.62387091276
 21
-1137.68977637941
 31
0.0
  0
LINE
  5
   433
  8
0
  6
CONTINUOUS
 62
     7
 10
2019.97387091797
 20
-1137.52977637703
 30
0.0
 11
2019.97387091797
 21
-1137.68977637941
 31
0.0
  0
LINE
  5
   434
  8
0
  6
CONTINUOUS
 62
     7
 10
2019.43387090993
 20
-1137.52977637703
 30
0.0
 11
2019.62387091276
 21
-1137.52977637703
 31
0.0
  0
LINE
  5
   435
  8
0
  6
CONTINUOUS
 62
     7
 10
2019.62387091276
 20
-1137.68977637941
 30
0.0
 11
2019.62387091276
 21
-1138.58977639282
 31
0.0
  0
LINE
  5
   436
  8
0
  6
CONTINUOUS
 62
     7
 10
2019.78387091514
 20
-1137.68977637941
 30
0.0
 11
2019.78387091514
 21
-1138.58977639282
 31
0.0
  0
LINE
  5
   437
  8
0
  6
CONTINUOUS
 62
     7
 10
2019.78387091514
 20
-1137.68977637941
 30
0.0
 11
2019.97387091797
 21
-1137.68977637941
 31
0.0
  0
LINE
  5
   438
  8
0
  6
CONTINUOUS
 62
     7
 10
2019.78387091514
 20
-1137.52977637703
 30
0.0
 11
2019.97387091797
 21
-1137.52977637703
 31
0.0
  0
LINE
  5
   439
  8
0
  6
CONTINUOUS
 62
     7
 10
2019.62387091276
 20
-1137.30977637375
 30
0.0
 11
2019.62387091276
 21
-1137.52977637703
 31
0.0
  0
LINE
  5
   43A
  8
0
  6
CONTINUOUS
 62
     7
 10
2019.78387091514
 20
-1137.30977637375
 30
0.0
 11
2019.78387091514
 21
-1137.52977637703
 31
0.0
  0
ARC
  5
   43B
  8
0
  6
CONTINUOUS
 62
     7
 10
2019.88387091663
 20
-1137.30977637375
 30
0.0
 40
0.260000003874302
 50
449.999999844103
 51
539.999999844103
  0
ARC
  5
   43C
  8
0
  6
CONTINUOUS
 62
     7
 10
2019.88387091663
 20
-1137.30977637375
 30
0.0
 40
0.100000001490116
 50
449.999999844103
 51
539.999999844103
  0
LINE
  5
   43D
  8
0
  6
CONTINUOUS
 62
     7
 10
2019.97387091797
 20
-1137.04977636987
 30
0.0
 11
2019.97387091797
 21
-1137.20977637226
 31
0.0
  0
LINE
  5
   43E
  8
0
  6
CONTINUOUS
 62
     7
 10
2019.88387091663
 20
-1137.20977637226
 30
0.0
 11
2019.97387091797
 21
-1137.20977637226
 31
0.0
  0
LINE
  5
   43F
  8
0
  6
CONTINUOUS
 62
     7
 10
2020.2638709223
 20
-1138.58977639282
 30
0.0
 11
2020.42387092468
 21
-1138.58977639282
 31
0.0
  0
LINE
  5
   440
  8
0
  6
CONTINUOUS
 62
     7
 10
2020.07387091946
 20
-1137.52977637703
 30
0.0
 11
2020.07387091946
 21
-1137.68977637941
 31
0.0
  0
LINE
  5
   441
  8
0
  6
CONTINUOUS
 62
     7
 10
2020.07387091946
 20
-1137.68977637941
 30
0.0
 11
2020.2638709223
 21
-1137.68977637941
 31
0.0
  0
LINE
  5
   442
  8
0
  6
CONTINUOUS
 62
     7
 10
2020.61387092751
 20
-1137.52977637703
 30
0.0
 11
2020.61387092751
 21
-1137.68977637941
 31
0.0
  0
LINE
  5
   443
  8
0
  6
CONTINUOUS
 62
     7
 10
2020.07387091946
 20
-1137.52977637703
 30
0.0
 11
2020.2638709223
 21
-1137.52977637703
 31
0.0
  0
LINE
  5
   444
  8
0
  6
CONTINUOUS
 62
     7
 10
2020.2638709223
 20
-1137.68977637941
 30
0.0
 11
2020.2638709223
 21
-1138.58977639282
 31
0.0
  0
LINE
  5
   445
  8
0
  6
CONTINUOUS
 62
     7
 10
2020.42387092468
 20
-1137.68977637941
 30
0.0
 11
2020.42387092468
 21
-1138.58977639282
 31
0.0
  0
LINE
  5
   446
  8
0
  6
CONTINUOUS
 62
     7
 10
2020.42387092468
 20
-1137.68977637941
 30
0.0
 11
2020.61387092751
 21
-1137.68977637941
 31
0.0
  0
LINE
  5
   447
  8
0
  6
CONTINUOUS
 62
     7
 10
2020.42387092468
 20
-1137.52977637703
 30
0.0
 11
2020.61387092751
 21
-1137.52977637703
 31
0.0
  0
LINE
  5
   448
  8
0
  6
CONTINUOUS
 62
     7
 10
2020.2638709223
 20
-1137.30977637375
 30
0.0
 11
2020.2638709223
 21
-1137.52977637703
 31
0.0
  0
LINE
  5
   449
  8
0
  6
CONTINUOUS
 62
     7
 10
2020.42387092468
 20
-1137.30977637375
 30
0.0
 11
2020.42387092468
 21
-1137.52977637703
 31
0.0
  0
ARC
  5
   44A
  8
0
  6
CONTINUOUS
 62
     7
 10
2020.52387092617
 20
-1137.30977637375
 30
0.0
 40
0.260000003874302
 50
449.999999844103
 51
539.999999844103
  0
ARC
  5
   44B
  8
0
  6
CONTINUOUS
 62
     7
 10
2020.52387092617
 20
-1137.30977637375
 30
0.0
 40
0.100000001490116
 50
449.999999844103
 51
539.999999844103
  0
LINE
  5
   44C
  8
0
  6
CONTINUOUS
 62
     7
 10
2020.61387092751
 20
-1137.04977636987
 30
0.0
 11
2020.61387092751
 21
-1137.20977637226
 31
0.0
  0
LINE
  5
   44D
  8
0
  6
CONTINUOUS
 62
     7
 10
2019.54387091157
 20
-1131.68977629
 30
0.0
 11
2019.70387091395
 21
-1131.68977629
 31
0.0
  0
ARC
  5
   44E
  8
0
  6
CONTINUOUS
 62
     7
 10
2018.86387090143
 20
-1131.06977628077
 30
0.0
 40
0.520000007748604
 50
359.999999844103
 51
539.999999844103
  0
ARC
  5
   44F
  8
0
  6
CONTINUOUS
 62
     7
 10
2018.86387090143
 20
-1131.06977628077
 30
0.0
 40
0.360000005364418
 50
359.999999844103
 51
539.999999844103
  0
ARC
  5
   450
  8
0
  6
CONTINUOUS
 62
     7
 10
2018.86387090143
 20
-1131.16977628226
 30
0.0
 40
0.520000007748603
 50
539.999999844103
 51
719.999999844103
  0
ARC
  5
   451
  8
0
  6
CONTINUOUS
 62
     7
 10
2018.86387090143
 20
-1131.16977628226
 30
0.0
 40
0.360000005364418
 50
539.999999844103
 51
719.999999844103
  0
LINE
  5
   452
  8
0
  6
CONTINUOUS
 62
     7
 10
2019.54387091157
 20
-1130.54977627302
 30
0.0
 11
2019.54387091157
 21
-1131.68977629
 31
0.0
  0
LINE
  5
   453
  8
0
  6
CONTINUOUS
 62
     7
 10
2019.70387091395
 20
-1130.98977627957
 30
0.0
 11
2019.70387091395
 21
-1131.68977629
 31
0.0
  0
LINE
  5
   454
  8
0
  6
CONTINUOUS
 62
     7
 10
2020.2638709223
 20
-1130.98977627957
 30
0.0
 11
2020.2638709223
 21
-1131.68977629
 31
0.0
  0
LINE
  5
   455
  8
0
  6
CONTINUOUS
 62
     7
 10
2020.42387092468
 20
-1130.94977627898
 30
0.0
 11
2020.42387092468
 21
-1131.68977629
 31
0.0
  0
LINE
  5
   456
  8
0
  6
CONTINUOUS
 62
     7
 10
2019.54387091157
 20
-1130.54977627302
 30
0.0
 11
2019.70387091395
 21
-1130.54977627302
 31
0.0
  0
ARC
  5
   457
  8
0
  6
CONTINUOUS
 62
     7
 10
2019.98387091812
 20
-1130.98977627957
 30
0.0
 40
0.280000004172325
 50
359.999999844103
 51
539.999999844103
  0
LINE
  5
   458
  8
0
  6
CONTINUOUS
 62
     7
 10
2019.70387091395
 20
-1130.54977627302
 30
0.0
 11
2019.70387091395
 21
-1130.7097762754
 31
0.0
  0
ARC
  5
   459
  8
0
  6
CONTINUOUS
 62
     7
 10
2020.02387091872
 20
-1130.94977627898
 30
0.0
 40
0.400000005960464
 50
359.999999844103
 51
503.130102198259
  0
LINE
  5
   45A
  8
0
  6
CONTINUOUS
 62
     7
 10
2020.2638709223
 20
-1131.68977629
 30
0.0
 11
2020.42387092468
 21
-1131.68977629
 31
0.0
  0
LINE
  5
   45B
  8
0
  6
CONTINUOUS
 62
     7
 10
2019.731200832
 20
-1126.69859124294
 30
0.0
 11
2019.63758815298
 21
-1126.71509743651
 31
0.0
  0
LINE
  5
   45C
  8
0
  6
CONTINUOUS
 62
     7
 10
2019.63759393494
 20
-1126.71509429427
 30
0.0
 11
2019.55527277359
 21
-1126.76262179225
 31
0.0
  0
LINE
  5
   45D
  8
0
  6
CONTINUOUS
 62
     7
 10
2019.55526938731
 20
-1126.76262526263
 30
0.0
 11
2019.4941701364
 21
-1126.83544154819
 31
0.0
  0
LINE
  5
   45E
  8
0
  6
CONTINUOUS
 62
     7
 10
2019.49417127671
 20
-1126.83544110241
 30
0.0
 11
2019.46166090203
 21
-1126.92476357344
 31
0.0
  0
LINE
  5
   45F
  8
0
  6
CONTINUOUS
 62
     7
 10
2019.4616579956
 20
-1126.92476341093
 30
0.0
 11
2019.4616579956
 21
-1127.01981842028
 31
0.0
  0
LINE
  5
   460
  8
0
  6
CONTINUOUS
 62
     7
 10
2019.46166063712
 20
-1127.01981745175
 30
0.0
 11
2019.4941710118
 21
-1127.10913992278
 31
0.0
  0
LINE
  5
   461
  8
0
  6
CONTINUOUS
 62
     7
 10
2019.49416958783
 20
-1127.10914030404
 30
0.0
 11
2019.55526883874
 21
-1127.18195658961
 31
0.0
  0
LINE
  5
   462
  8
0
  6
CONTINUOUS
 62
     7
 10
2019.55527410778
 20
-1127.18195842976
 30
0.0
 11
2019.63759526913
 21
-1127.22948592774
 31
0.0
  0
LINE
  5
   463
  8
0
  6
CONTINUOUS
 62
     7
 10
2019.63758880365
 20
-1127.22948475669
 30
0.0
 11
2019.73120148266
 21
-1127.24599095026
 31
0.0
  0
LINE
  5
   464
  8
0
  6
CONTINUOUS
 62
     7
 10
2019.73120145665
 20
-1127.24599087086
 30
0.0
 11
2019.82297086719
 21
-1127.24599087086
 31
0.0
  0
LINE
  5
   465
  8
0
  6
CONTINUOUS
 62
     7
 10
2019.82297574993
 20
-1127.24598892433
 30
0.0
 11
2019.85798856185
 21
-1127.25736587554
 31
0.0
  0
LINE
  5
   466
  8
0
  6
CONTINUOUS
 62
     7
 10
2019.85798817575
 20
-1127.25736596728
 30
0.0
 11
2019.87962818703
 21
-1127.28715092946
 31
0.0
  0
LINE
  5
   467
  8
0
  6
CONTINUOUS
 62
     7
 10
2019.87962370007
 20
-1127.28715279011
 30
0.0
 11
2019.87962370007
 21
-1127.32396900617
 31
0.0
  0
LINE
  5
   468
  8
0
  6
CONTINUOUS
 62
     7
 10
2019.8796265876
 20
-1127.32396769361
 30
0.0
 11
2019.85798657633
 21
-1127.35375265579
 31
0.0
  0
LINE
  5
   469
  8
0
  6
CONTINUOUS
 62
     7
 10
2019.85798757685
 20
-1127.35375265495
 30
0.0
 11
2019.82297476493
 21
-1127.36512960616
 31
0.0
  0
LINE
  5
   46A
  8
0
  6
CONTINUOUS
 62
     7
 10
2019.48970059856
 20
-1127.36513092543
 30
0.0
 11
2019.82297086719
 21
-1127.36513092543
 31
0.0
  0
LINE
  5
   46B
  8
0
  6
CONTINUOUS
 62
     7
 10
2019.48970059856
 20
-1127.36513092543
 30
0.0
 11
2019.48970059856
 21
-1127.58409073704
 31
0.0
  0
LINE
  5
   46C
  8
0
  6
CONTINUOUS
 62
     7
 10
2019.48970059856
 20
-1127.58409073704
 30
0.0
 11
2019.82297086719
 21
-1127.58409073704
 31
0.0
  0
LINE
  5
   46D
  8
0
  6
CONTINUOUS
 62
     7
 10
2019.91823357791
 20
-1127.5672929922
 30
0.0
 11
2019.82297296179
 21
-1127.58409024725
 31
0.0
  0
LINE
  5
   46E
  8
0
  6
CONTINUOUS
 62
     7
 10
2020.00200656229
 20
-1127.51892621512
 30
0.0
 11
2019.91823274548
 21
-1127.56729257923
 31
0.0
  0
LINE
  5
   46F
  8
0
  6
CONTINUOUS
 62
     7
 10
2020.06418955789
 20
-1127.44482441975
 30
0.0
 11
2020.00200999184
 21
-1127.51892567318
 31
0.0
  0
LINE
  5
   470
  8
0
  6
CONTINUOUS
 62
     7
 10
2020.09727063596
 20
-1127.35392814575
 30
0.0
 11
2020.06418652772
 21
-1127.44482686428
 31
0.0
  0
LINE
  5
   471
  8
0
  6
CONTINUOUS
 62
     7
 10
2020.09726896698
 20
-1127.25719463689
 30
0.0
 11
2020.09726896698
 21
-1127.35392715939
 31
0.0
  0
LINE
  5
   472
  8
0
  6
CONTINUOUS
 62
     7
 10
2020.06418645181
 20
-1127.16629535371
 30
0.0
 11
2020.09727056005
 21
-1127.25719407224
 31
0.0
  0
LINE
  5
   473
  8
0
  6
CONTINUOUS
 62
     7
 10
2020.00200793925
 20
-1127.0921921274
 30
0.0
 11
2020.06418750946
 21
-1127.16629358222
 31
0.0
  0
LINE
  5
   474
  8
0
  6
CONTINUOUS
 62
     7
 10
2019.91823100866
 20
-1127.04382793026
 30
0.0
 11
2020.00200482173
 21
-1127.09219410146
 31
0.0
  0
LINE
  5
   475
  8
0
  6
CONTINUOUS
 62
     7
 10
2019.82297578073
 20
-1127.02703143031
 30
0.0
 11
2019.91823639547
 21
-1127.04382887571
 31
0.0
  0
LINE
  5
   476
  8
0
  6
CONTINUOUS
 62
     7
 10
2019.73120145665
 20
-1127.02703086851
 30
0.0
 11
2019.82297086719
 21
-1127.02703086851
 31
0.0
  0
LINE
  5
   477
  8
0
  6
CONTINUOUS
 62
     7
 10
2019.69902709458
 20
-1127.01657555566
 30
0.0
 11
2019.73120482897
 21
-1127.02702992399
 31
0.0
  0
LINE
  5
   478
  8
0
  6
CONTINUOUS
 62
     7
 10
2019.67913964343
 20
-1126.98920698151
 30
0.0
 11
2019.69902489765
 21
-1127.01657705431
 31
0.0
  0
LINE
  5
   479
  8
0
  6
CONTINUOUS
 62
     7
 10
2019.67913846759
 20
-1126.95537540327
 30
0.0
 11
2019.67913846759
 21
-1126.98920642794
 31
0.0
  0
LINE
  5
   47A
  8
0
  6
CONTINUOUS
 62
     7
 10
2019.69902785122
 20
-1126.92800625386
 30
0.0
 11
2019.67914259701
 21
-1126.95537632665
 31
0.0
  0
LINE
  5
   47B
  8
0
  6
CONTINUOUS
 62
     7
 10
2019.73120607109
 20
-1126.91754946707
 30
0.0
 11
2019.6990283367
 21
-1126.92800383539
 31
0.0
  0
LINE
  5
   47C
  8
0
  6
CONTINUOUS
 62
     7
 10
2019.73120145665
 20
-1126.9175509627
 30
0.0
 11
2020.06929960622
 21
-1126.9175509627
 31
0.0
  0
LINE
  5
   47D
  8
0
  6
CONTINUOUS
 62
     7
 10
2020.06929960622
 20
-1126.69859096036
 30
0.0
 11
2020.06929960622
 21
-1126.9175509627
 31
0.0
  0
LINE
  5
   47E
  8
0
  6
CONTINUOUS
 62
     7
 10
2019.73120145665
 20
-1126.69859096036
 30
0.0
 11
2020.06929960622
 21
-1126.69859096036
 31
0.0
  0
LINE
  5
   47F
  8
0
  6
CONTINUOUS
 62
     7
 10
2020.10149870338
 20
-1127.58409073704
 30
0.0
 11
2020.32953825755
 21
-1127.58409073704
 31
0.0
  0
LINE
  5
   480
  8
0
  6
CONTINUOUS
 62
     7
 10
2020.38106041028
 20
-1127.40699030247
 30
0.0
 11
2020.32954063569
 21
-1127.5840901034
 31
0.0
  0
LINE
  5
   481
  8
0
  6
CONTINUOUS
 62
     7
 10
2020.38105803371
 20
-1127.40699093429
 30
0.0
 11
2020.62694426785
 21
-1127.40699093429
 31
0.0
  0
LINE
  5
   482
  8
0
  6
CONTINUOUS
 62
     7
 10
2020.6269461536
 20
-1127.40699046214
 30
0.0
 11
2020.67846592819
 21
-1127.58409026307
 31
0.0
  0
LINE
  5
   483
  8
0
  6
CONTINUOUS
 62
     7
 10
2020.678464044
 20
-1127.58409073704
 30
0.0
 11
2020.90650054643
 21
-1127.58409073704
 31
0.0
  0
LINE
  5
   484
  8
0
  6
CONTINUOUS
 62
     7
 10
2020.64890078901
 20
-1126.69859082502
 30
0.0
 11
2020.90650278914
 21
-1127.58409082604
 31
0.0
  0
LINE
  5
   485
  8
0
  6
CONTINUOUS
 62
     7
 10
2020.35910063592
 20
-1126.69859096036
 30
0.0
 11
2020.64889861388
 21
-1126.69859096036
 31
0.0
  0
LINE
  5
   486
  8
0
  6
CONTINUOUS
 62
     7
 10
2020.35910186258
 20
-1126.69859433356
 30
0.0
 11
2020.10149986246
 21
-1127.58409433457
 31
0.0
  0
LINE
  5
   487
  8
0
  6
CONTINUOUS
 62
     7
 10
2020.50400290356
 20
-1126.98437403384
 30
0.0
 11
2020.56324670904
 21
-1127.18803090539
 31
0.0
  0
LINE
  5
   488
  8
0
  6
CONTINUOUS
 62
     7
 10
2020.44475432372
 20
-1127.18803093194
 30
0.0
 11
2020.56324492608
 21
-1127.18803093194
 31
0.0
  0
LINE
  5
   489
  8
0
  6
CONTINUOUS
 62
     7
 10
2020.50400471984
 20
-1126.98437383446
 30
0.0
 11
2020.44475789724
 21
-1127.18803059394
 31
0.0
  0
LINE
  5
   48A
  8
0
  6
CONTINUOUS
 62
     7
 10
2021.65344871205
 20
-1126.81963726999
 30
0.0
 11
2021.73176291944
 21
-1126.91837060467
 31
0.0
  0
LINE
  5
   48B
  8
0
  6
CONTINUOUS
 62
     7
 10
2021.55049584801
 20
-1126.74696787343
 30
0.0
 11
2021.65344994475
 21
-1126.81963899627
 31
0.0
  0
LINE
  5
   48C
  8
0
  6
CONTINUOUS
 62
     7
 10
2021.43123473125
 20
-1126.70624815437
 30
0.0
 11
2021.55049437556
 21
-1126.74696947194
 31
0.0
  0
LINE
  5
   48D
  8
0
  6
CONTINUOUS
 62
     7
 10
2021.30533471899
 20
-1126.70077484391
 30
0.0
 11
2021.43123499278
 21
-1126.70624759958
 31
0.0
  0
LINE
  5
   48E
  8
0
  6
CONTINUOUS
 62
     7
 10
2021.3053324828
 20
-1126.70077461409
 30
0.0
 11
2021.18298751037
 21
-1126.73099388172
 31
0.0
  0
LINE
  5
   48F
  8
0
  6
CONTINUOUS
 62
     7
 10
2021.18298942937
 20
-1126.73099246666
 30
0.0
 11
2021.0741179742
 21
-1126.79445567781
 31
0.0
  0
LINE
  5
   490
  8
0
  6
CONTINUOUS
 62
     7
 10
2021.0741162759
 20
-1126.79445760334
 30
0.0
 11
2020.98753180287
 21
-1126.88602330818
 31
0.0
  0
LINE
  5
   491
  8
0
  6
CONTINUOUS
 62
     7
 10
2020.98753390659
 20
-1126.88602150999
 30
0.0
 11
2020.9302554699
 21
-1126.99827145647
 31
0.0
  0
LINE
  5
   492
  8
0
  6
CONTINUOUS
 62
     7
 10
2020.93025447257
 20
-1126.99827331232
 30
0.0
 11
2020.906920732
 21
-1127.12211384014
 31
0.0
  0
LINE
  5
   493
  8
0
  6
CONTINUOUS
 62
     7
 10
2020.90692098073
 20
-1127.12211308495
 30
0.0
 11
2020.91942097494
 21
-1127.24751133947
 31
0.0
  0
LINE
  5
   494
  8
0
  6
CONTINUOUS
 62
     7
 10
2020.91942000367
 20
-1127.24751104513
 30
0.0
 11
2020.96674360696
 21
-1127.36430791583
 31
0.0
  0
LINE
  5
   495
  8
0
  6
CONTINUOUS
 62
     7
 10
2020.96674384017
 20
-1127.36430689892
 30
0.0
 11
2021.03715705144
 21
-1127.45538566228
 31
0.0
  0
LINE
  5
   496
  8
0
  6
CONTINUOUS
 62
     7
 10
2021.03715825928
 20
-1127.45538774976
 30
0.0
 11
2021.12867437326
 21
-1127.52523352479
 31
0.0
  0
LINE
  5
   497
  8
0
  6
CONTINUOUS
 62
     7
 10
2021.12867250663
 20
-1127.52523251343
 30
0.0
 11
2021.23510255997
 21
-1127.56912289409
 31
0.0
  0
LINE
  5
   498
  8
0
  6
CONTINUOUS
 62
     7
 10
2021.23510369676
 20
-1127.56912342633
 30
0.0
 11
2021.34925164533
 21
-1127.58409077212
 31
0.0
  0
LINE
  5
   499
  8
0
  6
CONTINUOUS
 62
     7
 10
2021.46340123912
 20
-1127.56912299859
 30
0.0
 11
2021.34925329055
 21
-1127.58409034438
 31
0.0
  0
LINE
  5
   49A
  8
0
  6
CONTINUOUS
 62
     7
 10
2021.56982766203
 20
-1127.52523297992
 30
0.0
 11
2021.4633976087
 21
-1127.56912336058
 31
0.0
  0
LINE
  5
   49B
  8
0
  6
CONTINUOUS
 62
     7
 10
2021.66134684346
 20
-1127.45538489922
 30
0.0
 11
2021.56983072948
 21
-1127.52523067425
 31
0.0
  0
LINE
  5
   49C
  8
0
  6
CONTINUOUS
 62
     7
 10
2021.73176234836
 20
-1127.36430821455
 30
0.0
 11
2021.6613460883
 21
-1127.45538697179
 31
0.0
  0
LINE
  5
   49D
  8
0
  6
CONTINUOUS
 62
     7
 10
2021.54259367041
 20
-1127.25403991802
 30
0.0
 11
2021.73176296401
 21
-1127.36430754372
 31
0.0
  0
LINE
  5
   49E
  8
0
  6
CONTINUOUS
 62
     7
 10
2021.54259026325
 20
-1127.25404209868
 30
0.0
 11
2021.49262382855
 21
-1127.31317334526
 31
0.0
  0
LINE
  5
   49F
  8
0
  6
CONTINUOUS
 62
     7
 10
2021.49262476866
 20
-1127.31317173018
 30
0.0
 11
2021.4254982898
 21
-1127.35174023463
 31
0.0
  0
LINE
  5
   4A0
  8
0
  6
CONTINUOUS
 62
     7
 10
2021.42550012512
 20
-1127.35174052693
 30
0.0
 11
2021.34925194558
 21
-1127.36513087719
 31
0.0
  0
LINE
  5
   4A1
  8
0
  6
CONTINUOUS
 62
     7
 10
2021.27299996947
 20
-1127.35174044125
 30
0.0
 11
2021.34924814901
 21
-1127.36513079151
 31
0.0
  0
LINE
  5
   4A2
  8
0
  6
CONTINUOUS
 62
     7
 10
2021.20587492374
 20
-1127.31317120344
 30
0.0
 11
2021.2730014026
 21
-1127.35173970789
 31
0.0
  0
LINE
  5
   4A3
  8
0
  6
CONTINUOUS
 62
     7
 10
2021.15590874441
 20
-1127.25403958105
 30
0.0
 11
2021.20587517911
 21
-1127.31317082763
 31
0.0
  0
LINE
  5
   4A4
  8
0
  6
CONTINUOUS
 62
     7
 10
2021.12749942047
 20
-1127.17147304445
 30
0.0
 11
2021.15591128608
 21
-1127.25404007249
 31
0.0
  0
LINE
  5
   4A5
  8
0
  6
CONTINUOUS
 62
     7
 10
2021.13285007791
 20
-1127.08432015574
 30
0.0
 11
2021.12750034576
 21
-1127.17147474519
 31
0.0
  0
LINE
  5
   4A6
  8
0
  6
CONTINUOUS
 62
     7
 10
2021.17114341191
 20
-1127.00584490318
 30
0.0
 11
2021.13284995242
 21
-1127.0843183808
 31
0.0
  0
LINE
  5
   4A7
  8
0
  6
CONTINUOUS
 62
     7
 10
2021.23655184036
 20
-1126.94799915742
 30
0.0
 11
2021.17114045729
 21
-1127.00584485485
 31
0.0
  0
LINE
  5
   4A8
  8
0
  6
CONTINUOUS
 62
     7
 10
2021.31911777199
 20
-1126.91958852804
 30
0.0
 11
2021.23655246314
 21
-1126.94799962802
 31
0.0
  0
LINE
  5
   4A9
  8
0
  6
CONTINUOUS
 62
     7
 10
2021.31911632772
 20
-1126.91958934503
 30
0.0
 11
2021.40627150709
 21
-1126.92493774273
 31
0.0
  0
LINE
  5
   4AA
  8
0
  6
CONTINUOUS
 62
     7
 10
2021.40627390484
 20
-1126.92493848179
 30
0.0
 11
2021.48474681616
 21
-1126.96323251714
 31
0.0
  0
LINE
  5
   4AB
  8
0
  6
CONTINUOUS
 62
     7
 10
2021.48474786647
 20
-1126.96322785482
 30
0.0
 11
2021.54259394108
 21
-1127.02863732735
 31
0.0
  0
LINE
  5
   4AC
  8
0
  6
CONTINUOUS
 62
     7
 10
2021.73176437921
 20
-1126.91837055072
 30
0.0
 11
2021.54259508561
 21
-1127.02863817642
 31
0.0
  0
LINE
  5
   4AD
  8
0
  6
CONTINUOUS
 62
     7
 10
2021.81225922691
 20
-1126.69859115109
 30
0.0
 11
2021.81225922691
 21
-1127.58409073704
 31
0.0
  0
LINE
  5
   4AE
  8
0
  6
CONTINUOUS
 62
     7
 10
2021.81225922691
 20
-1127.58409073704
 30
0.0
 11
2022.39185823457
 21
-1127.58409073704
 31
0.0
  0
LINE
  5
   4AF
  8
0
  6
CONTINUOUS
 62
     7
 10
2022.39185823457
 20
-1127.36513092543
 30
0.0
 11
2022.39185823457
 21
-1127.58409073704
 31
0.0
  0
LINE
  5
   4B0
  8
0
  6
CONTINUOUS
 62
     7
 10
2022.03121980147
 20
-1127.36513092543
 30
0.0
 11
2022.39185823457
 21
-1127.36513092543
 31
0.0
  0
LINE
  5
   4B1
  8
0
  6
CONTINUOUS
 62
     7
 10
2022.03121980147
 20
-1127.25082084987
 30
0.0
 11
2022.03121980147
 21
-1127.36513092543
 31
0.0
  0
LINE
  5
   4B2
  8
0
  6
CONTINUOUS
 62
     7
 10
2022.03121980147
 20
-1127.25082084987
 30
0.0
 11
2022.34355806296
 21
-1127.25082084987
 31
0.0
  0
LINE
  5
   4B3
  8
0
  6
CONTINUOUS
 62
     7
 10
2022.34355806296
 20
-1127.03186084752
 30
0.0
 11
2022.34355806296
 21
-1127.25082084987
 31
0.0
  0
LINE
  5
   4B4
  8
0
  6
CONTINUOUS
 62
     7
 10
2022.03121980147
 20
-1127.03186084752
 30
0.0
 11
2022.34355806296
 21
-1127.03186084752
 31
0.0
  0
LINE
  5
   4B5
  8
0
  6
CONTINUOUS
 62
     7
 10
2022.03121980147
 20
-1126.91755097462
 30
0.0
 11
2022.03121980147
 21
-1127.03186084752
 31
0.0
  0
LINE
  5
   4B6
  8
0
  6
CONTINUOUS
 62
     7
 10
2022.03121980147
 20
-1126.9175509627
 30
0.0
 11
2022.39185823457
 21
-1126.9175509627
 31
0.0
  0
LINE
  5
   4B7
  8
0
  6
CONTINUOUS
 62
     7
 10
2022.39185823457
 20
-1126.69859096036
 30
0.0
 11
2022.39185823457
 21
-1126.9175509627
 31
0.0
  0
LINE
  5
   4B8
  8
0
  6
CONTINUOUS
 62
     7
 10
2021.81225922691
 20
-1126.69859096036
 30
0.0
 11
2022.39185823457
 21
-1126.69859096036
 31
0.0
  0
LINE
  5
   4B9
  8
0
  6
CONTINUOUS
 62
     7
 10
1999.82286255016
 20
-1126.61668052637
 30
0.0
 11
1999.64131962236
 21
-1127.13538158746
 31
0.0
  0
LINE
  5
   4BA
  8
0
  6
CONTINUOUS
 62
     7
 10
1999.64131653387
 20
-1127.1353800561
 30
0.0
 11
1999.96916077703
 21
-1127.1353800561
 31
0.0
  0
LINE
  5
   4BB
  8
0
  6
CONTINUOUS
 62
     7
 10
1999.82285950532
 20
-1126.6166788765
 30
0.0
 11
1999.96916077703
 21
-1126.6166788765
 31
0.0
  0
LINE
  5
   4BC
  8
0
  6
CONTINUOUS
 62
     7
 10
1999.45045959743
 20
-1127.68067749617
 30
0.0
 11
1999.7164599676
 21
-1127.68067749617
 31
0.0
  0
LINE
  5
   4BD
  8
0
  6
CONTINUOUS
 62
     7
 10
1999.79094341275
 20
-1127.46787824875
 30
0.0
 11
1999.71646221338
 21
-1127.6806780971
 31
0.0
  0
LINE
  5
   4BE
  8
0
  6
CONTINUOUS
 62
     7
 10
1999.79094116988
 20
-1127.4678776578
 30
0.0
 11
1999.96916077703
 21
-1127.4678776578
 31
0.0
  0
LINE
  5
   4BF
  8
0
  6
CONTINUOUS
 62
     7
 10
1999.63200562064
 20
-1127.16197917759
 30
0.0
 11
1999.96916077703
 21
-1127.16197917759
 31
0.0
  0
LINE
  5
   4C0
  8
0
  6
CONTINUOUS
 62
     7
 10
1999.63200774332
 20
-1127.16198025663
 30
0.0
 11
1999.45046177436
 21
-1127.68067846735
 31
0.0
  0
LINE
  5
   4C1
  8
0
  6
CONTINUOUS
 62
     7
 10
2000.33292074136
 20
-1127.16198032812
 30
0.0
 11
2000.51446671032
 21
-1127.68067853884
 31
0.0
  0
LINE
  5
   4C2
  8
0
  6
CONTINUOUS
 62
     7
 10
1999.99575989852
 20
-1127.16197917759
 30
0.0
 11
2000.33291505491
 21
-1127.16197917759
 31
0.0
  0
LINE
  5
   4C3
  8
0
  6
CONTINUOUS
 62
     7
 10
1999.99575989852
 20
-1127.16197917759
 30
0.0
 11
1999.99575989852
 21
-1127.4678776578
 31
0.0
  0
LINE
  5
   4C4
  8
0
  6
CONTINUOUS
 62
     7
 10
1999.99575989852
 20
-1127.4678776578
 30
0.0
 11
2000.17397950567
 21
-1127.4678776578
 31
0.0
  0
LINE
  5
   4C5
  8
0
  6
CONTINUOUS
 62
     7
 10
2000.17398413886
 20
-1127.46787732185
 30
0.0
 11
2000.24846533823
 21
-1127.6806771702
 31
0.0
  0
LINE
  5
   4C6
  8
0
  6
CONTINUOUS
 62
     7
 10
2000.24846070795
 20
-1127.68067749617
 30
0.0
 11
2000.51446107813
 21
-1127.68067749617
 31
0.0
  0
LINE
  5
   4C7
  8
0
  6
CONTINUOUS
 62
     7
 10
1999.99575989852
 20
-1126.6166788765
 30
0.0
 11
2000.14206117023
 21
-1126.6166788765
 31
0.0
  0
LINE
  5
   4C8
  8
0
  6
CONTINUOUS
 62
     7
 10
1999.99575989852
 20
-1126.6166788765
 30
0.0
 11
1999.99575989852
 21
-1127.1353800561
 31
0.0
  0
LINE
  5
   4C9
  8
0
  6
CONTINUOUS
 62
     7
 10
1999.99575989852
 20
-1127.1353800561
 30
0.0
 11
2000.32360719345
 21
-1127.1353800561
 31
0.0
  0
LINE
  5
   4CA
  8
0
  6
CONTINUOUS
 62
     7
 10
2000.14206422501
 20
-1126.61667992885
 30
0.0
 11
2000.32361020753
 21
-1127.13538106549
 31
0.0
  0
LINE
  5
   4CB
  8
0
  6
CONTINUOUS
 62
     7
 10
2000.58096193361
 20
-1127.1353800561
 30
0.0
 11
2000.88686098602
 21
-1127.1353800561
 31
0.0
  0
LINE
  5
   4CC
  8
0
  6
CONTINUOUS
 62
     7
 10
2000.88686098602
 20
-1126.6166788765
 30
0.0
 11
2000.88686098602
 21
-1127.1353800561
 31
0.0
  0
LINE
  5
   4CD
  8
0
  6
CONTINUOUS
 62
     7
 10
2000.58096193361
 20
-1126.6166788765
 30
0.0
 11
2000.88686098602
 21
-1126.6166788765
 31
0.0
  0
LINE
  5
   4CE
  8
0
  6
CONTINUOUS
 62
     7
 10
2000.58096193361
 20
-1127.68067749617
 30
0.0
 11
2000.88686098602
 21
-1127.68067749617
 31
0.0
  0
LINE
  5
   4CF
  8
0
  6
CONTINUOUS
 62
     7
 10
2000.88686098602
 20
-1127.16197917759
 30
0.0
 11
2000.88686098602
 21
-1127.68067749617
 31
0.0
  0
LINE
  5
   4D0
  8
0
  6
CONTINUOUS
 62
     7
 10
2000.58096193361
 20
-1127.16197917759
 30
0.0
 11
2000.88686098602
 21
-1127.16197917759
 31
0.0
  0
LINE
  5
   4D1
  8
0
  6
CONTINUOUS
 62
     7
 10
2001.40555911387
 20
-1126.6166788765
 30
0.0
 11
2001.40555911387
 21
-1127.1353800561
 31
0.0
  0
LINE
  5
   4D2
  8
0
  6
CONTINUOUS
 62
     7
 10
2001.40555911387
 20
-1127.1353800561
 30
0.0
 11
2001.71146121803
 21
-1127.1353800561
 31
0.0
  0
LINE
  5
   4D3
  8
0
  6
CONTINUOUS
 62
     7
 10
2001.71146121803
 20
-1126.6166788765
 30
0.0
 11
2001.71146121803
 21
-1127.1353800561
 31
0.0
  0
LINE
  5
   4D4
  8
0
  6
CONTINUOUS
 62
     7
 10
2001.40555911387
 20
-1126.6166788765
 30
0.0
 11
2001.71146121803
 21
-1126.6166788765
 31
0.0
  0
LINE
  5
   4D5
  8
0
  6
CONTINUOUS
 62
     7
 10
2001.40555911387
 20
-1127.68067749617
 30
0.0
 11
2001.71146121803
 21
-1127.68067749617
 31
0.0
  0
LINE
  5
   4D6
  8
0
  6
CONTINUOUS
 62
     7
 10
2001.71146121803
 20
-1127.16197917759
 30
0.0
 11
2001.71146121803
 21
-1127.68067749617
 31
0.0
  0
LINE
  5
   4D7
  8
0
  6
CONTINUOUS
 62
     7
 10
2001.40555911387
 20
-1127.16197917759
 30
0.0
 11
2001.71146121803
 21
-1127.16197917759
 31
0.0
  0
LINE
  5
   4D8
  8
0
  6
CONTINUOUS
 62
     7
 10
2001.40555911387
 20
-1127.16197917759
 30
0.0
 11
2001.40555911387
 21
-1127.68067749617
 31
0.0
  0
LINE
  5
   4D9
  8
0
  6
CONTINUOUS
 62
     7
 10
2001.73806033952
 20
-1126.6166788765
 30
0.0
 11
2001.82355533591
 21
-1126.6166788765
 31
0.0
  0
LINE
  5
   4DA
  8
0
  6
CONTINUOUS
 62
     7
 10
2001.73806033952
 20
-1126.6166788765
 30
0.0
 11
2001.73806033952
 21
-1127.1353800561
 31
0.0
  0
LINE
  5
   4DB
  8
0
  6
CONTINUOUS
 62
     7
 10
2001.73806033952
 20
-1127.1353800561
 30
0.0
 11
2002.04773136465
 21
-1127.1353800561
 31
0.0
  0
LINE
  5
   4DC
  8
0
  6
CONTINUOUS
 62
     7
 10
2002.00204532292
 20
-1127.10092476682
 30
0.0
 11
2002.0477301443
 21
-1127.13537911821
 31
0.0
  0
LINE
  5
   4DD
  8
0
  6
CONTINUOUS
 62
     7
 10
2001.95086032861
 20
-1127.07535499257
 30
0.0
 11
2002.00204747065
 21
-1127.10092567401
 31
0.0
  0
LINE
  5
   4DE
  8
0
  6
CONTINUOUS
 62
     7
 10
2002.01178929257
 20
-1127.02362313648
 30
0.0
 11
2001.95086095264
 21
-1127.07535652828
 31
0.0
  0
LINE
  5
   4DF
  8
0
  6
CONTINUOUS
 62
     7
 10
2002.05300814804
 20
-1126.95514227333
 30
0.0
 11
2002.01179111098
 21
-1127.02362371738
 31
0.0
  0
LINE
  5
   4E0
  8
0
  6
CONTINUOUS
 62
     7
 10
2002.07019775574
 20
-1126.87708722652
 30
0.0
 11
2002.05300720578
 21
-1126.95514202793
 31
0.0
  0
LINE
  5
   4E1
  8
0
  6
CONTINUOUS
 62
     7
 10
2002.06156370479
 20
-1126.79762453373
 30
0.0
 11
2002.07019712521
 21
-1126.8770862216
 31
0.0
  0
LINE
  5
   4E2
  8
0
  6
CONTINUOUS
 62
     7
 10
2002.02800744347
 20
-1126.72508248611
 30
0.0
 11
2002.06156152636
 21
-1126.7976227792
 31
0.0
  0
LINE
  5
   4E3
  8
0
  6
CONTINUOUS
 62
     7
 10
2001.97304409959
 20
-1126.66704960614
 30
0.0
 11
2002.02800626383
 21
-1126.72508183721
 31
0.0
  0
LINE
  5
   4E4
  8
0
  6
CONTINUOUS
 62
     7
 10
2001.90243245698
 20
-1126.62961579667
 30
0.0
 11
2001.97304708506
 21
-1126.66705476514
 31
0.0
  0
LINE
  5
   4E5
  8
0
  6
CONTINUOUS
 62
     7
 10
2001.73806033952
 20
-1127.16197917759
 30
0.0
 11
2002.07372318632
 21
-1127.16197917759
 31
0.0
  0
LINE
  5
   4E6
  8
0
  6
CONTINUOUS
 62
     7
 10
2001.73806033952
 20
-1127.16197917759
 30
0.0
 11
2001.73806033952
 21
-1127.68067749617
 31
0.0
  0
LINE
  5
   4E7
  8
0
  6
CONTINUOUS
 62
     7
 10
2001.73806033952
 20
-1127.68067749617
 30
0.0
 11
2001.83698612225
 21
-1127.68067749617
 31
0.0
  0
LINE
  5
   4E8
  8
0
  6
CONTINUOUS
 62
     7
 10
2001.92529308486
 20
-1127.66797914423
 30
0.0
 11
2001.83698740995
 21
-1127.6806780798
 31
0.0
  0
LINE
  5
   4E9
  8
0
  6
CONTINUOUS
 62
     7
 10
2002.00644189691
 20
-1127.63091134059
 30
0.0
 11
2001.92529259866
 21
-1127.66797894581
 31
0.0
  0
LINE
  5
   4EA
  8
0
  6
CONTINUOUS
 62
     7
 10
2002.07385447802
 20
-1127.57247939035
 30
0.0
 11
2002.0064411407
 21
-1127.63091159069
 31
0.0
  0
LINE
  5
   4EB
  8
0
  6
CONTINUOUS
 62
     7
 10
2002.12207278061
 20
-1127.49741811323
 30
0.0
 11
2002.07385500668
 21
-1127.57247914861
 31
0.0
  0
LINE
  5
   4EC
  8
0
  6
CONTINUOUS
 62
     7
 10
2002.14718602147
 20
-1127.4118129434
 30
0.0
 11
2002.1220761585
 21
-1127.49741913398
 31
0.0
  0
LINE
  5
   4ED
  8
0
  6
CONTINUOUS
 62
     7
 10
2002.14715592106
 20
-1127.32259781815
 30
0.0
 11
2002.14718338688
 21
-1127.41181119498
 31
0.0
  0
LINE
  5
   4EE
  8
0
  6
CONTINUOUS
 62
     7
 10
2002.12199171023
 20
-1127.23700684346
 30
0.0
 11
2002.14715650364
 21
-1127.32259721163
 31
0.0
  0
LINE
  5
   4EF
  8
0
  6
CONTINUOUS
 62
     7
 10
2002.07372392057
 20
-1127.16198029736
 30
0.0
 11
2002.12199052234
 21
-1127.23700890752
 31
0.0
  0
LINE
  5
   4F0
  8
0
  6
CONTINUOUS
 62
     7
 10
2000.91346010751
 20
-1126.6166788765
 30
0.0
 11
2000.99895815566
 21
-1126.6166788765
 31
0.0
  0
LINE
  5
   4F1
  8
0
  6
CONTINUOUS
 62
     7
 10
2000.91346010751
 20
-1126.6166788765
 30
0.0
 11
2000.91346010751
 21
-1127.1353800561
 31
0.0
  0
LINE
  5
   4F2
  8
0
  6
CONTINUOUS
 62
     7
 10
2000.91346010751
 20
-1127.1353800561
 30
0.0
 11
2001.22313113263
 21
-1127.1353800561
 31
0.0
  0
LINE
  5
   4F3
  8
0
  6
CONTINUOUS
 62
     7
 10
2001.17744707492
 20
-1127.10092631952
 30
0.0
 11
2001.2231318963
 21
-1127.13538067092
 31
0.0
  0
LINE
  5
   4F4
  8
0
  6
CONTINUOUS
 62
     7
 10
2001.12625950525
 20
-1127.07535493306
 30
0.0
 11
2001.17744664729
 21
-1127.1009256145
 31
0.0
  0
LINE
  5
   4F5
  8
0
  6
CONTINUOUS
 62
     7
 10
2001.18718860861
 20
-1127.02362154105
 30
0.0
 11
2001.12626026867
 21
-1127.07535493284
 31
0.0
  0
LINE
  5
   4F6
  8
0
  6
CONTINUOUS
 62
     7
 10
2001.2284066789
 20
-1126.95514136221
 30
0.0
 11
2001.18718964184
 21
-1127.02362280625
 31
0.0
  0
LINE
  5
   4F7
  8
0
  6
CONTINUOUS
 62
     7
 10
2001.24560007407
 20
-1126.877086891
 30
0.0
 11
2001.22840647173
 21
-1126.95514169696
 31
0.0
  0
LINE
  5
   4F8
  8
0
  6
CONTINUOUS
 62
     7
 10
2001.23696687536
 20
-1126.79762321374
 30
0.0
 11
2001.24560029578
 21
-1126.87708490162
 31
0.0
  0
LINE
  5
   4F9
  8
0
  6
CONTINUOUS
 62
     7
 10
2001.20340842495
 20
-1126.72508491226
 30
0.0
 11
2001.23696555674
 21
-1126.79762520189
 31
0.0
  0
LINE
  5
   4FA
  8
0
  6
CONTINUOUS
 62
     7
 10
2001.14844510315
 20
-1126.66704821516
 30
0.0
 11
2001.20340726739
 21
-1126.72508044623
 31
0.0
  0
LINE
  5
   4FB
  8
0
  6
CONTINUOUS
 62
     7
 10
2001.07783023167
 20
-1126.62961483133
 30
0.0
 11
2001.14844485974
 21
-1126.6670537998
 31
0.0
  0
LINE
  5
   4FC
  8
0
  6
CONTINUOUS
 62
     7
 10
2000.99895790558
 20
-1126.61667867623
 30
0.0
 11
2001.0778306041
 21
-1126.62961202562
 31
0.0
  0
LINE
  5
   4FD
  8
0
  6
CONTINUOUS
 62
     7
 10
2000.91346010751
 20
-1127.16197917759
 30
0.0
 11
2001.24912295431
 21
-1127.16197917759
 31
0.0
  0
LINE
  5
   4FE
  8
0
  6
CONTINUOUS
 62
     7
 10
2000.91346010751
 20
-1127.16197917759
 30
0.0
 11
2000.91346010751
 21
-1127.68067749617
 31
0.0
  0
LINE
  5
   4FF
  8
0
  6
CONTINUOUS
 62
     7
 10
2000.91346010751
 20
-1127.68067749617
 30
0.0
 11
2001.01238589023
 21
-1127.68067749617
 31
0.0
  0
LINE
  5
   500
  8
0
  6
CONTINUOUS
 62
     7
 10
2001.10069181876
 20
-1127.66798110667
 30
0.0
 11
2001.01238614386
 21
-1127.68068004223
 31
0.0
  0
LINE
  5
   501
  8
0
  6
CONTINUOUS
 62
     7
 10
2001.18184175068
 20
-1127.63091186353
 30
0.0
 11
2001.10069245243
 21
-1127.66797946875
 31
0.0
  0
LINE
  5
   502
  8
0
  6
CONTINUOUS
 62
     7
 10
2001.2492544763
 20
-1127.5724797801
 30
0.0
 11
2001.18184113898
 21
-1127.63091198044
 31
0.0
  0
LINE
  5
   503
  8
0
  6
CONTINUOUS
 62
     7
 10
2001.29747213515
 20
-1127.49741801068
 30
0.0
 11
2001.24925436122
 21
-1127.57247904606
 31
0.0
  0
LINE
  5
   504
  8
0
  6
CONTINUOUS
 62
     7
 10
2001.32258714424
 20
-1127.4118118116
 30
0.0
 11
2001.29747422694
 21
-1127.49741801141
 31
0.0
  0
LINE
  5
   505
  8
0
  6
CONTINUOUS
 62
     7
 10
2001.32255475091
 20
-1127.32259772545
 30
0.0
 11
2001.32258526847
 21
-1127.41181110328
 31
0.0
  0
LINE
  5
   506
  8
0
  6
CONTINUOUS
 62
     7
 10
2001.29739222338
 20
-1127.23700688428
 30
0.0
 11
2001.3225570168
 21
-1127.32259725245
 31
0.0
  0
LINE
  5
   507
  8
0
  6
CONTINUOUS
 62
     7
 10
2001.24912448748
 20
-1127.16198009335
 30
0.0
 11
2001.29739108925
 21
-1127.23700870351
 31
0.0
  0
LINE
  5
   508
  8
0
  6
CONTINUOUS
 62
     7
 10
2000.58096193361
 20
-1126.6166788765
 30
0.0
 11
2000.58096193361
 21
-1127.68067749617
 31
0.0
  0
LINE
  5
   509
  8
0
  6
CONTINUOUS
 62
     7
 10
1998.37134444251
 20
-1128.36223497689
 30
0.0
 11
2009.57134960665
 21
-1128.36223497689
 31
0.0
  0
LINE
  5
   50A
  8
0
  6
CONTINUOUS
 62
     7
 10
2009.77134957912
 20
-1127.56223496497
 30
0.0
 11
2009.77134962489
 21
-1128.76223498285
 31
0.0
  0
LINE
  5
   50B
  8
0
  6
CONTINUOUS
 62
     7
 10
2018.17136180451
 20
-1127.56223496497
 30
0.0
 11
2018.17136175873
 21
-1128.76223498285
 31
0.0
  0
LINE
  5
   50C
  8
0
  6
CONTINUOUS
 62
     7
 10
2009.77134957912
 20
-1127.56223496497
 30
0.0
 11
2018.17136180451
 21
-1127.56223496497
 31
0.0
  0
LINE
  5
   50D
  8
0
  6
CONTINUOUS
 62
     7
 10
2018.37136177697
 20
-1128.36223497689
 30
0.0
 11
2029.57134490742
 21
-1128.36223497689
 31
0.0
  0
LINE
  5
   50E
  8
0
  6
CONTINUOUS
 62
     7
 10
2009.57134956851
 20
-1127.36223496199
 30
0.0
 11
2018.37136181512
 21
-1127.36223496199
 31
0.0
  0
LINE
  5
   50F
  8
0
  6
CONTINUOUS
 62
     7
 10
2018.37136181512
 20
-1127.36223496199
 30
0.0
 11
2018.37136176171
 21
-1128.76223498285
 31
0.0
  0
LINE
  5
   510
  8
0
  6
CONTINUOUS
 62
     7
 10
2009.57134956851
 20
-1127.36223496199
 30
0.0
 11
2009.57134962191
 21
-1128.76223498285
 31
0.0
  0
LINE
  5
   511
  8
0
  6
CONTINUOUS
 62
     7
 10
2018.17136136335
 20
-1139.12697545515
 30
0.0
 11
2018.17136131757
 21
-1140.32697547303
 31
0.0
  0
LINE
  5
   512
  8
0
  6
CONTINUOUS
 62
     7
 10
2009.77135002028
 20
-1139.12697545515
 30
0.0
 11
2009.77135006605
 21
-1140.32697547303
 31
0.0
  0
LINE
  5
   513
  8
0
  6
CONTINUOUS
 62
     7
 10
2009.77135002028
 20
-1139.12697545515
 30
0.0
 11
2010.97135003816
 21
-1139.12697545515
 31
0.0
  0
LINE
  5
   514
  8
0
  6
CONTINUOUS
 62
     7
 10
2016.97136134546
 20
-1139.12697545515
 30
0.0
 11
2018.17136136335
 21
-1139.12697545515
 31
0.0
  0
LINE
  5
   515
  8
0
  6
CONTINUOUS
 62
     7
 10
2009.77135006605
 20
-1140.32697547303
 30
0.0
 11
2011.37135008989
 21
-1140.32697547303
 31
0.0
  0
LINE
  5
   516
  8
0
  6
CONTINUOUS
 62
     7
 10
2016.57136129373
 20
-1140.32697547303
 30
0.0
 11
2018.17136131757
 21
-1140.32697547303
 31
0.0
  0
LINE
  5
   517
  8
0
  6
CONTINUOUS
 62
     7
 10
2003.73135645475
 20
-1141.26224127263
 30
0.0
 11
2003.73135645475
 21
-1143.06224129945
 31
0.0
  0
LINE
  5
   518
  8
0
  6
CONTINUOUS
 62
     7
 10
2007.73135651436
 20
-1141.26224127263
 30
0.0
 11
2007.73135651436
 21
-1143.06224129945
 31
0.0
  0
LINE
  5
   519
  8
0
  6
CONTINUOUS
 62
     7
 10
2003.73135645475
 20
-1141.26224127263
 30
0.0
 11
2007.73135651436
 21
-1141.26224127263
 31
0.0
  0
LINE
  5
   51A
  8
0
  6
CONTINUOUS
 62
     7
 10
2003.73135645475
 20
-1143.06224129945
 30
0.0
 11
2007.73135651436
 21
-1143.06224129945
 31
0.0
  0
LINE
  5
   51B
  8
0
  6
CONTINUOUS
 62
     7
 10
1998.37134438147
 20
-1128.76223498285
 30
0.0
 11
1998.37134428992
 21
-1129.36223499179
 31
0.0
  0
LINE
  5
   51C
  8
0
  6
CONTINUOUS
 62
     7
 10
1998.3713425199
 20
-1140.96223516464
 30
0.0
 11
1998.37134242835
 21
-1141.56223517358
 31
0.0
  0
LINE
  5
   51D
  8
0
  6
CONTINUOUS
 62
     7
 10
1997.65134681215
 20
-1112.76225165767
 30
0.0
 11
1997.65134632387
 21
-1115.96220599115
 31
0.0
  0
LINE
  5
   51E
  8
0
  6
CONTINUOUS
 62
     7
 10
1996.93134680142
 20
-1112.76225165767
 30
0.0
 11
1996.93134631314
 21
-1115.96220599115
 31
0.0
  0
LINE
  5
   51F
  8
0
  6
CONTINUOUS
 62
     7
 10
1996.21134679069
 20
-1112.76225165767
 30
0.0
 11
1996.21134630241
 21
-1115.96220599115
 31
0.0
  0
LINE
  5
   520
  8
0
  6
CONTINUOUS
 62
     7
 10
1995.49134677996
 20
-1112.76225165767
 30
0.0
 11
1995.49134629169
 21
-1115.96220599115
 31
0.0
  0
LINE
  5
   521
  8
0
  6
CONTINUOUS
 62
     7
 10
1994.77134676923
 20
-1112.76225165767
 30
0.0
 11
1994.77134628096
 21
-1115.96220599115
 31
0.0
  0
LINE
  5
   522
  8
0
  6
CONTINUOUS
 62
     7
 10
1994.0513467585
 20
-1112.76225165767
 30
0.0
 11
1994.05134627023
 21
-1115.96220599115
 31
0.0
  0
LINE
  5
   523
  8
0
  6
CONTINUOUS
 62
     7
 10
1993.33134674777
 20
-1112.76225165767
 30
0.0
 11
1993.3313462595
 21
-1115.96220599115
 31
0.0
  0
LINE
  5
   524
  8
0
  6
CONTINUOUS
 62
     7
 10
1992.61134673704
 20
-1112.76225165767
 30
0.0
 11
1992.61134624877
 21
-1115.96220599115
 31
0.0
  0
LINE
  5
   525
  8
0
  6
CONTINUOUS
 62
     7
 10
1991.89134672632
 20
-1112.76225165767
 30
0.0
 11
1991.89134623804
 21
-1115.96220599115
 31
0.0
  0
LINE
  5
   526
  8
0
  6
CONTINUOUS
 62
     7
 10
1991.17134671559
 20
-1112.76225165767
 30
0.0
 11
1991.17134622731
 21
-1115.96220599115
 31
0.0
  0
LINE
  5
   527
  8
0
  6
CONTINUOUS
 62
     7
 10
1990.45134670486
 20
-1112.76225165767
 30
0.0
 11
1990.45134621658
 21
-1115.96220599115
 31
0.0
  0
LINE
  5
   528
  8
0
  6
CONTINUOUS
 62
     7
 10
1989.73134669413
 20
-1112.76225165767
 30
0.0
 11
1989.73134620586
 21
-1115.96220599115
 31
0.0
  0
LINE
  5
   529
  8
0
  6
CONTINUOUS
 62
     7
 10
1989.0113466834
 20
-1112.76225165767
 30
0.0
 11
1989.01134619513
 21
-1115.96220599115
 31
0.0
  0
LINE
  5
   52A
  8
0
  6
CONTINUOUS
 62
     7
 10
2029.57130287564
 20
-1155.66222937879
 30
0.0
 11
2029.57131036771
 21
-1204.76227619037
 31
0.0
  0
LINE
  5
   52B
  8
0
  6
CONTINUOUS
 62
     7
 10
1988.37131446875
 20
-1155.66222950086
 30
0.0
 11
1988.37132196082
 21
-1204.76227631244
 31
0.0
  0
LINE
  5
   52C
  8
0
  6
CONTINUOUS
 62
     7
 10
1988.37132034337
 20
-1194.1622010529
 30
0.0
 11
2029.17138407345
 21
-1194.1622010529
 31
0.0
  0
LINE
  5
   52D
  8
0
  6
CONTINUOUS
 62
     7
 10
1988.49131761689
 20
-1176.16220078469
 30
0.0
 11
2029.45130602021
 21
-1176.16220078469
 31
0.0
  0
LINE
  5
   52E
  8
0
  6
CONTINUOUS
 62
     7
 10
1988.77131546653
 20
-1162.16221888661
 30
0.0
 11
2029.17131606853
 21
-1162.16221888661
 31
0.0
  0
LINE
  5
   52F
  8
0
  6
CONTINUOUS
 62
     7
 10
1988.37131555212
 20
-1162.76221889555
 30
0.0
 11
2029.57130395901
 21
-1162.76221889555
 31
0.0
  0
LINE
  5
   530
  8
0
  6
CONTINUOUS
 62
     7
 10
1988.37132092321
 20
-1197.96220721304
 30
0.0
 11
2026.85480280296
 21
-1197.96220721304
 31
0.0
  0
LINE
  5
   531
  8
0
  6
CONTINUOUS
 62
     7
 10
1991.89135195688
 20
-1196.16220718622
 30
0.0
 11
1996.21135202126
 21
-1196.16220718622
 31
0.0
  0
ARC
  5
   532
  8
0
  6
CONTINUOUS
 62
     7
 10
2029.45130602021
 20
-1176.28220078647
 30
0.0
 40
0.120000001788139
 50
360.000008586743
 51
449.999999844103
  0
ARC
  5
   533
  8
0
  6
CONTINUOUS
 62
     7
 10
2029.45130873017
 20
-1194.04220105111
 30
0.0
 40
0.120000001788139
 50
269.999999844103
 51
360.000008586743
  0
ARC
  5
   534
  8
0
  6
CONTINUOUS
 62
     7
 10
1988.49131761689
 20
-1176.28220078647
 30
0.0
 40
0.120000001788139
 50
449.999999844103
 51
540.000008586744
  0
ARC
  5
   535
  8
0
  6
CONTINUOUS
 62
     7
 10
1988.49132032685
 20
-1194.04220105111
 30
0.0
 40
0.120000001788139
 50
540.000008586744
 51
629.999999844103
  0
LINE
  5
   536
  8
0
  6
DASHDOT
 62
     7
 10
2003.97135213689
 20
-1184.28221311271
 30
0.0
 11
2003.97135213689
 21
-1196.28221329153
 31
0.0
  0
LINE
  5
   537
  8
0
  6
CONTINUOUS
 62
     7
 10
1996.97135197154
 20
-1190.20221320093
 30
0.0
 11
2008.97135215036
 21
-1190.20221320093
 31
0.0
  0
LINE
  5
   538
  8
0
  6
DASHDOT
 62
     7
 10
2013.9713522859
 20
-1184.28221311271
 30
0.0
 11
2013.9713522859
 21
-1196.28221329153
 31
0.0
  0
LINE
  5
   539
  8
0
  6
DASHDOT
 62
     7
 10
2000.0567212877
 20
-1190.20221320093
 30
0.0
 11
2017.81566888095
 21
-1190.20221320093
 31
0.0
  0
CIRCLE
  5
   53A
  8
0
  6
CONTINUOUS
 62
     7
 10
2017.9713191365
 20
-1183.72221310437
 30
0.0
 40
0.800000011920929
  0
LINE
  5
   53B
  8
0
  6
CONTINUOUS
 62
     7
 10
2026.01131392977
 20
-1189.54221319109
 30
0.0
 11
2026.01131392977
 21
-1190.90221321136
 31
0.0
  0
LINE
  5
   53C
  8
0
  6
CONTINUOUS
 62
     7
 10
2021.93131386898
 20
-1189.54221319109
 30
0.0
 11
2021.93131386898
 21
-1190.90221321136
 31
0.0
  0
LINE
  5
   53D
  8
0
  6
CONTINUOUS
 62
     7
 10
2022.33131387494
 20
-1189.14221318513
 30
0.0
 11
2025.61131392381
 21
-1189.14221318513
 31
0.0
  0
LINE
  5
   53E
  8
0
  6
CONTINUOUS
 62
     7
 10
2022.33131387494
 20
-1191.30221321732
 30
0.0
 11
2025.61131392381
 21
-1191.30221321732
 31
0.0
  0
LINE
  5
   53F
  8
0
  6
CONTINUOUS
 62
     7
 10
1988.37132034337
 20
-1194.1622010529
 30
0.0
 11
2005.51834771289
 21
-1194.1622010529
 31
0.0
  0
LINE
  5
   540
  8
0
  6
CONTINUOUS
 62
     7
 10
2028.97131369739
 20
-1194.1622010529
 30
0.0
 11
2029.45130873017
 21
-1194.1622010529
 31
0.0
  0
LINE
  5
   541
  8
0
  6
DASHDOT
 62
     7
 10
2008.97131339936
 20
-1188.3422070697
 30
0.0
 11
2008.97131339936
 21
-1191.61030554268
 31
0.0
  0
LINE
  5
   542
  8
0
  6
DASHDOT
 62
     7
 10
2008.97131339936
 20
-1191.14220711142
 30
0.0
 11
2008.97131339936
 21
-1192.54220713228
 31
0.0
  0
LINE
  5
   543
  8
0
  6
CONTINUOUS
 62
     7
 10
1998.37135205344
 20
-1185.00220091641
 30
0.0
 11
2019.37135236637
 21
-1185.00220091641
 31
0.0
  0
LINE
  5
   544
  8
0
  6
CONTINUOUS
 62
     7
 10
2019.37135236637
 20
-1184.96220091581
 30
0.0
 11
2019.37135236637
 21
-1194.1622010529
 31
0.0
  0
LINE
  5
   545
  8
0
  6
CONTINUOUS
 62
     7
 10
2007.87131338297
 20
-1190.80221320987
 30
0.0
 11
2010.07131341575
 21
-1190.80221320987
 31
0.0
  0
LINE
  5
   546
  8
0
  6
CONTINUOUS
 62
     7
 10
2007.87131338297
 20
-1191.60221322179
 30
0.0
 11
2010.07131341575
 21
-1191.60221322179
 31
0.0
  0
LINE
  5
   547
  8
0
  6
DOT
 62
     7
 10
2009.27131340383
 20
-1190.80221320987
 30
0.0
 11
2009.27131340383
 21
-1191.60221322179
 31
0.0
  0
LINE
  5
   548
  8
0
  6
DOT
 62
     7
 10
2008.67131339489
 20
-1190.80221320987
 30
0.0
 11
2008.67131339489
 21
-1191.60221322179
 31
0.0
  0
LINE
  5
   549
  8
0
  6
CONTINUOUS
 62
     7
 10
2010.07131341575
 20
-1190.80221320987
 30
0.0
 11
2010.07131341575
 21
-1191.60221322179
 31
0.0
  0
LINE
  5
   54A
  8
0
  6
CONTINUOUS
 62
     7
 10
2007.87131338297
 20
-1190.80221320987
 30
0.0
 11
2007.87131338297
 21
-1191.60221322179
 31
0.0
  0
LINE
  5
   54B
  8
0
  6
CONTINUOUS
 62
     7
 10
2019.37135236637
 20
-1191.76220101714
 30
0.0
 11
2019.37135236637
 21
-1193.36220104098
 31
0.0
  0
LINE
  5
   54C
  8
0
  6
CONTINUOUS
 62
     7
 10
1998.57127443236
 20
-1191.76220101714
 30
0.0
 11
1998.57127443236
 21
-1193.36220104098
 31
0.0
  0
LINE
  5
   54D
  8
0
  6
CONTINUOUS
 62
     7
 10
2021.97131393061
 20
-1196.16220718622
 30
0.0
 11
2025.97131399021
 21
-1196.16220718622
 31
0.0
  0
LINE
  5
   54E
  8
0
  6
CONTINUOUS
 62
     7
 10
2025.97131399021
 20
-1196.16220718622
 30
0.0
 11
2025.97131399021
 21
-1197.96220721304
 31
0.0
  0
LINE
  5
   54F
  8
0
  6
CONTINUOUS
 62
     7
 10
2021.97131393061
 20
-1196.16220718622
 30
0.0
 11
2021.97131393061
 21
-1197.96220721304
 31
0.0
  0
LINE
  5
   550
  8
0
  6
DASHDOT
 62
     7
 10
2017.9713191365
 20
-1182.52221308649
 30
0.0
 11
2017.9713191365
 21
-1184.92221312225
 31
0.0
  0
LINE
  5
   551
  8
0
  6
DASHDOT
 62
     7
 10
2016.77131911862
 20
-1183.72221310437
 30
0.0
 11
2019.17131915438
 21
-1183.72221310437
 31
0.0
  0
LINE
  5
   552
  8
0
  6
CONTINUOUS
 62
     7
 10
1998.37135205344
 20
-1162.76221889555
 30
0.0
 11
1998.37135205344
 21
-1185.00220091641
 31
0.0
  0
LINE
  5
   553
  8
0
  6
CONTINUOUS
 62
     7
 10
1997.65135204271
 20
-1162.76221889555
 30
0.0
 11
1997.65135204271
 21
-1197.96220721304
 31
0.0
  0
LINE
  5
   554
  8
0
  6
CONTINUOUS
 62
     7
 10
1996.93135203198
 20
-1162.76221889555
 30
0.0
 11
1996.93135203198
 21
-1197.96220721304
 31
0.0
  0
LINE
  5
   555
  8
0
  6
CONTINUOUS
 62
     7
 10
1996.21135202126
 20
-1162.76221889555
 30
0.0
 11
1996.21135202126
 21
-1197.96220721304
 31
0.0
  0
LINE
  5
   556
  8
0
  6
CONTINUOUS
 62
     7
 10
1995.49135201053
 20
-1162.76221889555
 30
0.0
 11
1995.49135201053
 21
-1196.16220718622
 31
0.0
  0
LINE
  5
   557
  8
0
  6
CONTINUOUS
 62
     7
 10
1994.7713519998
 20
-1162.76221889555
 30
0.0
 11
1994.7713519998
 21
-1196.16220718622
 31
0.0
  0
LINE
  5
   558
  8
0
  6
CONTINUOUS
 62
     7
 10
1994.05135198907
 20
-1162.76221889555
 30
0.0
 11
1994.05135198907
 21
-1196.16220718622
 31
0.0
  0
LINE
  5
   559
  8
0
  6
CONTINUOUS
 62
     7
 10
1993.33135197834
 20
-1162.76221889555
 30
0.0
 11
1993.33135197834
 21
-1196.16220718622
 31
0.0
  0
LINE
  5
   55A
  8
0
  6
CONTINUOUS
 62
     7
 10
1992.61135196761
 20
-1162.76221889555
 30
0.0
 11
1992.61135196761
 21
-1196.16220718622
 31
0.0
  0
LINE
  5
   55B
  8
0
  6
CONTINUOUS
 62
     7
 10
1991.89135195688
 20
-1162.76221889555
 30
0.0
 11
1991.89135195688
 21
-1197.96220721304
 31
0.0
  0
LINE
  5
   55C
  8
0
  6
CONTINUOUS
 62
     7
 10
1991.17135194615
 20
-1162.76221889555
 30
0.0
 11
1991.17135194615
 21
-1197.96220721304
 31
0.0
  0
LINE
  5
   55D
  8
0
  6
CONTINUOUS
 62
     7
 10
1990.45135193542
 20
-1162.76221889555
 30
0.0
 11
1990.45135193542
 21
-1197.96220721304
 31
0.0
  0
LINE
  5
   55E
  8
0
  6
CONTINUOUS
 62
     7
 10
1989.93135192768
 20
-1162.76221889555
 30
0.0
 11
1989.93135192768
 21
-1197.96220721304
 31
0.0
  0
LINE
  5
   55F
  8
0
  6
CONTINUOUS
 62
     7
 10
1989.21135191695
 20
-1162.76221889555
 30
0.0
 11
1989.21135191695
 21
-1197.96220721304
 31
0.0
  0
CIRCLE
  5
   560
  8
0
  6
CONTINUOUS
 62
     7
 10
2023.97131396041
 20
-1183.72221310437
 30
0.0
 40
1.80000002682209
  0
LINE
  5
   561
  8
0
  6
CONTINUOUS
 62
     7
 10
1998.57135205642
 20
-1185.00220091641
 30
0.0
 11
1998.57135205642
 21
-1194.1622010529
 31
0.0
  0
LINE
  5
   562
  8
0
  6
CONTINUOUS
 62
     7
 10
1998.37135205344
 20
-1186.00220093131
 30
0.0
 11
1998.37135205344
 21
-1197.96220721304
 31
0.0
  0
LINE
  5
   563
  8
0
  6
CONTINUOUS
 62
     7
 10
1998.37135205344
 20
-1186.00220093131
 30
0.0
 11
1998.57135205642
 21
-1186.00220093131
 31
0.0
  0
LINE
  5
   564
  8
0
  6
CONTINUOUS
 62
     7
 10
1988.77131453574
 20
-1154.86222942791
 30
0.0
 11
2029.17134091892
 21
-1154.86222942791
 31
0.0
  0
ARC
  5
   565
  8
0
  6
CONTINUOUS
 62
     7
 10
2029.17134091892
 20
-1154.46222942195
 30
0.0
 40
0.400000005960464
 50
269.999999844103
 51
359.999991101463
  0
ARC
  5
   566
  8
0
  6
CONTINUOUS
 62
     7
 10
1988.77137031569
 20
-1154.46222942195
 30
0.0
 40
0.400000005960464
 50
540.000008586744
 51
629.999999844103
  0
ARC
  5
   567
  8
0
  6
CONTINUOUS
 62
     7
 10
1988.77131459678
 20
-1155.66222943983
 30
0.0
 40
0.400000005960464
 50
449.999999844103
 51
540.000008586744
  0
ARC
  5
   568
  8
0
  6
CONTINUOUS
 62
     7
 10
2029.17130299175
 20
-1155.66222943983
 30
0.0
 40
0.400000005960464
 50
360.000008586744
 51
449.999999844103
  0
LINE
  5
   569
  8
0
  6
CONTINUOUS
 62
     7
 10
1988.37131546057
 20
-1162.16221888661
 30
0.0
 11
2029.57130386746
 21
-1162.16221888661
 31
0.0
  0
LINE
  5
   56A
  8
0
  6
CONTINUOUS
 62
     7
 10
1997.65134138002
 20
-1155.26222943387
 30
0.0
 11
1997.65134138002
 21
-1162.16221888661
 31
0.0
  0
LINE
  5
   56B
  8
0
  6
CONTINUOUS
 62
     7
 10
1996.93134136929
 20
-1155.26222943387
 30
0.0
 11
1996.93134136929
 21
-1162.16221888661
 31
0.0
  0
LINE
  5
   56C
  8
0
  6
CONTINUOUS
 62
     7
 10
1996.21134135856
 20
-1155.26222943387
 30
0.0
 11
1996.21134135856
 21
-1162.16221888661
 31
0.0
  0
LINE
  5
   56D
  8
0
  6
CONTINUOUS
 62
     7
 10
1995.49134134783
 20
-1155.26222943387
 30
0.0
 11
1995.49134134783
 21
-1162.16221888661
 31
0.0
  0
LINE
  5
   56E
  8
0
  6
CONTINUOUS
 62
     7
 10
1998.37134139075
 20
-1155.26222943387
 30
0.0
 11
1998.37134139075
 21
-1162.16221888661
 31
0.0
  0
LINE
  5
   56F
  8
0
  6
CONTINUOUS
 62
     7
 10
1999.09134140148
 20
-1155.26222943387
 30
0.0
 11
1999.09134140148
 21
-1162.16221888661
 31
0.0
  0
LINE
  5
   570
  8
0
  6
CONTINUOUS
 62
     7
 10
1999.81134141221
 20
-1155.26222943387
 30
0.0
 11
1999.81134141221
 21
-1162.16221888661
 31
0.0
  0
LINE
  5
   571
  8
0
  6
CONTINUOUS
 62
     7
 10
2000.53134142294
 20
-1155.26222943387
 30
0.0
 11
2000.53134142294
 21
-1162.16221888661
 31
0.0
  0
LINE
  5
   572
  8
0
  6
CONTINUOUS
 62
     7
 10
2001.25134143366
 20
-1155.26222943387
 30
0.0
 11
2001.25134143366
 21
-1162.16221888661
 31
0.0
  0
LINE
  5
   573
  8
0
  6
CONTINUOUS
 62
     7
 10
2001.97134144439
 20
-1155.26222943387
 30
0.0
 11
2001.97134144439
 21
-1162.16221888661
 31
0.0
  0
LINE
  5
   574
  8
0
  6
CONTINUOUS
 62
     7
 10
2002.69134145512
 20
-1155.26222943387
 30
0.0
 11
2002.69134145512
 21
-1162.16221888661
 31
0.0
  0
LINE
  5
   575
  8
0
  6
CONTINUOUS
 62
     7
 10
2003.41134146585
 20
-1155.26222943387
 30
0.0
 11
2003.41134146585
 21
-1162.16221888661
 31
0.0
  0
LINE
  5
   576
  8
0
  6
CONTINUOUS
 62
     7
 10
2004.13134147658
 20
-1155.26222943387
 30
0.0
 11
2004.13134147658
 21
-1162.16221888661
 31
0.0
  0
LINE
  5
   577
  8
0
  6
CONTINUOUS
 62
     7
 10
2004.85134148731
 20
-1155.26222943387
 30
0.0
 11
2004.85134148731
 21
-1162.16221888661
 31
0.0
  0
LINE
  5
   578
  8
0
  6
CONTINUOUS
 62
     7
 10
2005.57134149804
 20
-1155.26222943387
 30
0.0
 11
2005.57134149804
 21
-1162.16221888661
 31
0.0
  0
LINE
  5
   579
  8
0
  6
CONTINUOUS
 62
     7
 10
2006.29134150877
 20
-1155.26222943387
 30
0.0
 11
2006.29134150877
 21
-1162.16221888661
 31
0.0
  0
LINE
  5
   57A
  8
0
  6
CONTINUOUS
 62
     7
 10
2007.0113415195
 20
-1155.26222943387
 30
0.0
 11
2007.0113415195
 21
-1162.16221888661
 31
0.0
  0
LINE
  5
   57B
  8
0
  6
CONTINUOUS
 62
     7
 10
2007.73134153022
 20
-1155.26222943387
 30
0.0
 11
2007.73134153022
 21
-1162.16221888661
 31
0.0
  0
LINE
  5
   57C
  8
0
  6
CONTINUOUS
 62
     7
 10
2008.45134154095
 20
-1155.26222943387
 30
0.0
 11
2008.45134154095
 21
-1162.16221888661
 31
0.0
  0
LINE
  5
   57D
  8
0
  6
CONTINUOUS
 62
     7
 10
2011.33134158387
 20
-1155.26222943387
 30
0.0
 11
2011.33134158387
 21
-1162.16221888661
 31
0.0
  0
LINE
  5
   57E
  8
0
  6
CONTINUOUS
 62
     7
 10
2012.0513415946
 20
-1155.26222943387
 30
0.0
 11
2012.0513415946
 21
-1162.16221888661
 31
0.0
  0
LINE
  5
   57F
  8
0
  6
CONTINUOUS
 62
     7
 10
2012.77134160533
 20
-1155.26222943387
 30
0.0
 11
2012.77134160533
 21
-1162.16221888661
 31
0.0
  0
LINE
  5
   580
  8
0
  6
CONTINUOUS
 62
     7
 10
2013.49134161605
 20
-1155.26222943387
 30
0.0
 11
2013.49134161605
 21
-1162.16221888661
 31
0.0
  0
LINE
  5
   581
  8
0
  6
CONTINUOUS
 62
     7
 10
2014.21134162678
 20
-1155.26222943387
 30
0.0
 11
2014.21134162678
 21
-1162.16221888661
 31
0.0
  0
LINE
  5
   582
  8
0
  6
CONTINUOUS
 62
     7
 10
2014.93134163751
 20
-1155.26222943387
 30
0.0
 11
2014.93134163751
 21
-1162.16221888661
 31
0.0
  0
LINE
  5
   583
  8
0
  6
CONTINUOUS
 62
     7
 10
2015.65134164824
 20
-1155.26222943387
 30
0.0
 11
2015.65134164824
 21
-1162.16221888661
 31
0.0
  0
LINE
  5
   584
  8
0
  6
CONTINUOUS
 62
     7
 10
2016.37134165897
 20
-1155.26222943387
 30
0.0
 11
2016.37134165897
 21
-1162.16221888661
 31
0.0
  0
LINE
  5
   585
  8
0
  6
CONTINUOUS
 62
     7
 10
2017.0913416697
 20
-1155.26222943387
 30
0.0
 11
2017.0913416697
 21
-1162.16221888661
 31
0.0
  0
LINE
  5
   586
  8
0
  6
CONTINUOUS
 62
     7
 10
2017.81134168043
 20
-1155.26222943387
 30
0.0
 11
2017.81134168043
 21
-1162.16221888661
 31
0.0
  0
LINE
  5
   587
  8
0
  6
CONTINUOUS
 62
     7
 10
2018.53134169116
 20
-1155.26222943387
 30
0.0
 11
2018.53134169116
 21
-1162.16221888661
 31
0.0
  0
LINE
  5
   588
  8
0
  6
CONTINUOUS
 62
     7
 10
2019.25134170189
 20
-1155.26222943387
 30
0.0
 11
2019.25134170189
 21
-1162.16221888661
 31
0.0
  0
LINE
  5
   589
  8
0
  6
CONTINUOUS
 62
     7
 10
2019.97134171262
 20
-1155.26222943387
 30
0.0
 11
2019.97134171262
 21
-1162.16221888661
 31
0.0
  0
LINE
  5
   58A
  8
0
  6
CONTINUOUS
 62
     7
 10
2020.69134172334
 20
-1155.26222943387
 30
0.0
 11
2020.69134172334
 21
-1162.16221888661
 31
0.0
  0
LINE
  5
   58B
  8
0
  6
CONTINUOUS
 62
     7
 10
2021.41134173407
 20
-1155.26222943387
 30
0.0
 11
2021.41134173407
 21
-1162.16221888661
 31
0.0
  0
LINE
  5
   58C
  8
0
  6
CONTINUOUS
 62
     7
 10
2022.1313417448
 20
-1155.26222943387
 30
0.0
 11
2022.1313417448
 21
-1162.16221888661
 31
0.0
  0
LINE
  5
   58D
  8
0
  6
CONTINUOUS
 62
     7
 10
2022.85134175553
 20
-1155.26222943387
 30
0.0
 11
2022.85134175553
 21
-1162.16221888661
 31
0.0
  0
LINE
  5
   58E
  8
0
  6
CONTINUOUS
 62
     7
 10
2023.57134176626
 20
-1155.26222943387
 30
0.0
 11
2023.57134176626
 21
-1162.16221888661
 31
0.0
  0
LINE
  5
   58F
  8
0
  6
CONTINUOUS
 62
     7
 10
2024.29134177699
 20
-1155.26222943387
 30
0.0
 11
2024.29134177699
 21
-1162.16221888661
 31
0.0
  0
LINE
  5
   590
  8
0
  6
CONTINUOUS
 62
     7
 10
2025.01134178772
 20
-1155.26222943387
 30
0.0
 11
2025.01134178772
 21
-1162.16221888661
 31
0.0
  0
LINE
  5
   591
  8
0
  6
CONTINUOUS
 62
     7
 10
2025.73134179845
 20
-1155.26222943387
 30
0.0
 11
2025.73134179845
 21
-1162.16221888661
 31
0.0
  0
LINE
  5
   592
  8
0
  6
CONTINUOUS
 62
     7
 10
2026.45134180917
 20
-1155.26222943387
 30
0.0
 11
2026.45134180917
 21
-1162.16221888661
 31
0.0
  0
LINE
  5
   593
  8
0
  6
CONTINUOUS
 62
     7
 10
2027.1713418199
 20
-1155.26222943387
 30
0.0
 11
2027.1713418199
 21
-1162.16221888661
 31
0.0
  0
LINE
  5
   594
  8
0
  6
CONTINUOUS
 62
     7
 10
2027.89134183063
 20
-1155.26222943387
 30
0.0
 11
2027.89134183063
 21
-1162.16221888661
 31
0.0
  0
LINE
  5
   595
  8
0
  6
CONTINUOUS
 62
     7
 10
2028.61134184136
 20
-1155.26222943387
 30
0.0
 11
2028.61134184136
 21
-1162.16221888661
 31
0.0
  0
LINE
  5
   596
  8
0
  6
CONTINUOUS
 62
     7
 10
1994.7713413371
 20
-1155.26222943387
 30
0.0
 11
1994.7713413371
 21
-1162.16221888661
 31
0.0
  0
LINE
  5
   597
  8
0
  6
CONTINUOUS
 62
     7
 10
1994.05134132638
 20
-1155.26222943387
 30
0.0
 11
1994.05134132638
 21
-1162.16221888661
 31
0.0
  0
LINE
  5
   598
  8
0
  6
CONTINUOUS
 62
     7
 10
1993.33134131565
 20
-1155.26222943387
 30
0.0
 11
1993.33134131565
 21
-1162.16221888661
 31
0.0
  0
LINE
  5
   599
  8
0
  6
CONTINUOUS
 62
     7
 10
1992.61134130492
 20
-1155.26222943387
 30
0.0
 11
1992.61134130492
 21
-1162.16221888661
 31
0.0
  0
LINE
  5
   59A
  8
0
  6
CONTINUOUS
 62
     7
 10
1991.89134129419
 20
-1155.26222943387
 30
0.0
 11
1991.89134129419
 21
-1162.16221888661
 31
0.0
  0
LINE
  5
   59B
  8
0
  6
CONTINUOUS
 62
     7
 10
1991.17134128346
 20
-1155.26222943387
 30
0.0
 11
1991.17134128346
 21
-1162.16221888661
 31
0.0
  0
LINE
  5
   59C
  8
0
  6
CONTINUOUS
 62
     7
 10
1990.45134127273
 20
-1155.26222943387
 30
0.0
 11
1990.45134127273
 21
-1162.16221888661
 31
0.0
  0
LINE
  5
   59D
  8
0
  6
CONTINUOUS
 62
     7
 10
1989.731341262
 20
-1155.26222943387
 30
0.0
 11
1989.731341262
 21
-1162.16221888661
 31
0.0
  0
LINE
  5
   59E
  8
0
  6
CONTINUOUS
 62
     7
 10
1989.01134125127
 20
-1155.26222943387
 30
0.0
 11
1989.01134125127
 21
-1162.16221888661
 31
0.0
  0
LINE
  5
   59F
  8
0
  6
CONTINUOUS
 62
     7
 10
1998.57135205642
 20
-1178.36226365098
 30
0.0
 11
2029.57130633939
 21
-1178.36226365098
 31
0.0
  0
LINE
  5
   5A0
  8
0
  6
CONTINUOUS
 62
     7
 10
1998.57135205642
 20
-1178.76226365694
 30
0.0
 11
2023.77096979746
 21
-1178.76226365694
 31
0.0
  0
LINE
  5
   5A1
  8
0
  6
CONTINUOUS
 62
     7
 10
2020.17136176156
 20
-1178.76226365694
 30
0.0
 11
2029.57130640043
 21
-1178.76226365694
 31
0.0
  0
INSERT
  5
   5A2
  8
255
  6
CONTINUOUS
 62
     7
  2
$2SACE
 10
2022.47187140783
 20
-1177.86235913341
 30
0.0
 41
0.480000007152557
 42
0.480000007152557
 50
359.999999792138
 43
0.480000007152557
  0
INSERT
  5
   5A3
  8
255
  6
CONTINUOUS
 62
     7
  2
$2ABB
 10
2001.93632662035
 20
-1177.88932375336
 30
0.0
 41
0.480000007152557
 42
0.480000007152557
 50
359.999999792138
 43
0.480000007152557
  0
CIRCLE
  5
   5A4
  8
0
  6
CONTINUOUS
 62
     7
 10
2003.97134268013
 20
-1190.2822638286
 30
0.0
 40
2.00000002980232
  0
CIRCLE
  5
   5A5
  8
0
  6
DOT
 62
     7
 10
2013.9713522859
 20
-1190.2822638286
 30
0.0
 40
2.00000002980232
  0
LINE
  5
   5A6
  8
0
  6
CONTINUOUS
 62
     7
 10
2001.43122377079
 20
-1188.81572549252
 30
0.0
 11
2002.23929184675
 21
-1189.2822638137
 31
0.0
  0
LINE
  5
   5A7
  8
0
  6
CONTINUOUS
 62
     7
 10
2002.35476190231
 20
-1187.48226378688
 30
0.0
 11
2002.97134266523
 21
-1188.55021299522
 31
0.0
  0
LINE
  5
   5A8
  8
0
  6
CONTINUOUS
 62
     7
 10
2001.63662657439
 20
-1187.48226378688
 30
0.0
 11
2002.35476190231
 21
-1187.48226378688
 31
0.0
  0
LINE
  5
   5A9
  8
0
  6
CONTINUOUS
 62
     7
 10
2005.58792345795
 20
-1187.48226378688
 30
0.0
 11
2006.28450841358
 21
-1187.48226378688
 31
0.0
  0
LINE
  5
   5AA
  8
0
  6
CONTINUOUS
 62
     7
 10
2005.58792345795
 20
-1187.48226378688
 30
0.0
 11
2004.97134269503
 21
-1188.55021299522
 31
0.0
  0
LINE
  5
   5AB
  8
0
  6
CONTINUOUS
 62
     7
 10
2006.38066887059
 20
-1188.89123870397
 30
0.0
 11
2005.70339351351
 21
-1189.2822638137
 31
0.0
  0
LINE
  5
   5AC
  8
0
  6
DOT
 62
     7
 10
2012.35477150808
 20
-1187.48226378688
 30
0.0
 11
2012.971352271
 21
-1188.55021299522
 31
0.0
  0
LINE
  5
   5AD
  8
0
  6
DOT
 62
     7
 10
2011.63663618016
 20
-1187.48226378688
 30
0.0
 11
2012.35477150808
 21
-1187.48226378688
 31
0.0
  0
LINE
  5
   5AE
  8
0
  6
DOT
 62
     7
 10
2015.58793306372
 20
-1187.48226378688
 30
0.0
 11
2016.28451801935
 21
-1187.48226378688
 31
0.0
  0
LINE
  5
   5AF
  8
0
  6
DOT
 62
     7
 10
2015.58793306372
 20
-1187.48226378688
 30
0.0
 11
2014.9713523008
 21
-1188.55021299522
 31
0.0
  0
LINE
  5
   5B0
  8
0
  6
DOT
 62
     7
 10
2016.38067847636
 20
-1188.89123870397
 30
0.0
 11
2015.70340311928
 21
-1189.2822638137
 31
0.0
  0
LINE
  5
   5B1
  8
0
  6
DOT
 62
     7
 10
2011.43123337656
 20
-1188.81572549252
 30
0.0
 11
2012.23930145252
 21
-1189.2822638137
 31
0.0
  0
INSERT
  5
   5B2
  8
255
  6
CONTINUOUS
 62
     7
  2
$2SETTORE
 10
1999.80618639294
 20
-1182.12918267234
 30
0.0
 41
0.360000005364418
 42
0.360000005364418
 50
359.999999792138
 43
0.360000005364418
  0
LINE
  5
   5B3
  8
0
  6
DASHDOT
 62
     7
 10
2003.97134268013
 20
-1186.49867452736
 30
0.0
 11
2003.97134268013
 21
-1196.28226391801
 31
0.0
  0
ARC
  5
   5B4
  8
0
  6
CONTINUOUS
 62
     7
 10
2022.33131387494
 20
-1189.54221319109
 30
0.0
 40
0.400000005960464
 50
449.999999844103
 51
539.999999844103
  0
ARC
  5
   5B5
  8
0
  6
CONTINUOUS
 62
     7
 10
2025.61131392381
 20
-1189.54221319109
 30
0.0
 40
0.400000005960464
 50
359.999999844103
 51
449.999999844103
  0
ARC
  5
   5B6
  8
0
  6
CONTINUOUS
 62
     7
 10
2025.61131392381
 20
-1190.90221321136
 30
0.0
 40
0.400000005960464
 50
269.999999844103
 51
359.999999844103
  0
ARC
  5
   5B7
  8
0
  6
CONTINUOUS
 62
     7
 10
2022.33131387494
 20
-1190.90221321136
 30
0.0
 40
0.400000005960464
 50
539.999999844103
 51
629.999999844103
  0
LINE
  5
   5B8
  8
0
  6
DASHDOT
 62
     7
 10
1983.05187776822
 20
-1185.16220091879
 30
0.0
 11
2032.72049989672
 21
-1185.16220091879
 31
0.0
  0
LINE
  5
   5B9
  8
0
  6
CONTINUOUS
 62
     7
 10
2009.17134161272
 20
-1105.56227477321
 30
0.0
 11
2009.17134161272
 21
-1106.47523125753
 31
0.0
  0
LINE
  5
   5BA
  8
0
  6
CONTINUOUS
 62
     7
 10
1988.77136291519
 20
-1105.56227477321
 30
0.0
 11
2029.17134831943
 21
-1105.56227477321
 31
0.0
  0
ARC
  5
   5BB
  8
0
  6
CONTINUOUS
 62
     7
 10
1988.77136291519
 20
-1105.96227477917
 30
0.0
 40
0.400000005960464
 50
449.999999844103
 51
540.000008586744
  0
ARC
  5
   5BC
  8
0
  6
CONTINUOUS
 62
     7
 10
2029.17134831943
 20
-1105.96227477917
 30
0.0
 40
0.400000005960464
 50
359.999991101463
 51
449.999999844103
  0
LINE
  5
   5BD
  8
0
  6
CONTINUOUS
 62
     7
 10
1988.77132196678
 20
-1205.16227625736
 30
0.0
 11
2029.17131036175
 21
-1205.16227625736
 31
0.0
  0
ARC
  5
   5BE
  8
0
  6
CONTINUOUS
 62
     7
 10
1988.77132196678
 20
-1204.7622762514
 30
0.0
 40
0.400000005960464
 50
540.000008586744
 51
629.999999844103
  0
ARC
  5
   5BF
  8
0
  6
CONTINUOUS
 62
     7
 10
2029.17131036175
 20
-1204.7622762514
 30
0.0
 40
0.400000005960464
 50
269.999999844103
 51
360.000008586744
  0
LINE
  5
   5C0
  8
0
  6
CONTINUOUS
 62
     7
 10
1998.57135205642
 20
-1194.1622010529
 30
0.0
 11
1998.57135205642
 21
-1197.96220721304
 31
0.0
  0
LINE
  5
   5C1
  8
0
  6
CONTINUOUS
 62
     7
 10
2007.87131338297
 20
-1190.60221320689
 30
0.0
 11
2010.07131341575
 21
-1190.60221320689
 31
0.0
  0
LINE
  5
   5C2
  8
0
  6
CONTINUOUS
 62
     7
 10
2007.87131338297
 20
-1189.80221319497
 30
0.0
 11
2010.07131341575
 21
-1189.80221319497
 31
0.0
  0
LINE
  5
   5C3
  8
0
  6
CONTINUOUS
 62
     7
 10
2010.07131341575
 20
-1189.80221319497
 30
0.0
 11
2010.07131341575
 21
-1190.60221320689
 31
0.0
  0
LINE
  5
   5C4
  8
0
  6
CONTINUOUS
 62
     7
 10
2007.87131338297
 20
-1189.80221319497
 30
0.0
 11
2007.87131338297
 21
-1190.60221320689
 31
0.0
  0
LINE
  5
   5C5
  8
0
  6
DOT
 62
     7
 10
2008.67131339489
 20
-1189.80221319497
 30
0.0
 11
2008.67131339489
 21
-1190.60221320689
 31
0.0
  0
LINE
  5
   5C6
  8
0
  6
DOT
 62
     7
 10
2009.27131340383
 20
-1189.80221319497
 30
0.0
 11
2009.27131340383
 21
-1190.60221320689
 31
0.0
  0
LINE
  5
   5C7
  8
0
  6
CONTINUOUS
 62
     7
 10
2009.17134155168
 20
-1155.26222943387
 30
0.0
 11
2009.17134155168
 21
-1162.16221888661
 31
0.0
  0
LINE
  5
   5C8
  8
0
  6
CONTINUOUS
 62
     7
 10
2009.89134156241
 20
-1155.26222943387
 30
0.0
 11
2009.89134156241
 21
-1162.16221888661
 31
0.0
  0
LINE
  5
   5C9
  8
0
  6
CONTINUOUS
 62
     7
 10
2010.61134157314
 20
-1155.26222943387
 30
0.0
 11
2010.61134157314
 21
-1162.16221888661
 31
0.0
  0
LINE
  5
   5CA
  8
0
  6
DASHDOT
 62
     7
 10
2013.9713587512
 20
-1105.56227477321
 30
0.0
 11
2013.97135723035
 21
-1145.43036801327
 31
0.0
  0
LINE
  5
   5CB
  8
0
  6
CONTINUOUS
 62
     7
 10
1988.7713516542
 20
-1112.16225164873
 30
0.0
 11
1988.77135174575
 21
-1112.76225165767
 31
0.0
  0
LINE
  5
   5CC
  8
0
  6
DASHDOT
 62
     7
 10
2013.97136761014
 20
-1105.56227477321
 30
0.0
 11
2013.97136761014
 21
-1206.78195410798
 31
0.0
  0
LINE
  5
   5CD
  8
0
  6
CONTINUOUS
 62
     7
 10
1997.65134144106
 20
-1105.56227477321
 30
0.0
 11
1997.65134144106
 21
-1112.6622362999
 31
0.0
  0
LINE
  5
   5CE
  8
0
  6
CONTINUOUS
 62
     7
 10
1996.93134143033
 20
-1105.56227477321
 30
0.0
 11
1996.93134143033
 21
-1112.6622362999
 31
0.0
  0
LINE
  5
   5CF
  8
0
  6
CONTINUOUS
 62
     7
 10
1996.2113414196
 20
-1105.56227477321
 30
0.0
 11
1996.2113414196
 21
-1112.6622362999
 31
0.0
  0
LINE
  5
   5D0
  8
0
  6
CONTINUOUS
 62
     7
 10
1995.49134140887
 20
-1105.56227477321
 30
0.0
 11
1995.49134140887
 21
-1112.6622362999
 31
0.0
  0
LINE
  5
   5D1
  8
0
  6
CONTINUOUS
 62
     7
 10
1998.37134145178
 20
-1105.56227477321
 30
0.0
 11
1998.37134145178
 21
-1112.6622362999
 31
0.0
  0
LINE
  5
   5D2
  8
0
  6
CONTINUOUS
 62
     7
 10
1999.09134146251
 20
-1105.56227477321
 30
0.0
 11
1999.09134146251
 21
-1112.6622362999
 31
0.0
  0
LINE
  5
   5D3
  8
0
  6
CONTINUOUS
 62
     7
 10
1999.81134147324
 20
-1105.56227477321
 30
0.0
 11
1999.81134147324
 21
-1112.6622362999
 31
0.0
  0
LINE
  5
   5D4
  8
0
  6
CONTINUOUS
 62
     7
 10
2000.53134148397
 20
-1105.56227477321
 30
0.0
 11
2000.53134148397
 21
-1112.6622362999
 31
0.0
  0
LINE
  5
   5D5
  8
0
  6
CONTINUOUS
 62
     7
 10
2001.2513414947
 20
-1105.56227477321
 30
0.0
 11
2001.2513414947
 21
-1112.6622362999
 31
0.0
  0
LINE
  5
   5D6
  8
0
  6
CONTINUOUS
 62
     7
 10
2001.97134150543
 20
-1105.56227477321
 30
0.0
 11
2001.97134150543
 21
-1112.6622362999
 31
0.0
  0
LINE
  5
   5D7
  8
0
  6
CONTINUOUS
 62
     7
 10
2002.69134151616
 20
-1105.56227477321
 30
0.0
 11
2002.69134151616
 21
-1112.6622362999
 31
0.0
  0
LINE
  5
   5D8
  8
0
  6
CONTINUOUS
 62
     7
 10
2003.41134152689
 20
-1105.56227477321
 30
0.0
 11
2003.41134152689
 21
-1112.6622362999
 31
0.0
  0
LINE
  5
   5D9
  8
0
  6
CONTINUOUS
 62
     7
 10
2004.13134153762
 20
-1105.56227477321
 30
0.0
 11
2004.13134153762
 21
-1112.6622362999
 31
0.0
  0
LINE
  5
   5DA
  8
0
  6
CONTINUOUS
 62
     7
 10
2004.85134154834
 20
-1105.56227477321
 30
0.0
 11
2004.85134154834
 21
-1112.6622362999
 31
0.0
  0
LINE
  5
   5DB
  8
0
  6
CONTINUOUS
 62
     7
 10
2005.57134155907
 20
-1105.56227477321
 30
0.0
 11
2005.57134155907
 21
-1112.6622362999
 31
0.0
  0
LINE
  5
   5DC
  8
0
  6
CONTINUOUS
 62
     7
 10
2006.2913415698
 20
-1105.56227477321
 30
0.0
 11
2006.2913415698
 21
-1112.6622362999
 31
0.0
  0
LINE
  5
   5DD
  8
0
  6
CONTINUOUS
 62
     7
 10
2007.01134158053
 20
-1105.56227477321
 30
0.0
 11
2007.01134158053
 21
-1112.6622362999
 31
0.0
  0
LINE
  5
   5DE
  8
0
  6
CONTINUOUS
 62
     7
 10
2007.73134159126
 20
-1105.56227477321
 30
0.0
 11
2007.73134159126
 21
-1106.95508404167
 31
0.0
  0
LINE
  5
   5DF
  8
0
  6
CONTINUOUS
 62
     7
 10
2008.45134160199
 20
-1105.56227477321
 30
0.0
 11
2008.45134160199
 21
-1107.01506563968
 31
0.0
  0
LINE
  5
   5E0
  8
0
  6
CONTINUOUS
 62
     7
 10
2009.17134161272
 20
-1105.56227477321
 30
0.0
 11
2009.17134161272
 21
-1106.47523125753
 31
0.0
  0
LINE
  5
   5E1
  8
0
  6
CONTINUOUS
 62
     7
 10
2009.89134162345
 20
-1105.56227477321
 30
0.0
 11
2009.89134162345
 21
-1106.83512084563
 31
0.0
  0
LINE
  5
   5E2
  8
0
  6
CONTINUOUS
 62
     7
 10
2010.61134163418
 20
-1105.56227477321
 30
0.0
 11
2010.61134163418
 21
-1112.76225165767
 31
0.0
  0
LINE
  5
   5E3
  8
0
  6
CONTINUOUS
 62
     7
 10
2011.3313416449
 20
-1105.56227477321
 30
0.0
 11
2011.3313416449
 21
-1107.48899677207
 31
0.0
  0
LINE
  5
   5E4
  8
0
  6
CONTINUOUS
 62
     7
 10
2012.05134165563
 20
-1105.56227477321
 30
0.0
 11
2012.05134165563
 21
-1107.54650582045
 31
0.0
  0
LINE
  5
   5E5
  8
0
  6
CONTINUOUS
 62
     7
 10
2012.77134166636
 20
-1105.56227477321
 30
0.0
 11
2012.77134166636
 21
-1107.48899677207
 31
0.0
  0
LINE
  5
   5E6
  8
0
  6
CONTINUOUS
 62
     7
 10
2013.49134167709
 20
-1105.56227477321
 30
0.0
 11
2013.49134167709
 21
-1107.51775129626
 31
0.0
  0
LINE
  5
   5E7
  8
0
  6
CONTINUOUS
 62
     7
 10
2014.21134168782
 20
-1105.56227477321
 30
0.0
 11
2014.21134168782
 21
-1107.54650582045
 31
0.0
  0
LINE
  5
   5E8
  8
0
  6
CONTINUOUS
 62
     7
 10
2014.93134169855
 20
-1105.56227477321
 30
0.0
 11
2014.93134169855
 21
-1107.48899677207
 31
0.0
  0
LINE
  5
   5E9
  8
0
  6
CONTINUOUS
 62
     7
 10
2015.65134170928
 20
-1105.56227477321
 30
0.0
 11
2015.65134170928
 21
-1107.60401486883
 31
0.0
  0
LINE
  5
   5EA
  8
0
  6
CONTINUOUS
 62
     7
 10
2023.57134182729
 20
-1105.56227477321
 30
0.0
 11
2023.57134182729
 21
-1112.6622362999
 31
0.0
  0
LINE
  5
   5EB
  8
0
  6
CONTINUOUS
 62
     7
 10
2024.29134183802
 20
-1105.56227477321
 30
0.0
 11
2024.29134183802
 21
-1112.6622362999
 31
0.0
  0
LINE
  5
   5EC
  8
0
  6
CONTINUOUS
 62
     7
 10
2025.01134184875
 20
-1105.56227477321
 30
0.0
 11
2025.01134184875
 21
-1112.6622362999
 31
0.0
  0
LINE
  5
   5ED
  8
0
  6
CONTINUOUS
 62
     7
 10
2025.73134185948
 20
-1105.56227477321
 30
0.0
 11
2025.73134185948
 21
-1112.6622362999
 31
0.0
  0
LINE
  5
   5EE
  8
0
  6
CONTINUOUS
 62
     7
 10
1994.77134139814
 20
-1105.56227477321
 30
0.0
 11
1994.77134139814
 21
-1112.6622362999
 31
0.0
  0
LINE
  5
   5EF
  8
0
  6
CONTINUOUS
 62
     7
 10
1994.05134138741
 20
-1105.56227477321
 30
0.0
 11
1994.05134138741
 21
-1112.6622362999
 31
0.0
  0
LINE
  5
   5F0
  8
0
  6
CONTINUOUS
 62
     7
 10
1993.33134137668
 20
-1105.56227477321
 30
0.0
 11
1993.33134137668
 21
-1112.6622362999
 31
0.0
  0
LINE
  5
   5F1
  8
0
  6
CONTINUOUS
 62
     7
 10
1992.61134136595
 20
-1105.56227477321
 30
0.0
 11
1992.61134136595
 21
-1112.6622362999
 31
0.0
  0
LINE
  5
   5F2
  8
0
  6
CONTINUOUS
 62
     7
 10
1991.89134135522
 20
-1105.56227477321
 30
0.0
 11
1991.89134135522
 21
-1112.6622362999
 31
0.0
  0
LINE
  5
   5F3
  8
0
  6
CONTINUOUS
 62
     7
 10
1991.1713413445
 20
-1105.56227477321
 30
0.0
 11
1991.1713413445
 21
-1112.6622362999
 31
0.0
  0
LINE
  5
   5F4
  8
0
  6
CONTINUOUS
 62
     7
 10
1990.45134133377
 20
-1105.56227477321
 30
0.0
 11
1990.45134133377
 21
-1112.6622362999
 31
0.0
  0
LINE
  5
   5F5
  8
0
  6
CONTINUOUS
 62
     7
 10
1989.73134132304
 20
-1105.56227477321
 30
0.0
 11
1989.73134132304
 21
-1112.6622362999
 31
0.0
  0
LINE
  5
   5F6
  8
0
  6
CONTINUOUS
 62
     7
 10
1989.01134131231
 20
-1105.56227477321
 30
0.0
 11
1989.01134131231
 21
-1112.6622362999
 31
0.0
  0
LINE
  5
   5F7
  8
0
  6
CONTINUOUS
 62
     7
 10
2028.6113419024
 20
-1105.56227477321
 30
0.0
 11
2028.6113419024
 21
-1112.6622362999
 31
0.0
  0
LINE
  5
   5F8
  8
0
  6
CONTINUOUS
 62
     7
 10
2027.89134189167
 20
-1105.56227477321
 30
0.0
 11
2027.89134189167
 21
-1112.6622362999
 31
0.0
  0
LINE
  5
   5F9
  8
0
  6
CONTINUOUS
 62
     7
 10
2027.17134188094
 20
-1105.56227477321
 30
0.0
 11
2027.17134188094
 21
-1112.6622362999
 31
0.0
  0
LINE
  5
   5FA
  8
0
  6
CONTINUOUS
 62
     7
 10
2026.45134187021
 20
-1105.56227477321
 30
0.0
 11
2026.45134187021
 21
-1112.6622362999
 31
0.0
  0
LINE
  5
   5FB
  8
0
  6
CONTINUOUS
 62
     7
 10
2007.73134159126
 20
-1105.56227477321
 30
0.0
 11
2007.73134159126
 21
-1112.6622362999
 31
0.0
  0
LINE
  5
   5FC
  8
0
  6
CONTINUOUS
 62
     7
 10
2009.17134161272
 20
-1105.56227477321
 30
0.0
 11
2009.17134161272
 21
-1112.6622362999
 31
0.0
  0
CIRCLE
  5
   5FD
  8
0
  6
CONTINUOUS
 62
     7
 10
2023.97142627163
 20
-1107.8623035267
 30
0.0
 40
1.20000001788139
  0
LINE
  5
   5FE
  8
0
  6
DOT
 62
     7
 10
2022.80953125045
 20
-1108.16230353117
 30
0.0
 11
2025.1333212928
 21
-1108.16230353117
 31
0.0
  0
LINE
  5
   5FF
  8
0
  6
DOT
 62
     7
 10
2022.80953125045
 20
-1107.56230352223
 30
0.0
 11
2025.1333212928
 21
-1107.56230352223
 31
0.0
  0
LINE
  5
   600
  8
0
  6
CONTINUOUS
 62
     7
 10
2019.49139361829
 20
-1105.56227477321
 30
0.0
 11
2019.49139361829
 21
-1107.01506563968
 31
0.0
  0
LINE
  5
   601
  8
0
  6
CONTINUOUS
 62
     7
 10
2018.77139360756
 20
-1105.56227477321
 30
0.0
 11
2018.77139360756
 21
-1112.6622362999
 31
0.0
  0
LINE
  5
   602
  8
0
  6
CONTINUOUS
 62
     7
 10
2018.05139359683
 20
-1105.56227477321
 30
0.0
 11
2018.05139359683
 21
-1106.83512084563
 31
0.0
  0
LINE
  5
   603
  8
0
  6
CONTINUOUS
 62
     7
 10
2017.3313935861
 20
-1105.56227477321
 30
0.0
 11
2017.3313935861
 21
-1108.03475280598
 31
0.0
  0
LINE
  5
   604
  8
0
  6
CONTINUOUS
 62
     7
 10
2020.21139362902
 20
-1105.56227477321
 30
0.0
 11
2020.21139362902
 21
-1106.95508404167
 31
0.0
  0
LINE
  5
   605
  8
0
  6
CONTINUOUS
 62
     7
 10
2020.93139363975
 20
-1105.56227477321
 30
0.0
 11
2020.93139363975
 21
-1112.6622362999
 31
0.0
  0
LINE
  5
   606
  8
0
  6
CONTINUOUS
 62
     7
 10
2021.65139365048
 20
-1105.56227477321
 30
0.0
 11
2021.65139365048
 21
-1112.6622362999
 31
0.0
  0
LINE
  5
   607
  8
0
  6
CONTINUOUS
 62
     7
 10
2020.21139362902
 20
-1105.56227477321
 30
0.0
 11
2020.21139362902
 21
-1112.6622362999
 31
0.0
  0
LINE
  5
   608
  8
0
  6
CONTINUOUS
 62
     7
 10
2017.3313935861
 20
-1105.56227477321
 30
0.0
 11
2017.3313935861
 21
-1112.6622362999
 31
0.0
  0
LINE
  5
   609
  8
0
  6
CONTINUOUS
 62
     7
 10
2022.61136773889
 20
-1105.56227477321
 30
0.0
 11
2022.61136773889
 21
-1112.76225165767
 31
0.0
  0
LINE
  5
   60A
  8
0
  6
CONTINUOUS
 62
     7
 10
2011.3313416449
 20
-1105.56227477321
 30
0.0
 11
2011.3313416449
 21
-1112.6622362999
 31
0.0
  0
LINE
  5
   60B
  8
0
  6
CONTINUOUS
 62
     7
 10
2012.77134166636
 20
-1105.56227477321
 30
0.0
 11
2012.77134166636
 21
-1112.6622362999
 31
0.0
  0
LINE
  5
   60C
  8
0
  6
CONTINUOUS
 62
     7
 10
2014.21134168782
 20
-1105.56227477321
 30
0.0
 11
2014.21134168782
 21
-1112.6622362999
 31
0.0
  0
LINE
  5
   60D
  8
0
  6
CONTINUOUS
 62
     7
 10
2015.65134170928
 20
-1105.56227477321
 30
0.0
 11
2015.65134170928
 21
-1112.6622362999
 31
0.0
  0
LINE
  5
   60E
  8
0
  6
CONTINUOUS
 62
     7
 10
2016.37134172001
 20
-1105.56227477321
 30
0.0
 11
2016.37134172001
 21
-1112.6622362999
 31
0.0
  0
LINE
  5
   60F
  8
0
  6
CONTINUOUS
 62
     7
 10
2009.17134155168
 20
-1203.64922760424
 30
0.0
 11
2009.17134155168
 21
-1205.16227625736
 31
0.0
  0
LINE
  5
   610
  8
0
  6
CONTINUOUS
 62
     7
 10
1997.65134138002
 20
-1197.96220721304
 30
0.0
 11
1997.65134138002
 21
-1205.16227625736
 31
0.0
  0
LINE
  5
   611
  8
0
  6
CONTINUOUS
 62
     7
 10
1996.93134136929
 20
-1197.96220721304
 30
0.0
 11
1996.93134136929
 21
-1205.16227625736
 31
0.0
  0
LINE
  5
   612
  8
0
  6
CONTINUOUS
 62
     7
 10
1996.21134135856
 20
-1197.96220721304
 30
0.0
 11
1996.21134135856
 21
-1205.16227625736
 31
0.0
  0
LINE
  5
   613
  8
0
  6
CONTINUOUS
 62
     7
 10
1995.49134134783
 20
-1197.96220721304
 30
0.0
 11
1995.49134134783
 21
-1205.16227625736
 31
0.0
  0
LINE
  5
   614
  8
0
  6
CONTINUOUS
 62
     7
 10
1998.37134139075
 20
-1197.96220721304
 30
0.0
 11
1998.37134139075
 21
-1205.16227625736
 31
0.0
  0
LINE
  5
   615
  8
0
  6
CONTINUOUS
 62
     7
 10
1999.09134140148
 20
-1197.96220721304
 30
0.0
 11
1999.09134140148
 21
-1205.16227625736
 31
0.0
  0
LINE
  5
   616
  8
0
  6
CONTINUOUS
 62
     7
 10
1999.81134141221
 20
-1197.96220721304
 30
0.0
 11
1999.81134141221
 21
-1205.16227625736
 31
0.0
  0
LINE
  5
   617
  8
0
  6
CONTINUOUS
 62
     7
 10
2000.53134142294
 20
-1197.96220721304
 30
0.0
 11
2000.53134142294
 21
-1205.16227625736
 31
0.0
  0
LINE
  5
   618
  8
0
  6
CONTINUOUS
 62
     7
 10
2001.25134143366
 20
-1197.96220721304
 30
0.0
 11
2001.25134143366
 21
-1205.16227625736
 31
0.0
  0
LINE
  5
   619
  8
0
  6
CONTINUOUS
 62
     7
 10
2001.97134144439
 20
-1197.96220721304
 30
0.0
 11
2001.97134144439
 21
-1205.16227625736
 31
0.0
  0
LINE
  5
   61A
  8
0
  6
CONTINUOUS
 62
     7
 10
2002.69134145512
 20
-1197.96220721304
 30
0.0
 11
2002.69134145512
 21
-1205.16227625736
 31
0.0
  0
LINE
  5
   61B
  8
0
  6
CONTINUOUS
 62
     7
 10
2003.41134146585
 20
-1197.96220721304
 30
0.0
 11
2003.41134146585
 21
-1205.16227625736
 31
0.0
  0
LINE
  5
   61C
  8
0
  6
CONTINUOUS
 62
     7
 10
2004.13134147658
 20
-1197.96220721304
 30
0.0
 11
2004.13134147658
 21
-1205.16227625736
 31
0.0
  0
LINE
  5
   61D
  8
0
  6
CONTINUOUS
 62
     7
 10
2004.85134148731
 20
-1197.96220721304
 30
0.0
 11
2004.85134148731
 21
-1205.16227625736
 31
0.0
  0
LINE
  5
   61E
  8
0
  6
CONTINUOUS
 62
     7
 10
2005.57134149804
 20
-1197.96220721304
 30
0.0
 11
2005.57134149804
 21
-1205.16227625736
 31
0.0
  0
LINE
  5
   61F
  8
0
  6
CONTINUOUS
 62
     7
 10
2006.29134150877
 20
-1197.96220721304
 30
0.0
 11
2006.29134150877
 21
-1205.16227625736
 31
0.0
  0
LINE
  5
   620
  8
0
  6
CONTINUOUS
 62
     7
 10
2007.0113415195
 20
-1197.96220721304
 30
0.0
 11
2007.0113415195
 21
-1205.16227625736
 31
0.0
  0
LINE
  5
   621
  8
0
  6
CONTINUOUS
 62
     7
 10
2007.73134153022
 20
-1203.16937482011
 30
0.0
 11
2007.73134153022
 21
-1205.16227625736
 31
0.0
  0
LINE
  5
   622
  8
0
  6
CONTINUOUS
 62
     7
 10
2008.45134154095
 20
-1203.10939322209
 30
0.0
 11
2008.45134154095
 21
-1205.16227625736
 31
0.0
  0
LINE
  5
   623
  8
0
  6
CONTINUOUS
 62
     7
 10
2009.17134155168
 20
-1203.64922760424
 30
0.0
 11
2009.17134155168
 21
-1205.16227625736
 31
0.0
  0
LINE
  5
   624
  8
0
  6
CONTINUOUS
 62
     7
 10
2009.89134156241
 20
-1203.28933801614
 30
0.0
 11
2009.89134156241
 21
-1205.16227625736
 31
0.0
  0
LINE
  5
   625
  8
0
  6
CONTINUOUS
 62
     7
 10
2010.61134157314
 20
-1197.96220721304
 30
0.0
 11
2010.61134157314
 21
-1205.16227625736
 31
0.0
  0
LINE
  5
   626
  8
0
  6
CONTINUOUS
 62
     7
 10
2011.33134158387
 20
-1202.63546208971
 30
0.0
 11
2011.33134158387
 21
-1205.16227625736
 31
0.0
  0
LINE
  5
   627
  8
0
  6
CONTINUOUS
 62
     7
 10
2012.0513415946
 20
-1202.57795304133
 30
0.0
 11
2012.0513415946
 21
-1205.16227625736
 31
0.0
  0
LINE
  5
   628
  8
0
  6
CONTINUOUS
 62
     7
 10
2012.77134160533
 20
-1202.63546208971
 30
0.0
 11
2012.77134160533
 21
-1205.16227625736
 31
0.0
  0
LINE
  5
   629
  8
0
  6
CONTINUOUS
 62
     7
 10
2013.49134161605
 20
-1202.60670756552
 30
0.0
 11
2013.49134161605
 21
-1205.16227625736
 31
0.0
  0
LINE
  5
   62A
  8
0
  6
CONTINUOUS
 62
     7
 10
2014.21134162678
 20
-1202.57795304133
 30
0.0
 11
2014.21134162678
 21
-1205.16227625736
 31
0.0
  0
LINE
  5
   62B
  8
0
  6
CONTINUOUS
 62
     7
 10
2014.93134163751
 20
-1202.63546208971
 30
0.0
 11
2014.93134163751
 21
-1205.16227625736
 31
0.0
  0
LINE
  5
   62C
  8
0
  6
CONTINUOUS
 62
     7
 10
2015.65134164824
 20
-1202.52044399295
 30
0.0
 11
2015.65134164824
 21
-1205.16227625736
 31
0.0
  0
LINE
  5
   62D
  8
0
  6
CONTINUOUS
 62
     7
 10
2016.37134165897
 20
-1202.63546208971
 30
0.0
 11
2016.37134165897
 21
-1205.16227625736
 31
0.0
  0
LINE
  5
   62E
  8
0
  6
CONTINUOUS
 62
     7
 10
2023.57134176626
 20
-1197.96220721304
 30
0.0
 11
2023.57134176626
 21
-1205.16227625736
 31
0.0
  0
LINE
  5
   62F
  8
0
  6
CONTINUOUS
 62
     7
 10
2024.29134177699
 20
-1197.96220721304
 30
0.0
 11
2024.29134177699
 21
-1205.16227625736
 31
0.0
  0
LINE
  5
   630
  8
0
  6
CONTINUOUS
 62
     7
 10
2025.01134178772
 20
-1197.96220721304
 30
0.0
 11
2025.01134178772
 21
-1205.16227625736
 31
0.0
  0
LINE
  5
   631
  8
0
  6
CONTINUOUS
 62
     7
 10
2025.73134179845
 20
-1197.96220721304
 30
0.0
 11
2025.73134179845
 21
-1205.16227625736
 31
0.0
  0
LINE
  5
   632
  8
0
  6
CONTINUOUS
 62
     7
 10
1994.7713413371
 20
-1197.96220721304
 30
0.0
 11
1994.7713413371
 21
-1205.16227625736
 31
0.0
  0
LINE
  5
   633
  8
0
  6
CONTINUOUS
 62
     7
 10
1994.05134132638
 20
-1197.96220721304
 30
0.0
 11
1994.05134132638
 21
-1205.16227625736
 31
0.0
  0
LINE
  5
   634
  8
0
  6
CONTINUOUS
 62
     7
 10
1993.33134131565
 20
-1197.96220721304
 30
0.0
 11
1993.33134131565
 21
-1205.16227625736
 31
0.0
  0
LINE
  5
   635
  8
0
  6
CONTINUOUS
 62
     7
 10
1992.61134130492
 20
-1197.96220721304
 30
0.0
 11
1992.61134130492
 21
-1205.16227625736
 31
0.0
  0
LINE
  5
   636
  8
0
  6
CONTINUOUS
 62
     7
 10
1991.89134129419
 20
-1197.96220721304
 30
0.0
 11
1991.89134129419
 21
-1205.16227625736
 31
0.0
  0
LINE
  5
   637
  8
0
  6
CONTINUOUS
 62
     7
 10
1991.17134128346
 20
-1197.96220721304
 30
0.0
 11
1991.17134128346
 21
-1205.16227625736
 31
0.0
  0
LINE
  5
   638
  8
0
  6
CONTINUOUS
 62
     7
 10
1990.45134127273
 20
-1197.96220721304
 30
0.0
 11
1990.45134127273
 21
-1205.16227625736
 31
0.0
  0
LINE
  5
   639
  8
0
  6
CONTINUOUS
 62
     7
 10
1989.731341262
 20
-1197.96220721304
 30
0.0
 11
1989.731341262
 21
-1205.16227625736
 31
0.0
  0
LINE
  5
   63A
  8
0
  6
CONTINUOUS
 62
     7
 10
1989.01134125127
 20
-1197.96220721304
 30
0.0
 11
1989.01134125127
 21
-1205.16227625736
 31
0.0
  0
LINE
  5
   63B
  8
0
  6
CONTINUOUS
 62
     7
 10
2026.45134180917
 20
-1197.96220721304
 30
0.0
 11
2026.45134180917
 21
-1205.16227625736
 31
0.0
  0
LINE
  5
   63C
  8
0
  6
CONTINUOUS
 62
     7
 10
2007.73134153022
 20
-1197.96220721304
 30
0.0
 11
2007.73134153022
 21
-1205.16227625736
 31
0.0
  0
LINE
  5
   63D
  8
0
  6
CONTINUOUS
 62
     7
 10
2009.17134155168
 20
-1197.96220721304
 30
0.0
 11
2009.17134155168
 21
-1205.16227625736
 31
0.0
  0
CIRCLE
  5
   63E
  8
0
  6
CONTINUOUS
 62
     7
 10
2023.97142621059
 20
-1202.26215533507
 30
0.0
 40
1.20000001788139
  0
LINE
  5
   63F
  8
0
  6
DOT
 62
     7
 10
2022.80953118942
 20
-1201.9621553306
 30
0.0
 11
2025.13332123177
 21
-1201.9621553306
 31
0.0
  0
LINE
  5
   640
  8
0
  6
DOT
 62
     7
 10
2022.80953118942
 20
-1202.56215533954
 30
0.0
 11
2025.13332123177
 21
-1202.56215533954
 31
0.0
  0
LINE
  5
   641
  8
0
  6
CONTINUOUS
 62
     7
 10
2019.49139355726
 20
-1203.10939322209
 30
0.0
 11
2019.49139355726
 21
-1205.16227625736
 31
0.0
  0
LINE
  5
   642
  8
0
  6
CONTINUOUS
 62
     7
 10
2018.77139354653
 20
-1203.64922760424
 30
0.0
 11
2018.77139354653
 21
-1205.16227625736
 31
0.0
  0
LINE
  5
   643
  8
0
  6
CONTINUOUS
 62
     7
 10
2018.0513935358
 20
-1203.28933801614
 30
0.0
 11
2018.0513935358
 21
-1205.16227625736
 31
0.0
  0
LINE
  5
   644
  8
0
  6
CONTINUOUS
 62
     7
 10
2017.33139352507
 20
-1202.0897060558
 30
0.0
 11
2017.33139352507
 21
-1205.16227625736
 31
0.0
  0
LINE
  5
   645
  8
0
  6
CONTINUOUS
 62
     7
 10
2020.21139356798
 20
-1203.16937482011
 30
0.0
 11
2020.21139356798
 21
-1205.16227625736
 31
0.0
  0
LINE
  5
   646
  8
0
  6
CONTINUOUS
 62
     7
 10
2020.93139357871
 20
-1197.96220721304
 30
0.0
 11
2020.93139357871
 21
-1205.16227625736
 31
0.0
  0
LINE
  5
   647
  8
0
  6
CONTINUOUS
 62
     7
 10
2021.65139358944
 20
-1197.96220721304
 30
0.0
 11
2021.65139358944
 21
-1205.16227625736
 31
0.0
  0
LINE
  5
   648
  8
0
  6
CONTINUOUS
 62
     7
 10
2018.0513935358
 20
-1197.96220721304
 30
0.0
 11
2018.0513935358
 21
-1205.16227625736
 31
0.0
  0
LINE
  5
   649
  8
0
  6
CONTINUOUS
 62
     7
 10
2022.61136767785
 20
-1197.96220721304
 30
0.0
 11
2022.61136767785
 21
-1205.16227625736
 31
0.0
  0
LINE
  5
   64A
  8
0
  6
CONTINUOUS
 62
     7
 10
2012.0513415946
 20
-1197.96220721304
 30
0.0
 11
2012.0513415946
 21
-1205.16227625736
 31
0.0
  0
LINE
  5
   64B
  8
0
  6
CONTINUOUS
 62
     7
 10
2013.49134161605
 20
-1197.96220721304
 30
0.0
 11
2013.49134161605
 21
-1205.16227625736
 31
0.0
  0
LINE
  5
   64C
  8
0
  6
CONTINUOUS
 62
     7
 10
2014.93134163751
 20
-1197.96220721304
 30
0.0
 11
2014.93134163751
 21
-1205.16227625736
 31
0.0
  0
LINE
  5
   64D
  8
0
  6
CONTINUOUS
 62
     7
 10
2016.37134165897
 20
-1197.96220721304
 30
0.0
 11
2016.37134165897
 21
-1205.16227625736
 31
0.0
  0
LINE
  5
   64E
  8
0
  6
CONTINUOUS
 62
     7
 10
2009.89134156241
 20
-1197.96220721304
 30
0.0
 11
2009.89134156241
 21
-1205.16227625736
 31
0.0
  0
LINE
  5
   64F
  8
0
  6
CONTINUOUS
 62
     7
 10
2008.45134154095
 20
-1197.96220721304
 30
0.0
 11
2008.45134154095
 21
-1205.16227625736
 31
0.0
  0
LINE
  5
   650
  8
0
  6
CONTINUOUS
 62
     7
 10
2011.33134158387
 20
-1197.96220721304
 30
0.0
 11
2011.33134158387
 21
-1205.16227625736
 31
0.0
  0
LINE
  5
   651
  8
0
  6
CONTINUOUS
 62
     7
 10
2012.77134160533
 20
-1197.96220721304
 30
0.0
 11
2012.77134160533
 21
-1205.16227625736
 31
0.0
  0
LINE
  5
   652
  8
0
  6
CONTINUOUS
 62
     7
 10
2014.21134162678
 20
-1197.96220721304
 30
0.0
 11
2014.21134162678
 21
-1205.16227625736
 31
0.0
  0
LINE
  5
   653
  8
0
  6
CONTINUOUS
 62
     7
 10
2015.65134164824
 20
-1197.96220721304
 30
0.0
 11
2015.65134164824
 21
-1205.16227625736
 31
0.0
  0
LINE
  5
   654
  8
0
  6
CONTINUOUS
 62
     7
 10
2017.33139352507
 20
-1197.96220721304
 30
0.0
 11
2017.33139352507
 21
-1205.16227625736
 31
0.0
  0
LINE
  5
   655
  8
0
  6
CONTINUOUS
 62
     7
 10
2018.77139354653
 20
-1197.96220721304
 30
0.0
 11
2018.77139354653
 21
-1205.16227625736
 31
0.0
  0
LINE
  5
   656
  8
0
  6
CONTINUOUS
 62
     7
 10
2019.49139355726
 20
-1197.96220721304
 30
0.0
 11
2019.49139355726
 21
-1205.16227625736
 31
0.0
  0
LINE
  5
   657
  8
0
  6
CONTINUOUS
 62
     7
 10
2020.21139356798
 20
-1197.96220721304
 30
0.0
 11
2020.21139356798
 21
-1205.16227625736
 31
0.0
  0
LINE
  5
   658
  8
0
  6
CONTINUOUS
 62
     7
 10
2019.49139361829
 20
-1105.56227477321
 30
0.0
 11
2019.49139361829
 21
-1112.6622362999
 31
0.0
  0
LINE
  5
   659
  8
0
  6
CONTINUOUS
 62
     7
 10
2018.05139359683
 20
-1105.56227477321
 30
0.0
 11
2018.05139359683
 21
-1112.6622362999
 31
0.0
  0
LINE
  5
   65A
  8
0
  6
CONTINUOUS
 62
     7
 10
2014.93134169855
 20
-1105.56227477321
 30
0.0
 11
2014.93134169855
 21
-1112.6622362999
 31
0.0
  0
LINE
  5
   65B
  8
0
  6
CONTINUOUS
 62
     7
 10
2013.49134167709
 20
-1105.56227477321
 30
0.0
 11
2013.49134167709
 21
-1112.6622362999
 31
0.0
  0
LINE
  5
   65C
  8
0
  6
CONTINUOUS
 62
     7
 10
2012.05134165563
 20
-1105.56227477321
 30
0.0
 11
2012.05134165563
 21
-1112.6622362999
 31
0.0
  0
LINE
  5
   65D
  8
0
  6
CONTINUOUS
 62
     7
 10
2009.89134162345
 20
-1105.56227477321
 30
0.0
 11
2009.89134162345
 21
-1112.6622362999
 31
0.0
  0
LINE
  5
   65E
  8
0
  6
CONTINUOUS
 62
     7
 10
2008.45134160199
 20
-1105.56227477321
 30
0.0
 11
2008.45134160199
 21
-1112.6622362999
 31
0.0
  0
LINE
  5
   65F
  8
0
  6
DASHDOT
 62
     7
 10
2023.97142627163
 20
-1102.66230344922
 30
0.0
 11
2023.97142627163
 21
-1113.06230360419
 31
0.0
  0
LINE
  5
   660
  8
0
  6
DASHDOT
 62
     7
 10
2018.77142619414
 20
-1107.8623035267
 30
0.0
 11
2029.17142634911
 21
-1107.8623035267
 31
0.0
  0
LINE
  5
   661
  8
0
  6
DASHDOT
 62
     7
 10
2023.97142621059
 20
-1197.06215525758
 30
0.0
 11
2023.97142621059
 21
-1207.46215541256
 31
0.0
  0
LINE
  5
   662
  8
0
  6
DASHDOT
 62
     7
 10
2018.7714261331
 20
-1202.26215533507
 30
0.0
 11
2029.17142628808
 21
-1202.26215533507
 31
0.0
  0
LINE
  5
   663
  8
0
  6
CONTINUOUS
 62
     7
 10
1988.77131459678
 20
-1155.26222943387
 30
0.0
 11
2029.17134097996
 21
-1155.26222943387
 31
0.0
  0
INSERT
  5
   664
  8
0
  6
CONTINUOUS
 62
     3
  2
*UDIM190
 10
0.0
 20
0.0
 30
0.0
  0
TEXT
  5
   665
  8
0
  6
CONTINUOUS
 62
     2
 10
2034.22605356347
 20
-1136.75341219939
 30
0.0
 40
2.99999994933605
  1
X
 50
359.999999844103
 41
0.916666718787619
 11
2034.22605356754
 21
-1135.25341222472
 31
0.0
 73
     2
  0
TEXT
  5
   666
  8
0
  6
CONTINUOUS
 62
     2
 10
2036.88855372644
 20
-1136.75341211667
 30
0.0
 40
1.49999997466803
  1
1
 50
359.999999844103
 41
0.75
 11
2036.88855372848
 21
-1136.00341212933
 31
0.0
 73
     2
  0
TEXT
  5
   667
  8
0
  6
CONTINUOUS
 62
     2
 10
2053.2204444617
 20
-1186.72523254909
 30
0.0
 40
2.99999994933605
  1
X
 50
359.999999844103
 41
0.916666718787619
 11
2053.22044446577
 21
-1185.22523257442
 31
0.0
 73
     2
  0
TEXT
  5
   668
  8
0
  6
CONTINUOUS
 62
     2
 10
2055.88294462467
 20
-1186.72523246637
 30
0.0
 40
1.49999997466803
  1
2
 50
359.999999844103
 41
0.75
 11
2055.88294462671
 21
-1185.97523247904
 31
0.0
 73
     2
  0
TEXT
  5
   669
  8
0
  6
CONTINUOUS
 62
     2
 10
1977.96509882093
 20
-1186.63148725956
 30
0.0
 40
2.99999994933605
  1
X
 50
359.999999844103
 41
0.916666718787619
 72
     2
 11
1980.165098977
 21
-1185.13148729087
 31
0.0
 73
     2
  0
TEXT
  5
   66A
  8
0
  6
CONTINUOUS
 62
     2
 10
1980.6275989839
 20
-1186.63148717684
 30
0.0
 40
1.49999997466803
  1
2
 50
359.999999844103
 41
0.75
 72
     2
 11
1981.37759897327
 21
-1185.88148719154
 31
0.0
 73
     2
  0
TEXT
  5
   66B
  8
0
  6
CONTINUOUS
 62
     2
 10
1977.18094291427
 20
-1136.63624985942
 30
0.0
 40
2.99999994933605
  1
X
 50
359.999999844103
 41
0.916666718787619
 72
     2
 11
1979.38094307034
 21
-1135.13624989073
 31
0.0
 73
     2
  0
TEXT
  5
   66C
  8
0
  6
CONTINUOUS
 62
     2
 10
1979.84344307724
 20
-1136.6362497767
 30
0.0
 40
1.49999997466803
  1
1
 50
359.999999844103
 41
0.75
 72
     2
 11
1980.59344306661
 21
-1135.8862497914
 31
0.0
 73
     2
  0
LINE
  5
   66D
  8
0
  6
CONTINUOUS
 62
     7
 10
1988.37136589994
 20
-1125.5622061342
 30
0.0
 11
1988.37136882962
 21
-1144.7622064203
 31
0.0
  0
LINE
  5
   66E
  8
0
  6
CONTINUOUS
 62
     7
 10
1997.65134485903
 20
-1125.5622061342
 30
0.0
 11
1997.65134192934
 21
-1144.7622064203
 31
0.0
  0
LINE
  5
   66F
  8
0
  6
CONTINUOUS
 62
     7
 10
1996.9313448483
 20
-1125.5622061342
 30
0.0
 11
1996.93134191861
 21
-1144.7622064203
 31
0.0
  0
LINE
  5
   670
  8
0
  6
CONTINUOUS
 62
     7
 10
1996.21134483757
 20
-1125.5622061342
 30
0.0
 11
1996.21134190788
 21
-1144.7622064203
 31
0.0
  0
LINE
  5
   671
  8
0
  6
CONTINUOUS
 62
     7
 10
1995.49134482684
 20
-1125.5622061342
 30
0.0
 11
1995.49134189716
 21
-1144.7622064203
 31
0.0
  0
LINE
  5
   672
  8
0
  6
CONTINUOUS
 62
     7
 10
1994.77134481611
 20
-1125.5622061342
 30
0.0
 11
1994.77134188643
 21
-1144.7622064203
 31
0.0
  0
LINE
  5
   673
  8
0
  6
CONTINUOUS
 62
     7
 10
1994.05134480538
 20
-1125.5622061342
 30
0.0
 11
1994.0513418757
 21
-1144.7622064203
 31
0.0
  0
LINE
  5
   674
  8
0
  6
CONTINUOUS
 62
     7
 10
1993.33134479466
 20
-1125.5622061342
 30
0.0
 11
1993.33134186497
 21
-1144.7622064203
 31
0.0
  0
LINE
  5
   675
  8
0
  6
CONTINUOUS
 62
     7
 10
1992.61134478393
 20
-1125.5622061342
 30
0.0
 11
1992.61134185424
 21
-1144.7622064203
 31
0.0
  0
LINE
  5
   676
  8
0
  6
CONTINUOUS
 62
     7
 10
1991.8913447732
 20
-1125.5622061342
 30
0.0
 11
1991.89134184351
 21
-1144.7622064203
 31
0.0
  0
LINE
  5
   677
  8
0
  6
CONTINUOUS
 62
     7
 10
1991.17134476247
 20
-1125.5622061342
 30
0.0
 11
1991.17134183278
 21
-1144.7622064203
 31
0.0
  0
LINE
  5
   678
  8
0
  6
CONTINUOUS
 62
     7
 10
1990.45134475174
 20
-1125.5622061342
 30
0.0
 11
1990.45134182205
 21
-1144.7622064203
 31
0.0
  0
LINE
  5
   679
  8
0
  6
CONTINUOUS
 62
     7
 10
1989.73134474101
 20
-1125.5622061342
 30
0.0
 11
1989.73134181132
 21
-1144.7622064203
 31
0.0
  0
LINE
  5
   67A
  8
0
  6
CONTINUOUS
 62
     7
 10
1989.01134473028
 20
-1125.5622061342
 30
0.0
 11
1989.0113418006
 21
-1144.7622064203
 31
0.0
  0
LINE
  5
   67B
  8
0
  6
CONTINUOUS
 62
     7
 10
2029.57134533467
 20
-1125.5622061342
 30
0.0
 11
2029.57134240499
 21
-1144.7622064203
 31
0.0
  0
LINE
  5
   67C
  8
0
  6
CONTINUOUS
 62
     7
 10
1997.65134138002
 20
-1154.36220656335
 30
0.0
 11
1997.65134138002
 21
-1154.86222942791
 31
0.0
  0
LINE
  5
   67D
  8
0
  6
CONTINUOUS
 62
     7
 10
1996.93134136929
 20
-1154.36220656335
 30
0.0
 11
1996.93134136929
 21
-1154.86222942791
 31
0.0
  0
LINE
  5
   67E
  8
0
  6
CONTINUOUS
 62
     7
 10
1996.21134135856
 20
-1154.36220656335
 30
0.0
 11
1996.21134135856
 21
-1154.86222942791
 31
0.0
  0
LINE
  5
   67F
  8
0
  6
CONTINUOUS
 62
     7
 10
1995.49134134783
 20
-1154.36220656335
 30
0.0
 11
1995.49134134783
 21
-1154.86222942791
 31
0.0
  0
LINE
  5
   680
  8
0
  6
CONTINUOUS
 62
     7
 10
1998.37134139075
 20
-1154.36220656335
 30
0.0
 11
1998.37134139075
 21
-1154.86222942791
 31
0.0
  0
LINE
  5
   681
  8
0
  6
CONTINUOUS
 62
     7
 10
1999.09134140148
 20
-1154.36220656335
 30
0.0
 11
1999.09134140148
 21
-1154.86222942791
 31
0.0
  0
LINE
  5
   682
  8
0
  6
CONTINUOUS
 62
     7
 10
1999.81134141221
 20
-1154.36220656335
 30
0.0
 11
1999.81134141221
 21
-1154.86222942791
 31
0.0
  0
LINE
  5
   683
  8
0
  6
CONTINUOUS
 62
     7
 10
2000.53134142294
 20
-1154.36220656335
 30
0.0
 11
2000.53134142294
 21
-1154.86222942791
 31
0.0
  0
LINE
  5
   684
  8
0
  6
CONTINUOUS
 62
     7
 10
2001.25134143366
 20
-1154.36220656335
 30
0.0
 11
2001.25134143366
 21
-1154.86222942791
 31
0.0
  0
LINE
  5
   685
  8
0
  6
CONTINUOUS
 62
     7
 10
2001.97134144439
 20
-1154.36220656335
 30
0.0
 11
2001.97134144439
 21
-1154.86222942791
 31
0.0
  0
LINE
  5
   686
  8
0
  6
CONTINUOUS
 62
     7
 10
2002.69134145512
 20
-1154.36220656335
 30
0.0
 11
2002.69134145512
 21
-1154.86222942791
 31
0.0
  0
LINE
  5
   687
  8
0
  6
CONTINUOUS
 62
     7
 10
2003.41134146585
 20
-1154.36220656335
 30
0.0
 11
2003.41134146585
 21
-1154.86222942791
 31
0.0
  0
LINE
  5
   688
  8
0
  6
CONTINUOUS
 62
     7
 10
2004.13134147658
 20
-1154.36220656335
 30
0.0
 11
2004.13134147658
 21
-1154.86222942791
 31
0.0
  0
LINE
  5
   689
  8
0
  6
CONTINUOUS
 62
     7
 10
2004.85134148731
 20
-1154.36220656335
 30
0.0
 11
2004.85134148731
 21
-1154.86222942791
 31
0.0
  0
LINE
  5
   68A
  8
0
  6
CONTINUOUS
 62
     7
 10
2005.57134149804
 20
-1154.36220656335
 30
0.0
 11
2005.57134149804
 21
-1154.86222942791
 31
0.0
  0
LINE
  5
   68B
  8
0
  6
CONTINUOUS
 62
     7
 10
2006.29134150877
 20
-1154.36220656335
 30
0.0
 11
2006.29134150877
 21
-1154.86222942791
 31
0.0
  0
LINE
  5
   68C
  8
0
  6
CONTINUOUS
 62
     7
 10
2007.0113415195
 20
-1154.36220656335
 30
0.0
 11
2007.0113415195
 21
-1154.86222942791
 31
0.0
  0
LINE
  5
   68D
  8
0
  6
CONTINUOUS
 62
     7
 10
2007.73134153022
 20
-1154.36220656335
 30
0.0
 11
2007.73134153022
 21
-1154.86222942791
 31
0.0
  0
LINE
  5
   68E
  8
0
  6
CONTINUOUS
 62
     7
 10
2008.45134154095
 20
-1154.36220656335
 30
0.0
 11
2008.45134154095
 21
-1154.86222942791
 31
0.0
  0
LINE
  5
   68F
  8
0
  6
CONTINUOUS
 62
     7
 10
2011.33134158387
 20
-1154.36220656335
 30
0.0
 11
2011.33134158387
 21
-1154.86222942791
 31
0.0
  0
LINE
  5
   690
  8
0
  6
CONTINUOUS
 62
     7
 10
2012.0513415946
 20
-1154.36220656335
 30
0.0
 11
2012.0513415946
 21
-1154.86222942791
 31
0.0
  0
LINE
  5
   691
  8
0
  6
CONTINUOUS
 62
     7
 10
2012.77134160533
 20
-1154.36220656335
 30
0.0
 11
2012.77134160533
 21
-1154.86222942791
 31
0.0
  0
LINE
  5
   692
  8
0
  6
CONTINUOUS
 62
     7
 10
2013.49134161605
 20
-1154.36220656335
 30
0.0
 11
2013.49134161605
 21
-1154.86222942791
 31
0.0
  0
LINE
  5
   693
  8
0
  6
CONTINUOUS
 62
     7
 10
1994.7713413371
 20
-1154.36220656335
 30
0.0
 11
1994.7713413371
 21
-1154.86222942791
 31
0.0
  0
LINE
  5
   694
  8
0
  6
CONTINUOUS
 62
     7
 10
1994.05134132638
 20
-1154.36220656335
 30
0.0
 11
1994.05134132638
 21
-1154.86222942791
 31
0.0
  0
LINE
  5
   695
  8
0
  6
CONTINUOUS
 62
     7
 10
1993.33134131565
 20
-1154.36220656335
 30
0.0
 11
1993.33134131565
 21
-1154.86222942791
 31
0.0
  0
LINE
  5
   696
  8
0
  6
CONTINUOUS
 62
     7
 10
1992.61134130492
 20
-1154.36220656335
 30
0.0
 11
1992.61134130492
 21
-1154.86222942791
 31
0.0
  0
LINE
  5
   697
  8
0
  6
CONTINUOUS
 62
     7
 10
1991.89134129419
 20
-1154.36220656335
 30
0.0
 11
1991.89134129419
 21
-1154.86222942791
 31
0.0
  0
LINE
  5
   698
  8
0
  6
CONTINUOUS
 62
     7
 10
1991.17134128346
 20
-1154.36220656335
 30
0.0
 11
1991.17134128346
 21
-1154.86222942791
 31
0.0
  0
LINE
  5
   699
  8
0
  6
CONTINUOUS
 62
     7
 10
1990.45134127273
 20
-1154.36220656335
 30
0.0
 11
1990.45134127273
 21
-1154.86222942791
 31
0.0
  0
LINE
  5
   69A
  8
0
  6
CONTINUOUS
 62
     7
 10
1989.731341262
 20
-1154.36220656335
 30
0.0
 11
1989.731341262
 21
-1154.86222942791
 31
0.0
  0
LINE
  5
   69B
  8
0
  6
CONTINUOUS
 62
     7
 10
1989.01134125127
 20
-1154.36220656335
 30
0.0
 11
1989.01134125127
 21
-1154.86222942791
 31
0.0
  0
LINE
  5
   69C
  8
0
  6
CONTINUOUS
 62
     7
 10
2009.17134155168
 20
-1154.36220656335
 30
0.0
 11
2009.17134155168
 21
-1154.86222942791
 31
0.0
  0
LINE
  5
   69D
  8
0
  6
CONTINUOUS
 62
     7
 10
2009.89134156241
 20
-1154.36220656335
 30
0.0
 11
2009.89134156241
 21
-1154.86222942791
 31
0.0
  0
LINE
  5
   69E
  8
0
  6
CONTINUOUS
 62
     7
 10
2010.61134157314
 20
-1154.36220656335
 30
0.0
 11
2010.61134157314
 21
-1154.86222942791
 31
0.0
  0
LINE
  5
   69F
  8
0
  6
CONTINUOUS
 62
     7
 10
1988.37137029447
 20
-1154.36220656335
 30
0.0
 11
1988.37137030973
 21
-1154.46222948298
 31
0.0
  0
LINE
  5
   6A0
  8
0
  6
CONTINUOUS
 62
     7
 10
2014.21134162678
 20
-1154.36220656335
 30
0.0
 11
2014.21134162678
 21
-1154.86222942791
 31
0.0
  0
LINE
  5
   6A1
  8
0
  6
CONTINUOUS
 62
     7
 10
2014.93134163751
 20
-1154.36220656335
 30
0.0
 11
2014.93134163751
 21
-1154.86222942791
 31
0.0
  0
LINE
  5
   6A2
  8
0
  6
CONTINUOUS
 62
     7
 10
2015.65134164824
 20
-1154.36220656335
 30
0.0
 11
2015.65134164824
 21
-1154.86222942791
 31
0.0
  0
LINE
  5
   6A3
  8
0
  6
CONTINUOUS
 62
     7
 10
2016.37134165897
 20
-1154.36220656335
 30
0.0
 11
2016.37134165897
 21
-1154.86222942791
 31
0.0
  0
LINE
  5
   6A4
  8
0
  6
CONTINUOUS
 62
     7
 10
2017.0913416697
 20
-1154.36220656335
 30
0.0
 11
2017.0913416697
 21
-1154.86222942791
 31
0.0
  0
LINE
  5
   6A5
  8
0
  6
CONTINUOUS
 62
     7
 10
2017.81134168043
 20
-1154.36220656335
 30
0.0
 11
2017.81134168043
 21
-1154.86222942791
 31
0.0
  0
LINE
  5
   6A6
  8
0
  6
CONTINUOUS
 62
     7
 10
2018.53134169116
 20
-1154.36220656335
 30
0.0
 11
2018.53134169116
 21
-1154.86222942791
 31
0.0
  0
LINE
  5
   6A7
  8
0
  6
CONTINUOUS
 62
     7
 10
2019.25134170189
 20
-1154.36220656335
 30
0.0
 11
2019.25134170189
 21
-1154.86222942791
 31
0.0
  0
LINE
  5
   6A8
  8
0
  6
CONTINUOUS
 62
     7
 10
2019.97134171262
 20
-1154.36220656335
 30
0.0
 11
2019.97134171262
 21
-1154.86222942791
 31
0.0
  0
LINE
  5
   6A9
  8
0
  6
CONTINUOUS
 62
     7
 10
2020.69134172334
 20
-1154.36220656335
 30
0.0
 11
2020.69134172334
 21
-1154.86222942791
 31
0.0
  0
LINE
  5
   6AA
  8
0
  6
CONTINUOUS
 62
     7
 10
2021.41134173407
 20
-1154.36220656335
 30
0.0
 11
2021.41134173407
 21
-1154.86222942791
 31
0.0
  0
LINE
  5
   6AB
  8
0
  6
CONTINUOUS
 62
     7
 10
2022.1313417448
 20
-1154.36220656335
 30
0.0
 11
2022.1313417448
 21
-1154.86222942791
 31
0.0
  0
LINE
  5
   6AC
  8
0
  6
CONTINUOUS
 62
     7
 10
2022.85134175553
 20
-1154.36220656335
 30
0.0
 11
2022.85134175553
 21
-1154.86222942791
 31
0.0
  0
LINE
  5
   6AD
  8
0
  6
CONTINUOUS
 62
     7
 10
2023.57134176626
 20
-1154.36220656335
 30
0.0
 11
2023.57134176626
 21
-1154.86222942791
 31
0.0
  0
LINE
  5
   6AE
  8
0
  6
CONTINUOUS
 62
     7
 10
2024.29134177699
 20
-1154.36220656335
 30
0.0
 11
2024.29134177699
 21
-1154.86222942791
 31
0.0
  0
LINE
  5
   6AF
  8
0
  6
CONTINUOUS
 62
     7
 10
2025.01134178772
 20
-1154.36220656335
 30
0.0
 11
2025.01134178772
 21
-1154.86222942791
 31
0.0
  0
LINE
  5
   6B0
  8
0
  6
CONTINUOUS
 62
     7
 10
2025.73134179845
 20
-1154.36220656335
 30
0.0
 11
2025.73134179845
 21
-1154.86222942791
 31
0.0
  0
LINE
  5
   6B1
  8
0
  6
CONTINUOUS
 62
     7
 10
2026.45134180917
 20
-1154.36220656335
 30
0.0
 11
2026.45134180917
 21
-1154.86222942791
 31
0.0
  0
LINE
  5
   6B2
  8
0
  6
CONTINUOUS
 62
     7
 10
2027.1713418199
 20
-1154.36220656335
 30
0.0
 11
2027.1713418199
 21
-1154.86222942791
 31
0.0
  0
LINE
  5
   6B3
  8
0
  6
CONTINUOUS
 62
     7
 10
2027.89134183063
 20
-1154.36220656335
 30
0.0
 11
2027.89134183063
 21
-1154.86222942791
 31
0.0
  0
LINE
  5
   6B4
  8
0
  6
CONTINUOUS
 62
     7
 10
2028.61134184136
 20
-1154.36220656335
 30
0.0
 11
2028.61134184136
 21
-1154.86222942791
 31
0.0
  0
LINE
  5
   6B5
  8
0
  6
CONTINUOUS
 62
     7
 10
2029.57134094014
 20
-1154.36220656335
 30
0.0
 11
2029.57134092488
 21
-1154.46222948298
 31
0.0
  0
LINE
  5
   6B6
  8
0
  6
CONTINUOUS
 62
     7
 10
1986.2713130489
 20
-1165.96220673621
 30
0.0
 11
2031.67131372541
 21
-1165.96220673621
 31
0.0
  0
LINE
  5
   6B7
  8
0
  6
CONTINUOUS
 62
     7
 10
2032.17131373286
 20
-1166.46220674366
 30
0.0
 11
2032.17131373286
 21
-1203.86220730096
 31
0.0
  0
LINE
  5
   6B8
  8
0
  6
CONTINUOUS
 62
     7
 10
1987.57131306827
 20
-1170.96220681071
 30
0.0
 11
2030.37131370604
 21
-1170.96220681071
 31
0.0
  0
LINE
  5
   6B9
  8
0
  6
CONTINUOUS
 62
     7
 10
1987.57131306827
 20
-1170.96220681071
 30
0.0
 11
2030.37131370604
 21
-1170.96220681071
 31
0.0
  0
LINE
  5
   6BA
  8
0
  6
CONTINUOUS
 62
     7
 10
1987.57131306827
 20
-1170.96220681071
 30
0.0
 11
2030.37131370604
 21
-1170.96220681071
 31
0.0
  0
LINE
  5
   6BB
  8
0
  6
CONTINUOUS
 62
     7
 10
1987.97131307423
 20
-1171.36220681667
 30
0.0
 11
2029.97131370008
 21
-1171.36220681667
 31
0.0
  0
LINE
  5
   6BC
  8
0
  6
CONTINUOUS
 62
     7
 10
1985.77131304145
 20
-1166.46220674366
 30
0.0
 11
1985.77131304145
 21
-1193.1076261386
 31
0.0
  0
ARC
  5
   6BD
  8
0
  6
CONTINUOUS
 62
     7
 10
1986.2713130489
 20
-1166.46220674366
 30
0.0
 40
0.500000007450581
 50
449.999999844103
 51
539.999999844103
  0
LINE
  5
   6BE
  8
0
  6
CONTINUOUS
 62
     7
 10
1987.57131306827
 20
-1168.16220676899
 30
0.0
 11
1987.69131429076
 21
-1168.16220676899
 31
0.0
  0
ARC
  5
   6BF
  8
0
  6
CONTINUOUS
 62
     7
 10
1987.69129831369
 20
-1168.46221674064
 30
0.0
 40
0.300017384246979
 50
270.002994716444
 51
449.997011754257
  0
LINE
  5
   6C0
  8
0
  6
CONTINUOUS
 62
     7
 10
1987.57131306827
 20
-1168.76220677793
 30
0.0
 11
1987.69131429076
 21
-1168.76220677793
 31
0.0
  0
LINE
  5
   6C1
  8
0
  6
CONTINUOUS
 62
     7
 10
1987.97131307423
 20
-1171.36220681667
 30
0.0
 11
1987.97131307423
 21
-1175.56220687926
 31
0.0
  0
LINE
  5
   6C2
  8
0
  6
CONTINUOUS
 62
     7
 10
1987.77131307125
 20
-1175.56220687926
 30
0.0
 11
1987.77131307125
 21
-1193.1076261386
 31
0.0
  0
LINE
  5
   6C3
  8
0
  6
CONTINUOUS
 62
     7
 10
1987.57131306827
 20
-1165.96220673621
 30
0.0
 11
1987.57131306827
 21
-1193.1076261386
 31
0.0
  0
ARC
  5
   6C4
  8
0
  6
CONTINUOUS
 62
     7
 10
2031.67131372541
 20
-1166.46220674366
 30
0.0
 40
0.500000007450581
 50
359.999999844103
 51
449.999999844103
  0
LINE
  5
   6C5
  8
0
  6
CONTINUOUS
 62
     7
 10
2030.37131370604
 20
-1165.96220673621
 30
0.0
 11
2030.37131370604
 21
-1204.36220730841
 31
0.0
  0
LINE
  5
   6C6
  8
0
  6
CONTINUOUS
 62
     7
 10
2029.97131370008
 20
-1171.36220681667
 30
0.0
 11
2029.97131370008
 21
-1175.56220687926
 31
0.0
  0
LINE
  5
   6C7
  8
0
  6
CONTINUOUS
 62
     7
 10
2030.17131370306
 20
-1175.56220687926
 30
0.0
 11
2030.17131370306
 21
-1194.76220716536
 31
0.0
  0
LINE
  5
   6C8
  8
0
  6
CONTINUOUS
 62
     7
 10
2030.25131362796
 20
-1168.16220676899
 30
0.0
 11
2030.37131370604
 21
-1168.16220676899
 31
0.0
  0
ARC
  5
   6C9
  8
0
  6
CONTINUOUS
 62
     7
 10
2030.25131957321
 20
-1168.46220897751
 30
0.0
 40
0.300005980545986
 50
450.001135501493
 51
629.998857587167
  0
LINE
  5
   6CA
  8
0
  6
CONTINUOUS
 62
     7
 10
2030.25131362796
 20
-1168.76220677793
 30
0.0
 11
2030.37131370604
 21
-1168.76220677793
 31
0.0
  0
ARC
  5
   6CB
  8
0
  6
CONTINUOUS
 62
     7
 10
2031.67131372541
 20
-1203.86220730096
 30
0.0
 40
0.500000007450581
 50
269.999999844103
 51
359.999999844103
  0
LINE
  5
   6CC
  8
0
  6
CONTINUOUS
 62
     7
 10
2029.97131370008
 20
-1194.76220716536
 30
0.0
 11
2029.97131370008
 21
-1198.96220722795
 31
0.0
  0
LINE
  5
   6CD
  8
0
  6
CONTINUOUS
 62
     7
 10
2029.97131370008
 20
-1199.36220723391
 30
0.0
 11
2029.97131370008
 21
-1204.36220730841
 31
0.0
  0
LINE
  5
   6CE
  8
0
  6
CONTINUOUS
 62
     7
 10
1987.77131307125
 20
-1175.56220687926
 30
0.0
 11
2030.17131370306
 21
-1175.56220687926
 31
0.0
  0
LINE
  5
   6CF
  8
0
  6
CONTINUOUS
 62
     7
 10
1985.41746086937
 20
-1193.1076261386
 30
0.0
 11
1988.04544286598
 21
-1193.1076261386
 31
0.0
  0
LINE
  5
   6D0
  8
0
  6
CONTINUOUS
 62
     7
 10
2026.85480280296
 20
-1194.39618505306
 30
0.0
 11
2026.85480280296
 21
-1204.5351091432
 31
0.0
  0
LINE
  5
   6D1
  8
0
  6
CONTINUOUS
 62
     7
 10
2026.85480280296
 20
-1194.76220716536
 30
0.0
 11
2030.17131370306
 21
-1194.76220716536
 31
0.0
  0
LINE
  5
   6D2
  8
0
  6
CONTINUOUS
 62
     7
 10
2026.85480280296
 20
-1198.96220722795
 30
0.0
 11
2029.97131370008
 21
-1198.96220722795
 31
0.0
  0
LINE
  5
   6D3
  8
0
  6
CONTINUOUS
 62
     7
 10
2026.85480280296
 20
-1199.36220723391
 30
0.0
 11
2029.97131370008
 21
-1199.36220723391
 31
0.0
  0
LINE
  5
   6D4
  8
0
  6
CONTINUOUS
 62
     7
 10
2026.85480280296
 20
-1204.36220730841
 30
0.0
 11
2031.67131372541
 21
-1204.36220730841
 31
0.0
  0
LINE
  5
   6D5
  8
0
  6
CONTINUOUS
 62
     7
 10
2028.61134184136
 20
-1204.36220730841
 30
0.0
 11
2028.61134184136
 21
-1205.16227625736
 31
0.0
  0
LINE
  5
   6D6
  8
0
  6
CONTINUOUS
 62
     7
 10
2027.89134183063
 20
-1204.36220730841
 30
0.0
 11
2027.89134183063
 21
-1205.16227625736
 31
0.0
  0
LINE
  5
   6D7
  8
0
  6
CONTINUOUS
 62
     7
 10
2027.1713418199
 20
-1204.36220730841
 30
0.0
 11
2027.1713418199
 21
-1205.16227625736
 31
0.0
  0
INSERT
  5
   6D8
  8
0
  6
CONTINUOUS
 62
     3
  2
*UDIM191
 10
0.0
 20
0.0
 30
0.0
  0
INSERT
  5
   6D9
  8
0
  6
CONTINUOUS
 62
     3
  2
*UDIM192
 10
0.0
 20
0.0
 30
0.0
  0
INSERT
  5
   6DA
  8
0
  6
CONTINUOUS
 62
     3
  2
*UDIM193
 10
0.0
 20
0.0
 30
0.0
  0
INSERT
  5
   6DB
  8
0
  6
CONTINUOUS
 62
     3
  2
*UDIM194
 10
0.0
 20
0.0
 30
0.0
  0
INSERT
  5
   6DC
  8
0
  6
CONTINUOUS
 62
     3
  2
*UDIM195
 10
0.0
 20
0.0
 30
0.0
  0
TEXT
  5
   6DD
  8
0
  6
CONTINUOUS
 62
     2
 10
2013.02662143978
 20
-1098.63766344599
 30
0.0
 40
2.99999994933605
  1
Y
 50
359.999999844103
 41
0.916666718787619
 72
     1
 11
2014.12662151985
 21
-1097.13766347431
 31
0.0
 73
     2
  0
TEXT
  5
   6DE
  8
0
  6
CONTINUOUS
 62
     7
 10
2012.7309028043
 20
-1211.54435575223
 30
0.0
 40
2.99999994933605
  1
Y
 50
359.999999844103
 41
0.916666718787619
 72
     1
 11
2013.83090288437
 21
-1210.04435578055
 31
0.0
 73
     2
  0
INSERT
  5
   6DF
  8
0
  6
CONTINUOUS
 62
     3
  2
*UDIM196
 10
0.0
 20
0.0
 30
0.0
  0
INSERT
  5
   6E0
  8
0
  6
CONTINUOUS
 62
     3
  2
*UDIM197
 10
0.0
 20
0.0
 30
0.0
  0
INSERT
  5
   6E1
  8
0
  6
CONTINUOUS
 62
     3
  2
*UDIM198
 10
0.0
 20
0.0
 30
0.0
  0
TEXT
  5
   6E2
  8
0
  6
CONTINUOUS
 62
     2
 10
1993.56793946104
 20
-1197.85890592372
 30
0.0
 40
1.59999992847442
  1
N
 50
359.999999844103
 41
0.625
 72
     1
 11
1993.96793944533
 21
-1197.05890596057
 31
0.0
 73
     2
  0
TEXT
  5
   6E3
  8
0
  6
CONTINUOUS
 62
     2
 10
2022.22643756786
 20
-1190.8090260312
 30
0.0
 40
1.20000002980232
  1
TEST
 50
359.999999844103
 41
0.833333291941219
 72
     1
 11
2024.12643751435
 21
-1190.20902602146
 31
0.0
 73
     2
  0
CIRCLE
  5
   6E4
  8
0
  6
CONTINUOUS
 62
     7
 10
1993.97142582459
 20
-1107.8623035267
 30
0.0
 40
1.20000001788139
  0
LINE
  5
   6E5
  8
0
  6
DOT
 62
     7
 10
1992.80953080342
 20
-1107.56230352223
 30
0.0
 11
1995.13332084577
 21
-1107.56230352223
 31
0.0
  0
LINE
  5
   6E6
  8
0
  6
DASHDOT
 62
     7
 10
1988.7714257471
 20
-1107.8623035267
 30
0.0
 11
1999.17142590208
 21
-1107.8623035267
 31
0.0
  0
LINE
  5
   6E7
  8
0
  6
DOT
 62
     7
 10
1992.80953080342
 20
-1108.16230353117
 30
0.0
 11
1995.13332084577
 21
-1108.16230353117
 31
0.0
  0
LINE
  5
   6E8
  8
0
  6
DASHDOT
 62
     7
 10
1993.97142582459
 20
-1102.66230344922
 30
0.0
 11
1993.97142582459
 21
-1113.06230360419
 31
0.0
  0
CIRCLE
  5
   6E9
  8
0
  6
CONTINUOUS
 62
     7
 10
1993.97142576356
 20
-1202.26215533507
 30
0.0
 40
1.20000001788139
  0
LINE
  5
   6EA
  8
0
  6
DASHDOT
 62
     7
 10
1993.97142576356
 20
-1197.06215525758
 30
0.0
 11
1993.97142576356
 21
-1207.46215541256
 31
0.0
  0
LINE
  5
   6EB
  8
0
  6
DASHDOT
 62
     7
 10
1988.77142568607
 20
-1202.26215533507
 30
0.0
 11
1999.17142584104
 21
-1202.26215533507
 31
0.0
  0
LINE
  5
   6EC
  8
0
  6
DOT
 62
     7
 10
1992.80953074238
 20
-1201.9621553306
 30
0.0
 11
1995.13332078473
 21
-1201.9621553306
 31
0.0
  0
LINE
  5
   6ED
  8
0
  6
DOT
 62
     7
 10
1992.80953074238
 20
-1202.56215533954
 30
0.0
 11
1995.13332078473
 21
-1202.56215533954
 31
0.0
  0
CIRCLE
  5
   6EE
  8
0
  6
CONTINUOUS
 62
     7
 10
2023.97142621059
 20
-1157.26215466452
 30
0.0
 40
1.20000001788139
  0
LINE
  5
   6EF
  8
0
  6
DASHDOT
 62
     7
 10
2023.97142621059
 20
-1152.06215458703
 30
0.0
 11
2023.97142621059
 21
-1162.462154742
 31
0.0
  0
LINE
  5
   6F0
  8
0
  6
DASHDOT
 62
     7
 10
2018.7714261331
 20
-1157.26215466452
 30
0.0
 11
2029.17142628808
 21
-1157.26215466452
 31
0.0
  0
LINE
  5
   6F1
  8
0
  6
DOT
 62
     7
 10
2022.80953118942
 20
-1156.96215466005
 30
0.0
 11
2025.13332123177
 21
-1156.96215466005
 31
0.0
  0
LINE
  5
   6F2
  8
0
  6
DOT
 62
     7
 10
2022.80953118942
 20
-1157.56215466899
 30
0.0
 11
2025.13332123177
 21
-1157.56215466899
 31
0.0
  0
LINE
  5
   6F3
  8
0
  6
DASHDOT
 62
     7
 10
1993.97142576356
 20
-1152.06215458703
 30
0.0
 11
1993.97142576356
 21
-1162.462154742
 31
0.0
  0
LINE
  5
   6F4
  8
0
  6
DOT
 62
     7
 10
1992.80953074238
 20
-1156.96215466005
 30
0.0
 11
1995.13332078473
 21
-1156.96215466005
 31
0.0
  0
LINE
  5
   6F5
  8
0
  6
DASHDOT
 62
     7
 10
1988.77142568607
 20
-1157.26215466452
 30
0.0
 11
1999.17142584104
 21
-1157.26215466452
 31
0.0
  0
LINE
  5
   6F6
  8
0
  6
DOT
 62
     7
 10
1992.80953074238
 20
-1157.56215466899
 30
0.0
 11
1995.13332078473
 21
-1157.56215466899
 31
0.0
  0
CIRCLE
  5
   6F7
  8
0
  6
CONTINUOUS
 62
     7
 10
1993.97142576356
 20
-1157.26215466452
 30
0.0
 40
1.20000001788139
  0
LINE
  5
   6F8
  8
0
  6
DASHDOT
 62
     7
 10
2007.74658195674
 20
-1236.8508785367
 30
0.0
 11
2007.74658195674
 21
-1246.45087867975
 31
0.0
  0
LINE
  5
   6F9
  8
0
  6
DASHDOT
 62
     7
 10
2002.94658188522
 20
-1241.65087860823
 30
0.0
 11
2012.54658202827
 21
-1241.65087860823
 31
0.0
  0
LINE
  5
   6FA
  8
0
  6
DASHDOT
 62
     7
 10
2017.74658210576
 20
-1276.85087913275
 30
0.0
 11
2017.74658210576
 21
-1286.4508792758
 31
0.0
  0
LINE
  5
   6FB
  8
0
  6
DASHDOT
 62
     7
 10
2012.94658203423
 20
-1281.65087920427
 30
0.0
 11
2022.54658217728
 21
-1281.65087920427
 31
0.0
  0
LINE
  5
   6FC
  8
0
  6
DASHDOT
 62
     7
 10
2012.74658203125
 20
-1240.55377282005
 30
0.0
 11
2012.74658203125
 21
-1284.30145440206
 31
0.0
  0
LINE
  5
   6FD
  8
0
  6
DASHDOT
 62
     7
 10
2002.74658188224
 20
-1234.05087849498
 30
0.0
 11
2002.74658188224
 21
-1248.45087870955
 31
0.0
  0
LINE
  5
   6FE
  8
0
  6
DASHDOT
 62
     7
 10
1995.54658177495
 20
-1241.25087860227
 30
0.0
 11
2009.94658198953
 21
-1241.25087860227
 31
0.0
  0
LINE
  5
   6FF
  8
0
  6
DASHDOT
 62
     7
 10
2012.74658203125
 20
-1234.05087849498
 30
0.0
 11
2012.74658203125
 21
-1248.45087870955
 31
0.0
  0
LINE
  5
   700
  8
0
  6
DASHDOT
 62
     7
 10
2005.54658192396
 20
-1241.25087860227
 30
0.0
 11
2019.94658213854
 21
-1241.25087860227
 31
0.0
  0
LINE
  5
   701
  8
0
  6
DASHDOT
 62
     7
 10
2022.74658218026
 20
-1234.05087849498
 30
0.0
 11
2022.74658218026
 21
-1248.45087870955
 31
0.0
  0
LINE
  5
   702
  8
0
  6
DASHDOT
 62
     7
 10
2015.54658207297
 20
-1241.25087860227
 30
0.0
 11
2029.94658228755
 21
-1241.25087860227
 31
0.0
  0
LINE
  5
   703
  8
0
  6
DASHDOT
 62
     7
 10
2002.74658188224
 20
-1243.74056510204
 30
0.0
 11
2002.74658188224
 21
-1344.42135378348
 31
0.0
  0
LINE
  5
   704
  8
0
  6
DASHDOT
 62
     7
 10
2012.74658203125
 20
-1275.25087910891
 30
0.0
 11
2012.74658203125
 21
-1344.8603117491
 31
0.0
  0
LINE
  5
   705
  8
0
  6
DASHDOT
 62
     7
 10
2022.74658218026
 20
-1238.28402254648
 30
0.0
 11
2022.74658218026
 21
-1347.37698100108
 31
0.0
  0
LINE
  5
   706
  8
0
  6
CONTINUOUS
 62
     7
 10
1987.41885534795
 20
-1234.62536912531
 30
0.0
 11
2028.11967374489
 21
-1234.62536912531
 31
0.0
  0
LINE
  5
   707
  8
0
  6
CONTINUOUS
 62
     7
 10
2028.11967374489
 20
-1234.62536912531
 30
0.0
 11
2028.11967374489
 21
-1342.1099017287
 31
0.0
  0
LINE
  5
   708
  8
0
  6
CONTINUOUS
 62
     7
 10
1987.41885534795
 20
-1234.62536912531
 30
0.0
 11
1987.41885534795
 21
-1342.1099017287
 31
0.0
  0
CIRCLE
  5
   709
  8
0
  6
CONTINUOUS
 62
     7
 10
2002.74658188224
 20
-1241.25087860227
 30
0.0
 40
3.60000005364418
  0
CIRCLE
  5
   70A
  8
0
  6
CONTINUOUS
 62
     7
 10
2012.74658203125
 20
-1241.25087860227
 30
0.0
 40
3.60000005364418
  0
CIRCLE
  5
   70B
  8
0
  6
CONTINUOUS
 62
     7
 10
2022.74658218026
 20
-1241.25087860227
 30
0.0
 40
3.60000005364418
  0
CIRCLE
  5
   70C
  8
0
  6
CONTINUOUS
 62
     7
 10
2002.74658188224
 20
-1332.05087995529
 30
0.0
 40
3.60000005364418
  0
CIRCLE
  5
   70D
  8
0
  6
CONTINUOUS
 62
     7
 10
2012.74658203125
 20
-1332.05087995529
 30
0.0
 40
3.60000005364418
  0
CIRCLE
  5
   70E
  8
0
  6
CONTINUOUS
 62
     7
 10
2022.74658218026
 20
-1332.05087995529
 30
0.0
 40
3.60000005364418
  0
LINE
  5
   70F
  8
0
  6
DASHDOT
 62
     7
 10
1993.11981002722
 20
-1266.45087897778
 30
0.0
 11
2031.63191197861
 21
-1266.45087897778
 31
0.0
  0
LINE
  5
   710
  8
0
  6
CONTINUOUS
 62
     7
 10
1987.41885534795
 20
-1342.1099017287
 30
0.0
 11
2028.11967374489
 21
-1342.1099017287
 31
0.0
  0
LINE
  5
   711
  8
0
  6
DASHDOT
 62
     7
 10
2005.146581918
 20
-1332.05087995529
 30
0.0
 11
2020.3465821445
 21
-1332.05087995529
 31
0.0
  0
LINE
  5
   712
  8
0
  6
DASHDOT
 62
     7
 10
2022.74658218026
 20
-1324.45087984204
 30
0.0
 11
2022.74658218026
 21
-1339.65088006854
 31
0.0
  0
LINE
  5
   713
  8
0
  6
DASHDOT
 62
     7
 10
2015.14658206701
 20
-1332.05087995529
 30
0.0
 11
2030.34658229351
 21
-1332.05087995529
 31
0.0
  0
LINE
  5
   714
  8
0
  6
DASHDOT
 62
     7
 10
2002.74658188224
 20
-1324.45087984204
 30
0.0
 11
2002.74658188224
 21
-1339.65088006854
 31
0.0
  0
LINE
  5
   715
  8
0
  6
DASHDOT
 62
     7
 10
1995.14658176899
 20
-1332.05087995529
 30
0.0
 11
2010.34658199549
 21
-1332.05087995529
 31
0.0
  0
LINE
  5
   716
  8
0
  6
DASHDOT
 62
     7
 10
2017.74658210576
 20
-1286.85087928176
 30
0.0
 11
2017.74658210576
 21
-1330.84811282534
 31
0.0
  0
LINE
  5
   717
  8
0
  6
DASHDOT
 62
     7
 10
2007.94658195972
 20
-1291.65087935329
 30
0.0
 11
2017.54658210278
 21
-1291.65087935329
 31
0.0
  0
LINE
  5
   718
  8
0
  6
DASHDOT
 62
     7
 10
2017.74658210576
 20
-1326.85087987781
 30
0.0
 11
2017.74658210576
 21
-1336.45088002086
 31
0.0
  0
LINE
  5
   719
  8
0
  6
DASHDOT
 62
     7
 10
2012.94658203423
 20
-1331.65087994933
 30
0.0
 11
2022.54658217728
 21
-1331.65087994933
 31
0.0
  0
CIRCLE
  5
   71A
  8
0
  6
CONTINUOUS
 62
     7
 10
1992.74658173323
 20
-1241.25087860227
 30
0.0
 40
3.60000005364418
  0
CIRCLE
  5
   71B
  8
0
  6
CONTINUOUS
 62
     7
 10
1992.74658173323
 20
-1332.05087995529
 30
0.0
 40
3.60000005364418
  0
LINE
  5
   71C
  8
0
  6
DASHDOT
 62
     7
 10
1992.74658173323
 20
-1233.65087848902
 30
0.0
 11
1992.74658173323
 21
-1248.85087871552
 31
0.0
  0
LINE
  5
   71D
  8
0
  6
DASHDOT
 62
     7
 10
1985.14658161998
 20
-1241.25087860227
 30
0.0
 11
2000.34658184648
 21
-1241.25087860227
 31
0.0
  0
LINE
  5
   71E
  8
0
  6
DASHDOT
 62
     7
 10
1992.74658173323
 20
-1324.45087984204
 30
0.0
 11
1992.74658173323
 21
-1339.65088006854
 31
0.0
  0
LINE
  5
   71F
  8
0
  6
DASHDOT
 62
     7
 10
1985.14658161998
 20
-1332.05087995529
 30
0.0
 11
2000.34658184648
 21
-1332.05087995529
 31
0.0
  0
LINE
  5
   720
  8
0
  6
DASHDOT
 62
     7
 10
1983.38343496546
 20
-1316.45087972283
 30
0.0
 11
2031.5909903751
 21
-1316.45087972283
 31
0.0
  0
LINE
  5
   721
  8
0
  6
DASHDOT
 62
     7
 10
2007.74658195674
 20
-1287.05087928474
 30
0.0
 11
2007.74658195674
 21
-1296.25087942183
 31
0.0
  0
LINE
  5
   722
  8
0
  6
DASHDOT
 62
     7
 10
2003.1465818882
 20
-1291.65087935329
 30
0.0
 11
2012.34658202529
 21
-1291.65087935329
 31
0.0
  0
POINT
  5
   723
  8
0
  6
CONTINUOUS
 62
     7
 10
2017.74658210576
 20
-1281.65087920427
 30
0.0
  0
CIRCLE
  5
   724
  8
0
  6
CONTINUOUS
 62
     7
 10
2007.74658195674
 20
-1241.65087860823
 30
0.0
 40
0.900000013411045
  0
CIRCLE
  5
   725
  8
0
  6
CONTINUOUS
 62
     7
 10
2017.74658210576
 20
-1281.65087920427
 30
0.0
 40
0.900000013411045
  0
CIRCLE
  5
   726
  8
0
  6
CONTINUOUS
 62
     7
 10
2007.74658195674
 20
-1291.65087935329
 30
0.0
 40
0.900000013411045
  0
CIRCLE
  5
   727
  8
0
  6
CONTINUOUS
 62
     7
 10
2017.74658210576
 20
-1331.65087994933
 30
0.0
 40
0.900000013411045
  0
INSERT
  5
   728
  8
0
  6
CONTINUOUS
 62
     3
  2
*UDIM199
 10
0.0
 20
0.0
 30
0.0
  0
INSERT
  5
   729
  8
0
  6
CONTINUOUS
 62
     7
  2
*UDIM200
 10
0.0
 20
0.0
 30
0.0
  0
INSERT
  5
   72A
  8
0
  6
CONTINUOUS
 62
     7
  2
*UDIM201
 10
0.0
 20
0.0
 30
0.0
  0
INSERT
  5
   72B
  8
0
  6
CONTINUOUS
 62
     3
  2
*UDIM202
 10
0.0
 20
0.0
 30
0.0
  0
TEXT
  5
   72C
  8
0
  6
CONTINUOUS
 62
     2
 10
1962.15401949219
 20
-1267.92990855801
 30
0.0
 40
2.99999994933605
  1
X
 50
359.999999844103
 41
0.916666718787619
 72
     2
 11
1964.35401964826
 21
-1266.42990858932
 31
0.0
 73
     2
  0
TEXT
  5
   72D
  8
0
  6
CONTINUOUS
 62
     2
 10
1964.81651938694
 20
-1267.92990916819
 30
0.0
 40
1.49999997466803
  1
1
 50
359.999999844103
 41
0.75
 72
     2
 11
1965.56651937631
 21
-1267.17990918289
 31
0.0
 73
     2
  0
INSERT
  5
   72E
  8
0
  6
CONTINUOUS
 62
     3
  2
*UDIM203
 10
0.0
 20
0.0
 30
0.0
  0
INSERT
  5
   72F
  8
0
  6
CONTINUOUS
 62
     3
  2
*UDIM204
 10
0.0
 20
0.0
 30
0.0
  0
TEXT
  5
   730
  8
0
  6
CONTINUOUS
 62
     2
 10
2039.26018445297
 20
-1268.07949081635
 30
0.0
 40
2.99999994933605
  1
X
 50
359.999999844103
 41
0.916666718787619
 11
2039.26018445705
 21
-1266.57949084168
 31
0.0
 73
     2
  0
TEXT
  5
   731
  8
0
  6
CONTINUOUS
 62
     2
 10
2041.92268434772
 20
-1268.07949142653
 30
0.0
 40
1.49999997466803
  1
1
 50
359.999999844103
 41
0.75
 11
2041.92268434976
 21
-1267.3294914392
 31
0.0
 73
     2
  0
TEXT
  5
   732
  8
0
  6
CONTINUOUS
 62
     2
 10
1962.45318186639
 20
-1318.039607064
 30
0.0
 40
2.99999994933605
  1
X
 50
359.999999844103
 41
0.916666718787619
 72
     2
 11
1964.65318202246
 21
-1316.5396070953
 31
0.0
 73
     2
  0
TEXT
  5
   733
  8
0
  6
CONTINUOUS
 62
     2
 10
1965.11568202936
 20
-1318.03960698128
 30
0.0
 40
1.49999997466803
  1
2
 50
359.999999844103
 41
0.75
 72
     2
 11
1965.86568201874
 21
-1317.28960699598
 31
0.0
 73
     2
  0
TEXT
  5
   734
  8
0
  6
CONTINUOUS
 62
     2
 10
2031.8309854936
 20
-1317.98974651913
 30
0.0
 40
2.99999994933605
  1
X
 50
359.999999844103
 41
0.916666718787619
 11
2031.83098549768
 21
-1316.48974654446
 31
0.0
 73
     2
  0
TEXT
  5
   735
  8
0
  6
CONTINUOUS
 62
     2
 10
2034.49348565657
 20
-1317.98974643641
 30
0.0
 40
1.49999997466803
  1
2
 50
359.999999844103
 41
0.75
 11
2034.49348565861
 21
-1317.23974644908
 31
0.0
 73
     2
  0
INSERT
  5
   736
  8
0
  6
CONTINUOUS
 62
     3
  2
*UDIM205
 10
0.0
 20
0.0
 30
0.0
  0
TEXT
  5
   737
  8
0
  6
CONTINUOUS
 62
     2
 10
2011.63445339345
 20
-1348.05975327825
 30
0.0
 40
2.99999994933605
  1
Y
 50
359.999999844103
 41
0.916666718787619
 72
     1
 11
2012.73445347759
 21
-1345.0597533319
 31
0.0
 73
     3
  0
TEXT
  5
   738
  8
0
  6
CONTINUOUS
 62
     2
 10
2011.58459353419
 20
-1226.3006669777
 30
0.0
 40
2.99999994933605
  1
Y
 50
359.999999844103
 41
0.916666718787619
 72
     1
 11
2012.68459361834
 21
-1223.30066703135
 31
0.0
 73
     3
  0
INSERT
  5
   739
  8
0
  6
CONTINUOUS
 62
     3
  2
*UDIM206
 10
0.0
 20
0.0
 30
0.0
  0
INSERT
  5
   73A
  8
0
  6
CONTINUOUS
 62
     3
  2
*UDIM207
 10
0.0
 20
0.0
 30
0.0
  0
INSERT
  5
   73B
  8
0
  6
CONTINUOUS
 62
     3
  2
*UDIM208
 10
0.0
 20
0.0
 30
0.0
  0
INSERT
  5
   73C
  8
0
  6
CONTINUOUS
 62
     3
  2
*UDIM209
 10
0.0
 20
0.0
 30
0.0
  0
INSERT
  5
   73D
  8
0
  6
CONTINUOUS
 62
     3
  2
*UDIM210
 10
0.0
 20
0.0
 30
0.0
  0
INSERT
  5
   73E
  8
0
  6
CONTINUOUS
 62
     3
  2
*UDIM211
 10
0.0
 20
0.0
 30
0.0
  0
INSERT
  5
   73F
  8
0
  6
CONTINUOUS
 62
     7
  2
*UDIM212
 10
0.0
 20
0.0
 30
0.0
  0
TEXT
  5
   740
  8
0
  6
CONTINUOUS
 62
     2
 10
2327.15454415419
 20
-1351.03651070763
 30
0.0
 40
2.50000001341104
  1
1/1
 50
359.999999896069
 41
0.954999921455383
 72
     1
 11
2330.49704389891
 21
-1349.78651070697
 31
0.0
 73
     2
  0
TEXT
  5
   741
  8
0
  6
CONTINUOUS
 62
     2
 10
2177.29172852466
 20
-1338.087385126
 30
0.0
 40
2.50000001341104
  1
M3727 95-01-18
 50
359.999999896069
 41
0.649999610972401
 11
2177.29172852692
 21
-1336.8373851193
 31
0.0
 73
     2
  0
LINE
  5
   742
  8
0
  6
CONTINUOUS
 62
     7
 10
2151.42732213095
 20
-1258.1349851191
 30
0.0
 11
2121.42736637735
 21
-1258.1349851191
 31
0.0
  0
LINE
  5
   743
  8
0
  6
CONTINUOUS
 62
     7
 10
2151.42732213095
 20
-1299.33498573303
 30
0.0
 11
2121.42736637735
 21
-1299.33498573303
 31
0.0
  0
LINE
  5
   744
  8
0
  6
CONTINUOUS
 62
     7
 10
2121.42736637735
 20
-1258.1349851191
 30
0.0
 11
2121.42736637735
 21
-1299.33498573303
 31
0.0
  0
LINE
  5
   745
  8
0
  6
DASHDOT
 62
     7
 10
2163.06346687572
 20
-1273.73498535156
 30
0.0
 11
2088.85675693932
 21
-1273.73498535156
 31
0.0
  0
LINE
  5
   746
  8
0
  6
DASHDOT
 62
     7
 10
2128.45405287495
 20
-1263.73498520255
 30
0.0
 11
2094.41309471126
 21
-1263.73498520255
 31
0.0
  0
LINE
  5
   747
  8
0
  6
DASHDOT
 62
     7
 10
2128.840881945
 20
-1283.73498550057
 30
0.0
 11
2093.25260750113
 21
-1283.73498550057
 31
0.0
  0
LINE
  5
   748
  8
0
  6
CONTINUOUS
 62
     7
 10
2091.42736593032
 20
-1272.3349853307
 30
0.0
 11
2091.42736593032
 21
-1275.13498537242
 31
0.0
  0
LINE
  5
   749
  8
0
  6
CONTINUOUS
 62
     7
 10
2092.22736594224
 20
-1272.13498532772
 30
0.0
 11
2091.6273659333
 21
-1272.13498532772
 31
0.0
  0
LINE
  5
   74A
  8
0
  6
CONTINUOUS
 62
     7
 10
2092.22736594224
 20
-1275.3349853754
 30
0.0
 11
2091.6273659333
 21
-1275.3349853754
 31
0.0
  0
LINE
  5
   74B
  8
0
  6
CONTINUOUS
 62
     7
 10
2091.6273659333
 20
-1272.13498532772
 30
0.0
 11
2091.42736593032
 21
-1272.3349853307
 31
0.0
  0
LINE
  5
   74C
  8
0
  6
CONTINUOUS
 62
     7
 10
2091.6273659333
 20
-1275.3349853754
 30
0.0
 11
2091.42736593032
 21
-1275.13498537242
 31
0.0
  0
LINE
  5
   74D
  8
0
  6
CONTINUOUS
 62
     7
 10
2092.22736594224
 20
-1270.53498530388
 30
0.0
 11
2092.22736594224
 21
-1276.93498539925
 31
0.0
  0
LINE
  5
   74E
  8
0
  6
CONTINUOUS
 62
     7
 10
2094.627365978
 20
-1270.13498529792
 30
0.0
 11
2094.627365978
 21
-1277.33498540521
 31
0.0
  0
LINE
  5
   74F
  8
0
  6
CONTINUOUS
 62
     7
 10
2095.42736598992
 20
-1270.13498529792
 30
0.0
 11
2095.42736598992
 21
-1277.33498540521
 31
0.0
  0
LINE
  5
   750
  8
0
  6
CONTINUOUS
 62
     7
 10
2096.6273660078
 20
-1270.13498529792
 30
0.0
 11
2096.6273660078
 21
-1277.33498540521
 31
0.0
  0
LINE
  5
   751
  8
0
  6
CONTINUOUS
 62
     7
 10
2097.42736601973
 20
-1270.13498529792
 30
0.0
 11
2097.42736601973
 21
-1277.33498540521
 31
0.0
  0
LINE
  5
   752
  8
0
  6
CONTINUOUS
 62
     7
 10
2099.82736605549
 20
-1270.53498530388
 30
0.0
 11
2099.82736605549
 21
-1276.93498539925
 31
0.0
  0
LINE
  5
   753
  8
0
  6
CONTINUOUS
 62
     7
 10
2094.627365978
 20
-1270.53498530388
 30
0.0
 11
2092.22736594224
 21
-1270.53498530388
 31
0.0
  0
LINE
  5
   754
  8
0
  6
CONTINUOUS
 62
     7
 10
2094.627365978
 20
-1276.93498539925
 30
0.0
 11
2092.22736594224
 21
-1276.93498539925
 31
0.0
  0
LINE
  5
   755
  8
0
  6
CONTINUOUS
 62
     7
 10
2099.82736605549
 20
-1270.53498530388
 30
0.0
 11
2097.42736601973
 21
-1270.53498530388
 31
0.0
  0
LINE
  5
   756
  8
0
  6
CONTINUOUS
 62
     7
 10
2099.82736605549
 20
-1276.93498539925
 30
0.0
 11
2097.42736601973
 21
-1276.93498539925
 31
0.0
  0
LINE
  5
   757
  8
0
  6
CONTINUOUS
 62
     7
 10
2097.42736601973
 20
-1270.13498529792
 30
0.0
 11
2096.6273660078
 21
-1270.13498529792
 31
0.0
  0
LINE
  5
   758
  8
0
  6
CONTINUOUS
 62
     7
 10
2097.42736601973
 20
-1277.33498540521
 30
0.0
 11
2096.6273660078
 21
-1277.33498540521
 31
0.0
  0
LINE
  5
   759
  8
0
  6
CONTINUOUS
 62
     7
 10
2095.42736598992
 20
-1270.13498529792
 30
0.0
 11
2094.627365978
 21
-1270.13498529792
 31
0.0
  0
LINE
  5
   75A
  8
0
  6
CONTINUOUS
 62
     7
 10
2095.42736598992
 20
-1277.33498540521
 30
0.0
 11
2094.627365978
 21
-1277.33498540521
 31
0.0
  0
LINE
  5
   75B
  8
0
  6
CONTINUOUS
 62
     7
 10
2094.627365978
 20
-1273.73498535156
 30
0.0
 11
2092.22736594224
 21
-1273.73498535156
 31
0.0
  0
LINE
  5
   75C
  8
0
  6
CONTINUOUS
 62
     7
 10
2099.82736605549
 20
-1273.73498535156
 30
0.0
 11
2097.42736601973
 21
-1273.73498535156
 31
0.0
  0
LINE
  5
   75D
  8
0
  6
CONTINUOUS
 62
     7
 10
2096.6273660078
 20
-1272.13498532772
 30
0.0
 11
2095.42736598992
 21
-1272.13498532772
 31
0.0
  0
LINE
  5
   75E
  8
0
  6
CONTINUOUS
 62
     7
 10
2096.6273660078
 20
-1275.3349853754
 30
0.0
 11
2095.42736598992
 21
-1275.3349853754
 31
0.0
  0
LINE
  5
   75F
  8
0
  6
CONTINUOUS
 62
     7
 10
2096.6273660078
 20
-1272.3349853307
 30
0.0
 11
2095.42736598992
 21
-1272.3349853307
 31
0.0
  0
LINE
  5
   760
  8
0
  6
CONTINUOUS
 62
     7
 10
2096.6273660078
 20
-1275.13498537242
 30
0.0
 11
2095.42736598992
 21
-1275.13498537242
 31
0.0
  0
LINE
  5
   761
  8
0
  6
CONTINUOUS
 62
     7
 10
2092.22736594224
 20
-1275.13498537242
 30
0.0
 11
2091.42736593032
 21
-1275.13498537242
 31
0.0
  0
LINE
  5
   762
  8
0
  6
CONTINUOUS
 62
     7
 10
2092.22736594224
 20
-1272.3349853307
 30
0.0
 11
2091.42736593032
 21
-1272.3349853307
 31
0.0
  0
LINE
  5
   763
  8
0
  6
CONTINUOUS
 62
     7
 10
2091.6273659333
 20
-1272.13498532772
 30
0.0
 11
2091.6273659333
 21
-1275.3349853754
 31
0.0
  0
LINE
  5
   764
  8
0
  6
CONTINUOUS
 62
     7
 10
2121.42736637735
 20
-1271.53498531878
 30
0.0
 11
2120.26736636007
 21
-1271.53498531878
 31
0.0
  0
LINE
  5
   765
  8
0
  6
CONTINUOUS
 62
     7
 10
2121.42736637735
 20
-1275.93498538435
 30
0.0
 11
2120.26736636007
 21
-1275.93498538435
 31
0.0
  0
LINE
  5
   766
  8
0
  6
CONTINUOUS
 62
     7
 10
2105.42736613893
 20
-1280.53498545289
 30
0.0
 11
2105.42736613893
 21
-1286.93498554826
 31
0.0
  0
LINE
  5
   767
  8
0
  6
CONTINUOUS
 62
     7
 10
2110.62736621642
 20
-1280.13498544693
 30
0.0
 11
2110.62736621642
 21
-1287.33498555422
 31
0.0
  0
LINE
  5
   768
  8
0
  6
CONTINUOUS
 62
     7
 10
2109.8273662045
 20
-1280.13498544693
 30
0.0
 11
2109.8273662045
 21
-1287.33498555422
 31
0.0
  0
LINE
  5
   769
  8
0
  6
CONTINUOUS
 62
     7
 10
2108.62736618662
 20
-1280.13498544693
 30
0.0
 11
2108.62736618662
 21
-1287.33498555422
 31
0.0
  0
LINE
  5
   76A
  8
0
  6
CONTINUOUS
 62
     7
 10
2107.8273661747
 20
-1280.13498544693
 30
0.0
 11
2107.8273661747
 21
-1287.33498555422
 31
0.0
  0
LINE
  5
   76B
  8
0
  6
CONTINUOUS
 62
     7
 10
2113.02736625218
 20
-1280.53498545289
 30
0.0
 11
2110.62736621642
 21
-1280.53498545289
 31
0.0
  0
LINE
  5
   76C
  8
0
  6
CONTINUOUS
 62
     7
 10
2107.8273661747
 20
-1280.53498545289
 30
0.0
 11
2105.42736613893
 21
-1280.53498545289
 31
0.0
  0
LINE
  5
   76D
  8
0
  6
CONTINUOUS
 62
     7
 10
2113.02736625218
 20
-1286.93498554826
 30
0.0
 11
2110.62736621642
 21
-1286.93498554826
 31
0.0
  0
LINE
  5
   76E
  8
0
  6
CONTINUOUS
 62
     7
 10
2107.8273661747
 20
-1286.93498554826
 30
0.0
 11
2105.42736613893
 21
-1286.93498554826
 31
0.0
  0
LINE
  5
   76F
  8
0
  6
CONTINUOUS
 62
     7
 10
2110.62736621642
 20
-1280.13498544693
 30
0.0
 11
2109.8273662045
 21
-1280.13498544693
 31
0.0
  0
LINE
  5
   770
  8
0
  6
CONTINUOUS
 62
     7
 10
2108.62736618662
 20
-1280.13498544693
 30
0.0
 11
2107.8273661747
 21
-1280.13498544693
 31
0.0
  0
LINE
  5
   771
  8
0
  6
CONTINUOUS
 62
     7
 10
2110.62736621642
 20
-1287.33498555422
 30
0.0
 11
2109.8273662045
 21
-1287.33498555422
 31
0.0
  0
LINE
  5
   772
  8
0
  6
CONTINUOUS
 62
     7
 10
2108.62736618662
 20
-1287.33498555422
 30
0.0
 11
2107.8273661747
 21
-1287.33498555422
 31
0.0
  0
LINE
  5
   773
  8
0
  6
CONTINUOUS
 62
     7
 10
2109.8273662045
 20
-1285.33498552442
 30
0.0
 11
2108.62736618662
 21
-1285.33498552442
 31
0.0
  0
LINE
  5
   774
  8
0
  6
CONTINUOUS
 62
     7
 10
2109.8273662045
 20
-1282.13498547673
 30
0.0
 11
2108.62736618662
 21
-1282.13498547673
 31
0.0
  0
LINE
  5
   775
  8
0
  6
CONTINUOUS
 62
     7
 10
2109.8273662045
 20
-1282.33498547971
 30
0.0
 11
2108.62736618662
 21
-1282.33498547971
 31
0.0
  0
LINE
  5
   776
  8
0
  6
CONTINUOUS
 62
     7
 10
2105.42736613893
 20
-1282.13498547673
 30
0.0
 11
2104.82736612999
 21
-1282.13498547673
 31
0.0
  0
LINE
  5
   777
  8
0
  6
CONTINUOUS
 62
     7
 10
2105.42736613893
 20
-1282.33498547971
 30
0.0
 11
2104.62736612701
 21
-1282.33498547971
 31
0.0
  0
LINE
  5
   778
  8
0
  6
CONTINUOUS
 62
     7
 10
2105.42736613893
 20
-1285.33498552442
 30
0.0
 11
2104.82736612999
 21
-1285.33498552442
 31
0.0
  0
LINE
  5
   779
  8
0
  6
CONTINUOUS
 62
     7
 10
2104.82736612999
 20
-1282.13498547673
 30
0.0
 11
2104.82736612999
 21
-1285.33498552442
 31
0.0
  0
LINE
  5
   77A
  8
0
  6
CONTINUOUS
 62
     7
 10
2104.62736612701
 20
-1282.33498547971
 30
0.0
 11
2104.62736612701
 21
-1285.13498552144
 31
0.0
  0
LINE
  5
   77B
  8
0
  6
CONTINUOUS
 62
     7
 10
2104.82736612999
 20
-1282.13498547673
 30
0.0
 11
2104.82736612999
 21
-1285.33498552442
 31
0.0
  0
LINE
  5
   77C
  8
0
  6
CONTINUOUS
 62
     7
 10
2104.82736612999
 20
-1282.13498547673
 30
0.0
 11
2104.62736612701
 21
-1282.33498547971
 31
0.0
  0
LINE
  5
   77D
  8
0
  6
CONTINUOUS
 62
     7
 10
2104.82736612999
 20
-1285.33498552442
 30
0.0
 11
2104.62736612701
 21
-1285.13498552144
 31
0.0
  0
LINE
  5
   77E
  8
0
  6
CONTINUOUS
 62
     7
 10
2121.42736637735
 20
-1281.53498546779
 30
0.0
 11
2113.02736625218
 21
-1281.53498546779
 31
0.0
  0
LINE
  5
   77F
  8
0
  6
CONTINUOUS
 62
     7
 10
2121.42736637735
 20
-1285.93498553336
 30
0.0
 11
2113.02736625218
 21
-1285.93498553336
 31
0.0
  0
LINE
  5
   780
  8
0
  6
CONTINUOUS
 62
     7
 10
2109.8273662045
 20
-1285.13498552144
 30
0.0
 11
2108.62736618662
 21
-1285.13498552144
 31
0.0
  0
LINE
  5
   781
  8
0
  6
CONTINUOUS
 62
     7
 10
2121.42736637735
 20
-1265.93498523533
 30
0.0
 11
2113.02736625218
 21
-1265.93498523533
 31
0.0
  0
LINE
  5
   782
  8
0
  6
CONTINUOUS
 62
     7
 10
2121.42736637735
 20
-1261.53498516977
 30
0.0
 11
2113.02736625218
 21
-1261.53498516977
 31
0.0
  0
LINE
  5
   783
  8
0
  6
CONTINUOUS
 62
     7
 10
2113.02736625218
 20
-1260.53498515487
 30
0.0
 11
2113.02736625218
 21
-1266.93498525023
 31
0.0
  0
LINE
  5
   784
  8
0
  6
CONTINUOUS
 62
     7
 10
2113.02736625218
 20
-1266.93498525023
 30
0.0
 11
2110.62736621642
 21
-1266.93498525023
 31
0.0
  0
LINE
  5
   785
  8
0
  6
CONTINUOUS
 62
     7
 10
2113.02736625218
 20
-1260.53498515487
 30
0.0
 11
2110.62736621642
 21
-1260.53498515487
 31
0.0
  0
LINE
  5
   786
  8
0
  6
CONTINUOUS
 62
     7
 10
2110.62736621642
 20
-1260.13498514891
 30
0.0
 11
2110.62736621642
 21
-1267.3349852562
 31
0.0
  0
LINE
  5
   787
  8
0
  6
CONTINUOUS
 62
     7
 10
2109.8273662045
 20
-1260.13498514891
 30
0.0
 11
2109.8273662045
 21
-1267.3349852562
 31
0.0
  0
LINE
  5
   788
  8
0
  6
CONTINUOUS
 62
     7
 10
2107.8273661747
 20
-1260.13498514891
 30
0.0
 11
2107.8273661747
 21
-1267.3349852562
 31
0.0
  0
LINE
  5
   789
  8
0
  6
CONTINUOUS
 62
     7
 10
2107.8273661747
 20
-1266.93498525023
 30
0.0
 11
2105.42736613893
 21
-1266.93498525023
 31
0.0
  0
LINE
  5
   78A
  8
0
  6
CONTINUOUS
 62
     7
 10
2105.42736613893
 20
-1260.53498515487
 30
0.0
 11
2105.42736613893
 21
-1266.93498525023
 31
0.0
  0
LINE
  5
   78B
  8
0
  6
CONTINUOUS
 62
     7
 10
2107.8273661747
 20
-1260.53498515487
 30
0.0
 11
2105.42736613893
 21
-1260.53498515487
 31
0.0
  0
LINE
  5
   78C
  8
0
  6
CONTINUOUS
 62
     7
 10
2110.62736621642
 20
-1260.13498514891
 30
0.0
 11
2110.62736621642
 21
-1267.3349852562
 31
0.0
  0
LINE
  5
   78D
  8
0
  6
CONTINUOUS
 62
     7
 10
2110.62736621642
 20
-1267.3349852562
 30
0.0
 11
2109.8273662045
 21
-1267.3349852562
 31
0.0
  0
LINE
  5
   78E
  8
0
  6
CONTINUOUS
 62
     7
 10
2108.62736618662
 20
-1267.3349852562
 30
0.0
 11
2107.8273661747
 21
-1267.3349852562
 31
0.0
  0
LINE
  5
   78F
  8
0
  6
CONTINUOUS
 62
     7
 10
2110.62736621642
 20
-1260.13498514891
 30
0.0
 11
2109.8273662045
 21
-1260.13498514891
 31
0.0
  0
LINE
  5
   790
  8
0
  6
CONTINUOUS
 62
     7
 10
2108.62736618662
 20
-1260.13498514891
 30
0.0
 11
2107.8273661747
 21
-1260.13498514891
 31
0.0
  0
LINE
  5
   791
  8
0
  6
CONTINUOUS
 62
     7
 10
2108.62736618662
 20
-1260.13498514891
 30
0.0
 11
2108.62736618662
 21
-1267.3349852562
 31
0.0
  0
LINE
  5
   792
  8
0
  6
CONTINUOUS
 62
     7
 10
2109.8273662045
 20
-1265.33498522639
 30
0.0
 11
2108.62736618662
 21
-1265.33498522639
 31
0.0
  0
LINE
  5
   793
  8
0
  6
CONTINUOUS
 62
     7
 10
2109.8273662045
 20
-1262.13498517871
 30
0.0
 11
2108.62736618662
 21
-1262.13498517871
 31
0.0
  0
LINE
  5
   794
  8
0
  6
CONTINUOUS
 62
     7
 10
2109.8273662045
 20
-1262.33498518169
 30
0.0
 11
2108.62736618662
 21
-1262.33498518169
 31
0.0
  0
LINE
  5
   795
  8
0
  6
CONTINUOUS
 62
     7
 10
2111.42736622834
 20
-1265.13498522341
 30
0.0
 11
2110.22736621046
 21
-1265.13498522341
 31
0.0
  0
LINE
  5
   796
  8
0
  6
CONTINUOUS
 62
     7
 10
2105.42736613893
 20
-1265.33498522639
 30
0.0
 11
2104.82736612999
 21
-1265.33498522639
 31
0.0
  0
LINE
  5
   797
  8
0
  6
CONTINUOUS
 62
     7
 10
2104.62736612701
 20
-1262.33498518169
 30
0.0
 11
2104.62736612701
 21
-1265.13498522341
 31
0.0
  0
LINE
  5
   798
  8
0
  6
CONTINUOUS
 62
     7
 10
2105.42736613893
 20
-1262.13498517871
 30
0.0
 11
2104.82736612999
 21
-1262.13498517871
 31
0.0
  0
LINE
  5
   799
  8
0
  6
CONTINUOUS
 62
     7
 10
2105.42736613893
 20
-1262.33498518169
 30
0.0
 11
2104.62736612701
 21
-1262.33498518169
 31
0.0
  0
LINE
  5
   79A
  8
0
  6
CONTINUOUS
 62
     7
 10
2104.82736612999
 20
-1262.13498517871
 30
0.0
 11
2104.82736612999
 21
-1265.33498522639
 31
0.0
  0
LINE
  5
   79B
  8
0
  6
CONTINUOUS
 62
     7
 10
2105.42736613893
 20
-1265.13498522341
 30
0.0
 11
2104.62736612701
 21
-1265.13498522341
 31
0.0
  0
LINE
  5
   79C
  8
0
  6
CONTINUOUS
 62
     7
 10
2104.82736612999
 20
-1262.13498517871
 30
0.0
 11
2104.82736612999
 21
-1265.33498522639
 31
0.0
  0
LINE
  5
   79D
  8
0
  6
CONTINUOUS
 62
     7
 10
2104.82736612999
 20
-1265.33498522639
 30
0.0
 11
2104.62736612701
 21
-1265.13498522341
 31
0.0
  0
LINE
  5
   79E
  8
0
  6
CONTINUOUS
 62
     7
 10
2104.82736612999
 20
-1262.13498517871
 30
0.0
 11
2104.62736612701
 21
-1262.33498518169
 31
0.0
  0
LINE
  5
   79F
  8
0
  6
CONTINUOUS
 62
     7
 10
2107.8273661747
 20
-1283.73498550057
 30
0.0
 11
2105.42736613893
 21
-1283.73498550057
 31
0.0
  0
LINE
  5
   7A0
  8
0
  6
CONTINUOUS
 62
     7
 10
2107.8273661747
 20
-1263.73498520255
 30
0.0
 11
2105.42736613893
 21
-1263.73498520255
 31
0.0
  0
LINE
  5
   7A1
  8
0
  6
CONTINUOUS
 62
     7
 10
2113.02736625218
 20
-1263.73498520255
 30
0.0
 11
2110.62736621642
 21
-1263.73498520255
 31
0.0
  0
LINE
  5
   7A2
  8
0
  6
CONTINUOUS
 62
     7
 10
2113.02736625218
 20
-1283.73498550057
 30
0.0
 11
2110.62736621642
 21
-1283.73498550057
 31
0.0
  0
LINE
  5
   7A3
  8
0
  6
CONTINUOUS
 62
     7
 10
2157.49295152419
 20
-1271.65498539686
 30
0.0
 11
2157.49295152419
 21
-1275.81498530626
 31
0.0
  0
LINE
  5
   7A4
  8
0
  6
CONTINUOUS
 62
     7
 10
2157.49295152419
 20
-1271.65498539686
 30
0.0
 11
2151.42732213095
 21
-1271.65498539686
 31
0.0
  0
LINE
  5
   7A5
  8
0
  6
CONTINUOUS
 62
     7
 10
2157.49295152419
 20
-1275.81498530626
 30
0.0
 11
2151.42732213095
 21
-1275.81498530626
 31
0.0
  0
LINE
  5
   7A6
  8
0
  6
DASHDOT
 62
     7
 10
2123.08992596047
 20
-1268.73498527706
 30
0.0
 11
2116.57830328143
 21
-1268.73498527706
 31
0.0
  0
LINE
  5
   7A7
  8
0
  6
CONTINUOUS
 62
     7
 10
2120.42736636245
 20
-1267.93498526514
 30
0.0
 11
2118.82736633861
 21
-1267.93498526514
 31
0.0
  0
LINE
  5
   7A8
  8
0
  6
CONTINUOUS
 62
     7
 10
2120.42736636245
 20
-1269.53498528898
 30
0.0
 11
2118.82736633861
 21
-1269.53498528898
 31
0.0
  0
LINE
  5
   7A9
  8
0
  6
CONTINUOUS
 62
     7
 10
2118.62736633563
 20
-1268.13498526812
 30
0.0
 11
2118.62736633563
 21
-1269.334985286
 31
0.0
  0
LINE
  5
   7AA
  8
0
  6
CONTINUOUS
 62
     7
 10
2118.82736633861
 20
-1267.93498526514
 30
0.0
 11
2118.62736633563
 21
-1268.13498526812
 31
0.0
  0
LINE
  5
   7AB
  8
0
  6
CONTINUOUS
 62
     7
 10
2118.82736633861
 20
-1269.53498528898
 30
0.0
 11
2118.62736633563
 21
-1269.334985286
 31
0.0
  0
LINE
  5
   7AC
  8
0
  6
DASHDOT
 62
     7
 10
2119.02736634159
 20
-1269.334985286
 30
0.0
 11
2118.62736633563
 21
-1269.334985286
 31
0.0
  0
LINE
  5
   7AD
  8
0
  6
CONTINUOUS
 62
     7
 10
2118.82736633861
 20
-1267.93498526514
 30
0.0
 11
2118.82736633861
 21
-1269.53498528898
 31
0.0
  0
LINE
  5
   7AE
  8
0
  6
DASHDOT
 62
     7
 10
2119.02736634159
 20
-1268.13498526812
 30
0.0
 11
2118.62736633563
 21
-1268.13498526812
 31
0.0
  0
LINE
  5
   7AF
  8
0
  6
DASHDOT
 62
     7
 10
2123.08992596047
 20
-1278.73498542607
 30
0.0
 11
2116.57830328143
 21
-1278.73498542607
 31
0.0
  0
LINE
  5
   7B0
  8
0
  6
CONTINUOUS
 62
     7
 10
2118.82736633861
 20
-1277.93498541415
 30
0.0
 11
2118.82736633861
 21
-1279.53498543799
 31
0.0
  0
LINE
  5
   7B1
  8
0
  6
CONTINUOUS
 62
     7
 10
2118.62736633563
 20
-1278.13498541713
 30
0.0
 11
2118.62736633563
 21
-1279.33498543501
 31
0.0
  0
LINE
  5
   7B2
  8
0
  6
DASHDOT
 62
     7
 10
2119.02736634159
 20
-1279.33498543501
 30
0.0
 11
2118.62736633563
 21
-1279.33498543501
 31
0.0
  0
LINE
  5
   7B3
  8
0
  6
DASHDOT
 62
     7
 10
2119.02736634159
 20
-1278.13498541713
 30
0.0
 11
2118.62736633563
 21
-1278.13498541713
 31
0.0
  0
LINE
  5
   7B4
  8
0
  6
CONTINUOUS
 62
     7
 10
2120.42736636245
 20
-1277.93498541415
 30
0.0
 11
2118.82736633861
 21
-1277.93498541415
 31
0.0
  0
LINE
  5
   7B5
  8
0
  6
CONTINUOUS
 62
     7
 10
2120.42736636245
 20
-1279.53498543799
 30
0.0
 11
2118.82736633861
 21
-1279.53498543799
 31
0.0
  0
LINE
  5
   7B6
  8
0
  6
CONTINUOUS
 62
     7
 10
2118.82736633861
 20
-1279.53498543799
 30
0.0
 11
2118.62736633563
 21
-1279.33498543501
 31
0.0
  0
LINE
  5
   7B7
  8
0
  6
CONTINUOUS
 62
     7
 10
2118.82736633861
 20
-1277.93498541415
 30
0.0
 11
2118.62736633563
 21
-1278.13498541713
 31
0.0
  0
LINE
  5
   7B8
  8
0
  6
CONTINUOUS
 62
     7
 10
2118.82736633861
 20
-1279.53498543799
 30
0.0
 11
2118.62736633563
 21
-1279.33498543501
 31
0.0
  0
LINE
  5
   7B9
  8
0
  6
CONTINUOUS
 62
     7
 10
2118.82736633861
 20
-1277.93498541415
 30
0.0
 11
2118.62736633563
 21
-1278.13498541713
 31
0.0
  0
LINE
  5
   7BA
  8
0
  6
CONTINUOUS
 62
     7
 10
2113.02736625218
 20
-1280.53498545289
 30
0.0
 11
2113.02736625218
 21
-1286.93498554826
 31
0.0
  0
LINE
  5
   7BB
  8
0
  6
CONTINUOUS
 62
     7
 10
2120.26736636007
 20
-1270.73498530686
 30
0.0
 11
2120.26736636007
 21
-1276.73498539627
 31
0.0
  0
LINE
  5
   7BC
  8
0
  6
CONTINUOUS
 62
     7
 10
2119.78736635292
 20
-1270.73498530686
 30
0.0
 11
2119.78736635292
 21
-1276.73498539627
 31
0.0
  0
LINE
  5
   7BD
  8
0
  6
CONTINUOUS
 62
     7
 10
2120.26736636007
 20
-1270.73498530686
 30
0.0
 11
2119.78736635292
 21
-1270.73498530686
 31
0.0
  0
LINE
  5
   7BE
  8
0
  6
CONTINUOUS
 62
     7
 10
2120.26736636007
 20
-1276.73498539627
 30
0.0
 11
2119.78736635292
 21
-1276.73498539627
 31
0.0
  0
LINE
  5
   7BF
  8
0
  6
CONTINUOUS
 62
     7
 10
2119.78736635292
 20
-1271.53498531878
 30
0.0
 11
2099.82736605549
 21
-1271.53498531878
 31
0.0
  0
LINE
  5
   7C0
  8
0
  6
CONTINUOUS
 62
     7
 10
2119.78736635292
 20
-1275.93498538435
 30
0.0
 11
2099.82736605549
 21
-1275.93498538435
 31
0.0
  0
LINE
  5
   7C1
  8
0
  6
CONTINUOUS
 62
     7
 10
2120.26736636007
 20
-1270.73498530686
 30
0.0
 11
2120.26736636007
 21
-1276.73498539627
 31
0.0
  0
LINE
  5
   7C2
  8
0
  6
CONTINUOUS
 62
     7
 10
2151.42732213095
 20
-1258.1349851191
 30
0.0
 11
2151.42732213095
 21
-1299.33498573303
 31
0.0
  0
LINE
  5
   7C3
  8
0
  6
CONTINUOUS
 62
     7
 10
2149.42731599763
 20
-1258.1349851191
 30
0.0
 11
2149.42731599763
 21
-1299.33498573303
 31
0.0
  0
LINE
  5
   7C4
  8
0
  6
CONTINUOUS
 62
     7
 10
2148.22731597975
 20
-1273.13498534262
 30
0.0
 11
2139.42731584862
 21
-1273.13498534262
 31
0.0
  0
LINE
  5
   7C5
  8
0
  6
CONTINUOUS
 62
     7
 10
2148.22731597975
 20
-1271.3349853158
 30
0.0
 11
2139.42731584862
 21
-1271.3349853158
 31
0.0
  0
LINE
  5
   7C6
  8
0
  6
CONTINUOUS
 62
     7
 10
2148.22731597975
 20
-1271.3349853158
 30
0.0
 11
2148.22731597975
 21
-1273.13498534262
 31
0.0
  0
LINE
  5
   7C7
  8
0
  6
CONTINUOUS
 62
     7
 10
2139.42731584862
 20
-1271.3349853158
 30
0.0
 11
2139.42731584862
 21
-1273.13498534262
 31
0.0
  0
LINE
  5
   7C8
  8
0
  6
CONTINUOUS
 62
     7
 10
2139.42731584862
 20
-1274.3349853605
 30
0.0
 11
2139.42731584862
 21
-1276.13498538733
 31
0.0
  0
LINE
  5
   7C9
  8
0
  6
CONTINUOUS
 62
     7
 10
2148.22731597975
 20
-1276.13498538733
 30
0.0
 11
2139.42731584862
 21
-1276.13498538733
 31
0.0
  0
LINE
  5
   7CA
  8
0
  6
CONTINUOUS
 62
     7
 10
2148.22731597975
 20
-1274.3349853605
 30
0.0
 11
2148.22731597975
 21
-1276.13498538733
 31
0.0
  0
LINE
  5
   7CB
  8
0
  6
CONTINUOUS
 62
     7
 10
2148.22731597975
 20
-1274.3349853605
 30
0.0
 11
2139.42731584862
 21
-1274.3349853605
 31
0.0
  0
LINE
  5
   7CC
  8
0
  6
CONTINUOUS
 62
     7
 10
2148.22731597975
 20
-1286.13498553634
 30
0.0
 11
2139.42731584862
 21
-1286.13498553634
 31
0.0
  0
LINE
  5
   7CD
  8
0
  6
CONTINUOUS
 62
     7
 10
2139.42731584862
 20
-1284.33498550952
 30
0.0
 11
2139.42731584862
 21
-1286.13498553634
 31
0.0
  0
LINE
  5
   7CE
  8
0
  6
CONTINUOUS
 62
     7
 10
2148.22731597975
 20
-1284.33498550952
 30
0.0
 11
2148.22731597975
 21
-1286.13498553634
 31
0.0
  0
LINE
  5
   7CF
  8
0
  6
CONTINUOUS
 62
     7
 10
2148.22731597975
 20
-1284.33498550952
 30
0.0
 11
2139.42731584862
 21
-1284.33498550952
 31
0.0
  0
LINE
  5
   7D0
  8
0
  6
CONTINUOUS
 62
     7
 10
2139.42731584862
 20
-1281.33498546481
 30
0.0
 11
2139.42731584862
 21
-1283.13498549163
 31
0.0
  0
LINE
  5
   7D1
  8
0
  6
CONTINUOUS
 62
     7
 10
2148.22731597975
 20
-1283.13498549163
 30
0.0
 11
2139.42731584862
 21
-1283.13498549163
 31
0.0
  0
LINE
  5
   7D2
  8
0
  6
CONTINUOUS
 62
     7
 10
2148.22731597975
 20
-1281.33498546481
 30
0.0
 11
2148.22731597975
 21
-1283.13498549163
 31
0.0
  0
LINE
  5
   7D3
  8
0
  6
CONTINUOUS
 62
     7
 10
2148.22731597975
 20
-1281.33498546481
 30
0.0
 11
2139.42731584862
 21
-1281.33498546481
 31
0.0
  0
LINE
  5
   7D4
  8
0
  6
CONTINUOUS
 62
     7
 10
2139.42731584862
 20
-1274.3349853605
 30
0.0
 11
2139.42731584862
 21
-1276.13498538733
 31
0.0
  0
LINE
  5
   7D5
  8
0
  6
CONTINUOUS
 62
     7
 10
2148.22731597975
 20
-1276.13498538733
 30
0.0
 11
2139.42731584862
 21
-1276.13498538733
 31
0.0
  0
LINE
  5
   7D6
  8
0
  6
CONTINUOUS
 62
     7
 10
2148.22731597975
 20
-1274.3349853605
 30
0.0
 11
2148.22731597975
 21
-1276.13498538733
 31
0.0
  0
LINE
  5
   7D7
  8
0
  6
CONTINUOUS
 62
     7
 10
2148.22731597975
 20
-1266.13498523831
 30
0.0
 11
2139.42731584862
 21
-1266.13498523831
 31
0.0
  0
LINE
  5
   7D8
  8
0
  6
CONTINUOUS
 62
     7
 10
2139.42731584862
 20
-1264.33498521149
 30
0.0
 11
2139.42731584862
 21
-1266.13498523831
 31
0.0
  0
LINE
  5
   7D9
  8
0
  6
CONTINUOUS
 62
     7
 10
2148.22731597975
 20
-1264.33498521149
 30
0.0
 11
2139.42731584862
 21
-1264.33498521149
 31
0.0
  0
LINE
  5
   7DA
  8
0
  6
CONTINUOUS
 62
     7
 10
2148.22731597975
 20
-1264.33498521149
 30
0.0
 11
2148.22731597975
 21
-1266.13498523831
 31
0.0
  0
LINE
  5
   7DB
  8
0
  6
CONTINUOUS
 62
     7
 10
2148.22731597975
 20
-1263.13498519361
 30
0.0
 11
2139.42731584862
 21
-1263.13498519361
 31
0.0
  0
LINE
  5
   7DC
  8
0
  6
CONTINUOUS
 62
     7
 10
2148.22731597975
 20
-1261.33498516679
 30
0.0
 11
2148.22731597975
 21
-1263.13498519361
 31
0.0
  0
LINE
  5
   7DD
  8
0
  6
CONTINUOUS
 62
     7
 10
2148.22731597975
 20
-1261.33498516679
 30
0.0
 11
2139.42731584862
 21
-1261.33498516679
 31
0.0
  0
LINE
  5
   7DE
  8
0
  6
CONTINUOUS
 62
     7
 10
2139.42731584862
 20
-1261.33498516679
 30
0.0
 11
2139.42731584862
 21
-1263.13498519361
 31
0.0
  0
LINE
  5
   7DF
  8
0
  6
CONTINUOUS
 62
     7
 10
2148.22731597975
 20
-1296.13498568535
 30
0.0
 11
2139.42731584862
 21
-1296.13498568535
 31
0.0
  0
LINE
  5
   7E0
  8
0
  6
CONTINUOUS
 62
     7
 10
2148.22731597975
 20
-1294.33498565853
 30
0.0
 11
2139.42731584862
 21
-1294.33498565853
 31
0.0
  0
LINE
  5
   7E1
  8
0
  6
CONTINUOUS
 62
     7
 10
2139.42731584862
 20
-1294.33498565853
 30
0.0
 11
2139.42731584862
 21
-1296.13498568535
 31
0.0
  0
LINE
  5
   7E2
  8
0
  6
CONTINUOUS
 62
     7
 10
2148.22731597975
 20
-1294.33498565853
 30
0.0
 11
2148.22731597975
 21
-1296.13498568535
 31
0.0
  0
LINE
  5
   7E3
  8
0
  6
CONTINUOUS
 62
     7
 10
2148.22731597975
 20
-1291.33498561382
 30
0.0
 11
2148.22731597975
 21
-1293.13498564065
 31
0.0
  0
LINE
  5
   7E4
  8
0
  6
CONTINUOUS
 62
     7
 10
2139.42731584862
 20
-1291.33498561382
 30
0.0
 11
2139.42731584862
 21
-1293.13498564065
 31
0.0
  0
LINE
  5
   7E5
  8
0
  6
CONTINUOUS
 62
     7
 10
2148.22731597975
 20
-1291.33498561382
 30
0.0
 11
2139.42731584862
 21
-1291.33498561382
 31
0.0
  0
LINE
  5
   7E6
  8
0
  6
CONTINUOUS
 62
     7
 10
2148.22731597975
 20
-1293.13498564065
 30
0.0
 11
2139.42731584862
 21
-1293.13498564065
 31
0.0
  0
LINE
  5
   7E7
  8
0
  6
CONTINUOUS
 62
     7
 10
2121.42736637735
 20
-1295.93498568237
 30
0.0
 11
2099.82736605549
 21
-1295.93498568237
 31
0.0
  0
LINE
  5
   7E8
  8
0
  6
CONTINUOUS
 62
     7
 10
2121.42736637735
 20
-1291.5349856168
 30
0.0
 11
2099.82736605549
 21
-1291.5349856168
 31
0.0
  0
LINE
  5
   7E9
  8
0
  6
CONTINUOUS
 62
     7
 10
2099.82736605549
 20
-1290.5349856019
 30
0.0
 11
2099.82736605549
 21
-1296.93498569727
 31
0.0
  0
LINE
  5
   7EA
  8
0
  6
CONTINUOUS
 62
     7
 10
2097.42736601973
 20
-1290.13498559594
 30
0.0
 11
2097.42736601973
 21
-1297.33498570323
 31
0.0
  0
LINE
  5
   7EB
  8
0
  6
CONTINUOUS
 62
     7
 10
2096.6273660078
 20
-1290.13498559594
 30
0.0
 11
2096.6273660078
 21
-1297.33498570323
 31
0.0
  0
LINE
  5
   7EC
  8
0
  6
CONTINUOUS
 62
     7
 10
2099.82736605549
 20
-1293.73498564959
 30
0.0
 11
2097.42736601973
 21
-1293.73498564959
 31
0.0
  0
LINE
  5
   7ED
  8
0
  6
CONTINUOUS
 62
     7
 10
2099.82736605549
 20
-1290.5349856019
 30
0.0
 11
2097.42736601973
 21
-1290.5349856019
 31
0.0
  0
LINE
  5
   7EE
  8
0
  6
CONTINUOUS
 62
     7
 10
2099.82736605549
 20
-1296.93498569727
 30
0.0
 11
2097.42736601973
 21
-1296.93498569727
 31
0.0
  0
LINE
  5
   7EF
  8
0
  6
DASHDOT
 62
     7
 10
2163.06346687572
 20
-1293.73498564959
 30
0.0
 11
2088.85675693932
 21
-1293.73498564959
 31
0.0
  0
LINE
  5
   7F0
  8
0
  6
CONTINUOUS
 62
     7
 10
2097.42736601973
 20
-1290.13498559594
 30
0.0
 11
2096.6273660078
 21
-1290.13498559594
 31
0.0
  0
LINE
  5
   7F1
  8
0
  6
CONTINUOUS
 62
     7
 10
2097.42736601973
 20
-1297.33498570323
 30
0.0
 11
2096.6273660078
 21
-1297.33498570323
 31
0.0
  0
LINE
  5
   7F2
  8
0
  6
CONTINUOUS
 62
     7
 10
2095.42736598992
 20
-1297.33498570323
 30
0.0
 11
2094.627365978
 21
-1297.33498570323
 31
0.0
  0
LINE
  5
   7F3
  8
0
  6
CONTINUOUS
 62
     7
 10
2095.42736598992
 20
-1290.13498559594
 30
0.0
 11
2095.42736598992
 21
-1297.33498570323
 31
0.0
  0
LINE
  5
   7F4
  8
0
  6
CONTINUOUS
 62
     7
 10
2094.627365978
 20
-1290.13498559594
 30
0.0
 11
2094.627365978
 21
-1297.33498570323
 31
0.0
  0
LINE
  5
   7F5
  8
0
  6
CONTINUOUS
 62
     7
 10
2095.42736598992
 20
-1290.13498559594
 30
0.0
 11
2094.627365978
 21
-1290.13498559594
 31
0.0
  0
LINE
  5
   7F6
  8
0
  6
CONTINUOUS
 62
     7
 10
2096.6273660078
 20
-1292.13498562574
 30
0.0
 11
2095.42736598992
 21
-1292.13498562574
 31
0.0
  0
LINE
  5
   7F7
  8
0
  6
CONTINUOUS
 62
     7
 10
2096.6273660078
 20
-1292.33498562872
 30
0.0
 11
2095.42736598992
 21
-1292.33498562872
 31
0.0
  0
LINE
  5
   7F8
  8
0
  6
CONTINUOUS
 62
     7
 10
2096.6273660078
 20
-1295.13498567045
 30
0.0
 11
2095.42736598992
 21
-1295.13498567045
 31
0.0
  0
LINE
  5
   7F9
  8
0
  6
CONTINUOUS
 62
     7
 10
2096.6273660078
 20
-1295.33498567343
 30
0.0
 11
2095.42736598992
 21
-1295.33498567343
 31
0.0
  0
LINE
  5
   7FA
  8
0
  6
CONTINUOUS
 62
     7
 10
2091.6273659333
 20
-1292.13498562574
 30
0.0
 11
2091.6273659333
 21
-1295.33498567343
 31
0.0
  0
LINE
  5
   7FB
  8
0
  6
CONTINUOUS
 62
     7
 10
2091.42736593032
 20
-1292.33498562872
 30
0.0
 11
2091.42736593032
 21
-1295.13498567045
 31
0.0
  0
LINE
  5
   7FC
  8
0
  6
CONTINUOUS
 62
     7
 10
2092.22736594224
 20
-1290.5349856019
 30
0.0
 11
2092.22736594224
 21
-1296.93498569727
 31
0.0
  0
LINE
  5
   7FD
  8
0
  6
CONTINUOUS
 62
     7
 10
2094.627365978
 20
-1293.73498564959
 30
0.0
 11
2092.22736594224
 21
-1293.73498564959
 31
0.0
  0
LINE
  5
   7FE
  8
0
  6
CONTINUOUS
 62
     7
 10
2094.627365978
 20
-1296.93498569727
 30
0.0
 11
2092.22736594224
 21
-1296.93498569727
 31
0.0
  0
LINE
  5
   7FF
  8
0
  6
CONTINUOUS
 62
     7
 10
2094.627365978
 20
-1290.5349856019
 30
0.0
 11
2092.22736594224
 21
-1290.5349856019
 31
0.0
  0
LINE
  5
   800
  8
0
  6
CONTINUOUS
 62
     7
 10
2091.6273659333
 20
-1292.13498562574
 30
0.0
 11
2091.42736593032
 21
-1292.33498562872
 31
0.0
  0
LINE
  5
   801
  8
0
  6
CONTINUOUS
 62
     7
 10
2092.22736594224
 20
-1292.13498562574
 30
0.0
 11
2091.6273659333
 21
-1292.13498562574
 31
0.0
  0
LINE
  5
   802
  8
0
  6
CONTINUOUS
 62
     7
 10
2092.22736594224
 20
-1295.33498567343
 30
0.0
 11
2091.6273659333
 21
-1295.33498567343
 31
0.0
  0
LINE
  5
   803
  8
0
  6
CONTINUOUS
 62
     7
 10
2092.22736594224
 20
-1295.13498567045
 30
0.0
 11
2091.42736593032
 21
-1295.13498567045
 31
0.0
  0
LINE
  5
   804
  8
0
  6
DASHDOT
 62
     7
 10
2120.62736636543
 20
-1257.00518334038
 30
0.0
 11
2120.62736636543
 21
-1300.18916889452
 31
0.0
  0
LINE
  5
   805
  8
0
  6
CONTINUOUS
 62
     7
 10
2120.42736636245
 20
-1267.13498525321
 30
0.0
 11
2119.02736634159
 21
-1267.13498525321
 31
0.0
  0
LINE
  5
   806
  8
0
  6
CONTINUOUS
 62
     7
 10
2120.42736636245
 20
-1270.3349853009
 30
0.0
 11
2119.02736634159
 21
-1270.3349853009
 31
0.0
  0
LINE
  5
   807
  8
0
  6
CONTINUOUS
 62
     7
 10
2119.02736634159
 20
-1267.13498525321
 30
0.0
 11
2119.02736634159
 21
-1270.3349853009
 31
0.0
  0
LINE
  5
   808
  8
0
  6
CONTINUOUS
 62
     7
 10
2120.62736636543
 20
-1266.93498525023
 30
0.0
 11
2120.42736636245
 21
-1266.93498525023
 31
0.0
  0
LINE
  5
   809
  8
0
  6
CONTINUOUS
 62
     7
 10
2120.62736636543
 20
-1270.53498530388
 30
0.0
 11
2120.42736636245
 21
-1270.53498530388
 31
0.0
  0
LINE
  5
   80A
  8
0
  6
CONTINUOUS
 62
     7
 10
2120.42736636245
 20
-1266.93498525023
 30
0.0
 11
2120.42736636245
 21
-1270.53498530388
 31
0.0
  0
LINE
  5
   80B
  8
0
  6
CONTINUOUS
 62
     7
 10
2120.62736636543
 20
-1266.93498525023
 30
0.0
 11
2120.62736636543
 21
-1270.53498530388
 31
0.0
  0
LINE
  5
   80C
  8
0
  6
CONTINUOUS
 62
     7
 10
2120.42736636245
 20
-1280.33498544991
 30
0.0
 11
2119.02736634159
 21
-1280.33498544991
 31
0.0
  0
LINE
  5
   80D
  8
0
  6
CONTINUOUS
 62
     7
 10
2120.42736636245
 20
-1277.13498540223
 30
0.0
 11
2119.02736634159
 21
-1277.13498540223
 31
0.0
  0
LINE
  5
   80E
  8
0
  6
CONTINUOUS
 62
     7
 10
2119.02736634159
 20
-1277.13498540223
 30
0.0
 11
2119.02736634159
 21
-1280.33498544991
 31
0.0
  0
LINE
  5
   80F
  8
0
  6
CONTINUOUS
 62
     7
 10
2120.42736636245
 20
-1276.93498539925
 30
0.0
 11
2120.42736636245
 21
-1280.53498545289
 31
0.0
  0
LINE
  5
   810
  8
0
  6
CONTINUOUS
 62
     7
 10
2120.62736636543
 20
-1276.93498539925
 30
0.0
 11
2120.62736636543
 21
-1280.53498545289
 31
0.0
  0
LINE
  5
   811
  8
0
  6
CONTINUOUS
 62
     7
 10
2120.62736636543
 20
-1280.53498545289
 30
0.0
 11
2120.42736636245
 21
-1280.53498545289
 31
0.0
  0
LINE
  5
   812
  8
0
  6
CONTINUOUS
 62
     7
 10
2120.62736636543
 20
-1276.93498539925
 30
0.0
 11
2120.42736636245
 21
-1276.93498539925
 31
0.0
  0
TEXT
  5
   813
  8
0
  6
CONTINUOUS
 62
     2
 10
2165.50500471635
 20
-1321.03628543145
 30
0.0
 40
2.00000007748604
  1
MOSTOSI
 50
359.999999896069
 41
0.625
 72
     1
 11
2169.75500488281
 21
-1320.03628540039
 31
0.0
 73
     2
  0
TEXT
  5
   814
  8
0
  6
CONTINUOUS
 62
     2
 10
2266.20409015289
 20
-1320.7837992339
 30
0.0
 40
2.00000007748604
  1
4 POLE LOW VOLTAGE M.C.C.B.SERIES ISOMAX
 50
359.999999896069
 41
0.625
 72
     1
 11
2291.07909111843
 21
-1319.78379924015
 31
0.0
 73
     2
  0
TEXT
  5
   815
  8
0
  6
CONTINUOUS
 62
     2
 10
2273.07909055038
 20
-1323.78379924633
 30
0.0
 40
2.00000007748604
  1
SELECTED CURRENT RC 211-212/1
 50
359.999999896069
 41
0.625
 72
     1
 11
2291.07909124957
 21
-1322.78379924015
 31
0.0
 73
     2
  0
TEXT
  5
   816
  8
0
  6
CONTINUOUS
 62
     2
 10
2273.70409070573
 20
-1326.78379924746
 30
0.0
 40
2.00000007748604
  1
FIXED VERSION REAR TERMINALS
 50
359.999999896069
 41
0.625
 72
     1
 11
2291.0790913807
 21
-1325.78379924015
 31
0.0
 73
     2
  0
TEXT
  5
   817
  8
0
  6
CONTINUOUS
 62
     2
 10
2258.9909181529
 20
-1330.71335680039
 30
0.0
 40
2.00000007748604
  1
INTERR.AUTOM.SERIE ISOMAX DIFFERENZIALE RC 211-212/1
 50
359.999999896069
 41
0.625
 72
     1
 11
2291.36591940902
 21
-1329.71335682021
 31
0.0
 73
     2
  0
TEXT
  5
   818
  8
0
  6
CONTINUOUS
 62
     2
 10
2266.49091821698
 20
-1333.71335681396
 30
0.0
 40
2.00000007748604
  1
ESECUZIONE FISSA CON TERMINALI POSTERIRI
 50
359.999999896069
 41
0.625
 72
     1
 11
2291.36591918252
 21
-1332.71335682021
 31
0.0
 73
     2
  0
INSERT
  5
   819
  8
0
  6
CONTINUOUS
 62
     3
  2
*UDIM213
 10
0.0
 20
0.0
 30
0.0
  0
INSERT
  5
   81A
  8
0
  6
CONTINUOUS
 62
     3
  2
*UDIM214
 10
0.0
 20
0.0
 30
0.0
  0
INSERT
  5
   81B
  8
0
  6
CONTINUOUS
 62
     3
  2
*UDIM215
 10
0.0
 20
0.0
 30
0.0
  0
INSERT
  5
   81C
  8
0
  6
CONTINUOUS
 62
     3
  2
*UDIM216
 10
0.0
 20
0.0
 30
0.0
  0
TEXT
  5
   81D
  8
0
  6
CONTINUOUS
 62
     2
 10
2281.6733625255
 20
-1340.76968378321
 30
0.0
 40
2.99999994933605
  1
RC 211-212/1
 50
359.999999896069
 41
0.916666607525612
 72
     1
 11
2297.89836120605
 21
-1339.26968383789
 31
0.0
 73
     2
  0
TEXT
  5
   81E
  8
0
  6
CONTINUOUS
 62
     2
 10
2164.69256572729
 20
-1324.78514102114
 30
0.0
 40
2.00000007748604
  1
22/12/94
 50
359.999999896069
 41
0.625
 72
     1
 11
2169.56756591797
 21
-1323.78514099121
 31
0.0
 73
     2
  0
TEXT
  5
   81F
  8
0
  6
CONTINUOUS
 62
     2
 10
2265.25289844218
 20
-1350.15600583108
 30
0.0
 40
5.00000002682209
  1
601855/341
 50
359.999999896069
 41
0.943334007700291
 72
     1
 11
2288.3112487793
 21
-1347.65600585938
 31
0.0
 73
     2
  0
INSERT
  5
   820
  8
0
  6
CONTINUOUS
 62
     7
  2
*UDIM217
 10
0.0
 20
0.0
 30
0.0
  0
INSERT
  5
   821
  8
0
  6
CONTINUOUS
 62
     7
  2
*UDIM218
 10
0.0
 20
0.0
 30
0.0
  0
INSERT
  5
   822
  8
0
  6
CONTINUOUS
 62
     3
  2
*UDIM219
 10
0.0
 20
0.0
 30
0.0
  0
INSERT
  5
   823
  8
0
  6
CONTINUOUS
 62
     3
  2
*UDIM220
 10
0.0
 20
0.0
 30
0.0
  0
INSERT
  5
   824
  8
0
  6
CONTINUOUS
 62
     7
  2
*UDIM221
 10
0.0
 20
0.0
 30
0.0
  0
LINE
  5
   825
  8
0
  6
CONTINUOUS
 62
     7
 10
2121.4272457021
 20
-1204.36228736937
 30
0.0
 11
2127.36651664779
 21
-1204.36228736937
 31
0.0
  0
LINE
  5
   826
  8
0
  6
CONTINUOUS
 62
     7
 10
2121.4272582906
 20
-1156.3622805506
 30
0.0
 11
2130.82725194569
 21
-1156.3622805506
 31
0.0
  0
LINE
  5
   827
  8
0
  6
CONTINUOUS
 62
     7
 10
2135.02722530539
 20
-1203.76228736043
 30
0.0
 11
2135.02722530539
 21
-1204.36228736937
 31
0.0
  0
LINE
  5
   828
  8
0
  6
CONTINUOUS
 62
     7
 10
2121.4272582906
 20
-1156.96228055954
 30
0.0
 11
2122.22725830252
 21
-1156.96228055954
 31
0.0
  0
LINE
  5
   829
  8
0
  6
CONTINUOUS
 62
     7
 10
2121.4272457021
 20
-1156.36229275763
 30
0.0
 11
2121.4272457021
 21
-1204.36228736937
 31
0.0
  0
LINE
  5
   82A
  8
0
  6
CONTINUOUS
 62
     7
 10
2139.82725856478
 20
-1156.3622805506
 30
0.0
 11
2139.82725856478
 21
-1157.04228056073
 31
0.0
  0
LINE
  5
   82B
  8
0
  6
CONTINUOUS
 62
     7
 10
2146.62724645908
 20
-1204.36233314574
 30
0.0
 11
2147.62725868101
 21
-1204.36233314574
 31
0.0
  0
LINE
  5
   82C
  8
0
  6
CONTINUOUS
 62
     7
 10
2146.62724607761
 20
-1156.36232937872
 30
0.0
 11
2147.62724609251
 21
-1156.36232937872
 31
0.0
  0
LINE
  5
   82D
  8
0
  6
CONTINUOUS
 62
     7
 10
2132.62725197251
 20
-1156.36232937872
 30
0.0
 11
2148.62725869591
 21
-1156.36232937872
 31
0.0
  0
LINE
  5
   82E
  8
0
  6
CONTINUOUS
 62
     7
 10
2139.82725856478
 20
-1204.36233314574
 30
0.0
 11
2148.62725869591
 21
-1204.36233314574
 31
0.0
  0
LINE
  5
   82F
  8
0
  6
CONTINUOUS
 62
     7
 10
2146.62724645908
 20
-1204.36233314574
 30
0.0
 11
2147.62725868101
 21
-1204.36233314574
 31
0.0
  0
LINE
  5
   830
  8
0
  6
CONTINUOUS
 62
     7
 10
2151.62725874062
 20
-1176.36233578002
 30
0.0
 11
2151.62725874062
 21
-1193.96233909428
 31
0.0
  0
LINE
  5
   831
  8
0
  6
CONTINUOUS
 62
     7
 10
2149.62725337027
 20
-1194.16233909302
 30
0.0
 11
2149.62724853832
 21
-1197.96233304763
 31
0.0
  0
LINE
  5
   832
  8
0
  6
CONTINUOUS
 62
     7
 10
2149.62725871081
 20
-1194.16233909726
 30
0.0
 11
2151.42725873764
 21
-1194.16233909726
 31
0.0
  0
LINE
  5
   833
  8
0
  6
CONTINUOUS
 62
     7
 10
2149.62725184398
 20
-1176.16232891055
 30
0.0
 11
2151.42725950169
 21
-1176.16233577704
 31
0.0
  0
LINE
  5
   834
  8
0
  6
CONTINUOUS
 62
     7
 10
2149.62723429674
 20
-1162.76232947409
 30
0.0
 11
2149.62723429674
 21
-1176.16232280706
 31
0.0
  0
LINE
  5
   835
  8
0
  6
CONTINUOUS
 62
     7
 10
2148.62725869591
 20
-1198.56233305931
 30
0.0
 11
2148.62725869591
 21
-1204.36233314574
 31
0.0
  0
LINE
  5
   836
  8
0
  6
CONTINUOUS
 62
     7
 10
2148.62725869591
 20
-1156.36232937872
 30
0.0
 11
2148.62725869591
 21
-1162.1623349581
 31
0.0
  0
LINE
  5
   837
  8
0
  6
CONTINUOUS
 62
     7
 10
2149.22725870485
 20
-1197.96233305037
 30
0.0
 11
2149.22725870485
 21
-1198.56233305931
 31
0.0
  0
LINE
  5
   838
  8
0
  6
CONTINUOUS
 62
     7
 10
2148.62725869591
 20
-1198.56233305931
 30
0.0
 11
2149.62725871081
 21
-1198.56233305931
 31
0.0
  0
LINE
  5
   839
  8
0
  6
CONTINUOUS
 62
     7
 10
2149.22725870485
 20
-1197.96233305037
 30
0.0
 11
2149.62724853832
 21
-1197.96233305037
 31
0.0
  0
LINE
  5
   83A
  8
0
  6
CONTINUOUS
 62
     7
 10
2148.62725869591
 20
-1162.16232946515
 30
0.0
 11
2149.42722866709
 21
-1162.16232946515
 31
0.0
  0
LINE
  5
   83B
  8
0
  6
CONTINUOUS
 62
     7
 10
2149.22725870485
 20
-1162.76232947409
 30
0.0
 11
2149.62723429674
 21
-1162.76232947409
 31
0.0
  0
LINE
  5
   83C
  8
0
  6
CONTINUOUS
 62
     7
 10
2149.22725870485
 20
-1162.16232946515
 30
0.0
 11
2149.22725870485
 21
-1162.76232947409
 31
0.0
  0
ARC
  5
   83D
  8
0
  6
CONTINUOUS
 62
     7
 10
2151.42725873764
 20
-1176.36233578002
 30
0.0
 40
0.200000002980232
 50
359.999999844103
 51
449.999781278102
  0
ARC
  5
   83E
  8
0
  6
CONTINUOUS
 62
     7
 10
2151.42725873764
 20
-1193.96233909428
 30
0.0
 40
0.200000002980232
 50
269.999999844103
 51
359.999999844103
  0
LINE
  5
   83F
  8
0
  6
CONTINUOUS
 62
     7
 10
2121.4272457021
 20
-1156.36232616664
 30
0.0
 11
2121.4272457021
 21
-1203.63512183119
 31
0.0
  0
LINE
  5
   840
  8
0
  6
CONTINUOUS
 62
     7
 10
2121.4272457021
 20
-1176.68221891642
 30
0.0
 11
2121.4272457021
 21
-1183.48221901775
 31
0.0
  0
LINE
  5
   841
  8
0
  6
CONTINUOUS
 62
     7
 10
2121.4272457021
 20
-1198.35512175251
 30
0.0
 11
2121.62724570508
 21
-1198.35512175251
 31
0.0
  0
LINE
  5
   842
  8
0
  6
CONTINUOUS
 62
     7
 10
2121.4272457021
 20
-1156.36232616664
 30
0.0
 11
2130.02724583025
 21
-1156.36232616664
 31
0.0
  0
LINE
  5
   843
  8
0
  6
CONTINUOUS
 62
     7
 10
2126.02725835915
 20
-1204.36228736937
 30
0.0
 11
2139.82725856478
 21
-1204.36228736937
 31
0.0
  0
LINE
  5
   844
  8
0
  6
CONTINUOUS
 62
     7
 10
2140.02725856776
 20
-1164.66232339889
 30
0.0
 11
2140.22725857074
 21
-1164.66232339889
 31
0.0
  0
LINE
  5
   845
  8
0
  6
CONTINUOUS
 62
     7
 10
2121.42727011616
 20
-1157.96233908231
 30
0.0
 11
2121.42727011616
 21
-1205.16233315766
 31
0.0
  0
LINE
  5
   846
  8
0
  6
CONTINUOUS
 62
     7
 10
2121.4272397766
 20
-1156.36232937872
 30
0.0
 11
2139.62723452921
 21
-1156.36232937872
 31
0.0
  0
LINE
  5
   847
  8
0
  6
CONTINUOUS
 62
     7
 10
2139.82723221827
 20
-1156.3623232752
 30
0.0
 11
2148.62722865517
 21
-1156.3623232752
 31
0.0
  0
LINE
  5
   848
  8
0
  6
CONTINUOUS
 62
     7
 10
2146.82722862835
 20
-1148.58539525148
 30
0.0
 11
2146.82722862835
 21
-1148.84232316315
 31
0.0
  0
LINE
  5
   849
  8
0
  6
CONTINUOUS
 62
     7
 10
2148.62722865517
 20
-1148.5623292625
 30
0.0
 11
2148.62722865517
 21
-1154.36233031264
 31
0.0
  0
LINE
  5
   84A
  8
0
  6
CONTINUOUS
 62
     7
 10
2148.62722865517
 20
-1148.5623292625
 30
0.0
 11
2149.22722866411
 21
-1148.5623292625
 31
0.0
  0
LINE
  5
   84B
  8
0
  6
CONTINUOUS
 62
     7
 10
2148.62722865517
 20
-1156.3623232752
 30
0.0
 11
2148.62722865517
 21
-1160.56232944131
 31
0.0
  0
LINE
  5
   84C
  8
0
  6
CONTINUOUS
 62
     7
 10
2148.62722865517
 20
-1148.5623292625
 30
0.0
 11
2149.42722866709
 21
-1148.5623292625
 31
0.0
  0
LINE
  5
   84D
  8
0
  6
CONTINUOUS
 62
     7
 10
2149.62722867007
 20
-1148.76232926548
 30
0.0
 11
2149.62722867007
 21
-1154.76232935488
 31
0.0
  0
ARC
  5
   84E
  8
0
  6
CONTINUOUS
 62
     7
 10
2149.42722866709
 20
-1148.76232926548
 30
0.0
 40
0.200000002980232
 50
359.999999844103
 51
449.999999844103
  0
ARC
  5
   84F
  8
0
  6
CONTINUOUS
 62
     7
 10
2149.42722866709
 20
-1161.96232946217
 30
0.0
 40
0.200000002980232
 50
269.999999844103
 51
359.999999844103
  0
LINE
  5
   850
  8
0
  6
DASHDOT
 62
     7
 10
2144.69847516249
 20
-1157.56233550012
 30
0.0
 11
2151.59034251459
 21
-1157.56233550012
 31
0.0
  0
LINE
  5
   851
  8
0
  6
CONTINUOUS
 62
     7
 10
2149.62722867007
 20
-1158.762335518
 30
0.0
 11
2150.82722868795
 21
-1158.762335518
 31
0.0
  0
LINE
  5
   852
  8
0
  6
CONTINUOUS
 62
     7
 10
2151.02722869093
 20
-1156.48233548403
 30
0.0
 11
2151.02722869093
 21
-1158.56233551502
 31
0.0
  0
LINE
  5
   853
  8
0
  6
CONTINUOUS
 62
     7
 10
2151.02722869093
 20
-1158.56233551502
 30
0.0
 11
2150.82722868795
 21
-1158.762335518
 31
0.0
  0
LINE
  5
   854
  8
0
  6
CONTINUOUS
 62
     7
 10
2150.82722868795
 20
-1157.7623355031
 30
0.0
 11
2150.82722868795
 21
-1158.762335518
 31
0.0
  0
LINE
  5
   855
  8
0
  6
CONTINUOUS
 62
     7
 10
2150.62722868497
 20
-1157.7623355031
 30
0.0
 11
2151.02722869093
 21
-1157.7623355031
 31
0.0
  0
LINE
  5
   856
  8
0
  6
CONTINUOUS
 62
     7
 10
2150.62722868497
 20
-1157.36233549714
 30
0.0
 11
2151.02722869093
 21
-1157.36233549714
 31
0.0
  0
LINE
  5
   857
  8
0
  6
CONTINUOUS
 62
     7
 10
2150.62722868497
 20
-1157.36233549714
 30
0.0
 11
2150.62722868497
 21
-1157.7623355031
 31
0.0
  0
LINE
  5
   858
  8
0
  6
CONTINUOUS
 62
     7
 10
2150.82722868795
 20
-1156.36233548224
 30
0.0
 11
2150.82722868795
 21
-1157.36233549714
 31
0.0
  0
CIRCLE
  5
   859
  8
0
  6
CONTINUOUS
 62
     7
 10
2150.02722867603
 20
-1157.56233550012
 30
0.0
 40
0.200000002980232
  0
LINE
  5
   85A
  8
0
  6
CONTINUOUS
 62
     7
 10
2121.42731225585
 20
-1156.36232937872
 30
0.0
 11
2134.33754377347
 21
-1156.36232937872
 31
0.0
  0
LINE
  5
   85B
  8
0
  6
CONTINUOUS
 62
     7
 10
2121.42731225585
 20
-1106.36233473718
 30
0.0
 11
2121.42731225585
 21
-1114.96232876182
 31
0.0
  0
LINE
  5
   85C
  8
0
  6
CONTINUOUS
 62
     7
 10
2151.62730728264
 20
-1137.45018529117
 30
0.0
 11
2158.50556114342
 21
-1139.5286764973
 31
0.0
  0
LINE
  5
   85D
  8
0
  6
CONTINUOUS
 62
     7
 10
2158.5055827956
 20
-1139.52868299332
 30
0.0
 11
2158.59125207048
 21
-1139.58084453377
 31
0.0
  0
LINE
  5
   85E
  8
0
  6
CONTINUOUS
 62
     7
 10
2158.59123682475
 20
-1139.58083891688
 30
0.0
 11
2158.64081207415
 21
-1139.66803322178
 31
0.0
  0
LINE
  5
   85F
  8
0
  6
CONTINUOUS
 62
     7
 10
2158.64082032623
 20
-1139.66803827174
 30
0.0
 11
2158.64183056482
 21
-1139.76833442535
 31
0.0
  0
LINE
  5
   860
  8
0
  6
CONTINUOUS
 62
     7
 10
2158.6418268604
 20
-1139.76833107596
 30
0.0
 11
2158.35025759915
 21
-1140.94243785911
 31
0.0
  0
LINE
  5
   861
  8
0
  6
CONTINUOUS
 62
     7
 10
2158.35026006443
 20
-1140.94243592439
 30
0.0
 11
2158.30015468182
 21
-1141.03303059506
 31
0.0
  0
LINE
  5
   862
  8
0
  6
CONTINUOUS
 62
     7
 10
2158.30015724591
 20
-1141.03303374952
 30
0.0
 11
2158.2114665517
 21
-1141.0864378798
 31
0.0
  0
LINE
  5
   863
  8
0
  6
CONTINUOUS
 62
     7
 10
2158.21147581813
 20
-1141.08643788592
 30
0.0
 11
2158.10796569712
 21
-1141.08834220743
 31
0.0
  0
LINE
  5
   864
  8
0
  6
CONTINUOUS
 62
     7
 10
2151.62730728264
 20
-1139.47901877866
 30
0.0
 11
2158.1079554479
 21
-1141.08834177123
 31
0.0
  0
LINE
  5
   865
  8
0
  6
CONTINUOUS
 62
     7
 10
2121.42731225585
 20
-1138.04232910573
 30
0.0
 11
2121.42731225585
 21
-1154.36232934892
 31
0.0
  0
LINE
  5
   866
  8
0
  6
CONTINUOUS
 62
     7
 10
2121.42731207783
 20
-1105.96232862771
 30
0.0
 11
2121.42731207783
 21
-1158.78960900751
 31
0.0
  0
INSERT
  5
   867
  8
0
  6
CONTINUOUS
 62
     3
  2
*HATCH40
 10
2147.71044921875
 20
-1137.76232910156
 30
0.0
 41
0.400000005960464
 42
0.400000005960464
 50
269.999999844103
 43
0.400000005960464
  0
INSERT
  5
   868
  8
0
  6
CONTINUOUS
 62
     3
  2
*HATCH41
 10
2147.71044921875
 20
-1137.76232910156
 30
0.0
 41
0.400000005960464
 42
0.400000005960464
 50
269.999999844103
 43
0.400000005960464
  0
INSERT
  5
   869
  8
0
  6
CONTINUOUS
 62
     3
  2
*HATCH42
 10
2147.71044921875
 20
-1137.76232910156
 30
0.0
 41
0.400000005960464
 42
0.400000005960464
 50
269.999999844103
 43
0.400000005960464
  0
INSERT
  5
   86A
  8
0
  6
CONTINUOUS
 62
     3
  2
*HATCH43
 10
2147.71044921875
 20
-1137.76232910156
 30
0.0
 41
0.400000005960464
 42
0.400000005960464
 50
269.999999844103
 43
0.400000005960464
  0
LINE
  5
   86B
  8
0
  6
CONTINUOUS
 62
     7
 10
2149.62730114932
 20
-1144.16232309341
 30
0.0
 11
2149.62730114932
 21
-1147.56232924759
 31
0.0
  0
LINE
  5
   86C
  8
0
  6
CONTINUOUS
 62
     7
 10
2149.62730101946
 20
-1144.16232309341
 30
0.0
 11
2151.62730728264
 21
-1144.16232309341
 31
0.0
  0
LINE
  5
   86D
  8
0
  6
CONTINUOUS
 62
     7
 10
2139.82730469752
 20
-1156.3623232752
 30
0.0
 11
2148.62722865517
 21
-1156.3623232752
 31
0.0
  0
LINE
  5
   86E
  8
0
  6
CONTINUOUS
 62
     7
 10
2149.62730712298
 20
-1126.16232282519
 30
0.0
 11
2151.62730728264
 21
-1126.16232282519
 31
0.0
  0
LINE
  5
   86F
  8
0
  6
CONTINUOUS
 62
     7
 10
2149.62730725284
 20
-1113.16232873499
 30
0.0
 11
2149.62730725284
 21
-1126.16232282519
 31
0.0
  0
LINE
  5
   870
  8
0
  6
CONTINUOUS
 62
     7
 10
2151.62730728264
 20
-1126.16232282519
 30
0.0
 11
2151.62730728264
 21
-1144.16232309341
 31
0.0
  0
LINE
  5
   871
  8
0
  6
CONTINUOUS
 62
     7
 10
2149.22730114336
 20
-1147.96232925355
 30
0.0
 11
2149.22730114336
 21
-1148.5623292625
 31
0.0
  0
LINE
  5
   872
  8
0
  6
CONTINUOUS
 62
     7
 10
2148.62730113442
 20
-1148.5623292625
 30
0.0
 11
2148.62730113442
 21
-1154.36232934892
 31
0.0
  0
LINE
  5
   873
  8
0
  6
CONTINUOUS
 62
     7
 10
2149.22730114336
 20
-1112.16232872009
 30
0.0
 11
2149.22730114336
 21
-1112.76232872903
 31
0.0
  0
LINE
  5
   874
  8
0
  6
CONTINUOUS
 62
     7
 10
2148.62730113442
 20
-1106.56232863665
 30
0.0
 11
2148.62730113442
 21
-1112.16232872009
 31
0.0
  0
ARC
  5
   875
  8
0
  6
CONTINUOUS
 62
     7
 10
2149.22730724688
 20
-1113.16232873499
 30
0.0
 40
0.400000005960464
 50
359.999999844103
 51
449.999999844103
  0
ARC
  5
   876
  8
0
  6
CONTINUOUS
 62
     7
 10
2149.22730114336
 20
-1147.56232924759
 30
0.0
 40
0.400000005960464
 50
269.999999844103
 51
359.999999844103
  0
LINE
  5
   877
  8
0
  6
CONTINUOUS
 62
     7
 10
2133.43337686245
 20
-1156.36232937872
 30
0.0
 11
2139.82730701144
 21
-1156.36232937872
 31
0.0
  0
LINE
  5
   878
  8
0
  6
CONTINUOUS
 62
     7
 10
2148.62730113442
 20
-1112.16232872009
 30
0.0
 11
2149.62730114932
 21
-1112.16232872009
 31
0.0
  0
LINE
  5
   879
  8
0
  6
CONTINUOUS
 62
     7
 10
2148.62730113442
 20
-1148.5623292625
 30
0.0
 11
2149.22730114336
 21
-1148.5623292625
 31
0.0
  0
LINE
  5
   87A
  8
0
  6
CONTINUOUS
 62
     7
 10
2150.42731022115
 20
-1125.76232281923
 30
0.0
 11
2150.42731022115
 21
-1126.16232282519
 31
0.0
  0
LINE
  5
   87B
  8
0
  6
CONTINUOUS
 62
     7
 10
2150.42731022115
 20
-1144.16232309341
 30
0.0
 11
2150.42731022115
 21
-1144.56232309937
 31
0.0
  0
LINE
  5
   87C
  8
0
  6
CONTINUOUS
 62
     7
 10
2150.42731022115
 20
-1115.9623226732
 30
0.0
 11
2150.42731022115
 21
-1125.16232281029
 31
0.0
  0
LINE
  5
   87D
  8
0
  6
DASHDOT
 62
     7
 10
2150.42731022115
 20
-1102.1057870444
 30
0.0
 11
2150.42731022115
 21
-1205.1020097905
 31
0.0
  0
LINE
  5
   87E
  8
0
  6
CONTINUOUS
 62
     7
 10
2151.62731023903
 20
-1144.16232309341
 30
0.0
 11
2151.62731023903
 21
-1154.36232324541
 31
0.0
  0
LINE
  5
   87F
  8
0
  6
CONTINUOUS
 62
     7
 10
2149.82731021221
 20
-1125.76232281923
 30
0.0
 11
2150.42731022115
 21
-1125.76232281923
 31
0.0
  0
LINE
  5
   880
  8
0
  6
CONTINUOUS
 62
     7
 10
2149.82731021221
 20
-1125.16232281029
 30
0.0
 11
2150.42731022115
 21
-1125.16232281029
 31
0.0
  0
LINE
  5
   881
  8
0
  6
CONTINUOUS
 62
     7
 10
2149.82731021221
 20
-1125.16232281029
 30
0.0
 11
2149.82731021221
 21
-1125.76232281923
 31
0.0
  0
LINE
  5
   882
  8
0
  6
CONTINUOUS
 62
     7
 10
2150.42731022115
 20
-1115.9623226732
 30
0.0
 11
2151.62731023903
 21
-1115.9623226732
 31
0.0
  0
LINE
  5
   883
  8
0
  6
CONTINUOUS
 62
     7
 10
2150.42731022115
 20
-1145.16232310832
 30
0.0
 11
2150.42731022115
 21
-1154.36232324541
 31
0.0
  0
LINE
  5
   884
  8
0
  6
CONTINUOUS
 62
     7
 10
2149.82731021221
 20
-1145.16232310832
 30
0.0
 11
2150.42731022115
 21
-1145.16232310832
 31
0.0
  0
LINE
  5
   885
  8
0
  6
CONTINUOUS
 62
     7
 10
2149.82731021221
 20
-1144.56232309937
 30
0.0
 11
2149.82731021221
 21
-1145.16232310832
 31
0.0
  0
LINE
  5
   886
  8
0
  6
DOT
 62
     7
 10
2150.42731022115
 20
-1126.16232282519
 30
0.0
 11
2150.42731022115
 21
-1144.16232309341
 31
0.0
  0
LINE
  5
   887
  8
0
  6
CONTINUOUS
 62
     7
 10
2151.62731023903
 20
-1115.9623226732
 30
0.0
 11
2151.62731023903
 21
-1126.16232282519
 31
0.0
  0
LINE
  5
   888
  8
0
  6
CONTINUOUS
 62
     7
 10
2149.62731020923
 20
-1121.76232275963
 30
0.0
 11
2150.42731022115
 21
-1121.76232275963
 31
0.0
  0
LINE
  5
   889
  8
0
  6
CONTINUOUS
 62
     7
 10
2149.62731020923
 20
-1122.96232277751
 30
0.0
 11
2150.42731022115
 21
-1122.96232277751
 31
0.0
  0
LINE
  5
   88A
  8
0
  6
CONTINUOUS
 62
     7
 10
2149.62731020923
 20
-1121.46232275516
 30
0.0
 11
2149.62731020923
 21
-1123.26232278198
 31
0.0
  0
LINE
  5
   88B
  8
0
  6
DOT
 62
     7
 10
2149.62731020923
 20
-1121.46232275516
 30
0.0
 11
2148.82731019731
 21
-1122.00192957667
 31
0.0
  0
LINE
  5
   88C
  8
0
  6
DOT
 62
     7
 10
2148.82731019731
 20
-1122.72271596047
 30
0.0
 11
2149.62731020923
 21
-1123.26232278198
 31
0.0
  0
LINE
  5
   88D
  8
0
  6
DOT
 62
     7
 10
2148.82731019731
 20
-1122.00192957667
 30
0.0
 11
2148.82731019731
 21
-1122.72271596047
 31
0.0
  0
LINE
  5
   88E
  8
0
  6
DOT
 62
     7
 10
2148.82731019731
 20
-1148.32271634194
 30
0.0
 11
2149.62731020923
 21
-1148.86232316345
 31
0.0
  0
LINE
  5
   88F
  8
0
  6
DOT
 62
     7
 10
2148.82731019731
 20
-1147.60192995814
 30
0.0
 11
2148.82731019731
 21
-1148.32271634194
 31
0.0
  0
LINE
  5
   890
  8
0
  6
DOT
 62
     7
 10
2149.62731020923
 20
-1147.06232313663
 30
0.0
 11
2148.82731019731
 21
-1147.60192995814
 31
0.0
  0
LINE
  5
   891
  8
0
  6
CONTINUOUS
 62
     7
 10
2149.62731020923
 20
-1147.06232313663
 30
0.0
 11
2149.62731020923
 21
-1148.86232316345
 31
0.0
  0
LINE
  5
   892
  8
0
  6
CONTINUOUS
 62
     7
 10
2149.62731020923
 20
-1148.56232315898
 30
0.0
 11
2150.42731022115
 21
-1148.56232315898
 31
0.0
  0
LINE
  5
   893
  8
0
  6
CONTINUOUS
 62
     7
 10
2149.62731020923
 20
-1147.3623231411
 30
0.0
 11
2150.42731022115
 21
-1147.3623231411
 31
0.0
  0
LINE
  5
   894
  8
0
  6
CONTINUOUS
 62
     7
 10
2150.42731022115
 20
-1125.76232281923
 30
0.0
 11
2151.62731023903
 21
-1125.76232281923
 31
0.0
  0
LINE
  5
   895
  8
0
  6
CONTINUOUS
 62
     7
 10
2149.82731021221
 20
-1144.56232309937
 30
0.0
 11
2151.62731023903
 21
-1144.56232309937
 31
0.0
  0
LINE
  5
   896
  8
0
  6
DASHDOT
 62
     7
 10
2149.82731021221
 20
-1102.1057870444
 30
0.0
 11
2149.82731021221
 21
-1205.22057754802
 31
0.0
  0
INSERT
  5
   897
  8
0
  6
CONTINUOUS
 62
     7
  2
*HATCH44
 10
2147.71044921875
 20
-1137.76232910156
 30
0.0
 41
0.400000005960464
 42
0.400000005960464
 50
269.999999844103
 43
0.400000005960464
  0
INSERT
  5
   898
  8
0
  6
CONTINUOUS
 62
     7
  2
*HATCH45
 10
2147.71044921875
 20
-1137.76232910156
 30
0.0
 41
0.400000005960464
 42
0.400000005960464
 50
269.999999844103
 43
0.400000005960464
  0
LINE
  5
   899
  8
0
  6
CONTINUOUS
 62
     7
 10
2150.42723726506
 20
-1165.9623287585
 30
0.0
 11
2151.62723728294
 21
-1165.9623287585
 31
0.0
  0
LINE
  5
   89A
  8
0
  6
CONTINUOUS
 62
     7
 10
2151.62723728294
 20
-1165.9623287585
 30
0.0
 11
2151.62723728294
 21
-1176.16232891049
 31
0.0
  0
LINE
  5
   89B
  8
0
  6
CONTINUOUS
 62
     7
 10
2149.82723725611
 20
-1175.16232889559
 30
0.0
 11
2150.42723726506
 21
-1175.16232889559
 31
0.0
  0
LINE
  5
   89C
  8
0
  6
CONTINUOUS
 62
     7
 10
2149.82723725611
 20
-1175.76232890453
 30
0.0
 11
2150.42723726506
 21
-1175.76232890453
 31
0.0
  0
LINE
  5
   89D
  8
0
  6
CONTINUOUS
 62
     7
 10
2150.42723726506
 20
-1175.76232890453
 30
0.0
 11
2151.62723728294
 21
-1175.76232890453
 31
0.0
  0
LINE
  5
   89E
  8
0
  6
DOT
 62
     7
 10
2150.42723726506
 20
-1176.16232891049
 30
0.0
 11
2150.42723726506
 21
-1194.16232917871
 31
0.0
  0
INSERT
  5
   89F
  8
0
  6
CONTINUOUS
 62
     7
  2
*HATCH46
 10
2147.71044921875
 20
-1137.76232910156
 30
0.0
 41
0.400000005960464
 42
0.400000005960464
 50
269.999999844103
 43
0.400000005960464
  0
LINE
  5
   8A0
  8
0
  6
CONTINUOUS
 62
     7
 10
2149.82723725611
 20
-1194.56232918467
 30
0.0
 11
2151.62723728294
 21
-1194.56232918467
 31
0.0
  0
LINE
  5
   8A1
  8
0
  6
DASHDOT
 62
     7
 10
2150.42723726506
 20
-1149.70579309393
 30
0.0
 11
2150.42723726506
 21
-1154.36232324541
 31
0.0
  0
LINE
  5
   8A2
  8
0
  6
CONTINUOUS
 62
     7
 10
2149.82723725611
 20
-1195.16232919361
 30
0.0
 11
2150.42723726506
 21
-1195.16232919361
 31
0.0
  0
LINE
  5
   8A3
  8
0
  6
CONTINUOUS
 62
     7
 10
2151.62723728294
 20
-1194.16232917871
 30
0.0
 11
2151.62723728294
 21
-1204.3623293307
 31
0.0
  0
LINE
  5
   8A4
  8
0
  6
CONTINUOUS
 62
     7
 10
2150.42723726506
 20
-1204.3623293307
 30
0.0
 11
2151.62723728294
 21
-1204.3623293307
 31
0.0
  0
INSERT
  5
   8A5
  8
0
  6
CONTINUOUS
 62
     7
  2
*HATCH47
 10
2147.71044921875
 20
-1137.76232910156
 30
0.0
 41
0.400000005960464
 42
0.400000005960464
 50
269.999999844103
 43
0.400000005960464
  0
LINE
  5
   8A6
  8
0
  6
CONTINUOUS
 62
     7
 10
2150.42723726506
 20
-1195.16232919361
 30
0.0
 11
2150.42723726506
 21
-1204.3623293307
 31
0.0
  0
LINE
  5
   8A7
  8
0
  6
CONTINUOUS
 62
     7
 10
2150.42723726506
 20
-1165.9623287585
 30
0.0
 11
2150.42723726506
 21
-1175.16232889559
 31
0.0
  0
LINE
  5
   8A8
  8
0
  6
CONTINUOUS
 62
     7
 10
2149.82731021221
 20
-1175.16232889559
 30
0.0
 11
2149.82731021221
 21
-1175.76232890453
 31
0.0
  0
LINE
  5
   8A9
  8
0
  6
CONTINUOUS
 62
     7
 10
2149.82723725611
 20
-1194.56232918467
 30
0.0
 11
2149.82723725611
 21
-1195.16232919361
 31
0.0
  0
LINE
  5
   8AA
  8
0
  6
CONTINUOUS
 62
     7
 10
2121.42731207783
 20
-1154.36232934892
 30
0.0
 11
2148.42730113144
 21
-1154.36232934892
 31
0.0
  0
LINE
  5
   8AB
  8
0
  6
CONTINUOUS
 62
     7
 10
2121.42731207783
 20
-1155.16232936084
 30
0.0
 11
2149.02722866113
 21
-1155.16232936084
 31
0.0
  0
LINE
  5
   8AC
  8
0
  6
CONTINUOUS
 62
     7
 10
2149.62722867007
 20
-1156.36233548224
 30
0.0
 11
2150.90722868915
 21
-1156.36233548224
 31
0.0
  0
LINE
  5
   8AD
  8
0
  6
CONTINUOUS
 62
     7
 10
2150.42723726506
 20
-1154.36232324541
 30
0.0
 11
2151.62731023903
 21
-1154.36232324541
 31
0.0
  0
LINE
  5
   8AE
  8
0
  6
CONTINUOUS
 62
     7
 10
2150.90722868915
 20
-1156.36233548224
 30
0.0
 11
2151.02722869093
 21
-1156.48233548403
 31
0.0
  0
LINE
  5
   8AF
  8
0
  6
CONTINUOUS
 62
     7
 10
2147.02730111058
 20
-1198.56228728294
 30
0.0
 11
2148.62730113442
 21
-1198.56228728294
 31
0.0
  0
LINE
  5
   8B0
  8
0
  6
DOT
 62
     7
 10
2139.82729945834
 20
-1202.76232396662
 30
0.0
 11
2140.62729947026
 21
-1202.76232396662
 31
0.0
  0
LINE
  5
   8B1
  8
0
  6
DASHDOT
 62
     7
 10
2120.62731206591
 20
-1093.86941865374
 30
0.0
 11
2120.62731206591
 21
-1209.6844570723
 31
0.0
  0
LINE
  5
   8B2
  8
0
  6
DASHDOT
 62
     7
 10
2121.42731207783
 20
-1115.25038258368
 30
0.0
 11
2121.42731207783
 21
-1197.89066657016
 31
0.0
  0
LINE
  5
   8B3
  8
0
  6
DASHDOT
 62
     7
 10
2116.86084719156
 20
-1200.36235192715
 30
0.0
 11
2125.95671832446
 21
-1200.36235192715
 31
0.0
  0
LINE
  5
   8B4
  8
0
  6
CONTINUOUS
 62
     7
 10
2118.42731203313
 20
-1109.56230232388
 30
0.0
 11
2119.02731204207
 21
-1109.56230232388
 31
0.0
  0
LINE
  5
   8B5
  8
0
  6
CONTINUOUS
 62
     7
 10
2118.42731203313
 20
-1111.16230234772
 30
0.0
 11
2119.02731204207
 21
-1111.16230234772
 31
0.0
  0
LINE
  5
   8B6
  8
0
  6
CONTINUOUS
 62
     7
 10
2119.02731204207
 20
-1108.76230231196
 30
0.0
 11
2119.02731204207
 21
-1111.96230235964
 31
0.0
  0
LINE
  5
   8B7
  8
0
  6
CONTINUOUS
 62
     7
 10
2120.62731206591
 20
-1108.56230230898
 30
0.0
 11
2120.62731206591
 21
-1112.16230236262
 31
0.0
  0
LINE
  5
   8B8
  8
0
  6
CONTINUOUS
 62
     7
 10
2118.22731203015
 20
-1109.76230232686
 30
0.0
 11
2118.22731203015
 21
-1110.96230234474
 31
0.0
  0
LINE
  5
   8B9
  8
0
  6
CONTINUOUS
 62
     7
 10
2119.02731204207
 20
-1108.76230231196
 30
0.0
 11
2120.42731206293
 21
-1108.76230231196
 31
0.0
  0
LINE
  5
   8BA
  8
0
  6
CONTINUOUS
 62
     7
 10
2119.02731204207
 20
-1111.96230235964
 30
0.0
 11
2120.42731206293
 21
-1111.96230235964
 31
0.0
  0
LINE
  5
   8BB
  8
0
  6
CONTINUOUS
 62
     7
 10
2119.02731204207
 20
-1111.16230234772
 30
0.0
 11
2120.42731206293
 21
-1111.16230234772
 31
0.0
  0
LINE
  5
   8BC
  8
0
  6
CONTINUOUS
 62
     7
 10
2119.02731204207
 20
-1109.56230232388
 30
0.0
 11
2120.42731206293
 21
-1109.56230232388
 31
0.0
  0
LINE
  5
   8BD
  8
0
  6
CONTINUOUS
 62
     7
 10
2119.02731204207
 20
-1198.76235190331
 30
0.0
 11
2120.42731206293
 21
-1198.76235190331
 31
0.0
  0
LINE
  5
   8BE
  8
0
  6
CONTINUOUS
 62
     7
 10
2119.02731204207
 20
-1198.76235190331
 30
0.0
 11
2119.02731204207
 21
-1201.96235195099
 31
0.0
  0
LINE
  5
   8BF
  8
0
  6
CONTINUOUS
 62
     7
 10
2118.42731203313
 20
-1199.56235191523
 30
0.0
 11
2120.42731206293
 21
-1199.56235191523
 31
0.0
  0
LINE
  5
   8C0
  8
0
  6
CONTINUOUS
 62
     7
 10
2118.42731203313
 20
-1201.16235193907
 30
0.0
 11
2120.42731206293
 21
-1201.16235193907
 31
0.0
  0
LINE
  5
   8C1
  8
0
  6
CONTINUOUS
 62
     7
 10
2119.02731204207
 20
-1201.96235195099
 30
0.0
 11
2120.42731206293
 21
-1201.96235195099
 31
0.0
  0
LINE
  5
   8C2
  8
0
  6
CONTINUOUS
 62
     7
 10
2119.02731204207
 20
-1198.76235190331
 30
0.0
 11
2119.02731204207
 21
-1201.96235195099
 31
0.0
  0
LINE
  5
   8C3
  8
0
  6
CONTINUOUS
 62
     7
 10
2118.22731203015
 20
-1199.76235191821
 30
0.0
 11
2118.22731203015
 21
-1200.96235193609
 31
0.0
  0
LINE
  5
   8C4
  8
0
  6
CONTINUOUS
 62
     7
 10
2120.62731206591
 20
-1198.56235190033
 30
0.0
 11
2120.62731206591
 21
-1202.16235195397
 31
0.0
  0
LINE
  5
   8C5
  8
0
  6
CONTINUOUS
 62
     7
 10
2120.42731206293
 20
-1198.56235190033
 30
0.0
 11
2120.42731206293
 21
-1202.16235195397
 31
0.0
  0
LINE
  5
   8C6
  8
0
  6
CONTINUOUS
 62
     7
 10
2120.42731206293
 20
-1198.56235190033
 30
0.0
 11
2120.62731206591
 21
-1198.56235190033
 31
0.0
  0
LINE
  5
   8C7
  8
0
  6
CONTINUOUS
 62
     7
 10
2120.42731206293
 20
-1202.16235195397
 30
0.0
 11
2120.62731206591
 21
-1202.16235195397
 31
0.0
  0
LINE
  5
   8C8
  8
0
  6
CONTINUOUS
 62
     7
 10
2120.42731206293
 20
-1108.56230230898
 30
0.0
 11
2120.42731206293
 21
-1112.16230236262
 31
0.0
  0
LINE
  5
   8C9
  8
0
  6
CONTINUOUS
 62
     7
 10
2120.42731206293
 20
-1108.56230230898
 30
0.0
 11
2120.62731206591
 21
-1108.56230230898
 31
0.0
  0
LINE
  5
   8CA
  8
0
  6
CONTINUOUS
 62
     7
 10
2120.42731206293
 20
-1112.16230236262
 30
0.0
 11
2120.62731206591
 21
-1112.16230236262
 31
0.0
  0
LINE
  5
   8CB
  8
0
  6
CONTINUOUS
 62
     7
 10
2118.22731203015
 20
-1109.76230232686
 30
0.0
 11
2119.02731204207
 21
-1109.76230232686
 31
0.0
  0
LINE
  5
   8CC
  8
0
  6
CONTINUOUS
 62
     7
 10
2118.22731203015
 20
-1110.96230234474
 30
0.0
 11
2119.02731204207
 21
-1110.96230234474
 31
0.0
  0
LINE
  5
   8CD
  8
0
  6
CONTINUOUS
 62
     7
 10
2118.42731203313
 20
-1109.56230232388
 30
0.0
 11
2118.22731203015
 21
-1109.76230232686
 31
0.0
  0
LINE
  5
   8CE
  8
0
  6
CONTINUOUS
 62
     7
 10
2118.22731203015
 20
-1110.96230234474
 30
0.0
 11
2118.42731203313
 21
-1111.16230234772
 31
0.0
  0
LINE
  5
   8CF
  8
0
  6
CONTINUOUS
 62
     7
 10
2118.42731203313
 20
-1109.56230232388
 30
0.0
 11
2118.42731203313
 21
-1111.16230234772
 31
0.0
  0
LINE
  5
   8D0
  8
0
  6
CONTINUOUS
 62
     7
 10
2118.42731203313
 20
-1199.56235191523
 30
0.0
 11
2118.42731203313
 21
-1201.16235193907
 31
0.0
  0
LINE
  5
   8D1
  8
0
  6
CONTINUOUS
 62
     7
 10
2118.22731203015
 20
-1199.76235191821
 30
0.0
 11
2119.02731204207
 21
-1199.76235191821
 31
0.0
  0
LINE
  5
   8D2
  8
0
  6
CONTINUOUS
 62
     7
 10
2118.22731203015
 20
-1200.96235193609
 30
0.0
 11
2119.02731204207
 21
-1200.96235193609
 31
0.0
  0
LINE
  5
   8D3
  8
0
  6
CONTINUOUS
 62
     7
 10
2118.42731203313
 20
-1199.56235191523
 30
0.0
 11
2118.22731203015
 21
-1199.76235191821
 31
0.0
  0
LINE
  5
   8D4
  8
0
  6
CONTINUOUS
 62
     7
 10
2118.22731203015
 20
-1200.96235193609
 30
0.0
 11
2118.42731203313
 21
-1201.16235193907
 31
0.0
  0
LINE
  5
   8D5
  8
0
  6
CONTINUOUS
 62
     7
 10
2139.02730459023
 20
-1106.56232863665
 30
0.0
 11
2139.02730459023
 21
-1154.36232934892
 31
0.0
  0
LINE
  5
   8D6
  8
0
  6
CONTINUOUS
 62
     7
 10
2139.02730459023
 20
-1156.36232937872
 30
0.0
 11
2139.02730459023
 21
-1204.36228736937
 31
0.0
  0
LINE
  5
   8D7
  8
0
  6
DOT
 62
     7
 10
2118.3472446364
 20
-1149.09959208722
 30
0.0
 11
2118.22724463461
 21
-1149.21959208901
 31
0.0
  0
LINE
  5
   8D8
  8
0
  6
DOT
 62
     7
 10
2118.22724463461
 20
-1150.57959210928
 30
0.0
 11
2118.3472446364
 21
-1150.69959211107
 31
0.0
  0
LINE
  5
   8D9
  8
0
  6
CONTINUOUS
 62
     7
 10
2112.87784742977
 20
-1107.96231034696
 30
0.0
 11
2121.4272446823
 21
-1107.96231034696
 31
0.0
  0
LINE
  5
   8DA
  8
0
  6
CONTINUOUS
 62
     7
 10
2112.87784742977
 20
-1111.96231040657
 30
0.0
 11
2121.4272446823
 21
-1111.96231040657
 31
0.0
  0
LINE
  5
   8DB
  8
0
  6
CONTINUOUS
 62
     7
 10
2113.47784743871
 20
-1106.76231032908
 30
0.0
 11
2113.47784743871
 21
-1107.96231034696
 31
0.0
  0
LINE
  5
   8DC
  8
0
  6
CONTINUOUS
 62
     7
 10
2111.07784740295
 20
-1106.76231032908
 30
0.0
 11
2113.47784743871
 21
-1106.76231032908
 31
0.0
  0
LINE
  5
   8DD
  8
0
  6
CONTINUOUS
 62
     7
 10
2111.07784740295
 20
-1113.16231042445
 30
0.0
 11
2113.47784743871
 21
-1113.16231042445
 31
0.0
  0
LINE
  5
   8DE
  8
0
  6
CONTINUOUS
 62
     7
 10
2111.07784740295
 20
-1106.36231032312
 30
0.0
 11
2111.07784740295
 21
-1107.96231034696
 31
0.0
  0
LINE
  5
   8DF
  8
0
  6
CONTINUOUS
 62
     7
 10
2110.27784739103
 20
-1106.36231032312
 30
0.0
 11
2110.27784739103
 21
-1107.96231034696
 31
0.0
  0
LINE
  5
   8E0
  8
0
  6
CONTINUOUS
 62
     7
 10
2109.07784737314
 20
-1106.36231032312
 30
0.0
 11
2109.07784737314
 21
-1107.96231034696
 31
0.0
  0
LINE
  5
   8E1
  8
0
  6
CONTINUOUS
 62
     7
 10
2108.27784736122
 20
-1106.36231032312
 30
0.0
 11
2108.27784736122
 21
-1107.96231034696
 31
0.0
  0
LINE
  5
   8E2
  8
0
  6
CONTINUOUS
 62
     7
 10
2105.87784732546
 20
-1106.76231032908
 30
0.0
 11
2108.27784736122
 21
-1106.76231032908
 31
0.0
  0
LINE
  5
   8E3
  8
0
  6
CONTINUOUS
 62
     7
 10
2105.87784732546
 20
-1106.76231032908
 30
0.0
 11
2105.87784732546
 21
-1107.96231034696
 31
0.0
  0
LINE
  5
   8E4
  8
0
  6
CONTINUOUS
 62
     7
 10
2105.87784732546
 20
-1113.16231042445
 30
0.0
 11
2108.27784736122
 21
-1113.16231042445
 31
0.0
  0
LINE
  5
   8E5
  8
0
  6
CONTINUOUS
 62
     7
 10
2110.27784739103
 20
-1106.36231032312
 30
0.0
 11
2111.07784740295
 21
-1106.36231032312
 31
0.0
  0
LINE
  5
   8E6
  8
0
  6
CONTINUOUS
 62
     7
 10
2108.27784736122
 20
-1106.36231032312
 30
0.0
 11
2109.07784737314
 21
-1106.36231032312
 31
0.0
  0
LINE
  5
   8E7
  8
0
  6
CONTINUOUS
 62
     7
 10
2110.27784739103
 20
-1113.56231043041
 30
0.0
 11
2111.07784740295
 21
-1113.56231043041
 31
0.0
  0
LINE
  5
   8E8
  8
0
  6
CONTINUOUS
 62
     7
 10
2108.27784736122
 20
-1113.56231043041
 30
0.0
 11
2109.07784737314
 21
-1113.56231043041
 31
0.0
  0
LINE
  5
   8E9
  8
0
  6
CONTINUOUS
 62
     7
 10
2100.27784724201
 20
-1107.96231034696
 30
0.0
 11
2117.45246096445
 21
-1107.96231034696
 31
0.0
  0
LINE
  5
   8EA
  8
0
  6
CONTINUOUS
 62
     7
 10
2100.27784724201
 20
-1111.96231040657
 30
0.0
 11
2116.34860753068
 21
-1111.96231040657
 31
0.0
  0
LINE
  5
   8EB
  8
0
  6
CONTINUOUS
 62
     7
 10
2100.27784724201
 20
-1106.76231032908
 30
0.0
 11
2100.27784724201
 21
-1113.16231042445
 31
0.0
  0
LINE
  5
   8EC
  8
0
  6
CONTINUOUS
 62
     7
 10
2097.87784720625
 20
-1106.36231032312
 30
0.0
 11
2097.87784720625
 21
-1113.56231043041
 31
0.0
  0
LINE
  5
   8ED
  8
0
  6
CONTINUOUS
 62
     7
 10
2097.87784720625
 20
-1106.76231032908
 30
0.0
 11
2100.27784724201
 21
-1106.76231032908
 31
0.0
  0
LINE
  5
   8EE
  8
0
  6
CONTINUOUS
 62
     7
 10
2097.87784720625
 20
-1113.16231042445
 30
0.0
 11
2100.27784724201
 21
-1113.16231042445
 31
0.0
  0
LINE
  5
   8EF
  8
0
  6
CONTINUOUS
 62
     7
 10
2097.07784719433
 20
-1106.36231032312
 30
0.0
 11
2097.07784719433
 21
-1113.56231043041
 31
0.0
  0
LINE
  5
   8F0
  8
0
  6
CONTINUOUS
 62
     7
 10
2095.87784717645
 20
-1106.36231032312
 30
0.0
 11
2095.87784717645
 21
-1113.56231043041
 31
0.0
  0
LINE
  5
   8F1
  8
0
  6
CONTINUOUS
 62
     7
 10
2095.07784716453
 20
-1106.36231032312
 30
0.0
 11
2095.07784716453
 21
-1113.56231043041
 31
0.0
  0
LINE
  5
   8F2
  8
0
  6
CONTINUOUS
 62
     7
 10
2092.67784712877
 20
-1106.76231032908
 30
0.0
 11
2095.07784716453
 21
-1106.76231032908
 31
0.0
  0
LINE
  5
   8F3
  8
0
  6
CONTINUOUS
 62
     7
 10
2092.67784712877
 20
-1106.76231032908
 30
0.0
 11
2092.67784712877
 21
-1113.16231042445
 31
0.0
  0
LINE
  5
   8F4
  8
0
  6
CONTINUOUS
 62
     7
 10
2092.67784712877
 20
-1113.16231042445
 30
0.0
 11
2095.07784716453
 21
-1113.16231042445
 31
0.0
  0
LINE
  5
   8F5
  8
0
  6
CONTINUOUS
 62
     7
 10
2092.07784711982
 20
-1108.36231035292
 30
0.0
 11
2092.67784712877
 21
-1108.36231035292
 31
0.0
  0
LINE
  5
   8F6
  8
0
  6
CONTINUOUS
 62
     7
 10
2091.87784711684
 20
-1108.5623103559
 30
0.0
 11
2092.67784712877
 21
-1108.5623103559
 31
0.0
  0
LINE
  5
   8F7
  8
0
  6
CONTINUOUS
 62
     7
 10
2092.07784711982
 20
-1108.36231035292
 30
0.0
 11
2092.07784711982
 21
-1111.56231040061
 31
0.0
  0
LINE
  5
   8F8
  8
0
  6
CONTINUOUS
 62
     7
 10
2091.87784711684
 20
-1108.5623103559
 30
0.0
 11
2091.87784711684
 21
-1111.36231039762
 31
0.0
  0
LINE
  5
   8F9
  8
0
  6
CONTINUOUS
 62
     7
 10
2092.07784711982
 20
-1108.36231035292
 30
0.0
 11
2091.87784711684
 21
-1108.5623103559
 31
0.0
  0
LINE
  5
   8FA
  8
0
  6
CONTINUOUS
 62
     7
 10
2091.87784711684
 20
-1111.36231039762
 30
0.0
 11
2092.07784711982
 21
-1111.56231040061
 31
0.0
  0
LINE
  5
   8FB
  8
0
  6
CONTINUOUS
 62
     7
 10
2092.07784711982
 20
-1111.56231040061
 30
0.0
 11
2092.67784712877
 21
-1111.56231040061
 31
0.0
  0
LINE
  5
   8FC
  8
0
  6
CONTINUOUS
 62
     7
 10
2091.87784711684
 20
-1111.36231039762
 30
0.0
 11
2092.67784712877
 21
-1111.36231039762
 31
0.0
  0
LINE
  5
   8FD
  8
0
  6
CONTINUOUS
 62
     7
 10
2095.87784717645
 20
-1108.5623103559
 30
0.0
 11
2097.07784719433
 21
-1108.5623103559
 31
0.0
  0
LINE
  5
   8FE
  8
0
  6
CONTINUOUS
 62
     7
 10
2097.07784719433
 20
-1106.36231032312
 30
0.0
 11
2097.87784720625
 21
-1106.36231032312
 31
0.0
  0
LINE
  5
   8FF
  8
0
  6
CONTINUOUS
 62
     7
 10
2095.07784716453
 20
-1106.36231032312
 30
0.0
 11
2095.87784717645
 21
-1106.36231032312
 31
0.0
  0
LINE
  5
   900
  8
0
  6
CONTINUOUS
 62
     7
 10
2097.07784719433
 20
-1113.56231043041
 30
0.0
 11
2097.87784720625
 21
-1113.56231043041
 31
0.0
  0
LINE
  5
   901
  8
0
  6
CONTINUOUS
 62
     7
 10
2095.07784716453
 20
-1113.56231043041
 30
0.0
 11
2095.87784717645
 21
-1113.56231043041
 31
0.0
  0
LINE
  5
   902
  8
0
  6
CONTINUOUS
 62
     7
 10
2095.87784717645
 20
-1108.36231035292
 30
0.0
 11
2097.07784719433
 21
-1108.36231035292
 31
0.0
  0
LINE
  5
   903
  8
0
  6
CONTINUOUS
 62
     7
 10
2095.87784717645
 20
-1111.36231039762
 30
0.0
 11
2097.07784719433
 21
-1111.36231039762
 31
0.0
  0
LINE
  5
   904
  8
0
  6
CONTINUOUS
 62
     7
 10
2095.87784717645
 20
-1111.56231040061
 30
0.0
 11
2097.07784719433
 21
-1111.56231040061
 31
0.0
  0
LINE
  5
   905
  8
0
  6
CONTINUOUS
 62
     7
 10
2092.67784712877
 20
-1108.53094254201
 30
0.0
 11
2095.07784716453
 21
-1108.53094254201
 31
0.0
  0
LINE
  5
   906
  8
0
  6
CONTINUOUS
 62
     7
 10
2097.87784720625
 20
-1108.53094254201
 30
0.0
 11
2100.27784724201
 21
-1108.53094254201
 31
0.0
  0
LINE
  5
   907
  8
0
  6
CONTINUOUS
 62
     7
 10
2097.87784720625
 20
-1111.33094258374
 30
0.0
 11
2100.27784724201
 21
-1111.33094258374
 31
0.0
  0
LINE
  5
   908
  8
0
  6
CONTINUOUS
 62
     7
 10
2092.67784712877
 20
-1111.33094258374
 30
0.0
 11
2095.07784716453
 21
-1111.33094258374
 31
0.0
  0
LINE
  5
   909
  8
0
  6
CONTINUOUS
 62
     7
 10
2112.87784742977
 20
-1202.76228734553
 30
0.0
 11
2121.4272446823
 21
-1202.76228734553
 31
0.0
  0
LINE
  5
   90A
  8
0
  6
CONTINUOUS
 62
     7
 10
2112.87784742977
 20
-1198.76228728592
 30
0.0
 11
2121.4272446823
 21
-1198.76228728592
 31
0.0
  0
LINE
  5
   90B
  8
0
  6
CONTINUOUS
 62
     7
 10
2113.47784743871
 20
-1197.56228726804
 30
0.0
 11
2113.47784743871
 21
-1198.76228728592
 31
0.0
  0
LINE
  5
   90C
  8
0
  6
CONTINUOUS
 62
     7
 10
2111.07784740295
 20
-1197.16228726208
 30
0.0
 11
2111.07784740295
 21
-1198.76228728592
 31
0.0
  0
LINE
  5
   90D
  8
0
  6
CONTINUOUS
 62
     7
 10
2111.07784740295
 20
-1203.96228736341
 30
0.0
 11
2113.47784743871
 21
-1203.96228736341
 31
0.0
  0
LINE
  5
   90E
  8
0
  6
CONTINUOUS
 62
     7
 10
2111.07784740295
 20
-1197.56228726804
 30
0.0
 11
2113.47784743871
 21
-1197.56228726804
 31
0.0
  0
LINE
  5
   90F
  8
0
  6
CONTINUOUS
 62
     7
 10
2110.27784739103
 20
-1197.16228726208
 30
0.0
 11
2110.27784739103
 21
-1198.76228728592
 31
0.0
  0
LINE
  5
   910
  8
0
  6
CONTINUOUS
 62
     7
 10
2109.07784737314
 20
-1197.16228726208
 30
0.0
 11
2109.07784737314
 21
-1198.76228728592
 31
0.0
  0
LINE
  5
   911
  8
0
  6
CONTINUOUS
 62
     7
 10
2108.27784736122
 20
-1197.16228726208
 30
0.0
 11
2108.27784736122
 21
-1198.76228728592
 31
0.0
  0
LINE
  5
   912
  8
0
  6
CONTINUOUS
 62
     7
 10
2105.87784732546
 20
-1203.96228736341
 30
0.0
 11
2108.27784736122
 21
-1203.96228736341
 31
0.0
  0
LINE
  5
   913
  8
0
  6
CONTINUOUS
 62
     7
 10
2105.87784732546
 20
-1197.56228726804
 30
0.0
 11
2105.87784732546
 21
-1198.76228728592
 31
0.0
  0
LINE
  5
   914
  8
0
  6
CONTINUOUS
 62
     7
 10
2105.87784732546
 20
-1197.56228726804
 30
0.0
 11
2108.27784736122
 21
-1197.56228726804
 31
0.0
  0
LINE
  5
   915
  8
0
  6
CONTINUOUS
 62
     7
 10
2110.27784739103
 20
-1204.36228736937
 30
0.0
 11
2111.07784740295
 21
-1204.36228736937
 31
0.0
  0
LINE
  5
   916
  8
0
  6
CONTINUOUS
 62
     7
 10
2108.27784736122
 20
-1204.36228736937
 30
0.0
 11
2109.07784737314
 21
-1204.36228736937
 31
0.0
  0
LINE
  5
   917
  8
0
  6
CONTINUOUS
 62
     7
 10
2110.27784739103
 20
-1197.16228726208
 30
0.0
 11
2111.07784740295
 21
-1197.16228726208
 31
0.0
  0
LINE
  5
   918
  8
0
  6
CONTINUOUS
 62
     7
 10
2108.27784736122
 20
-1197.16228726208
 30
0.0
 11
2109.07784737314
 21
-1197.16228726208
 31
0.0
  0
LINE
  5
   919
  8
0
  6
CONTINUOUS
 62
     7
 10
2100.27784724201
 20
-1202.76228734553
 30
0.0
 11
2117.89400233795
 21
-1202.76228734553
 31
0.0
  0
LINE
  5
   91A
  8
0
  6
CONTINUOUS
 62
     7
 10
2100.07784723903
 20
-1198.76228728592
 30
0.0
 11
2119.23939714225
 21
-1198.76228728592
 31
0.0
  0
LINE
  5
   91B
  8
0
  6
CONTINUOUS
 62
     7
 10
2100.27784724201
 20
-1197.56228726804
 30
0.0
 11
2100.27784724201
 21
-1203.96228736341
 31
0.0
  0
LINE
  5
   91C
  8
0
  6
CONTINUOUS
 62
     7
 10
2097.87784720625
 20
-1197.16228726208
 30
0.0
 11
2097.87784720625
 21
-1204.36228736937
 31
0.0
  0
LINE
  5
   91D
  8
0
  6
CONTINUOUS
 62
     7
 10
2097.87784720625
 20
-1203.96228736341
 30
0.0
 11
2100.27784724201
 21
-1203.96228736341
 31
0.0
  0
LINE
  5
   91E
  8
0
  6
CONTINUOUS
 62
     7
 10
2097.87784720625
 20
-1197.56228726804
 30
0.0
 11
2100.27784724201
 21
-1197.56228726804
 31
0.0
  0
LINE
  5
   91F
  8
0
  6
CONTINUOUS
 62
     7
 10
2097.07784719433
 20
-1197.16228726208
 30
0.0
 11
2097.07784719433
 21
-1204.36228736937
 31
0.0
  0
LINE
  5
   920
  8
0
  6
CONTINUOUS
 62
     7
 10
2095.87784717645
 20
-1197.16228726208
 30
0.0
 11
2095.87784717645
 21
-1204.36228736937
 31
0.0
  0
LINE
  5
   921
  8
0
  6
CONTINUOUS
 62
     7
 10
2095.07784716453
 20
-1197.16228726208
 30
0.0
 11
2095.07784716453
 21
-1204.36228736937
 31
0.0
  0
LINE
  5
   922
  8
0
  6
CONTINUOUS
 62
     7
 10
2092.67784712877
 20
-1203.96228736341
 30
0.0
 11
2095.07784716453
 21
-1203.96228736341
 31
0.0
  0
LINE
  5
   923
  8
0
  6
CONTINUOUS
 62
     7
 10
2092.67784712877
 20
-1197.56228726804
 30
0.0
 11
2092.67784712877
 21
-1203.96228736341
 31
0.0
  0
LINE
  5
   924
  8
0
  6
CONTINUOUS
 62
     7
 10
2092.67784712877
 20
-1197.56228726804
 30
0.0
 11
2095.07784716453
 21
-1197.56228726804
 31
0.0
  0
LINE
  5
   925
  8
0
  6
CONTINUOUS
 62
     7
 10
2092.07784711982
 20
-1202.36228733957
 30
0.0
 11
2092.67784712877
 21
-1202.36228733957
 31
0.0
  0
LINE
  5
   926
  8
0
  6
CONTINUOUS
 62
     7
 10
2091.87784711684
 20
-1202.16228733659
 30
0.0
 11
2092.67784712877
 21
-1202.16228733659
 31
0.0
  0
LINE
  5
   927
  8
0
  6
CONTINUOUS
 62
     7
 10
2092.07784711982
 20
-1199.16228729188
 30
0.0
 11
2092.07784711982
 21
-1202.36228733957
 31
0.0
  0
LINE
  5
   928
  8
0
  6
CONTINUOUS
 62
     7
 10
2091.87784711684
 20
-1199.36228729486
 30
0.0
 11
2091.87784711684
 21
-1202.16228733659
 31
0.0
  0
LINE
  5
   929
  8
0
  6
CONTINUOUS
 62
     7
 10
2091.87784711684
 20
-1202.16228733659
 30
0.0
 11
2092.07784711982
 21
-1202.36228733957
 31
0.0
  0
LINE
  5
   92A
  8
0
  6
CONTINUOUS
 62
     7
 10
2092.07784711982
 20
-1199.16228729188
 30
0.0
 11
2091.87784711684
 21
-1199.36228729486
 31
0.0
  0
LINE
  5
   92B
  8
0
  6
CONTINUOUS
 62
     7
 10
2092.07784711982
 20
-1199.16228729188
 30
0.0
 11
2092.67784712877
 21
-1199.16228729188
 31
0.0
  0
LINE
  5
   92C
  8
0
  6
CONTINUOUS
 62
     7
 10
2091.87784711684
 20
-1199.36228729486
 30
0.0
 11
2092.67784712877
 21
-1199.36228729486
 31
0.0
  0
LINE
  5
   92D
  8
0
  6
CONTINUOUS
 62
     7
 10
2095.87784717645
 20
-1202.16228733659
 30
0.0
 11
2097.07784719433
 21
-1202.16228733659
 31
0.0
  0
LINE
  5
   92E
  8
0
  6
CONTINUOUS
 62
     7
 10
2097.07784719433
 20
-1204.36228736937
 30
0.0
 11
2097.87784720625
 21
-1204.36228736937
 31
0.0
  0
LINE
  5
   92F
  8
0
  6
CONTINUOUS
 62
     7
 10
2095.07784716453
 20
-1204.36228736937
 30
0.0
 11
2095.87784717645
 21
-1204.36228736937
 31
0.0
  0
LINE
  5
   930
  8
0
  6
CONTINUOUS
 62
     7
 10
2097.07784719433
 20
-1197.16228726208
 30
0.0
 11
2097.87784720625
 21
-1197.16228726208
 31
0.0
  0
LINE
  5
   931
  8
0
  6
CONTINUOUS
 62
     7
 10
2095.07784716453
 20
-1197.16228726208
 30
0.0
 11
2095.87784717645
 21
-1197.16228726208
 31
0.0
  0
LINE
  5
   932
  8
0
  6
CONTINUOUS
 62
     7
 10
2095.87784717645
 20
-1202.36228733957
 30
0.0
 11
2097.07784719433
 21
-1202.36228733957
 31
0.0
  0
LINE
  5
   933
  8
0
  6
CONTINUOUS
 62
     7
 10
2095.87784717645
 20
-1199.36228729486
 30
0.0
 11
2097.07784719433
 21
-1199.36228729486
 31
0.0
  0
LINE
  5
   934
  8
0
  6
CONTINUOUS
 62
     7
 10
2095.87784717645
 20
-1199.16228729188
 30
0.0
 11
2097.07784719433
 21
-1199.16228729188
 31
0.0
  0
LINE
  5
   935
  8
0
  6
CONTINUOUS
 62
     7
 10
2092.67784712877
 20
-1202.19365515048
 30
0.0
 11
2095.07784716453
 21
-1202.19365515048
 31
0.0
  0
LINE
  5
   936
  8
0
  6
CONTINUOUS
 62
     7
 10
2097.87784720625
 20
-1202.19365515048
 30
0.0
 11
2100.27784724201
 21
-1202.19365515048
 31
0.0
  0
LINE
  5
   937
  8
0
  6
CONTINUOUS
 62
     7
 10
2097.87784720625
 20
-1199.39365510875
 30
0.0
 11
2100.27784724201
 21
-1199.39365510875
 31
0.0
  0
LINE
  5
   938
  8
0
  6
CONTINUOUS
 62
     7
 10
2092.67784712877
 20
-1199.39365510875
 30
0.0
 11
2095.07784716453
 21
-1199.39365510875
 31
0.0
  0
LINE
  5
   939
  8
0
  6
DASHDOT
 62
     7
 10
2088.89770320583
 20
-1109.96231037676
 30
0.0
 11
2123.59904309825
 21
-1109.96231037676
 31
0.0
  0
LINE
  5
   93A
  8
0
  6
DASHDOT
 62
     7
 10
2088.94832825196
 20
-1200.76228731573
 30
0.0
 11
2127.21097149951
 21
-1200.76228731573
 31
0.0
  0
LINE
  5
   93B
  8
0
  6
CONTINUOUS
 62
     7
 10
2149.62730114932
 20
-1105.96232862771
 30
0.0
 11
2149.62730114932
 21
-1112.16232872009
 31
0.0
  0
LINE
  5
   93C
  8
0
  6
CONTINUOUS
 62
     7
 10
2121.42731207783
 20
-1205.16233315766
 30
0.0
 11
2149.02725870187
 21
-1205.16233315766
 31
0.0
  0
LINE
  5
   93D
  8
0
  6
CONTINUOUS
 62
     7
 10
2149.62725871081
 20
-1198.56233305931
 30
0.0
 11
2149.62725871081
 21
-1204.7623331517
 31
0.0
  0
ARC
  5
   93E
  8
0
  6
CONTINUOUS
 62
     7
 10
2149.22725870485
 20
-1204.7623331517
 30
0.0
 40
0.400000005960464
 50
269.999999844103
 51
359.999999844103
  0
LINE
  5
   93F
  8
0
  6
CONTINUOUS
 62
     7
 10
2149.62722867007
 20
-1155.96232937276
 30
0.0
 11
2149.62722867007
 21
-1161.96232946217
 31
0.0
  0
ARC
  5
   940
  8
0
  6
CONTINUOUS
 62
     7
 10
2149.22722866411
 20
-1154.76232935488
 30
0.0
 40
0.400000005960464
 50
269.999999844103
 51
359.999999844103
  0
ARC
  5
   941
  8
0
  6
CONTINUOUS
 62
     7
 10
2149.22722866411
 20
-1155.96232937276
 30
0.0
 40
0.400000005960464
 50
359.999999844103
 51
449.999999844103
  0
LINE
  5
   942
  8
0
  6
CONTINUOUS
 62
     7
 10
2121.42731207783
 20
-1105.56232862175
 30
0.0
 11
2149.22730114336
 21
-1105.56232862175
 31
0.0
  0
ARC
  5
   943
  8
0
  6
CONTINUOUS
 62
     7
 10
2149.22730114336
 20
-1105.96232862771
 30
0.0
 40
0.400000005960464
 50
359.999999844103
 51
449.999999844103
  0
LINE
  5
   944
  8
0
  6
CONTINUOUS
 62
     7
 10
2121.42731207783
 20
-1106.56232863665
 30
0.0
 11
2148.62730113442
 21
-1106.56232863665
 31
0.0
  0
LINE
  5
   945
  8
0
  6
CONTINUOUS
 62
     7
 10
2119.02731204207
 20
-1151.96235567063
 30
0.0
 11
2120.42731206293
 21
-1151.96235567063
 31
0.0
  0
LINE
  5
   946
  8
0
  6
CONTINUOUS
 62
     7
 10
2119.02731204207
 20
-1148.76235562295
 30
0.0
 11
2119.02731204207
 21
-1151.96235567063
 31
0.0
  0
LINE
  5
   947
  8
0
  6
CONTINUOUS
 62
     7
 10
2118.42731203313
 20
-1149.56235563487
 30
0.0
 11
2118.42731203313
 21
-1151.16235565871
 31
0.0
  0
LINE
  5
   948
  8
0
  6
CONTINUOUS
 62
     7
 10
2118.22731203015
 20
-1149.76235563785
 30
0.0
 11
2118.22731203015
 21
-1150.96235565573
 31
0.0
  0
LINE
  5
   949
  8
0
  6
CONTINUOUS
 62
     7
 10
2118.22731203015
 20
-1150.96235565573
 30
0.0
 11
2118.42731203313
 21
-1151.16235565871
 31
0.0
  0
LINE
  5
   94A
  8
0
  6
CONTINUOUS
 62
     7
 10
2118.42731203313
 20
-1149.56235563487
 30
0.0
 11
2118.22731203015
 21
-1149.76235563785
 31
0.0
  0
LINE
  5
   94B
  8
0
  6
CONTINUOUS
 62
     7
 10
2120.42731206293
 20
-1152.16235567361
 30
0.0
 11
2120.62731206591
 21
-1152.16235567361
 31
0.0
  0
LINE
  5
   94C
  8
0
  6
CONTINUOUS
 62
     7
 10
2120.62731206591
 20
-1148.56235561997
 30
0.0
 11
2120.62731206591
 21
-1152.16235567361
 31
0.0
  0
LINE
  5
   94D
  8
0
  6
CONTINUOUS
 62
     7
 10
2120.42731206293
 20
-1148.56235561997
 30
0.0
 11
2120.62731206591
 21
-1148.56235561997
 31
0.0
  0
LINE
  5
   94E
  8
0
  6
CONTINUOUS
 62
     7
 10
2118.22731203015
 20
-1149.76235563785
 30
0.0
 11
2119.02731204207
 21
-1149.76235563785
 31
0.0
  0
LINE
  5
   94F
  8
0
  6
CONTINUOUS
 62
     7
 10
2118.22731203015
 20
-1150.96235565573
 30
0.0
 11
2119.02731204207
 21
-1150.96235565573
 31
0.0
  0
LINE
  5
   950
  8
0
  6
CONTINUOUS
 62
     7
 10
2118.42731203313
 20
-1151.16235565871
 30
0.0
 11
2119.02731204207
 21
-1151.16235565871
 31
0.0
  0
LINE
  5
   951
  8
0
  6
CONTINUOUS
 62
     7
 10
2118.42731203313
 20
-1149.56235563487
 30
0.0
 11
2119.02731204207
 21
-1149.56235563487
 31
0.0
  0
LINE
  5
   952
  8
0
  6
CONTINUOUS
 62
     7
 10
2119.02731204207
 20
-1151.96235567063
 30
0.0
 11
2120.42731206293
 21
-1151.96235567063
 31
0.0
  0
LINE
  5
   953
  8
0
  6
CONTINUOUS
 62
     7
 10
2120.42731206293
 20
-1152.16235567361
 30
0.0
 11
2120.62731206591
 21
-1152.16235567361
 31
0.0
  0
LINE
  5
   954
  8
0
  6
CONTINUOUS
 62
     7
 10
2120.42731206293
 20
-1148.56235561997
 30
0.0
 11
2120.42731206293
 21
-1152.16235567361
 31
0.0
  0
LINE
  5
   955
  8
0
  6
CONTINUOUS
 62
     7
 10
2119.02731204207
 20
-1151.16235565871
 30
0.0
 11
2120.42731206293
 21
-1151.16235565871
 31
0.0
  0
LINE
  5
   956
  8
0
  6
CONTINUOUS
 62
     7
 10
2119.02731204207
 20
-1149.56235563487
 30
0.0
 11
2120.42731206293
 21
-1149.56235563487
 31
0.0
  0
LINE
  5
   957
  8
0
  6
CONTINUOUS
 62
     7
 10
2119.02731204207
 20
-1148.76235562295
 30
0.0
 11
2120.42731206293
 21
-1148.76235562295
 31
0.0
  0
LINE
  5
   958
  8
0
  6
CONTINUOUS
 62
     7
 10
2119.02731204207
 20
-1161.9623031047
 30
0.0
 11
2120.42731206293
 21
-1161.9623031047
 31
0.0
  0
LINE
  5
   959
  8
0
  6
CONTINUOUS
 62
     7
 10
2119.02731204207
 20
-1161.16230309278
 30
0.0
 11
2120.42731206293
 21
-1161.16230309278
 31
0.0
  0
LINE
  5
   95A
  8
0
  6
CONTINUOUS
 62
     7
 10
2119.02731204207
 20
-1159.56230306893
 30
0.0
 11
2120.42731206293
 21
-1159.56230306893
 31
0.0
  0
LINE
  5
   95B
  8
0
  6
CONTINUOUS
 62
     7
 10
2119.02731204207
 20
-1158.76230305701
 30
0.0
 11
2120.42731206293
 21
-1158.76230305701
 31
0.0
  0
LINE
  5
   95C
  8
0
  6
CONTINUOUS
 62
     7
 10
2119.02731204207
 20
-1158.76230305701
 30
0.0
 11
2119.02731204207
 21
-1161.9623031047
 31
0.0
  0
LINE
  5
   95D
  8
0
  6
CONTINUOUS
 62
     7
 10
2120.42731206293
 20
-1158.56230305403
 30
0.0
 11
2120.42731206293
 21
-1162.16230310768
 31
0.0
  0
LINE
  5
   95E
  8
0
  6
CONTINUOUS
 62
     7
 10
2120.42731206293
 20
-1162.16230310768
 30
0.0
 11
2120.62731206591
 21
-1162.16230310768
 31
0.0
  0
LINE
  5
   95F
  8
0
  6
CONTINUOUS
 62
     7
 10
2120.62731206591
 20
-1158.56230305403
 30
0.0
 11
2120.62731206591
 21
-1162.16230310768
 31
0.0
  0
LINE
  5
   960
  8
0
  6
CONTINUOUS
 62
     7
 10
2120.42731206293
 20
-1158.56230305403
 30
0.0
 11
2120.62731206591
 21
-1158.56230305403
 31
0.0
  0
LINE
  5
   961
  8
0
  6
CONTINUOUS
 62
     7
 10
2118.42731203313
 20
-1161.16230309278
 30
0.0
 11
2119.02731204207
 21
-1161.16230309278
 31
0.0
  0
LINE
  5
   962
  8
0
  6
CONTINUOUS
 62
     7
 10
2118.42731203313
 20
-1159.56230306893
 30
0.0
 11
2119.02731204207
 21
-1159.56230306893
 31
0.0
  0
LINE
  5
   963
  8
0
  6
CONTINUOUS
 62
     7
 10
2118.42731203313
 20
-1159.56230306893
 30
0.0
 11
2118.22731203015
 21
-1159.76230307191
 31
0.0
  0
LINE
  5
   964
  8
0
  6
CONTINUOUS
 62
     7
 10
2118.22731203015
 20
-1160.9623030898
 30
0.0
 11
2118.42731203313
 21
-1161.16230309278
 31
0.0
  0
LINE
  5
   965
  8
0
  6
CONTINUOUS
 62
     7
 10
2118.22731203015
 20
-1159.76230307191
 30
0.0
 11
2118.22731203015
 21
-1160.9623030898
 31
0.0
  0
LINE
  5
   966
  8
0
  6
CONTINUOUS
 62
     7
 10
2118.22731203015
 20
-1160.9623030898
 30
0.0
 11
2119.02731204207
 21
-1160.9623030898
 31
0.0
  0
LINE
  5
   967
  8
0
  6
CONTINUOUS
 62
     7
 10
2118.22731203015
 20
-1159.76230307191
 30
0.0
 11
2119.02731204207
 21
-1159.76230307191
 31
0.0
  0
LINE
  5
   968
  8
0
  6
CONTINUOUS
 62
     7
 10
2117.37490189172
 20
-1150.36235564679
 30
0.0
 11
2122.11753547123
 21
-1150.36235564679
 31
0.0
  0
LINE
  5
   969
  8
0
  6
CONTINUOUS
 62
     7
 10
2117.25009574489
 20
-1160.36230308086
 30
0.0
 11
2121.9927293244
 21
-1160.36230308086
 31
0.0
  0
LINE
  5
   96A
  8
0
  6
CONTINUOUS
 62
     7
 10
2118.42731203313
 20
-1159.56230306893
 30
0.0
 11
2118.42731203313
 21
-1161.16230309278
 31
0.0
  0
LINE
  5
   96B
  8
0
  6
CONTINUOUS
 62
     7
 10
2105.87784732546
 20
-1111.96231040657
 30
0.0
 11
2105.87784732546
 21
-1113.16231042445
 31
0.0
  0
LINE
  5
   96C
  8
0
  6
CONTINUOUS
 62
     7
 10
2108.27784736122
 20
-1111.96231040657
 30
0.0
 11
2108.27784736122
 21
-1113.56231043041
 31
0.0
  0
LINE
  5
   96D
  8
0
  6
CONTINUOUS
 62
     7
 10
2109.07784737314
 20
-1111.96231040657
 30
0.0
 11
2109.07784737314
 21
-1113.56231043041
 31
0.0
  0
LINE
  5
   96E
  8
0
  6
CONTINUOUS
 62
     7
 10
2110.27784739103
 20
-1111.96231040657
 30
0.0
 11
2110.27784739103
 21
-1113.56231043041
 31
0.0
  0
LINE
  5
   96F
  8
0
  6
CONTINUOUS
 62
     7
 10
2111.07784740295
 20
-1111.96231040657
 30
0.0
 11
2111.07784740295
 21
-1113.56231043041
 31
0.0
  0
LINE
  5
   970
  8
0
  6
CONTINUOUS
 62
     7
 10
2113.47784743871
 20
-1111.96231040657
 30
0.0
 11
2113.47784743871
 21
-1113.16231042445
 31
0.0
  0
LINE
  5
   971
  8
0
  6
CONTINUOUS
 62
     7
 10
2105.87784732546
 20
-1202.76228734553
 30
0.0
 11
2105.87784732546
 21
-1203.96228736341
 31
0.0
  0
LINE
  5
   972
  8
0
  6
CONTINUOUS
 62
     7
 10
2108.27784736122
 20
-1202.76228734553
 30
0.0
 11
2108.27784736122
 21
-1204.36228736937
 31
0.0
  0
LINE
  5
   973
  8
0
  6
CONTINUOUS
 62
     7
 10
2109.07784737314
 20
-1202.76228734553
 30
0.0
 11
2109.07784737314
 21
-1204.36228736937
 31
0.0
  0
LINE
  5
   974
  8
0
  6
CONTINUOUS
 62
     7
 10
2110.27784739103
 20
-1202.76228734553
 30
0.0
 11
2110.27784739103
 21
-1204.36228736937
 31
0.0
  0
LINE
  5
   975
  8
0
  6
CONTINUOUS
 62
     7
 10
2111.07784740295
 20
-1202.76228734553
 30
0.0
 11
2111.07784740295
 21
-1204.36228736937
 31
0.0
  0
LINE
  5
   976
  8
0
  6
CONTINUOUS
 62
     7
 10
2113.47784743871
 20
-1202.76228734553
 30
0.0
 11
2113.47784743871
 21
-1203.96228736341
 31
0.0
  0
LINE
  5
   977
  8
0
  6
CONTINUOUS
 62
     7
 10
2149.62730114932
 20
-1108.76232866943
 30
0.0
 11
2150.8273011672
 21
-1108.76232866943
 31
0.0
  0
LINE
  5
   978
  8
0
  6
CONTINUOUS
 62
     7
 10
2151.02730117018
 20
-1106.48232863545
 30
0.0
 11
2151.02730117018
 21
-1108.56232866645
 31
0.0
  0
LINE
  5
   979
  8
0
  6
CONTINUOUS
 62
     7
 10
2151.02730117018
 20
-1108.56232866645
 30
0.0
 11
2150.8273011672
 21
-1108.76232866943
 31
0.0
  0
LINE
  5
   97A
  8
0
  6
CONTINUOUS
 62
     7
 10
2150.8273011672
 20
-1107.76232865453
 30
0.0
 11
2150.8273011672
 21
-1108.76232866943
 31
0.0
  0
LINE
  5
   97B
  8
0
  6
CONTINUOUS
 62
     7
 10
2150.62730116422
 20
-1107.76232865453
 30
0.0
 11
2151.02730117018
 21
-1107.76232865453
 31
0.0
  0
LINE
  5
   97C
  8
0
  6
CONTINUOUS
 62
     7
 10
2150.62730116422
 20
-1107.36232864857
 30
0.0
 11
2151.02730117018
 21
-1107.36232864857
 31
0.0
  0
LINE
  5
   97D
  8
0
  6
CONTINUOUS
 62
     7
 10
2150.62730116422
 20
-1107.36232864857
 30
0.0
 11
2150.62730116422
 21
-1107.76232865453
 31
0.0
  0
LINE
  5
   97E
  8
0
  6
CONTINUOUS
 62
     7
 10
2150.8273011672
 20
-1106.36232863367
 30
0.0
 11
2150.8273011672
 21
-1107.36232864857
 31
0.0
  0
CIRCLE
  5
   97F
  8
0
  6
CONTINUOUS
 62
     7
 10
2150.02730115528
 20
-1107.56232865155
 30
0.0
 40
0.200000002980232
  0
LINE
  5
   980
  8
0
  6
CONTINUOUS
 62
     7
 10
2149.62730114932
 20
-1106.36232863367
 30
0.0
 11
2150.9073011684
 21
-1106.36232863367
 31
0.0
  0
LINE
  5
   981
  8
0
  6
CONTINUOUS
 62
     7
 10
2150.9073011684
 20
-1106.36232863367
 30
0.0
 11
2151.02730117018
 21
-1106.48232863545
 31
0.0
  0
LINE
  5
   982
  8
0
  6
DASHDOT
 62
     7
 10
2148.13139100081
 20
-1107.56232865155
 30
0.0
 11
2152.45006605805
 21
-1107.56232865155
 31
0.0
  0
CIRCLE
  5
   983
  8
0
  6
CONTINUOUS
 62
     7
 10
2129.27098351736
 20
-1098.77046781895
 30
0.0
 40
1.00000001490116
  0
INSERT
  5
   984
  8
0
  6
CONTINUOUS
 62
     7
  2
*HATCH48
 10
2147.71044921875
 20
-1137.76232910156
 30
0.0
 41
0.400000005960464
 42
0.400000005960464
 50
269.999999844103
 43
0.400000005960464
  0
LINE
  5
   985
  8
0
  6
CONTINUOUS
 62
     7
 10
2121.42731207783
 20
-1155.5623293668
 30
0.0
 11
2149.02722866113
 21
-1155.5623293668
 31
0.0
  0
TEXT
  5
   986
  8
0
  6
CONTINUOUS
 62
     2
 10
2131.19714737127
 20
-1084.49895387586
 30
0.0
 40
2.00000007748604
  1
75 mm.CON VITI SIGILLABILI
 50
359.999999844103
 41
0.625
 72
     1
 11
2147.32214799872
 21
-1083.49895388091
 31
0.0
 73
     2
  0
TEXT
  5
   987
  8
0
  6
CONTINUOUS
 62
     2
 10
2131.1971475024
 20
-1087.49895387586
 30
0.0
 40
2.00000007748604
  1
75 mm. WITH SCREWS TO SEAL
 50
359.999999844103
 41
0.625
 72
     1
 11
2147.32214812985
 21
-1086.49895388091
 31
0.0
 73
     2
  0
CIRCLE
  5
   988
  8
0
  6
CONTINUOUS
 62
     7
 10
2129.27098351736
 20
-1085.1704676163
 30
0.0
 40
1.00000001490116
  0
INSERT
  5
   989
  8
0
  6
CONTINUOUS
 62
     7
  2
*HATCH49
 10
2147.71044921875
 20
-1137.76232910156
 30
0.0
 41
0.400000005960464
 42
0.400000005960464
 50
269.999999844103
 43
0.400000005960464
  0
INSERT
  5
   98A
  8
0
  6
CONTINUOUS
 62
     3
  2
*UDIM222
 10
0.0
 20
0.0
 30
0.0
  0
INSERT
  5
   98B
  8
0
  6
CONTINUOUS
 62
     3
  2
*UDIM223
 10
0.0
 20
0.0
 30
0.0
  0
TEXT
  5
   98C
  8
0
  6
CONTINUOUS
 62
     2
 10
2162.28475722715
 20
-1099.53895833802
 30
0.0
 40
3.50000005215406
  1
:
 50
359.999999844103
 41
0.933333333333333
 72
     1
 11
2163.56809058436
 21
-1097.78895831543
 31
0.0
 73
     2
  0
INSERT
  5
   98D
  8
0
  6
CONTINUOUS
 62
     7
  2
*UDIM224
 10
0.0
 20
0.0
 30
0.0
  0
LINE
  5
   98E
  8
0
  6
DASHDOT
 62
     7
 10
2148.13139100081
 20
-1202.56233006716
 30
0.0
 11
2152.45006605805
 21
-1202.56233006716
 31
0.0
  0
CIRCLE
  5
   98F
  8
0
  6
CONTINUOUS
 62
     7
 10
2150.02730115528
 20
-1202.56233006716
 30
0.0
 40
0.200000002980232
  0
LINE
  5
   990
  8
0
  6
CONTINUOUS
 62
     7
 10
2149.62730114932
 20
-1201.36233004928
 30
0.0
 11
2150.9073011684
 21
-1201.36233004928
 31
0.0
  0
LINE
  5
   991
  8
0
  6
CONTINUOUS
 62
     7
 10
2150.9073011684
 20
-1201.36233004928
 30
0.0
 11
2151.02730117018
 21
-1201.48233005106
 31
0.0
  0
LINE
  5
   992
  8
0
  6
CONTINUOUS
 62
     7
 10
2151.02730117018
 20
-1201.48233005106
 30
0.0
 11
2151.02730117018
 21
-1203.56233008206
 31
0.0
  0
LINE
  5
   993
  8
0
  6
CONTINUOUS
 62
     7
 10
2150.8273011672
 20
-1201.36233004928
 30
0.0
 11
2150.8273011672
 21
-1202.36233006418
 31
0.0
  0
LINE
  5
   994
  8
0
  6
CONTINUOUS
 62
     7
 10
2150.62730116422
 20
-1202.36233006418
 30
0.0
 11
2151.02730117018
 21
-1202.36233006418
 31
0.0
  0
LINE
  5
   995
  8
0
  6
CONTINUOUS
 62
     7
 10
2150.62730116422
 20
-1202.36233006418
 30
0.0
 11
2150.62730116422
 21
-1202.76233007014
 31
0.0
  0
LINE
  5
   996
  8
0
  6
CONTINUOUS
 62
     7
 10
2150.62730116422
 20
-1202.76233007014
 30
0.0
 11
2151.02730117018
 21
-1202.76233007014
 31
0.0
  0
LINE
  5
   997
  8
0
  6
CONTINUOUS
 62
     7
 10
2151.02730117018
 20
-1203.56233008206
 30
0.0
 11
2150.8273011672
 21
-1203.76233008504
 31
0.0
  0
LINE
  5
   998
  8
0
  6
CONTINUOUS
 62
     7
 10
2149.62730114932
 20
-1203.76233008504
 30
0.0
 11
2150.8273011672
 21
-1203.76233008504
 31
0.0
  0
LINE
  5
   999
  8
0
  6
CONTINUOUS
 62
     7
 10
2150.8273011672
 20
-1202.76233007014
 30
0.0
 11
2150.8273011672
 21
-1203.76233008504
 31
0.0
  0
ENDSEC
  0
EOF
