ISO-10303-21;
HEADER;
FILE_DESCRIPTION(('CATIA V5 STEP Exchange'),'2;1');

FILE_NAME('C:\\Users\\uff.tecnico\\Desktop\\STP\\1SDH001295R0093_1PA_001_00_XT1_4P_FIXED_MOSTRINA_DIFFERENZIAL.stp','2014-11-11T15:20:26+00:00',('none'),('none'),'CATIA Version 5 Release 20 SP 1 (IN-10)','CATIA V5 STEP AP214','none');

FILE_SCHEMA(('AUTOMOTIVE_DESIGN { 1 0 10303 214 1 1 1 1 }'));

ENDSEC;
/* file written by CATIA V5R20 */
DATA;
#5=PRODUCT('1SDH001295R0093_1PA_001_00_XT1_4P_FIXED_MOSTRINA_DIFFERENZIAL','','',(#2)) ;
#2=PRODUCT_CONTEXT(' ',#1,'mechanical') ;
#1=APPLICATION_CONTEXT('automotive design') ;
#10=PRODUCT_DEFINITION('',' ',#6,#3) ;
#3=PRODUCT_DEFINITION_CONTEXT('part definition',#1,' ') ;
#11=PRODUCT_DEFINITION_SHAPE(' ',' ',#10) ;
#652=MECHANICAL_DESIGN_GEOMETRIC_PRESENTATION_REPRESENTATION(' ',(#79,#117,#155,#184,#231,#285,#339,#369,#393,#417,#441,#494,#532,#570,#594,#618,#643,#30),#17) ;
#20=SHAPE_REPRESENTATION(' ',(#19),#17) ;
#19=AXIS2_PLACEMENT_3D(' ',#18,$,$) ;
#35=AXIS2_PLACEMENT_3D('Plane Axis2P3D',#32,#33,#34) ;
#83=AXIS2_PLACEMENT_3D('Plane Axis2P3D',#80,#81,#82) ;
#121=AXIS2_PLACEMENT_3D('Plane Axis2P3D',#118,#119,#120) ;
#159=AXIS2_PLACEMENT_3D('Plane Axis2P3D',#156,#157,#158) ;
#188=AXIS2_PLACEMENT_3D('Cylinder Axis2P3D',#185,#186,#187) ;
#192=AXIS2_PLACEMENT_3D('Circle Axis2P3D',#190,#191,$) ;
#208=AXIS2_PLACEMENT_3D('Circle Axis2P3D',#206,#207,$) ;
#235=AXIS2_PLACEMENT_3D('Plane Axis2P3D',#232,#233,#234) ;
#267=AXIS2_PLACEMENT_3D('Circle Axis2P3D',#265,#266,$) ;
#289=AXIS2_PLACEMENT_3D('Plane Axis2P3D',#286,#287,#288) ;
#321=AXIS2_PLACEMENT_3D('Circle Axis2P3D',#319,#320,$) ;
#343=AXIS2_PLACEMENT_3D('Plane Axis2P3D',#340,#341,#342) ;
#373=AXIS2_PLACEMENT_3D('Cylinder Axis2P3D',#370,#371,#372) ;
#397=AXIS2_PLACEMENT_3D('Plane Axis2P3D',#394,#395,#396) ;
#421=AXIS2_PLACEMENT_3D('Plane Axis2P3D',#418,#419,#420) ;
#445=AXIS2_PLACEMENT_3D('Plane Axis2P3D',#442,#443,#444) ;
#498=AXIS2_PLACEMENT_3D('Plane Axis2P3D',#495,#496,#497) ;
#536=AXIS2_PLACEMENT_3D('Plane Axis2P3D',#533,#534,#535) ;
#574=AXIS2_PLACEMENT_3D('Plane Axis2P3D',#571,#572,#573) ;
#598=AXIS2_PLACEMENT_3D('Plane Axis2P3D',#595,#596,#597) ;
#622=AXIS2_PLACEMENT_3D('Plane Axis2P3D',#619,#620,#621) ;
#649=AXIS2_PLACEMENT_3D('Sistema di assi.1',#646,#647,#648) ;
#18=CARTESIAN_POINT(' ',(0.,0.,0.)) ;
#32=CARTESIAN_POINT('Axis2P3D Location',(94.1,0.,17.)) ;
#37=CARTESIAN_POINT('Line Origine',(28.8,74.,17.)) ;
#41=CARTESIAN_POINT('Vertex',(94.1,74.,17.)) ;
#43=CARTESIAN_POINT('Vertex',(-36.5,74.,17.)) ;
#46=CARTESIAN_POINT('Line Origine',(-36.5,76.25,17.)) ;
#50=CARTESIAN_POINT('Vertex',(-36.5,78.5,17.)) ;
#53=CARTESIAN_POINT('Line Origine',(28.8,78.5,17.)) ;
#57=CARTESIAN_POINT('Vertex',(94.1,78.5,17.)) ;
#60=CARTESIAN_POINT('Line Origine',(94.1,76.25,17.)) ;
#80=CARTESIAN_POINT('Axis2P3D Location',(-36.5,0.,-30.)) ;
#85=CARTESIAN_POINT('Line Origine',(-36.5,76.25,-30.)) ;
#89=CARTESIAN_POINT('Vertex',(-36.5,74.,-30.)) ;
#91=CARTESIAN_POINT('Vertex',(-36.5,78.5,-30.)) ;
#94=CARTESIAN_POINT('Line Origine',(-36.5,78.5,-6.5)) ;
#99=CARTESIAN_POINT('Line Origine',(-36.5,74.,-6.5)) ;
#118=CARTESIAN_POINT('Axis2P3D Location',(94.1,0.,17.)) ;
#123=CARTESIAN_POINT('Line Origine',(94.1,78.5,-6.5)) ;
#127=CARTESIAN_POINT('Vertex',(94.1,78.5,-30.)) ;
#130=CARTESIAN_POINT('Line Origine',(94.1,76.25,-30.)) ;
#134=CARTESIAN_POINT('Vertex',(94.1,74.,-30.)) ;
#137=CARTESIAN_POINT('Line Origine',(94.1,74.,-6.5)) ;
#156=CARTESIAN_POINT('Axis2P3D Location',(-36.5,0.,-30.)) ;
#161=CARTESIAN_POINT('Line Origine',(28.8,74.,-30.)) ;
#166=CARTESIAN_POINT('Line Origine',(28.8,78.5,-30.)) ;
#185=CARTESIAN_POINT('Axis2P3D Location',(-41.5,76.5,-6.5)) ;
#190=CARTESIAN_POINT('Axis2P3D Location',(-41.5,76.5,34.5)) ;
#194=CARTESIAN_POINT('Vertex',(-43.5,76.5,34.5)) ;
#196=CARTESIAN_POINT('Vertex',(-41.5,78.5,34.5)) ;
#199=CARTESIAN_POINT('Line Origine',(-41.5,78.5,-6.5)) ;
#203=CARTESIAN_POINT('Vertex',(-41.5,78.5,-47.5)) ;
#206=CARTESIAN_POINT('Axis2P3D Location',(-41.5,76.5,-47.5)) ;
#210=CARTESIAN_POINT('Vertex',(-43.5,76.5,-47.5)) ;
#213=CARTESIAN_POINT('Line Origine',(-43.5,76.5,-6.5)) ;
#232=CARTESIAN_POINT('Axis2P3D Location',(0.,78.5,-47.5)) ;
#237=CARTESIAN_POINT('Line Origine',(101.1,76.25,-47.5)) ;
#241=CARTESIAN_POINT('Vertex',(101.1,76.,-47.5)) ;
#243=CARTESIAN_POINT('Vertex',(101.1,76.5,-47.5)) ;
#246=CARTESIAN_POINT('Line Origine',(28.8,76.,-47.5)) ;
#250=CARTESIAN_POINT('Vertex',(-43.5,76.,-47.5)) ;
#253=CARTESIAN_POINT('Line Origine',(-43.5,76.25,-47.5)) ;
#258=CARTESIAN_POINT('Line Origine',(28.8,78.5,-47.5)) ;
#262=CARTESIAN_POINT('Vertex',(99.1,78.5,-47.5)) ;
#265=CARTESIAN_POINT('Axis2P3D Location',(99.1,76.5,-47.5)) ;
#286=CARTESIAN_POINT('Axis2P3D Location',(0.,76.,34.5)) ;
#291=CARTESIAN_POINT('Line Origine',(28.8,78.5,34.5)) ;
#295=CARTESIAN_POINT('Vertex',(99.1,78.5,34.5)) ;
#298=CARTESIAN_POINT('Line Origine',(-43.5,76.25,34.5)) ;
#302=CARTESIAN_POINT('Vertex',(-43.5,76.,34.5)) ;
#305=CARTESIAN_POINT('Line Origine',(28.8,76.,34.5)) ;
#309=CARTESIAN_POINT('Vertex',(101.1,76.,34.5)) ;
#312=CARTESIAN_POINT('Line Origine',(101.1,76.25,34.5)) ;
#316=CARTESIAN_POINT('Vertex',(101.1,76.5,34.5)) ;
#319=CARTESIAN_POINT('Axis2P3D Location',(99.1,76.5,34.5)) ;
#340=CARTESIAN_POINT('Axis2P3D Location',(0.,78.5,-47.5)) ;
#345=CARTESIAN_POINT('Line Origine',(99.1,78.5,-6.5)) ;
#370=CARTESIAN_POINT('Axis2P3D Location',(99.1,76.5,-6.5)) ;
#375=CARTESIAN_POINT('Line Origine',(101.1,76.5,-6.5)) ;
#394=CARTESIAN_POINT('Axis2P3D Location',(101.1,0.,0.)) ;
#399=CARTESIAN_POINT('Line Origine',(101.1,76.,-6.5)) ;
#418=CARTESIAN_POINT('Axis2P3D Location',(-43.5,0.,0.)) ;
#423=CARTESIAN_POINT('Line Origine',(-43.5,76.,-6.5)) ;
#442=CARTESIAN_POINT('Axis2P3D Location',(0.,74.,20.)) ;
#447=CARTESIAN_POINT('Line Origine',(28.8,74.,20.)) ;
#451=CARTESIAN_POINT('Vertex',(97.1,74.,20.)) ;
#453=CARTESIAN_POINT('Vertex',(-39.5,74.,20.)) ;
#456=CARTESIAN_POINT('Line Origine',(-39.5,74.,-6.5)) ;
#460=CARTESIAN_POINT('Vertex',(-39.5,74.,-33.)) ;
#463=CARTESIAN_POINT('Line Origine',(28.8,74.,-33.)) ;
#467=CARTESIAN_POINT('Vertex',(97.1,74.,-33.)) ;
#470=CARTESIAN_POINT('Line Origine',(97.1,74.,-6.5)) ;
#495=CARTESIAN_POINT('Axis2P3D Location',(0.,74.,-33.)) ;
#500=CARTESIAN_POINT('Line Origine',(-39.5,75.,-33.)) ;
#504=CARTESIAN_POINT('Vertex',(-39.5,76.,-33.)) ;
#507=CARTESIAN_POINT('Line Origine',(28.8,76.,-33.)) ;
#511=CARTESIAN_POINT('Vertex',(97.1,76.,-33.)) ;
#514=CARTESIAN_POINT('Line Origine',(97.1,75.,-33.)) ;
#533=CARTESIAN_POINT('Axis2P3D Location',(0.,74.,20.)) ;
#538=CARTESIAN_POINT('Line Origine',(97.1,75.,20.)) ;
#542=CARTESIAN_POINT('Vertex',(97.1,76.,20.)) ;
#545=CARTESIAN_POINT('Line Origine',(28.8,76.,20.)) ;
#549=CARTESIAN_POINT('Vertex',(-39.5,76.,20.)) ;
#552=CARTESIAN_POINT('Line Origine',(-39.5,75.,20.)) ;
#571=CARTESIAN_POINT('Axis2P3D Location',(97.1,51.,0.)) ;
#576=CARTESIAN_POINT('Line Origine',(97.1,76.,-6.5)) ;
#595=CARTESIAN_POINT('Axis2P3D Location',(-39.5,51.,0.)) ;
#600=CARTESIAN_POINT('Line Origine',(-39.5,76.,-6.5)) ;
#619=CARTESIAN_POINT('Axis2P3D Location',(0.,76.,34.5)) ;
#646=CARTESIAN_POINT('Axis2P3D Location',(0.,0.,0.)) ;
#33=DIRECTION('Axis2P3D Direction',(0.,0.,-1.)) ;
#34=DIRECTION('Axis2P3D XDirection',(-1.,0.,0.)) ;
#38=DIRECTION('Vector Direction',(-1.,0.,0.)) ;
#47=DIRECTION('Vector Direction',(0.,1.,0.)) ;
#54=DIRECTION('Vector Direction',(-1.,0.,0.)) ;
#61=DIRECTION('Vector Direction',(0.,1.,0.)) ;
#81=DIRECTION('Axis2P3D Direction',(-1.,0.,0.)) ;
#82=DIRECTION('Axis2P3D XDirection',(0.,0.,1.)) ;
#86=DIRECTION('Vector Direction',(0.,1.,0.)) ;
#95=DIRECTION('Vector Direction',(0.,0.,1.)) ;
#100=DIRECTION('Vector Direction',(0.,0.,1.)) ;
#119=DIRECTION('Axis2P3D Direction',(1.,-0.,0.)) ;
#120=DIRECTION('Axis2P3D XDirection',(0.,0.,-1.)) ;
#124=DIRECTION('Vector Direction',(0.,0.,-1.)) ;
#131=DIRECTION('Vector Direction',(0.,1.,0.)) ;
#138=DIRECTION('Vector Direction',(0.,0.,-1.)) ;
#157=DIRECTION('Axis2P3D Direction',(0.,0.,1.)) ;
#158=DIRECTION('Axis2P3D XDirection',(1.,0.,0.)) ;
#162=DIRECTION('Vector Direction',(1.,0.,0.)) ;
#167=DIRECTION('Vector Direction',(1.,0.,0.)) ;
#186=DIRECTION('Axis2P3D Direction',(0.,0.,1.)) ;
#187=DIRECTION('Axis2P3D XDirection',(1.83697019872E-016,1.,-0.)) ;
#191=DIRECTION('Axis2P3D Direction',(0.,0.,1.)) ;
#200=DIRECTION('Vector Direction',(0.,0.,1.)) ;
#207=DIRECTION('Axis2P3D Direction',(0.,0.,1.)) ;
#214=DIRECTION('Vector Direction',(0.,0.,1.)) ;
#233=DIRECTION('Axis2P3D Direction',(-0.,-0.,-1.)) ;
#234=DIRECTION('Axis2P3D XDirection',(0.,-1.,0.)) ;
#238=DIRECTION('Vector Direction',(0.,-1.,0.)) ;
#247=DIRECTION('Vector Direction',(-1.,0.,0.)) ;
#254=DIRECTION('Vector Direction',(0.,-1.,0.)) ;
#259=DIRECTION('Vector Direction',(-1.,0.,0.)) ;
#266=DIRECTION('Axis2P3D Direction',(-0.,-0.,-1.)) ;
#287=DIRECTION('Axis2P3D Direction',(0.,-0.,1.)) ;
#288=DIRECTION('Axis2P3D XDirection',(0.,1.,0.)) ;
#292=DIRECTION('Vector Direction',(-1.,0.,0.)) ;
#299=DIRECTION('Vector Direction',(0.,1.,0.)) ;
#306=DIRECTION('Vector Direction',(-1.,0.,0.)) ;
#313=DIRECTION('Vector Direction',(0.,1.,0.)) ;
#320=DIRECTION('Axis2P3D Direction',(0.,-0.,1.)) ;
#341=DIRECTION('Axis2P3D Direction',(0.,-1.,0.)) ;
#342=DIRECTION('Axis2P3D XDirection',(0.,0.,1.)) ;
#346=DIRECTION('Vector Direction',(0.,0.,1.)) ;
#371=DIRECTION('Axis2P3D Direction',(0.,-0.,1.)) ;
#372=DIRECTION('Axis2P3D XDirection',(1.,-1.83697019872E-016,-0.)) ;
#376=DIRECTION('Vector Direction',(0.,0.,1.)) ;
#395=DIRECTION('Axis2P3D Direction',(1.,0.,0.)) ;
#396=DIRECTION('Axis2P3D XDirection',(0.,1.,0.)) ;
#400=DIRECTION('Vector Direction',(0.,0.,1.)) ;
#419=DIRECTION('Axis2P3D Direction',(1.,0.,0.)) ;
#420=DIRECTION('Axis2P3D XDirection',(0.,1.,0.)) ;
#424=DIRECTION('Vector Direction',(0.,0.,1.)) ;
#443=DIRECTION('Axis2P3D Direction',(0.,1.,0.)) ;
#444=DIRECTION('Axis2P3D XDirection',(0.,0.,-1.)) ;
#448=DIRECTION('Vector Direction',(-1.,0.,0.)) ;
#457=DIRECTION('Vector Direction',(0.,0.,-1.)) ;
#464=DIRECTION('Vector Direction',(-1.,0.,0.)) ;
#471=DIRECTION('Vector Direction',(0.,0.,-1.)) ;
#496=DIRECTION('Axis2P3D Direction',(0.,-0.,1.)) ;
#497=DIRECTION('Axis2P3D XDirection',(0.,1.,0.)) ;
#501=DIRECTION('Vector Direction',(-1.42108547152E-014,-1.,0.)) ;
#508=DIRECTION('Vector Direction',(-1.,0.,0.)) ;
#515=DIRECTION('Vector Direction',(0.,-1.,0.)) ;
#534=DIRECTION('Axis2P3D Direction',(0.,-0.,1.)) ;
#535=DIRECTION('Axis2P3D XDirection',(0.,1.,0.)) ;
#539=DIRECTION('Vector Direction',(0.,-1.,0.)) ;
#546=DIRECTION('Vector Direction',(-1.,0.,0.)) ;
#553=DIRECTION('Vector Direction',(-1.42108547152E-014,-1.,0.)) ;
#572=DIRECTION('Axis2P3D Direction',(-1.,0.,0.)) ;
#573=DIRECTION('Axis2P3D XDirection',(0.,1.,0.)) ;
#577=DIRECTION('Vector Direction',(0.,0.,-1.)) ;
#596=DIRECTION('Axis2P3D Direction',(-1.,0.,0.)) ;
#597=DIRECTION('Axis2P3D XDirection',(0.,1.,0.)) ;
#601=DIRECTION('Vector Direction',(0.,0.,-1.)) ;
#620=DIRECTION('Axis2P3D Direction',(0.,1.,0.)) ;
#621=DIRECTION('Axis2P3D XDirection',(0.,0.,-1.)) ;
#647=DIRECTION('Axis2P3D Direction',(0.,0.,1.)) ;
#648=DIRECTION('Axis2P3D XDirection',(1.,0.,0.)) ;
#8=PRODUCT_RELATED_PRODUCT_CATEGORY('part',$,(#5)) ;
#7=PRODUCT_CATEGORY('part','specification') ;
#30=STYLED_ITEM(' ',(#29),#22) ;
#29=PRESENTATION_STYLE_ASSIGNMENT((#28)) ;
#78=PRESENTATION_STYLE_ASSIGNMENT((#77)) ;
#116=PRESENTATION_STYLE_ASSIGNMENT((#115)) ;
#154=PRESENTATION_STYLE_ASSIGNMENT((#153)) ;
#183=PRESENTATION_STYLE_ASSIGNMENT((#182)) ;
#230=PRESENTATION_STYLE_ASSIGNMENT((#229)) ;
#284=PRESENTATION_STYLE_ASSIGNMENT((#283)) ;
#338=PRESENTATION_STYLE_ASSIGNMENT((#337)) ;
#368=PRESENTATION_STYLE_ASSIGNMENT((#367)) ;
#392=PRESENTATION_STYLE_ASSIGNMENT((#391)) ;
#416=PRESENTATION_STYLE_ASSIGNMENT((#415)) ;
#440=PRESENTATION_STYLE_ASSIGNMENT((#439)) ;
#493=PRESENTATION_STYLE_ASSIGNMENT((#492)) ;
#531=PRESENTATION_STYLE_ASSIGNMENT((#530)) ;
#569=PRESENTATION_STYLE_ASSIGNMENT((#568)) ;
#593=PRESENTATION_STYLE_ASSIGNMENT((#592)) ;
#617=PRESENTATION_STYLE_ASSIGNMENT((#616)) ;
#642=PRESENTATION_STYLE_ASSIGNMENT((#641)) ;
#28=SURFACE_STYLE_USAGE(.BOTH.,#27) ;
#77=SURFACE_STYLE_USAGE(.BOTH.,#76) ;
#115=SURFACE_STYLE_USAGE(.BOTH.,#114) ;
#153=SURFACE_STYLE_USAGE(.BOTH.,#152) ;
#182=SURFACE_STYLE_USAGE(.BOTH.,#181) ;
#229=SURFACE_STYLE_USAGE(.BOTH.,#228) ;
#283=SURFACE_STYLE_USAGE(.BOTH.,#282) ;
#337=SURFACE_STYLE_USAGE(.BOTH.,#336) ;
#367=SURFACE_STYLE_USAGE(.BOTH.,#366) ;
#391=SURFACE_STYLE_USAGE(.BOTH.,#390) ;
#415=SURFACE_STYLE_USAGE(.BOTH.,#414) ;
#439=SURFACE_STYLE_USAGE(.BOTH.,#438) ;
#492=SURFACE_STYLE_USAGE(.BOTH.,#491) ;
#530=SURFACE_STYLE_USAGE(.BOTH.,#529) ;
#568=SURFACE_STYLE_USAGE(.BOTH.,#567) ;
#592=SURFACE_STYLE_USAGE(.BOTH.,#591) ;
#616=SURFACE_STYLE_USAGE(.BOTH.,#615) ;
#641=SURFACE_STYLE_USAGE(.BOTH.,#640) ;
#27=SURFACE_SIDE_STYLE(' ',(#26)) ;
#76=SURFACE_SIDE_STYLE(' ',(#75)) ;
#114=SURFACE_SIDE_STYLE(' ',(#113)) ;
#152=SURFACE_SIDE_STYLE(' ',(#151)) ;
#181=SURFACE_SIDE_STYLE(' ',(#180)) ;
#228=SURFACE_SIDE_STYLE(' ',(#227)) ;
#282=SURFACE_SIDE_STYLE(' ',(#281)) ;
#336=SURFACE_SIDE_STYLE(' ',(#335)) ;
#366=SURFACE_SIDE_STYLE(' ',(#365)) ;
#390=SURFACE_SIDE_STYLE(' ',(#389)) ;
#414=SURFACE_SIDE_STYLE(' ',(#413)) ;
#438=SURFACE_SIDE_STYLE(' ',(#437)) ;
#491=SURFACE_SIDE_STYLE(' ',(#490)) ;
#529=SURFACE_SIDE_STYLE(' ',(#528)) ;
#567=SURFACE_SIDE_STYLE(' ',(#566)) ;
#591=SURFACE_SIDE_STYLE(' ',(#590)) ;
#615=SURFACE_SIDE_STYLE(' ',(#614)) ;
#640=SURFACE_SIDE_STYLE(' ',(#639)) ;
#26=SURFACE_STYLE_FILL_AREA(#25) ;
#75=SURFACE_STYLE_FILL_AREA(#74) ;
#113=SURFACE_STYLE_FILL_AREA(#112) ;
#151=SURFACE_STYLE_FILL_AREA(#150) ;
#180=SURFACE_STYLE_FILL_AREA(#179) ;
#227=SURFACE_STYLE_FILL_AREA(#226) ;
#281=SURFACE_STYLE_FILL_AREA(#280) ;
#335=SURFACE_STYLE_FILL_AREA(#334) ;
#365=SURFACE_STYLE_FILL_AREA(#364) ;
#389=SURFACE_STYLE_FILL_AREA(#388) ;
#413=SURFACE_STYLE_FILL_AREA(#412) ;
#437=SURFACE_STYLE_FILL_AREA(#436) ;
#490=SURFACE_STYLE_FILL_AREA(#489) ;
#528=SURFACE_STYLE_FILL_AREA(#527) ;
#566=SURFACE_STYLE_FILL_AREA(#565) ;
#590=SURFACE_STYLE_FILL_AREA(#589) ;
#614=SURFACE_STYLE_FILL_AREA(#613) ;
#639=SURFACE_STYLE_FILL_AREA(#638) ;
#25=FILL_AREA_STYLE(' ',(#24)) ;
#74=FILL_AREA_STYLE(' ',(#73)) ;
#112=FILL_AREA_STYLE(' ',(#111)) ;
#150=FILL_AREA_STYLE(' ',(#149)) ;
#179=FILL_AREA_STYLE(' ',(#178)) ;
#226=FILL_AREA_STYLE(' ',(#225)) ;
#280=FILL_AREA_STYLE(' ',(#279)) ;
#334=FILL_AREA_STYLE(' ',(#333)) ;
#364=FILL_AREA_STYLE(' ',(#363)) ;
#388=FILL_AREA_STYLE(' ',(#387)) ;
#412=FILL_AREA_STYLE(' ',(#411)) ;
#436=FILL_AREA_STYLE(' ',(#435)) ;
#489=FILL_AREA_STYLE(' ',(#488)) ;
#527=FILL_AREA_STYLE(' ',(#526)) ;
#565=FILL_AREA_STYLE(' ',(#564)) ;
#589=FILL_AREA_STYLE(' ',(#588)) ;
#613=FILL_AREA_STYLE(' ',(#612)) ;
#638=FILL_AREA_STYLE(' ',(#637)) ;
#24=FILL_AREA_STYLE_COLOUR(' ',#23) ;
#73=FILL_AREA_STYLE_COLOUR(' ',#72) ;
#111=FILL_AREA_STYLE_COLOUR(' ',#72) ;
#149=FILL_AREA_STYLE_COLOUR(' ',#72) ;
#178=FILL_AREA_STYLE_COLOUR(' ',#72) ;
#225=FILL_AREA_STYLE_COLOUR(' ',#72) ;
#279=FILL_AREA_STYLE_COLOUR(' ',#72) ;
#333=FILL_AREA_STYLE_COLOUR(' ',#72) ;
#363=FILL_AREA_STYLE_COLOUR(' ',#72) ;
#387=FILL_AREA_STYLE_COLOUR(' ',#72) ;
#411=FILL_AREA_STYLE_COLOUR(' ',#72) ;
#435=FILL_AREA_STYLE_COLOUR(' ',#72) ;
#488=FILL_AREA_STYLE_COLOUR(' ',#72) ;
#526=FILL_AREA_STYLE_COLOUR(' ',#72) ;
#564=FILL_AREA_STYLE_COLOUR(' ',#72) ;
#588=FILL_AREA_STYLE_COLOUR(' ',#72) ;
#612=FILL_AREA_STYLE_COLOUR(' ',#72) ;
#637=FILL_AREA_STYLE_COLOUR(' ',#72) ;
#39=VECTOR('Line Direction',#38,1.) ;
#48=VECTOR('Line Direction',#47,1.) ;
#55=VECTOR('Line Direction',#54,1.) ;
#62=VECTOR('Line Direction',#61,1.) ;
#87=VECTOR('Line Direction',#86,1.) ;
#96=VECTOR('Line Direction',#95,1.) ;
#101=VECTOR('Line Direction',#100,1.) ;
#125=VECTOR('Line Direction',#124,1.) ;
#132=VECTOR('Line Direction',#131,1.) ;
#139=VECTOR('Line Direction',#138,1.) ;
#163=VECTOR('Line Direction',#162,1.) ;
#168=VECTOR('Line Direction',#167,1.) ;
#201=VECTOR('Line Direction',#200,1.) ;
#215=VECTOR('Line Direction',#214,1.) ;
#239=VECTOR('Line Direction',#238,1.) ;
#248=VECTOR('Line Direction',#247,1.) ;
#255=VECTOR('Line Direction',#254,1.) ;
#260=VECTOR('Line Direction',#259,1.) ;
#293=VECTOR('Line Direction',#292,1.) ;
#300=VECTOR('Line Direction',#299,1.) ;
#307=VECTOR('Line Direction',#306,1.) ;
#314=VECTOR('Line Direction',#313,1.) ;
#347=VECTOR('Line Direction',#346,1.) ;
#377=VECTOR('Line Direction',#376,1.) ;
#401=VECTOR('Line Direction',#400,1.) ;
#425=VECTOR('Line Direction',#424,1.) ;
#449=VECTOR('Line Direction',#448,1.) ;
#458=VECTOR('Line Direction',#457,1.) ;
#465=VECTOR('Line Direction',#464,1.) ;
#472=VECTOR('Line Direction',#471,1.) ;
#502=VECTOR('Line Direction',#501,1.) ;
#509=VECTOR('Line Direction',#508,1.) ;
#516=VECTOR('Line Direction',#515,1.) ;
#540=VECTOR('Line Direction',#539,1.) ;
#547=VECTOR('Line Direction',#546,1.) ;
#554=VECTOR('Line Direction',#553,1.) ;
#578=VECTOR('Line Direction',#577,1.) ;
#602=VECTOR('Line Direction',#601,1.) ;
#16=UNCERTAINTY_MEASURE_WITH_UNIT(LENGTH_MEASURE(0.005),#12,'distance_accuracy_value','CONFUSED CURVE UNCERTAINTY') ;
#645=SHAPE_REPRESENTATION_RELATIONSHIP(' ',' ',#20,#644) ;
#66=ORIENTED_EDGE('',*,*,#45,.T.) ;
#67=ORIENTED_EDGE('',*,*,#52,.T.) ;
#68=ORIENTED_EDGE('',*,*,#59,.F.) ;
#69=ORIENTED_EDGE('',*,*,#64,.F.) ;
#105=ORIENTED_EDGE('',*,*,#93,.T.) ;
#106=ORIENTED_EDGE('',*,*,#98,.T.) ;
#107=ORIENTED_EDGE('',*,*,#52,.F.) ;
#108=ORIENTED_EDGE('',*,*,#103,.F.) ;
#143=ORIENTED_EDGE('',*,*,#64,.T.) ;
#144=ORIENTED_EDGE('',*,*,#129,.T.) ;
#145=ORIENTED_EDGE('',*,*,#136,.F.) ;
#146=ORIENTED_EDGE('',*,*,#141,.F.) ;
#172=ORIENTED_EDGE('',*,*,#165,.T.) ;
#173=ORIENTED_EDGE('',*,*,#136,.T.) ;
#174=ORIENTED_EDGE('',*,*,#170,.F.) ;
#175=ORIENTED_EDGE('',*,*,#93,.F.) ;
#219=ORIENTED_EDGE('',*,*,#198,.T.) ;
#220=ORIENTED_EDGE('',*,*,#205,.F.) ;
#221=ORIENTED_EDGE('',*,*,#212,.T.) ;
#222=ORIENTED_EDGE('',*,*,#217,.T.) ;
#271=ORIENTED_EDGE('',*,*,#245,.F.) ;
#272=ORIENTED_EDGE('',*,*,#252,.T.) ;
#273=ORIENTED_EDGE('',*,*,#257,.T.) ;
#274=ORIENTED_EDGE('',*,*,#212,.F.) ;
#275=ORIENTED_EDGE('',*,*,#264,.F.) ;
#276=ORIENTED_EDGE('',*,*,#269,.F.) ;
#325=ORIENTED_EDGE('',*,*,#297,.T.) ;
#326=ORIENTED_EDGE('',*,*,#198,.F.) ;
#327=ORIENTED_EDGE('',*,*,#304,.T.) ;
#328=ORIENTED_EDGE('',*,*,#311,.F.) ;
#329=ORIENTED_EDGE('',*,*,#318,.F.) ;
#330=ORIENTED_EDGE('',*,*,#323,.F.) ;
#351=ORIENTED_EDGE('',*,*,#349,.F.) ;
#352=ORIENTED_EDGE('',*,*,#264,.T.) ;
#353=ORIENTED_EDGE('',*,*,#205,.T.) ;
#354=ORIENTED_EDGE('',*,*,#297,.F.) ;
#357=ORIENTED_EDGE('',*,*,#98,.F.) ;
#358=ORIENTED_EDGE('',*,*,#170,.T.) ;
#359=ORIENTED_EDGE('',*,*,#129,.F.) ;
#360=ORIENTED_EDGE('',*,*,#59,.T.) ;
#381=ORIENTED_EDGE('',*,*,#323,.T.) ;
#382=ORIENTED_EDGE('',*,*,#379,.F.) ;
#383=ORIENTED_EDGE('',*,*,#269,.T.) ;
#384=ORIENTED_EDGE('',*,*,#349,.T.) ;
#405=ORIENTED_EDGE('',*,*,#403,.T.) ;
#406=ORIENTED_EDGE('',*,*,#245,.T.) ;
#407=ORIENTED_EDGE('',*,*,#379,.T.) ;
#408=ORIENTED_EDGE('',*,*,#318,.T.) ;
#429=ORIENTED_EDGE('',*,*,#304,.F.) ;
#430=ORIENTED_EDGE('',*,*,#217,.F.) ;
#431=ORIENTED_EDGE('',*,*,#257,.F.) ;
#432=ORIENTED_EDGE('',*,*,#427,.F.) ;
#476=ORIENTED_EDGE('',*,*,#455,.T.) ;
#477=ORIENTED_EDGE('',*,*,#462,.T.) ;
#478=ORIENTED_EDGE('',*,*,#469,.F.) ;
#479=ORIENTED_EDGE('',*,*,#474,.F.) ;
#482=ORIENTED_EDGE('',*,*,#45,.F.) ;
#483=ORIENTED_EDGE('',*,*,#141,.T.) ;
#484=ORIENTED_EDGE('',*,*,#165,.F.) ;
#485=ORIENTED_EDGE('',*,*,#103,.T.) ;
#520=ORIENTED_EDGE('',*,*,#469,.T.) ;
#521=ORIENTED_EDGE('',*,*,#506,.F.) ;
#522=ORIENTED_EDGE('',*,*,#513,.F.) ;
#523=ORIENTED_EDGE('',*,*,#518,.T.) ;
#558=ORIENTED_EDGE('',*,*,#544,.F.) ;
#559=ORIENTED_EDGE('',*,*,#551,.T.) ;
#560=ORIENTED_EDGE('',*,*,#556,.T.) ;
#561=ORIENTED_EDGE('',*,*,#455,.F.) ;
#582=ORIENTED_EDGE('',*,*,#544,.T.) ;
#583=ORIENTED_EDGE('',*,*,#474,.T.) ;
#584=ORIENTED_EDGE('',*,*,#518,.F.) ;
#585=ORIENTED_EDGE('',*,*,#580,.F.) ;
#606=ORIENTED_EDGE('',*,*,#604,.T.) ;
#607=ORIENTED_EDGE('',*,*,#506,.T.) ;
#608=ORIENTED_EDGE('',*,*,#462,.F.) ;
#609=ORIENTED_EDGE('',*,*,#556,.F.) ;
#625=ORIENTED_EDGE('',*,*,#427,.T.) ;
#626=ORIENTED_EDGE('',*,*,#252,.F.) ;
#627=ORIENTED_EDGE('',*,*,#403,.F.) ;
#628=ORIENTED_EDGE('',*,*,#311,.T.) ;
#631=ORIENTED_EDGE('',*,*,#551,.F.) ;
#632=ORIENTED_EDGE('',*,*,#580,.T.) ;
#633=ORIENTED_EDGE('',*,*,#513,.T.) ;
#634=ORIENTED_EDGE('',*,*,#604,.F.) ;
#361=FACE_BOUND('',#356,.T.) ;
#486=FACE_BOUND('',#481,.T.) ;
#635=FACE_BOUND('',#630,.T.) ;
#31=CLOSED_SHELL('Closed Shell',(#71,#110,#148,#177,#224,#278,#332,#362,#386,#410,#434,#487,#525,#563,#587,#611,#636)) ;
#644=ADVANCED_BREP_SHAPE_REPRESENTATION('NONE',(#22),#17) ;
#71=ADVANCED_FACE('Mostrina',(#70),#36,.T.) ;
#110=ADVANCED_FACE('Mostrina',(#109),#84,.F.) ;
#148=ADVANCED_FACE('Mostrina',(#147),#122,.F.) ;
#177=ADVANCED_FACE('Mostrina',(#176),#160,.T.) ;
#224=ADVANCED_FACE('Mostrina',(#223),#189,.T.) ;
#278=ADVANCED_FACE('Mostrina',(#277),#236,.T.) ;
#332=ADVANCED_FACE('Mostrina',(#331),#290,.T.) ;
#362=ADVANCED_FACE('Mostrina',(#355,#361),#344,.F.) ;
#386=ADVANCED_FACE('Mostrina',(#385),#374,.T.) ;
#410=ADVANCED_FACE('Mostrina',(#409),#398,.T.) ;
#434=ADVANCED_FACE('Mostrina',(#433),#422,.F.) ;
#487=ADVANCED_FACE('Mostrina',(#480,#486),#446,.F.) ;
#525=ADVANCED_FACE('Mostrina',(#524),#499,.F.) ;
#563=ADVANCED_FACE('Mostrina',(#562),#537,.T.) ;
#587=ADVANCED_FACE('Mostrina',(#586),#575,.F.) ;
#611=ADVANCED_FACE('Mostrina',(#610),#599,.T.) ;
#636=ADVANCED_FACE('Mostrina',(#629,#635),#623,.F.) ;
#4=APPLICATION_PROTOCOL_DEFINITION('international standard','automotive_design',2001,#1) ;
#22=MANIFOLD_SOLID_BREP('Mostrina',#31) ;
#193=CIRCLE('generated circle',#192,2.) ;
#209=CIRCLE('generated circle',#208,2.) ;
#268=CIRCLE('generated circle',#267,2.) ;
#322=CIRCLE('generated circle',#321,2.) ;
#23=COLOUR_RGB('Colour',0.,0.501960784314,1.) ;
#72=COLOUR_RGB('Colour',0.341176470588,0.364705882353,0.36862745098) ;
#650=CONSTRUCTIVE_GEOMETRY_REPRESENTATION('supplemental geometry',(#649),#17) ;
#651=CONSTRUCTIVE_GEOMETRY_REPRESENTATION_RELATIONSHIP('supplemental geometry','',#20,#650) ;
#79=OVER_RIDING_STYLED_ITEM(' ',(#78),#71,#30) ;
#117=OVER_RIDING_STYLED_ITEM(' ',(#116),#110,#30) ;
#155=OVER_RIDING_STYLED_ITEM(' ',(#154),#148,#30) ;
#184=OVER_RIDING_STYLED_ITEM(' ',(#183),#177,#30) ;
#231=OVER_RIDING_STYLED_ITEM(' ',(#230),#224,#30) ;
#285=OVER_RIDING_STYLED_ITEM(' ',(#284),#278,#30) ;
#339=OVER_RIDING_STYLED_ITEM(' ',(#338),#332,#30) ;
#369=OVER_RIDING_STYLED_ITEM(' ',(#368),#362,#30) ;
#393=OVER_RIDING_STYLED_ITEM(' ',(#392),#386,#30) ;
#417=OVER_RIDING_STYLED_ITEM(' ',(#416),#410,#30) ;
#441=OVER_RIDING_STYLED_ITEM(' ',(#440),#434,#30) ;
#494=OVER_RIDING_STYLED_ITEM(' ',(#493),#487,#30) ;
#532=OVER_RIDING_STYLED_ITEM(' ',(#531),#525,#30) ;
#570=OVER_RIDING_STYLED_ITEM(' ',(#569),#563,#30) ;
#594=OVER_RIDING_STYLED_ITEM(' ',(#593),#587,#30) ;
#618=OVER_RIDING_STYLED_ITEM(' ',(#617),#611,#30) ;
#643=OVER_RIDING_STYLED_ITEM(' ',(#642),#636,#30) ;
#189=CYLINDRICAL_SURFACE('generated cylinder',#188,2.) ;
#374=CYLINDRICAL_SURFACE('generated cylinder',#373,2.) ;
#45=EDGE_CURVE('',#42,#44,#40,.T.) ;
#52=EDGE_CURVE('',#44,#51,#49,.T.) ;
#59=EDGE_CURVE('',#58,#51,#56,.T.) ;
#64=EDGE_CURVE('',#42,#58,#63,.T.) ;
#93=EDGE_CURVE('',#90,#92,#88,.T.) ;
#98=EDGE_CURVE('',#92,#51,#97,.T.) ;
#103=EDGE_CURVE('',#90,#44,#102,.T.) ;
#129=EDGE_CURVE('',#58,#128,#126,.T.) ;
#136=EDGE_CURVE('',#135,#128,#133,.T.) ;
#141=EDGE_CURVE('',#42,#135,#140,.T.) ;
#165=EDGE_CURVE('',#90,#135,#164,.T.) ;
#170=EDGE_CURVE('',#92,#128,#169,.T.) ;
#198=EDGE_CURVE('',#195,#197,#193,.F.) ;
#205=EDGE_CURVE('',#204,#197,#202,.T.) ;
#212=EDGE_CURVE('',#204,#211,#209,.T.) ;
#217=EDGE_CURVE('',#211,#195,#216,.T.) ;
#245=EDGE_CURVE('',#242,#244,#240,.F.) ;
#252=EDGE_CURVE('',#242,#251,#249,.T.) ;
#257=EDGE_CURVE('',#251,#211,#256,.F.) ;
#264=EDGE_CURVE('',#263,#204,#261,.T.) ;
#269=EDGE_CURVE('',#244,#263,#268,.F.) ;
#297=EDGE_CURVE('',#296,#197,#294,.T.) ;
#304=EDGE_CURVE('',#195,#303,#301,.F.) ;
#311=EDGE_CURVE('',#310,#303,#308,.T.) ;
#318=EDGE_CURVE('',#317,#310,#315,.F.) ;
#323=EDGE_CURVE('',#296,#317,#322,.F.) ;
#349=EDGE_CURVE('',#263,#296,#348,.T.) ;
#379=EDGE_CURVE('',#244,#317,#378,.T.) ;
#403=EDGE_CURVE('',#310,#242,#402,.F.) ;
#427=EDGE_CURVE('',#303,#251,#426,.F.) ;
#455=EDGE_CURVE('',#452,#454,#450,.T.) ;
#462=EDGE_CURVE('',#454,#461,#459,.T.) ;
#469=EDGE_CURVE('',#468,#461,#466,.T.) ;
#474=EDGE_CURVE('',#452,#468,#473,.T.) ;
#506=EDGE_CURVE('',#505,#461,#503,.T.) ;
#513=EDGE_CURVE('',#512,#505,#510,.T.) ;
#518=EDGE_CURVE('',#512,#468,#517,.T.) ;
#544=EDGE_CURVE('',#543,#452,#541,.T.) ;
#551=EDGE_CURVE('',#543,#550,#548,.T.) ;
#556=EDGE_CURVE('',#550,#454,#555,.T.) ;
#580=EDGE_CURVE('',#543,#512,#579,.T.) ;
#604=EDGE_CURVE('',#550,#505,#603,.T.) ;
#65=EDGE_LOOP('',(#66,#67,#68,#69)) ;
#104=EDGE_LOOP('',(#105,#106,#107,#108)) ;
#142=EDGE_LOOP('',(#143,#144,#145,#146)) ;
#171=EDGE_LOOP('',(#172,#173,#174,#175)) ;
#218=EDGE_LOOP('',(#219,#220,#221,#222)) ;
#270=EDGE_LOOP('',(#271,#272,#273,#274,#275,#276)) ;
#324=EDGE_LOOP('',(#325,#326,#327,#328,#329,#330)) ;
#350=EDGE_LOOP('',(#351,#352,#353,#354)) ;
#356=EDGE_LOOP('',(#357,#358,#359,#360)) ;
#380=EDGE_LOOP('',(#381,#382,#383,#384)) ;
#404=EDGE_LOOP('',(#405,#406,#407,#408)) ;
#428=EDGE_LOOP('',(#429,#430,#431,#432)) ;
#475=EDGE_LOOP('',(#476,#477,#478,#479)) ;
#481=EDGE_LOOP('',(#482,#483,#484,#485)) ;
#519=EDGE_LOOP('',(#520,#521,#522,#523)) ;
#557=EDGE_LOOP('',(#558,#559,#560,#561)) ;
#581=EDGE_LOOP('',(#582,#583,#584,#585)) ;
#605=EDGE_LOOP('',(#606,#607,#608,#609)) ;
#624=EDGE_LOOP('',(#625,#626,#627,#628)) ;
#630=EDGE_LOOP('',(#631,#632,#633,#634)) ;
#70=FACE_OUTER_BOUND('',#65,.T.) ;
#109=FACE_OUTER_BOUND('',#104,.T.) ;
#147=FACE_OUTER_BOUND('',#142,.T.) ;
#176=FACE_OUTER_BOUND('',#171,.T.) ;
#223=FACE_OUTER_BOUND('',#218,.T.) ;
#277=FACE_OUTER_BOUND('',#270,.T.) ;
#331=FACE_OUTER_BOUND('',#324,.T.) ;
#355=FACE_OUTER_BOUND('',#350,.T.) ;
#385=FACE_OUTER_BOUND('',#380,.T.) ;
#409=FACE_OUTER_BOUND('',#404,.T.) ;
#433=FACE_OUTER_BOUND('',#428,.T.) ;
#480=FACE_OUTER_BOUND('',#475,.T.) ;
#524=FACE_OUTER_BOUND('',#519,.T.) ;
#562=FACE_OUTER_BOUND('',#557,.T.) ;
#586=FACE_OUTER_BOUND('',#581,.T.) ;
#610=FACE_OUTER_BOUND('',#605,.T.) ;
#629=FACE_OUTER_BOUND('',#624,.T.) ;
#40=LINE('Line',#37,#39) ;
#49=LINE('Line',#46,#48) ;
#56=LINE('Line',#53,#55) ;
#63=LINE('Line',#60,#62) ;
#88=LINE('Line',#85,#87) ;
#97=LINE('Line',#94,#96) ;
#102=LINE('Line',#99,#101) ;
#126=LINE('Line',#123,#125) ;
#133=LINE('Line',#130,#132) ;
#140=LINE('Line',#137,#139) ;
#164=LINE('Line',#161,#163) ;
#169=LINE('Line',#166,#168) ;
#202=LINE('Line',#199,#201) ;
#216=LINE('Line',#213,#215) ;
#240=LINE('Line',#237,#239) ;
#249=LINE('Line',#246,#248) ;
#256=LINE('Line',#253,#255) ;
#261=LINE('Line',#258,#260) ;
#294=LINE('Line',#291,#293) ;
#301=LINE('Line',#298,#300) ;
#308=LINE('Line',#305,#307) ;
#315=LINE('Line',#312,#314) ;
#348=LINE('Line',#345,#347) ;
#378=LINE('Line',#375,#377) ;
#402=LINE('Line',#399,#401) ;
#426=LINE('Line',#423,#425) ;
#450=LINE('Line',#447,#449) ;
#459=LINE('Line',#456,#458) ;
#466=LINE('Line',#463,#465) ;
#473=LINE('Line',#470,#472) ;
#503=LINE('Line',#500,#502) ;
#510=LINE('Line',#507,#509) ;
#517=LINE('Line',#514,#516) ;
#541=LINE('Line',#538,#540) ;
#548=LINE('Line',#545,#547) ;
#555=LINE('Line',#552,#554) ;
#579=LINE('Line',#576,#578) ;
#603=LINE('Line',#600,#602) ;
#36=PLANE('',#35) ;
#84=PLANE('',#83) ;
#122=PLANE('',#121) ;
#160=PLANE('',#159) ;
#236=PLANE('',#235) ;
#290=PLANE('',#289) ;
#344=PLANE('',#343) ;
#398=PLANE('',#397) ;
#422=PLANE('',#421) ;
#446=PLANE('',#445) ;
#499=PLANE('',#498) ;
#537=PLANE('',#536) ;
#575=PLANE('',#574) ;
#599=PLANE('',#598) ;
#623=PLANE('',#622) ;
#14=PLANE_ANGLE_MEASURE_WITH_UNIT(PLANE_ANGLE_MEASURE(0.0174532925199),#13) ;
#9=PRODUCT_CATEGORY_RELATIONSHIP(' ',' ',#7,#8) ;
#6=PRODUCT_DEFINITION_FORMATION_WITH_SPECIFIED_SOURCE('',' ',#5,.NOT_KNOWN.) ;
#21=SHAPE_DEFINITION_REPRESENTATION(#11,#20) ;
#42=VERTEX_POINT('',#41) ;
#44=VERTEX_POINT('',#43) ;
#51=VERTEX_POINT('',#50) ;
#58=VERTEX_POINT('',#57) ;
#90=VERTEX_POINT('',#89) ;
#92=VERTEX_POINT('',#91) ;
#128=VERTEX_POINT('',#127) ;
#135=VERTEX_POINT('',#134) ;
#195=VERTEX_POINT('',#194) ;
#197=VERTEX_POINT('',#196) ;
#204=VERTEX_POINT('',#203) ;
#211=VERTEX_POINT('',#210) ;
#242=VERTEX_POINT('',#241) ;
#244=VERTEX_POINT('',#243) ;
#251=VERTEX_POINT('',#250) ;
#263=VERTEX_POINT('',#262) ;
#296=VERTEX_POINT('',#295) ;
#303=VERTEX_POINT('',#302) ;
#310=VERTEX_POINT('',#309) ;
#317=VERTEX_POINT('',#316) ;
#452=VERTEX_POINT('',#451) ;
#454=VERTEX_POINT('',#453) ;
#461=VERTEX_POINT('',#460) ;
#468=VERTEX_POINT('',#467) ;
#505=VERTEX_POINT('',#504) ;
#512=VERTEX_POINT('',#511) ;
#543=VERTEX_POINT('',#542) ;
#550=VERTEX_POINT('',#549) ;
#12=(LENGTH_UNIT()NAMED_UNIT(*)SI_UNIT(.MILLI.,.METRE.)) ;
#13=(NAMED_UNIT(*)PLANE_ANGLE_UNIT()SI_UNIT($,.RADIAN.)) ;
#15=(NAMED_UNIT(*)SI_UNIT($,.STERADIAN.)SOLID_ANGLE_UNIT()) ;
#17=(GEOMETRIC_REPRESENTATION_CONTEXT(3)GLOBAL_UNCERTAINTY_ASSIGNED_CONTEXT((#16))GLOBAL_UNIT_ASSIGNED_CONTEXT((#12,#13,#15))REPRESENTATION_CONTEXT(' ',' ')) ;
ENDSEC;
END-ISO-10303-21;
