  0
SECTION
  2
HEADER
  9
$ACADVER
  1
AC1015
  9
$ACADMAINTVER
 70
    13
  9
$DWGCODEPAGE
  3
ANSI_1252
  9
$INSBASE
 10
0.0
 20
0.0
 30
0.0
  9
$EXTMIN
 10
0.2370990874900258
 20
0.2379992524221779
 30
0.0
  9
$EXTMAX
 10
392.23709908749
 20
262.7379992524221
 30
0.0
  9
$LIMMIN
 10
0.0
 20
0.0
  9
$LIMMAX
 10
12.0
 20
9.0
  9
$ORTHOMODE
 70
     1
  9
$REGENMODE
 70
     1
  9
$FILLMODE
 70
     1
  9
$QTEXTMODE
 70
     0
  9
$MIRRTEXT
 70
     1
  9
$LTSCALE
 40
5.0
  9
$ATTMODE
 70
     1
  9
$TEXTSIZE
 40
2.5
  9
$TRACEWID
 40
0.05
  9
$TEXTSTYLE
  7
ROMANS
  9
$CLAYER
  8
0
  9
$CELTYPE
  6
CONTINUOUS
  9
$CECOLOR
 62
   256
  9
$CELTSCALE
 40
1.0
  9
$DISPSILH
 70
     0
  9
$DIMSCALE
 40
1.0
  9
$DIMASZ
 40
0.18
  9
$DIMEXO
 40
0.0625
  9
$DIMDLI
 40
0.38
  9
$DIMRND
 40
0.0
  9
$DIMDLE
 40
0.0
  9
$DIMEXE
 40
0.18
  9
$DIMTP
 40
0.0
  9
$DIMTM
 40
0.0
  9
$DIMTXT
 40
0.18
  9
$DIMCEN
 40
0.09
  9
$DIMTSZ
 40
0.0
  9
$DIMTOL
 70
     0
  9
$DIMLIM
 70
     0
  9
$DIMTIH
 70
     1
  9
$DIMTOH
 70
     1
  9
$DIMSE1
 70
     0
  9
$DIMSE2
 70
     0
  9
$DIMTAD
 70
     0
  9
$DIMZIN
 70
     0
  9
$DIMBLK
  1

  9
$DIMASO
 70
     1
  9
$DIMSHO
 70
     1
  9
$DIMPOST
  1

  9
$DIMAPOST
  1

  9
$DIMALT
 70
     0
  9
$DIMALTD
 70
     2
  9
$DIMALTF
 40
25.4
  9
$DIMLFAC
 40
1.0
  9
$DIMTOFL
 70
     0
  9
$DIMTVP
 40
0.0
  9
$DIMTIX
 70
     0
  9
$DIMSOXD
 70
     0
  9
$DIMSAH
 70
     0
  9
$DIMBLK1
  1

  9
$DIMBLK2
  1

  9
$DIMSTYLE
  2
Standard
  9
$DIMCLRD
 70
     0
  9
$DIMCLRE
 70
     0
  9
$DIMCLRT
 70
     0
  9
$DIMTFAC
 40
1.0
  9
$DIMGAP
 40
0.09
  9
$DIMJUST
 70
     0
  9
$DIMSD1
 70
     0
  9
$DIMSD2
 70
     0
  9
$DIMTOLJ
 70
     1
  9
$DIMTZIN
 70
     0
  9
$DIMALTZ
 70
     0
  9
$DIMALTTZ
 70
     0
  9
$DIMUPT
 70
     0
  9
$DIMDEC
 70
     4
  9
$DIMTDEC
 70
     4
  9
$DIMALTU
 70
     2
  9
$DIMALTTD
 70
     2
  9
$DIMTXSTY
  7
STANDARD
  9
$DIMAUNIT
 70
     0
  9
$DIMADEC
 70
     0
  9
$DIMALTRND
 40
0.0
  9
$DIMAZIN
 70
     0
  9
$DIMDSEP
 70
    46
  9
$DIMATFIT
 70
     3
  9
$DIMFRAC
 70
     0
  9
$DIMLDRBLK
  1

  9
$DIMLUNIT
 70
     2
  9
$DIMLWD
 70
    -2
  9
$DIMLWE
 70
    -2
  9
$DIMTMOVE
 70
     2
  9
$LUNITS
 70
     2
  9
$LUPREC
 70
     4
  9
$SKETCHINC
 40
0.1
  9
$FILLETRAD
 40
0.0
  9
$AUNITS
 70
     0
  9
$AUPREC
 70
     0
  9
$MENU
  1
acad
  9
$ELEVATION
 40
0.0
  9
$PELEVATION
 40
0.0
  9
$THICKNESS
 40
0.0
  9
$LIMCHECK
 70
     0
  9
$CHAMFERA
 40
0.0
  9
$CHAMFERB
 40
0.0
  9
$CHAMFERC
 40
0.0
  9
$CHAMFERD
 40
0.0
  9
$SKPOLY
 70
     0
  9
$TDCREATE
 40
2449099.558774653
  9
$TDUCREATE
 40
2449099.433774653
  9
$TDUPDATE
 40
2453200.596688761
  9
$TDUUPDATE
 40
2453200.471688761
  9
$TDINDWG
 40
0.0181531829
  9
$TDUSRTIMER
 40
0.0181531829
  9
$USRTIMER
 70
     1
  9
$ANGBASE
 50
0.0
  9
$ANGDIR
 70
     0
  9
$PDMODE
 70
     0
  9
$PDSIZE
 40
0.0
  9
$PLINEWID
 40
0.0
  9
$SPLFRAME
 70
     0
  9
$SPLINETYPE
 70
     6
  9
$SPLINESEGS
 70
     8
  9
$HANDSEED
  5
60B
  9
$SURFTAB1
 70
   250
  9
$SURFTAB2
 70
   250
  9
$SURFTYPE
 70
     6
  9
$SURFU
 70
     6
  9
$SURFV
 70
     6
  9
$UCSBASE
  2

  9
$UCSNAME
  2

  9
$UCSORG
 10
0.0
 20
0.0
 30
0.0
  9
$UCSXDIR
 10
1.0
 20
0.0
 30
0.0
  9
$UCSYDIR
 10
0.0
 20
1.0
 30
0.0
  9
$UCSORTHOREF
  2

  9
$UCSORTHOVIEW
 70
     0
  9
$UCSORGTOP
 10
0.0
 20
0.0
 30
0.0
  9
$UCSORGBOTTOM
 10
0.0
 20
0.0
 30
0.0
  9
$UCSORGLEFT
 10
0.0
 20
0.0
 30
0.0
  9
$UCSORGRIGHT
 10
0.0
 20
0.0
 30
0.0
  9
$UCSORGFRONT
 10
0.0
 20
0.0
 30
0.0
  9
$UCSORGBACK
 10
0.0
 20
0.0
 30
0.0
  9
$PUCSBASE
  2

  9
$PUCSNAME
  2

  9
$PUCSORG
 10
0.0
 20
0.0
 30
0.0
  9
$PUCSXDIR
 10
1.0
 20
0.0
 30
0.0
  9
$PUCSYDIR
 10
0.0
 20
1.0
 30
0.0
  9
$PUCSORTHOREF
  2

  9
$PUCSORTHOVIEW
 70
     0
  9
$PUCSORGTOP
 10
0.0
 20
0.0
 30
0.0
  9
$PUCSORGBOTTOM
 10
0.0
 20
0.0
 30
0.0
  9
$PUCSORGLEFT
 10
0.0
 20
0.0
 30
0.0
  9
$PUCSORGRIGHT
 10
0.0
 20
0.0
 30
0.0
  9
$PUCSORGFRONT
 10
0.0
 20
0.0
 30
0.0
  9
$PUCSORGBACK
 10
0.0
 20
0.0
 30
0.0
  9
$USERI1
 70
     0
  9
$USERI2
 70
     0
  9
$USERI3
 70
     0
  9
$USERI4
 70
     0
  9
$USERI5
 70
     0
  9
$USERR1
 40
0.0
  9
$USERR2
 40
0.0
  9
$USERR3
 40
0.0
  9
$USERR4
 40
0.0
  9
$USERR5
 40
0.0
  9
$WORLDVIEW
 70
     1
  9
$SHADEDGE
 70
     3
  9
$SHADEDIF
 70
    70
  9
$TILEMODE
 70
     1
  9
$MAXACTVP
 70
    16
  9
$PINSBASE
 10
0.0
 20
0.0
 30
0.0
  9
$PLIMCHECK
 70
     0
  9
$PEXTMIN
 10
1.000000000000000E+20
 20
1.000000000000000E+20
 30
1.000000000000000E+20
  9
$PEXTMAX
 10
-1.000000000000000E+20
 20
-1.000000000000000E+20
 30
-1.000000000000000E+20
  9
$PLIMMIN
 10
0.0
 20
0.0
  9
$PLIMMAX
 10
12.0
 20
9.0
  9
$UNITMODE
 70
     0
  9
$VISRETAIN
 70
     0
  9
$PLINEGEN
 70
     0
  9
$PSLTSCALE
 70
     0
  9
$TREEDEPTH
 70
  3020
  9
$CMLSTYLE
  2
Standard
  9
$CMLJUST
 70
     0
  9
$CMLSCALE
 40
1.0
  9
$PROXYGRAPHICS
 70
     1
  9
$MEASUREMENT
 70
     0
  9
$CELWEIGHT
370
    -1
  9
$ENDCAPS
280
     0
  9
$JOINSTYLE
280
     0
  9
$LWDISPLAY
290
     0
  9
$INSUNITS
 70
     0
  9
$HYPERLINKBASE
  1

  9
$STYLESHEET
  1

  9
$XEDIT
290
     1
  9
$CEPSNTYPE
380
     0
  9
$PSTYLEMODE
290
     1
  9
$FINGERPRINTGUID
  2
{F5138EC6-E8B6-4140-91ED-6E4BC43621BD}
  9
$VERSIONGUID
  2
{4A59B8DB-C43F-4C2E-B577-964FA70C6B39}
  9
$EXTNAMES
290
     1
  9
$PSVPSCALE
 40
0.0
  9
$OLESTARTUP
290
     0
  0
ENDSEC
  0
SECTION
  2
CLASSES
  0
CLASS
  1
ACDBDICTIONARYWDFLT
  2
AcDbDictionaryWithDefault
  3
AutoCAD 2000
 90
        0
280
     0
281
     0
  0
CLASS
  1
ACDBPLACEHOLDER
  2
AcDbPlaceHolder
  3
AutoCAD 2000
 90
        0
280
     0
281
     0
  0
CLASS
  1
LAYOUT
  2
AcDbLayout
  3
AutoCAD 2000
 90
        0
280
     0
281
     0
  0
CLASS
  1
DICTIONARYVAR
  2
AcDbDictionaryVar
  3
AutoCAD 2000
 90
        0
280
     0
281
     0
  0
ENDSEC
  0
SECTION
  2
TABLES
  0
TABLE
  2
VPORT
  5
8
330
0
100
AcDbSymbolTable
 70
     3
  0
VPORT
  5
60A
330
8
100
AcDbSymbolTableRecord
100
AcDbViewportTableRecord
  2
*Active
 70
     0
 10
0.0
 20
0.0
 11
1.0
 21
1.0
 12
228.8549422304158
 22
142.0404852716477
 13
0.0
 23
0.0
 14
2.5
 24
2.5
 15
0.0
 25
0.0
 16
0.0
 26
0.0
 36
1.0
 17
0.0
 27
0.0
 37
0.0
 40
284.0809705432955
 41
1.611195158850226
 42
50.0
 43
0.0
 44
0.0
 50
0.0
 51
0.0
 71
     0
 72
   100
 73
     1
 74
     1
 75
     1
 76
     0
 77
     0
 78
     0
281
     0
 65
     1
110
0.0
120
0.0
130
0.0
111
1.0
121
0.0
131
0.0
112
0.0
122
1.0
132
0.0
 79
     0
146
0.0
  0
ENDTAB
  0
TABLE
  2
LTYPE
  5
5
330
0
100
AcDbSymbolTable
 70
     4
  0
LTYPE
  5
13
330
5
100
AcDbSymbolTableRecord
100
AcDbLinetypeTableRecord
  2
ByBlock
 70
     0
  3

 72
    65
 73
     0
 40
0.0
  0
LTYPE
  5
14
330
5
100
AcDbSymbolTableRecord
100
AcDbLinetypeTableRecord
  2
ByLayer
 70
     0
  3

 72
    65
 73
     0
 40
0.0
  0
LTYPE
  5
15
330
5
100
AcDbSymbolTableRecord
100
AcDbLinetypeTableRecord
  2
CONTINUOUS
 70
     0
  3
Solid line
 72
    65
 73
     0
 40
0.0
  0
LTYPE
  5
3A
330
5
100
AcDbSymbolTableRecord
100
AcDbLinetypeTableRecord
  2
DASHED
 70
     0
  3
__ __ __ __ __ __ __ __ __ __ __ __ __ __ __ __
 72
    65
 73
     2
 40
0.75
 49
0.5
 74
     0
 49
-0.25
 74
     0
  0
LTYPE
  5
3B
330
5
100
AcDbSymbolTableRecord
100
AcDbLinetypeTableRecord
  2
CENTER
 70
     0
  3
____ _ ____ _ ____ _ ____ _ ____ _ ____ _ ____ 
 72
    65
 73
     4
 40
2.0
 49
1.25
 74
     0
 49
-0.25
 74
     0
 49
0.25
 74
     0
 49
-0.25
 74
     0
  0
LTYPE
  5
3C
330
5
100
AcDbSymbolTableRecord
100
AcDbLinetypeTableRecord
  2
HIDDEN
 70
     0
  3
__ __ __ __ __ __ __ __ __ __ __ __ __ __ __ __
 72
    65
 73
     2
 40
0.375
 49
0.25
 74
     0
 49
-0.125
 74
     0
  0
ENDTAB
  0
TABLE
  2
LAYER
  5
2
330
0
100
AcDbSymbolTable
 70
    14
  0
LAYER
  5
10
330
2
100
AcDbSymbolTableRecord
100
AcDbLayerTableRecord
  2
0
 70
     0
 62
     7
  6
CONTINUOUS
370
    -3
390
F
  0
LAYER
  5
40
330
2
100
AcDbSymbolTableRecord
100
AcDbLayerTableRecord
  2
RAAMI
 70
     0
 62
     4
  6
CONTINUOUS
370
    -3
390
F
  0
LAYER
  5
41
330
2
100
AcDbSymbolTableRecord
100
AcDbLayerTableRecord
  2
PAKSU
 70
     0
 62
     3
  6
CONTINUOUS
370
    -3
390
F
  0
LAYER
  5
42
330
2
100
AcDbSymbolTableRecord
100
AcDbLayerTableRecord
  2
OHUT
 70
     0
 62
     6
  6
CONTINUOUS
370
    -3
390
F
  0
LAYER
  5
43
330
2
100
AcDbSymbolTableRecord
100
AcDbLayerTableRecord
  2
SWEDEN
 70
     0
 62
     7
  6
CONTINUOUS
370
    -3
390
F
  0
LAYER
  5
44
330
2
100
AcDbSymbolTableRecord
100
AcDbLayerTableRecord
  2
SWEDEN2
 70
     0
 62
     5
  6
CONTINUOUS
370
    -3
390
F
  0
LAYER
  5
45
330
2
100
AcDbSymbolTableRecord
100
AcDbLayerTableRecord
  2
BASE
 70
     0
 62
     7
  6
CONTINUOUS
370
    -3
390
F
  0
LAYER
  5
46
330
2
100
AcDbSymbolTableRecord
100
AcDbLayerTableRecord
  2
21
 70
     0
 62
     2
  6
CONTINUOUS
370
    -3
390
F
  0
LAYER
  5
47
330
2
100
AcDbSymbolTableRecord
100
AcDbLayerTableRecord
  2
HEL035
 70
     0
 62
     7
  6
CONTINUOUS
370
    -3
390
F
  0
LAYER
  5
48
330
2
100
AcDbSymbolTableRecord
100
AcDbLayerTableRecord
  2
MUO
 70
     0
 62
     7
  6
CONTINUOUS
370
    -3
390
F
  0
LAYER
  5
49
330
2
100
AcDbSymbolTableRecord
100
AcDbLayerTableRecord
  2
1
 70
     0
 62
     2
  6
CONTINUOUS
370
    -3
390
F
  0
LAYER
  5
4A
330
2
100
AcDbSymbolTableRecord
100
AcDbLayerTableRecord
  2
BASE1
 70
     0
 62
     1
  6
CONTINUOUS
370
    -3
390
F
  0
LAYER
  5
4B
330
2
100
AcDbSymbolTableRecord
100
AcDbLayerTableRecord
  2
TEKS
 70
     0
 62
     5
  6
CONTINUOUS
370
    -3
390
F
  0
LAYER
  5
4C
330
2
100
AcDbSymbolTableRecord
100
AcDbLayerTableRecord
  2
DEFPOINTS
 70
     0
 62
     7
  6
CONTINUOUS
290
     0
370
    -3
390
F
  0
ENDTAB
  0
TABLE
  2
STYLE
  5
3
330
0
100
AcDbSymbolTable
 70
     3
  0
STYLE
  5
11
330
3
100
AcDbSymbolTableRecord
100
AcDbTextStyleTableRecord
  2
STANDARD
 70
     0
 40
0.0
 41
1.0
 50
0.0
 71
     0
 42
2.0
  3
txt
  4

  0
STYLE
  5
38
330
3
100
AcDbSymbolTableRecord
100
AcDbTextStyleTableRecord
  2
ROMANS
 70
     0
 40
0.0
 41
1.0
 50
0.0
 71
     0
 42
2.5
  3
romans
  4

  0
STYLE
  5
39
330
3
100
AcDbSymbolTableRecord
100
AcDbTextStyleTableRecord
  2
GREEKS
 70
     0
 40
0.0
 41
1.0
 50
0.0
 71
     0
 42
2.5
  3
TXT
  4

  0
ENDTAB
  0
TABLE
  2
VIEW
  5
6
330
0
100
AcDbSymbolTable
 70
     0
  0
ENDTAB
  0
TABLE
  2
UCS
  5
7
330
0
100
AcDbSymbolTable
 70
     0
  0
ENDTAB
  0
TABLE
  2
APPID
  5
9
330
0
100
AcDbSymbolTable
 70
     1
  0
APPID
  5
12
330
9
100
AcDbSymbolTableRecord
100
AcDbRegAppTableRecord
  2
ACAD
 70
     0
  0
ENDTAB
  0
TABLE
  2
DIMSTYLE
  5
A
330
0
100
AcDbSymbolTable
 70
     1
100
AcDbDimStyleTable
 71
     0
  0
DIMSTYLE
105
605
330
A
100
AcDbSymbolTableRecord
100
AcDbDimStyleTableRecord
  2
Standard
 70
     0
340
11
  0
ENDTAB
  0
TABLE
  2
BLOCK_RECORD
  5
1
330
0
100
AcDbSymbolTable
 70
    22
  0
BLOCK_RECORD
  5
1E
330
1
100
AcDbSymbolTableRecord
100
AcDbBlockTableRecord
  2
*Model_Space
340
21
  0
BLOCK_RECORD
  5
1A
330
1
100
AcDbSymbolTableRecord
100
AcDbBlockTableRecord
  2
*Paper_Space
340
1D
  0
BLOCK_RECORD
  5
22
330
1
100
AcDbSymbolTableRecord
100
AcDbBlockTableRecord
  2
1
340
0
102
{BLKREFS
331
207
331
208
331
209
102
}
  0
BLOCK_RECORD
  5
23
330
1
100
AcDbSymbolTableRecord
100
AcDbBlockTableRecord
  2
BLC27
340
0
102
{BLKREFS
331
341
331
342
331
34A
102
}
  0
BLOCK_RECORD
  5
24
330
1
100
AcDbSymbolTableRecord
100
AcDbBlockTableRecord
  2
BLC26
340
0
102
{BLKREFS
331
54
102
}
  0
BLOCK_RECORD
  5
25
330
1
100
AcDbSymbolTableRecord
100
AcDbBlockTableRecord
  2
BLC29
340
0
102
{BLKREFS
331
254
331
255
331
256
331
257
331
25B
331
29A
102
}
  0
BLOCK_RECORD
  5
26
330
1
100
AcDbSymbolTableRecord
100
AcDbBlockTableRecord
  2
WKU130
340
0
102
{BLKREFS
331
1E9
331
334
102
}
  0
BLOCK_RECORD
  5
27
330
1
100
AcDbSymbolTableRecord
100
AcDbBlockTableRecord
  2
*X5
340
0
102
{BLKREFS
331
303
102
}
  0
BLOCK_RECORD
  5
28
330
1
100
AcDbSymbolTableRecord
100
AcDbBlockTableRecord
  2
*X6
340
0
102
{BLKREFS
331
302
102
}
  0
BLOCK_RECORD
  5
29
330
1
100
AcDbSymbolTableRecord
100
AcDbBlockTableRecord
  2
*X7
340
0
102
{BLKREFS
331
301
102
}
  0
BLOCK_RECORD
  5
2A
330
1
100
AcDbSymbolTableRecord
100
AcDbBlockTableRecord
  2
*X8
340
0
102
{BLKREFS
331
300
102
}
  0
BLOCK_RECORD
  5
2B
330
1
100
AcDbSymbolTableRecord
100
AcDbBlockTableRecord
  2
*X9
340
0
102
{BLKREFS
331
2E7
331
2EE
102
}
  0
BLOCK_RECORD
  5
2C
330
1
100
AcDbSymbolTableRecord
100
AcDbBlockTableRecord
  2
*X10
340
0
102
{BLKREFS
331
2E8
331
2ED
102
}
  0
BLOCK_RECORD
  5
2D
330
1
100
AcDbSymbolTableRecord
100
AcDbBlockTableRecord
  2
*X11
340
0
102
{BLKREFS
331
2E9
331
2EC
102
}
  0
BLOCK_RECORD
  5
2E
330
1
100
AcDbSymbolTableRecord
100
AcDbBlockTableRecord
  2
*X12
340
0
102
{BLKREFS
331
2EA
331
2EB
102
}
  0
BLOCK_RECORD
  5
2F
330
1
100
AcDbSymbolTableRecord
100
AcDbBlockTableRecord
  2
BLC15
340
0
102
{BLKREFS
331
347
331
35A
102
}
  0
BLOCK_RECORD
  5
30
330
1
100
AcDbSymbolTableRecord
100
AcDbBlockTableRecord
  2
BLC55
340
0
102
{BLKREFS
331
213
102
}
  0
BLOCK_RECORD
  5
31
330
1
100
AcDbSymbolTableRecord
100
AcDbBlockTableRecord
  2
BLC5
340
0
102
{BLKREFS
331
1D5
102
}
  0
BLOCK_RECORD
  5
32
330
1
100
AcDbSymbolTableRecord
100
AcDbBlockTableRecord
  2
BLC43
340
0
102
{BLKREFS
331
219
331
237
331
603
102
}
  0
BLOCK_RECORD
  5
33
330
1
100
AcDbSymbolTableRecord
100
AcDbBlockTableRecord
  2
BLC42
340
0
102
{BLKREFS
331
218
331
238
331
604
102
}
  0
BLOCK_RECORD
  5
34
330
1
100
AcDbSymbolTableRecord
100
AcDbBlockTableRecord
  2
BLC44
340
0
102
{BLKREFS
331
21F
331
239
102
}
  0
BLOCK_RECORD
  5
35
330
1
100
AcDbSymbolTableRecord
100
AcDbBlockTableRecord
  2
B155
340
0
  0
BLOCK_RECORD
  5
36
330
1
100
AcDbSymbolTableRecord
100
AcDbBlockTableRecord
  2
B204
340
0
  0
BLOCK_RECORD
  5
37
330
1
100
AcDbSymbolTableRecord
100
AcDbBlockTableRecord
  2
MAA
340
0
102
{BLKREFS
331
5E8
331
5E9
331
5F2
331
5F3
331
5F4
331
5F5
331
5F6
331
5F7
102
}
  0
ENDTAB
  0
ENDSEC
  0
SECTION
  2
BLOCKS
  0
BLOCK
  5
4F
330
1E
100
AcDbEntity
  8
0
100
AcDbBlockBegin
  2
*Model_Space
 70
     0
 10
0.0
 20
0.0
 30
0.0
  3
*Model_Space
  1

  0
ENDBLK
  5
50
330
1E
100
AcDbEntity
  8
0
100
AcDbBlockEnd
  0
BLOCK
  5
4D
330
1A
100
AcDbEntity
 67
     1
  8
0
100
AcDbBlockBegin
  2
*Paper_Space
 70
     0
 10
0.0
 20
0.0
 30
0.0
  3
*Paper_Space
  1

  0
ENDBLK
  5
4E
330
1A
100
AcDbEntity
 67
     1
  8
0
100
AcDbBlockEnd
  0
BLOCK
  5
51
330
22
100
AcDbEntity
  8
0
100
AcDbBlockBegin
  2
1
 70
     0
 10
0.0
 20
0.0
 30
0.0
  3
1
  1

  0
ENDBLK
  5
52
330
22
100
AcDbEntity
  8
0
100
AcDbBlockEnd
  0
BLOCK
  5
53
330
23
100
AcDbEntity
  8
0
  6
DASHED
100
AcDbBlockBegin
  2
BLC27
 70
     0
 10
0.0
 20
0.0
 30
0.0
  3
BLC27
  1

  0
INSERT
  5
54
330
23
100
AcDbEntity
  8
SWEDEN2
  6
CENTER
100
AcDbBlockReference
  2
BLC26
 10
0.0806298676206154
 20
0.0379850207146433
 30
0.0
 41
1.006224687463202
 42
1.006224687463202
 43
1.006224687463202
  0
ENDBLK
  5
55
330
23
100
AcDbEntity
  8
0
  6
DASHED
100
AcDbBlockEnd
  0
BLOCK
  5
56
330
24
100
AcDbEntity
  8
SWEDEN
  6
Continuous
100
AcDbBlockBegin
  2
BLC26
 70
     0
 10
0.0
 20
0.0
 30
0.0
  3
BLC26
  1

  0
ARC
  5
57
330
24
100
AcDbEntity
  8
0
  6
Continuous
100
AcDbCircle
 10
-0.1805760986685527
 20
1.179220254965343
 30
0.0
 40
1.196858692389954
100
AcDbArc
 50
90.0
 51
265.7062371869478
  0
LINE
  5
58
330
24
100
AcDbEntity
  8
0
  6
Continuous
100
AcDbLine
 10
-0.1866378806934961
 20
-0.0109199663277195
 30
0.0
 11
0.4589419049629271
 21
-0.0109199663277195
 31
0.0
  0
LINE
  5
59
330
24
100
AcDbEntity
  8
0
  6
Continuous
100
AcDbLine
 10
-0.1866378806934961
 20
2.375670901630712
 30
0.0
 11
0.4528801229380406
 21
2.375670901630712
 31
0.0
  0
LINE
  5
5A
330
24
100
AcDbEntity
  8
0
  6
Continuous
100
AcDbLine
 10
-0.1855088671185854
 20
-2.40462935692193
 30
0.0
 11
0.4600709185378947
 21
-2.40462935692193
 31
0.0
  0
ARC
  5
5B
330
24
100
AcDbEntity
  8
0
  6
Continuous
100
AcDbCircle
 10
-0.1805760986685527
 20
-1.207778658717671
 30
0.0
 40
1.196858692389954
100
AcDbArc
 50
90.0
 51
270.0
  0
LINE
  5
5C
330
24
100
AcDbEntity
  8
0
  6
Continuous
100
AcDbLine
 10
0.4515250165858618
 20
-2.404586463428898
 30
0.0
 11
1.401804627155996
 21
-2.404586463428898
 31
0.0
  0
LINE
  5
5D
330
24
100
AcDbEntity
  8
0
  6
Continuous
100
AcDbLine
 10
0.4467851751237788
 20
2.375673621606836
 30
0.0
 11
1.418543909567034
 21
2.375673621606836
 31
0.0
  0
LINE
  5
5E
330
24
100
AcDbEntity
  8
0
  6
Continuous
100
AcDbLine
 10
0.4566268661492927
 20
-0.0109105363144124
 30
0.0
 11
1.422748890188501
 21
-0.0109105363144124
 31
0.0
  0
ENDBLK
  5
5F
330
24
100
AcDbEntity
  8
SWEDEN
  6
Continuous
100
AcDbBlockEnd
  0
BLOCK
  5
60
330
25
100
AcDbEntity
  8
BASE
  6
Continuous
100
AcDbBlockBegin
  2
BLC29
 70
     0
 10
0.0
 20
0.0
 30
0.0
  3
BLC29
  1

  0
LINE
  5
61
330
25
100
AcDbEntity
  8
0
  6
Continuous
100
AcDbLine
 10
0.0048653824876794
 20
1.206889041390212
 30
0.0
 11
2.350630894713304
 21
-0.1284646699785696
 31
0.0
  0
LINE
  5
62
330
25
100
AcDbEntity
  8
0
  6
Continuous
100
AcDbLine
 10
2.350630894713304
 20
-0.1284646699785696
 30
0.0
 11
0.0048653824876794
 21
-1.318383818722992
 31
0.0
  0
ENDBLK
  5
63
330
25
100
AcDbEntity
  8
BASE
  6
Continuous
100
AcDbBlockEnd
  0
BLOCK
  5
64
330
26
100
AcDbEntity
  8
1
100
AcDbBlockBegin
  2
WKU130
 70
     0
 10
190.0
 20
250.0
 30
0.0
  3
WKU130
  1

  0
ARC
  5
65
330
26
100
AcDbEntity
  8
21
100
AcDbCircle
 10
191.083333
 20
249.916667
 30
0.0
 40
1.086534
100
AcDbArc
 50
32.47119199999999
 51
175.6012949999999
  0
ARC
  5
66
330
26
100
AcDbEntity
  8
21
100
AcDbCircle
 10
192.9166669999999
 20
251.083333
 30
0.0
 40
1.086534
100
AcDbArc
 50
212.471192
 51
355.6012949999999
  0
ENDBLK
  5
67
330
26
100
AcDbEntity
  8
1
100
AcDbBlockEnd
  0
BLOCK
  5
68
330
27
100
AcDbEntity
  8
0
100
AcDbBlockBegin
  2
*X5
 70
     1
 10
0.0
 20
0.0
 30
0.0
  3
*X5
  1

  0
LINE
  5
69
330
27
100
AcDbEntity
  8
0
 62
     0
100
AcDbLine
 10
2.284498831525768
 20
6.527139518645053
 30
0.0
 11
4.8
 21
9.042640687119284
 31
0.0
  0
LINE
  5
6A
330
27
100
AcDbEntity
  8
0
 62
     0
100
AcDbLine
 10
2.379686282839342
 20
6.799103665255263
 30
0.0
 11
4.8
 21
9.219417382415922
 31
0.0
  0
LINE
  5
6B
330
27
100
AcDbEntity
  8
0
 62
     0
100
AcDbLine
 10
2.474873734152915
 20
7.071067811865474
 30
0.0
 11
4.8
 21
9.396194077712559
 31
0.0
  0
LINE
  5
6C
330
27
100
AcDbEntity
  8
0
 62
     0
100
AcDbLine
 10
2.570061185466489
 20
7.343031958475685
 30
0.0
 11
4.8
 21
9.572970773009195
 31
0.0
  0
LINE
  5
6D
330
27
100
AcDbEntity
  8
0
 62
     0
100
AcDbLine
 10
2.665248636780063
 20
7.614996105085896
 30
0.0
 11
4.8
 21
9.749747468305832
 31
0.0
  0
LINE
  5
6E
330
27
100
AcDbEntity
  8
0
 62
     0
100
AcDbLine
 10
2.760436088093637
 20
7.886960251696106
 30
0.0
 11
4.8
 21
9.926524163602469
 31
0.0
  0
LINE
  5
6F
330
27
100
AcDbEntity
  8
0
 62
     0
100
AcDbLine
 10
2.85562353940721
 20
8.158924398306316
 30
0.0
 11
4.696699141100895
 21
10.0
 31
0.0
  0
LINE
  5
70
330
27
100
AcDbEntity
  8
0
 62
     0
100
AcDbLine
 10
2.950810990720784
 20
8.430888544916527
 30
0.0
 11
4.519922445804257
 21
10.0
 31
0.0
  0
LINE
  5
71
330
27
100
AcDbEntity
  8
0
 62
     0
100
AcDbLine
 10
3.045998442034358
 20
8.702852691526738
 30
0.0
 11
4.343145750507621
 21
10.0
 31
0.0
  0
LINE
  5
72
330
27
100
AcDbEntity
  8
0
 62
     0
100
AcDbLine
 10
3.141185893347932
 20
8.974816838136948
 30
0.0
 11
4.166369055210983
 21
10.0
 31
0.0
  0
LINE
  5
73
330
27
100
AcDbEntity
  8
0
 62
     0
100
AcDbLine
 10
3.236373344661505
 20
9.246780984747159
 30
0.0
 11
3.989592359914347
 21
10.0
 31
0.0
  0
LINE
  5
74
330
27
100
AcDbEntity
  8
0
 62
     0
100
AcDbLine
 10
3.331560795975079
 20
9.51874513135737
 30
0.0
 11
3.81281566461771
 21
10.0
 31
0.0
  0
LINE
  5
75
330
27
100
AcDbEntity
  8
0
 62
     0
100
AcDbLine
 10
3.426748247288653
 20
9.790709277967581
 30
0.0
 11
3.636038969321073
 21
10.0
 31
0.0
  0
LINE
  5
76
330
27
100
AcDbEntity
  8
0
 62
     0
100
AcDbLine
 10
2.189311380212195
 20
6.255175372034843
 30
0.0
 11
4.8
 21
8.865863991822648
 31
0.0
  0
LINE
  5
77
330
27
100
AcDbEntity
  8
0
 62
     0
100
AcDbLine
 10
2.094123928898621
 20
5.983211225424632
 30
0.0
 11
4.8
 21
8.689087296526011
 31
0.0
  0
LINE
  5
78
330
27
100
AcDbEntity
  8
0
 62
     0
100
AcDbLine
 10
1.998936477585047
 20
5.711247078814421
 30
0.0
 11
4.8
 21
8.512310601229374
 31
0.0
  0
LINE
  5
79
330
27
100
AcDbEntity
  8
0
 62
     0
100
AcDbLine
 10
1.903749026271473
 20
5.439282932204211
 30
0.0
 11
4.8
 21
8.335533905932738
 31
0.0
  0
LINE
  5
7A
330
27
100
AcDbEntity
  8
0
 62
     0
100
AcDbLine
 10
1.841242789363899
 20
5.2
 30
0.0
 11
4.8
 21
8.1587572106361
 31
0.0
  0
LINE
  5
7B
330
27
100
AcDbEntity
  8
0
 62
     0
100
AcDbLine
 10
2.018019484660536
 20
5.2
 30
0.0
 11
4.8
 21
7.981980515339463
 31
0.0
  0
LINE
  5
7C
330
27
100
AcDbEntity
  8
0
 62
     0
100
AcDbLine
 10
2.194796179957173
 20
5.2
 30
0.0
 11
4.8
 21
7.805203820042827
 31
0.0
  0
LINE
  5
7D
330
27
100
AcDbEntity
  8
0
 62
     0
100
AcDbLine
 10
2.37157287525381
 20
5.2
 30
0.0
 11
4.8
 21
7.62842712474619
 31
0.0
  0
LINE
  5
7E
330
27
100
AcDbEntity
  8
0
 62
     0
100
AcDbLine
 10
2.548349570550447
 20
5.2
 30
0.0
 11
4.8
 21
7.451650429449553
 31
0.0
  0
LINE
  5
7F
330
27
100
AcDbEntity
  8
0
 62
     0
100
AcDbLine
 10
2.725126265847084
 20
5.2
 30
0.0
 11
4.8
 21
7.274873734152916
 31
0.0
  0
LINE
  5
80
330
27
100
AcDbEntity
  8
0
 62
     0
100
AcDbLine
 10
2.901902961143721
 20
5.2
 30
0.0
 11
4.8
 21
7.098097038856279
 31
0.0
  0
LINE
  5
81
330
27
100
AcDbEntity
  8
0
 62
     0
100
AcDbLine
 10
3.078679656440358
 20
5.2
 30
0.0
 11
4.8
 21
6.921320343559642
 31
0.0
  0
LINE
  5
82
330
27
100
AcDbEntity
  8
0
 62
     0
100
AcDbLine
 10
3.255456351736994
 20
5.2
 30
0.0
 11
4.8
 21
6.744543648263006
 31
0.0
  0
LINE
  5
83
330
27
100
AcDbEntity
  8
0
 62
     0
100
AcDbLine
 10
3.432233047033631
 20
5.2
 30
0.0
 11
4.8
 21
6.567766952966368
 31
0.0
  0
LINE
  5
84
330
27
100
AcDbEntity
  8
0
 62
     0
100
AcDbLine
 10
3.609009742330268
 20
5.2
 30
0.0
 11
4.8
 21
6.390990257669732
 31
0.0
  0
LINE
  5
85
330
27
100
AcDbEntity
  8
0
 62
     0
100
AcDbLine
 10
3.785786437626905
 20
5.2
 30
0.0
 11
4.8
 21
6.214213562373095
 31
0.0
  0
LINE
  5
86
330
27
100
AcDbEntity
  8
0
 62
     0
100
AcDbLine
 10
3.962563132923542
 20
5.2
 30
0.0
 11
4.8
 21
6.037436867076458
 31
0.0
  0
LINE
  5
87
330
27
100
AcDbEntity
  8
0
 62
     0
100
AcDbLine
 10
4.139339828220179
 20
5.2
 30
0.0
 11
4.8
 21
5.860660171779821
 31
0.0
  0
LINE
  5
88
330
27
100
AcDbEntity
  8
0
 62
     0
100
AcDbLine
 10
4.316116523516816
 20
5.2
 30
0.0
 11
4.8
 21
5.683883476483184
 31
0.0
  0
LINE
  5
89
330
27
100
AcDbEntity
  8
0
 62
     0
100
AcDbLine
 10
4.492893218813453
 20
5.2
 30
0.0
 11
4.8
 21
5.507106781186547
 31
0.0
  0
LINE
  5
8A
330
27
100
AcDbEntity
  8
0
 62
     0
100
AcDbLine
 10
4.669669914110089
 20
5.2
 30
0.0
 11
4.8
 21
5.330330085889911
 31
0.0
  0
ENDBLK
  5
8B
330
27
100
AcDbEntity
  8
0
100
AcDbBlockEnd
  0
BLOCK
  5
8C
330
28
100
AcDbEntity
  8
0
100
AcDbBlockBegin
  2
*X6
 70
     1
 10
0.0
 20
0.0
 30
0.0
  3
*X6
  1

  0
LINE
  5
8D
330
28
100
AcDbEntity
  8
0
 62
     0
100
AcDbLine
 10
5.2
 20
6.083883476483183
 30
0.0
 11
7.178252432022877
 21
8.062135908506061
 31
0.0
  0
LINE
  5
8E
330
28
100
AcDbEntity
  8
0
 62
     0
100
AcDbLine
 10
5.2
 20
6.260660171779821
 30
0.0
 11
7.132421436945971
 21
8.19308160872579
 31
0.0
  0
LINE
  5
8F
330
28
100
AcDbEntity
  8
0
 62
     0
100
AcDbLine
 10
5.2
 20
6.437436867076457
 30
0.0
 11
7.086590441869065
 21
8.324027308945522
 31
0.0
  0
LINE
  5
90
330
28
100
AcDbEntity
  8
0
 62
     0
100
AcDbLine
 10
5.2
 20
6.614213562373095
 30
0.0
 11
7.04075944679216
 21
8.454973009165254
 31
0.0
  0
LINE
  5
91
330
28
100
AcDbEntity
  8
0
 62
     0
100
AcDbLine
 10
5.2
 20
6.790990257669731
 30
0.0
 11
6.994928451715254
 21
8.585918709384984
 31
0.0
  0
LINE
  5
92
330
28
100
AcDbEntity
  8
0
 62
     0
100
AcDbLine
 10
5.2
 20
6.967766952966368
 30
0.0
 11
6.949097456638348
 21
8.716864409604715
 31
0.0
  0
LINE
  5
93
330
28
100
AcDbEntity
  8
0
 62
     0
100
AcDbLine
 10
5.2
 20
7.144543648263005
 30
0.0
 11
6.903266461561442
 21
8.847810109824447
 31
0.0
  0
LINE
  5
94
330
28
100
AcDbEntity
  8
0
 62
     0
100
AcDbLine
 10
5.2
 20
7.321320343559642
 30
0.0
 11
6.857435466484536
 21
8.978755810044177
 31
0.0
  0
LINE
  5
95
330
28
100
AcDbEntity
  8
0
 62
     0
100
AcDbLine
 10
5.2
 20
7.498097038856279
 30
0.0
 11
6.81160447140763
 21
9.109701510263908
 31
0.0
  0
LINE
  5
96
330
28
100
AcDbEntity
  8
0
 62
     0
100
AcDbLine
 10
5.2
 20
7.674873734152916
 30
0.0
 11
6.765773476330724
 21
9.24064721048364
 31
0.0
  0
LINE
  5
97
330
28
100
AcDbEntity
  8
0
 62
     0
100
AcDbLine
 10
5.2
 20
7.851650429449552
 30
0.0
 11
6.719942481253818
 21
9.37159291070337
 31
0.0
  0
LINE
  5
98
330
28
100
AcDbEntity
  8
0
 62
     0
100
AcDbLine
 10
5.2
 20
8.028427124746189
 30
0.0
 11
6.674111486176912
 21
9.502538610923101
 31
0.0
  0
LINE
  5
99
330
28
100
AcDbEntity
  8
0
 62
     0
100
AcDbLine
 10
5.2
 20
8.205203820042827
 30
0.0
 11
6.628280491100007
 21
9.633484311142833
 31
0.0
  0
LINE
  5
9A
330
28
100
AcDbEntity
  8
0
 62
     0
100
AcDbLine
 10
5.2
 20
8.381980515339463
 30
0.0
 11
6.582449496023101
 21
9.764430011362563
 31
0.0
  0
LINE
  5
9B
330
28
100
AcDbEntity
  8
0
 62
     0
100
AcDbLine
 10
5.2
 20
8.5587572106361
 30
0.0
 11
6.536618500946195
 21
9.895375711582294
 31
0.0
  0
LINE
  5
9C
330
28
100
AcDbEntity
  8
0
 62
     0
100
AcDbLine
 10
5.2
 20
8.735533905932737
 30
0.0
 11
6.464466094067264
 21
10.0
 31
0.0
  0
LINE
  5
9D
330
28
100
AcDbEntity
  8
0
 62
     0
100
AcDbLine
 10
5.2
 20
8.912310601229373
 30
0.0
 11
6.287689398770627
 21
10.0
 31
0.0
  0
LINE
  5
9E
330
28
100
AcDbEntity
  8
0
 62
     0
100
AcDbLine
 10
5.2
 20
9.089087296526011
 30
0.0
 11
6.11091270347399
 21
10.0
 31
0.0
  0
LINE
  5
9F
330
28
100
AcDbEntity
  8
0
 62
     0
100
AcDbLine
 10
5.2
 20
9.265863991822648
 30
0.0
 11
5.934136008177353
 21
10.0
 31
0.0
  0
LINE
  5
A0
330
28
100
AcDbEntity
  8
0
 62
     0
100
AcDbLine
 10
5.2
 20
9.442640687119284
 30
0.0
 11
5.757359312880716
 21
10.0
 31
0.0
  0
LINE
  5
A1
330
28
100
AcDbEntity
  8
0
 62
     0
100
AcDbLine
 10
5.2
 20
9.619417382415921
 30
0.0
 11
5.580582617584079
 21
10.0
 31
0.0
  0
LINE
  5
A2
330
28
100
AcDbEntity
  8
0
 62
     0
100
AcDbLine
 10
5.2
 20
9.796194077712558
 30
0.0
 11
5.403805922287442
 21
10.0
 31
0.0
  0
LINE
  5
A3
330
28
100
AcDbEntity
  8
0
 62
     0
100
AcDbLine
 10
5.2
 20
9.972970773009194
 30
0.0
 11
5.227029226990805
 21
10.0
 31
0.0
  0
LINE
  5
A4
330
28
100
AcDbEntity
  8
0
 62
     0
100
AcDbLine
 10
5.2
 20
5.907106781186547
 30
0.0
 11
7.224083427099783
 21
7.931190208286329
 31
0.0
  0
LINE
  5
A5
330
28
100
AcDbEntity
  8
0
 62
     0
100
AcDbLine
 10
5.2
 20
5.73033008588991
 30
0.0
 11
7.269914422176689
 21
7.800244508066598
 31
0.0
  0
LINE
  5
A6
330
28
100
AcDbEntity
  8
0
 62
     0
100
AcDbLine
 10
5.2
 20
5.553553390593273
 30
0.0
 11
7.315745417253594
 21
7.669298807846868
 31
0.0
  0
LINE
  5
A7
330
28
100
AcDbEntity
  8
0
 62
     0
100
AcDbLine
 10
5.2
 20
5.376776695296636
 30
0.0
 11
7.3615764123305
 21
7.538353107627136
 31
0.0
  0
LINE
  5
A8
330
28
100
AcDbEntity
  8
0
 62
     0
100
AcDbLine
 10
5.2
 20
5.2
 30
0.0
 11
7.407407407407406
 21
7.407407407407405
 31
0.0
  0
LINE
  5
A9
330
28
100
AcDbEntity
  8
0
 62
     0
100
AcDbLine
 10
5.376776695296637
 20
5.2
 30
0.0
 11
7.453238402484312
 21
7.276461707187674
 31
0.0
  0
LINE
  5
AA
330
28
100
AcDbEntity
  8
0
 62
     0
100
AcDbLine
 10
5.553553390593274
 20
5.2
 30
0.0
 11
7.499069397561219
 21
7.145516006967943
 31
0.0
  0
LINE
  5
AB
330
28
100
AcDbEntity
  8
0
 62
     0
100
AcDbLine
 10
5.730330085889911
 20
5.2
 30
0.0
 11
7.544900392638124
 21
7.014570306748212
 31
0.0
  0
LINE
  5
AC
330
28
100
AcDbEntity
  8
0
 62
     0
100
AcDbLine
 10
5.907106781186548
 20
5.2
 30
0.0
 11
7.59073138771503
 21
6.883624606528481
 31
0.0
  0
LINE
  5
AD
330
28
100
AcDbEntity
  8
0
 62
     0
100
AcDbLine
 10
6.083883476483184
 20
5.2
 30
0.0
 11
7.636562382791936
 21
6.752678906308751
 31
0.0
  0
LINE
  5
AE
330
28
100
AcDbEntity
  8
0
 62
     0
100
AcDbLine
 10
6.260660171779822
 20
5.2
 30
0.0
 11
7.682393377868842
 21
6.621733206089019
 31
0.0
  0
LINE
  5
AF
330
28
100
AcDbEntity
  8
0
 62
     0
100
AcDbLine
 10
6.437436867076458
 20
5.2
 30
0.0
 11
7.728224372945748
 21
6.490787505869288
 31
0.0
  0
LINE
  5
B0
330
28
100
AcDbEntity
  8
0
 62
     0
100
AcDbLine
 10
6.614213562373095
 20
5.2
 30
0.0
 11
7.774055368022653
 21
6.359841805649558
 31
0.0
  0
LINE
  5
B1
330
28
100
AcDbEntity
  8
0
 62
     0
100
AcDbLine
 10
6.790990257669732
 20
5.2
 30
0.0
 11
7.819886363099559
 21
6.228896105429826
 31
0.0
  0
LINE
  5
B2
330
28
100
AcDbEntity
  8
0
 62
     0
100
AcDbLine
 10
6.967766952966369
 20
5.2
 30
0.0
 11
7.865717358176465
 21
6.097950405210095
 31
0.0
  0
LINE
  5
B3
330
28
100
AcDbEntity
  8
0
 62
     0
100
AcDbLine
 10
7.144543648263006
 20
5.2
 30
0.0
 11
7.911548353253371
 21
5.967004704990364
 31
0.0
  0
LINE
  5
B4
330
28
100
AcDbEntity
  8
0
 62
     0
100
AcDbLine
 10
7.321320343559643
 20
5.2
 30
0.0
 11
7.957379348330277
 21
5.836059004770634
 31
0.0
  0
LINE
  5
B5
330
28
100
AcDbEntity
  8
0
 62
     0
100
AcDbLine
 10
7.49809703885628
 20
5.2
 30
0.0
 11
8.003210343407182
 21
5.705113304550902
 31
0.0
  0
LINE
  5
B6
330
28
100
AcDbEntity
  8
0
 62
     0
100
AcDbLine
 10
7.674873734152916
 20
5.2
 30
0.0
 11
8.049041338484089
 21
5.574167604331171
 31
0.0
  0
LINE
  5
B7
330
28
100
AcDbEntity
  8
0
 62
     0
100
AcDbLine
 10
7.851650429449553
 20
5.2
 30
0.0
 11
8.094872333560994
 21
5.443221904111441
 31
0.0
  0
LINE
  5
B8
330
28
100
AcDbEntity
  8
0
 62
     0
100
AcDbLine
 10
8.02842712474619
 20
5.2
 30
0.0
 11
8.140703328637901
 21
5.312276203891709
 31
0.0
  0
ENDBLK
  5
B9
330
28
100
AcDbEntity
  8
0
100
AcDbBlockEnd
  0
BLOCK
  5
BA
330
29
100
AcDbEntity
  8
0
100
AcDbBlockBegin
  2
*X7
 70
     1
 10
0.0
 20
0.0
 30
0.0
  3
*X7
  1

  0
LINE
  5
BB
330
29
100
AcDbEntity
  8
0
 62
     0
100
AcDbLine
 10
0.0
 20
0.0
 30
0.0
 11
4.8
 21
4.799999999999999
 31
0.0
  0
LINE
  5
BC
330
29
100
AcDbEntity
  8
0
 62
     0
100
AcDbLine
 10
0.0951874513135737
 20
0.2719641466102105
 30
0.0
 11
4.623223304703364
 21
4.8
 31
0.0
  0
LINE
  5
BD
330
29
100
AcDbEntity
  8
0
 62
     0
100
AcDbLine
 10
0.1903749026271474
 20
0.5439282932204211
 30
0.0
 11
4.446446609406727
 21
4.8
 31
0.0
  0
LINE
  5
BE
330
29
100
AcDbEntity
  8
0
 62
     0
100
AcDbLine
 10
0.2855623539407211
 20
0.8158924398306318
 30
0.0
 11
4.269669914110091
 21
4.8
 31
0.0
  0
LINE
  5
BF
330
29
100
AcDbEntity
  8
0
 62
     0
100
AcDbLine
 10
0.3807498052542948
 20
1.087856586440842
 30
0.0
 11
4.092893218813453
 21
4.8
 31
0.0
  0
LINE
  5
C0
330
29
100
AcDbEntity
  8
0
 62
     0
100
AcDbLine
 10
0.4759372565678686
 20
1.359820733051052
 30
0.0
 11
3.916116523516816
 21
4.8
 31
0.0
  0
LINE
  5
C1
330
29
100
AcDbEntity
  8
0
 62
     0
100
AcDbLine
 10
0.5711247078814422
 20
1.631784879661263
 30
0.0
 11
3.73933982822018
 21
4.8
 31
0.0
  0
LINE
  5
C2
330
29
100
AcDbEntity
  8
0
 62
     0
100
AcDbLine
 10
0.6663121591950159
 20
1.903749026271474
 30
0.0
 11
3.562563132923543
 21
4.8
 31
0.0
  0
LINE
  5
C3
330
29
100
AcDbEntity
  8
0
 62
     0
100
AcDbLine
 10
0.7614996105085896
 20
2.175713172881684
 30
0.0
 11
3.385786437626906
 21
4.8
 31
0.0
  0
LINE
  5
C4
330
29
100
AcDbEntity
  8
0
 62
     0
100
AcDbLine
 10
0.8566870618221631
 20
2.447677319491895
 30
0.0
 11
3.209009742330269
 21
4.8
 31
0.0
  0
LINE
  5
C5
330
29
100
AcDbEntity
  8
0
 62
     0
100
AcDbLine
 10
0.951874513135737
 20
2.719641466102105
 30
0.0
 11
3.032233047033632
 21
4.8
 31
0.0
  0
LINE
  5
C6
330
29
100
AcDbEntity
  8
0
 62
     0
100
AcDbLine
 10
1.04706196444931
 20
2.991605612712316
 30
0.0
 11
2.855456351736995
 21
4.8
 31
0.0
  0
LINE
  5
C7
330
29
100
AcDbEntity
  8
0
 62
     0
100
AcDbLine
 10
1.142249415762884
 20
3.263569759322527
 30
0.0
 11
2.678679656440358
 21
4.8
 31
0.0
  0
LINE
  5
C8
330
29
100
AcDbEntity
  8
0
 62
     0
100
AcDbLine
 10
1.237436867076458
 20
3.535533905932737
 30
0.0
 11
2.501902961143721
 21
4.8
 31
0.0
  0
LINE
  5
C9
330
29
100
AcDbEntity
  8
0
 62
     0
100
AcDbLine
 10
1.332624318390031
 20
3.807498052542948
 30
0.0
 11
2.325126265847084
 21
4.8
 31
0.0
  0
LINE
  5
CA
330
29
100
AcDbEntity
  8
0
 62
     0
100
AcDbLine
 10
1.427811769703605
 20
4.079462199153158
 30
0.0
 11
2.148349570550447
 21
4.8
 31
0.0
  0
LINE
  5
CB
330
29
100
AcDbEntity
  8
0
 62
     0
100
AcDbLine
 10
1.522999221017179
 20
4.351426345763369
 30
0.0
 11
1.971572875253811
 21
4.8
 31
0.0
  0
LINE
  5
CC
330
29
100
AcDbEntity
  8
0
 62
     0
100
AcDbLine
 10
1.618186672330752
 20
4.623390492373579
 30
0.0
 11
1.794796179957174
 21
4.8
 31
0.0
  0
LINE
  5
CD
330
29
100
AcDbEntity
  8
0
 62
     0
100
AcDbLine
 10
0.1767766952966369
 20
0.0
 30
0.0
 11
4.8
 21
4.623223304703363
 31
0.0
  0
LINE
  5
CE
330
29
100
AcDbEntity
  8
0
 62
     0
100
AcDbLine
 10
0.3535533905932738
 20
0.0
 30
0.0
 11
4.8
 21
4.446446609406725
 31
0.0
  0
LINE
  5
CF
330
29
100
AcDbEntity
  8
0
 62
     0
100
AcDbLine
 10
0.5303300858899107
 20
0.0
 30
0.0
 11
4.8
 21
4.269669914110089
 31
0.0
  0
LINE
  5
D0
330
29
100
AcDbEntity
  8
0
 62
     0
100
AcDbLine
 10
0.7071067811865476
 20
0.0
 30
0.0
 11
4.8
 21
4.092893218813452
 31
0.0
  0
LINE
  5
D1
330
29
100
AcDbEntity
  8
0
 62
     0
100
AcDbLine
 10
0.8838834764831844
 20
0.0
 30
0.0
 11
4.8
 21
3.916116523516815
 31
0.0
  0
LINE
  5
D2
330
29
100
AcDbEntity
  8
0
 62
     0
100
AcDbLine
 10
1.060660171779821
 20
0.0
 30
0.0
 11
4.8
 21
3.739339828220178
 31
0.0
  0
LINE
  5
D3
330
29
100
AcDbEntity
  8
0
 62
     0
100
AcDbLine
 10
1.237436867076458
 20
0.0
 30
0.0
 11
3.17984168695883
 21
1.942404819882371
 31
0.0
  0
LINE
  5
D4
330
29
100
AcDbEntity
  8
0
 62
     0
100
AcDbLine
 10
3.237436867076458
 20
2.0
 30
0.0
 11
4.8
 21
3.562563132923541
 31
0.0
  0
LINE
  5
D5
330
29
100
AcDbEntity
  8
0
 62
     0
100
AcDbLine
 10
1.414213562373095
 20
0.0
 30
0.0
 11
3.084654235645256
 21
1.670440673272161
 31
0.0
  0
LINE
  5
D6
330
29
100
AcDbEntity
  8
0
 62
     0
100
AcDbLine
 10
3.414213562373095
 20
2.0
 30
0.0
 11
4.8
 21
3.385786437626904
 31
0.0
  0
LINE
  5
D7
330
29
100
AcDbEntity
  8
0
 62
     0
100
AcDbLine
 10
1.590990257669732
 20
0.0
 30
0.0
 11
2.989466784331682
 21
1.39847652666195
 31
0.0
  0
LINE
  5
D8
330
29
100
AcDbEntity
  8
0
 62
     0
100
AcDbLine
 10
3.590990257669732
 20
2.0
 30
0.0
 11
4.8
 21
3.209009742330267
 31
0.0
  0
LINE
  5
D9
330
29
100
AcDbEntity
  8
0
 62
     0
100
AcDbLine
 10
1.767766952966368
 20
0.0
 30
0.0
 11
2.894279333018109
 21
1.12651238005174
 31
0.0
  0
LINE
  5
DA
330
29
100
AcDbEntity
  8
0
 62
     0
100
AcDbLine
 10
3.767766952966369
 20
2.0
 30
0.0
 11
4.8
 21
3.032233047033631
 31
0.0
  0
LINE
  5
DB
330
29
100
AcDbEntity
  8
0
 62
     0
100
AcDbLine
 10
1.944543648263005
 20
0.0
 30
0.0
 11
2.799091881704535
 21
0.8545482334415293
 31
0.0
  0
LINE
  5
DC
330
29
100
AcDbEntity
  8
0
 62
     0
100
AcDbLine
 10
3.944543648263006
 20
2.0
 30
0.0
 11
4.8
 21
2.855456351736994
 31
0.0
  0
LINE
  5
DD
330
29
100
AcDbEntity
  8
0
 62
     0
100
AcDbLine
 10
2.121320343559642
 20
0.0
 30
0.0
 11
2.703904430390961
 21
0.5825840868313189
 31
0.0
  0
LINE
  5
DE
330
29
100
AcDbEntity
  8
0
 62
     0
100
AcDbLine
 10
4.121320343559642
 20
2.0
 30
0.0
 11
4.8
 21
2.678679656440357
 31
0.0
  0
LINE
  5
DF
330
29
100
AcDbEntity
  8
0
 62
     0
100
AcDbLine
 10
2.298097038856279
 20
0.0
 30
0.0
 11
2.608716979077388
 21
0.3106199402211083
 31
0.0
  0
LINE
  5
E0
330
29
100
AcDbEntity
  8
0
 62
     0
100
AcDbLine
 10
4.29809703885628
 20
2.0
 30
0.0
 11
4.8
 21
2.50190296114372
 31
0.0
  0
LINE
  5
E1
330
29
100
AcDbEntity
  8
0
 62
     0
100
AcDbLine
 10
2.474873734152916
 20
0.0
 30
0.0
 11
2.513529527763814
 21
0.0386557936108977
 31
0.0
  0
LINE
  5
E2
330
29
100
AcDbEntity
  8
0
 62
     0
100
AcDbLine
 10
4.474873734152916
 20
2.0
 30
0.0
 11
4.8
 21
2.325126265847083
 31
0.0
  0
LINE
  5
E3
330
29
100
AcDbEntity
  8
0
 62
     0
100
AcDbLine
 10
4.651650429449554
 20
2.0
 30
0.0
 11
4.8
 21
2.148349570550446
 31
0.0
  0
ENDBLK
  5
E4
330
29
100
AcDbEntity
  8
0
100
AcDbBlockEnd
  0
BLOCK
  5
E5
330
2A
100
AcDbEntity
  8
0
100
AcDbBlockBegin
  2
*X8
 70
     1
 10
0.0
 20
0.0
 30
0.0
  3
*X8
  1

  0
LINE
  5
E6
330
2A
100
AcDbEntity
  8
0
 62
     0
100
AcDbLine
 10
6.884654412785825
 20
1.758130249183355
 30
0.0
 11
8.736506264637677
 21
3.609982101035206
 31
0.0
  0
LINE
  5
E7
330
2A
100
AcDbEntity
  8
0
 62
     0
100
AcDbLine
 10
6.838823417708919
 20
1.889075949403086
 30
0.0
 11
8.690675269560772
 21
3.740927801254938
 31
0.0
  0
LINE
  5
E8
330
2A
100
AcDbEntity
  8
0
 62
     0
100
AcDbLine
 10
6.772970773009196
 20
2.0
 30
0.0
 11
8.644844274483865
 21
3.871873501474668
 31
0.0
  0
LINE
  5
E9
330
2A
100
AcDbEntity
  8
0
 62
     0
100
AcDbLine
 10
6.596194077712559
 20
2.0
 30
0.0
 11
8.59901327940696
 21
4.0028192016944
 31
0.0
  0
LINE
  5
EA
330
2A
100
AcDbEntity
  8
0
 62
     0
100
AcDbLine
 10
6.419417382415922
 20
2.0
 30
0.0
 11
8.553182284330054
 21
4.133764901914131
 31
0.0
  0
LINE
  5
EB
330
2A
100
AcDbEntity
  8
0
 62
     0
100
AcDbLine
 10
6.242640687119285
 20
2.0
 30
0.0
 11
8.507351289253149
 21
4.264710602133861
 31
0.0
  0
LINE
  5
EC
330
2A
100
AcDbEntity
  8
0
 62
     0
100
AcDbLine
 10
6.065863991822649
 20
2.0
 30
0.0
 11
8.461520294176242
 21
4.395656302353593
 31
0.0
  0
LINE
  5
ED
330
2A
100
AcDbEntity
  8
0
 62
     0
100
AcDbLine
 10
5.889087296526011
 20
2.0
 30
0.0
 11
8.415689299099337
 21
4.526602002573324
 31
0.0
  0
LINE
  5
EE
330
2A
100
AcDbEntity
  8
0
 62
     0
100
AcDbLine
 10
5.712310601229375
 20
2.0
 30
0.0
 11
8.369858304022431
 21
4.657547702793054
 31
0.0
  0
LINE
  5
EF
330
2A
100
AcDbEntity
  8
0
 62
     0
100
AcDbLine
 10
5.535533905932737
 20
2.0
 30
0.0
 11
8.324027308945524
 21
4.788493403012786
 31
0.0
  0
LINE
  5
F0
330
2A
100
AcDbEntity
  8
0
 62
     0
100
AcDbLine
 10
5.358757210636101
 20
2.0
 30
0.0
 11
8.158757210636101
 21
4.8
 31
0.0
  0
LINE
  5
F1
330
2A
100
AcDbEntity
  8
0
 62
     0
100
AcDbLine
 10
5.2
 20
2.018019484660535
 30
0.0
 11
7.981980515339465
 21
4.8
 31
0.0
  0
LINE
  5
F2
330
2A
100
AcDbEntity
  8
0
 62
     0
100
AcDbLine
 10
5.2
 20
2.194796179957172
 30
0.0
 11
7.805203820042828
 21
4.8
 31
0.0
  0
LINE
  5
F3
330
2A
100
AcDbEntity
  8
0
 62
     0
100
AcDbLine
 10
5.2
 20
2.371572875253809
 30
0.0
 11
7.628427124746191
 21
4.8
 31
0.0
  0
LINE
  5
F4
330
2A
100
AcDbEntity
  8
0
 62
     0
100
AcDbLine
 10
5.2
 20
2.548349570550446
 30
0.0
 11
7.451650429449554
 21
4.8
 31
0.0
  0
LINE
  5
F5
330
2A
100
AcDbEntity
  8
0
 62
     0
100
AcDbLine
 10
5.2
 20
2.725126265847083
 30
0.0
 11
7.274873734152918
 21
4.8
 31
0.0
  0
LINE
  5
F6
330
2A
100
AcDbEntity
  8
0
 62
     0
100
AcDbLine
 10
5.2
 20
2.90190296114372
 30
0.0
 11
7.09809703885628
 21
4.8
 31
0.0
  0
LINE
  5
F7
330
2A
100
AcDbEntity
  8
0
 62
     0
100
AcDbLine
 10
5.2
 20
3.078679656440356
 30
0.0
 11
6.921320343559644
 21
4.8
 31
0.0
  0
LINE
  5
F8
330
2A
100
AcDbEntity
  8
0
 62
     0
100
AcDbLine
 10
5.2
 20
3.255456351736993
 30
0.0
 11
6.744543648263007
 21
4.8
 31
0.0
  0
LINE
  5
F9
330
2A
100
AcDbEntity
  8
0
 62
     0
100
AcDbLine
 10
5.2
 20
3.43223304703363
 30
0.0
 11
6.56776695296637
 21
4.8
 31
0.0
  0
LINE
  5
FA
330
2A
100
AcDbEntity
  8
0
 62
     0
100
AcDbLine
 10
5.2
 20
3.609009742330267
 30
0.0
 11
6.390990257669733
 21
4.8
 31
0.0
  0
LINE
  5
FB
330
2A
100
AcDbEntity
  8
0
 62
     0
100
AcDbLine
 10
5.2
 20
3.785786437626904
 30
0.0
 11
6.214213562373096
 21
4.8
 31
0.0
  0
LINE
  5
FC
330
2A
100
AcDbEntity
  8
0
 62
     0
100
AcDbLine
 10
5.2
 20
3.962563132923541
 30
0.0
 11
6.037436867076459
 21
4.8
 31
0.0
  0
LINE
  5
FD
330
2A
100
AcDbEntity
  8
0
 62
     0
100
AcDbLine
 10
5.2
 20
4.139339828220178
 30
0.0
 11
5.860660171779822
 21
4.8
 31
0.0
  0
LINE
  5
FE
330
2A
100
AcDbEntity
  8
0
 62
     0
100
AcDbLine
 10
5.2
 20
4.316116523516814
 30
0.0
 11
5.683883476483186
 21
4.8
 31
0.0
  0
LINE
  5
FF
330
2A
100
AcDbEntity
  8
0
 62
     0
100
AcDbLine
 10
5.2
 20
4.492893218813452
 30
0.0
 11
5.507106781186549
 21
4.8
 31
0.0
  0
LINE
  5
100
330
2A
100
AcDbEntity
  8
0
 62
     0
100
AcDbLine
 10
5.2
 20
4.669669914110088
 30
0.0
 11
5.330330085889912
 21
4.8
 31
0.0
  0
LINE
  5
101
330
2A
100
AcDbEntity
  8
0
 62
     0
100
AcDbLine
 10
6.930485407862731
 20
1.627184548963624
 30
0.0
 11
8.782337259714584
 21
3.479036400815475
 31
0.0
  0
LINE
  5
102
330
2A
100
AcDbEntity
  8
0
 62
     0
100
AcDbLine
 10
6.976316402939636
 20
1.496238848743893
 30
0.0
 11
8.828168254791489
 21
3.348090700595744
 31
0.0
  0
LINE
  5
103
330
2A
100
AcDbEntity
  8
0
 62
     0
100
AcDbLine
 10
7.022147398016543
 20
1.365293148524162
 30
0.0
 11
8.873999249868395
 21
3.217145000376013
 31
0.0
  0
LINE
  5
104
330
2A
100
AcDbEntity
  8
0
 62
     0
100
AcDbLine
 10
7.067978393093449
 20
1.234347448304431
 30
0.0
 11
8.9198302449453
 21
3.086199300156282
 31
0.0
  0
LINE
  5
105
330
2A
100
AcDbEntity
  8
0
 62
     0
100
AcDbLine
 10
7.113809388170355
 20
1.1034017480847
 30
0.0
 11
8.965661240022207
 21
2.955253599936551
 31
0.0
  0
LINE
  5
106
330
2A
100
AcDbEntity
  8
0
 62
     0
100
AcDbLine
 10
7.159640383247261
 20
0.9724560478649696
 30
0.0
 11
9.011492235099112
 21
2.82430789971682
 31
0.0
  0
LINE
  5
107
330
2A
100
AcDbEntity
  8
0
 62
     0
100
AcDbLine
 10
7.205471378324166
 20
0.8415103476452385
 30
0.0
 11
9.057323230176018
 21
2.693362199497089
 31
0.0
  0
LINE
  5
108
330
2A
100
AcDbEntity
  8
0
 62
     0
100
AcDbLine
 10
7.251302373401072
 20
0.7105646474255075
 30
0.0
 11
9.103154225252923
 21
2.562416499277358
 31
0.0
  0
LINE
  5
109
330
2A
100
AcDbEntity
  8
0
 62
     0
100
AcDbLine
 10
7.297133368477978
 20
0.5796189472057765
 30
0.0
 11
9.14898522032983
 21
2.431470799057627
 31
0.0
  0
LINE
  5
10A
330
2A
100
AcDbEntity
  8
0
 62
     0
100
AcDbLine
 10
7.342964363554884
 20
0.4486732469860454
 30
0.0
 11
9.194816215406737
 21
2.300525098837896
 31
0.0
  0
LINE
  5
10B
330
2A
100
AcDbEntity
  8
0
 62
     0
100
AcDbLine
 10
7.38879535863179
 20
0.3177275467663144
 30
0.0
 11
9.240647210483642
 21
2.169579398618165
 31
0.0
  0
LINE
  5
10C
330
2A
100
AcDbEntity
  8
0
 62
     0
100
AcDbLine
 10
7.434626353708695
 20
0.1867818465465834
 30
0.0
 11
9.286478205560548
 21
2.038633698398434
 31
0.0
  0
LINE
  5
10D
330
2A
100
AcDbEntity
  8
0
 62
     0
100
AcDbLine
 10
7.480457348785601
 20
0.0558361463268524
 30
0.0
 11
9.332309200637453
 21
1.907687998178703
 31
0.0
  0
LINE
  5
10E
330
2A
100
AcDbEntity
  8
0
 62
     0
100
AcDbLine
 10
7.601397897755386
 20
0.0
 30
0.0
 11
9.37814019571436
 21
1.776742297958972
 31
0.0
  0
LINE
  5
10F
330
2A
100
AcDbEntity
  8
0
 62
     0
100
AcDbLine
 10
7.778174593052023
 20
0.0
 30
0.0
 11
9.423971190791265
 21
1.645796597739241
 31
0.0
  0
LINE
  5
110
330
2A
100
AcDbEntity
  8
0
 62
     0
100
AcDbLine
 10
7.954951288348659
 20
0.0
 30
0.0
 11
9.469802185868172
 21
1.51485089751951
 31
0.0
  0
LINE
  5
111
330
2A
100
AcDbEntity
  8
0
 62
     0
100
AcDbLine
 10
8.131727983645296
 20
0.0
 30
0.0
 11
9.515633180945076
 21
1.383905197299779
 31
0.0
  0
LINE
  5
112
330
2A
100
AcDbEntity
  8
0
 62
     0
100
AcDbLine
 10
8.308504678941934
 20
0.0
 30
0.0
 11
9.561464176021983
 21
1.252959497080048
 31
0.0
  0
LINE
  5
113
330
2A
100
AcDbEntity
  8
0
 62
     0
100
AcDbLine
 10
8.485281374238571
 20
0.0
 30
0.0
 11
9.607295171098888
 21
1.122013796860317
 31
0.0
  0
LINE
  5
114
330
2A
100
AcDbEntity
  8
0
 62
     0
100
AcDbLine
 10
8.662058069535207
 20
0.0
 30
0.0
 11
9.653126166175795
 21
0.9910680966405861
 31
0.0
  0
LINE
  5
115
330
2A
100
AcDbEntity
  8
0
 62
     0
100
AcDbLine
 10
8.838834764831844
 20
0.0
 30
0.0
 11
9.6989571612527
 21
0.860122396420855
 31
0.0
  0
LINE
  5
116
330
2A
100
AcDbEntity
  8
0
 62
     0
100
AcDbLine
 10
9.01561146012848
 20
0.0
 30
0.0
 11
9.744788156329606
 21
0.7291766962011242
 31
0.0
  0
LINE
  5
117
330
2A
100
AcDbEntity
  8
0
 62
     0
100
AcDbLine
 10
9.192388155425119
 20
0.0
 30
0.0
 11
9.790619151406511
 21
0.5982309959813931
 31
0.0
  0
LINE
  5
118
330
2A
100
AcDbEntity
  8
0
 62
     0
100
AcDbLine
 10
9.369164850721755
 20
0.0
 30
0.0
 11
9.836450146483418
 21
0.467285295761662
 31
0.0
  0
LINE
  5
119
330
2A
100
AcDbEntity
  8
0
 62
     0
100
AcDbLine
 10
9.545941546018392
 20
0.0
 30
0.0
 11
9.882281141560325
 21
0.336339595541931
 31
0.0
  0
LINE
  5
11A
330
2A
100
AcDbEntity
  8
0
 62
     0
100
AcDbLine
 10
9.722718241315028
 20
0.0
 30
0.0
 11
9.92811213663723
 21
0.2053938953222
 31
0.0
  0
LINE
  5
11B
330
2A
100
AcDbEntity
  8
0
 62
     0
100
AcDbLine
 10
9.899494936611665
 20
0.0
 30
0.0
 11
9.973943131714136
 21
0.0744481951024689
 31
0.0
  0
ENDBLK
  5
11C
330
2A
100
AcDbEntity
  8
0
100
AcDbBlockEnd
  0
BLOCK
  5
11D
330
2B
100
AcDbEntity
  8
0
100
AcDbBlockBegin
  2
*X9
 70
     1
 10
0.0
 20
0.0
 30
0.0
  3
*X9
  1

  0
LINE
  5
11E
330
2B
100
AcDbEntity
  8
0
 62
     0
100
AcDbLine
 10
10.7
 20
6.280582617584078
 30
0.0
 11
13.5
 21
9.080582617584076
 31
0.0
  0
LINE
  5
11F
330
2B
100
AcDbEntity
  8
0
 62
     0
100
AcDbLine
 10
10.7
 20
6.457359312880715
 30
0.0
 11
13.5
 21
9.257359312880712
 31
0.0
  0
LINE
  5
120
330
2B
100
AcDbEntity
  8
0
 62
     0
100
AcDbLine
 10
10.7
 20
6.634136008177351
 30
0.0
 11
13.5
 21
9.43413600817735
 31
0.0
  0
LINE
  5
121
330
2B
100
AcDbEntity
  8
0
 62
     0
100
AcDbLine
 10
10.7
 20
6.810912703473989
 30
0.0
 11
13.5
 21
9.610912703473987
 31
0.0
  0
LINE
  5
122
330
2B
100
AcDbEntity
  8
0
 62
     0
100
AcDbLine
 10
10.7
 20
6.987689398770625
 30
0.0
 11
13.5
 21
9.787689398770623
 31
0.0
  0
LINE
  5
123
330
2B
100
AcDbEntity
  8
0
 62
     0
100
AcDbLine
 10
10.7
 20
7.164466094067263
 30
0.0
 11
13.5
 21
9.96446609406726
 31
0.0
  0
LINE
  5
124
330
2B
100
AcDbEntity
  8
0
 62
     0
100
AcDbLine
 10
10.7
 20
7.341242789363899
 30
0.0
 11
13.3587572106361
 21
10.0
 31
0.0
  0
LINE
  5
125
330
2B
100
AcDbEntity
  8
0
 62
     0
100
AcDbLine
 10
10.7
 20
7.518019484660536
 30
0.0
 11
13.18198051533946
 21
10.0
 31
0.0
  0
LINE
  5
126
330
2B
100
AcDbEntity
  8
0
 62
     0
100
AcDbLine
 10
10.7
 20
7.694796179957173
 30
0.0
 11
13.00520382004282
 21
10.0
 31
0.0
  0
LINE
  5
127
330
2B
100
AcDbEntity
  8
0
 62
     0
100
AcDbLine
 10
10.7
 20
7.87157287525381
 30
0.0
 11
12.82842712474619
 21
10.0
 31
0.0
  0
LINE
  5
128
330
2B
100
AcDbEntity
  8
0
 62
     0
100
AcDbLine
 10
10.7
 20
8.048349570550447
 30
0.0
 11
12.65165042944955
 21
10.0
 31
0.0
  0
LINE
  5
129
330
2B
100
AcDbEntity
  8
0
 62
     0
100
AcDbLine
 10
10.7
 20
8.225126265847084
 30
0.0
 11
12.47487373415292
 21
10.0
 31
0.0
  0
LINE
  5
12A
330
2B
100
AcDbEntity
  8
0
 62
     0
100
AcDbLine
 10
10.7
 20
8.40190296114372
 30
0.0
 11
12.29809703885628
 21
10.0
 31
0.0
  0
LINE
  5
12B
330
2B
100
AcDbEntity
  8
0
 62
     0
100
AcDbLine
 10
10.7
 20
8.578679656440357
 30
0.0
 11
12.12132034355964
 21
10.0
 31
0.0
  0
LINE
  5
12C
330
2B
100
AcDbEntity
  8
0
 62
     0
100
AcDbLine
 10
10.7
 20
8.755456351736995
 30
0.0
 11
11.944543648263
 21
10.0
 31
0.0
  0
LINE
  5
12D
330
2B
100
AcDbEntity
  8
0
 62
     0
100
AcDbLine
 10
10.7
 20
8.932233047033632
 30
0.0
 11
11.76776695296637
 21
10.0
 31
0.0
  0
LINE
  5
12E
330
2B
100
AcDbEntity
  8
0
 62
     0
100
AcDbLine
 10
10.7
 20
9.109009742330268
 30
0.0
 11
11.59099025766973
 21
10.0
 31
0.0
  0
LINE
  5
12F
330
2B
100
AcDbEntity
  8
0
 62
     0
100
AcDbLine
 10
10.7
 20
9.285786437626905
 30
0.0
 11
11.41421356237309
 21
10.0
 31
0.0
  0
LINE
  5
130
330
2B
100
AcDbEntity
  8
0
 62
     0
100
AcDbLine
 10
10.7
 20
9.462563132923541
 30
0.0
 11
11.23743686707646
 21
10.0
 31
0.0
  0
LINE
  5
131
330
2B
100
AcDbEntity
  8
0
 62
     0
100
AcDbLine
 10
10.7
 20
9.63933982822018
 30
0.0
 11
11.06066017177982
 21
10.0
 31
0.0
  0
LINE
  5
132
330
2B
100
AcDbEntity
  8
0
 62
     0
100
AcDbLine
 10
10.7
 20
9.816116523516816
 30
0.0
 11
10.88388347648318
 21
10.0
 31
0.0
  0
LINE
  5
133
330
2B
100
AcDbEntity
  8
0
 62
     0
100
AcDbLine
 10
10.7
 20
9.992893218813453
 30
0.0
 11
10.70710678118655
 21
10.0
 31
0.0
  0
LINE
  5
134
330
2B
100
AcDbEntity
  8
0
 62
     0
100
AcDbLine
 10
10.7
 20
6.103805922287441
 30
0.0
 11
13.5
 21
8.903805922287439
 31
0.0
  0
LINE
  5
135
330
2B
100
AcDbEntity
  8
0
 62
     0
100
AcDbLine
 10
10.7
 20
5.927029226990804
 30
0.0
 11
13.5
 21
8.727029226990802
 31
0.0
  0
LINE
  5
136
330
2B
100
AcDbEntity
  8
0
 62
     0
100
AcDbLine
 10
10.7
 20
5.750252531694168
 30
0.0
 11
13.5
 21
8.550252531694166
 31
0.0
  0
LINE
  5
137
330
2B
100
AcDbEntity
  8
0
 62
     0
100
AcDbLine
 10
10.7
 20
5.57347583639753
 30
0.0
 11
13.5
 21
8.373475836397528
 31
0.0
  0
LINE
  5
138
330
2B
100
AcDbEntity
  8
0
 62
     0
100
AcDbLine
 10
10.7
 20
5.396699141100894
 30
0.0
 11
13.5
 21
8.196699141100891
 31
0.0
  0
LINE
  5
139
330
2B
100
AcDbEntity
  8
0
 62
     0
100
AcDbLine
 10
10.7
 20
5.219922445804257
 30
0.0
 11
13.5
 21
8.019922445804255
 31
0.0
  0
LINE
  5
13A
330
2B
100
AcDbEntity
  8
0
 62
     0
100
AcDbLine
 10
10.85685424949238
 20
5.2
 30
0.0
 11
13.5
 21
7.843145750507618
 31
0.0
  0
LINE
  5
13B
330
2B
100
AcDbEntity
  8
0
 62
     0
100
AcDbLine
 10
11.03363094478901
 20
5.2
 30
0.0
 11
13.5
 21
7.666369055210981
 31
0.0
  0
LINE
  5
13C
330
2B
100
AcDbEntity
  8
0
 62
     0
100
AcDbLine
 10
11.21040764008565
 20
5.2
 30
0.0
 11
13.5
 21
7.489592359914344
 31
0.0
  0
LINE
  5
13D
330
2B
100
AcDbEntity
  8
0
 62
     0
100
AcDbLine
 10
11.38718433538229
 20
5.2
 30
0.0
 11
13.5
 21
7.312815664617708
 31
0.0
  0
LINE
  5
13E
330
2B
100
AcDbEntity
  8
0
 62
     0
100
AcDbLine
 10
11.56396103067893
 20
5.2
 30
0.0
 11
13.5
 21
7.13603896932107
 31
0.0
  0
LINE
  5
13F
330
2B
100
AcDbEntity
  8
0
 62
     0
100
AcDbLine
 10
11.74073772597556
 20
5.2
 30
0.0
 11
13.5
 21
6.959262274024434
 31
0.0
  0
LINE
  5
140
330
2B
100
AcDbEntity
  8
0
 62
     0
100
AcDbLine
 10
11.9175144212722
 20
5.2
 30
0.0
 11
13.5
 21
6.782485578727796
 31
0.0
  0
LINE
  5
141
330
2B
100
AcDbEntity
  8
0
 62
     0
100
AcDbLine
 10
12.09429111656884
 20
5.2
 30
0.0
 11
13.5
 21
6.60570888343116
 31
0.0
  0
LINE
  5
142
330
2B
100
AcDbEntity
  8
0
 62
     0
100
AcDbLine
 10
12.27106781186547
 20
5.2
 30
0.0
 11
13.5
 21
6.428932188134523
 31
0.0
  0
LINE
  5
143
330
2B
100
AcDbEntity
  8
0
 62
     0
100
AcDbLine
 10
12.44784450716211
 20
5.2
 30
0.0
 11
13.5
 21
6.252155492837886
 31
0.0
  0
LINE
  5
144
330
2B
100
AcDbEntity
  8
0
 62
     0
100
AcDbLine
 10
12.62462120245875
 20
5.2
 30
0.0
 11
13.5
 21
6.075378797541249
 31
0.0
  0
LINE
  5
145
330
2B
100
AcDbEntity
  8
0
 62
     0
100
AcDbLine
 10
12.80139789775538
 20
5.2
 30
0.0
 11
13.5
 21
5.898602102244612
 31
0.0
  0
LINE
  5
146
330
2B
100
AcDbEntity
  8
0
 62
     0
100
AcDbLine
 10
12.97817459305202
 20
5.2
 30
0.0
 11
13.5
 21
5.721825406947975
 31
0.0
  0
LINE
  5
147
330
2B
100
AcDbEntity
  8
0
 62
     0
100
AcDbLine
 10
13.15495128834866
 20
5.2
 30
0.0
 11
13.5
 21
5.545048711651339
 31
0.0
  0
LINE
  5
148
330
2B
100
AcDbEntity
  8
0
 62
     0
100
AcDbLine
 10
13.3317279836453
 20
5.2
 30
0.0
 11
13.5
 21
5.368272016354701
 31
0.0
  0
ENDBLK
  5
149
330
2B
100
AcDbEntity
  8
0
100
AcDbBlockEnd
  0
BLOCK
  5
14A
330
2C
100
AcDbEntity
  8
0
100
AcDbBlockBegin
  2
*X10
 70
     1
 10
0.0
 20
0.0
 30
0.0
  3
*X10
  1

  0
LINE
  5
14B
330
2C
100
AcDbEntity
  8
0
 62
     0
100
AcDbLine
 10
10.7
 20
1.154058453981608
 30
0.0
 11
13.5
 21
3.954058453981607
 31
0.0
  0
LINE
  5
14C
330
2C
100
AcDbEntity
  8
0
 62
     0
100
AcDbLine
 10
10.7
 20
1.330835149278245
 30
0.0
 11
13.5
 21
4.130835149278244
 31
0.0
  0
LINE
  5
14D
330
2C
100
AcDbEntity
  8
0
 62
     0
100
AcDbLine
 10
10.7
 20
1.507611844574882
 30
0.0
 11
13.5
 21
4.30761184457488
 31
0.0
  0
LINE
  5
14E
330
2C
100
AcDbEntity
  8
0
 62
     0
100
AcDbLine
 10
10.7
 20
1.684388539871519
 30
0.0
 11
13.5
 21
4.484388539871518
 31
0.0
  0
LINE
  5
14F
330
2C
100
AcDbEntity
  8
0
 62
     0
100
AcDbLine
 10
10.7
 20
1.861165235168155
 30
0.0
 11
13.5
 21
4.661165235168154
 31
0.0
  0
LINE
  5
150
330
2C
100
AcDbEntity
  8
0
 62
     0
100
AcDbLine
 10
10.7
 20
2.037941930464792
 30
0.0
 11
13.46205806953521
 21
4.800000000000001
 31
0.0
  0
LINE
  5
151
330
2C
100
AcDbEntity
  8
0
 62
     0
100
AcDbLine
 10
10.7
 20
2.214718625761429
 30
0.0
 11
13.28528137423857
 21
4.800000000000001
 31
0.0
  0
LINE
  5
152
330
2C
100
AcDbEntity
  8
0
 62
     0
100
AcDbLine
 10
10.7
 20
2.391495321058066
 30
0.0
 11
13.10850467894193
 21
4.800000000000001
 31
0.0
  0
LINE
  5
153
330
2C
100
AcDbEntity
  8
0
 62
     0
100
AcDbLine
 10
10.7
 20
2.568272016354703
 30
0.0
 11
12.9317279836453
 21
4.800000000000001
 31
0.0
  0
LINE
  5
154
330
2C
100
AcDbEntity
  8
0
 62
     0
100
AcDbLine
 10
10.7
 20
2.74504871165134
 30
0.0
 11
12.75495128834866
 21
4.800000000000001
 31
0.0
  0
LINE
  5
155
330
2C
100
AcDbEntity
  8
0
 62
     0
100
AcDbLine
 10
10.7
 20
2.921825406947977
 30
0.0
 11
12.57817459305202
 21
4.800000000000001
 31
0.0
  0
LINE
  5
156
330
2C
100
AcDbEntity
  8
0
 62
     0
100
AcDbLine
 10
10.7
 20
3.098602102244614
 30
0.0
 11
12.40139789775539
 21
4.800000000000001
 31
0.0
  0
LINE
  5
157
330
2C
100
AcDbEntity
  8
0
 62
     0
100
AcDbLine
 10
10.7
 20
3.275378797541251
 30
0.0
 11
12.22462120245875
 21
4.800000000000001
 31
0.0
  0
LINE
  5
158
330
2C
100
AcDbEntity
  8
0
 62
     0
100
AcDbLine
 10
10.7
 20
3.452155492837887
 30
0.0
 11
12.04784450716211
 21
4.800000000000001
 31
0.0
  0
LINE
  5
159
330
2C
100
AcDbEntity
  8
0
 62
     0
100
AcDbLine
 10
10.7
 20
3.628932188134524
 30
0.0
 11
11.87106781186547
 21
4.800000000000001
 31
0.0
  0
LINE
  5
15A
330
2C
100
AcDbEntity
  8
0
 62
     0
100
AcDbLine
 10
10.7
 20
3.805708883431161
 30
0.0
 11
11.69429111656884
 21
4.800000000000001
 31
0.0
  0
LINE
  5
15B
330
2C
100
AcDbEntity
  8
0
 62
     0
100
AcDbLine
 10
10.7
 20
3.982485578727798
 30
0.0
 11
11.5175144212722
 21
4.800000000000001
 31
0.0
  0
LINE
  5
15C
330
2C
100
AcDbEntity
  8
0
 62
     0
100
AcDbLine
 10
10.7
 20
4.159262274024435
 30
0.0
 11
11.34073772597556
 21
4.800000000000001
 31
0.0
  0
LINE
  5
15D
330
2C
100
AcDbEntity
  8
0
 62
     0
100
AcDbLine
 10
10.7
 20
4.336038969321072
 30
0.0
 11
11.16396103067893
 21
4.800000000000001
 31
0.0
  0
LINE
  5
15E
330
2C
100
AcDbEntity
  8
0
 62
     0
100
AcDbLine
 10
10.7
 20
4.512815664617709
 30
0.0
 11
10.98718433538229
 21
4.800000000000001
 31
0.0
  0
LINE
  5
15F
330
2C
100
AcDbEntity
  8
0
 62
     0
100
AcDbLine
 10
10.7
 20
4.689592359914345
 30
0.0
 11
10.81040764008565
 21
4.800000000000001
 31
0.0
  0
LINE
  5
160
330
2C
100
AcDbEntity
  8
0
 62
     0
100
AcDbLine
 10
10.7
 20
0.9772817586849718
 30
0.0
 11
13.5
 21
3.77728175868497
 31
0.0
  0
LINE
  5
161
330
2C
100
AcDbEntity
  8
0
 62
     0
100
AcDbLine
 10
10.7
 20
0.800505063388335
 30
0.0
 11
13.5
 21
3.600505063388333
 31
0.0
  0
LINE
  5
162
330
2C
100
AcDbEntity
  8
0
 62
     0
100
AcDbLine
 10
10.7
 20
0.6237283680916982
 30
0.0
 11
13.5
 21
3.423728368091696
 31
0.0
  0
LINE
  5
163
330
2C
100
AcDbEntity
  8
0
 62
     0
100
AcDbLine
 10
10.7
 20
0.4469516727950612
 30
0.0
 11
13.5
 21
3.246951672795059
 31
0.0
  0
LINE
  5
164
330
2C
100
AcDbEntity
  8
0
 62
     0
100
AcDbLine
 10
10.7
 20
0.2701749774984243
 30
0.0
 11
13.5
 21
3.070174977498422
 31
0.0
  0
LINE
  5
165
330
2C
100
AcDbEntity
  8
0
 62
     0
100
AcDbLine
 10
10.7
 20
0.0933982822017875
 30
0.0
 11
13.5
 21
2.893398282201785
 31
0.0
  0
LINE
  5
166
330
2C
100
AcDbEntity
  8
0
 62
     0
100
AcDbLine
 10
10.78337841309485
 20
0.0
 30
0.0
 11
13.5
 21
2.716621586905149
 31
0.0
  0
LINE
  5
167
330
2C
100
AcDbEntity
  8
0
 62
     0
100
AcDbLine
 10
10.96015510839148
 20
0.0
 30
0.0
 11
13.5
 21
2.539844891608512
 31
0.0
  0
LINE
  5
168
330
2C
100
AcDbEntity
  8
0
 62
     0
100
AcDbLine
 10
11.13693180368812
 20
0.0
 30
0.0
 11
13.5
 21
2.363068196311875
 31
0.0
  0
LINE
  5
169
330
2C
100
AcDbEntity
  8
0
 62
     0
100
AcDbLine
 10
11.31370849898476
 20
0.0
 30
0.0
 11
13.5
 21
2.186291501015238
 31
0.0
  0
LINE
  5
16A
330
2C
100
AcDbEntity
  8
0
 62
     0
100
AcDbLine
 10
11.49048519428139
 20
0.0
 30
0.0
 11
13.5
 21
2.009514805718601
 31
0.0
  0
LINE
  5
16B
330
2C
100
AcDbEntity
  8
0
 62
     0
100
AcDbLine
 10
11.66726188957803
 20
0.0
 30
0.0
 11
13.5
 21
1.832738110421964
 31
0.0
  0
LINE
  5
16C
330
2C
100
AcDbEntity
  8
0
 62
     0
100
AcDbLine
 10
11.84403858487467
 20
0.0
 30
0.0
 11
13.5
 21
1.655961415125327
 31
0.0
  0
LINE
  5
16D
330
2C
100
AcDbEntity
  8
0
 62
     0
100
AcDbLine
 10
12.02081528017131
 20
0.0
 30
0.0
 11
13.5
 21
1.479184719828691
 31
0.0
  0
LINE
  5
16E
330
2C
100
AcDbEntity
  8
0
 62
     0
100
AcDbLine
 10
12.19759197546794
 20
0.0
 30
0.0
 11
13.5
 21
1.302408024532054
 31
0.0
  0
LINE
  5
16F
330
2C
100
AcDbEntity
  8
0
 62
     0
100
AcDbLine
 10
12.37436867076458
 20
0.0
 30
0.0
 11
13.5
 21
1.125631329235417
 31
0.0
  0
LINE
  5
170
330
2C
100
AcDbEntity
  8
0
 62
     0
100
AcDbLine
 10
12.55114536606122
 20
0.0
 30
0.0
 11
13.5
 21
0.9488546339387806
 31
0.0
  0
LINE
  5
171
330
2C
100
AcDbEntity
  8
0
 62
     0
100
AcDbLine
 10
12.72792206135785
 20
0.0
 30
0.0
 11
13.5
 21
0.7720779386421438
 31
0.0
  0
LINE
  5
172
330
2C
100
AcDbEntity
  8
0
 62
     0
100
AcDbLine
 10
12.90469875665449
 20
0.0
 30
0.0
 11
13.5
 21
0.5953012433455069
 31
0.0
  0
LINE
  5
173
330
2C
100
AcDbEntity
  8
0
 62
     0
100
AcDbLine
 10
13.08147545195113
 20
0.0
 30
0.0
 11
13.5
 21
0.4185245480488699
 31
0.0
  0
LINE
  5
174
330
2C
100
AcDbEntity
  8
0
 62
     0
100
AcDbLine
 10
13.25825214724776
 20
0.0
 30
0.0
 11
13.5
 21
0.2417478527522331
 31
0.0
  0
LINE
  5
175
330
2C
100
AcDbEntity
  8
0
 62
     0
100
AcDbLine
 10
13.4350288425444
 20
0.0
 30
0.0
 11
13.5
 21
0.0649711574555962
 31
0.0
  0
ENDBLK
  5
176
330
2C
100
AcDbEntity
  8
0
100
AcDbBlockEnd
  0
BLOCK
  5
177
330
2D
100
AcDbEntity
  8
0
100
AcDbBlockBegin
  2
*X11
 70
     1
 10
0.0
 20
0.0
 30
0.0
  3
*X11
  1

  0
LINE
  5
178
330
2D
100
AcDbEntity
  8
0
 62
     0
100
AcDbLine
 10
13.9
 20
6.298602102244612
 30
0.0
 11
16.58299474438346
 21
8.981596846628077
 31
0.0
  0
LINE
  5
179
330
2D
100
AcDbEntity
  8
0
 62
     0
100
AcDbLine
 10
13.9
 20
6.47537879754125
 30
0.0
 11
16.51050279500106
 21
9.085881592542312
 31
0.0
  0
LINE
  5
17A
330
2D
100
AcDbEntity
  8
0
 62
     0
100
AcDbLine
 10
13.9
 20
6.652155492837886
 30
0.0
 11
16.43292735533684
 21
9.185082848174726
 31
0.0
  0
LINE
  5
17B
330
2D
100
AcDbEntity
  8
0
 62
     0
100
AcDbLine
 10
13.9
 20
6.828932188134523
 30
0.0
 11
16.35037215123712
 21
9.279304339371643
 31
0.0
  0
LINE
  5
17C
330
2D
100
AcDbEntity
  8
0
 62
     0
100
AcDbLine
 10
13.9
 20
7.00570888343116
 30
0.0
 11
16.26289196487371
 21
9.368600848304868
 31
0.0
  0
LINE
  5
17D
330
2D
100
AcDbEntity
  8
0
 62
     0
100
AcDbLine
 10
13.9
 20
7.182485578727797
 30
0.0
 11
16.17049525263323
 21
9.452980831361033
 31
0.0
  0
LINE
  5
17E
330
2D
100
AcDbEntity
  8
0
 62
     0
100
AcDbLine
 10
13.9
 20
7.359262274024434
 30
0.0
 11
16.07314454342055
 21
9.532406817444991
 31
0.0
  0
LINE
  5
17F
330
2D
100
AcDbEntity
  8
0
 62
     0
100
AcDbLine
 10
13.9
 20
7.53603896932107
 30
0.0
 11
15.97075466195056
 21
9.606793631271633
 31
0.0
  0
LINE
  5
180
330
2D
100
AcDbEntity
  8
0
 62
     0
100
AcDbLine
 10
13.9
 20
7.712815664617708
 30
0.0
 11
15.86318857628903
 21
9.67600424090674
 31
0.0
  0
LINE
  5
181
330
2D
100
AcDbEntity
  8
0
 62
     0
100
AcDbLine
 10
13.9
 20
7.889592359914344
 30
0.0
 11
15.75025038159864
 21
9.739842741512989
 31
0.0
  0
LINE
  5
182
330
2D
100
AcDbEntity
  8
0
 62
     0
100
AcDbLine
 10
13.9
 20
8.066369055210982
 30
0.0
 11
15.63167453725327
 21
9.798043592464253
 31
0.0
  0
LINE
  5
183
330
2D
100
AcDbEntity
  8
0
 62
     0
100
AcDbLine
 10
13.9
 20
8.243145750507618
 30
0.0
 11
15.50710986763958
 21
9.850255618147199
 31
0.0
  0
LINE
  5
184
330
2D
100
AcDbEntity
  8
0
 62
     0
100
AcDbLine
 10
13.9
 20
8.419922445804255
 30
0.0
 11
15.37609582797506
 21
9.896018273779313
 31
0.0
  0
LINE
  5
185
330
2D
100
AcDbEntity
  8
0
 62
     0
100
AcDbLine
 10
13.9
 20
8.596699141100891
 30
0.0
 11
15.23802674945604
 21
9.934725890556936
 31
0.0
  0
LINE
  5
186
330
2D
100
AcDbEntity
  8
0
 62
     0
100
AcDbLine
 10
13.9
 20
8.773475836397528
 30
0.0
 11
15.09209641503479
 21
9.965572251432316
 31
0.0
  0
LINE
  5
187
330
2D
100
AcDbEntity
  8
0
 62
     0
100
AcDbLine
 10
13.9
 20
8.950252531694166
 30
0.0
 11
14.93720855236614
 21
9.987461084060305
 31
0.0
  0
LINE
  5
188
330
2D
100
AcDbEntity
  8
0
 62
     0
100
AcDbLine
 10
13.9
 20
9.127029226990803
 30
0.0
 11
14.77182410265905
 21
9.998853329649859
 31
0.0
  0
LINE
  5
189
330
2D
100
AcDbEntity
  8
0
 62
     0
100
AcDbLine
 10
13.9
 20
9.303805922287439
 30
0.0
 11
14.59619325557977
 21
9.999999177867216
 31
0.0
  0
LINE
  5
18A
330
2D
100
AcDbEntity
  8
0
 62
     0
100
AcDbLine
 10
13.9
 20
9.480582617584076
 30
0.0
 11
14.41941676903803
 21
9.999999386622105
 31
0.0
  0
LINE
  5
18B
330
2D
100
AcDbEntity
  8
0
 62
     0
100
AcDbLine
 10
13.9
 20
9.657359312880712
 30
0.0
 11
14.24264028249628
 21
9.999999595376992
 31
0.0
  0
LINE
  5
18C
330
2D
100
AcDbEntity
  8
0
 62
     0
100
AcDbLine
 10
13.9
 20
9.834136008177351
 30
0.0
 11
14.06586379595453
 21
9.99999980413188
 31
0.0
  0
LINE
  5
18D
330
2D
100
AcDbEntity
  8
0
 62
     0
100
AcDbLine
 10
13.9
 20
6.121825406947976
 30
0.0
 11
16.65024539739187
 21
8.872070804339848
 31
0.0
  0
LINE
  5
18E
330
2D
100
AcDbEntity
  8
0
 62
     0
100
AcDbLine
 10
13.9
 20
5.945048711651339
 30
0.0
 11
16.71203459532913
 21
8.75708330698047
 31
0.0
  0
LINE
  5
18F
330
2D
100
AcDbEntity
  8
0
 62
     0
100
AcDbLine
 10
13.9
 20
5.768272016354702
 30
0.0
 11
16.76806734382514
 21
8.636339360179849
 31
0.0
  0
LINE
  5
190
330
2D
100
AcDbEntity
  8
0
 62
     0
100
AcDbLine
 10
13.9
 20
5.591495321058065
 30
0.0
 11
16.81795531761595
 21
8.509450638674019
 31
0.0
  0
LINE
  5
191
330
2D
100
AcDbEntity
  8
0
 62
     0
100
AcDbLine
 10
13.9
 20
5.414718625761429
 30
0.0
 11
16.86118931399924
 21
8.375907939760674
 31
0.0
  0
LINE
  5
192
330
2D
100
AcDbEntity
  8
0
 62
     0
100
AcDbLine
 10
13.9
 20
5.237941930464791
 30
0.0
 11
16.89709737442627
 21
8.235039304891063
 31
0.0
  0
LINE
  5
193
330
2D
100
AcDbEntity
  8
0
 62
     0
100
AcDbLine
 10
14.03883476483184
 20
5.2
 30
0.0
 11
16.92477897501023
 21
8.085944210178388
 31
0.0
  0
LINE
  5
194
330
2D
100
AcDbEntity
  8
0
 62
     0
100
AcDbLine
 10
14.21561146012848
 20
5.2
 30
0.0
 11
16.94299675793814
 21
7.927385297809664
 31
0.0
  0
LINE
  5
195
330
2D
100
AcDbEntity
  8
0
 62
     0
100
AcDbLine
 10
14.39238815542512
 20
5.2
 30
0.0
 11
16.9499871677438
 21
7.757599012318679
 31
0.0
  0
LINE
  5
196
330
2D
100
AcDbEntity
  8
0
 62
     0
100
AcDbLine
 10
14.56916485072175
 20
5.2
 30
0.0
 11
16.94310086073496
 21
7.573936010013212
 31
0.0
  0
LINE
  5
197
330
2D
100
AcDbEntity
  8
0
 62
     0
100
AcDbLine
 10
14.74594154601839
 20
5.2
 30
0.0
 11
16.91803700563266
 21
7.372095459614269
 31
0.0
  0
LINE
  5
198
330
2D
100
AcDbEntity
  8
0
 62
     0
100
AcDbLine
 10
14.92271824131503
 20
5.2
 30
0.0
 11
16.86690917579153
 21
7.144190934476499
 31
0.0
  0
LINE
  5
199
330
2D
100
AcDbEntity
  8
0
 62
     0
100
AcDbLine
 10
15.09949493661166
 20
5.2
 30
0.0
 11
16.77171472429693
 21
6.872219787685267
 31
0.0
  0
LINE
  5
19A
330
2D
100
AcDbEntity
  8
0
 62
     0
100
AcDbLine
 10
15.2762716319083
 20
5.2
 30
0.0
 11
15.84795125284192
 21
5.771679620933618
 31
0.0
  0
LINE
  5
19B
330
2D
100
AcDbEntity
  8
0
 62
     0
100
AcDbLine
 10
15.96672997781769
 20
5.89045834590939
 30
0.0
 11
16.55954165409061
 21
6.483270022182311
 31
0.0
  0
LINE
  5
19C
330
2D
100
AcDbEntity
  8
0
 62
     0
100
AcDbLine
 10
15.45304832720494
 20
5.2
 30
0.0
 11
15.97066124869689
 21
5.717612921491952
 31
0.0
  0
LINE
  5
19D
330
2D
100
AcDbEntity
  8
0
 62
     0
100
AcDbLine
 10
15.62982502250157
 20
5.2
 30
0.0
 11
16.08893422102424
 21
5.659109198522661
 31
0.0
  0
LINE
  5
19E
330
2D
100
AcDbEntity
  8
0
 62
     0
100
AcDbLine
 10
15.80660171779821
 20
5.2
 30
0.0
 11
16.20296425787942
 21
5.59636254008121
 31
0.0
  0
LINE
  5
19F
330
2D
100
AcDbEntity
  8
0
 62
     0
100
AcDbLine
 10
15.98337841309485
 20
5.2
 30
0.0
 11
16.31290894781219
 21
5.529530534717341
 31
0.0
  0
LINE
  5
1A0
330
2D
100
AcDbEntity
  8
0
 62
     0
100
AcDbLine
 10
16.16015510839148
 20
5.2
 30
0.0
 11
16.41889477551746
 21
5.458739667125973
 31
0.0
  0
LINE
  5
1A1
330
2D
100
AcDbEntity
  8
0
 62
     0
100
AcDbLine
 10
16.33693180368812
 20
5.2
 30
0.0
 11
16.52102114525041
 21
5.384089341562286
 31
0.0
  0
LINE
  5
1A2
330
2D
100
AcDbEntity
  8
0
 62
     0
100
AcDbLine
 10
16.51370849898476
 20
5.2
 30
0.0
 11
16.61936335457592
 21
5.305654855591162
 31
0.0
  0
LINE
  5
1A3
330
2D
100
AcDbEntity
  8
0
 62
     0
100
AcDbLine
 10
16.69048519428139
 20
5.2
 30
0.0
 11
16.71397473843326
 21
5.223489544151862
 31
0.0
  0
ENDBLK
  5
1A4
330
2D
100
AcDbEntity
  8
0
100
AcDbBlockEnd
  0
BLOCK
  5
1A5
330
2E
100
AcDbEntity
  8
0
100
AcDbBlockBegin
  2
*X12
 70
     1
 10
0.0
 20
0.0
 30
0.0
  3
*X12
  1

  0
LINE
  5
1A6
330
2E
100
AcDbEntity
  8
0
 62
     0
100
AcDbLine
 10
13.9
 20
0.8185245480488701
 30
0.0
 11
17.39644991717202
 21
4.314974465220889
 31
0.0
  0
LINE
  5
1A7
330
2E
100
AcDbEntity
  8
0
 62
     0
100
AcDbLine
 10
13.9
 20
0.995301243345507
 30
0.0
 11
17.33635410458252
 21
4.431655347928027
 31
0.0
  0
LINE
  5
1A8
330
2E
100
AcDbEntity
  8
0
 62
     0
100
AcDbLine
 10
13.9
 20
1.172077938642143
 30
0.0
 11
17.27207765977055
 21
4.544155598412691
 31
0.0
  0
LINE
  5
1A9
330
2E
100
AcDbEntity
  8
0
 62
     0
100
AcDbLine
 10
13.9
 20
1.34885463393878
 30
0.0
 11
17.20376610315736
 21
4.652620737096146
 31
0.0
  0
LINE
  5
1AA
330
2E
100
AcDbEntity
  8
0
 62
     0
100
AcDbLine
 10
13.9
 20
1.525631329235417
 30
0.0
 11
17.13153548167385
 21
4.757166810909273
 31
0.0
  0
LINE
  5
1AB
330
2E
100
AcDbEntity
  8
0
 62
     0
100
AcDbLine
 10
13.9
 20
1.702408024532054
 30
0.0
 11
16.99759197546794
 21
4.8
 31
0.0
  0
LINE
  5
1AC
330
2E
100
AcDbEntity
  8
0
 62
     0
100
AcDbLine
 10
13.9
 20
1.879184719828691
 30
0.0
 11
16.82081528017131
 21
4.8
 31
0.0
  0
LINE
  5
1AD
330
2E
100
AcDbEntity
  8
0
 62
     0
100
AcDbLine
 10
13.9
 20
2.055961415125328
 30
0.0
 11
16.64403858487467
 21
4.8
 31
0.0
  0
LINE
  5
1AE
330
2E
100
AcDbEntity
  8
0
 62
     0
100
AcDbLine
 10
13.9
 20
2.232738110421965
 30
0.0
 11
16.46726188957803
 21
4.8
 31
0.0
  0
LINE
  5
1AF
330
2E
100
AcDbEntity
  8
0
 62
     0
100
AcDbLine
 10
13.9
 20
2.409514805718601
 30
0.0
 11
16.2904851942814
 21
4.8
 31
0.0
  0
LINE
  5
1B0
330
2E
100
AcDbEntity
  8
0
 62
     0
100
AcDbLine
 10
13.9
 20
2.586291501015238
 30
0.0
 11
16.11370849898476
 21
4.8
 31
0.0
  0
LINE
  5
1B1
330
2E
100
AcDbEntity
  8
0
 62
     0
100
AcDbLine
 10
13.9
 20
2.763068196311875
 30
0.0
 11
15.93693180368812
 21
4.8
 31
0.0
  0
LINE
  5
1B2
330
2E
100
AcDbEntity
  8
0
 62
     0
100
AcDbLine
 10
13.9
 20
2.939844891608512
 30
0.0
 11
15.76015510839149
 21
4.8
 31
0.0
  0
LINE
  5
1B3
330
2E
100
AcDbEntity
  8
0
 62
     0
100
AcDbLine
 10
13.9
 20
3.116621586905149
 30
0.0
 11
15.58337841309485
 21
4.8
 31
0.0
  0
LINE
  5
1B4
330
2E
100
AcDbEntity
  8
0
 62
     0
100
AcDbLine
 10
13.9
 20
3.293398282201786
 30
0.0
 11
15.40660171779821
 21
4.8
 31
0.0
  0
LINE
  5
1B5
330
2E
100
AcDbEntity
  8
0
 62
     0
100
AcDbLine
 10
13.9
 20
3.470174977498423
 30
0.0
 11
15.22982502250157
 21
4.8
 31
0.0
  0
LINE
  5
1B6
330
2E
100
AcDbEntity
  8
0
 62
     0
100
AcDbLine
 10
13.9
 20
3.64695167279506
 30
0.0
 11
15.05304832720494
 21
4.8
 31
0.0
  0
LINE
  5
1B7
330
2E
100
AcDbEntity
  8
0
 62
     0
100
AcDbLine
 10
13.9
 20
3.823728368091696
 30
0.0
 11
14.8762716319083
 21
4.8
 31
0.0
  0
LINE
  5
1B8
330
2E
100
AcDbEntity
  8
0
 62
     0
100
AcDbLine
 10
13.9
 20
4.000505063388334
 30
0.0
 11
14.69949493661166
 21
4.8
 31
0.0
  0
LINE
  5
1B9
330
2E
100
AcDbEntity
  8
0
 62
     0
100
AcDbLine
 10
13.9
 20
4.17728175868497
 30
0.0
 11
14.52271824131503
 21
4.8
 31
0.0
  0
LINE
  5
1BA
330
2E
100
AcDbEntity
  8
0
 62
     0
100
AcDbLine
 10
13.9
 20
4.354058453981607
 30
0.0
 11
14.34594154601839
 21
4.8
 31
0.0
  0
LINE
  5
1BB
330
2E
100
AcDbEntity
  8
0
 62
     0
100
AcDbLine
 10
13.9
 20
4.530835149278244
 30
0.0
 11
14.16916485072175
 21
4.8
 31
0.0
  0
LINE
  5
1BC
330
2E
100
AcDbEntity
  8
0
 62
     0
100
AcDbLine
 10
13.9
 20
4.707611844574881
 30
0.0
 11
13.99238815542512
 21
4.8
 31
0.0
  0
LINE
  5
1BD
330
2E
100
AcDbEntity
  8
0
 62
     0
100
AcDbLine
 10
13.9
 20
0.6417478527522334
 30
0.0
 11
17.45218526214292
 21
4.193933114895161
 31
0.0
  0
LINE
  5
1BE
330
2E
100
AcDbEntity
  8
0
 62
     0
100
AcDbLine
 10
13.9
 20
0.4649711574555965
 30
0.0
 11
17.50333949830906
 21
4.068310655764662
 31
0.0
  0
LINE
  5
1BF
330
2E
100
AcDbEntity
  8
0
 62
     0
100
AcDbLine
 10
13.9
 20
0.2881944621589596
 30
0.0
 11
17.54964242799989
 21
3.937836890158853
 31
0.0
  0
LINE
  5
1C0
330
2E
100
AcDbEntity
  8
0
 62
     0
100
AcDbLine
 10
13.9
 20
0.1114177668623227
 30
0.0
 11
17.59076236298873
 21
3.802180129851055
 31
0.0
  0
LINE
  5
1C1
330
2E
100
AcDbEntity
  8
0
 62
     0
100
AcDbLine
 10
13.96535907380306
 20
0.0000001453687495
 30
0.0
 11
17.62628957551245
 21
3.660930647078139
 31
0.0
  0
LINE
  5
1C2
330
2E
100
AcDbEntity
  8
0
 62
     0
100
AcDbLine
 10
14.14213616227945
 20
0.0000005385484993
 30
0.0
 11
17.65571284726207
 21
3.513577223531124
 31
0.0
  0
LINE
  5
1C3
330
2E
100
AcDbEntity
  8
0
 62
     0
100
AcDbLine
 10
14.31891325075583
 20
0.0000009317282491
 30
0.0
 11
17.67838532706747
 21
3.359473008039884
 31
0.0
  0
LINE
  5
1C4
330
2E
100
AcDbEntity
  8
0
 62
     0
100
AcDbLine
 10
14.49569033923222
 20
0.0000013249079989
 30
0.0
 11
17.6934731399576
 21
3.197784125633374
 31
0.0
  0
LINE
  5
1C5
330
2E
100
AcDbEntity
  8
0
 62
     0
100
AcDbLine
 10
14.67246742770861
 20
0.0000017180877487
 30
0.0
 11
17.6998747877926
 21
3.027409078171735
 31
0.0
  0
LINE
  5
1C6
330
2E
100
AcDbEntity
  8
0
 62
     0
100
AcDbLine
 10
14.85315433025688
 20
0.0039119253393838
 30
0.0
 11
17.69608807466061
 21
2.846845669743118
 31
0.0
  0
LINE
  5
1C7
330
2E
100
AcDbEntity
  8
0
 62
     0
100
AcDbLine
 10
15.04604362941941
 20
0.0200245292052809
 30
0.0
 11
17.67997547079472
 21
2.653956370580586
 31
0.0
  0
LINE
  5
1C8
330
2E
100
AcDbEntity
  8
0
 62
     0
100
AcDbLine
 10
15.25448294516349
 20
0.051687149652724
 30
0.0
 11
17.64831285034728
 21
2.445517054836507
 31
0.0
  0
LINE
  5
1C9
330
2E
100
AcDbEntity
  8
0
 62
     0
100
AcDbLine
 10
15.48376230096711
 20
0.104189810159703
 30
0.0
 11
17.5958101898403
 21
2.216237699032893
 31
0.0
  0
LINE
  5
1CA
330
2E
100
AcDbEntity
  8
0
 62
     0
100
AcDbLine
 10
15.74378625147994
 20
0.1874370653758922
 30
0.0
 11
17.51256293462411
 21
1.956213748520063
 31
0.0
  0
LINE
  5
1CB
330
2E
100
AcDbEntity
  8
0
 62
     0
100
AcDbLine
 10
16.05817558800134
 20
0.3250497066006601
 30
0.0
 11
17.37495029339934
 21
1.641824411998659
 31
0.0
  0
LINE
  5
1CC
330
2E
100
AcDbEntity
  8
0
 62
     0
100
AcDbLine
 10
16.54193023656893
 20
0.6320276598716133
 30
0.0
 11
17.06797234012839
 21
1.158069763431071
 31
0.0
  0
ENDBLK
  5
1CD
330
2E
100
AcDbEntity
  8
0
100
AcDbBlockEnd
  0
BLOCK
  5
1CE
330
2F
100
AcDbEntity
  8
0
  6
DASHED
100
AcDbBlockBegin
  2
BLC15
 70
     0
 10
0.0
 20
0.0
 30
0.0
  3
BLC15
  1

  0
LINE
  5
1CF
330
2F
100
AcDbEntity
  8
0
  6
Continuous
100
AcDbLine
 10
0.1420843676212655
 20
3.490022375113255
 30
0.0
 11
0.1420843676212655
 21
0.8443648832166417
 31
0.0
  0
LINE
  5
1D0
330
2F
100
AcDbEntity
  8
0
  6
Continuous
100
AcDbLine
 10
-0.4616105474578376
 20
-0.9371884861638335
 30
0.0
 11
0.7457792827003687
 21
-0.9371884861638335
 31
0.0
  0
LINE
  5
1D1
330
2F
100
AcDbEntity
  8
0
  6
Continuous
100
AcDbLine
 10
-0.8941083970667307
 20
-0.0496747197325362
 30
0.0
 11
1.169266760442411
 21
-0.0496747197325362
 31
0.0
  0
LINE
  5
1D2
330
2F
100
AcDbEntity
  8
0
  6
Continuous
100
AcDbLine
 10
-1.389678849743603
 20
0.8443648832166417
 30
0.0
 11
1.673847584986134
 21
0.8443648832166417
 31
0.0
  0
ENDBLK
  5
1D3
330
2F
100
AcDbEntity
  8
0
  6
DASHED
100
AcDbBlockEnd
  0
BLOCK
  5
1D4
330
30
100
AcDbEntity
  8
0
  6
DASHED
100
AcDbBlockBegin
  2
BLC55
 70
     0
 10
0.0
 20
0.0
 30
0.0
  3
BLC55
  1

  0
INSERT
  5
1D5
330
30
100
AcDbEntity
  8
SWEDEN
  6
CENTER
100
AcDbBlockReference
  2
BLC5
 10
0.0870658609543682
 20
-0.7568307888210839
 30
0.0
 41
0.6
 42
0.6
 43
0.6
  0
ENDBLK
  5
1D6
330
30
100
AcDbEntity
  8
0
  6
DASHED
100
AcDbBlockEnd
  0
BLOCK
  5
1D7
330
31
100
AcDbEntity
  8
SWEDEN
  6
CENTER
100
AcDbBlockBegin
  2
BLC5
 70
     0
 10
0.0
 20
0.0
 30
0.0
  3
BLC5
  1

  0
TEXT
  5
1D8
330
31
100
AcDbEntity
  8
0
100
AcDbText
 10
-3.043703616622593
 20
-6.645911909806137
 30
0.0
 40
3.2
  1
PE
100
AcDbText
  0
LINE
  5
1DA
330
31
100
AcDbEntity
  8
0
100
AcDbLine
 10
-2.946391600460657
 20
1.181176409735783
 30
0.0
 11
2.135458132443943
 21
1.181176409735783
 31
0.0
  0
LINE
  5
1DB
330
31
100
AcDbEntity
  8
0
100
AcDbLine
 10
-0.4865600808100226
 20
2.238361925631892
 30
0.0
 11
-0.4865600808100226
 21
6.930438381985624
 31
0.0
  0
LINE
  5
1DC
330
31
100
AcDbEntity
  8
0
100
AcDbLine
 10
-1.973271438840612
 20
0.0652583651787779
 30
0.0
 11
1.225410573891878
 21
0.0652583651787779
 31
0.0
  0
LINE
  5
1DD
330
31
100
AcDbEntity
  8
0
100
AcDbLine
 10
2.685090816321945
 20
2.238361925631892
 30
0.0
 11
1.68493953910135
 21
2.238361925631892
 31
0.0
  0
LINE
  5
1DE
330
31
100
AcDbEntity
  8
0
100
AcDbLine
 10
-3.505034656205481
 20
2.238361925631892
 30
0.0
 11
2.649049328854516
 21
2.238361925631892
 31
0.0
  0
CIRCLE
  5
1DF
330
31
100
AcDbEntity
  8
0
100
AcDbCircle
 10
-0.4775497089431724
 20
1.422632360897239
 30
0.0
 40
3.80456268992242
  0
ENDBLK
  5
1E0
330
31
100
AcDbEntity
  8
SWEDEN
  6
CENTER
100
AcDbBlockEnd
  0
BLOCK
  5
1E1
330
32
100
AcDbEntity
  8
0
  6
DASHED
100
AcDbBlockBegin
  2
BLC43
 70
     0
 10
0.0
 20
0.0
 30
0.0
  3
BLC43
  1

  0
TEXT
  5
1E2
330
32
100
AcDbEntity
  8
SWEDEN2
  6
Continuous
100
AcDbText
 10
-0.6466721562502756
 20
-0.9863647580152061
 30
0.0
 40
2.0
  1
+
100
AcDbText
  0
ENDBLK
  5
1E3
330
32
100
AcDbEntity
  8
0
  6
DASHED
100
AcDbBlockEnd
  0
BLOCK
  5
1E4
330
33
100
AcDbEntity
  8
0
  6
DASHED
100
AcDbBlockBegin
  2
BLC42
 70
     0
 10
0.0
 20
0.0
 30
0.0
  3
BLC42
  1

  0
TEXT
  5
1E5
330
33
100
AcDbEntity
  8
SWEDEN2
  6
Continuous
100
AcDbText
 10
-0.6552371134230981
 20
-0.9944195846351995
 30
0.0
 40
2.0
  1
-
100
AcDbText
  0
ENDBLK
  5
1E6
330
33
100
AcDbEntity
  8
0
  6
DASHED
100
AcDbBlockEnd
  0
BLOCK
  5
1E7
330
34
100
AcDbEntity
  8
0
  6
Continuous
100
AcDbBlockBegin
  2
BLC44
 70
     0
 10
0.0
 20
0.0
 30
0.0
  3
BLC44
  1

  0
LINE
  5
1E8
330
34
100
AcDbEntity
  8
HEL035
100
AcDbLine
 10
-2.520992801268107
 20
1.697877018123069
 30
0.0
 11
1.479007198731892
 21
1.697877018123069
 31
0.0
  0
INSERT
  5
1E9
330
34
100
AcDbEntity
  8
HEL035
100
AcDbBlockReference
  2
WKU130
 10
-2.181043214518581
 20
-0.0276753648205208
 30
0.0
 41
0.8
 42
0.8
 43
0.8
  0
ENDBLK
  5
1EA
330
34
100
AcDbEntity
  8
0
  6
Continuous
100
AcDbBlockEnd
  0
BLOCK
  5
1EB
330
35
100
AcDbEntity
  8
BASE
  6
Continuous
100
AcDbBlockBegin
  2
B155
 70
     0
 10
0.0
 20
0.0
 30
0.0
  3
B155
  1

  0
LINE
  5
1EC
330
35
100
AcDbEntity
  8
0
  6
Continuous
100
AcDbLine
 10
0.0
 20
0.0
 30
0.0
 11
0.0
 21
-1.35427039676108
 31
0.0
  0
LINE
  5
1ED
330
35
100
AcDbEntity
  8
0
  6
Continuous
100
AcDbLine
 10
-1.210227677948239
 20
-1.35427039676108
 30
0.0
 11
-0.0158866873312604
 21
-1.35427039676108
 31
0.0
  0
LINE
  5
1EE
330
35
100
AcDbEntity
  8
0
  6
Continuous
100
AcDbLine
 10
-0.0158866873312604
 20
-1.35427039676108
 30
0.0
 11
1.178454303285661
 21
-1.35427039676108
 31
0.0
  0
LINE
  5
1EF
330
35
100
AcDbEntity
  8
0
  6
Continuous
100
AcDbLine
 10
-0.8318226116142
 20
-1.833880657537918
 30
0.0
 11
0.7527486036598248
 21
-1.833880657537918
 31
0.0
  0
LINE
  5
1F0
330
35
100
AcDbEntity
  8
0
  6
Continuous
100
AcDbLine
 10
-0.5007181785718445
 20
-2.322055387257194
 30
0.0
 11
0.3861686956486778
 21
-2.322055387257194
 31
0.0
  0
ENDBLK
  5
1F1
330
35
100
AcDbEntity
  8
BASE
  6
Continuous
100
AcDbBlockEnd
  0
BLOCK
  5
1F2
330
36
100
AcDbEntity
  8
0
  6
Continuous
100
AcDbBlockBegin
  2
B204
 70
     0
 10
0.0
 20
0.0
 30
0.0
  3
B204
  1

  0
TEXT
  5
1F3
330
36
100
AcDbEntity
  8
BASE
  6
Continuous
100
AcDbText
 10
-5.818293697713727
 20
-13.16198909905779
 30
0.0
 40
2.0
  1
12A
100
AcDbText
  0
TEXT
  5
1F4
330
36
100
AcDbEntity
  8
BASE
  6
Continuous
100
AcDbText
 10
-5.818293697713727
 20
-3.442733867157357
 30
0.0
 40
2.0
  1
11A
100
AcDbText
  0
LINE
  5
1F5
330
36
100
AcDbEntity
  8
BASE
  6
Continuous
100
AcDbLine
 10
-5.0
 20
-9.999999999999971
 30
0.0
 11
0.0
 21
-10.0
 31
0.0
  0
LINE
  5
1F6
330
36
100
AcDbEntity
  8
BASE
  6
Continuous
100
AcDbLine
 10
-20.0
 20
-10.01702752949287
 30
0.0
 11
-10.0
 21
-10.01702752949287
 31
0.0
  0
LINE
  5
1F7
330
36
100
AcDbEntity
  8
BASE
  6
Continuous
100
AcDbLine
 10
-10.0
 20
-10.01702752949287
 30
0.0
 11
-10.0
 21
-7.234338570451939
 31
0.0
  0
LINE
  5
1F8
330
36
100
AcDbEntity
  8
BASE
  6
Continuous
100
AcDbLine
 10
-10.89717266234387
 20
-7.565196309395531
 30
0.0
 11
-11.3420659576181
 21
-8.450894219617509
 31
0.0
  0
LINE
  5
1F9
330
36
100
AcDbEntity
  8
BASE
  6
Continuous
100
AcDbLine
 10
-10.89717266234387
 20
-7.565196309395531
 30
0.0
 11
-5.0
 21
-9.999999999999971
 31
0.0
  0
LINE
  5
1FA
330
36
100
AcDbEntity
  8
BASE
  6
Continuous
100
AcDbLine
 10
-10.89717266234387
 20
2.434803690604468
 30
0.0
 11
-5.0
 21
0.0000000000000284
 31
0.0
  0
LINE
  5
1FB
330
36
100
AcDbEntity
  8
BASE
  6
Continuous
100
AcDbLine
 10
-10.89717266234387
 20
2.434803690604468
 30
0.0
 11
-11.3420659576181
 21
1.54910578038249
 31
0.0
  0
LINE
  5
1FC
330
36
100
AcDbEntity
  8
BASE
  6
Continuous
100
AcDbLine
 10
-10.0
 20
-0.0170275294928786
 30
0.0
 11
-10.0
 21
2.76566142954806
 31
0.0
  0
LINE
  5
1FD
330
36
100
AcDbEntity
  8
BASE
  6
Continuous
100
AcDbLine
 10
-20.0
 20
-0.0170275294928786
 30
0.0
 11
-10.0
 21
-0.0170275294928786
 31
0.0
  0
LINE
  5
1FE
330
36
100
AcDbEntity
  8
BASE
  6
Continuous
100
AcDbLine
 10
-5.0
 20
0.0000000000000284
 30
0.0
 11
0.0
 21
0.0
 31
0.0
  0
ENDBLK
  5
1FF
330
36
100
AcDbEntity
  8
0
  6
Continuous
100
AcDbBlockEnd
  0
BLOCK
  5
200
330
37
100
AcDbEntity
  8
0
  6
Continuous
100
AcDbBlockBegin
  2
MAA
 70
     0
 10
0.0
 20
0.0
 30
0.0
  3
MAA
  1

  0
LINE
  5
201
330
37
100
AcDbEntity
  8
0
  6
Continuous
100
AcDbLine
 10
-0.5007181785718445
 20
-2.587965694815835
 30
0.0
 11
0.3861686956486778
 21
-2.587965694815835
 31
0.0
  0
LINE
  5
202
330
37
100
AcDbEntity
  8
0
  6
Continuous
100
AcDbLine
 10
-0.8318226116142
 20
-1.976332608015752
 30
0.0
 11
0.7527486036598248
 21
-1.976332608015752
 31
0.0
  0
LINE
  5
203
330
37
100
AcDbEntity
  8
0
  6
Continuous
100
AcDbLine
 10
-0.0158866873312604
 20
-1.35427039676108
 30
0.0
 11
1.178454303285661
 21
-1.35427039676108
 31
0.0
  0
LINE
  5
204
330
37
100
AcDbEntity
  8
0
  6
Continuous
100
AcDbLine
 10
-1.210227677948239
 20
-1.35427039676108
 30
0.0
 11
-0.0158866873312604
 21
-1.35427039676108
 31
0.0
  0
LINE
  5
205
330
37
100
AcDbEntity
  8
0
  6
Continuous
100
AcDbLine
 10
0.0
 20
0.0
 30
0.0
 11
0.0
 21
-1.35427039676108
 31
0.0
  0
ENDBLK
  5
206
330
37
100
AcDbEntity
  8
0
  6
Continuous
100
AcDbBlockEnd
  0
ENDSEC
  0
SECTION
  2
ENTITIES
  0
INSERT
  5
207
330
1E
100
AcDbEntity
  8
0
100
AcDbBlockReference
  2
1
 10
65.40543794728922
 20
98.7130660876682
 30
0.0
  0
INSERT
  5
208
330
1E
100
AcDbEntity
  8
0
100
AcDbBlockReference
  2
1
 10
72.5416524658361
 20
49.71055967492806
 30
0.0
  0
INSERT
  5
209
330
1E
100
AcDbEntity
  8
0
100
AcDbBlockReference
  2
1
 10
85.39044274796726
 20
73.49723378259056
 30
0.0
  0
LINE
  5
20A
330
1E
100
AcDbEntity
  8
BASE
  6
CENTER
100
AcDbLine
 10
230.0
 20
185.0
 30
0.0
 11
230.0
 21
77.5
 31
0.0
  0
LINE
  5
20B
330
1E
100
AcDbEntity
  8
BASE
  6
CENTER
100
AcDbLine
 10
230.0
 20
87.5
 30
0.0
 11
230.0
 21
65.0
 31
0.0
  0
LINE
  5
20C
330
1E
100
AcDbEntity
  8
BASE
  6
Continuous
100
AcDbLine
 10
212.5
 20
80.0
 30
0.0
 11
222.5
 21
80.0
 31
0.0
  0
LINE
  5
20D
330
1E
100
AcDbEntity
  8
BASE
  6
Continuous
100
AcDbLine
 10
212.5
 20
80.0
 30
0.0
 11
215.0
 21
82.5
 31
0.0
  0
LINE
  5
20E
330
1E
100
AcDbEntity
  8
BASE
  6
Continuous
100
AcDbLine
 10
217.5
 20
80.0
 30
0.0
 11
220.0
 21
82.5
 31
0.0
  0
LINE
  5
20F
330
1E
100
AcDbEntity
  8
BASE
  6
Continuous
100
AcDbLine
 10
222.5
 20
80.0
 30
0.0
 11
225.0
 21
82.5
 31
0.0
  0
LINE
  5
210
330
1E
100
AcDbEntity
  8
BASE
  6
Continuous
100
AcDbLine
 10
217.5
 20
80.0
 30
0.0
 11
217.5
 21
65.0
 31
0.0
  0
LINE
  5
211
330
1E
100
AcDbEntity
  8
BASE
  6
Continuous
100
AcDbLine
 10
205.0
 20
82.5
 30
0.0
 11
205.0
 21
65.0
 31
0.0
  0
LINE
  5
212
330
1E
100
AcDbEntity
  8
BASE
  6
Continuous
100
AcDbLine
 10
200.0
 20
82.5
 30
0.0
 11
200.0
 21
65.0
 31
0.0
  0
INSERT
  5
213
330
1E
100
AcDbEntity
  8
0
  6
DASHED
100
AcDbBlockReference
  2
BLC55
 10
217.7048605164344
 20
54.09883621586613
 30
0.0
  0
LINE
  5
214
330
1E
100
AcDbEntity
  8
0
  6
DASHED
100
AcDbLine
 10
205.0
 20
65.0
 30
0.0
 11
205.0
 21
57.5
 31
0.0
  0
LINE
  5
215
330
1E
100
AcDbEntity
  8
0
  6
DASHED
100
AcDbLine
 10
217.5
 20
65.0
 30
0.0
 11
217.5
 21
57.5
 31
0.0
  0
LINE
  5
216
330
1E
100
AcDbEntity
  8
0
  6
DASHED
100
AcDbLine
 10
200.0
 20
65.0
 30
0.0
 11
200.0
 21
57.5
 31
0.0
  0
LINE
  5
217
330
1E
100
AcDbEntity
  8
0
  6
DASHED
100
AcDbLine
 10
152.5
 20
65.0
 30
0.0
 11
152.5
 21
57.5
 31
0.0
  0
INSERT
  5
218
330
1E
100
AcDbEntity
  8
0
  6
DASHED
100
AcDbBlockReference
  2
BLC42
 10
205.0
 20
52.5
 30
0.0
  0
INSERT
  5
219
330
1E
100
AcDbEntity
  8
0
  6
DASHED
100
AcDbBlockReference
  2
BLC43
 10
200.0
 20
52.5
 30
0.0
  0
LINE
  5
21A
330
1E
100
AcDbEntity
  8
BASE
  6
Continuous
100
AcDbLine
 10
167.5
 20
140.2328905238334
 30
0.0
 11
197.9506146543173
 21
140.2328905238334
 31
0.0
  0
TEXT
  5
21B
330
1E
100
AcDbEntity
  8
BASE
  6
Continuous
100
AcDbText
 10
179.4087664039472
 20
136.2958146562257
 30
0.0
 40
2.5
  1
IRF
 11
179.4087664039472
 21
135.4624813228923
 31
0.0
100
AcDbText
 73
     1
  0
LINE
  5
21C
330
1E
100
AcDbEntity
  8
BASE
  6
Continuous
100
AcDbLine
 10
197.9506146543173
 20
135.0000000000004
 30
0.0
 11
167.5
 21
135.0000000000003
 31
0.0
  0
LINE
  5
21D
330
1E
100
AcDbEntity
  8
BASE
  6
Continuous
100
AcDbLine
 10
197.9506146543173
 20
177.2098276043298
 30
0.0
 11
197.9506146543173
 21
135.0000000000004
 31
0.0
  0
LINE
  5
21E
330
1E
100
AcDbEntity
  8
BASE
  6
Continuous
100
AcDbLine
 10
197.9506146522573
 20
199.9999999999999
 30
0.0
 11
197.9506146522573
 21
177.1883195992091
 31
0.0
  0
INSERT
  5
21F
330
1E
100
AcDbEntity
  8
0
  6
Continuous
100
AcDbBlockReference
  2
BLC44
 10
203.1999396462317
 20
49.08564962995559
 30
0.0
  0
LINE
  5
220
330
1E
100
AcDbEntity
  8
BASE
  6
Continuous
100
AcDbLine
 10
167.5
 20
145.0
 30
0.0
 11
197.9506146543173
 21
145.0
 31
0.0
  0
CIRCLE
  5
221
330
1E
100
AcDbEntity
  8
BASE
  6
Continuous
100
AcDbCircle
 10
166.5126585353903
 20
137.4983241333401
 30
0.0
 40
1.0
  0
LINE
  5
222
330
1E
100
AcDbEntity
  8
BASE
  6
Continuous
100
AcDbLine
 10
176.7573071293065
 20
194.7799417097
 30
0.0
 11
174.4115416170808
 21
193.5900225609556
 31
0.0
  0
LINE
  5
223
330
1E
100
AcDbEntity
  8
BASE
  6
Continuous
100
AcDbLine
 10
174.4115416170808
 20
196.1152954210687
 30
0.0
 11
176.7573071293065
 21
194.7799417097
 31
0.0
  0
LINE
  5
224
330
1E
100
AcDbEntity
  8
BASE
  6
Continuous
100
AcDbLine
 10
167.5
 20
190.0
 30
0.0
 11
167.5
 21
175.0
 31
0.0
  0
LINE
  5
225
330
1E
100
AcDbEntity
  8
BASE
  6
Continuous
100
AcDbLine
 10
167.5
 20
190.0
 30
0.0
 11
167.5
 21
195.0
 31
0.0
  0
LINE
  5
226
330
1E
100
AcDbEntity
  8
BASE
  6
Continuous
100
AcDbLine
 10
167.5
 20
175.0
 30
0.0
 11
167.5
 21
135.0000000000003
 31
0.0
  0
LINE
  5
227
330
1E
100
AcDbEntity
  8
BASE
  6
CENTER
100
AcDbLine
 10
62.5
 20
215.0
 30
0.0
 11
62.5
 21
65.0
 31
0.0
  0
LINE
  5
228
330
1E
100
AcDbEntity
  8
BASE
  6
Continuous
100
AcDbLine
 10
89.99999999999996
 20
117.5
 30
0.0
 11
167.5
 21
117.5
 31
0.0
  0
LINE
  5
229
330
1E
100
AcDbEntity
  8
BASE
  6
Continuous
100
AcDbLine
 10
89.99999999999996
 20
117.5
 30
0.0
 11
84.25607594821684
 21
114.2852966948171
 31
0.0
  0
TEXT
  5
22A
330
1E
100
AcDbEntity
  8
BASE
  6
DASHED
100
AcDbText
 10
83.19737272514714
 20
118.4034924824313
 30
0.0
 40
2.0
  1
A
  7
ROMANS
100
AcDbText
  0
TEXT
  5
22C
330
1E
100
AcDbEntity
  8
BASE
  6
DASHED
100
AcDbText
 10
101.6433730119737
 20
108.7745883813304
 30
0.0
 40
2.0
  1
B
  7
ROMANS
100
AcDbText
  0
TEXT
  5
22D
330
1E
100
AcDbEntity
  8
BASE
  6
DASHED
100
AcDbText
 10
125.671572722844
 20
88.36465359885755
 30
0.0
 40
2.0
  1
E
  7
ROMANS
100
AcDbText
  0
TEXT
  5
22E
330
1E
100
AcDbEntity
  8
BASE
  6
DASHED
100
AcDbText
 10
141.0662843061373
 20
78.23633229147134
 30
0.0
 40
2.0
  1
F
  7
ROMANS
100
AcDbText
  0
LINE
  5
22F
330
1E
100
AcDbEntity
  8
BASE
  6
CENTER
100
AcDbLine
 10
62.5
 20
65.0
 30
0.0
 11
230.0
 21
65.0
 31
0.0
  0
LINE
  5
230
330
1E
100
AcDbEntity
  8
BASE
  6
CENTER
100
AcDbLine
 10
230.0
 20
207.5
 30
0.0
 11
230.0
 21
215.0
 31
0.0
  0
LINE
  5
231
330
1E
100
AcDbEntity
  8
BASE
  6
CENTER
100
AcDbLine
 10
230.0
 20
215.0
 30
0.0
 11
62.5
 21
215.0
 31
0.0
  0
LINE
  5
232
330
1E
100
AcDbEntity
  8
0
  6
Continuous
100
AcDbLine
 10
370.9149709563058
 20
228.2632368307483
 30
0.0
 11
370.9149709563058
 21
226.4751054181577
 31
0.0
  0
LINE
  5
233
330
1E
100
AcDbEntity
  8
0
  6
Continuous
100
AcDbLine
 10
367.96085879381
 20
229.6161210509424
 30
0.0
 11
368.8615355656205
 21
228.492372002564
 31
0.0
  0
LINE
  5
234
330
1E
100
AcDbEntity
  8
0
  6
Continuous
100
AcDbLine
 10
365.5154515528634
 20
226.2503556084821
 30
0.0
 11
368.3915622527626
 21
229.0789141887907
 31
0.0
  0
LINE
  5
235
330
1E
100
AcDbEntity
  8
0
  6
Continuous
100
AcDbLine
 10
363.1313071568943
 20
227.4179582782606
 30
0.0
 11
370.9195121837266
 21
227.4179582782606
 31
0.0
  0
LINE
  5
236
330
1E
100
AcDbEntity
  8
0
  6
Continuous
100
AcDbLine
 10
363.1002754361849
 20
228.2632368307483
 30
0.0
 11
363.1002754361849
 21
226.4751054181577
 31
0.0
  0
INSERT
  5
237
330
1E
100
AcDbEntity
  8
0
  6
DASHED
100
AcDbBlockReference
  2
BLC43
 10
44.5116479632872
 20
205.0
 30
0.0
  0
INSERT
  5
238
330
1E
100
AcDbEntity
  8
0
  6
DASHED
100
AcDbBlockReference
  2
BLC42
 10
44.5116479632872
 20
200.0
 30
0.0
  0
INSERT
  5
239
330
1E
100
AcDbEntity
  8
0
  6
DASHED
100
AcDbBlockReference
  2
BLC44
 10
41.02371357982957
 20
201.4380595807454
 30
0.0
  0
TEXT
  5
23A
330
1E
100
AcDbEntity
  8
0
  6
DASHED
100
AcDbText
 10
39.36901864910743
 20
207.5
 30
0.0
 40
2.0
  1
1)
  7
ROMANS
100
AcDbText
  0
TEXT
  5
23B
330
1E
100
AcDbEntity
  8
BASE
  6
Continuous
100
AcDbText
 10
179.4904072156893
 20
141.0664238901928
 30
0.0
 40
2.5
  1
I/O
100
AcDbText
  0
TEXT
  5
23C
330
1E
100
AcDbEntity
  8
BASE
  6
Continuous
100
AcDbText
 10
192.3479941953819
 20
195.8237514300415
 30
0.0
 40
2.5
  1
U1
  7
ROMANS
100
AcDbText
  0
LINE
  5
23D
330
1E
100
AcDbEntity
  8
BASE
  6
Continuous
100
AcDbLine
 10
167.5
 20
165.0
 30
0.0
 11
187.5
 21
165.0
 31
0.0
  0
LINE
  5
23E
330
1E
100
AcDbEntity
  8
BASE
  6
Continuous
100
AcDbLine
 10
187.5
 20
165.0
 30
0.0
 11
197.9506146543173
 21
165.0
 31
0.0
  0
LINE
  5
23F
330
1E
100
AcDbEntity
  8
BASE
  6
Continuous
100
AcDbLine
 10
177.5
 20
198.0212061441035
 30
0.0
 11
180.0
 21
198.0212061441035
 31
0.0
  0
LINE
  5
240
330
1E
100
AcDbEntity
  8
BASE
  6
Continuous
100
AcDbLine
 10
177.5
 20
198.0212061441035
 30
0.0
 11
175.2755532590327
 21
197.4605637543936
 31
0.0
  0
LINE
  5
241
330
1E
100
AcDbEntity
  8
BASE
  6
Continuous
100
AcDbLine
 10
172.5
 20
198.0212061441035
 30
0.0
 11
175.0
 21
198.0212061441035
 31
0.0
  0
TEXT
  5
242
330
1E
100
AcDbEntity
  8
BASE
  6
Continuous
100
AcDbText
 10
168.4069092565677
 20
197.2631894517228
 30
0.0
 40
1.5
  1
EN
100
AcDbText
  0
CIRCLE
  5
243
330
1E
100
AcDbEntity
  8
BASE
  6
Continuous
100
AcDbCircle
 10
166.4998329942194
 20
198.0166913734135
 30
0.0
 40
1.0
  0
LINE
  5
244
330
1E
100
AcDbEntity
  8
BASE
  6
Continuous
100
AcDbLine
 10
167.5
 20
192.5
 30
0.0
 11
187.5
 21
192.5
 31
0.0
  0
LINE
  5
245
330
1E
100
AcDbEntity
  8
BASE
  6
Continuous
100
AcDbLine
 10
167.5
 20
195.0
 30
0.0
 11
167.5
 21
200.0
 31
0.0
  0
LINE
  5
246
330
1E
100
AcDbEntity
  8
BASE
  6
Continuous
100
AcDbLine
 10
167.5
 20
200.0
 30
0.0
 11
197.9506146522573
 21
199.9999999999999
 31
0.0
  0
LINE
  5
247
330
1E
100
AcDbEntity
  8
BASE
  6
Continuous
100
AcDbLine
 10
187.5
 20
185.0
 30
0.0
 11
187.5
 21
200.0
 31
0.0
  0
LINE
  5
248
330
1E
100
AcDbEntity
  8
BASE
  6
Continuous
100
AcDbLine
 10
132.4999999999999
 20
194.7530870239402
 30
0.0
 11
132.4999999999999
 21
127.5
 31
0.0
  0
LINE
  5
249
330
1E
100
AcDbEntity
  8
BASE
  6
Continuous
100
AcDbLine
 10
125.0
 20
87.5
 30
0.0
 11
62.5
 21
87.5
 31
0.0
  0
LINE
  5
24A
330
1E
100
AcDbEntity
  8
BASE
  6
Continuous
100
AcDbLine
 10
125.0
 20
82.5
 30
0.0
 11
62.5
 21
82.5
 31
0.0
  0
LINE
  5
24B
330
1E
100
AcDbEntity
  8
BASE
  6
Continuous
100
AcDbLine
 10
137.5
 20
77.5
 30
0.0
 11
62.5
 21
77.5
 31
0.0
  0
LINE
  5
24C
330
1E
100
AcDbEntity
  8
BASE
  6
Continuous
100
AcDbLine
 10
137.5
 20
72.5
 30
0.0
 11
62.5
 21
72.5
 31
0.0
  0
LINE
  5
24D
330
1E
100
AcDbEntity
  8
BASE
  6
Continuous
100
AcDbLine
 10
165.5126599396553
 20
137.4952890071988
 30
0.0
 11
145.0
 21
137.4952890071988
 31
0.0
  0
LINE
  5
24E
330
1E
100
AcDbEntity
  8
BASE
  6
Continuous
100
AcDbLine
 10
145.0
 20
137.4952890071988
 30
0.0
 11
145.0
 21
122.5
 31
0.0
  0
LINE
  5
24F
330
1E
100
AcDbEntity
  8
BASE
  6
DASHED
100
AcDbLine
 10
145.0
 20
122.5
 30
0.0
 11
145.0
 21
76.1008244206394
 31
0.0
  0
LINE
  5
250
330
1E
100
AcDbEntity
  8
BASE
  6
DASHED
100
AcDbLine
 10
132.4999999999999
 20
127.5
 30
0.0
 11
132.4999999999999
 21
86.10082442063941
 31
0.0
  0
LINE
  5
251
330
1E
100
AcDbEntity
  8
BASE
  6
DASHED
100
AcDbLine
 10
87.5
 20
127.5
 30
0.0
 11
87.5
 21
116.1008244206394
 31
0.0
  0
TEXT
  5
252
330
1E
100
AcDbEntity
  8
BASE
  6
Continuous
100
AcDbText
 10
74.32499699275879
 20
140.010708896716
 30
0.0
 40
2.0
  1
SGR
  7
ROMANS
100
AcDbText
  0
LINE
  5
253
330
1E
100
AcDbEntity
  8
BASE
  6
Continuous
100
AcDbLine
 10
167.5
 20
157.5
 30
0.0
 11
167.5
 21
152.5
 31
0.0
  0
INSERT
  5
254
330
1E
100
AcDbEntity
  8
BASE
  6
Continuous
100
AcDbBlockReference
  2
BLC29
 10
162.9333157969969
 20
187.0131638363795
 30
0.0
 50
180.0
  0
INSERT
  5
255
330
1E
100
AcDbEntity
  8
BASE
  6
Continuous
100
AcDbBlockReference
  2
BLC29
 10
162.9239964243554
 20
137.3668246051238
 30
0.0
 50
180.0
  0
INSERT
  5
256
330
1E
100
AcDbEntity
  8
BASE
  6
Continuous
100
AcDbBlockReference
  2
BLC29
 10
213.9821446055022
 20
104.8715353263674
 30
0.0
 50
180.0
  0
INSERT
  5
257
330
1E
100
AcDbEntity
  8
BASE
  6
Continuous
100
AcDbBlockReference
  2
BLC29
 10
216.8493652920373
 20
105.1284646736325
 30
0.0
  0
LINE
  5
258
330
1E
100
AcDbEntity
  8
BASE
  6
CENTER
100
AcDbLine
 10
230.0
 20
207.5
 30
0.0
 11
230.0
 21
185.0
 31
0.0
  0
LINE
  5
259
330
1E
100
AcDbEntity
  8
BASE
  6
Continuous
100
AcDbLine
 10
230.0
 20
165.0
 30
0.0
 11
230.0
 21
165.0
 31
0.0
  0
LINE
  5
25A
330
1E
100
AcDbEntity
  8
BASE
  6
Continuous
100
AcDbLine
 10
212.5
 20
127.5
 30
0.0
 11
207.5
 21
127.5
 31
0.0
  0
INSERT
  5
25B
330
1E
100
AcDbEntity
  8
BASE
  6
Continuous
100
AcDbBlockReference
  2
BLC29
 10
210.9705537031207
 20
127.3715334602345
 30
0.0
 50
180.0
  0
LINE
  5
25C
330
1E
100
AcDbEntity
  8
0
  6
Continuous
100
AcDbLine
 10
357.5
 20
245.2110641301634
 30
0.0
 11
377.4999999999999
 21
245.2110641301634
 31
0.0
  0
LINE
  5
25D
330
1E
100
AcDbEntity
  8
0
  6
Continuous
100
AcDbLine
 10
377.4999999999999
 20
245.2110641301634
 30
0.0
 11
377.4999999999999
 21
224.9799200245107
 31
0.0
  0
LINE
  5
25E
330
1E
100
AcDbEntity
  8
0
  6
Continuous
100
AcDbLine
 10
357.5
 20
224.9799200245107
 30
0.0
 11
357.5
 21
245.2110641301634
 31
0.0
  0
LINE
  5
25F
330
1E
100
AcDbEntity
  8
0
  6
Continuous
100
AcDbLine
 10
357.5
 20
224.9799200245107
 30
0.0
 11
377.4999999999999
 21
224.9799200245107
 31
0.0
  0
LINE
  5
260
330
1E
100
AcDbEntity
  8
0
  6
DASHED
100
AcDbLine
 10
62.5
 20
200.0
 30
0.0
 11
49.0386155286529
 21
200.0
 31
0.0
  0
LINE
  5
261
330
1E
100
AcDbEntity
  8
BASE
  6
Continuous
100
AcDbLine
 10
224.2629919219343
 20
104.2571197816594
 30
0.0
 11
225.4796993726802
 21
105.6670565134138
 31
0.0
  0
TEXT
  5
262
330
1E
100
AcDbEntity
  8
BASE
  6
Continuous
100
AcDbText
 10
225.236357882531
 20
106.570297232194
 30
0.0
 40
2.0
  1
9
  7
ROMANS
100
AcDbText
  0
LINE
  5
263
330
1E
100
AcDbEntity
  8
0
  6
DASHED
100
AcDbLine
 10
62.5
 20
117.5
 30
0.0
 11
52.5
 21
117.5
 31
0.0
  0
LINE
  5
264
330
1E
100
AcDbEntity
  8
0
  6
DASHED
100
AcDbLine
 10
62.5
 20
107.4999999999999
 30
0.0
 11
52.5
 21
107.4999999999999
 31
0.0
  0
LINE
  5
265
330
1E
100
AcDbEntity
  8
0
  6
DASHED
100
AcDbLine
 10
62.5
 20
87.5
 30
0.0
 11
52.5
 21
87.5
 31
0.0
  0
LINE
  5
266
330
1E
100
AcDbEntity
  8
0
  6
DASHED
100
AcDbLine
 10
62.5
 20
72.5
 30
0.0
 11
52.5
 21
72.5
 31
0.0
  0
LINE
  5
267
330
1E
100
AcDbEntity
  8
0
  6
Continuous
100
AcDbLine
 10
50.0
 20
118.0
 30
0.0
 11
50.0
 21
107.0
 31
0.0
  0
LINE
  5
268
330
1E
100
AcDbEntity
  8
0
  6
Continuous
100
AcDbLine
 10
50.0
 20
118.0
 30
0.0
 11
51.0
 21
119.0
 31
0.0
  0
LINE
  5
269
330
1E
100
AcDbEntity
  8
0
  6
Continuous
100
AcDbLine
 10
50.0
 20
107.0
 30
0.0
 11
51.0
 21
106.0
 31
0.0
  0
TEXT
  5
26A
330
1E
100
AcDbEntity
  8
0
  6
Continuous
100
AcDbText
 10
42.5
 20
112.0805163029543
 30
0.0
 40
2.0
  1
2)
  7
ROMANS
100
AcDbText
  0
TEXT
  5
26B
330
1E
100
AcDbEntity
  8
0
  6
Continuous
100
AcDbText
 10
42.5
 20
87.0659963807372
 30
0.0
 40
2.0
  1
3)
  7
ROMANS
100
AcDbText
  0
TEXT
  5
26C
330
1E
100
AcDbEntity
  8
0
  6
Continuous
100
AcDbText
 10
42.5
 20
71.4802079176585
 30
0.0
 40
2.0
  1
4)
  7
ROMANS
100
AcDbText
  0
LINE
  5
26D
330
1E
100
AcDbEntity
  8
BASE
  6
Continuous
100
AcDbLine
 10
85.0
 20
117.5
 30
0.0
 11
80.0
 21
117.5
 31
0.0
  0
TEXT
  5
26E
330
1E
100
AcDbEntity
  8
BASE
  6
DASHED
100
AcDbText
 10
189.8875341208083
 20
189.3107118468774
 30
0.0
 40
2.5
  1
U
100
AcDbText
  0
TEXT
  5
26F
330
1E
100
AcDbEntity
  8
BASE
  6
DASHED
100
AcDbText
 10
168.7980482582592
 20
193.4764122909316
 30
0.0
 40
2.5
  1
U
100
AcDbText
  0
TEXT
  5
270
330
1E
100
AcDbEntity
  8
BASE
  6
DASHED
100
AcDbText
 10
168.7980482582592
 20
185.9764122909316
 30
0.0
 40
2.5
  1
U
100
AcDbText
  0
TEXT
  5
271
330
1E
100
AcDbEntity
  8
BASE
  6
Continuous
100
AcDbText
 10
168.4069092565677
 20
189.7631894517228
 30
0.0
 40
1.5
  1
EN
100
AcDbText
  0
LINE
  5
272
330
1E
100
AcDbEntity
  8
BASE
  6
Continuous
100
AcDbLine
 10
172.5
 20
190.5212061441035
 30
0.0
 11
175.0
 21
190.5212061441035
 31
0.0
  0
LINE
  5
273
330
1E
100
AcDbEntity
  8
BASE
  6
Continuous
100
AcDbLine
 10
177.5
 20
190.5212061441035
 30
0.0
 11
175.2755532590327
 21
189.9605637543936
 31
0.0
  0
LINE
  5
274
330
1E
100
AcDbEntity
  8
BASE
  6
Continuous
100
AcDbLine
 10
177.5
 20
190.5212061441035
 30
0.0
 11
180.0
 21
190.5212061441035
 31
0.0
  0
LINE
  5
275
330
1E
100
AcDbEntity
  8
BASE
  6
Continuous
100
AcDbLine
 10
167.5
 20
185.0
 30
0.0
 11
197.9506146522573
 21
185.0
 31
0.0
  0
CIRCLE
  5
276
330
1E
100
AcDbEntity
  8
BASE
  6
Continuous
100
AcDbCircle
 10
166.4997007623166
 20
190.5166913734135
 30
0.0
 40
1.0
  0
LINE
  5
277
330
1E
100
AcDbEntity
  8
BASE
  6
Continuous
100
AcDbLine
 10
186.4679272172966
 20
195.133770835876
 30
0.0
 11
186.4679272172966
 21
193.3456394232855
 31
0.0
  0
LINE
  5
278
330
1E
100
AcDbEntity
  8
BASE
  6
Continuous
100
AcDbLine
 10
183.490395771664
 20
196.4866550560701
 30
0.0
 11
184.3910725434746
 21
195.3629060076917
 31
0.0
  0
LINE
  5
279
330
1E
100
AcDbEntity
  8
BASE
  6
Continuous
100
AcDbLine
 10
181.0684078138542
 20
193.1208896136098
 30
0.0
 11
183.9445185137534
 21
195.9494481939185
 31
0.0
  0
LINE
  5
27A
330
1E
100
AcDbEntity
  8
BASE
  6
Continuous
100
AcDbLine
 10
178.6842634178851
 20
194.2884922833884
 30
0.0
 11
186.4724684447174
 21
194.2884922833884
 31
0.0
  0
LINE
  5
27B
330
1E
100
AcDbEntity
  8
BASE
  6
Continuous
100
AcDbLine
 10
178.6532316971756
 20
195.133770835876
 30
0.0
 11
178.6532316971756
 21
193.3456394232855
 31
0.0
  0
LINE
  5
27C
330
1E
100
AcDbEntity
  8
BASE
  6
Continuous
100
AcDbLine
 10
178.6532316971756
 20
187.6399181851965
 30
0.0
 11
178.6532316971756
 21
185.851786772606
 31
0.0
  0
LINE
  5
27D
330
1E
100
AcDbEntity
  8
BASE
  6
Continuous
100
AcDbLine
 10
178.6842634178851
 20
186.7946396327089
 30
0.0
 11
186.4724684447174
 21
186.7946396327089
 31
0.0
  0
LINE
  5
27E
330
1E
100
AcDbEntity
  8
BASE
  6
Continuous
100
AcDbLine
 10
181.0684078138542
 20
185.6270369629303
 30
0.0
 11
183.9445185137534
 21
188.455595543239
 31
0.0
  0
LINE
  5
27F
330
1E
100
AcDbEntity
  8
BASE
  6
Continuous
100
AcDbLine
 10
183.490395771664
 20
188.9928024053906
 30
0.0
 11
184.3910725434746
 21
187.8690533570122
 31
0.0
  0
LINE
  5
280
330
1E
100
AcDbEntity
  8
BASE
  6
Continuous
100
AcDbLine
 10
186.4679272172966
 20
187.6399181851965
 30
0.0
 11
186.4679272172966
 21
185.851786772606
 31
0.0
  0
LINE
  5
281
330
1E
100
AcDbEntity
  8
BASE
  6
Continuous
100
AcDbLine
 10
177.882213584989
 20
187.1812314773187
 30
0.0
 11
175.5364480727634
 21
185.9913123285743
 31
0.0
  0
LINE
  5
282
330
1E
100
AcDbEntity
  8
BASE
  6
Continuous
100
AcDbLine
 10
174.1020439173344
 20
188.5165851886875
 30
0.0
 11
176.44780942956
 21
187.1812314773187
 31
0.0
  0
LINE
  5
283
330
1E
100
AcDbEntity
  8
BASE
  6
Continuous
100
AcDbLine
 10
176.44780942956
 20
187.1812314773187
 30
0.0
 11
174.1020439173344
 21
185.9913123285743
 31
0.0
  0
LINE
  5
284
330
1E
100
AcDbEntity
  8
BASE
  6
Continuous
100
AcDbLine
 10
175.5364480727634
 20
188.5165851886875
 30
0.0
 11
177.882213584989
 21
187.1812314773187
 31
0.0
  0
LINE
  5
285
330
1E
100
AcDbEntity
  8
BASE
  6
Continuous
100
AcDbLine
 10
82.50381820846527
 20
130.0
 30
0.0
 11
94.24392690741017
 21
130.0
 31
0.0
  0
LINE
  5
286
330
1E
100
AcDbEntity
  8
BASE
  6
Continuous
100
AcDbLine
 10
82.50381820846527
 20
135.0
 30
0.0
 11
82.50381820846527
 21
130.0
 31
0.0
  0
LINE
  5
287
330
1E
100
AcDbEntity
  8
BASE
  6
Continuous
100
AcDbLine
 10
94.24392690741017
 20
135.0
 30
0.0
 11
94.24392690741017
 21
130.0
 31
0.0
  0
LINE
  5
288
330
1E
100
AcDbEntity
  8
BASE
  6
Continuous
100
AcDbLine
 10
94.24392690741017
 20
135.0
 30
0.0
 11
82.50381820846527
 21
135.0
 31
0.0
  0
LINE
  5
289
330
1E
100
AcDbEntity
  8
BASE
  6
Continuous
100
AcDbLine
 10
87.5
 20
130.0
 30
0.0
 11
87.5
 21
127.5
 31
0.0
  0
LINE
  5
28A
330
1E
100
AcDbEntity
  8
BASE
  6
Continuous
100
AcDbLine
 10
87.5
 20
130.0
 30
0.0
 11
87.5
 21
127.5
 31
0.0
  0
LINE
  5
28B
330
1E
100
AcDbEntity
  8
BASE
  6
Continuous
100
AcDbLine
 10
88.1238118827178
 20
132.7891950622866
 30
0.0
 11
85.77804637049217
 21
131.5992759135421
 31
0.0
  0
LINE
  5
28C
330
1E
100
AcDbEntity
  8
BASE
  6
Continuous
100
AcDbLine
 10
85.77000462647225
 20
130.7992621767828
 30
0.0
 11
88.15346505955284
 21
131.9874540179833
 31
0.0
  0
LINE
  5
28D
330
1E
100
AcDbEntity
  8
BASE
  6
Continuous
100
AcDbLine
 10
85.77804637049217
 20
134.1245487736553
 30
0.0
 11
88.1238118827178
 21
132.7891950622866
 31
0.0
  0
TEXT
  5
28E
330
1E
100
AcDbEntity
  8
BASE
  6
Continuous
100
AcDbText
 10
90.21190816084976
 20
131.4644551552293
 30
0.0
 40
2.5
  1
1
 11
90.21190816084976
 21
130.631121821896
 31
0.0
100
AcDbText
 73
     1
  0
LINE
  5
28F
330
1E
100
AcDbEntity
  8
BASE
  6
Continuous
100
AcDbLine
 10
85.0
 20
137.5
 30
0.0
 11
83.28591352215198
 21
142.5862972944675
 31
0.0
  0
LINE
  5
290
330
1E
100
AcDbEntity
  8
BASE
  6
Continuous
100
AcDbLine
 10
85.0
 20
135.0
 30
0.0
 11
85.0
 21
137.5
 31
0.0
  0
LINE
  5
291
330
1E
100
AcDbEntity
  8
BASE
  6
Continuous
100
AcDbLine
 10
91.74392690741017
 20
135.0
 30
0.0
 11
91.74392690741017
 21
137.5
 31
0.0
  0
LINE
  5
292
330
1E
100
AcDbEntity
  8
BASE
  6
Continuous
100
AcDbLine
 10
91.74392690741017
 20
137.5
 30
0.0
 11
90.02984042956216
 21
142.5862972944675
 31
0.0
  0
LINE
  5
293
330
1E
100
AcDbEntity
  8
BASE
  6
Continuous
100
AcDbLine
 10
167.5
 20
194.7530870239402
 30
0.0
 11
85.0
 21
194.7530870239402
 31
0.0
  0
LINE
  5
294
330
1E
100
AcDbEntity
  8
BASE
  6
Continuous
100
AcDbLine
 10
85.0
 20
142.5
 30
0.0
 11
85.0
 21
194.7530870239402
 31
0.0
  0
LINE
  5
295
330
1E
100
AcDbEntity
  8
BASE
  6
Continuous
100
AcDbLine
 10
167.5
 20
187.1416316986096
 30
0.0
 11
91.74392690741017
 21
187.1416316986096
 31
0.0
  0
LINE
  5
296
330
1E
100
AcDbEntity
  8
BASE
  6
Continuous
100
AcDbLine
 10
91.74392690741017
 20
142.5
 30
0.0
 11
91.74392690741017
 21
187.1416316986096
 31
0.0
  0
TEXT
  5
297
330
1E
100
AcDbEntity
  8
BASE
  6
Continuous
100
AcDbText
 10
85.69993964623177
 20
140.0
 30
0.0
 40
2.0
  1
3
  7
ROMANS
100
AcDbText
  0
TEXT
  5
298
330
1E
100
AcDbEntity
  8
BASE
  6
Continuous
100
AcDbText
 10
92.44386655364193
 20
140.0
 30
0.0
 40
2.0
  1
4
  7
ROMANS
100
AcDbText
  0
LINE
  5
299
330
1E
100
AcDbEntity
  8
BASE
  6
Continuous
100
AcDbLine
 10
165.4998358592964
 20
198.0142976011434
 30
0.0
 11
85.0
 21
198.0142976011434
 31
0.0
  0
INSERT
  5
29A
330
1E
100
AcDbEntity
  8
BASE
  6
Continuous
100
AcDbBlockReference
  2
BLC29
 10
162.9333157969969
 20
194.6246385038796
 30
0.0
 50
180.0
  0
LINE
  5
29B
330
1E
100
AcDbEntity
  8
BASE
  6
Continuous
100
AcDbLine
 10
155.0
 20
190.5183597576953
 30
0.0
 11
155.0
 21
198.0142976011434
 31
0.0
  0
LINE
  5
29C
330
1E
100
AcDbEntity
  8
BASE
  6
Continuous
100
AcDbLine
 10
165.499707179899
 20
190.5183597576953
 30
0.0
 11
155.0
 21
190.5183597576953
 31
0.0
  0
LINE
  5
29D
330
1E
100
AcDbEntity
  8
BASE
  6
Continuous
100
AcDbLine
 10
85.0
 20
198.0142976011434
 30
0.0
 11
85.0
 21
202.4999999999999
 31
0.0
  0
LINE
  5
29E
330
1E
100
AcDbEntity
  8
BASE
  6
Continuous
100
AcDbLine
 10
105.0
 20
102.4999999999999
 30
0.0
 11
105.0
 21
105.0
 31
0.0
  0
LINE
  5
29F
330
1E
100
AcDbEntity
  8
BASE
  6
Continuous
100
AcDbLine
 10
105.0
 20
102.4999999999999
 30
0.0
 11
62.5
 21
102.4999999999999
 31
0.0
  0
LINE
  5
2A0
330
1E
100
AcDbEntity
  8
BASE
  6
Continuous
100
AcDbLine
 10
109.9999999999999
 20
107.4999999999999
 30
0.0
 11
104.2560759482168
 21
104.2852966948171
 31
0.0
  0
LINE
  5
2A1
330
1E
100
AcDbEntity
  8
BASE
  6
Continuous
100
AcDbLine
 10
80.0
 20
107.4999999999999
 30
0.0
 11
105.0
 21
107.4999999999999
 31
0.0
  0
LINE
  5
2A2
330
1E
100
AcDbEntity
  8
BASE
  6
Continuous
100
AcDbLine
 10
109.9999999999999
 20
107.4999999999999
 30
0.0
 11
162.5
 21
107.4999999999999
 31
0.0
  0
LINE
  5
2A3
330
1E
100
AcDbEntity
  8
BASE
  6
Continuous
100
AcDbLine
 10
130.0
 20
82.5
 30
0.0
 11
130.0
 21
85.0
 31
0.0
  0
LINE
  5
2A4
330
1E
100
AcDbEntity
  8
BASE
  6
Continuous
100
AcDbLine
 10
130.0
 20
82.5
 30
0.0
 11
125.0
 21
82.5
 31
0.0
  0
LINE
  5
2A5
330
1E
100
AcDbEntity
  8
BASE
  6
Continuous
100
AcDbLine
 10
134.9999999999999
 20
87.5
 30
0.0
 11
129.2560759482168
 21
84.28529669481719
 31
0.0
  0
LINE
  5
2A6
330
1E
100
AcDbEntity
  8
BASE
  6
Continuous
100
AcDbLine
 10
125.0
 20
87.5
 30
0.0
 11
130.0
 21
87.5
 31
0.0
  0
LINE
  5
2A7
330
1E
100
AcDbEntity
  8
BASE
  6
Continuous
100
AcDbLine
 10
142.5
 20
72.5
 30
0.0
 11
142.5
 21
75.0
 31
0.0
  0
LINE
  5
2A8
330
1E
100
AcDbEntity
  8
BASE
  6
Continuous
100
AcDbLine
 10
142.5
 20
72.5
 30
0.0
 11
137.5
 21
72.5
 31
0.0
  0
LINE
  5
2A9
330
1E
100
AcDbEntity
  8
BASE
  6
Continuous
100
AcDbLine
 10
147.4999999999999
 20
77.5
 30
0.0
 11
141.7560759482168
 21
74.28529669481719
 31
0.0
  0
LINE
  5
2AA
330
1E
100
AcDbEntity
  8
BASE
  6
Continuous
100
AcDbLine
 10
137.5
 20
77.5
 30
0.0
 11
142.5
 21
77.5
 31
0.0
  0
LINE
  5
2AB
330
1E
100
AcDbEntity
  8
BASE
  6
Continuous
100
AcDbLine
 10
147.4999999999999
 20
77.5
 30
0.0
 11
152.5
 21
77.5
 31
0.0
  0
LINE
  5
2AC
330
1E
100
AcDbEntity
  8
BASE
  6
Continuous
100
AcDbLine
 10
197.9506146522573
 20
192.5
 30
0.0
 11
207.4999999999999
 21
192.4999999999999
 31
0.0
  0
LINE
  5
2AD
330
1E
100
AcDbEntity
  8
BASE
  6
Continuous
100
AcDbLine
 10
207.4999999999999
 20
192.4999999999999
 30
0.0
 11
207.5
 21
127.5
 31
0.0
  0
TEXT
  5
2AE
330
1E
100
AcDbEntity
  8
0
  6
DASHED
100
AcDbText
 10
363.5729706287812
 20
241.1804047583244
 30
0.0
 40
2.5
  1
U
100
AcDbText
  0
LINE
  5
2AF
330
1E
100
AcDbEntity
  8
0
  6
Continuous
100
AcDbLine
 10
369.1864639876027
 20
243.8192878884615
 30
0.0
 11
371.5322294998283
 21
242.4839341770927
 31
0.0
  0
LINE
  5
2B0
330
1E
100
AcDbEntity
  8
0
  6
Continuous
100
AcDbLine
 10
371.5322294998283
 20
242.4839341770927
 30
0.0
 11
369.1864639876027
 21
241.2940150283483
 31
0.0
  0
LINE
  5
2B1
330
1E
100
AcDbEntity
  8
0
  6
Continuous
100
AcDbLine
 10
370.7115244794331
 20
233.740994058429
 30
0.0
 11
373.0572899916587
 21
232.4056403470602
 31
0.0
  0
LINE
  5
2B2
330
1E
100
AcDbEntity
  8
0
  6
Continuous
100
AcDbLine
 10
371.207515720816
 20
232.4056403470602
 30
0.0
 11
368.8617502085904
 21
231.2157211983158
 31
0.0
  0
LINE
  5
2B3
330
1E
100
AcDbEntity
  8
0
  6
Continuous
100
AcDbLine
 10
368.8617502085904
 20
233.740994058429
 30
0.0
 11
371.207515720816
 21
232.4056403470602
 31
0.0
  0
LINE
  5
2B4
330
1E
100
AcDbEntity
  8
0
  6
Continuous
100
AcDbLine
 10
373.0572899916587
 20
232.4056403470602
 30
0.0
 11
370.7115244794331
 21
231.2157211983158
 31
0.0
  0
TEXT
  5
2B5
330
1E
100
AcDbEntity
  8
0
  6
DASHED
100
AcDbText
 10
363.5577545495152
 20
231.2008211606731
 30
0.0
 40
2.5
  1
U
100
AcDbText
  0
LINE
  5
2B6
330
1E
100
AcDbEntity
  8
0
  6
Continuous
100
AcDbLine
 10
363.1002754361849
 20
237.8619804465451
 30
0.0
 11
363.1002754361849
 21
236.0738490339546
 31
0.0
  0
LINE
  5
2B7
330
1E
100
AcDbEntity
  8
0
  6
Continuous
100
AcDbLine
 10
363.1313071568943
 20
237.0167018940575
 30
0.0
 11
370.9195121837266
 21
237.0167018940575
 31
0.0
  0
LINE
  5
2B8
330
1E
100
AcDbEntity
  8
0
  6
Continuous
100
AcDbLine
 10
365.5154515528634
 20
235.8490992242789
 30
0.0
 11
368.3915622527626
 21
238.6776578045876
 31
0.0
  0
LINE
  5
2B9
330
1E
100
AcDbEntity
  8
0
  6
Continuous
100
AcDbLine
 10
367.96085879381
 20
239.2148646667393
 30
0.0
 11
368.8615355656205
 21
238.0911156183608
 31
0.0
  0
LINE
  5
2BA
330
1E
100
AcDbEntity
  8
0
  6
Continuous
100
AcDbLine
 10
370.9149709563058
 20
237.8619804465451
 30
0.0
 11
370.9149709563058
 21
236.0738490339546
 31
0.0
  0
TEXT
  5
2BB
330
1E
100
AcDbEntity
  8
0
  6
DASHED
100
AcDbText
 10
344.2109520423729
 20
216.7989326752051
 30
0.0
 40
2.0
  1
NEUTRAL VOLTAGE RELAY
  7
ROMANS
100
AcDbText
  0
TEXT
  5
2BC
330
1E
100
AcDbEntity
  8
0
  6
DASHED
100
AcDbText
 10
344.2109520423729
 20
213.4655993418717
 30
0.0
 40
2.0
  1
NOLLPUNKTSSPŽNNINGSSKYDD
  7
ROMANS
100
AcDbText
  0
LINE
  5
2BD
330
1E
100
AcDbEntity
  8
0
  6
DASHED
100
AcDbLine
 10
157.5
 20
65.0
 30
0.0
 11
157.5
 21
57.5
 31
0.0
  0
TEXT
  5
2BE
330
1E
100
AcDbEntity
  8
0
  6
Continuous
100
AcDbText
 10
318.5410113921566
 20
88.42480482243541
 30
0.0
 40
2.0
  1
NOTE. ONLY CONTACT (A) IS CAPABLE OF
  7
ROMANS
100
AcDbText
  0
TEXT
  5
2BF
330
1E
100
AcDbEntity
  8
0
  6
Continuous
100
AcDbText
 10
319.2105188798565
 20
85.09147148910207
 30
0.0
 40
2.0
  1
     CONTROLLING DIRECTLY THE 
  7
ROMANS
100
AcDbText
  0
TEXT
  5
2C0
330
1E
100
AcDbEntity
  8
0
  6
Continuous
100
AcDbText
 10
319.2105188798565
 20
81.75813815576873
 30
0.0
 40
2.0
  1
     BREAKER TRIP COIL
  7
ROMANS
100
AcDbText
  0
TEXT
  5
2C1
330
1E
100
AcDbEntity
  8
0
  6
Continuous
100
AcDbText
 10
318.5410113921566
 20
71.09625774493264
 30
0.0
 40
2.0
  1
OBS.  ENDAST KONTAKT (A) ŽR DIMENSIO-
  7
ROMANS
100
AcDbText
  0
TEXT
  5
2C2
330
1E
100
AcDbEntity
  8
0
  6
Continuous
100
AcDbText
 10
319.2105188798565
 20
67.7629244115993
 30
0.0
 40
2.0
  1
     NERAD F™R DIREKT ANSLUTNING TILL
  7
ROMANS
100
AcDbText
  0
TEXT
  5
2C3
330
1E
100
AcDbEntity
  8
0
  6
Continuous
100
AcDbText
 10
319.2105188798565
 20
64.42959107826595
 30
0.0
 40
2.0
  1
     UTL™SNINGSKRETSEN
  7
ROMANS
100
AcDbText
  0
LINE
  5
2C4
330
1E
100
AcDbEntity
  8
PAKSU
100
AcDbLine
 10
0.2370990874900258
 20
0.2379992524221779
 30
0.0
 11
0.2370990874900258
 21
262.7379992524221
 31
0.0
  0
LINE
  5
2C5
330
1E
100
AcDbEntity
  8
PAKSU
100
AcDbLine
 10
392.23709908749
 20
262.7379992524221
 30
0.0
 11
392.23709908749
 21
0.2379992524221779
 31
0.0
  0
LINE
  5
2C6
330
1E
100
AcDbEntity
  8
PAKSU
100
AcDbLine
 10
0.2370990874900258
 20
0.2379992524221779
 30
0.0
 11
392.23709908749
 21
0.2379992524221779
 31
0.0
  0
TEXT
  5
2C7
330
1E
100
AcDbEntity
  8
RAAMI
100
AcDbText
 10
42.23709908749002
 20
5.598528822849904
 30
0.0
 40
2.5
  1
C
  7
ROMANS
100
AcDbText
  0
TEXT
  5
2C8
330
1E
100
AcDbEntity
  8
RAAMI
100
AcDbText
 10
42.23709908749002
 20
1.184271693018649
 30
0.0
 40
2.5
  1
B
  7
ROMANS
100
AcDbText
  0
TEXT
  5
2C9
330
1E
100
AcDbEntity
  8
RAAMI
100
AcDbText
 10
257.4070059842234
 20
1.741782898647898
 30
0.0
 40
3.0
  1
Power
 41
0.8
  7
ROMANS
100
AcDbText
  0
TEXT
  5
2CA
330
1E
100
AcDbEntity
  8
RAAMI
100
AcDbText
 10
273.23709908749
 20
7.237999252422177
 30
0.0
 40
1.399999999999999
  1
VAST.OSASTO RESP.DEPT.
  7
ROMANS
100
AcDbText
  0
TEXT
  5
2CB
330
1E
100
AcDbEntity
  8
RAAMI
100
AcDbText
 10
210.23709908749
 20
32.23799925242218
 30
0.0
 40
1.399999999999999
  1
TEKI  PREPARED
  7
ROMANS
100
AcDbText
  0
LINE
  5
2CC
330
1E
100
AcDbEntity
  8
OHUT
100
AcDbLine
 10
271.23709908749
 20
9.737999252422177
 30
0.0
 11
271.23709908749
 21
0.2379992524221779
 31
0.0
  0
LINE
  5
2CD
330
1E
100
AcDbEntity
  8
OHUT
100
AcDbLine
 10
257.23709908749
 20
9.737999252422177
 30
0.0
 11
257.23709908749
 21
35.23799925242217
 31
0.0
  0
LINE
  5
2CE
330
1E
100
AcDbEntity
  8
OHUT
100
AcDbLine
 10
40.73709908749002
 20
4.737999252422177
 30
0.0
 11
209.23709908749
 21
4.737999252422177
 31
0.0
  0
LINE
  5
2CF
330
1E
100
AcDbEntity
  8
OHUT
100
AcDbLine
 10
46.73709908749002
 20
0.2379992524221779
 30
0.0
 11
46.73709908749002
 21
9.237999252422177
 31
0.0
  0
LINE
  5
2D0
330
1E
100
AcDbEntity
  8
OHUT
100
AcDbLine
 10
46.73709908749002
 20
9.237999252422177
 30
0.0
 11
209.23709908749
 21
9.237999252422177
 31
0.0
  0
TEXT
  5
2D1
330
1E
100
AcDbEntity
  8
RAAMI
100
AcDbText
 10
27.73709908749002
 20
2.471332585755512
 30
0.0
 40
1.399999999999999
  1
REVISION
  7
ROMANS
100
AcDbText
  0
TEXT
  5
2D2
330
1E
100
AcDbEntity
  8
RAAMI
100
AcDbText
 10
27.73709908749002
 20
4.737999252422177
 30
0.0
 40
1.399999999999999
  1
MUUTOS
  7
ROMANS
100
AcDbText
  0
LINE
  5
2D3
330
1E
100
AcDbEntity
  8
OHUT
100
AcDbLine
 10
282.23709908749
 20
9.737999252422177
 30
0.0
 11
282.23709908749
 21
18.23799925242217
 31
0.0
  0
TEXT
  5
2D4
330
1E
100
AcDbEntity
  8
RAAMI
100
AcDbText
 10
237.73709908749
 20
1.737999252422177
 30
0.0
 40
3.0
  1
Str”mberg
 41
0.8
  7
ROMANS
100
AcDbText
  0
TEXT
  5
2D5
330
1E
100
AcDbEntity
  8
RAAMI
100
AcDbText
 10
229.73709908749
 20
1.737999252422177
 30
0.0
 40
3.0
  1
ABB 
 41
0.8
  7
ROMANS
100
AcDbText
  0
LINE
  5
2D6
330
1E
100
AcDbEntity
  8
RAAMI
100
AcDbLine
 10
223.13709908749
 20
1.737999252422177
 30
0.0
 11
223.13709908749
 21
5.097999252422177
 31
0.0
  0
LINE
  5
2D7
330
1E
100
AcDbEntity
  8
RAAMI
100
AcDbLine
 10
223.13709908749
 20
8.737999252422177
 30
0.0
 11
225.09709908749
 21
8.737999252422177
 31
0.0
  0
LINE
  5
2D8
330
1E
100
AcDbEntity
  8
RAAMI
100
AcDbLine
 10
225.09709908749
 20
8.737999252422177
 30
0.0
 11
225.09709908749
 21
5.377999252422178
 31
0.0
  0
LINE
  5
2D9
330
1E
100
AcDbEntity
  8
RAAMI
100
AcDbLine
 10
225.09709908749
 20
5.377999252422178
 30
0.0
 11
223.13709908749
 21
5.377999252422178
 31
0.0
  0
LINE
  5
2DA
330
1E
100
AcDbEntity
  8
RAAMI
100
AcDbLine
 10
223.13709908749
 20
5.097999252422177
 30
0.0
 11
225.09709908749
 21
5.097999252422177
 31
0.0
  0
LINE
  5
2DB
330
1E
100
AcDbEntity
  8
RAAMI
100
AcDbLine
 10
225.09709908749
 20
5.097999252422177
 30
0.0
 11
225.09709908749
 21
1.737999252422177
 31
0.0
  0
LINE
  5
2DC
330
1E
100
AcDbEntity
  8
RAAMI
100
AcDbLine
 10
225.09709908749
 20
1.737999252422177
 30
0.0
 11
223.13709908749
 21
1.737999252422177
 31
0.0
  0
LINE
  5
2DD
330
1E
100
AcDbEntity
  8
RAAMI
100
AcDbLine
 10
223.13709908749
 20
5.377999252422178
 30
0.0
 11
223.13709908749
 21
8.737999252422177
 31
0.0
  0
ARC
  5
2DE
330
1E
100
AcDbEntity
  8
RAAMI
100
AcDbCircle
 10
225.93709908749
 20
7.162999252422174
 30
0.0
 40
1.574999999999998
100
AcDbArc
 50
298.4558593394117
 51
90.0524369955635
  0
LINE
  5
2DF
330
1E
100
AcDbEntity
  8
RAAMI
100
AcDbLine
 10
225.37709908749
 20
8.737999252422177
 30
0.0
 11
225.9356576504909
 21
8.737998592821838
 31
0.0
  0
LINE
  5
2E0
330
1E
100
AcDbEntity
  8
RAAMI
100
AcDbLine
 10
225.37709908749
 20
8.737999252422177
 30
0.0
 11
225.37709908749
 21
5.377999252422178
 31
0.0
  0
LINE
  5
2E1
330
1E
100
AcDbEntity
  8
RAAMI
100
AcDbLine
 10
225.37709908749
 20
5.377999252422178
 30
0.0
 11
227.3615418540271
 21
5.377999252422178
 31
0.0
  0
LINE
  5
2E2
330
1E
100
AcDbEntity
  8
RAAMI
100
AcDbLine
 10
227.61709908749
 20
5.097999252422177
 30
0.0
 11
225.37709908749
 21
5.097999252422177
 31
0.0
  0
LINE
  5
2E3
330
1E
100
AcDbEntity
  8
RAAMI
100
AcDbLine
 10
225.37709908749
 20
5.097999252422177
 30
0.0
 11
225.37709908749
 21
1.737999252422177
 31
0.0
  0
ARC
  5
2E4
330
1E
100
AcDbEntity
  8
RAAMI
100
AcDbCircle
 10
225.93709908749
 20
3.837999252422179
 30
0.0
 40
2.099999999999998
100
AcDbArc
 50
269.9377244294032
 51
37.05655321680703
  0
LINE
  5
2E5
330
1E
100
AcDbEntity
  8
RAAMI
100
AcDbLine
 10
225.37709908749
 20
1.737999252422177
 30
0.0
 11
225.9348165690634
 21
1.738000492872633
 31
0.0
  0
ARC
  5
2E6
330
1E
100
AcDbEntity
  8
RAAMI
100
AcDbCircle
 10
225.93709908749
 20
3.837999252422179
 30
0.0
 40
2.099999999999998
100
AcDbArc
 50
47.28621969132301
 51
68.78799932186918
  0
INSERT
  5
2E7
330
1E
100
AcDbEntity
  8
RAAMI
100
AcDbBlockReference
  2
*X9
 10
215.64709908749
 20
1.737999252422177
 30
0.0
 41
0.7
 42
0.7
 43
0.7
  0
INSERT
  5
2E8
330
1E
100
AcDbEntity
  8
RAAMI
100
AcDbBlockReference
  2
*X10
 10
215.64709908749
 20
1.737999252422177
 30
0.0
 41
0.7
 42
0.7
 43
0.7
  0
INSERT
  5
2E9
330
1E
100
AcDbEntity
  8
RAAMI
100
AcDbBlockReference
  2
*X11
 10
215.64709908749
 20
1.737999252422177
 30
0.0
 41
0.7
 42
0.7
 43
0.7
  0
INSERT
  5
2EA
330
1E
100
AcDbEntity
  8
RAAMI
100
AcDbBlockReference
  2
*X12
 10
215.64709908749
 20
1.737999252422177
 30
0.0
 41
0.7
 42
0.7
 43
0.7
  0
INSERT
  5
2EB
330
1E
100
AcDbEntity
  8
RAAMI
100
AcDbBlockReference
  2
*X12
 10
210.18709908749
 20
1.737999252422177
 30
0.0
 41
0.7
 42
0.7
 43
0.7
  0
INSERT
  5
2EC
330
1E
100
AcDbEntity
  8
RAAMI
100
AcDbBlockReference
  2
*X11
 10
210.18709908749
 20
1.737999252422177
 30
0.0
 41
0.7
 42
0.7
 43
0.7
  0
INSERT
  5
2ED
330
1E
100
AcDbEntity
  8
RAAMI
100
AcDbBlockReference
  2
*X10
 10
210.18709908749
 20
1.737999252422177
 30
0.0
 41
0.7
 42
0.7
 43
0.7
  0
INSERT
  5
2EE
330
1E
100
AcDbEntity
  8
RAAMI
100
AcDbBlockReference
  2
*X9
 10
210.18709908749
 20
1.737999252422177
 30
0.0
 41
0.7
 42
0.7
 43
0.7
  0
ARC
  5
2EF
330
1E
100
AcDbEntity
  8
RAAMI
100
AcDbCircle
 10
220.47709908749
 20
3.837999252422179
 30
0.0
 40
2.099999999999998
100
AcDbArc
 50
47.28621969132301
 51
68.78799932186918
  0
LINE
  5
2F0
330
1E
100
AcDbEntity
  8
RAAMI
100
AcDbLine
 10
219.91709908749
 20
1.737999252422177
 30
0.0
 11
220.4748165690634
 21
1.738000492872633
 31
0.0
  0
ARC
  5
2F1
330
1E
100
AcDbEntity
  8
RAAMI
100
AcDbCircle
 10
220.47709908749
 20
3.837999252422179
 30
0.0
 40
2.099999999999998
100
AcDbArc
 50
269.9377244294032
 51
37.05655321680703
  0
LINE
  5
2F2
330
1E
100
AcDbEntity
  8
RAAMI
100
AcDbLine
 10
219.91709908749
 20
5.097999252422177
 30
0.0
 11
219.91709908749
 21
1.737999252422177
 31
0.0
  0
LINE
  5
2F3
330
1E
100
AcDbEntity
  8
RAAMI
100
AcDbLine
 10
222.15709908749
 20
5.097999252422177
 30
0.0
 11
219.91709908749
 21
5.097999252422177
 31
0.0
  0
LINE
  5
2F4
330
1E
100
AcDbEntity
  8
RAAMI
100
AcDbLine
 10
219.91709908749
 20
5.377999252422178
 30
0.0
 11
221.9015418540271
 21
5.377999252422178
 31
0.0
  0
LINE
  5
2F5
330
1E
100
AcDbEntity
  8
RAAMI
100
AcDbLine
 10
219.91709908749
 20
8.737999252422177
 30
0.0
 11
219.91709908749
 21
5.377999252422178
 31
0.0
  0
LINE
  5
2F6
330
1E
100
AcDbEntity
  8
RAAMI
100
AcDbLine
 10
219.91709908749
 20
8.737999252422177
 30
0.0
 11
220.4756576504909
 21
8.737998592821838
 31
0.0
  0
ARC
  5
2F7
330
1E
100
AcDbEntity
  8
RAAMI
100
AcDbCircle
 10
220.47709908749
 20
7.162999252422174
 30
0.0
 40
1.574999999999998
100
AcDbArc
 50
298.4558593394117
 51
90.0524369955635
  0
LINE
  5
2F8
330
1E
100
AcDbEntity
  8
RAAMI
100
AcDbLine
 10
217.67709908749
 20
5.377999252422178
 30
0.0
 11
217.67709908749
 21
8.737999252422177
 31
0.0
  0
LINE
  5
2F9
330
1E
100
AcDbEntity
  8
RAAMI
100
AcDbLine
 10
219.63709908749
 20
1.737999252422177
 30
0.0
 11
217.67709908749
 21
1.737999252422177
 31
0.0
  0
LINE
  5
2FA
330
1E
100
AcDbEntity
  8
RAAMI
100
AcDbLine
 10
219.63709908749
 20
5.097999252422177
 30
0.0
 11
219.63709908749
 21
1.737999252422177
 31
0.0
  0
LINE
  5
2FB
330
1E
100
AcDbEntity
  8
RAAMI
100
AcDbLine
 10
217.67709908749
 20
5.097999252422177
 30
0.0
 11
219.63709908749
 21
5.097999252422177
 31
0.0
  0
LINE
  5
2FC
330
1E
100
AcDbEntity
  8
RAAMI
100
AcDbLine
 10
219.63709908749
 20
5.377999252422178
 30
0.0
 11
217.67709908749
 21
5.377999252422178
 31
0.0
  0
LINE
  5
2FD
330
1E
100
AcDbEntity
  8
RAAMI
100
AcDbLine
 10
219.63709908749
 20
8.737999252422177
 30
0.0
 11
219.63709908749
 21
5.377999252422178
 31
0.0
  0
LINE
  5
2FE
330
1E
100
AcDbEntity
  8
RAAMI
100
AcDbLine
 10
217.67709908749
 20
8.737999252422177
 30
0.0
 11
219.63709908749
 21
8.737999252422177
 31
0.0
  0
LINE
  5
2FF
330
1E
100
AcDbEntity
  8
RAAMI
100
AcDbLine
 10
217.67709908749
 20
1.737999252422177
 30
0.0
 11
217.67709908749
 21
5.097999252422177
 31
0.0
  0
INSERT
  5
300
330
1E
100
AcDbEntity
  8
RAAMI
100
AcDbBlockReference
  2
*X8
 10
210.18709908749
 20
1.737999252422177
 30
0.0
 41
0.7
 42
0.7
 43
0.7
  0
INSERT
  5
301
330
1E
100
AcDbEntity
  8
RAAMI
100
AcDbBlockReference
  2
*X7
 10
210.18709908749
 20
1.737999252422177
 30
0.0
 41
0.7
 42
0.7
 43
0.7
  0
INSERT
  5
302
330
1E
100
AcDbEntity
  8
RAAMI
100
AcDbBlockReference
  2
*X6
 10
210.18709908749
 20
1.737999252422177
 30
0.0
 41
0.7
 42
0.7
 43
0.7
  0
INSERT
  5
303
330
1E
100
AcDbEntity
  8
RAAMI
100
AcDbBlockReference
  2
*X5
 10
210.18709908749
 20
1.737999252422177
 30
0.0
 41
0.7
 42
0.7
 43
0.7
  0
LINE
  5
304
330
1E
100
AcDbEntity
  8
RAAMI
100
AcDbLine
 10
211.3569877289154
 20
5.080538227923291
 30
0.0
 11
210.18709908749
 21
1.737999252422177
 31
0.0
  0
LINE
  5
305
330
1E
100
AcDbEntity
  8
RAAMI
100
AcDbLine
 10
213.54709908749
 20
5.097999252422177
 30
0.0
 11
213.54709908749
 21
3.137999252422176
 31
0.0
  0
LINE
  5
306
330
1E
100
AcDbEntity
  8
RAAMI
100
AcDbLine
 10
213.82709908749
 20
5.097999252422177
 30
0.0
 11
213.82709908749
 21
3.137999252422176
 31
0.0
  0
LINE
  5
307
330
1E
100
AcDbEntity
  8
RAAMI
100
AcDbLine
 10
213.82709908749
 20
5.097999252422177
 30
0.0
 11
216.0103556182099
 21
5.097999252422177
 31
0.0
  0
LINE
  5
308
330
1E
100
AcDbEntity
  8
RAAMI
100
AcDbLine
 10
213.82709908749
 20
5.377999252422178
 30
0.0
 11
215.9122127349171
 21
5.377999252422178
 31
0.0
  0
LINE
  5
309
330
1E
100
AcDbEntity
  8
RAAMI
100
AcDbLine
 10
216.0115910012183
 20
5.096593784627025
 30
0.0
 11
217.18709908749
 21
1.737999252422177
 31
0.0
  0
LINE
  5
30A
330
1E
100
AcDbEntity
  8
RAAMI
100
AcDbLine
 10
211.3600815769602
 20
5.097999252422177
 30
0.0
 11
213.54709908749
 21
5.097999252422177
 31
0.0
  0
LINE
  5
30B
330
1E
100
AcDbEntity
  8
RAAMI
100
AcDbLine
 10
211.4590398011296
 20
5.377999252422178
 30
0.0
 11
213.54709908749
 21
5.377999252422178
 31
0.0
  0
LINE
  5
30C
330
1E
100
AcDbEntity
  8
RAAMI
100
AcDbLine
 10
213.54709908749
 20
8.737999252422177
 30
0.0
 11
212.63709908749
 21
8.737999252422177
 31
0.0
  0
LINE
  5
30D
330
1E
100
AcDbEntity
  8
RAAMI
100
AcDbLine
 10
213.82709908749
 20
3.137999252422176
 30
0.0
 11
214.9469924809167
 21
3.137999252422176
 31
0.0
  0
LINE
  5
30E
330
1E
100
AcDbEntity
  8
RAAMI
100
AcDbLine
 10
213.82709908749
 20
8.737999252422177
 30
0.0
 11
213.82709908749
 21
5.377999252422178
 31
0.0
  0
LINE
  5
30F
330
1E
100
AcDbEntity
  8
RAAMI
100
AcDbLine
 10
213.54709908749
 20
8.737999252422177
 30
0.0
 11
213.54709908749
 21
5.377999252422178
 31
0.0
  0
LINE
  5
310
330
1E
100
AcDbEntity
  8
RAAMI
100
AcDbLine
 10
214.73709908749
 20
8.737999252422177
 30
0.0
 11
213.82709908749
 21
8.737999252422177
 31
0.0
  0
LINE
  5
311
330
1E
100
AcDbEntity
  8
RAAMI
100
AcDbLine
 10
214.9481967907755
 20
3.134862957320585
 30
0.0
 11
215.43709908749
 21
1.737999252422177
 31
0.0
  0
LINE
  5
312
330
1E
100
AcDbEntity
  8
RAAMI
100
AcDbLine
 10
214.73709908749
 20
8.737999252422177
 30
0.0
 11
215.9134520127146
 21
5.376990894637707
 31
0.0
  0
LINE
  5
313
330
1E
100
AcDbEntity
  8
RAAMI
100
AcDbLine
 10
212.4258889824527
 20
3.134541809458486
 30
0.0
 11
211.93709908749
 21
1.737999252422177
 31
0.0
  0
LINE
  5
314
330
1E
100
AcDbEntity
  8
RAAMI
100
AcDbLine
 10
212.4258857855872
 20
3.137999252422176
 30
0.0
 11
213.54709908749
 21
3.137999252422176
 31
0.0
  0
LINE
  5
315
330
1E
100
AcDbEntity
  8
RAAMI
100
AcDbLine
 10
212.63709908749
 20
8.737999252422177
 30
0.0
 11
211.4595712478463
 21
5.373633996297456
 31
0.0
  0
LINE
  5
316
330
1E
100
AcDbEntity
  8
RAAMI
100
AcDbLine
 10
215.43709908749
 20
1.737999252422177
 30
0.0
 11
217.18709908749
 21
1.737999252422177
 31
0.0
  0
LINE
  5
317
330
1E
100
AcDbEntity
  8
RAAMI
100
AcDbLine
 10
210.18709908749
 20
1.737999252422177
 30
0.0
 11
211.93709908749
 21
1.737999252422177
 31
0.0
  0
LINE
  5
318
330
1E
100
AcDbEntity
  8
OHUT
100
AcDbLine
 10
369.73709908749
 20
9.737999252422177
 30
0.0
 11
369.73709908749
 21
0.2379992524221779
 31
0.0
  0
TEXT
  5
319
330
1E
100
AcDbEntity
  8
RAAMI
100
AcDbText
 10
371.23709908749
 20
7.237999252422177
 30
0.0
 40
1.399999999999999
  1
PAINOS  REVISION
  7
ROMANS
100
AcDbText
  0
LINE
  5
31A
330
1E
100
AcDbEntity
  8
OHUT
100
AcDbLine
 10
349.73709908749
 20
9.737999252422177
 30
0.0
 11
349.73709908749
 21
18.23799925242217
 31
0.0
  0
TEXT
  5
31B
330
1E
100
AcDbEntity
  8
RAAMI
100
AcDbText
 10
309.23709908749
 20
7.237999252422177
 30
0.0
 40
1.399999999999999
  1
PIIRUSTUS NO  DRAWING NR
  7
ROMANS
100
AcDbText
  0
TEXT
  5
31C
330
1E
100
AcDbEntity
  8
RAAMI
100
AcDbText
 10
309.23709908749
 20
15.73799925242217
 30
0.0
 40
1.399999999999999
  1
KOODI  CODE
  7
ROMANS
100
AcDbText
  0
TEXT
  5
31D
330
1E
100
AcDbEntity
  8
RAAMI
100
AcDbText
 10
309.23709908749
 20
32.73799925242217
 30
0.0
 40
1.399999999999999
  1
NIMITYS  NAME
  7
ROMANS
100
AcDbText
  0
TEXT
  5
31E
330
1E
100
AcDbEntity
  8
RAAMI
100
AcDbText
 10
259.23709908749
 20
15.73799925242217
 30
0.0
 40
1.399999999999999
  1
SUHDE  SCALE
  7
ROMANS
100
AcDbText
  0
TEXT
  5
31F
330
1E
100
AcDbEntity
  8
RAAMI
100
AcDbText
 10
259.23709908749
 20
23.73799925242217
 30
0.0
 40
1.399999999999999
  1
TOLERANSSIT  TOLERANCES
  7
ROMANS
100
AcDbText
  0
TEXT
  5
320
330
1E
100
AcDbEntity
  8
RAAMI
100
AcDbText
 10
259.23709908749
 20
32.73799925242217
 30
0.0
 40
1.399999999999999
  1
LIITTYY  CONCERNING
  7
ROMANS
100
AcDbText
  0
LINE
  5
321
330
1E
100
AcDbEntity
  8
OHUT
100
AcDbLine
 10
307.23709908749
 20
0.2379992524221779
 30
0.0
 11
307.23709908749
 21
35.23799925242217
 31
0.0
  0
TEXT
  5
322
330
1E
100
AcDbEntity
  8
RAAMI
100
AcDbText
 10
209.9799338133564
 20
15.70466591908884
 30
0.0
 40
1.399999999999999
  1
HYVŽKSYI  APPROVED
  7
ROMANS
100
AcDbText
  0
TEXT
  5
323
330
1E
100
AcDbEntity
  8
RAAMI
100
AcDbText
 10
210.23709908749
 20
23.97133258575551
 30
0.0
 40
1.399999999999999
  1
TARKASTI  CHECKED
  7
ROMANS
100
AcDbText
  0
LINE
  5
324
330
1E
100
AcDbEntity
  8
PAKSU
100
AcDbLine
 10
209.23709908749
 20
35.23799925242217
 30
0.0
 11
392.23709908749
 21
35.23799925242217
 31
0.0
  0
LINE
  5
325
330
1E
100
AcDbEntity
  8
OHUT
100
AcDbLine
 10
209.23709908749
 20
26.73799925242217
 30
0.0
 11
307.23709908749
 21
26.73799925242217
 31
0.0
  0
LINE
  5
326
330
1E
100
AcDbEntity
  8
OHUT
100
AcDbLine
 10
209.23709908749
 20
9.737999252422177
 30
0.0
 11
392.23709908749
 21
9.737999252422177
 31
0.0
  0
LINE
  5
327
330
1E
100
AcDbEntity
  8
OHUT
100
AcDbLine
 10
209.23709908749
 20
18.23799925242217
 30
0.0
 11
392.23709908749
 21
18.23799925242217
 31
0.0
  0
LINE
  5
328
330
1E
100
AcDbEntity
  8
PAKSU
100
AcDbLine
 10
392.23709908749
 20
0.2379992524221779
 30
0.0
 11
392.23709908749
 21
35.23799925242217
 31
0.0
  0
LINE
  5
329
330
1E
100
AcDbEntity
  8
PAKSU
100
AcDbLine
 10
209.23709908749
 20
0.2379992524221779
 30
0.0
 11
209.23709908749
 21
35.23799925242217
 31
0.0
  0
LINE
  5
32A
330
1E
100
AcDbEntity
  8
PAKSU
100
AcDbLine
 10
209.23709908749
 20
0.2379992524221779
 30
0.0
 11
392.23709908749
 21
0.2379992524221779
 31
0.0
  0
LINE
  5
32B
330
1E
100
AcDbEntity
  8
RAAMI
100
AcDbLine
 10
18.23709908749002
 20
0.2379992524221779
 30
0.0
 11
0.2370990874900258
 21
0.2379992524221779
 31
0.0
  0
LINE
  5
32C
330
1E
100
AcDbEntity
  8
PAKSU
100
AcDbLine
 10
0.2370990874900258
 20
262.7379992524221
 30
0.0
 11
392.23709908749
 21
262.7379992524221
 31
0.0
  0
TEXT
  5
32D
330
1E
100
AcDbEntity
  8
RAAMI
  6
Continuous
100
AcDbText
 10
291.1520687135214
 20
12.30927577927123
 30
0.0
 40
3.0
  1
A3
100
AcDbText
  0
TEXT
  5
32E
330
1E
100
AcDbEntity
  8
RAAMI
  6
Continuous
100
AcDbText
 10
351.8693206179115
 20
15.73791364740576
 30
0.0
 40
1.399999999999999
  1
LEHTI SHEET
100
AcDbText
  0
TEXT
  5
32F
330
1E
100
AcDbEntity
  8
0
  6
Continuous
100
AcDbText
 10
372.2682154177562
 20
12.13453233582223
 30
0.0
 40
2.0
  1
1
  7
ROMANS
100
AcDbText
  0
LINE
  5
330
330
1E
100
AcDbEntity
  8
BASE
  6
Continuous
100
AcDbLine
 10
205.0
 20
85.42960512729848
 30
0.0
 11
205.0
 21
82.5
 31
0.0
  0
LINE
  5
331
330
1E
100
AcDbEntity
  8
BASE
  6
Continuous
100
AcDbLine
 10
200.0
 20
85.42960512729848
 30
0.0
 11
200.0
 21
82.5
 31
0.0
  0
LINE
  5
332
330
1E
100
AcDbEntity
  8
BASE
  6
Continuous
100
AcDbLine
 10
205.0
 20
100.0
 30
0.0
 11
205.0
 21
94.75215414327719
 31
0.0
  0
LINE
  5
333
330
1E
100
AcDbEntity
  8
BASE
  6
Continuous
100
AcDbLine
 10
200.0
 20
100.0
 30
0.0
 11
200.0
 21
94.75215414327719
 31
0.0
  0
INSERT
  5
334
330
1E
100
AcDbEntity
  8
BASE
100
AcDbBlockReference
  2
WKU130
 10
202.8062609511656
 20
86.00288783989672
 30
0.0
 41
0.8
 42
0.8
 43
0.8
  0
LINE
  5
335
330
1E
100
AcDbEntity
  8
BASE
100
AcDbLine
 10
202.4663113644161
 20
87.72844022284031
 30
0.0
 11
206.4663113644161
 21
87.72844022284031
 31
0.0
  0
LINE
  5
336
330
1E
100
AcDbEntity
  8
BASE
100
AcDbLine
 10
197.7951025876481
 20
86.38620701298554
 30
0.0
 11
206.1586126356733
 21
94.75215414327719
 31
0.0
  0
LINE
  5
337
330
1E
100
AcDbEntity
  8
BASE
100
AcDbLine
 10
198.7793954525141
 20
85.42960512729848
 30
0.0
 11
207.1197562252161
 21
93.76735222755645
 31
0.0
  0
LINE
  5
338
330
1E
100
AcDbEntity
  8
BASE
100
AcDbLine
 10
197.7951025876481
 20
85.42960512729848
 30
0.0
 11
197.7951025876481
 21
94.75215414327719
 31
0.0
  0
LINE
  5
339
330
1E
100
AcDbEntity
  8
BASE
100
AcDbLine
 10
207.1197562252161
 20
85.42960512729848
 30
0.0
 11
197.7951025876481
 21
85.42960512729848
 31
0.0
  0
LINE
  5
33A
330
1E
100
AcDbEntity
  8
BASE
100
AcDbLine
 10
207.1197562252161
 20
94.75215414327719
 30
0.0
 11
207.1197562252161
 21
85.42960512729848
 31
0.0
  0
LINE
  5
33B
330
1E
100
AcDbEntity
  8
BASE
100
AcDbLine
 10
197.7951025876481
 20
94.75215414327719
 30
0.0
 11
207.1197562252161
 21
94.75215414327719
 31
0.0
  0
LINE
  5
33C
330
1E
100
AcDbEntity
  8
0
  6
Continuous
100
AcDbLine
 10
50.0
 20
205.0
 30
0.0
 11
49.49350809305883
 21
205.0
 31
0.0
  0
LINE
  5
33D
330
1E
100
AcDbEntity
  8
0
  6
Continuous
100
AcDbLine
 10
62.5
 20
205.0
 30
0.0
 11
55.0000000000001
 21
205.0
 31
0.0
  0
TEXT
  5
33E
330
1E
100
AcDbEntity
  8
0
  6
Continuous
100
AcDbText
 10
63.18016056657484
 20
60.0
 30
0.0
 40
2.0
  1
DIM. 150 X 168
  7
ROMANS
100
AcDbText
  0
LINE
  5
33F
330
1E
100
AcDbEntity
  8
0
  6
DASHED
100
AcDbLine
 10
297.5
 20
232.5
 30
0.0
 11
297.5
 21
250.0
 31
0.0
  0
LINE
  5
340
330
1E
100
AcDbEntity
  8
0
  6
DASHED
100
AcDbLine
 10
290.0
 20
232.5
 30
0.0
 11
290.0
 21
255.0
 31
0.0
  0
INSERT
  5
341
330
1E
100
AcDbEntity
  8
0
  6
Continuous
100
AcDbBlockReference
  2
BLC27
 10
295.9659318482223
 20
230.0715494616068
 30
0.0
  0
INSERT
  5
342
330
1E
100
AcDbEntity
  8
0
  6
Continuous
100
AcDbBlockReference
  2
BLC27
 10
288.4659318482223
 20
230.0715494616068
 30
0.0
  0
TEXT
  5
343
330
1E
100
AcDbEntity
  8
0
  6
Continuous
100
AcDbText
 10
263.2439045857218
 20
253.9850537789356
 30
0.0
 40
2.0
  1
L1(R)
  7
ROMANS
 11
263.2439045857218
 21
253.318387112269
 31
0.0
100
AcDbText
 73
     1
  0
TEXT
  5
344
330
1E
100
AcDbEntity
  8
0
  6
Continuous
100
AcDbText
 10
263.2439045857218
 20
248.9283593425077
 30
0.0
 40
2.0
  1
L2(S)
  7
ROMANS
 11
263.2439045857218
 21
248.2616926758411
 31
0.0
100
AcDbText
 73
     1
  0
TEXT
  5
345
330
1E
100
AcDbEntity
  8
0
  6
Continuous
100
AcDbText
 10
263.2439045857218
 20
244.0069670924491
 30
0.0
 40
2.0
  1
L3(T)
  7
ROMANS
 11
263.2439045857218
 21
243.3403004257824
 31
0.0
100
AcDbText
 73
     1
  0
LINE
  5
346
330
1E
100
AcDbEntity
  8
0
  6
DASHED
100
AcDbLine
 10
310.0
 20
227.6899802196786
 30
0.0
 11
319.1633617978537
 21
227.6899802196786
 31
0.0
  0
INSERT
  5
347
330
1E
100
AcDbEntity
  8
0
  6
Continuous
100
AcDbBlockReference
  2
BLC15
 10
322.5
 20
227.5478958520575
 30
0.0
 50
90.0
  0
LINE
  5
348
330
1E
100
AcDbEntity
  8
0
  6
Continuous
100
AcDbLine
 10
290.0
 20
227.6899802196787
 30
0.0
 11
310.0
 21
227.6899802196787
 31
0.0
  0
LINE
  5
349
330
1E
100
AcDbEntity
  8
0
  6
DASHED
100
AcDbLine
 10
305.0
 20
232.5
 30
0.0
 11
305.0
 21
245.0
 31
0.0
  0
INSERT
  5
34A
330
1E
100
AcDbEntity
  8
0
  6
Continuous
100
AcDbBlockReference
  2
BLC27
 10
303.4659318482223
 20
230.0715494616068
 30
0.0
  0
LINE
  5
34B
330
1E
100
AcDbEntity
  8
0
  6
DASHED
100
AcDbLine
 10
341.0954654399986
 20
244.9999999999999
 30
0.0
 11
272.5
 21
244.9999999999999
 31
0.0
  0
LINE
  5
34C
330
1E
100
AcDbEntity
  8
0
  6
DASHED
100
AcDbLine
 10
341.0954654399986
 20
249.9999999999999
 30
0.0
 11
272.5
 21
250.0
 31
0.0
  0
LINE
  5
34D
330
1E
100
AcDbEntity
  8
0
  6
DASHED
100
AcDbLine
 10
341.0954654399986
 20
254.9999999999999
 30
0.0
 11
272.5
 21
255.0
 31
0.0
  0
LINE
  5
34E
330
1E
100
AcDbEntity
  8
0
  6
Continuous
100
AcDbLine
 10
305.0
 20
217.6899802196795
 30
0.0
 11
305.0
 21
215.0
 31
0.0
  0
ARC
  5
34F
330
1E
100
AcDbEntity
  8
0
  6
Continuous
100
AcDbCircle
 10
303.3648615873968
 20
221.2960950148242
 30
0.0
 40
1.204308763687699
100
AcDbArc
 50
90.0
 51
265.7062371869478
  0
LINE
  5
350
330
1E
100
AcDbEntity
  8
0
  6
Continuous
100
AcDbLine
 10
303.3587620726732
 20
220.0985465426162
 30
0.0
 11
304.008360390728
 21
220.0985465426162
 31
0.0
  0
LINE
  5
351
330
1E
100
AcDbEntity
  8
0
  6
Continuous
100
AcDbLine
 10
303.3587620726732
 20
222.4999931928302
 30
0.0
 11
304.0022608760045
 21
222.4999931928302
 31
0.0
  0
LINE
  5
352
330
1E
100
AcDbEntity
  8
0
  6
Continuous
100
AcDbLine
 10
303.3598981140048
 20
217.6899370591879
 30
0.0
 11
304.0094964320596
 21
217.6899370591879
 31
0.0
  0
ARC
  5
353
330
1E
100
AcDbEntity
  8
0
  6
Continuous
100
AcDbCircle
 10
303.3648615873968
 20
218.8942377789286
 30
0.0
 40
1.204308763687699
100
AcDbArc
 50
90.0
 51
270.0
  0
LINE
  5
354
330
1E
100
AcDbEntity
  8
0
  6
Continuous
100
AcDbLine
 10
304.0008973345388
 20
217.6899802196795
 30
0.0
 11
305.0
 21
217.6899802196795
 31
0.0
  0
LINE
  5
355
330
1E
100
AcDbEntity
  8
0
  6
Continuous
100
AcDbLine
 10
303.996127989045
 20
222.4999959297373
 30
0.0
 11
304.9739356178998
 21
222.4999959297373
 31
0.0
  0
LINE
  5
356
330
1E
100
AcDbEntity
  8
0
  6
Continuous
100
AcDbLine
 10
304.0060309415213
 20
220.0985560313284
 30
0.0
 11
304.9781667732114
 21
220.0985560313284
 31
0.0
  0
LINE
  5
357
330
1E
100
AcDbEntity
  8
0
  6
Continuous
100
AcDbLine
 10
305.0
 20
215.0
 30
0.0
 11
302.4999999999999
 21
215.0
 31
0.0
  0
LINE
  5
358
330
1E
100
AcDbEntity
  8
0
  6
Continuous
100
AcDbLine
 10
302.4999999999999
 20
215.0
 30
0.0
 11
297.5
 21
222.5
 31
0.0
  0
LINE
  5
359
330
1E
100
AcDbEntity
  8
0
  6
Continuous
100
AcDbLine
 10
305.0
 20
222.5
 30
0.0
 11
310.0
 21
222.5
 31
0.0
  0
INSERT
  5
35A
330
1E
100
AcDbEntity
  8
0
  6
Continuous
100
AcDbBlockReference
  2
BLC15
 10
315.0
 20
222.3579156323779
 30
0.0
 50
90.0
  0
LINE
  5
35B
330
1E
100
AcDbEntity
  8
0
  6
Continuous
100
AcDbLine
 10
290.0
 20
217.6899802196795
 30
0.0
 11
290.0
 21
215.0
 31
0.0
  0
LINE
  5
35C
330
1E
100
AcDbEntity
  8
0
  6
Continuous
100
AcDbLine
 10
297.5
 20
217.6899802196795
 30
0.0
 11
297.5
 21
215.0
 31
0.0
  0
ARC
  5
35D
330
1E
100
AcDbEntity
  8
0
  6
Continuous
100
AcDbCircle
 10
295.8648615873968
 20
221.2960950148242
 30
0.0
 40
1.204308763687699
100
AcDbArc
 50
90.0
 51
265.7062371869478
  0
LINE
  5
35E
330
1E
100
AcDbEntity
  8
0
  6
Continuous
100
AcDbLine
 10
295.8587620726733
 20
220.0985465426162
 30
0.0
 11
296.508360390728
 21
220.0985465426162
 31
0.0
  0
LINE
  5
35F
330
1E
100
AcDbEntity
  8
0
  6
Continuous
100
AcDbLine
 10
295.8587620726733
 20
222.4999931928302
 30
0.0
 11
296.5022608760045
 21
222.4999931928302
 31
0.0
  0
LINE
  5
360
330
1E
100
AcDbEntity
  8
0
  6
Continuous
100
AcDbLine
 10
295.8598981140048
 20
217.6899370591879
 30
0.0
 11
296.5094964320596
 21
217.6899370591879
 31
0.0
  0
ARC
  5
361
330
1E
100
AcDbEntity
  8
0
  6
Continuous
100
AcDbCircle
 10
295.8648615873968
 20
218.8942377789286
 30
0.0
 40
1.204308763687699
100
AcDbArc
 50
90.0
 51
270.0
  0
LINE
  5
362
330
1E
100
AcDbEntity
  8
0
  6
Continuous
100
AcDbLine
 10
296.5008973345388
 20
217.6899802196795
 30
0.0
 11
297.5
 21
217.6899802196795
 31
0.0
  0
LINE
  5
363
330
1E
100
AcDbEntity
  8
0
  6
Continuous
100
AcDbLine
 10
296.496127989045
 20
222.4999959297373
 30
0.0
 11
297.4739356178998
 21
222.4999959297373
 31
0.0
  0
LINE
  5
364
330
1E
100
AcDbEntity
  8
0
  6
Continuous
100
AcDbLine
 10
296.5060309415213
 20
220.0985560313284
 30
0.0
 11
297.4781667732114
 21
220.0985560313284
 31
0.0
  0
ARC
  5
365
330
1E
100
AcDbEntity
  8
0
  6
Continuous
100
AcDbCircle
 10
288.3648615873968
 20
221.2960950148242
 30
0.0
 40
1.204308763687699
100
AcDbArc
 50
90.0
 51
265.7062371869478
  0
LINE
  5
366
330
1E
100
AcDbEntity
  8
0
  6
Continuous
100
AcDbLine
 10
288.3587620726732
 20
220.0985465426162
 30
0.0
 11
289.008360390728
 21
220.0985465426162
 31
0.0
  0
LINE
  5
367
330
1E
100
AcDbEntity
  8
0
  6
Continuous
100
AcDbLine
 10
288.3587620726732
 20
222.4999931928302
 30
0.0
 11
289.0022608760045
 21
222.4999931928302
 31
0.0
  0
LINE
  5
368
330
1E
100
AcDbEntity
  8
0
  6
Continuous
100
AcDbLine
 10
288.3598981140048
 20
217.6899370591879
 30
0.0
 11
289.0094964320596
 21
217.6899370591879
 31
0.0
  0
ARC
  5
369
330
1E
100
AcDbEntity
  8
0
  6
Continuous
100
AcDbCircle
 10
288.3648615873968
 20
218.8942377789286
 30
0.0
 40
1.204308763687699
100
AcDbArc
 50
90.0
 51
270.0
  0
LINE
  5
36A
330
1E
100
AcDbEntity
  8
0
  6
Continuous
100
AcDbLine
 10
289.0008973345388
 20
217.6899802196795
 30
0.0
 11
290.0
 21
217.6899802196795
 31
0.0
  0
LINE
  5
36B
330
1E
100
AcDbEntity
  8
0
  6
Continuous
100
AcDbLine
 10
288.996127989045
 20
222.4999959297373
 30
0.0
 11
289.9739356178998
 21
222.4999959297373
 31
0.0
  0
LINE
  5
36C
330
1E
100
AcDbEntity
  8
0
  6
Continuous
100
AcDbLine
 10
289.0060309415213
 20
220.0985560313284
 30
0.0
 11
289.9781667732114
 21
220.0985560313284
 31
0.0
  0
LINE
  5
36D
330
1E
100
AcDbEntity
  8
0
  6
Continuous
100
AcDbLine
 10
297.5
 20
215.0
 30
0.0
 11
295.0
 21
215.0
 31
0.0
  0
LINE
  5
36E
330
1E
100
AcDbEntity
  8
0
  6
Continuous
100
AcDbLine
 10
295.0
 20
215.0
 30
0.0
 11
290.0
 21
222.5
 31
0.0
  0
LINE
  5
36F
330
1E
100
AcDbEntity
  8
0
  6
Continuous
100
AcDbLine
 10
272.5
 20
132.4999999999999
 30
0.0
 11
266.7560759482168
 21
129.2852966948171
 31
0.0
  0
LINE
  5
370
330
1E
100
AcDbEntity
  8
0
  6
Continuous
100
AcDbLine
 10
272.5
 20
132.4999999999999
 30
0.0
 11
277.4999999999999
 21
132.4999999999999
 31
0.0
  0
LINE
  5
371
330
1E
100
AcDbEntity
  8
0
  6
Continuous
100
AcDbLine
 10
262.5
 20
132.4999999999999
 30
0.0
 11
267.5
 21
132.4999999999999
 31
0.0
  0
LINE
  5
372
330
1E
100
AcDbEntity
  8
0
  6
DASHED
100
AcDbLine
 10
290.0
 20
132.4999999999999
 30
0.0
 11
290.0
 21
215.0
 31
0.0
  0
LINE
  5
373
330
1E
100
AcDbEntity
  8
0
  6
DASHED
100
AcDbLine
 10
297.5
 20
122.5
 30
0.0
 11
297.5
 21
210.0
 31
0.0
  0
LINE
  5
374
330
1E
100
AcDbEntity
  8
0
  6
DASHED
100
AcDbLine
 10
297.5
 20
210.0
 30
0.0
 11
310.0
 21
210.0
 31
0.0
  0
LINE
  5
375
330
1E
100
AcDbEntity
  8
0
  6
DASHED
100
AcDbLine
 10
310.0
 20
210.0
 30
0.0
 11
310.0
 21
222.5
 31
0.0
  0
LINE
  5
376
330
1E
100
AcDbEntity
  8
BASE
  6
Continuous
100
AcDbLine
 10
72.5
 20
200.0
 30
0.0
 11
62.5
 21
199.9999999999999
 31
0.0
  0
LINE
  5
377
330
1E
100
AcDbEntity
  8
BASE
  6
Continuous
100
AcDbLine
 10
75.2988115360942
 20
200.0
 30
0.0
 11
70.59881153609419
 21
200.0
 31
0.0
  0
LINE
  5
378
330
1E
100
AcDbEntity
  8
BASE
100
AcDbLine
 10
75.2988115360942
 20
206.5899248299359
 30
0.0
 11
75.2988115360942
 21
198.4
 31
0.0
  0
LINE
  5
379
330
1E
100
AcDbEntity
  8
BASE
100
AcDbLine
 10
79.50485312354079
 20
206.5938403318466
 30
0.0
 11
77.59105013902138
 21
204.3150182198039
 31
0.0
  0
LINE
  5
37A
330
1E
100
AcDbEntity
  8
BASE
100
AcDbLine
 10
80.99697070469147
 20
206.5938403318466
 30
0.0
 11
79.1426361744933
 21
204.3150182198039
 31
0.0
  0
LINE
  5
37B
330
1E
100
AcDbEntity
  8
BASE
100
AcDbLine
 10
82.721555880007
 20
206.5899248299359
 30
0.0
 11
75.2988115360942
 21
206.5899248299359
 31
0.0
  0
LINE
  5
37C
330
1E
100
AcDbEntity
  8
BASE
100
AcDbLine
 10
75.2988115360942
 20
198.4
 30
0.0
 11
82.72155588000698
 21
198.4
 31
0.0
  0
LINE
  5
37D
330
1E
100
AcDbEntity
  8
BASE
100
AcDbLine
 10
82.72155588000698
 20
198.4
 30
0.0
 11
82.721555880007
 21
206.5899248299359
 31
0.0
  0
LINE
  5
37E
330
1E
100
AcDbEntity
  8
BASE
  6
Continuous
100
AcDbLine
 10
82.72155588000698
 20
202.4999999999999
 30
0.0
 11
85.0
 21
202.4999999999999
 31
0.0
  0
LINE
  5
37F
330
1E
100
AcDbEntity
  8
BASE
  6
Continuous
100
AcDbLine
 10
80.0
 20
117.5
 30
0.0
 11
62.5
 21
117.5
 31
0.0
  0
LINE
  5
380
330
1E
100
AcDbEntity
  8
BASE
  6
Continuous
100
AcDbLine
 10
80.0
 20
107.4999999999999
 30
0.0
 11
62.5
 21
107.4999999999999
 31
0.0
  0
LINE
  5
381
330
1E
100
AcDbEntity
  8
BASE
  6
Continuous
100
AcDbLine
 10
157.5
 20
65.0
 30
0.0
 11
157.5
 21
87.5
 31
0.0
  0
LINE
  5
382
330
1E
100
AcDbEntity
  8
BASE
  6
Continuous
100
AcDbLine
 10
152.5
 20
65.0
 30
0.0
 11
152.5
 21
77.5
 31
0.0
  0
LINE
  5
383
330
1E
100
AcDbEntity
  8
BASE
  6
Continuous
100
AcDbLine
 10
162.5
 20
65.0
 30
0.0
 11
162.5
 21
107.4999999999999
 31
0.0
  0
LINE
  5
384
330
1E
100
AcDbEntity
  8
BASE
  6
Continuous
100
AcDbLine
 10
167.5
 20
65.0
 30
0.0
 11
167.5
 21
117.5
 31
0.0
  0
ARC
  5
385
330
1E
100
AcDbEntity
  8
0
  6
Continuous
100
AcDbCircle
 10
232.5
 20
105.0
 30
0.0
 40
2.5
100
AcDbArc
 50
90.0
 51
270.0
  0
POLYLINE
  5
386
330
1E
100
AcDbEntity
  8
0
  6
Continuous
100
AcDbPolygonMesh
 66
     1
 10
0.0
 20
0.0
 30
0.0
 70
    16
 71
     2
 72
   251
  0
VERTEX
  5
387
330
386
100
AcDbEntity
  8
0
  6
Continuous
100
AcDbVertex
100
AcDbPolygonMeshVertex
 10
231.6340237729537
 20
104.4399999999999
 30
0.0
 70
    64
  0
VERTEX
  5
388
330
386
100
AcDbEntity
  8
0
  6
Continuous
100
AcDbVertex
100
AcDbPolygonMeshVertex
 10
231.6497037729536
 20
104.4399999999999
 30
0.0
 70
    64
  0
VERTEX
  5
389
330
386
100
AcDbEntity
  8
0
  6
Continuous
100
AcDbVertex
100
AcDbPolygonMeshVertex
 10
231.6653837729536
 20
104.4399999999999
 30
0.0
 70
    64
  0
VERTEX
  5
38A
330
386
100
AcDbEntity
  8
0
  6
Continuous
100
AcDbVertex
100
AcDbPolygonMeshVertex
 10
231.6810637729536
 20
104.4399999999999
 30
0.0
 70
    64
  0
VERTEX
  5
38B
330
386
100
AcDbEntity
  8
0
  6
Continuous
100
AcDbVertex
100
AcDbPolygonMeshVertex
 10
231.6967437729536
 20
104.4399999999999
 30
0.0
 70
    64
  0
VERTEX
  5
38C
330
386
100
AcDbEntity
  8
0
  6
Continuous
100
AcDbVertex
100
AcDbPolygonMeshVertex
 10
231.7124237729536
 20
104.4399999999999
 30
0.0
 70
    64
  0
VERTEX
  5
38D
330
386
100
AcDbEntity
  8
0
  6
Continuous
100
AcDbVertex
100
AcDbPolygonMeshVertex
 10
231.7281037729536
 20
104.4399999999999
 30
0.0
 70
    64
  0
VERTEX
  5
38E
330
386
100
AcDbEntity
  8
0
  6
Continuous
100
AcDbVertex
100
AcDbPolygonMeshVertex
 10
231.7437837729536
 20
104.4399999999999
 30
0.0
 70
    64
  0
VERTEX
  5
38F
330
386
100
AcDbEntity
  8
0
  6
Continuous
100
AcDbVertex
100
AcDbPolygonMeshVertex
 10
231.7594637729536
 20
104.4399999999999
 30
0.0
 70
    64
  0
VERTEX
  5
390
330
386
100
AcDbEntity
  8
0
  6
Continuous
100
AcDbVertex
100
AcDbPolygonMeshVertex
 10
231.7751437729536
 20
104.4399999999999
 30
0.0
 70
    64
  0
VERTEX
  5
391
330
386
100
AcDbEntity
  8
0
  6
Continuous
100
AcDbVertex
100
AcDbPolygonMeshVertex
 10
231.7908237729536
 20
104.4399999999999
 30
0.0
 70
    64
  0
VERTEX
  5
392
330
386
100
AcDbEntity
  8
0
  6
Continuous
100
AcDbVertex
100
AcDbPolygonMeshVertex
 10
231.8065037729536
 20
104.4399999999999
 30
0.0
 70
    64
  0
VERTEX
  5
393
330
386
100
AcDbEntity
  8
0
  6
Continuous
100
AcDbVertex
100
AcDbPolygonMeshVertex
 10
231.8221837729536
 20
104.4399999999999
 30
0.0
 70
    64
  0
VERTEX
  5
394
330
386
100
AcDbEntity
  8
0
  6
Continuous
100
AcDbVertex
100
AcDbPolygonMeshVertex
 10
231.8378637729536
 20
104.4399999999999
 30
0.0
 70
    64
  0
VERTEX
  5
395
330
386
100
AcDbEntity
  8
0
  6
Continuous
100
AcDbVertex
100
AcDbPolygonMeshVertex
 10
231.8535437729536
 20
104.4399999999999
 30
0.0
 70
    64
  0
VERTEX
  5
396
330
386
100
AcDbEntity
  8
0
  6
Continuous
100
AcDbVertex
100
AcDbPolygonMeshVertex
 10
231.8692237729536
 20
104.4399999999999
 30
0.0
 70
    64
  0
VERTEX
  5
397
330
386
100
AcDbEntity
  8
0
  6
Continuous
100
AcDbVertex
100
AcDbPolygonMeshVertex
 10
231.8849037729536
 20
104.4399999999999
 30
0.0
 70
    64
  0
VERTEX
  5
398
330
386
100
AcDbEntity
  8
0
  6
Continuous
100
AcDbVertex
100
AcDbPolygonMeshVertex
 10
231.9005837729536
 20
104.4399999999999
 30
0.0
 70
    64
  0
VERTEX
  5
399
330
386
100
AcDbEntity
  8
0
  6
Continuous
100
AcDbVertex
100
AcDbPolygonMeshVertex
 10
231.9162637729536
 20
104.4399999999999
 30
0.0
 70
    64
  0
VERTEX
  5
39A
330
386
100
AcDbEntity
  8
0
  6
Continuous
100
AcDbVertex
100
AcDbPolygonMeshVertex
 10
231.9319437729536
 20
104.4399999999999
 30
0.0
 70
    64
  0
VERTEX
  5
39B
330
386
100
AcDbEntity
  8
0
  6
Continuous
100
AcDbVertex
100
AcDbPolygonMeshVertex
 10
231.9476237729536
 20
104.4399999999999
 30
0.0
 70
    64
  0
VERTEX
  5
39C
330
386
100
AcDbEntity
  8
0
  6
Continuous
100
AcDbVertex
100
AcDbPolygonMeshVertex
 10
231.9633037729536
 20
104.4399999999999
 30
0.0
 70
    64
  0
VERTEX
  5
39D
330
386
100
AcDbEntity
  8
0
  6
Continuous
100
AcDbVertex
100
AcDbPolygonMeshVertex
 10
231.9789837729536
 20
104.4399999999999
 30
0.0
 70
    64
  0
VERTEX
  5
39E
330
386
100
AcDbEntity
  8
0
  6
Continuous
100
AcDbVertex
100
AcDbPolygonMeshVertex
 10
231.9946637729537
 20
104.4399999999999
 30
0.0
 70
    64
  0
VERTEX
  5
39F
330
386
100
AcDbEntity
  8
0
  6
Continuous
100
AcDbVertex
100
AcDbPolygonMeshVertex
 10
232.0103437729536
 20
104.4399999999999
 30
0.0
 70
    64
  0
VERTEX
  5
3A0
330
386
100
AcDbEntity
  8
0
  6
Continuous
100
AcDbVertex
100
AcDbPolygonMeshVertex
 10
232.0260237729536
 20
104.4399999999999
 30
0.0
 70
    64
  0
VERTEX
  5
3A1
330
386
100
AcDbEntity
  8
0
  6
Continuous
100
AcDbVertex
100
AcDbPolygonMeshVertex
 10
232.0417037729536
 20
104.4399999999999
 30
0.0
 70
    64
  0
VERTEX
  5
3A2
330
386
100
AcDbEntity
  8
0
  6
Continuous
100
AcDbVertex
100
AcDbPolygonMeshVertex
 10
232.0573837729536
 20
104.4399999999999
 30
0.0
 70
    64
  0
VERTEX
  5
3A3
330
386
100
AcDbEntity
  8
0
  6
Continuous
100
AcDbVertex
100
AcDbPolygonMeshVertex
 10
232.0730637729536
 20
104.4399999999999
 30
0.0
 70
    64
  0
VERTEX
  5
3A4
330
386
100
AcDbEntity
  8
0
  6
Continuous
100
AcDbVertex
100
AcDbPolygonMeshVertex
 10
232.0887437729536
 20
104.4399999999999
 30
0.0
 70
    64
  0
VERTEX
  5
3A5
330
386
100
AcDbEntity
  8
0
  6
Continuous
100
AcDbVertex
100
AcDbPolygonMeshVertex
 10
232.1044237729537
 20
104.4399999999999
 30
0.0
 70
    64
  0
VERTEX
  5
3A6
330
386
100
AcDbEntity
  8
0
  6
Continuous
100
AcDbVertex
100
AcDbPolygonMeshVertex
 10
232.1201037729536
 20
104.4399999999999
 30
0.0
 70
    64
  0
VERTEX
  5
3A7
330
386
100
AcDbEntity
  8
0
  6
Continuous
100
AcDbVertex
100
AcDbPolygonMeshVertex
 10
232.1357837729536
 20
104.4399999999999
 30
0.0
 70
    64
  0
VERTEX
  5
3A8
330
386
100
AcDbEntity
  8
0
  6
Continuous
100
AcDbVertex
100
AcDbPolygonMeshVertex
 10
232.1514637729536
 20
104.4399999999999
 30
0.0
 70
    64
  0
VERTEX
  5
3A9
330
386
100
AcDbEntity
  8
0
  6
Continuous
100
AcDbVertex
100
AcDbPolygonMeshVertex
 10
232.1671437729536
 20
104.4399999999999
 30
0.0
 70
    64
  0
VERTEX
  5
3AA
330
386
100
AcDbEntity
  8
0
  6
Continuous
100
AcDbVertex
100
AcDbPolygonMeshVertex
 10
232.1828237729536
 20
104.4399999999999
 30
0.0
 70
    64
  0
VERTEX
  5
3AB
330
386
100
AcDbEntity
  8
0
  6
Continuous
100
AcDbVertex
100
AcDbPolygonMeshVertex
 10
232.1985037729537
 20
104.4399999999999
 30
0.0
 70
    64
  0
VERTEX
  5
3AC
330
386
100
AcDbEntity
  8
0
  6
Continuous
100
AcDbVertex
100
AcDbPolygonMeshVertex
 10
232.2141837729536
 20
104.4399999999999
 30
0.0
 70
    64
  0
VERTEX
  5
3AD
330
386
100
AcDbEntity
  8
0
  6
Continuous
100
AcDbVertex
100
AcDbPolygonMeshVertex
 10
232.2298637729536
 20
104.4399999999999
 30
0.0
 70
    64
  0
VERTEX
  5
3AE
330
386
100
AcDbEntity
  8
0
  6
Continuous
100
AcDbVertex
100
AcDbPolygonMeshVertex
 10
232.2455437729536
 20
104.4399999999999
 30
0.0
 70
    64
  0
VERTEX
  5
3AF
330
386
100
AcDbEntity
  8
0
  6
Continuous
100
AcDbVertex
100
AcDbPolygonMeshVertex
 10
232.2612237729536
 20
104.4399999999999
 30
0.0
 70
    64
  0
VERTEX
  5
3B0
330
386
100
AcDbEntity
  8
0
  6
Continuous
100
AcDbVertex
100
AcDbPolygonMeshVertex
 10
232.2769037729536
 20
104.4399999999999
 30
0.0
 70
    64
  0
VERTEX
  5
3B1
330
386
100
AcDbEntity
  8
0
  6
Continuous
100
AcDbVertex
100
AcDbPolygonMeshVertex
 10
232.2925837729536
 20
104.4399999999999
 30
0.0
 70
    64
  0
VERTEX
  5
3B2
330
386
100
AcDbEntity
  8
0
  6
Continuous
100
AcDbVertex
100
AcDbPolygonMeshVertex
 10
232.3082637729537
 20
104.4399999999999
 30
0.0
 70
    64
  0
VERTEX
  5
3B3
330
386
100
AcDbEntity
  8
0
  6
Continuous
100
AcDbVertex
100
AcDbPolygonMeshVertex
 10
232.3239437729536
 20
104.4399999999999
 30
0.0
 70
    64
  0
VERTEX
  5
3B4
330
386
100
AcDbEntity
  8
0
  6
Continuous
100
AcDbVertex
100
AcDbPolygonMeshVertex
 10
232.3396237729536
 20
104.4399999999999
 30
0.0
 70
    64
  0
VERTEX
  5
3B5
330
386
100
AcDbEntity
  8
0
  6
Continuous
100
AcDbVertex
100
AcDbPolygonMeshVertex
 10
232.3553037729536
 20
104.4399999999999
 30
0.0
 70
    64
  0
VERTEX
  5
3B6
330
386
100
AcDbEntity
  8
0
  6
Continuous
100
AcDbVertex
100
AcDbPolygonMeshVertex
 10
232.3709837729536
 20
104.4399999999999
 30
0.0
 70
    64
  0
VERTEX
  5
3B7
330
386
100
AcDbEntity
  8
0
  6
Continuous
100
AcDbVertex
100
AcDbPolygonMeshVertex
 10
232.3866637729536
 20
104.4399999999999
 30
0.0
 70
    64
  0
VERTEX
  5
3B8
330
386
100
AcDbEntity
  8
0
  6
Continuous
100
AcDbVertex
100
AcDbPolygonMeshVertex
 10
232.4023437729536
 20
104.4399999999999
 30
0.0
 70
    64
  0
VERTEX
  5
3B9
330
386
100
AcDbEntity
  8
0
  6
Continuous
100
AcDbVertex
100
AcDbPolygonMeshVertex
 10
232.4180237729537
 20
104.4399999999999
 30
0.0
 70
    64
  0
VERTEX
  5
3BA
330
386
100
AcDbEntity
  8
0
  6
Continuous
100
AcDbVertex
100
AcDbPolygonMeshVertex
 10
232.4337037729536
 20
104.4399999999999
 30
0.0
 70
    64
  0
VERTEX
  5
3BB
330
386
100
AcDbEntity
  8
0
  6
Continuous
100
AcDbVertex
100
AcDbPolygonMeshVertex
 10
232.4493837729536
 20
104.4399999999999
 30
0.0
 70
    64
  0
VERTEX
  5
3BC
330
386
100
AcDbEntity
  8
0
  6
Continuous
100
AcDbVertex
100
AcDbPolygonMeshVertex
 10
232.4650637729536
 20
104.4399999999999
 30
0.0
 70
    64
  0
VERTEX
  5
3BD
330
386
100
AcDbEntity
  8
0
  6
Continuous
100
AcDbVertex
100
AcDbPolygonMeshVertex
 10
232.4807437729536
 20
104.4399999999999
 30
0.0
 70
    64
  0
VERTEX
  5
3BE
330
386
100
AcDbEntity
  8
0
  6
Continuous
100
AcDbVertex
100
AcDbPolygonMeshVertex
 10
232.4964237729536
 20
104.4399999999999
 30
0.0
 70
    64
  0
VERTEX
  5
3BF
330
386
100
AcDbEntity
  8
0
  6
Continuous
100
AcDbVertex
100
AcDbPolygonMeshVertex
 10
232.5121037729536
 20
104.4399999999999
 30
0.0
 70
    64
  0
VERTEX
  5
3C0
330
386
100
AcDbEntity
  8
0
  6
Continuous
100
AcDbVertex
100
AcDbPolygonMeshVertex
 10
232.5277837729536
 20
104.4399999999999
 30
0.0
 70
    64
  0
VERTEX
  5
3C1
330
386
100
AcDbEntity
  8
0
  6
Continuous
100
AcDbVertex
100
AcDbPolygonMeshVertex
 10
232.5434637729536
 20
104.4399999999999
 30
0.0
 70
    64
  0
VERTEX
  5
3C2
330
386
100
AcDbEntity
  8
0
  6
Continuous
100
AcDbVertex
100
AcDbPolygonMeshVertex
 10
232.5591437729536
 20
104.4399999999999
 30
0.0
 70
    64
  0
VERTEX
  5
3C3
330
386
100
AcDbEntity
  8
0
  6
Continuous
100
AcDbVertex
100
AcDbPolygonMeshVertex
 10
232.5748237729536
 20
104.4399999999999
 30
0.0
 70
    64
  0
VERTEX
  5
3C4
330
386
100
AcDbEntity
  8
0
  6
Continuous
100
AcDbVertex
100
AcDbPolygonMeshVertex
 10
232.5905037729536
 20
104.4399999999999
 30
0.0
 70
    64
  0
VERTEX
  5
3C5
330
386
100
AcDbEntity
  8
0
  6
Continuous
100
AcDbVertex
100
AcDbPolygonMeshVertex
 10
232.6061837729536
 20
104.4399999999999
 30
0.0
 70
    64
  0
VERTEX
  5
3C6
330
386
100
AcDbEntity
  8
0
  6
Continuous
100
AcDbVertex
100
AcDbPolygonMeshVertex
 10
232.6218637729537
 20
104.4399999999999
 30
0.0
 70
    64
  0
VERTEX
  5
3C7
330
386
100
AcDbEntity
  8
0
  6
Continuous
100
AcDbVertex
100
AcDbPolygonMeshVertex
 10
232.6375437729536
 20
104.4399999999999
 30
0.0
 70
    64
  0
VERTEX
  5
3C8
330
386
100
AcDbEntity
  8
0
  6
Continuous
100
AcDbVertex
100
AcDbPolygonMeshVertex
 10
232.6532237729536
 20
104.4399999999999
 30
0.0
 70
    64
  0
VERTEX
  5
3C9
330
386
100
AcDbEntity
  8
0
  6
Continuous
100
AcDbVertex
100
AcDbPolygonMeshVertex
 10
232.6689037729536
 20
104.4399999999999
 30
0.0
 70
    64
  0
VERTEX
  5
3CA
330
386
100
AcDbEntity
  8
0
  6
Continuous
100
AcDbVertex
100
AcDbPolygonMeshVertex
 10
232.6845837729536
 20
104.4399999999999
 30
0.0
 70
    64
  0
VERTEX
  5
3CB
330
386
100
AcDbEntity
  8
0
  6
Continuous
100
AcDbVertex
100
AcDbPolygonMeshVertex
 10
232.7002637729536
 20
104.4399999999999
 30
0.0
 70
    64
  0
VERTEX
  5
3CC
330
386
100
AcDbEntity
  8
0
  6
Continuous
100
AcDbVertex
100
AcDbPolygonMeshVertex
 10
232.7159437729536
 20
104.4399999999999
 30
0.0
 70
    64
  0
VERTEX
  5
3CD
330
386
100
AcDbEntity
  8
0
  6
Continuous
100
AcDbVertex
100
AcDbPolygonMeshVertex
 10
232.7316237729536
 20
104.4399999999999
 30
0.0
 70
    64
  0
VERTEX
  5
3CE
330
386
100
AcDbEntity
  8
0
  6
Continuous
100
AcDbVertex
100
AcDbPolygonMeshVertex
 10
232.7473037729536
 20
104.4399999999999
 30
0.0
 70
    64
  0
VERTEX
  5
3CF
330
386
100
AcDbEntity
  8
0
  6
Continuous
100
AcDbVertex
100
AcDbPolygonMeshVertex
 10
232.7629837729536
 20
104.4399999999999
 30
0.0
 70
    64
  0
VERTEX
  5
3D0
330
386
100
AcDbEntity
  8
0
  6
Continuous
100
AcDbVertex
100
AcDbPolygonMeshVertex
 10
232.7786637729536
 20
104.4399999999999
 30
0.0
 70
    64
  0
VERTEX
  5
3D1
330
386
100
AcDbEntity
  8
0
  6
Continuous
100
AcDbVertex
100
AcDbPolygonMeshVertex
 10
232.7943437729536
 20
104.4399999999999
 30
0.0
 70
    64
  0
VERTEX
  5
3D2
330
386
100
AcDbEntity
  8
0
  6
Continuous
100
AcDbVertex
100
AcDbPolygonMeshVertex
 10
232.8100237729537
 20
104.4399999999999
 30
0.0
 70
    64
  0
VERTEX
  5
3D3
330
386
100
AcDbEntity
  8
0
  6
Continuous
100
AcDbVertex
100
AcDbPolygonMeshVertex
 10
232.8257037729536
 20
104.4399999999999
 30
0.0
 70
    64
  0
VERTEX
  5
3D4
330
386
100
AcDbEntity
  8
0
  6
Continuous
100
AcDbVertex
100
AcDbPolygonMeshVertex
 10
232.8413837729537
 20
104.4399999999999
 30
0.0
 70
    64
  0
VERTEX
  5
3D5
330
386
100
AcDbEntity
  8
0
  6
Continuous
100
AcDbVertex
100
AcDbPolygonMeshVertex
 10
232.8570637729536
 20
104.4399999999999
 30
0.0
 70
    64
  0
VERTEX
  5
3D6
330
386
100
AcDbEntity
  8
0
  6
Continuous
100
AcDbVertex
100
AcDbPolygonMeshVertex
 10
232.8727437729536
 20
104.4399999999999
 30
0.0
 70
    64
  0
VERTEX
  5
3D7
330
386
100
AcDbEntity
  8
0
  6
Continuous
100
AcDbVertex
100
AcDbPolygonMeshVertex
 10
232.8884237729536
 20
104.4399999999999
 30
0.0
 70
    64
  0
VERTEX
  5
3D8
330
386
100
AcDbEntity
  8
0
  6
Continuous
100
AcDbVertex
100
AcDbPolygonMeshVertex
 10
232.9041037729536
 20
104.4399999999999
 30
0.0
 70
    64
  0
VERTEX
  5
3D9
330
386
100
AcDbEntity
  8
0
  6
Continuous
100
AcDbVertex
100
AcDbPolygonMeshVertex
 10
232.9197837729537
 20
104.4399999999999
 30
0.0
 70
    64
  0
VERTEX
  5
3DA
330
386
100
AcDbEntity
  8
0
  6
Continuous
100
AcDbVertex
100
AcDbPolygonMeshVertex
 10
232.9354637729536
 20
104.4399999999999
 30
0.0
 70
    64
  0
VERTEX
  5
3DB
330
386
100
AcDbEntity
  8
0
  6
Continuous
100
AcDbVertex
100
AcDbPolygonMeshVertex
 10
232.9511437729536
 20
104.4399999999999
 30
0.0
 70
    64
  0
VERTEX
  5
3DC
330
386
100
AcDbEntity
  8
0
  6
Continuous
100
AcDbVertex
100
AcDbPolygonMeshVertex
 10
232.9668237729536
 20
104.4399999999999
 30
0.0
 70
    64
  0
VERTEX
  5
3DD
330
386
100
AcDbEntity
  8
0
  6
Continuous
100
AcDbVertex
100
AcDbPolygonMeshVertex
 10
232.9825037729536
 20
104.4399999999999
 30
0.0
 70
    64
  0
VERTEX
  5
3DE
330
386
100
AcDbEntity
  8
0
  6
Continuous
100
AcDbVertex
100
AcDbPolygonMeshVertex
 10
232.9981837729536
 20
104.4399999999999
 30
0.0
 70
    64
  0
VERTEX
  5
3DF
330
386
100
AcDbEntity
  8
0
  6
Continuous
100
AcDbVertex
100
AcDbPolygonMeshVertex
 10
233.0138637729536
 20
104.4399999999999
 30
0.0
 70
    64
  0
VERTEX
  5
3E0
330
386
100
AcDbEntity
  8
0
  6
Continuous
100
AcDbVertex
100
AcDbPolygonMeshVertex
 10
233.0295437729536
 20
104.4399999999999
 30
0.0
 70
    64
  0
VERTEX
  5
3E1
330
386
100
AcDbEntity
  8
0
  6
Continuous
100
AcDbVertex
100
AcDbPolygonMeshVertex
 10
233.0452237729537
 20
104.4399999999999
 30
0.0
 70
    64
  0
VERTEX
  5
3E2
330
386
100
AcDbEntity
  8
0
  6
Continuous
100
AcDbVertex
100
AcDbPolygonMeshVertex
 10
233.0609037729536
 20
104.4399999999999
 30
0.0
 70
    64
  0
VERTEX
  5
3E3
330
386
100
AcDbEntity
  8
0
  6
Continuous
100
AcDbVertex
100
AcDbPolygonMeshVertex
 10
233.0765837729536
 20
104.4399999999999
 30
0.0
 70
    64
  0
VERTEX
  5
3E4
330
386
100
AcDbEntity
  8
0
  6
Continuous
100
AcDbVertex
100
AcDbPolygonMeshVertex
 10
233.0922637729536
 20
104.4399999999999
 30
0.0
 70
    64
  0
VERTEX
  5
3E5
330
386
100
AcDbEntity
  8
0
  6
Continuous
100
AcDbVertex
100
AcDbPolygonMeshVertex
 10
233.1079437729536
 20
104.4399999999999
 30
0.0
 70
    64
  0
VERTEX
  5
3E6
330
386
100
AcDbEntity
  8
0
  6
Continuous
100
AcDbVertex
100
AcDbPolygonMeshVertex
 10
233.1236237729537
 20
104.4399999999999
 30
0.0
 70
    64
  0
VERTEX
  5
3E7
330
386
100
AcDbEntity
  8
0
  6
Continuous
100
AcDbVertex
100
AcDbPolygonMeshVertex
 10
233.1393037729536
 20
104.4399999999999
 30
0.0
 70
    64
  0
VERTEX
  5
3E8
330
386
100
AcDbEntity
  8
0
  6
Continuous
100
AcDbVertex
100
AcDbPolygonMeshVertex
 10
233.1549837729536
 20
104.4399999999999
 30
0.0
 70
    64
  0
VERTEX
  5
3E9
330
386
100
AcDbEntity
  8
0
  6
Continuous
100
AcDbVertex
100
AcDbPolygonMeshVertex
 10
233.1706637729536
 20
104.4399999999999
 30
0.0
 70
    64
  0
VERTEX
  5
3EA
330
386
100
AcDbEntity
  8
0
  6
Continuous
100
AcDbVertex
100
AcDbPolygonMeshVertex
 10
233.1863437729536
 20
104.4399999999999
 30
0.0
 70
    64
  0
VERTEX
  5
3EB
330
386
100
AcDbEntity
  8
0
  6
Continuous
100
AcDbVertex
100
AcDbPolygonMeshVertex
 10
233.2020237729536
 20
104.4399999999999
 30
0.0
 70
    64
  0
VERTEX
  5
3EC
330
386
100
AcDbEntity
  8
0
  6
Continuous
100
AcDbVertex
100
AcDbPolygonMeshVertex
 10
233.2177037729536
 20
104.4399999999999
 30
0.0
 70
    64
  0
VERTEX
  5
3ED
330
386
100
AcDbEntity
  8
0
  6
Continuous
100
AcDbVertex
100
AcDbPolygonMeshVertex
 10
233.2333837729537
 20
104.4399999999999
 30
0.0
 70
    64
  0
VERTEX
  5
3EE
330
386
100
AcDbEntity
  8
0
  6
Continuous
100
AcDbVertex
100
AcDbPolygonMeshVertex
 10
233.2490637729536
 20
104.4399999999999
 30
0.0
 70
    64
  0
VERTEX
  5
3EF
330
386
100
AcDbEntity
  8
0
  6
Continuous
100
AcDbVertex
100
AcDbPolygonMeshVertex
 10
233.2647437729537
 20
104.4399999999999
 30
0.0
 70
    64
  0
VERTEX
  5
3F0
330
386
100
AcDbEntity
  8
0
  6
Continuous
100
AcDbVertex
100
AcDbPolygonMeshVertex
 10
233.2804237729536
 20
104.4399999999999
 30
0.0
 70
    64
  0
VERTEX
  5
3F1
330
386
100
AcDbEntity
  8
0
  6
Continuous
100
AcDbVertex
100
AcDbPolygonMeshVertex
 10
233.2961037729536
 20
104.4399999999999
 30
0.0
 70
    64
  0
VERTEX
  5
3F2
330
386
100
AcDbEntity
  8
0
  6
Continuous
100
AcDbVertex
100
AcDbPolygonMeshVertex
 10
233.3117837729536
 20
104.4399999999999
 30
0.0
 70
    64
  0
VERTEX
  5
3F3
330
386
100
AcDbEntity
  8
0
  6
Continuous
100
AcDbVertex
100
AcDbPolygonMeshVertex
 10
233.3274637729536
 20
104.4399999999999
 30
0.0
 70
    64
  0
VERTEX
  5
3F4
330
386
100
AcDbEntity
  8
0
  6
Continuous
100
AcDbVertex
100
AcDbPolygonMeshVertex
 10
233.3431437729536
 20
104.4399999999999
 30
0.0
 70
    64
  0
VERTEX
  5
3F5
330
386
100
AcDbEntity
  8
0
  6
Continuous
100
AcDbVertex
100
AcDbPolygonMeshVertex
 10
233.3588237729536
 20
104.4399999999999
 30
0.0
 70
    64
  0
VERTEX
  5
3F6
330
386
100
AcDbEntity
  8
0
  6
Continuous
100
AcDbVertex
100
AcDbPolygonMeshVertex
 10
233.3745037729536
 20
104.4399999999999
 30
0.0
 70
    64
  0
VERTEX
  5
3F7
330
386
100
AcDbEntity
  8
0
  6
Continuous
100
AcDbVertex
100
AcDbPolygonMeshVertex
 10
233.3901837729536
 20
104.4399999999999
 30
0.0
 70
    64
  0
VERTEX
  5
3F8
330
386
100
AcDbEntity
  8
0
  6
Continuous
100
AcDbVertex
100
AcDbPolygonMeshVertex
 10
233.4058637729536
 20
104.4399999999999
 30
0.0
 70
    64
  0
VERTEX
  5
3F9
330
386
100
AcDbEntity
  8
0
  6
Continuous
100
AcDbVertex
100
AcDbPolygonMeshVertex
 10
233.4215437729536
 20
104.4399999999999
 30
0.0
 70
    64
  0
VERTEX
  5
3FA
330
386
100
AcDbEntity
  8
0
  6
Continuous
100
AcDbVertex
100
AcDbPolygonMeshVertex
 10
233.4372237729536
 20
104.4399999999999
 30
0.0
 70
    64
  0
VERTEX
  5
3FB
330
386
100
AcDbEntity
  8
0
  6
Continuous
100
AcDbVertex
100
AcDbPolygonMeshVertex
 10
233.4529037729536
 20
104.4399999999999
 30
0.0
 70
    64
  0
VERTEX
  5
3FC
330
386
100
AcDbEntity
  8
0
  6
Continuous
100
AcDbVertex
100
AcDbPolygonMeshVertex
 10
233.4685837729537
 20
104.4399999999999
 30
0.0
 70
    64
  0
VERTEX
  5
3FD
330
386
100
AcDbEntity
  8
0
  6
Continuous
100
AcDbVertex
100
AcDbPolygonMeshVertex
 10
233.4842637729536
 20
104.4399999999999
 30
0.0
 70
    64
  0
VERTEX
  5
3FE
330
386
100
AcDbEntity
  8
0
  6
Continuous
100
AcDbVertex
100
AcDbPolygonMeshVertex
 10
233.4999437729536
 20
104.4399999999999
 30
0.0
 70
    64
  0
VERTEX
  5
3FF
330
386
100
AcDbEntity
  8
0
  6
Continuous
100
AcDbVertex
100
AcDbPolygonMeshVertex
 10
233.5156237729536
 20
104.4399999999999
 30
0.0
 70
    64
  0
VERTEX
  5
400
330
386
100
AcDbEntity
  8
0
  6
Continuous
100
AcDbVertex
100
AcDbPolygonMeshVertex
 10
233.5313037729536
 20
104.4399999999999
 30
0.0
 70
    64
  0
VERTEX
  5
401
330
386
100
AcDbEntity
  8
0
  6
Continuous
100
AcDbVertex
100
AcDbPolygonMeshVertex
 10
233.5469837729537
 20
104.4399999999999
 30
0.0
 70
    64
  0
VERTEX
  5
402
330
386
100
AcDbEntity
  8
0
  6
Continuous
100
AcDbVertex
100
AcDbPolygonMeshVertex
 10
233.5626637729536
 20
104.4399999999999
 30
0.0
 70
    64
  0
VERTEX
  5
403
330
386
100
AcDbEntity
  8
0
  6
Continuous
100
AcDbVertex
100
AcDbPolygonMeshVertex
 10
233.5783437729536
 20
104.4399999999999
 30
0.0
 70
    64
  0
VERTEX
  5
404
330
386
100
AcDbEntity
  8
0
  6
Continuous
100
AcDbVertex
100
AcDbPolygonMeshVertex
 10
233.5940237729536
 20
104.4399999999999
 30
0.0
 70
    64
  0
VERTEX
  5
405
330
386
100
AcDbEntity
  8
0
  6
Continuous
100
AcDbVertex
100
AcDbPolygonMeshVertex
 10
233.6097037729536
 20
104.4399999999999
 30
0.0
 70
    64
  0
VERTEX
  5
406
330
386
100
AcDbEntity
  8
0
  6
Continuous
100
AcDbVertex
100
AcDbPolygonMeshVertex
 10
233.6253837729536
 20
104.4399999999999
 30
0.0
 70
    64
  0
VERTEX
  5
407
330
386
100
AcDbEntity
  8
0
  6
Continuous
100
AcDbVertex
100
AcDbPolygonMeshVertex
 10
233.6410637729536
 20
104.4399999999999
 30
0.0
 70
    64
  0
VERTEX
  5
408
330
386
100
AcDbEntity
  8
0
  6
Continuous
100
AcDbVertex
100
AcDbPolygonMeshVertex
 10
233.6567437729537
 20
104.4399999999999
 30
0.0
 70
    64
  0
VERTEX
  5
409
330
386
100
AcDbEntity
  8
0
  6
Continuous
100
AcDbVertex
100
AcDbPolygonMeshVertex
 10
233.6724237729536
 20
104.4399999999999
 30
0.0
 70
    64
  0
VERTEX
  5
40A
330
386
100
AcDbEntity
  8
0
  6
Continuous
100
AcDbVertex
100
AcDbPolygonMeshVertex
 10
233.6881037729536
 20
104.4399999999999
 30
0.0
 70
    64
  0
VERTEX
  5
40B
330
386
100
AcDbEntity
  8
0
  6
Continuous
100
AcDbVertex
100
AcDbPolygonMeshVertex
 10
233.7037837729536
 20
104.4399999999999
 30
0.0
 70
    64
  0
VERTEX
  5
40C
330
386
100
AcDbEntity
  8
0
  6
Continuous
100
AcDbVertex
100
AcDbPolygonMeshVertex
 10
233.7194637729536
 20
104.4399999999999
 30
0.0
 70
    64
  0
VERTEX
  5
40D
330
386
100
AcDbEntity
  8
0
  6
Continuous
100
AcDbVertex
100
AcDbPolygonMeshVertex
 10
233.7351437729537
 20
104.4399999999999
 30
0.0
 70
    64
  0
VERTEX
  5
40E
330
386
100
AcDbEntity
  8
0
  6
Continuous
100
AcDbVertex
100
AcDbPolygonMeshVertex
 10
233.7508237729536
 20
104.4399999999999
 30
0.0
 70
    64
  0
VERTEX
  5
40F
330
386
100
AcDbEntity
  8
0
  6
Continuous
100
AcDbVertex
100
AcDbPolygonMeshVertex
 10
233.7665037729536
 20
104.4399999999999
 30
0.0
 70
    64
  0
VERTEX
  5
410
330
386
100
AcDbEntity
  8
0
  6
Continuous
100
AcDbVertex
100
AcDbPolygonMeshVertex
 10
233.7821837729536
 20
104.4399999999999
 30
0.0
 70
    64
  0
VERTEX
  5
411
330
386
100
AcDbEntity
  8
0
  6
Continuous
100
AcDbVertex
100
AcDbPolygonMeshVertex
 10
233.7978637729536
 20
104.4399999999999
 30
0.0
 70
    64
  0
VERTEX
  5
412
330
386
100
AcDbEntity
  8
0
  6
Continuous
100
AcDbVertex
100
AcDbPolygonMeshVertex
 10
233.8135437729536
 20
104.4399999999999
 30
0.0
 70
    64
  0
VERTEX
  5
413
330
386
100
AcDbEntity
  8
0
  6
Continuous
100
AcDbVertex
100
AcDbPolygonMeshVertex
 10
233.8292237729536
 20
104.4399999999999
 30
0.0
 70
    64
  0
VERTEX
  5
414
330
386
100
AcDbEntity
  8
0
  6
Continuous
100
AcDbVertex
100
AcDbPolygonMeshVertex
 10
233.8449037729536
 20
104.4399999999999
 30
0.0
 70
    64
  0
VERTEX
  5
415
330
386
100
AcDbEntity
  8
0
  6
Continuous
100
AcDbVertex
100
AcDbPolygonMeshVertex
 10
233.8605837729536
 20
104.4399999999999
 30
0.0
 70
    64
  0
VERTEX
  5
416
330
386
100
AcDbEntity
  8
0
  6
Continuous
100
AcDbVertex
100
AcDbPolygonMeshVertex
 10
233.8762637729536
 20
104.4399999999999
 30
0.0
 70
    64
  0
VERTEX
  5
417
330
386
100
AcDbEntity
  8
0
  6
Continuous
100
AcDbVertex
100
AcDbPolygonMeshVertex
 10
233.8919437729536
 20
104.4399999999999
 30
0.0
 70
    64
  0
VERTEX
  5
418
330
386
100
AcDbEntity
  8
0
  6
Continuous
100
AcDbVertex
100
AcDbPolygonMeshVertex
 10
233.9076237729536
 20
104.4399999999999
 30
0.0
 70
    64
  0
VERTEX
  5
419
330
386
100
AcDbEntity
  8
0
  6
Continuous
100
AcDbVertex
100
AcDbPolygonMeshVertex
 10
233.9233037729536
 20
104.4399999999999
 30
0.0
 70
    64
  0
VERTEX
  5
41A
330
386
100
AcDbEntity
  8
0
  6
Continuous
100
AcDbVertex
100
AcDbPolygonMeshVertex
 10
233.9389837729536
 20
104.4399999999999
 30
0.0
 70
    64
  0
VERTEX
  5
41B
330
386
100
AcDbEntity
  8
0
  6
Continuous
100
AcDbVertex
100
AcDbPolygonMeshVertex
 10
233.9546637729536
 20
104.4399999999999
 30
0.0
 70
    64
  0
VERTEX
  5
41C
330
386
100
AcDbEntity
  8
0
  6
Continuous
100
AcDbVertex
100
AcDbPolygonMeshVertex
 10
233.9703437729537
 20
104.4399999999999
 30
0.0
 70
    64
  0
VERTEX
  5
41D
330
386
100
AcDbEntity
  8
0
  6
Continuous
100
AcDbVertex
100
AcDbPolygonMeshVertex
 10
233.9860237729536
 20
104.4399999999999
 30
0.0
 70
    64
  0
VERTEX
  5
41E
330
386
100
AcDbEntity
  8
0
  6
Continuous
100
AcDbVertex
100
AcDbPolygonMeshVertex
 10
234.0017037729536
 20
104.4399999999999
 30
0.0
 70
    64
  0
VERTEX
  5
41F
330
386
100
AcDbEntity
  8
0
  6
Continuous
100
AcDbVertex
100
AcDbPolygonMeshVertex
 10
234.0173837729536
 20
104.4399999999999
 30
0.0
 70
    64
  0
VERTEX
  5
420
330
386
100
AcDbEntity
  8
0
  6
Continuous
100
AcDbVertex
100
AcDbPolygonMeshVertex
 10
234.0330637729536
 20
104.4399999999999
 30
0.0
 70
    64
  0
VERTEX
  5
421
330
386
100
AcDbEntity
  8
0
  6
Continuous
100
AcDbVertex
100
AcDbPolygonMeshVertex
 10
234.0487437729537
 20
104.4399999999999
 30
0.0
 70
    64
  0
VERTEX
  5
422
330
386
100
AcDbEntity
  8
0
  6
Continuous
100
AcDbVertex
100
AcDbPolygonMeshVertex
 10
234.0644237729536
 20
104.4399999999999
 30
0.0
 70
    64
  0
VERTEX
  5
423
330
386
100
AcDbEntity
  8
0
  6
Continuous
100
AcDbVertex
100
AcDbPolygonMeshVertex
 10
234.0801037729536
 20
104.4399999999999
 30
0.0
 70
    64
  0
VERTEX
  5
424
330
386
100
AcDbEntity
  8
0
  6
Continuous
100
AcDbVertex
100
AcDbPolygonMeshVertex
 10
234.0957837729536
 20
104.4399999999999
 30
0.0
 70
    64
  0
VERTEX
  5
425
330
386
100
AcDbEntity
  8
0
  6
Continuous
100
AcDbVertex
100
AcDbPolygonMeshVertex
 10
234.1114637729536
 20
104.4399999999999
 30
0.0
 70
    64
  0
VERTEX
  5
426
330
386
100
AcDbEntity
  8
0
  6
Continuous
100
AcDbVertex
100
AcDbPolygonMeshVertex
 10
234.1271437729536
 20
104.4399999999999
 30
0.0
 70
    64
  0
VERTEX
  5
427
330
386
100
AcDbEntity
  8
0
  6
Continuous
100
AcDbVertex
100
AcDbPolygonMeshVertex
 10
234.1428237729536
 20
104.4399999999999
 30
0.0
 70
    64
  0
VERTEX
  5
428
330
386
100
AcDbEntity
  8
0
  6
Continuous
100
AcDbVertex
100
AcDbPolygonMeshVertex
 10
234.1585037729536
 20
104.4399999999999
 30
0.0
 70
    64
  0
VERTEX
  5
429
330
386
100
AcDbEntity
  8
0
  6
Continuous
100
AcDbVertex
100
AcDbPolygonMeshVertex
 10
234.1741837729536
 20
104.4399999999999
 30
0.0
 70
    64
  0
VERTEX
  5
42A
330
386
100
AcDbEntity
  8
0
  6
Continuous
100
AcDbVertex
100
AcDbPolygonMeshVertex
 10
234.1898637729536
 20
104.4399999999999
 30
0.0
 70
    64
  0
VERTEX
  5
42B
330
386
100
AcDbEntity
  8
0
  6
Continuous
100
AcDbVertex
100
AcDbPolygonMeshVertex
 10
234.2055437729536
 20
104.4399999999999
 30
0.0
 70
    64
  0
VERTEX
  5
42C
330
386
100
AcDbEntity
  8
0
  6
Continuous
100
AcDbVertex
100
AcDbPolygonMeshVertex
 10
234.2212237729536
 20
104.4399999999999
 30
0.0
 70
    64
  0
VERTEX
  5
42D
330
386
100
AcDbEntity
  8
0
  6
Continuous
100
AcDbVertex
100
AcDbPolygonMeshVertex
 10
234.2369037729536
 20
104.4399999999999
 30
0.0
 70
    64
  0
VERTEX
  5
42E
330
386
100
AcDbEntity
  8
0
  6
Continuous
100
AcDbVertex
100
AcDbPolygonMeshVertex
 10
234.2525837729537
 20
104.4399999999999
 30
0.0
 70
    64
  0
VERTEX
  5
42F
330
386
100
AcDbEntity
  8
0
  6
Continuous
100
AcDbVertex
100
AcDbPolygonMeshVertex
 10
234.2682637729536
 20
104.4399999999999
 30
0.0
 70
    64
  0
VERTEX
  5
430
330
386
100
AcDbEntity
  8
0
  6
Continuous
100
AcDbVertex
100
AcDbPolygonMeshVertex
 10
234.2839437729536
 20
104.4399999999999
 30
0.0
 70
    64
  0
VERTEX
  5
431
330
386
100
AcDbEntity
  8
0
  6
Continuous
100
AcDbVertex
100
AcDbPolygonMeshVertex
 10
234.2996237729536
 20
104.4399999999999
 30
0.0
 70
    64
  0
VERTEX
  5
432
330
386
100
AcDbEntity
  8
0
  6
Continuous
100
AcDbVertex
100
AcDbPolygonMeshVertex
 10
234.3153037729536
 20
104.4399999999999
 30
0.0
 70
    64
  0
VERTEX
  5
433
330
386
100
AcDbEntity
  8
0
  6
Continuous
100
AcDbVertex
100
AcDbPolygonMeshVertex
 10
234.3309837729536
 20
104.4399999999999
 30
0.0
 70
    64
  0
VERTEX
  5
434
330
386
100
AcDbEntity
  8
0
  6
Continuous
100
AcDbVertex
100
AcDbPolygonMeshVertex
 10
234.3466637729536
 20
104.4399999999999
 30
0.0
 70
    64
  0
VERTEX
  5
435
330
386
100
AcDbEntity
  8
0
  6
Continuous
100
AcDbVertex
100
AcDbPolygonMeshVertex
 10
234.3623437729537
 20
104.4399999999999
 30
0.0
 70
    64
  0
VERTEX
  5
436
330
386
100
AcDbEntity
  8
0
  6
Continuous
100
AcDbVertex
100
AcDbPolygonMeshVertex
 10
234.3780237729536
 20
104.4399999999999
 30
0.0
 70
    64
  0
VERTEX
  5
437
330
386
100
AcDbEntity
  8
0
  6
Continuous
100
AcDbVertex
100
AcDbPolygonMeshVertex
 10
234.3937037729537
 20
104.4399999999999
 30
0.0
 70
    64
  0
VERTEX
  5
438
330
386
100
AcDbEntity
  8
0
  6
Continuous
100
AcDbVertex
100
AcDbPolygonMeshVertex
 10
234.4093837729536
 20
104.4399999999999
 30
0.0
 70
    64
  0
VERTEX
  5
439
330
386
100
AcDbEntity
  8
0
  6
Continuous
100
AcDbVertex
100
AcDbPolygonMeshVertex
 10
234.4250637729536
 20
104.4399999999999
 30
0.0
 70
    64
  0
VERTEX
  5
43A
330
386
100
AcDbEntity
  8
0
  6
Continuous
100
AcDbVertex
100
AcDbPolygonMeshVertex
 10
234.4407437729536
 20
104.4399999999999
 30
0.0
 70
    64
  0
VERTEX
  5
43B
330
386
100
AcDbEntity
  8
0
  6
Continuous
100
AcDbVertex
100
AcDbPolygonMeshVertex
 10
234.4564237729536
 20
104.4399999999999
 30
0.0
 70
    64
  0
VERTEX
  5
43C
330
386
100
AcDbEntity
  8
0
  6
Continuous
100
AcDbVertex
100
AcDbPolygonMeshVertex
 10
234.4721037729536
 20
104.4399999999999
 30
0.0
 70
    64
  0
VERTEX
  5
43D
330
386
100
AcDbEntity
  8
0
  6
Continuous
100
AcDbVertex
100
AcDbPolygonMeshVertex
 10
234.4877837729536
 20
104.4399999999999
 30
0.0
 70
    64
  0
VERTEX
  5
43E
330
386
100
AcDbEntity
  8
0
  6
Continuous
100
AcDbVertex
100
AcDbPolygonMeshVertex
 10
234.5034637729536
 20
104.4399999999999
 30
0.0
 70
    64
  0
VERTEX
  5
43F
330
386
100
AcDbEntity
  8
0
  6
Continuous
100
AcDbVertex
100
AcDbPolygonMeshVertex
 10
234.5191437729536
 20
104.4399999999999
 30
0.0
 70
    64
  0
VERTEX
  5
440
330
386
100
AcDbEntity
  8
0
  6
Continuous
100
AcDbVertex
100
AcDbPolygonMeshVertex
 10
234.5348237729536
 20
104.4399999999999
 30
0.0
 70
    64
  0
VERTEX
  5
441
330
386
100
AcDbEntity
  8
0
  6
Continuous
100
AcDbVertex
100
AcDbPolygonMeshVertex
 10
234.5505037729537
 20
104.4399999999999
 30
0.0
 70
    64
  0
VERTEX
  5
442
330
386
100
AcDbEntity
  8
0
  6
Continuous
100
AcDbVertex
100
AcDbPolygonMeshVertex
 10
234.5661837729536
 20
104.4399999999999
 30
0.0
 70
    64
  0
VERTEX
  5
443
330
386
100
AcDbEntity
  8
0
  6
Continuous
100
AcDbVertex
100
AcDbPolygonMeshVertex
 10
234.5818637729536
 20
104.4399999999999
 30
0.0
 70
    64
  0
VERTEX
  5
444
330
386
100
AcDbEntity
  8
0
  6
Continuous
100
AcDbVertex
100
AcDbPolygonMeshVertex
 10
234.5975437729536
 20
104.4399999999999
 30
0.0
 70
    64
  0
VERTEX
  5
445
330
386
100
AcDbEntity
  8
0
  6
Continuous
100
AcDbVertex
100
AcDbPolygonMeshVertex
 10
234.6132237729536
 20
104.4399999999999
 30
0.0
 70
    64
  0
VERTEX
  5
446
330
386
100
AcDbEntity
  8
0
  6
Continuous
100
AcDbVertex
100
AcDbPolygonMeshVertex
 10
234.6289037729536
 20
104.4399999999999
 30
0.0
 70
    64
  0
VERTEX
  5
447
330
386
100
AcDbEntity
  8
0
  6
Continuous
100
AcDbVertex
100
AcDbPolygonMeshVertex
 10
234.6445837729536
 20
104.4399999999999
 30
0.0
 70
    64
  0
VERTEX
  5
448
330
386
100
AcDbEntity
  8
0
  6
Continuous
100
AcDbVertex
100
AcDbPolygonMeshVertex
 10
234.6602637729536
 20
104.4399999999999
 30
0.0
 70
    64
  0
VERTEX
  5
449
330
386
100
AcDbEntity
  8
0
  6
Continuous
100
AcDbVertex
100
AcDbPolygonMeshVertex
 10
234.6759437729536
 20
104.4399999999999
 30
0.0
 70
    64
  0
VERTEX
  5
44A
330
386
100
AcDbEntity
  8
0
  6
Continuous
100
AcDbVertex
100
AcDbPolygonMeshVertex
 10
234.6916237729536
 20
104.4399999999999
 30
0.0
 70
    64
  0
VERTEX
  5
44B
330
386
100
AcDbEntity
  8
0
  6
Continuous
100
AcDbVertex
100
AcDbPolygonMeshVertex
 10
234.7073037729536
 20
104.4399999999999
 30
0.0
 70
    64
  0
VERTEX
  5
44C
330
386
100
AcDbEntity
  8
0
  6
Continuous
100
AcDbVertex
100
AcDbPolygonMeshVertex
 10
234.7229837729536
 20
104.4399999999999
 30
0.0
 70
    64
  0
VERTEX
  5
44D
330
386
100
AcDbEntity
  8
0
  6
Continuous
100
AcDbVertex
100
AcDbPolygonMeshVertex
 10
234.7386637729536
 20
104.4399999999999
 30
0.0
 70
    64
  0
VERTEX
  5
44E
330
386
100
AcDbEntity
  8
0
  6
Continuous
100
AcDbVertex
100
AcDbPolygonMeshVertex
 10
234.7543437729536
 20
104.4399999999999
 30
0.0
 70
    64
  0
VERTEX
  5
44F
330
386
100
AcDbEntity
  8
0
  6
Continuous
100
AcDbVertex
100
AcDbPolygonMeshVertex
 10
234.7700237729536
 20
104.4399999999999
 30
0.0
 70
    64
  0
VERTEX
  5
450
330
386
100
AcDbEntity
  8
0
  6
Continuous
100
AcDbVertex
100
AcDbPolygonMeshVertex
 10
234.7857037729536
 20
104.4399999999999
 30
0.0
 70
    64
  0
VERTEX
  5
451
330
386
100
AcDbEntity
  8
0
  6
Continuous
100
AcDbVertex
100
AcDbPolygonMeshVertex
 10
234.8013837729536
 20
104.4399999999999
 30
0.0
 70
    64
  0
VERTEX
  5
452
330
386
100
AcDbEntity
  8
0
  6
Continuous
100
AcDbVertex
100
AcDbPolygonMeshVertex
 10
234.8170637729536
 20
104.4399999999999
 30
0.0
 70
    64
  0
VERTEX
  5
453
330
386
100
AcDbEntity
  8
0
  6
Continuous
100
AcDbVertex
100
AcDbPolygonMeshVertex
 10
234.8327437729536
 20
104.4399999999999
 30
0.0
 70
    64
  0
VERTEX
  5
454
330
386
100
AcDbEntity
  8
0
  6
Continuous
100
AcDbVertex
100
AcDbPolygonMeshVertex
 10
234.8484237729536
 20
104.4399999999999
 30
0.0
 70
    64
  0
VERTEX
  5
455
330
386
100
AcDbEntity
  8
0
  6
Continuous
100
AcDbVertex
100
AcDbPolygonMeshVertex
 10
234.8641037729536
 20
104.4399999999999
 30
0.0
 70
    64
  0
VERTEX
  5
456
330
386
100
AcDbEntity
  8
0
  6
Continuous
100
AcDbVertex
100
AcDbPolygonMeshVertex
 10
234.8797837729536
 20
104.4399999999999
 30
0.0
 70
    64
  0
VERTEX
  5
457
330
386
100
AcDbEntity
  8
0
  6
Continuous
100
AcDbVertex
100
AcDbPolygonMeshVertex
 10
234.8954637729536
 20
104.4399999999999
 30
0.0
 70
    64
  0
VERTEX
  5
458
330
386
100
AcDbEntity
  8
0
  6
Continuous
100
AcDbVertex
100
AcDbPolygonMeshVertex
 10
234.9111437729536
 20
104.4399999999999
 30
0.0
 70
    64
  0
VERTEX
  5
459
330
386
100
AcDbEntity
  8
0
  6
Continuous
100
AcDbVertex
100
AcDbPolygonMeshVertex
 10
234.9268237729536
 20
104.4399999999999
 30
0.0
 70
    64
  0
VERTEX
  5
45A
330
386
100
AcDbEntity
  8
0
  6
Continuous
100
AcDbVertex
100
AcDbPolygonMeshVertex
 10
234.9425037729536
 20
104.4399999999999
 30
0.0
 70
    64
  0
VERTEX
  5
45B
330
386
100
AcDbEntity
  8
0
  6
Continuous
100
AcDbVertex
100
AcDbPolygonMeshVertex
 10
234.9581837729536
 20
104.4399999999999
 30
0.0
 70
    64
  0
VERTEX
  5
45C
330
386
100
AcDbEntity
  8
0
  6
Continuous
100
AcDbVertex
100
AcDbPolygonMeshVertex
 10
234.9738637729536
 20
104.4399999999999
 30
0.0
 70
    64
  0
VERTEX
  5
45D
330
386
100
AcDbEntity
  8
0
  6
Continuous
100
AcDbVertex
100
AcDbPolygonMeshVertex
 10
234.9895437729536
 20
104.4399999999999
 30
0.0
 70
    64
  0
VERTEX
  5
45E
330
386
100
AcDbEntity
  8
0
  6
Continuous
100
AcDbVertex
100
AcDbPolygonMeshVertex
 10
235.0052237729536
 20
104.4399999999999
 30
0.0
 70
    64
  0
VERTEX
  5
45F
330
386
100
AcDbEntity
  8
0
  6
Continuous
100
AcDbVertex
100
AcDbPolygonMeshVertex
 10
235.0209037729535
 20
104.4399999999999
 30
0.0
 70
    64
  0
VERTEX
  5
460
330
386
100
AcDbEntity
  8
0
  6
Continuous
100
AcDbVertex
100
AcDbPolygonMeshVertex
 10
235.0365837729536
 20
104.4399999999999
 30
0.0
 70
    64
  0
VERTEX
  5
461
330
386
100
AcDbEntity
  8
0
  6
Continuous
100
AcDbVertex
100
AcDbPolygonMeshVertex
 10
235.0522637729536
 20
104.4399999999999
 30
0.0
 70
    64
  0
VERTEX
  5
462
330
386
100
AcDbEntity
  8
0
  6
Continuous
100
AcDbVertex
100
AcDbPolygonMeshVertex
 10
235.0679437729536
 20
104.4399999999999
 30
0.0
 70
    64
  0
VERTEX
  5
463
330
386
100
AcDbEntity
  8
0
  6
Continuous
100
AcDbVertex
100
AcDbPolygonMeshVertex
 10
235.0836237729536
 20
104.4399999999999
 30
0.0
 70
    64
  0
VERTEX
  5
464
330
386
100
AcDbEntity
  8
0
  6
Continuous
100
AcDbVertex
100
AcDbPolygonMeshVertex
 10
235.0993037729537
 20
104.4399999999999
 30
0.0
 70
    64
  0
VERTEX
  5
465
330
386
100
AcDbEntity
  8
0
  6
Continuous
100
AcDbVertex
100
AcDbPolygonMeshVertex
 10
235.1149837729536
 20
104.4399999999999
 30
0.0
 70
    64
  0
VERTEX
  5
466
330
386
100
AcDbEntity
  8
0
  6
Continuous
100
AcDbVertex
100
AcDbPolygonMeshVertex
 10
235.1306637729536
 20
104.4399999999999
 30
0.0
 70
    64
  0
VERTEX
  5
467
330
386
100
AcDbEntity
  8
0
  6
Continuous
100
AcDbVertex
100
AcDbPolygonMeshVertex
 10
235.1463437729536
 20
104.4399999999999
 30
0.0
 70
    64
  0
VERTEX
  5
468
330
386
100
AcDbEntity
  8
0
  6
Continuous
100
AcDbVertex
100
AcDbPolygonMeshVertex
 10
235.1620237729536
 20
104.4399999999999
 30
0.0
 70
    64
  0
VERTEX
  5
469
330
386
100
AcDbEntity
  8
0
  6
Continuous
100
AcDbVertex
100
AcDbPolygonMeshVertex
 10
235.1777037729536
 20
104.4399999999999
 30
0.0
 70
    64
  0
VERTEX
  5
46A
330
386
100
AcDbEntity
  8
0
  6
Continuous
100
AcDbVertex
100
AcDbPolygonMeshVertex
 10
235.1933837729536
 20
104.4399999999999
 30
0.0
 70
    64
  0
VERTEX
  5
46B
330
386
100
AcDbEntity
  8
0
  6
Continuous
100
AcDbVertex
100
AcDbPolygonMeshVertex
 10
235.2090637729536
 20
104.4399999999999
 30
0.0
 70
    64
  0
VERTEX
  5
46C
330
386
100
AcDbEntity
  8
0
  6
Continuous
100
AcDbVertex
100
AcDbPolygonMeshVertex
 10
235.2247437729536
 20
104.4399999999999
 30
0.0
 70
    64
  0
VERTEX
  5
46D
330
386
100
AcDbEntity
  8
0
  6
Continuous
100
AcDbVertex
100
AcDbPolygonMeshVertex
 10
235.2404237729536
 20
104.4399999999999
 30
0.0
 70
    64
  0
VERTEX
  5
46E
330
386
100
AcDbEntity
  8
0
  6
Continuous
100
AcDbVertex
100
AcDbPolygonMeshVertex
 10
235.2561037729536
 20
104.4399999999999
 30
0.0
 70
    64
  0
VERTEX
  5
46F
330
386
100
AcDbEntity
  8
0
  6
Continuous
100
AcDbVertex
100
AcDbPolygonMeshVertex
 10
235.2717837729536
 20
104.4399999999999
 30
0.0
 70
    64
  0
VERTEX
  5
470
330
386
100
AcDbEntity
  8
0
  6
Continuous
100
AcDbVertex
100
AcDbPolygonMeshVertex
 10
235.2874637729536
 20
104.4399999999999
 30
0.0
 70
    64
  0
VERTEX
  5
471
330
386
100
AcDbEntity
  8
0
  6
Continuous
100
AcDbVertex
100
AcDbPolygonMeshVertex
 10
235.3031437729536
 20
104.4399999999999
 30
0.0
 70
    64
  0
VERTEX
  5
472
330
386
100
AcDbEntity
  8
0
  6
Continuous
100
AcDbVertex
100
AcDbPolygonMeshVertex
 10
235.3188237729536
 20
104.4399999999999
 30
0.0
 70
    64
  0
VERTEX
  5
473
330
386
100
AcDbEntity
  8
0
  6
Continuous
100
AcDbVertex
100
AcDbPolygonMeshVertex
 10
235.3345037729535
 20
104.4399999999999
 30
0.0
 70
    64
  0
VERTEX
  5
474
330
386
100
AcDbEntity
  8
0
  6
Continuous
100
AcDbVertex
100
AcDbPolygonMeshVertex
 10
235.3501837729536
 20
104.4399999999999
 30
0.0
 70
    64
  0
VERTEX
  5
475
330
386
100
AcDbEntity
  8
0
  6
Continuous
100
AcDbVertex
100
AcDbPolygonMeshVertex
 10
235.3658637729536
 20
104.4399999999999
 30
0.0
 70
    64
  0
VERTEX
  5
476
330
386
100
AcDbEntity
  8
0
  6
Continuous
100
AcDbVertex
100
AcDbPolygonMeshVertex
 10
235.3815437729536
 20
104.4399999999999
 30
0.0
 70
    64
  0
VERTEX
  5
477
330
386
100
AcDbEntity
  8
0
  6
Continuous
100
AcDbVertex
100
AcDbPolygonMeshVertex
 10
235.3972237729536
 20
104.4399999999999
 30
0.0
 70
    64
  0
VERTEX
  5
478
330
386
100
AcDbEntity
  8
0
  6
Continuous
100
AcDbVertex
100
AcDbPolygonMeshVertex
 10
235.4129037729536
 20
104.4399999999999
 30
0.0
 70
    64
  0
VERTEX
  5
479
330
386
100
AcDbEntity
  8
0
  6
Continuous
100
AcDbVertex
100
AcDbPolygonMeshVertex
 10
235.4285837729536
 20
104.4399999999999
 30
0.0
 70
    64
  0
VERTEX
  5
47A
330
386
100
AcDbEntity
  8
0
  6
Continuous
100
AcDbVertex
100
AcDbPolygonMeshVertex
 10
235.4442637729536
 20
104.4399999999999
 30
0.0
 70
    64
  0
VERTEX
  5
47B
330
386
100
AcDbEntity
  8
0
  6
Continuous
100
AcDbVertex
100
AcDbPolygonMeshVertex
 10
235.4599437729536
 20
104.4399999999999
 30
0.0
 70
    64
  0
VERTEX
  5
47C
330
386
100
AcDbEntity
  8
0
  6
Continuous
100
AcDbVertex
100
AcDbPolygonMeshVertex
 10
235.4756237729536
 20
104.4399999999999
 30
0.0
 70
    64
  0
VERTEX
  5
47D
330
386
100
AcDbEntity
  8
0
  6
Continuous
100
AcDbVertex
100
AcDbPolygonMeshVertex
 10
235.4913037729536
 20
104.4399999999999
 30
0.0
 70
    64
  0
VERTEX
  5
47E
330
386
100
AcDbEntity
  8
0
  6
Continuous
100
AcDbVertex
100
AcDbPolygonMeshVertex
 10
235.5069837729536
 20
104.4399999999999
 30
0.0
 70
    64
  0
VERTEX
  5
47F
330
386
100
AcDbEntity
  8
0
  6
Continuous
100
AcDbVertex
100
AcDbPolygonMeshVertex
 10
235.5226637729536
 20
104.4399999999999
 30
0.0
 70
    64
  0
VERTEX
  5
480
330
386
100
AcDbEntity
  8
0
  6
Continuous
100
AcDbVertex
100
AcDbPolygonMeshVertex
 10
235.5383437729536
 20
104.4399999999999
 30
0.0
 70
    64
  0
VERTEX
  5
481
330
386
100
AcDbEntity
  8
0
  6
Continuous
100
AcDbVertex
100
AcDbPolygonMeshVertex
 10
235.5540237729536
 20
104.4399999999999
 30
0.0
 70
    64
  0
VERTEX
  5
482
330
386
100
AcDbEntity
  8
0
  6
Continuous
100
AcDbVertex
100
AcDbPolygonMeshVertex
 10
231.6340237729537
 20
105.56
 30
0.0
 70
    64
  0
VERTEX
  5
483
330
386
100
AcDbEntity
  8
0
  6
Continuous
100
AcDbVertex
100
AcDbPolygonMeshVertex
 10
231.6497037729536
 20
105.56
 30
0.0
 70
    64
  0
VERTEX
  5
484
330
386
100
AcDbEntity
  8
0
  6
Continuous
100
AcDbVertex
100
AcDbPolygonMeshVertex
 10
231.6653837729536
 20
105.56
 30
0.0
 70
    64
  0
VERTEX
  5
485
330
386
100
AcDbEntity
  8
0
  6
Continuous
100
AcDbVertex
100
AcDbPolygonMeshVertex
 10
231.6810637729536
 20
105.56
 30
0.0
 70
    64
  0
VERTEX
  5
486
330
386
100
AcDbEntity
  8
0
  6
Continuous
100
AcDbVertex
100
AcDbPolygonMeshVertex
 10
231.6967437729537
 20
105.56
 30
0.0
 70
    64
  0
VERTEX
  5
487
330
386
100
AcDbEntity
  8
0
  6
Continuous
100
AcDbVertex
100
AcDbPolygonMeshVertex
 10
231.7124237729536
 20
105.56
 30
0.0
 70
    64
  0
VERTEX
  5
488
330
386
100
AcDbEntity
  8
0
  6
Continuous
100
AcDbVertex
100
AcDbPolygonMeshVertex
 10
231.7281037729536
 20
105.56
 30
0.0
 70
    64
  0
VERTEX
  5
489
330
386
100
AcDbEntity
  8
0
  6
Continuous
100
AcDbVertex
100
AcDbPolygonMeshVertex
 10
231.7437837729536
 20
105.56
 30
0.0
 70
    64
  0
VERTEX
  5
48A
330
386
100
AcDbEntity
  8
0
  6
Continuous
100
AcDbVertex
100
AcDbPolygonMeshVertex
 10
231.7594637729537
 20
105.56
 30
0.0
 70
    64
  0
VERTEX
  5
48B
330
386
100
AcDbEntity
  8
0
  6
Continuous
100
AcDbVertex
100
AcDbPolygonMeshVertex
 10
231.7751437729536
 20
105.56
 30
0.0
 70
    64
  0
VERTEX
  5
48C
330
386
100
AcDbEntity
  8
0
  6
Continuous
100
AcDbVertex
100
AcDbPolygonMeshVertex
 10
231.7908237729536
 20
105.56
 30
0.0
 70
    64
  0
VERTEX
  5
48D
330
386
100
AcDbEntity
  8
0
  6
Continuous
100
AcDbVertex
100
AcDbPolygonMeshVertex
 10
231.8065037729537
 20
105.56
 30
0.0
 70
    64
  0
VERTEX
  5
48E
330
386
100
AcDbEntity
  8
0
  6
Continuous
100
AcDbVertex
100
AcDbPolygonMeshVertex
 10
231.8221837729536
 20
105.56
 30
0.0
 70
    64
  0
VERTEX
  5
48F
330
386
100
AcDbEntity
  8
0
  6
Continuous
100
AcDbVertex
100
AcDbPolygonMeshVertex
 10
231.8378637729537
 20
105.56
 30
0.0
 70
    64
  0
VERTEX
  5
490
330
386
100
AcDbEntity
  8
0
  6
Continuous
100
AcDbVertex
100
AcDbPolygonMeshVertex
 10
231.8535437729536
 20
105.56
 30
0.0
 70
    64
  0
VERTEX
  5
491
330
386
100
AcDbEntity
  8
0
  6
Continuous
100
AcDbVertex
100
AcDbPolygonMeshVertex
 10
231.8692237729537
 20
105.56
 30
0.0
 70
    64
  0
VERTEX
  5
492
330
386
100
AcDbEntity
  8
0
  6
Continuous
100
AcDbVertex
100
AcDbPolygonMeshVertex
 10
231.8849037729536
 20
105.56
 30
0.0
 70
    64
  0
VERTEX
  5
493
330
386
100
AcDbEntity
  8
0
  6
Continuous
100
AcDbVertex
100
AcDbPolygonMeshVertex
 10
231.9005837729536
 20
105.56
 30
0.0
 70
    64
  0
VERTEX
  5
494
330
386
100
AcDbEntity
  8
0
  6
Continuous
100
AcDbVertex
100
AcDbPolygonMeshVertex
 10
231.9162637729537
 20
105.56
 30
0.0
 70
    64
  0
VERTEX
  5
495
330
386
100
AcDbEntity
  8
0
  6
Continuous
100
AcDbVertex
100
AcDbPolygonMeshVertex
 10
231.9319437729536
 20
105.56
 30
0.0
 70
    64
  0
VERTEX
  5
496
330
386
100
AcDbEntity
  8
0
  6
Continuous
100
AcDbVertex
100
AcDbPolygonMeshVertex
 10
231.9476237729537
 20
105.56
 30
0.0
 70
    64
  0
VERTEX
  5
497
330
386
100
AcDbEntity
  8
0
  6
Continuous
100
AcDbVertex
100
AcDbPolygonMeshVertex
 10
231.9633037729536
 20
105.56
 30
0.0
 70
    64
  0
VERTEX
  5
498
330
386
100
AcDbEntity
  8
0
  6
Continuous
100
AcDbVertex
100
AcDbPolygonMeshVertex
 10
231.9789837729536
 20
105.56
 30
0.0
 70
    64
  0
VERTEX
  5
499
330
386
100
AcDbEntity
  8
0
  6
Continuous
100
AcDbVertex
100
AcDbPolygonMeshVertex
 10
231.9946637729537
 20
105.56
 30
0.0
 70
    64
  0
VERTEX
  5
49A
330
386
100
AcDbEntity
  8
0
  6
Continuous
100
AcDbVertex
100
AcDbPolygonMeshVertex
 10
232.0103437729536
 20
105.56
 30
0.0
 70
    64
  0
VERTEX
  5
49B
330
386
100
AcDbEntity
  8
0
  6
Continuous
100
AcDbVertex
100
AcDbPolygonMeshVertex
 10
232.0260237729537
 20
105.56
 30
0.0
 70
    64
  0
VERTEX
  5
49C
330
386
100
AcDbEntity
  8
0
  6
Continuous
100
AcDbVertex
100
AcDbPolygonMeshVertex
 10
232.0417037729536
 20
105.56
 30
0.0
 70
    64
  0
VERTEX
  5
49D
330
386
100
AcDbEntity
  8
0
  6
Continuous
100
AcDbVertex
100
AcDbPolygonMeshVertex
 10
232.0573837729536
 20
105.56
 30
0.0
 70
    64
  0
VERTEX
  5
49E
330
386
100
AcDbEntity
  8
0
  6
Continuous
100
AcDbVertex
100
AcDbPolygonMeshVertex
 10
232.0730637729536
 20
105.56
 30
0.0
 70
    64
  0
VERTEX
  5
49F
330
386
100
AcDbEntity
  8
0
  6
Continuous
100
AcDbVertex
100
AcDbPolygonMeshVertex
 10
232.0887437729536
 20
105.56
 30
0.0
 70
    64
  0
VERTEX
  5
4A0
330
386
100
AcDbEntity
  8
0
  6
Continuous
100
AcDbVertex
100
AcDbPolygonMeshVertex
 10
232.1044237729537
 20
105.56
 30
0.0
 70
    64
  0
VERTEX
  5
4A1
330
386
100
AcDbEntity
  8
0
  6
Continuous
100
AcDbVertex
100
AcDbPolygonMeshVertex
 10
232.1201037729537
 20
105.56
 30
0.0
 70
    64
  0
VERTEX
  5
4A2
330
386
100
AcDbEntity
  8
0
  6
Continuous
100
AcDbVertex
100
AcDbPolygonMeshVertex
 10
232.1357837729536
 20
105.56
 30
0.0
 70
    64
  0
VERTEX
  5
4A3
330
386
100
AcDbEntity
  8
0
  6
Continuous
100
AcDbVertex
100
AcDbPolygonMeshVertex
 10
232.1514637729536
 20
105.56
 30
0.0
 70
    64
  0
VERTEX
  5
4A4
330
386
100
AcDbEntity
  8
0
  6
Continuous
100
AcDbVertex
100
AcDbPolygonMeshVertex
 10
232.1671437729536
 20
105.56
 30
0.0
 70
    64
  0
VERTEX
  5
4A5
330
386
100
AcDbEntity
  8
0
  6
Continuous
100
AcDbVertex
100
AcDbPolygonMeshVertex
 10
232.1828237729536
 20
105.56
 30
0.0
 70
    64
  0
VERTEX
  5
4A6
330
386
100
AcDbEntity
  8
0
  6
Continuous
100
AcDbVertex
100
AcDbPolygonMeshVertex
 10
232.1985037729537
 20
105.56
 30
0.0
 70
    64
  0
VERTEX
  5
4A7
330
386
100
AcDbEntity
  8
0
  6
Continuous
100
AcDbVertex
100
AcDbPolygonMeshVertex
 10
232.2141837729536
 20
105.56
 30
0.0
 70
    64
  0
VERTEX
  5
4A8
330
386
100
AcDbEntity
  8
0
  6
Continuous
100
AcDbVertex
100
AcDbPolygonMeshVertex
 10
232.2298637729536
 20
105.56
 30
0.0
 70
    64
  0
VERTEX
  5
4A9
330
386
100
AcDbEntity
  8
0
  6
Continuous
100
AcDbVertex
100
AcDbPolygonMeshVertex
 10
232.2455437729536
 20
105.56
 30
0.0
 70
    64
  0
VERTEX
  5
4AA
330
386
100
AcDbEntity
  8
0
  6
Continuous
100
AcDbVertex
100
AcDbPolygonMeshVertex
 10
232.2612237729537
 20
105.56
 30
0.0
 70
    64
  0
VERTEX
  5
4AB
330
386
100
AcDbEntity
  8
0
  6
Continuous
100
AcDbVertex
100
AcDbPolygonMeshVertex
 10
232.2769037729536
 20
105.56
 30
0.0
 70
    64
  0
VERTEX
  5
4AC
330
386
100
AcDbEntity
  8
0
  6
Continuous
100
AcDbVertex
100
AcDbPolygonMeshVertex
 10
232.2925837729536
 20
105.56
 30
0.0
 70
    64
  0
VERTEX
  5
4AD
330
386
100
AcDbEntity
  8
0
  6
Continuous
100
AcDbVertex
100
AcDbPolygonMeshVertex
 10
232.3082637729537
 20
105.56
 30
0.0
 70
    64
  0
VERTEX
  5
4AE
330
386
100
AcDbEntity
  8
0
  6
Continuous
100
AcDbVertex
100
AcDbPolygonMeshVertex
 10
232.3239437729536
 20
105.56
 30
0.0
 70
    64
  0
VERTEX
  5
4AF
330
386
100
AcDbEntity
  8
0
  6
Continuous
100
AcDbVertex
100
AcDbPolygonMeshVertex
 10
232.3396237729537
 20
105.56
 30
0.0
 70
    64
  0
VERTEX
  5
4B0
330
386
100
AcDbEntity
  8
0
  6
Continuous
100
AcDbVertex
100
AcDbPolygonMeshVertex
 10
232.3553037729536
 20
105.56
 30
0.0
 70
    64
  0
VERTEX
  5
4B1
330
386
100
AcDbEntity
  8
0
  6
Continuous
100
AcDbVertex
100
AcDbPolygonMeshVertex
 10
232.3709837729537
 20
105.56
 30
0.0
 70
    64
  0
VERTEX
  5
4B2
330
386
100
AcDbEntity
  8
0
  6
Continuous
100
AcDbVertex
100
AcDbPolygonMeshVertex
 10
232.3866637729536
 20
105.56
 30
0.0
 70
    64
  0
VERTEX
  5
4B3
330
386
100
AcDbEntity
  8
0
  6
Continuous
100
AcDbVertex
100
AcDbPolygonMeshVertex
 10
232.4023437729536
 20
105.56
 30
0.0
 70
    64
  0
VERTEX
  5
4B4
330
386
100
AcDbEntity
  8
0
  6
Continuous
100
AcDbVertex
100
AcDbPolygonMeshVertex
 10
232.4180237729537
 20
105.56
 30
0.0
 70
    64
  0
VERTEX
  5
4B5
330
386
100
AcDbEntity
  8
0
  6
Continuous
100
AcDbVertex
100
AcDbPolygonMeshVertex
 10
232.4337037729536
 20
105.56
 30
0.0
 70
    64
  0
VERTEX
  5
4B6
330
386
100
AcDbEntity
  8
0
  6
Continuous
100
AcDbVertex
100
AcDbPolygonMeshVertex
 10
232.4493837729537
 20
105.56
 30
0.0
 70
    64
  0
VERTEX
  5
4B7
330
386
100
AcDbEntity
  8
0
  6
Continuous
100
AcDbVertex
100
AcDbPolygonMeshVertex
 10
232.4650637729536
 20
105.56
 30
0.0
 70
    64
  0
VERTEX
  5
4B8
330
386
100
AcDbEntity
  8
0
  6
Continuous
100
AcDbVertex
100
AcDbPolygonMeshVertex
 10
232.4807437729536
 20
105.56
 30
0.0
 70
    64
  0
VERTEX
  5
4B9
330
386
100
AcDbEntity
  8
0
  6
Continuous
100
AcDbVertex
100
AcDbPolygonMeshVertex
 10
232.4964237729536
 20
105.56
 30
0.0
 70
    64
  0
VERTEX
  5
4BA
330
386
100
AcDbEntity
  8
0
  6
Continuous
100
AcDbVertex
100
AcDbPolygonMeshVertex
 10
232.5121037729536
 20
105.56
 30
0.0
 70
    64
  0
VERTEX
  5
4BB
330
386
100
AcDbEntity
  8
0
  6
Continuous
100
AcDbVertex
100
AcDbPolygonMeshVertex
 10
232.5277837729536
 20
105.56
 30
0.0
 70
    64
  0
VERTEX
  5
4BC
330
386
100
AcDbEntity
  8
0
  6
Continuous
100
AcDbVertex
100
AcDbPolygonMeshVertex
 10
232.5434637729537
 20
105.56
 30
0.0
 70
    64
  0
VERTEX
  5
4BD
330
386
100
AcDbEntity
  8
0
  6
Continuous
100
AcDbVertex
100
AcDbPolygonMeshVertex
 10
232.5591437729536
 20
105.56
 30
0.0
 70
    64
  0
VERTEX
  5
4BE
330
386
100
AcDbEntity
  8
0
  6
Continuous
100
AcDbVertex
100
AcDbPolygonMeshVertex
 10
232.5748237729536
 20
105.56
 30
0.0
 70
    64
  0
VERTEX
  5
4BF
330
386
100
AcDbEntity
  8
0
  6
Continuous
100
AcDbVertex
100
AcDbPolygonMeshVertex
 10
232.5905037729536
 20
105.56
 30
0.0
 70
    64
  0
VERTEX
  5
4C0
330
386
100
AcDbEntity
  8
0
  6
Continuous
100
AcDbVertex
100
AcDbPolygonMeshVertex
 10
232.6061837729536
 20
105.56
 30
0.0
 70
    64
  0
VERTEX
  5
4C1
330
386
100
AcDbEntity
  8
0
  6
Continuous
100
AcDbVertex
100
AcDbPolygonMeshVertex
 10
232.6218637729537
 20
105.56
 30
0.0
 70
    64
  0
VERTEX
  5
4C2
330
386
100
AcDbEntity
  8
0
  6
Continuous
100
AcDbVertex
100
AcDbPolygonMeshVertex
 10
232.6375437729536
 20
105.56
 30
0.0
 70
    64
  0
VERTEX
  5
4C3
330
386
100
AcDbEntity
  8
0
  6
Continuous
100
AcDbVertex
100
AcDbPolygonMeshVertex
 10
232.6532237729536
 20
105.56
 30
0.0
 70
    64
  0
VERTEX
  5
4C4
330
386
100
AcDbEntity
  8
0
  6
Continuous
100
AcDbVertex
100
AcDbPolygonMeshVertex
 10
232.6689037729536
 20
105.56
 30
0.0
 70
    64
  0
VERTEX
  5
4C5
330
386
100
AcDbEntity
  8
0
  6
Continuous
100
AcDbVertex
100
AcDbPolygonMeshVertex
 10
232.6845837729536
 20
105.56
 30
0.0
 70
    64
  0
VERTEX
  5
4C6
330
386
100
AcDbEntity
  8
0
  6
Continuous
100
AcDbVertex
100
AcDbPolygonMeshVertex
 10
232.7002637729536
 20
105.56
 30
0.0
 70
    64
  0
VERTEX
  5
4C7
330
386
100
AcDbEntity
  8
0
  6
Continuous
100
AcDbVertex
100
AcDbPolygonMeshVertex
 10
232.7159437729536
 20
105.56
 30
0.0
 70
    64
  0
VERTEX
  5
4C8
330
386
100
AcDbEntity
  8
0
  6
Continuous
100
AcDbVertex
100
AcDbPolygonMeshVertex
 10
232.7316237729536
 20
105.56
 30
0.0
 70
    64
  0
VERTEX
  5
4C9
330
386
100
AcDbEntity
  8
0
  6
Continuous
100
AcDbVertex
100
AcDbPolygonMeshVertex
 10
232.7473037729536
 20
105.56
 30
0.0
 70
    64
  0
VERTEX
  5
4CA
330
386
100
AcDbEntity
  8
0
  6
Continuous
100
AcDbVertex
100
AcDbPolygonMeshVertex
 10
232.7629837729537
 20
105.56
 30
0.0
 70
    64
  0
VERTEX
  5
4CB
330
386
100
AcDbEntity
  8
0
  6
Continuous
100
AcDbVertex
100
AcDbPolygonMeshVertex
 10
232.7786637729536
 20
105.56
 30
0.0
 70
    64
  0
VERTEX
  5
4CC
330
386
100
AcDbEntity
  8
0
  6
Continuous
100
AcDbVertex
100
AcDbPolygonMeshVertex
 10
232.7943437729536
 20
105.56
 30
0.0
 70
    64
  0
VERTEX
  5
4CD
330
386
100
AcDbEntity
  8
0
  6
Continuous
100
AcDbVertex
100
AcDbPolygonMeshVertex
 10
232.8100237729537
 20
105.56
 30
0.0
 70
    64
  0
VERTEX
  5
4CE
330
386
100
AcDbEntity
  8
0
  6
Continuous
100
AcDbVertex
100
AcDbPolygonMeshVertex
 10
232.8257037729536
 20
105.56
 30
0.0
 70
    64
  0
VERTEX
  5
4CF
330
386
100
AcDbEntity
  8
0
  6
Continuous
100
AcDbVertex
100
AcDbPolygonMeshVertex
 10
232.8413837729537
 20
105.56
 30
0.0
 70
    64
  0
VERTEX
  5
4D0
330
386
100
AcDbEntity
  8
0
  6
Continuous
100
AcDbVertex
100
AcDbPolygonMeshVertex
 10
232.8570637729536
 20
105.56
 30
0.0
 70
    64
  0
VERTEX
  5
4D1
330
386
100
AcDbEntity
  8
0
  6
Continuous
100
AcDbVertex
100
AcDbPolygonMeshVertex
 10
232.8727437729536
 20
105.56
 30
0.0
 70
    64
  0
VERTEX
  5
4D2
330
386
100
AcDbEntity
  8
0
  6
Continuous
100
AcDbVertex
100
AcDbPolygonMeshVertex
 10
232.8884237729536
 20
105.56
 30
0.0
 70
    64
  0
VERTEX
  5
4D3
330
386
100
AcDbEntity
  8
0
  6
Continuous
100
AcDbVertex
100
AcDbPolygonMeshVertex
 10
232.9041037729536
 20
105.56
 30
0.0
 70
    64
  0
VERTEX
  5
4D4
330
386
100
AcDbEntity
  8
0
  6
Continuous
100
AcDbVertex
100
AcDbPolygonMeshVertex
 10
232.9197837729537
 20
105.56
 30
0.0
 70
    64
  0
VERTEX
  5
4D5
330
386
100
AcDbEntity
  8
0
  6
Continuous
100
AcDbVertex
100
AcDbPolygonMeshVertex
 10
232.9354637729536
 20
105.56
 30
0.0
 70
    64
  0
VERTEX
  5
4D6
330
386
100
AcDbEntity
  8
0
  6
Continuous
100
AcDbVertex
100
AcDbPolygonMeshVertex
 10
232.9511437729536
 20
105.56
 30
0.0
 70
    64
  0
VERTEX
  5
4D7
330
386
100
AcDbEntity
  8
0
  6
Continuous
100
AcDbVertex
100
AcDbPolygonMeshVertex
 10
232.9668237729536
 20
105.56
 30
0.0
 70
    64
  0
VERTEX
  5
4D8
330
386
100
AcDbEntity
  8
0
  6
Continuous
100
AcDbVertex
100
AcDbPolygonMeshVertex
 10
232.9825037729536
 20
105.56
 30
0.0
 70
    64
  0
VERTEX
  5
4D9
330
386
100
AcDbEntity
  8
0
  6
Continuous
100
AcDbVertex
100
AcDbPolygonMeshVertex
 10
232.9981837729536
 20
105.56
 30
0.0
 70
    64
  0
VERTEX
  5
4DA
330
386
100
AcDbEntity
  8
0
  6
Continuous
100
AcDbVertex
100
AcDbPolygonMeshVertex
 10
233.0138637729536
 20
105.56
 30
0.0
 70
    64
  0
VERTEX
  5
4DB
330
386
100
AcDbEntity
  8
0
  6
Continuous
100
AcDbVertex
100
AcDbPolygonMeshVertex
 10
233.0295437729536
 20
105.56
 30
0.0
 70
    64
  0
VERTEX
  5
4DC
330
386
100
AcDbEntity
  8
0
  6
Continuous
100
AcDbVertex
100
AcDbPolygonMeshVertex
 10
233.0452237729537
 20
105.56
 30
0.0
 70
    64
  0
VERTEX
  5
4DD
330
386
100
AcDbEntity
  8
0
  6
Continuous
100
AcDbVertex
100
AcDbPolygonMeshVertex
 10
233.0609037729536
 20
105.56
 30
0.0
 70
    64
  0
VERTEX
  5
4DE
330
386
100
AcDbEntity
  8
0
  6
Continuous
100
AcDbVertex
100
AcDbPolygonMeshVertex
 10
233.0765837729536
 20
105.56
 30
0.0
 70
    64
  0
VERTEX
  5
4DF
330
386
100
AcDbEntity
  8
0
  6
Continuous
100
AcDbVertex
100
AcDbPolygonMeshVertex
 10
233.0922637729536
 20
105.56
 30
0.0
 70
    64
  0
VERTEX
  5
4E0
330
386
100
AcDbEntity
  8
0
  6
Continuous
100
AcDbVertex
100
AcDbPolygonMeshVertex
 10
233.1079437729536
 20
105.56
 30
0.0
 70
    64
  0
VERTEX
  5
4E1
330
386
100
AcDbEntity
  8
0
  6
Continuous
100
AcDbVertex
100
AcDbPolygonMeshVertex
 10
233.1236237729537
 20
105.56
 30
0.0
 70
    64
  0
VERTEX
  5
4E2
330
386
100
AcDbEntity
  8
0
  6
Continuous
100
AcDbVertex
100
AcDbPolygonMeshVertex
 10
233.1393037729536
 20
105.56
 30
0.0
 70
    64
  0
VERTEX
  5
4E3
330
386
100
AcDbEntity
  8
0
  6
Continuous
100
AcDbVertex
100
AcDbPolygonMeshVertex
 10
233.1549837729536
 20
105.56
 30
0.0
 70
    64
  0
VERTEX
  5
4E4
330
386
100
AcDbEntity
  8
0
  6
Continuous
100
AcDbVertex
100
AcDbPolygonMeshVertex
 10
233.1706637729536
 20
105.56
 30
0.0
 70
    64
  0
VERTEX
  5
4E5
330
386
100
AcDbEntity
  8
0
  6
Continuous
100
AcDbVertex
100
AcDbPolygonMeshVertex
 10
233.1863437729536
 20
105.56
 30
0.0
 70
    64
  0
VERTEX
  5
4E6
330
386
100
AcDbEntity
  8
0
  6
Continuous
100
AcDbVertex
100
AcDbPolygonMeshVertex
 10
233.2020237729536
 20
105.56
 30
0.0
 70
    64
  0
VERTEX
  5
4E7
330
386
100
AcDbEntity
  8
0
  6
Continuous
100
AcDbVertex
100
AcDbPolygonMeshVertex
 10
233.2177037729536
 20
105.56
 30
0.0
 70
    64
  0
VERTEX
  5
4E8
330
386
100
AcDbEntity
  8
0
  6
Continuous
100
AcDbVertex
100
AcDbPolygonMeshVertex
 10
233.2333837729537
 20
105.56
 30
0.0
 70
    64
  0
VERTEX
  5
4E9
330
386
100
AcDbEntity
  8
0
  6
Continuous
100
AcDbVertex
100
AcDbPolygonMeshVertex
 10
233.2490637729536
 20
105.56
 30
0.0
 70
    64
  0
VERTEX
  5
4EA
330
386
100
AcDbEntity
  8
0
  6
Continuous
100
AcDbVertex
100
AcDbPolygonMeshVertex
 10
233.2647437729537
 20
105.56
 30
0.0
 70
    64
  0
VERTEX
  5
4EB
330
386
100
AcDbEntity
  8
0
  6
Continuous
100
AcDbVertex
100
AcDbPolygonMeshVertex
 10
233.2804237729536
 20
105.56
 30
0.0
 70
    64
  0
VERTEX
  5
4EC
330
386
100
AcDbEntity
  8
0
  6
Continuous
100
AcDbVertex
100
AcDbPolygonMeshVertex
 10
233.2961037729536
 20
105.56
 30
0.0
 70
    64
  0
VERTEX
  5
4ED
330
386
100
AcDbEntity
  8
0
  6
Continuous
100
AcDbVertex
100
AcDbPolygonMeshVertex
 10
233.3117837729536
 20
105.56
 30
0.0
 70
    64
  0
VERTEX
  5
4EE
330
386
100
AcDbEntity
  8
0
  6
Continuous
100
AcDbVertex
100
AcDbPolygonMeshVertex
 10
233.3274637729536
 20
105.56
 30
0.0
 70
    64
  0
VERTEX
  5
4EF
330
386
100
AcDbEntity
  8
0
  6
Continuous
100
AcDbVertex
100
AcDbPolygonMeshVertex
 10
233.3431437729536
 20
105.56
 30
0.0
 70
    64
  0
VERTEX
  5
4F0
330
386
100
AcDbEntity
  8
0
  6
Continuous
100
AcDbVertex
100
AcDbPolygonMeshVertex
 10
233.3588237729536
 20
105.56
 30
0.0
 70
    64
  0
VERTEX
  5
4F1
330
386
100
AcDbEntity
  8
0
  6
Continuous
100
AcDbVertex
100
AcDbPolygonMeshVertex
 10
233.3745037729536
 20
105.56
 30
0.0
 70
    64
  0
VERTEX
  5
4F2
330
386
100
AcDbEntity
  8
0
  6
Continuous
100
AcDbVertex
100
AcDbPolygonMeshVertex
 10
233.3901837729536
 20
105.56
 30
0.0
 70
    64
  0
VERTEX
  5
4F3
330
386
100
AcDbEntity
  8
0
  6
Continuous
100
AcDbVertex
100
AcDbPolygonMeshVertex
 10
233.4058637729536
 20
105.56
 30
0.0
 70
    64
  0
VERTEX
  5
4F4
330
386
100
AcDbEntity
  8
0
  6
Continuous
100
AcDbVertex
100
AcDbPolygonMeshVertex
 10
233.4215437729536
 20
105.56
 30
0.0
 70
    64
  0
VERTEX
  5
4F5
330
386
100
AcDbEntity
  8
0
  6
Continuous
100
AcDbVertex
100
AcDbPolygonMeshVertex
 10
233.4372237729536
 20
105.56
 30
0.0
 70
    64
  0
VERTEX
  5
4F6
330
386
100
AcDbEntity
  8
0
  6
Continuous
100
AcDbVertex
100
AcDbPolygonMeshVertex
 10
233.4529037729536
 20
105.56
 30
0.0
 70
    64
  0
VERTEX
  5
4F7
330
386
100
AcDbEntity
  8
0
  6
Continuous
100
AcDbVertex
100
AcDbPolygonMeshVertex
 10
233.4685837729537
 20
105.56
 30
0.0
 70
    64
  0
VERTEX
  5
4F8
330
386
100
AcDbEntity
  8
0
  6
Continuous
100
AcDbVertex
100
AcDbPolygonMeshVertex
 10
233.4842637729536
 20
105.56
 30
0.0
 70
    64
  0
VERTEX
  5
4F9
330
386
100
AcDbEntity
  8
0
  6
Continuous
100
AcDbVertex
100
AcDbPolygonMeshVertex
 10
233.4999437729536
 20
105.56
 30
0.0
 70
    64
  0
VERTEX
  5
4FA
330
386
100
AcDbEntity
  8
0
  6
Continuous
100
AcDbVertex
100
AcDbPolygonMeshVertex
 10
233.5156237729536
 20
105.56
 30
0.0
 70
    64
  0
VERTEX
  5
4FB
330
386
100
AcDbEntity
  8
0
  6
Continuous
100
AcDbVertex
100
AcDbPolygonMeshVertex
 10
233.5313037729536
 20
105.56
 30
0.0
 70
    64
  0
VERTEX
  5
4FC
330
386
100
AcDbEntity
  8
0
  6
Continuous
100
AcDbVertex
100
AcDbPolygonMeshVertex
 10
233.5469837729537
 20
105.56
 30
0.0
 70
    64
  0
VERTEX
  5
4FD
330
386
100
AcDbEntity
  8
0
  6
Continuous
100
AcDbVertex
100
AcDbPolygonMeshVertex
 10
233.5626637729536
 20
105.56
 30
0.0
 70
    64
  0
VERTEX
  5
4FE
330
386
100
AcDbEntity
  8
0
  6
Continuous
100
AcDbVertex
100
AcDbPolygonMeshVertex
 10
233.5783437729536
 20
105.56
 30
0.0
 70
    64
  0
VERTEX
  5
4FF
330
386
100
AcDbEntity
  8
0
  6
Continuous
100
AcDbVertex
100
AcDbPolygonMeshVertex
 10
233.5940237729536
 20
105.56
 30
0.0
 70
    64
  0
VERTEX
  5
500
330
386
100
AcDbEntity
  8
0
  6
Continuous
100
AcDbVertex
100
AcDbPolygonMeshVertex
 10
233.6097037729536
 20
105.56
 30
0.0
 70
    64
  0
VERTEX
  5
501
330
386
100
AcDbEntity
  8
0
  6
Continuous
100
AcDbVertex
100
AcDbPolygonMeshVertex
 10
233.6253837729536
 20
105.56
 30
0.0
 70
    64
  0
VERTEX
  5
502
330
386
100
AcDbEntity
  8
0
  6
Continuous
100
AcDbVertex
100
AcDbPolygonMeshVertex
 10
233.6410637729536
 20
105.56
 30
0.0
 70
    64
  0
VERTEX
  5
503
330
386
100
AcDbEntity
  8
0
  6
Continuous
100
AcDbVertex
100
AcDbPolygonMeshVertex
 10
233.6567437729537
 20
105.56
 30
0.0
 70
    64
  0
VERTEX
  5
504
330
386
100
AcDbEntity
  8
0
  6
Continuous
100
AcDbVertex
100
AcDbPolygonMeshVertex
 10
233.6724237729536
 20
105.56
 30
0.0
 70
    64
  0
VERTEX
  5
505
330
386
100
AcDbEntity
  8
0
  6
Continuous
100
AcDbVertex
100
AcDbPolygonMeshVertex
 10
233.6881037729536
 20
105.56
 30
0.0
 70
    64
  0
VERTEX
  5
506
330
386
100
AcDbEntity
  8
0
  6
Continuous
100
AcDbVertex
100
AcDbPolygonMeshVertex
 10
233.7037837729536
 20
105.56
 30
0.0
 70
    64
  0
VERTEX
  5
507
330
386
100
AcDbEntity
  8
0
  6
Continuous
100
AcDbVertex
100
AcDbPolygonMeshVertex
 10
233.7194637729536
 20
105.56
 30
0.0
 70
    64
  0
VERTEX
  5
508
330
386
100
AcDbEntity
  8
0
  6
Continuous
100
AcDbVertex
100
AcDbPolygonMeshVertex
 10
233.7351437729537
 20
105.56
 30
0.0
 70
    64
  0
VERTEX
  5
509
330
386
100
AcDbEntity
  8
0
  6
Continuous
100
AcDbVertex
100
AcDbPolygonMeshVertex
 10
233.7508237729536
 20
105.56
 30
0.0
 70
    64
  0
VERTEX
  5
50A
330
386
100
AcDbEntity
  8
0
  6
Continuous
100
AcDbVertex
100
AcDbPolygonMeshVertex
 10
233.7665037729536
 20
105.56
 30
0.0
 70
    64
  0
VERTEX
  5
50B
330
386
100
AcDbEntity
  8
0
  6
Continuous
100
AcDbVertex
100
AcDbPolygonMeshVertex
 10
233.7821837729536
 20
105.56
 30
0.0
 70
    64
  0
VERTEX
  5
50C
330
386
100
AcDbEntity
  8
0
  6
Continuous
100
AcDbVertex
100
AcDbPolygonMeshVertex
 10
233.7978637729536
 20
105.56
 30
0.0
 70
    64
  0
VERTEX
  5
50D
330
386
100
AcDbEntity
  8
0
  6
Continuous
100
AcDbVertex
100
AcDbPolygonMeshVertex
 10
233.8135437729536
 20
105.56
 30
0.0
 70
    64
  0
VERTEX
  5
50E
330
386
100
AcDbEntity
  8
0
  6
Continuous
100
AcDbVertex
100
AcDbPolygonMeshVertex
 10
233.8292237729536
 20
105.56
 30
0.0
 70
    64
  0
VERTEX
  5
50F
330
386
100
AcDbEntity
  8
0
  6
Continuous
100
AcDbVertex
100
AcDbPolygonMeshVertex
 10
233.8449037729536
 20
105.56
 30
0.0
 70
    64
  0
VERTEX
  5
510
330
386
100
AcDbEntity
  8
0
  6
Continuous
100
AcDbVertex
100
AcDbPolygonMeshVertex
 10
233.8605837729536
 20
105.56
 30
0.0
 70
    64
  0
VERTEX
  5
511
330
386
100
AcDbEntity
  8
0
  6
Continuous
100
AcDbVertex
100
AcDbPolygonMeshVertex
 10
233.8762637729536
 20
105.56
 30
0.0
 70
    64
  0
VERTEX
  5
512
330
386
100
AcDbEntity
  8
0
  6
Continuous
100
AcDbVertex
100
AcDbPolygonMeshVertex
 10
233.8919437729536
 20
105.56
 30
0.0
 70
    64
  0
VERTEX
  5
513
330
386
100
AcDbEntity
  8
0
  6
Continuous
100
AcDbVertex
100
AcDbPolygonMeshVertex
 10
233.9076237729536
 20
105.56
 30
0.0
 70
    64
  0
VERTEX
  5
514
330
386
100
AcDbEntity
  8
0
  6
Continuous
100
AcDbVertex
100
AcDbPolygonMeshVertex
 10
233.9233037729536
 20
105.56
 30
0.0
 70
    64
  0
VERTEX
  5
515
330
386
100
AcDbEntity
  8
0
  6
Continuous
100
AcDbVertex
100
AcDbPolygonMeshVertex
 10
233.9389837729536
 20
105.56
 30
0.0
 70
    64
  0
VERTEX
  5
516
330
386
100
AcDbEntity
  8
0
  6
Continuous
100
AcDbVertex
100
AcDbPolygonMeshVertex
 10
233.9546637729536
 20
105.56
 30
0.0
 70
    64
  0
VERTEX
  5
517
330
386
100
AcDbEntity
  8
0
  6
Continuous
100
AcDbVertex
100
AcDbPolygonMeshVertex
 10
233.9703437729537
 20
105.56
 30
0.0
 70
    64
  0
VERTEX
  5
518
330
386
100
AcDbEntity
  8
0
  6
Continuous
100
AcDbVertex
100
AcDbPolygonMeshVertex
 10
233.9860237729536
 20
105.56
 30
0.0
 70
    64
  0
VERTEX
  5
519
330
386
100
AcDbEntity
  8
0
  6
Continuous
100
AcDbVertex
100
AcDbPolygonMeshVertex
 10
234.0017037729536
 20
105.56
 30
0.0
 70
    64
  0
VERTEX
  5
51A
330
386
100
AcDbEntity
  8
0
  6
Continuous
100
AcDbVertex
100
AcDbPolygonMeshVertex
 10
234.0173837729536
 20
105.56
 30
0.0
 70
    64
  0
VERTEX
  5
51B
330
386
100
AcDbEntity
  8
0
  6
Continuous
100
AcDbVertex
100
AcDbPolygonMeshVertex
 10
234.0330637729536
 20
105.56
 30
0.0
 70
    64
  0
VERTEX
  5
51C
330
386
100
AcDbEntity
  8
0
  6
Continuous
100
AcDbVertex
100
AcDbPolygonMeshVertex
 10
234.0487437729537
 20
105.56
 30
0.0
 70
    64
  0
VERTEX
  5
51D
330
386
100
AcDbEntity
  8
0
  6
Continuous
100
AcDbVertex
100
AcDbPolygonMeshVertex
 10
234.0644237729536
 20
105.56
 30
0.0
 70
    64
  0
VERTEX
  5
51E
330
386
100
AcDbEntity
  8
0
  6
Continuous
100
AcDbVertex
100
AcDbPolygonMeshVertex
 10
234.0801037729536
 20
105.56
 30
0.0
 70
    64
  0
VERTEX
  5
51F
330
386
100
AcDbEntity
  8
0
  6
Continuous
100
AcDbVertex
100
AcDbPolygonMeshVertex
 10
234.0957837729536
 20
105.56
 30
0.0
 70
    64
  0
VERTEX
  5
520
330
386
100
AcDbEntity
  8
0
  6
Continuous
100
AcDbVertex
100
AcDbPolygonMeshVertex
 10
234.1114637729536
 20
105.56
 30
0.0
 70
    64
  0
VERTEX
  5
521
330
386
100
AcDbEntity
  8
0
  6
Continuous
100
AcDbVertex
100
AcDbPolygonMeshVertex
 10
234.1271437729536
 20
105.56
 30
0.0
 70
    64
  0
VERTEX
  5
522
330
386
100
AcDbEntity
  8
0
  6
Continuous
100
AcDbVertex
100
AcDbPolygonMeshVertex
 10
234.1428237729536
 20
105.56
 30
0.0
 70
    64
  0
VERTEX
  5
523
330
386
100
AcDbEntity
  8
0
  6
Continuous
100
AcDbVertex
100
AcDbPolygonMeshVertex
 10
234.1585037729536
 20
105.56
 30
0.0
 70
    64
  0
VERTEX
  5
524
330
386
100
AcDbEntity
  8
0
  6
Continuous
100
AcDbVertex
100
AcDbPolygonMeshVertex
 10
234.1741837729536
 20
105.56
 30
0.0
 70
    64
  0
VERTEX
  5
525
330
386
100
AcDbEntity
  8
0
  6
Continuous
100
AcDbVertex
100
AcDbPolygonMeshVertex
 10
234.1898637729536
 20
105.56
 30
0.0
 70
    64
  0
VERTEX
  5
526
330
386
100
AcDbEntity
  8
0
  6
Continuous
100
AcDbVertex
100
AcDbPolygonMeshVertex
 10
234.2055437729536
 20
105.56
 30
0.0
 70
    64
  0
VERTEX
  5
527
330
386
100
AcDbEntity
  8
0
  6
Continuous
100
AcDbVertex
100
AcDbPolygonMeshVertex
 10
234.2212237729536
 20
105.56
 30
0.0
 70
    64
  0
VERTEX
  5
528
330
386
100
AcDbEntity
  8
0
  6
Continuous
100
AcDbVertex
100
AcDbPolygonMeshVertex
 10
234.2369037729537
 20
105.56
 30
0.0
 70
    64
  0
VERTEX
  5
529
330
386
100
AcDbEntity
  8
0
  6
Continuous
100
AcDbVertex
100
AcDbPolygonMeshVertex
 10
234.2525837729537
 20
105.56
 30
0.0
 70
    64
  0
VERTEX
  5
52A
330
386
100
AcDbEntity
  8
0
  6
Continuous
100
AcDbVertex
100
AcDbPolygonMeshVertex
 10
234.2682637729536
 20
105.56
 30
0.0
 70
    64
  0
VERTEX
  5
52B
330
386
100
AcDbEntity
  8
0
  6
Continuous
100
AcDbVertex
100
AcDbPolygonMeshVertex
 10
234.2839437729536
 20
105.56
 30
0.0
 70
    64
  0
VERTEX
  5
52C
330
386
100
AcDbEntity
  8
0
  6
Continuous
100
AcDbVertex
100
AcDbPolygonMeshVertex
 10
234.2996237729536
 20
105.56
 30
0.0
 70
    64
  0
VERTEX
  5
52D
330
386
100
AcDbEntity
  8
0
  6
Continuous
100
AcDbVertex
100
AcDbPolygonMeshVertex
 10
234.3153037729536
 20
105.56
 30
0.0
 70
    64
  0
VERTEX
  5
52E
330
386
100
AcDbEntity
  8
0
  6
Continuous
100
AcDbVertex
100
AcDbPolygonMeshVertex
 10
234.3309837729536
 20
105.56
 30
0.0
 70
    64
  0
VERTEX
  5
52F
330
386
100
AcDbEntity
  8
0
  6
Continuous
100
AcDbVertex
100
AcDbPolygonMeshVertex
 10
234.3466637729536
 20
105.56
 30
0.0
 70
    64
  0
VERTEX
  5
530
330
386
100
AcDbEntity
  8
0
  6
Continuous
100
AcDbVertex
100
AcDbPolygonMeshVertex
 10
234.3623437729537
 20
105.56
 30
0.0
 70
    64
  0
VERTEX
  5
531
330
386
100
AcDbEntity
  8
0
  6
Continuous
100
AcDbVertex
100
AcDbPolygonMeshVertex
 10
234.3780237729536
 20
105.56
 30
0.0
 70
    64
  0
VERTEX
  5
532
330
386
100
AcDbEntity
  8
0
  6
Continuous
100
AcDbVertex
100
AcDbPolygonMeshVertex
 10
234.3937037729537
 20
105.56
 30
0.0
 70
    64
  0
VERTEX
  5
533
330
386
100
AcDbEntity
  8
0
  6
Continuous
100
AcDbVertex
100
AcDbPolygonMeshVertex
 10
234.4093837729536
 20
105.56
 30
0.0
 70
    64
  0
VERTEX
  5
534
330
386
100
AcDbEntity
  8
0
  6
Continuous
100
AcDbVertex
100
AcDbPolygonMeshVertex
 10
234.4250637729536
 20
105.56
 30
0.0
 70
    64
  0
VERTEX
  5
535
330
386
100
AcDbEntity
  8
0
  6
Continuous
100
AcDbVertex
100
AcDbPolygonMeshVertex
 10
234.4407437729536
 20
105.56
 30
0.0
 70
    64
  0
VERTEX
  5
536
330
386
100
AcDbEntity
  8
0
  6
Continuous
100
AcDbVertex
100
AcDbPolygonMeshVertex
 10
234.4564237729536
 20
105.56
 30
0.0
 70
    64
  0
VERTEX
  5
537
330
386
100
AcDbEntity
  8
0
  6
Continuous
100
AcDbVertex
100
AcDbPolygonMeshVertex
 10
234.4721037729536
 20
105.56
 30
0.0
 70
    64
  0
VERTEX
  5
538
330
386
100
AcDbEntity
  8
0
  6
Continuous
100
AcDbVertex
100
AcDbPolygonMeshVertex
 10
234.4877837729536
 20
105.56
 30
0.0
 70
    64
  0
VERTEX
  5
539
330
386
100
AcDbEntity
  8
0
  6
Continuous
100
AcDbVertex
100
AcDbPolygonMeshVertex
 10
234.5034637729536
 20
105.56
 30
0.0
 70
    64
  0
VERTEX
  5
53A
330
386
100
AcDbEntity
  8
0
  6
Continuous
100
AcDbVertex
100
AcDbPolygonMeshVertex
 10
234.5191437729536
 20
105.56
 30
0.0
 70
    64
  0
VERTEX
  5
53B
330
386
100
AcDbEntity
  8
0
  6
Continuous
100
AcDbVertex
100
AcDbPolygonMeshVertex
 10
234.5348237729536
 20
105.56
 30
0.0
 70
    64
  0
VERTEX
  5
53C
330
386
100
AcDbEntity
  8
0
  6
Continuous
100
AcDbVertex
100
AcDbPolygonMeshVertex
 10
234.5505037729537
 20
105.56
 30
0.0
 70
    64
  0
VERTEX
  5
53D
330
386
100
AcDbEntity
  8
0
  6
Continuous
100
AcDbVertex
100
AcDbPolygonMeshVertex
 10
234.5661837729536
 20
105.56
 30
0.0
 70
    64
  0
VERTEX
  5
53E
330
386
100
AcDbEntity
  8
0
  6
Continuous
100
AcDbVertex
100
AcDbPolygonMeshVertex
 10
234.5818637729536
 20
105.56
 30
0.0
 70
    64
  0
VERTEX
  5
53F
330
386
100
AcDbEntity
  8
0
  6
Continuous
100
AcDbVertex
100
AcDbPolygonMeshVertex
 10
234.5975437729536
 20
105.56
 30
0.0
 70
    64
  0
VERTEX
  5
540
330
386
100
AcDbEntity
  8
0
  6
Continuous
100
AcDbVertex
100
AcDbPolygonMeshVertex
 10
234.6132237729536
 20
105.56
 30
0.0
 70
    64
  0
VERTEX
  5
541
330
386
100
AcDbEntity
  8
0
  6
Continuous
100
AcDbVertex
100
AcDbPolygonMeshVertex
 10
234.6289037729536
 20
105.56
 30
0.0
 70
    64
  0
VERTEX
  5
542
330
386
100
AcDbEntity
  8
0
  6
Continuous
100
AcDbVertex
100
AcDbPolygonMeshVertex
 10
234.6445837729536
 20
105.56
 30
0.0
 70
    64
  0
VERTEX
  5
543
330
386
100
AcDbEntity
  8
0
  6
Continuous
100
AcDbVertex
100
AcDbPolygonMeshVertex
 10
234.6602637729536
 20
105.56
 30
0.0
 70
    64
  0
VERTEX
  5
544
330
386
100
AcDbEntity
  8
0
  6
Continuous
100
AcDbVertex
100
AcDbPolygonMeshVertex
 10
234.6759437729537
 20
105.56
 30
0.0
 70
    64
  0
VERTEX
  5
545
330
386
100
AcDbEntity
  8
0
  6
Continuous
100
AcDbVertex
100
AcDbPolygonMeshVertex
 10
234.6916237729536
 20
105.56
 30
0.0
 70
    64
  0
VERTEX
  5
546
330
386
100
AcDbEntity
  8
0
  6
Continuous
100
AcDbVertex
100
AcDbPolygonMeshVertex
 10
234.7073037729536
 20
105.56
 30
0.0
 70
    64
  0
VERTEX
  5
547
330
386
100
AcDbEntity
  8
0
  6
Continuous
100
AcDbVertex
100
AcDbPolygonMeshVertex
 10
234.7229837729536
 20
105.56
 30
0.0
 70
    64
  0
VERTEX
  5
548
330
386
100
AcDbEntity
  8
0
  6
Continuous
100
AcDbVertex
100
AcDbPolygonMeshVertex
 10
234.7386637729536
 20
105.56
 30
0.0
 70
    64
  0
VERTEX
  5
549
330
386
100
AcDbEntity
  8
0
  6
Continuous
100
AcDbVertex
100
AcDbPolygonMeshVertex
 10
234.7543437729536
 20
105.56
 30
0.0
 70
    64
  0
VERTEX
  5
54A
330
386
100
AcDbEntity
  8
0
  6
Continuous
100
AcDbVertex
100
AcDbPolygonMeshVertex
 10
234.7700237729536
 20
105.56
 30
0.0
 70
    64
  0
VERTEX
  5
54B
330
386
100
AcDbEntity
  8
0
  6
Continuous
100
AcDbVertex
100
AcDbPolygonMeshVertex
 10
234.7857037729536
 20
105.56
 30
0.0
 70
    64
  0
VERTEX
  5
54C
330
386
100
AcDbEntity
  8
0
  6
Continuous
100
AcDbVertex
100
AcDbPolygonMeshVertex
 10
234.8013837729536
 20
105.56
 30
0.0
 70
    64
  0
VERTEX
  5
54D
330
386
100
AcDbEntity
  8
0
  6
Continuous
100
AcDbVertex
100
AcDbPolygonMeshVertex
 10
234.8170637729537
 20
105.56
 30
0.0
 70
    64
  0
VERTEX
  5
54E
330
386
100
AcDbEntity
  8
0
  6
Continuous
100
AcDbVertex
100
AcDbPolygonMeshVertex
 10
234.8327437729536
 20
105.56
 30
0.0
 70
    64
  0
VERTEX
  5
54F
330
386
100
AcDbEntity
  8
0
  6
Continuous
100
AcDbVertex
100
AcDbPolygonMeshVertex
 10
234.8484237729536
 20
105.56
 30
0.0
 70
    64
  0
VERTEX
  5
550
330
386
100
AcDbEntity
  8
0
  6
Continuous
100
AcDbVertex
100
AcDbPolygonMeshVertex
 10
234.8641037729536
 20
105.56
 30
0.0
 70
    64
  0
VERTEX
  5
551
330
386
100
AcDbEntity
  8
0
  6
Continuous
100
AcDbVertex
100
AcDbPolygonMeshVertex
 10
234.8797837729536
 20
105.56
 30
0.0
 70
    64
  0
VERTEX
  5
552
330
386
100
AcDbEntity
  8
0
  6
Continuous
100
AcDbVertex
100
AcDbPolygonMeshVertex
 10
234.8954637729537
 20
105.56
 30
0.0
 70
    64
  0
VERTEX
  5
553
330
386
100
AcDbEntity
  8
0
  6
Continuous
100
AcDbVertex
100
AcDbPolygonMeshVertex
 10
234.9111437729536
 20
105.56
 30
0.0
 70
    64
  0
VERTEX
  5
554
330
386
100
AcDbEntity
  8
0
  6
Continuous
100
AcDbVertex
100
AcDbPolygonMeshVertex
 10
234.9268237729536
 20
105.56
 30
0.0
 70
    64
  0
VERTEX
  5
555
330
386
100
AcDbEntity
  8
0
  6
Continuous
100
AcDbVertex
100
AcDbPolygonMeshVertex
 10
234.9425037729536
 20
105.56
 30
0.0
 70
    64
  0
VERTEX
  5
556
330
386
100
AcDbEntity
  8
0
  6
Continuous
100
AcDbVertex
100
AcDbPolygonMeshVertex
 10
234.9581837729536
 20
105.56
 30
0.0
 70
    64
  0
VERTEX
  5
557
330
386
100
AcDbEntity
  8
0
  6
Continuous
100
AcDbVertex
100
AcDbPolygonMeshVertex
 10
234.9738637729536
 20
105.56
 30
0.0
 70
    64
  0
VERTEX
  5
558
330
386
100
AcDbEntity
  8
0
  6
Continuous
100
AcDbVertex
100
AcDbPolygonMeshVertex
 10
234.9895437729536
 20
105.56
 30
0.0
 70
    64
  0
VERTEX
  5
559
330
386
100
AcDbEntity
  8
0
  6
Continuous
100
AcDbVertex
100
AcDbPolygonMeshVertex
 10
235.0052237729536
 20
105.56
 30
0.0
 70
    64
  0
VERTEX
  5
55A
330
386
100
AcDbEntity
  8
0
  6
Continuous
100
AcDbVertex
100
AcDbPolygonMeshVertex
 10
235.0209037729536
 20
105.56
 30
0.0
 70
    64
  0
VERTEX
  5
55B
330
386
100
AcDbEntity
  8
0
  6
Continuous
100
AcDbVertex
100
AcDbPolygonMeshVertex
 10
235.0365837729536
 20
105.56
 30
0.0
 70
    64
  0
VERTEX
  5
55C
330
386
100
AcDbEntity
  8
0
  6
Continuous
100
AcDbVertex
100
AcDbPolygonMeshVertex
 10
235.0522637729536
 20
105.56
 30
0.0
 70
    64
  0
VERTEX
  5
55D
330
386
100
AcDbEntity
  8
0
  6
Continuous
100
AcDbVertex
100
AcDbPolygonMeshVertex
 10
235.0679437729537
 20
105.56
 30
0.0
 70
    64
  0
VERTEX
  5
55E
330
386
100
AcDbEntity
  8
0
  6
Continuous
100
AcDbVertex
100
AcDbPolygonMeshVertex
 10
235.0836237729536
 20
105.56
 30
0.0
 70
    64
  0
VERTEX
  5
55F
330
386
100
AcDbEntity
  8
0
  6
Continuous
100
AcDbVertex
100
AcDbPolygonMeshVertex
 10
235.0993037729537
 20
105.56
 30
0.0
 70
    64
  0
VERTEX
  5
560
330
386
100
AcDbEntity
  8
0
  6
Continuous
100
AcDbVertex
100
AcDbPolygonMeshVertex
 10
235.1149837729536
 20
105.56
 30
0.0
 70
    64
  0
VERTEX
  5
561
330
386
100
AcDbEntity
  8
0
  6
Continuous
100
AcDbVertex
100
AcDbPolygonMeshVertex
 10
235.1306637729536
 20
105.56
 30
0.0
 70
    64
  0
VERTEX
  5
562
330
386
100
AcDbEntity
  8
0
  6
Continuous
100
AcDbVertex
100
AcDbPolygonMeshVertex
 10
235.1463437729536
 20
105.56
 30
0.0
 70
    64
  0
VERTEX
  5
563
330
386
100
AcDbEntity
  8
0
  6
Continuous
100
AcDbVertex
100
AcDbPolygonMeshVertex
 10
235.1620237729536
 20
105.56
 30
0.0
 70
    64
  0
VERTEX
  5
564
330
386
100
AcDbEntity
  8
0
  6
Continuous
100
AcDbVertex
100
AcDbPolygonMeshVertex
 10
235.1777037729536
 20
105.56
 30
0.0
 70
    64
  0
VERTEX
  5
565
330
386
100
AcDbEntity
  8
0
  6
Continuous
100
AcDbVertex
100
AcDbPolygonMeshVertex
 10
235.1933837729536
 20
105.56
 30
0.0
 70
    64
  0
VERTEX
  5
566
330
386
100
AcDbEntity
  8
0
  6
Continuous
100
AcDbVertex
100
AcDbPolygonMeshVertex
 10
235.2090637729537
 20
105.56
 30
0.0
 70
    64
  0
VERTEX
  5
567
330
386
100
AcDbEntity
  8
0
  6
Continuous
100
AcDbVertex
100
AcDbPolygonMeshVertex
 10
235.2247437729536
 20
105.56
 30
0.0
 70
    64
  0
VERTEX
  5
568
330
386
100
AcDbEntity
  8
0
  6
Continuous
100
AcDbVertex
100
AcDbPolygonMeshVertex
 10
235.2404237729536
 20
105.56
 30
0.0
 70
    64
  0
VERTEX
  5
569
330
386
100
AcDbEntity
  8
0
  6
Continuous
100
AcDbVertex
100
AcDbPolygonMeshVertex
 10
235.2561037729536
 20
105.56
 30
0.0
 70
    64
  0
VERTEX
  5
56A
330
386
100
AcDbEntity
  8
0
  6
Continuous
100
AcDbVertex
100
AcDbPolygonMeshVertex
 10
235.2717837729536
 20
105.56
 30
0.0
 70
    64
  0
VERTEX
  5
56B
330
386
100
AcDbEntity
  8
0
  6
Continuous
100
AcDbVertex
100
AcDbPolygonMeshVertex
 10
235.2874637729536
 20
105.56
 30
0.0
 70
    64
  0
VERTEX
  5
56C
330
386
100
AcDbEntity
  8
0
  6
Continuous
100
AcDbVertex
100
AcDbPolygonMeshVertex
 10
235.3031437729536
 20
105.56
 30
0.0
 70
    64
  0
VERTEX
  5
56D
330
386
100
AcDbEntity
  8
0
  6
Continuous
100
AcDbVertex
100
AcDbPolygonMeshVertex
 10
235.3188237729536
 20
105.56
 30
0.0
 70
    64
  0
VERTEX
  5
56E
330
386
100
AcDbEntity
  8
0
  6
Continuous
100
AcDbVertex
100
AcDbPolygonMeshVertex
 10
235.3345037729536
 20
105.56
 30
0.0
 70
    64
  0
VERTEX
  5
56F
330
386
100
AcDbEntity
  8
0
  6
Continuous
100
AcDbVertex
100
AcDbPolygonMeshVertex
 10
235.3501837729536
 20
105.56
 30
0.0
 70
    64
  0
VERTEX
  5
570
330
386
100
AcDbEntity
  8
0
  6
Continuous
100
AcDbVertex
100
AcDbPolygonMeshVertex
 10
235.3658637729536
 20
105.56
 30
0.0
 70
    64
  0
VERTEX
  5
571
330
386
100
AcDbEntity
  8
0
  6
Continuous
100
AcDbVertex
100
AcDbPolygonMeshVertex
 10
235.3815437729537
 20
105.56
 30
0.0
 70
    64
  0
VERTEX
  5
572
330
386
100
AcDbEntity
  8
0
  6
Continuous
100
AcDbVertex
100
AcDbPolygonMeshVertex
 10
235.3972237729536
 20
105.56
 30
0.0
 70
    64
  0
VERTEX
  5
573
330
386
100
AcDbEntity
  8
0
  6
Continuous
100
AcDbVertex
100
AcDbPolygonMeshVertex
 10
235.4129037729536
 20
105.56
 30
0.0
 70
    64
  0
VERTEX
  5
574
330
386
100
AcDbEntity
  8
0
  6
Continuous
100
AcDbVertex
100
AcDbPolygonMeshVertex
 10
235.4285837729536
 20
105.56
 30
0.0
 70
    64
  0
VERTEX
  5
575
330
386
100
AcDbEntity
  8
0
  6
Continuous
100
AcDbVertex
100
AcDbPolygonMeshVertex
 10
235.4442637729536
 20
105.56
 30
0.0
 70
    64
  0
VERTEX
  5
576
330
386
100
AcDbEntity
  8
0
  6
Continuous
100
AcDbVertex
100
AcDbPolygonMeshVertex
 10
235.4599437729536
 20
105.56
 30
0.0
 70
    64
  0
VERTEX
  5
577
330
386
100
AcDbEntity
  8
0
  6
Continuous
100
AcDbVertex
100
AcDbPolygonMeshVertex
 10
235.4756237729536
 20
105.56
 30
0.0
 70
    64
  0
VERTEX
  5
578
330
386
100
AcDbEntity
  8
0
  6
Continuous
100
AcDbVertex
100
AcDbPolygonMeshVertex
 10
235.4913037729536
 20
105.56
 30
0.0
 70
    64
  0
VERTEX
  5
579
330
386
100
AcDbEntity
  8
0
  6
Continuous
100
AcDbVertex
100
AcDbPolygonMeshVertex
 10
235.5069837729536
 20
105.56
 30
0.0
 70
    64
  0
VERTEX
  5
57A
330
386
100
AcDbEntity
  8
0
  6
Continuous
100
AcDbVertex
100
AcDbPolygonMeshVertex
 10
235.5226637729537
 20
105.56
 30
0.0
 70
    64
  0
VERTEX
  5
57B
330
386
100
AcDbEntity
  8
0
  6
Continuous
100
AcDbVertex
100
AcDbPolygonMeshVertex
 10
235.5383437729536
 20
105.56
 30
0.0
 70
    64
  0
VERTEX
  5
57C
330
386
100
AcDbEntity
  8
0
  6
Continuous
100
AcDbVertex
100
AcDbPolygonMeshVertex
 10
235.5540237729536
 20
105.56
 30
0.0
 70
    64
  0
SEQEND
  5
57D
330
386
100
AcDbEntity
  8
0
  6
Continuous
  0
LINE
  5
57E
330
1E
100
AcDbEntity
  8
0
  6
DASHED
100
AcDbLine
 10
235.0
 20
105.0
 30
0.0
 11
242.5
 21
105.0
 31
0.0
  0
TEXT
  5
57F
330
1E
100
AcDbEntity
  8
BASE
  6
HIDDEN
100
AcDbText
 10
212.9367306491489
 20
100.2570637451747
 30
0.0
 40
2.0
  1
108:RX/TX
  7
ROMANS
100
AcDbText
  0
LINE
  5
580
330
1E
100
AcDbEntity
  8
BASE
  6
Continuous
100
AcDbLine
 10
197.9506146543173
 20
142.5
 30
0.0
 11
205.0
 21
142.5
 31
0.0
  0
LINE
  5
581
330
1E
100
AcDbEntity
  8
BASE
  6
Continuous
100
AcDbLine
 10
205.0
 20
142.5
 30
0.0
 11
205.0
 21
105.0
 31
0.0
  0
LINE
  5
582
330
1E
100
AcDbEntity
  8
BASE
  6
Continuous
100
AcDbLine
 10
205.0
 20
105.0
 30
0.0
 11
230.0
 21
105.0
 31
0.0
  0
TEXT
  5
583
330
1E
100
AcDbEntity
  8
0
  6
Continuous
100
AcDbText
 10
245.0
 20
103.9530647032138
 30
0.0
 40
2.0
  1
5)
  7
ROMANS
100
AcDbText
  0
TEXT
  5
584
330
1E
100
AcDbEntity
  8
0
  6
Continuous
100
AcDbText
 10
334.0309800848513
 20
177.54477801798
 30
0.0
 40
2.0
  1
1) EXTERNAL BLOCKING
  7
ROMANS
100
AcDbText
  0
TEXT
  5
585
330
1E
100
AcDbEntity
  8
0
  6
Continuous
100
AcDbText
 10
332.9645071367114
 20
174.2114446846467
 30
0.0
 40
2.0
  1
   EXTERN BLOCKERING
  7
ROMANS
100
AcDbText
  0
TEXT
  5
586
330
1E
100
AcDbEntity
  8
0
  6
Continuous
100
AcDbText
 10
333.3614725971513
 20
167.885120546037
 30
0.0
 40
2.0
  1
2) TRIP ETC.    NOTE
  7
ROMANS
100
AcDbText
  0
TEXT
  5
587
330
1E
100
AcDbEntity
  8
0
  6
Continuous
100
AcDbText
 10
332.7003289367951
 20
164.5517872127036
 30
0.0
 40
2.0
  1
   UTL™SNING MM.   OBS.
  7
ROMANS
100
AcDbText
  0
TEXT
  5
588
330
1E
100
AcDbEntity
  8
0
  6
Continuous
100
AcDbText
 10
333.3614725971513
 20
158.7184538793703
 30
0.0
 40
2.0
  1
3) ALARM ETC.
  7
ROMANS
100
AcDbText
  0
TEXT
  5
589
330
1E
100
AcDbEntity
  8
0
  6
Continuous
100
AcDbText
 10
338.5504611956046
 20
155.385120546037
 30
0.0
 40
2.0
  1
SIGNAL MM.
  7
ROMANS
100
AcDbText
  0
TEXT
  5
58A
330
1E
100
AcDbEntity
  8
0
  6
Continuous
100
AcDbText
 10
333.3614725971513
 20
149.5517872127036
 30
0.0
 40
2.0
  1
4) INTERNAL RELAY FAULT
  7
ROMANS
100
AcDbText
  0
TEXT
  5
58B
330
1E
100
AcDbEntity
  8
0
  6
Continuous
100
AcDbText
 10
332.694642736276
 20
146.2184538793703
 30
0.0
 40
2.0
  1
   INTERNT RELŽFEL
  7
ROMANS
100
AcDbText
  0
TEXT
  5
58C
330
1E
100
AcDbEntity
  8
0
  6
Continuous
100
AcDbText
 10
333.3614725971513
 20
140.385120546037
 30
0.0
 40
2.0
  1
5) BUS CONNECTION MODULE
  7
ROMANS
100
AcDbText
  0
TEXT
  5
58D
330
1E
100
AcDbEntity
  8
0
  6
Continuous
100
AcDbText
 10
338.8013371744194
 20
137.0517872127036
 30
0.0
 40
2.0
  1
BUSSANSLUTNINGSMODUL
  7
ROMANS
100
AcDbText
  0
TEXT
  5
58E
330
1E
100
AcDbEntity
  8
BASE
  6
Continuous
100
AcDbText
 10
100.0
 20
207.5
 30
0.0
 40
2.0
  1
RS 10072-AA SPAU 330 C
  7
ROMANS
100
AcDbText
  0
TEXT
  5
58F
330
1E
100
AcDbEntity
  8
BASE
  6
Continuous
100
AcDbText
 10
65.0
 20
201.9930629089246
 30
0.0
 40
2.0
  1
10
  7
ROMANS
100
AcDbText
  0
TEXT
  5
590
330
1E
100
AcDbEntity
  8
BASE
  6
Continuous
100
AcDbText
 10
65.0
 20
197.3593257332674
 30
0.0
 40
2.0
  1
11
  7
ROMANS
100
AcDbText
  0
TEXT
  5
591
330
1E
100
AcDbEntity
  8
BASE
  6
Continuous
100
AcDbText
 10
65.0
 20
114.1296987524191
 30
0.0
 40
2.0
  1
65
  7
ROMANS
100
AcDbText
  0
TEXT
  5
592
330
1E
100
AcDbEntity
  8
BASE
  6
Continuous
100
AcDbText
 10
65.0
 20
104.5588351245496
 30
0.0
 40
2.0
  1
68
  7
ROMANS
100
AcDbText
  0
TEXT
  5
593
330
1E
100
AcDbEntity
  8
BASE
  6
Continuous
100
AcDbText
 10
65.0
 20
99.4732627155427
 30
0.0
 40
2.0
  1
67
  7
ROMANS
100
AcDbText
  0
TEXT
  5
594
330
1E
100
AcDbEntity
  8
BASE
  6
Continuous
100
AcDbText
 10
65.0
 20
84.42009330304207
 30
0.0
 40
2.0
  1
80
  7
ROMANS
100
AcDbText
  0
TEXT
  5
595
330
1E
100
AcDbEntity
  8
BASE
  6
Continuous
100
AcDbText
 10
65.0
 20
79.33452089403515
 30
0.0
 40
2.0
  1
79
  7
ROMANS
100
AcDbText
  0
TEXT
  5
596
330
1E
100
AcDbEntity
  8
BASE
  6
Continuous
100
AcDbText
 10
65.0
 20
74.43629480129522
 30
0.0
 40
2.0
  1
70
  7
ROMANS
100
AcDbText
  0
TEXT
  5
597
330
1E
100
AcDbEntity
  8
BASE
  6
Continuous
100
AcDbText
 10
65.0
 20
69.15235570447619
 30
0.0
 40
2.0
  1
71
  7
ROMANS
100
AcDbText
  0
LINE
  5
598
330
1E
100
AcDbEntity
  8
BASE
  6
Continuous
100
AcDbLine
 10
75.2988115360942
 20
205.0
 30
0.0
 11
62.5
 21
205.0
 31
0.0
  0
TEXT
  5
599
330
1E
100
AcDbEntity
  8
BASE
  6
Continuous
100
AcDbText
 10
155.4564823779772
 20
67.5
 30
0.0
 40
2.0
  1
72
 50
90.0
  7
ROMANS
100
AcDbText
  0
TEXT
  5
59A
330
1E
100
AcDbEntity
  8
BASE
  6
Continuous
100
AcDbText
 10
160.3114236379014
 20
67.5
 30
0.0
 40
2.0
  1
81
 50
90.0
  7
ROMANS
100
AcDbText
  0
TEXT
  5
59B
330
1E
100
AcDbEntity
  8
BASE
  6
Continuous
100
AcDbText
 10
165.3327297956512
 20
67.5
 30
0.0
 40
2.0
  1
69
 50
90.0
  7
ROMANS
100
AcDbText
  0
TEXT
  5
59C
330
1E
100
AcDbEntity
  8
BASE
  6
Continuous
100
AcDbText
 10
170.4767765616276
 20
67.5
 30
0.0
 40
2.0
  1
66
 50
90.0
  7
ROMANS
100
AcDbText
  0
TEXT
  5
59D
330
1E
100
AcDbEntity
  8
BASE
  6
Continuous
100
AcDbText
 10
202.9671536907396
 20
67.5
 30
0.0
 40
2.0
  1
61
 50
90.0
  7
ROMANS
100
AcDbText
  0
TEXT
  5
59E
330
1E
100
AcDbEntity
  8
BASE
  6
Continuous
100
AcDbText
 10
208.126416535982
 20
67.5
 30
0.0
 40
2.0
  1
62
 50
90.0
  7
ROMANS
100
AcDbText
  0
TEXT
  5
59F
330
1E
100
AcDbEntity
  8
BASE
  6
Continuous
100
AcDbText
 10
220.4220205569353
 20
67.5
 30
0.0
 40
2.0
  1
63
 50
90.0
  7
ROMANS
100
AcDbText
  0
LINE
  5
5A0
330
1E
100
AcDbEntity
  8
BASE
100
AcDbLine
 10
216.1609850246001
 20
125.0
 30
0.0
 11
214.6411178324125
 21
125.0
 31
0.0
  0
ARC
  5
5A1
330
1E
100
AcDbEntity
  8
BASE
100
AcDbCircle
 10
216.2268343712663
 20
126.2499999999999
 30
0.0
 40
1.251733252916278
100
AcDbArc
 50
266.9844757085052
 51
93.0155242914955
  0
LINE
  5
5A2
330
1E
100
AcDbEntity
  8
BASE
100
AcDbLine
 10
216.1609850246001
 20
127.5
 30
0.0
 11
214.6411178324125
 21
127.5
 31
0.0
  0
LINE
  5
5A3
330
1E
100
AcDbEntity
  8
BASE
100
AcDbLine
 10
216.1609850246001
 20
130.0
 30
0.0
 11
214.6411178324125
 21
130.0
 31
0.0
  0
ARC
  5
5A4
330
1E
100
AcDbEntity
  8
BASE
100
AcDbCircle
 10
216.2268343712663
 20
128.75
 30
0.0
 40
1.251733252916278
100
AcDbArc
 50
266.9844757085052
 51
93.0155242914955
  0
LINE
  5
5A5
330
1E
100
AcDbEntity
  8
BASE
100
AcDbLine
 10
221.1609850246
 20
122.5
 30
0.0
 11
223.6609850246
 21
122.5
 31
0.0
  0
ARC
  5
5A6
330
1E
100
AcDbEntity
  8
BASE
100
AcDbCircle
 10
221.0951356779338
 20
123.75
 30
0.0
 40
1.251733252916278
100
AcDbArc
 50
86.98447570850529
 51
273.0155242914954
  0
ARC
  5
5A7
330
1E
100
AcDbEntity
  8
BASE
100
AcDbCircle
 10
221.0951356779338
 20
126.2499999999999
 30
0.0
 40
1.251733252916278
100
AcDbArc
 50
86.98447570850529
 51
273.0155242914954
  0
LINE
  5
5A8
330
1E
100
AcDbEntity
  8
BASE
100
AcDbLine
 10
221.1609850246
 20
125.0
 30
0.0
 11
223.6609850246
 21
125.0
 31
0.0
  0
LINE
  5
5A9
330
1E
100
AcDbEntity
  8
BASE
100
AcDbLine
 10
221.1609850246
 20
127.5
 30
0.0
 11
223.6609850246
 21
127.5
 31
0.0
  0
LINE
  5
5AA
330
1E
100
AcDbEntity
  8
BASE
100
AcDbLine
 10
225.0
 20
127.5
 30
0.0
 11
227.4999999999999
 21
127.5
 31
0.0
  0
LINE
  5
5AB
330
1E
100
AcDbEntity
  8
BASE
100
AcDbLine
 10
223.6609850246
 20
122.5
 30
0.0
 11
230.0
 21
122.5
 31
0.0
  0
LINE
  5
5AC
330
1E
100
AcDbEntity
  8
BASE
100
AcDbLine
 10
223.6609850246
 20
127.5
 30
0.0
 11
230.0
 21
127.5
 31
0.0
  0
LINE
  5
5AD
330
1E
100
AcDbEntity
  8
BASE
100
AcDbLine
 10
223.6609850246
 20
132.4999999999999
 30
0.0
 11
230.0
 21
132.4999999999999
 31
0.0
  0
LINE
  5
5AE
330
1E
100
AcDbEntity
  8
BASE
100
AcDbLine
 10
221.1609850246
 20
132.4999999999999
 30
0.0
 11
223.6609850246
 21
132.4999999999999
 31
0.0
  0
LINE
  5
5AF
330
1E
100
AcDbEntity
  8
BASE
100
AcDbLine
 10
221.1609850246
 20
130.0
 30
0.0
 11
223.6609850246
 21
130.0
 31
0.0
  0
ARC
  5
5B0
330
1E
100
AcDbEntity
  8
BASE
100
AcDbCircle
 10
221.0951356779338
 20
131.25
 30
0.0
 40
1.251733252916278
100
AcDbArc
 50
86.98447570850529
 51
273.0155242914954
  0
ARC
  5
5B1
330
1E
100
AcDbEntity
  8
BASE
100
AcDbCircle
 10
221.0951356779338
 20
128.75
 30
0.0
 40
1.251733252916278
100
AcDbArc
 50
86.98447570850529
 51
273.0155242914954
  0
LINE
  5
5B2
330
1E
100
AcDbEntity
  8
BASE
100
AcDbLine
 10
221.1609850246
 20
127.5
 30
0.0
 11
223.6609850246
 21
127.5
 31
0.0
  0
TEXT
  5
5B3
330
1E
100
AcDbEntity
  8
BASE
  6
Continuous
100
AcDbText
 10
225.6772796323176
 20
129.8169489106613
 30
0.0
 40
2.0
  1
28
  7
ROMANS
100
AcDbText
  0
TEXT
  5
5B4
330
1E
100
AcDbEntity
  8
BASE
  6
Continuous
100
AcDbText
 10
225.6772796323176
 20
124.7313765016544
 30
0.0
 40
2.0
  1
29
  7
ROMANS
100
AcDbText
  0
TEXT
  5
5B5
330
1E
100
AcDbEntity
  8
BASE
  6
Continuous
100
AcDbText
 10
225.6772796323176
 20
119.7670281796437
 30
0.0
 40
2.0
  1
30
  7
ROMANS
100
AcDbText
  0
LINE
  5
5B6
330
1E
100
AcDbEntity
  8
0
  6
DASHED
100
AcDbLine
 10
277.4999999999999
 20
132.4999999999999
 30
0.0
 11
290.0
 21
132.4999999999999
 31
0.0
  0
LINE
  5
5B7
330
1E
100
AcDbEntity
  8
0
  6
Continuous
100
AcDbLine
 10
236.9057278754069
 20
122.0
 30
0.0
 11
235.905727875407
 21
121.0
 31
0.0
  0
LINE
  5
5B8
330
1E
100
AcDbEntity
  8
0
  6
Continuous
100
AcDbLine
 10
236.9057278754069
 20
129.0
 30
0.0
 11
236.9057278754069
 21
122.0
 31
0.0
  0
LINE
  5
5B9
330
1E
100
AcDbEntity
  8
0
  6
Continuous
100
AcDbLine
 10
236.9057278754069
 20
129.0
 30
0.0
 11
235.905727875407
 21
130.0
 31
0.0
  0
LINE
  5
5BA
330
1E
100
AcDbEntity
  8
0
  6
Continuous
100
AcDbLine
 10
230.0
 20
122.5
 30
0.0
 11
235.0
 21
122.5
 31
0.0
  0
LINE
  5
5BB
330
1E
100
AcDbEntity
  8
0
  6
Continuous
100
AcDbLine
 10
230.0
 20
127.5
 30
0.0
 11
235.0
 21
127.5
 31
0.0
  0
LINE
  5
5BC
330
1E
100
AcDbEntity
  8
0
  6
Continuous
100
AcDbLine
 10
230.0
 20
132.4999999999999
 30
0.0
 11
262.5
 21
132.4999999999999
 31
0.0
  0
LINE
  5
5BD
330
1E
100
AcDbEntity
  8
0
  6
Continuous
100
AcDbLine
 10
236.9057278754069
 20
122.5
 30
0.0
 11
267.5
 21
122.5
 31
0.0
  0
LINE
  5
5BE
330
1E
100
AcDbEntity
  8
0
  6
DASHED
100
AcDbLine
 10
267.5
 20
122.5
 30
0.0
 11
297.5
 21
122.5
 31
0.0
  0
TEXT
  5
5BF
330
1E
100
AcDbEntity
  8
0
  6
Continuous
100
AcDbText
 10
238.4303958357048
 20
123.8141928766849
 30
0.0
 40
2.0
  1
6)
  7
ROMANS
100
AcDbText
  0
TEXT
  5
5C0
330
1E
100
AcDbEntity
  8
0
  6
DASHED
100
AcDbText
 10
246.4152685936581
 20
128.8198924357303
 30
0.0
 40
2.5
  1
U
  7
ROMANS
100
AcDbText
  0
TEXT
  5
5C1
330
1E
100
AcDbEntity
  8
0
  6
DASHED
100
AcDbText
 10
246.4152685936581
 20
118.8198924357303
 30
0.0
 40
2.5
  1
U
  7
ROMANS
100
AcDbText
  0
TEXT
  5
5C2
330
1E
100
AcDbEntity
  8
0
  6
Continuous
100
AcDbText
 10
63.18244773702691
 20
56.69787973105331
 30
0.0
 40
2.0
  1
RS 10072-AAA
  7
ROMANS
100
AcDbText
  0
TEXT
  5
5C3
330
1E
100
AcDbEntity
  8
0
  6
Continuous
100
AcDbText
 10
369.3738645010323
 20
117.7051394796565
 30
0.0
 40
2.0
  1
28-30
  7
ROMANS
100
AcDbText
  0
TEXT
  5
5C4
330
1E
100
AcDbEntity
  8
0
  6
Continuous
100
AcDbText
 10
350.1255242296581
 20
117.7051394796565
 30
0.0
 40
2.0
  1
28-29
  7
ROMANS
100
AcDbText
  0
LINE
  5
5C5
330
1E
100
AcDbEntity
  8
0
  6
Continuous
100
AcDbLine
 10
383.7218493416636
 20
131.4602069920811
 30
0.0
 11
383.7218493416636
 21
115.6077575047719
 31
0.0
  0
LINE
  5
5C6
330
1E
100
AcDbEntity
  8
0
  6
Continuous
100
AcDbLine
 10
338.7218493416637
 20
131.4602069920811
 30
0.0
 11
383.7218493416636
 21
131.4602069920811
 31
0.0
  0
LINE
  5
5C7
330
1E
100
AcDbEntity
  8
0
  6
Continuous
100
AcDbLine
 10
338.7218493416637
 20
115.6077575047719
 30
0.0
 11
338.7218493416637
 21
131.4602069920811
 31
0.0
  0
TEXT
  5
5C8
330
1E
100
AcDbEntity
  8
0
  6
Continuous
100
AcDbText
 10
366.9108768884535
 20
122.4516869220042
 30
0.0
 40
2.0
  1
Un=110V
  7
ROMANS
100
AcDbText
  0
TEXT
  5
5C9
330
1E
100
AcDbEntity
  8
0
  6
Continuous
100
AcDbText
 10
348.8514230559585
 20
122.4516869220042
 30
0.0
 40
2.0
  1
Un=100V
  7
ROMANS
100
AcDbText
  0
LINE
  5
5CA
330
1E
100
AcDbEntity
  8
0
  6
Continuous
100
AcDbLine
 10
364.837186128466
 20
115.6077575047719
 30
0.0
 11
364.837186128466
 21
126.4602069920811
 31
0.0
  0
LINE
  5
5CB
330
1E
100
AcDbEntity
  8
0
  6
Continuous
100
AcDbLine
 10
338.7218493416637
 20
121.4602069920811
 30
0.0
 11
383.7218493416636
 21
121.4602069920811
 31
0.0
  0
LINE
  5
5CC
330
1E
100
AcDbEntity
  8
0
  6
Continuous
100
AcDbLine
 10
338.7218493416637
 20
126.4602069920811
 30
0.0
 11
383.7218493416636
 21
126.4602069920811
 31
0.0
  0
LINE
  5
5CD
330
1E
100
AcDbEntity
  8
0
  6
Continuous
100
AcDbLine
 10
346.2218493416636
 20
126.4602069920811
 30
0.0
 11
346.2218493416636
 21
115.6077575047719
 31
0.0
  0
TEXT
  5
5CE
330
1E
100
AcDbEntity
  8
0
  6
DASHED
100
AcDbText
 10
343.5714435506884
 20
127.8737097222017
 30
0.0
 40
2.0
  1
TERMINALS / UTTAG
  7
ROMANS
100
AcDbText
  0
TEXT
  5
5CF
330
1E
100
AcDbEntity
  8
0
  6
DASHED
100
AcDbText
 10
339.6837079474175
 20
117.7021989026567
 30
0.0
 40
2.5
  1
U
  7
ROMANS
100
AcDbText
  0
LINE
  5
5D0
330
1E
100
AcDbEntity
  8
0
  6
Continuous
100
AcDbLine
 10
338.7218493416637
 20
115.6077575047719
 30
0.0
 11
383.7218493416636
 21
115.6077575047719
 31
0.0
  0
TEXT
  5
5D1
330
1E
100
AcDbEntity
  8
0
  6
Continuous
100
AcDbText
 10
333.3614725971513
 20
128.1605893960205
 30
0.0
 40
2.0
  1
6)
  7
ROMANS
100
AcDbText
  0
TEXT
  5
5D2
330
1E
100
AcDbEntity
  8
0
  6
Continuous
100
AcDbText
 10
211.9371600552024
 20
27.64963297007401
 30
0.0
 40
2.0
  1
1993-04-21 KM / RITU
  7
ROMANS
100
AcDbText
  0
TEXT
  5
5D3
330
1E
100
AcDbEntity
  8
0
  6
Continuous
100
AcDbText
 10
315.0
 20
27.5
 30
0.0
 40
2.0
  1
TERMINAL DIAGRAM / UTTAGSSCHEMA
  7
ROMANS
100
AcDbText
  0
TEXT
  5
5D4
330
1E
100
AcDbEntity
  8
0
  6
Continuous
100
AcDbText
 10
315.0
 20
24.16666666666666
 30
0.0
 40
2.0
  1
SPAU 330 C3
  7
ROMANS
100
AcDbText
  0
TEXT
  5
5D5
330
1E
100
AcDbEntity
  8
0
  6
Continuous
100
AcDbText
 10
320.0
 20
2.5
 30
0.0
 40
2.5
  1
RS 10072-AAD
  7
ROMANS
100
AcDbText
  0
LWPOLYLINE
  5
5D6
330
1E
100
AcDbEntity
  8
BASE
  6
Continuous
100
AcDbPolyline
 90
        2
 70
     1
 43
0.5
 10
132.0
 20
194.7530870239402
 42
1.0
 10
133.0
 20
194.7530870239402
 42
1.0
  0
LWPOLYLINE
  5
5DA
330
1E
100
AcDbEntity
  8
BASE
  6
Continuous
100
AcDbPolyline
 90
        2
 70
     1
 43
0.5
 10
154.5
 20
198.0142976011434
 42
1.0
 10
155.5
 20
198.0142976011434
 42
1.0
  0
LWPOLYLINE
  5
5DE
330
1E
100
AcDbEntity
  8
0
  6
Continuous
100
AcDbPolyline
 90
        2
 70
     1
 43
0.5
 10
304.4999999999999
 20
245.0
 42
1.0
 10
305.5
 20
245.0
 42
1.0
  0
LWPOLYLINE
  5
5E2
330
1E
100
AcDbEntity
  8
0
  6
Continuous
100
AcDbPolyline
 90
        2
 70
     1
 43
0.5
 10
309.5
 20
222.5
 42
1.0
 10
310.4999999999999
 20
222.5
 42
1.0
  0
TEXT
  5
5E6
330
1E
100
AcDbEntity
  8
0
  6
Continuous
100
AcDbText
 10
380.0
 20
2.5
 30
0.0
 40
2.5
  1
B
  7
ROMANS
100
AcDbText
  0
TEXT
  5
5E7
330
1E
100
AcDbEntity
  8
0
  6
Continuous
100
AcDbText
 10
51.8158543429207
 20
1.270153884652099
 30
0.0
 40
2.0
  1
REDRAWN WITH AUTOCAD 1993-04-21  KM / RITU Power
  7
ROMANS
100
AcDbText
  0
INSERT
  5
5E8
330
1E
100
AcDbEntity
  8
0
  6
Continuous
100
AcDbBlockReference
  2
MAA
 10
250.723613557894
 20
130.6611202640764
 30
0.0
  0
INSERT
  5
5E9
330
1E
100
AcDbEntity
  8
0
  6
Continuous
100
AcDbBlockReference
  2
MAA
 10
250.7834678426843
 20
120.7686589508277
 30
0.0
  0
LWPOLYLINE
  5
5EA
330
1E
100
AcDbEntity
  8
0
  6
Continuous
100
AcDbPolyline
 90
        2
 70
     1
 43
0.5
 10
289.4999999999999
 20
255.0
 42
1.0
 10
290.5
 20
255.0
 42
1.0
  0
LWPOLYLINE
  5
5EE
330
1E
100
AcDbEntity
  8
0
  6
Continuous
100
AcDbPolyline
 90
        2
 70
     1
 43
0.5
 10
297.0
 20
250.0
 42
1.0
 10
298.0
 20
250.0
 42
1.0
  0
INSERT
  5
5F2
330
1E
100
AcDbEntity
  8
0
  6
Continuous
100
AcDbBlockReference
  2
MAA
 10
367.130802520838
 20
242.8597190316841
 30
0.0
  0
INSERT
  5
5F3
330
1E
100
AcDbEntity
  8
0
  6
Continuous
100
AcDbBlockReference
  2
MAA
 10
367.130802520838
 20
233.2322076689967
 30
0.0
  0
INSERT
  5
5F4
330
1E
100
AcDbEntity
  8
0
  6
Continuous
100
AcDbBlockReference
  2
MAA
 10
343.5336675536625
 20
119.5085666346375
 30
0.0
  0
INSERT
  5
5F5
330
1E
100
AcDbEntity
  8
BASE
  6
Continuous
100
AcDbBlockReference
  2
MAA
 10
193.6944510097397
 20
191.0649572223617
 30
0.0
  0
INSERT
  5
5F6
330
1E
100
AcDbEntity
  8
BASE
  6
Continuous
100
AcDbBlockReference
  2
MAA
 10
172.4102673383252
 20
195.6167032253902
 30
0.0
  0
INSERT
  5
5F7
330
1E
100
AcDbEntity
  8
BASE
  6
Continuous
100
AcDbBlockReference
  2
MAA
 10
172.3145004826608
 20
188.3685895900914
 30
0.0
  0
LINE
  5
5F8
330
1E
100
AcDbEntity
  8
0
  6
DASHED
100
AcDbLine
 10
162.5
 20
65.0
 30
0.0
 11
162.5
 21
57.5
 31
0.0
  0
LINE
  5
5F9
330
1E
100
AcDbEntity
  8
0
  6
DASHED
100
AcDbLine
 10
167.5
 20
65.0
 30
0.0
 11
167.5
 21
57.5
 31
0.0
  0
LINE
  5
5FA
330
1E
100
AcDbEntity
  8
BASE
  6
Continuous
100
AcDbLine
 10
134.9999999999999
 20
87.5
 30
0.0
 11
157.5
 21
87.5
 31
0.0
  0
LINE
  5
5FB
330
1E
100
AcDbEntity
  8
BASE
  6
Continuous
100
AcDbLine
 10
107.4999999999999
 20
187.1416316986096
 30
0.0
 11
107.4999999999999
 21
127.5
 31
0.0
  0
LINE
  5
5FC
330
1E
100
AcDbEntity
  8
BASE
  6
DASHED
100
AcDbLine
 10
107.4999999999999
 20
127.5
 30
0.0
 11
107.5
 21
106.1008244206393
 31
0.0
  0
LWPOLYLINE
  5
5FD
330
1E
100
AcDbEntity
  8
BASE
  6
Continuous
100
AcDbPolyline
 90
        2
 70
     1
 43
0.5
 10
107.0
 20
187.1416316986096
 42
1.0
 10
108.0
 20
187.1416316986096
 42
1.0
  0
LINE
  5
601
330
1E
100
AcDbEntity
  8
0
  6
Continuous
100
AcDbLine
 10
50.0
 20
205.0
 30
0.0
 11
55.0000000000001
 21
205.0
 31
0.0
  0
LINE
  5
602
330
1E
100
AcDbEntity
  8
BASE
100
AcDbLine
 10
198.6476079947979
 20
92.93910564725962
 30
0.0
 11
202.6476079947979
 21
92.93910564725962
 31
0.0
  0
INSERT
  5
603
330
1E
100
AcDbEntity
  8
BASE
  6
DASHED
100
AcDbBlockReference
  2
BLC43
 10
200.0
 20
102.4044761779661
 30
0.0
  0
INSERT
  5
604
330
1E
100
AcDbEntity
  8
BASE
  6
DASHED
100
AcDbBlockReference
  2
BLC42
 10
205.0
 20
102.4044761779661
 30
0.0
  0
ENDSEC
  0
SECTION
  2
OBJECTS
  0
DICTIONARY
  5
C
330
0
100
AcDbDictionary
281
     1
  3
ACAD_GROUP
350
D
  3
ACAD_LAYOUT
350
19
  3
ACAD_MLINESTYLE
350
16
  3
ACAD_PLOTSETTINGS
350
18
  3
ACAD_PLOTSTYLENAME
350
E
  3
AcDbVariableDictionary
350
607
  0
DICTIONARY
  5
D
102
{ACAD_REACTORS
330
C
102
}
330
C
100
AcDbDictionary
281
     1
  0
DICTIONARY
  5
19
102
{ACAD_REACTORS
330
C
102
}
330
C
100
AcDbDictionary
281
     1
  3
Layout1
350
1D
  3
Model
350
21
  0
DICTIONARY
  5
16
102
{ACAD_REACTORS
330
C
102
}
330
C
100
AcDbDictionary
281
     1
  3
Standard
350
17
  0
DICTIONARY
  5
18
102
{ACAD_REACTORS
330
C
102
}
330
C
100
AcDbDictionary
281
     1
  0
ACDBDICTIONARYWDFLT
  5
E
102
{ACAD_REACTORS
330
C
102
}
330
C
100
AcDbDictionary
281
     1
  3
Normal
350
F
100
AcDbDictionaryWithDefault
340
F
  0
DICTIONARY
  5
607
102
{ACAD_REACTORS
330
C
102
}
330
C
100
AcDbDictionary
281
     1
  3
DIMASSOC
350
609
  3
HIDETEXT
350
608
  0
LAYOUT
  5
1D
102
{ACAD_REACTORS
330
19
102
}
330
19
100
AcDbPlotSettings
  1

  2
\\FIVAA-S-IGS2002\FIVAA-P-234
  4

  6

 40
0.0
 41
0.0
 42
0.0
 43
0.0
 44
0.0
 45
0.0
 46
0.0
 47
0.0
 48
0.0
 49
0.0
140
0.0
141
0.0
142
1.0
143
1.0
 70
   688
 72
     0
 73
     0
 74
     5
  7

 75
    16
147
1.0
148
0.0
149
0.0
100
AcDbLayout
  1
Layout1
 70
     0
 71
     1
 10
0.0
 20
0.0
 11
12.0
 21
9.0
 12
0.0
 22
0.0
 32
0.0
 14
1.000000000000000E+20
 24
1.000000000000000E+20
 34
1.000000000000000E+20
 15
-1.000000000000000E+20
 25
-1.000000000000000E+20
 35
-1.000000000000000E+20
146
0.0
 13
0.0
 23
0.0
 33
0.0
 16
1.0
 26
0.0
 36
0.0
 17
0.0
 27
1.0
 37
0.0
 76
     0
330
1A
  0
LAYOUT
  5
21
102
{ACAD_REACTORS
330
19
102
}
330
19
100
AcDbPlotSettings
  1

  2
\\FIVAA-S-IGS2002\FIVAA-P-234
  4

  6

 40
0.0
 41
0.0
 42
0.0
 43
0.0
 44
0.0
 45
0.0
 46
0.0
 47
0.0
 48
0.0
 49
0.0
140
0.0
141
0.0
142
1.0
143
1.0
 70
  1712
 72
     0
 73
     0
 74
     0
  7

 75
     0
147
1.0
148
0.0
149
0.0
100
AcDbLayout
  1
Model
 70
     1
 71
     0
 10
0.0
 20
0.0
 11
12.0
 21
9.0
 12
0.0
 22
0.0
 32
0.0
 14
0.0
 24
0.0
 34
0.0
 15
0.0
 25
0.0
 35
0.0
146
0.0
 13
0.0
 23
0.0
 33
0.0
 16
1.0
 26
0.0
 36
0.0
 17
0.0
 27
1.0
 37
0.0
 76
     0
330
1E
  0
MLINESTYLE
  5
17
102
{ACAD_REACTORS
330
16
102
}
330
16
100
AcDbMlineStyle
  2
STANDARD
 70
     0
  3

 62
   256
 51
90.0
 52
90.0
 71
     2
 49
0.5
 62
   256
  6
BYLAYER
 49
-0.5
 62
   256
  6
BYLAYER
  0
ACDBPLACEHOLDER
  5
F
102
{ACAD_REACTORS
330
E
102
}
330
E
  0
DICTIONARYVAR
  5
609
102
{ACAD_REACTORS
330
607
102
}
330
607
100
DictionaryVariables
280
     0
  1
2
  0
DICTIONARYVAR
  5
608
102
{ACAD_REACTORS
330
607
102
}
330
607
100
DictionaryVariables
280
     0
  1
1
  0
ENDSEC
  0
EOF
