  0
SECTION
  2
HEADER
  9
$ACADVER
  1
AC1009
  9
$DWGCODEPAGE
  3
iso8859-1
  9
$INSBASE
 10
0.0
 20
0.0
 30
0.0
  9
$EXTMIN
 10
1.0E20
 20
1.0E20
  9
$EXTMAX
 10
-1.0E20
 20
-1.0E20
  9
$LIMMIN
 10
0.0
 20
0.0
  9
$LIMMAX
 10
12.0
 20
9.0
  9
$ORTHOMODE
 70
     0
  9
$REGENMODE
 70
     1
  9
$FILLMODE
 70
     1
  9
$QTEXTMODE
 70
     0
  9
$MIRRTEXT
 70
     1
  9
$DRAGMODE
 70
     2
  9
$LTSCALE
 40
15.0
  9
$OSMODE
 70
     0
  9
$ATTMODE
 70
     1
  9
$TEXTSIZE
 40
0.2
  9
$TRACEWID
 40
0.05
  9
$TEXTSTYLE
  7
STANDARD
  9
$CLAYER
  8
0
  9
$CELTYPE
  6
DASHED
  9
$CECOLOR
 62
   256
  9
$DIMSCALE
 40
1.0
  9
$DIMASZ
 40
0.18
  9
$DIMEXO
 40
0.0625
  9
$DIMDLI
 40
0.38
  9
$DIMRND
 40
0.0
  9
$DIMDLE
 40
0.0
  9
$DIMEXE
 40
0.18
  9
$DIMTP
 40
0.0
  9
$DIMTM
 40
0.0
  9
$DIMTXT
 40
0.18
  9
$DIMCEN
 40
0.09
  9
$DIMTSZ
 40
0.0
  9
$DIMTOL
 70
     0
  9
$DIMLIM
 70
     0
  9
$DIMTIH
 70
     1
  9
$DIMTOH
 70
     1
  9
$DIMSE1
 70
     0
  9
$DIMSE2
 70
     0
  9
$DIMTAD
 70
     0
  9
$DIMZIN
 70
     0
  9
$DIMBLK
  1

  9
$DIMASO
 70
     1
  9
$DIMSHO
 70
     1
  9
$DIMPOST
  1

  9
$DIMAPOST
  1

  9
$DIMALT
 70
     0
  9
$DIMALTD
 70
     2
  9
$DIMALTF
 40
25.4
  9
$DIMLFAC
 40
1.0
  9
$DIMTOFL
 70
     0
  9
$DIMTVP
 40
0.0
  9
$DIMTIX
 70
     0
  9
$DIMSOXD
 70
     0
  9
$DIMSAH
 70
     0
  9
$DIMBLK1
  1

  9
$DIMBLK2
  1

  9
$DIMSTYLE
  2
STANDARD
  9
$DIMCLRD
 70
     0
  9
$DIMCLRE
 70
     0
  9
$DIMCLRT
 70
     0
  9
$DIMTFAC
 40
1.0
  9
$DIMGAP
 40
0.09
  9
$LUNITS
 70
     2
  9
$LUPREC
 70
     4
  9
$AXISMODE
 70
     0
  9
$AXISUNIT
 10
0.0
 20
0.0
  9
$SKETCHINC
 40
0.1
  9
$FILLETRAD
 40
0.0
  9
$AUNITS
 70
     0
  9
$AUPREC
 70
     0
  9
$MENU
  1
acad
  9
$ELEVATION
 40
0.0
  9
$PELEVATION
 40
0.0
  9
$THICKNESS
 40
0.0
  9
$LIMCHECK
 70
     0
  9
$BLIPMODE
 70
     1
  9
$CHAMFERA
 40
0.0
  9
$CHAMFERB
 40
0.0
  9
$SKPOLY
 70
     0
  9
$TDCREATE
 40
0.000000000
  9
$TDUPDATE
 40
0.000000000
  9
$TDINDWG
 40
0.0
  9
$TDUSRTIMER
 40
0.0
  9
$USRTIMER
 70
     1
  9
$ANGBASE
 50
0.0
  9
$ANGDIR
 70
     0
  9
$PDMODE
 70
     0
  9
$PDSIZE
 40
0.0
  9
$PLINEWID
 40
0.0
  9
$COORDS
 70
     1
  9
$SPLFRAME
 70
     0
  9
$SPLINETYPE
 70
     6
  9
$SPLINESEGS
 70
     8
  9
$ATTDIA
 70
     0
  9
$ATTREQ
 70
     1
  9
$HANDLING
 70
     1
  9
$HANDSEED
  5
   7D2
  9
$SURFTAB1
 70
     6
  9
$SURFTAB2
 70
     6
  9
$SURFTYPE
 70
     6
  9
$SURFU
 70
     6
  9
$SURFV
 70
     6
  9
$UCSNAME
  2

  9
$UCSORG
 10
0.0
 20
0.0
 30
0.0
  9
$UCSXDIR
 10
1.0
 20
0.0
 30
0.0
  9
$UCSYDIR
 10
0.0
 20
1.0
 30
0.0
  9
$PUCSNAME
  2

  9
$PUCSORG
 10
0.0
 20
0.0
 30
0.0
  9
$PUCSXDIR
 10
1.0
 20
0.0
 30
0.0
  9
$PUCSYDIR
 10
0.0
 20
1.0
 30
0.0
  9
$USERI1
 70
     0
  9
$USERI2
 70
     0
  9
$USERI3
 70
     0
  9
$USERI4
 70
     0
  9
$USERI5
 70
     0
  9
$USERR1
 40
0.0
  9
$USERR2
 40
0.0
  9
$USERR3
 40
0.0
  9
$USERR4
 40
0.0
  9
$USERR5
 40
0.0
  9
$WORLDVIEW
 70
     1
  9
$SHADEDGE
 70
     3
  9
$SHADEDIF
 70
    70
  9
$TILEMODE
 70
     1
  9
$MAXACTVP
 70
    16
  9
$PINSBASE
 10
0.0
 20
0.0
 30
0.0
  9
$PLIMCHECK
 70
     0
  9
$PEXTMIN
 10
1.0E20
 20
1.0E20
 30
1.0E20
  9
$PEXTMAX
 10
-1.0E20
 20
-1.0E20
 30
-1.0E20
  9
$PLIMMIN
 10
0.0
 20
0.0
  9
$PLIMMAX
 10
12.0
 20
9.0
  9
$UNITMODE
 70
     0
  9
$VISRETAIN
 70
     0
  0
ENDSEC
  0
SECTION
  2
TABLES
  0
TABLE
  2
VPORT
 70
     1
  0
VPORT
  2
*ACTIVE
 70
     0
 10
0.0
 20
0.0
 11
1.0
 21
1.0
 12
6.801242
 22
4.5
 13
0.0
 23
0.0
 14
1.0
 24
1.0
 15
0.0
 25
0.0
 16
0.0
 26
0.0
 36
1.0
 17
0.0
 27
0.0
 37
0.0
 40
9.0
 41
1.511387
 42
50.0
 43
0.0
 44
0.0
 50
0.0
 51
0.0
 71
     0
 72
   100
 73
     1
 74
     1
 75
     0
 76
     0
 77
     0
 78
     0
  0
ENDTAB
  0
TABLE
  2
LTYPE
 70
    41
  0
LTYPE
  2
BYBLOCK
 70
     0
  3

 72
    65
 73
     0
 40
0.0
  0
LTYPE
  2
BYLAYER
 70
     0
  3

 72
    65
 73
     0
 40
0.0
  0
LTYPE
  2
CONTINUOUS
 70
     0
  3
Solid line
 72
    65
 73
     0
 40
0.0
  0
LTYPE
  2
BORDER
 70
    64
  3
__ __ . __ __ . __ __ . __ __ . __ __ . __ __ .
 72
    65
 73
     6
 40
1.75
 49
0.5
 49
-0.25
 49
0.5
 49
-0.25
 49
0.0
 49
-0.25
  0
LTYPE
  2
BORDER2
 70
    64
  3
__.__.__.__.__.__.__.__.__.__.__.__.__.__.__.__
 72
    65
 73
     6
 40
0.875
 49
0.25
 49
-0.125
 49
0.25
 49
-0.125
 49
0.0
 49
-0.125
  0
LTYPE
  2
BORDERX2
 70
    64
  3
____  ____  .  ____  ____  .  ____  ____  .  __
 72
    65
 73
     6
 40
3.5
 49
1.0
 49
-0.5
 49
1.0
 49
-0.5
 49
0.0
 49
-0.5
  0
LTYPE
  2
CENTER
 70
    64
  3
____ _ ____ _ ____ _ ____ _ ____ _ ____ _ ____
 72
    65
 73
     4
 40
2.0
 49
1.25
 49
-0.25
 49
0.25
 49
-0.25
  0
LTYPE
  2
CENTER2
 70
    64
  3
___ _ ___ _ ___ _ ___ _ ___ _ ___ _ ___ _ ___ _
 72
    65
 73
     4
 40
1.125
 49
0.75
 49
-0.125
 49
0.125
 49
-0.125
  0
LTYPE
  2
CENTERX2
 70
    64
  3
________  __  ________  __  ________  __  _____
 72
    65
 73
     4
 40
4.0
 49
2.5
 49
-0.5
 49
0.5
 49
-0.5
  0
LTYPE
  2
DASHDOT
 70
    64
  3
__ . __ . __ . __ . __ . __ . __ . __ . __ . __
 72
    65
 73
     4
 40
1.0
 49
0.5
 49
-0.25
 49
0.0
 49
-0.25
  0
LTYPE
  2
DASHDOT2
 70
    64
  3
_._._._._._._._._._._._._._._._._._._._._._._._
 72
    65
 73
     4
 40
0.5
 49
0.25
 49
-0.125
 49
0.0
 49
-0.125
  0
LTYPE
  2
DASHDOTX2
 70
    64
  3
____  .  ____  .  ____  .  ____  .  ____  .  __
 72
    65
 73
     4
 40
2.0
 49
1.0
 49
-0.5
 49
0.0
 49
-0.5
  0
LTYPE
  2
DASHED
 70
    64
  3
__ __ __ __ __ __ __ __ __ __ __ __ __ __ __ __
 72
    65
 73
     2
 40
0.75
 49
0.5
 49
-0.25
  0
LTYPE
  2
DASHED2
 70
    64
  3
_ _ _ _ _ _ _ _ _ _ _ _ _ _ _ _ _ _ _ _ _ _ _ _
 72
    65
 73
     2
 40
0.375
 49
0.25
 49
-0.125
  0
LTYPE
  2
DASHEDX2
 70
    64
  3
____  ____  ____  ____  ____  ____  ____  ____
 72
    65
 73
     2
 40
1.5
 49
1.0
 49
-0.5
  0
LTYPE
  2
DIVIDE
 70
    64
  3
____ . . ____ . . ____ . . ____ . . ____ . . __
 72
    65
 73
     6
 40
1.25
 49
0.5
 49
-0.25
 49
0.0
 49
-0.25
 49
0.0
 49
-0.25
  0
LTYPE
  2
DIVIDE2
 70
    64
  3
__..__..__..__..__..__..__..__..__..__..__..__.
 72
    65
 73
     6
 40
0.625
 49
0.25
 49
-0.125
 49
0.0
 49
-0.125
 49
0.0
 49
-0.125
  0
LTYPE
  2
DIVIDEX2
 70
    64
  3
________  .  .  ________  .  .  ________  .  .
 72
    65
 73
     6
 40
2.5
 49
1.0
 49
-0.5
 49
0.0
 49
-0.5
 49
0.0
 49
-0.5
  0
LTYPE
  2
DOT
 70
    64
  3
. . . . . . . . . . . . . . . . . . . . . . . .
 72
    65
 73
     2
 40
0.25
 49
0.0
 49
-0.25
  0
LTYPE
  2
DOT2
 70
    64
  3
...............................................
 72
    65
 73
     2
 40
0.125
 49
0.0
 49
-0.125
  0
LTYPE
  2
DOTX2
 70
    64
  3
.  .  .  .  .  .  .  .  .  .  .  .  .  .  .  .
 72
    65
 73
     2
 40
0.5
 49
0.0
 49
-0.5
  0
LTYPE
  2
HIDDEN
 70
    64
  3
__ __ __ __ __ __ __ __ __ __ __ __ __ __ __ __
 72
    65
 73
     2
 40
0.375
 49
0.25
 49
-0.125
  0
LTYPE
  2
HIDDEN2
 70
    64
  3
_ _ _ _ _ _ _ _ _ _ _ _ _ _ _ _ _ _ _ _ _ _ _ _
 72
    65
 73
     2
 40
0.1875
 49
0.125
 49
-0.0625
  0
LTYPE
  2
HIDDENX2
 70
    64
  3
____ ____ ____ ____ ____ ____ ____ ____ ____ __
 72
    65
 73
     2
 40
0.75
 49
0.5
 49
-0.25
  0
LTYPE
  2
PHANTOM
 70
    64
  3
______  __  __  ______  __  __  ______  __  __
 72
    65
 73
     6
 40
2.5
 49
1.25
 49
-0.25
 49
0.25
 49
-0.25
 49
0.25
 49
-0.25
  0
LTYPE
  2
PHANTOM2
 70
    64
  3
___ _ _ ___ _ _ ___ _ _ ___ _ _ ___ _ _ ___ _ _
 72
    65
 73
     6
 40
1.25
 49
0.625
 49
-0.125
 49
0.125
 49
-0.125
 49
0.125
 49
-0.125
  0
LTYPE
  2
PHANTOMX2
 70
    64
  3
____________    ____    ____    ____________
 72
    65
 73
     6
 40
5.0
 49
2.5
 49
-0.5
 49
0.5
 49
-0.5
 49
0.5
 49
-0.5
  0
LTYPE
  2
ACAD_ISO02W100
 70
    64
  3
__ __ __ __ __ __ __ __ __ __ __ __ __ __ __ __
 72
    65
 73
     2
 40
15.0
 49
12.0
 49
-3.0
  0
LTYPE
  2
ACAD_ISO03W100
 70
    64
  3
__    __    __    __    __    __    __    __
 72
    65
 73
     2
 40
30.0
 49
12.0
 49
-18.0
  0
LTYPE
  2
ACAD_ISO04W100
 70
    64
  3
____ . ____ . ____ . ____ . ____ . ____ . ____
 72
    65
 73
     4
 40
30.5
 49
24.0
 49
-3.0
 49
0.5
 49
-3.0
  0
LTYPE
  2
ACAD_ISO05W100
 70
    64
  3
____ .. ____ .. ____ .. ____ .. ____ .. ____ ..
 72
    65
 73
     6
 40
34.0
 49
24.0
 49
-3.0
 49
0.5
 49
-3.0
 49
0.5
 49
-3.0
  0
LTYPE
  2
ACAD_ISO06W100
 70
    64
  3
____ ... ____ ... ____ ... ____ ... ____ ... __
 72
    65
 73
     8
 40
37.5
 49
24.0
 49
-3.0
 49
0.5
 49
-3.0
 49
0.5
 49
-3.0
 49
0.5
 49
-3.0
  0
LTYPE
  2
ACAD_ISO07W100
 70
    64
  3
. . . . . . . . . . . . . . . . . . . . . . . .
 72
    65
 73
     2
 40
3.5
 49
0.5
 49
-3.0
  0
LTYPE
  2
ACAD_ISO08W100
 70
    64
  3
____ __ ____ __ ____ __ ____ ____ __ __ ____ __
 72
    65
 73
     4
 40
36.0
 49
24.0
 49
-3.0
 49
6.0
 49
-3.0
  0
LTYPE
  2
ACAD_ISO09W100
 70
    64
  3
____ __ __ ____ __ __ ____ __ __ ____ __ __ ___
 72
    65
 73
     6
 40
45.0
 49
24.0
 49
-3.0
 49
6.0
 49
-3.0
 49
6.0
 49
-3.0
  0
LTYPE
  2
ACAD_ISO10W100
 70
    64
  3
__ . __ . __ . __ . __ . __ . __ . __ . __ . __
 72
    65
 73
     4
 40
18.5
 49
12.0
 49
-3.0
 49
0.5
 49
-3.0
  0
LTYPE
  2
ACAD_ISO11W100
 70
    64
  3
__ __ . __ __ . __ __ . __ __ . __ __ . __ __ .
 72
    65
 73
     6
 40
33.5
 49
12.0
 49
-3.0
 49
12.0
 49
-3.0
 49
0.5
 49
-3.0
  0
LTYPE
  2
ACAD_ISO12W100
 70
    64
  3
__ . . __ . . __ . . __ . . __ . . __ . . __ .
 72
    65
 73
     6
 40
22.0
 49
12.0
 49
-3.0
 49
0.5
 49
-3.0
 49
0.5
 49
-3.0
  0
LTYPE
  2
ACAD_ISO13W100
 70
    64
  3
__ __ . . __ __ . . __ __ . . __ __ . . __ __ .
 72
    65
 73
     8
 40
37.0
 49
12.0
 49
-3.0
 49
12.0
 49
-3.0
 49
0.5
 49
-3.0
 49
0.5
 49
-3.0
  0
LTYPE
  2
ACAD_ISO14W100
 70
    64
  3
__ . . . __ . . . __ . . . __ . . . __ . . . __
 72
    65
 73
     8
 40
25.5
 49
12.0
 49
-3.0
 49
0.5
 49
-3.0
 49
0.5
 49
-3.0
 49
0.5
 49
-3.0
  0
LTYPE
  2
ACAD_ISO15W100
 70
    64
  3
__ __ . . . __ __ . . . __ __ . . . __ __ . . .
 72
    65
 73
    10
 40
40.5
 49
12.0
 49
-3.0
 49
12.0
 49
-3.0
 49
0.5
 49
-3.0
 49
0.5
 49
-3.0
 49
0.5
 49
-3.0
  0
ENDTAB
  0
TABLE
  2
STYLE
 70
     4
  0
STYLE
  2
STANDARD
 70
    64
 40
0.0
 41
1.0
 50
0.0
 71
     0
 42
0.2
  3
txt
  4

  0
STYLE
  2
TOLERANCE
 70
    64
 40
0.0
 41
1.0
 50
0.0
 71
     0
 42
0.2
  3
../igesfont/iges1003.shx
  4

  0
STYLE
  2
ROMANS
 70
    64
 40
0.0
 41
1.0
 50
0.0
 71
     0
 42
0.2
  3
romans.shx
  4

  0
STYLE
  2
ROMANC
 70
    64
 40
0.0
 41
1.0
 50
0.0
 71
     0
 42
0.2
  3
romanc.shx
  4

  0
ENDTAB
  0
TABLE
  2
DIMSTYLE
 70
     2
  0
DIMSTYLE
  2
UNNAMED
 70
     0
  3

  4

  5

  6

  7

 40
1.0
 41
0.18
 42
0.0625
 43
0.38
 44
0.18
 45
0.0
 46
0.0
 47
0.0
 48
0.0
140
0.18
141
0.09
142
0.0
143
25.4
144
1.0
145
0.0
146
1.0
147
0.09
 71
     0
 72
     0
 73
     1
 74
     1
 75
     0
 76
     0
 77
     0
 78
     0
170
     0
171
     2
172
     0
173
     0
174
     0
175
     0
176
     0
177
     0
178
     0
  0
DIMSTYLE
  2
STANDARD
 70
     0
  3

  4

  5

  6

  7

 40
1.0
 41
0.18
 42
0.0625
 43
0.38
 44
0.18
 45
0.0
 46
0.0
 47
0.0
 48
0.0
140
0.18
141
0.09
142
0.0
143
25.4
144
1.0
145
0.0
146
1.0
147
0.09
 71
     0
 72
     0
 73
     1
 74
     1
 75
     0
 76
     0
 77
     0
 78
     0
170
     0
171
     2
172
     0
173
     0
174
     0
175
     0
176
     0
177
     0
178
     0
  0
ENDTAB
  0
TABLE
  2
LAYER
 70
     2
  0
LAYER
  2
0
 70
     0
 62
     7
  6
CONTINUOUS
  0
LAYER
  2
255
 70
     0
 62
     7
  6
CONTINUOUS
  0
ENDTAB
  0
ENDSEC
  0
SECTION
  2
BLOCKS
  0
BLOCK
  5
     B
  8
0
  6
CONTINUOUS
 62
     7
  2
MOSTRA
 70
    64
 10
0.0
 20
0.0
 30
0.0
  3
MOSTRA
  0
LINE
  5
     C
  8
0
  6
CONTINUOUS
 62
     2
 10
175.338317871094
 20
34.312744140625
 30
0.0
 11
210.838317871094
 21
34.312744140625
 31
0.0
  0
LINE
  5
     D
  8
0
  6
CONTINUOUS
 62
     2
 10
175.338317871094
 20
49.312744140625
 30
0.0
 11
210.838317871094
 21
49.312744140625
 31
0.0
  0
LINE
  5
     E
  8
0
  6
CONTINUOUS
 62
     2
 10
210.838317871094
 20
33.312744140625
 30
0.0
 11
210.838317871094
 21
50.312744140625
 31
0.0
  0
LINE
  5
     F
  8
0
  6
CONTINUOUS
 62
     2
 10
175.338317871094
 20
34.312744140625
 30
0.0
 11
175.338317871094
 21
49.312744140625
 31
0.0
  0
LINE
  5
    10
  8
0
  6
CONTINUOUS
 62
     2
 10
210.838317871094
 20
50.312744140625
 30
0.0
 11
210.838317871094
 21
148.306442260742
 31
0.0
  0
LINE
  5
    11
  8
0
  6
CONTINUOUS
 62
     2
 10
210.838317871094
 20
-10.187255859375
 30
0.0
 11
210.838317871094
 21
33.3127403259278
 31
0.0
  0
LINE
  5
    12
  8
0
  6
CONTINUOUS
 62
     2
 10
37.5883140563965
 20
-11.437255859375
 30
0.0
 11
209.588317871094
 21
-11.437255859375
 31
0.0
  0
LINE
  5
    13
  8
0
  6
CONTINUOUS
 62
     2
 10
36.3383140563965
 20
-10.187255859375
 30
0.0
 11
36.3383140563965
 21
148.306442260742
 31
0.0
  0
LINE
  5
    14
  8
0
  6
CONTINUOUS
 62
     2
 10
175.338317871094
 20
128.562744140625
 30
0.0
 11
175.338317871094
 21
129.562744140625
 31
0.0
  0
LINE
  5
    15
  8
0
  6
CONTINUOUS
 62
     2
 10
45.3383140563965
 20
128.562744140625
 30
0.0
 11
45.3383140563965
 21
129.562744140625
 31
0.0
  0
LINE
  5
    16
  8
0
  6
CONTINUOUS
 62
     2
 10
175.338317871094
 20
8.56274414062501
 30
0.0
 11
175.338317871094
 21
9.56274414062501
 31
0.0
  0
LINE
  5
    17
  8
0
  6
CONTINUOUS
 62
     2
 10
46.3383140563965
 20
8.562744140625
 30
0.0
 11
174.338314056396
 21
8.56274414062501
 31
0.0
  0
LINE
  5
    18
  8
0
  6
CONTINUOUS
 62
     2
 10
45.3383140563965
 20
8.562744140625
 30
0.0
 11
45.3383140563965
 21
9.562744140625
 31
0.0
  0
LINE
  5
    19
  8
0
  6
CONTINUOUS
 62
     2
 10
174.338317871094
 20
-11.437255859375
 30
0.0
 11
174.338317871094
 21
8.56274414062501
 31
0.0
  0
LINE
  5
    1A
  8
0
  6
CONTINUOUS
 62
     2
 10
175.338317871094
 20
129.562744140625
 30
0.0
 11
175.338317871094
 21
149.562744140625
 31
0.0
  0
LINE
  5
    1B
  8
0
  6
CONTINUOUS
 62
     2
 10
175.338317871094
 20
9.56274414062501
 30
0.0
 11
175.338317871094
 21
33.312744140625
 31
0.0
  0
LINE
  5
    1C
  8
0
  6
CONTINUOUS
 62
     2
 10
175.338317871094
 20
50.312744140625
 30
0.0
 11
175.338317871094
 21
128.562744140625
 31
0.0
  0
LINE
  5
    1D
  8
0
  6
CONTINUOUS
 62
     2
 10
175.338317871094
 20
-11.437255859375
 30
0.0
 11
175.338317871094
 21
8.56274414062501
 31
0.0
  0
LINE
  5
    1E
  8
0
  6
CONTINUOUS
 62
     2
 10
45.3383140563965
 20
129.562744140625
 30
0.0
 11
45.3383140563965
 21
149.562744140625
 31
0.0
  0
LINE
  5
    1F
  8
0
  6
CONTINUOUS
 62
     2
 10
45.3383140563965
 20
9.562744140625
 30
0.0
 11
45.3383140563965
 21
128.562744140625
 31
0.0
  0
LINE
  5
    20
  8
0
  6
CONTINUOUS
 62
     2
 10
45.3383140563965
 20
-11.437255859375
 30
0.0
 11
45.3383140563965
 21
8.562744140625
 31
0.0
  0
LINE
  5
    21
  8
0
  6
CONTINUOUS
 62
     2
 10
46.3383140563965
 20
-11.437255859375
 30
0.0
 11
46.3383140563965
 21
8.562744140625
 31
0.0
  0
LINE
  5
    22
  8
0
  6
CONTINUOUS
 62
     2
 10
175.338317871094
 20
33.312744140625
 30
0.0
 11
210.838317871094
 21
33.312744140625
 31
0.0
  0
LINE
  5
    23
  8
0
  6
CONTINUOUS
 62
     2
 10
175.338317871094
 20
50.312744140625
 30
0.0
 11
210.838317871094
 21
50.312744140625
 31
0.0
  0
LINE
  5
    24
  8
0
  6
CONTINUOUS
 62
     2
 10
175.388320922852
 20
49.312744140625
 30
0.0
 11
175.388320922852
 21
50.312744140625
 31
0.0
  0
LINE
  5
    25
  8
0
  6
CONTINUOUS
 62
     2
 10
175.388320922852
 20
33.312744140625
 30
0.0
 11
175.388320922852
 21
34.312744140625
 31
0.0
  0
LINE
  5
    26
  8
0
  6
CONTINUOUS
 62
     2
 10
46.3383140563965
 20
128.562744140625
 30
0.0
 11
174.338314056396
 21
128.562744140625
 31
0.0
  0
LINE
  5
    27
  8
0
  6
CONTINUOUS
 62
     2
 10
46.3383140563965
 20
9.562744140625
 30
0.0
 11
174.338314056396
 21
9.56274414062501
 31
0.0
  0
LINE
  5
    28
  8
0
  6
CONTINUOUS
 62
     2
 10
174.338317871094
 20
9.56274414062501
 30
0.0
 11
174.338317871094
 21
128.562744140625
 31
0.0
  0
LINE
  5
    29
  8
0
  6
CONTINUOUS
 62
     2
 10
46.3383140563965
 20
9.562744140625
 30
0.0
 11
46.3383140563965
 21
128.562744140625
 31
0.0
  0
LINE
  5
    2A
  8
0
  6
CONTINUOUS
 62
     2
 10
167.338315963745
 20
121.562743016692
 30
0.0
 11
174.338312295455
 21
128.562739348402
 31
0.0
  0
LINE
  5
    2B
  8
0
  6
CONTINUOUS
 62
     2
 10
46.3383156391412
 20
128.562746004959
 30
0.0
 11
62.3383159637451
 21
121.033336629486
 31
0.0
  0
LINE
  5
    2C
  8
0
  6
CONTINUOUS
 62
     2
 10
167.338315963745
 20
16.5627619426901
 30
0.0
 11
174.338335117812
 21
9.56273924827786
 31
0.0
  0
LINE
  5
    2D
  8
0
  6
CONTINUOUS
 62
     2
 10
46.3383186567184
 20
9.56274576222224
 30
0.0
 11
62.3383159637451
 21
17.092157375641
 31
0.0
  0
LINE
  5
    2E
  8
0
  6
CONTINUOUS
 62
     2
 10
174.338256835938
 20
129.556442260742
 30
0.0
 11
174.338256835938
 21
149.556442260742
 31
0.0
  0
LINE
  5
    2F
  8
0
  6
CONTINUOUS
 62
     2
 10
45.3383140563965
 20
129.556442260742
 30
0.0
 11
175.338317871094
 21
129.556442260742
 31
0.0
  0
LINE
  5
    30
  8
0
  6
CONTINUOUS
 62
     2
 10
37.5883140563965
 20
149.556442260742
 30
0.0
 11
45.3383140563965
 21
149.556442260742
 31
0.0
  0
LINE
  5
    31
  8
0
  6
CONTINUOUS
 62
     2
 10
115.343585020102
 20
149.556442260742
 30
0.0
 11
175.338317871094
 21
149.556442260742
 31
0.0
  0
ARC
  5
    32
  8
0
  6
CONTINUOUS
 62
     2
 10
110.338285446167
 20
153.703627621259
 30
0.0
 40
6.50016693934245
 50
219.643748317915
 51
320.356251682085
  0
LINE
  5
    33
  8
0
  6
CONTINUOUS
 62
     2
 10
105.332985872232
 20
149.556442260742
 30
0.0
 11
115.343585020102
 21
149.556442260742
 31
0.0
  0
LINE
  5
    34
  8
0
  6
CONTINUOUS
 62
     2
 10
46.3383140563965
 20
129.562744140625
 30
0.0
 11
46.3383140563965
 21
149.562744140625
 31
0.0
  0
LINE
  5
    35
  8
0
  6
CONTINUOUS
 62
     2
 10
45.3383140563965
 20
149.556442260742
 30
0.0
 11
105.332985872232
 21
149.556442260742
 31
0.0
  0
LINE
  5
    36
  8
0
  6
CONTINUOUS
 62
     2
 10
175.338317871094
 20
149.556442260742
 30
0.0
 11
209.588317871094
 21
149.556442260742
 31
0.0
  0
POINT
  5
    37
  8
0
  6
CONTINUOUS
 62
     2
 10
114.838315963745
 20
69.062744140625
 30
0.0
  0
ARC
  5
    38
  8
0
  6
CONTINUOUS
 62
     2
 10
37.5883140563965
 20
148.306442260742
 30
0.0
 40
1.25
 50
90.0
 51
180.0
  0
ARC
  5
    39
  8
0
  6
CONTINUOUS
 62
     2
 10
37.5883140563965
 20
-10.187255859375
 30
0.0
 40
1.25
 50
180.0
 51
270.0
  0
ARC
  5
    3A
  8
0
  6
CONTINUOUS
 62
     2
 10
209.588317871094
 20
-10.187255859375
 30
0.0
 40
1.25
 50
270.0
 51
360.0
  0
ARC
  5
    3B
  8
0
  6
CONTINUOUS
 62
     2
 10
209.588317871094
 20
148.306442260742
 30
0.0
 40
1.25
 50
0.0
 51
90.0
  0
ENDBLK
  5
    3C
  8
0
  6
CONTINUOUS
 62
     7
  0
BLOCK
  5
    3D
  8
0
  6
CONTINUOUS
 62
     7
  2
*UDIM53
 70
    65
 10
0.0
 20
0.0
 30
0.0
  3
*UDIM53
  0
TEXT
  5
    3E
  8
0
  6
CONTINUOUS
 62
     7
 10
-241.257121880771
 20
76.2716983146302
 30
0.0
 40
3.00000002980232
  1
89,75
 50
89.9999999480344
 41
0.933333333333333
 72
     1
 11
-242.757121889604
 21
82.9716983825473
 31
0.0
 73
     2
  0
LINE
  5
    3F
  8
0
  6
CONTINUOUS
 62
     7
 10
-232.421651204792
 20
60.80920163696
 30
0.0
 11
-242.257121874702
 21
60.80920163696
 31
0.0
  0
LINE
  5
    40
  8
0
  6
CONTINUOUS
 62
     7
 10
-223.887076248896
 20
105.684197822265
 30
0.0
 11
-242.257121874702
 21
105.684197822265
 31
0.0
  0
LINE
  5
    41
  8
0
  6
CONTINUOUS
 62
     7
 10
-240.257121874702
 20
60.80920163696
 30
0.0
 11
-240.257121874702
 21
105.684197822265
 31
0.0
  0
LINE
  5
    42
  8
0
  6
CONTINUOUS
 62
     7
 10
-240.778066304654
 20
63.763624914167
 30
0.0
 11
-240.257121874702
 21
60.80920163696
 31
0.0
  0
LINE
  5
    43
  8
0
  6
CONTINUOUS
 62
     7
 10
-240.257121874702
 20
60.80920163696
 30
0.0
 11
-239.736177444751
 21
63.763624914167
 31
0.0
  0
LINE
  5
    44
  8
0
  6
CONTINUOUS
 62
     7
 10
-239.736177444751
 20
102.729774545058
 30
0.0
 11
-240.257121874702
 21
105.684197822265
 31
0.0
  0
LINE
  5
    45
  8
0
  6
CONTINUOUS
 62
     7
 10
-240.257121874702
 20
105.684197822265
 30
0.0
 11
-240.778066304654
 21
102.729774545058
 31
0.0
  0
ENDBLK
  5
    46
  8
0
  6
CONTINUOUS
 62
     7
  0
BLOCK
  5
    47
  8
0
  6
CONTINUOUS
 62
     7
  2
*UDIM54
 70
    65
 10
0.0
 20
0.0
 30
0.0
  3
*UDIM54
  0
TEXT
  5
    48
  8
0
  6
CONTINUOUS
 62
     7
 10
-246.839103074232
 20
49.7441148506445
 30
0.0
 40
3.00000002980232
  1
175
 50
89.9999999480344
 41
0.933333333333333
 72
     1
 11
-248.339103085601
 21
53.6441148907461
 31
0.0
 73
     2
  0
LINE
  5
    49
  8
0
  6
CONTINUOUS
 62
     7
 10
-223.887076248896
 20
18.1841978222647
 30
0.0
 11
-247.8391030707
 21
18.1841978222647
 31
0.0
  0
LINE
  5
    4A
  8
0
  6
CONTINUOUS
 62
     7
 10
-223.887076248896
 20
105.684197822265
 30
0.0
 11
-247.8391030707
 21
105.684197822265
 31
0.0
  0
LINE
  5
    4B
  8
0
  6
CONTINUOUS
 62
     7
 10
-245.8391030707
 20
18.1841978222647
 30
0.0
 11
-245.8391030707
 21
105.684197822265
 31
0.0
  0
LINE
  5
    4C
  8
0
  6
CONTINUOUS
 62
     7
 10
-246.360047500652
 20
21.1386210994717
 30
0.0
 11
-245.8391030707
 21
18.1841978222647
 31
0.0
  0
LINE
  5
    4D
  8
0
  6
CONTINUOUS
 62
     7
 10
-245.8391030707
 20
18.1841978222647
 30
0.0
 11
-245.318158640748
 21
21.1386210994717
 31
0.0
  0
LINE
  5
    4E
  8
0
  6
CONTINUOUS
 62
     7
 10
-245.318158640748
 20
102.729774545058
 30
0.0
 11
-245.8391030707
 21
105.684197822265
 31
0.0
  0
LINE
  5
    4F
  8
0
  6
CONTINUOUS
 62
     7
 10
-245.8391030707
 20
105.684197822265
 30
0.0
 11
-246.360047500652
 21
102.729774545058
 31
0.0
  0
ENDBLK
  5
    50
  8
0
  6
CONTINUOUS
 62
     7
  0
BLOCK
  5
    51
  8
0
  6
CONTINUOUS
 62
     7
  2
*UDIM55
 70
    65
 10
0.0
 20
0.0
 30
0.0
  3
*UDIM55
  0
TEXT
  5
    52
  8
0
  6
CONTINUOUS
 62
     7
 10
-176.03708497951
 20
123.369058611264
 30
0.0
 40
3.00000002980232
  1
96
 50
359.999999948034
 41
0.933333333333333
 72
     1
 11
-173.537084953321
 21
124.86905862391
 31
0.0
 73
     2
  0
LINE
  5
    53
  8
0
  6
CONTINUOUS
 62
     7
 10
-149.26208339764
 20
101.431050697019
 30
0.0
 11
-149.26208339764
 21
124.369058609009
 31
0.0
  0
LINE
  5
    54
  8
0
  6
CONTINUOUS
 62
     7
 10
-197.262084351315
 20
115.172733797536
 30
0.0
 11
-197.262084351315
 21
124.369058609009
 31
0.0
  0
LINE
  5
    55
  8
0
  6
CONTINUOUS
 62
     7
 10
-149.26208339764
 20
122.369058609009
 30
0.0
 11
-197.262084351315
 21
122.369058609009
 31
0.0
  0
LINE
  5
    56
  8
0
  6
CONTINUOUS
 62
     7
 10
-152.216506674847
 20
121.848114179057
 30
0.0
 11
-149.26208339764
 21
122.369058609009
 31
0.0
  0
LINE
  5
    57
  8
0
  6
CONTINUOUS
 62
     7
 10
-149.26208339764
 20
122.369058609009
 30
0.0
 11
-152.216506674847
 21
122.89000303896
 31
0.0
  0
LINE
  5
    58
  8
0
  6
CONTINUOUS
 62
     7
 10
-194.307661074108
 20
122.89000303896
 30
0.0
 11
-197.262084351315
 21
122.369058609009
 31
0.0
  0
LINE
  5
    59
  8
0
  6
CONTINUOUS
 62
     7
 10
-197.262084351315
 20
122.369058609009
 30
0.0
 11
-194.307661074108
 21
121.848114179057
 31
0.0
  0
ENDBLK
  5
    5A
  8
0
  6
CONTINUOUS
 62
     7
  0
BLOCK
  5
    5B
  8
0
  6
CONTINUOUS
 62
     7
  2
*UDIM56
 70
    65
 10
0.0
 20
0.0
 30
0.0
  3
*UDIM56
  0
TEXT
  5
    5C
  8
0
  6
CONTINUOUS
 62
     7
 10
-222.462085007325
 20
123.369058613789
 30
0.0
 40
3.00000002980232
  1
78,5
 50
359.999999948034
 41
0.933333333333333
 72
     1
 11
-217.162084953321
 21
124.86905862391
 31
0.0
 73
     2
  0
LINE
  5
    5D
  8
0
  6
CONTINUOUS
 62
     7
 10
-236.512085304989
 20
101.431050697019
 30
0.0
 11
-236.512085304989
 21
124.369058609009
 31
0.0
  0
LINE
  5
    5E
  8
0
  6
CONTINUOUS
 62
     7
 10
-197.262084351315
 20
122.369058609009
 30
0.0
 11
-236.512085304989
 21
122.369058609009
 31
0.0
  0
LINE
  5
    5F
  8
0
  6
CONTINUOUS
 62
     7
 10
-200.216507628521
 20
121.848114179057
 30
0.0
 11
-197.262084351315
 21
122.369058609009
 31
0.0
  0
LINE
  5
    60
  8
0
  6
CONTINUOUS
 62
     7
 10
-197.262084351315
 20
122.369058609009
 30
0.0
 11
-200.216507628521
 21
122.89000303896
 31
0.0
  0
LINE
  5
    61
  8
0
  6
CONTINUOUS
 62
     7
 10
-233.557662027782
 20
122.89000303896
 30
0.0
 11
-236.512085304989
 21
122.369058609009
 31
0.0
  0
LINE
  5
    62
  8
0
  6
CONTINUOUS
 62
     7
 10
-236.512085304989
 20
122.369058609009
 30
0.0
 11
-233.557662027782
 21
121.848114179057
 31
0.0
  0
ENDBLK
  5
    63
  8
0
  6
CONTINUOUS
 62
     7
  0
BLOCK
  5
    64
  8
0
  6
CONTINUOUS
 62
     7
  2
*UDIM57
 70
    65
 10
0.0
 20
0.0
 30
0.0
  3
*UDIM57
  0
TEXT
  5
    65
  8
0
  6
CONTINUOUS
 62
     7
 10
-143.463203433708
 20
56.6326266871714
 30
0.0
 40
3.00000002980232
  1
161
 50
89.9999999480344
 41
0.933333333333333
 72
     1
 11
-144.963203445077
 21
60.532626727273
 31
0.0
 73
     2
  0
LINE
  5
    66
  8
0
  6
CONTINUOUS
 62
     7
 10
-148.88708339764
 20
20.55920163696
 30
0.0
 11
-140.463203430176
 21
20.55920163696
 31
0.0
  0
LINE
  5
    67
  8
0
  6
CONTINUOUS
 62
     7
 10
-148.88708339764
 20
101.056050697019
 30
0.0
 11
-140.463203430176
 21
101.056050697019
 31
0.0
  0
LINE
  5
    68
  8
0
  6
CONTINUOUS
 62
     7
 10
-142.463203430176
 20
20.55920163696
 30
0.0
 11
-142.463203430176
 21
101.056050697019
 31
0.0
  0
LINE
  5
    69
  8
0
  6
CONTINUOUS
 62
     7
 10
-142.984147860127
 20
23.513624914167
 30
0.0
 11
-142.463203430176
 21
20.55920163696
 31
0.0
  0
LINE
  5
    6A
  8
0
  6
CONTINUOUS
 62
     7
 10
-142.463203430176
 20
20.55920163696
 30
0.0
 11
-141.942259000224
 21
23.513624914167
 31
0.0
  0
LINE
  5
    6B
  8
0
  6
CONTINUOUS
 62
     7
 10
-141.942259000224
 20
98.1016274198116
 30
0.0
 11
-142.463203430176
 21
101.056050697019
 31
0.0
  0
LINE
  5
    6C
  8
0
  6
CONTINUOUS
 62
     7
 10
-142.463203430176
 20
101.056050697019
 30
0.0
 11
-142.984147860127
 21
98.1016274198116
 31
0.0
  0
ENDBLK
  5
    6D
  8
0
  6
CONTINUOUS
 62
     7
  0
BLOCK
  5
    6E
  8
0
  6
CONTINUOUS
 62
     7
  2
*UDIM58
 70
    65
 10
0.0
 20
0.0
 30
0.0
  3
*UDIM58
  0
TEXT
  5
    6F
  8
0
  6
CONTINUOUS
 62
     7
 10
-179.037046839325
 20
1.07437515484275
 30
0.0
 40
3.00000002980232
  1
84
 50
359.999999948034
 41
0.933333333333333
 72
     1
 11
-176.537046813137
 21
2.57437516748905
 31
0.0
 73
     2
  0
LINE
  5
    70
  8
0
  6
CONTINUOUS
 62
     7
 10
-155.262008666992
 20
53.6842975616455
 30
0.0
 11
-155.262008666992
 21
-1.92562484741211
 31
0.0
  0
LINE
  5
    71
  8
0
  6
CONTINUOUS
 62
     7
 10
-155.262008666992
 20
7.43751525878906E-2
 30
0.0
 11
-197.262084351315
 21
7.43751525878906E-2
 31
0.0
  0
LINE
  5
    72
  8
0
  6
CONTINUOUS
 62
     7
 10
-158.216431944199
 20
-0.446569277363773
 30
0.0
 11
-155.262008666992
 21
7.43751525878906E-2
 31
0.0
  0
LINE
  5
    73
  8
0
  6
CONTINUOUS
 62
     7
 10
-155.262008666992
 20
7.43751525878906E-2
 30
0.0
 11
-158.216431944199
 21
0.595319582539554
 31
0.0
  0
LINE
  5
    74
  8
0
  6
CONTINUOUS
 62
     7
 10
-194.307661074108
 20
0.595319582539553
 30
0.0
 11
-197.262084351315
 21
7.43751525878906E-2
 31
0.0
  0
LINE
  5
    75
  8
0
  6
CONTINUOUS
 62
     7
 10
-197.262084351315
 20
7.43751525878906E-2
 30
0.0
 11
-194.307661074108
 21
-0.446569277363773
 31
0.0
  0
ENDBLK
  5
    76
  8
0
  6
CONTINUOUS
 62
     7
  0
BLOCK
  5
    77
  8
0
  6
CONTINUOUS
 62
     7
  2
*UDIM59
 70
    65
 10
0.0
 20
0.0
 30
0.0
  3
*UDIM59
  0
TEXT
  5
    78
  8
0
  6
CONTINUOUS
 62
     7
 10
-191.287073534299
 20
9.87187671886863
 30
0.0
 40
3.00000002980232
  1
35
 50
359.999999948034
 41
0.933333333333333
 72
     1
 11
-188.787073508111
 21
11.3718767315149
 31
0.0
 73
     2
  0
LINE
  5
    79
  8
0
  6
CONTINUOUS
 62
     7
 10
-179.762063491473
 20
17.184197822265
 30
0.0
 11
-179.762070813291
 21
6.87187671661427
 31
0.0
  0
LINE
  5
    7A
  8
0
  6
CONTINUOUS
 62
     7
 10
-179.762069393277
 20
8.87187671661377
 30
0.0
 11
-197.262079518372
 21
8.87187671661377
 31
0.0
  0
LINE
  5
    7B
  8
0
  6
CONTINUOUS
 62
     7
 10
-182.716492670484
 20
8.35093228666211
 30
0.0
 11
-179.762069393277
 21
8.87187671661377
 31
0.0
  0
LINE
  5
    7C
  8
0
  6
CONTINUOUS
 62
     7
 10
-179.762069393277
 20
8.87187671661377
 30
0.0
 11
-182.716492670484
 21
9.39282114656543
 31
0.0
  0
LINE
  5
    7D
  8
0
  6
CONTINUOUS
 62
     7
 10
-194.307656241165
 20
9.39282114656543
 30
0.0
 11
-197.262079518372
 21
8.87187671661377
 31
0.0
  0
LINE
  5
    7E
  8
0
  6
CONTINUOUS
 62
     7
 10
-197.262079518372
 20
8.87187671661377
 30
0.0
 11
-194.307656241165
 21
8.35093228666211
 31
0.0
  0
ENDBLK
  5
    7F
  8
0
  6
CONTINUOUS
 62
     7
  0
BLOCK
  5
    80
  8
0
  6
CONTINUOUS
 62
     7
  2
*UDIM60
 70
    65
 10
0.0
 20
0.0
 30
0.0
  3
*UDIM60
  0
TEXT
  5
    81
  8
0
  6
CONTINUOUS
 62
     7
 10
-208.78708498269
 20
9.87187671886863
 30
0.0
 40
3.00000002980232
  1
35
 50
359.999999948034
 41
0.933333333333333
 72
     1
 11
-206.287084956502
 21
11.3718767315149
 31
0.0
 73
     2
  0
LINE
  5
    82
  8
0
  6
CONTINUOUS
 62
     7
 10
-214.762092591004
 20
17.184197822266
 30
0.0
 11
-214.762109151266
 21
6.87187671661635
 31
0.0
  0
LINE
  5
    83
  8
0
  6
CONTINUOUS
 62
     7
 10
-197.262079518372
 20
8.87187671661377
 30
0.0
 11
-214.762105939523
 21
8.87187671661377
 31
0.0
  0
LINE
  5
    84
  8
0
  6
CONTINUOUS
 62
     7
 10
-200.216502795578
 20
8.35093228666211
 30
0.0
 11
-197.262079518372
 21
8.87187671661377
 31
0.0
  0
LINE
  5
    85
  8
0
  6
CONTINUOUS
 62
     7
 10
-197.262079518372
 20
8.87187671661377
 30
0.0
 11
-200.216502795578
 21
9.39282114656543
 31
0.0
  0
LINE
  5
    86
  8
0
  6
CONTINUOUS
 62
     7
 10
-211.807682662316
 20
9.39282114656543
 30
0.0
 11
-214.762105939523
 21
8.87187671661377
 31
0.0
  0
LINE
  5
    87
  8
0
  6
CONTINUOUS
 62
     7
 10
-214.762105939523
 20
8.87187671661377
 30
0.0
 11
-211.807682662316
 21
8.35093228666211
 31
0.0
  0
ENDBLK
  5
    88
  8
0
  6
CONTINUOUS
 62
     7
  0
BLOCK
  5
    89
  8
0
  6
CONTINUOUS
 62
     7
  2
*UDIM61
 70
    65
 10
0.0
 20
0.0
 30
0.0
  3
*UDIM61
  0
TEXT
  5
    8A
  8
0
  6
CONTINUOUS
 62
     7
 10
-201.43708498683
 20
114.281259540261
 30
0.0
 40
3.00000002980232
  1
105
 50
359.999999948034
 41
0.933333333333333
 72
     1
 11
-197.537084946735
 21
115.781259551644
 31
0.0
 73
     2
  0
LINE
  5
    8B
  8
0
  6
CONTINUOUS
 62
     7
 10
-171.012091666793
 20
87.8092016369599
 30
0.0
 11
-171.012083042861
 21
115.281259536743
 31
0.0
  0
LINE
  5
    8C
  8
0
  6
CONTINUOUS
 62
     7
 10
-223.51208380911
 20
87.8092016369598
 30
0.0
 11
-223.512068914009
 21
115.281259536743
 31
0.0
  0
LINE
  5
    8D
  8
0
  6
CONTINUOUS
 62
     7
 10
-171.012083670694
 20
113.281259536743
 30
0.0
 11
-223.512069998391
 21
113.281259536743
 31
0.0
  0
LINE
  5
    8E
  8
0
  6
CONTINUOUS
 62
     7
 10
-173.966506947901
 20
112.760315106791
 30
0.0
 11
-171.012083670694
 21
113.281259536743
 31
0.0
  0
LINE
  5
    8F
  8
0
  6
CONTINUOUS
 62
     7
 10
-171.012083670694
 20
113.281259536743
 30
0.0
 11
-173.966506947901
 21
113.802203966695
 31
0.0
  0
LINE
  5
    90
  8
0
  6
CONTINUOUS
 62
     7
 10
-220.557646721184
 20
113.802203966695
 30
0.0
 11
-223.512069998391
 21
113.281259536743
 31
0.0
  0
LINE
  5
    91
  8
0
  6
CONTINUOUS
 62
     7
 10
-223.512069998391
 20
113.281259536743
 30
0.0
 11
-220.557646721184
 21
112.760315106791
 31
0.0
  0
ENDBLK
  5
    92
  8
0
  6
CONTINUOUS
 62
     7
  0
BLOCK
  5
    93
  8
0
  6
CONTINUOUS
 62
     7
  2
*HATCH7
 70
    65
 10
0.0
 20
0.0
 30
0.0
  3
*HATCH7
  0
LINE
  5
    94
  8
0
  6
CONTINUOUS
 62
    52
 10
187.992431640625
 20
39.4999961853027
 30
0.0
 11
185.992431640625
 21
37.4999961853027
 31
0.0
  0
LINE
  5
    95
  8
0
  6
CONTINUOUS
 62
    52
 10
192.235076904297
 20
39.4999961853027
 30
0.0
 11
190.235076904297
 21
37.4999961853027
 31
0.0
  0
LINE
  5
    96
  8
0
  6
CONTINUOUS
 62
    52
 10
196.477722167969
 20
39.4999961853027
 30
0.0
 11
194.477722167969
 21
37.4999961853027
 31
0.0
  0
LINE
  5
    97
  8
0
  6
CONTINUOUS
 62
    52
 10
200.720367431641
 20
39.4999961853027
 30
0.0
 11
198.720367431641
 21
37.4999961853027
 31
0.0
  0
LINE
  5
    98
  8
0
  6
CONTINUOUS
 62
    52
 10
204.963012695313
 20
39.4999961853027
 30
0.0
 11
202.963012695313
 21
37.4999961853027
 31
0.0
  0
LINE
  5
    99
  8
0
  6
CONTINUOUS
 62
    52
 10
209.205657958984
 20
39.4999961853027
 30
0.0
 11
207.205657958984
 21
37.4999961853027
 31
0.0
  0
LINE
  5
    9A
  8
0
  6
CONTINUOUS
 62
    52
 10
213.448303222656
 20
39.4999961853027
 30
0.0
 11
211.448303222656
 21
37.4999961853027
 31
0.0
  0
LINE
  5
    9B
  8
0
  6
CONTINUOUS
 62
    52
 10
217.690948486328
 20
39.4999961853027
 30
0.0
 11
215.690948486328
 21
37.4999961853027
 31
0.0
  0
LINE
  5
    9C
  8
0
  6
CONTINUOUS
 62
    52
 10
221.93359375
 20
39.4999961853027
 30
0.0
 11
219.93359375
 21
37.4999961853027
 31
0.0
  0
LINE
  5
    9D
  8
0
  6
CONTINUOUS
 62
    52
 10
226.176239013672
 20
39.4999961853027
 30
0.0
 11
224.176239013672
 21
37.4999961853027
 31
0.0
  0
LINE
  5
    9E
  8
0
  6
CONTINUOUS
 62
    52
 10
230.418884277344
 20
39.4999961853027
 30
0.0
 11
228.418884277344
 21
37.4999961853027
 31
0.0
  0
LINE
  5
    9F
  8
0
  6
CONTINUOUS
 62
    52
 10
234.661529541016
 20
39.4999961853027
 30
0.0
 11
232.661529541016
 21
37.4999961853027
 31
0.0
  0
LINE
  5
    A0
  8
0
  6
CONTINUOUS
 62
    52
 10
238.904174804688
 20
39.4999961853027
 30
0.0
 11
236.904174804688
 21
37.4999961853027
 31
0.0
  0
LINE
  5
    A1
  8
0
  6
CONTINUOUS
 62
    52
 10
243.146820068359
 20
39.4999961853027
 30
0.0
 11
241.146820068359
 21
37.4999961853027
 31
0.0
  0
LINE
  5
    A2
  8
0
  6
CONTINUOUS
 62
    52
 10
245.418930053711
 20
37.5295219421387
 30
0.0
 11
245.389404296875
 21
37.4999961853027
 31
0.0
  0
ENDBLK
  5
    A3
  8
0
  6
CONTINUOUS
 62
     7
  0
BLOCK
  5
    A4
  8
0
  6
CONTINUOUS
 62
     7
  2
*HATCH8
 70
    65
 10
0.0
 20
0.0
 30
0.0
  3
*HATCH8
  0
LINE
  5
    A5
  8
0
  6
CONTINUOUS
 62
    52
 10
175.264511108398
 20
39.4999961853027
 30
0.0
 11
173.264511108398
 21
37.4999961853027
 31
0.0
  0
ENDBLK
  5
    A6
  8
0
  6
CONTINUOUS
 62
     7
  0
BLOCK
  5
    A7
  8
0
  6
CONTINUOUS
 62
     7
  2
*HATCH9
 70
    65
 10
0.0
 20
0.0
 30
0.0
  3
*HATCH9
  0
LINE
  5
    A8
  8
0
  6
CONTINUOUS
 62
    52
 10
115.867530822754
 20
39.4999961853027
 30
0.0
 11
113.867530822754
 21
37.4999961853027
 31
0.0
  0
LINE
  5
    A9
  8
0
  6
CONTINUOUS
 62
    52
 10
120.110176086426
 20
39.4999961853027
 30
0.0
 11
118.110176086426
 21
37.4999961853027
 31
0.0
  0
LINE
  5
    AA
  8
0
  6
CONTINUOUS
 62
    52
 10
124.352821350098
 20
39.4999961853027
 30
0.0
 11
122.352821350098
 21
37.4999961853027
 31
0.0
  0
LINE
  5
    AB
  8
0
  6
CONTINUOUS
 62
    52
 10
128.595458984375
 20
39.4999961853027
 30
0.0
 11
126.59546661377
 21
37.4999961853027
 31
0.0
  0
LINE
  5
    AC
  8
0
  6
CONTINUOUS
 62
    52
 10
132.838104248047
 20
39.4999961853027
 30
0.0
 11
130.838104248047
 21
37.4999961853027
 31
0.0
  0
LINE
  5
    AD
  8
0
  6
CONTINUOUS
 62
    52
 10
137.080749511719
 20
39.4999961853027
 30
0.0
 11
135.080749511719
 21
37.4999961853027
 31
0.0
  0
LINE
  5
    AE
  8
0
  6
CONTINUOUS
 62
    52
 10
141.323394775391
 20
39.4999961853027
 30
0.0
 11
139.323394775391
 21
37.4999961853027
 31
0.0
  0
LINE
  5
    AF
  8
0
  6
CONTINUOUS
 62
    52
 10
145.566040039063
 20
39.4999961853027
 30
0.0
 11
143.566040039063
 21
37.4999961853027
 31
0.0
  0
LINE
  5
    B0
  8
0
  6
CONTINUOUS
 62
    52
 10
149.808685302734
 20
39.4999961853027
 30
0.0
 11
147.808685302734
 21
37.4999961853027
 31
0.0
  0
LINE
  5
    B1
  8
0
  6
CONTINUOUS
 62
    52
 10
154.051330566406
 20
39.4999961853027
 30
0.0
 11
152.051330566406
 21
37.4999961853027
 31
0.0
  0
LINE
  5
    B2
  8
0
  6
CONTINUOUS
 62
    52
 10
158.293975830078
 20
39.4999961853027
 30
0.0
 11
156.293975830078
 21
37.4999961853027
 31
0.0
  0
LINE
  5
    B3
  8
0
  6
CONTINUOUS
 62
    52
 10
162.53662109375
 20
39.4999961853027
 30
0.0
 11
160.53662109375
 21
37.4999961853027
 31
0.0
  0
LINE
  5
    B4
  8
0
  6
CONTINUOUS
 62
    52
 10
166.779266357422
 20
39.4999961853027
 30
0.0
 11
164.779266357422
 21
37.4999961853027
 31
0.0
  0
LINE
  5
    B5
  8
0
  6
CONTINUOUS
 62
    52
 10
171.021911621094
 20
39.4999961853027
 30
0.0
 11
169.021911621094
 21
37.4999961853027
 31
0.0
  0
ENDBLK
  5
    B6
  8
0
  6
CONTINUOUS
 62
     7
  0
BLOCK
  5
    B7
  8
0
  6
CONTINUOUS
 62
     7
  2
*HATCH10
 70
    65
 10
0.0
 20
0.0
 30
0.0
  3
*HATCH10
  0
LINE
  5
    B8
  8
0
  6
CONTINUOUS
 62
    52
 10
92.5330123901367
 20
39.4999961853027
 30
0.0
 11
90.5330123901367
 21
37.4999961853027
 31
0.0
  0
LINE
  5
    B9
  8
0
  6
CONTINUOUS
 62
    52
 10
96.7756576538086
 20
39.4999961853027
 30
0.0
 11
94.7756576538086
 21
37.4999961853027
 31
0.0
  0
LINE
  5
    BA
  8
0
  6
CONTINUOUS
 62
    52
 10
101.01830291748
 20
39.4999961853027
 30
0.0
 11
99.0183029174805
 21
37.4999961853027
 31
0.0
  0
LINE
  5
    BB
  8
0
  6
CONTINUOUS
 62
    52
 10
105.260948181152
 20
39.4999961853027
 30
0.0
 11
103.260948181152
 21
37.4999961853027
 31
0.0
  0
ENDBLK
  5
    BC
  8
0
  6
CONTINUOUS
 62
     7
  0
BLOCK
  5
    BD
  8
0
  6
CONTINUOUS
 62
     7
  2
*HATCH11
 70
    65
 10
0.0
 20
0.0
 30
0.0
  3
*HATCH11
  0
LINE
  5
    BE
  8
0
  6
CONTINUOUS
 62
    52
 10
52.2279205322266
 20
39.4999961853027
 30
0.0
 11
50.2279205322266
 21
37.4999961853027
 31
0.0
  0
LINE
  5
    BF
  8
0
  6
CONTINUOUS
 62
    52
 10
56.4705581665039
 20
39.4999961853027
 30
0.0
 11
54.4705581665039
 21
37.4999961853027
 31
0.0
  0
LINE
  5
    C0
  8
0
  6
CONTINUOUS
 62
    52
 10
60.7131958007813
 20
39.4999961853027
 30
0.0
 11
58.7131958007813
 21
37.4999961853027
 31
0.0
  0
LINE
  5
    C1
  8
0
  6
CONTINUOUS
 62
    52
 10
64.9558334350586
 20
39.4999961853027
 30
0.0
 11
62.9558334350586
 21
37.4999961853027
 31
0.0
  0
LINE
  5
    C2
  8
0
  6
CONTINUOUS
 62
    52
 10
69.1984786987305
 20
39.4999961853027
 30
0.0
 11
67.1984786987305
 21
37.4999961853027
 31
0.0
  0
LINE
  5
    C3
  8
0
  6
CONTINUOUS
 62
    52
 10
73.4411239624023
 20
39.4999961853027
 30
0.0
 11
71.4411239624024
 21
37.4999961853027
 31
0.0
  0
LINE
  5
    C4
  8
0
  6
CONTINUOUS
 62
    52
 10
75.7371292114258
 20
37.5533599853516
 30
0.0
 11
75.6837692260742
 21
37.4999961853027
 31
0.0
  0
ENDBLK
  5
    C5
  8
0
  6
CONTINUOUS
 62
     7
  0
BLOCK
  5
    C6
  8
0
  6
CONTINUOUS
 62
     7
  2
*HATCH12
 70
    65
 10
0.0
 20
0.0
 30
0.0
  3
*HATCH12
  0
LINE
  5
    C7
  8
0
  6
CONTINUOUS
 62
    52
 10
45.8639602661133
 20
39.4999961853027
 30
0.0
 11
43.8639602661133
 21
37.4999961853027
 31
0.0
  0
ENDBLK
  5
    C8
  8
0
  6
CONTINUOUS
 62
     7
  0
BLOCK
  5
    C9
  8
0
  6
CONTINUOUS
 62
     7
  2
*HATCH13
 70
    65
 10
0.0
 20
0.0
 30
0.0
  3
*HATCH13
  0
LINE
  5
    CA
  8
0
  6
CONTINUOUS
 62
    52
 10
-34.7462158203125
 20
39.4999961853027
 30
0.0
 11
-36.7462158203125
 21
37.4999961853027
 31
0.0
  0
LINE
  5
    CB
  8
0
  6
CONTINUOUS
 62
    52
 10
-30.5035762786865
 20
39.4999961853027
 30
0.0
 11
-32.5035781860352
 21
37.4999961853027
 31
0.0
  0
LINE
  5
    CC
  8
0
  6
CONTINUOUS
 62
    52
 10
-26.2609348297119
 20
39.4999961853027
 30
0.0
 11
-28.2609367370605
 21
37.4999961853027
 31
0.0
  0
LINE
  5
    CD
  8
0
  6
CONTINUOUS
 62
    52
 10
-22.0182933807373
 20
39.4999961853027
 30
0.0
 11
-24.0182952880859
 21
37.4999961853027
 31
0.0
  0
LINE
  5
    CE
  8
0
  6
CONTINUOUS
 62
    52
 10
-17.7756519317627
 20
39.4999961853027
 30
0.0
 11
-19.7756538391113
 21
37.4999961853027
 31
0.0
  0
LINE
  5
    CF
  8
0
  6
CONTINUOUS
 62
    52
 10
-13.5330104827881
 20
39.4999961853027
 30
0.0
 11
-15.5330123901367
 21
37.4999961853027
 31
0.0
  0
LINE
  5
    D0
  8
0
  6
CONTINUOUS
 62
    52
 10
-9.29036903381348
 20
39.4999961853027
 30
0.0
 11
-11.2903709411621
 21
37.4999961853027
 31
0.0
  0
LINE
  5
    D1
  8
0
  6
CONTINUOUS
 62
    52
 10
-5.04772758483887
 20
39.4999961853027
 30
0.0
 11
-7.0477294921875
 21
37.4999961853027
 31
0.0
  0
LINE
  5
    D2
  8
0
  6
CONTINUOUS
 62
    52
 10
-0.805086612701416
 20
39.4999961853027
 30
0.0
 11
-2.80508828163147
 21
37.4999961853027
 31
0.0
  0
LINE
  5
    D3
  8
0
  6
CONTINUOUS
 62
    52
 10
3.43755435943604
 20
39.4999961853027
 30
0.0
 11
1.43755269050598
 21
37.4999961853027
 31
0.0
  0
LINE
  5
    D4
  8
0
  6
CONTINUOUS
 62
    52
 10
7.68019580841064
 20
39.4999961853027
 30
0.0
 11
5.68019390106201
 21
37.4999961853027
 31
0.0
  0
LINE
  5
    D5
  8
0
  6
CONTINUOUS
 62
    52
 10
11.9228372573853
 20
39.4999961853027
 30
0.0
 11
9.92283535003662
 21
37.4999961853027
 31
0.0
  0
LINE
  5
    D6
  8
0
  6
CONTINUOUS
 62
    52
 10
16.1654777526855
 20
39.4999961853027
 30
0.0
 11
14.1654767990112
 21
37.4999961853027
 31
0.0
  0
LINE
  5
    D7
  8
0
  6
CONTINUOUS
 62
    52
 10
20.4081192016602
 20
39.4999961853027
 30
0.0
 11
18.4081172943115
 21
37.4999961853027
 31
0.0
  0
LINE
  5
    D8
  8
0
  6
CONTINUOUS
 62
    52
 10
24.6507606506348
 20
39.4999961853027
 30
0.0
 11
22.6507587432861
 21
37.4999961853027
 31
0.0
  0
LINE
  5
    D9
  8
0
  6
CONTINUOUS
 62
    52
 10
28.8934020996094
 20
39.4999961853027
 30
0.0
 11
26.8934001922607
 21
37.4999961853027
 31
0.0
  0
LINE
  5
    DA
  8
0
  6
CONTINUOUS
 62
    52
 10
33.136043548584
 20
39.4999961853027
 30
0.0
 11
31.1360416412354
 21
37.4999961853027
 31
0.0
  0
LINE
  5
    DB
  8
0
  6
CONTINUOUS
 62
    52
 10
35.4869270324707
 20
37.6082458496094
 30
0.0
 11
35.3786773681641
 21
37.4999961853027
 31
0.0
  0
ENDBLK
  5
    DC
  8
0
  6
CONTINUOUS
 62
     7
  0
BLOCK
  5
    DD
  8
0
  6
CONTINUOUS
 62
     7
  2
*HATCH14
 70
    65
 10
0.0
 20
0.0
 30
0.0
  3
*HATCH14
  0
LINE
  5
    DE
  8
0
  6
CONTINUOUS
 62
    52
 10
166.264511108398
 20
30.5000038146973
 30
0.0
 11
163.987060546875
 21
28.2225513458252
 31
0.0
  0
LINE
  5
    DF
  8
0
  6
CONTINUOUS
 62
    52
 10
170.50715637207
 20
30.5000038146973
 30
0.0
 11
168.00715637207
 21
27.9999980926514
 31
0.0
  0
LINE
  5
    E0
  8
0
  6
CONTINUOUS
 62
    52
 10
172.987060546875
 20
28.7372703552246
 30
0.0
 11
172.249786376953
 21
27.9999980926514
 31
0.0
  0
ENDBLK
  5
    E1
  8
0
  6
CONTINUOUS
 62
     7
  0
BLOCK
  5
    E2
  8
0
  6
CONTINUOUS
 62
     7
  2
*UDIM62
 70
    65
 10
0.0
 20
0.0
 30
0.0
  3
*UDIM62
  0
TEXT
  5
    E3
  8
0
  6
CONTINUOUS
 62
     7
 10
-401.150071007373
 20
132.283154969227
 30
0.0
 40
3.00000002980232
  1
27,5
 50
359.999999948034
 41
0.933333333333333
 72
     1
 11
-395.850070953369
 21
133.783154979348
 31
0.0
 73
     2
  0
TEXT
  5
    E4
  8
0
  6
CONTINUOUS
 62
     7
 10
-390.00007089015
 20
132.283154991956
 30
0.0
 40
3.00000002980232
  1
 CORSA DI SEZIONAMENTO
 50
359.999999948034
 41
0.933333333333333
 72
     1
 11
-359.500070585807
 21
133.783154979348
 31
0.0
 73
     2
  0
LINE
  5
    E5
  8
0
  6
CONTINUOUS
 62
     7
 10
-404.075071334839
 20
102.059133052826
 30
0.0
 11
-404.075071334839
 21
133.283154964447
 31
0.0
  0
LINE
  5
    E6
  8
0
  6
CONTINUOUS
 62
     7
 10
-417.825071334839
 20
88.0592017173767
 30
0.0
 11
-417.825071334839
 21
133.283154964447
 31
0.0
  0
LINE
  5
    E7
  8
0
  6
CONTINUOUS
 62
     7
 10
-329.000070282817
 20
131.283154964447
 30
0.0
 11
-417.825071334839
 21
131.283154964447
 31
0.0
  0
LINE
  5
    E8
  8
0
  6
CONTINUOUS
 62
     7
 10
-407.029494612046
 20
130.762210534495
 30
0.0
 11
-404.075071334839
 21
131.283154964447
 31
0.0
  0
LINE
  5
    E9
  8
0
  6
CONTINUOUS
 62
     7
 10
-404.075071334839
 20
131.283154964447
 30
0.0
 11
-407.029494612046
 21
131.804099394399
 31
0.0
  0
LINE
  5
    EA
  8
0
  6
CONTINUOUS
 62
     7
 10
-414.870648057632
 20
131.804099394399
 30
0.0
 11
-417.825071334839
 21
131.283154964447
 31
0.0
  0
LINE
  5
    EB
  8
0
  6
CONTINUOUS
 62
     7
 10
-417.825071334839
 20
131.283154964447
 30
0.0
 11
-414.870648057632
 21
130.762210534495
 31
0.0
  0
ENDBLK
  5
    EC
  8
0
  6
CONTINUOUS
 62
     7
  0
BLOCK
  5
    ED
  8
0
  6
CONTINUOUS
 62
     7
  2
*UDIM63
 70
    65
 10
0.0
 20
0.0
 30
0.0
  3
*UDIM63
  0
TEXT
  5
    EE
  8
0
  6
CONTINUOUS
 62
     7
 10
-382.199130958549
 20
51.4926498789174
 30
0.0
 40
3.00000002980232
  1
5,5
 50
307.051265874051
 41
0.933333333333333
 72
     1
 11
-378.652121321325
 21
49.2838667342108
 31
0.0
 73
     2
  0
TEXT
  5
    EF
  8
0
  6
CONTINUOUS
 62
     7
 10
-384.097098477719
 20
54.0066545246492
 30
0.0
 40
3.00000002980232
  1
Ø
 50
307.051265874051
 41
0.933333333333334
 72
     1
 11
-382.237171087386
 21
54.0325421941772
 31
0.0
 73
     2
  0
LINE
  5
    F0
  8
0
  6
CONTINUOUS
 62
     7
 10
-378.297498549482
 20
44.6649661002513
 30
0.0
 11
-390.653582265638
 21
61.0315538334735
 31
0.0
  0
LINE
  5
    F1
  8
0
  6
CONTINUOUS
 62
     7
 10
-386.80073720268
 20
56.792758721755
 30
0.0
 11
-388.996628030649
 21
58.8367899034249
 31
0.0
  0
LINE
  5
    F2
  8
0
  6
CONTINUOUS
 62
     7
 10
-388.996628030649
 20
58.8367899034249
 30
0.0
 11
-387.632265274889
 21
56.1649900848205
 31
0.0
  0
LINE
  5
    F3
  8
0
  6
CONTINUOUS
 62
     7
 10
-392.849473093608
 20
63.0755850151434
 30
0.0
 11
-390.653582265638
 21
61.0315538334735
 31
0.0
  0
LINE
  5
    F4
  8
0
  6
CONTINUOUS
 62
     7
 10
-390.653582265638
 20
61.0315538334735
 30
0.0
 11
-392.017945021399
 21
63.7033536520779
 31
0.0
  0
ENDBLK
  5
    F5
  8
0
  6
CONTINUOUS
 62
     7
  0
BLOCK
  5
    F6
  8
0
  6
CONTINUOUS
 62
     7
  2
*UDIM64
 70
    65
 10
0.0
 20
0.0
 30
0.0
  3
*UDIM64
  0
TEXT
  5
    F7
  8
0
  6
CONTINUOUS
 62
     7
 10
-288.400076326094
 20
131.543797972073
 30
0.0
 40
3.00000002980232
  1
83
 50
359.999999948034
 41
0.933333333333333
 72
     1
 11
-285.900076299906
 21
133.043797984719
 31
0.0
 73
     2
  0
LINE
  5
    F8
  8
0
  6
CONTINUOUS
 62
     7
 10
-264.925079345703
 20
104.184201717377
 30
0.0
 11
-264.925079345703
 21
132.543797969818
 31
0.0
  0
LINE
  5
    F9
  8
0
  6
CONTINUOUS
 62
     7
 10
-306.325073242188
 20
116.193240075951
 30
0.0
 11
-306.325073242188
 21
132.543797969818
 31
0.0
  0
LINE
  5
    FA
  8
0
  6
CONTINUOUS
 62
     7
 10
-264.925079345703
 20
130.543797969818
 30
0.0
 11
-306.325073242188
 21
130.543797969818
 31
0.0
  0
LINE
  5
    FB
  8
0
  6
CONTINUOUS
 62
     7
 10
-267.87950262291
 20
130.022853539866
 30
0.0
 11
-264.925079345703
 21
130.543797969818
 31
0.0
  0
LINE
  5
    FC
  8
0
  6
CONTINUOUS
 62
     7
 10
-264.925079345703
 20
130.543797969818
 30
0.0
 11
-267.87950262291
 21
131.06474239977
 31
0.0
  0
LINE
  5
    FD
  8
0
  6
CONTINUOUS
 62
     7
 10
-303.370649964981
 20
131.06474239977
 30
0.0
 11
-306.325073242188
 21
130.543797969818
 31
0.0
  0
LINE
  5
    FE
  8
0
  6
CONTINUOUS
 62
     7
 10
-306.325073242188
 20
130.543797969818
 30
0.0
 11
-303.370649964981
 21
130.022853539866
 31
0.0
  0
ENDBLK
  5
    FF
  8
0
  6
CONTINUOUS
 62
     7
  0
BLOCK
  5
   100
  8
0
  6
CONTINUOUS
 62
     7
  2
*UDIM65
 70
    65
 10
0.0
 20
0.0
 30
0.0
  3
*UDIM65
  0
TEXT
  5
   101
  8
0
  6
CONTINUOUS
 62
     7
 10
-301.400076326094
 20
122.211041929593
 30
0.0
 40
3.00000002980232
  1
31
 50
359.999999948034
 41
0.933333333333333
 72
     1
 11
-298.900076299906
 21
123.711041942239
 31
0.0
 73
     2
  0
LINE
  5
   102
  8
0
  6
CONTINUOUS
 62
     7
 10
-290.925079345703
 20
104.184201717377
 30
0.0
 11
-290.925079345703
 21
123.211041927338
 31
0.0
  0
LINE
  5
   103
  8
0
  6
CONTINUOUS
 62
     7
 10
-306.325073242188
 20
116.193240075951
 30
0.0
 11
-306.325073242188
 21
123.211041927338
 31
0.0
  0
LINE
  5
   104
  8
0
  6
CONTINUOUS
 62
     7
 10
-290.925079345703
 20
121.211041927338
 30
0.0
 11
-306.325073242188
 21
121.211041927338
 31
0.0
  0
LINE
  5
   105
  8
0
  6
CONTINUOUS
 62
     7
 10
-293.87950262291
 20
120.690097497386
 30
0.0
 11
-290.925079345703
 21
121.211041927338
 31
0.0
  0
LINE
  5
   106
  8
0
  6
CONTINUOUS
 62
     7
 10
-290.925079345703
 20
121.211041927338
 30
0.0
 11
-293.87950262291
 21
121.731986357289
 31
0.0
  0
LINE
  5
   107
  8
0
  6
CONTINUOUS
 62
     7
 10
-303.370649964981
 20
121.731986357289
 30
0.0
 11
-306.325073242188
 21
121.211041927338
 31
0.0
  0
LINE
  5
   108
  8
0
  6
CONTINUOUS
 62
     7
 10
-306.325073242188
 20
121.211041927338
 30
0.0
 11
-303.370649964981
 21
120.690097497386
 31
0.0
  0
ENDBLK
  5
   109
  8
0
  6
CONTINUOUS
 62
     7
  0
BLOCK
  5
   10A
  8
0
  6
CONTINUOUS
 62
     7
  2
*UDIM66
 70
    65
 10
0.0
 20
0.0
 30
0.0
  3
*UDIM66
  0
TEXT
  5
   10B
  8
0
  6
CONTINUOUS
 62
     7
 10
-296.040046465595
 20
-3.10487127204863
 30
0.0
 40
3.00000002980232
  1
3
 50
359.999999948034
 41
0.933333333333334
 72
     1
 11
-294.940046453314
 21
-1.60487125813961
 31
0.0
 73
     2
  0
TEXT
  5
   10C
  8
0
  6
CONTINUOUS
 62
     7
 10
-298.790046499371
 20
-3.10487127204863
 30
0.0
 40
3.00000002980232
  1
_
 50
359.999999948034
 41
0.933333333333334
 72
     1
 11
-297.69004648709
 21
-1.60487125813961
 31
0.0
 73
     2
  0
LINE
  5
   10D
  8
0
  6
CONTINUOUS
 62
     7
 10
-304.825080871582
 20
6.36129891685682
 30
0.0
 11
-304.825080871582
 21
-6.10487127304077
 31
0.0
  0
LINE
  5
   10E
  8
0
  6
CONTINUOUS
 62
     7
 10
-306.325075435315
 20
6.4094113278592
 30
0.0
 11
-306.325075435315
 21
-6.10487127304077
 31
0.0
  0
LINE
  5
   10F
  8
0
  6
CONTINUOUS
 62
     7
 10
-293.840046442387
 20
-4.10487127304077
 30
0.0
 11
-306.325075435315
 21
-4.10487127304077
 31
0.0
  0
LINE
  5
   110
  8
0
  6
CONTINUOUS
 62
     7
 10
-301.870657594375
 20
-3.58392684308911
 30
0.0
 11
-304.825080871582
 21
-4.10487127304077
 31
0.0
  0
LINE
  5
   111
  8
0
  6
CONTINUOUS
 62
     7
 10
-304.825080871582
 20
-4.10487127304077
 30
0.0
 11
-301.870657594375
 21
-4.62581570299244
 31
0.0
  0
LINE
  5
   112
  8
0
  6
CONTINUOUS
 62
     7
 10
-309.279498712522
 20
-4.62581570299244
 30
0.0
 11
-306.325075435315
 21
-4.10487127304077
 31
0.0
  0
LINE
  5
   113
  8
0
  6
CONTINUOUS
 62
     7
 10
-306.325075435315
 20
-4.10487127304077
 30
0.0
 11
-309.279498712522
 21
-3.58392684308911
 31
0.0
  0
ENDBLK
  5
   114
  8
0
  6
CONTINUOUS
 62
     7
  0
BLOCK
  5
   115
  8
0
  6
CONTINUOUS
 62
     7
  2
*UDIM67
 70
    65
 10
0.0
 20
0.0
 30
0.0
  3
*UDIM67
  0
TEXT
  5
   116
  8
0
  6
CONTINUOUS
 62
     7
 10
-252.507965091423
 20
57.7592016713147
 30
0.0
 40
3.00000002980232
  1
143
 50
89.9999999480344
 41
0.933333333333333
 72
     1
 11
-254.007965102792
 21
61.6592017114163
 31
0.0
 73
     2
  0
LINE
  5
   117
  8
0
  6
CONTINUOUS
 62
     7
 10
-253.210522115753
 20
26.1842017173767
 30
0.0
 11
-249.507965087891
 21
26.1842017173767
 31
0.0
  0
LINE
  5
   118
  8
0
  6
CONTINUOUS
 62
     7
 10
-252.612907636359
 20
97.6842017173767
 30
0.0
 11
-249.507965087891
 21
97.6842017173767
 31
0.0
  0
LINE
  5
   119
  8
0
  6
CONTINUOUS
 62
     7
 10
-251.507965087891
 20
26.1842017173767
 30
0.0
 11
-251.507965087891
 21
97.6842017173767
 31
0.0
  0
LINE
  5
   11A
  8
0
  6
CONTINUOUS
 62
     7
 10
-252.028909517842
 20
29.1386249945837
 30
0.0
 11
-251.507965087891
 21
26.1842017173767
 31
0.0
  0
LINE
  5
   11B
  8
0
  6
CONTINUOUS
 62
     7
 10
-251.507965087891
 20
26.1842017173767
 30
0.0
 11
-250.987020657939
 21
29.1386249945837
 31
0.0
  0
LINE
  5
   11C
  8
0
  6
CONTINUOUS
 62
     7
 10
-250.987020657939
 20
94.7297784401697
 30
0.0
 11
-251.507965087891
 21
97.6842017173767
 31
0.0
  0
LINE
  5
   11D
  8
0
  6
CONTINUOUS
 62
     7
 10
-251.507965087891
 20
97.6842017173767
 30
0.0
 11
-252.028909517842
 21
94.7297784401697
 31
0.0
  0
ENDBLK
  5
   11E
  8
0
  6
CONTINUOUS
 62
     7
  0
BLOCK
  5
   11F
  8
0
  6
CONTINUOUS
 62
     7
  2
*UDIM68
 70
    65
 10
0.0
 20
0.0
 30
0.0
  3
*UDIM68
  0
TEXT
  5
   120
  8
0
  6
CONTINUOUS
 62
     7
 10
-278.778083807338
 20
72.2717016434992
 30
0.0
 40
3.00000002980232
  1
73,75
 50
89.9999999480344
 41
0.933333333333333
 72
     1
 11
-280.278083816171
 21
78.9717017114162
 31
0.0
 73
     2
  0
LINE
  5
   121
  8
0
  6
CONTINUOUS
 62
     7
 10
-277.77808380127
 20
60.8092017173767
 30
0.0
 11
-277.77808380127
 21
97.6842017173767
 31
0.0
  0
LINE
  5
   122
  8
0
  6
CONTINUOUS
 62
     7
 10
-278.299028231221
 20
63.7636249945837
 30
0.0
 11
-277.77808380127
 21
60.8092017173767
 31
0.0
  0
LINE
  5
   123
  8
0
  6
CONTINUOUS
 62
     7
 10
-277.77808380127
 20
60.8092017173767
 30
0.0
 11
-277.257139371318
 21
63.7636249945837
 31
0.0
  0
LINE
  5
   124
  8
0
  6
CONTINUOUS
 62
     7
 10
-277.257139371318
 20
94.7297784401697
 30
0.0
 11
-277.77808380127
 21
97.6842017173767
 31
0.0
  0
LINE
  5
   125
  8
0
  6
CONTINUOUS
 62
     7
 10
-277.77808380127
 20
97.6842017173767
 30
0.0
 11
-278.299028231221
 21
94.7297784401697
 31
0.0
  0
ENDBLK
  5
   126
  8
0
  6
CONTINUOUS
 62
     7
  0
BLOCK
  5
   127
  8
0
  6
CONTINUOUS
 62
     7
  2
*UDIM69
 70
    65
 10
0.0
 20
0.0
 30
0.0
  3
*UDIM69
  0
TEXT
  5
   128
  8
0
  6
CONTINUOUS
 62
     7
 10
-424.651939395622
 20
56.6342016713147
 30
0.0
 40
3.00000002980232
  1
105
 50
89.9999999480344
 41
0.933333333333333
 72
     1
 11
-426.151939406991
 21
60.5342017114162
 31
0.0
 73
     2
  0
LINE
  5
   129
  8
0
  6
CONTINUOUS
 62
     7
 10
-402.325071334839
 20
34.5592017173767
 30
0.0
 11
-425.65193939209
 21
34.5592017173767
 31
0.0
  0
LINE
  5
   12A
  8
0
  6
CONTINUOUS
 62
     7
 10
-402.325071334839
 20
87.0592017173767
 30
0.0
 11
-425.65193939209
 21
87.0592017173767
 31
0.0
  0
LINE
  5
   12B
  8
0
  6
CONTINUOUS
 62
     7
 10
-423.65193939209
 20
34.5592017173767
 30
0.0
 11
-423.65193939209
 21
87.0592017173767
 31
0.0
  0
LINE
  5
   12C
  8
0
  6
CONTINUOUS
 62
     7
 10
-424.172883822042
 20
37.5136249945837
 30
0.0
 11
-423.65193939209
 21
34.5592017173767
 31
0.0
  0
LINE
  5
   12D
  8
0
  6
CONTINUOUS
 62
     7
 10
-423.65193939209
 20
34.5592017173767
 30
0.0
 11
-423.130994962138
 21
37.5136249945837
 31
0.0
  0
LINE
  5
   12E
  8
0
  6
CONTINUOUS
 62
     7
 10
-423.130994962138
 20
84.1047784401697
 30
0.0
 11
-423.65193939209
 21
87.0592017173767
 31
0.0
  0
LINE
  5
   12F
  8
0
  6
CONTINUOUS
 62
     7
 10
-423.65193939209
 20
87.0592017173767
 30
0.0
 11
-424.172883822042
 21
84.1047784401697
 31
0.0
  0
ENDBLK
  5
   130
  8
0
  6
CONTINUOUS
 62
     7
  0
BLOCK
  5
   131
  8
0
  6
CONTINUOUS
 62
     7
  2
*UDIM70
 70
    65
 10
0.0
 20
0.0
 30
0.0
  3
*UDIM70
  0
TEXT
  5
   132
  8
0
  6
CONTINUOUS
 62
     7
 10
-363.04362488273
 20
45.8591596069878
 30
0.0
 40
3.00000002980232
  1
1,75
 50
89.9999999480344
 41
0.933333333333333
 72
     1
 11
-364.543624892831
 21
51.1591596609971
 31
0.0
 73
     2
  0
LINE
  5
   133
  8
0
  6
CONTINUOUS
 62
     7
 10
-382.325101062307
 20
59.9341607106966
 30
0.0
 11
-360.04362487793
 21
59.9341607106966
 31
0.0
  0
LINE
  5
   134
  8
0
  6
CONTINUOUS
 62
     7
 10
-362.04362487793
 20
45.8591596083463
 30
0.0
 11
-362.04362487793
 21
60.8092017173767
 31
0.0
  0
LINE
  5
   135
  8
0
  6
CONTINUOUS
 62
     7
 10
-361.522680447978
 20
56.9797374334897
 30
0.0
 11
-362.04362487793
 21
59.9341607106966
 31
0.0
  0
LINE
  5
   136
  8
0
  6
CONTINUOUS
 62
     7
 10
-362.04362487793
 20
59.9341607106966
 30
0.0
 11
-362.564569307881
 21
56.9797374334897
 31
0.0
  0
LINE
  5
   137
  8
0
  6
CONTINUOUS
 62
     7
 10
-362.564569307881
 20
63.7636249945837
 30
0.0
 11
-362.04362487793
 21
60.8092017173767
 31
0.0
  0
LINE
  5
   138
  8
0
  6
CONTINUOUS
 62
     7
 10
-362.04362487793
 20
60.8092017173767
 30
0.0
 11
-361.522680447978
 21
63.7636249945837
 31
0.0
  0
ENDBLK
  5
   139
  8
0
  6
CONTINUOUS
 62
     7
  0
BLOCK
  5
   13A
  8
0
  6
CONTINUOUS
 62
     7
  2
*UDIM71
 70
    65
 10
0.0
 20
0.0
 30
0.0
  3
*UDIM71
  0
TEXT
  5
   13B
  8
0
  6
CONTINUOUS
 62
     7
 10
-362.17506949524
 20
-23.7951435982355
 30
0.0
 40
3.00000002980232
  1
195,5
 50
359.999999948034
 41
0.933333333333333
 72
     1
 11
-355.475069427328
 21
-22.2951435893774
 31
0.0
 73
     2
  0
LINE
  5
   13C
  8
0
  6
CONTINUOUS
 62
     7
 10
-306.325075435315
 20
6.4094113278592
 30
0.0
 11
-306.325075435315
 21
-26.7951436042786
 31
0.0
  0
LINE
  5
   13D
  8
0
  6
CONTINUOUS
 62
     7
 10
-404.075071334839
 20
19.5591349601746
 30
0.0
 11
-404.075071334839
 21
-26.7951436042786
 31
0.0
  0
LINE
  5
   13E
  8
0
  6
CONTINUOUS
 62
     7
 10
-306.325075435315
 20
-24.7951436042786
 30
0.0
 11
-404.075071334839
 21
-24.7951436042786
 31
0.0
  0
LINE
  5
   13F
  8
0
  6
CONTINUOUS
 62
     7
 10
-309.279498712522
 20
-25.3160880342302
 30
0.0
 11
-306.325075435315
 21
-24.7951436042786
 31
0.0
  0
LINE
  5
   140
  8
0
  6
CONTINUOUS
 62
     7
 10
-306.325075435315
 20
-24.7951436042786
 30
0.0
 11
-309.279498712522
 21
-24.2741991743269
 31
0.0
  0
LINE
  5
   141
  8
0
  6
CONTINUOUS
 62
     7
 10
-401.120648057632
 20
-24.2741991743269
 30
0.0
 11
-404.075071334839
 21
-24.7951436042786
 31
0.0
  0
LINE
  5
   142
  8
0
  6
CONTINUOUS
 62
     7
 10
-404.075071334839
 20
-24.7951436042786
 30
0.0
 11
-401.120648057632
 21
-25.3160880342302
 31
0.0
  0
ENDBLK
  5
   143
  8
0
  6
CONTINUOUS
 62
     7
  0
BLOCK
  5
   144
  8
0
  6
CONTINUOUS
 62
     7
  2
*UDIM72
 70
    65
 10
0.0
 20
0.0
 30
0.0
  3
*UDIM72
  0
TEXT
  5
   145
  8
0
  6
CONTINUOUS
 62
     7
 10
-358.000069467424
 20
-14.4473252261272
 30
0.0
 40
3.00000002980232
  1
190
 50
359.999999948034
 41
0.933333333333333
 72
     1
 11
-354.100069427328
 21
-12.9473252147436
 31
0.0
 73
     2
  0
LINE
  5
   146
  8
0
  6
CONTINUOUS
 62
     7
 10
-306.325075435315
 20
6.4094113278592
 30
0.0
 11
-306.325075435315
 21
-17.4473252296448
 31
0.0
  0
LINE
  5
   147
  8
0
  6
CONTINUOUS
 62
     7
 10
-401.325071334839
 20
-13.5712905641077
 30
0.0
 11
-401.325071334839
 21
-17.4473252296448
 31
0.0
  0
LINE
  5
   148
  8
0
  6
CONTINUOUS
 62
     7
 10
-306.325075435315
 20
-15.4473252296448
 30
0.0
 11
-401.325071334839
 21
-15.4473252296448
 31
0.0
  0
LINE
  5
   149
  8
0
  6
CONTINUOUS
 62
     7
 10
-309.279498712522
 20
-15.9682696595964
 30
0.0
 11
-306.325075435315
 21
-15.4473252296448
 31
0.0
  0
LINE
  5
   14A
  8
0
  6
CONTINUOUS
 62
     7
 10
-306.325075435315
 20
-15.4473252296448
 30
0.0
 11
-309.279498712522
 21
-14.9263807996931
 31
0.0
  0
LINE
  5
   14B
  8
0
  6
CONTINUOUS
 62
     7
 10
-398.370648057632
 20
-14.9263807996931
 30
0.0
 11
-401.325071334839
 21
-15.4473252296448
 31
0.0
  0
LINE
  5
   14C
  8
0
  6
CONTINUOUS
 62
     7
 10
-401.325071334839
 20
-15.4473252296448
 30
0.0
 11
-398.370648057632
 21
-15.9682696595964
 31
0.0
  0
ENDBLK
  5
   14D
  8
0
  6
CONTINUOUS
 62
     7
  0
BLOCK
  5
   14E
  8
0
  6
CONTINUOUS
 62
     7
  2
*UDIM73
 70
    65
 10
0.0
 20
0.0
 30
0.0
  3
*UDIM73
  0
TEXT
  5
   14F
  8
0
  6
CONTINUOUS
 62
     7
 10
-395.067871201398
 20
-14.4473252286526
 30
0.0
 40
3.00000002980232
  1
2
 50
359.999999948034
 41
0.933333333333334
 72
     1
 11
-393.967871189117
 21
-12.9473252147436
 31
0.0
 73
     2
  0
LINE
  5
   150
  8
0
  6
CONTINUOUS
 62
     7
 10
-402.325071334839
 20
-13.8643940123835
 30
0.0
 11
-402.325071334839
 21
-17.4473252296448
 31
0.0
  0
LINE
  5
   151
  8
0
  6
CONTINUOUS
 62
     7
 10
-392.86787117819
 20
-15.4473252296448
 30
0.0
 11
-402.325071334839
 21
-15.4473252296448
 31
0.0
  0
LINE
  5
   152
  8
0
  6
CONTINUOUS
 62
     7
 10
-398.370648057632
 20
-14.9263807996931
 30
0.0
 11
-401.325071334839
 21
-15.4473252296448
 31
0.0
  0
LINE
  5
   153
  8
0
  6
CONTINUOUS
 62
     7
 10
-401.325071334839
 20
-15.4473252296448
 30
0.0
 11
-398.370648057632
 21
-15.9682696595964
 31
0.0
  0
LINE
  5
   154
  8
0
  6
CONTINUOUS
 62
     7
 10
-405.279494612046
 20
-15.9682696595964
 30
0.0
 11
-402.325071334839
 21
-15.4473252296448
 31
0.0
  0
LINE
  5
   155
  8
0
  6
CONTINUOUS
 62
     7
 10
-402.325071334839
 20
-15.4473252296448
 30
0.0
 11
-405.279494612046
 21
-14.9263807996931
 31
0.0
  0
ENDBLK
  5
   156
  8
0
  6
CONTINUOUS
 62
     7
  0
BLOCK
  5
   157
  8
0
  6
CONTINUOUS
 62
     7
  2
*UDIM74
 70
    65
 10
0.0
 20
0.0
 30
0.0
  3
*UDIM74
  0
TEXT
  5
   158
  8
0
  6
CONTINUOUS
 62
     7
 10
-352.250092359097
 20
-2.99295472746996
 30
0.0
 40
3.00000002980232
  1
167
 50
359.999999948034
 41
0.933333333333333
 72
     1
 11
-348.350092319001
 21
-1.49295471608639
 31
0.0
 73
     2
  0
LINE
  5
   159
  8
0
  6
CONTINUOUS
 62
     7
 10
-306.325075435315
 20
6.4094113278592
 30
0.0
 11
-306.325075435315
 21
-5.99295473098755
 31
0.0
  0
LINE
  5
   15A
  8
0
  6
CONTINUOUS
 62
     7
 10
-389.825109906023
 20
52.4341518669816
 30
0.0
 11
-389.825109906023
 21
-5.99295473098755
 31
0.0
  0
LINE
  5
   15B
  8
0
  6
CONTINUOUS
 62
     7
 10
-306.325075435315
 20
-3.99295473098755
 30
0.0
 11
-389.825109906023
 21
-3.99295473098755
 31
0.0
  0
LINE
  5
   15C
  8
0
  6
CONTINUOUS
 62
     7
 10
-309.279498712522
 20
-4.51389916093921
 30
0.0
 11
-306.325075435315
 21
-3.99295473098755
 31
0.0
  0
LINE
  5
   15D
  8
0
  6
CONTINUOUS
 62
     7
 10
-306.325075435315
 20
-3.99295473098755
 30
0.0
 11
-309.279498712522
 21
-3.47201030103589
 31
0.0
  0
LINE
  5
   15E
  8
0
  6
CONTINUOUS
 62
     7
 10
-386.870686628816
 20
-3.47201030103589
 30
0.0
 11
-389.825109906023
 21
-3.99295473098755
 31
0.0
  0
LINE
  5
   15F
  8
0
  6
CONTINUOUS
 62
     7
 10
-389.825109906023
 20
-3.99295473098755
 30
0.0
 11
-386.870686628816
 21
-4.51389916093921
 31
0.0
  0
ENDBLK
  5
   160
  8
0
  6
CONTINUOUS
 62
     7
  0
BLOCK
  5
   161
  8
0
  6
CONTINUOUS
 62
     7
  2
*UDIM75
 70
    65
 10
0.0
 20
0.0
 30
0.0
  3
*UDIM75
  0
TEXT
  5
   162
  8
0
  6
CONTINUOUS
 62
     7
 10
-409.896753323269
 20
-95.7243664480542
 30
0.0
 40
3.00000002980232
  1
73,75
 50
449.999999896069
 41
0.933333333333333
 72
     1
 11
-411.396753326058
 21
-89.0243663787842
 31
0.0
 73
     2
  0
LINE
  5
   163
  8
0
  6
CONTINUOUS
 62
     7
 10
-393.936178077938
 20
-60.2264709472656
 30
0.0
 11
-410.896753311157
 21
-60.2264709472656
 31
0.0
  0
LINE
  5
   164
  8
0
  6
CONTINUOUS
 62
     7
 10
-408.295774347185
 20
-78.6639709472656
 30
0.0
 11
-410.896753311157
 21
-78.6639709472656
 31
0.0
  0
LINE
  5
   165
  8
0
  6
CONTINUOUS
 62
     7
 10
-408.896753311157
 20
-60.2264709472656
 30
0.0
 11
-408.896753311157
 21
-95.7243664453427
 31
0.0
  0
LINE
  5
   166
  8
0
  6
CONTINUOUS
 62
     7
 10
-408.375808881206
 20
-63.1808942244726
 30
0.0
 11
-408.896753311157
 21
-60.2264709472656
 31
0.0
  0
LINE
  5
   167
  8
0
  6
CONTINUOUS
 62
     7
 10
-408.896753311157
 20
-60.2264709472656
 30
0.0
 11
-409.417697741109
 21
-63.1808942244726
 31
0.0
  0
LINE
  5
   168
  8
0
  6
CONTINUOUS
 62
     7
 10
-409.417697741109
 20
-75.7095476700587
 30
0.0
 11
-408.896753311157
 21
-78.6639709472656
 31
0.0
  0
LINE
  5
   169
  8
0
  6
CONTINUOUS
 62
     7
 10
-408.896753311157
 20
-78.6639709472656
 30
0.0
 11
-408.375808881206
 21
-75.7095476700587
 31
0.0
  0
ENDBLK
  5
   16A
  8
0
  6
CONTINUOUS
 62
     7
  0
BLOCK
  5
   16B
  8
0
  6
CONTINUOUS
 62
     7
  2
*UDIM76
 70
    65
 10
0.0
 20
0.0
 30
0.0
  3
*UDIM76
  0
TEXT
  5
   16C
  8
0
  6
CONTINUOUS
 62
     7
 10
-401.701263439846
 20
-77.3512199140881
 30
0.0
 40
3.00000002980232
  1
52,25
 50
449.999999896069
 41
0.933333333333333
 72
     1
 11
-403.201263442636
 21
-70.6512198448181
 31
0.0
 73
     2
  0
LINE
  5
   16D
  8
0
  6
CONTINUOUS
 62
     7
 10
-394.35452115874
 20
-65.6014709472656
 30
0.0
 11
-402.701263427734
 21
-65.6014709472656
 31
0.0
  0
LINE
  5
   16E
  8
0
  6
CONTINUOUS
 62
     7
 10
-400.701263427734
 20
-63.9512197782596
 30
0.0
 11
-400.701263427734
 21
-78.6639709472656
 31
0.0
  0
LINE
  5
   16F
  8
0
  6
CONTINUOUS
 62
     7
 10
-400.180318997783
 20
-68.5558942244726
 30
0.0
 11
-400.701263427734
 21
-65.6014709472656
 31
0.0
  0
LINE
  5
   170
  8
0
  6
CONTINUOUS
 62
     7
 10
-400.701263427734
 20
-65.6014709472656
 30
0.0
 11
-401.222207857686
 21
-68.5558942244726
 31
0.0
  0
LINE
  5
   171
  8
0
  6
CONTINUOUS
 62
     7
 10
-401.222207857686
 20
-75.7095476700587
 30
0.0
 11
-400.701263427734
 21
-78.6639709472656
 31
0.0
  0
LINE
  5
   172
  8
0
  6
CONTINUOUS
 62
     7
 10
-400.701263427734
 20
-78.6639709472656
 30
0.0
 11
-400.180318997783
 21
-75.7095476700587
 31
0.0
  0
ENDBLK
  5
   173
  8
0
  6
CONTINUOUS
 62
     7
  0
BLOCK
  5
   174
  8
0
  6
CONTINUOUS
 62
     7
  2
*UDIM77
 70
    65
 10
0.0
 20
0.0
 30
0.0
  3
*UDIM77
  0
TEXT
  5
   175
  8
0
  6
CONTINUOUS
 62
     7
 10
-350.423909652958
 20
-53.562339727832
 30
0.0
 40
3.00000002980232
  1
14
 50
376.402641120292
 41
0.933333333333333
 72
     1
 11
-348.449235752726
 21
-51.4174240752666
 31
0.0
 73
     2
  0
TEXT
  5
   176
  8
0
  6
CONTINUOUS
 62
     7
 10
-353.061987319496
 20
-54.3389003572003
 30
0.0
 40
3.00000002980232
  1
R
 50
376.402641120292
 41
0.933333333333334
 72
     1
 11
-352.430334774699
 21
-52.5893246568103
 31
0.0
 73
     2
  0
LINE
  5
   177
  8
0
  6
CONTINUOUS
 62
     7
 10
-345.345019131737
 20
-53.1097122802297
 30
0.0
 11
-380.553536946202
 21
-63.4739062563987
 31
0.0
  0
LINE
  5
   178
  8
0
  6
CONTINUOUS
 62
     7
 10
-368.851096408225
 20
-60.572150384707
 30
0.0
 11
-366.164022574288
 21
-59.2381210705729
 31
0.0
  0
LINE
  5
   179
  8
0
  6
CONTINUOUS
 62
     7
 10
-366.164022574288
 20
-59.2381210705729
 30
0.0
 11
-369.145310901429
 21
-59.5726654031392
 31
0.0
  0
ENDBLK
  5
   17A
  8
0
  6
CONTINUOUS
 62
     7
  0
BLOCK
  5
   17B
  8
0
  6
CONTINUOUS
 62
     7
  2
*UDIM78
 70
    65
 10
0.0
 20
0.0
 30
0.0
  3
*UDIM78
  0
TEXT
  5
   17C
  8
0
  6
CONTINUOUS
 62
     7
 10
-343.576873786347
 20
-82.2764705033432
 30
0.0
 40
3.00000002980232
  1
143
 50
449.999999896069
 41
0.933333333333333
 72
     1
 11
-345.076873794198
 21
-78.3764704618886
 31
0.0
 73
     2
  0
LINE
  5
   17D
  8
0
  6
CONTINUOUS
 62
     7
 10
-363.171631908637
 20
-60.2264712611821
 30
0.0
 11
-340.576873779297
 21
-60.2264783540489
 31
0.0
  0
LINE
  5
   17E
  8
0
  6
CONTINUOUS
 62
     7
 10
-363.171631908637
 20
-95.9764716698204
 30
0.0
 11
-340.576873779297
 21
-95.9764879957707
 31
0.0
  0
LINE
  5
   17F
  8
0
  6
CONTINUOUS
 62
     7
 10
-342.576873779297
 20
-60.2264777262159
 30
0.0
 11
-342.576873779297
 21
-95.9764865506612
 31
0.0
  0
LINE
  5
   180
  8
0
  6
CONTINUOUS
 62
     7
 10
-342.055929349345
 20
-63.1809010034229
 30
0.0
 11
-342.576873779297
 21
-60.2264777262159
 31
0.0
  0
LINE
  5
   181
  8
0
  6
CONTINUOUS
 62
     7
 10
-342.576873779297
 20
-60.2264777262159
 30
0.0
 11
-343.097818209249
 21
-63.1809010034229
 31
0.0
  0
LINE
  5
   182
  8
0
  6
CONTINUOUS
 62
     7
 10
-343.097818209249
 20
-93.0220632734542
 30
0.0
 11
-342.576873779297
 21
-95.9764865506612
 31
0.0
  0
LINE
  5
   183
  8
0
  6
CONTINUOUS
 62
     7
 10
-342.576873779297
 20
-95.9764865506612
 30
0.0
 11
-342.055929349345
 21
-93.0220632734542
 31
0.0
  0
ENDBLK
  5
   184
  8
0
  6
CONTINUOUS
 62
     7
  0
BLOCK
  5
   185
  8
0
  6
CONTINUOUS
 62
     7
  2
*UDIM79
 70
    65
 10
0.0
 20
0.0
 30
0.0
  3
*UDIM79
  0
TEXT
  5
   186
  8
0
  6
CONTINUOUS
 62
     7
 10
-366.546575573813
 20
-48.2807197525578
 30
0.0
 40
3.00000002980232
  1
35
 50
359.999999896069
 41
0.933333333333333
 72
     1
 11
-364.046575546265
 21
-46.7807197421789
 31
0.0
 73
     2
  0
LINE
  5
   187
  8
0
  6
CONTINUOUS
 62
     7
 10
-369.521575927734
 20
-53.5406618285396
 30
0.0
 11
-369.521575927734
 21
-47.2807197570801
 31
0.0
  0
LINE
  5
   188
  8
0
  6
CONTINUOUS
 62
     7
 10
-361.546575521429
 20
-49.2807197570801
 30
0.0
 11
-378.271575927734
 21
-49.2807197570801
 31
0.0
  0
LINE
  5
   189
  8
0
  6
CONTINUOUS
 62
     7
 10
-372.475999204941
 20
-49.8016641870317
 30
0.0
 11
-369.521575927734
 21
-49.2807197570801
 31
0.0
  0
LINE
  5
   18A
  8
0
  6
CONTINUOUS
 62
     7
 10
-369.521575927734
 20
-49.2807197570801
 30
0.0
 11
-372.475999204941
 21
-48.7597753271284
 31
0.0
  0
LINE
  5
   18B
  8
0
  6
CONTINUOUS
 62
     7
 10
-375.317152650527
 20
-48.7597753271284
 30
0.0
 11
-378.271575927734
 21
-49.2807197570801
 31
0.0
  0
LINE
  5
   18C
  8
0
  6
CONTINUOUS
 62
     7
 10
-378.271575927734
 20
-49.2807197570801
 30
0.0
 11
-375.317152650527
 21
-49.8016641870317
 31
0.0
  0
ENDBLK
  5
   18D
  8
0
  6
CONTINUOUS
 62
     7
  0
BLOCK
  5
   18E
  8
0
  6
CONTINUOUS
 62
     7
  2
*UDIM80
 70
    65
 10
0.0
 20
0.0
 30
0.0
  3
*UDIM80
  0
TEXT
  5
   18F
  8
0
  6
CONTINUOUS
 62
     7
 10
-395.546575573813
 20
-48.2807197525578
 30
0.0
 40
3.00000002980232
  1
35
 50
359.999999896069
 41
0.933333333333333
 72
     1
 11
-393.046575546265
 21
-46.7807197421789
 31
0.0
 73
     2
  0
LINE
  5
   190
  8
0
  6
CONTINUOUS
 62
     7
 10
-387.021575927734
 20
-53.5406618285396
 30
0.0
 11
-387.021575927734
 21
-47.2807197570801
 31
0.0
  0
LINE
  5
   191
  8
0
  6
CONTINUOUS
 62
     7
 10
-378.271575927734
 20
-49.2807197570801
 30
0.0
 11
-395.5465755711
 21
-49.2807197570801
 31
0.0
  0
LINE
  5
   192
  8
0
  6
CONTINUOUS
 62
     7
 10
-381.225999204941
 20
-49.8016641870317
 30
0.0
 11
-378.271575927734
 21
-49.2807197570801
 31
0.0
  0
LINE
  5
   193
  8
0
  6
CONTINUOUS
 62
     7
 10
-378.271575927734
 20
-49.2807197570801
 30
0.0
 11
-381.225999204941
 21
-48.7597753271284
 31
0.0
  0
LINE
  5
   194
  8
0
  6
CONTINUOUS
 62
     7
 10
-384.067152650527
 20
-48.7597753271284
 30
0.0
 11
-387.021575927734
 21
-49.2807197570801
 31
0.0
  0
LINE
  5
   195
  8
0
  6
CONTINUOUS
 62
     7
 10
-387.021575927734
 20
-49.2807197570801
 30
0.0
 11
-384.067152650527
 21
-49.8016641870317
 31
0.0
  0
ENDBLK
  5
   196
  8
0
  6
CONTINUOUS
 62
     7
  0
BLOCK
  5
   197
  8
0
  6
CONTINUOUS
 62
     7
  2
*UDIM81
 70
    65
 10
0.0
 20
0.0
 30
0.0
  3
*UDIM81
  0
TEXT
  5
   198
  8
0
  6
CONTINUOUS
 62
     7
 10
-375.296575573813
 20
-120.958023066767
 30
0.0
 40
3.00000002980232
  1
45
 50
359.999999896069
 41
0.933333333333333
 72
     1
 11
-372.796575546265
 21
-119.458023056388
 31
0.0
 73
     2
  0
LINE
  5
   199
  8
0
  6
CONTINUOUS
 62
     7
 10
-378.271575927734
 20
-110.679384599034
 30
0.0
 11
-378.271575927734
 21
-123.958023071289
 31
0.0
  0
LINE
  5
   19A
  8
0
  6
CONTINUOUS
 62
     7
 10
-389.521575927734
 20
-97.3303509248289
 30
0.0
 11
-389.521575927734
 21
-123.958023071289
 31
0.0
  0
LINE
  5
   19B
  8
0
  6
CONTINUOUS
 62
     7
 10
-370.296575521429
 20
-121.958023071289
 30
0.0
 11
-389.521575927734
 21
-121.958023071289
 31
0.0
  0
LINE
  5
   19C
  8
0
  6
CONTINUOUS
 62
     7
 10
-381.225999204941
 20
-122.478967501241
 30
0.0
 11
-378.271575927734
 21
-121.958023071289
 31
0.0
  0
LINE
  5
   19D
  8
0
  6
CONTINUOUS
 62
     7
 10
-378.271575927734
 20
-121.958023071289
 30
0.0
 11
-381.225999204941
 21
-121.437078641337
 31
0.0
  0
LINE
  5
   19E
  8
0
  6
CONTINUOUS
 62
     7
 10
-386.567152650527
 20
-121.437078641337
 30
0.0
 11
-389.521575927734
 21
-121.958023071289
 31
0.0
  0
LINE
  5
   19F
  8
0
  6
CONTINUOUS
 62
     7
 10
-389.521575927734
 20
-121.958023071289
 30
0.0
 11
-386.567152650527
 21
-122.478967501241
 31
0.0
  0
ENDBLK
  5
   1A0
  8
0
  6
CONTINUOUS
 62
     7
  0
BLOCK
  5
   1A1
  8
0
  6
CONTINUOUS
 62
     7
  2
*UDIM82
 70
    65
 10
0.0
 20
0.0
 30
0.0
  3
*UDIM82
  0
TEXT
  5
   1A2
  8
0
  6
CONTINUOUS
 62
     7
 10
-369.046575573813
 20
-111.787334437616
 30
0.0
 40
3.00000002980232
  1
25
 50
359.999999896069
 41
0.933333333333333
 72
     1
 11
-366.546575546265
 21
-110.287334427238
 31
0.0
 73
     2
  0
LINE
  5
   1A3
  8
0
  6
CONTINUOUS
 62
     7
 10
-372.021575927734
 20
-97.4559767819166
 30
0.0
 11
-372.021575927734
 21
-114.787334442139
 31
0.0
  0
LINE
  5
   1A4
  8
0
  6
CONTINUOUS
 62
     7
 10
-378.271575927734
 20
-110.679384599034
 30
0.0
 11
-378.271575927734
 21
-114.787334442139
 31
0.0
  0
LINE
  5
   1A5
  8
0
  6
CONTINUOUS
 62
     7
 10
-364.046575521429
 20
-112.787334442139
 30
0.0
 11
-378.271575927734
 21
-112.787334442139
 31
0.0
  0
LINE
  5
   1A6
  8
0
  6
CONTINUOUS
 62
     7
 10
-369.067152650527
 20
-112.266390012187
 30
0.0
 11
-372.021575927734
 21
-112.787334442139
 31
0.0
  0
LINE
  5
   1A7
  8
0
  6
CONTINUOUS
 62
     7
 10
-372.021575927734
 20
-112.787334442139
 30
0.0
 11
-369.067152650527
 21
-113.30827887209
 31
0.0
  0
LINE
  5
   1A8
  8
0
  6
CONTINUOUS
 62
     7
 10
-381.225999204941
 20
-113.30827887209
 30
0.0
 11
-378.271575927734
 21
-112.787334442139
 31
0.0
  0
LINE
  5
   1A9
  8
0
  6
CONTINUOUS
 62
     7
 10
-378.271575927734
 20
-112.787334442139
 30
0.0
 11
-381.225999204941
 21
-112.266390012187
 31
0.0
  0
ENDBLK
  5
   1AA
  8
0
  6
CONTINUOUS
 62
     7
  0
BLOCK
  5
   1AB
  8
0
  6
CONTINUOUS
 62
     7
  2
*UDIM83
 70
    65
 10
0.0
 20
0.0
 30
0.0
  3
*UDIM83
  0
TEXT
  5
   1AC
  8
0
  6
CONTINUOUS
 62
     7
 10
-352.454540259735
 20
-82.2764685903874
 30
0.0
 40
3.00000002980232
  1
100
 50
449.999999896069
 41
0.933333333333333
 72
     1
 11
-353.954540267587
 21
-78.3764685489329
 31
0.0
 73
     2
  0
LINE
  5
   1AD
  8
0
  6
CONTINUOUS
 62
     7
 10
-367.480601455382
 20
-65.6014712611821
 30
0.0
 11
-349.454540252686
 21
-65.6014769198598
 31
0.0
  0
LINE
  5
   1AE
  8
0
  6
CONTINUOUS
 62
     7
 10
-367.857479026645
 20
-90.6014712611821
 30
0.0
 11
-349.454540252686
 21
-90.6014770381679
 31
0.0
  0
LINE
  5
   1AF
  8
0
  6
CONTINUOUS
 62
     7
 10
-351.454540252686
 20
-65.6014762920268
 30
0.0
 11
-351.454540252686
 21
-90.6014764103349
 31
0.0
  0
LINE
  5
   1B0
  8
0
  6
CONTINUOUS
 62
     7
 10
-350.933595822734
 20
-68.5558995692338
 30
0.0
 11
-351.454540252686
 21
-65.6014762920268
 31
0.0
  0
LINE
  5
   1B1
  8
0
  6
CONTINUOUS
 62
     7
 10
-351.454540252686
 20
-65.6014762920268
 30
0.0
 11
-351.975484682637
 21
-68.5558995692338
 31
0.0
  0
LINE
  5
   1B2
  8
0
  6
CONTINUOUS
 62
     7
 10
-351.975484682637
 20
-87.6470531331279
 30
0.0
 11
-351.454540252686
 21
-90.6014764103349
 31
0.0
  0
LINE
  5
   1B3
  8
0
  6
CONTINUOUS
 62
     7
 10
-351.454540252686
 20
-90.6014764103349
 30
0.0
 11
-350.933595822734
 21
-87.6470531331279
 31
0.0
  0
ENDBLK
  5
   1B4
  8
0
  6
CONTINUOUS
 62
     7
  0
BLOCK
  5
   1B5
  8
0
  6
CONTINUOUS
 62
     7
  2
*UDIM84
 70
    65
 10
0.0
 20
0.0
 30
0.0
  3
*UDIM84
  0
TEXT
  5
   1B6
  8
0
  6
CONTINUOUS
 62
     7
 10
-423.766113844164
 20
-110.959054653864
 30
0.0
 40
3.00000002980232
  1
5
 50
392.168847725592
 41
0.933333333333334
 72
     1
 11
-423.633606965454
 21
-109.103672753597
 31
0.0
 73
     2
  0
TEXT
  5
   1B7
  8
0
  6
CONTINUOUS
 62
     7
 10
-426.432534578397
 20
-112.636165422609
 30
0.0
 40
3.00000002980232
  1
Ø
 50
392.168847725592
 41
0.933333333333334
 72
     1
 11
-426.300027699686
 21
-110.780783522342
 31
0.0
 73
     2
  0
TEXT
  5
   1B8
  8
0
  6
CONTINUOUS
 62
     7
 10
-421.438286203183
 20
-109.494910310005
 30
0.0
 40
3.00000002980232
  1
 (M4)
 50
392.168847725592
 41
0.933333333333333
 72
     1
 11
-416.565475759416
 21
-104.657998142548
 31
0.0
 73
     2
  0
LINE
  5
   1B9
  8
0
  6
CONTINUOUS
 62
     7
 10
-388.99252419642
 20
-90.2687108751513
 30
0.0
 11
-425.900118459658
 21
-113.482648192951
 31
0.0
  0
LINE
  5
   1BA
  8
0
  6
CONTINUOUS
 62
     7
 10
-386.7690150064
 20
-88.2547578265691
 30
0.0
 11
-388.99252419642
 21
-90.2687108751513
 31
0.0
  0
LINE
  5
   1BB
  8
0
  6
CONTINUOUS
 62
     7
 10
-388.99252419642
 20
-90.2687108751513
 30
0.0
 11
-386.214296586949
 21
-89.1366987948391
 31
0.0
  0
LINE
  5
   1BC
  8
0
  6
CONTINUOUS
 62
     7
 10
-392.274136849069
 20
-92.9481840679622
 30
0.0
 11
-390.050627659049
 21
-90.9342310193799
 31
0.0
  0
LINE
  5
   1BD
  8
0
  6
CONTINUOUS
 62
     7
 10
-390.050627659049
 20
-90.9342310193799
 30
0.0
 11
-392.82885526852
 21
-92.0662430996921
 31
0.0
  0
ENDBLK
  5
   1BE
  8
0
  6
CONTINUOUS
 62
     7
  0
BLOCK
  5
   1BF
  8
0
  6
CONTINUOUS
 62
     7
  2
*UDIM85
 70
    65
 10
0.0
 20
0.0
 30
0.0
  3
*UDIM85
  0
TEXT
  5
   1C0
  8
0
  6
CONTINUOUS
 62
     7
 10
-226.219499615561
 20
-31.8695917084294
 30
0.0
 40
3.00000002980232
  1
12
 50
359.999999896069
 41
0.933333333333333
 72
     1
 11
-223.719499588013
 21
-30.3695916980505
 31
0.0
 73
     2
  0
TEXT
  5
   1C1
  8
0
  6
CONTINUOUS
 62
     7
 10
-228.969499649337
 20
-31.8695917109619
 30
0.0
 40
3.00000002980232
  1
M
 50
359.999999896069
 41
0.933333333333334
 72
     1
 11
-227.869499635696
 21
-30.3695916980505
 31
0.0
 73
     2
  0
LINE
  5
   1C2
  8
0
  6
CONTINUOUS
 62
     7
 10
-211.762077331543
 20
-38.8300514221191
 30
0.0
 11
-211.762077331543
 21
-30.8695917129517
 31
0.0
  0
LINE
  5
   1C3
  8
0
  6
CONTINUOUS
 62
     7
 10
-217.762077331543
 20
-38.8300514221191
 30
0.0
 11
-217.762077331543
 21
-30.8695917129517
 31
0.0
  0
LINE
  5
   1C4
  8
0
  6
CONTINUOUS
 62
     7
 10
-211.762077331543
 20
-32.8695917129517
 30
0.0
 11
-228.969499646624
 21
-32.8695917129517
 31
0.0
  0
LINE
  5
   1C5
  8
0
  6
CONTINUOUS
 62
     7
 10
-208.807654054336
 20
-32.348647283
 30
0.0
 11
-211.762077331543
 21
-32.8695917129517
 31
0.0
  0
LINE
  5
   1C6
  8
0
  6
CONTINUOUS
 62
     7
 10
-211.762077331543
 20
-32.8695917129517
 30
0.0
 11
-208.807654054336
 21
-33.3905361429033
 31
0.0
  0
LINE
  5
   1C7
  8
0
  6
CONTINUOUS
 62
     7
 10
-220.71650060875
 20
-33.3905361429033
 30
0.0
 11
-217.762077331543
 21
-32.8695917129517
 31
0.0
  0
LINE
  5
   1C8
  8
0
  6
CONTINUOUS
 62
     7
 10
-217.762077331543
 20
-32.8695917129517
 30
0.0
 11
-220.71650060875
 21
-32.348647283
 31
0.0
  0
ENDBLK
  5
   1C9
  8
0
  6
CONTINUOUS
 62
     7
  0
BLOCK
  5
   1CA
  8
0
  6
CONTINUOUS
 62
     7
  2
*UDIM86
 70
    65
 10
0.0
 20
0.0
 30
0.0
  3
*UDIM86
  0
TEXT
  5
   1CB
  8
0
  6
CONTINUOUS
 62
     7
 10
-236.717071546215
 20
-42.0050438401396
 30
0.0
 40
3.00000002980232
  1
100
 50
449.999999896069
 41
0.933333333333333
 72
     1
 11
-238.217071554067
 21
-38.1050437986851
 31
0.0
 73
     2
  0
LINE
  5
   1CC
  8
0
  6
CONTINUOUS
 62
     7
 10
-200.262084960938
 20
-12.8300514221191
 30
0.0
 11
-237.717071539166
 21
-12.8300514221191
 31
0.0
  0
LINE
  5
   1CD
  8
0
  6
CONTINUOUS
 62
     7
 10
-224.012117385864
 20
-62.8300361633301
 30
0.0
 11
-237.717071539166
 21
-62.8300361633301
 31
0.0
  0
LINE
  5
   1CE
  8
0
  6
CONTINUOUS
 62
     7
 10
-235.717071539166
 20
-12.8300514221191
 30
0.0
 11
-235.717071539166
 21
-62.8300361633301
 31
0.0
  0
LINE
  5
   1CF
  8
0
  6
CONTINUOUS
 62
     7
 10
-235.196127109214
 20
-15.7844746993261
 30
0.0
 11
-235.717071539166
 21
-12.8300514221191
 31
0.0
  0
LINE
  5
   1D0
  8
0
  6
CONTINUOUS
 62
     7
 10
-235.717071539166
 20
-12.8300514221191
 30
0.0
 11
-236.238015969117
 21
-15.7844746993261
 31
0.0
  0
LINE
  5
   1D1
  8
0
  6
CONTINUOUS
 62
     7
 10
-236.238015969117
 20
-59.8756128861231
 30
0.0
 11
-235.717071539166
 21
-62.8300361633301
 31
0.0
  0
LINE
  5
   1D2
  8
0
  6
CONTINUOUS
 62
     7
 10
-235.717071539166
 20
-62.8300361633301
 30
0.0
 11
-235.196127109214
 21
-59.8756128861231
 31
0.0
  0
ENDBLK
  5
   1D3
  8
0
  6
CONTINUOUS
 62
     7
  0
BLOCK
  5
   1D4
  8
0
  6
CONTINUOUS
 62
     7
  2
*UDIM87
 70
    65
 10
0.0
 20
0.0
 30
0.0
  3
*UDIM87
  0
TEXT
  5
   1D5
  8
0
  6
CONTINUOUS
 62
     7
 10
-228.8190307722
 20
-53.6050438262318
 30
0.0
 40
3.00000002980232
  1
48
 50
449.999999896069
 41
0.933333333333333
 72
     1
 11
-230.319030782582
 21
-51.1050437986851
 31
0.0
 73
     2
  0
LINE
  5
   1D6
  8
0
  6
CONTINUOUS
 62
     7
 10
-217.762077331543
 20
-38.8300514221191
 30
0.0
 11
-229.819030767681
 21
-38.8300514221191
 31
0.0
  0
LINE
  5
   1D7
  8
0
  6
CONTINUOUS
 62
     7
 10
-224.012117385864
 20
-62.8300361633301
 30
0.0
 11
-229.819030767681
 21
-62.8300361633301
 31
0.0
  0
LINE
  5
   1D8
  8
0
  6
CONTINUOUS
 62
     7
 10
-227.819030767681
 20
-38.8300514221191
 30
0.0
 11
-227.819030767681
 21
-62.8300361633301
 31
0.0
  0
LINE
  5
   1D9
  8
0
  6
CONTINUOUS
 62
     7
 10
-227.29808633773
 20
-41.7844746993261
 30
0.0
 11
-227.819030767681
 21
-38.8300514221191
 31
0.0
  0
LINE
  5
   1DA
  8
0
  6
CONTINUOUS
 62
     7
 10
-227.819030767681
 20
-38.8300514221191
 30
0.0
 11
-228.339975197633
 21
-41.7844746993261
 31
0.0
  0
LINE
  5
   1DB
  8
0
  6
CONTINUOUS
 62
     7
 10
-228.339975197633
 20
-59.8756128861231
 30
0.0
 11
-227.819030767681
 21
-62.8300361633301
 31
0.0
  0
LINE
  5
   1DC
  8
0
  6
CONTINUOUS
 62
     7
 10
-227.819030767681
 20
-62.8300361633301
 30
0.0
 11
-227.29808633773
 21
-59.8756128861231
 31
0.0
  0
ENDBLK
  5
   1DD
  8
0
  6
CONTINUOUS
 62
     7
  0
BLOCK
  5
   1DE
  8
0
  6
CONTINUOUS
 62
     7
  2
*UDIM88
 70
    65
 10
0.0
 20
0.0
 30
0.0
  3
*UDIM88
  0
TEXT
  5
   1DF
  8
0
  6
CONTINUOUS
 62
     7
 10
-58.2768611880786
 20
130.477847018003
 30
0.0
 40
3.00000002980232
  1
8
 50
406.249477420785
 41
0.933333333333334
 72
     1
 11
-58.5997260650248
 21
132.309719922977
 31
0.0
 73
     2
  0
TEXT
  5
   1E0
  8
0
  6
CONTINUOUS
 62
     7
 10
-60.4551480681088
 20
128.202420391879
 30
0.0
 40
3.00000002980232
  1
Ø
 50
406.249477420785
 41
0.933333333333334
 72
     1
 11
-60.7780129450549
 21
130.034293296853
 31
0.0
 73
     2
  0
TEXT
  5
   1E1
  8
0
  6
CONTINUOUS
 62
     7
 10
-72.0381022094457
 20
116.102929528613
 30
0.0
 40
3.00000002980232
  1
3 fori
 50
406.249477420785
 41
0.933333333333333
 72
     1
 11
-67.5203295286626
 21
122.991306068337
 31
0.0
 73
     2
  0
LINE
  5
   1E2
  8
0
  6
CONTINUOUS
 62
     7
 10
-56.0331602981816
 20
131.375514237373
 30
0.0
 11
-80.5001210216677
 21
105.81746015325
 31
0.0
  0
LINE
  5
   1E3
  8
0
  6
CONTINUOUS
 62
     7
 10
-77.4503482070911
 20
109.756569048457
 30
0.0
 11
-79.1170817371213
 21
107.262175466867
 31
0.0
  0
LINE
  5
   1E4
  8
0
  6
CONTINUOUS
 62
     7
 10
-79.1170817371213
 20
107.262175466867
 30
0.0
 11
-76.6977318115961
 21
109.036082436768
 31
0.0
  0
LINE
  5
   1E5
  8
0
  6
CONTINUOUS
 62
     7
 10
-82.1668545516979
 20
103.323066571661
 30
0.0
 11
-80.5001210216677
 21
105.81746015325
 31
0.0
  0
LINE
  5
   1E6
  8
0
  6
CONTINUOUS
 62
     7
 10
-80.5001210216677
 20
105.81746015325
 30
0.0
 11
-82.919470947193
 21
104.043553183349
 31
0.0
  0
ENDBLK
  5
   1E7
  8
0
  6
CONTINUOUS
 62
     7
  0
BLOCK
  5
   1E8
  8
0
  6
CONTINUOUS
 62
     7
  2
*UDIM89
 70
    65
 10
0.0
 20
0.0
 30
0.0
  3
*UDIM89
  0
TEXT
  5
   1E9
  8
0
  6
CONTINUOUS
 62
     7
 10
-126.895872168518
 20
116.049310275088
 30
0.0
 40
3.00000002980232
  1
7
 50
332.120402712999
 41
0.933333333333334
 72
     1
 11
-125.222124109715
 21
116.860831996546
 31
0.0
 73
     2
  0
TEXT
  5
   1EA
  8
0
  6
CONTINUOUS
 62
     7
 10
-130.431601004621
 20
117.919770602378
 30
0.0
 40
3.00000002980232
  1
Ø
 50
332.120402712999
 41
1.2
 72
     1
 11
-128.404280061787
 21
118.544246289778
 31
0.0
 73
     2
  0
LINE
  5
   1EB
  8
0
  6
CONTINUOUS
 62
     7
 10
-130.899216081023
 20
117.035838394305
 30
0.0
 11
-105.865499689313
 21
103.792579226231
 31
0.0
  0
LINE
  5
   1EC
  8
0
  6
CONTINUOUS
 62
     7
 10
-114.756563954924
 20
107.61768995837
 30
0.0
 11
-111.832042056641
 21
106.948981003395
 31
0.0
  0
LINE
  5
   1ED
  8
0
  6
CONTINUOUS
 62
     7
 10
-111.832042056641
 20
106.948981003395
 30
0.0
 11
-114.030397807246
 21
108.990360927314
 31
0.0
  0
LINE
  5
   1EE
  8
0
  6
CONTINUOUS
 62
     7
 10
-107.360638803865
 20
105.461945661747
 30
0.0
 11
-110.285160702148
 21
106.130654616723
 31
0.0
  0
LINE
  5
   1EF
  8
0
  6
CONTINUOUS
 62
     7
 10
-110.285160702148
 20
106.130654616723
 30
0.0
 11
-108.086804951543
 21
104.089274692804
 31
0.0
  0
ENDBLK
  5
   1F0
  8
0
  6
CONTINUOUS
 62
     7
  0
BLOCK
  5
   1F1
  8
0
  6
CONTINUOUS
 62
     7
  2
*UDIM90
 70
    65
 10
0.0
 20
0.0
 30
0.0
  3
*UDIM90
  0
TEXT
  5
   1F2
  8
0
  6
CONTINUOUS
 62
     7
 10
-59.9943676336936
 20
61.8658504535463
 30
0.0
 40
3.00000002980232
  1
7
 50
332.530961005982
 41
0.933333333333334
 72
     1
 11
-58.3264775300232
 21
62.6893446373888
 31
0.0
 73
     2
  0
TEXT
  5
   1F3
  8
0
  6
CONTINUOUS
 62
     7
 10
-63.5434085424549
 20
63.7109273804948
 30
0.0
 40
3.00000002980232
  1
Ø
 50
332.530961005982
 41
1.2
 72
     1
 11
-61.520614347478
 21
64.3499138703165
 31
0.0
 73
     2
  0
LINE
  5
   1F4
  8
0
  6
CONTINUOUS
 62
     7
 10
-85.0212551760365
 20
73.7497745249074
 30
0.0
 11
-58.503664354574
 21
59.9637979164992
 31
0.0
  0
LINE
  5
   1F5
  8
0
  6
CONTINUOUS
 62
     7
 10
-83.5141925461086
 20
72.0911644147943
 30
0.0
 11
-80.5849540725114
 21
71.4434283846105
 31
0.0
  0
LINE
  5
   1F6
  8
0
  6
CONTINUOUS
 62
     7
 10
-80.5849540725114
 20
71.4434283846105
 30
0.0
 11
-82.7978809597838
 21
73.4690035107381
 31
0.0
  0
LINE
  5
   1F7
  8
0
  6
CONTINUOUS
 62
     7
 10
-76.1030102126805
 20
69.9884712053229
 30
0.0
 11
-79.0322486862777
 21
70.6362072355066
 31
0.0
  0
LINE
  5
   1F8
  8
0
  6
CONTINUOUS
 62
     7
 10
-79.0322486862777
 20
70.6362072355066
 30
0.0
 11
-76.8193217990052
 21
68.6106321093791
 31
0.0
  0
ENDBLK
  5
   1F9
  8
0
  6
CONTINUOUS
 62
     7
  0
BLOCK
  5
   1FA
  8
0
  6
CONTINUOUS
 62
     7
  2
*UDIM91
 70
    65
 10
0.0
 20
0.0
 30
0.0
  3
*UDIM91
  0
TEXT
  5
   1FB
  8
0
  6
CONTINUOUS
 62
     7
 10
-98.2055824582387
 20
49.7101021147042
 30
0.0
 40
3.00000002980232
  1
R min.200
 50
359.999999844103
 41
0.933333333333333
 72
     1
 11
-85.9055823319753
 21
51.2101020962
 31
0.0
 73
     2
  0
LINE
  5
   1FC
  8
0
  6
CONTINUOUS
 62
     7
 10
-100.058601379395
 20
64.6446364925072
 30
0.0
 11
-100.058601379395
 21
46.7101020812988
 31
0.0
  0
LINE
  5
   1FD
  8
0
  6
CONTINUOUS
 62
     7
 10
-71.8784535544316
 20
54.3321854581361
 30
0.0
 11
-71.8784535544316
 21
46.7101020812988
 31
0.0
  0
LINE
  5
   1FE
  8
0
  6
CONTINUOUS
 62
     7
 10
-100.058601379395
 20
48.7101020812988
 30
0.0
 11
-71.8784535544316
 21
48.7101020812988
 31
0.0
  0
LINE
  5
   1FF
  8
0
  6
CONTINUOUS
 62
     7
 10
-103.013024656602
 20
48.1891576513472
 30
0.0
 11
-100.058601379395
 21
48.7101020812988
 31
0.0
  0
LINE
  5
   200
  8
0
  6
CONTINUOUS
 62
     7
 10
-100.058601379395
 20
48.7101020812988
 30
0.0
 11
-103.013024656602
 21
49.2310465112505
 31
0.0
  0
LINE
  5
   201
  8
0
  6
CONTINUOUS
 62
     7
 10
-68.9240302772247
 20
49.2310465112505
 30
0.0
 11
-71.8784535544316
 21
48.7101020812988
 31
0.0
  0
LINE
  5
   202
  8
0
  6
CONTINUOUS
 62
     7
 10
-71.8784535544316
 20
48.7101020812988
 30
0.0
 11
-68.9240302772247
 21
48.1891576513472
 31
0.0
  0
ENDBLK
  5
   203
  8
0
  6
CONTINUOUS
 62
     7
  0
BLOCK
  5
   204
  8
0
  6
CONTINUOUS
 62
     7
  2
*UDIM92
 70
    65
 10
0.0
 20
0.0
 30
0.0
  3
*UDIM92
  0
TEXT
  5
   205
  8
0
  6
CONTINUOUS
 62
     7
 10
-134.460285201155
 20
92.2773177473754
 30
0.0
 40
3.00000002980232
  1
72,5
 50
449.999999844103
 41
0.933333333333333
 72
     1
 11
-135.960285201669
 21
97.5773178040981
 31
0.0
 73
     2
  0
LINE
  5
   206
  8
0
  6
CONTINUOUS
 62
     7
 10
-108.353601379395
 20
106.914817810059
 30
0.0
 11
-135.460285186768
 21
106.914817810059
 31
0.0
  0
LINE
  5
   207
  8
0
  6
CONTINUOUS
 62
     7
 10
-128.519326142538
 20
88.7898178100586
 30
0.0
 11
-135.460285186768
 21
88.7898178100586
 31
0.0
  0
LINE
  5
   208
  8
0
  6
CONTINUOUS
 62
     7
 10
-133.460285186768
 20
106.914817810059
 30
0.0
 11
-133.460285186768
 21
88.7898178100586
 31
0.0
  0
LINE
  5
   209
  8
0
  6
CONTINUOUS
 62
     7
 10
-132.939340756816
 20
103.960394532852
 30
0.0
 11
-133.460285186768
 21
106.914817810059
 31
0.0
  0
LINE
  5
   20A
  8
0
  6
CONTINUOUS
 62
     7
 10
-133.460285186768
 20
106.914817810059
 30
0.0
 11
-133.981229616719
 21
103.960394532852
 31
0.0
  0
LINE
  5
   20B
  8
0
  6
CONTINUOUS
 62
     7
 10
-133.981229616719
 20
91.7442410872656
 30
0.0
 11
-133.460285186768
 21
88.7898178100586
 31
0.0
  0
LINE
  5
   20C
  8
0
  6
CONTINUOUS
 62
     7
 10
-133.460285186768
 20
88.7898178100586
 30
0.0
 11
-132.939340756816
 21
91.7442410872656
 31
0.0
  0
ENDBLK
  5
   20D
  8
0
  6
CONTINUOUS
 62
     7
  0
BLOCK
  5
   20E
  8
0
  6
CONTINUOUS
 62
     7
  2
*UDIM93
 70
    65
 10
0.0
 20
0.0
 30
0.0
  3
*UDIM93
  0
TEXT
  5
   20F
  8
0
  6
CONTINUOUS
 62
     7
 10
-114.208601026834
 20
117.647375113601
 30
0.0
 40
3.00000002980232
  1
45
 50
359.999999844103
 41
0.933333333333333
 72
     1
 11
-111.708600997925
 21
119.147375121713
 31
0.0
 73
     2
  0
LINE
  5
   210
  8
0
  6
CONTINUOUS
 62
     7
 10
-105.683601379395
 20
109.584817810059
 30
0.0
 11
-105.683601379395
 21
118.647375106812
 31
0.0
  0
LINE
  5
   211
  8
0
  6
CONTINUOUS
 62
     7
 10
-94.4336013793945
 20
109.584817810059
 30
0.0
 11
-94.4336013793945
 21
118.647375106812
 31
0.0
  0
LINE
  5
   212
  8
0
  6
CONTINUOUS
 62
     7
 10
-114.20860102276
 20
116.647375106812
 30
0.0
 11
-94.4336013793945
 21
116.647375106812
 31
0.0
  0
LINE
  5
   213
  8
0
  6
CONTINUOUS
 62
     7
 10
-108.638024656602
 20
116.12643067686
 30
0.0
 11
-105.683601379395
 21
116.647375106812
 31
0.0
  0
LINE
  5
   214
  8
0
  6
CONTINUOUS
 62
     7
 10
-105.683601379395
 20
116.647375106812
 30
0.0
 11
-108.638024656602
 21
117.168319536763
 31
0.0
  0
LINE
  5
   215
  8
0
  6
CONTINUOUS
 62
     7
 10
-91.4791781021876
 20
117.168319536763
 30
0.0
 11
-94.4336013793945
 21
116.647375106812
 31
0.0
  0
LINE
  5
   216
  8
0
  6
CONTINUOUS
 62
     7
 10
-94.4336013793945
 20
116.647375106812
 30
0.0
 11
-91.4791781021876
 21
116.12643067686
 31
0.0
  0
ENDBLK
  5
   217
  8
0
  6
CONTINUOUS
 62
     7
  0
BLOCK
  5
   218
  8
0
  6
CONTINUOUS
 62
     7
  2
*UDIM94
 70
    65
 10
0.0
 20
0.0
 30
0.0
  3
*UDIM94
  0
TEXT
  5
   219
  8
0
  6
CONTINUOUS
 62
     7
 10
-63.8659019652095
 20
91.6898181208979
 30
0.0
 40
3.00000002980232
  1
27,25
 50
449.999999844103
 41
0.933333333333333
 72
     1
 11
-65.3659019619226
 21
98.3898181915283
 31
0.0
 73
     2
  0
LINE
  5
   21A
  8
0
  6
CONTINUOUS
 62
     7
 10
-71.0658730792577
 20
88.7898178100586
 30
0.0
 11
-60.8659019470215
 21
88.7898178100586
 31
0.0
  0
LINE
  5
   21B
  8
0
  6
CONTINUOUS
 62
     7
 10
-73.8032949799529
 20
81.9773178100586
 30
0.0
 11
-60.8659019470215
 21
81.9773178100586
 31
0.0
  0
LINE
  5
   21C
  8
0
  6
CONTINUOUS
 62
     7
 10
-62.8659019470215
 20
105.089818258087
 30
0.0
 11
-62.8659019470215
 21
81.9773178100586
 31
0.0
  0
LINE
  5
   21D
  8
0
  6
CONTINUOUS
 62
     7
 10
-63.3868463769732
 20
91.7442410872656
 30
0.0
 11
-62.8659019470215
 21
88.7898178100586
 31
0.0
  0
LINE
  5
   21E
  8
0
  6
CONTINUOUS
 62
     7
 10
-62.8659019470215
 20
88.7898178100586
 30
0.0
 11
-62.3449575170698
 21
91.7442410872656
 31
0.0
  0
LINE
  5
   21F
  8
0
  6
CONTINUOUS
 62
     7
 10
-62.3449575170698
 20
79.0228945328516
 30
0.0
 11
-62.8659019470215
 21
81.9773178100586
 31
0.0
  0
LINE
  5
   220
  8
0
  6
CONTINUOUS
 62
     7
 10
-62.8659019470215
 20
81.9773178100586
 30
0.0
 11
-63.3868463769732
 21
79.0228945328516
 31
0.0
  0
ENDBLK
  5
   221
  8
0
  6
CONTINUOUS
 62
     7
  0
BLOCK
  5
   222
  8
0
  6
CONTINUOUS
 62
     7
  2
*UDIM95
 70
    65
 10
0.0
 20
0.0
 30
0.0
  3
*UDIM95
  0
TEXT
  5
   223
  8
0
  6
CONTINUOUS
 62
     7
 10
-58.7147369414627
 20
97.2230835049361
 30
0.0
 40
3.00000002980232
  1
=
 50
449.999999844103
 41
0.933333333333334
 72
     1
 11
-60.2147369533777
 21
98.3230835199356
 31
0.0
 73
     2
  0
LINE
  5
   224
  8
0
  6
CONTINUOUS
 62
     7
 10
-77.1836013793945
 20
106.539817810059
 30
0.0
 11
-55.7147369384766
 21
106.539817810059
 31
0.0
  0
LINE
  5
   225
  8
0
  6
CONTINUOUS
 62
     7
 10
-77.1836013793945
 20
88.7898178100586
 30
0.0
 11
-55.7147369384766
 21
88.7898178100586
 31
0.0
  0
LINE
  5
   226
  8
0
  6
CONTINUOUS
 62
     7
 10
-57.7147369384766
 20
106.539817810059
 30
0.0
 11
-57.7147369384766
 21
88.7898178100586
 31
0.0
  0
LINE
  5
   227
  8
0
  6
CONTINUOUS
 62
     7
 10
-57.1937925085249
 20
103.585394532852
 30
0.0
 11
-57.7147369384766
 21
106.539817810059
 31
0.0
  0
LINE
  5
   228
  8
0
  6
CONTINUOUS
 62
     7
 10
-57.7147369384766
 20
106.539817810059
 30
0.0
 11
-58.2356813684282
 21
103.585394532852
 31
0.0
  0
LINE
  5
   229
  8
0
  6
CONTINUOUS
 62
     7
 10
-58.2356813684282
 20
91.7442410872656
 30
0.0
 11
-57.7147369384766
 21
88.7898178100586
 31
0.0
  0
LINE
  5
   22A
  8
0
  6
CONTINUOUS
 62
     7
 10
-57.7147369384766
 20
88.7898178100586
 30
0.0
 11
-57.1937925085249
 21
91.7442410872656
 31
0.0
  0
ENDBLK
  5
   22B
  8
0
  6
CONTINUOUS
 62
     7
  0
BLOCK
  5
   22C
  8
0
  6
CONTINUOUS
 62
     7
  2
*UDIM96
 70
    65
 10
0.0
 20
0.0
 30
0.0
  3
*UDIM96
  0
TEXT
  5
   22D
  8
0
  6
CONTINUOUS
 62
     7
 10
-58.7147369414627
 20
79.4730835049361
 30
0.0
 40
3.00000002980232
  1
=
 50
449.999999844103
 41
0.933333333333334
 72
     1
 11
-60.2147369533777
 21
80.5730835199356
 31
0.0
 73
     2
  0
LINE
  5
   22E
  8
0
  6
CONTINUOUS
 62
     7
 10
-77.1836013793945
 20
71.0398178100586
 30
0.0
 11
-55.7147369384766
 21
71.0398178100586
 31
0.0
  0
LINE
  5
   22F
  8
0
  6
CONTINUOUS
 62
     7
 10
-57.7147369384766
 20
88.7898178100586
 30
0.0
 11
-57.7147369384766
 21
71.0398178100586
 31
0.0
  0
LINE
  5
   230
  8
0
  6
CONTINUOUS
 62
     7
 10
-57.1937925085249
 20
85.8353945328516
 30
0.0
 11
-57.7147369384766
 21
88.7898178100586
 31
0.0
  0
LINE
  5
   231
  8
0
  6
CONTINUOUS
 62
     7
 10
-57.7147369384766
 20
88.7898178100586
 30
0.0
 11
-58.2356813684282
 21
85.8353945328516
 31
0.0
  0
LINE
  5
   232
  8
0
  6
CONTINUOUS
 62
     7
 10
-58.2356813684282
 20
73.9942410872656
 30
0.0
 11
-57.7147369384766
 21
71.0398178100586
 31
0.0
  0
LINE
  5
   233
  8
0
  6
CONTINUOUS
 62
     7
 10
-57.7147369384766
 20
71.0398178100586
 30
0.0
 11
-57.1937925085249
 21
73.9942410872656
 31
0.0
  0
ENDBLK
  5
   234
  8
0
  6
CONTINUOUS
 62
     7
  0
BLOCK
  5
   235
  8
0
  6
CONTINUOUS
 62
     7
  2
*UDIM97
 70
    65
 10
0.0
 20
0.0
 30
0.0
  3
*UDIM97
  0
TEXT
  5
   236
  8
0
  6
CONTINUOUS
 62
     7
 10
-128.021327982999
 20
84.6148177612832
 30
0.0
 40
3.00000002980232
  1
126
 50
449.999999844103
 41
0.933333333333333
 72
     1
 11
-129.521327987313
 21
88.5148178040981
 31
0.0
 73
     2
  0
LINE
  5
   237
  8
0
  6
CONTINUOUS
 62
     7
 10
-119.058601379395
 20
104.539817810059
 30
0.0
 11
-129.021327972412
 21
104.539817810059
 31
0.0
  0
LINE
  5
   238
  8
0
  6
CONTINUOUS
 62
     7
 10
-119.058601379395
 20
73.0398178100586
 30
0.0
 11
-129.021327972412
 21
73.0398178100586
 31
0.0
  0
LINE
  5
   239
  8
0
  6
CONTINUOUS
 62
     7
 10
-127.021327972412
 20
104.539817810059
 30
0.0
 11
-127.021327972412
 21
73.0398178100586
 31
0.0
  0
LINE
  5
   23A
  8
0
  6
CONTINUOUS
 62
     7
 10
-126.50038354246
 20
101.585394532852
 30
0.0
 11
-127.021327972412
 21
104.539817810059
 31
0.0
  0
LINE
  5
   23B
  8
0
  6
CONTINUOUS
 62
     7
 10
-127.021327972412
 20
104.539817810059
 30
0.0
 11
-127.542272402364
 21
101.585394532852
 31
0.0
  0
LINE
  5
   23C
  8
0
  6
CONTINUOUS
 62
     7
 10
-127.542272402364
 20
75.9942410872656
 30
0.0
 11
-127.021327972412
 21
73.0398178100586
 31
0.0
  0
LINE
  5
   23D
  8
0
  6
CONTINUOUS
 62
     7
 10
-127.021327972412
 20
73.0398178100586
 30
0.0
 11
-126.50038354246
 21
75.9942410872656
 31
0.0
  0
ENDBLK
  5
   23E
  8
0
  6
CONTINUOUS
 62
     7
  0
BLOCK
  5
   23F
  8
0
  6
CONTINUOUS
 62
     7
  2
*UDIM98
 70
    65
 10
0.0
 20
0.0
 30
0.0
  3
*UDIM98
  0
TEXT
  5
   240
  8
0
  6
CONTINUOUS
 62
     7
 10
-52.3928527937902
 20
84.6148177612832
 30
0.0
 40
3.00000002980232
  1
142
 50
449.999999844103
 41
0.933333333333333
 72
     1
 11
-53.8928527981043
 21
88.5148178040981
 31
0.0
 73
     2
  0
LINE
  5
   241
  8
0
  6
CONTINUOUS
 62
     7
 10
-108.433601379395
 20
106.539817810059
 30
0.0
 11
-49.3928527832031
 21
106.539817810059
 31
0.0
  0
LINE
  5
   242
  8
0
  6
CONTINUOUS
 62
     7
 10
-77.1836013793945
 20
71.0398178100586
 30
0.0
 11
-49.3928527832031
 21
71.0398178100586
 31
0.0
  0
LINE
  5
   243
  8
0
  6
CONTINUOUS
 62
     7
 10
-51.3928527832031
 20
106.539817810059
 30
0.0
 11
-51.3928527832031
 21
71.0398178100586
 31
0.0
  0
LINE
  5
   244
  8
0
  6
CONTINUOUS
 62
     7
 10
-50.8719083532515
 20
103.585394532852
 30
0.0
 11
-51.3928527832031
 21
106.539817810059
 31
0.0
  0
LINE
  5
   245
  8
0
  6
CONTINUOUS
 62
     7
 10
-51.3928527832031
 20
106.539817810059
 30
0.0
 11
-51.9137972131548
 21
103.585394532852
 31
0.0
  0
LINE
  5
   246
  8
0
  6
CONTINUOUS
 62
     7
 10
-51.9137972131548
 20
73.9942410872656
 30
0.0
 11
-51.3928527832031
 21
71.0398178100586
 31
0.0
  0
LINE
  5
   247
  8
0
  6
CONTINUOUS
 62
     7
 10
-51.3928527832031
 20
71.0398178100586
 30
0.0
 11
-50.8719083532515
 21
73.9942410872656
 31
0.0
  0
ENDBLK
  5
   248
  8
0
  6
CONTINUOUS
 62
     7
  0
BLOCK
  5
   249
  8
0
  6
CONTINUOUS
 62
     7
  2
*UDIM99
 70
    65
 10
0.0
 20
0.0
 30
0.0
  3
*UDIM99
  0
TEXT
  5
   24A
  8
0
  6
CONTINUOUS
 62
     7
 10
-93.0411319800532
 20
79.2875800737749
 30
0.0
 40
3.00000002980232
  1
16
 50
449.999999844103
 41
0.933333333333333
 72
     1
 11
-94.5411319881678
 21
81.7875801026821
 31
0.0
 73
     2
  0
LINE
  5
   24B
  8
0
  6
CONTINUOUS
 62
     7
 10
-85.3086013793945
 20
83.9773178100586
 30
0.0
 11
-94.0411319732666
 21
83.9773178100586
 31
0.0
  0
LINE
  5
   24C
  8
0
  6
CONTINUOUS
 62
     7
 10
-85.3086013793945
 20
79.9773178100586
 30
0.0
 11
-94.0411319732666
 21
79.9773178100586
 31
0.0
  0
LINE
  5
   24D
  8
0
  6
CONTINUOUS
 62
     7
 10
-92.0411319732666
 20
84.2875801275174
 30
0.0
 11
-92.0411319732666
 21
79.2875800778468
 31
0.0
  0
LINE
  5
   24E
  8
0
  6
CONTINUOUS
 62
     7
 10
-92.5620764032183
 20
86.9317410872656
 30
0.0
 11
-92.0411319732666
 21
83.9773178100586
 31
0.0
  0
LINE
  5
   24F
  8
0
  6
CONTINUOUS
 62
     7
 10
-92.0411319732666
 20
83.9773178100586
 30
0.0
 11
-91.5201875433149
 21
86.9317410872656
 31
0.0
  0
LINE
  5
   250
  8
0
  6
CONTINUOUS
 62
     7
 10
-91.5201875433149
 20
77.0228945328516
 30
0.0
 11
-92.0411319732666
 21
79.9773178100586
 31
0.0
  0
LINE
  5
   251
  8
0
  6
CONTINUOUS
 62
     7
 10
-92.0411319732666
 20
79.9773178100586
 30
0.0
 11
-92.5620764032183
 21
77.0228945328516
 31
0.0
  0
ENDBLK
  5
   252
  8
0
  6
CONTINUOUS
 62
     7
  0
BLOCK
  5
   253
  8
0
  6
CONTINUOUS
 62
     7
  2
*UDIM100
 70
    65
 10
0.0
 20
0.0
 30
0.0
  3
*UDIM100
  0
TEXT
  5
   254
  8
0
  6
CONTINUOUS
 62
     7
 10
-91.0836014142641
 20
93.3383991786189
 30
0.0
 40
3.00000002980232
  1
94
 50
359.999999844103
 41
0.933333333333333
 72
     1
 11
-88.583601385355
 21
94.8383991867304
 31
0.0
 73
     2
  0
LINE
  5
   255
  8
0
  6
CONTINUOUS
 62
     7
 10
-76.5586013793945
 20
82.8523178100586
 30
0.0
 11
-76.5586013793945
 21
94.3383991718292
 31
0.0
  0
LINE
  5
   256
  8
0
  6
CONTINUOUS
 62
     7
 10
-100.058601379395
 20
92.3383991718292
 30
0.0
 11
-76.5586013793945
 21
92.3383991718292
 31
0.0
  0
LINE
  5
   257
  8
0
  6
CONTINUOUS
 62
     7
 10
-97.1041781021876
 20
92.8593436017809
 30
0.0
 11
-100.058601379395
 21
92.3383991718292
 31
0.0
  0
LINE
  5
   258
  8
0
  6
CONTINUOUS
 62
     7
 10
-100.058601379395
 20
92.3383991718292
 30
0.0
 11
-97.1041781021876
 21
91.8174547418776
 31
0.0
  0
LINE
  5
   259
  8
0
  6
CONTINUOUS
 62
     7
 10
-79.5130246566015
 20
91.8174547418776
 30
0.0
 11
-76.5586013793945
 21
92.3383991718292
 31
0.0
  0
LINE
  5
   25A
  8
0
  6
CONTINUOUS
 62
     7
 10
-76.5586013793945
 20
92.3383991718292
 30
0.0
 11
-79.5130246566015
 21
92.8593436017809
 31
0.0
  0
ENDBLK
  5
   25B
  8
0
  6
CONTINUOUS
 62
     7
  0
BLOCK
  5
   25C
  8
0
  6
CONTINUOUS
 62
     7
  2
*UDIM101
 70
    65
 10
0.0
 20
0.0
 30
0.0
  3
*UDIM101
  0
TEXT
  5
   25D
  8
0
  6
CONTINUOUS
 62
     7
 10
-99.6086014579742
 20
57.7316360579552
 30
0.0
 40
3.00000002980232
  1
125
 50
359.999999844103
 41
0.933333333333333
 72
     1
 11
-95.7086014151573
 21
59.2316360622644
 31
0.0
 73
     2
  0
LINE
  5
   25E
  8
0
  6
CONTINUOUS
 62
     7
 10
-111.058601379395
 20
68.4148178100586
 30
0.0
 11
-111.058601379395
 21
54.7316360473633
 31
0.0
  0
LINE
  5
   25F
  8
0
  6
CONTINUOUS
 62
     7
 10
-79.8086013793945
 20
68.4148178100586
 30
0.0
 11
-79.8086013793945
 21
54.7316360473633
 31
0.0
  0
LINE
  5
   260
  8
0
  6
CONTINUOUS
 62
     7
 10
-111.058601379395
 20
56.7316360473633
 30
0.0
 11
-79.8086013793945
 21
56.7316360473633
 31
0.0
  0
LINE
  5
   261
  8
0
  6
CONTINUOUS
 62
     7
 10
-108.104178102188
 20
57.2525804773149
 30
0.0
 11
-111.058601379395
 21
56.7316360473633
 31
0.0
  0
LINE
  5
   262
  8
0
  6
CONTINUOUS
 62
     7
 10
-111.058601379395
 20
56.7316360473633
 30
0.0
 11
-108.104178102188
 21
56.2106916174116
 31
0.0
  0
LINE
  5
   263
  8
0
  6
CONTINUOUS
 62
     7
 10
-82.7630246566015
 20
56.2106916174116
 30
0.0
 11
-79.8086013793945
 21
56.7316360473633
 31
0.0
  0
LINE
  5
   264
  8
0
  6
CONTINUOUS
 62
     7
 10
-79.8086013793945
 20
56.7316360473633
 30
0.0
 11
-82.7630246566015
 21
57.2525804773149
 31
0.0
  0
ENDBLK
  5
   265
  8
0
  6
CONTINUOUS
 62
     7
  0
BLOCK
  5
   266
  8
0
  6
CONTINUOUS
 62
     7
  2
*UDIM102
 70
    65
 10
0.0
 20
0.0
 30
0.0
  3
*UDIM102
  0
TEXT
  5
   267
  8
0
  6
CONTINUOUS
 62
     7
 10
-92.7086014142641
 20
64.8348903723903
 30
0.0
 40
3.00000002980232
  1
81
 50
359.999999844103
 41
0.933333333333333
 72
     1
 11
-90.208601385355
 21
66.3348903805018
 31
0.0
 73
     2
  0
LINE
  5
   268
  8
0
  6
CONTINUOUS
 62
     7
 10
-100.058601379395
 20
64.6446364925072
 30
0.0
 11
-100.058601379395
 21
61.8348903656006
 31
0.0
  0
LINE
  5
   269
  8
0
  6
CONTINUOUS
 62
     7
 10
-79.8086013793945
 20
68.4148178100586
 30
0.0
 11
-79.8086013793945
 21
61.8348903656006
 31
0.0
  0
LINE
  5
   26A
  8
0
  6
CONTINUOUS
 62
     7
 10
-100.058601379395
 20
63.8348903656006
 30
0.0
 11
-79.8086013793945
 21
63.8348903656006
 31
0.0
  0
LINE
  5
   26B
  8
0
  6
CONTINUOUS
 62
     7
 10
-97.1041781021876
 20
64.3558347955523
 30
0.0
 11
-100.058601379395
 21
63.8348903656006
 31
0.0
  0
LINE
  5
   26C
  8
0
  6
CONTINUOUS
 62
     7
 10
-100.058601379395
 20
63.8348903656006
 30
0.0
 11
-97.1041781021876
 21
63.3139459356489
 31
0.0
  0
LINE
  5
   26D
  8
0
  6
CONTINUOUS
 62
     7
 10
-82.7630246566015
 20
63.3139459356489
 30
0.0
 11
-79.8086013793945
 21
63.8348903656006
 31
0.0
  0
LINE
  5
   26E
  8
0
  6
CONTINUOUS
 62
     7
 10
-79.8086013793945
 20
63.8348903656006
 30
0.0
 11
-82.7630246566015
 21
64.3558347955523
 31
0.0
  0
ENDBLK
  5
   26F
  8
0
  6
CONTINUOUS
 62
     7
  0
BLOCK
  5
   270
  8
0
  6
CONTINUOUS
 62
     7
  2
*UDIM103
 70
    65
 10
0.0
 20
0.0
 30
0.0
  3
*UDIM103
  0
TEXT
  5
   271
  8
0
  6
CONTINUOUS
 62
     7
 10
-105.358601428172
 20
133.323081980807
 30
0.0
 40
3.00000002980232
  1
135
 50
359.999999844103
 41
0.933333333333333
 72
     1
 11
-101.458601385355
 21
134.823081985116
 31
0.0
 73
     2
  0
LINE
  5
   272
  8
0
  6
CONTINUOUS
 62
     7
 10
-118.058601379395
 20
105.539817810059
 30
0.0
 11
-118.058601379395
 21
134.323081970215
 31
0.0
  0
LINE
  5
   273
  8
0
  6
CONTINUOUS
 62
     7
 10
-84.3086013793945
 20
105.539817810059
 30
0.0
 11
-84.3086013793945
 21
134.323081970215
 31
0.0
  0
LINE
  5
   274
  8
0
  6
CONTINUOUS
 62
     7
 10
-118.058601379395
 20
132.323081970215
 30
0.0
 11
-84.3086013793945
 21
132.323081970215
 31
0.0
  0
LINE
  5
   275
  8
0
  6
CONTINUOUS
 62
     7
 10
-115.104178102188
 20
132.844026400167
 30
0.0
 11
-118.058601379395
 21
132.323081970215
 31
0.0
  0
LINE
  5
   276
  8
0
  6
CONTINUOUS
 62
     7
 10
-118.058601379395
 20
132.323081970215
 30
0.0
 11
-115.104178102188
 21
131.802137540263
 31
0.0
  0
LINE
  5
   277
  8
0
  6
CONTINUOUS
 62
     7
 10
-87.2630246566015
 20
131.802137540263
 30
0.0
 11
-84.3086013793945
 21
132.323081970215
 31
0.0
  0
LINE
  5
   278
  8
0
  6
CONTINUOUS
 62
     7
 10
-84.3086013793945
 20
132.323081970215
 30
0.0
 11
-87.2630246566015
 21
132.844026400167
 31
0.0
  0
ENDBLK
  5
   279
  8
0
  6
CONTINUOUS
 62
     7
  0
BLOCK
  5
   27A
  8
0
  6
CONTINUOUS
 62
     7
  2
*UDIM104
 70
    65
 10
0.0
 20
0.0
 30
0.0
  3
*UDIM104
  0
TEXT
  5
   27B
  8
0
  6
CONTINUOUS
 62
     7
 10
-94.9586018911013
 20
125.085983283157
 30
0.0
 40
3.00000002980232
  1
63
 50
359.999999844103
 41
0.933333333333333
 72
     1
 11
-92.4586018621922
 21
126.585983291268
 31
0.0
 73
     2
  0
LINE
  5
   27C
  8
0
  6
CONTINUOUS
 62
     7
 10
-100.058601379395
 20
115.417308970914
 30
0.0
 11
-100.058601379395
 21
126.085983276367
 31
0.0
  0
LINE
  5
   27D
  8
0
  6
CONTINUOUS
 62
     7
 10
-84.3086013793945
 20
105.539817810059
 30
0.0
 11
-84.3086013793945
 21
126.085983276367
 31
0.0
  0
LINE
  5
   27E
  8
0
  6
CONTINUOUS
 62
     7
 10
-100.058601379395
 20
124.085983276367
 30
0.0
 11
-84.3086013793945
 21
124.085983276367
 31
0.0
  0
LINE
  5
   27F
  8
0
  6
CONTINUOUS
 62
     7
 10
-97.1041781021876
 20
124.606927706319
 30
0.0
 11
-100.058601379395
 21
124.085983276367
 31
0.0
  0
LINE
  5
   280
  8
0
  6
CONTINUOUS
 62
     7
 10
-100.058601379395
 20
124.085983276367
 30
0.0
 11
-97.1041781021876
 21
123.565038846416
 31
0.0
  0
LINE
  5
   281
  8
0
  6
CONTINUOUS
 62
     7
 10
-87.2630246566015
 20
123.565038846416
 30
0.0
 11
-84.3086013793945
 21
124.085983276367
 31
0.0
  0
LINE
  5
   282
  8
0
  6
CONTINUOUS
 62
     7
 10
-84.3086013793945
 20
124.085983276367
 30
0.0
 11
-87.2630246566015
 21
124.606927706319
 31
0.0
  0
ENDBLK
  5
   283
  8
0
  6
CONTINUOUS
 62
     7
  0
BLOCK
  5
   284
  8
0
  6
CONTINUOUS
 62
     7
  2
*HATCH15
 70
    65
 10
0.0
 20
0.0
 30
0.0
  3
*HATCH15
  0
LINE
  5
   285
  8
0
  6
CONTINUOUS
 62
    52
 10
-11.7279224395752
 20
1.0
 30
0.0
 11
-11.9763488769531
 21
0.75157368183136
 31
0.0
  0
LINE
  5
   286
  8
0
  6
CONTINUOUS
 62
    52
 10
-9.60660171508789
 20
1.0
 30
0.0
 11
-11.6066026687622
 21
-1.0
 31
0.0
  0
LINE
  5
   287
  8
0
  6
CONTINUOUS
 62
    52
 10
-7.48528146743774
 20
1.0
 30
0.0
 11
-9.48528289794922
 21
-1.0
 31
0.0
  0
LINE
  5
   288
  8
0
  6
CONTINUOUS
 62
    52
 10
-5.3639612197876
 20
1.0
 30
0.0
 11
-7.36396265029907
 21
-1.0
 31
0.0
  0
LINE
  5
   289
  8
0
  6
CONTINUOUS
 62
    52
 10
-3.47947335243225
 20
0.763167560100555
 30
0.0
 11
-5.24264097213745
 21
-1.0
 31
0.0
  0
LINE
  5
   28A
  8
0
  6
CONTINUOUS
 62
    52
 10
-2.51160907745361
 20
-0.390288293361664
 30
0.0
 11
-3.1213207244873
 21
-1.0
 31
0.0
  0
ENDBLK
  5
   28B
  8
0
  6
CONTINUOUS
 62
     7
  0
BLOCK
  5
   28C
  8
0
  6
CONTINUOUS
 62
     7
  2
*HATCH16
 70
    65
 10
0.0
 20
0.0
 30
0.0
  3
*HATCH16
  0
LINE
  5
   28D
  8
0
  6
CONTINUOUS
 62
    52
 10
5.24264097213745
 20
1.0
 30
0.0
 11
3.24264073371887
 21
-1.0
 31
0.0
  0
LINE
  5
   28E
  8
0
  6
CONTINUOUS
 62
    52
 10
7.3639612197876
 20
1.0
 30
0.0
 11
5.3639612197876
 21
-1.0
 31
0.0
  0
LINE
  5
   28F
  8
0
  6
CONTINUOUS
 62
    52
 10
9.48528099060059
 20
1.0
 30
0.0
 11
7.4852819442749
 21
-1.0
 31
0.0
  0
ENDBLK
  5
   290
  8
0
  6
CONTINUOUS
 62
     7
  0
BLOCK
  5
   291
  8
0
  6
CONTINUOUS
 62
     7
  2
*UDIM105
 70
    65
 10
0.0
 20
0.0
 30
0.0
  3
*UDIM105
  0
TEXT
  5
   292
  8
0
  6
CONTINUOUS
 62
     7
 10
-268.605606077052
 20
-85.8043951978828
 30
0.0
 40
3.00000002980232
  1
80
 50
449.160629333818
 41
0.933333333333333
 72
     1
 11
-270.068821987998
 21
-83.2826895515326
 31
0.0
 73
     2
  0
TEXT
  5
   293
  8
0
  6
CONTINUOUS
 62
     7
 10
-269.132295419621
 20
-80.7961421256308
 30
0.0
 40
3.00000002980232
  1
°
 50
449.160629333818
 41
0.933333333333334
 72
     1
 11
-270.616020291629
 21
-79.6742862645997
 31
0.0
 73
     2
  0
LINE
  5
   294
  8
0
  6
CONTINUOUS
 62
     7
 10
-283.671425039303
 20
-86.2288237861036
 30
0.0
 11
-270.994905654267
 21
-96.8656865266985
 31
0.0
  0
LINE
  5
   295
  8
0
  6
CONTINUOUS
 62
     7
 10
-283.671425039303
 20
-77.5868500420214
 30
0.0
 11
-270.994905654267
 21
-66.9499873014265
 31
0.0
  0
ARC
  5
   296
  8
0
  6
CONTINUOUS
 62
     7
 10
-288.82097666761
 20
-81.9078369140625
 30
0.0
 40
21.2702830409726
 50
319.999999815233
 51
399.999999769042
  0
LINE
  5
   297
  8
0
  6
CONTINUOUS
 62
     7
 10
-271.026994449885
 20
-92.9820351482915
 30
0.0
 11
-272.526994540505
 21
-95.5801113073254
 31
0.0
  0
LINE
  5
   298
  8
0
  6
CONTINUOUS
 62
     7
 10
-272.526994540505
 20
-95.5801113073254
 30
0.0
 11
-270.228861278409
 21
-93.6517483981078
 31
0.0
  0
LINE
  5
   299
  8
0
  6
CONTINUOUS
 62
     7
 10
-270.228861278409
 20
-70.1639254300172
 30
0.0
 11
-272.526994540505
 21
-68.2355625207996
 31
0.0
  0
LINE
  5
   29A
  8
0
  6
CONTINUOUS
 62
     7
 10
-272.526994540505
 20
-68.2355625207996
 30
0.0
 11
-271.026994449885
 21
-70.8336386798335
 31
0.0
  0
ENDBLK
  5
   29B
  8
0
  6
CONTINUOUS
 62
     7
  0
BLOCK
  5
   29C
  8
0
  6
CONTINUOUS
 62
     7
  2
*UDIM106
 70
    65
 10
0.0
 20
0.0
 30
0.0
  3
*UDIM106
  0
TEXT
  5
   29D
  8
0
  6
CONTINUOUS
 62
     7
 10
-306.883136756054
 20
-76.0227699568857
 30
0.0
 40
3.00000002980232
  1
Ø4
 50
449.999999844103
 41
0.933333333333333
 72
     1
 11
-308.383136764169
 21
-73.5227699279785
 31
0.0
 73
     2
  0
LINE
  5
   29E
  8
0
  6
CONTINUOUS
 62
     7
 10
-287.437469482422
 20
-79.9078369140625
 30
0.0
 11
-307.883136749268
 21
-79.9078369140625
 31
0.0
  0
LINE
  5
   29F
  8
0
  6
CONTINUOUS
 62
     7
 10
-287.437469482422
 20
-83.9078369140625
 30
0.0
 11
-307.883136749268
 21
-83.9078369140625
 31
0.0
  0
LINE
  5
   2A0
  8
0
  6
CONTINUOUS
 62
     7
 10
-305.883136749268
 20
-71.0227699031432
 30
0.0
 11
-305.883136749268
 21
-83.9078369140625
 31
0.0
  0
LINE
  5
   2A1
  8
0
  6
CONTINUOUS
 62
     7
 10
-306.404081179219
 20
-76.9534136368555
 30
0.0
 11
-305.883136749268
 21
-79.9078369140625
 31
0.0
  0
LINE
  5
   2A2
  8
0
  6
CONTINUOUS
 62
     7
 10
-305.883136749268
 20
-79.9078369140625
 30
0.0
 11
-305.362192319316
 21
-76.9534136368555
 31
0.0
  0
LINE
  5
   2A3
  8
0
  6
CONTINUOUS
 62
     7
 10
-305.362192319316
 20
-86.8622601912695
 30
0.0
 11
-305.883136749268
 21
-83.9078369140625
 31
0.0
  0
LINE
  5
   2A4
  8
0
  6
CONTINUOUS
 62
     7
 10
-305.883136749268
 20
-83.9078369140625
 30
0.0
 11
-306.404081179219
 21
-86.8622601912695
 31
0.0
  0
ENDBLK
  5
   2A5
  8
0
  6
CONTINUOUS
 62
     7
  0
ENDSEC
  0
SECTION
  2
ENTITIES
  0
LINE
  5
   2A6
  8
0
  6
DASHDOT
 62
     7
 10
-214.762090985132
 20
18.1841978222647
 30
0.0
 11
-214.762090985132
 21
29.9341979712625
 31
0.0
  0
LINE
  5
   2A7
  8
0
  6
DASHDOT
 62
     7
 10
-179.762062781466
 20
18.1841978222647
 30
0.0
 11
-179.762062781466
 21
29.934203404214
 31
0.0
  0
LINE
  5
   2A8
  8
0
  6
DASHDOT
 62
     7
 10
-179.762089226973
 20
18.1841978222647
 30
0.0
 11
-179.762089226973
 21
23.6341960225981
 31
0.0
  0
LINE
  5
   2A9
  8
0
  6
DASHDOT
 62
     7
 10
-214.76209268201
 20
18.1841978222647
 30
0.0
 11
-214.76209268201
 21
23.6341981762319
 31
0.0
  0
LINE
  5
   2AA
  8
0
  6
CONTINUOUS
 62
     3
 10
-171.262091980709
 20
87.05920163696
 30
0.0
 11
-223.262084351315
 21
87.05920163696
 31
0.0
  0
LINE
  5
   2AB
  8
0
  6
DASHDOT
 62
     7
 10
-197.262084351315
 20
25.4986108567569
 30
0.0
 11
-197.262084351315
 21
77.1462454415773
 31
0.0
  0
ARC
  5
   2AC
  8
0
  6
CONTINUOUS
 62
     3
 10
-223.262084351315
 20
86.80920163696
 30
0.0
 40
0.25
 50
449.999999948034
 51
539.999999948034
  0
ARC
  5
   2AD
  8
0
  6
CONTINUOUS
 62
     3
 10
-171.262091980709
 20
86.80920163696
 30
0.0
 40
0.25
 50
359.999999948034
 51
449.999999948034
  0
LINE
  5
   2AE
  8
0
  6
DASHDOT
 62
     7
 10
-197.262084351315
 20
80.0358626724954
 30
0.0
 11
-197.262084351315
 21
94.490987707375
 31
0.0
  0
ARC
  5
   2AF
  8
0
  6
CONTINUOUS
 62
     7
 10
-197.262127203148
 20
33.934308135865
 30
0.0
 40
1.37489930370096
 50
152.967149289834
 51
387.032850606235
  0
LINE
  5
   2B0
  8
0
  6
DASHDOT
 62
     7
 10
-195.25515461465
 20
33.934308135865
 30
0.0
 11
-199.082993562835
 21
33.934308135865
 31
0.0
  0
LINE
  5
   2B1
  8
0
  6
DASHDOT
 62
     7
 10
-196.490502638837
 20
32.1841948098873
 30
0.0
 11
-197.952041146326
 21
32.1841948098873
 31
0.0
  0
LINE
  5
   2B2
  8
0
  6
CONTINUOUS
 62
     7
 10
-171.262084351315
 20
87.05920163696
 30
0.0
 11
-223.512084351315
 21
87.05920163696
 31
0.0
  0
LINE
  5
   2B3
  8
0
  6
CONTINUOUS
 62
     7
 10
-191.887084351315
 20
45.6841940075655
 30
0.0
 11
-191.887084351315
 21
65.6841863781709
 31
0.0
  0
LINE
  5
   2B4
  8
0
  6
CONTINUOUS
 62
     7
 10
-202.637084351315
 20
45.6841940075655
 30
0.0
 11
-202.637084351315
 21
65.6841863781709
 31
0.0
  0
LINE
  5
   2B5
  8
0
  6
CONTINUOUS
 62
     7
 10
-191.887084351315
 20
45.6841940075655
 30
0.0
 11
-202.637084351315
 21
45.6841940075655
 31
0.0
  0
LINE
  5
   2B6
  8
0
  6
CONTINUOUS
 62
     7
 10
-191.887084351315
 20
45.8164419323702
 30
0.0
 11
-202.637084351315
 21
45.8164419323702
 31
0.0
  0
LINE
  5
   2B7
  8
0
  6
DASHDOT
 62
     7
 10
-197.262084351315
 20
-6.52375701749592
 30
0.0
 11
-197.262084351315
 21
114.172733797536
 31
0.0
  0
LINE
  5
   2B8
  8
0
  6
CONTINUOUS
 62
     7
 10
-171.012091980709
 20
67.5591940075655
 30
0.0
 11
-171.012091980709
 21
86.80920163696
 31
0.0
  0
LINE
  5
   2B9
  8
0
  6
CONTINUOUS
 62
     7
 10
-223.512084351301
 20
67.5591940075655
 30
0.0
 11
-223.512084351301
 21
86.80920163696
 31
0.0
  0
ARC
  5
   2BA
  8
0
  6
CONTINUOUS
 62
     7
 10
-171.262084351315
 20
86.80920163696
 30
0.0
 40
0.25
 50
359.999999948034
 51
449.999999948034
  0
ARC
  5
   2BB
  8
0
  6
CONTINUOUS
 62
     7
 10
-223.262084351301
 20
86.80920163696
 30
0.0
 40
0.25
 50
449.999999948034
 51
539.999999948034
  0
LINE
  5
   2BC
  8
0
  6
CONTINUOUS
 62
     7
 10
-191.887084351315
 20
52.7468543622752
 30
0.0
 11
-202.637084351315
 21
52.7468543622752
 31
0.0
  0
LINE
  5
   2BD
  8
0
  6
CONTINUOUS
 62
     7
 10
-191.887084351315
 20
49.6886216094667
 30
0.0
 11
-202.637084351315
 21
49.6886216094667
 31
0.0
  0
LINE
  5
   2BE
  8
0
  6
CONTINUOUS
 62
     7
 10
-191.887084351315
 20
46.7147122963609
 30
0.0
 11
-202.637084351315
 21
46.7147122963609
 31
0.0
  0
LINE
  5
   2BF
  8
0
  6
CONTINUOUS
 62
     7
 10
-191.887084351315
 20
46.3133387325017
 30
0.0
 11
-202.637084351315
 21
46.3133387325017
 31
0.0
  0
LINE
  5
   2C0
  8
0
  6
DASHDOT
 62
     7
 10
-197.262084351315
 20
111.384158621225
 30
0.0
 11
-197.262084351315
 21
117.484215632982
 31
0.0
  0
LINE
  5
   2C1
  8
0
  6
CONTINUOUS
 62
     3
 10
-171.637083878291
 20
105.684197822265
 30
0.0
 11
-222.887076248896
 21
105.684197822265
 31
0.0
  0
LINE
  5
   2C2
  8
0
  6
CONTINUOUS
 62
     3
 10
-171.012083878291
 20
101.056050697019
 30
0.0
 11
-171.012083878291
 21
105.059192950207
 31
0.0
  0
LINE
  5
   2C3
  8
0
  6
CONTINUOUS
 62
     3
 10
-223.512079102897
 20
101.056050697019
 30
0.0
 11
-223.512079102897
 21
105.059208587335
 31
0.0
  0
LINE
  5
   2C4
  8
0
  6
CONTINUOUS
 62
     3
 10
-221.68707834698
 20
101.056050697019
 30
0.0
 11
-221.68707834698
 21
105.684197822265
 31
0.0
  0
LINE
  5
   2C5
  8
0
  6
CONTINUOUS
 62
     3
 10
-219.887078156245
 20
101.056050697019
 30
0.0
 11
-219.887078156245
 21
105.684197822265
 31
0.0
  0
LINE
  5
   2C6
  8
0
  6
CONTINUOUS
 62
     3
 10
-218.087078442347
 20
101.056050697019
 30
0.0
 11
-218.087078442347
 21
105.684197822265
 31
0.0
  0
LINE
  5
   2C7
  8
0
  6
CONTINUOUS
 62
     3
 10
-216.287078251612
 20
101.056050697019
 30
0.0
 11
-216.287078251612
 21
105.684197822265
 31
0.0
  0
LINE
  5
   2C8
  8
0
  6
CONTINUOUS
 62
     3
 10
-214.487082352412
 20
101.056050697019
 30
0.0
 11
-214.487082352412
 21
105.684197822265
 31
0.0
  0
LINE
  5
   2C9
  8
0
  6
CONTINUOUS
 62
     3
 10
-212.687079300654
 20
101.056050697019
 30
0.0
 11
-212.687079300654
 21
105.684197822265
 31
0.0
  0
LINE
  5
   2CA
  8
0
  6
CONTINUOUS
 62
     3
 10
-210.887083878291
 20
101.056050697019
 30
0.0
 11
-210.887083878291
 21
105.684197822265
 31
0.0
  0
LINE
  5
   2CB
  8
0
  6
CONTINUOUS
 62
     3
 10
-209.087080826533
 20
101.056050697019
 30
0.0
 11
-209.087080826533
 21
105.684197822265
 31
0.0
  0
LINE
  5
   2CC
  8
0
  6
CONTINUOUS
 62
     3
 10
-207.28708540417
 20
101.056050697019
 30
0.0
 11
-207.28708540417
 21
105.684197822265
 31
0.0
  0
LINE
  5
   2CD
  8
0
  6
CONTINUOUS
 62
     3
 10
-205.487082352412
 20
101.056050697019
 30
0.0
 11
-205.487082352412
 21
105.684197822265
 31
0.0
  0
LINE
  5
   2CE
  8
0
  6
CONTINUOUS
 62
     3
 10
-203.687079300654
 20
101.056050697019
 30
0.0
 11
-203.687079300654
 21
105.684197822265
 31
0.0
  0
LINE
  5
   2CF
  8
0
  6
CONTINUOUS
 62
     3
 10
-201.887083878291
 20
101.056050697019
 30
0.0
 11
-201.887083878291
 21
105.684197822265
 31
0.0
  0
LINE
  5
   2D0
  8
0
  6
CONTINUOUS
 62
     3
 10
-200.087080826533
 20
101.056050697019
 30
0.0
 11
-200.087080826533
 21
105.684197822265
 31
0.0
  0
LINE
  5
   2D1
  8
0
  6
CONTINUOUS
 62
     3
 10
-198.28708540417
 20
101.056050697019
 30
0.0
 11
-198.28708540417
 21
105.684197822265
 31
0.0
  0
LINE
  5
   2D2
  8
0
  6
CONTINUOUS
 62
     3
 10
-196.487082352412
 20
101.056050697019
 30
0.0
 11
-196.487082352412
 21
105.684197822265
 31
0.0
  0
LINE
  5
   2D3
  8
0
  6
CONTINUOUS
 62
     3
 10
-194.687079300654
 20
101.056050697019
 30
0.0
 11
-194.687079300654
 21
105.684197822265
 31
0.0
  0
LINE
  5
   2D4
  8
0
  6
CONTINUOUS
 62
     3
 10
-192.887083878291
 20
101.056050697019
 30
0.0
 11
-192.887083878291
 21
105.684197822265
 31
0.0
  0
LINE
  5
   2D5
  8
0
  6
CONTINUOUS
 62
     3
 10
-191.087080826533
 20
101.056050697019
 30
0.0
 11
-191.087080826533
 21
105.684197822265
 31
0.0
  0
LINE
  5
   2D6
  8
0
  6
CONTINUOUS
 62
     3
 10
-189.28708540417
 20
101.056050697019
 30
0.0
 11
-189.28708540417
 21
105.684197822265
 31
0.0
  0
LINE
  5
   2D7
  8
0
  6
CONTINUOUS
 62
     3
 10
-187.487082352412
 20
101.056050697019
 30
0.0
 11
-187.487082352412
 21
105.684197822265
 31
0.0
  0
LINE
  5
   2D8
  8
0
  6
CONTINUOUS
 62
     3
 10
-185.687079300654
 20
101.056050697019
 30
0.0
 11
-185.687079300654
 21
105.684197822265
 31
0.0
  0
LINE
  5
   2D9
  8
0
  6
CONTINUOUS
 62
     3
 10
-183.887083878291
 20
101.056050697019
 30
0.0
 11
-183.887083878291
 21
105.684197822265
 31
0.0
  0
LINE
  5
   2DA
  8
0
  6
CONTINUOUS
 62
     3
 10
-182.087080826533
 20
101.056050697019
 30
0.0
 11
-182.087080826533
 21
105.684197822265
 31
0.0
  0
LINE
  5
   2DB
  8
0
  6
CONTINUOUS
 62
     3
 10
-180.28708540417
 20
101.056050697019
 30
0.0
 11
-180.28708540417
 21
105.684197822265
 31
0.0
  0
LINE
  5
   2DC
  8
0
  6
CONTINUOUS
 62
     3
 10
-178.487082352412
 20
101.056050697019
 30
0.0
 11
-178.487082352412
 21
105.684197822265
 31
0.0
  0
LINE
  5
   2DD
  8
0
  6
CONTINUOUS
 62
     3
 10
-176.687079300654
 20
101.056050697019
 30
0.0
 11
-176.687079300654
 21
105.684197822265
 31
0.0
  0
LINE
  5
   2DE
  8
0
  6
CONTINUOUS
 62
     3
 10
-174.887083878291
 20
101.056050697019
 30
0.0
 11
-174.887083878291
 21
105.684197822265
 31
0.0
  0
LINE
  5
   2DF
  8
0
  6
CONTINUOUS
 62
     3
 10
-173.087080826533
 20
101.056050697019
 30
0.0
 11
-173.087080826533
 21
105.684197822265
 31
0.0
  0
ARC
  5
   2E0
  8
0
  6
CONTINUOUS
 62
     3
 10
-171.637092175318
 20
105.059192950207
 30
0.0
 40
0.624999378846369
 50
360.000027285161
 51
450.00046185832
  0
ARC
  5
   2E1
  8
0
  6
CONTINUOUS
 62
     3
 10
-222.887093089042
 20
105.059208587335
 30
0.0
 40
0.624983634017216
 50
449.998225807986
 51
540.001187191324
  0
LINE
  5
   2E2
  8
0
  6
CONTINUOUS
 62
     3
 10
-171.637083878291
 20
18.1841978222647
 30
0.0
 11
-222.887076248896
 21
18.1841978222647
 31
0.0
  0
LINE
  5
   2E3
  8
0
  6
CONTINUOUS
 62
     3
 10
-171.012083878291
 20
18.8092026943219
 30
0.0
 11
-171.012083878291
 21
20.55920163696
 31
0.0
  0
LINE
  5
   2E4
  8
0
  6
CONTINUOUS
 62
     3
 10
-223.512079102897
 20
18.8091870571946
 30
0.0
 11
-223.512079102897
 21
20.55920163696
 31
0.0
  0
LINE
  5
   2E5
  8
0
  6
CONTINUOUS
 62
     3
 10
-221.68707834698
 20
18.1841978222647
 30
0.0
 11
-221.68707834698
 21
20.55920163696
 31
0.0
  0
LINE
  5
   2E6
  8
0
  6
CONTINUOUS
 62
     3
 10
-219.887078156245
 20
18.1841978222647
 30
0.0
 11
-219.887078156245
 21
20.55920163696
 31
0.0
  0
LINE
  5
   2E7
  8
0
  6
CONTINUOUS
 62
     3
 10
-218.087078442347
 20
18.1841978222647
 30
0.0
 11
-218.087078442347
 21
20.55920163696
 31
0.0
  0
LINE
  5
   2E8
  8
0
  6
CONTINUOUS
 62
     3
 10
-216.287078251612
 20
18.1841978222647
 30
0.0
 11
-216.287078251612
 21
20.55920163696
 31
0.0
  0
LINE
  5
   2E9
  8
0
  6
CONTINUOUS
 62
     3
 10
-214.487082352412
 20
18.1841978222647
 30
0.0
 11
-214.487082352412
 21
20.55920163696
 31
0.0
  0
LINE
  5
   2EA
  8
0
  6
CONTINUOUS
 62
     3
 10
-212.687079300654
 20
18.1841978222647
 30
0.0
 11
-212.687079300654
 21
20.55920163696
 31
0.0
  0
LINE
  5
   2EB
  8
0
  6
CONTINUOUS
 62
     3
 10
-210.887083878291
 20
18.1841978222647
 30
0.0
 11
-210.887083878291
 21
20.55920163696
 31
0.0
  0
LINE
  5
   2EC
  8
0
  6
CONTINUOUS
 62
     3
 10
-209.087080826533
 20
18.1841978222647
 30
0.0
 11
-209.087080826533
 21
20.55920163696
 31
0.0
  0
LINE
  5
   2ED
  8
0
  6
CONTINUOUS
 62
     3
 10
-207.28708540417
 20
18.1841978222647
 30
0.0
 11
-207.28708540417
 21
20.55920163696
 31
0.0
  0
LINE
  5
   2EE
  8
0
  6
CONTINUOUS
 62
     3
 10
-205.487082352412
 20
18.1841978222647
 30
0.0
 11
-205.487082352412
 21
20.55920163696
 31
0.0
  0
LINE
  5
   2EF
  8
0
  6
CONTINUOUS
 62
     3
 10
-203.687079300654
 20
18.1841978222647
 30
0.0
 11
-203.687079300654
 21
20.55920163696
 31
0.0
  0
LINE
  5
   2F0
  8
0
  6
CONTINUOUS
 62
     3
 10
-201.887083878291
 20
18.1841978222647
 30
0.0
 11
-201.887083878291
 21
20.55920163696
 31
0.0
  0
LINE
  5
   2F1
  8
0
  6
CONTINUOUS
 62
     3
 10
-200.087080826533
 20
18.1841978222647
 30
0.0
 11
-200.087080826533
 21
20.55920163696
 31
0.0
  0
LINE
  5
   2F2
  8
0
  6
CONTINUOUS
 62
     3
 10
-198.28708540417
 20
18.1841978222647
 30
0.0
 11
-198.28708540417
 21
20.55920163696
 31
0.0
  0
LINE
  5
   2F3
  8
0
  6
CONTINUOUS
 62
     3
 10
-196.487082352412
 20
18.1841978222647
 30
0.0
 11
-196.487082352412
 21
20.55920163696
 31
0.0
  0
LINE
  5
   2F4
  8
0
  6
CONTINUOUS
 62
     3
 10
-194.687079300654
 20
18.1841978222647
 30
0.0
 11
-194.687079300654
 21
20.55920163696
 31
0.0
  0
LINE
  5
   2F5
  8
0
  6
CONTINUOUS
 62
     3
 10
-192.887083878291
 20
18.1841978222647
 30
0.0
 11
-192.887083878291
 21
20.55920163696
 31
0.0
  0
LINE
  5
   2F6
  8
0
  6
CONTINUOUS
 62
     3
 10
-191.087080826533
 20
18.1841978222647
 30
0.0
 11
-191.087080826533
 21
20.55920163696
 31
0.0
  0
LINE
  5
   2F7
  8
0
  6
CONTINUOUS
 62
     3
 10
-189.28708540417
 20
18.1841978222647
 30
0.0
 11
-189.28708540417
 21
20.55920163696
 31
0.0
  0
LINE
  5
   2F8
  8
0
  6
CONTINUOUS
 62
     3
 10
-187.487082352412
 20
18.1841978222647
 30
0.0
 11
-187.487082352412
 21
20.55920163696
 31
0.0
  0
LINE
  5
   2F9
  8
0
  6
CONTINUOUS
 62
     3
 10
-185.687079300654
 20
18.1841978222647
 30
0.0
 11
-185.687079300654
 21
20.55920163696
 31
0.0
  0
LINE
  5
   2FA
  8
0
  6
CONTINUOUS
 62
     3
 10
-183.887083878291
 20
18.1841978222647
 30
0.0
 11
-183.887083878291
 21
20.55920163696
 31
0.0
  0
LINE
  5
   2FB
  8
0
  6
CONTINUOUS
 62
     3
 10
-182.087080826533
 20
18.1841978222647
 30
0.0
 11
-182.087080826533
 21
20.55920163696
 31
0.0
  0
LINE
  5
   2FC
  8
0
  6
CONTINUOUS
 62
     3
 10
-180.28708540417
 20
18.1841978222647
 30
0.0
 11
-180.28708540417
 21
20.55920163696
 31
0.0
  0
LINE
  5
   2FD
  8
0
  6
CONTINUOUS
 62
     3
 10
-178.487082352412
 20
18.1841978222647
 30
0.0
 11
-178.487082352412
 21
20.55920163696
 31
0.0
  0
LINE
  5
   2FE
  8
0
  6
CONTINUOUS
 62
     3
 10
-176.687079300654
 20
18.1841978222647
 30
0.0
 11
-176.687079300654
 21
20.55920163696
 31
0.0
  0
LINE
  5
   2FF
  8
0
  6
CONTINUOUS
 62
     3
 10
-174.887083878291
 20
18.1841978222647
 30
0.0
 11
-174.887083878291
 21
20.55920163696
 31
0.0
  0
LINE
  5
   300
  8
0
  6
CONTINUOUS
 62
     3
 10
-173.087080826533
 20
18.1841978222647
 30
0.0
 11
-173.087080826533
 21
20.55920163696
 31
0.0
  0
ARC
  5
   301
  8
0
  6
CONTINUOUS
 62
     3
 10
-171.637092175318
 20
18.8092026943219
 30
0.0
 40
0.624999378846369
 50
269.999538037749
 51
359.999972610908
  0
ARC
  5
   302
  8
0
  6
CONTINUOUS
 62
     3
 10
-222.887093089042
 20
18.8091870571946
 30
0.0
 40
0.624983634017216
 50
179.998812704745
 51
270.001774088083
  0
LINE
  5
   303
  8
0
  6
CONTINUOUS
 62
   130
 10
-171.012008666992
 20
35.6843204498291
 30
0.0
 11
-171.012008666992
 21
40.1843013763428
 31
0.0
  0
LINE
  5
   304
  8
0
  6
CONTINUOUS
 62
     3
 10
-167.012008666992
 20
30.1843147277832
 30
0.0
 11
-167.012008666992
 21
32.4343166351318
 31
0.0
  0
LINE
  5
   305
  8
0
  6
CONTINUOUS
 62
     3
 10
-171.012016296387
 20
96.1843204498291
 30
0.0
 11
-171.012016296387
 21
98.1843280792236
 31
0.0
  0
LINE
  5
   306
  8
0
  6
DOT
 62
   130
 10
-155.762008666992
 20
98.1843204498291
 30
0.0
 11
-171.012083878291
 21
98.1843204498291
 31
0.0
  0
LINE
  5
   307
  8
0
  6
CONTINUOUS
 62
   130
 10
-167.012054443359
 20
44.3092975616455
 30
0.0
 11
-167.012054443359
 21
49.5592975616455
 31
0.0
  0
LINE
  5
   308
  8
0
  6
CONTINUOUS
 62
   130
 10
-167.012054443359
 20
70.18430519104
 30
0.0
 11
-167.012054443359
 21
82.1843280792236
 31
0.0
  0
LINE
  5
   309
  8
0
  6
DOT
 62
   130
 10
-155.762000778743
 20
25.8093128204346
 30
0.0
 11
-171.012083878291
 21
25.8093128204346
 31
0.0
  0
LINE
  5
   30A
  8
0
  6
CONTINUOUS
 62
     3
 10
-167.012001037598
 20
87.9343280792236
 30
0.0
 11
-167.012001037598
 21
91.5593280792236
 31
0.0
  0
LINE
  5
   30B
  8
0
  6
DOT
 62
   130
 10
-155.762000778743
 20
25.8093128204346
 30
0.0
 11
-155.762008666992
 21
98.1843204498302
 31
0.0
  0
LINE
  5
   30C
  8
0
  6
DOT
 62
   130
 10
-155.262008666992
 20
54.6842975616455
 30
0.0
 11
-155.262008666992
 21
64.6842975616455
 31
0.0
  0
LINE
  5
   30D
  8
0
  6
CONTINUOUS
 62
   130
 10
-167.512001037598
 20
49.5592975616455
 30
0.0
 11
-167.512001037598
 21
67.18430519104
 31
0.0
  0
LINE
  5
   30E
  8
0
  6
CONTINUOUS
 62
     3
 10
-167.512001037598
 20
37.6843204498291
 30
0.0
 11
-167.512001037598
 21
40.1843013763428
 31
0.0
  0
LINE
  5
   30F
  8
0
  6
DOT
 62
   130
 10
-155.262008666992
 20
64.6842975616455
 30
0.0
 11
-155.762001037598
 21
64.6842975616455
 31
0.0
  0
LINE
  5
   310
  8
0
  6
DOT
 62
   130
 10
-155.262008666992
 20
54.6842975616455
 30
0.0
 11
-155.762008666992
 21
54.6842975616455
 31
0.0
  0
LINE
  5
   311
  8
0
  6
CONTINUOUS
 62
   130
 10
-171.012016296387
 20
84.1843204498291
 30
0.0
 11
-171.012016296387
 21
85.6843204498291
 31
0.0
  0
LINE
  5
   312
  8
0
  6
CONTINUOUS
 62
     5
 10
-223.512043053763
 20
34.8093299865723
 30
0.0
 11
-223.512043053763
 21
35.0593452453613
 31
0.0
  0
LINE
  5
   313
  8
0
  6
CONTINUOUS
 62
     5
 10
-223.512035424369
 20
81.0593128204346
 30
0.0
 11
-223.512035424369
 21
86.8093509674072
 31
0.0
  0
LINE
  5
   314
  8
0
  6
CONTINUOUS
 62
     5
 10
-223.438812698509
 20
34.6325524589602
 30
0.0
 11
-223.512043442597
 21
34.8093293402937
 31
0.0
  0
LINE
  5
   315
  8
0
  6
CONTINUOUS
 62
     5
 10
-223.262043143783
 20
34.5593613298413
 30
0.0
 11
-223.438810496932
 21
34.6325539270318
 31
0.0
  0
LINE
  5
   316
  8
0
  6
CONTINUOUS
 62
     5
 10
-171.262008721441
 20
34.5593868649351
 30
0.0
 11
-186.512008721441
 21
34.5593868649351
 31
0.0
  0
LINE
  5
   317
  8
0
  6
CONTINUOUS
 62
     5
 10
-223.012035424369
 20
34.5593605041504
 30
0.0
 11
-223.262044961112
 21
34.5593605041504
 31
0.0
  0
LINE
  5
   318
  8
0
  6
CONTINUOUS
 62
     5
 10
-171.26200557179
 20
34.5593254590178
 30
0.0
 11
-171.085224876261
 21
34.6325504777714
 31
0.0
  0
LINE
  5
   319
  8
0
  6
CONTINUOUS
 62
     5
 10
-171.085225345572
 20
34.6325513793299
 30
0.0
 11
-171.011998416482
 21
34.8093282687181
 31
0.0
  0
LINE
  5
   31A
  8
0
  6
CONTINUOUS
 62
     5
 10
-171.012001092092
 20
34.8093280792254
 30
0.0
 11
-171.012008721487
 21
86.809350967409
 31
0.0
  0
LINE
  5
   31B
  8
0
  6
CONTINUOUS
 62
     3
 10
-184.662040710449
 20
39.5245990753174
 30
0.0
 11
-184.662040710449
 21
43.5939960479736
 31
0.0
  0
LINE
  5
   31C
  8
0
  6
CONTINUOUS
 62
     3
 10
-183.96311000954
 20
38.7212303045628
 30
0.0
 11
-184.662046446401
 21
39.5245979131378
 31
0.0
  0
LINE
  5
   31D
  8
0
  6
CONTINUOUS
 62
     3
 10
-183.066484543083
 20
38.1466851455004
 30
0.0
 11
-183.963098633969
 21
38.7212319404528
 31
0.0
  0
LINE
  5
   31E
  8
0
  6
CONTINUOUS
 62
     3
 10
-182.044517499547
 20
37.8473377248216
 30
0.0
 11
-183.066490175975
 21
38.1466846358106
 31
0.0
  0
LINE
  5
   31F
  8
0
  6
CONTINUOUS
 62
     3
 10
-180.979614257813
 20
37.8473377227783
 30
0.0
 11
-182.04451751709
 21
37.8473377227783
 31
0.0
  0
LINE
  5
   320
  8
0
  6
CONTINUOUS
 62
     3
 10
-180.979615201979
 20
37.8473373729491
 30
0.0
 11
-179.957642539596
 21
38.1466804913015
 31
0.0
  0
LINE
  5
   321
  8
0
  6
CONTINUOUS
 62
     3
 10
-179.957631202733
 20
38.1466863812726
 30
0.0
 11
-179.061009470275
 21
38.7212332217617
 31
0.0
  0
LINE
  5
   322
  8
0
  6
CONTINUOUS
 62
     3
 10
-179.061025393067
 20
38.7212237000592
 30
0.0
 11
-178.362066016952
 21
39.5246409093671
 31
0.0
  0
LINE
  5
   323
  8
0
  6
CONTINUOUS
 62
     3
 10
-178.362060545668
 20
39.5246448527589
 30
0.0
 11
-178.362037657485
 21
43.5940189372315
 31
0.0
  0
LINE
  5
   324
  8
0
  6
CONTINUOUS
 62
     3
 10
-178.362039087805
 20
43.5940185901258
 30
0.0
 11
-179.060998453792
 21
44.3974167290657
 31
0.0
  0
LINE
  5
   325
  8
0
  6
CONTINUOUS
 62
     3
 10
-179.06098894526
 20
44.3974182090896
 30
0.0
 11
-179.957610677718
 21
44.9719650495787
 31
0.0
  0
LINE
  5
   326
  8
0
  6
CONTINUOUS
 62
     3
 10
-179.957615582057
 20
44.9719644092829
 30
0.0
 11
-180.979580580214
 21
45.2713075129325
 31
0.0
  0
LINE
  5
   327
  8
0
  6
CONTINUOUS
 62
     3
 10
-180.979583740234
 20
45.2713069915772
 30
0.0
 11
-182.044494628906
 21
45.2713069915772
 31
0.0
  0
LINE
  5
   328
  8
0
  6
CONTINUOUS
 62
     3
 10
-183.066456087395
 20
44.971965358917
 30
0.0
 11
-182.044491089238
 21
45.2713084625666
 31
0.0
  0
LINE
  5
   329
  8
0
  6
CONTINUOUS
 62
     3
 10
-183.963071250491
 20
44.3974230695581
 30
0.0
 11
-183.066449518033
 21
44.9719699100473
 31
0.0
  0
LINE
  5
   32A
  8
0
  6
CONTINUOUS
 62
     3
 10
-184.662046491184
 20
43.5939914654205
 30
0.0
 11
-183.963087141417
 21
44.3974124835358
 31
0.0
  0
LINE
  5
   32B
  8
0
  6
CONTINUOUS
 62
     3
 10
-186.512008666728
 20
80.809320449975
 30
0.0
 11
-171.012008666728
 21
80.8093509675522
 31
0.0
  0
LINE
  5
   32C
  8
0
  6
CONTINUOUS
 62
     3
 10
-171.012008666992
 20
85.8093509674072
 30
0.0
 11
-223.51203918457
 21
85.8093509674072
 31
0.0
  0
LINE
  5
   32D
  8
0
  6
CONTINUOUS
 62
     3
 10
-176.759805755335
 20
77.1842862242909
 30
0.0
 11
-176.816896512455
 21
77.4713040442272
 31
0.0
  0
LINE
  5
   32E
  8
0
  6
CONTINUOUS
 62
     3
 10
-176.816893630896
 20
77.4713088773101
 30
0.0
 11
-176.979468407121
 21
77.7146255271041
 31
0.0
  0
LINE
  5
   32F
  8
0
  6
CONTINUOUS
 62
     3
 10
-176.979471098608
 20
77.7146233314388
 30
0.0
 11
-177.222795381278
 21
77.8771980934523
 31
0.0
  0
LINE
  5
   330
  8
0
  6
CONTINUOUS
 62
     3
 10
-177.222800411024
 20
77.8771961934235
 30
0.0
 11
-177.509810597788
 21
77.9342869520013
 31
0.0
  0
LINE
  5
   331
  8
0
  6
CONTINUOUS
 62
     3
 10
-177.796822132026
 20
77.8771947278126
 30
0.0
 11
-177.509811945261
 21
77.9342854863905
 31
0.0
  0
LINE
  5
   332
  8
0
  6
CONTINUOUS
 62
     3
 10
-178.040128472049
 20
77.714626102853
 30
0.0
 11
-177.796811822255
 21
77.8772008790783
 31
0.0
  0
LINE
  5
   333
  8
0
  6
CONTINUOUS
 62
     3
 10
-178.20271265618
 20
77.471308174268
 30
0.0
 11
-178.040130261232
 21
77.7146248194292
 31
0.0
  0
LINE
  5
   334
  8
0
  6
CONTINUOUS
 62
     3
 10
-178.259806518463
 20
77.1842853524635
 30
0.0
 11
-178.202715761343
 21
77.4713031723998
 31
0.0
  0
LINE
  5
   335
  8
0
  6
CONTINUOUS
 62
     3
 10
-178.259803771973
 20
75.684289932251
 30
0.0
 11
-178.259803771973
 21
77.184289932251
 31
0.0
  0
LINE
  5
   336
  8
0
  6
CONTINUOUS
 62
     3
 10
-178.202716278368
 20
75.3972736869764
 30
0.0
 11
-178.259807036946
 21
75.6842838737412
 31
0.0
  0
LINE
  5
   337
  8
0
  6
CONTINUOUS
 62
     3
 10
-178.040130432961
 20
75.1539633090829
 30
0.0
 11
-178.202712827909
 21
75.3972799542441
 31
0.0
  0
LINE
  5
   338
  8
0
  6
CONTINUOUS
 62
     3
 10
-177.796813702831
 20
74.9913808395327
 30
0.0
 11
-178.040130347993
 21
75.1539632344805
 31
0.0
  0
LINE
  5
   339
  8
0
  6
CONTINUOUS
 62
     3
 10
-177.509810603895
 20
74.9342871010789
 30
0.0
 11
-177.79682079066
 21
74.9913778596567
 31
0.0
  0
LINE
  5
   33A
  8
0
  6
CONTINUOUS
 62
     3
 10
-177.509811939154
 20
74.934285635468
 30
0.0
 11
-177.222801752389
 21
74.9913763940459
 31
0.0
  0
LINE
  5
   33B
  8
0
  6
CONTINUOUS
 62
     3
 10
-177.222792919367
 20
74.9913812014452
 30
0.0
 11
-176.979468641372
 21
75.1539635996872
 31
0.0
  0
LINE
  5
   33C
  8
0
  6
CONTINUOUS
 62
     3
 10
-176.979467544922
 20
75.1539651024465
 30
0.0
 11
-176.816892768697
 21
75.3972817522405
 31
0.0
  0
LINE
  5
   33D
  8
0
  6
CONTINUOUS
 62
     3
 10
-176.81689918981
 20
75.3972722263133
 30
0.0
 11
-176.759808431232
 21
75.6842824130782
 31
0.0
  0
LINE
  5
   33E
  8
0
  6
CONTINUOUS
 62
     3
 10
-176.759803771973
 20
75.684289932251
 30
0.0
 11
-176.759803771973
 21
77.184289932251
 31
0.0
  0
LINE
  5
   33F
  8
0
  6
CONTINUOUS
 62
     3
 10
-176.762008666992
 20
64.9343013763428
 30
0.0
 11
-178.262008666992
 21
64.9343013763428
 31
0.0
  0
LINE
  5
   340
  8
0
  6
CONTINUOUS
 62
     3
 10
-178.262008666992
 20
51.4343013763428
 30
0.0
 11
-178.262008666992
 21
64.9343013763428
 31
0.0
  0
LINE
  5
   341
  8
0
  6
CONTINUOUS
 62
     3
 10
-176.762008666992
 20
51.4343013763428
 30
0.0
 11
-178.262008666992
 21
51.4343013763428
 31
0.0
  0
LINE
  5
   342
  8
0
  6
CONTINUOUS
 62
     3
 10
-176.762008666992
 20
51.4343013763428
 30
0.0
 11
-176.762008666992
 21
64.9343013763428
 31
0.0
  0
LINE
  5
   343
  8
0
  6
CONTINUOUS
 62
     5
 10
-187.512008721488
 20
36.3093147277832
 30
0.0
 11
-187.512008721488
 21
79.5593147277832
 31
0.0
  0
LINE
  5
   344
  8
0
  6
CONTINUOUS
 62
     3
 10
-186.512008666992
 20
80.8093128204346
 30
0.0
 11
-221.762050628662
 21
80.8093128204346
 31
0.0
  0
LINE
  5
   345
  8
0
  6
CONTINUOUS
 62
     5
 10
-188.012008721488
 20
80.0593128204346
 30
0.0
 11
-221.762050683158
 21
80.0593128204346
 31
0.0
  0
LINE
  5
   346
  8
0
  6
CONTINUOUS
 62
     5
 10
-187.512009814781
 20
79.5593115021103
 30
0.0
 11
-188.012009797667
 21
80.059311484996
 31
0.0
  0
LINE
  5
   347
  8
0
  6
CONTINUOUS
 62
     5
 10
-222.26204999512
 20
79.5593144322954
 30
0.0
 11
-222.115603766837
 21
79.91286820433
 31
0.0
  0
LINE
  5
   348
  8
0
  6
CONTINUOUS
 62
     5
 10
-222.115603505738
 20
79.9128676448401
 30
0.0
 11
-221.762049733703
 21
80.0593138731232
 31
0.0
  0
LINE
  5
   349
  8
0
  6
CONTINUOUS
 62
     3
 10
-221.76205062807
 20
80.8093128211494
 30
0.0
 11
-223.512037276629
 21
80.8093204505442
 31
0.0
  0
LINE
  5
   34A
  8
0
  6
CONTINUOUS
 62
     5
 10
-223.512039239066
 20
35.0593452453614
 30
0.0
 11
-223.512037331717
 21
81.0593223571778
 31
0.0
  0
LINE
  5
   34B
  8
0
  6
CONTINUOUS
 62
     5
 10
-187.012008720931
 20
34.5592041017955
 30
0.0
 11
-223.012039239026
 21
34.5593490602872
 31
0.0
  0
LINE
  5
   34C
  8
0
  6
CONTINUOUS
 62
     5
 10
-186.512008705695
 20
34.559196475514
 30
0.0
 11
-187.012008705695
 21
34.5592041049086
 31
0.0
  0
LINE
  5
   34D
  8
0
  6
CONTINUOUS
 62
     5
 10
-187.658453997584
 20
35.9557618214433
 30
0.0
 11
-187.512007769301
 21
36.309315593478
 31
0.0
  0
LINE
  5
   34E
  8
0
  6
CONTINUOUS
 62
     5
 10
-188.012007253992
 20
35.8093153612839
 30
0.0
 11
-187.658453481957
 21
35.9557615895671
 31
0.0
  0
LINE
  5
   34F
  8
0
  6
CONTINUOUS
 62
     5
 10
-188.012008721488
 20
35.8093147277832
 30
0.0
 11
-221.762050683158
 21
35.8093147277832
 31
0.0
  0
LINE
  5
   350
  8
0
  6
CONTINUOUS
 62
     5
 10
-221.762050134665
 20
35.8093149752731
 30
0.0
 11
-222.1156039067
 21
35.9557612035562
 31
0.0
  0
LINE
  5
   351
  8
0
  6
CONTINUOUS
 62
     5
 10
-222.115604164869
 20
35.9557614383634
 30
0.0
 11
-222.262050393152
 21
36.309315210398
 31
0.0
  0
LINE
  5
   352
  8
0
  6
CONTINUOUS
 62
     5
 10
-222.262050683158
 20
36.3093147277832
 30
0.0
 11
-222.262050683158
 21
79.5593147277832
 31
0.0
  0
LINE
  5
   353
  8
0
  6
CONTINUOUS
 62
     5
 10
-202.63702016558
 20
45.1483936309814
 30
0.0
 11
-202.63702016558
 21
66.0369548797607
 31
0.0
  0
LINE
  5
   354
  8
0
  6
CONTINUOUS
 62
     5
 10
-191.88702016558
 20
45.1483936309814
 30
0.0
 11
-191.88702016558
 21
66.0369548797607
 31
0.0
  0
LINE
  5
   355
  8
0
  6
CONTINUOUS
 62
     3
 10
-173.512001037598
 20
47.769510269165
 30
0.0
 11
-174.512001037598
 21
47.769510269165
 31
0.0
  0
LINE
  5
   356
  8
0
  6
CONTINUOUS
 62
     3
 10
-174.68876984701
 20
47.6962927368992
 30
0.0
 11
-174.511989141754
 21
47.7695158510111
 31
0.0
  0
LINE
  5
   357
  8
0
  6
CONTINUOUS
 62
     3
 10
-174.762001371057
 20
47.5195099370698
 30
0.0
 11
-174.688782071815
 21
47.6962868196957
 31
0.0
  0
LINE
  5
   358
  8
0
  6
CONTINUOUS
 62
     3
 10
-174.762001037598
 20
42.019510269165
 30
0.0
 11
-174.762001037598
 21
47.519510269165
 31
0.0
  0
LINE
  5
   359
  8
0
  6
CONTINUOUS
 62
     3
 10
-174.688781985369
 20
41.8427332611355
 30
0.0
 11
-174.762001284611
 21
42.0195101437613
 31
0.0
  0
LINE
  5
   35A
  8
0
  6
CONTINUOUS
 62
     3
 10
-174.511991158404
 20
41.7695112266728
 30
0.0
 11
-174.68877186366
 21
41.8427343407847
 31
0.0
  0
LINE
  5
   35B
  8
0
  6
CONTINUOUS
 62
     3
 10
-173.512001037598
 20
41.769510269165
 30
0.0
 11
-174.512001037598
 21
41.769510269165
 31
0.0
  0
LINE
  5
   35C
  8
0
  6
CONTINUOUS
 62
     3
 10
-172.762001037598
 20
41.769510269165
 30
0.0
 11
-173.512001037598
 21
41.769510269165
 31
0.0
  0
LINE
  5
   35D
  8
0
  6
CONTINUOUS
 62
     3
 10
-172.762009436391
 20
41.7695066725737
 30
0.0
 11
-172.585236369591
 21
41.8427297866954
 31
0.0
  0
LINE
  5
   35E
  8
0
  6
CONTINUOUS
 62
     3
 10
-172.585225267915
 20
41.8427358121323
 30
0.0
 11
-172.511998338824
 21
42.0195127015205
 31
0.0
  0
LINE
  5
   35F
  8
0
  6
CONTINUOUS
 62
     3
 10
-172.512001037598
 20
42.019510269165
 30
0.0
 11
-172.512001037598
 21
47.519510269165
 31
0.0
  0
LINE
  5
   360
  8
0
  6
CONTINUOUS
 62
     3
 10
-172.511999034977
 20
47.5195114982059
 30
0.0
 11
-172.585225964068
 21
47.6962883875941
 31
0.0
  0
LINE
  5
   361
  8
0
  6
CONTINUOUS
 62
     3
 10
-172.585234957715
 20
47.6962861734701
 30
0.0
 11
-172.762008024515
 21
47.7695092875919
 31
0.0
  0
LINE
  5
   362
  8
0
  6
CONTINUOUS
 62
     5
 10
-187.512031609671
 20
67.5593242645264
 30
0.0
 11
-187.512031609671
 21
68.0593242645264
 31
0.0
  0
LINE
  5
   363
  8
0
  6
CONTINUOUS
 62
     3
 10
-187.512031555176
 20
67.8093242645264
 30
0.0
 11
-222.262054443359
 21
67.8093242645264
 31
0.0
  0
LINE
  5
   364
  8
0
  6
CONTINUOUS
 62
     3
 10
-187.512031555176
 20
67.3093242645264
 30
0.0
 11
-222.262054443359
 21
67.3093242645264
 31
0.0
  0
LINE
  5
   365
  8
0
  6
CONTINUOUS
 62
     5
 10
-187.512031609671
 20
43.0593242645264
 30
0.0
 11
-187.512031609671
 21
43.5593242645264
 31
0.0
  0
LINE
  5
   366
  8
0
  6
CONTINUOUS
 62
     3
 10
-187.512031555176
 20
43.3093242645264
 30
0.0
 11
-222.262054443359
 21
43.3093242645264
 31
0.0
  0
LINE
  5
   367
  8
0
  6
CONTINUOUS
 62
     3
 10
-187.512031555176
 20
42.8093242645264
 30
0.0
 11
-222.262054443359
 21
42.8093242645264
 31
0.0
  0
LINE
  5
   368
  8
0
  6
CONTINUOUS
 62
     3
 10
-202.637035369873
 20
61.3093242645264
 30
0.0
 11
-222.262054443359
 21
61.3093242645264
 31
0.0
  0
LINE
  5
   369
  8
0
  6
CONTINUOUS
 62
     3
 10
-202.637035369873
 20
60.8093242645264
 30
0.0
 11
-222.262054443359
 21
60.8093242645264
 31
0.0
  0
LINE
  5
   36A
  8
0
  6
CONTINUOUS
 62
     3
 10
-202.63703918457
 20
49.8093242645264
 30
0.0
 11
-222.262054443359
 21
49.8093242645264
 31
0.0
  0
LINE
  5
   36B
  8
0
  6
CONTINUOUS
 62
     3
 10
-202.63703918457
 20
49.3093242645264
 30
0.0
 11
-222.262054443359
 21
49.3093242645264
 31
0.0
  0
LINE
  5
   36C
  8
0
  6
CONTINUOUS
 62
     5
 10
-187.512031609671
 20
61.0593242645264
 30
0.0
 11
-187.512031609671
 21
61.5593242645264
 31
0.0
  0
LINE
  5
   36D
  8
0
  6
CONTINUOUS
 62
     3
 10
-187.512031555176
 20
61.3093242645264
 30
0.0
 11
-191.887020111084
 21
61.3093242645264
 31
0.0
  0
LINE
  5
   36E
  8
0
  6
CONTINUOUS
 62
     3
 10
-187.512031555176
 20
60.8093242645264
 30
0.0
 11
-191.887020111084
 21
60.8093242645264
 31
0.0
  0
LINE
  5
   36F
  8
0
  6
CONTINUOUS
 62
     5
 10
-187.512031609671
 20
49.5593242645264
 30
0.0
 11
-187.512031609671
 21
50.0593242645264
 31
0.0
  0
LINE
  5
   370
  8
0
  6
CONTINUOUS
 62
     3
 10
-187.512031555176
 20
49.8093242645264
 30
0.0
 11
-191.887023925781
 21
49.8093242645264
 31
0.0
  0
LINE
  5
   371
  8
0
  6
CONTINUOUS
 62
     3
 10
-187.512031555176
 20
49.3093242645264
 30
0.0
 11
-191.887023925781
 21
49.3093242645264
 31
0.0
  0
LINE
  5
   372
  8
0
  6
CONTINUOUS
 62
     5
 10
-187.012010609277
 20
34.5592041100264
 30
0.0
 11
-223.263811146307
 21
34.5600853051226
 31
0.0
  0
LINE
  5
   373
  8
0
  6
CONTINUOUS
 62
     3
 10
-171.636993408203
 20
34.8093868649351
 30
0.0
 11
-171.636993408203
 21
80.8093490600586
 31
0.0
  0
LINE
  5
   374
  8
0
  6
CONTINUOUS
 62
     3
 10
-222.887041091919
 20
34.5600738525391
 30
0.0
 11
-222.887041091919
 21
80.8093109130859
 31
0.0
  0
LINE
  5
   375
  8
0
  6
CONTINUOUS
 62
     5
 10
-223.32972064899
 20
34.5873803560296
 30
0.0
 11
-223.328982505068
 21
34.588118499952
 31
0.0
  0
LINE
  5
   376
  8
0
  6
CONTINUOUS
 62
     5
 10
-191.88702016558
 20
65.8165454864502
 30
0.0
 11
-202.63702016558
 21
65.8165454864502
 31
0.0
  0
LINE
  5
   377
  8
0
  6
CONTINUOUS
 62
     5
 10
-191.88702016558
 20
66.0369548797607
 30
0.0
 11
-202.63702016558
 21
66.0369548797607
 31
0.0
  0
LINE
  5
   378
  8
0
  6
CONTINUOUS
 62
     5
 10
-191.88702016558
 20
45.1483936309814
 30
0.0
 11
-202.63702016558
 21
45.1483936309814
 31
0.0
  0
LINE
  5
   379
  8
0
  6
CONTINUOUS
 62
     5
 10
-191.88702016558
 20
45.4833316802979
 30
0.0
 11
-202.63702016558
 21
45.4833316802979
 31
0.0
  0
LINE
  5
   37A
  8
0
  6
CONTINUOUS
 62
   130
 10
-167.512001037598
 20
40.1843013763428
 30
0.0
 11
-167.512001037598
 21
44.3092975616455
 31
0.0
  0
CIRCLE
  5
   37B
  8
0
  6
CONTINUOUS
 62
   130
 10
-162.511985571581
 20
46.9343034105952
 30
0.0
 40
2.62499047157398
  0
LINE
  5
   37C
  8
0
  6
DASHDOT
 62
     7
 10
-162.511985571581
 20
42.8093129390212
 30
0.0
 11
-162.511985571581
 21
51.0592938821692
 31
0.0
  0
LINE
  5
   37D
  8
0
  6
DASHDOT
 62
     7
 10
-158.386995100007
 20
46.9343034105952
 30
0.0
 11
-166.636976043155
 21
46.9343034105952
 31
0.0
  0
LINE
  5
   37E
  8
0
  6
DASHDOT
 62
     7
 10
-151.697266510917
 20
60.80920163696
 30
0.0
 11
-231.421651204792
 21
60.80920163696
 31
0.0
  0
INSERT
  5
   37F
  8
255
  6
CONTINUOUS
 62
     7
  2
MOSTRA
 10
-254.681242333187
 20
26.2778295666475
 30
0.0
 41
0.5
 42
0.5
 50
3.50835464724173E-15
 43
0.5
  0
LINE
  5
   380
  8
0
  6
DOT
 62
   130
 10
-171.012083878291
 20
20.55920163696
 30
0.0
 11
-171.012083878291
 21
34.5592100649686
 31
0.0
  0
LINE
  5
   381
  8
0
  6
DOT
 62
   130
 10
-171.012083878291
 20
87.0592015480172
 30
0.0
 11
-171.012083878291
 21
101.056050697019
 31
0.0
  0
INSERT
  5
   382
  8
0
  6
CONTINUOUS
 62
     7
  2
*UDIM53
 10
0.0
 20
0.0
 30
0.0
  0
INSERT
  5
   383
  8
0
  6
CONTINUOUS
 62
     7
  2
*UDIM54
 10
0.0
 20
0.0
 30
0.0
  0
TEXT
  5
   384
  8
0
  6
CONTINUOUS
 62
     7
 10
-139.892303460364
 20
52.0066858203534
 30
0.0
 40
3.00000002980232
  1
=     =
 50
89.9999999480344
 41
0.916666604744064
 72
     1
 11
-141.392303466797
 21
61.3566852807999
 31
0.0
 73
     2
  0
INSERT
  5
   385
  8
0
  6
CONTINUOUS
 62
     7
  2
*UDIM55
 10
0.0
 20
0.0
 30
0.0
  0
INSERT
  5
   386
  8
0
  6
CONTINUOUS
 62
     7
  2
*UDIM56
 10
0.0
 20
0.0
 30
0.0
  0
INSERT
  5
   387
  8
0
  6
CONTINUOUS
 62
     7
  2
*UDIM57
 10
0.0
 20
0.0
 30
0.0
  0
INSERT
  5
   388
  8
0
  6
CONTINUOUS
 62
     7
  2
*UDIM58
 10
0.0
 20
0.0
 30
0.0
  0
TEXT
  5
   389
  8
0
  6
CONTINUOUS
 62
     7
 10
-198.222860653566
 20
128.258678083809
 30
0.0
 40
3.00000002980232
  1
Y
 50
359.999999948034
 41
0.916666604744064
 72
     2
 11
-196.022860784697
 21
128.258678081824
 31
0.0
  0
TEXT
  5
   38A
  8
0
  6
CONTINUOUS
 62
     7
 10
-262.124144394564
 20
60.5330387405469
 30
0.0
 40
3.00000002980232
  1
X
 50
359.999999948034
 41
0.916666604744064
 72
     2
 11
-259.924144525694
 21
60.5330387385626
 31
0.0
  0
INSERT
  5
   38B
  8
0
  6
CONTINUOUS
 62
     7
  2
*UDIM59
 10
0.0
 20
0.0
 30
0.0
  0
INSERT
  5
   38C
  8
0
  6
CONTINUOUS
 62
     7
  2
*UDIM60
 10
0.0
 20
0.0
 30
0.0
  0
INSERT
  5
   38D
  8
0
  6
CONTINUOUS
 62
     7
  2
*UDIM61
 10
0.0
 20
0.0
 30
0.0
  0
LINE
  5
   38E
  8
0
  6
CONTINUOUS
 62
     3
 10
-332.075103759766
 20
20.8342089653015
 30
0.0
 11
-368.075103759766
 21
20.8342089653015
 31
0.0
  0
LINE
  5
   38F
  8
0
  6
CONTINUOUS
 62
     7
 10
-332.075103759766
 20
18.1842093467712
 30
0.0
 11
-332.075103759766
 21
26.0591864585876
 31
0.0
  0
LINE
  5
   390
  8
0
  6
CONTINUOUS
 62
     7
 10
-331.075103759766
 20
24.6841945648193
 30
0.0
 11
-332.075103759766
 21
24.6841945648193
 31
0.0
  0
LINE
  5
   391
  8
0
  6
CONTINUOUS
 62
     7
 10
-331.075103759766
 20
99.1841864585876
 30
0.0
 11
-332.075103759766
 21
99.1841864585876
 31
0.0
  0
LINE
  5
   392
  8
0
  6
CONTINUOUS
 62
     7
 10
-333.966942000946
 20
52.0103076158257
 30
0.0
 11
-333.950102496809
 21
52.0215609720163
 31
0.0
  0
LINE
  5
   393
  8
0
  6
CONTINUOUS
 62
     3
 10
-332.075103759766
 20
103.034207820892
 30
0.0
 11
-379.175102234483
 21
103.034207820892
 31
0.0
  0
LINE
  5
   394
  8
0
  6
CONTINUOUS
 62
     3
 10
-368.075103760362
 20
20.8342089653015
 30
0.0
 11
-379.175102234483
 21
20.8342089653015
 31
0.0
  0
LINE
  5
   395
  8
0
  6
CONTINUOUS
 62
     3
 10
-379.175102234483
 20
20.8342108726501
 30
0.0
 11
-379.175102234483
 21
26.4341864585876
 31
0.0
  0
LINE
  5
   396
  8
0
  6
CONTINUOUS
 62
     3
 10
-379.175102234483
 20
98.4341940879822
 30
0.0
 11
-379.175102234483
 21
103.034207820892
 31
0.0
  0
LINE
  5
   397
  8
0
  6
CONTINUOUS
 62
   210
 10
-307.325084232434
 20
46.9341893199808
 30
0.0
 11
-308.325074779897
 21
46.934193134642
 31
0.0
  0
LINE
  5
   398
  8
0
  6
CONTINUOUS
 62
   210
 10
-307.325082325086
 20
43.4341893199481
 30
0.0
 11
-308.325074365899
 21
43.434193134615
 31
0.0
  0
LINE
  5
   399
  8
0
  6
CONTINUOUS
 62
   210
 10
-307.075080871582
 20
19.9342017173767
 30
0.0
 11
-307.075080871582
 21
32.4342017173767
 31
0.0
  0
LINE
  5
   39A
  8
0
  6
CONTINUOUS
 62
   210
 10
-307.075080871582
 20
91.4342017173767
 30
0.0
 11
-307.075080871582
 21
103.934201717377
 31
0.0
  0
LINE
  5
   39B
  8
0
  6
CONTINUOUS
 62
     7
 10
-312.575080871582
 20
20.8342032432556
 30
0.0
 11
-331.075103759766
 21
20.8342032432556
 31
0.0
  0
LINE
  5
   39C
  8
0
  6
CONTINUOUS
 62
   210
 10
-312.575080871582
 20
19.4342017173767
 30
0.0
 11
-331.075103759766
 21
19.4342017173767
 31
0.0
  0
LINE
  5
   39D
  8
0
  6
CONTINUOUS
 62
   210
 10
-312.575080871582
 20
104.434201717377
 30
0.0
 11
-331.075103759766
 21
104.434201717377
 31
0.0
  0
LINE
  5
   39E
  8
0
  6
CONTINUOUS
 62
     3
 10
-312.575080871582
 20
103.034207820892
 30
0.0
 11
-331.075103759766
 21
103.034207820892
 31
0.0
  0
LINE
  5
   39F
  8
0
  6
CONTINUOUS
 62
   210
 10
-331.075103759766
 20
19.4342017173767
 30
0.0
 11
-331.075103759766
 21
26.0591864585876
 31
0.0
  0
LINE
  5
   3A0
  8
0
  6
CONTINUOUS
 62
   210
 10
-312.575080871582
 20
19.4342017173767
 30
0.0
 11
-312.575080871582
 21
19.9342017173767
 31
0.0
  0
LINE
  5
   3A1
  8
0
  6
CONTINUOUS
 62
   210
 10
-306.325075435315
 20
33.6841996652503
 30
0.0
 11
-306.325083064709
 21
40.1841996652503
 31
0.0
  0
LINE
  5
   3A2
  8
0
  6
CONTINUOUS
 62
   210
 10
-306.325081025864
 20
83.6841961404722
 30
0.0
 11
-306.325073396469
 21
90.1841961404722
 31
0.0
  0
LINE
  5
   3A3
  8
0
  6
CONTINUOUS
 62
     2
 10
-306.575080871582
 20
90.4342017173767
 30
0.0
 11
-307.325080871582
 21
90.4342017173767
 31
0.0
  0
LINE
  5
   3A4
  8
0
  6
CONTINUOUS
 62
     2
 10
-306.575080871582
 20
33.4342017173767
 30
0.0
 11
-307.325080871582
 21
33.4342017173767
 31
0.0
  0
LINE
  5
   3A5
  8
0
  6
CONTINUOUS
 62
     2
 10
-307.325080871582
 20
90.1842017173767
 30
0.0
 11
-307.325080871582
 21
90.4342017173767
 31
0.0
  0
LINE
  5
   3A6
  8
0
  6
CONTINUOUS
 62
     2
 10
-307.325080871582
 20
40.1842551231384
 30
0.0
 11
-307.325080871582
 21
83.6842017173767
 31
0.0
  0
LINE
  5
   3A7
  8
0
  6
CONTINUOUS
 62
     2
 10
-307.325080871582
 20
33.4342017173767
 30
0.0
 11
-307.325080871582
 21
33.6842398643494
 31
0.0
  0
LINE
  5
   3A8
  8
0
  6
CONTINUOUS
 62
     2
 10
-306.575080871582
 20
33.4342017173767
 30
0.0
 11
-306.575080871582
 21
33.6841940879822
 31
0.0
  0
LINE
  5
   3A9
  8
0
  6
CONTINUOUS
 62
     2
 10
-306.575080871582
 20
40.1841940879822
 30
0.0
 11
-306.575080871582
 21
83.6841635704041
 31
0.0
  0
LINE
  5
   3AA
  8
0
  6
CONTINUOUS
 62
     2
 10
-306.575080871582
 20
90.1841635704041
 30
0.0
 11
-306.575080871582
 21
90.4342017173767
 31
0.0
  0
LINE
  5
   3AB
  8
0
  6
CONTINUOUS
 62
   210
 10
-307.075080871582
 20
32.4342017173767
 30
0.0
 11
-308.325075322774
 21
32.4342017173767
 31
0.0
  0
LINE
  5
   3AC
  8
0
  6
CONTINUOUS
 62
   210
 10
-307.075080871582
 20
19.9342017173767
 30
0.0
 11
-312.575080871582
 21
19.9342017173767
 31
0.0
  0
LINE
  5
   3AD
  8
0
  6
CONTINUOUS
 62
   210
 10
-307.075080871582
 20
91.4342017173767
 30
0.0
 11
-308.325080043587
 21
91.4342017173767
 31
0.0
  0
LINE
  5
   3AE
  8
0
  6
CONTINUOUS
 62
   210
 10
-307.075080871582
 20
103.934201717377
 30
0.0
 11
-310.575088500977
 21
103.934201717377
 31
0.0
  0
LINE
  5
   3AF
  8
0
  6
CONTINUOUS
 62
   210
 10
-306.325073242188
 20
33.6842017173767
 30
0.0
 11
-308.32507321262
 21
33.6842017173767
 31
0.0
  0
LINE
  5
   3B0
  8
0
  6
CONTINUOUS
 62
   210
 10
-306.325080871582
 20
40.1842017173767
 30
0.0
 11
-308.325073981473
 21
40.1842017173767
 31
0.0
  0
LINE
  5
   3B1
  8
0
  6
CONTINUOUS
 62
   210
 10
-306.325073242188
 20
90.1842017173767
 30
0.0
 11
-308.32507989573
 21
90.1842017173767
 31
0.0
  0
LINE
  5
   3B2
  8
0
  6
CONTINUOUS
 62
   210
 10
-306.325080871582
 20
83.6842017173767
 30
0.0
 11
-308.325079126877
 21
83.6842017173767
 31
0.0
  0
LINE
  5
   3B3
  8
0
  6
CONTINUOUS
 62
   210
 10
-307.325080871582
 20
81.9342017173767
 30
0.0
 11
-308.325078919878
 21
81.9342017173767
 31
0.0
  0
LINE
  5
   3B4
  8
0
  6
CONTINUOUS
 62
   210
 10
-307.325080871582
 20
77.9342017173767
 30
0.0
 11
-308.325078446737
 21
77.9342017173767
 31
0.0
  0
LINE
  5
   3B5
  8
0
  6
DASHDOT
 62
     7
 10
-306.325073242188
 20
90.1842017173767
 30
0.0
 11
-306.325073242188
 21
115.193240075951
 31
0.0
  0
LINE
  5
   3B6
  8
0
  6
DASHDOT
 62
     7
 10
-306.325080871582
 20
40.1841996652503
 30
0.0
 11
-306.325080871582
 21
83.6842017173767
 31
0.0
  0
LINE
  5
   3B7
  8
0
  6
DASHDOT
 62
     7
 10
-306.325075435315
 20
7.4094113278592
 30
0.0
 11
-306.325075435315
 21
33.6841996652503
 31
0.0
  0
LINE
  5
   3B8
  8
0
  6
DASHDOT
 62
     7
 10
-304.825080871582
 20
7.36129891685682
 30
0.0
 11
-304.825080871582
 21
115.193240075951
 31
0.0
  0
LINE
  5
   3B9
  8
0
  6
CONTINUOUS
 62
     7
 10
-299.274466605216
 20
115.193240075951
 30
0.0
 11
-309.414157223968
 21
115.193240075951
 31
0.0
  0
LINE
  5
   3BA
  8
0
  6
CONTINUOUS
 62
     7
 10
-302.112252755061
 20
7.30877264887387
 30
0.0
 11
-309.173595168956
 21
7.44549563611099
 31
0.0
  0
LINE
  5
   3BB
  8
0
  6
CONTINUOUS
 62
   210
 10
-310.575088500977
 20
19.9342017173767
 30
0.0
 11
-312.575080871582
 21
19.9342017173767
 31
0.0
  0
LINE
  5
   3BC
  8
0
  6
CONTINUOUS
 62
     7
 10
-312.575080871582
 20
19.9342017173767
 30
0.0
 11
-312.575080871582
 21
28.4340728727739
 31
0.0
  0
LINE
  5
   3BD
  8
0
  6
CONTINUOUS
 62
   210
 10
-312.575080871582
 20
103.934201717377
 30
0.0
 11
-312.575080871582
 21
104.434201717377
 31
0.0
  0
LINE
  5
   3BE
  8
0
  6
CONTINUOUS
 62
     3
 10
-312.575080871582
 20
91.4342017173767
 30
0.0
 11
-312.575080871582
 21
103.934201717377
 31
0.0
  0
LINE
  5
   3BF
  8
0
  6
CONTINUOUS
 62
   210
 10
-310.575088500977
 20
103.934201717377
 30
0.0
 11
-312.575080871582
 21
103.934201717377
 31
0.0
  0
LINE
  5
   3C0
  8
0
  6
DASHDOT
 62
     7
 10
-297.042798744249
 20
86.9342017173767
 30
0.0
 11
-311.29564382262
 21
86.9342017173767
 31
0.0
  0
LINE
  5
   3C1
  8
0
  6
DASHDOT
 62
     7
 10
-297.218238888222
 20
36.9342017173767
 30
0.0
 11
-310.70965933831
 21
36.9342017173767
 31
0.0
  0
LINE
  5
   3C2
  8
0
  6
CONTINUOUS
 62
   130
 10
-395.825039864685
 20
33.9341807412025
 30
0.0
 11
-395.825065613892
 21
35.9341940926429
 31
0.0
  0
LINE
  5
   3C3
  8
0
  6
CONTINUOUS
 62
     3
 10
-388.975715638233
 20
30.4341788311662
 30
0.0
 11
-388.825066090656
 21
30.4341807385149
 31
0.0
  0
LINE
  5
   3C4
  8
0
  6
CONTINUOUS
 62
   130
 10
-395.825065613811
 20
28.434182647367
 30
0.0
 11
-395.825040818279
 21
30.4341750179724
 31
0.0
  0
LINE
  5
   3C5
  8
0
  6
CONTINUOUS
 62
   130
 10
-330.075095922382
 20
28.4341235608806
 30
0.0
 11
-331.075095922382
 21
28.4341865033855
 31
0.0
  0
LINE
  5
   3C6
  8
0
  6
CONTINUOUS
 62
   130
 10
-393.325065612793
 20
28.4341826438904
 30
0.0
 11
-333.575103759765
 21
28.4341864585877
 31
0.0
  0
LINE
  5
   3C7
  8
0
  6
CONTINUOUS
 62
   130
 10
-308.325080871582
 20
98.4341940879822
 30
0.0
 11
-330.075103759766
 21
98.4341940879822
 31
0.0
  0
LINE
  5
   3C8
  8
0
  6
CONTINUOUS
 62
   130
 10
-308.32508087096
 20
28.4340605736726
 30
0.0
 11
-330.075096129749
 21
28.4341235161763
 31
0.0
  0
LINE
  5
   3C9
  8
0
  6
CONTINUOUS
 62
   130
 10
-308.325080871511
 20
28.4340605736214
 30
0.0
 11
-308.325073242116
 21
33.9341692924935
 31
0.0
  0
LINE
  5
   3CA
  8
0
  6
CONTINUOUS
 62
     3
 10
-350.575073242188
 20
82.4342017173767
 30
0.0
 11
-395.825065612793
 21
82.4342017173767
 31
0.0
  0
LINE
  5
   3CB
  8
0
  6
CONTINUOUS
 62
     3
 10
-350.575073242188
 20
67.4341788291931
 30
0.0
 11
-367.825082778931
 21
67.4341788291931
 31
0.0
  0
LINE
  5
   3CC
  8
0
  6
CONTINUOUS
 62
   130
 10
-395.825040817261
 20
30.4341750144977
 30
0.0
 11
-395.825039863587
 21
33.9341807365436
 31
0.0
  0
LINE
  5
   3CD
  8
0
  6
CONTINUOUS
 62
   130
 10
-330.075103759766
 20
98.4341940879822
 30
0.0
 11
-395.825065612793
 21
98.4341940879822
 31
0.0
  0
LINE
  5
   3CE
  8
0
  6
CONTINUOUS
 62
   130
 10
-395.825065612793
 20
82.4342017173767
 30
0.0
 11
-395.825065612793
 21
98.4341940879822
 31
0.0
  0
LINE
  5
   3CF
  8
0
  6
CONTINUOUS
 62
     3
 10
-344.7001037596
 20
30.4342055321146
 30
0.0
 11
-332.075096130205
 21
30.434228420298
 31
0.0
  0
LINE
  5
   3D0
  8
0
  6
CONTINUOUS
 62
     3
 10
-365.137573242174
 20
30.4341940879874
 30
0.0
 11
-346.700103759752
 21
30.4342055320787
 31
0.0
  0
LINE
  5
   3D1
  8
0
  6
CONTINUOUS
 62
     3
 10
-393.825011253351
 20
30.4341750145013
 30
0.0
 11
-367.137572288507
 21
30.4341921806386
 31
0.0
  0
LINE
  5
   3D2
  8
0
  6
CONTINUOUS
 62
     3
 10
-393.825006484979
 20
32.6841807365471
 30
0.0
 11
-367.137571334833
 21
32.684197902685
 31
0.0
  0
LINE
  5
   3D3
  8
0
  6
CONTINUOUS
 62
     3
 10
-365.137571334825
 20
32.6841998100336
 30
0.0
 11
-346.700099945055
 21
32.684211254125
 31
0.0
  0
LINE
  5
   3D4
  8
0
  6
CONTINUOUS
 62
     3
 10
-344.70009994505
 20
32.6842131614734
 30
0.0
 11
-332.075096130353
 21
32.684220790868
 31
0.0
  0
LINE
  5
   3D5
  8
0
  6
CONTINUOUS
 62
     3
 10
-393.825011253373
 20
30.4341750145666
 30
0.0
 11
-393.825007438676
 21
32.6841807366125
 31
0.0
  0
LINE
  5
   3D6
  8
0
  6
CONTINUOUS
 62
     3
 10
-332.075096130371
 20
30.4342284202576
 30
0.0
 11
-332.075096130371
 21
32.684220790863
 31
0.0
  0
LINE
  5
   3D7
  8
0
  6
CONTINUOUS
 62
     3
 10
-344.700103759711
 20
30.4342055321512
 30
0.0
 11
-344.700099945014
 21
32.6842226982889
 31
0.0
  0
LINE
  5
   3D8
  8
0
  6
CONTINUOUS
 62
     3
 10
-346.700103759714
 20
30.4342055321447
 30
0.0
 11
-346.700099945017
 21
32.6842207909338
 31
0.0
  0
LINE
  5
   3D9
  8
0
  6
CONTINUOUS
 62
     3
 10
-365.137573242181
 20
30.4341940880015
 30
0.0
 11
-365.137571334833
 21
32.6842093467906
 31
0.0
  0
LINE
  5
   3DA
  8
0
  6
CONTINUOUS
 62
     3
 10
-367.137572288508
 20
30.4341921806512
 30
0.0
 11
-367.137570381159
 21
32.6842093467889
 31
0.0
  0
LINE
  5
   3DB
  8
0
  6
CONTINUOUS
 62
   130
 10
-379.825066328049
 20
26.4341864585876
 30
0.0
 11
-379.825066328049
 21
28.4341864585876
 31
0.0
  0
LINE
  5
   3DC
  8
0
  6
CONTINUOUS
 62
   130
 10
-377.82506608963
 20
26.4341864585876
 30
0.0
 11
-377.82506608963
 21
28.4341864585876
 31
0.0
  0
LINE
  5
   3DD
  8
0
  6
CONTINUOUS
 62
   130
 10
-377.82506608963
 20
26.4341864585876
 30
0.0
 11
-379.825066328049
 21
26.4341864585876
 31
0.0
  0
LINE
  5
   3DE
  8
0
  6
CONTINUOUS
 62
   130
 10
-337.950065612793
 20
26.4342131614685
 30
0.0
 11
-337.950065612793
 21
28.4341788291931
 31
0.0
  0
LINE
  5
   3DF
  8
0
  6
CONTINUOUS
 62
   130
 10
-335.950065612793
 20
26.4342131614685
 30
0.0
 11
-335.950065612793
 21
28.4341788291931
 31
0.0
  0
LINE
  5
   3E0
  8
0
  6
CONTINUOUS
 62
   130
 10
-335.950065612793
 20
26.4342131614685
 30
0.0
 11
-337.950065612793
 21
26.4342131614685
 31
0.0
  0
LINE
  5
   3E1
  8
0
  6
CONTINUOUS
 62
   130
 10
-393.325065612793
 20
26.0591864585876
 30
0.0
 11
-393.325065612793
 21
27.3091864585876
 31
0.0
  0
LINE
  5
   3E2
  8
0
  6
CONTINUOUS
 62
   130
 10
-395.825065612793
 20
26.0591864585876
 30
0.0
 11
-395.825065612793
 21
28.4341826438904
 31
0.0
  0
LINE
  5
   3E3
  8
0
  6
CONTINUOUS
 62
   130
 10
-393.325065612793
 20
26.0591864585876
 30
0.0
 11
-395.825065612793
 21
26.0591864585876
 31
0.0
  0
LINE
  5
   3E4
  8
0
  6
CONTINUOUS
 62
   130
 10
-393.325065612793
 20
27.3091864585876
 30
0.0
 11
-393.325065612793
 21
28.4341864585876
 31
0.0
  0
LINE
  5
   3E5
  8
0
  6
CONTINUOUS
 62
   130
 10
-333.57511138916
 20
26.0591864585876
 30
0.0
 11
-333.57511138916
 21
27.3091864585876
 31
0.0
  0
LINE
  5
   3E6
  8
0
  6
CONTINUOUS
 62
   130
 10
-331.07511138916
 20
26.0591864585876
 30
0.0
 11
-333.57511138916
 21
26.0591864585876
 31
0.0
  0
LINE
  5
   3E7
  8
0
  6
CONTINUOUS
 62
   130
 10
-331.075111388097
 20
26.0591864594233
 30
0.0
 11
-331.075096129308
 21
28.4341864594233
 31
0.0
  0
LINE
  5
   3E8
  8
0
  6
CONTINUOUS
 62
   130
 10
-333.575111388033
 20
27.3091864595762
 30
0.0
 11
-333.575103758639
 21
28.4341788301817
 31
0.0
  0
LINE
  5
   3E9
  8
0
  6
CONTINUOUS
 62
     3
 10
-392.325069362027
 20
88.1842103450822
 30
0.0
 11
-393.825069394978
 21
89.6842103780331
 31
0.0
  0
LINE
  5
   3EA
  8
0
  6
CONTINUOUS
 62
   130
 10
-395.825065612793
 20
35.9341940879822
 30
0.0
 11
-395.825065612793
 21
67.4341902732849
 31
0.0
  0
LINE
  5
   3EB
  8
0
  6
CONTINUOUS
 62
     3
 10
-367.82508468628
 20
67.4341864585883
 30
0.0
 11
-395.825065612793
 21
67.4341902732855
 31
0.0
  0
LINE
  5
   3EC
  8
0
  6
CONTINUOUS
 62
     3
 10
-350.575073242188
 20
67.4341788291931
 30
0.0
 11
-350.575073242188
 21
82.4342017173767
 31
0.0
  0
LINE
  5
   3ED
  8
0
  6
CONTINUOUS
 62
     3
 10
-388.07506608963
 20
82.1842017173767
 30
0.0
 11
-388.07506608963
 21
82.4342017173767
 31
0.0
  0
LINE
  5
   3EE
  8
0
  6
CONTINUOUS
 62
     3
 10
-344.700103759747
 20
91.8091940879977
 30
0.0
 11
-332.075096130353
 21
91.8092017173924
 31
0.0
  0
LINE
  5
   3EF
  8
0
  6
CONTINUOUS
 62
     3
 10
-344.700103759766
 20
88.1841940879822
 30
0.0
 11
-344.700103759766
 21
91.8091940879822
 31
0.0
  0
LINE
  5
   3F0
  8
0
  6
CONTINUOUS
 62
     3
 10
-344.700103759747
 20
88.184194087997
 30
0.0
 11
-332.075096130353
 21
88.1842017173918
 31
0.0
  0
LINE
  5
   3F1
  8
0
  6
CONTINUOUS
 62
     3
 10
-332.075096130371
 20
88.1842017173767
 30
0.0
 11
-332.075096130371
 21
91.8092017173767
 31
0.0
  0
LINE
  5
   3F2
  8
0
  6
CONTINUOUS
 62
     3
 10
-367.137572288513
 20
88.1842017173767
 30
0.0
 11
-367.137572288513
 21
91.8092017173767
 31
0.0
  0
LINE
  5
   3F3
  8
0
  6
CONTINUOUS
 62
     3
 10
-346.700103759766
 20
88.1842017173767
 30
0.0
 11
-367.137573242188
 21
88.1842017173767
 31
0.0
  0
LINE
  5
   3F4
  8
0
  6
CONTINUOUS
 62
     3
 10
-346.700103759766
 20
88.1842017173767
 30
0.0
 11
-346.700103759766
 21
91.8092017173767
 31
0.0
  0
LINE
  5
   3F5
  8
0
  6
CONTINUOUS
 62
     3
 10
-346.700103759766
 20
91.8092017173767
 30
0.0
 11
-367.137573242188
 21
91.8092017173767
 31
0.0
  0
LINE
  5
   3F6
  8
0
  6
CONTINUOUS
 62
     3
 10
-369.137572288513
 20
88.1842017173767
 30
0.0
 11
-393.825064659119
 21
88.1842017173767
 31
0.0
  0
LINE
  5
   3F7
  8
0
  6
CONTINUOUS
 62
     3
 10
-369.137572288513
 20
88.1842017173767
 30
0.0
 11
-369.137572288513
 21
91.8092017173767
 31
0.0
  0
LINE
  5
   3F8
  8
0
  6
CONTINUOUS
 62
     3
 10
-369.137572288513
 20
91.8092017173767
 30
0.0
 11
-393.825064659119
 21
91.8092017173767
 31
0.0
  0
LINE
  5
   3F9
  8
0
  6
CONTINUOUS
 62
     3
 10
-393.825065612793
 20
88.1842017173767
 30
0.0
 11
-393.825065612793
 21
91.8092017173767
 31
0.0
  0
LINE
  5
   3FA
  8
0
  6
CONTINUOUS
 62
     3
 10
-388.82506608963
 20
30.4341807365418
 30
0.0
 11
-388.82506608963
 21
32.6841921806335
 31
0.0
  0
LINE
  5
   3FB
  8
0
  6
CONTINUOUS
 62
     3
 10
-386.825064659119
 20
30.4341807365418
 30
0.0
 11
-386.825064659119
 21
32.6841940879822
 31
0.0
  0
LINE
  5
   3FC
  8
0
  6
CONTINUOUS
 62
     3
 10
-393.824870109559
 20
30.4341616630598
 30
0.0
 11
-393.824869155885
 21
32.6841807365462
 31
0.0
  0
LINE
  5
   3FD
  8
0
  6
CONTINUOUS
 62
   130
 10
-395.825065612889
 20
28.4341559413386
 30
0.0
 11
-395.825063705541
 21
28.9341921809626
 31
0.0
  0
LINE
  5
   3FE
  8
0
  6
CONTINUOUS
 62
   130
 10
-330.075099932845
 20
28.4341235187158
 30
0.0
 11
-331.075096118147
 21
28.4341387775049
 31
0.0
  0
LINE
  5
   3FF
  8
0
  6
CONTINUOUS
 62
   130
 10
-308.325073242187
 20
33.9341692924503
 30
0.0
 11
-308.325080871581
 21
98.434192180634
 31
0.0
  0
LINE
  5
   400
  8
0
  6
CONTINUOUS
 62
     3
 10
-344.674072265625
 20
30.4341959953308
 30
0.0
 11
-344.674072265625
 21
32.6842131614685
 31
0.0
  0
LINE
  5
   401
  8
0
  6
CONTINUOUS
 62
     3
 10
-346.700710296631
 20
30.4341731071472
 30
0.0
 11
-346.700710296631
 21
32.6842112541199
 31
0.0
  0
LINE
  5
   402
  8
0
  6
CONTINUOUS
 62
     3
 10
-357.825065612793
 20
82.1842017173767
 30
0.0
 11
-395.825065612793
 21
82.1842017173767
 31
0.0
  0
LINE
  5
   403
  8
0
  6
CONTINUOUS
 62
     3
 10
-357.825065612793
 20
67.4341788291931
 30
0.0
 11
-357.825065612793
 21
82.1842017173767
 31
0.0
  0
LINE
  5
   404
  8
0
  6
CONTINUOUS
 62
     7
 10
-395.825065612793
 20
67.4341902732849
 30
0.0
 11
-395.825065612793
 21
82.1842017173767
 31
0.0
  0
LINE
  5
   405
  8
0
  6
CONTINUOUS
 62
     3
 10
-392.325006484986
 20
30.4341883659411
 30
0.0
 11
-392.325007438661
 21
32.6841902732897
 31
0.0
  0
LINE
  5
   406
  8
0
  6
CONTINUOUS
 62
     3
 10
-332.075096130371
 20
88.9342017173767
 30
0.0
 11
-344.700096130371
 21
88.9342017173767
 31
0.0
  0
LINE
  5
   407
  8
0
  6
CONTINUOUS
 62
     3
 10
-346.700099945068
 20
88.9342017173767
 30
0.0
 11
-367.137567520142
 21
88.9342017173767
 31
0.0
  0
LINE
  5
   408
  8
0
  6
CONTINUOUS
 62
     3
 10
-369.137567520142
 20
88.9342017173767
 30
0.0
 11
-392.325065612793
 21
88.9342017173767
 31
0.0
  0
LINE
  5
   409
  8
0
  6
CONTINUOUS
 62
     3
 10
-392.700063811601
 20
88.5592097574225
 30
0.0
 11
-392.325063803364
 21
88.9342097656602
 31
0.0
  0
LINE
  5
   40A
  8
0
  6
CONTINUOUS
 62
     3
 10
-392.325065612793
 20
88.9342017173767
 30
0.0
 11
-392.325065612793
 21
91.8092017173767
 31
0.0
  0
LINE
  5
   40B
  8
0
  6
CONTINUOUS
 62
   210
 10
-331.075103759766
 20
98.4341940879822
 30
0.0
 11
-331.075103759766
 21
104.434201717377
 31
0.0
  0
LINE
  5
   40C
  8
0
  6
CONTINUOUS
 62
     7
 10
-332.075103759766
 20
98.4341940879822
 30
0.0
 11
-332.075103759766
 21
105.684201717377
 31
0.0
  0
LINE
  5
   40D
  8
0
  6
CONTINUOUS
 62
     3
 10
-368.075103759766
 20
98.4341940879822
 30
0.0
 11
-368.075103759766
 21
104.434201717377
 31
0.0
  0
LINE
  5
   40E
  8
0
  6
CONTINUOUS
 62
     5
 10
-404.07506942749
 20
34.8067965507507
 30
0.0
 11
-404.07506942749
 21
81.0592226982117
 31
0.0
  0
LINE
  5
   40F
  8
0
  6
CONTINUOUS
 62
     5
 10
-404.07506942749
 20
86.0592246055603
 30
0.0
 11
-404.07506942749
 21
86.8113226890564
 31
0.0
  0
LINE
  5
   410
  8
0
  6
CONTINUOUS
 62
     5
 10
-404.075215997705
 20
34.8089223465871
 30
0.0
 11
-404.075072946563
 21
34.80994659283
 31
0.0
  0
CIRCLE
  5
   411
  8
0
  6
CONTINUOUS
 62
   130
 10
-318.575096450385
 20
86.9342015462857
 30
0.0
 40
2.99999812213175
  0
CIRCLE
  5
   412
  8
0
  6
CONTINUOUS
 62
   130
 10
-318.575108868495
 20
86.9341884010994
 30
0.0
 40
1.62500202357016
  0
CIRCLE
  5
   413
  8
0
  6
CONTINUOUS
 62
   130
 10
-318.575095820726
 20
36.9341882497203
 30
0.0
 40
3.00000517901822
  0
CIRCLE
  5
   414
  8
0
  6
CONTINUOUS
 62
   130
 10
-318.575093243827
 20
36.9341940818575
 30
0.0
 40
1.6250005357144
  0
CIRCLE
  5
   415
  8
0
  6
CONTINUOUS
 62
   130
 10
-389.825109906023
 20
59.9341607106966
 30
0.0
 40
5.00000884371507
  0
CIRCLE
  5
   416
  8
0
  6
CONTINUOUS
 62
   130
 10
-389.825105148144
 20
59.9341718684492
 30
0.0
 40
1.37499873140776
  0
LINE
  5
   417
  8
0
  6
DASHDOT
 62
     7
 10
-389.825109906023
 20
53.4341518669816
 30
0.0
 11
-389.825109906023
 21
66.4341695544117
 31
0.0
  0
LINE
  5
   418
  8
0
  6
DASHDOT
 62
     7
 10
-383.325101062307
 20
59.9341607106966
 30
0.0
 11
-396.325118749738
 21
59.9341607106966
 31
0.0
  0
LINE
  5
   419
  8
0
  6
DASHDOT
 62
     7
 10
-318.575096450385
 20
82.434203424154
 30
0.0
 11
-318.575096450385
 21
91.4341996684175
 31
0.0
  0
LINE
  5
   41A
  8
0
  6
DASHDOT
 62
     7
 10
-314.075098328253
 20
86.9342015462857
 30
0.0
 11
-323.075094572516
 21
86.9342015462857
 31
0.0
  0
LINE
  5
   41B
  8
0
  6
DASHDOT
 62
     7
 10
-318.575095820726
 20
32.4341830707021
 30
0.0
 11
-318.575095820726
 21
41.4341934287385
 31
0.0
  0
LINE
  5
   41C
  8
0
  6
DASHDOT
 62
     7
 10
-314.075090641708
 20
36.9341882497203
 30
0.0
 11
-323.075100999744
 21
36.9341882497203
 31
0.0
  0
LINE
  5
   41D
  8
0
  6
CONTINUOUS
 62
     3
 10
-397.325071334839
 20
43.9342360496521
 30
0.0
 11
-397.325071334839
 21
50.4341368675232
 31
0.0
  0
LINE
  5
   41E
  8
0
  6
CONTINUOUS
 62
     1
 10
-402.325071334839
 20
20.5591349601746
 30
0.0
 11
-402.325071334839
 21
101.059134960175
 31
0.0
  0
LINE
  5
   41F
  8
0
  6
CONTINUOUS
 62
     1
 10
-402.325071334839
 20
20.5591349601746
 30
0.0
 11
-404.075071334839
 21
20.5591349601746
 31
0.0
  0
LINE
  5
   420
  8
0
  6
CONTINUOUS
 62
     1
 10
-404.075071334839
 20
20.5591349601746
 30
0.0
 11
-404.075071334839
 21
42.9341368675232
 31
0.0
  0
LINE
  5
   421
  8
0
  6
CONTINUOUS
 62
     1
 10
-404.075071334839
 20
51.4341368675232
 30
0.0
 11
-404.075071334839
 21
101.059133052826
 31
0.0
  0
LINE
  5
   422
  8
0
  6
CONTINUOUS
 62
     1
 10
-402.325071334839
 20
101.059133052826
 30
0.0
 11
-404.075071334839
 21
101.059133052826
 31
0.0
  0
LINE
  5
   423
  8
0
  6
CONTINUOUS
 62
     1
 10
-401.325071334839
 20
62.3091368675232
 30
0.0
 11
-401.325071334839
 21
91.8091330528259
 31
0.0
  0
LINE
  5
   424
  8
0
  6
CONTINUOUS
 62
     1
 10
-401.325071334839
 20
50.4341406822205
 30
0.0
 11
-401.325071334839
 21
59.3091406822205
 31
0.0
  0
LINE
  5
   425
  8
0
  6
CONTINUOUS
 62
     1
 10
-401.325071334839
 20
29.8091349601746
 30
0.0
 11
-401.325071334839
 21
43.9341406822205
 31
0.0
  0
LINE
  5
   426
  8
0
  6
CONTINUOUS
 62
     3
 10
-399.075071334839
 20
24.0978102684021
 30
0.0
 11
-399.075071334839
 21
26.520459651947
 31
0.0
  0
LINE
  5
   427
  8
0
  6
CONTINUOUS
 62
     3
 10
-399.075071334839
 20
95.0978064537048
 30
0.0
 11
-399.075071334839
 21
97.520459651947
 31
0.0
  0
LINE
  5
   428
  8
0
  6
CONTINUOUS
 62
     3
 10
-399.075071334839
 20
59.5978102684021
 30
0.0
 11
-399.075071334839
 21
62.020459651947
 31
0.0
  0
LINE
  5
   429
  8
0
  6
CONTINUOUS
 62
     3
 10
-403.575071334839
 20
42.9341368675232
 30
0.0
 11
-404.075071334839
 21
42.9341368675232
 31
0.0
  0
LINE
  5
   42A
  8
0
  6
CONTINUOUS
 62
     3
 10
-403.575071334839
 20
42.9341368675232
 30
0.0
 11
-403.575071334839
 21
51.4341368675232
 31
0.0
  0
LINE
  5
   42B
  8
0
  6
CONTINUOUS
 62
     3
 10
-403.575071334839
 20
51.4341368675232
 30
0.0
 11
-404.075071334839
 21
51.4341368675232
 31
0.0
  0
LINE
  5
   42C
  8
0
  6
CONTINUOUS
 62
     3
 10
-403.575071334839
 20
41.4341368675232
 30
0.0
 11
-403.575071334839
 21
42.9341368675232
 31
0.0
  0
LINE
  5
   42D
  8
0
  6
CONTINUOUS
 62
     3
 10
-403.575071334839
 20
51.4341368675232
 30
0.0
 11
-403.575071334839
 21
52.9341368675232
 31
0.0
  0
LINE
  5
   42E
  8
0
  6
CONTINUOUS
 62
     3
 10
-403.075071334839
 20
41.4341368675232
 30
0.0
 11
-403.575071334839
 21
41.4341368675232
 31
0.0
  0
LINE
  5
   42F
  8
0
  6
CONTINUOUS
 62
     3
 10
-403.075071334839
 20
41.4341368675232
 30
0.0
 11
-403.075071334839
 21
52.9341368675232
 31
0.0
  0
LINE
  5
   430
  8
0
  6
CONTINUOUS
 62
     3
 10
-403.075071334839
 20
52.9341368675232
 30
0.0
 11
-403.575071334839
 21
52.9341368675232
 31
0.0
  0
LINE
  5
   431
  8
0
  6
CONTINUOUS
 62
     3
 10
-397.325071334839
 20
43.9342360496521
 30
0.0
 11
-402.325071334839
 21
43.9342360496521
 31
0.0
  0
LINE
  5
   432
  8
0
  6
CONTINUOUS
 62
     3
 10
-397.325071334839
 20
50.4341368675232
 30
0.0
 11
-402.325071334839
 21
50.4341368675232
 31
0.0
  0
LINE
  5
   433
  8
0
  6
CONTINUOUS
 62
     1
 10
-404.075071334839
 20
42.9341368675232
 30
0.0
 11
-404.075071334839
 21
51.4341368675232
 31
0.0
  0
LINE
  5
   434
  8
0
  6
CONTINUOUS
 62
     3
 10
-399.575071334839
 20
23.8091349601746
 30
0.0
 11
-402.325071334839
 21
23.8091349601746
 31
0.0
  0
LINE
  5
   435
  8
0
  6
CONTINUOUS
 62
     3
 10
-399.575071334839
 20
26.8091349601746
 30
0.0
 11
-402.325071334839
 21
26.8091349601746
 31
0.0
  0
LINE
  5
   436
  8
0
  6
CONTINUOUS
 62
     1
 10
-399.575071334839
 20
26.6949534416199
 30
0.0
 11
-399.575071334839
 21
26.8091349601746
 31
0.0
  0
LINE
  5
   437
  8
0
  6
CONTINUOUS
 62
     3
 10
-399.575071334839
 20
26.3697943687439
 30
0.0
 11
-399.575071334839
 21
26.6949534416199
 31
0.0
  0
LINE
  5
   438
  8
0
  6
CONTINUOUS
 62
     3
 10
-399.575071334839
 20
25.8831610679627
 30
0.0
 11
-399.575071334839
 21
26.3697943687439
 31
0.0
  0
LINE
  5
   439
  8
0
  6
CONTINUOUS
 62
     3
 10
-399.575071334839
 20
25.3091349601746
 30
0.0
 11
-399.575071334839
 21
25.8831610679627
 31
0.0
  0
LINE
  5
   43A
  8
0
  6
CONTINUOUS
 62
     3
 10
-399.575071334839
 20
24.7351107597351
 30
0.0
 11
-399.575071334839
 21
25.3091349601746
 31
0.0
  0
LINE
  5
   43B
  8
0
  6
CONTINUOUS
 62
     3
 10
-399.575071334839
 20
24.2484755516052
 30
0.0
 11
-399.575071334839
 21
24.7351107597351
 31
0.0
  0
LINE
  5
   43C
  8
0
  6
CONTINUOUS
 62
     3
 10
-399.575071334839
 20
23.9233164787293
 30
0.0
 11
-399.575071334839
 21
24.2484755516052
 31
0.0
  0
LINE
  5
   43D
  8
0
  6
CONTINUOUS
 62
     3
 10
-399.575071334839
 20
23.8091349601746
 30
0.0
 11
-399.575071334839
 21
23.9233164787293
 31
0.0
  0
LINE
  5
   43E
  8
0
  6
CONTINUOUS
 62
     3
 10
-399.575070735535
 20
23.8091345472229
 30
0.0
 11
-399.07507071907
 21
24.0978098394794
 31
0.0
  0
LINE
  5
   43F
  8
0
  6
CONTINUOUS
 62
     3
 10
-399.075070258324
 20
26.5204587508083
 30
0.0
 11
-399.575070274788
 21
26.8091340430648
 31
0.0
  0
LINE
  5
   440
  8
0
  6
CONTINUOUS
 62
     3
 10
-399.575071334839
 20
94.8091330528259
 30
0.0
 11
-402.325071334839
 21
94.8091330528259
 31
0.0
  0
LINE
  5
   441
  8
0
  6
CONTINUOUS
 62
     3
 10
-399.575071334839
 20
97.8091330528259
 30
0.0
 11
-402.325071334839
 21
97.8091330528259
 31
0.0
  0
LINE
  5
   442
  8
0
  6
CONTINUOUS
 62
     3
 10
-399.575071334839
 20
97.6949515342712
 30
0.0
 11
-399.575071334839
 21
97.8091330528259
 31
0.0
  0
LINE
  5
   443
  8
0
  6
CONTINUOUS
 62
     3
 10
-399.575071334839
 20
97.3697943687439
 30
0.0
 11
-399.575071334839
 21
97.6949515342712
 31
0.0
  0
LINE
  5
   444
  8
0
  6
CONTINUOUS
 62
     3
 10
-399.575071334839
 20
96.8831610679626
 30
0.0
 11
-399.575071334839
 21
97.3697943687439
 31
0.0
  0
LINE
  5
   445
  8
0
  6
CONTINUOUS
 62
     3
 10
-399.575071334839
 20
96.3091330528259
 30
0.0
 11
-399.575071334839
 21
96.8831610679626
 31
0.0
  0
LINE
  5
   446
  8
0
  6
CONTINUOUS
 62
     3
 10
-399.575071334839
 20
95.7351126670837
 30
0.0
 11
-399.575071334839
 21
96.3091330528259
 31
0.0
  0
LINE
  5
   447
  8
0
  6
CONTINUOUS
 62
     3
 10
-399.575071334839
 20
95.248471736908
 30
0.0
 11
-399.575071334839
 21
95.7351126670837
 31
0.0
  0
LINE
  5
   448
  8
0
  6
CONTINUOUS
 62
     3
 10
-399.575071334839
 20
94.9233145713806
 30
0.0
 11
-399.575071334839
 21
95.248471736908
 31
0.0
  0
LINE
  5
   449
  8
0
  6
CONTINUOUS
 62
     3
 10
-399.575071334839
 20
94.8091330528259
 30
0.0
 11
-399.575071334839
 21
94.9233145713806
 31
0.0
  0
LINE
  5
   44A
  8
0
  6
CONTINUOUS
 62
     3
 10
-399.575071425546
 20
94.8091319802588
 30
0.0
 11
-399.075071409082
 21
95.0978053847571
 31
0.0
  0
LINE
  5
   44B
  8
0
  6
CONTINUOUS
 62
     3
 10
-399.075070599917
 20
97.520458385033
 30
0.0
 11
-399.57507061638
 21
97.8091317895312
 31
0.0
  0
LINE
  5
   44C
  8
0
  6
CONTINUOUS
 62
     3
 10
-399.575071334839
 20
59.3091368675232
 30
0.0
 11
-402.325071334839
 21
59.3091368675232
 31
0.0
  0
LINE
  5
   44D
  8
0
  6
CONTINUOUS
 62
     3
 10
-399.575071334839
 20
62.3091368675232
 30
0.0
 11
-402.325071334839
 21
62.3091368675232
 31
0.0
  0
LINE
  5
   44E
  8
0
  6
CONTINUOUS
 62
     3
 10
-399.575071334839
 20
62.1949553489685
 30
0.0
 11
-399.575071334839
 21
62.3091368675232
 31
0.0
  0
LINE
  5
   44F
  8
0
  6
CONTINUOUS
 62
     3
 10
-399.575071334839
 20
61.8697943687439
 30
0.0
 11
-399.575071334839
 21
62.1949553489685
 31
0.0
  0
LINE
  5
   450
  8
0
  6
CONTINUOUS
 62
     3
 10
-399.575071334839
 20
61.3831610679626
 30
0.0
 11
-399.575071334839
 21
61.8697943687439
 31
0.0
  0
LINE
  5
   451
  8
0
  6
CONTINUOUS
 62
     3
 10
-399.575071334839
 20
60.8091368675232
 30
0.0
 11
-399.575071334839
 21
61.3831610679626
 31
0.0
  0
LINE
  5
   452
  8
0
  6
CONTINUOUS
 62
     3
 10
-399.575071334839
 20
60.2351088523865
 30
0.0
 11
-399.575071334839
 21
60.8091368675232
 31
0.0
  0
LINE
  5
   453
  8
0
  6
CONTINUOUS
 62
     3
 10
-399.575071334839
 20
59.7484755516052
 30
0.0
 11
-399.575071334839
 21
60.2351088523865
 31
0.0
  0
LINE
  5
   454
  8
0
  6
CONTINUOUS
 62
     3
 10
-399.575071334839
 20
59.4233145713806
 30
0.0
 11
-399.575071334839
 21
59.7484755516052
 31
0.0
  0
LINE
  5
   455
  8
0
  6
CONTINUOUS
 62
     3
 10
-399.575071334839
 20
59.3091368675232
 30
0.0
 11
-399.575071334839
 21
59.4233145713806
 31
0.0
  0
LINE
  5
   456
  8
0
  6
CONTINUOUS
 62
     3
 10
-399.575071266831
 20
59.3091362531278
 30
0.0
 11
-399.075071250367
 21
59.597809657626
 31
0.0
  0
LINE
  5
   457
  8
0
  6
CONTINUOUS
 62
     3
 10
-399.075070535039
 20
62.0204585263527
 30
0.0
 11
-399.575070551502
 21
62.309135740785
 31
0.0
  0
LINE
  5
   458
  8
0
  6
CONTINUOUS
 62
     7
 10
-402.325071334839
 20
101.059133052826
 30
0.0
 11
-402.325071334839
 21
128.352286246002
 31
0.0
  0
LINE
  5
   459
  8
0
  6
CONTINUOUS
 62
     7
 10
-401.325071334839
 20
91.8091330528259
 30
0.0
 11
-401.325071334839
 21
94.8091330528259
 31
0.0
  0
LINE
  5
   45A
  8
0
  6
CONTINUOUS
 62
     7
 10
-402.325071334839
 20
-12.8643940123835
 30
0.0
 11
-402.325071334839
 21
20.5591349601746
 31
0.0
  0
LINE
  5
   45B
  8
0
  6
CONTINUOUS
 62
     7
 10
-401.325071334839
 20
-12.5712905641077
 30
0.0
 11
-401.325071334839
 21
23.8091349601746
 31
0.0
  0
LINE
  5
   45C
  8
0
  6
CONTINUOUS
 62
     3
 10
-405.747130626398
 20
-13.8674113909439
 30
0.0
 11
-398.110884442965
 21
-11.6292013026963
 31
0.0
  0
LINE
  5
   45D
  8
0
  6
CONTINUOUS
 62
     3
 10
-405.483811792486
 20
127.798121253432
 30
0.0
 11
-397.979225026009
 21
129.11471542299
 31
0.0
  0
LINE
  5
   45E
  8
0
  6
CONTINUOUS
 62
     7
 10
-401.325071334839
 20
98.0591330528259
 30
0.0
 11
-402.325071334839
 21
98.0591330528259
 31
0.0
  0
LINE
  5
   45F
  8
0
  6
CONTINUOUS
 62
     7
 10
-401.325071334839
 20
94.5591330528259
 30
0.0
 11
-402.325071334839
 21
94.5591330528259
 31
0.0
  0
LINE
  5
   460
  8
0
  6
CONTINUOUS
 62
     7
 10
-401.325071334839
 20
50.6841368675232
 30
0.0
 11
-402.325071334839
 21
50.6841368675232
 31
0.0
  0
LINE
  5
   461
  8
0
  6
CONTINUOUS
 62
     7
 10
-401.325071334839
 20
59.0591368675232
 30
0.0
 11
-402.325071334839
 21
59.0591368675232
 31
0.0
  0
LINE
  5
   462
  8
0
  6
CONTINUOUS
 62
     7
 10
-401.325071334839
 20
62.5591368675232
 30
0.0
 11
-402.325071334839
 21
62.5591368675232
 31
0.0
  0
LINE
  5
   463
  8
0
  6
CONTINUOUS
 62
     7
 10
-401.325071334839
 20
43.6842360496521
 30
0.0
 11
-402.325071334839
 21
43.6842360496521
 31
0.0
  0
LINE
  5
   464
  8
0
  6
CONTINUOUS
 62
     7
 10
-401.325071334839
 20
97.8091330528259
 30
0.0
 11
-401.325071334839
 21
128.527724842493
 31
0.0
  0
LINE
  5
   465
  8
0
  6
CONTINUOUS
 62
     7
 10
-401.325071334839
 20
26.8091349601746
 30
0.0
 11
-401.325071334839
 21
29.8091349601746
 31
0.0
  0
LINE
  5
   466
  8
0
  6
CONTINUOUS
 62
     7
 10
-401.325071334839
 20
27.0591349601746
 30
0.0
 11
-402.325071334839
 21
27.0591349601746
 31
0.0
  0
LINE
  5
   467
  8
0
  6
CONTINUOUS
 62
     7
 10
-401.325071334839
 20
23.5591349601746
 30
0.0
 11
-402.325071334839
 21
23.5591349601746
 31
0.0
  0
INSERT
  5
   468
  8
0
  6
CONTINUOUS
 62
     7
  2
*HATCH7
 10
-382.575073242188
 20
5.81567144393921
 30
0.0
 41
0.5
 42
0.5
 50
89.9999999480344
 43
0.5
  0
INSERT
  5
   469
  8
0
  6
CONTINUOUS
 62
     7
  2
*HATCH8
 10
-382.575073242188
 20
5.81567144393921
 30
0.0
 41
0.5
 42
0.5
 50
89.9999999480344
 43
0.5
  0
INSERT
  5
   46A
  8
0
  6
CONTINUOUS
 62
     7
  2
*HATCH9
 10
-382.575073242188
 20
5.81567144393921
 30
0.0
 41
0.5
 42
0.5
 50
89.9999999480344
 43
0.5
  0
INSERT
  5
   46B
  8
0
  6
CONTINUOUS
 62
     7
  2
*HATCH10
 10
-382.575073242188
 20
5.81567144393921
 30
0.0
 41
0.5
 42
0.5
 50
89.9999999480344
 43
0.5
  0
INSERT
  5
   46C
  8
0
  6
CONTINUOUS
 62
     7
  2
*HATCH11
 10
-382.575073242188
 20
5.81567144393921
 30
0.0
 41
0.5
 42
0.5
 50
89.9999999480344
 43
0.5
  0
INSERT
  5
   46D
  8
0
  6
CONTINUOUS
 62
     7
  2
*HATCH12
 10
-382.575073242188
 20
5.81567144393921
 30
0.0
 41
0.5
 42
0.5
 50
89.9999999480344
 43
0.5
  0
INSERT
  5
   46E
  8
0
  6
CONTINUOUS
 62
     7
  2
*HATCH13
 10
-382.575073242188
 20
5.81567144393921
 30
0.0
 41
0.5
 42
0.5
 50
89.9999999480344
 43
0.5
  0
LINE
  5
   46F
  8
0
  6
CONTINUOUS
 62
     7
 10
-332.075103759766
 20
105.684201717377
 30
0.0
 11
-381.325103760362
 21
105.684201717377
 31
0.0
  0
LINE
  5
   470
  8
0
  6
CONTINUOUS
 62
     7
 10
-381.825103760362
 20
98.4341940879822
 30
0.0
 11
-381.825103760362
 21
105.184201717377
 31
0.0
  0
LINE
  5
   471
  8
0
  6
CONTINUOUS
 62
     7
 10
-381.825103760362
 20
18.6842093467712
 30
0.0
 11
-381.825103760362
 21
28.434183378098
 31
0.0
  0
LINE
  5
   472
  8
0
  6
CONTINUOUS
 62
     7
 10
-332.075103759766
 20
18.1842093467712
 30
0.0
 11
-381.325103760362
 21
18.1842093467712
 31
0.0
  0
ARC
  5
   473
  8
0
  6
CONTINUOUS
 62
     7
 10
-381.325103760362
 20
18.6842093467712
 30
0.0
 40
0.5
 50
179.999999948034
 51
269.999999948034
  0
ARC
  5
   474
  8
0
  6
CONTINUOUS
 62
     7
 10
-381.325103760362
 20
105.184201717377
 30
0.0
 40
0.5
 50
89.9999999480344
 51
179.999999948034
  0
LINE
  5
   475
  8
0
  6
CONTINUOUS
 62
     7
 10
-395.825065612793
 20
87.0592017173767
 30
0.0
 11
-401.325071334839
 21
87.0592017173767
 31
0.0
  0
LINE
  5
   476
  8
0
  6
CONTINUOUS
 62
     7
 10
-395.825065612793
 20
34.5592017173767
 30
0.0
 11
-401.325071334839
 21
34.5592017173767
 31
0.0
  0
LINE
  5
   477
  8
0
  6
DASHDOT
 62
     7
 10
-270.290718188942
 20
60.8092017173767
 30
0.0
 11
-421.365556784553
 21
60.8092017173767
 31
0.0
  0
LINE
  5
   478
  8
0
  6
CONTINUOUS
 62
   253
 10
-299.075080871582
 20
20.6842017173767
 30
0.0
 11
-299.075080871582
 21
31.6842017173767
 31
0.0
  0
LINE
  5
   479
  8
0
  6
CONTINUOUS
 62
     7
 10
-292.175079345703
 20
92.1842017173767
 30
0.0
 11
-292.175079345703
 21
94.9004533290863
 31
0.0
  0
LINE
  5
   47A
  8
0
  6
CONTINUOUS
 62
     7
 10
-292.175079345703
 20
95.0409643650055
 30
0.0
 11
-292.175079345703
 21
100.327440023422
 31
0.0
  0
LINE
  5
   47B
  8
0
  6
CONTINUOUS
 62
     7
 10
-292.175079345703
 20
100.467950820923
 30
0.0
 11
-292.175079345703
 21
103.184201717377
 31
0.0
  0
LINE
  5
   47C
  8
0
  6
CONTINUOUS
 62
     7
 10
-290.925079345703
 20
92.1842017173767
 30
0.0
 11
-290.925079345703
 21
103.184201717377
 31
0.0
  0
LINE
  5
   47D
  8
0
  6
CONTINUOUS
 62
     7
 10
-287.925079345703
 20
92.1842017173767
 30
0.0
 11
-287.925079345703
 21
103.184201717377
 31
0.0
  0
LINE
  5
   47E
  8
0
  6
CONTINUOUS
 62
     7
 10
-286.675079345703
 20
100.467950105667
 30
0.0
 11
-286.675079345703
 21
103.184201717377
 31
0.0
  0
LINE
  5
   47F
  8
0
  6
CONTINUOUS
 62
     7
 10
-286.675079345703
 20
95.0409634113312
 30
0.0
 11
-286.675079345703
 21
100.327439069748
 31
0.0
  0
LINE
  5
   480
  8
0
  6
CONTINUOUS
 62
     7
 10
-286.675079345703
 20
92.1842017173767
 30
0.0
 11
-286.675079345703
 21
94.9004526138306
 31
0.0
  0
LINE
  5
   481
  8
0
  6
CONTINUOUS
 62
     7
 10
-298.675079345703
 20
101.121108055115
 30
0.0
 11
-298.675079345703
 21
102.500918388367
 31
0.0
  0
LINE
  5
   482
  8
0
  6
CONTINUOUS
 62
     7
 10
-298.675079345703
 20
96.1287546157837
 30
0.0
 11
-298.675079345703
 21
99.2396483421326
 31
0.0
  0
LINE
  5
   483
  8
0
  6
CONTINUOUS
 62
     7
 10
-298.675079345703
 20
92.8674845695496
 30
0.0
 11
-298.675079345703
 21
94.2472949028015
 31
0.0
  0
LINE
  5
   484
  8
0
  6
CONTINUOUS
 62
     3
 10
-295.675079345703
 20
92.1993741989136
 30
0.0
 11
-295.675079345703
 21
103.16902923584
 31
0.0
  0
LINE
  5
   485
  8
0
  6
CONTINUOUS
 62
     3
 10
-298.675079345703
 20
92.1993741989136
 30
0.0
 11
-298.675079345703
 21
92.8674850463867
 31
0.0
  0
LINE
  5
   486
  8
0
  6
CONTINUOUS
 62
     3
 10
-298.675079345703
 20
94.2472929954529
 30
0.0
 11
-298.675079345703
 21
96.1287548542023
 31
0.0
  0
LINE
  5
   487
  8
0
  6
CONTINUOUS
 62
     3
 10
-298.675079345703
 20
99.2396483421326
 30
0.0
 11
-298.675079345703
 21
101.121105909348
 31
0.0
  0
LINE
  5
   488
  8
0
  6
CONTINUOUS
 62
     3
 10
-298.675079345703
 20
102.500919342041
 30
0.0
 11
-298.675079345703
 21
103.16902923584
 31
0.0
  0
LINE
  5
   489
  8
0
  6
CONTINUOUS
 62
     3
 10
-292.175079345703
 20
100.327437400818
 30
0.0
 11
-292.175079345703
 21
100.467950582504
 31
0.0
  0
LINE
  5
   48A
  8
0
  6
CONTINUOUS
 62
     3
 10
-292.175079345703
 20
94.900454044342
 30
0.0
 11
-292.175079345703
 21
95.0409607887268
 31
0.0
  0
LINE
  5
   48B
  8
0
  6
CONTINUOUS
 62
     3
 10
-295.175079345703
 20
92.1993741989136
 30
0.0
 11
-295.175079345703
 21
103.16902923584
 31
0.0
  0
LINE
  5
   48C
  8
0
  6
CONTINUOUS
 62
     3
 10
-286.675079345703
 20
94.9004542827606
 30
0.0
 11
-286.675079345703
 21
95.0409610271454
 31
0.0
  0
LINE
  5
   48D
  8
0
  6
CONTINUOUS
 62
     3
 10
-286.675079345703
 20
100.327438116074
 30
0.0
 11
-286.675079345703
 21
100.467950820923
 31
0.0
  0
LINE
  5
   48E
  8
0
  6
CONTINUOUS
 62
     3
 10
-283.675079345703
 20
92.1993741989136
 30
0.0
 11
-283.675079345703
 21
103.16902923584
 31
0.0
  0
LINE
  5
   48F
  8
0
  6
CONTINUOUS
 62
   212
 10
-282.325080871582
 20
95.6842017173767
 30
0.0
 11
-282.325080871582
 21
99.6842017173767
 31
0.0
  0
LINE
  5
   490
  8
0
  6
CONTINUOUS
 62
   253
 10
-299.075057983398
 20
31.6842017173767
 30
0.0
 11
-299.075057983398
 21
32.1842017173767
 31
0.0
  0
LINE
  5
   491
  8
0
  6
CONTINUOUS
 62
   253
 10
-299.075057983398
 20
20.1842017173767
 30
0.0
 11
-299.075057983398
 21
20.6842012405396
 31
0.0
  0
LINE
  5
   492
  8
0
  6
CONTINUOUS
 62
     7
 10
-261.925079345703
 20
20.6842017173767
 30
0.0
 11
-261.925079345703
 21
31.6842017173767
 31
0.0
  0
LINE
  5
   493
  8
0
  6
CONTINUOUS
 62
     7
 10
-260.675079345703
 20
28.9679510593414
 30
0.0
 11
-260.675079345703
 21
31.6842017173767
 31
0.0
  0
LINE
  5
   494
  8
0
  6
CONTINUOUS
 62
     7
 10
-260.675079345703
 20
23.5409665107727
 30
0.0
 11
-260.675079345703
 21
28.8274364471436
 31
0.0
  0
LINE
  5
   495
  8
0
  6
CONTINUOUS
 62
     7
 10
-260.675079345703
 20
20.6842017173767
 30
0.0
 11
-260.675079345703
 21
23.4004514217377
 31
0.0
  0
LINE
  5
   496
  8
0
  6
CONTINUOUS
 62
     7
 10
-266.175079345703
 20
20.6842017173767
 30
0.0
 11
-266.175079345703
 21
23.4004526138306
 31
0.0
  0
LINE
  5
   497
  8
0
  6
CONTINUOUS
 62
     7
 10
-266.175079345703
 20
23.5409672260284
 30
0.0
 11
-266.175079345703
 21
28.8274366855621
 31
0.0
  0
LINE
  5
   498
  8
0
  6
CONTINUOUS
 62
     7
 10
-266.175079345703
 20
28.9679520130157
 30
0.0
 11
-266.175079345703
 21
31.6842017173767
 31
0.0
  0
LINE
  5
   499
  8
0
  6
CONTINUOUS
 62
     7
 10
-264.925079345703
 20
20.6842017173767
 30
0.0
 11
-264.925079345703
 21
31.6842017173767
 31
0.0
  0
LINE
  5
   49A
  8
0
  6
CONTINUOUS
 62
     7
 10
-273.075080871582
 20
21.1842017173767
 30
0.0
 11
-273.075080871582
 21
31.1842017173767
 31
0.0
  0
LINE
  5
   49B
  8
0
  6
CONTINUOUS
 62
     7
 10
-272.675079345703
 20
29.6211106777191
 30
0.0
 11
-272.675079345703
 21
31.0009183883667
 31
0.0
  0
LINE
  5
   49C
  8
0
  6
CONTINUOUS
 62
     7
 10
-272.675079345703
 20
24.6287546157837
 30
0.0
 11
-272.675079345703
 21
27.7396483421326
 31
0.0
  0
LINE
  5
   49D
  8
0
  6
CONTINUOUS
 62
     7
 10
-272.675079345703
 20
21.3674845695496
 30
0.0
 11
-272.675079345703
 21
22.7472929954529
 31
0.0
  0
LINE
  5
   49E
  8
0
  6
CONTINUOUS
 62
     3
 10
-260.675079345703
 20
23.400452375412
 30
0.0
 11
-260.675079345703
 21
23.5409653186798
 31
0.0
  0
LINE
  5
   49F
  8
0
  6
CONTINUOUS
 62
     3
 10
-260.675079345703
 20
28.8274347782135
 30
0.0
 11
-260.675079345703
 21
28.9679520130157
 31
0.0
  0
LINE
  5
   4A0
  8
0
  6
CONTINUOUS
 62
     3
 10
-257.675079345703
 20
20.6993741989136
 30
0.0
 11
-257.675079345703
 21
31.6690292358398
 31
0.0
  0
LINE
  5
   4A1
  8
0
  6
CONTINUOUS
 62
     3
 10
-269.675079345703
 20
20.6993741989136
 30
0.0
 11
-269.675079345703
 21
31.6690292358398
 31
0.0
  0
LINE
  5
   4A2
  8
0
  6
CONTINUOUS
 62
     3
 10
-272.675079345703
 20
20.6993741989136
 30
0.0
 11
-272.675079345703
 21
21.3674840927124
 31
0.0
  0
LINE
  5
   4A3
  8
0
  6
CONTINUOUS
 62
     3
 10
-272.675079345703
 20
22.7472925186157
 30
0.0
 11
-272.675079345703
 21
24.6287548542023
 31
0.0
  0
LINE
  5
   4A4
  8
0
  6
CONTINUOUS
 62
     3
 10
-272.675079345703
 20
27.7396483421326
 30
0.0
 11
-272.675079345703
 21
29.6211099624634
 31
0.0
  0
LINE
  5
   4A5
  8
0
  6
CONTINUOUS
 62
     3
 10
-272.675079345703
 20
31.0009179115295
 30
0.0
 11
-272.675079345703
 21
31.6690292358398
 31
0.0
  0
LINE
  5
   4A6
  8
0
  6
CONTINUOUS
 62
     3
 10
-266.175079345703
 20
28.8274340629578
 30
0.0
 11
-266.175079345703
 21
28.9679517745972
 31
0.0
  0
LINE
  5
   4A7
  8
0
  6
CONTINUOUS
 62
     3
 10
-266.175079345703
 20
23.4004521369934
 30
0.0
 11
-266.175079345703
 21
23.5409648418427
 31
0.0
  0
LINE
  5
   4A8
  8
0
  6
CONTINUOUS
 62
     3
 10
-269.175079345703
 20
20.6993741989136
 30
0.0
 11
-269.175079345703
 21
31.6690292358398
 31
0.0
  0
LINE
  5
   4A9
  8
0
  6
CONTINUOUS
 62
   212
 10
-256.325080871582
 20
24.1842017173767
 30
0.0
 11
-256.325080871582
 21
28.1842017173767
 31
0.0
  0
LINE
  5
   4AA
  8
0
  6
CONTINUOUS
 62
   253
 10
-299.575080871582
 20
32.1842017173767
 30
0.0
 11
-307.075080871582
 21
32.1842017173767
 31
0.0
  0
LINE
  5
   4AB
  8
0
  6
CONTINUOUS
 62
   253
 10
-299.575080871582
 20
20.1842017173767
 30
0.0
 11
-307.075080871582
 21
20.1842017173767
 31
0.0
  0
LINE
  5
   4AC
  8
0
  6
CONTINUOUS
 62
   253
 10
-299.075082971344
 20
31.6842023004978
 30
0.0
 11
-299.57508295423
 21
32.1842022833836
 31
0.0
  0
LINE
  5
   4AD
  8
0
  6
CONTINUOUS
 62
   253
 10
-299.575082947701
 20
20.1842011709564
 30
0.0
 11
-299.075082964815
 21
20.6842011538421
 31
0.0
  0
LINE
  5
   4AE
  8
0
  6
CONTINUOUS
 62
     7
 10
-290.925079345703
 20
103.184201717377
 30
0.0
 11
-292.175079345703
 21
103.184201717377
 31
0.0
  0
LINE
  5
   4AF
  8
0
  6
CONTINUOUS
 62
     7
 10
-290.925079345703
 20
92.1842017173767
 30
0.0
 11
-292.175079345703
 21
92.1842017173767
 31
0.0
  0
LINE
  5
   4B0
  8
0
  6
CONTINUOUS
 62
     7
 10
-286.675079345703
 20
103.184201717377
 30
0.0
 11
-287.925079345703
 21
103.184201717377
 31
0.0
  0
LINE
  5
   4B1
  8
0
  6
CONTINUOUS
 62
     7
 10
-286.675079345703
 20
92.1842017173767
 30
0.0
 11
-287.925079345703
 21
92.1842017173767
 31
0.0
  0
LINE
  5
   4B2
  8
0
  6
CONTINUOUS
 62
     7
 10
-298.675079345703
 20
102.684201717377
 30
0.0
 11
-299.075080871582
 21
102.684201717377
 31
0.0
  0
LINE
  5
   4B3
  8
0
  6
CONTINUOUS
 62
     7
 10
-298.675079345703
 20
92.6842017173767
 30
0.0
 11
-299.075080871582
 21
92.6842017173767
 31
0.0
  0
LINE
  5
   4B4
  8
0
  6
CONTINUOUS
 62
     3
 10
-295.675079345703
 20
103.16902923584
 30
0.0
 11
-298.675079345703
 21
103.16902923584
 31
0.0
  0
LINE
  5
   4B5
  8
0
  6
CONTINUOUS
 62
     3
 10
-295.675079345703
 20
100.426615476608
 30
0.0
 11
-298.675079345703
 21
100.426615476608
 31
0.0
  0
LINE
  5
   4B6
  8
0
  6
CONTINUOUS
 62
     3
 10
-295.675079345703
 20
94.9417879581451
 30
0.0
 11
-298.675079345703
 21
94.9417879581451
 31
0.0
  0
LINE
  5
   4B7
  8
0
  6
CONTINUOUS
 62
     3
 10
-295.675079345703
 20
92.1993741989136
 30
0.0
 11
-298.675079345703
 21
92.1993741989136
 31
0.0
  0
LINE
  5
   4B8
  8
0
  6
CONTINUOUS
 62
     3
 10
-292.175079345703
 20
103.16902923584
 30
0.0
 11
-295.175079345703
 21
103.16902923584
 31
0.0
  0
LINE
  5
   4B9
  8
0
  6
CONTINUOUS
 62
     3
 10
-292.175079345703
 20
100.426615476608
 30
0.0
 11
-295.175079345703
 21
100.426615476608
 31
0.0
  0
LINE
  5
   4BA
  8
0
  6
CONTINUOUS
 62
     3
 10
-292.175079345703
 20
94.9417879581451
 30
0.0
 11
-295.175079345703
 21
94.9417879581451
 31
0.0
  0
LINE
  5
   4BB
  8
0
  6
CONTINUOUS
 62
     3
 10
-292.175079345703
 20
92.1993741989136
 30
0.0
 11
-295.175079345703
 21
92.1993741989136
 31
0.0
  0
LINE
  5
   4BC
  8
0
  6
CONTINUOUS
 62
     3
 10
-283.675079345703
 20
103.16902923584
 30
0.0
 11
-286.675079345703
 21
103.16902923584
 31
0.0
  0
LINE
  5
   4BD
  8
0
  6
CONTINUOUS
 62
     3
 10
-283.675079345703
 20
100.426615476608
 30
0.0
 11
-286.675079345703
 21
100.426615476608
 31
0.0
  0
LINE
  5
   4BE
  8
0
  6
CONTINUOUS
 62
     3
 10
-283.675079345703
 20
94.9417879581451
 30
0.0
 11
-286.675079345703
 21
94.9417879581451
 31
0.0
  0
LINE
  5
   4BF
  8
0
  6
CONTINUOUS
 62
     3
 10
-283.675079345703
 20
92.1993741989136
 30
0.0
 11
-286.675079345703
 21
92.1993741989136
 31
0.0
  0
LINE
  5
   4C0
  8
0
  6
CONTINUOUS
 62
   212
 10
-282.32508343129
 20
99.6842025336798
 30
0.0
 11
-283.325083397061
 21
100.684202499451
 31
0.0
  0
LINE
  5
   4C1
  8
0
  6
CONTINUOUS
 62
   212
 10
-283.325083390533
 20
94.6842009548887
 30
0.0
 11
-282.325083424761
 21
95.6842009206601
 31
0.0
  0
LINE
  5
   4C2
  8
0
  6
CONTINUOUS
 62
   212
 10
-283.325080871582
 20
94.6842017173767
 30
0.0
 11
-283.325080871582
 21
94.8310322761536
 31
0.0
  0
LINE
  5
   4C3
  8
0
  6
CONTINUOUS
 62
   212
 10
-283.325080871582
 20
94.8310322761536
 30
0.0
 11
-283.325080871582
 21
95.2571506500244
 31
0.0
  0
LINE
  5
   4C4
  8
0
  6
CONTINUOUS
 62
   212
 10
-283.325080871582
 20
95.2571506500244
 30
0.0
 11
-283.325080871582
 21
95.9208459854126
 31
0.0
  0
LINE
  5
   4C5
  8
0
  6
CONTINUOUS
 62
   212
 10
-283.325080871582
 20
95.9208459854126
 30
0.0
 11
-283.325080871582
 21
96.7571507692337
 31
0.0
  0
LINE
  5
   4C6
  8
0
  6
CONTINUOUS
 62
   212
 10
-283.325080871582
 20
96.7571507692337
 30
0.0
 11
-283.325080871582
 21
97.6842017173767
 31
0.0
  0
LINE
  5
   4C7
  8
0
  6
CONTINUOUS
 62
   212
 10
-283.325080871582
 20
97.6842017173767
 30
0.0
 11
-283.325080871582
 21
98.6112527251244
 31
0.0
  0
LINE
  5
   4C8
  8
0
  6
CONTINUOUS
 62
   212
 10
-283.325080871582
 20
98.6112527251244
 30
0.0
 11
-283.325080871582
 21
99.4475574493408
 31
0.0
  0
LINE
  5
   4C9
  8
0
  6
CONTINUOUS
 62
   212
 10
-283.325080871582
 20
99.4475574493408
 30
0.0
 11
-283.325080871582
 21
100.111252784729
 31
0.0
  0
LINE
  5
   4CA
  8
0
  6
CONTINUOUS
 62
   212
 10
-283.325080871582
 20
100.111252784729
 30
0.0
 11
-283.325080871582
 21
100.5373711586
 31
0.0
  0
LINE
  5
   4CB
  8
0
  6
CONTINUOUS
 62
   212
 10
-283.325080871582
 20
100.5373711586
 30
0.0
 11
-283.325080871582
 21
100.684201717377
 31
0.0
  0
LINE
  5
   4CC
  8
0
  6
CONTINUOUS
 62
   212
 10
-283.325080871582
 20
100.684201717377
 30
0.0
 11
-283.675079345703
 21
100.684201717377
 31
0.0
  0
LINE
  5
   4CD
  8
0
  6
CONTINUOUS
 62
   212
 10
-287.925079345703
 20
100.684201717377
 30
0.0
 11
-290.925079345703
 21
100.684201717377
 31
0.0
  0
LINE
  5
   4CE
  8
0
  6
CONTINUOUS
 62
   212
 10
-295.175079345703
 20
100.684201717377
 30
0.0
 11
-295.675079345703
 21
100.684201717377
 31
0.0
  0
LINE
  5
   4CF
  8
0
  6
CONTINUOUS
 62
   212
 10
-283.325080871582
 20
94.6842017173767
 30
0.0
 11
-283.675079345703
 21
94.6842017173767
 31
0.0
  0
LINE
  5
   4D0
  8
0
  6
CONTINUOUS
 62
   212
 10
-287.925079345703
 20
94.6842017173767
 30
0.0
 11
-290.925079345703
 21
94.6842017173767
 31
0.0
  0
LINE
  5
   4D1
  8
0
  6
CONTINUOUS
 62
   212
 10
-295.175079345703
 20
94.6842017173767
 30
0.0
 11
-295.675079345703
 21
94.6842017173767
 31
0.0
  0
LINE
  5
   4D2
  8
0
  6
CONTINUOUS
 62
   253
 10
-299.075057983398
 20
32.1842017173767
 30
0.0
 11
-299.575080871582
 21
32.1842017173767
 31
0.0
  0
LINE
  5
   4D3
  8
0
  6
CONTINUOUS
 62
   253
 10
-299.075057983398
 20
20.1842017173767
 30
0.0
 11
-299.575080871582
 21
20.1842017173767
 31
0.0
  0
LINE
  5
   4D4
  8
0
  6
CONTINUOUS
 62
   253
 10
-295.175079345703
 20
102.684201717377
 30
0.0
 11
-295.675079345703
 21
102.684201717377
 31
0.0
  0
LINE
  5
   4D5
  8
0
  6
CONTINUOUS
 62
   253
 10
-287.925079345703
 20
102.684201717377
 30
0.0
 11
-290.925079345703
 21
102.684201717377
 31
0.0
  0
LINE
  5
   4D6
  8
0
  6
CONTINUOUS
 62
   253
 10
-273.575057983398
 20
31.1842017173767
 30
0.0
 11
-283.675079345703
 21
31.1842017173767
 31
0.0
  0
LINE
  5
   4D7
  8
0
  6
CONTINUOUS
 62
   253
 10
-295.175079345703
 20
92.6842017173767
 30
0.0
 11
-295.675079345703
 21
92.6842017173767
 31
0.0
  0
LINE
  5
   4D8
  8
0
  6
CONTINUOUS
 62
   253
 10
-287.925079345703
 20
92.6842017173767
 30
0.0
 11
-290.925079345703
 21
92.6842017173767
 31
0.0
  0
LINE
  5
   4D9
  8
0
  6
CONTINUOUS
 62
   253
 10
-273.575057983398
 20
21.1842017173767
 30
0.0
 11
-283.675079345703
 21
21.1842017173767
 31
0.0
  0
LINE
  5
   4DA
  8
0
  6
CONTINUOUS
 62
   253
 10
-273.221510311644
 20
31.0377560236855
 30
0.0
 11
-273.575064093937
 21
31.1842027309727
 31
0.0
  0
LINE
  5
   4DB
  8
0
  6
CONTINUOUS
 62
   253
 10
-273.075064138148
 20
30.6842032274159
 30
0.0
 11
-273.221510366431
 21
31.037756522739
 31
0.0
  0
LINE
  5
   4DC
  8
0
  6
CONTINUOUS
 62
   253
 10
-273.575064085712
 20
21.1842007304513
 30
0.0
 11
-273.221510303419
 21
21.3306474377386
 31
0.0
  0
LINE
  5
   4DD
  8
0
  6
CONTINUOUS
 62
   253
 10
-273.221510353019
 20
21.3306469823325
 30
0.0
 11
-273.075064124735
 21
21.6842002776555
 31
0.0
  0
LINE
  5
   4DE
  8
0
  6
CONTINUOUS
 62
     7
 10
-260.675079345703
 20
31.6842017173767
 30
0.0
 11
-261.925079345703
 21
31.6842017173767
 31
0.0
  0
LINE
  5
   4DF
  8
0
  6
CONTINUOUS
 62
     7
 10
-260.675079345703
 20
20.6842017173767
 30
0.0
 11
-261.925079345703
 21
20.6842017173767
 31
0.0
  0
LINE
  5
   4E0
  8
0
  6
CONTINUOUS
 62
     7
 10
-264.925079345703
 20
31.6842017173767
 30
0.0
 11
-266.175079345703
 21
31.6842017173767
 31
0.0
  0
LINE
  5
   4E1
  8
0
  6
CONTINUOUS
 62
     7
 10
-264.925079345703
 20
20.6842017173767
 30
0.0
 11
-266.175079345703
 21
20.6842017173767
 31
0.0
  0
LINE
  5
   4E2
  8
0
  6
CONTINUOUS
 62
     7
 10
-272.675079345703
 20
31.1842017173767
 30
0.0
 11
-273.075080871582
 21
31.1842017173767
 31
0.0
  0
LINE
  5
   4E3
  8
0
  6
CONTINUOUS
 62
     7
 10
-272.675079345703
 20
21.1842017173767
 30
0.0
 11
-273.075080871582
 21
21.1842017173767
 31
0.0
  0
LINE
  5
   4E4
  8
0
  6
CONTINUOUS
 62
     3
 10
-257.675079345703
 20
31.6690292358398
 30
0.0
 11
-260.675079345703
 21
31.6690292358398
 31
0.0
  0
LINE
  5
   4E5
  8
0
  6
CONTINUOUS
 62
     3
 10
-257.675079345703
 20
20.6993741989136
 30
0.0
 11
-260.675079345703
 21
20.6993741989136
 31
0.0
  0
LINE
  5
   4E6
  8
0
  6
CONTINUOUS
 62
     3
 10
-257.675079345703
 20
23.4417879581451
 30
0.0
 11
-260.675079345703
 21
23.4417879581451
 31
0.0
  0
LINE
  5
   4E7
  8
0
  6
CONTINUOUS
 62
     3
 10
-257.675079345703
 20
28.9266154766083
 30
0.0
 11
-260.675079345703
 21
28.9266154766083
 31
0.0
  0
LINE
  5
   4E8
  8
0
  6
CONTINUOUS
 62
     3
 10
-269.675079345703
 20
31.6690292358398
 30
0.0
 11
-272.675079345703
 21
31.6690292358398
 31
0.0
  0
LINE
  5
   4E9
  8
0
  6
CONTINUOUS
 62
     3
 10
-269.675079345703
 20
20.6993741989136
 30
0.0
 11
-272.675079345703
 21
20.6993741989136
 31
0.0
  0
LINE
  5
   4EA
  8
0
  6
CONTINUOUS
 62
     3
 10
-269.675079345703
 20
28.9266154766083
 30
0.0
 11
-272.675079345703
 21
28.9266154766083
 31
0.0
  0
LINE
  5
   4EB
  8
0
  6
CONTINUOUS
 62
     3
 10
-269.675079345703
 20
23.4417879581451
 30
0.0
 11
-272.675079345703
 21
23.4417879581451
 31
0.0
  0
LINE
  5
   4EC
  8
0
  6
CONTINUOUS
 62
     3
 10
-266.175079345703
 20
31.6690292358398
 30
0.0
 11
-269.175079345703
 21
31.6690292358398
 31
0.0
  0
LINE
  5
   4ED
  8
0
  6
CONTINUOUS
 62
     3
 10
-266.175079345703
 20
20.6993741989136
 30
0.0
 11
-269.175079345703
 21
20.6993741989136
 31
0.0
  0
LINE
  5
   4EE
  8
0
  6
CONTINUOUS
 62
     3
 10
-266.175079345703
 20
28.9266154766083
 30
0.0
 11
-269.175079345703
 21
28.9266154766083
 31
0.0
  0
LINE
  5
   4EF
  8
0
  6
CONTINUOUS
 62
     3
 10
-266.175079345703
 20
23.4417879581451
 30
0.0
 11
-269.175079345703
 21
23.4417879581451
 31
0.0
  0
LINE
  5
   4F0
  8
0
  6
CONTINUOUS
 62
   212
 10
-256.325084098747
 20
28.1842027561653
 30
0.0
 11
-257.325084064518
 21
29.1842027219368
 31
0.0
  0
LINE
  5
   4F1
  8
0
  6
CONTINUOUS
 62
   212
 10
-257.325084057989
 20
23.1842007324032
 30
0.0
 11
-256.325084092218
 21
24.1842006981746
 31
0.0
  0
LINE
  5
   4F2
  8
0
  6
CONTINUOUS
 62
   212
 10
-257.325080871582
 20
29.1842017173767
 30
0.0
 11
-257.675079345703
 21
29.1842017173767
 31
0.0
  0
LINE
  5
   4F3
  8
0
  6
CONTINUOUS
 62
   212
 10
-261.925079345703
 20
29.1842017173767
 30
0.0
 11
-264.925079345703
 21
29.1842017173767
 31
0.0
  0
LINE
  5
   4F4
  8
0
  6
CONTINUOUS
 62
   212
 10
-269.175079345703
 20
29.1842017173767
 30
0.0
 11
-269.675079345703
 21
29.1842017173767
 31
0.0
  0
LINE
  5
   4F5
  8
0
  6
CONTINUOUS
 62
   212
 10
-257.325080871582
 20
29.0373711585999
 30
0.0
 11
-257.325080871582
 21
29.1842017173767
 31
0.0
  0
LINE
  5
   4F6
  8
0
  6
CONTINUOUS
 62
   212
 10
-257.325080871582
 20
28.611252784729
 30
0.0
 11
-257.325080871582
 21
29.0373711585999
 31
0.0
  0
LINE
  5
   4F7
  8
0
  6
CONTINUOUS
 62
   212
 10
-257.325080871582
 20
27.9475574493408
 30
0.0
 11
-257.325080871582
 21
28.611252784729
 31
0.0
  0
LINE
  5
   4F8
  8
0
  6
CONTINUOUS
 62
   212
 10
-257.325080871582
 20
27.1112527251244
 30
0.0
 11
-257.325080871582
 21
27.9475574493408
 31
0.0
  0
LINE
  5
   4F9
  8
0
  6
CONTINUOUS
 62
   212
 10
-257.325080871582
 20
26.1842017173767
 30
0.0
 11
-257.325080871582
 21
27.1112527251244
 31
0.0
  0
LINE
  5
   4FA
  8
0
  6
CONTINUOUS
 62
   212
 10
-257.325080871582
 20
25.2571507692337
 30
0.0
 11
-257.325080871582
 21
26.1842017173767
 31
0.0
  0
LINE
  5
   4FB
  8
0
  6
CONTINUOUS
 62
   212
 10
-257.325080871582
 20
24.4208459854126
 30
0.0
 11
-257.325080871582
 21
25.2571507692337
 31
0.0
  0
LINE
  5
   4FC
  8
0
  6
CONTINUOUS
 62
   212
 10
-257.325080871582
 20
23.7571506500244
 30
0.0
 11
-257.325080871582
 21
24.4208459854126
 31
0.0
  0
LINE
  5
   4FD
  8
0
  6
CONTINUOUS
 62
   212
 10
-257.325080871582
 20
23.3310322761536
 30
0.0
 11
-257.325080871582
 21
23.7571506500244
 31
0.0
  0
LINE
  5
   4FE
  8
0
  6
CONTINUOUS
 62
   212
 10
-257.325080871582
 20
23.1842017173767
 30
0.0
 11
-257.675079345703
 21
23.1842017173767
 31
0.0
  0
LINE
  5
   4FF
  8
0
  6
CONTINUOUS
 62
   212
 10
-261.925079345703
 20
23.1842017173767
 30
0.0
 11
-264.925079345703
 21
23.1842017173767
 31
0.0
  0
LINE
  5
   500
  8
0
  6
CONTINUOUS
 62
   212
 10
-269.175079345703
 20
23.1842017173767
 30
0.0
 11
-269.675079345703
 21
23.1842017173767
 31
0.0
  0
LINE
  5
   501
  8
0
  6
CONTINUOUS
 62
   212
 10
-257.325080871582
 20
23.1842017173767
 30
0.0
 11
-257.325080871582
 21
23.3310322761536
 31
0.0
  0
LINE
  5
   502
  8
0
  6
CONTINUOUS
 62
   253
 10
-299.075080871582
 20
92.1842017173767
 30
0.0
 11
-299.075080871582
 21
103.184201717377
 31
0.0
  0
LINE
  5
   503
  8
0
  6
CONTINUOUS
 62
   253
 10
-299.075057983398
 20
103.184201717377
 30
0.0
 11
-299.075057983398
 21
103.684201717377
 31
0.0
  0
LINE
  5
   504
  8
0
  6
CONTINUOUS
 62
   253
 10
-299.075057983398
 20
91.6842017173767
 30
0.0
 11
-299.075057983398
 21
92.1842012405395
 31
0.0
  0
LINE
  5
   505
  8
0
  6
CONTINUOUS
 62
     7
 10
-261.925079345703
 20
92.1842017173767
 30
0.0
 11
-261.925079345703
 21
103.184201717377
 31
0.0
  0
LINE
  5
   506
  8
0
  6
CONTINUOUS
 62
     7
 10
-260.675079345703
 20
100.467951059341
 30
0.0
 11
-260.675079345703
 21
103.184201717377
 31
0.0
  0
LINE
  5
   507
  8
0
  6
CONTINUOUS
 62
     7
 10
-260.675079345703
 20
95.0409665107727
 30
0.0
 11
-260.675079345703
 21
100.327436447144
 31
0.0
  0
LINE
  5
   508
  8
0
  6
CONTINUOUS
 62
     7
 10
-260.675079345703
 20
92.1842017173767
 30
0.0
 11
-260.675079345703
 21
94.9004514217377
 31
0.0
  0
LINE
  5
   509
  8
0
  6
CONTINUOUS
 62
     7
 10
-266.175079345703
 20
92.1842017173767
 30
0.0
 11
-266.175079345703
 21
94.9004526138306
 31
0.0
  0
LINE
  5
   50A
  8
0
  6
CONTINUOUS
 62
     7
 10
-266.175079345703
 20
95.0409672260284
 30
0.0
 11
-266.175079345703
 21
100.327436685562
 31
0.0
  0
LINE
  5
   50B
  8
0
  6
CONTINUOUS
 62
     7
 10
-266.175079345703
 20
100.467952013016
 30
0.0
 11
-266.175079345703
 21
103.184201717377
 31
0.0
  0
LINE
  5
   50C
  8
0
  6
CONTINUOUS
 62
     7
 10
-264.925079345703
 20
92.1842017173767
 30
0.0
 11
-264.925079345703
 21
103.184201717377
 31
0.0
  0
LINE
  5
   50D
  8
0
  6
CONTINUOUS
 62
     7
 10
-273.075080871582
 20
92.6842017173767
 30
0.0
 11
-273.075080871582
 21
102.684201717377
 31
0.0
  0
LINE
  5
   50E
  8
0
  6
CONTINUOUS
 62
     7
 10
-272.675079345703
 20
101.121110677719
 30
0.0
 11
-272.675079345703
 21
102.500918388367
 31
0.0
  0
LINE
  5
   50F
  8
0
  6
CONTINUOUS
 62
     7
 10
-272.675079345703
 20
96.1287546157837
 30
0.0
 11
-272.675079345703
 21
99.2396483421326
 31
0.0
  0
LINE
  5
   510
  8
0
  6
CONTINUOUS
 62
     7
 10
-272.675079345703
 20
92.8674845695496
 30
0.0
 11
-272.675079345703
 21
94.2472929954529
 31
0.0
  0
LINE
  5
   511
  8
0
  6
CONTINUOUS
 62
     3
 10
-260.675079345703
 20
94.900452375412
 30
0.0
 11
-260.675079345703
 21
95.0409653186798
 31
0.0
  0
LINE
  5
   512
  8
0
  6
CONTINUOUS
 62
     3
 10
-260.675079345703
 20
100.327434778214
 30
0.0
 11
-260.675079345703
 21
100.467952013016
 31
0.0
  0
LINE
  5
   513
  8
0
  6
CONTINUOUS
 62
     3
 10
-257.675079345703
 20
92.1993741989136
 30
0.0
 11
-257.675079345703
 21
103.16902923584
 31
0.0
  0
LINE
  5
   514
  8
0
  6
CONTINUOUS
 62
     3
 10
-269.675079345703
 20
92.1993741989136
 30
0.0
 11
-269.675079345703
 21
103.16902923584
 31
0.0
  0
LINE
  5
   515
  8
0
  6
CONTINUOUS
 62
     3
 10
-272.675079345703
 20
92.1993741989136
 30
0.0
 11
-272.675079345703
 21
92.8674840927124
 31
0.0
  0
LINE
  5
   516
  8
0
  6
CONTINUOUS
 62
     3
 10
-272.675079345703
 20
94.2472925186157
 30
0.0
 11
-272.675079345703
 21
96.1287548542023
 31
0.0
  0
LINE
  5
   517
  8
0
  6
CONTINUOUS
 62
     3
 10
-272.675079345703
 20
99.2396483421326
 30
0.0
 11
-272.675079345703
 21
101.121109962463
 31
0.0
  0
LINE
  5
   518
  8
0
  6
CONTINUOUS
 62
     3
 10
-272.675079345703
 20
102.50091791153
 30
0.0
 11
-272.675079345703
 21
103.16902923584
 31
0.0
  0
LINE
  5
   519
  8
0
  6
CONTINUOUS
 62
     3
 10
-266.175079345703
 20
100.327434062958
 30
0.0
 11
-266.175079345703
 21
100.467951774597
 31
0.0
  0
LINE
  5
   51A
  8
0
  6
CONTINUOUS
 62
     3
 10
-266.175079345703
 20
94.9004521369934
 30
0.0
 11
-266.175079345703
 21
95.0409648418426
 31
0.0
  0
LINE
  5
   51B
  8
0
  6
CONTINUOUS
 62
     3
 10
-269.175079345703
 20
92.1993741989136
 30
0.0
 11
-269.175079345703
 21
103.16902923584
 31
0.0
  0
LINE
  5
   51C
  8
0
  6
CONTINUOUS
 62
   212
 10
-256.325080871582
 20
95.6842017173767
 30
0.0
 11
-256.325080871582
 21
99.6842017173767
 31
0.0
  0
LINE
  5
   51D
  8
0
  6
CONTINUOUS
 62
   253
 10
-299.575080871582
 20
103.684201717377
 30
0.0
 11
-307.075080871582
 21
103.684201717377
 31
0.0
  0
LINE
  5
   51E
  8
0
  6
CONTINUOUS
 62
   253
 10
-299.575080871582
 20
91.6842017173767
 30
0.0
 11
-307.075080871582
 21
91.6842017173767
 31
0.0
  0
LINE
  5
   51F
  8
0
  6
CONTINUOUS
 62
   253
 10
-299.075082971344
 20
103.184202300498
 30
0.0
 11
-299.57508295423
 21
103.684202283384
 31
0.0
  0
LINE
  5
   520
  8
0
  6
CONTINUOUS
 62
   253
 10
-299.575082947701
 20
91.6842011709564
 30
0.0
 11
-299.075082964815
 21
92.1842011538421
 31
0.0
  0
LINE
  5
   521
  8
0
  6
CONTINUOUS
 62
   253
 10
-299.075057983398
 20
103.684201717377
 30
0.0
 11
-299.575080871582
 21
103.684201717377
 31
0.0
  0
LINE
  5
   522
  8
0
  6
CONTINUOUS
 62
   253
 10
-299.075057983398
 20
91.6842017173767
 30
0.0
 11
-299.575080871582
 21
91.6842017173767
 31
0.0
  0
LINE
  5
   523
  8
0
  6
CONTINUOUS
 62
   253
 10
-273.575057983398
 20
102.684201717377
 30
0.0
 11
-283.675079345703
 21
102.684201717377
 31
0.0
  0
LINE
  5
   524
  8
0
  6
CONTINUOUS
 62
   253
 10
-273.575057983398
 20
92.6842017173767
 30
0.0
 11
-283.675079345703
 21
92.6842017173767
 31
0.0
  0
LINE
  5
   525
  8
0
  6
CONTINUOUS
 62
   253
 10
-273.221510311644
 20
102.537756023685
 30
0.0
 11
-273.575064093937
 21
102.684202730973
 31
0.0
  0
LINE
  5
   526
  8
0
  6
CONTINUOUS
 62
   253
 10
-273.075064138148
 20
102.184203227416
 30
0.0
 11
-273.221510366431
 21
102.537756522739
 31
0.0
  0
LINE
  5
   527
  8
0
  6
CONTINUOUS
 62
   253
 10
-273.575064085712
 20
92.6842007304514
 30
0.0
 11
-273.221510303419
 21
92.8306474377385
 31
0.0
  0
LINE
  5
   528
  8
0
  6
CONTINUOUS
 62
   253
 10
-273.221510353019
 20
92.8306469823324
 30
0.0
 11
-273.075064124735
 21
93.1842002776555
 31
0.0
  0
LINE
  5
   529
  8
0
  6
CONTINUOUS
 62
     7
 10
-260.675079345703
 20
103.184201717377
 30
0.0
 11
-261.925079345703
 21
103.184201717377
 31
0.0
  0
LINE
  5
   52A
  8
0
  6
CONTINUOUS
 62
     7
 10
-260.675079345703
 20
92.1842017173767
 30
0.0
 11
-261.925079345703
 21
92.1842017173767
 31
0.0
  0
LINE
  5
   52B
  8
0
  6
CONTINUOUS
 62
     7
 10
-264.925079345703
 20
103.184201717377
 30
0.0
 11
-266.175079345703
 21
103.184201717377
 31
0.0
  0
LINE
  5
   52C
  8
0
  6
CONTINUOUS
 62
     7
 10
-264.925079345703
 20
92.1842017173767
 30
0.0
 11
-266.175079345703
 21
92.1842017173767
 31
0.0
  0
LINE
  5
   52D
  8
0
  6
CONTINUOUS
 62
     7
 10
-272.675079345703
 20
102.684201717377
 30
0.0
 11
-273.075080871582
 21
102.684201717377
 31
0.0
  0
LINE
  5
   52E
  8
0
  6
CONTINUOUS
 62
     7
 10
-272.675079345703
 20
92.6842017173767
 30
0.0
 11
-273.075080871582
 21
92.6842017173767
 31
0.0
  0
LINE
  5
   52F
  8
0
  6
CONTINUOUS
 62
     3
 10
-257.675079345703
 20
103.16902923584
 30
0.0
 11
-260.675079345703
 21
103.16902923584
 31
0.0
  0
LINE
  5
   530
  8
0
  6
CONTINUOUS
 62
     3
 10
-257.675079345703
 20
92.1993741989136
 30
0.0
 11
-260.675079345703
 21
92.1993741989136
 31
0.0
  0
LINE
  5
   531
  8
0
  6
CONTINUOUS
 62
     3
 10
-257.675079345703
 20
94.9417879581451
 30
0.0
 11
-260.675079345703
 21
94.9417879581451
 31
0.0
  0
LINE
  5
   532
  8
0
  6
CONTINUOUS
 62
     3
 10
-257.675079345703
 20
100.426615476608
 30
0.0
 11
-260.675079345703
 21
100.426615476608
 31
0.0
  0
LINE
  5
   533
  8
0
  6
CONTINUOUS
 62
     3
 10
-269.675079345703
 20
103.16902923584
 30
0.0
 11
-272.675079345703
 21
103.16902923584
 31
0.0
  0
LINE
  5
   534
  8
0
  6
CONTINUOUS
 62
     3
 10
-269.675079345703
 20
92.1993741989136
 30
0.0
 11
-272.675079345703
 21
92.1993741989136
 31
0.0
  0
LINE
  5
   535
  8
0
  6
CONTINUOUS
 62
     3
 10
-269.675079345703
 20
100.426615476608
 30
0.0
 11
-272.675079345703
 21
100.426615476608
 31
0.0
  0
LINE
  5
   536
  8
0
  6
CONTINUOUS
 62
     3
 10
-269.675079345703
 20
94.9417879581451
 30
0.0
 11
-272.675079345703
 21
94.9417879581451
 31
0.0
  0
LINE
  5
   537
  8
0
  6
CONTINUOUS
 62
     3
 10
-266.175079345703
 20
103.16902923584
 30
0.0
 11
-269.175079345703
 21
103.16902923584
 31
0.0
  0
LINE
  5
   538
  8
0
  6
CONTINUOUS
 62
     3
 10
-266.175079345703
 20
92.1993741989136
 30
0.0
 11
-269.175079345703
 21
92.1993741989136
 31
0.0
  0
LINE
  5
   539
  8
0
  6
CONTINUOUS
 62
     3
 10
-266.175079345703
 20
100.426615476608
 30
0.0
 11
-269.175079345703
 21
100.426615476608
 31
0.0
  0
LINE
  5
   53A
  8
0
  6
CONTINUOUS
 62
     3
 10
-266.175079345703
 20
94.9417879581451
 30
0.0
 11
-269.175079345703
 21
94.9417879581451
 31
0.0
  0
LINE
  5
   53B
  8
0
  6
CONTINUOUS
 62
   212
 10
-256.325084098747
 20
99.6842027561653
 30
0.0
 11
-257.325084064518
 21
100.684202721937
 31
0.0
  0
LINE
  5
   53C
  8
0
  6
CONTINUOUS
 62
   212
 10
-257.325084057989
 20
94.6842007324032
 30
0.0
 11
-256.325084092218
 21
95.6842006981746
 31
0.0
  0
LINE
  5
   53D
  8
0
  6
CONTINUOUS
 62
   212
 10
-257.325080871582
 20
100.684201717377
 30
0.0
 11
-257.675079345703
 21
100.684201717377
 31
0.0
  0
LINE
  5
   53E
  8
0
  6
CONTINUOUS
 62
   212
 10
-261.925079345703
 20
100.684201717377
 30
0.0
 11
-264.925079345703
 21
100.684201717377
 31
0.0
  0
LINE
  5
   53F
  8
0
  6
CONTINUOUS
 62
   212
 10
-269.175079345703
 20
100.684201717377
 30
0.0
 11
-269.675079345703
 21
100.684201717377
 31
0.0
  0
LINE
  5
   540
  8
0
  6
CONTINUOUS
 62
   212
 10
-257.325080871582
 20
100.5373711586
 30
0.0
 11
-257.325080871582
 21
100.684201717377
 31
0.0
  0
LINE
  5
   541
  8
0
  6
CONTINUOUS
 62
   212
 10
-257.325080871582
 20
100.111252784729
 30
0.0
 11
-257.325080871582
 21
100.5373711586
 31
0.0
  0
LINE
  5
   542
  8
0
  6
CONTINUOUS
 62
   212
 10
-257.325080871582
 20
99.4475574493408
 30
0.0
 11
-257.325080871582
 21
100.111252784729
 31
0.0
  0
LINE
  5
   543
  8
0
  6
CONTINUOUS
 62
   212
 10
-257.325080871582
 20
98.6112527251244
 30
0.0
 11
-257.325080871582
 21
99.4475574493408
 31
0.0
  0
LINE
  5
   544
  8
0
  6
CONTINUOUS
 62
   212
 10
-257.325080871582
 20
97.6842017173767
 30
0.0
 11
-257.325080871582
 21
98.6112527251244
 31
0.0
  0
LINE
  5
   545
  8
0
  6
CONTINUOUS
 62
   212
 10
-257.325080871582
 20
96.7571507692337
 30
0.0
 11
-257.325080871582
 21
97.6842017173767
 31
0.0
  0
LINE
  5
   546
  8
0
  6
CONTINUOUS
 62
   212
 10
-257.325080871582
 20
95.9208459854126
 30
0.0
 11
-257.325080871582
 21
96.7571507692337
 31
0.0
  0
LINE
  5
   547
  8
0
  6
CONTINUOUS
 62
   212
 10
-257.325080871582
 20
95.2571506500244
 30
0.0
 11
-257.325080871582
 21
95.9208459854126
 31
0.0
  0
LINE
  5
   548
  8
0
  6
CONTINUOUS
 62
   212
 10
-257.325080871582
 20
94.8310322761536
 30
0.0
 11
-257.325080871582
 21
95.2571506500244
 31
0.0
  0
LINE
  5
   549
  8
0
  6
CONTINUOUS
 62
   212
 10
-257.325080871582
 20
94.6842017173767
 30
0.0
 11
-257.675079345703
 21
94.6842017173767
 31
0.0
  0
LINE
  5
   54A
  8
0
  6
CONTINUOUS
 62
   212
 10
-261.925079345703
 20
94.6842017173767
 30
0.0
 11
-264.925079345703
 21
94.6842017173767
 31
0.0
  0
LINE
  5
   54B
  8
0
  6
CONTINUOUS
 62
   212
 10
-269.175079345703
 20
94.6842017173767
 30
0.0
 11
-269.675079345703
 21
94.6842017173767
 31
0.0
  0
LINE
  5
   54C
  8
0
  6
CONTINUOUS
 62
   212
 10
-257.325080871582
 20
94.6842017173767
 30
0.0
 11
-257.325080871582
 21
94.8310322761536
 31
0.0
  0
LINE
  5
   54D
  8
0
  6
DASHDOT
 62
     7
 10
-253.612907636359
 20
97.6842017173767
 30
0.0
 11
-309.669145803479
 21
97.6842017173767
 31
0.0
  0
LINE
  5
   54E
  8
0
  6
DASHDOT
 62
     7
 10
-254.210522115753
 20
26.1842017173767
 30
0.0
 11
-308.414155396752
 21
26.1842017173767
 31
0.0
  0
LINE
  5
   54F
  8
0
  6
CONTINUOUS
 62
     7
 10
-256.325084098747
 20
28.1842027561653
 30
0.0
 11
-257.675079345703
 21
28.1842027561653
 31
0.0
  0
LINE
  5
   550
  8
0
  6
CONTINUOUS
 62
     7
 10
-256.325084092218
 20
24.1842006981746
 30
0.0
 11
-257.675079345703
 21
24.1842006981746
 31
0.0
  0
LINE
  5
   551
  8
0
  6
CONTINUOUS
 62
     7
 10
-282.32508343129
 20
99.6842025336798
 30
0.0
 11
-283.675079345703
 21
99.6842025336798
 31
0.0
  0
LINE
  5
   552
  8
0
  6
CONTINUOUS
 62
     7
 10
-282.325083424761
 20
95.6842009206601
 30
0.0
 11
-283.675079345703
 21
95.6842009206601
 31
0.0
  0
LINE
  5
   553
  8
0
  6
CONTINUOUS
 62
     7
 10
-287.925079345703
 20
99.6842025336798
 30
0.0
 11
-290.925079345703
 21
99.6842025336798
 31
0.0
  0
LINE
  5
   554
  8
0
  6
CONTINUOUS
 62
     7
 10
-287.925079345703
 20
95.6842009206601
 30
0.0
 11
-290.925079345703
 21
95.6842009206601
 31
0.0
  0
LINE
  5
   555
  8
0
  6
CONTINUOUS
 62
     7
 10
-261.925079345703
 20
24.1842006981746
 30
0.0
 11
-264.925079345703
 21
24.1842006981746
 31
0.0
  0
LINE
  5
   556
  8
0
  6
CONTINUOUS
 62
     7
 10
-261.925079345703
 20
28.1842027561653
 30
0.0
 11
-264.925079345703
 21
28.1842027561653
 31
0.0
  0
LINE
  5
   557
  8
0
  6
CONTINUOUS
 62
     7
 10
-256.325080871582
 20
95.6842017173767
 30
0.0
 11
-257.675079345703
 21
95.6842017173767
 31
0.0
  0
LINE
  5
   558
  8
0
  6
CONTINUOUS
 62
     7
 10
-256.325080871582
 20
99.6842017173767
 30
0.0
 11
-257.675079345703
 21
99.6842017173767
 31
0.0
  0
LINE
  5
   559
  8
0
  6
CONTINUOUS
 62
     7
 10
-261.925079345703
 20
99.6842017173767
 30
0.0
 11
-264.925079345703
 21
99.6842017173767
 31
0.0
  0
LINE
  5
   55A
  8
0
  6
CONTINUOUS
 62
     7
 10
-261.925079345703
 20
95.6842017173767
 30
0.0
 11
-264.925079345703
 21
95.6842017173767
 31
0.0
  0
LINE
  5
   55B
  8
0
  6
CONTINUOUS
 62
     7
 10
-399.575071334839
 20
87.0592017173767
 30
0.0
 11
-399.575071334839
 21
90.5592017173767
 31
0.0
  0
LINE
  5
   55C
  8
0
  6
CONTINUOUS
 62
     7
 10
-398.575071334839
 20
87.0592017173767
 30
0.0
 11
-398.575071334839
 21
90.5592017173767
 31
0.0
  0
LINE
  5
   55D
  8
0
  6
CONTINUOUS
 62
     7
 10
-398.575071334839
 20
90.5592017173767
 30
0.0
 11
-399.575071334839
 21
90.5592017173767
 31
0.0
  0
LINE
  5
   55E
  8
0
  6
CONTINUOUS
 62
     7
 10
-396.575072288513
 20
87.8092017173767
 30
0.0
 11
-397.825075149536
 21
87.8092017173767
 31
0.0
  0
LINE
  5
   55F
  8
0
  6
CONTINUOUS
 62
     7
 10
-396.575072288513
 20
87.8092017173767
 30
0.0
 11
-396.575072288513
 21
93.0592017173767
 31
0.0
  0
LINE
  5
   560
  8
0
  6
CONTINUOUS
 62
     7
 10
-398.325075149536
 20
94.8092017173767
 30
0.0
 11
-399.575075149536
 21
94.8092017173767
 31
0.0
  0
LINE
  5
   561
  8
0
  6
CONTINUOUS
 62
     7
 10
-400.075075149536
 20
97.8091330528259
 30
0.0
 11
-400.075075149536
 21
99.3092017173767
 31
0.0
  0
LINE
  5
   562
  8
0
  6
CONTINUOUS
 62
     7
 10
-400.075075149536
 20
99.3092017173767
 30
0.0
 11
-401.325071334839
 21
99.3092017173767
 31
0.0
  0
LINE
  5
   563
  8
0
  6
CONTINUOUS
 62
     7
 10
-398.325075149536
 20
93.5592017173767
 30
0.0
 11
-399.575075149536
 21
93.5592017173767
 31
0.0
  0
LINE
  5
   564
  8
0
  6
CONTINUOUS
 62
     7
 10
-397.825075149536
 20
87.8092017173767
 30
0.0
 11
-397.825075149536
 21
93.0592017173767
 31
0.0
  0
ARC
  5
   565
  8
0
  6
CONTINUOUS
 62
     7
 10
-398.32508247629
 20
93.0591953742245
 30
0.0
 40
1.75000922655776
 50
360.000319242658
 51
449.999813057862
  0
ARC
  5
   566
  8
0
  6
CONTINUOUS
 62
     7
 10
-398.325053025461
 20
93.0592221647679
 30
0.0
 40
0.499974910621752
 50
359.998830132094
 51
450.002235749312
  0
ARC
  5
   567
  8
0
  6
CONTINUOUS
 62
     7
 10
-399.575084825727
 20
95.3091856939096
 30
0.0
 40
1.74998552797211
 50
196.603489300583
 51
270.000346548696
  0
LINE
  5
   568
  8
0
  6
CONTINUOUS
 62
     7
 10
-396.575072288513
 20
92.3092017173767
 30
0.0
 11
-397.825075149536
 21
92.3092017173767
 31
0.0
  0
INSERT
  5
   569
  8
0
  6
CONTINUOUS
 62
     7
  2
*HATCH14
 10
-382.575073242188
 20
5.81567144393921
 30
0.0
 41
0.5
 42
0.5
 50
89.9999999480344
 43
0.5
  0
LINE
  5
   56A
  8
0
  6
DOT
 62
     7
 10
-417.825071334839
 20
34.5592017173767
 30
0.0
 11
-417.825071334839
 21
87.0592017173767
 31
0.0
  0
LINE
  5
   56B
  8
0
  6
DOT
 62
     7
 10
-411.288538527344
 20
87.0592017173767
 30
0.0
 11
-417.825071334839
 21
87.0592017173767
 31
0.0
  0
LINE
  5
   56C
  8
0
  6
DOT
 62
     7
 10
-410.103006967672
 20
34.5592017173767
 30
0.0
 11
-417.825071334839
 21
34.5592017173767
 31
0.0
  0
LINE
  5
   56D
  8
0
  6
CONTINUOUS
 62
     7
 10
-303.225080871582
 20
84.9842017173767
 30
0.0
 11
-303.225080871582
 21
88.8842017173767
 31
0.0
  0
LINE
  5
   56E
  8
0
  6
CONTINUOUS
 62
     7
 10
-301.625080871582
 20
85.9342017173767
 30
0.0
 11
-301.625080871582
 21
87.9342017173767
 31
0.0
  0
LINE
  5
   56F
  8
0
  6
CONTINUOUS
 62
     7
 10
-303.225080871582
 20
88.8842017173767
 30
0.0
 11
-304.825080871582
 21
88.8842017173767
 31
0.0
  0
LINE
  5
   570
  8
0
  6
CONTINUOUS
 62
     7
 10
-303.225080871582
 20
84.9842017173767
 30
0.0
 11
-304.825080871582
 21
84.9842017173767
 31
0.0
  0
LINE
  5
   571
  8
0
  6
CONTINUOUS
 62
     7
 10
-301.625080871582
 20
85.9342017173767
 30
0.0
 11
-304.825080871582
 21
85.9342017173767
 31
0.0
  0
LINE
  5
   572
  8
0
  6
CONTINUOUS
 62
     7
 10
-301.625080871582
 20
87.9342017173767
 30
0.0
 11
-304.825080871582
 21
87.9342017173767
 31
0.0
  0
LINE
  5
   573
  8
0
  6
CONTINUOUS
 62
     7
 10
-303.225080871582
 20
38.8842017173767
 30
0.0
 11
-304.825080871582
 21
38.8842017173767
 31
0.0
  0
LINE
  5
   574
  8
0
  6
CONTINUOUS
 62
     7
 10
-301.625080871582
 20
37.9342017173767
 30
0.0
 11
-304.825080871582
 21
37.9342017173767
 31
0.0
  0
LINE
  5
   575
  8
0
  6
CONTINUOUS
 62
     7
 10
-301.625080871582
 20
35.9342017173767
 30
0.0
 11
-304.825080871582
 21
35.9342017173767
 31
0.0
  0
LINE
  5
   576
  8
0
  6
CONTINUOUS
 62
     7
 10
-303.225080871582
 20
34.9842017173767
 30
0.0
 11
-304.825080871582
 21
34.9842017173767
 31
0.0
  0
LINE
  5
   577
  8
0
  6
CONTINUOUS
 62
     7
 10
-303.225080871582
 20
34.9842017173767
 30
0.0
 11
-303.225080871582
 21
38.8842017173767
 31
0.0
  0
LINE
  5
   578
  8
0
  6
CONTINUOUS
 62
     7
 10
-301.625080871582
 20
35.9342017173767
 30
0.0
 11
-301.625080871582
 21
37.9342017173767
 31
0.0
  0
CIRCLE
  5
   579
  8
0
  6
CONTINUOUS
 62
     7
 10
-303.183203783287
 20
36.7367274701807
 30
0.0
 40
0.1
  0
LINE
  5
   57A
  8
0
  6
CONTINUOUS
 62
     7
 10
-292.175079345703
 20
20.6842017173767
 30
0.0
 11
-292.175079345703
 21
23.4004533290863
 31
0.0
  0
LINE
  5
   57B
  8
0
  6
CONTINUOUS
 62
     7
 10
-292.175079345703
 20
23.5409643650055
 30
0.0
 11
-292.175079345703
 21
28.8274400234222
 31
0.0
  0
LINE
  5
   57C
  8
0
  6
CONTINUOUS
 62
     7
 10
-292.175079345703
 20
28.9679508209229
 30
0.0
 11
-292.175079345703
 21
31.6842017173767
 31
0.0
  0
LINE
  5
   57D
  8
0
  6
CONTINUOUS
 62
     7
 10
-290.925079345703
 20
20.6842017173767
 30
0.0
 11
-290.925079345703
 21
31.6842017173767
 31
0.0
  0
LINE
  5
   57E
  8
0
  6
CONTINUOUS
 62
     7
 10
-287.925079345703
 20
20.6842017173767
 30
0.0
 11
-287.925079345703
 21
31.6842017173767
 31
0.0
  0
LINE
  5
   57F
  8
0
  6
CONTINUOUS
 62
     7
 10
-286.675079345703
 20
28.9679501056671
 30
0.0
 11
-286.675079345703
 21
31.6842017173767
 31
0.0
  0
LINE
  5
   580
  8
0
  6
CONTINUOUS
 62
     7
 10
-286.675079345703
 20
23.5409634113312
 30
0.0
 11
-286.675079345703
 21
28.8274390697479
 31
0.0
  0
LINE
  5
   581
  8
0
  6
CONTINUOUS
 62
     7
 10
-286.675079345703
 20
20.6842017173767
 30
0.0
 11
-286.675079345703
 21
23.4004526138306
 31
0.0
  0
LINE
  5
   582
  8
0
  6
CONTINUOUS
 62
     7
 10
-298.675079345703
 20
29.6211080551147
 30
0.0
 11
-298.675079345703
 21
31.0009183883667
 31
0.0
  0
LINE
  5
   583
  8
0
  6
CONTINUOUS
 62
     7
 10
-298.675079345703
 20
24.6287546157837
 30
0.0
 11
-298.675079345703
 21
27.7396483421326
 31
0.0
  0
LINE
  5
   584
  8
0
  6
CONTINUOUS
 62
     7
 10
-298.675079345703
 20
21.3674845695496
 30
0.0
 11
-298.675079345703
 21
22.7472949028015
 31
0.0
  0
LINE
  5
   585
  8
0
  6
CONTINUOUS
 62
     3
 10
-295.675079345703
 20
20.6993741989136
 30
0.0
 11
-295.675079345703
 21
31.6690292358398
 31
0.0
  0
LINE
  5
   586
  8
0
  6
CONTINUOUS
 62
     3
 10
-298.675079345703
 20
20.6993741989136
 30
0.0
 11
-298.675079345703
 21
21.3674850463867
 31
0.0
  0
LINE
  5
   587
  8
0
  6
CONTINUOUS
 62
     3
 10
-298.675079345703
 20
22.7472929954529
 30
0.0
 11
-298.675079345703
 21
24.6287548542023
 31
0.0
  0
LINE
  5
   588
  8
0
  6
CONTINUOUS
 62
     3
 10
-298.675079345703
 20
27.7396483421326
 30
0.0
 11
-298.675079345703
 21
29.6211059093475
 31
0.0
  0
LINE
  5
   589
  8
0
  6
CONTINUOUS
 62
     3
 10
-298.675079345703
 20
31.000919342041
 30
0.0
 11
-298.675079345703
 21
31.6690292358398
 31
0.0
  0
LINE
  5
   58A
  8
0
  6
CONTINUOUS
 62
     3
 10
-292.175079345703
 20
28.8274374008179
 30
0.0
 11
-292.175079345703
 21
28.9679505825043
 31
0.0
  0
LINE
  5
   58B
  8
0
  6
CONTINUOUS
 62
     3
 10
-292.175079345703
 20
23.400454044342
 30
0.0
 11
-292.175079345703
 21
23.5409607887268
 31
0.0
  0
LINE
  5
   58C
  8
0
  6
CONTINUOUS
 62
     3
 10
-295.175079345703
 20
20.6993741989136
 30
0.0
 11
-295.175079345703
 21
31.6690292358398
 31
0.0
  0
LINE
  5
   58D
  8
0
  6
CONTINUOUS
 62
     3
 10
-286.675079345703
 20
23.4004542827606
 30
0.0
 11
-286.675079345703
 21
23.5409610271454
 31
0.0
  0
LINE
  5
   58E
  8
0
  6
CONTINUOUS
 62
     3
 10
-286.675079345703
 20
28.8274381160736
 30
0.0
 11
-286.675079345703
 21
28.9679508209229
 31
0.0
  0
LINE
  5
   58F
  8
0
  6
CONTINUOUS
 62
     3
 10
-283.675079345703
 20
20.6993741989136
 30
0.0
 11
-283.675079345703
 21
31.6690292358398
 31
0.0
  0
LINE
  5
   590
  8
0
  6
CONTINUOUS
 62
   212
 10
-282.325080871582
 20
24.1842017173767
 30
0.0
 11
-282.325080871582
 21
28.1842017173767
 31
0.0
  0
LINE
  5
   591
  8
0
  6
CONTINUOUS
 62
     7
 10
-290.925079345703
 20
31.6842017173767
 30
0.0
 11
-292.175079345703
 21
31.6842017173767
 31
0.0
  0
LINE
  5
   592
  8
0
  6
CONTINUOUS
 62
     7
 10
-290.925079345703
 20
20.6842017173767
 30
0.0
 11
-292.175079345703
 21
20.6842017173767
 31
0.0
  0
LINE
  5
   593
  8
0
  6
CONTINUOUS
 62
     7
 10
-286.675079345703
 20
31.6842017173767
 30
0.0
 11
-287.925079345703
 21
31.6842017173767
 31
0.0
  0
LINE
  5
   594
  8
0
  6
CONTINUOUS
 62
     7
 10
-286.675079345703
 20
20.6842017173767
 30
0.0
 11
-287.925079345703
 21
20.6842017173767
 31
0.0
  0
LINE
  5
   595
  8
0
  6
CONTINUOUS
 62
     7
 10
-298.675079345703
 20
31.1842017173767
 30
0.0
 11
-299.075080871582
 21
31.1842017173767
 31
0.0
  0
LINE
  5
   596
  8
0
  6
CONTINUOUS
 62
     7
 10
-298.675079345703
 20
21.1842017173767
 30
0.0
 11
-299.075080871582
 21
21.1842017173767
 31
0.0
  0
LINE
  5
   597
  8
0
  6
CONTINUOUS
 62
     3
 10
-295.675079345703
 20
31.6690292358398
 30
0.0
 11
-298.675079345703
 21
31.6690292358398
 31
0.0
  0
LINE
  5
   598
  8
0
  6
CONTINUOUS
 62
     3
 10
-295.675079345703
 20
28.9266154766083
 30
0.0
 11
-298.675079345703
 21
28.9266154766083
 31
0.0
  0
LINE
  5
   599
  8
0
  6
CONTINUOUS
 62
     3
 10
-295.675079345703
 20
23.4417879581451
 30
0.0
 11
-298.675079345703
 21
23.4417879581451
 31
0.0
  0
LINE
  5
   59A
  8
0
  6
CONTINUOUS
 62
     3
 10
-295.675079345703
 20
20.6993741989136
 30
0.0
 11
-298.675079345703
 21
20.6993741989136
 31
0.0
  0
LINE
  5
   59B
  8
0
  6
CONTINUOUS
 62
     3
 10
-292.175079345703
 20
31.6690292358398
 30
0.0
 11
-295.175079345703
 21
31.6690292358398
 31
0.0
  0
LINE
  5
   59C
  8
0
  6
CONTINUOUS
 62
     3
 10
-292.175079345703
 20
28.9266154766083
 30
0.0
 11
-295.175079345703
 21
28.9266154766083
 31
0.0
  0
LINE
  5
   59D
  8
0
  6
CONTINUOUS
 62
     3
 10
-292.175079345703
 20
23.4417879581451
 30
0.0
 11
-295.175079345703
 21
23.4417879581451
 31
0.0
  0
LINE
  5
   59E
  8
0
  6
CONTINUOUS
 62
     3
 10
-292.175079345703
 20
20.6993741989136
 30
0.0
 11
-295.175079345703
 21
20.6993741989136
 31
0.0
  0
LINE
  5
   59F
  8
0
  6
CONTINUOUS
 62
     3
 10
-283.675079345703
 20
31.6690292358398
 30
0.0
 11
-286.675079345703
 21
31.6690292358398
 31
0.0
  0
LINE
  5
   5A0
  8
0
  6
CONTINUOUS
 62
     3
 10
-283.675079345703
 20
28.9266154766083
 30
0.0
 11
-286.675079345703
 21
28.9266154766083
 31
0.0
  0
LINE
  5
   5A1
  8
0
  6
CONTINUOUS
 62
     3
 10
-283.675079345703
 20
23.4417879581451
 30
0.0
 11
-286.675079345703
 21
23.4417879581451
 31
0.0
  0
LINE
  5
   5A2
  8
0
  6
CONTINUOUS
 62
     3
 10
-283.675079345703
 20
20.6993741989136
 30
0.0
 11
-286.675079345703
 21
20.6993741989136
 31
0.0
  0
LINE
  5
   5A3
  8
0
  6
CONTINUOUS
 62
   212
 10
-282.32508343129
 20
28.1842025336798
 30
0.0
 11
-283.325083397061
 21
29.1842024994512
 31
0.0
  0
LINE
  5
   5A4
  8
0
  6
CONTINUOUS
 62
   212
 10
-283.325083390533
 20
23.1842009548887
 30
0.0
 11
-282.325083424761
 21
24.1842009206601
 31
0.0
  0
LINE
  5
   5A5
  8
0
  6
CONTINUOUS
 62
   212
 10
-283.325080871582
 20
23.1842017173767
 30
0.0
 11
-283.325080871582
 21
23.3310322761536
 31
0.0
  0
LINE
  5
   5A6
  8
0
  6
CONTINUOUS
 62
   212
 10
-283.325080871582
 20
23.3310322761536
 30
0.0
 11
-283.325080871582
 21
23.7571506500244
 31
0.0
  0
LINE
  5
   5A7
  8
0
  6
CONTINUOUS
 62
   212
 10
-283.325080871582
 20
23.7571506500244
 30
0.0
 11
-283.325080871582
 21
24.4208459854126
 31
0.0
  0
LINE
  5
   5A8
  8
0
  6
CONTINUOUS
 62
   212
 10
-283.325080871582
 20
24.4208459854126
 30
0.0
 11
-283.325080871582
 21
25.2571507692337
 31
0.0
  0
LINE
  5
   5A9
  8
0
  6
CONTINUOUS
 62
   212
 10
-283.325080871582
 20
25.2571507692337
 30
0.0
 11
-283.325080871582
 21
26.1842017173767
 31
0.0
  0
LINE
  5
   5AA
  8
0
  6
CONTINUOUS
 62
   212
 10
-283.325080871582
 20
26.1842017173767
 30
0.0
 11
-283.325080871582
 21
27.1112527251244
 31
0.0
  0
LINE
  5
   5AB
  8
0
  6
CONTINUOUS
 62
   212
 10
-283.325080871582
 20
27.1112527251244
 30
0.0
 11
-283.325080871582
 21
27.9475574493408
 31
0.0
  0
LINE
  5
   5AC
  8
0
  6
CONTINUOUS
 62
   212
 10
-283.325080871582
 20
27.9475574493408
 30
0.0
 11
-283.325080871582
 21
28.611252784729
 31
0.0
  0
LINE
  5
   5AD
  8
0
  6
CONTINUOUS
 62
   212
 10
-283.325080871582
 20
28.611252784729
 30
0.0
 11
-283.325080871582
 21
29.0373711585999
 31
0.0
  0
LINE
  5
   5AE
  8
0
  6
CONTINUOUS
 62
   212
 10
-283.325080871582
 20
29.0373711585999
 30
0.0
 11
-283.325080871582
 21
29.1842017173767
 31
0.0
  0
LINE
  5
   5AF
  8
0
  6
CONTINUOUS
 62
   212
 10
-283.325080871582
 20
29.1842017173767
 30
0.0
 11
-283.675079345703
 21
29.1842017173767
 31
0.0
  0
LINE
  5
   5B0
  8
0
  6
CONTINUOUS
 62
   212
 10
-287.925079345703
 20
29.1842017173767
 30
0.0
 11
-290.925079345703
 21
29.1842017173767
 31
0.0
  0
LINE
  5
   5B1
  8
0
  6
CONTINUOUS
 62
   212
 10
-295.175079345703
 20
29.1842017173767
 30
0.0
 11
-295.675079345703
 21
29.1842017173767
 31
0.0
  0
LINE
  5
   5B2
  8
0
  6
CONTINUOUS
 62
   212
 10
-283.325080871582
 20
23.1842017173767
 30
0.0
 11
-283.675079345703
 21
23.1842017173767
 31
0.0
  0
LINE
  5
   5B3
  8
0
  6
CONTINUOUS
 62
   212
 10
-287.925079345703
 20
23.1842017173767
 30
0.0
 11
-290.925079345703
 21
23.1842017173767
 31
0.0
  0
LINE
  5
   5B4
  8
0
  6
CONTINUOUS
 62
   212
 10
-295.175079345703
 20
23.1842017173767
 30
0.0
 11
-295.675079345703
 21
23.1842017173767
 31
0.0
  0
LINE
  5
   5B5
  8
0
  6
CONTINUOUS
 62
   253
 10
-295.175079345703
 20
31.1842017173767
 30
0.0
 11
-295.675079345703
 21
31.1842017173767
 31
0.0
  0
LINE
  5
   5B6
  8
0
  6
CONTINUOUS
 62
   253
 10
-287.925079345703
 20
31.1842017173767
 30
0.0
 11
-290.925079345703
 21
31.1842017173767
 31
0.0
  0
LINE
  5
   5B7
  8
0
  6
CONTINUOUS
 62
   253
 10
-295.175079345703
 20
21.1842017173767
 30
0.0
 11
-295.675079345703
 21
21.1842017173767
 31
0.0
  0
LINE
  5
   5B8
  8
0
  6
CONTINUOUS
 62
   253
 10
-287.925079345703
 20
21.1842017173767
 30
0.0
 11
-290.925079345703
 21
21.1842017173767
 31
0.0
  0
LINE
  5
   5B9
  8
0
  6
CONTINUOUS
 62
     7
 10
-282.32508343129
 20
28.1842025336798
 30
0.0
 11
-283.675079345703
 21
28.1842025336798
 31
0.0
  0
LINE
  5
   5BA
  8
0
  6
CONTINUOUS
 62
     7
 10
-282.325083424761
 20
24.1842009206601
 30
0.0
 11
-283.675079345703
 21
24.1842009206601
 31
0.0
  0
LINE
  5
   5BB
  8
0
  6
CONTINUOUS
 62
     7
 10
-287.925079345703
 20
28.1842025336798
 30
0.0
 11
-290.925079345703
 21
28.1842025336798
 31
0.0
  0
LINE
  5
   5BC
  8
0
  6
CONTINUOUS
 62
     7
 10
-287.925079345703
 20
24.1842009206601
 30
0.0
 11
-290.925079345703
 21
24.1842009206601
 31
0.0
  0
TEXT
  5
   5BD
  8
0
  6
CONTINUOUS
 62
     7
 10
-388.176367658488
 20
137.637036819579
 30
0.0
 40
3.00000002980232
  1
ISOLATING DISTANCE
 50
359.999999948034
 41
0.916666689183977
 72
     1
 11
-363.701366811991
 21
139.137036812405
 31
0.0
 73
     2
  0
INSERT
  5
   5BE
  8
0
  6
CONTINUOUS
 62
     7
  2
*UDIM62
 10
0.0
 20
0.0
 30
0.0
  0
INSERT
  5
   5BF
  8
0
  6
CONTINUOUS
 62
     7
  2
*UDIM63
 10
0.0
 20
0.0
 30
0.0
  0
INSERT
  5
   5C0
  8
0
  6
CONTINUOUS
 62
     7
  2
*UDIM64
 10
0.0
 20
0.0
 30
0.0
  0
INSERT
  5
   5C1
  8
0
  6
CONTINUOUS
 62
     7
  2
*UDIM65
 10
0.0
 20
0.0
 30
0.0
  0
INSERT
  5
   5C2
  8
0
  6
CONTINUOUS
 62
     7
  2
*UDIM66
 10
0.0
 20
0.0
 30
0.0
  0
INSERT
  5
   5C3
  8
0
  6
CONTINUOUS
 62
     7
  2
*UDIM67
 10
0.0
 20
0.0
 30
0.0
  0
INSERT
  5
   5C4
  8
0
  6
CONTINUOUS
 62
     7
  2
*UDIM68
 10
0.0
 20
0.0
 30
0.0
  0
TEXT
  5
   5C5
  8
0
  6
CONTINUOUS
 62
     7
 10
-420.518749251756
 20
44.2164530884548
 30
0.0
 40
3.00000002980232
  1
=          =
 50
89.9999999480344
 41
0.916666604744064
 72
     2
 11
-420.518749222365
 21
76.6664512143855
 31
0.0
  0
INSERT
  5
   5C6
  8
0
  6
CONTINUOUS
 62
     7
  2
*UDIM69
 10
0.0
 20
0.0
 30
0.0
  0
INSERT
  5
   5C7
  8
0
  6
CONTINUOUS
 62
     7
  2
*UDIM70
 10
0.0
 20
0.0
 30
0.0
  0
INSERT
  5
   5C8
  8
0
  6
CONTINUOUS
 62
     7
  2
*UDIM71
 10
0.0
 20
0.0
 30
0.0
  0
INSERT
  5
   5C9
  8
0
  6
CONTINUOUS
 62
     7
  2
*UDIM72
 10
0.0
 20
0.0
 30
0.0
  0
INSERT
  5
   5CA
  8
0
  6
CONTINUOUS
 62
     7
  2
*UDIM73
 10
0.0
 20
0.0
 30
0.0
  0
INSERT
  5
   5CB
  8
0
  6
CONTINUOUS
 62
     7
  2
*UDIM74
 10
0.0
 20
0.0
 30
0.0
  0
TEXT
  5
   5CC
  8
0
  6
CONTINUOUS
 62
     7
 10
-139.851989503066
 20
60.0683952109028
 30
0.0
 40
3.00000002980232
  1
X
 50
359.999999948034
 41
0.916666604744064
 72
     2
 11
-137.651989634196
 21
60.0683952089185
 31
0.0
  0
TEXT
  5
   5CD
  8
0
  6
CONTINUOUS
 62
     7
 10
-432.289381439845
 20
59.5666719629376
 30
0.0
 40
3.00000002980232
  1
X
 50
359.999999948034
 41
0.916666604744064
 72
     2
 11
-430.089381570976
 21
59.5666719609533
 31
0.0
  0
LINE
  5
   5CE
  8
0
  6
DASHDOT
 62
     7
 10
-378.271575927734
 20
-48.9587274237763
 30
0.0
 11
-378.271575927734
 21
-109.679384599034
 31
0.0
  0
LINE
  5
   5CF
  8
0
  6
CONTINUOUS
 62
     3
 10
-395.146575927734
 20
-50.3687862261045
 30
0.0
 11
-395.146575927734
 21
-106.242366268359
 31
0.0
  0
LINE
  5
   5D0
  8
0
  6
CONTINUOUS
 62
     3
 10
-360.146575927734
 20
-50.3687862261045
 30
0.0
 11
-360.146575927734
 21
-105.977980242923
 31
0.0
  0
LINE
  5
   5D1
  8
0
  6
CONTINUOUS
 62
     3
 10
-357.814072981559
 20
-53.2264709472656
 30
0.0
 11
-397.625800299721
 21
-53.2264709472656
 31
0.0
  0
LINE
  5
   5D2
  8
0
  6
CONTINUOUS
 62
     3
 10
-357.814072981559
 20
-102.976470947266
 30
0.0
 11
-397.877052013896
 21
-102.976470947266
 31
0.0
  0
LINE
  5
   5D3
  8
0
  6
DASHDOT
 62
     7
 10
-372.021575927734
 20
-60.1501040835804
 30
0.0
 11
-372.021575927734
 21
-96.4559767819166
 31
0.0
  0
LINE
  5
   5D4
  8
0
  6
DASHDOT
 62
     7
 10
-389.521575927734
 20
-59.1450972268791
 30
0.0
 11
-389.521575927734
 21
-96.3303509248289
 31
0.0
  0
LINE
  5
   5D5
  8
0
  6
DASHDOT
 62
     7
 10
-368.480601455382
 20
-65.6014709472656
 30
0.0
 11
-393.35452115874
 21
-65.6014709472656
 31
0.0
  0
LINE
  5
   5D6
  8
0
  6
DASHDOT
 62
     7
 10
-368.857479026645
 20
-90.6014709472656
 30
0.0
 11
-392.977643587477
 21
-90.6014709472656
 31
0.0
  0
CIRCLE
  5
   5D7
  8
0
  6
CONTINUOUS
 62
     7
 10
-389.521575927734
 20
-65.6014709472656
 30
0.0
 40
0.625
  0
CIRCLE
  5
   5D8
  8
0
  6
CONTINUOUS
 62
     7
 10
-372.021575927734
 20
-65.6014709472656
 30
0.0
 40
0.625
  0
CIRCLE
  5
   5D9
  8
0
  6
CONTINUOUS
 62
     7
 10
-372.021575927734
 20
-90.6014709472656
 30
0.0
 40
0.625
  0
CIRCLE
  5
   5DA
  8
0
  6
CONTINUOUS
 62
     7
 10
-389.521575927734
 20
-90.6014709472656
 30
0.0
 40
0.625
  0
LINE
  5
   5DB
  8
0
  6
DASHDOT
 62
     7
 10
-364.171631908637
 20
-60.2264709472656
 30
0.0
 11
-392.936178077938
 21
-60.2264709472656
 31
0.0
  0
LINE
  5
   5DC
  8
0
  6
DASHDOT
 62
     7
 10
-364.171631908637
 20
-95.9764709472656
 30
0.0
 11
-392.282438392272
 21
-95.9764709472656
 31
0.0
  0
LINE
  5
   5DD
  8
0
  6
CONTINUOUS
 62
     7
 10
-369.521575927734
 20
-56.7264709472656
 30
0.0
 11
-387.021575927734
 21
-56.7264709472656
 31
0.0
  0
LINE
  5
   5DE
  8
0
  6
CONTINUOUS
 62
     7
 10
-369.521575927734
 20
-63.7264709472656
 30
0.0
 11
-387.021575927734
 21
-63.7264709472656
 31
0.0
  0
LINE
  5
   5DF
  8
0
  6
CONTINUOUS
 62
     7
 10
-369.521575927734
 20
-92.4764709472656
 30
0.0
 11
-387.021575927734
 21
-92.4764709472656
 31
0.0
  0
LINE
  5
   5E0
  8
0
  6
CONTINUOUS
 62
     7
 10
-369.521575927734
 20
-99.4764709472656
 30
0.0
 11
-387.021575927734
 21
-99.4764709472656
 31
0.0
  0
LINE
  5
   5E1
  8
0
  6
DASHDOT
 62
     7
 10
-369.521575927734
 20
-54.5406618285396
 30
0.0
 11
-369.521575927734
 21
-102.002163007887
 31
0.0
  0
LINE
  5
   5E2
  8
0
  6
DASHDOT
 62
     7
 10
-387.021575927734
 20
-54.5406618285396
 30
0.0
 11
-387.021575927734
 21
-102.002163007887
 31
0.0
  0
ARC
  5
   5E3
  8
0
  6
CONTINUOUS
 62
     7
 10
-369.521575927734
 20
-60.2264709472656
 30
0.0
 40
3.5
 50
269.999999896069
 51
449.999999896069
  0
ARC
  5
   5E4
  8
0
  6
CONTINUOUS
 62
     7
 10
-387.021575927734
 20
-60.2264709472656
 30
0.0
 40
3.5
 50
449.999999896069
 51
629.999999896069
  0
ARC
  5
   5E5
  8
0
  6
CONTINUOUS
 62
     7
 10
-369.521575927734
 20
-95.9764709472656
 30
0.0
 40
3.5
 50
269.999999896069
 51
449.999999896069
  0
ARC
  5
   5E6
  8
0
  6
CONTINUOUS
 62
     7
 10
-387.021575927734
 20
-95.9764709472656
 30
0.0
 40
3.5
 50
449.999999896069
 51
629.999999896069
  0
LINE
  5
   5E7
  8
0
  6
DASHDOT
 62
     7
 10
-333.917548329898
 20
-78.6639709472656
 30
0.0
 11
-341.236311652142
 21
-78.6639709472656
 31
0.0
  0
LINE
  5
   5E8
  8
0
  6
DASHDOT
 62
     7
 10
-357.16986930161
 20
-78.6639709472656
 30
0.0
 11
-407.295774347185
 21
-78.6639709472656
 31
0.0
  0
INSERT
  5
   5E9
  8
0
  6
CONTINUOUS
 62
     7
  2
*UDIM75
 10
0.0
 20
0.0
 30
0.0
  0
INSERT
  5
   5EA
  8
0
  6
CONTINUOUS
 62
     7
  2
*UDIM76
 10
0.0
 20
0.0
 30
0.0
  0
INSERT
  5
   5EB
  8
0
  6
CONTINUOUS
 62
     7
  2
*UDIM77
 10
0.0
 20
0.0
 30
0.0
  0
INSERT
  5
   5EC
  8
0
  6
CONTINUOUS
 62
     7
  2
*UDIM78
 10
0.0
 20
0.0
 30
0.0
  0
INSERT
  5
   5ED
  8
0
  6
CONTINUOUS
 62
     7
  2
*UDIM79
 10
0.0
 20
0.0
 30
0.0
  0
INSERT
  5
   5EE
  8
0
  6
CONTINUOUS
 62
     7
  2
*UDIM80
 10
0.0
 20
0.0
 30
0.0
  0
INSERT
  5
   5EF
  8
0
  6
CONTINUOUS
 62
     7
  2
*UDIM81
 10
0.0
 20
0.0
 30
0.0
  0
INSERT
  5
   5F0
  8
0
  6
CONTINUOUS
 62
     7
  2
*UDIM82
 10
0.0
 20
0.0
 30
0.0
  0
INSERT
  5
   5F1
  8
0
  6
CONTINUOUS
 62
     7
  2
*UDIM83
 10
0.0
 20
0.0
 30
0.0
  0
INSERT
  5
   5F2
  8
0
  6
CONTINUOUS
 62
     7
  2
*UDIM84
 10
0.0
 20
0.0
 30
0.0
  0
TEXT
  5
   5F3
  8
0
  6
CONTINUOUS
 62
     7
 10
-379.158799174161
 20
-130.611187009014
 30
0.0
 40
3.00000002980232
  1
Y
 50
359.999999896069
 41
0.916666604744064
 72
     2
 11
-376.958799305291
 21
-130.611187012993
 31
0.0
  0
TEXT
  5
   5F4
  8
0
  6
CONTINUOUS
 62
     7
 10
-379.505129340024
 20
-46.1713371554981
 30
0.0
 40
3.00000002980232
  1
Y
 50
359.999999896069
 41
0.916666604744064
 72
     2
 11
-377.305129471154
 21
-46.1713371594777
 31
0.0
  0
TEXT
  5
   5F5
  8
0
  6
CONTINUOUS
 62
     7
 10
-418.616985323758
 20
-79.2328185121189
 30
0.0
 40
3.00000002980232
  1
X
 50
359.999999896069
 41
0.916666604744064
 72
     2
 11
-416.416985454889
 21
-79.2328185160985
 31
0.0
  0
TEXT
  5
   5F6
  8
0
  6
CONTINUOUS
 62
     7
 10
-331.287368777127
 20
-80.0333082954059
 30
0.0
 40
3.00000002980232
  1
X
 50
359.999999896069
 41
0.916666604744064
 72
     2
 11
-329.087368908258
 21
-80.0333082993855
 31
0.0
  0
LINE
  5
   5F7
  8
0
  6
CONTINUOUS
 62
   210
 10
-208.51208114624
 20
-63.5800361633301
 30
0.0
 11
-220.762069702148
 21
-63.5800361633301
 31
0.0
  0
LINE
  5
   5F8
  8
0
  6
CONTINUOUS
 62
   210
 10
-191.01208114624
 20
-63.5800361633301
 30
0.0
 11
-203.51208114624
 21
-63.5800361633301
 31
0.0
  0
LINE
  5
   5F9
  8
0
  6
CONTINUOUS
 62
   210
 10
-173.512077331543
 20
-63.5800361633301
 30
0.0
 11
-185.762069702148
 21
-63.5800361633301
 31
0.0
  0
LINE
  5
   5FA
  8
0
  6
CONTINUOUS
 62
   210
 10
-223.512117385864
 20
-65.8300361633301
 30
0.0
 11
-223.512117385864
 21
-87.5800590515137
 31
0.0
  0
LINE
  5
   5FB
  8
0
  6
CONTINUOUS
 62
   210
 10
-171.012069701918
 20
-65.8300361634923
 30
0.0
 11
-171.012077331312
 21
-69.0800514247663
 31
0.0
  0
LINE
  5
   5FC
  8
0
  6
CONTINUOUS
 62
   210
 10
-171.012084960938
 20
-69.0800361633301
 30
0.0
 11
-171.012084960938
 21
-87.5800590515137
 31
0.0
  0
LINE
  5
   5FD
  8
0
  6
CONTINUOUS
 62
   210
 10
-172.262115478516
 20
-69.0800361633301
 30
0.0
 11
-172.262115478516
 21
-87.5800590515137
 31
0.0
  0
LINE
  5
   5FE
  8
0
  6
CONTINUOUS
 62
   210
 10
-187.637115478516
 20
-69.0800361633301
 30
0.0
 11
-187.637115478516
 21
-87.5800590515137
 31
0.0
  0
LINE
  5
   5FF
  8
0
  6
CONTINUOUS
 62
   210
 10
-189.387115478516
 20
-69.0800361633301
 30
0.0
 11
-189.387115478516
 21
-87.5800590515137
 31
0.0
  0
LINE
  5
   600
  8
0
  6
CONTINUOUS
 62
   210
 10
-205.137115478516
 20
-69.0800361633301
 30
0.0
 11
-205.137115478516
 21
-87.5800590515137
 31
0.0
  0
LINE
  5
   601
  8
0
  6
CONTINUOUS
 62
   210
 10
-206.887115478516
 20
-69.0800361633301
 30
0.0
 11
-206.887115478516
 21
-87.5800590515137
 31
0.0
  0
LINE
  5
   602
  8
0
  6
CONTINUOUS
 62
   210
 10
-222.262115478516
 20
-69.0800361633301
 30
0.0
 11
-222.262115478516
 21
-87.5800590515137
 31
0.0
  0
LINE
  5
   603
  8
0
  6
CONTINUOUS
 62
   210
 10
-171.012084960938
 20
-87.5800590515137
 30
0.0
 11
-174.637077331543
 21
-87.5800590515137
 31
0.0
  0
LINE
  5
   604
  8
0
  6
CONTINUOUS
 62
   210
 10
-184.887077331543
 20
-87.5800590515137
 30
0.0
 11
-192.137084960938
 21
-87.5800590515137
 31
0.0
  0
LINE
  5
   605
  8
0
  6
CONTINUOUS
 62
   210
 10
-202.387084960937
 20
-87.5800590515137
 30
0.0
 11
-209.637084960938
 21
-87.5800590515137
 31
0.0
  0
LINE
  5
   606
  8
0
  6
CONTINUOUS
 62
   210
 10
-219.887084960938
 20
-87.5800590515137
 30
0.0
 11
-223.512117385864
 21
-87.5800590515137
 31
0.0
  0
LINE
  5
   607
  8
0
  6
CONTINUOUS
 62
   210
 10
-223.012117385864
 20
-65.8300361633301
 30
0.0
 11
-223.512117385864
 21
-65.8300361633301
 31
0.0
  0
LINE
  5
   608
  8
0
  6
CONTINUOUS
 62
   210
 10
-203.51208114624
 20
-65.8300361633301
 30
0.0
 11
-208.51208114624
 21
-65.8300361633301
 31
0.0
  0
LINE
  5
   609
  8
0
  6
CONTINUOUS
 62
   210
 10
-189.762115478516
 20
-65.8300361633301
 30
0.0
 11
-191.01208114624
 21
-65.8300361633301
 31
0.0
  0
LINE
  5
   60A
  8
0
  6
CONTINUOUS
 62
   210
 10
-171.012069702148
 20
-65.8300361633301
 30
0.0
 11
-173.512084960938
 21
-65.8300361633301
 31
0.0
  0
LINE
  5
   60B
  8
0
  6
CONTINUOUS
 62
   210
 10
-171.012086868286
 20
-69.0800361633301
 30
0.0
 11
-223.512117385864
 21
-69.0800361633301
 31
0.0
  0
LINE
  5
   60C
  8
0
  6
CONTINUOUS
 62
   210
 10
-174.637077331543
 20
-78.3300590515137
 30
0.0
 11
-174.637077331543
 21
-82.0800514221192
 31
0.0
  0
LINE
  5
   60D
  8
0
  6
CONTINUOUS
 62
   210
 10
-184.887077331543
 20
-78.3300590515137
 30
0.0
 11
-184.887077331543
 21
-82.0800514221192
 31
0.0
  0
LINE
  5
   60E
  8
0
  6
CONTINUOUS
 62
   210
 10
-174.637077331543
 20
-78.3300590515137
 30
0.0
 11
-179.242362976074
 21
-78.3300590515137
 31
0.0
  0
LINE
  5
   60F
  8
0
  6
CONTINUOUS
 62
   210
 10
-180.281799316406
 20
-78.3300590515137
 30
0.0
 11
-184.887077331543
 21
-78.3300590515137
 31
0.0
  0
LINE
  5
   610
  8
0
  6
CONTINUOUS
 62
   210
 10
-192.13708114624
 20
-78.3300590515137
 30
0.0
 11
-192.13708114624
 21
-82.0800514221192
 31
0.0
  0
LINE
  5
   611
  8
0
  6
CONTINUOUS
 62
   210
 10
-202.38708114624
 20
-78.3300590515137
 30
0.0
 11
-202.38708114624
 21
-82.0800514221192
 31
0.0
  0
LINE
  5
   612
  8
0
  6
CONTINUOUS
 62
   210
 10
-192.13708114624
 20
-78.3300590515137
 30
0.0
 11
-196.742359161377
 21
-78.3300590515137
 31
0.0
  0
LINE
  5
   613
  8
0
  6
CONTINUOUS
 62
   210
 10
-197.781799316406
 20
-78.3300590515137
 30
0.0
 11
-202.38708114624
 21
-78.3300590515137
 31
0.0
  0
LINE
  5
   614
  8
0
  6
CONTINUOUS
 62
   210
 10
-209.63708114624
 20
-78.3300590515137
 30
0.0
 11
-209.63708114624
 21
-82.0800514221192
 31
0.0
  0
LINE
  5
   615
  8
0
  6
CONTINUOUS
 62
   210
 10
-219.88708114624
 20
-78.3300590515137
 30
0.0
 11
-219.88708114624
 21
-82.0800514221192
 31
0.0
  0
LINE
  5
   616
  8
0
  6
CONTINUOUS
 62
   210
 10
-209.63708114624
 20
-78.3300590515137
 30
0.0
 11
-214.24235534668
 21
-78.3300590515137
 31
0.0
  0
LINE
  5
   617
  8
0
  6
CONTINUOUS
 62
   210
 10
-215.281795501709
 20
-78.3300590515137
 30
0.0
 11
-219.88708114624
 21
-78.3300590515137
 31
0.0
  0
LINE
  5
   618
  8
0
  6
CONTINUOUS
 62
   210
 10
-220.762069702148
 20
-62.8300361633301
 30
0.0
 11
-223.012117385864
 21
-62.8300361633301
 31
0.0
  0
LINE
  5
   619
  8
0
  6
CONTINUOUS
 62
   210
 10
-185.762069702148
 20
-62.8300361633301
 30
0.0
 11
-188.012115478516
 21
-62.8300361633301
 31
0.0
  0
LINE
  5
   61A
  8
0
  6
CONTINUOUS
 62
   210
 10
-189.762115478516
 20
-65.8300361633301
 30
0.0
 11
-189.762115478516
 21
-69.0800437927246
 31
0.0
  0
LINE
  5
   61B
  8
0
  6
CONTINUOUS
 62
   210
 10
-187.813201904297
 20
-63.8300361633301
 30
0.0
 11
-188.012115478516
 21
-63.8300361633301
 31
0.0
  0
LINE
  5
   61C
  8
0
  6
CONTINUOUS
 62
   210
 10
-220.76208114624
 20
-78.3300590515137
 30
0.0
 11
-220.76208114624
 21
-82.0800514221192
 31
0.0
  0
LINE
  5
   61D
  8
0
  6
CONTINUOUS
 62
   210
 10
-208.76208114624
 20
-78.3300590515137
 30
0.0
 11
-208.76208114624
 21
-82.0800514221192
 31
0.0
  0
LINE
  5
   61E
  8
0
  6
CONTINUOUS
 62
   210
 10
-219.88708114624
 20
-78.3300590515137
 30
0.0
 11
-220.76208114624
 21
-78.3300590515137
 31
0.0
  0
LINE
  5
   61F
  8
0
  6
CONTINUOUS
 62
   210
 10
-208.76208114624
 20
-78.3300590515137
 30
0.0
 11
-209.63708114624
 21
-78.3300590515137
 31
0.0
  0
LINE
  5
   620
  8
0
  6
CONTINUOUS
 62
   210
 10
-220.76208114624
 20
-70.5800590515137
 30
0.0
 11
-220.76208114624
 21
-78.3300590515137
 31
0.0
  0
LINE
  5
   621
  8
0
  6
CONTINUOUS
 62
   210
 10
-219.88708114624
 20
-70.5800590515137
 30
0.0
 11
-219.88708114624
 21
-78.3300590515137
 31
0.0
  0
LINE
  5
   622
  8
0
  6
CONTINUOUS
 62
   210
 10
-208.76208114624
 20
-75.0800590515137
 30
0.0
 11
-208.76208114624
 21
-78.3300590515137
 31
0.0
  0
LINE
  5
   623
  8
0
  6
CONTINUOUS
 62
   210
 10
-209.63708114624
 20
-75.0800590515137
 30
0.0
 11
-209.63708114624
 21
-78.3300590515137
 31
0.0
  0
LINE
  5
   624
  8
0
  6
CONTINUOUS
 62
   210
 10
-203.26208114624
 20
-78.3300590515137
 30
0.0
 11
-203.26208114624
 21
-82.0800514221192
 31
0.0
  0
LINE
  5
   625
  8
0
  6
CONTINUOUS
 62
   210
 10
-191.26208114624
 20
-78.3300590515137
 30
0.0
 11
-191.26208114624
 21
-82.0800514221192
 31
0.0
  0
LINE
  5
   626
  8
0
  6
CONTINUOUS
 62
   210
 10
-202.38708114624
 20
-78.3300590515137
 30
0.0
 11
-203.26208114624
 21
-78.3300590515137
 31
0.0
  0
LINE
  5
   627
  8
0
  6
CONTINUOUS
 62
   210
 10
-191.26208114624
 20
-78.3300590515137
 30
0.0
 11
-192.13708114624
 21
-78.3300590515137
 31
0.0
  0
LINE
  5
   628
  8
0
  6
CONTINUOUS
 62
   210
 10
-203.26208114624
 20
-75.0800590515137
 30
0.0
 11
-203.26208114624
 21
-78.3300590515137
 31
0.0
  0
LINE
  5
   629
  8
0
  6
CONTINUOUS
 62
   210
 10
-202.38708114624
 20
-75.0800590515137
 30
0.0
 11
-202.38708114624
 21
-78.3300590515137
 31
0.0
  0
LINE
  5
   62A
  8
0
  6
CONTINUOUS
 62
   210
 10
-191.26208114624
 20
-75.0800590515137
 30
0.0
 11
-191.26208114624
 21
-78.3300590515137
 31
0.0
  0
LINE
  5
   62B
  8
0
  6
CONTINUOUS
 62
   210
 10
-192.13708114624
 20
-75.0800590515137
 30
0.0
 11
-192.13708114624
 21
-78.3300590515137
 31
0.0
  0
LINE
  5
   62C
  8
0
  6
CONTINUOUS
 62
   210
 10
-185.762077331543
 20
-78.3300590515137
 30
0.0
 11
-185.762077331543
 21
-82.0800514221192
 31
0.0
  0
LINE
  5
   62D
  8
0
  6
CONTINUOUS
 62
   210
 10
-173.762077331543
 20
-78.3300590515137
 30
0.0
 11
-173.762077331543
 21
-82.0800514221192
 31
0.0
  0
LINE
  5
   62E
  8
0
  6
CONTINUOUS
 62
   210
 10
-184.887077331543
 20
-78.3300590515137
 30
0.0
 11
-185.762077331543
 21
-78.3300590515137
 31
0.0
  0
LINE
  5
   62F
  8
0
  6
CONTINUOUS
 62
   210
 10
-173.762077331543
 20
-78.3300590515137
 30
0.0
 11
-174.637077331543
 21
-78.3300590515137
 31
0.0
  0
LINE
  5
   630
  8
0
  6
CONTINUOUS
 62
   210
 10
-185.762077331543
 20
-75.0800590515137
 30
0.0
 11
-185.762077331543
 21
-78.3300590515137
 31
0.0
  0
LINE
  5
   631
  8
0
  6
CONTINUOUS
 62
   210
 10
-184.887077331543
 20
-75.0800590515137
 30
0.0
 11
-184.887077331543
 21
-78.3300590515137
 31
0.0
  0
LINE
  5
   632
  8
0
  6
CONTINUOUS
 62
   210
 10
-173.762077331543
 20
-70.5800590515137
 30
0.0
 11
-173.762077331543
 21
-78.3300590515137
 31
0.0
  0
LINE
  5
   633
  8
0
  6
CONTINUOUS
 62
   210
 10
-174.637077331543
 20
-70.5800590515137
 30
0.0
 11
-174.637077331543
 21
-78.3300590515137
 31
0.0
  0
LINE
  5
   634
  8
0
  6
CONTINUOUS
 62
   210
 10
-213.76208114624
 20
-77.0800590515137
 30
0.0
 11
-213.76208114624
 21
-78.3300590515137
 31
0.0
  0
LINE
  5
   635
  8
0
  6
CONTINUOUS
 62
   210
 10
-215.76208114624
 20
-77.0800590515137
 30
0.0
 11
-215.76208114624
 21
-78.3300590515137
 31
0.0
  0
LINE
  5
   636
  8
0
  6
CONTINUOUS
 62
   210
 10
-213.76208114624
 20
-77.0800590515137
 30
0.0
 11
-215.76208114624
 21
-77.0800590515137
 31
0.0
  0
LINE
  5
   637
  8
0
  6
CONTINUOUS
 62
   210
 10
-196.26208114624
 20
-77.0800590515137
 30
0.0
 11
-196.26208114624
 21
-78.3300590515137
 31
0.0
  0
LINE
  5
   638
  8
0
  6
CONTINUOUS
 62
   210
 10
-198.26208114624
 20
-77.0800590515137
 30
0.0
 11
-198.26208114624
 21
-78.3300590515137
 31
0.0
  0
LINE
  5
   639
  8
0
  6
CONTINUOUS
 62
   210
 10
-196.26208114624
 20
-77.0800590515137
 30
0.0
 11
-198.26208114624
 21
-77.0800590515137
 31
0.0
  0
LINE
  5
   63A
  8
0
  6
CONTINUOUS
 62
   210
 10
-178.762077331543
 20
-77.0800590515137
 30
0.0
 11
-178.762077331543
 21
-78.3300590515137
 31
0.0
  0
LINE
  5
   63B
  8
0
  6
CONTINUOUS
 62
   210
 10
-180.762077331543
 20
-77.0800590515137
 30
0.0
 11
-180.762077331543
 21
-78.3300590515137
 31
0.0
  0
LINE
  5
   63C
  8
0
  6
CONTINUOUS
 62
   210
 10
-178.762077331543
 20
-77.0800590515137
 30
0.0
 11
-180.762077331543
 21
-77.0800590515137
 31
0.0
  0
LINE
  5
   63D
  8
0
  6
CONTINUOUS
 62
   210
 10
-209.63708114624
 20
-87.5800590515137
 30
0.0
 11
-211.953067779541
 21
-87.5800590515137
 31
0.0
  0
LINE
  5
   63E
  8
0
  6
CONTINUOUS
 62
   210
 10
-217.571075439453
 20
-87.5800590515137
 30
0.0
 11
-219.88708114624
 21
-87.5800590515137
 31
0.0
  0
LINE
  5
   63F
  8
0
  6
CONTINUOUS
 62
   210
 10
-192.13708114624
 20
-87.5800590515137
 30
0.0
 11
-194.453075408936
 21
-87.5800590515137
 31
0.0
  0
LINE
  5
   640
  8
0
  6
CONTINUOUS
 62
   210
 10
-200.071083068848
 20
-87.5800590515137
 30
0.0
 11
-202.38708114624
 21
-87.5800590515137
 31
0.0
  0
LINE
  5
   641
  8
0
  6
CONTINUOUS
 62
   210
 10
-174.637077331543
 20
-87.5800590515137
 30
0.0
 11
-176.953079223633
 21
-87.5800590515137
 31
0.0
  0
LINE
  5
   642
  8
0
  6
CONTINUOUS
 62
   210
 10
-182.571090698242
 20
-87.5800590515137
 30
0.0
 11
-184.887077331543
 21
-87.5800590515137
 31
0.0
  0
LINE
  5
   643
  8
0
  6
CONTINUOUS
 62
   253
 10
-208.762069702148
 20
-55.5800285339356
 30
0.0
 11
-220.762069702148
 21
-55.5800285339356
 31
0.0
  0
LINE
  5
   644
  8
0
  6
CONTINUOUS
 62
   253
 10
-173.762069702148
 20
-55.5800285339356
 30
0.0
 11
-185.762069702148
 21
-55.5800285339356
 31
0.0
  0
LINE
  5
   645
  8
0
  6
CONTINUOUS
 62
   253
 10
-191.762077331543
 20
-55.5800514221191
 30
0.0
 11
-202.762077331543
 21
-55.5800514221191
 31
0.0
  0
LINE
  5
   646
  8
0
  6
CONTINUOUS
 62
     7
 10
-209.262069702148
 20
-48.6800498962402
 30
0.0
 11
-210.012069702148
 21
-48.6800498962402
 31
0.0
  0
LINE
  5
   647
  8
0
  6
CONTINUOUS
 62
     7
 10
-210.083667755127
 20
-48.6800498962402
 30
0.0
 11
-219.440483093262
 21
-48.6800498962402
 31
0.0
  0
LINE
  5
   648
  8
0
  6
CONTINUOUS
 62
     7
 10
-219.512069702148
 20
-48.6800498962402
 30
0.0
 11
-220.262069702148
 21
-48.6800498962402
 31
0.0
  0
LINE
  5
   649
  8
0
  6
CONTINUOUS
 62
     7
 10
-209.262069702148
 20
-47.4300498962402
 30
0.0
 11
-220.262069702148
 21
-47.4300498962402
 31
0.0
  0
LINE
  5
   64A
  8
0
  6
CONTINUOUS
 62
     7
 10
-209.262069702148
 20
-44.4300498962402
 30
0.0
 11
-220.262069702148
 21
-44.4300498962402
 31
0.0
  0
LINE
  5
   64B
  8
0
  6
CONTINUOUS
 62
     7
 10
-219.512069702148
 20
-43.1800498962402
 30
0.0
 11
-220.262069702148
 21
-43.1800498962402
 31
0.0
  0
LINE
  5
   64C
  8
0
  6
CONTINUOUS
 62
     7
 10
-210.083667755127
 20
-43.1800498962402
 30
0.0
 11
-219.440479278564
 21
-43.1800498962402
 31
0.0
  0
LINE
  5
   64D
  8
0
  6
CONTINUOUS
 62
     7
 10
-209.262069702148
 20
-43.1800498962402
 30
0.0
 11
-210.012069702148
 21
-43.1800498962402
 31
0.0
  0
LINE
  5
   64E
  8
0
  6
CONTINUOUS
 62
     3
 10
-219.512069702148
 20
-52.1800498962402
 30
0.0
 11
-219.512069702148
 21
-55.1800498962402
 31
0.0
  0
LINE
  5
   64F
  8
0
  6
CONTINUOUS
 62
     3
 10
-210.012069702148
 20
-52.1800498962402
 30
0.0
 11
-210.012069702148
 21
-55.1800498962402
 31
0.0
  0
LINE
  5
   650
  8
0
  6
CONTINUOUS
 62
     3
 10
-210.012069702148
 20
-52.1800498962402
 30
0.0
 11
-219.512069702148
 21
-52.1800498962402
 31
0.0
  0
LINE
  5
   651
  8
0
  6
CONTINUOUS
 62
     3
 10
-210.012069702148
 20
-55.1800498962402
 30
0.0
 11
-211.214973449707
 21
-55.1800498962402
 31
0.0
  0
LINE
  5
   652
  8
0
  6
CONTINUOUS
 62
     3
 10
-213.604866027832
 20
-55.1800498962402
 30
0.0
 11
-215.919269561768
 21
-55.1800498962402
 31
0.0
  0
LINE
  5
   653
  8
0
  6
CONTINUOUS
 62
     3
 10
-218.30916595459
 20
-55.1800498962402
 30
0.0
 11
-219.512069702148
 21
-55.1800498962402
 31
0.0
  0
LINE
  5
   654
  8
0
  6
CONTINUOUS
 62
     3
 10
-219.512069702148
 20
-48.6800498962402
 30
0.0
 11
-219.512069702148
 21
-51.6800498962402
 31
0.0
  0
LINE
  5
   655
  8
0
  6
CONTINUOUS
 62
     3
 10
-210.012069702148
 20
-48.6800498962402
 30
0.0
 11
-210.012069702148
 21
-51.6800498962402
 31
0.0
  0
LINE
  5
   656
  8
0
  6
CONTINUOUS
 62
     3
 10
-219.440479278564
 20
-48.6800498962402
 30
0.0
 11
-219.512069702148
 21
-48.6800498962402
 31
0.0
  0
LINE
  5
   657
  8
0
  6
CONTINUOUS
 62
     3
 10
-210.012069702148
 20
-48.6800498962402
 30
0.0
 11
-210.083667755127
 21
-48.6800498962402
 31
0.0
  0
LINE
  5
   658
  8
0
  6
CONTINUOUS
 62
     3
 10
-210.012069702148
 20
-51.6800498962402
 30
0.0
 11
-219.512069702148
 21
-51.6800498962402
 31
0.0
  0
LINE
  5
   659
  8
0
  6
CONTINUOUS
 62
     3
 10
-219.512069702148
 20
-40.1800498962402
 30
0.0
 11
-219.512069702148
 21
-43.1800498962402
 31
0.0
  0
LINE
  5
   65A
  8
0
  6
CONTINUOUS
 62
     3
 10
-210.012069702148
 20
-40.1800498962402
 30
0.0
 11
-210.012069702148
 21
-43.1800498962402
 31
0.0
  0
LINE
  5
   65B
  8
0
  6
CONTINUOUS
 62
     3
 10
-210.012069702148
 20
-43.1800498962402
 30
0.0
 11
-210.083667755127
 21
-43.1800498962402
 31
0.0
  0
LINE
  5
   65C
  8
0
  6
CONTINUOUS
 62
     3
 10
-219.440479278564
 20
-43.1800498962402
 30
0.0
 11
-219.512069702148
 21
-43.1800498962402
 31
0.0
  0
LINE
  5
   65D
  8
0
  6
CONTINUOUS
 62
     3
 10
-210.012069702148
 20
-40.1800498962402
 30
0.0
 11
-219.512069702148
 21
-40.1800498962402
 31
0.0
  0
LINE
  5
   65E
  8
0
  6
CONTINUOUS
 62
   130
 10
-179.24235534668
 20
-78.3300514221191
 30
0.0
 11
-180.281799316406
 21
-78.3300514221191
 31
0.0
  0
LINE
  5
   65F
  8
0
  6
CONTINUOUS
 62
   130
 10
-174.762077331543
 20
-79.3300514221191
 30
0.0
 11
-184.762077331543
 21
-79.3300514221191
 31
0.0
  0
LINE
  5
   660
  8
0
  6
CONTINUOUS
 62
   130
 10
-214.24235534668
 20
-78.3300514221191
 30
0.0
 11
-215.281795501709
 21
-78.3300514221191
 31
0.0
  0
LINE
  5
   661
  8
0
  6
CONTINUOUS
 62
   130
 10
-209.762077331543
 20
-79.3300514221191
 30
0.0
 11
-219.762077331543
 21
-79.3300514221191
 31
0.0
  0
LINE
  5
   662
  8
0
  6
CONTINUOUS
 62
   130
 10
-196.74235534668
 20
-78.3300514221191
 30
0.0
 11
-197.781795501709
 21
-78.3300514221191
 31
0.0
  0
LINE
  5
   663
  8
0
  6
CONTINUOUS
 62
   130
 10
-192.262077331543
 20
-79.3300514221191
 30
0.0
 11
-202.262077331543
 21
-79.3300514221191
 31
0.0
  0
LINE
  5
   664
  8
0
  6
CONTINUOUS
 62
     7
 10
-219.512069702148
 20
-55.1800498962402
 30
0.0
 11
-219.762069702148
 21
-55.1800498962402
 31
0.0
  0
LINE
  5
   665
  8
0
  6
CONTINUOUS
 62
     7
 10
-215.919269561768
 20
-55.1800498962402
 30
0.0
 11
-218.309181213379
 21
-55.1800498962402
 31
0.0
  0
LINE
  5
   666
  8
0
  6
CONTINUOUS
 62
     7
 10
-211.214981079102
 20
-55.1800498962402
 30
0.0
 11
-213.604858398438
 21
-55.1800498962402
 31
0.0
  0
LINE
  5
   667
  8
0
  6
CONTINUOUS
 62
     7
 10
-209.762069702148
 20
-55.1800498962402
 30
0.0
 11
-210.012069702148
 21
-55.1800498962402
 31
0.0
  0
LINE
  5
   668
  8
0
  6
CONTINUOUS
 62
   212
 10
-212.762077331543
 20
-38.8300514221191
 30
0.0
 11
-216.762077331543
 21
-38.8300514221191
 31
0.0
  0
LINE
  5
   669
  8
0
  6
CONTINUOUS
 62
     2
 10
-188.51212310791
 20
-63.0800361633301
 30
0.0
 11
-188.51212310791
 21
-63.8300361633301
 31
0.0
  0
LINE
  5
   66A
  8
0
  6
CONTINUOUS
 62
     2
 10
-188.51212310791
 20
-63.8300361633301
 30
0.0
 11
-191.01208114624
 21
-63.8300361633301
 31
0.0
  0
LINE
  5
   66B
  8
0
  6
CONTINUOUS
 62
     2
 10
-203.51208114624
 20
-63.8300361633301
 30
0.0
 11
-208.51208114624
 21
-63.8300361633301
 31
0.0
  0
LINE
  5
   66C
  8
0
  6
CONTINUOUS
 62
     2
 10
-203.262077331543
 20
-63.0800361633301
 30
0.0
 11
-208.762069702148
 21
-63.0800361633301
 31
0.0
  0
LINE
  5
   66D
  8
0
  6
CONTINUOUS
 62
     2
 10
-188.012115478516
 20
-63.0800361633301
 30
0.0
 11
-191.262077331543
 21
-63.0800361633301
 31
0.0
  0
LINE
  5
   66E
  8
0
  6
CONTINUOUS
 62
   253
 10
-202.762077331543
 20
-55.5800285339356
 30
0.0
 11
-203.262077331543
 21
-55.5800285339356
 31
0.0
  0
LINE
  5
   66F
  8
0
  6
CONTINUOUS
 62
   253
 10
-191.262077331543
 20
-55.5800285339356
 30
0.0
 11
-191.762077331543
 21
-55.5800285339356
 31
0.0
  0
LINE
  5
   670
  8
0
  6
CONTINUOUS
 62
     7
 10
-191.762084960938
 20
-22.6800498962402
 30
0.0
 11
-192.512084960938
 21
-22.6800498962402
 31
0.0
  0
LINE
  5
   671
  8
0
  6
CONTINUOUS
 62
     7
 10
-192.583679199219
 20
-22.6800498962402
 30
0.0
 11
-201.940494537354
 21
-22.6800498962402
 31
0.0
  0
LINE
  5
   672
  8
0
  6
CONTINUOUS
 62
     7
 10
-202.012084960938
 20
-22.6800498962402
 30
0.0
 11
-202.762084960938
 21
-22.6800498962402
 31
0.0
  0
LINE
  5
   673
  8
0
  6
CONTINUOUS
 62
     7
 10
-191.762084960938
 20
-21.4300498962402
 30
0.0
 11
-202.762084960938
 21
-21.4300498962402
 31
0.0
  0
LINE
  5
   674
  8
0
  6
CONTINUOUS
 62
     7
 10
-191.762084960938
 20
-18.4300498962402
 30
0.0
 11
-202.762084960938
 21
-18.4300498962402
 31
0.0
  0
LINE
  5
   675
  8
0
  6
CONTINUOUS
 62
     7
 10
-202.012084960938
 20
-17.1800498962402
 30
0.0
 11
-202.762084960938
 21
-17.1800498962402
 31
0.0
  0
LINE
  5
   676
  8
0
  6
CONTINUOUS
 62
     7
 10
-192.583679199219
 20
-17.1800498962402
 30
0.0
 11
-201.940494537354
 21
-17.1800498962402
 31
0.0
  0
LINE
  5
   677
  8
0
  6
CONTINUOUS
 62
     7
 10
-191.762084960938
 20
-17.1800498962402
 30
0.0
 11
-192.512084960938
 21
-17.1800498962402
 31
0.0
  0
LINE
  5
   678
  8
0
  6
CONTINUOUS
 62
     3
 10
-202.012084960938
 20
-14.1800498962402
 30
0.0
 11
-202.012084960938
 21
-17.1800498962402
 31
0.0
  0
LINE
  5
   679
  8
0
  6
CONTINUOUS
 62
     3
 10
-192.512084960938
 20
-14.1800498962402
 30
0.0
 11
-192.512084960938
 21
-17.1800498962402
 31
0.0
  0
LINE
  5
   67A
  8
0
  6
CONTINUOUS
 62
     3
 10
-192.512084960938
 20
-17.1800498962402
 30
0.0
 11
-192.583683013916
 21
-17.1800498962402
 31
0.0
  0
LINE
  5
   67B
  8
0
  6
CONTINUOUS
 62
     3
 10
-201.940494537354
 20
-17.1800498962402
 30
0.0
 11
-202.012084960938
 21
-17.1800498962402
 31
0.0
  0
LINE
  5
   67C
  8
0
  6
CONTINUOUS
 62
     3
 10
-192.512084960938
 20
-14.1800498962402
 30
0.0
 11
-202.012084960938
 21
-14.1800498962402
 31
0.0
  0
LINE
  5
   67D
  8
0
  6
CONTINUOUS
 62
     3
 10
-202.012084960938
 20
-22.6800498962402
 30
0.0
 11
-202.012084960938
 21
-25.6800498962402
 31
0.0
  0
LINE
  5
   67E
  8
0
  6
CONTINUOUS
 62
     3
 10
-192.512084960938
 20
-22.6800498962402
 30
0.0
 11
-192.512084960938
 21
-25.6800498962402
 31
0.0
  0
LINE
  5
   67F
  8
0
  6
CONTINUOUS
 62
     3
 10
-201.940494537354
 20
-22.6800498962402
 30
0.0
 11
-202.012084960938
 21
-22.6800498962402
 31
0.0
  0
LINE
  5
   680
  8
0
  6
CONTINUOUS
 62
     3
 10
-192.512084960938
 20
-22.6800498962402
 30
0.0
 11
-192.583683013916
 21
-22.6800498962402
 31
0.0
  0
LINE
  5
   681
  8
0
  6
CONTINUOUS
 62
     3
 10
-192.512084960938
 20
-25.6800498962402
 30
0.0
 11
-202.012084960938
 21
-25.6800498962402
 31
0.0
  0
LINE
  5
   682
  8
0
  6
CONTINUOUS
 62
     3
 10
-202.012084960938
 20
-26.1800498962402
 30
0.0
 11
-202.012084960938
 21
-29.1800498962402
 31
0.0
  0
LINE
  5
   683
  8
0
  6
CONTINUOUS
 62
     3
 10
-192.512084960938
 20
-26.1800498962402
 30
0.0
 11
-192.512084960938
 21
-29.1800498962402
 31
0.0
  0
LINE
  5
   684
  8
0
  6
CONTINUOUS
 62
     3
 10
-192.512084960938
 20
-26.1800498962402
 30
0.0
 11
-202.012084960938
 21
-26.1800498962402
 31
0.0
  0
LINE
  5
   685
  8
0
  6
CONTINUOUS
 62
     3
 10
-192.512084960938
 20
-29.1800498962402
 30
0.0
 11
-193.714984893799
 21
-29.1800498962402
 31
0.0
  0
LINE
  5
   686
  8
0
  6
CONTINUOUS
 62
     3
 10
-196.104885101318
 20
-29.1800498962402
 30
0.0
 11
-198.419284820557
 21
-29.1800498962402
 31
0.0
  0
LINE
  5
   687
  8
0
  6
CONTINUOUS
 62
     3
 10
-200.809192657471
 20
-29.1800498962402
 30
0.0
 11
-202.012084960938
 21
-29.1800498962402
 31
0.0
  0
LINE
  5
   688
  8
0
  6
CONTINUOUS
 62
     7
 10
-192.262084960938
 20
-29.5800514221191
 30
0.0
 11
-202.262084960938
 21
-29.5800514221191
 31
0.0
  0
LINE
  5
   689
  8
0
  6
CONTINUOUS
 62
     7
 10
-202.012084960938
 20
-29.1800498962402
 30
0.0
 11
-202.262084960938
 21
-29.1800498962402
 31
0.0
  0
LINE
  5
   68A
  8
0
  6
CONTINUOUS
 62
     7
 10
-198.419284820557
 20
-29.1800498962402
 30
0.0
 11
-200.809196472168
 21
-29.1800498962402
 31
0.0
  0
LINE
  5
   68B
  8
0
  6
CONTINUOUS
 62
     7
 10
-193.714988708496
 20
-29.1800498962402
 30
0.0
 11
-196.104885101318
 21
-29.1800498962402
 31
0.0
  0
LINE
  5
   68C
  8
0
  6
CONTINUOUS
 62
     7
 10
-192.262084960938
 20
-29.1800498962402
 30
0.0
 11
-192.512084960938
 21
-29.1800498962402
 31
0.0
  0
LINE
  5
   68D
  8
0
  6
CONTINUOUS
 62
   212
 10
-195.262084960938
 20
-12.8300514221191
 30
0.0
 11
-199.262084960938
 21
-12.8300514221191
 31
0.0
  0
LINE
  5
   68E
  8
0
  6
CONTINUOUS
 62
   210
 10
-221.01208114624
 20
-63.5800361633301
 30
0.0
 11
-221.01208114624
 21
-69.0800361633301
 31
0.0
  0
LINE
  5
   68F
  8
0
  6
CONTINUOUS
 62
   210
 10
-208.51208114624
 20
-65.8300361633301
 30
0.0
 11
-208.51208114624
 21
-69.0800361633301
 31
0.0
  0
LINE
  5
   690
  8
0
  6
CONTINUOUS
 62
   210
 10
-203.51208114624
 20
-65.8300361633301
 30
0.0
 11
-203.51208114624
 21
-69.0800361633301
 31
0.0
  0
LINE
  5
   691
  8
0
  6
CONTINUOUS
 62
   210
 10
-191.01208114624
 20
-65.8300361633301
 30
0.0
 11
-191.01208114624
 21
-69.0800361633301
 31
0.0
  0
LINE
  5
   692
  8
0
  6
CONTINUOUS
 62
   210
 10
-186.012077331543
 20
-63.5800361633301
 30
0.0
 11
-186.012077331543
 21
-69.0800361633301
 31
0.0
  0
LINE
  5
   693
  8
0
  6
CONTINUOUS
 62
   210
 10
-173.512077331543
 20
-65.8300361633301
 30
0.0
 11
-173.512077331543
 21
-69.0800361633301
 31
0.0
  0
LINE
  5
   694
  8
0
  6
CONTINUOUS
 62
   210
 10
-172.762115478516
 20
-69.0800361633301
 30
0.0
 11
-172.762115478516
 21
-87.5800590515137
 31
0.0
  0
LINE
  5
   695
  8
0
  6
CONTINUOUS
 62
   210
 10
-221.762115478516
 20
-69.0800361633301
 30
0.0
 11
-221.762115478516
 21
-87.5800590515137
 31
0.0
  0
LINE
  5
   696
  8
0
  6
CONTINUOUS
 62
   210
 10
-223.012117385864
 20
-65.8300361633301
 30
0.0
 11
-223.012117385864
 21
-69.0800361633301
 31
0.0
  0
LINE
  5
   697
  8
0
  6
CONTINUOUS
 62
   210
 10
-188.012115478516
 20
-62.8300361633301
 30
0.0
 11
-188.012115478516
 21
-63.8300361633301
 31
0.0
  0
LINE
  5
   698
  8
0
  6
CONTINUOUS
 62
   210
 10
-187.813201904297
 20
-63.8300361633301
 30
0.0
 11
-187.813201904297
 21
-69.0800437927246
 31
0.0
  0
LINE
  5
   699
  8
0
  6
CONTINUOUS
 62
   210
 10
-219.88708114624
 20
-70.5800590515137
 30
0.0
 11
-220.76208114624
 21
-70.5800590515137
 31
0.0
  0
LINE
  5
   69A
  8
0
  6
CONTINUOUS
 62
   210
 10
-208.76208114624
 20
-75.0800590515137
 30
0.0
 11
-209.63708114624
 21
-75.0800590515137
 31
0.0
  0
LINE
  5
   69B
  8
0
  6
CONTINUOUS
 62
   210
 10
-202.38708114624
 20
-75.0800590515137
 30
0.0
 11
-203.26208114624
 21
-75.0800590515137
 31
0.0
  0
LINE
  5
   69C
  8
0
  6
CONTINUOUS
 62
   210
 10
-191.26208114624
 20
-75.0800590515137
 30
0.0
 11
-192.13708114624
 21
-75.0800590515137
 31
0.0
  0
LINE
  5
   69D
  8
0
  6
CONTINUOUS
 62
   210
 10
-184.887077331543
 20
-75.0800590515137
 30
0.0
 11
-185.762077331543
 21
-75.0800590515137
 31
0.0
  0
LINE
  5
   69E
  8
0
  6
CONTINUOUS
 62
   210
 10
-173.762077331543
 20
-70.5800590515137
 30
0.0
 11
-174.637077331543
 21
-70.5800590515137
 31
0.0
  0
LINE
  5
   69F
  8
0
  6
CONTINUOUS
 62
   253
 10
-208.762069702148
 20
-55.5800285339356
 30
0.0
 11
-208.762069702148
 21
-63.5800285339355
 31
0.0
  0
LINE
  5
   6A0
  8
0
  6
CONTINUOUS
 62
   253
 10
-220.762069702148
 20
-55.5800285339356
 30
0.0
 11
-220.762069702148
 21
-63.5800285339355
 31
0.0
  0
LINE
  5
   6A1
  8
0
  6
CONTINUOUS
 62
   253
 10
-173.762069702148
 20
-55.5800285339355
 30
0.0
 11
-173.762069702148
 21
-63.5800285339355
 31
0.0
  0
LINE
  5
   6A2
  8
0
  6
CONTINUOUS
 62
   253
 10
-185.762069702148
 20
-55.5800285339356
 30
0.0
 11
-185.762069702148
 21
-63.5800285339355
 31
0.0
  0
LINE
  5
   6A3
  8
0
  6
CONTINUOUS
 62
   253
 10
-191.262077331543
 20
-56.0800514221191
 30
0.0
 11
-191.262077331543
 21
-63.5800514221191
 31
0.0
  0
LINE
  5
   6A4
  8
0
  6
CONTINUOUS
 62
   253
 10
-203.262077331543
 20
-56.0800514221191
 30
0.0
 11
-203.262077331543
 21
-63.5800514221191
 31
0.0
  0
LINE
  5
   6A5
  8
0
  6
CONTINUOUS
 62
   253
 10
-191.262078249359
 20
-56.0800530101592
 30
0.0
 11
-191.762078232245
 21
-55.5800530272735
 31
0.0
  0
LINE
  5
   6A6
  8
0
  6
CONTINUOUS
 62
   253
 10
-202.762079378901
 20
-55.58005400996
 30
0.0
 11
-203.262079361786
 21
-56.0800539928457
 31
0.0
  0
LINE
  5
   6A7
  8
0
  6
CONTINUOUS
 62
     7
 10
-220.262069702148
 20
-47.4300498962402
 30
0.0
 11
-220.262069702148
 21
-48.6800498962402
 31
0.0
  0
LINE
  5
   6A8
  8
0
  6
CONTINUOUS
 62
     7
 10
-209.262069702148
 20
-47.4300498962402
 30
0.0
 11
-209.262069702148
 21
-48.6800498962402
 31
0.0
  0
LINE
  5
   6A9
  8
0
  6
CONTINUOUS
 62
     7
 10
-220.262069702148
 20
-43.1800498962402
 30
0.0
 11
-220.262069702148
 21
-44.4300498962402
 31
0.0
  0
LINE
  5
   6AA
  8
0
  6
CONTINUOUS
 62
     7
 10
-209.262069702148
 20
-43.1800498962402
 30
0.0
 11
-209.262069702148
 21
-44.4300498962402
 31
0.0
  0
LINE
  5
   6AB
  8
0
  6
CONTINUOUS
 62
     3
 10
-197.262069702148
 20
-52.1800498962402
 30
0.0
 11
-197.262069702148
 21
-55.1800498962402
 31
0.0
  0
LINE
  5
   6AC
  8
0
  6
CONTINUOUS
 62
     3
 10
-197.262069702148
 20
-48.6800498962402
 30
0.0
 11
-197.262069702148
 21
-51.6800498962402
 31
0.0
  0
LINE
  5
   6AD
  8
0
  6
CONTINUOUS
 62
     3
 10
-197.262069702148
 20
-40.1800498962402
 30
0.0
 11
-197.262069702148
 21
-43.1800498962402
 31
0.0
  0
LINE
  5
   6AE
  8
0
  6
CONTINUOUS
 62
   130
 10
-174.762077331543
 20
-78.3300514221191
 30
0.0
 11
-174.762077331543
 21
-79.3300514221191
 31
0.0
  0
LINE
  5
   6AF
  8
0
  6
CONTINUOUS
 62
   130
 10
-184.762077331543
 20
-78.3300514221191
 30
0.0
 11
-184.762077331543
 21
-79.3300514221191
 31
0.0
  0
LINE
  5
   6B0
  8
0
  6
CONTINUOUS
 62
   130
 10
-219.762077331543
 20
-78.3300514221191
 30
0.0
 11
-219.762077331543
 21
-79.3300514221191
 31
0.0
  0
LINE
  5
   6B1
  8
0
  6
CONTINUOUS
 62
   130
 10
-209.762077331543
 20
-78.3300514221191
 30
0.0
 11
-209.762077331543
 21
-79.3300514221191
 31
0.0
  0
LINE
  5
   6B2
  8
0
  6
CONTINUOUS
 62
   130
 10
-202.262077331543
 20
-78.3300514221191
 30
0.0
 11
-202.262077331543
 21
-79.3300514221191
 31
0.0
  0
LINE
  5
   6B3
  8
0
  6
CONTINUOUS
 62
   130
 10
-192.262077331543
 20
-78.3300514221191
 30
0.0
 11
-192.262077331543
 21
-79.3300514221191
 31
0.0
  0
LINE
  5
   6B4
  8
0
  6
CONTINUOUS
 62
     7
 10
-219.762069702148
 20
-55.1800498962402
 30
0.0
 11
-219.762069702148
 21
-55.5800514221191
 31
0.0
  0
LINE
  5
   6B5
  8
0
  6
CONTINUOUS
 62
     7
 10
-209.762069702148
 20
-55.1800498962402
 30
0.0
 11
-209.762069702148
 21
-55.5800514221191
 31
0.0
  0
LINE
  5
   6B6
  8
0
  6
CONTINUOUS
 62
   212
 10
-211.762078033291
 20
-39.8300534529909
 30
0.0
 11
-212.762077999063
 21
-38.8300534872195
 31
0.0
  0
LINE
  5
   6B7
  8
0
  6
CONTINUOUS
 62
   212
 10
-216.762079612083
 20
-38.830054469906
 30
0.0
 11
-217.762079577854
 21
-39.8300544356775
 31
0.0
  0
LINE
  5
   6B8
  8
0
  6
CONTINUOUS
 62
   212
 10
-213.835029602051
 20
-39.8300514221191
 30
0.0
 11
-214.762077331543
 21
-39.8300514221191
 31
0.0
  0
LINE
  5
   6B9
  8
0
  6
CONTINUOUS
 62
   212
 10
-212.998722076416
 20
-39.8300514221191
 30
0.0
 11
-213.835029602051
 21
-39.8300514221191
 31
0.0
  0
LINE
  5
   6BA
  8
0
  6
CONTINUOUS
 62
   212
 10
-212.335029602051
 20
-39.8300514221191
 30
0.0
 11
-212.998722076416
 21
-39.8300514221191
 31
0.0
  0
LINE
  5
   6BB
  8
0
  6
CONTINUOUS
 62
   212
 10
-211.908908843994
 20
-39.8300514221191
 30
0.0
 11
-212.335029602051
 21
-39.8300514221191
 31
0.0
  0
LINE
  5
   6BC
  8
0
  6
CONTINUOUS
 62
   212
 10
-194.262077331543
 20
-39.8300514221191
 30
0.0
 11
-194.408908843994
 21
-39.8300514221191
 31
0.0
  0
LINE
  5
   6BD
  8
0
  6
CONTINUOUS
 62
   212
 10
-211.762077331543
 20
-39.8300514221191
 30
0.0
 11
-211.762077331543
 21
-40.1800498962402
 31
0.0
  0
LINE
  5
   6BE
  8
0
  6
CONTINUOUS
 62
   212
 10
-211.762077331543
 20
-44.4300498962402
 30
0.0
 11
-211.762077331543
 21
-47.4300498962402
 31
0.0
  0
LINE
  5
   6BF
  8
0
  6
CONTINUOUS
 62
   212
 10
-211.762077331543
 20
-51.6800498962402
 30
0.0
 11
-211.762077331543
 21
-52.1800498962402
 31
0.0
  0
LINE
  5
   6C0
  8
0
  6
CONTINUOUS
 62
   212
 10
-217.762077331543
 20
-39.8300514221191
 30
0.0
 11
-217.762077331543
 21
-40.1800498962402
 31
0.0
  0
LINE
  5
   6C1
  8
0
  6
CONTINUOUS
 62
   212
 10
-217.762077331543
 20
-44.4300498962402
 30
0.0
 11
-217.762077331543
 21
-47.4300498962402
 31
0.0
  0
LINE
  5
   6C2
  8
0
  6
CONTINUOUS
 62
   212
 10
-217.762077331543
 20
-51.6800498962402
 30
0.0
 11
-217.762077331543
 21
-52.1800498962402
 31
0.0
  0
LINE
  5
   6C3
  8
0
  6
CONTINUOUS
 62
   212
 10
-217.615249633789
 20
-39.8300514221191
 30
0.0
 11
-217.762077331543
 21
-39.8300514221191
 31
0.0
  0
LINE
  5
   6C4
  8
0
  6
CONTINUOUS
 62
   212
 10
-217.189128875732
 20
-39.8300514221191
 30
0.0
 11
-217.615249633789
 21
-39.8300514221191
 31
0.0
  0
LINE
  5
   6C5
  8
0
  6
CONTINUOUS
 62
   212
 10
-216.525436401367
 20
-39.8300514221191
 30
0.0
 11
-217.189128875732
 21
-39.8300514221191
 31
0.0
  0
LINE
  5
   6C6
  8
0
  6
CONTINUOUS
 62
   212
 10
-215.689128875732
 20
-39.8300514221191
 30
0.0
 11
-216.525436401367
 21
-39.8300514221191
 31
0.0
  0
LINE
  5
   6C7
  8
0
  6
CONTINUOUS
 62
   212
 10
-214.762077331543
 20
-39.8300514221191
 30
0.0
 11
-215.689128875732
 21
-39.8300514221191
 31
0.0
  0
LINE
  5
   6C8
  8
0
  6
CONTINUOUS
 62
   253
 10
-191.262077331543
 20
-55.5800285339356
 30
0.0
 11
-191.262077331543
 21
-56.0800514221191
 31
0.0
  0
LINE
  5
   6C9
  8
0
  6
CONTINUOUS
 62
   253
 10
-203.262077331543
 20
-55.5800285339356
 30
0.0
 11
-203.262077331543
 21
-56.0800514221191
 31
0.0
  0
LINE
  5
   6CA
  8
0
  6
CONTINUOUS
 62
   253
 10
-192.262077331543
 20
-30.0800285339355
 30
0.0
 11
-192.262077331543
 21
-55.5800514221191
 31
0.0
  0
LINE
  5
   6CB
  8
0
  6
CONTINUOUS
 62
   253
 10
-202.262077331543
 20
-30.0800285339355
 30
0.0
 11
-202.262077331543
 21
-55.5800514221191
 31
0.0
  0
LINE
  5
   6CC
  8
0
  6
CONTINUOUS
 62
   253
 10
-192.262076925009
 20
-30.0800263183933
 30
0.0
 11
-192.408526962526
 21
-29.7264725429826
 31
0.0
  0
LINE
  5
   6CD
  8
0
  6
CONTINUOUS
 62
   253
 10
-192.408528912033
 20
-29.7264768323602
 30
0.0
 11
-192.762078864844
 21
-29.5800306040845
 31
0.0
  0
LINE
  5
   6CE
  8
0
  6
CONTINUOUS
 62
   253
 10
-202.115630030137
 20
-29.7264723621037
 30
0.0
 11
-202.26207625842
 21
-30.0800261341383
 31
0.0
  0
LINE
  5
   6CF
  8
0
  6
CONTINUOUS
 62
   253
 10
-201.762075850768
 20
-29.5800269674807
 30
0.0
 11
-202.115629622803
 21
-29.7264731957638
 31
0.0
  0
LINE
  5
   6D0
  8
0
  6
CONTINUOUS
 62
     7
 10
-202.762084960938
 20
-21.4300498962402
 30
0.0
 11
-202.762084960938
 21
-22.6800498962402
 31
0.0
  0
LINE
  5
   6D1
  8
0
  6
CONTINUOUS
 62
     7
 10
-191.762084960938
 20
-21.4300498962402
 30
0.0
 11
-191.762084960938
 21
-22.6800498962402
 31
0.0
  0
LINE
  5
   6D2
  8
0
  6
CONTINUOUS
 62
     7
 10
-202.762084960938
 20
-17.1800498962402
 30
0.0
 11
-202.762084960938
 21
-18.4300498962402
 31
0.0
  0
LINE
  5
   6D3
  8
0
  6
CONTINUOUS
 62
     7
 10
-191.762084960938
 20
-17.1800498962402
 30
0.0
 11
-191.762084960938
 21
-18.4300498962402
 31
0.0
  0
LINE
  5
   6D4
  8
0
  6
CONTINUOUS
 62
     3
 10
-197.262084960938
 20
-14.1800498962402
 30
0.0
 11
-197.262084960938
 21
-17.1800498962402
 31
0.0
  0
LINE
  5
   6D5
  8
0
  6
CONTINUOUS
 62
     3
 10
-197.262084960938
 20
-22.6800498962402
 30
0.0
 11
-197.262084960938
 21
-25.6800498962402
 31
0.0
  0
LINE
  5
   6D6
  8
0
  6
DASHDOT
 62
     7
 10
-197.262084960938
 20
-8.58884726477248
 30
0.0
 11
-197.262084960938
 21
-92.5873708979968
 31
0.0
  0
LINE
  5
   6D7
  8
0
  6
CONTINUOUS
 62
     7
 10
-202.262084960938
 20
-29.1800498962402
 30
0.0
 11
-202.262084960938
 21
-29.5800514221191
 31
0.0
  0
LINE
  5
   6D8
  8
0
  6
CONTINUOUS
 62
     7
 10
-192.262084960938
 20
-29.1800498962402
 30
0.0
 11
-192.262084960938
 21
-29.5800514221191
 31
0.0
  0
LINE
  5
   6D9
  8
0
  6
CONTINUOUS
 62
   212
 10
-199.262087463962
 20
-12.8300551373625
 30
0.0
 11
-200.262087429734
 21
-13.830055103134
 31
0.0
  0
LINE
  5
   6DA
  8
0
  6
CONTINUOUS
 62
   212
 10
-194.2620854402
 20
-13.8300541204476
 30
0.0
 11
-195.262085405972
 21
-12.8300541546761
 31
0.0
  0
LINE
  5
   6DB
  8
0
  6
CONTINUOUS
 62
   212
 10
-200.115257263184
 20
-13.8300514221191
 30
0.0
 11
-200.262084960938
 21
-13.8300514221191
 31
0.0
  0
LINE
  5
   6DC
  8
0
  6
CONTINUOUS
 62
   212
 10
-200.262084960938
 20
-13.8300514221191
 30
0.0
 11
-200.262084960938
 21
-14.1800498962402
 31
0.0
  0
LINE
  5
   6DD
  8
0
  6
CONTINUOUS
 62
   212
 10
-200.262084960938
 20
-18.4300498962402
 30
0.0
 11
-200.262084960938
 21
-21.4300498962402
 31
0.0
  0
LINE
  5
   6DE
  8
0
  6
CONTINUOUS
 62
   212
 10
-200.262084960938
 20
-25.6800498962402
 30
0.0
 11
-200.262084960938
 21
-26.1800498962402
 31
0.0
  0
LINE
  5
   6DF
  8
0
  6
CONTINUOUS
 62
   212
 10
-199.689136505127
 20
-13.8300514221191
 30
0.0
 11
-200.115257263184
 21
-13.8300514221191
 31
0.0
  0
LINE
  5
   6E0
  8
0
  6
CONTINUOUS
 62
   212
 10
-199.025444030762
 20
-13.8300514221191
 30
0.0
 11
-199.689136505127
 21
-13.8300514221191
 31
0.0
  0
LINE
  5
   6E1
  8
0
  6
CONTINUOUS
 62
   212
 10
-198.189136505127
 20
-13.8300514221191
 30
0.0
 11
-199.025444030762
 21
-13.8300514221191
 31
0.0
  0
LINE
  5
   6E2
  8
0
  6
CONTINUOUS
 62
   212
 10
-197.262084960938
 20
-13.8300514221191
 30
0.0
 11
-198.189136505127
 21
-13.8300514221191
 31
0.0
  0
LINE
  5
   6E3
  8
0
  6
CONTINUOUS
 62
   212
 10
-196.335037231445
 20
-13.8300514221191
 30
0.0
 11
-197.262084960938
 21
-13.8300514221191
 31
0.0
  0
LINE
  5
   6E4
  8
0
  6
CONTINUOUS
 62
   212
 10
-195.498729705811
 20
-13.8300514221191
 30
0.0
 11
-196.335037231445
 21
-13.8300514221191
 31
0.0
  0
LINE
  5
   6E5
  8
0
  6
CONTINUOUS
 62
   212
 10
-194.835037231445
 20
-13.8300514221191
 30
0.0
 11
-195.498729705811
 21
-13.8300514221191
 31
0.0
  0
LINE
  5
   6E6
  8
0
  6
CONTINUOUS
 62
   212
 10
-194.408916473389
 20
-13.8300514221191
 30
0.0
 11
-194.835037231445
 21
-13.8300514221191
 31
0.0
  0
LINE
  5
   6E7
  8
0
  6
CONTINUOUS
 62
   212
 10
-194.262084960938
 20
-13.8300514221191
 30
0.0
 11
-194.408916473389
 21
-13.8300514221191
 31
0.0
  0
LINE
  5
   6E8
  8
0
  6
CONTINUOUS
 62
   212
 10
-194.262084960938
 20
-13.8300514221191
 30
0.0
 11
-194.262084960938
 21
-14.1800498962402
 31
0.0
  0
LINE
  5
   6E9
  8
0
  6
CONTINUOUS
 62
   212
 10
-194.262084960938
 20
-18.4300498962402
 30
0.0
 11
-194.262084960938
 21
-21.4300498962402
 31
0.0
  0
LINE
  5
   6EA
  8
0
  6
CONTINUOUS
 62
   212
 10
-194.262084960938
 20
-25.6800498962402
 30
0.0
 11
-194.262084960938
 21
-26.1800498962402
 31
0.0
  0
LINE
  5
   6EB
  8
0
  6
CONTINUOUS
 62
     3
 10
-153.152322075785
 20
-88.5800590515137
 30
0.0
 11
-226.778034867918
 21
-88.5800590515137
 31
0.0
  0
LINE
  5
   6EC
  8
0
  6
CONTINUOUS
 62
   210
 10
-203.51208114624
 20
-63.5800361633301
 30
0.0
 11
-203.51208114624
 21
-65.8300361633301
 31
0.0
  0
LINE
  5
   6ED
  8
0
  6
CONTINUOUS
 62
   210
 10
-208.51208114624
 20
-63.5800361633301
 30
0.0
 11
-208.51208114624
 21
-65.8300361633301
 31
0.0
  0
LINE
  5
   6EE
  8
0
  6
CONTINUOUS
 62
   210
 10
-191.01208114624
 20
-63.5800361633301
 30
0.0
 11
-191.01208114624
 21
-65.8300361633301
 31
0.0
  0
LINE
  5
   6EF
  8
0
  6
CONTINUOUS
 62
   210
 10
-189.762115478516
 20
-63.8300361633301
 30
0.0
 11
-189.762115478516
 21
-65.8300361633301
 31
0.0
  0
LINE
  5
   6F0
  8
0
  6
CONTINUOUS
 62
   210
 10
-188.012115478516
 20
-63.8300361633301
 30
0.0
 11
-188.51212310791
 21
-63.8300361633301
 31
0.0
  0
LINE
  5
   6F1
  8
0
  6
CONTINUOUS
 62
   210
 10
-185.762069702148
 20
-63.5800361633301
 30
0.0
 11
-186.012077331543
 21
-63.5800361633301
 31
0.0
  0
LINE
  5
   6F2
  8
0
  6
CONTINUOUS
 62
   210
 10
-173.512077331543
 20
-63.5800361633301
 30
0.0
 11
-173.512077331543
 21
-65.8300361633301
 31
0.0
  0
LINE
  5
   6F3
  8
0
  6
CONTINUOUS
 62
   210
 10
-220.762069702148
 20
-63.5800361633301
 30
0.0
 11
-221.01208114624
 21
-63.5800361633301
 31
0.0
  0
LINE
  5
   6F4
  8
0
  6
CONTINUOUS
 62
   210
 10
-223.012117385864
 20
-62.8300361633301
 30
0.0
 11
-223.012117385864
 21
-65.8300361633301
 31
0.0
  0
LINE
  5
   6F5
  8
0
  6
DASHDOT
 62
     7
 10
-179.762069702148
 20
-7.88610694438164
 30
0.0
 11
-179.762069702148
 21
-93.1117887149296
 31
0.0
  0
LINE
  5
   6F6
  8
0
  6
DASHDOT
 62
     7
 10
-214.762069702148
 20
-7.88610694438165
 30
0.0
 11
-214.762069702148
 21
-93.1117887149296
 31
0.0
  0
LINE
  5
   6F7
  8
0
  6
CONTINUOUS
 62
   212
 10
-194.762077331543
 20
-18.4300498962402
 30
0.0
 11
-194.762077331543
 21
-21.4300498962402
 31
0.0
  0
LINE
  5
   6F8
  8
0
  6
CONTINUOUS
 62
   212
 10
-199.762077331543
 20
-18.4300498962402
 30
0.0
 11
-199.762077331543
 21
-21.4300498962402
 31
0.0
  0
LINE
  5
   6F9
  8
0
  6
CONTINUOUS
 62
   212
 10
-212.262077331543
 20
-44.4300498962402
 30
0.0
 11
-212.262077331543
 21
-47.4300498962402
 31
0.0
  0
LINE
  5
   6FA
  8
0
  6
CONTINUOUS
 62
   212
 10
-217.262077331543
 20
-44.4300498962402
 30
0.0
 11
-217.262077331543
 21
-47.4300498962402
 31
0.0
  0
LINE
  5
   6FB
  8
0
  6
CONTINUOUS
 62
     2
 10
-201.887084960938
 20
-79.5800514221191
 30
0.0
 11
-201.887084960938
 21
-82.0800514221192
 31
0.0
  0
LINE
  5
   6FC
  8
0
  6
CONTINUOUS
 62
     2
 10
-192.637084960938
 20
-79.5800514221191
 30
0.0
 11
-192.637084960938
 21
-82.0800514221192
 31
0.0
  0
LINE
  5
   6FD
  8
0
  6
CONTINUOUS
 62
     2
 10
-192.637084960938
 20
-79.5800514221191
 30
0.0
 11
-201.887084960938
 21
-79.5800514221191
 31
0.0
  0
LINE
  5
   6FE
  8
0
  6
CONTINUOUS
 62
     2
 10
-201.887123809054
 20
-82.0800514220889
 30
0.0
 11
-201.887123809054
 21
-87.0800514220889
 31
0.0
  0
LINE
  5
   6FF
  8
0
  6
CONTINUOUS
 62
     2
 10
-192.637123809056
 20
-82.080051422086
 30
0.0
 11
-192.637123809056
 21
-87.080051422086
 31
0.0
  0
LINE
  5
   700
  8
0
  6
CONTINUOUS
 62
     2
 10
-201.887073516846
 20
-82.0800514221192
 30
0.0
 11
-203.762069702148
 21
-82.0800514221192
 31
0.0
  0
LINE
  5
   701
  8
0
  6
CONTINUOUS
 62
     2
 10
-190.762069702148
 20
-82.0800514221192
 30
0.0
 11
-192.637069702148
 21
-82.0800514221192
 31
0.0
  0
LINE
  5
   702
  8
0
  6
CONTINUOUS
 62
     2
 10
-190.762069702148
 20
-87.5800514221191
 30
0.0
 11
-192.262069702148
 21
-87.5800514221191
 31
0.0
  0
LINE
  5
   703
  8
0
  6
CONTINUOUS
 62
     2
 10
-192.63708114624
 20
-87.5800514221191
 30
0.0
 11
-201.887084960938
 21
-87.5800514221191
 31
0.0
  0
LINE
  5
   704
  8
0
  6
CONTINUOUS
 62
     2
 10
-202.262069702148
 20
-87.5800514221191
 30
0.0
 11
-203.762069702148
 21
-87.5800514221191
 31
0.0
  0
LINE
  5
   705
  8
0
  6
CONTINUOUS
 62
     2
 10
-202.262069702148
 20
-87.0800514221192
 30
0.0
 11
-202.262069702148
 21
-87.5800514221191
 31
0.0
  0
LINE
  5
   706
  8
0
  6
CONTINUOUS
 62
     2
 10
-192.262069702148
 20
-87.0800514221192
 30
0.0
 11
-192.262069702148
 21
-87.5800514221191
 31
0.0
  0
LINE
  5
   707
  8
0
  6
CONTINUOUS
 62
     2
 10
-192.262069702148
 20
-87.5800514221191
 30
0.0
 11
-192.637084960938
 21
-87.5800514221191
 31
0.0
  0
LINE
  5
   708
  8
0
  6
CONTINUOUS
 62
     2
 10
-201.887084960938
 20
-87.5800514221191
 30
0.0
 11
-202.262069702148
 21
-87.5800514221191
 31
0.0
  0
LINE
  5
   709
  8
0
  6
CONTINUOUS
 62
     2
 10
-192.262069702148
 20
-87.0800514221192
 30
0.0
 11
-192.637084960938
 21
-87.0800514221192
 31
0.0
  0
LINE
  5
   70A
  8
0
  6
CONTINUOUS
 62
     2
 10
-201.887084960938
 20
-87.0800514221192
 30
0.0
 11
-202.262069702148
 21
-87.0800514221192
 31
0.0
  0
LINE
  5
   70B
  8
0
  6
CONTINUOUS
 62
     2
 10
-201.887084960938
 20
-83.9460754394531
 30
0.0
 11
-202.387062072754
 21
-83.9460754394531
 31
0.0
  0
LINE
  5
   70C
  8
0
  6
CONTINUOUS
 62
     2
 10
-201.887074361932
 20
-82.0800529537292
 30
0.0
 11
-202.387062935682
 21
-83.9460769233175
 31
0.0
  0
LINE
  5
   70D
  8
0
  6
CONTINUOUS
 62
     2
 10
-192.137058258057
 20
-83.9460754394531
 30
0.0
 11
-192.637058258057
 21
-83.9460754394531
 31
0.0
  0
LINE
  5
   70E
  8
0
  6
CONTINUOUS
 62
     2
 10
-192.137060223666
 20
-83.9460788152425
 30
0.0
 11
-192.637071642341
 21
-82.0800548456506
 31
0.0
  0
LINE
  5
   70F
  8
0
  6
CONTINUOUS
 62
     2
 10
-184.387084960937
 20
-79.5800514221191
 30
0.0
 11
-184.387084960937
 21
-82.0800514221192
 31
0.0
  0
LINE
  5
   710
  8
0
  6
CONTINUOUS
 62
     2
 10
-175.137084960938
 20
-79.5800514221191
 30
0.0
 11
-175.137084960938
 21
-82.0800514221192
 31
0.0
  0
LINE
  5
   711
  8
0
  6
CONTINUOUS
 62
     2
 10
-175.137084960938
 20
-79.5800514221191
 30
0.0
 11
-184.387084960937
 21
-79.5800514221191
 31
0.0
  0
LINE
  5
   712
  8
0
  6
CONTINUOUS
 62
     2
 10
-184.387084960937
 20
-82.0800514221192
 30
0.0
 11
-184.387084960937
 21
-87.0800514221192
 31
0.0
  0
LINE
  5
   713
  8
0
  6
CONTINUOUS
 62
     2
 10
-175.137084960938
 20
-82.0800514221192
 30
0.0
 11
-175.137084960938
 21
-87.0800514221192
 31
0.0
  0
LINE
  5
   714
  8
0
  6
CONTINUOUS
 62
     2
 10
-184.387069702148
 20
-82.0800514221192
 30
0.0
 11
-186.262069702148
 21
-82.0800514221192
 31
0.0
  0
LINE
  5
   715
  8
0
  6
CONTINUOUS
 62
     2
 10
-173.262069702148
 20
-82.0800514221192
 30
0.0
 11
-175.137069702148
 21
-82.0800514221192
 31
0.0
  0
LINE
  5
   716
  8
0
  6
CONTINUOUS
 62
     2
 10
-173.262069702148
 20
-87.5800514221191
 30
0.0
 11
-174.762069702148
 21
-87.5800514221191
 31
0.0
  0
LINE
  5
   717
  8
0
  6
CONTINUOUS
 62
     2
 10
-175.137077331543
 20
-87.5800514221191
 30
0.0
 11
-184.387084960937
 21
-87.5800514221191
 31
0.0
  0
LINE
  5
   718
  8
0
  6
CONTINUOUS
 62
     2
 10
-184.762069702148
 20
-87.5800514221191
 30
0.0
 11
-186.262069702148
 21
-87.5800514221191
 31
0.0
  0
LINE
  5
   719
  8
0
  6
CONTINUOUS
 62
     2
 10
-184.762069702148
 20
-87.0800514221192
 30
0.0
 11
-184.762069702148
 21
-87.5800514221191
 31
0.0
  0
LINE
  5
   71A
  8
0
  6
CONTINUOUS
 62
     2
 10
-174.762069702148
 20
-87.0800514221192
 30
0.0
 11
-174.762069702148
 21
-87.5800514221191
 31
0.0
  0
LINE
  5
   71B
  8
0
  6
CONTINUOUS
 62
     2
 10
-174.762069702148
 20
-87.5800514221191
 30
0.0
 11
-175.137084960938
 21
-87.5800514221191
 31
0.0
  0
LINE
  5
   71C
  8
0
  6
CONTINUOUS
 62
     2
 10
-184.387084960937
 20
-87.5800514221191
 30
0.0
 11
-184.762069702148
 21
-87.5800514221191
 31
0.0
  0
LINE
  5
   71D
  8
0
  6
CONTINUOUS
 62
     2
 10
-174.762069702148
 20
-87.0800514221192
 30
0.0
 11
-175.137084960938
 21
-87.0800514221192
 31
0.0
  0
LINE
  5
   71E
  8
0
  6
CONTINUOUS
 62
     2
 10
-184.387084960937
 20
-87.0800514221192
 30
0.0
 11
-184.762069702148
 21
-87.0800514221192
 31
0.0
  0
LINE
  5
   71F
  8
0
  6
CONTINUOUS
 62
     2
 10
-184.387084960937
 20
-83.9460754394531
 30
0.0
 11
-184.887062072754
 21
-83.9460754394531
 31
0.0
  0
LINE
  5
   720
  8
0
  6
CONTINUOUS
 62
     2
 10
-184.387069220935
 20
-82.0800508210495
 30
0.0
 11
-184.88706161107
 21
-83.9460747906408
 31
0.0
  0
LINE
  5
   721
  8
0
  6
CONTINUOUS
 62
     2
 10
-174.637062072754
 20
-83.9460754394531
 30
0.0
 11
-175.137062072754
 21
-83.9460754394531
 31
0.0
  0
LINE
  5
   722
  8
0
  6
CONTINUOUS
 62
     2
 10
-174.637065995757
 20
-83.946080180804
 30
0.0
 11
-175.137073598029
 21
-82.0800562112103
 31
0.0
  0
LINE
  5
   723
  8
0
  6
CONTINUOUS
 62
     2
 10
-219.387084960938
 20
-79.5800514221191
 30
0.0
 11
-219.387084960938
 21
-82.0800514221192
 31
0.0
  0
LINE
  5
   724
  8
0
  6
CONTINUOUS
 62
     2
 10
-210.137084960938
 20
-79.5800514221191
 30
0.0
 11
-210.137084960938
 21
-82.0800514221192
 31
0.0
  0
LINE
  5
   725
  8
0
  6
CONTINUOUS
 62
     2
 10
-210.137084960938
 20
-79.5800514221191
 30
0.0
 11
-219.387084960938
 21
-79.5800514221191
 31
0.0
  0
LINE
  5
   726
  8
0
  6
CONTINUOUS
 62
     2
 10
-219.38712380902
 20
-82.0800514220889
 30
0.0
 11
-219.38712380902
 21
-87.0800552367861
 31
0.0
  0
LINE
  5
   727
  8
0
  6
CONTINUOUS
 62
     2
 10
-210.13712380908
 20
-82.080051422086
 30
0.0
 11
-210.13712380908
 21
-87.0800476073887
 31
0.0
  0
LINE
  5
   728
  8
0
  6
CONTINUOUS
 62
     2
 10
-219.387073516846
 20
-82.0800514221192
 30
0.0
 11
-221.262069702148
 21
-82.0800514221192
 31
0.0
  0
LINE
  5
   729
  8
0
  6
CONTINUOUS
 62
     2
 10
-208.262069702148
 20
-82.0800514221192
 30
0.0
 11
-210.137069702148
 21
-82.0800514221192
 31
0.0
  0
LINE
  5
   72A
  8
0
  6
CONTINUOUS
 62
     2
 10
-208.262069702148
 20
-87.5800514221191
 30
0.0
 11
-209.762069702148
 21
-87.5800514221191
 31
0.0
  0
LINE
  5
   72B
  8
0
  6
CONTINUOUS
 62
     2
 10
-210.13708114624
 20
-87.5800514221191
 30
0.0
 11
-219.387084960938
 21
-87.5800514221191
 31
0.0
  0
LINE
  5
   72C
  8
0
  6
CONTINUOUS
 62
     2
 10
-219.762069702148
 20
-87.5800514221191
 30
0.0
 11
-221.262069702148
 21
-87.5800514221191
 31
0.0
  0
LINE
  5
   72D
  8
0
  6
CONTINUOUS
 62
     2
 10
-219.762069702148
 20
-87.0800514221192
 30
0.0
 11
-219.762069702148
 21
-87.5800514221191
 31
0.0
  0
LINE
  5
   72E
  8
0
  6
CONTINUOUS
 62
     2
 10
-209.762069702148
 20
-87.0800514221192
 30
0.0
 11
-209.762069702148
 21
-87.5800514221191
 31
0.0
  0
LINE
  5
   72F
  8
0
  6
CONTINUOUS
 62
     2
 10
-209.762069702148
 20
-87.5800514221191
 30
0.0
 11
-210.137084960938
 21
-87.5800514221191
 31
0.0
  0
LINE
  5
   730
  8
0
  6
CONTINUOUS
 62
     2
 10
-219.387084960938
 20
-87.5800514221191
 30
0.0
 11
-219.762069702148
 21
-87.5800514221191
 31
0.0
  0
LINE
  5
   731
  8
0
  6
CONTINUOUS
 62
     2
 10
-209.762069702148
 20
-87.0800514221192
 30
0.0
 11
-210.137084960938
 21
-87.0800514221192
 31
0.0
  0
LINE
  5
   732
  8
0
  6
CONTINUOUS
 62
     2
 10
-219.387084960938
 20
-87.0800514221192
 30
0.0
 11
-219.762069702148
 21
-87.0800514221192
 31
0.0
  0
LINE
  5
   733
  8
0
  6
CONTINUOUS
 62
     2
 10
-219.387084960938
 20
-83.9460754394531
 30
0.0
 11
-219.887062072754
 21
-83.9460754394531
 31
0.0
  0
LINE
  5
   734
  8
0
  6
CONTINUOUS
 62
     2
 10
-219.38707413036
 20
-82.0800528994719
 30
0.0
 11
-219.887062704111
 21
-83.9460768690602
 31
0.0
  0
LINE
  5
   735
  8
0
  6
CONTINUOUS
 62
     2
 10
-209.637058258057
 20
-83.9460754394531
 30
0.0
 11
-210.137058258057
 21
-83.9460754394531
 31
0.0
  0
LINE
  5
   736
  8
0
  6
CONTINUOUS
 62
     2
 10
-209.637059530515
 20
-83.9460789776538
 30
0.0
 11
-210.13707094919
 21
-82.0800550080619
 31
0.0
  0
LINE
  5
   737
  8
0
  6
CONTINUOUS
 62
     2
 10
-203.762069702148
 20
-82.0800514221192
 30
0.0
 11
-203.762069702148
 21
-87.5800514221191
 31
0.0
  0
LINE
  5
   738
  8
0
  6
CONTINUOUS
 62
     2
 10
-190.762069702148
 20
-82.0800514221192
 30
0.0
 11
-190.762069702148
 21
-87.5800514221191
 31
0.0
  0
LINE
  5
   739
  8
0
  6
CONTINUOUS
 62
     2
 10
-191.01207004766
 20
-87.5800517809847
 30
0.0
 11
-191.045403621108
 21
-88.5800590515138
 31
0.0
  0
LINE
  5
   73A
  8
0
  6
CONTINUOUS
 62
     2
 10
-203.478736370381
 20
-88.5800590515136
 30
0.0
 11
-203.512069944481
 21
-87.580051761433
 31
0.0
  0
LINE
  5
   73B
  8
0
  6
CONTINUOUS
 62
     2
 10
-186.262069702148
 20
-82.0800514221192
 30
0.0
 11
-186.262069702148
 21
-87.5800514221191
 31
0.0
  0
LINE
  5
   73C
  8
0
  6
CONTINUOUS
 62
     2
 10
-173.262069702148
 20
-82.0800514221192
 30
0.0
 11
-173.262069702148
 21
-87.5800514221191
 31
0.0
  0
LINE
  5
   73D
  8
0
  6
CONTINUOUS
 62
     2
 10
-173.51207013724
 20
-87.5800517839638
 30
0.0
 11
-173.545403710589
 21
-88.5800590515135
 31
0.0
  0
LINE
  5
   73E
  8
0
  6
CONTINUOUS
 62
     2
 10
-185.978736459863
 20
-88.5800590515134
 30
0.0
 11
-186.012070034062
 21
-87.5800517584537
 31
0.0
  0
LINE
  5
   73F
  8
0
  6
CONTINUOUS
 62
     2
 10
-221.262069702148
 20
-82.0800514221192
 30
0.0
 11
-221.262069702148
 21
-87.5800514221191
 31
0.0
  0
LINE
  5
   740
  8
0
  6
CONTINUOUS
 62
     2
 10
-208.262069702148
 20
-82.0800514221192
 30
0.0
 11
-208.262069702148
 21
-87.5800514221191
 31
0.0
  0
LINE
  5
   741
  8
0
  6
CONTINUOUS
 62
     2
 10
-208.512069958079
 20
-87.5800517780054
 30
0.0
 11
-208.545403531626
 21
-88.5800590515138
 31
0.0
  0
LINE
  5
   742
  8
0
  6
CONTINUOUS
 62
     2
 10
-220.9787362809
 20
-88.5800590515135
 30
0.0
 11
-221.012069854901
 21
-87.5800517644126
 31
0.0
  0
LINE
  5
   743
  8
0
  6
CONTINUOUS
 62
   130
 10
-155.762008666992
 20
-64.8300285339355
 30
0.0
 11
-155.762008666992
 21
-88.5800590515137
 31
0.0
  0
LINE
  5
   744
  8
0
  6
CONTINUOUS
 62
   130
 10
-155.762008666992
 20
-64.8300285339355
 30
0.0
 11
-171.012084960938
 21
-64.8300285339355
 31
0.0
  0
LINE
  5
   745
  8
0
  6
CONTINUOUS
 62
     7
 10
-171.012069702148
 20
-64.8300285339355
 30
0.0
 11
-171.012069702148
 21
-65.8300361633301
 31
0.0
  0
LINE
  5
   746
  8
0
  6
CONTINUOUS
 62
     7
 10
-174.762069702148
 20
-55.1800498962402
 30
0.0
 11
-184.762069702148
 21
-55.1800498962402
 31
0.0
  0
LINE
  5
   747
  8
0
  6
CONTINUOUS
 62
     7
 10
-174.762069702148
 20
-55.1800498962402
 30
0.0
 11
-174.762069702148
 21
-55.5800514221191
 31
0.0
  0
LINE
  5
   748
  8
0
  6
CONTINUOUS
 62
     7
 10
-184.762069702148
 20
-55.1800498962402
 30
0.0
 11
-184.762069702148
 21
-55.5800514221191
 31
0.0
  0
LINE
  5
   749
  8
0
  6
CONTINUOUS
 62
     3
 10
-184.512069702148
 20
-52.1800498962402
 30
0.0
 11
-184.512069702148
 21
-55.1800498962402
 31
0.0
  0
LINE
  5
   74A
  8
0
  6
CONTINUOUS
 62
     3
 10
-175.012069702148
 20
-52.1800498962402
 30
0.0
 11
-184.512069702148
 21
-52.1800498962402
 31
0.0
  0
LINE
  5
   74B
  8
0
  6
CONTINUOUS
 62
     3
 10
-175.012069702148
 20
-52.1800498962402
 30
0.0
 11
-175.012069702148
 21
-55.1800498962402
 31
0.0
  0
LINE
  5
   74C
  8
0
  6
CONTINUOUS
 62
   212
 10
-176.762077331543
 20
-51.6800498962402
 30
0.0
 11
-176.762077331543
 21
-52.1800498962402
 31
0.0
  0
LINE
  5
   74D
  8
0
  6
CONTINUOUS
 62
   212
 10
-182.762077331543
 20
-51.6800498962402
 30
0.0
 11
-182.762077331543
 21
-52.1800498962402
 31
0.0
  0
LINE
  5
   74E
  8
0
  6
CONTINUOUS
 62
     3
 10
-175.012069702148
 20
-51.6800498962402
 30
0.0
 11
-184.512069702148
 21
-51.6800498962402
 31
0.0
  0
LINE
  5
   74F
  8
0
  6
CONTINUOUS
 62
     3
 10
-184.512069702148
 20
-48.6800498962402
 30
0.0
 11
-184.512069702148
 21
-51.6800498962402
 31
0.0
  0
LINE
  5
   750
  8
0
  6
CONTINUOUS
 62
     3
 10
-175.012069702148
 20
-48.6800498962402
 30
0.0
 11
-175.012069702148
 21
-51.6800498962402
 31
0.0
  0
LINE
  5
   751
  8
0
  6
CONTINUOUS
 62
     7
 10
-174.262069702148
 20
-48.6800498962402
 30
0.0
 11
-185.262069702148
 21
-48.6800498962402
 31
0.0
  0
LINE
  5
   752
  8
0
  6
CONTINUOUS
 62
     7
 10
-174.262069702148
 20
-47.4300498962402
 30
0.0
 11
-185.262069702148
 21
-47.4300498962402
 31
0.0
  0
LINE
  5
   753
  8
0
  6
CONTINUOUS
 62
     7
 10
-174.262069702148
 20
-47.4300498962402
 30
0.0
 11
-174.262069702148
 21
-48.6800498962402
 31
0.0
  0
LINE
  5
   754
  8
0
  6
CONTINUOUS
 62
     7
 10
-185.262069702148
 20
-47.4300498962402
 30
0.0
 11
-185.262069702148
 21
-48.6800498962402
 31
0.0
  0
LINE
  5
   755
  8
0
  6
CONTINUOUS
 62
   212
 10
-182.762077331543
 20
-44.4300498962402
 30
0.0
 11
-182.762077331543
 21
-47.4300498962402
 31
0.0
  0
LINE
  5
   756
  8
0
  6
CONTINUOUS
 62
   212
 10
-182.262077331543
 20
-44.4300498962402
 30
0.0
 11
-182.262077331543
 21
-47.4300498962402
 31
0.0
  0
LINE
  5
   757
  8
0
  6
CONTINUOUS
 62
   212
 10
-177.262077331543
 20
-44.4300498962402
 30
0.0
 11
-177.262077331543
 21
-47.4300498962402
 31
0.0
  0
LINE
  5
   758
  8
0
  6
CONTINUOUS
 62
   212
 10
-176.762077331543
 20
-44.4300498962402
 30
0.0
 11
-176.762077331543
 21
-47.4300498962402
 31
0.0
  0
LINE
  5
   759
  8
0
  6
CONTINUOUS
 62
     7
 10
-174.262069702148
 20
-44.4300498962402
 30
0.0
 11
-185.262069702148
 21
-44.4300498962402
 31
0.0
  0
LINE
  5
   75A
  8
0
  6
CONTINUOUS
 62
     7
 10
-174.262069702148
 20
-43.1800498962402
 30
0.0
 11
-185.262069702148
 21
-43.1800498962402
 31
0.0
  0
LINE
  5
   75B
  8
0
  6
CONTINUOUS
 62
     7
 10
-174.262069702148
 20
-43.1800498962402
 30
0.0
 11
-174.262069702148
 21
-44.4300498962402
 31
0.0
  0
LINE
  5
   75C
  8
0
  6
CONTINUOUS
 62
     7
 10
-185.262069702148
 20
-43.1800498962402
 30
0.0
 11
-185.262069702148
 21
-44.4300498962402
 31
0.0
  0
LINE
  5
   75D
  8
0
  6
CONTINUOUS
 62
     3
 10
-184.512069702148
 20
-40.1800498962402
 30
0.0
 11
-184.512069702148
 21
-43.1800498962402
 31
0.0
  0
LINE
  5
   75E
  8
0
  6
CONTINUOUS
 62
     3
 10
-175.012069702148
 20
-40.1800498962402
 30
0.0
 11
-175.012069702148
 21
-43.1800498962402
 31
0.0
  0
LINE
  5
   75F
  8
0
  6
CONTINUOUS
 62
     3
 10
-175.012069702148
 20
-40.1800498962402
 30
0.0
 11
-184.512069702148
 21
-40.1800498962402
 31
0.0
  0
LINE
  5
   760
  8
0
  6
CONTINUOUS
 62
   212
 10
-176.762077331543
 20
-39.8300514221191
 30
0.0
 11
-182.762077331543
 21
-39.8300514221191
 31
0.0
  0
LINE
  5
   761
  8
0
  6
CONTINUOUS
 62
   212
 10
-177.762077331543
 20
-38.8300514221191
 30
0.0
 11
-181.762077331543
 21
-38.8300514221191
 31
0.0
  0
LINE
  5
   762
  8
0
  6
CONTINUOUS
 62
   212
 10
-176.762078033291
 20
-39.8300534529909
 30
0.0
 11
-177.762077999063
 21
-38.8300534872195
 31
0.0
  0
LINE
  5
   763
  8
0
  6
CONTINUOUS
 62
   212
 10
-176.762077331543
 20
-39.8300514221191
 30
0.0
 11
-176.762077331543
 21
-40.1800498962402
 31
0.0
  0
LINE
  5
   764
  8
0
  6
CONTINUOUS
 62
   212
 10
-182.762077331543
 20
-39.8300514221191
 30
0.0
 11
-182.762077331543
 21
-40.1800498962402
 31
0.0
  0
LINE
  5
   765
  8
0
  6
CONTINUOUS
 62
   212
 10
-181.762079612083
 20
-38.830054469906
 30
0.0
 11
-182.762079577854
 21
-39.8300544356775
 31
0.0
  0
TEXT
  5
   766
  8
0
  6
CONTINUOUS
 62
     1
 10
-216.878982545754
 20
-111.276619032274
 30
0.0
 40
2.00000008940697
  1
SCARPELLINI
 50
359.999999896069
 41
0.749999861419206
 72
     2
 11
-200.678984822652
 21
-111.276619061579
 31
0.0
  0
TEXT
  5
   767
  8
0
  6
CONTINUOUS
 62
     1
 10
-153.441984608343
 20
-118.3684177432
 30
0.0
 40
2.00000008940697
  1
M4504 98-11-17
 50
359.999999896069
 41
0.749999861419206
 72
     1
 11
-143.091986060143
 21
-117.368417717219
 31
0.0
 73
     2
  0
TEXT
  5
   768
  8
0
  6
CONTINUOUS
 62
     1
 10
-179.031980841181
 20
-118.368419649192
 30
0.0
 40
2.00000008940697
  1
M 3193 95-10-26
 50
359.999999896069
 41
0.749999861419206
 72
     1
 11
-167.931982398033
 21
-117.368419624567
 31
0.0
 73
     2
  0
INSERT
  5
   769
  8
0
  6
CONTINUOUS
 62
     7
  2
*UDIM85
 10
0.0
 20
0.0
 30
0.0
  0
TEXT
  5
   76A
  8
0
  6
CONTINUOUS
 62
     1
 10
-203.449766485712
 20
-118.159366632291
 30
0.0
 40
2.00000008940697
  1
M 3076 95-01-16
 50
359.999999896069
 41
0.749999861419206
 72
     1
 11
-192.349768042564
 21
-117.159366607666
 31
0.0
 73
     2
  0
TEXT
  5
   76B
  8
0
  6
CONTINUOUS
 62
     7
 10
-199.330047300187
 20
-94.3619879213896
 30
0.0
 40
3.00000002980232
  1
Y
 50
359.999999896069
 41
0.916666604744064
 72
     2
 11
-197.130047431317
 21
-94.3619879253692
 31
0.0
  0
TEXT
  5
   76C
  8
0
  6
CONTINUOUS
 62
     7
 10
-199.934123685685
 20
-5.70230850854778
 30
0.0
 40
3.00000002980232
  1
Y
 50
359.999999896069
 41
0.916666604744064
 72
     2
 11
-197.734123816815
 21
-5.70230851252739
 31
0.0
  0
INSERT
  5
   76D
  8
0
  6
CONTINUOUS
 62
     7
  2
*UDIM86
 10
0.0
 20
0.0
 30
0.0
  0
INSERT
  5
   76E
  8
0
  6
CONTINUOUS
 62
     7
  2
*UDIM87
 10
0.0
 20
0.0
 30
0.0
  0
TEXT
  5
   76F
  8
0
  6
CONTINUOUS
 62
     1
 10
-216.878982545754
 20
-102.809867922788
 30
0.0
 40
2.00000008940697
  1
93-04-05 FERRARI M.
 50
359.999999896069
 41
0.749999861419206
 72
     2
 11
-188.678986503503
 21
-102.809867973799
 31
0.0
  0
TEXT
  5
   770
  8
0
  6
CONTINUOUS
 62
     1
 10
-108.943115237993
 20
-129.251819756171
 30
0.0
 40
4.00000017881393
  1
601812/361
 50
359.999999896069
 41
0.937499973922969
 72
     2
 11
-72.1931146382211
 21
-129.251819822648
 31
0.0
  0
TEXT
  5
   771
  8
0
  6
CONTINUOUS
 62
     1
 10
-97.8574218777134
 20
-120.270236994319
 30
0.0
 40
3.00000002980232
  1
S3
 50
359.999999896069
 41
0.916666604744064
 72
     2
 11
-92.9074221672926
 21
-120.270237003274
 31
0.0
  0
TEXT
  5
   772
  8
0
  6
CONTINUOUS
 62
     1
 10
-119.391841601154
 20
-101.959960929564
 30
0.0
 40
2.00000008940697
  1
3POLE LOW VOLTAGE M.C.C.B SERIES ISOMAX
 50
359.999999896069
 41
0.749999861419206
 72
     1
 11
-90.2918456792831
 21
-100.9599609375
 31
0.0
 73
     2
  0
TEXT
  5
   773
  8
0
  6
CONTINUOUS
 62
     1
 10
-117.141841916314
 20
-104.959960933634
 30
0.0
 40
2.00000008940697
  1
WITHDRAWABLE VERSION REAR  TERMINALS
 50
359.999999896069
 41
0.749999861419206
 72
     1
 11
-90.2918456792831
 21
-103.9599609375
 31
0.0
 73
     2
  0
TEXT
  5
   774
  8
0
  6
CONTINUOUS
 62
     1
 10
-116.189449968508
 20
-110.030231480104
 30
0.0
 40
2.00000008940697
  1
INTERR.AUTOMATICO SERIE ISOMAX
 50
359.999999896069
 41
0.749999861419206
 72
     1
 11
-93.8394531011581
 21
-109.03023147583
 31
0.0
 73
     2
  0
TEXT
  5
   775
  8
0
  6
CONTINUOUS
 62
     1
 10
-128.189448287657
 20
-113.030231458397
 30
0.0
 40
2.00000008940697
  1
TRIPOL.ESECUZIONE ESTRAIBILE TERMIN.POSTERIORI
 50
359.999999896069
 41
0.749999861419206
 72
     1
 11
-93.8394531011581
 21
-112.03023147583
 31
0.0
 73
     2
  0
LINE
  5
   776
  8
0
  6
CONTINUOUS
 62
     7
 10
-118.058601379395
 20
73.0398178100586
 30
0.0
 11
-84.3086013793945
 21
73.0398178100586
 31
0.0
  0
LINE
  5
   777
  8
0
  6
CONTINUOUS
 62
     7
 10
-118.058601379395
 20
104.539817810059
 30
0.0
 11
-84.3086013793945
 21
104.539817810059
 31
0.0
  0
LINE
  5
   778
  8
0
  6
CONTINUOUS
 62
     7
 10
-84.3086013793945
 20
104.539817810059
 30
0.0
 11
-84.3086013793945
 21
83.9773178100586
 31
0.0
  0
LINE
  5
   779
  8
0
  6
CONTINUOUS
 62
     7
 10
-118.058601379395
 20
104.539817810059
 30
0.0
 11
-118.058601379395
 21
73.0398178100586
 31
0.0
  0
LINE
  5
   77A
  8
0
  6
DASHDOT
 62
     7
 10
-88.7835879259896
 20
81.9773178100586
 30
0.0
 11
-74.8032949799529
 21
81.9773178100586
 31
0.0
  0
LINE
  5
   77B
  8
0
  6
CONTINUOUS
 62
     7
 10
-84.3086013793945
 20
83.9773178100586
 30
0.0
 11
-78.5586013793945
 21
83.9773178100586
 31
0.0
  0
LINE
  5
   77C
  8
0
  6
CONTINUOUS
 62
     7
 10
-84.3086013793945
 20
79.9773178100586
 30
0.0
 11
-78.5586013793945
 21
79.9773178100586
 31
0.0
  0
ARC
  5
   77D
  8
0
  6
CONTINUOUS
 62
     7
 10
-78.5586013793945
 20
81.9773178100586
 30
0.0
 40
2.0
 50
269.999999844103
 51
449.999999844103
  0
LINE
  5
   77E
  8
0
  6
CONTINUOUS
 62
     7
 10
-84.3086013793945
 20
79.9773178100586
 30
0.0
 11
-84.3086013793945
 21
73.0398178100586
 31
0.0
  0
LINE
  5
   77F
  8
0
  6
DASHDOT
 62
     7
 10
-100.058601379395
 20
114.417308970914
 30
0.0
 11
-100.058601379395
 21
65.6446364925072
 31
0.0
  0
CIRCLE
  5
   780
  8
0
  6
CONTINUOUS
 62
     7
 10
-111.058601379395
 20
106.539817810059
 30
0.0
 40
0.875
  0
CIRCLE
  5
   781
  8
0
  6
CONTINUOUS
 62
     7
 10
-79.8086013793945
 20
106.539817810059
 30
0.0
 40
1.0
  0
CIRCLE
  5
   782
  8
0
  6
CONTINUOUS
 62
     7
 10
-79.8086013793945
 20
88.7898178100586
 30
0.0
 40
1.0
  0
CIRCLE
  5
   783
  8
0
  6
CONTINUOUS
 62
     7
 10
-79.8086013793945
 20
71.0398178100586
 30
0.0
 40
0.875
  0
CIRCLE
  5
   784
  8
0
  6
CONTINUOUS
 62
     7
 10
-111.058601379395
 20
71.0398178100586
 30
0.0
 40
1.0
  0
LINE
  5
   785
  8
0
  6
DASHDOT
 62
     7
 10
-111.058601379395
 20
108.164817810059
 30
0.0
 11
-111.058601379395
 21
104.914817810059
 31
0.0
  0
LINE
  5
   786
  8
0
  6
DASHDOT
 62
     7
 10
-112.683601379395
 20
106.539817810059
 30
0.0
 11
-109.433601379395
 21
106.539817810059
 31
0.0
  0
LINE
  5
   787
  8
0
  6
DASHDOT
 62
     7
 10
-79.8086013793945
 20
108.164817810059
 30
0.0
 11
-79.8086013793945
 21
104.914817810059
 31
0.0
  0
LINE
  5
   788
  8
0
  6
DASHDOT
 62
     7
 10
-81.4336013793945
 20
106.539817810059
 30
0.0
 11
-78.1836013793945
 21
106.539817810059
 31
0.0
  0
LINE
  5
   789
  8
0
  6
DASHDOT
 62
     7
 10
-79.8086013793945
 20
90.4148178100586
 30
0.0
 11
-79.8086013793945
 21
87.1648178100586
 31
0.0
  0
LINE
  5
   78A
  8
0
  6
DASHDOT
 62
     7
 10
-81.4336013793945
 20
88.7898178100586
 30
0.0
 11
-78.1836013793945
 21
88.7898178100586
 31
0.0
  0
LINE
  5
   78B
  8
0
  6
DASHDOT
 62
     7
 10
-79.8086013793945
 20
72.6648178100586
 30
0.0
 11
-79.8086013793945
 21
69.4148178100586
 31
0.0
  0
LINE
  5
   78C
  8
0
  6
DASHDOT
 62
     7
 10
-81.4336013793945
 20
71.0398178100586
 30
0.0
 11
-78.1836013793945
 21
71.0398178100586
 31
0.0
  0
LINE
  5
   78D
  8
0
  6
DASHDOT
 62
     7
 10
-111.058601379395
 20
72.6648178100586
 30
0.0
 11
-111.058601379395
 21
69.4148178100586
 31
0.0
  0
LINE
  5
   78E
  8
0
  6
DASHDOT
 62
     7
 10
-112.683601379395
 20
71.0398178100586
 30
0.0
 11
-109.433601379395
 21
71.0398178100586
 31
0.0
  0
LINE
  5
   78F
  8
0
  6
CONTINUOUS
 62
     7
 10
-123.983160456788
 20
109.539817810059
 30
0.0
 11
-74.3961019815246
 21
109.539817810059
 31
0.0
  0
LINE
  5
   790
  8
0
  6
CONTINUOUS
 62
     7
 10
-124.616571787676
 20
68.0398178100586
 30
0.0
 11
-73.9436653166043
 21
68.0398178100586
 31
0.0
  0
LINE
  5
   791
  8
0
  6
CONTINUOUS
 62
     7
 10
-74.8086013793945
 20
110.369862857655
 30
0.0
 11
-74.8086013793945
 21
67.1169176912763
 31
0.0
  0
LINE
  5
   792
  8
0
  6
CONTINUOUS
 62
     7
 10
-123.058601379395
 20
110.369862857655
 30
0.0
 11
-123.058601379395
 21
66.52875002688
 31
0.0
  0
POINT
  5
   793
  8
0
  6
CONTINUOUS
 62
     7
 10
-76.5586013793945
 20
81.8523178100586
 30
0.0
  0
LINE
  5
   794
  8
0
  6
DASHDOT
 62
     7
 10
-127.519326142538
 20
88.7898178100586
 30
0.0
 11
-72.0658730792577
 21
88.7898178100586
 31
0.0
  0
CIRCLE
  5
   795
  8
0
  6
CONTINUOUS
 62
     7
 10
-94.4336013793945
 20
106.914817810059
 30
0.0
 40
0.5
  0
CIRCLE
  5
   796
  8
0
  6
CONTINUOUS
 62
     7
 10
-105.683601379395
 20
106.914817810059
 30
0.0
 40
0.5
  0
CIRCLE
  5
   797
  8
0
  6
CONTINUOUS
 62
     7
 10
-94.4336013793945
 20
106.914817810059
 30
0.0
 40
0.92
  0
CIRCLE
  5
   798
  8
0
  6
CONTINUOUS
 62
     7
 10
-105.683601379395
 20
106.914817810059
 30
0.0
 40
0.92
  0
LINE
  5
   799
  8
0
  6
DASHDOT
 62
     7
 10
-94.4336013793945
 20
108.584817810059
 30
0.0
 11
-94.4336013793945
 21
105.244817810059
 31
0.0
  0
LINE
  5
   79A
  8
0
  6
DASHDOT
 62
     7
 10
-96.1036013793945
 20
106.914817810059
 30
0.0
 11
-92.7636013793945
 21
106.914817810059
 31
0.0
  0
LINE
  5
   79B
  8
0
  6
DASHDOT
 62
     7
 10
-105.683601379395
 20
108.584817810059
 30
0.0
 11
-105.683601379395
 21
105.244817810059
 31
0.0
  0
LINE
  5
   79C
  8
0
  6
DASHDOT
 62
     7
 10
-107.353601379395
 20
106.914817810059
 30
0.0
 11
-104.013601379395
 21
106.914817810059
 31
0.0
  0
LINE
  5
   79D
  8
0
  6
CONTINUOUS
 62
     7
 10
-73.2028702230025
 20
104.576405225908
 30
0.0
 11
-73.2028702230025
 21
97.3523143064309
 31
0.0
  0
LINE
  5
   79E
  8
0
  6
CONTINUOUS
 62
     7
 10
-70.5540368858607
 20
104.576405225908
 30
0.0
 11
-70.5540368858607
 21
97.3523143064309
 31
0.0
  0
LINE
  5
   79F
  8
0
  6
CONTINUOUS
 62
     7
 10
-73.2028702230025
 20
104.576405225908
 30
0.0
 11
-70.5540368858607
 21
104.576405225908
 31
0.0
  0
LINE
  5
   7A0
  8
0
  6
CONTINUOUS
 62
     7
 10
-73.2028702230025
 20
97.3523143064309
 30
0.0
 11
-70.5540368858607
 21
97.3523143064309
 31
0.0
  0
LINE
  5
   7A1
  8
0
  6
CONTINUOUS
 62
     7
 10
-73.2028702230025
 20
80.2273213136863
 30
0.0
 11
-73.2028702230025
 21
73.0032303942087
 31
0.0
  0
LINE
  5
   7A2
  8
0
  6
CONTINUOUS
 62
     7
 10
-70.5540368858607
 20
80.2273213136863
 30
0.0
 11
-70.5540368858607
 21
73.0032303942087
 31
0.0
  0
LINE
  5
   7A3
  8
0
  6
CONTINUOUS
 62
     7
 10
-73.2028702230025
 20
73.0032303942087
 30
0.0
 11
-70.5540368858607
 21
73.0032303942087
 31
0.0
  0
LINE
  5
   7A4
  8
0
  6
CONTINUOUS
 62
     7
 10
-73.2028702230025
 20
80.2273213136863
 30
0.0
 11
-70.5540368858607
 21
80.2273213136863
 31
0.0
  0
LINE
  5
   7A5
  8
0
  6
DASHDOT
 62
     7
 10
-71.8784535544316
 20
109.272064323569
 30
0.0
 11
-71.8784535544316
 21
55.3321854581361
 31
0.0
  0
INSERT
  5
   7A6
  8
0
  6
CONTINUOUS
 62
     7
  2
*UDIM88
 10
0.0
 20
0.0
 30
0.0
  0
INSERT
  5
   7A7
  8
0
  6
CONTINUOUS
 62
     7
  2
*UDIM89
 10
0.0
 20
0.0
 30
0.0
  0
INSERT
  5
   7A8
  8
0
  6
CONTINUOUS
 62
     7
  2
*UDIM90
 10
0.0
 20
0.0
 30
0.0
  0
INSERT
  5
   7A9
  8
0
  6
CONTINUOUS
 62
     7
  2
*UDIM91
 10
0.0
 20
0.0
 30
0.0
  0
INSERT
  5
   7AA
  8
0
  6
CONTINUOUS
 62
     7
  2
*UDIM92
 10
0.0
 20
0.0
 30
0.0
  0
INSERT
  5
   7AB
  8
0
  6
CONTINUOUS
 62
     7
  2
*UDIM93
 10
0.0
 20
0.0
 30
0.0
  0
TEXT
  5
   7AC
  8
0
  6
CONTINUOUS
 62
     7
 10
-124.387209829466
 20
78.2324088264555
 30
0.0
 40
3.00000002980232
  1
=     =
 50
449.999999844103
 41
0.916666604744064
 72
     2
 11
-124.387209778702
 21
96.9324077446312
 31
0.0
  0
INSERT
  5
   7AD
  8
0
  6
CONTINUOUS
 62
     7
  2
*UDIM94
 10
0.0
 20
0.0
 30
0.0
  0
INSERT
  5
   7AE
  8
0
  6
CONTINUOUS
 62
     7
  2
*UDIM95
 10
0.0
 20
0.0
 30
0.0
  0
INSERT
  5
   7AF
  8
0
  6
CONTINUOUS
 62
     7
  2
*UDIM96
 10
0.0
 20
0.0
 30
0.0
  0
INSERT
  5
   7B0
  8
0
  6
CONTINUOUS
 62
     7
  2
*UDIM97
 10
0.0
 20
0.0
 30
0.0
  0
INSERT
  5
   7B1
  8
0
  6
CONTINUOUS
 62
     7
  2
*UDIM98
 10
0.0
 20
0.0
 30
0.0
  0
INSERT
  5
   7B2
  8
0
  6
CONTINUOUS
 62
     7
  2
*UDIM99
 10
0.0
 20
0.0
 30
0.0
  0
INSERT
  5
   7B3
  8
0
  6
CONTINUOUS
 62
     7
  2
*UDIM100
 10
0.0
 20
0.0
 30
0.0
  0
INSERT
  5
   7B4
  8
0
  6
CONTINUOUS
 62
     7
  2
*UDIM101
 10
0.0
 20
0.0
 30
0.0
  0
INSERT
  5
   7B5
  8
0
  6
CONTINUOUS
 62
     7
  2
*UDIM102
 10
0.0
 20
0.0
 30
0.0
  0
INSERT
  5
   7B6
  8
0
  6
CONTINUOUS
 62
     7
  2
*UDIM103
 10
0.0
 20
0.0
 30
0.0
  0
INSERT
  5
   7B7
  8
0
  6
CONTINUOUS
 62
     7
  2
*UDIM104
 10
0.0
 20
0.0
 30
0.0
  0
TEXT
  5
   7B8
  8
0
  6
CONTINUOUS
 62
     7
 10
-100.998744855427
 20
42.7182120585492
 30
0.0
 40
3.00000002980232
  1
Y
 50
359.999999844103
 41
0.916666604744064
 72
     2
 11
-98.7987449865568
 21
42.7182120525743
 31
0.0
  0
TEXT
  5
   7B9
  8
0
  6
CONTINUOUS
 62
     7
 10
-101.356990466617
 20
139.929794242387
 30
0.0
 40
3.00000002980232
  1
Y
 50
359.999999844103
 41
0.916666604744064
 72
     2
 11
-99.1569905977476
 21
139.929794236412
 31
0.0
  0
TEXT
  5
   7BA
  8
0
  6
CONTINUOUS
 62
     7
 10
-49.8697279792059
 20
87.7069007659009
 30
0.0
 40
3.00000002980232
  1
X
 50
359.999999844103
 41
0.916666604744064
 72
     2
 11
-47.6697281103361
 21
87.706900759926
 31
0.0
  0
LINE
  5
   7BB
  8
0
  6
CONTINUOUS
 62
     7
 10
-284.437469482422
 20
-69.9495761709611
 30
0.0
 11
-284.437469482422
 21
-93.8660976571639
 31
0.0
  0
LINE
  5
   7BC
  8
0
  6
CONTINUOUS
 62
     7
 10
-286.437469482422
 20
-69.9495761709611
 30
0.0
 11
-286.437469482422
 21
-93.8660976571639
 31
0.0
  0
LINE
  5
   7BD
  8
0
  6
DASHDOT
 62
     7
 10
-289.640072584819
 20
-81.9078369140625
 30
0.0
 11
-281.213853392382
 21
-81.9078369140625
 31
0.0
  0
POINT
  5
   7BE
  8
0
  6
CONTINUOUS
 62
     7
 10
-286.437469482422
 20
-79.9078369140625
 30
0.0
  0
POINT
  5
   7BF
  8
0
  6
CONTINUOUS
 62
     7
 10
-286.437469482422
 20
-83.9078369140625
 30
0.0
  0
LINE
  5
   7C0
  8
0
  6
CONTINUOUS
 62
     7
 10
-284.437469482422
 20
-78.2296376517079
 30
0.0
 11
-286.437469482422
 21
-79.9078369140625
 31
0.0
  0
LINE
  5
   7C1
  8
0
  6
CONTINUOUS
 62
     7
 10
-286.437469482422
 20
-83.9078369140625
 30
0.0
 11
-284.437469482422
 21
-85.5860361764171
 31
0.0
  0
LINE
  5
   7C2
  8
0
  6
CONTINUOUS
 62
     7
 10
-286.437469482422
 20
-91.4078369140625
 30
0.0
 11
-284.437469482422
 21
-91.4078369140625
 31
0.0
  0
CIRCLE
  5
   7C3
  8
0
  6
CONTINUOUS
 62
     7
 10
-285.437469482422
 20
-81.9078369140625
 30
0.0
 40
12.0
  0
LINE
  5
   7C4
  8
0
  6
CONTINUOUS
 62
     7
 10
-292.437461853027
 20
-86.4078369140625
 30
0.0
 11
-289.937461853027
 21
-86.4078369140625
 31
0.0
  0
LINE
  5
   7C5
  8
0
  6
CONTINUOUS
 62
     7
 10
-288.937461853027
 20
-77.4078369140625
 30
0.0
 11
-288.937461853027
 21
-85.4078369140625
 31
0.0
  0
LINE
  5
   7C6
  8
0
  6
CONTINUOUS
 62
     7
 10
-288.937461853027
 20
-77.4078369140625
 30
0.0
 11
-286.437469482422
 21
-77.4078369140625
 31
0.0
  0
LINE
  5
   7C7
  8
0
  6
CONTINUOUS
 62
     7
 10
-292.437461853027
 20
-88.9078369140625
 30
0.0
 11
-289.937461853027
 21
-88.9078369140625
 31
0.0
  0
LINE
  5
   7C8
  8
0
  6
CONTINUOUS
 62
     7
 10
-293.437461853027
 20
-89.9078369140625
 30
0.0
 11
-293.437461853027
 21
-90.8521156479937
 31
0.0
  0
ARC
  5
   7C9
  8
0
  6
CONTINUOUS
 62
     7
 10
-289.937457705747
 20
-85.4078375854012
 30
0.0
 40
0.999996977799109
 50
629.999840735313
 51
720.000252836193
  0
ARC
  5
   7CA
  8
0
  6
CONTINUOUS
 62
     7
 10
-292.437447199521
 20
-89.907849600367
 30
0.0
 40
3.50001845311552
 50
450.000186734275
 51
513.408761128067
  0
ARC
  5
   7CB
  8
0
  6
CONTINUOUS
 62
     7
 10
-292.437506101177
 20
-89.9077960192801
 30
0.0
 40
0.999949821243504
 50
449.997764042825
 51
540.001169660043
  0
ARC
  5
   7CC
  8
0
  6
CONTINUOUS
 62
     7
 10
-289.937442500646
 20
-85.4078689609968
 30
0.0
 40
3.49997105594423
 50
629.999653243441
 51
720.000420168909
  0
INSERT
  5
   7CD
  8
0
  6
CONTINUOUS
 62
     7
  2
*HATCH15
 10
-285.437469482422
 20
-81.9078369140625
 30
0.0
 50
269.999999844103
  0
INSERT
  5
   7CE
  8
0
  6
CONTINUOUS
 62
     7
  2
*HATCH16
 10
-285.437469482422
 20
-81.9078369140625
 30
0.0
 50
269.999999844103
  0
TEXT
  5
   7CF
  8
0
  6
CONTINUOUS
 62
     7
 10
-298.850687145546
 20
-61.8606186512635
 30
0.0
 40
4.00000017881393
  1
PART. Z
 50
359.999999844103
 41
0.915624995566905
 72
     1
 11
-286.398186653853
 21
-59.8606185956761
 31
0.0
 73
     2
  0
INSERT
  5
   7D0
  8
0
  6
CONTINUOUS
 62
     7
  2
*UDIM105
 10
0.0
 20
0.0
 30
0.0
  0
INSERT
  5
   7D1
  8
0
  6
CONTINUOUS
 62
     7
  2
*UDIM106
 10
0.0
 20
0.0
 30
0.0
  0
ENDSEC
  0
EOF
