  0
SECTION
  2
HEADER
  9
$ACADVER
  1
AC1009
  9
$DWGCODEPAGE
  3
iso8859-1
  9
$INSBASE
 10
0.0
 20
0.0
 30
0.0
  9
$EXTMIN
 10
1.0E20
 20
1.0E20
  9
$EXTMAX
 10
-1.0E20
 20
-1.0E20
  9
$LIMMIN
 10
0.0
 20
0.0
  9
$LIMMAX
 10
12.0
 20
9.0
  9
$ORTHOMODE
 70
     0
  9
$REGENMODE
 70
     1
  9
$FILLMODE
 70
     1
  9
$QTEXTMODE
 70
     0
  9
$MIRRTEXT
 70
     1
  9
$DRAGMODE
 70
     2
  9
$LTSCALE
 40
15.0
  9
$OSMODE
 70
     0
  9
$ATTMODE
 70
     1
  9
$TEXTSIZE
 40
0.2
  9
$TRACEWID
 40
0.05
  9
$TEXTSTYLE
  7
STANDARD
  9
$CLAYER
  8
0
  9
$CELTYPE
  6
DASHED
  9
$CECOLOR
 62
   256
  9
$DIMSCALE
 40
1.0
  9
$DIMASZ
 40
0.18
  9
$DIMEXO
 40
0.0625
  9
$DIMDLI
 40
0.38
  9
$DIMRND
 40
0.0
  9
$DIMDLE
 40
0.0
  9
$DIMEXE
 40
0.18
  9
$DIMTP
 40
0.0
  9
$DIMTM
 40
0.0
  9
$DIMTXT
 40
0.18
  9
$DIMCEN
 40
0.09
  9
$DIMTSZ
 40
0.0
  9
$DIMTOL
 70
     0
  9
$DIMLIM
 70
     0
  9
$DIMTIH
 70
     1
  9
$DIMTOH
 70
     1
  9
$DIMSE1
 70
     0
  9
$DIMSE2
 70
     0
  9
$DIMTAD
 70
     0
  9
$DIMZIN
 70
     0
  9
$DIMBLK
  1

  9
$DIMASO
 70
     1
  9
$DIMSHO
 70
     1
  9
$DIMPOST
  1

  9
$DIMAPOST
  1

  9
$DIMALT
 70
     0
  9
$DIMALTD
 70
     2
  9
$DIMALTF
 40
25.4
  9
$DIMLFAC
 40
1.0
  9
$DIMTOFL
 70
     0
  9
$DIMTVP
 40
0.0
  9
$DIMTIX
 70
     0
  9
$DIMSOXD
 70
     0
  9
$DIMSAH
 70
     0
  9
$DIMBLK1
  1

  9
$DIMBLK2
  1

  9
$DIMSTYLE
  2
STANDARD
  9
$DIMCLRD
 70
     0
  9
$DIMCLRE
 70
     0
  9
$DIMCLRT
 70
     0
  9
$DIMTFAC
 40
1.0
  9
$DIMGAP
 40
0.09
  9
$LUNITS
 70
     2
  9
$LUPREC
 70
     4
  9
$AXISMODE
 70
     0
  9
$AXISUNIT
 10
0.0
 20
0.0
  9
$SKETCHINC
 40
0.1
  9
$FILLETRAD
 40
0.0
  9
$AUNITS
 70
     0
  9
$AUPREC
 70
     0
  9
$MENU
  1
acad
  9
$ELEVATION
 40
0.0
  9
$PELEVATION
 40
0.0
  9
$THICKNESS
 40
0.0
  9
$LIMCHECK
 70
     0
  9
$BLIPMODE
 70
     1
  9
$CHAMFERA
 40
0.0
  9
$CHAMFERB
 40
0.0
  9
$SKPOLY
 70
     0
  9
$TDCREATE
 40
0.000000000
  9
$TDUPDATE
 40
0.000000000
  9
$TDINDWG
 40
0.0
  9
$TDUSRTIMER
 40
0.0
  9
$USRTIMER
 70
     1
  9
$ANGBASE
 50
0.0
  9
$ANGDIR
 70
     0
  9
$PDMODE
 70
     0
  9
$PDSIZE
 40
0.0
  9
$PLINEWID
 40
0.0
  9
$COORDS
 70
     1
  9
$SPLFRAME
 70
     0
  9
$SPLINETYPE
 70
     6
  9
$SPLINESEGS
 70
     8
  9
$ATTDIA
 70
     0
  9
$ATTREQ
 70
     1
  9
$HANDLING
 70
     1
  9
$HANDSEED
  5
   7A2
  9
$SURFTAB1
 70
     6
  9
$SURFTAB2
 70
     6
  9
$SURFTYPE
 70
     6
  9
$SURFU
 70
     6
  9
$SURFV
 70
     6
  9
$UCSNAME
  2

  9
$UCSORG
 10
0.0
 20
0.0
 30
0.0
  9
$UCSXDIR
 10
1.0
 20
0.0
 30
0.0
  9
$UCSYDIR
 10
0.0
 20
1.0
 30
0.0
  9
$PUCSNAME
  2

  9
$PUCSORG
 10
0.0
 20
0.0
 30
0.0
  9
$PUCSXDIR
 10
1.0
 20
0.0
 30
0.0
  9
$PUCSYDIR
 10
0.0
 20
1.0
 30
0.0
  9
$USERI1
 70
     0
  9
$USERI2
 70
     0
  9
$USERI3
 70
     0
  9
$USERI4
 70
     0
  9
$USERI5
 70
     0
  9
$USERR1
 40
0.0
  9
$USERR2
 40
0.0
  9
$USERR3
 40
0.0
  9
$USERR4
 40
0.0
  9
$USERR5
 40
0.0
  9
$WORLDVIEW
 70
     1
  9
$SHADEDGE
 70
     3
  9
$SHADEDIF
 70
    70
  9
$TILEMODE
 70
     1
  9
$MAXACTVP
 70
    16
  9
$PINSBASE
 10
0.0
 20
0.0
 30
0.0
  9
$PLIMCHECK
 70
     0
  9
$PEXTMIN
 10
1.0E20
 20
1.0E20
 30
1.0E20
  9
$PEXTMAX
 10
-1.0E20
 20
-1.0E20
 30
-1.0E20
  9
$PLIMMIN
 10
0.0
 20
0.0
  9
$PLIMMAX
 10
12.0
 20
9.0
  9
$UNITMODE
 70
     0
  9
$VISRETAIN
 70
     0
  0
ENDSEC
  0
SECTION
  2
TABLES
  0
TABLE
  2
VPORT
 70
     1
  0
VPORT
  2
*ACTIVE
 70
     0
 10
0.0
 20
0.0
 11
1.0
 21
1.0
 12
6.801242
 22
4.5
 13
0.0
 23
0.0
 14
1.0
 24
1.0
 15
0.0
 25
0.0
 16
0.0
 26
0.0
 36
1.0
 17
0.0
 27
0.0
 37
0.0
 40
9.0
 41
1.511387
 42
50.0
 43
0.0
 44
0.0
 50
0.0
 51
0.0
 71
     0
 72
   100
 73
     1
 74
     1
 75
     0
 76
     0
 77
     0
 78
     0
  0
ENDTAB
  0
TABLE
  2
LTYPE
 70
    41
  0
LTYPE
  2
BYBLOCK
 70
     0
  3

 72
    65
 73
     0
 40
0.0
  0
LTYPE
  2
BYLAYER
 70
     0
  3

 72
    65
 73
     0
 40
0.0
  0
LTYPE
  2
CONTINUOUS
 70
     0
  3
Solid line
 72
    65
 73
     0
 40
0.0
  0
LTYPE
  2
BORDER
 70
    64
  3
__ __ . __ __ . __ __ . __ __ . __ __ . __ __ .
 72
    65
 73
     6
 40
1.75
 49
0.5
 49
-0.25
 49
0.5
 49
-0.25
 49
0.0
 49
-0.25
  0
LTYPE
  2
BORDER2
 70
    64
  3
__.__.__.__.__.__.__.__.__.__.__.__.__.__.__.__
 72
    65
 73
     6
 40
0.875
 49
0.25
 49
-0.125
 49
0.25
 49
-0.125
 49
0.0
 49
-0.125
  0
LTYPE
  2
BORDERX2
 70
    64
  3
____  ____  .  ____  ____  .  ____  ____  .  __
 72
    65
 73
     6
 40
3.5
 49
1.0
 49
-0.5
 49
1.0
 49
-0.5
 49
0.0
 49
-0.5
  0
LTYPE
  2
CENTER
 70
    64
  3
____ _ ____ _ ____ _ ____ _ ____ _ ____ _ ____
 72
    65
 73
     4
 40
2.0
 49
1.25
 49
-0.25
 49
0.25
 49
-0.25
  0
LTYPE
  2
CENTER2
 70
    64
  3
___ _ ___ _ ___ _ ___ _ ___ _ ___ _ ___ _ ___ _
 72
    65
 73
     4
 40
1.125
 49
0.75
 49
-0.125
 49
0.125
 49
-0.125
  0
LTYPE
  2
CENTERX2
 70
    64
  3
________  __  ________  __  ________  __  _____
 72
    65
 73
     4
 40
4.0
 49
2.5
 49
-0.5
 49
0.5
 49
-0.5
  0
LTYPE
  2
DASHDOT
 70
    64
  3
__ . __ . __ . __ . __ . __ . __ . __ . __ . __
 72
    65
 73
     4
 40
1.0
 49
0.5
 49
-0.25
 49
0.0
 49
-0.25
  0
LTYPE
  2
DASHDOT2
 70
    64
  3
_._._._._._._._._._._._._._._._._._._._._._._._
 72
    65
 73
     4
 40
0.5
 49
0.25
 49
-0.125
 49
0.0
 49
-0.125
  0
LTYPE
  2
DASHDOTX2
 70
    64
  3
____  .  ____  .  ____  .  ____  .  ____  .  __
 72
    65
 73
     4
 40
2.0
 49
1.0
 49
-0.5
 49
0.0
 49
-0.5
  0
LTYPE
  2
DASHED
 70
    64
  3
__ __ __ __ __ __ __ __ __ __ __ __ __ __ __ __
 72
    65
 73
     2
 40
0.75
 49
0.5
 49
-0.25
  0
LTYPE
  2
DASHED2
 70
    64
  3
_ _ _ _ _ _ _ _ _ _ _ _ _ _ _ _ _ _ _ _ _ _ _ _
 72
    65
 73
     2
 40
0.375
 49
0.25
 49
-0.125
  0
LTYPE
  2
DASHEDX2
 70
    64
  3
____  ____  ____  ____  ____  ____  ____  ____
 72
    65
 73
     2
 40
1.5
 49
1.0
 49
-0.5
  0
LTYPE
  2
DIVIDE
 70
    64
  3
____ . . ____ . . ____ . . ____ . . ____ . . __
 72
    65
 73
     6
 40
1.25
 49
0.5
 49
-0.25
 49
0.0
 49
-0.25
 49
0.0
 49
-0.25
  0
LTYPE
  2
DIVIDE2
 70
    64
  3
__..__..__..__..__..__..__..__..__..__..__..__.
 72
    65
 73
     6
 40
0.625
 49
0.25
 49
-0.125
 49
0.0
 49
-0.125
 49
0.0
 49
-0.125
  0
LTYPE
  2
DIVIDEX2
 70
    64
  3
________  .  .  ________  .  .  ________  .  .
 72
    65
 73
     6
 40
2.5
 49
1.0
 49
-0.5
 49
0.0
 49
-0.5
 49
0.0
 49
-0.5
  0
LTYPE
  2
DOT
 70
    64
  3
. . . . . . . . . . . . . . . . . . . . . . . .
 72
    65
 73
     2
 40
0.25
 49
0.0
 49
-0.25
  0
LTYPE
  2
DOT2
 70
    64
  3
...............................................
 72
    65
 73
     2
 40
0.125
 49
0.0
 49
-0.125
  0
LTYPE
  2
DOTX2
 70
    64
  3
.  .  .  .  .  .  .  .  .  .  .  .  .  .  .  .
 72
    65
 73
     2
 40
0.5
 49
0.0
 49
-0.5
  0
LTYPE
  2
HIDDEN
 70
    64
  3
__ __ __ __ __ __ __ __ __ __ __ __ __ __ __ __
 72
    65
 73
     2
 40
0.375
 49
0.25
 49
-0.125
  0
LTYPE
  2
HIDDEN2
 70
    64
  3
_ _ _ _ _ _ _ _ _ _ _ _ _ _ _ _ _ _ _ _ _ _ _ _
 72
    65
 73
     2
 40
0.1875
 49
0.125
 49
-0.0625
  0
LTYPE
  2
HIDDENX2
 70
    64
  3
____ ____ ____ ____ ____ ____ ____ ____ ____ __
 72
    65
 73
     2
 40
0.75
 49
0.5
 49
-0.25
  0
LTYPE
  2
PHANTOM
 70
    64
  3
______  __  __  ______  __  __  ______  __  __
 72
    65
 73
     6
 40
2.5
 49
1.25
 49
-0.25
 49
0.25
 49
-0.25
 49
0.25
 49
-0.25
  0
LTYPE
  2
PHANTOM2
 70
    64
  3
___ _ _ ___ _ _ ___ _ _ ___ _ _ ___ _ _ ___ _ _
 72
    65
 73
     6
 40
1.25
 49
0.625
 49
-0.125
 49
0.125
 49
-0.125
 49
0.125
 49
-0.125
  0
LTYPE
  2
PHANTOMX2
 70
    64
  3
____________    ____    ____    ____________
 72
    65
 73
     6
 40
5.0
 49
2.5
 49
-0.5
 49
0.5
 49
-0.5
 49
0.5
 49
-0.5
  0
LTYPE
  2
ACAD_ISO02W100
 70
    64
  3
__ __ __ __ __ __ __ __ __ __ __ __ __ __ __ __
 72
    65
 73
     2
 40
15.0
 49
12.0
 49
-3.0
  0
LTYPE
  2
ACAD_ISO03W100
 70
    64
  3
__    __    __    __    __    __    __    __
 72
    65
 73
     2
 40
30.0
 49
12.0
 49
-18.0
  0
LTYPE
  2
ACAD_ISO04W100
 70
    64
  3
____ . ____ . ____ . ____ . ____ . ____ . ____
 72
    65
 73
     4
 40
30.5
 49
24.0
 49
-3.0
 49
0.5
 49
-3.0
  0
LTYPE
  2
ACAD_ISO05W100
 70
    64
  3
____ .. ____ .. ____ .. ____ .. ____ .. ____ ..
 72
    65
 73
     6
 40
34.0
 49
24.0
 49
-3.0
 49
0.5
 49
-3.0
 49
0.5
 49
-3.0
  0
LTYPE
  2
ACAD_ISO06W100
 70
    64
  3
____ ... ____ ... ____ ... ____ ... ____ ... __
 72
    65
 73
     8
 40
37.5
 49
24.0
 49
-3.0
 49
0.5
 49
-3.0
 49
0.5
 49
-3.0
 49
0.5
 49
-3.0
  0
LTYPE
  2
ACAD_ISO07W100
 70
    64
  3
. . . . . . . . . . . . . . . . . . . . . . . .
 72
    65
 73
     2
 40
3.5
 49
0.5
 49
-3.0
  0
LTYPE
  2
ACAD_ISO08W100
 70
    64
  3
____ __ ____ __ ____ __ ____ ____ __ __ ____ __
 72
    65
 73
     4
 40
36.0
 49
24.0
 49
-3.0
 49
6.0
 49
-3.0
  0
LTYPE
  2
ACAD_ISO09W100
 70
    64
  3
____ __ __ ____ __ __ ____ __ __ ____ __ __ ___
 72
    65
 73
     6
 40
45.0
 49
24.0
 49
-3.0
 49
6.0
 49
-3.0
 49
6.0
 49
-3.0
  0
LTYPE
  2
ACAD_ISO10W100
 70
    64
  3
__ . __ . __ . __ . __ . __ . __ . __ . __ . __
 72
    65
 73
     4
 40
18.5
 49
12.0
 49
-3.0
 49
0.5
 49
-3.0
  0
LTYPE
  2
ACAD_ISO11W100
 70
    64
  3
__ __ . __ __ . __ __ . __ __ . __ __ . __ __ .
 72
    65
 73
     6
 40
33.5
 49
12.0
 49
-3.0
 49
12.0
 49
-3.0
 49
0.5
 49
-3.0
  0
LTYPE
  2
ACAD_ISO12W100
 70
    64
  3
__ . . __ . . __ . . __ . . __ . . __ . . __ .
 72
    65
 73
     6
 40
22.0
 49
12.0
 49
-3.0
 49
0.5
 49
-3.0
 49
0.5
 49
-3.0
  0
LTYPE
  2
ACAD_ISO13W100
 70
    64
  3
__ __ . . __ __ . . __ __ . . __ __ . . __ __ .
 72
    65
 73
     8
 40
37.0
 49
12.0
 49
-3.0
 49
12.0
 49
-3.0
 49
0.5
 49
-3.0
 49
0.5
 49
-3.0
  0
LTYPE
  2
ACAD_ISO14W100
 70
    64
  3
__ . . . __ . . . __ . . . __ . . . __ . . . __
 72
    65
 73
     8
 40
25.5
 49
12.0
 49
-3.0
 49
0.5
 49
-3.0
 49
0.5
 49
-3.0
 49
0.5
 49
-3.0
  0
LTYPE
  2
ACAD_ISO15W100
 70
    64
  3
__ __ . . . __ __ . . . __ __ . . . __ __ . . .
 72
    65
 73
    10
 40
40.5
 49
12.0
 49
-3.0
 49
12.0
 49
-3.0
 49
0.5
 49
-3.0
 49
0.5
 49
-3.0
 49
0.5
 49
-3.0
  0
ENDTAB
  0
TABLE
  2
STYLE
 70
     4
  0
STYLE
  2
STANDARD
 70
    64
 40
0.0
 41
1.0
 50
0.0
 71
     0
 42
0.2
  3
txt
  4

  0
STYLE
  2
TOLERANCE
 70
    64
 40
0.0
 41
1.0
 50
0.0
 71
     0
 42
0.2
  3
../igesfont/iges1003.shx
  4

  0
STYLE
  2
ROMANS
 70
    64
 40
0.0
 41
1.0
 50
0.0
 71
     0
 42
0.2
  3
romans.shx
  4

  0
STYLE
  2
ROMANC
 70
    64
 40
0.0
 41
1.0
 50
0.0
 71
     0
 42
0.2
  3
romanc.shx
  4

  0
ENDTAB
  0
TABLE
  2
DIMSTYLE
 70
     2
  0
DIMSTYLE
  2
UNNAMED
 70
     0
  3

  4

  5

  6

  7

 40
1.0
 41
0.18
 42
0.0625
 43
0.38
 44
0.18
 45
0.0
 46
0.0
 47
0.0
 48
0.0
140
0.18
141
0.09
142
0.0
143
25.4
144
1.0
145
0.0
146
1.0
147
0.09
 71
     0
 72
     0
 73
     1
 74
     1
 75
     0
 76
     0
 77
     0
 78
     0
170
     0
171
     2
172
     0
173
     0
174
     0
175
     0
176
     0
177
     0
178
     0
  0
DIMSTYLE
  2
STANDARD
 70
     0
  3

  4

  5

  6

  7

 40
1.0
 41
0.18
 42
0.0625
 43
0.38
 44
0.18
 45
0.0
 46
0.0
 47
0.0
 48
0.0
140
0.18
141
0.09
142
0.0
143
25.4
144
1.0
145
0.0
146
1.0
147
0.09
 71
     0
 72
     0
 73
     1
 74
     1
 75
     0
 76
     0
 77
     0
 78
     0
170
     0
171
     2
172
     0
173
     0
174
     0
175
     0
176
     0
177
     0
178
     0
  0
ENDTAB
  0
TABLE
  2
LAYER
 70
     2
  0
LAYER
  2
0
 70
     0
 62
     7
  6
CONTINUOUS
  0
LAYER
  2
255
 70
     0
 62
     7
  6
CONTINUOUS
  0
ENDTAB
  0
ENDSEC
  0
SECTION
  2
BLOCKS
  0
BLOCK
  5
     B
  8
0
  6
CONTINUOUS
 62
     7
  2
*UDIM655
 70
    65
 10
0.0
 20
0.0
 30
0.0
  3
*UDIM655
  0
TEXT
  5
     C
  8
0
  6
CONTINUOUS
 62
     7
 10
-355.228597703188
 20
7.29611118116329
 30
0.0
 40
3.00000002980232
  1
4
 50
398.024208942372
 41
0.933333333333334
 72
     1
 11
-355.286063661074
 21
9.15533083801621
 31
0.0
 73
     2
  0
TEXT
  5
     D
  8
0
  6
CONTINUOUS
 62
     7
 10
-358.379599924421
 20
4.83213365687439
 30
0.0
 40
3.00000002980232
  1
R
 50
398.024208942372
 41
1.2
 72
     1
 11
-358.121965659
 21
6.93775106625529
 31
0.0
 73
     2
  0
LINE
  5
     E
  8
0
  6
CONTINUOUS
 62
     7
 10
-344.462188415516
 20
13.176205558266
 30
0.0
 11
-357.147611167363
 21
3.25663255775298
 31
0.0
  0
LINE
  5
     F
  8
0
  6
CONTINUOUS
 62
     7
 10
-346.266620969823
 20
10.779536378559
 30
0.0
 11
-344.462188415516
 21
13.176205558266
 31
0.0
  0
LINE
  5
    10
  8
0
  6
CONTINUOUS
 62
     7
 10
-344.462188415516
 20
13.176205558266
 30
0.0
 11
-347.223207453911
 21
12.0028454815554
 31
0.0
  0
ENDBLK
  5
    11
  8
0
  6
CONTINUOUS
 62
     7
  0
BLOCK
  5
    12
  8
0
  6
CONTINUOUS
 62
     7
  2
*UDIM656
 70
    65
 10
0.0
 20
0.0
 30
0.0
  3
*UDIM656
  0
TEXT
  5
    13
  8
0
  6
CONTINUOUS
 62
     7
 10
-379.197644546203
 20
-54.0682816133651
 30
0.0
 40
3.00000002980232
  1
4
 50
380.943281082859
 41
0.933333333333334
 72
     1
 11
-378.706481729251
 21
-52.2741915498544
 31
0.0
 73
     2
  0
TEXT
  5
    14
  8
0
  6
CONTINUOUS
 62
     7
 10
-382.933383487098
 20
-55.498056002524
 30
0.0
 40
3.00000002980232
  1
R
 50
380.943281082859
 41
1.2
 72
     1
 11
-382.068646774897
 21
-53.5609885003504
 31
0.0
 73
     2
  0
LINE
  5
    15
  8
0
  6
CONTINUOUS
 62
     7
 10
-391.183873693045
 20
-60.7972324131549
 30
0.0
 11
-376.428100930914
 21
-55.1497751542933
 31
0.0
  0
LINE
  5
    16
  8
0
  6
CONTINUOUS
 62
     7
 10
-388.75507831341
 20
-59.0362801128738
 30
0.0
 11
-391.183873693045
 21
-60.7972324131549
 31
0.0
  0
LINE
  5
    17
  8
0
  6
CONTINUOUS
 62
     7
 10
-391.183873693045
 20
-60.7972324131549
 30
0.0
 11
-388.19999903902
 21
-60.4866007195526
 31
0.0
  0
ENDBLK
  5
    18
  8
0
  6
CONTINUOUS
 62
     7
  0
BLOCK
  5
    19
  8
0
  6
CONTINUOUS
 62
     7
  2
*UDIM657
 70
    65
 10
0.0
 20
0.0
 30
0.0
  3
*UDIM657
  0
TEXT
  5
    1A
  8
0
  6
CONTINUOUS
 62
     7
 10
-355.749938992392
 20
-56.3793058196993
 30
0.0
 40
3.00000002980232
  1
72
 50
359.999999896069
 41
0.933333333333333
 72
     1
 11
-353.249938964844
 21
-54.8793058093204
 31
0.0
 73
     2
  0
LINE
  5
    1B
  8
0
  6
CONTINUOUS
 62
     7
 10
-344.249938964844
 20
-57.3793058242216
 30
0.0
 11
-362.249938964844
 21
-57.3793058242216
 31
0.0
  0
LINE
  5
    1C
  8
0
  6
CONTINUOUS
 62
     7
 10
-347.147716438054
 20
-58.1557629806401
 30
0.0
 11
-344.249938964844
 21
-57.3793058242216
 31
0.0
  0
LINE
  5
    1D
  8
0
  6
CONTINUOUS
 62
     7
 10
-344.249938964844
 20
-57.3793058242216
 30
0.0
 11
-347.147716438054
 21
-56.602848667803
 31
0.0
  0
LINE
  5
    1E
  8
0
  6
CONTINUOUS
 62
     7
 10
-359.352161491633
 20
-56.602848667803
 30
0.0
 11
-362.249938964844
 21
-57.3793058242216
 31
0.0
  0
LINE
  5
    1F
  8
0
  6
CONTINUOUS
 62
     7
 10
-362.249938964844
 20
-57.3793058242216
 30
0.0
 11
-359.352161491633
 21
-58.1557629806401
 31
0.0
  0
ENDBLK
  5
    20
  8
0
  6
CONTINUOUS
 62
     7
  0
BLOCK
  5
    21
  8
0
  6
CONTINUOUS
 62
     7
  2
*UDIM658
 70
    65
 10
0.0
 20
0.0
 30
0.0
  3
*UDIM658
  0
TEXT
  5
    22
  8
0
  6
CONTINUOUS
 62
     7
 10
-360.690593017868
 20
-17.3720669650526
 30
0.0
 40
3.00000002980232
  1
57,5
 50
359.999999896069
 41
0.933333333333333
 72
     1
 11
-355.390592962503
 21
-15.8720669597387
 31
0.0
 73
     2
  0
LINE
  5
    23
  8
0
  6
CONTINUOUS
 62
     7
 10
-347.874938964844
 20
-18.3720669746399
 30
0.0
 11
-362.249938964844
 21
-18.3720669746399
 31
0.0
  0
LINE
  5
    24
  8
0
  6
CONTINUOUS
 62
     7
 10
-344.920515687637
 20
-17.8511225446882
 30
0.0
 11
-347.874938964844
 21
-18.3720669746399
 31
0.0
  0
LINE
  5
    25
  8
0
  6
CONTINUOUS
 62
     7
 10
-347.874938964844
 20
-18.3720669746399
 30
0.0
 11
-344.920515687637
 21
-18.8930114045916
 31
0.0
  0
LINE
  5
    26
  8
0
  6
CONTINUOUS
 62
     7
 10
-365.204362242051
 20
-18.8930114045916
 30
0.0
 11
-362.249938964844
 21
-18.3720669746399
 31
0.0
  0
LINE
  5
    27
  8
0
  6
CONTINUOUS
 62
     7
 10
-362.249938964844
 20
-18.3720669746399
 30
0.0
 11
-365.204362242051
 21
-17.8511225446882
 31
0.0
  0
ENDBLK
  5
    28
  8
0
  6
CONTINUOUS
 62
     7
  0
BLOCK
  5
    29
  8
0
  6
CONTINUOUS
 62
     7
  2
*UDIM659
 70
    65
 10
0.0
 20
0.0
 30
0.0
  3
*UDIM659
  0
TEXT
  5
    2A
  8
0
  6
CONTINUOUS
 62
     7
 10
-379.56077317733
 20
-37.0358613425383
 30
0.0
 40
3.00000002980232
  1
6
 50
378.15626938813
 41
0.933333333333334
 72
     1
 11
-378.982956644982
 21
-35.2677753367994
 31
0.0
 73
     2
  0
TEXT
  5
    2B
  8
0
  6
CONTINUOUS
 62
     7
 10
-382.553935196213
 20
-38.0174321200658
 30
0.0
 40
3.00000002980232
  1
Ø
 50
378.15626938813
 41
0.933333333333334
 72
     1
 11
-381.976118663866
 21
-36.2493461143269
 31
0.0
 73
     2
  0
TEXT
  5
    2C
  8
0
  6
CONTINUOUS
 62
     7
 10
-376.947695203638
 20
-36.1789344558215
 30
0.0
 40
3.00000002980232
  1
 (M5)
 50
378.15626938813
 41
0.933333333333333
 72
     1
 11
-371.048701709595
 21
-32.6658337322704
 31
0.0
 73
     2
  0
LINE
  5
    2D
  8
0
  6
CONTINUOUS
 62
     7
 10
-363.903269133974
 20
-32.9535736732819
 30
0.0
 11
-388.58759658614
 21
-41.0484961456051
 31
0.0
  0
LINE
  5
    2E
  8
0
  6
CONTINUOUS
 62
     7
 10
-384.517289697322
 20
-39.1654476431864
 30
0.0
 11
-387.162281343548
 21
-40.5810814911137
 31
0.0
  0
LINE
  5
    2F
  8
0
  6
CONTINUOUS
 62
     7
 10
-387.162281343548
 20
-40.5810814911137
 30
0.0
 11
-384.192626949675
 21
-40.1554610252581
 31
0.0
  0
LINE
  5
    30
  8
0
  6
CONTINUOUS
 62
     7
 10
-391.232588232366
 20
-42.4641299935323
 30
0.0
 11
-388.58759658614
 21
-41.0484961456051
 31
0.0
  0
LINE
  5
    31
  8
0
  6
CONTINUOUS
 62
     7
 10
-388.58759658614
 20
-41.0484961456051
 30
0.0
 11
-391.557250980012
 21
-41.4741166114606
 31
0.0
  0
ENDBLK
  5
    32
  8
0
  6
CONTINUOUS
 62
     7
  0
BLOCK
  5
    33
  8
0
  6
CONTINUOUS
 62
     7
  2
*UDIM660
 70
    65
 10
0.0
 20
0.0
 30
0.0
  3
*UDIM660
  0
TEXT
  5
    34
  8
0
  6
CONTINUOUS
 62
     7
 10
-328.213184361209
 20
2.6602111481334
 30
0.0
 40
3.00000002980232
  1
65
 50
449.999999896069
 41
0.933333333333333
 72
     1
 11
-329.713184371591
 21
5.16021117568016
 31
0.0
 73
     2
  0
LINE
  5
    35
  8
0
  6
CONTINUOUS
 62
     7
 10
-344.249938964844
 20
13.5602111816406
 30
0.0
 11
-325.213184356689
 21
13.5602111816406
 31
0.0
  0
LINE
  5
    36
  8
0
  6
CONTINUOUS
 62
     7
 10
-344.249938964844
 20
-2.68978881835938
 30
0.0
 11
-325.213184356689
 21
-2.68978881835938
 31
0.0
  0
LINE
  5
    37
  8
0
  6
CONTINUOUS
 62
     7
 10
-327.213184356689
 20
13.5602111816406
 30
0.0
 11
-327.213184356689
 21
-2.68978881835938
 31
0.0
  0
LINE
  5
    38
  8
0
  6
CONTINUOUS
 62
     7
 10
-326.692239926738
 20
10.6057879044337
 30
0.0
 11
-327.213184356689
 21
13.5602111816406
 31
0.0
  0
LINE
  5
    39
  8
0
  6
CONTINUOUS
 62
     7
 10
-327.213184356689
 20
13.5602111816406
 30
0.0
 11
-327.734128786641
 21
10.6057879044337
 31
0.0
  0
LINE
  5
    3A
  8
0
  6
CONTINUOUS
 62
     7
 10
-327.734128786641
 20
0.264634458847585
 30
0.0
 11
-327.213184356689
 21
-2.68978881835938
 31
0.0
  0
LINE
  5
    3B
  8
0
  6
CONTINUOUS
 62
     7
 10
-327.213184356689
 20
-2.68978881835938
 30
0.0
 11
-326.692239926738
 21
0.264634458847585
 31
0.0
  0
ENDBLK
  5
    3C
  8
0
  6
CONTINUOUS
 62
     7
  0
BLOCK
  5
    3D
  8
0
  6
CONTINUOUS
 62
     7
  2
*UDIM661
 70
    65
 10
0.0
 20
0.0
 30
0.0
  3
*UDIM661
  0
TEXT
  5
    3E
  8
0
  6
CONTINUOUS
 62
     7
 10
-328.213184368801
 20
-20.0710388935899
 30
0.0
 40
3.00000002980232
  1
83,25
 50
449.999999896069
 41
0.933333333333333
 72
     1
 11
-329.713184371591
 21
-13.3710388243198
 31
0.0
 73
     2
  0
LINE
  5
    3F
  8
0
  6
CONTINUOUS
 62
     7
 10
-334.806708271655
 20
-23.5022888183594
 30
0.0
 11
-325.213184356689
 21
-23.5022888183594
 31
0.0
  0
LINE
  5
    40
  8
0
  6
CONTINUOUS
 62
     7
 10
-327.213184356689
 20
-2.68978881835938
 30
0.0
 11
-327.213184356689
 21
-23.5022888183594
 31
0.0
  0
LINE
  5
    41
  8
0
  6
CONTINUOUS
 62
     7
 10
-326.692239926738
 20
-5.64421209556634
 30
0.0
 11
-327.213184356689
 21
-2.68978881835938
 31
0.0
  0
LINE
  5
    42
  8
0
  6
CONTINUOUS
 62
     7
 10
-327.213184356689
 20
-2.68978881835938
 30
0.0
 11
-327.734128786641
 21
-5.64421209556634
 31
0.0
  0
LINE
  5
    43
  8
0
  6
CONTINUOUS
 62
     7
 10
-327.734128786641
 20
-20.5478655411524
 30
0.0
 11
-327.213184356689
 21
-23.5022888183594
 31
0.0
  0
LINE
  5
    44
  8
0
  6
CONTINUOUS
 62
     7
 10
-327.213184356689
 20
-23.5022888183594
 30
0.0
 11
-326.692239926738
 21
-20.5478655411524
 31
0.0
  0
ENDBLK
  5
    45
  8
0
  6
CONTINUOUS
 62
     7
  0
BLOCK
  5
    46
  8
0
  6
CONTINUOUS
 62
     7
  2
*UDIM662
 70
    65
 10
0.0
 20
0.0
 30
0.0
  3
*UDIM662
  0
TEXT
  5
    47
  8
0
  6
CONTINUOUS
 62
     7
 10
-328.213184368801
 20
-41.3210388935899
 30
0.0
 40
3.00000002980232
  1
86,75
 50
449.999999896069
 41
0.933333333333333
 72
     1
 11
-329.713184371591
 21
-34.6210388243198
 31
0.0
 73
     2
  0
LINE
  5
    48
  8
0
  6
CONTINUOUS
 62
     7
 10
-344.249938964844
 20
-45.1897888183594
 30
0.0
 11
-325.213184356689
 21
-45.1897888183594
 31
0.0
  0
LINE
  5
    49
  8
0
  6
CONTINUOUS
 62
     7
 10
-327.213184356689
 20
-23.5022888183594
 30
0.0
 11
-327.213184356689
 21
-45.1897888183594
 31
0.0
  0
LINE
  5
    4A
  8
0
  6
CONTINUOUS
 62
     7
 10
-326.692239926738
 20
-26.4567120955663
 30
0.0
 11
-327.213184356689
 21
-23.5022888183594
 31
0.0
  0
LINE
  5
    4B
  8
0
  6
CONTINUOUS
 62
     7
 10
-327.213184356689
 20
-23.5022888183594
 30
0.0
 11
-327.734128786641
 21
-26.4567120955663
 31
0.0
  0
LINE
  5
    4C
  8
0
  6
CONTINUOUS
 62
     7
 10
-327.734128786641
 20
-42.2353655411524
 30
0.0
 11
-327.213184356689
 21
-45.1897888183594
 31
0.0
  0
LINE
  5
    4D
  8
0
  6
CONTINUOUS
 62
     7
 10
-327.213184356689
 20
-45.1897888183594
 30
0.0
 11
-326.692239926738
 21
-42.2353655411524
 31
0.0
  0
ENDBLK
  5
    4E
  8
0
  6
CONTINUOUS
 62
     7
  0
BLOCK
  5
    4F
  8
0
  6
CONTINUOUS
 62
     7
  2
*UDIM663
 70
    65
 10
0.0
 20
0.0
 30
0.0
  3
*UDIM663
  0
TEXT
  5
    50
  8
0
  6
CONTINUOUS
 62
     7
 10
-328.213184361209
 20
-56.0897888518666
 30
0.0
 40
3.00000002980232
  1
65
 50
449.999999896069
 41
0.933333333333333
 72
     1
 11
-329.713184371591
 21
-53.5897888243198
 31
0.0
 73
     2
  0
LINE
  5
    51
  8
0
  6
CONTINUOUS
 62
     7
 10
-344.249938964844
 20
-61.4397888183594
 30
0.0
 11
-325.213184356689
 21
-61.4397888183594
 31
0.0
  0
LINE
  5
    52
  8
0
  6
CONTINUOUS
 62
     7
 10
-327.213184356689
 20
-45.1897888183594
 30
0.0
 11
-327.213184356689
 21
-61.4397888183594
 31
0.0
  0
LINE
  5
    53
  8
0
  6
CONTINUOUS
 62
     7
 10
-326.692239926738
 20
-48.1442120955663
 30
0.0
 11
-327.213184356689
 21
-45.1897888183594
 31
0.0
  0
LINE
  5
    54
  8
0
  6
CONTINUOUS
 62
     7
 10
-327.213184356689
 20
-45.1897888183594
 30
0.0
 11
-327.734128786641
 21
-48.1442120955663
 31
0.0
  0
LINE
  5
    55
  8
0
  6
CONTINUOUS
 62
     7
 10
-327.734128786641
 20
-58.4853655411524
 30
0.0
 11
-327.213184356689
 21
-61.4397888183594
 31
0.0
  0
LINE
  5
    56
  8
0
  6
CONTINUOUS
 62
     7
 10
-327.213184356689
 20
-61.4397888183594
 30
0.0
 11
-326.692239926738
 21
-58.4853655411524
 31
0.0
  0
ENDBLK
  5
    57
  8
0
  6
CONTINUOUS
 62
     7
  0
BLOCK
  5
    58
  8
0
  6
CONTINUOUS
 62
     7
  2
*UDIM664
 70
    65
 10
0.0
 20
0.0
 30
0.0
  3
*UDIM664
  0
TEXT
  5
    59
  8
0
  6
CONTINUOUS
 62
     7
 10
-371.924939012261
 20
-81.1801605154062
 30
0.0
 40
3.00000002980232
  1
188
 50
359.999999896069
 41
0.933333333333333
 72
     1
 11
-368.024938970804
 21
-79.6801605075598
 31
0.0
 73
     2
  0
LINE
  5
    5A
  8
0
  6
CONTINUOUS
 62
     7
 10
-344.249938964844
 20
-61.4397888183594
 30
0.0
 11
-344.249938964844
 21
-84.1801605224609
 31
0.0
  0
LINE
  5
    5B
  8
0
  6
CONTINUOUS
 62
     7
 10
-391.249938964844
 20
-61.4397888183594
 30
0.0
 11
-391.249938964844
 21
-84.1801605224609
 31
0.0
  0
LINE
  5
    5C
  8
0
  6
CONTINUOUS
 62
     7
 10
-344.249938964844
 20
-82.1801605224609
 30
0.0
 11
-391.249938964844
 21
-82.1801605224609
 31
0.0
  0
LINE
  5
    5D
  8
0
  6
CONTINUOUS
 62
     7
 10
-347.204362242051
 20
-82.7011049524126
 30
0.0
 11
-344.249938964844
 21
-82.1801605224609
 31
0.0
  0
LINE
  5
    5E
  8
0
  6
CONTINUOUS
 62
     7
 10
-344.249938964844
 20
-82.1801605224609
 30
0.0
 11
-347.204362242051
 21
-81.6592160925093
 31
0.0
  0
LINE
  5
    5F
  8
0
  6
CONTINUOUS
 62
     7
 10
-388.295515687637
 20
-81.6592160925093
 30
0.0
 11
-391.249938964844
 21
-82.1801605224609
 31
0.0
  0
LINE
  5
    60
  8
0
  6
CONTINUOUS
 62
     7
 10
-391.249938964844
 20
-82.1801605224609
 30
0.0
 11
-388.295515687637
 21
-82.7011049524126
 31
0.0
  0
ENDBLK
  5
    61
  8
0
  6
CONTINUOUS
 62
     7
  0
BLOCK
  5
    62
  8
0
  6
CONTINUOUS
 62
     5
  2
*UDIM665
 70
    65
 10
0.0
 20
0.0
 30
0.0
  3
*UDIM665
  0
TEXT
  5
    63
  8
0
  6
CONTINUOUS
 62
     5
 10
-400.712558758449
 20
-21.7086788929795
 30
0.0
 40
3.00000002980232
  1
65,75
 50
449.999999896069
 41
0.933333333333333
 72
     1
 11
-402.212558761239
 21
-15.0086788237095
 31
0.0
 73
     2
  0
LINE
  5
    64
  8
0
  6
CONTINUOUS
 62
     5
 10
-380.621151773799
 20
-7.06478881835938
 30
0.0
 11
-401.712558746338
 21
-7.06478881835938
 31
0.0
  0
LINE
  5
    65
  8
0
  6
CONTINUOUS
 62
     5
 10
-399.712558746338
 20
-7.06478881835938
 30
0.0
 11
-399.712558746338
 21
-23.5022888183594
 31
0.0
  0
LINE
  5
    66
  8
0
  6
CONTINUOUS
 62
     5
 10
-399.191614316386
 20
-10.0192120955663
 30
0.0
 11
-399.712558746338
 21
-7.06478881835938
 31
0.0
  0
LINE
  5
    67
  8
0
  6
CONTINUOUS
 62
     5
 10
-399.712558746338
 20
-7.06478881835938
 30
0.0
 11
-400.23350317629
 21
-10.0192120955663
 31
0.0
  0
LINE
  5
    68
  8
0
  6
CONTINUOUS
 62
     5
 10
-400.23350317629
 20
-20.5478655411524
 30
0.0
 11
-399.712558746338
 21
-23.5022888183594
 31
0.0
  0
LINE
  5
    69
  8
0
  6
CONTINUOUS
 62
     5
 10
-399.712558746338
 20
-23.5022888183594
 30
0.0
 11
-399.191614316386
 21
-20.5478655411524
 31
0.0
  0
ENDBLK
  5
    6A
  8
0
  6
CONTINUOUS
 62
     5
  0
BLOCK
  5
    6B
  8
0
  6
CONTINUOUS
 62
     7
  2
*UDIM666
 70
    65
 10
0.0
 20
0.0
 30
0.0
  3
*UDIM666
  0
TEXT
  5
    6C
  8
0
  6
CONTINUOUS
 62
     7
 10
-370.902672594519
 20
-74.7287063528085
 30
0.0
 40
3.00000002980232
  1
160
 50
359.999999896069
 41
0.933333333333333
 72
     1
 11
-367.002672553062
 21
-73.2287063449621
 31
0.0
 73
     2
  0
LINE
  5
    6D
  8
0
  6
CONTINUOUS
 62
     7
 10
-347.874938964844
 20
-46.6038370573083
 30
0.0
 11
-347.874938964844
 21
-77.7287063598633
 31
0.0
  0
LINE
  5
    6E
  8
0
  6
CONTINUOUS
 62
     7
 10
-387.874938964844
 20
-45.7754842815427
 30
0.0
 11
-387.874938964844
 21
-77.7287063598633
 31
0.0
  0
LINE
  5
    6F
  8
0
  6
CONTINUOUS
 62
     7
 10
-347.874938964844
 20
-75.7287063598633
 30
0.0
 11
-387.874938964844
 21
-75.7287063598633
 31
0.0
  0
LINE
  5
    70
  8
0
  6
CONTINUOUS
 62
     7
 10
-350.829362242051
 20
-76.249650789815
 30
0.0
 11
-347.874938964844
 21
-75.7287063598633
 31
0.0
  0
LINE
  5
    71
  8
0
  6
CONTINUOUS
 62
     7
 10
-347.874938964844
 20
-75.7287063598633
 30
0.0
 11
-350.829362242051
 21
-75.2077619299116
 31
0.0
  0
LINE
  5
    72
  8
0
  6
CONTINUOUS
 62
     7
 10
-384.920515687637
 20
-75.2077619299116
 30
0.0
 11
-387.874938964844
 21
-75.7287063598633
 31
0.0
  0
LINE
  5
    73
  8
0
  6
CONTINUOUS
 62
     7
 10
-387.874938964844
 20
-75.7287063598633
 30
0.0
 11
-384.920515687637
 21
-76.249650789815
 31
0.0
  0
ENDBLK
  5
    74
  8
0
  6
CONTINUOUS
 62
     7
  0
BLOCK
  5
    75
  8
0
  6
CONTINUOUS
 62
     7
  2
*UDIM667
 70
    65
 10
0.0
 20
0.0
 30
0.0
  3
*UDIM667
  0
TEXT
  5
    76
  8
0
  6
CONTINUOUS
 62
     7
 10
-407.107093818085
 20
-28.1147864718922
 30
0.0
 40
3.00000002980232
  1
135
 50
449.999999896069
 41
0.933333333333333
 72
     1
 11
-408.607093825936
 21
-24.2147864304377
 31
0.0
 73
     2
  0
LINE
  5
    77
  8
0
  6
CONTINUOUS
 62
     7
 10
-380.621151773799
 20
-7.06478808885536
 30
0.0
 11
-408.107093811035
 21
-7.06476803775005
 31
0.0
  0
LINE
  5
    78
  8
0
  6
CONTINUOUS
 62
     7
 10
-380.672923822285
 20
-40.8147880874266
 30
0.0
 11
-408.107093811035
 21
-40.8147680348925
 31
0.0
  0
LINE
  5
    79
  8
0
  6
CONTINUOUS
 62
     7
 10
-406.107093811035
 20
-7.0647694967581
 30
0.0
 11
-406.107093811035
 21
-40.8147694967581
 31
0.0
  0
LINE
  5
    7A
  8
0
  6
CONTINUOUS
 62
     7
 10
-405.586149381084
 20
-10.0191927739651
 30
0.0
 11
-406.107093811035
 21
-7.0647694967581
 31
0.0
  0
LINE
  5
    7B
  8
0
  6
CONTINUOUS
 62
     7
 10
-406.107093811035
 20
-7.0647694967581
 30
0.0
 11
-406.628038240987
 21
-10.0191927739651
 31
0.0
  0
LINE
  5
    7C
  8
0
  6
CONTINUOUS
 62
     7
 10
-406.628038240987
 20
-37.8603462195511
 30
0.0
 11
-406.107093811035
 21
-40.8147694967581
 31
0.0
  0
LINE
  5
    7D
  8
0
  6
CONTINUOUS
 62
     7
 10
-406.107093811035
 20
-40.8147694967581
 30
0.0
 11
-405.586149381084
 21
-37.8603462195511
 31
0.0
  0
ENDBLK
  5
    7E
  8
0
  6
CONTINUOUS
 62
     7
  0
BLOCK
  5
    7F
  8
0
  6
CONTINUOUS
 62
     7
  2
*UDIM668
 70
    65
 10
0.0
 20
0.0
 30
0.0
  3
*UDIM668
  0
TEXT
  5
    80
  8
0
  6
CONTINUOUS
 62
     7
 10
-376.881128729046
 20
224.901978082776
 30
0.0
 40
2.99999997871263
  1
201,7
 50
359.999999948034
 41
0.933333333333333
 72
     1
 11
-370.181128775235
 21
226.401978066089
 31
0.0
 73
     2
  0
LINE
  5
    81
  8
0
  6
CONTINUOUS
 62
     7
 10
-334.599884503055
 20
179.911111228248
 30
0.0
 11
-334.599884503055
 21
225.901978076733
 31
0.0
  0
LINE
  5
    82
  8
0
  6
CONTINUOUS
 62
     7
 10
-405.212360760343
 20
179.911127803057
 30
0.0
 11
-405.212360760343
 21
225.901978076733
 31
0.0
  0
LINE
  5
    83
  8
0
  6
CONTINUOUS
 62
     7
 10
-334.599884503055
 20
223.901978076733
 30
0.0
 11
-405.212360760343
 21
223.901978076733
 31
0.0
  0
LINE
  5
    84
  8
0
  6
CONTINUOUS
 62
     7
 10
-337.554307780262
 20
223.381033646781
 30
0.0
 11
-334.599884503055
 21
223.901978076733
 31
0.0
  0
LINE
  5
    85
  8
0
  6
CONTINUOUS
 62
     7
 10
-334.599884503055
 20
223.901978076733
 30
0.0
 11
-337.554307780262
 21
224.422922506685
 31
0.0
  0
LINE
  5
    86
  8
0
  6
CONTINUOUS
 62
     7
 10
-402.257937483136
 20
224.422922506685
 30
0.0
 11
-405.212360760343
 21
223.901978076733
 31
0.0
  0
LINE
  5
    87
  8
0
  6
CONTINUOUS
 62
     7
 10
-405.212360760343
 20
223.901978076733
 30
0.0
 11
-402.257937483136
 21
223.381033646781
 31
0.0
  0
ENDBLK
  5
    88
  8
0
  6
CONTINUOUS
 62
     7
  0
BLOCK
  5
    89
  8
0
  6
CONTINUOUS
 62
     7
  2
*UDIM669
 70
    65
 10
0.0
 20
0.0
 30
0.0
  3
*UDIM669
  0
TEXT
  5
    8A
  8
0
  6
CONTINUOUS
 62
     7
 10
-400.987381409432
 20
36.7770934348353
 30
0.0
 40
2.99999997871263
  1
40
 50
359.999999948034
 41
0.933333333333333
 72
     1
 11
-398.487381425818
 21
38.2770934219367
 31
0.0
 73
     2
  0
LINE
  5
    8B
  8
0
  6
CONTINUOUS
 62
     7
 10
-391.212388043636
 20
48.411235713785
 30
0.0
 11
-391.212388043636
 21
33.7770934325804
 31
0.0
  0
LINE
  5
    8C
  8
0
  6
CONTINUOUS
 62
     7
 10
-405.212377124066
 20
48.411235713785
 30
0.0
 11
-405.212377124066
 21
33.7770934325804
 31
0.0
  0
LINE
  5
    8D
  8
0
  6
CONTINUOUS
 62
     7
 10
-391.212388043636
 20
35.7770934325804
 30
0.0
 11
-405.212377124066
 21
35.7770934325804
 31
0.0
  0
LINE
  5
    8E
  8
0
  6
CONTINUOUS
 62
     7
 10
-394.166811320843
 20
35.2561490026287
 30
0.0
 11
-391.212388043636
 21
35.7770934325804
 31
0.0
  0
LINE
  5
    8F
  8
0
  6
CONTINUOUS
 62
     7
 10
-391.212388043636
 20
35.7770934325804
 30
0.0
 11
-394.166811320843
 21
36.2980378625321
 31
0.0
  0
LINE
  5
    90
  8
0
  6
CONTINUOUS
 62
     7
 10
-402.257953846859
 20
36.2980378625321
 30
0.0
 11
-405.212377124066
 21
35.7770934325804
 31
0.0
  0
LINE
  5
    91
  8
0
  6
CONTINUOUS
 62
     7
 10
-405.212377124066
 20
35.7770934325804
 30
0.0
 11
-402.257953846859
 21
35.2561490026287
 31
0.0
  0
ENDBLK
  5
    92
  8
0
  6
CONTINUOUS
 62
     7
  0
BLOCK
  5
    93
  8
0
  6
CONTINUOUS
 62
     7
  2
*UDIM670
 70
    65
 10
0.0
 20
0.0
 30
0.0
  3
*UDIM670
  0
TEXT
  5
    94
  8
0
  6
CONTINUOUS
 62
     7
 10
-309.564316287615
 20
109.986183005354
 30
0.0
 40
2.99999997871263
  1
270
 50
89.9999999480344
 41
0.933333333333333
 72
     1
 11
-311.064316273439
 21
113.886182979039
 31
0.0
 73
     2
  0
LINE
  5
    95
  8
0
  6
CONTINUOUS
 62
     7
 10
-337.974924426094
 20
66.9112038053635
 30
0.0
 11
-306.564316284082
 21
66.9112038053635
 31
0.0
  0
LINE
  5
    96
  8
0
  6
CONTINUOUS
 62
     7
 10
-337.974913401474
 20
161.411159711479
 30
0.0
 11
-306.564316284082
 21
161.411159711479
 31
0.0
  0
LINE
  5
    97
  8
0
  6
CONTINUOUS
 62
     7
 10
-308.564316284082
 20
66.9112038053635
 30
0.0
 11
-308.564316284082
 21
161.411159711479
 31
0.0
  0
LINE
  5
    98
  8
0
  6
CONTINUOUS
 62
     7
 10
-309.085260714034
 20
69.8656270825705
 30
0.0
 11
-308.564316284082
 21
66.9112038053635
 31
0.0
  0
LINE
  5
    99
  8
0
  6
CONTINUOUS
 62
     7
 10
-308.564316284082
 20
66.9112038053635
 30
0.0
 11
-308.043371854131
 21
69.8656270825705
 31
0.0
  0
LINE
  5
    9A
  8
0
  6
CONTINUOUS
 62
     7
 10
-308.043371854131
 20
158.456736434272
 30
0.0
 11
-308.564316284082
 21
161.411159711479
 31
0.0
  0
LINE
  5
    9B
  8
0
  6
CONTINUOUS
 62
     7
 10
-308.564316284082
 20
161.411159711479
 30
0.0
 11
-309.085260714034
 21
158.456736434272
 31
0.0
  0
ENDBLK
  5
    9C
  8
0
  6
CONTINUOUS
 62
     7
  0
BLOCK
  5
    9D
  8
0
  6
CONTINUOUS
 62
     7
  2
*UDIM671
 70
    65
 10
0.0
 20
0.0
 30
0.0
  3
*UDIM671
  0
TEXT
  5
    9E
  8
0
  6
CONTINUOUS
 62
     7
 10
-316.46179847376
 20
129.717427722557
 30
0.0
 40
2.99999997871263
  1
133,25
 50
89.9999999480344
 41
0.933333333333333
 72
     1
 11
-317.96179845578
 21
137.81742766644
 31
0.0
 73
     2
  0
LINE
  5
    9F
  8
0
  6
CONTINUOUS
 62
     7
 10
-321.909766898215
 20
114.773692429146
 30
0.0
 11
-313.461798466424
 21
114.773692429146
 31
0.0
  0
LINE
  5
    A0
  8
0
  6
CONTINUOUS
 62
     7
 10
-337.974913401474
 20
161.411159711479
 30
0.0
 11
-313.461798466424
 21
161.411159711479
 31
0.0
  0
LINE
  5
    A1
  8
0
  6
CONTINUOUS
 62
     7
 10
-315.461798466424
 20
114.773692429146
 30
0.0
 11
-315.461798466424
 21
161.411159711479
 31
0.0
  0
LINE
  5
    A2
  8
0
  6
CONTINUOUS
 62
     7
 10
-315.982742896375
 20
117.728115706353
 30
0.0
 11
-315.461798466424
 21
114.773692429146
 31
0.0
  0
LINE
  5
    A3
  8
0
  6
CONTINUOUS
 62
     7
 10
-315.461798466424
 20
114.773692429146
 30
0.0
 11
-314.940854036472
 21
117.728115706353
 31
0.0
  0
LINE
  5
    A4
  8
0
  6
CONTINUOUS
 62
     7
 10
-314.940854036472
 20
158.456736434272
 30
0.0
 11
-315.461798466424
 21
161.411159711479
 31
0.0
  0
LINE
  5
    A5
  8
0
  6
CONTINUOUS
 62
     7
 10
-315.461798466424
 20
161.411159711479
 30
0.0
 11
-315.982742896375
 21
158.456736434272
 31
0.0
  0
ENDBLK
  5
    A6
  8
0
  6
CONTINUOUS
 62
     7
  0
BLOCK
  5
    A7
  8
0
  6
CONTINUOUS
 62
     7
  2
*UDIM672
 70
    65
 10
0.0
 20
0.0
 30
0.0
  3
*UDIM672
  0
TEXT
  5
    A8
  8
0
  6
CONTINUOUS
 62
     7
 10
-316.461798469956
 20
181.386163094832
 30
0.0
 40
2.99999997871263
  1
184
 50
89.9999999480344
 41
0.933333333333333
 72
     1
 11
-317.96179845578
 21
185.286163068517
 31
0.0
 73
     2
  0
LINE
  5
    A9
  8
0
  6
CONTINUOUS
 62
     7
 10
-337.974913401474
 20
161.411159711479
 30
0.0
 11
-313.461798466424
 21
161.411159711479
 31
0.0
  0
LINE
  5
    AA
  8
0
  6
CONTINUOUS
 62
     7
 10
-349.804952400034
 20
209.71117479064
 30
0.0
 11
-313.461798466424
 21
209.71117479064
 31
0.0
  0
LINE
  5
    AB
  8
0
  6
CONTINUOUS
 62
     7
 10
-315.461798466424
 20
161.411159711479
 30
0.0
 11
-315.461798466424
 21
209.71117479064
 31
0.0
  0
LINE
  5
    AC
  8
0
  6
CONTINUOUS
 62
     7
 10
-315.982742896375
 20
164.365582988686
 30
0.0
 11
-315.461798466424
 21
161.411159711479
 31
0.0
  0
LINE
  5
    AD
  8
0
  6
CONTINUOUS
 62
     7
 10
-315.461798466424
 20
161.411159711479
 30
0.0
 11
-314.940854036472
 21
164.365582988686
 31
0.0
  0
LINE
  5
    AE
  8
0
  6
CONTINUOUS
 62
     7
 10
-314.940854036472
 20
206.756751513434
 30
0.0
 11
-315.461798466424
 21
209.71117479064
 31
0.0
  0
LINE
  5
    AF
  8
0
  6
CONTINUOUS
 62
     7
 10
-315.461798466424
 20
209.71117479064
 30
0.0
 11
-315.982742896375
 21
206.756751513434
 31
0.0
  0
ENDBLK
  5
    B0
  8
0
  6
CONTINUOUS
 62
     7
  0
BLOCK
  5
    B1
  8
0
  6
CONTINUOUS
 62
     7
  2
*UDIM673
 70
    65
 10
0.0
 20
0.0
 30
0.0
  3
*UDIM673
  0
TEXT
  5
    B2
  8
0
  6
CONTINUOUS
 62
     7
 10
-329.563344592612
 20
178.483418173044
 30
0.0
 40
2.99999997871263
  1
11
 50
377.409791268216
 41
0.933333333333333
 72
     1
 11
-327.626677364352
 21
180.662711619635
 31
0.0
 73
     2
  0
TEXT
  5
    B3
  8
0
  6
CONTINUOUS
 62
     7
 10
-332.569040581465
 20
177.540926024989
 30
0.0
 40
2.99999997871263
  1
Ø
 50
377.409791268216
 41
0.933333333333333
 72
     1
 11
-331.968238239881
 21
179.301334073495
 31
0.0
 73
     2
  0
LINE
  5
    B4
  8
0
  6
CONTINUOUS
 62
     7
 10
-343.436708735346
 20
173.085155410397
 30
0.0
 11
-324.493194709393
 21
179.025248243204
 31
0.0
  0
LINE
  5
    B5
  8
0
  6
CONTINUOUS
 62
     7
 10
-346.099918968342
 20
171.70410101072
 30
0.0
 11
-343.436708735346
 21
173.085155410397
 31
0.0
  0
LINE
  5
    B6
  8
0
  6
CONTINUOUS
 62
     7
 10
-343.436708735346
 20
173.085155410397
 30
0.0
 11
-346.411656135622
 21
172.698260120182
 31
0.0
  0
LINE
  5
    B7
  8
0
  6
CONTINUOUS
 62
     7
 10
-337.099838755063
 20
175.618154475944
 30
0.0
 11
-339.763048988059
 21
174.237100076267
 31
0.0
  0
LINE
  5
    B8
  8
0
  6
CONTINUOUS
 62
     7
 10
-339.763048988059
 20
174.237100076267
 30
0.0
 11
-336.788101587783
 21
174.623995366481
 31
0.0
  0
ENDBLK
  5
    B9
  8
0
  6
CONTINUOUS
 62
     7
  0
BLOCK
  5
    BA
  8
0
  6
CONTINUOUS
 62
     7
  2
*UDIM674
 70
    65
 10
0.0
 20
0.0
 30
0.0
  3
*UDIM674
  0
TEXT
  5
    BB
  8
0
  6
CONTINUOUS
 62
     7
 10
-433.467497159687
 20
40.8862375683741
 30
0.0
 40
2.99999997871263
  1
15
 50
89.9999999480344
 41
0.933333333333333
 72
     1
 11
-434.967497146779
 21
43.3862375519931
 31
0.0
 73
     2
  0
LINE
  5
    BC
  8
0
  6
CONTINUOUS
 62
     7
 10
-406.212377124066
 20
49.411235713785
 30
0.0
 11
-434.467497157422
 21
49.411235713785
 31
0.0
  0
LINE
  5
    BD
  8
0
  6
CONTINUOUS
 62
     7
 10
-402.187497126861
 20
54.661139722722
 30
0.0
 11
-434.467497157422
 21
54.661139722722
 31
0.0
  0
LINE
  5
    BE
  8
0
  6
CONTINUOUS
 62
     7
 10
-432.467497157422
 20
40.8862375697326
 30
0.0
 11
-432.467497157422
 21
54.661139722722
 31
0.0
  0
LINE
  5
    BF
  8
0
  6
CONTINUOUS
 62
     7
 10
-431.946552727471
 20
46.456812436578
 30
0.0
 11
-432.467497157422
 21
49.411235713785
 31
0.0
  0
LINE
  5
    C0
  8
0
  6
CONTINUOUS
 62
     7
 10
-432.467497157422
 20
49.411235713785
 30
0.0
 11
-432.988441587374
 21
46.456812436578
 31
0.0
  0
LINE
  5
    C1
  8
0
  6
CONTINUOUS
 62
     7
 10
-432.988441587374
 20
57.6155629999289
 30
0.0
 11
-432.467497157422
 21
54.661139722722
 31
0.0
  0
LINE
  5
    C2
  8
0
  6
CONTINUOUS
 62
     7
 10
-432.467497157422
 20
54.661139722722
 30
0.0
 11
-431.946552727471
 21
57.6155629999289
 31
0.0
  0
ENDBLK
  5
    C3
  8
0
  6
CONTINUOUS
 62
     7
  0
BLOCK
  5
    C4
  8
0
  6
CONTINUOUS
 62
     7
  2
*UDIM675
 70
    65
 10
0.0
 20
0.0
 30
0.0
  3
*UDIM675
  0
TEXT
  5
    C5
  8
0
  6
CONTINUOUS
 62
     7
 10
-433.467497160955
 20
109.986180335066
 30
0.0
 40
2.99999997871263
  1
340
 50
89.9999999480344
 41
0.933333333333333
 72
     1
 11
-434.967497146779
 21
113.886180308751
 31
0.0
 73
     2
  0
LINE
  5
    C6
  8
0
  6
CONTINUOUS
 62
     7
 10
-402.187480763138
 20
173.66122379412
 30
0.0
 11
-434.467497157422
 21
173.66122379412
 31
0.0
  0
LINE
  5
    C7
  8
0
  6
CONTINUOUS
 62
     7
 10
-432.467497157422
 20
54.661139722722
 30
0.0
 11
-432.467497157422
 21
173.66122379412
 31
0.0
  0
LINE
  5
    C8
  8
0
  6
CONTINUOUS
 62
     7
 10
-432.988441587374
 20
57.6155629999289
 30
0.0
 11
-432.467497157422
 21
54.661139722722
 31
0.0
  0
LINE
  5
    C9
  8
0
  6
CONTINUOUS
 62
     7
 10
-432.467497157422
 20
54.661139722722
 30
0.0
 11
-431.946552727471
 21
57.6155629999289
 31
0.0
  0
LINE
  5
    CA
  8
0
  6
CONTINUOUS
 62
     7
 10
-431.946552727471
 20
170.706800516914
 30
0.0
 11
-432.467497157422
 21
173.66122379412
 31
0.0
  0
LINE
  5
    CB
  8
0
  6
CONTINUOUS
 62
     7
 10
-432.467497157422
 20
173.66122379412
 30
0.0
 11
-432.988441587374
 21
170.706800516914
 31
0.0
  0
ENDBLK
  5
    CC
  8
0
  6
CONTINUOUS
 62
     7
  0
BLOCK
  5
    CD
  8
0
  6
CONTINUOUS
 62
     7
  2
*UDIM676
 70
    65
 10
0.0
 20
0.0
 30
0.0
  3
*UDIM676
  0
TEXT
  5
    CE
  8
0
  6
CONTINUOUS
 62
     7
 10
-433.467497159687
 20
181.886132761684
 30
0.0
 40
2.99999997871263
  1
15
 50
89.9999999480344
 41
0.933333333333333
 72
     1
 11
-434.967497146779
 21
184.386132745303
 31
0.0
 73
     2
  0
LINE
  5
    CF
  8
0
  6
CONTINUOUS
 62
     7
 10
-406.212360760343
 20
178.911127803057
 30
0.0
 11
-434.467497157422
 21
178.911127803057
 31
0.0
  0
LINE
  5
    D0
  8
0
  6
CONTINUOUS
 62
     7
 10
-432.467497157422
 20
173.66122379412
 30
0.0
 11
-432.467497157422
 21
186.886132727564
 31
0.0
  0
LINE
  5
    D1
  8
0
  6
CONTINUOUS
 62
     7
 10
-431.946552727471
 20
170.706800516914
 30
0.0
 11
-432.467497157422
 21
173.66122379412
 31
0.0
  0
LINE
  5
    D2
  8
0
  6
CONTINUOUS
 62
     7
 10
-432.467497157422
 20
173.66122379412
 30
0.0
 11
-432.988441587374
 21
170.706800516914
 31
0.0
  0
LINE
  5
    D3
  8
0
  6
CONTINUOUS
 62
     7
 10
-432.988441587374
 20
181.865551080264
 30
0.0
 11
-432.467497157422
 21
178.911127803057
 31
0.0
  0
LINE
  5
    D4
  8
0
  6
CONTINUOUS
 62
     7
 10
-432.467497157422
 20
178.911127803057
 30
0.0
 11
-431.946552727471
 21
181.865551080264
 31
0.0
  0
ENDBLK
  5
    D5
  8
0
  6
CONTINUOUS
 62
     7
  0
BLOCK
  5
    D6
  8
0
  6
CONTINUOUS
 62
     7
  2
*UDIM677
 70
    65
 10
0.0
 20
0.0
 30
0.0
  3
*UDIM677
  0
TEXT
  5
    D7
  8
0
  6
CONTINUOUS
 62
     7
 10
-427.611822520828
 20
136.696278940793
 30
0.0
 40
2.99999997871263
  1
168,25
 50
89.9999999480344
 41
0.933333333333333
 72
     1
 11
-429.111822502848
 21
144.796278884676
 31
0.0
 73
     2
  0
LINE
  5
    D8
  8
0
  6
CONTINUOUS
 62
     7
 10
-405.423445845101
 20
114.773692429146
 30
0.0
 11
-428.611822513492
 21
114.773692429146
 31
0.0
  0
LINE
  5
    D9
  8
0
  6
CONTINUOUS
 62
     7
 10
-402.187480763138
 20
173.66122379412
 30
0.0
 11
-428.611822513492
 21
173.66122379412
 31
0.0
  0
LINE
  5
    DA
  8
0
  6
CONTINUOUS
 62
     7
 10
-426.611822513491
 20
114.773692429146
 30
0.0
 11
-426.611822513491
 21
173.66122379412
 31
0.0
  0
LINE
  5
    DB
  8
0
  6
CONTINUOUS
 62
     7
 10
-427.132766943443
 20
117.728115706353
 30
0.0
 11
-426.611822513491
 21
114.773692429146
 31
0.0
  0
LINE
  5
    DC
  8
0
  6
CONTINUOUS
 62
     7
 10
-426.611822513491
 20
114.773692429146
 30
0.0
 11
-426.09087808354
 21
117.728115706353
 31
0.0
  0
LINE
  5
    DD
  8
0
  6
CONTINUOUS
 62
     7
 10
-426.09087808354
 20
170.706800516914
 30
0.0
 11
-426.611822513491
 21
173.66122379412
 31
0.0
  0
LINE
  5
    DE
  8
0
  6
CONTINUOUS
 62
     7
 10
-426.611822513491
 20
173.66122379412
 30
0.0
 11
-427.132766943443
 21
170.706800516914
 31
0.0
  0
ENDBLK
  5
    DF
  8
0
  6
CONTINUOUS
 62
     7
  0
BLOCK
  5
    E0
  8
0
  6
CONTINUOUS
 62
     7
  2
*UDIM678
 70
    65
 10
0.0
 20
0.0
 30
0.0
  3
*UDIM678
  0
TEXT
  5
    E1
  8
0
  6
CONTINUOUS
 62
     7
 10
-349.869993301826
 20
200.156012924237
 30
0.0
 40
2.99999997871263
  1
54
 50
359.999999948034
 41
0.933333333333333
 72
     1
 11
-347.369993318213
 21
201.656012911339
 31
0.0
 73
     2
  0
LINE
  5
    E2
  8
0
  6
CONTINUOUS
 62
     7
 10
-341.599878861702
 20
177.63614411837
 30
0.0
 11
-341.599878861702
 21
201.156012921982
 31
0.0
  0
LINE
  5
    E3
  8
0
  6
CONTINUOUS
 62
     7
 10
-360.499880903782
 20
177.632094755138
 30
0.0
 11
-360.499880903782
 21
201.156012921982
 31
0.0
  0
LINE
  5
    E4
  8
0
  6
CONTINUOUS
 62
     7
 10
-341.599878861702
 20
199.156012921982
 30
0.0
 11
-360.499880903782
 21
199.156012921982
 31
0.0
  0
LINE
  5
    E5
  8
0
  6
CONTINUOUS
 62
     7
 10
-344.554302138909
 20
198.635068492031
 30
0.0
 11
-341.599878861702
 21
199.156012921982
 31
0.0
  0
LINE
  5
    E6
  8
0
  6
CONTINUOUS
 62
     7
 10
-341.599878861702
 20
199.156012921982
 30
0.0
 11
-344.554302138909
 21
199.676957351934
 31
0.0
  0
LINE
  5
    E7
  8
0
  6
CONTINUOUS
 62
     7
 10
-357.545457626575
 20
199.676957351934
 30
0.0
 11
-360.499880903782
 21
199.156012921982
 31
0.0
  0
LINE
  5
    E8
  8
0
  6
CONTINUOUS
 62
     7
 10
-360.499880903782
 20
199.156012921982
 30
0.0
 11
-357.545457626575
 21
198.635068492031
 31
0.0
  0
ENDBLK
  5
    E9
  8
0
  6
CONTINUOUS
 62
     7
  0
BLOCK
  5
    EA
  8
0
  6
CONTINUOUS
 62
     7
  2
*UDIM679
 70
    65
 10
0.0
 20
0.0
 30
0.0
  3
*UDIM679
  0
TEXT
  5
    EB
  8
0
  6
CONTINUOUS
 62
     7
 10
-368.586597650566
 20
200.156012924237
 30
0.0
 40
2.99999997871263
  1
54
 50
359.999999948034
 41
0.933333333333333
 72
     1
 11
-366.086597666953
 21
201.656012911339
 31
0.0
 73
     2
  0
LINE
  5
    EC
  8
0
  6
CONTINUOUS
 62
     7
 10
-379.312441077679
 20
177.631890702619
 30
0.0
 11
-379.312441077679
 21
201.156012921982
 31
0.0
  0
LINE
  5
    ED
  8
0
  6
CONTINUOUS
 62
     7
 10
-360.499880903782
 20
199.156012921982
 30
0.0
 11
-379.312441077679
 21
199.156012921982
 31
0.0
  0
LINE
  5
    EE
  8
0
  6
CONTINUOUS
 62
     7
 10
-363.454304180989
 20
198.635068492031
 30
0.0
 11
-360.499880903782
 21
199.156012921982
 31
0.0
  0
LINE
  5
    EF
  8
0
  6
CONTINUOUS
 62
     7
 10
-360.499880903782
 20
199.156012921982
 30
0.0
 11
-363.454304180989
 21
199.676957351934
 31
0.0
  0
LINE
  5
    F0
  8
0
  6
CONTINUOUS
 62
     7
 10
-376.358017800472
 20
199.676957351934
 30
0.0
 11
-379.312441077679
 21
199.156012921982
 31
0.0
  0
LINE
  5
    F1
  8
0
  6
CONTINUOUS
 62
     7
 10
-379.312441077679
 20
199.156012921982
 30
0.0
 11
-376.358017800472
 21
198.635068492031
 31
0.0
  0
ENDBLK
  5
    F2
  8
0
  6
CONTINUOUS
 62
     7
  0
BLOCK
  5
    F3
  8
0
  6
CONTINUOUS
 62
     7
  2
*UDIM680
 70
    65
 10
0.0
 20
0.0
 30
0.0
  3
*UDIM680
  0
TEXT
  5
    F4
  8
0
  6
CONTINUOUS
 62
     7
 10
-387.339122649602
 20
200.156012924237
 30
0.0
 40
2.99999997871263
  1
54
 50
359.999999948034
 41
0.933333333333333
 72
     1
 11
-384.839122665988
 21
201.656012911339
 31
0.0
 73
     2
  0
LINE
  5
    F5
  8
0
  6
CONTINUOUS
 62
     7
 10
-398.212384912145
 20
177.636319645114
 30
0.0
 11
-398.212384912145
 21
201.156012921982
 31
0.0
  0
LINE
  5
    F6
  8
0
  6
CONTINUOUS
 62
     7
 10
-379.312441077679
 20
199.156012921982
 30
0.0
 11
-398.212384912145
 21
199.156012921982
 31
0.0
  0
LINE
  5
    F7
  8
0
  6
CONTINUOUS
 62
     7
 10
-382.266864354886
 20
198.635068492031
 30
0.0
 11
-379.312441077679
 21
199.156012921982
 31
0.0
  0
LINE
  5
    F8
  8
0
  6
CONTINUOUS
 62
     7
 10
-379.312441077679
 20
199.156012921982
 30
0.0
 11
-382.266864354886
 21
199.676957351934
 31
0.0
  0
LINE
  5
    F9
  8
0
  6
CONTINUOUS
 62
     7
 10
-395.257961634938
 20
199.676957351934
 30
0.0
 11
-398.212384912145
 21
199.156012921982
 31
0.0
  0
LINE
  5
    FA
  8
0
  6
CONTINUOUS
 62
     7
 10
-398.212384912145
 20
199.156012921982
 30
0.0
 11
-395.257961634938
 21
198.635068492031
 31
0.0
  0
ENDBLK
  5
    FB
  8
0
  6
CONTINUOUS
 62
     7
  0
BLOCK
  5
    FC
  8
0
  6
CONTINUOUS
 62
     7
  2
$1MOSTRA
 70
    64
 10
0.0
 20
0.0
 30
0.0
  3
$1MOSTRA
  0
LINE
  5
    FD
  8
0
  6
CONTINUOUS
 62
     2
 10
175.338317871094
 20
34.312744140625
 30
0.0
 11
210.838317871094
 21
34.312744140625
 31
0.0
  0
LINE
  5
    FE
  8
0
  6
CONTINUOUS
 62
     2
 10
175.338317871094
 20
49.312744140625
 30
0.0
 11
210.838317871094
 21
49.312744140625
 31
0.0
  0
LINE
  5
    FF
  8
0
  6
CONTINUOUS
 62
     2
 10
210.838317871094
 20
33.312744140625
 30
0.0
 11
210.838317871094
 21
50.312744140625
 31
0.0
  0
LINE
  5
   100
  8
0
  6
CONTINUOUS
 62
     2
 10
175.338317871094
 20
34.312744140625
 30
0.0
 11
175.338317871094
 21
49.312744140625
 31
0.0
  0
LINE
  5
   101
  8
0
  6
CONTINUOUS
 62
     2
 10
210.838317871094
 20
50.312744140625
 30
0.0
 11
210.838317871094
 21
148.306442260742
 31
0.0
  0
LINE
  5
   102
  8
0
  6
CONTINUOUS
 62
     2
 10
210.838317871094
 20
-10.187255859375
 30
0.0
 11
210.838317871094
 21
33.3127403259278
 31
0.0
  0
LINE
  5
   103
  8
0
  6
CONTINUOUS
 62
     2
 10
37.5883140563965
 20
-11.437255859375
 30
0.0
 11
209.588317871094
 21
-11.437255859375
 31
0.0
  0
LINE
  5
   104
  8
0
  6
CONTINUOUS
 62
     2
 10
36.3383140563965
 20
-10.187255859375
 30
0.0
 11
36.3383140563965
 21
148.306442260742
 31
0.0
  0
LINE
  5
   105
  8
0
  6
CONTINUOUS
 62
     2
 10
175.338317871094
 20
128.562744140625
 30
0.0
 11
175.338317871094
 21
129.562744140625
 31
0.0
  0
LINE
  5
   106
  8
0
  6
CONTINUOUS
 62
     2
 10
45.3383140563965
 20
128.562744140625
 30
0.0
 11
45.3383140563965
 21
129.562744140625
 31
0.0
  0
LINE
  5
   107
  8
0
  6
CONTINUOUS
 62
     2
 10
175.338317871094
 20
8.56274414062501
 30
0.0
 11
175.338317871094
 21
9.56274414062501
 31
0.0
  0
LINE
  5
   108
  8
0
  6
CONTINUOUS
 62
     2
 10
46.3383140563965
 20
8.562744140625
 30
0.0
 11
174.338314056396
 21
8.56274414062501
 31
0.0
  0
LINE
  5
   109
  8
0
  6
CONTINUOUS
 62
     2
 10
45.3383140563965
 20
8.562744140625
 30
0.0
 11
45.3383140563965
 21
9.562744140625
 31
0.0
  0
LINE
  5
   10A
  8
0
  6
CONTINUOUS
 62
     2
 10
174.338317871094
 20
-11.437255859375
 30
0.0
 11
174.338317871094
 21
8.56274414062501
 31
0.0
  0
LINE
  5
   10B
  8
0
  6
CONTINUOUS
 62
     2
 10
175.338317871094
 20
129.562744140625
 30
0.0
 11
175.338317871094
 21
149.562744140625
 31
0.0
  0
LINE
  5
   10C
  8
0
  6
CONTINUOUS
 62
     2
 10
175.338317871094
 20
9.56274414062501
 30
0.0
 11
175.338317871094
 21
33.312744140625
 31
0.0
  0
LINE
  5
   10D
  8
0
  6
CONTINUOUS
 62
     2
 10
175.338317871094
 20
50.312744140625
 30
0.0
 11
175.338317871094
 21
128.562744140625
 31
0.0
  0
LINE
  5
   10E
  8
0
  6
CONTINUOUS
 62
     2
 10
175.338317871094
 20
-11.437255859375
 30
0.0
 11
175.338317871094
 21
8.56274414062501
 31
0.0
  0
LINE
  5
   10F
  8
0
  6
CONTINUOUS
 62
     2
 10
45.3383140563965
 20
129.562744140625
 30
0.0
 11
45.3383140563965
 21
149.562744140625
 31
0.0
  0
LINE
  5
   110
  8
0
  6
CONTINUOUS
 62
     2
 10
45.3383140563965
 20
9.562744140625
 30
0.0
 11
45.3383140563965
 21
128.562744140625
 31
0.0
  0
LINE
  5
   111
  8
0
  6
CONTINUOUS
 62
     2
 10
45.3383140563965
 20
-11.437255859375
 30
0.0
 11
45.3383140563965
 21
8.562744140625
 31
0.0
  0
LINE
  5
   112
  8
0
  6
CONTINUOUS
 62
     2
 10
46.3383140563965
 20
-11.437255859375
 30
0.0
 11
46.3383140563965
 21
8.562744140625
 31
0.0
  0
LINE
  5
   113
  8
0
  6
CONTINUOUS
 62
     2
 10
175.338317871094
 20
33.312744140625
 30
0.0
 11
210.838317871094
 21
33.312744140625
 31
0.0
  0
LINE
  5
   114
  8
0
  6
CONTINUOUS
 62
     2
 10
175.338317871094
 20
50.312744140625
 30
0.0
 11
210.838317871094
 21
50.312744140625
 31
0.0
  0
LINE
  5
   115
  8
0
  6
CONTINUOUS
 62
     2
 10
175.388320922852
 20
49.312744140625
 30
0.0
 11
175.388320922852
 21
50.312744140625
 31
0.0
  0
LINE
  5
   116
  8
0
  6
CONTINUOUS
 62
     2
 10
175.388320922852
 20
33.312744140625
 30
0.0
 11
175.388320922852
 21
34.312744140625
 31
0.0
  0
LINE
  5
   117
  8
0
  6
CONTINUOUS
 62
     2
 10
46.3383140563965
 20
128.562744140625
 30
0.0
 11
174.338314056396
 21
128.562744140625
 31
0.0
  0
LINE
  5
   118
  8
0
  6
CONTINUOUS
 62
     2
 10
46.3383140563965
 20
9.562744140625
 30
0.0
 11
174.338314056396
 21
9.56274414062501
 31
0.0
  0
LINE
  5
   119
  8
0
  6
CONTINUOUS
 62
     2
 10
174.338317871094
 20
9.56274414062501
 30
0.0
 11
174.338317871094
 21
128.562744140625
 31
0.0
  0
LINE
  5
   11A
  8
0
  6
CONTINUOUS
 62
     2
 10
46.3383140563965
 20
9.562744140625
 30
0.0
 11
46.3383140563965
 21
128.562744140625
 31
0.0
  0
LINE
  5
   11B
  8
0
  6
CONTINUOUS
 62
     2
 10
167.338315963745
 20
121.562743016692
 30
0.0
 11
174.338312295455
 21
128.562739348402
 31
0.0
  0
LINE
  5
   11C
  8
0
  6
CONTINUOUS
 62
     2
 10
46.3383156391412
 20
128.562746004959
 30
0.0
 11
62.3383159637451
 21
121.033336629486
 31
0.0
  0
LINE
  5
   11D
  8
0
  6
CONTINUOUS
 62
     2
 10
167.338315963745
 20
16.5627619426901
 30
0.0
 11
174.338335117812
 21
9.56273924827786
 31
0.0
  0
LINE
  5
   11E
  8
0
  6
CONTINUOUS
 62
     2
 10
46.3383186567184
 20
9.56274576222224
 30
0.0
 11
62.3383159637451
 21
17.092157375641
 31
0.0
  0
LINE
  5
   11F
  8
0
  6
CONTINUOUS
 62
     2
 10
174.338256835938
 20
129.556442260742
 30
0.0
 11
174.338256835938
 21
149.556442260742
 31
0.0
  0
LINE
  5
   120
  8
0
  6
CONTINUOUS
 62
     2
 10
45.3383140563965
 20
129.556442260742
 30
0.0
 11
175.338317871094
 21
129.556442260742
 31
0.0
  0
LINE
  5
   121
  8
0
  6
CONTINUOUS
 62
     2
 10
37.5883140563965
 20
149.556442260742
 30
0.0
 11
45.3383140563965
 21
149.556442260742
 31
0.0
  0
LINE
  5
   122
  8
0
  6
CONTINUOUS
 62
     2
 10
115.343585020102
 20
149.556442260742
 30
0.0
 11
175.338317871094
 21
149.556442260742
 31
0.0
  0
ARC
  5
   123
  8
0
  6
CONTINUOUS
 62
     2
 10
110.338285446167
 20
153.703627621259
 30
0.0
 40
6.50016693934245
 50
219.643748317915
 51
320.356251682085
  0
LINE
  5
   124
  8
0
  6
CONTINUOUS
 62
     2
 10
105.332985872232
 20
149.556442260742
 30
0.0
 11
115.343585020102
 21
149.556442260742
 31
0.0
  0
LINE
  5
   125
  8
0
  6
CONTINUOUS
 62
     2
 10
46.3383140563965
 20
129.562744140625
 30
0.0
 11
46.3383140563965
 21
149.562744140625
 31
0.0
  0
LINE
  5
   126
  8
0
  6
CONTINUOUS
 62
     2
 10
45.3383140563965
 20
149.556442260742
 30
0.0
 11
105.332985872232
 21
149.556442260742
 31
0.0
  0
LINE
  5
   127
  8
0
  6
CONTINUOUS
 62
     2
 10
175.338317871094
 20
149.556442260742
 30
0.0
 11
209.588317871094
 21
149.556442260742
 31
0.0
  0
POINT
  5
   128
  8
0
  6
CONTINUOUS
 62
     2
 10
114.838315963745
 20
69.062744140625
 30
0.0
  0
ARC
  5
   129
  8
0
  6
CONTINUOUS
 62
     2
 10
37.5883140563965
 20
148.306442260742
 30
0.0
 40
1.25
 50
90.0
 51
180.0
  0
ARC
  5
   12A
  8
0
  6
CONTINUOUS
 62
     2
 10
37.5883140563965
 20
-10.187255859375
 30
0.0
 40
1.25
 50
180.0
 51
270.0
  0
ARC
  5
   12B
  8
0
  6
CONTINUOUS
 62
     2
 10
209.588317871094
 20
-10.187255859375
 30
0.0
 40
1.25
 50
270.0
 51
360.0
  0
ARC
  5
   12C
  8
0
  6
CONTINUOUS
 62
     2
 10
209.588317871094
 20
148.306442260742
 30
0.0
 40
1.25
 50
0.0
 51
90.0
  0
ENDBLK
  5
   12D
  8
0
  6
CONTINUOUS
 62
     7
  0
BLOCK
  5
   12E
  8
0
  6
CONTINUOUS
 62
     7
  2
*UDIM681
 70
    65
 10
0.0
 20
0.0
 30
0.0
  3
*UDIM681
  0
TEXT
  5
   12F
  8
0
  6
CONTINUOUS
 62
     7
 10
-409.146695268006
 20
110.597590847118
 30
0.0
 40
2.99999997871263
  1
161
 50
89.9999999480344
 41
0.933333333333333
 72
     1
 11
-410.64669525383
 21
114.497590820803
 31
0.0
 73
     2
  0
LINE
  5
   130
  8
0
  6
CONTINUOUS
 62
     7
 10
-390.287437546544
 20
86.5986929089633
 30
0.0
 11
-410.146695264474
 21
86.5986929089633
 31
0.0
  0
LINE
  5
   131
  8
0
  6
CONTINUOUS
 62
     7
 10
-342.074937032454
 20
142.946486291407
 30
0.0
 11
-410.146695264474
 21
142.946486291407
 31
0.0
  0
LINE
  5
   132
  8
0
  6
CONTINUOUS
 62
     7
 10
-408.146695264474
 20
86.5986929089633
 30
0.0
 11
-408.146695264474
 21
142.946486291407
 31
0.0
  0
LINE
  5
   133
  8
0
  6
CONTINUOUS
 62
     7
 10
-408.667639694426
 20
89.5531161861703
 30
0.0
 11
-408.146695264474
 21
86.5986929089633
 31
0.0
  0
LINE
  5
   134
  8
0
  6
CONTINUOUS
 62
     7
 10
-408.146695264474
 20
86.5986929089633
 30
0.0
 11
-407.625750834522
 21
89.5531161861703
 31
0.0
  0
LINE
  5
   135
  8
0
  6
CONTINUOUS
 62
     7
 10
-407.625750834522
 20
139.9920630142
 30
0.0
 11
-408.146695264474
 21
142.946486291407
 31
0.0
  0
LINE
  5
   136
  8
0
  6
CONTINUOUS
 62
     7
 10
-408.146695264474
 20
142.946486291407
 30
0.0
 11
-408.667639694426
 21
139.9920630142
 31
0.0
  0
ENDBLK
  5
   137
  8
0
  6
CONTINUOUS
 62
     7
  0
BLOCK
  5
   138
  8
0
  6
CONTINUOUS
 62
     7
  2
*UDIM682
 70
    65
 10
0.0
 20
0.0
 30
0.0
  3
*UDIM682
  0
TEXT
  5
   139
  8
0
  6
CONTINUOUS
 62
     7
 10
-348.224946381234
 20
30.2013275556089
 30
0.0
 40
2.99999997871263
  1
96
 50
359.999999948034
 41
0.933333333333333
 72
     1
 11
-345.724946397621
 21
31.7013275427104
 31
0.0
 73
     2
  0
LINE
  5
   13A
  8
0
  6
CONTINUOUS
 62
     7
 10
-328.649937244051
 20
86.0361929015127
 30
0.0
 11
-328.649937244051
 21
27.2013275533541
 31
0.0
  0
LINE
  5
   13B
  8
0
  6
CONTINUOUS
 62
     7
 10
-362.249937339418
 20
53.7816111703783
 30
0.0
 11
-362.249937339418
 21
27.2013275533541
 31
0.0
  0
LINE
  5
   13C
  8
0
  6
CONTINUOUS
 62
     7
 10
-328.649937244051
 20
29.2013275533541
 30
0.0
 11
-362.249937339418
 21
29.2013275533541
 31
0.0
  0
LINE
  5
   13D
  8
0
  6
CONTINUOUS
 62
     7
 10
-331.604360521258
 20
28.6803831234024
 30
0.0
 11
-328.649937244051
 21
29.2013275533541
 31
0.0
  0
LINE
  5
   13E
  8
0
  6
CONTINUOUS
 62
     7
 10
-328.649937244051
 20
29.2013275533541
 30
0.0
 11
-331.604360521258
 21
29.7222719833057
 31
0.0
  0
LINE
  5
   13F
  8
0
  6
CONTINUOUS
 62
     7
 10
-359.295514062211
 20
29.7222719833057
 30
0.0
 11
-362.249937339418
 21
29.2013275533541
 31
0.0
  0
LINE
  5
   140
  8
0
  6
CONTINUOUS
 62
     7
 10
-362.249937339418
 20
29.2013275533541
 30
0.0
 11
-359.295514062211
 21
28.6803831234024
 31
0.0
  0
ENDBLK
  5
   141
  8
0
  6
CONTINUOUS
 62
     7
  0
BLOCK
  5
   142
  8
0
  6
CONTINUOUS
 62
     7
  2
*UDIM683
 70
    65
 10
0.0
 20
0.0
 30
0.0
  3
*UDIM683
  0
TEXT
  5
   143
  8
0
  6
CONTINUOUS
 62
     7
 10
-381.562447322491
 20
30.2013275581344
 30
0.0
 40
2.99999997871263
  1
78,5
 50
359.999999948034
 41
0.933333333333333
 72
     1
 11
-376.262447358746
 21
31.7013275427104
 31
0.0
 73
     2
  0
LINE
  5
   144
  8
0
  6
CONTINUOUS
 62
     7
 10
-389.724937539094
 20
86.0361929015127
 30
0.0
 11
-389.724937539094
 21
27.2013275533541
 31
0.0
  0
LINE
  5
   145
  8
0
  6
CONTINUOUS
 62
     7
 10
-362.249937339418
 20
29.2013275533541
 30
0.0
 11
-389.724937539094
 21
29.2013275533541
 31
0.0
  0
LINE
  5
   146
  8
0
  6
CONTINUOUS
 62
     7
 10
-365.204360616625
 20
28.6803831234024
 30
0.0
 11
-362.249937339418
 21
29.2013275533541
 31
0.0
  0
LINE
  5
   147
  8
0
  6
CONTINUOUS
 62
     7
 10
-362.249937339418
 20
29.2013275533541
 30
0.0
 11
-365.204360616625
 21
29.7222719833057
 31
0.0
  0
LINE
  5
   148
  8
0
  6
CONTINUOUS
 62
     7
 10
-386.770514261887
 20
29.7222719833057
 30
0.0
 11
-389.724937539094
 21
29.2013275533541
 31
0.0
  0
LINE
  5
   149
  8
0
  6
CONTINUOUS
 62
     7
 10
-389.724937539094
 20
29.2013275533541
 30
0.0
 11
-386.770514261887
 21
28.6803831234024
 31
0.0
  0
ENDBLK
  5
   14A
  8
0
  6
CONTINUOUS
 62
     7
  0
BLOCK
  5
   14B
  8
0
  6
CONTINUOUS
 62
     7
  2
*UDIM684
 70
    65
 10
0.0
 20
0.0
 30
0.0
  3
*UDIM684
  0
TEXT
  5
   14C
  8
0
  6
CONTINUOUS
 62
     7
 10
-415.207907326792
 20
128.754927747368
 30
0.0
 40
2.99999997871263
  1
127,75
 50
89.9999999480344
 41
0.933333333333333
 72
     1
 11
-416.707907308812
 21
136.854927691251
 31
0.0
 73
     2
  0
LINE
  5
   14D
  8
0
  6
CONTINUOUS
 62
     7
 10
-405.423445845101
 20
114.773692429146
 30
0.0
 11
-416.207907319455
 21
114.773692429146
 31
0.0
  0
LINE
  5
   14E
  8
0
  6
CONTINUOUS
 62
     7
 10
-402.537420169694
 20
159.486163683087
 30
0.0
 11
-416.207907319455
 21
159.486163683087
 31
0.0
  0
LINE
  5
   14F
  8
0
  6
CONTINUOUS
 62
     7
 10
-414.207907319455
 20
114.773692429146
 30
0.0
 11
-414.207907319455
 21
159.486163683087
 31
0.0
  0
LINE
  5
   150
  8
0
  6
CONTINUOUS
 62
     7
 10
-414.728851749407
 20
117.728115706353
 30
0.0
 11
-414.207907319455
 21
114.773692429146
 31
0.0
  0
LINE
  5
   151
  8
0
  6
CONTINUOUS
 62
     7
 10
-414.207907319455
 20
114.773692429146
 30
0.0
 11
-413.686962889504
 21
117.728115706353
 31
0.0
  0
LINE
  5
   152
  8
0
  6
CONTINUOUS
 62
     7
 10
-413.686962889504
 20
156.53174040588
 30
0.0
 11
-414.207907319455
 21
159.486163683087
 31
0.0
  0
LINE
  5
   153
  8
0
  6
CONTINUOUS
 62
     7
 10
-414.207907319455
 20
159.486163683087
 30
0.0
 11
-414.728851749407
 21
156.53174040588
 31
0.0
  0
ENDBLK
  5
   154
  8
0
  6
CONTINUOUS
 62
     7
  0
BLOCK
  5
   155
  8
0
  6
CONTINUOUS
 62
     7
  2
*UDIM685
 70
    65
 10
0.0
 20
0.0
 30
0.0
  3
*UDIM685
  0
TEXT
  5
   156
  8
0
  6
CONTINUOUS
 62
     7
 10
-366.425507596116
 20
214.052811394894
 30
0.0
 40
2.99999997871263
  1
105
 50
359.999999948034
 41
0.933333333333333
 72
     1
 11
-362.525507622437
 21
215.552811380732
 31
0.0
 73
     2
  0
LINE
  5
   157
  8
0
  6
CONTINUOUS
 62
     7
 10
-343.875493926993
 20
133.973692119201
 30
0.0
 11
-343.875493926993
 21
215.052811391376
 31
0.0
  0
LINE
  5
   158
  8
0
  6
CONTINUOUS
 62
     7
 10
-380.625513328304
 20
129.948672160583
 30
0.0
 11
-380.625513328304
 21
215.052811391376
 31
0.0
  0
LINE
  5
   159
  8
0
  6
CONTINUOUS
 62
     7
 10
-343.875493926993
 20
213.052811391376
 30
0.0
 11
-380.625513328304
 21
213.052811391376
 31
0.0
  0
LINE
  5
   15A
  8
0
  6
CONTINUOUS
 62
     7
 10
-346.8299172042
 20
212.531866961424
 30
0.0
 11
-343.875493926993
 21
213.052811391376
 31
0.0
  0
LINE
  5
   15B
  8
0
  6
CONTINUOUS
 62
     7
 10
-343.875493926993
 20
213.052811391376
 30
0.0
 11
-346.8299172042
 21
213.573755821328
 31
0.0
  0
LINE
  5
   15C
  8
0
  6
CONTINUOUS
 62
     7
 10
-377.671090051097
 20
213.573755821328
 30
0.0
 11
-380.625513328304
 21
213.052811391376
 31
0.0
  0
LINE
  5
   15D
  8
0
  6
CONTINUOUS
 62
     7
 10
-380.625513328304
 20
213.052811391376
 30
0.0
 11
-377.671090051097
 21
212.531866961424
 31
0.0
  0
ENDBLK
  5
   15E
  8
0
  6
CONTINUOUS
 62
     7
  0
BLOCK
  5
   15F
  8
0
  6
CONTINUOUS
 62
     7
  2
*UDIM686
 70
    65
 10
0.0
 20
0.0
 30
0.0
  3
*UDIM686
  0
TEXT
  5
   160
  8
0
  6
CONTINUOUS
 62
     7
 10
-351.462432567564
 20
24.1660333201366
 30
0.0
 40
2.99999997871263
  1
101,5
 50
359.999999948034
 41
0.933333333333333
 72
     1
 11
-344.762432613753
 21
25.6660333034498
 31
0.0
 73
     2
  0
LINE
  5
   161
  8
0
  6
CONTINUOUS
 62
     7
 10
-326.724923278093
 20
109.661173807162
 30
0.0
 11
-326.724923278093
 21
21.1660333140935
 31
0.0
  0
LINE
  5
   162
  8
0
  6
CONTINUOUS
 62
     7
 10
-362.249937339418
 20
53.7816111703783
 30
0.0
 11
-362.249937339418
 21
21.1660333140935
 31
0.0
  0
LINE
  5
   163
  8
0
  6
CONTINUOUS
 62
     7
 10
-326.724923278093
 20
23.1660333140935
 30
0.0
 11
-362.249937339418
 21
23.1660333140935
 31
0.0
  0
LINE
  5
   164
  8
0
  6
CONTINUOUS
 62
     7
 10
-329.6793465553
 20
22.6450888841418
 30
0.0
 11
-326.724923278093
 21
23.1660333140935
 31
0.0
  0
LINE
  5
   165
  8
0
  6
CONTINUOUS
 62
     7
 10
-326.724923278093
 20
23.1660333140935
 30
0.0
 11
-329.6793465553
 21
23.6869777440452
 31
0.0
  0
LINE
  5
   166
  8
0
  6
CONTINUOUS
 62
     7
 10
-359.295514062211
 20
23.6869777440452
 30
0.0
 11
-362.249937339418
 21
23.1660333140935
 31
0.0
  0
LINE
  5
   167
  8
0
  6
CONTINUOUS
 62
     7
 10
-362.249937339418
 20
23.1660333140935
 30
0.0
 11
-359.295514062211
 21
22.6450888841418
 31
0.0
  0
ENDBLK
  5
   168
  8
0
  6
CONTINUOUS
 62
     7
  0
BLOCK
  5
   169
  8
0
  6
CONTINUOUS
 62
     7
  2
*UDIM687
 70
    65
 10
0.0
 20
0.0
 30
0.0
  3
*UDIM687
  0
TEXT
  5
   16A
  8
0
  6
CONTINUOUS
 62
     7
 10
-421.258331414286
 20
109.986183005354
 30
0.0
 40
2.99999997871263
  1
259
 50
89.9999999480344
 41
0.933333333333333
 72
     1
 11
-422.75833140011
 21
113.886182979039
 31
0.0
 73
     2
  0
LINE
  5
   16B
  8
0
  6
CONTINUOUS
 62
     7
 10
-402.537436533417
 20
68.8361998337556
 30
0.0
 11
-422.258331410753
 21
68.8361998337556
 31
0.0
  0
LINE
  5
   16C
  8
0
  6
CONTINUOUS
 62
     7
 10
-402.537420169694
 20
159.486163683087
 30
0.0
 11
-422.258331410753
 21
159.486163683087
 31
0.0
  0
LINE
  5
   16D
  8
0
  6
CONTINUOUS
 62
     7
 10
-420.258331410753
 20
68.8361998337556
 30
0.0
 11
-420.258331410753
 21
159.486163683087
 31
0.0
  0
LINE
  5
   16E
  8
0
  6
CONTINUOUS
 62
     7
 10
-420.779275840705
 20
71.7906231109625
 30
0.0
 11
-420.258331410753
 21
68.8361998337556
 31
0.0
  0
LINE
  5
   16F
  8
0
  6
CONTINUOUS
 62
     7
 10
-420.258331410753
 20
68.8361998337556
 30
0.0
 11
-419.737386980802
 21
71.7906231109625
 31
0.0
  0
LINE
  5
   170
  8
0
  6
CONTINUOUS
 62
     7
 10
-419.737386980802
 20
156.53174040588
 30
0.0
 11
-420.258331410753
 21
159.486163683087
 31
0.0
  0
LINE
  5
   171
  8
0
  6
CONTINUOUS
 62
     7
 10
-420.258331410753
 20
159.486163683087
 30
0.0
 11
-420.779275840705
 21
156.53174040588
 31
0.0
  0
ENDBLK
  5
   172
  8
0
  6
CONTINUOUS
 62
     7
  0
BLOCK
  5
   173
  8
0
  6
CONTINUOUS
 62
     7
  2
*UDIM688
 70
    65
 10
0.0
 20
0.0
 30
0.0
  3
*UDIM688
  0
TEXT
  5
   174
  8
0
  6
CONTINUOUS
 62
     7
 10
-348.802518950786
 20
36.7770961051233
 30
0.0
 40
2.99999997871263
  1
70
 50
359.999999948034
 41
0.933333333333333
 72
     1
 11
-346.302518967172
 21
38.2770960922247
 31
0.0
 73
     2
  0
LINE
  5
   175
  8
0
  6
CONTINUOUS
 62
     7
 10
-337.749926595092
 20
148.686169169694
 30
0.0
 11
-337.749926595092
 21
33.7770961028684
 31
0.0
  0
LINE
  5
   176
  8
0
  6
CONTINUOUS
 62
     7
 10
-362.249937339418
 20
124.424071958501
 30
0.0
 11
-362.249937339418
 21
33.7770961028684
 31
0.0
  0
LINE
  5
   177
  8
0
  6
CONTINUOUS
 62
     7
 10
-337.749926595092
 20
35.7770961028684
 30
0.0
 11
-362.249937339418
 21
35.7770961028684
 31
0.0
  0
LINE
  5
   178
  8
0
  6
CONTINUOUS
 62
     7
 10
-340.704349872299
 20
35.2561516729168
 30
0.0
 11
-337.749926595092
 21
35.7770961028684
 31
0.0
  0
LINE
  5
   179
  8
0
  6
CONTINUOUS
 62
     7
 10
-337.749926595092
 20
35.7770961028684
 30
0.0
 11
-340.704349872299
 21
36.2980405328201
 31
0.0
  0
LINE
  5
   17A
  8
0
  6
CONTINUOUS
 62
     7
 10
-359.295514062211
 20
36.2980405328201
 30
0.0
 11
-362.249937339418
 21
35.7770961028684
 31
0.0
  0
LINE
  5
   17B
  8
0
  6
CONTINUOUS
 62
     7
 10
-362.249937339418
 20
35.7770961028684
 30
0.0
 11
-359.295514062211
 21
35.2561516729168
 31
0.0
  0
ENDBLK
  5
   17C
  8
0
  6
CONTINUOUS
 62
     7
  0
BLOCK
  5
   17D
  8
0
  6
CONTINUOUS
 62
     7
  2
*UDIM689
 70
    65
 10
0.0
 20
0.0
 30
0.0
  3
*UDIM689
  0
TEXT
  5
   17E
  8
0
  6
CONTINUOUS
 62
     7
 10
-378.281177525204
 20
219.297769805454
 30
0.0
 40
2.99999997871263
  1
183,75
 50
359.999999948034
 41
0.933333333333333
 72
     1
 11
-370.181177581327
 21
220.797769787505
 31
0.0
 73
     2
  0
LINE
  5
   17F
  8
0
  6
CONTINUOUS
 62
     7
 10
-337.749926595092
 20
159.961163692028
 30
0.0
 11
-337.749926595092
 21
220.297769798149
 31
0.0
  0
LINE
  5
   180
  8
0
  6
CONTINUOUS
 62
     7
 10
-402.062420160754
 20
159.961163692028
 30
0.0
 11
-402.062420160754
 21
220.297769798149
 31
0.0
  0
LINE
  5
   181
  8
0
  6
CONTINUOUS
 62
     7
 10
-337.749926595092
 20
218.297769798149
 30
0.0
 11
-402.062420160754
 21
218.297769798149
 31
0.0
  0
LINE
  5
   182
  8
0
  6
CONTINUOUS
 62
     7
 10
-340.704349872299
 20
217.776825368197
 30
0.0
 11
-337.749926595092
 21
218.297769798149
 31
0.0
  0
LINE
  5
   183
  8
0
  6
CONTINUOUS
 62
     7
 10
-337.749926595092
 20
218.297769798149
 30
0.0
 11
-340.704349872299
 21
218.8187142281
 31
0.0
  0
LINE
  5
   184
  8
0
  6
CONTINUOUS
 62
     7
 10
-399.107996883547
 20
218.8187142281
 30
0.0
 11
-402.062420160754
 21
218.297769798149
 31
0.0
  0
LINE
  5
   185
  8
0
  6
CONTINUOUS
 62
     7
 10
-402.062420160754
 20
218.297769798149
 30
0.0
 11
-399.107996883547
 21
217.776825368197
 31
0.0
  0
ENDBLK
  5
   186
  8
0
  6
CONTINUOUS
 62
     7
  0
BLOCK
  5
   187
  8
0
  6
CONTINUOUS
 62
     7
  2
*HATCH169
 70
    65
 10
0.0
 20
0.0
 30
0.0
  3
*HATCH169
  0
LINE
  5
   188
  8
0
  6
CONTINUOUS
 62
    52
 10
187.992431640625
 20
39.5
 30
0.0
 11
185.992431640625
 21
37.5
 31
0.0
  0
LINE
  5
   189
  8
0
  6
CONTINUOUS
 62
    52
 10
192.235076904297
 20
39.5
 30
0.0
 11
190.235076904297
 21
37.5
 31
0.0
  0
LINE
  5
   18A
  8
0
  6
CONTINUOUS
 62
    52
 10
196.477722167969
 20
39.5
 30
0.0
 11
194.477722167969
 21
37.5
 31
0.0
  0
LINE
  5
   18B
  8
0
  6
CONTINUOUS
 62
    52
 10
200.720367431641
 20
39.5
 30
0.0
 11
198.720367431641
 21
37.5
 31
0.0
  0
LINE
  5
   18C
  8
0
  6
CONTINUOUS
 62
    52
 10
204.963012695313
 20
39.5
 30
0.0
 11
202.963012695313
 21
37.5
 31
0.0
  0
LINE
  5
   18D
  8
0
  6
CONTINUOUS
 62
    52
 10
209.205657958984
 20
39.5
 30
0.0
 11
207.205657958984
 21
37.5
 31
0.0
  0
LINE
  5
   18E
  8
0
  6
CONTINUOUS
 62
    52
 10
213.448303222656
 20
39.5
 30
0.0
 11
211.448303222656
 21
37.5
 31
0.0
  0
LINE
  5
   18F
  8
0
  6
CONTINUOUS
 62
    52
 10
217.690948486328
 20
39.5
 30
0.0
 11
215.690948486328
 21
37.5
 31
0.0
  0
LINE
  5
   190
  8
0
  6
CONTINUOUS
 62
    52
 10
221.93359375
 20
39.5
 30
0.0
 11
219.93359375
 21
37.5
 31
0.0
  0
LINE
  5
   191
  8
0
  6
CONTINUOUS
 62
    52
 10
226.176239013672
 20
39.5
 30
0.0
 11
224.176239013672
 21
37.5
 31
0.0
  0
LINE
  5
   192
  8
0
  6
CONTINUOUS
 62
    52
 10
229.369522094727
 20
38.4506874084473
 30
0.0
 11
228.418838500977
 21
37.5
 31
0.0
  0
ENDBLK
  5
   193
  8
0
  6
CONTINUOUS
 62
     7
  0
BLOCK
  5
   194
  8
0
  6
CONTINUOUS
 62
     7
  2
*HATCH170
 70
    65
 10
0.0
 20
0.0
 30
0.0
  3
*HATCH170
  0
LINE
  5
   195
  8
0
  6
CONTINUOUS
 62
    52
 10
115.867530822754
 20
39.4999961853027
 30
0.0
 11
113.867530822754
 21
37.4999961853027
 31
0.0
  0
LINE
  5
   196
  8
0
  6
CONTINUOUS
 62
    52
 10
120.110176086426
 20
39.4999961853027
 30
0.0
 11
118.110176086426
 21
37.4999961853027
 31
0.0
  0
LINE
  5
   197
  8
0
  6
CONTINUOUS
 62
    52
 10
124.352821350098
 20
39.4999961853027
 30
0.0
 11
122.352821350098
 21
37.4999961853027
 31
0.0
  0
LINE
  5
   198
  8
0
  6
CONTINUOUS
 62
    52
 10
128.595458984375
 20
39.4999961853027
 30
0.0
 11
126.59546661377
 21
37.4999961853027
 31
0.0
  0
LINE
  5
   199
  8
0
  6
CONTINUOUS
 62
    52
 10
132.838104248047
 20
39.4999961853027
 30
0.0
 11
130.838104248047
 21
37.4999961853027
 31
0.0
  0
LINE
  5
   19A
  8
0
  6
CONTINUOUS
 62
    52
 10
137.080749511719
 20
39.4999961853027
 30
0.0
 11
135.080749511719
 21
37.4999961853027
 31
0.0
  0
LINE
  5
   19B
  8
0
  6
CONTINUOUS
 62
    52
 10
141.323394775391
 20
39.4999961853027
 30
0.0
 11
139.323394775391
 21
37.4999961853027
 31
0.0
  0
LINE
  5
   19C
  8
0
  6
CONTINUOUS
 62
    52
 10
145.566040039063
 20
39.4999961853027
 30
0.0
 11
143.566040039063
 21
37.4999961853027
 31
0.0
  0
LINE
  5
   19D
  8
0
  6
CONTINUOUS
 62
    52
 10
149.808685302734
 20
39.4999961853027
 30
0.0
 11
147.808685302734
 21
37.4999961853027
 31
0.0
  0
LINE
  5
   19E
  8
0
  6
CONTINUOUS
 62
    52
 10
154.051330566406
 20
39.4999961853027
 30
0.0
 11
152.051330566406
 21
37.4999961853027
 31
0.0
  0
LINE
  5
   19F
  8
0
  6
CONTINUOUS
 62
    52
 10
158.293975830078
 20
39.4999961853027
 30
0.0
 11
156.293975830078
 21
37.4999961853027
 31
0.0
  0
LINE
  5
   1A0
  8
0
  6
CONTINUOUS
 62
    52
 10
162.53662109375
 20
39.4999961853027
 30
0.0
 11
160.53662109375
 21
37.4999961853027
 31
0.0
  0
LINE
  5
   1A1
  8
0
  6
CONTINUOUS
 62
    52
 10
166.779266357422
 20
39.4999961853027
 30
0.0
 11
164.779266357422
 21
37.4999961853027
 31
0.0
  0
LINE
  5
   1A2
  8
0
  6
CONTINUOUS
 62
    52
 10
171.021911621094
 20
39.4999961853027
 30
0.0
 11
169.021911621094
 21
37.4999961853027
 31
0.0
  0
LINE
  5
   1A3
  8
0
  6
CONTINUOUS
 62
    52
 10
175.264556884766
 20
39.4999961853027
 30
0.0
 11
173.264556884766
 21
37.4999961853027
 31
0.0
  0
ENDBLK
  5
   1A4
  8
0
  6
CONTINUOUS
 62
     7
  0
BLOCK
  5
   1A5
  8
0
  6
CONTINUOUS
 62
     7
  2
*HATCH171
 70
    65
 10
0.0
 20
0.0
 30
0.0
  3
*HATCH171
  0
LINE
  5
   1A6
  8
0
  6
CONTINUOUS
 62
    52
 10
92.5330123901367
 20
39.4999961853027
 30
0.0
 11
90.5330123901367
 21
37.4999961853027
 31
0.0
  0
LINE
  5
   1A7
  8
0
  6
CONTINUOUS
 62
    52
 10
96.7756576538086
 20
39.4999961853027
 30
0.0
 11
94.7756576538086
 21
37.4999961853027
 31
0.0
  0
LINE
  5
   1A8
  8
0
  6
CONTINUOUS
 62
    52
 10
101.01830291748
 20
39.4999961853027
 30
0.0
 11
99.0183029174805
 21
37.4999961853027
 31
0.0
  0
LINE
  5
   1A9
  8
0
  6
CONTINUOUS
 62
    52
 10
105.260948181152
 20
39.4999961853027
 30
0.0
 11
103.260948181152
 21
37.4999961853027
 31
0.0
  0
ENDBLK
  5
   1AA
  8
0
  6
CONTINUOUS
 62
     7
  0
BLOCK
  5
   1AB
  8
0
  6
CONTINUOUS
 62
     7
  2
*HATCH172
 70
    65
 10
0.0
 20
0.0
 30
0.0
  3
*HATCH172
  0
LINE
  5
   1AC
  8
0
  6
CONTINUOUS
 62
    52
 10
45.8639602661133
 20
39.4999961853027
 30
0.0
 11
43.8639640808105
 21
37.5
 31
0.0
  0
LINE
  5
   1AD
  8
0
  6
CONTINUOUS
 62
    52
 10
50.1065979003906
 20
39.4999961853027
 30
0.0
 11
48.1066017150879
 21
37.5
 31
0.0
  0
LINE
  5
   1AE
  8
0
  6
CONTINUOUS
 62
    52
 10
54.349235534668
 20
39.4999961853027
 30
0.0
 11
52.3492393493652
 21
37.5
 31
0.0
  0
LINE
  5
   1AF
  8
0
  6
CONTINUOUS
 62
    52
 10
58.5918731689453
 20
39.4999961853027
 30
0.0
 11
56.5918769836426
 21
37.5
 31
0.0
  0
LINE
  5
   1B0
  8
0
  6
CONTINUOUS
 62
    52
 10
62.8345108032227
 20
39.4999961853027
 30
0.0
 11
60.8345146179199
 21
37.5
 31
0.0
  0
LINE
  5
   1B1
  8
0
  6
CONTINUOUS
 62
    52
 10
67.0771560668945
 20
39.4999961853027
 30
0.0
 11
65.0771560668945
 21
37.5
 31
0.0
  0
LINE
  5
   1B2
  8
0
  6
CONTINUOUS
 62
    52
 10
71.3198013305664
 20
39.4999961853027
 30
0.0
 11
69.3198013305664
 21
37.5
 31
0.0
  0
LINE
  5
   1B3
  8
0
  6
CONTINUOUS
 62
    52
 10
75.2370758056641
 20
39.1746253967285
 30
0.0
 11
73.5624465942383
 21
37.4999961853027
 31
0.0
  0
ENDBLK
  5
   1B4
  8
0
  6
CONTINUOUS
 62
     7
  0
BLOCK
  5
   1B5
  8
0
  6
CONTINUOUS
 62
     7
  2
*HATCH173
 70
    65
 10
0.0
 20
0.0
 30
0.0
  3
*HATCH173
  0
LINE
  5
   1B6
  8
0
  6
CONTINUOUS
 62
    52
 10
-34.7462120056152
 20
39.5
 30
0.0
 11
-36.7462120056152
 21
37.5
 31
0.0
  0
LINE
  5
   1B7
  8
0
  6
CONTINUOUS
 62
    52
 10
-30.5035724639893
 20
39.5
 30
0.0
 11
-32.5035743713379
 21
37.5
 31
0.0
  0
LINE
  5
   1B8
  8
0
  6
CONTINUOUS
 62
    52
 10
-26.2609310150147
 20
39.5
 30
0.0
 11
-28.2609329223633
 21
37.5
 31
0.0
  0
LINE
  5
   1B9
  8
0
  6
CONTINUOUS
 62
    52
 10
-22.01828956604
 20
39.5
 30
0.0
 11
-24.0182914733887
 21
37.5
 31
0.0
  0
LINE
  5
   1BA
  8
0
  6
CONTINUOUS
 62
    52
 10
-17.7756481170654
 20
39.5
 30
0.0
 11
-19.7756500244141
 21
37.5
 31
0.0
  0
LINE
  5
   1BB
  8
0
  6
CONTINUOUS
 62
    52
 10
-13.5330066680908
 20
39.5
 30
0.0
 11
-15.5330085754395
 21
37.5
 31
0.0
  0
LINE
  5
   1BC
  8
0
  6
CONTINUOUS
 62
    52
 10
-9.29036521911621
 20
39.5
 30
0.0
 11
-11.2903671264648
 21
37.5
 31
0.0
  0
LINE
  5
   1BD
  8
0
  6
CONTINUOUS
 62
    52
 10
-5.0477237701416
 20
39.5
 30
0.0
 11
-7.04772567749023
 21
37.5
 31
0.0
  0
LINE
  5
   1BE
  8
0
  6
CONTINUOUS
 62
    52
 10
-0.80508279800415
 20
39.5
 30
0.0
 11
-2.8050844669342
 21
37.5
 31
0.0
  0
LINE
  5
   1BF
  8
0
  6
CONTINUOUS
 62
    52
 10
3.4375581741333
 20
39.5
 30
0.0
 11
1.43755650520325
 21
37.5
 31
0.0
  0
LINE
  5
   1C0
  8
0
  6
CONTINUOUS
 62
    52
 10
7.68019962310791
 20
39.5
 30
0.0
 11
5.68019771575928
 21
37.5
 31
0.0
  0
LINE
  5
   1C1
  8
0
  6
CONTINUOUS
 62
    52
 10
11.9228410720825
 20
39.5
 30
0.0
 11
9.92283916473389
 21
37.5
 31
0.0
  0
LINE
  5
   1C2
  8
0
  6
CONTINUOUS
 62
    52
 10
16.1654815673828
 20
39.5
 30
0.0
 11
14.1654806137085
 21
37.5
 31
0.0
  0
LINE
  5
   1C3
  8
0
  6
CONTINUOUS
 62
    52
 10
20.4081230163574
 20
39.5
 30
0.0
 11
18.4081211090088
 21
37.5
 31
0.0
  0
LINE
  5
   1C4
  8
0
  6
CONTINUOUS
 62
    52
 10
24.650764465332
 20
39.5
 30
0.0
 11
22.6507625579834
 21
37.5
 31
0.0
  0
LINE
  5
   1C5
  8
0
  6
CONTINUOUS
 62
    52
 10
28.8934059143066
 20
39.5
 30
0.0
 11
26.893404006958
 21
37.5
 31
0.0
  0
LINE
  5
   1C6
  8
0
  6
CONTINUOUS
 62
    52
 10
33.1360473632813
 20
39.5
 30
0.0
 11
31.1360454559326
 21
37.5
 31
0.0
  0
LINE
  5
   1C7
  8
0
  6
CONTINUOUS
 62
    52
 10
35.486873626709
 20
37.6081924438477
 30
0.0
 11
35.3786811828613
 21
37.5
 31
0.0
  0
ENDBLK
  5
   1C8
  8
0
  6
CONTINUOUS
 62
     7
  0
BLOCK
  5
   1C9
  8
0
  6
CONTINUOUS
 62
     7
  2
*HATCH174
 70
    65
 10
0.0
 20
0.0
 30
0.0
  3
*HATCH174
  0
LINE
  5
   1CA
  8
0
  6
CONTINUOUS
 62
    52
 10
166.264526367187
 20
30.5000076293945
 30
0.0
 11
163.987060546875
 21
28.2225513458252
 31
0.0
  0
LINE
  5
   1CB
  8
0
  6
CONTINUOUS
 62
    52
 10
170.50715637207
 20
30.5000076293945
 30
0.0
 11
168.00715637207
 21
28.0000019073486
 31
0.0
  0
LINE
  5
   1CC
  8
0
  6
CONTINUOUS
 62
    52
 10
172.987060546875
 20
28.7372703552246
 30
0.0
 11
172.249786376953
 21
28.0000019073486
 31
0.0
  0
ENDBLK
  5
   1CD
  8
0
  6
CONTINUOUS
 62
     7
  0
BLOCK
  5
   1CE
  8
0
  6
CONTINUOUS
 62
     7
  2
DIAFR_POS_LT_
 70
    64
 10
0.0
 20
0.0
 30
0.0
  3
DIAFR_POS_LT_
  0
LINE
  5
   1CF
  8
0
  6
CONTINUOUS
 62
   212
 10
-67.5
 20
245.937057495117
 30
0.0
 11
-52.4999885559082
 21
257.236907958984
 31
0.0
  0
LINE
  5
   1D0
  8
0
  6
CONTINUOUS
 62
   212
 10
-69.5
 20
223.737045288086
 30
0.0
 11
-69.5
 21
242.237060546875
 31
0.0
  0
LINE
  5
   1D1
  8
0
  6
CONTINUOUS
 62
   212
 10
-66.9999915459389
 20
234.437118530274
 30
0.0
 11
-66.9999694824219
 21
223.737045286797
 31
0.0
  0
LINE
  5
   1D2
  8
0
  6
CONTINUOUS
 62
   212
 10
-69.5
 20
223.737045288086
 30
0.0
 11
-66.9999694824219
 21
223.737045288086
 31
0.0
  0
LINE
  5
   1D3
  8
0
  6
CONTINUOUS
 62
   212
 10
-69.5
 20
242.23706054467
 30
0.0
 11
-69.4999923706055
 21
244.937042234182
 31
0.0
  0
LINE
  5
   1D4
  8
0
  6
CONTINUOUS
 62
   212
 10
-68.4997425678887
 20
245.937107562901
 30
0.0
 11
-52.4997463825787
 21
245.937107562901
 31
0.0
  0
LINE
  5
   1D5
  8
0
  6
CONTINUOUS
 62
   212
 10
-52.4999809265137
 20
245.937057495117
 30
0.0
 11
-52.4999809265137
 21
246.737060546875
 31
0.0
  0
LINE
  5
   1D6
  8
0
  6
CONTINUOUS
 62
   212
 10
-50.0000686645508
 20
246.737060546845
 30
0.0
 11
-49.9999122628449
 21
234.437118530248
 31
0.0
  0
LINE
  5
   1D7
  8
0
  6
CONTINUOUS
 62
   212
 10
-52.4999809265137
 20
246.737060546875
 30
0.0
 11
-52.4999809265137
 21
257.236907958984
 31
0.0
  0
LINE
  5
   1D8
  8
0
  6
CONTINUOUS
 62
   212
 10
-52.4999809265137
 20
257.236907958985
 30
0.0
 11
-49.999984741211
 21
257.23666381836
 31
0.0
  0
LINE
  5
   1D9
  8
0
  6
CONTINUOUS
 62
   212
 10
-50.0000686645508
 20
246.737060548215
 30
0.0
 11
-49.999984741211
 21
257.23666381978
 31
0.0
  0
LINE
  5
   1DA
  8
0
  6
CONTINUOUS
 62
   212
 10
-66.9999915459389
 20
234.437118530273
 30
0.0
 11
-49.9999122628448
 21
234.437118530273
 31
0.0
  0
LINE
  5
   1DB
  8
0
  6
DASHDOT
 62
     7
 10
-73.8090871198216
 20
228.737057495117
 30
0.0
 11
-55.337192222057
 21
228.737057495117
 31
0.0
  0
LINE
  5
   1DC
  8
0
  6
CONTINUOUS
 62
     1
 10
-70.6941125496954
 20
225.935476594044
 30
0.0
 11
-70.6941125496954
 21
231.535476594044
 31
0.0
  0
ARC
  5
   1DD
  8
0
  6
CONTINUOUS
 62
     1
 10
-67.3
 20
228.735476594044
 30
0.0
 40
4.4
 50
140.478803641358
 51
219.521196358642
  0
LINE
  5
   1DE
  8
0
  6
CONTINUOUS
 62
     1
 10
-70.6941125496954
 20
225.935476594044
 30
0.0
 11
-69.5
 21
225.935476594044
 31
0.0
  0
LINE
  5
   1DF
  8
0
  6
CONTINUOUS
 62
     1
 10
-69.5
 20
225.935476594044
 30
0.0
 11
-69.5
 21
231.535476594044
 31
0.0
  0
LINE
  5
   1E0
  8
0
  6
CONTINUOUS
 62
     1
 10
-70.6941125496954
 20
231.535476594044
 30
0.0
 11
-69.5
 21
231.535476594044
 31
0.0
  0
ARC
  5
   1E1
  8
0
  6
CONTINUOUS
 62
   212
 10
-68.4999689263313
 20
244.937018791814
 30
0.0
 40
1.00002344454905
 50
90.0
 51
179.999838098122
  0
ENDBLK
  5
   1E2
  8
0
  6
CONTINUOUS
 62
     7
  0
BLOCK
  5
   1E3
  8
0
  6
CONTINUOUS
 62
     7
  2
*UDIM690
 70
    65
 10
0.0
 20
0.0
 30
0.0
  3
*UDIM690
  0
TEXT
  5
   1E4
  8
0
  6
CONTINUOUS
 62
     7
 10
-461.135914696048
 20
186.579610871465
 30
0.0
 40
2.99999997871263
  1
3
 50
359.999999948034
 41
0.933333333333333
 72
     1
 11
-460.035914702501
 21
188.079610859829
 31
0.0
 73
     2
  0
TEXT
  5
   1E5
  8
0
  6
CONTINUOUS
 62
     7
 10
-463.885914692358
 20
186.579610871465
 30
0.0
 40
2.99999997871263
  1
_
 50
359.999999948034
 41
0.933333333333333
 72
     1
 11
-462.785914698811
 21
188.079610859829
 31
0.0
 73
     2
  0
LINE
  5
   1E6
  8
0
  6
CONTINUOUS
 62
     7
 10
-464.13591401279
 20
165.388816576627
 30
0.0
 11
-464.13591401279
 21
187.579610870473
 31
0.0
  0
LINE
  5
   1E7
  8
0
  6
CONTINUOUS
 62
     7
 10
-465.185913994908
 20
164.93093667919
 30
0.0
 11
-465.185913994908
 21
187.579610870473
 31
0.0
  0
LINE
  5
   1E8
  8
0
  6
CONTINUOUS
 62
     7
 10
-458.935914710306
 20
185.579610870473
 30
0.0
 11
-465.185913994908
 21
185.579610870473
 31
0.0
  0
LINE
  5
   1E9
  8
0
  6
CONTINUOUS
 62
     7
 10
-461.181490735583
 20
186.100555300424
 30
0.0
 11
-464.13591401279
 21
185.579610870473
 31
0.0
  0
LINE
  5
   1EA
  8
0
  6
CONTINUOUS
 62
     7
 10
-464.13591401279
 20
185.579610870473
 30
0.0
 11
-461.181490735583
 21
185.058666440521
 31
0.0
  0
LINE
  5
   1EB
  8
0
  6
CONTINUOUS
 62
     7
 10
-468.140337272115
 20
185.058666440521
 30
0.0
 11
-465.185913994908
 21
185.579610870473
 31
0.0
  0
LINE
  5
   1EC
  8
0
  6
CONTINUOUS
 62
     7
 10
-465.185913994908
 20
185.579610870473
 30
0.0
 11
-468.140337272115
 21
186.100555300424
 31
0.0
  0
ENDBLK
  5
   1ED
  8
0
  6
CONTINUOUS
 62
     7
  0
BLOCK
  5
   1EE
  8
0
  6
CONTINUOUS
 62
     7
  2
*UDIM691
 70
    65
 10
0.0
 20
0.0
 30
0.0
  3
*UDIM691
  0
TEXT
  5
   1EF
  8
0
  6
CONTINUOUS
 62
     7
 10
-479.598414089571
 20
186.579610875253
 30
0.0
 40
2.99999997871263
  1
50,5
 50
359.999999948034
 41
0.933333333333333
 72
     1
 11
-474.298414125826
 21
188.079610859829
 31
0.0
 73
     2
  0
LINE
  5
   1F0
  8
0
  6
CONTINUOUS
 62
     7
 10
-482.860913693905
 20
179.906974953518
 30
0.0
 11
-482.860913693905
 21
187.579610870473
 31
0.0
  0
LINE
  5
   1F1
  8
0
  6
CONTINUOUS
 62
     7
 10
-465.185913994908
 20
185.579610870473
 30
0.0
 11
-482.860913693905
 21
185.579610870473
 31
0.0
  0
LINE
  5
   1F2
  8
0
  6
CONTINUOUS
 62
     7
 10
-468.140337272115
 20
185.058666440521
 30
0.0
 11
-465.185913994908
 21
185.579610870473
 31
0.0
  0
LINE
  5
   1F3
  8
0
  6
CONTINUOUS
 62
     7
 10
-465.185913994908
 20
185.579610870473
 30
0.0
 11
-468.140337272115
 21
186.100555300424
 31
0.0
  0
LINE
  5
   1F4
  8
0
  6
CONTINUOUS
 62
     7
 10
-479.906490416698
 20
186.100555300424
 30
0.0
 11
-482.860913693905
 21
185.579610870473
 31
0.0
  0
LINE
  5
   1F5
  8
0
  6
CONTINUOUS
 62
     7
 10
-482.860913693905
 20
185.579610870473
 30
0.0
 11
-479.906490416698
 21
185.058666440521
 31
0.0
  0
ENDBLK
  5
   1F6
  8
0
  6
CONTINUOUS
 62
     7
  0
BLOCK
  5
   1F7
  8
0
  6
CONTINUOUS
 62
     7
  2
*UDIM692
 70
    65
 10
0.0
 20
0.0
 30
0.0
  3
*UDIM692
  0
TEXT
  5
   1F8
  8
0
  6
CONTINUOUS
 62
     7
 10
-491.410906203007
 20
186.579610871465
 30
0.0
 40
2.99999997871263
  1
8
 50
359.999999948034
 41
0.933333333333333
 72
     1
 11
-490.310906209459
 21
188.079610859829
 31
0.0
 73
     2
  0
LINE
  5
   1F9
  8
0
  6
CONTINUOUS
 62
     7
 10
-485.660909040023
 20
179.906974953464
 30
0.0
 11
-485.660909040023
 21
187.579610870473
 31
0.0
  0
LINE
  5
   1FA
  8
0
  6
CONTINUOUS
 62
     7
 10
-482.860913693905
 20
185.579610870473
 30
0.0
 11
-491.410906201654
 21
185.579610870473
 31
0.0
  0
LINE
  5
   1FB
  8
0
  6
CONTINUOUS
 62
     7
 10
-479.906490416698
 20
186.100555300424
 30
0.0
 11
-482.860913693905
 21
185.579610870473
 31
0.0
  0
LINE
  5
   1FC
  8
0
  6
CONTINUOUS
 62
     7
 10
-482.860913693905
 20
185.579610870473
 30
0.0
 11
-479.906490416698
 21
185.058666440521
 31
0.0
  0
LINE
  5
   1FD
  8
0
  6
CONTINUOUS
 62
     7
 10
-488.61533231723
 20
185.058666440521
 30
0.0
 11
-485.660909040023
 21
185.579610870473
 31
0.0
  0
LINE
  5
   1FE
  8
0
  6
CONTINUOUS
 62
     7
 10
-485.660909040023
 20
185.579610870473
 30
0.0
 11
-488.61533231723
 21
186.100555300424
 31
0.0
  0
ENDBLK
  5
   1FF
  8
0
  6
CONTINUOUS
 62
     7
  0
BLOCK
  5
   200
  8
0
  6
CONTINUOUS
 62
     7
  2
*UDIM693
 70
    65
 10
0.0
 20
0.0
 30
0.0
  3
*UDIM693
  0
TEXT
  5
   201
  8
0
  6
CONTINUOUS
 62
     7
 10
-517.806496266543
 20
107.903529928578
 30
0.0
 40
2.99999997871263
  1
5,5
 50
306.27250751355
 41
0.933333333333333
 72
     1
 11
-514.289834950549
 21
105.646741737186
 31
0.0
 73
     2
  0
TEXT
  5
   202
  8
0
  6
CONTINUOUS
 62
     7
 10
-519.670119409999
 20
110.443098515115
 30
0.0
 40
2.99999997871263
  1
Ø
 50
306.27250751355
 41
0.933333333333333
 72
     1
 11
-517.810011998175
 21
110.443704629403
 31
0.0
 73
     2
  0
LINE
  5
   203
  8
0
  6
CONTINUOUS
 62
     7
 10
-513.998022644218
 20
101.023447964473
 30
0.0
 11
-524.205374859711
 21
114.93305794802
 31
0.0
  0
LINE
  5
   204
  8
0
  6
CONTINUOUS
 62
     7
 10
-520.898585796769
 20
111.307409316964
 30
0.0
 11
-523.066492386944
 21
113.381097098738
 31
0.0
  0
LINE
  5
   205
  8
0
  6
CONTINUOUS
 62
     7
 10
-523.066492386944
 20
113.381097098738
 30
0.0
 11
-521.73856936628
 21
110.691000362338
 31
0.0
  0
LINE
  5
   206
  8
0
  6
CONTINUOUS
 62
     7
 10
-526.373281449886
 20
117.006745729794
 30
0.0
 11
-524.205374859711
 21
114.93305794802
 31
0.0
  0
LINE
  5
   207
  8
0
  6
CONTINUOUS
 62
     7
 10
-524.205374859711
 20
114.93305794802
 30
0.0
 11
-525.533297880375
 21
117.62315468442
 31
0.0
  0
ENDBLK
  5
   208
  8
0
  6
CONTINUOUS
 62
     7
  0
BLOCK
  5
   209
  8
0
  6
CONTINUOUS
 62
     7
  2
*UDIM694
 70
    65
 10
0.0
 20
0.0
 30
0.0
  3
*UDIM694
  0
TEXT
  5
   20A
  8
0
  6
CONTINUOUS
 62
     7
 10
-543.98724584826
 20
190.348647676301
 30
0.0
 40
2.99999997871263
  1
27,5
 50
359.999999948034
 41
0.933333333333333
 72
     1
 11
-538.687245884515
 21
191.848647660877
 31
0.0
 73
     2
  0
LINE
  5
   20B
  8
0
  6
CONTINUOUS
 62
     7
 10
-533.610911494494
 20
143.944553002793
 30
0.0
 11
-533.610911494494
 21
191.348647671521
 31
0.0
  0
LINE
  5
   20C
  8
0
  6
CONTINUOUS
 62
     7
 10
-543.235911330581
 20
134.144617256599
 30
0.0
 11
-543.235911330581
 21
191.348647671521
 31
0.0
  0
LINE
  5
   20D
  8
0
  6
CONTINUOUS
 62
     7
 10
-533.387245922123
 20
189.348647671521
 30
0.0
 11
-543.987245846907
 21
189.348647671521
 31
0.0
  0
LINE
  5
   20E
  8
0
  6
CONTINUOUS
 62
     7
 10
-530.656488217287
 20
189.869592101472
 30
0.0
 11
-533.610911494494
 21
189.348647671521
 31
0.0
  0
LINE
  5
   20F
  8
0
  6
CONTINUOUS
 62
     7
 10
-533.610911494494
 20
189.348647671521
 30
0.0
 11
-530.656488217287
 21
188.827703241569
 31
0.0
  0
LINE
  5
   210
  8
0
  6
CONTINUOUS
 62
     7
 10
-546.190334607788
 20
188.827703241569
 30
0.0
 11
-543.235911330581
 21
189.348647671521
 31
0.0
  0
LINE
  5
   211
  8
0
  6
CONTINUOUS
 62
     7
 10
-543.235911330581
 20
189.348647671521
 30
0.0
 11
-546.190334607788
 21
189.869592101472
 31
0.0
  0
ENDBLK
  5
   212
  8
0
  6
CONTINUOUS
 62
     7
  0
BLOCK
  5
   213
  8
0
  6
CONTINUOUS
 62
     7
  2
*UDIM695
 70
    65
 10
0.0
 20
0.0
 30
0.0
  3
*UDIM695
  0
TEXT
  5
   214
  8
0
  6
CONTINUOUS
 62
     7
 10
-518.011328679108
 20
36.1790789987346
 30
0.0
 40
2.99999997871263
  1
195,5
 50
359.999999948034
 41
0.933333333333333
 72
     1
 11
-511.311328725297
 21
37.6790789820478
 31
0.0
 73
     2
  0
LINE
  5
   215
  8
0
  6
CONTINUOUS
 62
     7
 10
-465.185913994908
 20
56.5883304995875
 30
0.0
 11
-465.185913994908
 21
33.1790789926915
 31
0.0
  0
LINE
  5
   216
  8
0
  6
CONTINUOUS
 62
     7
 10
-533.610911494494
 20
85.5945519597121
 30
0.0
 11
-533.610911494494
 21
33.1790789926915
 31
0.0
  0
LINE
  5
   217
  8
0
  6
CONTINUOUS
 62
     7
 10
-465.185913994908
 20
35.1790789926915
 30
0.0
 11
-533.610911494494
 21
35.1790789926915
 31
0.0
  0
LINE
  5
   218
  8
0
  6
CONTINUOUS
 62
     7
 10
-468.140337272115
 20
34.6581345627399
 30
0.0
 11
-465.185913994908
 21
35.1790789926915
 31
0.0
  0
LINE
  5
   219
  8
0
  6
CONTINUOUS
 62
     7
 10
-465.185913994908
 20
35.1790789926915
 30
0.0
 11
-468.140337272115
 21
35.7000234226432
 31
0.0
  0
LINE
  5
   21A
  8
0
  6
CONTINUOUS
 62
     7
 10
-530.656488217287
 20
35.7000234226432
 30
0.0
 11
-533.610911494494
 21
35.1790789926915
 31
0.0
  0
LINE
  5
   21B
  8
0
  6
CONTINUOUS
 62
     7
 10
-533.610911494494
 20
35.1790789926915
 30
0.0
 11
-530.656488217287
 21
34.6581345627399
 31
0.0
  0
ENDBLK
  5
   21C
  8
0
  6
CONTINUOUS
 62
     7
  0
BLOCK
  5
   21D
  8
0
  6
CONTINUOUS
 62
     7
  2
*UDIM696
 70
    65
 10
0.0
 20
0.0
 30
0.0
  3
*UDIM696
  0
TEXT
  5
   21E
  8
0
  6
CONTINUOUS
 62
     7
 10
-513.668711976437
 20
42.4581705335639
 30
0.0
 40
2.99999997871263
  1
190
 50
359.999999948034
 41
0.933333333333333
 72
     1
 11
-509.768712002758
 21
43.9581705194027
 31
0.0
 73
     2
  0
LINE
  5
   21F
  8
0
  6
CONTINUOUS
 62
     7
 10
-465.185913994908
 20
56.5883304995875
 30
0.0
 11
-465.185913994908
 21
39.4581705300463
 31
0.0
  0
LINE
  5
   220
  8
0
  6
CONTINUOUS
 62
     7
 10
-531.68591286242
 20
61.8055035393064
 30
0.0
 11
-531.68591286242
 21
39.4581705300463
 31
0.0
  0
LINE
  5
   221
  8
0
  6
CONTINUOUS
 62
     7
 10
-465.185913994908
 20
41.4581705300463
 30
0.0
 11
-531.68591286242
 21
41.4581705300463
 31
0.0
  0
LINE
  5
   222
  8
0
  6
CONTINUOUS
 62
     7
 10
-468.140337272115
 20
40.9372261000947
 30
0.0
 11
-465.185913994908
 21
41.4581705300463
 31
0.0
  0
LINE
  5
   223
  8
0
  6
CONTINUOUS
 62
     7
 10
-465.185913994908
 20
41.4581705300463
 30
0.0
 11
-468.140337272115
 21
41.979114959998
 31
0.0
  0
LINE
  5
   224
  8
0
  6
CONTINUOUS
 62
     7
 10
-528.731489585213
 20
41.979114959998
 30
0.0
 11
-531.68591286242
 21
41.4581705300463
 31
0.0
  0
LINE
  5
   225
  8
0
  6
CONTINUOUS
 62
     7
 10
-531.68591286242
 20
41.4581705300463
 30
0.0
 11
-528.731489585213
 21
40.9372261000947
 31
0.0
  0
ENDBLK
  5
   226
  8
0
  6
CONTINUOUS
 62
     7
  0
BLOCK
  5
   227
  8
0
  6
CONTINUOUS
 62
     7
  2
*UDIM697
 70
    65
 10
0.0
 20
0.0
 30
0.0
  3
*UDIM697
  0
TEXT
  5
   228
  8
0
  6
CONTINUOUS
 62
     7
 10
-528.113088695815
 20
42.4581705310385
 30
0.0
 40
2.99999997871263
  1
2
 50
359.999999948034
 41
0.933333333333333
 72
     1
 11
-527.013088702267
 21
43.9581705194027
 31
0.0
 73
     2
  0
LINE
  5
   229
  8
0
  6
CONTINUOUS
 62
     7
 10
-532.385912850499
 20
61.6875260132256
 30
0.0
 11
-532.385912850499
 21
39.4581705300463
 31
0.0
  0
LINE
  5
   22A
  8
0
  6
CONTINUOUS
 62
     7
 10
-525.913088710072
 20
41.4581705300463
 30
0.0
 11
-532.385912850499
 21
41.4581705300463
 31
0.0
  0
LINE
  5
   22B
  8
0
  6
CONTINUOUS
 62
     7
 10
-528.731489585213
 20
41.979114959998
 30
0.0
 11
-531.68591286242
 21
41.4581705300463
 31
0.0
  0
LINE
  5
   22C
  8
0
  6
CONTINUOUS
 62
     7
 10
-531.68591286242
 20
41.4581705300463
 30
0.0
 11
-528.731489585213
 21
40.9372261000947
 31
0.0
  0
LINE
  5
   22D
  8
0
  6
CONTINUOUS
 62
     7
 10
-535.340336127706
 20
40.9372261000947
 30
0.0
 11
-532.385912850499
 21
41.4581705300463
 31
0.0
  0
LINE
  5
   22E
  8
0
  6
CONTINUOUS
 62
     7
 10
-532.385912850499
 20
41.4581705300463
 30
0.0
 11
-535.340336127706
 21
41.979114959998
 31
0.0
  0
ENDBLK
  5
   22F
  8
0
  6
CONTINUOUS
 62
     7
  0
BLOCK
  5
   230
  8
0
  6
CONTINUOUS
 62
     7
  2
*UDIM698
 70
    65
 10
0.0
 20
0.0
 30
0.0
  3
*UDIM698
  0
TEXT
  5
   231
  8
0
  6
CONTINUOUS
 62
     7
 10
-498.58592370811
 20
48.7849827884899
 30
0.0
 40
2.99999997871263
  1
167
 50
359.999999948034
 41
0.933333333333333
 72
     1
 11
-494.685923734431
 21
50.2849827743286
 31
0.0
 73
     2
  0
LINE
  5
   232
  8
0
  6
CONTINUOUS
 62
     7
 10
-465.185913994908
 20
56.5883304995875
 30
0.0
 11
-465.185913994908
 21
45.7849827849723
 31
0.0
  0
LINE
  5
   233
  8
0
  6
CONTINUOUS
 62
     7
 10
-523.635936666208
 20
109.307082666021
 30
0.0
 11
-523.635936666208
 21
45.7849827849723
 31
0.0
  0
LINE
  5
   234
  8
0
  6
CONTINUOUS
 62
     7
 10
-465.185913994908
 20
47.7849827849723
 30
0.0
 11
-523.635936666208
 21
47.7849827849723
 31
0.0
  0
LINE
  5
   235
  8
0
  6
CONTINUOUS
 62
     7
 10
-468.140337272115
 20
47.2640383550206
 30
0.0
 11
-465.185913994908
 21
47.7849827849723
 31
0.0
  0
LINE
  5
   236
  8
0
  6
CONTINUOUS
 62
     7
 10
-465.185913994908
 20
47.7849827849723
 30
0.0
 11
-468.140337272115
 21
48.3059272149239
 31
0.0
  0
LINE
  5
   237
  8
0
  6
CONTINUOUS
 62
     7
 10
-520.681513389001
 20
48.3059272149239
 30
0.0
 11
-523.635936666208
 21
47.7849827849723
 31
0.0
  0
LINE
  5
   238
  8
0
  6
CONTINUOUS
 62
     7
 10
-523.635936666208
 20
47.7849827849723
 30
0.0
 11
-520.681513389001
 21
47.2640383550206
 31
0.0
  0
ENDBLK
  5
   239
  8
0
  6
CONTINUOUS
 62
     7
  0
BLOCK
  5
   23A
  8
0
  6
CONTINUOUS
 62
     7
  2
*UDIM699
 70
    65
 10
0.0
 20
0.0
 30
0.0
  3
*UDIM699
  0
TEXT
  5
   23B
  8
0
  6
CONTINUOUS
 62
     7
 10
-551.125108947809
 20
110.594610033712
 30
0.0
 40
2.99999997871263
  1
105
 50
89.9999999480344
 41
0.933333333333333
 72
     1
 11
-552.625108933633
 21
114.494610007397
 31
0.0
 73
     2
  0
LINE
  5
   23C
  8
0
  6
CONTINUOUS
 62
     7
 10
-532.685911527276
 20
96.3946005255758
 30
0.0
 11
-552.125108944277
 21
96.3946005255758
 31
0.0
  0
LINE
  5
   23D
  8
0
  6
CONTINUOUS
 62
     7
 10
-532.685911527276
 20
133.144617256599
 30
0.0
 11
-552.125108944277
 21
133.144617256599
 31
0.0
  0
LINE
  5
   23E
  8
0
  6
CONTINUOUS
 62
     7
 10
-550.125108944277
 20
96.3946005255758
 30
0.0
 11
-550.125108944277
 21
133.144617256599
 31
0.0
  0
LINE
  5
   23F
  8
0
  6
CONTINUOUS
 62
     7
 10
-550.646053374228
 20
99.3490238027828
 30
0.0
 11
-550.125108944277
 21
96.3946005255758
 31
0.0
  0
LINE
  5
   240
  8
0
  6
CONTINUOUS
 62
     7
 10
-550.125108944277
 20
96.3946005255758
 30
0.0
 11
-549.604164514325
 21
99.3490238027828
 31
0.0
  0
LINE
  5
   241
  8
0
  6
CONTINUOUS
 62
     7
 10
-549.604164514325
 20
130.190193979392
 30
0.0
 11
-550.125108944277
 21
133.144617256599
 31
0.0
  0
LINE
  5
   242
  8
0
  6
CONTINUOUS
 62
     7
 10
-550.125108944277
 20
133.144617256599
 30
0.0
 11
-550.646053374228
 21
130.190193979392
 31
0.0
  0
ENDBLK
  5
   243
  8
0
  6
CONTINUOUS
 62
     7
  0
BLOCK
  5
   244
  8
0
  6
CONTINUOUS
 62
     7
  2
*UDIM700
 70
    65
 10
0.0
 20
0.0
 30
0.0
  3
*UDIM700
  0
TEXT
  5
   245
  8
0
  6
CONTINUOUS
 62
     7
 10
-505.843531274783
 20
103.126528989603
 30
0.0
 40
2.99999997871263
  1
1,75
 50
89.9999999480344
 41
0.933333333333333
 72
     1
 11
-507.343531259339
 21
108.426528953354
 31
0.0
 73
     2
  0
LINE
  5
   246
  8
0
  6
CONTINUOUS
 62
     7
 10
-518.785939712436
 20
114.157079619792
 30
0.0
 11
-502.843531269983
 21
114.157079619792
 31
0.0
  0
LINE
  5
   247
  8
0
  6
CONTINUOUS
 62
     7
 10
-504.843531269983
 20
103.126528990962
 30
0.0
 11
-504.843531269983
 21
114.769617569524
 31
0.0
  0
LINE
  5
   248
  8
0
  6
CONTINUOUS
 62
     7
 10
-504.322586840031
 20
111.202656342585
 30
0.0
 11
-504.843531269983
 21
114.157079619792
 31
0.0
  0
LINE
  5
   249
  8
0
  6
CONTINUOUS
 62
     7
 10
-504.843531269983
 20
114.157079619792
 30
0.0
 11
-505.364475699934
 21
111.202656342585
 31
0.0
  0
LINE
  5
   24A
  8
0
  6
CONTINUOUS
 62
     7
 10
-505.364475699934
 20
117.724040846731
 30
0.0
 11
-504.843531269983
 21
114.769617569524
 31
0.0
  0
LINE
  5
   24B
  8
0
  6
CONTINUOUS
 62
     7
 10
-504.843531269983
 20
114.769617569524
 30
0.0
 11
-504.322586840031
 21
117.724040846731
 31
0.0
  0
ENDBLK
  5
   24C
  8
0
  6
CONTINUOUS
 62
     7
  0
BLOCK
  5
   24D
  8
0
  6
CONTINUOUS
 62
     7
  2
*UDIM701
 70
    65
 10
0.0
 20
0.0
 30
0.0
  3
*UDIM701
  0
TEXT
  5
   24E
  8
0
  6
CONTINUOUS
 62
     7
 10
-519.000930277598
 20
11.748005546604
 30
0.0
 40
3.50000458955765
  1
PART. Z
 50
359.999999844103
 41
0.933333333333333
 72
     1
 11
-507.917582405912
 21
13.4980078112817
 31
0.0
 73
     2
  0
LINE
  5
   24F
  8
0
  6
CONTINUOUS
 62
     7
 10
-481.25032497229
 20
-4.81083476716125
 30
0.0
 11
-491.834234583698
 21
9.7480053247109
 31
0.0
  0
LINE
  5
   250
  8
0
  6
CONTINUOUS
 62
     7
 10
-519.000930317563
 20
9.7480056486705
 30
0.0
 11
-491.834234583698
 21
9.7480053247109
 31
0.0
  0
LINE
  5
   251
  8
0
  6
CONTINUOUS
 62
     7
 10
-483.582296798639
 20
-2.92353314815161
 30
0.0
 11
-481.25032497229
 21
-4.81083476716125
 31
0.0
  0
LINE
  5
   252
  8
0
  6
CONTINUOUS
 62
     7
 10
-481.25032497229
 20
-4.81083476716125
 30
0.0
 11
-482.326220964509
 21
-2.0103976916448
 31
0.0
  0
ENDBLK
  5
   253
  8
0
  6
CONTINUOUS
 62
     7
  0
BLOCK
  5
   254
  8
0
  6
CONTINUOUS
 62
     7
  2
*UDIM702
 70
    65
 10
0.0
 20
0.0
 30
0.0
  3
*UDIM702
  0
TEXT
  5
   255
  8
0
  6
CONTINUOUS
 62
     7
 10
-498.320214119496
 20
2.87623450979718
 30
0.0
 40
3.00000002980232
  1
7
 50
329.002255002151
 41
0.933333333333334
 72
     1
 11
-496.604801266714
 21
3.59551110002654
 31
0.0
 73
     2
  0
TEXT
  5
   256
  8
0
  6
CONTINUOUS
 62
     7
 10
-501.748964432092
 20
4.93625187193091
 30
0.0
 40
3.00000002980232
  1
Ø
 50
329.002255002151
 41
1.2
 72
     1
 11
-499.690676547702
 21
5.44952672459707
 31
0.0
 73
     2
  0
LINE
  5
   257
  8
0
  6
CONTINUOUS
 62
     7
 10
-502.263968767161
 20
4.07906429443763
 30
0.0
 11
-480.864413640074
 21
-8.7779392950825
 31
0.0
  0
LINE
  5
   258
  8
0
  6
CONTINUOUS
 62
     7
 10
-489.534247389223
 20
-4.47486148374069
 30
0.0
 11
-486.650429750415
 21
-5.30166002395381
 31
0.0
  0
LINE
  5
   259
  8
0
  6
CONTINUOUS
 62
     7
 10
-486.650429750415
 20
-5.30166002395381
 30
0.0
 11
-488.734489783955
 21
-3.14372263454752
 31
0.0
  0
LINE
  5
   25A
  8
0
  6
CONTINUOUS
 62
     7
 10
-482.266533860777
 20
-7.02971615297806
 30
0.0
 11
-485.150351499585
 21
-6.20291761276494
 31
0.0
  0
LINE
  5
   25B
  8
0
  6
CONTINUOUS
 62
     7
 10
-485.150351499585
 20
-6.20291761276494
 30
0.0
 11
-483.066291466045
 21
-8.36085500217123
 31
0.0
  0
ENDBLK
  5
   25C
  8
0
  6
CONTINUOUS
 62
     7
  0
BLOCK
  5
   25D
  8
0
  6
CONTINUOUS
 62
     7
  2
*UDIM703
 70
    65
 10
0.0
 20
0.0
 30
0.0
  3
*UDIM703
  0
TEXT
  5
   25E
  8
0
  6
CONTINUOUS
 62
     7
 10
-441.624010952305
 20
-52.5575405068419
 30
0.0
 40
3.00000002980232
  1
7
 50
315.722414541966
 41
0.933333333333334
 72
     1
 11
-439.789245568002
 21
-52.2515404197374
 31
0.0
 73
     2
  0
TEXT
  5
   25F
  8
0
  6
CONTINUOUS
 62
     7
 10
-444.487874597558
 20
-49.7649995026987
 30
0.0
 40
3.00000002980232
  1
Ø
 50
315.722414541966
 41
1.2
 72
     1
 11
-442.366722848701
 21
-49.7382535174023
 31
0.0
 73
     2
  0
LINE
  5
   260
  8
0
  6
CONTINUOUS
 62
     7
 10
-458.856690323739
 20
-37.1507442502257
 30
0.0
 11
-440.747021187896
 21
-54.8094039736597
 31
0.0
  0
LINE
  5
   261
  8
0
  6
CONTINUOUS
 62
     7
 10
-457.893642775004
 20
-39.1742967419515
 30
0.0
 11
-455.276860792897
 21
-40.6414204784246
 31
0.0
  0
LINE
  5
   262
  8
0
  6
CONTINUOUS
 62
     7
 10
-455.276860792897
 20
-40.6414204784246
 30
0.0
 11
-456.809498559754
 21
-38.0624630387593
 31
0.0
  0
LINE
  5
   263
  8
0
  6
CONTINUOUS
 62
     7
 10
-451.407138474996
 20
-43.3302808947673
 30
0.0
 11
-454.023920457103
 21
-41.8631571582941
 31
0.0
  0
LINE
  5
   264
  8
0
  6
CONTINUOUS
 62
     7
 10
-454.023920457103
 20
-41.8631571582941
 30
0.0
 11
-452.491282690246
 21
-44.4421145979595
 31
0.0
  0
ENDBLK
  5
   265
  8
0
  6
CONTINUOUS
 62
     7
  0
BLOCK
  5
   266
  8
0
  6
CONTINUOUS
 62
     7
  2
*UDIM704
 70
    65
 10
0.0
 20
0.0
 30
0.0
  3
*UDIM704
  0
TEXT
  5
   267
  8
0
  6
CONTINUOUS
 62
     7
 10
-434.158796210561
 20
8.649833780882
 30
0.0
 40
3.00000002980232
  1
8
 50
392.812542019881
 41
0.933333333333334
 72
     1
 11
-434.047141700835
 21
10.506587221488
 31
0.0
 73
     2
  0
TEXT
  5
   268
  8
0
  6
CONTINUOUS
 62
     7
 10
-436.806207425854
 20
6.94287334791208
 30
0.0
 40
3.00000002980232
  1
Ø
 50
392.812542019881
 41
0.933333333333334
 72
     1
 11
-436.694552916128
 21
8.79962678851804
 31
0.0
 73
     2
  0
TEXT
  5
   269
  8
0
  6
CONTINUOUS
 62
     7
 10
-450.883711618353
 20
-2.13382106694803
 30
0.0
 40
3.00000002980232
  1
3 fori
 50
392.812542019881
 41
0.933333333333333
 72
     1
 11
-444.888921024453
 21
3.51617779000232
 31
0.0
 73
     2
  0
LINE
  5
   26A
  8
0
  6
CONTINUOUS
 62
     7
 10
-431.767918383067
 20
9.00154862853194
 30
0.0
 11
-455.490838627205
 21
-6.29418101759326
 31
0.0
  0
LINE
  5
   26B
  8
0
  6
CONTINUOUS
 62
     7
 10
-451.609199204626
 20
-3.17159098655964
 30
0.0
 11
-453.809942622796
 21
-5.21039661912549
 31
0.0
  0
LINE
  5
   26C
  8
0
  6
CONTINUOUS
 62
     7
 10
-453.809942622796
 20
-5.21039661912549
 30
0.0
 11
-451.044607758975
 21
-4.04724439738448
 31
0.0
  0
LINE
  5
   26D
  8
0
  6
CONTINUOUS
 62
     7
 10
-457.691582045374
 20
-8.33298665015911
 30
0.0
 11
-455.490838627205
 21
-6.29418101759326
 31
0.0
  0
LINE
  5
   26E
  8
0
  6
CONTINUOUS
 62
     7
 10
-455.490838627205
 20
-6.29418101759326
 30
0.0
 11
-458.256173491025
 21
-7.45733323933427
 31
0.0
  0
ENDBLK
  5
   26F
  8
0
  6
CONTINUOUS
 62
     7
  0
BLOCK
  5
   270
  8
0
  6
CONTINUOUS
 62
     7
  2
*UDIM705
 70
    65
 10
0.0
 20
0.0
 30
0.0
  3
*UDIM705
  0
TEXT
  5
   271
  8
0
  6
CONTINUOUS
 62
     7
 10
-472.906232197757
 20
-62.0828818940848
 30
0.0
 40
3.00000002980232
  1
R min.200
 50
359.999999844103
 41
0.933333333333333
 72
     1
 11
-460.606232071494
 21
-60.5828819125891
 31
0.0
 73
     2
  0
LINE
  5
   272
  8
0
  6
CONTINUOUS
 62
     7
 10
-474.900390625
 20
-47.6474701359108
 30
0.0
 11
-474.900390625
 21
-65.0828819274902
 31
0.0
  0
LINE
  5
   273
  8
0
  6
CONTINUOUS
 62
     7
 10
-446.258014660725
 20
-60.0831506267515
 30
0.0
 11
-446.258014660725
 21
-65.0828819274902
 31
0.0
  0
LINE
  5
   274
  8
0
  6
CONTINUOUS
 62
     7
 10
-474.900390625
 20
-63.0828819274902
 30
0.0
 11
-446.258014660725
 21
-63.0828819274902
 31
0.0
  0
LINE
  5
   275
  8
0
  6
CONTINUOUS
 62
     7
 10
-477.854813902207
 20
-63.6038263574419
 30
0.0
 11
-474.900390625
 21
-63.0828819274902
 31
0.0
  0
LINE
  5
   276
  8
0
  6
CONTINUOUS
 62
     7
 10
-474.900390625
 20
-63.0828819274902
 30
0.0
 11
-477.854813902207
 21
-62.5619374975386
 31
0.0
  0
LINE
  5
   277
  8
0
  6
CONTINUOUS
 62
     7
 10
-443.303591383518
 20
-62.5619374975386
 30
0.0
 11
-446.258014660725
 21
-63.0828819274902
 31
0.0
  0
LINE
  5
   278
  8
0
  6
CONTINUOUS
 62
     7
 10
-446.258014660725
 20
-63.0828819274902
 30
0.0
 11
-443.303591383518
 21
-63.6038263574419
 31
0.0
  0
ENDBLK
  5
   279
  8
0
  6
CONTINUOUS
 62
     7
  0
BLOCK
  5
   27A
  8
0
  6
CONTINUOUS
 62
     7
  2
*UDIM706
 70
    65
 10
0.0
 20
0.0
 30
0.0
  3
*UDIM706
  0
TEXT
  5
   27B
  8
0
  6
CONTINUOUS
 62
     7
 10
-512.440311446272
 20
-20.0147888810426
 30
0.0
 40
3.00000002980232
  1
72,5
 50
449.999999844103
 41
0.933333333333333
 72
     1
 11
-513.940311446786
 21
-14.7147888243198
 31
0.0
 73
     2
  0
LINE
  5
   27C
  8
0
  6
CONTINUOUS
 62
     7
 10
-483.195390625
 20
-5.37728881835938
 30
0.0
 11
-513.440311431885
 21
-5.37728881835938
 31
0.0
  0
LINE
  5
   27D
  8
0
  6
CONTINUOUS
 62
     7
 10
-503.361115388144
 20
-23.5022888183594
 30
0.0
 11
-513.440311431885
 21
-23.5022888183594
 31
0.0
  0
LINE
  5
   27E
  8
0
  6
CONTINUOUS
 62
     7
 10
-511.440311431885
 20
-5.37728881835938
 30
0.0
 11
-511.440311431885
 21
-23.5022888183594
 31
0.0
  0
LINE
  5
   27F
  8
0
  6
CONTINUOUS
 62
     7
 10
-510.919367001933
 20
-8.33171209556634
 30
0.0
 11
-511.440311431885
 21
-5.37728881835938
 31
0.0
  0
LINE
  5
   280
  8
0
  6
CONTINUOUS
 62
     7
 10
-511.440311431885
 20
-5.37728881835938
 30
0.0
 11
-511.961255861836
 21
-8.33171209556634
 31
0.0
  0
LINE
  5
   281
  8
0
  6
CONTINUOUS
 62
     7
 10
-511.961255861836
 20
-20.5478655411524
 30
0.0
 11
-511.440311431885
 21
-23.5022888183594
 31
0.0
  0
LINE
  5
   282
  8
0
  6
CONTINUOUS
 62
     7
 10
-511.440311431885
 20
-23.5022888183594
 30
0.0
 11
-510.919367001933
 21
-20.5478655411524
 31
0.0
  0
ENDBLK
  5
   283
  8
0
  6
CONTINUOUS
 62
     7
  0
BLOCK
  5
   284
  8
0
  6
CONTINUOUS
 62
     7
  2
*UDIM707
 70
    65
 10
0.0
 20
0.0
 30
0.0
  3
*UDIM707
  0
TEXT
  5
   285
  8
0
  6
CONTINUOUS
 62
     7
 10
-465.596371679605
 20
5.35526848518327
 30
0.0
 40
3.00000002980232
  1
45
 50
359.999999844103
 41
0.933333333333333
 72
     1
 11
-463.096371650696
 21
6.85526849329472
 31
0.0
 73
     2
  0
LINE
  5
   286
  8
0
  6
CONTINUOUS
 62
     7
 10
-480.525390625
 20
-2.70728881835937
 30
0.0
 11
-480.525390625
 21
6.35526847839355
 31
0.0
  0
LINE
  5
   287
  8
0
  6
CONTINUOUS
 62
     7
 10
-469.275390625
 20
-2.70728881835937
 30
0.0
 11
-469.275390625
 21
6.35526847839355
 31
0.0
  0
LINE
  5
   288
  8
0
  6
CONTINUOUS
 62
     7
 10
-480.525390625
 20
4.35526847839355
 30
0.0
 11
-460.596371625861
 21
4.35526847839355
 31
0.0
  0
LINE
  5
   289
  8
0
  6
CONTINUOUS
 62
     7
 10
-483.479813902207
 20
3.83432404844189
 30
0.0
 11
-480.525390625
 21
4.35526847839355
 31
0.0
  0
LINE
  5
   28A
  8
0
  6
CONTINUOUS
 62
     7
 10
-480.525390625
 20
4.35526847839355
 30
0.0
 11
-483.479813902207
 21
4.87621290834522
 31
0.0
  0
LINE
  5
   28B
  8
0
  6
CONTINUOUS
 62
     7
 10
-466.320967347793
 20
4.87621290834522
 30
0.0
 11
-469.275390625
 21
4.35526847839355
 31
0.0
  0
LINE
  5
   28C
  8
0
  6
CONTINUOUS
 62
     7
 10
-469.275390625
 20
4.35526847839355
 30
0.0
 11
-466.320967347793
 21
3.83432404844189
 31
0.0
  0
ENDBLK
  5
   28D
  8
0
  6
CONTINUOUS
 62
     7
  0
BLOCK
  5
   28E
  8
0
  6
CONTINUOUS
 62
     7
  2
*UDIM708
 70
    65
 10
0.0
 20
0.0
 30
0.0
  3
*UDIM708
  0
TEXT
  5
   28F
  8
0
  6
CONTINUOUS
 62
     7
 10
-436.608734149047
 20
-20.6022885075201
 30
0.0
 40
3.00000002980232
  1
27,25
 50
449.999999844103
 41
0.933333333333333
 72
     1
 11
-438.108734145761
 21
-13.9022884368896
 31
0.0
 73
     2
  0
LINE
  5
   290
  8
0
  6
CONTINUOUS
 62
     7
 10
-445.907662324863
 20
-23.5022888183594
 30
0.0
 11
-433.608734130859
 21
-23.5022888183594
 31
0.0
  0
LINE
  5
   291
  8
0
  6
CONTINUOUS
 62
     7
 10
-448.645084225558
 20
-30.3147888183594
 30
0.0
 11
-433.608734130859
 21
-30.3147888183594
 31
0.0
  0
LINE
  5
   292
  8
0
  6
CONTINUOUS
 62
     7
 10
-435.608734130859
 20
-7.20228837033113
 30
0.0
 11
-435.608734130859
 21
-30.3147888183594
 31
0.0
  0
LINE
  5
   293
  8
0
  6
CONTINUOUS
 62
     7
 10
-436.129678560811
 20
-20.5478655411524
 30
0.0
 11
-435.608734130859
 21
-23.5022888183594
 31
0.0
  0
LINE
  5
   294
  8
0
  6
CONTINUOUS
 62
     7
 10
-435.608734130859
 20
-23.5022888183594
 30
0.0
 11
-435.087789700908
 21
-20.5478655411524
 31
0.0
  0
LINE
  5
   295
  8
0
  6
CONTINUOUS
 62
     7
 10
-435.087789700908
 20
-33.2692120955663
 30
0.0
 11
-435.608734130859
 21
-30.3147888183594
 31
0.0
  0
LINE
  5
   296
  8
0
  6
CONTINUOUS
 62
     7
 10
-435.608734130859
 20
-30.3147888183594
 30
0.0
 11
-436.129678560811
 21
-33.2692120955663
 31
0.0
  0
ENDBLK
  5
   297
  8
0
  6
CONTINUOUS
 62
     7
  0
BLOCK
  5
   298
  8
0
  6
CONTINUOUS
 62
     7
  2
*UDIM709
 70
    65
 10
0.0
 20
0.0
 30
0.0
  3
*UDIM709
  0
TEXT
  5
   299
  8
0
  6
CONTINUOUS
 62
     7
 10
-431.191257479793
 20
-15.0690231234818
 30
0.0
 40
3.00000002980232
  1
=
 50
449.999999844103
 41
0.933333333333334
 72
     1
 11
-432.691257491708
 21
-13.9690231084824
 31
0.0
 73
     2
  0
LINE
  5
   29A
  8
0
  6
CONTINUOUS
 62
     7
 10
-452.025390625
 20
-5.75228881835938
 30
0.0
 11
-428.191257476807
 21
-5.75228881835938
 31
0.0
  0
LINE
  5
   29B
  8
0
  6
CONTINUOUS
 62
     7
 10
-452.025390625
 20
-23.5022888183594
 30
0.0
 11
-428.191257476807
 21
-23.5022888183594
 31
0.0
  0
LINE
  5
   29C
  8
0
  6
CONTINUOUS
 62
     7
 10
-430.191257476807
 20
-5.75228881835938
 30
0.0
 11
-430.191257476807
 21
-23.5022888183594
 31
0.0
  0
LINE
  5
   29D
  8
0
  6
CONTINUOUS
 62
     7
 10
-429.670313046855
 20
-8.70671209556634
 30
0.0
 11
-430.191257476807
 21
-5.75228881835938
 31
0.0
  0
LINE
  5
   29E
  8
0
  6
CONTINUOUS
 62
     7
 10
-430.191257476807
 20
-5.75228881835938
 30
0.0
 11
-430.712201906758
 21
-8.70671209556634
 31
0.0
  0
LINE
  5
   29F
  8
0
  6
CONTINUOUS
 62
     7
 10
-430.712201906758
 20
-20.5478655411524
 30
0.0
 11
-430.191257476807
 21
-23.5022888183594
 31
0.0
  0
LINE
  5
   2A0
  8
0
  6
CONTINUOUS
 62
     7
 10
-430.191257476807
 20
-23.5022888183594
 30
0.0
 11
-429.670313046855
 21
-20.5478655411524
 31
0.0
  0
ENDBLK
  5
   2A1
  8
0
  6
CONTINUOUS
 62
     7
  0
BLOCK
  5
   2A2
  8
0
  6
CONTINUOUS
 62
     7
  2
*UDIM710
 70
    65
 10
0.0
 20
0.0
 30
0.0
  3
*UDIM710
  0
TEXT
  5
   2A3
  8
0
  6
CONTINUOUS
 62
     7
 10
-431.191257479793
 20
-32.8190231234818
 30
0.0
 40
3.00000002980232
  1
=
 50
449.999999844103
 41
0.933333333333334
 72
     1
 11
-432.691257491708
 21
-31.7190231084824
 31
0.0
 73
     2
  0
LINE
  5
   2A4
  8
0
  6
CONTINUOUS
 62
     7
 10
-452.025390625
 20
-41.2522888183594
 30
0.0
 11
-428.191257476807
 21
-41.2522888183594
 31
0.0
  0
LINE
  5
   2A5
  8
0
  6
CONTINUOUS
 62
     7
 10
-430.191257476807
 20
-23.5022888183594
 30
0.0
 11
-430.191257476807
 21
-41.2522888183594
 31
0.0
  0
LINE
  5
   2A6
  8
0
  6
CONTINUOUS
 62
     7
 10
-429.670313046855
 20
-26.4567120955663
 30
0.0
 11
-430.191257476807
 21
-23.5022888183594
 31
0.0
  0
LINE
  5
   2A7
  8
0
  6
CONTINUOUS
 62
     7
 10
-430.191257476807
 20
-23.5022888183594
 30
0.0
 11
-430.712201906758
 21
-26.4567120955663
 31
0.0
  0
LINE
  5
   2A8
  8
0
  6
CONTINUOUS
 62
     7
 10
-430.712201906758
 20
-38.2978655411524
 30
0.0
 11
-430.191257476807
 21
-41.2522888183594
 31
0.0
  0
LINE
  5
   2A9
  8
0
  6
CONTINUOUS
 62
     7
 10
-430.191257476807
 20
-41.2522888183594
 30
0.0
 11
-429.670313046855
 21
-38.2978655411524
 31
0.0
  0
ENDBLK
  5
   2AA
  8
0
  6
CONTINUOUS
 62
     7
  0
BLOCK
  5
   2AB
  8
0
  6
CONTINUOUS
 62
     7
  2
*UDIM711
 70
    65
 10
0.0
 20
0.0
 30
0.0
  3
*UDIM711
  0
TEXT
  5
   2AC
  8
0
  6
CONTINUOUS
 62
     7
 10
-505.043729792692
 20
-27.6772888671348
 30
0.0
 40
3.00000002980232
  1
126
 50
449.999999844103
 41
0.933333333333333
 72
     1
 11
-506.543729797006
 21
-23.7772888243198
 31
0.0
 73
     2
  0
LINE
  5
   2AD
  8
0
  6
CONTINUOUS
 62
     7
 10
-493.900390625
 20
-7.75228881835938
 30
0.0
 11
-506.043729782105
 21
-7.75228881835938
 31
0.0
  0
LINE
  5
   2AE
  8
0
  6
CONTINUOUS
 62
     7
 10
-493.900390625
 20
-39.2522888183594
 30
0.0
 11
-506.043729782105
 21
-39.2522888183594
 31
0.0
  0
LINE
  5
   2AF
  8
0
  6
CONTINUOUS
 62
     7
 10
-504.043729782105
 20
-7.75228881835938
 30
0.0
 11
-504.043729782105
 21
-39.2522888183594
 31
0.0
  0
LINE
  5
   2B0
  8
0
  6
CONTINUOUS
 62
     7
 10
-503.522785352153
 20
-10.7067120955663
 30
0.0
 11
-504.043729782105
 21
-7.75228881835938
 31
0.0
  0
LINE
  5
   2B1
  8
0
  6
CONTINUOUS
 62
     7
 10
-504.043729782105
 20
-7.75228881835938
 30
0.0
 11
-504.564674212056
 21
-10.7067120955663
 31
0.0
  0
LINE
  5
   2B2
  8
0
  6
CONTINUOUS
 62
     7
 10
-504.564674212056
 20
-36.2978655411524
 30
0.0
 11
-504.043729782105
 21
-39.2522888183594
 31
0.0
  0
LINE
  5
   2B3
  8
0
  6
CONTINUOUS
 62
     7
 10
-504.043729782105
 20
-39.2522888183594
 30
0.0
 11
-503.522785352153
 21
-36.2978655411524
 31
0.0
  0
ENDBLK
  5
   2B4
  8
0
  6
CONTINUOUS
 62
     7
  0
BLOCK
  5
   2B5
  8
0
  6
CONTINUOUS
 62
     7
  2
*UDIM712
 70
    65
 10
0.0
 20
0.0
 30
0.0
  3
*UDIM712
  0
TEXT
  5
   2B6
  8
0
  6
CONTINUOUS
 62
     7
 10
-424.494243632413
 20
-27.6772888671348
 30
0.0
 40
3.00000002980232
  1
142
 50
449.999999844103
 41
0.933333333333333
 72
     1
 11
-425.994243636727
 21
-23.7772888243198
 31
0.0
 73
     2
  0
LINE
  5
   2B7
  8
0
  6
CONTINUOUS
 62
     7
 10
-483.275390625
 20
-5.75228881835938
 30
0.0
 11
-421.494243621826
 21
-5.75228881835938
 31
0.0
  0
LINE
  5
   2B8
  8
0
  6
CONTINUOUS
 62
     7
 10
-452.025390625
 20
-41.2522888183594
 30
0.0
 11
-421.494243621826
 21
-41.2522888183594
 31
0.0
  0
LINE
  5
   2B9
  8
0
  6
CONTINUOUS
 62
     7
 10
-423.494243621826
 20
-5.75228881835938
 30
0.0
 11
-423.494243621826
 21
-41.2522888183594
 31
0.0
  0
LINE
  5
   2BA
  8
0
  6
CONTINUOUS
 62
     7
 10
-422.973299191875
 20
-8.70671209556634
 30
0.0
 11
-423.494243621826
 21
-5.75228881835938
 31
0.0
  0
LINE
  5
   2BB
  8
0
  6
CONTINUOUS
 62
     7
 10
-423.494243621826
 20
-5.75228881835938
 30
0.0
 11
-424.015188051778
 21
-8.70671209556634
 31
0.0
  0
LINE
  5
   2BC
  8
0
  6
CONTINUOUS
 62
     7
 10
-424.015188051778
 20
-38.2978655411524
 30
0.0
 11
-423.494243621826
 21
-41.2522888183594
 31
0.0
  0
LINE
  5
   2BD
  8
0
  6
CONTINUOUS
 62
     7
 10
-423.494243621826
 20
-41.2522888183594
 30
0.0
 11
-422.973299191875
 21
-38.2978655411524
 31
0.0
  0
ENDBLK
  5
   2BE
  8
0
  6
CONTINUOUS
 62
     7
  0
BLOCK
  5
   2BF
  8
0
  6
CONTINUOUS
 62
     7
  2
*UDIM713
 70
    65
 10
0.0
 20
0.0
 30
0.0
  3
*UDIM713
  0
TEXT
  5
   2C0
  8
0
  6
CONTINUOUS
 62
     7
 10
-467.882921225659
 20
-33.0045265546431
 30
0.0
 40
3.00000002980232
  1
16
 50
449.999999844103
 41
0.933333333333333
 72
     1
 11
-469.382921233773
 21
-30.5045265257359
 31
0.0
 73
     2
  0
LINE
  5
   2C1
  8
0
  6
CONTINUOUS
 62
     7
 10
-460.150390625
 20
-28.3147888183594
 30
0.0
 11
-468.882921218872
 21
-28.3147888183594
 31
0.0
  0
LINE
  5
   2C2
  8
0
  6
CONTINUOUS
 62
     7
 10
-460.150390625
 20
-32.3147888183594
 30
0.0
 11
-468.882921218872
 21
-32.3147888183594
 31
0.0
  0
LINE
  5
   2C3
  8
0
  6
CONTINUOUS
 62
     7
 10
-466.882921218872
 20
-28.0045265009006
 30
0.0
 11
-466.882921218872
 21
-33.0045265505711
 31
0.0
  0
LINE
  5
   2C4
  8
0
  6
CONTINUOUS
 62
     7
 10
-467.403865648824
 20
-25.3603655411524
 30
0.0
 11
-466.882921218872
 21
-28.3147888183594
 31
0.0
  0
LINE
  5
   2C5
  8
0
  6
CONTINUOUS
 62
     7
 10
-466.882921218872
 20
-28.3147888183594
 30
0.0
 11
-466.36197678892
 21
-25.3603655411524
 31
0.0
  0
LINE
  5
   2C6
  8
0
  6
CONTINUOUS
 62
     7
 10
-466.36197678892
 20
-35.2692120955663
 30
0.0
 11
-466.882921218872
 21
-32.3147888183594
 31
0.0
  0
LINE
  5
   2C7
  8
0
  6
CONTINUOUS
 62
     7
 10
-466.882921218872
 20
-32.3147888183594
 30
0.0
 11
-467.403865648824
 21
-35.2692120955663
 31
0.0
  0
ENDBLK
  5
   2C8
  8
0
  6
CONTINUOUS
 62
     7
  0
BLOCK
  5
   2C9
  8
0
  6
CONTINUOUS
 62
     7
  2
*UDIM714
 70
    65
 10
0.0
 20
0.0
 30
0.0
  3
*UDIM714
  0
TEXT
  5
   2CA
  8
0
  6
CONTINUOUS
 62
     7
 10
-465.92539065987
 20
-18.953707449799
 30
0.0
 40
3.00000002980232
  1
94
 50
359.999999844103
 41
0.933333333333333
 72
     1
 11
-463.425390630961
 21
-17.4537074416876
 31
0.0
 73
     2
  0
LINE
  5
   2CB
  8
0
  6
CONTINUOUS
 62
     7
 10
-451.400390625
 20
-29.4397888183594
 30
0.0
 11
-451.400390625
 21
-17.9537074565887
 31
0.0
  0
LINE
  5
   2CC
  8
0
  6
CONTINUOUS
 62
     7
 10
-474.900390625
 20
-19.9537074565887
 30
0.0
 11
-451.400390625
 21
-19.9537074565887
 31
0.0
  0
LINE
  5
   2CD
  8
0
  6
CONTINUOUS
 62
     7
 10
-471.945967347793
 20
-19.4327630266371
 30
0.0
 11
-474.900390625
 21
-19.9537074565887
 31
0.0
  0
LINE
  5
   2CE
  8
0
  6
CONTINUOUS
 62
     7
 10
-474.900390625
 20
-19.9537074565887
 30
0.0
 11
-471.945967347793
 21
-20.4746518865404
 31
0.0
  0
LINE
  5
   2CF
  8
0
  6
CONTINUOUS
 62
     7
 10
-454.354813902207
 20
-20.4746518865404
 30
0.0
 11
-451.400390625
 21
-19.9537074565887
 31
0.0
  0
LINE
  5
   2D0
  8
0
  6
CONTINUOUS
 62
     7
 10
-451.400390625
 20
-19.9537074565887
 30
0.0
 11
-454.354813902207
 21
-19.4327630266371
 31
0.0
  0
ENDBLK
  5
   2D1
  8
0
  6
CONTINUOUS
 62
     7
  0
BLOCK
  5
   2D2
  8
0
  6
CONTINUOUS
 62
     7
  2
*UDIM715
 70
    65
 10
0.0
 20
0.0
 30
0.0
  3
*UDIM715
  0
TEXT
  5
   2D3
  8
0
  6
CONTINUOUS
 62
     7
 10
-474.45039070358
 20
-56.6195678605018
 30
0.0
 40
3.00000002980232
  1
125
 50
359.999999844103
 41
0.933333333333333
 72
     1
 11
-470.550390660763
 21
-55.1195678561926
 31
0.0
 73
     2
  0
LINE
  5
   2D4
  8
0
  6
CONTINUOUS
 62
     7
 10
-485.900390625
 20
-43.8772888183594
 30
0.0
 11
-485.900390625
 21
-59.6195678710938
 31
0.0
  0
LINE
  5
   2D5
  8
0
  6
CONTINUOUS
 62
     7
 10
-454.650390625
 20
-43.8772888183594
 30
0.0
 11
-454.650390625
 21
-59.6195678710938
 31
0.0
  0
LINE
  5
   2D6
  8
0
  6
CONTINUOUS
 62
     7
 10
-485.900390625
 20
-57.6195678710938
 30
0.0
 11
-454.650390625
 21
-57.6195678710938
 31
0.0
  0
LINE
  5
   2D7
  8
0
  6
CONTINUOUS
 62
     7
 10
-482.945967347793
 20
-57.0986234411421
 30
0.0
 11
-485.900390625
 21
-57.6195678710938
 31
0.0
  0
LINE
  5
   2D8
  8
0
  6
CONTINUOUS
 62
     7
 10
-485.900390625
 20
-57.6195678710938
 30
0.0
 11
-482.945967347793
 21
-58.1405123010454
 31
0.0
  0
LINE
  5
   2D9
  8
0
  6
CONTINUOUS
 62
     7
 10
-457.604813902207
 20
-58.1405123010454
 30
0.0
 11
-454.650390625
 21
-57.6195678710938
 31
0.0
  0
LINE
  5
   2DA
  8
0
  6
CONTINUOUS
 62
     7
 10
-454.650390625
 20
-57.6195678710938
 30
0.0
 11
-457.604813902207
 21
-57.0986234411421
 31
0.0
  0
ENDBLK
  5
   2DB
  8
0
  6
CONTINUOUS
 62
     7
  0
BLOCK
  5
   2DC
  8
0
  6
CONTINUOUS
 62
     7
  2
*UDIM716
 70
    65
 10
0.0
 20
0.0
 30
0.0
  3
*UDIM716
  0
TEXT
  5
   2DD
  8
0
  6
CONTINUOUS
 62
     7
 10
-467.55039065987
 20
-50.6394805840306
 30
0.0
 40
3.00000002980232
  1
81
 50
359.999999844103
 41
0.933333333333333
 72
     1
 11
-465.05039063096
 21
-49.1394805759192
 31
0.0
 73
     2
  0
LINE
  5
   2DE
  8
0
  6
CONTINUOUS
 62
     7
 10
-474.900390625
 20
-47.6474701359108
 30
0.0
 11
-474.900390625
 21
-53.6394805908203
 31
0.0
  0
LINE
  5
   2DF
  8
0
  6
CONTINUOUS
 62
     7
 10
-454.650390625
 20
-43.8772888183594
 30
0.0
 11
-454.650390625
 21
-53.6394805908203
 31
0.0
  0
LINE
  5
   2E0
  8
0
  6
CONTINUOUS
 62
     7
 10
-474.900390625
 20
-51.6394805908203
 30
0.0
 11
-454.650390625
 21
-51.6394805908203
 31
0.0
  0
LINE
  5
   2E1
  8
0
  6
CONTINUOUS
 62
     7
 10
-471.945967347793
 20
-51.1185361608687
 30
0.0
 11
-474.900390625
 21
-51.6394805908203
 31
0.0
  0
LINE
  5
   2E2
  8
0
  6
CONTINUOUS
 62
     7
 10
-474.900390625
 20
-51.6394805908203
 30
0.0
 11
-471.945967347793
 21
-52.160425020772
 31
0.0
  0
LINE
  5
   2E3
  8
0
  6
CONTINUOUS
 62
     7
 10
-457.604813902207
 20
-52.160425020772
 30
0.0
 11
-454.650390625
 21
-51.6394805908203
 31
0.0
  0
LINE
  5
   2E4
  8
0
  6
CONTINUOUS
 62
     7
 10
-454.650390625
 20
-51.6394805908203
 30
0.0
 11
-457.604813902207
 21
-51.1185361608687
 31
0.0
  0
ENDBLK
  5
   2E5
  8
0
  6
CONTINUOUS
 62
     7
  0
BLOCK
  5
   2E6
  8
0
  6
CONTINUOUS
 62
     7
  2
*UDIM717
 70
    65
 10
0.0
 20
0.0
 30
0.0
  3
*UDIM717
  0
TEXT
  5
   2E7
  8
0
  6
CONTINUOUS
 62
     7
 10
-480.200390673777
 20
20.1823387251916
 30
0.0
 40
3.00000002980232
  1
135
 50
359.999999844103
 41
0.933333333333333
 72
     1
 11
-476.300390630961
 21
21.6823387295008
 31
0.0
 73
     2
  0
LINE
  5
   2E8
  8
0
  6
CONTINUOUS
 62
     7
 10
-492.900390625
 20
-6.75228881835938
 30
0.0
 11
-492.900390625
 21
21.1823387145996
 31
0.0
  0
LINE
  5
   2E9
  8
0
  6
CONTINUOUS
 62
     7
 10
-459.150390625
 20
-6.75228881835938
 30
0.0
 11
-459.150390625
 21
21.1823387145996
 31
0.0
  0
LINE
  5
   2EA
  8
0
  6
CONTINUOUS
 62
     7
 10
-492.900390625
 20
19.1823387145996
 30
0.0
 11
-459.150390625
 21
19.1823387145996
 31
0.0
  0
LINE
  5
   2EB
  8
0
  6
CONTINUOUS
 62
     7
 10
-489.945967347793
 20
19.7032831445513
 30
0.0
 11
-492.900390625
 21
19.1823387145996
 31
0.0
  0
LINE
  5
   2EC
  8
0
  6
CONTINUOUS
 62
     7
 10
-492.900390625
 20
19.1823387145996
 30
0.0
 11
-489.945967347793
 21
18.6613942846479
 31
0.0
  0
LINE
  5
   2ED
  8
0
  6
CONTINUOUS
 62
     7
 10
-462.104813902207
 20
18.6613942846479
 30
0.0
 11
-459.150390625
 21
19.1823387145996
 31
0.0
  0
LINE
  5
   2EE
  8
0
  6
CONTINUOUS
 62
     7
 10
-459.150390625
 20
19.1823387145996
 30
0.0
 11
-462.104813902207
 21
19.7032831445513
 31
0.0
  0
ENDBLK
  5
   2EF
  8
0
  6
CONTINUOUS
 62
     7
  0
BLOCK
  5
   2F0
  8
0
  6
CONTINUOUS
 62
     7
  2
*UDIM718
 70
    65
 10
0.0
 20
0.0
 30
0.0
  3
*UDIM718
  0
TEXT
  5
   2F1
  8
0
  6
CONTINUOUS
 62
     7
 10
-469.800391136707
 20
12.7938766547389
 30
0.0
 40
3.00000002980232
  1
63
 50
359.999999844103
 41
0.933333333333333
 72
     1
 11
-467.300391107798
 21
14.2938766628504
 31
0.0
 73
     2
  0
LINE
  5
   2F2
  8
0
  6
CONTINUOUS
 62
     7
 10
-474.900390625
 20
3.12520234249573
 30
0.0
 11
-474.900390625
 21
13.7938766479492
 31
0.0
  0
LINE
  5
   2F3
  8
0
  6
CONTINUOUS
 62
     7
 10
-459.150390625
 20
-6.75228881835938
 30
0.0
 11
-459.150390625
 21
13.7938766479492
 31
0.0
  0
LINE
  5
   2F4
  8
0
  6
CONTINUOUS
 62
     7
 10
-474.900390625
 20
11.7938766479492
 30
0.0
 11
-459.150390625
 21
11.7938766479492
 31
0.0
  0
LINE
  5
   2F5
  8
0
  6
CONTINUOUS
 62
     7
 10
-471.945967347793
 20
12.3148210779009
 30
0.0
 11
-474.900390625
 21
11.7938766479492
 31
0.0
  0
LINE
  5
   2F6
  8
0
  6
CONTINUOUS
 62
     7
 10
-474.900390625
 20
11.7938766479492
 30
0.0
 11
-471.945967347793
 21
11.2729322179976
 31
0.0
  0
LINE
  5
   2F7
  8
0
  6
CONTINUOUS
 62
     7
 10
-462.104813902207
 20
11.2729322179976
 30
0.0
 11
-459.150390625
 21
11.7938766479492
 31
0.0
  0
LINE
  5
   2F8
  8
0
  6
CONTINUOUS
 62
     7
 10
-459.150390625
 20
11.7938766479492
 30
0.0
 11
-462.104813902207
 21
12.3148210779009
 31
0.0
  0
ENDBLK
  5
   2F9
  8
0
  6
CONTINUOUS
 62
     7
  0
BLOCK
  5
   2FA
  8
0
  6
CONTINUOUS
 62
     7
  2
*HATCH175
 70
    65
 10
0.0
 20
0.0
 30
0.0
  3
*HATCH175
  0
LINE
  5
   2FB
  8
0
  6
CONTINUOUS
 62
    52
 10
-11.7279224395752
 20
1.0
 30
0.0
 11
-11.9763488769531
 21
0.75157368183136
 31
0.0
  0
LINE
  5
   2FC
  8
0
  6
CONTINUOUS
 62
    52
 10
-9.60660171508789
 20
1.0
 30
0.0
 11
-11.6066026687622
 21
-1.0
 31
0.0
  0
LINE
  5
   2FD
  8
0
  6
CONTINUOUS
 62
    52
 10
-7.48528146743774
 20
1.0
 30
0.0
 11
-9.48528289794922
 21
-1.0
 31
0.0
  0
LINE
  5
   2FE
  8
0
  6
CONTINUOUS
 62
    52
 10
-5.3639612197876
 20
1.0
 30
0.0
 11
-7.36396265029907
 21
-1.0
 31
0.0
  0
LINE
  5
   2FF
  8
0
  6
CONTINUOUS
 62
    52
 10
-3.47947335243225
 20
0.763167560100555
 30
0.0
 11
-5.24264097213745
 21
-1.0
 31
0.0
  0
LINE
  5
   300
  8
0
  6
CONTINUOUS
 62
    52
 10
-2.51160907745361
 20
-0.390288293361664
 30
0.0
 11
-3.1213207244873
 21
-1.0
 31
0.0
  0
ENDBLK
  5
   301
  8
0
  6
CONTINUOUS
 62
     7
  0
BLOCK
  5
   302
  8
0
  6
CONTINUOUS
 62
     7
  2
*HATCH176
 70
    65
 10
0.0
 20
0.0
 30
0.0
  3
*HATCH176
  0
LINE
  5
   303
  8
0
  6
CONTINUOUS
 62
    52
 10
5.24264097213745
 20
1.0
 30
0.0
 11
3.24264073371887
 21
-1.0
 31
0.0
  0
LINE
  5
   304
  8
0
  6
CONTINUOUS
 62
    52
 10
7.3639612197876
 20
1.0
 30
0.0
 11
5.3639612197876
 21
-1.0
 31
0.0
  0
LINE
  5
   305
  8
0
  6
CONTINUOUS
 62
    52
 10
9.48528099060059
 20
1.0
 30
0.0
 11
7.4852819442749
 21
-1.0
 31
0.0
  0
ENDBLK
  5
   306
  8
0
  6
CONTINUOUS
 62
     7
  0
BLOCK
  5
   307
  8
0
  6
CONTINUOUS
 62
     7
  2
*UDIM719
 70
    65
 10
0.0
 20
0.0
 30
0.0
  3
*UDIM719
  0
TEXT
  5
   308
  8
0
  6
CONTINUOUS
 62
     7
 10
-524.027422185971
 20
-20.8965225947602
 30
0.0
 40
3.00000002980232
  1
80
 50
449.241125536518
 41
0.933333333333333
 72
     1
 11
-525.494179455906
 21
-18.3768751432358
 31
0.0
 73
     2
  0
TEXT
  5
   309
  8
0
  6
CONTINUOUS
 62
     7
 10
-524.561147220233
 20
-15.8890144233141
 30
0.0
 40
3.00000002980232
  1
°
 50
449.241125536518
 41
0.933333333333334
 72
     1
 11
-526.046446749394
 21
-14.7692441891072
 31
0.0
 73
     2
  0
LINE
  5
   30A
  8
0
  6
CONTINUOUS
 62
     7
 10
-541.089851552975
 20
-21.322981958711
 30
0.0
 11
-526.887884386744
 21
-33.2398473698869
 31
0.0
  0
LINE
  5
   30B
  8
0
  6
CONTINUOUS
 62
     7
 10
-541.089851552975
 20
-12.6810082146288
 30
0.0
 11
-526.887884386744
 21
-0.764142803452966
 31
0.0
  0
ARC
  5
   30C
  8
0
  6
CONTINUOUS
 62
     7
 10
-546.239403181282
 20
-17.0019950866699
 30
0.0
 40
23.2616136940404
 50
319.999999815233
 51
399.999999769042
  0
LINE
  5
   30D
  8
0
  6
CONTINUOUS
 62
     7
 10
-526.919973182362
 20
-29.3561959914799
 30
0.0
 11
-528.419973272982
 21
-31.9542721505138
 31
0.0
  0
LINE
  5
   30E
  8
0
  6
CONTINUOUS
 62
     7
 10
-528.419973272982
 20
-31.9542721505138
 30
0.0
 11
-526.121840010886
 21
-30.0259092412962
 31
0.0
  0
LINE
  5
   30F
  8
0
  6
CONTINUOUS
 62
     7
 10
-526.121840010886
 20
-3.97808093204365
 30
0.0
 11
-528.419973272982
 21
-2.04971802282605
 31
0.0
  0
LINE
  5
   310
  8
0
  6
CONTINUOUS
 62
     7
 10
-528.419973272982
 20
-2.04971802282605
 30
0.0
 11
-526.919973182362
 21
-4.64779418185995
 31
0.0
  0
ENDBLK
  5
   311
  8
0
  6
CONTINUOUS
 62
     7
  0
BLOCK
  5
   312
  8
0
  6
CONTINUOUS
 62
     7
  2
*UDIM720
 70
    65
 10
0.0
 20
0.0
 30
0.0
  3
*UDIM720
  0
TEXT
  5
   313
  8
0
  6
CONTINUOUS
 62
     7
 10
-559.508328444592
 20
-11.1169281294932
 30
0.0
 40
3.00000002980232
  1
Ø4
 50
449.999999844103
 41
0.933333333333333
 72
     1
 11
-561.008328452706
 21
-8.61692810058594
 31
0.0
 73
     2
  0
LINE
  5
   314
  8
0
  6
CONTINUOUS
 62
     7
 10
-544.855895996094
 20
-15.0019950866699
 30
0.0
 11
-560.508328437805
 21
-15.0019950866699
 31
0.0
  0
LINE
  5
   315
  8
0
  6
CONTINUOUS
 62
     7
 10
-544.855895996094
 20
-19.0019950866699
 30
0.0
 11
-560.508328437805
 21
-19.0019950866699
 31
0.0
  0
LINE
  5
   316
  8
0
  6
CONTINUOUS
 62
     7
 10
-558.508328437805
 20
-6.11692807575067
 30
0.0
 11
-558.508328437805
 21
-19.0019950866699
 31
0.0
  0
LINE
  5
   317
  8
0
  6
CONTINUOUS
 62
     7
 10
-559.029272867757
 20
-12.047571809463
 30
0.0
 11
-558.508328437805
 21
-15.0019950866699
 31
0.0
  0
LINE
  5
   318
  8
0
  6
CONTINUOUS
 62
     7
 10
-558.508328437805
 20
-15.0019950866699
 30
0.0
 11
-557.987384007854
 21
-12.047571809463
 31
0.0
  0
LINE
  5
   319
  8
0
  6
CONTINUOUS
 62
     7
 10
-557.987384007854
 20
-21.9564183638769
 30
0.0
 11
-558.508328437805
 21
-19.0019950866699
 31
0.0
  0
LINE
  5
   31A
  8
0
  6
CONTINUOUS
 62
     7
 10
-558.508328437805
 20
-19.0019950866699
 30
0.0
 11
-559.029272867757
 21
-21.9564183638769
 31
0.0
  0
ENDBLK
  5
   31B
  8
0
  6
CONTINUOUS
 62
     7
  0
ENDSEC
  0
SECTION
  2
ENTITIES
  0
LINE
  5
   31C
  8
0
  6
DASHDOT
 62
     7
 10
-362.249938964844
 20
18.625818599694
 30
0.0
 11
-362.249938964844
 21
-69.262315174265
 31
0.0
  0
LINE
  5
   31D
  8
0
  6
CONTINUOUS
 62
     7
 10
-394.187438964844
 20
15.7296080321079
 30
0.0
 11
-394.187438964844
 21
-65.6897888183594
 31
0.0
  0
LINE
  5
   31E
  8
0
  6
CONTINUOUS
 62
     7
 10
-341.562438964844
 20
15.7296080321079
 30
0.0
 11
-341.562438964844
 21
-65.6897888183594
 31
0.0
  0
LINE
  5
   31F
  8
0
  6
CONTINUOUS
 62
     7
 10
-338.383162480497
 20
-65.6897888183594
 30
0.0
 11
-394.187438964844
 21
-65.6897888183594
 31
0.0
  0
LINE
  5
   320
  8
0
  6
DASHDOT
 62
     7
 10
-344.556958918126
 20
-7.06478881835938
 30
0.0
 11
-379.6211517738
 21
-7.06478881835938
 31
0.0
  0
LINE
  5
   321
  8
0
  6
DASHDOT
 62
     7
 10
-344.556958918126
 20
-40.8147888183594
 30
0.0
 11
-379.672923822285
 21
-40.8147888183594
 31
0.0
  0
LINE
  5
   322
  8
0
  6
DASHDOT
 62
     7
 10
-387.874938964844
 20
-3.31470211952505
 30
0.0
 11
-387.874938964844
 21
-44.7754842815427
 31
0.0
  0
LINE
  5
   323
  8
0
  6
DASHDOT
 62
     7
 10
-347.874938964844
 20
-4.08265417205774
 30
0.0
 11
-347.874938964844
 21
-45.6038370573083
 31
0.0
  0
CIRCLE
  5
   324
  8
0
  6
CONTINUOUS
 62
     7
 10
-387.874938964844
 20
-7.06478881835938
 30
0.0
 40
0.75
  0
CIRCLE
  5
   325
  8
0
  6
CONTINUOUS
 62
     7
 10
-347.874938964844
 20
-7.06478881835938
 30
0.0
 40
0.75
  0
CIRCLE
  5
   326
  8
0
  6
CONTINUOUS
 62
     7
 10
-387.874938964844
 20
-40.8147888183594
 30
0.0
 40
0.75
  0
CIRCLE
  5
   327
  8
0
  6
CONTINUOUS
 62
     7
 10
-347.874938964844
 20
-40.8147888183594
 30
0.0
 40
0.75
  0
LINE
  5
   328
  8
0
  6
CONTINUOUS
 62
     7
 10
-339.69136209216
 20
15.7296080321079
 30
0.0
 11
-394.187438964844
 21
15.7296080321079
 31
0.0
  0
LINE
  5
   329
  8
0
  6
DASHDOT
 62
     7
 10
-335.806708271655
 20
-23.5022888183594
 30
0.0
 11
-401.892410902533
 21
-23.5022888183594
 31
0.0
  0
TEXT
  5
   32A
  8
0
  6
CONTINUOUS
 62
     1
 10
-455.522125475568
 20
-157.008383243569
 30
0.0
 40
2.00000008940697
  1
M 4329 96-09-24
 50
359.999999896069
 41
0.749999861419206
 72
     1
 11
-444.42212703242
 21
-156.008383218944
 31
0.0
 73
     2
  0
LINE
  5
   32B
  8
0
  6
CONTINUOUS
 62
     7
 10
-345.249938964844
 20
-45.1897888183594
 30
0.0
 11
-390.249938964844
 21
-45.1897888183594
 31
0.0
  0
LINE
  5
   32C
  8
0
  6
CONTINUOUS
 62
     7
 10
-391.249938964844
 20
-46.1897888183594
 30
0.0
 11
-391.249938964844
 21
-60.4397888183594
 31
0.0
  0
LINE
  5
   32D
  8
0
  6
CONTINUOUS
 62
     7
 10
-344.249938964844
 20
-46.1897888183594
 30
0.0
 11
-344.249938964844
 21
-60.4397888183594
 31
0.0
  0
ARC
  5
   32E
  8
0
  6
CONTINUOUS
 62
     7
 10
-345.249938964844
 20
-46.1897888183594
 30
0.0
 40
1.0
 50
359.999999896069
 51
449.999999896069
  0
ARC
  5
   32F
  8
0
  6
CONTINUOUS
 62
     7
 10
-390.249938964844
 20
-46.1897888183594
 30
0.0
 40
1.0
 50
449.999999896069
 51
539.999999896069
  0
LINE
  5
   330
  8
0
  6
CONTINUOUS
 62
     7
 10
-345.249938964844
 20
-2.68978881835938
 30
0.0
 11
-390.249938964844
 21
-2.68978881835938
 31
0.0
  0
LINE
  5
   331
  8
0
  6
CONTINUOUS
 62
     7
 10
-345.249938964844
 20
13.5602111816406
 30
0.0
 11
-390.249938964844
 21
13.5602111816406
 31
0.0
  0
LINE
  5
   332
  8
0
  6
CONTINUOUS
 62
     7
 10
-344.249938964844
 20
12.5602111816406
 30
0.0
 11
-344.249938964844
 21
-1.68978881835938
 31
0.0
  0
LINE
  5
   333
  8
0
  6
CONTINUOUS
 62
     7
 10
-391.249938964844
 20
12.5602111816406
 30
0.0
 11
-391.249938964844
 21
-1.68978881835938
 31
0.0
  0
ARC
  5
   334
  8
0
  6
CONTINUOUS
 62
     7
 10
-390.249938964844
 20
12.5602111816406
 30
0.0
 40
1.0
 50
449.999999896069
 51
539.999999896069
  0
ARC
  5
   335
  8
0
  6
CONTINUOUS
 62
     7
 10
-390.249938964844
 20
-1.68978881835938
 30
0.0
 40
1.0
 50
179.999999896069
 51
269.999999896069
  0
ARC
  5
   336
  8
0
  6
CONTINUOUS
 62
     7
 10
-345.249938964844
 20
-1.68978881835938
 30
0.0
 40
1.0
 50
269.999999896069
 51
359.999999896069
  0
ARC
  5
   337
  8
0
  6
CONTINUOUS
 62
     7
 10
-345.249938964844
 20
12.5602111816406
 30
0.0
 40
1.0
 50
359.999999896069
 51
449.999999896069
  0
LINE
  5
   338
  8
0
  6
CONTINUOUS
 62
     7
 10
-345.249938964844
 20
-61.4397888183594
 30
0.0
 11
-390.249938964844
 21
-61.4397888183594
 31
0.0
  0
ARC
  5
   339
  8
0
  6
CONTINUOUS
 62
     7
 10
-390.249938964844
 20
-60.4397888183594
 30
0.0
 40
1.0
 50
179.999999896069
 51
269.999999896069
  0
ARC
  5
   33A
  8
0
  6
CONTINUOUS
 62
     7
 10
-345.249938964844
 20
-60.4397888183594
 30
0.0
 40
1.0
 50
269.999999896069
 51
359.999999896069
  0
TEXT
  5
   33B
  8
0
  6
CONTINUOUS
 62
     1
 10
-349.354736330838
 20
-159.127700803629
 30
0.0
 40
3.00000002980232
  1
S5/630 (630A)
 50
359.999999896069
 41
0.916666604744064
 72
     2
 11
-314.154738363357
 21
-159.127700867303
 31
0.0
  0
INSERT
  5
   33C
  8
0
  6
CONTINUOUS
 62
     7
  2
*UDIM655
 10
0.0
 20
0.0
 30
0.0
  0
INSERT
  5
   33D
  8
0
  6
CONTINUOUS
 62
     7
  2
*UDIM656
 10
0.0
 20
0.0
 30
0.0
  0
TEXT
  5
   33E
  8
0
  6
CONTINUOUS
 62
     1
 10
-429.932125580621
 20
-157.008383244925
 30
0.0
 40
2.00000008940697
  1
M4504 98-11-17
 50
359.999999896069
 41
0.749999861419206
 72
     1
 11
-419.58212703242
 21
-156.008383218944
 31
0.0
 73
     2
  0
TEXT
  5
   33F
  8
0
  6
CONTINUOUS
 62
     1
 10
-469.410064699075
 20
-150.943063810717
 30
0.0
 40
2.00000008940697
  1
SCARPELLINI
 50
359.999999896069
 41
0.749999861419206
 72
     2
 11
-453.210066975972
 21
-150.943063840021
 31
0.0
  0
INSERT
  5
   340
  8
0
  6
CONTINUOUS
 62
     7
  2
*UDIM657
 10
0.0
 20
0.0
 30
0.0
  0
INSERT
  5
   341
  8
0
  6
CONTINUOUS
 62
     7
  2
*UDIM658
 10
0.0
 20
0.0
 30
0.0
  0
INSERT
  5
   342
  8
0
  6
CONTINUOUS
 62
     7
  2
*UDIM659
 10
0.0
 20
0.0
 30
0.0
  0
INSERT
  5
   343
  8
0
  6
CONTINUOUS
 62
     7
  2
*UDIM660
 10
0.0
 20
0.0
 30
0.0
  0
INSERT
  5
   344
  8
0
  6
CONTINUOUS
 62
     7
  2
*UDIM661
 10
0.0
 20
0.0
 30
0.0
  0
INSERT
  5
   345
  8
0
  6
CONTINUOUS
 62
     7
  2
*UDIM662
 10
0.0
 20
0.0
 30
0.0
  0
INSERT
  5
   346
  8
0
  6
CONTINUOUS
 62
     7
  2
*UDIM663
 10
0.0
 20
0.0
 30
0.0
  0
INSERT
  5
   347
  8
0
  6
CONTINUOUS
 62
     7
  2
*UDIM664
 10
0.0
 20
0.0
 30
0.0
  0
TEXT
  5
   348
  8
0
  6
CONTINUOUS
 62
     1
 10
-469.410064699075
 20
-142.476318423276
 30
0.0
 40
2.00000008940697
  1
96-11-29 M.COLLEONI
 50
359.999999896069
 41
0.749999861419206
 72
     2
 11
-441.210068656823
 21
-142.476318474288
 31
0.0
  0
TEXT
  5
   349
  8
0
  6
CONTINUOUS
 62
     5
 10
-360.491857292981
 20
17.1894187649121
 30
0.0
 40
3.00000002980232
  1
Y
 50
359.999999896069
 41
0.916666604744064
 72
     2
 11
-358.291857424112
 21
17.1894187609325
 31
0.0
  0
INSERT
  5
   34A
  8
0
  6
CONTINUOUS
 62
     5
  2
*UDIM665
 10
0.0
 20
0.0
 30
0.0
  0
INSERT
  5
   34B
  8
0
  6
CONTINUOUS
 62
     7
  2
*UDIM666
 10
0.0
 20
0.0
 30
0.0
  0
INSERT
  5
   34C
  8
0
  6
CONTINUOUS
 62
     7
  2
*UDIM667
 10
0.0
 20
0.0
 30
0.0
  0
TEXT
  5
   34D
  8
0
  6
CONTINUOUS
 62
     7
 10
-387.833478930326
 20
-21.8861494342456
 30
0.0
 40
3.00000002980232
  1
X
 50
359.999999896069
 41
0.916666604744064
 72
     2
 11
-385.633479061456
 21
-21.8861494382252
 31
0.0
  0
TEXT
  5
   34E
  8
0
  6
CONTINUOUS
 62
     7
 10
-321.358909609647
 20
-27.2504264394412
 30
0.0
 40
3.00000002980232
  1
X
 50
359.999999896069
 41
0.916666604744064
 72
     2
 11
-319.158909740777
 21
-27.2504264434209
 31
0.0
  0
TEXT
  5
   34F
  8
0
  6
CONTINUOUS
 62
     7
 10
-360.97775781426
 20
-71.4552955905567
 30
0.0
 40
3.00000002980232
  1
Y
 50
359.999999896069
 41
0.916666604744064
 72
     2
 11
-358.77775794539
 21
-71.4552955945363
 31
0.0
  0
TEXT
  5
   350
  8
0
  6
CONTINUOUS
 62
     1
 10
-360.440429691118
 20
-168.109283592841
 30
0.0
 40
4.00000017881393
  1
601812/901
 50
359.999999896069
 41
0.937499973922969
 72
     2
 11
-323.690429091346
 21
-168.109283659318
 31
0.0
  0
TEXT
  5
   351
  8
0
  6
CONTINUOUS
 62
     1
 10
-370.889156054279
 20
-140.817428580931
 30
0.0
 40
2.00000008940697
  1
4POLE LOW VOLTAGE M.C.C.B SERIES ISOMAX
 50
359.999999896069
 41
0.749999861419206
 72
     1
 11
-341.789160132408
 21
-139.817428588867
 31
0.0
 73
     2
  0
TEXT
  5
   352
  8
0
  6
CONTINUOUS
 62
     1
 10
-368.639156369439
 20
-143.817428585001
 30
0.0
 40
2.00000008940697
  1
WITHDRAWABLE VERSION FRONT TERMINALS
 50
359.999999896069
 41
0.749999861419206
 72
     1
 11
-341.789160132408
 21
-142.817428588867
 31
0.0
 73
     2
  0
TEXT
  5
   353
  8
0
  6
CONTINUOUS
 62
     1
 10
-367.686764421633
 20
-148.887695316774
 30
0.0
 40
2.00000008940697
  1
INTERR.AUTOMATICO SERIE ISOMAX
 50
359.999999896069
 41
0.749999861419206
 72
     1
 11
-345.336767554283
 21
-147.8876953125
 31
0.0
 73
     2
  0
TEXT
  5
   354
  8
0
  6
CONTINUOUS
 62
     1
 10
-378.936762845835
 20
-151.887695296424
 30
0.0
 40
2.00000008940697
  1
TETRAP.ESECUZIONE ESTRAIBILE TERMIN.ANTERIORI
 50
359.999999896069
 41
0.749999861419206
 72
     1
 11
-345.336767554283
 21
-150.8876953125
 31
0.0
 73
     2
  0
LINE
  5
   355
  8
0
  6
CONTINUOUS
 62
     3
 10
-338.624913407434
 20
159.486159744261
 30
0.0
 11
-338.624913407434
 21
161.061159717439
 31
0.0
  0
ARC
  5
   356
  8
0
  6
CONTINUOUS
 62
     3
 10
-338.974913401474
 20
161.061159717439
 30
0.0
 40
0.349999994039536
 50
359.999999948034
 51
449.999999948034
  0
LINE
  5
   357
  8
0
  6
CONTINUOUS
 62
     3
 10
-338.974913401474
 20
161.411159711479
 30
0.0
 11
-400.837398779586
 21
161.411159711479
 31
0.0
  0
LINE
  5
   358
  8
0
  6
CONTINUOUS
 62
     7
 10
-341.687362136275
 20
161.411159711479
 30
0.0
 11
-341.687362136275
 21
167.361154149552
 31
0.0
  0
LINE
  5
   359
  8
0
  6
CONTINUOUS
 62
     7
 10
-341.687362136275
 20
167.361154149552
 30
0.0
 11
-334.599866262406
 21
171.911154072066
 31
0.0
  0
LINE
  5
   35A
  8
0
  6
CONTINUOUS
 62
     7
 10
-334.599884503055
 20
171.911154072066
 30
0.0
 11
-334.599884503055
 21
178.911111228248
 31
0.0
  0
LINE
  5
   35B
  8
0
  6
CONTINUOUS
 62
     7
 10
-334.599864927262
 20
178.911111228248
 30
0.0
 11
-348.59987670514
 21
178.911111228248
 31
0.0
  0
LINE
  5
   35C
  8
0
  6
CONTINUOUS
 62
     7
 10
-348.59987670514
 20
171.911154072066
 30
0.0
 11
-348.59987670514
 21
178.911111228248
 31
0.0
  0
LINE
  5
   35D
  8
0
  6
CONTINUOUS
 62
     7
 10
-352.187351276309
 20
167.361154149552
 30
0.0
 11
-348.59987670514
 21
171.911154072066
 31
0.0
  0
LINE
  5
   35E
  8
0
  6
CONTINUOUS
 62
     7
 10
-352.187340595157
 20
161.411159711479
 30
0.0
 11
-352.187340595157
 21
167.361167696475
 31
0.0
  0
CIRCLE
  5
   35F
  8
0
  6
CONTINUOUS
 62
     7
 10
-341.599878861702
 20
173.661127743332
 30
0.0
 40
1.92501639291958
  0
LINE
  5
   360
  8
0
  6
DASHDOT
 62
     3
 10
-341.599878861702
 20
170.686111368294
 30
0.0
 11
-341.599878861702
 21
176.63614411837
 31
0.0
  0
LINE
  5
   361
  8
0
  6
DASHDOT
 62
     3
 10
-338.624862486664
 20
173.661127743332
 30
0.0
 11
-344.57489523674
 21
173.661127743332
 31
0.0
  0
LINE
  5
   362
  8
0
  6
CONTINUOUS
 62
   130
 10
-352.668621191538
 20
161.411175613185
 30
0.0
 11
-352.668621191538
 21
162.286175598283
 31
0.0
  0
LINE
  5
   363
  8
0
  6
CONTINUOUS
 62
   130
 10
-352.668621191538
 20
162.286175598283
 30
0.0
 11
-354.068621167696
 21
162.286175598283
 31
0.0
  0
LINE
  5
   364
  8
0
  6
CONTINUOUS
 62
   130
 10
-354.068621167696
 20
162.286175598283
 30
0.0
 11
-354.068621167696
 21
165.308014929752
 31
0.0
  0
LINE
  5
   365
  8
0
  6
CONTINUOUS
 62
   130
 10
-355.118621149815
 20
162.286175598283
 30
0.0
 11
-355.118621149815
 21
165.589361818333
 31
0.0
  0
LINE
  5
   366
  8
0
  6
CONTINUOUS
 62
   130
 10
-355.118621149815
 20
162.286175598283
 30
0.0
 11
-356.518621125973
 21
162.286175598283
 31
0.0
  0
LINE
  5
   367
  8
0
  6
CONTINUOUS
 62
   130
 10
-356.518621125973
 20
161.411175613185
 30
0.0
 11
-356.518621125973
 21
162.286175598283
 31
0.0
  0
LINE
  5
   368
  8
0
  6
CONTINUOUS
 62
   130
 10
-355.118591776647
 20
165.589412694129
 30
0.0
 11
-351.680911018539
 21
171.543647669633
 31
0.0
  0
LINE
  5
   369
  8
0
  6
CONTINUOUS
 62
   130
 10
-354.068591794528
 20
165.30806580561
 30
0.0
 11
-350.628951044999
 21
171.265702728078
 31
0.0
  0
LINE
  5
   36A
  8
0
  6
CONTINUOUS
 62
   130
 10
-351.680941078306
 20
171.543595604615
 30
0.0
 11
-351.609191558312
 21
193.668085905249
 31
0.0
  0
LINE
  5
   36B
  8
0
  6
CONTINUOUS
 62
   130
 10
-350.628979816033
 20
171.265652895161
 30
0.0
 11
-350.701774040195
 21
193.829615725227
 31
0.0
  0
LINE
  5
   36C
  8
0
  6
CONTINUOUS
 62
     7
 10
-353.215409464597
 20
193.382162298894
 30
0.0
 11
-349.398456926708
 21
194.061619818728
 31
0.0
  0
LINE
  5
   36D
  8
0
  6
CONTINUOUS
 62
     7
 10
-353.1694869015
 20
194.264469608718
 30
0.0
 11
-349.365726477148
 21
194.941578794205
 31
0.0
  0
LINE
  5
   36E
  8
0
  6
CONTINUOUS
 62
   130
 10
-350.757656258261
 20
195.051378897717
 30
0.0
 11
-351.067463076716
 21
195.361185716172
 31
0.0
  0
LINE
  5
   36F
  8
0
  6
CONTINUOUS
 62
   130
 10
-351.067463076716
 20
195.361185716172
 30
0.0
 11
-350.75964829314
 21
195.668995159172
 31
0.0
  0
LINE
  5
   370
  8
0
  6
CONTINUOUS
 62
   130
 10
-351.242447052007
 20
195.361185716172
 30
0.0
 11
-351.550491480355
 21
195.669230144519
 31
0.0
  0
LINE
  5
   371
  8
0
  6
CONTINUOUS
 62
   130
 10
-351.552494196386
 20
195.051133231217
 30
0.0
 11
-351.242447052008
 21
195.361185716172
 31
0.0
  0
LINE
  5
   372
  8
0
  6
CONTINUOUS
 62
   130
 10
-351.554114668629
 20
194.552022781062
 30
0.0
 11
-351.504952388113
 21
209.711174790633
 31
0.0
  0
LINE
  5
   373
  8
0
  6
CONTINUOUS
 62
   130
 10
-350.756502698128
 20
194.694006063769
 30
0.0
 11
-350.804952400034
 21
209.711174790654
 31
0.0
  0
LINE
  5
   374
  8
0
  6
CONTINUOUS
 62
   130
 10
-350.804952400034
 20
209.71117479064
 30
0.0
 11
-351.504952388113
 21
209.71117479064
 31
0.0
  0
LINE
  5
   375
  8
0
  6
CONTINUOUS
 62
     7
 10
-398.124911912106
 20
161.411159711479
 30
0.0
 11
-398.124911912106
 21
167.361183705116
 31
0.0
  0
LINE
  5
   376
  8
0
  6
CONTINUOUS
 62
     7
 10
-398.124924967955
 20
167.361192086666
 30
0.0
 11
-405.212360760343
 21
171.911159965723
 31
0.0
  0
LINE
  5
   377
  8
0
  6
CONTINUOUS
 62
     7
 10
-405.212360760343
 20
171.911159965723
 30
0.0
 11
-405.212360760343
 21
178.911127803057
 31
0.0
  0
LINE
  5
   378
  8
0
  6
CONTINUOUS
 62
     7
 10
-391.212371679914
 20
178.911127803057
 30
0.0
 11
-405.212360760343
 21
178.911127803057
 31
0.0
  0
LINE
  5
   379
  8
0
  6
CONTINUOUS
 62
     7
 10
-391.212371679914
 20
171.911159965723
 30
0.0
 11
-391.212371679914
 21
178.911127803057
 31
0.0
  0
LINE
  5
   37A
  8
0
  6
CONTINUOUS
 62
     7
 10
-387.624914465617
 20
167.36121344897
 30
0.0
 11
-391.212371679914
 21
171.911159965723
 31
0.0
  0
LINE
  5
   37B
  8
0
  6
CONTINUOUS
 62
     7
 10
-387.624906750344
 20
161.411159711479
 30
0.0
 11
-387.624906750344
 21
167.361203663744
 31
0.0
  0
CIRCLE
  5
   37C
  8
0
  6
CONTINUOUS
 62
     7
 10
-398.212384912145
 20
173.66122379412
 30
0.0
 40
1.92509586887515
  0
LINE
  5
   37D
  8
0
  6
DASHDOT
 62
     3
 10
-395.237289061151
 20
173.66122379412
 30
0.0
 11
-401.187480763138
 21
173.66122379412
 31
0.0
  0
LINE
  5
   37E
  8
0
  6
DASHDOT
 62
     3
 10
-398.212384912145
 20
170.686127943127
 30
0.0
 11
-398.212384912145
 21
176.636319645114
 31
0.0
  0
LINE
  5
   37F
  8
0
  6
CONTINUOUS
 62
   130
 10
-383.293572606296
 20
161.411175613185
 30
0.0
 11
-383.293572606296
 21
162.286175598283
 31
0.0
  0
LINE
  5
   380
  8
0
  6
CONTINUOUS
 62
   130
 10
-383.293572606296
 20
162.286175598283
 30
0.0
 11
-384.693625988215
 21
162.286175598283
 31
0.0
  0
LINE
  5
   381
  8
0
  6
CONTINUOUS
 62
   130
 10
-384.693625988215
 20
162.286175598283
 30
0.0
 11
-384.693625988215
 21
165.589412694129
 31
0.0
  0
LINE
  5
   382
  8
0
  6
CONTINUOUS
 62
   130
 10
-385.743625970334
 20
162.286175598283
 30
0.0
 11
-385.743625970334
 21
165.30806580561
 31
0.0
  0
LINE
  5
   383
  8
0
  6
CONTINUOUS
 62
   130
 10
-385.743625970334
 20
162.286175598283
 30
0.0
 11
-387.143572540731
 21
162.286175598283
 31
0.0
  0
LINE
  5
   384
  8
0
  6
CONTINUOUS
 62
   130
 10
-387.143572540731
 20
161.411175613185
 30
0.0
 11
-387.143572540731
 21
162.286175598283
 31
0.0
  0
LINE
  5
   385
  8
0
  6
CONTINUOUS
 62
   130
 10
-385.743625970334
 20
165.30806580561
 30
0.0
 11
-389.183266719863
 21
171.265702728078
 31
0.0
  0
LINE
  5
   386
  8
0
  6
CONTINUOUS
 62
   130
 10
-384.693625988215
 20
165.589412694129
 30
0.0
 11
-388.131306746322
 21
171.543647669634
 31
0.0
  0
LINE
  5
   387
  8
0
  6
CONTINUOUS
 62
   130
 10
-388.131306746322
 20
171.543647669632
 30
0.0
 11
-388.203579955553
 21
193.82971121619
 31
0.0
  0
LINE
  5
   388
  8
0
  6
CONTINUOUS
 62
   130
 10
-389.183266719863
 20
171.265702728074
 30
0.0
 11
-389.110993729324
 21
193.668182062744
 31
0.0
  0
LINE
  5
   389
  8
0
  6
DASHDOT
 62
     7
 10
-388.657294743957
 20
171.114454140214
 30
0.0
 11
-388.657294743957
 21
211.449818014353
 31
0.0
  0
LINE
  5
   38A
  8
0
  6
CONTINUOUS
 62
     7
 10
-390.71775181448
 20
193.382162298894
 30
0.0
 11
-386.900799276591
 21
194.061619818728
 31
0.0
  0
LINE
  5
   38B
  8
0
  6
CONTINUOUS
 62
     7
 10
-390.671829251383
 20
194.264469608718
 30
0.0
 11
-386.868068827031
 21
194.941578794205
 31
0.0
  0
LINE
  5
   38C
  8
0
  6
CONTINUOUS
 62
   130
 10
-388.569805426599
 20
195.361185716172
 30
0.0
 11
-388.261758327963
 21
195.669240825672
 31
0.0
  0
LINE
  5
   38D
  8
0
  6
CONTINUOUS
 62
   130
 10
-388.259752941645
 20
195.051133231218
 30
0.0
 11
-388.569805426599
 21
195.361185716172
 31
0.0
  0
LINE
  5
   38E
  8
0
  6
CONTINUOUS
 62
   130
 10
-388.74478940189
 20
195.361185716172
 30
0.0
 11
-389.05259884489
 21
195.668995159172
 31
0.0
  0
LINE
  5
   38F
  8
0
  6
CONTINUOUS
 62
   130
 10
-389.054590879769
 20
195.051389578869
 30
0.0
 11
-388.74478940189
 21
195.361185716172
 31
0.0
  0
LINE
  5
   390
  8
0
  6
CONTINUOUS
 62
   130
 10
-388.25859589449
 20
194.694050415705
 30
0.0
 11
-388.307294749917
 21
209.71117479064
 31
0.0
  0
LINE
  5
   391
  8
0
  6
CONTINUOUS
 62
   130
 10
-389.056202372528
 20
194.552068110714
 30
0.0
 11
-389.007294737996
 21
209.711174790635
 31
0.0
  0
LINE
  5
   392
  8
0
  6
CONTINUOUS
 62
   130
 10
-388.307294749917
 20
209.71117479064
 30
0.0
 11
-389.007294737996
 21
209.71117479064
 31
0.0
  0
LINE
  5
   393
  8
0
  6
CONTINUOUS
 62
     3
 10
-401.187398773625
 20
159.486159744261
 30
0.0
 11
-401.187398773625
 21
161.061159717439
 31
0.0
  0
ARC
  5
   394
  8
0
  6
CONTINUOUS
 62
     3
 10
-400.837398779586
 20
161.061159717439
 30
0.0
 40
0.349999994039536
 50
89.9999999480344
 51
179.999999948034
  0
LINE
  5
   395
  8
0
  6
CONTINUOUS
 62
     7
 10
-337.749937619712
 20
69.3611998248149
 30
0.0
 11
-337.749937619712
 21
86.5986929089633
 31
0.0
  0
LINE
  5
   396
  8
0
  6
CONTINUOUS
 62
     1
 10
-389.724937539094
 20
90.8861874953682
 30
0.0
 11
-402.062436524477
 21
90.8861874953682
 31
0.0
  0
LINE
  5
   397
  8
0
  6
DOT
 62
   130
 10
-337.749937756651
 20
86.5986929089633
 30
0.0
 11
-337.749937756651
 21
142.946486291407
 31
0.0
  0
LINE
  5
   398
  8
0
  6
CONTINUOUS
 62
     1
 10
-389.724937539094
 20
91.2361874685461
 30
0.0
 11
-402.062436524477
 21
91.2361874685461
 31
0.0
  0
LINE
  5
   399
  8
0
  6
CONTINUOUS
 62
     1
 10
-380.747433820062
 20
96.5736820579346
 30
0.0
 11
-380.747433820062
 21
133.323681432086
 31
0.0
  0
LINE
  5
   39A
  8
0
  6
CONTINUOUS
 62
     1
 10
-343.752440858774
 20
96.5736820579346
 30
0.0
 11
-343.752440858774
 21
133.323681432086
 31
0.0
  0
LINE
  5
   39B
  8
0
  6
CONTINUOUS
 62
     1
 10
-380.099937035434
 20
142.946486291407
 30
0.0
 11
-380.099937035434
 21
148.461186514872
 31
0.0
  0
LINE
  5
   39C
  8
0
  6
CONTINUOUS
 62
     1
 10
-344.399937643402
 20
142.946486291407
 30
0.0
 11
-344.399937643402
 21
148.461186514872
 31
0.0
  0
LINE
  5
   39D
  8
0
  6
CONTINUOUS
 62
     1
 10
-344.399937643402
 20
148.461186514872
 30
0.0
 11
-380.099937035434
 21
148.461186514872
 31
0.0
  0
LINE
  5
   39E
  8
0
  6
CONTINUOUS
 62
     3
 10
-358.487437403493
 20
104.361181925314
 30
0.0
 11
-358.487437403493
 21
118.36117634632
 31
0.0
  0
LINE
  5
   39F
  8
0
  6
CONTINUOUS
 62
     3
 10
-366.012437275343
 20
104.361181925314
 30
0.0
 11
-366.012437275343
 21
118.36117634632
 31
0.0
  0
LINE
  5
   3A0
  8
0
  6
CONTINUOUS
 62
     7
 10
-358.487437403493
 20
107.398937193053
 30
0.0
 11
-366.012437275343
 21
107.398937193053
 31
0.0
  0
LINE
  5
   3A1
  8
0
  6
CONTINUOUS
 62
     7
 10
-358.487437403493
 20
109.130079575152
 30
0.0
 11
-366.012437275343
 21
109.130079575152
 31
0.0
  0
LINE
  5
   3A2
  8
0
  6
CONTINUOUS
 62
     1
 10
-389.724937539094
 20
133.323686772662
 30
0.0
 11
-402.062436661415
 21
133.323686772662
 31
0.0
  0
LINE
  5
   3A3
  8
0
  6
CONTINUOUS
 62
     1
 10
-389.724937539094
 20
96.5736820579346
 30
0.0
 11
-394.624936788075
 21
96.5736820579346
 31
0.0
  0
LINE
  5
   3A4
  8
0
  6
CONTINUOUS
 62
     1
 10
-395.499936773174
 20
128.598681512552
 30
0.0
 11
-395.499936773174
 21
130.34868148275
 31
0.0
  0
LINE
  5
   3A5
  8
0
  6
CONTINUOUS
 62
     1
 10
-394.624936788075
 20
128.598681512552
 30
0.0
 11
-395.499936773174
 21
128.598681512552
 31
0.0
  0
LINE
  5
   3A6
  8
0
  6
CONTINUOUS
 62
     1
 10
-394.624936788075
 20
128.598681512552
 30
0.0
 11
-394.624936788075
 21
130.34868148275
 31
0.0
  0
LINE
  5
   3A7
  8
0
  6
CONTINUOUS
 62
     1
 10
-394.624936788075
 20
130.34868148275
 30
0.0
 11
-395.499936773174
 21
130.34868148275
 31
0.0
  0
LINE
  5
   3A8
  8
0
  6
CONTINUOUS
 62
     1
 10
-395.499936773174
 20
95.8736870766456
 30
0.0
 11
-395.499936773174
 21
99.0236820162113
 31
0.0
  0
LINE
  5
   3A9
  8
0
  6
CONTINUOUS
 62
     1
 10
-394.624936788075
 20
95.8736870766456
 30
0.0
 11
-395.499936773174
 21
95.8736870766456
 31
0.0
  0
LINE
  5
   3AA
  8
0
  6
CONTINUOUS
 62
     1
 10
-394.624936788075
 20
95.8736870766456
 30
0.0
 11
-394.624936788075
 21
99.0236820162113
 31
0.0
  0
LINE
  5
   3AB
  8
0
  6
CONTINUOUS
 62
     1
 10
-394.624936788075
 20
99.0236820162113
 30
0.0
 11
-395.499936773174
 21
99.0236820162113
 31
0.0
  0
LINE
  5
   3AC
  8
0
  6
CONTINUOUS
 62
     1
 10
-394.974936782115
 20
128.598681512552
 30
0.0
 11
-394.974936782115
 21
130.34868148275
 31
0.0
  0
LINE
  5
   3AD
  8
0
  6
CONTINUOUS
 62
     1
 10
-394.974931441539
 20
95.8736870766456
 30
0.0
 11
-394.974931441539
 21
99.0236820162113
 31
0.0
  0
LINE
  5
   3AE
  8
0
  6
DASHDOT
 62
     7
 10
-362.249925178918
 20
61.8011806420273
 30
0.0
 11
-362.249925178918
 21
66.7711933283493
 31
0.0
  0
LINE
  5
   3AF
  8
0
  6
DASHDOT
 62
     7
 10
-362.249925178918
 20
161.551170188493
 30
0.0
 11
-362.249925178918
 21
166.521182874815
 31
0.0
  0
LINE
  5
   3B0
  8
0
  6
CONTINUOUS
 62
     2
 10
-338.143680201264
 20
149.336169196516
 30
0.0
 11
-401.66867911944
 21
149.336169196516
 31
0.0
  0
LINE
  5
   3B1
  8
0
  6
CONTINUOUS
 62
     2
 10
-392.988678199144
 20
91.2361874685461
 30
0.0
 11
-392.988678199144
 21
159.486163683087
 31
0.0
  0
LINE
  5
   3B2
  8
0
  6
CONTINUOUS
 62
     2
 10
-391.728679088446
 20
91.2361874685461
 30
0.0
 11
-391.728679088446
 21
159.486163683087
 31
0.0
  0
LINE
  5
   3B3
  8
0
  6
CONTINUOUS
 62
     2
 10
-390.468678976389
 20
91.2361874685461
 30
0.0
 11
-390.468678976389
 21
159.486163683087
 31
0.0
  0
LINE
  5
   3B4
  8
0
  6
CONTINUOUS
 62
     2
 10
-389.208679198118
 20
142.946486291407
 30
0.0
 11
-389.208679198118
 21
159.486163683087
 31
0.0
  0
LINE
  5
   3B5
  8
0
  6
CONTINUOUS
 62
     2
 10
-387.948679086061
 20
142.946486291407
 30
0.0
 11
-387.948679086061
 21
159.486163683087
 31
0.0
  0
LINE
  5
   3B6
  8
0
  6
CONTINUOUS
 62
     2
 10
-386.688679391237
 20
142.946486291407
 30
0.0
 11
-386.688679391237
 21
159.486163683087
 31
0.0
  0
LINE
  5
   3B7
  8
0
  6
CONTINUOUS
 62
     2
 10
-385.42867952952
 20
142.946486291407
 30
0.0
 11
-385.42867952952
 21
159.486163683087
 31
0.0
  0
LINE
  5
   3B8
  8
0
  6
CONTINUOUS
 62
     2
 10
-384.168679417463
 20
142.946486291407
 30
0.0
 11
-384.168679417463
 21
159.486163683087
 31
0.0
  0
LINE
  5
   3B9
  8
0
  6
CONTINUOUS
 62
     2
 10
-382.908679639192
 20
142.946486291407
 30
0.0
 11
-382.908679639192
 21
159.486163683087
 31
0.0
  0
LINE
  5
   3BA
  8
0
  6
CONTINUOUS
 62
     2
 10
-381.648679527136
 20
142.946486291407
 30
0.0
 11
-381.648679527136
 21
159.486163683087
 31
0.0
  0
LINE
  5
   3BB
  8
0
  6
CONTINUOUS
 62
     2
 10
-380.388683754297
 20
149.686169169694
 30
0.0
 11
-380.388683754297
 21
159.486163683087
 31
0.0
  0
LINE
  5
   3BC
  8
0
  6
CONTINUOUS
 62
     2
 10
-379.128681639524
 20
149.686169169694
 30
0.0
 11
-379.128681639524
 21
159.486163683087
 31
0.0
  0
LINE
  5
   3BD
  8
0
  6
CONTINUOUS
 62
     2
 10
-377.868679524751
 20
149.686169169694
 30
0.0
 11
-377.868679524751
 21
159.486163683087
 31
0.0
  0
LINE
  5
   3BE
  8
0
  6
CONTINUOUS
 62
     2
 10
-376.608682750555
 20
149.686169169694
 30
0.0
 11
-376.608682750555
 21
159.486163683087
 31
0.0
  0
LINE
  5
   3BF
  8
0
  6
CONTINUOUS
 62
     2
 10
-375.348680635782
 20
149.686169169694
 30
0.0
 11
-375.348680635782
 21
159.486163683087
 31
0.0
  0
LINE
  5
   3C0
  8
0
  6
CONTINUOUS
 62
     2
 10
-374.088683861585
 20
149.686169169694
 30
0.0
 11
-374.088683861585
 21
159.486163683087
 31
0.0
  0
LINE
  5
   3C1
  8
0
  6
CONTINUOUS
 62
     2
 10
-372.828681746813
 20
149.686169169694
 30
0.0
 11
-372.828681746813
 21
159.486163683087
 31
0.0
  0
LINE
  5
   3C2
  8
0
  6
CONTINUOUS
 62
     2
 10
-371.56867963204
 20
149.686169169694
 30
0.0
 11
-371.56867963204
 21
159.486163683087
 31
0.0
  0
LINE
  5
   3C3
  8
0
  6
CONTINUOUS
 62
     2
 10
-370.308682857843
 20
149.686169169694
 30
0.0
 11
-370.308682857843
 21
159.486163683087
 31
0.0
  0
LINE
  5
   3C4
  8
0
  6
CONTINUOUS
 62
     2
 10
-369.04868074307
 20
149.686169169694
 30
0.0
 11
-369.04868074307
 21
159.486163683087
 31
0.0
  0
LINE
  5
   3C5
  8
0
  6
CONTINUOUS
 62
     2
 10
-367.788683968874
 20
149.686169169694
 30
0.0
 11
-367.788683968874
 21
159.486163683087
 31
0.0
  0
LINE
  5
   3C6
  8
0
  6
CONTINUOUS
 62
     2
 10
-366.528681854101
 20
149.686169169694
 30
0.0
 11
-366.528681854101
 21
159.486163683087
 31
0.0
  0
LINE
  5
   3C7
  8
0
  6
CONTINUOUS
 62
     2
 10
-365.268679739328
 20
149.686169169694
 30
0.0
 11
-365.268679739328
 21
159.486163683087
 31
0.0
  0
LINE
  5
   3C8
  8
0
  6
CONTINUOUS
 62
     2
 10
-364.008682965131
 20
149.686169169694
 30
0.0
 11
-364.008682965131
 21
159.486163683087
 31
0.0
  0
LINE
  5
   3C9
  8
0
  6
CONTINUOUS
 62
     2
 10
-362.748680850359
 20
149.686169169694
 30
0.0
 11
-362.748680850359
 21
159.486163683087
 31
0.0
  0
LINE
  5
   3CA
  8
0
  6
CONTINUOUS
 62
     2
 10
-361.488684076162
 20
149.686169169694
 30
0.0
 11
-361.488684076162
 21
159.486163683087
 31
0.0
  0
LINE
  5
   3CB
  8
0
  6
CONTINUOUS
 62
     2
 10
-360.228681961389
 20
149.686169169694
 30
0.0
 11
-360.228681961389
 21
159.486163683087
 31
0.0
  0
LINE
  5
   3CC
  8
0
  6
CONTINUOUS
 62
     2
 10
-358.968679846617
 20
149.686169169694
 30
0.0
 11
-358.968679846617
 21
159.486163683087
 31
0.0
  0
LINE
  5
   3CD
  8
0
  6
CONTINUOUS
 62
     2
 10
-357.70868307242
 20
149.686169169694
 30
0.0
 11
-357.70868307242
 21
159.486163683087
 31
0.0
  0
LINE
  5
   3CE
  8
0
  6
CONTINUOUS
 62
     2
 10
-356.448680957647
 20
149.686169169694
 30
0.0
 11
-356.448680957647
 21
159.486163683087
 31
0.0
  0
LINE
  5
   3CF
  8
0
  6
CONTINUOUS
 62
     2
 10
-355.18868418345
 20
149.686169169694
 30
0.0
 11
-355.18868418345
 21
159.486163683087
 31
0.0
  0
LINE
  5
   3D0
  8
0
  6
CONTINUOUS
 62
     2
 10
-353.928682068678
 20
149.686169169694
 30
0.0
 11
-353.928682068678
 21
159.486163683087
 31
0.0
  0
LINE
  5
   3D1
  8
0
  6
CONTINUOUS
 62
     2
 10
-352.668679953905
 20
149.686169169694
 30
0.0
 11
-352.668679953905
 21
159.486163683087
 31
0.0
  0
LINE
  5
   3D2
  8
0
  6
CONTINUOUS
 62
     2
 10
-351.408683179708
 20
149.686169169694
 30
0.0
 11
-351.408683179708
 21
159.486163683087
 31
0.0
  0
LINE
  5
   3D3
  8
0
  6
CONTINUOUS
 62
     2
 10
-350.148681064935
 20
149.686169169694
 30
0.0
 11
-350.148681064935
 21
159.486163683087
 31
0.0
  0
LINE
  5
   3D4
  8
0
  6
CONTINUOUS
 62
     2
 10
-348.888684290739
 20
149.686169169694
 30
0.0
 11
-348.888684290739
 21
159.486163683087
 31
0.0
  0
LINE
  5
   3D5
  8
0
  6
CONTINUOUS
 62
     2
 10
-347.628682175966
 20
149.686169169694
 30
0.0
 11
-347.628682175966
 21
159.486163683087
 31
0.0
  0
LINE
  5
   3D6
  8
0
  6
CONTINUOUS
 62
     2
 10
-346.368680061193
 20
149.686169169694
 30
0.0
 11
-346.368680061193
 21
159.486163683087
 31
0.0
  0
LINE
  5
   3D7
  8
0
  6
CONTINUOUS
 62
     2
 10
-345.108683286997
 20
149.686169169694
 30
0.0
 11
-345.108683286997
 21
159.486163683087
 31
0.0
  0
LINE
  5
   3D8
  8
0
  6
CONTINUOUS
 62
     2
 10
-342.588684398027
 20
142.946486291407
 30
0.0
 11
-342.588684398027
 21
159.486163683087
 31
0.0
  0
LINE
  5
   3D9
  8
0
  6
CONTINUOUS
 62
     2
 10
-341.328682283254
 20
142.946486291407
 30
0.0
 11
-341.328682283254
 21
159.486163683087
 31
0.0
  0
LINE
  5
   3DA
  8
0
  6
CONTINUOUS
 62
     2
 10
-340.068680168482
 20
142.946486291407
 30
0.0
 11
-340.068680168482
 21
159.486163683087
 31
0.0
  0
LINE
  5
   3DB
  8
0
  6
CONTINUOUS
 62
     2
 10
-338.808683394285
 20
142.946486291407
 30
0.0
 11
-338.808683394285
 21
159.486163683087
 31
0.0
  0
LINE
  5
   3DC
  8
0
  6
CONTINUOUS
 62
     2
 10
-401.668673778864
 20
149.686169169694
 30
0.0
 11
-402.062436661415
 21
149.686169169694
 31
0.0
  0
LINE
  5
   3DD
  8
0
  6
CONTINUOUS
 62
     2
 10
-401.668679121171
 20
149.336169195894
 30
0.0
 11
-401.668673780596
 21
149.686169169051
 31
0.0
  0
LINE
  5
   3DE
  8
0
  6
CONTINUOUS
 62
     2
 10
-337.793680207225
 20
149.686169169694
 30
0.0
 11
-338.143680201264
 21
149.686169169694
 31
0.0
  0
LINE
  5
   3DF
  8
0
  6
CONTINUOUS
 62
     2
 10
-338.143680201264
 20
149.336169196516
 30
0.0
 11
-338.143680201264
 21
149.686169169694
 31
0.0
  0
LINE
  5
   3E0
  8
0
  6
CONTINUOUS
 62
     2
 10
-399.288678091856
 20
68.8361998337556
 30
0.0
 11
-399.288678091856
 21
90.5361994642067
 31
0.0
  0
LINE
  5
   3E1
  8
0
  6
CONTINUOUS
 62
     2
 10
-398.028675977083
 20
68.8361998337556
 30
0.0
 11
-398.028675977083
 21
90.5361994642067
 31
0.0
  0
LINE
  5
   3E2
  8
0
  6
CONTINUOUS
 62
     2
 10
-396.76867386231
 20
68.8361998337556
 30
0.0
 11
-396.76867386231
 21
90.5361994642067
 31
0.0
  0
LINE
  5
   3E3
  8
0
  6
CONTINUOUS
 62
     2
 10
-395.508677088114
 20
68.8361998337556
 30
0.0
 11
-395.508677088114
 21
90.5361994642067
 31
0.0
  0
LINE
  5
   3E4
  8
0
  6
CONTINUOUS
 62
     2
 10
-394.248674973341
 20
68.8361998337556
 30
0.0
 11
-394.248674973341
 21
90.5361994642067
 31
0.0
  0
LINE
  5
   3E5
  8
0
  6
CONTINUOUS
 62
     2
 10
-392.988678199144
 20
68.8361998337556
 30
0.0
 11
-392.988678199144
 21
90.5361994642067
 31
0.0
  0
LINE
  5
   3E6
  8
0
  6
CONTINUOUS
 62
     2
 10
-391.728679088445
 20
68.8361998337556
 30
0.0
 11
-391.728679088445
 21
90.5361994642067
 31
0.0
  0
LINE
  5
   3E7
  8
0
  6
CONTINUOUS
 62
     2
 10
-390.468678976389
 20
68.8361998337556
 30
0.0
 11
-390.468678976389
 21
90.5361994642067
 31
0.0
  0
LINE
  5
   3E8
  8
0
  6
CONTINUOUS
 62
     2
 10
-389.208679198118
 20
68.8361998337556
 30
0.0
 11
-389.208679198118
 21
86.5986929089633
 31
0.0
  0
LINE
  5
   3E9
  8
0
  6
CONTINUOUS
 62
     2
 10
-387.948679086061
 20
68.8361998337556
 30
0.0
 11
-387.948679086061
 21
86.5986929089633
 31
0.0
  0
LINE
  5
   3EA
  8
0
  6
CONTINUOUS
 62
     2
 10
-386.688679391237
 20
68.8361998337556
 30
0.0
 11
-386.688679391237
 21
86.5986929089633
 31
0.0
  0
LINE
  5
   3EB
  8
0
  6
CONTINUOUS
 62
     2
 10
-385.42867952952
 20
68.8361998337556
 30
0.0
 11
-385.42867952952
 21
86.5986929089633
 31
0.0
  0
LINE
  5
   3EC
  8
0
  6
CONTINUOUS
 62
     2
 10
-384.168679417463
 20
68.8361998337556
 30
0.0
 11
-384.168679417463
 21
86.5986929089633
 31
0.0
  0
LINE
  5
   3ED
  8
0
  6
CONTINUOUS
 62
     2
 10
-382.908679639192
 20
68.8361998337556
 30
0.0
 11
-382.908679639192
 21
86.5986929089633
 31
0.0
  0
LINE
  5
   3EE
  8
0
  6
CONTINUOUS
 62
     2
 10
-381.648679527136
 20
68.8361998337556
 30
0.0
 11
-381.648679527136
 21
86.5986929089633
 31
0.0
  0
LINE
  5
   3EF
  8
0
  6
CONTINUOUS
 62
     2
 10
-380.388683754297
 20
68.8361998337556
 30
0.0
 11
-380.388683754297
 21
78.6361943471481
 31
0.0
  0
LINE
  5
   3F0
  8
0
  6
CONTINUOUS
 62
     2
 10
-379.128681639524
 20
68.8361998337556
 30
0.0
 11
-379.128681639524
 21
78.6361943471481
 31
0.0
  0
LINE
  5
   3F1
  8
0
  6
CONTINUOUS
 62
     2
 10
-377.868679524751
 20
68.8361998337556
 30
0.0
 11
-377.868679524751
 21
78.6361943471481
 31
0.0
  0
LINE
  5
   3F2
  8
0
  6
CONTINUOUS
 62
     2
 10
-376.608682750555
 20
68.8361998337556
 30
0.0
 11
-376.608682750555
 21
78.6361943471482
 31
0.0
  0
LINE
  5
   3F3
  8
0
  6
CONTINUOUS
 62
     2
 10
-375.348680635782
 20
68.8361998337556
 30
0.0
 11
-375.348680635782
 21
78.6361943471481
 31
0.0
  0
LINE
  5
   3F4
  8
0
  6
CONTINUOUS
 62
     2
 10
-374.088683861585
 20
68.8361998337556
 30
0.0
 11
-374.088683861585
 21
78.6361943471481
 31
0.0
  0
LINE
  5
   3F5
  8
0
  6
CONTINUOUS
 62
     2
 10
-372.828681746812
 20
68.8361998337556
 30
0.0
 11
-372.828681746812
 21
78.6361943471481
 31
0.0
  0
LINE
  5
   3F6
  8
0
  6
CONTINUOUS
 62
     2
 10
-371.56867963204
 20
68.8361998337556
 30
0.0
 11
-371.56867963204
 21
78.6361943471481
 31
0.0
  0
LINE
  5
   3F7
  8
0
  6
CONTINUOUS
 62
     2
 10
-370.308682857843
 20
68.8361998337556
 30
0.0
 11
-370.308682857843
 21
78.6361943471481
 31
0.0
  0
LINE
  5
   3F8
  8
0
  6
CONTINUOUS
 62
     2
 10
-369.04868074307
 20
68.8361998337556
 30
0.0
 11
-369.04868074307
 21
78.6361943471481
 31
0.0
  0
LINE
  5
   3F9
  8
0
  6
CONTINUOUS
 62
     2
 10
-367.788683968874
 20
68.8361998337556
 30
0.0
 11
-367.788683968874
 21
78.6361943471481
 31
0.0
  0
LINE
  5
   3FA
  8
0
  6
CONTINUOUS
 62
     2
 10
-366.528681854101
 20
68.8361998337556
 30
0.0
 11
-366.528681854101
 21
78.6361943471481
 31
0.0
  0
LINE
  5
   3FB
  8
0
  6
CONTINUOUS
 62
     2
 10
-365.268679739328
 20
68.8361998337556
 30
0.0
 11
-365.268679739328
 21
78.6361943471481
 31
0.0
  0
LINE
  5
   3FC
  8
0
  6
CONTINUOUS
 62
     2
 10
-364.008682965131
 20
68.8361998337556
 30
0.0
 11
-364.008682965131
 21
78.6361943471481
 31
0.0
  0
LINE
  5
   3FD
  8
0
  6
CONTINUOUS
 62
     2
 10
-362.748680850359
 20
68.8361998337556
 30
0.0
 11
-362.748680850359
 21
78.6361943471481
 31
0.0
  0
LINE
  5
   3FE
  8
0
  6
CONTINUOUS
 62
     2
 10
-361.488684076162
 20
68.8361998337556
 30
0.0
 11
-361.488684076162
 21
78.6361943471481
 31
0.0
  0
LINE
  5
   3FF
  8
0
  6
CONTINUOUS
 62
     2
 10
-360.228681961389
 20
68.8361998337556
 30
0.0
 11
-360.228681961389
 21
78.6361943471481
 31
0.0
  0
LINE
  5
   400
  8
0
  6
CONTINUOUS
 62
     2
 10
-358.968679846616
 20
68.8361998337556
 30
0.0
 11
-358.968679846616
 21
78.6361943471481
 31
0.0
  0
LINE
  5
   401
  8
0
  6
CONTINUOUS
 62
     2
 10
-357.70868307242
 20
68.8361998337556
 30
0.0
 11
-357.70868307242
 21
78.6361943471481
 31
0.0
  0
LINE
  5
   402
  8
0
  6
CONTINUOUS
 62
     2
 10
-356.448680957647
 20
68.8361998337556
 30
0.0
 11
-356.448680957647
 21
78.6361943471481
 31
0.0
  0
LINE
  5
   403
  8
0
  6
CONTINUOUS
 62
     2
 10
-355.18868418345
 20
68.8361998337556
 30
0.0
 11
-355.18868418345
 21
78.6361943471481
 31
0.0
  0
LINE
  5
   404
  8
0
  6
CONTINUOUS
 62
     2
 10
-353.928682068678
 20
68.8361998337556
 30
0.0
 11
-353.928682068678
 21
78.6361943471481
 31
0.0
  0
LINE
  5
   405
  8
0
  6
CONTINUOUS
 62
     2
 10
-352.668679953905
 20
68.8361998337556
 30
0.0
 11
-352.668679953905
 21
78.6361943471481
 31
0.0
  0
LINE
  5
   406
  8
0
  6
CONTINUOUS
 62
     2
 10
-351.408683179708
 20
68.8361998337556
 30
0.0
 11
-351.408683179708
 21
78.6361943471481
 31
0.0
  0
LINE
  5
   407
  8
0
  6
CONTINUOUS
 62
     2
 10
-350.148681064935
 20
68.8361998337556
 30
0.0
 11
-350.148681064935
 21
78.6361943471481
 31
0.0
  0
LINE
  5
   408
  8
0
  6
CONTINUOUS
 62
     2
 10
-348.888684290739
 20
68.8361998337556
 30
0.0
 11
-348.888684290739
 21
78.6361943471481
 31
0.0
  0
LINE
  5
   409
  8
0
  6
CONTINUOUS
 62
     2
 10
-347.628682175966
 20
68.8361998337556
 30
0.0
 11
-347.628682175966
 21
78.6361943471481
 31
0.0
  0
LINE
  5
   40A
  8
0
  6
CONTINUOUS
 62
     2
 10
-346.368680061193
 20
68.8361998337556
 30
0.0
 11
-346.368680061193
 21
78.6361943471481
 31
0.0
  0
LINE
  5
   40B
  8
0
  6
CONTINUOUS
 62
     2
 10
-345.108683286997
 20
68.8361998337556
 30
0.0
 11
-345.108683286997
 21
78.6361943471481
 31
0.0
  0
LINE
  5
   40C
  8
0
  6
CONTINUOUS
 62
     2
 10
-343.848681172224
 20
68.8361998337556
 30
0.0
 11
-343.848681172224
 21
86.5986929089633
 31
0.0
  0
LINE
  5
   40D
  8
0
  6
CONTINUOUS
 62
     2
 10
-342.588684398027
 20
68.8361998337556
 30
0.0
 11
-342.588684398027
 21
86.5986929089633
 31
0.0
  0
LINE
  5
   40E
  8
0
  6
CONTINUOUS
 62
     2
 10
-341.328682283254
 20
68.8361998337556
 30
0.0
 11
-341.328682283254
 21
86.5986929089633
 31
0.0
  0
LINE
  5
   40F
  8
0
  6
CONTINUOUS
 62
     2
 10
-340.068680168482
 20
68.8361998337556
 30
0.0
 11
-340.068680168482
 21
86.5986929089633
 31
0.0
  0
LINE
  5
   410
  8
0
  6
CONTINUOUS
 62
     2
 10
-338.808683394285
 20
68.8361998337556
 30
0.0
 11
-338.808683394285
 21
86.5986929089633
 31
0.0
  0
LINE
  5
   411
  8
0
  6
CONTINUOUS
 62
     2
 10
-401.668673778864
 20
78.6361943471481
 30
0.0
 11
-402.018673772903
 21
78.6361943471481
 31
0.0
  0
LINE
  5
   412
  8
0
  6
CONTINUOUS
 62
     2
 10
-337.793680207225
 20
78.6361943471481
 30
0.0
 11
-338.143680201264
 21
78.6361943471481
 31
0.0
  0
LINE
  5
   413
  8
0
  6
CONTINUOUS
 62
     2
 10
-338.143680201264
 20
78.6361943471482
 30
0.0
 11
-338.143680201264
 21
78.9861943203261
 31
0.0
  0
ARC
  5
   414
  8
0
  6
CONTINUOUS
 62
     7
 10
-401.537420169694
 20
158.961163692028
 30
0.0
 40
0.524999991059303
 50
89.9999999480344
 51
179.999999948034
  0
ARC
  5
   415
  8
0
  6
CONTINUOUS
 62
     7
 10
-338.274926586151
 20
158.961163692028
 30
0.0
 40
0.524999991059303
 50
359.999999948034
 51
449.999999948034
  0
ARC
  5
   416
  8
0
  6
CONTINUOUS
 62
     7
 10
-338.274937610771
 20
69.3611998248149
 30
0.0
 40
0.524999991059303
 50
269.999999948034
 51
359.999999948034
  0
LINE
  5
   417
  8
0
  6
CONTINUOUS
 62
     5
 10
-380.574259201371
 20
133.097441466954
 30
0.0
 11
-380.450512710791
 21
133.148705657561
 31
0.0
  0
LINE
  5
   418
  8
0
  6
CONTINUOUS
 62
     5
 10
-380.625507683437
 20
132.973691461817
 30
0.0
 11
-380.574254174896
 21
133.097437952682
 31
0.0
  0
LINE
  5
   419
  8
0
  6
CONTINUOUS
 62
     5
 10
-380.625513328304
 20
96.5736780525025
 30
0.0
 11
-380.625513328304
 21
96.7486887306745
 31
0.0
  0
LINE
  5
   41A
  8
0
  6
CONTINUOUS
 62
     5
 10
-380.625507987728
 20
128.948665484863
 30
0.0
 11
-380.625507987728
 21
132.973692119198
 31
0.0
  0
LINE
  5
   41B
  8
0
  6
CONTINUOUS
 62
     5
 10
-380.574256174194
 20
96.4499356450732
 30
0.0
 11
-380.625515023685
 21
96.5736794655376
 31
0.0
  0
LINE
  5
   41C
  8
0
  6
CONTINUOUS
 62
     5
 10
-380.450514952481
 20
96.3986979319794
 30
0.0
 11
-380.497885862486
 21
96.4183125330613
 31
0.0
  0
LINE
  5
   41D
  8
0
  6
CONTINUOUS
 62
     5
 10
-380.49788691193
 20
96.4183129520368
 30
0.0
 11
-380.574251811148
 21
96.4499331671081
 31
0.0
  0
LINE
  5
   41E
  8
0
  6
CONTINUOUS
 62
     5
 10
-344.050489918589
 20
96.3986621515257
 30
0.0
 11
-354.725492407083
 21
96.3986621515257
 31
0.0
  0
LINE
  5
   41F
  8
0
  6
CONTINUOUS
 62
     5
 10
-380.275507993688
 20
96.3986994177871
 30
0.0
 11
-380.45051867186
 21
96.3986994177871
 31
0.0
  0
LINE
  5
   420
  8
0
  6
CONTINUOUS
 62
     5
 10
-344.050490190962
 20
96.3986742680971
 30
0.0
 11
-343.926746371676
 21
96.4499317803551
 31
0.0
  0
LINE
  5
   421
  8
0
  6
CONTINUOUS
 62
     5
 10
-343.926746393063
 20
96.4499324180878
 30
0.0
 11
-343.875486210323
 21
96.5736762397266
 31
0.0
  0
LINE
  5
   422
  8
0
  6
CONTINUOUS
 62
     5
 10
-343.875494821824
 20
132.973694722578
 30
0.0
 11
-343.926763016352
 21
133.097441208623
 31
0.0
  0
LINE
  5
   423
  8
0
  6
CONTINUOUS
 62
     5
 10
-343.926760437616
 20
133.097436192107
 30
0.0
 11
-344.050502916611
 21
133.148689700719
 31
0.0
  0
LINE
  5
   424
  8
0
  6
CONTINUOUS
 62
     5
 10
-344.050503270025
 20
133.148687463585
 30
0.0
 11
-380.450507990713
 21
133.148687463585
 31
0.0
  0
LINE
  5
   425
  8
0
  6
CONTINUOUS
 62
     2
 10
-353.430512189259
 20
100.049366355433
 30
0.0
 11
-353.430512189259
 21
102.897944187782
 31
0.0
  0
LINE
  5
   426
  8
0
  6
CONTINUOUS
 62
     2
 10
-352.941257041804
 20
99.4870066452685
 30
0.0
 11
-353.430509878482
 21
100.049363972502
 31
0.0
  0
LINE
  5
   427
  8
0
  6
CONTINUOUS
 62
     2
 10
-352.313624504226
 20
99.0848244481128
 30
0.0
 11
-352.941257035318
 21
99.4870072142621
 31
0.0
  0
LINE
  5
   428
  8
0
  6
CONTINUOUS
 62
     2
 10
-351.598248174665
 20
98.8752831396068
 30
0.0
 11
-352.313626331289
 21
99.0848259796872
 31
0.0
  0
LINE
  5
   429
  8
0
  6
CONTINUOUS
 62
     2
 10
-350.852813716311
 20
98.8752834286506
 30
0.0
 11
-351.598248655399
 21
98.8752834286506
 31
0.0
  0
LINE
  5
   42A
  8
0
  6
CONTINUOUS
 62
     2
 10
-350.85281657592
 20
98.8752848973393
 30
0.0
 11
-350.137437050177
 21
99.0848250789799
 31
0.0
  0
LINE
  5
   42B
  8
0
  6
CONTINUOUS
 62
     2
 10
-350.137433055189
 20
99.0848226827603
 30
0.0
 11
-349.509800524097
 21
99.4870054489096
 31
0.0
  0
LINE
  5
   42C
  8
0
  6
CONTINUOUS
 62
     2
 10
-349.509801529172
 20
99.4870061423002
 30
0.0
 11
-349.020528671183
 21
100.049398186761
 31
0.0
  0
LINE
  5
   42D
  8
0
  6
CONTINUOUS
 62
     2
 10
-349.020528820476
 20
100.049398401196
 30
0.0
 11
-349.020512798749
 21
102.89796021153
 31
0.0
  0
LINE
  5
   42E
  8
0
  6
CONTINUOUS
 62
     2
 10
-349.020513645722
 20
102.897961236298
 30
0.0
 11
-349.509786496619
 21
103.460339931504
 31
0.0
  0
LINE
  5
   42F
  8
0
  6
CONTINUOUS
 62
     2
 10
-349.509785846112
 20
103.460339053655
 30
0.0
 11
-350.137417038123
 21
103.86252181154
 31
0.0
  0
LINE
  5
   430
  8
0
  6
CONTINUOUS
 62
     2
 10
-350.137418489506
 20
103.862522837036
 30
0.0
 11
-350.852796680727
 21
104.072063000063
 31
0.0
  0
LINE
  5
   431
  8
0
  6
CONTINUOUS
 62
     2
 10
-350.852795024295
 20
104.072061828309
 30
0.0
 11
-351.598229963383
 21
104.072061828309
 31
0.0
  0
LINE
  5
   432
  8
0
  6
CONTINUOUS
 62
     2
 10
-352.313609394974
 20
103.862522449269
 30
0.0
 11
-351.598231203753
 21
104.072062612296
 31
0.0
  0
LINE
  5
   433
  8
0
  6
CONTINUOUS
 62
     2
 10
-352.941239376548
 20
103.460337776345
 30
0.0
 11
-352.313606845456
 21
103.862520542494
 31
0.0
  0
LINE
  5
   434
  8
0
  6
CONTINUOUS
 62
     2
 10
-353.430511075738
 20
102.897942765838
 30
0.0
 11
-352.941239539233
 21
103.460337468941
 31
0.0
  0
LINE
  5
   435
  8
0
  6
CONTINUOUS
 62
     2
 10
-354.725492416107
 20
128.948670825542
 30
0.0
 11
-343.875493933371
 21
128.948692187845
 31
0.0
  0
LINE
  5
   436
  8
0
  6
CONTINUOUS
 62
     2
 10
-343.875493926992
 20
132.448692128139
 30
0.0
 11
-380.625514663448
 21
132.448692128139
 31
0.0
  0
LINE
  5
   437
  8
0
  6
CONTINUOUS
 62
     2
 10
-347.898946874656
 20
126.41114649137
 30
0.0
 11
-347.938910403959
 21
126.612058961904
 31
0.0
  0
LINE
  5
   438
  8
0
  6
CONTINUOUS
 62
     2
 10
-347.938911677013
 20
126.612062716813
 30
0.0
 11
-348.052716684972
 21
126.782384367156
 31
0.0
  0
LINE
  5
   439
  8
0
  6
CONTINUOUS
 62
     2
 10
-348.052716829966
 20
126.782384333712
 30
0.0
 11
-348.223039816384
 21
126.896186666705
 31
0.0
  0
LINE
  5
   43A
  8
0
  6
CONTINUOUS
 62
     2
 10
-348.223042225095
 20
126.896189349588
 30
0.0
 11
-348.423950694234
 21
126.936152878899
 31
0.0
  0
LINE
  5
   43B
  8
0
  6
CONTINUOUS
 62
     2
 10
-348.624858021779
 20
126.896188891352
 30
0.0
 11
-348.423949552639
 21
126.936152420662
 31
0.0
  0
LINE
  5
   43C
  8
0
  6
CONTINUOUS
 62
     2
 10
-348.795179310207
 20
126.782384164035
 30
0.0
 11
-348.624856323789
 21
126.896186497028
 31
0.0
  0
LINE
  5
   43D
  8
0
  6
CONTINUOUS
 62
     2
 10
-348.908984243185
 20
126.612062570417
 30
0.0
 11
-348.795179235226
 21
126.782384220759
 31
0.0
  0
LINE
  5
   43E
  8
0
  6
CONTINUOUS
 62
     2
 10
-348.948947390964
 20
126.411146719903
 30
0.0
 11
-348.908983861661
 21
126.612059190437
 31
0.0
  0
LINE
  5
   43F
  8
0
  6
CONTINUOUS
 62
     2
 10
-348.94894774379
 20
125.36114952423
 30
0.0
 11
-348.94894774379
 21
126.411149506349
 31
0.0
  0
LINE
  5
   440
  8
0
  6
CONTINUOUS
 62
     2
 10
-348.908982686872
 20
125.160237453284
 30
0.0
 11
-348.948946217196
 21
125.361144580598
 31
0.0
  0
LINE
  5
   441
  8
0
  6
CONTINUOUS
 62
     2
 10
-348.795179594416
 20
124.989921460176
 30
0.0
 11
-348.908984602375
 21
125.160243110519
 31
0.0
  0
LINE
  5
   442
  8
0
  6
CONTINUOUS
 62
     2
 10
-348.6248533274
 20
124.876109358513
 30
0.0
 11
-348.795176315704
 21
124.989917036213
 31
0.0
  0
LINE
  5
   443
  8
0
  6
CONTINUOUS
 62
     2
 10
-348.423950691827
 20
124.83615279015
 30
0.0
 11
-348.624859160966
 21
124.876116319461
 31
0.0
  0
LINE
  5
   444
  8
0
  6
CONTINUOUS
 62
     2
 10
-348.423949555046
 20
124.836152331914
 30
0.0
 11
-348.223041085907
 21
124.876115861224
 31
0.0
  0
LINE
  5
   445
  8
0
  6
CONTINUOUS
 62
     2
 10
-348.223038724428
 20
124.87611029375
 30
0.0
 11
-348.052715736125
 21
124.98991797145
 31
0.0
  0
LINE
  5
   446
  8
0
  6
CONTINUOUS
 62
     2
 10
-348.052716325782
 20
124.989921313779
 30
0.0
 11
-347.938911317823
 21
125.160242964122
 31
0.0
  0
LINE
  5
   447
  8
0
  6
CONTINUOUS
 62
     2
 10
-347.938910741402
 20
125.16023783617
 30
0.0
 11
-347.898947211078
 21
125.361144963484
 31
0.0
  0
LINE
  5
   448
  8
0
  6
CONTINUOUS
 62
     2
 10
-347.898947761672
 20
125.36114952423
 30
0.0
 11
-347.898947761672
 21
126.411149506349
 31
0.0
  0
LINE
  5
   449
  8
0
  6
CONTINUOUS
 62
     2
 10
-347.900492523303
 20
117.836157663244
 30
0.0
 11
-348.950492505422
 21
117.836157663244
 31
0.0
  0
LINE
  5
   44A
  8
0
  6
CONTINUOUS
 62
     2
 10
-348.950492505422
 20
108.386157824177
 30
0.0
 11
-348.950492505422
 21
117.836157663244
 31
0.0
  0
LINE
  5
   44B
  8
0
  6
CONTINUOUS
 62
     2
 10
-347.900492523303
 20
108.386157824177
 30
0.0
 11
-348.950492505422
 21
108.386157824177
 31
0.0
  0
LINE
  5
   44C
  8
0
  6
CONTINUOUS
 62
     2
 10
-347.900492523303
 20
108.386157824177
 30
0.0
 11
-347.900492523303
 21
117.836157663244
 31
0.0
  0
LINE
  5
   44D
  8
0
  6
CONTINUOUS
 62
     5
 10
-355.425492395153
 20
97.623667353469
 30
0.0
 11
-355.425492395153
 21
127.898666837889
 31
0.0
  0
LINE
  5
   44E
  8
0
  6
CONTINUOUS
 62
     2
 10
-354.725492407074
 20
128.948665484863
 30
0.0
 11
-379.400518689742
 21
128.948665484863
 31
0.0
  0
LINE
  5
   44F
  8
0
  6
CONTINUOUS
 62
     5
 10
-355.775492389193
 20
128.248665496784
 30
0.0
 11
-379.400518689742
 21
128.248665496784
 31
0.0
  0
LINE
  5
   450
  8
0
  6
CONTINUOUS
 62
     5
 10
-355.425491254383
 20
127.898663944559
 30
0.0
 11
-355.775491236442
 21
128.248663926619
 31
0.0
  0
LINE
  5
   451
  8
0
  6
CONTINUOUS
 62
     5
 10
-379.750519128284
 20
127.898666345438
 30
0.0
 11
-379.648006770231
 21
128.146153981648
 31
0.0
  0
LINE
  5
   452
  8
0
  6
CONTINUOUS
 62
     5
 10
-379.648007158682
 20
128.146153590005
 30
0.0
 11
-379.400519522473
 21
128.248665948057
 31
0.0
  0
LINE
  5
   453
  8
0
  6
CONTINUOUS
 62
     2
 10
-379.400518688012
 20
128.948665485364
 30
0.0
 11
-380.625513325551
 21
128.94867082594
 31
0.0
  0
LINE
  5
   454
  8
0
  6
CONTINUOUS
 62
     5
 10
-355.075492402279
 20
96.3985899361405
 30
0.0
 11
-380.275513335494
 21
96.3986914070829
 31
0.0
  0
LINE
  5
   455
  8
0
  6
CONTINUOUS
 62
     5
 10
-354.7254924132
 20
96.3985845977437
 30
0.0
 11
-355.075492407234
 21
96.3985899383198
 31
0.0
  0
LINE
  5
   456
  8
0
  6
CONTINUOUS
 62
     5
 10
-355.528005012803
 20
97.3761800376368
 30
0.0
 11
-355.425492654751
 21
97.6236676738464
 31
0.0
  0
LINE
  5
   457
  8
0
  6
CONTINUOUS
 62
     5
 10
-355.775492859295
 20
97.273667517271
 30
0.0
 11
-355.528005223085
 21
97.3761798753234
 31
0.0
  0
LINE
  5
   458
  8
0
  6
CONTINUOUS
 62
     5
 10
-355.775492389193
 20
97.2736673594294
 30
0.0
 11
-379.400518689742
 21
97.2736673594294
 31
0.0
  0
LINE
  5
   459
  8
0
  6
CONTINUOUS
 62
     5
 10
-379.400519803146
 20
97.2736678182812
 30
0.0
 11
-379.648007439356
 21
97.3761801763336
 31
0.0
  0
LINE
  5
   45A
  8
0
  6
CONTINUOUS
 62
     5
 10
-379.648007048853
 20
97.3761803406986
 30
0.0
 11
-379.750519406905
 21
97.6236679769082
 31
0.0
  0
LINE
  5
   45B
  8
0
  6
CONTINUOUS
 62
     5
 10
-366.013000225713
 20
103.811022480338
 30
0.0
 11
-366.013000225713
 21
118.433015105472
 31
0.0
  0
LINE
  5
   45C
  8
0
  6
CONTINUOUS
 62
     5
 10
-358.488000353863
 20
103.811022480338
 30
0.0
 11
-358.488000353863
 21
118.433015105472
 31
0.0
  0
LINE
  5
   45D
  8
0
  6
CONTINUOUS
 62
     2
 10
-345.625488556614
 20
105.82080409284
 30
0.0
 11
-346.325488544693
 21
105.82080409284
 31
0.0
  0
LINE
  5
   45E
  8
0
  6
CONTINUOUS
 62
     2
 10
-346.44923261479
 20
105.769548212565
 30
0.0
 11
-346.325488796685
 21
105.820804391591
 31
0.0
  0
LINE
  5
   45F
  8
0
  6
CONTINUOUS
 62
     2
 10
-346.500488657077
 20
105.64580461765
 30
0.0
 11
-346.449232478051
 21
105.769548435755
 31
0.0
  0
LINE
  5
   460
  8
0
  6
CONTINUOUS
 62
     2
 10
-346.500488541713
 20
101.795804161385
 30
0.0
 11
-346.500488541713
 21
105.64580409582
 31
0.0
  0
LINE
  5
   461
  8
0
  6
CONTINUOUS
 62
     2
 10
-346.449232688148
 20
101.672060925628
 30
0.0
 11
-346.500488867174
 21
101.795804743732
 31
0.0
  0
LINE
  5
   462
  8
0
  6
CONTINUOUS
 62
     2
 10
-346.325489007809
 20
101.620804550213
 30
0.0
 11
-346.449232825913
 21
101.672060729239
 31
0.0
  0
LINE
  5
   463
  8
0
  6
CONTINUOUS
 62
     2
 10
-345.625488556614
 20
101.620804164365
 30
0.0
 11
-346.325488544693
 21
101.620804164365
 31
0.0
  0
LINE
  5
   464
  8
0
  6
CONTINUOUS
 62
     2
 10
-345.100488565555
 20
101.620804164365
 30
0.0
 11
-345.625488556614
 21
101.620804164365
 31
0.0
  0
LINE
  5
   465
  8
0
  6
CONTINUOUS
 62
     2
 10
-345.100488806328
 20
101.620804416467
 30
0.0
 11
-344.976744988223
 21
101.672060595493
 31
0.0
  0
LINE
  5
   466
  8
0
  6
CONTINUOUS
 62
     2
 10
-344.976744859115
 20
101.672060790856
 30
0.0
 11
-344.925488680089
 21
101.795804608961
 31
0.0
  0
LINE
  5
   467
  8
0
  6
CONTINUOUS
 62
     2
 10
-344.925488568535
 20
101.795804161385
 30
0.0
 11
-344.925488568535
 21
105.64580409582
 31
0.0
  0
LINE
  5
   468
  8
0
  6
CONTINUOUS
 62
     2
 10
-344.925488890186
 20
105.645804752421
 30
0.0
 11
-344.976745069213
 21
105.769548570526
 31
0.0
  0
LINE
  5
   469
  8
0
  6
CONTINUOUS
 62
     2
 10
-344.976745199346
 20
105.769548346311
 30
0.0
 11
-345.100489017451
 21
105.820804525337
 31
0.0
  0
LINE
  5
   46A
  8
0
  6
CONTINUOUS
 62
     2
 10
-345.100488565555
 20
105.82080409284
 30
0.0
 11
-345.625488556614
 21
105.82080409284
 31
0.0
  0
LINE
  5
   46B
  8
0
  6
CONTINUOUS
 62
     5
 10
-355.425508416881
 20
119.49867365666
 30
0.0
 11
-355.425508416881
 21
119.8486736507
 31
0.0
  0
LINE
  5
   46C
  8
0
  6
CONTINUOUS
 62
     2
 10
-355.425508416881
 20
119.8486736507
 30
0.0
 11
-379.750524024357
 21
119.8486736507
 31
0.0
  0
LINE
  5
   46D
  8
0
  6
CONTINUOUS
 62
     2
 10
-355.425508416881
 20
119.49867365666
 30
0.0
 11
-379.750524024357
 21
119.49867365666
 31
0.0
  0
LINE
  5
   46E
  8
0
  6
CONTINUOUS
 62
     5
 10
-355.425508416881
 20
102.348673948723
 30
0.0
 11
-355.425508416881
 21
102.698673942762
 31
0.0
  0
LINE
  5
   46F
  8
0
  6
CONTINUOUS
 62
     2
 10
-355.425508416881
 20
102.698673942762
 30
0.0
 11
-379.750524024357
 21
102.698673942762
 31
0.0
  0
LINE
  5
   470
  8
0
  6
CONTINUOUS
 62
     2
 10
-355.425508416881
 20
102.348673948723
 30
0.0
 11
-379.750524024357
 21
102.348673948723
 31
0.0
  0
LINE
  5
   471
  8
0
  6
CONTINUOUS
 62
     2
 10
-366.013010906865
 20
115.298673728186
 30
0.0
 11
-379.750524024357
 21
115.298673728186
 31
0.0
  0
LINE
  5
   472
  8
0
  6
CONTINUOUS
 62
     2
 10
-366.013010906865
 20
114.948673734146
 30
0.0
 11
-379.750524024357
 21
114.948673734146
 31
0.0
  0
LINE
  5
   473
  8
0
  6
CONTINUOUS
 62
     2
 10
-366.013013577153
 20
107.248673865276
 30
0.0
 11
-379.750524024357
 21
107.248673865276
 31
0.0
  0
LINE
  5
   474
  8
0
  6
CONTINUOUS
 62
     2
 10
-366.013013577153
 20
106.898673871237
 30
0.0
 11
-379.750524024357
 21
106.898673871237
 31
0.0
  0
LINE
  5
   475
  8
0
  6
CONTINUOUS
 62
     5
 10
-355.425505746593
 20
114.948673734146
 30
0.0
 11
-355.425505746593
 21
115.298673728186
 31
0.0
  0
LINE
  5
   476
  8
0
  6
CONTINUOUS
 62
     2
 10
-355.425505746593
 20
115.298673728186
 30
0.0
 11
-358.488000353863
 21
115.298673728186
 31
0.0
  0
LINE
  5
   477
  8
0
  6
CONTINUOUS
 62
     2
 10
-355.425505746593
 20
114.948673734146
 30
0.0
 11
-358.488000353863
 21
114.948673734146
 31
0.0
  0
LINE
  5
   478
  8
0
  6
CONTINUOUS
 62
     5
 10
-355.425505746593
 20
106.898673871237
 30
0.0
 11
-355.425505746593
 21
107.248673865276
 31
0.0
  0
LINE
  5
   479
  8
0
  6
CONTINUOUS
 62
     2
 10
-355.425505746593
 20
107.248673865276
 30
0.0
 11
-358.488000353863
 21
107.248673865276
 31
0.0
  0
LINE
  5
   47A
  8
0
  6
CONTINUOUS
 62
     2
 10
-355.425505746593
 20
106.898673871237
 30
0.0
 11
-358.488000353863
 21
106.898673871237
 31
0.0
  0
LINE
  5
   47B
  8
0
  6
CONTINUOUS
 62
   130
 10
-327.074925191403
 20
141.111186640042
 30
0.0
 11
-327.424920428992
 21
141.111186640042
 31
0.0
  0
LINE
  5
   47C
  8
0
  6
CONTINUOUS
 62
   130
 10
-327.424920428992
 20
141.111186640042
 30
0.0
 11
-328.474920077324
 21
141.111186640042
 31
0.0
  0
LINE
  5
   47D
  8
0
  6
CONTINUOUS
 62
   130
 10
-327.074920101166
 20
90.4486834973867
 30
0.0
 11
-328.649937244051
 21
90.4486834973867
 31
0.0
  0
LINE
  5
   47E
  8
0
  6
CONTINUOUS
 62
   130
 10
-327.074918678635
 20
90.4486834973869
 30
0.0
 11
-327.074918678635
 21
92.1111807987866
 31
0.0
  0
LINE
  5
   47F
  8
0
  6
DOT
 62
   130
 10
-328.649937244051
 20
90.4486834973867
 30
0.0
 11
-337.749937756651
 21
90.4486834973867
 31
0.0
  0
LINE
  5
   480
  8
0
  6
CONTINUOUS
 62
     5
 10
-355.075492431834
 20
96.3985899419027
 30
0.0
 11
-380.45175237565
 21
96.3992067784595
 31
0.0
  0
LINE
  5
   481
  8
0
  6
CONTINUOUS
 62
     5
 10
-380.497884808725
 20
96.4183137373928
 30
0.0
 11
-380.497366772853
 21
96.4188304381169
 31
0.0
  0
LINE
  5
   482
  8
0
  6
CONTINUOUS
 62
     5
 10
-380.497369716664
 20
133.1286683895
 30
0.0
 11
-380.497807643906
 21
133.129106316743
 31
0.0
  0
LINE
  5
   483
  8
0
  6
CONTINUOUS
 62
     5
 10
-380.45157079781
 20
133.148259546801
 30
0.0
 11
-362.669228189587
 21
133.148697474026
 31
0.0
  0
LINE
  5
   484
  8
0
  6
CONTINUOUS
 62
     5
 10
-358.488000353863
 20
118.278728532782
 30
0.0
 11
-366.013000225713
 21
118.278728532782
 31
0.0
  0
LINE
  5
   485
  8
0
  6
CONTINUOUS
 62
     5
 10
-358.488000353863
 20
118.433015105472
 30
0.0
 11
-366.013000225713
 21
118.433015105472
 31
0.0
  0
LINE
  5
   486
  8
0
  6
CONTINUOUS
 62
     5
 10
-358.488000353863
 20
103.811022480338
 30
0.0
 11
-366.013000225713
 21
103.811022480338
 31
0.0
  0
LINE
  5
   487
  8
0
  6
CONTINUOUS
 62
     5
 10
-358.488000353863
 20
104.045479110866
 30
0.0
 11
-366.013000225713
 21
104.045479110866
 31
0.0
  0
LINE
  5
   488
  8
0
  6
CONTINUOUS
 62
   130
 10
-326.724922944307
 20
117.661173687952
 30
0.0
 11
-327.074922020435
 21
117.661173687952
 31
0.0
  0
LINE
  5
   489
  8
0
  6
CONTINUOUS
 62
   130
 10
-326.724923278093
 20
110.661173807162
 30
0.0
 11
-327.074922437668
 21
110.661173807162
 31
0.0
  0
CIRCLE
  5
   48A
  8
0
  6
CONTINUOUS
 62
   130
 10
-331.799919016631
 20
105.236171581822
 30
0.0
 40
1.83750095455715
  0
LINE
  5
   48B
  8
0
  6
DASHDOT
 62
     7
 10
-331.799919016631
 20
102.348670645146
 30
0.0
 11
-331.799919016631
 21
108.123672518498
 31
0.0
  0
LINE
  5
   48C
  8
0
  6
DASHDOT
 62
     7
 10
-328.912418079955
 20
105.236171581822
 30
0.0
 11
-334.687419953306
 21
105.236171581822
 31
0.0
  0
LINE
  5
   48D
  8
0
  6
CONTINUOUS
 62
     1
 10
-337.749937756651
 20
142.946486291407
 30
0.0
 11
-337.749937756651
 21
149.686169169694
 31
0.0
  0
LINE
  5
   48E
  8
0
  6
CONTINUOUS
 62
     3
 10
-338.624924432054
 20
67.2612037994031
 30
0.0
 11
-338.624924432054
 21
68.836203772581
 31
0.0
  0
ARC
  5
   48F
  8
0
  6
CONTINUOUS
 62
     3
 10
-338.974924426094
 20
67.2612037994031
 30
0.0
 40
0.349999994039536
 50
269.999999948034
 51
359.999999948034
  0
LINE
  5
   490
  8
0
  6
CONTINUOUS
 62
     3
 10
-338.974924426094
 20
66.9112038053635
 30
0.0
 11
-400.837415143309
 21
66.9112038053635
 31
0.0
  0
LINE
  5
   491
  8
0
  6
CONTINUOUS
 62
     7
 10
-341.687373160895
 20
60.9612093672901
 30
0.0
 11
-341.687373160895
 21
66.9112038053635
 31
0.0
  0
LINE
  5
   492
  8
0
  6
CONTINUOUS
 62
     7
 10
-334.599877287026
 20
56.4112094447761
 30
0.0
 11
-341.687373160895
 21
60.9612093672901
 31
0.0
  0
LINE
  5
   493
  8
0
  6
CONTINUOUS
 62
     7
 10
-334.599895527675
 20
49.411252288594
 30
0.0
 11
-334.599895527675
 21
56.4112094447761
 31
0.0
  0
LINE
  5
   494
  8
0
  6
CONTINUOUS
 62
     7
 10
-334.599875951882
 20
49.4112522885941
 30
0.0
 11
-348.59988772976
 21
49.4112522885941
 31
0.0
  0
LINE
  5
   495
  8
0
  6
CONTINUOUS
 62
     7
 10
-348.59988772976
 20
49.4112522885941
 30
0.0
 11
-348.59988772976
 21
56.4112094447761
 31
0.0
  0
LINE
  5
   496
  8
0
  6
CONTINUOUS
 62
     7
 10
-348.59988772976
 20
56.4112094447761
 30
0.0
 11
-352.187362300929
 21
60.96120936729
 31
0.0
  0
LINE
  5
   497
  8
0
  6
CONTINUOUS
 62
     7
 10
-352.187351619777
 20
60.9611958203671
 30
0.0
 11
-352.187351619777
 21
66.9112038053635
 31
0.0
  0
CIRCLE
  5
   498
  8
0
  6
CONTINUOUS
 62
     7
 10
-341.599889886322
 20
54.6612357735106
 30
0.0
 40
1.92501639291958
  0
LINE
  5
   499
  8
0
  6
DASHDOT
 62
     3
 10
-341.599889886322
 20
51.6862193984724
 30
0.0
 11
-341.599889886322
 21
57.6362521485488
 31
0.0
  0
LINE
  5
   49A
  8
0
  6
DASHDOT
 62
     3
 10
-338.624873511284
 20
54.6612357735106
 30
0.0
 11
-344.57490626136
 21
54.6612357735106
 31
0.0
  0
LINE
  5
   49B
  8
0
  6
CONTINUOUS
 62
   130
 10
-352.668632216158
 20
66.036187918559
 30
0.0
 11
-352.668632216158
 21
66.9111879036579
 31
0.0
  0
LINE
  5
   49C
  8
0
  6
CONTINUOUS
 62
   130
 10
-352.668632216158
 20
66.036187918559
 30
0.0
 11
-354.068632192316
 21
66.036187918559
 31
0.0
  0
LINE
  5
   49D
  8
0
  6
CONTINUOUS
 62
   130
 10
-354.068632192316
 20
63.01434858709
 30
0.0
 11
-354.068632192316
 21
66.036187918559
 31
0.0
  0
LINE
  5
   49E
  8
0
  6
CONTINUOUS
 62
   130
 10
-356.518632150593
 20
66.036187918559
 30
0.0
 11
-356.518632150593
 21
66.9111879036579
 31
0.0
  0
LINE
  5
   49F
  8
0
  6
CONTINUOUS
 62
   130
 10
-355.118632174435
 20
66.036187918559
 30
0.0
 11
-356.518632150593
 21
66.036187918559
 31
0.0
  0
LINE
  5
   4A0
  8
0
  6
CONTINUOUS
 62
   130
 10
-355.118632174435
 20
62.7330016985098
 30
0.0
 11
-355.118632174435
 21
66.036187918559
 31
0.0
  0
LINE
  5
   4A1
  8
0
  6
CONTINUOUS
 62
   130
 10
-351.68092204316
 20
56.778715847209
 30
0.0
 11
-355.118602801267
 21
62.7329508227132
 31
0.0
  0
LINE
  5
   4A2
  8
0
  6
CONTINUOUS
 62
   130
 10
-350.628962069619
 20
57.0566607887646
 30
0.0
 11
-354.068602819148
 21
63.0142977112324
 31
0.0
  0
LINE
  5
   4A3
  8
0
  6
CONTINUOUS
 62
   130
 10
-351.609202582932
 20
34.6542776115939
 30
0.0
 11
-351.680952102926
 21
56.7787679122275
 31
0.0
  0
LINE
  5
   4A4
  8
0
  6
CONTINUOUS
 62
   130
 10
-350.701785064816
 20
34.4927477916151
 30
0.0
 11
-350.628990840654
 21
57.0567106216809
 31
0.0
  0
LINE
  5
   4A5
  8
0
  6
CONTINUOUS
 62
     7
 10
-349.398467951328
 20
34.2607436981147
 30
0.0
 11
-353.215420489217
 21
34.9402012179484
 31
0.0
  0
LINE
  5
   4A6
  8
0
  6
CONTINUOUS
 62
     3
 10
-401.187415137348
 20
67.2612037994031
 30
0.0
 11
-401.187415137348
 21
68.836203772581
 31
0.0
  0
ARC
  5
   4A7
  8
0
  6
CONTINUOUS
 62
     3
 10
-400.837415143309
 20
67.2612037994031
 30
0.0
 40
0.349999994039536
 50
179.999999948034
 51
269.999999948034
  0
LINE
  5
   4A8
  8
0
  6
CONTINUOUS
 62
     7
 10
-398.124928275829
 20
60.9611798117262
 30
0.0
 11
-398.124928275829
 21
66.9112038053635
 31
0.0
  0
LINE
  5
   4A9
  8
0
  6
CONTINUOUS
 62
     7
 10
-405.212377124066
 20
56.4112035511192
 30
0.0
 11
-398.124941331678
 21
60.9611714301766
 31
0.0
  0
LINE
  5
   4AA
  8
0
  6
CONTINUOUS
 62
     7
 10
-405.212377124066
 20
49.411235713785
 30
0.0
 11
-405.212377124066
 21
56.4112035511192
 31
0.0
  0
LINE
  5
   4AB
  8
0
  6
CONTINUOUS
 62
     7
 10
-391.212388043636
 20
49.411235713785
 30
0.0
 11
-405.212377124066
 21
49.411235713785
 31
0.0
  0
LINE
  5
   4AC
  8
0
  6
CONTINUOUS
 62
     7
 10
-391.212388043636
 20
49.411235713785
 30
0.0
 11
-391.212388043636
 21
56.4112035511192
 31
0.0
  0
LINE
  5
   4AD
  8
0
  6
CONTINUOUS
 62
     7
 10
-391.212388043636
 20
56.4112035511192
 30
0.0
 11
-387.62493082934
 21
60.9611500678723
 31
0.0
  0
LINE
  5
   4AE
  8
0
  6
CONTINUOUS
 62
     7
 10
-387.624923114067
 20
60.9611598530983
 30
0.0
 11
-387.624923114067
 21
66.9112038053635
 31
0.0
  0
LINE
  5
   4AF
  8
0
  6
DASHDOT
 62
     3
 10
-398.212401275867
 20
51.6860438717282
 30
0.0
 11
-398.212401275867
 21
57.6362355737157
 31
0.0
  0
LINE
  5
   4B0
  8
0
  6
DASHDOT
 62
     3
 10
-395.237305424874
 20
54.661139722722
 30
0.0
 11
-401.187497126861
 21
54.661139722722
 31
0.0
  0
CIRCLE
  5
   4B1
  8
0
  6
CONTINUOUS
 62
     7
 10
-398.212401275867
 20
54.661139722722
 30
0.0
 40
1.92509586887515
  0
LINE
  5
   4B2
  8
0
  6
CONTINUOUS
 62
   130
 10
-387.143588904454
 20
66.036187918559
 30
0.0
 11
-387.143588904454
 21
66.9111879036579
 31
0.0
  0
LINE
  5
   4B3
  8
0
  6
CONTINUOUS
 62
   130
 10
-385.743642334057
 20
66.036187918559
 30
0.0
 11
-387.143588904454
 21
66.036187918559
 31
0.0
  0
LINE
  5
   4B4
  8
0
  6
CONTINUOUS
 62
   130
 10
-385.743642334057
 20
63.0142977112324
 30
0.0
 11
-385.743642334057
 21
66.036187918559
 31
0.0
  0
LINE
  5
   4B5
  8
0
  6
CONTINUOUS
 62
   130
 10
-383.293588970019
 20
66.036187918559
 30
0.0
 11
-383.293588970019
 21
66.9111879036579
 31
0.0
  0
LINE
  5
   4B6
  8
0
  6
CONTINUOUS
 62
   130
 10
-383.293588970019
 20
66.036187918559
 30
0.0
 11
-384.693642351938
 21
66.036187918559
 31
0.0
  0
LINE
  5
   4B7
  8
0
  6
CONTINUOUS
 62
   130
 10
-384.693642351938
 20
62.7329508227132
 30
0.0
 11
-384.693642351938
 21
66.036187918559
 31
0.0
  0
LINE
  5
   4B8
  8
0
  6
CONTINUOUS
 62
   130
 10
-389.183283083586
 20
57.0566607887645
 30
0.0
 11
-385.743642334057
 21
63.0142977112324
 31
0.0
  0
LINE
  5
   4B9
  8
0
  6
CONTINUOUS
 62
   130
 10
-388.131323110045
 20
56.7787158472089
 30
0.0
 11
-384.693642351938
 21
62.7329508227132
 31
0.0
  0
LINE
  5
   4BA
  8
0
  6
CONTINUOUS
 62
   130
 10
-389.111010093047
 20
34.6541814540987
 30
0.0
 11
-389.183283083586
 21
57.0566607887683
 31
0.0
  0
LINE
  5
   4BB
  8
0
  6
CONTINUOUS
 62
   130
 10
-388.203596319276
 20
34.4926523006525
 30
0.0
 11
-388.131323110045
 21
56.7787158472103
 31
0.0
  0
LINE
  5
   4BC
  8
0
  6
CONTINUOUS
 62
     7
 10
-386.900815640314
 20
34.2607436981147
 30
0.0
 11
-390.717768178203
 21
34.9402012179484
 31
0.0
  0
LINE
  5
   4BD
  8
0
  6
CONTINUOUS
 62
     7
 10
-372.312409679919
 20
178.906992791373
 30
0.0
 11
-386.312406771212
 21
178.906992791373
 31
0.0
  0
LINE
  5
   4BE
  8
0
  6
CONTINUOUS
 62
     7
 10
-372.312433130909
 20
161.411159711479
 30
0.0
 11
-372.312433130909
 21
178.907026450414
 31
0.0
  0
LINE
  5
   4BF
  8
0
  6
CONTINUOUS
 62
     7
 10
-382.812412171393
 20
161.411159711479
 30
0.0
 11
-382.812412171393
 21
167.356973241349
 31
0.0
  0
LINE
  5
   4C0
  8
0
  6
CONTINUOUS
 62
     7
 10
-382.812412171393
 20
167.356973241349
 30
0.0
 11
-386.312428133517
 21
171.907015888472
 31
0.0
  0
LINE
  5
   4C1
  8
0
  6
CONTINUOUS
 62
     7
 10
-386.312428133517
 20
171.907015891351
 30
0.0
 11
-386.312406771212
 21
178.907037134446
 31
0.0
  0
LINE
  5
   4C2
  8
0
  6
CONTINUOUS
 62
     7
 10
-353.499893978566
 20
178.906996463038
 30
0.0
 11
-367.499893740147
 21
178.906996463038
 31
0.0
  0
LINE
  5
   4C3
  8
0
  6
CONTINUOUS
 62
     7
 10
-367.499917191138
 20
161.411159711479
 30
0.0
 11
-367.499917191138
 21
178.907026450414
 31
0.0
  0
LINE
  5
   4C4
  8
0
  6
CONTINUOUS
 62
     7
 10
-353.49993312984
 20
171.907005207319
 30
0.0
 11
-353.49993312984
 21
178.907015769262
 31
0.0
  0
LINE
  5
   4C5
  8
0
  6
CONTINUOUS
 62
     7
 10
-356.999899259537
 20
167.357005284805
 30
0.0
 11
-353.499896648854
 21
171.907005207319
 31
0.0
  0
LINE
  5
   4C6
  8
0
  6
CONTINUOUS
 62
     7
 10
-356.999899259537
 20
161.411159711479
 30
0.0
 11
-356.999899259537
 21
167.357005284805
 31
0.0
  0
CIRCLE
  5
   4C7
  8
0
  6
CONTINUOUS
 62
     7
 10
-360.499880903782
 20
173.657049991628
 30
0.0
 40
1.9250447813915
  0
CIRCLE
  5
   4C8
  8
0
  6
CONTINUOUS
 62
     7
 10
-379.312441077679
 20
173.656953305868
 30
0.0
 40
1.9249374146322
  0
LINE
  5
   4C9
  8
0
  6
CONTINUOUS
 62
     7
 10
-382.812412171393
 20
60.9653902754935
 30
0.0
 11
-382.812412171393
 21
66.9112038053636
 31
0.0
  0
LINE
  5
   4CA
  8
0
  6
CONTINUOUS
 62
     7
 10
-386.312428133517
 20
56.4153476283709
 30
0.0
 11
-382.812412171393
 21
60.9653902754935
 31
0.0
  0
LINE
  5
   4CB
  8
0
  6
CONTINUOUS
 62
     7
 10
-386.312406771212
 20
49.4153263823964
 30
0.0
 11
-386.312428133517
 21
56.4153476254915
 31
0.0
  0
LINE
  5
   4CC
  8
0
  6
CONTINUOUS
 62
     7
 10
-372.312409679919
 20
49.4153707254696
 30
0.0
 11
-386.312406771212
 21
49.4153707254696
 31
0.0
  0
LINE
  5
   4CD
  8
0
  6
CONTINUOUS
 62
     7
 10
-372.312433130909
 20
49.4153370664281
 30
0.0
 11
-372.312433130909
 21
66.9112038053636
 31
0.0
  0
CIRCLE
  5
   4CE
  8
0
  6
CONTINUOUS
 62
     7
 10
-379.312441077679
 20
54.6654102109746
 30
0.0
 40
1.9249374146322
  0
LINE
  5
   4CF
  8
0
  6
CONTINUOUS
 62
     7
 10
-367.499917191138
 20
49.4153370664281
 30
0.0
 11
-367.499917191138
 21
66.9112038053636
 31
0.0
  0
LINE
  5
   4D0
  8
0
  6
CONTINUOUS
 62
     7
 10
-353.499893978566
 20
49.4153670538049
 30
0.0
 11
-367.499893740147
 21
49.4153670538049
 31
0.0
  0
LINE
  5
   4D1
  8
0
  6
CONTINUOUS
 62
     7
 10
-353.49993312984
 20
49.4153477475802
 30
0.0
 11
-353.49993312984
 21
56.4153583095231
 31
0.0
  0
LINE
  5
   4D2
  8
0
  6
CONTINUOUS
 62
     7
 10
-353.499896648854
 20
56.415358309523
 30
0.0
 11
-356.999899259537
 21
60.965358232037
 31
0.0
  0
LINE
  5
   4D3
  8
0
  6
CONTINUOUS
 62
     7
 10
-356.999899259537
 20
60.965358232037
 30
0.0
 11
-356.999899259537
 21
66.9112038053636
 31
0.0
  0
CIRCLE
  5
   4D4
  8
0
  6
CONTINUOUS
 62
     7
 10
-360.499880903782
 20
54.6653135252149
 30
0.0
 40
1.9250447813915
  0
LINE
  5
   4D5
  8
0
  6
CONTINUOUS
 62
   130
 10
-369.556144936538
 20
209.71117479064
 30
0.0
 11
-370.256144924617
 21
209.71117479064
 31
0.0
  0
LINE
  5
   4D6
  8
0
  6
CONTINUOUS
 62
   130
 10
-369.512484206341
 20
194.693151199963
 30
0.0
 11
-369.556144936538
 21
209.711174790646
 31
0.0
  0
LINE
  5
   4D7
  8
0
  6
CONTINUOUS
 62
   130
 10
-369.381131588078
 20
165.607053379795
 30
0.0
 11
-369.463175393387
 21
193.827796072262
 31
0.0
  0
LINE
  5
   4D8
  8
0
  6
CONTINUOUS
 62
   130
 10
-370.300207584543
 20
194.55292819023
 30
0.0
 11
-370.256144924617
 21
209.71117479064
 31
0.0
  0
LINE
  5
   4D9
  8
0
  6
CONTINUOUS
 62
   130
 10
-370.431131570197
 20
165.607053379789
 30
0.0
 11
-370.349559625456
 21
193.670010397444
 31
0.0
  0
LINE
  5
   4DA
  8
0
  6
CONTINUOUS
 62
   130
 10
-370.431131570197
 20
162.282053436417
 30
0.0
 11
-370.431131570197
 21
165.607053379792
 31
0.0
  0
LINE
  5
   4DB
  8
0
  6
CONTINUOUS
 62
   130
 10
-369.381131588078
 20
162.282053436417
 30
0.0
 11
-369.381131588078
 21
165.607053379792
 31
0.0
  0
LINE
  5
   4DC
  8
0
  6
CONTINUOUS
 62
   130
 10
-367.98113161192
 20
162.282053436417
 30
0.0
 11
-369.381131588078
 21
162.282053436417
 31
0.0
  0
LINE
  5
   4DD
  8
0
  6
CONTINUOUS
 62
   130
 10
-370.431131570197
 20
162.282053436417
 30
0.0
 11
-371.831131546355
 21
162.282053436417
 31
0.0
  0
LINE
  5
   4DE
  8
0
  6
CONTINUOUS
 62
   130
 10
-371.831131546355
 20
161.407053451318
 30
0.0
 11
-371.831131546355
 21
162.282053436417
 31
0.0
  0
LINE
  5
   4DF
  8
0
  6
CONTINUOUS
 62
   130
 10
-367.98113161192
 20
161.407053451318
 30
0.0
 11
-367.98113161192
 21
162.282053436417
 31
0.0
  0
LINE
  5
   4E0
  8
0
  6
CONTINUOUS
 62
   130
 10
-369.993628907359
 20
195.361196397324
 30
0.0
 11
-370.296976299044
 21
195.66454111872
 31
0.0
  0
LINE
  5
   4E1
  8
0
  6
CONTINUOUS
 62
   130
 10
-370.298744029727
 20
195.056078604668
 30
0.0
 11
-369.993628907359
 21
195.361196397324
 31
0.0
  0
LINE
  5
   4E2
  8
0
  6
CONTINUOUS
 62
   130
 10
-369.818644932068
 20
195.361196397324
 30
0.0
 11
-369.515308221535
 21
195.664530437568
 31
0.0
  0
LINE
  5
   4E3
  8
0
  6
CONTINUOUS
 62
   130
 10
-369.513540490852
 20
195.056089285821
 30
0.0
 11
-369.818644932068
 21
195.361196397324
 31
0.0
  0
LINE
  5
   4E4
  8
0
  6
DASHDOT
 62
     7
 10
-369.906131579138
 20
160.890611300118
 30
0.0
 11
-369.906131579138
 21
210.825500038142
 31
0.0
  0
LINE
  5
   4E5
  8
0
  6
CONTINUOUS
 62
     7
 10
-371.966588649661
 20
193.382162298894
 30
0.0
 11
-368.149636111772
 21
194.061619818728
 31
0.0
  0
LINE
  5
   4E6
  8
0
  6
CONTINUOUS
 62
     7
 10
-371.920666086564
 20
194.264469608718
 30
0.0
 11
-368.116905662213
 21
194.941578794205
 31
0.0
  0
LINE
  5
   4E7
  8
0
  6
DASHDOT
 62
     7
 10
-351.154968414319
 20
171.114454140214
 30
0.0
 11
-351.154968414319
 21
211.449818014353
 31
0.0
  0
LINE
  5
   4E8
  8
0
  6
CONTINUOUS
 62
   130
 10
-371.831131546355
 20
66.0403100804256
 30
0.0
 11
-371.831131546355
 21
66.9153100655244
 31
0.0
  0
LINE
  5
   4E9
  8
0
  6
CONTINUOUS
 62
   130
 10
-370.431131570197
 20
66.0403100804256
 30
0.0
 11
-371.831131546355
 21
66.0403100804256
 31
0.0
  0
LINE
  5
   4EA
  8
0
  6
CONTINUOUS
 62
   130
 10
-367.98113161192
 20
66.0403100804256
 30
0.0
 11
-369.381131588078
 21
66.0403100804256
 31
0.0
  0
LINE
  5
   4EB
  8
0
  6
CONTINUOUS
 62
   130
 10
-367.98113161192
 20
66.0403100804256
 30
0.0
 11
-367.98113161192
 21
66.9153100655244
 31
0.0
  0
LINE
  5
   4EC
  8
0
  6
CONTINUOUS
 62
   130
 10
-370.431131570197
 20
62.71531013705
 30
0.0
 11
-370.431131570197
 21
66.0403100804256
 31
0.0
  0
LINE
  5
   4ED
  8
0
  6
CONTINUOUS
 62
   130
 10
-369.381131588078
 20
62.71531013705
 30
0.0
 11
-369.381131588078
 21
66.0403100804256
 31
0.0
  0
LINE
  5
   4EE
  8
0
  6
CONTINUOUS
 62
     7
 10
-368.149636111772
 20
34.2607436981147
 30
0.0
 11
-371.966588649661
 21
34.9402012179484
 31
0.0
  0
LINE
  5
   4EF
  8
0
  6
CONTINUOUS
 62
   130
 10
-370.349559625456
 20
34.6523531193988
 30
0.0
 11
-370.431131570197
 21
62.7153101370536
 31
0.0
  0
LINE
  5
   4F0
  8
0
  6
CONTINUOUS
 62
   130
 10
-369.463175393387
 20
34.4945674445803
 30
0.0
 11
-369.381131588078
 21
62.7153101370478
 31
0.0
  0
LINE
  5
   4F1
  8
0
  6
DASHDOT
 62
     7
 10
-379.312441077679
 20
51.6904728142238
 30
0.0
 11
-379.312441077679
 21
57.6403476077254
 31
0.0
  0
LINE
  5
   4F2
  8
0
  6
DASHDOT
 62
     7
 10
-376.337503680928
 20
54.6654102109746
 30
0.0
 11
-382.287378474429
 21
54.6654102109746
 31
0.0
  0
LINE
  5
   4F3
  8
0
  6
DASHDOT
 62
     7
 10
-360.499880903782
 20
51.6902687617048
 30
0.0
 11
-360.499880903782
 21
57.640358288725
 31
0.0
  0
LINE
  5
   4F4
  8
0
  6
DASHDOT
 62
     7
 10
-357.524836140272
 20
54.6653135252149
 30
0.0
 11
-363.474925667292
 21
54.6653135252149
 31
0.0
  0
LINE
  5
   4F5
  8
0
  6
DASHDOT
 62
     7
 10
-379.312441077679
 20
170.682015909117
 30
0.0
 11
-379.312441077679
 21
176.631890702619
 31
0.0
  0
LINE
  5
   4F6
  8
0
  6
DASHDOT
 62
     7
 10
-376.337503680928
 20
173.656953305868
 30
0.0
 11
-382.287378474429
 21
173.656953305868
 31
0.0
  0
LINE
  5
   4F7
  8
0
  6
DASHDOT
 62
     7
 10
-360.499880903782
 20
170.682005228117
 30
0.0
 11
-360.499880903782
 21
176.632094755138
 31
0.0
  0
LINE
  5
   4F8
  8
0
  6
DASHDOT
 62
     7
 10
-357.524836140272
 20
173.657049991628
 30
0.0
 11
-363.474925667292
 21
173.657049991628
 31
0.0
  0
POINT
  5
   4F9
  8
0
  6
CONTINUOUS
 62
     7
 10
-369.906131579138
 20
161.411159711479
 30
0.0
  0
LINE
  5
   4FA
  8
0
  6
CONTINUOUS
 62
   212
 10
-398.12490246088
 20
166.311045172024
 30
0.0
 11
-400.985598227217
 21
166.311045172024
 31
0.0
  0
LINE
  5
   4FB
  8
0
  6
CONTINUOUS
 62
   212
 10
-382.81240272165
 20
161.481200983595
 30
0.0
 11
-382.943575281062
 21
161.481200983595
 31
0.0
  0
LINE
  5
   4FC
  8
0
  6
CONTINUOUS
 62
   212
 10
-367.499884290404
 20
161.481206667584
 30
0.0
 11
-367.63107821212
 21
161.481206667584
 31
0.0
  0
LINE
  5
   4FD
  8
0
  6
CONTINUOUS
 62
   212
 10
-352.187315123685
 20
161.481196558411
 30
0.0
 11
-352.31857847289
 21
161.481196558411
 31
0.0
  0
LINE
  5
   4FE
  8
0
  6
CONTINUOUS
 62
   212
 10
-337.399929072851
 20
161.481188891862
 30
0.0
 11
-337.399929072851
 21
164.91089616988
 31
0.0
  0
LINE
  5
   4FF
  8
0
  6
CONTINUOUS
 62
   212
 10
-337.399964244073
 20
155.986163350528
 30
0.0
 11
-337.399984271233
 21
158.331188945358
 31
0.0
  0
LINE
  5
   500
  8
0
  6
CONTINUOUS
 62
   212
 10
-402.412463804489
 20
162.006387362402
 30
0.0
 11
-402.412495847946
 21
162.253874998568
 31
0.0
  0
LINE
  5
   501
  8
0
  6
CONTINUOUS
 62
   212
 10
-402.412426420457
 20
161.481398052144
 30
0.0
 11
-402.412458463913
 21
164.911137373619
 31
0.0
  0
LINE
  5
   502
  8
0
  6
CONTINUOUS
 62
   212
 10
-402.412458463913
 20
155.986404556944
 30
0.0
 11
-402.412426420457
 21
158.33140878947
 31
0.0
  0
LINE
  5
   503
  8
0
  6
CONTINUOUS
 62
   212
 10
-337.749892050651
 20
155.086145487821
 30
0.0
 11
-337.506500726023
 21
155.45040743939
 31
0.0
  0
LINE
  5
   504
  8
0
  6
CONTINUOUS
 62
   212
 10
-337.506500726023
 20
155.45040743939
 30
0.0
 11
-337.399964244073
 21
155.986163350676
 31
0.0
  0
LINE
  5
   505
  8
0
  6
CONTINUOUS
 62
   212
 10
-337.399956233209
 20
158.331188945506
 30
0.0
 11
-337.749926595092
 21
158.331188945506
 31
0.0
  0
LINE
  5
   506
  8
0
  6
CONTINUOUS
 62
   212
 10
-337.399956233209
 20
158.331188945203
 30
0.0
 11
-337.399962241357
 21
161.481188891558
 31
0.0
  0
LINE
  5
   507
  8
0
  6
CONTINUOUS
 62
   212
 10
-338.274958421247
 20
159.486163683087
 30
0.0
 11
-338.274962226456
 21
161.481188891558
 31
0.0
  0
LINE
  5
   508
  8
0
  6
CONTINUOUS
 62
   212
 10
-402.062420160754
 20
158.331408787625
 30
0.0
 11
-402.412399717576
 21
158.331408787625
 31
0.0
  0
LINE
  5
   509
  8
0
  6
CONTINUOUS
 62
   212
 10
-402.412399717576
 20
158.331408789126
 30
0.0
 11
-402.412426420457
 21
161.48139805433
 31
0.0
  0
LINE
  5
   50A
  8
0
  6
CONTINUOUS
 62
   212
 10
-401.537397774675
 20
159.486163683087
 30
0.0
 11
-401.537394391901
 21
161.481398086285
 31
0.0
  0
LINE
  5
   50B
  8
0
  6
CONTINUOUS
 62
   212
 10
-367.63107821212
 20
161.411157754607
 30
0.0
 11
-367.63107821212
 21
162.636168578003
 31
0.0
  0
LINE
  5
   50C
  8
0
  6
CONTINUOUS
 62
   212
 10
-370.431131570197
 20
162.636168578003
 30
0.0
 11
-372.181078134634
 21
162.636168578003
 31
0.0
  0
LINE
  5
   50D
  8
0
  6
CONTINUOUS
 62
   212
 10
-372.181078134634
 20
161.411159874526
 30
0.0
 11
-372.181078134634
 21
162.636168578003
 31
0.0
  0
LINE
  5
   50E
  8
0
  6
CONTINUOUS
 62
   212
 10
-352.31857847289
 20
161.411152577136
 30
0.0
 11
-352.31857847289
 21
162.636168578003
 31
0.0
  0
LINE
  5
   50F
  8
0
  6
CONTINUOUS
 62
   212
 10
-355.11857191911
 20
162.636168578003
 30
0.0
 11
-356.868578395404
 21
162.636168578003
 31
0.0
  0
LINE
  5
   510
  8
0
  6
CONTINUOUS
 62
   212
 10
-356.868578395404
 20
161.411152740183
 30
0.0
 11
-356.868578395404
 21
162.636168578003
 31
0.0
  0
ARC
  5
   511
  8
0
  6
CONTINUOUS
 62
   212
 10
-401.011968893094
 20
164.910460091248
 30
0.0
 40
1.40080016718987
 50
448.921318525801
 51
540.00741831784
  0
ARC
  5
   512
  8
0
  6
CONTINUOUS
 62
   212
 10
-401.0124357042
 20
155.986400635774
 30
0.0
 40
1.39999216722727
 50
179.999839550052
 51
221.41264129944
  0
LINE
  5
   513
  8
0
  6
CONTINUOUS
 62
   212
 10
-398.12490246088
 20
161.481453834075
 30
0.0
 11
-401.537394391901
 21
161.481453834075
 31
0.0
  0
LINE
  5
   514
  8
0
  6
CONTINUOUS
 62
   212
 10
-387.493575203576
 20
161.411157917713
 30
0.0
 11
-387.493575203576
 21
162.636409782427
 31
0.0
  0
LINE
  5
   515
  8
0
  6
CONTINUOUS
 62
   212
 10
-385.743663480995
 20
162.636409782427
 30
0.0
 11
-387.493575203576
 21
162.636409782427
 31
0.0
  0
LINE
  5
   516
  8
0
  6
CONTINUOUS
 62
   212
 10
-382.943575281062
 20
161.411164888948
 30
0.0
 11
-382.943575281062
 21
162.636409782427
 31
0.0
  0
ARC
  5
   517
  8
0
  6
CONTINUOUS
 62
   212
 10
-338.800477074629
 20
164.91008426468
 30
0.0
 40
1.4009561828799
 50
359.999999948034
 51
450.022337125874
  0
LINE
  5
   518
  8
0
  6
CONTINUOUS
 62
   212
 10
-386.32276882882
 20
166.311045172024
 30
0.0
 11
-387.624883947677
 21
166.311045172024
 31
0.0
  0
LINE
  5
   519
  8
0
  6
CONTINUOUS
 62
   212
 10
-387.493575203576
 20
161.481453834075
 30
0.0
 11
-387.624883947677
 21
161.481453834075
 31
0.0
  0
LINE
  5
   51A
  8
0
  6
CONTINUOUS
 62
   212
 10
-382.943575281062
 20
162.636409782427
 30
0.0
 11
-384.693665929037
 21
162.636409782427
 31
0.0
  0
LINE
  5
   51B
  8
0
  6
CONTINUOUS
 62
   212
 10
-382.81240272165
 20
166.311045172024
 30
0.0
 11
-385.110333642638
 21
166.311045172024
 31
0.0
  0
LINE
  5
   51C
  8
0
  6
CONTINUOUS
 62
   212
 10
-370.42909665417
 20
166.311045172024
 30
0.0
 11
-372.312400230176
 21
166.311045172024
 31
0.0
  0
LINE
  5
   51D
  8
0
  6
CONTINUOUS
 62
   212
 10
-372.181078134634
 20
161.481200983595
 30
0.0
 11
-372.312398486059
 21
161.481200983595
 31
0.0
  0
LINE
  5
   51E
  8
0
  6
CONTINUOUS
 62
   212
 10
-367.499884290404
 20
166.311045172024
 30
0.0
 11
-369.38316650549
 21
166.311045172024
 31
0.0
  0
LINE
  5
   51F
  8
0
  6
CONTINUOUS
 62
   212
 10
-367.63107821212
 20
162.636168578003
 30
0.0
 11
-369.381131588078
 21
162.636168578003
 31
0.0
  0
LINE
  5
   520
  8
0
  6
CONTINUOUS
 62
   212
 10
-354.701940211033
 20
166.311045172024
 30
0.0
 11
-356.999887139506
 21
166.311045172024
 31
0.0
  0
LINE
  5
   521
  8
0
  6
CONTINUOUS
 62
   212
 10
-356.868578395404
 20
161.481206667584
 30
0.0
 11
-356.999887139506
 21
161.481206667584
 31
0.0
  0
LINE
  5
   522
  8
0
  6
CONTINUOUS
 62
   212
 10
-352.187315123685
 20
166.311045172024
 30
0.0
 11
-353.489504387166
 21
166.311045172024
 31
0.0
  0
LINE
  5
   523
  8
0
  6
CONTINUOUS
 62
   212
 10
-352.31857847289
 20
162.636168578003
 30
0.0
 11
-354.068571870871
 21
162.636168578003
 31
0.0
  0
LINE
  5
   524
  8
0
  6
CONTINUOUS
 62
   212
 10
-338.801023247608
 20
166.311045172024
 30
0.0
 11
-341.687336664803
 21
166.311045172024
 31
0.0
  0
LINE
  5
   525
  8
0
  6
CONTINUOUS
 62
   212
 10
-338.274962226456
 20
161.481196558411
 30
0.0
 11
-341.687336664803
 21
161.481196558411
 31
0.0
  0
POINT
  5
   526
  8
0
  6
CONTINUOUS
 62
     7
 10
-369.906131579138
 20
161.411159711479
 30
0.0
  0
LINE
  5
   527
  8
0
  6
CONTINUOUS
 62
   212
 10
-398.12490246088
 20
62.0113183448187
 30
0.0
 11
-400.985598227217
 21
62.0113183448187
 31
0.0
  0
LINE
  5
   528
  8
0
  6
CONTINUOUS
 62
   212
 10
-382.81240272165
 20
66.8411625332474
 30
0.0
 11
-382.943575281062
 21
66.8411625332474
 31
0.0
  0
LINE
  5
   529
  8
0
  6
CONTINUOUS
 62
   212
 10
-367.499884290404
 20
66.8411568492585
 30
0.0
 11
-367.63107821212
 21
66.8411568492585
 31
0.0
  0
LINE
  5
   52A
  8
0
  6
CONTINUOUS
 62
   212
 10
-352.187315123685
 20
66.8411669584317
 30
0.0
 11
-352.31857847289
 21
66.8411669584317
 31
0.0
  0
LINE
  5
   52B
  8
0
  6
CONTINUOUS
 62
   212
 10
-337.399929072851
 20
63.4114673469626
 30
0.0
 11
-337.399929072851
 21
66.8411746249808
 31
0.0
  0
LINE
  5
   52C
  8
0
  6
CONTINUOUS
 62
   212
 10
-337.399984271233
 20
69.9911745714846
 30
0.0
 11
-337.399964244073
 21
72.3362001663147
 31
0.0
  0
LINE
  5
   52D
  8
0
  6
CONTINUOUS
 62
   212
 10
-402.412495847946
 20
66.0684885182745
 30
0.0
 11
-402.412463804489
 21
66.3159761544407
 31
0.0
  0
LINE
  5
   52E
  8
0
  6
CONTINUOUS
 62
   212
 10
-402.412458463913
 20
63.4112261432236
 30
0.0
 11
-402.412426420457
 21
66.8409654646983
 31
0.0
  0
LINE
  5
   52F
  8
0
  6
CONTINUOUS
 62
   212
 10
-402.412426420457
 20
69.9909547273724
 30
0.0
 11
-402.412458463913
 21
72.3359589598981
 31
0.0
  0
LINE
  5
   530
  8
0
  6
CONTINUOUS
 62
   212
 10
-337.506500726023
 20
72.8719560774529
 30
0.0
 11
-337.749892050651
 21
73.2362180290211
 31
0.0
  0
LINE
  5
   531
  8
0
  6
CONTINUOUS
 62
   212
 10
-337.399964244073
 20
72.3362001661666
 30
0.0
 11
-337.506500726023
 21
72.8719560774529
 31
0.0
  0
LINE
  5
   532
  8
0
  6
CONTINUOUS
 62
   212
 10
-337.399956233209
 20
69.9911745713365
 30
0.0
 11
-337.749937619712
 21
69.9911745713365
 31
0.0
  0
LINE
  5
   533
  8
0
  6
CONTINUOUS
 62
   212
 10
-337.399962241357
 20
66.8411746252841
 30
0.0
 11
-337.399956233209
 21
69.9911745716399
 31
0.0
  0
LINE
  5
   534
  8
0
  6
CONTINUOUS
 62
   212
 10
-338.274962226456
 20
66.8411746252841
 30
0.0
 11
-338.274958421247
 21
68.8361998337556
 31
0.0
  0
LINE
  5
   535
  8
0
  6
CONTINUOUS
 62
   212
 10
-402.062436524477
 20
69.9909547292171
 30
0.0
 11
-402.412399717576
 21
69.9909547292171
 31
0.0
  0
LINE
  5
   536
  8
0
  6
CONTINUOUS
 62
   212
 10
-402.412426420457
 20
66.8409654625125
 30
0.0
 11
-402.412399717576
 21
69.9909547277161
 31
0.0
  0
LINE
  5
   537
  8
0
  6
CONTINUOUS
 62
   212
 10
-401.537394391901
 20
66.8409654305573
 30
0.0
 11
-401.537397774675
 21
68.8361998337556
 31
0.0
  0
LINE
  5
   538
  8
0
  6
CONTINUOUS
 62
   212
 10
-367.63107821212
 20
65.6861949388394
 30
0.0
 11
-367.63107821212
 21
66.9112057622355
 31
0.0
  0
LINE
  5
   539
  8
0
  6
CONTINUOUS
 62
   212
 10
-370.431131570197
 20
65.6861949388394
 30
0.0
 11
-372.181078134634
 21
65.6861949388394
 31
0.0
  0
LINE
  5
   53A
  8
0
  6
CONTINUOUS
 62
   212
 10
-372.181078134634
 20
65.6861949388394
 30
0.0
 11
-372.181078134634
 21
66.9112036423166
 31
0.0
  0
LINE
  5
   53B
  8
0
  6
CONTINUOUS
 62
   212
 10
-352.31857847289
 20
65.6861949388394
 30
0.0
 11
-352.31857847289
 21
66.911210939706
 31
0.0
  0
LINE
  5
   53C
  8
0
  6
CONTINUOUS
 62
   212
 10
-355.11857191911
 20
65.6861949388394
 30
0.0
 11
-356.868578395404
 21
65.6861949388394
 31
0.0
  0
LINE
  5
   53D
  8
0
  6
CONTINUOUS
 62
   212
 10
-356.868578395404
 20
65.6861949388394
 30
0.0
 11
-356.868578395404
 21
66.911210776659
 31
0.0
  0
ARC
  5
   53E
  8
0
  6
CONTINUOUS
 62
   212
 10
-401.011968893094
 20
63.4119034255947
 30
0.0
 40
1.40080016718987
 50
179.992581578229
 51
271.078681370268
  0
ARC
  5
   53F
  8
0
  6
CONTINUOUS
 62
   212
 10
-401.0124357042
 20
72.3359628810687
 30
0.0
 40
1.39999216722727
 50
138.587358596629
 51
180.000160346017
  0
LINE
  5
   540
  8
0
  6
CONTINUOUS
 62
   212
 10
-398.12490246088
 20
66.8409096827672
 30
0.0
 11
-401.537394391901
 21
66.8409096827672
 31
0.0
  0
LINE
  5
   541
  8
0
  6
CONTINUOUS
 62
   212
 10
-387.493575203576
 20
65.6859537344157
 30
0.0
 11
-387.493575203576
 21
66.91120559913
 31
0.0
  0
LINE
  5
   542
  8
0
  6
CONTINUOUS
 62
   212
 10
-385.743663480995
 20
65.6859537344156
 30
0.0
 11
-387.493575203576
 21
65.6859537344156
 31
0.0
  0
LINE
  5
   543
  8
0
  6
CONTINUOUS
 62
   212
 10
-382.943575281062
 20
65.6859537344157
 30
0.0
 11
-382.943575281062
 21
66.9111986278943
 31
0.0
  0
ARC
  5
   544
  8
0
  6
CONTINUOUS
 62
   212
 10
-338.800477074629
 20
63.4122792521623
 30
0.0
 40
1.4009561828799
 50
269.977662770195
 51
359.999999948034
  0
LINE
  5
   545
  8
0
  6
CONTINUOUS
 62
   212
 10
-386.32276882882
 20
62.0113183448187
 30
0.0
 11
-387.624883947677
 21
62.0113183448187
 31
0.0
  0
LINE
  5
   546
  8
0
  6
CONTINUOUS
 62
   212
 10
-387.493575203576
 20
66.8409096827672
 30
0.0
 11
-387.624883947677
 21
66.8409096827672
 31
0.0
  0
LINE
  5
   547
  8
0
  6
CONTINUOUS
 62
   212
 10
-382.943575281062
 20
65.6859537344156
 30
0.0
 11
-384.693665929037
 21
65.6859537344156
 31
0.0
  0
LINE
  5
   548
  8
0
  6
CONTINUOUS
 62
   212
 10
-382.81240272165
 20
62.0113183448187
 30
0.0
 11
-385.110333642638
 21
62.0113183448187
 31
0.0
  0
LINE
  5
   549
  8
0
  6
CONTINUOUS
 62
   212
 10
-370.42909665417
 20
62.0113183448187
 30
0.0
 11
-372.312400230176
 21
62.0113183448187
 31
0.0
  0
LINE
  5
   54A
  8
0
  6
CONTINUOUS
 62
   212
 10
-372.181078134634
 20
66.8411625332474
 30
0.0
 11
-372.312398486059
 21
66.8411625332474
 31
0.0
  0
LINE
  5
   54B
  8
0
  6
CONTINUOUS
 62
   212
 10
-367.499884290404
 20
62.0113183448187
 30
0.0
 11
-369.38316650549
 21
62.0113183448187
 31
0.0
  0
LINE
  5
   54C
  8
0
  6
CONTINUOUS
 62
   212
 10
-367.63107821212
 20
65.6861949388394
 30
0.0
 11
-369.381131588078
 21
65.6861949388394
 31
0.0
  0
LINE
  5
   54D
  8
0
  6
CONTINUOUS
 62
   212
 10
-354.701940211033
 20
62.0113183448187
 30
0.0
 11
-356.999887139506
 21
62.0113183448187
 31
0.0
  0
LINE
  5
   54E
  8
0
  6
CONTINUOUS
 62
   212
 10
-356.868578395404
 20
66.8411568492585
 30
0.0
 11
-356.999887139506
 21
66.8411568492585
 31
0.0
  0
LINE
  5
   54F
  8
0
  6
CONTINUOUS
 62
   212
 10
-352.187315123685
 20
62.0113183448187
 30
0.0
 11
-353.489504387166
 21
62.0113183448187
 31
0.0
  0
LINE
  5
   550
  8
0
  6
CONTINUOUS
 62
   212
 10
-352.31857847289
 20
65.6861949388394
 30
0.0
 11
-354.068571870871
 21
65.6861949388394
 31
0.0
  0
LINE
  5
   551
  8
0
  6
CONTINUOUS
 62
   212
 10
-338.801023247608
 20
62.0113183448187
 30
0.0
 11
-341.687336664803
 21
62.0113183448187
 31
0.0
  0
LINE
  5
   552
  8
0
  6
CONTINUOUS
 62
   212
 10
-338.274962226456
 20
66.8411669584317
 30
0.0
 11
-341.687336664803
 21
66.8411669584317
 31
0.0
  0
POINT
  5
   553
  8
0
  6
CONTINUOUS
 62
     7
 10
-369.906131579138
 20
66.9112038053636
 30
0.0
  0
INSERT
  5
   554
  8
0
  6
CONTINUOUS
 62
     7
  2
*UDIM668
 10
0.0
 20
0.0
 30
0.0
  0
INSERT
  5
   555
  8
0
  6
CONTINUOUS
 62
     7
  2
*UDIM669
 10
0.0
 20
0.0
 30
0.0
  0
INSERT
  5
   556
  8
0
  6
CONTINUOUS
 62
     7
  2
*UDIM670
 10
0.0
 20
0.0
 30
0.0
  0
INSERT
  5
   557
  8
0
  6
CONTINUOUS
 62
     7
  2
*UDIM671
 10
0.0
 20
0.0
 30
0.0
  0
INSERT
  5
   558
  8
0
  6
CONTINUOUS
 62
     7
  2
*UDIM672
 10
0.0
 20
0.0
 30
0.0
  0
INSERT
  5
   559
  8
0
  6
CONTINUOUS
 62
     7
  2
*UDIM673
 10
0.0
 20
0.0
 30
0.0
  0
INSERT
  5
   55A
  8
0
  6
CONTINUOUS
 62
     7
  2
*UDIM674
 10
0.0
 20
0.0
 30
0.0
  0
INSERT
  5
   55B
  8
0
  6
CONTINUOUS
 62
     7
  2
*UDIM675
 10
0.0
 20
0.0
 30
0.0
  0
INSERT
  5
   55C
  8
0
  6
CONTINUOUS
 62
     7
  2
*UDIM676
 10
0.0
 20
0.0
 30
0.0
  0
INSERT
  5
   55D
  8
0
  6
CONTINUOUS
 62
     7
  2
*UDIM677
 10
0.0
 20
0.0
 30
0.0
  0
INSERT
  5
   55E
  8
0
  6
CONTINUOUS
 62
     7
  2
*UDIM678
 10
0.0
 20
0.0
 30
0.0
  0
INSERT
  5
   55F
  8
0
  6
CONTINUOUS
 62
     7
  2
*UDIM679
 10
0.0
 20
0.0
 30
0.0
  0
INSERT
  5
   560
  8
0
  6
CONTINUOUS
 62
     7
  2
*UDIM680
 10
0.0
 20
0.0
 30
0.0
  0
TEXT
  5
   561
  8
0
  6
CONTINUOUS
 62
     3
 10
-404.954835891265
 20
105.391561782408
 30
0.0
 40
2.99999997871263
  1
=     =
 50
89.9999999480344
 41
0.91666663951344
 72
     2
 11
-404.954835874328
 21
124.091561112281
 31
0.0
  0
TEXT
  5
   562
  8
0
  6
CONTINUOUS
 62
     7
 10
-366.242686375418
 20
43.7771316892826
 30
0.0
 40
2.99999997871263
  1
Y
 50
359.999999948034
 41
0.91666663951344
 72
     2
 11
-364.042686439706
 21
43.7771316872983
 31
0.0
  0
TEXT
  5
   563
  8
0
  6
CONTINUOUS
 62
     7
 10
-441.164651213934
 20
112.838126758621
 30
0.0
 40
2.99999997871263
  1
X
 50
359.999999948034
 41
0.91666663951344
 72
     1
 11
-440.064651244725
 21
114.338126746986
 31
0.0
 73
     2
  0
LINE
  5
   564
  8
0
  6
CONTINUOUS
 62
     7
 10
-337.749926595092
 20
149.686169169694
 30
0.0
 11
-337.749926595092
 21
158.961163692028
 31
0.0
  0
LINE
  5
   565
  8
0
  6
CONTINUOUS
 62
     7
 10
-402.062420160754
 20
150.211186485069
 30
0.0
 11
-402.062420160754
 21
158.961163692028
 31
0.0
  0
LINE
  5
   566
  8
0
  6
CONTINUOUS
 62
     7
 10
-402.062436524477
 20
69.3611998248149
 30
0.0
 11
-402.062436524477
 21
91.2361874685461
 31
0.0
  0
LINE
  5
   567
  8
0
  6
CONTINUOUS
 62
     1
 10
-402.062436661415
 20
91.2361874685461
 30
0.0
 11
-402.062436661415
 21
96.5736820579346
 31
0.0
  0
LINE
  5
   568
  8
0
  6
CONTINUOUS
 62
     1
 10
-402.062436661415
 20
133.323681432086
 30
0.0
 11
-402.062436661415
 21
150.211186485069
 31
0.0
  0
LINE
  5
   569
  8
0
  6
CONTINUOUS
 62
     1
 10
-402.062436661415
 20
96.5736873985106
 30
0.0
 11
-402.062436661415
 21
133.323686772662
 31
0.0
  0
LINE
  5
   56A
  8
0
  6
DASHDOT
 62
     3
 10
-362.249937339418
 20
54.7816111703783
 30
0.0
 11
-362.249937339418
 21
125.694528403277
 31
0.0
  0
LINE
  5
   56B
  8
0
  6
DASHDOT
 62
     3
 10
-362.249937339418
 20
125.424071958501
 30
0.0
 11
-362.249937339418
 21
182.804483336229
 31
0.0
  0
LINE
  5
   56C
  8
0
  6
CONTINUOUS
 62
     7
 10
-389.724937539094
 20
90.5361994642067
 30
0.0
 11
-402.062436524477
 21
90.5361994642067
 31
0.0
  0
LINE
  5
   56D
  8
0
  6
CONTINUOUS
 62
     1
 10
-395.499936773174
 20
96.5736820579346
 30
0.0
 11
-402.062436661415
 21
96.5736820579346
 31
0.0
  0
LINE
  5
   56E
  8
0
  6
CONTINUOUS
 62
     2
 10
-338.274926586151
 20
159.486163683087
 30
0.0
 11
-401.537420169694
 21
159.486163683087
 31
0.0
  0
LINE
  5
   56F
  8
0
  6
CONTINUOUS
 62
     2
 10
-400.548674866053
 20
91.2361874685461
 30
0.0
 11
-400.548674866053
 21
159.486163683087
 31
0.0
  0
LINE
  5
   570
  8
0
  6
CONTINUOUS
 62
     2
 10
-399.288678091856
 20
91.2361874685461
 30
0.0
 11
-399.288678091856
 21
159.486163683087
 31
0.0
  0
LINE
  5
   571
  8
0
  6
CONTINUOUS
 62
     2
 10
-398.028675977083
 20
91.2361874685461
 30
0.0
 11
-398.028675977083
 21
159.486163683087
 31
0.0
  0
LINE
  5
   572
  8
0
  6
CONTINUOUS
 62
     2
 10
-396.76867386231
 20
91.2361874685461
 30
0.0
 11
-396.76867386231
 21
159.486163683087
 31
0.0
  0
LINE
  5
   573
  8
0
  6
CONTINUOUS
 62
     2
 10
-395.508677088114
 20
91.2361874685461
 30
0.0
 11
-395.508677088114
 21
159.486163683087
 31
0.0
  0
LINE
  5
   574
  8
0
  6
CONTINUOUS
 62
     2
 10
-394.248674973341
 20
91.2361874685461
 30
0.0
 11
-394.248674973341
 21
159.486163683087
 31
0.0
  0
LINE
  5
   575
  8
0
  6
CONTINUOUS
 62
     2
 10
-337.749937756651
 20
149.686169169694
 30
0.0
 11
-401.668673778864
 21
149.686169169694
 31
0.0
  0
LINE
  5
   576
  8
0
  6
CONTINUOUS
 62
     2
 10
-338.143680201264
 20
78.9861943203269
 30
0.0
 11
-401.66867911944
 21
78.9861943203269
 31
0.0
  0
LINE
  5
   577
  8
0
  6
CONTINUOUS
 62
     2
 10
-338.274937610771
 20
68.8361998337556
 30
0.0
 11
-401.537436533417
 21
68.8361998337556
 31
0.0
  0
LINE
  5
   578
  8
0
  6
CONTINUOUS
 62
     2
 10
-400.548674866053
 20
68.8361998337556
 30
0.0
 11
-400.548674866053
 21
90.5361994642067
 31
0.0
  0
LINE
  5
   579
  8
0
  6
CONTINUOUS
 62
     2
 10
-401.668673780596
 20
78.636194347363
 30
0.0
 11
-401.668679121171
 21
78.9861943203779
 31
0.0
  0
LINE
  5
   57A
  8
0
  6
CONTINUOUS
 62
     2
 10
-338.143680201264
 20
78.6361943471481
 30
0.0
 11
-401.668673778864
 21
78.6361943471481
 31
0.0
  0
ARC
  5
   57B
  8
0
  6
CONTINUOUS
 62
     7
 10
-401.537436533417
 20
69.3611998248149
 30
0.0
 40
0.524999991059303
 50
179.999999948034
 51
269.999999948034
  0
LINE
  5
   57C
  8
0
  6
CONTINUOUS
 62
     5
 10
-343.875485916129
 20
96.5736767173612
 30
0.0
 11
-343.875493926993
 21
132.973692119201
 31
0.0
  0
LINE
  5
   57D
  8
0
  6
CONTINUOUS
 62
     5
 10
-380.625513328304
 20
96.7486887306744
 30
0.0
 11
-380.625513328304
 21
128.948672160583
 31
0.0
  0
LINE
  5
   57E
  8
0
  6
CONTINUOUS
 62
     5
 10
-379.750518683781
 20
97.6236673534689
 30
0.0
 11
-379.750518683781
 21
127.898666837889
 31
0.0
  0
LINE
  5
   57F
  8
0
  6
DOT
 62
   130
 10
-328.474920098186
 20
141.111186640042
 30
0.0
 11
-337.749937756651
 21
141.111186640042
 31
0.0
  0
LINE
  5
   580
  8
0
  6
CONTINUOUS
 62
   130
 10
-327.074920268059
 20
92.1111821339311
 30
0.0
 11
-327.074925191403
 21
141.111186640042
 31
0.0
  0
LINE
  5
   581
  8
0
  6
CONTINUOUS
 62
   130
 10
-326.724923278093
 20
110.661173807162
 30
0.0
 11
-326.724922944307
 21
117.661173687953
 31
0.0
  0
LINE
  5
   582
  8
0
  6
DASHDOT
 62
     3
 10
-322.909766898215
 20
114.773692429146
 30
0.0
 11
-404.423445845101
 21
114.773692429146
 31
0.0
  0
INSERT
  5
   583
  8
255
  6
CONTINUOUS
 62
     7
  2
$1MOSTRA
 10
-402.443347242239
 20
90.6017323915732
 30
0.0
 41
0.349999994039536
 42
0.349999994039536
 50
359.999999792138
 43
0.349999994039536
  0
INSERT
  5
   584
  8
0
  6
CONTINUOUS
 62
     7
  2
*UDIM681
 10
0.0
 20
0.0
 30
0.0
  0
INSERT
  5
   585
  8
0
  6
CONTINUOUS
 62
     7
  2
*UDIM682
 10
0.0
 20
0.0
 30
0.0
  0
INSERT
  5
   586
  8
0
  6
CONTINUOUS
 62
     7
  2
*UDIM683
 10
0.0
 20
0.0
 30
0.0
  0
INSERT
  5
   587
  8
0
  6
CONTINUOUS
 62
     7
  2
*UDIM684
 10
0.0
 20
0.0
 30
0.0
  0
INSERT
  5
   588
  8
0
  6
CONTINUOUS
 62
     7
  2
*UDIM685
 10
0.0
 20
0.0
 30
0.0
  0
INSERT
  5
   589
  8
0
  6
CONTINUOUS
 62
     7
  2
*UDIM686
 10
0.0
 20
0.0
 30
0.0
  0
INSERT
  5
   58A
  8
0
  6
CONTINUOUS
 62
     7
  2
*UDIM687
 10
0.0
 20
0.0
 30
0.0
  0
INSERT
  5
   58B
  8
0
  6
CONTINUOUS
 62
     7
  2
*UDIM688
 10
0.0
 20
0.0
 30
0.0
  0
INSERT
  5
   58C
  8
0
  6
CONTINUOUS
 62
     7
  2
*UDIM689
 10
0.0
 20
0.0
 30
0.0
  0
TEXT
  5
   58D
  8
0
  6
CONTINUOUS
 62
     7
 10
-365.406550087094
 20
181.555949379868
 30
0.0
 40
2.99999997871263
  1
Y
 50
359.999999948034
 41
0.91666663951344
 72
     1
 11
-364.306550117885
 21
183.055949368232
 31
0.0
 73
     2
  0
LINE
  5
   58E
  8
0
  6
DASHDOT
 62
     3
 10
-457.626344860053
 20
114.769617569524
 30
0.0
 11
-548.410224914841
 21
114.769617569524
 31
0.0
  0
LINE
  5
   58F
  8
0
  6
CONTINUOUS
 62
     5
 10
-483.210929709673
 20
159.482100786346
 30
0.0
 11
-517.685923781991
 21
159.482100786346
 31
0.0
  0
LINE
  5
   590
  8
0
  6
CONTINUOUS
 62
     5
 10
-518.03592377603
 20
150.382112904196
 30
0.0
 11
-518.03592377603
 21
159.132100792307
 31
0.0
  0
ARC
  5
   591
  8
0
  6
CONTINUOUS
 62
     5
 10
-517.685923781991
 20
159.132100792307
 30
0.0
 40
0.349999994039536
 50
89.9999999480344
 51
179.999999948034
  0
LINE
  5
   592
  8
0
  6
CONTINUOUS
 62
     5
 10
-517.685923781991
 20
150.032112910157
 30
0.0
 11
-517.685923781991
 21
150.382112904196
 31
0.0
  0
LINE
  5
   593
  8
0
  6
CONTINUOUS
 62
     5
 10
-517.685923781991
 20
150.382112904196
 30
0.0
 11
-518.03592377603
 21
150.382112904196
 31
0.0
  0
LINE
  5
   594
  8
0
  6
CONTINUOUS
 62
     5
 10
-483.210929375887
 20
68.8321249741366
 30
0.0
 11
-517.685923781991
 21
68.8321249741366
 31
0.0
  0
LINE
  5
   595
  8
0
  6
CONTINUOUS
 62
     5
 10
-518.03592377603
 20
69.1821249681762
 30
0.0
 11
-518.03592377603
 21
77.7571194815685
 31
0.0
  0
ARC
  5
   596
  8
0
  6
CONTINUOUS
 62
     5
 10
-517.685923781991
 20
69.1821249681762
 30
0.0
 40
0.349999994039536
 50
179.999999948034
 51
269.999999948034
  0
LINE
  5
   597
  8
0
  6
CONTINUOUS
 62
     5
 10
-517.685923781991
 20
77.7571194815685
 30
0.0
 11
-518.03592377603
 21
77.7571194815685
 31
0.0
  0
LINE
  5
   598
  8
0
  6
CONTINUOUS
 62
     5
 10
-517.685923781991
 20
77.7571194815685
 30
0.0
 11
-517.685923781991
 21
78.1071194756081
 31
0.0
  0
LINE
  5
   599
  8
0
  6
CONTINUOUS
 62
     2
 10
-483.210897666054
 20
143.557085035819
 30
0.0
 11
-483.210897666054
 21
150.772203321149
 31
0.0
  0
LINE
  5
   59A
  8
0
  6
CONTINUOUS
 62
     7
 10
-507.185918620229
 20
149.857084928531
 30
0.0
 11
-508.410918599367
 21
149.857084928531
 31
0.0
  0
LINE
  5
   59B
  8
0
  6
CONTINUOUS
 62
     7
 10
-507.185881235948
 20
143.732081981114
 30
0.0
 11
-507.185881235948
 21
149.857081876806
 31
0.0
  0
LINE
  5
   59C
  8
0
  6
CONTINUOUS
 62
     7
 10
-483.210919028521
 20
144.432085020918
 30
0.0
 11
-484.610919004679
 21
144.432085020918
 31
0.0
  0
LINE
  5
   59D
  8
0
  6
CONTINUOUS
 62
     7
 10
-484.610919894646
 20
144.432080577152
 30
0.0
 11
-484.610953451311
 21
157.627101031547
 31
0.0
  0
LINE
  5
   59E
  8
0
  6
CONTINUOUS
 62
     2
 10
-483.035929712653
 20
143.557085035819
 30
0.0
 11
-483.210919028521
 21
143.557085035819
 31
0.0
  0
LINE
  5
   59F
  8
0
  6
CONTINUOUS
 62
     2
 10
-482.510929721594
 20
149.157084940452
 30
0.0
 11
-483.210929709673
 21
149.157084940452
 31
0.0
  0
LINE
  5
   5A0
  8
0
  6
CONTINUOUS
 62
     2
 10
-482.510929721594
 20
153.007084874886
 30
0.0
 11
-483.210929709673
 21
153.007084874886
 31
0.0
  0
LINE
  5
   5A1
  8
0
  6
CONTINUOUS
 62
     2
 10
-482.510929721594
 20
152.066160818645
 30
0.0
 11
-483.210929709673
 21
152.066160818645
 31
0.0
  0
LINE
  5
   5A2
  8
0
  6
CONTINUOUS
 62
     2
 10
-482.510929721594
 20
150.772203321149
 30
0.0
 11
-483.210929709673
 21
150.772203321149
 31
0.0
  0
LINE
  5
   5A3
  8
0
  6
CONTINUOUS
 62
     7
 10
-508.410918599367
 20
149.682091553813
 30
0.0
 11
-508.410918599367
 21
150.032096888428
 31
0.0
  0
LINE
  5
   5A4
  8
0
  6
CONTINUOUS
 62
     7
 10
-516.18091739893
 20
150.032096888428
 30
0.0
 11
-516.285918465257
 21
150.032096888428
 31
0.0
  0
LINE
  5
   5A5
  8
0
  6
CONTINUOUS
 62
     7
 10
-507.360918617248
 20
149.682102234965
 30
0.0
 11
-508.410918599367
 21
149.682102234965
 31
0.0
  0
LINE
  5
   5A6
  8
0
  6
CONTINUOUS
 62
     7
 10
-507.360918617248
 20
141.107095758694
 30
0.0
 11
-507.360918617248
 21
149.682102234965
 31
0.0
  0
LINE
  5
   5A7
  8
0
  6
CONTINUOUS
 62
     7
 10
-516.180906717777
 20
141.107095758694
 30
0.0
 11
-516.180906717777
 21
150.032092508954
 31
0.0
  0
LINE
  5
   5A8
  8
0
  6
CONTINUOUS
 62
     2
 10
-483.210897666054
 20
157.627101031547
 30
0.0
 11
-516.180922739506
 21
157.627101031547
 31
0.0
  0
LINE
  5
   5A9
  8
0
  6
CONTINUOUS
 62
     2
 10
-516.180885355468
 20
150.03209447659
 30
0.0
 11
-516.180885355468
 21
157.627098619709
 31
0.0
  0
LINE
  5
   5AA
  8
0
  6
CONTINUOUS
 62
     7
 10
-508.410918599367
 20
150.032102229005
 30
0.0
 11
-508.410918599367
 21
157.627101031547
 31
0.0
  0
LINE
  5
   5AB
  8
0
  6
CONTINUOUS
 62
     7
 10
-518.03592377603
 20
90.7071246016076
 30
0.0
 11
-518.03592377603
 21
92.1070885822953
 31
0.0
  0
LINE
  5
   5AC
  8
0
  6
CONTINUOUS
 62
     7
 10
-518.03592377603
 20
141.107095758694
 30
0.0
 11
-518.03592377603
 21
150.032112910157
 31
0.0
  0
LINE
  5
   5AD
  8
0
  6
CONTINUOUS
 62
     7
 10
-516.285923805833
 20
150.032112910157
 30
0.0
 11
-518.03592377603
 21
150.032112910157
 31
0.0
  0
LINE
  5
   5AE
  8
0
  6
CONTINUOUS
 62
     7
 10
-516.285923805833
 20
90.7071246016076
 30
0.0
 11
-518.03592377603
 21
90.7071246016076
 31
0.0
  0
LINE
  5
   5AF
  8
0
  6
CONTINUOUS
 62
   218
 10
-483.210929375887
 20
70.6871246755172
 30
0.0
 11
-516.18092240572
 21
70.6871246755172
 31
0.0
  0
LINE
  5
   5B0
  8
0
  6
CONTINUOUS
 62
   218
 10
-516.180925209082
 20
79.5071194514528
 30
0.0
 11
-516.285923805518
 21
79.507120683874
 31
0.0
  0
LINE
  5
   5B1
  8
0
  6
CONTINUOUS
 62
   218
 10
-516.180928080082
 20
78.1071194756081
 30
0.0
 11
-517.685923781991
 21
78.1071194756081
 31
0.0
  0
LINE
  5
   5B2
  8
0
  6
CONTINUOUS
 62
   218
 10
-516.180928080082
 20
70.6871260106612
 30
0.0
 11
-516.180928080082
 21
79.5071247923423
 31
0.0
  0
LINE
  5
   5B3
  8
0
  6
CONTINUOUS
 62
   218
 10
-516.180928080082
 20
79.5071247923423
 30
0.0
 11
-516.180928080082
 21
90.7070899412812
 31
0.0
  0
LINE
  5
   5B4
  8
0
  6
CONTINUOUS
 62
     7
 10
-516.180928080082
 20
90.3571246075679
 30
0.0
 11
-516.285923805833
 21
90.3571246075679
 31
0.0
  0
LINE
  5
   5B5
  8
0
  6
CONTINUOUS
 62
   218
 10
-482.51092972148
 20
81.6071194163498
 30
0.0
 11
-483.210929375757
 21
81.6071247569259
 31
0.0
  0
LINE
  5
   5B6
  8
0
  6
CONTINUOUS
 62
   218
 10
-483.210929375887
 20
68.8321249741366
 30
0.0
 11
-483.210929375887
 21
81.6071194160036
 31
0.0
  0
LINE
  5
   5B7
  8
0
  6
CONTINUOUS
 62
   218
 10
-482.510929721594
 20
77.8446194800784
 30
0.0
 11
-483.210929709673
 21
77.8446194800784
 31
0.0
  0
LINE
  5
   5B8
  8
0
  6
CONTINUOUS
 62
   218
 10
-482.510929721594
 20
74.7934625820424
 30
0.0
 11
-483.210929709673
 21
74.7934625820424
 31
0.0
  0
LINE
  5
   5B9
  8
0
  6
CONTINUOUS
 62
   218
 10
-482.510929721594
 20
75.6520085860219
 30
0.0
 11
-483.210929709673
 21
75.6520085860219
 31
0.0
  0
LINE
  5
   5BA
  8
0
  6
CONTINUOUS
 62
     7
 10
-516.285923805833
 20
90.5321246045878
 30
0.0
 11
-518.03592377603
 21
90.5321246045878
 31
0.0
  0
LINE
  5
   5BB
  8
0
  6
CONTINUOUS
 62
     7
 10
-516.285923805833
 20
78.2821248132041
 30
0.0
 11
-518.03592377603
 21
78.2821248132041
 31
0.0
  0
LINE
  5
   5BC
  8
0
  6
CONTINUOUS
 62
     7
 10
-518.03592377603
 20
78.2821248132041
 30
0.0
 11
-518.03592377603
 21
90.5321246045878
 31
0.0
  0
LINE
  5
   5BD
  8
0
  6
CONTINUOUS
 62
     7
 10
-517.335923787951
 20
78.2821248132041
 30
0.0
 11
-517.335923787951
 21
90.5321246045878
 31
0.0
  0
LINE
  5
   5BE
  8
0
  6
CONTINUOUS
 62
     7
 10
-516.285923805833
 20
78.2821248132041
 30
0.0
 11
-516.285923805833
 21
90.5321246045878
 31
0.0
  0
LINE
  5
   5BF
  8
0
  6
CONTINUOUS
 62
     2
 10
-483.210897666054
 20
152.066160818645
 30
0.0
 11
-483.210897666054
 21
159.482100786346
 31
0.0
  0
LINE
  5
   5C0
  8
0
  6
CONTINUOUS
 62
     7
 10
-482.510929721594
 20
149.157084940452
 30
0.0
 11
-482.510929721594
 21
153.007084874886
 31
0.0
  0
LINE
  5
   5C1
  8
0
  6
CONTINUOUS
 62
     7
 10
-482.510929721594
 20
74.7934625820419
 30
0.0
 11
-482.510929721594
 21
77.844619480078
 31
0.0
  0
LINE
  5
   5C2
  8
0
  6
CONTINUOUS
 62
     7
 10
-465.885913982987
 20
102.607085733193
 30
0.0
 11
-466.585914757663
 21
102.607085733193
 31
0.0
  0
LINE
  5
   5C3
  8
0
  6
CONTINUOUS
 62
     7
 10
-465.885913982987
 20
105.057080350894
 30
0.0
 11
-466.585915047461
 21
105.057080350894
 31
0.0
  0
LINE
  5
   5C4
  8
0
  6
CONTINUOUS
 62
     7
 10
-482.510929721594
 20
70.6871077058492
 30
0.0
 11
-482.510929721594
 21
76.0070915267647
 31
0.0
  0
LINE
  5
   5C5
  8
0
  6
CONTINUOUS
 62
     3
 10
-465.360913991928
 20
93.5070965693176
 30
0.0
 11
-465.885913982987
 21
93.5070965693176
 31
0.0
  0
LINE
  5
   5C6
  8
0
  6
CONTINUOUS
 62
     3
 10
-465.360913991928
 20
87.5570966706455
 30
0.0
 11
-465.885913982987
 21
87.5570966706455
 31
0.0
  0
LINE
  5
   5C7
  8
0
  6
CONTINUOUS
 62
     3
 10
-465.360913991928
 20
83.7070967362106
 30
0.0
 11
-465.885913982987
 21
83.7070967362106
 31
0.0
  0
LINE
  5
   5C8
  8
0
  6
CONTINUOUS
 62
     3
 10
-465.360913991928
 20
144.60709569909
 30
0.0
 11
-465.885913982987
 21
144.60709569909
 31
0.0
  0
LINE
  5
   5C9
  8
0
  6
CONTINUOUS
 62
     3
 10
-465.360913991928
 20
140.757095764655
 30
0.0
 11
-465.885913982987
 21
140.757095764655
 31
0.0
  0
LINE
  5
   5CA
  8
0
  6
CONTINUOUS
 62
     3
 10
-465.360913991928
 20
134.807095865983
 30
0.0
 11
-465.885913982987
 21
134.807095865983
 31
0.0
  0
LINE
  5
   5CB
  8
0
  6
CONTINUOUS
 62
     3
 10
-465.885913982987
 20
140.407101111191
 30
0.0
 11
-465.885913982987
 21
144.60709569909
 31
0.0
  0
LINE
  5
   5CC
  8
0
  6
CONTINUOUS
 62
     3
 10
-465.885913982987
 20
93.1571499810389
 30
0.0
 11
-465.885913982987
 21
135.157111881751
 31
0.0
  0
LINE
  5
   5CD
  8
0
  6
CONTINUOUS
 62
     3
 10
-465.885913982987
 20
83.7070967362106
 30
0.0
 11
-465.885913982987
 21
87.9071500704458
 31
0.0
  0
LINE
  5
   5CE
  8
0
  6
CONTINUOUS
 62
     3
 10
-465.360913991928
 20
83.7070967362106
 30
0.0
 11
-465.360913991928
 21
87.9071180269893
 31
0.0
  0
LINE
  5
   5CF
  8
0
  6
CONTINUOUS
 62
     3
 10
-465.360913991928
 20
93.1571125970063
 30
0.0
 11
-465.360913991928
 21
135.157063816566
 31
0.0
  0
LINE
  5
   5D0
  8
0
  6
CONTINUOUS
 62
     3
 10
-465.360913991928
 20
140.407074408311
 30
0.0
 11
-465.360913991928
 21
144.60709569909
 31
0.0
  0
LINE
  5
   5D1
  8
0
  6
DASHDOT
 62
     7
 10
-465.185913994908
 20
93.1571232781585
 30
0.0
 11
-465.185913994908
 21
135.157101200598
 31
0.0
  0
LINE
  5
   5D2
  8
0
  6
DASHDOT
 62
     7
 10
-465.185913994908
 20
57.5883304995875
 30
0.0
 11
-465.185913994908
 21
87.9071233675654
 31
0.0
  0
LINE
  5
   5D3
  8
0
  6
DASHDOT
 62
     7
 10
-465.185913994908
 20
140.407101111191
 30
0.0
 11
-465.185913994908
 21
163.93093667919
 31
0.0
  0
LINE
  5
   5D4
  8
0
  6
DASHDOT
 62
     7
 10
-464.13591401279
 20
58.9995961428626
 30
0.0
 11
-464.13591401279
 21
164.388816576627
 31
0.0
  0
LINE
  5
   5D5
  8
0
  6
CONTINUOUS
 62
     7
 10
-466.597091427826
 20
168.840353846522
 30
0.0
 11
-462.724212071164
 21
169.401640709806
 31
0.0
  0
LINE
  5
   5D6
  8
0
  6
CONTINUOUS
 62
     7
 10
-466.647350669048
 20
57.7631965582431
 30
0.0
 11
-462.898402453376
 21
59.6088326028819
 31
0.0
  0
LINE
  5
   5D7
  8
0
  6
DASHDOT
 62
     7
 10
-460.70290298313
 20
137.782101155895
 30
0.0
 11
-471.461230038437
 21
137.782101155895
 31
0.0
  0
LINE
  5
   5D8
  8
0
  6
DASHDOT
 62
     7
 10
-460.900303479557
 20
90.5321019605576
 30
0.0
 11
-472.250832024147
 21
90.5321019605576
 31
0.0
  0
LINE
  5
   5D9
  8
0
  6
CONTINUOUS
 62
   130
 10
-527.835889563734
 20
95.9570845145607
 30
0.0
 11
-527.835907588178
 21
97.357093836727
 31
0.0
  0
LINE
  5
   5DA
  8
0
  6
CONTINUOUS
 62
   130
 10
-527.835907588122
 20
92.1070859144409
 30
0.0
 11
-527.83589023125
 21
93.507080550023
 31
0.0
  0
LINE
  5
   5DB
  8
0
  6
CONTINUOUS
 62
   130
 10
-481.810929587922
 20
92.1070445539011
 30
0.0
 11
-482.510929576001
 21
92.1070886136538
 31
0.0
  0
LINE
  5
   5DC
  8
0
  6
CONTINUOUS
 62
   130
 10
-484.260935032367
 20
92.1070885822953
 30
0.0
 11
-526.085907617211
 21
92.1070885822953
 31
0.0
  0
LINE
  5
   5DD
  8
0
  6
CONTINUOUS
 62
   130
 10
-466.585919311643
 20
141.107095758694
 30
0.0
 11
-481.810935074091
 21
141.107095758694
 31
0.0
  0
LINE
  5
   5DE
  8
0
  6
CONTINUOUS
 62
   130
 10
-466.585919311207
 20
92.1070004628563
 30
0.0
 11
-481.810929733079
 21
92.1070445226081
 31
0.0
  0
LINE
  5
   5DF
  8
0
  6
CONTINUOUS
 62
   130
 10
-466.585919311593
 20
92.1070004628205
 30
0.0
 11
-466.585913971017
 21
95.9570765004645
 31
0.0
  0
LINE
  5
   5E0
  8
0
  6
CONTINUOUS
 62
     7
 10
-496.160913467407
 20
129.907101290005
 30
0.0
 11
-527.835907587409
 21
129.907101290005
 31
0.0
  0
LINE
  5
   5E1
  8
0
  6
CONTINUOUS
 62
     7
 10
-496.160913467407
 20
119.407082776803
 30
0.0
 11
-527.835907587409
 21
119.407082776803
 31
0.0
  0
LINE
  5
   5E2
  8
0
  6
CONTINUOUS
 62
   130
 10
-527.835890230537
 20
93.5070805475906
 30
0.0
 11
-527.835889562965
 21
95.9570845112994
 31
0.0
  0
LINE
  5
   5E3
  8
0
  6
CONTINUOUS
 62
   130
 10
-481.810935074091
 20
141.107095758694
 30
0.0
 11
-527.835907587409
 21
141.107095758694
 31
0.0
  0
LINE
  5
   5E4
  8
0
  6
CONTINUOUS
 62
   130
 10
-527.835907587409
 20
129.907101290005
 30
0.0
 11
-527.835907587409
 21
141.107095758694
 31
0.0
  0
LINE
  5
   5E5
  8
0
  6
CONTINUOUS
 62
     7
 10
-492.048434899631
 20
93.5071019099221
 30
0.0
 11
-483.210929709557
 21
93.5071179316502
 31
0.0
  0
LINE
  5
   5E6
  8
0
  6
CONTINUOUS
 62
     7
 10
-506.354663293799
 20
93.5070938990332
 30
0.0
 11
-493.448434875896
 21
93.507101909897
 31
0.0
  0
LINE
  5
   5E7
  8
0
  6
CONTINUOUS
 62
     7
 10
-526.435869559642
 20
93.5070818827372
 30
0.0
 11
-507.75466260239
 21
93.5070938990331
 31
0.0
  0
LINE
  5
   5E8
  8
0
  6
CONTINUOUS
 62
     7
 10
-526.435866221782
 20
95.082084526203
 30
0.0
 11
-507.754661934818
 21
95.0820965424994
 31
0.0
  0
LINE
  5
   5E9
  8
0
  6
CONTINUOUS
 62
     7
 10
-506.354661958655
 20
95.0820978776434
 30
0.0
 11
-493.448432205608
 21
95.0821058885073
 31
0.0
  0
LINE
  5
   5EA
  8
0
  6
CONTINUOUS
 62
     7
 10
-492.048432229446
 20
95.0821072236511
 30
0.0
 11
-483.21092970966
 21
95.0821125642272
 31
0.0
  0
LINE
  5
   5EB
  8
0
  6
CONTINUOUS
 62
     7
 10
-526.435869559658
 20
93.5070818827829
 30
0.0
 11
-526.43586688937
 21
95.0820845262488
 31
0.0
  0
LINE
  5
   5EC
  8
0
  6
CONTINUOUS
 62
     7
 10
-483.210929709673
 20
93.5071179316219
 30
0.0
 11
-483.210929709673
 21
95.0821125642237
 31
0.0
  0
LINE
  5
   5ED
  8
0
  6
CONTINUOUS
 62
     7
 10
-492.048434899709
 20
93.5071019099477
 30
0.0
 11
-492.048432229421
 21
95.0821152345658
 31
0.0
  0
LINE
  5
   5EE
  8
0
  6
CONTINUOUS
 62
     7
 10
-493.448434875869
 20
93.5071019099432
 30
0.0
 11
-493.448432205581
 21
95.0821138994173
 31
0.0
  0
LINE
  5
   5EF
  8
0
  6
CONTINUOUS
 62
     7
 10
-506.354663293804
 20
93.5070938990431
 30
0.0
 11
-506.35466195866
 21
95.0821058885172
 31
0.0
  0
LINE
  5
   5F0
  8
0
  6
CONTINUOUS
 62
     7
 10
-507.754662602391
 20
93.5070938990419
 30
0.0
 11
-507.754661267247
 21
95.082104553372
 31
0.0
  0
LINE
  5
   5F1
  8
0
  6
CONTINUOUS
 62
   130
 10
-516.635908278823
 20
90.7070899412812
 30
0.0
 11
-516.635908278823
 21
92.1070899174393
 31
0.0
  0
LINE
  5
   5F2
  8
0
  6
CONTINUOUS
 62
   130
 10
-515.235908135772
 20
90.7070899412812
 30
0.0
 11
-515.235908135772
 21
92.1070899174393
 31
0.0
  0
LINE
  5
   5F3
  8
0
  6
CONTINUOUS
 62
   130
 10
-515.235908135772
 20
90.7070899412812
 30
0.0
 11
-516.635908278823
 21
90.7070899412812
 31
0.0
  0
LINE
  5
   5F4
  8
0
  6
CONTINUOUS
 62
   130
 10
-487.323408277333
 20
90.7071086332975
 30
0.0
 11
-487.323408277333
 21
92.1070832417192
 31
0.0
  0
LINE
  5
   5F5
  8
0
  6
CONTINUOUS
 62
   130
 10
-485.923408301175
 20
90.7071086332975
 30
0.0
 11
-485.923408301175
 21
92.1070832417192
 31
0.0
  0
LINE
  5
   5F6
  8
0
  6
CONTINUOUS
 62
   130
 10
-485.923408301175
 20
90.7071086332975
 30
0.0
 11
-487.323408277333
 21
90.7071086332975
 31
0.0
  0
LINE
  5
   5F7
  8
0
  6
CONTINUOUS
 62
   130
 10
-526.085907617211
 20
90.4445886106075
 30
0.0
 11
-526.085907617211
 21
91.3195885957064
 31
0.0
  0
LINE
  5
   5F8
  8
0
  6
CONTINUOUS
 62
   130
 10
-527.835907587409
 20
90.4445886106075
 30
0.0
 11
-527.835907587409
 21
92.1070859120073
 31
0.0
  0
LINE
  5
   5F9
  8
0
  6
CONTINUOUS
 62
   130
 10
-526.085907617211
 20
90.4445886106075
 30
0.0
 11
-527.835907587409
 21
90.4445886106075
 31
0.0
  0
LINE
  5
   5FA
  8
0
  6
CONTINUOUS
 62
   130
 10
-526.085907617211
 20
91.3195885957064
 30
0.0
 11
-526.085907617211
 21
92.1070885822953
 31
0.0
  0
LINE
  5
   5FB
  8
0
  6
CONTINUOUS
 62
   130
 10
-484.260940372944
 20
90.4445886106075
 30
0.0
 11
-484.260940372944
 21
91.3195885957064
 31
0.0
  0
LINE
  5
   5FC
  8
0
  6
CONTINUOUS
 62
   130
 10
-482.510940402746
 20
90.4445886106075
 30
0.0
 11
-484.260940372944
 21
90.4445886106075
 31
0.0
  0
LINE
  5
   5FD
  8
0
  6
CONTINUOUS
 62
   130
 10
-482.510940402002
 20
90.4445886111924
 30
0.0
 11
-482.51092972085
 21
92.1070885828802
 31
0.0
  0
LINE
  5
   5FE
  8
0
  6
CONTINUOUS
 62
   130
 10
-484.260940372155
 20
91.3195885963983
 30
0.0
 11
-484.260935031579
 21
92.1070832424112
 31
0.0
  0
LINE
  5
   5FF
  8
0
  6
CONTINUOUS
 62
     7
 10
-525.385910253596
 20
133.932107260852
 30
0.0
 11
-526.43591025878
 21
134.982107266036
 31
0.0
  0
LINE
  5
   600
  8
0
  6
CONTINUOUS
 62
   130
 10
-527.835907587409
 20
97.3570938334644
 30
0.0
 11
-527.835907587409
 21
119.407090787667
 31
0.0
  0
LINE
  5
   601
  8
0
  6
CONTINUOUS
 62
     7
 10
-496.160913467407
 20
119.407082776803
 30
0.0
 11
-496.160913467407
 21
129.907101290005
 31
0.0
  0
LINE
  5
   602
  8
0
  6
CONTINUOUS
 62
     7
 10
-522.410908013582
 20
129.732101292986
 30
0.0
 11
-522.410908013582
 21
129.907101290005
 31
0.0
  0
LINE
  5
   603
  8
0
  6
CONTINUOUS
 62
     7
 10
-492.048434899734
 20
136.469595837681
 30
0.0
 11
-483.21092970966
 21
136.469601178258
 31
0.0
  0
LINE
  5
   604
  8
0
  6
CONTINUOUS
 62
     7
 10
-492.048434899747
 20
133.932095880884
 30
0.0
 11
-492.048434899747
 21
136.469595837671
 31
0.0
  0
LINE
  5
   605
  8
0
  6
CONTINUOUS
 62
     7
 10
-492.048434899734
 20
133.932095880894
 30
0.0
 11
-483.21092970966
 21
133.932101221471
 31
0.0
  0
LINE
  5
   606
  8
0
  6
CONTINUOUS
 62
     7
 10
-483.210929709673
 20
133.93210122146
 30
0.0
 11
-483.210929709673
 21
136.469601178247
 31
0.0
  0
LINE
  5
   607
  8
0
  6
CONTINUOUS
 62
     7
 10
-507.754662602395
 20
133.93210122146
 30
0.0
 11
-507.754662602395
 21
136.469601178247
 31
0.0
  0
LINE
  5
   608
  8
0
  6
CONTINUOUS
 62
     7
 10
-493.448434875905
 20
133.93210122146
 30
0.0
 11
-507.754663269967
 21
133.93210122146
 31
0.0
  0
LINE
  5
   609
  8
0
  6
CONTINUOUS
 62
     7
 10
-493.448434875905
 20
133.93210122146
 30
0.0
 11
-493.448434875905
 21
136.469601178247
 31
0.0
  0
LINE
  5
   60A
  8
0
  6
CONTINUOUS
 62
     7
 10
-493.448434875905
 20
136.469601178247
 30
0.0
 11
-507.754663269967
 21
136.469601178247
 31
0.0
  0
LINE
  5
   60B
  8
0
  6
CONTINUOUS
 62
     7
 10
-509.154662578553
 20
133.93210122146
 30
0.0
 11
-526.435906943679
 21
133.93210122146
 31
0.0
  0
LINE
  5
   60C
  8
0
  6
CONTINUOUS
 62
     7
 10
-509.154662578553
 20
133.93210122146
 30
0.0
 11
-509.154662578553
 21
136.469601178247
 31
0.0
  0
LINE
  5
   60D
  8
0
  6
CONTINUOUS
 62
     7
 10
-509.154662578553
 20
136.469601178247
 30
0.0
 11
-526.435906943679
 21
136.469601178247
 31
0.0
  0
LINE
  5
   60E
  8
0
  6
CONTINUOUS
 62
     7
 10
-526.435907611251
 20
133.93210122146
 30
0.0
 11
-526.435907611251
 21
136.469601178247
 31
0.0
  0
LINE
  5
   60F
  8
0
  6
CONTINUOUS
 62
     7
 10
-522.935908004642
 20
93.5070845530214
 30
0.0
 11
-522.935908004642
 21
95.0820952073515
 31
0.0
  0
LINE
  5
   610
  8
0
  6
CONTINUOUS
 62
     7
 10
-521.535907027125
 20
93.5070858881654
 30
0.0
 11
-521.535907027125
 21
95.0820952073515
 31
0.0
  0
LINE
  5
   611
  8
0
  6
CONTINUOUS
 62
     7
 10
-526.43577075899
 20
93.5070738718723
 30
0.0
 11
-526.435770091418
 21
95.0820845262024
 31
0.0
  0
LINE
  5
   612
  8
0
  6
CONTINUOUS
 62
   130
 10
-527.835907587477
 20
92.1070698905094
 30
0.0
 11
-527.835906252333
 21
92.4570952522853
 31
0.0
  0
LINE
  5
   613
  8
0
  6
CONTINUOUS
 62
   130
 10
-481.810932395246
 20
92.1070471946739
 30
0.0
 11
-482.510929713037
 21
92.107057875826
 31
0.0
  0
LINE
  5
   614
  8
0
  6
CONTINUOUS
 62
   130
 10
-466.585913971066
 20
95.9570765004343
 30
0.0
 11
-466.585919311642
 21
141.107097093839
 31
0.0
  0
LINE
  5
   615
  8
0
  6
CONTINUOUS
 62
     7
 10
-492.030212854159
 20
93.5070965693176
 30
0.0
 11
-492.030212854159
 21
95.0821072236477
 31
0.0
  0
LINE
  5
   616
  8
0
  6
CONTINUOUS
 62
     7
 10
-493.448859451704
 20
93.5070805475893
 30
0.0
 11
-493.448859451704
 21
95.0821058885036
 31
0.0
  0
LINE
  5
   617
  8
0
  6
CONTINUOUS
 62
     7
 10
-501.235908040405
 20
129.732101292986
 30
0.0
 11
-527.835907587409
 21
129.732101292986
 31
0.0
  0
LINE
  5
   618
  8
0
  6
CONTINUOUS
 62
     7
 10
-501.235908040405
 20
119.407082776803
 30
0.0
 11
-501.235908040405
 21
129.732101292986
 31
0.0
  0
LINE
  5
   619
  8
0
  6
CONTINUOUS
 62
     7
 10
-527.835907587409
 20
119.407090787667
 30
0.0
 11
-527.835907587409
 21
129.732101292986
 31
0.0
  0
LINE
  5
   61A
  8
0
  6
CONTINUOUS
 62
   150
 10
-527.835894903541
 20
96.3946005255758
 30
0.0
 11
-531.685911527276
 21
96.3946005255758
 31
0.0
  0
LINE
  5
   61B
  8
0
  6
CONTINUOUS
 62
   150
 10
-527.835907587409
 20
133.144617256599
 30
0.0
 11
-531.685911527276
 21
133.144617256599
 31
0.0
  0
LINE
  5
   61C
  8
0
  6
CONTINUOUS
 62
   150
 10
-533.611013118017
 20
96.5694100599179
 30
0.0
 11
-533.610912982212
 21
96.5701350431332
 31
0.0
  0
LINE
  5
   61D
  8
0
  6
CONTINUOUS
 62
     7
 10
-525.385866239668
 20
93.5070912287449
 30
0.0
 11
-525.38586690724
 21
95.0820938722108
 31
0.0
  0
LINE
  5
   61E
  8
0
  6
CONTINUOUS
 62
     7
 10
-483.210929709673
 20
134.457101212519
 30
0.0
 11
-492.048429559171
 21
134.457101212519
 31
0.0
  0
LINE
  5
   61F
  8
0
  6
CONTINUOUS
 62
     7
 10
-493.448432205617
 20
134.457101212519
 30
0.0
 11
-507.754659264535
 21
134.457101212519
 31
0.0
  0
LINE
  5
   620
  8
0
  6
CONTINUOUS
 62
     7
 10
-509.154659240693
 20
134.457101212519
 30
0.0
 11
-525.385907629132
 21
134.457101212519
 31
0.0
  0
LINE
  5
   621
  8
0
  6
CONTINUOUS
 62
     7
 10
-525.648406363828
 20
134.19460684502
 30
0.0
 11
-525.385906362532
 21
134.457106846316
 31
0.0
  0
LINE
  5
   622
  8
0
  6
CONTINUOUS
 62
     7
 10
-525.385907629132
 20
134.457101212519
 30
0.0
 11
-525.385907629132
 21
136.469601178247
 31
0.0
  0
CIRCLE
  5
   623
  8
0
  6
CONTINUOUS
 62
   130
 10
-523.635936666208
 20
114.157079619792
 30
0.0
 40
3.49999695973229
  0
CIRCLE
  5
   624
  8
0
  6
CONTINUOUS
 62
   130
 10
-523.635933623328
 20
114.157077523379
 30
0.0
 40
0.962501397983491
  0
CIRCLE
  5
   625
  8
0
  6
CONTINUOUS
 62
   130
 10
-473.760916754818
 20
133.057073607301
 30
0.0
 40
2.10002360565626
  0
CIRCLE
  5
   626
  8
0
  6
CONTINUOUS
 62
   130
 10
-473.76093039924
 20
133.057089197947
 30
0.0
 40
1.13750330518346
  0
CIRCLE
  5
   627
  8
0
  6
CONTINUOUS
 62
   130
 10
-473.760931220971
 20
98.0570916054503
 30
0.0
 40
2.10000079410038
  0
CIRCLE
  5
   628
  8
0
  6
CONTINUOUS
 62
   130
 10
-473.760927824801
 20
98.0570945882652
 30
0.0
 40
1.1375029235037
  0
LINE
  5
   629
  8
0
  6
DASHDOT
 62
     7
 10
-473.760916754818
 20
130.607050007605
 30
0.0
 11
-473.760916754818
 21
135.507097206997
 31
0.0
  0
LINE
  5
   62A
  8
0
  6
DASHDOT
 62
     7
 10
-471.310893155122
 20
133.057073607301
 30
0.0
 11
-476.210940354514
 21
133.057073607301
 31
0.0
  0
LINE
  5
   62B
  8
0
  6
DASHDOT
 62
     7
 10
-473.760931220971
 20
95.6070908173104
 30
0.0
 11
-473.760931220971
 21
100.50709239359
 31
0.0
  0
LINE
  5
   62C
  8
0
  6
DASHDOT
 62
     7
 10
-471.31093043283
 20
98.0570916054503
 30
0.0
 11
-476.21093200911
 21
98.0570916054503
 31
0.0
  0
LINE
  5
   62D
  8
0
  6
CONTINUOUS
 62
     7
 10
-483.035929712653
 20
141.107095758694
 30
0.0
 11
-483.035929712653
 21
143.557085035819
 31
0.0
  0
LINE
  5
   62E
  8
0
  6
CONTINUOUS
 62
     7
 10
-531.68591286242
 20
62.8055035393064
 30
0.0
 11
-531.68591286242
 21
88.8695525885411
 31
0.0
  0
LINE
  5
   62F
  8
0
  6
CONTINUOUS
 62
     7
 10
-532.385912850499
 20
62.6875260132256
 30
0.0
 11
-532.385912850499
 21
96.3946005255758
 31
0.0
  0
LINE
  5
   630
  8
0
  6
CONTINUOUS
 62
     7
 10
-534.204651200124
 20
62.3809970778957
 30
0.0
 11
-529.66549905401
 21
63.1460227204991
 31
0.0
  0
LINE
  5
   631
  8
0
  6
CONTINUOUS
 62
     7
 10
-530.073512730065
 20
156.02013573255
 30
0.0
 11
-533.235618719493
 21
156.887164794167
 31
0.0
  0
LINE
  5
   632
  8
0
  6
CONTINUOUS
 62
     7
 10
-532.385912850499
 20
133.144617256599
 30
0.0
 11
-532.385912850499
 21
156.654180926863
 31
0.0
  0
LINE
  5
   633
  8
0
  6
DASHDOT
 62
     7
 10
-523.635936666208
 20
110.307082666021
 30
0.0
 11
-523.635936666208
 21
118.007076573564
 31
0.0
  0
LINE
  5
   634
  8
0
  6
DASHDOT
 62
     7
 10
-519.785939712436
 20
114.157079619792
 30
0.0
 11
-527.48593361998
 21
114.157079619792
 31
0.0
  0
LINE
  5
   635
  8
0
  6
CONTINUOUS
 62
     7
 10
-528.88591157496
 20
102.957123111265
 30
0.0
 11
-528.88591157496
 21
107.507050936002
 31
0.0
  0
LINE
  5
   636
  8
0
  6
CONTINUOUS
 62
     1
 10
-532.385911515355
 20
86.5945519597121
 30
0.0
 11
-532.385911515355
 21
142.944551000077
 31
0.0
  0
LINE
  5
   637
  8
0
  6
CONTINUOUS
 62
     1
 10
-532.385911515355
 20
86.5945519597121
 30
0.0
 11
-533.610911494494
 21
86.5945519597121
 31
0.0
  0
LINE
  5
   638
  8
0
  6
CONTINUOUS
 62
     1
 10
-533.610911494494
 20
86.5945519597121
 30
0.0
 11
-533.610911494494
 21
102.257051692981
 31
0.0
  0
LINE
  5
   639
  8
0
  6
CONTINUOUS
 62
     1
 10
-533.610911494494
 20
108.207050924081
 30
0.0
 11
-533.610911494494
 21
142.944553002793
 31
0.0
  0
LINE
  5
   63A
  8
0
  6
CONTINUOUS
 62
     1
 10
-532.385911515355
 20
142.944553002793
 30
0.0
 11
-533.610911494494
 21
142.944553002793
 31
0.0
  0
LINE
  5
   63B
  8
0
  6
CONTINUOUS
 62
     1
 10
-531.685911527276
 20
115.819553464729
 30
0.0
 11
-531.685911527276
 21
138.569553077299
 31
0.0
  0
LINE
  5
   63C
  8
0
  6
CONTINUOUS
 62
     1
 10
-531.685911527276
 20
107.50705360629
 30
0.0
 11
-531.685911527276
 21
113.71955617078
 31
0.0
  0
LINE
  5
   63D
  8
0
  6
CONTINUOUS
 62
     7
 10
-530.110911554098
 20
89.0716253008591
 30
0.0
 11
-530.110911554098
 21
90.7674798404603
 31
0.0
  0
LINE
  5
   63E
  8
0
  6
CONTINUOUS
 62
     7
 10
-530.110911554098
 20
138.771624454473
 30
0.0
 11
-530.110911554098
 21
140.467481664362
 31
0.0
  0
LINE
  5
   63F
  8
0
  6
CONTINUOUS
 62
     7
 10
-530.110911554098
 20
113.921624877666
 30
0.0
 11
-530.110911554098
 21
115.617479417267
 31
0.0
  0
LINE
  5
   640
  8
0
  6
CONTINUOUS
 62
     1
 10
-533.260911500454
 20
102.257051025409
 30
0.0
 11
-533.610911494494
 21
102.257051025409
 31
0.0
  0
LINE
  5
   641
  8
0
  6
CONTINUOUS
 62
     1
 10
-533.260911500454
 20
108.207050924081
 30
0.0
 11
-533.610911494494
 21
108.207050924081
 31
0.0
  0
LINE
  5
   642
  8
0
  6
CONTINUOUS
 62
     3
 10
-533.610911494494
 20
102.607051019449
 30
0.0
 11
-533.610911494494
 21
107.857050930042
 31
0.0
  0
LINE
  5
   643
  8
0
  6
CONTINUOUS
 62
     7
 10
-533.260911500454
 20
102.607051019449
 30
0.0
 11
-533.610911494494
 21
102.607051019449
 31
0.0
  0
LINE
  5
   644
  8
0
  6
CONTINUOUS
 62
     7
 10
-533.260911500454
 20
101.207051043291
 30
0.0
 11
-533.260911500454
 21
102.607051019449
 31
0.0
  0
LINE
  5
   645
  8
0
  6
CONTINUOUS
 62
     7
 10
-532.910911506415
 20
101.207051043291
 30
0.0
 11
-533.260911500454
 21
101.207051043291
 31
0.0
  0
LINE
  5
   646
  8
0
  6
CONTINUOUS
 62
     7
 10
-532.910911506415
 20
101.207051043291
 30
0.0
 11
-532.910911506415
 21
109.2570509062
 31
0.0
  0
LINE
  5
   647
  8
0
  6
CONTINUOUS
 62
     7
 10
-532.910911506415
 20
109.2570509062
 30
0.0
 11
-533.260911500454
 21
109.2570509062
 31
0.0
  0
LINE
  5
   648
  8
0
  6
CONTINUOUS
 62
     7
 10
-533.260911500454
 20
107.857050930042
 30
0.0
 11
-533.260911500454
 21
109.2570509062
 31
0.0
  0
LINE
  5
   649
  8
0
  6
CONTINUOUS
 62
     7
 10
-533.260911500454
 20
107.857050930042
 30
0.0
 11
-533.610911494494
 21
107.857050930042
 31
0.0
  0
LINE
  5
   64A
  8
0
  6
CONTINUOUS
 62
     7
 10
-528.88591157496
 20
102.957123111265
 30
0.0
 11
-532.385911515355
 21
102.957123111265
 31
0.0
  0
LINE
  5
   64B
  8
0
  6
CONTINUOUS
 62
     7
 10
-528.88591157496
 20
107.507050936002
 30
0.0
 11
-532.385911515355
 21
107.507050936002
 31
0.0
  0
LINE
  5
   64C
  8
0
  6
CONTINUOUS
 62
     1
 10
-533.610911494494
 20
102.257053695697
 30
0.0
 11
-533.610911494494
 21
102.607051019449
 31
0.0
  0
LINE
  5
   64D
  8
0
  6
CONTINUOUS
 62
     1
 10
-533.610911494494
 20
107.857050930042
 30
0.0
 11
-533.610911494494
 21
108.207053594369
 31
0.0
  0
LINE
  5
   64E
  8
0
  6
CONTINUOUS
 62
     7
 10
-530.460911548138
 20
88.8695525885411
 30
0.0
 11
-532.385911515355
 21
88.8695525885411
 31
0.0
  0
LINE
  5
   64F
  8
0
  6
CONTINUOUS
 62
     7
 10
-530.460911548138
 20
90.9695525527783
 30
0.0
 11
-532.385911515355
 21
90.9695525527783
 31
0.0
  0
LINE
  5
   650
  8
0
  6
CONTINUOUS
 62
     7
 10
-530.460911548138
 20
90.8896268262952
 30
0.0
 11
-530.460911548138
 21
90.9695525527783
 31
0.0
  0
LINE
  5
   651
  8
0
  6
CONTINUOUS
 62
     7
 10
-530.460911548138
 20
90.6620154791582
 30
0.0
 11
-530.460911548138
 21
90.8896268262952
 31
0.0
  0
LINE
  5
   652
  8
0
  6
CONTINUOUS
 62
     7
 10
-530.460911548138
 20
90.3213708392684
 30
0.0
 11
-530.460911548138
 21
90.6620154791582
 31
0.0
  0
LINE
  5
   653
  8
0
  6
CONTINUOUS
 62
     7
 10
-530.460911548138
 20
89.9195525706597
 30
0.0
 11
-530.460911548138
 21
90.3213708392684
 31
0.0
  0
LINE
  5
   654
  8
0
  6
CONTINUOUS
 62
     7
 10
-530.460911548138
 20
89.517735637195
 30
0.0
 11
-530.460911548138
 21
89.9195525706597
 31
0.0
  0
LINE
  5
   655
  8
0
  6
CONTINUOUS
 62
     7
 10
-530.460911548138
 20
89.1770909973052
 30
0.0
 11
-530.460911548138
 21
89.517735637195
 31
0.0
  0
LINE
  5
   656
  8
0
  6
CONTINUOUS
 62
     7
 10
-530.460911548138
 20
88.9494796501682
 30
0.0
 11
-530.460911548138
 21
89.1770909973052
 31
0.0
  0
LINE
  5
   657
  8
0
  6
CONTINUOUS
 62
     7
 10
-530.460911548138
 20
88.8695525885411
 30
0.0
 11
-530.460911548138
 21
88.9494796501682
 31
0.0
  0
LINE
  5
   658
  8
0
  6
CONTINUOUS
 62
     7
 10
-530.460911128625
 20
88.8695522994756
 30
0.0
 11
-530.11091112306
 21
89.0716250006139
 31
0.0
  0
LINE
  5
   659
  8
0
  6
CONTINUOUS
 62
     7
 10
-530.110910800538
 20
90.7674792096638
 30
0.0
 11
-530.460910806103
 21
90.9695519108021
 31
0.0
  0
LINE
  5
   65A
  8
0
  6
CONTINUOUS
 62
     7
 10
-530.460911548138
 20
138.569553077299
 30
0.0
 11
-532.385911515355
 21
138.569553077299
 31
0.0
  0
LINE
  5
   65B
  8
0
  6
CONTINUOUS
 62
     7
 10
-530.460911548138
 20
140.669553041536
 30
0.0
 11
-532.385911515355
 21
140.669553041536
 31
0.0
  0
LINE
  5
   65C
  8
0
  6
CONTINUOUS
 62
     7
 10
-530.460911548138
 20
140.589625979909
 30
0.0
 11
-530.460911548138
 21
140.669553041536
 31
0.0
  0
LINE
  5
   65D
  8
0
  6
CONTINUOUS
 62
     7
 10
-530.460911548138
 20
140.362015967916
 30
0.0
 11
-530.460911548138
 21
140.589625979909
 31
0.0
  0
LINE
  5
   65E
  8
0
  6
CONTINUOUS
 62
     7
 10
-530.460911548138
 20
140.021367322594
 30
0.0
 11
-530.460911548138
 21
140.362015967916
 31
0.0
  0
LINE
  5
   65F
  8
0
  6
CONTINUOUS
 62
     7
 10
-530.460911548138
 20
139.619553059418
 30
0.0
 11
-530.460911548138
 21
140.021367322594
 31
0.0
  0
LINE
  5
   660
  8
0
  6
CONTINUOUS
 62
     7
 10
-530.460911548138
 20
139.217733455665
 30
0.0
 11
-530.460911548138
 21
139.619553059418
 31
0.0
  0
LINE
  5
   661
  8
0
  6
CONTINUOUS
 62
     7
 10
-530.460911548138
 20
138.877090150919
 30
0.0
 11
-530.460911548138
 21
139.217733455665
 31
0.0
  0
LINE
  5
   662
  8
0
  6
CONTINUOUS
 62
     7
 10
-530.460911548138
 20
138.649480138926
 30
0.0
 11
-530.460911548138
 21
138.877090150919
 31
0.0
  0
LINE
  5
   663
  8
0
  6
CONTINUOUS
 62
     7
 10
-530.460911548138
 20
138.569553077299
 30
0.0
 11
-530.460911548138
 21
138.649480138926
 31
0.0
  0
LINE
  5
   664
  8
0
  6
CONTINUOUS
 62
     7
 10
-530.460911611632
 20
138.569552326502
 30
0.0
 11
-530.110911606068
 21
138.77162370621
 31
0.0
  0
LINE
  5
   665
  8
0
  6
CONTINUOUS
 62
     7
 10
-530.110911039653
 20
140.467480777523
 30
0.0
 11
-530.460911045217
 21
140.66955215723
 31
0.0
  0
LINE
  5
   666
  8
0
  6
CONTINUOUS
 62
     7
 10
-530.460911548138
 20
113.719553500492
 30
0.0
 11
-532.385911515355
 21
113.719553500492
 31
0.0
  0
LINE
  5
   667
  8
0
  6
CONTINUOUS
 62
     7
 10
-530.460911548138
 20
115.819553464729
 30
0.0
 11
-532.385911515355
 21
115.819553464729
 31
0.0
  0
LINE
  5
   668
  8
0
  6
CONTINUOUS
 62
     7
 10
-530.460911548138
 20
115.739626403102
 30
0.0
 11
-530.460911548138
 21
115.819553464729
 31
0.0
  0
LINE
  5
   669
  8
0
  6
CONTINUOUS
 62
     7
 10
-530.460911548138
 20
115.512013720821
 30
0.0
 11
-530.460911548138
 21
115.739626403102
 31
0.0
  0
LINE
  5
   66A
  8
0
  6
CONTINUOUS
 62
     7
 10
-530.460911548138
 20
115.171370416075
 30
0.0
 11
-530.460911548138
 21
115.512013720821
 31
0.0
  0
LINE
  5
   66B
  8
0
  6
CONTINUOUS
 62
     7
 10
-530.460911548138
 20
114.769553482611
 30
0.0
 11
-530.460911548138
 21
115.171370416075
 31
0.0
  0
LINE
  5
   66C
  8
0
  6
CONTINUOUS
 62
     7
 10
-530.460911548138
 20
114.367733878858
 30
0.0
 11
-530.460911548138
 21
114.769553482611
 31
0.0
  0
LINE
  5
   66D
  8
0
  6
CONTINUOUS
 62
     7
 10
-530.460911548138
 20
114.027090574112
 30
0.0
 11
-530.460911548138
 21
114.367733878858
 31
0.0
  0
LINE
  5
   66E
  8
0
  6
CONTINUOUS
 62
     7
 10
-530.460911548138
 20
113.799477891831
 30
0.0
 11
-530.460911548138
 21
114.027090574112
 31
0.0
  0
LINE
  5
   66F
  8
0
  6
CONTINUOUS
 62
     7
 10
-530.460911548138
 20
113.719553500492
 30
0.0
 11
-530.460911548138
 21
113.799477891831
 31
0.0
  0
LINE
  5
   670
  8
0
  6
CONTINUOUS
 62
     7
 10
-530.460911500532
 20
113.719553070416
 30
0.0
 11
-530.110911494968
 21
113.921624450123
 31
0.0
  0
LINE
  5
   671
  8
0
  6
CONTINUOUS
 62
     7
 10
-530.110910994239
 20
115.617478629352
 30
0.0
 11
-530.460910999802
 21
115.819552676013
 31
0.0
  0
LINE
  5
   672
  8
0
  6
CONTINUOUS
 62
     7
 10
-531.68591286242
 20
91.1445525497981
 30
0.0
 11
-532.385911515355
 21
91.1445525497981
 31
0.0
  0
LINE
  5
   673
  8
0
  6
CONTINUOUS
 62
     7
 10
-531.68591286242
 20
88.6945525915213
 30
0.0
 11
-532.385911515355
 21
88.6945525915213
 31
0.0
  0
LINE
  5
   674
  8
0
  6
CONTINUOUS
 62
     7
 10
-531.68591286242
 20
90.9695525527783
 30
0.0
 11
-531.68591286242
 21
102.957056354064
 31
0.0
  0
LINE
  5
   675
  8
0
  6
CONTINUOUS
 62
     7
 10
-531.685911527276
 20
102.607123117226
 30
0.0
 11
-532.385911515355
 21
102.607123117226
 31
0.0
  0
LINE
  5
   676
  8
0
  6
CONTINUOUS
 62
     7
 10
-531.685911527276
 20
107.857050930042
 30
0.0
 11
-532.385911515355
 21
107.857050930042
 31
0.0
  0
LINE
  5
   677
  8
0
  6
CONTINUOUS
 62
     7
 10
-531.685911527276
 20
115.994553461749
 30
0.0
 11
-532.385911515355
 21
115.994553461749
 31
0.0
  0
LINE
  5
   678
  8
0
  6
CONTINUOUS
 62
     7
 10
-531.685911527276
 20
113.544553503472
 30
0.0
 11
-532.385911515355
 21
113.544553503472
 31
0.0
  0
LINE
  5
   679
  8
0
  6
CONTINUOUS
 62
     7
 10
-531.68591286242
 20
140.669553041536
 30
0.0
 11
-531.68591286242
 21
156.46224544626
 31
0.0
  0
LINE
  5
   67A
  8
0
  6
CONTINUOUS
 62
     7
 10
-531.68591286242
 20
140.844553038556
 30
0.0
 11
-532.385911515355
 21
140.844553038556
 31
0.0
  0
LINE
  5
   67B
  8
0
  6
CONTINUOUS
 62
     7
 10
-531.68591286242
 20
138.394553080279
 30
0.0
 11
-532.385911515355
 21
138.394553080279
 31
0.0
  0
INSERT
  5
   67C
  8
0
  6
CONTINUOUS
 62
     7
  2
*HATCH169
 10
-518.560913085938
 20
76.2741470336914
 30
0.0
 41
0.349999994039536
 42
0.349999994039536
 50
89.9999999480344
 43
0.349999994039536
  0
INSERT
  5
   67D
  8
0
  6
CONTINUOUS
 62
     7
  2
*HATCH170
 10
-518.560913085938
 20
76.2741470336914
 30
0.0
 41
0.349999994039536
 42
0.349999994039536
 50
89.9999999480344
 43
0.349999994039536
  0
INSERT
  5
   67E
  8
0
  6
CONTINUOUS
 62
     7
  2
*HATCH171
 10
-518.560913085938
 20
76.2741470336914
 30
0.0
 41
0.349999994039536
 42
0.349999994039536
 50
89.9999999480344
 43
0.349999994039536
  0
INSERT
  5
   67F
  8
0
  6
CONTINUOUS
 62
     7
  2
*HATCH172
 10
-518.560913085938
 20
76.2741470336914
 30
0.0
 41
0.349999994039536
 42
0.349999994039536
 50
89.9999999480344
 43
0.349999994039536
  0
INSERT
  5
   680
  8
0
  6
CONTINUOUS
 62
     7
  2
*HATCH173
 10
-518.560913085938
 20
76.2741470336914
 30
0.0
 41
0.349999994039536
 42
0.349999994039536
 50
89.9999999480344
 43
0.349999994039536
  0
CIRCLE
  5
   681
  8
0
  6
CONTINUOUS
 62
     7
 10
-532.244728085294
 20
64.4830796493764
 30
0.0
 40
8.74999985098839E-2
  0
LINE
  5
   682
  8
0
  6
CONTINUOUS
 62
     3
 10
-530.460911548138
 20
133.144617256599
 30
0.0
 11
-530.460911548138
 21
135.594617214876
 31
0.0
  0
LINE
  5
   683
  8
0
  6
CONTINUOUS
 62
     3
 10
-529.760911560059
 20
133.144617256599
 30
0.0
 11
-529.760911560059
 21
135.594617214876
 31
0.0
  0
LINE
  5
   684
  8
0
  6
CONTINUOUS
 62
     3
 10
-529.760911560059
 20
135.594617214876
 30
0.0
 11
-530.460911548138
 21
135.594617214876
 31
0.0
  0
LINE
  5
   685
  8
0
  6
CONTINUOUS
 62
     7
 10
-528.360913586616
 20
133.669617247659
 30
0.0
 11
-529.235915574431
 21
133.669617247659
 31
0.0
  0
LINE
  5
   686
  8
0
  6
CONTINUOUS
 62
     7
 10
-528.360913586617
 20
133.669617247659
 30
0.0
 11
-528.360913586617
 21
137.344617185074
 31
0.0
  0
LINE
  5
   687
  8
0
  6
CONTINUOUS
 62
     7
 10
-529.585915568471
 20
138.569617164212
 30
0.0
 11
-530.46091555357
 21
138.569617164212
 31
0.0
  0
LINE
  5
   688
  8
0
  6
CONTINUOUS
 62
     7
 10
-530.810915547609
 20
140.669553041536
 30
0.0
 11
-530.810915547609
 21
141.719617110568
 31
0.0
  0
LINE
  5
   689
  8
0
  6
CONTINUOUS
 62
     7
 10
-530.810915547609
 20
141.719617110568
 30
0.0
 11
-531.68591286242
 21
141.719617110568
 31
0.0
  0
LINE
  5
   68A
  8
0
  6
CONTINUOUS
 62
     7
 10
-529.585915568471
 20
137.694617179113
 30
0.0
 11
-530.46091555357
 21
137.694617179113
 31
0.0
  0
LINE
  5
   68B
  8
0
  6
CONTINUOUS
 62
     7
 10
-529.235915574431
 20
133.669617247659
 30
0.0
 11
-529.235915574431
 21
137.344617185074
 31
0.0
  0
ARC
  5
   68C
  8
0
  6
CONTINUOUS
 62
     7
 10
-529.585920697198
 20
137.344612744867
 30
0.0
 40
1.2250064377287
 50
360.000319242658
 51
449.999813057862
  0
ARC
  5
   68D
  8
0
  6
CONTINUOUS
 62
     7
 10
-529.585900081619
 20
137.344631498247
 30
0.0
 40
0.349982431475061
 50
359.998830132094
 51
450.002235749312
  0
ARC
  5
   68E
  8
0
  6
CONTINUOUS
 62
     7
 10
-530.460922326903
 20
138.919605941825
 30
0.0
 40
1.22498984871903
 50
196.604271282219
 51
270.000346548696
  0
LINE
  5
   68F
  8
0
  6
CONTINUOUS
 62
     7
 10
-528.360913586616
 20
136.819617194014
 30
0.0
 11
-529.235915574431
 21
136.819617194014
 31
0.0
  0
INSERT
  5
   690
  8
0
  6
CONTINUOUS
 62
     7
  2
*HATCH174
 10
-518.560913085938
 20
76.2741470336914
 30
0.0
 41
0.349999994039536
 42
0.349999994039536
 50
89.9999999480344
 43
0.349999994039536
  0
LINE
  5
   691
  8
0
  6
DOT
 62
     3
 10
-543.235911330581
 20
96.3946005255758
 30
0.0
 11
-543.235911330581
 21
133.144617256599
 31
0.0
  0
LINE
  5
   692
  8
0
  6
DOT
 62
     3
 10
-536.651017629409
 20
133.144617256599
 30
0.0
 11
-543.235911330581
 21
133.144617256599
 31
0.0
  0
LINE
  5
   693
  8
0
  6
DOT
 62
     3
 10
-537.385968084749
 20
96.3946005255758
 30
0.0
 11
-543.235911330581
 21
96.3946005255758
 31
0.0
  0
LINE
  5
   694
  8
0
  6
CONTINUOUS
 62
     3
 10
-462.735914036632
 20
136.382101179737
 30
0.0
 11
-462.735914036632
 21
139.182101132053
 31
0.0
  0
LINE
  5
   695
  8
0
  6
CONTINUOUS
 62
     3
 10
-461.335914060473
 20
136.907101170796
 30
0.0
 11
-461.335914060473
 21
138.657101140994
 31
0.0
  0
LINE
  5
   696
  8
0
  6
CONTINUOUS
 62
     3
 10
-462.735914036632
 20
139.182101132053
 30
0.0
 11
-464.13591401279
 21
139.182101132053
 31
0.0
  0
LINE
  5
   697
  8
0
  6
CONTINUOUS
 62
     3
 10
-462.735914036632
 20
136.382101179737
 30
0.0
 11
-464.13591401279
 21
136.382101179737
 31
0.0
  0
LINE
  5
   698
  8
0
  6
CONTINUOUS
 62
     3
 10
-461.335914060473
 20
138.657101140994
 30
0.0
 11
-464.13591401279
 21
138.657101140994
 31
0.0
  0
LINE
  5
   699
  8
0
  6
CONTINUOUS
 62
     3
 10
-461.335914060473
 20
136.907101170796
 30
0.0
 11
-464.13591401279
 21
136.907101170796
 31
0.0
  0
LINE
  5
   69A
  8
0
  6
CONTINUOUS
 62
     3
 10
-462.735914036632
 20
91.9321019367158
 30
0.0
 11
-464.13591401279
 21
91.9321019367158
 31
0.0
  0
LINE
  5
   69B
  8
0
  6
CONTINUOUS
 62
     3
 10
-461.335914060473
 20
91.4071019456565
 30
0.0
 11
-464.13591401279
 21
91.4071019456565
 31
0.0
  0
LINE
  5
   69C
  8
0
  6
CONTINUOUS
 62
     3
 10
-461.335914060473
 20
89.6571019754588
 30
0.0
 11
-464.13591401279
 21
89.6571019754588
 31
0.0
  0
LINE
  5
   69D
  8
0
  6
CONTINUOUS
 62
     3
 10
-462.735914036632
 20
89.1321019843995
 30
0.0
 11
-464.13591401279
 21
89.1321019843995
 31
0.0
  0
LINE
  5
   69E
  8
0
  6
CONTINUOUS
 62
     3
 10
-462.735914036632
 20
89.1321019843995
 30
0.0
 11
-462.735914036632
 21
91.9321019367158
 31
0.0
  0
LINE
  5
   69F
  8
0
  6
CONTINUOUS
 62
     3
 10
-461.335914060473
 20
89.6571019754588
 30
0.0
 11
-461.335914060473
 21
91.4071019456565
 31
0.0
  0
LINE
  5
   6A0
  8
0
  6
CONTINUOUS
 62
     3
 10
-464.13591401279
 20
166.657116685885
 30
0.0
 11
-465.185913994908
 21
166.657116685885
 31
0.0
  0
LINE
  5
   6A1
  8
0
  6
CONTINUOUS
 62
     3
 10
-464.13591401279
 20
143.907117073315
 30
0.0
 11
-465.185913994908
 21
143.907117073315
 31
0.0
  0
LINE
  5
   6A2
  8
0
  6
CONTINUOUS
 62
   210
 10
-482.510928928063
 20
79.5071295187647
 30
0.0
 11
-482.510928928063
 21
90.4445886106075
 31
0.0
  0
LINE
  5
   6A3
  8
0
  6
CONTINUOUS
 62
   210
 10
-482.510934368684
 20
141.107095758694
 30
0.0
 11
-482.510934368684
 21
143.557117079275
 31
0.0
  0
LINE
  5
   6A4
  8
0
  6
CONTINUOUS
 62
   210
 10
-469.560932612419
 20
83.707120768803
 30
0.0
 11
-469.560932612419
 21
92.1070090722657
 31
0.0
  0
LINE
  5
   6A5
  8
0
  6
CONTINUOUS
 62
   210
 10
-469.560932612419
 20
141.107095758694
 30
0.0
 11
-469.560932612419
 21
144.607117061394
 31
0.0
  0
LINE
  5
   6A6
  8
0
  6
CONTINUOUS
 62
   210
 10
-465.885932675004
 20
102.607115106362
 30
0.0
 11
-466.585914757667
 21
102.607115106362
 31
0.0
  0
LINE
  5
   6A7
  8
0
  6
CONTINUOUS
 62
   210
 10
-465.885932675004
 20
105.057115064639
 30
0.0
 11
-466.585915047465
 21
105.057115064639
 31
0.0
  0
LINE
  5
   6A8
  8
0
  6
CONTINUOUS
 62
   210
 10
-465.885932675004
 20
102.607115106362
 30
0.0
 11
-465.885932675004
 21
105.057115064639
 31
0.0
  0
LINE
  5
   6A9
  8
0
  6
CONTINUOUS
 62
   210
 10
-465.185932686925
 20
135.157122562903
 30
0.0
 11
-465.185932686925
 21
140.407122473496
 31
0.0
  0
LINE
  5
   6AA
  8
0
  6
CONTINUOUS
 62
   210
 10
-465.185932686925
 20
87.9071247027094
 30
0.0
 11
-465.185932686925
 21
93.1571246133025
 31
0.0
  0
LINE
  5
   6AB
  8
0
  6
CONTINUOUS
 62
   210
 10
-465.185932686925
 20
140.407122473496
 30
0.0
 11
-466.585919228846
 21
140.407122473496
 31
0.0
  0
LINE
  5
   6AC
  8
0
  6
CONTINUOUS
 62
   210
 10
-465.185932686925
 20
135.157122562903
 30
0.0
 11
-466.585918607849
 21
135.157122562903
 31
0.0
  0
LINE
  5
   6AD
  8
0
  6
CONTINUOUS
 62
   210
 10
-465.185932686925
 20
93.1571246133025
 30
0.0
 11
-466.585917854928
 21
93.1571246133025
 31
0.0
  0
LINE
  5
   6AE
  8
0
  6
CONTINUOUS
 62
   210
 10
-465.185932686925
 20
87.9071247027094
 30
0.0
 11
-469.560932612419
 21
87.9071247027094
 31
0.0
  0
LINE
  5
   6AF
  8
0
  6
DASHDOT
 62
   210
 10
-473.760932421041
 20
62.9570581107434
 30
0.0
 11
-473.760932421041
 21
99.8946249750922
 31
0.0
  0
LINE
  5
   6B0
  8
0
  6
DASHDOT
 62
   210
 10
-471.923432675602
 20
98.0571252296532
 30
0.0
 11
-475.59843216648
 21
98.0571252296532
 31
0.0
  0
LINE
  5
   6B1
  8
0
  6
DASHDOT
 62
   210
 10
-473.760929684832
 20
100.086651896142
 30
0.0
 11
-473.760929684832
 21
164.299008207361
 31
0.0
  0
LINE
  5
   6B2
  8
0
  6
DASHDOT
 62
   210
 10
-471.923426688372
 20
133.057125409556
 30
0.0
 11
-475.598432681292
 21
133.057125409556
 31
0.0
  0
LINE
  5
   6B3
  8
0
  6
DASHDOT
 62
   210
 10
-462.385554598231
 20
137.782122518199
 30
0.0
 11
-470.868509349136
 21
137.782122518199
 31
0.0
  0
LINE
  5
   6B4
  8
0
  6
DASHDOT
 62
   210
 10
-463.683966039696
 20
90.532124658006
 30
0.0
 11
-472.210201171983
 21
90.532124658006
 31
0.0
  0
LINE
  5
   6B5
  8
0
  6
CONTINUOUS
 62
   210
 10
-469.560932612419
 20
141.807125260545
 30
0.0
 11
-482.510928904456
 21
141.807125260545
 31
0.0
  0
LINE
  5
   6B6
  8
0
  6
CONTINUOUS
 62
   210
 10
-469.560932612419
 20
89.3071253786649
 30
0.0
 11
-482.510930967729
 21
89.3071253786649
 31
0.0
  0
LINE
  5
   6B7
  8
0
  6
CONTINUOUS
 62
   210
 10
-465.535927340388
 20
66.9071223900493
 30
0.0
 11
-482.510931704713
 21
66.9071223900493
 31
0.0
  0
LINE
  5
   6B8
  8
0
  6
CONTINUOUS
 62
   210
 10
-465.535927340388
 20
70.6871247289355
 30
0.0
 11
-482.510932391882
 21
70.6871247289355
 31
0.0
  0
LINE
  5
   6B9
  8
0
  6
CONTINUOUS
 62
   210
 10
-465.535927340388
 20
157.627121112126
 30
0.0
 11
-482.510932391882
 21
157.627121112126
 31
0.0
  0
LINE
  5
   6BA
  8
0
  6
CONTINUOUS
 62
   210
 10
-465.535927340388
 20
66.9071223900493
 30
0.0
 11
-465.535927340388
 21
83.707120768803
 31
0.0
  0
LINE
  5
   6BB
  8
0
  6
CONTINUOUS
 62
   210
 10
-465.535927340388
 20
144.607117061394
 30
0.0
 11
-465.535927340388
 21
161.407116775292
 31
0.0
  0
LINE
  5
   6BC
  8
0
  6
CONTINUOUS
 62
   210
 10
-465.535927340388
 20
83.707120768803
 30
0.0
 11
-469.560932612419
 21
83.707120768803
 31
0.0
  0
LINE
  5
   6BD
  8
0
  6
CONTINUOUS
 62
   210
 10
-465.535927340388
 20
144.607117061394
 30
0.0
 11
-469.560932612419
 21
144.607117061394
 31
0.0
  0
LINE
  5
   6BE
  8
0
  6
CONTINUOUS
 62
   210
 10
-459.060932791233
 20
144.607117061394
 30
0.0
 11
-465.535930010676
 21
144.607117061394
 31
0.0
  0
LINE
  5
   6BF
  8
0
  6
CONTINUOUS
 62
   210
 10
-465.010927626337
 20
161.407116775292
 30
0.0
 11
-465.535930010676
 21
161.407116775292
 31
0.0
  0
LINE
  5
   6C0
  8
0
  6
CONTINUOUS
 62
   210
 10
-463.785932710767
 20
144.607117061394
 30
0.0
 11
-463.785932710767
 21
148.363838494
 31
0.0
  0
LINE
  5
   6C1
  8
0
  6
CONTINUOUS
 62
   210
 10
-463.785961631957
 20
157.650390002121
 30
0.0
 11
-463.785961631957
 21
158.327175732583
 31
0.0
  0
LINE
  5
   6C2
  8
0
  6
CONTINUOUS
 62
   210
 10
-459.060932791233
 20
144.607117061394
 30
0.0
 11
-459.060932791233
 21
154.582159904581
 31
0.0
  0
LINE
  5
   6C3
  8
0
  6
CONTINUOUS
 62
   210
 10
-459.060932790302
 20
83.7071106884622
 30
0.0
 11
-465.535930010402
 21
83.7071180985198
 31
0.0
  0
LINE
  5
   6C4
  8
0
  6
CONTINUOUS
 62
   210
 10
-465.010927626435
 20
66.907118251087
 30
0.0
 11
-465.535930010371
 21
66.9071190521783
 31
0.0
  0
LINE
  5
   6C5
  8
0
  6
CONTINUOUS
 62
   210
 10
-463.785932710767
 20
69.9870500812586
 30
0.0
 11
-463.785932710767
 21
70.6638411523667
 31
0.0
  0
LINE
  5
   6C6
  8
0
  6
CONTINUOUS
 62
   210
 10
-463.785932710767
 20
79.9503923266914
 30
0.0
 11
-463.785932710767
 21
83.7071160957989
 31
0.0
  0
LINE
  5
   6C7
  8
0
  6
CONTINUOUS
 62
   210
 10
-459.060932791233
 20
73.73206590932
 30
0.0
 11
-459.060932791233
 21
83.7071106884622
 31
0.0
  0
LINE
  5
   6C8
  8
0
  6
CONTINUOUS
 62
   210
 10
-459.060932791233
 20
148.363838494
 30
0.0
 11
-463.785932710767
 21
148.363838494
 31
0.0
  0
LINE
  5
   6C9
  8
0
  6
CONTINUOUS
 62
   210
 10
-459.060932791233
 20
157.65039000211
 30
0.0
 11
-463.785932710767
 21
157.65039000211
 31
0.0
  0
LINE
  5
   6CA
  8
0
  6
CONTINUOUS
 62
   210
 10
-459.060932791233
 20
70.6638411523667
 30
0.0
 11
-463.785932710767
 21
70.6638411523667
 31
0.0
  0
LINE
  5
   6CB
  8
0
  6
CONTINUOUS
 62
   210
 10
-459.060932791233
 20
79.9503923266914
 30
0.0
 11
-463.785932710767
 21
79.9503923266914
 31
0.0
  0
LINE
  5
   6CC
  8
0
  6
DASHDOT
 62
   210
 10
-457.41851220811
 20
153.007116918343
 30
0.0
 11
-484.183579226486
 21
153.007116918343
 31
0.0
  0
LINE
  5
   6CD
  8
0
  6
DASHDOT
 62
   210
 10
-457.081845133401
 20
75.3071121381337
 30
0.0
 11
-484.239691169874
 21
75.3071432178695
 31
0.0
  0
LINE
  5
   6CE
  8
0
  6
CONTINUOUS
 62
   210
 10
-465.535927340386
 20
161.407111205009
 30
0.0
 11
-482.510932391882
 21
161.407111205009
 31
0.0
  0
LINE
  5
   6CF
  8
0
  6
CONTINUOUS
 62
   210
 10
-481.810930734873
 20
143.557117079275
 30
0.0
 11
-482.510931307077
 21
143.557117079275
 31
0.0
  0
LINE
  5
   6D0
  8
0
  6
CONTINUOUS
 62
   210
 10
-481.810930734873
 20
148.807116989869
 30
0.0
 11
-482.510931307077
 21
148.807116989869
 31
0.0
  0
LINE
  5
   6D1
  8
0
  6
CONTINUOUS
 62
   210
 10
-481.810930734873
 20
143.557117079275
 30
0.0
 11
-481.810930734873
 21
148.807116989869
 31
0.0
  0
LINE
  5
   6D2
  8
0
  6
CONTINUOUS
 62
   210
 10
-481.810930651426
 20
157.627105090397
 30
0.0
 11
-481.810930651426
 21
161.407111434716
 31
0.0
  0
LINE
  5
   6D3
  8
0
  6
CONTINUOUS
 62
   210
 10
-481.810930651426
 20
84.7571294293577
 30
0.0
 11
-482.510931307077
 21
84.7571294293577
 31
0.0
  0
LINE
  5
   6D4
  8
0
  6
CONTINUOUS
 62
   210
 10
-481.810930651426
 20
79.5071295187647
 30
0.0
 11
-482.510931307077
 21
79.5071295187647
 31
0.0
  0
LINE
  5
   6D5
  8
0
  6
CONTINUOUS
 62
   210
 10
-481.81093056798
 20
66.9071277306254
 30
0.0
 11
-481.81093056798
 21
70.6871263978655
 31
0.0
  0
LINE
  5
   6D6
  8
0
  6
CONTINUOUS
 62
   210
 10
-481.810930651426
 20
79.5071291849787
 30
0.0
 11
-481.810930651426
 21
84.7571294293577
 31
0.0
  0
LINE
  5
   6D7
  8
0
  6
CONTINUOUS
 62
   210
 10
-482.510932391882
 20
143.557117079275
 30
0.0
 11
-482.510932391882
 21
161.407111205009
 31
0.0
  0
LINE
  5
   6D8
  8
0
  6
CONTINUOUS
 62
   210
 10
-482.510931704713
 20
66.9071223900493
 30
0.0
 11
-482.510931704713
 21
79.5071295187647
 31
0.0
  0
LINE
  5
   6D9
  8
0
  6
CONTINUOUS
 62
     3
 10
-464.13591401279
 20
84.4071200559211
 30
0.0
 11
-465.185913994908
 21
84.4071212575525
 31
0.0
  0
LINE
  5
   6DA
  8
0
  6
CONTINUOUS
 62
     7
 10
-482.860927347105
 20
175.018149030975
 30
0.0
 11
-482.860927347105
 21
175.435440283634
 31
0.0
  0
LINE
  5
   6DB
  8
0
  6
CONTINUOUS
 62
     7
 10
-482.860927283523
 20
171.878499121064
 30
0.0
 11
-482.860927283523
 21
172.295790373723
 31
0.0
  0
LINE
  5
   6DC
  8
0
  6
CONTINUOUS
 62
     7
 10
-482.860917432357
 20
175.435440283634
 30
0.0
 11
-482.860917432357
 21
175.581975010143
 31
0.0
  0
LINE
  5
   6DD
  8
0
  6
CONTINUOUS
 62
     7
 10
-482.860928630518
 20
173.656975042925
 30
0.0
 11
-482.860928630518
 21
174.393632745224
 31
0.0
  0
LINE
  5
   6DE
  8
0
  6
CONTINUOUS
 62
     7
 10
-482.860923114804
 20
172.920306659474
 30
0.0
 11
-482.860923114804
 21
173.656975042925
 31
0.0
  0
LINE
  5
   6DF
  8
0
  6
CONTINUOUS
 62
     7
 10
-482.86091772442
 20
171.731975075708
 30
0.0
 11
-482.86091772442
 21
171.878499121064
 31
0.0
  0
LINE
  5
   6E0
  8
0
  6
CONTINUOUS
 62
     7
 10
-482.860924071069
 20
174.393632745224
 30
0.0
 11
-482.860924071069
 21
175.018149030975
 31
0.0
  0
LINE
  5
   6E1
  8
0
  6
CONTINUOUS
 62
     7
 10
-482.860924097807
 20
172.295790373723
 30
0.0
 11
-482.860924097807
 21
172.920306659474
 31
0.0
  0
LINE
  5
   6E2
  8
0
  6
CONTINUOUS
 62
     7
 10
-485.66091771846
 20
172.295790373723
 30
0.0
 11
-485.66091771846
 21
172.920306659474
 31
0.0
  0
LINE
  5
   6E3
  8
0
  6
CONTINUOUS
 62
     7
 10
-485.66091771846
 20
171.878499121064
 30
0.0
 11
-485.66091771846
 21
172.295790373723
 31
0.0
  0
LINE
  5
   6E4
  8
0
  6
CONTINUOUS
 62
     7
 10
-485.660917384674
 20
173.656975042925
 30
0.0
 11
-485.660917384674
 21
174.393632745224
 31
0.0
  0
LINE
  5
   6E5
  8
0
  6
CONTINUOUS
 62
     7
 10
-485.660917384674
 20
174.393632745224
 30
0.0
 11
-485.660917384674
 21
175.018149030975
 31
0.0
  0
LINE
  5
   6E6
  8
0
  6
CONTINUOUS
 62
     7
 10
-485.660917384674
 20
175.018149030975
 30
0.0
 11
-485.660917384674
 21
175.435440283634
 31
0.0
  0
LINE
  5
   6E7
  8
0
  6
CONTINUOUS
 62
     7
 10
-485.660917384674
 20
175.435440283634
 30
0.0
 11
-485.660917384674
 21
175.581975010143
 31
0.0
  0
LINE
  5
   6E8
  8
0
  6
CONTINUOUS
 62
     7
 10
-485.660961509103
 20
172.920306659474
 30
0.0
 11
-485.660961509103
 21
173.656975042925
 31
0.0
  0
LINE
  5
   6E9
  8
0
  6
CONTINUOUS
 62
     7
 10
-485.66091771846
 20
171.731975075708
 30
0.0
 11
-485.66091771846
 21
171.878499121064
 31
0.0
  0
LINE
  5
   6EA
  8
0
  6
CONTINUOUS
 62
     7
 10
-469.15794264898
 20
162.919008041351
 30
0.0
 11
-482.34650773661
 21
166.545527084213
 31
0.0
  0
LINE
  5
   6EB
  8
0
  6
CONTINUOUS
 62
     7
 10
-482.860914193158
 20
167.220475248418
 30
0.0
 11
-482.860914193158
 21
171.731975075708
 31
0.0
  0
LINE
  5
   6EC
  8
0
  6
CONTINUOUS
 62
     7
 10
-485.660910041366
 20
167.220471427956
 30
0.0
 11
-485.66091771846
 21
171.731975075869
 31
0.0
  0
LINE
  5
   6ED
  8
0
  6
CONTINUOUS
 62
     7
 10
-474.220326234473
 20
161.407111205009
 30
0.0
 11
-483.08887771223
 21
163.845736550016
 31
0.0
  0
LINE
  5
   6EE
  8
0
  6
CONTINUOUS
 62
     7
 10
-482.860913693905
 20
175.581975010143
 30
0.0
 11
-482.860913693905
 21
178.906974953518
 31
0.0
  0
LINE
  5
   6EF
  8
0
  6
CONTINUOUS
 62
     7
 10
-482.860917557527
 20
178.906974953518
 30
0.0
 11
-485.660909040023
 21
178.906974953518
 31
0.0
  0
LINE
  5
   6F0
  8
0
  6
CONTINUOUS
 62
     7
 10
-485.660917384673
 20
175.58197501017
 30
0.0
 11
-485.660909040023
 21
178.906974953464
 31
0.0
  0
LINE
  5
   6F1
  8
0
  6
DASHDOT
 62
     7
 10
-480.537841011952
 20
173.656975042925
 30
0.0
 11
-488.089121371682
 21
173.656975042925
 31
0.0
  0
LINE
  5
   6F2
  8
0
  6
DASHDOT
 62
     7
 10
-463.490034654559
 20
153.006970054016
 30
0.0
 11
-472.109634569582
 21
153.006970054016
 31
0.0
  0
ARC
  5
   6F3
  8
0
  6
CONTINUOUS
 62
     7
 10
-482.160914205079
 20
167.220475248418
 30
0.0
 40
0.699999988079071
 50
179.999999948034
 51
254.625107220702
  0
ARC
  5
   6F4
  8
0
  6
CONTINUOUS
 62
     7
 10
-470.085910306634
 20
159.544267220322
 30
0.0
 40
3.49999994039536
 50
392.156183816809
 51
434.625107220702
  0
ARC
  5
   6F5
  8
0
  6
CONTINUOUS
 62
     7
 10
-482.160910100975
 20
167.220477383803
 30
0.0
 40
3.49999994039536
 50
179.999999948034
 51
254.625108008454
  0
LINE
  5
   6F6
  8
0
  6
CONTINUOUS
 62
     7
 10
-482.860927347105
 20
52.8787855302667
 30
0.0
 11
-482.860927347105
 21
53.2960767829259
 31
0.0
  0
LINE
  5
   6F7
  8
0
  6
CONTINUOUS
 62
     7
 10
-482.860927283523
 20
56.0184354401777
 30
0.0
 11
-482.860927283523
 21
56.4357266928369
 31
0.0
  0
LINE
  5
   6F8
  8
0
  6
CONTINUOUS
 62
     7
 10
-482.860917432357
 20
52.7322508037583
 30
0.0
 11
-482.860917432357
 21
52.8787855302667
 31
0.0
  0
LINE
  5
   6F9
  8
0
  6
CONTINUOUS
 62
     7
 10
-482.860928630518
 20
53.9205930686772
 30
0.0
 11
-482.860928630518
 21
54.6572507709757
 31
0.0
  0
LINE
  5
   6FA
  8
0
  6
CONTINUOUS
 62
     7
 10
-482.860923114804
 20
54.6572507709758
 30
0.0
 11
-482.860923114804
 21
55.3939191544265
 31
0.0
  0
LINE
  5
   6FB
  8
0
  6
CONTINUOUS
 62
     7
 10
-482.86091772442
 20
56.4357266928369
 30
0.0
 11
-482.86091772442
 21
56.5822507381932
 31
0.0
  0
LINE
  5
   6FC
  8
0
  6
CONTINUOUS
 62
     7
 10
-482.860924071069
 20
53.2960767829259
 30
0.0
 11
-482.860924071069
 21
53.9205930686772
 31
0.0
  0
LINE
  5
   6FD
  8
0
  6
CONTINUOUS
 62
     7
 10
-482.860924097807
 20
55.3939191544265
 30
0.0
 11
-482.860924097807
 21
56.0184354401777
 31
0.0
  0
LINE
  5
   6FE
  8
0
  6
CONTINUOUS
 62
     7
 10
-485.66091771846
 20
55.3939191544264
 30
0.0
 11
-485.66091771846
 21
56.0184354401777
 31
0.0
  0
LINE
  5
   6FF
  8
0
  6
CONTINUOUS
 62
     7
 10
-485.66091771846
 20
56.0184354401777
 30
0.0
 11
-485.66091771846
 21
56.4357266928369
 31
0.0
  0
LINE
  5
   700
  8
0
  6
CONTINUOUS
 62
     7
 10
-485.660917384674
 20
53.9205930686772
 30
0.0
 11
-485.660917384674
 21
54.6572507709757
 31
0.0
  0
LINE
  5
   701
  8
0
  6
CONTINUOUS
 62
     7
 10
-485.660917384674
 20
53.2960767829259
 30
0.0
 11
-485.660917384674
 21
53.9205930686772
 31
0.0
  0
LINE
  5
   702
  8
0
  6
CONTINUOUS
 62
     7
 10
-485.660917384674
 20
52.8787855302667
 30
0.0
 11
-485.660917384674
 21
53.2960767829259
 31
0.0
  0
LINE
  5
   703
  8
0
  6
CONTINUOUS
 62
     7
 10
-485.660917384674
 20
52.7322508037583
 30
0.0
 11
-485.660917384674
 21
52.8787855302667
 31
0.0
  0
LINE
  5
   704
  8
0
  6
CONTINUOUS
 62
     7
 10
-485.660961509103
 20
54.6572507709758
 30
0.0
 11
-485.660961509103
 21
55.3939191544265
 31
0.0
  0
LINE
  5
   705
  8
0
  6
CONTINUOUS
 62
     7
 10
-485.66091771846
 20
56.4357266928369
 30
0.0
 11
-485.66091771846
 21
56.5822507381932
 31
0.0
  0
LINE
  5
   706
  8
0
  6
CONTINUOUS
 62
     7
 10
-482.34650773661
 20
61.7686987296884
 30
0.0
 11
-469.15794264898
 21
65.39521777255
 31
0.0
  0
LINE
  5
   707
  8
0
  6
CONTINUOUS
 62
     7
 10
-482.860914193158
 20
56.5822507381932
 30
0.0
 11
-482.860914193158
 21
61.0937505654827
 31
0.0
  0
LINE
  5
   708
  8
0
  6
CONTINUOUS
 62
     7
 10
-485.66091771846
 20
56.5822507380319
 30
0.0
 11
-485.660910041366
 21
61.093754385945
 31
0.0
  0
LINE
  5
   709
  8
0
  6
CONTINUOUS
 62
     7
 10
-483.08887771223
 20
64.4684892638844
 30
0.0
 11
-474.220297936731
 21
66.9071223900493
 31
0.0
  0
LINE
  5
   70A
  8
0
  6
CONTINUOUS
 62
     7
 10
-482.860913693905
 20
49.4072508603827
 30
0.0
 11
-482.860913693905
 21
52.7322508037583
 31
0.0
  0
LINE
  5
   70B
  8
0
  6
CONTINUOUS
 62
     7
 10
-482.860917557527
 20
49.4072508603827
 30
0.0
 11
-485.660909040023
 21
49.4072508603827
 31
0.0
  0
LINE
  5
   70C
  8
0
  6
CONTINUOUS
 62
     7
 10
-485.660909040023
 20
49.4072508604368
 30
0.0
 11
-485.660917384674
 21
52.7322508037313
 31
0.0
  0
LINE
  5
   70D
  8
0
  6
DASHDOT
 62
     7
 10
-480.537841011952
 20
54.6572507709757
 30
0.0
 11
-488.089121371682
 21
54.6572507709757
 31
0.0
  0
LINE
  5
   70E
  8
0
  6
DASHDOT
 62
     7
 10
-463.490034654559
 20
75.3072557598844
 30
0.0
 11
-472.109634569582
 21
75.3072557598844
 31
0.0
  0
ARC
  5
   70F
  8
0
  6
CONTINUOUS
 62
     7
 10
-482.160914205079
 20
61.0937505654827
 30
0.0
 40
0.699999988079071
 50
105.374892675367
 51
179.999999948034
  0
ARC
  5
   710
  8
0
  6
CONTINUOUS
 62
     7
 10
-470.085910306634
 20
68.7699585935786
 30
0.0
 40
3.49999994039536
 50
285.374892675366
 51
327.843144837181
  0
ARC
  5
   711
  8
0
  6
CONTINUOUS
 62
     7
 10
-482.160910100975
 20
61.0937484300974
 30
0.0
 40
3.49999994039536
 50
105.374891887615
 51
179.999999948034
  0
LINE
  5
   712
  8
0
  6
CONTINUOUS
 62
     3
 10
-464.135919219859
 20
61.6571204433423
 30
0.0
 11
-465.185919201978
 21
61.6571216449738
 31
0.0
  0
LINE
  5
   713
  8
0
  6
CONTINUOUS
 62
   130
 10
-465.360913991928
 20
165.607068638582
 30
0.0
 11
-465.360913991928
 21
197.937105544091
 31
0.0
  0
LINE
  5
   714
  8
0
  6
CONTINUOUS
 62
   130
 10
-465.360919281001
 20
209.70712197022
 30
0.0
 11
-502.635918646212
 21
209.70712197022
 31
0.0
  0
LINE
  5
   715
  8
0
  6
CONTINUOUS
 62
   130
 10
-502.635913007539
 20
169.306939638806
 30
0.0
 11
-502.635913007539
 21
195.030919180162
 31
0.0
  0
LINE
  5
   716
  8
0
  6
CONTINUOUS
 62
   130
 10
-483.560916050429
 20
159.832068736929
 30
0.0
 11
-493.161042403759
 21
159.832068736929
 31
0.0
  0
LINE
  5
   717
  8
0
  6
CONTINUOUS
 62
   130
 10
-465.360916610713
 20
162.282068695206
 30
0.0
 11
-465.360916610713
 21
165.607068638582
 31
0.0
  0
LINE
  5
   718
  8
0
  6
CONTINUOUS
 62
   130
 10
-494.398479249446
 20
160.344630526296
 30
0.0
 11
-502.123363656343
 21
168.06951689309
 31
0.0
  0
LINE
  5
   719
  8
0
  6
CONTINUOUS
 62
   130
 10
-465.360916610713
 20
161.407068710107
 30
0.0
 11
-465.360916610713
 21
162.282068695206
 31
0.0
  0
LINE
  5
   71A
  8
0
  6
CONTINUOUS
 62
   130
 10
-465.360916610713
 20
162.282068695206
 30
0.0
 11
-467.905441855385
 21
162.282068695206
 31
0.0
  0
LINE
  5
   71B
  8
0
  6
CONTINUOUS
 62
   130
 10
-483.560910358498
 20
159.832068736929
 30
0.0
 11
-483.560910358498
 21
162.282068695206
 31
0.0
  0
LINE
  5
   71C
  8
0
  6
CONTINUOUS
 62
   130
 10
-482.685916065331
 20
159.832068736929
 30
0.0
 11
-483.560916050429
 21
159.832068736929
 31
0.0
  0
LINE
  5
   71D
  8
0
  6
CONTINUOUS
 62
   130
 10
-482.685911638272
 20
159.832068736929
 30
0.0
 11
-482.685911638272
 21
161.407068710107
 31
0.0
  0
LINE
  5
   71E
  8
0
  6
CONTINUOUS
 62
   130
 10
-465.360916610713
 20
161.407068710107
 30
0.0
 11
-482.685916148777
 21
161.407068710107
 31
0.0
  0
ARC
  5
   71F
  8
0
  6
CONTINUOUS
 62
   130
 10
-500.885951146404
 20
169.306929089083
 30
0.0
 40
1.7499648295514
 50
179.999654538484
 51
225.000476532886
  0
ARC
  5
   720
  8
0
  6
CONTINUOUS
 62
   130
 10
-493.161045450932
 20
161.582064572387
 30
0.0
 40
1.74999583546093
 50
225.000005679719
 51
270.000099714078
  0
LINE
  5
   721
  8
0
  6
CONTINUOUS
 62
     7
 10
-506.300850695238
 20
194.745178275697
 30
0.0
 11
-462.19769759426
 21
198.183729195434
 31
0.0
  0
LINE
  5
   722
  8
0
  6
CONTINUOUS
 62
     7
 10
-506.436878560094
 20
197.189883486923
 30
0.0
 11
-462.333725459115
 21
200.62843440666
 31
0.0
  0
LINE
  5
   723
  8
0
  6
CONTINUOUS
 62
   130
 10
-502.635913007539
 20
197.486229953732
 30
0.0
 11
-502.635913007539
 21
209.70712197022
 31
0.0
  0
LINE
  5
   724
  8
0
  6
CONTINUOUS
 62
   130
 10
-465.360913991928
 20
200.392416317661
 30
0.0
 11
-465.360913991928
 21
209.70712197022
 31
0.0
  0
LINE
  5
   725
  8
0
  6
CONTINUOUS
 62
   130
 10
-477.402285102631
 20
162.282068695206
 30
0.0
 11
-483.560916217322
 21
162.282068695206
 31
0.0
  0
LINE
  5
   726
  8
0
  6
CONTINUOUS
 62
   130
 10
-477.402285102631
 20
66.032157118695
 30
0.0
 11
-483.560916217322
 21
66.032157118695
 31
0.0
  0
LINE
  5
   727
  8
0
  6
CONTINUOUS
 62
   130
 10
-483.560910358498
 20
66.032157118695
 30
0.0
 11
-483.560910358498
 21
68.4821570769717
 31
0.0
  0
LINE
  5
   728
  8
0
  6
CONTINUOUS
 62
   130
 10
-482.685911638272
 20
66.9071571037938
 30
0.0
 11
-482.685911638272
 21
68.4821570769717
 31
0.0
  0
LINE
  5
   729
  8
0
  6
CONTINUOUS
 62
   130
 10
-482.685916065331
 20
68.4821570769717
 30
0.0
 11
-483.560916050429
 21
68.4821570769717
 31
0.0
  0
LINE
  5
   72A
  8
0
  6
CONTINUOUS
 62
   130
 10
-483.560916050429
 20
68.4821570769717
 30
0.0
 11
-493.161042403759
 21
68.4821570769717
 31
0.0
  0
LINE
  5
   72B
  8
0
  6
CONTINUOUS
 62
   130
 10
-465.360916610713
 20
66.9071571037938
 30
0.0
 11
-482.685916148777
 21
66.9071571037938
 31
0.0
  0
ARC
  5
   72C
  8
0
  6
CONTINUOUS
 62
   130
 10
-493.161045450932
 20
66.7321612415134
 30
0.0
 40
1.74999583546093
 50
449.999900181991
 51
494.99999421635
  0
LINE
  5
   72D
  8
0
  6
CONTINUOUS
 62
   130
 10
-502.123363656343
 20
60.2447089208107
 30
0.0
 11
-494.398479249446
 21
67.9695952876049
 31
0.0
  0
ARC
  5
   72E
  8
0
  6
CONTINUOUS
 62
   130
 10
-500.885951146404
 20
59.0072967248177
 30
0.0
 40
1.7499648295514
 50
134.999523363183
 51
180.000345357584
  0
LINE
  5
   72F
  8
0
  6
CONTINUOUS
 62
   130
 10
-502.635913007539
 20
33.283306633739
 30
0.0
 11
-502.635913007539
 21
59.0072861750954
 31
0.0
  0
LINE
  5
   730
  8
0
  6
CONTINUOUS
 62
     7
 10
-462.19769759426
 20
30.1304966184664
 30
0.0
 11
-506.300850695238
 21
33.5690475382037
 31
0.0
  0
LINE
  5
   731
  8
0
  6
CONTINUOUS
 62
   130
 10
-465.360916610713
 20
30.3771204739865
 30
0.0
 11
-465.360916610713
 21
66.9071571037938
 31
0.0
  0
LINE
  5
   732
  8
0
  6
CONTINUOUS
 62
   130
 10
-465.360916610713
 20
66.032157118695
 30
0.0
 11
-467.905441855385
 21
66.032157118695
 31
0.0
  0
INSERT
  5
   733
  8
255
  6
CONTINUOUS
 62
     7
  2
DIAFR_POS_LT_
 10
-482.510760239906
 20
76.2741470336914
 30
0.0
 41
0.349999994039536
 42
-0.349999994039536
 50
180.000118351578
 43
0.349999994039536
  0
INSERT
  5
   734
  8
255
  6
CONTINUOUS
 62
     7
  2
DIAFR_POS_LT_
 10
-482.510760239906
 20
152.040078780209
 30
0.0
 41
0.349999994039536
 42
0.349999994039536
 50
179.999881752354
 43
0.349999994039536
  0
INSERT
  5
   735
  8
0
  6
CONTINUOUS
 62
     7
  2
*UDIM690
 10
0.0
 20
0.0
 30
0.0
  0
INSERT
  5
   736
  8
0
  6
CONTINUOUS
 62
     7
  2
*UDIM691
 10
0.0
 20
0.0
 30
0.0
  0
INSERT
  5
   737
  8
0
  6
CONTINUOUS
 62
     7
  2
*UDIM692
 10
0.0
 20
0.0
 30
0.0
  0
TEXT
  5
   738
  8
0
  6
CONTINUOUS
 62
     7
 10
-558.789013958459
 20
199.296757008775
 30
0.0
 40
2.4999999335834
  1
INSULATING DISTANCE
 50
359.999999948034
 41
0.899999947857856
 72
     1
 11
-537.639015747906
 21
200.546756956491
 31
0.0
 73
     2
  0
TEXT
  5
   739
  8
0
  6
CONTINUOUS
 62
     7
 10
-561.039013921319
 20
195.796757010804
 30
0.0
 40
2.4999999335834
  1
CORSA DI SEZIONAMENTO
 50
359.999999948034
 41
0.899999947857856
 72
     1
 11
-537.639015900896
 21
197.046756956491
 31
0.0
 73
     2
  0
INSERT
  5
   73A
  8
0
  6
CONTINUOUS
 62
     7
  2
*UDIM693
 10
0.0
 20
0.0
 30
0.0
  0
INSERT
  5
   73B
  8
0
  6
CONTINUOUS
 62
     7
  2
*UDIM694
 10
0.0
 20
0.0
 30
0.0
  0
INSERT
  5
   73C
  8
0
  6
CONTINUOUS
 62
     7
  2
*UDIM695
 10
0.0
 20
0.0
 30
0.0
  0
INSERT
  5
   73D
  8
0
  6
CONTINUOUS
 62
     7
  2
*UDIM696
 10
0.0
 20
0.0
 30
0.0
  0
INSERT
  5
   73E
  8
0
  6
CONTINUOUS
 62
     7
  2
*UDIM697
 10
0.0
 20
0.0
 30
0.0
  0
TEXT
  5
   73F
  8
0
  6
CONTINUOUS
 62
     7
 10
-559.804642417782
 20
113.646294221218
 30
0.0
 40
2.99999997871263
  1
X
 50
359.999999948034
 41
0.91666663951344
 72
     2
 11
-557.60464248207
 21
113.646294219234
 31
0.0
  0
INSERT
  5
   740
  8
0
  6
CONTINUOUS
 62
     7
  2
*UDIM698
 10
0.0
 20
0.0
 30
0.0
  0
TEXT
  5
   741
  8
0
  6
CONTINUOUS
 62
     5
 10
-547.605278294413
 20
103.735574370063
 30
0.0
 40
2.99999997871263
  1
=       =
 50
89.9999999480344
 41
0.91666663951344
 72
     2
 11
-547.605278272494
 21
127.93557349799
 31
0.0
  0
INSERT
  5
   742
  8
0
  6
CONTINUOUS
 62
     7
  2
*UDIM699
 10
0.0
 20
0.0
 30
0.0
  0
INSERT
  5
   743
  8
0
  6
CONTINUOUS
 62
     7
  2
*UDIM700
 10
0.0
 20
0.0
 30
0.0
  0
LINE
  5
   744
  8
0
  6
CONTINUOUS
 62
     7
 10
-492.900390625
 20
-39.2522888183594
 30
0.0
 11
-459.150390625
 21
-39.2522888183594
 31
0.0
  0
LINE
  5
   745
  8
0
  6
CONTINUOUS
 62
     7
 10
-492.900390625
 20
-7.75228881835938
 30
0.0
 11
-459.150390625
 21
-7.75228881835938
 31
0.0
  0
LINE
  5
   746
  8
0
  6
CONTINUOUS
 62
     7
 10
-459.150390625
 20
-7.75228881835938
 30
0.0
 11
-459.150390625
 21
-28.3147888183594
 31
0.0
  0
LINE
  5
   747
  8
0
  6
CONTINUOUS
 62
     7
 10
-492.900390625
 20
-7.75228881835938
 30
0.0
 11
-492.900390625
 21
-39.2522888183594
 31
0.0
  0
LINE
  5
   748
  8
0
  6
DASHDOT
 62
     7
 10
-463.625377171595
 20
-30.3147888183594
 30
0.0
 11
-449.645084225558
 21
-30.3147888183594
 31
0.0
  0
LINE
  5
   749
  8
0
  6
CONTINUOUS
 62
     7
 10
-459.150390625
 20
-28.3147888183594
 30
0.0
 11
-453.400390625
 21
-28.3147888183594
 31
0.0
  0
LINE
  5
   74A
  8
0
  6
CONTINUOUS
 62
     7
 10
-459.150390625
 20
-32.3147888183594
 30
0.0
 11
-453.400390625
 21
-32.3147888183594
 31
0.0
  0
ARC
  5
   74B
  8
0
  6
CONTINUOUS
 62
     7
 10
-453.400390625
 20
-30.3147888183594
 30
0.0
 40
2.0
 50
269.999999844103
 51
449.999999844103
  0
LINE
  5
   74C
  8
0
  6
CONTINUOUS
 62
     7
 10
-459.150390625
 20
-32.3147888183594
 30
0.0
 11
-459.150390625
 21
-39.2522888183594
 31
0.0
  0
LINE
  5
   74D
  8
0
  6
DASHDOT
 62
     7
 10
-474.900390625
 20
2.12520234249573
 30
0.0
 11
-474.900390625
 21
-46.6474701359108
 31
0.0
  0
CIRCLE
  5
   74E
  8
0
  6
CONTINUOUS
 62
     7
 10
-485.900390625
 20
-5.75228881835938
 30
0.0
 40
0.875
  0
CIRCLE
  5
   74F
  8
0
  6
CONTINUOUS
 62
     7
 10
-454.650390625
 20
-5.75228881835938
 30
0.0
 40
1.0
  0
CIRCLE
  5
   750
  8
0
  6
CONTINUOUS
 62
     7
 10
-454.650390625
 20
-23.5022888183594
 30
0.0
 40
1.0
  0
CIRCLE
  5
   751
  8
0
  6
CONTINUOUS
 62
     7
 10
-454.650390625
 20
-41.2522888183594
 30
0.0
 40
0.875
  0
CIRCLE
  5
   752
  8
0
  6
CONTINUOUS
 62
     7
 10
-485.900390625
 20
-41.2522888183594
 30
0.0
 40
1.0
  0
LINE
  5
   753
  8
0
  6
DASHDOT
 62
     7
 10
-485.900390625
 20
-4.12728881835938
 30
0.0
 11
-485.900390625
 21
-7.37728881835938
 31
0.0
  0
LINE
  5
   754
  8
0
  6
DASHDOT
 62
     7
 10
-487.525390625
 20
-5.75228881835938
 30
0.0
 11
-484.275390625
 21
-5.75228881835938
 31
0.0
  0
LINE
  5
   755
  8
0
  6
DASHDOT
 62
     7
 10
-454.650390625
 20
-4.12728881835938
 30
0.0
 11
-454.650390625
 21
-7.37728881835938
 31
0.0
  0
LINE
  5
   756
  8
0
  6
DASHDOT
 62
     7
 10
-456.275390625
 20
-5.75228881835938
 30
0.0
 11
-453.025390625
 21
-5.75228881835938
 31
0.0
  0
LINE
  5
   757
  8
0
  6
DASHDOT
 62
     7
 10
-454.650390625
 20
-21.8772888183594
 30
0.0
 11
-454.650390625
 21
-25.1272888183594
 31
0.0
  0
LINE
  5
   758
  8
0
  6
DASHDOT
 62
     7
 10
-456.275390625
 20
-23.5022888183594
 30
0.0
 11
-453.025390625
 21
-23.5022888183594
 31
0.0
  0
LINE
  5
   759
  8
0
  6
DASHDOT
 62
     7
 10
-454.650390625
 20
-39.6272888183594
 30
0.0
 11
-454.650390625
 21
-42.8772888183594
 31
0.0
  0
LINE
  5
   75A
  8
0
  6
DASHDOT
 62
     7
 10
-456.275390625
 20
-41.2522888183594
 30
0.0
 11
-453.025390625
 21
-41.2522888183594
 31
0.0
  0
LINE
  5
   75B
  8
0
  6
DASHDOT
 62
     7
 10
-485.900390625
 20
-39.6272888183594
 30
0.0
 11
-485.900390625
 21
-42.8772888183594
 31
0.0
  0
LINE
  5
   75C
  8
0
  6
DASHDOT
 62
     7
 10
-487.525390625
 20
-41.2522888183594
 30
0.0
 11
-484.275390625
 21
-41.2522888183594
 31
0.0
  0
LINE
  5
   75D
  8
0
  6
CONTINUOUS
 62
     7
 10
-498.824949702393
 20
-2.75228881835938
 30
0.0
 11
-449.23789122713
 21
-2.75228881835938
 31
0.0
  0
LINE
  5
   75E
  8
0
  6
CONTINUOUS
 62
     7
 10
-499.458361033281
 20
-44.2522888183594
 30
0.0
 11
-448.78545456221
 21
-44.2522888183594
 31
0.0
  0
LINE
  5
   75F
  8
0
  6
CONTINUOUS
 62
     7
 10
-449.650390625
 20
-1.92224377076258
 30
0.0
 11
-449.650390625
 21
-45.1751889371417
 31
0.0
  0
LINE
  5
   760
  8
0
  6
CONTINUOUS
 62
     7
 10
-497.900390625
 20
-1.92224377076258
 30
0.0
 11
-497.900390625
 21
-45.763356601538
 31
0.0
  0
POINT
  5
   761
  8
0
  6
CONTINUOUS
 62
     7
 10
-451.400390625
 20
-30.4397888183594
 30
0.0
  0
LINE
  5
   762
  8
0
  6
DASHDOT
 62
     7
 10
-502.361115388144
 20
-23.5022888183594
 30
0.0
 11
-446.907662324863
 21
-23.5022888183594
 31
0.0
  0
CIRCLE
  5
   763
  8
0
  6
CONTINUOUS
 62
     7
 10
-469.275390625
 20
-5.37728881835938
 30
0.0
 40
0.5
  0
CIRCLE
  5
   764
  8
0
  6
CONTINUOUS
 62
     7
 10
-480.525390625
 20
-5.37728881835938
 30
0.0
 40
0.5
  0
CIRCLE
  5
   765
  8
0
  6
CONTINUOUS
 62
     7
 10
-469.275390625
 20
-5.37728881835938
 30
0.0
 40
0.92
  0
CIRCLE
  5
   766
  8
0
  6
CONTINUOUS
 62
     7
 10
-480.525390625
 20
-5.37728881835938
 30
0.0
 40
0.92
  0
LINE
  5
   767
  8
0
  6
DASHDOT
 62
     7
 10
-469.275390625
 20
-3.70728881835937
 30
0.0
 11
-469.275390625
 21
-7.04728881835937
 31
0.0
  0
LINE
  5
   768
  8
0
  6
DASHDOT
 62
     7
 10
-470.945390625
 20
-5.37728881835938
 30
0.0
 11
-467.605390625
 21
-5.37728881835938
 31
0.0
  0
LINE
  5
   769
  8
0
  6
DASHDOT
 62
     7
 10
-480.525390625
 20
-3.70728881835937
 30
0.0
 11
-480.525390625
 21
-7.04728881835937
 31
0.0
  0
LINE
  5
   76A
  8
0
  6
DASHDOT
 62
     7
 10
-482.195390625
 20
-5.37728881835938
 30
0.0
 11
-478.855390625
 21
-5.37728881835938
 31
0.0
  0
LINE
  5
   76B
  8
0
  6
CONTINUOUS
 62
     7
 10
-447.55792705285
 20
-7.03665831126455
 30
0.0
 11
-447.55792705285
 21
-15.3360989686813
 31
0.0
  0
LINE
  5
   76C
  8
0
  6
CONTINUOUS
 62
     7
 10
-444.958102268599
 20
-7.03665831126455
 30
0.0
 11
-444.958102268599
 21
-15.3360989686813
 31
0.0
  0
LINE
  5
   76D
  8
0
  6
CONTINUOUS
 62
     7
 10
-447.55792705285
 20
-7.03665831126455
 30
0.0
 11
-444.958102268599
 21
-7.03665831126455
 31
0.0
  0
LINE
  5
   76E
  8
0
  6
CONTINUOUS
 62
     7
 10
-447.55792705285
 20
-15.3360989686813
 30
0.0
 11
-444.958102268599
 21
-15.3360989686813
 31
0.0
  0
LINE
  5
   76F
  8
0
  6
CONTINUOUS
 62
     7
 10
-447.55792705285
 20
-39.9679193254542
 30
0.0
 11
-444.958102268599
 21
-39.9679193254542
 31
0.0
  0
LINE
  5
   770
  8
0
  6
CONTINUOUS
 62
     7
 10
-444.958102268599
 20
-31.6684786680374
 30
0.0
 11
-444.958102268599
 21
-39.9679193254542
 31
0.0
  0
LINE
  5
   771
  8
0
  6
CONTINUOUS
 62
     7
 10
-447.55792705285
 20
-31.6684786680374
 30
0.0
 11
-444.958102268599
 21
-31.6684786680374
 31
0.0
  0
LINE
  5
   772
  8
0
  6
CONTINUOUS
 62
     7
 10
-447.55792705285
 20
-31.6684786680374
 30
0.0
 11
-447.55792705285
 21
-39.9679193254542
 31
0.0
  0
LINE
  5
   773
  8
0
  6
DASHDOT
 62
     7
 10
-446.258014660725
 20
-2.63695483022435
 30
0.0
 11
-446.258014660725
 21
-59.0831506267515
 31
0.0
  0
INSERT
  5
   774
  8
0
  6
CONTINUOUS
 62
     7
  2
*UDIM701
 10
0.0
 20
0.0
 30
0.0
  0
INSERT
  5
   775
  8
0
  6
CONTINUOUS
 62
     7
  2
*UDIM702
 10
0.0
 20
0.0
 30
0.0
  0
INSERT
  5
   776
  8
0
  6
CONTINUOUS
 62
     7
  2
*UDIM703
 10
0.0
 20
0.0
 30
0.0
  0
INSERT
  5
   777
  8
0
  6
CONTINUOUS
 62
     7
  2
*UDIM704
 10
0.0
 20
0.0
 30
0.0
  0
INSERT
  5
   778
  8
0
  6
CONTINUOUS
 62
     7
  2
*UDIM705
 10
0.0
 20
0.0
 30
0.0
  0
INSERT
  5
   779
  8
0
  6
CONTINUOUS
 62
     7
  2
*UDIM706
 10
0.0
 20
0.0
 30
0.0
  0
INSERT
  5
   77A
  8
0
  6
CONTINUOUS
 62
     7
  2
*UDIM707
 10
0.0
 20
0.0
 30
0.0
  0
TEXT
  5
   77B
  8
0
  6
CONTINUOUS
 62
     7
 10
-500.421519216673
 20
-32.6927544425874
 30
0.0
 40
3.00000002980232
  1
=     =
 50
449.999999844103
 41
0.916666604744064
 72
     2
 11
-500.421519165909
 21
-13.9927555244117
 31
0.0
  0
INSERT
  5
   77C
  8
0
  6
CONTINUOUS
 62
     7
  2
*UDIM708
 10
0.0
 20
0.0
 30
0.0
  0
INSERT
  5
   77D
  8
0
  6
CONTINUOUS
 62
     7
  2
*UDIM709
 10
0.0
 20
0.0
 30
0.0
  0
INSERT
  5
   77E
  8
0
  6
CONTINUOUS
 62
     7
  2
*UDIM710
 10
0.0
 20
0.0
 30
0.0
  0
INSERT
  5
   77F
  8
0
  6
CONTINUOUS
 62
     7
  2
*UDIM711
 10
0.0
 20
0.0
 30
0.0
  0
INSERT
  5
   780
  8
0
  6
CONTINUOUS
 62
     7
  2
*UDIM712
 10
0.0
 20
0.0
 30
0.0
  0
INSERT
  5
   781
  8
0
  6
CONTINUOUS
 62
     7
  2
*UDIM713
 10
0.0
 20
0.0
 30
0.0
  0
INSERT
  5
   782
  8
0
  6
CONTINUOUS
 62
     7
  2
*UDIM714
 10
0.0
 20
0.0
 30
0.0
  0
INSERT
  5
   783
  8
0
  6
CONTINUOUS
 62
     7
  2
*UDIM715
 10
0.0
 20
0.0
 30
0.0
  0
INSERT
  5
   784
  8
0
  6
CONTINUOUS
 62
     7
  2
*UDIM716
 10
0.0
 20
0.0
 30
0.0
  0
INSERT
  5
   785
  8
0
  6
CONTINUOUS
 62
     7
  2
*UDIM717
 10
0.0
 20
0.0
 30
0.0
  0
INSERT
  5
   786
  8
0
  6
CONTINUOUS
 62
     7
  2
*UDIM718
 10
0.0
 20
0.0
 30
0.0
  0
TEXT
  5
   787
  8
0
  6
CONTINUOUS
 62
     7
 10
-475.706215272449
 20
-68.1325417256305
 30
0.0
 40
3.00000002980232
  1
Y
 50
359.999999844103
 41
0.916666604744064
 72
     2
 11
-473.50621540358
 21
-68.1325417316054
 31
0.0
  0
TEXT
  5
   788
  8
0
  6
CONTINUOUS
 62
     7
 10
-480.401817451023
 20
10.6907767558149
 30
0.0
 40
3.00000002980232
  1
Y
 50
359.999999844103
 41
0.916666604744064
 72
     2
 11
-478.201817582153
 21
10.6907767498399
 31
0.0
  0
TEXT
  5
   789
  8
0
  6
CONTINUOUS
 62
     7
 10
-422.398532758259
 20
-24.2066115832278
 30
0.0
 40
3.00000002980232
  1
X
 50
359.999999844103
 41
0.916666604744064
 72
     2
 11
-420.198532889389
 21
-24.2066115892028
 31
0.0
  0
TEXT
  5
   78A
  8
0
  6
CONTINUOUS
 62
     7
 10
-517.564273725056
 20
-25.2695279812762
 30
0.0
 40
3.00000002980232
  1
X
 50
359.999999844103
 41
0.916666604744064
 72
     2
 11
-515.364273856186
 21
-25.2695279872512
 31
0.0
  0
LINE
  5
   78B
  8
0
  6
CONTINUOUS
 62
     7
 10
-541.855895996094
 20
-5.04373434356852
 30
0.0
 11
-541.855895996094
 21
-28.9602558297713
 31
0.0
  0
LINE
  5
   78C
  8
0
  6
CONTINUOUS
 62
     7
 10
-543.855895996094
 20
-5.04373434356852
 30
0.0
 11
-543.855895996094
 21
-28.9602558297713
 31
0.0
  0
LINE
  5
   78D
  8
0
  6
DASHDOT
 62
     7
 10
-547.058499098491
 20
-17.0019950866699
 30
0.0
 11
-538.632279906053
 21
-17.0019950866699
 31
0.0
  0
POINT
  5
   78E
  8
0
  6
CONTINUOUS
 62
     7
 10
-543.855895996094
 20
-15.0019950866699
 30
0.0
  0
POINT
  5
   78F
  8
0
  6
CONTINUOUS
 62
     7
 10
-543.855895996094
 20
-19.0019950866699
 30
0.0
  0
LINE
  5
   790
  8
0
  6
CONTINUOUS
 62
     7
 10
-541.855895996094
 20
-13.3237958243154
 30
0.0
 11
-543.855895996094
 21
-15.0019950866699
 31
0.0
  0
LINE
  5
   791
  8
0
  6
CONTINUOUS
 62
     7
 10
-543.855895996094
 20
-19.0019950866699
 30
0.0
 11
-541.855895996094
 21
-20.6801943490245
 31
0.0
  0
LINE
  5
   792
  8
0
  6
CONTINUOUS
 62
     7
 10
-543.855895996094
 20
-26.5019950866699
 30
0.0
 11
-541.855895996094
 21
-26.5019950866699
 31
0.0
  0
CIRCLE
  5
   793
  8
0
  6
CONTINUOUS
 62
     7
 10
-542.855895996094
 20
-17.0019950866699
 30
0.0
 40
12.0
  0
LINE
  5
   794
  8
0
  6
CONTINUOUS
 62
     7
 10
-549.855888366699
 20
-21.5019950866699
 30
0.0
 11
-547.355888366699
 21
-21.5019950866699
 31
0.0
  0
LINE
  5
   795
  8
0
  6
CONTINUOUS
 62
     7
 10
-546.355888366699
 20
-12.5019950866699
 30
0.0
 11
-546.355888366699
 21
-20.5019950866699
 31
0.0
  0
LINE
  5
   796
  8
0
  6
CONTINUOUS
 62
     7
 10
-546.355888366699
 20
-12.5019950866699
 30
0.0
 11
-543.855895996094
 21
-12.5019950866699
 31
0.0
  0
LINE
  5
   797
  8
0
  6
CONTINUOUS
 62
     7
 10
-549.855888366699
 20
-24.0019950866699
 30
0.0
 11
-547.355888366699
 21
-24.0019950866699
 31
0.0
  0
LINE
  5
   798
  8
0
  6
CONTINUOUS
 62
     7
 10
-550.855888366699
 20
-25.0019950866699
 30
0.0
 11
-550.855888366699
 21
-25.9462738206011
 31
0.0
  0
ARC
  5
   799
  8
0
  6
CONTINUOUS
 62
     7
 10
-547.355884219419
 20
-20.5019957580086
 30
0.0
 40
0.999996977799109
 50
629.999840735313
 51
720.000252836193
  0
ARC
  5
   79A
  8
0
  6
CONTINUOUS
 62
     7
 10
-549.855873713193
 20
-25.0020077729744
 30
0.0
 40
3.50001845311552
 50
450.000186734275
 51
513.408761128067
  0
ARC
  5
   79B
  8
0
  6
CONTINUOUS
 62
     7
 10
-549.855932614849
 20
-25.0019541918875
 30
0.0
 40
0.999949821243504
 50
449.997764042825
 51
540.001169660043
  0
ARC
  5
   79C
  8
0
  6
CONTINUOUS
 62
     7
 10
-547.355869014318
 20
-20.5020271336042
 30
0.0
 40
3.49997105594423
 50
629.999653243441
 51
720.000420168909
  0
INSERT
  5
   79D
  8
0
  6
CONTINUOUS
 62
     7
  2
*HATCH175
 10
-542.855895996094
 20
-17.0019950866699
 30
0.0
 50
269.999999844103
  0
INSERT
  5
   79E
  8
0
  6
CONTINUOUS
 62
     7
  2
*HATCH176
 10
-542.855895996094
 20
-17.0019950866699
 30
0.0
 50
269.999999844103
  0
TEXT
  5
   79F
  8
0
  6
CONTINUOUS
 62
     7
 10
-555.243491738394
 20
-43.8500061634705
 30
0.0
 40
4.00000017881393
  1
PART. Z
 50
359.999999844103
 41
0.915624995566905
 72
     1
 11
-542.7909912467
 21
-41.8500061078831
 31
0.0
 73
     2
  0
INSERT
  5
   7A0
  8
0
  6
CONTINUOUS
 62
     7
  2
*UDIM719
 10
0.0
 20
0.0
 30
0.0
  0
INSERT
  5
   7A1
  8
0
  6
CONTINUOUS
 62
     7
  2
*UDIM720
 10
0.0
 20
0.0
 30
0.0
  0
ENDSEC
  0
EOF
