  0
SECTION
  2
HEADER
  9
$ACADVER
  1
AC1009
  9
$DWGCODEPAGE
  3
iso8859-1
  9
$INSBASE
 10
0.0
 20
0.0
 30
0.0
  9
$EXTMIN
 10
1.0E20
 20
1.0E20
  9
$EXTMAX
 10
-1.0E20
 20
-1.0E20
  9
$LIMMIN
 10
0.0
 20
0.0
  9
$LIMMAX
 10
12.0
 20
9.0
  9
$ORTHOMODE
 70
     0
  9
$REGENMODE
 70
     1
  9
$FILLMODE
 70
     1
  9
$QTEXTMODE
 70
     0
  9
$MIRRTEXT
 70
     1
  9
$DRAGMODE
 70
     2
  9
$LTSCALE
 40
15.0
  9
$OSMODE
 70
     0
  9
$ATTMODE
 70
     1
  9
$TEXTSIZE
 40
0.2
  9
$TRACEWID
 40
0.05
  9
$TEXTSTYLE
  7
STANDARD
  9
$CLAYER
  8
0
  9
$CELTYPE
  6
DASHED
  9
$CECOLOR
 62
   256
  9
$DIMSCALE
 40
1.0
  9
$DIMASZ
 40
0.18
  9
$DIMEXO
 40
0.0625
  9
$DIMDLI
 40
0.38
  9
$DIMRND
 40
0.0
  9
$DIMDLE
 40
0.0
  9
$DIMEXE
 40
0.18
  9
$DIMTP
 40
0.0
  9
$DIMTM
 40
0.0
  9
$DIMTXT
 40
0.18
  9
$DIMCEN
 40
0.09
  9
$DIMTSZ
 40
0.0
  9
$DIMTOL
 70
     0
  9
$DIMLIM
 70
     0
  9
$DIMTIH
 70
     1
  9
$DIMTOH
 70
     1
  9
$DIMSE1
 70
     0
  9
$DIMSE2
 70
     0
  9
$DIMTAD
 70
     0
  9
$DIMZIN
 70
     0
  9
$DIMBLK
  1

  9
$DIMASO
 70
     1
  9
$DIMSHO
 70
     1
  9
$DIMPOST
  1

  9
$DIMAPOST
  1

  9
$DIMALT
 70
     0
  9
$DIMALTD
 70
     2
  9
$DIMALTF
 40
25.4
  9
$DIMLFAC
 40
1.0
  9
$DIMTOFL
 70
     0
  9
$DIMTVP
 40
0.0
  9
$DIMTIX
 70
     0
  9
$DIMSOXD
 70
     0
  9
$DIMSAH
 70
     0
  9
$DIMBLK1
  1

  9
$DIMBLK2
  1

  9
$DIMSTYLE
  2
STANDARD
  9
$DIMCLRD
 70
     0
  9
$DIMCLRE
 70
     0
  9
$DIMCLRT
 70
     0
  9
$DIMTFAC
 40
1.0
  9
$DIMGAP
 40
0.09
  9
$LUNITS
 70
     2
  9
$LUPREC
 70
     4
  9
$AXISMODE
 70
     0
  9
$AXISUNIT
 10
0.0
 20
0.0
  9
$SKETCHINC
 40
0.1
  9
$FILLETRAD
 40
0.0
  9
$AUNITS
 70
     0
  9
$AUPREC
 70
     0
  9
$MENU
  1
acad
  9
$ELEVATION
 40
0.0
  9
$PELEVATION
 40
0.0
  9
$THICKNESS
 40
0.0
  9
$LIMCHECK
 70
     0
  9
$BLIPMODE
 70
     1
  9
$CHAMFERA
 40
0.0
  9
$CHAMFERB
 40
0.0
  9
$SKPOLY
 70
     0
  9
$TDCREATE
 40
0.000000000
  9
$TDUPDATE
 40
0.000000000
  9
$TDINDWG
 40
0.0
  9
$TDUSRTIMER
 40
0.0
  9
$USRTIMER
 70
     1
  9
$ANGBASE
 50
0.0
  9
$ANGDIR
 70
     0
  9
$PDMODE
 70
     0
  9
$PDSIZE
 40
0.0
  9
$PLINEWID
 40
0.0
  9
$COORDS
 70
     1
  9
$SPLFRAME
 70
     0
  9
$SPLINETYPE
 70
     6
  9
$SPLINESEGS
 70
     8
  9
$ATTDIA
 70
     0
  9
$ATTREQ
 70
     1
  9
$HANDLING
 70
     1
  9
$HANDSEED
  5
   6AE
  9
$SURFTAB1
 70
     6
  9
$SURFTAB2
 70
     6
  9
$SURFTYPE
 70
     6
  9
$SURFU
 70
     6
  9
$SURFV
 70
     6
  9
$UCSNAME
  2

  9
$UCSORG
 10
0.0
 20
0.0
 30
0.0
  9
$UCSXDIR
 10
1.0
 20
0.0
 30
0.0
  9
$UCSYDIR
 10
0.0
 20
1.0
 30
0.0
  9
$PUCSNAME
  2

  9
$PUCSORG
 10
0.0
 20
0.0
 30
0.0
  9
$PUCSXDIR
 10
1.0
 20
0.0
 30
0.0
  9
$PUCSYDIR
 10
0.0
 20
1.0
 30
0.0
  9
$USERI1
 70
     0
  9
$USERI2
 70
     0
  9
$USERI3
 70
     0
  9
$USERI4
 70
     0
  9
$USERI5
 70
     0
  9
$USERR1
 40
0.0
  9
$USERR2
 40
0.0
  9
$USERR3
 40
0.0
  9
$USERR4
 40
0.0
  9
$USERR5
 40
0.0
  9
$WORLDVIEW
 70
     1
  9
$SHADEDGE
 70
     3
  9
$SHADEDIF
 70
    70
  9
$TILEMODE
 70
     1
  9
$MAXACTVP
 70
    16
  9
$PINSBASE
 10
0.0
 20
0.0
 30
0.0
  9
$PLIMCHECK
 70
     0
  9
$PEXTMIN
 10
1.0E20
 20
1.0E20
 30
1.0E20
  9
$PEXTMAX
 10
-1.0E20
 20
-1.0E20
 30
-1.0E20
  9
$PLIMMIN
 10
0.0
 20
0.0
  9
$PLIMMAX
 10
12.0
 20
9.0
  9
$UNITMODE
 70
     0
  9
$VISRETAIN
 70
     0
  0
ENDSEC
  0
SECTION
  2
TABLES
  0
TABLE
  2
VPORT
 70
     1
  0
VPORT
  2
*ACTIVE
 70
     0
 10
0.0
 20
0.0
 11
1.0
 21
1.0
 12
6.801242
 22
4.5
 13
0.0
 23
0.0
 14
1.0
 24
1.0
 15
0.0
 25
0.0
 16
0.0
 26
0.0
 36
1.0
 17
0.0
 27
0.0
 37
0.0
 40
9.0
 41
1.511387
 42
50.0
 43
0.0
 44
0.0
 50
0.0
 51
0.0
 71
     0
 72
   100
 73
     1
 74
     1
 75
     0
 76
     0
 77
     0
 78
     0
  0
ENDTAB
  0
TABLE
  2
LTYPE
 70
    41
  0
LTYPE
  2
BYBLOCK
 70
     0
  3

 72
    65
 73
     0
 40
0.0
  0
LTYPE
  2
BYLAYER
 70
     0
  3

 72
    65
 73
     0
 40
0.0
  0
LTYPE
  2
CONTINUOUS
 70
     0
  3
Solid line
 72
    65
 73
     0
 40
0.0
  0
LTYPE
  2
BORDER
 70
    64
  3
__ __ . __ __ . __ __ . __ __ . __ __ . __ __ .
 72
    65
 73
     6
 40
1.75
 49
0.5
 49
-0.25
 49
0.5
 49
-0.25
 49
0.0
 49
-0.25
  0
LTYPE
  2
BORDER2
 70
    64
  3
__.__.__.__.__.__.__.__.__.__.__.__.__.__.__.__
 72
    65
 73
     6
 40
0.875
 49
0.25
 49
-0.125
 49
0.25
 49
-0.125
 49
0.0
 49
-0.125
  0
LTYPE
  2
BORDERX2
 70
    64
  3
____  ____  .  ____  ____  .  ____  ____  .  __
 72
    65
 73
     6
 40
3.5
 49
1.0
 49
-0.5
 49
1.0
 49
-0.5
 49
0.0
 49
-0.5
  0
LTYPE
  2
CENTER
 70
    64
  3
____ _ ____ _ ____ _ ____ _ ____ _ ____ _ ____
 72
    65
 73
     4
 40
2.0
 49
1.25
 49
-0.25
 49
0.25
 49
-0.25
  0
LTYPE
  2
CENTER2
 70
    64
  3
___ _ ___ _ ___ _ ___ _ ___ _ ___ _ ___ _ ___ _
 72
    65
 73
     4
 40
1.125
 49
0.75
 49
-0.125
 49
0.125
 49
-0.125
  0
LTYPE
  2
CENTERX2
 70
    64
  3
________  __  ________  __  ________  __  _____
 72
    65
 73
     4
 40
4.0
 49
2.5
 49
-0.5
 49
0.5
 49
-0.5
  0
LTYPE
  2
DASHDOT
 70
    64
  3
__ . __ . __ . __ . __ . __ . __ . __ . __ . __
 72
    65
 73
     4
 40
1.0
 49
0.5
 49
-0.25
 49
0.0
 49
-0.25
  0
LTYPE
  2
DASHDOT2
 70
    64
  3
_._._._._._._._._._._._._._._._._._._._._._._._
 72
    65
 73
     4
 40
0.5
 49
0.25
 49
-0.125
 49
0.0
 49
-0.125
  0
LTYPE
  2
DASHDOTX2
 70
    64
  3
____  .  ____  .  ____  .  ____  .  ____  .  __
 72
    65
 73
     4
 40
2.0
 49
1.0
 49
-0.5
 49
0.0
 49
-0.5
  0
LTYPE
  2
DASHED
 70
    64
  3
__ __ __ __ __ __ __ __ __ __ __ __ __ __ __ __
 72
    65
 73
     2
 40
0.75
 49
0.5
 49
-0.25
  0
LTYPE
  2
DASHED2
 70
    64
  3
_ _ _ _ _ _ _ _ _ _ _ _ _ _ _ _ _ _ _ _ _ _ _ _
 72
    65
 73
     2
 40
0.375
 49
0.25
 49
-0.125
  0
LTYPE
  2
DASHEDX2
 70
    64
  3
____  ____  ____  ____  ____  ____  ____  ____
 72
    65
 73
     2
 40
1.5
 49
1.0
 49
-0.5
  0
LTYPE
  2
DIVIDE
 70
    64
  3
____ . . ____ . . ____ . . ____ . . ____ . . __
 72
    65
 73
     6
 40
1.25
 49
0.5
 49
-0.25
 49
0.0
 49
-0.25
 49
0.0
 49
-0.25
  0
LTYPE
  2
DIVIDE2
 70
    64
  3
__..__..__..__..__..__..__..__..__..__..__..__.
 72
    65
 73
     6
 40
0.625
 49
0.25
 49
-0.125
 49
0.0
 49
-0.125
 49
0.0
 49
-0.125
  0
LTYPE
  2
DIVIDEX2
 70
    64
  3
________  .  .  ________  .  .  ________  .  .
 72
    65
 73
     6
 40
2.5
 49
1.0
 49
-0.5
 49
0.0
 49
-0.5
 49
0.0
 49
-0.5
  0
LTYPE
  2
DOT
 70
    64
  3
. . . . . . . . . . . . . . . . . . . . . . . .
 72
    65
 73
     2
 40
0.25
 49
0.0
 49
-0.25
  0
LTYPE
  2
DOT2
 70
    64
  3
...............................................
 72
    65
 73
     2
 40
0.125
 49
0.0
 49
-0.125
  0
LTYPE
  2
DOTX2
 70
    64
  3
.  .  .  .  .  .  .  .  .  .  .  .  .  .  .  .
 72
    65
 73
     2
 40
0.5
 49
0.0
 49
-0.5
  0
LTYPE
  2
HIDDEN
 70
    64
  3
__ __ __ __ __ __ __ __ __ __ __ __ __ __ __ __
 72
    65
 73
     2
 40
0.375
 49
0.25
 49
-0.125
  0
LTYPE
  2
HIDDEN2
 70
    64
  3
_ _ _ _ _ _ _ _ _ _ _ _ _ _ _ _ _ _ _ _ _ _ _ _
 72
    65
 73
     2
 40
0.1875
 49
0.125
 49
-0.0625
  0
LTYPE
  2
HIDDENX2
 70
    64
  3
____ ____ ____ ____ ____ ____ ____ ____ ____ __
 72
    65
 73
     2
 40
0.75
 49
0.5
 49
-0.25
  0
LTYPE
  2
PHANTOM
 70
    64
  3
______  __  __  ______  __  __  ______  __  __
 72
    65
 73
     6
 40
2.5
 49
1.25
 49
-0.25
 49
0.25
 49
-0.25
 49
0.25
 49
-0.25
  0
LTYPE
  2
PHANTOM2
 70
    64
  3
___ _ _ ___ _ _ ___ _ _ ___ _ _ ___ _ _ ___ _ _
 72
    65
 73
     6
 40
1.25
 49
0.625
 49
-0.125
 49
0.125
 49
-0.125
 49
0.125
 49
-0.125
  0
LTYPE
  2
PHANTOMX2
 70
    64
  3
____________    ____    ____    ____________
 72
    65
 73
     6
 40
5.0
 49
2.5
 49
-0.5
 49
0.5
 49
-0.5
 49
0.5
 49
-0.5
  0
LTYPE
  2
ACAD_ISO02W100
 70
    64
  3
__ __ __ __ __ __ __ __ __ __ __ __ __ __ __ __
 72
    65
 73
     2
 40
15.0
 49
12.0
 49
-3.0
  0
LTYPE
  2
ACAD_ISO03W100
 70
    64
  3
__    __    __    __    __    __    __    __
 72
    65
 73
     2
 40
30.0
 49
12.0
 49
-18.0
  0
LTYPE
  2
ACAD_ISO04W100
 70
    64
  3
____ . ____ . ____ . ____ . ____ . ____ . ____
 72
    65
 73
     4
 40
30.5
 49
24.0
 49
-3.0
 49
0.5
 49
-3.0
  0
LTYPE
  2
ACAD_ISO05W100
 70
    64
  3
____ .. ____ .. ____ .. ____ .. ____ .. ____ ..
 72
    65
 73
     6
 40
34.0
 49
24.0
 49
-3.0
 49
0.5
 49
-3.0
 49
0.5
 49
-3.0
  0
LTYPE
  2
ACAD_ISO06W100
 70
    64
  3
____ ... ____ ... ____ ... ____ ... ____ ... __
 72
    65
 73
     8
 40
37.5
 49
24.0
 49
-3.0
 49
0.5
 49
-3.0
 49
0.5
 49
-3.0
 49
0.5
 49
-3.0
  0
LTYPE
  2
ACAD_ISO07W100
 70
    64
  3
. . . . . . . . . . . . . . . . . . . . . . . .
 72
    65
 73
     2
 40
3.5
 49
0.5
 49
-3.0
  0
LTYPE
  2
ACAD_ISO08W100
 70
    64
  3
____ __ ____ __ ____ __ ____ ____ __ __ ____ __
 72
    65
 73
     4
 40
36.0
 49
24.0
 49
-3.0
 49
6.0
 49
-3.0
  0
LTYPE
  2
ACAD_ISO09W100
 70
    64
  3
____ __ __ ____ __ __ ____ __ __ ____ __ __ ___
 72
    65
 73
     6
 40
45.0
 49
24.0
 49
-3.0
 49
6.0
 49
-3.0
 49
6.0
 49
-3.0
  0
LTYPE
  2
ACAD_ISO10W100
 70
    64
  3
__ . __ . __ . __ . __ . __ . __ . __ . __ . __
 72
    65
 73
     4
 40
18.5
 49
12.0
 49
-3.0
 49
0.5
 49
-3.0
  0
LTYPE
  2
ACAD_ISO11W100
 70
    64
  3
__ __ . __ __ . __ __ . __ __ . __ __ . __ __ .
 72
    65
 73
     6
 40
33.5
 49
12.0
 49
-3.0
 49
12.0
 49
-3.0
 49
0.5
 49
-3.0
  0
LTYPE
  2
ACAD_ISO12W100
 70
    64
  3
__ . . __ . . __ . . __ . . __ . . __ . . __ .
 72
    65
 73
     6
 40
22.0
 49
12.0
 49
-3.0
 49
0.5
 49
-3.0
 49
0.5
 49
-3.0
  0
LTYPE
  2
ACAD_ISO13W100
 70
    64
  3
__ __ . . __ __ . . __ __ . . __ __ . . __ __ .
 72
    65
 73
     8
 40
37.0
 49
12.0
 49
-3.0
 49
12.0
 49
-3.0
 49
0.5
 49
-3.0
 49
0.5
 49
-3.0
  0
LTYPE
  2
ACAD_ISO14W100
 70
    64
  3
__ . . . __ . . . __ . . . __ . . . __ . . . __
 72
    65
 73
     8
 40
25.5
 49
12.0
 49
-3.0
 49
0.5
 49
-3.0
 49
0.5
 49
-3.0
 49
0.5
 49
-3.0
  0
LTYPE
  2
ACAD_ISO15W100
 70
    64
  3
__ __ . . . __ __ . . . __ __ . . . __ __ . . .
 72
    65
 73
    10
 40
40.5
 49
12.0
 49
-3.0
 49
12.0
 49
-3.0
 49
0.5
 49
-3.0
 49
0.5
 49
-3.0
 49
0.5
 49
-3.0
  0
ENDTAB
  0
TABLE
  2
STYLE
 70
     4
  0
STYLE
  2
STANDARD
 70
    64
 40
0.0
 41
1.0
 50
0.0
 71
     0
 42
0.2
  3
txt
  4

  0
STYLE
  2
TOLERANCE
 70
    64
 40
0.0
 41
1.0
 50
0.0
 71
     0
 42
0.2
  3
../igesfont/iges1003.shx
  4

  0
STYLE
  2
ROMANS
 70
    64
 40
0.0
 41
1.0
 50
0.0
 71
     0
 42
0.2
  3
romans.shx
  4

  0
STYLE
  2
ROMANC
 70
    64
 40
0.0
 41
1.0
 50
0.0
 71
     0
 42
0.2
  3
romanc.shx
  4

  0
ENDTAB
  0
TABLE
  2
DIMSTYLE
 70
     2
  0
DIMSTYLE
  2
UNNAMED
 70
     0
  3

  4

  5

  6

  7

 40
1.0
 41
0.18
 42
0.0625
 43
0.38
 44
0.18
 45
0.0
 46
0.0
 47
0.0
 48
0.0
140
0.18
141
0.09
142
0.0
143
25.4
144
1.0
145
0.0
146
1.0
147
0.09
 71
     0
 72
     0
 73
     1
 74
     1
 75
     0
 76
     0
 77
     0
 78
     0
170
     0
171
     2
172
     0
173
     0
174
     0
175
     0
176
     0
177
     0
178
     0
  0
DIMSTYLE
  2
STANDARD
 70
     0
  3

  4

  5

  6

  7

 40
1.0
 41
0.18
 42
0.0625
 43
0.38
 44
0.18
 45
0.0
 46
0.0
 47
0.0
 48
0.0
140
0.18
141
0.09
142
0.0
143
25.4
144
1.0
145
0.0
146
1.0
147
0.09
 71
     0
 72
     0
 73
     1
 74
     1
 75
     0
 76
     0
 77
     0
 78
     0
170
     0
171
     2
172
     0
173
     0
174
     0
175
     0
176
     0
177
     0
178
     0
  0
ENDTAB
  0
TABLE
  2
LAYER
 70
     2
  0
LAYER
  2
0
 70
     0
 62
     7
  6
CONTINUOUS
  0
LAYER
  2
255
 70
     0
 62
     7
  6
CONTINUOUS
  0
ENDTAB
  0
ENDSEC
  0
SECTION
  2
BLOCKS
  0
BLOCK
  5
     B
  8
0
  6
CONTINUOUS
 62
     7
  2
*UDIM444
 70
    65
 10
0.0
 20
0.0
 30
0.0
  3
*UDIM444
  0
TEXT
  5
     C
  8
0
  6
CONTINUOUS
 62
     7
 10
-344.976912434887
 20
-53.8132334825934
 30
0.0
 40
3.5
  1
66,3
 50
360.0
 41
0.933333333333333
 72
     1
 11
-338.793579101563
 21
-52.0632334825623
 31
0.0
 73
     2
  0
LINE
  5
     D
  8
0
  6
CONTINUOUS
 62
     7
 10
-325.512329101563
 20
-54.8132334825623
 30
0.0
 11
-352.074829101563
 21
-54.8132334825623
 31
0.0
  0
LINE
  5
     E
  8
0
  6
CONTINUOUS
 62
     7
 10
-327.614551628352
 20
-54.0367763261438
 30
0.0
 11
-330.512329101563
 21
-54.8132334825623
 31
0.0
  0
LINE
  5
     F
  8
0
  6
CONTINUOUS
 62
     7
 10
-330.512329101563
 20
-54.8132334825623
 30
0.0
 11
-327.614551628352
 21
-55.5896906389809
 31
0.0
  0
LINE
  5
    10
  8
0
  6
CONTINUOUS
 62
     7
 10
-349.972606574773
 20
-55.5896906389809
 30
0.0
 11
-347.074829101563
 21
-54.8132334825623
 31
0.0
  0
LINE
  5
    11
  8
0
  6
CONTINUOUS
 62
     7
 10
-347.074829101563
 20
-54.8132334825623
 30
0.0
 11
-349.972606574773
 21
-54.0367763261438
 31
0.0
  0
ENDBLK
  5
    12
  8
0
  6
CONTINUOUS
 62
     7
  0
BLOCK
  5
    13
  8
0
  6
CONTINUOUS
 62
     7
  2
*UDIM445
 70
    65
 10
0.0
 20
0.0
 30
0.0
  3
*UDIM445
  0
TEXT
  5
    14
  8
0
  6
CONTINUOUS
 62
     7
 10
-345.294609311712
 20
-17.6338939667014
 30
0.0
 40
3.00000002980232
  1
57,5
 50
360.0
 41
0.933333333333333
 72
     1
 11
-339.994609259069
 21
-16.1338939517736
 31
0.0
 73
     2
  0
LINE
  5
    15
  8
0
  6
CONTINUOUS
 62
     7
 10
-332.699829101563
 20
-18.6338939666748
 30
0.0
 11
-347.074829101563
 21
-18.6338939666748
 31
0.0
  0
LINE
  5
    16
  8
0
  6
CONTINUOUS
 62
     7
 10
-329.745405824356
 20
-18.1129495367231
 30
0.0
 11
-332.699829101563
 21
-18.6338939666748
 31
0.0
  0
LINE
  5
    17
  8
0
  6
CONTINUOUS
 62
     7
 10
-332.699829101563
 20
-18.6338939666748
 30
0.0
 11
-329.745405824356
 21
-19.1548383966265
 31
0.0
  0
LINE
  5
    18
  8
0
  6
CONTINUOUS
 62
     7
 10
-350.029252378769
 20
-19.1548383966265
 30
0.0
 11
-347.074829101563
 21
-18.6338939666748
 31
0.0
  0
LINE
  5
    19
  8
0
  6
CONTINUOUS
 62
     7
 10
-347.074829101563
 20
-18.6338939666748
 30
0.0
 11
-350.029252378769
 21
-18.1129495367231
 31
0.0
  0
ENDBLK
  5
    1A
  8
0
  6
CONTINUOUS
 62
     7
  0
BLOCK
  5
    1B
  8
0
  6
CONTINUOUS
 62
     7
  2
*UDIM446
 70
    65
 10
0.0
 20
0.0
 30
0.0
  3
*UDIM446
  0
TEXT
  5
    1C
  8
0
  6
CONTINUOUS
 62
     7
 10
-364.38566331085
 20
-37.0358613435835
 30
0.0
 40
3.00000002980232
  1
6
 50
18.1562694920616
 41
0.933333333333334
 72
     1
 11
-363.807846781701
 21
-35.2677753367994
 31
0.0
 73
     2
  0
TEXT
  5
    1D
  8
0
  6
CONTINUOUS
 62
     7
 10
-367.378825329734
 20
-38.017432121111
 30
0.0
 40
3.00000002980232
  1
Ø
 50
18.1562694920616
 41
0.933333333333334
 72
     1
 11
-366.801008800584
 21
-36.2493461143269
 31
0.0
 73
     2
  0
TEXT
  5
    1E
  8
0
  6
CONTINUOUS
 62
     7
 10
-361.772585334002
 20
-36.1789344664923
 30
0.0
 40
3.00000002980232
  1
 (M5)
 50
18.1562694920616
 41
0.933333333333333
 72
     1
 11
-355.873591846313
 21
-32.6658337322704
 31
0.0
 73
     2
  0
LINE
  5
    1F
  8
0
  6
CONTINUOUS
 62
     7
 10
-348.728159270693
 20
-32.9535736732819
 30
0.0
 11
-373.412486722859
 21
-41.0484961456051
 31
0.0
  0
LINE
  5
    20
  8
0
  6
CONTINUOUS
 62
     7
 10
-369.342179834041
 20
-39.1654476431864
 30
0.0
 11
-371.987171480266
 21
-40.5810814911137
 31
0.0
  0
LINE
  5
    21
  8
0
  6
CONTINUOUS
 62
     7
 10
-371.987171480266
 20
-40.5810814911137
 30
0.0
 11
-369.017517086394
 21
-40.1554610252581
 31
0.0
  0
LINE
  5
    22
  8
0
  6
CONTINUOUS
 62
     7
 10
-376.057478369084
 20
-42.4641299935323
 30
0.0
 11
-373.412486722859
 21
-41.0484961456051
 31
0.0
  0
LINE
  5
    23
  8
0
  6
CONTINUOUS
 62
     7
 10
-373.412486722859
 20
-41.0484961456051
 30
0.0
 11
-376.382141116731
 21
-41.4741166114606
 31
0.0
  0
ENDBLK
  5
    24
  8
0
  6
CONTINUOUS
 62
     7
  0
BLOCK
  5
    25
  8
0
  6
CONTINUOUS
 62
     7
  2
*UDIM447
 70
    65
 10
0.0
 20
0.0
 30
0.0
  3
*UDIM447
  0
TEXT
  5
    26
  8
0
  6
CONTINUOUS
 62
     7
 10
-313.038074493405
 20
1.03521115084678
 30
0.0
 40
3.00000002980232
  1
52
 50
90.0
 41
0.933333333333333
 72
     1
 11
-314.538074508309
 21
3.53521117568016
 31
0.0
 73
     2
  0
LINE
  5
    27
  8
0
  6
CONTINUOUS
 62
     7
 10
-330.512329101563
 20
10.3102111816406
 30
0.0
 11
-310.038074493408
 21
10.3102111816406
 31
0.0
  0
LINE
  5
    28
  8
0
  6
CONTINUOUS
 62
     7
 10
-330.512329101563
 20
-2.68978881835938
 30
0.0
 11
-310.038074493408
 21
-2.68978881835938
 31
0.0
  0
LINE
  5
    29
  8
0
  6
CONTINUOUS
 62
     7
 10
-312.038074493408
 20
10.3102111816406
 30
0.0
 11
-312.038074493408
 21
-2.68978881835938
 31
0.0
  0
LINE
  5
    2A
  8
0
  6
CONTINUOUS
 62
     7
 10
-311.517130063457
 20
7.35578790443366
 30
0.0
 11
-312.038074493408
 21
10.3102111816406
 31
0.0
  0
LINE
  5
    2B
  8
0
  6
CONTINUOUS
 62
     7
 10
-312.038074493408
 20
10.3102111816406
 30
0.0
 11
-312.55901892336
 21
7.35578790443366
 31
0.0
  0
LINE
  5
    2C
  8
0
  6
CONTINUOUS
 62
     7
 10
-312.55901892336
 20
0.264634458847585
 30
0.0
 11
-312.038074493408
 21
-2.68978881835938
 31
0.0
  0
LINE
  5
    2D
  8
0
  6
CONTINUOUS
 62
     7
 10
-312.038074493408
 20
-2.68978881835938
 30
0.0
 11
-311.517130063457
 21
0.264634458847585
 31
0.0
  0
ENDBLK
  5
    2E
  8
0
  6
CONTINUOUS
 62
     7
  0
BLOCK
  5
    2F
  8
0
  6
CONTINUOUS
 62
     7
  2
*UDIM448
 70
    65
 10
0.0
 20
0.0
 30
0.0
  3
*UDIM448
  0
TEXT
  5
    30
  8
0
  6
CONTINUOUS
 62
     7
 10
-313.0380744934
 20
-20.0710388908765
 30
0.0
 40
3.00000002980232
  1
83,25
 50
90.0
 41
0.933333333333333
 72
     1
 11
-314.538074508309
 21
-13.3710388243198
 31
0.0
 73
     2
  0
LINE
  5
    31
  8
0
  6
CONTINUOUS
 62
     7
 10
-319.631598408374
 20
-23.5022888183594
 30
0.0
 11
-310.038074493408
 21
-23.5022888183594
 31
0.0
  0
LINE
  5
    32
  8
0
  6
CONTINUOUS
 62
     7
 10
-312.038074493408
 20
-2.68978881835938
 30
0.0
 11
-312.038074493408
 21
-23.5022888183594
 31
0.0
  0
LINE
  5
    33
  8
0
  6
CONTINUOUS
 62
     7
 10
-311.517130063457
 20
-5.64421209556634
 30
0.0
 11
-312.038074493408
 21
-2.68978881835938
 31
0.0
  0
LINE
  5
    34
  8
0
  6
CONTINUOUS
 62
     7
 10
-312.038074493408
 20
-2.68978881835938
 30
0.0
 11
-312.55901892336
 21
-5.64421209556634
 31
0.0
  0
LINE
  5
    35
  8
0
  6
CONTINUOUS
 62
     7
 10
-312.55901892336
 20
-20.5478655411524
 30
0.0
 11
-312.038074493408
 21
-23.5022888183594
 31
0.0
  0
LINE
  5
    36
  8
0
  6
CONTINUOUS
 62
     7
 10
-312.038074493408
 20
-23.5022888183594
 30
0.0
 11
-311.517130063457
 21
-20.5478655411524
 31
0.0
  0
ENDBLK
  5
    37
  8
0
  6
CONTINUOUS
 62
     7
  0
BLOCK
  5
    38
  8
0
  6
CONTINUOUS
 62
     7
  2
*UDIM449
 70
    65
 10
0.0
 20
0.0
 30
0.0
  3
*UDIM449
  0
TEXT
  5
    39
  8
0
  6
CONTINUOUS
 62
     7
 10
-313.0380744934
 20
-41.3210388908765
 30
0.0
 40
3.00000002980232
  1
86,75
 50
90.0
 41
0.933333333333333
 72
     1
 11
-314.538074508309
 21
-34.6210388243198
 31
0.0
 73
     2
  0
LINE
  5
    3A
  8
0
  6
CONTINUOUS
 62
     7
 10
-330.512329101563
 20
-45.1897888183594
 30
0.0
 11
-310.038074493408
 21
-45.1897888183594
 31
0.0
  0
LINE
  5
    3B
  8
0
  6
CONTINUOUS
 62
     7
 10
-312.038074493408
 20
-23.5022888183594
 30
0.0
 11
-312.038074493408
 21
-45.1897888183594
 31
0.0
  0
LINE
  5
    3C
  8
0
  6
CONTINUOUS
 62
     7
 10
-311.517130063457
 20
-26.4567120955663
 30
0.0
 11
-312.038074493408
 21
-23.5022888183594
 31
0.0
  0
LINE
  5
    3D
  8
0
  6
CONTINUOUS
 62
     7
 10
-312.038074493408
 20
-23.5022888183594
 30
0.0
 11
-312.55901892336
 21
-26.4567120955663
 31
0.0
  0
LINE
  5
    3E
  8
0
  6
CONTINUOUS
 62
     7
 10
-312.55901892336
 20
-42.2353655411524
 30
0.0
 11
-312.038074493408
 21
-45.1897888183594
 31
0.0
  0
LINE
  5
    3F
  8
0
  6
CONTINUOUS
 62
     7
 10
-312.038074493408
 20
-45.1897888183594
 30
0.0
 11
-311.517130063457
 21
-42.2353655411524
 31
0.0
  0
ENDBLK
  5
    40
  8
0
  6
CONTINUOUS
 62
     7
  0
BLOCK
  5
    41
  8
0
  6
CONTINUOUS
 62
     7
  2
*UDIM450
 70
    65
 10
0.0
 20
0.0
 30
0.0
  3
*UDIM450
  0
TEXT
  5
    42
  8
0
  6
CONTINUOUS
 62
     7
 10
-313.038074493405
 20
-54.4647888491532
 30
0.0
 40
3.00000002980232
  1
52
 50
90.0
 41
0.933333333333333
 72
     1
 11
-314.538074508309
 21
-51.9647888243198
 31
0.0
 73
     2
  0
LINE
  5
    43
  8
0
  6
CONTINUOUS
 62
     7
 10
-330.512329101563
 20
-58.1897888183594
 30
0.0
 11
-310.038074493408
 21
-58.1897888183594
 31
0.0
  0
LINE
  5
    44
  8
0
  6
CONTINUOUS
 62
     7
 10
-312.038074493408
 20
-45.1897888183594
 30
0.0
 11
-312.038074493408
 21
-58.1897888183594
 31
0.0
  0
LINE
  5
    45
  8
0
  6
CONTINUOUS
 62
     7
 10
-311.517130063457
 20
-48.1442120955663
 30
0.0
 11
-312.038074493408
 21
-45.1897888183594
 31
0.0
  0
LINE
  5
    46
  8
0
  6
CONTINUOUS
 62
     7
 10
-312.038074493408
 20
-45.1897888183594
 30
0.0
 11
-312.55901892336
 21
-48.1442120955663
 31
0.0
  0
LINE
  5
    47
  8
0
  6
CONTINUOUS
 62
     7
 10
-312.55901892336
 20
-55.2353655411524
 30
0.0
 11
-312.038074493408
 21
-58.1897888183594
 31
0.0
  0
LINE
  5
    48
  8
0
  6
CONTINUOUS
 62
     7
 10
-312.038074493408
 20
-58.1897888183594
 30
0.0
 11
-311.517130063457
 21
-55.2353655411524
 31
0.0
  0
ENDBLK
  5
    49
  8
0
  6
CONTINUOUS
 62
     7
  0
BLOCK
  5
    4A
  8
0
  6
CONTINUOUS
 62
     7
  2
*UDIM451
 70
    65
 10
0.0
 20
0.0
 30
0.0
  3
*UDIM451
  0
TEXT
  5
    4B
  8
0
  6
CONTINUOUS
 62
     7
 10
-359.674829174074
 20
-81.1801605224946
 30
0.0
 40
3.00000002980232
  1
177,5
 50
360.0
 41
0.933333333333333
 72
     1
 11
-352.974829107523
 21
-79.6801605075598
 31
0.0
 73
     2
  0
LINE
  5
    4C
  8
0
  6
CONTINUOUS
 62
     7
 10
-330.512329101563
 20
-58.1897888183594
 30
0.0
 11
-330.512329101563
 21
-84.1801605224609
 31
0.0
  0
LINE
  5
    4D
  8
0
  6
CONTINUOUS
 62
     7
 10
-374.887329101563
 20
-58.1897888183594
 30
0.0
 11
-374.887329101563
 21
-84.1801605224609
 31
0.0
  0
LINE
  5
    4E
  8
0
  6
CONTINUOUS
 62
     7
 10
-330.512329101563
 20
-82.1801605224609
 30
0.0
 11
-374.887329101563
 21
-82.1801605224609
 31
0.0
  0
LINE
  5
    4F
  8
0
  6
CONTINUOUS
 62
     7
 10
-333.466752378769
 20
-82.7011049524126
 30
0.0
 11
-330.512329101563
 21
-82.1801605224609
 31
0.0
  0
LINE
  5
    50
  8
0
  6
CONTINUOUS
 62
     7
 10
-330.512329101563
 20
-82.1801605224609
 30
0.0
 11
-333.466752378769
 21
-81.6592160925093
 31
0.0
  0
LINE
  5
    51
  8
0
  6
CONTINUOUS
 62
     7
 10
-371.932905824356
 20
-81.6592160925093
 30
0.0
 11
-374.887329101563
 21
-82.1801605224609
 31
0.0
  0
LINE
  5
    52
  8
0
  6
CONTINUOUS
 62
     7
 10
-374.887329101563
 20
-82.1801605224609
 30
0.0
 11
-371.932905824356
 21
-82.7011049524126
 31
0.0
  0
ENDBLK
  5
    53
  8
0
  6
CONTINUOUS
 62
     7
  0
BLOCK
  5
    54
  8
0
  6
CONTINUOUS
 62
     5
  2
*UDIM452
 70
    65
 10
0.0
 20
0.0
 30
0.0
  3
*UDIM452
  0
TEXT
  5
    55
  8
0
  6
CONTINUOUS
 62
     5
 10
-394.123447418204
 20
-21.7086788902661
 30
0.0
 40
3.00000002980232
  1
65,75
 50
90.0
 41
0.933333333333333
 72
     1
 11
-395.623447433114
 21
-15.0086788237095
 31
0.0
 73
     2
  0
LINE
  5
    56
  8
0
  6
CONTINUOUS
 62
     5
 10
-365.446041910518
 20
-7.06478881835938
 30
0.0
 11
-395.123447418213
 21
-7.06478881835938
 31
0.0
  0
LINE
  5
    57
  8
0
  6
CONTINUOUS
 62
     5
 10
-387.717301039252
 20
-23.5022888183594
 30
0.0
 11
-395.123447418213
 21
-23.5022888183594
 31
0.0
  0
LINE
  5
    58
  8
0
  6
CONTINUOUS
 62
     5
 10
-393.123447418213
 20
-7.06478881835938
 30
0.0
 11
-393.123447418213
 21
-23.5022888183594
 31
0.0
  0
LINE
  5
    59
  8
0
  6
CONTINUOUS
 62
     5
 10
-392.602502988261
 20
-10.0192120955663
 30
0.0
 11
-393.123447418213
 21
-7.06478881835938
 31
0.0
  0
LINE
  5
    5A
  8
0
  6
CONTINUOUS
 62
     5
 10
-393.123447418213
 20
-7.06478881835938
 30
0.0
 11
-393.644391848165
 21
-10.0192120955663
 31
0.0
  0
LINE
  5
    5B
  8
0
  6
CONTINUOUS
 62
     5
 10
-393.644391848165
 20
-20.5478655411524
 30
0.0
 11
-393.123447418213
 21
-23.5022888183594
 31
0.0
  0
LINE
  5
    5C
  8
0
  6
CONTINUOUS
 62
     5
 10
-393.123447418213
 20
-23.5022888183594
 30
0.0
 11
-392.602502988261
 21
-20.5478655411524
 31
0.0
  0
ENDBLK
  5
    5D
  8
0
  6
CONTINUOUS
 62
     5
  0
BLOCK
  5
    5E
  8
0
  6
CONTINUOUS
 62
     7
  2
*UDIM453
 70
    65
 10
0.0
 20
0.0
 30
0.0
  3
*UDIM453
  0
TEXT
  5
    5F
  8
0
  6
CONTINUOUS
 62
     7
 10
-355.825299087159
 20
-74.7287063598829
 30
0.0
 40
3.00000002980232
  1
160
 50
360.0
 41
0.933333333333333
 72
     1
 11
-351.925299048424
 21
-73.2287063449621
 31
0.0
 73
     2
  0
LINE
  5
    60
  8
0
  6
CONTINUOUS
 62
     7
 10
-332.699829101563
 20
-46.6038370573083
 30
0.0
 11
-332.699829101563
 21
-77.7287063598633
 31
0.0
  0
LINE
  5
    61
  8
0
  6
CONTINUOUS
 62
     7
 10
-372.699829101563
 20
-45.7754842815427
 30
0.0
 11
-372.699829101563
 21
-77.7287063598633
 31
0.0
  0
LINE
  5
    62
  8
0
  6
CONTINUOUS
 62
     7
 10
-332.699829101563
 20
-75.7287063598633
 30
0.0
 11
-372.699829101563
 21
-75.7287063598633
 31
0.0
  0
LINE
  5
    63
  8
0
  6
CONTINUOUS
 62
     7
 10
-335.654252378769
 20
-76.249650789815
 30
0.0
 11
-332.699829101563
 21
-75.7287063598633
 31
0.0
  0
LINE
  5
    64
  8
0
  6
CONTINUOUS
 62
     7
 10
-332.699829101563
 20
-75.7287063598633
 30
0.0
 11
-335.654252378769
 21
-75.2077619299116
 31
0.0
  0
LINE
  5
    65
  8
0
  6
CONTINUOUS
 62
     7
 10
-369.745405824356
 20
-75.2077619299116
 30
0.0
 11
-372.699829101563
 21
-75.7287063598633
 31
0.0
  0
LINE
  5
    66
  8
0
  6
CONTINUOUS
 62
     7
 10
-372.699829101563
 20
-75.7287063598633
 30
0.0
 11
-369.745405824356
 21
-76.249650789815
 31
0.0
  0
ENDBLK
  5
    67
  8
0
  6
CONTINUOUS
 62
     7
  0
BLOCK
  5
    68
  8
0
  6
CONTINUOUS
 62
     7
  2
*UDIM454
 70
    65
 10
0.0
 20
0.0
 30
0.0
  3
*UDIM454
  0
TEXT
  5
    69
  8
0
  6
CONTINUOUS
 62
     7
 10
-400.85103988647
 20
-28.1147826560613
 30
0.0
 40
3.00000002980232
  1
135
 50
90.0
 41
0.933333333333333
 72
     1
 11
-402.351039901376
 21
-24.2147826173201
 31
0.0
 73
     2
  0
LINE
  5
    6A
  8
0
  6
CONTINUOUS
 62
     7
 10
-365.446041910518
 20
-7.06478819354816
 30
0.0
 11
-401.851039886474
 21
-7.06476544729708
 31
0.0
  0
LINE
  5
    6B
  8
0
  6
CONTINUOUS
 62
     7
 10
-365.497813959003
 20
-40.8147881926332
 30
0.0
 11
-401.851039886474
 21
-40.8147654454671
 31
0.0
  0
LINE
  5
    6C
  8
0
  6
CONTINUOUS
 62
     7
 10
-399.851039886475
 20
-7.06476669691952
 30
0.0
 11
-399.851039886475
 21
-40.8147666969195
 31
0.0
  0
LINE
  5
    6D
  8
0
  6
CONTINUOUS
 62
     7
 10
-399.330095456523
 20
-10.0191899741265
 30
0.0
 11
-399.851039886475
 21
-7.06476669691952
 31
0.0
  0
LINE
  5
    6E
  8
0
  6
CONTINUOUS
 62
     7
 10
-399.851039886475
 20
-7.06476669691952
 30
0.0
 11
-400.371984316426
 21
-10.0191899741265
 31
0.0
  0
LINE
  5
    6F
  8
0
  6
CONTINUOUS
 62
     7
 10
-400.371984316426
 20
-37.8603434197126
 30
0.0
 11
-399.851039886475
 21
-40.8147666969195
 31
0.0
  0
LINE
  5
    70
  8
0
  6
CONTINUOUS
 62
     7
 10
-399.851039886475
 20
-40.8147666969195
 30
0.0
 11
-399.330095456523
 21
-37.8603434197126
 31
0.0
  0
ENDBLK
  5
    71
  8
0
  6
CONTINUOUS
 62
     7
  0
BLOCK
  5
    72
  8
0
  6
CONTINUOUS
 62
     7
  2
*HATCH91
 70
    65
 10
0.0
 20
0.0
 30
0.0
  3
*HATCH91
  0
LINE
  5
    73
  8
0
  6
CONTINUOUS
 62
    52
 10
187.992431640625
 20
39.5
 30
0.0
 11
185.992431640625
 21
37.5
 31
0.0
  0
LINE
  5
    74
  8
0
  6
CONTINUOUS
 62
    52
 10
192.235076904297
 20
39.5
 30
0.0
 11
190.235076904297
 21
37.5
 31
0.0
  0
LINE
  5
    75
  8
0
  6
CONTINUOUS
 62
    52
 10
196.477722167969
 20
39.5
 30
0.0
 11
194.477722167969
 21
37.5
 31
0.0
  0
LINE
  5
    76
  8
0
  6
CONTINUOUS
 62
    52
 10
200.720367431641
 20
39.5
 30
0.0
 11
198.720367431641
 21
37.5
 31
0.0
  0
LINE
  5
    77
  8
0
  6
CONTINUOUS
 62
    52
 10
204.963012695313
 20
39.5
 30
0.0
 11
202.963012695313
 21
37.5
 31
0.0
  0
LINE
  5
    78
  8
0
  6
CONTINUOUS
 62
    52
 10
209.205657958984
 20
39.5
 30
0.0
 11
207.205657958984
 21
37.5
 31
0.0
  0
LINE
  5
    79
  8
0
  6
CONTINUOUS
 62
    52
 10
213.448303222656
 20
39.5
 30
0.0
 11
211.448303222656
 21
37.5
 31
0.0
  0
LINE
  5
    7A
  8
0
  6
CONTINUOUS
 62
    52
 10
217.690948486328
 20
39.5
 30
0.0
 11
215.690948486328
 21
37.5
 31
0.0
  0
LINE
  5
    7B
  8
0
  6
CONTINUOUS
 62
    52
 10
221.93359375
 20
39.5
 30
0.0
 11
219.93359375
 21
37.5
 31
0.0
  0
LINE
  5
    7C
  8
0
  6
CONTINUOUS
 62
    52
 10
226.176239013672
 20
39.5
 30
0.0
 11
224.176239013672
 21
37.5
 31
0.0
  0
LINE
  5
    7D
  8
0
  6
CONTINUOUS
 62
    52
 10
229.369522094727
 20
38.4506874084473
 30
0.0
 11
228.418838500977
 21
37.5
 31
0.0
  0
ENDBLK
  5
    7E
  8
0
  6
CONTINUOUS
 62
     7
  0
BLOCK
  5
    7F
  8
0
  6
CONTINUOUS
 62
     7
  2
*HATCH92
 70
    65
 10
0.0
 20
0.0
 30
0.0
  3
*HATCH92
  0
LINE
  5
    80
  8
0
  6
CONTINUOUS
 62
    52
 10
115.867530822754
 20
39.4999961853027
 30
0.0
 11
113.867530822754
 21
37.4999961853027
 31
0.0
  0
LINE
  5
    81
  8
0
  6
CONTINUOUS
 62
    52
 10
120.110176086426
 20
39.4999961853027
 30
0.0
 11
118.110176086426
 21
37.4999961853027
 31
0.0
  0
LINE
  5
    82
  8
0
  6
CONTINUOUS
 62
    52
 10
124.352821350098
 20
39.4999961853027
 30
0.0
 11
122.352821350098
 21
37.4999961853027
 31
0.0
  0
LINE
  5
    83
  8
0
  6
CONTINUOUS
 62
    52
 10
128.595458984375
 20
39.4999961853027
 30
0.0
 11
126.59546661377
 21
37.4999961853027
 31
0.0
  0
LINE
  5
    84
  8
0
  6
CONTINUOUS
 62
    52
 10
132.838104248047
 20
39.4999961853027
 30
0.0
 11
130.838104248047
 21
37.4999961853027
 31
0.0
  0
LINE
  5
    85
  8
0
  6
CONTINUOUS
 62
    52
 10
137.080749511719
 20
39.4999961853027
 30
0.0
 11
135.080749511719
 21
37.4999961853027
 31
0.0
  0
LINE
  5
    86
  8
0
  6
CONTINUOUS
 62
    52
 10
141.323394775391
 20
39.4999961853027
 30
0.0
 11
139.323394775391
 21
37.4999961853027
 31
0.0
  0
LINE
  5
    87
  8
0
  6
CONTINUOUS
 62
    52
 10
145.566040039063
 20
39.4999961853027
 30
0.0
 11
143.566040039063
 21
37.4999961853027
 31
0.0
  0
LINE
  5
    88
  8
0
  6
CONTINUOUS
 62
    52
 10
149.808685302734
 20
39.4999961853027
 30
0.0
 11
147.808685302734
 21
37.4999961853027
 31
0.0
  0
LINE
  5
    89
  8
0
  6
CONTINUOUS
 62
    52
 10
154.051330566406
 20
39.4999961853027
 30
0.0
 11
152.051330566406
 21
37.4999961853027
 31
0.0
  0
LINE
  5
    8A
  8
0
  6
CONTINUOUS
 62
    52
 10
158.293975830078
 20
39.4999961853027
 30
0.0
 11
156.293975830078
 21
37.4999961853027
 31
0.0
  0
LINE
  5
    8B
  8
0
  6
CONTINUOUS
 62
    52
 10
162.53662109375
 20
39.4999961853027
 30
0.0
 11
160.53662109375
 21
37.4999961853027
 31
0.0
  0
LINE
  5
    8C
  8
0
  6
CONTINUOUS
 62
    52
 10
166.779266357422
 20
39.4999961853027
 30
0.0
 11
164.779266357422
 21
37.4999961853027
 31
0.0
  0
LINE
  5
    8D
  8
0
  6
CONTINUOUS
 62
    52
 10
171.021911621094
 20
39.4999961853027
 30
0.0
 11
169.021911621094
 21
37.4999961853027
 31
0.0
  0
LINE
  5
    8E
  8
0
  6
CONTINUOUS
 62
    52
 10
175.264556884766
 20
39.4999961853027
 30
0.0
 11
173.264556884766
 21
37.4999961853027
 31
0.0
  0
ENDBLK
  5
    8F
  8
0
  6
CONTINUOUS
 62
     7
  0
BLOCK
  5
    90
  8
0
  6
CONTINUOUS
 62
     7
  2
*HATCH93
 70
    65
 10
0.0
 20
0.0
 30
0.0
  3
*HATCH93
  0
LINE
  5
    91
  8
0
  6
CONTINUOUS
 62
    52
 10
92.5330123901367
 20
39.4999961853027
 30
0.0
 11
90.5330123901367
 21
37.4999961853027
 31
0.0
  0
LINE
  5
    92
  8
0
  6
CONTINUOUS
 62
    52
 10
96.7756576538086
 20
39.4999961853027
 30
0.0
 11
94.7756576538086
 21
37.4999961853027
 31
0.0
  0
LINE
  5
    93
  8
0
  6
CONTINUOUS
 62
    52
 10
101.01830291748
 20
39.4999961853027
 30
0.0
 11
99.0183029174805
 21
37.4999961853027
 31
0.0
  0
LINE
  5
    94
  8
0
  6
CONTINUOUS
 62
    52
 10
105.260948181152
 20
39.4999961853027
 30
0.0
 11
103.260948181152
 21
37.4999961853027
 31
0.0
  0
ENDBLK
  5
    95
  8
0
  6
CONTINUOUS
 62
     7
  0
BLOCK
  5
    96
  8
0
  6
CONTINUOUS
 62
     7
  2
*HATCH94
 70
    65
 10
0.0
 20
0.0
 30
0.0
  3
*HATCH94
  0
LINE
  5
    97
  8
0
  6
CONTINUOUS
 62
    52
 10
45.8639602661133
 20
39.4999961853027
 30
0.0
 11
43.8639640808105
 21
37.5
 31
0.0
  0
LINE
  5
    98
  8
0
  6
CONTINUOUS
 62
    52
 10
50.1065979003906
 20
39.4999961853027
 30
0.0
 11
48.1066017150879
 21
37.5
 31
0.0
  0
LINE
  5
    99
  8
0
  6
CONTINUOUS
 62
    52
 10
54.349235534668
 20
39.4999961853027
 30
0.0
 11
52.3492393493652
 21
37.5
 31
0.0
  0
LINE
  5
    9A
  8
0
  6
CONTINUOUS
 62
    52
 10
58.5918731689453
 20
39.4999961853027
 30
0.0
 11
56.5918769836426
 21
37.5
 31
0.0
  0
LINE
  5
    9B
  8
0
  6
CONTINUOUS
 62
    52
 10
62.8345108032227
 20
39.4999961853027
 30
0.0
 11
60.8345146179199
 21
37.5
 31
0.0
  0
LINE
  5
    9C
  8
0
  6
CONTINUOUS
 62
    52
 10
67.0771560668945
 20
39.4999961853027
 30
0.0
 11
65.0771560668945
 21
37.5
 31
0.0
  0
LINE
  5
    9D
  8
0
  6
CONTINUOUS
 62
    52
 10
71.3198013305664
 20
39.4999961853027
 30
0.0
 11
69.3198013305664
 21
37.5
 31
0.0
  0
LINE
  5
    9E
  8
0
  6
CONTINUOUS
 62
    52
 10
75.2370758056641
 20
39.1746253967285
 30
0.0
 11
73.5624465942383
 21
37.4999961853027
 31
0.0
  0
ENDBLK
  5
    9F
  8
0
  6
CONTINUOUS
 62
     7
  0
BLOCK
  5
    A0
  8
0
  6
CONTINUOUS
 62
     7
  2
*HATCH95
 70
    65
 10
0.0
 20
0.0
 30
0.0
  3
*HATCH95
  0
LINE
  5
    A1
  8
0
  6
CONTINUOUS
 62
    52
 10
-34.7462120056152
 20
39.5
 30
0.0
 11
-36.7462120056152
 21
37.5
 31
0.0
  0
LINE
  5
    A2
  8
0
  6
CONTINUOUS
 62
    52
 10
-30.5035724639893
 20
39.5
 30
0.0
 11
-32.5035743713379
 21
37.5
 31
0.0
  0
LINE
  5
    A3
  8
0
  6
CONTINUOUS
 62
    52
 10
-26.2609310150147
 20
39.5
 30
0.0
 11
-28.2609329223633
 21
37.5
 31
0.0
  0
LINE
  5
    A4
  8
0
  6
CONTINUOUS
 62
    52
 10
-22.01828956604
 20
39.5
 30
0.0
 11
-24.0182914733887
 21
37.5
 31
0.0
  0
LINE
  5
    A5
  8
0
  6
CONTINUOUS
 62
    52
 10
-17.7756481170654
 20
39.5
 30
0.0
 11
-19.7756500244141
 21
37.5
 31
0.0
  0
LINE
  5
    A6
  8
0
  6
CONTINUOUS
 62
    52
 10
-13.5330066680908
 20
39.5
 30
0.0
 11
-15.5330085754395
 21
37.5
 31
0.0
  0
LINE
  5
    A7
  8
0
  6
CONTINUOUS
 62
    52
 10
-9.29036521911621
 20
39.5
 30
0.0
 11
-11.2903671264648
 21
37.5
 31
0.0
  0
LINE
  5
    A8
  8
0
  6
CONTINUOUS
 62
    52
 10
-5.0477237701416
 20
39.5
 30
0.0
 11
-7.04772567749023
 21
37.5
 31
0.0
  0
LINE
  5
    A9
  8
0
  6
CONTINUOUS
 62
    52
 10
-0.80508279800415
 20
39.5
 30
0.0
 11
-2.8050844669342
 21
37.5
 31
0.0
  0
LINE
  5
    AA
  8
0
  6
CONTINUOUS
 62
    52
 10
3.4375581741333
 20
39.5
 30
0.0
 11
1.43755650520325
 21
37.5
 31
0.0
  0
LINE
  5
    AB
  8
0
  6
CONTINUOUS
 62
    52
 10
7.68019962310791
 20
39.5
 30
0.0
 11
5.68019771575928
 21
37.5
 31
0.0
  0
LINE
  5
    AC
  8
0
  6
CONTINUOUS
 62
    52
 10
11.9228410720825
 20
39.5
 30
0.0
 11
9.92283916473389
 21
37.5
 31
0.0
  0
LINE
  5
    AD
  8
0
  6
CONTINUOUS
 62
    52
 10
16.1654815673828
 20
39.5
 30
0.0
 11
14.1654806137085
 21
37.5
 31
0.0
  0
LINE
  5
    AE
  8
0
  6
CONTINUOUS
 62
    52
 10
20.4081230163574
 20
39.5
 30
0.0
 11
18.4081211090088
 21
37.5
 31
0.0
  0
LINE
  5
    AF
  8
0
  6
CONTINUOUS
 62
    52
 10
24.650764465332
 20
39.5
 30
0.0
 11
22.6507625579834
 21
37.5
 31
0.0
  0
LINE
  5
    B0
  8
0
  6
CONTINUOUS
 62
    52
 10
28.8934059143066
 20
39.5
 30
0.0
 11
26.893404006958
 21
37.5
 31
0.0
  0
LINE
  5
    B1
  8
0
  6
CONTINUOUS
 62
    52
 10
33.1360473632813
 20
39.5
 30
0.0
 11
31.1360454559326
 21
37.5
 31
0.0
  0
LINE
  5
    B2
  8
0
  6
CONTINUOUS
 62
    52
 10
35.486873626709
 20
37.6081924438477
 30
0.0
 11
35.3786811828613
 21
37.5
 31
0.0
  0
ENDBLK
  5
    B3
  8
0
  6
CONTINUOUS
 62
     7
  0
BLOCK
  5
    B4
  8
0
  6
CONTINUOUS
 62
     7
  2
*HATCH96
 70
    65
 10
0.0
 20
0.0
 30
0.0
  3
*HATCH96
  0
LINE
  5
    B5
  8
0
  6
CONTINUOUS
 62
    52
 10
166.264526367187
 20
30.5000076293945
 30
0.0
 11
163.987060546875
 21
28.2225513458252
 31
0.0
  0
LINE
  5
    B6
  8
0
  6
CONTINUOUS
 62
    52
 10
170.50715637207
 20
30.5000076293945
 30
0.0
 11
168.00715637207
 21
28.0000019073486
 31
0.0
  0
LINE
  5
    B7
  8
0
  6
CONTINUOUS
 62
    52
 10
172.987060546875
 20
28.7372703552246
 30
0.0
 11
172.249786376953
 21
28.0000019073486
 31
0.0
  0
ENDBLK
  5
    B8
  8
0
  6
CONTINUOUS
 62
     7
  0
BLOCK
  5
    B9
  8
0
  6
CONTINUOUS
 62
     7
  2
*UDIM455
 70
    65
 10
0.0
 20
0.0
 30
0.0
  3
*UDIM455
  0
TEXT
  5
    BA
  8
0
  6
CONTINUOUS
 62
     7
 10
-455.08294256311
 20
90.5710827958807
 30
0.0
 40
2.99999997871263
  1
88
 50
360.0
 41
0.933333333333333
 72
     1
 11
-452.582942580857
 21
92.0710827852496
 31
0.0
 73
     2
  0
LINE
  5
    BB
  8
0
  6
CONTINUOUS
 62
     7
 10
-436.907952022339
 20
113.40108777701
 30
0.0
 11
-436.907952022339
 21
87.5710827958933
 31
0.0
  0
LINE
  5
    BC
  8
0
  6
CONTINUOUS
 62
     7
 10
-467.707935497165
 20
100.068581128214
 30
0.0
 11
-467.707935497165
 21
87.5710827958933
 31
0.0
  0
LINE
  5
    BD
  8
0
  6
CONTINUOUS
 62
     7
 10
-436.907952022339
 20
89.5710827958933
 30
0.0
 11
-467.707935497165
 21
89.5710827958933
 31
0.0
  0
LINE
  5
    BE
  8
0
  6
CONTINUOUS
 62
     7
 10
-439.862375299546
 20
89.0501383659416
 30
0.0
 11
-436.907952022339
 21
89.5710827958933
 31
0.0
  0
LINE
  5
    BF
  8
0
  6
CONTINUOUS
 62
     7
 10
-436.907952022339
 20
89.5710827958933
 30
0.0
 11
-439.862375299546
 21
90.092027225845
 31
0.0
  0
LINE
  5
    C0
  8
0
  6
CONTINUOUS
 62
     7
 10
-464.753512219958
 20
90.092027225845
 30
0.0
 11
-467.707935497165
 21
89.5710827958933
 31
0.0
  0
LINE
  5
    C1
  8
0
  6
CONTINUOUS
 62
     7
 10
-467.707935497165
 20
89.5710827958933
 30
0.0
 11
-464.753512219958
 21
89.0501383659416
 31
0.0
  0
ENDBLK
  5
    C2
  8
0
  6
CONTINUOUS
 62
     7
  0
BLOCK
  5
    C3
  8
0
  6
CONTINUOUS
 62
     7
  2
*UDIM456
 70
    65
 10
0.0
 20
0.0
 30
0.0
  3
*UDIM456
  0
TEXT
  5
    C4
  8
0
  6
CONTINUOUS
 62
     7
 10
-466.349492799911
 20
96.6390667013186
 30
0.0
 40
2.99999997871263
  1
39,5
 50
360.0
 41
0.933333333333333
 72
     1
 11
-461.049492837526
 21
98.1390666907015
 31
0.0
 73
     2
  0
LINE
  5
    C5
  8
0
  6
CONTINUOUS
 62
     7
 10
-453.882951733256
 20
113.40108777701
 30
0.0
 11
-453.882951733256
 21
93.6390667013452
 31
0.0
  0
LINE
  5
    C6
  8
0
  6
CONTINUOUS
 62
     7
 10
-467.707935497165
 20
100.068581128214
 30
0.0
 11
-467.707935497165
 21
93.6390667013452
 31
0.0
  0
LINE
  5
    C7
  8
0
  6
CONTINUOUS
 62
     7
 10
-453.882951733256
 20
95.6390667013452
 30
0.0
 11
-467.707935497165
 21
95.6390667013452
 31
0.0
  0
LINE
  5
    C8
  8
0
  6
CONTINUOUS
 62
     7
 10
-456.837375010463
 20
95.1181222713935
 30
0.0
 11
-453.882951733256
 21
95.6390667013452
 31
0.0
  0
LINE
  5
    C9
  8
0
  6
CONTINUOUS
 62
     7
 10
-453.882951733256
 20
95.6390667013452
 30
0.0
 11
-456.837375010463
 21
96.1600111312969
 31
0.0
  0
LINE
  5
    CA
  8
0
  6
CONTINUOUS
 62
     7
 10
-464.753512219958
 20
96.1600111312969
 30
0.0
 11
-467.707935497165
 21
95.6390667013452
 31
0.0
  0
LINE
  5
    CB
  8
0
  6
CONTINUOUS
 62
     7
 10
-467.707935497165
 20
95.6390667013452
 30
0.0
 11
-464.753512219958
 21
95.1181222713935
 31
0.0
  0
ENDBLK
  5
    CC
  8
0
  6
CONTINUOUS
 62
     7
  0
BLOCK
  5
    CD
  8
0
  6
CONTINUOUS
 62
     7
  2
*UDIM457
 70
    65
 10
0.0
 20
0.0
 30
0.0
  3
*UDIM457
  0
TEXT
  5
    CE
  8
0
  6
CONTINUOUS
 62
     7
 10
-422.785304443282
 20
114.601083740738
 30
0.0
 40
2.99999997871263
  1
40
 50
90.0
 41
0.933333333333333
 72
     1
 11
-424.285304432641
 21
117.101083722997
 31
0.0
 73
     2
  0
LINE
  5
    CF
  8
0
  6
CONTINUOUS
 62
     7
 10
-428.907954832911
 20
110.376084248795
 30
0.0
 11
-419.785304443285
 21
110.376084248795
 31
0.0
  0
LINE
  5
    D0
  8
0
  6
CONTINUOUS
 62
     7
 10
-428.907954832911
 20
124.376084010376
 30
0.0
 11
-419.785304443285
 21
124.376084010376
 31
0.0
  0
LINE
  5
    D1
  8
0
  6
CONTINUOUS
 62
     7
 10
-421.785304443285
 20
110.376084248795
 30
0.0
 11
-421.785304443285
 21
124.376084010376
 31
0.0
  0
LINE
  5
    D2
  8
0
  6
CONTINUOUS
 62
     7
 10
-422.306248873237
 20
113.330507526002
 30
0.0
 11
-421.785304443285
 21
110.376084248795
 31
0.0
  0
LINE
  5
    D3
  8
0
  6
CONTINUOUS
 62
     7
 10
-421.785304443285
 20
110.376084248795
 30
0.0
 11
-421.264360013333
 21
113.330507526002
 31
0.0
  0
LINE
  5
    D4
  8
0
  6
CONTINUOUS
 62
     7
 10
-421.264360013333
 20
121.421660733169
 30
0.0
 11
-421.785304443285
 21
124.376084010376
 31
0.0
  0
LINE
  5
    D5
  8
0
  6
CONTINUOUS
 62
     7
 10
-421.785304443285
 20
124.376084010376
 30
0.0
 11
-422.306248873237
 21
121.421660733169
 31
0.0
  0
ENDBLK
  5
    D6
  8
0
  6
CONTINUOUS
 62
     7
  0
BLOCK
  5
    D7
  8
0
  6
CONTINUOUS
 62
     7
  2
*UDIM458
 70
    65
 10
0.0
 20
0.0
 30
0.0
  3
*UDIM458
  0
TEXT
  5
    D8
  8
0
  6
CONTINUOUS
 62
     7
 10
-422.785304443275
 20
167.416677859558
 30
0.0
 40
2.99999997871263
  1
109,25
 50
90.0
 41
0.933333333333333
 72
     1
 11
-424.285304432641
 21
175.51667780208
 31
0.0
 73
     2
  0
LINE
  5
    D9
  8
0
  6
CONTINUOUS
 62
     7
 10
-460.198366344428
 20
156.838602554875
 30
0.0
 11
-419.785304443285
 21
156.838602554875
 31
0.0
  0
LINE
  5
    DA
  8
0
  6
CONTINUOUS
 62
     7
 10
-432.932955690838
 20
195.07608662383
 30
0.0
 11
-419.785304443285
 21
195.07608662383
 31
0.0
  0
LINE
  5
    DB
  8
0
  6
CONTINUOUS
 62
     7
 10
-421.785304443285
 20
156.838602554875
 30
0.0
 11
-421.785304443285
 21
195.07608662383
 31
0.0
  0
LINE
  5
    DC
  8
0
  6
CONTINUOUS
 62
     7
 10
-422.306248873237
 20
159.793025832082
 30
0.0
 11
-421.785304443285
 21
156.838602554875
 31
0.0
  0
LINE
  5
    DD
  8
0
  6
CONTINUOUS
 62
     7
 10
-421.785304443285
 20
156.838602554875
 30
0.0
 11
-421.264360013333
 21
159.793025832082
 31
0.0
  0
LINE
  5
    DE
  8
0
  6
CONTINUOUS
 62
     7
 10
-421.264360013333
 20
192.121663346623
 30
0.0
 11
-421.785304443285
 21
195.07608662383
 31
0.0
  0
LINE
  5
    DF
  8
0
  6
CONTINUOUS
 62
     7
 10
-421.785304443285
 20
195.07608662383
 30
0.0
 11
-422.306248873237
 21
192.121663346623
 31
0.0
  0
ENDBLK
  5
    E0
  8
0
  6
CONTINUOUS
 62
     7
  0
BLOCK
  5
    E1
  8
0
  6
CONTINUOUS
 62
     7
  2
*UDIM459
 70
    65
 10
0.0
 20
0.0
 30
0.0
  3
*UDIM459
  0
TEXT
  5
    E2
  8
0
  6
CONTINUOUS
 62
     7
 10
-416.840848062582
 20
101.851085312278
 30
0.0
 40
2.99999997871263
  1
20
 50
90.0
 41
0.933333333333333
 72
     1
 11
-418.340848051941
 21
104.351085294537
 31
0.0
 73
     2
  0
LINE
  5
    E3
  8
0
  6
CONTINUOUS
 62
     7
 10
-428.907954832911
 20
110.376084248795
 30
0.0
 11
-413.840848062585
 21
110.376084248795
 31
0.0
  0
LINE
  5
    E4
  8
0
  6
CONTINUOUS
 62
     7
 10
-432.932955690838
 20
117.376084108511
 30
0.0
 11
-413.840848062585
 21
117.376084108511
 31
0.0
  0
LINE
  5
    E5
  8
0
  6
CONTINUOUS
 62
     7
 10
-415.840848062585
 20
101.851085312276
 30
0.0
 11
-415.840848062585
 21
117.376084108511
 31
0.0
  0
LINE
  5
    E6
  8
0
  6
CONTINUOUS
 62
     7
 10
-416.361792492537
 20
113.330507526002
 30
0.0
 11
-415.840848062585
 21
110.376084248795
 31
0.0
  0
LINE
  5
    E7
  8
0
  6
CONTINUOUS
 62
     7
 10
-415.840848062585
 20
110.376084248795
 30
0.0
 11
-415.319903632633
 21
113.330507526002
 31
0.0
  0
LINE
  5
    E8
  8
0
  6
CONTINUOUS
 62
     7
 10
-415.319903632633
 20
114.421660831304
 30
0.0
 11
-415.840848062585
 21
117.376084108511
 31
0.0
  0
LINE
  5
    E9
  8
0
  6
CONTINUOUS
 62
     7
 10
-415.840848062585
 20
117.376084108511
 30
0.0
 11
-416.361792492537
 21
114.421660831304
 31
0.0
  0
ENDBLK
  5
    EA
  8
0
  6
CONTINUOUS
 62
     7
  0
BLOCK
  5
    EB
  8
0
  6
CONTINUOUS
 62
     7
  2
*UDIM460
 70
    65
 10
0.0
 20
0.0
 30
0.0
  3
*UDIM460
  0
TEXT
  5
    EC
  8
0
  6
CONTINUOUS
 62
     7
 10
-416.84084806258
 20
152.051087031696
 30
0.0
 40
2.99999997871263
  1
222
 50
90.0
 41
0.933333333333333
 72
     1
 11
-418.340848051941
 21
155.951087004021
 31
0.0
 73
     2
  0
LINE
  5
    ED
  8
0
  6
CONTINUOUS
 62
     7
 10
-432.932955690838
 20
195.07608662383
 30
0.0
 11
-413.840848062585
 21
195.07608662383
 31
0.0
  0
LINE
  5
    EE
  8
0
  6
CONTINUOUS
 62
     7
 10
-415.840848062585
 20
117.376084108511
 30
0.0
 11
-415.840848062585
 21
195.07608662383
 31
0.0
  0
LINE
  5
    EF
  8
0
  6
CONTINUOUS
 62
     7
 10
-416.361792492537
 20
120.330507385717
 30
0.0
 11
-415.840848062585
 21
117.376084108511
 31
0.0
  0
LINE
  5
    F0
  8
0
  6
CONTINUOUS
 62
     7
 10
-415.840848062585
 20
117.376084108511
 30
0.0
 11
-415.319903632633
 21
120.330507385717
 31
0.0
  0
LINE
  5
    F1
  8
0
  6
CONTINUOUS
 62
     7
 10
-415.319903632633
 20
192.121663346623
 30
0.0
 11
-415.840848062585
 21
195.07608662383
 31
0.0
  0
LINE
  5
    F2
  8
0
  6
CONTINUOUS
 62
     7
 10
-415.840848062585
 20
195.07608662383
 30
0.0
 11
-416.361792492537
 21
192.121663346623
 31
0.0
  0
ENDBLK
  5
    F3
  8
0
  6
CONTINUOUS
 62
     7
  0
BLOCK
  5
    F4
  8
0
  6
CONTINUOUS
 62
     7
  2
*UDIM461
 70
    65
 10
0.0
 20
0.0
 30
0.0
  3
*UDIM461
  0
TEXT
  5
    F5
  8
0
  6
CONTINUOUS
 62
     7
 10
-416.840848062582
 20
205.051084913782
 30
0.0
 40
2.99999997871263
  1
20
 50
90.0
 41
0.933333333333333
 72
     1
 11
-418.340848051941
 21
207.551084896041
 31
0.0
 73
     2
  0
LINE
  5
    F6
  8
0
  6
CONTINUOUS
 62
     7
 10
-428.907954832911
 20
202.076086525696
 30
0.0
 11
-413.840848062585
 21
202.076086525696
 31
0.0
  0
LINE
  5
    F7
  8
0
  6
CONTINUOUS
 62
     7
 10
-415.840848062585
 20
195.07608662383
 30
0.0
 11
-415.840848062585
 21
210.051084878301
 31
0.0
  0
LINE
  5
    F8
  8
0
  6
CONTINUOUS
 62
     7
 10
-416.361792492537
 20
198.030509901037
 30
0.0
 11
-415.840848062585
 21
195.07608662383
 31
0.0
  0
LINE
  5
    F9
  8
0
  6
CONTINUOUS
 62
     7
 10
-415.840848062585
 20
195.07608662383
 30
0.0
 11
-415.319903632633
 21
198.030509901037
 31
0.0
  0
LINE
  5
    FA
  8
0
  6
CONTINUOUS
 62
     7
 10
-415.319903632633
 20
199.121663248489
 30
0.0
 11
-415.840848062585
 21
202.076086525696
 31
0.0
  0
LINE
  5
    FB
  8
0
  6
CONTINUOUS
 62
     7
 10
-415.840848062585
 20
202.076086525696
 30
0.0
 11
-416.361792492537
 21
199.121663248489
 31
0.0
  0
ENDBLK
  5
    FC
  8
0
  6
CONTINUOUS
 62
     7
  0
BLOCK
  5
    FD
  8
0
  6
CONTINUOUS
 62
     7
  2
*UDIM462
 70
    65
 10
0.0
 20
0.0
 30
0.0
  3
*UDIM462
  0
TEXT
  5
    FE
  8
0
  6
CONTINUOUS
 62
     7
 10
-441.397670709284
 20
205.053921494162
 30
0.0
 40
2.99999997871263
  1
11
 50
35.0434666464352
 41
0.933333333333333
 72
     1
 11
-440.212175599965
 21
207.717490758355
 31
0.0
 73
     2
  0
TEXT
  5
    FF
  8
0
  6
CONTINUOUS
 62
     7
 10
-443.976628206127
 20
203.245198724905
 30
0.0
 40
2.99999997871263
  1
Ø
 50
35.0434666464352
 41
0.933333333333333
 72
     1
 11
-443.937336430622
 21
205.104891201439
 31
0.0
 73
     2
  0
LINE
  5
   100
  8
0
  6
CONTINUOUS
 62
     7
 10
-455.458978339613
 20
193.970758129133
 30
0.0
 11
-436.729889664688
 21
207.106193348694
 31
0.0
  0
LINE
  5
   101
  8
0
  6
CONTINUOUS
 62
     7
 10
-457.578688836752
 20
191.847829159921
 30
0.0
 11
-455.458978339613
 21
193.970758129133
 31
0.0
  0
LINE
  5
   102
  8
0
  6
CONTINUOUS
 62
     7
 10
-455.458978339613
 20
193.970758129133
 30
0.0
 11
-458.176939033708
 21
192.700840940749
 31
0.0
  0
LINE
  5
   103
  8
0
  6
CONTINUOUS
 62
     7
 10
-450.187214629761
 20
198.30434408774
 30
0.0
 11
-452.3069251269
 21
196.181415118527
 31
0.0
  0
LINE
  5
   104
  8
0
  6
CONTINUOUS
 62
     7
 10
-452.3069251269
 20
196.181415118527
 30
0.0
 11
-449.588964432804
 21
197.451332306911
 31
0.0
  0
ENDBLK
  5
   105
  8
0
  6
CONTINUOUS
 62
     7
  0
BLOCK
  5
   106
  8
0
  6
CONTINUOUS
 62
     7
  2
*UDIM463
 70
    65
 10
0.0
 20
0.0
 30
0.0
  3
*UDIM463
  0
TEXT
  5
   107
  8
0
  6
CONTINUOUS
 62
     7
 10
-452.939802179893
 20
220.483324998765
 30
0.0
 40
2.99999997871263
  1
108
 50
360.0
 41
0.933333333333333
 72
     1
 11
-449.039802207574
 21
221.98332498814
 31
0.0
 73
     2
  0
LINE
  5
   108
  8
0
  6
CONTINUOUS
 62
     7
 10
-429.907954832911
 20
203.076086525696
 30
0.0
 11
-429.907954832911
 21
221.483324998784
 31
0.0
  0
LINE
  5
   109
  8
0
  6
CONTINUOUS
 62
     7
 10
-467.707935497165
 20
212.266031210864
 30
0.0
 11
-467.707935497165
 21
221.483324998784
 31
0.0
  0
LINE
  5
   10A
  8
0
  6
CONTINUOUS
 62
     7
 10
-429.907954832911
 20
219.483324998784
 30
0.0
 11
-467.707935497165
 21
219.483324998784
 31
0.0
  0
LINE
  5
   10B
  8
0
  6
CONTINUOUS
 62
     7
 10
-432.862378110118
 20
218.962380568833
 30
0.0
 11
-429.907954832911
 21
219.483324998784
 31
0.0
  0
LINE
  5
   10C
  8
0
  6
CONTINUOUS
 62
     7
 10
-429.907954832911
 20
219.483324998784
 30
0.0
 11
-432.862378110118
 21
220.004269428736
 31
0.0
  0
LINE
  5
   10D
  8
0
  6
CONTINUOUS
 62
     7
 10
-464.753512219958
 20
220.004269428736
 30
0.0
 11
-467.707935497165
 21
219.483324998784
 31
0.0
  0
LINE
  5
   10E
  8
0
  6
CONTINUOUS
 62
     7
 10
-467.707935497165
 20
219.483324998784
 30
0.0
 11
-464.753512219958
 21
218.962380568833
 31
0.0
  0
ENDBLK
  5
   10F
  8
0
  6
CONTINUOUS
 62
     7
  0
BLOCK
  5
   110
  8
0
  6
CONTINUOUS
 62
     7
  2
*UDIM464
 70
    65
 10
0.0
 20
0.0
 30
0.0
  3
*UDIM464
  0
TEXT
  5
   111
  8
0
  6
CONTINUOUS
 62
     7
 10
-462.870449269733
 20
214.654235742558
 30
0.0
 40
2.99999997871263
  1
59,5
 50
360.0
 41
0.933333333333333
 72
     1
 11
-457.570449307348
 21
216.154235731941
 31
0.0
 73
     2
  0
LINE
  5
   112
  8
0
  6
CONTINUOUS
 62
     7
 10
-446.882954543829
 20
203.076086525696
 30
0.0
 11
-446.882954543829
 21
215.654235742584
 31
0.0
  0
LINE
  5
   113
  8
0
  6
CONTINUOUS
 62
     7
 10
-467.707935497165
 20
212.266031210864
 30
0.0
 11
-467.707935497165
 21
215.654235742584
 31
0.0
  0
LINE
  5
   114
  8
0
  6
CONTINUOUS
 62
     7
 10
-446.882954543829
 20
213.654235742584
 30
0.0
 11
-467.707935497165
 21
213.654235742584
 31
0.0
  0
LINE
  5
   115
  8
0
  6
CONTINUOUS
 62
     7
 10
-449.837377821036
 20
213.133291312633
 30
0.0
 11
-446.882954543829
 21
213.654235742584
 31
0.0
  0
LINE
  5
   116
  8
0
  6
CONTINUOUS
 62
     7
 10
-446.882954543829
 20
213.654235742584
 30
0.0
 11
-449.837377821036
 21
214.175180172536
 31
0.0
  0
LINE
  5
   117
  8
0
  6
CONTINUOUS
 62
     7
 10
-464.753512219958
 20
214.175180172536
 30
0.0
 11
-467.707935497165
 21
213.654235742584
 31
0.0
  0
LINE
  5
   118
  8
0
  6
CONTINUOUS
 62
     7
 10
-467.707935497165
 20
213.654235742584
 30
0.0
 11
-464.753512219958
 21
213.133291312633
 31
0.0
  0
ENDBLK
  5
   119
  8
0
  6
CONTINUOUS
 62
     7
  0
BLOCK
  5
   11A
  8
0
  6
CONTINUOUS
 62
     7
  2
*UDIM465
 70
    65
 10
0.0
 20
0.0
 30
0.0
  3
*UDIM465
  0
TEXT
  5
   11B
  8
0
  6
CONTINUOUS
 62
     7
 10
-521.378517752964
 20
149.97251491074
 30
0.0
 40
2.99999997871263
  1
5,5
 50
306.272507565515
 41
0.933333333333333
 72
     1
 11
-517.861856434924
 21
147.715726722537
 31
0.0
 73
     2
  0
TEXT
  5
   11C
  8
0
  6
CONTINUOUS
 62
     7
 10
-523.242140894374
 20
152.512083498779
 30
0.0
 40
2.99999997871263
  1
Ø
 50
306.272507565515
 41
0.933333333333333
 72
     1
 11
-521.38203348255
 21
152.512689614754
 31
0.0
 73
     2
  0
LINE
  5
   11D
  8
0
  6
CONTINUOUS
 62
     7
 10
-517.570044128593
 20
143.092432949825
 30
0.0
 11
-527.777396344086
 21
157.002042933372
 31
0.0
  0
LINE
  5
   11E
  8
0
  6
CONTINUOUS
 62
     7
 10
-524.470607281144
 20
153.376394302316
 30
0.0
 11
-526.638513871319
 21
155.450082084089
 31
0.0
  0
LINE
  5
   11F
  8
0
  6
CONTINUOUS
 62
     7
 10
-526.638513871319
 20
155.450082084089
 30
0.0
 11
-525.310590850655
 21
152.75998534769
 31
0.0
  0
LINE
  5
   120
  8
0
  6
CONTINUOUS
 62
     7
 10
-529.94530293426
 20
159.075730715145
 30
0.0
 11
-527.777396344086
 21
157.002042933372
 31
0.0
  0
LINE
  5
   121
  8
0
  6
CONTINUOUS
 62
     7
 10
-527.777396344086
 20
157.002042933372
 30
0.0
 11
-529.10531936475
 21
159.692139669772
 31
0.0
  0
ENDBLK
  5
   122
  8
0
  6
CONTINUOUS
 62
     7
  0
BLOCK
  5
   123
  8
0
  6
CONTINUOUS
 62
     7
  2
*UDIM466
 70
    65
 10
0.0
 20
0.0
 30
0.0
  3
*UDIM466
  0
TEXT
  5
   124
  8
0
  6
CONTINUOUS
 62
     7
 10
-547.559264660987
 20
207.439539362738
 30
0.0
 40
2.99999997871263
  1
27,5
 50
360.0
 41
0.933333333333333
 72
     1
 11
-542.259264698602
 21
208.939539352121
 31
0.0
 73
     2
  0
LINE
  5
   125
  8
0
  6
CONTINUOUS
 62
     7
 10
-537.182932978869
 20
186.013537988145
 30
0.0
 11
-537.182932978869
 21
208.439539362764
 31
0.0
  0
LINE
  5
   126
  8
0
  6
CONTINUOUS
 62
     7
 10
-546.807932814956
 20
176.213602241951
 30
0.0
 11
-546.807932814956
 21
208.439539362764
 31
0.0
  0
LINE
  5
   127
  8
0
  6
CONTINUOUS
 62
     7
 10
-536.95926473621
 20
206.439539362764
 30
0.0
 11
-547.559264660994
 21
206.439539362764
 31
0.0
  0
LINE
  5
   128
  8
0
  6
CONTINUOUS
 62
     7
 10
-534.228509701662
 20
206.960483792716
 30
0.0
 11
-537.182932978869
 21
206.439539362764
 31
0.0
  0
LINE
  5
   129
  8
0
  6
CONTINUOUS
 62
     7
 10
-537.182932978869
 20
206.439539362764
 30
0.0
 11
-534.228509701662
 21
205.918594932813
 31
0.0
  0
LINE
  5
   12A
  8
0
  6
CONTINUOUS
 62
     7
 10
-549.762356092163
 20
205.918594932813
 30
0.0
 11
-546.807932814956
 21
206.439539362764
 31
0.0
  0
LINE
  5
   12B
  8
0
  6
CONTINUOUS
 62
     7
 10
-546.807932814956
 20
206.439539362764
 30
0.0
 11
-549.762356092163
 21
206.960483792716
 31
0.0
  0
ENDBLK
  5
   12C
  8
0
  6
CONTINUOUS
 62
     7
  0
BLOCK
  5
   12D
  8
0
  6
CONTINUOUS
 62
     7
  2
*UDIM467
 70
    65
 10
0.0
 20
0.0
 30
0.0
  3
*UDIM467
  0
TEXT
  5
   12E
  8
0
  6
CONTINUOUS
 62
     7
 10
-509.499724753262
 20
84.1686373024756
 30
0.0
 40
2.99999997871263
  1
195,5
 50
360.0
 41
0.933333333333333
 72
     1
 11
-502.799724800812
 21
85.6686372918656
 31
0.0
 73
     2
  0
LINE
  5
   12F
  8
0
  6
CONTINUOUS
 62
     7
 10
-468.757935479283
 20
98.657315484939
 30
0.0
 11
-468.757935479283
 21
81.1686373025093
 31
0.0
  0
LINE
  5
   130
  8
0
  6
CONTINUOUS
 62
     7
 10
-537.182932978869
 20
127.663536945064
 30
0.0
 11
-537.182932978869
 21
81.1686373025093
 31
0.0
  0
LINE
  5
   131
  8
0
  6
CONTINUOUS
 62
     7
 10
-468.757935479283
 20
83.1686373025093
 30
0.0
 11
-537.182932978869
 21
83.1686373025093
 31
0.0
  0
LINE
  5
   132
  8
0
  6
CONTINUOUS
 62
     7
 10
-471.71235875649
 20
82.6476928725576
 30
0.0
 11
-468.757935479283
 21
83.1686373025093
 31
0.0
  0
LINE
  5
   133
  8
0
  6
CONTINUOUS
 62
     7
 10
-468.757935479283
 20
83.1686373025093
 30
0.0
 11
-471.71235875649
 21
83.689581732461
 31
0.0
  0
LINE
  5
   134
  8
0
  6
CONTINUOUS
 62
     7
 10
-534.228509701662
 20
83.689581732461
 30
0.0
 11
-537.182932978869
 21
83.1686373025093
 31
0.0
  0
LINE
  5
   135
  8
0
  6
CONTINUOUS
 62
     7
 10
-537.182932978869
 20
83.1686373025093
 30
0.0
 11
-534.228509701662
 21
82.6476928725576
 31
0.0
  0
ENDBLK
  5
   136
  8
0
  6
CONTINUOUS
 62
     7
  0
BLOCK
  5
   137
  8
0
  6
CONTINUOUS
 62
     7
  2
*UDIM468
 70
    65
 10
0.0
 20
0.0
 30
0.0
  3
*UDIM468
  0
TEXT
  5
   138
  8
0
  6
CONTINUOUS
 62
     7
 10
-506.042754995648
 20
90.5710801255857
 30
0.0
 40
2.99999997871263
  1
190
 50
360.0
 41
0.933333333333333
 72
     1
 11
-502.142755023329
 21
92.0710801149616
 31
0.0
 73
     2
  0
LINE
  5
   139
  8
0
  6
CONTINUOUS
 62
     7
 10
-468.757935479283
 20
98.657315484939
 30
0.0
 11
-468.757935479283
 21
87.5710801256053
 31
0.0
  0
LINE
  5
   13A
  8
0
  6
CONTINUOUS
 62
     7
 10
-535.257934346795
 20
103.874488524658
 30
0.0
 11
-535.257934346795
 21
87.5710801256053
 31
0.0
  0
LINE
  5
   13B
  8
0
  6
CONTINUOUS
 62
     7
 10
-468.757935479283
 20
89.5710801256052
 30
0.0
 11
-535.257934346795
 21
89.5710801256052
 31
0.0
  0
LINE
  5
   13C
  8
0
  6
CONTINUOUS
 62
     7
 10
-471.71235875649
 20
89.0501356956536
 30
0.0
 11
-468.757935479283
 21
89.5710801256052
 31
0.0
  0
LINE
  5
   13D
  8
0
  6
CONTINUOUS
 62
     7
 10
-468.757935479283
 20
89.5710801256052
 30
0.0
 11
-471.71235875649
 21
90.0920245555569
 31
0.0
  0
LINE
  5
   13E
  8
0
  6
CONTINUOUS
 62
     7
 10
-532.303511069588
 20
90.0920245555569
 30
0.0
 11
-535.257934346795
 21
89.5710801256052
 31
0.0
  0
LINE
  5
   13F
  8
0
  6
CONTINUOUS
 62
     7
 10
-535.257934346795
 20
89.5710801256052
 30
0.0
 11
-532.303511069588
 21
89.0501356956536
 31
0.0
  0
ENDBLK
  5
   140
  8
0
  6
CONTINUOUS
 62
     7
  0
BLOCK
  5
   141
  8
0
  6
CONTINUOUS
 62
     7
  2
*UDIM469
 70
    65
 10
0.0
 20
0.0
 30
0.0
  3
*UDIM469
  0
TEXT
  5
   142
  8
0
  6
CONTINUOUS
 62
     7
 10
-531.685110178829
 20
90.5710801255997
 30
0.0
 40
2.99999997871263
  1
2
 50
360.0
 41
0.933333333333333
 72
     1
 11
-530.585110186642
 21
92.0710801149616
 31
0.0
 73
     2
  0
LINE
  5
   143
  8
0
  6
CONTINUOUS
 62
     7
 10
-535.957934334874
 20
103.756510998577
 30
0.0
 11
-535.957934334874
 21
87.5710801256053
 31
0.0
  0
LINE
  5
   144
  8
0
  6
CONTINUOUS
 62
     7
 10
-529.485110194447
 20
89.5710801256052
 30
0.0
 11
-535.957934334874
 21
89.5710801256052
 31
0.0
  0
LINE
  5
   145
  8
0
  6
CONTINUOUS
 62
     7
 10
-532.303511069588
 20
90.0920245555569
 30
0.0
 11
-535.257934346795
 21
89.5710801256052
 31
0.0
  0
LINE
  5
   146
  8
0
  6
CONTINUOUS
 62
     7
 10
-535.257934346795
 20
89.5710801256052
 30
0.0
 11
-532.303511069588
 21
89.0501356956536
 31
0.0
  0
LINE
  5
   147
  8
0
  6
CONTINUOUS
 62
     7
 10
-538.912357612081
 20
89.0501356956536
 30
0.0
 11
-535.957934334874
 21
89.5710801256052
 31
0.0
  0
LINE
  5
   148
  8
0
  6
CONTINUOUS
 62
     7
 10
-535.957934334874
 20
89.5710801256052
 30
0.0
 11
-538.912357612081
 21
90.0920245555569
 31
0.0
  0
ENDBLK
  5
   149
  8
0
  6
CONTINUOUS
 62
     7
  0
BLOCK
  5
   14A
  8
0
  6
CONTINUOUS
 62
     7
  2
*UDIM470
 70
    65
 10
0.0
 20
0.0
 30
0.0
  3
*UDIM470
  0
TEXT
  5
   14B
  8
0
  6
CONTINUOUS
 62
     7
 10
-502.157945191125
 20
96.6390667013256
 30
0.0
 40
2.99999997871263
  1
167
 50
360.0
 41
0.933333333333333
 72
     1
 11
-498.257945218806
 21
98.1390666907015
 31
0.0
 73
     2
  0
LINE
  5
   14C
  8
0
  6
CONTINUOUS
 62
     7
 10
-468.757935479283
 20
98.657315484939
 30
0.0
 11
-468.757935479283
 21
93.6390667013452
 31
0.0
  0
LINE
  5
   14D
  8
0
  6
CONTINUOUS
 62
     7
 10
-527.207958150583
 20
151.376067651372
 30
0.0
 11
-527.207958150583
 21
93.6390667013452
 31
0.0
  0
LINE
  5
   14E
  8
0
  6
CONTINUOUS
 62
     7
 10
-468.757935479283
 20
95.6390667013452
 30
0.0
 11
-527.207958150583
 21
95.6390667013452
 31
0.0
  0
LINE
  5
   14F
  8
0
  6
CONTINUOUS
 62
     7
 10
-471.71235875649
 20
95.1181222713935
 30
0.0
 11
-468.757935479283
 21
95.6390667013452
 31
0.0
  0
LINE
  5
   150
  8
0
  6
CONTINUOUS
 62
     7
 10
-468.757935479283
 20
95.6390667013452
 30
0.0
 11
-471.71235875649
 21
96.1600111312969
 31
0.0
  0
LINE
  5
   151
  8
0
  6
CONTINUOUS
 62
     7
 10
-524.253534873376
 20
96.1600111312969
 30
0.0
 11
-527.207958150583
 21
95.6390667013452
 31
0.0
  0
LINE
  5
   152
  8
0
  6
CONTINUOUS
 62
     7
 10
-527.207958150583
 20
95.6390667013452
 30
0.0
 11
-524.253534873376
 21
95.1181222713935
 31
0.0
  0
ENDBLK
  5
   153
  8
0
  6
CONTINUOUS
 62
     7
  0
BLOCK
  5
   154
  8
0
  6
CONTINUOUS
 62
     7
  2
*UDIM471
 70
    65
 10
0.0
 20
0.0
 30
0.0
  3
*UDIM471
  0
TEXT
  5
   155
  8
0
  6
CONTINUOUS
 62
     7
 10
-554.697130428647
 20
152.663595020424
 30
0.0
 40
2.99999997871263
  1
105
 50
90.0
 41
0.933333333333333
 72
     1
 11
-556.197130418008
 21
156.563594992749
 31
0.0
 73
     2
  0
LINE
  5
   156
  8
0
  6
CONTINUOUS
 62
     7
 10
-536.257933011651
 20
138.463585510927
 30
0.0
 11
-555.697130428651
 21
138.463585510927
 31
0.0
  0
LINE
  5
   157
  8
0
  6
CONTINUOUS
 62
     7
 10
-536.257933011651
 20
175.213602241951
 30
0.0
 11
-555.697130428651
 21
175.213602241951
 31
0.0
  0
LINE
  5
   158
  8
0
  6
CONTINUOUS
 62
     7
 10
-553.697130428652
 20
138.463585510927
 30
0.0
 11
-553.697130428652
 21
175.213602241951
 31
0.0
  0
LINE
  5
   159
  8
0
  6
CONTINUOUS
 62
     7
 10
-554.218074858603
 20
141.418008788134
 30
0.0
 11
-553.697130428652
 21
138.463585510927
 31
0.0
  0
LINE
  5
   15A
  8
0
  6
CONTINUOUS
 62
     7
 10
-553.697130428652
 20
138.463585510927
 30
0.0
 11
-553.1761859987
 21
141.418008788134
 31
0.0
  0
LINE
  5
   15B
  8
0
  6
CONTINUOUS
 62
     7
 10
-553.1761859987
 20
172.259178964744
 30
0.0
 11
-553.697130428652
 21
175.213602241951
 31
0.0
  0
LINE
  5
   15C
  8
0
  6
CONTINUOUS
 62
     7
 10
-553.697130428652
 20
175.213602241951
 30
0.0
 11
-554.218074858603
 21
172.259178964744
 31
0.0
  0
ENDBLK
  5
   15D
  8
0
  6
CONTINUOUS
 62
     7
  0
BLOCK
  5
   15E
  8
0
  6
CONTINUOUS
 62
     7
  2
*UDIM472
 70
    65
 10
0.0
 20
0.0
 30
0.0
  3
*UDIM472
  0
TEXT
  5
   15F
  8
0
  6
CONTINUOUS
 62
     7
 10
-509.415552754351
 20
145.195513976315
 30
0.0
 40
2.99999997871263
  1
1,75
 50
90.0
 41
0.933333333333333
 72
     1
 11
-510.915552743714
 21
150.495513938706
 31
0.0
 73
     2
  0
LINE
  5
   160
  8
0
  6
CONTINUOUS
 62
     7
 10
-522.357961196811
 20
156.226064605144
 30
0.0
 11
-506.415552754358
 21
156.226064605144
 31
0.0
  0
LINE
  5
   161
  8
0
  6
CONTINUOUS
 62
     7
 10
-508.415552754358
 20
145.195513976314
 30
0.0
 11
-508.415552754358
 21
156.838602554875
 31
0.0
  0
LINE
  5
   162
  8
0
  6
CONTINUOUS
 62
     7
 10
-507.894608324406
 20
153.271641327937
 30
0.0
 11
-508.415552754358
 21
156.226064605144
 31
0.0
  0
LINE
  5
   163
  8
0
  6
CONTINUOUS
 62
     7
 10
-508.415552754358
 20
156.226064605144
 30
0.0
 11
-508.936497184309
 21
153.271641327937
 31
0.0
  0
LINE
  5
   164
  8
0
  6
CONTINUOUS
 62
     7
 10
-508.936497184309
 20
159.793025832082
 30
0.0
 11
-508.415552754358
 21
156.838602554875
 31
0.0
  0
LINE
  5
   165
  8
0
  6
CONTINUOUS
 62
     7
 10
-508.415552754358
 20
156.838602554875
 30
0.0
 11
-507.894608324406
 21
159.793025832082
 31
0.0
  0
ENDBLK
  5
   166
  8
0
  6
CONTINUOUS
 62
     7
  0
BLOCK
  5
   167
  8
0
  6
CONTINUOUS
 62
     7
  2
*UDIM473
 70
    65
 10
0.0
 20
0.0
 30
0.0
  3
*UDIM473
  0
TEXT
  5
   168
  8
0
  6
CONTINUOUS
 62
     7
 10
-508.874740087289
 20
11.7480055164472
 30
0.0
 40
3.50000458955765
  1
PART. Z
 50
360.0
 41
0.933333333333333
 72
     1
 11
-497.791392220365
 21
13.4980078112817
 31
0.0
 73
     2
  0
LINE
  5
   169
  8
0
  6
CONTINUOUS
 62
     7
 10
-471.124134786743
 20
-4.81083476716125
 30
0.0
 11
-481.708044398151
 21
9.7480053247109
 31
0.0
  0
LINE
  5
   16A
  8
0
  6
CONTINUOUS
 62
     7
 10
-508.874740132016
 20
9.7480056486705
 30
0.0
 11
-481.708044398151
 21
9.7480053247109
 31
0.0
  0
LINE
  5
   16B
  8
0
  6
CONTINUOUS
 62
     7
 10
-473.456106613092
 20
-2.92353314815161
 30
0.0
 11
-471.124134786743
 21
-4.81083476716125
 31
0.0
  0
LINE
  5
   16C
  8
0
  6
CONTINUOUS
 62
     7
 10
-471.124134786743
 20
-4.81083476716125
 30
0.0
 11
-472.200030778963
 21
-2.0103976916448
 31
0.0
  0
ENDBLK
  5
   16D
  8
0
  6
CONTINUOUS
 62
     7
  0
BLOCK
  5
   16E
  8
0
  6
CONTINUOUS
 62
     7
  2
*UDIM474
 70
    65
 10
0.0
 20
0.0
 30
0.0
  3
*UDIM474
  0
TEXT
  5
   16F
  8
0
  6
CONTINUOUS
 62
     7
 10
-489.189149389533
 20
1.69646641541884
 30
0.0
 40
3.5
  1
7
 50
334.695114062942
 41
0.933333333333334
 72
     1
 11
-487.280945713845
 21
2.73000556636271
 31
0.0
 73
     2
  0
TEXT
  5
   170
  8
0
  6
CONTINUOUS
 62
     7
 10
-493.257356853653
 20
3.61992372684574
 30
0.0
 40
3.5
  1
Ø
 50
334.695114062942
 41
1.2
 72
     1
 11
-490.927264996499
 21
4.45399323068044
 31
0.0
 73
     2
  0
LINE
  5
   171
  8
0
  6
CONTINUOUS
 62
     7
 10
-493.684791811752
 20
2.71587762371914
 30
0.0
 11
-470.46292958352
 21
-8.26346919716933
 31
0.0
  0
LINE
  5
   172
  8
0
  6
CONTINUOUS
 62
     7
 10
-479.516850144231
 20
-4.84162490370807
 30
0.0
 11
-476.565240779699
 21
-5.37828323002594
 31
0.0
  0
LINE
  5
   173
  8
0
  6
CONTINUOUS
 62
     7
 10
-476.565240779699
 20
-5.37828323002594
 30
0.0
 11
-478.853080279998
 21
-3.43771877068129
 31
0.0
  0
LINE
  5
   174
  8
0
  6
CONTINUOUS
 62
     7
 10
-472.031550734676
 20
-6.66295273301068
 30
0.0
 11
-474.983160099208
 21
-6.12629440669281
 31
0.0
  0
LINE
  5
   175
  8
0
  6
CONTINUOUS
 62
     7
 10
-474.983160099208
 20
-6.12629440669281
 30
0.0
 11
-472.695320598909
 21
-8.06685886603746
 31
0.0
  0
ENDBLK
  5
   176
  8
0
  6
CONTINUOUS
 62
     7
  0
BLOCK
  5
   177
  8
0
  6
CONTINUOUS
 62
     7
  2
*UDIM475
 70
    65
 10
0.0
 20
0.0
 30
0.0
  3
*UDIM475
  0
TEXT
  5
   178
  8
0
  6
CONTINUOUS
 62
     7
 10
-429.988500215372
 20
-54.3841243303496
 30
0.0
 40
3.5
  1
7
 50
314.978568706302
 41
0.933333333333334
 72
     1
 11
-427.843486366731
 21
-54.0549434779583
 31
0.0
 73
     2
  0
TEXT
  5
   179
  8
0
  6
CONTINUOUS
 62
     7
 10
-433.16929029903
 20
-51.2009538285223
 30
0.0
 40
3.5
  1
Ø
 50
314.978568706302
 41
1.2
 72
     1
 11
-430.694416738008
 21
-51.2018795466895
 31
0.0
 73
     2
  0
LINE
  5
   17A
  8
0
  6
CONTINUOUS
 62
     7
 10
-448.676898604227
 20
-37.0964828854162
 30
0.0
 11
-428.881643019917
 21
-56.9065527092329
 31
0.0
  0
LINE
  5
   17B
  8
0
  6
CONTINUOUS
 62
     7
 10
-447.740202370759
 20
-39.1323673207665
 30
0.0
 11
-445.142687400164
 21
-40.6333389985593
 31
0.0
  0
LINE
  5
   17C
  8
0
  6
CONTINUOUS
 62
     7
 10
-445.142687400164
 20
-40.6333389985593
 30
0.0
 11
-446.64171547465
 21
-38.0347018880909
 31
0.0
  0
LINE
  5
   17D
  8
0
  6
CONTINUOUS
 62
     7
 10
-441.308198508147
 20
-43.3722103159522
 30
0.0
 11
-443.905713478742
 21
-41.8712386381594
 31
0.0
  0
LINE
  5
   17E
  8
0
  6
CONTINUOUS
 62
     7
 10
-443.905713478742
 20
-41.8712386381594
 30
0.0
 11
-442.406685404256
 21
-44.4698757486278
 31
0.0
  0
ENDBLK
  5
   17F
  8
0
  6
CONTINUOUS
 62
     7
  0
BLOCK
  5
   180
  8
0
  6
CONTINUOUS
 62
     7
  2
*UDIM476
 70
    65
 10
0.0
 20
0.0
 30
0.0
  3
*UDIM476
  0
TEXT
  5
   181
  8
0
  6
CONTINUOUS
 62
     7
 10
-424.032606019971
 20
8.64983378057876
 30
0.0
 40
3.00000002980232
  1
8
 50
32.8125421757779
 41
0.933333333333334
 72
     1
 11
-423.920951515289
 21
10.506587221488
 31
0.0
 73
     2
  0
TEXT
  5
   182
  8
0
  6
CONTINUOUS
 62
     7
 10
-426.680017235264
 20
6.94287334760884
 30
0.0
 40
3.00000002980232
  1
Ø
 50
32.8125421757779
 41
0.933333333333334
 72
     1
 11
-426.568362730582
 21
8.79962678851804
 31
0.0
 73
     2
  0
TEXT
  5
   183
  8
0
  6
CONTINUOUS
 62
     7
 10
-440.757521417461
 20
-2.1338210832292
 30
0.0
 40
3.00000002980232
  1
3 fori
 50
32.8125421757779
 41
0.933333333333333
 72
     1
 11
-434.762730838906
 21
3.51617779000232
 31
0.0
 73
     2
  0
LINE
  5
   184
  8
0
  6
CONTINUOUS
 62
     7
 10
-421.64172819752
 20
9.00154862853194
 30
0.0
 11
-445.364648441658
 21
-6.29418101759326
 31
0.0
  0
LINE
  5
   185
  8
0
  6
CONTINUOUS
 62
     7
 10
-441.483009019079
 20
-3.17159098655964
 30
0.0
 11
-443.683752437249
 21
-5.21039661912549
 31
0.0
  0
LINE
  5
   186
  8
0
  6
CONTINUOUS
 62
     7
 10
-443.683752437249
 20
-5.21039661912549
 30
0.0
 11
-440.918417573429
 21
-4.04724439738448
 31
0.0
  0
LINE
  5
   187
  8
0
  6
CONTINUOUS
 62
     7
 10
-447.565391859828
 20
-8.33298665015911
 30
0.0
 11
-445.364648441658
 21
-6.29418101759326
 31
0.0
  0
LINE
  5
   188
  8
0
  6
CONTINUOUS
 62
     7
 10
-445.364648441658
 20
-6.29418101759326
 30
0.0
 11
-448.129983305478
 21
-7.45733323933427
 31
0.0
  0
ENDBLK
  5
   189
  8
0
  6
CONTINUOUS
 62
     7
  0
BLOCK
  5
   18A
  8
0
  6
CONTINUOUS
 62
     7
  2
*UDIM477
 70
    65
 10
0.0
 20
0.0
 30
0.0
  3
*UDIM477
  0
TEXT
  5
   18B
  8
0
  6
CONTINUOUS
 62
     7
 10
-462.780042008129
 20
-62.0828819275521
 30
0.0
 40
3.00000002980232
  1
R min.200
 50
360.0
 41
0.933333333333333
 72
     1
 11
-450.480041885947
 21
-60.5828819125891
 31
0.0
 73
     2
  0
LINE
  5
   18C
  8
0
  6
CONTINUOUS
 62
     7
 10
-464.774200439453
 20
-47.6474701359108
 30
0.0
 11
-464.774200439453
 21
-65.0828819274902
 31
0.0
  0
LINE
  5
   18D
  8
0
  6
CONTINUOUS
 62
     7
 10
-436.131824475178
 20
-60.0831506267515
 30
0.0
 11
-436.131824475178
 21
-65.0828819274902
 31
0.0
  0
LINE
  5
   18E
  8
0
  6
CONTINUOUS
 62
     7
 10
-464.774200439453
 20
-63.0828819274902
 30
0.0
 11
-436.131824475178
 21
-63.0828819274902
 31
0.0
  0
LINE
  5
   18F
  8
0
  6
CONTINUOUS
 62
     7
 10
-467.72862371666
 20
-63.6038263574419
 30
0.0
 11
-464.774200439453
 21
-63.0828819274902
 31
0.0
  0
LINE
  5
   190
  8
0
  6
CONTINUOUS
 62
     7
 10
-464.774200439453
 20
-63.0828819274902
 30
0.0
 11
-467.72862371666
 21
-62.5619374975386
 31
0.0
  0
LINE
  5
   191
  8
0
  6
CONTINUOUS
 62
     7
 10
-433.177401197971
 20
-62.5619374975386
 30
0.0
 11
-436.131824475178
 21
-63.0828819274902
 31
0.0
  0
LINE
  5
   192
  8
0
  6
CONTINUOUS
 62
     7
 10
-436.131824475178
 20
-63.0828819274902
 30
0.0
 11
-433.177401197971
 21
-63.6038263574419
 31
0.0
  0
ENDBLK
  5
   193
  8
0
  6
CONTINUOUS
 62
     7
  0
BLOCK
  5
   194
  8
0
  6
CONTINUOUS
 62
     7
  2
*UDIM478
 70
    65
 10
0.0
 20
0.0
 30
0.0
  3
*UDIM478
  0
TEXT
  5
   195
  8
0
  6
CONTINUOUS
 62
     7
 10
-502.314121246331
 20
-20.0147888769687
 30
0.0
 40
3.00000002980232
  1
72,5
 50
90.0
 41
0.933333333333333
 72
     1
 11
-503.814121261239
 21
-14.7147888243198
 31
0.0
 73
     2
  0
LINE
  5
   196
  8
0
  6
CONTINUOUS
 62
     7
 10
-473.069200439453
 20
-5.37728881835938
 30
0.0
 11
-503.314121246338
 21
-5.37728881835938
 31
0.0
  0
LINE
  5
   197
  8
0
  6
CONTINUOUS
 62
     7
 10
-493.234925202597
 20
-23.5022888183594
 30
0.0
 11
-503.314121246338
 21
-23.5022888183594
 31
0.0
  0
LINE
  5
   198
  8
0
  6
CONTINUOUS
 62
     7
 10
-501.314121246338
 20
-5.37728881835938
 30
0.0
 11
-501.314121246338
 21
-23.5022888183594
 31
0.0
  0
LINE
  5
   199
  8
0
  6
CONTINUOUS
 62
     7
 10
-500.793176816386
 20
-8.33171209556634
 30
0.0
 11
-501.314121246338
 21
-5.37728881835938
 31
0.0
  0
LINE
  5
   19A
  8
0
  6
CONTINUOUS
 62
     7
 10
-501.314121246338
 20
-5.37728881835938
 30
0.0
 11
-501.83506567629
 21
-8.33171209556634
 31
0.0
  0
LINE
  5
   19B
  8
0
  6
CONTINUOUS
 62
     7
 10
-501.83506567629
 20
-20.5478655411524
 30
0.0
 11
-501.314121246338
 21
-23.5022888183594
 31
0.0
  0
LINE
  5
   19C
  8
0
  6
CONTINUOUS
 62
     7
 10
-501.314121246338
 20
-23.5022888183594
 30
0.0
 11
-500.793176816386
 21
-20.5478655411524
 31
0.0
  0
ENDBLK
  5
   19D
  8
0
  6
CONTINUOUS
 62
     7
  0
BLOCK
  5
   19E
  8
0
  6
CONTINUOUS
 62
     7
  2
*UDIM479
 70
    65
 10
0.0
 20
0.0
 30
0.0
  3
*UDIM479
  0
TEXT
  5
   19F
  8
0
  6
CONTINUOUS
 62
     7
 10
-455.470181489977
 20
5.35526847838099
 30
0.0
 40
3.00000002980232
  1
45
 50
360.0
 41
0.933333333333333
 72
     1
 11
-452.970181465149
 21
6.85526849329472
 31
0.0
 73
     2
  0
LINE
  5
   1A0
  8
0
  6
CONTINUOUS
 62
     7
 10
-470.399200439453
 20
-2.70728881835937
 30
0.0
 11
-470.399200439453
 21
6.35526847839355
 31
0.0
  0
LINE
  5
   1A1
  8
0
  6
CONTINUOUS
 62
     7
 10
-459.149200439453
 20
-2.70728881835937
 30
0.0
 11
-459.149200439453
 21
6.35526847839355
 31
0.0
  0
LINE
  5
   1A2
  8
0
  6
CONTINUOUS
 62
     7
 10
-470.399200439453
 20
4.35526847839355
 30
0.0
 11
-450.470181440314
 21
4.35526847839355
 31
0.0
  0
LINE
  5
   1A3
  8
0
  6
CONTINUOUS
 62
     7
 10
-473.35362371666
 20
3.83432404844189
 30
0.0
 11
-470.399200439453
 21
4.35526847839355
 31
0.0
  0
LINE
  5
   1A4
  8
0
  6
CONTINUOUS
 62
     7
 10
-470.399200439453
 20
4.35526847839355
 30
0.0
 11
-473.35362371666
 21
4.87621290834522
 31
0.0
  0
LINE
  5
   1A5
  8
0
  6
CONTINUOUS
 62
     7
 10
-456.194777162246
 20
4.87621290834522
 30
0.0
 11
-459.149200439453
 21
4.35526847839355
 31
0.0
  0
LINE
  5
   1A6
  8
0
  6
CONTINUOUS
 62
     7
 10
-459.149200439453
 20
4.35526847839355
 30
0.0
 11
-456.194777162246
 21
3.83432404844189
 31
0.0
  0
ENDBLK
  5
   1A7
  8
0
  6
CONTINUOUS
 62
     7
  0
BLOCK
  5
   1A8
  8
0
  6
CONTINUOUS
 62
     7
  2
*UDIM480
 70
    65
 10
0.0
 20
0.0
 30
0.0
  3
*UDIM480
  0
TEXT
  5
   1A9
  8
0
  6
CONTINUOUS
 62
     7
 10
-426.482543945304
 20
-20.6022885034463
 30
0.0
 40
3.00000002980232
  1
27,25
 50
90.0
 41
0.933333333333333
 72
     1
 11
-427.982543960214
 21
-13.9022884368896
 31
0.0
 73
     2
  0
LINE
  5
   1AA
  8
0
  6
CONTINUOUS
 62
     7
 10
-435.781472139316
 20
-23.5022888183594
 30
0.0
 11
-423.482543945313
 21
-23.5022888183594
 31
0.0
  0
LINE
  5
   1AB
  8
0
  6
CONTINUOUS
 62
     7
 10
-438.518894040012
 20
-30.3147888183594
 30
0.0
 11
-423.482543945313
 21
-30.3147888183594
 31
0.0
  0
LINE
  5
   1AC
  8
0
  6
CONTINUOUS
 62
     7
 10
-425.482543945313
 20
-7.20228837033113
 30
0.0
 11
-425.482543945313
 21
-30.3147888183594
 31
0.0
  0
LINE
  5
   1AD
  8
0
  6
CONTINUOUS
 62
     7
 10
-426.003488375264
 20
-20.5478655411524
 30
0.0
 11
-425.482543945313
 21
-23.5022888183594
 31
0.0
  0
LINE
  5
   1AE
  8
0
  6
CONTINUOUS
 62
     7
 10
-425.482543945313
 20
-23.5022888183594
 30
0.0
 11
-424.961599515361
 21
-20.5478655411524
 31
0.0
  0
LINE
  5
   1AF
  8
0
  6
CONTINUOUS
 62
     7
 10
-424.961599515361
 20
-33.2692120955663
 30
0.0
 11
-425.482543945313
 21
-30.3147888183594
 31
0.0
  0
LINE
  5
   1B0
  8
0
  6
CONTINUOUS
 62
     7
 10
-425.482543945313
 20
-30.3147888183594
 30
0.0
 11
-426.003488375264
 21
-33.2692120955663
 31
0.0
  0
ENDBLK
  5
   1B1
  8
0
  6
CONTINUOUS
 62
     7
  0
BLOCK
  5
   1B2
  8
0
  6
CONTINUOUS
 62
     7
  2
*UDIM481
 70
    65
 10
0.0
 20
0.0
 30
0.0
  3
*UDIM481
  0
TEXT
  5
   1B3
  8
0
  6
CONTINUOUS
 62
     7
 10
-421.065067291258
 20
-15.069023119408
 30
0.0
 40
3.00000002980232
  1
=
 50
90.0
 41
0.933333333333334
 72
     1
 11
-422.565067306161
 21
-13.9690231084824
 31
0.0
 73
     2
  0
LINE
  5
   1B4
  8
0
  6
CONTINUOUS
 62
     7
 10
-441.899200439453
 20
-5.75228881835938
 30
0.0
 11
-418.06506729126
 21
-5.75228881835938
 31
0.0
  0
LINE
  5
   1B5
  8
0
  6
CONTINUOUS
 62
     7
 10
-441.899200439453
 20
-23.5022888183594
 30
0.0
 11
-418.06506729126
 21
-23.5022888183594
 31
0.0
  0
LINE
  5
   1B6
  8
0
  6
CONTINUOUS
 62
     7
 10
-420.06506729126
 20
-5.75228881835938
 30
0.0
 11
-420.06506729126
 21
-23.5022888183594
 31
0.0
  0
LINE
  5
   1B7
  8
0
  6
CONTINUOUS
 62
     7
 10
-419.544122861308
 20
-8.70671209556634
 30
0.0
 11
-420.06506729126
 21
-5.75228881835938
 31
0.0
  0
LINE
  5
   1B8
  8
0
  6
CONTINUOUS
 62
     7
 10
-420.06506729126
 20
-5.75228881835938
 30
0.0
 11
-420.586011721211
 21
-8.70671209556634
 31
0.0
  0
LINE
  5
   1B9
  8
0
  6
CONTINUOUS
 62
     7
 10
-420.586011721211
 20
-20.5478655411524
 30
0.0
 11
-420.06506729126
 21
-23.5022888183594
 31
0.0
  0
LINE
  5
   1BA
  8
0
  6
CONTINUOUS
 62
     7
 10
-420.06506729126
 20
-23.5022888183594
 30
0.0
 11
-419.544122861308
 21
-20.5478655411524
 31
0.0
  0
ENDBLK
  5
   1BB
  8
0
  6
CONTINUOUS
 62
     7
  0
BLOCK
  5
   1BC
  8
0
  6
CONTINUOUS
 62
     7
  2
*UDIM482
 70
    65
 10
0.0
 20
0.0
 30
0.0
  3
*UDIM482
  0
TEXT
  5
   1BD
  8
0
  6
CONTINUOUS
 62
     7
 10
-421.065067291258
 20
-32.819023119408
 30
0.0
 40
3.00000002980232
  1
=
 50
90.0
 41
0.933333333333334
 72
     1
 11
-422.565067306161
 21
-31.7190231084824
 31
0.0
 73
     2
  0
LINE
  5
   1BE
  8
0
  6
CONTINUOUS
 62
     7
 10
-441.899200439453
 20
-41.2522888183594
 30
0.0
 11
-418.06506729126
 21
-41.2522888183594
 31
0.0
  0
LINE
  5
   1BF
  8
0
  6
CONTINUOUS
 62
     7
 10
-420.06506729126
 20
-23.5022888183594
 30
0.0
 11
-420.06506729126
 21
-41.2522888183594
 31
0.0
  0
LINE
  5
   1C0
  8
0
  6
CONTINUOUS
 62
     7
 10
-419.544122861308
 20
-26.4567120955663
 30
0.0
 11
-420.06506729126
 21
-23.5022888183594
 31
0.0
  0
LINE
  5
   1C1
  8
0
  6
CONTINUOUS
 62
     7
 10
-420.06506729126
 20
-23.5022888183594
 30
0.0
 11
-420.586011721211
 21
-26.4567120955663
 31
0.0
  0
LINE
  5
   1C2
  8
0
  6
CONTINUOUS
 62
     7
 10
-420.586011721211
 20
-38.2978655411524
 30
0.0
 11
-420.06506729126
 21
-41.2522888183594
 31
0.0
  0
LINE
  5
   1C3
  8
0
  6
CONTINUOUS
 62
     7
 10
-420.06506729126
 20
-41.2522888183594
 30
0.0
 11
-419.544122861308
 21
-38.2978655411524
 31
0.0
  0
ENDBLK
  5
   1C4
  8
0
  6
CONTINUOUS
 62
     7
  0
BLOCK
  5
   1C5
  8
0
  6
CONTINUOUS
 62
     7
  2
*UDIM483
 70
    65
 10
0.0
 20
0.0
 30
0.0
  3
*UDIM483
  0
TEXT
  5
   1C6
  8
0
  6
CONTINUOUS
 62
     7
 10
-494.917539596553
 20
-27.677288863061
 30
0.0
 40
3.00000002980232
  1
126
 50
90.0
 41
0.933333333333333
 72
     1
 11
-496.417539611459
 21
-23.7772888243198
 31
0.0
 73
     2
  0
LINE
  5
   1C7
  8
0
  6
CONTINUOUS
 62
     7
 10
-483.774200439453
 20
-7.75228881835938
 30
0.0
 11
-495.917539596558
 21
-7.75228881835938
 31
0.0
  0
LINE
  5
   1C8
  8
0
  6
CONTINUOUS
 62
     7
 10
-483.774200439453
 20
-39.2522888183594
 30
0.0
 11
-495.917539596558
 21
-39.2522888183594
 31
0.0
  0
LINE
  5
   1C9
  8
0
  6
CONTINUOUS
 62
     7
 10
-493.917539596558
 20
-7.75228881835938
 30
0.0
 11
-493.917539596558
 21
-39.2522888183594
 31
0.0
  0
LINE
  5
   1CA
  8
0
  6
CONTINUOUS
 62
     7
 10
-493.396595166606
 20
-10.7067120955663
 30
0.0
 11
-493.917539596558
 21
-7.75228881835938
 31
0.0
  0
LINE
  5
   1CB
  8
0
  6
CONTINUOUS
 62
     7
 10
-493.917539596558
 20
-7.75228881835938
 30
0.0
 11
-494.438484026509
 21
-10.7067120955663
 31
0.0
  0
LINE
  5
   1CC
  8
0
  6
CONTINUOUS
 62
     7
 10
-494.438484026509
 20
-36.2978655411524
 30
0.0
 11
-493.917539596558
 21
-39.2522888183594
 31
0.0
  0
LINE
  5
   1CD
  8
0
  6
CONTINUOUS
 62
     7
 10
-493.917539596558
 20
-39.2522888183594
 30
0.0
 11
-493.396595166606
 21
-36.2978655411524
 31
0.0
  0
ENDBLK
  5
   1CE
  8
0
  6
CONTINUOUS
 62
     7
  0
BLOCK
  5
   1CF
  8
0
  6
CONTINUOUS
 62
     7
  2
*UDIM484
 70
    65
 10
0.0
 20
0.0
 30
0.0
  3
*UDIM484
  0
TEXT
  5
   1D0
  8
0
  6
CONTINUOUS
 62
     7
 10
-414.368053436274
 20
-27.677288863061
 30
0.0
 40
3.00000002980232
  1
142
 50
90.0
 41
0.933333333333333
 72
     1
 11
-415.86805345118
 21
-23.7772888243198
 31
0.0
 73
     2
  0
LINE
  5
   1D1
  8
0
  6
CONTINUOUS
 62
     7
 10
-473.149200439453
 20
-5.75228881835938
 30
0.0
 11
-411.368053436279
 21
-5.75228881835938
 31
0.0
  0
LINE
  5
   1D2
  8
0
  6
CONTINUOUS
 62
     7
 10
-441.899200439453
 20
-41.2522888183594
 30
0.0
 11
-411.368053436279
 21
-41.2522888183594
 31
0.0
  0
LINE
  5
   1D3
  8
0
  6
CONTINUOUS
 62
     7
 10
-413.368053436279
 20
-5.75228881835938
 30
0.0
 11
-413.368053436279
 21
-41.2522888183594
 31
0.0
  0
LINE
  5
   1D4
  8
0
  6
CONTINUOUS
 62
     7
 10
-412.847109006328
 20
-8.70671209556634
 30
0.0
 11
-413.368053436279
 21
-5.75228881835938
 31
0.0
  0
LINE
  5
   1D5
  8
0
  6
CONTINUOUS
 62
     7
 10
-413.368053436279
 20
-5.75228881835938
 30
0.0
 11
-413.888997866231
 21
-8.70671209556634
 31
0.0
  0
LINE
  5
   1D6
  8
0
  6
CONTINUOUS
 62
     7
 10
-413.888997866231
 20
-38.2978655411524
 30
0.0
 11
-413.368053436279
 21
-41.2522888183594
 31
0.0
  0
LINE
  5
   1D7
  8
0
  6
CONTINUOUS
 62
     7
 10
-413.368053436279
 20
-41.2522888183594
 30
0.0
 11
-412.847109006328
 21
-38.2978655411524
 31
0.0
  0
ENDBLK
  5
   1D8
  8
0
  6
CONTINUOUS
 62
     7
  0
BLOCK
  5
   1D9
  8
0
  6
CONTINUOUS
 62
     7
  2
*UDIM485
 70
    65
 10
0.0
 20
0.0
 30
0.0
  3
*UDIM485
  0
TEXT
  5
   1DA
  8
0
  6
CONTINUOUS
 62
     7
 10
-457.756731033322
 20
-33.0045265505692
 30
0.0
 40
3.00000002980232
  1
16
 50
90.0
 41
0.933333333333333
 72
     1
 11
-459.256731048226
 21
-30.5045265257359
 31
0.0
 73
     2
  0
LINE
  5
   1DB
  8
0
  6
CONTINUOUS
 62
     7
 10
-450.024200439453
 20
-28.3147888183594
 30
0.0
 11
-458.756731033325
 21
-28.3147888183594
 31
0.0
  0
LINE
  5
   1DC
  8
0
  6
CONTINUOUS
 62
     7
 10
-450.024200439453
 20
-32.3147888183594
 30
0.0
 11
-458.756731033325
 21
-32.3147888183594
 31
0.0
  0
LINE
  5
   1DD
  8
0
  6
CONTINUOUS
 62
     7
 10
-456.756731033325
 20
-28.0045265009006
 30
0.0
 11
-456.756731033325
 21
-33.0045265505711
 31
0.0
  0
LINE
  5
   1DE
  8
0
  6
CONTINUOUS
 62
     7
 10
-457.277675463277
 20
-25.3603655411524
 30
0.0
 11
-456.756731033325
 21
-28.3147888183594
 31
0.0
  0
LINE
  5
   1DF
  8
0
  6
CONTINUOUS
 62
     7
 10
-456.756731033325
 20
-28.3147888183594
 30
0.0
 11
-456.235786603374
 21
-25.3603655411524
 31
0.0
  0
LINE
  5
   1E0
  8
0
  6
CONTINUOUS
 62
     7
 10
-456.235786603374
 20
-35.2692120955663
 30
0.0
 11
-456.756731033325
 21
-32.3147888183594
 31
0.0
  0
LINE
  5
   1E1
  8
0
  6
CONTINUOUS
 62
     7
 10
-456.756731033325
 20
-32.3147888183594
 30
0.0
 11
-457.277675463277
 21
-35.2692120955663
 31
0.0
  0
ENDBLK
  5
   1E2
  8
0
  6
CONTINUOUS
 62
     7
  0
BLOCK
  5
   1E3
  8
0
  6
CONTINUOUS
 62
     7
  2
*UDIM486
 70
    65
 10
0.0
 20
0.0
 30
0.0
  3
*UDIM486
  0
TEXT
  5
   1E4
  8
0
  6
CONTINUOUS
 62
     7
 10
-455.799200470241
 20
-18.9537074566013
 30
0.0
 40
3.00000002980232
  1
94
 50
360.0
 41
0.933333333333333
 72
     1
 11
-453.299200445414
 21
-17.4537074416876
 31
0.0
 73
     2
  0
LINE
  5
   1E5
  8
0
  6
CONTINUOUS
 62
     7
 10
-441.274200439453
 20
-29.4397888183594
 30
0.0
 11
-441.274200439453
 21
-17.9537074565887
 31
0.0
  0
LINE
  5
   1E6
  8
0
  6
CONTINUOUS
 62
     7
 10
-464.774200439453
 20
-19.9537074565887
 30
0.0
 11
-441.274200439453
 21
-19.9537074565887
 31
0.0
  0
LINE
  5
   1E7
  8
0
  6
CONTINUOUS
 62
     7
 10
-461.819777162246
 20
-19.4327630266371
 30
0.0
 11
-464.774200439453
 21
-19.9537074565887
 31
0.0
  0
LINE
  5
   1E8
  8
0
  6
CONTINUOUS
 62
     7
 10
-464.774200439453
 20
-19.9537074565887
 30
0.0
 11
-461.819777162246
 21
-20.4746518865404
 31
0.0
  0
LINE
  5
   1E9
  8
0
  6
CONTINUOUS
 62
     7
 10
-444.22862371666
 20
-20.4746518865404
 30
0.0
 11
-441.274200439453
 21
-19.9537074565887
 31
0.0
  0
LINE
  5
   1EA
  8
0
  6
CONTINUOUS
 62
     7
 10
-441.274200439453
 20
-19.9537074565887
 30
0.0
 11
-444.22862371666
 21
-19.4327630266371
 31
0.0
  0
ENDBLK
  5
   1EB
  8
0
  6
CONTINUOUS
 62
     7
  0
BLOCK
  5
   1EC
  8
0
  6
CONTINUOUS
 62
     7
  2
*UDIM487
 70
    65
 10
0.0
 20
0.0
 30
0.0
  3
*UDIM487
  0
TEXT
  5
   1ED
  8
0
  6
CONTINUOUS
 62
     7
 10
-464.324200513951
 20
-55.7569389343458
 30
0.0
 40
3.00000002980232
  1
125
 50
360.0
 41
0.933333333333333
 72
     1
 11
-460.424200475216
 21
-54.256938919425
 31
0.0
 73
     2
  0
LINE
  5
   1EE
  8
0
  6
CONTINUOUS
 62
     7
 10
-475.774200439453
 20
-43.8772888183594
 30
0.0
 11
-475.774200439453
 21
-58.7569389343262
 31
0.0
  0
LINE
  5
   1EF
  8
0
  6
CONTINUOUS
 62
     7
 10
-444.524200439453
 20
-43.8772888183594
 30
0.0
 11
-444.524200439453
 21
-58.7569389343262
 31
0.0
  0
LINE
  5
   1F0
  8
0
  6
CONTINUOUS
 62
     7
 10
-475.774200439453
 20
-56.7569389343262
 30
0.0
 11
-444.524200439453
 21
-56.7569389343262
 31
0.0
  0
LINE
  5
   1F1
  8
0
  6
CONTINUOUS
 62
     7
 10
-472.819777162246
 20
-56.2359945043745
 30
0.0
 11
-475.774200439453
 21
-56.7569389343262
 31
0.0
  0
LINE
  5
   1F2
  8
0
  6
CONTINUOUS
 62
     7
 10
-475.774200439453
 20
-56.7569389343262
 30
0.0
 11
-472.819777162246
 21
-57.2778833642778
 31
0.0
  0
LINE
  5
   1F3
  8
0
  6
CONTINUOUS
 62
     7
 10
-447.47862371666
 20
-57.2778833642778
 30
0.0
 11
-444.524200439453
 21
-56.7569389343262
 31
0.0
  0
LINE
  5
   1F4
  8
0
  6
CONTINUOUS
 62
     7
 10
-444.524200439453
 20
-56.7569389343262
 30
0.0
 11
-447.47862371666
 21
-56.2359945043745
 31
0.0
  0
ENDBLK
  5
   1F5
  8
0
  6
CONTINUOUS
 62
     7
  0
BLOCK
  5
   1F6
  8
0
  6
CONTINUOUS
 62
     7
  2
*UDIM488
 70
    65
 10
0.0
 20
0.0
 30
0.0
  3
*UDIM488
  0
TEXT
  5
   1F7
  8
0
  6
CONTINUOUS
 62
     7
 10
-457.424200470241
 20
-49.6273498535282
 30
0.0
 40
3.00000002980232
  1
81
 50
360.0
 41
0.933333333333333
 72
     1
 11
-454.924200445414
 21
-48.1273498386145
 31
0.0
 73
     2
  0
LINE
  5
   1F8
  8
0
  6
CONTINUOUS
 62
     7
 10
-464.774200439453
 20
-47.6474701359108
 30
0.0
 11
-464.774200439453
 21
-52.6273498535156
 31
0.0
  0
LINE
  5
   1F9
  8
0
  6
CONTINUOUS
 62
     7
 10
-444.524200439453
 20
-43.8772888183594
 30
0.0
 11
-444.524200439453
 21
-52.6273498535156
 31
0.0
  0
LINE
  5
   1FA
  8
0
  6
CONTINUOUS
 62
     7
 10
-464.774200439453
 20
-50.6273498535156
 30
0.0
 11
-444.524200439453
 21
-50.6273498535156
 31
0.0
  0
LINE
  5
   1FB
  8
0
  6
CONTINUOUS
 62
     7
 10
-461.819777162246
 20
-50.106405423564
 30
0.0
 11
-464.774200439453
 21
-50.6273498535156
 31
0.0
  0
LINE
  5
   1FC
  8
0
  6
CONTINUOUS
 62
     7
 10
-464.774200439453
 20
-50.6273498535156
 30
0.0
 11
-461.819777162246
 21
-51.1482942834673
 31
0.0
  0
LINE
  5
   1FD
  8
0
  6
CONTINUOUS
 62
     7
 10
-447.47862371666
 20
-51.1482942834673
 30
0.0
 11
-444.524200439453
 21
-50.6273498535156
 31
0.0
  0
LINE
  5
   1FE
  8
0
  6
CONTINUOUS
 62
     7
 10
-444.524200439453
 20
-50.6273498535156
 30
0.0
 11
-447.47862371666
 21
-50.106405423564
 31
0.0
  0
ENDBLK
  5
   1FF
  8
0
  6
CONTINUOUS
 62
     7
  0
BLOCK
  5
   200
  8
0
  6
CONTINUOUS
 62
     7
  2
*UDIM489
 70
    65
 10
0.0
 20
0.0
 30
0.0
  3
*UDIM489
  0
TEXT
  5
   201
  8
0
  6
CONTINUOUS
 62
     7
 10
-470.074200484149
 20
20.18233871458
 30
0.0
 40
3.00000002980232
  1
135
 50
360.0
 41
0.933333333333333
 72
     1
 11
-466.174200445414
 21
21.6823387295008
 31
0.0
 73
     2
  0
LINE
  5
   202
  8
0
  6
CONTINUOUS
 62
     7
 10
-482.774200439453
 20
-6.75228881835938
 30
0.0
 11
-482.774200439453
 21
21.1823387145996
 31
0.0
  0
LINE
  5
   203
  8
0
  6
CONTINUOUS
 62
     7
 10
-449.024200439453
 20
-6.75228881835938
 30
0.0
 11
-449.024200439453
 21
21.1823387145996
 31
0.0
  0
LINE
  5
   204
  8
0
  6
CONTINUOUS
 62
     7
 10
-482.774200439453
 20
19.1823387145996
 30
0.0
 11
-449.024200439453
 21
19.1823387145996
 31
0.0
  0
LINE
  5
   205
  8
0
  6
CONTINUOUS
 62
     7
 10
-479.819777162246
 20
19.7032831445513
 30
0.0
 11
-482.774200439453
 21
19.1823387145996
 31
0.0
  0
LINE
  5
   206
  8
0
  6
CONTINUOUS
 62
     7
 10
-482.774200439453
 20
19.1823387145996
 30
0.0
 11
-479.819777162246
 21
18.6613942846479
 31
0.0
  0
LINE
  5
   207
  8
0
  6
CONTINUOUS
 62
     7
 10
-451.97862371666
 20
18.6613942846479
 30
0.0
 11
-449.024200439453
 21
19.1823387145996
 31
0.0
  0
LINE
  5
   208
  8
0
  6
CONTINUOUS
 62
     7
 10
-449.024200439453
 20
19.1823387145996
 30
0.0
 11
-451.97862371666
 21
19.7032831445513
 31
0.0
  0
ENDBLK
  5
   209
  8
0
  6
CONTINUOUS
 62
     7
  0
BLOCK
  5
   20A
  8
0
  6
CONTINUOUS
 62
     7
  2
*UDIM490
 70
    65
 10
0.0
 20
0.0
 30
0.0
  3
*UDIM490
  0
TEXT
  5
   20B
  8
0
  6
CONTINUOUS
 62
     7
 10
-459.674200947078
 20
12.7938766479367
 30
0.0
 40
3.00000002980232
  1
63
 50
360.0
 41
0.933333333333333
 72
     1
 11
-457.174200922251
 21
14.2938766628504
 31
0.0
 73
     2
  0
LINE
  5
   20C
  8
0
  6
CONTINUOUS
 62
     7
 10
-464.774200439453
 20
3.12520234249573
 30
0.0
 11
-464.774200439453
 21
13.7938766479492
 31
0.0
  0
LINE
  5
   20D
  8
0
  6
CONTINUOUS
 62
     7
 10
-449.024200439453
 20
-6.75228881835938
 30
0.0
 11
-449.024200439453
 21
13.7938766479492
 31
0.0
  0
LINE
  5
   20E
  8
0
  6
CONTINUOUS
 62
     7
 10
-464.774200439453
 20
11.7938766479492
 30
0.0
 11
-449.024200439453
 21
11.7938766479492
 31
0.0
  0
LINE
  5
   20F
  8
0
  6
CONTINUOUS
 62
     7
 10
-461.819777162246
 20
12.3148210779009
 30
0.0
 11
-464.774200439453
 21
11.7938766479492
 31
0.0
  0
LINE
  5
   210
  8
0
  6
CONTINUOUS
 62
     7
 10
-464.774200439453
 20
11.7938766479492
 30
0.0
 11
-461.819777162246
 21
11.2729322179976
 31
0.0
  0
LINE
  5
   211
  8
0
  6
CONTINUOUS
 62
     7
 10
-451.97862371666
 20
11.2729322179976
 30
0.0
 11
-449.024200439453
 21
11.7938766479492
 31
0.0
  0
LINE
  5
   212
  8
0
  6
CONTINUOUS
 62
     7
 10
-449.024200439453
 20
11.7938766479492
 30
0.0
 11
-451.97862371666
 21
12.3148210779009
 31
0.0
  0
ENDBLK
  5
   213
  8
0
  6
CONTINUOUS
 62
     7
  0
BLOCK
  5
   214
  8
0
  6
CONTINUOUS
 62
     7
  2
*HATCH97
 70
    65
 10
0.0
 20
0.0
 30
0.0
  3
*HATCH97
  0
LINE
  5
   215
  8
0
  6
CONTINUOUS
 62
    52
 10
-11.7279224395752
 20
1.0
 30
0.0
 11
-11.9763488769531
 21
0.75157368183136
 31
0.0
  0
LINE
  5
   216
  8
0
  6
CONTINUOUS
 62
    52
 10
-9.60660171508789
 20
1.0
 30
0.0
 11
-11.6066026687622
 21
-1.0
 31
0.0
  0
LINE
  5
   217
  8
0
  6
CONTINUOUS
 62
    52
 10
-7.48528146743774
 20
1.0
 30
0.0
 11
-9.48528289794922
 21
-1.0
 31
0.0
  0
LINE
  5
   218
  8
0
  6
CONTINUOUS
 62
    52
 10
-5.3639612197876
 20
1.0
 30
0.0
 11
-7.36396265029907
 21
-1.0
 31
0.0
  0
LINE
  5
   219
  8
0
  6
CONTINUOUS
 62
    52
 10
-3.47947335243225
 20
0.763167560100555
 30
0.0
 11
-5.24264097213745
 21
-1.0
 31
0.0
  0
LINE
  5
   21A
  8
0
  6
CONTINUOUS
 62
    52
 10
-2.51160907745361
 20
-0.390288293361664
 30
0.0
 11
-3.1213207244873
 21
-1.0
 31
0.0
  0
ENDBLK
  5
   21B
  8
0
  6
CONTINUOUS
 62
     7
  0
BLOCK
  5
   21C
  8
0
  6
CONTINUOUS
 62
     7
  2
*HATCH98
 70
    65
 10
0.0
 20
0.0
 30
0.0
  3
*HATCH98
  0
LINE
  5
   21D
  8
0
  6
CONTINUOUS
 62
    52
 10
5.24264097213745
 20
1.0
 30
0.0
 11
3.24264073371887
 21
-1.0
 31
0.0
  0
LINE
  5
   21E
  8
0
  6
CONTINUOUS
 62
    52
 10
7.3639612197876
 20
1.0
 30
0.0
 11
5.3639612197876
 21
-1.0
 31
0.0
  0
LINE
  5
   21F
  8
0
  6
CONTINUOUS
 62
    52
 10
9.48528099060059
 20
1.0
 30
0.0
 11
7.4852819442749
 21
-1.0
 31
0.0
  0
ENDBLK
  5
   220
  8
0
  6
CONTINUOUS
 62
     7
  0
BLOCK
  5
   221
  8
0
  6
CONTINUOUS
 62
     7
  2
*UDIM491
 70
    65
 10
0.0
 20
0.0
 30
0.0
  3
*UDIM491
  0
TEXT
  5
   222
  8
0
  6
CONTINUOUS
 62
     7
 10
-518.305437315847
 20
-20.8965225907767
 30
0.0
 40
3.00000002980232
  1
80
 50
89.2411256924152
 41
0.933333333333333
 72
     1
 11
-519.772194592625
 21
-18.3768751432358
 31
0.0
 73
     2
  0
TEXT
  5
   223
  8
0
  6
CONTINUOUS
 62
     7
 10
-518.83916235391
 20
-15.8890144192802
 30
0.0
 40
3.00000002980232
  1
°
 50
89.2411256924152
 41
0.933333333333334
 72
     1
 11
-520.324461886113
 21
-14.7692441891072
 31
0.0
 73
     2
  0
LINE
  5
   224
  8
0
  6
CONTINUOUS
 62
     7
 10
-535.367866689694
 20
-21.322981958711
 30
0.0
 11
-521.165899523463
 21
-33.2398473698869
 31
0.0
  0
LINE
  5
   225
  8
0
  6
CONTINUOUS
 62
     7
 10
-535.367866689694
 20
-12.6810082146288
 30
0.0
 11
-521.165899523463
 21
-0.764142803452966
 31
0.0
  0
ARC
  5
   226
  8
0
  6
CONTINUOUS
 62
     7
 10
-540.517418318001
 20
-17.0019950866699
 30
0.0
 40
23.2616136940404
 50
319.999999815233
 51
39.9999999769042
  0
LINE
  5
   227
  8
0
  6
CONTINUOUS
 62
     7
 10
-521.197988319081
 20
-29.3561959914799
 30
0.0
 11
-522.697988409701
 21
-31.9542721505138
 31
0.0
  0
LINE
  5
   228
  8
0
  6
CONTINUOUS
 62
     7
 10
-522.697988409701
 20
-31.9542721505138
 30
0.0
 11
-520.399855147605
 21
-30.0259092412962
 31
0.0
  0
LINE
  5
   229
  8
0
  6
CONTINUOUS
 62
     7
 10
-520.399855147605
 20
-3.97808093204365
 30
0.0
 11
-522.697988409701
 21
-2.04971802282605
 31
0.0
  0
LINE
  5
   22A
  8
0
  6
CONTINUOUS
 62
     7
 10
-522.697988409701
 20
-2.04971802282605
 30
0.0
 11
-521.197988319081
 21
-4.64779418185995
 31
0.0
  0
ENDBLK
  5
   22B
  8
0
  6
CONTINUOUS
 62
     7
  0
BLOCK
  5
   22C
  8
0
  6
CONTINUOUS
 62
     7
  2
*UDIM492
 70
    65
 10
0.0
 20
0.0
 30
0.0
  3
*UDIM492
  0
TEXT
  5
   22D
  8
0
  6
CONTINUOUS
 62
     7
 10
-558.579578399655
 20
-11.1169281254193
 30
0.0
 40
3.00000002980232
  1
Ø4
 50
90.0
 41
0.933333333333333
 72
     1
 11
-560.079578414559
 21
-8.61692810058594
 31
0.0
 73
     2
  0
LINE
  5
   22E
  8
0
  6
CONTINUOUS
 62
     7
 10
-539.133911132813
 20
-15.0019950866699
 30
0.0
 11
-559.579578399658
 21
-15.0019950866699
 31
0.0
  0
LINE
  5
   22F
  8
0
  6
CONTINUOUS
 62
     7
 10
-539.133911132813
 20
-19.0019950866699
 30
0.0
 11
-559.579578399658
 21
-19.0019950866699
 31
0.0
  0
LINE
  5
   230
  8
0
  6
CONTINUOUS
 62
     7
 10
-557.579578399658
 20
-6.11692807575067
 30
0.0
 11
-557.579578399658
 21
-19.0019950866699
 31
0.0
  0
LINE
  5
   231
  8
0
  6
CONTINUOUS
 62
     7
 10
-558.10052282961
 20
-12.047571809463
 30
0.0
 11
-557.579578399658
 21
-15.0019950866699
 31
0.0
  0
LINE
  5
   232
  8
0
  6
CONTINUOUS
 62
     7
 10
-557.579578399658
 20
-15.0019950866699
 30
0.0
 11
-557.058633969707
 21
-12.047571809463
 31
0.0
  0
LINE
  5
   233
  8
0
  6
CONTINUOUS
 62
     7
 10
-557.058633969707
 20
-21.9564183638769
 30
0.0
 11
-557.579578399658
 21
-19.0019950866699
 31
0.0
  0
LINE
  5
   234
  8
0
  6
CONTINUOUS
 62
     7
 10
-557.579578399658
 20
-19.0019950866699
 30
0.0
 11
-558.10052282961
 21
-21.9564183638769
 31
0.0
  0
ENDBLK
  5
   235
  8
0
  6
CONTINUOUS
 62
     7
  0
BLOCK
  5
   236
  8
0
  6
CONTINUOUS
 62
     7
  2
*UDIM493
 70
    65
 10
0.0
 20
0.0
 30
0.0
  3
*UDIM493
  0
TEXT
  5
   237
  8
0
  6
CONTINUOUS
 62
     7
 10
-298.883066207548
 20
152.051093895386
 30
0.0
 40
2.99999997871263
  1
270
 50
90.0
 41
0.933333333333333
 72
     1
 11
-300.383066196909
 21
155.951093867711
 31
0.0
 73
     2
  0
LINE
  5
   238
  8
0
  6
CONTINUOUS
 62
     7
 10
-322.799814562812
 20
108.976114694035
 30
0.0
 11
-295.883066207552
 21
108.976114694035
 31
0.0
  0
LINE
  5
   239
  8
0
  6
CONTINUOUS
 62
     7
 10
-322.799803538192
 20
203.476070600151
 30
0.0
 11
-295.883066207552
 21
203.476070600151
 31
0.0
  0
LINE
  5
   23A
  8
0
  6
CONTINUOUS
 62
     7
 10
-297.883066207553
 20
108.976114694035
 30
0.0
 11
-297.883066207553
 21
203.476070600151
 31
0.0
  0
LINE
  5
   23B
  8
0
  6
CONTINUOUS
 62
     7
 10
-298.404010637504
 20
111.930537971242
 30
0.0
 11
-297.883066207553
 21
108.976114694035
 31
0.0
  0
LINE
  5
   23C
  8
0
  6
CONTINUOUS
 62
     7
 10
-297.883066207553
 20
108.976114694035
 30
0.0
 11
-297.362121777601
 21
111.930537971242
 31
0.0
  0
LINE
  5
   23D
  8
0
  6
CONTINUOUS
 62
     7
 10
-297.362121777601
 20
200.521647322944
 30
0.0
 11
-297.883066207553
 21
203.476070600151
 31
0.0
  0
LINE
  5
   23E
  8
0
  6
CONTINUOUS
 62
     7
 10
-297.883066207553
 20
203.476070600151
 30
0.0
 11
-298.404010637504
 21
200.521647322944
 31
0.0
  0
ENDBLK
  5
   23F
  8
0
  6
CONTINUOUS
 62
     7
  0
BLOCK
  5
   240
  8
0
  6
CONTINUOUS
 62
     7
  2
*UDIM494
 70
    65
 10
0.0
 20
0.0
 30
0.0
  3
*UDIM494
  0
TEXT
  5
   241
  8
0
  6
CONTINUOUS
 62
     7
 10
-306.059176925178
 20
171.782338612589
 30
0.0
 40
2.99999997871263
  1
133,25
 50
90.0
 41
0.933333333333333
 72
     1
 11
-307.559176914544
 21
179.882338555111
 31
0.0
 73
     2
  0
LINE
  5
   242
  8
0
  6
CONTINUOUS
 62
     7
 10
-306.734657034934
 20
156.838603317818
 30
0.0
 11
-303.059176925188
 21
156.838603317818
 31
0.0
  0
LINE
  5
   243
  8
0
  6
CONTINUOUS
 62
     7
 10
-322.799803538192
 20
203.476070600151
 30
0.0
 11
-303.059176925188
 21
203.476070600151
 31
0.0
  0
LINE
  5
   244
  8
0
  6
CONTINUOUS
 62
     7
 10
-305.059176925188
 20
156.838603317818
 30
0.0
 11
-305.059176925188
 21
203.476070600151
 31
0.0
  0
LINE
  5
   245
  8
0
  6
CONTINUOUS
 62
     7
 10
-305.58012135514
 20
159.793026595025
 30
0.0
 11
-305.059176925188
 21
156.838603317818
 31
0.0
  0
LINE
  5
   246
  8
0
  6
CONTINUOUS
 62
     7
 10
-305.059176925188
 20
156.838603317818
 30
0.0
 11
-304.538232495236
 21
159.793026595025
 31
0.0
  0
LINE
  5
   247
  8
0
  6
CONTINUOUS
 62
     7
 10
-304.538232495236
 20
200.521647322944
 30
0.0
 11
-305.059176925188
 21
203.476070600151
 31
0.0
  0
LINE
  5
   248
  8
0
  6
CONTINUOUS
 62
     7
 10
-305.059176925188
 20
203.476070600151
 30
0.0
 11
-305.58012135514
 21
200.521647322944
 31
0.0
  0
ENDBLK
  5
   249
  8
0
  6
CONTINUOUS
 62
     7
  0
BLOCK
  5
   24A
  8
0
  6
CONTINUOUS
 62
     7
  2
$1MOSTRA
 70
    64
 10
0.0
 20
0.0
 30
0.0
  3
$1MOSTRA
  0
LINE
  5
   24B
  8
0
  6
CONTINUOUS
 62
     2
 10
175.338317871094
 20
34.312744140625
 30
0.0
 11
210.838317871094
 21
34.312744140625
 31
0.0
  0
LINE
  5
   24C
  8
0
  6
CONTINUOUS
 62
     2
 10
175.338317871094
 20
49.312744140625
 30
0.0
 11
210.838317871094
 21
49.312744140625
 31
0.0
  0
LINE
  5
   24D
  8
0
  6
CONTINUOUS
 62
     2
 10
210.838317871094
 20
33.312744140625
 30
0.0
 11
210.838317871094
 21
50.312744140625
 31
0.0
  0
LINE
  5
   24E
  8
0
  6
CONTINUOUS
 62
     2
 10
175.338317871094
 20
34.312744140625
 30
0.0
 11
175.338317871094
 21
49.312744140625
 31
0.0
  0
LINE
  5
   24F
  8
0
  6
CONTINUOUS
 62
     2
 10
210.838317871094
 20
50.312744140625
 30
0.0
 11
210.838317871094
 21
148.306442260742
 31
0.0
  0
LINE
  5
   250
  8
0
  6
CONTINUOUS
 62
     2
 10
210.838317871094
 20
-10.187255859375
 30
0.0
 11
210.838317871094
 21
33.3127403259278
 31
0.0
  0
LINE
  5
   251
  8
0
  6
CONTINUOUS
 62
     2
 10
37.5883140563965
 20
-11.437255859375
 30
0.0
 11
209.588317871094
 21
-11.437255859375
 31
0.0
  0
LINE
  5
   252
  8
0
  6
CONTINUOUS
 62
     2
 10
36.3383140563965
 20
-10.187255859375
 30
0.0
 11
36.3383140563965
 21
148.306442260742
 31
0.0
  0
LINE
  5
   253
  8
0
  6
CONTINUOUS
 62
     2
 10
175.338317871094
 20
128.562744140625
 30
0.0
 11
175.338317871094
 21
129.562744140625
 31
0.0
  0
LINE
  5
   254
  8
0
  6
CONTINUOUS
 62
     2
 10
45.3383140563965
 20
128.562744140625
 30
0.0
 11
45.3383140563965
 21
129.562744140625
 31
0.0
  0
LINE
  5
   255
  8
0
  6
CONTINUOUS
 62
     2
 10
175.338317871094
 20
8.56274414062501
 30
0.0
 11
175.338317871094
 21
9.56274414062501
 31
0.0
  0
LINE
  5
   256
  8
0
  6
CONTINUOUS
 62
     2
 10
46.3383140563965
 20
8.562744140625
 30
0.0
 11
174.338314056396
 21
8.56274414062501
 31
0.0
  0
LINE
  5
   257
  8
0
  6
CONTINUOUS
 62
     2
 10
45.3383140563965
 20
8.562744140625
 30
0.0
 11
45.3383140563965
 21
9.562744140625
 31
0.0
  0
LINE
  5
   258
  8
0
  6
CONTINUOUS
 62
     2
 10
174.338317871094
 20
-11.437255859375
 30
0.0
 11
174.338317871094
 21
8.56274414062501
 31
0.0
  0
LINE
  5
   259
  8
0
  6
CONTINUOUS
 62
     2
 10
175.338317871094
 20
129.562744140625
 30
0.0
 11
175.338317871094
 21
149.562744140625
 31
0.0
  0
LINE
  5
   25A
  8
0
  6
CONTINUOUS
 62
     2
 10
175.338317871094
 20
9.56274414062501
 30
0.0
 11
175.338317871094
 21
33.312744140625
 31
0.0
  0
LINE
  5
   25B
  8
0
  6
CONTINUOUS
 62
     2
 10
175.338317871094
 20
50.312744140625
 30
0.0
 11
175.338317871094
 21
128.562744140625
 31
0.0
  0
LINE
  5
   25C
  8
0
  6
CONTINUOUS
 62
     2
 10
175.338317871094
 20
-11.437255859375
 30
0.0
 11
175.338317871094
 21
8.56274414062501
 31
0.0
  0
LINE
  5
   25D
  8
0
  6
CONTINUOUS
 62
     2
 10
45.3383140563965
 20
129.562744140625
 30
0.0
 11
45.3383140563965
 21
149.562744140625
 31
0.0
  0
LINE
  5
   25E
  8
0
  6
CONTINUOUS
 62
     2
 10
45.3383140563965
 20
9.562744140625
 30
0.0
 11
45.3383140563965
 21
128.562744140625
 31
0.0
  0
LINE
  5
   25F
  8
0
  6
CONTINUOUS
 62
     2
 10
45.3383140563965
 20
-11.437255859375
 30
0.0
 11
45.3383140563965
 21
8.562744140625
 31
0.0
  0
LINE
  5
   260
  8
0
  6
CONTINUOUS
 62
     2
 10
46.3383140563965
 20
-11.437255859375
 30
0.0
 11
46.3383140563965
 21
8.562744140625
 31
0.0
  0
LINE
  5
   261
  8
0
  6
CONTINUOUS
 62
     2
 10
175.338317871094
 20
33.312744140625
 30
0.0
 11
210.838317871094
 21
33.312744140625
 31
0.0
  0
LINE
  5
   262
  8
0
  6
CONTINUOUS
 62
     2
 10
175.338317871094
 20
50.312744140625
 30
0.0
 11
210.838317871094
 21
50.312744140625
 31
0.0
  0
LINE
  5
   263
  8
0
  6
CONTINUOUS
 62
     2
 10
175.388320922852
 20
49.312744140625
 30
0.0
 11
175.388320922852
 21
50.312744140625
 31
0.0
  0
LINE
  5
   264
  8
0
  6
CONTINUOUS
 62
     2
 10
175.388320922852
 20
33.312744140625
 30
0.0
 11
175.388320922852
 21
34.312744140625
 31
0.0
  0
LINE
  5
   265
  8
0
  6
CONTINUOUS
 62
     2
 10
46.3383140563965
 20
128.562744140625
 30
0.0
 11
174.338314056396
 21
128.562744140625
 31
0.0
  0
LINE
  5
   266
  8
0
  6
CONTINUOUS
 62
     2
 10
46.3383140563965
 20
9.562744140625
 30
0.0
 11
174.338314056396
 21
9.56274414062501
 31
0.0
  0
LINE
  5
   267
  8
0
  6
CONTINUOUS
 62
     2
 10
174.338317871094
 20
9.56274414062501
 30
0.0
 11
174.338317871094
 21
128.562744140625
 31
0.0
  0
LINE
  5
   268
  8
0
  6
CONTINUOUS
 62
     2
 10
46.3383140563965
 20
9.562744140625
 30
0.0
 11
46.3383140563965
 21
128.562744140625
 31
0.0
  0
LINE
  5
   269
  8
0
  6
CONTINUOUS
 62
     2
 10
167.338315963745
 20
121.562743016692
 30
0.0
 11
174.338312295455
 21
128.562739348402
 31
0.0
  0
LINE
  5
   26A
  8
0
  6
CONTINUOUS
 62
     2
 10
46.3383156391412
 20
128.562746004959
 30
0.0
 11
62.3383159637451
 21
121.033336629486
 31
0.0
  0
LINE
  5
   26B
  8
0
  6
CONTINUOUS
 62
     2
 10
167.338315963745
 20
16.5627619426901
 30
0.0
 11
174.338335117812
 21
9.56273924827786
 31
0.0
  0
LINE
  5
   26C
  8
0
  6
CONTINUOUS
 62
     2
 10
46.3383186567184
 20
9.56274576222224
 30
0.0
 11
62.3383159637451
 21
17.092157375641
 31
0.0
  0
LINE
  5
   26D
  8
0
  6
CONTINUOUS
 62
     2
 10
174.338256835938
 20
129.556442260742
 30
0.0
 11
174.338256835938
 21
149.556442260742
 31
0.0
  0
LINE
  5
   26E
  8
0
  6
CONTINUOUS
 62
     2
 10
45.3383140563965
 20
129.556442260742
 30
0.0
 11
175.338317871094
 21
129.556442260742
 31
0.0
  0
LINE
  5
   26F
  8
0
  6
CONTINUOUS
 62
     2
 10
37.5883140563965
 20
149.556442260742
 30
0.0
 11
45.3383140563965
 21
149.556442260742
 31
0.0
  0
LINE
  5
   270
  8
0
  6
CONTINUOUS
 62
     2
 10
115.343585020102
 20
149.556442260742
 30
0.0
 11
175.338317871094
 21
149.556442260742
 31
0.0
  0
ARC
  5
   271
  8
0
  6
CONTINUOUS
 62
     2
 10
110.338285446167
 20
153.703627621259
 30
0.0
 40
6.50016693934245
 50
219.643748317915
 51
320.356251682085
  0
LINE
  5
   272
  8
0
  6
CONTINUOUS
 62
     2
 10
105.332985872232
 20
149.556442260742
 30
0.0
 11
115.343585020102
 21
149.556442260742
 31
0.0
  0
LINE
  5
   273
  8
0
  6
CONTINUOUS
 62
     2
 10
46.3383140563965
 20
129.562744140625
 30
0.0
 11
46.3383140563965
 21
149.562744140625
 31
0.0
  0
LINE
  5
   274
  8
0
  6
CONTINUOUS
 62
     2
 10
45.3383140563965
 20
149.556442260742
 30
0.0
 11
105.332985872232
 21
149.556442260742
 31
0.0
  0
LINE
  5
   275
  8
0
  6
CONTINUOUS
 62
     2
 10
175.338317871094
 20
149.556442260742
 30
0.0
 11
209.588317871094
 21
149.556442260742
 31
0.0
  0
POINT
  5
   276
  8
0
  6
CONTINUOUS
 62
     2
 10
114.838315963745
 20
69.062744140625
 30
0.0
  0
ARC
  5
   277
  8
0
  6
CONTINUOUS
 62
     2
 10
37.5883140563965
 20
148.306442260742
 30
0.0
 40
1.25
 50
90.0
 51
180.0
  0
ARC
  5
   278
  8
0
  6
CONTINUOUS
 62
     2
 10
37.5883140563965
 20
-10.187255859375
 30
0.0
 40
1.25
 50
180.0
 51
270.0
  0
ARC
  5
   279
  8
0
  6
CONTINUOUS
 62
     2
 10
209.588317871094
 20
-10.187255859375
 30
0.0
 40
1.25
 50
270.0
 51
360.0
  0
ARC
  5
   27A
  8
0
  6
CONTINUOUS
 62
     2
 10
209.588317871094
 20
148.306442260742
 30
0.0
 40
1.25
 50
0.0
 51
90.0
  0
ENDBLK
  5
   27B
  8
0
  6
CONTINUOUS
 62
     7
  0
BLOCK
  5
   27C
  8
0
  6
CONTINUOUS
 62
     7
  2
*UDIM495
 70
    65
 10
0.0
 20
0.0
 30
0.0
  3
*UDIM495
  0
TEXT
  5
   27D
  8
0
  6
CONTINUOUS
 62
     7
 10
-336.287322702922
 20
92.3357895681054
 30
0.0
 40
2.99999997871263
  1
101,5
 50
360.0
 41
0.933333333333333
 72
     1
 11
-329.587322750471
 21
93.8357895574953
 31
0.0
 73
     2
  0
LINE
  5
   27E
  8
0
  6
CONTINUOUS
 62
     7
 10
-311.549813414812
 20
151.726084695834
 30
0.0
 11
-311.549813414812
 21
89.335789568139
 31
0.0
  0
LINE
  5
   27F
  8
0
  6
CONTINUOUS
 62
     7
 10
-347.074827476137
 20
95.8465220590502
 30
0.0
 11
-347.074827476137
 21
89.335789568139
 31
0.0
  0
LINE
  5
   280
  8
0
  6
CONTINUOUS
 62
     7
 10
-311.549813414812
 20
91.335789568139
 30
0.0
 11
-347.074827476137
 21
91.335789568139
 31
0.0
  0
LINE
  5
   281
  8
0
  6
CONTINUOUS
 62
     7
 10
-314.504236692019
 20
90.8148451381874
 30
0.0
 11
-311.549813414812
 21
91.335789568139
 31
0.0
  0
LINE
  5
   282
  8
0
  6
CONTINUOUS
 62
     7
 10
-311.549813414812
 20
91.335789568139
 30
0.0
 11
-314.504236692019
 21
91.8567339980907
 31
0.0
  0
LINE
  5
   283
  8
0
  6
CONTINUOUS
 62
     7
 10
-344.12040419893
 20
91.8567339980907
 30
0.0
 11
-347.074827476137
 21
91.335789568139
 31
0.0
  0
LINE
  5
   284
  8
0
  6
CONTINUOUS
 62
     7
 10
-347.074827476137
 20
91.335789568139
 30
0.0
 11
-344.12040419893
 21
90.8148451381874
 31
0.0
  0
ENDBLK
  5
   285
  8
0
  6
CONTINUOUS
 62
     7
  0
BLOCK
  5
   286
  8
0
  6
CONTINUOUS
 62
     7
  2
*UDIM496
 70
    65
 10
0.0
 20
0.0
 30
0.0
  3
*UDIM496
  0
TEXT
  5
   287
  8
0
  6
CONTINUOUS
 62
     7
 10
-393.971585401188
 20
152.662501737151
 30
0.0
 40
2.99999997871263
  1
161
 50
90.0
 41
0.933333333333333
 72
     1
 11
-395.471585390549
 21
156.562501709475
 31
0.0
 73
     2
  0
LINE
  5
   288
  8
0
  6
CONTINUOUS
 62
     7
 10
-375.112327683263
 20
128.663603797635
 30
0.0
 11
-394.971585401193
 21
128.663603797635
 31
0.0
  0
LINE
  5
   289
  8
0
  6
CONTINUOUS
 62
     7
 10
-326.899827169173
 20
185.011397180079
 30
0.0
 11
-394.971585401193
 21
185.011397180079
 31
0.0
  0
LINE
  5
   28A
  8
0
  6
CONTINUOUS
 62
     7
 10
-392.971585401193
 20
128.663603797635
 30
0.0
 11
-392.971585401193
 21
185.011397180079
 31
0.0
  0
LINE
  5
   28B
  8
0
  6
CONTINUOUS
 62
     7
 10
-393.492529831145
 20
131.618027074842
 30
0.0
 11
-392.971585401193
 21
128.663603797635
 31
0.0
  0
LINE
  5
   28C
  8
0
  6
CONTINUOUS
 62
     7
 10
-392.971585401193
 20
128.663603797635
 30
0.0
 11
-392.450640971241
 21
131.618027074842
 31
0.0
  0
LINE
  5
   28D
  8
0
  6
CONTINUOUS
 62
     7
 10
-392.450640971241
 20
182.056973902872
 30
0.0
 11
-392.971585401193
 21
185.011397180079
 31
0.0
  0
LINE
  5
   28E
  8
0
  6
CONTINUOUS
 62
     7
 10
-392.971585401193
 20
185.011397180079
 30
0.0
 11
-393.492529831145
 21
182.056973902872
 31
0.0
  0
ENDBLK
  5
   28F
  8
0
  6
CONTINUOUS
 62
     7
  0
BLOCK
  5
   290
  8
0
  6
CONTINUOUS
 62
     7
  2
*UDIM497
 70
    65
 10
0.0
 20
0.0
 30
0.0
  3
*UDIM497
  0
TEXT
  5
   291
  8
0
  6
CONTINUOUS
 62
     7
 10
-333.049836516593
 20
98.3158756021505
 30
0.0
 40
2.99999997871263
  1
96
 50
360.0
 41
0.933333333333333
 72
     1
 11
-330.54983653434
 21
99.8158755915193
 31
0.0
 73
     2
  0
LINE
  5
   292
  8
0
  6
CONTINUOUS
 62
     7
 10
-313.474827380769
 20
128.101103790185
 30
0.0
 11
-313.474827380769
 21
95.315875602163
 31
0.0
  0
LINE
  5
   293
  8
0
  6
CONTINUOUS
 62
     7
 10
-313.474827380769
 20
97.315875602163
 30
0.0
 11
-347.074827476137
 21
97.315875602163
 31
0.0
  0
LINE
  5
   294
  8
0
  6
CONTINUOUS
 62
     7
 10
-316.429250657976
 20
96.7949311722114
 30
0.0
 11
-313.474827380769
 21
97.315875602163
 31
0.0
  0
LINE
  5
   295
  8
0
  6
CONTINUOUS
 62
     7
 10
-313.474827380769
 20
97.315875602163
 30
0.0
 11
-316.429250657976
 21
97.8368200321147
 31
0.0
  0
LINE
  5
   296
  8
0
  6
CONTINUOUS
 62
     7
 10
-344.12040419893
 20
97.8368200321147
 30
0.0
 11
-347.074827476137
 21
97.315875602163
 31
0.0
  0
LINE
  5
   297
  8
0
  6
CONTINUOUS
 62
     7
 10
-347.074827476137
 20
97.315875602163
 30
0.0
 11
-344.12040419893
 21
96.7949311722114
 31
0.0
  0
ENDBLK
  5
   298
  8
0
  6
CONTINUOUS
 62
     7
  0
BLOCK
  5
   299
  8
0
  6
CONTINUOUS
 62
     7
  2
*UDIM498
 70
    65
 10
0.0
 20
0.0
 30
0.0
  3
*UDIM498
  0
TEXT
  5
   29A
  8
0
  6
CONTINUOUS
 62
     7
 10
-366.387337457849
 20
98.3158756021364
 30
0.0
 40
2.99999997871263
  1
78,5
 50
360.0
 41
0.933333333333333
 72
     1
 11
-361.087337495464
 21
99.8158755915193
 31
0.0
 73
     2
  0
LINE
  5
   29B
  8
0
  6
CONTINUOUS
 62
     7
 10
-374.549827675812
 20
128.101103790185
 30
0.0
 11
-374.549827675812
 21
95.315875602163
 31
0.0
  0
LINE
  5
   29C
  8
0
  6
CONTINUOUS
 62
     7
 10
-347.074827476137
 20
97.315875602163
 30
0.0
 11
-374.549827675812
 21
97.315875602163
 31
0.0
  0
LINE
  5
   29D
  8
0
  6
CONTINUOUS
 62
     7
 10
-350.029250753344
 20
96.7949311722114
 30
0.0
 11
-347.074827476137
 21
97.315875602163
 31
0.0
  0
LINE
  5
   29E
  8
0
  6
CONTINUOUS
 62
     7
 10
-347.074827476137
 20
97.315875602163
 30
0.0
 11
-350.029250753344
 21
97.8368200321147
 31
0.0
  0
LINE
  5
   29F
  8
0
  6
CONTINUOUS
 62
     7
 10
-371.595404398605
 20
97.8368200321147
 30
0.0
 11
-374.549827675812
 21
97.315875602163
 31
0.0
  0
LINE
  5
   2A0
  8
0
  6
CONTINUOUS
 62
     7
 10
-374.549827675812
 20
97.315875602163
 30
0.0
 11
-371.595404398605
 21
96.7949311722114
 31
0.0
  0
ENDBLK
  5
   2A1
  8
0
  6
CONTINUOUS
 62
     7
  0
BLOCK
  5
   2A2
  8
0
  6
CONTINUOUS
 62
     7
  2
*UDIM499
 70
    65
 10
0.0
 20
0.0
 30
0.0
  3
*UDIM499
  0
TEXT
  5
   2A3
  8
0
  6
CONTINUOUS
 62
     7
 10
-400.032797456164
 20
170.8198386374
 30
0.0
 40
2.99999997871263
  1
127,75
 50
90.0
 41
0.933333333333333
 72
     1
 11
-401.532797445531
 21
178.919838579923
 31
0.0
 73
     2
  0
LINE
  5
   2A4
  8
0
  6
CONTINUOUS
 62
     7
 10
-390.248335981819
 20
156.838603317818
 30
0.0
 11
-401.032797456174
 21
156.838603317818
 31
0.0
  0
LINE
  5
   2A5
  8
0
  6
CONTINUOUS
 62
     7
 10
-387.362310306413
 20
201.551074571759
 30
0.0
 11
-401.032797456174
 21
201.551074571759
 31
0.0
  0
LINE
  5
   2A6
  8
0
  6
CONTINUOUS
 62
     7
 10
-399.032797456174
 20
156.838603317818
 30
0.0
 11
-399.032797456174
 21
201.551074571759
 31
0.0
  0
LINE
  5
   2A7
  8
0
  6
CONTINUOUS
 62
     7
 10
-399.553741886126
 20
159.793026595025
 30
0.0
 11
-399.032797456174
 21
156.838603317818
 31
0.0
  0
LINE
  5
   2A8
  8
0
  6
CONTINUOUS
 62
     7
 10
-399.032797456174
 20
156.838603317818
 30
0.0
 11
-398.511853026223
 21
159.793026595025
 31
0.0
  0
LINE
  5
   2A9
  8
0
  6
CONTINUOUS
 62
     7
 10
-398.511853026223
 20
198.596651294552
 30
0.0
 11
-399.032797456174
 21
201.551074571759
 31
0.0
  0
LINE
  5
   2AA
  8
0
  6
CONTINUOUS
 62
     7
 10
-399.032797456174
 20
201.551074571759
 30
0.0
 11
-399.553741886126
 21
198.596651294552
 31
0.0
  0
ENDBLK
  5
   2AB
  8
0
  6
CONTINUOUS
 62
     7
  0
BLOCK
  5
   2AC
  8
0
  6
CONTINUOUS
 62
     7
  2
*UDIM500
 70
    65
 10
0.0
 20
0.0
 30
0.0
  3
*UDIM500
  0
TEXT
  5
   2AD
  8
0
  6
CONTINUOUS
 62
     7
 10
-351.250397731474
 20
210.591992159331
 30
0.0
 40
2.99999997871263
  1
105
 50
360.0
 41
0.933333333333333
 72
     1
 11
-347.350397759155
 21
212.091992148707
 31
0.0
 73
     2
  0
LINE
  5
   2AE
  8
0
  6
CONTINUOUS
 62
     7
 10
-328.700384063711
 20
176.038603007873
 30
0.0
 11
-328.700384063711
 21
211.59199215935
 31
0.0
  0
LINE
  5
   2AF
  8
0
  6
CONTINUOUS
 62
     7
 10
-365.450403465023
 20
172.013583049255
 30
0.0
 11
-365.450403465023
 21
211.59199215935
 31
0.0
  0
LINE
  5
   2B0
  8
0
  6
CONTINUOUS
 62
     7
 10
-328.700384063711
 20
209.59199215935
 30
0.0
 11
-365.450403465023
 21
209.59199215935
 31
0.0
  0
LINE
  5
   2B1
  8
0
  6
CONTINUOUS
 62
     7
 10
-331.654807340918
 20
209.071047729399
 30
0.0
 11
-328.700384063711
 21
209.59199215935
 31
0.0
  0
LINE
  5
   2B2
  8
0
  6
CONTINUOUS
 62
     7
 10
-328.700384063711
 20
209.59199215935
 30
0.0
 11
-331.654807340918
 21
210.112936589302
 31
0.0
  0
LINE
  5
   2B3
  8
0
  6
CONTINUOUS
 62
     7
 10
-362.495980187816
 20
210.112936589302
 30
0.0
 11
-365.450403465023
 21
209.59199215935
 31
0.0
  0
LINE
  5
   2B4
  8
0
  6
CONTINUOUS
 62
     7
 10
-365.450403465023
 20
209.59199215935
 30
0.0
 11
-362.495980187816
 21
209.071047729399
 31
0.0
  0
ENDBLK
  5
   2B5
  8
0
  6
CONTINUOUS
 62
     7
  0
BLOCK
  5
   2B6
  8
0
  6
CONTINUOUS
 62
     7
  2
*UDIM501
 70
    65
 10
0.0
 20
0.0
 30
0.0
  3
*UDIM501
  0
TEXT
  5
   2B7
  8
0
  6
CONTINUOUS
 62
     7
 10
-406.083221547467
 20
152.051093895386
 30
0.0
 40
2.99999997871263
  1
259
 50
90.0
 41
0.933333333333333
 72
     1
 11
-407.583221536828
 21
155.951093867711
 31
0.0
 73
     2
  0
LINE
  5
   2B8
  8
0
  6
CONTINUOUS
 62
     7
 10
-387.362326670136
 20
110.901110722427
 30
0.0
 11
-407.083221547472
 21
110.901110722427
 31
0.0
  0
LINE
  5
   2B9
  8
0
  6
CONTINUOUS
 62
     7
 10
-387.362310306413
 20
201.551074571759
 30
0.0
 11
-407.083221547472
 21
201.551074571759
 31
0.0
  0
LINE
  5
   2BA
  8
0
  6
CONTINUOUS
 62
     7
 10
-405.083221547472
 20
110.901110722427
 30
0.0
 11
-405.083221547472
 21
201.551074571759
 31
0.0
  0
LINE
  5
   2BB
  8
0
  6
CONTINUOUS
 62
     7
 10
-405.604165977424
 20
113.855533999634
 30
0.0
 11
-405.083221547472
 21
110.901110722427
 31
0.0
  0
LINE
  5
   2BC
  8
0
  6
CONTINUOUS
 62
     7
 10
-405.083221547472
 20
110.901110722427
 30
0.0
 11
-404.56227711752
 21
113.855533999634
 31
0.0
  0
LINE
  5
   2BD
  8
0
  6
CONTINUOUS
 62
     7
 10
-404.56227711752
 20
198.596651294552
 30
0.0
 11
-405.083221547472
 21
201.551074571759
 31
0.0
  0
LINE
  5
   2BE
  8
0
  6
CONTINUOUS
 62
     7
 10
-405.083221547472
 20
201.551074571759
 30
0.0
 11
-405.604165977424
 21
198.596651294552
 31
0.0
  0
ENDBLK
  5
   2BF
  8
0
  6
CONTINUOUS
 62
     7
  0
BLOCK
  5
   2C0
  8
0
  6
CONTINUOUS
 62
     7
  2
*UDIM502
 70
    65
 10
0.0
 20
0.0
 30
0.0
  3
*UDIM502
  0
TEXT
  5
   2C1
  8
0
  6
CONTINUOUS
 62
     7
 10
-337.046050753107
 20
104.146458884509
 30
0.0
 40
2.99999997871263
  1
70
 50
360.0
 41
0.933333333333333
 72
     1
 11
-334.546050770854
 21
105.646458873878
 31
0.0
 73
     2
  0
LINE
  5
   2C2
  8
0
  6
CONTINUOUS
 62
     7
 10
-322.574816731811
 20
190.751080058366
 30
0.0
 11
-322.574816731811
 21
101.146458884522
 31
0.0
  0
LINE
  5
   2C3
  8
0
  6
CONTINUOUS
 62
     7
 10
-347.074827476137
 20
166.488982847173
 30
0.0
 11
-347.074827476137
 21
101.146458884522
 31
0.0
  0
LINE
  5
   2C4
  8
0
  6
CONTINUOUS
 62
     7
 10
-322.574816731811
 20
103.146458884522
 30
0.0
 11
-347.074827476137
 21
103.146458884522
 31
0.0
  0
LINE
  5
   2C5
  8
0
  6
CONTINUOUS
 62
     7
 10
-325.529240009018
 20
102.62551445457
 30
0.0
 11
-322.574816731811
 21
103.146458884522
 31
0.0
  0
LINE
  5
   2C6
  8
0
  6
CONTINUOUS
 62
     7
 10
-322.574816731811
 20
103.146458884522
 30
0.0
 11
-325.529240009018
 21
103.667403314473
 31
0.0
  0
LINE
  5
   2C7
  8
0
  6
CONTINUOUS
 62
     7
 10
-344.12040419893
 20
103.667403314473
 30
0.0
 11
-347.074827476137
 21
103.146458884522
 31
0.0
  0
LINE
  5
   2C8
  8
0
  6
CONTINUOUS
 62
     7
 10
-347.074827476137
 20
103.146458884522
 30
0.0
 11
-344.12040419893
 21
102.62551445457
 31
0.0
  0
ENDBLK
  5
   2C9
  8
0
  6
CONTINUOUS
 62
     7
  0
BLOCK
  5
   2CA
  8
0
  6
CONTINUOUS
 62
     7
  2
*UDIM503
 70
    65
 10
0.0
 20
0.0
 30
0.0
  3
*UDIM503
  0
TEXT
  5
   2CB
  8
0
  6
CONTINUOUS
 62
     7
 10
-363.106067660563
 20
216.721574269279
 30
0.0
 40
2.99999997871263
  1
183,75
 50
360.0
 41
0.933333333333333
 72
     1
 11
-355.006067718046
 21
218.221574258676
 31
0.0
 73
     2
  0
LINE
  5
   2CC
  8
0
  6
CONTINUOUS
 62
     7
 10
-322.574816731811
 20
202.026074580699
 30
0.0
 11
-322.574816731811
 21
217.72157426932
 31
0.0
  0
LINE
  5
   2CD
  8
0
  6
CONTINUOUS
 62
     7
 10
-386.887310297472
 20
202.026074580699
 30
0.0
 11
-386.887310297472
 21
217.72157426932
 31
0.0
  0
LINE
  5
   2CE
  8
0
  6
CONTINUOUS
 62
     7
 10
-322.574816731811
 20
215.72157426932
 30
0.0
 11
-386.887310297472
 21
215.72157426932
 31
0.0
  0
LINE
  5
   2CF
  8
0
  6
CONTINUOUS
 62
     7
 10
-325.529240009018
 20
215.200629839368
 30
0.0
 11
-322.574816731811
 21
215.72157426932
 31
0.0
  0
LINE
  5
   2D0
  8
0
  6
CONTINUOUS
 62
     7
 10
-322.574816731811
 20
215.72157426932
 30
0.0
 11
-325.529240009018
 21
216.242518699271
 31
0.0
  0
LINE
  5
   2D1
  8
0
  6
CONTINUOUS
 62
     7
 10
-383.932887020265
 20
216.242518699271
 30
0.0
 11
-386.887310297472
 21
215.72157426932
 31
0.0
  0
LINE
  5
   2D2
  8
0
  6
CONTINUOUS
 62
     7
 10
-386.887310297472
 20
215.72157426932
 30
0.0
 11
-383.932887020265
 21
215.200629839368
 31
0.0
  0
ENDBLK
  5
   2D3
  8
0
  6
CONTINUOUS
 62
     7
  0
BLOCK
  5
   2D4
  8
0
  6
CONTINUOUS
 62
     7
  2
*UDIM504
 70
    65
 10
0.0
 20
0.0
 30
0.0
  3
*UDIM504
  0
TEXT
  5
   2D5
  8
0
  6
CONTINUOUS
 62
     7
 10
-383.718555354093
 20
87.7548904286568
 30
0.0
 40
2.99999997871263
  1
8
 50
360.0
 41
0.933333333333333
 72
     1
 11
-382.618555361906
 21
89.2548904180187
 31
0.0
 73
     2
  0
LINE
  5
   2D6
  8
0
  6
CONTINUOUS
 62
     7
 10
-376.299825735092
 20
81.5309350937605
 30
0.0
 11
-376.299825735092
 21
87.7548904286623
 31
0.0
  0
LINE
  5
   2D7
  8
0
  6
CONTINUOUS
 62
     7
 10
-379.099825687409
 20
81.5309350937605
 30
0.0
 11
-379.099825687409
 21
87.7548904286623
 31
0.0
  0
LINE
  5
   2D8
  8
0
  6
CONTINUOUS
 62
     7
 10
-371.299825735092
 20
85.7548904286623
 30
0.0
 11
-384.099825687409
 21
85.7548904286623
 31
0.0
  0
LINE
  5
   2D9
  8
0
  6
CONTINUOUS
 62
     7
 10
-373.402048261882
 20
86.5313475850809
 30
0.0
 11
-376.299825735092
 21
85.7548904286623
 31
0.0
  0
LINE
  5
   2DA
  8
0
  6
CONTINUOUS
 62
     7
 10
-376.299825735092
 20
85.7548904286623
 30
0.0
 11
-373.402048261882
 21
84.9784332722438
 31
0.0
  0
LINE
  5
   2DB
  8
0
  6
CONTINUOUS
 62
     7
 10
-381.997603160619
 20
84.9784332722438
 30
0.0
 11
-379.099825687409
 21
85.7548904286623
 31
0.0
  0
LINE
  5
   2DC
  8
0
  6
CONTINUOUS
 62
     7
 10
-379.099825687409
 20
85.7548904286623
 30
0.0
 11
-381.997603160619
 21
86.5313475850809
 31
0.0
  0
ENDBLK
  5
   2DD
  8
0
  6
CONTINUOUS
 62
     7
  0
BLOCK
  5
   2DE
  8
0
  6
CONTINUOUS
 62
     7
  2
*UDIM505
 70
    65
 10
0.0
 20
0.0
 30
0.0
  3
*UDIM505
  0
TEXT
  5
   2DF
  8
0
  6
CONTINUOUS
 62
     7
 10
-346.226478733356
 20
31.5267660997117
 30
0.0
 40
2.99999997871263
  1
43,75
 50
360.0
 41
0.933333333333333
 72
     1
 11
-339.526478780906
 21
33.0267660891017
 31
0.0
 73
     2
  0
LINE
  5
   2E0
  8
0
  6
CONTINUOUS
 62
     7
 10
-331.762326493561
 20
35.8075719692922
 30
0.0
 11
-331.762326493561
 21
28.5267660997454
 31
0.0
  0
LINE
  5
   2E1
  8
0
  6
CONTINUOUS
 62
     7
 10
-347.074826232791
 20
35.7588540198722
 30
0.0
 11
-347.074826232791
 21
28.5267660997454
 31
0.0
  0
LINE
  5
   2E2
  8
0
  6
CONTINUOUS
 62
     7
 10
-331.762326493561
 20
30.5267660997454
 30
0.0
 11
-347.074826232791
 21
30.5267660997454
 31
0.0
  0
LINE
  5
   2E3
  8
0
  6
CONTINUOUS
 62
     7
 10
-328.807903216355
 20
31.047710529697
 30
0.0
 11
-331.762326493561
 21
30.5267660997454
 31
0.0
  0
LINE
  5
   2E4
  8
0
  6
CONTINUOUS
 62
     7
 10
-331.762326493561
 20
30.5267660997454
 30
0.0
 11
-328.807903216355
 21
30.0058216697937
 31
0.0
  0
LINE
  5
   2E5
  8
0
  6
CONTINUOUS
 62
     7
 10
-350.029249509998
 20
30.0058216697937
 30
0.0
 11
-347.074826232791
 21
30.5267660997454
 31
0.0
  0
LINE
  5
   2E6
  8
0
  6
CONTINUOUS
 62
     7
 10
-347.074826232791
 20
30.5267660997454
 30
0.0
 11
-350.029249509998
 21
31.047710529697
 31
0.0
  0
ENDBLK
  5
   2E7
  8
0
  6
CONTINUOUS
 62
     7
  0
BLOCK
  5
   2E8
  8
0
  6
CONTINUOUS
 62
     7
  2
*UDIM506
 70
    65
 10
0.0
 20
0.0
 30
0.0
  3
*UDIM506
  0
TEXT
  5
   2E9
  8
0
  6
CONTINUOUS
 62
     7
 10
-361.611450090004
 20
31.5267660997117
 30
0.0
 40
2.99999997871263
  1
43,75
 50
360.0
 41
0.933333333333333
 72
     1
 11
-354.911450137554
 21
33.0267660891017
 31
0.0
 73
     2
  0
LINE
  5
   2EA
  8
0
  6
CONTINUOUS
 62
     7
 10
-362.387325972021
 20
35.8075719692922
 30
0.0
 11
-362.387325972021
 21
28.5267660997454
 31
0.0
  0
LINE
  5
   2EB
  8
0
  6
CONTINUOUS
 62
     7
 10
-347.074826232791
 20
30.5267660997454
 30
0.0
 11
-362.387325972021
 21
30.5267660997454
 31
0.0
  0
LINE
  5
   2EC
  8
0
  6
CONTINUOUS
 62
     7
 10
-344.120402955584
 20
31.047710529697
 30
0.0
 11
-347.074826232791
 21
30.5267660997454
 31
0.0
  0
LINE
  5
   2ED
  8
0
  6
CONTINUOUS
 62
     7
 10
-347.074826232791
 20
30.5267660997454
 30
0.0
 11
-344.120402955584
 21
30.0058216697937
 31
0.0
  0
LINE
  5
   2EE
  8
0
  6
CONTINUOUS
 62
     7
 10
-365.341749249228
 20
30.0058216697937
 30
0.0
 11
-362.387325972021
 21
30.5267660997454
 31
0.0
  0
LINE
  5
   2EF
  8
0
  6
CONTINUOUS
 62
     7
 10
-362.387325972021
 20
30.5267660997454
 30
0.0
 11
-365.341749249228
 21
31.047710529697
 31
0.0
  0
ENDBLK
  5
   2F0
  8
0
  6
CONTINUOUS
 62
     7
  0
BLOCK
  5
   2F1
  8
0
  6
CONTINUOUS
 62
     7
  2
*UDIM507
 70
    65
 10
0.0
 20
0.0
 30
0.0
  3
*UDIM507
  0
TEXT
  5
   2F2
  8
0
  6
CONTINUOUS
 62
     7
 10
-377.187539302284
 20
31.5267660997117
 30
0.0
 40
2.99999997871263
  1
43,75
 50
360.0
 41
0.933333333333333
 72
     1
 11
-370.487539349833
 21
33.0267660891017
 31
0.0
 73
     2
  0
LINE
  5
   2F3
  8
0
  6
CONTINUOUS
 62
     7
 10
-377.69982571125
 20
35.7588540198722
 30
0.0
 11
-377.69982571125
 21
28.5267660997454
 31
0.0
  0
LINE
  5
   2F4
  8
0
  6
CONTINUOUS
 62
     7
 10
-362.387325972021
 20
30.5267660997454
 30
0.0
 11
-377.69982571125
 21
30.5267660997454
 31
0.0
  0
LINE
  5
   2F5
  8
0
  6
CONTINUOUS
 62
     7
 10
-359.432902694814
 20
31.047710529697
 30
0.0
 11
-362.387325972021
 21
30.5267660997454
 31
0.0
  0
LINE
  5
   2F6
  8
0
  6
CONTINUOUS
 62
     7
 10
-362.387325972021
 20
30.5267660997454
 30
0.0
 11
-359.432902694814
 21
30.0058216697937
 31
0.0
  0
LINE
  5
   2F7
  8
0
  6
CONTINUOUS
 62
     7
 10
-380.654248988457
 20
30.0058216697937
 30
0.0
 11
-377.69982571125
 21
30.5267660997454
 31
0.0
  0
LINE
  5
   2F8
  8
0
  6
CONTINUOUS
 62
     7
 10
-377.69982571125
 20
30.5267660997454
 30
0.0
 11
-380.654248988457
 21
31.047710529697
 31
0.0
  0
ENDBLK
  5
   2F9
  8
0
  6
CONTINUOUS
 62
     7
  0
ENDSEC
  0
SECTION
  2
ENTITIES
  0
LINE
  5
   2FA
  8
0
  6
DASHDOT
 62
     7
 10
-347.074829101563
 20
-69.262315174265
 30
0.0
 11
-347.074829101563
 21
18.625818599694
 31
0.0
  0
LINE
  5
   2FB
  8
0
  6
CONTINUOUS
 62
     7
 10
-379.012329101563
 20
-65.6897888183594
 30
0.0
 11
-379.012329101563
 21
15.7296080321079
 31
0.0
  0
LINE
  5
   2FC
  8
0
  6
CONTINUOUS
 62
     7
 10
-326.387329101563
 20
-65.6897888183594
 30
0.0
 11
-326.387329101563
 21
15.7296080321079
 31
0.0
  0
LINE
  5
   2FD
  8
0
  6
CONTINUOUS
 62
     7
 10
-380.864273413477
 20
-65.6897888183594
 30
0.0
 11
-323.208052617216
 21
-65.6897888183594
 31
0.0
  0
LINE
  5
   2FE
  8
0
  6
DASHDOT
 62
     7
 10
-364.446041910518
 20
-7.06478881835938
 30
0.0
 11
-329.381849054845
 21
-7.06478881835938
 31
0.0
  0
LINE
  5
   2FF
  8
0
  6
DASHDOT
 62
     7
 10
-364.497813959004
 20
-40.8147888183594
 30
0.0
 11
-329.381849054845
 21
-40.8147888183594
 31
0.0
  0
LINE
  5
   300
  8
0
  6
DASHDOT
 62
     7
 10
-372.699829101563
 20
-44.7754842815427
 30
0.0
 11
-372.699829101563
 21
-3.31470211952505
 31
0.0
  0
LINE
  5
   301
  8
0
  6
DASHDOT
 62
     7
 10
-332.699829101563
 20
-45.6038370573083
 30
0.0
 11
-332.699829101563
 21
-4.08265417205774
 31
0.0
  0
CIRCLE
  5
   302
  8
0
  6
CONTINUOUS
 62
     7
 10
-372.699829101563
 20
-7.06478881835938
 30
0.0
 40
0.75
  0
CIRCLE
  5
   303
  8
0
  6
CONTINUOUS
 62
     7
 10
-332.699829101563
 20
-7.06478881835938
 30
0.0
 40
0.75
  0
CIRCLE
  5
   304
  8
0
  6
CONTINUOUS
 62
     7
 10
-372.699829101563
 20
-40.8147888183594
 30
0.0
 40
0.75
  0
CIRCLE
  5
   305
  8
0
  6
CONTINUOUS
 62
     7
 10
-332.699829101563
 20
-40.8147888183594
 30
0.0
 40
0.75
  0
LINE
  5
   306
  8
0
  6
CONTINUOUS
 62
     7
 10
-381.01377554124
 20
15.7296080321079
 30
0.0
 11
-324.516252228879
 21
15.7296080321079
 31
0.0
  0
LINE
  5
   307
  8
0
  6
DASHDOT
 62
     7
 10
-386.717301039252
 20
-23.5022888183594
 30
0.0
 11
-320.631598408374
 21
-23.5022888183594
 31
0.0
  0
TEXT
  5
   308
  8
0
  6
CONTINUOUS
 62
     1
 10
-453.67062400891
 20
-158.322226037141
 30
0.0
 40
2.00000008940697
  1
M 4329 96-09-24
 50
360.0
 41
0.749999861419206
 72
     1
 11
-442.570625567576
 21
-157.322225992382
 31
0.0
 73
     2
  0
LINE
  5
   309
  8
0
  6
CONTINUOUS
 62
     7
 10
-373.887329101563
 20
-45.1897888183594
 30
0.0
 11
-331.512329101563
 21
-45.1897888183594
 31
0.0
  0
LINE
  5
   30A
  8
0
  6
CONTINUOUS
 62
     7
 10
-374.887329101563
 20
-57.1897888183594
 30
0.0
 11
-374.887329101563
 21
-46.1897888183594
 31
0.0
  0
LINE
  5
   30B
  8
0
  6
CONTINUOUS
 62
     7
 10
-330.512329101563
 20
-57.1897888183594
 30
0.0
 11
-330.512329101563
 21
-46.1897888183594
 31
0.0
  0
ARC
  5
   30C
  8
0
  6
CONTINUOUS
 62
     7
 10
-331.512329101563
 20
-46.1897888183594
 30
0.0
 40
1.0
 50
360.0
 51
450.0
  0
ARC
  5
   30D
  8
0
  6
CONTINUOUS
 62
     7
 10
-373.887329101563
 20
-46.1897888183594
 30
0.0
 40
1.0
 50
90.0
 51
180.0
  0
LINE
  5
   30E
  8
0
  6
CONTINUOUS
 62
     7
 10
-373.887329101563
 20
-2.68978881835938
 30
0.0
 11
-331.512329101563
 21
-2.68978881835938
 31
0.0
  0
LINE
  5
   30F
  8
0
  6
CONTINUOUS
 62
     7
 10
-373.887329101563
 20
10.3102111816406
 30
0.0
 11
-331.512329101563
 21
10.3102111816406
 31
0.0
  0
LINE
  5
   310
  8
0
  6
CONTINUOUS
 62
     7
 10
-330.512329101563
 20
-1.68978881835938
 30
0.0
 11
-330.512329101563
 21
9.31021118164063
 31
0.0
  0
LINE
  5
   311
  8
0
  6
CONTINUOUS
 62
     7
 10
-374.887329101563
 20
-1.68978881835938
 30
0.0
 11
-374.887329101563
 21
9.31021118164063
 31
0.0
  0
ARC
  5
   312
  8
0
  6
CONTINUOUS
 62
     7
 10
-373.887329101563
 20
9.31021118164063
 30
0.0
 40
1.0
 50
90.0
 51
180.0
  0
ARC
  5
   313
  8
0
  6
CONTINUOUS
 62
     7
 10
-373.887329101563
 20
-1.68978881835938
 30
0.0
 40
1.0
 50
180.0
 51
270.0
  0
ARC
  5
   314
  8
0
  6
CONTINUOUS
 62
     7
 10
-331.512329101563
 20
-1.68978881835938
 30
0.0
 40
1.0
 50
270.0
 51
360.0
  0
ARC
  5
   315
  8
0
  6
CONTINUOUS
 62
     7
 10
-331.512329101563
 20
9.31021118164063
 30
0.0
 40
1.0
 50
360.0
 51
450.0
  0
LINE
  5
   316
  8
0
  6
CONTINUOUS
 62
     7
 10
-373.887329101563
 20
-58.1897888183594
 30
0.0
 11
-331.512329101563
 21
-58.1897888183594
 31
0.0
  0
ARC
  5
   317
  8
0
  6
CONTINUOUS
 62
     7
 10
-373.887329101563
 20
-57.1897888183594
 30
0.0
 40
1.0
 50
180.0
 51
270.0
  0
ARC
  5
   318
  8
0
  6
CONTINUOUS
 62
     7
 10
-331.512329101563
 20
-57.1897888183594
 30
0.0
 40
1.0
 50
270.0
 51
360.0
  0
TEXT
  5
   319
  8
0
  6
CONTINUOUS
 62
     1
 10
-428.83062400891
 20
-158.322226037141
 30
0.0
 40
2.00000008940697
  1
M 4504 98-11-17
 50
360.0
 41
0.749999861419206
 72
     1
 11
-417.730625567576
 21
-157.322225992382
 31
0.0
 73
     2
  0
TEXT
  5
   31A
  8
0
  6
CONTINUOUS
 62
     1
 10
-467.558563232417
 20
-152.256906598847
 30
0.0
 40
2.00000008940697
  1
SCARPELLINI
 50
360.0
 41
0.749999861419206
 72
     2
 11
-451.358565509314
 21
-152.256906598766
 31
0.0
  0
INSERT
  5
   31B
  8
0
  6
CONTINUOUS
 62
     7
  2
*UDIM444
 10
0.0
 20
0.0
 30
0.0
  0
INSERT
  5
   31C
  8
0
  6
CONTINUOUS
 62
     7
  2
*UDIM445
 10
0.0
 20
0.0
 30
0.0
  0
INSERT
  5
   31D
  8
0
  6
CONTINUOUS
 62
     7
  2
*UDIM446
 10
0.0
 20
0.0
 30
0.0
  0
INSERT
  5
   31E
  8
0
  6
CONTINUOUS
 62
     7
  2
*UDIM447
 10
0.0
 20
0.0
 30
0.0
  0
INSERT
  5
   31F
  8
0
  6
CONTINUOUS
 62
     7
  2
*UDIM448
 10
0.0
 20
0.0
 30
0.0
  0
INSERT
  5
   320
  8
0
  6
CONTINUOUS
 62
     7
  2
*UDIM449
 10
0.0
 20
0.0
 30
0.0
  0
INSERT
  5
   321
  8
0
  6
CONTINUOUS
 62
     7
  2
*UDIM450
 10
0.0
 20
0.0
 30
0.0
  0
INSERT
  5
   322
  8
0
  6
CONTINUOUS
 62
     7
  2
*UDIM451
 10
0.0
 20
0.0
 30
0.0
  0
TEXT
  5
   323
  8
0
  6
CONTINUOUS
 62
     1
 10
-467.558563232417
 20
-143.79016122229
 30
0.0
 40
2.00000008940697
  1
96-11-29 M.COLLEONI
 50
360.0
 41
0.749999861419206
 72
     2
 11
-439.358567190165
 21
-143.790161222149
 31
0.0
  0
TEXT
  5
   324
  8
0
  6
CONTINUOUS
 62
     5
 10
-345.316747426979
 20
17.1894187629168
 30
0.0
 40
3.00000002980232
  1
Y
 50
360.0
 41
0.916666604744064
 72
     2
 11
-343.116747558109
 21
17.1894187629278
 31
0.0
  0
INSERT
  5
   325
  8
0
  6
CONTINUOUS
 62
     5
  2
*UDIM452
 10
0.0
 20
0.0
 30
0.0
  0
INSERT
  5
   326
  8
0
  6
CONTINUOUS
 62
     7
  2
*UDIM453
 10
0.0
 20
0.0
 30
0.0
  0
INSERT
  5
   327
  8
0
  6
CONTINUOUS
 62
     7
  2
*UDIM454
 10
0.0
 20
0.0
 30
0.0
  0
TEXT
  5
   328
  8
0
  6
CONTINUOUS
 62
     7
 10
-383.908370971672
 20
-21.886149436241
 30
0.0
 40
3.00000002980232
  1
X
 50
360.0
 41
0.916666604744064
 72
     2
 11
-381.708371102802
 21
-21.8861494362299
 31
0.0
  0
TEXT
  5
   329
  8
0
  6
CONTINUOUS
 62
     7
 10
-306.183799743645
 20
-27.2504264414366
 30
0.0
 40
3.00000002980232
  1
X
 50
360.0
 41
0.916666604744064
 72
     2
 11
-303.983799874775
 21
-27.2504264414255
 31
0.0
  0
TEXT
  5
   32A
  8
0
  6
CONTINUOUS
 62
     7
 10
-351.03446364402
 20
-70.6060676872786
 30
0.0
 40
3.00000002980232
  1
Y
 50
360.0
 41
0.916666604744064
 72
     2
 11
-348.83446377515
 21
-70.6060676872675
 31
0.0
  0
TEXT
  5
   32B
  8
0
  6
CONTINUOUS
 62
     1
 10
-358.588928222646
 20
-169.423126399609
 30
0.0
 40
4.00000017881393
  1
601812/921
 50
360.0
 41
0.937499973922969
 72
     2
 11
-321.838927622874
 21
-169.423126399425
 31
0.0
  0
TEXT
  5
   32C
  8
0
  6
CONTINUOUS
 62
     1
 10
-347.503234863274
 20
-160.441543608944
 30
0.0
 40
3.00000002980232
  1
S5/630
 50
360.0
 41
0.916666604744064
 72
     2
 11
-331.553235786649
 21
-160.441543608864
 31
0.0
  0
TEXT
  5
   32D
  8
0
  6
CONTINUOUS
 62
     1
 10
-369.037654587621
 20
-142.131271407154
 30
0.0
 40
2.00000008940697
  1
4POLE LOW VOLTAGE M.C.C.B SERIES ISOMAX
 50
360.0
 41
0.749999861419206
 72
     1
 11
-339.937658667564
 21
-141.131271362305
 31
0.0
 73
     2
  0
TEXT
  5
   32E
  8
0
  6
CONTINUOUS
 62
     1
 10
-366.037655007834
 20
-145.131271407139
 30
0.0
 40
2.00000008940697
  1
WITHDRAWABLE VERSION REAR TERMINALS
 50
360.0
 41
0.749999861419206
 72
     1
 11
-339.937658667564
 21
-144.131271362305
 31
0.0
 73
     2
  0
TEXT
  5
   32F
  8
0
  6
CONTINUOUS
 62
     1
 10
-365.835262954975
 20
-150.201538130753
 30
0.0
 40
2.00000008940697
  1
INTERR.AUTOMATICO SERIE ISOMAX
 50
360.0
 41
0.749999861419206
 72
     1
 11
-343.485266089439
 21
-149.201538085938
 31
0.0
 73
     2
  0
TEXT
  5
   330
  8
0
  6
CONTINUOUS
 62
     1
 10
-377.835261274124
 20
-153.201538130814
 30
0.0
 40
2.00000008940697
  1
TETRAP.ESECUZIONE ESTRAIBILE TERMIN.POSTERIORI
 50
360.0
 41
0.749999861419206
 72
     1
 11
-343.485266089439
 21
-152.201538085938
 31
0.0
 73
     2
  0
LINE
  5
   331
  8
0
  6
DASHDOT
 62
     3
 10
-551.982246399216
 20
156.838602554875
 30
0.0
 11
-461.198366344428
 21
156.838602554875
 31
0.0
  0
LINE
  5
   332
  8
0
  6
CONTINUOUS
 62
     5
 10
-521.257945266366
 20
201.551085771698
 30
0.0
 11
-486.782951194048
 21
201.551085771698
 31
0.0
  0
LINE
  5
   333
  8
0
  6
CONTINUOUS
 62
     5
 10
-521.607945260405
 20
192.451097889548
 30
0.0
 11
-521.607945260405
 21
201.201085777658
 31
0.0
  0
ARC
  5
   334
  8
0
  6
CONTINUOUS
 62
     5
 10
-521.257945266366
 20
201.201085777658
 30
0.0
 40
0.349999994039536
 50
90.0
 51
180.0
  0
LINE
  5
   335
  8
0
  6
CONTINUOUS
 62
     5
 10
-521.257945266366
 20
192.101097895508
 30
0.0
 11
-521.257945266366
 21
192.451097889548
 31
0.0
  0
LINE
  5
   336
  8
0
  6
CONTINUOUS
 62
     5
 10
-521.607945260405
 20
192.451097889548
 30
0.0
 11
-521.257945266366
 21
192.451097889548
 31
0.0
  0
LINE
  5
   337
  8
0
  6
CONTINUOUS
 62
     5
 10
-521.257945266366
 20
110.901109959488
 30
0.0
 11
-486.782950860262
 21
110.901109959488
 31
0.0
  0
LINE
  5
   338
  8
0
  6
CONTINUOUS
 62
     5
 10
-521.607945260405
 20
111.251109953528
 30
0.0
 11
-521.607945260405
 21
119.82610446692
 31
0.0
  0
ARC
  5
   339
  8
0
  6
CONTINUOUS
 62
     5
 10
-521.257945266366
 20
111.251109953528
 30
0.0
 40
0.349999994039536
 50
180.0
 51
270.0
  0
LINE
  5
   33A
  8
0
  6
CONTINUOUS
 62
     5
 10
-521.607945260405
 20
119.82610446692
 30
0.0
 11
-521.257945266366
 21
119.82610446692
 31
0.0
  0
LINE
  5
   33B
  8
0
  6
CONTINUOUS
 62
     5
 10
-521.257945266366
 20
119.82610446692
 30
0.0
 11
-521.257945266366
 21
120.17610446096
 31
0.0
  0
LINE
  5
   33C
  8
0
  6
CONTINUOUS
 62
     2
 10
-486.782919150429
 20
185.626070021171
 30
0.0
 11
-486.782919150429
 21
192.841188306501
 31
0.0
  0
LINE
  5
   33D
  8
0
  6
CONTINUOUS
 62
     7
 10
-511.982940083742
 20
191.926069913882
 30
0.0
 11
-510.757940104604
 21
191.926069913882
 31
0.0
  0
LINE
  5
   33E
  8
0
  6
CONTINUOUS
 62
     7
 10
-510.757902720323
 20
185.801066966466
 30
0.0
 11
-510.757902720323
 21
191.926066862158
 31
0.0
  0
LINE
  5
   33F
  8
0
  6
CONTINUOUS
 62
     7
 10
-488.182940489054
 20
186.501070006269
 30
0.0
 11
-486.782940512896
 21
186.501070006269
 31
0.0
  0
LINE
  5
   340
  8
0
  6
CONTINUOUS
 62
     7
 10
-488.182974935686
 20
199.696086016937
 30
0.0
 11
-488.182941379022
 21
186.501065562425
 31
0.0
  0
LINE
  5
   341
  8
0
  6
CONTINUOUS
 62
     2
 10
-486.782940512896
 20
185.626070021171
 30
0.0
 11
-486.607951197028
 21
185.626070021171
 31
0.0
  0
LINE
  5
   342
  8
0
  6
CONTINUOUS
 62
     2
 10
-486.782951194048
 20
191.226069925803
 30
0.0
 11
-486.082951205969
 21
191.226069925803
 31
0.0
  0
LINE
  5
   343
  8
0
  6
CONTINUOUS
 62
     2
 10
-486.782951194048
 20
195.076069860238
 30
0.0
 11
-486.082951205969
 21
195.076069860238
 31
0.0
  0
LINE
  5
   344
  8
0
  6
CONTINUOUS
 62
     2
 10
-486.782951194048
 20
194.135145803996
 30
0.0
 11
-486.082951205969
 21
194.135145803996
 31
0.0
  0
LINE
  5
   345
  8
0
  6
CONTINUOUS
 62
     2
 10
-486.782951194048
 20
192.841188306501
 30
0.0
 11
-486.082951205969
 21
192.841188306501
 31
0.0
  0
LINE
  5
   346
  8
0
  6
CONTINUOUS
 62
     7
 10
-511.982940083742
 20
191.751076539164
 30
0.0
 11
-511.982940083742
 21
192.10108187378
 31
0.0
  0
LINE
  5
   347
  8
0
  6
CONTINUOUS
 62
     7
 10
-519.857939949632
 20
192.10108187378
 30
0.0
 11
-519.752938883305
 21
192.10108187378
 31
0.0
  0
LINE
  5
   348
  8
0
  6
CONTINUOUS
 62
     7
 10
-511.982940083742
 20
191.751087220317
 30
0.0
 11
-510.932940101624
 21
191.751087220317
 31
0.0
  0
LINE
  5
   349
  8
0
  6
CONTINUOUS
 62
     7
 10
-510.932940101624
 20
183.176080744046
 30
0.0
 11
-510.932940101624
 21
191.751087220317
 31
0.0
  0
LINE
  5
   34A
  8
0
  6
CONTINUOUS
 62
     7
 10
-519.752928202152
 20
183.176080744046
 30
0.0
 11
-519.752928202152
 21
192.101077494305
 31
0.0
  0
LINE
  5
   34B
  8
0
  6
CONTINUOUS
 62
     2
 10
-519.752944223881
 20
199.696086016899
 30
0.0
 11
-486.782919150429
 21
199.696086016899
 31
0.0
  0
LINE
  5
   34C
  8
0
  6
CONTINUOUS
 62
     2
 10
-519.752906839843
 20
192.101079461942
 30
0.0
 11
-519.752906839843
 21
199.696083605061
 31
0.0
  0
LINE
  5
   34D
  8
0
  6
CONTINUOUS
 62
     7
 10
-511.982940083742
 20
192.101087214356
 30
0.0
 11
-511.982940083742
 21
199.696086016899
 31
0.0
  0
LINE
  5
   34E
  8
0
  6
CONTINUOUS
 62
     7
 10
-521.607945260405
 20
132.776109586959
 30
0.0
 11
-521.607945260405
 21
134.176073567647
 31
0.0
  0
LINE
  5
   34F
  8
0
  6
CONTINUOUS
 62
     7
 10
-521.607945260405
 20
183.176080744046
 30
0.0
 11
-521.607945260405
 21
192.101097895508
 31
0.0
  0
LINE
  5
   350
  8
0
  6
CONTINUOUS
 62
     7
 10
-521.607945260405
 20
192.101097895508
 30
0.0
 11
-519.857945290208
 21
192.101097895508
 31
0.0
  0
LINE
  5
   351
  8
0
  6
CONTINUOUS
 62
     7
 10
-521.607945260405
 20
132.776109586959
 30
0.0
 11
-519.857945290208
 21
132.776109586959
 31
0.0
  0
LINE
  5
   352
  8
0
  6
CONTINUOUS
 62
   218
 10
-519.752943890095
 20
112.756109660869
 30
0.0
 11
-486.782950860262
 21
112.756109660869
 31
0.0
  0
LINE
  5
   353
  8
0
  6
CONTINUOUS
 62
   218
 10
-519.857945289893
 20
121.576105669226
 30
0.0
 11
-519.752946693457
 21
121.576104436804
 31
0.0
  0
LINE
  5
   354
  8
0
  6
CONTINUOUS
 62
   218
 10
-521.257945266366
 20
120.17610446096
 30
0.0
 11
-519.752949564457
 21
120.17610446096
 31
0.0
  0
LINE
  5
   355
  8
0
  6
CONTINUOUS
 62
   218
 10
-519.752949564457
 20
112.756110996013
 30
0.0
 11
-519.752949564457
 21
121.576109777694
 31
0.0
  0
LINE
  5
   356
  8
0
  6
CONTINUOUS
 62
   218
 10
-519.752949564457
 20
121.576109777694
 30
0.0
 11
-519.752949564457
 21
132.776074926633
 31
0.0
  0
LINE
  5
   357
  8
0
  6
CONTINUOUS
 62
     7
 10
-519.857945290208
 20
132.426109592919
 30
0.0
 11
-519.752949564457
 21
132.426109592919
 31
0.0
  0
LINE
  5
   358
  8
0
  6
CONTINUOUS
 62
   218
 10
-486.782950860132
 20
123.676109742277
 30
0.0
 11
-486.082951205855
 21
123.676104401701
 31
0.0
  0
LINE
  5
   359
  8
0
  6
CONTINUOUS
 62
   218
 10
-486.782950860262
 20
110.901109959488
 30
0.0
 11
-486.782950860262
 21
123.676104401355
 31
0.0
  0
LINE
  5
   35A
  8
0
  6
CONTINUOUS
 62
   218
 10
-486.782951194048
 20
119.91360446543
 30
0.0
 11
-486.082951205969
 21
119.91360446543
 31
0.0
  0
LINE
  5
   35B
  8
0
  6
CONTINUOUS
 62
   218
 10
-486.782951194048
 20
116.862447567394
 30
0.0
 11
-486.082951205969
 21
116.862447567394
 31
0.0
  0
LINE
  5
   35C
  8
0
  6
CONTINUOUS
 62
   218
 10
-486.782951194048
 20
117.720993571373
 30
0.0
 11
-486.082951205969
 21
117.720993571373
 31
0.0
  0
LINE
  5
   35D
  8
0
  6
CONTINUOUS
 62
     7
 10
-521.607945260405
 20
132.601109589939
 30
0.0
 11
-519.857945290208
 21
132.601109589939
 31
0.0
  0
LINE
  5
   35E
  8
0
  6
CONTINUOUS
 62
     7
 10
-521.607945260405
 20
120.351109798556
 30
0.0
 11
-519.857945290208
 21
120.351109798556
 31
0.0
  0
LINE
  5
   35F
  8
0
  6
CONTINUOUS
 62
     7
 10
-521.607945260405
 20
120.351109798556
 30
0.0
 11
-521.607945260405
 21
132.601109589939
 31
0.0
  0
LINE
  5
   360
  8
0
  6
CONTINUOUS
 62
     7
 10
-520.907945272326
 20
120.351109798556
 30
0.0
 11
-520.907945272326
 21
132.601109589939
 31
0.0
  0
LINE
  5
   361
  8
0
  6
CONTINUOUS
 62
     7
 10
-519.857945290208
 20
120.351109798556
 30
0.0
 11
-519.857945290208
 21
132.601109589939
 31
0.0
  0
LINE
  5
   362
  8
0
  6
CONTINUOUS
 62
     2
 10
-486.782919150429
 20
194.135145803996
 30
0.0
 11
-486.782919150429
 21
201.551085771698
 31
0.0
  0
LINE
  5
   363
  8
0
  6
CONTINUOUS
 62
     7
 10
-486.082951205969
 20
191.226069925803
 30
0.0
 11
-486.082951205969
 21
195.076069860238
 31
0.0
  0
LINE
  5
   364
  8
0
  6
CONTINUOUS
 62
     7
 10
-486.082951205969
 20
116.862447567393
 30
0.0
 11
-486.082951205969
 21
119.91360446543
 31
0.0
  0
LINE
  5
   365
  8
0
  6
CONTINUOUS
 62
     7
 10
-470.157936242038
 20
144.676070718545
 30
0.0
 11
-469.457935467362
 21
144.676070718545
 31
0.0
  0
LINE
  5
   366
  8
0
  6
CONTINUOUS
 62
     7
 10
-470.157936531836
 20
147.126065336246
 30
0.0
 11
-469.457935467362
 21
147.126065336246
 31
0.0
  0
LINE
  5
   367
  8
0
  6
CONTINUOUS
 62
     7
 10
-486.082951205969
 20
112.756092691201
 30
0.0
 11
-486.082951205969
 21
118.076076512116
 31
0.0
  0
LINE
  5
   368
  8
0
  6
CONTINUOUS
 62
     3
 10
-469.457935467362
 20
135.576081554669
 30
0.0
 11
-468.932935476303
 21
135.576081554669
 31
0.0
  0
LINE
  5
   369
  8
0
  6
CONTINUOUS
 62
     3
 10
-469.457935467362
 20
129.626081655997
 30
0.0
 11
-468.932935476303
 21
129.626081655997
 31
0.0
  0
LINE
  5
   36A
  8
0
  6
CONTINUOUS
 62
     3
 10
-469.457935467362
 20
125.776081721562
 30
0.0
 11
-468.932935476303
 21
125.776081721562
 31
0.0
  0
LINE
  5
   36B
  8
0
  6
CONTINUOUS
 62
     3
 10
-469.457935467362
 20
186.676080684441
 30
0.0
 11
-468.932935476303
 21
186.676080684441
 31
0.0
  0
LINE
  5
   36C
  8
0
  6
CONTINUOUS
 62
     3
 10
-469.457935467362
 20
182.826080750006
 30
0.0
 11
-468.932935476303
 21
182.826080750006
 31
0.0
  0
LINE
  5
   36D
  8
0
  6
CONTINUOUS
 62
     3
 10
-469.457935467362
 20
176.876080851334
 30
0.0
 11
-468.932935476303
 21
176.876080851334
 31
0.0
  0
LINE
  5
   36E
  8
0
  6
CONTINUOUS
 62
     3
 10
-469.457935467362
 20
182.476086096543
 30
0.0
 11
-469.457935467362
 21
186.676080684441
 31
0.0
  0
LINE
  5
   36F
  8
0
  6
CONTINUOUS
 62
     3
 10
-469.457935467362
 20
135.22613496639
 30
0.0
 11
-469.457935467362
 21
177.226096867102
 31
0.0
  0
LINE
  5
   370
  8
0
  6
CONTINUOUS
 62
     3
 10
-469.457935467362
 20
125.776081721562
 30
0.0
 11
-469.457935467362
 21
129.976135055797
 31
0.0
  0
LINE
  5
   371
  8
0
  6
CONTINUOUS
 62
     3
 10
-468.932935476303
 20
125.776081721562
 30
0.0
 11
-468.932935476303
 21
129.976103012341
 31
0.0
  0
LINE
  5
   372
  8
0
  6
CONTINUOUS
 62
     3
 10
-468.932935476303
 20
135.226097582358
 30
0.0
 11
-468.932935476303
 21
177.226048801917
 31
0.0
  0
LINE
  5
   373
  8
0
  6
CONTINUOUS
 62
     3
 10
-468.932935476303
 20
182.476059393663
 30
0.0
 11
-468.932935476303
 21
186.676080684441
 31
0.0
  0
LINE
  5
   374
  8
0
  6
DASHDOT
 62
     7
 10
-468.757935479283
 20
135.22610826351
 30
0.0
 11
-468.757935479283
 21
177.22608618595
 31
0.0
  0
LINE
  5
   375
  8
0
  6
DASHDOT
 62
     7
 10
-468.757935479283
 20
99.657315484939
 30
0.0
 11
-468.757935479283
 21
129.976108352917
 31
0.0
  0
LINE
  5
   376
  8
0
  6
DASHDOT
 62
     7
 10
-468.757935479283
 20
182.476086096543
 30
0.0
 11
-468.757935479283
 21
211.113857300412
 31
0.0
  0
LINE
  5
   377
  8
0
  6
DASHDOT
 62
     7
 10
-467.707935497165
 20
101.068581128214
 30
0.0
 11
-467.707935497165
 21
211.266031210864
 31
0.0
  0
LINE
  5
   378
  8
0
  6
CONTINUOUS
 62
     7
 10
-470.169112912201
 20
210.909338831873
 30
0.0
 11
-466.296233555539
 21
211.470625695157
 31
0.0
  0
LINE
  5
   379
  8
0
  6
CONTINUOUS
 62
     7
 10
-470.219372153423
 20
99.8321815435946
 30
0.0
 11
-466.470423937751
 21
101.677817588234
 31
0.0
  0
LINE
  5
   37A
  8
0
  6
DASHDOT
 62
     7
 10
-475.033251522812
 20
179.851086141246
 30
0.0
 11
-464.274924467505
 21
179.851086141246
 31
0.0
  0
LINE
  5
   37B
  8
0
  6
DASHDOT
 62
     7
 10
-475.822853508522
 20
132.601086945909
 30
0.0
 11
-464.472324963933
 21
132.601086945909
 31
0.0
  0
LINE
  5
   37C
  8
0
  6
CONTINUOUS
 62
   130
 10
-531.407929072553
 20
139.426078822057
 30
0.0
 11
-531.407911048109
 21
138.026069499925
 31
0.0
  0
LINE
  5
   37D
  8
0
  6
CONTINUOUS
 62
   130
 10
-531.407929072497
 20
134.176070900037
 30
0.0
 11
-531.407911715625
 21
135.576065535539
 31
0.0
  0
LINE
  5
   37E
  8
0
  6
CONTINUOUS
 62
   130
 10
-486.082951060376
 20
134.176073599005
 30
0.0
 11
-485.382951072297
 21
134.176029539253
 31
0.0
  0
LINE
  5
   37F
  8
0
  6
CONTINUOUS
 62
   130
 10
-529.657929101587
 20
134.176073567647
 30
0.0
 11
-487.832956516742
 21
134.176073567647
 31
0.0
  0
LINE
  5
   380
  8
0
  6
CONTINUOUS
 62
   130
 10
-485.382956558466
 20
183.176080744046
 30
0.0
 11
-470.157940796018
 21
183.176080744046
 31
0.0
  0
LINE
  5
   381
  8
0
  6
CONTINUOUS
 62
   130
 10
-485.382951217454
 20
134.17602950796
 30
0.0
 11
-470.157940795582
 21
134.175985448208
 31
0.0
  0
LINE
  5
   382
  8
0
  6
CONTINUOUS
 62
   130
 10
-470.157940795968
 20
134.175985447108
 30
0.0
 11
-470.157935455392
 21
138.026061483651
 31
0.0
  0
LINE
  5
   383
  8
0
  6
CONTINUOUS
 62
     7
 10
-531.407929071784
 20
171.976086275357
 30
0.0
 11
-499.732934951782
 21
171.976086275357
 31
0.0
  0
LINE
  5
   384
  8
0
  6
CONTINUOUS
 62
     7
 10
-531.407929071784
 20
161.476067762155
 30
0.0
 11
-499.732934951782
 21
161.476067762155
 31
0.0
  0
LINE
  5
   385
  8
0
  6
CONTINUOUS
 62
   130
 10
-531.407916410506
 20
135.576065532942
 30
0.0
 11
-531.407916410506
 21
138.026069496651
 31
0.0
  0
LINE
  5
   386
  8
0
  6
CONTINUOUS
 62
   130
 10
-531.407929071784
 20
183.176080744046
 30
0.0
 11
-485.382956558466
 21
183.176080744046
 31
0.0
  0
LINE
  5
   387
  8
0
  6
CONTINUOUS
 62
   130
 10
-531.407929071784
 20
171.976086275357
 30
0.0
 11
-531.407929071784
 21
183.176080744046
 31
0.0
  0
LINE
  5
   388
  8
0
  6
CONTINUOUS
 62
     7
 10
-495.620456384006
 20
135.576086895274
 30
0.0
 11
-486.782951193932
 21
135.576102917002
 31
0.0
  0
LINE
  5
   389
  8
0
  6
CONTINUOUS
 62
     7
 10
-509.926684778174
 20
135.576078884385
 30
0.0
 11
-497.020456360271
 21
135.576086895249
 31
0.0
  0
LINE
  5
   38A
  8
0
  6
CONTINUOUS
 62
     7
 10
-530.007891044017
 20
135.576066868089
 30
0.0
 11
-511.326684086765
 21
135.576078884385
 31
0.0
  0
LINE
  5
   38B
  8
0
  6
CONTINUOUS
 62
     7
 10
-530.007887706157
 20
137.151069511555
 30
0.0
 11
-511.326683419193
 21
137.151081527851
 31
0.0
  0
LINE
  5
   38C
  8
0
  6
CONTINUOUS
 62
     7
 10
-509.92668344303
 20
137.151082862995
 30
0.0
 11
-497.020453689982
 21
137.151090873859
 31
0.0
  0
LINE
  5
   38D
  8
0
  6
CONTINUOUS
 62
     7
 10
-495.620453713821
 20
137.151092209003
 30
0.0
 11
-486.782951194035
 21
137.151097549579
 31
0.0
  0
LINE
  5
   38E
  8
0
  6
CONTINUOUS
 62
     7
 10
-530.007891044033
 20
135.576066869761
 30
0.0
 11
-530.007888373745
 21
137.151069513313
 31
0.0
  0
LINE
  5
   38F
  8
0
  6
CONTINUOUS
 62
     7
 10
-486.782951194048
 20
135.576102916973
 30
0.0
 11
-486.782951194048
 21
137.151097549575
 31
0.0
  0
LINE
  5
   390
  8
0
  6
CONTINUOUS
 62
     7
 10
-495.620456384084
 20
135.57608689073
 30
0.0
 11
-495.620453713796
 21
137.151100215135
 31
0.0
  0
LINE
  5
   391
  8
0
  6
CONTINUOUS
 62
     7
 10
-497.020456360244
 20
135.576086893364
 30
0.0
 11
-497.020453689956
 21
137.151098882929
 31
0.0
  0
LINE
  5
   392
  8
0
  6
CONTINUOUS
 62
     7
 10
-509.926699386627
 20
135.576078884395
 30
0.0
 11
-509.926699386627
 21
137.151090873869
 31
0.0
  0
LINE
  5
   393
  8
0
  6
CONTINUOUS
 62
     7
 10
-511.326698695225
 20
135.576078884394
 30
0.0
 11
-511.326698695225
 21
137.151089538724
 31
0.0
  0
LINE
  5
   394
  8
0
  6
CONTINUOUS
 62
   130
 10
-520.207929763198
 20
132.776074926633
 30
0.0
 11
-520.207929763198
 21
134.176074902791
 31
0.0
  0
LINE
  5
   395
  8
0
  6
CONTINUOUS
 62
   130
 10
-518.807929620147
 20
132.776074926633
 30
0.0
 11
-518.807929620147
 21
134.176074902791
 31
0.0
  0
LINE
  5
   396
  8
0
  6
CONTINUOUS
 62
   130
 10
-520.207929763198
 20
132.776074926633
 30
0.0
 11
-518.807929620147
 21
132.776074926633
 31
0.0
  0
LINE
  5
   397
  8
0
  6
CONTINUOUS
 62
   130
 10
-490.895429761708
 20
132.776093618649
 30
0.0
 11
-490.895429761708
 21
134.176068227071
 31
0.0
  0
LINE
  5
   398
  8
0
  6
CONTINUOUS
 62
   130
 10
-489.49542978555
 20
132.776093618649
 30
0.0
 11
-489.49542978555
 21
134.176068227071
 31
0.0
  0
LINE
  5
   399
  8
0
  6
CONTINUOUS
 62
   130
 10
-490.895429761708
 20
132.776093618649
 30
0.0
 11
-489.49542978555
 21
132.776093618649
 31
0.0
  0
LINE
  5
   39A
  8
0
  6
CONTINUOUS
 62
   130
 10
-529.657929101587
 20
132.513573595959
 30
0.0
 11
-529.657929101587
 21
133.388573581058
 31
0.0
  0
LINE
  5
   39B
  8
0
  6
CONTINUOUS
 62
   130
 10
-531.407929071784
 20
132.513573595959
 30
0.0
 11
-531.407929071784
 21
134.176070897359
 31
0.0
  0
LINE
  5
   39C
  8
0
  6
CONTINUOUS
 62
   130
 10
-531.407929071784
 20
132.513573595959
 30
0.0
 11
-529.657929101587
 21
132.513573595959
 31
0.0
  0
LINE
  5
   39D
  8
0
  6
CONTINUOUS
 62
   130
 10
-529.657929101587
 20
133.388573581058
 30
0.0
 11
-529.657929101587
 21
134.176073567647
 31
0.0
  0
LINE
  5
   39E
  8
0
  6
CONTINUOUS
 62
   130
 10
-487.832961857318
 20
132.513573595959
 30
0.0
 11
-487.832961857318
 21
133.388573581058
 31
0.0
  0
LINE
  5
   39F
  8
0
  6
CONTINUOUS
 62
   130
 10
-487.832961857318
 20
132.513573595959
 30
0.0
 11
-486.082961887121
 21
132.513573595959
 31
0.0
  0
LINE
  5
   3A0
  8
0
  6
CONTINUOUS
 62
   130
 10
-486.082961886377
 20
132.513573594978
 30
0.0
 11
-486.082951205225
 21
134.176073566665
 31
0.0
  0
LINE
  5
   3A1
  8
0
  6
CONTINUOUS
 62
   130
 10
-487.83296185653
 20
133.388573581252
 30
0.0
 11
-487.832956515954
 21
134.176068227138
 31
0.0
  0
LINE
  5
   3A2
  8
0
  6
CONTINUOUS
 62
     7
 10
-530.007931743155
 20
177.051092251388
 30
0.0
 11
-528.957931737971
 21
176.001092246204
 31
0.0
  0
LINE
  5
   3A3
  8
0
  6
CONTINUOUS
 62
   130
 10
-531.407929071784
 20
139.426078818816
 30
0.0
 11
-531.407929071784
 21
161.476075773019
 31
0.0
  0
LINE
  5
   3A4
  8
0
  6
CONTINUOUS
 62
     7
 10
-499.732934951782
 20
161.476067762155
 30
0.0
 11
-499.732934951782
 21
171.976086275357
 31
0.0
  0
LINE
  5
   3A5
  8
0
  6
CONTINUOUS
 62
     7
 10
-525.982929497957
 20
171.801086278337
 30
0.0
 11
-525.982929497957
 21
171.976086275357
 31
0.0
  0
LINE
  5
   3A6
  8
0
  6
CONTINUOUS
 62
     7
 10
-495.620456384109
 20
178.538580823033
 30
0.0
 11
-486.782951194035
 21
178.538586163609
 31
0.0
  0
LINE
  5
   3A7
  8
0
  6
CONTINUOUS
 62
     7
 10
-495.620456384122
 20
176.001080866236
 30
0.0
 11
-495.620456384122
 21
178.538580823022
 31
0.0
  0
LINE
  5
   3A8
  8
0
  6
CONTINUOUS
 62
     7
 10
-495.620456384109
 20
176.001080866246
 30
0.0
 11
-486.782951194035
 21
176.001086206822
 31
0.0
  0
LINE
  5
   3A9
  8
0
  6
CONTINUOUS
 62
     7
 10
-486.782951194048
 20
176.001086206812
 30
0.0
 11
-486.782951194048
 21
178.538586163598
 31
0.0
  0
LINE
  5
   3AA
  8
0
  6
CONTINUOUS
 62
     7
 10
-511.32668408677
 20
176.001086206812
 30
0.0
 11
-511.32668408677
 21
178.538586163598
 31
0.0
  0
LINE
  5
   3AB
  8
0
  6
CONTINUOUS
 62
     7
 10
-511.326684754342
 20
176.001086206812
 30
0.0
 11
-497.02045636028
 21
176.001086206812
 31
0.0
  0
LINE
  5
   3AC
  8
0
  6
CONTINUOUS
 62
     7
 10
-497.02045636028
 20
176.001086206812
 30
0.0
 11
-497.02045636028
 21
178.538586163598
 31
0.0
  0
LINE
  5
   3AD
  8
0
  6
CONTINUOUS
 62
     7
 10
-511.326684754342
 20
178.538586163598
 30
0.0
 11
-497.02045636028
 21
178.538586163598
 31
0.0
  0
LINE
  5
   3AE
  8
0
  6
CONTINUOUS
 62
     7
 10
-530.007928428054
 20
176.001086206812
 30
0.0
 11
-512.726684062928
 21
176.001086206812
 31
0.0
  0
LINE
  5
   3AF
  8
0
  6
CONTINUOUS
 62
     7
 10
-512.726684062928
 20
176.001086206812
 30
0.0
 11
-512.726684062928
 21
178.538586163598
 31
0.0
  0
LINE
  5
   3B0
  8
0
  6
CONTINUOUS
 62
     7
 10
-530.007928428054
 20
178.538586163598
 30
0.0
 11
-512.726684062928
 21
178.538586163598
 31
0.0
  0
LINE
  5
   3B1
  8
0
  6
CONTINUOUS
 62
     7
 10
-530.007929095626
 20
176.001086206812
 30
0.0
 11
-530.007929095626
 21
178.538586163598
 31
0.0
  0
LINE
  5
   3B2
  8
0
  6
CONTINUOUS
 62
     7
 10
-526.507929489017
 20
135.576069538373
 30
0.0
 11
-526.507929489017
 21
137.151080192703
 31
0.0
  0
LINE
  5
   3B3
  8
0
  6
CONTINUOUS
 62
     7
 10
-525.1079285115
 20
135.576070873517
 30
0.0
 11
-525.1079285115
 21
137.151080192703
 31
0.0
  0
LINE
  5
   3B4
  8
0
  6
CONTINUOUS
 62
     7
 10
-530.00779954758
 20
135.576058857224
 30
0.0
 11
-530.00779954758
 21
137.151069511554
 31
0.0
  0
LINE
  5
   3B5
  8
0
  6
CONTINUOUS
 62
   130
 10
-531.407929071852
 20
134.176054876342
 30
0.0
 11
-531.407927736708
 21
134.526080238001
 31
0.0
  0
LINE
  5
   3B6
  8
0
  6
CONTINUOUS
 62
   130
 10
-486.082951197412
 20
134.176042861178
 30
0.0
 11
-485.382953879621
 21
134.176032180025
 31
0.0
  0
LINE
  5
   3B7
  8
0
  6
CONTINUOUS
 62
   130
 10
-470.157933127244
 20
138.026061485786
 30
0.0
 11
-470.157933127244
 21
183.17608207919
 31
0.0
  0
LINE
  5
   3B8
  8
0
  6
CONTINUOUS
 62
     7
 10
-495.602234338534
 20
135.576081554669
 30
0.0
 11
-495.602234338534
 21
137.151092208999
 31
0.0
  0
LINE
  5
   3B9
  8
0
  6
CONTINUOUS
 62
     7
 10
-497.020880936079
 20
135.576065532941
 30
0.0
 11
-497.020880936079
 21
137.151090873855
 31
0.0
  0
LINE
  5
   3BA
  8
0
  6
CONTINUOUS
 62
     7
 10
-531.407929071784
 20
171.801086278337
 30
0.0
 11
-504.807929524779
 21
171.801086278337
 31
0.0
  0
LINE
  5
   3BB
  8
0
  6
CONTINUOUS
 62
     7
 10
-504.807929524779
 20
161.476067762155
 30
0.0
 11
-504.807929524779
 21
171.801086278337
 31
0.0
  0
LINE
  5
   3BC
  8
0
  6
CONTINUOUS
 62
     7
 10
-531.407929071784
 20
161.476075773019
 30
0.0
 11
-531.407929071784
 21
171.801086278337
 31
0.0
  0
LINE
  5
   3BD
  8
0
  6
CONTINUOUS
 62
   150
 10
-535.257933011651
 20
138.463585510927
 30
0.0
 11
-531.407916387916
 21
138.463585510927
 31
0.0
  0
LINE
  5
   3BE
  8
0
  6
CONTINUOUS
 62
   150
 10
-535.257933011651
 20
175.213602241951
 30
0.0
 11
-531.407929071784
 21
175.213602241951
 31
0.0
  0
LINE
  5
   3BF
  8
0
  6
CONTINUOUS
 62
   150
 10
-537.183034602392
 20
138.638395045269
 30
0.0
 11
-537.182934466587
 21
138.639120028485
 31
0.0
  0
LINE
  5
   3C0
  8
0
  6
CONTINUOUS
 62
     7
 10
-528.95788041978
 20
135.576076214096
 30
0.0
 11
-528.95788041978
 21
137.151078857562
 31
0.0
  0
LINE
  5
   3C1
  8
0
  6
CONTINUOUS
 62
     7
 10
-495.620451043546
 20
176.526086197871
 30
0.0
 11
-486.782951194048
 21
176.526086197871
 31
0.0
  0
LINE
  5
   3C2
  8
0
  6
CONTINUOUS
 62
     7
 10
-511.32668074891
 20
176.526086197871
 30
0.0
 11
-497.020453689992
 21
176.526086197871
 31
0.0
  0
LINE
  5
   3C3
  8
0
  6
CONTINUOUS
 62
     7
 10
-528.957929113507
 20
176.526086197871
 30
0.0
 11
-512.726680725068
 21
176.526086197871
 31
0.0
  0
LINE
  5
   3C4
  8
0
  6
CONTINUOUS
 62
     7
 10
-529.220427848203
 20
176.263591830372
 30
0.0
 11
-528.957927846907
 21
176.526091831668
 31
0.0
  0
LINE
  5
   3C5
  8
0
  6
CONTINUOUS
 62
     7
 10
-528.957929113507
 20
176.526086197871
 30
0.0
 11
-528.957929113507
 21
178.538586163598
 31
0.0
  0
CIRCLE
  5
   3C6
  8
0
  6
CONTINUOUS
 62
   130
 10
-527.207958150583
 20
156.226064605144
 30
0.0
 40
3.49999695973229
  0
CIRCLE
  5
   3C7
  8
0
  6
CONTINUOUS
 62
   130
 10
-527.207955107702
 20
156.226062508731
 30
0.0
 40
0.962501397983491
  0
CIRCLE
  5
   3C8
  8
0
  6
CONTINUOUS
 62
   130
 10
-477.332938239193
 20
175.126058592652
 30
0.0
 40
2.10002360565626
  0
CIRCLE
  5
   3C9
  8
0
  6
CONTINUOUS
 62
   130
 10
-477.332951883615
 20
175.126074183299
 30
0.0
 40
1.13750330518346
  0
CIRCLE
  5
   3CA
  8
0
  6
CONTINUOUS
 62
   130
 10
-477.332952705345
 20
140.126076590802
 30
0.0
 40
2.10000079410038
  0
CIRCLE
  5
   3CB
  8
0
  6
CONTINUOUS
 62
   130
 10
-477.332949309176
 20
140.126079573617
 30
0.0
 40
1.1375029235037
  0
LINE
  5
   3CC
  8
0
  6
DASHDOT
 62
     7
 10
-477.332938239193
 20
172.676034992956
 30
0.0
 11
-477.332938239193
 21
177.576082192348
 31
0.0
  0
LINE
  5
   3CD
  8
0
  6
DASHDOT
 62
     7
 10
-479.782961838889
 20
175.126058592652
 30
0.0
 11
-474.882914639497
 21
175.126058592652
 31
0.0
  0
LINE
  5
   3CE
  8
0
  6
DASHDOT
 62
     7
 10
-477.332952705345
 20
137.676075802662
 30
0.0
 11
-477.332952705345
 21
142.576077378942
 31
0.0
  0
LINE
  5
   3CF
  8
0
  6
DASHDOT
 62
     7
 10
-479.782953493485
 20
140.126076590802
 30
0.0
 11
-474.882951917206
 21
140.126076590802
 31
0.0
  0
LINE
  5
   3D0
  8
0
  6
CONTINUOUS
 62
     7
 10
-486.607951197028
 20
183.176080744046
 30
0.0
 11
-486.607951197028
 21
185.626070021171
 31
0.0
  0
LINE
  5
   3D1
  8
0
  6
CONTINUOUS
 62
     7
 10
-535.257934346795
 20
104.874488524658
 30
0.0
 11
-535.257934346795
 21
130.938537573893
 31
0.0
  0
LINE
  5
   3D2
  8
0
  6
CONTINUOUS
 62
     7
 10
-535.957934334874
 20
104.756510998577
 30
0.0
 11
-535.957934334874
 21
138.463585510927
 31
0.0
  0
LINE
  5
   3D3
  8
0
  6
CONTINUOUS
 62
     7
 10
-537.776672684499
 20
104.449982063247
 30
0.0
 11
-533.237520538385
 21
105.215007705851
 31
0.0
  0
LINE
  5
   3D4
  8
0
  6
CONTINUOUS
 62
     7
 10
-536.807640203868
 20
198.956149779519
 30
0.0
 11
-533.64553421444
 21
198.089120717902
 31
0.0
  0
LINE
  5
   3D5
  8
0
  6
CONTINUOUS
 62
     7
 10
-535.957934334874
 20
175.213602241951
 30
0.0
 11
-535.957934334874
 21
198.723165912214
 31
0.0
  0
LINE
  5
   3D6
  8
0
  6
DASHDOT
 62
     7
 10
-527.207958150583
 20
152.376067651372
 30
0.0
 11
-527.207958150583
 21
160.076061558916
 31
0.0
  0
LINE
  5
   3D7
  8
0
  6
DASHDOT
 62
     7
 10
-531.057955104355
 20
156.226064605144
 30
0.0
 11
-523.357961196811
 21
156.226064605144
 31
0.0
  0
LINE
  5
   3D8
  8
0
  6
CONTINUOUS
 62
     7
 10
-532.457933059335
 20
145.026108096617
 30
0.0
 11
-532.457933059335
 21
149.576035921354
 31
0.0
  0
LINE
  5
   3D9
  8
0
  6
CONTINUOUS
 62
     1
 10
-535.95793299973
 20
128.663536945064
 30
0.0
 11
-535.95793299973
 21
185.013535985429
 31
0.0
  0
LINE
  5
   3DA
  8
0
  6
CONTINUOUS
 62
     1
 10
-537.182932978869
 20
128.663536945064
 30
0.0
 11
-535.95793299973
 21
128.663536945064
 31
0.0
  0
LINE
  5
   3DB
  8
0
  6
CONTINUOUS
 62
     1
 10
-537.182932978869
 20
128.663536945064
 30
0.0
 11
-537.182932978869
 21
144.326036678333
 31
0.0
  0
LINE
  5
   3DC
  8
0
  6
CONTINUOUS
 62
     1
 10
-537.182932978869
 20
150.276035909433
 30
0.0
 11
-537.182932978869
 21
185.013537988145
 31
0.0
  0
LINE
  5
   3DD
  8
0
  6
CONTINUOUS
 62
     1
 10
-537.182932978869
 20
185.013537988145
 30
0.0
 11
-535.95793299973
 21
185.013537988145
 31
0.0
  0
LINE
  5
   3DE
  8
0
  6
CONTINUOUS
 62
     1
 10
-535.257933011651
 20
157.888538450081
 30
0.0
 11
-535.257933011651
 21
180.638538062651
 31
0.0
  0
LINE
  5
   3DF
  8
0
  6
CONTINUOUS
 62
     1
 10
-535.257933011651
 20
149.576038591642
 30
0.0
 11
-535.257933011651
 21
155.788541156132
 31
0.0
  0
LINE
  5
   3E0
  8
0
  6
CONTINUOUS
 62
     7
 10
-533.682933038473
 20
131.140610286211
 30
0.0
 11
-533.682933038473
 21
132.836464825812
 31
0.0
  0
LINE
  5
   3E1
  8
0
  6
CONTINUOUS
 62
     7
 10
-533.682933038473
 20
180.840609439825
 30
0.0
 11
-533.682933038473
 21
182.536466649714
 31
0.0
  0
LINE
  5
   3E2
  8
0
  6
CONTINUOUS
 62
     7
 10
-533.682933038473
 20
155.990609863018
 30
0.0
 11
-533.682933038473
 21
157.686464402619
 31
0.0
  0
LINE
  5
   3E3
  8
0
  6
CONTINUOUS
 62
     1
 10
-537.182932978869
 20
144.326036010761
 30
0.0
 11
-536.832932984829
 21
144.326036010761
 31
0.0
  0
LINE
  5
   3E4
  8
0
  6
CONTINUOUS
 62
     1
 10
-537.182932978869
 20
150.276035909433
 30
0.0
 11
-536.832932984829
 21
150.276035909433
 31
0.0
  0
LINE
  5
   3E5
  8
0
  6
CONTINUOUS
 62
     3
 10
-537.182932978869
 20
144.6760360048
 30
0.0
 11
-537.182932978869
 21
149.926035915393
 31
0.0
  0
LINE
  5
   3E6
  8
0
  6
CONTINUOUS
 62
     7
 10
-537.182932978869
 20
144.6760360048
 30
0.0
 11
-536.832932984829
 21
144.6760360048
 31
0.0
  0
LINE
  5
   3E7
  8
0
  6
CONTINUOUS
 62
     7
 10
-536.832932984829
 20
143.276036028642
 30
0.0
 11
-536.832932984829
 21
144.6760360048
 31
0.0
  0
LINE
  5
   3E8
  8
0
  6
CONTINUOUS
 62
     7
 10
-536.832932984829
 20
143.276036028642
 30
0.0
 11
-536.48293299079
 21
143.276036028642
 31
0.0
  0
LINE
  5
   3E9
  8
0
  6
CONTINUOUS
 62
     7
 10
-536.48293299079
 20
143.276036028642
 30
0.0
 11
-536.48293299079
 21
151.326035891552
 31
0.0
  0
LINE
  5
   3EA
  8
0
  6
CONTINUOUS
 62
     7
 10
-536.832932984829
 20
151.326035891552
 30
0.0
 11
-536.48293299079
 21
151.326035891552
 31
0.0
  0
LINE
  5
   3EB
  8
0
  6
CONTINUOUS
 62
     7
 10
-536.832932984829
 20
149.926035915393
 30
0.0
 11
-536.832932984829
 21
151.326035891552
 31
0.0
  0
LINE
  5
   3EC
  8
0
  6
CONTINUOUS
 62
     7
 10
-537.182932978869
 20
149.926035915393
 30
0.0
 11
-536.832932984829
 21
149.926035915393
 31
0.0
  0
LINE
  5
   3ED
  8
0
  6
CONTINUOUS
 62
     7
 10
-535.95793299973
 20
145.026108096617
 30
0.0
 11
-532.457933059335
 21
145.026108096617
 31
0.0
  0
LINE
  5
   3EE
  8
0
  6
CONTINUOUS
 62
     7
 10
-535.95793299973
 20
149.576035921354
 30
0.0
 11
-532.457933059335
 21
149.576035921354
 31
0.0
  0
LINE
  5
   3EF
  8
0
  6
CONTINUOUS
 62
     1
 10
-537.182932978869
 20
144.326038681049
 30
0.0
 11
-537.182932978869
 21
144.6760360048
 31
0.0
  0
LINE
  5
   3F0
  8
0
  6
CONTINUOUS
 62
     1
 10
-537.182932978869
 20
149.926035915393
 30
0.0
 11
-537.182932978869
 21
150.276038579721
 31
0.0
  0
LINE
  5
   3F1
  8
0
  6
CONTINUOUS
 62
     7
 10
-535.95793299973
 20
130.938537573893
 30
0.0
 11
-534.032933032513
 21
130.938537573893
 31
0.0
  0
LINE
  5
   3F2
  8
0
  6
CONTINUOUS
 62
     7
 10
-535.95793299973
 20
133.03853753813
 30
0.0
 11
-534.032933032513
 21
133.03853753813
 31
0.0
  0
LINE
  5
   3F3
  8
0
  6
CONTINUOUS
 62
     7
 10
-534.032933032513
 20
132.958611811647
 30
0.0
 11
-534.032933032513
 21
133.03853753813
 31
0.0
  0
LINE
  5
   3F4
  8
0
  6
CONTINUOUS
 62
     7
 10
-534.032933032513
 20
132.73100046451
 30
0.0
 11
-534.032933032513
 21
132.958611811647
 31
0.0
  0
LINE
  5
   3F5
  8
0
  6
CONTINUOUS
 62
     7
 10
-534.032933032513
 20
132.39035582462
 30
0.0
 11
-534.032933032513
 21
132.73100046451
 31
0.0
  0
LINE
  5
   3F6
  8
0
  6
CONTINUOUS
 62
     7
 10
-534.032933032513
 20
131.988537556011
 30
0.0
 11
-534.032933032513
 21
132.39035582462
 31
0.0
  0
LINE
  5
   3F7
  8
0
  6
CONTINUOUS
 62
     7
 10
-534.032933032513
 20
131.586720622547
 30
0.0
 11
-534.032933032513
 21
131.988537556011
 31
0.0
  0
LINE
  5
   3F8
  8
0
  6
CONTINUOUS
 62
     7
 10
-534.032933032513
 20
131.246075982657
 30
0.0
 11
-534.032933032513
 21
131.586720622547
 31
0.0
  0
LINE
  5
   3F9
  8
0
  6
CONTINUOUS
 62
     7
 10
-534.032933032513
 20
131.01846463552
 30
0.0
 11
-534.032933032513
 21
131.246075982657
 31
0.0
  0
LINE
  5
   3FA
  8
0
  6
CONTINUOUS
 62
     7
 10
-534.032933032513
 20
130.938537573893
 30
0.0
 11
-534.032933032513
 21
131.01846463552
 31
0.0
  0
LINE
  5
   3FB
  8
0
  6
CONTINUOUS
 62
     7
 10
-534.032932613
 20
130.938537284827
 30
0.0
 11
-533.682932607435
 21
131.140609985965
 31
0.0
  0
LINE
  5
   3FC
  8
0
  6
CONTINUOUS
 62
     7
 10
-534.032932290478
 20
133.038536896154
 30
0.0
 11
-533.682932284913
 21
132.836464195015
 31
0.0
  0
LINE
  5
   3FD
  8
0
  6
CONTINUOUS
 62
     7
 10
-535.95793299973
 20
180.638538062651
 30
0.0
 11
-534.032933032513
 21
180.638538062651
 31
0.0
  0
LINE
  5
   3FE
  8
0
  6
CONTINUOUS
 62
     7
 10
-535.95793299973
 20
182.738538026888
 30
0.0
 11
-534.032933032513
 21
182.738538026888
 31
0.0
  0
LINE
  5
   3FF
  8
0
  6
CONTINUOUS
 62
     7
 10
-534.032933032513
 20
182.658610965261
 30
0.0
 11
-534.032933032513
 21
182.738538026888
 31
0.0
  0
LINE
  5
   400
  8
0
  6
CONTINUOUS
 62
     7
 10
-534.032933032513
 20
182.431000953268
 30
0.0
 11
-534.032933032513
 21
182.658610965261
 31
0.0
  0
LINE
  5
   401
  8
0
  6
CONTINUOUS
 62
     7
 10
-534.032933032513
 20
182.090352307946
 30
0.0
 11
-534.032933032513
 21
182.431000953268
 31
0.0
  0
LINE
  5
   402
  8
0
  6
CONTINUOUS
 62
     7
 10
-534.032933032513
 20
181.688538044769
 30
0.0
 11
-534.032933032513
 21
182.090352307946
 31
0.0
  0
LINE
  5
   403
  8
0
  6
CONTINUOUS
 62
     7
 10
-534.032933032513
 20
181.286718441017
 30
0.0
 11
-534.032933032513
 21
181.688538044769
 31
0.0
  0
LINE
  5
   404
  8
0
  6
CONTINUOUS
 62
     7
 10
-534.032933032513
 20
180.946075136271
 30
0.0
 11
-534.032933032513
 21
181.286718441017
 31
0.0
  0
LINE
  5
   405
  8
0
  6
CONTINUOUS
 62
     7
 10
-534.032933032513
 20
180.718465124278
 30
0.0
 11
-534.032933032513
 21
180.946075136271
 31
0.0
  0
LINE
  5
   406
  8
0
  6
CONTINUOUS
 62
     7
 10
-534.032933032513
 20
180.638538062651
 30
0.0
 11
-534.032933032513
 21
180.718465124278
 31
0.0
  0
LINE
  5
   407
  8
0
  6
CONTINUOUS
 62
     7
 10
-534.032933096007
 20
180.638537311854
 30
0.0
 11
-533.682933090443
 21
180.840608691561
 31
0.0
  0
LINE
  5
   408
  8
0
  6
CONTINUOUS
 62
     7
 10
-534.032932529592
 20
182.738537142582
 30
0.0
 11
-533.682932524028
 21
182.536465762874
 31
0.0
  0
LINE
  5
   409
  8
0
  6
CONTINUOUS
 62
     7
 10
-535.95793299973
 20
155.788538485844
 30
0.0
 11
-534.032933032513
 21
155.788538485844
 31
0.0
  0
LINE
  5
   40A
  8
0
  6
CONTINUOUS
 62
     7
 10
-535.95793299973
 20
157.888538450081
 30
0.0
 11
-534.032933032513
 21
157.888538450081
 31
0.0
  0
LINE
  5
   40B
  8
0
  6
CONTINUOUS
 62
     7
 10
-534.032933032513
 20
157.808611388454
 30
0.0
 11
-534.032933032513
 21
157.888538450081
 31
0.0
  0
LINE
  5
   40C
  8
0
  6
CONTINUOUS
 62
     7
 10
-534.032933032513
 20
157.580998706173
 30
0.0
 11
-534.032933032513
 21
157.808611388454
 31
0.0
  0
LINE
  5
   40D
  8
0
  6
CONTINUOUS
 62
     7
 10
-534.032933032513
 20
157.240355401427
 30
0.0
 11
-534.032933032513
 21
157.580998706173
 31
0.0
  0
LINE
  5
   40E
  8
0
  6
CONTINUOUS
 62
     7
 10
-534.032933032513
 20
156.838538467962
 30
0.0
 11
-534.032933032513
 21
157.240355401427
 31
0.0
  0
LINE
  5
   40F
  8
0
  6
CONTINUOUS
 62
     7
 10
-534.032933032513
 20
156.43671886421
 30
0.0
 11
-534.032933032513
 21
156.838538467962
 31
0.0
  0
LINE
  5
   410
  8
0
  6
CONTINUOUS
 62
     7
 10
-534.032933032513
 20
156.096075559464
 30
0.0
 11
-534.032933032513
 21
156.43671886421
 31
0.0
  0
LINE
  5
   411
  8
0
  6
CONTINUOUS
 62
     7
 10
-534.032933032513
 20
155.868462877183
 30
0.0
 11
-534.032933032513
 21
156.096075559464
 31
0.0
  0
LINE
  5
   412
  8
0
  6
CONTINUOUS
 62
     7
 10
-534.032933032513
 20
155.788538485844
 30
0.0
 11
-534.032933032513
 21
155.868462877183
 31
0.0
  0
LINE
  5
   413
  8
0
  6
CONTINUOUS
 62
     7
 10
-534.032932984907
 20
155.788538055767
 30
0.0
 11
-533.682932979343
 21
155.990609435475
 31
0.0
  0
LINE
  5
   414
  8
0
  6
CONTINUOUS
 62
     7
 10
-534.032932484177
 20
157.888537661365
 30
0.0
 11
-533.682932478614
 21
157.686463614703
 31
0.0
  0
LINE
  5
   415
  8
0
  6
CONTINUOUS
 62
     7
 10
-535.95793299973
 20
133.21353753515
 30
0.0
 11
-535.257934346795
 21
133.21353753515
 31
0.0
  0
LINE
  5
   416
  8
0
  6
CONTINUOUS
 62
     7
 10
-535.95793299973
 20
130.763537576873
 30
0.0
 11
-535.257934346795
 21
130.763537576873
 31
0.0
  0
LINE
  5
   417
  8
0
  6
CONTINUOUS
 62
     7
 10
-535.257934346795
 20
133.03853753813
 30
0.0
 11
-535.257934346795
 21
145.026041339416
 31
0.0
  0
LINE
  5
   418
  8
0
  6
CONTINUOUS
 62
     7
 10
-535.95793299973
 20
144.676108102577
 30
0.0
 11
-535.257933011651
 21
144.676108102577
 31
0.0
  0
LINE
  5
   419
  8
0
  6
CONTINUOUS
 62
     7
 10
-535.95793299973
 20
149.926035915393
 30
0.0
 11
-535.257933011651
 21
149.926035915393
 31
0.0
  0
LINE
  5
   41A
  8
0
  6
CONTINUOUS
 62
     7
 10
-535.95793299973
 20
158.063538447101
 30
0.0
 11
-535.257933011651
 21
158.063538447101
 31
0.0
  0
LINE
  5
   41B
  8
0
  6
CONTINUOUS
 62
     7
 10
-535.95793299973
 20
155.613538488824
 30
0.0
 11
-535.257933011651
 21
155.613538488824
 31
0.0
  0
LINE
  5
   41C
  8
0
  6
CONTINUOUS
 62
     7
 10
-535.257934346795
 20
182.738538026888
 30
0.0
 11
-535.257934346795
 21
198.531230431612
 31
0.0
  0
LINE
  5
   41D
  8
0
  6
CONTINUOUS
 62
     7
 10
-535.95793299973
 20
182.913538023908
 30
0.0
 11
-535.257934346795
 21
182.913538023908
 31
0.0
  0
LINE
  5
   41E
  8
0
  6
CONTINUOUS
 62
     7
 10
-535.95793299973
 20
180.463538065631
 30
0.0
 11
-535.257934346795
 21
180.463538065631
 31
0.0
  0
INSERT
  5
   41F
  8
0
  6
CONTINUOUS
 62
     7
  2
*HATCH91
 10
-522.132934570313
 20
118.343132019043
 30
0.0
 41
0.349999994039536
 42
0.349999994039536
 43
0.349999994039536
  0
INSERT
  5
   420
  8
0
  6
CONTINUOUS
 62
     7
  2
*HATCH92
 10
-522.132934570313
 20
118.343132019043
 30
0.0
 41
0.349999994039536
 42
0.349999994039536
 43
0.349999994039536
  0
INSERT
  5
   421
  8
0
  6
CONTINUOUS
 62
     7
  2
*HATCH93
 10
-522.132934570313
 20
118.343132019043
 30
0.0
 41
0.349999994039536
 42
0.349999994039536
 43
0.349999994039536
  0
INSERT
  5
   422
  8
0
  6
CONTINUOUS
 62
     7
  2
*HATCH94
 10
-522.132934570313
 20
118.343132019043
 30
0.0
 41
0.349999994039536
 42
0.349999994039536
 43
0.349999994039536
  0
INSERT
  5
   423
  8
0
  6
CONTINUOUS
 62
     7
  2
*HATCH95
 10
-522.132934570313
 20
118.343132019043
 30
0.0
 41
0.349999994039536
 42
0.349999994039536
 43
0.349999994039536
  0
CIRCLE
  5
   424
  8
0
  6
CONTINUOUS
 62
     7
 10
-535.816749569669
 20
106.552064634728
 30
0.0
 40
8.74999985098839E-2
  0
LINE
  5
   425
  8
0
  6
CONTINUOUS
 62
     3
 10
-534.032933032513
 20
175.213602241951
 30
0.0
 11
-534.032933032513
 21
177.663602200228
 31
0.0
  0
LINE
  5
   426
  8
0
  6
CONTINUOUS
 62
     3
 10
-533.332933044434
 20
175.213602241951
 30
0.0
 11
-533.332933044434
 21
177.663602200228
 31
0.0
  0
LINE
  5
   427
  8
0
  6
CONTINUOUS
 62
     3
 10
-534.032933032513
 20
177.663602200228
 30
0.0
 11
-533.332933044434
 21
177.663602200228
 31
0.0
  0
LINE
  5
   428
  8
0
  6
CONTINUOUS
 62
     7
 10
-532.807937058806
 20
175.73860223301
 30
0.0
 11
-531.932935070992
 21
175.73860223301
 31
0.0
  0
LINE
  5
   429
  8
0
  6
CONTINUOUS
 62
     7
 10
-531.932935070992
 20
175.73860223301
 30
0.0
 11
-531.932935070992
 21
179.413602170425
 31
0.0
  0
LINE
  5
   42A
  8
0
  6
CONTINUOUS
 62
     7
 10
-534.032937037945
 20
180.638602149564
 30
0.0
 11
-533.157937052846
 21
180.638602149564
 31
0.0
  0
LINE
  5
   42B
  8
0
  6
CONTINUOUS
 62
     7
 10
-534.382937031984
 20
182.738538026888
 30
0.0
 11
-534.382937031984
 21
183.788602095919
 31
0.0
  0
LINE
  5
   42C
  8
0
  6
CONTINUOUS
 62
     7
 10
-535.257934346795
 20
183.788602095919
 30
0.0
 11
-534.382937031984
 21
183.788602095919
 31
0.0
  0
LINE
  5
   42D
  8
0
  6
CONTINUOUS
 62
     7
 10
-534.032937037945
 20
179.763602164465
 30
0.0
 11
-533.157937052846
 21
179.763602164465
 31
0.0
  0
LINE
  5
   42E
  8
0
  6
CONTINUOUS
 62
     7
 10
-532.807937058806
 20
175.73860223301
 30
0.0
 11
-532.807937058806
 21
179.413602170425
 31
0.0
  0
ARC
  5
   42F
  8
0
  6
CONTINUOUS
 62
     7
 10
-533.157942181573
 20
179.413597730219
 30
0.0
 40
1.2250064377287
 50
3.19294623689722E-4
 51
89.999813109828
  0
ARC
  5
   430
  8
0
  6
CONTINUOUS
 62
     7
 10
-533.157921565994
 20
179.413616483599
 30
0.0
 40
0.349982431475061
 50
359.99883018406
 51
450.002235801278
  0
ARC
  5
   431
  8
0
  6
CONTINUOUS
 62
     7
 10
-534.032943811278
 20
180.988590927176
 30
0.0
 40
1.22498984871903
 50
196.604271334185
 51
270.000346600662
  0
LINE
  5
   432
  8
0
  6
CONTINUOUS
 62
     7
 10
-532.807937058806
 20
178.888602179366
 30
0.0
 11
-531.932935070992
 21
178.888602179366
 31
0.0
  0
INSERT
  5
   433
  8
0
  6
CONTINUOUS
 62
     7
  2
*HATCH96
 10
-522.132934570313
 20
118.343132019043
 30
0.0
 41
0.349999994039536
 42
0.349999994039536
 43
0.349999994039536
  0
LINE
  5
   434
  8
0
  6
DOT
 62
     3
 10
-546.807932814956
 20
138.463585510927
 30
0.0
 11
-546.807932814956
 21
175.213602241951
 31
0.0
  0
LINE
  5
   435
  8
0
  6
DOT
 62
     3
 10
-546.807932814956
 20
175.213602241951
 30
0.0
 11
-540.223039113784
 21
175.213602241951
 31
0.0
  0
LINE
  5
   436
  8
0
  6
DOT
 62
     3
 10
-546.807932814956
 20
138.463585510927
 30
0.0
 11
-540.957989569124
 21
138.463585510927
 31
0.0
  0
LINE
  5
   437
  8
0
  6
CONTINUOUS
 62
     3
 10
-466.307935521007
 20
178.451086165088
 30
0.0
 11
-466.307935521007
 21
181.251086117405
 31
0.0
  0
LINE
  5
   438
  8
0
  6
CONTINUOUS
 62
     3
 10
-464.907935544848
 20
178.976086156148
 30
0.0
 11
-464.907935544848
 21
180.726086126345
 31
0.0
  0
LINE
  5
   439
  8
0
  6
CONTINUOUS
 62
     3
 10
-467.707935497165
 20
181.251086117405
 30
0.0
 11
-466.307935521007
 21
181.251086117405
 31
0.0
  0
LINE
  5
   43A
  8
0
  6
CONTINUOUS
 62
     3
 10
-467.707935497165
 20
178.451086165088
 30
0.0
 11
-466.307935521007
 21
178.451086165088
 31
0.0
  0
LINE
  5
   43B
  8
0
  6
CONTINUOUS
 62
     3
 10
-467.707935497165
 20
180.726086126345
 30
0.0
 11
-464.907935544848
 21
180.726086126345
 31
0.0
  0
LINE
  5
   43C
  8
0
  6
CONTINUOUS
 62
     3
 10
-467.707935497165
 20
178.976086156148
 30
0.0
 11
-464.907935544848
 21
178.976086156148
 31
0.0
  0
LINE
  5
   43D
  8
0
  6
CONTINUOUS
 62
     3
 10
-467.707935497165
 20
134.001086922067
 30
0.0
 11
-466.307935521007
 21
134.001086922067
 31
0.0
  0
LINE
  5
   43E
  8
0
  6
CONTINUOUS
 62
     3
 10
-467.707935497165
 20
133.476086931008
 30
0.0
 11
-464.907935544848
 21
133.476086931008
 31
0.0
  0
LINE
  5
   43F
  8
0
  6
CONTINUOUS
 62
     3
 10
-467.707935497165
 20
131.72608696081
 30
0.0
 11
-464.907935544848
 21
131.72608696081
 31
0.0
  0
LINE
  5
   440
  8
0
  6
CONTINUOUS
 62
     3
 10
-467.707935497165
 20
131.201086969751
 30
0.0
 11
-466.307935521007
 21
131.201086969751
 31
0.0
  0
LINE
  5
   441
  8
0
  6
CONTINUOUS
 62
     3
 10
-466.307935521007
 20
131.201086969751
 30
0.0
 11
-466.307935521007
 21
134.001086922067
 31
0.0
  0
LINE
  5
   442
  8
0
  6
CONTINUOUS
 62
     3
 10
-464.907935544848
 20
131.72608696081
 30
0.0
 11
-464.907935544848
 21
133.476086931008
 31
0.0
  0
LINE
  5
   443
  8
0
  6
CONTINUOUS
 62
     3
 10
-468.757935479283
 20
208.726101671236
 30
0.0
 11
-467.707935497165
 21
208.726101671236
 31
0.0
  0
LINE
  5
   444
  8
0
  6
CONTINUOUS
 62
     3
 10
-468.757935479283
 20
185.976102058667
 30
0.0
 11
-467.707935497165
 21
185.976102058667
 31
0.0
  0
LINE
  5
   445
  8
0
  6
CONTINUOUS
 62
   210
 10
-486.082950412438
 20
121.576114504116
 30
0.0
 11
-486.082950412438
 21
132.513573595959
 31
0.0
  0
LINE
  5
   446
  8
0
  6
CONTINUOUS
 62
   210
 10
-486.082955853059
 20
183.176080744046
 30
0.0
 11
-486.082955853059
 21
185.626102064627
 31
0.0
  0
LINE
  5
   447
  8
0
  6
CONTINUOUS
 62
   210
 10
-473.132954096794
 20
125.776105754155
 30
0.0
 11
-473.132954096794
 21
134.175994057617
 31
0.0
  0
LINE
  5
   448
  8
0
  6
CONTINUOUS
 62
   210
 10
-473.132954096794
 20
183.176080744046
 30
0.0
 11
-473.132954096794
 21
186.676102046746
 31
0.0
  0
LINE
  5
   449
  8
0
  6
CONTINUOUS
 62
   210
 10
-470.157936242042
 20
144.676100091713
 30
0.0
 11
-469.457954159379
 21
144.676100091713
 31
0.0
  0
LINE
  5
   44A
  8
0
  6
CONTINUOUS
 62
   210
 10
-470.15793653184
 20
147.12610004999
 30
0.0
 11
-469.457954159379
 21
147.12610004999
 31
0.0
  0
LINE
  5
   44B
  8
0
  6
CONTINUOUS
 62
   210
 10
-469.457954159379
 20
144.676100091713
 30
0.0
 11
-469.457954159379
 21
147.12610004999
 31
0.0
  0
LINE
  5
   44C
  8
0
  6
CONTINUOUS
 62
   210
 10
-468.7579541713
 20
177.226107548254
 30
0.0
 11
-468.7579541713
 21
182.476107458847
 31
0.0
  0
LINE
  5
   44D
  8
0
  6
CONTINUOUS
 62
   210
 10
-468.7579541713
 20
129.976109688061
 30
0.0
 11
-468.7579541713
 21
135.226109598654
 31
0.0
  0
LINE
  5
   44E
  8
0
  6
CONTINUOUS
 62
   210
 10
-470.157940713221
 20
182.476107458847
 30
0.0
 11
-468.7579541713
 21
182.476107458847
 31
0.0
  0
LINE
  5
   44F
  8
0
  6
CONTINUOUS
 62
   210
 10
-470.157940092224
 20
177.226107548254
 30
0.0
 11
-468.7579541713
 21
177.226107548254
 31
0.0
  0
LINE
  5
   450
  8
0
  6
CONTINUOUS
 62
   210
 10
-470.157939339304
 20
135.226109598654
 30
0.0
 11
-468.7579541713
 21
135.226109598654
 31
0.0
  0
LINE
  5
   451
  8
0
  6
CONTINUOUS
 62
   210
 10
-473.132954096794
 20
129.976109688061
 30
0.0
 11
-468.7579541713
 21
129.976109688061
 31
0.0
  0
LINE
  5
   452
  8
0
  6
DASHDOT
 62
   210
 10
-477.332953905416
 20
105.026043096095
 30
0.0
 11
-477.332953905416
 21
141.963609960444
 31
0.0
  0
LINE
  5
   453
  8
0
  6
DASHDOT
 62
   210
 10
-479.170453650855
 20
140.126110215005
 30
0.0
 11
-475.495454159977
 21
140.126110215005
 31
0.0
  0
LINE
  5
   454
  8
0
  6
DASHDOT
 62
   210
 10
-477.332951169207
 20
142.155636881494
 30
0.0
 11
-477.332951169207
 21
206.367993192712
 31
0.0
  0
LINE
  5
   455
  8
0
  6
DASHDOT
 62
   210
 10
-479.170454165667
 20
175.126110394908
 30
0.0
 11
-475.495448172747
 21
175.126110394908
 31
0.0
  0
LINE
  5
   456
  8
0
  6
DASHDOT
 62
   210
 10
-474.440530833511
 20
179.851107503551
 30
0.0
 11
-465.957576082606
 21
179.851107503551
 31
0.0
  0
LINE
  5
   457
  8
0
  6
DASHDOT
 62
   210
 10
-475.782222656358
 20
132.601109643358
 30
0.0
 11
-467.255987524071
 21
132.601109643358
 31
0.0
  0
LINE
  5
   458
  8
0
  6
CONTINUOUS
 62
   210
 10
-486.082950388831
 20
183.876110245896
 30
0.0
 11
-473.132954096794
 21
183.876110245896
 31
0.0
  0
LINE
  5
   459
  8
0
  6
CONTINUOUS
 62
   210
 10
-486.082952452104
 20
131.376110364016
 30
0.0
 11
-473.132954096794
 21
131.376110364016
 31
0.0
  0
LINE
  5
   45A
  8
0
  6
CONTINUOUS
 62
   210
 10
-486.082953189088
 20
108.976107375401
 30
0.0
 11
-469.107948824763
 21
108.976107375401
 31
0.0
  0
LINE
  5
   45B
  8
0
  6
CONTINUOUS
 62
   210
 10
-486.082953876257
 20
112.756109714287
 30
0.0
 11
-469.107948824763
 21
112.756109714287
 31
0.0
  0
LINE
  5
   45C
  8
0
  6
CONTINUOUS
 62
   210
 10
-486.082953876257
 20
199.696106097477
 30
0.0
 11
-469.107948824763
 21
199.696106097477
 31
0.0
  0
LINE
  5
   45D
  8
0
  6
CONTINUOUS
 62
   210
 10
-469.107948824763
 20
108.976107375401
 30
0.0
 11
-469.107948824763
 21
125.776105754155
 31
0.0
  0
LINE
  5
   45E
  8
0
  6
CONTINUOUS
 62
   210
 10
-469.107948824763
 20
186.676102046746
 30
0.0
 11
-469.107948824763
 21
203.476101760643
 31
0.0
  0
LINE
  5
   45F
  8
0
  6
CONTINUOUS
 62
   210
 10
-473.132954096794
 20
125.776105754155
 30
0.0
 11
-469.107948824763
 21
125.776105754155
 31
0.0
  0
LINE
  5
   460
  8
0
  6
CONTINUOUS
 62
   210
 10
-473.132954096794
 20
186.676102046746
 30
0.0
 11
-469.107948824763
 21
186.676102046746
 31
0.0
  0
LINE
  5
   461
  8
0
  6
CONTINUOUS
 62
   210
 10
-469.107951495051
 20
186.676102046746
 30
0.0
 11
-462.632954275608
 21
186.676102046746
 31
0.0
  0
LINE
  5
   462
  8
0
  6
CONTINUOUS
 62
   210
 10
-469.107951495051
 20
203.476101760643
 30
0.0
 11
-467.357952859998
 21
203.476101760643
 31
0.0
  0
LINE
  5
   463
  8
0
  6
CONTINUOUS
 62
   210
 10
-467.357954195141
 20
186.676102046746
 30
0.0
 11
-467.357954195141
 21
190.432823479351
 31
0.0
  0
LINE
  5
   464
  8
0
  6
CONTINUOUS
 62
   210
 10
-467.357983116332
 20
199.719374987473
 30
0.0
 11
-467.357983116332
 21
203.476101760654
 31
0.0
  0
LINE
  5
   465
  8
0
  6
CONTINUOUS
 62
   210
 10
-462.632954275608
 20
186.676102046746
 30
0.0
 11
-462.632954275608
 21
203.476096420067
 31
0.0
  0
LINE
  5
   466
  8
0
  6
CONTINUOUS
 62
   210
 10
-469.107951494777
 20
125.776103083871
 30
0.0
 11
-462.632954274677
 21
125.776095673814
 31
0.0
  0
LINE
  5
   467
  8
0
  6
CONTINUOUS
 62
   210
 10
-469.107951494746
 20
108.97610403753
 30
0.0
 11
-467.357954194996
 21
108.976101367242
 31
0.0
  0
LINE
  5
   468
  8
0
  6
CONTINUOUS
 62
   210
 10
-467.357954195141
 20
108.976101367253
 30
0.0
 11
-467.357954195141
 21
112.732826137718
 31
0.0
  0
LINE
  5
   469
  8
0
  6
CONTINUOUS
 62
   210
 10
-467.357954195141
 20
122.019377312043
 30
0.0
 11
-467.357954195141
 21
125.77610108115
 31
0.0
  0
LINE
  5
   46A
  8
0
  6
CONTINUOUS
 62
   210
 10
-462.632954275608
 20
108.976099364537
 30
0.0
 11
-462.632954275608
 21
125.776095673814
 31
0.0
  0
LINE
  5
   46B
  8
0
  6
CONTINUOUS
 62
   210
 10
-467.357952859998
 20
203.476096420067
 30
0.0
 11
-462.632954275608
 21
203.476096420067
 31
0.0
  0
LINE
  5
   46C
  8
0
  6
CONTINUOUS
 62
   210
 10
-467.357954195141
 20
190.432823479351
 30
0.0
 11
-462.632954275608
 21
190.432823479351
 31
0.0
  0
LINE
  5
   46D
  8
0
  6
CONTINUOUS
 62
   210
 10
-467.357954195141
 20
199.719374987462
 30
0.0
 11
-462.632954275608
 21
199.719374987462
 31
0.0
  0
LINE
  5
   46E
  8
0
  6
CONTINUOUS
 62
   210
 10
-467.357954195141
 20
108.976099364537
 30
0.0
 11
-462.632954275608
 21
108.976099364537
 31
0.0
  0
LINE
  5
   46F
  8
0
  6
CONTINUOUS
 62
   210
 10
-467.357954195141
 20
112.732826137718
 30
0.0
 11
-462.632954275608
 21
112.732826137718
 31
0.0
  0
LINE
  5
   470
  8
0
  6
CONTINUOUS
 62
   210
 10
-467.357954195141
 20
122.019377312043
 30
0.0
 11
-462.632954275608
 21
122.019377312043
 31
0.0
  0
LINE
  5
   471
  8
0
  6
DASHDOT
 62
   210
 10
-487.755600710861
 20
195.076101903695
 30
0.0
 11
-460.990533692485
 21
195.076101903695
 31
0.0
  0
LINE
  5
   472
  8
0
  6
DASHDOT
 62
   210
 10
-487.811712654249
 20
117.376128203221
 30
0.0
 11
-460.653866617776
 21
117.376097123485
 31
0.0
  0
LINE
  5
   473
  8
0
  6
CONTINUOUS
 62
   210
 10
-486.082953876257
 20
203.47609619036
 30
0.0
 11
-469.107948824761
 21
203.47609619036
 31
0.0
  0
LINE
  5
   474
  8
0
  6
CONTINUOUS
 62
   210
 10
-486.082952791452
 20
185.626102064627
 30
0.0
 11
-485.382952219248
 21
185.626102064627
 31
0.0
  0
LINE
  5
   475
  8
0
  6
CONTINUOUS
 62
   210
 10
-486.082952791452
 20
190.87610197522
 30
0.0
 11
-485.382952219248
 21
190.87610197522
 31
0.0
  0
LINE
  5
   476
  8
0
  6
CONTINUOUS
 62
   210
 10
-485.382952219248
 20
185.626102064627
 30
0.0
 11
-485.382952219248
 21
190.87610197522
 31
0.0
  0
LINE
  5
   477
  8
0
  6
CONTINUOUS
 62
   210
 10
-485.382952135801
 20
199.696090075749
 30
0.0
 11
-485.382952135801
 21
203.476096420067
 31
0.0
  0
LINE
  5
   478
  8
0
  6
CONTINUOUS
 62
   210
 10
-486.082952791452
 20
126.826114414709
 30
0.0
 11
-485.382952135801
 21
126.826114414709
 31
0.0
  0
LINE
  5
   479
  8
0
  6
CONTINUOUS
 62
   210
 10
-486.082952791452
 20
121.576114504116
 30
0.0
 11
-485.382952135801
 21
121.576114504116
 31
0.0
  0
LINE
  5
   47A
  8
0
  6
CONTINUOUS
 62
   210
 10
-485.382952052355
 20
108.976112715977
 30
0.0
 11
-485.382952052355
 21
112.756111383217
 31
0.0
  0
LINE
  5
   47B
  8
0
  6
CONTINUOUS
 62
   210
 10
-485.382952135801
 20
121.57611417033
 30
0.0
 11
-485.382952135801
 21
126.826114414709
 31
0.0
  0
LINE
  5
   47C
  8
0
  6
CONTINUOUS
 62
   210
 10
-486.082953876257
 20
185.626102064627
 30
0.0
 11
-486.082953876257
 21
203.47609619036
 31
0.0
  0
LINE
  5
   47D
  8
0
  6
CONTINUOUS
 62
   210
 10
-486.082953189088
 20
108.976107375401
 30
0.0
 11
-486.082953189088
 21
121.576114504116
 31
0.0
  0
LINE
  5
   47E
  8
0
  6
CONTINUOUS
 62
     3
 10
-468.757935479283
 20
126.476106242904
 30
0.0
 11
-467.707935497165
 21
126.476105041273
 31
0.0
  0
LINE
  5
   47F
  8
0
  6
DASHDOT
 62
     7
 10
-475.681656053957
 20
195.075955039368
 30
0.0
 11
-467.062056138934
 21
195.075955039368
 31
0.0
  0
LINE
  5
   480
  8
0
  6
DASHDOT
 62
     7
 10
-475.681656053957
 20
117.376240745236
 30
0.0
 11
-467.062056138934
 21
117.376240745236
 31
0.0
  0
LINE
  5
   481
  8
0
  6
CONTINUOUS
 62
     3
 10
-468.757940686353
 20
103.726106630325
 30
0.0
 11
-467.707940704234
 21
103.726105428694
 31
0.0
  0
LINE
  5
   482
  8
0
  6
CONTINUOUS
 62
   130
 10
-462.632954275608
 20
188.076086764115
 30
0.0
 11
-446.882954543829
 21
188.076086764115
 31
0.0
  0
LINE
  5
   483
  8
0
  6
CONTINUOUS
 62
   130
 10
-446.882954543829
 20
188.076086764115
 30
0.0
 11
-446.882954543829
 21
202.076086525696
 31
0.0
  0
LINE
  5
   484
  8
0
  6
CONTINUOUS
 62
   130
 10
-462.632954275608
 20
202.076086525696
 30
0.0
 11
-446.882954543829
 21
202.076086525696
 31
0.0
  0
CIRCLE
  5
   485
  8
0
  6
CONTINUOUS
 62
   130
 10
-453.882951733256
 20
195.07608662383
 30
0.0
 40
1.92499634938196
  0
LINE
  5
   486
  8
0
  6
CONTINUOUS
 62
     7
 10
-429.907954832911
 20
188.076086764115
 30
0.0
 11
-429.907954832911
 21
202.076086525696
 31
0.0
  0
LINE
  5
   487
  8
0
  6
CONTINUOUS
 62
     7
 10
-446.882954543829
 20
202.076086525696
 30
0.0
 11
-429.907954832911
 21
202.076086525696
 31
0.0
  0
LINE
  5
   488
  8
0
  6
CONTINUOUS
 62
     7
 10
-446.882954543829
 20
188.076086764115
 30
0.0
 11
-429.907954832911
 21
188.076086764115
 31
0.0
  0
CIRCLE
  5
   489
  8
0
  6
CONTINUOUS
 62
     7
 10
-436.907952022339
 20
195.07608662383
 30
0.0
 40
1.92499634938196
  0
LINE
  5
   48A
  8
0
  6
DASHDOT
 62
    90
 10
-453.882951733256
 20
192.10109029233
 30
0.0
 11
-453.882951733256
 21
198.051082955331
 31
0.0
  0
LINE
  5
   48B
  8
0
  6
DASHDOT
 62
     7
 10
-456.857948064757
 20
195.07608662383
 30
0.0
 11
-450.907955401756
 21
195.07608662383
 31
0.0
  0
LINE
  5
   48C
  8
0
  6
DASHDOT
 62
     7
 10
-436.907952022339
 20
192.10109029233
 30
0.0
 11
-436.907952022339
 21
198.051082955331
 31
0.0
  0
LINE
  5
   48D
  8
0
  6
DASHDOT
 62
     7
 10
-439.88294835384
 20
195.07608662383
 30
0.0
 11
-433.932955690838
 21
195.07608662383
 31
0.0
  0
LINE
  5
   48E
  8
0
  6
CONTINUOUS
 62
   130
 10
-462.632954275608
 20
110.376084248795
 30
0.0
 11
-446.882954543829
 21
110.376084248795
 31
0.0
  0
CIRCLE
  5
   48F
  8
0
  6
CONTINUOUS
 62
   130
 10
-453.882951733256
 20
117.376084108511
 30
0.0
 40
1.92499634938196
  0
LINE
  5
   490
  8
0
  6
DASHDOT
 62
    90
 10
-453.882951733256
 20
114.40108777701
 30
0.0
 11
-453.882951733256
 21
120.351080440011
 31
0.0
  0
LINE
  5
   491
  8
0
  6
DASHDOT
 62
     7
 10
-456.857948064757
 20
117.376084108511
 30
0.0
 11
-450.907955401756
 21
117.376084108511
 31
0.0
  0
LINE
  5
   492
  8
0
  6
CONTINUOUS
 62
   130
 10
-462.632954275608
 20
124.376084010376
 30
0.0
 11
-446.882954543829
 21
124.376084010376
 31
0.0
  0
LINE
  5
   493
  8
0
  6
CONTINUOUS
 62
   130
 10
-446.882954543829
 20
110.376084248795
 30
0.0
 11
-446.882954543829
 21
124.376084010376
 31
0.0
  0
LINE
  5
   494
  8
0
  6
CONTINUOUS
 62
     7
 10
-446.882954543829
 20
110.376084248795
 30
0.0
 11
-429.907954832911
 21
110.376084248795
 31
0.0
  0
CIRCLE
  5
   495
  8
0
  6
CONTINUOUS
 62
     7
 10
-436.907952022339
 20
117.376084108511
 30
0.0
 40
1.92499634938196
  0
LINE
  5
   496
  8
0
  6
DASHDOT
 62
     7
 10
-436.907952022339
 20
114.40108777701
 30
0.0
 11
-436.907952022339
 21
120.351080440011
 31
0.0
  0
LINE
  5
   497
  8
0
  6
DASHDOT
 62
     7
 10
-439.88294835384
 20
117.376084108511
 30
0.0
 11
-433.932955690838
 21
117.376084108511
 31
0.0
  0
LINE
  5
   498
  8
0
  6
CONTINUOUS
 62
     7
 10
-429.907954832911
 20
110.376084248795
 30
0.0
 11
-429.907954832911
 21
124.376084010376
 31
0.0
  0
LINE
  5
   499
  8
0
  6
CONTINUOUS
 62
     7
 10
-446.882954543829
 20
124.376084010376
 30
0.0
 11
-429.907954832911
 21
124.376084010376
 31
0.0
  0
INSERT
  5
   49A
  8
0
  6
CONTINUOUS
 62
     7
  2
*UDIM455
 10
0.0
 20
0.0
 30
0.0
  0
INSERT
  5
   49B
  8
0
  6
CONTINUOUS
 62
     7
  2
*UDIM456
 10
0.0
 20
0.0
 30
0.0
  0
INSERT
  5
   49C
  8
0
  6
CONTINUOUS
 62
     7
  2
*UDIM457
 10
0.0
 20
0.0
 30
0.0
  0
INSERT
  5
   49D
  8
0
  6
CONTINUOUS
 62
     7
  2
*UDIM458
 10
0.0
 20
0.0
 30
0.0
  0
INSERT
  5
   49E
  8
0
  6
CONTINUOUS
 62
     7
  2
*UDIM459
 10
0.0
 20
0.0
 30
0.0
  0
INSERT
  5
   49F
  8
0
  6
CONTINUOUS
 62
     7
  2
*UDIM460
 10
0.0
 20
0.0
 30
0.0
  0
INSERT
  5
   4A0
  8
0
  6
CONTINUOUS
 62
     7
  2
*UDIM461
 10
0.0
 20
0.0
 30
0.0
  0
INSERT
  5
   4A1
  8
0
  6
CONTINUOUS
 62
     7
  2
*UDIM462
 10
0.0
 20
0.0
 30
0.0
  0
INSERT
  5
   4A2
  8
0
  6
CONTINUOUS
 62
     7
  2
*UDIM463
 10
0.0
 20
0.0
 30
0.0
  0
INSERT
  5
   4A3
  8
0
  6
CONTINUOUS
 62
     7
  2
*UDIM464
 10
0.0
 20
0.0
 30
0.0
  0
TEXT
  5
   4A4
  8
0
  6
CONTINUOUS
 62
     7
 10
-560.682460336009
 20
215.969850073449
 30
0.0
 40
2.4999999335834
  1
INSULATING DISTANCE
 50
360.0
 41
0.899999947857856
 72
     1
 11
-539.53246212659
 21
217.219850040347
 31
0.0
 73
     2
  0
TEXT
  5
   4A5
  8
0
  6
CONTINUOUS
 62
     7
 10
-562.932460298869
 20
212.469850073438
 30
0.0
 40
2.4999999335834
  1
CORSA DI SEZIONAMENTO
 50
360.0
 41
0.899999947857856
 72
     1
 11
-539.53246227958
 21
213.719850040347
 31
0.0
 73
     2
  0
INSERT
  5
   4A6
  8
0
  6
CONTINUOUS
 62
     7
  2
*UDIM465
 10
0.0
 20
0.0
 30
0.0
  0
INSERT
  5
   4A7
  8
0
  6
CONTINUOUS
 62
     7
  2
*UDIM466
 10
0.0
 20
0.0
 30
0.0
  0
INSERT
  5
   4A8
  8
0
  6
CONTINUOUS
 62
     7
  2
*UDIM467
 10
0.0
 20
0.0
 30
0.0
  0
INSERT
  5
   4A9
  8
0
  6
CONTINUOUS
 62
     7
  2
*UDIM468
 10
0.0
 20
0.0
 30
0.0
  0
INSERT
  5
   4AA
  8
0
  6
CONTINUOUS
 62
     7
  2
*UDIM469
 10
0.0
 20
0.0
 30
0.0
  0
TEXT
  5
   4AB
  8
0
  6
CONTINUOUS
 62
     7
 10
-561.976663924638
 20
155.715279205572
 30
0.0
 40
2.99999997871263
  1
X
 50
360.0
 41
0.91666663951344
 72
     2
 11
-559.776663988926
 21
155.715279205583
 31
0.0
  0
INSERT
  5
   4AC
  8
0
  6
CONTINUOUS
 62
     7
  2
*UDIM470
 10
0.0
 20
0.0
 30
0.0
  0
TEXT
  5
   4AD
  8
0
  6
CONTINUOUS
 62
     5
 10
-551.177299767813
 20
145.804559356775
 30
0.0
 40
2.99999997871263
  1
=       =
 50
90.0
 41
0.91666663951344
 72
     2
 11
-551.177299767844
 21
170.004558484702
 31
0.0
  0
INSERT
  5
   4AE
  8
0
  6
CONTINUOUS
 62
     7
  2
*UDIM471
 10
0.0
 20
0.0
 30
0.0
  0
INSERT
  5
   4AF
  8
0
  6
CONTINUOUS
 62
     7
  2
*UDIM472
 10
0.0
 20
0.0
 30
0.0
  0
LINE
  5
   4B0
  8
0
  6
CONTINUOUS
 62
     7
 10
-482.774200439453
 20
-39.2522888183594
 30
0.0
 11
-449.024200439453
 21
-39.2522888183594
 31
0.0
  0
LINE
  5
   4B1
  8
0
  6
CONTINUOUS
 62
     7
 10
-482.774200439453
 20
-7.75228881835938
 30
0.0
 11
-449.024200439453
 21
-7.75228881835938
 31
0.0
  0
LINE
  5
   4B2
  8
0
  6
CONTINUOUS
 62
     7
 10
-449.024200439453
 20
-28.3147888183594
 30
0.0
 11
-449.024200439453
 21
-7.75228881835938
 31
0.0
  0
LINE
  5
   4B3
  8
0
  6
CONTINUOUS
 62
     7
 10
-482.774200439453
 20
-39.2522888183594
 30
0.0
 11
-482.774200439453
 21
-7.75228881835938
 31
0.0
  0
LINE
  5
   4B4
  8
0
  6
DASHDOT
 62
     7
 10
-453.499186986048
 20
-30.3147888183594
 30
0.0
 11
-439.518894040012
 21
-30.3147888183594
 31
0.0
  0
LINE
  5
   4B5
  8
0
  6
CONTINUOUS
 62
     7
 10
-449.024200439453
 20
-28.3147888183594
 30
0.0
 11
-443.274200439453
 21
-28.3147888183594
 31
0.0
  0
LINE
  5
   4B6
  8
0
  6
CONTINUOUS
 62
     7
 10
-449.024200439453
 20
-32.3147888183594
 30
0.0
 11
-443.274200439453
 21
-32.3147888183594
 31
0.0
  0
ARC
  5
   4B7
  8
0
  6
CONTINUOUS
 62
     7
 10
-443.274200439453
 20
-30.3147888183594
 30
0.0
 40
2.0
 50
270.0
 51
450.0
  0
LINE
  5
   4B8
  8
0
  6
CONTINUOUS
 62
     7
 10
-449.024200439453
 20
-39.2522888183594
 30
0.0
 11
-449.024200439453
 21
-32.3147888183594
 31
0.0
  0
LINE
  5
   4B9
  8
0
  6
DASHDOT
 62
     7
 10
-464.774200439453
 20
-46.6474701359108
 30
0.0
 11
-464.774200439453
 21
2.12520234249573
 31
0.0
  0
CIRCLE
  5
   4BA
  8
0
  6
CONTINUOUS
 62
     7
 10
-475.774200439453
 20
-5.75228881835938
 30
0.0
 40
0.875
  0
CIRCLE
  5
   4BB
  8
0
  6
CONTINUOUS
 62
     7
 10
-444.524200439453
 20
-5.75228881835938
 30
0.0
 40
1.0
  0
CIRCLE
  5
   4BC
  8
0
  6
CONTINUOUS
 62
     7
 10
-444.524200439453
 20
-23.5022888183594
 30
0.0
 40
1.0
  0
CIRCLE
  5
   4BD
  8
0
  6
CONTINUOUS
 62
     7
 10
-444.524200439453
 20
-41.2522888183594
 30
0.0
 40
0.875
  0
CIRCLE
  5
   4BE
  8
0
  6
CONTINUOUS
 62
     7
 10
-475.774200439453
 20
-41.2522888183594
 30
0.0
 40
1.0
  0
LINE
  5
   4BF
  8
0
  6
DASHDOT
 62
     7
 10
-475.774200439453
 20
-7.37728881835938
 30
0.0
 11
-475.774200439453
 21
-4.12728881835938
 31
0.0
  0
LINE
  5
   4C0
  8
0
  6
DASHDOT
 62
     7
 10
-477.399200439453
 20
-5.75228881835938
 30
0.0
 11
-474.149200439453
 21
-5.75228881835938
 31
0.0
  0
LINE
  5
   4C1
  8
0
  6
DASHDOT
 62
     7
 10
-444.524200439453
 20
-7.37728881835938
 30
0.0
 11
-444.524200439453
 21
-4.12728881835938
 31
0.0
  0
LINE
  5
   4C2
  8
0
  6
DASHDOT
 62
     7
 10
-446.149200439453
 20
-5.75228881835938
 30
0.0
 11
-442.899200439453
 21
-5.75228881835938
 31
0.0
  0
LINE
  5
   4C3
  8
0
  6
DASHDOT
 62
     7
 10
-444.524200439453
 20
-25.1272888183594
 30
0.0
 11
-444.524200439453
 21
-21.8772888183594
 31
0.0
  0
LINE
  5
   4C4
  8
0
  6
DASHDOT
 62
     7
 10
-446.149200439453
 20
-23.5022888183594
 30
0.0
 11
-442.899200439453
 21
-23.5022888183594
 31
0.0
  0
LINE
  5
   4C5
  8
0
  6
DASHDOT
 62
     7
 10
-444.524200439453
 20
-42.8772888183594
 30
0.0
 11
-444.524200439453
 21
-39.6272888183594
 31
0.0
  0
LINE
  5
   4C6
  8
0
  6
DASHDOT
 62
     7
 10
-446.149200439453
 20
-41.2522888183594
 30
0.0
 11
-442.899200439453
 21
-41.2522888183594
 31
0.0
  0
LINE
  5
   4C7
  8
0
  6
DASHDOT
 62
     7
 10
-475.774200439453
 20
-42.8772888183594
 30
0.0
 11
-475.774200439453
 21
-39.6272888183594
 31
0.0
  0
LINE
  5
   4C8
  8
0
  6
DASHDOT
 62
     7
 10
-477.399200439453
 20
-41.2522888183594
 30
0.0
 11
-474.149200439453
 21
-41.2522888183594
 31
0.0
  0
LINE
  5
   4C9
  8
0
  6
CONTINUOUS
 62
     7
 10
-488.698759516846
 20
-2.75228881835938
 30
0.0
 11
-439.111701041583
 21
-2.75228881835938
 31
0.0
  0
LINE
  5
   4CA
  8
0
  6
CONTINUOUS
 62
     7
 10
-489.332170847735
 20
-44.2522888183594
 30
0.0
 11
-438.659264376663
 21
-44.2522888183594
 31
0.0
  0
LINE
  5
   4CB
  8
0
  6
CONTINUOUS
 62
     7
 10
-439.524200439453
 20
-45.1751889371417
 30
0.0
 11
-439.524200439453
 21
-1.92224377076258
 31
0.0
  0
LINE
  5
   4CC
  8
0
  6
CONTINUOUS
 62
     7
 10
-487.774200439453
 20
-45.763356601538
 30
0.0
 11
-487.774200439453
 21
-1.92224377076258
 31
0.0
  0
POINT
  5
   4CD
  8
0
  6
CONTINUOUS
 62
     7
 10
-441.274200439453
 20
-30.4397888183594
 30
0.0
  0
LINE
  5
   4CE
  8
0
  6
DASHDOT
 62
     7
 10
-492.234925202597
 20
-23.5022888183594
 30
0.0
 11
-436.781472139316
 21
-23.5022888183594
 31
0.0
  0
CIRCLE
  5
   4CF
  8
0
  6
CONTINUOUS
 62
     7
 10
-459.149200439453
 20
-5.37728881835938
 30
0.0
 40
0.5
  0
CIRCLE
  5
   4D0
  8
0
  6
CONTINUOUS
 62
     7
 10
-470.399200439453
 20
-5.37728881835938
 30
0.0
 40
0.5
  0
CIRCLE
  5
   4D1
  8
0
  6
CONTINUOUS
 62
     7
 10
-459.149200439453
 20
-5.37728881835938
 30
0.0
 40
0.92
  0
CIRCLE
  5
   4D2
  8
0
  6
CONTINUOUS
 62
     7
 10
-470.399200439453
 20
-5.37728881835938
 30
0.0
 40
0.92
  0
LINE
  5
   4D3
  8
0
  6
DASHDOT
 62
     7
 10
-459.149200439453
 20
-7.04728881835937
 30
0.0
 11
-459.149200439453
 21
-3.70728881835937
 31
0.0
  0
LINE
  5
   4D4
  8
0
  6
DASHDOT
 62
     7
 10
-460.819200439453
 20
-5.37728881835938
 30
0.0
 11
-457.479200439453
 21
-5.37728881835938
 31
0.0
  0
LINE
  5
   4D5
  8
0
  6
DASHDOT
 62
     7
 10
-470.399200439453
 20
-7.04728881835937
 30
0.0
 11
-470.399200439453
 21
-3.70728881835937
 31
0.0
  0
LINE
  5
   4D6
  8
0
  6
DASHDOT
 62
     7
 10
-472.069200439453
 20
-5.37728881835938
 30
0.0
 11
-468.729200439453
 21
-5.37728881835938
 31
0.0
  0
LINE
  5
   4D7
  8
0
  6
CONTINUOUS
 62
     7
 10
-437.431736867303
 20
-15.3360989686813
 30
0.0
 11
-437.431736867303
 21
-7.03665831126455
 31
0.0
  0
LINE
  5
   4D8
  8
0
  6
CONTINUOUS
 62
     7
 10
-434.831912083052
 20
-15.3360989686813
 30
0.0
 11
-434.831912083052
 21
-7.03665831126455
 31
0.0
  0
LINE
  5
   4D9
  8
0
  6
CONTINUOUS
 62
     7
 10
-437.431736867303
 20
-7.03665831126455
 30
0.0
 11
-434.831912083052
 21
-7.03665831126455
 31
0.0
  0
LINE
  5
   4DA
  8
0
  6
CONTINUOUS
 62
     7
 10
-437.431736867303
 20
-15.3360989686813
 30
0.0
 11
-434.831912083052
 21
-15.3360989686813
 31
0.0
  0
LINE
  5
   4DB
  8
0
  6
CONTINUOUS
 62
     7
 10
-437.431736867303
 20
-39.9679193254542
 30
0.0
 11
-434.831912083052
 21
-39.9679193254542
 31
0.0
  0
LINE
  5
   4DC
  8
0
  6
CONTINUOUS
 62
     7
 10
-434.831912083052
 20
-39.9679193254542
 30
0.0
 11
-434.831912083052
 21
-31.6684786680374
 31
0.0
  0
LINE
  5
   4DD
  8
0
  6
CONTINUOUS
 62
     7
 10
-437.431736867303
 20
-31.6684786680374
 30
0.0
 11
-434.831912083052
 21
-31.6684786680374
 31
0.0
  0
LINE
  5
   4DE
  8
0
  6
CONTINUOUS
 62
     7
 10
-437.431736867303
 20
-39.9679193254542
 30
0.0
 11
-437.431736867303
 21
-31.6684786680374
 31
0.0
  0
LINE
  5
   4DF
  8
0
  6
DASHDOT
 62
     7
 10
-436.131824475178
 20
-59.0831506267515
 30
0.0
 11
-436.131824475178
 21
-2.63695483022435
 31
0.0
  0
INSERT
  5
   4E0
  8
0
  6
CONTINUOUS
 62
     7
  2
*UDIM473
 10
0.0
 20
0.0
 30
0.0
  0
INSERT
  5
   4E1
  8
0
  6
CONTINUOUS
 62
     7
  2
*UDIM474
 10
0.0
 20
0.0
 30
0.0
  0
INSERT
  5
   4E2
  8
0
  6
CONTINUOUS
 62
     7
  2
*UDIM475
 10
0.0
 20
0.0
 30
0.0
  0
INSERT
  5
   4E3
  8
0
  6
CONTINUOUS
 62
     7
  2
*UDIM476
 10
0.0
 20
0.0
 30
0.0
  0
INSERT
  5
   4E4
  8
0
  6
CONTINUOUS
 62
     7
  2
*UDIM477
 10
0.0
 20
0.0
 30
0.0
  0
INSERT
  5
   4E5
  8
0
  6
CONTINUOUS
 62
     7
  2
*UDIM478
 10
0.0
 20
0.0
 30
0.0
  0
INSERT
  5
   4E6
  8
0
  6
CONTINUOUS
 62
     7
  2
*UDIM479
 10
0.0
 20
0.0
 30
0.0
  0
TEXT
  5
   4E7
  8
0
  6
CONTINUOUS
 62
     7
 10
-490.295329005733
 20
-32.6927544385136
 30
0.0
 40
3.00000002980232
  1
=     =
 50
90.0
 41
0.916666604744064
 72
     2
 11
-490.295329005756
 21
-13.9927555203379
 31
0.0
  0
INSERT
  5
   4E8
  8
0
  6
CONTINUOUS
 62
     7
  2
*UDIM480
 10
0.0
 20
0.0
 30
0.0
  0
INSERT
  5
   4E9
  8
0
  6
CONTINUOUS
 62
     7
  2
*UDIM481
 10
0.0
 20
0.0
 30
0.0
  0
INSERT
  5
   4EA
  8
0
  6
CONTINUOUS
 62
     7
  2
*UDIM482
 10
0.0
 20
0.0
 30
0.0
  0
INSERT
  5
   4EB
  8
0
  6
CONTINUOUS
 62
     7
  2
*UDIM483
 10
0.0
 20
0.0
 30
0.0
  0
INSERT
  5
   4EC
  8
0
  6
CONTINUOUS
 62
     7
  2
*UDIM484
 10
0.0
 20
0.0
 30
0.0
  0
INSERT
  5
   4ED
  8
0
  6
CONTINUOUS
 62
     7
  2
*UDIM485
 10
0.0
 20
0.0
 30
0.0
  0
INSERT
  5
   4EE
  8
0
  6
CONTINUOUS
 62
     7
  2
*UDIM486
 10
0.0
 20
0.0
 30
0.0
  0
INSERT
  5
   4EF
  8
0
  6
CONTINUOUS
 62
     7
  2
*UDIM487
 10
0.0
 20
0.0
 30
0.0
  0
INSERT
  5
   4F0
  8
0
  6
CONTINUOUS
 62
     7
  2
*UDIM488
 10
0.0
 20
0.0
 30
0.0
  0
INSERT
  5
   4F1
  8
0
  6
CONTINUOUS
 62
     7
  2
*UDIM489
 10
0.0
 20
0.0
 30
0.0
  0
INSERT
  5
   4F2
  8
0
  6
CONTINUOUS
 62
     7
  2
*UDIM490
 10
0.0
 20
0.0
 30
0.0
  0
TEXT
  5
   4F3
  8
0
  6
CONTINUOUS
 62
     7
 10
-465.580025082821
 20
-68.1325417286235
 30
0.0
 40
3.00000002980232
  1
Y
 50
360.0
 41
0.916666604744064
 72
     2
 11
-463.380025213951
 21
-68.1325417286124
 31
0.0
  0
TEXT
  5
   4F4
  8
0
  6
CONTINUOUS
 62
     7
 10
-466.072589522595
 20
27.6376876109762
 30
0.0
 40
3.00000002980232
  1
Y
 50
360.0
 41
0.916666604744064
 72
     2
 11
-463.872589653725
 21
27.6376876109872
 31
0.0
  0
TEXT
  5
   4F5
  8
0
  6
CONTINUOUS
 62
     7
 10
-412.27234256863
 20
-24.2066115862208
 30
0.0
 40
3.00000002980232
  1
X
 50
360.0
 41
0.916666604744064
 72
     2
 11
-410.072342699761
 21
-24.2066115862098
 31
0.0
  0
TEXT
  5
   4F6
  8
0
  6
CONTINUOUS
 62
     7
 10
-509.455737954373
 20
-24.7495356327372
 30
0.0
 40
3.00000002980232
  1
X
 50
360.0
 41
0.916666604744064
 72
     2
 11
-507.255738085503
 21
-24.7495356327262
 31
0.0
  0
LINE
  5
   4F7
  8
0
  6
CONTINUOUS
 62
     7
 10
-536.133911132813
 20
-28.9602558297713
 30
0.0
 11
-536.133911132813
 21
-5.04373434356852
 31
0.0
  0
LINE
  5
   4F8
  8
0
  6
CONTINUOUS
 62
     7
 10
-538.133911132813
 20
-28.9602558297713
 30
0.0
 11
-538.133911132813
 21
-5.04373434356852
 31
0.0
  0
LINE
  5
   4F9
  8
0
  6
DASHDOT
 62
     7
 10
-541.33651423521
 20
-17.0019950866699
 30
0.0
 11
-532.910295042772
 21
-17.0019950866699
 31
0.0
  0
POINT
  5
   4FA
  8
0
  6
CONTINUOUS
 62
     7
 10
-538.133911132813
 20
-15.0019950866699
 30
0.0
  0
POINT
  5
   4FB
  8
0
  6
CONTINUOUS
 62
     7
 10
-538.133911132813
 20
-19.0019950866699
 30
0.0
  0
LINE
  5
   4FC
  8
0
  6
CONTINUOUS
 62
     7
 10
-538.133911132813
 20
-15.0019950866699
 30
0.0
 11
-536.133911132813
 21
-13.3237958243154
 31
0.0
  0
LINE
  5
   4FD
  8
0
  6
CONTINUOUS
 62
     7
 10
-538.133911132813
 20
-19.0019950866699
 30
0.0
 11
-536.133911132813
 21
-20.6801943490245
 31
0.0
  0
LINE
  5
   4FE
  8
0
  6
CONTINUOUS
 62
     7
 10
-538.133911132813
 20
-26.5019950866699
 30
0.0
 11
-536.133911132813
 21
-26.5019950866699
 31
0.0
  0
CIRCLE
  5
   4FF
  8
0
  6
CONTINUOUS
 62
     7
 10
-537.133911132813
 20
-17.0019950866699
 30
0.0
 40
12.0
  0
LINE
  5
   500
  8
0
  6
CONTINUOUS
 62
     7
 10
-544.133903503418
 20
-21.5019950866699
 30
0.0
 11
-541.633903503418
 21
-21.5019950866699
 31
0.0
  0
LINE
  5
   501
  8
0
  6
CONTINUOUS
 62
     7
 10
-540.633903503418
 20
-20.5019950866699
 30
0.0
 11
-540.633903503418
 21
-12.5019950866699
 31
0.0
  0
LINE
  5
   502
  8
0
  6
CONTINUOUS
 62
     7
 10
-540.633903503418
 20
-12.5019950866699
 30
0.0
 11
-538.133911132813
 21
-12.5019950866699
 31
0.0
  0
LINE
  5
   503
  8
0
  6
CONTINUOUS
 62
     7
 10
-544.133903503418
 20
-24.0019950866699
 30
0.0
 11
-541.633903503418
 21
-24.0019950866699
 31
0.0
  0
LINE
  5
   504
  8
0
  6
CONTINUOUS
 62
     7
 10
-545.133903503418
 20
-25.9462738206011
 30
0.0
 11
-545.133903503418
 21
-25.0019950866699
 31
0.0
  0
ARC
  5
   505
  8
0
  6
CONTINUOUS
 62
     7
 10
-541.633899356138
 20
-20.5019957580086
 30
0.0
 40
0.999996977799109
 50
269.99984089121
 51
360.00025299209
  0
ARC
  5
   506
  8
0
  6
CONTINUOUS
 62
     7
 10
-544.133888849911
 20
-25.0020077729744
 30
0.0
 40
3.50001845311552
 50
90.000186890172
 51
153.408761283964
  0
ARC
  5
   507
  8
0
  6
CONTINUOUS
 62
     7
 10
-544.133947751568
 20
-25.0019541918875
 30
0.0
 40
0.999949821243504
 50
89.997764198722
 51
180.00116981594
  0
ARC
  5
   508
  8
0
  6
CONTINUOUS
 62
     7
 10
-541.633884151036
 20
-20.5020271336042
 30
0.0
 40
3.49997105594423
 50
269.999653399338
 51
360.000420324806
  0
INSERT
  5
   509
  8
0
  6
CONTINUOUS
 62
     7
  2
*HATCH97
 10
-537.133911132813
 20
-17.0019950866699
 30
0.0
  0
INSERT
  5
   50A
  8
0
  6
CONTINUOUS
 62
     7
  2
*HATCH98
 10
-537.133911132813
 20
-17.0019950866699
 30
0.0
  0
TEXT
  5
   50B
  8
0
  6
CONTINUOUS
 62
     7
 10
-549.521506869671
 20
-43.8500061973527
 30
0.0
 40
4.00000017881393
  1
PART. Z
 50
360.0
 41
0.915624995566905
 72
     1
 11
-537.069006383419
 21
-41.8500061078831
 31
0.0
 73
     2
  0
INSERT
  5
   50C
  8
0
  6
CONTINUOUS
 62
     7
  2
*UDIM491
 10
0.0
 20
0.0
 30
0.0
  0
INSERT
  5
   50D
  8
0
  6
CONTINUOUS
 62
     7
  2
*UDIM492
 10
0.0
 20
0.0
 30
0.0
  0
LINE
  5
   50E
  8
0
  6
CONTINUOUS
 62
     3
 10
-323.449803544153
 20
201.551070632933
 30
0.0
 11
-323.449803544153
 21
203.126070606111
 31
0.0
  0
ARC
  5
   50F
  8
0
  6
CONTINUOUS
 62
     3
 10
-323.799803538192
 20
203.126070606111
 30
0.0
 40
0.349999994039536
 50
360.0
 51
450.0
  0
LINE
  5
   510
  8
0
  6
CONTINUOUS
 62
     3
 10
-385.662288916304
 20
203.476070600151
 30
0.0
 11
-323.799803538192
 21
203.476070600151
 31
0.0
  0
LINE
  5
   511
  8
0
  6
CONTINUOUS
 62
     3
 10
-386.012288910344
 20
201.551070632933
 30
0.0
 11
-386.012288910344
 21
203.126070606111
 31
0.0
  0
ARC
  5
   512
  8
0
  6
CONTINUOUS
 62
     3
 10
-385.662288916304
 20
203.126070606111
 30
0.0
 40
0.349999994039536
 50
90.0
 51
180.0
  0
LINE
  5
   513
  8
0
  6
CONTINUOUS
 62
     7
 10
-322.574827756431
 20
111.426110713487
 30
0.0
 11
-322.574827756431
 21
128.663603797635
 31
0.0
  0
LINE
  5
   514
  8
0
  6
CONTINUOUS
 62
     1
 10
-386.887326661195
 20
132.95109838404
 30
0.0
 11
-374.549827675812
 21
132.95109838404
 31
0.0
  0
LINE
  5
   515
  8
0
  6
DOT
 62
   130
 10
-322.574827893369
 20
128.663603797635
 30
0.0
 11
-322.574827893369
 21
185.011397180079
 31
0.0
  0
LINE
  5
   516
  8
0
  6
CONTINUOUS
 62
     1
 10
-386.887326661195
 20
133.301098357218
 30
0.0
 11
-374.549827675812
 21
133.301098357218
 31
0.0
  0
LINE
  5
   517
  8
0
  6
CONTINUOUS
 62
     1
 10
-365.572323956781
 20
138.638592946606
 30
0.0
 11
-365.572323956781
 21
175.388592320758
 31
0.0
  0
LINE
  5
   518
  8
0
  6
CONTINUOUS
 62
     1
 10
-328.577330995493
 20
138.638592946606
 30
0.0
 11
-328.577330995493
 21
175.388592320758
 31
0.0
  0
LINE
  5
   519
  8
0
  6
CONTINUOUS
 62
     1
 10
-364.924827172153
 20
185.011397180079
 30
0.0
 11
-364.924827172153
 21
190.526097403544
 31
0.0
  0
LINE
  5
   51A
  8
0
  6
CONTINUOUS
 62
     1
 10
-329.22482778012
 20
185.011397180079
 30
0.0
 11
-329.22482778012
 21
190.526097403544
 31
0.0
  0
LINE
  5
   51B
  8
0
  6
CONTINUOUS
 62
     1
 10
-364.924827172153
 20
190.526097403544
 30
0.0
 11
-329.22482778012
 21
190.526097403544
 31
0.0
  0
LINE
  5
   51C
  8
0
  6
CONTINUOUS
 62
     3
 10
-343.312327540212
 20
146.426092813986
 30
0.0
 11
-343.312327540212
 21
160.426087234991
 31
0.0
  0
LINE
  5
   51D
  8
0
  6
CONTINUOUS
 62
     3
 10
-350.837327412062
 20
146.426092813986
 30
0.0
 11
-350.837327412062
 21
160.426087234991
 31
0.0
  0
LINE
  5
   51E
  8
0
  6
CONTINUOUS
 62
     7
 10
-350.837327412062
 20
149.463848081725
 30
0.0
 11
-343.312327540212
 21
149.463848081725
 31
0.0
  0
LINE
  5
   51F
  8
0
  6
CONTINUOUS
 62
     7
 10
-350.837327412062
 20
151.194990463824
 30
0.0
 11
-343.312327540212
 21
151.194990463824
 31
0.0
  0
LINE
  5
   520
  8
0
  6
CONTINUOUS
 62
     1
 10
-386.887326798134
 20
175.388597661334
 30
0.0
 11
-374.549827675812
 21
175.388597661334
 31
0.0
  0
LINE
  5
   521
  8
0
  6
CONTINUOUS
 62
     1
 10
-379.449826924794
 20
138.638592946606
 30
0.0
 11
-374.549827675812
 21
138.638592946606
 31
0.0
  0
LINE
  5
   522
  8
0
  6
CONTINUOUS
 62
     1
 10
-380.324826909893
 20
170.663592401224
 30
0.0
 11
-380.324826909893
 21
172.413592371422
 31
0.0
  0
LINE
  5
   523
  8
0
  6
CONTINUOUS
 62
     1
 10
-380.324826909893
 20
170.663592401224
 30
0.0
 11
-379.449826924794
 21
170.663592401224
 31
0.0
  0
LINE
  5
   524
  8
0
  6
CONTINUOUS
 62
     1
 10
-379.449826924794
 20
170.663592401224
 30
0.0
 11
-379.449826924794
 21
172.413592371422
 31
0.0
  0
LINE
  5
   525
  8
0
  6
CONTINUOUS
 62
     1
 10
-380.324826909893
 20
172.413592371422
 30
0.0
 11
-379.449826924794
 21
172.413592371422
 31
0.0
  0
LINE
  5
   526
  8
0
  6
CONTINUOUS
 62
     1
 10
-380.324826909893
 20
137.938597965317
 30
0.0
 11
-380.324826909893
 21
141.088592904883
 31
0.0
  0
LINE
  5
   527
  8
0
  6
CONTINUOUS
 62
     1
 10
-380.324826909893
 20
137.938597965317
 30
0.0
 11
-379.449826924794
 21
137.938597965317
 31
0.0
  0
LINE
  5
   528
  8
0
  6
CONTINUOUS
 62
     1
 10
-379.449826924794
 20
137.938597965317
 30
0.0
 11
-379.449826924794
 21
141.088592904883
 31
0.0
  0
LINE
  5
   529
  8
0
  6
CONTINUOUS
 62
     1
 10
-380.324826909893
 20
141.088592904883
 30
0.0
 11
-379.449826924794
 21
141.088592904883
 31
0.0
  0
LINE
  5
   52A
  8
0
  6
CONTINUOUS
 62
     1
 10
-379.799826918833
 20
170.663592401224
 30
0.0
 11
-379.799826918833
 21
172.413592371422
 31
0.0
  0
LINE
  5
   52B
  8
0
  6
CONTINUOUS
 62
     1
 10
-379.799821578257
 20
137.938597965317
 30
0.0
 11
-379.799821578257
 21
141.088592904883
 31
0.0
  0
LINE
  5
   52C
  8
0
  6
DASHDOT
 62
     7
 10
-347.074815315637
 20
103.866091530699
 30
0.0
 11
-347.074815315637
 21
108.836104217021
 31
0.0
  0
LINE
  5
   52D
  8
0
  6
DASHDOT
 62
     7
 10
-347.074815315637
 20
203.616081077165
 30
0.0
 11
-347.074815315637
 21
208.586093763487
 31
0.0
  0
LINE
  5
   52E
  8
0
  6
CONTINUOUS
 62
     2
 10
-386.493569256159
 20
191.401080085187
 30
0.0
 11
-322.968570337983
 21
191.401080085187
 31
0.0
  0
LINE
  5
   52F
  8
0
  6
CONTINUOUS
 62
     2
 10
-377.813568335863
 20
133.301098357218
 30
0.0
 11
-377.813568335863
 21
201.551074571759
 31
0.0
  0
LINE
  5
   530
  8
0
  6
CONTINUOUS
 62
     2
 10
-376.553569225164
 20
133.301098357218
 30
0.0
 11
-376.553569225164
 21
201.551074571759
 31
0.0
  0
LINE
  5
   531
  8
0
  6
CONTINUOUS
 62
     2
 10
-375.293569113107
 20
133.301098357218
 30
0.0
 11
-375.293569113107
 21
201.551074571759
 31
0.0
  0
LINE
  5
   532
  8
0
  6
CONTINUOUS
 62
     2
 10
-374.033569334837
 20
185.011397180079
 30
0.0
 11
-374.033569334837
 21
201.551074571759
 31
0.0
  0
LINE
  5
   533
  8
0
  6
CONTINUOUS
 62
     2
 10
-372.77356922278
 20
185.011397180079
 30
0.0
 11
-372.77356922278
 21
201.551074571759
 31
0.0
  0
LINE
  5
   534
  8
0
  6
CONTINUOUS
 62
     2
 10
-371.513569527956
 20
185.011397180079
 30
0.0
 11
-371.513569527956
 21
201.551074571759
 31
0.0
  0
LINE
  5
   535
  8
0
  6
CONTINUOUS
 62
     2
 10
-370.253569666239
 20
185.011397180079
 30
0.0
 11
-370.253569666239
 21
201.551074571759
 31
0.0
  0
LINE
  5
   536
  8
0
  6
CONTINUOUS
 62
     2
 10
-368.993569554182
 20
185.011397180079
 30
0.0
 11
-368.993569554182
 21
201.551074571759
 31
0.0
  0
LINE
  5
   537
  8
0
  6
CONTINUOUS
 62
     2
 10
-367.733569775911
 20
185.011397180079
 30
0.0
 11
-367.733569775911
 21
201.551074571759
 31
0.0
  0
LINE
  5
   538
  8
0
  6
CONTINUOUS
 62
     2
 10
-366.473569663854
 20
185.011397180079
 30
0.0
 11
-366.473569663854
 21
201.551074571759
 31
0.0
  0
LINE
  5
   539
  8
0
  6
CONTINUOUS
 62
     2
 10
-365.213573891016
 20
191.751080058366
 30
0.0
 11
-365.213573891016
 21
201.551074571759
 31
0.0
  0
LINE
  5
   53A
  8
0
  6
CONTINUOUS
 62
     2
 10
-363.953571776243
 20
191.751080058366
 30
0.0
 11
-363.953571776243
 21
201.551074571759
 31
0.0
  0
LINE
  5
   53B
  8
0
  6
CONTINUOUS
 62
     2
 10
-362.69356966147
 20
191.751080058366
 30
0.0
 11
-362.69356966147
 21
201.551074571759
 31
0.0
  0
LINE
  5
   53C
  8
0
  6
CONTINUOUS
 62
     2
 10
-361.433572887274
 20
191.751080058366
 30
0.0
 11
-361.433572887274
 21
201.551074571759
 31
0.0
  0
LINE
  5
   53D
  8
0
  6
CONTINUOUS
 62
     2
 10
-360.173570772501
 20
191.751080058366
 30
0.0
 11
-360.173570772501
 21
201.551074571759
 31
0.0
  0
LINE
  5
   53E
  8
0
  6
CONTINUOUS
 62
     2
 10
-358.913573998304
 20
191.751080058366
 30
0.0
 11
-358.913573998304
 21
201.551074571759
 31
0.0
  0
LINE
  5
   53F
  8
0
  6
CONTINUOUS
 62
     2
 10
-357.653571883531
 20
191.751080058366
 30
0.0
 11
-357.653571883531
 21
201.551074571759
 31
0.0
  0
LINE
  5
   540
  8
0
  6
CONTINUOUS
 62
     2
 10
-356.393569768759
 20
191.751080058366
 30
0.0
 11
-356.393569768759
 21
201.551074571759
 31
0.0
  0
LINE
  5
   541
  8
0
  6
CONTINUOUS
 62
     2
 10
-355.133572994562
 20
191.751080058366
 30
0.0
 11
-355.133572994562
 21
201.551074571759
 31
0.0
  0
LINE
  5
   542
  8
0
  6
CONTINUOUS
 62
     2
 10
-353.873570879789
 20
191.751080058366
 30
0.0
 11
-353.873570879789
 21
201.551074571759
 31
0.0
  0
LINE
  5
   543
  8
0
  6
CONTINUOUS
 62
     2
 10
-352.613574105592
 20
191.751080058366
 30
0.0
 11
-352.613574105592
 21
201.551074571759
 31
0.0
  0
LINE
  5
   544
  8
0
  6
CONTINUOUS
 62
     2
 10
-351.35357199082
 20
191.751080058366
 30
0.0
 11
-351.35357199082
 21
201.551074571759
 31
0.0
  0
LINE
  5
   545
  8
0
  6
CONTINUOUS
 62
     2
 10
-350.093569876047
 20
191.751080058366
 30
0.0
 11
-350.093569876047
 21
201.551074571759
 31
0.0
  0
LINE
  5
   546
  8
0
  6
CONTINUOUS
 62
     2
 10
-348.83357310185
 20
191.751080058366
 30
0.0
 11
-348.83357310185
 21
201.551074571759
 31
0.0
  0
LINE
  5
   547
  8
0
  6
CONTINUOUS
 62
     2
 10
-347.573570987078
 20
191.751080058366
 30
0.0
 11
-347.573570987078
 21
201.551074571759
 31
0.0
  0
LINE
  5
   548
  8
0
  6
CONTINUOUS
 62
     2
 10
-346.313574212881
 20
191.751080058366
 30
0.0
 11
-346.313574212881
 21
201.551074571759
 31
0.0
  0
LINE
  5
   549
  8
0
  6
CONTINUOUS
 62
     2
 10
-345.053572098108
 20
191.751080058366
 30
0.0
 11
-345.053572098108
 21
201.551074571759
 31
0.0
  0
LINE
  5
   54A
  8
0
  6
CONTINUOUS
 62
     2
 10
-343.793569983335
 20
191.751080058366
 30
0.0
 11
-343.793569983335
 21
201.551074571759
 31
0.0
  0
LINE
  5
   54B
  8
0
  6
CONTINUOUS
 62
     2
 10
-342.533573209139
 20
191.751080058366
 30
0.0
 11
-342.533573209139
 21
201.551074571759
 31
0.0
  0
LINE
  5
   54C
  8
0
  6
CONTINUOUS
 62
     2
 10
-341.273571094366
 20
191.751080058366
 30
0.0
 11
-341.273571094366
 21
201.551074571759
 31
0.0
  0
LINE
  5
   54D
  8
0
  6
CONTINUOUS
 62
     2
 10
-340.013574320169
 20
191.751080058366
 30
0.0
 11
-340.013574320169
 21
201.551074571759
 31
0.0
  0
LINE
  5
   54E
  8
0
  6
CONTINUOUS
 62
     2
 10
-338.753572205396
 20
191.751080058366
 30
0.0
 11
-338.753572205396
 21
201.551074571759
 31
0.0
  0
LINE
  5
   54F
  8
0
  6
CONTINUOUS
 62
     2
 10
-337.493570090624
 20
191.751080058366
 30
0.0
 11
-337.493570090624
 21
201.551074571759
 31
0.0
  0
LINE
  5
   550
  8
0
  6
CONTINUOUS
 62
     2
 10
-336.233573316427
 20
191.751080058366
 30
0.0
 11
-336.233573316427
 21
201.551074571759
 31
0.0
  0
LINE
  5
   551
  8
0
  6
CONTINUOUS
 62
     2
 10
-334.973571201654
 20
191.751080058366
 30
0.0
 11
-334.973571201654
 21
201.551074571759
 31
0.0
  0
LINE
  5
   552
  8
0
  6
CONTINUOUS
 62
     2
 10
-333.713574427458
 20
191.751080058366
 30
0.0
 11
-333.713574427458
 21
201.551074571759
 31
0.0
  0
LINE
  5
   553
  8
0
  6
CONTINUOUS
 62
     2
 10
-332.453572312685
 20
191.751080058366
 30
0.0
 11
-332.453572312685
 21
201.551074571759
 31
0.0
  0
LINE
  5
   554
  8
0
  6
CONTINUOUS
 62
     2
 10
-331.193570197912
 20
191.751080058366
 30
0.0
 11
-331.193570197912
 21
201.551074571759
 31
0.0
  0
LINE
  5
   555
  8
0
  6
CONTINUOUS
 62
     2
 10
-329.933573423715
 20
191.751080058366
 30
0.0
 11
-329.933573423715
 21
201.551074571759
 31
0.0
  0
LINE
  5
   556
  8
0
  6
CONTINUOUS
 62
     2
 10
-327.413574534746
 20
185.011397180079
 30
0.0
 11
-327.413574534746
 21
201.551074571759
 31
0.0
  0
LINE
  5
   557
  8
0
  6
CONTINUOUS
 62
     2
 10
-326.153572419973
 20
185.011397180079
 30
0.0
 11
-326.153572419973
 21
201.551074571759
 31
0.0
  0
LINE
  5
   558
  8
0
  6
CONTINUOUS
 62
     2
 10
-324.8935703052
 20
185.011397180079
 30
0.0
 11
-324.8935703052
 21
201.551074571759
 31
0.0
  0
LINE
  5
   559
  8
0
  6
CONTINUOUS
 62
     2
 10
-323.633573531004
 20
185.011397180079
 30
0.0
 11
-323.633573531004
 21
201.551074571759
 31
0.0
  0
LINE
  5
   55A
  8
0
  6
CONTINUOUS
 62
     2
 10
-386.887326798134
 20
191.751080058366
 30
0.0
 11
-386.493563915583
 21
191.751080058366
 31
0.0
  0
LINE
  5
   55B
  8
0
  6
CONTINUOUS
 62
     2
 10
-386.49356925789
 20
191.401080084315
 30
0.0
 11
-386.493563917315
 21
191.751080057467
 31
0.0
  0
LINE
  5
   55C
  8
0
  6
CONTINUOUS
 62
     2
 10
-322.968570337983
 20
191.751080058366
 30
0.0
 11
-322.618570343943
 21
191.751080058366
 31
0.0
  0
LINE
  5
   55D
  8
0
  6
CONTINUOUS
 62
     2
 10
-322.968570337983
 20
191.401080085188
 30
0.0
 11
-322.968570337983
 21
191.751080058366
 31
0.0
  0
LINE
  5
   55E
  8
0
  6
CONTINUOUS
 62
     2
 10
-384.113568228575
 20
110.901110722427
 30
0.0
 11
-384.113568228575
 21
132.601110352879
 31
0.0
  0
LINE
  5
   55F
  8
0
  6
CONTINUOUS
 62
     2
 10
-382.853566113802
 20
110.901110722427
 30
0.0
 11
-382.853566113802
 21
132.601110352879
 31
0.0
  0
LINE
  5
   560
  8
0
  6
CONTINUOUS
 62
     2
 10
-381.593563999029
 20
110.901110722427
 30
0.0
 11
-381.593563999029
 21
132.601110352879
 31
0.0
  0
LINE
  5
   561
  8
0
  6
CONTINUOUS
 62
     2
 10
-380.333567224832
 20
110.901110722427
 30
0.0
 11
-380.333567224832
 21
132.601110352879
 31
0.0
  0
LINE
  5
   562
  8
0
  6
CONTINUOUS
 62
     2
 10
-379.07356511006
 20
110.901110722427
 30
0.0
 11
-379.07356511006
 21
132.601110352879
 31
0.0
  0
LINE
  5
   563
  8
0
  6
CONTINUOUS
 62
     2
 10
-377.813568335863
 20
110.901110722427
 30
0.0
 11
-377.813568335863
 21
132.601110352879
 31
0.0
  0
LINE
  5
   564
  8
0
  6
CONTINUOUS
 62
     2
 10
-376.553569225164
 20
110.901110722427
 30
0.0
 11
-376.553569225164
 21
132.601110352879
 31
0.0
  0
LINE
  5
   565
  8
0
  6
CONTINUOUS
 62
     2
 10
-375.293569113107
 20
110.901110722427
 30
0.0
 11
-375.293569113107
 21
132.601110352879
 31
0.0
  0
LINE
  5
   566
  8
0
  6
CONTINUOUS
 62
     2
 10
-374.033569334837
 20
110.901110722427
 30
0.0
 11
-374.033569334837
 21
128.663603797635
 31
0.0
  0
LINE
  5
   567
  8
0
  6
CONTINUOUS
 62
     2
 10
-372.77356922278
 20
110.901110722427
 30
0.0
 11
-372.77356922278
 21
128.663603797635
 31
0.0
  0
LINE
  5
   568
  8
0
  6
CONTINUOUS
 62
     2
 10
-371.513569527956
 20
110.901110722427
 30
0.0
 11
-371.513569527956
 21
128.663603797635
 31
0.0
  0
LINE
  5
   569
  8
0
  6
CONTINUOUS
 62
     2
 10
-370.253569666239
 20
110.901110722427
 30
0.0
 11
-370.253569666239
 21
128.663603797635
 31
0.0
  0
LINE
  5
   56A
  8
0
  6
CONTINUOUS
 62
     2
 10
-368.993569554182
 20
110.901110722427
 30
0.0
 11
-368.993569554182
 21
128.663603797635
 31
0.0
  0
LINE
  5
   56B
  8
0
  6
CONTINUOUS
 62
     2
 10
-367.733569775911
 20
110.901110722427
 30
0.0
 11
-367.733569775911
 21
128.663603797635
 31
0.0
  0
LINE
  5
   56C
  8
0
  6
CONTINUOUS
 62
     2
 10
-366.473569663854
 20
110.901110722427
 30
0.0
 11
-366.473569663854
 21
128.663603797635
 31
0.0
  0
LINE
  5
   56D
  8
0
  6
CONTINUOUS
 62
     2
 10
-365.213573891016
 20
110.901110722427
 30
0.0
 11
-365.213573891016
 21
120.70110523582
 31
0.0
  0
LINE
  5
   56E
  8
0
  6
CONTINUOUS
 62
     2
 10
-363.953571776243
 20
110.901110722427
 30
0.0
 11
-363.953571776243
 21
120.70110523582
 31
0.0
  0
LINE
  5
   56F
  8
0
  6
CONTINUOUS
 62
     2
 10
-362.69356966147
 20
110.901110722427
 30
0.0
 11
-362.69356966147
 21
120.70110523582
 31
0.0
  0
LINE
  5
   570
  8
0
  6
CONTINUOUS
 62
     2
 10
-361.433572887273
 20
110.901110722427
 30
0.0
 11
-361.433572887273
 21
120.70110523582
 31
0.0
  0
LINE
  5
   571
  8
0
  6
CONTINUOUS
 62
     2
 10
-360.173570772501
 20
110.901110722427
 30
0.0
 11
-360.173570772501
 21
120.70110523582
 31
0.0
  0
LINE
  5
   572
  8
0
  6
CONTINUOUS
 62
     2
 10
-358.913573998304
 20
110.901110722427
 30
0.0
 11
-358.913573998304
 21
120.70110523582
 31
0.0
  0
LINE
  5
   573
  8
0
  6
CONTINUOUS
 62
     2
 10
-357.653571883531
 20
110.901110722427
 30
0.0
 11
-357.653571883531
 21
120.70110523582
 31
0.0
  0
LINE
  5
   574
  8
0
  6
CONTINUOUS
 62
     2
 10
-356.393569768759
 20
110.901110722427
 30
0.0
 11
-356.393569768759
 21
120.70110523582
 31
0.0
  0
LINE
  5
   575
  8
0
  6
CONTINUOUS
 62
     2
 10
-355.133572994562
 20
110.901110722427
 30
0.0
 11
-355.133572994562
 21
120.70110523582
 31
0.0
  0
LINE
  5
   576
  8
0
  6
CONTINUOUS
 62
     2
 10
-353.873570879789
 20
110.901110722427
 30
0.0
 11
-353.873570879789
 21
120.70110523582
 31
0.0
  0
LINE
  5
   577
  8
0
  6
CONTINUOUS
 62
     2
 10
-352.613574105592
 20
110.901110722427
 30
0.0
 11
-352.613574105592
 21
120.70110523582
 31
0.0
  0
LINE
  5
   578
  8
0
  6
CONTINUOUS
 62
     2
 10
-351.35357199082
 20
110.901110722427
 30
0.0
 11
-351.35357199082
 21
120.70110523582
 31
0.0
  0
LINE
  5
   579
  8
0
  6
CONTINUOUS
 62
     2
 10
-350.093569876047
 20
110.901110722427
 30
0.0
 11
-350.093569876047
 21
120.70110523582
 31
0.0
  0
LINE
  5
   57A
  8
0
  6
CONTINUOUS
 62
     2
 10
-348.83357310185
 20
110.901110722427
 30
0.0
 11
-348.83357310185
 21
120.70110523582
 31
0.0
  0
LINE
  5
   57B
  8
0
  6
CONTINUOUS
 62
     2
 10
-347.573570987077
 20
110.901110722427
 30
0.0
 11
-347.573570987077
 21
120.70110523582
 31
0.0
  0
LINE
  5
   57C
  8
0
  6
CONTINUOUS
 62
     2
 10
-346.313574212881
 20
110.901110722427
 30
0.0
 11
-346.313574212881
 21
120.70110523582
 31
0.0
  0
LINE
  5
   57D
  8
0
  6
CONTINUOUS
 62
     2
 10
-345.053572098108
 20
110.901110722427
 30
0.0
 11
-345.053572098108
 21
120.70110523582
 31
0.0
  0
LINE
  5
   57E
  8
0
  6
CONTINUOUS
 62
     2
 10
-343.793569983335
 20
110.901110722427
 30
0.0
 11
-343.793569983335
 21
120.70110523582
 31
0.0
  0
LINE
  5
   57F
  8
0
  6
CONTINUOUS
 62
     2
 10
-342.533573209139
 20
110.901110722427
 30
0.0
 11
-342.533573209139
 21
120.70110523582
 31
0.0
  0
LINE
  5
   580
  8
0
  6
CONTINUOUS
 62
     2
 10
-341.273571094366
 20
110.901110722427
 30
0.0
 11
-341.273571094366
 21
120.70110523582
 31
0.0
  0
LINE
  5
   581
  8
0
  6
CONTINUOUS
 62
     2
 10
-340.013574320169
 20
110.901110722427
 30
0.0
 11
-340.013574320169
 21
120.70110523582
 31
0.0
  0
LINE
  5
   582
  8
0
  6
CONTINUOUS
 62
     2
 10
-338.753572205396
 20
110.901110722427
 30
0.0
 11
-338.753572205396
 21
120.70110523582
 31
0.0
  0
LINE
  5
   583
  8
0
  6
CONTINUOUS
 62
     2
 10
-337.493570090624
 20
110.901110722427
 30
0.0
 11
-337.493570090624
 21
120.70110523582
 31
0.0
  0
LINE
  5
   584
  8
0
  6
CONTINUOUS
 62
     2
 10
-336.233573316427
 20
110.901110722427
 30
0.0
 11
-336.233573316427
 21
120.70110523582
 31
0.0
  0
LINE
  5
   585
  8
0
  6
CONTINUOUS
 62
     2
 10
-334.973571201654
 20
110.901110722427
 30
0.0
 11
-334.973571201654
 21
120.70110523582
 31
0.0
  0
LINE
  5
   586
  8
0
  6
CONTINUOUS
 62
     2
 10
-333.713574427457
 20
110.901110722427
 30
0.0
 11
-333.713574427457
 21
120.70110523582
 31
0.0
  0
LINE
  5
   587
  8
0
  6
CONTINUOUS
 62
     2
 10
-332.453572312685
 20
110.901110722427
 30
0.0
 11
-332.453572312685
 21
120.70110523582
 31
0.0
  0
LINE
  5
   588
  8
0
  6
CONTINUOUS
 62
     2
 10
-331.193570197912
 20
110.901110722427
 30
0.0
 11
-331.193570197912
 21
120.70110523582
 31
0.0
  0
LINE
  5
   589
  8
0
  6
CONTINUOUS
 62
     2
 10
-329.933573423715
 20
110.901110722427
 30
0.0
 11
-329.933573423715
 21
120.70110523582
 31
0.0
  0
LINE
  5
   58A
  8
0
  6
CONTINUOUS
 62
     2
 10
-328.673571308943
 20
110.901110722427
 30
0.0
 11
-328.673571308943
 21
128.663603797635
 31
0.0
  0
LINE
  5
   58B
  8
0
  6
CONTINUOUS
 62
     2
 10
-327.413574534746
 20
110.901110722427
 30
0.0
 11
-327.413574534746
 21
128.663603797635
 31
0.0
  0
LINE
  5
   58C
  8
0
  6
CONTINUOUS
 62
     2
 10
-326.153572419973
 20
110.901110722427
 30
0.0
 11
-326.153572419973
 21
128.663603797635
 31
0.0
  0
LINE
  5
   58D
  8
0
  6
CONTINUOUS
 62
     2
 10
-324.8935703052
 20
110.901110722427
 30
0.0
 11
-324.8935703052
 21
128.663603797635
 31
0.0
  0
LINE
  5
   58E
  8
0
  6
CONTINUOUS
 62
     2
 10
-323.633573531004
 20
110.901110722427
 30
0.0
 11
-323.633573531004
 21
128.663603797635
 31
0.0
  0
LINE
  5
   58F
  8
0
  6
CONTINUOUS
 62
     2
 10
-386.843563909622
 20
120.70110523582
 30
0.0
 11
-386.493563915583
 21
120.70110523582
 31
0.0
  0
LINE
  5
   590
  8
0
  6
CONTINUOUS
 62
     2
 10
-322.968570337983
 20
120.70110523582
 30
0.0
 11
-322.618570343943
 21
120.70110523582
 31
0.0
  0
LINE
  5
   591
  8
0
  6
CONTINUOUS
 62
     2
 10
-322.968570337983
 20
120.70110523582
 30
0.0
 11
-322.968570337983
 21
121.051105208998
 31
0.0
  0
ARC
  5
   592
  8
0
  6
CONTINUOUS
 62
     7
 10
-386.362310306413
 20
201.026074580699
 30
0.0
 40
0.524999991059303
 50
90.0
 51
180.0
  0
ARC
  5
   593
  8
0
  6
CONTINUOUS
 62
     7
 10
-323.09981672287
 20
201.026074580699
 30
0.0
 40
0.524999991059303
 50
360.0
 51
450.0
  0
ARC
  5
   594
  8
0
  6
CONTINUOUS
 62
     7
 10
-323.09982774749
 20
111.426110713487
 30
0.0
 40
0.524999991059303
 50
270.0
 51
360.0
  0
LINE
  5
   595
  8
0
  6
CONTINUOUS
 62
     5
 10
-365.39914933809
 20
175.162352355626
 30
0.0
 11
-365.275402847509
 21
175.213616546232
 31
0.0
  0
LINE
  5
   596
  8
0
  6
CONTINUOUS
 62
     5
 10
-365.450397820155
 20
175.038602350489
 30
0.0
 11
-365.399144311614
 21
175.162348841354
 31
0.0
  0
LINE
  5
   597
  8
0
  6
CONTINUOUS
 62
     5
 10
-365.450403465023
 20
138.638588941174
 30
0.0
 11
-365.450403465023
 21
138.813599619346
 31
0.0
  0
LINE
  5
   598
  8
0
  6
CONTINUOUS
 62
     5
 10
-365.450398124447
 20
171.013576373535
 30
0.0
 11
-365.450398124447
 21
175.03860300787
 31
0.0
  0
LINE
  5
   599
  8
0
  6
CONTINUOUS
 62
     5
 10
-365.450405160403
 20
138.638590354209
 30
0.0
 11
-365.399146310913
 21
138.514846533745
 31
0.0
  0
LINE
  5
   59A
  8
0
  6
CONTINUOUS
 62
     5
 10
-365.322775999205
 20
138.483223421733
 30
0.0
 11
-365.2754050892
 21
138.463608820651
 31
0.0
  0
LINE
  5
   59B
  8
0
  6
CONTINUOUS
 62
     5
 10
-365.399141947867
 20
138.51484405578
 30
0.0
 11
-365.322777048649
 21
138.483223840709
 31
0.0
  0
LINE
  5
   59C
  8
0
  6
CONTINUOUS
 62
     5
 10
-339.550382543802
 20
138.463573040198
 30
0.0
 11
-328.875380055308
 21
138.463573040198
 31
0.0
  0
LINE
  5
   59D
  8
0
  6
CONTINUOUS
 62
     5
 10
-365.275408808579
 20
138.463610306459
 30
0.0
 11
-365.100398130407
 21
138.463610306459
 31
0.0
  0
LINE
  5
   59E
  8
0
  6
CONTINUOUS
 62
     5
 10
-328.875380327681
 20
138.463585156769
 30
0.0
 11
-328.751636508395
 21
138.514842669027
 31
0.0
  0
LINE
  5
   59F
  8
0
  6
CONTINUOUS
 62
     5
 10
-328.751636529781
 20
138.51484330676
 30
0.0
 11
-328.700376347042
 21
138.638587128398
 31
0.0
  0
LINE
  5
   5A0
  8
0
  6
CONTINUOUS
 62
     5
 10
-328.751653153071
 20
175.162352097295
 30
0.0
 11
-328.700384958542
 21
175.03860561125
 31
0.0
  0
LINE
  5
   5A1
  8
0
  6
CONTINUOUS
 62
     5
 10
-328.87539305333
 20
175.213600589391
 30
0.0
 11
-328.751650574335
 21
175.162347080779
 31
0.0
  0
LINE
  5
   5A2
  8
0
  6
CONTINUOUS
 62
     5
 10
-365.275398127431
 20
175.213598352257
 30
0.0
 11
-328.875393406744
 21
175.213598352257
 31
0.0
  0
LINE
  5
   5A3
  8
0
  6
CONTINUOUS
 62
     2
 10
-338.255402325978
 20
142.114277244105
 30
0.0
 11
-338.255402325978
 21
144.962855076454
 31
0.0
  0
LINE
  5
   5A4
  8
0
  6
CONTINUOUS
 62
     2
 10
-338.255400015201
 20
142.114274861174
 30
0.0
 11
-337.766147178522
 21
141.55191753394
 31
0.0
  0
LINE
  5
   5A5
  8
0
  6
CONTINUOUS
 62
     2
 10
-337.766147172036
 20
141.551918102934
 30
0.0
 11
-337.138514640945
 21
141.149735336785
 31
0.0
  0
LINE
  5
   5A6
  8
0
  6
CONTINUOUS
 62
     2
 10
-337.138516468008
 20
141.149736868359
 30
0.0
 11
-336.423138311384
 21
140.940194028279
 31
0.0
  0
LINE
  5
   5A7
  8
0
  6
CONTINUOUS
 62
     2
 10
-336.423138792118
 20
140.940194317322
 30
0.0
 11
-335.67770385303
 21
140.940194317322
 31
0.0
  0
LINE
  5
   5A8
  8
0
  6
CONTINUOUS
 62
     2
 10
-335.677706712639
 20
140.940195786011
 30
0.0
 11
-334.962327186896
 21
141.149735967652
 31
0.0
  0
LINE
  5
   5A9
  8
0
  6
CONTINUOUS
 62
     2
 10
-334.962323191907
 20
141.149733571432
 30
0.0
 11
-334.334690660816
 21
141.551916337582
 31
0.0
  0
LINE
  5
   5AA
  8
0
  6
CONTINUOUS
 62
     2
 10
-334.334691665891
 20
141.551917030972
 30
0.0
 11
-333.845418807901
 21
142.114309075433
 31
0.0
  0
LINE
  5
   5AB
  8
0
  6
CONTINUOUS
 62
     2
 10
-333.845418957195
 20
142.114309281546
 30
0.0
 11
-333.845402935467
 21
144.96287109267
 31
0.0
  0
LINE
  5
   5AC
  8
0
  6
CONTINUOUS
 62
     2
 10
-334.334676633338
 20
145.525250820175
 30
0.0
 11
-333.845403782441
 21
144.96287212497
 31
0.0
  0
LINE
  5
   5AD
  8
0
  6
CONTINUOUS
 62
     2
 10
-334.962307174842
 20
145.927432700212
 30
0.0
 11
-334.334675982831
 21
145.525249942327
 31
0.0
  0
LINE
  5
   5AE
  8
0
  6
CONTINUOUS
 62
     2
 10
-335.677686817445
 20
146.136973888735
 30
0.0
 11
-334.962308626224
 21
145.927433725708
 31
0.0
  0
LINE
  5
   5AF
  8
0
  6
CONTINUOUS
 62
     2
 10
-336.423120100101
 20
146.136972716981
 30
0.0
 11
-335.677685161014
 21
146.136972716981
 31
0.0
  0
LINE
  5
   5B0
  8
0
  6
CONTINUOUS
 62
     2
 10
-337.138499531692
 20
145.927433337941
 30
0.0
 11
-336.423121340471
 21
146.136973500968
 31
0.0
  0
LINE
  5
   5B1
  8
0
  6
CONTINUOUS
 62
     2
 10
-337.766129513267
 20
145.525248665016
 30
0.0
 11
-337.138496982175
 21
145.927431431166
 31
0.0
  0
LINE
  5
   5B2
  8
0
  6
CONTINUOUS
 62
     2
 10
-338.255401212456
 20
144.96285365451
 30
0.0
 11
-337.766129675952
 21
145.525248357613
 31
0.0
  0
LINE
  5
   5B3
  8
0
  6
CONTINUOUS
 62
     2
 10
-339.550382552825
 20
171.013581714213
 30
0.0
 11
-328.70038407009
 21
171.013603076517
 31
0.0
  0
LINE
  5
   5B4
  8
0
  6
CONTINUOUS
 62
     2
 10
-365.450404800167
 20
174.513603016811
 30
0.0
 11
-328.700384063711
 21
174.513603016811
 31
0.0
  0
LINE
  5
   5B5
  8
0
  6
CONTINUOUS
 62
     2
 10
-332.763800540678
 20
168.676969850576
 30
0.0
 11
-332.723837011375
 21
168.476057380042
 31
0.0
  0
LINE
  5
   5B6
  8
0
  6
CONTINUOUS
 62
     2
 10
-332.877606821691
 20
168.847295255827
 30
0.0
 11
-332.763801813732
 21
168.676973605485
 31
0.0
  0
LINE
  5
   5B7
  8
0
  6
CONTINUOUS
 62
     2
 10
-333.047929953103
 20
168.961097555377
 30
0.0
 11
-332.877606966685
 21
168.847295222384
 31
0.0
  0
LINE
  5
   5B8
  8
0
  6
CONTINUOUS
 62
     2
 10
-333.248840830953
 20
169.00106376757
 30
0.0
 11
-333.047932361813
 21
168.96110023826
 31
0.0
  0
LINE
  5
   5B9
  8
0
  6
CONTINUOUS
 62
     2
 10
-333.449748158497
 20
168.961099780024
 30
0.0
 11
-333.248839689358
 21
169.001063309334
 31
0.0
  0
LINE
  5
   5BA
  8
0
  6
CONTINUOUS
 62
     2
 10
-333.620069446925
 20
168.847295052707
 30
0.0
 11
-333.449746460508
 21
168.9610973857
 31
0.0
  0
LINE
  5
   5BB
  8
0
  6
CONTINUOUS
 62
     2
 10
-333.733874379903
 20
168.676973459088
 30
0.0
 11
-333.620069371944
 21
168.847295109431
 31
0.0
  0
LINE
  5
   5BC
  8
0
  6
CONTINUOUS
 62
     2
 10
-333.773837527683
 20
168.476057608575
 30
0.0
 11
-333.733873998379
 21
168.676970079109
 31
0.0
  0
LINE
  5
   5BD
  8
0
  6
CONTINUOUS
 62
     2
 10
-333.773837880509
 20
167.426060412902
 30
0.0
 11
-333.773837880509
 21
168.47606039502
 31
0.0
  0
LINE
  5
   5BE
  8
0
  6
CONTINUOUS
 62
     2
 10
-333.773836353914
 20
167.42605546927
 30
0.0
 11
-333.73387282359
 21
167.225148341956
 31
0.0
  0
LINE
  5
   5BF
  8
0
  6
CONTINUOUS
 62
     2
 10
-333.733874739094
 20
167.22515399919
 30
0.0
 11
-333.620069731135
 21
167.054832348848
 31
0.0
  0
LINE
  5
   5C0
  8
0
  6
CONTINUOUS
 62
     2
 10
-333.620066452423
 20
167.054827924885
 30
0.0
 11
-333.449743464119
 21
166.941020247185
 31
0.0
  0
LINE
  5
   5C1
  8
0
  6
CONTINUOUS
 62
     2
 10
-333.449749297685
 20
166.941027208132
 30
0.0
 11
-333.248840828546
 21
166.901063678822
 31
0.0
  0
LINE
  5
   5C2
  8
0
  6
CONTINUOUS
 62
     2
 10
-333.248839691765
 20
166.901063220586
 30
0.0
 11
-333.047931222626
 21
166.941026749896
 31
0.0
  0
LINE
  5
   5C3
  8
0
  6
CONTINUOUS
 62
     2
 10
-333.047928861147
 20
166.941021182422
 30
0.0
 11
-332.877605872843
 21
167.054828860122
 31
0.0
  0
LINE
  5
   5C4
  8
0
  6
CONTINUOUS
 62
     2
 10
-332.877606462501
 20
167.054832202451
 30
0.0
 11
-332.763801454541
 21
167.225153852794
 31
0.0
  0
LINE
  5
   5C5
  8
0
  6
CONTINUOUS
 62
     2
 10
-332.76380087812
 20
167.225148724841
 30
0.0
 11
-332.723837347796
 21
167.426055852155
 31
0.0
  0
LINE
  5
   5C6
  8
0
  6
CONTINUOUS
 62
     2
 10
-332.72383789839
 20
167.426060412902
 30
0.0
 11
-332.72383789839
 21
168.47606039502
 31
0.0
  0
LINE
  5
   5C7
  8
0
  6
CONTINUOUS
 62
     2
 10
-333.77538264214
 20
159.901068551916
 30
0.0
 11
-332.725382660022
 21
159.901068551916
 31
0.0
  0
LINE
  5
   5C8
  8
0
  6
CONTINUOUS
 62
     2
 10
-333.77538264214
 20
150.451068712848
 30
0.0
 11
-333.77538264214
 21
159.901068551916
 31
0.0
  0
LINE
  5
   5C9
  8
0
  6
CONTINUOUS
 62
     2
 10
-333.77538264214
 20
150.451068712848
 30
0.0
 11
-332.725382660022
 21
150.451068712848
 31
0.0
  0
LINE
  5
   5CA
  8
0
  6
CONTINUOUS
 62
     2
 10
-332.725382660022
 20
150.451068712848
 30
0.0
 11
-332.725382660022
 21
159.901068551916
 31
0.0
  0
LINE
  5
   5CB
  8
0
  6
CONTINUOUS
 62
     5
 10
-340.250382531872
 20
139.688578242141
 30
0.0
 11
-340.250382531872
 21
169.963577726561
 31
0.0
  0
LINE
  5
   5CC
  8
0
  6
CONTINUOUS
 62
     2
 10
-364.22540882646
 20
171.013576373535
 30
0.0
 11
-339.550382543793
 21
171.013576373535
 31
0.0
  0
LINE
  5
   5CD
  8
0
  6
CONTINUOUS
 62
     5
 10
-364.22540882646
 20
170.313576385456
 30
0.0
 11
-340.600382525911
 21
170.313576385456
 31
0.0
  0
LINE
  5
   5CE
  8
0
  6
CONTINUOUS
 62
     5
 10
-340.600381373161
 20
170.313574815291
 30
0.0
 11
-340.250381391102
 21
169.963574833231
 31
0.0
  0
LINE
  5
   5CF
  8
0
  6
CONTINUOUS
 62
     5
 10
-364.575409265002
 20
169.96357723411
 30
0.0
 11
-364.47289690695
 21
170.21106487032
 31
0.0
  0
LINE
  5
   5D0
  8
0
  6
CONTINUOUS
 62
     5
 10
-364.472897295401
 20
170.211064478677
 30
0.0
 11
-364.225409659192
 21
170.313576836729
 31
0.0
  0
LINE
  5
   5D1
  8
0
  6
CONTINUOUS
 62
     2
 10
-365.45040346227
 20
171.013581714612
 30
0.0
 11
-364.225408824731
 21
171.013576374036
 31
0.0
  0
LINE
  5
   5D2
  8
0
  6
CONTINUOUS
 62
     5
 10
-365.100403472213
 20
138.463602295755
 30
0.0
 11
-339.900382538998
 21
138.463500824812
 31
0.0
  0
LINE
  5
   5D3
  8
0
  6
CONTINUOUS
 62
     5
 10
-339.900382543952
 20
138.463500826992
 30
0.0
 11
-339.550382549918
 21
138.463495486416
 31
0.0
  0
LINE
  5
   5D4
  8
0
  6
CONTINUOUS
 62
     5
 10
-340.352895149522
 20
139.441090926309
 30
0.0
 11
-340.25038279147
 21
139.688578562518
 31
0.0
  0
LINE
  5
   5D5
  8
0
  6
CONTINUOUS
 62
     5
 10
-340.600382996014
 20
139.338578405943
 30
0.0
 11
-340.352895359804
 21
139.441090763995
 31
0.0
  0
LINE
  5
   5D6
  8
0
  6
CONTINUOUS
 62
     5
 10
-364.22540882646
 20
139.338578248101
 30
0.0
 11
-340.600382525911
 21
139.338578248101
 31
0.0
  0
LINE
  5
   5D7
  8
0
  6
CONTINUOUS
 62
     5
 10
-364.472897576075
 20
139.441091065005
 30
0.0
 11
-364.225409939865
 21
139.338578706953
 31
0.0
  0
LINE
  5
   5D8
  8
0
  6
CONTINUOUS
 62
     5
 10
-364.575409543624
 20
139.68857886558
 30
0.0
 11
-364.472897185572
 21
139.441091229371
 31
0.0
  0
LINE
  5
   5D9
  8
0
  6
CONTINUOUS
 62
     5
 10
-350.837890362432
 20
145.87593336901
 30
0.0
 11
-350.837890362432
 21
160.497925994144
 31
0.0
  0
LINE
  5
   5DA
  8
0
  6
CONTINUOUS
 62
     5
 10
-343.312890490582
 20
145.87593336901
 30
0.0
 11
-343.312890490582
 21
160.497925994144
 31
0.0
  0
LINE
  5
   5DB
  8
0
  6
CONTINUOUS
 62
     2
 10
-331.150378681412
 20
147.885714981512
 30
0.0
 11
-330.450378693333
 21
147.885714981512
 31
0.0
  0
LINE
  5
   5DC
  8
0
  6
CONTINUOUS
 62
     2
 10
-331.274122751509
 20
147.834459101237
 30
0.0
 11
-331.150378933404
 21
147.885715280263
 31
0.0
  0
LINE
  5
   5DD
  8
0
  6
CONTINUOUS
 62
     2
 10
-331.325378793795
 20
147.710715506322
 30
0.0
 11
-331.274122614769
 21
147.834459324427
 31
0.0
  0
LINE
  5
   5DE
  8
0
  6
CONTINUOUS
 62
     2
 10
-331.325378678432
 20
143.860715050057
 30
0.0
 11
-331.325378678432
 21
147.710714984492
 31
0.0
  0
LINE
  5
   5DF
  8
0
  6
CONTINUOUS
 62
     2
 10
-331.325379003893
 20
143.860715632404
 30
0.0
 11
-331.274122824867
 21
143.736971814299
 31
0.0
  0
LINE
  5
   5E0
  8
0
  6
CONTINUOUS
 62
     2
 10
-331.274122962632
 20
143.736971617911
 30
0.0
 11
-331.150379144527
 21
143.685715438885
 31
0.0
  0
LINE
  5
   5E1
  8
0
  6
CONTINUOUS
 62
     2
 10
-331.150378681412
 20
143.685715053037
 30
0.0
 11
-330.450378693333
 21
143.685715053037
 31
0.0
  0
LINE
  5
   5E2
  8
0
  6
CONTINUOUS
 62
     2
 10
-330.450378693333
 20
143.685715053037
 30
0.0
 11
-329.925378702273
 21
143.685715053037
 31
0.0
  0
LINE
  5
   5E3
  8
0
  6
CONTINUOUS
 62
     2
 10
-329.925378943046
 20
143.685715305139
 30
0.0
 11
-329.801635124942
 21
143.736971484165
 31
0.0
  0
LINE
  5
   5E4
  8
0
  6
CONTINUOUS
 62
     2
 10
-329.801634995834
 20
143.736971679528
 30
0.0
 11
-329.750378816808
 21
143.860715497633
 31
0.0
  0
LINE
  5
   5E5
  8
0
  6
CONTINUOUS
 62
     2
 10
-329.750378705254
 20
143.860715050057
 30
0.0
 11
-329.750378705254
 21
147.710714984492
 31
0.0
  0
LINE
  5
   5E6
  8
0
  6
CONTINUOUS
 62
     2
 10
-329.801635205931
 20
147.834459459198
 30
0.0
 11
-329.750379026905
 21
147.710715641093
 31
0.0
  0
LINE
  5
   5E7
  8
0
  6
CONTINUOUS
 62
     2
 10
-329.92537915417
 20
147.885715414009
 30
0.0
 11
-329.801635336065
 21
147.834459234983
 31
0.0
  0
LINE
  5
   5E8
  8
0
  6
CONTINUOUS
 62
     2
 10
-330.450378693333
 20
147.885714981512
 30
0.0
 11
-329.925378702273
 21
147.885714981512
 31
0.0
  0
LINE
  5
   5E9
  8
0
  6
CONTINUOUS
 62
     5
 10
-340.2503985536
 20
161.563584545332
 30
0.0
 11
-340.2503985536
 21
161.913584539371
 31
0.0
  0
LINE
  5
   5EA
  8
0
  6
CONTINUOUS
 62
     2
 10
-364.575414161076
 20
161.913584539371
 30
0.0
 11
-340.2503985536
 21
161.913584539371
 31
0.0
  0
LINE
  5
   5EB
  8
0
  6
CONTINUOUS
 62
     2
 10
-364.575414161076
 20
161.563584545332
 30
0.0
 11
-340.2503985536
 21
161.563584545332
 31
0.0
  0
LINE
  5
   5EC
  8
0
  6
CONTINUOUS
 62
     5
 10
-340.2503985536
 20
144.413584837395
 30
0.0
 11
-340.2503985536
 21
144.763584831434
 31
0.0
  0
LINE
  5
   5ED
  8
0
  6
CONTINUOUS
 62
     2
 10
-364.575414161076
 20
144.763584831434
 30
0.0
 11
-340.2503985536
 21
144.763584831434
 31
0.0
  0
LINE
  5
   5EE
  8
0
  6
CONTINUOUS
 62
     2
 10
-364.575414161076
 20
144.413584837395
 30
0.0
 11
-340.2503985536
 21
144.413584837395
 31
0.0
  0
LINE
  5
   5EF
  8
0
  6
CONTINUOUS
 62
     2
 10
-364.575414161076
 20
157.363584616857
 30
0.0
 11
-350.837901043584
 21
157.363584616857
 31
0.0
  0
LINE
  5
   5F0
  8
0
  6
CONTINUOUS
 62
     2
 10
-364.575414161076
 20
157.013584622818
 30
0.0
 11
-350.837901043584
 21
157.013584622818
 31
0.0
  0
LINE
  5
   5F1
  8
0
  6
CONTINUOUS
 62
     2
 10
-364.575414161076
 20
149.313584753948
 30
0.0
 11
-350.837903713872
 21
149.313584753948
 31
0.0
  0
LINE
  5
   5F2
  8
0
  6
CONTINUOUS
 62
     2
 10
-364.575414161076
 20
148.963584759909
 30
0.0
 11
-350.837903713872
 21
148.963584759909
 31
0.0
  0
LINE
  5
   5F3
  8
0
  6
CONTINUOUS
 62
     5
 10
-340.250395883312
 20
157.013584622818
 30
0.0
 11
-340.250395883312
 21
157.363584616857
 31
0.0
  0
LINE
  5
   5F4
  8
0
  6
CONTINUOUS
 62
     2
 10
-343.312890490582
 20
157.363584616857
 30
0.0
 11
-340.250395883312
 21
157.363584616857
 31
0.0
  0
LINE
  5
   5F5
  8
0
  6
CONTINUOUS
 62
     2
 10
-343.312890490582
 20
157.013584622818
 30
0.0
 11
-340.250395883312
 21
157.013584622818
 31
0.0
  0
LINE
  5
   5F6
  8
0
  6
CONTINUOUS
 62
     5
 10
-340.250395883312
 20
148.963584759909
 30
0.0
 11
-340.250395883312
 21
149.313584753948
 31
0.0
  0
LINE
  5
   5F7
  8
0
  6
CONTINUOUS
 62
     2
 10
-343.312890490582
 20
149.313584753948
 30
0.0
 11
-340.250395883312
 21
149.313584753948
 31
0.0
  0
LINE
  5
   5F8
  8
0
  6
CONTINUOUS
 62
     2
 10
-343.312890490582
 20
148.963584759909
 30
0.0
 11
-340.250395883312
 21
148.963584759909
 31
0.0
  0
LINE
  5
   5F9
  8
0
  6
CONTINUOUS
 62
   130
 10
-312.24981056571
 20
183.176097528713
 30
0.0
 11
-311.899815328121
 21
183.176097528713
 31
0.0
  0
LINE
  5
   5FA
  8
0
  6
CONTINUOUS
 62
   130
 10
-313.299810214043
 20
183.176097528713
 30
0.0
 11
-312.24981056571
 21
183.176097528713
 31
0.0
  0
LINE
  5
   5FB
  8
0
  6
CONTINUOUS
 62
   130
 10
-313.474827380769
 20
132.513594386059
 30
0.0
 11
-311.899810237885
 21
132.513594386059
 31
0.0
  0
LINE
  5
   5FC
  8
0
  6
CONTINUOUS
 62
   130
 10
-311.899808815354
 20
132.513594386059
 30
0.0
 11
-311.899808815354
 21
134.176091687458
 31
0.0
  0
LINE
  5
   5FD
  8
0
  6
DOT
 62
   130
 10
-322.574827893369
 20
132.513594386059
 30
0.0
 11
-313.474827380769
 21
132.513594386059
 31
0.0
  0
LINE
  5
   5FE
  8
0
  6
CONTINUOUS
 62
     5
 10
-365.276642512369
 20
138.464117667131
 30
0.0
 11
-339.900382568552
 21
138.463500830575
 31
0.0
  0
LINE
  5
   5FF
  8
0
  6
CONTINUOUS
 62
     5
 10
-365.322774945444
 20
138.483224626065
 30
0.0
 11
-365.322256909571
 21
138.483741326789
 31
0.0
  0
LINE
  5
   600
  8
0
  6
CONTINUOUS
 62
     5
 10
-365.322697780625
 20
175.194017205415
 30
0.0
 11
-365.322259853383
 21
175.193579278172
 31
0.0
  0
LINE
  5
   601
  8
0
  6
CONTINUOUS
 62
     5
 10
-365.276460934529
 20
175.213170435473
 30
0.0
 11
-347.494118326306
 21
175.213608362698
 31
0.0
  0
LINE
  5
   602
  8
0
  6
CONTINUOUS
 62
     5
 10
-350.837890362432
 20
160.343639421454
 30
0.0
 11
-343.312890490582
 21
160.343639421454
 31
0.0
  0
LINE
  5
   603
  8
0
  6
CONTINUOUS
 62
     5
 10
-350.837890362432
 20
160.497925994144
 30
0.0
 11
-343.312890490582
 21
160.497925994144
 31
0.0
  0
LINE
  5
   604
  8
0
  6
CONTINUOUS
 62
     5
 10
-350.837890362432
 20
145.87593336901
 30
0.0
 11
-343.312890490582
 21
145.87593336901
 31
0.0
  0
LINE
  5
   605
  8
0
  6
CONTINUOUS
 62
     5
 10
-350.837890362432
 20
146.110389999538
 30
0.0
 11
-343.312890490582
 21
146.110389999538
 31
0.0
  0
LINE
  5
   606
  8
0
  6
CONTINUOUS
 62
   130
 10
-311.899812157154
 20
159.726084576624
 30
0.0
 11
-311.549813081026
 21
159.726084576624
 31
0.0
  0
LINE
  5
   607
  8
0
  6
CONTINUOUS
 62
   130
 10
-311.899812574387
 20
152.726084695834
 30
0.0
 11
-311.549813414812
 21
152.726084695834
 31
0.0
  0
CIRCLE
  5
   608
  8
0
  6
CONTINUOUS
 62
   130
 10
-316.624809153349
 20
147.301082470494
 30
0.0
 40
1.83750095455715
  0
LINE
  5
   609
  8
0
  6
DASHDOT
 62
     7
 10
-316.624809153349
 20
144.413581533818
 30
0.0
 11
-316.624809153349
 21
150.18858340717
 31
0.0
  0
LINE
  5
   60A
  8
0
  6
DASHDOT
 62
     7
 10
-319.512310090025
 20
147.301082470494
 30
0.0
 11
-313.737308216674
 21
147.301082470494
 31
0.0
  0
LINE
  5
   60B
  8
0
  6
CONTINUOUS
 62
     1
 10
-322.574827893369
 20
185.011397180079
 30
0.0
 11
-322.574827893369
 21
191.751080058366
 31
0.0
  0
LINE
  5
   60C
  8
0
  6
CONTINUOUS
 62
     3
 10
-323.449814568773
 20
109.326114688075
 30
0.0
 11
-323.449814568773
 21
110.901114661253
 31
0.0
  0
ARC
  5
   60D
  8
0
  6
CONTINUOUS
 62
     3
 10
-323.799814562812
 20
109.326114688075
 30
0.0
 40
0.349999994039536
 50
270.0
 51
360.0
  0
LINE
  5
   60E
  8
0
  6
CONTINUOUS
 62
     3
 10
-385.662305280027
 20
108.976114694035
 30
0.0
 11
-323.799814562812
 21
108.976114694035
 31
0.0
  0
LINE
  5
   60F
  8
0
  6
CONTINUOUS
 62
     3
 10
-386.012305274067
 20
109.326114688075
 30
0.0
 11
-386.012305274067
 21
110.901114661253
 31
0.0
  0
ARC
  5
   610
  8
0
  6
CONTINUOUS
 62
     3
 10
-385.662305280027
 20
109.326114688075
 30
0.0
 40
0.349999994039536
 50
180.0
 51
270.0
  0
INSERT
  5
   611
  8
0
  6
CONTINUOUS
 62
     7
  2
*UDIM493
 10
0.0
 20
0.0
 30
0.0
  0
INSERT
  5
   612
  8
0
  6
CONTINUOUS
 62
     7
  2
*UDIM494
 10
0.0
 20
0.0
 30
0.0
  0
TEXT
  5
   613
  8
0
  6
CONTINUOUS
 62
     3
 10
-389.779726019503
 20
147.45647267244
 30
0.0
 40
2.99999997871263
  1
=     =
 50
90.0
 41
0.91666663951344
 72
     2
 11
-389.779726019527
 21
166.156472002313
 31
0.0
  0
TEXT
  5
   614
  8
0
  6
CONTINUOUS
 62
     7
 10
-351.067576510776
 20
85.8420425769568
 30
0.0
 40
2.99999997871263
  1
Y
 50
360.0
 41
0.91666663951344
 72
     2
 11
-348.867576575064
 21
85.8420425769678
 31
0.0
  0
TEXT
  5
   615
  8
0
  6
CONTINUOUS
 62
     7
 10
-464.912701239413
 20
158.883868343273
 30
0.0
 40
2.99999997871263
  1
X
 50
360.0
 41
0.91666663951344
 72
     1
 11
-463.812701271564
 21
160.383868332635
 31
0.0
 73
     2
  0
LINE
  5
   616
  8
0
  6
CONTINUOUS
 62
     7
 10
-322.574816731811
 20
191.751080058366
 30
0.0
 11
-322.574816731811
 21
201.026074580699
 31
0.0
  0
LINE
  5
   617
  8
0
  6
CONTINUOUS
 62
     7
 10
-386.887310297472
 20
192.276097373741
 30
0.0
 11
-386.887310297472
 21
201.026074580699
 31
0.0
  0
LINE
  5
   618
  8
0
  6
CONTINUOUS
 62
     7
 10
-386.887326661195
 20
111.426110713487
 30
0.0
 11
-386.887326661195
 21
133.301098357218
 31
0.0
  0
LINE
  5
   619
  8
0
  6
CONTINUOUS
 62
     1
 10
-386.887326798134
 20
133.301098357218
 30
0.0
 11
-386.887326798134
 21
138.638592946606
 31
0.0
  0
LINE
  5
   61A
  8
0
  6
CONTINUOUS
 62
     1
 10
-386.887326798134
 20
175.388592320758
 30
0.0
 11
-386.887326798134
 21
192.276097373741
 31
0.0
  0
LINE
  5
   61B
  8
0
  6
CONTINUOUS
 62
     1
 10
-386.887326798134
 20
138.638598287183
 30
0.0
 11
-386.887326798134
 21
175.388597661334
 31
0.0
  0
LINE
  5
   61C
  8
0
  6
DASHDOT
 62
     3
 10
-347.074827476137
 20
96.8465220590502
 30
0.0
 11
-347.074827476137
 21
167.759439291949
 31
0.0
  0
LINE
  5
   61D
  8
0
  6
DASHDOT
 62
     3
 10
-347.074827476137
 20
167.488982847173
 30
0.0
 11
-347.074827476137
 21
224.869394224901
 31
0.0
  0
LINE
  5
   61E
  8
0
  6
CONTINUOUS
 62
     7
 10
-386.887326661195
 20
132.601110352879
 30
0.0
 11
-374.549827675812
 21
132.601110352879
 31
0.0
  0
LINE
  5
   61F
  8
0
  6
CONTINUOUS
 62
     1
 10
-386.887326798134
 20
138.638592946606
 30
0.0
 11
-380.324826909893
 21
138.638592946606
 31
0.0
  0
LINE
  5
   620
  8
0
  6
CONTINUOUS
 62
     2
 10
-386.362310306413
 20
201.551074571759
 30
0.0
 11
-323.09981672287
 21
201.551074571759
 31
0.0
  0
LINE
  5
   621
  8
0
  6
CONTINUOUS
 62
     2
 10
-385.373565002771
 20
133.301098357218
 30
0.0
 11
-385.373565002771
 21
201.551074571759
 31
0.0
  0
LINE
  5
   622
  8
0
  6
CONTINUOUS
 62
     2
 10
-384.113568228575
 20
133.301098357218
 30
0.0
 11
-384.113568228575
 21
201.551074571759
 31
0.0
  0
LINE
  5
   623
  8
0
  6
CONTINUOUS
 62
     2
 10
-382.853566113802
 20
133.301098357218
 30
0.0
 11
-382.853566113802
 21
201.551074571759
 31
0.0
  0
LINE
  5
   624
  8
0
  6
CONTINUOUS
 62
     2
 10
-381.593563999029
 20
133.301098357218
 30
0.0
 11
-381.593563999029
 21
201.551074571759
 31
0.0
  0
LINE
  5
   625
  8
0
  6
CONTINUOUS
 62
     2
 10
-380.333567224832
 20
133.301098357218
 30
0.0
 11
-380.333567224832
 21
201.551074571759
 31
0.0
  0
LINE
  5
   626
  8
0
  6
CONTINUOUS
 62
     2
 10
-379.07356511006
 20
133.301098357218
 30
0.0
 11
-379.07356511006
 21
201.551074571759
 31
0.0
  0
LINE
  5
   627
  8
0
  6
CONTINUOUS
 62
     2
 10
-386.493563915583
 20
191.751080058366
 30
0.0
 11
-322.574827893369
 21
191.751080058366
 31
0.0
  0
LINE
  5
   628
  8
0
  6
CONTINUOUS
 62
     2
 10
-386.493569256159
 20
121.051105208999
 30
0.0
 11
-322.968570337983
 21
121.051105208999
 31
0.0
  0
LINE
  5
   629
  8
0
  6
CONTINUOUS
 62
     2
 10
-386.362326670136
 20
110.901110722427
 30
0.0
 11
-323.09982774749
 21
110.901110722427
 31
0.0
  0
LINE
  5
   62A
  8
0
  6
CONTINUOUS
 62
     2
 10
-385.373565002771
 20
110.901110722427
 30
0.0
 11
-385.373565002771
 21
132.601110352879
 31
0.0
  0
LINE
  5
   62B
  8
0
  6
CONTINUOUS
 62
     2
 10
-386.49356925789
 20
121.051105209636
 30
0.0
 11
-386.493563917314
 21
120.701105236462
 31
0.0
  0
LINE
  5
   62C
  8
0
  6
CONTINUOUS
 62
     2
 10
-386.493563915583
 20
120.70110523582
 30
0.0
 11
-322.968570337983
 21
120.70110523582
 31
0.0
  0
ARC
  5
   62D
  8
0
  6
CONTINUOUS
 62
     7
 10
-386.362326670136
 20
111.426110713487
 30
0.0
 40
0.524999991059303
 50
180.0
 51
270.0
  0
LINE
  5
   62E
  8
0
  6
CONTINUOUS
 62
     5
 10
-328.700371585361
 20
138.638587606033
 30
0.0
 11
-328.700371585361
 21
175.038603007873
 31
0.0
  0
LINE
  5
   62F
  8
0
  6
CONTINUOUS
 62
     5
 10
-365.450403465023
 20
138.813599619346
 30
0.0
 11
-365.450403465023
 21
171.013583049255
 31
0.0
  0
LINE
  5
   630
  8
0
  6
CONTINUOUS
 62
     5
 10
-364.5754088205
 20
139.688578242141
 30
0.0
 11
-364.5754088205
 21
169.963577726561
 31
0.0
  0
LINE
  5
   631
  8
0
  6
DOT
 62
   130
 10
-322.574827893369
 20
183.176097528713
 30
0.0
 11
-313.299810234905
 21
183.176097528713
 31
0.0
  0
LINE
  5
   632
  8
0
  6
CONTINUOUS
 62
   130
 10
-311.89980881353
 20
134.176093022603
 30
0.0
 11
-311.89980881353
 21
183.176097528714
 31
0.0
  0
LINE
  5
   633
  8
0
  6
CONTINUOUS
 62
   130
 10
-311.549815054515
 20
152.726084695834
 30
0.0
 11
-311.549815054515
 21
159.726084576624
 31
0.0
  0
LINE
  5
   634
  8
0
  6
DASHDOT
 62
     3
 10
-389.248335981819
 20
156.838603317818
 30
0.0
 11
-307.734657034934
 21
156.838603317818
 31
0.0
  0
INSERT
  5
   635
  8
255
  6
CONTINUOUS
 62
     7
  2
$1MOSTRA
 10
-387.268237378958
 20
132.666643280245
 30
0.0
 41
0.349999994039536
 42
0.349999994039536
 50
359.999999792138
 43
0.349999994039536
  0
INSERT
  5
   636
  8
0
  6
CONTINUOUS
 62
     7
  2
*UDIM495
 10
0.0
 20
0.0
 30
0.0
  0
INSERT
  5
   637
  8
0
  6
CONTINUOUS
 62
     7
  2
*UDIM496
 10
0.0
 20
0.0
 30
0.0
  0
INSERT
  5
   638
  8
0
  6
CONTINUOUS
 62
     7
  2
*UDIM497
 10
0.0
 20
0.0
 30
0.0
  0
INSERT
  5
   639
  8
0
  6
CONTINUOUS
 62
     7
  2
*UDIM498
 10
0.0
 20
0.0
 30
0.0
  0
INSERT
  5
   63A
  8
0
  6
CONTINUOUS
 62
     7
  2
*UDIM499
 10
0.0
 20
0.0
 30
0.0
  0
INSERT
  5
   63B
  8
0
  6
CONTINUOUS
 62
     7
  2
*UDIM500
 10
0.0
 20
0.0
 30
0.0
  0
INSERT
  5
   63C
  8
0
  6
CONTINUOUS
 62
     7
  2
*UDIM501
 10
0.0
 20
0.0
 30
0.0
  0
INSERT
  5
   63D
  8
0
  6
CONTINUOUS
 62
     7
  2
*UDIM502
 10
0.0
 20
0.0
 30
0.0
  0
INSERT
  5
   63E
  8
0
  6
CONTINUOUS
 62
     7
  2
*UDIM503
 10
0.0
 20
0.0
 30
0.0
  0
TEXT
  5
   63F
  8
0
  6
CONTINUOUS
 62
     7
 10
-350.231440222452
 20
223.620860267542
 30
0.0
 40
2.99999997871263
  1
Y
 50
360.0
 41
0.91666663951344
 72
     1
 11
-349.131440254604
 21
225.120860256904
 31
0.0
 73
     2
  0
INSERT
  5
   640
  8
0
  6
CONTINUOUS
 62
     7
  2
*UDIM504
 10
0.0
 20
0.0
 30
0.0
  0
INSERT
  5
   641
  8
0
  6
CONTINUOUS
 62
     7
  2
*UDIM505
 10
0.0
 20
0.0
 30
0.0
  0
INSERT
  5
   642
  8
0
  6
CONTINUOUS
 62
     7
  2
*UDIM506
 10
0.0
 20
0.0
 30
0.0
  0
INSERT
  5
   643
  8
0
  6
CONTINUOUS
 62
     7
  2
*UDIM507
 10
0.0
 20
0.0
 30
0.0
  0
LINE
  5
   644
  8
0
  6
CONTINUOUS
 62
   210
 10
-385.137336265743
 20
41.3309411019086
 30
0.0
 11
-385.137336265743
 21
41.6809357553721
 31
0.0
  0
LINE
  5
   645
  8
0
  6
CONTINUOUS
 62
   210
 10
-324.324835966229
 20
41.3309411019086
 30
0.0
 11
-324.324835966229
 21
41.6809357553721
 31
0.0
  0
LINE
  5
   646
  8
0
  6
CONTINUOUS
 62
   210
 10
-386.012320229113
 20
38.756289946091
 30
0.0
 11
-386.012320229113
 21
41.3309411019086
 31
0.0
  0
LINE
  5
   647
  8
0
  6
CONTINUOUS
 62
   210
 10
-386.887325554788
 20
38.756289946091
 30
0.0
 11
-386.887325554788
 21
41.3309411019086
 31
0.0
  0
LINE
  5
   648
  8
0
  6
CONTINUOUS
 62
   210
 10
-322.574835996032
 20
38.756289946091
 30
0.0
 11
-322.574835996032
 21
41.3309411019086
 31
0.0
  0
LINE
  5
   649
  8
0
  6
CONTINUOUS
 62
   210
 10
-323.449831975699
 20
38.756289946091
 30
0.0
 11
-323.449831975699
 21
41.3309411019086
 31
0.0
  0
LINE
  5
   64A
  8
0
  6
CONTINUOUS
 62
   210
 10
-385.662320235074
 20
38.756289946091
 30
0.0
 11
-385.662320235074
 21
41.3309411019086
 31
0.0
  0
LINE
  5
   64B
  8
0
  6
CONTINUOUS
 62
   210
 10
-323.799831969738
 20
38.756289946091
 30
0.0
 11
-323.799831969738
 21
41.3309411019086
 31
0.0
  0
LINE
  5
   64C
  8
0
  6
CONTINUOUS
 62
   210
 10
-385.796256542607
 20
41.3309411019086
 30
0.0
 11
-385.662320235074
 21
41.3309411019086
 31
0.0
  0
LINE
  5
   64D
  8
0
  6
CONTINUOUS
 62
   210
 10
-385.985676095046
 20
41.3309411019086
 30
0.0
 11
-385.90980787124
 21
41.3309411019086
 31
0.0
  0
LINE
  5
   64E
  8
0
  6
CONTINUOUS
 62
   210
 10
-385.90980787124
 20
41.3309411019086
 30
0.0
 11
-385.796256542607
 21
41.3309411019086
 31
0.0
  0
LINE
  5
   64F
  8
0
  6
CONTINUOUS
 62
   210
 10
-386.012320229113
 20
41.3309411019086
 30
0.0
 11
-385.985676095046
 21
41.3309411019086
 31
0.0
  0
LINE
  5
   650
  8
0
  6
CONTINUOUS
 62
   210
 10
-386.887325554788
 20
41.3309411019086
 30
0.0
 11
-386.012320229113
 21
41.3309411019086
 31
0.0
  0
LINE
  5
   651
  8
0
  6
CONTINUOUS
 62
   210
 10
-323.449831975699
 20
41.3309411019086
 30
0.0
 11
-322.574835996032
 21
41.3309411019086
 31
0.0
  0
LINE
  5
   652
  8
0
  6
CONTINUOUS
 62
   210
 10
-323.47647410705
 20
41.3309411019086
 30
0.0
 11
-323.449831975699
 21
41.3309411019086
 31
0.0
  0
LINE
  5
   653
  8
0
  6
CONTINUOUS
 62
   210
 10
-323.665892991917
 20
41.3309411019086
 30
0.0
 11
-323.552344333572
 21
41.3309411019086
 31
0.0
  0
LINE
  5
   654
  8
0
  6
CONTINUOUS
 62
   210
 10
-323.799831969738
 20
41.3309411019086
 30
0.0
 11
-323.665892991917
 21
41.3309411019086
 31
0.0
  0
LINE
  5
   655
  8
0
  6
CONTINUOUS
 62
   210
 10
-323.552344333572
 20
41.3309411019086
 30
0.0
 11
-323.47647410705
 21
41.3309411019086
 31
0.0
  0
LINE
  5
   656
  8
0
  6
CONTINUOUS
 62
   210
 10
-385.662320235074
 20
41.3309411019086
 30
0.0
 11
-383.999825603962
 21
41.3309384316206
 31
0.0
  0
LINE
  5
   657
  8
0
  6
CONTINUOUS
 62
   210
 10
-325.462325265706
 20
41.3309384316206
 30
0.0
 11
-323.799831969738
 21
41.3309411019086
 31
0.0
  0
LINE
  5
   658
  8
0
  6
CONTINUOUS
 62
   210
 10
-324.762322607339
 20
41.3309397667646
 30
0.0
 11
-324.762322607339
 21
43.0809370666742
 31
0.0
  0
LINE
  5
   659
  8
0
  6
CONTINUOUS
 62
   210
 10
-384.699825592041
 20
41.3309397667646
 30
0.0
 11
-384.699825592041
 21
43.0809370666742
 31
0.0
  0
LINE
  5
   65A
  8
0
  6
CONTINUOUS
 62
   210
 10
-324.79658640833
 20
43.0809370666742
 30
0.0
 11
-324.762322607339
 21
43.0809370666742
 31
0.0
  0
LINE
  5
   65B
  8
0
  6
CONTINUOUS
 62
   210
 10
-325.462325265706
 20
43.0809370666742
 30
0.0
 11
-325.246013242412
 21
43.0809370666742
 31
0.0
  0
LINE
  5
   65C
  8
0
  6
CONTINUOUS
 62
   210
 10
-324.896013248372
 20
43.0809370666742
 30
0.0
 11
-324.79658640833
 21
43.0809370666742
 31
0.0
  0
LINE
  5
   65D
  8
0
  6
CONTINUOUS
 62
   210
 10
-325.050876603279
 20
43.0809370666742
 30
0.0
 11
-324.896013248372
 21
43.0809370666742
 31
0.0
  0
LINE
  5
   65E
  8
0
  6
CONTINUOUS
 62
   210
 10
-325.246013242412
 20
43.0809370666742
 30
0.0
 11
-325.050876603279
 21
43.0809370666742
 31
0.0
  0
LINE
  5
   65F
  8
0
  6
CONTINUOUS
 62
   210
 10
-383.999825603962
 20
43.0809370666742
 30
0.0
 11
-377.69982571125
 21
43.0809370666742
 31
0.0
  0
LINE
  5
   660
  8
0
  6
CONTINUOUS
 62
   210
 10
-338.806071033031
 20
43.0809370666742
 30
0.0
 11
-331.762325158417
 21
43.0809370666742
 31
0.0
  0
LINE
  5
   661
  8
0
  6
CONTINUOUS
 62
   210
 10
-347.074826232791
 20
43.0809370666742
 30
0.0
 11
-340.031071012169
 21
43.0809370666742
 31
0.0
  0
LINE
  5
   662
  8
0
  6
CONTINUOUS
 62
   210
 10
-377.69982571125
 20
43.0809370666742
 30
0.0
 11
-370.656070490629
 21
43.0809370666742
 31
0.0
  0
LINE
  5
   663
  8
0
  6
CONTINUOUS
 62
   210
 10
-331.762325158417
 20
43.0809370666742
 30
0.0
 11
-325.462325265706
 21
43.0809370666742
 31
0.0
  0
LINE
  5
   664
  8
0
  6
CONTINUOUS
 62
   210
 10
-354.118570772261
 20
43.0809370666742
 30
0.0
 11
-347.074826232791
 21
43.0809370666742
 31
0.0
  0
LINE
  5
   665
  8
0
  6
CONTINUOUS
 62
   210
 10
-384.411274266389
 20
43.0809370666742
 30
0.0
 11
-384.216134956968
 21
43.0809370666742
 31
0.0
  0
LINE
  5
   666
  8
0
  6
CONTINUOUS
 62
   210
 10
-384.699825592041
 20
43.0809370666742
 30
0.0
 11
-384.665565796482
 21
43.0809370666742
 31
0.0
  0
LINE
  5
   667
  8
0
  6
CONTINUOUS
 62
   210
 10
-384.566134951007
 20
43.0809370666742
 30
0.0
 11
-384.411274266389
 21
43.0809370666742
 31
0.0
  0
LINE
  5
   668
  8
0
  6
CONTINUOUS
 62
   210
 10
-384.216134956968
 20
43.0809370666742
 30
0.0
 11
-383.999825603962
 21
43.0809370666742
 31
0.0
  0
LINE
  5
   669
  8
0
  6
CONTINUOUS
 62
   210
 10
-384.665565796482
 20
43.0809370666742
 30
0.0
 11
-384.566134951007
 21
43.0809370666742
 31
0.0
  0
LINE
  5
   66A
  8
0
  6
CONTINUOUS
 62
   210
 10
-384.699825592041
 20
43.0809370681106
 30
0.0
 11
-384.699820251465
 21
47.8059356525003
 31
0.0
  0
LINE
  5
   66B
  8
0
  6
CONTINUOUS
 62
   210
 10
-370.699823160172
 20
43.0809370666742
 30
0.0
 11
-370.699823160172
 21
47.8059356510639
 31
0.0
  0
LINE
  5
   66C
  8
0
  6
CONTINUOUS
 62
   210
 10
-384.699820251465
 20
47.8059356510639
 30
0.0
 11
-370.699823160172
 21
47.8059356510639
 31
0.0
  0
LINE
  5
   66D
  8
0
  6
CONTINUOUS
 62
   210
 10
-369.387323182523
 20
47.8059356510639
 30
0.0
 11
-355.387323420942
 21
47.8059356510639
 31
0.0
  0
LINE
  5
   66E
  8
0
  6
CONTINUOUS
 62
   210
 10
-354.074823443294
 20
43.0809370666742
 30
0.0
 11
-354.074823443294
 21
47.8059356510639
 31
0.0
  0
LINE
  5
   66F
  8
0
  6
CONTINUOUS
 62
   210
 10
-340.074823681712
 20
43.0809370666742
 30
0.0
 11
-340.074823681712
 21
47.8059356510639
 31
0.0
  0
LINE
  5
   670
  8
0
  6
CONTINUOUS
 62
   210
 10
-354.074823443294
 20
47.8059356510639
 30
0.0
 11
-340.074823681712
 21
47.8059356510639
 31
0.0
  0
LINE
  5
   671
  8
0
  6
CONTINUOUS
 62
   210
 10
-338.762323704064
 20
43.0809370666742
 30
0.0
 11
-338.762323704064
 21
47.8059356510639
 31
0.0
  0
LINE
  5
   672
  8
0
  6
CONTINUOUS
 62
   210
 10
-324.762318651354
 20
43.0809370666742
 30
0.0
 11
-324.762318651354
 21
47.8059356510639
 31
0.0
  0
LINE
  5
   673
  8
0
  6
CONTINUOUS
 62
   210
 10
-338.762323704064
 20
47.8059356510639
 30
0.0
 11
-324.762325277627
 21
47.8059356510639
 31
0.0
  0
LINE
  5
   674
  8
0
  6
CONTINUOUS
 62
   210
 10
-385.137336265743
 20
41.6809357553721
 30
0.0
 11
-385.008858026964
 21
41.6809357553721
 31
0.0
  0
LINE
  5
   675
  8
0
  6
CONTINUOUS
 62
   210
 10
-385.008858026964
 20
41.6809357553721
 30
0.0
 11
-384.699825592041
 21
41.6809357553721
 31
0.0
  0
LINE
  5
   676
  8
0
  6
CONTINUOUS
 62
   210
 10
-324.453312869864
 20
41.6809357553721
 30
0.0
 11
-324.324835966229
 21
41.6809357553721
 31
0.0
  0
LINE
  5
   677
  8
0
  6
CONTINUOUS
 62
   210
 10
-324.762322607339
 20
41.6809357553721
 30
0.0
 11
-324.453312869864
 21
41.6809357553721
 31
0.0
  0
LINE
  5
   678
  8
0
  6
CONTINUOUS
 62
   210
 10
-340.031071012169
 20
38.756289946091
 30
0.0
 11
-340.031071012169
 21
41.3309384316206
 31
0.0
  0
LINE
  5
   679
  8
0
  6
CONTINUOUS
 62
   210
 10
-340.031071012169
 20
41.3309384316206
 30
0.0
 11
-340.031071012169
 21
43.0809370666742
 31
0.0
  0
LINE
  5
   67A
  8
0
  6
CONTINUOUS
 62
   210
 10
-338.806071033031
 20
38.756289946091
 30
0.0
 11
-338.806071033031
 21
41.3309384316206
 31
0.0
  0
LINE
  5
   67B
  8
0
  6
CONTINUOUS
 62
   210
 10
-338.806071033031
 20
41.3309384316206
 30
0.0
 11
-338.806071033031
 21
43.0809370666742
 31
0.0
  0
LINE
  5
   67C
  8
0
  6
CONTINUOUS
 62
   210
 10
-340.031071012169
 20
41.5059357583523
 30
0.0
 11
-338.806071033031
 21
41.5059357583523
 31
0.0
  0
LINE
  5
   67D
  8
0
  6
CONTINUOUS
 62
   210
 10
-340.031071012169
 20
43.0809357315302
 30
0.0
 11
-338.806071033031
 21
43.0809357315302
 31
0.0
  0
LINE
  5
   67E
  8
0
  6
CONTINUOUS
 62
   210
 10
-340.031071012169
 20
42.3809357434511
 30
0.0
 11
-338.806071033031
 21
42.3809357434511
 31
0.0
  0
LINE
  5
   67F
  8
0
  6
CONTINUOUS
 62
   210
 10
-370.656070490629
 20
38.756289946091
 30
0.0
 11
-370.656070490629
 21
41.3309384316206
 31
0.0
  0
LINE
  5
   680
  8
0
  6
CONTINUOUS
 62
   210
 10
-370.656070490629
 20
41.3309384316206
 30
0.0
 11
-370.656070490629
 21
43.0809370666742
 31
0.0
  0
LINE
  5
   681
  8
0
  6
CONTINUOUS
 62
   210
 10
-354.118570772261
 20
38.756289946091
 30
0.0
 11
-354.118570772261
 21
41.3309384316206
 31
0.0
  0
LINE
  5
   682
  8
0
  6
CONTINUOUS
 62
   210
 10
-354.118570772261
 20
41.3309384316206
 30
0.0
 11
-354.118570772261
 21
43.0809370666742
 31
0.0
  0
LINE
  5
   683
  8
0
  6
CONTINUOUS
 62
   210
 10
-370.656070490629
 20
41.5059357583523
 30
0.0
 11
-369.43107051149
 21
41.5059357583523
 31
0.0
  0
LINE
  5
   684
  8
0
  6
CONTINUOUS
 62
   210
 10
-370.656070490629
 20
43.0809357315302
 30
0.0
 11
-369.43107051149
 21
43.0809357315302
 31
0.0
  0
LINE
  5
   685
  8
0
  6
CONTINUOUS
 62
   210
 10
-370.656070490629
 20
42.3809357434511
 30
0.0
 11
-369.43107051149
 21
42.3809357434511
 31
0.0
  0
LINE
  5
   686
  8
0
  6
CONTINUOUS
 62
   210
 10
-383.299825615883
 20
38.756289946091
 30
0.0
 11
-383.299825615883
 21
40.2809371143579
 31
0.0
  0
LINE
  5
   687
  8
0
  6
CONTINUOUS
 62
   210
 10
-372.09982313633
 20
38.756289946091
 30
0.0
 11
-372.09982313633
 21
40.2809371143579
 31
0.0
  0
LINE
  5
   688
  8
0
  6
CONTINUOUS
 62
   210
 10
-383.299825615883
 20
40.2809371143579
 30
0.0
 11
-372.09982313633
 21
40.2809371143579
 31
0.0
  0
LINE
  5
   689
  8
0
  6
CONTINUOUS
 62
   210
 10
-352.674823467136
 20
38.756289946091
 30
0.0
 11
-352.674823467136
 21
40.2809371143579
 31
0.0
  0
LINE
  5
   68A
  8
0
  6
CONTINUOUS
 62
   210
 10
-341.47482365787
 20
38.756289946091
 30
0.0
 11
-341.47482365787
 21
40.2809371143579
 31
0.0
  0
LINE
  5
   68B
  8
0
  6
CONTINUOUS
 62
   210
 10
-352.674823467136
 20
40.2809371143579
 30
0.0
 11
-341.47482365787
 21
40.2809371143579
 31
0.0
  0
LINE
  5
   68C
  8
0
  6
CONTINUOUS
 62
   210
 10
-337.362323727906
 20
38.756289946091
 30
0.0
 11
-337.362323727906
 21
40.2809371143579
 31
0.0
  0
LINE
  5
   68D
  8
0
  6
CONTINUOUS
 62
   210
 10
-326.162323918641
 20
38.756289946091
 30
0.0
 11
-326.162323918641
 21
40.2809371143579
 31
0.0
  0
LINE
  5
   68E
  8
0
  6
CONTINUOUS
 62
   210
 10
-337.362323727906
 20
40.2809371143579
 30
0.0
 11
-326.162323918641
 21
40.2809371143579
 31
0.0
  0
LINE
  5
   68F
  8
0
  6
CONTINUOUS
 62
     7
 10
-390.213427281724
 20
38.756289946091
 30
0.0
 11
-318.939067280308
 21
38.756289946091
 31
0.0
  0
LINE
  5
   690
  8
0
  6
DASHDOT
 62
     7
 10
-347.074826232791
 20
36.7588540198722
 30
0.0
 11
-347.074826232791
 21
84.5594536774321
 31
0.0
  0
LINE
  5
   691
  8
0
  6
DASHDOT
 62
     7
 10
-331.762326493561
 20
36.8075719692922
 30
0.0
 11
-331.762326493561
 21
72.5178288941304
 31
0.0
  0
LINE
  5
   692
  8
0
  6
DASHDOT
 62
     7
 10
-362.387325972021
 20
36.8075719692922
 30
0.0
 11
-362.387325972021
 21
72.5178288941304
 31
0.0
  0
LINE
  5
   693
  8
0
  6
CONTINUOUS
 62
   210
 10
-367.987323206365
 20
40.2809371143579
 30
0.0
 11
-356.7873233971
 21
40.2809371143579
 31
0.0
  0
LINE
  5
   694
  8
0
  6
CONTINUOUS
 62
   210
 10
-356.7873233971
 20
38.756289946091
 30
0.0
 11
-356.7873233971
 21
40.2809371143579
 31
0.0
  0
LINE
  5
   695
  8
0
  6
CONTINUOUS
 62
   210
 10
-367.987323206365
 20
38.756289946091
 30
0.0
 11
-367.987323206365
 21
40.2809371143579
 31
0.0
  0
LINE
  5
   696
  8
0
  6
CONTINUOUS
 62
   210
 10
-369.43107051149
 20
41.3309384316206
 30
0.0
 11
-369.43107051149
 21
43.0809370666742
 31
0.0
  0
LINE
  5
   697
  8
0
  6
CONTINUOUS
 62
   210
 10
-369.43107051149
 20
38.756289946091
 30
0.0
 11
-369.43107051149
 21
41.3309384316206
 31
0.0
  0
LINE
  5
   698
  8
0
  6
CONTINUOUS
 62
   210
 10
-355.343570751399
 20
42.3809357434511
 30
0.0
 11
-354.118570772261
 21
42.3809357434511
 31
0.0
  0
LINE
  5
   699
  8
0
  6
CONTINUOUS
 62
   210
 10
-355.343570751399
 20
43.0809357315302
 30
0.0
 11
-354.118570772261
 21
43.0809357315302
 31
0.0
  0
LINE
  5
   69A
  8
0
  6
CONTINUOUS
 62
   210
 10
-355.343570751399
 20
41.5059357583523
 30
0.0
 11
-354.118570772261
 21
41.5059357583523
 31
0.0
  0
LINE
  5
   69B
  8
0
  6
CONTINUOUS
 62
   210
 10
-355.343570751399
 20
41.3309384316206
 30
0.0
 11
-355.343570751399
 21
43.0809370666742
 31
0.0
  0
LINE
  5
   69C
  8
0
  6
CONTINUOUS
 62
   210
 10
-355.343570751399
 20
38.756289946091
 30
0.0
 11
-355.343570751399
 21
41.3309384316206
 31
0.0
  0
LINE
  5
   69D
  8
0
  6
CONTINUOUS
 62
   210
 10
-355.387323420942
 20
43.0809370666742
 30
0.0
 11
-355.387323420942
 21
47.8059356510639
 31
0.0
  0
LINE
  5
   69E
  8
0
  6
CONTINUOUS
 62
   210
 10
-369.387323182523
 20
43.0809370666742
 30
0.0
 11
-369.387323182523
 21
47.8059356510639
 31
0.0
  0
LINE
  5
   69F
  8
0
  6
CONTINUOUS
 62
   210
 10
-369.43107051149
 20
43.0809370666742
 30
0.0
 11
-362.387325972021
 21
43.0809370666742
 31
0.0
  0
LINE
  5
   6A0
  8
0
  6
CONTINUOUS
 62
   210
 10
-362.387325972021
 20
43.0809370666742
 30
0.0
 11
-355.343570751399
 21
43.0809370666742
 31
0.0
  0
LINE
  5
   6A1
  8
0
  6
DASHDOT
 62
     7
 10
-377.69982571125
 20
36.7588540198722
 30
0.0
 11
-377.69982571125
 21
84.5594536774321
 31
0.0
  0
LINE
  5
   6A2
  8
0
  6
CONTINUOUS
 62
     7
 10
-348.474826208949
 20
80.5309350937605
 30
0.0
 11
-345.674826256633
 21
80.5309350937605
 31
0.0
  0
LINE
  5
   6A3
  8
0
  6
CONTINUOUS
 62
     7
 10
-345.674826256633
 20
47.8059356510639
 30
0.0
 11
-345.674826256633
 21
80.5309350937605
 31
0.0
  0
LINE
  5
   6A4
  8
0
  6
CONTINUOUS
 62
     7
 10
-348.474826208949
 20
47.8059356510639
 30
0.0
 11
-348.474826208949
 21
80.5309350937605
 31
0.0
  0
LINE
  5
   6A5
  8
0
  6
CONTINUOUS
 62
   130
 10
-363.787325948179
 20
63.555935382843
 30
0.0
 11
-360.987325995863
 21
63.555935382843
 31
0.0
  0
LINE
  5
   6A6
  8
0
  6
CONTINUOUS
 62
   130
 10
-360.987325995863
 20
47.8059356510639
 30
0.0
 11
-360.987325995863
 21
63.555935382843
 31
0.0
  0
LINE
  5
   6A7
  8
0
  6
CONTINUOUS
 62
   130
 10
-363.787325948179
 20
47.8059356510639
 30
0.0
 11
-363.787325948179
 21
63.555935382843
 31
0.0
  0
LINE
  5
   6A8
  8
0
  6
CONTINUOUS
 62
     7
 10
-379.099825687409
 20
47.8059356510639
 30
0.0
 11
-379.099825687409
 21
80.5309350937605
 31
0.0
  0
LINE
  5
   6A9
  8
0
  6
CONTINUOUS
 62
     7
 10
-376.299825735092
 20
47.8059356510639
 30
0.0
 11
-376.299825735092
 21
80.5309350937605
 31
0.0
  0
LINE
  5
   6AA
  8
0
  6
CONTINUOUS
 62
     7
 10
-379.099825687409
 20
80.5309350937605
 30
0.0
 11
-376.299825735092
 21
80.5309350937605
 31
0.0
  0
LINE
  5
   6AB
  8
0
  6
CONTINUOUS
 62
   130
 10
-333.16232646972
 20
47.8059356510639
 30
0.0
 11
-333.16232646972
 21
63.555935382843
 31
0.0
  0
LINE
  5
   6AC
  8
0
  6
CONTINUOUS
 62
   130
 10
-333.16232646972
 20
63.555935382843
 30
0.0
 11
-330.362326517403
 21
63.555935382843
 31
0.0
  0
LINE
  5
   6AD
  8
0
  6
CONTINUOUS
 62
   130
 10
-330.362326517403
 20
47.8059356510639
 30
0.0
 11
-330.362326517403
 21
63.555935382843
 31
0.0
  0
ENDSEC
  0
EOF
