  0
SECTION
  2
HEADER
  9
$ACADVER
  1
AC1009
  9
$DWGCODEPAGE
  3
iso8859-1
  9
$INSBASE
 10
0.0
 20
0.0
 30
0.0
  9
$EXTMIN
 10
1.0E20
 20
1.0E20
  9
$EXTMAX
 10
-1.0E20
 20
-1.0E20
  9
$LIMMIN
 10
0.0
 20
0.0
  9
$LIMMAX
 10
12.0
 20
9.0
  9
$ORTHOMODE
 70
     0
  9
$REGENMODE
 70
     1
  9
$FILLMODE
 70
     1
  9
$QTEXTMODE
 70
     0
  9
$MIRRTEXT
 70
     1
  9
$DRAGMODE
 70
     2
  9
$LTSCALE
 40
15.0
  9
$OSMODE
 70
     0
  9
$ATTMODE
 70
     1
  9
$TEXTSIZE
 40
0.2
  9
$TRACEWID
 40
0.05
  9
$TEXTSTYLE
  7
STANDARD
  9
$CLAYER
  8
0
  9
$CELTYPE
  6
DASHED
  9
$CECOLOR
 62
   256
  9
$DIMSCALE
 40
1.0
  9
$DIMASZ
 40
0.18
  9
$DIMEXO
 40
0.0625
  9
$DIMDLI
 40
0.38
  9
$DIMRND
 40
0.0
  9
$DIMDLE
 40
0.0
  9
$DIMEXE
 40
0.18
  9
$DIMTP
 40
0.0
  9
$DIMTM
 40
0.0
  9
$DIMTXT
 40
0.18
  9
$DIMCEN
 40
0.09
  9
$DIMTSZ
 40
0.0
  9
$DIMTOL
 70
     0
  9
$DIMLIM
 70
     0
  9
$DIMTIH
 70
     1
  9
$DIMTOH
 70
     1
  9
$DIMSE1
 70
     0
  9
$DIMSE2
 70
     0
  9
$DIMTAD
 70
     0
  9
$DIMZIN
 70
     0
  9
$DIMBLK
  1

  9
$DIMASO
 70
     1
  9
$DIMSHO
 70
     1
  9
$DIMPOST
  1

  9
$DIMAPOST
  1

  9
$DIMALT
 70
     0
  9
$DIMALTD
 70
     2
  9
$DIMALTF
 40
25.4
  9
$DIMLFAC
 40
1.0
  9
$DIMTOFL
 70
     0
  9
$DIMTVP
 40
0.0
  9
$DIMTIX
 70
     0
  9
$DIMSOXD
 70
     0
  9
$DIMSAH
 70
     0
  9
$DIMBLK1
  1

  9
$DIMBLK2
  1

  9
$DIMSTYLE
  2
STANDARD
  9
$DIMCLRD
 70
     0
  9
$DIMCLRE
 70
     0
  9
$DIMCLRT
 70
     0
  9
$DIMTFAC
 40
1.0
  9
$DIMGAP
 40
0.09
  9
$LUNITS
 70
     2
  9
$LUPREC
 70
     4
  9
$AXISMODE
 70
     0
  9
$AXISUNIT
 10
0.0
 20
0.0
  9
$SKETCHINC
 40
0.1
  9
$FILLETRAD
 40
0.0
  9
$AUNITS
 70
     0
  9
$AUPREC
 70
     0
  9
$MENU
  1
acad
  9
$ELEVATION
 40
0.0
  9
$PELEVATION
 40
0.0
  9
$THICKNESS
 40
0.0
  9
$LIMCHECK
 70
     0
  9
$BLIPMODE
 70
     1
  9
$CHAMFERA
 40
0.0
  9
$CHAMFERB
 40
0.0
  9
$SKPOLY
 70
     0
  9
$TDCREATE
 40
0.000000000
  9
$TDUPDATE
 40
0.000000000
  9
$TDINDWG
 40
0.0
  9
$TDUSRTIMER
 40
0.0
  9
$USRTIMER
 70
     1
  9
$ANGBASE
 50
0.0
  9
$ANGDIR
 70
     0
  9
$PDMODE
 70
     0
  9
$PDSIZE
 40
0.0
  9
$PLINEWID
 40
0.0
  9
$COORDS
 70
     1
  9
$SPLFRAME
 70
     0
  9
$SPLINETYPE
 70
     6
  9
$SPLINESEGS
 70
     8
  9
$ATTDIA
 70
     0
  9
$ATTREQ
 70
     1
  9
$HANDLING
 70
     1
  9
$HANDSEED
  5
   6D6
  9
$SURFTAB1
 70
     6
  9
$SURFTAB2
 70
     6
  9
$SURFTYPE
 70
     6
  9
$SURFU
 70
     6
  9
$SURFV
 70
     6
  9
$UCSNAME
  2

  9
$UCSORG
 10
0.0
 20
0.0
 30
0.0
  9
$UCSXDIR
 10
1.0
 20
0.0
 30
0.0
  9
$UCSYDIR
 10
0.0
 20
1.0
 30
0.0
  9
$PUCSNAME
  2

  9
$PUCSORG
 10
0.0
 20
0.0
 30
0.0
  9
$PUCSXDIR
 10
1.0
 20
0.0
 30
0.0
  9
$PUCSYDIR
 10
0.0
 20
1.0
 30
0.0
  9
$USERI1
 70
     0
  9
$USERI2
 70
     0
  9
$USERI3
 70
     0
  9
$USERI4
 70
     0
  9
$USERI5
 70
     0
  9
$USERR1
 40
0.0
  9
$USERR2
 40
0.0
  9
$USERR3
 40
0.0
  9
$USERR4
 40
0.0
  9
$USERR5
 40
0.0
  9
$WORLDVIEW
 70
     1
  9
$SHADEDGE
 70
     3
  9
$SHADEDIF
 70
    70
  9
$TILEMODE
 70
     1
  9
$MAXACTVP
 70
    16
  9
$PINSBASE
 10
0.0
 20
0.0
 30
0.0
  9
$PLIMCHECK
 70
     0
  9
$PEXTMIN
 10
1.0E20
 20
1.0E20
 30
1.0E20
  9
$PEXTMAX
 10
-1.0E20
 20
-1.0E20
 30
-1.0E20
  9
$PLIMMIN
 10
0.0
 20
0.0
  9
$PLIMMAX
 10
12.0
 20
9.0
  9
$UNITMODE
 70
     0
  9
$VISRETAIN
 70
     0
  0
ENDSEC
  0
SECTION
  2
TABLES
  0
TABLE
  2
VPORT
 70
     1
  0
VPORT
  2
*ACTIVE
 70
     0
 10
0.0
 20
0.0
 11
1.0
 21
1.0
 12
6.801242
 22
4.5
 13
0.0
 23
0.0
 14
1.0
 24
1.0
 15
0.0
 25
0.0
 16
0.0
 26
0.0
 36
1.0
 17
0.0
 27
0.0
 37
0.0
 40
9.0
 41
1.511387
 42
50.0
 43
0.0
 44
0.0
 50
0.0
 51
0.0
 71
     0
 72
   100
 73
     1
 74
     1
 75
     0
 76
     0
 77
     0
 78
     0
  0
ENDTAB
  0
TABLE
  2
LTYPE
 70
    41
  0
LTYPE
  2
BYBLOCK
 70
     0
  3

 72
    65
 73
     0
 40
0.0
  0
LTYPE
  2
BYLAYER
 70
     0
  3

 72
    65
 73
     0
 40
0.0
  0
LTYPE
  2
CONTINUOUS
 70
     0
  3
Solid line
 72
    65
 73
     0
 40
0.0
  0
LTYPE
  2
BORDER
 70
    64
  3
__ __ . __ __ . __ __ . __ __ . __ __ . __ __ .
 72
    65
 73
     6
 40
1.75
 49
0.5
 49
-0.25
 49
0.5
 49
-0.25
 49
0.0
 49
-0.25
  0
LTYPE
  2
BORDER2
 70
    64
  3
__.__.__.__.__.__.__.__.__.__.__.__.__.__.__.__
 72
    65
 73
     6
 40
0.875
 49
0.25
 49
-0.125
 49
0.25
 49
-0.125
 49
0.0
 49
-0.125
  0
LTYPE
  2
BORDERX2
 70
    64
  3
____  ____  .  ____  ____  .  ____  ____  .  __
 72
    65
 73
     6
 40
3.5
 49
1.0
 49
-0.5
 49
1.0
 49
-0.5
 49
0.0
 49
-0.5
  0
LTYPE
  2
CENTER
 70
    64
  3
____ _ ____ _ ____ _ ____ _ ____ _ ____ _ ____
 72
    65
 73
     4
 40
2.0
 49
1.25
 49
-0.25
 49
0.25
 49
-0.25
  0
LTYPE
  2
CENTER2
 70
    64
  3
___ _ ___ _ ___ _ ___ _ ___ _ ___ _ ___ _ ___ _
 72
    65
 73
     4
 40
1.125
 49
0.75
 49
-0.125
 49
0.125
 49
-0.125
  0
LTYPE
  2
CENTERX2
 70
    64
  3
________  __  ________  __  ________  __  _____
 72
    65
 73
     4
 40
4.0
 49
2.5
 49
-0.5
 49
0.5
 49
-0.5
  0
LTYPE
  2
DASHDOT
 70
    64
  3
__ . __ . __ . __ . __ . __ . __ . __ . __ . __
 72
    65
 73
     4
 40
1.0
 49
0.5
 49
-0.25
 49
0.0
 49
-0.25
  0
LTYPE
  2
DASHDOT2
 70
    64
  3
_._._._._._._._._._._._._._._._._._._._._._._._
 72
    65
 73
     4
 40
0.5
 49
0.25
 49
-0.125
 49
0.0
 49
-0.125
  0
LTYPE
  2
DASHDOTX2
 70
    64
  3
____  .  ____  .  ____  .  ____  .  ____  .  __
 72
    65
 73
     4
 40
2.0
 49
1.0
 49
-0.5
 49
0.0
 49
-0.5
  0
LTYPE
  2
DASHED
 70
    64
  3
__ __ __ __ __ __ __ __ __ __ __ __ __ __ __ __
 72
    65
 73
     2
 40
0.75
 49
0.5
 49
-0.25
  0
LTYPE
  2
DASHED2
 70
    64
  3
_ _ _ _ _ _ _ _ _ _ _ _ _ _ _ _ _ _ _ _ _ _ _ _
 72
    65
 73
     2
 40
0.375
 49
0.25
 49
-0.125
  0
LTYPE
  2
DASHEDX2
 70
    64
  3
____  ____  ____  ____  ____  ____  ____  ____
 72
    65
 73
     2
 40
1.5
 49
1.0
 49
-0.5
  0
LTYPE
  2
DIVIDE
 70
    64
  3
____ . . ____ . . ____ . . ____ . . ____ . . __
 72
    65
 73
     6
 40
1.25
 49
0.5
 49
-0.25
 49
0.0
 49
-0.25
 49
0.0
 49
-0.25
  0
LTYPE
  2
DIVIDE2
 70
    64
  3
__..__..__..__..__..__..__..__..__..__..__..__.
 72
    65
 73
     6
 40
0.625
 49
0.25
 49
-0.125
 49
0.0
 49
-0.125
 49
0.0
 49
-0.125
  0
LTYPE
  2
DIVIDEX2
 70
    64
  3
________  .  .  ________  .  .  ________  .  .
 72
    65
 73
     6
 40
2.5
 49
1.0
 49
-0.5
 49
0.0
 49
-0.5
 49
0.0
 49
-0.5
  0
LTYPE
  2
DOT
 70
    64
  3
. . . . . . . . . . . . . . . . . . . . . . . .
 72
    65
 73
     2
 40
0.25
 49
0.0
 49
-0.25
  0
LTYPE
  2
DOT2
 70
    64
  3
...............................................
 72
    65
 73
     2
 40
0.125
 49
0.0
 49
-0.125
  0
LTYPE
  2
DOTX2
 70
    64
  3
.  .  .  .  .  .  .  .  .  .  .  .  .  .  .  .
 72
    65
 73
     2
 40
0.5
 49
0.0
 49
-0.5
  0
LTYPE
  2
HIDDEN
 70
    64
  3
__ __ __ __ __ __ __ __ __ __ __ __ __ __ __ __
 72
    65
 73
     2
 40
0.375
 49
0.25
 49
-0.125
  0
LTYPE
  2
HIDDEN2
 70
    64
  3
_ _ _ _ _ _ _ _ _ _ _ _ _ _ _ _ _ _ _ _ _ _ _ _
 72
    65
 73
     2
 40
0.1875
 49
0.125
 49
-0.0625
  0
LTYPE
  2
HIDDENX2
 70
    64
  3
____ ____ ____ ____ ____ ____ ____ ____ ____ __
 72
    65
 73
     2
 40
0.75
 49
0.5
 49
-0.25
  0
LTYPE
  2
PHANTOM
 70
    64
  3
______  __  __  ______  __  __  ______  __  __
 72
    65
 73
     6
 40
2.5
 49
1.25
 49
-0.25
 49
0.25
 49
-0.25
 49
0.25
 49
-0.25
  0
LTYPE
  2
PHANTOM2
 70
    64
  3
___ _ _ ___ _ _ ___ _ _ ___ _ _ ___ _ _ ___ _ _
 72
    65
 73
     6
 40
1.25
 49
0.625
 49
-0.125
 49
0.125
 49
-0.125
 49
0.125
 49
-0.125
  0
LTYPE
  2
PHANTOMX2
 70
    64
  3
____________    ____    ____    ____________
 72
    65
 73
     6
 40
5.0
 49
2.5
 49
-0.5
 49
0.5
 49
-0.5
 49
0.5
 49
-0.5
  0
LTYPE
  2
ACAD_ISO02W100
 70
    64
  3
__ __ __ __ __ __ __ __ __ __ __ __ __ __ __ __
 72
    65
 73
     2
 40
15.0
 49
12.0
 49
-3.0
  0
LTYPE
  2
ACAD_ISO03W100
 70
    64
  3
__    __    __    __    __    __    __    __
 72
    65
 73
     2
 40
30.0
 49
12.0
 49
-18.0
  0
LTYPE
  2
ACAD_ISO04W100
 70
    64
  3
____ . ____ . ____ . ____ . ____ . ____ . ____
 72
    65
 73
     4
 40
30.5
 49
24.0
 49
-3.0
 49
0.5
 49
-3.0
  0
LTYPE
  2
ACAD_ISO05W100
 70
    64
  3
____ .. ____ .. ____ .. ____ .. ____ .. ____ ..
 72
    65
 73
     6
 40
34.0
 49
24.0
 49
-3.0
 49
0.5
 49
-3.0
 49
0.5
 49
-3.0
  0
LTYPE
  2
ACAD_ISO06W100
 70
    64
  3
____ ... ____ ... ____ ... ____ ... ____ ... __
 72
    65
 73
     8
 40
37.5
 49
24.0
 49
-3.0
 49
0.5
 49
-3.0
 49
0.5
 49
-3.0
 49
0.5
 49
-3.0
  0
LTYPE
  2
ACAD_ISO07W100
 70
    64
  3
. . . . . . . . . . . . . . . . . . . . . . . .
 72
    65
 73
     2
 40
3.5
 49
0.5
 49
-3.0
  0
LTYPE
  2
ACAD_ISO08W100
 70
    64
  3
____ __ ____ __ ____ __ ____ ____ __ __ ____ __
 72
    65
 73
     4
 40
36.0
 49
24.0
 49
-3.0
 49
6.0
 49
-3.0
  0
LTYPE
  2
ACAD_ISO09W100
 70
    64
  3
____ __ __ ____ __ __ ____ __ __ ____ __ __ ___
 72
    65
 73
     6
 40
45.0
 49
24.0
 49
-3.0
 49
6.0
 49
-3.0
 49
6.0
 49
-3.0
  0
LTYPE
  2
ACAD_ISO10W100
 70
    64
  3
__ . __ . __ . __ . __ . __ . __ . __ . __ . __
 72
    65
 73
     4
 40
18.5
 49
12.0
 49
-3.0
 49
0.5
 49
-3.0
  0
LTYPE
  2
ACAD_ISO11W100
 70
    64
  3
__ __ . __ __ . __ __ . __ __ . __ __ . __ __ .
 72
    65
 73
     6
 40
33.5
 49
12.0
 49
-3.0
 49
12.0
 49
-3.0
 49
0.5
 49
-3.0
  0
LTYPE
  2
ACAD_ISO12W100
 70
    64
  3
__ . . __ . . __ . . __ . . __ . . __ . . __ .
 72
    65
 73
     6
 40
22.0
 49
12.0
 49
-3.0
 49
0.5
 49
-3.0
 49
0.5
 49
-3.0
  0
LTYPE
  2
ACAD_ISO13W100
 70
    64
  3
__ __ . . __ __ . . __ __ . . __ __ . . __ __ .
 72
    65
 73
     8
 40
37.0
 49
12.0
 49
-3.0
 49
12.0
 49
-3.0
 49
0.5
 49
-3.0
 49
0.5
 49
-3.0
  0
LTYPE
  2
ACAD_ISO14W100
 70
    64
  3
__ . . . __ . . . __ . . . __ . . . __ . . . __
 72
    65
 73
     8
 40
25.5
 49
12.0
 49
-3.0
 49
0.5
 49
-3.0
 49
0.5
 49
-3.0
 49
0.5
 49
-3.0
  0
LTYPE
  2
ACAD_ISO15W100
 70
    64
  3
__ __ . . . __ __ . . . __ __ . . . __ __ . . .
 72
    65
 73
    10
 40
40.5
 49
12.0
 49
-3.0
 49
12.0
 49
-3.0
 49
0.5
 49
-3.0
 49
0.5
 49
-3.0
 49
0.5
 49
-3.0
  0
ENDTAB
  0
TABLE
  2
STYLE
 70
     4
  0
STYLE
  2
STANDARD
 70
    64
 40
0.0
 41
1.0
 50
0.0
 71
     0
 42
0.2
  3
txt
  4

  0
STYLE
  2
TOLERANCE
 70
    64
 40
0.0
 41
1.0
 50
0.0
 71
     0
 42
0.2
  3
../igesfont/iges1003.shx
  4

  0
STYLE
  2
ROMANS
 70
    64
 40
0.0
 41
1.0
 50
0.0
 71
     0
 42
0.2
  3
romans.shx
  4

  0
STYLE
  2
ROMANC
 70
    64
 40
0.0
 41
1.0
 50
0.0
 71
     0
 42
0.2
  3
romanc.shx
  4

  0
ENDTAB
  0
TABLE
  2
DIMSTYLE
 70
     2
  0
DIMSTYLE
  2
UNNAMED
 70
     0
  3

  4

  5

  6

  7

 40
1.0
 41
0.18
 42
0.0625
 43
0.38
 44
0.18
 45
0.0
 46
0.0
 47
0.0
 48
0.0
140
0.18
141
0.09
142
0.0
143
25.4
144
1.0
145
0.0
146
1.0
147
0.09
 71
     0
 72
     0
 73
     1
 74
     1
 75
     0
 76
     0
 77
     0
 78
     0
170
     0
171
     2
172
     0
173
     0
174
     0
175
     0
176
     0
177
     0
178
     0
  0
DIMSTYLE
  2
STANDARD
 70
     0
  3

  4

  5

  6

  7

 40
1.0
 41
0.18
 42
0.0625
 43
0.38
 44
0.18
 45
0.0
 46
0.0
 47
0.0
 48
0.0
140
0.18
141
0.09
142
0.0
143
25.4
144
1.0
145
0.0
146
1.0
147
0.09
 71
     0
 72
     0
 73
     1
 74
     1
 75
     0
 76
     0
 77
     0
 78
     0
170
     0
171
     2
172
     0
173
     0
174
     0
175
     0
176
     0
177
     0
178
     0
  0
ENDTAB
  0
TABLE
  2
LAYER
 70
     2
  0
LAYER
  2
0
 70
     0
 62
     7
  6
CONTINUOUS
  0
LAYER
  2
255
 70
     0
 62
     7
  6
CONTINUOUS
  0
ENDTAB
  0
ENDSEC
  0
SECTION
  2
BLOCKS
  0
BLOCK
  5
     B
  8
0
  6
CONTINUOUS
 62
     7
  2
*UDIM696
 70
    65
 10
0.0
 20
0.0
 30
0.0
  3
*UDIM696
  0
TEXT
  5
     C
  8
0
  6
CONTINUOUS
 62
     7
 10
151.41222942455
 20
-79.6032532212431
 30
0.0
 40
3.00000002980232
  1
224
 50
449.999999896069
 41
0.933333333333333
 72
     1
 11
149.912229416699
 21
-75.7032531797886
 31
0.0
 73
     2
  0
LINE
  5
     D
  8
0
  6
CONTINUOUS
 62
     7
 10
165.251810340446
 20
-47.4282531738281
 30
0.0
 11
150.4122294316
 21
-47.4282531738281
 31
0.0
  0
LINE
  5
     E
  8
0
  6
CONTINUOUS
 62
     7
 10
165.977913654942
 20
-103.428253173828
 30
0.0
 11
150.4122294316
 21
-103.428253173828
 31
0.0
  0
LINE
  5
     F
  8
0
  6
CONTINUOUS
 62
     7
 10
152.4122294316
 20
-47.4282531738281
 30
0.0
 11
152.4122294316
 21
-103.428253173828
 31
0.0
  0
LINE
  5
    10
  8
0
  6
CONTINUOUS
 62
     7
 10
152.9331739496
 20
-50.3826764355097
 30
0.0
 11
152.4122294316
 21
-47.4282531738281
 31
0.0
  0
LINE
  5
    11
  8
0
  6
CONTINUOUS
 62
     7
 10
152.4122294316
 20
-47.4282531738281
 30
0.0
 11
151.8912849136
 21
-50.3826764355097
 31
0.0
  0
LINE
  5
    12
  8
0
  6
CONTINUOUS
 62
     7
 10
151.8912849136
 20
-100.473829912147
 30
0.0
 11
152.4122294316
 21
-103.428253173828
 31
0.0
  0
LINE
  5
    13
  8
0
  6
CONTINUOUS
 62
     7
 10
152.4122294316
 20
-103.428253173828
 30
0.0
 11
152.9331739496
 21
-100.473829912147
 31
0.0
  0
ENDBLK
  5
    14
  8
0
  6
CONTINUOUS
 62
     7
  0
BLOCK
  5
    15
  8
0
  6
CONTINUOUS
 62
     7
  2
*UDIM697
 70
    65
 10
0.0
 20
0.0
 30
0.0
  3
*UDIM697
  0
TEXT
  5
    16
  8
0
  6
CONTINUOUS
 62
     7
 10
148.984261547577
 20
-117.011236112675
 30
0.0
 40
3.00000002980232
  1
5,5
 50
394.482121906793
 41
0.933333333333333
 72
     1
 11
151.349819239172
 21
-113.566800432533
 31
0.0
 73
     2
  0
TEXT
  5
    17
  8
0
  6
CONTINUOUS
 62
     7
 10
146.717428591297
 20
-118.568146043946
 30
0.0
 40
3.00000002980232
  1
Ø
 50
394.482121906793
 41
0.933333333333334
 72
     1
 11
146.774938181585
 21
-116.708927736224
 31
0.0
 73
     2
  0
TEXT
  5
    18
  8
0
  6
CONTINUOUS
 62
     7
 10
155.867190703604
 20
-112.28389143239
 30
0.0
 40
3.00000002980232
  1
-M5
 50
394.482121906793
 41
0.933333333333333
 72
     1
 11
158.232748395198
 21
-108.839455752248
 31
0.0
 73
     2
  0
LINE
  5
    19
  8
0
  6
CONTINUOUS
 62
     7
 10
171.093868877358
 20
-103.039025696835
 30
0.0
 11
147.283577652104
 21
-119.392448928161
 31
0.0
  0
LINE
  5
    1A
  8
0
  6
CONTINUOUS
 62
     7
 10
173.234276245
 20
-100.93696568329
 30
0.0
 11
171.093868877358
 21
-103.039025696835
 31
0.0
  0
LINE
  5
    1B
  8
0
  6
CONTINUOUS
 62
     7
 10
171.093868877358
 20
-103.039025696835
 30
0.0
 11
173.824140740694
 21
-101.795797820589
 31
0.0
  0
LINE
  5
    1C
  8
0
  6
CONTINUOUS
 62
     7
 10
167.820045044063
 20
-105.919540664366
 30
0.0
 11
169.960452411705
 21
-103.817480650822
 31
0.0
  0
LINE
  5
    1D
  8
0
  6
CONTINUOUS
 62
     7
 10
169.960452411705
 20
-103.817480650822
 30
0.0
 11
167.230180548369
 21
-105.060708527067
 31
0.0
  0
ENDBLK
  5
    1E
  8
0
  6
CONTINUOUS
 62
     7
  0
BLOCK
  5
    1F
  8
0
  6
CONTINUOUS
 62
     7
  2
*UDIM698
 70
    65
 10
0.0
 20
0.0
 30
0.0
  3
*UDIM698
  0
TEXT
  5
    20
  8
0
  6
CONTINUOUS
 62
     7
 10
168.311305181452
 20
-69.6110649013014
 30
0.0
 40
3.00000002980232
  1
17,5
 50
359.999999896069
 41
0.933333333333333
 72
     1
 11
173.611305236816
 21
-68.1110648959875
 31
0.0
 73
     2
  0
LINE
  5
    21
  8
0
  6
CONTINUOUS
 62
     7
 10
188.027160644531
 20
-70.6110649108887
 30
0.0
 11
168.311305184166
 21
-70.6110649108887
 31
0.0
  0
LINE
  5
    22
  8
0
  6
CONTINUOUS
 62
     7
 10
190.981583906213
 20
-70.0901203928883
 30
0.0
 11
188.027160644531
 21
-70.6110649108887
 31
0.0
  0
LINE
  5
    23
  8
0
  6
CONTINUOUS
 62
     7
 10
188.027160644531
 20
-70.6110649108887
 30
0.0
 11
190.981583906213
 21
-71.132009428889
 31
0.0
  0
LINE
  5
    24
  8
0
  6
CONTINUOUS
 62
     7
 10
180.69773738285
 20
-71.132009428889
 30
0.0
 11
183.652160644531
 21
-70.6110649108887
 31
0.0
  0
LINE
  5
    25
  8
0
  6
CONTINUOUS
 62
     7
 10
183.652160644531
 20
-70.6110649108887
 30
0.0
 11
180.69773738285
 21
-70.0901203928883
 31
0.0
  0
ENDBLK
  5
    26
  8
0
  6
CONTINUOUS
 62
     7
  0
BLOCK
  5
    27
  8
0
  6
CONTINUOUS
 62
     7
  2
*UDIM699
 70
    65
 10
0.0
 20
0.0
 30
0.0
  3
*UDIM699
  0
TEXT
  5
    28
  8
0
  6
CONTINUOUS
 62
     7
 10
203.594190585423
 20
-101.648390456269
 30
0.0
 40
3.00000002980232
  1
67,25
 50
449.999999896069
 41
0.933333333333333
 72
     1
 11
202.094190582633
 21
-94.9483903869987
 31
0.0
 73
     2
  0
LINE
  5
    29
  8
0
  6
CONTINUOUS
 62
     7
 10
198.566168770304
 20
-86.6157531738281
 30
0.0
 11
206.594190597534
 21
-86.6157531738281
 31
0.0
  0
LINE
  5
    2A
  8
0
  6
CONTINUOUS
 62
     7
 10
191.171026475825
 20
-103.428253173828
 30
0.0
 11
206.594190597534
 21
-103.428253173828
 31
0.0
  0
LINE
  5
    2B
  8
0
  6
CONTINUOUS
 62
     7
 10
204.594190597534
 20
-86.6157531738281
 30
0.0
 11
204.594190597534
 21
-103.428253173828
 31
0.0
  0
LINE
  5
    2C
  8
0
  6
CONTINUOUS
 62
     7
 10
204.073246079534
 20
-83.6613299121465
 30
0.0
 11
204.594190597534
 21
-86.6157531738281
 31
0.0
  0
LINE
  5
    2D
  8
0
  6
CONTINUOUS
 62
     7
 10
204.594190597534
 20
-86.6157531738281
 30
0.0
 11
205.115135115535
 21
-83.6613299121465
 31
0.0
  0
LINE
  5
    2E
  8
0
  6
CONTINUOUS
 62
     7
 10
205.115135115535
 20
-106.38267643551
 30
0.0
 11
204.594190597534
 21
-103.428253173828
 31
0.0
  0
LINE
  5
    2F
  8
0
  6
CONTINUOUS
 62
     7
 10
204.594190597534
 20
-103.428253173828
 30
0.0
 11
204.073246079534
 21
-106.38267643551
 31
0.0
  0
ENDBLK
  5
    30
  8
0
  6
CONTINUOUS
 62
     7
  0
BLOCK
  5
    31
  8
0
  6
CONTINUOUS
 62
     7
  2
*UDIM700
 70
    65
 10
0.0
 20
0.0
 30
0.0
  3
*UDIM700
  0
TEXT
  5
    32
  8
0
  6
CONTINUOUS
 62
     7
 10
176.502160611022
 20
-119.008998866327
 30
0.0
 40
3.00000002980232
  1
70
 50
359.999999896069
 41
0.933333333333333
 72
     1
 11
179.002160638571
 21
-117.508998855948
 31
0.0
 73
     2
  0
LINE
  5
    33
  8
0
  6
CONTINUOUS
 62
     7
 10
188.027160644531
 20
-115.591964413189
 30
0.0
 11
188.027160644531
 21
-122.00899887085
 31
0.0
  0
LINE
  5
    34
  8
0
  6
CONTINUOUS
 62
     7
 10
170.527160644531
 20
-115.796693174945
 30
0.0
 11
170.527160644531
 21
-122.00899887085
 31
0.0
  0
LINE
  5
    35
  8
0
  6
CONTINUOUS
 62
     7
 10
188.027160644531
 20
-120.00899887085
 30
0.0
 11
170.527160644531
 21
-120.00899887085
 31
0.0
  0
LINE
  5
    36
  8
0
  6
CONTINUOUS
 62
     7
 10
185.07273738285
 20
-120.52994338885
 30
0.0
 11
188.027160644531
 21
-120.00899887085
 31
0.0
  0
LINE
  5
    37
  8
0
  6
CONTINUOUS
 62
     7
 10
188.027160644531
 20
-120.00899887085
 30
0.0
 11
185.07273738285
 21
-119.488054352849
 31
0.0
  0
LINE
  5
    38
  8
0
  6
CONTINUOUS
 62
     7
 10
173.481583906213
 20
-119.488054352849
 30
0.0
 11
170.527160644531
 21
-120.00899887085
 31
0.0
  0
LINE
  5
    39
  8
0
  6
CONTINUOUS
 62
     7
 10
170.527160644531
 20
-120.00899887085
 30
0.0
 11
173.481583906213
 21
-120.52994338885
 31
0.0
  0
ENDBLK
  5
    3A
  8
0
  6
CONTINUOUS
 62
     7
  0
BLOCK
  5
    3B
  8
0
  6
CONTINUOUS
 62
     7
  2
*UDIM701
 70
    65
 10
0.0
 20
0.0
 30
0.0
  3
*UDIM701
  0
TEXT
  5
    3C
  8
0
  6
CONTINUOUS
 62
     7
 10
84.5144827076133
 20
-113.872025141895
 30
0.0
 40
3.00000002980232
  1
7
 50
401.743212308633
 41
0.933333333333334
 72
     1
 11
84.3365426699662
 21
-112.020448135194
 31
0.0
 73
     2
  0
TEXT
  5
    3D
  8
0
  6
CONTINUOUS
 62
     7
 10
82.1641535020137
 20
-115.969273979752
 30
0.0
 40
3.00000002980232
  1
Ø
 50
401.743212308633
 41
0.933333333333334
 72
     1
 11
81.9862134643665
 21
-114.11769697305
 31
0.0
 73
     2
  0
LINE
  5
    3E
  8
0
  6
CONTINUOUS
 62
     7
 10
97.322737690957
 20
-103.783184054039
 30
0.0
 11
82.8299467868007
 21
-116.715410232661
 31
0.0
  0
LINE
  5
    3F
  8
0
  6
CONTINUOUS
 62
     7
 10
99.1802986351527
 20
-101.42745330996
 30
0.0
 11
97.322737690957
 21
-103.783184054039
 31
0.0
  0
LINE
  5
    40
  8
0
  6
CONTINUOUS
 62
     7
 10
97.322737690957
 20
-103.783184054039
 30
0.0
 11
99.873981353577
 21
-102.204844491732
 31
0.0
  0
LINE
  5
    41
  8
0
  6
CONTINUOUS
 62
     7
 10
94.1594383033239
 20
-107.304053037697
 30
0.0
 11
96.0169992475195
 21
-104.948322293618
 31
0.0
  0
LINE
  5
    42
  8
0
  6
CONTINUOUS
 62
     7
 10
96.0169992475195
 20
-104.948322293618
 30
0.0
 11
93.4657555848996
 21
-106.526661855924
 31
0.0
  0
ENDBLK
  5
    43
  8
0
  6
CONTINUOUS
 62
     7
  0
BLOCK
  5
    44
  8
0
  6
CONTINUOUS
 62
     7
  2
*UDIM702
 70
    65
 10
0.0
 20
0.0
 30
0.0
  3
*UDIM702
  0
TEXT
  5
    45
  8
0
  6
CONTINUOUS
 62
     7
 10
65.9008331192958
 20
-90.7907532226036
 30
0.0
 40
3.00000002980232
  1
142
 50
449.999999844103
 41
0.933333333333333
 72
     1
 11
64.4008331149817
 21
-86.8907531797886
 31
0.0
 73
     2
  0
LINE
  5
    46
  8
0
  6
CONTINUOUS
 62
     7
 10
94.0448684692383
 20
-68.8657531738281
 30
0.0
 11
64.9008331298828
 21
-68.8657531738281
 31
0.0
  0
LINE
  5
    47
  8
0
  6
CONTINUOUS
 62
     7
 10
94.0448684692383
 20
-104.365753173828
 30
0.0
 11
64.9008331298828
 21
-104.365753173828
 31
0.0
  0
LINE
  5
    48
  8
0
  6
CONTINUOUS
 62
     7
 10
66.9008331298828
 20
-68.8657531738281
 30
0.0
 11
66.9008331298828
 21
-104.365753173828
 31
0.0
  0
LINE
  5
    49
  8
0
  6
CONTINUOUS
 62
     7
 10
67.4217776478832
 20
-71.8201764355097
 30
0.0
 11
66.9008331298828
 21
-68.8657531738281
 31
0.0
  0
LINE
  5
    4A
  8
0
  6
CONTINUOUS
 62
     7
 10
66.9008331298828
 20
-68.8657531738281
 30
0.0
 11
66.3798886118825
 21
-71.8201764355097
 31
0.0
  0
LINE
  5
    4B
  8
0
  6
CONTINUOUS
 62
     7
 10
66.3798886118825
 20
-101.411329912147
 30
0.0
 11
66.9008331298828
 21
-104.365753173828
 31
0.0
  0
LINE
  5
    4C
  8
0
  6
CONTINUOUS
 62
     7
 10
66.9008331298828
 20
-104.365753173828
 30
0.0
 11
67.4217776478832
 21
-101.411329912147
 31
0.0
  0
ENDBLK
  5
    4D
  8
0
  6
CONTINUOUS
 62
     7
  0
BLOCK
  5
    4E
  8
0
  6
CONTINUOUS
 62
     7
  2
*UDIM703
 70
    65
 10
0.0
 20
0.0
 30
0.0
  3
*UDIM703
  0
TEXT
  5
    4F
  8
0
  6
CONTINUOUS
 62
     7
 10
75.9325275315272
 20
-90.7907532226036
 30
0.0
 40
3.00000002980232
  1
112
 50
449.999999844103
 41
0.933333333333333
 72
     1
 11
74.4325275272131
 21
-86.8907531797886
 31
0.0
 73
     2
  0
LINE
  5
    50
  8
0
  6
CONTINUOUS
 62
     7
 10
91.6698684692383
 20
-72.6157531738281
 30
0.0
 11
74.9325275421143
 21
-72.6157531738281
 31
0.0
  0
LINE
  5
    51
  8
0
  6
CONTINUOUS
 62
     7
 10
91.6698684692383
 20
-100.615753173828
 30
0.0
 11
74.9325275421143
 21
-100.615753173828
 31
0.0
  0
LINE
  5
    52
  8
0
  6
CONTINUOUS
 62
     7
 10
76.9325275421143
 20
-72.6157531738281
 30
0.0
 11
76.9325275421143
 21
-100.615753173828
 31
0.0
  0
LINE
  5
    53
  8
0
  6
CONTINUOUS
 62
     7
 10
77.4534720601146
 20
-75.5701764355097
 30
0.0
 11
76.9325275421143
 21
-72.6157531738281
 31
0.0
  0
LINE
  5
    54
  8
0
  6
CONTINUOUS
 62
     7
 10
76.9325275421143
 20
-72.6157531738281
 30
0.0
 11
76.4115830241139
 21
-75.5701764355097
 31
0.0
  0
LINE
  5
    55
  8
0
  6
CONTINUOUS
 62
     7
 10
76.4115830241139
 20
-97.6613299121465
 30
0.0
 11
76.9325275421143
 21
-100.615753173828
 31
0.0
  0
LINE
  5
    56
  8
0
  6
CONTINUOUS
 62
     7
 10
76.9325275421143
 20
-100.615753173828
 30
0.0
 11
77.4534720601146
 21
-97.6613299121465
 31
0.0
  0
ENDBLK
  5
    57
  8
0
  6
CONTINUOUS
 62
     7
  0
BLOCK
  5
    58
  8
0
  6
CONTINUOUS
 62
     7
  2
*UDIM704
 70
    65
 10
0.0
 20
0.0
 30
0.0
  3
*UDIM704
  0
TEXT
  5
    59
  8
0
  6
CONTINUOUS
 62
     7
 10
102.494868420461
 20
-47.8999862564979
 30
0.0
 40
3.00000002980232
  1
112
 50
359.999999844103
 41
0.933333333333333
 72
     1
 11
106.394868463278
 21
-46.3999862521887
 31
0.0
 73
     2
  0
LINE
  5
    5A
  8
0
  6
CONTINUOUS
 62
     7
 10
92.6698684692383
 20
-71.6157531738281
 30
0.0
 11
92.6698684692383
 21
-46.8999862670898
 31
0.0
  0
LINE
  5
    5B
  8
0
  6
CONTINUOUS
 62
     7
 10
120.669868469238
 20
-71.6157531738281
 30
0.0
 11
120.669868469238
 21
-46.8999862670898
 31
0.0
  0
LINE
  5
    5C
  8
0
  6
CONTINUOUS
 62
     7
 10
92.6698684692383
 20
-48.8999862670898
 30
0.0
 11
120.669868469238
 21
-48.8999862670898
 31
0.0
  0
LINE
  5
    5D
  8
0
  6
CONTINUOUS
 62
     7
 10
95.6242917309199
 20
-48.3790417490895
 30
0.0
 11
92.6698684692383
 21
-48.8999862670898
 31
0.0
  0
LINE
  5
    5E
  8
0
  6
CONTINUOUS
 62
     7
 10
92.6698684692383
 20
-48.8999862670898
 30
0.0
 11
95.6242917309199
 21
-49.4209307850902
 31
0.0
  0
LINE
  5
    5F
  8
0
  6
CONTINUOUS
 62
     7
 10
117.715445207557
 20
-49.4209307850902
 30
0.0
 11
120.669868469238
 21
-48.8999862670898
 31
0.0
  0
LINE
  5
    60
  8
0
  6
CONTINUOUS
 62
     7
 10
120.669868469238
 20
-48.8999862670898
 30
0.0
 11
117.715445207557
 21
-48.3790417490895
 31
0.0
  0
ENDBLK
  5
    61
  8
0
  6
CONTINUOUS
 62
     7
  0
BLOCK
  5
    62
  8
0
  6
CONTINUOUS
 62
     7
  2
*UDIM705
 70
    65
 10
0.0
 20
0.0
 30
0.0
  3
*UDIM705
  0
TEXT
  5
    63
  8
0
  6
CONTINUOUS
 62
     7
 10
103.894868434369
 20
-56.0208797386937
 30
0.0
 40
3.00000002980232
  1
80
 50
359.999999844103
 41
0.933333333333333
 72
     1
 11
106.394868463278
 21
-54.5208797305822
 31
0.0
 73
     2
  0
LINE
  5
    64
  8
0
  6
CONTINUOUS
 62
     7
 10
96.6698684692383
 20
-66.2407531738281
 30
0.0
 11
96.6698684692383
 21
-55.0208797454834
 31
0.0
  0
LINE
  5
    65
  8
0
  6
CONTINUOUS
 62
     7
 10
116.669868469238
 20
-66.2407531738281
 30
0.0
 11
116.669868469238
 21
-55.0208797454834
 31
0.0
  0
LINE
  5
    66
  8
0
  6
CONTINUOUS
 62
     7
 10
96.6698684692383
 20
-57.0208797454834
 30
0.0
 11
116.669868469238
 21
-57.0208797454834
 31
0.0
  0
LINE
  5
    67
  8
0
  6
CONTINUOUS
 62
     7
 10
99.6242917309199
 20
-56.4999352274831
 30
0.0
 11
96.6698684692383
 21
-57.0208797454834
 31
0.0
  0
LINE
  5
    68
  8
0
  6
CONTINUOUS
 62
     7
 10
96.6698684692383
 20
-57.0208797454834
 30
0.0
 11
99.6242917309199
 21
-57.5418242634837
 31
0.0
  0
LINE
  5
    69
  8
0
  6
CONTINUOUS
 62
     7
 10
113.715445207557
 20
-57.5418242634837
 30
0.0
 11
116.669868469238
 21
-57.0208797454834
 31
0.0
  0
LINE
  5
    6A
  8
0
  6
CONTINUOUS
 62
     7
 10
116.669868469238
 20
-57.0208797454834
 30
0.0
 11
113.715445207557
 21
-56.4999352274831
 31
0.0
  0
ENDBLK
  5
    6B
  8
0
  6
CONTINUOUS
 62
     7
  0
BLOCK
  5
    6C
  8
0
  6
CONTINUOUS
 62
     7
  2
$2MOSTRINA
 70
    64
 10
0.0
 20
0.0
 30
0.0
  3
$2MOSTRINA
  0
LINE
  5
    6D
  8
0
  6
CONTINUOUS
 62
     3
 10
173.338256835938
 20
30.7306251525879
 30
0.0
 11
173.338256835938
 21
189.230621337891
 31
0.0
  0
LINE
  5
    6E
  8
0
  6
CONTINUOUS
 62
     3
 10
57.5882568359375
 20
29.4806251525879
 30
0.0
 11
172.088256835938
 21
29.4806251525879
 31
0.0
  0
LINE
  5
    6F
  8
0
  6
CONTINUOUS
 62
     3
 10
56.3382568359375
 20
30.7306251525879
 30
0.0
 11
56.3382568359375
 21
189.230621337891
 31
0.0
  0
LINE
  5
    70
  8
0
  6
CONTINUOUS
 62
     3
 10
57.5882568359375
 20
190.480621337891
 30
0.0
 11
172.088256835938
 21
190.480621337891
 31
0.0
  0
LINE
  5
    71
  8
0
  6
CONTINUOUS
 62
     3
 10
167.838256835938
 20
56.9806251525879
 30
0.0
 11
167.838256835938
 21
162.980625152588
 31
0.0
  0
LINE
  5
    72
  8
0
  6
CONTINUOUS
 62
     3
 10
61.8382568359375
 20
56.9806251525879
 30
0.0
 11
167.838256835938
 21
56.9806251525879
 31
0.0
  0
LINE
  5
    73
  8
0
  6
CONTINUOUS
 62
     3
 10
61.8382568359375
 20
56.9806251525879
 30
0.0
 11
61.8382568359375
 21
162.980625152588
 31
0.0
  0
LINE
  5
    74
  8
0
  6
CONTINUOUS
 62
     3
 10
61.8382568359375
 20
162.980621337891
 30
0.0
 11
167.838256835938
 21
162.980621337891
 31
0.0
  0
LINE
  5
    75
  8
0
  6
CONTINUOUS
 62
     3
 10
168.838256835938
 20
48.4806251525879
 30
0.0
 11
168.838256835938
 21
49.4806251525879
 31
0.0
  0
LINE
  5
    76
  8
0
  6
CONTINUOUS
 62
     3
 10
61.8382568359375
 20
50.4806251525879
 30
0.0
 11
167.838256835938
 21
50.4806251525879
 31
0.0
  0
LINE
  5
    77
  8
0
  6
CONTINUOUS
 62
     3
 10
60.8382568359375
 20
48.4806251525879
 30
0.0
 11
60.8382568359375
 21
49.4806251525879
 31
0.0
  0
LINE
  5
    78
  8
0
  6
CONTINUOUS
 62
     3
 10
61.8382568359375
 20
49.4806251525879
 30
0.0
 11
167.838256835938
 21
49.4806251525879
 31
0.0
  0
LINE
  5
    79
  8
0
  6
CONTINUOUS
 62
     3
 10
60.8382568359375
 20
29.4806251525879
 30
0.0
 11
60.8382568359375
 21
48.4806251525879
 31
0.0
  0
LINE
  5
    7A
  8
0
  6
CONTINUOUS
 62
     3
 10
60.8382568359375
 20
49.4806213378906
 30
0.0
 11
60.8382568359375
 21
190.480621337891
 31
0.0
  0
LINE
  5
    7B
  8
0
  6
CONTINUOUS
 62
     3
 10
61.8382568359375
 20
29.4806251525879
 30
0.0
 11
61.8382568359375
 21
49.4806251525879
 31
0.0
  0
LINE
  5
    7C
  8
0
  6
CONTINUOUS
 62
     3
 10
61.8382568359375
 20
162.980621337891
 30
0.0
 11
61.8382568359375
 21
169.480621337891
 31
0.0
  0
LINE
  5
    7D
  8
0
  6
CONTINUOUS
 62
     3
 10
61.8382568359375
 20
50.4806251525879
 30
0.0
 11
61.8382568359375
 21
56.9806251525879
 31
0.0
  0
LINE
  5
    7E
  8
0
  6
CONTINUOUS
 62
     3
 10
168.838256835938
 20
29.4806251525879
 30
0.0
 11
168.838256835938
 21
48.4806251525879
 31
0.0
  0
LINE
  5
    7F
  8
0
  6
CONTINUOUS
 62
     3
 10
168.838256835938
 20
49.4806251525879
 30
0.0
 11
168.838256835938
 21
190.480621337891
 31
0.0
  0
LINE
  5
    80
  8
0
  6
CONTINUOUS
 62
     3
 10
167.838256835938
 20
50.4806251525879
 30
0.0
 11
167.838256835938
 21
56.9806251525879
 31
0.0
  0
LINE
  5
    81
  8
0
  6
CONTINUOUS
 62
     3
 10
167.838256835938
 20
162.980621337891
 30
0.0
 11
167.838256835938
 21
169.480621337891
 31
0.0
  0
LINE
  5
    82
  8
0
  6
CONTINUOUS
 62
     3
 10
167.838256835938
 20
29.4806251525879
 30
0.0
 11
167.838256835938
 21
49.4806251525879
 31
0.0
  0
LINE
  5
    83
  8
0
  6
CONTINUOUS
 62
     3
 10
60.8382568359375
 20
170.480621337891
 30
0.0
 11
168.838256835938
 21
170.480621337891
 31
0.0
  0
LINE
  5
    84
  8
0
  6
CONTINUOUS
 62
     3
 10
61.8382568359375
 20
169.480621337891
 30
0.0
 11
167.838256835938
 21
169.480621337891
 31
0.0
  0
ARC
  5
    85
  8
0
  6
CONTINUOUS
 62
     3
 10
57.5882568359375
 20
30.7306251525879
 30
0.0
 40
1.25
 50
180.0
 51
270.0
  0
ARC
  5
    86
  8
0
  6
CONTINUOUS
 62
     3
 10
172.088256835938
 20
30.7306251525879
 30
0.0
 40
1.25
 50
270.0
 51
360.0
  0
ARC
  5
    87
  8
0
  6
CONTINUOUS
 62
     3
 10
172.088256835938
 20
189.230621337891
 30
0.0
 40
1.25
 50
0.0
 51
90.0
  0
ARC
  5
    88
  8
0
  6
CONTINUOUS
 62
     3
 10
57.5882568359375
 20
189.230621337891
 30
0.0
 40
1.25
 50
90.0
 51
180.0
  0
LINE
  5
    89
  8
0
  6
DOT
 62
     3
 10
60.3382577409677
 20
179.7306252571
 30
0.0
 11
60.8382568359375
 21
179.7306252571
 31
0.0
  0
LINE
  5
    8A
  8
0
  6
DOT
 62
     3
 10
60.3382577409676
 20
181.2306252571
 30
0.0
 11
60.8382568359375
 21
181.2306252571
 31
0.0
  0
LINE
  5
    8B
  8
0
  6
CONTINUOUS
 62
     3
 10
168.338257745313
 20
179.730625257273
 30
0.0
 11
168.838256835938
 21
179.730625257273
 31
0.0
  0
LINE
  5
    8C
  8
0
  6
CONTINUOUS
 62
     3
 10
168.338257745314
 20
181.230625257273
 30
0.0
 11
168.838256835938
 21
181.230625257273
 31
0.0
  0
ARC
  5
    8D
  8
0
  6
DOT
 62
     3
 10
60.3382577401871
 20
180.480625257147
 30
0.0
 40
0.749999999345164
 50
90.0
 51
270.0
  0
ARC
  5
    8E
  8
0
  6
CONTINUOUS
 62
     3
 10
61.338257740822
 20
180.480625256974
 30
0.0
 40
0.750000000009701
 50
270.0
 51
450.0
  0
LINE
  5
    8F
  8
0
  6
CONTINUOUS
 62
     3
 10
60.8382568359375
 20
181.2306252571
 30
0.0
 11
61.3382577409688
 21
181.2306252571
 31
0.0
  0
LINE
  5
    90
  8
0
  6
CONTINUOUS
 62
     3
 10
60.8382568359375
 20
179.7306252571
 30
0.0
 11
61.3382577409689
 21
179.7306252571
 31
0.0
  0
ARC
  5
    91
  8
0
  6
CONTINUOUS
 62
     3
 10
168.338257745503
 20
180.480625256952
 30
0.0
 40
0.750000000048506
 50
90.0000000038822
 51
269.999999996024
  0
ARC
  5
    92
  8
0
  6
DOT
 62
     3
 10
169.338257745421
 20
180.480625256965
 30
0.0
 40
0.750000000029104
 50
270.000000002449
 51
449.999999997486
  0
LINE
  5
    93
  8
0
  6
DOT
 62
     3
 10
168.838256835938
 20
181.230625257273
 30
0.0
 11
169.338257745315
 21
181.230625257273
 31
0.0
  0
LINE
  5
    94
  8
0
  6
DOT
 62
     3
 10
168.838256835938
 20
179.730625257273
 30
0.0
 11
169.338257745315
 21
179.730625257273
 31
0.0
  0
POINT
  5
    95
  8
0
  6
CONTINUOUS
 62
     3
 10
114.838256835938
 20
109.980621337891
 30
0.0
  0
ENDBLK
  5
    96
  8
0
  6
CONTINUOUS
 62
     7
  0
BLOCK
  5
    97
  8
0
  6
CONTINUOUS
 62
     7
  2
T_A_D_F_IV
 70
    64
 10
0.0
 20
0.0
 30
0.0
  3
T_A_D_F_IV
  0
LINE
  5
    98
  8
0
  6
CONTINUOUS
 62
     7
 10
64.0882153801636
 20
197.237045288086
 30
0.0
 11
65.7700581398807
 21
197.237045288086
 31
0.0
  0
LINE
  5
    99
  8
0
  6
CONTINUOUS
 62
     1
 10
102.838215380164
 20
199.737045288086
 30
0.0
 11
102.838215380164
 21
202.737045288086
 31
0.0
  0
LINE
  5
    9A
  8
0
  6
CONTINUOUS
 62
     1
 10
91.8382153801636
 20
202.737045288086
 30
0.0
 11
95.8382153801636
 21
202.737045288086
 31
0.0
  0
LINE
  5
    9B
  8
0
  6
CONTINUOUS
 62
     1
 10
98.8382153801636
 20
202.737045288086
 30
0.0
 11
102.838215380164
 21
202.737045288086
 31
0.0
  0
LINE
  5
    9C
  8
0
  6
CONTINUOUS
 62
     1
 10
91.8382153801636
 20
199.737045288086
 30
0.0
 11
91.8382153801636
 21
202.737045288086
 31
0.0
  0
LINE
  5
    9D
  8
0
  6
CONTINUOUS
 62
     1
 10
91.8382153801636
 20
200.737045288086
 30
0.0
 11
102.838215380164
 21
200.737045288086
 31
0.0
  0
LINE
  5
    9E
  8
0
  6
CONTINUOUS
 62
     1
 10
56.8382153801636
 20
197.237045288086
 30
0.0
 11
56.8382153801636
 21
202.737045288086
 31
0.0
  0
LINE
  5
    9F
  8
0
  6
CONTINUOUS
 62
     1
 10
60.5882153801636
 20
194.437044858932
 30
0.0
 11
60.8382153801636
 21
194.437044858932
 31
0.0
  0
LINE
  5
    A0
  8
0
  6
CONTINUOUS
 62
     1
 10
60.0882153801636
 20
191.237044811249
 30
0.0
 11
60.0882153801636
 21
194.237045288086
 31
0.0
  0
LINE
  5
    A1
  8
0
  6
CONTINUOUS
 62
     1
 10
60.0882153801636
 20
191.237044811249
 30
0.0
 11
64.5882153801636
 21
191.237044811249
 31
0.0
  0
LINE
  5
    A2
  8
0
  6
CONTINUOUS
 62
     1
 10
64.5882153801636
 20
191.237044811249
 30
0.0
 11
64.5882153801636
 21
194.237045288086
 31
0.0
  0
LINE
  5
    A3
  8
0
  6
CONTINUOUS
 62
     1
 10
63.8382153801636
 20
194.437044858932
 30
0.0
 11
64.0882153801636
 21
194.437044858932
 31
0.0
  0
LINE
  5
    A4
  8
0
  6
CONTINUOUS
 62
     1
 10
63.8382153801636
 20
194.437044620514
 30
0.0
 11
63.8382153801636
 21
199.737044811249
 31
0.0
  0
LINE
  5
    A5
  8
0
  6
CONTINUOUS
 62
     1
 10
60.8382153801636
 20
194.437044858932
 30
0.0
 11
60.8382153801636
 21
199.737044811249
 31
0.0
  0
LINE
  5
    A6
  8
0
  6
CONTINUOUS
 62
     1
 10
60.8382153801636
 20
193.437044858932
 30
0.0
 11
60.8382153801636
 21
194.437044858932
 31
0.0
  0
LINE
  5
    A7
  8
0
  6
CONTINUOUS
 62
     1
 10
63.8382153801636
 20
193.437044858932
 30
0.0
 11
63.8382153801636
 21
194.437044858932
 31
0.0
  0
LINE
  5
    A8
  8
0
  6
CONTINUOUS
 62
     1
 10
60.0882153801636
 20
193.437044858932
 30
0.0
 11
60.8382153801636
 21
193.437044858932
 31
0.0
  0
LINE
  5
    A9
  8
0
  6
CONTINUOUS
 62
     1
 10
63.8382153801636
 20
193.437044858932
 30
0.0
 11
64.5882153801636
 21
193.437044858932
 31
0.0
  0
LINE
  5
    AA
  8
0
  6
CONTINUOUS
 62
     1
 10
63.8382153801636
 20
197.237045288086
 30
0.0
 11
65.7700581398807
 21
197.237045288086
 31
0.0
  0
LINE
  5
    AB
  8
0
  6
CONTINUOUS
 62
     1
 10
56.8382153801636
 20
197.237045288086
 30
0.0
 11
60.8382153801636
 21
197.237045288086
 31
0.0
  0
LINE
  5
    AC
  8
0
  6
CONTINUOUS
 62
     1
 10
96.3382153801636
 20
312.737045288086
 30
0.0
 11
98.3382153801636
 21
312.737045288086
 31
0.0
  0
LINE
  5
    AD
  8
0
  6
CONTINUOUS
 62
     1
 10
95.8382153801636
 20
202.737045288086
 30
0.0
 11
96.1424851161035
 21
295.235045013794
 31
0.0
  0
LINE
  5
    AE
  8
0
  6
CONTINUOUS
 62
     1
 10
98.3382153801636
 20
312.737045288092
 30
0.0
 11
98.3843599806868
 21
298.709086729054
 31
0.0
  0
LINE
  5
    AF
  8
0
  6
DASHDOT
 62
     7
 10
29.8379736115248
 20
238.486891853375
 30
0.0
 11
29.8379736115248
 21
248.98689163968
 31
0.0
  0
LINE
  5
    B0
  8
0
  6
DASHDOT
 62
     7
 10
24.5879737183725
 20
243.736891746528
 30
0.0
 11
35.087973504677
 21
243.736891746528
 31
0.0
  0
LINE
  5
    B1
  8
0
  6
DASHDOT
 62
     7
 10
74.8379731603813
 20
238.48693824601
 30
0.0
 11
74.8379731603813
 21
248.986936799778
 31
0.0
  0
LINE
  5
    B2
  8
0
  6
DASHDOT
 62
     7
 10
69.5879738834971
 20
243.736937522894
 30
0.0
 11
80.0879724372654
 21
243.736937522894
 31
0.0
  0
LINE
  5
    B3
  8
0
  6
DASHDOT
 62
     7
 10
119.837973619047
 20
238.486983550758
 30
0.0
 11
119.837973619047
 21
248.986983047765
 31
0.0
  0
LINE
  5
    B4
  8
0
  6
DASHDOT
 62
     7
 10
114.587973870543
 20
243.736983299262
 30
0.0
 11
125.08797336755
 21
243.736983299262
 31
0.0
  0
LINE
  5
    B5
  8
0
  6
DASHDOT
 62
     7
 10
164.837973619023
 20
238.487029415254
 30
0.0
 11
164.837973619023
 21
248.987028736005
 31
0.0
  0
LINE
  5
    B6
  8
0
  6
DASHDOT
 62
     7
 10
159.587973958648
 20
243.737029075629
 30
0.0
 11
170.087973279399
 21
243.737029075629
 31
0.0
  0
LINE
  5
    B7
  8
0
  6
CONTINUOUS
 62
     7
 10
44.8379609034125
 20
256.236922262079
 30
0.0
 11
44.8379812484801
 21
236.236907004403
 31
0.0
  0
LINE
  5
    B8
  8
0
  6
CONTINUOUS
 62
     7
 10
44.8379812484801
 20
236.23690700532
 30
0.0
 11
54.8380053573508
 21
216.286927904357
 31
0.0
  0
LINE
  5
    B9
  8
0
  6
CONTINUOUS
 62
     7
 10
54.8380053573507
 20
216.286927903493
 30
0.0
 11
54.8380247358934
 21
197.237045284512
 31
0.0
  0
LINE
  5
    BA
  8
0
  6
CONTINUOUS
 62
     7
 10
34.8380072647152
 20
216.286902174815
 30
0.0
 11
34.8380266432317
 21
197.237045288277
 31
0.0
  0
LINE
  5
    BB
  8
0
  6
CONTINUOUS
 62
     7
 10
14.8379812484956
 20
236.236876487742
 30
0.0
 11
34.8380072647152
 21
216.286902174649
 31
0.0
  0
CIRCLE
  5
    BC
  8
0
  6
CONTINUOUS
 62
     7
 10
29.8379736115248
 20
243.736891746528
 30
0.0
 40
4.24999989315225
  0
LINE
  5
    BD
  8
0
  6
CONTINUOUS
 62
     7
 10
59.8379609034357
 20
256.236907016416
 30
0.0
 11
59.8379812484723
 21
236.236922268867
 31
0.0
  0
LINE
  5
    BE
  8
0
  6
CONTINUOUS
 62
     7
 10
59.837960849907
 20
256.23690700531
 30
0.0
 11
89.8379608485274
 21
256.236937522888
 31
0.0
  0
CIRCLE
  5
    BF
  8
0
  6
CONTINUOUS
 62
     7
 10
74.8379731603813
 20
243.736937522894
 30
0.0
 40
4.24999927688413
  0
LINE
  5
    C0
  8
0
  6
CONTINUOUS
 62
     7
 10
59.8379812484724
 20
236.23692226411
 30
0.0
 11
69.8380015426479
 21
216.286941057142
 31
0.0
  0
LINE
  5
    C1
  8
0
  6
CONTINUOUS
 62
     7
 10
69.8380015426478
 20
216.286941051525
 30
0.0
 11
69.8380183780724
 21
199.737045291618
 31
0.0
  0
LINE
  5
    C2
  8
0
  6
CONTINUOUS
 62
     7
 10
89.8379609034202
 20
256.236937517405
 30
0.0
 11
89.8380183780827
 21
199.737045280869
 31
0.0
  0
LINE
  5
    C3
  8
0
  6
CONTINUOUS
 62
     7
 10
104.837960847838
 20
256.236952781677
 30
0.0
 11
134.837960846458
 21
256.236983299256
 31
0.0
  0
LINE
  5
    C4
  8
0
  6
CONTINUOUS
 62
     7
 10
134.837960903397
 20
256.236983303813
 30
0.0
 11
134.837981248434
 21
236.236998577219
 31
0.0
  0
LINE
  5
    C5
  8
0
  6
CONTINUOUS
 62
     7
 10
124.838001542619
 20
216.286997006036
 30
0.0
 11
134.837981248434
 21
236.236998558055
 31
0.0
  0
CIRCLE
  5
    C6
  8
0
  6
CONTINUOUS
 62
     7
 10
119.837973619047
 20
243.736983299262
 30
0.0
 40
4.24999974850352
  0
LINE
  5
    C7
  8
0
  6
CONTINUOUS
 62
     7
 10
124.838001542619
 20
216.286997023555
 30
0.0
 11
124.838018378101
 21
199.737045300475
 31
0.0
  0
LINE
  5
    C8
  8
0
  6
CONTINUOUS
 62
     7
 10
104.837960903412
 20
256.236952788854
 30
0.0
 11
104.838018378091
 21
199.737045283284
 31
0.0
  0
LINE
  5
    C9
  8
0
  6
CONTINUOUS
 62
     7
 10
139.837993913233
 20
216.286997095816
 30
0.0
 11
139.838010748714
 21
199.737045316856
 31
0.0
  0
LINE
  5
    CA
  8
0
  6
CONTINUOUS
 62
     7
 10
159.838001542601
 20
216.287032610371
 30
0.0
 11
159.838018378119
 21
199.737045292141
 31
0.0
  0
LINE
  5
    CB
  8
0
  6
CONTINUOUS
 62
     7
 10
139.837993913233
 20
216.286997044181
 30
0.0
 11
149.837981248426
 21
236.237013816844
 31
0.0
  0
LINE
  5
    CC
  8
0
  6
CONTINUOUS
 62
     7
 10
149.837960903358
 20
256.23702907142
 30
0.0
 11
149.837981248426
 21
236.237013806759
 31
0.0
  0
LINE
  5
    CD
  8
0
  6
CONTINUOUS
 62
     7
 10
149.837960903358
 20
256.237029075623
 30
0.0
 11
179.837960903374
 21
256.237029075623
 31
0.0
  0
LINE
  5
    CE
  8
0
  6
CONTINUOUS
 62
     7
 10
179.837960903374
 20
256.237029076251
 30
0.0
 11
179.83798124841
 21
236.237044321717
 31
0.0
  0
LINE
  5
    CF
  8
0
  6
CONTINUOUS
 62
     7
 10
159.838001542601
 20
216.287032609877
 30
0.0
 11
179.83798124841
 21
236.237044334422
 31
0.0
  0
CIRCLE
  5
    D0
  8
0
  6
CONTINUOUS
 62
     7
 10
164.837973619023
 20
243.737029075629
 30
0.0
 40
4.24999966037541
  0
LINE
  5
    D1
  8
0
  6
CONTINUOUS
 62
     7
 10
14.8379608945887
 20
256.236861228943
 30
0.0
 11
44.8379608938678
 21
256.236922264099
 31
0.0
  0
LINE
  5
    D2
  8
0
  6
CONTINUOUS
 62
     1
 10
137.838215380164
 20
199.737045288086
 30
0.0
 11
137.838215380164
 21
202.737045288086
 31
0.0
  0
LINE
  5
    D3
  8
0
  6
CONTINUOUS
 62
     1
 10
126.838215380164
 20
202.737045288086
 30
0.0
 11
130.838215380164
 21
202.737045288086
 31
0.0
  0
LINE
  5
    D4
  8
0
  6
CONTINUOUS
 62
     1
 10
133.838215380164
 20
202.737045288086
 30
0.0
 11
137.838215380164
 21
202.737045288086
 31
0.0
  0
LINE
  5
    D5
  8
0
  6
CONTINUOUS
 62
     1
 10
126.838215380164
 20
199.737045288086
 30
0.0
 11
126.838215380164
 21
202.737045288086
 31
0.0
  0
LINE
  5
    D6
  8
0
  6
CONTINUOUS
 62
     1
 10
126.838215380164
 20
199.737045288086
 30
0.0
 11
137.838215380164
 21
199.737045288086
 31
0.0
  0
LINE
  5
    D7
  8
0
  6
CONTINUOUS
 62
     1
 10
126.838215380164
 20
200.737045288086
 30
0.0
 11
137.838215380164
 21
200.737045288086
 31
0.0
  0
LINE
  5
    D8
  8
0
  6
CONTINUOUS
 62
     1
 10
133.838215380164
 20
202.737045288086
 30
0.0
 11
133.838215380164
 21
214.920120346702
 31
0.0
  0
LINE
  5
    D9
  8
0
  6
DASHDOT
 62
     7
 10
132.338215380164
 20
196.612263299655
 30
0.0
 11
132.338215380164
 21
213.45475467167
 31
0.0
  0
LINE
  5
    DA
  8
0
  6
CONTINUOUS
 62
     1
 10
133.838215380164
 20
214.920120346702
 30
0.0
 11
144.037373012243
 21
232.258686735728
 31
0.0
  0
LINE
  5
    DB
  8
0
  6
CONTINUOUS
 62
     1
 10
130.838215380164
 20
215.737045288086
 30
0.0
 11
141.008012043851
 21
233.025698035408
 31
0.0
  0
LINE
  5
    DC
  8
0
  6
CONTINUOUS
 62
     1
 10
130.838215380164
 20
202.737045288086
 30
0.0
 11
130.838215380164
 21
215.737045288086
 31
0.0
  0
LINE
  5
    DD
  8
0
  6
CONTINUOUS
 62
     1
 10
141.008012043851
 20
233.025698035419
 30
0.0
 11
141.140095714858
 21
295.235605582718
 31
0.0
  0
LINE
  5
    DE
  8
0
  6
CONTINUOUS
 62
     1
 10
143.490444697723
 20
312.737045288097
 30
0.0
 11
143.553263634394
 21
298.669460843866
 31
0.0
  0
LINE
  5
    DF
  8
0
  6
CONTINUOUS
 62
     1
 10
56.8382153801636
 20
199.737045288086
 30
0.0
 11
56.8382153801636
 21
202.737045288086
 31
0.0
  0
LINE
  5
    E0
  8
0
  6
CONTINUOUS
 62
     1
 10
63.8382153801636
 20
202.737045288086
 30
0.0
 11
67.8382153801636
 21
202.737045288086
 31
0.0
  0
LINE
  5
    E1
  8
0
  6
CONTINUOUS
 62
     1
 10
56.8382153801636
 20
202.737045288086
 30
0.0
 11
60.8382153801636
 21
202.737045288086
 31
0.0
  0
LINE
  5
    E2
  8
0
  6
CONTINUOUS
 62
     1
 10
67.8382153801636
 20
199.737045288086
 30
0.0
 11
67.8382153801636
 21
202.737045288086
 31
0.0
  0
LINE
  5
    E3
  8
0
  6
CONTINUOUS
 62
     1
 10
56.8382153801636
 20
199.737045288086
 30
0.0
 11
67.8382153801636
 21
199.737045288086
 31
0.0
  0
LINE
  5
    E4
  8
0
  6
CONTINUOUS
 62
     1
 10
56.8382153801636
 20
200.737045288086
 30
0.0
 11
67.8382153801636
 21
200.737045288086
 31
0.0
  0
LINE
  5
    E5
  8
0
  6
CONTINUOUS
 62
     1
 10
60.8382153801635
 20
202.737045288086
 30
0.0
 11
60.8382153801635
 21
214.920120346702
 31
0.0
  0
LINE
  5
    E6
  8
0
  6
DASHDOT
 62
     7
 10
62.3382153801635
 20
196.612263299655
 30
0.0
 11
62.3382153801635
 21
213.45475467167
 31
0.0
  0
LINE
  5
    E7
  8
0
  6
CONTINUOUS
 62
     1
 10
50.639057748084
 20
232.258686735728
 30
0.0
 11
60.8382153801636
 21
214.920120346702
 31
0.0
  0
LINE
  5
    E8
  8
0
  6
CONTINUOUS
 62
     1
 10
53.6684187164768
 20
233.025698035408
 30
0.0
 11
63.8382153801636
 21
215.737045288086
 31
0.0
  0
LINE
  5
    E9
  8
0
  6
CONTINUOUS
 62
     1
 10
63.8382153801635
 20
202.737045288086
 30
0.0
 11
63.8382153801635
 21
215.737045288086
 31
0.0
  0
LINE
  5
    EA
  8
0
  6
CONTINUOUS
 62
     1
 10
53.410001975765
 20
312.737045288089
 30
0.0
 11
53.4398136684273
 21
298.696076936693
 31
0.0
  0
LINE
  5
    EB
  8
0
  6
CONTINUOUS
 62
     1
 10
50.639057748084
 20
232.258686735726
 30
0.0
 11
50.9205118427566
 21
295.287121373609
 31
0.0
  0
LINE
  5
    EC
  8
0
  6
CONTINUOUS
 62
     1
 10
51.1859860626042
 20
312.737045288086
 30
0.0
 11
53.410001975765
 21
312.737045288086
 31
0.0
  0
LINE
  5
    ED
  8
0
  6
CONTINUOUS
 62
     1
 10
141.266428784562
 20
312.737045288086
 30
0.0
 11
143.490444697723
 21
312.737045288086
 31
0.0
  0
LINE
  5
    EE
  8
0
  6
CONTINUOUS
 62
     7
 10
141.977939178133
 20
216.237029075623
 30
0.0
 11
157.620555245516
 21
216.237029075623
 31
0.0
  0
LINE
  5
    EF
  8
0
  6
CONTINUOUS
 62
     7
 10
141.977939178133
 20
206.737029075623
 30
0.0
 11
157.739964528473
 21
206.737029075623
 31
0.0
  0
LINE
  5
    F0
  8
0
  6
CONTINUOUS
 62
     7
 10
106.977939178133
 20
216.237029075623
 30
0.0
 11
122.620555245516
 21
216.237029075623
 31
0.0
  0
LINE
  5
    F1
  8
0
  6
CONTINUOUS
 62
     7
 10
106.977939178133
 20
206.737029075623
 30
0.0
 11
122.739964528473
 21
206.737029075623
 31
0.0
  0
LINE
  5
    F2
  8
0
  6
CONTINUOUS
 62
     7
 10
71.9779391781331
 20
216.237029075623
 30
0.0
 11
87.620555245516
 21
216.237029075623
 31
0.0
  0
LINE
  5
    F3
  8
0
  6
CONTINUOUS
 62
     7
 10
71.9779391781331
 20
206.737029075623
 30
0.0
 11
87.7399645284732
 21
206.737029075623
 31
0.0
  0
LINE
  5
    F4
  8
0
  6
CONTINUOUS
 62
     7
 10
36.9779391781331
 20
216.237029075623
 30
0.0
 11
52.620555245516
 21
216.237029075623
 31
0.0
  0
LINE
  5
    F5
  8
0
  6
CONTINUOUS
 62
     7
 10
36.9779391781331
 20
206.737029075623
 30
0.0
 11
52.7399645284732
 21
206.737029075623
 31
0.0
  0
LINE
  5
    F6
  8
0
  6
CONTINUOUS
 62
     7
 10
14.8379609034591
 20
256.236861228262
 30
0.0
 11
14.8379812484957
 21
236.236876487698
 31
0.0
  0
POINT
  5
    F7
  8
0
  6
CONTINUOUS
 62
     7
 10
114.838250494329
 20
199.737045288086
 30
0.0
  0
LINE
  5
    F8
  8
0
  6
CONTINUOUS
 62
     1
 10
143.758892511236
 20
294.621218984757
 30
0.0
 11
144.037373012243
 21
232.258686735732
 31
0.0
  0
LINE
  5
    F9
  8
0
  6
CONTINUOUS
 62
     1
 10
141.237713990497
 20
299.212703706425
 30
0.0
 11
141.266428784562
 21
312.737045288085
 31
0.0
  0
LINE
  5
    FA
  8
0
  6
CONTINUOUS
 62
     1
 10
98.5357926355431
 20
294.673559652739
 30
0.0
 11
98.8382153801636
 21
202.737045288092
 31
0.0
  0
LINE
  5
    FB
  8
0
  6
CONTINUOUS
 62
     1
 10
96.2936842204329
 20
299.199572729937
 30
0.0
 11
96.3382153801636
 21
312.73704528809
 31
0.0
  0
LINE
  5
    FC
  8
0
  6
CONTINUOUS
 62
     1
 10
53.5375292427618
 20
294.673152233499
 30
0.0
 11
53.6684187164767
 21
233.02569803541
 31
0.0
  0
LINE
  5
    FD
  8
0
  6
CONTINUOUS
 62
     1
 10
51.1257103215077
 20
299.238980488665
 30
0.0
 11
51.1859860626042
 21
312.737045288081
 31
0.0
  0
LINE
  5
    FE
  8
0
  6
CONTINUOUS
 62
     7
 10
48.1750781881432
 20
295.93121779427
 30
0.0
 11
56.1432697496277
 21
294.061828725162
 31
0.0
  0
LINE
  5
    FF
  8
0
  6
CONTINUOUS
 62
     7
 10
48.1750781881432
 20
299.93121779427
 30
0.0
 11
56.1432697496277
 21
298.061828725162
 31
0.0
  0
LINE
  5
   100
  8
0
  6
CONTINUOUS
 62
     7
 10
93.1750781881432
 20
299.93121779427
 30
0.0
 11
101.143269749628
 21
298.061828725162
 31
0.0
  0
LINE
  5
   101
  8
0
  6
CONTINUOUS
 62
     7
 10
93.1750781881432
 20
295.93121779427
 30
0.0
 11
101.143269749628
 21
294.061828725162
 31
0.0
  0
LINE
  5
   102
  8
0
  6
CONTINUOUS
 62
     7
 10
138.175078188143
 20
295.93121779427
 30
0.0
 11
146.143269749628
 21
294.061828725162
 31
0.0
  0
LINE
  5
   103
  8
0
  6
CONTINUOUS
 62
     7
 10
138.175078188143
 20
299.93121779427
 30
0.0
 11
146.143269749628
 21
298.061828725162
 31
0.0
  0
ENDBLK
  5
   104
  8
0
  6
CONTINUOUS
 62
     7
  0
BLOCK
  5
   105
  8
0
  6
CONTINUOUS
 62
     7
  2
*UDIM706
 70
    65
 10
0.0
 20
0.0
 30
0.0
  3
*UDIM706
  0
TEXT
  5
   106
  8
0
  6
CONTINUOUS
 62
     7
 10
111.991333113972
 20
161.047164741488
 30
0.0
 40
2.99999994933605
  1
5
 50
359.999999948034
 41
0.933333333333333
 72
     1
 11
113.091333096748
 21
162.547164715164
 31
0.0
 73
     2
  0
LINE
  5
   107
  8
0
  6
CONTINUOUS
 62
     7
 10
108.669755896772
 20
152.432933790146
 30
0.0
 11
108.669755896772
 21
162.047164740495
 31
0.0
  0
LINE
  5
   108
  8
0
  6
CONTINUOUS
 62
     7
 10
106.669866617084
 20
146.039863874245
 30
0.0
 11
106.669866617084
 21
162.047164740495
 31
0.0
  0
LINE
  5
   109
  8
0
  6
CONTINUOUS
 62
     7
 10
114.191333078171
 20
160.047164740495
 30
0.0
 11
101.669866617084
 21
160.047164740495
 31
0.0
  0
LINE
  5
   10A
  8
0
  6
CONTINUOUS
 62
     7
 10
111.567533369983
 20
160.823621896914
 30
0.0
 11
108.669755896772
 21
160.047164740495
 31
0.0
  0
LINE
  5
   10B
  8
0
  6
CONTINUOUS
 62
     7
 10
108.669755896772
 20
160.047164740495
 30
0.0
 11
111.567533369983
 21
159.270707584077
 31
0.0
  0
LINE
  5
   10C
  8
0
  6
CONTINUOUS
 62
     7
 10
103.772089143874
 20
159.270707584077
 30
0.0
 11
106.669866617084
 21
160.047164740495
 31
0.0
  0
LINE
  5
   10D
  8
0
  6
CONTINUOUS
 62
     7
 10
106.669866617084
 20
160.047164740495
 30
0.0
 11
103.772089143874
 21
160.823621896914
 31
0.0
  0
ENDBLK
  5
   10E
  8
0
  6
CONTINUOUS
 62
     7
  0
BLOCK
  5
   10F
  8
0
  6
CONTINUOUS
 62
     7
  2
*UDIM707
 70
    65
 10
0.0
 20
0.0
 30
0.0
  3
*UDIM707
  0
TEXT
  5
   110
  8
0
  6
CONTINUOUS
 62
     7
 10
115.169756071745
 20
179.954380577178
 30
0.0
 40
2.99999994933605
  1
45
 50
359.999999948034
 41
0.933333333333333
 72
     1
 11
117.669756030878
 21
181.454380549591
 31
0.0
 73
     2
  0
LINE
  5
   111
  8
0
  6
CONTINUOUS
 62
     7
 10
126.669756164984
 20
152.432952065442
 30
0.0
 11
126.669756164984
 21
180.954380574923
 31
0.0
  0
LINE
  5
   112
  8
0
  6
CONTINUOUS
 62
     7
 10
108.669755896772
 20
152.432933790146
 30
0.0
 11
108.669755896772
 21
180.954380574923
 31
0.0
  0
LINE
  5
   113
  8
0
  6
CONTINUOUS
 62
     7
 10
126.669756164984
 20
178.954380574923
 30
0.0
 11
108.669755896772
 21
178.954380574923
 31
0.0
  0
LINE
  5
   114
  8
0
  6
CONTINUOUS
 62
     7
 10
123.771978691773
 20
178.177923418505
 30
0.0
 11
126.669756164984
 21
178.954380574923
 31
0.0
  0
LINE
  5
   115
  8
0
  6
CONTINUOUS
 62
     7
 10
126.669756164984
 20
178.954380574923
 30
0.0
 11
123.771978691773
 21
179.730837731342
 31
0.0
  0
LINE
  5
   116
  8
0
  6
CONTINUOUS
 62
     7
 10
111.567533369982
 20
179.730837731342
 30
0.0
 11
108.669755896772
 21
178.954380574923
 31
0.0
  0
LINE
  5
   117
  8
0
  6
CONTINUOUS
 62
     7
 10
108.669755896772
 20
178.954380574923
 30
0.0
 11
111.567533369982
 21
178.177923418505
 31
0.0
  0
ENDBLK
  5
   118
  8
0
  6
CONTINUOUS
 62
     7
  0
BLOCK
  5
   119
  8
0
  6
CONTINUOUS
 62
     7
  2
*UDIM708
 70
    65
 10
0.0
 20
0.0
 30
0.0
  3
*UDIM708
  0
TEXT
  5
   11A
  8
0
  6
CONTINUOUS
 62
     7
 10
97.1697557117954
 20
179.954380577178
 30
0.0
 40
2.99999994933605
  1
45
 50
359.999999948034
 41
0.933333333333333
 72
     1
 11
99.6697556709284
 21
181.454380549591
 31
0.0
 73
     2
  0
LINE
  5
   11B
  8
0
  6
CONTINUOUS
 62
     7
 10
90.6697554450849
 20
152.432915290951
 30
0.0
 11
90.6697554450849
 21
180.954380574923
 31
0.0
  0
LINE
  5
   11C
  8
0
  6
CONTINUOUS
 62
     7
 10
108.669755896772
 20
178.954380574923
 30
0.0
 11
90.6697554450849
 21
178.954380574923
 31
0.0
  0
LINE
  5
   11D
  8
0
  6
CONTINUOUS
 62
     7
 10
105.771978423561
 20
178.177923418505
 30
0.0
 11
108.669755896772
 21
178.954380574923
 31
0.0
  0
LINE
  5
   11E
  8
0
  6
CONTINUOUS
 62
     7
 10
108.669755896772
 20
178.954380574923
 30
0.0
 11
105.771978423561
 21
179.730837731342
 31
0.0
  0
LINE
  5
   11F
  8
0
  6
CONTINUOUS
 62
     7
 10
93.5675329182954
 20
179.730837731342
 30
0.0
 11
90.6697554450849
 21
178.954380574923
 31
0.0
  0
LINE
  5
   120
  8
0
  6
CONTINUOUS
 62
     7
 10
90.6697554450849
 20
178.954380574923
 30
0.0
 11
93.5675329182954
 21
178.177923418505
 31
0.0
  0
ENDBLK
  5
   121
  8
0
  6
CONTINUOUS
 62
     7
  0
BLOCK
  5
   122
  8
0
  6
CONTINUOUS
 62
     7
  2
*UDIM709
 70
    65
 10
0.0
 20
0.0
 30
0.0
  3
*UDIM709
  0
TEXT
  5
   123
  8
0
  6
CONTINUOUS
 62
     7
 10
79.1697554420702
 20
179.954380577178
 30
0.0
 40
2.99999994933605
  1
45
 50
359.999999948034
 41
0.933333333333333
 72
     1
 11
81.6697554012031
 21
181.454380549591
 31
0.0
 73
     2
  0
LINE
  5
   124
  8
0
  6
CONTINUOUS
 62
     7
 10
72.6697553573214
 20
152.432897226911
 30
0.0
 11
72.6697553573214
 21
180.954380574923
 31
0.0
  0
LINE
  5
   125
  8
0
  6
CONTINUOUS
 62
     7
 10
90.6697554450849
 20
178.954380574923
 30
0.0
 11
72.6697553573214
 21
178.954380574923
 31
0.0
  0
LINE
  5
   126
  8
0
  6
CONTINUOUS
 62
     7
 10
87.7719779718743
 20
178.177923418505
 30
0.0
 11
90.6697554450849
 21
178.954380574923
 31
0.0
  0
LINE
  5
   127
  8
0
  6
CONTINUOUS
 62
     7
 10
90.6697554450849
 20
178.954380574923
 30
0.0
 11
87.7719779718743
 21
179.730837731342
 31
0.0
  0
LINE
  5
   128
  8
0
  6
CONTINUOUS
 62
     7
 10
75.5675328305319
 20
179.730837731342
 30
0.0
 11
72.6697553573214
 21
178.954380574923
 31
0.0
  0
LINE
  5
   129
  8
0
  6
CONTINUOUS
 62
     7
 10
72.6697553573214
 20
178.954380574923
 30
0.0
 11
75.5675328305319
 21
178.177923418505
 31
0.0
  0
ENDBLK
  5
   12A
  8
0
  6
CONTINUOUS
 62
     7
  0
BLOCK
  5
   12B
  8
0
  6
CONTINUOUS
 62
     7
  2
*UDIM710
 70
    65
 10
0.0
 20
0.0
 30
0.0
  3
*UDIM710
  0
TEXT
  5
   12C
  8
0
  6
CONTINUOUS
 62
     7
 10
102.49486915705
 20
-24.6797446581805
 30
0.0
 40
2.99999994933605
  1
117
 50
359.999999948034
 41
0.933333333333333
 72
     1
 11
106.39486909254
 21
-23.17974468703
 31
0.0
 73
     2
  0
LINE
  5
   12D
  8
0
  6
CONTINUOUS
 62
     7
 10
130.069866965771
 20
29.132961456399
 30
0.0
 11
130.069866965771
 21
-27.6797446616981
 31
0.0
  0
LINE
  5
   12E
  8
0
  6
CONTINUOUS
 62
     7
 10
83.269866268397
 20
29.132961456399
 30
0.0
 11
83.269866268397
 21
-27.6797446616981
 31
0.0
  0
LINE
  5
   12F
  8
0
  6
CONTINUOUS
 62
     7
 10
130.069866965771
 20
-25.6797446616981
 30
0.0
 11
83.269866268397
 21
-25.6797446616981
 31
0.0
  0
LINE
  5
   130
  8
0
  6
CONTINUOUS
 62
     7
 10
127.11544370409
 20
-26.2006891796984
 30
0.0
 11
130.069866965771
 21
-25.6797446616981
 31
0.0
  0
LINE
  5
   131
  8
0
  6
CONTINUOUS
 62
     7
 10
130.069866965771
 20
-25.6797446616981
 30
0.0
 11
127.11544370409
 21
-25.1588001436977
 31
0.0
  0
LINE
  5
   132
  8
0
  6
CONTINUOUS
 62
     7
 10
86.2242895300786
 20
-25.1588001436977
 30
0.0
 11
83.269866268397
 21
-25.6797446616981
 31
0.0
  0
LINE
  5
   133
  8
0
  6
CONTINUOUS
 62
     7
 10
83.269866268397
 20
-25.6797446616981
 30
0.0
 11
86.2242895300786
 21
-26.2006891796984
 31
0.0
  0
ENDBLK
  5
   134
  8
0
  6
CONTINUOUS
 62
     7
  0
BLOCK
  5
   135
  8
0
  6
CONTINUOUS
 62
     7
  2
*UDIM711
 70
    65
 10
0.0
 20
0.0
 30
0.0
  3
*UDIM711
  0
TEXT
  5
   136
  8
0
  6
CONTINUOUS
 62
     7
 10
102.49486915705
 20
-18.0384416113954
 30
0.0
 40
2.99999994933605
  1
105
 50
359.999999948034
 41
0.933333333333333
 72
     1
 11
106.39486909254
 21
-16.5384416402449
 31
0.0
 73
     2
  0
LINE
  5
   137
  8
0
  6
CONTINUOUS
 62
     7
 10
127.669866930009
 20
40.0329600929427
 30
0.0
 11
127.669866930009
 21
-21.038441614913
 31
0.0
  0
LINE
  5
   138
  8
0
  6
CONTINUOUS
 62
     7
 10
85.6698663041598
 20
40.0329600929427
 30
0.0
 11
85.6698663041598
 21
-21.038441614913
 31
0.0
  0
LINE
  5
   139
  8
0
  6
CONTINUOUS
 62
     7
 10
127.669866930009
 20
-19.038441614913
 30
0.0
 11
85.6698663041598
 21
-19.038441614913
 31
0.0
  0
LINE
  5
   13A
  8
0
  6
CONTINUOUS
 62
     7
 10
124.715443668327
 20
-19.5593861329133
 30
0.0
 11
127.669866930009
 21
-19.038441614913
 31
0.0
  0
LINE
  5
   13B
  8
0
  6
CONTINUOUS
 62
     7
 10
127.669866930009
 20
-19.038441614913
 30
0.0
 11
124.715443668327
 21
-18.5174970969126
 31
0.0
  0
LINE
  5
   13C
  8
0
  6
CONTINUOUS
 62
     7
 10
88.6242895658414
 20
-18.5174970969126
 30
0.0
 11
85.6698663041598
 21
-19.038441614913
 31
0.0
  0
LINE
  5
   13D
  8
0
  6
CONTINUOUS
 62
     7
 10
85.6698663041598
 20
-19.038441614913
 30
0.0
 11
88.6242895658414
 21
-19.5593861329133
 31
0.0
  0
ENDBLK
  5
   13E
  8
0
  6
CONTINUOUS
 62
     7
  0
BLOCK
  5
   13F
  8
0
  6
CONTINUOUS
 62
     7
  2
*UDIM712
 70
    65
 10
0.0
 20
0.0
 30
0.0
  3
*UDIM712
  0
TEXT
  5
   140
  8
0
  6
CONTINUOUS
 62
     7
 10
111.869874047051
 20
109.146611305585
 30
0.0
 40
2.99999994933605
  1
52,5
 50
359.999999948034
 41
0.933333333333333
 72
     1
 11
117.169873958898
 21
110.646611275472
 31
0.0
 73
     2
  0
LINE
  5
   141
  8
0
  6
CONTINUOUS
 62
     7
 10
127.669881300712
 20
108.146611300804
 30
0.0
 11
106.669866617084
 21
108.146611300804
 31
0.0
  0
LINE
  5
   142
  8
0
  6
CONTINUOUS
 62
     7
 10
124.772103827501
 20
107.370154144386
 30
0.0
 11
127.669881300712
 21
108.146611300804
 31
0.0
  0
LINE
  5
   143
  8
0
  6
CONTINUOUS
 62
     7
 10
127.669881300712
 20
108.146611300804
 30
0.0
 11
124.772103827501
 21
108.923068457223
 31
0.0
  0
LINE
  5
   144
  8
0
  6
CONTINUOUS
 62
     7
 10
109.567644090295
 20
108.923068457223
 30
0.0
 11
106.669866617084
 21
108.146611300804
 31
0.0
  0
LINE
  5
   145
  8
0
  6
CONTINUOUS
 62
     7
 10
106.669866617084
 20
108.146611300804
 30
0.0
 11
109.567644090295
 21
107.370154144386
 31
0.0
  0
ENDBLK
  5
   146
  8
0
  6
CONTINUOUS
 62
     7
  0
BLOCK
  5
   147
  8
0
  6
CONTINUOUS
 62
     7
  2
*UDIM713
 70
    65
 10
0.0
 20
0.0
 30
0.0
  3
*UDIM713
  0
TEXT
  5
   148
  8
0
  6
CONTINUOUS
 62
     7
 10
95.7697122813071
 20
-34.1743409088433
 30
0.0
 40
2.99999994933605
  1
165
 50
359.999999948034
 41
0.933333333333333
 72
     1
 11
99.6697122167969
 21
-32.6743409376929
 31
0.0
 73
     2
  0
LINE
  5
   149
  8
0
  6
CONTINUOUS
 62
     7
 10
132.669750150878
 20
4.13296299096907
 30
0.0
 11
132.669708130881
 21
-37.1743744816951
 31
0.0
  0
LINE
  5
   14A
  8
0
  6
CONTINUOUS
 62
     7
 10
66.6697491674354
 20
4.13303013016583
 30
0.0
 11
66.6697071474389
 21
-37.1743073430222
 31
0.0
  0
LINE
  5
   14B
  8
0
  6
CONTINUOUS
 62
     7
 10
132.669710165387
 20
-35.1743744816961
 30
0.0
 11
66.6697091819441
 21
-35.1743073430232
 31
0.0
  0
LINE
  5
   14C
  8
0
  6
CONTINUOUS
 62
     7
 10
129.771931902325
 20
-35.9508286903425
 30
0.0
 11
132.669710165387
 21
-35.1743744816961
 31
0.0
  0
LINE
  5
   14D
  8
0
  6
CONTINUOUS
 62
     7
 10
132.669710165387
 20
-35.1743744816961
 30
0.0
 11
129.771933482031
 21
-34.3979143775063
 31
0.0
  0
LINE
  5
   14E
  8
0
  6
CONTINUOUS
 62
     7
 10
69.5674874450063
 20
-34.3978531343767
 30
0.0
 11
66.6697091819441
 21
-35.1743073430232
 31
0.0
  0
LINE
  5
   14F
  8
0
  6
CONTINUOUS
 62
     7
 10
66.6697091819441
 20
-35.1743073430232
 30
0.0
 11
69.5674858653001
 21
-35.950767447213
 31
0.0
  0
ENDBLK
  5
   150
  8
0
  6
CONTINUOUS
 62
     7
  0
BLOCK
  5
   151
  8
0
  6
CONTINUOUS
 62
     7
  2
*UDIM714
 70
    65
 10
0.0
 20
0.0
 30
0.0
  3
*UDIM714
  0
TEXT
  5
   152
  8
0
  6
CONTINUOUS
 62
     7
 10
120.315512677554
 20
-9.18337088361125
 30
0.0
 40
2.99999994933605
  1
65
 50
359.999999948034
 41
0.933333333333333
 72
     1
 11
122.815512636687
 21
-7.68337091119809
 31
0.0
 73
     2
  0
LINE
  5
   153
  8
0
  6
CONTINUOUS
 62
     7
 10
132.669751168131
 20
4.13296299096855
 30
0.0
 11
132.669751168131
 21
-12.1833708858661
 31
0.0
  0
LINE
  5
   154
  8
0
  6
CONTINUOUS
 62
     7
 10
132.669751168131
 20
-10.1833708858661
 30
0.0
 11
106.669866617084
 21
-10.1833708858661
 31
0.0
  0
LINE
  5
   155
  8
0
  6
CONTINUOUS
 62
     7
 10
129.77197369492
 20
-10.9598280422846
 30
0.0
 11
132.669751168131
 21
-10.1833708858661
 31
0.0
  0
LINE
  5
   156
  8
0
  6
CONTINUOUS
 62
     7
 10
132.669751168131
 20
-10.1833708858661
 30
0.0
 11
129.77197369492
 21
-9.40691372944757
 31
0.0
  0
LINE
  5
   157
  8
0
  6
CONTINUOUS
 62
     7
 10
109.567644090295
 20
-9.40691372944757
 30
0.0
 11
106.669866617084
 21
-10.1833708858661
 31
0.0
  0
LINE
  5
   158
  8
0
  6
CONTINUOUS
 62
     7
 10
106.669866617084
 20
-10.1833708858661
 30
0.0
 11
109.567644090295
 21
-10.9598280422846
 31
0.0
  0
ENDBLK
  5
   159
  8
0
  6
CONTINUOUS
 62
     7
  0
BLOCK
  5
   15A
  8
0
  6
CONTINUOUS
 62
     7
  2
*UDIM715
 70
    65
 10
0.0
 20
0.0
 30
0.0
  3
*UDIM715
  0
TEXT
  5
   15B
  8
0
  6
CONTINUOUS
 62
     7
 10
140.722728484068
 20
38.0829587347347
 30
0.0
 40
2.99999994933605
  1
85,25
 50
89.9999999480344
 41
0.933333333333333
 72
     1
 11
139.222728515468
 21
44.7829586229438
 31
0.0
 73
     2
  0
LINE
  5
   15C
  8
0
  6
CONTINUOUS
 62
     7
 10
128.16985974219
 20
27.7329568430008
 30
0.0
 11
143.722728490136
 21
27.7329568430008
 31
0.0
  0
LINE
  5
   15D
  8
0
  6
CONTINUOUS
 62
     7
 10
134.174119331506
 20
61.8329604028868
 30
0.0
 11
143.722728490136
 21
61.8329604028868
 31
0.0
  0
LINE
  5
   15E
  8
0
  6
CONTINUOUS
 62
     7
 10
141.722728490136
 20
27.7329568430008
 30
0.0
 11
141.722728490136
 21
61.8329604028868
 31
0.0
  0
LINE
  5
   15F
  8
0
  6
CONTINUOUS
 62
     7
 10
140.946271333717
 20
30.6307343162113
 30
0.0
 11
141.722728490136
 21
27.7329568430008
 31
0.0
  0
LINE
  5
   160
  8
0
  6
CONTINUOUS
 62
     7
 10
141.722728490136
 20
27.7329568430008
 30
0.0
 11
142.499185646555
 21
30.6307343162113
 31
0.0
  0
LINE
  5
   161
  8
0
  6
CONTINUOUS
 62
     7
 10
142.499185646555
 20
58.9351829296763
 30
0.0
 11
141.722728490136
 21
61.8329604028868
 31
0.0
  0
LINE
  5
   162
  8
0
  6
CONTINUOUS
 62
     7
 10
141.722728490136
 20
61.8329604028868
 30
0.0
 11
140.946271333717
 21
58.9351829296763
 31
0.0
  0
ENDBLK
  5
   163
  8
0
  6
CONTINUOUS
 62
     7
  0
BLOCK
  5
   164
  8
0
  6
CONTINUOUS
 62
     7
  2
*UDIM716
 70
    65
 10
0.0
 20
0.0
 30
0.0
  3
*UDIM716
  0
TEXT
  5
   165
  8
0
  6
CONTINUOUS
 62
     7
 10
140.722728485336
 20
11.1329600052581
 30
0.0
 40
2.99999994933605
  1
56,5
 50
89.9999999480344
 41
0.933333333333333
 72
     1
 11
139.222728515468
 21
16.4329599171104
 31
0.0
 73
     2
  0
LINE
  5
   166
  8
0
  6
CONTINUOUS
 62
     7
 10
133.669751168131
 20
5.13296299121993
 30
0.0
 11
143.722728490136
 21
5.13296299121993
 31
0.0
  0
LINE
  5
   167
  8
0
  6
CONTINUOUS
 62
     7
 10
141.722728490136
 20
5.13296299121993
 30
0.0
 11
141.722728490136
 21
27.7329568430008
 31
0.0
  0
LINE
  5
   168
  8
0
  6
CONTINUOUS
 62
     7
 10
140.946271333717
 20
8.03074046443047
 30
0.0
 11
141.722728490136
 21
5.13296299121993
 31
0.0
  0
LINE
  5
   169
  8
0
  6
CONTINUOUS
 62
     7
 10
141.722728490136
 20
5.13296299121993
 30
0.0
 11
142.499185646555
 21
8.03074046443047
 31
0.0
  0
LINE
  5
   16A
  8
0
  6
CONTINUOUS
 62
     7
 10
142.499185646555
 20
24.8351793697903
 30
0.0
 11
141.722728490136
 21
27.7329568430008
 31
0.0
  0
LINE
  5
   16B
  8
0
  6
CONTINUOUS
 62
     7
 10
141.722728490136
 20
27.7329568430008
 30
0.0
 11
140.946271333717
 21
24.8351793697903
 31
0.0
  0
ENDBLK
  5
   16C
  8
0
  6
CONTINUOUS
 62
     7
  0
BLOCK
  5
   16D
  8
0
  6
CONTINUOUS
 62
     7
  2
*UDIM717
 70
    65
 10
0.0
 20
0.0
 30
0.0
  3
*UDIM717
  0
TEXT
  5
   16E
  8
0
  6
CONTINUOUS
 62
     7
 10
140.722728485336
 20
137.73295540676
 30
0.0
 40
2.99999994933605
  1
56,5
 50
89.9999999480344
 41
0.933333333333333
 72
     1
 11
139.222728515468
 21
143.032955318612
 31
0.0
 73
     2
  0
LINE
  5
   16F
  8
0
  6
CONTINUOUS
 62
     7
 10
128.16985974219
 20
131.732958392722
 30
0.0
 11
143.722728490136
 21
131.732958392722
 31
0.0
  0
LINE
  5
   170
  8
0
  6
CONTINUOUS
 62
     7
 10
133.669751168131
 20
154.332952244503
 30
0.0
 11
143.722728490136
 21
154.332952244503
 31
0.0
  0
LINE
  5
   171
  8
0
  6
CONTINUOUS
 62
     7
 10
141.722728490136
 20
131.732958392722
 30
0.0
 11
141.722728490136
 21
154.332952244503
 31
0.0
  0
LINE
  5
   172
  8
0
  6
CONTINUOUS
 62
     7
 10
140.946271333717
 20
134.630735865932
 30
0.0
 11
141.722728490136
 21
131.732958392722
 31
0.0
  0
LINE
  5
   173
  8
0
  6
CONTINUOUS
 62
     7
 10
141.722728490136
 20
131.732958392722
 30
0.0
 11
142.499185646555
 21
134.630735865932
 31
0.0
  0
LINE
  5
   174
  8
0
  6
CONTINUOUS
 62
     7
 10
142.499185646555
 20
151.435174771292
 30
0.0
 11
141.722728490136
 21
154.332952244503
 31
0.0
  0
LINE
  5
   175
  8
0
  6
CONTINUOUS
 62
     7
 10
141.722728490136
 20
154.332952244503
 30
0.0
 11
140.946271333717
 21
151.435174771292
 31
0.0
  0
ENDBLK
  5
   176
  8
0
  6
CONTINUOUS
 62
     7
  0
BLOCK
  5
   177
  8
0
  6
CONTINUOUS
 62
     7
  2
*UDIM718
 70
    65
 10
0.0
 20
0.0
 30
0.0
  3
*UDIM718
  0
TEXT
  5
   178
  8
0
  6
CONTINUOUS
 62
     7
 10
45.8914802901632
 20
150.432958793993
 30
0.0
 40
2.99999994933605
  1
155
 50
89.9999999480344
 41
0.933333333333333
 72
     1
 11
44.3914803190275
 21
154.332958729488
 31
0.0
 73
     2
  0
LINE
  5
   179
  8
0
  6
CONTINUOUS
 62
     7
 10
86.388172562451
 20
131.732958392722
 30
0.0
 11
44.8914802936955
 21
131.732958392722
 31
0.0
  0
LINE
  5
   17A
  8
0
  6
CONTINUOUS
 62
     7
 10
80.2089604649972
 20
176.932959066254
 30
0.0
 11
44.8914802936955
 21
176.932959066254
 31
0.0
  0
LINE
  5
   17B
  8
0
  6
CONTINUOUS
 62
     7
 10
46.8914802936955
 20
131.732958392722
 30
0.0
 11
46.8914802936955
 21
176.932959066254
 31
0.0
  0
LINE
  5
   17C
  8
0
  6
CONTINUOUS
 62
     7
 10
46.1150231372769
 20
134.630735865932
 30
0.0
 11
46.8914802936955
 21
131.732958392722
 31
0.0
  0
LINE
  5
   17D
  8
0
  6
CONTINUOUS
 62
     7
 10
46.8914802936955
 20
131.732958392722
 30
0.0
 11
47.667937450114
 21
134.630735865932
 31
0.0
  0
LINE
  5
   17E
  8
0
  6
CONTINUOUS
 62
     7
 10
47.667937450114
 20
174.035181593044
 30
0.0
 11
46.8914802936955
 21
176.932959066254
 31
0.0
  0
LINE
  5
   17F
  8
0
  6
CONTINUOUS
 62
     7
 10
46.8914802936955
 20
176.932959066254
 30
0.0
 11
46.1150231372769
 21
174.035181593044
 31
0.0
  0
ENDBLK
  5
   180
  8
0
  6
CONTINUOUS
 62
     7
  0
BLOCK
  5
   181
  8
0
  6
CONTINUOUS
 62
     7
  2
*UDIM719
 70
    65
 10
0.0
 20
0.0
 30
0.0
  3
*UDIM719
  0
TEXT
  5
   182
  8
0
  6
CONTINUOUS
 62
     7
 10
45.8914802901632
 20
75.8329576823658
 30
0.0
 40
2.99999994933605
  1
260
 50
89.9999999480344
 41
0.933333333333333
 72
     1
 11
44.3914803190275
 21
79.7329576178612
 31
0.0
 73
     2
  0
LINE
  5
   183
  8
0
  6
CONTINUOUS
 62
     7
 10
71.171498261574
 20
27.7329568430008
 30
0.0
 11
44.8914802936955
 21
27.7329568430008
 31
0.0
  0
LINE
  5
   184
  8
0
  6
CONTINUOUS
 62
     7
 10
46.8914802936955
 20
27.7329568430008
 30
0.0
 11
46.8914802936955
 21
131.732958392722
 31
0.0
  0
LINE
  5
   185
  8
0
  6
CONTINUOUS
 62
     7
 10
46.1150231372769
 20
30.6307343162113
 30
0.0
 11
46.8914802936955
 21
27.7329568430008
 31
0.0
  0
LINE
  5
   186
  8
0
  6
CONTINUOUS
 62
     7
 10
46.8914802936955
 20
27.7329568430008
 30
0.0
 11
47.667937450114
 21
30.6307343162113
 31
0.0
  0
LINE
  5
   187
  8
0
  6
CONTINUOUS
 62
     7
 10
47.667937450114
 20
128.835180919511
 30
0.0
 11
46.8914802936955
 21
131.732958392722
 31
0.0
  0
LINE
  5
   188
  8
0
  6
CONTINUOUS
 62
     7
 10
46.8914802936955
 20
131.732958392722
 30
0.0
 11
46.1150231372769
 21
128.835180919511
 31
0.0
  0
ENDBLK
  5
   189
  8
0
  6
CONTINUOUS
 62
     7
  0
BLOCK
  5
   18A
  8
0
  6
CONTINUOUS
 62
     7
  2
*UDIM720
 70
    65
 10
0.0
 20
0.0
 30
0.0
  3
*UDIM720
  0
TEXT
  5
   18B
  8
0
  6
CONTINUOUS
 62
     7
 10
45.8914802901632
 20
1.23295657073902
 30
0.0
 40
2.99999994933605
  1
155
 50
89.9999999480344
 41
0.933333333333333
 72
     1
 11
44.3914803190275
 21
5.13295650623446
 31
0.0
 73
     2
  0
LINE
  5
   18C
  8
0
  6
CONTINUOUS
 62
     7
 10
80.2089604649972
 20
-17.4670438305319
 30
0.0
 11
44.8914802936955
 21
-17.4670438305319
 31
0.0
  0
LINE
  5
   18D
  8
0
  6
CONTINUOUS
 62
     7
 10
46.8914802936955
 20
-17.4670438305319
 30
0.0
 11
46.8914802936955
 21
27.7329568430008
 31
0.0
  0
LINE
  5
   18E
  8
0
  6
CONTINUOUS
 62
     7
 10
46.1150231372769
 20
-14.5692663573213
 30
0.0
 11
46.8914802936955
 21
-17.4670438305319
 31
0.0
  0
LINE
  5
   18F
  8
0
  6
CONTINUOUS
 62
     7
 10
46.8914802936955
 20
-17.4670438305319
 30
0.0
 11
47.667937450114
 21
-14.5692663573213
 31
0.0
  0
LINE
  5
   190
  8
0
  6
CONTINUOUS
 62
     7
 10
47.667937450114
 20
24.8351793697903
 30
0.0
 11
46.8914802936955
 21
27.7329568430008
 31
0.0
  0
LINE
  5
   191
  8
0
  6
CONTINUOUS
 62
     7
 10
46.8914802936955
 20
27.7329568430008
 30
0.0
 11
46.1150231372769
 21
24.8351793697903
 31
0.0
  0
ENDBLK
  5
   192
  8
0
  6
CONTINUOUS
 62
     7
  0
BLOCK
  5
   193
  8
0
  6
CONTINUOUS
 62
     7
  2
*UDIM721
 70
    65
 10
0.0
 20
0.0
 30
0.0
  3
*UDIM721
  0
TEXT
  5
   194
  8
0
  6
CONTINUOUS
 62
     7
 10
137.53738752512
 20
164.210655871054
 30
0.0
 40
2.99999994933605
  1
8,5
 50
410.741867100088
 41
0.933333333333333
 72
     1
 11
138.843912715218
 21
168.17965969291
 31
0.0
 73
     2
  0
TEXT
  5
   195
  8
0
  6
CONTINUOUS
 62
     7
 10
135.006126585527
 20
161.113444601156
 30
0.0
 40
2.99999994933605
  1
Ø
 50
410.741867100088
 41
1.2
 72
     1
 11
134.793895215602
 21
163.22412167111
 31
0.0
 73
     2
  0
LINE
  5
   196
  8
0
  6
CONTINUOUS
 62
     7
 10
122.429894104596
 20
144.145123315079
 30
0.0
 11
143.247649170268
 21
169.617402574677
 31
0.0
  0
LINE
  5
   197
  8
0
  6
CONTINUOUS
 62
     7
 10
124.361425535637
 20
145.281526236052
 30
0.0
 11
125.593970321257
 21
148.016637449776
 31
0.0
  0
LINE
  5
   198
  8
0
  6
CONTINUOUS
 62
     7
 10
125.593970321257
 20
148.016637449776
 30
0.0
 11
123.158999593212
 21
146.264234084804
 31
0.0
  0
LINE
  5
   199
  8
0
  6
CONTINUOUS
 62
     7
 10
128.97808679433
 20
153.384378103947
 30
0.0
 11
127.745542008711
 21
150.649266890222
 31
0.0
  0
LINE
  5
   19A
  8
0
  6
CONTINUOUS
 62
     7
 10
127.745542008711
 20
150.649266890222
 30
0.0
 11
130.180512736755
 21
152.401670255195
 31
0.0
  0
ENDBLK
  5
   19B
  8
0
  6
CONTINUOUS
 62
     7
  0
BLOCK
  5
   19C
  8
0
  6
CONTINUOUS
 62
     7
  2
*UDIM722
 70
    65
 10
0.0
 20
0.0
 30
0.0
  3
*UDIM722
  0
TEXT
  5
   19D
  8
0
  6
CONTINUOUS
 62
     7
 10
55.3625149386118
 20
-9.31442998640815
 30
0.0
 40
2.99999994933605
  1
30
 50
359.999999948034
 41
0.933333333333333
 72
     1
 11
57.8625148977448
 21
-7.81443001399498
 31
0.0
 73
     2
  0
LINE
  5
   19E
  8
0
  6
CONTINUOUS
 62
     7
 10
78.6697493462307
 20
4.13300571663848
 30
0.0
 11
78.6697326150123
 21
-12.3144511548617
 31
0.0
  0
LINE
  5
   19F
  8
0
  6
CONTINUOUS
 62
     7
 10
66.6697491674354
 20
4.13303013016583
 30
0.0
 11
66.6697324362046
 21
-12.3144389478303
 31
0.0
  0
LINE
  5
   1A0
  8
0
  6
CONTINUOUS
 62
     7
 10
78.6697346495175
 20
-10.3144511548628
 30
0.0
 11
55.3625123968345
 21
-10.3144274455302
 31
0.0
  0
LINE
  5
   1A1
  8
0
  6
CONTINUOUS
 62
     7
 10
75.7719563864554
 20
-11.0909053635092
 30
0.0
 11
78.6697346495175
 21
-10.3144511548628
 31
0.0
  0
LINE
  5
   1A2
  8
0
  6
CONTINUOUS
 62
     7
 10
78.6697346495175
 20
-10.3144511548628
 30
0.0
 11
75.7719579661615
 21
-9.53799105067295
 31
0.0
  0
LINE
  5
   1A3
  8
0
  6
CONTINUOUS
 62
     7
 10
69.567512733772
 20
-9.53798473918488
 30
0.0
 11
66.6697344707098
 21
-10.3144389478313
 31
0.0
  0
LINE
  5
   1A4
  8
0
  6
CONTINUOUS
 62
     7
 10
66.6697344707098
 20
-10.3144389478313
 30
0.0
 11
69.5675111540658
 21
-11.0908990520212
 31
0.0
  0
ENDBLK
  5
   1A5
  8
0
  6
CONTINUOUS
 62
     7
  0
BLOCK
  5
   1A6
  8
0
  6
CONTINUOUS
 62
     7
  2
*UDIM723
 70
    65
 10
0.0
 20
0.0
 30
0.0
  3
*UDIM723
  0
TEXT
  5
   1A7
  8
0
  6
CONTINUOUS
 62
     7
 10
55.5038070012956
 20
57.6579634673677
 30
0.0
 40
2.99999994933605
  1
161
 50
89.9999999480344
 41
0.933333333333333
 72
     1
 11
54.0038070301599
 21
61.5579634028632
 31
0.0
 73
     2
  0
LINE
  5
   1A8
  8
0
  6
CONTINUOUS
 62
     7
 10
82.7698662758476
 20
29.6329614489484
 30
0.0
 11
54.5038070048279
 21
29.6329614489484
 31
0.0
  0
LINE
  5
   1A9
  8
0
  6
CONTINUOUS
 62
     7
 10
82.7698662758476
 20
94.0329608827042
 30
0.0
 11
54.5038070048279
 21
94.0329608827042
 31
0.0
  0
LINE
  5
   1AA
  8
0
  6
CONTINUOUS
 62
     7
 10
56.5038070048279
 20
29.6329614489484
 30
0.0
 11
56.5038070048279
 21
94.0329608827042
 31
0.0
  0
LINE
  5
   1AB
  8
0
  6
CONTINUOUS
 62
     7
 10
55.9828624868275
 20
32.58738471063
 30
0.0
 11
56.5038070048279
 21
29.6329614489484
 31
0.0
  0
LINE
  5
   1AC
  8
0
  6
CONTINUOUS
 62
     7
 10
56.5038070048279
 20
29.6329614489484
 30
0.0
 11
57.0247515228282
 21
32.58738471063
 31
0.0
  0
LINE
  5
   1AD
  8
0
  6
CONTINUOUS
 62
     7
 10
57.0247515228282
 20
91.0785376210226
 30
0.0
 11
56.5038070048279
 21
94.0329608827042
 31
0.0
  0
LINE
  5
   1AE
  8
0
  6
CONTINUOUS
 62
     7
 10
56.5038070048279
 20
94.0329608827042
 30
0.0
 11
55.9828624868275
 21
91.0785376210226
 31
0.0
  0
ENDBLK
  5
   1AF
  8
0
  6
CONTINUOUS
 62
     7
  0
BLOCK
  5
   1B0
  8
0
  6
CONTINUOUS
 62
     7
  2
*UDIM724
 70
    65
 10
0.0
 20
0.0
 30
0.0
  3
*UDIM724
  0
TEXT
  5
   1B1
  8
0
  6
CONTINUOUS
 62
     7
 10
95.4948659995009
 20
187.173761209424
 30
0.0
 40
2.99999994933605
  1
140
 50
359.999999948034
 41
0.933333333333333
 72
     1
 11
99.3948659349907
 21
188.673761180574
 31
0.0
 73
     2
  0
LINE
  5
   1B2
  8
0
  6
CONTINUOUS
 62
     7
 10
127.669881300712
 20
132.232958385277
 30
0.0
 11
127.669881300712
 21
188.173761205906
 31
0.0
  0
LINE
  5
   1B3
  8
0
  6
CONTINUOUS
 62
     7
 10
71.6698498622098
 20
130.612957140428
 30
0.0
 11
71.6698498622098
 21
188.173761205906
 31
0.0
  0
LINE
  5
   1B4
  8
0
  6
CONTINUOUS
 62
     7
 10
127.669881300712
 20
186.173761205906
 30
0.0
 11
71.6698498622098
 21
186.173761205906
 31
0.0
  0
LINE
  5
   1B5
  8
0
  6
CONTINUOUS
 62
     7
 10
124.71545803903
 20
185.652816687906
 30
0.0
 11
127.669881300712
 21
186.173761205906
 31
0.0
  0
LINE
  5
   1B6
  8
0
  6
CONTINUOUS
 62
     7
 10
127.669881300712
 20
186.173761205906
 30
0.0
 11
124.71545803903
 21
186.694705723906
 31
0.0
  0
LINE
  5
   1B7
  8
0
  6
CONTINUOUS
 62
     7
 10
74.6242731238914
 20
186.694705723906
 30
0.0
 11
71.6698498622098
 21
186.173761205906
 31
0.0
  0
LINE
  5
   1B8
  8
0
  6
CONTINUOUS
 62
     7
 10
71.6698498622098
 20
186.173761205906
 30
0.0
 11
74.6242731238914
 21
185.652816687906
 31
0.0
  0
ENDBLK
  5
   1B9
  8
0
  6
CONTINUOUS
 62
     7
  0
BLOCK
  5
   1BA
  8
0
  6
CONTINUOUS
 62
     7
  2
*HATCH139
 70
    65
 10
0.0
 20
0.0
 30
0.0
  3
*HATCH139
  0
LINE
  5
   1BB
  8
0
  6
CONTINUOUS
 62
   210
 10
14.1969509124756
 20
-46.0167922973633
 30
0.0
 11
17.1801414489746
 21
-48.9999885559082
 31
0.0
  0
ENDBLK
  5
   1BC
  8
0
  6
CONTINUOUS
 62
     7
  0
BLOCK
  5
   1BD
  8
0
  6
CONTINUOUS
 62
     7
  2
*HATCH140
 70
    65
 10
0.0
 20
0.0
 30
0.0
  3
*HATCH140
  0
LINE
  5
   1BE
  8
0
  6
CONTINUOUS
 62
   210
 10
20.7441368103027
 20
-45.0167922973633
 30
0.0
 11
18.0000019073486
 21
-47.7609252929688
 31
0.0
  0
LINE
  5
   1BF
  8
0
  6
CONTINUOUS
 62
   210
 10
21.0
 20
-49.0035667419434
 30
0.0
 11
18.0000019073486
 21
-52.0035667419434
 31
0.0
  0
LINE
  5
   1C0
  8
0
  6
CONTINUOUS
 62
   210
 10
21.0
 20
-53.246208190918
 30
0.0
 11
19.3462104797363
 21
-54.9000015258789
 31
0.0
  0
ENDBLK
  5
   1C1
  8
0
  6
CONTINUOUS
 62
     7
  0
BLOCK
  5
   1C2
  8
0
  6
CONTINUOUS
 62
     7
  2
*HATCH141
 70
    65
 10
0.0
 20
0.0
 30
0.0
  3
*HATCH141
  0
LINE
  5
   1C3
  8
0
  6
CONTINUOUS
 62
   210
 10
21.7528133392334
 20
-63.0999984741211
 30
0.0
 11
18.0000019073486
 21
-66.8528137207031
 31
0.0
  0
LINE
  5
   1C4
  8
0
  6
CONTINUOUS
 62
   210
 10
23.0
 20
-66.0954513549805
 30
0.0
 11
21.0954647064209
 21
-67.9999847412109
 31
0.0
  0
ENDBLK
  5
   1C5
  8
0
  6
CONTINUOUS
 62
     7
  0
BLOCK
  5
   1C6
  8
0
  6
CONTINUOUS
 62
     7
  2
*HATCH142
 70
    65
 10
0.0
 20
0.0
 30
0.0
  3
*HATCH142
  0
LINE
  5
   1C7
  8
0
  6
CONTINUOUS
 62
   210
 10
23.0
 20
-47.0035705566406
 30
0.0
 11
21.0000019073486
 21
-49.0035705566406
 31
0.0
  0
LINE
  5
   1C8
  8
0
  6
CONTINUOUS
 62
   210
 10
23.0
 20
-51.246208190918
 30
0.0
 11
21.0000019073486
 21
-53.246208190918
 31
0.0
  0
ENDBLK
  5
   1C9
  8
0
  6
CONTINUOUS
 62
     7
  0
BLOCK
  5
   1CA
  8
0
  6
CONTINUOUS
 62
     7
  2
*HATCH143
 70
    65
 10
0.0
 20
0.0
 30
0.0
  3
*HATCH143
  0
LINE
  5
   1CB
  8
0
  6
CONTINUOUS
 62
    52
 10
107.001167297363
 20
-64.8257827758789
 30
0.0
 11
105.001167297363
 21
-66.8257751464844
 31
0.0
  0
LINE
  5
   1CC
  8
0
  6
CONTINUOUS
 62
    52
 10
107.001167297363
 20
-69.0684280395508
 30
0.0
 11
105.001167297363
 21
-71.0684204101563
 31
0.0
  0
LINE
  5
   1CD
  8
0
  6
CONTINUOUS
 62
    52
 10
107.001167297363
 20
-73.3110733032227
 30
0.0
 11
105.001167297363
 21
-75.3110656738281
 31
0.0
  0
LINE
  5
   1CE
  8
0
  6
CONTINUOUS
 62
    52
 10
107.001167297363
 20
-77.5537185668945
 30
0.0
 11
105.001167297363
 21
-79.5537109375
 31
0.0
  0
LINE
  5
   1CF
  8
0
  6
CONTINUOUS
 62
    52
 10
107.001167297363
 20
-81.7963638305664
 30
0.0
 11
105.001167297363
 21
-83.7963562011719
 31
0.0
  0
LINE
  5
   1D0
  8
0
  6
CONTINUOUS
 62
    52
 10
107.001167297363
 20
-86.0390090942383
 30
0.0
 11
105.001167297363
 21
-88.0390014648438
 31
0.0
  0
LINE
  5
   1D1
  8
0
  6
CONTINUOUS
 62
    52
 10
107.001167297363
 20
-90.2816543579102
 30
0.0
 11
105.001167297363
 21
-92.2816467285156
 31
0.0
  0
LINE
  5
   1D2
  8
0
  6
CONTINUOUS
 62
    52
 10
107.001167297363
 20
-94.524299621582
 30
0.0
 11
105.001167297363
 21
-96.5242919921875
 31
0.0
  0
LINE
  5
   1D3
  8
0
  6
CONTINUOUS
 62
    52
 10
107.001167297363
 20
-98.7669448852539
 30
0.0
 11
105.001167297363
 21
-100.766937255859
 31
0.0
  0
LINE
  5
   1D4
  8
0
  6
CONTINUOUS
 62
    52
 10
107.001167297363
 20
-103.009590148926
 30
0.0
 11
105.001167297363
 21
-105.009582519531
 31
0.0
  0
LINE
  5
   1D5
  8
0
  6
CONTINUOUS
 62
    52
 10
107.001167297363
 20
-107.252235412598
 30
0.0
 11
105.001167297363
 21
-109.252227783203
 31
0.0
  0
LINE
  5
   1D6
  8
0
  6
CONTINUOUS
 62
    52
 10
107.001167297363
 20
-111.49488067627
 30
0.0
 11
105.001167297363
 21
-113.494873046875
 31
0.0
  0
LINE
  5
   1D7
  8
0
  6
CONTINUOUS
 62
    52
 10
107.001167297363
 20
-115.737464904785
 30
0.0
 11
105.269889831543
 21
-117.46875
 31
0.0
  0
ENDBLK
  5
   1D8
  8
0
  6
CONTINUOUS
 62
     7
  0
BLOCK
  5
   1D9
  8
0
  6
CONTINUOUS
 62
     7
  2
*HATCH144
 70
    65
 10
0.0
 20
0.0
 30
0.0
  3
*HATCH144
  0
LINE
  5
   1DA
  8
0
  6
CONTINUOUS
 62
    52
 10
107.001167297363
 20
-47.8552169799805
 30
0.0
 11
105.001167297363
 21
-49.8552169799805
 31
0.0
  0
LINE
  5
   1DB
  8
0
  6
CONTINUOUS
 62
    52
 10
107.001167297363
 20
-52.0978546142578
 30
0.0
 11
105.001167297363
 21
-54.0978546142578
 31
0.0
  0
LINE
  5
   1DC
  8
0
  6
CONTINUOUS
 62
    52
 10
107.001167297363
 20
-56.3404998779297
 30
0.0
 11
106.091667175293
 21
-57.25
 31
0.0
  0
ENDBLK
  5
   1DD
  8
0
  6
CONTINUOUS
 62
     7
  0
BLOCK
  5
   1DE
  8
0
  6
CONTINUOUS
 62
     7
  2
*HATCH145
 70
    65
 10
0.0
 20
0.0
 30
0.0
  3
*HATCH145
  0
LINE
  5
   1DF
  8
0
  6
CONTINUOUS
 62
    52
 10
107.001167297363
 20
77.3026809692383
 30
0.0
 11
105.001167297363
 21
75.3026809692383
 31
0.0
  0
LINE
  5
   1E0
  8
0
  6
CONTINUOUS
 62
    52
 10
107.001167297363
 20
73.0600357055664
 30
0.0
 11
105.001167297363
 21
71.0600357055664
 31
0.0
  0
LINE
  5
   1E1
  8
0
  6
CONTINUOUS
 62
    52
 10
107.001167297363
 20
68.8173904418945
 30
0.0
 11
105.001167297363
 21
66.8173904418945
 31
0.0
  0
ENDBLK
  5
   1E2
  8
0
  6
CONTINUOUS
 62
     7
  0
BLOCK
  5
   1E3
  8
0
  6
CONTINUOUS
 62
     7
  2
*HATCH146
 70
    65
 10
0.0
 20
0.0
 30
0.0
  3
*HATCH146
  0
LINE
  5
   1E4
  8
0
  6
CONTINUOUS
 62
   210
 10
24.8035449981689
 20
-46.0167922973633
 30
0.0
 11
27.786735534668
 21
-48.9999885559082
 31
0.0
  0
LINE
  5
   1E5
  8
0
  6
CONTINUOUS
 62
   210
 10
29.0461826324463
 20
-46.0167922973633
 30
0.0
 11
32.0293731689453
 21
-48.9999885559082
 31
0.0
  0
LINE
  5
   1E6
  8
0
  6
CONTINUOUS
 62
   210
 10
33.2888221740723
 20
-46.0167922973633
 30
0.0
 11
36.2720108032227
 21
-48.9999885559082
 31
0.0
  0
LINE
  5
   1E7
  8
0
  6
CONTINUOUS
 62
   210
 10
37.5314598083496
 20
-46.0167922973633
 30
0.0
 11
40.5146484375
 21
-48.9999885559082
 31
0.0
  0
LINE
  5
   1E8
  8
0
  6
CONTINUOUS
 62
   210
 10
41.774097442627
 20
-46.0167922973633
 30
0.0
 11
44.7572860717773
 21
-48.9999885559082
 31
0.0
  0
LINE
  5
   1E9
  8
0
  6
CONTINUOUS
 62
   210
 10
46.0167350769043
 20
-46.0167922973633
 30
0.0
 11
46.9614868164062
 21
-46.9615440368652
 31
0.0
  0
ENDBLK
  5
   1EA
  8
0
  6
CONTINUOUS
 62
     7
  0
BLOCK
  5
   1EB
  8
0
  6
CONTINUOUS
 62
     2
  2
*HATCH147
 70
    65
 10
0.0
 20
0.0
 30
0.0
  3
*HATCH147
  0
LINE
  5
   1EC
  8
0
  6
CONTINUOUS
 62
   210
 10
21.0223026275635
 20
178.0
 30
0.0
 11
18.0000019073486
 21
174.977691650391
 31
0.0
  0
LINE
  5
   1ED
  8
0
  6
CONTINUOUS
 62
   210
 10
22.0000019073486
 20
174.735061645508
 30
0.0
 11
20.4649429321289
 21
173.199996948242
 31
0.0
  0
ENDBLK
  5
   1EE
  8
0
  6
CONTINUOUS
 62
     2
  0
BLOCK
  5
   1EF
  8
0
  6
CONTINUOUS
 62
     7
  2
*HATCH148
 70
    65
 10
0.0
 20
0.0
 30
0.0
  3
*HATCH148
  0
LINE
  5
   1F0
  8
0
  6
CONTINUOUS
 62
   210
 10
20.5502243041992
 20
164.800003051758
 30
0.0
 11
18.0000019073486
 21
162.249771118164
 31
0.0
  0
LINE
  5
   1F1
  8
0
  6
CONTINUOUS
 62
   210
 10
22.0000019073486
 20
162.007141113281
 30
0.0
 11
18.2512645721436
 21
158.258407592773
 31
0.0
  0
LINE
  5
   1F2
  8
0
  6
CONTINUOUS
 62
   210
 10
23.0000019073486
 20
158.764495849609
 30
0.0
 11
22.4939060211182
 21
158.258407592773
 31
0.0
  0
ENDBLK
  5
   1F3
  8
0
  6
CONTINUOUS
 62
     7
  0
BLOCK
  5
   1F4
  8
0
  6
CONTINUOUS
 62
     7
  2
*HATCH149
 70
    65
 10
0.0
 20
0.0
 30
0.0
  3
*HATCH149
  0
LINE
  5
   1F5
  8
0
  6
CONTINUOUS
 62
   210
 10
25.55495262146
 20
159.0
 30
0.0
 11
26.2965507507324
 21
158.258407592773
 31
0.0
  0
LINE
  5
   1F6
  8
0
  6
CONTINUOUS
 62
   210
 10
29.7975902557373
 20
159.0
 30
0.0
 11
30.5391883850098
 21
158.258407592773
 31
0.0
  0
LINE
  5
   1F7
  8
0
  6
CONTINUOUS
 62
   210
 10
34.0402297973633
 20
159.0
 30
0.0
 11
34.7818260192871
 21
158.258407592773
 31
0.0
  0
ENDBLK
  5
   1F8
  8
0
  6
CONTINUOUS
 62
     7
  0
BLOCK
  5
   1F9
  8
0
  6
CONTINUOUS
 62
     7
  2
*HATCH150
 70
    65
 10
0.0
 20
0.0
 30
0.0
  3
*HATCH150
  0
LINE
  5
   1FA
  8
0
  6
CONTINUOUS
 62
    52
 10
107.001167297363
 20
202.460571289063
 30
0.0
 11
105.001167297363
 21
200.460571289063
 31
0.0
  0
LINE
  5
   1FB
  8
0
  6
CONTINUOUS
 62
    52
 10
107.001167297363
 20
198.217926025391
 30
0.0
 11
105.001167297363
 21
196.217926025391
 31
0.0
  0
LINE
  5
   1FC
  8
0
  6
CONTINUOUS
 62
    52
 10
107.001167297363
 20
193.975280761719
 30
0.0
 11
105.001167297363
 21
191.975280761719
 31
0.0
  0
LINE
  5
   1FD
  8
0
  6
CONTINUOUS
 62
    52
 10
107.001167297363
 20
189.732635498047
 30
0.0
 11
105.001167297363
 21
187.732635498047
 31
0.0
  0
LINE
  5
   1FE
  8
0
  6
CONTINUOUS
 62
    52
 10
107.001167297363
 20
185.489990234375
 30
0.0
 11
105.001167297363
 21
183.489990234375
 31
0.0
  0
LINE
  5
   1FF
  8
0
  6
CONTINUOUS
 62
    52
 10
107.001167297363
 20
181.247344970703
 30
0.0
 11
105.001167297363
 21
179.247344970703
 31
0.0
  0
LINE
  5
   200
  8
0
  6
CONTINUOUS
 62
    52
 10
107.001167297363
 20
177.004699707031
 30
0.0
 11
105.001167297363
 21
175.004699707031
 31
0.0
  0
LINE
  5
   201
  8
0
  6
CONTINUOUS
 62
    52
 10
107.001167297363
 20
172.762054443359
 30
0.0
 11
105.001167297363
 21
170.762054443359
 31
0.0
  0
LINE
  5
   202
  8
0
  6
CONTINUOUS
 62
    52
 10
107.001167297363
 20
168.519409179688
 30
0.0
 11
105.001167297363
 21
166.519409179688
 31
0.0
  0
LINE
  5
   203
  8
0
  6
CONTINUOUS
 62
    52
 10
107.001167297363
 20
164.276763916016
 30
0.0
 11
105.001167297363
 21
162.276763916016
 31
0.0
  0
LINE
  5
   204
  8
0
  6
CONTINUOUS
 62
    52
 10
107.001167297363
 20
160.034118652344
 30
0.0
 11
105.001167297363
 21
158.034118652344
 31
0.0
  0
LINE
  5
   205
  8
0
  6
CONTINUOUS
 62
    52
 10
107.001167297363
 20
155.791473388672
 30
0.0
 11
105.001167297363
 21
153.791473388672
 31
0.0
  0
LINE
  5
   206
  8
0
  6
CONTINUOUS
 62
    52
 10
107.001167297363
 20
151.548828125
 30
0.0
 11
105.001167297363
 21
149.548828125
 31
0.0
  0
LINE
  5
   207
  8
0
  6
CONTINUOUS
 62
    52
 10
107.001167297363
 20
147.306182861328
 30
0.0
 11
105.001167297363
 21
145.306182861328
 31
0.0
  0
LINE
  5
   208
  8
0
  6
CONTINUOUS
 62
    52
 10
107.001167297363
 20
143.063537597656
 30
0.0
 11
105.001167297363
 21
141.063537597656
 31
0.0
  0
LINE
  5
   209
  8
0
  6
CONTINUOUS
 62
    52
 10
107.001167297363
 20
138.820892333984
 30
0.0
 11
105.001167297363
 21
136.820892333984
 31
0.0
  0
LINE
  5
   20A
  8
0
  6
CONTINUOUS
 62
    52
 10
107.001167297363
 20
134.578247070313
 30
0.0
 11
105.001167297363
 21
132.578247070313
 31
0.0
  0
LINE
  5
   20B
  8
0
  6
CONTINUOUS
 62
    52
 10
107.001167297363
 20
130.335601806641
 30
0.0
 11
105.001167297363
 21
128.335601806641
 31
0.0
  0
LINE
  5
   20C
  8
0
  6
CONTINUOUS
 62
    52
 10
107.001167297363
 20
126.092956542969
 30
0.0
 11
105.001167297363
 21
124.092956542969
 31
0.0
  0
LINE
  5
   20D
  8
0
  6
CONTINUOUS
 62
    52
 10
107.001167297363
 20
121.850311279297
 30
0.0
 11
105.001167297363
 21
119.850311279297
 31
0.0
  0
LINE
  5
   20E
  8
0
  6
CONTINUOUS
 62
    52
 10
107.001167297363
 20
117.607666015625
 30
0.0
 11
105.001167297363
 21
115.607666015625
 31
0.0
  0
LINE
  5
   20F
  8
0
  6
CONTINUOUS
 62
    52
 10
107.001167297363
 20
113.365020751953
 30
0.0
 11
105.001167297363
 21
111.365020751953
 31
0.0
  0
LINE
  5
   210
  8
0
  6
CONTINUOUS
 62
    52
 10
107.001167297363
 20
109.122375488281
 30
0.0
 11
105.001167297363
 21
107.122375488281
 31
0.0
  0
LINE
  5
   211
  8
0
  6
CONTINUOUS
 62
    52
 10
107.001167297363
 20
104.879730224609
 30
0.0
 11
105.001167297363
 21
102.879730224609
 31
0.0
  0
LINE
  5
   212
  8
0
  6
CONTINUOUS
 62
    52
 10
107.001167297363
 20
100.637084960938
 30
0.0
 11
105.001167297363
 21
98.6370849609375
 31
0.0
  0
LINE
  5
   213
  8
0
  6
CONTINUOUS
 62
    52
 10
107.001167297363
 20
96.3944396972656
 30
0.0
 11
105.001167297363
 21
94.3944396972656
 31
0.0
  0
LINE
  5
   214
  8
0
  6
CONTINUOUS
 62
    52
 10
107.001167297363
 20
92.1517944335938
 30
0.0
 11
105.001167297363
 21
90.1517944335938
 31
0.0
  0
LINE
  5
   215
  8
0
  6
CONTINUOUS
 62
    52
 10
107.001167297363
 20
87.9091491699219
 30
0.0
 11
105.001167297363
 21
85.9091491699219
 31
0.0
  0
ENDBLK
  5
   216
  8
0
  6
CONTINUOUS
 62
     7
  0
BLOCK
  5
   217
  8
0
  6
CONTINUOUS
 62
     7
  2
*HATCH151
 70
    65
 10
0.0
 20
0.0
 30
0.0
  3
*HATCH151
  0
LINE
  5
   218
  8
0
  6
CONTINUOUS
 62
     3
 10
29.5000019073486
 20
184.046340942383
 30
0.0
 11
31.046329498291
 21
182.500015258789
 31
0.0
  0
LINE
  5
   219
  8
0
  6
CONTINUOUS
 62
     3
 10
30.6676654815674
 20
185.0
 30
0.0
 11
33.167652130127
 21
182.500015258789
 31
0.0
  0
LINE
  5
   21A
  8
0
  6
CONTINUOUS
 62
     3
 10
32.7889823913574
 20
185.0
 30
0.0
 11
35.2889747619629
 21
182.500015258789
 31
0.0
  0
LINE
  5
   21B
  8
0
  6
CONTINUOUS
 62
     3
 10
34.9102973937988
 20
185.0
 30
0.0
 11
37.4102973937988
 21
182.500015258789
 31
0.0
  0
LINE
  5
   21C
  8
0
  6
CONTINUOUS
 62
     3
 10
37.0316123962402
 20
185.0
 30
0.0
 11
39.5316200256348
 21
182.500015258789
 31
0.0
  0
LINE
  5
   21D
  8
0
  6
CONTINUOUS
 62
     3
 10
39.1529273986816
 20
185.0
 30
0.0
 11
41.6529426574707
 21
182.500015258789
 31
0.0
  0
LINE
  5
   21E
  8
0
  6
CONTINUOUS
 62
     3
 10
41.274242401123
 20
185.0
 30
0.0
 11
43.7742652893066
 21
182.500015258789
 31
0.0
  0
LINE
  5
   21F
  8
0
  6
CONTINUOUS
 62
     3
 10
43.3955574035645
 20
185.0
 30
0.0
 11
45.8955879211426
 21
182.500015258789
 31
0.0
  0
LINE
  5
   220
  8
0
  6
CONTINUOUS
 62
     3
 10
45.5168724060059
 20
185.0
 30
0.0
 11
48.0169105529785
 21
182.500015258789
 31
0.0
  0
LINE
  5
   221
  8
0
  6
CONTINUOUS
 62
     3
 10
47.6381874084473
 20
185.0
 30
0.0
 11
50.1382331848145
 21
182.500015258789
 31
0.0
  0
LINE
  5
   222
  8
0
  6
CONTINUOUS
 62
     3
 10
49.7595024108887
 20
185.0
 30
0.0
 11
52.2595558166504
 21
182.500015258789
 31
0.0
  0
LINE
  5
   223
  8
0
  6
CONTINUOUS
 62
     3
 10
51.8808174133301
 20
185.0
 30
0.0
 11
54.3808784484863
 21
182.500015258789
 31
0.0
  0
LINE
  5
   224
  8
0
  6
CONTINUOUS
 62
     3
 10
54.0021324157715
 20
185.0
 30
0.0
 11
56.5022010803223
 21
182.500015258789
 31
0.0
  0
LINE
  5
   225
  8
0
  6
CONTINUOUS
 62
     3
 10
56.1234474182129
 20
185.0
 30
0.0
 11
58.6235237121582
 21
182.500015258789
 31
0.0
  0
LINE
  5
   226
  8
0
  6
CONTINUOUS
 62
     3
 10
58.2447624206543
 20
185.0
 30
0.0
 11
60.7448463439941
 21
182.500015258789
 31
0.0
  0
LINE
  5
   227
  8
0
  6
CONTINUOUS
 62
     3
 10
60.3660774230957
 20
185.0
 30
0.0
 11
62.8661689758301
 21
182.500015258789
 31
0.0
  0
LINE
  5
   228
  8
0
  6
CONTINUOUS
 62
     3
 10
62.4873924255371
 20
185.0
 30
0.0
 11
64.9874877929688
 21
182.500015258789
 31
0.0
  0
LINE
  5
   229
  8
0
  6
CONTINUOUS
 62
     3
 10
64.608757019043
 20
185.000015258789
 30
0.0
 11
65.5542221069336
 21
184.054550170898
 31
0.0
  0
ENDBLK
  5
   22A
  8
0
  6
CONTINUOUS
 62
     7
  0
BLOCK
  5
   22B
  8
0
  6
CONTINUOUS
 62
     7
  2
*HATCH152
 70
    65
 10
0.0
 20
0.0
 30
0.0
  3
*HATCH152
  0
LINE
  5
   22C
  8
0
  6
CONTINUOUS
 62
   210
 10
23.0000019073486
 20
74.5807647705078
 30
0.0
 11
23.5807666778564
 21
74.0
 31
0.0
  0
LINE
  5
   22D
  8
0
  6
CONTINUOUS
 62
   210
 10
23.0000019073486
 20
76.7020874023438
 30
0.0
 11
25.7020854949951
 21
74.0
 31
0.0
  0
LINE
  5
   22E
  8
0
  6
CONTINUOUS
 62
   210
 10
23.0000019073486
 20
78.8234100341797
 30
0.0
 11
27.8234043121338
 21
74.0
 31
0.0
  0
LINE
  5
   22F
  8
0
  6
CONTINUOUS
 62
   210
 10
24.194730758667
 20
79.75
 30
0.0
 11
28.0000019073486
 21
75.9447250366211
 31
0.0
  0
LINE
  5
   230
  8
0
  6
CONTINUOUS
 62
   210
 10
26.3160495758057
 20
79.75
 30
0.0
 11
28.0000019073486
 21
78.066047668457
 31
0.0
  0
ENDBLK
  5
   231
  8
0
  6
CONTINUOUS
 62
     7
  0
BLOCK
  5
   232
  8
0
  6
CONTINUOUS
 62
     7
  2
*HATCH153
 70
    65
 10
0.0
 20
0.0
 30
0.0
  3
*HATCH153
  0
LINE
  5
   233
  8
0
  6
CONTINUOUS
 62
   210
 10
23.0000019073486
 20
74.5807647705078
 30
0.0
 11
23.5807666778564
 21
74.0
 31
0.0
  0
LINE
  5
   234
  8
0
  6
CONTINUOUS
 62
   210
 10
23.0000019073486
 20
76.7020874023438
 30
0.0
 11
25.7020854949951
 21
74.0
 31
0.0
  0
LINE
  5
   235
  8
0
  6
CONTINUOUS
 62
   210
 10
23.0000019073486
 20
78.8234100341797
 30
0.0
 11
27.8234043121338
 21
74.0
 31
0.0
  0
LINE
  5
   236
  8
0
  6
CONTINUOUS
 62
   210
 10
24.194730758667
 20
79.75
 30
0.0
 11
28.0000019073486
 21
75.9447250366211
 31
0.0
  0
LINE
  5
   237
  8
0
  6
CONTINUOUS
 62
   210
 10
26.3160495758057
 20
79.75
 30
0.0
 11
28.0000019073486
 21
78.066047668457
 31
0.0
  0
ENDBLK
  5
   238
  8
0
  6
CONTINUOUS
 62
     7
  0
BLOCK
  5
   239
  8
0
  6
CONTINUOUS
 62
     7
  2
*HATCH154
 70
    65
 10
0.0
 20
0.0
 30
0.0
  3
*HATCH154
  0
LINE
  5
   23A
  8
0
  6
CONTINUOUS
 62
   210
 10
23.0
 20
89.4300155639649
 30
0.0
 11
24.1800174713135
 21
88.25
 31
0.0
  0
LINE
  5
   23B
  8
0
  6
CONTINUOUS
 62
   210
 10
22.9999980926514
 20
91.5513381958008
 30
0.0
 11
26.3013362884521
 21
88.25
 31
0.0
  0
LINE
  5
   23C
  8
0
  6
CONTINUOUS
 62
   210
 10
22.9999961853027
 20
93.6726684570313
 30
0.0
 11
28.0000019073486
 21
88.6726531982422
 31
0.0
  0
LINE
  5
   23D
  8
0
  6
CONTINUOUS
 62
   210
 10
22.9999942779541
 20
95.7939910888672
 30
0.0
 11
28.0000019073486
 21
90.7939758300781
 31
0.0
  0
LINE
  5
   23E
  8
0
  6
CONTINUOUS
 62
   210
 10
22.9999923706055
 20
97.9153137207031
 30
0.0
 11
28.0000019073486
 21
92.9152984619141
 31
0.0
  0
LINE
  5
   23F
  8
0
  6
CONTINUOUS
 62
   210
 10
22.9999904632568
 20
100.036636352539
 30
0.0
 11
28.0000019073486
 21
95.03662109375
 31
0.0
  0
LINE
  5
   240
  8
0
  6
CONTINUOUS
 62
   210
 10
22.9999885559082
 20
102.157958984375
 30
0.0
 11
28.0000019073486
 21
97.1579437255859
 31
0.0
  0
LINE
  5
   241
  8
0
  6
CONTINUOUS
 62
   210
 10
22.9999866485596
 20
104.279281616211
 30
0.0
 11
28.0000019073486
 21
99.2792663574219
 31
0.0
  0
LINE
  5
   242
  8
0
  6
CONTINUOUS
 62
   210
 10
23.0440235137939
 20
106.356567382813
 30
0.0
 11
28.0000019073486
 21
101.400581359863
 31
0.0
  0
LINE
  5
   243
  8
0
  6
CONTINUOUS
 62
   210
 10
23.3986186981201
 20
108.12329864502
 30
0.0
 11
28.0000019073486
 21
103.521903991699
 31
0.0
  0
LINE
  5
   244
  8
0
  6
CONTINUOUS
 62
   210
 10
24.1018161773682
 20
109.54141998291
 30
0.0
 11
28.0000019073486
 21
105.643226623535
 31
0.0
  0
LINE
  5
   245
  8
0
  6
CONTINUOUS
 62
   210
 10
25.0352230072022
 20
110.729331970215
 30
0.0
 11
28.5697040557861
 21
107.194847106934
 31
0.0
  0
LINE
  5
   246
  8
0
  6
CONTINUOUS
 62
   210
 10
26.2040405273438
 20
111.681831359863
 30
0.0
 11
29.907772064209
 21
107.978096008301
 31
0.0
  0
LINE
  5
   247
  8
0
  6
CONTINUOUS
 62
   210
 10
27.5920448303223
 20
112.415153503418
 30
0.0
 11
31.3544807434082
 21
108.652709960937
 31
0.0
  0
LINE
  5
   248
  8
0
  6
CONTINUOUS
 62
   210
 10
29.0387535095215
 20
113.089767456055
 30
0.0
 11
32.8011894226074
 21
109.327323913574
 31
0.0
  0
LINE
  5
   249
  8
0
  6
CONTINUOUS
 62
   210
 10
30.4854621887207
 20
113.764381408691
 30
0.0
 11
34.2478981018066
 21
110.001937866211
 31
0.0
  0
LINE
  5
   24A
  8
0
  6
CONTINUOUS
 62
   210
 10
31.9321708679199
 20
114.438995361328
 30
0.0
 11
35.6946067810059
 21
110.676551818848
 31
0.0
  0
LINE
  5
   24B
  8
0
  6
CONTINUOUS
 62
   210
 10
33.3788795471191
 20
115.113609313965
 30
0.0
 11
37.1413154602051
 21
111.351165771484
 31
0.0
  0
LINE
  5
   24C
  8
0
  6
CONTINUOUS
 62
   210
 10
34.8255882263184
 20
115.788223266602
 30
0.0
 11
38.5880241394043
 21
112.025779724121
 31
0.0
  0
LINE
  5
   24D
  8
0
  6
CONTINUOUS
 62
   210
 10
36.2722969055176
 20
116.462837219238
 30
0.0
 11
40.0347328186035
 21
112.700393676758
 31
0.0
  0
LINE
  5
   24E
  8
0
  6
CONTINUOUS
 62
   210
 10
37.7190055847168
 20
117.137451171875
 30
0.0
 11
41.4814414978027
 21
113.375007629395
 31
0.0
  0
LINE
  5
   24F
  8
0
  6
CONTINUOUS
 62
   210
 10
39.165714263916
 20
117.812065124512
 30
0.0
 11
42.928150177002
 21
114.049621582031
 31
0.0
  0
LINE
  5
   250
  8
0
  6
CONTINUOUS
 62
   210
 10
40.6124229431152
 20
118.48664855957
 30
0.0
 11
44.3475799560547
 21
114.751487731934
 31
0.0
  0
LINE
  5
   251
  8
0
  6
CONTINUOUS
 62
   210
 10
42.0123329162598
 20
119.208061218262
 30
0.0
 11
45.5996932983398
 21
115.620697021484
 31
0.0
  0
LINE
  5
   252
  8
0
  6
CONTINUOUS
 62
   210
 10
42.8798370361328
 20
120.461875915527
 30
0.0
 11
46.624397277832
 21
116.717308044434
 31
0.0
  0
LINE
  5
   253
  8
0
  6
CONTINUOUS
 62
   210
 10
43.0000038146973
 20
122.463035583496
 30
0.0
 11
47.3902053833008
 21
118.072830200195
 31
0.0
  0
LINE
  5
   254
  8
0
  6
CONTINUOUS
 62
   210
 10
43.0000038146973
 20
124.584358215332
 30
0.0
 11
47.8946495056152
 21
119.68970489502
 31
0.0
  0
LINE
  5
   255
  8
0
  6
CONTINUOUS
 62
   210
 10
43.0000038146973
 20
126.705680847168
 30
0.0
 11
48.0000038146973
 21
121.705673217773
 31
0.0
  0
LINE
  5
   256
  8
0
  6
CONTINUOUS
 62
   210
 10
43.0000038146973
 20
128.826995849609
 30
0.0
 11
48.0000038146973
 21
123.826995849609
 31
0.0
  0
LINE
  5
   257
  8
0
  6
CONTINUOUS
 62
   210
 10
43.0000038146973
 20
130.948318481445
 30
0.0
 11
48.0000038146973
 21
125.948318481445
 31
0.0
  0
LINE
  5
   258
  8
0
  6
CONTINUOUS
 62
   210
 10
43.0000038146973
 20
133.069641113281
 30
0.0
 11
48.0000038146973
 21
128.069641113281
 31
0.0
  0
LINE
  5
   259
  8
0
  6
CONTINUOUS
 62
   210
 10
43.0000038146973
 20
135.190963745117
 30
0.0
 11
48.0000038146973
 21
130.190963745117
 31
0.0
  0
LINE
  5
   25A
  8
0
  6
CONTINUOUS
 62
   210
 10
43.0000038146973
 20
137.312286376953
 30
0.0
 11
48.0000038146973
 21
132.312286376953
 31
0.0
  0
LINE
  5
   25B
  8
0
  6
CONTINUOUS
 62
   210
 10
43.0000038146973
 20
139.433609008789
 30
0.0
 11
48.0000038146973
 21
134.433609008789
 31
0.0
  0
LINE
  5
   25C
  8
0
  6
CONTINUOUS
 62
   210
 10
44.8049278259277
 20
139.75
 30
0.0
 11
48.0000038146973
 21
136.554916381836
 31
0.0
  0
LINE
  5
   25D
  8
0
  6
CONTINUOUS
 62
   210
 10
46.9262466430664
 20
139.75
 30
0.0
 11
48.0000038146973
 21
138.676239013672
 31
0.0
  0
ENDBLK
  5
   25E
  8
0
  6
CONTINUOUS
 62
     7
  0
BLOCK
  5
   25F
  8
0
  6
CONTINUOUS
 62
     7
  2
*HATCH155
 70
    65
 10
0.0
 20
0.0
 30
0.0
  3
*HATCH155
  0
LINE
  5
   260
  8
0
  6
CONTINUOUS
 62
   210
 10
43.0000038146973
 20
150.040222167969
 30
0.0
 11
44.7902145385742
 21
148.25
 31
0.0
  0
LINE
  5
   261
  8
0
  6
CONTINUOUS
 62
   210
 10
43.0000038146973
 20
152.161544799805
 30
0.0
 11
46.9115333557129
 21
148.25
 31
0.0
  0
LINE
  5
   262
  8
0
  6
CONTINUOUS
 62
   210
 10
43.0000038146973
 20
154.282852172852
 30
0.0
 11
48.0000038146973
 21
149.282852172852
 31
0.0
  0
LINE
  5
   263
  8
0
  6
CONTINUOUS
 62
   210
 10
43.0000038146973
 20
156.404174804688
 30
0.0
 11
48.0000038146973
 21
151.404174804688
 31
0.0
  0
LINE
  5
   264
  8
0
  6
CONTINUOUS
 62
   210
 10
45.0255165100098
 20
156.499984741211
 30
0.0
 11
48.0000038146973
 21
153.525497436523
 31
0.0
  0
LINE
  5
   265
  8
0
  6
CONTINUOUS
 62
   210
 10
47.1468353271484
 20
156.499984741211
 30
0.0
 11
48.0000038146973
 21
155.646820068359
 31
0.0
  0
ENDBLK
  5
   266
  8
0
  6
CONTINUOUS
 62
     7
  0
BLOCK
  5
   267
  8
0
  6
CONTINUOUS
 62
     7
  2
T_A_D_L_
 70
    64
 10
0.0
 20
0.0
 30
0.0
  3
T_A_D_L_
  0
LINE
  5
   268
  8
0
  6
CONTINUOUS
 62
     1
 10
99.5000028312206
 20
100.999999046326
 30
0.0
 11
99.5000028312206
 21
102.999999046326
 31
0.0
  0
LINE
  5
   269
  8
0
  6
CONTINUOUS
 62
     1
 10
-1.49999716877938
 20
102.999999046326
 30
0.0
 11
23.0000019073486
 21
102.999999046326
 31
0.0
  0
LINE
  5
   26A
  8
0
  6
CONTINUOUS
 62
     1
 10
-1.49999716877937
 20
100.999999046326
 30
0.0
 11
-1.49999716877937
 21
102.999999046326
 31
0.0
  0
LINE
  5
   26B
  8
0
  6
CONTINUOUS
 62
     1
 10
-0.499997138977059
 20
99.9999990463257
 30
0.0
 11
1.50000190734862
 21
99.9999990463257
 31
0.0
  0
LINE
  5
   26C
  8
0
  6
CONTINUOUS
 62
     1
 10
19.0000019073486
 20
99.9999990463257
 30
0.0
 11
23.0000019073486
 21
99.9999990463257
 31
0.0
  0
LINE
  5
   26D
  8
0
  6
CONTINUOUS
 62
     1
 10
-1.49999716877937
 20
102.999999046326
 30
0.0
 11
-1.49999716877937
 21
186.499705392366
 31
0.0
  0
LINE
  5
   26E
  8
0
  6
CONTINUOUS
 62
     1
 10
99.5000028312206
 20
102.999999046326
 30
0.0
 11
99.5000028312206
 21
189.197535108559
 31
0.0
  0
LINE
  5
   26F
  8
0
  6
CONTINUOUS
 62
     1
 10
98.5000015647646
 20
99.9999985671261
 30
0.0
 11
99.5000015305361
 21
100.999998532898
 31
0.0
  0
LINE
  5
   270
  8
0
  6
CONTINUOUS
 62
     1
 10
-1.49999712599373
 20
100.999998952197
 30
0.0
 11
-0.499997160222257
 21
99.9999989864258
 31
0.0
  0
LINE
  5
   271
  8
0
  6
CONTINUOUS
 62
     1
 10
28.0000019073486
 20
102.999999046326
 30
0.0
 11
99.5000028312206
 21
102.999999046326
 31
0.0
  0
LINE
  5
   272
  8
0
  6
CONTINUOUS
 62
     1
 10
28.0000019073486
 20
99.9999990463257
 30
0.0
 11
98.5000020439642
 21
99.9999990463257
 31
0.0
  0
INSERT
  5
   273
  8
0
  6
CONTINUOUS
 62
     7
  2
*HATCH152
 10
0.0
 20
0.0
 30
0.0
  0
LINE
  5
   274
  8
0
  6
CONTINUOUS
 62
     7
 10
27.0416736602783
 20
112.158508300781
 30
0.0
 11
41.8452396392822
 21
119.0615234375
 31
0.0
  0
LINE
  5
   275
  8
0
  6
CONTINUOUS
 62
     7
 10
41.8452396392822
 20
119.0615234375
 30
0.0
 11
42.6867847442627
 21
119.799545288086
 31
0.0
  0
LINE
  5
   276
  8
0
  6
CONTINUOUS
 62
     7
 10
43.0000019073486
 20
120.874145507813
 30
0.0
 11
43.0000019073486
 21
127.262603759766
 31
0.0
  0
LINE
  5
   277
  8
0
  6
CONTINUOUS
 62
     7
 10
43.0000019073486
 20
139.75
 30
0.0
 11
43.0000019073486
 21
148.25
 31
0.0
  0
LINE
  5
   278
  8
0
  6
CONTINUOUS
 62
     7
 10
43.0000019073486
 20
148.25
 30
0.0
 11
43.0000019073486
 21
156.499984741211
 31
0.0
  0
LINE
  5
   279
  8
0
  6
CONTINUOUS
 62
     7
 10
43.0000019073486
 20
156.499984741211
 30
0.0
 11
48.0000038146973
 21
156.499984741211
 31
0.0
  0
LINE
  5
   27A
  8
0
  6
CONTINUOUS
 62
     7
 10
48.0000038146973
 20
148.25
 30
0.0
 11
48.0000038146973
 21
156.499984741211
 31
0.0
  0
LINE
  5
   27B
  8
0
  6
CONTINUOUS
 62
     7
 10
43.0000019073486
 20
148.25
 30
0.0
 11
48.0000038146973
 21
148.25
 31
0.0
  0
LINE
  5
   27C
  8
0
  6
CONTINUOUS
 62
     7
 10
43.0000019073486
 20
139.75
 30
0.0
 11
48.0000038146973
 21
139.75
 31
0.0
  0
LINE
  5
   27D
  8
0
  6
CONTINUOUS
 62
     7
 10
48.0000038146973
 20
127.262603759766
 30
0.0
 11
48.0000038146973
 21
139.75
 31
0.0
  0
LINE
  5
   27E
  8
0
  6
CONTINUOUS
 62
     7
 10
43.0000019073486
 20
127.262603759766
 30
0.0
 11
43.0000019073486
 21
139.75
 31
0.0
  0
LINE
  5
   27F
  8
0
  6
CONTINUOUS
 62
     7
 10
48.0000038146973
 20
139.75
 30
0.0
 11
48.0000038146973
 21
148.25
 31
0.0
  0
LINE
  5
   280
  8
0
  6
CONTINUOUS
 62
     7
 10
48.0000038146973
 20
120.874145507813
 30
0.0
 11
48.0000038146973
 21
127.262603759766
 31
0.0
  0
LINE
  5
   281
  8
0
  6
CONTINUOUS
 62
     7
 10
42.6867847442627
 20
119.799545288086
 30
0.0
 11
43.0000019073486
 21
120.874145507813
 31
0.0
  0
ARC
  5
   282
  8
0
  6
CONTINUOUS
 62
     7
 10
40.9999714505164
 20
120.874153954629
 30
0.0
 40
7.00003236418596
 50
295.000173925889
 51
359.999930860147
  0
LINE
  5
   283
  8
0
  6
CONTINUOUS
 62
     7
 10
29.1547471084667
 20
107.626958646517
 30
0.0
 11
43.9583301544189
 21
114.529983520508
 31
0.0
  0
LINE
  5
   284
  8
0
  6
CONTINUOUS
 62
     7
 10
28.0000019073486
 20
88.2500000000001
 30
0.0
 11
28.0000019073486
 21
105.81437167807
 31
0.0
  0
ARC
  5
   285
  8
0
  6
CONTINUOUS
 62
     7
 10
29.999970382496
 20
105.81437167807
 30
0.0
 40
1.99996847516997
 50
115.000002325622
 51
180.0
  0
ARC
  5
   286
  8
0
  6
CONTINUOUS
 62
     7
 10
30.0000475353922
 20
105.814307270603
 30
0.0
 40
7.00006162089133
 50
115.000180631326
 51
179.999555538035
  0
LINE
  5
   287
  8
0
  6
CONTINUOUS
 62
     7
 10
23.0000019073486
 20
88.2500000000001
 30
0.0
 11
23.0000019073486
 21
105.814361572266
 31
0.0
  0
LINE
  5
   288
  8
0
  6
CONTINUOUS
 62
     7
 10
23.0000019073486
 20
88.2500000000001
 30
0.0
 11
28.0000019073486
 21
88.2500000000001
 31
0.0
  0
LINE
  5
   289
  8
0
  6
CONTINUOUS
 62
     7
 10
23.0000019073486
 20
74.0000000000001
 30
0.0
 11
23.0000019073486
 21
79.7500000000001
 31
0.0
  0
LINE
  5
   28A
  8
0
  6
CONTINUOUS
 62
     7
 10
23.0000019073486
 20
74.0000000000001
 30
0.0
 11
28.0000019073486
 21
74.0000000000001
 31
0.0
  0
LINE
  5
   28B
  8
0
  6
CONTINUOUS
 62
     7
 10
28.0000019073486
 20
74.0000000000001
 30
0.0
 11
28.0000019073486
 21
79.7500000000001
 31
0.0
  0
LINE
  5
   28C
  8
0
  6
DASHDOT
 62
     7
 10
41.0000019073486
 20
144.0
 30
0.0
 11
50.0000038146973
 21
144.0
 31
0.0
  0
INSERT
  5
   28D
  8
0
  6
CONTINUOUS
 62
     7
  2
*HATCH153
 10
0.0
 20
0.0
 30
0.0
  0
INSERT
  5
   28E
  8
0
  6
CONTINUOUS
 62
     7
  2
*HATCH154
 10
0.0
 20
0.0
 30
0.0
  0
INSERT
  5
   28F
  8
0
  6
CONTINUOUS
 62
     7
  2
*HATCH155
 10
0.0
 20
0.0
 30
0.0
  0
POINT
  5
   290
  8
0
  6
CONTINUOUS
 62
     7
 10
29.0000019073486
 20
84.0
 30
0.0
  0
LINE
  5
   291
  8
0
  6
CONTINUOUS
 62
     3
 10
-8.95514807263996
 20
194.08088103724
 30
0.0
 11
106.197994010985
 21
196.019486122823
 31
0.0
  0
LINE
  5
   292
  8
0
  6
CONTINUOUS
 62
     3
 10
-7.98584552984849
 20
186.326460694908
 30
0.0
 11
108.136599096568
 21
189.428228831841
 31
0.0
  0
LINE
  5
   293
  8
0
  6
CONTINUOUS
 62
     1
 10
99.5000028312206
 20
195.90672532855
 30
0.0
 11
99.5000028312206
 21
213.000017223622
 31
0.0
  0
LINE
  5
   294
  8
0
  6
CONTINUOUS
 62
     1
 10
-1.49999716877937
 20
194.206388628214
 30
0.0
 11
-1.49999716877937
 21
213.000017223622
 31
0.0
  0
LINE
  5
   295
  8
0
  6
CONTINUOUS
 62
     1
 10
-1.49999716877937
 20
213.000017223622
 30
0.0
 11
99.5000028312206
 21
213.000017223622
 31
0.0
  0
LINE
  5
   296
  8
0
  6
CONTINUOUS
 62
     7
 10
23.0000019073486
 20
79.7499999999999
 30
0.0
 11
28.0000019073486
 21
79.7499999999999
 31
0.0
  0
ENDBLK
  5
   297
  8
0
  6
CONTINUOUS
 62
     7
  0
BLOCK
  5
   298
  8
0
  6
CONTINUOUS
 62
     7
  2
*UDIM725
 70
    65
 10
0.0
 20
0.0
 30
0.0
  3
*UDIM725
  0
TEXT
  5
   299
  8
0
  6
CONTINUOUS
 62
     7
 10
227.867637175595
 20
185.355374508347
 30
0.0
 40
2.99999994933605
  1
101,5
 41
0.933333333333333
 72
     1
 11
234.567637062445
 21
186.855374483015
 31
0.0
 73
     2
  0
LINE
  5
   29A
  8
0
  6
CONTINUOUS
 62
     7
 10
214.542636859417
 20
135.744282952822
 30
0.0
 11
214.542636859417
 21
186.355374508347
 31
0.0
  0
LINE
  5
   29B
  8
0
  6
CONTINUOUS
 62
     7
 10
255.142637464404
 20
132.232965809771
 30
0.0
 11
255.142637464404
 21
186.355374508347
 31
0.0
  0
LINE
  5
   29C
  8
0
  6
CONTINUOUS
 62
     7
 10
214.542636859417
 20
184.355374508347
 30
0.0
 11
255.142637464404
 21
184.355374508347
 31
0.0
  0
LINE
  5
   29D
  8
0
  6
CONTINUOUS
 62
     7
 10
217.497060136624
 20
184.876318938299
 30
0.0
 11
214.542636859417
 21
184.355374508347
 31
0.0
  0
LINE
  5
   29E
  8
0
  6
CONTINUOUS
 62
     7
 10
214.542636859417
 20
184.355374508347
 30
0.0
 11
217.497060136624
 21
183.834430078395
 31
0.0
  0
LINE
  5
   29F
  8
0
  6
CONTINUOUS
 62
     7
 10
252.188214187197
 20
183.834430078395
 30
0.0
 11
255.142637464404
 21
184.355374508347
 31
0.0
  0
LINE
  5
   2A0
  8
0
  6
CONTINUOUS
 62
     7
 10
255.142637464404
 20
184.355374508347
 30
0.0
 11
252.188214187197
 21
184.876318938299
 31
0.0
  0
ENDBLK
  5
   2A1
  8
0
  6
CONTINUOUS
 62
     7
  0
BLOCK
  5
   2A2
  8
0
  6
CONTINUOUS
 62
     7
  2
*UDIM726
 70
    65
 10
0.0
 20
0.0
 30
0.0
  3
*UDIM726
  0
TEXT
  5
   2A3
  8
0
  6
CONTINUOUS
 62
     7
 10
221.042637035747
 20
160.732219426253
 30
0.0
 40
2.99999994933605
  1
45
 41
0.933333333333333
 72
     1
 11
223.542636993527
 21
162.232219400921
 31
0.0
 73
     2
  0
LINE
  5
   2A4
  8
0
  6
CONTINUOUS
 62
     7
 10
214.542636859417
 20
135.744282952822
 30
0.0
 11
214.542636859417
 21
161.732219426253
 31
0.0
  0
LINE
  5
   2A5
  8
0
  6
CONTINUOUS
 62
     7
 10
232.542637127638
 20
152.032961137593
 30
0.0
 11
232.542637127638
 21
161.732219426253
 31
0.0
  0
LINE
  5
   2A6
  8
0
  6
CONTINUOUS
 62
     7
 10
214.542636859417
 20
159.732219426253
 30
0.0
 11
232.542637127638
 21
159.732219426253
 31
0.0
  0
LINE
  5
   2A7
  8
0
  6
CONTINUOUS
 62
     7
 10
217.440414332628
 20
160.508676582671
 30
0.0
 11
214.542636859417
 21
159.732219426253
 31
0.0
  0
LINE
  5
   2A8
  8
0
  6
CONTINUOUS
 62
     7
 10
214.542636859417
 20
159.732219426253
 30
0.0
 11
217.440414332628
 21
158.955762269834
 31
0.0
  0
LINE
  5
   2A9
  8
0
  6
CONTINUOUS
 62
     7
 10
229.644859654427
 20
158.955762269834
 30
0.0
 11
232.542637127638
 21
159.732219426253
 31
0.0
  0
LINE
  5
   2AA
  8
0
  6
CONTINUOUS
 62
     7
 10
232.542637127638
 20
159.732219426253
 30
0.0
 11
229.644859654427
 21
160.508676582671
 31
0.0
  0
ENDBLK
  5
   2AB
  8
0
  6
CONTINUOUS
 62
     7
  0
BLOCK
  5
   2AC
  8
0
  6
CONTINUOUS
 62
     7
  2
*UDIM727
 70
    65
 10
0.0
 20
0.0
 30
0.0
  3
*UDIM727
  0
TEXT
  5
   2AD
  8
0
  6
CONTINUOUS
 62
     7
 10
239.247731027778
 20
160.732219426253
 30
0.0
 40
2.99999994933605
  1
5
 41
0.933333333333333
 72
     1
 11
240.347731009202
 21
162.232219400921
 31
0.0
 73
     2
  0
LINE
  5
   2AE
  8
0
  6
CONTINUOUS
 62
     7
 10
234.54263792038
 20
152.032961137593
 30
0.0
 11
234.54263792038
 21
161.732219426253
 31
0.0
  0
LINE
  5
   2AF
  8
0
  6
CONTINUOUS
 62
     7
 10
232.542637127638
 20
159.732219426253
 30
0.0
 11
241.447730990625
 21
159.732219426253
 31
0.0
  0
LINE
  5
   2B0
  8
0
  6
CONTINUOUS
 62
     7
 10
229.644859654427
 20
158.955762269834
 30
0.0
 11
232.542637127638
 21
159.732219426253
 31
0.0
  0
LINE
  5
   2B1
  8
0
  6
CONTINUOUS
 62
     7
 10
232.542637127638
 20
159.732219426253
 30
0.0
 11
229.644859654427
 21
160.508676582671
 31
0.0
  0
LINE
  5
   2B2
  8
0
  6
CONTINUOUS
 62
     7
 10
237.44041539359
 20
160.508676582671
 30
0.0
 11
234.54263792038
 21
159.732219426253
 31
0.0
  0
LINE
  5
   2B3
  8
0
  6
CONTINUOUS
 62
     7
 10
234.54263792038
 20
159.732219426253
 30
0.0
 11
237.44041539359
 21
158.955762269834
 31
0.0
  0
ENDBLK
  5
   2B4
  8
0
  6
CONTINUOUS
 62
     7
  0
BLOCK
  5
   2B5
  8
0
  6
CONTINUOUS
 62
     7
  2
*UDIM728
 70
    65
 10
0.0
 20
0.0
 30
0.0
  3
*UDIM728
  0
TEXT
  5
   2B6
  8
0
  6
CONTINUOUS
 62
     7
 10
207.592636790822
 20
-35.8657175752306
 30
0.0
 40
2.99999994933605
  1
3
 41
0.933333333333333
 72
     1
 11
208.692636772245
 21
-34.3657176005626
 31
0.0
 73
     2
  0
TEXT
  5
   2B7
  8
0
  6
CONTINUOUS
 62
     7
 10
204.842636816055
 20
-35.8657175752306
 30
0.0
 40
2.99999994933605
  1
_
 41
0.933333333333333
 72
     1
 11
205.942636797478
 21
-34.3657176005626
 31
0.0
 73
     2
  0
LINE
  5
   2B8
  8
0
  6
CONTINUOUS
 62
     7
 10
213.342636841536
 20
21.5669584785743
 30
0.0
 11
213.342636841536
 21
-38.8657175752306
 31
0.0
  0
LINE
  5
   2B9
  8
0
  6
CONTINUOUS
 62
     7
 10
214.542636859417
 20
21.9141720180434
 30
0.0
 11
214.542636859417
 21
-38.8657175752306
 31
0.0
  0
LINE
  5
   2BA
  8
0
  6
CONTINUOUS
 62
     7
 10
204.842636816055
 20
-36.8657175752306
 30
0.0
 11
214.542636859417
 21
-36.8657175752306
 31
0.0
  0
LINE
  5
   2BB
  8
0
  6
CONTINUOUS
 62
     7
 10
210.388213564329
 20
-37.3866620051823
 30
0.0
 11
213.342636841536
 21
-36.8657175752306
 31
0.0
  0
LINE
  5
   2BC
  8
0
  6
CONTINUOUS
 62
     7
 10
213.342636841536
 20
-36.8657175752306
 30
0.0
 11
210.388213564329
 21
-36.344773145279
 31
0.0
  0
LINE
  5
   2BD
  8
0
  6
CONTINUOUS
 62
     7
 10
217.497060136624
 20
-36.344773145279
 30
0.0
 11
214.542636859417
 21
-36.8657175752306
 31
0.0
  0
LINE
  5
   2BE
  8
0
  6
CONTINUOUS
 62
     7
 10
214.542636859417
 20
-36.8657175752306
 30
0.0
 11
217.497060136624
 21
-37.3866620051823
 31
0.0
  0
ENDBLK
  5
   2BF
  8
0
  6
CONTINUOUS
 62
     7
  0
BLOCK
  5
   2C0
  8
0
  6
CONTINUOUS
 62
     7
  2
*UDIM729
 70
    65
 10
0.0
 20
0.0
 30
0.0
  3
*UDIM729
  0
TEXT
  5
   2C1
  8
0
  6
CONTINUOUS
 62
     7
 10
237.376651393373
 20
-35.8657175752306
 30
0.0
 40
2.99999994933605
  1
135
 41
0.933333333333333
 72
     1
 11
241.27665132751
 21
-34.3657176005626
 31
0.0
 73
     2
  0
LINE
  5
   2C2
  8
0
  6
CONTINUOUS
 62
     7
 10
268.56066465939
 20
56.7329597473144
 30
0.0
 11
268.56066465939
 21
-38.8657175752306
 31
0.0
  0
LINE
  5
   2C3
  8
0
  6
CONTINUOUS
 62
     7
 10
214.542636859417
 20
-36.8657175752306
 30
0.0
 11
268.56066465939
 21
-36.8657175752306
 31
0.0
  0
LINE
  5
   2C4
  8
0
  6
CONTINUOUS
 62
     7
 10
217.497060136624
 20
-36.344773145279
 30
0.0
 11
214.542636859417
 21
-36.8657175752306
 31
0.0
  0
LINE
  5
   2C5
  8
0
  6
CONTINUOUS
 62
     7
 10
214.542636859417
 20
-36.8657175752306
 30
0.0
 11
217.497060136624
 21
-37.3866620051823
 31
0.0
  0
LINE
  5
   2C6
  8
0
  6
CONTINUOUS
 62
     7
 10
265.606241382183
 20
-37.3866620051823
 30
0.0
 11
268.56066465939
 21
-36.8657175752306
 31
0.0
  0
LINE
  5
   2C7
  8
0
  6
CONTINUOUS
 62
     7
 10
268.56066465939
 20
-36.8657175752306
 30
0.0
 11
265.606241382183
 21
-36.344773145279
 31
0.0
  0
ENDBLK
  5
   2C8
  8
0
  6
CONTINUOUS
 62
     7
  0
BLOCK
  5
   2C9
  8
0
  6
CONTINUOUS
 62
     7
  2
*UDIM730
 70
    65
 10
0.0
 20
0.0
 30
0.0
  3
*UDIM730
  0
TEXT
  5
   2CA
  8
0
  6
CONTINUOUS
 62
     7
 10
231.767871409821
 20
-29.1057024117247
 30
0.0
 40
2.99999994933605
  1
107
 41
0.933333333333333
 72
     1
 11
235.667871343958
 21
-27.6057024370567
 31
0.0
 73
     2
  0
LINE
  5
   2CB
  8
0
  6
CONTINUOUS
 62
     7
 10
214.542636859417
 20
21.9141720180434
 30
0.0
 11
214.542636859417
 21
-32.1057024117247
 31
0.0
  0
LINE
  5
   2CC
  8
0
  6
CONTINUOUS
 62
     7
 10
257.343104883021
 20
9.66810961823647
 30
0.0
 11
257.343104883021
 21
-32.1057024117247
 31
0.0
  0
LINE
  5
   2CD
  8
0
  6
CONTINUOUS
 62
     7
 10
214.542636859417
 20
-30.1057024117247
 30
0.0
 11
257.343104883021
 21
-30.1057024117247
 31
0.0
  0
LINE
  5
   2CE
  8
0
  6
CONTINUOUS
 62
     7
 10
217.497060136624
 20
-29.5847579817731
 30
0.0
 11
214.542636859417
 21
-30.1057024117247
 31
0.0
  0
LINE
  5
   2CF
  8
0
  6
CONTINUOUS
 62
     7
 10
214.542636859417
 20
-30.1057024117247
 30
0.0
 11
217.497060136624
 21
-30.6266468416764
 31
0.0
  0
LINE
  5
   2D0
  8
0
  6
CONTINUOUS
 62
     7
 10
254.388681605814
 20
-30.6266468416764
 30
0.0
 11
257.343104883021
 21
-30.1057024117247
 31
0.0
  0
LINE
  5
   2D1
  8
0
  6
CONTINUOUS
 62
     7
 10
257.343104883021
 20
-30.1057024117247
 30
0.0
 11
254.388681605814
 21
-29.5847579817731
 31
0.0
  0
ENDBLK
  5
   2D2
  8
0
  6
CONTINUOUS
 62
     7
  0
BLOCK
  5
   2D3
  8
0
  6
CONTINUOUS
 62
     7
  2
*UDIM731
 70
    65
 10
0.0
 20
0.0
 30
0.0
  3
*UDIM731
  0
TEXT
  5
   2D4
  8
0
  6
CONTINUOUS
 62
     7
 10
261.143103830204
 20
-29.1057024117247
 30
0.0
 40
2.99999994933605
  1
2
 41
0.933333333333333
 72
     1
 11
262.243103811627
 21
-27.6057024370567
 31
0.0
 73
     2
  0
LINE
  5
   2D5
  8
0
  6
CONTINUOUS
 62
     7
 10
258.143104894942
 20
10.2438105613945
 30
0.0
 11
258.143104894942
 21
-32.1057024117247
 31
0.0
  0
LINE
  5
   2D6
  8
0
  6
CONTINUOUS
 62
     7
 10
257.343104883021
 20
-30.1057024117247
 30
0.0
 11
263.34310379305
 21
-30.1057024117247
 31
0.0
  0
LINE
  5
   2D7
  8
0
  6
CONTINUOUS
 62
     7
 10
254.388681605814
 20
-30.6266468416764
 30
0.0
 11
257.343104883021
 21
-30.1057024117247
 31
0.0
  0
LINE
  5
   2D8
  8
0
  6
CONTINUOUS
 62
     7
 10
257.343104883021
 20
-30.1057024117247
 30
0.0
 11
254.388681605814
 21
-29.5847579817731
 31
0.0
  0
LINE
  5
   2D9
  8
0
  6
CONTINUOUS
 62
     7
 10
261.097528172149
 20
-29.5847579817731
 30
0.0
 11
258.143104894942
 21
-30.1057024117247
 31
0.0
  0
LINE
  5
   2DA
  8
0
  6
CONTINUOUS
 62
     7
 10
258.143104894942
 20
-30.1057024117247
 30
0.0
 11
261.097528172149
 21
-30.6266468416764
 31
0.0
  0
ENDBLK
  5
   2DB
  8
0
  6
CONTINUOUS
 62
     7
  0
BLOCK
  5
   2DC
  8
0
  6
CONTINUOUS
 62
     7
  2
*UDIM732
 70
    65
 10
0.0
 20
0.0
 30
0.0
  3
*UDIM732
  0
TEXT
  5
   2DD
  8
0
  6
CONTINUOUS
 62
     7
 10
228.267898876348
 20
-23.3114037001482
 30
0.0
 40
2.99999994933605
  1
103,5
 41
0.933333333333333
 72
     1
 11
234.967898763198
 21
-21.8114037254802
 31
0.0
 73
     2
  0
LINE
  5
   2DE
  8
0
  6
CONTINUOUS
 62
     7
 10
214.542636859417
 20
21.9141720180434
 30
0.0
 11
214.542636859417
 21
-26.3114037001482
 31
0.0
  0
LINE
  5
   2DF
  8
0
  6
CONTINUOUS
 62
     7
 10
255.94316162885
 20
39.8329594969468
 30
0.0
 11
255.94316162885
 21
-26.3114037001482
 31
0.0
  0
LINE
  5
   2E0
  8
0
  6
CONTINUOUS
 62
     7
 10
214.542636859417
 20
-24.3114037001482
 30
0.0
 11
255.94316162885
 21
-24.3114037001482
 31
0.0
  0
LINE
  5
   2E1
  8
0
  6
CONTINUOUS
 62
     7
 10
217.497060136624
 20
-23.7904592701966
 30
0.0
 11
214.542636859417
 21
-24.3114037001482
 31
0.0
  0
LINE
  5
   2E2
  8
0
  6
CONTINUOUS
 62
     7
 10
214.542636859417
 20
-24.3114037001482
 30
0.0
 11
217.497060136624
 21
-24.8323481300999
 31
0.0
  0
LINE
  5
   2E3
  8
0
  6
CONTINUOUS
 62
     7
 10
252.988738351643
 20
-24.8323481300999
 30
0.0
 11
255.94316162885
 21
-24.3114037001482
 31
0.0
  0
LINE
  5
   2E4
  8
0
  6
CONTINUOUS
 62
     7
 10
255.94316162885
 20
-24.3114037001482
 30
0.0
 11
252.988738351643
 21
-23.7904592701966
 31
0.0
  0
ENDBLK
  5
   2E5
  8
0
  6
CONTINUOUS
 62
     7
  0
BLOCK
  5
   2E6
  8
0
  6
CONTINUOUS
 62
     7
  2
*UDIM733
 70
    65
 10
0.0
 20
0.0
 30
0.0
  3
*UDIM733
  0
TEXT
  5
   2E7
  8
0
  6
CONTINUOUS
 62
     7
 10
181.345557861688
 20
159.306877292405
 30
0.0
 40
2.99999994933605
  1
12,5
 50
90.0
 41
0.933333333333333
 72
     1
 11
179.845557887013
 21
164.606877202897
 31
0.0
 73
     2
  0
LINE
  5
   2E8
  8
0
  6
CONTINUOUS
 62
     7
 10
230.742637115717
 20
149.332961112261
 30
0.0
 11
180.345557861681
 21
149.332961112261
 31
0.0
  0
LINE
  5
   2E9
  8
0
  6
CONTINUOUS
 62
     7
 10
231.542637127638
 20
154.332955083251
 30
0.0
 11
180.345557861681
 21
154.332955083251
 31
0.0
  0
LINE
  5
   2EA
  8
0
  6
CONTINUOUS
 62
     7
 10
182.345557861681
 20
149.332961112261
 30
0.0
 11
182.345557861681
 21
169.906877113391
 31
0.0
  0
LINE
  5
   2EB
  8
0
  6
CONTINUOUS
 62
     7
 10
183.1220150181
 20
146.43518363905
 30
0.0
 11
182.345557861681
 21
149.332961112261
 31
0.0
  0
LINE
  5
   2EC
  8
0
  6
CONTINUOUS
 62
     7
 10
182.345557861681
 20
149.332961112261
 30
0.0
 11
181.569100705263
 21
146.43518363905
 31
0.0
  0
LINE
  5
   2ED
  8
0
  6
CONTINUOUS
 62
     7
 10
181.569100705263
 20
157.230732556461
 30
0.0
 11
182.345557861681
 21
154.332955083251
 31
0.0
  0
LINE
  5
   2EE
  8
0
  6
CONTINUOUS
 62
     7
 10
182.345557861681
 20
154.332955083251
 30
0.0
 11
183.1220150181
 21
157.230732556461
 31
0.0
  0
ENDBLK
  5
   2EF
  8
0
  6
CONTINUOUS
 62
     7
  0
BLOCK
  5
   2F0
  8
0
  6
CONTINUOUS
 62
     7
  2
*UDIM734
 70
    65
 10
0.0
 20
0.0
 30
0.0
  3
*UDIM734
  0
TEXT
  5
   2F1
  8
0
  6
CONTINUOUS
 62
     7
 10
181.345557861686
 20
75.832960141005
 30
0.0
 40
2.99999994933605
  1
228
 50
90.0
 41
0.933333333333333
 72
     1
 11
179.845557887013
 21
79.73296007514
 31
0.0
 73
     2
  0
LINE
  5
   2F2
  8
0
  6
CONTINUOUS
 62
     7
 10
220.342636960745
 20
34.132959395647
 30
0.0
 11
180.345557861681
 21
34.132959395647
 31
0.0
  0
LINE
  5
   2F3
  8
0
  6
CONTINUOUS
 62
     7
 10
182.345557861681
 20
34.132959395647
 30
0.0
 11
182.345557861681
 21
125.332960754633
 31
0.0
  0
LINE
  5
   2F4
  8
0
  6
CONTINUOUS
 62
     7
 10
181.569100705263
 20
37.0307368688576
 30
0.0
 11
182.345557861681
 21
34.132959395647
 31
0.0
  0
LINE
  5
   2F5
  8
0
  6
CONTINUOUS
 62
     7
 10
182.345557861681
 20
34.132959395647
 30
0.0
 11
183.1220150181
 21
37.0307368688576
 31
0.0
  0
LINE
  5
   2F6
  8
0
  6
CONTINUOUS
 62
     7
 10
183.1220150181
 20
122.435183281422
 30
0.0
 11
182.345557861681
 21
125.332960754633
 31
0.0
  0
LINE
  5
   2F7
  8
0
  6
CONTINUOUS
 62
     7
 10
182.345557861681
 20
125.332960754633
 30
0.0
 11
181.569100705263
 21
122.435183281422
 31
0.0
  0
ENDBLK
  5
   2F8
  8
0
  6
CONTINUOUS
 62
     7
  0
BLOCK
  5
   2F9
  8
0
  6
CONTINUOUS
 62
     7
  2
*UDIM735
 70
    65
 10
0.0
 20
0.0
 30
0.0
  3
*UDIM735
  0
TEXT
  5
   2FA
  8
0
  6
CONTINUOUS
 62
     7
 10
181.345557861684
 20
19.632959259055
 30
0.0
 40
2.99999994933605
  1
60
 50
90.0
 41
0.933333333333333
 72
     1
 11
179.845557887013
 21
22.1329592168331
 31
0.0
 73
     2
  0
LINE
  5
   2FB
  8
0
  6
CONTINUOUS
 62
     7
 10
230.742637115717
 20
10.1329590380192
 30
0.0
 11
180.345557861681
 21
10.1329590380192
 31
0.0
  0
LINE
  5
   2FC
  8
0
  6
CONTINUOUS
 62
     7
 10
182.345557861681
 20
10.1329590380192
 30
0.0
 11
182.345557861681
 21
34.132959395647
 31
0.0
  0
LINE
  5
   2FD
  8
0
  6
CONTINUOUS
 62
     7
 10
181.569100705263
 20
13.0307365112297
 30
0.0
 11
182.345557861681
 21
10.1329590380192
 31
0.0
  0
LINE
  5
   2FE
  8
0
  6
CONTINUOUS
 62
     7
 10
182.345557861681
 20
10.1329590380192
 30
0.0
 11
183.1220150181
 21
13.0307365112297
 31
0.0
  0
LINE
  5
   2FF
  8
0
  6
CONTINUOUS
 62
     7
 10
183.1220150181
 20
31.2351819224365
 30
0.0
 11
182.345557861681
 21
34.132959395647
 31
0.0
  0
LINE
  5
   300
  8
0
  6
CONTINUOUS
 62
     7
 10
182.345557861681
 20
34.132959395647
 30
0.0
 11
181.569100705263
 21
31.2351819224365
 31
0.0
  0
ENDBLK
  5
   301
  8
0
  6
CONTINUOUS
 62
     7
  0
BLOCK
  5
   302
  8
0
  6
CONTINUOUS
 62
     7
  2
*UDIM736
 70
    65
 10
0.0
 20
0.0
 30
0.0
  3
*UDIM736
  0
TEXT
  5
   303
  8
0
  6
CONTINUOUS
 62
     7
 10
181.345557861688
 20
-10.5385041142206
 30
0.0
 40
2.99999994933605
  1
12,5
 50
90.0
 41
0.933333333333333
 72
     1
 11
179.845557887013
 21
-5.2385042037288
 31
0.0
 73
     2
  0
LINE
  5
   304
  8
0
  6
CONTINUOUS
 62
     7
 10
231.542637127638
 20
5.13296506702905
 30
0.0
 11
180.345557861681
 21
5.13296506702905
 31
0.0
  0
LINE
  5
   305
  8
0
  6
CONTINUOUS
 62
     7
 10
182.345557861681
 20
-10.5385041142225
 30
0.0
 11
182.345557861681
 21
10.1329590380192
 31
0.0
  0
LINE
  5
   306
  8
0
  6
CONTINUOUS
 62
     7
 10
183.1220150181
 20
2.23518759381852
 30
0.0
 11
182.345557861681
 21
5.13296506702905
 31
0.0
  0
LINE
  5
   307
  8
0
  6
CONTINUOUS
 62
     7
 10
182.345557861681
 20
5.13296506702905
 30
0.0
 11
181.569100705263
 21
2.23518759381852
 31
0.0
  0
LINE
  5
   308
  8
0
  6
CONTINUOUS
 62
     7
 10
181.569100705263
 20
13.0307365112297
 30
0.0
 11
182.345557861681
 21
10.1329590380192
 31
0.0
  0
LINE
  5
   309
  8
0
  6
CONTINUOUS
 62
     7
 10
182.345557861681
 20
10.1329590380192
 30
0.0
 11
183.1220150181
 21
13.0307365112297
 31
0.0
  0
ENDBLK
  5
   30A
  8
0
  6
CONTINUOUS
 62
     7
  0
BLOCK
  5
   30B
  8
0
  6
CONTINUOUS
 62
     7
  2
*UDIM737
 70
    65
 10
0.0
 20
0.0
 30
0.0
  3
*UDIM737
  0
TEXT
  5
   30C
  8
0
  6
CONTINUOUS
 62
     7
 10
181.345557861684
 20
134.832960975669
 30
0.0
 40
2.99999994933605
  1
60
 50
90.0
 41
0.933333333333333
 72
     1
 11
179.845557887013
 21
137.332960933447
 31
0.0
 73
     2
  0
LINE
  5
   30D
  8
0
  6
CONTINUOUS
 62
     7
 10
220.342636960745
 20
125.332960754633
 30
0.0
 11
180.345557861681
 21
125.332960754633
 31
0.0
  0
LINE
  5
   30E
  8
0
  6
CONTINUOUS
 62
     7
 10
182.345557861681
 20
125.332960754633
 30
0.0
 11
182.345557861681
 21
149.332961112261
 31
0.0
  0
LINE
  5
   30F
  8
0
  6
CONTINUOUS
 62
     7
 10
181.569100705263
 20
128.230738227843
 30
0.0
 11
182.345557861681
 21
125.332960754633
 31
0.0
  0
LINE
  5
   310
  8
0
  6
CONTINUOUS
 62
     7
 10
182.345557861681
 20
125.332960754633
 30
0.0
 11
183.1220150181
 21
128.230738227843
 31
0.0
  0
LINE
  5
   311
  8
0
  6
CONTINUOUS
 62
     7
 10
183.1220150181
 20
146.43518363905
 30
0.0
 11
182.345557861681
 21
149.332961112261
 31
0.0
  0
LINE
  5
   312
  8
0
  6
CONTINUOUS
 62
     7
 10
182.345557861681
 20
149.332961112261
 30
0.0
 11
181.569100705263
 21
146.43518363905
 31
0.0
  0
ENDBLK
  5
   313
  8
0
  6
CONTINUOUS
 62
     7
  0
BLOCK
  5
   314
  8
0
  6
CONTINUOUS
 62
     7
  2
*HATCH156
 70
    65
 10
0.0
 20
0.0
 30
0.0
  3
*HATCH156
  0
LINE
  5
   315
  8
0
  6
CONTINUOUS
 62
     3
 10
28.0000019073486
 20
-73.2548980712891
 30
0.0
 11
29.7451000213623
 21
-75.0
 31
0.0
  0
LINE
  5
   316
  8
0
  6
CONTINUOUS
 62
     3
 10
29.3664360046387
 20
-72.5000152587891
 30
0.0
 11
31.866418838501
 21
-75.0
 31
0.0
  0
LINE
  5
   317
  8
0
  6
CONTINUOUS
 62
     3
 10
31.4877548217773
 20
-72.5000152587891
 30
0.0
 11
33.9877395629883
 21
-75.0
 31
0.0
  0
LINE
  5
   318
  8
0
  6
CONTINUOUS
 62
     3
 10
33.6090774536133
 20
-72.5000152587891
 30
0.0
 11
36.1090621948242
 21
-75.0
 31
0.0
  0
LINE
  5
   319
  8
0
  6
CONTINUOUS
 62
     3
 10
35.7304000854492
 20
-72.5000152587891
 30
0.0
 11
38.2303848266602
 21
-75.0
 31
0.0
  0
LINE
  5
   31A
  8
0
  6
CONTINUOUS
 62
     3
 10
37.8517227172852
 20
-72.5000152587891
 30
0.0
 11
40.3517074584961
 21
-75.0
 31
0.0
  0
LINE
  5
   31B
  8
0
  6
CONTINUOUS
 62
     3
 10
39.9730453491211
 20
-72.5000152587891
 30
0.0
 11
42.473030090332
 21
-75.0
 31
0.0
  0
LINE
  5
   31C
  8
0
  6
CONTINUOUS
 62
     3
 10
42.094367980957
 20
-72.5000152587891
 30
0.0
 11
44.594352722168
 21
-75.0
 31
0.0
  0
LINE
  5
   31D
  8
0
  6
CONTINUOUS
 62
     3
 10
44.215690612793
 20
-72.5000152587891
 30
0.0
 11
46.7156753540039
 21
-75.0
 31
0.0
  0
LINE
  5
   31E
  8
0
  6
CONTINUOUS
 62
     3
 10
46.3370132446289
 20
-72.5000152587891
 30
0.0
 11
48.8369979858398
 21
-75.0
 31
0.0
  0
LINE
  5
   31F
  8
0
  6
CONTINUOUS
 62
     3
 10
48.4583053588867
 20
-72.5000152587891
 30
0.0
 11
50.2699699401856
 21
-74.3116760253906
 31
0.0
  0
ENDBLK
  5
   320
  8
0
  6
CONTINUOUS
 62
     7
  0
BLOCK
  5
   321
  8
0
  6
CONTINUOUS
 62
     7
  2
*UDIM738
 70
    65
 10
0.0
 20
0.0
 30
0.0
  3
*UDIM738
  0
TEXT
  5
   322
  8
0
  6
CONTINUOUS
 62
     7
 10
265.339804837069
 20
112.807960647471
 30
0.0
 40
2.99999994933605
  1
10
 50
90.0
 41
0.933333333333333
 72
     1
 11
263.839804862397
 21
115.307960605249
 31
0.0
 73
     2
  0
LINE
  5
   323
  8
0
  6
CONTINUOUS
 62
     7
 10
230.536042063153
 20
121.332960695028
 30
0.0
 11
268.339804837065
 21
121.332960695028
 31
0.0
  0
LINE
  5
   324
  8
0
  6
CONTINUOUS
 62
     7
 10
231.742637100816
 20
125.332960754633
 30
0.0
 11
268.339804837065
 21
125.332960754633
 31
0.0
  0
LINE
  5
   325
  8
0
  6
CONTINUOUS
 62
     7
 10
266.339804837065
 20
112.807960647469
 30
0.0
 11
266.339804837065
 21
125.332960754633
 31
0.0
  0
LINE
  5
   326
  8
0
  6
CONTINUOUS
 62
     7
 10
266.860749355066
 20
118.378537433347
 30
0.0
 11
266.339804837065
 21
121.332960695028
 31
0.0
  0
LINE
  5
   327
  8
0
  6
CONTINUOUS
 62
     7
 10
266.339804837065
 20
121.332960695028
 30
0.0
 11
265.818860319065
 21
118.378537433347
 31
0.0
  0
LINE
  5
   328
  8
0
  6
CONTINUOUS
 62
     7
 10
265.818860319065
 20
128.287384016315
 30
0.0
 11
266.339804837065
 21
125.332960754633
 31
0.0
  0
LINE
  5
   329
  8
0
  6
CONTINUOUS
 62
     7
 10
266.339804837065
 20
125.332960754633
 30
0.0
 11
266.860749355066
 21
128.287384016315
 31
0.0
  0
ENDBLK
  5
   32A
  8
0
  6
CONTINUOUS
 62
     7
  0
BLOCK
  5
   32B
  8
0
  6
CONTINUOUS
 62
     7
  2
*UDIM739
 70
    65
 10
0.0
 20
0.0
 30
0.0
  3
*UDIM739
  0
TEXT
  5
   32C
  8
0
  6
CONTINUOUS
 62
     7
 10
276.179606023987
 20
57.657959775281
 30
0.0
 40
2.99999994933605
  1
105
 50
90.0
 41
0.933333333333333
 72
     1
 11
274.679606049314
 21
61.557959709416
 31
0.0
 73
     2
  0
LINE
  5
   32D
  8
0
  6
CONTINUOUS
 62
     7
 10
258.343104883021
 20
40.8329594964288
 30
0.0
 11
279.179606023982
 21
40.8329594964288
 31
0.0
  0
LINE
  5
   32E
  8
0
  6
CONTINUOUS
 62
     7
 10
258.343104883021
 20
82.8329601213336
 30
0.0
 11
279.179606023982
 21
82.8329601213336
 31
0.0
  0
LINE
  5
   32F
  8
0
  6
CONTINUOUS
 62
     7
 10
277.179606023982
 20
40.8329594964288
 30
0.0
 11
277.179606023982
 21
82.8329601213336
 31
0.0
  0
LINE
  5
   330
  8
0
  6
CONTINUOUS
 62
     7
 10
276.658661505981
 20
43.7873827581104
 30
0.0
 11
277.179606023982
 21
40.8329594964288
 31
0.0
  0
LINE
  5
   331
  8
0
  6
CONTINUOUS
 62
     7
 10
277.179606023982
 20
40.8329594964288
 30
0.0
 11
277.700550541982
 21
43.7873827581104
 31
0.0
  0
LINE
  5
   332
  8
0
  6
CONTINUOUS
 62
     7
 10
277.700550541982
 20
79.878536859652
 30
0.0
 11
277.179606023982
 21
82.8329601213336
 31
0.0
  0
LINE
  5
   333
  8
0
  6
CONTINUOUS
 62
     7
 10
277.179606023982
 20
82.8329601213336
 30
0.0
 11
276.658661505981
 21
79.878536859652
 31
0.0
  0
ENDBLK
  5
   334
  8
0
  6
CONTINUOUS
 62
     7
  0
BLOCK
  5
   335
  8
0
  6
CONTINUOUS
 62
     7
  2
*UDIM740
 70
    65
 10
0.0
 20
0.0
 30
0.0
  3
*UDIM740
  0
TEXT
  5
   336
  8
0
  6
CONTINUOUS
 62
     7
 10
189.989196414458
 20
41.0079596157142
 30
0.0
 40
2.99999994933605
  1
69,25
 50
90.0
 41
0.933333333333333
 72
     1
 11
188.489196439781
 21
47.7079595025629
 31
0.0
 73
     2
  0
LINE
  5
   337
  8
0
  6
CONTINUOUS
 62
     7
 10
220.342636960745
 20
34.132959395647
 30
0.0
 11
188.989196414449
 21
34.132959395647
 31
0.0
  0
LINE
  5
   338
  8
0
  6
CONTINUOUS
 62
     7
 10
205.27115679509
 20
61.8329598084092
 30
0.0
 11
188.989196414449
 21
61.8329598084092
 31
0.0
  0
LINE
  5
   339
  8
0
  6
CONTINUOUS
 62
     7
 10
190.989196414449
 20
34.132959395647
 30
0.0
 11
190.989196414449
 21
61.8329598084092
 31
0.0
  0
LINE
  5
   33A
  8
0
  6
CONTINUOUS
 62
     7
 10
190.468251896449
 20
37.0873826573287
 30
0.0
 11
190.989196414449
 21
34.132959395647
 31
0.0
  0
LINE
  5
   33B
  8
0
  6
CONTINUOUS
 62
     7
 10
190.989196414449
 20
34.132959395647
 30
0.0
 11
191.51014093245
 21
37.0873826573287
 31
0.0
  0
LINE
  5
   33C
  8
0
  6
CONTINUOUS
 62
     7
 10
191.51014093245
 20
58.8785365467276
 30
0.0
 11
190.989196414449
 21
61.8329598084092
 31
0.0
  0
LINE
  5
   33D
  8
0
  6
CONTINUOUS
 62
     7
 10
190.989196414449
 20
61.8329598084092
 30
0.0
 11
190.468251896449
 21
58.8785365467276
 31
0.0
  0
ENDBLK
  5
   33E
  8
0
  6
CONTINUOUS
 62
     7
  0
BLOCK
  5
   33F
  8
0
  6
CONTINUOUS
 62
     7
  2
*UDIM741
 70
    65
 10
0.0
 20
0.0
 30
0.0
  3
*UDIM741
  0
TEXT
  5
   340
  8
0
  6
CONTINUOUS
 62
     7
 10
198.077091737608
 20
42.2147453738382
 30
0.0
 40
2.99999994933605
  1
10
 50
90.0
 41
0.933333333333333
 72
     1
 11
196.577091762937
 21
44.7147453316163
 31
0.0
 73
     2
  0
LINE
  5
   341
  8
0
  6
CONTINUOUS
 62
     7
 10
220.342636960745
 20
34.132959395647
 30
0.0
 11
197.077091737605
 21
34.132959395647
 31
0.0
  0
LINE
  5
   342
  8
0
  6
CONTINUOUS
 62
     7
 10
223.942637014389
 20
38.1329644224731
 30
0.0
 11
197.077091737605
 21
38.1329644224731
 31
0.0
  0
LINE
  5
   343
  8
0
  6
CONTINUOUS
 62
     7
 10
199.077091737605
 20
34.132959395647
 30
0.0
 11
199.077091737605
 21
47.2147452893964
 31
0.0
  0
LINE
  5
   344
  8
0
  6
CONTINUOUS
 62
     7
 10
199.598036255605
 20
31.1785361339654
 30
0.0
 11
199.077091737605
 21
34.132959395647
 31
0.0
  0
LINE
  5
   345
  8
0
  6
CONTINUOUS
 62
     7
 10
199.077091737605
 20
34.132959395647
 30
0.0
 11
198.556147219605
 21
31.1785361339654
 31
0.0
  0
LINE
  5
   346
  8
0
  6
CONTINUOUS
 62
     7
 10
198.556147219605
 20
41.0873876841547
 30
0.0
 11
199.077091737605
 21
38.1329644224731
 31
0.0
  0
LINE
  5
   347
  8
0
  6
CONTINUOUS
 62
     7
 10
199.077091737605
 20
38.1329644224731
 30
0.0
 11
199.598036255605
 21
41.0873876841547
 31
0.0
  0
ENDBLK
  5
   348
  8
0
  6
CONTINUOUS
 62
     7
  0
ENDSEC
  0
SECTION
  2
ENTITIES
  0
LINE
  5
   349
  8
0
  6
DASHDOT
 62
     7
 10
191.140441902425
 20
-47.4282531738281
 30
0.0
 11
166.251810340446
 21
-47.4282531738281
 31
0.0
  0
LINE
  5
   34A
  8
0
  6
DASHDOT
 62
     7
 10
190.171026475825
 20
-103.428253173828
 30
0.0
 11
166.977913654942
 21
-103.428253173828
 31
0.0
  0
LINE
  5
   34B
  8
0
  6
DASHDOT
 62
     7
 10
170.527160644531
 20
-74.8769223270317
 30
0.0
 11
170.527160644531
 21
-114.796693174945
 31
0.0
  0
LINE
  5
   34C
  8
0
  6
DASHDOT
 62
     7
 10
188.027160644531
 20
-37.2044924695054
 30
0.0
 11
188.027160644531
 21
-114.591964413189
 31
0.0
  0
LINE
  5
   34D
  8
0
  6
CONTINUOUS
 62
     3
 10
163.027160644531
 20
-39.9282531738281
 30
0.0
 11
163.027160644531
 21
-110.928253173828
 31
0.0
  0
LINE
  5
   34E
  8
0
  6
CONTINUOUS
 62
     3
 10
195.527160644531
 20
-39.9282531738281
 30
0.0
 11
195.527160644531
 21
-110.928253173828
 31
0.0
  0
LINE
  5
   34F
  8
0
  6
CONTINUOUS
 62
     3
 10
195.527160644531
 20
-39.9282531738281
 30
0.0
 11
163.027160644531
 21
-39.9282531738281
 31
0.0
  0
LINE
  5
   350
  8
0
  6
CONTINUOUS
 62
     3
 10
195.527160644531
 20
-110.928253173828
 30
0.0
 11
163.027160644531
 21
-110.928253173828
 31
0.0
  0
CIRCLE
  5
   351
  8
0
  6
CONTINUOUS
 62
     7
 10
170.527160644531
 20
-47.4282531738281
 30
0.0
 40
0.6875
  0
CIRCLE
  5
   352
  8
0
  6
CONTINUOUS
 62
     7
 10
188.027160644531
 20
-47.4282531738281
 30
0.0
 40
0.6875
  0
CIRCLE
  5
   353
  8
0
  6
CONTINUOUS
 62
     7
 10
170.527160644531
 20
-103.428253173828
 30
0.0
 40
0.6875
  0
CIRCLE
  5
   354
  8
0
  6
CONTINUOUS
 62
     7
 10
188.027160644531
 20
-103.428253173828
 30
0.0
 40
0.6875
  0
LINE
  5
   355
  8
0
  6
DASHDOT
 62
     7
 10
197.566168770304
 20
-86.6157531738281
 30
0.0
 11
158.948225155749
 21
-86.6157531738281
 31
0.0
  0
LINE
  5
   356
  8
0
  6
DASHDOT
 62
     7
 10
183.652160644531
 20
-36.2119208301511
 30
0.0
 11
183.652160644531
 21
-116.980466633673
 31
0.0
  0
LINE
  5
   357
  8
0
  6
DASHDOT
 62
     7
 10
170.527160644531
 20
-39.0255711738208
 30
0.0
 11
170.527160644531
 21
-64.711475924096
 31
0.0
  0
INSERT
  5
   358
  8
0
  6
CONTINUOUS
 62
     7
  2
*UDIM696
 10
0.0
 20
0.0
 30
0.0
  0
INSERT
  5
   359
  8
0
  6
CONTINUOUS
 62
     7
  2
*UDIM697
 10
0.0
 20
0.0
 30
0.0
  0
INSERT
  5
   35A
  8
0
  6
CONTINUOUS
 62
     7
  2
*UDIM698
 10
0.0
 20
0.0
 30
0.0
  0
INSERT
  5
   35B
  8
0
  6
CONTINUOUS
 62
     7
  2
*UDIM699
 10
0.0
 20
0.0
 30
0.0
  0
INSERT
  5
   35C
  8
0
  6
CONTINUOUS
 62
     7
  2
*UDIM700
 10
0.0
 20
0.0
 30
0.0
  0
TEXT
  5
   35D
  8
0
  6
CONTINUOUS
 62
     7
 10
182.560275671153
 20
-127.282459286846
 30
0.0
 40
3.00000002980232
  1
Y
 50
359.999999896069
 41
0.916666604744064
 72
     2
 11
184.760275540023
 21
-127.282459290825
 31
0.0
  0
TEXT
  5
   35E
  8
0
  6
CONTINUOUS
 62
     7
 10
182.666480657725
 20
-34.5572853366504
 30
0.0
 40
3.00000002980232
  1
Y
 50
359.999999896069
 41
0.916666604744064
 72
     2
 11
184.866480526595
 21
-34.55728534063
 31
0.0
  0
TEXT
  5
   35F
  8
0
  6
CONTINUOUS
 62
     7
 10
144.807033536105
 20
-88.2475086132655
 30
0.0
 40
3.00000002980232
  1
X
 50
359.999999896069
 41
0.916666604744064
 72
     2
 11
147.007033404975
 21
-88.2475086172452
 31
0.0
  0
LINE
  5
   360
  8
0
  6
CONTINUOUS
 62
     7
 10
92.6698684692383
 20
-100.615753173828
 30
0.0
 11
120.669868469238
 21
-100.615753173828
 31
0.0
  0
LINE
  5
   361
  8
0
  6
CONTINUOUS
 62
     7
 10
92.6698684692383
 20
-72.6157531738281
 30
0.0
 11
120.669868469238
 21
-72.6157531738281
 31
0.0
  0
LINE
  5
   362
  8
0
  6
CONTINUOUS
 62
     7
 10
92.6698684692383
 20
-72.6157531738281
 30
0.0
 11
92.6698684692383
 21
-100.615753173828
 31
0.0
  0
LINE
  5
   363
  8
0
  6
CONTINUOUS
 62
     7
 10
120.669868469238
 20
-72.6157531738281
 30
0.0
 11
120.669868469238
 21
-100.615753173828
 31
0.0
  0
LINE
  5
   364
  8
0
  6
DASHDOT
 62
     7
 10
106.669868469238
 20
-57.5217899278526
 30
0.0
 11
106.669868469238
 21
-116.652543451635
 31
0.0
  0
CIRCLE
  5
   365
  8
0
  6
CONTINUOUS
 62
     7
 10
96.6698684692383
 20
-68.8657531738281
 30
0.0
 40
0.875
  0
CIRCLE
  5
   366
  8
0
  6
CONTINUOUS
 62
     7
 10
116.669868469238
 20
-68.8657531738281
 30
0.0
 40
0.875
  0
CIRCLE
  5
   367
  8
0
  6
CONTINUOUS
 62
     7
 10
116.669868469238
 20
-104.365753173828
 30
0.0
 40
0.875
  0
CIRCLE
  5
   368
  8
0
  6
CONTINUOUS
 62
     7
 10
96.6698684692383
 20
-104.365753173828
 30
0.0
 40
0.875
  0
LINE
  5
   369
  8
0
  6
CONTINUOUS
 62
     3
 10
88.7053727998238
 20
-66.5159528765369
 30
0.0
 11
124.508742069809
 21
-66.5159528765369
 31
0.0
  0
LINE
  5
   36A
  8
0
  6
CONTINUOUS
 62
     3
 10
88.7053727998238
 20
-107.721234001292
 30
0.0
 11
124.508742069809
 21
-107.721234001292
 31
0.0
  0
LINE
  5
   36B
  8
0
  6
CONTINUOUS
 62
     3
 10
124.508742069809
 20
-66.5159528765369
 30
0.0
 11
124.508742069809
 21
-107.721234001292
 31
0.0
  0
LINE
  5
   36C
  8
0
  6
CONTINUOUS
 62
     3
 10
88.7053727998238
 20
-66.5159528765369
 30
0.0
 11
88.7053727998238
 21
-107.721234001292
 31
0.0
  0
LINE
  5
   36D
  8
0
  6
DASHDOT
 62
     7
 10
116.669868469238
 20
-67.2407531738281
 30
0.0
 11
116.669868469238
 21
-70.4907531738281
 31
0.0
  0
LINE
  5
   36E
  8
0
  6
DASHDOT
 62
     7
 10
115.044868469238
 20
-68.8657531738281
 30
0.0
 11
118.294868469238
 21
-68.8657531738281
 31
0.0
  0
LINE
  5
   36F
  8
0
  6
DASHDOT
 62
     7
 10
96.6698684692383
 20
-67.2407531738281
 30
0.0
 11
96.6698684692383
 21
-70.4907531738281
 31
0.0
  0
LINE
  5
   370
  8
0
  6
DASHDOT
 62
     7
 10
95.0448684692383
 20
-68.8657531738281
 30
0.0
 11
98.2948684692383
 21
-68.8657531738281
 31
0.0
  0
LINE
  5
   371
  8
0
  6
DASHDOT
 62
     7
 10
96.6698684692383
 20
-102.740753173828
 30
0.0
 11
96.6698684692383
 21
-105.990753173828
 31
0.0
  0
LINE
  5
   372
  8
0
  6
DASHDOT
 62
     7
 10
95.0448684692383
 20
-104.365753173828
 30
0.0
 11
98.2948684692383
 21
-104.365753173828
 31
0.0
  0
LINE
  5
   373
  8
0
  6
DASHDOT
 62
     7
 10
116.669868469238
 20
-102.740753173828
 30
0.0
 11
116.669868469238
 21
-105.990753173828
 31
0.0
  0
LINE
  5
   374
  8
0
  6
DASHDOT
 62
     7
 10
115.044868469238
 20
-104.365753173828
 30
0.0
 11
118.294868469238
 21
-104.365753173828
 31
0.0
  0
LINE
  5
   375
  8
0
  6
DASHDOT
 62
     7
 10
81.3040109158817
 20
-86.6157531738281
 30
0.0
 11
134.300161768609
 21
-86.6157531738281
 31
0.0
  0
INSERT
  5
   376
  8
0
  6
CONTINUOUS
 62
     7
  2
*UDIM701
 10
0.0
 20
0.0
 30
0.0
  0
INSERT
  5
   377
  8
0
  6
CONTINUOUS
 62
     7
  2
*UDIM702
 10
0.0
 20
0.0
 30
0.0
  0
INSERT
  5
   378
  8
0
  6
CONTINUOUS
 62
     7
  2
*UDIM703
 10
0.0
 20
0.0
 30
0.0
  0
INSERT
  5
   379
  8
0
  6
CONTINUOUS
 62
     7
  2
*UDIM704
 10
0.0
 20
0.0
 30
0.0
  0
INSERT
  5
   37A
  8
0
  6
CONTINUOUS
 62
     7
  2
*UDIM705
 10
0.0
 20
0.0
 30
0.0
  0
TEXT
  5
   37B
  8
0
  6
CONTINUOUS
 62
     7
 10
99.4198644438358
 20
-60.0778754319407
 30
0.0
 40
3.00000002980232
  1
=   =
 50
359.999999844103
 41
0.916666604744064
 72
     2
 11
112.61986367891
 21
-60.0778754677904
 31
0.0
  0
TEXT
  5
   37C
  8
0
  6
CONTINUOUS
 62
     7
 10
98.2035150005392
 20
-51.5575946502968
 30
0.0
 40
3.00000002980232
  1
=    =
 50
359.999999844103
 41
0.916666604744064
 72
     2
 11
114.153514077164
 21
-51.5575946936152
 31
0.0
  0
TEXT
  5
   37D
  8
0
  6
CONTINUOUS
 62
     7
 10
80.1111708315449
 20
-96.8796526740938
 30
0.0
 40
3.00000002980232
  1
=     =
 50
449.999999844103
 41
0.916666604744064
 72
     2
 11
80.1111708823084
 21
-78.1796537559181
 31
0.0
  0
TEXT
  5
   37E
  8
0
  6
CONTINUOUS
 62
     7
 10
70.3980510768311
 20
-98.9715398312558
 30
0.0
 40
3.00000002980232
  1
=       =
 50
449.999999844103
 41
0.916666604744064
 72
     2
 11
70.3980511425251
 21
-74.7715412299781
 31
0.0
  0
TEXT
  5
   37F
  8
0
  6
CONTINUOUS
 62
     7
 10
105.478100528218
 20
-120.060657570357
 30
0.0
 40
3.00000002980232
  1
Y
 50
359.999999844103
 41
0.916666604744064
 72
     2
 11
107.678100397087
 21
-120.060657576332
 31
0.0
  0
TEXT
  5
   380
  8
0
  6
CONTINUOUS
 62
     7
 10
105.648506154515
 20
-42.185283730025
 30
0.0
 40
3.00000002980232
  1
Y
 50
359.999999844103
 41
0.916666604744064
 72
     2
 11
107.848506023384
 21
-42.1852837359999
 31
0.0
  0
TEXT
  5
   381
  8
0
  6
CONTINUOUS
 62
     7
 10
57.2533074517023
 20
-88.0243976807544
 30
0.0
 40
3.00000002980232
  1
X
 50
359.999999844103
 41
0.916666604744064
 72
     2
 11
59.4533073205721
 21
-88.0243976867293
 31
0.0
  0
LINE
  5
   382
  8
0
  6
CONTINUOUS
 62
     7
 10
87.0425893828357
 20
130.732958377821
 30
0.0
 11
86.3698522689243
 21
130.732958377821
 31
0.0
  0
LINE
  5
   383
  8
0
  6
CONTINUOUS
 62
     7
 10
72.6698543747661
 20
129.612957140428
 30
0.0
 11
72.6698543747661
 21
130.33295837186
 31
0.0
  0
LINE
  5
   384
  8
0
  6
CONTINUOUS
 62
     7
 10
72.6698543747661
 20
129.612957140428
 30
0.0
 11
71.6698543598649
 21
129.612957140428
 31
0.0
  0
LINE
  5
   385
  8
0
  6
CONTINUOUS
 62
     7
 10
71.6698498622098
 20
38.1329496578816
 30
0.0
 11
71.6698498622098
 21
129.612957140428
 31
0.0
  0
LINE
  5
   386
  8
0
  6
CONTINUOUS
 62
     7
 10
72.6698520036973
 20
120.93296557188
 30
0.0
 11
72.6698520036973
 21
129.612957140428
 31
0.0
  0
LINE
  5
   387
  8
0
  6
CONTINUOUS
 62
     7
 10
120.469855087042
 20
38.3329570009532
 30
0.0
 11
120.469855087042
 21
39.3329570158544
 31
0.0
  0
ARC
  5
   388
  8
0
  6
CONTINUOUS
 62
     7
 10
73.0698554011011
 20
130.332958824792
 30
0.0
 40
0.40000160241227
 50
90.0000472185487
 51
180.000478784316
  0
CIRCLE
  5
   389
  8
0
  6
DOT
 62
     7
 10
92.6698611014138
 20
33.7329582953548
 30
0.0
 40
2.19999878903394
  0
CIRCLE
  5
   38A
  8
0
  6
DOT
 62
     7
 10
99.6698596106332
 20
34.9329578059114
 30
0.0
 40
1.79999922154889
  0
CIRCLE
  5
   38B
  8
0
  6
DOT
 62
     7
 10
106.669857756012
 20
33.7329564436892
 30
0.0
 40
2.19999885163413
  0
CIRCLE
  5
   38C
  8
0
  6
DOT
 62
     7
 10
113.669860935331
 20
34.9329476557241
 30
0.0
 40
1.79999176240177
  0
CIRCLE
  5
   38D
  8
0
  6
DOT
 62
     7
 10
120.66988408158
 20
33.7329085596435
 30
0.0
 40
2.20005287110646
  0
LINE
  5
   38E
  8
0
  6
DASHDOT
 62
     7
 10
92.6698611014138
 20
30.3329594884394
 30
0.0
 11
92.6698611014138
 21
37.1329571022701
 31
0.0
  0
LINE
  5
   38F
  8
0
  6
DASHDOT
 62
     7
 10
96.0698599083291
 20
33.7329582953548
 30
0.0
 11
89.2698622944985
 21
33.7329582953548
 31
0.0
  0
LINE
  5
   390
  8
0
  6
DASHDOT
 62
     7
 10
99.6698596106332
 20
27.7620875230531
 30
0.0
 11
99.6698596106332
 21
37.9329570453417
 31
0.0
  0
LINE
  5
   391
  8
0
  6
DASHDOT
 62
     7
 10
102.669858850063
 20
34.9329578059114
 30
0.0
 11
96.6698603712029
 21
34.9329578059114
 31
0.0
  0
LINE
  5
   392
  8
0
  6
DASHDOT
 62
     7
 10
110.069856625527
 20
33.7329564436892
 30
0.0
 11
103.269858886496
 21
33.7329564436892
 31
0.0
  0
LINE
  5
   393
  8
0
  6
DASHDOT
 62
     7
 10
120.66988408158
 20
30.3328556706557
 30
0.0
 11
120.66988408158
 21
37.1329614486314
 31
0.0
  0
LINE
  5
   394
  8
0
  6
DASHDOT
 62
     7
 10
124.069936970567
 20
33.7329085596435
 30
0.0
 11
117.269831192592
 21
33.7329085596435
 31
0.0
  0
LINE
  5
   395
  8
0
  6
DASHDOT
 62
     7
 10
120.669862925174
 20
28.5729613979951
 30
0.0
 11
120.669862925174
 21
32.0929554682367
 31
0.0
  0
LINE
  5
   396
  8
0
  6
DASHDOT
 62
     7
 10
92.6698597439112
 20
28.5729569773903
 30
0.0
 11
92.6698597439112
 21
32.0929571911437
 31
0.0
  0
LINE
  5
   397
  8
0
  6
CONTINUOUS
 62
     7
 10
83.269866268397
 20
38.6329661606956
 30
0.0
 11
72.069866101504
 21
38.6329661606956
 31
0.0
  0
LINE
  5
   398
  8
0
  6
CONTINUOUS
 62
     3
 10
127.469860823513
 20
82.8329607158112
 30
0.0
 11
85.86986630714
 21
82.8329607158112
 31
0.0
  0
LINE
  5
   399
  8
0
  6
CONTINUOUS
 62
     3
 10
127.469860823513
 20
40.8329661934784
 30
0.0
 11
122.069860766888
 21
40.8329661934784
 31
0.0
  0
LINE
  5
   39A
  8
0
  6
CONTINUOUS
 62
     3
 10
117.469860674501
 20
40.832966193478
 30
0.0
 11
107.649578169475
 21
40.832966193478
 31
0.0
  0
LINE
  5
   39B
  8
0
  6
CONTINUOUS
 62
     3
 10
91.2698663876063
 20
40.8329661934674
 30
0.0
 11
85.86986630714
 21
40.8329661934674
 31
0.0
  0
LINE
  5
   39C
  8
0
  6
CONTINUOUS
 62
     7
 10
72.069866101504
 20
38.6329661606956
 30
0.0
 11
72.069866101504
 21
39.0329661666561
 31
0.0
  0
LINE
  5
   39D
  8
0
  6
CONTINUOUS
 62
     7
 10
83.269866268397
 20
39.0329661959999
 30
0.0
 11
71.6698498622098
 21
39.0329661959999
 31
0.0
  0
LINE
  5
   39E
  8
0
  6
CONTINUOUS
 62
     3
 10
95.8698664561516
 20
40.832966193477
 30
0.0
 11
91.2698663876063
 21
40.832966193477
 31
0.0
  0
LINE
  5
   39F
  8
0
  6
CONTINUOUS
 62
     3
 10
122.069860743046
 20
40.8329661934784
 30
0.0
 11
117.469860674501
 21
40.8329661934784
 31
0.0
  0
ARC
  5
   3A0
  8
0
  6
CONTINUOUS
 62
     3
 10
85.86986630714
 20
41.0329661964476
 30
0.0
 40
0.200000002980232
 50
179.999999948034
 51
269.999999948034
  0
ARC
  5
   3A1
  8
0
  6
CONTINUOUS
 62
     3
 10
85.86986630714
 20
82.632960712831
 30
0.0
 40
0.200000002980232
 50
449.999999948034
 51
539.999999948034
  0
ARC
  5
   3A2
  8
0
  6
CONTINUOUS
 62
     3
 10
127.469860823513
 20
82.632960712831
 30
0.0
 40
0.200000002980232
 50
359.999999948034
 51
449.999999948034
  0
ARC
  5
   3A3
  8
0
  6
CONTINUOUS
 62
     3
 10
127.469860823513
 20
41.0329661964586
 30
0.0
 40
0.200000002980232
 50
269.999999948034
 51
359.999999948034
  0
LINE
  5
   3A4
  8
0
  6
DASHDOT
 62
     7
 10
106.669866617084
 20
77.2142894605148
 30
0.0
 11
106.669866617084
 21
88.778389660737
 31
0.0
  0
LINE
  5
   3A5
  8
0
  6
CONTINUOUS
 62
     3
 10
105.690086501758
 20
40.832966193478
 30
0.0
 11
95.8698664561516
 21
40.832966193478
 31
0.0
  0
LINE
  5
   3A6
  8
0
  6
CONTINUOUS
 62
     7
 10
95.6698603496557
 20
40.8329600899624
 30
0.0
 11
91.6698663935667
 21
40.8329600899624
 31
0.0
  0
LINE
  5
   3A7
  8
0
  6
CONTINUOUS
 62
     7
 10
121.66985463357
 20
40.8329600899624
 30
0.0
 11
117.669854573966
 21
40.8329600899624
 31
0.0
  0
LINE
  5
   3A8
  8
0
  6
CONTINUOUS
 62
     7
 10
127.669866930009
 20
41.0329600929427
 30
0.0
 11
127.669866930009
 21
48.2329540967153
 31
0.0
  0
LINE
  5
   3A9
  8
0
  6
CONTINUOUS
 62
     7
 10
85.6698663041598
 20
41.0329600929427
 30
0.0
 11
85.6698663041598
 21
48.2329540967153
 31
0.0
  0
LINE
  5
   3AA
  8
0
  6
CONTINUOUS
 62
     7
 10
127.469866927028
 20
82.8329607158112
 30
0.0
 11
85.8698663071512
 21
82.8329607158112
 31
0.0
  0
LINE
  5
   3AB
  8
0
  6
CONTINUOUS
 62
     7
 10
91.6698663935667
 20
40.8329600899624
 30
0.0
 11
85.86986630714
 21
40.8329600899624
 31
0.0
  0
LINE
  5
   3AC
  8
0
  6
CONTINUOUS
 62
     7
 10
117.669854573966
 20
40.8329600899624
 30
0.0
 11
95.6698603496557
 21
40.8329600899624
 31
0.0
  0
LINE
  5
   3AD
  8
0
  6
CONTINUOUS
 62
     7
 10
127.469866927028
 20
40.8329600899624
 30
0.0
 11
121.66985463357
 21
40.8329600899624
 31
0.0
  0
LINE
  5
   3AE
  8
0
  6
CONTINUOUS
 62
     7
 10
110.969866681159
 20
49.7329541190671
 30
0.0
 11
110.969866681159
 21
65.7329482539699
 31
0.0
  0
LINE
  5
   3AF
  8
0
  6
CONTINUOUS
 62
     7
 10
102.369866553009
 20
49.7329541190671
 30
0.0
 11
102.369866553009
 21
65.7329482539699
 31
0.0
  0
LINE
  5
   3B0
  8
0
  6
CONTINUOUS
 62
     7
 10
127.669866930009
 20
78.0329484372542
 30
0.0
 11
85.6698663041598
 21
78.0329484372542
 31
0.0
  0
LINE
  5
   3B1
  8
0
  6
CONTINUOUS
 62
     7
 10
127.669866930009
 20
82.0329484968589
 30
0.0
 11
85.6698663041598
 21
82.0329484968589
 31
0.0
  0
LINE
  5
   3B2
  8
0
  6
CONTINUOUS
 62
     7
 10
110.969866681159
 20
65.6271621195811
 30
0.0
 11
102.369866553009
 21
65.6271621195811
 31
0.0
  0
LINE
  5
   3B3
  8
0
  6
CONTINUOUS
 62
     7
 10
110.969866681159
 20
65.7329482539699
 30
0.0
 11
102.369866553009
 21
65.7329482539699
 31
0.0
  0
LINE
  5
   3B4
  8
0
  6
CONTINUOUS
 62
     7
 10
110.969866681159
 20
49.7329541190671
 30
0.0
 11
102.369866553009
 21
49.7329541190671
 31
0.0
  0
LINE
  5
   3B5
  8
0
  6
CONTINUOUS
 62
     7
 10
110.969866681159
 20
49.8387524604873
 30
0.0
 11
102.369866553009
 21
49.8387524604873
 31
0.0
  0
LINE
  5
   3B6
  8
0
  6
DASHDOT
 62
     7
 10
106.669866617084
 20
-32.3374459876111
 30
0.0
 11
106.669866617084
 21
-26.9752087127994
 31
0.0
  0
LINE
  5
   3B7
  8
0
  6
DASHDOT
 62
     7
 10
106.669866617084
 20
73.8048292113499
 30
0.0
 11
106.669866617084
 21
145.039863874245
 31
0.0
  0
LINE
  5
   3B8
  8
0
  6
CONTINUOUS
 62
     7
 10
127.669860826493
 20
48.6329541026758
 30
0.0
 11
127.669860826493
 21
53.4329509929059
 31
0.0
  0
LINE
  5
   3B9
  8
0
  6
CONTINUOUS
 62
     7
 10
127.669860826493
 20
67.2329543798374
 30
0.0
 11
127.669860826493
 21
83.0329607187914
 31
0.0
  0
LINE
  5
   3BA
  8
0
  6
CONTINUOUS
 62
     7
 10
127.669860826493
 20
53.8329509988664
 30
0.0
 11
127.669860826493
 21
61.6329542963909
 31
0.0
  0
LINE
  5
   3BB
  8
0
  6
CONTINUOUS
 62
     7
 10
127.669860826493
 20
62.0329543023513
 30
0.0
 11
127.669860826493
 21
66.8329543738769
 31
0.0
  0
LINE
  5
   3BC
  8
0
  6
CONTINUOUS
 62
     7
 10
85.6698663041577
 20
48.6329541026758
 30
0.0
 11
85.6698663041577
 21
53.4329541742022
 31
0.0
  0
LINE
  5
   3BD
  8
0
  6
CONTINUOUS
 62
     7
 10
85.6698663041506
 20
53.8329541801627
 30
0.0
 11
85.6698663041506
 21
61.6329542963909
 31
0.0
  0
LINE
  5
   3BE
  8
0
  6
CONTINUOUS
 62
     7
 10
85.6698663041619
 20
62.0329543023513
 30
0.0
 11
85.6698663041619
 21
66.8329543738769
 31
0.0
  0
LINE
  5
   3BF
  8
0
  6
CONTINUOUS
 62
     7
 10
85.6698663041709
 20
67.2329543798374
 30
0.0
 11
85.6698663041709
 21
82.632960712831
 31
0.0
  0
LINE
  5
   3C0
  8
0
  6
CONTINUOUS
 62
     7
 10
102.36986336352
 20
53.4329618683712
 30
0.0
 11
86.0698662862784
 21
53.4329618683712
 31
0.0
  0
LINE
  5
   3C1
  8
0
  6
CONTINUOUS
 62
     7
 10
127.669860826493
 20
53.4329586870726
 30
0.0
 11
127.269860820532
 21
53.4329586870726
 31
0.0
  0
LINE
  5
   3C2
  8
0
  6
CONTINUOUS
 62
     7
 10
102.369855539884
 20
53.832961874334
 30
0.0
 11
86.0698662862784
 21
53.832961874334
 31
0.0
  0
LINE
  5
   3C3
  8
0
  6
CONTINUOUS
 62
     7
 10
127.669860826493
 20
53.8329586930331
 30
0.0
 11
127.269860820532
 21
53.8329586930331
 31
0.0
  0
LINE
  5
   3C4
  8
0
  6
CONTINUOUS
 62
     7
 10
86.0698662862784
 20
53.4329541742014
 30
0.0
 11
86.0698662862784
 21
53.8329541801618
 31
0.0
  0
LINE
  5
   3C5
  8
0
  6
CONTINUOUS
 62
     7
 10
127.269860820532
 20
53.4329541742014
 30
0.0
 11
127.269860820532
 21
53.8329541801618
 31
0.0
  0
LINE
  5
   3C6
  8
0
  6
CONTINUOUS
 62
     7
 10
127.669866930009
 20
48.2329540967153
 30
0.0
 11
127.269860820532
 21
48.2329540967153
 31
0.0
  0
LINE
  5
   3C7
  8
0
  6
CONTINUOUS
 62
     7
 10
127.669860826493
 20
48.6329541026758
 30
0.0
 11
127.269860820532
 21
48.6329541026758
 31
0.0
  0
LINE
  5
   3C8
  8
0
  6
CONTINUOUS
 62
     7
 10
86.0698662862784
 20
48.2329540967153
 30
0.0
 11
86.0698662862784
 21
48.6329541026758
 31
0.0
  0
LINE
  5
   3C9
  8
0
  6
CONTINUOUS
 62
     7
 10
127.269860820532
 20
48.2329540967153
 30
0.0
 11
127.269860820532
 21
48.6329541026758
 31
0.0
  0
LINE
  5
   3CA
  8
0
  6
CONTINUOUS
 62
     7
 10
127.669860826493
 20
66.8329543738769
 30
0.0
 11
127.269860820532
 21
66.8329543738769
 31
0.0
  0
LINE
  5
   3CB
  8
0
  6
CONTINUOUS
 62
     7
 10
127.669860826493
 20
67.2329543798374
 30
0.0
 11
127.269860820532
 21
67.2329543798374
 31
0.0
  0
LINE
  5
   3CC
  8
0
  6
CONTINUOUS
 62
     7
 10
86.0698662862784
 20
66.8329543738769
 30
0.0
 11
86.0698662862784
 21
67.2329543798374
 31
0.0
  0
LINE
  5
   3CD
  8
0
  6
CONTINUOUS
 62
     7
 10
127.269860820532
 20
66.8329543738769
 30
0.0
 11
127.269860820532
 21
67.2329543798374
 31
0.0
  0
LINE
  5
   3CE
  8
0
  6
CONTINUOUS
 62
     7
 10
102.369863382042
 20
61.6329542963909
 30
0.0
 11
86.0698662862784
 21
61.6329542963909
 31
0.0
  0
LINE
  5
   3CF
  8
0
  6
CONTINUOUS
 62
     7
 10
127.669860826493
 20
61.6329542963909
 30
0.0
 11
127.269860820532
 21
61.6329542963909
 31
0.0
  0
LINE
  5
   3D0
  8
0
  6
CONTINUOUS
 62
     7
 10
102.369866553009
 20
62.0329543023513
 30
0.0
 11
86.0698662862784
 21
62.0329543023513
 31
0.0
  0
LINE
  5
   3D1
  8
0
  6
CONTINUOUS
 62
     7
 10
127.669860826493
 20
62.0329543023513
 30
0.0
 11
127.269860820532
 21
62.0329543023513
 31
0.0
  0
LINE
  5
   3D2
  8
0
  6
CONTINUOUS
 62
     7
 10
86.0698662862784
 20
61.6329542963909
 30
0.0
 11
86.0698662862784
 21
62.0329543023513
 31
0.0
  0
LINE
  5
   3D3
  8
0
  6
CONTINUOUS
 62
     7
 10
127.269860820532
 20
61.6329542963909
 30
0.0
 11
127.269860820532
 21
62.0329543023513
 31
0.0
  0
ARC
  5
   3D4
  8
0
  6
CONTINUOUS
 62
     7
 10
85.86986630714
 20
41.0329600929427
 30
0.0
 40
0.200000002980232
 50
179.999999948034
 51
269.999999948034
  0
ARC
  5
   3D5
  8
0
  6
CONTINUOUS
 62
     7
 10
127.469866927028
 20
41.0329600929427
 30
0.0
 40
0.200000002980232
 50
269.999999948034
 51
359.999999948034
  0
ARC
  5
   3D6
  8
0
  6
CONTINUOUS
 62
     7
 10
127.469866927028
 20
82.632960712831
 30
0.0
 40
0.200000002980232
 50
359.999999948034
 51
449.999999948034
  0
ARC
  5
   3D7
  8
0
  6
CONTINUOUS
 62
     7
 10
85.8698663071512
 20
82.632960712831
 30
0.0
 40
0.200000002980232
 50
449.999999948034
 51
539.999999948034
  0
LINE
  5
   3D8
  8
0
  6
CONTINUOUS
 62
     7
 10
97.6698664829737
 20
66.2329543649362
 30
0.0
 11
97.069866474033
 21
66.2329543649362
 31
0.0
  0
LINE
  5
   3D9
  8
0
  6
CONTINUOUS
 62
     7
 10
97.6698664829737
 20
62.632954311292
 30
0.0
 11
97.069866474033
 21
62.632954311292
 31
0.0
  0
CIRCLE
  5
   3DA
  8
0
  6
CONTINUOUS
 62
     7
 10
97.3698664785034
 20
51.0329541384386
 30
0.0
 40
1.80000002682209
  0
CIRCLE
  5
   3DB
  8
0
  6
CONTINUOUS
 62
     7
 10
97.3698664785034
 20
51.0329541384386
 30
0.0
 40
1.20000001788139
  0
LINE
  5
   3DC
  8
0
  6
CONTINUOUS
 62
     7
 10
97.069866474033
 20
62.632954311292
 30
0.0
 11
97.069866474033
 21
66.2329543649362
 31
0.0
  0
LINE
  5
   3DD
  8
0
  6
CONTINUOUS
 62
     7
 10
97.6698664829737
 20
62.632954311292
 30
0.0
 11
97.6698664829737
 21
66.2329543649362
 31
0.0
  0
LINE
  5
   3DE
  8
0
  6
CONTINUOUS
 62
     7
 10
101.269866536618
 20
48.6329541026758
 30
0.0
 11
101.269866536618
 21
53.4329598898677
 31
0.0
  0
LINE
  5
   3DF
  8
0
  6
CONTINUOUS
 62
     7
 10
112.06986669755
 20
48.6329541026758
 30
0.0
 11
112.06986669755
 21
53.4329567085691
 31
0.0
  0
LINE
  5
   3E0
  8
0
  6
CONTINUOUS
 62
     7
 10
112.06986669755
 20
62.0329543023513
 30
0.0
 11
112.06986669755
 21
66.8329543738769
 31
0.0
  0
LINE
  5
   3E1
  8
0
  6
CONTINUOUS
 62
     7
 10
101.269866536618
 20
62.0329543023513
 30
0.0
 11
101.269866536618
 21
66.8329543738769
 31
0.0
  0
LINE
  5
   3E2
  8
0
  6
CONTINUOUS
 62
     7
 10
116.889862863124
 20
52.5729541613864
 30
0.0
 11
116.709862860442
 21
52.5729541613864
 31
0.0
  0
LINE
  5
   3E3
  8
0
  6
CONTINUOUS
 62
     7
 10
116.509862857461
 20
49.4929541154908
 30
0.0
 11
116.189862852693
 21
49.4929541154908
 31
0.0
  0
LINE
  5
   3E4
  8
0
  6
CONTINUOUS
 62
     7
 10
113.629862814546
 20
50.532954130988
 30
0.0
 11
113.629862814546
 21
50.7329541339683
 31
0.0
  0
LINE
  5
   3E5
  8
0
  6
CONTINUOUS
 62
     7
 10
115.709862845541
 20
50.532954130988
 30
0.0
 11
115.709862845541
 21
50.7329541339683
 31
0.0
  0
ARC
  5
   3E6
  8
0
  6
CONTINUOUS
 62
     7
 10
114.669862830043
 20
50.7329541339682
 30
0.0
 40
1.04000001549721
 50
359.999999948034
 51
539.999999948034
  0
ARC
  5
   3E7
  8
0
  6
CONTINUOUS
 62
     7
 10
114.669862830043
 20
50.532954130988
 30
0.0
 40
1.04000001549721
 50
179.999999948034
 51
359.999999948034
  0
ARC
  5
   3E8
  8
0
  6
CONTINUOUS
 62
     7
 10
114.669862830043
 20
50.7329541339682
 30
0.0
 40
0.720000010728837
 50
359.999999948034
 51
539.999999948034
  0
ARC
  5
   3E9
  8
0
  6
CONTINUOUS
 62
     7
 10
114.669862830043
 20
50.532954130988
 30
0.0
 40
0.720000010728835
 50
179.999999948034
 51
359.999999948034
  0
LINE
  5
   3EA
  8
0
  6
CONTINUOUS
 62
     7
 10
113.949862819315
 20
50.532954130988
 30
0.0
 11
113.949862819315
 21
50.7329541339683
 31
0.0
  0
LINE
  5
   3EB
  8
0
  6
CONTINUOUS
 62
     7
 10
115.389862840772
 20
50.532954130988
 30
0.0
 11
115.389862840772
 21
50.7329541339683
 31
0.0
  0
LINE
  5
   3EC
  8
0
  6
CONTINUOUS
 62
     7
 10
115.809862847031
 20
51.2929541423129
 30
0.0
 11
115.809862847031
 21
51.6129541470813
 31
0.0
  0
LINE
  5
   3ED
  8
0
  6
CONTINUOUS
 62
     7
 10
116.189862852693
 20
51.2929541423129
 30
0.0
 11
115.809862847031
 21
51.2929541423129
 31
0.0
  0
LINE
  5
   3EE
  8
0
  6
CONTINUOUS
 62
     7
 10
116.889862863124
 20
51.2929541423129
 30
0.0
 11
116.889862863124
 21
51.6129541470813
 31
0.0
  0
LINE
  5
   3EF
  8
0
  6
CONTINUOUS
 62
     7
 10
116.189862852693
 20
51.6129541470813
 30
0.0
 11
115.809862847031
 21
51.6129541470813
 31
0.0
  0
LINE
  5
   3F0
  8
0
  6
CONTINUOUS
 62
     7
 10
116.189862852693
 20
49.4929541154908
 30
0.0
 11
116.189862852693
 21
51.2929541423129
 31
0.0
  0
LINE
  5
   3F1
  8
0
  6
CONTINUOUS
 62
     7
 10
116.509862857461
 20
49.4929541154908
 30
0.0
 11
116.509862857461
 21
51.2929541423129
 31
0.0
  0
LINE
  5
   3F2
  8
0
  6
CONTINUOUS
 62
     7
 10
116.889862863124
 20
51.2929541423129
 30
0.0
 11
116.509862857461
 21
51.2929541423129
 31
0.0
  0
LINE
  5
   3F3
  8
0
  6
CONTINUOUS
 62
     7
 10
116.889862863124
 20
51.6129541470813
 30
0.0
 11
116.509862857461
 21
51.6129541470813
 31
0.0
  0
LINE
  5
   3F4
  8
0
  6
CONTINUOUS
 62
     7
 10
116.189862852693
 20
51.6129541470813
 30
0.0
 11
116.189862852693
 21
52.0529541536378
 31
0.0
  0
LINE
  5
   3F5
  8
0
  6
CONTINUOUS
 62
     7
 10
116.509862857461
 20
51.6129541470813
 30
0.0
 11
116.509862857461
 21
52.0529541536378
 31
0.0
  0
ARC
  5
   3F6
  8
0
  6
CONTINUOUS
 62
     7
 10
116.709862860442
 20
52.0529541536378
 30
0.0
 40
0.520000007748604
 50
449.999999948034
 51
539.999999948034
  0
ARC
  5
   3F7
  8
0
  6
CONTINUOUS
 62
     7
 10
116.709862860442
 20
52.0529541536378
 30
0.0
 40
0.200000002980232
 50
449.999999948034
 51
539.999999948034
  0
LINE
  5
   3F8
  8
0
  6
CONTINUOUS
 62
     7
 10
116.889862863124
 20
52.252954156618
 30
0.0
 11
116.889862863124
 21
52.5729541613864
 31
0.0
  0
LINE
  5
   3F9
  8
0
  6
CONTINUOUS
 62
     7
 10
116.889862863124
 20
52.252954156618
 30
0.0
 11
116.709862860442
 21
52.252954156618
 31
0.0
  0
LINE
  5
   3FA
  8
0
  6
CONTINUOUS
 62
     7
 10
118.169862882197
 20
52.5729541613864
 30
0.0
 11
117.989862879515
 21
52.5729541613864
 31
0.0
  0
LINE
  5
   3FB
  8
0
  6
CONTINUOUS
 62
     7
 10
117.789862876535
 20
49.4929541154908
 30
0.0
 11
117.469862871767
 21
49.4929541154908
 31
0.0
  0
LINE
  5
   3FC
  8
0
  6
CONTINUOUS
 62
     7
 10
117.089862866104
 20
51.2929541423129
 30
0.0
 11
117.089862866104
 21
51.6129541470813
 31
0.0
  0
LINE
  5
   3FD
  8
0
  6
CONTINUOUS
 62
     7
 10
117.469862871767
 20
51.2929541423129
 30
0.0
 11
117.089862866104
 21
51.2929541423129
 31
0.0
  0
LINE
  5
   3FE
  8
0
  6
CONTINUOUS
 62
     7
 10
118.169862882197
 20
51.2929541423129
 30
0.0
 11
118.169862882197
 21
51.6129541470813
 31
0.0
  0
LINE
  5
   3FF
  8
0
  6
CONTINUOUS
 62
     7
 10
117.469862871767
 20
51.6129541470813
 30
0.0
 11
117.089862866104
 21
51.6129541470813
 31
0.0
  0
LINE
  5
   400
  8
0
  6
CONTINUOUS
 62
     7
 10
117.469862871767
 20
49.4929541154908
 30
0.0
 11
117.469862871767
 21
51.2929541423129
 31
0.0
  0
LINE
  5
   401
  8
0
  6
CONTINUOUS
 62
     7
 10
117.789862876535
 20
49.4929541154908
 30
0.0
 11
117.789862876535
 21
51.2929541423129
 31
0.0
  0
LINE
  5
   402
  8
0
  6
CONTINUOUS
 62
     7
 10
118.169862882197
 20
51.2929541423129
 30
0.0
 11
117.789862876535
 21
51.2929541423129
 31
0.0
  0
LINE
  5
   403
  8
0
  6
CONTINUOUS
 62
     7
 10
118.169862882197
 20
51.6129541470813
 30
0.0
 11
117.789862876535
 21
51.6129541470813
 31
0.0
  0
LINE
  5
   404
  8
0
  6
CONTINUOUS
 62
     7
 10
117.469862871767
 20
51.6129541470813
 30
0.0
 11
117.469862871767
 21
52.0529541536378
 31
0.0
  0
LINE
  5
   405
  8
0
  6
CONTINUOUS
 62
     7
 10
117.789862876535
 20
51.6129541470813
 30
0.0
 11
117.789862876535
 21
52.0529541536378
 31
0.0
  0
ARC
  5
   406
  8
0
  6
CONTINUOUS
 62
     7
 10
117.989862879515
 20
52.0529541536378
 30
0.0
 40
0.520000007748604
 50
449.999999948034
 51
539.999999948034
  0
ARC
  5
   407
  8
0
  6
CONTINUOUS
 62
     7
 10
117.989862879515
 20
52.0529541536378
 30
0.0
 40
0.200000002980232
 50
449.999999948034
 51
539.999999948034
  0
LINE
  5
   408
  8
0
  6
CONTINUOUS
 62
     7
 10
118.169862882197
 20
52.252954156618
 30
0.0
 11
118.169862882197
 21
52.5729541613864
 31
0.0
  0
LINE
  5
   409
  8
0
  6
CONTINUOUS
 62
     7
 10
118.169862882197
 20
52.252954156618
 30
0.0
 11
117.989862879515
 21
52.252954156618
 31
0.0
  0
LINE
  5
   40A
  8
0
  6
CONTINUOUS
 62
     7
 10
116.349862855077
 20
63.2929543211268
 30
0.0
 11
116.029862850309
 21
63.2929543211268
 31
0.0
  0
ARC
  5
   40B
  8
0
  6
CONTINUOUS
 62
     7
 10
114.669862830043
 20
64.5329543396042
 30
0.0
 40
1.04000001549721
 50
359.999999948034
 51
539.999999948034
  0
ARC
  5
   40C
  8
0
  6
CONTINUOUS
 62
     7
 10
114.669862830043
 20
64.5329543396042
 30
0.0
 40
0.720000010728837
 50
359.999999948034
 51
539.999999948034
  0
ARC
  5
   40D
  8
0
  6
CONTINUOUS
 62
     7
 10
114.669862830043
 20
64.332954336624
 30
0.0
 40
1.04000001549721
 50
179.999999948034
 51
359.999999948034
  0
ARC
  5
   40E
  8
0
  6
CONTINUOUS
 62
     7
 10
114.669862830043
 20
64.332954336624
 30
0.0
 40
0.720000010728835
 50
179.999999948034
 51
359.999999948034
  0
LINE
  5
   40F
  8
0
  6
CONTINUOUS
 62
     7
 10
115.389862840772
 20
64.332954336624
 30
0.0
 11
115.389862840772
 21
64.5329543396043
 31
0.0
  0
LINE
  5
   410
  8
0
  6
CONTINUOUS
 62
     7
 10
115.709862845541
 20
64.332954336624
 30
0.0
 11
115.709862845541
 21
64.5329543396043
 31
0.0
  0
LINE
  5
   411
  8
0
  6
CONTINUOUS
 62
     7
 10
113.949862819315
 20
64.332954336624
 30
0.0
 11
113.949862819315
 21
64.5329543396043
 31
0.0
  0
LINE
  5
   412
  8
0
  6
CONTINUOUS
 62
     7
 10
113.629862814546
 20
64.332954336624
 30
0.0
 11
113.629862814546
 21
64.5329543396043
 31
0.0
  0
LINE
  5
   413
  8
0
  6
CONTINUOUS
 62
     7
 10
116.029862850309
 20
63.2929543211268
 30
0.0
 11
116.029862850309
 21
65.5729543551015
 31
0.0
  0
LINE
  5
   414
  8
0
  6
CONTINUOUS
 62
     7
 10
116.349862855077
 20
63.2929543211268
 30
0.0
 11
116.349862855077
 21
64.6929543419885
 31
0.0
  0
LINE
  5
   415
  8
0
  6
CONTINUOUS
 62
     7
 10
117.469862871767
 20
63.2929543211268
 30
0.0
 11
117.469862871767
 21
64.6929543419885
 31
0.0
  0
LINE
  5
   416
  8
0
  6
CONTINUOUS
 62
     7
 10
117.789862876535
 20
63.2929543211268
 30
0.0
 11
117.789862876535
 21
64.7729543431806
 31
0.0
  0
LINE
  5
   417
  8
0
  6
CONTINUOUS
 62
     7
 10
116.349862855077
 20
65.5729543551015
 30
0.0
 11
116.029862850309
 21
65.5729543551015
 31
0.0
  0
ARC
  5
   418
  8
0
  6
CONTINUOUS
 62
     7
 10
116.909862863422
 20
64.6929543419884
 30
0.0
 40
0.56000000834465
 50
359.999999948034
 51
539.999999948034
  0
LINE
  5
   419
  8
0
  6
CONTINUOUS
 62
     7
 10
116.349862855077
 20
65.2529543503331
 30
0.0
 11
116.349862855077
 21
65.5729543551015
 31
0.0
  0
ARC
  5
   41A
  8
0
  6
CONTINUOUS
 62
     7
 10
116.989862864614
 20
64.7729543431805
 30
0.0
 40
0.800000011920929
 50
359.999999948034
 51
503.13010230219
  0
LINE
  5
   41B
  8
0
  6
CONTINUOUS
 62
     7
 10
117.789862876535
 20
63.2929543211268
 30
0.0
 11
117.469862871767
 21
63.2929543211268
 31
0.0
  0
LINE
  5
   41C
  8
0
  6
CONTINUOUS
 62
     7
 10
86.0698662862784
 20
67.2329543798374
 30
0.0
 11
85.6698663041709
 21
67.2329543798374
 31
0.0
  0
LINE
  5
   41D
  8
0
  6
CONTINUOUS
 62
     7
 10
86.0698662862784
 20
66.8329543738769
 30
0.0
 11
85.6698663041619
 21
66.8329543738769
 31
0.0
  0
LINE
  5
   41E
  8
0
  6
CONTINUOUS
 62
     7
 10
86.0698662862784
 20
62.0329543023513
 30
0.0
 11
85.6698663041619
 21
62.0329543023513
 31
0.0
  0
LINE
  5
   41F
  8
0
  6
CONTINUOUS
 62
     7
 10
86.0698662862784
 20
61.6329542963909
 30
0.0
 11
85.6698663041506
 21
61.6329542963909
 31
0.0
  0
LINE
  5
   420
  8
0
  6
CONTINUOUS
 62
     7
 10
86.0698662862784
 20
53.832961874334
 30
0.0
 11
85.6698663041506
 21
53.832961874334
 31
0.0
  0
LINE
  5
   421
  8
0
  6
CONTINUOUS
 62
     7
 10
86.0698662862784
 20
53.4329618683712
 30
0.0
 11
85.6698663041577
 21
53.4329618683712
 31
0.0
  0
LINE
  5
   422
  8
0
  6
CONTINUOUS
 62
     7
 10
86.0698662862784
 20
48.6329541026758
 30
0.0
 11
85.6698663041577
 21
48.6329541026758
 31
0.0
  0
LINE
  5
   423
  8
0
  6
CONTINUOUS
 62
     7
 10
86.0698662862784
 20
48.2329540967153
 30
0.0
 11
85.6698663041598
 21
48.2329540967153
 31
0.0
  0
LINE
  5
   424
  8
0
  6
CONTINUOUS
 62
     7
 10
127.269860820532
 20
67.2329543798374
 30
0.0
 11
86.0698662862784
 21
67.2329543798374
 31
0.0
  0
LINE
  5
   425
  8
0
  6
CONTINUOUS
 62
     7
 10
127.269860820532
 20
66.8329543738769
 30
0.0
 11
86.0698662862784
 21
66.8329543738769
 31
0.0
  0
LINE
  5
   426
  8
0
  6
CONTINUOUS
 62
     7
 10
127.269860820532
 20
62.0329543023513
 30
0.0
 11
110.969866681159
 21
62.0329543023513
 31
0.0
  0
LINE
  5
   427
  8
0
  6
CONTINUOUS
 62
     7
 10
127.269860820532
 20
61.6329542963909
 30
0.0
 11
110.969866681159
 21
61.6329542963909
 31
0.0
  0
LINE
  5
   428
  8
0
  6
CONTINUOUS
 62
     7
 10
127.269860820532
 20
53.8329586930331
 30
0.0
 11
110.969865487256
 21
53.8329586930331
 31
0.0
  0
LINE
  5
   429
  8
0
  6
CONTINUOUS
 62
     7
 10
127.269860820532
 20
53.4329586870726
 30
0.0
 11
110.9698653407
 21
53.4329586870726
 31
0.0
  0
LINE
  5
   42A
  8
0
  6
CONTINUOUS
 62
     7
 10
127.269860820532
 20
48.6329541026758
 30
0.0
 11
86.0698662862784
 21
48.6329541026758
 31
0.0
  0
LINE
  5
   42B
  8
0
  6
CONTINUOUS
 62
     7
 10
127.269860820532
 20
48.2329540967153
 30
0.0
 11
86.0698662862784
 21
48.2329540967153
 31
0.0
  0
LINE
  5
   42C
  8
0
  6
CONTINUOUS
 62
     7
 10
110.969866681159
 20
55.3830824870283
 30
0.0
 11
102.369866553009
 21
55.3830824870283
 31
0.0
  0
LINE
  5
   42D
  8
0
  6
CONTINUOUS
 62
     7
 10
110.969866681159
 20
52.9364962483245
 30
0.0
 11
102.369866553009
 21
52.9364962483245
 31
0.0
  0
LINE
  5
   42E
  8
0
  6
CONTINUOUS
 62
     7
 10
110.969866681159
 20
50.5573687623881
 30
0.0
 11
102.369866553009
 21
50.5573687623881
 31
0.0
  0
LINE
  5
   42F
  8
0
  6
CONTINUOUS
 62
     7
 10
110.969866681159
 20
50.2362699065161
 30
0.0
 11
102.369866553009
 21
50.2362699065161
 31
0.0
  0
LINE
  5
   430
  8
0
  6
CONTINUOUS
 62
     7
 10
84.9698522480626
 20
130.732958377821
 30
0.0
 11
73.0698543807265
 21
130.732958377821
 31
0.0
  0
LINE
  5
   431
  8
0
  6
CONTINUOUS
 62
     7
 10
86.5909896494121
 20
128.132958339078
 30
0.0
 11
84.6698522435923
 21
128.132958339078
 31
0.0
  0
CIRCLE
  5
   432
  8
0
  6
CONTINUOUS
 62
     7
 10
78.6698542197012
 20
125.732954662687
 30
0.0
 40
2.20000058570355
  0
LINE
  5
   433
  8
0
  6
CONTINUOUS
 62
     7
 10
84.9698522480626
 20
129.532958359939
 30
0.0
 11
84.9698522480626
 21
130.732958377821
 31
0.0
  0
LINE
  5
   434
  8
0
  6
CONTINUOUS
 62
     7
 10
86.3698522689243
 20
129.532958359939
 30
0.0
 11
86.3698522689243
 21
130.732958377821
 31
0.0
  0
LINE
  5
   435
  8
0
  6
CONTINUOUS
 62
     7
 10
84.6698522435923
 20
128.132958339078
 30
0.0
 11
84.6698522435923
 21
129.532958359939
 31
0.0
  0
LINE
  5
   436
  8
0
  6
CONTINUOUS
 62
     7
 10
86.6698522733946
 20
128.335544557498
 30
0.0
 11
86.6698522733946
 21
129.532958359939
 31
0.0
  0
LINE
  5
   437
  8
0
  6
CONTINUOUS
 62
     7
 10
86.6698522733946
 20
129.532958359939
 30
0.0
 11
86.3698522689243
 21
129.532958359939
 31
0.0
  0
LINE
  5
   438
  8
0
  6
CONTINUOUS
 62
     7
 10
84.9698522480626
 20
129.532958359939
 30
0.0
 11
84.6698522435923
 21
129.532958359939
 31
0.0
  0
CIRCLE
  5
   439
  8
0
  6
DOT
 62
     7
 10
78.6698608927975
 20
33.7329582953548
 30
0.0
 40
2.19999878903394
  0
CIRCLE
  5
   43A
  8
0
  6
DOT
 62
     7
 10
85.6698594020169
 20
34.9329578059114
 30
0.0
 40
1.79999922154889
  0
LINE
  5
   43B
  8
0
  6
DASHDOT
 62
     7
 10
78.6698608927975
 20
30.3329594884394
 30
0.0
 11
78.6698608927975
 21
37.1329571022701
 31
0.0
  0
LINE
  5
   43C
  8
0
  6
DASHDOT
 62
     7
 10
78.669859535295
 20
28.5729569773903
 30
0.0
 11
78.669859535295
 21
32.0929571911437
 31
0.0
  0
LINE
  5
   43D
  8
0
  6
DASHDOT
 62
     7
 10
78.6698523099493
 20
121.705668491642
 30
0.0
 11
78.6698523099493
 21
129.248291252612
 31
0.0
  0
LINE
  5
   43E
  8
0
  6
DASHDOT
 62
     7
 10
82.809311472443
 20
125.732954662687
 30
0.0
 11
74.9973036147332
 21
125.732954662687
 31
0.0
  0
LINE
  5
   43F
  8
0
  6
DASHDOT
 62
     7
 10
84.8698597414361
 20
33.7329582953548
 30
0.0
 11
72.469862044159
 21
33.7329582953548
 31
0.0
  0
LINE
  5
   440
  8
0
  6
DASHDOT
 62
     7
 10
91.4698586831704
 20
34.9329578059114
 30
0.0
 11
79.8698601208633
 21
34.9329578059114
 31
0.0
  0
LINE
  5
   441
  8
0
  6
CONTINUOUS
 62
     7
 10
82.7898662612556
 20
39.0329661959999
 30
0.0
 11
82.7898662612556
 21
87.0329577266398
 31
0.0
  0
LINE
  5
   442
  8
0
  6
CONTINUOUS
 62
     7
 10
81.3498662397979
 20
39.0329661959999
 30
0.0
 11
81.3498662397979
 21
87.0329577266398
 31
0.0
  0
LINE
  5
   443
  8
0
  6
CONTINUOUS
 62
     7
 10
79.9098662183402
 20
39.0329661959999
 30
0.0
 11
79.9098662183402
 21
87.0329577266398
 31
0.0
  0
LINE
  5
   444
  8
0
  6
CONTINUOUS
 62
     7
 10
78.4698661968826
 20
39.0329661959999
 30
0.0
 11
78.4698661968826
 21
87.0329577266398
 31
0.0
  0
LINE
  5
   445
  8
0
  6
CONTINUOUS
 62
     7
 10
77.0298661754249
 20
39.0329661959999
 30
0.0
 11
77.0298661754249
 21
87.0329577266398
 31
0.0
  0
LINE
  5
   446
  8
0
  6
CONTINUOUS
 62
     7
 10
75.5898661539672
 20
39.0329661959999
 30
0.0
 11
75.5898661539672
 21
87.0329577266398
 31
0.0
  0
LINE
  5
   447
  8
0
  6
CONTINUOUS
 62
     7
 10
74.1498661325096
 20
39.0329661959999
 30
0.0
 11
74.1498661325096
 21
87.0329577266398
 31
0.0
  0
LINE
  5
   448
  8
0
  6
CONTINUOUS
 62
     7
 10
72.7098661110519
 20
39.0329661959999
 30
0.0
 11
72.7098661110519
 21
87.0329577266398
 31
0.0
  0
LINE
  5
   449
  8
0
  6
CONTINUOUS
 62
     7
 10
85.8698663071512
 20
82.8329607158112
 30
0.0
 11
71.6698498622098
 21
82.8329607158112
 31
0.0
  0
LINE
  5
   44A
  8
0
  6
CONTINUOUS
 62
     7
 10
83.269866268397
 20
40.8329600899624
 30
0.0
 11
71.6698498622098
 21
40.8329600899624
 31
0.0
  0
LINE
  5
   44B
  8
0
  6
DASHDOT
 62
     5
 10
133.174119331506
 20
61.8329604028868
 30
0.0
 11
67.7822595588556
 21
61.8329604028868
 31
0.0
  0
LINE
  5
   44C
  8
0
  6
DASHDOT
 62
     7
 10
106.669852727182
 20
103.032957965058
 30
0.0
 11
106.669852727182
 21
107.232958027643
 31
0.0
  0
INSERT
  5
   44D
  8
255
  6
CONTINUOUS
 62
     7
  2
$2MOSTRINA
 10
60.7345631982198
 20
17.840711212195
 30
0.0
 41
0.400000005960464
 42
0.400000005960464
 50
3.50835464724173E-15
 43
0.400000005960464
  0
LINE
  5
   44E
  8
0
  6
CONTINUOUS
 62
     3
 10
127.16985974219
 20
131.732958392722
 30
0.0
 11
87.388172562451
 21
131.732958392722
 31
0.0
  0
LINE
  5
   44F
  8
0
  6
CONTINUOUS
 62
     3
 10
127.669881300712
 20
94.0329608827042
 30
0.0
 11
127.669881300712
 21
131.232958385277
 31
0.0
  0
LINE
  5
   450
  8
0
  6
CONTINUOUS
 62
     3
 10
126.009862166311
 20
121.332965577841
 30
0.0
 11
126.009862166311
 21
131.608696916261
 31
0.0
  0
LINE
  5
   451
  8
0
  6
CONTINUOUS
 62
     3
 10
124.569859703447
 20
121.332965577841
 30
0.0
 11
124.569859703447
 21
131.608696916261
 31
0.0
  0
LINE
  5
   452
  8
0
  6
CONTINUOUS
 62
     3
 10
123.129860292341
 20
121.332965577841
 30
0.0
 11
123.129860292341
 21
131.608696916261
 31
0.0
  0
LINE
  5
   453
  8
0
  6
CONTINUOUS
 62
     3
 10
121.689860881235
 20
121.332965577841
 30
0.0
 11
121.689860881235
 21
131.608696916261
 31
0.0
  0
LINE
  5
   454
  8
0
  6
CONTINUOUS
 62
     3
 10
120.249861470129
 20
121.332965577841
 30
0.0
 11
120.249861470129
 21
131.608696916261
 31
0.0
  0
LINE
  5
   455
  8
0
  6
CONTINUOUS
 62
     3
 10
118.809862059023
 20
121.332965577841
 30
0.0
 11
118.809862059023
 21
131.608696916261
 31
0.0
  0
LINE
  5
   456
  8
0
  6
CONTINUOUS
 62
     3
 10
117.369859596159
 20
121.332965577841
 30
0.0
 11
117.369859596159
 21
131.608696916261
 31
0.0
  0
LINE
  5
   457
  8
0
  6
CONTINUOUS
 62
     3
 10
115.929860185053
 20
121.332965577841
 30
0.0
 11
115.929860185053
 21
131.608696916261
 31
0.0
  0
LINE
  5
   458
  8
0
  6
CONTINUOUS
 62
     3
 10
114.489860773947
 20
121.332965577841
 30
0.0
 11
114.489860773947
 21
131.608696916261
 31
0.0
  0
LINE
  5
   459
  8
0
  6
CONTINUOUS
 62
     3
 10
113.04986136284
 20
121.332965577841
 30
0.0
 11
113.04986136284
 21
131.608696916261
 31
0.0
  0
LINE
  5
   45A
  8
0
  6
CONTINUOUS
 62
     3
 10
111.609861951734
 20
121.332965577841
 30
0.0
 11
111.609861951734
 21
131.608696916261
 31
0.0
  0
LINE
  5
   45B
  8
0
  6
CONTINUOUS
 62
     3
 10
110.169861014749
 20
121.332965577841
 30
0.0
 11
110.169861014749
 21
131.608696916261
 31
0.0
  0
LINE
  5
   45C
  8
0
  6
CONTINUOUS
 62
     3
 10
108.729861603643
 20
121.332965577841
 30
0.0
 11
108.729861603643
 21
131.608696916261
 31
0.0
  0
LINE
  5
   45D
  8
0
  6
CONTINUOUS
 62
     3
 10
107.289860666658
 20
121.332965577841
 30
0.0
 11
107.289860666658
 21
131.608696916261
 31
0.0
  0
LINE
  5
   45E
  8
0
  6
CONTINUOUS
 62
     3
 10
105.849861255552
 20
121.332965577841
 30
0.0
 11
105.849861255552
 21
131.608696916261
 31
0.0
  0
LINE
  5
   45F
  8
0
  6
CONTINUOUS
 62
     3
 10
104.409860318567
 20
121.332965577841
 30
0.0
 11
104.409860318567
 21
131.608696916261
 31
0.0
  0
LINE
  5
   460
  8
0
  6
CONTINUOUS
 62
     3
 10
102.969860907461
 20
121.332965577841
 30
0.0
 11
102.969860907461
 21
131.608696916261
 31
0.0
  0
LINE
  5
   461
  8
0
  6
CONTINUOUS
 62
     3
 10
94.2498610826986
 20
121.332965577841
 30
0.0
 11
94.2498610826986
 21
131.608696916261
 31
0.0
  0
LINE
  5
   462
  8
0
  6
CONTINUOUS
 62
     3
 10
95.6898604938047
 20
121.332965577841
 30
0.0
 11
95.6898604938047
 21
131.608696916261
 31
0.0
  0
LINE
  5
   463
  8
0
  6
CONTINUOUS
 62
     3
 10
97.1298614307897
 20
121.332965577841
 30
0.0
 11
97.1298614307897
 21
131.608696916261
 31
0.0
  0
LINE
  5
   464
  8
0
  6
CONTINUOUS
 62
     3
 10
98.5698608418958
 20
121.332965577841
 30
0.0
 11
98.5698608418958
 21
131.608696916261
 31
0.0
  0
LINE
  5
   465
  8
0
  6
CONTINUOUS
 62
     3
 10
100.009860863354
 20
121.332965577841
 30
0.0
 11
100.009860863354
 21
131.608696916261
 31
0.0
  0
LINE
  5
   466
  8
0
  6
CONTINUOUS
 62
     3
 10
101.449860884811
 20
121.332965577841
 30
0.0
 11
101.449860884811
 21
131.608696916261
 31
0.0
  0
LINE
  5
   467
  8
0
  6
CONTINUOUS
 62
     3
 10
92.8098610612409
 20
121.332965577841
 30
0.0
 11
92.8098610612409
 21
131.608696916261
 31
0.0
  0
LINE
  5
   468
  8
0
  6
CONTINUOUS
 62
     3
 10
91.3698610397833
 20
121.332965577841
 30
0.0
 11
91.3698610397833
 21
131.608696916261
 31
0.0
  0
LINE
  5
   469
  8
0
  6
CONTINUOUS
 62
     3
 10
89.9298610183256
 20
121.332965577841
 30
0.0
 11
89.9298610183256
 21
131.608696916261
 31
0.0
  0
LINE
  5
   46A
  8
0
  6
CONTINUOUS
 62
     3
 10
88.4898609968679
 20
121.332965577841
 30
0.0
 11
88.4898609968679
 21
131.608696916261
 31
0.0
  0
LINE
  5
   46B
  8
0
  6
CONTINUOUS
 62
     3
 10
87.0498609754103
 20
121.332965577841
 30
0.0
 11
87.0498609754103
 21
129.311729751706
 31
0.0
  0
LINE
  5
   46C
  8
0
  6
CONTINUOUS
 62
     2
 10
83.269866268397
 20
87.0329577266398
 30
0.0
 11
72.0698498681702
 21
87.0329577266398
 31
0.0
  0
LINE
  5
   46D
  8
0
  6
DASHDOT
 62
     7
 10
113.669860935331
 20
31.9329558754409
 30
0.0
 11
113.669860935331
 21
37.9329394360072
 31
0.0
  0
LINE
  5
   46E
  8
0
  6
DASHDOT
 62
     7
 10
116.669852715614
 20
34.9329476557241
 30
0.0
 11
110.669869155048
 21
34.9329476557241
 31
0.0
  0
LINE
  5
   46F
  8
0
  6
CONTINUOUS
 62
     2
 10
127.669881300712
 20
115.932965497375
 30
0.0
 11
71.6698498622098
 21
115.932965497375
 31
0.0
  0
LINE
  5
   470
  8
0
  6
CONTINUOUS
 62
     2
 10
127.669881300712
 20
115.532965491414
 30
0.0
 11
71.6698498622098
 21
115.532965491414
 31
0.0
  0
LINE
  5
   471
  8
0
  6
CONTINUOUS
 62
     2
 10
83.269866268397
 20
87.5329650741816
 30
0.0
 11
71.6698498622098
 21
87.5329650741816
 31
0.0
  0
LINE
  5
   472
  8
0
  6
CONTINUOUS
 62
     7
 10
127.669881300712
 20
121.332965577841
 30
0.0
 11
79.9069006906532
 21
121.332965577841
 31
0.0
  0
LINE
  5
   473
  8
0
  6
CONTINUOUS
 62
     2
 10
127.669881300712
 20
120.93296557188
 30
0.0
 11
71.6698498622098
 21
120.93296557188
 31
0.0
  0
LINE
  5
   474
  8
0
  6
CONTINUOUS
 62
     7
 10
127.269881294751
 20
120.93296557188
 30
0.0
 11
127.269881294751
 21
121.332965577841
 31
0.0
  0
LINE
  5
   475
  8
0
  6
CONTINUOUS
 62
     7
 10
72.0698498681702
 20
87.0329577266398
 30
0.0
 11
72.0698498681702
 21
87.5329650741816
 31
0.0
  0
LINE
  5
   476
  8
0
  6
CONTINUOUS
 62
     3
 10
72.0698498681702
 20
87.0329577266398
 30
0.0
 11
71.6698498622098
 21
87.0329577266398
 31
0.0
  0
LINE
  5
   477
  8
0
  6
CONTINUOUS
 62
     3
 10
85.6098609539526
 20
94.0329608827042
 30
0.0
 11
85.6098609539526
 21
115.532965491414
 31
0.0
  0
LINE
  5
   478
  8
0
  6
CONTINUOUS
 62
     3
 10
84.1698609324949
 20
94.0329608827042
 30
0.0
 11
84.1698609324949
 21
115.532965491414
 31
0.0
  0
LINE
  5
   479
  8
0
  6
CONTINUOUS
 62
     3
 10
82.7298609110372
 20
121.332965577841
 30
0.0
 11
82.7298609110372
 21
124.293215319536
 31
0.0
  0
LINE
  5
   47A
  8
0
  6
CONTINUOUS
 62
     3
 10
81.2898608895796
 20
121.332965577841
 30
0.0
 11
81.2898608895796
 21
123.37406636967
 31
0.0
  0
LINE
  5
   47B
  8
0
  6
CONTINUOUS
 62
     3
 10
85.6098609539526
 20
121.332965577841
 30
0.0
 11
85.6098609539526
 21
127.621765978072
 31
0.0
  0
LINE
  5
   47C
  8
0
  6
CONTINUOUS
 62
     3
 10
84.1698609324949
 20
121.332965577841
 30
0.0
 11
84.1698609324949
 21
127.082086882156
 31
0.0
  0
LINE
  5
   47D
  8
0
  6
CONTINUOUS
 62
     3
 10
85.6098609539526
 20
115.932965497375
 30
0.0
 11
85.6098609539526
 21
120.93296557188
 31
0.0
  0
LINE
  5
   47E
  8
0
  6
CONTINUOUS
 62
     3
 10
84.1698609324949
 20
115.932965497375
 30
0.0
 11
84.1698609324949
 21
120.93296557188
 31
0.0
  0
LINE
  5
   47F
  8
0
  6
CONTINUOUS
 62
     7
 10
82.7898662612556
 20
115.932965497375
 30
0.0
 11
82.7898662612556
 21
120.93296557188
 31
0.0
  0
LINE
  5
   480
  8
0
  6
CONTINUOUS
 62
     7
 10
81.3498662397979
 20
115.932965497375
 30
0.0
 11
81.3498662397979
 21
120.93296557188
 31
0.0
  0
LINE
  5
   481
  8
0
  6
CONTINUOUS
 62
     7
 10
79.9098662183402
 20
115.932965497375
 30
0.0
 11
79.9098662183402
 21
120.93296557188
 31
0.0
  0
LINE
  5
   482
  8
0
  6
CONTINUOUS
 62
     7
 10
78.4698661968826
 20
115.932965497375
 30
0.0
 11
78.4698661968826
 21
120.93296557188
 31
0.0
  0
LINE
  5
   483
  8
0
  6
CONTINUOUS
 62
     7
 10
77.0298661754249
 20
115.932965497375
 30
0.0
 11
77.0298661754249
 21
120.93296557188
 31
0.0
  0
LINE
  5
   484
  8
0
  6
CONTINUOUS
 62
     7
 10
75.5898661539672
 20
115.932965497375
 30
0.0
 11
75.5898661539672
 21
120.93296557188
 31
0.0
  0
LINE
  5
   485
  8
0
  6
CONTINUOUS
 62
     7
 10
74.1498661325096
 20
115.932965497375
 30
0.0
 11
74.1498661325096
 21
120.93296557188
 31
0.0
  0
LINE
  5
   486
  8
0
  6
CONTINUOUS
 62
     7
 10
72.7098661110519
 20
115.932965497375
 30
0.0
 11
72.7098661110519
 21
120.93296557188
 31
0.0
  0
LINE
  5
   487
  8
0
  6
CONTINUOUS
 62
     7
 10
82.7898662612556
 20
87.5329650741816
 30
0.0
 11
82.7898662612556
 21
115.532965491414
 31
0.0
  0
LINE
  5
   488
  8
0
  6
CONTINUOUS
 62
     7
 10
81.3498662397979
 20
87.5329650741816
 30
0.0
 11
81.3498662397979
 21
115.532965491414
 31
0.0
  0
LINE
  5
   489
  8
0
  6
CONTINUOUS
 62
     7
 10
79.9098662183402
 20
87.5329650741816
 30
0.0
 11
79.9098662183402
 21
115.532965491414
 31
0.0
  0
LINE
  5
   48A
  8
0
  6
CONTINUOUS
 62
     7
 10
78.4698661968826
 20
87.5329650741816
 30
0.0
 11
78.4698661968826
 21
115.532965491414
 31
0.0
  0
LINE
  5
   48B
  8
0
  6
CONTINUOUS
 62
     7
 10
77.0298661754249
 20
87.5329650741816
 30
0.0
 11
77.0298661754249
 21
115.532965491414
 31
0.0
  0
LINE
  5
   48C
  8
0
  6
CONTINUOUS
 62
     7
 10
75.5898661539672
 20
87.5329650741816
 30
0.0
 11
75.5898661539672
 21
115.532965491414
 31
0.0
  0
LINE
  5
   48D
  8
0
  6
CONTINUOUS
 62
     7
 10
74.1498661325096
 20
87.5329650741816
 30
0.0
 11
74.1498661325096
 21
115.532965491414
 31
0.0
  0
LINE
  5
   48E
  8
0
  6
CONTINUOUS
 62
     7
 10
72.7098661110519
 20
87.5329650741816
 30
0.0
 11
72.7098661110519
 21
115.532965491414
 31
0.0
  0
ARC
  5
   48F
  8
0
  6
CONTINUOUS
 62
     3
 10
127.16986019488
 20
131.232960498948
 30
0.0
 40
0.500000541861823
 50
360.000287654005
 51
449.999800479293
  0
LINE
  5
   490
  8
0
  6
CONTINUOUS
 62
     3
 10
127.16985974219
 20
27.7329568430008
 30
0.0
 11
72.171498261574
 21
27.7329568430008
 31
0.0
  0
ARC
  5
   491
  8
0
  6
CONTINUOUS
 62
     3
 10
127.16986019488
 20
28.2329547367742
 30
0.0
 40
0.500000541861823
 50
270.000199416776
 51
359.999712242063
  0
LINE
  5
   492
  8
0
  6
CONTINUOUS
 62
     3
 10
127.669881300712
 20
28.2329568504455
 30
0.0
 11
127.669881300712
 21
29.6329614489484
 31
0.0
  0
LINE
  5
   493
  8
0
  6
CONTINUOUS
 62
     3
 10
82.7298609110372
 20
27.7329568430008
 30
0.0
 11
82.7298609110372
 21
38.1329496578816
 31
0.0
  0
LINE
  5
   494
  8
0
  6
CONTINUOUS
 62
     3
 10
84.1698609324949
 20
27.7329568430008
 30
0.0
 11
84.1698609324949
 21
29.6329614489484
 31
0.0
  0
LINE
  5
   495
  8
0
  6
CONTINUOUS
 62
     3
 10
85.6098609539526
 20
27.7329568430008
 30
0.0
 11
85.6098609539526
 21
29.6329614489484
 31
0.0
  0
LINE
  5
   496
  8
0
  6
CONTINUOUS
 62
     3
 10
87.0498609754103
 20
27.7329568430008
 30
0.0
 11
87.0498609754103
 21
29.6329614489484
 31
0.0
  0
LINE
  5
   497
  8
0
  6
CONTINUOUS
 62
     3
 10
88.4898609968679
 20
27.8572183194618
 30
0.0
 11
88.4898609968679
 21
29.6329614489484
 31
0.0
  0
LINE
  5
   498
  8
0
  6
CONTINUOUS
 62
     3
 10
89.9298610183256
 20
27.8572183194618
 30
0.0
 11
89.9298610183256
 21
29.6329614489484
 31
0.0
  0
LINE
  5
   499
  8
0
  6
CONTINUOUS
 62
     3
 10
91.3698610397833
 20
27.8572183194618
 30
0.0
 11
91.3698610397833
 21
29.6329614489484
 31
0.0
  0
LINE
  5
   49A
  8
0
  6
CONTINUOUS
 62
     3
 10
92.8098610612409
 20
27.8572183194618
 30
0.0
 11
92.8098610612409
 21
29.6329614489484
 31
0.0
  0
LINE
  5
   49B
  8
0
  6
CONTINUOUS
 62
     3
 10
94.2498610826986
 20
27.8572183194618
 30
0.0
 11
94.2498610826986
 21
29.6329614489484
 31
0.0
  0
LINE
  5
   49C
  8
0
  6
CONTINUOUS
 62
     3
 10
95.6898604938047
 20
27.8572183194618
 30
0.0
 11
95.6898604938047
 21
29.6329614489484
 31
0.0
  0
LINE
  5
   49D
  8
0
  6
CONTINUOUS
 62
     3
 10
97.1298614307897
 20
27.8572183194618
 30
0.0
 11
97.1298614307897
 21
29.6329614489484
 31
0.0
  0
LINE
  5
   49E
  8
0
  6
CONTINUOUS
 62
     3
 10
98.5698608418958
 20
27.8572183194618
 30
0.0
 11
98.5698608418958
 21
29.6329614489484
 31
0.0
  0
LINE
  5
   49F
  8
0
  6
CONTINUOUS
 62
     3
 10
100.009860863354
 20
27.8572183194618
 30
0.0
 11
100.009860863354
 21
29.6329614489484
 31
0.0
  0
LINE
  5
   4A0
  8
0
  6
CONTINUOUS
 62
     3
 10
101.449860884811
 20
27.8572183194618
 30
0.0
 11
101.449860884811
 21
29.6329614489484
 31
0.0
  0
LINE
  5
   4A1
  8
0
  6
CONTINUOUS
 62
     3
 10
102.969860907461
 20
27.8572183194618
 30
0.0
 11
102.969860907461
 21
29.6329614489484
 31
0.0
  0
LINE
  5
   4A2
  8
0
  6
CONTINUOUS
 62
     3
 10
104.409860318567
 20
27.8572183194618
 30
0.0
 11
104.409860318567
 21
29.6329614489484
 31
0.0
  0
LINE
  5
   4A3
  8
0
  6
CONTINUOUS
 62
     3
 10
105.849861255552
 20
27.8572183194618
 30
0.0
 11
105.849861255552
 21
29.6329614489484
 31
0.0
  0
LINE
  5
   4A4
  8
0
  6
CONTINUOUS
 62
     3
 10
107.289860666658
 20
27.8572183194618
 30
0.0
 11
107.289860666658
 21
29.6329614489484
 31
0.0
  0
LINE
  5
   4A5
  8
0
  6
CONTINUOUS
 62
     3
 10
108.729861603643
 20
27.8572183194618
 30
0.0
 11
108.729861603643
 21
29.6329614489484
 31
0.0
  0
LINE
  5
   4A6
  8
0
  6
CONTINUOUS
 62
     3
 10
110.169861014749
 20
27.8572183194618
 30
0.0
 11
110.169861014749
 21
38.1329496578816
 31
0.0
  0
LINE
  5
   4A7
  8
0
  6
CONTINUOUS
 62
     3
 10
110.169861014749
 20
27.8572183194618
 30
0.0
 11
110.169861014749
 21
29.6329614489484
 31
0.0
  0
LINE
  5
   4A8
  8
0
  6
CONTINUOUS
 62
     3
 10
111.609861951734
 20
27.8572183194618
 30
0.0
 11
111.609861951734
 21
29.6329614489484
 31
0.0
  0
LINE
  5
   4A9
  8
0
  6
CONTINUOUS
 62
     3
 10
113.04986136284
 20
27.8572183194618
 30
0.0
 11
113.04986136284
 21
29.6329614489484
 31
0.0
  0
LINE
  5
   4AA
  8
0
  6
CONTINUOUS
 62
     3
 10
114.489860773947
 20
27.8572183194618
 30
0.0
 11
114.489860773947
 21
29.6329614489484
 31
0.0
  0
LINE
  5
   4AB
  8
0
  6
CONTINUOUS
 62
     3
 10
115.929860185053
 20
27.8572183194618
 30
0.0
 11
115.929860185053
 21
29.6329614489484
 31
0.0
  0
LINE
  5
   4AC
  8
0
  6
CONTINUOUS
 62
     3
 10
117.369859596159
 20
27.8572183194618
 30
0.0
 11
117.369859596159
 21
29.6329614489484
 31
0.0
  0
LINE
  5
   4AD
  8
0
  6
CONTINUOUS
 62
     3
 10
118.809862059023
 20
27.8572183194618
 30
0.0
 11
118.809862059023
 21
29.6329614489484
 31
0.0
  0
LINE
  5
   4AE
  8
0
  6
CONTINUOUS
 62
     3
 10
120.249861470129
 20
27.8572183194618
 30
0.0
 11
120.249861470129
 21
29.6329614489484
 31
0.0
  0
LINE
  5
   4AF
  8
0
  6
CONTINUOUS
 62
     3
 10
121.689860881235
 20
27.8572183194618
 30
0.0
 11
121.689860881235
 21
29.6329614489484
 31
0.0
  0
LINE
  5
   4B0
  8
0
  6
CONTINUOUS
 62
     3
 10
123.129860292341
 20
27.8572183194618
 30
0.0
 11
123.129860292341
 21
29.6329614489484
 31
0.0
  0
LINE
  5
   4B1
  8
0
  6
CONTINUOUS
 62
     3
 10
124.569859703447
 20
27.8572183194618
 30
0.0
 11
124.569859703447
 21
29.6329614489484
 31
0.0
  0
LINE
  5
   4B2
  8
0
  6
CONTINUOUS
 62
     3
 10
126.009862166311
 20
27.8572183194618
 30
0.0
 11
126.009862166311
 21
29.6329614489484
 31
0.0
  0
LINE
  5
   4B3
  8
0
  6
CONTINUOUS
 62
     3
 10
71.6698498622098
 20
28.2329568504455
 30
0.0
 11
71.6698498622098
 21
38.1329496578816
 31
0.0
  0
ARC
  5
   4B4
  8
0
  6
CONTINUOUS
 62
     3
 10
72.169870968041
 20
28.2329547367742
 30
0.0
 40
0.500000541861823
 50
180.000287654005
 51
270.186474178079
  0
LINE
  5
   4B5
  8
0
  6
CONTINUOUS
 62
     3
 10
73.3298689966103
 20
27.8572183194618
 30
0.0
 11
73.3298689966103
 21
38.1329496578816
 31
0.0
  0
LINE
  5
   4B6
  8
0
  6
CONTINUOUS
 62
     3
 10
74.7698714594743
 20
27.8572183194618
 30
0.0
 11
74.7698714594743
 21
38.1329496578816
 31
0.0
  0
LINE
  5
   4B7
  8
0
  6
CONTINUOUS
 62
     3
 10
76.2098708705803
 20
27.8572183194618
 30
0.0
 11
76.2098708705803
 21
38.1329496578816
 31
0.0
  0
LINE
  5
   4B8
  8
0
  6
CONTINUOUS
 62
     3
 10
77.6498702816864
 20
27.8572183194618
 30
0.0
 11
77.6498702816864
 21
38.1329496578816
 31
0.0
  0
LINE
  5
   4B9
  8
0
  6
CONTINUOUS
 62
     3
 10
79.0898696927925
 20
27.8572183194618
 30
0.0
 11
79.0898696927925
 21
38.1329496578816
 31
0.0
  0
LINE
  5
   4BA
  8
0
  6
CONTINUOUS
 62
     3
 10
81.9698715667626
 20
27.8572183194618
 30
0.0
 11
81.9698715667626
 21
38.1329496578816
 31
0.0
  0
LINE
  5
   4BB
  8
0
  6
CONTINUOUS
 62
     3
 10
80.5298691038987
 20
27.8572183194618
 30
0.0
 11
80.5298691038987
 21
38.1329496578816
 31
0.0
  0
LINE
  5
   4BC
  8
0
  6
CONTINUOUS
 62
     7
 10
83.269866268397
 20
38.1329496578816
 30
0.0
 11
71.6698498622098
 21
38.1329496578816
 31
0.0
  0
LINE
  5
   4BD
  8
0
  6
CONTINUOUS
 62
     7
 10
72.0698498681702
 20
38.1329496578816
 30
0.0
 11
72.0698498681702
 21
38.532949663842
 31
0.0
  0
LINE
  5
   4BE
  8
0
  6
CONTINUOUS
 62
     2
 10
83.269866268397
 20
38.532949663842
 30
0.0
 11
72.0698498681702
 21
38.532949663842
 31
0.0
  0
TEXT
  5
   4BF
  8
0
  6
CONTINUOUS
 62
     7
 10
106.010708934031
 20
188.394511623513
 30
0.0
 40
2.99999994933605
  1
Y
 50
359.999999948034
 41
0.916666607525612
 72
     2
 11
108.210708752237
 21
188.394511621529
 31
0.0
  0
POINT
  5
   4C0
  8
0
  6
CONTINUOUS
 62
     7
 10
106.669866617084
 20
131.732958392722
 30
0.0
  0
INSERT
  5
   4C1
  8
255
  6
CONTINUOUS
 62
     7
  2
T_A_D_F_IV
 10
60.7345657348633
 20
51.8381390869618
 30
0.0
 41
0.400000005960464
 42
0.400000005960464
 50
3.50835464724173E-15
 43
0.400000005960464
  0
POLYLINE
  5
   4C2
  8
0
  6
CONTINUOUS
 62
     7
 66
     1
 10
0.0
 20
0.0
 30
0.0
  0
VERTEX
  5
   4C3
  8
0
  6
CONTINUOUS
 10
88.0692887051496
 20
131.982677865593
 30
0.0
 40
0.0
 41
0.0
  0
VERTEX
  5
   4C4
  8
0
  6
CONTINUOUS
 10
87.0425893828357
 20
130.732958377821
 30
0.0
 40
0.0
 41
0.0
  0
VERTEX
  5
   4C5
  8
0
  6
CONTINUOUS
 10
87.0498609754103
 20
129.311729751706
 30
0.0
 40
0.0
 41
0.0
  0
VERTEX
  5
   4C6
  8
0
  6
CONTINUOUS
 10
86.518379251311
 20
127.946433148481
 30
0.0
 40
0.0
 41
0.0
  0
VERTEX
  5
   4C7
  8
0
  6
CONTINUOUS
 10
85.6098609539526
 20
127.621765978072
 30
0.0
 40
0.0
 41
0.0
  0
VERTEX
  5
   4C8
  8
0
  6
CONTINUOUS
 10
84.1698609324949
 20
127.082086882156
 30
0.0
 40
0.0
 41
0.0
  0
VERTEX
  5
   4C9
  8
0
  6
CONTINUOUS
 10
82.7298609110373
 20
124.293215319536
 30
0.0
 40
0.0
 41
0.0
  0
VERTEX
  5
   4CA
  8
0
  6
CONTINUOUS
 10
81.2898608895796
 20
123.37406636967
 30
0.0
 40
0.0
 41
0.0
  0
VERTEX
  5
   4CB
  8
0
  6
CONTINUOUS
 10
79.5296375655228
 20
120.77616570462
 30
0.0
 40
0.0
 41
0.0
  0
SEQEND
  5
   4CC
  8
0
  6
CONTINUOUS
 62
     7
  0
LINE
  5
   4CD
  8
0
  6
CONTINUOUS
 62
     1
 10
101.869852499892
 20
26.5329568251194
 30
0.0
 11
101.869852499892
 21
27.7329568430008
 31
0.0
  0
LINE
  5
   4CE
  8
0
  6
CONTINUOUS
 62
     1
 10
99.069852458169
 20
26.5329568251194
 30
0.0
 11
97.4698524343271
 21
26.5329568251194
 31
0.0
  0
LINE
  5
   4CF
  8
0
  6
CONTINUOUS
 62
     1
 10
101.869852499892
 20
26.5329568251194
 30
0.0
 11
100.26985247605
 21
26.5329568251194
 31
0.0
  0
LINE
  5
   4D0
  8
0
  6
CONTINUOUS
 62
     1
 10
97.4698524343271
 20
26.5329568251194
 30
0.0
 11
97.4698524343271
 21
27.7329568430008
 31
0.0
  0
LINE
  5
   4D1
  8
0
  6
CONTINUOUS
 62
     1
 10
101.869852499892
 20
27.3329568370403
 30
0.0
 11
97.4698524343271
 21
27.3329568370403
 31
0.0
  0
LINE
  5
   4D2
  8
0
  6
CONTINUOUS
 62
     1
 10
100.06985247307
 20
-17.4670438305318
 30
0.0
 11
99.2698524611492
 21
-17.4670438305318
 31
0.0
  0
LINE
  5
   4D3
  8
0
  6
CONTINUOUS
 62
     1
 10
99.1915603543585
 20
-10.4662436164949
 30
0.0
 11
99.069852458169
 21
26.5329568251193
 31
0.0
  0
LINE
  5
   4D4
  8
0
  6
CONTINUOUS
 62
     1
 10
100.06985247307
 20
-17.4670438305342
 30
0.0
 11
100.088310313554
 21
-11.8558603233056
 31
0.0
  0
LINE
  5
   4D5
  8
0
  6
DASHDOT
 62
     7
 10
72.6697553573214
 20
8.03301800881129
 30
0.0
 11
72.6697553573214
 21
12.233017985918
 31
0.0
  0
LINE
  5
   4D6
  8
0
  6
DASHDOT
 62
     7
 10
74.7697553458747
 20
10.1330179973646
 30
0.0
 11
70.569755368768
 21
10.1330179973646
 31
0.0
  0
LINE
  5
   4D7
  8
0
  6
DASHDOT
 62
     7
 10
90.6697554450849
 20
8.03299994477156
 30
0.0
 11
90.6697554450849
 21
12.2329994288637
 31
0.0
  0
LINE
  5
   4D8
  8
0
  6
DASHDOT
 62
     7
 10
92.7697551871309
 20
10.1329996868176
 30
0.0
 11
88.5697557030388
 21
10.1329996868176
 31
0.0
  0
LINE
  5
   4D9
  8
0
  6
DASHDOT
 62
     7
 10
108.669755896772
 20
8.03298144557648
 30
0.0
 11
108.669755896772
 21
12.2329813069642
 31
0.0
  0
LINE
  5
   4DA
  8
0
  6
DASHDOT
 62
     7
 10
110.769755827466
 20
10.1329813762703
 30
0.0
 11
106.569755966078
 21
10.1329813762703
 31
0.0
  0
LINE
  5
   4DB
  8
0
  6
DASHDOT
 62
     7
 10
126.669756164984
 20
8.03296317028057
 30
0.0
 11
126.669756164984
 21
12.2329629611658
 31
0.0
  0
LINE
  5
   4DC
  8
0
  6
DASHDOT
 62
     7
 10
128.769756060426
 20
10.1329630657232
 30
0.0
 11
124.569756269541
 21
10.1329630657232
 31
0.0
  0
LINE
  5
   4DD
  8
0
  6
CONTINUOUS
 62
     7
 10
78.6697503634833
 20
5.13300571663796
 30
0.0
 11
78.6697585015105
 21
13.1330119389179
 31
0.0
  0
LINE
  5
   4DE
  8
0
  6
CONTINUOUS
 62
     7
 10
78.6697585015105
 20
13.1330119385508
 30
0.0
 11
82.6697682046635
 21
21.1130036978475
 31
0.0
  0
LINE
  5
   4DF
  8
0
  6
CONTINUOUS
 62
     7
 10
82.6697682046635
 20
21.113003698193
 30
0.0
 11
82.6697749388281
 21
27.7329568430008
 31
0.0
  0
LINE
  5
   4E0
  8
0
  6
CONTINUOUS
 62
     7
 10
74.6697688484
 20
21.1130139896642
 30
0.0
 11
74.6697755825541
 21
27.7329568430008
 31
0.0
  0
LINE
  5
   4E1
  8
0
  6
CONTINUOUS
 62
     7
 10
66.6697583227027
 20
13.1330241455823
 30
0.0
 11
74.6697688484
 21
21.1130139897308
 31
0.0
  0
CIRCLE
  5
   4E2
  8
0
  6
CONTINUOUS
 62
     7
 10
72.6697553573214
 20
10.1330179973646
 30
0.0
 40
1.69999998259287
  0
LINE
  5
   4E3
  8
0
  6
CONTINUOUS
 62
     7
 10
84.6697504528996
 20
5.13301181490335
 30
0.0
 11
84.6697585909143
 21
13.133005833132
 31
0.0
  0
LINE
  5
   4E4
  8
0
  6
CONTINUOUS
 62
     7
 10
96.6697505993913
 20
5.13299961231423
 30
0.0
 11
84.6697504240185
 21
5.13301181934566
 31
0.0
  0
CIRCLE
  5
   4E5
  8
0
  6
CONTINUOUS
 62
     7
 10
90.6697554450849
 20
10.1329996868176
 30
0.0
 40
1.69999973608562
  0
LINE
  5
   4E6
  8
0
  6
CONTINUOUS
 62
     7
 10
84.6697585909144
 20
13.1330058350351
 30
0.0
 11
88.6697667681894
 21
21.1129984367331
 31
0.0
  0
LINE
  5
   4E7
  8
0
  6
CONTINUOUS
 62
     7
 10
88.6697667681893
 20
21.1129984389802
 30
0.0
 11
88.6697735023592
 21
27.7329568415881
 31
0.0
  0
LINE
  5
   4E8
  8
0
  6
CONTINUOUS
 62
     7
 10
96.6697506317073
 20
5.13299961450759
 30
0.0
 11
96.6697736215727
 21
27.7329568458877
 31
0.0
  0
LINE
  5
   4E9
  8
0
  6
CONTINUOUS
 62
     7
 10
114.669750884802
 20
5.13298130176706
 30
0.0
 11
102.669750709429
 21
5.13299350879849
 31
0.0
  0
LINE
  5
   4EA
  8
0
  6
CONTINUOUS
 62
     7
 10
114.669750899919
 20
5.13298129994409
 30
0.0
 11
114.669759037934
 21
13.1329753097909
 31
0.0
  0
LINE
  5
   4EB
  8
0
  6
CONTINUOUS
 62
     7
 10
114.669759037934
 20
13.1329753174565
 30
0.0
 11
110.669767096004
 21
21.1129760571755
 31
0.0
  0
CIRCLE
  5
   4EC
  8
0
  6
CONTINUOUS
 62
     7
 10
108.669755896772
 20
10.1329813762703
 30
0.0
 40
1.69999992473338
  0
LINE
  5
   4ED
  8
0
  6
CONTINUOUS
 62
     7
 10
110.669767096003
 20
21.1129760501676
 30
0.0
 11
110.669773830196
 21
27.7329568380452
 31
0.0
  0
LINE
  5
   4EE
  8
0
  6
CONTINUOUS
 62
     7
 10
102.669750721111
 20
5.13299350592778
 30
0.0
 11
102.669773710983
 21
27.7329568449215
 31
0.0
  0
LINE
  5
   4EF
  8
0
  6
CONTINUOUS
 62
     7
 10
116.669764133656
 20
21.1129760212632
 30
0.0
 11
116.669770867848
 21
27.7329568314925
 31
0.0
  0
LINE
  5
   4F0
  8
0
  6
CONTINUOUS
 62
     7
 10
124.669767304612
 20
21.1129618154412
 30
0.0
 11
124.66977403882
 21
27.7329568413785
 31
0.0
  0
LINE
  5
   4F1
  8
0
  6
CONTINUOUS
 62
     7
 10
120.669759127338
 20
13.1329692139408
 30
0.0
 11
116.669764133656
 21
21.1129760419172
 31
0.0
  0
LINE
  5
   4F2
  8
0
  6
CONTINUOUS
 62
     7
 10
120.66975098931
 20
5.13296299290104
 30
0.0
 11
120.669759127338
 21
13.1329692179749
 31
0.0
  0
LINE
  5
   4F3
  8
0
  6
CONTINUOUS
 62
     7
 10
132.669751168131
 20
5.13296299121993
 30
0.0
 11
120.66975098931
 21
5.13296299121993
 31
0.0
  0
LINE
  5
   4F4
  8
0
  6
CONTINUOUS
 62
     7
 10
132.669751168131
 20
5.13296299096855
 30
0.0
 11
132.669759306145
 21
13.1329570119912
 31
0.0
  0
LINE
  5
   4F5
  8
0
  6
CONTINUOUS
 62
     7
 10
132.669759306145
 20
13.1329570069093
 30
0.0
 11
124.669767304612
 21
21.1129618156388
 31
0.0
  0
CIRCLE
  5
   4F6
  8
0
  6
CONTINUOUS
 62
     7
 10
126.669756164984
 20
10.1329630657231
 30
0.0
 40
1.69999988948213
  0
LINE
  5
   4F7
  8
0
  6
CONTINUOUS
 62
     7
 10
78.6697503568767
 20
5.13300571582992
 30
0.0
 11
66.6697501797957
 21
5.13303012989278
 31
0.0
  0
LINE
  5
   4F8
  8
0
  6
CONTINUOUS
 62
     1
 10
115.869852708508
 20
26.5329568251194
 30
0.0
 11
115.869852708508
 21
27.7329568430008
 31
0.0
  0
LINE
  5
   4F9
  8
0
  6
CONTINUOUS
 62
     1
 10
113.069852666785
 20
26.5329568251194
 30
0.0
 11
111.469852642943
 21
26.5329568251194
 31
0.0
  0
LINE
  5
   4FA
  8
0
  6
CONTINUOUS
 62
     1
 10
115.869852708508
 20
26.5329568251194
 30
0.0
 11
114.269852684667
 21
26.5329568251194
 31
0.0
  0
LINE
  5
   4FB
  8
0
  6
CONTINUOUS
 62
     1
 10
111.469852642943
 20
26.5329568251194
 30
0.0
 11
111.469852642943
 21
27.7329568430008
 31
0.0
  0
LINE
  5
   4FC
  8
0
  6
CONTINUOUS
 62
     1
 10
115.869852708508
 20
27.7329568430008
 30
0.0
 11
111.469852642943
 21
27.7329568430008
 31
0.0
  0
LINE
  5
   4FD
  8
0
  6
CONTINUOUS
 62
     1
 10
115.869852708508
 20
27.3329568370403
 30
0.0
 11
111.469852642943
 21
27.3329568370403
 31
0.0
  0
LINE
  5
   4FE
  8
0
  6
CONTINUOUS
 62
     1
 10
114.269852684667
 20
21.6597267290561
 30
0.0
 11
114.269852684667
 21
26.5329568251194
 31
0.0
  0
LINE
  5
   4FF
  8
0
  6
DASHDOT
 62
     7
 10
113.669852675726
 20
22.2458730078032
 30
0.0
 11
113.669852675726
 21
28.9828696569985
 31
0.0
  0
LINE
  5
   500
  8
0
  6
CONTINUOUS
 62
     1
 10
118.34951579829
 20
14.7243000701
 30
0.0
 11
114.269852684667
 21
21.6597267290561
 31
0.0
  0
LINE
  5
   501
  8
0
  6
CONTINUOUS
 62
     1
 10
117.137771392877
 20
14.4174955456562
 30
0.0
 11
113.069852666785
 21
21.3329567476334
 31
0.0
  0
LINE
  5
   502
  8
0
  6
CONTINUOUS
 62
     1
 10
113.069852666785
 20
21.3329567476333
 30
0.0
 11
113.069852666785
 21
26.5329568251194
 31
0.0
  0
LINE
  5
   503
  8
0
  6
CONTINUOUS
 62
     1
 10
117.190604862067
 20
-10.4664678440679
 30
0.0
 11
117.137771392877
 21
14.4174955456517
 31
0.0
  0
LINE
  5
   504
  8
0
  6
CONTINUOUS
 62
     1
 10
118.130744469222
 20
-17.4670438305363
 30
0.0
 11
118.155872044265
 21
-11.8400099689942
 31
0.0
  0
LINE
  5
   505
  8
0
  6
CONTINUOUS
 62
     1
 10
83.4698522257109
 20
26.5329568251194
 30
0.0
 11
83.4698522257109
 21
27.7329568430008
 31
0.0
  0
LINE
  5
   506
  8
0
  6
CONTINUOUS
 62
     1
 10
87.869852291276
 20
26.5329568251194
 30
0.0
 11
86.2698522674341
 21
26.5329568251194
 31
0.0
  0
LINE
  5
   507
  8
0
  6
CONTINUOUS
 62
     1
 10
85.0698522495527
 20
26.5329568251194
 30
0.0
 11
83.4698522257109
 21
26.5329568251194
 31
0.0
  0
LINE
  5
   508
  8
0
  6
CONTINUOUS
 62
     1
 10
87.869852291276
 20
26.5329568251194
 30
0.0
 11
87.869852291276
 21
27.7329568430008
 31
0.0
  0
LINE
  5
   509
  8
0
  6
CONTINUOUS
 62
     1
 10
87.869852291276
 20
27.7329568430008
 30
0.0
 11
83.4698522257109
 21
27.7329568430008
 31
0.0
  0
LINE
  5
   50A
  8
0
  6
CONTINUOUS
 62
     1
 10
87.869852291276
 20
27.3329568370403
 30
0.0
 11
83.4698522257109
 21
27.3329568370403
 31
0.0
  0
LINE
  5
   50B
  8
0
  6
CONTINUOUS
 62
     1
 10
85.0698522495527
 20
21.6597267290561
 30
0.0
 11
85.0698522495527
 21
26.5329568251194
 31
0.0
  0
LINE
  5
   50C
  8
0
  6
DASHDOT
 62
     7
 10
85.6698522584934
 20
22.2458730078032
 30
0.0
 11
85.6698522584934
 21
28.9828696569985
 31
0.0
  0
LINE
  5
   50D
  8
0
  6
CONTINUOUS
 62
     1
 10
80.9901891359292
 20
14.7243000701
 30
0.0
 11
85.0698522495527
 21
21.6597267290561
 31
0.0
  0
LINE
  5
   50E
  8
0
  6
CONTINUOUS
 62
     1
 10
82.2019335413427
 20
14.4174955456562
 30
0.0
 11
86.2698522674341
 21
21.3329567476333
 31
0.0
  0
LINE
  5
   50F
  8
0
  6
CONTINUOUS
 62
     1
 10
86.2698522674341
 20
21.3329567476333
 30
0.0
 11
86.2698522674341
 21
26.5329568251194
 31
0.0
  0
LINE
  5
   510
  8
0
  6
CONTINUOUS
 62
     1
 10
82.0985668435177
 20
-17.4670438305328
 30
0.0
 11
82.1104915207603
 21
-11.8506564062839
 31
0.0
  0
LINE
  5
   511
  8
0
  6
CONTINUOUS
 62
     1
 10
81.1027707754758
 20
-10.4870741607312
 30
0.0
 11
80.9901891359291
 21
14.7243000701006
 31
0.0
  0
LINE
  5
   512
  8
0
  6
CONTINUOUS
 62
     1
 10
82.0985668435177
 20
-17.4670438305319
 30
0.0
 11
81.2089604649972
 21
-17.4670438305319
 31
0.0
  0
LINE
  5
   513
  8
0
  6
CONTINUOUS
 62
     1
 10
118.130744469222
 20
-17.4670438305319
 30
0.0
 11
117.241138090702
 21
-17.4670438305319
 31
0.0
  0
LINE
  5
   514
  8
0
  6
CONTINUOUS
 62
     7
 10
123.782788772561
 20
21.1329632296385
 30
0.0
 11
117.525742252371
 21
21.1329632296385
 31
0.0
  0
LINE
  5
   515
  8
0
  6
CONTINUOUS
 62
     7
 10
123.830552486456
 20
24.9329632862629
 30
0.0
 11
117.525742252371
 21
24.9329632862629
 31
0.0
  0
LINE
  5
   516
  8
0
  6
CONTINUOUS
 62
     7
 10
109.782788563945
 20
21.1329632296385
 30
0.0
 11
103.525742043755
 21
21.1329632296385
 31
0.0
  0
LINE
  5
   517
  8
0
  6
CONTINUOUS
 62
     7
 10
109.83055227784
 20
24.9329632862629
 30
0.0
 11
103.525742043755
 21
24.9329632862629
 31
0.0
  0
LINE
  5
   518
  8
0
  6
CONTINUOUS
 62
     7
 10
95.7827883553289
 20
21.1329632296385
 30
0.0
 11
89.5257418351384
 21
21.1329632296385
 31
0.0
  0
LINE
  5
   519
  8
0
  6
CONTINUOUS
 62
     7
 10
95.8305520692235
 20
24.9329632862629
 30
0.0
 11
89.5257418351384
 21
24.9329632862629
 31
0.0
  0
LINE
  5
   51A
  8
0
  6
CONTINUOUS
 62
     7
 10
81.7827881467126
 20
21.1329632296385
 30
0.0
 11
75.5257416265222
 21
21.1329632296385
 31
0.0
  0
LINE
  5
   51B
  8
0
  6
CONTINUOUS
 62
     7
 10
81.8305518606072
 20
24.9329632862629
 30
0.0
 11
75.5257416265222
 21
24.9329632862629
 31
0.0
  0
LINE
  5
   51C
  8
0
  6
CONTINUOUS
 62
     7
 10
66.669750184688
 20
5.13303013016531
 30
0.0
 11
66.6697583227028
 21
13.1330241456
 31
0.0
  0
POINT
  5
   51D
  8
0
  6
CONTINUOUS
 62
     7
 10
106.669866617084
 20
27.7329568430008
 30
0.0
  0
LINE
  5
   51E
  8
0
  6
CONTINUOUS
 62
     1
 10
118.238123596228
 20
-10.2207132012212
 30
0.0
 11
118.34951579829
 21
14.7243000700982
 31
0.0
  0
LINE
  5
   51F
  8
0
  6
CONTINUOUS
 62
     1
 10
117.241138090702
 20
-17.4670438305313
 30
0.0
 11
117.229652172904
 21
-12.0573071172558
 31
0.0
  0
LINE
  5
   520
  8
0
  6
CONTINUOUS
 62
     1
 10
100.1488833764
 20
-10.2416494687261
 30
0.0
 11
100.26985247605
 21
26.5329568251171
 31
0.0
  0
LINE
  5
   521
  8
0
  6
CONTINUOUS
 62
     1
 10
99.2698524611492
 20
-17.4670438305333
 30
0.0
 11
99.2520399969915
 21
-12.0520547265827
 31
0.0
  0
LINE
  5
   522
  8
0
  6
CONTINUOUS
 62
     1
 10
82.1495777510765
 20
-10.2414865010276
 30
0.0
 11
82.2019335413427
 21
14.4174955456552
 31
0.0
  0
LINE
  5
   523
  8
0
  6
CONTINUOUS
 62
     1
 10
81.2089604649972
 20
-17.4670438305296
 30
0.0
 11
81.1848501681993
 21
-12.0678178303084
 31
0.0
  0
LINE
  5
   524
  8
0
  6
CONTINUOUS
 62
     7
 10
80.0045972972664
 20
-10.7447127328349
 30
0.0
 11
83.1918739693544
 21
-9.99695709404899
 31
0.0
  0
INSERT
  5
   525
  8
0
  6
CONTINUOUS
 62
     7
  2
*UDIM706
 10
0.0
 20
0.0
 30
0.0
  0
INSERT
  5
   526
  8
0
  6
CONTINUOUS
 62
     7
  2
*UDIM707
 10
0.0
 20
0.0
 30
0.0
  0
INSERT
  5
   527
  8
0
  6
CONTINUOUS
 62
     7
  2
*UDIM708
 10
0.0
 20
0.0
 30
0.0
  0
INSERT
  5
   528
  8
0
  6
CONTINUOUS
 62
     7
  2
*UDIM709
 10
0.0
 20
0.0
 30
0.0
  0
INSERT
  5
   529
  8
0
  6
CONTINUOUS
 62
     7
  2
*UDIM710
 10
0.0
 20
0.0
 30
0.0
  0
INSERT
  5
   52A
  8
0
  6
CONTINUOUS
 62
     7
  2
*UDIM711
 10
0.0
 20
0.0
 30
0.0
  0
LINE
  5
   52B
  8
0
  6
DASHDOT
 62
     7
 10
106.669866617084
 20
-9.78981218679735
 30
0.0
 11
106.669866617084
 21
74.1139223009634
 31
0.0
  0
INSERT
  5
   52C
  8
0
  6
CONTINUOUS
 62
     7
  2
*UDIM712
 10
0.0
 20
0.0
 30
0.0
  0
TEXT
  5
   52D
  8
0
  6
CONTINUOUS
 62
     7
 10
98.9669779960256
 20
-21.4403469344205
 30
0.0
 40
2.99999994933605
  1
=    =
 50
359.999999948034
 41
0.91666673368878
 72
     1
 11
106.941978459935
 21
-19.9403469669455
 31
0.0
 73
     2
  0
TEXT
  5
   52E
  8
0
  6
CONTINUOUS
 62
     7
 10
98.7701986464912
 20
-28.1800396559728
 30
0.0
 40
2.99999994933605
  1
=    =
 50
359.999999948034
 41
0.91666673368878
 72
     1
 11
106.745199110401
 21
-26.6800396884978
 31
0.0
 73
     2
  0
INSERT
  5
   52F
  8
0
  6
CONTINUOUS
 62
     7
  2
*UDIM713
 10
0.0
 20
0.0
 30
0.0
  0
INSERT
  5
   530
  8
0
  6
CONTINUOUS
 62
     7
  2
*UDIM714
 10
0.0
 20
0.0
 30
0.0
  0
INSERT
  5
   531
  8
0
  6
CONTINUOUS
 62
     7
  2
*UDIM715
 10
0.0
 20
0.0
 30
0.0
  0
INSERT
  5
   532
  8
0
  6
CONTINUOUS
 62
     7
  2
*UDIM716
 10
0.0
 20
0.0
 30
0.0
  0
INSERT
  5
   533
  8
0
  6
CONTINUOUS
 62
     7
  2
*UDIM717
 10
0.0
 20
0.0
 30
0.0
  0
INSERT
  5
   534
  8
0
  6
CONTINUOUS
 62
     7
  2
*UDIM718
 10
0.0
 20
0.0
 30
0.0
  0
INSERT
  5
   535
  8
0
  6
CONTINUOUS
 62
     7
  2
*UDIM719
 10
0.0
 20
0.0
 30
0.0
  0
INSERT
  5
   536
  8
0
  6
CONTINUOUS
 62
     7
  2
*UDIM720
 10
0.0
 20
0.0
 30
0.0
  0
INSERT
  5
   537
  8
0
  6
CONTINUOUS
 62
     7
  2
*UDIM721
 10
0.0
 20
0.0
 30
0.0
  0
INSERT
  5
   538
  8
0
  6
CONTINUOUS
 62
     7
  2
*UDIM722
 10
0.0
 20
0.0
 30
0.0
  0
LINE
  5
   539
  8
0
  6
CONTINUOUS
 62
     7
 10
80.0045972972664
 20
-12.3447127566767
 30
0.0
 11
83.1918739693544
 21
-11.5969571178908
 31
0.0
  0
LINE
  5
   53A
  8
0
  6
CONTINUOUS
 62
     7
 10
98.0045975654873
 20
-12.3447127566767
 30
0.0
 11
101.191874237575
 21
-11.5969571178908
 31
0.0
  0
LINE
  5
   53B
  8
0
  6
CONTINUOUS
 62
     7
 10
98.0045975654873
 20
-10.7447127328349
 30
0.0
 11
101.191874237575
 21
-9.99695709404899
 31
0.0
  0
LINE
  5
   53C
  8
0
  6
CONTINUOUS
 62
     7
 10
116.004597833708
 20
-10.7447127328349
 30
0.0
 11
119.191874505796
 21
-9.99695709404899
 31
0.0
  0
LINE
  5
   53D
  8
0
  6
CONTINUOUS
 62
     7
 10
116.004597833708
 20
-12.3447127566767
 30
0.0
 11
119.191874505796
 21
-11.5969571178908
 31
0.0
  0
TEXT
  5
   53E
  8
0
  6
CONTINUOUS
 62
     7
 10
60.9358273940761
 20
53.1585885887982
 30
0.0
 40
2.99999994933605
  1
=    =
 50
89.9999999480344
 41
0.91666673368878
 72
     1
 11
59.4358274266312
 21
61.1335890527137
 31
0.0
 73
     2
  0
INSERT
  5
   53F
  8
0
  6
CONTINUOUS
 62
     7
  2
*UDIM723
 10
0.0
 20
0.0
 30
0.0
  0
INSERT
  5
   540
  8
0
  6
CONTINUOUS
 62
     7
  2
*UDIM724
 10
0.0
 20
0.0
 30
0.0
  0
TEXT
  5
   541
  8
0
  6
CONTINUOUS
 62
     7
 10
152.924185092732
 20
60.3519638211604
 30
0.0
 40
2.99999994933605
  1
X
 50
359.999999948034
 41
0.916666607525612
 72
     2
 11
155.124184910938
 21
60.3519638191761
 31
0.0
  0
TEXT
  5
   542
  8
0
  6
CONTINUOUS
 62
     7
 10
37.6958555254362
 20
61.3451964475683
 30
0.0
 40
2.99999994933605
  1
X
 50
359.999999948034
 41
0.916666607525612
 72
     2
 11
39.895855343642
 21
61.345196445584
 31
0.0
  0
LINE
  5
   543
  8
0
  6
CONTINUOUS
 62
     3
 10
235.227478437652
 20
29.85296513021
 30
0.0
 11
244.142637300491
 21
29.85296513021
 31
0.0
  0
LINE
  5
   544
  8
0
  6
CONTINUOUS
 62
     7
 10
215.342636871338
 20
28.7329642824025
 30
0.0
 11
215.342636871338
 21
44.850652510856
 31
0.0
  0
LINE
  5
   545
  8
0
  6
CONTINUOUS
 62
     7
 10
215.342636871338
 20
44.8506414401186
 30
0.0
 11
215.342636871338
 21
96.7329542159683
 31
0.0
  0
LINE
  5
   546
  8
0
  6
DASHDOT
 62
     7
 10
214.542636859417
 20
22.9141720180434
 30
0.0
 11
214.542636859417
 21
134.744282952822
 31
0.0
  0
LINE
  5
   547
  8
0
  6
CONTINUOUS
 62
     7
 10
214.542636859417
 20
92.4648023058749
 30
0.0
 11
214.542636859417
 21
92.5329480588434
 31
0.0
  0
LINE
  5
   548
  8
0
  6
CONTINUOUS
 62
     7
 10
242.742628124456
 20
71.6329590167437
 30
0.0
 11
242.742635871248
 21
68.3329494848318
 31
0.0
  0
LINE
  5
   549
  8
0
  6
CONTINUOUS
 62
     7
 10
243.742613605596
 20
90.1329574428819
 30
0.0
 11
244.025462723751
 21
90.2501144089583
 31
0.0
  0
LINE
  5
   54A
  8
0
  6
CONTINUOUS
 62
     7
 10
244.025467820996
 20
90.2501059585268
 30
0.0
 11
244.142624796245
 21
90.5329489621214
 31
0.0
  0
LINE
  5
   54B
  8
0
  6
CONTINUOUS
 62
     7
 10
242.742630740194
 20
87.3329597543532
 30
0.0
 11
242.742636843709
 21
90.1329597963004
 31
0.0
  0
LINE
  5
   54C
  8
0
  6
CONTINUOUS
 62
     7
 10
242.74263727963
 20
90.1329602301121
 30
0.0
 11
243.742625087499
 21
90.1329602301121
 31
0.0
  0
LINE
  5
   54D
  8
0
  6
CONTINUOUS
 62
     7
 10
242.742631176114
 20
71.6329599544406
 30
0.0
 11
242.742631176114
 21
87.3329601883888
 31
0.0
  0
LINE
  5
   54E
  8
0
  6
CONTINUOUS
 62
     7
 10
240.942637252808
 20
51.332959651947
 30
0.0
 11
240.942637252808
 21
67.5329598933458
 31
0.0
  0
LINE
  5
   54F
  8
0
  6
CONTINUOUS
 62
     7
 10
240.942649237692
 20
67.5329819242041
 30
0.0
 11
241.0498269651
 21
67.9329819192095
 31
0.0
  0
LINE
  5
   550
  8
0
  6
CONTINUOUS
 62
     7
 10
241.049840592097
 20
67.9329971412396
 30
0.0
 11
241.342656743666
 21
68.2258193894601
 31
0.0
  0
LINE
  5
   551
  8
0
  6
CONTINUOUS
 62
     7
 10
241.342615344767
 20
68.2257717574703
 30
0.0
 11
241.742621432792
 21
68.3329494848318
 31
0.0
  0
LINE
  5
   552
  8
0
  6
CONTINUOUS
 62
     7
 10
240.942637252808
 20
51.332959651947
 30
0.0
 11
244.142637300491
 21
51.332959651947
 31
0.0
  0
LINE
  5
   553
  8
0
  6
CONTINUOUS
 62
     7
 10
243.742589718464
 20
45.732954453441
 30
0.0
 11
244.142620225633
 21
45.3329544617552
 31
0.0
  0
LINE
  5
   554
  8
0
  6
CONTINUOUS
 62
     7
 10
243.742599127149
 20
50.1329638765614
 30
0.0
 11
244.142635737438
 21
50.5329638679986
 31
0.0
  0
LINE
  5
   555
  8
0
  6
CONTINUOUS
 62
     7
 10
218.635470906648
 20
50.1329494169641
 30
0.0
 11
243.742594083507
 21
50.1329616239948
 31
0.0
  0
LINE
  5
   556
  8
0
  6
CONTINUOUS
 62
     7
 10
218.635452319575
 20
45.7329595685005
 30
0.0
 11
243.742599910497
 21
45.7329595685005
 31
0.0
  0
LINE
  5
   557
  8
0
  6
CONTINUOUS
 62
     7
 10
217.142635090111
 20
50.532948182151
 30
0.0
 11
218.635469118999
 21
50.1329420733253
 31
0.0
  0
LINE
  5
   558
  8
0
  6
CONTINUOUS
 62
     7
 10
215.742635051591
 20
50.9080781083958
 30
0.0
 11
217.142648027504
 21
50.5329438691033
 31
0.0
  0
LINE
  5
   559
  8
0
  6
CONTINUOUS
 62
     7
 10
215.342637315881
 20
44.850653904686
 30
0.0
 11
218.635453126542
 21
45.7329598124494
 31
0.0
  0
LINE
  5
   55A
  8
0
  6
CONTINUOUS
 62
     7
 10
215.34264207174
 20
51.8506810973233
 30
0.0
 11
215.742640911963
 21
51.9578588247353
 31
0.0
  0
LINE
  5
   55B
  8
0
  6
CONTINUOUS
 62
     7
 10
215.342636871338
 20
42.3329534143209
 30
0.0
 11
216.94263651371
 21
42.3329534143209
 31
0.0
  0
LINE
  5
   55C
  8
0
  6
CONTINUOUS
 62
     7
 10
216.94263651371
 20
39.326242184811
 30
0.0
 11
216.94263651371
 21
42.3329534143209
 31
0.0
  0
LINE
  5
   55D
  8
0
  6
CONTINUOUS
 62
     7
 10
215.742636877298
 20
44.9578252796064
 30
0.0
 11
215.742636877298
 21
62.7329537183045
 31
0.0
  0
LINE
  5
   55E
  8
0
  6
CONTINUOUS
 62
     7
 10
217.14263689816
 20
50.5329596400261
 30
0.0
 11
217.14263689816
 21
60.5329597890377
 31
0.0
  0
LINE
  5
   55F
  8
0
  6
CONTINUOUS
 62
     7
 10
215.342636489868
 20
62.7329537183045
 30
0.0
 11
216.54263612628
 21
62.7329537183045
 31
0.0
  0
LINE
  5
   560
  8
0
  6
CONTINUOUS
 62
     7
 10
216.542640247196
 20
62.7329497530542
 30
0.0
 11
216.842640998463
 21
62.6525664575018
 31
0.0
  0
LINE
  5
   561
  8
0
  6
CONTINUOUS
 62
     7
 10
216.542640247196
 20
62.7329497530542
 30
0.0
 11
216.842640998463
 21
62.6525664575018
 31
0.0
  0
LINE
  5
   562
  8
0
  6
CONTINUOUS
 62
     7
 10
216.842638187221
 20
62.6525644371991
 30
0.0
 11
217.062253359968
 21
62.4329477464485
 31
0.0
  0
LINE
  5
   563
  8
0
  6
CONTINUOUS
 62
     7
 10
217.062246457982
 20
62.432942467549
 30
0.0
 11
217.142630901292
 21
62.1329424640317
 31
0.0
  0
LINE
  5
   564
  8
0
  6
CONTINUOUS
 62
     7
 10
217.142644146085
 20
60.5329543054144
 30
0.0
 11
217.142644146085
 21
62.1329482257405
 31
0.0
  0
LINE
  5
   565
  8
0
  6
CONTINUOUS
 62
     7
 10
217.062255213903
 20
60.232951142088
 30
0.0
 11
217.100344198095
 21
60.3751020209602
 31
0.0
  0
LINE
  5
   566
  8
0
  6
CONTINUOUS
 62
     7
 10
217.100343464367
 20
60.3750981466067
 30
0.0
 11
217.142638919927
 21
60.5329533709611
 31
0.0
  0
LINE
  5
   567
  8
0
  6
CONTINUOUS
 62
     7
 10
216.842636770097
 20
60.0133225737727
 30
0.0
 11
217.062252313412
 21
60.2329392648476
 31
0.0
  0
LINE
  5
   568
  8
0
  6
CONTINUOUS
 62
     7
 10
216.542631748314
 20
59.932945365685
 30
0.0
 11
216.842631748643
 21
60.0133286550701
 31
0.0
  0
LINE
  5
   569
  8
0
  6
CONTINUOUS
 62
     7
 10
215.742636877298
 20
59.9329536765813
 30
0.0
 11
216.54263650775
 21
59.9329536765813
 31
0.0
  0
LINE
  5
   56A
  8
0
  6
CONTINUOUS
 62
     7
 10
214.542636859417
 20
32.9329536557197
 30
0.0
 11
215.342636871338
 21
32.9329536557197
 31
0.0
  0
LINE
  5
   56B
  8
0
  6
CONTINUOUS
 62
     7
 10
214.542636859417
 20
92.5329480588434
 30
0.0
 11
215.342636871338
 21
92.5329480588434
 31
0.0
  0
LINE
  5
   56C
  8
0
  6
CONTINUOUS
 62
     7
 10
214.542636859417
 20
88.585609132836
 30
0.0
 11
215.342636871338
 21
88.585609132836
 31
0.0
  0
LINE
  5
   56D
  8
0
  6
CONTINUOUS
 62
     7
 10
217.142627486455
 20
45.9329550141804
 30
0.0
 11
218.262242253366
 21
45.6329550329252
 31
0.0
  0
LINE
  5
   56E
  8
0
  6
CONTINUOUS
 62
     7
 10
217.142623546719
 20
45.9329588276187
 30
0.0
 11
217.142623546719
 21
49.9329588872234
 31
0.0
  0
LINE
  5
   56F
  8
0
  6
CONTINUOUS
 62
     7
 10
217.142623663733
 20
49.9329535375223
 30
0.0
 11
218.262247964848
 21
50.2329535393137
 31
0.0
  0
LINE
  5
   570
  8
0
  6
CONTINUOUS
 62
     7
 10
214.542636859417
 20
36.846802209524
 30
0.0
 11
215.342636871338
 21
36.846802209524
 31
0.0
  0
LINE
  5
   571
  8
0
  6
CONTINUOUS
 62
     7
 10
214.542636859417
 20
36.9329533338546
 30
0.0
 11
215.342636871338
 21
36.9329533338546
 31
0.0
  0
LINE
  5
   572
  8
0
  6
CONTINUOUS
 62
     7
 10
217.062256568872
 20
60.0212342358807
 30
0.0
 11
217.142640625694
 21
60.3751038582629
 31
0.0
  0
LINE
  5
   573
  8
0
  6
CONTINUOUS
 62
     7
 10
217.100341060127
 20
60.3751045620761
 30
0.0
 11
217.142636135221
 21
60.3751045620761
 31
0.0
  0
LINE
  5
   574
  8
0
  6
CONTINUOUS
 62
     7
 10
217.089046186871
 20
54.732949477063
 30
0.0
 11
217.142635050953
 21
54.7727321909197
 31
0.0
  0
LINE
  5
   575
  8
0
  6
CONTINUOUS
 62
     7
 10
217.062254173723
 20
54.7528267878369
 30
0.0
 11
217.089049750177
 21
54.7329354316229
 31
0.0
  0
LINE
  5
   576
  8
0
  6
CONTINUOUS
 62
     7
 10
217.062252070302
 20
58.7329597622156
 30
0.0
 11
217.14263651669
 21
58.7329597622156
 31
0.0
  0
LINE
  5
   577
  8
0
  6
CONTINUOUS
 62
     7
 10
217.062249883547
 20
56.3130450739073
 30
0.0
 11
217.089045460001
 21
56.3329364301212
 31
0.0
  0
LINE
  5
   578
  8
0
  6
CONTINUOUS
 62
     7
 10
217.089049332437
 20
56.3329467152379
 30
0.0
 11
217.142638196519
 21
56.2931640013812
 31
0.0
  0
LINE
  5
   579
  8
0
  6
CONTINUOUS
 62
     7
 10
217.062249807722
 20
59.6656973174668
 30
0.0
 11
217.105919303997
 21
59.4217886252154
 31
0.0
  0
LINE
  5
   57A
  8
0
  6
CONTINUOUS
 62
     7
 10
217.105921261557
 20
59.4217914523441
 30
0.0
 11
217.142636196579
 21
58.7329609019435
 31
0.0
  0
LINE
  5
   57B
  8
0
  6
CONTINUOUS
 62
     7
 10
216.856106380367
 20
54.7938420078244
 30
0.0
 11
217.062250330233
 21
54.7528385937299
 31
0.0
  0
LINE
  5
   57C
  8
0
  6
CONTINUOUS
 62
     7
 10
216.842635883324
 20
54.802847107364
 30
0.0
 11
216.856107486834
 21
54.7938444222774
 31
0.0
  0
LINE
  5
   57D
  8
0
  6
CONTINUOUS
 62
     7
 10
216.842629954077
 20
56.2630500242482
 30
0.0
 11
216.856102320063
 21
56.2720527095206
 31
0.0
  0
LINE
  5
   57E
  8
0
  6
CONTINUOUS
 62
     7
 10
216.856104957763
 20
56.2720507927822
 30
0.0
 11
217.062248145149
 21
56.3130542004957
 31
0.0
  0
LINE
  5
   57F
  8
0
  6
CONTINUOUS
 62
     7
 10
216.84263651222
 20
58.7329597622156
 30
0.0
 11
217.062252070302
 21
58.7329597622156
 31
0.0
  0
LINE
  5
   580
  8
0
  6
CONTINUOUS
 62
     7
 10
216.542634720257
 20
54.8565525160039
 30
0.0
 11
216.842634717765
 21
54.802841590079
 31
0.0
  0
LINE
  5
   581
  8
0
  6
CONTINUOUS
 62
     7
 10
216.542634256026
 20
56.2093403951837
 30
0.0
 11
216.842634253534
 21
56.2630513211087
 31
0.0
  0
LINE
  5
   582
  8
0
  6
CONTINUOUS
 62
     7
 10
216.54263650775
 20
58.7329597622156
 30
0.0
 11
216.84263651222
 21
58.7329597622156
 31
0.0
  0
LINE
  5
   583
  8
0
  6
CONTINUOUS
 62
     7
 10
215.742636877298
 20
56.2093452226577
 30
0.0
 11
216.54263650775
 21
56.2093452226577
 31
0.0
  0
LINE
  5
   584
  8
0
  6
CONTINUOUS
 62
     7
 10
215.742636877298
 20
58.7329597622156
 30
0.0
 11
216.54263650775
 21
58.7329597622156
 31
0.0
  0
LINE
  5
   585
  8
0
  6
CONTINUOUS
 62
     7
 10
215.742636877298
 20
54.8565619993747
 30
0.0
 11
216.54263650775
 21
54.8565619993747
 31
0.0
  0
LINE
  5
   586
  8
0
  6
CONTINUOUS
 62
     3
 10
215.342636871338
 20
95.612965194583
 30
0.0
 11
253.022636212588
 21
95.612965194583
 31
0.0
  0
LINE
  5
   587
  8
0
  6
CONTINUOUS
 62
     3
 10
244.142637300968
 20
29.85296513021
 30
0.0
 11
253.022636212588
 21
29.85296513021
 31
0.0
  0
LINE
  5
   588
  8
0
  6
CONTINUOUS
 62
     3
 10
244.142637300968
 20
29.85296513021
 30
0.0
 11
244.142637300968
 21
45.6329595670104
 31
0.0
  0
LINE
  5
   589
  8
0
  6
CONTINUOUS
 62
     3
 10
244.14263730097
 20
50.23295353204
 30
0.0
 11
244.14263730097
 21
51.3329840660099
 31
0.0
  0
LINE
  5
   58A
  8
0
  6
CONTINUOUS
 62
     3
 10
244.142637300491
 20
90.5329791501546
 30
0.0
 11
244.142637300491
 21
96.7329603284598
 31
0.0
  0
LINE
  5
   58B
  8
0
  6
CONTINUOUS
 62
     3
 10
255.942637476802
 20
67.9125070181422
 30
0.0
 11
255.942637476802
 21
71.7328317821007
 31
0.0
  0
LINE
  5
   58C
  8
0
  6
CONTINUOUS
 62
     3
 10
255.942615825247
 20
47.5531287237215
 30
0.0
 11
255.942634135794
 21
44.9328409801538
 31
0.0
  0
LINE
  5
   58D
  8
0
  6
CONTINUOUS
 62
     3
 10
253.022636212588
 20
29.8529666560889
 30
0.0
 11
253.022636212588
 21
38.6329665798379
 31
0.0
  0
LINE
  5
   58E
  8
0
  6
CONTINUOUS
 62
     3
 10
244.142636077443
 20
50.2329596355557
 30
0.0
 11
253.022634989062
 21
50.2329596355557
 31
0.0
  0
LINE
  5
   58F
  8
0
  6
CONTINUOUS
 62
     3
 10
244.142636353607
 20
45.6329595670104
 30
0.0
 11
253.022635265226
 21
45.6329595670104
 31
0.0
  0
LINE
  5
   590
  8
0
  6
CONTINUOUS
 62
     1
 10
253.022636212588
 20
87.0329601839185
 30
0.0
 11
255.142637083411
 21
87.0329601839185
 31
0.0
  0
LINE
  5
   591
  8
0
  6
CONTINUOUS
 62
     1
 10
253.942637447
 20
38.6329659476877
 30
0.0
 11
254.14263744998
 21
38.6329659476877
 31
0.0
  0
LINE
  5
   592
  8
0
  6
CONTINUOUS
 62
     1
 10
253.022636212588
 20
38.6329665798378
 30
0.0
 11
254.742637458444
 21
38.6329661111746
 31
0.0
  0
LINE
  5
   593
  8
0
  6
CONTINUOUS
 62
     2
 10
259.543161658652
 20
41.0329598799348
 30
0.0
 11
259.543161658652
 21
41.8329587474465
 31
0.0
  0
LINE
  5
   594
  8
0
  6
CONTINUOUS
 62
     2
 10
255.94316162885
 20
40.8329594969468
 30
0.0
 11
255.94316162885
 21
82.8329601227956
 31
0.0
  0
LINE
  5
   595
  8
0
  6
CONTINUOUS
 62
     2
 10
255.142637083411
 20
82.8329601213336
 30
0.0
 11
257.343104883021
 21
82.8329601213336
 31
0.0
  0
LINE
  5
   596
  8
0
  6
CONTINUOUS
 62
     2
 10
255.142637083411
 20
40.8329594964288
 30
0.0
 11
257.343104883021
 21
40.8329594964288
 31
0.0
  0
LINE
  5
   597
  8
0
  6
CONTINUOUS
 62
     2
 10
259.54313890824
 20
48.2329531763255
 30
0.0
 11
259.543161414954
 21
41.0329591725959
 31
0.0
  0
LINE
  5
   598
  8
0
  6
CONTINUOUS
 62
     2
 10
259.543083791451
 20
53.4329534370237
 30
0.0
 11
259.543137578684
 21
48.6329533655729
 31
0.0
  0
LINE
  5
   599
  8
0
  6
CONTINUOUS
 62
     2
 10
259.543160514243
 20
53.8329595033556
 30
0.0
 11
259.543160514243
 21
61.632953516069
 31
0.0
  0
LINE
  5
   59A
  8
0
  6
CONTINUOUS
 62
     2
 10
259.543080914209
 20
53.8329492800523
 30
0.0
 11
259.543102276513
 21
61.6329493967781
 31
0.0
  0
LINE
  5
   59B
  8
0
  6
CONTINUOUS
 62
     2
 10
259.543018290562
 20
66.8329524814155
 30
0.0
 11
259.543101450917
 21
62.0329524099382
 31
0.0
  0
LINE
  5
   59C
  8
0
  6
CONTINUOUS
 62
     7
 10
241.742621432792
 20
68.3329494848318
 30
0.0
 11
242.742634227972
 21
68.3329494848318
 31
0.0
  0
LINE
  5
   59D
  8
0
  6
CONTINUOUS
 62
     7
 10
255.142637083411
 20
82.8329601213336
 30
0.0
 11
255.142637083411
 21
87.0329601839185
 31
0.0
  0
LINE
  5
   59E
  8
0
  6
CONTINUOUS
 62
     7
 10
255.142637083411
 20
38.6329660021834
 30
0.0
 11
255.142637083411
 21
40.8329594964288
 31
0.0
  0
LINE
  5
   59F
  8
0
  6
CONTINUOUS
 62
     2
 10
253.022636212588
 20
87.0329601839185
 30
0.0
 11
253.022636212588
 21
87.1329650682212
 31
0.0
  0
LINE
  5
   5A0
  8
0
  6
CONTINUOUS
 62
     3
 10
253.022636212588
 20
38.6329665798379
 30
0.0
 11
253.022636212588
 21
87.0329601839185
 31
0.0
  0
ARC
  5
   5A1
  8
0
  6
CONTINUOUS
 62
     7
 10
267.813053576947
 20
53.0154070167886
 30
0.0
 40
0.399999924262788
 50
348.623601768641
 51
436.688817106542
  0
ARC
  5
   5A2
  8
0
  6
CONTINUOUS
 62
     7
 10
267.334356986975
 20
50.6362795572977
 30
0.0
 40
0.400000304059165
 50
260.594020595617
 51
348.623601768641
  0
LINE
  5
   5A3
  8
0
  6
DASHDOT
 62
     7
 10
253.686611852801
 20
54.60547167529
 30
0.0
 11
273.733288734712
 21
50.5719453991536
 31
0.0
  0
LINE
  5
   5A4
  8
0
  6
CONTINUOUS
 62
     7
 10
259.543085159672
 20
55.3830918337508
 30
0.0
 11
267.90514936361
 21
53.4046602439132
 31
0.0
  0
LINE
  5
   5A5
  8
0
  6
CONTINUOUS
 62
     7
 10
267.72649818776
 20
50.5573781091106
 30
0.0
 11
268.205194646297
 21
52.936505595047
 31
0.0
  0
LINE
  5
   5A6
  8
0
  6
CONTINUOUS
 62
     7
 10
259.543105210609
 20
51.5214968971678
 30
0.0
 11
267.26898539037
 21
50.241657340777
 31
0.0
  0
LINE
  5
   5A7
  8
0
  6
DASHDOT
 62
     7
 10
213.342636841536
 20
22.5669584785743
 30
0.0
 11
213.342636841536
 21
134.744282952822
 31
0.0
  0
LINE
  5
   5A8
  8
0
  6
CONTINUOUS
 62
     7
 10
224.142637002468
 20
121.332960695028
 30
0.0
 11
229.536042063153
 21
121.332960695028
 31
0.0
  0
LINE
  5
   5A9
  8
0
  6
CONTINUOUS
 62
     7
 10
224.542637008429
 20
121.0363211867
 30
0.0
 11
224.542637008429
 21
121.332960695028
 31
0.0
  0
LINE
  5
   5AA
  8
0
  6
CONTINUOUS
 62
     7
 10
222.542636978626
 20
128.932960808277
 30
0.0
 11
224.542637008429
 21
128.932960808277
 31
0.0
  0
LINE
  5
   5AB
  8
0
  6
CONTINUOUS
 62
     7
 10
222.542636978626
 20
121.0363211867
 30
0.0
 11
222.542636978626
 21
123.652960729599
 31
0.0
  0
LINE
  5
   5AC
  8
0
  6
DASHDOT
 62
     7
 10
220.411825656487
 20
125.332960754633
 30
0.0
 11
227.075684607225
 21
125.332960754633
 31
0.0
  0
LINE
  5
   5AD
  8
0
  6
CONTINUOUS
 62
     7
 10
215.342636871338
 20
38.1329644224731
 30
0.0
 11
222.542636978626
 21
38.1329644224731
 31
0.0
  0
LINE
  5
   5AE
  8
0
  6
CONTINUOUS
 62
     7
 10
220.942636954784
 20
38.1329644224731
 30
0.0
 11
220.942636954784
 21
39.326242184811
 31
0.0
  0
LINE
  5
   5AF
  8
0
  6
CONTINUOUS
 62
     7
 10
222.542636978626
 20
38.1329644224731
 30
0.0
 11
222.542636978626
 21
39.326242184811
 31
0.0
  0
LINE
  5
   5B0
  8
0
  6
CONTINUOUS
 62
     7
 10
224.942637014389
 20
38.1329644224731
 30
0.0
 11
224.942637014389
 21
39.326242184811
 31
0.0
  0
LINE
  5
   5B1
  8
0
  6
CONTINUOUS
 62
     7
 10
224.942637014389
 20
38.1329644224731
 30
0.0
 11
234.22586562004
 21
38.1329644224731
 31
0.0
  0
LINE
  5
   5B2
  8
0
  6
CONTINUOUS
 62
     3
 10
214.787507858198
 20
39.326242184811
 30
0.0
 11
234.081517503628
 21
39.326242184811
 31
0.0
  0
LINE
  5
   5B3
  8
0
  6
CONTINUOUS
 62
     7
 10
222.542636978626
 20
30.5329643092243
 30
0.0
 11
223.742636615038
 21
30.5329643092243
 31
0.0
  0
LINE
  5
   5B4
  8
0
  6
CONTINUOUS
 62
     7
 10
223.742636615038
 20
30.5329643092242
 30
0.0
 11
223.742636615038
 21
32.5329593718052
 31
0.0
  0
LINE
  5
   5B5
  8
0
  6
CONTINUOUS
 62
     7
 10
222.542636978624
 20
30.5329643092243
 30
0.0
 11
222.542636978624
 21
39.326242184811
 31
0.0
  0
LINE
  5
   5B6
  8
0
  6
CONTINUOUS
 62
     7
 10
223.742636615038
 20
30.5329643092242
 30
0.0
 11
224.542636626959
 21
30.5329643092242
 31
0.0
  0
LINE
  5
   5B7
  8
0
  6
CONTINUOUS
 62
     7
 10
223.742636615038
 20
38.9329644343939
 30
0.0
 11
224.542636626959
 21
38.9329644343939
 31
0.0
  0
LINE
  5
   5B8
  8
0
  6
DASHDOT
 62
     7
 10
220.411825656487
 20
34.132959395647
 30
0.0
 11
228.979494733609
 21
34.132959395647
 31
0.0
  0
INSERT
  5
   5B9
  8
0
  6
CONTINUOUS
 62
     7
  2
*HATCH139
 10
215.342636108398
 20
57.7329597473145
 30
0.0
 41
0.400000005960464
 42
0.400000005960464
 43
0.400000005960464
  0
LINE
  5
   5BA
  8
0
  6
CONTINUOUS
 62
     7
 10
222.542636978624
 20
35.772959420085
 30
0.0
 11
224.542636626959
 21
35.772959420085
 31
0.0
  0
LINE
  5
   5BB
  8
0
  6
CONTINUOUS
 62
     7
 10
222.542636978624
 20
32.4929593712091
 30
0.0
 11
224.542636626959
 21
32.4929593712091
 31
0.0
  0
INSERT
  5
   5BC
  8
0
  6
CONTINUOUS
 62
     7
  2
*HATCH140
 10
215.342636108398
 20
57.7329597473145
 30
0.0
 41
0.400000005960464
 42
0.400000005960464
 43
0.400000005960464
  0
INSERT
  5
   5BD
  8
0
  6
CONTINUOUS
 62
     7
  2
*HATCH141
 10
215.342636108398
 20
57.7329597473145
 30
0.0
 41
0.400000005960464
 42
0.400000005960464
 43
0.400000005960464
  0
INSERT
  5
   5BE
  8
0
  6
CONTINUOUS
 62
     7
  2
*HATCH142
 10
215.342636108398
 20
57.7329597473145
 30
0.0
 41
0.400000005960464
 42
0.400000005960464
 43
0.400000005960464
  0
ARC
  5
   5BF
  8
0
  6
DASHDOT
 62
     7
 10
238.142956366327
 20
57.7329597473145
 30
0.0
 40
30.4177082930624
 50
337.492314756863
 51
360.0
  0
LINE
  5
   5C0
  8
0
  6
DASHDOT
 62
     7
 10
268.56066465939
 20
57.7329597473144
 30
0.0
 11
268.56066465939
 21
60.0330396354833
 31
0.0
  0
LINE
  5
   5C1
  8
0
  6
CONTINUOUS
 62
     7
 10
222.542636978626
 20
127.012960779667
 30
0.0
 11
224.142637002468
 21
127.012960779667
 31
0.0
  0
LINE
  5
   5C2
  8
0
  6
CONTINUOUS
 62
     7
 10
222.542636978626
 20
123.652960729599
 30
0.0
 11
224.142637002468
 21
123.652960729599
 31
0.0
  0
LINE
  5
   5C3
  8
0
  6
CONTINUOUS
 62
     1
 10
257.343104883021
 20
39.8329594805837
 30
0.0
 11
257.343104883021
 21
40.6329594925046
 31
0.0
  0
LINE
  5
   5C4
  8
0
  6
CONTINUOUS
 62
     1
 10
257.343104883021
 20
39.8329594805837
 30
0.0
 11
258.143104894942
 21
39.8329594805837
 31
0.0
  0
LINE
  5
   5C5
  8
0
  6
CONTINUOUS
 62
     1
 10
257.343104883021
 20
83.0329585984349
 30
0.0
 11
257.343104883021
 21
83.8329586103558
 31
0.0
  0
LINE
  5
   5C6
  8
0
  6
CONTINUOUS
 62
     1
 10
257.343104883021
 20
83.8329586103558
 30
0.0
 11
258.143104894942
 21
83.8329586103558
 31
0.0
  0
LINE
  5
   5C7
  8
0
  6
CONTINUOUS
 62
     1
 10
257.343104883021
 20
40.6329594925046
 30
0.0
 11
257.343104883021
 21
83.0329601243138
 31
0.0
  0
LINE
  5
   5C8
  8
0
  6
CONTINUOUS
 62
     1
 10
255.543104927724
 20
89.2638974119862
 30
0.0
 11
255.543104927724
 21
91.2020199994603
 31
0.0
  0
LINE
  5
   5C9
  8
0
  6
CONTINUOUS
 62
     1
 10
255.543104927724
 20
32.4638996173582
 30
0.0
 11
255.543104927724
 21
34.4020191530743
 31
0.0
  0
LINE
  5
   5CA
  8
0
  6
CONTINUOUS
 62
     1
 10
258.143104894942
 20
29.6329593285918
 30
0.0
 11
258.143104894942
 21
94.0329602882266
 31
0.0
  0
LINE
  5
   5CB
  8
0
  6
CONTINUOUS
 62
     1
 10
259.543104915803
 20
29.6329593285918
 30
0.0
 11
259.543104915803
 21
94.0329602882266
 31
0.0
  0
LINE
  5
   5CC
  8
0
  6
CONTINUOUS
 62
     1
 10
255.94310490124
 20
89.0329586878419
 30
0.0
 11
258.143104894942
 21
89.0329586878419
 31
0.0
  0
LINE
  5
   5CD
  8
0
  6
CONTINUOUS
 62
     1
 10
255.943104947768
 20
91.4329587236047
 30
0.0
 11
258.143104894942
 21
91.4329587236047
 31
0.0
  0
LINE
  5
   5CE
  8
0
  6
CONTINUOUS
 62
     1
 10
255.543105232162
 20
89.2638964960571
 30
0.0
 11
255.943105251293
 21
89.0329577690173
 31
0.0
  0
LINE
  5
   5CF
  8
0
  6
CONTINUOUS
 62
     1
 10
255.94310482526
 20
89.0329586878419
 30
0.0
 11
255.94310482526
 21
89.1243039040468
 31
0.0
  0
LINE
  5
   5D0
  8
0
  6
CONTINUOUS
 62
     1
 10
255.94310490124
 20
89.0329586878419
 30
0.0
 11
255.94310490124
 21
89.3844296403448
 31
0.0
  0
LINE
  5
   5D1
  8
0
  6
CONTINUOUS
 62
     1
 10
255.943104919085
 20
89.3844296403448
 30
0.0
 11
255.943104919085
 21
89.7737423902867
 31
0.0
  0
LINE
  5
   5D2
  8
0
  6
CONTINUOUS
 62
     1
 10
255.943104929004
 20
89.7737423902867
 30
0.0
 11
255.943104929004
 21
90.2329587057233
 31
0.0
  0
LINE
  5
   5D3
  8
0
  6
CONTINUOUS
 62
     1
 10
255.943104937722
 20
90.2329587057233
 30
0.0
 11
255.943104937722
 21
90.6921811246756
 31
0.0
  0
LINE
  5
   5D4
  8
0
  6
CONTINUOUS
 62
     1
 10
255.943104947768
 20
90.6921811246756
 30
0.0
 11
255.943104947768
 21
91.4329587236047
 31
0.0
  0
LINE
  5
   5D5
  8
0
  6
CONTINUOUS
 62
     1
 10
255.943104966036
 20
91.0814877711017
 30
0.0
 11
255.943104966036
 21
91.3416135073997
 31
0.0
  0
LINE
  5
   5D6
  8
0
  6
CONTINUOUS
 62
     1
 10
255.543104584852
 20
91.202019046765
 30
0.0
 11
255.943104603983
 21
91.4329577738049
 31
0.0
  0
LINE
  5
   5D7
  8
0
  6
CONTINUOUS
 62
     1
 10
255.943105044379
 20
91.3416135073997
 30
0.0
 11
255.943105044379
 21
91.4329587236046
 31
0.0
  0
LINE
  5
   5D8
  8
0
  6
CONTINUOUS
 62
     1
 10
255.943105735047
 20
34.6329594030976
 30
0.0
 11
258.143104894942
 21
34.6329594030976
 31
0.0
  0
LINE
  5
   5D9
  8
0
  6
CONTINUOUS
 62
     1
 10
255.943104261624
 20
32.2329593673348
 30
0.0
 11
258.143104894942
 21
32.2329593673348
 31
0.0
  0
LINE
  5
   5DA
  8
0
  6
CONTINUOUS
 62
     1
 10
255.943104971742
 20
34.5416141868927
 30
0.0
 11
255.943104971742
 21
34.6329594030976
 31
0.0
  0
LINE
  5
   5DB
  8
0
  6
CONTINUOUS
 62
     1
 10
255.543104723662
 20
34.4020185929736
 30
0.0
 11
255.943104742794
 21
34.6329588302201
 31
0.0
  0
LINE
  5
   5DC
  8
0
  6
CONTINUOUS
 62
     1
 10
255.943104953931
 20
34.2814869247157
 30
0.0
 11
255.943104953931
 21
34.5416141868927
 31
0.0
  0
LINE
  5
   5DD
  8
0
  6
CONTINUOUS
 62
     1
 10
255.943104949903
 20
33.8921802782896
 30
0.0
 11
255.943104949903
 21
34.2814869247157
 31
0.0
  0
LINE
  5
   5DE
  8
0
  6
CONTINUOUS
 62
     1
 10
255.943104947653
 20
33.4329593852162
 30
0.0
 11
255.943104947653
 21
33.8921802782896
 31
0.0
  0
LINE
  5
   5DF
  8
0
  6
CONTINUOUS
 62
     1
 10
255.943104945726
 20
32.9737400180218
 30
0.0
 11
255.943104945726
 21
33.4329593852162
 31
0.0
  0
LINE
  5
   5E0
  8
0
  6
CONTINUOUS
 62
     1
 10
255.943104943665
 20
32.5844318457167
 30
0.0
 11
255.943104943665
 21
32.9737400180218
 31
0.0
  0
LINE
  5
   5E1
  8
0
  6
CONTINUOUS
 62
     1
 10
255.943104939977
 20
32.3243045835397
 30
0.0
 11
255.943104939977
 21
32.5844318457167
 31
0.0
  0
LINE
  5
   5E2
  8
0
  6
CONTINUOUS
 62
     1
 10
255.943104924548
 20
32.2329593673349
 30
0.0
 11
255.943104924548
 21
32.3243045835398
 31
0.0
  0
LINE
  5
   5E3
  8
0
  6
CONTINUOUS
 62
     1
 10
255.543105092928
 20
32.4638991135817
 30
0.0
 11
255.94310511206
 21
32.2329588763352
 31
0.0
  0
LINE
  5
   5E4
  8
0
  6
CONTINUOUS
 62
     7
 10
258.143104894942
 20
94.0329602882266
 30
0.0
 11
258.143104894942
 21
139.230707740182
 31
0.0
  0
LINE
  5
   5E5
  8
0
  6
CONTINUOUS
 62
     7
 10
257.343104883021
 20
83.0329601243138
 30
0.0
 11
257.343104883021
 21
89.0329586878419
 31
0.0
  0
LINE
  5
   5E6
  8
0
  6
CONTINUOUS
 62
     7
 10
258.143104894942
 20
11.2438105613945
 30
0.0
 11
258.143104894942
 21
29.6329593285918
 31
0.0
  0
LINE
  5
   5E7
  8
0
  6
CONTINUOUS
 62
     7
 10
257.343104883021
 20
10.6681096182365
 30
0.0
 11
257.343104883021
 21
32.2329593673348
 31
0.0
  0
LINE
  5
   5E8
  8
0
  6
CONTINUOUS
 62
     3
 10
255.835040098312
 20
9.58286673578226
 30
0.0
 11
259.724608370485
 21
12.381901847533
 31
0.0
  0
LINE
  5
   5E9
  8
0
  6
CONTINUOUS
 62
     7
 10
257.343104883021
 20
91.6329587265849
 30
0.0
 11
258.143104894942
 21
91.6329587265849
 31
0.0
  0
LINE
  5
   5EA
  8
0
  6
CONTINUOUS
 62
     7
 10
257.343104883021
 20
88.8329586848616
 30
0.0
 11
258.143104894942
 21
88.8329586848616
 31
0.0
  0
LINE
  5
   5EB
  8
0
  6
CONTINUOUS
 62
     7
 10
257.343104883021
 20
84.2329586163163
 30
0.0
 11
258.143104894942
 21
84.2329586163163
 31
0.0
  0
LINE
  5
   5EC
  8
0
  6
CONTINUOUS
 62
     7
 10
257.343104883021
 20
39.4329594746232
 30
0.0
 11
258.143104894942
 21
39.4329594746232
 31
0.0
  0
LINE
  5
   5ED
  8
0
  6
CONTINUOUS
 62
     7
 10
257.343104883021
 20
34.8329594060779
 30
0.0
 11
258.143104894942
 21
34.8329594060779
 31
0.0
  0
LINE
  5
   5EE
  8
0
  6
CONTINUOUS
 62
     7
 10
257.343104883021
 20
32.0329593643546
 30
0.0
 11
258.143104894942
 21
32.0329593643546
 31
0.0
  0
LINE
  5
   5EF
  8
0
  6
CONTINUOUS
 62
     7
 10
257.343104883021
 20
34.6329594030976
 30
0.0
 11
257.343104883021
 21
39.8329594805837
 31
0.0
  0
LINE
  5
   5F0
  8
0
  6
CONTINUOUS
 62
     7
 10
257.343104883021
 20
91.4329587236047
 30
0.0
 11
257.343104883021
 21
139.307866304508
 31
0.0
  0
INSERT
  5
   5F1
  8
0
  6
CONTINUOUS
 62
     7
  2
*HATCH143
 10
215.342636108398
 20
57.7329597473145
 30
0.0
 41
0.400000005960464
 42
0.400000005960464
 43
0.400000005960464
  0
INSERT
  5
   5F2
  8
0
  6
CONTINUOUS
 62
     7
  2
*HATCH144
 10
215.342636108398
 20
57.7329597473145
 30
0.0
 41
0.400000005960464
 42
0.400000005960464
 43
0.400000005960464
  0
INSERT
  5
   5F3
  8
0
  6
CONTINUOUS
 62
     7
  2
*HATCH145
 10
215.342636108398
 20
57.7329597473145
 30
0.0
 41
0.400000005960464
 42
0.400000005960464
 43
0.400000005960464
  0
LINE
  5
   5F4
  8
0
  6
DASHDOT
 62
     7
 10
206.27115679509
 20
61.8329598084092
 30
0.0
 11
271.025297065586
 21
61.8329598084092
 31
0.0
  0
LINE
  5
   5F5
  8
0
  6
CONTINUOUS
 62
     3
 10
234.081517503628
 20
39.326242184811
 30
0.0
 11
235.654193338158
 21
26.3254552860288
 31
0.0
  0
INSERT
  5
   5F6
  8
0
  6
CONTINUOUS
 62
     7
  2
*HATCH146
 10
215.342636108398
 20
57.7329597473145
 30
0.0
 41
0.400000005960464
 42
0.400000005960464
 43
0.400000005960464
  0
LINE
  5
   5F7
  8
0
  6
CONTINUOUS
 62
     7
 10
215.342636871338
 20
28.7329642824022
 30
0.0
 11
215.942636880277
 21
28.7329642824022
 31
0.0
  0
LINE
  5
   5F8
  8
0
  6
CONTINUOUS
 62
     3
 10
241.056184804292
 20
121.943126349019
 30
0.0
 11
241.596664862415
 21
131.953756990771
 31
0.0
  0
LINE
  5
   5F9
  8
0
  6
CONTINUOUS
 62
     3
 10
215.074268948045
 20
121.0363211867
 30
0.0
 11
229.536042063153
 21
121.0363211867
 31
0.0
  0
LINE
  5
   5FA
  8
0
  6
CONTINUOUS
 62
     3
 10
229.536042063153
 20
121.0363211867
 30
0.0
 11
229.536042063153
 21
121.943126349019
 31
0.0
  0
LINE
  5
   5FB
  8
0
  6
CONTINUOUS
 62
     7
 10
224.542636626959
 20
30.5329643092242
 30
0.0
 11
224.542636626959
 21
32.5329593718052
 31
0.0
  0
LINE
  5
   5FC
  8
0
  6
CONTINUOUS
 62
     7
 10
222.542636978626
 20
127.932960602641
 30
0.0
 11
222.542636978626
 21
128.932960808277
 31
0.0
  0
LINE
  5
   5FD
  8
0
  6
CONTINUOUS
 62
     2
 10
223.342636990547
 20
130.732960293407
 30
0.0
 11
223.342636990547
 21
131.332960302348
 31
0.0
  0
LINE
  5
   5FE
  8
0
  6
CONTINUOUS
 62
     2
 10
222.142636972666
 20
130.732960293369
 30
0.0
 11
223.342636990547
 21
130.732960293369
 31
0.0
  0
LINE
  5
   5FF
  8
0
  6
CONTINUOUS
 62
     2
 10
222.142636972666
 20
131.732960277796
 30
0.0
 11
222.942636984587
 21
131.732960277796
 31
0.0
  0
LINE
  5
   600
  8
0
  6
CONTINUOUS
 62
     2
 10
215.942636880279
 20
121.332959932089
 30
0.0
 11
216.542636889219
 21
121.332959932089
 31
0.0
  0
LINE
  5
   601
  8
0
  6
CONTINUOUS
 62
     2
 10
215.942636880279
 20
131.732960277796
 30
0.0
 11
222.142636972666
 21
131.732960277796
 31
0.0
  0
LINE
  5
   602
  8
0
  6
CONTINUOUS
 62
     2
 10
215.942636880279
 20
121.332960122824
 30
0.0
 11
215.942636880279
 21
131.732960277796
 31
0.0
  0
LINE
  5
   603
  8
0
  6
CONTINUOUS
 62
     2
 10
222.142636972666
 20
130.732960293394
 30
0.0
 11
222.142636972666
 21
131.732960308295
 31
0.0
  0
LINE
  5
   604
  8
0
  6
CONTINUOUS
 62
     2
 10
221.908322241391
 20
129.452960320115
 30
0.0
 11
222.142636972666
 21
129.452960320115
 31
0.0
  0
LINE
  5
   605
  8
0
  6
CONTINUOUS
 62
     2
 10
222.142636972666
 20
128.732960614562
 30
0.0
 11
222.142636972666
 21
130.732960262895
 31
0.0
  0
LINE
  5
   606
  8
0
  6
CONTINUOUS
 62
     2
 10
221.475402923417
 20
129.612960265279
 30
0.0
 11
221.748322391595
 21
129.612960265279
 31
0.0
  0
LINE
  5
   607
  8
0
  6
CONTINUOUS
 62
     2
 10
221.748322670415
 20
129.612960127827
 30
0.0
 11
221.908322518966
 21
129.452960184868
 31
0.0
  0
LINE
  5
   608
  8
0
  6
CONTINUOUS
 62
     2
 10
216.54263690564
 20
121.332960053532
 30
0.0
 11
222.142636939131
 21
130.732959969996
 31
0.0
  0
LINE
  5
   609
  8
0
  6
CONTINUOUS
 62
     2
 10
222.342636975646
 20
121.932960703969
 30
0.0
 11
222.342636975646
 21
128.732960805297
 31
0.0
  0
LINE
  5
   60A
  8
0
  6
CONTINUOUS
 62
     2
 10
222.942637272461
 20
131.732960215214
 30
0.0
 11
223.34263726473
 21
131.332960256663
 31
0.0
  0
LINE
  5
   60B
  8
0
  6
CONTINUOUS
 62
   210
 10
222.542636978626
 20
122.73296071589
 30
0.0
 11
222.542636978626
 21
127.932960793376
 31
0.0
  0
LINE
  5
   60C
  8
0
  6
CONTINUOUS
 62
     2
 10
215.942636880279
 20
131.332960319519
 30
0.0
 11
222.142636972666
 21
131.332960319519
 31
0.0
  0
LINE
  5
   60D
  8
0
  6
CONTINUOUS
 62
     2
 10
215.942636880279
 20
121.732959938049
 30
0.0
 11
216.780934736703
 21
121.732959938049
 31
0.0
  0
LINE
  5
   60E
  8
0
  6
CONTINUOUS
 62
     2
 10
216.900084137283
 20
121.932960703969
 30
0.0
 11
222.342637166381
 21
121.932960703969
 31
0.0
  0
LINE
  5
   60F
  8
0
  6
CONTINUOUS
 62
     2
 10
220.951147544511
 20
128.732960614562
 30
0.0
 11
222.342636975646
 21
128.732960614562
 31
0.0
  0
LINE
  5
   610
  8
0
  6
CONTINUOUS
 62
   210
 10
222.342636975646
 20
127.932960602641
 30
0.0
 11
222.542636978626
 21
127.932960602641
 31
0.0
  0
LINE
  5
   611
  8
0
  6
CONTINUOUS
 62
   210
 10
222.342636975646
 20
122.73296071589
 30
0.0
 11
222.542636978626
 21
122.73296071589
 31
0.0
  0
INSERT
  5
   612
  8
0
  6
CONTINUOUS
 62
     2
  2
*HATCH147
 10
215.342636108398
 20
57.7329597473145
 30
0.0
 41
0.400000005960464
 42
0.400000005960464
 43
0.400000005960464
  0
LINE
  5
   613
  8
0
  6
CONTINUOUS
 62
     7
 10
226.942637044191
 20
121.732960700989
 30
0.0
 11
226.942637044191
 21
128.932960808277
 31
0.0
  0
LINE
  5
   614
  8
0
  6
CONTINUOUS
 62
     7
 10
226.542637038231
 20
128.932960808277
 30
0.0
 11
226.942637044191
 21
128.932960808277
 31
0.0
  0
LINE
  5
   615
  8
0
  6
CONTINUOUS
 62
     7
 10
226.542637038231
 20
121.732960700989
 30
0.0
 11
226.942637044191
 21
121.732960700989
 31
0.0
  0
LINE
  5
   616
  8
0
  6
CONTINUOUS
 62
     2
 10
223.342636990545
 20
28.132959847932
 30
0.0
 11
223.342636990545
 21
28.7329598568727
 31
0.0
  0
LINE
  5
   617
  8
0
  6
CONTINUOUS
 62
     2
 10
222.142636972664
 20
28.7329598569109
 30
0.0
 11
223.342636990545
 21
28.7329598569109
 31
0.0
  0
LINE
  5
   618
  8
0
  6
CONTINUOUS
 62
     2
 10
222.142636972664
 20
27.7329598724842
 30
0.0
 11
222.942636984585
 21
27.7329598724842
 31
0.0
  0
LINE
  5
   619
  8
0
  6
CONTINUOUS
 62
     2
 10
215.942636880277
 20
38.1329602181912
 30
0.0
 11
216.542636889217
 21
38.1329602181912
 31
0.0
  0
LINE
  5
   61A
  8
0
  6
CONTINUOUS
 62
     2
 10
215.942636880277
 20
27.7329598724842
 30
0.0
 11
222.142636972664
 21
27.7329598724842
 31
0.0
  0
LINE
  5
   61B
  8
0
  6
CONTINUOUS
 62
     2
 10
215.942636880277
 20
27.7329598724842
 30
0.0
 11
215.942636880277
 21
38.1329600274563
 31
0.0
  0
LINE
  5
   61C
  8
0
  6
CONTINUOUS
 62
     2
 10
222.142636972664
 20
27.7329598419847
 30
0.0
 11
222.142636972664
 21
28.7329598568859
 31
0.0
  0
LINE
  5
   61D
  8
0
  6
CONTINUOUS
 62
     2
 10
221.908322241389
 20
30.0129598301649
 30
0.0
 11
222.142636972664
 21
30.0129598301649
 31
0.0
  0
LINE
  5
   61E
  8
0
  6
CONTINUOUS
 62
     2
 10
222.142636972664
 20
28.7329598873854
 30
0.0
 11
222.142636972664
 21
30.732959535718
 31
0.0
  0
LINE
  5
   61F
  8
0
  6
CONTINUOUS
 62
     2
 10
221.475402923415
 20
29.8529598850012
 30
0.0
 11
221.748322391593
 21
29.8529598850012
 31
0.0
  0
LINE
  5
   620
  8
0
  6
CONTINUOUS
 62
     2
 10
221.748322670413
 20
29.8529600224526
 30
0.0
 11
221.908322518964
 21
30.0129599654123
 31
0.0
  0
LINE
  5
   621
  8
0
  6
CONTINUOUS
 62
     2
 10
216.542636905638
 20
38.1329600967479
 30
0.0
 11
222.142636939129
 21
28.7329601802837
 31
0.0
  0
LINE
  5
   622
  8
0
  6
CONTINUOUS
 62
     2
 10
222.342636975644
 20
30.7329593449831
 30
0.0
 11
222.342636975644
 21
37.532959446311
 31
0.0
  0
LINE
  5
   623
  8
0
  6
CONTINUOUS
 62
     2
 10
222.942637272459
 20
27.7329599350657
 30
0.0
 11
223.342637264728
 21
28.1329598936173
 31
0.0
  0
LINE
  5
   624
  8
0
  6
CONTINUOUS
 62
   210
 10
222.542636978624
 20
31.532959356904
 30
0.0
 11
222.542636978624
 21
36.7329594343901
 31
0.0
  0
LINE
  5
   625
  8
0
  6
CONTINUOUS
 62
     2
 10
215.942636880277
 20
28.132959830761
 30
0.0
 11
222.142636972664
 21
28.132959830761
 31
0.0
  0
LINE
  5
   626
  8
0
  6
CONTINUOUS
 62
     2
 10
215.942636880277
 20
37.7329602122307
 30
0.0
 11
216.780934736701
 21
37.7329602122307
 31
0.0
  0
LINE
  5
   627
  8
0
  6
CONTINUOUS
 62
     2
 10
216.900084137281
 20
37.532959446311
 30
0.0
 11
222.342637166379
 21
37.532959446311
 31
0.0
  0
LINE
  5
   628
  8
0
  6
CONTINUOUS
 62
     2
 10
220.951147544509
 20
30.732959535718
 30
0.0
 11
222.342636975644
 21
30.732959535718
 31
0.0
  0
LINE
  5
   629
  8
0
  6
CONTINUOUS
 62
   210
 10
222.342636975644
 20
31.5329595476389
 30
0.0
 11
222.542636978624
 21
31.5329595476389
 31
0.0
  0
LINE
  5
   62A
  8
0
  6
CONTINUOUS
 62
   210
 10
222.342636975644
 20
36.7329594343901
 30
0.0
 11
222.542636978624
 21
36.7329594343901
 31
0.0
  0
LINE
  5
   62B
  8
0
  6
CONTINUOUS
 62
     7
 10
226.542637038231
 20
30.5329593420029
 30
0.0
 11
226.942637044191
 21
30.5329593420029
 31
0.0
  0
LINE
  5
   62C
  8
0
  6
CONTINUOUS
 62
     7
 10
226.942637044191
 20
30.5329593420029
 30
0.0
 11
226.942637044191
 21
37.7329594492912
 31
0.0
  0
LINE
  5
   62D
  8
0
  6
CONTINUOUS
 62
     7
 10
226.542637038231
 20
37.7329594492912
 30
0.0
 11
226.942637044191
 21
37.7329594492912
 31
0.0
  0
LINE
  5
   62E
  8
0
  6
CONTINUOUS
 62
     7
 10
226.542637038231
 20
30.5329593420029
 30
0.0
 11
226.542637038231
 21
37.7329594492912
 31
0.0
  0
LINE
  5
   62F
  8
0
  6
CONTINUOUS
 62
     7
 10
224.542636626959
 20
35.7329594194889
 30
0.0
 11
224.542636626959
 21
38.9329644343939
 31
0.0
  0
LINE
  5
   630
  8
0
  6
CONTINUOUS
 62
     7
 10
223.742636615038
 20
35.7329594194889
 30
0.0
 11
223.742636615038
 21
39.326242184811
 31
0.0
  0
LINE
  5
   631
  8
0
  6
CONTINUOUS
 62
     1
 10
227.102637046576
 20
31.2569593527913
 30
0.0
 11
227.102637046576
 21
37.0089594385028
 31
0.0
  0
ARC
  5
   632
  8
0
  6
CONTINUOUS
 62
     1
 10
228.044102812249
 20
31.9759593635052
 30
0.0
 40
1.09853426472474
 50
319.1176078909
 51
400.8823921091
  0
ARC
  5
   633
  8
0
  6
CONTINUOUS
 62
     1
 10
228.044102812249
 20
36.2899594277889
 30
0.0
 40
1.09853426472474
 50
319.1176078909
 51
400.8823921091
  0
LINE
  5
   634
  8
0
  6
CONTINUOUS
 62
     1
 10
227.102637046576
 20
32.6949593742192
 30
0.0
 11
228.895915278683
 21
32.6949593742192
 31
0.0
  0
ARC
  5
   635
  8
0
  6
CONTINUOUS
 62
     1
 10
224.82863701269
 20
34.132959395647
 30
0.0
 40
4.31400006428361
 50
340.528779365509
 51
379.471220634491
  0
LINE
  5
   636
  8
0
  6
CONTINUOUS
 62
     1
 10
227.102637046576
 20
35.5709594170749
 30
0.0
 11
228.895915278683
 21
35.5709594170749
 31
0.0
  0
LINE
  5
   637
  8
0
  6
CONTINUOUS
 62
     1
 10
227.102637046576
 20
31.2569593527913
 30
0.0
 11
228.874654746428
 21
31.2569593527913
 31
0.0
  0
LINE
  5
   638
  8
0
  6
CONTINUOUS
 62
     1
 10
227.102637046576
 20
37.0089594385028
 30
0.0
 11
228.874654746428
 21
37.0089594385028
 31
0.0
  0
LINE
  5
   639
  8
0
  6
CONTINUOUS
 62
     1
 10
226.942637044191
 20
31.6929593592882
 30
0.0
 11
227.102637046576
 21
31.6929593592882
 31
0.0
  0
LINE
  5
   63A
  8
0
  6
CONTINUOUS
 62
     1
 10
226.942637044191
 20
36.5729594320059
 30
0.0
 11
227.102637046576
 21
36.5729594320059
 31
0.0
  0
LINE
  5
   63B
  8
0
  6
CONTINUOUS
 62
     7
 10
222.542636978624
 20
32.8396743763756
 30
0.0
 11
225.94263702929
 21
32.8396743763756
 31
0.0
  0
LINE
  5
   63C
  8
0
  6
CONTINUOUS
 62
     7
 10
222.542636978624
 20
35.4262444149185
 30
0.0
 11
225.94263702929
 21
35.4262444149185
 31
0.0
  0
LINE
  5
   63D
  8
0
  6
CONTINUOUS
 62
     1
 10
222.542636978624
 20
35.7329594194889
 30
0.0
 11
226.542637038231
 21
35.7329594194889
 31
0.0
  0
LINE
  5
   63E
  8
0
  6
CONTINUOUS
 62
     1
 10
222.542636978624
 20
32.5329593718052
 30
0.0
 11
226.542637038231
 21
32.5329593718052
 31
0.0
  0
LINE
  5
   63F
  8
0
  6
CONTINUOUS
 62
     1
 10
225.94263702929
 20
32.5329593718052
 30
0.0
 11
225.94263702929
 21
35.7329594194889
 31
0.0
  0
LINE
  5
   640
  8
0
  6
CONTINUOUS
 62
     1
 10
226.942637044191
 20
31.6929593592882
 30
0.0
 11
226.942637044191
 21
36.5729594320059
 31
0.0
  0
LINE
  5
   641
  8
0
  6
CONTINUOUS
 62
     1
 10
229.142637076974
 20
31.9759593635052
 30
0.0
 11
229.142637076974
 21
36.2899594277889
 31
0.0
  0
LINE
  5
   642
  8
0
  6
DASHDOT
 62
     7
 10
221.342636960745
 20
34.132959395647
 30
0.0
 11
230.742637100816
 21
34.132959395647
 31
0.0
  0
LINE
  5
   643
  8
0
  6
CONTINUOUS
 62
     1
 10
227.102637046576
 20
122.456960711777
 30
0.0
 11
227.102637046576
 21
128.208960797489
 31
0.0
  0
ARC
  5
   644
  8
0
  6
CONTINUOUS
 62
     1
 10
228.044102812249
 20
123.175960722491
 30
0.0
 40
1.09853426472474
 50
319.1176078909
 51
400.8823921091
  0
ARC
  5
   645
  8
0
  6
CONTINUOUS
 62
     1
 10
228.044102812249
 20
127.489960786775
 30
0.0
 40
1.09853426472474
 50
319.1176078909
 51
400.8823921091
  0
LINE
  5
   646
  8
0
  6
CONTINUOUS
 62
     1
 10
227.102637046576
 20
123.894960733205
 30
0.0
 11
228.895915278683
 21
123.894960733205
 31
0.0
  0
ARC
  5
   647
  8
0
  6
CONTINUOUS
 62
     1
 10
224.82863701269
 20
125.332960754633
 30
0.0
 40
4.31400006428361
 50
340.528779365509
 51
379.471220634491
  0
LINE
  5
   648
  8
0
  6
CONTINUOUS
 62
     1
 10
227.102637046576
 20
126.770960776061
 30
0.0
 11
228.895915278683
 21
126.770960776061
 31
0.0
  0
LINE
  5
   649
  8
0
  6
CONTINUOUS
 62
     1
 10
227.102637046576
 20
122.456960711777
 30
0.0
 11
228.874654746428
 21
122.456960711777
 31
0.0
  0
LINE
  5
   64A
  8
0
  6
CONTINUOUS
 62
     1
 10
227.102637046576
 20
128.208960797489
 30
0.0
 11
228.874654746428
 21
128.208960797489
 31
0.0
  0
LINE
  5
   64B
  8
0
  6
CONTINUOUS
 62
     1
 10
226.942637044191
 20
122.892960718274
 30
0.0
 11
227.102637046576
 21
122.892960718274
 31
0.0
  0
LINE
  5
   64C
  8
0
  6
CONTINUOUS
 62
     1
 10
226.942637044191
 20
127.772960790992
 30
0.0
 11
227.102637046576
 21
127.772960790992
 31
0.0
  0
LINE
  5
   64D
  8
0
  6
CONTINUOUS
 62
     7
 10
222.142636972666
 20
124.039675735361
 30
0.0
 11
225.54263702333
 21
124.039675735361
 31
0.0
  0
LINE
  5
   64E
  8
0
  6
CONTINUOUS
 62
     7
 10
222.142636972666
 20
126.626245773904
 30
0.0
 11
225.54263702333
 21
126.626245773904
 31
0.0
  0
LINE
  5
   64F
  8
0
  6
CONTINUOUS
 62
     1
 10
222.542636978626
 20
126.932960778475
 30
0.0
 11
226.542637038231
 21
126.932960778475
 31
0.0
  0
LINE
  5
   650
  8
0
  6
CONTINUOUS
 62
     1
 10
222.542636978626
 20
123.732960730791
 30
0.0
 11
226.542637038231
 21
123.732960730791
 31
0.0
  0
LINE
  5
   651
  8
0
  6
CONTINUOUS
 62
     1
 10
225.54263702333
 20
123.732960730791
 30
0.0
 11
225.54263702333
 21
126.932960778475
 31
0.0
  0
LINE
  5
   652
  8
0
  6
CONTINUOUS
 62
     1
 10
226.942637044191
 20
122.892960718274
 30
0.0
 11
226.942637044191
 21
127.772960790992
 31
0.0
  0
LINE
  5
   653
  8
0
  6
CONTINUOUS
 62
     1
 10
229.142637076974
 20
123.175960722491
 30
0.0
 11
229.142637076974
 21
127.489960786775
 31
0.0
  0
LINE
  5
   654
  8
0
  6
DASHDOT
 62
     7
 10
221.342636960745
 20
125.332960754633
 30
0.0
 11
230.742637100816
 21
125.332960754633
 31
0.0
  0
LINE
  5
   655
  8
0
  6
DASHDOT
 62
     7
 10
207.048731356575
 20
124.532960742712
 30
0.0
 11
216.432853809109
 21
124.532960742712
 31
0.0
  0
LINE
  5
   656
  8
0
  6
CONTINUOUS
 62
     7
 10
211.742636817694
 20
122.93296071887
 30
0.0
 11
211.742636817694
 21
126.132960766554
 31
0.0
  0
LINE
  5
   657
  8
0
  6
CONTINUOUS
 62
     7
 10
211.742636817694
 20
122.93296071887
 30
0.0
 11
213.342636841536
 21
122.93296071887
 31
0.0
  0
LINE
  5
   658
  8
0
  6
CONTINUOUS
 62
     7
 10
211.742636817694
 20
126.132960766554
 30
0.0
 11
213.342636841536
 21
126.132960766554
 31
0.0
  0
LINE
  5
   659
  8
0
  6
CONTINUOUS
 62
     7
 10
210.142636793852
 20
123.532960727811
 30
0.0
 11
210.142636793852
 21
125.532960757613
 31
0.0
  0
LINE
  5
   65A
  8
0
  6
CONTINUOUS
 62
     7
 10
210.142636793852
 20
125.532960757613
 30
0.0
 11
213.342636841536
 21
125.532960757613
 31
0.0
  0
LINE
  5
   65B
  8
0
  6
CONTINUOUS
 62
     7
 10
210.142636793852
 20
123.532960727811
 30
0.0
 11
213.342636841536
 21
123.532960727811
 31
0.0
  0
LINE
  5
   65C
  8
0
  6
CONTINUOUS
 62
     7
 10
211.742636817694
 20
36.5329594314098
 30
0.0
 11
213.342636841536
 21
36.5329594314098
 31
0.0
  0
LINE
  5
   65D
  8
0
  6
CONTINUOUS
 62
     7
 10
210.142636793852
 20
35.9329594224691
 30
0.0
 11
213.342636841536
 21
35.9329594224691
 31
0.0
  0
LINE
  5
   65E
  8
0
  6
DASHDOT
 62
     7
 10
207.048731356575
 20
34.932959407568
 30
0.0
 11
216.432853809109
 21
34.932959407568
 31
0.0
  0
LINE
  5
   65F
  8
0
  6
CONTINUOUS
 62
     7
 10
210.142636793852
 20
33.9329593926668
 30
0.0
 11
213.342636841536
 21
33.9329593926668
 31
0.0
  0
LINE
  5
   660
  8
0
  6
CONTINUOUS
 62
     7
 10
211.742636817694
 20
33.3329593837261
 30
0.0
 11
213.342636841536
 21
33.3329593837261
 31
0.0
  0
LINE
  5
   661
  8
0
  6
CONTINUOUS
 62
     7
 10
211.742636817694
 20
33.3329593837261
 30
0.0
 11
211.742636817694
 21
36.5329594314098
 31
0.0
  0
LINE
  5
   662
  8
0
  6
CONTINUOUS
 62
     7
 10
210.142636793852
 20
33.9329593926668
 30
0.0
 11
210.142636793852
 21
35.9329594224691
 31
0.0
  0
LINE
  5
   663
  8
0
  6
CONTINUOUS
 62
     1
 10
258.143104894942
 20
94.0329602882266
 30
0.0
 11
259.543104915803
 21
94.0329602882266
 31
0.0
  0
LINE
  5
   664
  8
0
  6
CONTINUOUS
 62
     1
 10
258.143104894942
 20
29.6329593285918
 30
0.0
 11
259.543104915803
 21
29.6329593285918
 31
0.0
  0
LINE
  5
   665
  8
0
  6
CONTINUOUS
 62
     3
 10
229.536042063153
 20
121.943126349019
 30
0.0
 11
241.056184804292
 21
121.943126349019
 31
0.0
  0
INSERT
  5
   666
  8
0
  6
CONTINUOUS
 62
     7
  2
*HATCH148
 10
215.342636108398
 20
57.7329597473145
 30
0.0
 41
0.400000005960464
 42
0.400000005960464
 43
0.400000005960464
  0
INSERT
  5
   667
  8
0
  6
CONTINUOUS
 62
     7
  2
*HATCH149
 10
215.342636108398
 20
57.7329597473145
 30
0.0
 41
0.400000005960464
 42
0.400000005960464
 43
0.400000005960464
  0
LINE
  5
   668
  8
0
  6
CONTINUOUS
 62
     3
 10
255.02958090861
 20
139.531001536684
 30
0.0
 11
260.67427332971
 21
138.986581090701
 31
0.0
  0
INSERT
  5
   669
  8
0
  6
CONTINUOUS
 62
     7
  2
*HATCH150
 10
215.342636108398
 20
57.7329597473145
 30
0.0
 41
0.400000005960464
 42
0.400000005960464
 43
0.400000005960464
  0
LINE
  5
   66A
  8
0
  6
CONTINUOUS
 62
   130
 10
241.463805172798
 20
129.492964478731
 30
0.0
 11
244.142637300491
 21
129.492964478731
 31
0.0
  0
LINE
  5
   66B
  8
0
  6
CONTINUOUS
 62
   130
 10
244.142637300491
 20
124.012965617776
 30
0.0
 11
244.142637300491
 21
129.732965787419
 31
0.0
  0
LINE
  5
   66C
  8
0
  6
CONTINUOUS
 62
   130
 10
244.142637300491
 20
95.73296528078
 30
0.0
 11
244.142637300491
 21
97.213068978192
 31
0.0
  0
LINE
  5
   66D
  8
0
  6
CONTINUOUS
 62
   130
 10
215.342636871338
 20
95.73296528078
 30
0.0
 11
215.342636871338
 21
131.732965817222
 31
0.0
  0
LINE
  5
   66E
  8
0
  6
CONTINUOUS
 62
   130
 10
215.342636871338
 20
117.012965513468
 30
0.0
 11
216.94263689518
 21
117.012965513468
 31
0.0
  0
LINE
  5
   66F
  8
0
  6
CONTINUOUS
 62
   130
 10
216.94263689518
 20
117.012965513468
 30
0.0
 11
216.94263689518
 21
121.0363211867
 31
0.0
  0
LINE
  5
   670
  8
0
  6
CONTINUOUS
 62
   130
 10
242.74263727963
 20
121.212965576053
 30
0.0
 11
242.782636669874
 21
121.212965576053
 31
0.0
  0
LINE
  5
   671
  8
0
  6
CONTINUOUS
 62
   130
 10
242.74263727963
 20
124.012965617776
 30
0.0
 11
244.142637300491
 21
124.012965617776
 31
0.0
  0
LINE
  5
   672
  8
0
  6
CONTINUOUS
 62
   130
 10
242.74263727963
 20
97.2130018395192
 30
0.0
 11
244.142637300491
 21
97.2130018395192
 31
0.0
  0
LINE
  5
   673
  8
0
  6
CONTINUOUS
 62
   130
 10
242.74263727963
 20
100.013001881242
 30
0.0
 11
242.782636669874
 21
100.013001881242
 31
0.0
  0
LINE
  5
   674
  8
0
  6
CONTINUOUS
 62
   130
 10
242.74263727963
 20
97.2130018395192
 30
0.0
 11
242.74263727963
 21
124.012965617776
 31
0.0
  0
LINE
  5
   675
  8
0
  6
CONTINUOUS
 62
   130
 10
214.542636859438
 20
122.75836745455
 30
0.0
 11
214.542636859438
 21
126.308965651989
 31
0.0
  0
LINE
  5
   676
  8
0
  6
CONTINUOUS
 62
   210
 10
244.142637300491
 20
129.492964478731
 30
0.0
 11
253.022636212111
 21
129.492964478731
 31
0.0
  0
LINE
  5
   677
  8
0
  6
CONTINUOUS
 62
   210
 10
244.142637300491
 20
97.2130018395192
 30
0.0
 11
244.142637300491
 21
97.312965219915
 31
0.0
  0
LINE
  5
   678
  8
0
  6
CONTINUOUS
 62
   210
 10
244.142637300491
 20
123.912965616286
 30
0.0
 11
244.142637300491
 21
124.012965617776
 31
0.0
  0
LINE
  5
   679
  8
0
  6
CONTINUOUS
 62
   210
 10
253.022636212111
 20
100.112965261638
 30
0.0
 11
253.142637434602
 21
100.112965261638
 31
0.0
  0
LINE
  5
   67A
  8
0
  6
CONTINUOUS
 62
   210
 10
253.022636212111
 20
97.1129652169348
 30
0.0
 11
253.142637434602
 21
97.1129652169348
 31
0.0
  0
LINE
  5
   67B
  8
0
  6
CONTINUOUS
 62
   210
 10
253.022636212111
 20
96.6129652094842
 30
0.0
 11
253.142637434602
 21
96.6129652094842
 31
0.0
  0
LINE
  5
   67C
  8
0
  6
CONTINUOUS
 62
   210
 10
253.022636212111
 20
96.7329652956811
 30
0.0
 11
253.022636212111
 21
129.492964478731
 31
0.0
  0
LINE
  5
   67D
  8
0
  6
CONTINUOUS
 62
   210
 10
242.982636672854
 20
97.312965219915
 30
0.0
 11
244.142637300491
 21
97.312965219915
 31
0.0
  0
LINE
  5
   67E
  8
0
  6
CONTINUOUS
 62
   210
 10
242.841215872018
 20
97.3715485002695
 30
0.0
 11
242.982637385636
 21
97.3129669561242
 31
0.0
  0
LINE
  5
   67F
  8
0
  6
CONTINUOUS
 62
   210
 10
242.782636261633
 20
97.5129592270897
 30
0.0
 11
242.841214753803
 21
97.3715407715426
 31
0.0
  0
LINE
  5
   680
  8
0
  6
CONTINUOUS
 62
   210
 10
242.782636669874
 20
97.5129652228952
 30
0.0
 11
242.782636669874
 21
99.7129652556778
 31
0.0
  0
LINE
  5
   681
  8
0
  6
CONTINUOUS
 62
   210
 10
242.782636669874
 20
121.512965580523
 30
0.0
 11
242.782636669874
 21
123.712965613306
 31
0.0
  0
LINE
  5
   682
  8
0
  6
CONTINUOUS
 62
   210
 10
242.782633302446
 20
123.712956116315
 30
0.0
 11
242.841211794617
 21
123.854374571862
 31
0.0
  0
LINE
  5
   683
  8
0
  6
CONTINUOUS
 62
   210
 10
242.841217335055
 20
123.85438707992
 30
0.0
 11
242.982638848672
 21
123.912968624066
 31
0.0
  0
LINE
  5
   684
  8
0
  6
CONTINUOUS
 62
   210
 10
242.982636672854
 20
123.912965616286
 30
0.0
 11
244.142637300491
 21
123.912965616286
 31
0.0
  0
LINE
  5
   685
  8
0
  6
CONTINUOUS
 62
   210
 10
242.782636669874
 20
99.7129652556778
 30
0.0
 11
242.782636669874
 21
121.512965580523
 31
0.0
  0
LINE
  5
   686
  8
0
  6
CONTINUOUS
 62
     2
 10
253.142637434602
 20
87.1329650682212
 30
0.0
 11
253.142637434602
 21
120.93296557188
 31
0.0
  0
LINE
  5
   687
  8
0
  6
CONTINUOUS
 62
     2
 10
255.142637464404
 20
87.5329650741816
 30
0.0
 11
255.142637464404
 21
115.532965491414
 31
0.0
  0
LINE
  5
   688
  8
0
  6
CONTINUOUS
 62
     2
 10
255.142637464404
 20
115.932965497375
 30
0.0
 11
255.142637464404
 21
120.93296557188
 31
0.0
  0
LINE
  5
   689
  8
0
  6
CONTINUOUS
 62
     2
 10
253.142637434602
 20
120.93296557188
 30
0.0
 11
254.142637449503
 21
120.93296557188
 31
0.0
  0
LINE
  5
   68A
  8
0
  6
CONTINUOUS
 62
     2
 10
253.142637434602
 20
87.1329650682212
 30
0.0
 11
254.742637458444
 21
87.1329650682212
 31
0.0
  0
LINE
  5
   68B
  8
0
  6
CONTINUOUS
 62
     2
 10
254.742637458444
 20
115.932965497375
 30
0.0
 11
255.142637464404
 21
115.932965497375
 31
0.0
  0
LINE
  5
   68C
  8
0
  6
CONTINUOUS
 62
     2
 10
254.742637458444
 20
115.532965491414
 30
0.0
 11
255.142637464404
 21
115.532965491414
 31
0.0
  0
LINE
  5
   68D
  8
0
  6
CONTINUOUS
 62
     2
 10
254.742637458444
 20
115.532965491414
 30
0.0
 11
254.742637458444
 21
115.932965497375
 31
0.0
  0
LINE
  5
   68E
  8
0
  6
CONTINUOUS
 62
     2
 10
254.742637458444
 20
87.1329650682212
 30
0.0
 11
254.742637458444
 21
87.5329650741816
 31
0.0
  0
LINE
  5
   68F
  8
0
  6
CONTINUOUS
 62
     2
 10
253.342637437582
 20
87.5329650741816
 30
0.0
 11
254.742637458444
 21
87.5329650741816
 31
0.0
  0
LINE
  5
   690
  8
0
  6
CONTINUOUS
 62
     2
 10
253.342637437582
 20
87.5329650741816
 30
0.0
 11
253.342637437582
 21
120.93296557188
 31
0.0
  0
LINE
  5
   691
  8
0
  6
CONTINUOUS
 62
   130
 10
214.542636859438
 20
126.308965651989
 30
0.0
 11
215.342636871338
 21
126.308965651989
 31
0.0
  0
LINE
  5
   692
  8
0
  6
CONTINUOUS
 62
   130
 10
214.542636859417
 20
122.75836745455
 30
0.0
 11
215.342636871338
 21
122.75836745455
 31
0.0
  0
LINE
  5
   693
  8
0
  6
CONTINUOUS
 62
   210
 10
253.022635323189
 20
101.312963856851
 30
0.0
 11
253.142633495154
 21
101.260180651991
 31
0.0
  0
LINE
  5
   694
  8
0
  6
CONTINUOUS
 62
   210
 10
253.022637858377
 20
119.912967453927
 30
0.0
 11
253.142639083831
 21
119.965750656727
 31
0.0
  0
LINE
  5
   695
  8
0
  6
CONTINUOUS
 62
     2
 10
254.742637458444
 20
87.5329650741816
 30
0.0
 11
255.142637464404
 21
87.5329650741816
 31
0.0
  0
LINE
  5
   696
  8
0
  6
CONTINUOUS
 62
     2
 10
254.142637449503
 20
120.93296557188
 30
0.0
 11
254.742637458444
 21
120.93296557188
 31
0.0
  0
LINE
  5
   697
  8
0
  6
CONTINUOUS
 62
   130
 10
215.342636871338
 20
95.73296528078
 30
0.0
 11
253.142637434602
 21
95.73296528078
 31
0.0
  0
POINT
  5
   698
  8
0
  6
CONTINUOUS
 62
     7
 10
215.342636871338
 20
96.7329652956811
 30
0.0
  0
LINE
  5
   699
  8
0
  6
CONTINUOUS
 62
     7
 10
255.142637464404
 20
121.332965577841
 30
0.0
 11
255.142637464404
 21
131.232965809771
 31
0.0
  0
ARC
  5
   69A
  8
0
  6
CONTINUOUS
 62
     7
 10
254.642637456954
 20
131.232965809771
 30
0.0
 40
0.500000007450581
 50
0.0
 51
90.0
  0
LINE
  5
   69B
  8
0
  6
CONTINUOUS
 62
     7
 10
253.142637434602
 20
120.93296557188
 30
0.0
 11
253.142637434602
 21
129.732965787419
 31
0.0
  0
LINE
  5
   69C
  8
0
  6
CONTINUOUS
 62
     7
 10
241.476762989933
 20
129.732965787419
 30
0.0
 11
253.142637434602
 21
129.732965787419
 31
0.0
  0
LINE
  5
   69D
  8
0
  6
CONTINUOUS
 62
     7
 10
241.48756111216
 20
129.9329657904
 30
0.0
 11
253.342637437582
 21
129.9329657904
 31
0.0
  0
LINE
  5
   69E
  8
0
  6
CONTINUOUS
 62
     7
 10
253.342637437582
 20
121.332965577841
 30
0.0
 11
253.342637437582
 21
129.9329657904
 31
0.0
  0
LINE
  5
   69F
  8
0
  6
CONTINUOUS
 62
     7
 10
253.342637437582
 20
121.332965577841
 30
0.0
 11
254.742637458444
 21
121.332965577841
 31
0.0
  0
LINE
  5
   6A0
  8
0
  6
CONTINUOUS
 62
     7
 10
254.742637458444
 20
120.935462732192
 30
0.0
 11
254.742637458444
 21
121.332965577841
 31
0.0
  0
LINE
  5
   6A1
  8
0
  6
CONTINUOUS
 62
     7
 10
234.342642188248
 20
131.732965817222
 30
0.0
 11
254.642637456954
 21
131.732965817222
 31
0.0
  0
LINE
  5
   6A2
  8
0
  6
CONTINUOUS
 62
     7
 10
226.542637038231
 20
130.732965802321
 30
0.0
 11
241.530753601066
 21
130.732965802321
 31
0.0
  0
LINE
  5
   6A3
  8
0
  6
CONTINUOUS
 62
     7
 10
223.342636990547
 20
130.732965802321
 30
0.0
 11
224.542637008429
 21
130.732965802321
 31
0.0
  0
LINE
  5
   6A4
  8
0
  6
CONTINUOUS
 62
     7
 10
227.142637047172
 20
130.732965802321
 30
0.0
 11
227.142637047172
 21
131.732965817222
 31
0.0
  0
INSERT
  5
   6A5
  8
0
  6
CONTINUOUS
 62
     7
  2
*HATCH151
 10
215.342636108398
 20
57.7329597473145
 30
0.0
 41
0.400000005960464
 42
0.400000005960464
 43
0.400000005960464
  0
LINE
  5
   6A6
  8
0
  6
CONTINUOUS
 62
     7
 10
254.742637458444
 20
121.332965577841
 30
0.0
 11
255.142637464404
 21
121.332965577841
 31
0.0
  0
LINE
  5
   6A7
  8
0
  6
CONTINUOUS
 62
     2
 10
254.742637458444
 20
120.93296557188
 30
0.0
 11
255.142637464404
 21
120.93296557188
 31
0.0
  0
LINE
  5
   6A8
  8
0
  6
CONTINUOUS
 62
     2
 10
253.022636212588
 20
87.1329650682212
 30
0.0
 11
253.022636212588
 21
95.612965194583
 31
0.0
  0
LINE
  5
   6A9
  8
0
  6
CONTINUOUS
 62
     1
 10
254.742637458444
 20
38.6329661111746
 30
0.0
 11
255.142637083411
 21
38.6329660021834
 31
0.0
  0
LINE
  5
   6AA
  8
0
  6
CONTINUOUS
 62
     7
 10
254.742637458444
 20
38.1329545724391
 30
0.0
 11
254.742637458444
 21
38.5304574180881
 31
0.0
  0
LINE
  5
   6AB
  8
0
  6
CONTINUOUS
 62
     7
 10
253.342637437582
 20
38.1329545724391
 30
0.0
 11
254.742637458444
 21
38.1329545724391
 31
0.0
  0
LINE
  5
   6AC
  8
0
  6
CONTINUOUS
 62
     7
 10
255.142637464404
 20
28.2329543405088
 30
0.0
 11
255.142637464404
 21
38.1329545724391
 31
0.0
  0
ARC
  5
   6AD
  8
0
  6
CONTINUOUS
 62
     7
 10
254.642637456954
 20
28.2329543405088
 30
0.0
 40
0.500000007450581
 50
270.0
 51
360.0
  0
LINE
  5
   6AE
  8
0
  6
CONTINUOUS
 62
     7
 10
226.942637044191
 20
27.7329543330582
 30
0.0
 11
254.642637456954
 21
27.7329543330582
 31
0.0
  0
LINE
  5
   6AF
  8
0
  6
CONTINUOUS
 62
     7
 10
226.542637038231
 20
28.7329543479594
 30
0.0
 11
235.362963612925
 21
28.7329543479594
 31
0.0
  0
LINE
  5
   6B0
  8
0
  6
CONTINUOUS
 62
     7
 10
235.266189417934
 20
29.5329543598803
 30
0.0
 11
253.342637437582
 21
29.5329543598803
 31
0.0
  0
LINE
  5
   6B1
  8
0
  6
CONTINUOUS
 62
     7
 10
253.342637437582
 20
29.5329543598803
 30
0.0
 11
253.342637437582
 21
38.5304574180881
 31
0.0
  0
LINE
  5
   6B2
  8
0
  6
CONTINUOUS
 62
     7
 10
253.342637437582
 20
38.5304574180881
 30
0.0
 11
254.742637458444
 21
38.5304574180881
 31
0.0
  0
LINE
  5
   6B3
  8
0
  6
CONTINUOUS
 62
     7
 10
254.742637458444
 20
38.1329545724391
 30
0.0
 11
255.142637464404
 21
38.1329545724391
 31
0.0
  0
INSERT
  5
   6B4
  8
255
  6
CONTINUOUS
 62
     7
  2
T_A_D_L_
 10
215.342636108398
 20
91.7329602539539
 30
0.0
 41
0.400000005960464
 42
0.400000005960464
 43
0.400000005960464
  0
POINT
  5
   6B5
  8
0
  6
CONTINUOUS
 62
     7
 10
226.942637044191
 20
125.332960754633
 30
0.0
  0
INSERT
  5
   6B6
  8
0
  6
CONTINUOUS
 62
     7
  2
*UDIM725
 10
0.0
 20
0.0
 30
0.0
  0
INSERT
  5
   6B7
  8
0
  6
CONTINUOUS
 62
     7
  2
*UDIM726
 10
0.0
 20
0.0
 30
0.0
  0
INSERT
  5
   6B8
  8
0
  6
CONTINUOUS
 62
     7
  2
*UDIM727
 10
0.0
 20
0.0
 30
0.0
  0
INSERT
  5
   6B9
  8
255
  6
CONTINUOUS
 62
     7
  2
T_A_D_L_
 10
215.342636108398
 20
67.7329598963261
 30
0.0
 41
-0.400000005960464
 42
0.400000005960464
 50
180.000000103931
 43
0.400000005960464
  0
LINE
  5
   6BA
  8
0
  6
CONTINUOUS
 62
     7
 10
226.542637038231
 20
123.632960729301
 30
0.0
 11
226.542637038231
 21
127.032960779965
 31
0.0
  0
INSERT
  5
   6BB
  8
0
  6
CONTINUOUS
 62
     7
  2
*UDIM728
 10
0.0
 20
0.0
 30
0.0
  0
INSERT
  5
   6BC
  8
0
  6
CONTINUOUS
 62
     7
  2
*UDIM729
 10
0.0
 20
0.0
 30
0.0
  0
INSERT
  5
   6BD
  8
0
  6
CONTINUOUS
 62
     7
  2
*UDIM730
 10
0.0
 20
0.0
 30
0.0
  0
INSERT
  5
   6BE
  8
0
  6
CONTINUOUS
 62
     7
  2
*UDIM731
 10
0.0
 20
0.0
 30
0.0
  0
INSERT
  5
   6BF
  8
0
  6
CONTINUOUS
 62
     7
  2
*UDIM732
 10
0.0
 20
0.0
 30
0.0
  0
INSERT
  5
   6C0
  8
0
  6
CONTINUOUS
 62
     7
  2
*UDIM733
 10
0.0
 20
0.0
 30
0.0
  0
INSERT
  5
   6C1
  8
0
  6
CONTINUOUS
 62
     7
  2
*UDIM734
 10
0.0
 20
0.0
 30
0.0
  0
INSERT
  5
   6C2
  8
0
  6
CONTINUOUS
 62
     7
  2
*UDIM735
 10
0.0
 20
0.0
 30
0.0
  0
INSERT
  5
   6C3
  8
0
  6
CONTINUOUS
 62
     7
  2
*UDIM736
 10
0.0
 20
0.0
 30
0.0
  0
INSERT
  5
   6C4
  8
0
  6
CONTINUOUS
 62
     7
  2
*UDIM737
 10
0.0
 20
0.0
 30
0.0
  0
INSERT
  5
   6C5
  8
0
  6
CONTINUOUS
 62
     7
  2
*HATCH156
 10
215.342636108398
 20
57.7329597473145
 30
0.0
 41
0.400000005960464
 42
0.400000005960464
 43
0.400000005960464
  0
TEXT
  5
   6C6
  8
0
  6
CONTINUOUS
 62
     1
 10
231.973709106445
 20
-204.689865267277
 30
0.0
 40
4.00000015497208
  1
605032/391
 41
0.93749995827675
 72
     2
 11
268.723708861321
 21
-204.689865267277
 31
0.0
  0
TEXT
  5
   6C7
  8
0
  6
CONTINUOUS
 62
     1
 10
219.42497904852
 20
-177.398010292649
 30
0.0
 40
2.00000007748604
  1
4POLE LOW VOLTAGE M.C.C.B SERIES ISOMAX SUPERLIMITING
 41
0.593749969303609
 72
     1
 11
250.774978637695
 21
-176.398010253906
 31
0.0
 73
     2
  0
TEXT
  5
   6C8
  8
0
  6
CONTINUOUS
 62
     1
 10
223.581228994671
 20
-180.398010292649
 30
0.0
 40
2.00000007748604
  1
FIXED VERSION SPEADED EXTENDED FRONT TERMINALS
 41
0.593749969303608
 72
     1
 11
250.774978637695
 21
-179.398010253906
 31
0.0
 73
     2
  0
TEXT
  5
   6C9
  8
0
  6
CONTINUOUS
 62
     1
 10
215.739869094081
 20
-185.468277016282
 30
0.0
 40
2.00000007748604
  1
INTERR.AUTOMATICO SERIE ISOMAX SUPERLIMITATORE
 41
0.687500019669532
 72
     1
 11
247.22737121582
 21
-184.468276977539
 31
0.0
 73
     2
  0
TEXT
  5
   6CA
  8
0
  6
CONTINUOUS
 62
     1
 10
213.677368955165
 20
-188.468277016282
 30
0.0
 40
2.00000007748604
  1
TETRAP.ESEC.FISSA TERMINALI ANT. PROL. DIVARICATI
 41
0.687500019669532
 72
     1
 11
247.22737121582
 21
-187.468276977539
 31
0.0
 73
     2
  0
TEXT
  5
   6CB
  8
0
  6
CONTINUOUS
 62
     1
 10
130.442901611328
 20
-178.463390427828
 30
0.0
 40
2.00000007748604
  1
97-07-07 BARCELLA
 41
0.749999884366991
 72
     2
 11
155.642898703814
 21
-178.463390427828
 31
0.0
  0
TEXT
  5
   6CC
  8
0
  6
CONTINUOUS
 62
     1
 10
138.596892797845
 20
-193.480718957213
 30
0.0
 40
2.00000007748604
  1
M4371 97-07-07
 41
0.749999884366991
 72
     2
 11
159.296890409785
 21
-193.480718957213
 31
0.0
  0
TEXT
  5
   6CD
  8
0
  6
CONTINUOUS
 62
     1
 10
163.436892797845
 20
-193.480718957213
 30
0.0
 40
2.00000007748604
  1
M4380 97-11-03
 41
0.749999884366991
 72
     2
 11
184.136890409785
 21
-193.480718957213
 31
0.0
  0
TEXT
  5
   6CE
  8
0
  6
CONTINUOUS
 62
     1
 10
130.442901611328
 20
-186.930140427828
 30
0.0
 40
2.00000007748604
  1
97-11-03 SCARPELLINI
 41
0.749999884366991
 72
     2
 11
160.142898184359
 21
-186.930140427828
 31
0.0
  0
TEXT
  5
   6CF
  8
0
  6
CONTINUOUS
 62
     1
 10
250.059403114275
 20
-195.708278948872
 30
0.0
 40
2.99999994933605
  1
S3X
 41
0.916666607525612
 72
     2
 11
257.75940248475
 21
-195.708278948872
 31
0.0
  0
INSERT
  5
   6D0
  8
0
  6
CONTINUOUS
 62
     7
  2
*UDIM738
 10
0.0
 20
0.0
 30
0.0
  0
TEXT
  5
   6D1
  8
0
  6
CONTINUOUS
 62
     7
 10
280.61103914493
 20
53.6662669888402
 30
0.0
 40
2.99999994933605
  1
=    =
 50
90.0
 41
0.91666673368878
 72
     1
 11
279.111039170252
 21
61.6412674513952
 31
0.0
 73
     2
  0
INSERT
  5
   6D2
  8
0
  6
CONTINUOUS
 62
     7
  2
*UDIM739
 10
0.0
 20
0.0
 30
0.0
  0
INSERT
  5
   6D3
  8
0
  6
CONTINUOUS
 62
     7
  2
*UDIM740
 10
0.0
 20
0.0
 30
0.0
  0
INSERT
  5
   6D4
  8
0
  6
CONTINUOUS
 62
     7
  2
*UDIM741
 10
0.0
 20
0.0
 30
0.0
  0
TEXT
  5
   6D5
  8
0
  6
CONTINUOUS
 62
     7
 10
280.953477200282
 20
60.7101101546069
 30
0.0
 40
2.99999994933605
  1
X
 41
0.916666607525612
 72
     2
 11
283.153477018488
 21
60.7101101546069
 31
0.0
  0
ENDSEC
  0
EOF
