  0
SECTION
  2
HEADER
  9
$ACADVER
  1
AC1014
  9
$ACADMAINTVER
 70
     0
  9
$DWGCODEPAGE
  3
ANSI_1252
  9
$INSBASE
 10
0.0
 20
0.0
 30
0.0
  9
$EXTMIN
 10
0.0
 20
0.0
 30
0.0
  9
$EXTMAX
 10
292.797394
 20
348.910645
 30
2.0
  9
$LIMMIN
 10
0.0
 20
0.0
  9
$LIMMAX
 10
420.0
 20
297.0
  9
$ORTHOMODE
 70
     0
  9
$REGENMODE
 70
     1
  9
$FILLMODE
 70
     1
  9
$QTEXTMODE
 70
     0
  9
$MIRRTEXT
 70
     1
  9
$DRAGMODE
 70
     2
  9
$LTSCALE
 40
1.0
  9
$OSMODE
 70
     0
  9
$ATTMODE
 70
     1
  9
$TEXTSIZE
 40
2.5
  9
$TRACEWID
 40
1.0
  9
$TEXTSTYLE
  7
STANDARD
  9
$CLAYER
  8
0
  9
$CELTYPE
  6
BYLAYER
  9
$CECOLOR
 62
   256
  9
$CELTSCALE
 40
1.0
  9
$DELOBJ
 70
     1
  9
$DISPSILH
 70
     0
  9
$DIMSCALE
 40
1.0
  9
$DIMASZ
 40
2.5
  9
$DIMEXO
 40
0.625
  9
$DIMDLI
 40
3.75
  9
$DIMRND
 40
0.0
  9
$DIMDLE
 40
0.0
  9
$DIMEXE
 40
1.25
  9
$DIMTP
 40
0.0
  9
$DIMTM
 40
0.0
  9
$DIMTXT
 40
2.5
  9
$DIMCEN
 40
2.5
  9
$DIMTSZ
 40
0.0
  9
$DIMTOL
 70
     0
  9
$DIMLIM
 70
     0
  9
$DIMTIH
 70
     0
  9
$DIMTOH
 70
     0
  9
$DIMSE1
 70
     0
  9
$DIMSE2
 70
     0
  9
$DIMTAD
 70
     1
  9
$DIMZIN
 70
     8
  9
$DIMBLK
  1

  9
$DIMASO
 70
     1
  9
$DIMSHO
 70
     1
  9
$DIMPOST
  1

  9
$DIMAPOST
  1

  9
$DIMALT
 70
     0
  9
$DIMALTD
 70
     3
  9
$DIMALTF
 40
0.03937
  9
$DIMLFAC
 40
1.0
  9
$DIMTOFL
 70
     1
  9
$DIMTVP
 40
0.0
  9
$DIMTIX
 70
     0
  9
$DIMSOXD
 70
     0
  9
$DIMSAH
 70
     0
  9
$DIMBLK1
  1

  9
$DIMBLK2
  1

  9
$DIMSTYLE
  2
STANDARD
  9
$DIMCLRD
 70
     0
  9
$DIMCLRE
 70
     0
  9
$DIMCLRT
 70
     0
  9
$DIMTFAC
 40
1.0
  9
$DIMGAP
 40
0.625
  9
$DIMJUST
 70
     0
  9
$DIMSD1
 70
     0
  9
$DIMSD2
 70
     0
  9
$DIMTOLJ
 70
     0
  9
$DIMTZIN
 70
     8
  9
$DIMALTZ
 70
     0
  9
$DIMALTTZ
 70
     0
  9
$DIMFIT
 70
     0
  9
$DIMUPT
 70
     0
  9
$DIMUNIT
 70
     2
  9
$DIMDEC
 70
     2
  9
$DIMTDEC
 70
     2
  9
$DIMALTU
 70
     2
  9
$DIMALTTD
 70
     3
  9
$DIMTXSTY
  7
STANDARD
  9
$DIMAUNIT
 70
     0
  9
$LUNITS
 70
     2
  9
$LUPREC
 70
     4
  9
$SKETCHINC
 40
1.0
  9
$FILLETRAD
 40
2.5
  9
$AUNITS
 70
     0
  9
$AUPREC
 70
     0
  9
$MENU
  1
.
  9
$ELEVATION
 40
0.0
  9
$PELEVATION
 40
0.0
  9
$THICKNESS
 40
0.0
  9
$LIMCHECK
 70
     0
  9
$BLIPMODE
 70
     1
  9
$CHAMFERA
 40
2.5
  9
$CHAMFERB
 40
2.5
  9
$CHAMFERC
 40
0.0
  9
$CHAMFERD
 40
0.0
  9
$SKPOLY
 70
     0
  9
$TDCREATE
 40
0.000000000
  9
$TDUPDATE
 40
0.000000000
  9
$TDINDWG
 40
0.0000000000
  9
$TDUSRTIMER
 40
0.0000000000
  9
$USRTIMER
 70
     1
  9
$ANGBASE
 50
0.0
  9
$ANGDIR
 70
     0
  9
$PDMODE
 70
     0
  9
$PDSIZE
 40
0.0
  9
$PLINEWID
 40
0.0
  9
$COORDS
 70
     0
  9
$SPLFRAME
 70
     0
  9
$SPLINETYPE
 70
     6
  9
$SPLINESEGS
 70
     8
  9
$ATTDIA
 70
     0
  9
$ATTREQ
 70
     1
  9
$HANDLING
 70
     1
  9
$HANDSEED
  5
67D
  9
$SURFTAB1
 70
     6
  9
$SURFTAB2
 70
     6
  9
$SURFTYPE
 70
     6
  9
$SURFU
 70
     6
  9
$SURFV
 70
     6
  9
$UCSNAME
  2

  9
$UCSORG
 10
0.0
 20
0.0
 30
0.0
  9
$UCSXDIR
 10
1.0
 20
0.0
 30
0.0
  9
$UCSYDIR
 10
0.0
 20
1.0
 30
0.0
  9
$PUCSNAME
  2

  9
$PUCSORG
 10
0.0
 20
0.0
 30
0.0
  9
$PUCSXDIR
 10
1.0
 20
0.0
 30
0.0
  9
$PUCSYDIR
 10
0.0
 20
1.0
 30
0.0
  9
$USERI1
 70
     0
  9
$USERI2
 70
     0
  9
$USERI3
 70
     0
  9
$USERI4
 70
     0
  9
$USERI5
 70
     0
  9
$USERR1
 40
0.0
  9
$USERR2
 40
0.0
  9
$USERR3
 40
0.0
  9
$USERR4
 40
0.0
  9
$USERR5
 40
0.0
  9
$WORLDVIEW
 70
     1
  9
$SHADEDGE
 70
     3
  9
$SHADEDIF
 70
    70
  9
$TILEMODE
 70
     1
  9
$MAXACTVP
 70
    48
  9
$PINSBASE
 10
0.0
 20
0.0
 30
0.0
  9
$PLIMCHECK
 70
     0
  9
$PEXTMIN
 10
0.0
 20
0.0
 30
0.0
  9
$PEXTMAX
 10
292.797394
 20
348.910645
 30
2.0
  9
$PLIMMIN
 10
0.0
 20
0.0
  9
$PLIMMAX
 10
420.0
 20
297.0
  9
$UNITMODE
 70
     0
  9
$VISRETAIN
 70
     0
  9
$PLINEGEN
 70
     0
  9
$PSLTSCALE
 70
     1
  9
$TREEDEPTH
 70
  3020
  9
$PICKSTYLE
 70
     1
  9
$CMLSTYLE
  2
STANDARD
  9
$CMLJUST
 70
     0
  9
$CMLSCALE
 40
20.0
  9
$PROXYGRAPHICS
 70
     1
  9
$MEASUREMENT
 70
     1
  0
ENDSEC
  0
SECTION
  2
CLASSES
  0
CLASS
  1
LWPOLYLINE
  2
AcDbPolyline
  3
"AutoCAD"
 90
        0
280
     0
281
     1
  0
CLASS
  1
IMAGE
  2
AcDbRasterImage
  3
ISM
 90
      127
280
     0
281
     1
  0
CLASS
  1
OLE2FRAME
  2
AcDbOle2Frame
  3
""
 90
        0
280
     0
281
     1
  0
CLASS
  1
HATCH
  2
AcDbHatch
  3
"ACAD_SEDONA"
 90
        0
280
     0
281
     1
  0
CLASS
  1
DICTIONARYVAR
  2
AcDbDictionaryVar
  3
"AutoCAD"
 90
        0
280
     0
281
     0
  0
CLASS
  1
RASTERVARIABLES
  2
AcDbRasterVariables
  3
ISM
 90
        0
280
     0
281
     0
  0
CLASS
  1
IMAGEDEF
  2
AcDbRasterImageDef
  3
ISM
 90
        0
280
     0
281
     0
  0
CLASS
  1
IMAGEDEF_REACTOR
  2
AcDbRasterImageDefReactor
  3
ISM
 90
        1
280
     0
281
     0
  0
CLASS
  1
IDBUFFER
  2
AcDbIdBuffer
  3
"Acad"
 90
        0
280
     0
281
     0
  0
CLASS
  1
SPATIAL_FILTER
  2
AcDbSpatialFilter
  3
"Acad"
 90
        0
280
     0
281
     0
  0
CLASS
  1
XRECORD
  2
AcDbXrecord
  3
"<Built In>"
 90
        0
280
     0
281
     0
  0
CLASS
  1
SORTENTSTABLE
  2
AcDbSortentsTable
  3
"AutoCAD"
 90
        0
280
     0
281
     0
  0
CLASS
  1
LAYER_INDEX
  2
AcDbLayerIndex
  3
"Acad"
 90
        0
280
     0
281
     0
  0
CLASS
  1
SPATIAL_INDEX
  2
AcDbSpatialIndex
  3
"Acad"
 90
        0
280
     0
281
     0
  0
CLASS
  1
OBJECT_PTR
  2
CAseDLPNTableRecord
  3
"ASE-LPNTableRecord"
 90
        1
280
     0
281
     0
  0
CLASS
  1
LAYOUT
  2
AcDbLayout
  3
"AutoCAD 2000"
 90
        0
280
     0
281
     0
  0
CLASS
  1
PLOTSETTINGS
  2
AcDbPlotSettings
  3
"AutoCAD 2000"
 90
        0
280
     0
281
     0
  0
CLASS
  1
ACDBDICTIONARYWDFLT
  2
AcDbDictionaryWithDefault
  3
"AutoCAD 2000"
 90
        0
280
     0
281
     0
  0
CLASS
  1
ACDBPLACEHOLDER
  2
AcDbPlaceHolder
  3
"AutoCAD 2000"
 90
        0
280
     0
281
     0
  0
CLASS
  1
VBA_PROJECT
  2
AcDbVbaProject
  3
"acadvba"
 90
        0
280
     0
281
     0
  0
CLASS
  1
WIPEOUT
  2
AcDbWipeout
  3
WipeOut|AutoCAD Express Tool|expresstools@autodesk.com
 90
      127
280
     0
281
     1
  0
CLASS
  1
WIPEOUTVARIABLES
  2
AcDbWipeoutVariables
  3
WipeOut|AutoCAD Express Tool|expresstools@autodesk.com
 90
        0
280
     0
281
     0
  0
CLASS
  1
RTEXT
  2
RText
  3
RText|AutoCAD Express Tool|expresstools@autodesk.com
 90
        0
280
     0
281
     1
  0
CLASS
  1
ARCALIGNEDTEXT
  2
AcDbArcAlignedText
  3
ATEXT|AutoCAD Express Tool|expresstools@autodesk.com
 90
        0
280
     0
281
     1
  0
ENDSEC
  0
SECTION
  2
TABLES
  0
TABLE
  2
VPORT
  5
7
100
AcDbSymbolTable
 70
     1
  0
VPORT
  5
15
100
AcDbSymbolTableRecord
100
AcDbViewportTableRecord
  2
*ACTIVE
 70
     0
 10
0.0
 20
0.0
 11
1.0
 21
1.0
 12
6.591288
 22
4.579184
 13
0.0
 23
0.0
 14
1.0
 24
1.0
 15
0.0
 25
0.0
 16
0.0
 26
0.0
 36
1.0
 17
0.0
 27
0.0
 37
0.0
 40
9.158369
 41
0.688564
 42
50.0
 43
0.0
 44
0.0
 50
0.0
 51
0.0
 71
     0
 72
   100
 73
     1
 74
     1
 75
     0
 76
     0
 77
     0
 78
     0
  0
ENDTAB
  0
TABLE
  2
LTYPE
  5
4
100
AcDbSymbolTable
 70
    10
  0
LTYPE
  5
11
100
AcDbSymbolTableRecord
100
AcDbLinetypeTableRecord
  2
BYBLOCK
 70
    64
  3

 72
    65
 73
     0
 40
0.0
  0
LTYPE
  5
12
100
AcDbSymbolTableRecord
100
AcDbLinetypeTableRecord
  2
BYLAYER
 70
    64
  3

 72
    65
 73
     0
 40
0.0
  0
LTYPE
  5
13
100
AcDbSymbolTableRecord
100
AcDbLinetypeTableRecord
  2
CONTINUOUS
 70
    64
  3
Solid line
 72
    65
 73
     0
 40
0.0
  0
LTYPE
  5
1D
100
AcDbSymbolTableRecord
100
AcDbLinetypeTableRecord
  2
DASHED
 70
     0
  3
__ __ __ __ __ __ __ __ __ __ __ __ __ __ __ __
 72
    65
 73
     2
 40
15.0
 49
12.0
 74
     0
 49
-3.0
 74
     0
  0
LTYPE
  5
1E
100
AcDbSymbolTableRecord
100
AcDbLinetypeTableRecord
  2
DASHDOT
 70
     0
  3
 __ . __ . __ . __ . __ . __ . __ . 
 72
    65
 73
     4
 40
18.5
 49
12.0
 74
     0
 49
-3.0
 74
     0
 49
0.5
 74
     0
 49
-3.0
 74
     0
  0
LTYPE
  5
1F
100
AcDbSymbolTableRecord
100
AcDbLinetypeTableRecord
  2
DOT
 70
     0
  3
 . . . . . . . . . . . . . . . .
 72
    65
 73
     2
 40
3.5
 49
0.5
 74
     0
 49
-3.0
 74
     0
  0
LTYPE
  5
20
100
AcDbSymbolTableRecord
100
AcDbLinetypeTableRecord
  2
DASHSPACE
 70
     0
  3
__    __    __    __    __   
 72
    65
 73
     2
 40
30.0
 49
12.0
 74
     0
 49
-18.0
 74
     0
  0
LTYPE
  5
21
100
AcDbSymbolTableRecord
100
AcDbLinetypeTableRecord
  2
DASHDOT2
 70
     0
  3
__ . . __ . . __ . . __ 
 72
    65
 73
     6
 40
22.0
 49
12.0
 74
     0
 49
-3.0
 74
     0
 49
0.5
 74
     0
 49
-3.0
 74
     0
 49
0.5
 74
     0
 49
-3.0
 74
     0
  0
LTYPE
  5
22
100
AcDbSymbolTableRecord
100
AcDbLinetypeTableRecord
  2
PHANTOM
 70
     0
  3
____________    ____    ____   _
 72
    65
 73
     6
 40
20.0
 49
10.0
 74
     0
 49
-2.0
 74
     0
 49
2.0
 74
     0
 49
-2.0
 74
     0
 49
2.0
 74
     0
 49
-2.0
 74
     0
  0
LTYPE
  5
23
100
AcDbSymbolTableRecord
100
AcDbLinetypeTableRecord
  2
AXES
 70
     0
  3
________  __  ________  __  _____
 72
    65
 73
     4
 40
24.0
 49
15.0
 74
     0
 49
-3.0
 74
     0
 49
3.0
 74
     0
 49
-3.0
 74
     0
  0
ENDTAB
  0
TABLE
  2
LAYER
  5
2
100
AcDbSymbolTable
 70
     1
  0
LAYER
  5
14
100
AcDbSymbolTableRecord
100
AcDbLayerTableRecord
  2
0
 70
     0
 62
     7
  6
CONTINUOUS
  0
ENDTAB
  0
TABLE
  2
STYLE
  5
3
100
AcDbSymbolTable
 70
     2
  0
STYLE
  5
17
100
AcDbSymbolTableRecord
100
AcDbTextStyleTableRecord
  2
STANDARD
 70
     0
 40
0.0
 41
1.0
 50
0.0
 71
     0
 42
0.0
  3
isocp.shx
  4

  0
STYLE
  5
24
100
AcDbSymbolTableRecord
100
AcDbTextStyleTableRecord
  2
GDT
 70
     0
 40
0.0
 41
1.0
 50
0.0
 71
     0
 42
0.0
  3
amgdt.shx
  4

  0
ENDTAB
  0
TABLE
  2
VIEW
  5
5
100
AcDbSymbolTable
 70
     0
  0
ENDTAB
  0
TABLE
  2
UCS
  5
6
100
AcDbSymbolTable
 70
     0
  0
ENDTAB
  0
TABLE
  2
APPID
  5
8
100
AcDbSymbolTable
 70
     1
  0
APPID
  5
16
100
AcDbSymbolTableRecord
100
AcDbRegAppTableRecord
  2
ACAD
 70
     0
  0
ENDTAB
  0
TABLE
  2
DIMSTYLE
  5
9
100
AcDbSymbolTable
 70
     1
  0
DIMSTYLE
105
18
100
AcDbSymbolTableRecord
100
AcDbDimStyleTableRecord
  2
STANDARD
 70
     0
  3

  4

  5

  6

  7

 40
1.0
 41
2.5
 42
0.625
 43
3.75
 44
1.25
 45
0.0
 46
0.0
 47
0.0
 48
0.0
 71
     0
 72
     0
 73
     0
 74
     0
 75
     0
 76
     0
 77
     1
 78
     8
140
2.5
141
2.5
142
0.0
143
0.03937
144
1.0
145
0.0
146
1.0
147
0.625
170
     0
171
     3
172
     1
173
     0
174
     0
175
     0
176
     0
177
     0
178
     0
270
     2
271
     2
272
     2
273
     2
274
     3
275
     0
280
     0
281
     0
282
     0
283
     0
284
     8
285
     0
286
     0
287
     0
288
     0
340
0
  0
ENDTAB
  0
TABLE
  2
BLOCK_RECORD
  5
1
100
AcDbSymbolTable
 70
    41
  0
BLOCK_RECORD
  5
A
100
AcDbSymbolTableRecord
100
AcDbBlockTableRecord
  2
*MODEL_SPACE
  0
BLOCK_RECORD
  5
B
100
AcDbSymbolTableRecord
100
AcDbBlockTableRecord
  2
*PAPER_SPACE
  0
BLOCK_RECORD
  5
487
100
AcDbSymbolTableRecord
100
AcDbBlockTableRecord
  2
BLOCK0
  0
BLOCK_RECORD
  5
488
100
AcDbSymbolTableRecord
100
AcDbBlockTableRecord
  2
BLOCK1
  0
BLOCK_RECORD
  5
489
100
AcDbSymbolTableRecord
100
AcDbBlockTableRecord
  2
BLOCK2
  0
BLOCK_RECORD
  5
48A
100
AcDbSymbolTableRecord
100
AcDbBlockTableRecord
  2
BLOCK3
  0
BLOCK_RECORD
  5
48B
100
AcDbSymbolTableRecord
100
AcDbBlockTableRecord
  2
BLOCK4
  0
BLOCK_RECORD
  5
48C
100
AcDbSymbolTableRecord
100
AcDbBlockTableRecord
  2
BLOCK5
  0
BLOCK_RECORD
  5
48D
100
AcDbSymbolTableRecord
100
AcDbBlockTableRecord
  2
BLOCK6
  0
BLOCK_RECORD
  5
48E
100
AcDbSymbolTableRecord
100
AcDbBlockTableRecord
  2
BLOCK7
  0
BLOCK_RECORD
  5
48F
100
AcDbSymbolTableRecord
100
AcDbBlockTableRecord
  2
BLOCK8
  0
BLOCK_RECORD
  5
490
100
AcDbSymbolTableRecord
100
AcDbBlockTableRecord
  2
BLOCK9
  0
BLOCK_RECORD
  5
491
100
AcDbSymbolTableRecord
100
AcDbBlockTableRecord
  2
BLOCK10
  0
BLOCK_RECORD
  5
492
100
AcDbSymbolTableRecord
100
AcDbBlockTableRecord
  2
BLOCK11
  0
BLOCK_RECORD
  5
493
100
AcDbSymbolTableRecord
100
AcDbBlockTableRecord
  2
BLOCK12
  0
BLOCK_RECORD
  5
494
100
AcDbSymbolTableRecord
100
AcDbBlockTableRecord
  2
BLOCK13
  0
BLOCK_RECORD
  5
495
100
AcDbSymbolTableRecord
100
AcDbBlockTableRecord
  2
BLOCK14
  0
BLOCK_RECORD
  5
496
100
AcDbSymbolTableRecord
100
AcDbBlockTableRecord
  2
BLOCK15
  0
BLOCK_RECORD
  5
497
100
AcDbSymbolTableRecord
100
AcDbBlockTableRecord
  2
BLOCK16
  0
BLOCK_RECORD
  5
498
100
AcDbSymbolTableRecord
100
AcDbBlockTableRecord
  2
BLOCK17
  0
BLOCK_RECORD
  5
499
100
AcDbSymbolTableRecord
100
AcDbBlockTableRecord
  2
BLOCK18
  0
BLOCK_RECORD
  5
49A
100
AcDbSymbolTableRecord
100
AcDbBlockTableRecord
  2
BLOCK19
  0
BLOCK_RECORD
  5
49B
100
AcDbSymbolTableRecord
100
AcDbBlockTableRecord
  2
BLOCK20
  0
BLOCK_RECORD
  5
49C
100
AcDbSymbolTableRecord
100
AcDbBlockTableRecord
  2
BLOCK21
  0
BLOCK_RECORD
  5
49D
100
AcDbSymbolTableRecord
100
AcDbBlockTableRecord
  2
BLOCK22
  0
BLOCK_RECORD
  5
49E
100
AcDbSymbolTableRecord
100
AcDbBlockTableRecord
  2
BLOCK23
  0
BLOCK_RECORD
  5
49F
100
AcDbSymbolTableRecord
100
AcDbBlockTableRecord
  2
BLOCK24
  0
BLOCK_RECORD
  5
4A0
100
AcDbSymbolTableRecord
100
AcDbBlockTableRecord
  2
BLOCK25
  0
BLOCK_RECORD
  5
4A1
100
AcDbSymbolTableRecord
100
AcDbBlockTableRecord
  2
BLOCK26
  0
BLOCK_RECORD
  5
4A2
100
AcDbSymbolTableRecord
100
AcDbBlockTableRecord
  2
BLOCK27
  0
BLOCK_RECORD
  5
4A3
100
AcDbSymbolTableRecord
100
AcDbBlockTableRecord
  2
BLOCK28
  0
BLOCK_RECORD
  5
4A4
100
AcDbSymbolTableRecord
100
AcDbBlockTableRecord
  2
BLOCK29
  0
BLOCK_RECORD
  5
4A5
100
AcDbSymbolTableRecord
100
AcDbBlockTableRecord
  2
BLOCK30
  0
BLOCK_RECORD
  5
4A6
100
AcDbSymbolTableRecord
100
AcDbBlockTableRecord
  2
BLOCK31
  0
BLOCK_RECORD
  5
4A7
100
AcDbSymbolTableRecord
100
AcDbBlockTableRecord
  2
BLOCK32
  0
BLOCK_RECORD
  5
4A8
100
AcDbSymbolTableRecord
100
AcDbBlockTableRecord
  2
BLOCK33
  0
BLOCK_RECORD
  5
4A9
100
AcDbSymbolTableRecord
100
AcDbBlockTableRecord
  2
BLOCK34
  0
BLOCK_RECORD
  5
4AA
100
AcDbSymbolTableRecord
100
AcDbBlockTableRecord
  2
BLOCK35
  0
BLOCK_RECORD
  5
4AB
100
AcDbSymbolTableRecord
100
AcDbBlockTableRecord
  2
BLOCK36
  0
BLOCK_RECORD
  5
4AC
100
AcDbSymbolTableRecord
100
AcDbBlockTableRecord
  2
BLOCK37
  0
BLOCK_RECORD
  5
4AD
100
AcDbSymbolTableRecord
100
AcDbBlockTableRecord
  2
BLOCK38
  0
BLOCK_RECORD
  5
4AE
100
AcDbSymbolTableRecord
100
AcDbBlockTableRecord
  2
BLOCK39
  0
BLOCK_RECORD
  5
4AF
100
AcDbSymbolTableRecord
100
AcDbBlockTableRecord
  2
BLOCK40
  0
ENDTAB
  0
ENDSEC
  0
SECTION
  2
BLOCKS
  0
BLOCK
  5
D
100
AcDbEntity
  8
0
100
AcDbBlockBegin
  2
*MODEL_SPACE
 70
     0
 10
0.0
 20
0.0
 30
0.0
  3
*MODEL_SPACE
  1

  0
ENDBLK
  5
E
100
AcDbEntity
  8
0
100
AcDbBlockEnd
  0
BLOCK
  5
F
100
AcDbEntity
 67
     1
  8
0
100
AcDbBlockBegin
  2
*PAPER_SPACE
 70
     0
 10
0.0
 20
0.0
 30
0.0
  3
*PAPER_SPACE
  1

  0
ENDBLK
  5
10
100
AcDbEntity
 67
     1
  8
0
100
AcDbBlockEnd
  0
BLOCK
  5
4B0
100
AcDbEntity
  8
0
100
AcDbBlockBegin
  2
BLOCK0
 70
     0
 10
0.0
 20
0.0
 30
0.0
  3
BLOCK0
  1

  0
TEXT
  5
4B1
100
AcDbEntity
  8
0
 62
     7
100
AcDbText
 10
248.398666
 20
320.25
 30
0.0
 40
3.5
  1
RH0012147
 50
0.000005
 41
1.023
 72
     5
 11
281.601318
 21
320.25
 31
0.0
100
AcDbText
  0
ENDBLK
  5
4B2
100
AcDbEntity
  8
0
100
AcDbBlockEnd
  0
BLOCK
  5
4B3
100
AcDbEntity
  8
0
100
AcDbBlockBegin
  2
BLOCK1
 70
     0
 10
0.0
 20
0.0
 30
0.0
  3
BLOCK1
  1

  0
TEXT
  5
4B4
100
AcDbEntity
  8
0
 62
     7
100
AcDbText
 10
262.0
 20
328.0
 30
0.0
 40
3.0
  1
T2
 50
0.000005
 72
     5
 11
267.754608
 21
328.0
 31
0.0
100
AcDbText
  0
ENDBLK
  5
4B5
100
AcDbEntity
  8
0
100
AcDbBlockEnd
  0
BLOCK
  5
4B6
100
AcDbEntity
  8
0
100
AcDbBlockBegin
  2
BLOCK2
 70
     0
 10
0.0
 20
0.0
 30
0.0
  3
BLOCK2
  1

  0
TEXT
  5
4B7
100
AcDbEntity
  8
0
 62
     7
100
AcDbText
 10
146.0
 20
330.952454
 30
0.0
 40
2.0
  1
N0216 2007-12-07
 72
     5
 11
170.757919
 21
330.952454
 31
0.0
100
AcDbText
  0
ENDBLK
  5
4B8
100
AcDbEntity
  8
0
100
AcDbBlockEnd
  0
BLOCK
  5
4B9
100
AcDbEntity
  8
0
100
AcDbBlockBegin
  2
BLOCK3
 70
     0
 10
0.0
 20
0.0
 30
0.0
  3
BLOCK3
  1

  0
TEXT
  5
4BA
100
AcDbEntity
  8
0
 62
     7
100
AcDbText
 10
231.202591
 20
346.135437
 30
0.0
 40
2.0
  1
3-4 POLE LOW VOLTAGE M.C.C.B. SERIES "T"
 72
     5
 11
292.797394
 21
346.135437
 31
0.0
100
AcDbText
  0
TEXT
  5
4BB
100
AcDbEntity
  8
0
 62
     7
100
AcDbText
 10
240.411804
 20
342.680115
 30
0.0
 40
2.0
  1
FIXED VERS. IP 42 PROTECTION
 72
     5
 11
283.588165
 21
342.680115
 31
0.0
100
AcDbText
  0
TEXT
  5
4BC
100
AcDbEntity
  8
0
 62
     7
100
AcDbText
 10
240.411804
 20
339.224762
 30
0.0
 40
2.0
  1
INTERR. AUTOMATICO SERIE "T"
 72
     5
 11
283.588165
 21
339.224762
 31
0.0
100
AcDbText
  0
TEXT
  5
4BD
100
AcDbEntity
  8
0
 62
     7
100
AcDbText
 10
232.737457
 20
335.76944
 30
0.0
 40
2.0
  1
TRIP.-TERTR. ES.FISSA PROTEZIONE IP 42
 72
     5
 11
291.262512
 21
335.76944
 31
0.0
100
AcDbText
  0
ENDBLK
  5
4BE
100
AcDbEntity
  8
0
100
AcDbBlockEnd
  0
BLOCK
  5
4BF
100
AcDbEntity
  8
0
100
AcDbBlockBegin
  2
BLOCK4
 70
     0
 10
0.0
 20
0.0
 30
0.0
  3
BLOCK4
  1

  0
POINT
  5
4C0
100
AcDbEntity
  8
0
 62
     7
100
AcDbPoint
 10
-27.5
 20
66.0
 30
0.0
210
0.0
220
0.0
230
1.0
  0
ARC
  5
4C1
100
AcDbEntity
  8
0
 62
     7
100
AcDbCircle
 10
-32.59
 20
66.0
 30
0.0
 40
5.09
210
0.0
220
0.0
230
1.0
100
AcDbArc
 50
334.391473
 51
25.608533
  0
ARC
  5
4C2
100
AcDbEntity
  8
0
 62
     7
100
AcDbCircle
 10
-32.59
 20
66.0
 30
0.0
 40
5.09
210
0.0
220
0.0
230
1.0
100
AcDbArc
 50
334.391473
 51
25.608533
  0
ARC
  5
4C3
100
AcDbEntity
  8
0
 62
     7
100
AcDbCircle
 10
-28.447226
 20
69.035004
 30
0.0
 40
0.947225
210
0.0
220
0.0
230
1.0
100
AcDbArc
 50
298.173439
 51
61.826552
  0
LINE
  5
4C4
100
AcDbEntity
  8
0
 62
     7
 48
0.075
100
AcDbLine
 10
-31.0
 20
69.870003
 30
0.0
 11
-28.0
 21
69.870003
 31
0.0
210
0.0
220
0.0
230
1.0
  0
ARC
  5
4C5
100
AcDbEntity
  8
0
 62
     7
100
AcDbCircle
 10
-30.552774
 20
69.035004
 30
0.0
 40
0.947225
210
0.0
220
0.0
230
1.0
100
AcDbArc
 50
118.173447
 51
241.826563
  0
ARC
  5
4C6
100
AcDbEntity
  8
0
 62
     7
100
AcDbCircle
 10
-26.41
 20
66.0
 30
0.0
 40
5.09
210
0.0
220
0.0
230
1.0
100
AcDbArc
 50
154.391467
 51
205.608528
  0
LINE
  5
4C7
100
AcDbEntity
  8
0
 62
     7
 48
0.1
100
AcDbLine
 10
-35.5
 20
67.5
 30
0.0
 11
-31.5
 21
67.5
 31
0.0
210
0.0
220
0.0
230
1.0
  0
LINE
  5
4C8
100
AcDbEntity
  8
0
 62
     7
 48
0.0875
100
AcDbLine
 10
-35.0
 20
68.0
 30
0.0
 11
-31.5
 21
68.0
 31
0.0
210
0.0
220
0.0
230
1.0
  0
LINE
  5
4C9
100
AcDbEntity
  8
0
 62
     7
 48
0.075
100
AcDbLine
 10
-35.5
 20
64.5
 30
0.0
 11
-35.5
 21
67.5
 31
0.0
210
0.0
220
0.0
230
1.0
  0
LINE
  5
4CA
100
AcDbEntity
  8
0
  6
DASHDOT
 62
     7
 48
0.238675
100
AcDbLine
 10
-37.046989
 20
66.0
 30
0.0
 11
-27.5
 21
66.0
 31
0.0
210
0.0
220
0.0
230
1.0
  0
LINE
  5
4CB
100
AcDbEntity
  8
0
 62
     7
 48
0.017678
100
AcDbLine
 10
-35.5
 20
67.5
 30
0.0
 11
-35.0
 21
68.0
 31
0.0
210
0.0
220
0.0
230
1.0
  0
LINE
  5
4CC
100
AcDbEntity
  8
0
 62
     7
 48
0.1
100
AcDbLine
 10
-35.0
 20
64.0
 30
0.0
 11
-35.0
 21
68.0
 31
0.0
210
0.0
220
0.0
230
1.0
  0
LINE
  5
4CD
100
AcDbEntity
  8
0
 62
     7
 48
0.017678
100
AcDbLine
 10
-35.5
 20
64.5
 30
0.0
 11
-35.0
 21
64.0
 31
0.0
210
0.0
220
0.0
230
1.0
  0
LINE
  5
4CE
100
AcDbEntity
  8
0
 62
     7
 48
0.0875
100
AcDbLine
 10
-35.0
 20
64.0
 30
0.0
 11
-31.5
 21
64.0
 31
0.0
210
0.0
220
0.0
230
1.0
  0
ARC
  5
4CF
100
AcDbEntity
  8
0
 62
     7
100
AcDbCircle
 10
-30.552774
 20
62.965
 30
0.0
 40
0.947225
210
0.0
220
0.0
230
1.0
100
AcDbArc
 50
118.173447
 51
241.826563
  0
LINE
  5
4D0
100
AcDbEntity
  8
0
 62
     7
 48
0.15175
100
AcDbLine
 10
-31.5
 20
62.965
 30
0.0
 11
-31.5
 21
69.035004
 31
0.0
210
0.0
220
0.0
230
1.0
  0
LINE
  5
4D1
100
AcDbEntity
  8
0
 62
     7
 48
0.075
100
AcDbLine
 10
-31.0
 20
63.799999
 30
0.0
 11
-28.0
 21
63.799999
 31
0.0
210
0.0
220
0.0
230
1.0
  0
ARC
  5
4D2
100
AcDbEntity
  8
0
 62
     7
100
AcDbCircle
 10
-28.447226
 20
62.965
 30
0.0
 40
0.947225
210
0.0
220
0.0
230
1.0
100
AcDbArc
 50
298.173439
 51
61.826552
  0
ARC
  5
4D3
100
AcDbEntity
  8
0
 62
     7
100
AcDbCircle
 10
-28.447226
 20
62.965
 30
0.0
 40
0.947225
210
0.0
220
0.0
230
1.0
100
AcDbArc
 50
298.173439
 51
61.826552
  0
LINE
  5
4D4
100
AcDbEntity
  8
0
 62
     7
 48
0.075
100
AcDbLine
 10
-31.0
 20
62.130001
 30
0.0
 11
-28.0
 21
62.130001
 31
0.0
210
0.0
220
0.0
230
1.0
  0
LINE
  5
4D5
100
AcDbEntity
  8
0
 62
     7
 48
0.075
100
AcDbLine
 10
-31.0
 20
68.199997
 30
0.0
 11
-28.0
 21
68.199997
 31
0.0
210
0.0
220
0.0
230
1.0
  0
LINE
  5
4D6
100
AcDbEntity
  8
0
 62
     7
 48
0.15175
100
AcDbLine
 10
-27.5
 20
62.965
 30
0.0
 11
-27.5
 21
69.035004
 31
0.0
210
0.0
220
0.0
230
1.0
  0
LINE
  5
4D7
100
AcDbEntity
  8
0
 62
     7
 48
0.1
100
AcDbLine
 10
-35.5
 20
64.5
 30
0.0
 11
-31.5
 21
64.5
 31
0.0
210
0.0
220
0.0
230
1.0
  0
ENDBLK
  5
4D8
100
AcDbEntity
  8
0
100
AcDbBlockEnd
  0
BLOCK
  5
4D9
100
AcDbEntity
  8
0
100
AcDbBlockBegin
  2
BLOCK5
 70
     0
 10
0.0
 20
0.0
 30
0.0
  3
BLOCK5
  1

  0
POINT
  5
4DA
100
AcDbEntity
  8
0
 62
     7
100
AcDbPoint
 10
-27.5
 20
-41.0
 30
0.0
210
0.0
220
0.0
230
1.0
  0
ARC
  5
4DB
100
AcDbEntity
  8
0
 62
     7
100
AcDbCircle
 10
-32.59
 20
-41.0
 30
0.0
 40
5.09
210
0.0
220
0.0
230
1.0
100
AcDbArc
 50
334.391473
 51
25.608533
  0
ARC
  5
4DC
100
AcDbEntity
  8
0
 62
     7
100
AcDbCircle
 10
-32.59
 20
-41.0
 30
0.0
 40
5.09
210
0.0
220
0.0
230
1.0
100
AcDbArc
 50
334.391473
 51
25.608533
  0
ARC
  5
4DD
100
AcDbEntity
  8
0
 62
     7
100
AcDbCircle
 10
-28.447226
 20
-37.965
 30
0.0
 40
0.947225
210
0.0
220
0.0
230
1.0
100
AcDbArc
 50
298.173439
 51
61.826552
  0
LINE
  5
4DE
100
AcDbEntity
  8
0
 62
     7
 48
0.075
100
AcDbLine
 10
-31.0
 20
-37.130001
 30
0.0
 11
-28.0
 21
-37.130001
 31
0.0
210
0.0
220
0.0
230
1.0
  0
ARC
  5
4DF
100
AcDbEntity
  8
0
 62
     7
100
AcDbCircle
 10
-30.552774
 20
-37.965
 30
0.0
 40
0.947225
210
0.0
220
0.0
230
1.0
100
AcDbArc
 50
118.173447
 51
241.826563
  0
ARC
  5
4E0
100
AcDbEntity
  8
0
 62
     7
100
AcDbCircle
 10
-26.41
 20
-41.0
 30
0.0
 40
5.09
210
0.0
220
0.0
230
1.0
100
AcDbArc
 50
154.391467
 51
205.608528
  0
LINE
  5
4E1
100
AcDbEntity
  8
0
 62
     7
 48
0.1
100
AcDbLine
 10
-35.5
 20
-39.5
 30
0.0
 11
-31.5
 21
-39.5
 31
0.0
210
0.0
220
0.0
230
1.0
  0
LINE
  5
4E2
100
AcDbEntity
  8
0
 62
     7
 48
0.0875
100
AcDbLine
 10
-35.0
 20
-39.0
 30
0.0
 11
-31.5
 21
-39.0
 31
0.0
210
0.0
220
0.0
230
1.0
  0
LINE
  5
4E3
100
AcDbEntity
  8
0
 62
     7
 48
0.075
100
AcDbLine
 10
-35.5
 20
-42.5
 30
0.0
 11
-35.5
 21
-39.5
 31
0.0
210
0.0
220
0.0
230
1.0
  0
LINE
  5
4E4
100
AcDbEntity
  8
0
  6
DASHDOT
 62
     7
 48
0.238675
100
AcDbLine
 10
-37.046989
 20
-41.0
 30
0.0
 11
-27.5
 21
-41.0
 31
0.0
210
0.0
220
0.0
230
1.0
  0
LINE
  5
4E5
100
AcDbEntity
  8
0
 62
     7
 48
0.017678
100
AcDbLine
 10
-35.5
 20
-39.5
 30
0.0
 11
-35.0
 21
-39.0
 31
0.0
210
0.0
220
0.0
230
1.0
  0
LINE
  5
4E6
100
AcDbEntity
  8
0
 62
     7
 48
0.1
100
AcDbLine
 10
-35.0
 20
-43.0
 30
0.0
 11
-35.0
 21
-39.0
 31
0.0
210
0.0
220
0.0
230
1.0
  0
LINE
  5
4E7
100
AcDbEntity
  8
0
 62
     7
 48
0.017678
100
AcDbLine
 10
-35.5
 20
-42.5
 30
0.0
 11
-35.0
 21
-43.0
 31
0.0
210
0.0
220
0.0
230
1.0
  0
LINE
  5
4E8
100
AcDbEntity
  8
0
 62
     7
 48
0.0875
100
AcDbLine
 10
-35.0
 20
-43.0
 30
0.0
 11
-31.5
 21
-43.0
 31
0.0
210
0.0
220
0.0
230
1.0
  0
ARC
  5
4E9
100
AcDbEntity
  8
0
 62
     7
100
AcDbCircle
 10
-30.552774
 20
-44.035
 30
0.0
 40
0.947225
210
0.0
220
0.0
230
1.0
100
AcDbArc
 50
118.173447
 51
241.826563
  0
LINE
  5
4EA
100
AcDbEntity
  8
0
 62
     7
 48
0.15175
100
AcDbLine
 10
-31.5
 20
-44.035
 30
0.0
 11
-31.5
 21
-37.965
 31
0.0
210
0.0
220
0.0
230
1.0
  0
LINE
  5
4EB
100
AcDbEntity
  8
0
 62
     7
 48
0.075
100
AcDbLine
 10
-31.0
 20
-43.200001
 30
0.0
 11
-28.0
 21
-43.200001
 31
0.0
210
0.0
220
0.0
230
1.0
  0
ARC
  5
4EC
100
AcDbEntity
  8
0
 62
     7
100
AcDbCircle
 10
-28.447226
 20
-44.035
 30
0.0
 40
0.947225
210
0.0
220
0.0
230
1.0
100
AcDbArc
 50
298.173439
 51
61.826552
  0
ARC
  5
4ED
100
AcDbEntity
  8
0
 62
     7
100
AcDbCircle
 10
-28.447226
 20
-44.035
 30
0.0
 40
0.947225
210
0.0
220
0.0
230
1.0
100
AcDbArc
 50
298.173439
 51
61.826552
  0
LINE
  5
4EE
100
AcDbEntity
  8
0
 62
     7
 48
0.075
100
AcDbLine
 10
-31.0
 20
-44.869999
 30
0.0
 11
-28.0
 21
-44.869999
 31
0.0
210
0.0
220
0.0
230
1.0
  0
LINE
  5
4EF
100
AcDbEntity
  8
0
 62
     7
 48
0.075
100
AcDbLine
 10
-31.0
 20
-38.799999
 30
0.0
 11
-28.0
 21
-38.799999
 31
0.0
210
0.0
220
0.0
230
1.0
  0
LINE
  5
4F0
100
AcDbEntity
  8
0
 62
     7
 48
0.15175
100
AcDbLine
 10
-27.5
 20
-44.035
 30
0.0
 11
-27.5
 21
-37.965
 31
0.0
210
0.0
220
0.0
230
1.0
  0
LINE
  5
4F1
100
AcDbEntity
  8
0
 62
     7
 48
0.1
100
AcDbLine
 10
-35.5
 20
-42.5
 30
0.0
 11
-31.5
 21
-42.5
 31
0.0
210
0.0
220
0.0
230
1.0
  0
ENDBLK
  5
4F2
100
AcDbEntity
  8
0
100
AcDbBlockEnd
  0
BLOCK
  5
4F3
100
AcDbEntity
  8
0
100
AcDbBlockBegin
  2
BLOCK6
 70
     0
 10
0.0
 20
0.0
 30
0.0
  3
BLOCK6
  1

  0
TEXT
  5
4F4
100
AcDbEntity
  8
0
 62
     7
100
AcDbText
 10
-34.886662
 20
10.489334
 30
0.0
 40
3.5
  1
X
 72
     5
 11
-31.850639
 21
10.489334
 31
0.0
100
AcDbText
  0
ENDBLK
  5
4F5
100
AcDbEntity
  8
0
100
AcDbBlockEnd
  0
BLOCK
  5
4F6
100
AcDbEntity
  8
0
100
AcDbBlockBegin
  2
BLOCK7
 70
     0
 10
0.0
 20
0.0
 30
0.0
  3
BLOCK7
  1

  0
TEXT
  5
4F7
100
AcDbEntity
  8
0
 62
     7
100
AcDbText
 10
82.637993
 20
10.704727
 30
0.0
 40
3.5
  1
X
 72
     5
 11
85.674019
 21
10.704727
 31
0.0
100
AcDbText
  0
ENDBLK
  5
4F8
100
AcDbEntity
  8
0
100
AcDbBlockEnd
  0
BLOCK
  5
4F9
100
AcDbEntity
  8
0
100
AcDbBlockBegin
  2
BLOCK8
 70
     0
 10
0.0
 20
0.0
 30
0.0
  3
BLOCK8
  1

  0
TEXT
  5
4FA
100
AcDbEntity
  8
0
 62
     7
100
AcDbText
 10
11.135456
 20
-77.52832
 30
0.0
 40
3.5
  1
88.5
 72
     5
 11
25.379547
 21
-77.52832
 31
0.0
100
AcDbText
  0
LINE
  5
4FB
100
AcDbEntity
  8
0
 62
     7
100
AcDbLine
 10
-24.500021
 20
-48.499989
 30
0.0
 11
-24.500021
 21
-81.52832
 31
0.0
210
0.0
220
0.0
230
1.0
  0
LINE
  5
4FC
100
AcDbEntity
  8
0
 62
     7
100
AcDbLine
 10
63.999981
 20
-46.675259
 30
0.0
 11
63.999981
 21
-81.52832
 31
0.0
210
0.0
220
0.0
230
1.0
  0
POLYLINE
  5
4FD
100
AcDbEntity
  8
0
 62
     7
100
AcDb2dPolyline
 66
     1
 10
0.0
 20
0.0
 30
0.0
 71
     3
  0
VERTEX
  5
4FE
100
AcDbEntity
  8
0
100
AcDbVertex
100
AcDb2dVertex
 10
62.068127
 20
-80.045959
 30
0.0
  0
VERTEX
  5
4FF
100
AcDbEntity
  8
0
100
AcDbVertex
100
AcDb2dVertex
 10
63.999981
 20
-79.52832
 30
0.0
  0
VERTEX
  5
500
100
AcDbEntity
  8
0
100
AcDbVertex
100
AcDb2dVertex
 10
62.068127
 20
-79.010681
 30
0.0
  0
SEQEND
  5
501
100
AcDbEntity
  8
0
  0
POLYLINE
  5
502
100
AcDbEntity
  8
0
 62
     7
100
AcDb2dPolyline
 66
     1
 10
0.0
 20
0.0
 30
0.0
 71
     3
  0
VERTEX
  5
503
100
AcDbEntity
  8
0
100
AcDbVertex
100
AcDb2dVertex
 10
-22.568169
 20
-79.010681
 30
0.0
  0
VERTEX
  5
504
100
AcDbEntity
  8
0
100
AcDbVertex
100
AcDb2dVertex
 10
-24.500021
 20
-79.52832
 30
0.0
  0
VERTEX
  5
505
100
AcDbEntity
  8
0
100
AcDbVertex
100
AcDb2dVertex
 10
-22.568169
 20
-80.045959
 30
0.0
  0
SEQEND
  5
506
100
AcDbEntity
  8
0
  0
LINE
  5
507
100
AcDbEntity
  8
0
 62
     7
100
AcDbLine
 10
-24.500021
 20
-79.52832
 30
0.0
 11
63.999981
 21
-79.52832
 31
0.0
210
0.0
220
0.0
230
1.0
  0
ENDBLK
  5
508
100
AcDbEntity
  8
0
100
AcDbBlockEnd
  0
BLOCK
  5
509
100
AcDbEntity
  8
0
100
AcDbBlockBegin
  2
BLOCK9
 70
     0
 10
0.0
 20
0.0
 30
0.0
  3
BLOCK9
  1

  0
TEXT
  5
50A
100
AcDbEntity
  8
0
 62
     7
100
AcDbText
 10
22.381779
 20
-88.11718
 30
0.0
 40
3.5
  1
103.2
 72
     5
 11
40.361897
 21
-88.11718
 31
0.0
100
AcDbText
  0
LINE
  5
50B
100
AcDbEntity
  8
0
 62
     7
100
AcDbLine
 10
-24.500021
 20
-48.499989
 30
0.0
 11
-24.500021
 21
-92.11718
 31
0.0
210
0.0
220
0.0
230
1.0
  0
LINE
  5
50C
100
AcDbEntity
  8
0
 62
     7
100
AcDbLine
 10
78.700005
 20
6.067326
 30
0.0
 11
78.700005
 21
-92.11718
 31
0.0
210
0.0
220
0.0
230
1.0
  0
POLYLINE
  5
50D
100
AcDbEntity
  8
0
 62
     7
100
AcDb2dPolyline
 66
     1
 10
0.0
 20
0.0
 30
0.0
 71
     3
  0
VERTEX
  5
50E
100
AcDbEntity
  8
0
100
AcDbVertex
100
AcDb2dVertex
 10
-22.568169
 20
-89.599541
 30
0.0
  0
VERTEX
  5
50F
100
AcDbEntity
  8
0
100
AcDbVertex
100
AcDb2dVertex
 10
-24.500021
 20
-90.11718
 30
0.0
  0
VERTEX
  5
510
100
AcDbEntity
  8
0
100
AcDbVertex
100
AcDb2dVertex
 10
-22.568169
 20
-90.634819
 30
0.0
  0
SEQEND
  5
511
100
AcDbEntity
  8
0
  0
POLYLINE
  5
512
100
AcDbEntity
  8
0
 62
     7
100
AcDb2dPolyline
 66
     1
 10
0.0
 20
0.0
 30
0.0
 71
     3
  0
VERTEX
  5
513
100
AcDbEntity
  8
0
100
AcDbVertex
100
AcDb2dVertex
 10
76.76815
 20
-90.634819
 30
0.0
  0
VERTEX
  5
514
100
AcDbEntity
  8
0
100
AcDbVertex
100
AcDb2dVertex
 10
78.700005
 20
-90.11718
 30
0.0
  0
VERTEX
  5
515
100
AcDbEntity
  8
0
100
AcDbVertex
100
AcDb2dVertex
 10
76.76815
 20
-89.599541
 30
0.0
  0
SEQEND
  5
516
100
AcDbEntity
  8
0
  0
LINE
  5
517
100
AcDbEntity
  8
0
 62
     7
100
AcDbLine
 10
-24.500021
 20
-90.11718
 30
0.0
 11
78.700005
 21
-90.11718
 31
0.0
210
0.0
220
0.0
230
1.0
  0
ENDBLK
  5
518
100
AcDbEntity
  8
0
100
AcDbBlockEnd
  0
BLOCK
  5
519
100
AcDbEntity
  8
0
100
AcDbBlockBegin
  2
BLOCK10
 70
     0
 10
0.0
 20
0.0
 30
0.0
  3
BLOCK10
  1

  0
TEXT
  5
51A
100
AcDbEntity
  8
0
 62
     1
100
AcDbText
 10
-35.536026
 20
-66.574654
 30
0.0
 40
3.5
  1
3
 72
     5
 11
-32.5
 21
-66.574654
 31
0.0
100
AcDbText
  0
TEXT
  5
51B
100
AcDbEntity
  8
0
 62
     1
100
AcDbText
 10
-38.636021
 20
-66.574654
 30
0.0
 40
3.5
  1
\U+2265
 72
     5
 11
-36.536022
 21
-66.574654
 31
0.0
100
AcDbText
  0
LINE
  5
51C
100
AcDbEntity
  8
0
 62
     1
 48
0.288301
100
AcDbLine
 10
-27.5
 20
-59.042622
 30
0.0
 11
-27.5
 21
-70.574654
 31
0.0
210
0.0
220
0.0
230
1.0
  0
LINE
  5
51D
100
AcDbEntity
  8
0
 62
     1
100
AcDbLine
 10
-24.500021
 20
-48.499989
 30
0.0
 11
-24.500021
 21
-70.574654
 31
0.0
210
0.0
220
0.0
230
1.0
  0
POLYLINE
  5
51E
100
AcDbEntity
  8
0
 62
     1
100
AcDb2dPolyline
 66
     1
 10
0.0
 20
0.0
 30
0.0
 71
     3
  0
VERTEX
  5
51F
100
AcDbEntity
  8
0
100
AcDbVertex
100
AcDb2dVertex
 10
-29.431852
 20
-69.092293
 30
0.0
  0
VERTEX
  5
520
100
AcDbEntity
  8
0
100
AcDbVertex
100
AcDb2dVertex
 10
-27.5
 20
-68.574654
 30
0.0
  0
VERTEX
  5
521
100
AcDbEntity
  8
0
100
AcDbVertex
100
AcDb2dVertex
 10
-29.431852
 20
-68.057014
 30
0.0
  0
SEQEND
  5
522
100
AcDbEntity
  8
0
  0
POLYLINE
  5
523
100
AcDbEntity
  8
0
 62
     1
100
AcDb2dPolyline
 66
     1
 10
0.0
 20
0.0
 30
0.0
 71
     3
  0
VERTEX
  5
524
100
AcDbEntity
  8
0
100
AcDbVertex
100
AcDb2dVertex
 10
-22.568169
 20
-68.057014
 30
0.0
  0
VERTEX
  5
525
100
AcDbEntity
  8
0
100
AcDbVertex
100
AcDb2dVertex
 10
-24.500021
 20
-68.574654
 30
0.0
  0
VERTEX
  5
526
100
AcDbEntity
  8
0
100
AcDbVertex
100
AcDb2dVertex
 10
-22.568169
 20
-69.092293
 30
0.0
  0
SEQEND
  5
527
100
AcDbEntity
  8
0
  0
LINE
  5
528
100
AcDbEntity
  8
0
 62
     1
 48
0.4784
100
AcDbLine
 10
-38.636024
 20
-68.574654
 30
0.0
 11
-19.500021
 21
-68.574654
 31
0.0
210
0.0
220
0.0
230
1.0
  0
ENDBLK
  5
529
100
AcDbEntity
  8
0
100
AcDbBlockEnd
  0
BLOCK
  5
52A
100
AcDbEntity
  8
0
100
AcDbBlockBegin
  2
BLOCK11
 70
     0
 10
0.0
 20
0.0
 30
0.0
  3
BLOCK11
  1

  0
TEXT
  5
52B
100
AcDbEntity
  8
0
 62
     7
100
AcDbText
 10
12.900444
 20
-66.574654
 30
0.0
 40
3.5
  1
70
 72
     5
 11
19.672489
 21
-66.574654
 31
0.0
100
AcDbText
  0
LINE
  5
52C
100
AcDbEntity
  8
0
 62
     7
100
AcDbLine
 10
-24.500021
 20
-48.499989
 30
0.0
 11
-24.500021
 21
-70.574654
 31
0.0
210
0.0
220
0.0
230
1.0
  0
LINE
  5
52D
100
AcDbEntity
  8
0
 62
     7
100
AcDbLine
 10
45.497181
 20
-37.300022
 30
0.0
 11
45.497181
 21
-70.574654
 31
0.0
210
0.0
220
0.0
230
1.0
  0
POLYLINE
  5
52E
100
AcDbEntity
  8
0
 62
     7
100
AcDb2dPolyline
 66
     1
 10
0.0
 20
0.0
 30
0.0
 71
     3
  0
VERTEX
  5
52F
100
AcDbEntity
  8
0
100
AcDbVertex
100
AcDb2dVertex
 10
43.565331
 20
-69.092293
 30
0.0
  0
VERTEX
  5
530
100
AcDbEntity
  8
0
100
AcDbVertex
100
AcDb2dVertex
 10
45.497181
 20
-68.574654
 30
0.0
  0
VERTEX
  5
531
100
AcDbEntity
  8
0
100
AcDbVertex
100
AcDb2dVertex
 10
43.565331
 20
-68.057014
 30
0.0
  0
SEQEND
  5
532
100
AcDbEntity
  8
0
  0
POLYLINE
  5
533
100
AcDbEntity
  8
0
 62
     7
100
AcDb2dPolyline
 66
     1
 10
0.0
 20
0.0
 30
0.0
 71
     3
  0
VERTEX
  5
534
100
AcDbEntity
  8
0
100
AcDbVertex
100
AcDb2dVertex
 10
-22.568169
 20
-68.057014
 30
0.0
  0
VERTEX
  5
535
100
AcDbEntity
  8
0
100
AcDbVertex
100
AcDb2dVertex
 10
-24.500021
 20
-68.574654
 30
0.0
  0
VERTEX
  5
536
100
AcDbEntity
  8
0
100
AcDbVertex
100
AcDb2dVertex
 10
-22.568169
 20
-69.092293
 30
0.0
  0
SEQEND
  5
537
100
AcDbEntity
  8
0
  0
LINE
  5
538
100
AcDbEntity
  8
0
 62
     7
100
AcDbLine
 10
-24.500021
 20
-68.574654
 30
0.0
 11
45.497181
 21
-68.574654
 31
0.0
210
0.0
220
0.0
230
1.0
  0
ENDBLK
  5
539
100
AcDbEntity
  8
0
100
AcDbBlockEnd
  0
BLOCK
  5
53A
100
AcDbEntity
  8
0
100
AcDbBlockBegin
  2
BLOCK12
 70
     0
 10
0.0
 20
0.0
 30
0.0
  3
BLOCK12
  1

  0
TEXT
  5
53B
100
AcDbEntity
  8
0
 62
     7
100
AcDbText
 10
69.252045
 20
-77.52832
 30
0.0
 40
3.5
  1
2
 72
     5
 11
72.288071
 21
-77.52832
 31
0.0
100
AcDbText
  0
LINE
  5
53C
100
AcDbEntity
  8
0
 62
     7
100
AcDbLine
 10
63.999981
 20
-46.675259
 30
0.0
 11
63.999981
 21
-81.52832
 31
0.0
210
0.0
220
0.0
230
1.0
  0
LINE
  5
53D
100
AcDbEntity
  8
0
 62
     7
100
AcDbLine
 10
65.999977
 20
-45.920002
 30
0.0
 11
65.999977
 21
-81.52832
 31
0.0
210
0.0
220
0.0
230
1.0
  0
POLYLINE
  5
53E
100
AcDbEntity
  8
0
 62
     7
100
AcDb2dPolyline
 66
     1
 10
0.0
 20
0.0
 30
0.0
 71
     3
  0
VERTEX
  5
53F
100
AcDbEntity
  8
0
100
AcDbVertex
100
AcDb2dVertex
 10
62.068127
 20
-80.045959
 30
0.0
  0
VERTEX
  5
540
100
AcDbEntity
  8
0
100
AcDbVertex
100
AcDb2dVertex
 10
63.999981
 20
-79.52832
 30
0.0
  0
VERTEX
  5
541
100
AcDbEntity
  8
0
100
AcDbVertex
100
AcDb2dVertex
 10
62.068127
 20
-79.010681
 30
0.0
  0
SEQEND
  5
542
100
AcDbEntity
  8
0
  0
POLYLINE
  5
543
100
AcDbEntity
  8
0
 62
     7
100
AcDb2dPolyline
 66
     1
 10
0.0
 20
0.0
 30
0.0
 71
     3
  0
VERTEX
  5
544
100
AcDbEntity
  8
0
100
AcDbVertex
100
AcDb2dVertex
 10
67.931831
 20
-79.010681
 30
0.0
  0
VERTEX
  5
545
100
AcDbEntity
  8
0
100
AcDbVertex
100
AcDb2dVertex
 10
65.999977
 20
-79.52832
 30
0.0
  0
VERTEX
  5
546
100
AcDbEntity
  8
0
100
AcDbVertex
100
AcDb2dVertex
 10
67.931831
 20
-80.045959
 30
0.0
  0
SEQEND
  5
547
100
AcDbEntity
  8
0
  0
LINE
  5
548
100
AcDbEntity
  8
0
 62
     7
 48
0.332202
100
AcDbLine
 10
58.999981
 20
-79.52832
 30
0.0
 11
72.288071
 21
-79.52832
 31
0.0
210
0.0
220
0.0
230
1.0
  0
ENDBLK
  5
549
100
AcDbEntity
  8
0
100
AcDbBlockEnd
  0
BLOCK
  5
54A
100
AcDbEntity
  8
0
100
AcDbBlockBegin
  2
BLOCK13
 70
     0
 10
0.0
 20
0.0
 30
0.0
  3
BLOCK13
  1

  0
TEXT
  5
54B
100
AcDbEntity
  8
0
 62
     7
100
AcDbText
 10
94.236305
 20
24.323246
 30
0.0
 40
3.5
  1
36.5
 50
90.000003
 72
     5
 11
94.236305
 21
38.567337
 31
0.0
100
AcDbText
  0
LINE
  5
54C
100
AcDbEntity
  8
0
 62
     7
100
AcDbLine
 10
62.500023
 20
48.999973
 30
0.0
 11
98.236305
 21
48.999973
 31
0.0
210
0.0
220
0.0
230
1.0
  0
POLYLINE
  5
54D
100
AcDbEntity
  8
0
 62
     7
100
AcDb2dPolyline
 66
     1
 10
0.0
 20
0.0
 30
0.0
 71
     3
  0
VERTEX
  5
54E
100
AcDbEntity
  8
0
100
AcDbVertex
100
AcDb2dVertex
 10
95.718666
 20
14.431798
 30
0.0
  0
VERTEX
  5
54F
100
AcDbEntity
  8
0
100
AcDbVertex
100
AcDb2dVertex
 10
96.236305
 20
12.499946
 30
0.0
  0
VERTEX
  5
550
100
AcDbEntity
  8
0
100
AcDbVertex
100
AcDb2dVertex
 10
96.753944
 20
14.431798
 30
0.0
  0
SEQEND
  5
551
100
AcDbEntity
  8
0
  0
POLYLINE
  5
552
100
AcDbEntity
  8
0
 62
     7
100
AcDb2dPolyline
 66
     1
 10
0.0
 20
0.0
 30
0.0
 71
     3
  0
VERTEX
  5
553
100
AcDbEntity
  8
0
100
AcDbVertex
100
AcDb2dVertex
 10
96.753944
 20
47.068119
 30
0.0
  0
VERTEX
  5
554
100
AcDbEntity
  8
0
100
AcDbVertex
100
AcDb2dVertex
 10
96.236305
 20
48.999973
 30
0.0
  0
VERTEX
  5
555
100
AcDbEntity
  8
0
100
AcDbVertex
100
AcDb2dVertex
 10
95.718666
 20
47.068119
 30
0.0
  0
SEQEND
  5
556
100
AcDbEntity
  8
0
  0
LINE
  5
557
100
AcDbEntity
  8
0
 62
     7
100
AcDbLine
 10
96.236305
 20
12.499946
 30
0.0
 11
96.236305
 21
48.999973
 31
0.0
210
0.0
220
0.0
230
1.0
  0
ENDBLK
  5
558
100
AcDbEntity
  8
0
100
AcDbBlockEnd
  0
BLOCK
  5
559
100
AcDbEntity
  8
0
100
AcDbBlockBegin
  2
BLOCK14
 70
     0
 10
0.0
 20
0.0
 30
0.0
  3
BLOCK14
  1

  0
TEXT
  5
55A
100
AcDbEntity
  8
0
 62
     7
100
AcDbText
 10
109.196884
 20
10.02492
 30
0.0
 40
3.5
  1
76
 50
90.000003
 72
     5
 11
109.196884
 21
16.796965
 31
0.0
100
AcDbText
  0
LINE
  5
55B
100
AcDbEntity
  8
0
 62
     7
100
AcDbLine
 10
62.499989
 20
-27.000027
 30
0.0
 11
113.196884
 21
-27.000027
 31
0.0
210
0.0
220
0.0
230
1.0
  0
LINE
  5
55C
100
AcDbEntity
  8
0
 62
     7
100
AcDbLine
 10
62.500023
 20
48.999973
 30
0.0
 11
113.196884
 21
48.999973
 31
0.0
210
0.0
220
0.0
230
1.0
  0
POLYLINE
  5
55D
100
AcDbEntity
  8
0
 62
     7
100
AcDb2dPolyline
 66
     1
 10
0.0
 20
0.0
 30
0.0
 71
     3
  0
VERTEX
  5
55E
100
AcDbEntity
  8
0
100
AcDbVertex
100
AcDb2dVertex
 10
111.714523
 20
47.068119
 30
0.0
  0
VERTEX
  5
55F
100
AcDbEntity
  8
0
100
AcDbVertex
100
AcDb2dVertex
 10
111.196884
 20
48.999973
 30
0.0
  0
VERTEX
  5
560
100
AcDbEntity
  8
0
100
AcDbVertex
100
AcDb2dVertex
 10
110.679245
 20
47.068119
 30
0.0
  0
SEQEND
  5
561
100
AcDbEntity
  8
0
  0
POLYLINE
  5
562
100
AcDbEntity
  8
0
 62
     7
100
AcDb2dPolyline
 66
     1
 10
0.0
 20
0.0
 30
0.0
 71
     3
  0
VERTEX
  5
563
100
AcDbEntity
  8
0
100
AcDbVertex
100
AcDb2dVertex
 10
110.679245
 20
-25.068176
 30
0.0
  0
VERTEX
  5
564
100
AcDbEntity
  8
0
100
AcDbVertex
100
AcDb2dVertex
 10
111.196884
 20
-27.000027
 30
0.0
  0
VERTEX
  5
565
100
AcDbEntity
  8
0
100
AcDbVertex
100
AcDb2dVertex
 10
111.714523
 20
-25.068176
 30
0.0
  0
SEQEND
  5
566
100
AcDbEntity
  8
0
  0
LINE
  5
567
100
AcDbEntity
  8
0
 62
     7
100
AcDbLine
 10
111.196884
 20
-27.000027
 30
0.0
 11
111.196884
 21
48.999973
 31
0.0
210
0.0
220
0.0
230
1.0
  0
ENDBLK
  5
568
100
AcDbEntity
  8
0
100
AcDbBlockEnd
  0
BLOCK
  5
569
100
AcDbEntity
  8
0
100
AcDbBlockBegin
  2
BLOCK15
 70
     0
 10
0.0
 20
0.0
 30
0.0
  3
BLOCK15
  1

  0
TEXT
  5
56A
100
AcDbEntity
  8
0
 62
     1
100
AcDbText
 10
80.026077
 20
61.216816
 30
0.0
 40
3.5
  1
1
 72
     5
 11
83.062103
 21
61.216816
 31
0.0
100
AcDbText
  0
TEXT
  5
56B
100
AcDbEntity
  8
0
 62
     1
100
AcDbText
 10
75.990051
 20
61.216816
 30
0.0
 40
3.5
  1
(
 72
     5
 11
79.026077
 21
61.216816
 31
0.0
100
AcDbText
  0
TEXT
  5
56C
100
AcDbEntity
  8
0
 62
     1
100
AcDbText
 10
84.062103
 20
61.216816
 30
0.0
 40
3.5
  1
)
 72
     5
 11
87.098129
 21
61.216816
 31
0.0
100
AcDbText
  0
LINE
  5
56D
100
AcDbEntity
  8
0
 62
     1
 48
0.287897
100
AcDbLine
 10
65.000023
 20
49.700932
 30
0.0
 11
65.000023
 21
61.216816
 31
0.0
210
0.0
220
0.0
230
1.0
  0
POLYLINE
  5
56E
100
AcDbEntity
  8
0
 62
     1
100
AcDb2dPolyline
 66
     1
 10
0.0
 20
0.0
 30
0.0
 71
     3
  0
VERTEX
  5
56F
100
AcDbEntity
  8
0
100
AcDbVertex
100
AcDb2dVertex
 10
62.06818
 20
58.699177
 30
0.0
  0
VERTEX
  5
570
100
AcDbEntity
  8
0
100
AcDbVertex
100
AcDb2dVertex
 10
64.000031
 20
59.216816
 30
0.0
  0
VERTEX
  5
571
100
AcDbEntity
  8
0
100
AcDbVertex
100
AcDb2dVertex
 10
62.06818
 20
59.734455
 30
0.0
  0
SEQEND
  5
572
100
AcDbEntity
  8
0
  0
POLYLINE
  5
573
100
AcDbEntity
  8
0
 62
     1
100
AcDb2dPolyline
 66
     1
 10
0.0
 20
0.0
 30
0.0
 71
     3
  0
VERTEX
  5
574
100
AcDbEntity
  8
0
100
AcDbVertex
100
AcDb2dVertex
 10
66.931877
 20
59.734455
 30
0.0
  0
VERTEX
  5
575
100
AcDbEntity
  8
0
100
AcDbVertex
100
AcDb2dVertex
 10
65.000023
 20
59.216816
 30
0.0
  0
VERTEX
  5
576
100
AcDbEntity
  8
0
100
AcDbVertex
100
AcDb2dVertex
 10
66.931877
 20
58.699177
 30
0.0
  0
SEQEND
  5
577
100
AcDbEntity
  8
0
  0
LINE
  5
578
100
AcDbEntity
  8
0
 62
     1
100
AcDbLine
 10
59.000031
 20
59.216816
 30
0.0
 11
87.098122
 21
59.216816
 31
0.0
210
0.0
220
0.0
230
1.0
  0
ENDBLK
  5
579
100
AcDbEntity
  8
0
100
AcDbBlockEnd
  0
BLOCK
  5
57A
100
AcDbEntity
  8
0
100
AcDbBlockBegin
  2
BLOCK16
 70
     0
 10
0.0
 20
0.0
 30
0.0
  3
BLOCK16
  1

  0
TEXT
  5
57B
100
AcDbEntity
  8
0
 62
     7
100
AcDbText
 10
-59.905891
 20
10.4552
 30
0.0
 40
3.5
  1
X
 72
     5
 11
-56.869869
 21
10.4552
 31
0.0
100
AcDbText
  0
ENDBLK
  5
57C
100
AcDbEntity
  8
0
100
AcDbBlockEnd
  0
BLOCK
  5
57D
100
AcDbEntity
  8
0
100
AcDbBlockBegin
  2
BLOCK17
 70
     0
 10
0.0
 20
0.0
 30
0.0
  3
BLOCK17
  1

  0
TEXT
  5
57E
100
AcDbEntity
  8
0
 62
     7
100
AcDbText
 10
-2.176596
 20
68.881714
 30
0.0
 40
3.5
  1
Y
 72
     5
 11
0.859427
 21
68.881714
 31
0.0
100
AcDbText
  0
ENDBLK
  5
57F
100
AcDbEntity
  8
0
100
AcDbBlockEnd
  0
BLOCK
  5
580
100
AcDbEntity
  8
0
100
AcDbBlockBegin
  2
BLOCK18
 70
     0
 10
0.0
 20
0.0
 30
0.0
  3
BLOCK18
  1

  0
TEXT
  5
581
100
AcDbEntity
  8
0
 62
     7
100
AcDbText
 10
55.750374
 20
10.060165
 30
0.0
 40
3.5
  1
X
 72
     5
 11
58.786396
 21
10.060165
 31
0.0
100
AcDbText
  0
ENDBLK
  5
582
100
AcDbEntity
  8
0
100
AcDbBlockEnd
  0
BLOCK
  5
583
100
AcDbEntity
  8
0
100
AcDbBlockBegin
  2
BLOCK19
 70
     0
 10
0.0
 20
0.0
 30
0.0
  3
BLOCK19
  1

  0
TEXT
  5
584
100
AcDbEntity
  8
0
 62
     7
100
AcDbText
 10
-2.222187
 20
-49.14669
 30
0.0
 40
3.5
  1
Y
 72
     5
 11
0.813836
 21
-49.14669
 31
0.0
100
AcDbText
  0
ENDBLK
  5
585
100
AcDbEntity
  8
0
100
AcDbBlockEnd
  0
BLOCK
  5
586
100
AcDbEntity
  8
0
100
AcDbBlockBegin
  2
BLOCK20
 70
     0
 10
0.0
 20
0.0
 30
0.0
  3
BLOCK20
  1

  0
TEXT
  5
587
100
AcDbEntity
  8
0
 62
     5
100
AcDbText
 10
-70.709824
 20
18.821026
 30
0.0
 40
3.5
  1
32.5
 50
90.000003
 72
     5
 11
-70.709824
 21
33.065117
 31
0.0
100
AcDbText
  0
LINE
  5
588
100
AcDbEntity
  8
0
 62
     5
 48
0.307411
100
AcDbLine
 10
-58.413395
 20
12.5
 30
0.0
 11
-70.709824
 21
12.5
 31
0.0
210
0.0
220
0.0
230
1.0
  0
LINE
  5
589
100
AcDbEntity
  8
0
 62
     5
100
AcDbLine
 10
-36.0
 20
45.0
 30
0.0
 11
-70.709824
 21
45.0
 31
0.0
210
0.0
220
0.0
230
1.0
  0
POLYLINE
  5
58A
100
AcDbEntity
  8
0
 62
     5
100
AcDb2dPolyline
 66
     1
 10
0.0
 20
0.0
 30
0.0
 71
     3
  0
VERTEX
  5
58B
100
AcDbEntity
  8
0
100
AcDbVertex
100
AcDb2dVertex
 10
-68.192184
 20
43.06815
 30
0.0
  0
VERTEX
  5
58C
100
AcDbEntity
  8
0
100
AcDbVertex
100
AcDb2dVertex
 10
-68.709824
 20
45.0
 30
0.0
  0
VERTEX
  5
58D
100
AcDbEntity
  8
0
100
AcDbVertex
100
AcDb2dVertex
 10
-69.227463
 20
43.06815
 30
0.0
  0
SEQEND
  5
58E
100
AcDbEntity
  8
0
  0
POLYLINE
  5
58F
100
AcDbEntity
  8
0
 62
     5
100
AcDb2dPolyline
 66
     1
 10
0.0
 20
0.0
 30
0.0
 71
     3
  0
VERTEX
  5
590
100
AcDbEntity
  8
0
100
AcDbVertex
100
AcDb2dVertex
 10
-69.227463
 20
14.431851
 30
0.0
  0
VERTEX
  5
591
100
AcDbEntity
  8
0
100
AcDbVertex
100
AcDb2dVertex
 10
-68.709824
 20
12.5
 30
0.0
  0
VERTEX
  5
592
100
AcDbEntity
  8
0
100
AcDbVertex
100
AcDb2dVertex
 10
-68.192184
 20
14.431851
 30
0.0
  0
SEQEND
  5
593
100
AcDbEntity
  8
0
  0
LINE
  5
594
100
AcDbEntity
  8
0
 62
     5
100
AcDbLine
 10
-68.709824
 20
12.5
 30
0.0
 11
-68.709824
 21
45.0
 31
0.0
210
0.0
220
0.0
230
1.0
  0
ENDBLK
  5
595
100
AcDbEntity
  8
0
100
AcDbBlockEnd
  0
BLOCK
  5
596
100
AcDbEntity
  8
0
100
AcDbBlockBegin
  2
BLOCK21
 70
     0
 10
0.0
 20
0.0
 30
0.0
  3
BLOCK21
  1

  0
TEXT
  5
597
100
AcDbEntity
  8
0
 62
     7
100
AcDbText
 10
-96.029854
 20
9.990105
 30
0.0
 40
3.5
  1
68
 50
90.000003
 72
     5
 11
-96.029854
 21
16.76215
 31
0.0
100
AcDbText
  0
LINE
  5
598
100
AcDbEntity
  8
0
 62
     7
100
AcDbLine
 10
-36.0
 20
-23.0
 30
0.0
 11
-96.029854
 21
-23.0
 31
0.0
210
0.0
220
0.0
230
1.0
  0
LINE
  5
599
100
AcDbEntity
  8
0
 62
     7
100
AcDbLine
 10
-36.0
 20
45.0
 30
0.0
 11
-96.029854
 21
45.0
 31
0.0
210
0.0
220
0.0
230
1.0
  0
POLYLINE
  5
59A
100
AcDbEntity
  8
0
 62
     7
100
AcDb2dPolyline
 66
     1
 10
0.0
 20
0.0
 30
0.0
 71
     3
  0
VERTEX
  5
59B
100
AcDbEntity
  8
0
100
AcDbVertex
100
AcDb2dVertex
 10
-93.512215
 20
43.06815
 30
0.0
  0
VERTEX
  5
59C
100
AcDbEntity
  8
0
100
AcDbVertex
100
AcDb2dVertex
 10
-94.029854
 20
45.0
 30
0.0
  0
VERTEX
  5
59D
100
AcDbEntity
  8
0
100
AcDbVertex
100
AcDb2dVertex
 10
-94.547493
 20
43.06815
 30
0.0
  0
SEQEND
  5
59E
100
AcDbEntity
  8
0
  0
POLYLINE
  5
59F
100
AcDbEntity
  8
0
 62
     7
100
AcDb2dPolyline
 66
     1
 10
0.0
 20
0.0
 30
0.0
 71
     3
  0
VERTEX
  5
5A0
100
AcDbEntity
  8
0
100
AcDbVertex
100
AcDb2dVertex
 10
-94.547493
 20
-21.068148
 30
0.0
  0
VERTEX
  5
5A1
100
AcDbEntity
  8
0
100
AcDbVertex
100
AcDb2dVertex
 10
-94.029854
 20
-23.0
 30
0.0
  0
VERTEX
  5
5A2
100
AcDbEntity
  8
0
100
AcDbVertex
100
AcDb2dVertex
 10
-93.512215
 20
-21.068148
 30
0.0
  0
SEQEND
  5
5A3
100
AcDbEntity
  8
0
  0
LINE
  5
5A4
100
AcDbEntity
  8
0
 62
     7
100
AcDbLine
 10
-94.029854
 20
-23.0
 30
0.0
 11
-94.029854
 21
45.0
 31
0.0
210
0.0
220
0.0
230
1.0
  0
ENDBLK
  5
5A5
100
AcDbEntity
  8
0
100
AcDbBlockEnd
  0
BLOCK
  5
5A6
100
AcDbEntity
  8
0
100
AcDbBlockBegin
  2
BLOCK22
 70
     0
 10
0.0
 20
0.0
 30
0.0
  3
BLOCK22
  1

  0
TEXT
  5
5A7
100
AcDbEntity
  8
0
 62
     7
100
AcDbText
 10
-2.795239
 20
85.21434
 30
0.0
 40
3.5
  1
68
 72
     5
 11
3.976807
 21
85.21434
 31
0.0
100
AcDbText
  0
LINE
  5
5A8
100
AcDbEntity
  8
0
 62
     7
100
AcDbLine
 10
-34.0
 20
47.0
 30
0.0
 11
-34.0
 21
85.21434
 31
0.0
210
0.0
220
0.0
230
1.0
  0
LINE
  5
5A9
100
AcDbEntity
  8
0
 62
     7
100
AcDbLine
 10
34.0
 20
47.0
 30
0.0
 11
34.0
 21
85.21434
 31
0.0
210
0.0
220
0.0
230
1.0
  0
POLYLINE
  5
5AA
100
AcDbEntity
  8
0
 62
     7
100
AcDb2dPolyline
 66
     1
 10
0.0
 20
0.0
 30
0.0
 71
     3
  0
VERTEX
  5
5AB
100
AcDbEntity
  8
0
100
AcDbVertex
100
AcDb2dVertex
 10
32.06815
 20
82.696701
 30
0.0
  0
VERTEX
  5
5AC
100
AcDbEntity
  8
0
100
AcDbVertex
100
AcDb2dVertex
 10
34.0
 20
83.21434
 30
0.0
  0
VERTEX
  5
5AD
100
AcDbEntity
  8
0
100
AcDbVertex
100
AcDb2dVertex
 10
32.06815
 20
83.731979
 30
0.0
  0
SEQEND
  5
5AE
100
AcDbEntity
  8
0
  0
POLYLINE
  5
5AF
100
AcDbEntity
  8
0
 62
     7
100
AcDb2dPolyline
 66
     1
 10
0.0
 20
0.0
 30
0.0
 71
     3
  0
VERTEX
  5
5B0
100
AcDbEntity
  8
0
100
AcDbVertex
100
AcDb2dVertex
 10
-32.06815
 20
83.731979
 30
0.0
  0
VERTEX
  5
5B1
100
AcDbEntity
  8
0
100
AcDbVertex
100
AcDb2dVertex
 10
-34.0
 20
83.21434
 30
0.0
  0
VERTEX
  5
5B2
100
AcDbEntity
  8
0
100
AcDbVertex
100
AcDb2dVertex
 10
-32.06815
 20
82.696701
 30
0.0
  0
SEQEND
  5
5B3
100
AcDbEntity
  8
0
  0
LINE
  5
5B4
100
AcDbEntity
  8
0
 62
     7
100
AcDbLine
 10
-34.0
 20
83.21434
 30
0.0
 11
34.0
 21
83.21434
 31
0.0
210
0.0
220
0.0
230
1.0
  0
ENDBLK
  5
5B5
100
AcDbEntity
  8
0
100
AcDbBlockEnd
  0
BLOCK
  5
5B6
100
AcDbEntity
  8
0
100
AcDbBlockBegin
  2
BLOCK23
 70
     0
 10
0.0
 20
0.0
 30
0.0
  3
BLOCK23
  1

  0
TEXT
  5
5B7
100
AcDbEntity
  8
0
 62
     7
100
AcDbText
 10
-82.347931
 20
11.048885
 30
0.0
 40
3.5
  1
X
 72
     5
 11
-79.311905
 21
11.048885
 31
0.0
100
AcDbText
  0
ENDBLK
  5
5B8
100
AcDbEntity
  8
0
100
AcDbBlockEnd
  0
BLOCK
  5
5B9
100
AcDbEntity
  8
0
100
AcDbBlockBegin
  2
BLOCK24
 70
     0
 10
0.0
 20
0.0
 30
0.0
  3
BLOCK24
  1

  0
TEXT
  5
5BA
100
AcDbEntity
  8
0
 62
     7
100
AcDbText
 10
48.294113
 20
11.259533
 30
0.0
 40
3.5
  1
X
 72
     5
 11
51.330135
 21
11.259533
 31
0.0
100
AcDbText
  0
ENDBLK
  5
5BB
100
AcDbEntity
  8
0
100
AcDbBlockEnd
  0
BLOCK
  5
5BC
100
AcDbEntity
  8
0
100
AcDbBlockBegin
  2
BLOCK25
 70
     0
 10
0.0
 20
0.0
 30
0.0
  3
BLOCK25
  1

  0
TEXT
  5
5BD
100
AcDbEntity
  8
0
 62
     7
100
AcDbText
 10
-1.806815
 20
81.708496
 30
0.0
 40
3.5
  1
Y
 72
     5
 11
1.229208
 21
81.708496
 31
0.0
100
AcDbText
  0
ENDBLK
  5
5BE
100
AcDbEntity
  8
0
100
AcDbBlockEnd
  0
BLOCK
  5
5BF
100
AcDbEntity
  8
0
100
AcDbBlockBegin
  2
BLOCK26
 70
     0
 10
0.0
 20
0.0
 30
0.0
  3
BLOCK26
  1

  0
TEXT
  5
5C0
100
AcDbEntity
  8
0
 62
     7
100
AcDbText
 10
-1.619414
 20
-59.130257
 30
0.0
 40
3.5
  1
Y
 72
     5
 11
1.416609
 21
-59.130257
 31
0.0
100
AcDbText
  0
ENDBLK
  5
5C1
100
AcDbEntity
  8
0
100
AcDbBlockEnd
  0
BLOCK
  5
5C2
100
AcDbEntity
  8
0
100
AcDbBlockBegin
  2
BLOCK27
 70
     0
 10
0.0
 20
0.0
 30
0.0
  3
BLOCK27
  1

  0
TEXT
  5
5C3
100
AcDbEntity
  8
0
 62
     7
100
AcDbText
 10
11.613998
 20
94.010841
 30
0.0
 40
3.5
  1
30
 72
     5
 11
18.386045
 21
94.010841
 31
0.0
100
AcDbText
  0
LINE
  5
5C4
100
AcDbEntity
  8
0
 62
     7
 48
0.307159
100
AcDbLine
 10
0.000044
 20
81.724464
 30
0.0
 11
0.000044
 21
94.010841
 31
0.0
210
0.0
220
0.0
230
1.0
  0
LINE
  5
5C5
100
AcDbEntity
  8
0
 62
     7
100
AcDbLine
 10
30.0
 20
71.650002
 30
0.0
 11
30.0
 21
94.010841
 31
0.0
210
0.0
220
0.0
230
1.0
  0
POLYLINE
  5
5C6
100
AcDbEntity
  8
0
 62
     7
100
AcDb2dPolyline
 66
     1
 10
0.0
 20
0.0
 30
0.0
 71
     3
  0
VERTEX
  5
5C7
100
AcDbEntity
  8
0
100
AcDbVertex
100
AcDb2dVertex
 10
28.068148
 20
91.493202
 30
0.0
  0
VERTEX
  5
5C8
100
AcDbEntity
  8
0
100
AcDbVertex
100
AcDb2dVertex
 10
30.0
 20
92.010841
 30
0.0
  0
VERTEX
  5
5C9
100
AcDbEntity
  8
0
100
AcDbVertex
100
AcDb2dVertex
 10
28.068148
 20
92.528481
 30
0.0
  0
SEQEND
  5
5CA
100
AcDbEntity
  8
0
  0
POLYLINE
  5
5CB
100
AcDbEntity
  8
0
 62
     7
100
AcDb2dPolyline
 66
     1
 10
0.0
 20
0.0
 30
0.0
 71
     3
  0
VERTEX
  5
5CC
100
AcDbEntity
  8
0
100
AcDbVertex
100
AcDb2dVertex
 10
1.931896
 20
92.528481
 30
0.0
  0
VERTEX
  5
5CD
100
AcDbEntity
  8
0
100
AcDbVertex
100
AcDb2dVertex
 10
0.000044
 20
92.010841
 30
0.0
  0
VERTEX
  5
5CE
100
AcDbEntity
  8
0
100
AcDbVertex
100
AcDb2dVertex
 10
1.931896
 20
91.493202
 30
0.0
  0
SEQEND
  5
5CF
100
AcDbEntity
  8
0
  0
LINE
  5
5D0
100
AcDbEntity
  8
0
 62
     7
100
AcDbLine
 10
0.000044
 20
92.010841
 30
0.0
 11
30.0
 21
92.010841
 31
0.0
210
0.0
220
0.0
230
1.0
  0
ENDBLK
  5
5D1
100
AcDbEntity
  8
0
100
AcDbBlockEnd
  0
BLOCK
  5
5D2
100
AcDbEntity
  8
0
100
AcDbBlockBegin
  2
BLOCK28
 70
     0
 10
0.0
 20
0.0
 30
0.0
  3
BLOCK28
  1

  0
TEXT
  5
5D3
100
AcDbEntity
  8
0
 62
     7
100
AcDbText
 10
-18.386002
 20
94.010841
 30
0.0
 40
3.5
  1
30
 72
     5
 11
-11.613955
 21
94.010841
 31
0.0
100
AcDbText
  0
LINE
  5
5D4
100
AcDbEntity
  8
0
 62
     7
100
AcDbLine
 10
-30.0
 20
71.650002
 30
0.0
 11
-30.0
 21
94.010841
 31
0.0
210
0.0
220
0.0
230
1.0
  0
LINE
  5
5D5
100
AcDbEntity
  8
0
 62
     7
 48
0.307159
100
AcDbLine
 10
0.000044
 20
81.724464
 30
0.0
 11
0.000044
 21
94.010841
 31
0.0
210
0.0
220
0.0
230
1.0
  0
POLYLINE
  5
5D6
100
AcDbEntity
  8
0
 62
     7
100
AcDb2dPolyline
 66
     1
 10
0.0
 20
0.0
 30
0.0
 71
     3
  0
VERTEX
  5
5D7
100
AcDbEntity
  8
0
100
AcDbVertex
100
AcDb2dVertex
 10
-1.931807
 20
91.493202
 30
0.0
  0
VERTEX
  5
5D8
100
AcDbEntity
  8
0
100
AcDbVertex
100
AcDb2dVertex
 10
0.000044
 20
92.010841
 30
0.0
  0
VERTEX
  5
5D9
100
AcDbEntity
  8
0
100
AcDbVertex
100
AcDb2dVertex
 10
-1.931807
 20
92.528481
 30
0.0
  0
SEQEND
  5
5DA
100
AcDbEntity
  8
0
  0
POLYLINE
  5
5DB
100
AcDbEntity
  8
0
 62
     7
100
AcDb2dPolyline
 66
     1
 10
0.0
 20
0.0
 30
0.0
 71
     3
  0
VERTEX
  5
5DC
100
AcDbEntity
  8
0
100
AcDbVertex
100
AcDb2dVertex
 10
-28.068148
 20
92.528481
 30
0.0
  0
VERTEX
  5
5DD
100
AcDbEntity
  8
0
100
AcDbVertex
100
AcDb2dVertex
 10
-30.0
 20
92.010841
 30
0.0
  0
VERTEX
  5
5DE
100
AcDbEntity
  8
0
100
AcDbVertex
100
AcDb2dVertex
 10
-28.068148
 20
91.493202
 30
0.0
  0
SEQEND
  5
5DF
100
AcDbEntity
  8
0
  0
LINE
  5
5E0
100
AcDbEntity
  8
0
 62
     7
100
AcDbLine
 10
-30.0
 20
92.010841
 30
0.0
 11
0.000044
 21
92.010841
 31
0.0
210
0.0
220
0.0
230
1.0
  0
ENDBLK
  5
5E1
100
AcDbEntity
  8
0
100
AcDbBlockEnd
  0
BLOCK
  5
5E2
100
AcDbEntity
  8
0
100
AcDbBlockBegin
  2
BLOCK29
 70
     0
 10
0.0
 20
0.0
 30
0.0
  3
BLOCK29
  1

  0
TEXT
  5
5E3
100
AcDbEntity
  8
0
 62
     7
100
AcDbText
 10
-48.386002
 20
94.010841
 30
0.0
 40
3.5
  1
30
 72
     5
 11
-41.613953
 21
94.010841
 31
0.0
100
AcDbText
  0
LINE
  5
5E4
100
AcDbEntity
  8
0
 62
     7
100
AcDbLine
 10
-59.999954
 20
71.975037
 30
0.0
 11
-59.999954
 21
94.010841
 31
0.0
210
0.0
220
0.0
230
1.0
  0
LINE
  5
5E5
100
AcDbEntity
  8
0
 62
     7
100
AcDbLine
 10
-30.0
 20
71.650002
 30
0.0
 11
-30.0
 21
94.010841
 31
0.0
210
0.0
220
0.0
230
1.0
  0
POLYLINE
  5
5E6
100
AcDbEntity
  8
0
 62
     7
100
AcDb2dPolyline
 66
     1
 10
0.0
 20
0.0
 30
0.0
 71
     3
  0
VERTEX
  5
5E7
100
AcDbEntity
  8
0
100
AcDbVertex
100
AcDb2dVertex
 10
-31.931852
 20
91.493202
 30
0.0
  0
VERTEX
  5
5E8
100
AcDbEntity
  8
0
100
AcDbVertex
100
AcDb2dVertex
 10
-30.0
 20
92.010841
 30
0.0
  0
VERTEX
  5
5E9
100
AcDbEntity
  8
0
100
AcDbVertex
100
AcDb2dVertex
 10
-31.931852
 20
92.528481
 30
0.0
  0
SEQEND
  5
5EA
100
AcDbEntity
  8
0
  0
POLYLINE
  5
5EB
100
AcDbEntity
  8
0
 62
     7
100
AcDb2dPolyline
 66
     1
 10
0.0
 20
0.0
 30
0.0
 71
     3
  0
VERTEX
  5
5EC
100
AcDbEntity
  8
0
100
AcDbVertex
100
AcDb2dVertex
 10
-58.068104
 20
92.528481
 30
0.0
  0
VERTEX
  5
5ED
100
AcDbEntity
  8
0
100
AcDbVertex
100
AcDb2dVertex
 10
-59.999954
 20
92.010841
 30
0.0
  0
VERTEX
  5
5EE
100
AcDbEntity
  8
0
100
AcDbVertex
100
AcDb2dVertex
 10
-58.068104
 20
91.493202
 30
0.0
  0
SEQEND
  5
5EF
100
AcDbEntity
  8
0
  0
LINE
  5
5F0
100
AcDbEntity
  8
0
 62
     7
100
AcDbLine
 10
-59.999954
 20
92.010841
 30
0.0
 11
-30.0
 21
92.010841
 31
0.0
210
0.0
220
0.0
230
1.0
  0
ENDBLK
  5
5F1
100
AcDbEntity
  8
0
100
AcDbBlockEnd
  0
BLOCK
  5
5F2
100
AcDbEntity
  8
0
100
AcDbBlockBegin
  2
BLOCK30
 70
     0
 10
0.0
 20
0.0
 30
0.0
  3
BLOCK30
  1

  0
TEXT
  5
5F3
100
AcDbEntity
  8
0
 62
     7
100
AcDbText
 10
-4.396894
 20
107.534744
 30
0.0
 40
3.5
  1
90
 72
     5
 11
2.375152
 21
107.534744
 31
0.0
100
AcDbText
  0
LINE
  5
5F4
100
AcDbEntity
  8
0
 62
     7
100
AcDbLine
 10
-45.0
 20
73.5
 30
0.0
 11
-45.0
 21
107.534744
 31
0.0
210
0.0
220
0.0
230
1.0
  0
LINE
  5
5F5
100
AcDbEntity
  8
0
 62
     7
100
AcDbLine
 10
45.0
 20
73.5
 30
0.0
 11
45.0
 21
107.534744
 31
0.0
210
0.0
220
0.0
230
1.0
  0
POLYLINE
  5
5F6
100
AcDbEntity
  8
0
 62
     7
100
AcDb2dPolyline
 66
     1
 10
0.0
 20
0.0
 30
0.0
 71
     3
  0
VERTEX
  5
5F7
100
AcDbEntity
  8
0
100
AcDbVertex
100
AcDb2dVertex
 10
43.06815
 20
105.017105
 30
0.0
  0
VERTEX
  5
5F8
100
AcDbEntity
  8
0
100
AcDbVertex
100
AcDb2dVertex
 10
45.0
 20
105.534744
 30
0.0
  0
VERTEX
  5
5F9
100
AcDbEntity
  8
0
100
AcDbVertex
100
AcDb2dVertex
 10
43.06815
 20
106.052383
 30
0.0
  0
SEQEND
  5
5FA
100
AcDbEntity
  8
0
  0
POLYLINE
  5
5FB
100
AcDbEntity
  8
0
 62
     7
100
AcDb2dPolyline
 66
     1
 10
0.0
 20
0.0
 30
0.0
 71
     3
  0
VERTEX
  5
5FC
100
AcDbEntity
  8
0
100
AcDbVertex
100
AcDb2dVertex
 10
-43.06815
 20
106.052383
 30
0.0
  0
VERTEX
  5
5FD
100
AcDbEntity
  8
0
100
AcDbVertex
100
AcDb2dVertex
 10
-45.0
 20
105.534744
 30
0.0
  0
VERTEX
  5
5FE
100
AcDbEntity
  8
0
100
AcDbVertex
100
AcDb2dVertex
 10
-43.06815
 20
105.017105
 30
0.0
  0
SEQEND
  5
5FF
100
AcDbEntity
  8
0
  0
LINE
  5
600
100
AcDbEntity
  8
0
 62
     7
100
AcDbLine
 10
-45.0
 20
105.534744
 30
0.0
 11
45.0
 21
105.534744
 31
0.0
210
0.0
220
0.0
230
1.0
  0
ENDBLK
  5
601
100
AcDbEntity
  8
0
100
AcDbBlockEnd
  0
BLOCK
  5
602
100
AcDbEntity
  8
0
100
AcDbBlockBegin
  2
BLOCK31
 70
     0
 10
0.0
 20
0.0
 30
0.0
  3
BLOCK31
  1

  0
TEXT
  5
603
100
AcDbEntity
  8
0
 62
     7
100
AcDbText
 10
-19.174461
 20
118.91494
 30
0.0
 40
3.5
  1
120
 72
     5
 11
-8.666391
 21
118.91494
 31
0.0
100
AcDbText
  0
LINE
  5
604
100
AcDbEntity
  8
0
 62
     7
100
AcDbLine
 10
-75.0
 20
73.5
 30
0.0
 11
-75.0
 21
118.91494
 31
0.0
210
0.0
220
0.0
230
1.0
  0
LINE
  5
605
100
AcDbEntity
  8
0
 62
     7
100
AcDbLine
 10
45.0
 20
73.5
 30
0.0
 11
45.0
 21
118.91494
 31
0.0
210
0.0
220
0.0
230
1.0
  0
POLYLINE
  5
606
100
AcDbEntity
  8
0
 62
     7
100
AcDb2dPolyline
 66
     1
 10
0.0
 20
0.0
 30
0.0
 71
     3
  0
VERTEX
  5
607
100
AcDbEntity
  8
0
100
AcDbVertex
100
AcDb2dVertex
 10
43.06815
 20
116.397301
 30
0.0
  0
VERTEX
  5
608
100
AcDbEntity
  8
0
100
AcDbVertex
100
AcDb2dVertex
 10
45.0
 20
116.91494
 30
0.0
  0
VERTEX
  5
609
100
AcDbEntity
  8
0
100
AcDbVertex
100
AcDb2dVertex
 10
43.06815
 20
117.432579
 30
0.0
  0
SEQEND
  5
60A
100
AcDbEntity
  8
0
  0
POLYLINE
  5
60B
100
AcDbEntity
  8
0
 62
     7
100
AcDb2dPolyline
 66
     1
 10
0.0
 20
0.0
 30
0.0
 71
     3
  0
VERTEX
  5
60C
100
AcDbEntity
  8
0
100
AcDbVertex
100
AcDb2dVertex
 10
-73.068146
 20
117.432579
 30
0.0
  0
VERTEX
  5
60D
100
AcDbEntity
  8
0
100
AcDbVertex
100
AcDb2dVertex
 10
-75.0
 20
116.91494
 30
0.0
  0
VERTEX
  5
60E
100
AcDbEntity
  8
0
100
AcDbVertex
100
AcDb2dVertex
 10
-73.068146
 20
116.397301
 30
0.0
  0
SEQEND
  5
60F
100
AcDbEntity
  8
0
  0
LINE
  5
610
100
AcDbEntity
  8
0
 62
     7
100
AcDbLine
 10
-75.0
 20
116.91494
 30
0.0
 11
45.0
 21
116.91494
 31
0.0
210
0.0
220
0.0
230
1.0
  0
ENDBLK
  5
611
100
AcDbEntity
  8
0
100
AcDbBlockEnd
  0
BLOCK
  5
612
100
AcDbEntity
  8
0
100
AcDbBlockBegin
  2
BLOCK32
 70
     0
 10
0.0
 20
0.0
 30
0.0
  3
BLOCK32
  1

  0
TEXT
  5
613
100
AcDbEntity
  8
0
 62
     7
100
AcDbText
 10
-91.251541
 20
41.005341
 30
0.0
 40
3.5
  1
65
 50
90.000003
 72
     5
 11
-91.251541
 21
47.77739
 31
0.0
100
AcDbText
  0
LINE
  5
614
100
AcDbEntity
  8
0
 62
     7
 48
0.275417
100
AcDbLine
 10
-80.234848
 20
12.499997
 30
0.0
 11
-91.251541
 21
12.499997
 31
0.0
210
0.0
220
0.0
230
1.0
  0
LINE
  5
615
100
AcDbEntity
  8
0
 62
     7
 48
0.418789
100
AcDbLine
 10
-74.5
 20
77.5
 30
0.0
 11
-91.251541
 21
77.5
 31
0.0
210
0.0
220
0.0
230
1.0
  0
POLYLINE
  5
616
100
AcDbEntity
  8
0
 62
     7
100
AcDb2dPolyline
 66
     1
 10
0.0
 20
0.0
 30
0.0
 71
     3
  0
VERTEX
  5
617
100
AcDbEntity
  8
0
100
AcDbVertex
100
AcDb2dVertex
 10
-88.733902
 20
75.568146
 30
0.0
  0
VERTEX
  5
618
100
AcDbEntity
  8
0
100
AcDbVertex
100
AcDb2dVertex
 10
-89.251541
 20
77.5
 30
0.0
  0
VERTEX
  5
619
100
AcDbEntity
  8
0
100
AcDbVertex
100
AcDb2dVertex
 10
-89.76918
 20
75.568146
 30
0.0
  0
SEQEND
  5
61A
100
AcDbEntity
  8
0
  0
POLYLINE
  5
61B
100
AcDbEntity
  8
0
 62
     7
100
AcDb2dPolyline
 66
     1
 10
0.0
 20
0.0
 30
0.0
 71
     3
  0
VERTEX
  5
61C
100
AcDbEntity
  8
0
100
AcDbVertex
100
AcDb2dVertex
 10
-89.76918
 20
14.431849
 30
0.0
  0
VERTEX
  5
61D
100
AcDbEntity
  8
0
100
AcDbVertex
100
AcDb2dVertex
 10
-89.251541
 20
12.499997
 30
0.0
  0
VERTEX
  5
61E
100
AcDbEntity
  8
0
100
AcDbVertex
100
AcDb2dVertex
 10
-88.733902
 20
14.431849
 30
0.0
  0
SEQEND
  5
61F
100
AcDbEntity
  8
0
  0
LINE
  5
620
100
AcDbEntity
  8
0
 62
     7
100
AcDbLine
 10
-89.251541
 20
12.499997
 30
0.0
 11
-89.251541
 21
77.5
 31
0.0
210
0.0
220
0.0
230
1.0
  0
ENDBLK
  5
621
100
AcDbEntity
  8
0
100
AcDbBlockEnd
  0
BLOCK
  5
622
100
AcDbEntity
  8
0
100
AcDbBlockBegin
  2
BLOCK33
 70
     0
 10
0.0
 20
0.0
 30
0.0
  3
BLOCK33
  1

  0
TEXT
  5
623
100
AcDbEntity
  8
0
 62
     7
100
AcDbText
 10
-102.337891
 20
18.658546
 30
0.0
 40
3.5
  1
130
 50
90.000003
 72
     5
 11
-102.337891
 21
29.166615
 31
0.0
100
AcDbText
  0
LINE
  5
624
100
AcDbEntity
  8
0
 62
     7
100
AcDbLine
 10
-74.5
 20
-52.500004
 30
0.0
 11
-102.337891
 21
-52.500004
 31
0.0
210
0.0
220
0.0
230
1.0
  0
LINE
  5
625
100
AcDbEntity
  8
0
 62
     7
100
AcDbLine
 10
-74.5
 20
77.5
 30
0.0
 11
-102.337891
 21
77.5
 31
0.0
210
0.0
220
0.0
230
1.0
  0
POLYLINE
  5
626
100
AcDbEntity
  8
0
 62
     7
100
AcDb2dPolyline
 66
     1
 10
0.0
 20
0.0
 30
0.0
 71
     3
  0
VERTEX
  5
627
100
AcDbEntity
  8
0
100
AcDbVertex
100
AcDb2dVertex
 10
-99.820251
 20
75.568146
 30
0.0
  0
VERTEX
  5
628
100
AcDbEntity
  8
0
100
AcDbVertex
100
AcDb2dVertex
 10
-100.337891
 20
77.5
 30
0.0
  0
VERTEX
  5
629
100
AcDbEntity
  8
0
100
AcDbVertex
100
AcDb2dVertex
 10
-100.85553
 20
75.568146
 30
0.0
  0
SEQEND
  5
62A
100
AcDbEntity
  8
0
  0
POLYLINE
  5
62B
100
AcDbEntity
  8
0
 62
     7
100
AcDb2dPolyline
 66
     1
 10
0.0
 20
0.0
 30
0.0
 71
     3
  0
VERTEX
  5
62C
100
AcDbEntity
  8
0
100
AcDbVertex
100
AcDb2dVertex
 10
-100.85553
 20
-50.568153
 30
0.0
  0
VERTEX
  5
62D
100
AcDbEntity
  8
0
100
AcDbVertex
100
AcDb2dVertex
 10
-100.337891
 20
-52.500004
 30
0.0
  0
VERTEX
  5
62E
100
AcDbEntity
  8
0
100
AcDbVertex
100
AcDb2dVertex
 10
-99.820251
 20
-50.568153
 30
0.0
  0
SEQEND
  5
62F
100
AcDbEntity
  8
0
  0
LINE
  5
630
100
AcDbEntity
  8
0
 62
     7
100
AcDbLine
 10
-100.337891
 20
-52.500004
 30
0.0
 11
-100.337891
 21
77.5
 31
0.0
210
0.0
220
0.0
230
1.0
  0
ENDBLK
  5
631
100
AcDbEntity
  8
0
100
AcDbBlockEnd
  0
BLOCK
  5
632
100
AcDbEntity
  8
0
100
AcDbBlockBegin
  2
BLOCK34
 70
     0
 10
0.0
 20
0.0
 30
0.0
  3
BLOCK34
  1

  0
LINE
  5
633
100
AcDbEntity
  8
0
  6
DASHDOT
 62
     7
 48
0.311468
100
AcDbLine
 10
6.229399
 20
-40.75
 30
0.0
 11
-6.229311
 21
-40.75
 31
0.0
210
0.0
220
0.0
230
1.0
  0
LINE
  5
634
100
AcDbEntity
  8
0
  6
DASHDOT
 62
     7
100
AcDbLine
 10
0.000044
 20
79.724464
 30
0.0
 11
0.000044
 21
-56.199135
 31
0.0
210
0.0
220
0.0
230
1.0
  0
ENDBLK
  5
635
100
AcDbEntity
  8
0
100
AcDbBlockEnd
  0
BLOCK
  5
636
100
AcDbEntity
  8
0
100
AcDbBlockBegin
  2
BLOCK35
 70
     0
 10
0.0
 20
0.0
 30
0.0
  3
BLOCK35
  1

  0
LINE
  5
637
100
AcDbEntity
  8
0
  6
DASHDOT
 62
     7
100
AcDbLine
 10
18.212952
 20
10.999972
 30
0.0
 11
-18.212952
 21
10.999972
 31
0.0
210
0.0
220
0.0
230
1.0
  0
LINE
  5
638
100
AcDbEntity
  8
0
  6
DASHDOT
 62
     7
100
AcDbLine
 10
0.0
 20
29.212923
 30
0.0
 11
0.0
 21
-7.212979
 31
0.0
210
0.0
220
0.0
230
1.0
  0
ENDBLK
  5
639
100
AcDbEntity
  8
0
100
AcDbBlockEnd
  0
BLOCK
  5
63A
100
AcDbEntity
  8
0
100
AcDbBlockBegin
  2
BLOCK36
 70
     0
 10
0.0
 20
0.0
 30
0.0
  3
BLOCK36
  1

  0
LINE
  5
63B
100
AcDbEntity
  8
0
  6
DASHDOT
 62
     7
 48
0.211252
100
AcDbLine
 10
-55.774918
 20
-40.75
 30
0.0
 11
-64.224991
 21
-40.75
 31
0.0
210
0.0
220
0.0
230
1.0
  0
LINE
  5
63C
100
AcDbEntity
  8
0
  6
DASHDOT
 62
     7
 48
0.211252
100
AcDbLine
 10
-59.999954
 20
-36.524963
 30
0.0
 11
-59.999954
 21
-44.975037
 31
0.0
210
0.0
220
0.0
230
1.0
  0
ENDBLK
  5
63D
100
AcDbEntity
  8
0
100
AcDbBlockEnd
  0
BLOCK
  5
63E
100
AcDbEntity
  8
0
100
AcDbBlockBegin
  2
BLOCK37
 70
     0
 10
0.0
 20
0.0
 30
0.0
  3
BLOCK37
  1

  0
LINE
  5
63F
100
AcDbEntity
  8
0
  6
DASHDOT
 62
     7
 48
0.211252
100
AcDbLine
 10
-55.774918
 20
65.75
 30
0.0
 11
-64.224991
 21
65.75
 31
0.0
210
0.0
220
0.0
230
1.0
  0
LINE
  5
640
100
AcDbEntity
  8
0
  6
DASHDOT
 62
     7
 48
0.211252
100
AcDbLine
 10
-59.999954
 20
69.975037
 30
0.0
 11
-59.999954
 21
61.524963
 31
0.0
210
0.0
220
0.0
230
1.0
  0
ENDBLK
  5
641
100
AcDbEntity
  8
0
100
AcDbBlockEnd
  0
BLOCK
  5
642
100
AcDbEntity
  8
0
100
AcDbBlockBegin
  2
BLOCK38
 70
     0
 10
0.0
 20
0.0
 30
0.0
  3
BLOCK38
  1

  0
LINE
  5
643
100
AcDbEntity
  8
0
 62
     2
100
AcDbLine
 10
43.5
 20
-35.299999
 30
0.0
 11
43.5
 21
51.608353
 31
0.0
210
0.0
220
0.0
230
1.0
  0
LINE
  5
644
100
AcDbEntity
  8
0
 62
     2
100
AcDbLine
 10
42.0
 20
-35.299999
 30
0.0
 11
42.0
 21
51.663071
 31
0.0
210
0.0
220
0.0
230
1.0
  0
LINE
  5
645
100
AcDbEntity
  8
0
 62
     2
100
AcDbLine
 10
40.5
 20
-35.299999
 30
0.0
 11
40.5
 21
51.717789
 31
0.0
210
0.0
220
0.0
230
1.0
  0
LINE
  5
646
100
AcDbEntity
  8
0
 62
     2
100
AcDbLine
 10
39.0
 20
-35.299999
 30
0.0
 11
39.0
 21
51.772503
 31
0.0
210
0.0
220
0.0
230
1.0
  0
ENDBLK
  5
647
100
AcDbEntity
  8
0
100
AcDbBlockEnd
  0
BLOCK
  5
648
100
AcDbEntity
  8
0
100
AcDbBlockBegin
  2
BLOCK39
 70
     0
 10
0.0
 20
0.0
 30
0.0
  3
BLOCK39
  1

  0
LINE
  5
649
100
AcDbEntity
  8
0
 62
     2
100
AcDbLine
 10
-39.0
 20
-35.299999
 30
0.0
 11
-39.0
 21
60.299999
 31
0.0
210
0.0
220
0.0
230
1.0
  0
LINE
  5
64A
100
AcDbEntity
  8
0
 62
     2
100
AcDbLine
 10
-40.5
 20
-35.299999
 30
0.0
 11
-40.5
 21
60.299999
 31
0.0
210
0.0
220
0.0
230
1.0
  0
LINE
  5
64B
100
AcDbEntity
  8
0
 62
     2
100
AcDbLine
 10
-42.0
 20
-35.299999
 30
0.0
 11
-42.0
 21
60.299999
 31
0.0
210
0.0
220
0.0
230
1.0
  0
LINE
  5
64C
100
AcDbEntity
  8
0
 62
     2
100
AcDbLine
 10
-43.5
 20
-35.299999
 30
0.0
 11
-43.5
 21
60.299999
 31
0.0
210
0.0
220
0.0
230
1.0
  0
ENDBLK
  5
64D
100
AcDbEntity
  8
0
100
AcDbBlockEnd
  0
BLOCK
  5
64E
100
AcDbEntity
  8
0
100
AcDbBlockBegin
  2
BLOCK40
 70
     0
 10
0.0
 20
0.0
 30
0.0
  3
BLOCK40
  1

  0
LINE
  5
64F
100
AcDbEntity
  8
0
 62
     2
100
AcDbLine
 10
43.5
 20
-35.299999
 30
0.0
 11
43.5
 21
60.299999
 31
0.0
210
0.0
220
0.0
230
1.0
  0
LINE
  5
650
100
AcDbEntity
  8
0
 62
     2
100
AcDbLine
 10
42.0
 20
-35.299999
 30
0.0
 11
42.0
 21
60.299999
 31
0.0
210
0.0
220
0.0
230
1.0
  0
LINE
  5
651
100
AcDbEntity
  8
0
 62
     2
100
AcDbLine
 10
40.5
 20
-35.299999
 30
0.0
 11
40.5
 21
60.299999
 31
0.0
210
0.0
220
0.0
230
1.0
  0
LINE
  5
652
100
AcDbEntity
  8
0
 62
     2
100
AcDbLine
 10
39.0
 20
-35.299999
 30
0.0
 11
39.0
 21
60.299999
 31
0.0
210
0.0
220
0.0
230
1.0
  0
ENDBLK
  5
653
100
AcDbEntity
  8
0
100
AcDbBlockEnd
  0
ENDSEC
  0
SECTION
  2
ENTITIES
  0
VIEWPORT
  5
486
100
AcDbEntity
 67
     1
  8
0
 62
     0
 48
0.0
100
AcDbViewport
 10
0.0
 20
0.0
 30
0.0
 40
1000.0
 41
1000.0
 68
     1
 69
     1
1001
ACAD
1000
MVIEW
1002
{
1070
    16
1010
0.0
1020
0.0
1030
0.0
1010
0.0
1020
0.0
1030
1.0
1040
0.0
1040
1000.0
1040
0.0
1040
0.0
1040
50.0
1040
0.0
1040
0.0
1070
     0
1070
   100
1070
     1
1070
     1
1070
     0
1070
     0
1070
     0
1070
     0
1040
0.0
1040
0.0
1040
0.0
1040
1.0
1040
1.0
1040
1.0
1040
1.0
1070
     0
1002
{
1002
}
1002
}
  0
LINE
  5
25
100
AcDbEntity
  8
0
  6
DASHDOT
 62
     7
 48
0.36
100
AcDbLine
 10
165.061358
 20
437.309082
 30
0.0
 11
179.461359
 21
437.309077
 31
0.0
210
0.0
220
0.0
230
1.0
  0
LINE
  5
26
100
AcDbEntity
  8
0
  6
DASHDOT
 62
     7
100
AcDbLine
 10
80.861372
 20
469.809121
 30
0.0
 11
237.745455
 21
469.809049
 31
0.0
210
0.0
220
0.0
230
1.0
  0
LINE
  5
27
100
AcDbEntity
  8
0
  6
DASHDOT
 62
     7
 48
0.433762
100
AcDbLine
 10
180.636134
 20
468.309076
 30
0.0
 11
197.986597
 21
468.309067
 31
0.0
210
0.0
220
0.0
230
1.0
  0
LINE
  5
28
100
AcDbEntity
  8
0
  6
DASHDOT
 62
     7
 48
0.0747
100
AcDbLine
 10
166.804888
 20
499.30908
 30
0.0
 11
169.792876
 21
499.30908
 31
0.0
210
0.0
220
0.0
230
1.0
  0
LINE
  5
29
100
AcDbEntity
  8
0
 62
     7
 48
0.102362
100
AcDbLine
 10
122.769128
 20
459.903389
 30
0.0
 11
122.808399
 21
455.809103
 31
0.0
210
0.0
220
0.0
230
1.0
  0
LINE
  5
2A
100
AcDbEntity
  8
0
 62
     7
 48
0.4
100
AcDbLine
 10
122.069128
 20
444.809103
 30
0.0
 11
122.069128
 21
460.809103
 31
0.0
210
0.0
220
0.0
230
1.0
  0
LINE
  5
2B
100
AcDbEntity
  8
0
 62
     7
 48
0.451171
100
AcDbLine
 10
131.26656
 20
478.809103
 30
0.0
 11
140.561367
 21
494.278262
 31
0.0
210
0.0
220
0.0
230
1.0
  0
LINE
  5
2C
100
AcDbEntity
  8
0
 62
     7
 48
0.018378
100
AcDbLine
 10
122.069128
 20
444.809103
 30
0.0
 11
122.804249
 21
444.809103
 31
0.0
210
0.0
220
0.0
230
1.0
  0
LINE
  5
2D
100
AcDbEntity
  8
0
 62
     7
100
AcDbLine
 10
122.069128
 20
444.109104
 30
0.0
 11
143.261366
 21
444.109104
 31
0.0
210
0.0
220
0.0
230
1.0
  0
LINE
  5
2E
100
AcDbEntity
  8
0
 62
     7
 48
0.0175
100
AcDbLine
 10
122.069128
 20
444.109104
 30
0.0
 11
122.069128
 21
444.809103
 31
0.0
210
0.0
220
0.0
230
1.0
  0
LINE
  5
2F
100
AcDbEntity
  8
0
 62
     7
 48
0.218744
100
AcDbLine
 10
126.760105
 20
471.309103
 30
0.0
 11
131.26656
 21
478.809103
 31
0.0
210
0.0
220
0.0
230
1.0
  0
LINE
  5
30
100
AcDbEntity
  8
0
 62
     7
 48
0.032274
100
AcDbLine
 10
125.469129
 20
471.309103
 30
0.0
 11
126.760105
 21
471.309103
 31
0.0
210
0.0
220
0.0
230
1.0
  0
LINE
  5
31
100
AcDbEntity
  8
0
 62
     7
100
AcDbLine
 10
94.461367
 20
471.309103
 30
0.0
 11
125.469129
 21
471.309103
 31
0.0
210
0.0
220
0.0
230
1.0
  0
LINE
  5
32
100
AcDbEntity
  8
0
 62
     7
 48
0.2625
100
AcDbLine
 10
125.469129
 20
460.809103
 30
0.0
 11
125.469129
 21
471.309103
 31
0.0
210
0.0
220
0.0
230
1.0
  0
LINE
  5
33
100
AcDbEntity
  8
0
 62
     7
 48
0.2625
100
AcDbLine
 10
94.461367
 20
460.809103
 30
0.0
 11
94.461367
 21
471.309103
 31
0.0
210
0.0
220
0.0
230
1.0
  0
LINE
  5
34
100
AcDbEntity
  8
0
 62
     7
 48
0.007418
100
AcDbLine
 10
122.469128
 20
459.809103
 30
0.0
 11
122.765836
 21
459.809103
 31
0.0
210
0.0
220
0.0
230
1.0
  0
LINE
  5
35
100
AcDbEntity
  8
0
 62
     7
 48
0.000174
100
AcDbLine
 10
122.770033
 20
459.809103
 30
0.0
 11
122.776982
 21
459.809103
 31
0.0
210
0.0
220
0.0
230
1.0
  0
LINE
  5
36
100
AcDbEntity
  8
0
 62
     7
 48
0.010006
100
AcDbLine
 10
122.069128
 20
459.823072
 30
0.0
 11
122.469128
 21
459.809103
 31
0.0
210
0.0
220
0.0
230
1.0
  0
LINE
  5
37
100
AcDbEntity
  8
0
 62
     7
100
AcDbLine
 10
94.461367
 20
460.809103
 30
0.0
 11
122.069128
 21
460.809103
 31
0.0
210
0.0
220
0.0
230
1.0
  0
LINE
  5
38
100
AcDbEntity
  8
0
 62
     7
 48
0.0325
100
AcDbLine
 10
143.961367
 20
443.509103
 30
0.0
 11
143.961367
 21
444.809103
 31
0.0
210
0.0
220
0.0
230
1.0
  0
LINE
  5
39
100
AcDbEntity
  8
0
 62
     7
 48
0.461999
100
AcDbLine
 10
125.481415
 20
444.809103
 30
0.0
 11
143.961367
 21
444.809103
 31
0.0
210
0.0
220
0.0
230
1.0
  0
LINE
  5
3A
100
AcDbEntity
  8
0
 62
     7
 48
0.125
100
AcDbLine
 10
122.769128
 20
455.809103
 30
0.0
 11
122.769128
 21
460.809103
 31
0.0
210
0.0
220
0.0
230
1.0
  0
LINE
  5
3B
100
AcDbEntity
  8
0
 62
     7
 48
0.445509
100
AcDbLine
 10
132.083204
 20
478.809103
 30
0.0
 11
141.261366
 21
494.084132
 31
0.0
210
0.0
220
0.0
230
1.0
  0
LINE
  5
3C
100
AcDbEntity
  8
0
 62
     7
 48
0.14002
100
AcDbLine
 10
127.576748
 20
471.309103
 30
0.0
 11
130.461367
 21
476.109915
 31
0.0
210
0.0
220
0.0
230
1.0
  0
LINE
  5
3D
100
AcDbEntity
  8
0
 62
     7
 48
0.0225
100
AcDbLine
 10
156.461367
 20
472.309103
 30
0.0
 11
156.461367
 21
473.209103
 31
0.0
210
0.0
220
0.0
230
1.0
  0
LINE
  5
3E
100
AcDbEntity
  8
0
 62
     7
 48
0.0625
100
AcDbLine
 10
151.461367
 20
468.809103
 30
0.0
 11
151.461367
 21
471.309103
 31
0.0
210
0.0
220
0.0
230
1.0
  0
LINE
  5
3F
100
AcDbEntity
  8
0
 62
     7
 48
0.219073
100
AcDbLine
 10
125.461368
 20
462.546187
 30
0.0
 11
125.461368
 21
471.309103
 31
0.0
210
0.0
220
0.0
230
1.0
  0
LINE
  5
40
100
AcDbEntity
  8
0
 62
     7
 48
0.020416
100
AcDbLine
 10
127.360966
 20
472.309103
 30
0.0
 11
128.177609
 21
472.309103
 31
0.0
210
0.0
220
0.0
230
1.0
  0
LINE
  5
41
100
AcDbEntity
  8
0
 62
     7
 48
0.025
100
AcDbLine
 10
155.461367
 20
471.309103
 30
0.0
 11
155.461367
 21
472.309103
 31
0.0
210
0.0
220
0.0
230
1.0
  0
LINE
  5
42
100
AcDbEntity
  8
0
 62
     7
 48
0.025
100
AcDbLine
 10
155.461367
 20
472.309103
 30
0.0
 11
156.461367
 21
472.309103
 31
0.0
210
0.0
220
0.0
230
1.0
  0
LINE
  5
43
100
AcDbEntity
  8
0
 62
     7
 48
0.020416
100
AcDbLine
 10
131.26656
 20
478.809103
 30
0.0
 11
132.083204
 21
478.809103
 31
0.0
210
0.0
220
0.0
230
1.0
  0
LINE
  5
44
100
AcDbEntity
  8
0
 62
     7
 48
0.078724
100
AcDbLine
 10
130.461367
 20
476.109915
 30
0.0
 11
132.083204
 21
478.809103
 31
0.0
210
0.0
220
0.0
230
1.0
  0
LINE
  5
45
100
AcDbEntity
  8
0
 62
     7
 48
0.006632
100
AcDbLine
 10
130.461367
 20
471.309103
 30
0.0
 11
130.726659
 21
471.309103
 31
0.0
210
0.0
220
0.0
230
1.0
  0
LINE
  5
46
100
AcDbEntity
  8
0
 62
     7
100
AcDbLine
 10
156.461367
 20
473.209103
 30
0.0
 11
156.461367
 21
502.309103
 31
0.0
210
0.0
220
0.0
230
1.0
  0
LINE
  5
47
100
AcDbEntity
  8
0
 62
     7
 48
0.32
100
AcDbLine
 10
156.461367
 20
446.009103
 30
0.0
 11
156.461367
 21
458.809103
 31
0.0
210
0.0
220
0.0
230
1.0
  0
LINE
  5
48
100
AcDbEntity
  8
0
 62
     7
 48
0.15
100
AcDbLine
 10
151.961367
 20
460.809103
 30
0.0
 11
151.961367
 21
466.809103
 31
0.0
210
0.0
220
0.0
230
1.0
  0
LINE
  5
49
100
AcDbEntity
  8
0
 62
     7
 48
0.05
100
AcDbLine
 10
151.961367
 20
466.809103
 30
0.0
 11
151.961367
 21
468.809103
 31
0.0
210
0.0
220
0.0
230
1.0
  0
LINE
  5
4A
100
AcDbEntity
  8
0
 62
     7
 48
0.0425
100
AcDbLine
 10
150.261366
 20
468.809104
 30
0.0
 11
151.961367
 21
468.809103
 31
0.0
210
0.0
220
0.0
230
1.0
  0
LINE
  5
4B
100
AcDbEntity
  8
0
 62
     7
 48
0.0425
100
AcDbLine
 10
150.261366
 20
466.809103
 30
0.0
 11
151.961367
 21
466.809103
 31
0.0
210
0.0
220
0.0
230
1.0
  0
LINE
  5
4C
100
AcDbEntity
  8
0
 62
     7
 48
0.025
100
AcDbLine
 10
155.461367
 20
459.809103
 30
0.0
 11
155.461367
 21
460.809103
 31
0.0
210
0.0
220
0.0
230
1.0
  0
LINE
  5
4D
100
AcDbEntity
  8
0
 62
     7
 48
0.025
100
AcDbLine
 10
155.461367
 20
459.809103
 30
0.0
 11
156.461367
 21
459.809103
 31
0.0
210
0.0
220
0.0
230
1.0
  0
LINE
  5
4E
100
AcDbEntity
  8
0
 62
     7
 48
0.043427
100
AcDbLine
 10
125.461367
 20
460.809103
 30
0.0
 11
125.461367
 21
462.546187
 31
0.0
210
0.0
220
0.0
230
1.0
  0
LINE
  5
4F
100
AcDbEntity
  8
0
 62
     7
 48
0.2875
100
AcDbLine
 10
143.961367
 20
460.809103
 30
0.0
 11
155.461367
 21
460.809103
 31
0.0
210
0.0
220
0.0
230
1.0
  0
LINE
  5
50
100
AcDbEntity
  8
0
 62
     7
 48
0.461999
100
AcDbLine
 10
125.481415
 20
460.809103
 30
0.0
 11
143.961367
 21
460.809103
 31
0.0
210
0.0
220
0.0
230
1.0
  0
LINE
  5
51
100
AcDbEntity
  8
0
 62
     7
 48
0.067807
100
AcDbLine
 10
122.769128
 20
460.809103
 30
0.0
 11
125.481415
 21
460.809103
 31
0.0
210
0.0
220
0.0
230
1.0
  0
LINE
  5
52
100
AcDbEntity
  8
0
 62
     7
 48
0.2875
100
AcDbLine
 10
143.961367
 20
471.309103
 30
0.0
 11
155.461367
 21
471.309103
 31
0.0
210
0.0
220
0.0
230
1.0
  0
LINE
  5
53
100
AcDbEntity
  8
0
 62
     7
 48
0.330868
100
AcDbLine
 10
130.726659
 20
471.309103
 30
0.0
 11
143.961367
 21
471.309103
 31
0.0
210
0.0
220
0.0
230
1.0
  0
LINE
  5
54
100
AcDbEntity
  8
0
 62
     7
 48
0.072115
100
AcDbLine
 10
127.576748
 20
471.309103
 30
0.0
 11
130.461367
 21
471.309103
 31
0.0
210
0.0
220
0.0
230
1.0
  0
LINE
  5
55
100
AcDbEntity
  8
0
 62
     7
 48
0.025
100
AcDbLine
 10
156.461367
 20
458.809103
 30
0.0
 11
156.461367
 21
459.809103
 31
0.0
210
0.0
220
0.0
230
1.0
  0
LINE
  5
56
100
AcDbEntity
  8
0
 62
     7
 48
0.00131
100
AcDbLine
 10
122.765836
 20
444.809103
 30
0.0
 11
122.818217
 21
444.809103
 31
0.0
210
0.0
220
0.0
230
1.0
  0
LINE
  5
57
100
AcDbEntity
  8
0
 62
     7
 48
0.375
100
AcDbLine
 10
122.765836
 20
444.809103
 30
0.0
 11
122.765836
 21
459.809103
 31
0.0
210
0.0
220
0.0
230
1.0
  0
LINE
  5
58
100
AcDbEntity
  8
0
 62
     7
 48
0.002359
100
AcDbLine
 10
122.765836
 20
459.809103
 30
0.0
 11
122.769128
 21
459.903389
 31
0.0
210
0.0
220
0.0
230
1.0
  0
LINE
  5
59
100
AcDbEntity
  8
0
 62
     7
 48
0.06658
100
AcDbLine
 10
122.818217
 20
444.809103
 30
0.0
 11
125.481415
 21
444.809103
 31
0.0
210
0.0
220
0.0
230
1.0
  0
LINE
  5
5A
100
AcDbEntity
  8
0
 62
     7
 48
0.275
100
AcDbLine
 10
122.818217
 20
444.809103
 30
0.0
 11
122.818217
 21
455.809103
 31
0.0
210
0.0
220
0.0
230
1.0
  0
LINE
  5
5B
100
AcDbEntity
  8
0
 62
     7
 48
0.2625
100
AcDbLine
 10
150.261366
 20
460.809103
 30
0.0
 11
150.261366
 21
471.309103
 31
0.0
210
0.0
220
0.0
230
1.0
  0
LINE
  5
5C
100
AcDbEntity
  8
0
 62
     7
 48
0.3125
100
AcDbLine
 10
156.458563
 20
459.809103
 30
0.0
 11
156.458563
 21
472.309103
 31
0.0
210
0.0
220
0.0
230
1.0
  0
LINE
  5
5D
100
AcDbEntity
  8
0
 62
     7
100
AcDbLine
 10
140.561367
 20
494.278262
 30
0.0
 11
140.561367
 21
528.809096
 31
0.0
210
0.0
220
0.0
230
1.0
  0
LINE
  5
5E
100
AcDbEntity
  8
0
 62
     7
100
AcDbLine
 10
141.261366
 20
494.084132
 30
0.0
 11
141.261366
 21
528.809096
 31
0.0
210
0.0
220
0.0
230
1.0
  0
LINE
  5
5F
100
AcDbEntity
  8
0
 62
     7
100
AcDbLine
 10
143.961367
 20
410.809092
 30
0.0
 11
143.961367
 21
443.509103
 31
0.0
210
0.0
220
0.0
230
1.0
  0
LINE
  5
60
100
AcDbEntity
  8
0
 62
     7
100
AcDbLine
 10
143.261366
 20
410.809092
 30
0.0
 11
143.261366
 21
444.109104
 31
0.0
210
0.0
220
0.0
230
1.0
  0
LINE
  5
61
100
AcDbEntity
  8
0
  6
DASHDOT
 62
     7
100
AcDbLine
 10
91.461367
 20
400.266482
 30
0.0
 11
91.461367
 21
541.952513
 31
0.0
210
0.0
220
0.0
230
1.0
  0
POLYLINE
  5
62
100
AcDbEntity
  8
0
 62
     7
100
AcDb2dPolyline
 66
     1
 10
0.0
 20
0.0
 30
0.0
 71
     5
  0
VERTEX
  5
63
100
AcDbEntity
  8
0
100
AcDbVertex
100
AcDb2dVertex
 10
89.505164
 20
542.25302
 30
0.0
  0
VERTEX
  5
64
100
AcDbEntity
  8
0
100
AcDbVertex
100
AcDb2dVertex
 10
93.661744
 20
541.614508
 30
0.0
  0
VERTEX
  5
65
100
AcDbEntity
  8
0
100
AcDbVertex
100
AcDb2dVertex
 10
94.953816
 20
543.43949
 30
0.0
  0
VERTEX
  5
66
100
AcDbEntity
  8
0
100
AcDbVertex
100
AcDb2dVertex
 10
95.334889
 20
539.334029
 30
0.0
  0
VERTEX
  5
67
100
AcDbEntity
  8
0
100
AcDbVertex
100
AcDb2dVertex
 10
96.626961
 20
541.15901
 30
0.0
  0
SEQEND
  5
68
100
AcDbEntity
  8
0
  0
LINE
  5
69
100
AcDbEntity
  8
0
  6
DASHDOT
 62
     7
 48
0.167064
100
AcDbLine
 10
94.461367
 20
534.809103
 30
0.0
 11
94.461367
 21
541.491675
 31
0.0
210
0.0
220
0.0
230
1.0
  0
LINE
  5
6A
100
AcDbEntity
  8
0
  6
DASHDOT
 62
     7
 48
0.13752
100
AcDbLine
 10
94.461367
 20
399.308306
 30
0.0
 11
94.461367
 21
404.809103
 31
0.0
210
0.0
220
0.0
230
1.0
  0
POLYLINE
  5
6B
100
AcDbEntity
  8
0
 62
     7
100
AcDb2dPolyline
 66
     1
 10
0.0
 20
0.0
 30
0.0
 71
     5
  0
VERTEX
  5
6C
100
AcDbEntity
  8
0
100
AcDbVertex
100
AcDb2dVertex
 10
89.829541
 20
400.787672
 30
0.0
  0
VERTEX
  5
6D
100
AcDbEntity
  8
0
100
AcDbVertex
100
AcDb2dVertex
 10
93.275103
 20
399.687189
 30
0.0
  0
VERTEX
  5
6E
100
AcDbEntity
  8
0
100
AcDbVertex
100
AcDb2dVertex
 10
94.836195
 20
401.288123
 30
0.0
  0
VERTEX
  5
6F
100
AcDbEntity
  8
0
100
AcDbVertex
100
AcDb2dVertex
 10
94.571787
 20
397.173506
 30
0.0
  0
VERTEX
  5
70
100
AcDbEntity
  8
0
100
AcDbVertex
100
AcDb2dVertex
 10
96.13288
 20
398.774439
 30
0.0
  0
SEQEND
  5
71
100
AcDbEntity
  8
0
  0
LINE
  5
72
100
AcDbEntity
  8
0
  6
DASHSPACE
 62
     7
 48
0.05
100
AcDbLine
 10
182.96139
 20
502.309073
 30
0.0
 11
184.96139
 21
502.309073
 31
0.0
210
0.0
220
0.0
230
1.0
  0
LINE
  5
73
100
AcDbEntity
  8
0
  6
DASHSPACE
 62
     7
 48
0.05
100
AcDbLine
 10
182.961356
 20
434.309075
 30
0.0
 11
184.961359
 21
434.309073
 31
0.0
210
0.0
220
0.0
230
1.0
  0
LINE
  5
74
100
AcDbEntity
  8
0
  6
DASHSPACE
 62
     7
100
AcDbLine
 10
182.961398
 20
524.789671
 30
0.0
 11
182.961348
 21
412.633845
 31
0.0
210
0.0
220
0.0
230
1.0
  0
LINE
  5
75
100
AcDbEntity
  8
0
  6
DASHSPACE
 62
     7
100
AcDbLine
 10
184.961344
 20
413.389101
 30
0.0
 11
184.961398
 21
524.412047
 31
0.0
210
0.0
220
0.0
230
1.0
  0
POLYLINE
  5
76
100
AcDbEntity
  8
0
 62
     7
100
AcDb2dPolyline
 66
     1
 10
0.0
 20
0.0
 30
0.0
 71
     5
  0
VERTEX
  5
77
100
AcDbEntity
  8
0
100
AcDbVertex
100
AcDb2dVertex
 10
179.568613
 20
411.352652
 30
0.0
  0
VERTEX
  5
78
100
AcDbEntity
  8
0
100
AcDbVertex
100
AcDb2dVertex
 10
185.366808
 20
413.542216
 30
0.0
  0
VERTEX
  5
79
100
AcDbEntity
  8
0
100
AcDbVertex
100
AcDb2dVertex
 10
185.595766
 20
415.766531
 30
0.0
  0
VERTEX
  5
7A
100
AcDbEntity
  8
0
100
AcDbVertex
100
AcDb2dVertex
 10
187.944399
 20
412.377737
 30
0.0
  0
VERTEX
  5
7B
100
AcDbEntity
  8
0
100
AcDbVertex
100
AcDb2dVertex
 10
188.173357
 20
414.602049
 30
0.0
  0
SEQEND
  5
7C
100
AcDbEntity
  8
0
  0
POLYLINE
  5
7D
100
AcDbEntity
  8
0
 62
     7
100
AcDb2dPolyline
 66
     1
 10
0.0
 20
0.0
 30
0.0
 71
     5
  0
VERTEX
  5
7E
100
AcDbEntity
  8
0
100
AcDbVertex
100
AcDb2dVertex
 10
187.083796
 20
524.011313
 30
0.0
  0
VERTEX
  5
7F
100
AcDbEntity
  8
0
100
AcDbVertex
100
AcDb2dVertex
 10
182.751906
 20
524.82923
 30
0.0
  0
VERTEX
  5
80
100
AcDbEntity
  8
0
100
AcDbVertex
100
AcDb2dVertex
 10
181.398199
 20
523.049483
 30
0.0
  0
VERTEX
  5
81
100
AcDbEntity
  8
0
100
AcDbVertex
100
AcDb2dVertex
 10
181.157698
 20
527.165572
 30
0.0
  0
VERTEX
  5
82
100
AcDbEntity
  8
0
100
AcDbVertex
100
AcDb2dVertex
 10
179.803992
 20
525.385832
 30
0.0
  0
SEQEND
  5
83
100
AcDbEntity
  8
0
  0
ARC
  5
84
100
AcDbEntity
  8
0
  6
DASHDOT
 62
     7
100
AcDbCircle
 10
133.75275
 20
466.727621
 30
0.0
 40
64.0
210
0.0
220
0.0
230
1.0
100
AcDbArc
 50
346.299088
 51
16.65086
  0
LINE
  5
85
100
AcDbEntity
  8
0
 62
     7
 48
0.05
100
AcDbLine
 10
94.461342
 20
404.809115
 30
0.0
 11
94.461344
 21
406.809115
 31
0.0
210
0.0
220
0.0
230
1.0
  0
LINE
  5
86
100
AcDbEntity
  8
0
 62
     7
 48
0.1
100
AcDbLine
 10
94.461346
 20
410.809115
 30
0.0
 11
94.461344
 21
406.809115
 31
0.0
210
0.0
220
0.0
230
1.0
  0
LINE
  5
87
100
AcDbEntity
  8
0
 62
     7
100
AcDbLine
 10
94.461399
 20
528.809111
 30
0.0
 11
94.461346
 21
410.809115
 31
0.0
210
0.0
220
0.0
230
1.0
  0
LINE
  5
88
100
AcDbEntity
  8
0
 62
     7
 48
0.1
100
AcDbLine
 10
94.461399
 20
528.809111
 30
0.0
 11
94.461401
 21
532.809111
 31
0.0
210
0.0
220
0.0
230
1.0
  0
LINE
  5
89
100
AcDbEntity
  8
0
 62
     7
 48
0.05
100
AcDbLine
 10
94.461401
 20
532.809111
 30
0.0
 11
94.461401
 21
534.809111
 31
0.0
210
0.0
220
0.0
230
1.0
  0
LINE
  5
8A
100
AcDbEntity
  8
0
 62
     7
100
AcDbLine
 10
94.461342
 20
404.809115
 30
0.0
 11
162.461344
 21
404.809084
 31
0.0
210
0.0
220
0.0
230
1.0
  0
LINE
  5
8B
100
AcDbEntity
  8
0
 62
     7
100
AcDbLine
 10
94.461344
 20
406.809115
 30
0.0
 11
162.461344
 21
406.809084
 31
0.0
210
0.0
220
0.0
230
1.0
  0
LINE
  5
8C
100
AcDbEntity
  8
0
 62
     7
 48
0.05
100
AcDbLine
 10
162.461344
 20
404.809084
 30
0.0
 11
162.461344
 21
406.809084
 31
0.0
210
0.0
220
0.0
230
1.0
  0
LINE
  5
8D
100
AcDbEntity
  8
0
 62
     7
100
AcDbLine
 10
94.461346
 20
410.809115
 30
0.0
 11
156.461344
 21
410.809088
 31
0.0
210
0.0
220
0.0
230
1.0
  0
LINE
  5
8E
100
AcDbEntity
  8
0
 62
     7
 48
0.15
100
AcDbLine
 10
162.461352
 20
423.809084
 30
0.0
 11
156.461352
 21
423.809088
 31
0.0
210
0.0
220
0.0
230
1.0
  0
LINE
  5
8F
100
AcDbEntity
  8
0
 62
     7
 48
0.325
100
AcDbLine
 10
156.461344
 20
410.809088
 30
0.0
 11
156.461352
 21
423.809088
 31
0.0
210
0.0
220
0.0
230
1.0
  0
LINE
  5
90
100
AcDbEntity
  8
0
 62
     7
100
AcDbLine
 10
94.461399
 20
528.809111
 30
0.0
 11
156.461401
 21
528.809088
 31
0.0
210
0.0
220
0.0
230
1.0
  0
LINE
  5
91
100
AcDbEntity
  8
0
 62
     7
 48
0.325
100
AcDbLine
 10
156.461401
 20
528.809088
 30
0.0
 11
156.461394
 21
515.809088
 31
0.0
210
0.0
220
0.0
230
1.0
  0
LINE
  5
92
100
AcDbEntity
  8
0
 62
     7
 48
0.15
100
AcDbLine
 10
162.461394
 20
515.809084
 30
0.0
 11
156.461394
 21
515.809088
 31
0.0
210
0.0
220
0.0
230
1.0
  0
LINE
  5
93
100
AcDbEntity
  8
0
 62
     7
100
AcDbLine
 10
162.461394
 20
515.809084
 30
0.0
 11
162.461352
 21
423.809084
 31
0.0
210
0.0
220
0.0
230
1.0
  0
LINE
  5
94
100
AcDbEntity
  8
0
 62
     7
 48
0.1
100
AcDbLine
 10
162.461401
 20
528.80908
 30
0.0
 11
162.461401
 21
532.80908
 31
0.0
210
0.0
220
0.0
230
1.0
  0
LINE
  5
95
100
AcDbEntity
  8
0
 62
     7
 48
0.05
100
AcDbLine
 10
162.461401
 20
528.80908
 30
0.0
 11
160.461401
 21
528.809088
 31
0.0
210
0.0
220
0.0
230
1.0
  0
LINE
  5
96
100
AcDbEntity
  8
0
 62
     7
100
AcDbLine
 10
94.461401
 20
532.809111
 30
0.0
 11
162.461401
 21
532.80908
 31
0.0
210
0.0
220
0.0
230
1.0
  0
LINE
  5
97
100
AcDbEntity
  8
0
 62
     7
100
AcDbLine
 10
94.461401
 20
534.809111
 30
0.0
 11
162.461401
 21
534.80908
 31
0.0
210
0.0
220
0.0
230
1.0
  0
LINE
  5
98
100
AcDbEntity
  8
0
 62
     7
 48
0.05
100
AcDbLine
 10
162.461401
 20
532.80908
 30
0.0
 11
162.461401
 21
534.80908
 31
0.0
210
0.0
220
0.0
230
1.0
  0
LINE
  5
99
100
AcDbEntity
  8
0
 62
     7
 48
0.1
100
AcDbLine
 10
162.461344
 20
410.809084
 30
0.0
 11
162.461344
 21
406.809084
 31
0.0
210
0.0
220
0.0
230
1.0
  0
LINE
  5
9A
100
AcDbEntity
  8
0
 62
     7
 48
0.125
100
AcDbLine
 10
172.461359
 20
443.409079
 30
0.0
 11
177.461359
 21
443.409077
 31
0.0
210
0.0
220
0.0
230
1.0
  0
LINE
  5
9B
100
AcDbEntity
  8
0
 62
     7
100
AcDbLine
 10
172.461359
 20
443.409079
 30
0.0
 11
172.461379
 21
485.209078
 31
0.0
210
0.0
220
0.0
230
1.0
  0
LINE
  5
9C
100
AcDbEntity
  8
0
 62
     7
 48
0.002887
100
AcDbLine
 10
176.961359
 20
443.409077
 30
0.0
 11
176.90362
 21
443.309071
 31
0.0
210
0.0
220
0.0
230
1.0
  0
LINE
  5
9D
100
AcDbEntity
  8
0
 62
     7
 48
0.0025
100
AcDbLine
 10
175.961359
 20
443.309074
 30
0.0
 11
175.961359
 21
443.409077
 31
0.0
210
0.0
220
0.0
230
1.0
  0
LINE
  5
9E
100
AcDbEntity
  8
0
 62
     7
 48
0.375
100
AcDbLine
 10
164.46139
 20
506.309084
 30
0.0
 11
179.46139
 21
506.309077
 31
0.0
210
0.0
220
0.0
230
1.0
  0
LINE
  5
9F
100
AcDbEntity
  8
0
 62
     7
100
AcDbLine
 10
179.461356
 20
430.309077
 30
0.0
 11
179.46139
 21
506.309077
 31
0.0
210
0.0
220
0.0
230
1.0
  0
LINE
  5
A0
100
AcDbEntity
  8
0
 62
     7
 48
0.05
100
AcDbLine
 10
164.46139
 20
504.309084
 30
0.0
 11
164.46139
 21
506.309084
 31
0.0
210
0.0
220
0.0
230
1.0
  0
LINE
  5
A1
100
AcDbEntity
  8
0
 62
     7
100
AcDbLine
 10
164.46139
 20
504.309084
 30
0.0
 11
177.461382
 21
488.309077
 31
0.0
210
0.0
220
0.0
230
1.0
  0
LINE
  5
A2
100
AcDbEntity
  8
0
 62
     7
 48
0.0775
100
AcDbLine
 10
177.461382
 20
488.309077
 30
0.0
 11
177.461379
 21
485.209076
 31
0.0
210
0.0
220
0.0
230
1.0
  0
LINE
  5
A3
100
AcDbEntity
  8
0
 62
     7
 48
0.0775
100
AcDbLine
 10
177.461359
 20
443.409077
 30
0.0
 11
177.461359
 21
440.309077
 31
0.0
210
0.0
220
0.0
230
1.0
  0
LINE
  5
A4
100
AcDbEntity
  8
0
 62
     7
 48
0.125
100
AcDbLine
 10
172.461379
 20
485.209078
 30
0.0
 11
177.461379
 21
485.209076
 31
0.0
210
0.0
220
0.0
230
1.0
  0
LINE
  5
A5
100
AcDbEntity
  8
0
 62
     7
 48
0.146773
100
AcDbLine
 10
172.461356
 20
437.232155
 30
0.0
 11
177.461359
 21
440.309077
 31
0.0
210
0.0
220
0.0
230
1.0
  0
LINE
  5
A6
100
AcDbEntity
  8
0
 62
     7
 48
0.175
100
AcDbLine
 10
179.461356
 20
430.309077
 30
0.0
 11
172.461352
 21
430.309079
 31
0.0
210
0.0
220
0.0
230
1.0
  0
LINE
  5
A7
100
AcDbEntity
  8
0
 62
     7
 48
0.173077
100
AcDbLine
 10
172.461352
 20
430.309079
 30
0.0
 11
172.461356
 21
437.232155
 31
0.0
210
0.0
220
0.0
230
1.0
  0
ARC
  5
A8
100
AcDbEntity
  8
0
 62
     7
100
AcDbCircle
 10
183.71139
 20
505.010035
 30
0.0
 40
0.25
210
0.0
220
0.0
230
1.0
100
AcDbArc
 50
359.999983
 51
59.999974
  0
ARC
  5
A9
100
AcDbEntity
  8
0
 62
     7
100
AcDbCircle
 10
183.711352
 20
431.608113
 30
0.0
 40
0.25
210
0.0
220
0.0
230
1.0
100
AcDbArc
 50
299.999967
 51
359.999983
  0
LINE
  5
AA
100
AcDbEntity
  8
0
 62
     7
 48
0.054127
100
AcDbLine
 10
181.96139
 20
506.309073
 30
0.0
 11
183.83639
 21
505.226542
 31
0.0
210
0.0
220
0.0
230
1.0
  0
LINE
  5
AB
100
AcDbEntity
  8
0
 62
     7
 48
0.054126
100
AcDbLine
 10
181.961356
 20
430.309075
 30
0.0
 11
183.836352
 21
431.391606
 31
0.0
210
0.0
220
0.0
230
1.0
  0
LINE
  5
AC
100
AcDbEntity
  8
0
 62
     7
100
AcDbLine
 10
181.961356
 20
430.309075
 30
0.0
 11
181.96139
 21
506.309073
 31
0.0
210
0.0
220
0.0
230
1.0
  0
LINE
  5
AD
100
AcDbEntity
  8
0
 62
     7
 48
0.0625
100
AcDbLine
 10
181.96139
 20
506.309073
 30
0.0
 11
179.46139
 21
506.309077
 31
0.0
210
0.0
220
0.0
230
1.0
  0
LINE
  5
AE
100
AcDbEntity
  8
0
 62
     7
 48
0.0625
100
AcDbLine
 10
181.961356
 20
430.309075
 30
0.0
 11
179.461356
 21
430.309077
 31
0.0
210
0.0
220
0.0
230
1.0
  0
LINE
  5
AF
100
AcDbEntity
  8
0
 62
     7
100
AcDbLine
 10
179.461356
 20
430.309077
 30
0.0
 11
179.46139
 21
506.309077
 31
0.0
210
0.0
220
0.0
230
1.0
  0
LINE
  5
B0
100
AcDbEntity
  8
0
 62
     7
 48
0.003077
100
AcDbLine
 10
177.261359
 20
440.18599
 30
0.0
 11
177.261359
 21
440.309077
 31
0.0
210
0.0
220
0.0
230
1.0
  0
LINE
  5
B1
100
AcDbEntity
  8
0
 62
     7
 48
0.00306
100
AcDbLine
 10
173.797255
 20
438.186661
 30
0.0
 11
173.797255
 21
438.309079
 31
0.0
210
0.0
220
0.0
230
1.0
  0
LINE
  5
B2
100
AcDbEntity
  8
0
 62
     7
 48
0.00331
100
AcDbLine
 10
173.797255
 20
438.054247
 30
0.0
 11
173.797255
 21
438.186661
 31
0.0
210
0.0
220
0.0
230
1.0
  0
LINE
  5
B3
100
AcDbEntity
  8
0
 62
     7
 48
0.05696
100
AcDbLine
 10
196.931094
 20
464.579474
 30
0.0
 11
194.661364
 21
464.380899
 31
0.0
210
0.0
220
0.0
230
1.0
  0
LINE
  5
B4
100
AcDbEntity
  8
0
 62
     7
 48
0.146632
100
AcDbLine
 10
197.661372
 20
471.241706
 30
0.0
 11
197.661372
 21
465.376429
 31
0.0
210
0.0
220
0.0
230
1.0
  0
LINE
  5
B5
100
AcDbEntity
  8
0
 62
     7
 48
0.05696
100
AcDbLine
 10
194.661364
 20
472.237239
 30
0.0
 11
196.931101
 21
472.038662
 31
0.0
210
0.0
220
0.0
230
1.0
  0
ARC
  5
B6
100
AcDbEntity
  8
0
 62
     7
100
AcDbCircle
 10
196.861376
 20
471.241706
 30
0.0
 40
0.8
210
0.0
220
0.0
230
1.0
100
AcDbArc
 50
359.999983
 51
84.999976
  0
LINE
  5
B7
100
AcDbEntity
  8
0
 62
     7
 48
0.256271
100
AcDbLine
 10
183.961352
 20
431.608113
 30
0.0
 11
183.961359
 21
441.858963
 31
0.0
210
0.0
220
0.0
230
1.0
  0
LINE
  5
B8
100
AcDbEntity
  8
0
 62
     7
 48
0.256273
100
AcDbLine
 10
183.961382
 20
494.759131
 30
0.0
 11
183.96139
 21
505.010035
 31
0.0
210
0.0
220
0.0
230
1.0
  0
LINE
  5
B9
100
AcDbEntity
  8
0
 62
     7
100
AcDbLine
 10
183.961352
 20
431.608113
 30
0.0
 11
183.96139
 21
505.010035
 31
0.0
210
0.0
220
0.0
230
1.0
  0
LINE
  5
BA
100
AcDbEntity
  8
0
 62
     7
 48
0.172501
100
AcDbLine
 10
183.961337
 20
441.859074
 30
0.0
 11
190.861361
 21
441.859071
 31
0.0
210
0.0
220
0.0
230
1.0
  0
LINE
  5
BB
100
AcDbEntity
  8
0
 62
     7
 48
0.172501
100
AcDbLine
 10
183.961359
 20
494.759074
 30
0.0
 11
190.861384
 21
494.75907
 31
0.0
210
0.0
220
0.0
230
1.0
  0
ARC
  5
BC
100
AcDbEntity
  8
0
 62
     7
100
AcDbCircle
 10
190.861361
 20
445.65907
 30
0.0
 40
3.8
210
0.0
220
0.0
230
1.0
100
AcDbArc
 50
269.999973
 51
359.999983
  0
LINE
  5
BD
100
AcDbEntity
  8
0
 62
     7
 48
0.468046
100
AcDbLine
 10
194.661364
 20
445.659069
 30
0.0
 11
194.661372
 21
464.380902
 31
0.0
210
0.0
220
0.0
230
1.0
  0
LINE
  5
BE
100
AcDbEntity
  8
0
 62
     7
 48
0.173271
100
AcDbLine
 10
194.661372
 20
472.237236
 30
0.0
 11
194.661379
 21
479.168057
 31
0.0
210
0.0
220
0.0
230
1.0
  0
LINE
  5
BF
100
AcDbEntity
  8
0
 62
     7
 48
0.294775
100
AcDbLine
 10
194.661364
 20
445.659069
 30
0.0
 11
194.661364
 21
457.45008
 31
0.0
210
0.0
220
0.0
230
1.0
  0
ARC
  5
C0
100
AcDbEntity
  8
0
 62
     7
100
AcDbCircle
 10
190.861384
 20
490.959071
 30
0.0
 40
3.8
210
0.0
220
0.0
230
1.0
100
AcDbArc
 50
359.999983
 51
89.999975
  0
LINE
  5
C1
100
AcDbEntity
  8
0
 62
     7
100
AcDbLine
 10
194.661364
 20
457.45008
 30
0.0
 11
194.661379
 21
490.959071
 31
0.0
210
0.0
220
0.0
230
1.0
  0
LINE
  5
C2
100
AcDbEntity
  8
0
 62
     7
 48
0.294775
100
AcDbLine
 10
194.661379
 20
479.168057
 30
0.0
 11
194.661379
 21
490.959071
 31
0.0
210
0.0
220
0.0
230
1.0
  0
LINE
  5
C3
100
AcDbEntity
  8
0
 62
     7
 48
0.1
100
AcDbLine
 10
173.797255
 20
438.309079
 30
0.0
 11
177.261359
 21
440.309077
 31
0.0
210
0.0
220
0.0
230
1.0
  0
LINE
  5
C4
100
AcDbEntity
  8
0
 62
     7
 48
0.1
100
AcDbLine
 10
173.797255
 20
438.309079
 30
0.0
 11
177.261359
 21
440.309077
 31
0.0
210
0.0
220
0.0
230
1.0
  0
LINE
  5
C5
100
AcDbEntity
  8
0
 62
     7
 48
0.051875
100
AcDbLine
 10
167.261385
 20
498.30908
 30
0.0
 11
169.336379
 21
498.30908
 31
0.0
210
0.0
220
0.0
230
1.0
  0
LINE
  5
C6
100
AcDbEntity
  8
0
 62
     7
 48
0.01125
100
AcDbLine
 10
167.261385
 20
500.30908
 30
0.0
 11
167.711379
 21
500.30908
 31
0.0
210
0.0
220
0.0
230
1.0
  0
LINE
  5
C7
100
AcDbEntity
  8
0
 62
     7
 48
0.163397
100
AcDbLine
 10
167.261359
 20
438.30908
 30
0.0
 11
173.797255
 21
438.309079
 31
0.0
210
0.0
220
0.0
230
1.0
  0
LINE
  5
C8
100
AcDbEntity
  8
0
 62
     7
 48
0.13
100
AcDbLine
 10
167.261359
 20
436.30908
 30
0.0
 11
172.461352
 21
436.309079
 31
0.0
210
0.0
220
0.0
230
1.0
  0
LINE
  5
C9
100
AcDbEntity
  8
0
 62
     7
 48
0.011248
100
AcDbLine
 10
167.261385
 20
500.30908
 30
0.0
 11
167.711298
 21
500.30908
 31
0.0
210
0.0
220
0.0
230
1.0
  0
LINE
  5
CA
100
AcDbEntity
  8
0
 62
     7
 48
0.163397
100
AcDbLine
 10
167.261359
 20
438.30908
 30
0.0
 11
173.797255
 21
438.309079
 31
0.0
210
0.0
220
0.0
230
1.0
  0
ARC
  5
CB
100
AcDbEntity
  8
0
 62
     7
100
AcDbCircle
 10
167.261385
 20
499.30908
 30
0.0
 40
1.0
210
0.0
220
0.0
230
1.0
100
AcDbArc
 50
179.999978
 51
269.999973
  0
ARC
  5
CC
100
AcDbEntity
  8
0
 62
     7
100
AcDbCircle
 10
167.261385
 20
499.30908
 30
0.0
 40
1.0
210
0.0
220
0.0
230
1.0
100
AcDbArc
 50
89.999975
 51
179.999978
  0
ARC
  5
CD
100
AcDbEntity
  8
0
 62
     7
100
AcDbCircle
 10
167.261359
 20
437.30908
 30
0.0
 40
1.0
210
0.0
220
0.0
230
1.0
100
AcDbArc
 50
89.999975
 51
179.999978
  0
ARC
  5
CE
100
AcDbEntity
  8
0
 62
     7
100
AcDbCircle
 10
167.261359
 20
437.30908
 30
0.0
 40
1.0
210
0.0
220
0.0
230
1.0
100
AcDbArc
 50
179.999978
 51
269.999973
  0
ARC
  5
CF
100
AcDbEntity
  8
0
 62
     7
100
AcDbCircle
 10
167.261385
 20
499.30908
 30
0.0
 40
1.0
210
0.0
220
0.0
230
1.0
100
AcDbArc
 50
89.999975
 51
179.999978
  0
ARC
  5
D0
100
AcDbEntity
  8
0
 62
     7
100
AcDbCircle
 10
167.261359
 20
437.30908
 30
0.0
 40
1.0
210
0.0
220
0.0
230
1.0
100
AcDbArc
 50
89.999975
 51
179.999978
  0
ARC
  5
D1
100
AcDbEntity
  8
0
 62
     7
100
AcDbCircle
 10
196.861369
 20
465.37643
 30
0.0
 40
0.8
210
0.0
220
0.0
230
1.0
100
AcDbArc
 50
274.999972
 51
359.999983
  0
LINE
  5
D2
100
AcDbEntity
  8
0
 62
     7
 48
0.075
100
AcDbLine
 10
174.458575
 20
485.309079
 30
0.0
 11
177.458575
 21
485.309077
 31
0.0
210
0.0
220
0.0
230
1.0
  0
LINE
  5
D3
100
AcDbEntity
  8
0
 62
     7
 48
0.05
100
AcDbLine
 10
172.458575
 20
485.309079
 30
0.0
 11
174.458575
 21
485.309079
 31
0.0
210
0.0
220
0.0
230
1.0
  0
LINE
  5
D4
100
AcDbEntity
  8
0
 62
     7
 48
0.0025
100
AcDbLine
 10
175.758555
 20
443.309078
 30
0.0
 11
175.758555
 21
443.409075
 31
0.0
210
0.0
220
0.0
230
1.0
  0
LINE
  5
D5
100
AcDbEntity
  8
0
 62
     7
 48
0.0025
100
AcDbLine
 10
175.758574
 20
485.209076
 30
0.0
 11
175.758574
 21
485.309077
 31
0.0
210
0.0
220
0.0
230
1.0
  0
LINE
  5
D6
100
AcDbEntity
  8
0
 62
     7
 48
0.0375
100
AcDbLine
 10
177.458575
 20
485.309077
 30
0.0
 11
177.458575
 21
486.809077
 31
0.0
210
0.0
220
0.0
230
1.0
  0
LINE
  5
D7
100
AcDbEntity
  8
0
 62
     7
 48
0.075
100
AcDbLine
 10
174.458575
 20
486.809079
 30
0.0
 11
177.458575
 21
486.809077
 31
0.0
210
0.0
220
0.0
230
1.0
  0
LINE
  5
D8
100
AcDbEntity
  8
0
 62
     7
 48
0.075
100
AcDbLine
 10
161.458579
 20
486.809084
 30
0.0
 11
164.458579
 21
486.809082
 31
0.0
210
0.0
220
0.0
230
1.0
  0
LINE
  5
D9
100
AcDbEntity
  8
0
 62
     7
 48
0.15
100
AcDbLine
 10
164.458579
 20
486.809082
 30
0.0
 11
170.458575
 21
486.80908
 31
0.0
210
0.0
220
0.0
230
1.0
  0
LINE
  5
DA
100
AcDbEntity
  8
0
 62
     7
 48
0.05
100
AcDbLine
 10
170.458575
 20
486.80908
 30
0.0
 11
172.458575
 21
486.809079
 31
0.0
210
0.0
220
0.0
230
1.0
  0
LINE
  5
DB
100
AcDbEntity
  8
0
 62
     7
 48
0.05
100
AcDbLine
 10
172.458575
 20
486.809079
 30
0.0
 11
174.458575
 21
486.809079
 31
0.0
210
0.0
220
0.0
230
1.0
  0
LINE
  5
DC
100
AcDbEntity
  8
0
 62
     7
100
AcDbLine
 10
172.458556
 20
443.309079
 30
0.0
 11
172.458575
 21
485.309079
 31
0.0
210
0.0
220
0.0
230
1.0
  0
LINE
  5
DD
100
AcDbEntity
  8
0
 62
     7
 48
0.05
100
AcDbLine
 10
172.458556
 20
443.309079
 30
0.0
 11
174.458556
 21
443.309079
 31
0.0
210
0.0
220
0.0
230
1.0
  0
LINE
  5
DE
100
AcDbEntity
  8
0
 62
     7
 48
0.05
100
AcDbLine
 10
172.458556
 20
441.809079
 30
0.0
 11
174.458556
 21
441.809079
 31
0.0
210
0.0
220
0.0
230
1.0
  0
LINE
  5
DF
100
AcDbEntity
  8
0
 62
     7
 48
0.05
100
AcDbLine
 10
170.458556
 20
441.80908
 30
0.0
 11
172.458556
 21
441.809079
 31
0.0
210
0.0
220
0.0
230
1.0
  0
LINE
  5
E0
100
AcDbEntity
  8
0
 62
     7
 48
0.15
100
AcDbLine
 10
164.458556
 20
441.809082
 30
0.0
 11
170.458556
 21
441.80908
 31
0.0
210
0.0
220
0.0
230
1.0
  0
LINE
  5
E1
100
AcDbEntity
  8
0
 62
     7
 48
0.075
100
AcDbLine
 10
161.458556
 20
441.809084
 30
0.0
 11
164.458556
 21
441.809082
 31
0.0
210
0.0
220
0.0
230
1.0
  0
LINE
  5
E2
100
AcDbEntity
  8
0
 62
     7
 48
0.1075
100
AcDbLine
 10
157.158549
 20
422.009085
 30
0.0
 11
161.458548
 21
422.009085
 31
0.0
210
0.0
220
0.0
230
1.0
  0
LINE
  5
E3
100
AcDbEntity
  8
0
 62
     7
100
AcDbLine
 10
157.158549
 20
422.009085
 30
0.0
 11
157.158591
 21
517.609087
 31
0.0
210
0.0
220
0.0
230
1.0
  0
LINE
  5
E4
100
AcDbEntity
  8
0
 62
     7
 48
0.1075
100
AcDbLine
 10
157.158591
 20
517.609087
 30
0.0
 11
161.45859
 21
517.609084
 31
0.0
210
0.0
220
0.0
230
1.0
  0
LINE
  5
E5
100
AcDbEntity
  8
0
 62
     7
 48
0.075
100
AcDbLine
 10
174.458556
 20
443.309079
 30
0.0
 11
177.458556
 21
443.309077
 31
0.0
210
0.0
220
0.0
230
1.0
  0
LINE
  5
E6
100
AcDbEntity
  8
0
 62
     7
 48
0.09
100
AcDbLine
 10
160.758593
 20
518.309084
 30
0.0
 11
157.158591
 21
518.309084
 31
0.0
210
0.0
220
0.0
230
1.0
  0
LINE
  5
E7
100
AcDbEntity
  8
0
 62
     7
 48
0.0175
100
AcDbLine
 10
156.45859
 20
518.309088
 30
0.0
 11
157.158591
 21
518.309084
 31
0.0
210
0.0
220
0.0
230
1.0
  0
LINE
  5
E8
100
AcDbEntity
  8
0
 62
     7
 48
0.075
100
AcDbLine
 10
160.758593
 20
518.309084
 30
0.0
 11
163.758593
 21
518.309084
 31
0.0
210
0.0
220
0.0
230
1.0
  0
LINE
  5
E9
100
AcDbEntity
  8
0
 62
     7
 48
0.075
100
AcDbLine
 10
164.45859
 20
517.609084
 30
0.0
 11
161.45859
 21
517.609084
 31
0.0
210
0.0
220
0.0
230
1.0
  0
LINE
  5
EA
100
AcDbEntity
  8
0
 62
     7
 48
0.075
100
AcDbLine
 10
164.458548
 20
422.009081
 30
0.0
 11
161.458548
 21
422.009085
 31
0.0
210
0.0
220
0.0
230
1.0
  0
LINE
  5
EB
100
AcDbEntity
  8
0
 62
     7
 48
0.495
100
AcDbLine
 10
164.458548
 20
422.009081
 30
0.0
 11
164.458556
 21
441.809082
 31
0.0
210
0.0
220
0.0
230
1.0
  0
LINE
  5
EC
100
AcDbEntity
  8
0
 62
     7
 48
0.075
100
AcDbLine
 10
174.458556
 20
441.809079
 30
0.0
 11
177.458556
 21
441.809077
 31
0.0
210
0.0
220
0.0
230
1.0
  0
LINE
  5
ED
100
AcDbEntity
  8
0
 62
     7
 48
0.0375
100
AcDbLine
 10
177.458556
 20
441.809077
 30
0.0
 11
177.458556
 21
443.309077
 31
0.0
210
0.0
220
0.0
230
1.0
  0
LINE
  5
EE
100
AcDbEntity
  8
0
 62
     7
100
AcDbLine
 10
164.458579
 20
486.809082
 30
0.0
 11
164.45859
 21
517.609084
 31
0.0
210
0.0
220
0.0
230
1.0
  0
LINE
  5
EF
100
AcDbEntity
  8
0
 62
     7
 48
0.0175
100
AcDbLine
 10
156.458548
 20
421.309088
 30
0.0
 11
157.158549
 21
421.309084
 31
0.0
210
0.0
220
0.0
230
1.0
  0
LINE
  5
F0
100
AcDbEntity
  8
0
 62
     7
 48
0.09
100
AcDbLine
 10
160.758547
 20
421.309084
 30
0.0
 11
157.158549
 21
421.309084
 31
0.0
210
0.0
220
0.0
230
1.0
  0
LINE
  5
F1
100
AcDbEntity
  8
0
 62
     7
 48
0.075
100
AcDbLine
 10
160.758547
 20
421.309084
 30
0.0
 11
163.758547
 21
421.309084
 31
0.0
210
0.0
220
0.0
230
1.0
  0
LINE
  5
F2
100
AcDbEntity
  8
0
 62
     7
 48
0.0175
100
AcDbLine
 10
157.158591
 20
515.809084
 30
0.0
 11
156.45859
 21
515.809088
 31
0.0
210
0.0
220
0.0
230
1.0
  0
LINE
  5
F3
100
AcDbEntity
  8
0
 62
     7
 48
0.2625
100
AcDbLine
 10
156.461394
 20
518.309088
 30
0.0
 11
156.461401
 21
528.809088
 31
0.0
210
0.0
220
0.0
230
1.0
  0
LINE
  5
F4
100
AcDbEntity
  8
0
 62
     7
 48
0.1
100
AcDbLine
 10
156.461401
 20
528.809088
 30
0.0
 11
160.461401
 21
528.809088
 31
0.0
210
0.0
220
0.0
230
1.0
  0
LINE
  5
F5
100
AcDbEntity
  8
0
 62
     7
 48
0.025
100
AcDbLine
 10
160.461401
 20
528.809088
 30
0.0
 11
161.461401
 21
528.80908
 31
0.0
210
0.0
220
0.0
230
1.0
  0
LINE
  5
F6
100
AcDbEntity
  8
0
 62
     7
 48
0.2625
100
AcDbLine
 10
162.461401
 20
528.80908
 30
0.0
 11
162.461394
 21
518.309084
 31
0.0
210
0.0
220
0.0
230
1.0
  0
LINE
  5
F7
100
AcDbEntity
  8
0
 62
     7
 48
0.025
100
AcDbLine
 10
161.461401
 20
528.80908
 30
0.0
 11
162.461401
 21
528.80908
 31
0.0
210
0.0
220
0.0
230
1.0
  0
LINE
  5
F8
100
AcDbEntity
  8
0
 62
     7
 48
0.0175
100
AcDbLine
 10
163.758589
 20
517.609084
 30
0.0
 11
163.758593
 21
518.309084
 31
0.0
210
0.0
220
0.0
230
1.0
  0
LINE
  5
F9
100
AcDbEntity
  8
0
 62
     7
 48
0.0175
100
AcDbLine
 10
163.758547
 20
421.309084
 30
0.0
 11
163.758547
 21
422.009081
 31
0.0
210
0.0
220
0.0
230
1.0
  0
LINE
  5
FA
100
AcDbEntity
  8
0
 62
     7
 48
0.025
100
AcDbLine
 10
160.461344
 20
410.809084
 30
0.0
 11
161.461344
 21
410.809084
 31
0.0
210
0.0
220
0.0
230
1.0
  0
LINE
  5
FB
100
AcDbEntity
  8
0
 62
     7
 48
0.1
100
AcDbLine
 10
156.461344
 20
410.809088
 30
0.0
 11
160.461344
 21
410.809084
 31
0.0
210
0.0
220
0.0
230
1.0
  0
LINE
  5
FC
100
AcDbEntity
  8
0
 62
     7
 48
0.2625
100
AcDbLine
 10
156.461352
 20
421.309088
 30
0.0
 11
156.461344
 21
410.809088
 31
0.0
210
0.0
220
0.0
230
1.0
  0
LINE
  5
FD
100
AcDbEntity
  8
0
 62
     7
 48
0.025
100
AcDbLine
 10
161.461344
 20
410.809084
 30
0.0
 11
162.461344
 21
410.809084
 31
0.0
210
0.0
220
0.0
230
1.0
  0
LINE
  5
FE
100
AcDbEntity
  8
0
 62
     7
 48
0.2625
100
AcDbLine
 10
162.461352
 20
421.309084
 30
0.0
 11
162.461344
 21
410.809084
 31
0.0
210
0.0
220
0.0
230
1.0
  0
LINE
  5
FF
100
AcDbEntity
  8
0
  6
DASHDOT
 62
     7
100
AcDbLine
 10
366.650995
 20
545.104424
 30
0.0
 11
366.650995
 21
397.10418
 31
0.0
210
0.0
220
0.0
230
1.0
  0
LINE
  5
100
100
AcDbEntity
  8
0
  6
DASHDOT
 62
     7
100
AcDbLine
 10
310.2376
 20
469.808991
 30
0.0
 11
418.360235
 21
469.808991
 31
0.0
210
0.0
220
0.0
230
1.0
  0
POLYLINE
  5
101
100
AcDbEntity
  8
0
 62
     7
100
AcDb2dPolyline
 66
     1
 10
0.0
 20
0.0
 30
0.0
 71
    21
  0
VERTEX
  5
102
100
AcDbEntity
  8
0
100
AcDbVertex
100
AcDb2dVertex
 10
321.650995
 20
517.308991
 30
0.0
  0
VERTEX
  5
103
100
AcDbEntity
  8
0
100
AcDbVertex
100
AcDb2dVertex
 10
321.650995
 20
501.308991
 30
0.0
  0
VERTEX
  5
104
100
AcDbEntity
  8
0
100
AcDbVertex
100
AcDb2dVertex
 10
323.650995
 20
500.308991
 30
0.0
  0
VERTEX
  5
105
100
AcDbEntity
  8
0
100
AcDbVertex
100
AcDb2dVertex
 10
319.650995
 20
499.308991
 30
0.0
  0
VERTEX
  5
106
100
AcDbEntity
  8
0
100
AcDbVertex
100
AcDb2dVertex
 10
321.650995
 20
498.308991
 30
0.0
  0
VERTEX
  5
107
100
AcDbEntity
  8
0
100
AcDbVertex
100
AcDb2dVertex
 10
321.650995
 20
482.308991
 30
0.0
  0
VERTEX
  5
108
100
AcDbEntity
  8
0
100
AcDbVertex
100
AcDb2dVertex
 10
323.650995
 20
481.308991
 30
0.0
  0
VERTEX
  5
109
100
AcDbEntity
  8
0
100
AcDbVertex
100
AcDb2dVertex
 10
319.650995
 20
480.308991
 30
0.0
  0
VERTEX
  5
10A
100
AcDbEntity
  8
0
100
AcDbVertex
100
AcDb2dVertex
 10
321.650995
 20
479.308991
 30
0.0
  0
VERTEX
  5
10B
100
AcDbEntity
  8
0
100
AcDbVertex
100
AcDb2dVertex
 10
321.650995
 20
463.308991
 30
0.0
  0
VERTEX
  5
10C
100
AcDbEntity
  8
0
100
AcDbVertex
100
AcDb2dVertex
 10
323.650995
 20
462.308991
 30
0.0
  0
VERTEX
  5
10D
100
AcDbEntity
  8
0
100
AcDbVertex
100
AcDb2dVertex
 10
319.650995
 20
461.308991
 30
0.0
  0
VERTEX
  5
10E
100
AcDbEntity
  8
0
100
AcDbVertex
100
AcDb2dVertex
 10
321.650995
 20
460.30899
 30
0.0
  0
VERTEX
  5
10F
100
AcDbEntity
  8
0
100
AcDbVertex
100
AcDb2dVertex
 10
321.650995
 20
444.308991
 30
0.0
  0
VERTEX
  5
110
100
AcDbEntity
  8
0
100
AcDbVertex
100
AcDb2dVertex
 10
323.650995
 20
443.308991
 30
0.0
  0
VERTEX
  5
111
100
AcDbEntity
  8
0
100
AcDbVertex
100
AcDb2dVertex
 10
319.650995
 20
442.308991
 30
0.0
  0
VERTEX
  5
112
100
AcDbEntity
  8
0
100
AcDbVertex
100
AcDb2dVertex
 10
321.650995
 20
441.308991
 30
0.0
  0
VERTEX
  5
113
100
AcDbEntity
  8
0
100
AcDbVertex
100
AcDb2dVertex
 10
321.650995
 20
425.308991
 30
0.0
  0
VERTEX
  5
114
100
AcDbEntity
  8
0
100
AcDbVertex
100
AcDb2dVertex
 10
323.650995
 20
424.308991
 30
0.0
  0
VERTEX
  5
115
100
AcDbEntity
  8
0
100
AcDbVertex
100
AcDb2dVertex
 10
319.650995
 20
423.308991
 30
0.0
  0
VERTEX
  5
116
100
AcDbEntity
  8
0
100
AcDbVertex
100
AcDb2dVertex
 10
321.650995
 20
422.308991
 30
0.0
  0
SEQEND
  5
117
100
AcDbEntity
  8
0
  0
POLYLINE
  5
118
100
AcDbEntity
  8
0
 62
     7
100
AcDb2dPolyline
 66
     1
 10
0.0
 20
0.0
 30
0.0
 71
    18
  0
VERTEX
  5
119
100
AcDbEntity
  8
0
100
AcDbVertex
100
AcDb2dVertex
 10
411.650995
 20
422.308991
 30
0.0
  0
VERTEX
  5
11A
100
AcDbEntity
  8
0
100
AcDbVertex
100
AcDb2dVertex
 10
395.650995
 20
422.308991
 30
0.0
  0
VERTEX
  5
11B
100
AcDbEntity
  8
0
100
AcDbVertex
100
AcDb2dVertex
 10
394.650995
 20
420.308991
 30
0.0
  0
VERTEX
  5
11C
100
AcDbEntity
  8
0
100
AcDbVertex
100
AcDb2dVertex
 10
393.650995
 20
424.308991
 30
0.0
  0
VERTEX
  5
11D
100
AcDbEntity
  8
0
100
AcDbVertex
100
AcDb2dVertex
 10
392.650995
 20
422.308991
 30
0.0
  0
VERTEX
  5
11E
100
AcDbEntity
  8
0
100
AcDbVertex
100
AcDb2dVertex
 10
376.650995
 20
422.308991
 30
0.0
  0
VERTEX
  5
11F
100
AcDbEntity
  8
0
100
AcDbVertex
100
AcDb2dVertex
 10
375.650995
 20
420.308991
 30
0.0
  0
VERTEX
  5
120
100
AcDbEntity
  8
0
100
AcDbVertex
100
AcDb2dVertex
 10
374.650995
 20
424.308991
 30
0.0
  0
VERTEX
  5
121
100
AcDbEntity
  8
0
100
AcDbVertex
100
AcDb2dVertex
 10
373.650995
 20
422.308991
 30
0.0
  0
VERTEX
  5
122
100
AcDbEntity
  8
0
100
AcDbVertex
100
AcDb2dVertex
 10
357.650995
 20
422.308991
 30
0.0
  0
VERTEX
  5
123
100
AcDbEntity
  8
0
100
AcDbVertex
100
AcDb2dVertex
 10
356.650995
 20
420.308991
 30
0.0
  0
VERTEX
  5
124
100
AcDbEntity
  8
0
100
AcDbVertex
100
AcDb2dVertex
 10
355.650995
 20
424.308991
 30
0.0
  0
VERTEX
  5
125
100
AcDbEntity
  8
0
100
AcDbVertex
100
AcDb2dVertex
 10
354.650995
 20
422.308991
 30
0.0
  0
VERTEX
  5
126
100
AcDbEntity
  8
0
100
AcDbVertex
100
AcDb2dVertex
 10
338.650995
 20
422.308991
 30
0.0
  0
VERTEX
  5
127
100
AcDbEntity
  8
0
100
AcDbVertex
100
AcDb2dVertex
 10
337.650995
 20
420.308991
 30
0.0
  0
VERTEX
  5
128
100
AcDbEntity
  8
0
100
AcDbVertex
100
AcDb2dVertex
 10
336.650995
 20
424.308991
 30
0.0
  0
VERTEX
  5
129
100
AcDbEntity
  8
0
100
AcDbVertex
100
AcDb2dVertex
 10
335.650995
 20
422.308991
 30
0.0
  0
VERTEX
  5
12A
100
AcDbEntity
  8
0
100
AcDbVertex
100
AcDb2dVertex
 10
321.650995
 20
422.308991
 30
0.0
  0
SEQEND
  5
12B
100
AcDbEntity
  8
0
  0
POLYLINE
  5
12C
100
AcDbEntity
  8
0
 62
     7
100
AcDb2dPolyline
 66
     1
 10
0.0
 20
0.0
 30
0.0
 71
    21
  0
VERTEX
  5
12D
100
AcDbEntity
  8
0
100
AcDbVertex
100
AcDb2dVertex
 10
411.650995
 20
422.308991
 30
0.0
  0
VERTEX
  5
12E
100
AcDbEntity
  8
0
100
AcDbVertex
100
AcDb2dVertex
 10
411.650995
 20
438.308991
 30
0.0
  0
VERTEX
  5
12F
100
AcDbEntity
  8
0
100
AcDbVertex
100
AcDb2dVertex
 10
409.650995
 20
439.308991
 30
0.0
  0
VERTEX
  5
130
100
AcDbEntity
  8
0
100
AcDbVertex
100
AcDb2dVertex
 10
413.650995
 20
440.308991
 30
0.0
  0
VERTEX
  5
131
100
AcDbEntity
  8
0
100
AcDbVertex
100
AcDb2dVertex
 10
411.650995
 20
441.308991
 30
0.0
  0
VERTEX
  5
132
100
AcDbEntity
  8
0
100
AcDbVertex
100
AcDb2dVertex
 10
411.650995
 20
457.308991
 30
0.0
  0
VERTEX
  5
133
100
AcDbEntity
  8
0
100
AcDbVertex
100
AcDb2dVertex
 10
409.650995
 20
458.308991
 30
0.0
  0
VERTEX
  5
134
100
AcDbEntity
  8
0
100
AcDbVertex
100
AcDb2dVertex
 10
413.650995
 20
459.308991
 30
0.0
  0
VERTEX
  5
135
100
AcDbEntity
  8
0
100
AcDbVertex
100
AcDb2dVertex
 10
411.650995
 20
460.308991
 30
0.0
  0
VERTEX
  5
136
100
AcDbEntity
  8
0
100
AcDbVertex
100
AcDb2dVertex
 10
411.650995
 20
476.308991
 30
0.0
  0
VERTEX
  5
137
100
AcDbEntity
  8
0
100
AcDbVertex
100
AcDb2dVertex
 10
409.650995
 20
477.308991
 30
0.0
  0
VERTEX
  5
138
100
AcDbEntity
  8
0
100
AcDbVertex
100
AcDb2dVertex
 10
413.650995
 20
478.308991
 30
0.0
  0
VERTEX
  5
139
100
AcDbEntity
  8
0
100
AcDbVertex
100
AcDb2dVertex
 10
411.650995
 20
479.308991
 30
0.0
  0
VERTEX
  5
13A
100
AcDbEntity
  8
0
100
AcDbVertex
100
AcDb2dVertex
 10
411.650995
 20
495.308991
 30
0.0
  0
VERTEX
  5
13B
100
AcDbEntity
  8
0
100
AcDbVertex
100
AcDb2dVertex
 10
409.650995
 20
496.308991
 30
0.0
  0
VERTEX
  5
13C
100
AcDbEntity
  8
0
100
AcDbVertex
100
AcDb2dVertex
 10
413.650995
 20
497.308991
 30
0.0
  0
VERTEX
  5
13D
100
AcDbEntity
  8
0
100
AcDbVertex
100
AcDb2dVertex
 10
411.650995
 20
498.308991
 30
0.0
  0
VERTEX
  5
13E
100
AcDbEntity
  8
0
100
AcDbVertex
100
AcDb2dVertex
 10
411.650995
 20
514.308991
 30
0.0
  0
VERTEX
  5
13F
100
AcDbEntity
  8
0
100
AcDbVertex
100
AcDb2dVertex
 10
409.650995
 20
515.308991
 30
0.0
  0
VERTEX
  5
140
100
AcDbEntity
  8
0
100
AcDbVertex
100
AcDb2dVertex
 10
413.650995
 20
516.308991
 30
0.0
  0
VERTEX
  5
141
100
AcDbEntity
  8
0
100
AcDbVertex
100
AcDb2dVertex
 10
411.650995
 20
517.308991
 30
0.0
  0
SEQEND
  5
142
100
AcDbEntity
  8
0
  0
POLYLINE
  5
143
100
AcDbEntity
  8
0
 62
     7
100
AcDb2dPolyline
 66
     1
 10
0.0
 20
0.0
 30
0.0
 71
    18
  0
VERTEX
  5
144
100
AcDbEntity
  8
0
100
AcDbVertex
100
AcDb2dVertex
 10
321.650995
 20
517.308991
 30
0.0
  0
VERTEX
  5
145
100
AcDbEntity
  8
0
100
AcDbVertex
100
AcDb2dVertex
 10
337.650995
 20
517.308991
 30
0.0
  0
VERTEX
  5
146
100
AcDbEntity
  8
0
100
AcDbVertex
100
AcDb2dVertex
 10
338.650995
 20
519.308991
 30
0.0
  0
VERTEX
  5
147
100
AcDbEntity
  8
0
100
AcDbVertex
100
AcDb2dVertex
 10
339.650995
 20
515.308991
 30
0.0
  0
VERTEX
  5
148
100
AcDbEntity
  8
0
100
AcDbVertex
100
AcDb2dVertex
 10
340.650995
 20
517.308991
 30
0.0
  0
VERTEX
  5
149
100
AcDbEntity
  8
0
100
AcDbVertex
100
AcDb2dVertex
 10
356.650995
 20
517.308991
 30
0.0
  0
VERTEX
  5
14A
100
AcDbEntity
  8
0
100
AcDbVertex
100
AcDb2dVertex
 10
357.650995
 20
519.308991
 30
0.0
  0
VERTEX
  5
14B
100
AcDbEntity
  8
0
100
AcDbVertex
100
AcDb2dVertex
 10
358.650995
 20
515.308991
 30
0.0
  0
VERTEX
  5
14C
100
AcDbEntity
  8
0
100
AcDbVertex
100
AcDb2dVertex
 10
359.650995
 20
517.308991
 30
0.0
  0
VERTEX
  5
14D
100
AcDbEntity
  8
0
100
AcDbVertex
100
AcDb2dVertex
 10
375.650995
 20
517.308991
 30
0.0
  0
VERTEX
  5
14E
100
AcDbEntity
  8
0
100
AcDbVertex
100
AcDb2dVertex
 10
376.650995
 20
519.308991
 30
0.0
  0
VERTEX
  5
14F
100
AcDbEntity
  8
0
100
AcDbVertex
100
AcDb2dVertex
 10
377.650995
 20
515.308991
 30
0.0
  0
VERTEX
  5
150
100
AcDbEntity
  8
0
100
AcDbVertex
100
AcDb2dVertex
 10
378.650995
 20
517.308991
 30
0.0
  0
VERTEX
  5
151
100
AcDbEntity
  8
0
100
AcDbVertex
100
AcDb2dVertex
 10
394.650995
 20
517.308991
 30
0.0
  0
VERTEX
  5
152
100
AcDbEntity
  8
0
100
AcDbVertex
100
AcDb2dVertex
 10
395.650995
 20
519.308991
 30
0.0
  0
VERTEX
  5
153
100
AcDbEntity
  8
0
100
AcDbVertex
100
AcDb2dVertex
 10
396.650995
 20
515.308991
 30
0.0
  0
VERTEX
  5
154
100
AcDbEntity
  8
0
100
AcDbVertex
100
AcDb2dVertex
 10
397.650995
 20
517.308991
 30
0.0
  0
VERTEX
  5
155
100
AcDbEntity
  8
0
100
AcDbVertex
100
AcDb2dVertex
 10
411.650995
 20
517.308991
 30
0.0
  0
SEQEND
  5
156
100
AcDbEntity
  8
0
  0
LINE
  5
157
100
AcDbEntity
  8
0
 62
     7
100
AcDbLine
 10
400.650995
 20
434.308991
 30
0.0
 11
332.650995
 21
434.308991
 31
0.0
210
0.0
220
0.0
230
1.0
  0
LINE
  5
158
100
AcDbEntity
  8
0
 62
     7
100
AcDbLine
 10
332.650995
 20
502.308991
 30
0.0
 11
332.650995
 21
434.308991
 31
0.0
210
0.0
220
0.0
230
1.0
  0
LINE
  5
159
100
AcDbEntity
  8
0
 62
     7
100
AcDbLine
 10
400.650995
 20
502.308991
 30
0.0
 11
332.650995
 21
502.308991
 31
0.0
210
0.0
220
0.0
230
1.0
  0
LINE
  5
15A
100
AcDbEntity
  8
0
 62
     7
100
AcDbLine
 10
400.650995
 20
434.308991
 30
0.0
 11
400.650995
 21
502.308991
 31
0.0
210
0.0
220
0.0
230
1.0
  0
LINE
  5
15B
100
AcDbEntity
  8
0
  6
DASHDOT
 62
     7
100
AcDbLine
 10
-89.581699
 20
469.809182
 30
0.0
 11
37.237366
 21
469.809182
 31
0.0
210
0.0
220
0.0
230
1.0
  0
POINT
  5
15C
100
AcDbEntity
  8
0
 62
     7
100
AcDbPoint
 10
18.653149
 20
416.559181
 30
0.0
210
0.0
220
0.0
230
1.0
  0
POINT
  5
15D
100
AcDbEntity
  8
0
 62
     7
100
AcDbPoint
 10
-11.346851
 20
416.559181
 30
0.0
210
0.0
220
0.0
230
1.0
  0
POINT
  5
15E
100
AcDbEntity
  8
0
 62
     7
100
AcDbPoint
 10
-41.346851
 20
416.559181
 30
0.0
210
0.0
220
0.0
230
1.0
  0
POINT
  5
15F
100
AcDbEntity
  8
0
 62
     7
100
AcDbPoint
 10
-11.346851
 20
523.059185
 30
0.0
210
0.0
220
0.0
230
1.0
  0
POINT
  5
160
100
AcDbEntity
  8
0
 62
     7
100
AcDbPoint
 10
-41.346851
 20
523.059185
 30
0.0
210
0.0
220
0.0
230
1.0
  0
POINT
  5
161
100
AcDbEntity
  8
0
 62
     7
100
AcDbPoint
 10
18.653149
 20
523.059185
 30
0.0
210
0.0
220
0.0
230
1.0
  0
POINT
  5
162
100
AcDbEntity
  8
0
 62
     7
100
AcDbPoint
 10
-71.346851
 20
416.559181
 30
0.0
210
0.0
220
0.0
230
1.0
  0
POINT
  5
163
100
AcDbEntity
  8
0
 62
     7
100
AcDbPoint
 10
-71.346851
 20
523.059185
 30
0.0
210
0.0
220
0.0
230
1.0
  0
ARC
  5
164
100
AcDbEntity
  8
0
 62
     7
100
AcDbCircle
 10
-53.846863
 20
533.809192
 30
0.0
 40
1.0
210
0.0
220
0.0
230
1.0
100
AcDbArc
 50
89.999436
 51
180.000565
  0
LINE
  5
165
100
AcDbEntity
  8
0
 62
     7
 48
0.025
100
AcDbLine
 10
-23.346851
 20
533.809185
 30
0.0
 11
-23.346851
 21
534.809185
 31
0.0
210
0.0
220
0.0
230
1.0
  0
LINE
  5
166
100
AcDbEntity
  8
0
 62
     7
 48
0.025
100
AcDbLine
 10
-23.346851
 20
532.809185
 30
0.0
 11
-23.346851
 21
533.809185
 31
0.0
210
0.0
220
0.0
230
1.0
  0
LINE
  5
167
100
AcDbEntity
  8
0
 62
     7
 48
0.025
100
AcDbLine
 10
-29.346851
 20
533.809185
 30
0.0
 11
-29.346851
 21
534.809185
 31
0.0
210
0.0
220
0.0
230
1.0
  0
LINE
  5
168
100
AcDbEntity
  8
0
 62
     7
 48
0.025
100
AcDbLine
 10
-29.346851
 20
532.809185
 30
0.0
 11
-29.346851
 21
533.809185
 31
0.0
210
0.0
220
0.0
230
1.0
  0
LINE
  5
169
100
AcDbEntity
  8
0
 62
     7
 48
0.025
100
AcDbLine
 10
0.653149
 20
533.809185
 30
0.0
 11
0.653149
 21
534.809185
 31
0.0
210
0.0
220
0.0
230
1.0
  0
LINE
  5
16A
100
AcDbEntity
  8
0
 62
     7
 48
0.025
100
AcDbLine
 10
0.653149
 20
532.809185
 30
0.0
 11
0.653149
 21
533.809185
 31
0.0
210
0.0
220
0.0
230
1.0
  0
POLYLINE
  5
16B
100
AcDbEntity
  8
0
 62
     7
100
AcDb2dPolyline
 66
     1
 10
0.0
 20
0.0
 30
0.0
 71
    29
  0
VERTEX
  5
16C
100
AcDbEntity
  8
0
100
AcDbVertex
100
AcDb2dVertex
 10
-12.184758
 20
532.596851
 30
0.0
  0
VERTEX
  5
16D
100
AcDbEntity
  8
0
100
AcDbVertex
100
AcDb2dVertex
 10
-12.219644
 20
532.546886
 30
0.0
  0
VERTEX
  5
16E
100
AcDbEntity
  8
0
100
AcDbVertex
100
AcDb2dVertex
 10
-12.252329
 20
532.496555
 30
0.0
  0
VERTEX
  5
16F
100
AcDbEntity
  8
0
100
AcDbVertex
100
AcDb2dVertex
 10
-12.282344
 20
532.446659
 30
0.0
  0
VERTEX
  5
170
100
AcDbEntity
  8
0
100
AcDbVertex
100
AcDb2dVertex
 10
-12.310177
 20
532.39648
 30
0.0
  0
VERTEX
  5
171
100
AcDbEntity
  8
0
100
AcDbVertex
100
AcDb2dVertex
 10
-12.335447
 20
532.346798
 30
0.0
  0
VERTEX
  5
172
100
AcDbEntity
  8
0
100
AcDbVertex
100
AcDb2dVertex
 10
-12.358556
 20
532.296924
 30
0.0
  0
VERTEX
  5
173
100
AcDbEntity
  8
0
100
AcDbVertex
100
AcDb2dVertex
 10
-12.379214
 20
532.24757
 30
0.0
  0
VERTEX
  5
174
100
AcDbEntity
  8
0
100
AcDbVertex
100
AcDb2dVertex
 10
-12.397738
 20
532.198101
 30
0.0
  0
VERTEX
  5
175
100
AcDbEntity
  8
0
100
AcDbVertex
100
AcDb2dVertex
 10
-12.41392
 20
532.149181
 30
0.0
  0
VERTEX
  5
176
100
AcDbEntity
  8
0
100
AcDbVertex
100
AcDb2dVertex
 10
-12.427996
 20
532.100216
 30
0.0
  0
VERTEX
  5
177
100
AcDbEntity
  8
0
100
AcDbVertex
100
AcDb2dVertex
 10
-12.439833
 20
532.051792
 30
0.0
  0
VERTEX
  5
178
100
AcDbEntity
  8
0
100
AcDbVertex
100
AcDb2dVertex
 10
-12.449593
 20
532.003399
 30
0.0
  0
VERTEX
  5
179
100
AcDbEntity
  8
0
100
AcDbVertex
100
AcDb2dVertex
 10
-12.457205
 20
531.955524
 30
0.0
  0
VERTEX
  5
17A
100
AcDbEntity
  8
0
100
AcDbVertex
100
AcDb2dVertex
 10
-12.462767
 20
531.907741
 30
0.0
  0
VERTEX
  5
17B
100
AcDbEntity
  8
0
100
AcDbVertex
100
AcDb2dVertex
 10
-12.466257
 20
531.860454
 30
0.0
  0
VERTEX
  5
17C
100
AcDbEntity
  8
0
100
AcDbVertex
100
AcDb2dVertex
 10
-12.467721
 20
531.81332
 30
0.0
  0
VERTEX
  5
17D
100
AcDbEntity
  8
0
100
AcDbVertex
100
AcDb2dVertex
 10
-12.467168
 20
531.766628
 30
0.0
  0
VERTEX
  5
17E
100
AcDbEntity
  8
0
100
AcDbVertex
100
AcDb2dVertex
 10
-12.464613
 20
531.720165
 30
0.0
  0
VERTEX
  5
17F
100
AcDbEntity
  8
0
100
AcDbVertex
100
AcDb2dVertex
 10
-12.460073
 20
531.674091
 30
0.0
  0
VERTEX
  5
180
100
AcDbEntity
  8
0
100
AcDbVertex
100
AcDb2dVertex
 10
-12.453548
 20
531.628307
 30
0.0
  0
VERTEX
  5
181
100
AcDbEntity
  8
0
100
AcDbVertex
100
AcDb2dVertex
 10
-12.43458
 20
531.537761
 30
0.0
  0
VERTEX
  5
182
100
AcDbEntity
  8
0
100
AcDbVertex
100
AcDb2dVertex
 10
-12.407706
 20
531.448566
 30
0.0
  0
VERTEX
  5
183
100
AcDbEntity
  8
0
100
AcDbVertex
100
AcDb2dVertex
 10
-12.372871
 20
531.360752
 30
0.0
  0
VERTEX
  5
184
100
AcDbEntity
  8
0
100
AcDbVertex
100
AcDb2dVertex
 10
-12.329974
 20
531.274402
 30
0.0
  0
VERTEX
  5
185
100
AcDbEntity
  8
0
100
AcDbVertex
100
AcDb2dVertex
 10
-12.278876
 20
531.189609
 30
0.0
  0
VERTEX
  5
186
100
AcDbEntity
  8
0
100
AcDbVertex
100
AcDb2dVertex
 10
-12.219409
 20
531.106525
 30
0.0
  0
VERTEX
  5
187
100
AcDbEntity
  8
0
100
AcDbVertex
100
AcDb2dVertex
 10
-12.151393
 20
531.025318
 30
0.0
  0
VERTEX
  5
188
100
AcDbEntity
  8
0
100
AcDbVertex
100
AcDb2dVertex
 10
-12.144225
 20
531.017429
 30
0.0
  0
SEQEND
  5
189
100
AcDbEntity
  8
0
  0
POLYLINE
  5
18A
100
AcDbEntity
  8
0
 62
     7
100
AcDb2dPolyline
 66
     1
 10
0.0
 20
0.0
 30
0.0
 71
    29
  0
VERTEX
  5
18B
100
AcDbEntity
  8
0
100
AcDbVertex
100
AcDb2dVertex
 10
-10.508944
 20
531.021518
 30
0.0
  0
VERTEX
  5
18C
100
AcDbEntity
  8
0
100
AcDbVertex
100
AcDb2dVertex
 10
-10.474059
 20
531.071483
 30
0.0
  0
VERTEX
  5
18D
100
AcDbEntity
  8
0
100
AcDbVertex
100
AcDb2dVertex
 10
-10.441374
 20
531.121814
 30
0.0
  0
VERTEX
  5
18E
100
AcDbEntity
  8
0
100
AcDbVertex
100
AcDb2dVertex
 10
-10.411358
 20
531.171711
 30
0.0
  0
VERTEX
  5
18F
100
AcDbEntity
  8
0
100
AcDbVertex
100
AcDb2dVertex
 10
-10.383526
 20
531.221889
 30
0.0
  0
VERTEX
  5
190
100
AcDbEntity
  8
0
100
AcDbVertex
100
AcDb2dVertex
 10
-10.358256
 20
531.271572
 30
0.0
  0
VERTEX
  5
191
100
AcDbEntity
  8
0
100
AcDbVertex
100
AcDb2dVertex
 10
-10.335146
 20
531.321445
 30
0.0
  0
VERTEX
  5
192
100
AcDbEntity
  8
0
100
AcDbVertex
100
AcDb2dVertex
 10
-10.314488
 20
531.3708
 30
0.0
  0
VERTEX
  5
193
100
AcDbEntity
  8
0
100
AcDbVertex
100
AcDb2dVertex
 10
-10.295965
 20
531.420269
 30
0.0
  0
VERTEX
  5
194
100
AcDbEntity
  8
0
100
AcDbVertex
100
AcDb2dVertex
 10
-10.279783
 20
531.469188
 30
0.0
  0
VERTEX
  5
195
100
AcDbEntity
  8
0
100
AcDbVertex
100
AcDb2dVertex
 10
-10.265707
 20
531.518154
 30
0.0
  0
VERTEX
  5
196
100
AcDbEntity
  8
0
100
AcDbVertex
100
AcDb2dVertex
 10
-10.25387
 20
531.566578
 30
0.0
  0
VERTEX
  5
197
100
AcDbEntity
  8
0
100
AcDbVertex
100
AcDb2dVertex
 10
-10.24411
 20
531.614971
 30
0.0
  0
VERTEX
  5
198
100
AcDbEntity
  8
0
100
AcDbVertex
100
AcDb2dVertex
 10
-10.236498
 20
531.662845
 30
0.0
  0
VERTEX
  5
199
100
AcDbEntity
  8
0
100
AcDbVertex
100
AcDb2dVertex
 10
-10.230935
 20
531.710628
 30
0.0
  0
VERTEX
  5
19A
100
AcDbEntity
  8
0
100
AcDbVertex
100
AcDb2dVertex
 10
-10.227446
 20
531.757915
 30
0.0
  0
VERTEX
  5
19B
100
AcDbEntity
  8
0
100
AcDbVertex
100
AcDb2dVertex
 10
-10.225981
 20
531.80505
 30
0.0
  0
VERTEX
  5
19C
100
AcDbEntity
  8
0
100
AcDbVertex
100
AcDb2dVertex
 10
-10.226534
 20
531.851742
 30
0.0
  0
VERTEX
  5
19D
100
AcDbEntity
  8
0
100
AcDbVertex
100
AcDb2dVertex
 10
-10.22909
 20
531.898205
 30
0.0
  0
VERTEX
  5
19E
100
AcDbEntity
  8
0
100
AcDbVertex
100
AcDb2dVertex
 10
-10.23363
 20
531.944278
 30
0.0
  0
VERTEX
  5
19F
100
AcDbEntity
  8
0
100
AcDbVertex
100
AcDb2dVertex
 10
-10.240155
 20
531.990062
 30
0.0
  0
VERTEX
  5
1A0
100
AcDbEntity
  8
0
100
AcDbVertex
100
AcDb2dVertex
 10
-10.259123
 20
532.080608
 30
0.0
  0
VERTEX
  5
1A1
100
AcDbEntity
  8
0
100
AcDbVertex
100
AcDb2dVertex
 10
-10.285997
 20
532.169803
 30
0.0
  0
VERTEX
  5
1A2
100
AcDbEntity
  8
0
100
AcDbVertex
100
AcDb2dVertex
 10
-10.320832
 20
532.257618
 30
0.0
  0
VERTEX
  5
1A3
100
AcDbEntity
  8
0
100
AcDbVertex
100
AcDb2dVertex
 10
-10.363729
 20
532.343967
 30
0.0
  0
VERTEX
  5
1A4
100
AcDbEntity
  8
0
100
AcDbVertex
100
AcDb2dVertex
 10
-10.414827
 20
532.42876
 30
0.0
  0
VERTEX
  5
1A5
100
AcDbEntity
  8
0
100
AcDbVertex
100
AcDb2dVertex
 10
-10.474293
 20
532.511844
 30
0.0
  0
VERTEX
  5
1A6
100
AcDbEntity
  8
0
100
AcDbVertex
100
AcDb2dVertex
 10
-10.54231
 20
532.593052
 30
0.0
  0
VERTEX
  5
1A7
100
AcDbEntity
  8
0
100
AcDbVertex
100
AcDb2dVertex
 10
-10.549478
 20
532.60094
 30
0.0
  0
SEQEND
  5
1A8
100
AcDbEntity
  8
0
  0
ARC
  5
1A9
100
AcDbEntity
  8
0
 62
     7
100
AcDbCircle
 10
-11.346999
 20
531.809185
 30
0.0
 40
1.150122
210
0.0
220
0.0
230
1.0
100
AcDbArc
 50
270.00735
 51
89.992646
  0
CIRCLE
  5
1AA
100
AcDbEntity
  8
0
 62
     7
100
AcDbCircle
 10
-11.346851
 20
531.809185
 30
0.0
 40
1.15
210
0.0
220
0.0
230
1.0
  0
ARC
  5
1AB
100
AcDbEntity
  8
0
 62
     7
100
AcDbCircle
 10
-52.846851
 20
517.559185
 30
0.0
 40
2.6
210
0.0
220
0.0
230
1.0
100
AcDbArc
 50
140.284954
 51
163.046943
  0
LINE
  5
1AC
100
AcDbEntity
  8
0
 62
     7
 48
0.06375
100
AcDbLine
 10
-56.346851
 20
517.609184
 30
0.0
 11
-56.346851
 21
520.159183
 31
0.0
210
0.0
220
0.0
230
1.0
  0
LINE
  5
1AD
100
AcDbEntity
  8
0
 62
     7
 48
0.21625
100
AcDbLine
 10
-56.346851
 20
520.159183
 30
0.0
 11
-56.346851
 21
528.809185
 31
0.0
210
0.0
220
0.0
230
1.0
  0
LINE
  5
1AE
100
AcDbEntity
  8
0
 62
     7
100
AcDbLine
 10
-23.346851
 20
534.809185
 30
0.0
 11
0.653149
 21
534.809185
 31
0.0
210
0.0
220
0.0
230
1.0
  0
LINE
  5
1AF
100
AcDbEntity
  8
0
 62
     7
100
AcDbLine
 10
-53.846851
 20
534.809185
 30
0.0
 11
-29.346851
 21
534.809185
 31
0.0
210
0.0
220
0.0
230
1.0
  0
LINE
  5
1B0
100
AcDbEntity
  8
0
 62
     7
 48
0.0375
100
AcDbLine
 10
-24.846851
 20
534.809185
 30
0.0
 11
-23.346851
 21
534.809185
 31
0.0
210
0.0
220
0.0
230
1.0
  0
LINE
  5
1B1
100
AcDbEntity
  8
0
 62
     7
 48
0.0375
100
AcDbLine
 10
-29.346851
 20
534.809185
 30
0.0
 11
-27.846851
 21
534.809185
 31
0.0
210
0.0
220
0.0
230
1.0
  0
LINE
  5
1B2
100
AcDbEntity
  8
0
 62
     7
 48
0.0375
100
AcDbLine
 10
0.653149
 20
534.809185
 30
0.0
 11
2.153149
 21
534.809185
 31
0.0
210
0.0
220
0.0
230
1.0
  0
LINE
  5
1B3
100
AcDbEntity
  8
0
 62
     7
 48
0.15
100
AcDbLine
 10
-29.346851
 20
530.809185
 30
0.0
 11
-23.346851
 21
530.809185
 31
0.0
210
0.0
220
0.0
230
1.0
  0
LINE
  5
1B4
100
AcDbEntity
  8
0
 62
     7
 48
0.061702
100
AcDbLine
 10
0.653149
 20
530.809185
 30
0.0
 11
3.12121
 21
530.809185
 31
0.0
210
0.0
220
0.0
230
1.0
  0
LINE
  5
1B5
100
AcDbEntity
  8
0
 62
     7
 48
0.025
100
AcDbLine
 10
-54.846851
 20
532.809185
 30
0.0
 11
-53.846851
 21
532.809185
 31
0.0
210
0.0
220
0.0
230
1.0
  0
LINE
  5
1B6
100
AcDbEntity
  8
0
 62
     7
 48
0.0125
100
AcDbLine
 10
-53.846851
 20
532.809185
 30
0.0
 11
-53.346851
 21
532.809185
 31
0.0
210
0.0
220
0.0
230
1.0
  0
LINE
  5
1B7
100
AcDbEntity
  8
0
 62
     7
 48
0.075
100
AcDbLine
 10
-53.346851
 20
529.809185
 30
0.0
 11
-53.346851
 21
532.809185
 31
0.0
210
0.0
220
0.0
230
1.0
  0
LINE
  5
1B8
100
AcDbEntity
  8
0
 62
     7
 48
0.025
100
AcDbLine
 10
-54.846851
 20
529.809185
 30
0.0
 11
-53.846851
 21
529.809185
 31
0.0
210
0.0
220
0.0
230
1.0
  0
LINE
  5
1B9
100
AcDbEntity
  8
0
 62
     7
 48
0.0125
100
AcDbLine
 10
-53.846851
 20
529.809185
 30
0.0
 11
-53.346851
 21
529.809185
 31
0.0
210
0.0
220
0.0
230
1.0
  0
LINE
  5
1BA
100
AcDbEntity
  8
0
 62
     7
 48
0.05
100
AcDbLine
 10
-29.346851
 20
530.809185
 30
0.0
 11
-29.346851
 21
532.809185
 31
0.0
210
0.0
220
0.0
230
1.0
  0
LINE
  5
1BB
100
AcDbEntity
  8
0
 62
     7
 48
0.0375
100
AcDbLine
 10
-29.346851
 20
532.809185
 30
0.0
 11
-27.846851
 21
532.809185
 31
0.0
210
0.0
220
0.0
230
1.0
  0
LINE
  5
1BC
100
AcDbEntity
  8
0
 62
     7
 48
0.05
100
AcDbLine
 10
-27.846851
 20
532.809185
 30
0.0
 11
-27.846851
 21
534.809185
 31
0.0
210
0.0
220
0.0
230
1.0
  0
LINE
  5
1BD
100
AcDbEntity
  8
0
 62
     7
 48
0.05
100
AcDbLine
 10
-24.846851
 20
532.809185
 30
0.0
 11
-24.846851
 21
534.809185
 31
0.0
210
0.0
220
0.0
230
1.0
  0
LINE
  5
1BE
100
AcDbEntity
  8
0
 62
     7
 48
0.0375
100
AcDbLine
 10
-24.846851
 20
532.809185
 30
0.0
 11
-23.346851
 21
532.809185
 31
0.0
210
0.0
220
0.0
230
1.0
  0
LINE
  5
1BF
100
AcDbEntity
  8
0
 62
     7
 48
0.05
100
AcDbLine
 10
-23.346851
 20
530.809185
 30
0.0
 11
-23.346851
 21
532.809185
 31
0.0
210
0.0
220
0.0
230
1.0
  0
LINE
  5
1C0
100
AcDbEntity
  8
0
 62
     7
 48
0.05
100
AcDbLine
 10
0.653149
 20
530.809185
 30
0.0
 11
0.653149
 21
532.809185
 31
0.0
210
0.0
220
0.0
230
1.0
  0
LINE
  5
1C1
100
AcDbEntity
  8
0
 62
     7
 48
0.0375
100
AcDbLine
 10
0.653149
 20
532.809185
 30
0.0
 11
2.153149
 21
532.809185
 31
0.0
210
0.0
220
0.0
230
1.0
  0
LINE
  5
1C2
100
AcDbEntity
  8
0
 62
     7
 48
0.05
100
AcDbLine
 10
2.153149
 20
532.809185
 30
0.0
 11
2.153149
 21
534.809185
 31
0.0
210
0.0
220
0.0
230
1.0
  0
LINE
  5
1C3
100
AcDbEntity
  8
0
 62
     7
 48
0.0375
100
AcDbLine
 10
-56.346851
 20
528.809185
 30
0.0
 11
-54.846851
 21
528.809185
 31
0.0
210
0.0
220
0.0
230
1.0
  0
CIRCLE
  5
1C4
100
AcDbEntity
  8
0
 62
     7
100
AcDbCircle
 10
-26.346851
 20
523.309185
 30
0.0
 40
2.1
210
0.0
220
0.0
230
1.0
  0
LINE
  5
1C5
100
AcDbEntity
  8
0
 62
     7
 48
0.025
100
AcDbLine
 10
-54.846851
 20
528.809185
 30
0.0
 11
-53.846851
 21
528.809185
 31
0.0
210
0.0
220
0.0
230
1.0
  0
ARC
  5
1C6
100
AcDbEntity
  8
0
 62
     7
100
AcDbCircle
 10
-26.346851
 20
523.309185
 30
0.0
 40
4.25
210
0.0
220
0.0
230
1.0
100
AcDbArc
 50
239.954026
 51
240.122649
  0
ARC
  5
1C7
100
AcDbEntity
  8
0
 62
     7
100
AcDbCircle
 10
-26.346851
 20
523.309185
 30
0.0
 40
4.25
210
0.0
220
0.0
230
1.0
100
AcDbArc
 50
179.97431
 51
194.431648
  0
ARC
  5
1C8
100
AcDbEntity
  8
0
 62
     7
100
AcDbCircle
 10
-26.346851
 20
523.309185
 30
0.0
 40
4.25
210
0.0
220
0.0
230
1.0
100
AcDbArc
 50
209.967078
 51
246.677062
  0
ARC
  5
1C9
100
AcDbEntity
  8
0
 62
     7
100
AcDbCircle
 10
-26.346851
 20
523.309185
 30
0.0
 40
4.25
210
0.0
220
0.0
230
1.0
100
AcDbArc
 50
119.968092
 51
148.694378
  0
ARC
  5
1CA
100
AcDbEntity
  8
0
 62
     7
100
AcDbCircle
 10
-26.346851
 20
523.309185
 30
0.0
 40
4.25
210
0.0
220
0.0
230
1.0
100
AcDbArc
 50
149.952404
 51
161.763687
  0
ARC
  5
1CB
100
AcDbEntity
  8
0
 62
     7
100
AcDbCircle
 10
-26.346851
 20
523.309185
 30
0.0
 40
4.25
210
0.0
220
0.0
230
1.0
100
AcDbArc
 50
21.953312
 51
60.135315
  0
ARC
  5
1CC
100
AcDbEntity
  8
0
 62
     7
100
AcDbCircle
 10
-26.346851
 20
523.309185
 30
0.0
 40
4.25
210
0.0
220
0.0
230
1.0
100
AcDbArc
 50
25.650398
 51
30.025505
  0
ARC
  5
1CD
100
AcDbEntity
  8
0
 62
     7
100
AcDbCircle
 10
-26.346851
 20
523.309185
 30
0.0
 40
4.25
210
0.0
220
0.0
230
1.0
100
AcDbArc
 50
359.875837
 51
0.035739
  0
LINE
  5
1CE
100
AcDbEntity
  8
0
 62
     7
 48
0.025
100
AcDbLine
 10
-54.846851
 20
528.809185
 30
0.0
 11
-54.846851
 21
529.809185
 31
0.0
210
0.0
220
0.0
230
1.0
  0
LINE
  5
1CF
100
AcDbEntity
  8
0
 62
     7
 48
0.025
100
AcDbLine
 10
-54.846851
 20
532.809185
 30
0.0
 11
-54.846851
 21
533.809185
 31
0.0
210
0.0
220
0.0
230
1.0
  0
LINE
  5
1D0
100
AcDbEntity
  8
0
 62
     7
 48
0.000183
100
AcDbLine
 10
-12.182477
 20
531.059185
 30
0.0
 11
-12.175142
 21
531.059185
 31
0.0
210
0.0
220
0.0
230
1.0
  0
LINE
  5
1D1
100
AcDbEntity
  8
0
 62
     7
 48
0.00012
100
AcDbLine
 10
-10.485773
 20
531.059185
 30
0.0
 11
-10.480958
 21
531.059185
 31
0.0
210
0.0
220
0.0
230
1.0
  0
LINE
  5
1D2
100
AcDbEntity
  8
0
 62
     7
 48
0.0025
100
AcDbLine
 10
16.153149
 20
485.209184
 30
0.0
 11
16.153149
 21
485.309185
 31
0.0
210
0.0
220
0.0
230
1.0
  0
LINE
  5
1D3
100
AcDbEntity
  8
0
 62
     7
100
AcDbLine
 10
26.753147
 20
443.609185
 30
0.0
 11
26.753147
 21
485.009186
 31
0.0
210
0.0
220
0.0
230
1.0
  0
LINE
  5
1D4
100
AcDbEntity
  8
0
 62
     7
100
AcDbLine
 10
-49.44685
 20
443.609185
 30
0.0
 11
-49.44685
 21
485.009186
 31
0.0
210
0.0
220
0.0
230
1.0
  0
ARC
  5
1D5
100
AcDbEntity
  8
0
 62
     7
100
AcDbCircle
 10
3.653133
 20
416.309181
 30
0.0
 40
2.1
210
0.0
220
0.0
230
1.0
100
AcDbArc
 50
270.000192
 51
314.92557
  0
ARC
  5
1D6
100
AcDbEntity
  8
0
 62
     7
100
AcDbCircle
 10
3.653133
 20
416.309181
 30
0.0
 40
2.1
210
0.0
220
0.0
230
1.0
100
AcDbArc
 50
45.315411
 51
89.999825
  0
ARC
  5
1D7
100
AcDbEntity
  8
0
 62
     7
100
AcDbCircle
 10
3.653133
 20
416.309181
 30
0.0
 40
2.1
210
0.0
220
0.0
230
1.0
100
AcDbArc
 50
328.814105
 51
359.915097
  0
ARC
  5
1D8
100
AcDbEntity
  8
0
 62
     7
100
AcDbCircle
 10
3.653133
 20
416.309181
 30
0.0
 40
2.1
210
0.0
220
0.0
230
1.0
100
AcDbArc
 50
21.879106
 51
44.899881
  0
ARC
  5
1D9
100
AcDbEntity
  8
0
 62
     7
100
AcDbCircle
 10
3.653133
 20
416.309181
 30
0.0
 40
2.1
210
0.0
220
0.0
230
1.0
100
AcDbArc
 50
90.000658
 51
199.846896
  0
ARC
  5
1DA
100
AcDbEntity
  8
0
 62
     7
100
AcDbCircle
 10
-26.346867
 20
416.309181
 30
0.0
 40
2.1
210
0.0
220
0.0
230
1.0
100
AcDbArc
 50
90.001833
 51
174.648989
  0
ARC
  5
1DB
100
AcDbEntity
  8
0
 62
     7
100
AcDbCircle
 10
-26.346867
 20
416.309181
 30
0.0
 40
2.1
210
0.0
220
0.0
230
1.0
100
AcDbArc
 50
180.114766
 51
185.207136
  0
ARC
  5
1DC
100
AcDbEntity
  8
0
 62
     7
100
AcDbCircle
 10
-26.346867
 20
416.309181
 30
0.0
 40
2.1
210
0.0
220
0.0
230
1.0
100
AcDbArc
 50
326.739119
 51
44.766352
  0
ARC
  5
1DD
100
AcDbEntity
  8
0
 62
     7
100
AcDbCircle
 10
-26.346867
 20
416.309181
 30
0.0
 40
2.1
210
0.0
220
0.0
230
1.0
100
AcDbArc
 50
45.561217
 51
89.999825
  0
ARC
  5
1DE
100
AcDbEntity
  8
0
 62
     7
100
AcDbCircle
 10
-26.346867
 20
416.309181
 30
0.0
 40
2.1
210
0.0
220
0.0
230
1.0
100
AcDbArc
 50
270.000383
 51
270.077892
  0
ARC
  5
1DF
100
AcDbEntity
  8
0
 62
     7
100
AcDbCircle
 10
-53.846863
 20
405.80917
 30
0.0
 40
1.0
210
0.0
220
0.0
230
1.0
100
AcDbArc
 50
179.999349
 51
270.000547
  0
ARC
  5
1E0
100
AcDbEntity
  8
0
 62
     7
100
AcDbCircle
 10
31.153149
 20
405.809177
 30
0.0
 40
1.0
210
0.0
220
0.0
230
1.0
100
AcDbArc
 50
270.000028
 51
359.999901
  0
LINE
  5
1E1
100
AcDbEntity
  8
0
 62
     7
 48
0.025
100
AcDbLine
 10
0.653133
 20
404.809177
 30
0.0
 11
0.653133
 21
405.809177
 31
0.0
210
0.0
220
0.0
230
1.0
  0
LINE
  5
1E2
100
AcDbEntity
  8
0
 62
     7
 48
0.025
100
AcDbLine
 10
-29.346867
 20
404.809181
 30
0.0
 11
-29.346867
 21
405.809181
 31
0.0
210
0.0
220
0.0
230
1.0
  0
LINE
  5
1E3
100
AcDbEntity
  8
0
 62
     7
 48
0.025
100
AcDbLine
 10
-54.846851
 20
406.809181
 30
0.0
 11
-53.846851
 21
406.809181
 31
0.0
210
0.0
220
0.0
230
1.0
  0
LINE
  5
1E4
100
AcDbEntity
  8
0
 62
     7
 48
0.025
100
AcDbLine
 10
-54.846851
 20
409.809181
 30
0.0
 11
-53.846851
 21
409.809181
 31
0.0
210
0.0
220
0.0
230
1.0
  0
LINE
  5
1E5
100
AcDbEntity
  8
0
 62
     7
 48
0.025
100
AcDbLine
 10
31.153149
 20
406.809181
 30
0.0
 11
32.153149
 21
406.809181
 31
0.0
210
0.0
220
0.0
230
1.0
  0
LINE
  5
1E6
100
AcDbEntity
  8
0
 62
     7
 48
0.025
100
AcDbLine
 10
31.153149
 20
409.809181
 30
0.0
 11
32.153149
 21
409.809181
 31
0.0
210
0.0
220
0.0
230
1.0
  0
LINE
  5
1E7
100
AcDbEntity
  8
0
 62
     7
 48
0.037499
100
AcDbLine
 10
32.153164
 20
413.809177
 30
0.0
 11
33.653133
 21
413.809177
 31
0.0
210
0.0
220
0.0
230
1.0
  0
LINE
  5
1E8
100
AcDbEntity
  8
0
 62
     7
 48
0.0375
100
AcDbLine
 10
32.153153
 20
418.309177
 30
0.0
 11
33.653133
 21
418.309177
 31
0.0
210
0.0
220
0.0
230
1.0
  0
LINE
  5
1E9
100
AcDbEntity
  8
0
 62
     7
 48
0.0375
100
AcDbLine
 10
32.153149
 20
410.809181
 30
0.0
 11
33.653133
 21
410.809181
 31
0.0
210
0.0
220
0.0
230
1.0
  0
ARC
  5
1EA
100
AcDbEntity
  8
0
 62
     7
100
AcDbCircle
 10
3.653149
 20
416.309177
 30
0.0
 40
2.1
210
0.0
220
0.0
230
1.0
100
AcDbArc
 50
270.000001
 51
61.563644
  0
ARC
  5
1EB
100
AcDbEntity
  8
0
 62
     7
100
AcDbCircle
 10
3.653149
 20
416.309177
 30
0.0
 40
2.1
210
0.0
220
0.0
230
1.0
100
AcDbArc
 50
118.437366
 51
270.000001
  0
LINE
  5
1EC
100
AcDbEntity
  8
0
 62
     7
 48
0.025
100
AcDbLine
 10
6.653133
 20
404.809177
 30
0.0
 11
6.653133
 21
405.809177
 31
0.0
210
0.0
220
0.0
230
1.0
  0
POLYLINE
  5
1ED
100
AcDbEntity
  8
0
 62
     7
100
AcDb2dPolyline
 66
     1
 10
0.0
 20
0.0
 30
0.0
 71
    26
  0
VERTEX
  5
1EE
100
AcDbEntity
  8
0
100
AcDbVertex
100
AcDb2dVertex
 10
-12.144225
 20
408.600937
 30
0.0
  0
VERTEX
  5
1EF
100
AcDbEntity
  8
0
100
AcDbVertex
100
AcDb2dVertex
 10
-12.18023
 20
408.562927
 30
0.0
  0
VERTEX
  5
1F0
100
AcDbEntity
  8
0
100
AcDbVertex
100
AcDb2dVertex
 10
-12.214175
 20
408.524158
 30
0.0
  0
VERTEX
  5
1F1
100
AcDbEntity
  8
0
100
AcDbVertex
100
AcDb2dVertex
 10
-12.245561
 20
408.485271
 30
0.0
  0
VERTEX
  5
1F2
100
AcDbEntity
  8
0
100
AcDbVertex
100
AcDb2dVertex
 10
-12.274924
 20
408.445682
 30
0.0
  0
VERTEX
  5
1F3
100
AcDbEntity
  8
0
100
AcDbVertex
100
AcDb2dVertex
 10
-12.301894
 20
408.40596
 30
0.0
  0
VERTEX
  5
1F4
100
AcDbEntity
  8
0
100
AcDbVertex
100
AcDb2dVertex
 10
-12.326873
 20
408.365581
 30
0.0
  0
VERTEX
  5
1F5
100
AcDbEntity
  8
0
100
AcDbVertex
100
AcDb2dVertex
 10
-12.349605
 20
408.325031
 30
0.0
  0
VERTEX
  5
1F6
100
AcDbEntity
  8
0
100
AcDbVertex
100
AcDb2dVertex
 10
-12.370371
 20
408.283874
 30
0.0
  0
VERTEX
  5
1F7
100
AcDbEntity
  8
0
100
AcDbVertex
100
AcDb2dVertex
 10
-12.389014
 20
408.242477
 30
0.0
  0
VERTEX
  5
1F8
100
AcDbEntity
  8
0
100
AcDbVertex
100
AcDb2dVertex
 10
-12.405707
 20
408.200523
 30
0.0
  0
VERTEX
  5
1F9
100
AcDbEntity
  8
0
100
AcDbVertex
100
AcDb2dVertex
 10
-12.420372
 20
408.158245
 30
0.0
  0
VERTEX
  5
1FA
100
AcDbEntity
  8
0
100
AcDbVertex
100
AcDb2dVertex
 10
-12.433096
 20
408.115448
 30
0.0
  0
VERTEX
  5
1FB
100
AcDbEntity
  8
0
100
AcDbVertex
100
AcDb2dVertex
 10
-12.443853
 20
408.072231
 30
0.0
  0
VERTEX
  5
1FC
100
AcDbEntity
  8
0
100
AcDbVertex
100
AcDb2dVertex
 10
-12.452668
 20
408.02853
 30
0.0
  0
VERTEX
  5
1FD
100
AcDbEntity
  8
0
100
AcDbVertex
100
AcDb2dVertex
 10
-12.464471
 20
407.939632
 30
0.0
  0
VERTEX
  5
1FE
100
AcDbEntity
  8
0
100
AcDbVertex
100
AcDb2dVertex
 10
-12.468459
 20
407.848583
 30
0.0
  0
VERTEX
  5
1FF
100
AcDbEntity
  8
0
100
AcDbVertex
100
AcDb2dVertex
 10
-12.4645
 20
407.755226
 30
0.0
  0
VERTEX
  5
200
100
AcDbEntity
  8
0
100
AcDbVertex
100
AcDb2dVertex
 10
-12.452378
 20
407.659385
 30
0.0
  0
VERTEX
  5
201
100
AcDbEntity
  8
0
100
AcDbVertex
100
AcDb2dVertex
 10
-12.4318
 20
407.560924
 30
0.0
  0
VERTEX
  5
202
100
AcDbEntity
  8
0
100
AcDbVertex
100
AcDb2dVertex
 10
-12.402407
 20
407.459713
 30
0.0
  0
VERTEX
  5
203
100
AcDbEntity
  8
0
100
AcDbVertex
100
AcDb2dVertex
 10
-12.363781
 20
407.355659
 30
0.0
  0
VERTEX
  5
204
100
AcDbEntity
  8
0
100
AcDbVertex
100
AcDb2dVertex
 10
-12.315465
 20
407.24871
 30
0.0
  0
VERTEX
  5
205
100
AcDbEntity
  8
0
100
AcDbVertex
100
AcDb2dVertex
 10
-12.25697
 20
407.138859
 30
0.0
  0
VERTEX
  5
206
100
AcDbEntity
  8
0
100
AcDbVertex
100
AcDb2dVertex
 10
-12.187793
 20
407.026138
 30
0.0
  0
VERTEX
  5
207
100
AcDbEntity
  8
0
100
AcDbVertex
100
AcDb2dVertex
 10
-12.184759
 20
407.021515
 30
0.0
  0
SEQEND
  5
208
100
AcDbEntity
  8
0
  0
POLYLINE
  5
209
100
AcDbEntity
  8
0
 62
     7
100
AcDb2dPolyline
 66
     1
 10
0.0
 20
0.0
 30
0.0
 71
    26
  0
VERTEX
  5
20A
100
AcDbEntity
  8
0
100
AcDbVertex
100
AcDb2dVertex
 10
-10.549478
 20
407.017421
 30
0.0
  0
VERTEX
  5
20B
100
AcDbEntity
  8
0
100
AcDbVertex
100
AcDb2dVertex
 10
-10.513473
 20
407.055431
 30
0.0
  0
VERTEX
  5
20C
100
AcDbEntity
  8
0
100
AcDbVertex
100
AcDb2dVertex
 10
-10.479528
 20
407.0942
 30
0.0
  0
VERTEX
  5
20D
100
AcDbEntity
  8
0
100
AcDbVertex
100
AcDb2dVertex
 10
-10.448142
 20
407.133087
 30
0.0
  0
VERTEX
  5
20E
100
AcDbEntity
  8
0
100
AcDbVertex
100
AcDb2dVertex
 10
-10.418779
 20
407.172676
 30
0.0
  0
VERTEX
  5
20F
100
AcDbEntity
  8
0
100
AcDbVertex
100
AcDb2dVertex
 10
-10.391809
 20
407.212398
 30
0.0
  0
VERTEX
  5
210
100
AcDbEntity
  8
0
100
AcDbVertex
100
AcDb2dVertex
 10
-10.366831
 20
407.252777
 30
0.0
  0
VERTEX
  5
211
100
AcDbEntity
  8
0
100
AcDbVertex
100
AcDb2dVertex
 10
-10.344098
 20
407.293327
 30
0.0
  0
VERTEX
  5
212
100
AcDbEntity
  8
0
100
AcDbVertex
100
AcDb2dVertex
 10
-10.323332
 20
407.334484
 30
0.0
  0
VERTEX
  5
213
100
AcDbEntity
  8
0
100
AcDbVertex
100
AcDb2dVertex
 10
-10.304689
 20
407.375881
 30
0.0
  0
VERTEX
  5
214
100
AcDbEntity
  8
0
100
AcDbVertex
100
AcDb2dVertex
 10
-10.287996
 20
407.417835
 30
0.0
  0
VERTEX
  5
215
100
AcDbEntity
  8
0
100
AcDbVertex
100
AcDb2dVertex
 10
-10.273332
 20
407.460113
 30
0.0
  0
VERTEX
  5
216
100
AcDbEntity
  8
0
100
AcDbVertex
100
AcDb2dVertex
 10
-10.260608
 20
407.50291
 30
0.0
  0
VERTEX
  5
217
100
AcDbEntity
  8
0
100
AcDbVertex
100
AcDb2dVertex
 10
-10.249851
 20
407.546127
 30
0.0
  0
VERTEX
  5
218
100
AcDbEntity
  8
0
100
AcDbVertex
100
AcDb2dVertex
 10
-10.241035
 20
407.589828
 30
0.0
  0
VERTEX
  5
219
100
AcDbEntity
  8
0
100
AcDbVertex
100
AcDb2dVertex
 10
-10.229233
 20
407.678726
 30
0.0
  0
VERTEX
  5
21A
100
AcDbEntity
  8
0
100
AcDbVertex
100
AcDb2dVertex
 10
-10.225245
 20
407.769775
 30
0.0
  0
VERTEX
  5
21B
100
AcDbEntity
  8
0
100
AcDbVertex
100
AcDb2dVertex
 10
-10.229204
 20
407.863132
 30
0.0
  0
VERTEX
  5
21C
100
AcDbEntity
  8
0
100
AcDbVertex
100
AcDb2dVertex
 10
-10.241325
 20
407.958973
 30
0.0
  0
VERTEX
  5
21D
100
AcDbEntity
  8
0
100
AcDbVertex
100
AcDb2dVertex
 10
-10.261903
 20
408.057434
 30
0.0
  0
VERTEX
  5
21E
100
AcDbEntity
  8
0
100
AcDbVertex
100
AcDb2dVertex
 10
-10.291297
 20
408.158645
 30
0.0
  0
VERTEX
  5
21F
100
AcDbEntity
  8
0
100
AcDbVertex
100
AcDb2dVertex
 10
-10.329922
 20
408.262699
 30
0.0
  0
VERTEX
  5
220
100
AcDbEntity
  8
0
100
AcDbVertex
100
AcDb2dVertex
 10
-10.378238
 20
408.369648
 30
0.0
  0
VERTEX
  5
221
100
AcDbEntity
  8
0
100
AcDbVertex
100
AcDb2dVertex
 10
-10.436733
 20
408.4795
 30
0.0
  0
VERTEX
  5
222
100
AcDbEntity
  8
0
100
AcDbVertex
100
AcDb2dVertex
 10
-10.50591
 20
408.59222
 30
0.0
  0
VERTEX
  5
223
100
AcDbEntity
  8
0
100
AcDbVertex
100
AcDb2dVertex
 10
-10.508944
 20
408.596843
 30
0.0
  0
SEQEND
  5
224
100
AcDbEntity
  8
0
  0
ARC
  5
225
100
AcDbEntity
  8
0
 62
     7
100
AcDbCircle
 10
-11.346867
 20
407.809181
 30
0.0
 40
1.15001
210
0.0
220
0.0
230
1.0
100
AcDbArc
 50
270.000793
 51
89.999217
  0
CIRCLE
  5
226
100
AcDbEntity
  8
0
 62
     7
100
AcDbCircle
 10
-11.346852
 20
407.809181
 30
0.0
 40
1.15
210
0.0
220
0.0
230
1.0
  0
ARC
  5
227
100
AcDbEntity
  8
0
 62
     7
100
AcDbCircle
 10
-26.346851
 20
416.309181
 30
0.0
 40
2.1
210
0.0
220
0.0
230
1.0
100
AcDbArc
 50
270.007678
 51
46.533421
  0
ARC
  5
228
100
AcDbEntity
  8
0
 62
     7
100
AcDbCircle
 10
-26.346851
 20
416.309181
 30
0.0
 40
2.1
210
0.0
220
0.0
230
1.0
100
AcDbArc
 50
133.693876
 51
269.990111
  0
LINE
  5
229
100
AcDbEntity
  8
0
 62
     7
 48
0.025
100
AcDbLine
 10
-23.346867
 20
404.809181
 30
0.0
 11
-23.346867
 21
405.809181
 31
0.0
210
0.0
220
0.0
230
1.0
  0
LINE
  5
22A
100
AcDbEntity
  8
0
 62
     7
100
AcDbLine
 10
6.653133
 20
404.809181
 30
0.0
 11
31.153149
 21
404.809181
 31
0.0
210
0.0
220
0.0
230
1.0
  0
LINE
  5
22B
100
AcDbEntity
  8
0
 62
     7
100
AcDbLine
 10
-23.346867
 20
404.809181
 30
0.0
 11
0.653133
 21
404.809181
 31
0.0
210
0.0
220
0.0
230
1.0
  0
LINE
  5
22C
100
AcDbEntity
  8
0
 62
     7
100
AcDbLine
 10
-53.846851
 20
404.809181
 30
0.0
 11
-29.346867
 21
404.809181
 31
0.0
210
0.0
220
0.0
230
1.0
  0
LINE
  5
22D
100
AcDbEntity
  8
0
 62
     7
 48
0.0375
100
AcDbLine
 10
5.153133
 20
404.809181
 30
0.0
 11
6.653133
 21
404.809181
 31
0.0
210
0.0
220
0.0
230
1.0
  0
LINE
  5
22E
100
AcDbEntity
  8
0
 62
     7
 48
0.0375
100
AcDbLine
 10
0.653133
 20
404.809181
 30
0.0
 11
2.153133
 21
404.809181
 31
0.0
210
0.0
220
0.0
230
1.0
  0
LINE
  5
22F
100
AcDbEntity
  8
0
 62
     7
 48
0.0375
100
AcDbLine
 10
-29.346867
 20
404.809181
 30
0.0
 11
-27.846867
 21
404.809181
 31
0.0
210
0.0
220
0.0
230
1.0
  0
LINE
  5
230
100
AcDbEntity
  8
0
 62
     7
 48
0.0375
100
AcDbLine
 10
-24.846867
 20
404.809181
 30
0.0
 11
-23.346867
 21
404.809181
 31
0.0
210
0.0
220
0.0
230
1.0
  0
LINE
  5
231
100
AcDbEntity
  8
0
 62
     7
 48
0.0375
100
AcDbLine
 10
-56.346867
 20
410.809181
 30
0.0
 11
-54.846851
 21
410.809181
 31
0.0
210
0.0
220
0.0
230
1.0
  0
ARC
  5
232
100
AcDbEntity
  8
0
 62
     7
100
AcDbCircle
 10
3.653114
 20
416.309185
 30
0.0
 40
4.250024
210
0.0
220
0.0
230
1.0
100
AcDbArc
 50
299.965709
 51
329.806612
  0
ARC
  5
233
100
AcDbEntity
  8
0
 62
     7
100
AcDbCircle
 10
3.653114
 20
416.309185
 30
0.0
 40
4.250024
210
0.0
220
0.0
230
1.0
100
AcDbArc
 50
329.946876
 51
58.304612
  0
ARC
  5
234
100
AcDbEntity
  8
0
 62
     7
100
AcDbCircle
 10
3.653114
 20
416.309185
 30
0.0
 40
4.250024
210
0.0
220
0.0
230
1.0
100
AcDbArc
 50
59.937698
 51
60.220248
  0
ARC
  5
235
100
AcDbEntity
  8
0
 62
     7
100
AcDbCircle
 10
3.653182
 20
416.309185
 30
0.0
 40
4.250024
210
0.0
220
0.0
230
1.0
100
AcDbArc
 50
148.707002
 51
230.736574
  0
LINE
  5
236
100
AcDbEntity
  8
0
 62
     7
 48
0.025
100
AcDbLine
 10
-54.846851
 20
405.809181
 30
0.0
 11
-54.846851
 21
406.809181
 31
0.0
210
0.0
220
0.0
230
1.0
  0
LINE
  5
237
100
AcDbEntity
  8
0
 62
     7
 48
0.025
100
AcDbLine
 10
-54.846851
 20
409.809181
 30
0.0
 11
-54.846851
 21
410.809181
 31
0.0
210
0.0
220
0.0
230
1.0
  0
LINE
  5
238
100
AcDbEntity
  8
0
 62
     7
 48
0.025
100
AcDbLine
 10
32.153149
 20
409.809177
 30
0.0
 11
32.153149
 21
410.809181
 31
0.0
210
0.0
220
0.0
230
1.0
  0
LINE
  5
239
100
AcDbEntity
  8
0
 62
     7
 48
0.025
100
AcDbLine
 10
32.153149
 20
405.809177
 30
0.0
 11
32.153149
 21
406.809177
 31
0.0
210
0.0
220
0.0
230
1.0
  0
LINE
  5
23A
100
AcDbEntity
  8
0
 62
     7
 48
0.025
100
AcDbLine
 10
31.153149
 20
410.809181
 30
0.0
 11
32.153149
 21
410.809181
 31
0.0
210
0.0
220
0.0
230
1.0
  0
LINE
  5
23B
100
AcDbEntity
  8
0
 62
     7
 48
0.025
100
AcDbLine
 10
-54.846851
 20
410.809181
 30
0.0
 11
-53.846851
 21
410.809181
 31
0.0
210
0.0
220
0.0
230
1.0
  0
LINE
  5
23C
100
AcDbEntity
  8
0
 62
     7
 48
0.007879
100
AcDbLine
 10
-53.346867
 20
410.809181
 30
0.0
 11
-53.031719
 21
410.809181
 31
0.0
210
0.0
220
0.0
230
1.0
  0
LINE
  5
23D
100
AcDbEntity
  8
0
 62
     7
 48
0.15
100
AcDbLine
 10
0.653149
 20
408.809181
 30
0.0
 11
6.653149
 21
408.809181
 31
0.0
210
0.0
220
0.0
230
1.0
  0
LINE
  5
23E
100
AcDbEntity
  8
0
 62
     7
 48
0.15
100
AcDbLine
 10
-29.346851
 20
408.809181
 30
0.0
 11
-23.346851
 21
408.809181
 31
0.0
210
0.0
220
0.0
230
1.0
  0
LINE
  5
23F
100
AcDbEntity
  8
0
 62
     7
 48
0.025
100
AcDbLine
 10
0.653133
 20
405.809177
 30
0.0
 11
0.653133
 21
406.809181
 31
0.0
210
0.0
220
0.0
230
1.0
  0
LINE
  5
240
100
AcDbEntity
  8
0
 62
     7
 48
0.025
100
AcDbLine
 10
-29.346867
 20
405.809181
 30
0.0
 11
-29.346867
 21
406.809181
 31
0.0
210
0.0
220
0.0
230
1.0
  0
LINE
  5
241
100
AcDbEntity
  8
0
 62
     7
 48
0.075
100
AcDbLine
 10
-53.346851
 20
406.809181
 30
0.0
 11
-53.346851
 21
409.809181
 31
0.0
210
0.0
220
0.0
230
1.0
  0
LINE
  5
242
100
AcDbEntity
  8
0
 62
     7
 48
0.0125
100
AcDbLine
 10
-53.846851
 20
406.809181
 30
0.0
 11
-53.346851
 21
406.809181
 31
0.0
210
0.0
220
0.0
230
1.0
  0
LINE
  5
243
100
AcDbEntity
  8
0
 62
     7
 48
0.0125
100
AcDbLine
 10
-53.846851
 20
409.809181
 30
0.0
 11
-53.346851
 21
409.809181
 31
0.0
210
0.0
220
0.0
230
1.0
  0
LINE
  5
244
100
AcDbEntity
  8
0
 62
     7
 48
0.0125
100
AcDbLine
 10
30.653149
 20
406.809181
 30
0.0
 11
31.153149
 21
406.809181
 31
0.0
210
0.0
220
0.0
230
1.0
  0
LINE
  5
245
100
AcDbEntity
  8
0
 62
     7
 48
0.075
100
AcDbLine
 10
30.653149
 20
406.809177
 30
0.0
 11
30.653149
 21
409.809177
 31
0.0
210
0.0
220
0.0
230
1.0
  0
LINE
  5
246
100
AcDbEntity
  8
0
 62
     7
 48
0.0125
100
AcDbLine
 10
30.653149
 20
409.809181
 30
0.0
 11
31.153149
 21
409.809181
 31
0.0
210
0.0
220
0.0
230
1.0
  0
LINE
  5
247
100
AcDbEntity
  8
0
 62
     7
 48
0.025
100
AcDbLine
 10
6.653133
 20
405.809177
 30
0.0
 11
6.653133
 21
406.809177
 31
0.0
210
0.0
220
0.0
230
1.0
  0
LINE
  5
248
100
AcDbEntity
  8
0
 62
     7
 48
0.025
100
AcDbLine
 10
-23.346867
 20
405.809181
 30
0.0
 11
-23.346867
 21
406.809181
 31
0.0
210
0.0
220
0.0
230
1.0
  0
LINE
  5
249
100
AcDbEntity
  8
0
 62
     7
100
AcDbLine
 10
-53.846851
 20
410.809181
 30
0.0
 11
31.153149
 21
410.809181
 31
0.0
210
0.0
220
0.0
230
1.0
  0
LINE
  5
24A
100
AcDbEntity
  8
0
 62
     7
 48
0.05
100
AcDbLine
 10
-27.846867
 20
404.809181
 30
0.0
 11
-27.846867
 21
406.809181
 31
0.0
210
0.0
220
0.0
230
1.0
  0
LINE
  5
24B
100
AcDbEntity
  8
0
 62
     7
 48
0.05
100
AcDbLine
 10
-24.846867
 20
404.809181
 30
0.0
 11
-24.846867
 21
406.809181
 31
0.0
210
0.0
220
0.0
230
1.0
  0
LINE
  5
24C
100
AcDbEntity
  8
0
 62
     7
 48
0.0375
100
AcDbLine
 10
-24.846867
 20
406.809181
 30
0.0
 11
-23.346867
 21
406.809181
 31
0.0
210
0.0
220
0.0
230
1.0
  0
LINE
  5
24D
100
AcDbEntity
  8
0
 62
     7
 48
0.05
100
AcDbLine
 10
-23.346867
 20
406.809181
 30
0.0
 11
-23.346867
 21
408.809181
 31
0.0
210
0.0
220
0.0
230
1.0
  0
LINE
  5
24E
100
AcDbEntity
  8
0
 62
     7
 48
0.05
100
AcDbLine
 10
-29.346867
 20
406.809181
 30
0.0
 11
-29.346867
 21
408.809181
 31
0.0
210
0.0
220
0.0
230
1.0
  0
LINE
  5
24F
100
AcDbEntity
  8
0
 62
     7
 48
0.0375
100
AcDbLine
 10
-29.346865
 20
406.809181
 30
0.0
 11
-27.846867
 21
406.809181
 31
0.0
210
0.0
220
0.0
230
1.0
  0
LINE
  5
250
100
AcDbEntity
  8
0
 62
     7
 48
0.05
100
AcDbLine
 10
2.153133
 20
404.809177
 30
0.0
 11
2.153133
 21
406.809177
 31
0.0
210
0.0
220
0.0
230
1.0
  0
LINE
  5
251
100
AcDbEntity
  8
0
 62
     7
 48
0.05
100
AcDbLine
 10
5.153133
 20
404.809177
 30
0.0
 11
5.153133
 21
406.809177
 31
0.0
210
0.0
220
0.0
230
1.0
  0
LINE
  5
252
100
AcDbEntity
  8
0
 62
     7
 48
0.0375
100
AcDbLine
 10
5.153133
 20
406.809181
 30
0.0
 11
6.653133
 21
406.809181
 31
0.0
210
0.0
220
0.0
230
1.0
  0
LINE
  5
253
100
AcDbEntity
  8
0
 62
     7
 48
0.05
100
AcDbLine
 10
6.653133
 20
406.809177
 30
0.0
 11
6.653133
 21
408.809177
 31
0.0
210
0.0
220
0.0
230
1.0
  0
LINE
  5
254
100
AcDbEntity
  8
0
 62
     7
 48
0.05
100
AcDbLine
 10
0.653133
 20
406.809181
 30
0.0
 11
0.653133
 21
408.809177
 31
0.0
210
0.0
220
0.0
230
1.0
  0
LINE
  5
255
100
AcDbEntity
  8
0
 62
     7
 48
0.0375
100
AcDbLine
 10
0.653142
 20
406.809181
 30
0.0
 11
2.153133
 21
406.809181
 31
0.0
210
0.0
220
0.0
230
1.0
  0
LINE
  5
256
100
AcDbEntity
  8
0
 62
     7
 48
0.28
100
AcDbLine
 10
-56.346867
 20
410.809181
 30
0.0
 11
-56.346867
 21
422.009186
 31
0.0
210
0.0
220
0.0
230
1.0
  0
LINE
  5
257
100
AcDbEntity
  8
0
 62
     7
 48
0.1125
100
AcDbLine
 10
33.653133
 20
413.809177
 30
0.0
 11
33.653133
 21
418.309177
 31
0.0
210
0.0
220
0.0
230
1.0
  0
LINE
  5
258
100
AcDbEntity
  8
0
 62
     7
 48
0.0925
100
AcDbLine
 10
33.653164
 20
418.309177
 30
0.0
 11
33.653164
 21
422.009186
 31
0.0
210
0.0
220
0.0
230
1.0
  0
LINE
  5
259
100
AcDbEntity
  8
0
 62
     7
 48
0.075
100
AcDbLine
 10
33.653164
 20
410.809181
 30
0.0
 11
33.653164
 21
413.809177
 31
0.0
210
0.0
220
0.0
230
1.0
  0
ARC
  5
25A
100
AcDbEntity
  8
0
 62
     7
100
AcDbCircle
 10
-26.346851
 20
416.309181
 30
0.0
 40
2.1
210
0.0
220
0.0
230
1.0
100
AcDbArc
 50
89.999989
 51
134.972804
  0
ARC
  5
25B
100
AcDbEntity
  8
0
 62
     7
100
AcDbCircle
 10
-26.346851
 20
416.309181
 30
0.0
 40
2.1
210
0.0
220
0.0
230
1.0
100
AcDbArc
 50
45.562156
 51
89.999989
  0
ARC
  5
25C
100
AcDbEntity
  8
0
 62
     7
100
AcDbCircle
 10
3.653149
 20
416.309177
 30
0.0
 40
2.1
210
0.0
220
0.0
230
1.0
100
AcDbArc
 50
45.316355
 51
89.999989
  0
ARC
  5
25D
100
AcDbEntity
  8
0
 62
     7
100
AcDbCircle
 10
3.653149
 20
416.309177
 30
0.0
 40
2.1
210
0.0
220
0.0
230
1.0
100
AcDbArc
 50
89.999989
 51
134.972804
  0
LINE
  5
25E
100
AcDbEntity
  8
0
 62
     7
 48
0.0175
100
AcDbLine
 10
-55.646851
 20
517.609184
 30
0.0
 11
-55.646851
 21
518.309185
 31
0.0
210
0.0
220
0.0
230
1.0
  0
LINE
  5
25F
100
AcDbEntity
  8
0
 62
     7
100
AcDbLine
 10
33.653149
 20
441.809185
 30
0.0
 11
33.653149
 21
486.809185
 31
0.0
210
0.0
220
0.0
230
1.0
  0
LINE
  5
260
100
AcDbEntity
  8
0
 62
     7
100
AcDbLine
 10
33.653149
 20
486.809185
 30
0.0
 11
33.653149
 21
519.406391
 31
0.0
210
0.0
220
0.0
230
1.0
  0
LINE
  5
261
100
AcDbEntity
  8
0
 62
     7
 48
0.495
100
AcDbLine
 10
33.653149
 20
422.009186
 30
0.0
 11
33.653149
 21
441.809185
 31
0.0
210
0.0
220
0.0
230
1.0
  0
LINE
  5
262
100
AcDbEntity
  8
0
 62
     7
 48
0.075
100
AcDbLine
 10
-55.646851
 20
518.309185
 30
0.0
 11
-52.646851
 21
518.309185
 31
0.0
210
0.0
220
0.0
230
1.0
  0
LINE
  5
263
100
AcDbEntity
  8
0
 62
     7
100
AcDbLine
 10
-52.646851
 20
518.309185
 30
0.0
 11
7.449986
 21
518.309185
 31
0.0
210
0.0
220
0.0
230
1.0
  0
LINE
  5
264
100
AcDbEntity
  8
0
 62
     7
 48
0.075
100
AcDbLine
 10
-55.646851
 20
421.309185
 30
0.0
 11
-52.646851
 21
421.309185
 31
0.0
210
0.0
220
0.0
230
1.0
  0
LINE
  5
265
100
AcDbEntity
  8
0
 62
     7
 48
0.075
100
AcDbLine
 10
29.953148
 20
421.309185
 30
0.0
 11
32.953148
 21
421.309185
 31
0.0
210
0.0
220
0.0
230
1.0
  0
LINE
  5
266
100
AcDbEntity
  8
0
 62
     7
100
AcDbLine
 10
-52.646851
 20
421.309185
 30
0.0
 11
29.953148
 21
421.309185
 31
0.0
210
0.0
220
0.0
230
1.0
  0
CIRCLE
  5
267
100
AcDbEntity
  8
0
 62
     7
100
AcDbCircle
 10
-26.346851
 20
416.309185
 30
0.0
 40
2.1
210
0.0
220
0.0
230
1.0
  0
CIRCLE
  5
268
100
AcDbEntity
  8
0
 62
     7
100
AcDbCircle
 10
-26.346851
 20
416.309185
 30
0.0
 40
4.5
210
0.0
220
0.0
230
1.0
  0
ARC
  5
269
100
AcDbEntity
  8
0
 62
     7
100
AcDbCircle
 10
3.653149
 20
523.309185
 30
0.0
 40
2.1
210
0.0
220
0.0
230
1.0
100
AcDbArc
 50
40.768798
 51
357.433361
  0
ARC
  5
26A
100
AcDbEntity
  8
0
 62
     7
100
AcDbCircle
 10
-41.346895
 20
523.059185
 30
0.0
 40
3.250028
210
0.0
220
0.0
230
1.0
100
AcDbArc
 50
17.999726
 51
89.998985
  0
CIRCLE
  5
26B
100
AcDbEntity
  8
0
 62
     7
100
AcDbCircle
 10
-41.346807
 20
523.059185
 30
0.0
 40
3.250028
210
0.0
220
0.0
230
1.0
  0
ARC
  5
26C
100
AcDbEntity
  8
0
 62
     7
100
AcDbCircle
 10
-41.346851
 20
523.059185
 30
0.0
 40
3.25
210
0.0
220
0.0
230
1.0
100
AcDbArc
 50
305.987337
 51
342.016122
  0
ARC
  5
26D
100
AcDbEntity
  8
0
 62
     7
100
AcDbCircle
 10
-41.346851
 20
523.059185
 30
0.0
 40
3.25
210
0.0
220
0.0
230
1.0
100
AcDbArc
 50
125.987361
 51
162.016116
  0
CIRCLE
  5
26E
100
AcDbEntity
  8
0
 62
     7
100
AcDbCircle
 10
-41.346807
 20
416.559185
 30
0.0
 40
3.250028
210
0.0
220
0.0
230
1.0
  0
ARC
  5
26F
100
AcDbEntity
  8
0
 62
     7
100
AcDbCircle
 10
-26.346909
 20
523.309185
 30
0.0
 40
4.250037
210
0.0
220
0.0
230
1.0
100
AcDbArc
 50
60.005254
 51
89.999217
  0
ARC
  5
270
100
AcDbEntity
  8
0
 62
     7
100
AcDbCircle
 10
-26.346793
 20
523.309185
 30
0.0
 40
4.250037
210
0.0
220
0.0
230
1.0
100
AcDbArc
 50
240.005252
 51
305.426799
  0
ARC
  5
271
100
AcDbEntity
  8
0
 62
     7
100
AcDbCircle
 10
-26.346851
 20
523.309185
 30
0.0
 40
4.25
210
0.0
220
0.0
230
1.0
100
AcDbArc
 50
80.897109
 51
210.015763
  0
ARC
  5
272
100
AcDbEntity
  8
0
 62
     7
100
AcDbCircle
 10
-26.346851
 20
523.309185
 30
0.0
 40
4.25
210
0.0
220
0.0
230
1.0
100
AcDbArc
 50
299.98912
 51
30.015712
  0
LINE
  5
273
100
AcDbEntity
  8
0
 62
     7
 48
0.054827
100
AcDbLine
 10
3.653149
 20
412.059185
 30
0.0
 11
5.767145
 21
412.642845
 31
0.0
210
0.0
220
0.0
230
1.0
  0
LINE
  5
274
100
AcDbEntity
  8
0
 62
     7
 48
0.054905
100
AcDbLine
 10
-0.027459
 20
414.184185
 30
0.0
 11
1.539519
 21
412.64542
 31
0.0
210
0.0
220
0.0
230
1.0
  0
LINE
  5
275
100
AcDbEntity
  8
0
 62
     7
 48
0.054836
100
AcDbLine
 10
1.539519
 20
412.64542
 30
0.0
 11
3.653149
 21
412.059185
 31
0.0
210
0.0
220
0.0
230
1.0
  0
ARC
  5
276
100
AcDbEntity
  8
0
 62
     7
100
AcDbCircle
 10
3.653207
 20
416.309185
 30
0.0
 40
4.250037
210
0.0
220
0.0
230
1.0
100
AcDbArc
 50
90.000781
 51
120.000658
  0
ARC
  5
277
100
AcDbEntity
  8
0
 62
     7
100
AcDbCircle
 10
3.653207
 20
416.309185
 30
0.0
 40
4.250037
210
0.0
220
0.0
230
1.0
100
AcDbArc
 50
180.000005
 51
209.999618
  0
ARC
  5
278
100
AcDbEntity
  8
0
 62
     7
100
AcDbCircle
 10
3.653091
 20
416.309185
 30
0.0
 40
4.250037
210
0.0
220
0.0
230
1.0
100
AcDbArc
 50
29.999606
 51
89.999217
  0
ARC
  5
279
100
AcDbEntity
  8
0
 62
     7
100
AcDbCircle
 10
3.653149
 20
416.309185
 30
0.0
 40
4.25
210
0.0
220
0.0
230
1.0
100
AcDbArc
 50
116.277181
 51
202.82423
  0
ARC
  5
27A
100
AcDbEntity
  8
0
 62
     7
100
AcDbCircle
 10
3.653149
 20
416.309185
 30
0.0
 40
4.25
210
0.0
220
0.0
230
1.0
100
AcDbArc
 50
299.967564
 51
58.469143
  0
CIRCLE
  5
27B
100
AcDbEntity
  8
0
 62
     7
100
AcDbCircle
 10
-11.346807
 20
416.559185
 30
0.0
 40
3.250028
210
0.0
220
0.0
230
1.0
  0
CIRCLE
  5
27C
100
AcDbEntity
  8
0
 62
     7
100
AcDbCircle
 10
18.653193
 20
416.559185
 30
0.0
 40
3.250028
210
0.0
220
0.0
230
1.0
  0
CIRCLE
  5
27D
100
AcDbEntity
  8
0
 62
     7
100
AcDbCircle
 10
-11.346896
 20
523.059185
 30
0.0
 40
3.250028
210
0.0
220
0.0
230
1.0
  0
ARC
  5
27E
100
AcDbEntity
  8
0
 62
     7
100
AcDbCircle
 10
-11.346807
 20
523.059185
 30
0.0
 40
3.250028
210
0.0
220
0.0
230
1.0
100
AcDbArc
 50
197.999711
 51
269.99899
  0
LINE
  5
27F
100
AcDbEntity
  8
0
 62
     7
 48
0.0375
100
AcDbLine
 10
26.753147
 20
485.309185
 30
0.0
 11
26.753147
 21
486.809185
 31
0.0
210
0.0
220
0.0
230
1.0
  0
LINE
  5
280
100
AcDbEntity
  8
0
 62
     7
 48
0.0375
100
AcDbLine
 10
26.753147
 20
441.809185
 30
0.0
 11
26.753147
 21
443.309185
 31
0.0
210
0.0
220
0.0
230
1.0
  0
LINE
  5
281
100
AcDbEntity
  8
0
 62
     7
 48
0.06125
100
AcDbLine
 10
-56.346851
 20
517.609184
 30
0.0
 11
-53.896851
 21
517.609184
 31
0.0
210
0.0
220
0.0
230
1.0
  0
LINE
  5
282
100
AcDbEntity
  8
0
 62
     7
 48
0.0125
100
AcDbLine
 10
-53.896851
 20
517.609184
 30
0.0
 11
-53.396851
 21
517.609184
 31
0.0
210
0.0
220
0.0
230
1.0
  0
LINE
  5
283
100
AcDbEntity
  8
0
 62
     7
100
AcDbLine
 10
-49.796852
 20
517.609184
 30
0.0
 11
7.692396
 21
517.609184
 31
0.0
210
0.0
220
0.0
230
1.0
  0
LINE
  5
284
100
AcDbEntity
  8
0
 62
     7
 48
0.0325
100
AcDbLine
 10
-51.596851
 20
517.609184
 30
0.0
 11
-50.296852
 21
517.609184
 31
0.0
210
0.0
220
0.0
230
1.0
  0
LINE
  5
285
100
AcDbEntity
  8
0
 62
     7
 48
0.0325
100
AcDbLine
 10
-53.396851
 20
517.609184
 30
0.0
 11
-52.096851
 21
517.609184
 31
0.0
210
0.0
220
0.0
230
1.0
  0
LINE
  5
286
100
AcDbEntity
  8
0
 62
     7
 48
0.0125
100
AcDbLine
 10
-52.096851
 20
517.609184
 30
0.0
 11
-51.596851
 21
517.609184
 31
0.0
210
0.0
220
0.0
230
1.0
  0
LINE
  5
287
100
AcDbEntity
  8
0
 62
     7
 48
0.0125
100
AcDbLine
 10
-50.296852
 20
517.609184
 30
0.0
 11
-49.796852
 21
517.609184
 31
0.0
210
0.0
220
0.0
230
1.0
  0
LINE
  5
288
100
AcDbEntity
  8
0
 62
     7
 48
0.06125
100
AcDbLine
 10
-56.346851
 20
422.009186
 30
0.0
 11
-53.896851
 21
422.009186
 31
0.0
210
0.0
220
0.0
230
1.0
  0
LINE
  5
289
100
AcDbEntity
  8
0
 62
     7
 48
0.06125
100
AcDbLine
 10
31.203148
 20
422.009186
 30
0.0
 11
33.653149
 21
422.009186
 31
0.0
210
0.0
220
0.0
230
1.0
  0
LINE
  5
28A
100
AcDbEntity
  8
0
 62
     7
 48
0.0125
100
AcDbLine
 10
-53.896851
 20
422.009186
 30
0.0
 11
-53.396851
 21
422.009186
 31
0.0
210
0.0
220
0.0
230
1.0
  0
LINE
  5
28B
100
AcDbEntity
  8
0
 62
     7
 48
0.0125
100
AcDbLine
 10
30.703148
 20
422.009186
 30
0.0
 11
31.203148
 21
422.009186
 31
0.0
210
0.0
220
0.0
230
1.0
  0
LINE
  5
28C
100
AcDbEntity
  8
0
 62
     7
 48
0.0325
100
AcDbLine
 10
27.603149
 20
422.009186
 30
0.0
 11
28.903149
 21
422.009186
 31
0.0
210
0.0
220
0.0
230
1.0
  0
LINE
  5
28D
100
AcDbEntity
  8
0
 62
     7
100
AcDbLine
 10
-49.796852
 20
422.009186
 30
0.0
 11
27.103149
 21
422.009186
 31
0.0
210
0.0
220
0.0
230
1.0
  0
LINE
  5
28E
100
AcDbEntity
  8
0
 62
     7
 48
0.0325
100
AcDbLine
 10
-53.396851
 20
422.009186
 30
0.0
 11
-52.096851
 21
422.009186
 31
0.0
210
0.0
220
0.0
230
1.0
  0
LINE
  5
28F
100
AcDbEntity
  8
0
 62
     7
 48
0.0325
100
AcDbLine
 10
-51.596851
 20
422.009186
 30
0.0
 11
-50.296852
 21
422.009186
 31
0.0
210
0.0
220
0.0
230
1.0
  0
LINE
  5
290
100
AcDbEntity
  8
0
 62
     7
 48
0.0325
100
AcDbLine
 10
29.403149
 20
422.009186
 30
0.0
 11
30.703148
 21
422.009186
 31
0.0
210
0.0
220
0.0
230
1.0
  0
LINE
  5
291
100
AcDbEntity
  8
0
 62
     7
 48
0.0125
100
AcDbLine
 10
-52.096851
 20
422.009186
 30
0.0
 11
-51.596851
 21
422.009186
 31
0.0
210
0.0
220
0.0
230
1.0
  0
LINE
  5
292
100
AcDbEntity
  8
0
 62
     7
 48
0.0125
100
AcDbLine
 10
-50.296852
 20
422.009186
 30
0.0
 11
-49.796852
 21
422.009186
 31
0.0
210
0.0
220
0.0
230
1.0
  0
LINE
  5
293
100
AcDbEntity
  8
0
 62
     7
 48
0.0125
100
AcDbLine
 10
28.903149
 20
422.009186
 30
0.0
 11
29.403149
 21
422.009186
 31
0.0
210
0.0
220
0.0
230
1.0
  0
LINE
  5
294
100
AcDbEntity
  8
0
 62
     7
 48
0.0125
100
AcDbLine
 10
27.103149
 20
422.009186
 30
0.0
 11
27.603149
 21
422.009186
 31
0.0
210
0.0
220
0.0
230
1.0
  0
LINE
  5
295
100
AcDbEntity
  8
0
 62
     7
 48
0.0025
100
AcDbLine
 10
15.653149
 20
485.209184
 30
0.0
 11
15.653149
 21
485.309185
 31
0.0
210
0.0
220
0.0
230
1.0
  0
LINE
  5
296
100
AcDbEntity
  8
0
 62
     7
 48
0.0375
100
AcDbLine
 10
-49.44685
 20
485.309185
 30
0.0
 11
-49.44685
 21
486.809185
 31
0.0
210
0.0
220
0.0
230
1.0
  0
LINE
  5
297
100
AcDbEntity
  8
0
 62
     7
 48
0.0375
100
AcDbLine
 10
-49.44685
 20
441.809185
 30
0.0
 11
-49.44685
 21
443.309185
 31
0.0
210
0.0
220
0.0
230
1.0
  0
LINE
  5
298
100
AcDbEntity
  8
0
 62
     7
100
AcDbLine
 10
-53.846851
 20
410.809185
 30
0.0
 11
31.153149
 21
410.809185
 31
0.0
210
0.0
220
0.0
230
1.0
  0
LINE
  5
299
100
AcDbEntity
  8
0
 62
     7
 48
0.025
100
AcDbLine
 10
-54.846851
 20
410.809185
 30
0.0
 11
-53.846851
 21
410.809185
 31
0.0
210
0.0
220
0.0
230
1.0
  0
LINE
  5
29A
100
AcDbEntity
  8
0
 62
     7
 48
0.025
100
AcDbLine
 10
31.153149
 20
410.809185
 30
0.0
 11
32.153149
 21
410.809185
 31
0.0
210
0.0
220
0.0
230
1.0
  0
LINE
  5
29B
100
AcDbEntity
  8
0
 62
     7
100
AcDbLine
 10
-53.846851
 20
528.809185
 30
0.0
 11
3.813814
 21
528.809185
 31
0.0
210
0.0
220
0.0
230
1.0
  0
LINE
  5
29C
100
AcDbEntity
  8
0
 62
     7
 48
0.025
100
AcDbLine
 10
-54.846851
 20
528.809185
 30
0.0
 11
-53.846851
 21
528.809185
 31
0.0
210
0.0
220
0.0
230
1.0
  0
LINE
  5
29D
100
AcDbEntity
  8
0
 62
     7
 48
0.06125
100
AcDbLine
 10
-56.346851
 20
486.809185
 30
0.0
 11
-53.896851
 21
486.809185
 31
0.0
210
0.0
220
0.0
230
1.0
  0
LINE
  5
29E
100
AcDbEntity
  8
0
 62
     7
 48
0.06125
100
AcDbLine
 10
31.203148
 20
486.809185
 30
0.0
 11
33.653149
 21
486.809185
 31
0.0
210
0.0
220
0.0
230
1.0
  0
LINE
  5
29F
100
AcDbEntity
  8
0
 62
     7
 48
0.0125
100
AcDbLine
 10
-53.896851
 20
486.809185
 30
0.0
 11
-53.396851
 21
486.809185
 31
0.0
210
0.0
220
0.0
230
1.0
  0
LINE
  5
2A0
100
AcDbEntity
  8
0
 62
     7
 48
0.0125
100
AcDbLine
 10
30.703148
 20
486.809185
 30
0.0
 11
31.203148
 21
486.809185
 31
0.0
210
0.0
220
0.0
230
1.0
  0
LINE
  5
2A1
100
AcDbEntity
  8
0
 62
     7
 48
0.0125
100
AcDbLine
 10
28.903149
 20
486.809185
 30
0.0
 11
29.403149
 21
486.809185
 31
0.0
210
0.0
220
0.0
230
1.0
  0
LINE
  5
2A2
100
AcDbEntity
  8
0
 62
     7
 48
0.0125
100
AcDbLine
 10
27.103149
 20
486.809185
 30
0.0
 11
27.603149
 21
486.809185
 31
0.0
210
0.0
220
0.0
230
1.0
  0
LINE
  5
2A3
100
AcDbEntity
  8
0
 62
     7
 48
0.0125
100
AcDbLine
 10
-52.096851
 20
486.809185
 30
0.0
 11
-51.596851
 21
486.809185
 31
0.0
210
0.0
220
0.0
230
1.0
  0
LINE
  5
2A4
100
AcDbEntity
  8
0
 62
     7
 48
0.0125
100
AcDbLine
 10
-50.296852
 20
486.809185
 30
0.0
 11
-49.796852
 21
486.809185
 31
0.0
210
0.0
220
0.0
230
1.0
  0
LINE
  5
2A5
100
AcDbEntity
  8
0
 62
     7
 48
0.06125
100
AcDbLine
 10
-56.346851
 20
441.809185
 30
0.0
 11
-53.896851
 21
441.809185
 31
0.0
210
0.0
220
0.0
230
1.0
  0
LINE
  5
2A6
100
AcDbEntity
  8
0
 62
     7
 48
0.06125
100
AcDbLine
 10
31.203148
 20
441.809185
 30
0.0
 11
33.653149
 21
441.809185
 31
0.0
210
0.0
220
0.0
230
1.0
  0
LINE
  5
2A7
100
AcDbEntity
  8
0
 62
     7
 48
0.0125
100
AcDbLine
 10
-53.896851
 20
441.809185
 30
0.0
 11
-53.396851
 21
441.809185
 31
0.0
210
0.0
220
0.0
230
1.0
  0
LINE
  5
2A8
100
AcDbEntity
  8
0
 62
     7
 48
0.0125
100
AcDbLine
 10
30.703148
 20
441.809185
 30
0.0
 11
31.203148
 21
441.809185
 31
0.0
210
0.0
220
0.0
230
1.0
  0
LINE
  5
2A9
100
AcDbEntity
  8
0
 62
     7
 48
0.0125
100
AcDbLine
 10
28.903149
 20
441.809185
 30
0.0
 11
29.403149
 21
441.809185
 31
0.0
210
0.0
220
0.0
230
1.0
  0
LINE
  5
2AA
100
AcDbEntity
  8
0
 62
     7
 48
0.0125
100
AcDbLine
 10
27.103149
 20
441.809185
 30
0.0
 11
27.603149
 21
441.809185
 31
0.0
210
0.0
220
0.0
230
1.0
  0
LINE
  5
2AB
100
AcDbEntity
  8
0
 62
     7
 48
0.0125
100
AcDbLine
 10
-52.096851
 20
441.809185
 30
0.0
 11
-51.596851
 21
441.809185
 31
0.0
210
0.0
220
0.0
230
1.0
  0
LINE
  5
2AC
100
AcDbEntity
  8
0
 62
     7
 48
0.0125
100
AcDbLine
 10
-50.296852
 20
441.809185
 30
0.0
 11
-49.796852
 21
441.809185
 31
0.0
210
0.0
220
0.0
230
1.0
  0
LINE
  5
2AD
100
AcDbEntity
  8
0
 62
     7
 48
0.0175
100
AcDbLine
 10
32.953148
 20
421.309185
 30
0.0
 11
32.953148
 21
422.009186
 31
0.0
210
0.0
220
0.0
230
1.0
  0
LINE
  5
2AE
100
AcDbEntity
  8
0
 62
     7
 48
0.2625
100
AcDbLine
 10
32.153149
 20
410.809185
 30
0.0
 11
32.153149
 21
421.309185
 31
0.0
210
0.0
220
0.0
230
1.0
  0
LINE
  5
2AF
100
AcDbEntity
  8
0
 62
     7
 48
0.2625
100
AcDbLine
 10
-54.846851
 20
410.809185
 30
0.0
 11
-54.846851
 21
421.309185
 31
0.0
210
0.0
220
0.0
230
1.0
  0
LINE
  5
2B0
100
AcDbEntity
  8
0
 62
     7
 48
0.2625
100
AcDbLine
 10
-54.846851
 20
518.309185
 30
0.0
 11
-54.846851
 21
528.809185
 31
0.0
210
0.0
220
0.0
230
1.0
  0
LINE
  5
2B1
100
AcDbEntity
  8
0
 62
     7
 48
0.00875
100
AcDbLine
 10
-49.796852
 20
486.809185
 30
0.0
 11
-49.44685
 21
486.809185
 31
0.0
210
0.0
220
0.0
230
1.0
  0
LINE
  5
2B2
100
AcDbEntity
  8
0
 62
     7
 48
0.00875
100
AcDbLine
 10
26.753147
 20
486.809185
 30
0.0
 11
27.103149
 21
486.809185
 31
0.0
210
0.0
220
0.0
230
1.0
  0
LINE
  5
2B3
100
AcDbEntity
  8
0
 62
     7
 48
0.0325
100
AcDbLine
 10
-51.596851
 20
486.809185
 30
0.0
 11
-50.296852
 21
486.809185
 31
0.0
210
0.0
220
0.0
230
1.0
  0
LINE
  5
2B4
100
AcDbEntity
  8
0
 62
     7
 48
0.0325
100
AcDbLine
 10
27.603149
 20
486.809185
 30
0.0
 11
28.903149
 21
486.809185
 31
0.0
210
0.0
220
0.0
230
1.0
  0
LINE
  5
2B5
100
AcDbEntity
  8
0
 62
     7
100
AcDbLine
 10
-56.346851
 20
441.809185
 30
0.0
 11
-56.346851
 21
486.809185
 31
0.0
210
0.0
220
0.0
230
1.0
  0
LINE
  5
2B6
100
AcDbEntity
  8
0
 62
     7
 48
0.495
100
AcDbLine
 10
-56.346851
 20
422.009186
 30
0.0
 11
-56.346851
 21
441.809185
 31
0.0
210
0.0
220
0.0
230
1.0
  0
LINE
  5
2B7
100
AcDbEntity
  8
0
 62
     7
100
AcDbLine
 10
-56.346851
 20
486.809185
 30
0.0
 11
-56.346851
 21
517.609184
 31
0.0
210
0.0
220
0.0
230
1.0
  0
LINE
  5
2B8
100
AcDbEntity
  8
0
 62
     7
 48
0.0325
100
AcDbLine
 10
27.603149
 20
441.809185
 30
0.0
 11
28.903149
 21
441.809185
 31
0.0
210
0.0
220
0.0
230
1.0
  0
LINE
  5
2B9
100
AcDbEntity
  8
0
 62
     7
 48
0.0325
100
AcDbLine
 10
-51.596851
 20
441.809185
 30
0.0
 11
-50.296852
 21
441.809185
 31
0.0
210
0.0
220
0.0
230
1.0
  0
LINE
  5
2BA
100
AcDbEntity
  8
0
 62
     7
 48
0.00875
100
AcDbLine
 10
-49.796852
 20
441.809185
 30
0.0
 11
-49.44685
 21
441.809185
 31
0.0
210
0.0
220
0.0
230
1.0
  0
LINE
  5
2BB
100
AcDbEntity
  8
0
 62
     7
 48
0.00875
100
AcDbLine
 10
26.753147
 20
441.809185
 30
0.0
 11
27.103149
 21
441.809185
 31
0.0
210
0.0
220
0.0
230
1.0
  0
LINE
  5
2BC
100
AcDbEntity
  8
0
 62
     7
 48
0.0325
100
AcDbLine
 10
-53.396851
 20
486.809185
 30
0.0
 11
-52.096851
 21
486.809185
 31
0.0
210
0.0
220
0.0
230
1.0
  0
LINE
  5
2BD
100
AcDbEntity
  8
0
 62
     7
 48
0.0325
100
AcDbLine
 10
-53.396851
 20
441.809185
 30
0.0
 11
-52.096851
 21
441.809185
 31
0.0
210
0.0
220
0.0
230
1.0
  0
LINE
  5
2BE
100
AcDbEntity
  8
0
 62
     7
 48
0.0325
100
AcDbLine
 10
29.403149
 20
486.809185
 30
0.0
 11
30.703148
 21
486.809185
 31
0.0
210
0.0
220
0.0
230
1.0
  0
LINE
  5
2BF
100
AcDbEntity
  8
0
 62
     7
 48
0.0325
100
AcDbLine
 10
29.403149
 20
441.809185
 30
0.0
 11
30.703148
 21
441.809185
 31
0.0
210
0.0
220
0.0
230
1.0
  0
LINE
  5
2C0
100
AcDbEntity
  8
0
 62
     7
 48
0.0175
100
AcDbLine
 10
-55.646851
 20
421.309185
 30
0.0
 11
-55.646851
 21
422.009186
 31
0.0
210
0.0
220
0.0
230
1.0
  0
LINE
  5
2C1
100
AcDbEntity
  8
0
  6
DASHDOT
 62
     7
 48
0.069575
100
AcDbLine
 10
-12.726851
 20
531.809185
 30
0.0
 11
-9.943851
 21
531.809185
 31
0.0
210
0.0
220
0.0
230
1.0
  0
LINE
  5
2C2
100
AcDbEntity
  8
0
  6
DASHDOT
 62
     7
 48
0.069
100
AcDbLine
 10
-11.346851
 20
530.429188
 30
0.0
 11
-11.346851
 21
533.189182
 31
0.0
210
0.0
220
0.0
230
1.0
  0
LINE
  5
2C3
100
AcDbEntity
  8
0
  6
DASHDOT
 62
     7
 48
0.12705
100
AcDbLine
 10
-28.866852
 20
523.309185
 30
0.0
 11
-23.784851
 21
523.309185
 31
0.0
210
0.0
220
0.0
230
1.0
  0
LINE
  5
2C4
100
AcDbEntity
  8
0
  6
DASHDOT
 62
     7
 48
0.126
100
AcDbLine
 10
-26.346851
 20
520.789184
 30
0.0
 11
-26.346851
 21
525.829181
 31
0.0
210
0.0
220
0.0
230
1.0
  0
LINE
  5
2C5
100
AcDbEntity
  8
0
  6
DASHDOT
 62
     7
 48
0.12705
100
AcDbLine
 10
1.133148
 20
523.309185
 30
0.0
 11
6.215149
 21
523.309185
 31
0.0
210
0.0
220
0.0
230
1.0
  0
LINE
  5
2C6
100
AcDbEntity
  8
0
  6
DASHDOT
 62
     7
 48
0.12705
100
AcDbLine
 10
1.133133
 20
416.309181
 30
0.0
 11
6.215134
 21
416.309181
 31
0.0
210
0.0
220
0.0
230
1.0
  0
LINE
  5
2C7
100
AcDbEntity
  8
0
  6
DASHDOT
 62
     7
 48
0.126
100
AcDbLine
 10
3.653133
 20
413.789181
 30
0.0
 11
3.653133
 21
418.829178
 31
0.0
210
0.0
220
0.0
230
1.0
  0
LINE
  5
2C8
100
AcDbEntity
  8
0
  6
DASHDOT
 62
     7
 48
0.12705
100
AcDbLine
 10
-28.866867
 20
416.309181
 30
0.0
 11
-23.784867
 21
416.309181
 31
0.0
210
0.0
220
0.0
230
1.0
  0
LINE
  5
2C9
100
AcDbEntity
  8
0
  6
DASHDOT
 62
     7
 48
0.126
100
AcDbLine
 10
-26.346867
 20
413.789181
 30
0.0
 11
-26.346867
 21
418.829178
 31
0.0
210
0.0
220
0.0
230
1.0
  0
LINE
  5
2CA
100
AcDbEntity
  8
0
  6
DASHDOT
 62
     7
 48
0.12705
100
AcDbLine
 10
1.133148
 20
416.309177
 30
0.0
 11
6.215149
 21
416.309177
 31
0.0
210
0.0
220
0.0
230
1.0
  0
LINE
  5
2CB
100
AcDbEntity
  8
0
  6
DASHDOT
 62
     7
 48
0.126
100
AcDbLine
 10
3.653149
 20
413.789181
 30
0.0
 11
3.653149
 21
418.829178
 31
0.0
210
0.0
220
0.0
230
1.0
  0
LINE
  5
2CC
100
AcDbEntity
  8
0
  6
DASHDOT
 62
     7
 48
0.069575
100
AcDbLine
 10
-12.726852
 20
407.809181
 30
0.0
 11
-9.943852
 21
407.809181
 31
0.0
210
0.0
220
0.0
230
1.0
  0
LINE
  5
2CD
100
AcDbEntity
  8
0
  6
DASHDOT
 62
     7
 48
0.069
100
AcDbLine
 10
-11.346852
 20
406.42918
 30
0.0
 11
-11.346852
 21
409.189178
 31
0.0
210
0.0
220
0.0
230
1.0
  0
LINE
  5
2CE
100
AcDbEntity
  8
0
  6
DASHDOT
 62
     7
 48
0.12705
100
AcDbLine
 10
-28.866852
 20
416.309181
 30
0.0
 11
-23.784852
 21
416.309181
 31
0.0
210
0.0
220
0.0
230
1.0
  0
LINE
  5
2CF
100
AcDbEntity
  8
0
  6
DASHDOT
 62
     7
 48
0.126
100
AcDbLine
 10
-26.346851
 20
413.789181
 30
0.0
 11
-26.346851
 21
418.829178
 31
0.0
210
0.0
220
0.0
230
1.0
  0
LINE
  5
2D0
100
AcDbEntity
  8
0
  6
DASHDOT
 62
     7
 48
0.257126
100
AcDbLine
 10
-1.446847
 20
416.309185
 30
0.0
 11
8.838211
 21
416.309185
 31
0.0
210
0.0
220
0.0
230
1.0
  0
LINE
  5
2D1
100
AcDbEntity
  8
0
  6
DASHDOT
 62
     7
 48
0.255001
100
AcDbLine
 10
3.653182
 20
411.209156
 30
0.0
 11
3.653182
 21
421.40921
 31
0.0
210
0.0
220
0.0
230
1.0
  0
LINE
  5
2D2
100
AcDbEntity
  8
0
  6
DASHDOT
 62
     7
 48
0.12705
100
AcDbLine
 10
-28.866852
 20
416.309185
 30
0.0
 11
-23.784851
 21
416.309185
 31
0.0
210
0.0
220
0.0
230
1.0
  0
LINE
  5
2D3
100
AcDbEntity
  8
0
  6
DASHDOT
 62
     7
 48
0.126
100
AcDbLine
 10
-26.346851
 20
413.789184
 30
0.0
 11
-26.346851
 21
418.829185
 31
0.0
210
0.0
220
0.0
230
1.0
  0
LINE
  5
2D4
100
AcDbEntity
  8
0
  6
DASHDOT
 62
     7
 48
0.12705
100
AcDbLine
 10
-28.866852
 20
416.309185
 30
0.0
 11
-23.784851
 21
416.309185
 31
0.0
210
0.0
220
0.0
230
1.0
  0
LINE
  5
2D5
100
AcDbEntity
  8
0
  6
DASHDOT
 62
     7
 48
0.126
100
AcDbLine
 10
-26.346851
 20
413.789184
 30
0.0
 11
-26.346851
 21
418.829185
 31
0.0
210
0.0
220
0.0
230
1.0
  0
LINE
  5
2D6
100
AcDbEntity
  8
0
  6
DASHDOT
 62
     7
 48
0.27225
100
AcDbLine
 10
-31.746851
 20
416.309185
 30
0.0
 11
-20.856852
 21
416.309185
 31
0.0
210
0.0
220
0.0
230
1.0
  0
LINE
  5
2D7
100
AcDbEntity
  8
0
  6
DASHDOT
 62
     7
 48
0.27
100
AcDbLine
 10
-26.346851
 20
410.909183
 30
0.0
 11
-26.346851
 21
421.709186
 31
0.0
210
0.0
220
0.0
230
1.0
  0
LINE
  5
2D8
100
AcDbEntity
  8
0
  6
DASHDOT
 62
     7
 48
0.12705
100
AcDbLine
 10
1.133148
 20
523.309185
 30
0.0
 11
6.215149
 21
523.309185
 31
0.0
210
0.0
220
0.0
230
1.0
  0
LINE
  5
2D9
100
AcDbEntity
  8
0
  6
DASHDOT
 62
     7
 48
0.12705
100
AcDbLine
 10
1.133148
 20
523.309185
 30
0.0
 11
6.215149
 21
523.309185
 31
0.0
210
0.0
220
0.0
230
1.0
  0
LINE
  5
2DA
100
AcDbEntity
  8
0
  6
DASHDOT
 62
     7
 48
0.27225
100
AcDbLine
 10
-1.746851
 20
523.309185
 30
0.0
 11
9.143148
 21
523.309185
 31
0.0
210
0.0
220
0.0
230
1.0
  0
LINE
  5
2DB
100
AcDbEntity
  8
0
  6
DASHDOT
 62
     7
 48
0.196625
100
AcDbLine
 10
-45.246853
 20
523.059185
 30
0.0
 11
-37.381851
 21
523.059185
 31
0.0
210
0.0
220
0.0
230
1.0
  0
LINE
  5
2DC
100
AcDbEntity
  8
0
  6
DASHDOT
 62
     7
 48
0.195
100
AcDbLine
 10
-41.346851
 20
519.159183
 30
0.0
 11
-41.346851
 21
526.959186
 31
0.0
210
0.0
220
0.0
230
1.0
  0
LINE
  5
2DD
100
AcDbEntity
  8
0
  6
DASHDOT
 62
     7
 48
0.196625
100
AcDbLine
 10
-45.246853
 20
416.559185
 30
0.0
 11
-37.381851
 21
416.559185
 31
0.0
210
0.0
220
0.0
230
1.0
  0
LINE
  5
2DE
100
AcDbEntity
  8
0
  6
DASHDOT
 62
     7
 48
0.195
100
AcDbLine
 10
-41.346851
 20
412.659183
 30
0.0
 11
-41.346851
 21
420.459186
 31
0.0
210
0.0
220
0.0
230
1.0
  0
LINE
  5
2DF
100
AcDbEntity
  8
0
  6
DASHDOT
 62
     7
 48
0.257125
100
AcDbLine
 10
-31.446852
 20
523.309185
 30
0.0
 11
-21.161851
 21
523.309185
 31
0.0
210
0.0
220
0.0
230
1.0
  0
LINE
  5
2E0
100
AcDbEntity
  8
0
  6
DASHDOT
 62
     7
 48
0.255
100
AcDbLine
 10
-26.346851
 20
518.209186
 30
0.0
 11
-26.346851
 21
528.409183
 31
0.0
210
0.0
220
0.0
230
1.0
  0
LINE
  5
2E1
100
AcDbEntity
  8
0
  6
DASHDOT
 62
     7
 48
0.257125
100
AcDbLine
 10
-1.446852
 20
416.309185
 30
0.0
 11
8.838148
 21
416.309185
 31
0.0
210
0.0
220
0.0
230
1.0
  0
LINE
  5
2E2
100
AcDbEntity
  8
0
  6
DASHDOT
 62
     7
 48
0.255
100
AcDbLine
 10
3.653149
 20
411.209186
 30
0.0
 11
3.653149
 21
421.409183
 31
0.0
210
0.0
220
0.0
230
1.0
  0
LINE
  5
2E3
100
AcDbEntity
  8
0
  6
DASHDOT
 62
     7
 48
0.196625
100
AcDbLine
 10
-15.246851
 20
416.559185
 30
0.0
 11
-7.381851
 21
416.559185
 31
0.0
210
0.0
220
0.0
230
1.0
  0
LINE
  5
2E4
100
AcDbEntity
  8
0
  6
DASHDOT
 62
     7
 48
0.195
100
AcDbLine
 10
-11.346851
 20
412.659183
 30
0.0
 11
-11.346851
 21
420.459186
 31
0.0
210
0.0
220
0.0
230
1.0
  0
LINE
  5
2E5
100
AcDbEntity
  8
0
  6
DASHDOT
 62
     7
 48
0.196625
100
AcDbLine
 10
14.753149
 20
416.559185
 30
0.0
 11
22.618149
 21
416.559185
 31
0.0
210
0.0
220
0.0
230
1.0
  0
LINE
  5
2E6
100
AcDbEntity
  8
0
  6
DASHDOT
 62
     7
 48
0.195
100
AcDbLine
 10
18.653149
 20
412.659183
 30
0.0
 11
18.653149
 21
420.459186
 31
0.0
210
0.0
220
0.0
230
1.0
  0
LINE
  5
2E7
100
AcDbEntity
  8
0
  6
DASHDOT
 62
     7
 48
0.196625
100
AcDbLine
 10
-15.246851
 20
523.059185
 30
0.0
 11
-7.381851
 21
523.059185
 31
0.0
210
0.0
220
0.0
230
1.0
  0
LINE
  5
2E8
100
AcDbEntity
  8
0
  6
DASHDOT
 62
     7
 48
0.195
100
AcDbLine
 10
-11.346851
 20
519.159183
 30
0.0
 11
-11.346851
 21
526.959186
 31
0.0
210
0.0
220
0.0
230
1.0
  0
ARC
  5
2E9
100
AcDbEntity
  8
0
 62
     7
100
AcDbCircle
 10
31.15316
 20
533.809192
 30
0.0
 40
1.0
210
0.0
220
0.0
230
1.0
100
AcDbArc
 50
359.999436
 51
90.000563
  0
LINE
  5
2EA
100
AcDbEntity
  8
0
 62
     7
 48
0.025
100
AcDbLine
 10
0.653149
 20
533.809185
 30
0.0
 11
0.653149
 21
534.809185
 31
0.0
210
0.0
220
0.0
230
1.0
  0
LINE
  5
2EB
100
AcDbEntity
  8
0
 62
     7
 48
0.025
100
AcDbLine
 10
0.653149
 20
532.809185
 30
0.0
 11
0.653149
 21
533.809185
 31
0.0
210
0.0
220
0.0
230
1.0
  0
LINE
  5
2EC
100
AcDbEntity
  8
0
 62
     7
 48
0.025
100
AcDbLine
 10
6.653149
 20
533.809185
 30
0.0
 11
6.653149
 21
534.809185
 31
0.0
210
0.0
220
0.0
230
1.0
  0
LINE
  5
2ED
100
AcDbEntity
  8
0
 62
     7
 48
0.025
100
AcDbLine
 10
6.653149
 20
532.809185
 30
0.0
 11
6.653149
 21
533.809185
 31
0.0
210
0.0
220
0.0
230
1.0
  0
ARC
  5
2EE
100
AcDbEntity
  8
0
 62
     7
100
AcDbCircle
 10
30.153149
 20
517.559185
 30
0.0
 40
2.6
210
0.0
220
0.0
230
1.0
100
AcDbArc
 50
16.953065
 51
39.71505
  0
LINE
  5
2EF
100
AcDbEntity
  8
0
 62
     7
 48
0.06375
100
AcDbLine
 10
33.653149
 20
517.609184
 30
0.0
 11
33.653149
 21
520.159183
 31
0.0
210
0.0
220
0.0
230
1.0
  0
LINE
  5
2F0
100
AcDbEntity
  8
0
 62
     7
 48
0.21625
100
AcDbLine
 10
33.653149
 20
520.159183
 30
0.0
 11
33.653149
 21
528.809185
 31
0.0
210
0.0
220
0.0
230
1.0
  0
LINE
  5
2F1
100
AcDbEntity
  8
0
 62
     7
100
AcDbLine
 10
31.153149
 20
534.809185
 30
0.0
 11
6.653149
 21
534.809185
 31
0.0
210
0.0
220
0.0
230
1.0
  0
LINE
  5
2F2
100
AcDbEntity
  8
0
 62
     7
 48
0.0375
100
AcDbLine
 10
2.153149
 20
534.809185
 30
0.0
 11
0.653149
 21
534.809185
 31
0.0
210
0.0
220
0.0
230
1.0
  0
LINE
  5
2F3
100
AcDbEntity
  8
0
 62
     7
 48
0.0375
100
AcDbLine
 10
6.653149
 20
534.809185
 30
0.0
 11
5.153149
 21
534.809185
 31
0.0
210
0.0
220
0.0
230
1.0
  0
LINE
  5
2F4
100
AcDbEntity
  8
0
 62
     7
 48
0.15
100
AcDbLine
 10
6.653149
 20
530.809185
 30
0.0
 11
0.653149
 21
530.809185
 31
0.0
210
0.0
220
0.0
230
1.0
  0
LINE
  5
2F5
100
AcDbEntity
  8
0
 62
     7
 48
0.025
100
AcDbLine
 10
32.153149
 20
532.809185
 30
0.0
 11
31.153149
 21
532.809185
 31
0.0
210
0.0
220
0.0
230
1.0
  0
LINE
  5
2F6
100
AcDbEntity
  8
0
 62
     7
 48
0.0125
100
AcDbLine
 10
31.153149
 20
532.809185
 30
0.0
 11
30.653149
 21
532.809185
 31
0.0
210
0.0
220
0.0
230
1.0
  0
LINE
  5
2F7
100
AcDbEntity
  8
0
 62
     7
 48
0.075
100
AcDbLine
 10
30.653149
 20
529.809185
 30
0.0
 11
30.653149
 21
532.809185
 31
0.0
210
0.0
220
0.0
230
1.0
  0
LINE
  5
2F8
100
AcDbEntity
  8
0
 62
     7
 48
0.025
100
AcDbLine
 10
32.153149
 20
529.809185
 30
0.0
 11
31.153149
 21
529.809185
 31
0.0
210
0.0
220
0.0
230
1.0
  0
LINE
  5
2F9
100
AcDbEntity
  8
0
 62
     7
 48
0.0125
100
AcDbLine
 10
31.153149
 20
529.809185
 30
0.0
 11
30.653149
 21
529.809185
 31
0.0
210
0.0
220
0.0
230
1.0
  0
LINE
  5
2FA
100
AcDbEntity
  8
0
 62
     7
 48
0.05
100
AcDbLine
 10
6.653149
 20
530.809185
 30
0.0
 11
6.653149
 21
532.809185
 31
0.0
210
0.0
220
0.0
230
1.0
  0
LINE
  5
2FB
100
AcDbEntity
  8
0
 62
     7
 48
0.0375
100
AcDbLine
 10
6.653149
 20
532.809185
 30
0.0
 11
5.153149
 21
532.809185
 31
0.0
210
0.0
220
0.0
230
1.0
  0
LINE
  5
2FC
100
AcDbEntity
  8
0
 62
     7
 48
0.05
100
AcDbLine
 10
5.153149
 20
532.809185
 30
0.0
 11
5.153149
 21
534.809185
 31
0.0
210
0.0
220
0.0
230
1.0
  0
LINE
  5
2FD
100
AcDbEntity
  8
0
 62
     7
 48
0.05
100
AcDbLine
 10
2.153149
 20
532.809185
 30
0.0
 11
2.153149
 21
534.809185
 31
0.0
210
0.0
220
0.0
230
1.0
  0
LINE
  5
2FE
100
AcDbEntity
  8
0
 62
     7
 48
0.0375
100
AcDbLine
 10
2.153149
 20
532.809185
 30
0.0
 11
0.653149
 21
532.809185
 31
0.0
210
0.0
220
0.0
230
1.0
  0
LINE
  5
2FF
100
AcDbEntity
  8
0
 62
     7
 48
0.05
100
AcDbLine
 10
0.653149
 20
530.809185
 30
0.0
 11
0.653149
 21
532.809185
 31
0.0
210
0.0
220
0.0
230
1.0
  0
LINE
  5
300
100
AcDbEntity
  8
0
 62
     7
 48
0.0375
100
AcDbLine
 10
33.653149
 20
528.809185
 30
0.0
 11
32.153149
 21
528.809185
 31
0.0
210
0.0
220
0.0
230
1.0
  0
CIRCLE
  5
301
100
AcDbEntity
  8
0
 62
     7
100
AcDbCircle
 10
3.653149
 20
523.309185
 30
0.0
 40
2.1
210
0.0
220
0.0
230
1.0
  0
LINE
  5
302
100
AcDbEntity
  8
0
 62
     7
 48
0.025
100
AcDbLine
 10
32.153149
 20
528.809185
 30
0.0
 11
31.153149
 21
528.809185
 31
0.0
210
0.0
220
0.0
230
1.0
  0
ARC
  5
303
100
AcDbEntity
  8
0
 62
     7
100
AcDbCircle
 10
3.653149
 20
523.309185
 30
0.0
 40
4.25
210
0.0
220
0.0
230
1.0
100
AcDbArc
 50
299.877352
 51
300.045976
  0
ARC
  5
304
100
AcDbEntity
  8
0
 62
     7
100
AcDbCircle
 10
3.653149
 20
523.309185
 30
0.0
 40
4.25
210
0.0
220
0.0
230
1.0
100
AcDbArc
 50
345.56834
 51
0.025691
  0
ARC
  5
305
100
AcDbEntity
  8
0
 62
     7
100
AcDbCircle
 10
3.653149
 20
523.309185
 30
0.0
 40
4.25
210
0.0
220
0.0
230
1.0
100
AcDbArc
 50
293.322939
 51
330.03291
  0
ARC
  5
306
100
AcDbEntity
  8
0
 62
     7
100
AcDbCircle
 10
3.653149
 20
523.309185
 30
0.0
 40
4.25
210
0.0
220
0.0
230
1.0
100
AcDbArc
 50
31.305615
 51
60.031905
  0
ARC
  5
307
100
AcDbEntity
  8
0
 62
     7
100
AcDbCircle
 10
3.653149
 20
523.309185
 30
0.0
 40
4.25
210
0.0
220
0.0
230
1.0
100
AcDbArc
 50
18.236308
 51
30.047588
  0
ARC
  5
308
100
AcDbEntity
  8
0
 62
     7
100
AcDbCircle
 10
3.653149
 20
523.309185
 30
0.0
 40
4.25
210
0.0
220
0.0
230
1.0
100
AcDbArc
 50
119.864684
 51
158.046684
  0
ARC
  5
309
100
AcDbEntity
  8
0
 62
     7
100
AcDbCircle
 10
3.653149
 20
523.309185
 30
0.0
 40
4.25
210
0.0
220
0.0
230
1.0
100
AcDbArc
 50
149.974494
 51
154.349597
  0
ARC
  5
30A
100
AcDbEntity
  8
0
 62
     7
100
AcDbCircle
 10
3.653149
 20
523.309185
 30
0.0
 40
4.25
210
0.0
220
0.0
230
1.0
100
AcDbArc
 50
179.964256
 51
180.124164
  0
LINE
  5
30B
100
AcDbEntity
  8
0
 62
     7
 48
0.025
100
AcDbLine
 10
32.153149
 20
528.809185
 30
0.0
 11
32.153149
 21
529.809185
 31
0.0
210
0.0
220
0.0
230
1.0
  0
LINE
  5
30C
100
AcDbEntity
  8
0
 62
     7
 48
0.025
100
AcDbLine
 10
32.153149
 20
532.809185
 30
0.0
 11
32.153149
 21
533.809185
 31
0.0
210
0.0
220
0.0
230
1.0
  0
LINE
  5
30D
100
AcDbEntity
  8
0
 62
     7
 48
0.0175
100
AcDbLine
 10
32.953148
 20
517.609184
 30
0.0
 11
32.953148
 21
518.309185
 31
0.0
210
0.0
220
0.0
230
1.0
  0
LINE
  5
30E
100
AcDbEntity
  8
0
 62
     7
 48
0.075
100
AcDbLine
 10
32.953148
 20
518.309185
 30
0.0
 11
29.953148
 21
518.309185
 31
0.0
210
0.0
220
0.0
230
1.0
  0
ARC
  5
30F
100
AcDbEntity
  8
0
 62
     7
100
AcDbCircle
 10
18.653193
 20
523.059185
 30
0.0
 40
3.250028
210
0.0
220
0.0
230
1.0
100
AcDbArc
 50
90.00102
 51
162.000271
  0
CIRCLE
  5
310
100
AcDbEntity
  8
0
 62
     7
100
AcDbCircle
 10
18.653105
 20
523.059185
 30
0.0
 40
3.250028
210
0.0
220
0.0
230
1.0
  0
ARC
  5
311
100
AcDbEntity
  8
0
 62
     7
100
AcDbCircle
 10
18.653149
 20
523.059185
 30
0.0
 40
3.25
210
0.0
220
0.0
230
1.0
100
AcDbArc
 50
197.983893
 51
234.01269
  0
ARC
  5
312
100
AcDbEntity
  8
0
 62
     7
100
AcDbCircle
 10
18.653149
 20
523.059185
 30
0.0
 40
3.25
210
0.0
220
0.0
230
1.0
100
AcDbArc
 50
17.98388
 51
54.012634
  0
ARC
  5
313
100
AcDbEntity
  8
0
 62
     7
100
AcDbCircle
 10
3.653207
 20
523.309185
 30
0.0
 40
4.250037
210
0.0
220
0.0
230
1.0
100
AcDbArc
 50
90.000781
 51
119.994743
  0
ARC
  5
314
100
AcDbEntity
  8
0
 62
     7
100
AcDbCircle
 10
3.653091
 20
523.309185
 30
0.0
 40
4.250037
210
0.0
220
0.0
230
1.0
100
AcDbArc
 50
234.573203
 51
299.994749
  0
ARC
  5
315
100
AcDbEntity
  8
0
 62
     7
100
AcDbCircle
 10
3.653149
 20
523.309185
 30
0.0
 40
4.25
210
0.0
220
0.0
230
1.0
100
AcDbArc
 50
329.984252
 51
99.102889
  0
ARC
  5
316
100
AcDbEntity
  8
0
 62
     7
100
AcDbCircle
 10
3.653149
 20
523.309185
 30
0.0
 40
4.25
210
0.0
220
0.0
230
1.0
100
AcDbArc
 50
149.984288
 51
240.010881
  0
LINE
  5
317
100
AcDbEntity
  8
0
 62
     7
 48
0.06125
100
AcDbLine
 10
33.653149
 20
517.609184
 30
0.0
 11
31.203148
 21
517.609184
 31
0.0
210
0.0
220
0.0
230
1.0
  0
LINE
  5
318
100
AcDbEntity
  8
0
 62
     7
 48
0.0125
100
AcDbLine
 10
31.203148
 20
517.609184
 30
0.0
 11
30.703148
 21
517.609184
 31
0.0
210
0.0
220
0.0
230
1.0
  0
LINE
  5
319
100
AcDbEntity
  8
0
 62
     7
 48
0.0325
100
AcDbLine
 10
28.903149
 20
517.609184
 30
0.0
 11
27.603149
 21
517.609184
 31
0.0
210
0.0
220
0.0
230
1.0
  0
LINE
  5
31A
100
AcDbEntity
  8
0
 62
     7
 48
0.0325
100
AcDbLine
 10
30.703148
 20
517.609184
 30
0.0
 11
29.403149
 21
517.609184
 31
0.0
210
0.0
220
0.0
230
1.0
  0
LINE
  5
31B
100
AcDbEntity
  8
0
 62
     7
 48
0.0125
100
AcDbLine
 10
29.403149
 20
517.609184
 30
0.0
 11
28.903149
 21
517.609184
 31
0.0
210
0.0
220
0.0
230
1.0
  0
LINE
  5
31C
100
AcDbEntity
  8
0
 62
     7
 48
0.0125
100
AcDbLine
 10
27.603149
 20
517.609184
 30
0.0
 11
27.103149
 21
517.609184
 31
0.0
210
0.0
220
0.0
230
1.0
  0
LINE
  5
31D
100
AcDbEntity
  8
0
 62
     7
 48
0.025
100
AcDbLine
 10
32.153149
 20
528.809185
 30
0.0
 11
31.153149
 21
528.809185
 31
0.0
210
0.0
220
0.0
230
1.0
  0
LINE
  5
31E
100
AcDbEntity
  8
0
 62
     7
 48
0.2625
100
AcDbLine
 10
32.153149
 20
518.309185
 30
0.0
 11
32.153149
 21
528.809185
 31
0.0
210
0.0
220
0.0
230
1.0
  0
LINE
  5
31F
100
AcDbEntity
  8
0
  6
DASHDOT
 62
     7
 48
0.12705
100
AcDbLine
 10
6.173149
 20
523.309185
 30
0.0
 11
1.091148
 21
523.309185
 31
0.0
210
0.0
220
0.0
230
1.0
  0
LINE
  5
320
100
AcDbEntity
  8
0
  6
DASHDOT
 62
     7
 48
0.126
100
AcDbLine
 10
3.653149
 20
520.789184
 30
0.0
 11
3.653149
 21
525.829181
 31
0.0
210
0.0
220
0.0
230
1.0
  0
LINE
  5
321
100
AcDbEntity
  8
0
  6
DASHDOT
 62
     7
 48
0.196625
100
AcDbLine
 10
22.55315
 20
523.059185
 30
0.0
 11
14.688149
 21
523.059185
 31
0.0
210
0.0
220
0.0
230
1.0
  0
LINE
  5
322
100
AcDbEntity
  8
0
  6
DASHDOT
 62
     7
 48
0.195
100
AcDbLine
 10
18.653149
 20
519.159183
 30
0.0
 11
18.653149
 21
526.959186
 31
0.0
210
0.0
220
0.0
230
1.0
  0
LINE
  5
323
100
AcDbEntity
  8
0
  6
DASHDOT
 62
     7
 48
0.257125
100
AcDbLine
 10
8.753149
 20
523.309185
 30
0.0
 11
-1.531852
 21
523.309185
 31
0.0
210
0.0
220
0.0
230
1.0
  0
LINE
  5
324
100
AcDbEntity
  8
0
  6
DASHDOT
 62
     7
 48
0.255
100
AcDbLine
 10
3.653149
 20
518.209186
 30
0.0
 11
3.653149
 21
528.409183
 31
0.0
210
0.0
220
0.0
230
1.0
  0
LINE
  5
325
100
AcDbEntity
  8
0
 62
     7
100
AcDbLine
 10
27.103149
 20
517.609184
 30
0.0
 11
-30.386099
 21
517.609184
 31
0.0
210
0.0
220
0.0
230
1.0
  0
LINE
  5
326
100
AcDbEntity
  8
0
 62
     7
100
AcDbLine
 10
29.953148
 20
518.309185
 30
0.0
 11
-30.143688
 21
518.309185
 31
0.0
210
0.0
220
0.0
230
1.0
  0
LINE
  5
327
100
AcDbEntity
  8
0
 62
     7
100
AcDbLine
 10
31.153149
 20
528.809185
 30
0.0
 11
-26.507517
 21
528.809185
 31
0.0
210
0.0
220
0.0
230
1.0
  0
LINE
  5
328
100
AcDbEntity
  8
0
 62
     7
100
AcDbLine
 10
26.653149
 20
506.309158
 30
0.0
 11
-49.346851
 21
506.309158
 31
0.0
210
0.0
220
0.0
230
1.0
  0
LINE
  5
329
100
AcDbEntity
  8
0
 62
     7
100
AcDbLine
 10
26.653149
 20
430.309158
 30
0.0
 11
26.653149
 21
506.309158
 31
0.0
210
0.0
220
0.0
230
1.0
  0
LINE
  5
32A
100
AcDbEntity
  8
0
 62
     7
 48
0.007621
100
AcDbLine
 10
-48.046852
 20
431.609155
 30
0.0
 11
-47.831306
 21
431.824699
 31
0.0
210
0.0
220
0.0
230
1.0
  0
LINE
  5
32B
100
AcDbEntity
  8
0
 62
     7
 48
0.007621
100
AcDbLine
 10
-48.046852
 20
505.009155
 30
0.0
 11
-47.831306
 21
504.793609
 31
0.0
210
0.0
220
0.0
230
1.0
  0
LINE
  5
32C
100
AcDbEntity
  8
0
 62
     7
 48
0.007655
100
AcDbLine
 10
-48.047813
 20
505.010116
 30
0.0
 11
-48.26432
 21
505.226623
 31
0.0
210
0.0
220
0.0
230
1.0
  0
LINE
  5
32D
100
AcDbEntity
  8
0
 62
     7
 48
0.007655
100
AcDbLine
 10
-48.26432
 20
431.391687
 30
0.0
 11
-48.047813
 21
431.608194
 31
0.0
210
0.0
220
0.0
230
1.0
  0
LINE
  5
32E
100
AcDbEntity
  8
0
 62
     7
 48
0.038273
100
AcDbLine
 10
25.137604
 20
431.824699
 30
0.0
 11
24.055073
 21
432.907232
 31
0.0
210
0.0
220
0.0
230
1.0
  0
LINE
  5
32F
100
AcDbEntity
  8
0
 62
     7
100
AcDbLine
 10
24.055073
 20
432.907232
 30
0.0
 11
-46.748775
 21
432.907232
 31
0.0
210
0.0
220
0.0
230
1.0
  0
LINE
  5
330
100
AcDbEntity
  8
0
 62
     7
 48
0.038273
100
AcDbLine
 10
-47.831306
 20
431.824699
 30
0.0
 11
-46.748775
 21
432.907232
 31
0.0
210
0.0
220
0.0
230
1.0
  0
LINE
  5
331
100
AcDbEntity
  8
0
 62
     7
 48
0.038273
100
AcDbLine
 10
-49.346851
 20
430.309156
 30
0.0
 11
-48.26432
 21
431.391687
 31
0.0
210
0.0
220
0.0
230
1.0
  0
LINE
  5
332
100
AcDbEntity
  8
0
 62
     7
 48
0.038273
100
AcDbLine
 10
-49.346851
 20
506.309154
 30
0.0
 11
-48.26432
 21
505.226623
 31
0.0
210
0.0
220
0.0
230
1.0
  0
LINE
  5
333
100
AcDbEntity
  8
0
 62
     7
100
AcDbLine
 10
-49.346851
 20
430.309156
 30
0.0
 11
-49.346851
 21
506.309154
 31
0.0
210
0.0
220
0.0
230
1.0
  0
LINE
  5
334
100
AcDbEntity
  8
0
 62
     7
 48
0.007621
100
AcDbLine
 10
25.137604
 20
504.793609
 30
0.0
 11
25.353149
 21
505.009155
 31
0.0
210
0.0
220
0.0
230
1.0
  0
LINE
  5
335
100
AcDbEntity
  8
0
 62
     7
 48
0.007621
100
AcDbLine
 10
25.353149
 20
431.609155
 30
0.0
 11
25.137604
 21
431.824699
 31
0.0
210
0.0
220
0.0
230
1.0
  0
LINE
  5
336
100
AcDbEntity
  8
0
 62
     7
 48
0.007655
100
AcDbLine
 10
25.354111
 20
431.608194
 30
0.0
 11
25.570618
 21
431.391687
 31
0.0
210
0.0
220
0.0
230
1.0
  0
LINE
  5
337
100
AcDbEntity
  8
0
 62
     7
 48
0.007655
100
AcDbLine
 10
25.354111
 20
505.010116
 30
0.0
 11
25.570618
 21
505.226623
 31
0.0
210
0.0
220
0.0
230
1.0
  0
LINE
  5
338
100
AcDbEntity
  8
0
 62
     7
100
AcDbLine
 10
26.653149
 20
430.309156
 30
0.0
 11
26.653149
 21
506.309154
 31
0.0
210
0.0
220
0.0
230
1.0
  0
LINE
  5
339
100
AcDbEntity
  8
0
 62
     7
 48
0.038273
100
AcDbLine
 10
26.653149
 20
506.309154
 30
0.0
 11
25.570618
 21
505.226623
 31
0.0
210
0.0
220
0.0
230
1.0
  0
LINE
  5
33A
100
AcDbEntity
  8
0
 62
     7
 48
0.038273
100
AcDbLine
 10
26.653149
 20
430.309156
 30
0.0
 11
25.570618
 21
431.391687
 31
0.0
210
0.0
220
0.0
230
1.0
  0
LINE
  5
33B
100
AcDbEntity
  8
0
 62
     7
100
AcDbLine
 10
24.055073
 20
430.309156
 30
0.0
 11
-46.748775
 21
430.309156
 31
0.0
210
0.0
220
0.0
230
1.0
  0
LINE
  5
33C
100
AcDbEntity
  8
0
 62
     7
 48
0.064952
100
AcDbLine
 10
24.055073
 20
430.309156
 30
0.0
 11
26.653149
 21
430.309156
 31
0.0
210
0.0
220
0.0
230
1.0
  0
LINE
  5
33D
100
AcDbEntity
  8
0
 62
     7
 48
0.064952
100
AcDbLine
 10
-49.346851
 20
430.309156
 30
0.0
 11
-46.748775
 21
430.309156
 31
0.0
210
0.0
220
0.0
230
1.0
  0
LINE
  5
33E
100
AcDbEntity
  8
0
 62
     7
100
AcDbLine
 10
-46.748775
 20
506.309154
 30
0.0
 11
24.055073
 21
506.309154
 31
0.0
210
0.0
220
0.0
230
1.0
  0
LINE
  5
33F
100
AcDbEntity
  8
0
 62
     7
 48
0.064952
100
AcDbLine
 10
24.055073
 20
506.309154
 30
0.0
 11
26.653149
 21
506.309154
 31
0.0
210
0.0
220
0.0
230
1.0
  0
LINE
  5
340
100
AcDbEntity
  8
0
 62
     7
 48
0.064952
100
AcDbLine
 10
-49.346851
 20
506.309154
 30
0.0
 11
-46.748775
 21
506.309154
 31
0.0
210
0.0
220
0.0
230
1.0
  0
CIRCLE
  5
341
100
AcDbEntity
  8
0
 62
     7
100
AcDbCircle
 10
-11.346851
 20
468.309152
 30
0.0
 40
26.450001
210
0.0
220
0.0
230
1.0
  0
CIRCLE
  5
342
100
AcDbEntity
  8
0
 62
     7
100
AcDbCircle
 10
-11.346851
 20
468.309152
 30
0.0
 40
18.85
210
0.0
220
0.0
230
1.0
  0
LINE
  5
343
100
AcDbEntity
  8
0
 62
     7
 48
0.026684
100
AcDbLine
 10
0.153149
 20
465.376511
 30
0.0
 11
0.153149
 21
464.309155
 31
0.0
210
0.0
220
0.0
230
1.0
  0
LINE
  5
344
100
AcDbEntity
  8
0
 62
     7
 48
0.146632
100
AcDbLine
 10
0.153149
 20
471.241788
 30
0.0
 11
0.153149
 21
465.376511
 31
0.0
210
0.0
220
0.0
230
1.0
  0
LINE
  5
345
100
AcDbEntity
  8
0
 62
     7
 48
0.026684
100
AcDbLine
 10
0.153149
 20
472.309155
 30
0.0
 11
0.153149
 21
471.241788
 31
0.0
210
0.0
220
0.0
230
1.0
  0
ARC
  5
346
100
AcDbEntity
  8
0
 62
     7
100
AcDbCircle
 10
-0.646851
 20
464.309153
 30
0.0
 40
0.8
210
0.0
220
0.0
230
1.0
100
AcDbArc
 50
270.000001
 51
0.000163
  0
LINE
  5
347
100
AcDbEntity
  8
0
 62
     7
 48
0.0175
100
AcDbLine
 10
-1.346851
 20
463.509155
 30
0.0
 11
-0.646851
 21
463.509155
 31
0.0
210
0.0
220
0.0
230
1.0
  0
LINE
  5
348
100
AcDbEntity
  8
0
 62
     7
100
AcDbLine
 10
-1.346851
 20
463.509155
 30
0.0
 11
-21.346851
 21
463.509155
 31
0.0
210
0.0
220
0.0
230
1.0
  0
LINE
  5
349
100
AcDbEntity
  8
0
 62
     7
 48
0.0175
100
AcDbLine
 10
-21.346851
 20
463.509155
 30
0.0
 11
-22.046851
 21
463.509155
 31
0.0
210
0.0
220
0.0
230
1.0
  0
ARC
  5
34A
100
AcDbEntity
  8
0
 62
     7
100
AcDbCircle
 10
-22.046851
 20
464.309153
 30
0.0
 40
0.8
210
0.0
220
0.0
230
1.0
100
AcDbArc
 50
179.999841
 51
270.000001
  0
LINE
  5
34B
100
AcDbEntity
  8
0
 62
     7
 48
0.026684
100
AcDbLine
 10
-22.846851
 20
465.376511
 30
0.0
 11
-22.846851
 21
464.309155
 31
0.0
210
0.0
220
0.0
230
1.0
  0
LINE
  5
34C
100
AcDbEntity
  8
0
 62
     7
 48
0.146632
100
AcDbLine
 10
-22.846851
 20
471.241788
 30
0.0
 11
-22.846851
 21
465.376511
 31
0.0
210
0.0
220
0.0
230
1.0
  0
LINE
  5
34D
100
AcDbEntity
  8
0
 62
     7
 48
0.026684
100
AcDbLine
 10
-22.846851
 20
472.309155
 30
0.0
 11
-22.846851
 21
471.241788
 31
0.0
210
0.0
220
0.0
230
1.0
  0
ARC
  5
34E
100
AcDbEntity
  8
0
 62
     7
100
AcDbCircle
 10
-22.046851
 20
472.309152
 30
0.0
 40
0.8
210
0.0
220
0.0
230
1.0
100
AcDbArc
 50
90.000003
 51
179.999841
  0
LINE
  5
34F
100
AcDbEntity
  8
0
 62
     7
 48
0.0175
100
AcDbLine
 10
-21.346851
 20
473.109154
 30
0.0
 11
-22.046851
 21
473.109154
 31
0.0
210
0.0
220
0.0
230
1.0
  0
LINE
  5
350
100
AcDbEntity
  8
0
 62
     7
100
AcDbLine
 10
-1.346851
 20
473.109154
 30
0.0
 11
-21.346851
 21
473.109154
 31
0.0
210
0.0
220
0.0
230
1.0
  0
LINE
  5
351
100
AcDbEntity
  8
0
 62
     7
 48
0.0175
100
AcDbLine
 10
-1.346851
 20
473.109154
 30
0.0
 11
-0.646851
 21
473.109154
 31
0.0
210
0.0
220
0.0
230
1.0
  0
ARC
  5
352
100
AcDbEntity
  8
0
 62
     7
100
AcDbCircle
 10
-0.646851
 20
472.309152
 30
0.0
 40
0.8
210
0.0
220
0.0
230
1.0
100
AcDbArc
 50
0.000163
 51
90.000003
  0
LINE
  5
353
100
AcDbEntity
  8
0
 62
     7
100
AcDbLine
 10
-46.748775
 20
432.907232
 30
0.0
 11
-46.748775
 21
503.711078
 31
0.0
210
0.0
220
0.0
230
1.0
  0
LINE
  5
354
100
AcDbEntity
  8
0
 62
     7
 48
0.038273
100
AcDbLine
 10
-47.831306
 20
504.793609
 30
0.0
 11
-46.748775
 21
503.711078
 31
0.0
210
0.0
220
0.0
230
1.0
  0
LINE
  5
355
100
AcDbEntity
  8
0
 62
     7
100
AcDbLine
 10
24.055073
 20
503.711078
 30
0.0
 11
-46.748775
 21
503.711078
 31
0.0
210
0.0
220
0.0
230
1.0
  0
LINE
  5
356
100
AcDbEntity
  8
0
 62
     7
 48
0.038273
100
AcDbLine
 10
25.137604
 20
504.793609
 30
0.0
 11
24.055073
 21
503.711078
 31
0.0
210
0.0
220
0.0
230
1.0
  0
LINE
  5
357
100
AcDbEntity
  8
0
 62
     7
100
AcDbLine
 10
24.055073
 20
432.907232
 30
0.0
 11
24.055073
 21
503.711078
 31
0.0
210
0.0
220
0.0
230
1.0
  0
CIRCLE
  5
358
100
AcDbEntity
  8
0
 62
     7
100
AcDbCircle
 10
-11.346851
 20
468.309157
 30
0.0
 40
28.450001
210
0.0
220
0.0
230
1.0
  0
LINE
  5
359
100
AcDbEntity
  8
0
 62
     7
 48
0.002507
100
AcDbLine
 10
-49.44685
 20
485.30916
 30
0.0
 11
-49.346558
 21
485.30916
 31
0.0
210
0.0
220
0.0
230
1.0
  0
LINE
  5
35A
100
AcDbEntity
  8
0
 62
     7
 48
0.002507
100
AcDbLine
 10
26.652855
 20
485.30916
 30
0.0
 11
26.753147
 21
485.30916
 31
0.0
210
0.0
220
0.0
230
1.0
  0
LINE
  5
35B
100
AcDbEntity
  8
0
 62
     7
 48
0.0375
100
AcDbLine
 10
-49.44685
 20
485.30916
 30
0.0
 11
-49.44685
 21
486.80916
 31
0.0
210
0.0
220
0.0
230
1.0
  0
LINE
  5
35C
100
AcDbEntity
  8
0
 62
     7
 48
0.002507
100
AcDbLine
 10
-49.44685
 20
486.80916
 30
0.0
 11
-49.346558
 21
486.80916
 31
0.0
210
0.0
220
0.0
230
1.0
  0
LINE
  5
35D
100
AcDbEntity
  8
0
 62
     7
100
AcDbLine
 10
-49.44685
 20
443.30916
 30
0.0
 11
-49.44685
 21
485.30916
 31
0.0
210
0.0
220
0.0
230
1.0
  0
LINE
  5
35E
100
AcDbEntity
  8
0
 62
     7
 48
0.0375
100
AcDbLine
 10
-49.44685
 20
441.80916
 30
0.0
 11
-49.44685
 21
443.30916
 31
0.0
210
0.0
220
0.0
230
1.0
  0
LINE
  5
35F
100
AcDbEntity
  8
0
 62
     7
100
AcDbLine
 10
26.753147
 20
443.30916
 30
0.0
 11
26.753147
 21
485.30916
 31
0.0
210
0.0
220
0.0
230
1.0
  0
LINE
  5
360
100
AcDbEntity
  8
0
 62
     7
 48
0.0375
100
AcDbLine
 10
26.753147
 20
441.80916
 30
0.0
 11
26.753147
 21
443.30916
 31
0.0
210
0.0
220
0.0
230
1.0
  0
LINE
  5
361
100
AcDbEntity
  8
0
 62
     7
 48
0.0375
100
AcDbLine
 10
26.753147
 20
485.30916
 30
0.0
 11
26.753147
 21
486.80916
 31
0.0
210
0.0
220
0.0
230
1.0
  0
LINE
  5
362
100
AcDbEntity
  8
0
 62
     7
 48
0.002507
100
AcDbLine
 10
26.652855
 20
486.80916
 30
0.0
 11
26.753147
 21
486.80916
 31
0.0
210
0.0
220
0.0
230
1.0
  0
LINE
  5
363
100
AcDbEntity
  8
0
 62
     7
 48
0.002507
100
AcDbLine
 10
26.652855
 20
443.30916
 30
0.0
 11
26.753147
 21
443.30916
 31
0.0
210
0.0
220
0.0
230
1.0
  0
LINE
  5
364
100
AcDbEntity
  8
0
 62
     7
 48
0.002507
100
AcDbLine
 10
-49.44685
 20
443.30916
 30
0.0
 11
-49.346558
 21
443.30916
 31
0.0
210
0.0
220
0.0
230
1.0
  0
LINE
  5
365
100
AcDbEntity
  8
0
 62
     7
 48
0.002507
100
AcDbLine
 10
26.652855
 20
441.80916
 30
0.0
 11
26.753147
 21
441.80916
 31
0.0
210
0.0
220
0.0
230
1.0
  0
LINE
  5
366
100
AcDbEntity
  8
0
 62
     7
 48
0.002507
100
AcDbLine
 10
-49.44685
 20
441.80916
 30
0.0
 11
-49.346558
 21
441.80916
 31
0.0
210
0.0
220
0.0
230
1.0
  0
ARC
  5
367
100
AcDbEntity
  8
0
  6
DASHSPACE
 62
     7
100
AcDbCircle
 10
-83.846859
 20
533.809192
 30
0.0
 40
1.0
210
0.0
220
0.0
230
1.0
100
AcDbArc
 50
89.999436
 51
180.000565
  0
LINE
  5
368
100
AcDbEntity
  8
0
  6
DASHSPACE
 62
     7
 48
0.025
100
AcDbLine
 10
-84.846851
 20
532.809185
 30
0.0
 11
-83.846851
 21
532.809185
 31
0.0
210
0.0
220
0.0
230
1.0
  0
LINE
  5
369
100
AcDbEntity
  8
0
  6
DASHSPACE
 62
     7
 48
0.0125
100
AcDbLine
 10
-83.846851
 20
532.809185
 30
0.0
 11
-83.346851
 21
532.809185
 31
0.0
210
0.0
220
0.0
230
1.0
  0
LINE
  5
36A
100
AcDbEntity
  8
0
  6
DASHSPACE
 62
     7
 48
0.075
100
AcDbLine
 10
-83.346851
 20
529.809185
 30
0.0
 11
-83.346851
 21
532.809185
 31
0.0
210
0.0
220
0.0
230
1.0
  0
LINE
  5
36B
100
AcDbEntity
  8
0
  6
DASHSPACE
 62
     7
 48
0.025
100
AcDbLine
 10
-84.846851
 20
529.809185
 30
0.0
 11
-83.846851
 21
529.809185
 31
0.0
210
0.0
220
0.0
230
1.0
  0
LINE
  5
36C
100
AcDbEntity
  8
0
  6
DASHSPACE
 62
     7
 48
0.0125
100
AcDbLine
 10
-83.846851
 20
529.809185
 30
0.0
 11
-83.346851
 21
529.809185
 31
0.0
210
0.0
220
0.0
230
1.0
  0
LINE
  5
36D
100
AcDbEntity
  8
0
  6
DASHSPACE
 62
     7
 48
0.0375
100
AcDbLine
 10
-86.346851
 20
528.809185
 30
0.0
 11
-84.846851
 21
528.809185
 31
0.0
210
0.0
220
0.0
230
1.0
  0
LINE
  5
36E
100
AcDbEntity
  8
0
  6
DASHSPACE
 62
     7
 48
0.025
100
AcDbLine
 10
-84.846851
 20
528.809185
 30
0.0
 11
-84.846851
 21
529.809185
 31
0.0
210
0.0
220
0.0
230
1.0
  0
LINE
  5
36F
100
AcDbEntity
  8
0
  6
DASHSPACE
 62
     7
 48
0.025
100
AcDbLine
 10
-84.846851
 20
532.809185
 30
0.0
 11
-84.846851
 21
533.809185
 31
0.0
210
0.0
220
0.0
230
1.0
  0
LINE
  5
370
100
AcDbEntity
  8
0
  6
DASHSPACE
 62
     7
100
AcDbLine
 10
-83.846851
 20
534.809185
 30
0.0
 11
-49.557033
 21
534.809185
 31
0.0
210
0.0
220
0.0
230
1.0
  0
LINE
  5
371
100
AcDbEntity
  8
0
  6
DASHSPACE
 62
     7
100
AcDbLine
 10
-86.346851
 20
410.809181
 30
0.0
 11
-86.346851
 21
528.809185
 31
0.0
210
0.0
220
0.0
230
1.0
  0
ARC
  5
372
100
AcDbEntity
  8
0
  6
DASHSPACE
 62
     7
100
AcDbCircle
 10
-83.846859
 20
405.80917
 30
0.0
 40
1.0
210
0.0
220
0.0
230
1.0
100
AcDbArc
 50
179.999349
 51
270.000547
  0
LINE
  5
373
100
AcDbEntity
  8
0
  6
DASHSPACE
 62
     7
 48
0.025
100
AcDbLine
 10
-84.846851
 20
406.809181
 30
0.0
 11
-83.846851
 21
406.809181
 31
0.0
210
0.0
220
0.0
230
1.0
  0
LINE
  5
374
100
AcDbEntity
  8
0
  6
DASHSPACE
 62
     7
 48
0.025
100
AcDbLine
 10
-84.846851
 20
409.809181
 30
0.0
 11
-83.846851
 21
409.809181
 31
0.0
210
0.0
220
0.0
230
1.0
  0
LINE
  5
375
100
AcDbEntity
  8
0
  6
DASHSPACE
 62
     7
 48
0.0375
100
AcDbLine
 10
-86.346867
 20
410.809181
 30
0.0
 11
-84.846851
 21
410.809181
 31
0.0
210
0.0
220
0.0
230
1.0
  0
LINE
  5
376
100
AcDbEntity
  8
0
  6
DASHSPACE
 62
     7
 48
0.025
100
AcDbLine
 10
-84.846851
 20
405.809181
 30
0.0
 11
-84.846851
 21
406.809181
 31
0.0
210
0.0
220
0.0
230
1.0
  0
LINE
  5
377
100
AcDbEntity
  8
0
  6
DASHSPACE
 62
     7
 48
0.025
100
AcDbLine
 10
-84.846851
 20
409.809181
 30
0.0
 11
-84.846851
 21
410.809181
 31
0.0
210
0.0
220
0.0
230
1.0
  0
LINE
  5
378
100
AcDbEntity
  8
0
  6
DASHSPACE
 62
     7
 48
0.075
100
AcDbLine
 10
-83.346851
 20
406.809181
 30
0.0
 11
-83.346851
 21
409.809181
 31
0.0
210
0.0
220
0.0
230
1.0
  0
LINE
  5
379
100
AcDbEntity
  8
0
  6
DASHSPACE
 62
     7
 48
0.0125
100
AcDbLine
 10
-83.846851
 20
406.809181
 30
0.0
 11
-83.346851
 21
406.809181
 31
0.0
210
0.0
220
0.0
230
1.0
  0
LINE
  5
37A
100
AcDbEntity
  8
0
  6
DASHSPACE
 62
     7
 48
0.0125
100
AcDbLine
 10
-83.846851
 20
409.809181
 30
0.0
 11
-83.346851
 21
409.809181
 31
0.0
210
0.0
220
0.0
230
1.0
  0
LINE
  5
37B
100
AcDbEntity
  8
0
  6
DASHSPACE
 62
     7
100
AcDbLine
 10
-83.846851
 20
404.809181
 30
0.0
 11
-46.687313
 21
404.809181
 31
0.0
210
0.0
220
0.0
230
1.0
  0
CIRCLE
  5
37C
100
AcDbEntity
  8
0
  6
DASHSPACE
 62
     7
100
AcDbCircle
 10
-71.346806
 20
416.559185
 30
0.0
 40
3.250028
210
0.0
220
0.0
230
1.0
  0
LINE
  5
37D
100
AcDbEntity
  8
0
  6
DASHDOT
 62
     7
 48
0.196625
100
AcDbLine
 10
-75.246853
 20
416.559185
 30
0.0
 11
-67.381851
 21
416.559185
 31
0.0
210
0.0
220
0.0
230
1.0
  0
CIRCLE
  5
37E
100
AcDbEntity
  8
0
  6
DASHSPACE
 62
     7
100
AcDbCircle
 10
-71.346806
 20
523.059185
 30
0.0
 40
3.250028
210
0.0
220
0.0
230
1.0
  0
CIRCLE
  5
37F
100
AcDbEntity
  8
0
 62
     7
100
AcDbCircle
 10
18.653149
 20
478.209156
 30
0.0
 40
1.75
210
0.0
220
0.0
230
1.0
  0
CIRCLE
  5
380
100
AcDbEntity
  8
0
 62
     7
100
AcDbCircle
 10
18.653149
 20
478.209156
 30
0.0
 40
1.0
210
0.0
220
0.0
230
1.0
  0
CIRCLE
  5
381
100
AcDbEntity
  8
0
 62
     7
100
AcDbCircle
 10
17.653149
 20
454.559156
 30
0.0
 40
1.75
210
0.0
220
0.0
230
1.0
  0
CIRCLE
  5
382
100
AcDbEntity
  8
0
 62
     7
100
AcDbCircle
 10
17.653149
 20
454.559156
 30
0.0
 40
1.0
210
0.0
220
0.0
230
1.0
  0
ARC
  5
383
100
AcDbEntity
  8
0
 62
     7
100
AcDbCircle
 10
22.403149
 20
478.459011
 30
0.0
 40
0.75
210
0.0
220
0.0
230
1.0
100
AcDbArc
 50
0.011021
 51
179.988981
  0
LINE
  5
384
100
AcDbEntity
  8
0
 62
     7
 48
0.05
100
AcDbLine
 10
23.153149
 20
476.459156
 30
0.0
 11
23.153149
 21
478.459156
 31
0.0
210
0.0
220
0.0
230
1.0
  0
LINE
  5
385
100
AcDbEntity
  8
0
 62
     7
 48
0.01165
100
AcDbLine
 10
21.653149
 20
479.300146
 30
0.0
 11
21.982655
 21
479.62965
 31
0.0
210
0.0
220
0.0
230
1.0
  0
LINE
  5
386
100
AcDbEntity
  8
0
 62
     7
 48
0.016475
100
AcDbLine
 10
21.653149
 20
479.959156
 30
0.0
 11
21.653149
 21
479.300146
 31
0.0
210
0.0
220
0.0
230
1.0
  0
LINE
  5
387
100
AcDbEntity
  8
0
 62
     7
 48
0.01875
100
AcDbLine
 10
20.903149
 20
479.959156
 30
0.0
 11
21.653149
 21
479.959156
 31
0.0
210
0.0
220
0.0
230
1.0
  0
LINE
  5
388
100
AcDbEntity
  8
0
 62
     7
 48
0.0875
100
AcDbLine
 10
20.903149
 20
476.459156
 30
0.0
 11
20.903149
 21
479.959156
 31
0.0
210
0.0
220
0.0
230
1.0
  0
LINE
  5
389
100
AcDbEntity
  8
0
 62
     7
 48
0.01875
100
AcDbLine
 10
21.653149
 20
476.459156
 30
0.0
 11
20.903149
 21
476.459156
 31
0.0
210
0.0
220
0.0
230
1.0
  0
LINE
  5
38A
100
AcDbEntity
  8
0
 62
     7
 48
0.05
100
AcDbLine
 10
21.653149
 20
478.459156
 30
0.0
 11
21.653149
 21
476.459156
 31
0.0
210
0.0
220
0.0
230
1.0
  0
LINE
  5
38B
100
AcDbEntity
  8
0
 62
     7
 48
0.01875
100
AcDbLine
 10
21.153149
 20
457.809156
 30
0.0
 11
21.153149
 21
457.059156
 31
0.0
210
0.0
220
0.0
230
1.0
  0
ARC
  5
38C
100
AcDbEntity
  8
0
 62
     7
100
AcDbCircle
 10
21.153668
 20
456.558638
 30
0.0
 40
1.250518
210
0.0
220
0.0
230
1.0
100
AcDbArc
 50
90.023724
 51
179.976277
  0
LINE
  5
38D
100
AcDbEntity
  8
0
 62
     7
 48
0.00625
100
AcDbLine
 10
19.903149
 20
456.309156
 30
0.0
 11
19.903149
 21
456.559156
 31
0.0
210
0.0
220
0.0
230
1.0
  0
LINE
  5
38E
100
AcDbEntity
  8
0
 62
     7
 48
0.0125
100
AcDbLine
 10
19.403149
 20
456.309156
 30
0.0
 11
19.903149
 21
456.309156
 31
0.0
210
0.0
220
0.0
230
1.0
  0
LINE
  5
38F
100
AcDbEntity
  8
0
 62
     7
 48
0.01875
100
AcDbLine
 10
19.403149
 20
455.559156
 30
0.0
 11
19.403149
 21
456.309156
 31
0.0
210
0.0
220
0.0
230
1.0
  0
LINE
  5
390
100
AcDbEntity
  8
0
 62
     7
 48
0.0125
100
AcDbLine
 10
19.903149
 20
455.559156
 30
0.0
 11
19.403149
 21
455.559156
 31
0.0
210
0.0
220
0.0
230
1.0
  0
LINE
  5
391
100
AcDbEntity
  8
0
 62
     7
 48
0.06875
100
AcDbLine
 10
19.903149
 20
452.809156
 30
0.0
 11
19.903149
 21
455.559156
 31
0.0
210
0.0
220
0.0
230
1.0
  0
LINE
  5
392
100
AcDbEntity
  8
0
 62
     7
 48
0.01875
100
AcDbLine
 10
20.653149
 20
452.809156
 30
0.0
 11
19.903149
 21
452.809156
 31
0.0
210
0.0
220
0.0
230
1.0
  0
LINE
  5
393
100
AcDbEntity
  8
0
 62
     7
 48
0.06875
100
AcDbLine
 10
20.653149
 20
455.559156
 30
0.0
 11
20.653149
 21
452.809156
 31
0.0
210
0.0
220
0.0
230
1.0
  0
LINE
  5
394
100
AcDbEntity
  8
0
 62
     7
 48
0.0125
100
AcDbLine
 10
21.153149
 20
455.559156
 30
0.0
 11
20.653149
 21
455.559156
 31
0.0
210
0.0
220
0.0
230
1.0
  0
LINE
  5
395
100
AcDbEntity
  8
0
 62
     7
 48
0.01875
100
AcDbLine
 10
21.153149
 20
456.309156
 30
0.0
 11
21.153149
 21
455.559156
 31
0.0
210
0.0
220
0.0
230
1.0
  0
LINE
  5
396
100
AcDbEntity
  8
0
 62
     7
 48
0.0125
100
AcDbLine
 10
20.653149
 20
456.309156
 30
0.0
 11
21.153149
 21
456.309156
 31
0.0
210
0.0
220
0.0
230
1.0
  0
LINE
  5
397
100
AcDbEntity
  8
0
 62
     7
 48
0.00625
100
AcDbLine
 10
20.653149
 20
456.559156
 30
0.0
 11
20.653149
 21
456.309156
 31
0.0
210
0.0
220
0.0
230
1.0
  0
ARC
  5
398
100
AcDbEntity
  8
0
 62
     7
100
AcDbCircle
 10
21.153355
 20
456.558949
 30
0.0
 40
0.500207
210
0.0
220
0.0
230
1.0
100
AcDbArc
 50
90.023724
 51
179.976277
  0
LINE
  5
399
100
AcDbEntity
  8
0
 62
     7
 48
0.01875
100
AcDbLine
 10
23.403149
 20
457.809156
 30
0.0
 11
23.403149
 21
457.059156
 31
0.0
210
0.0
220
0.0
230
1.0
  0
ARC
  5
39A
100
AcDbEntity
  8
0
 62
     7
100
AcDbCircle
 10
23.403668
 20
456.558638
 30
0.0
 40
1.250518
210
0.0
220
0.0
230
1.0
100
AcDbArc
 50
90.023724
 51
179.976277
  0
LINE
  5
39B
100
AcDbEntity
  8
0
 62
     7
 48
0.00625
100
AcDbLine
 10
22.153149
 20
456.309156
 30
0.0
 11
22.153149
 21
456.559156
 31
0.0
210
0.0
220
0.0
230
1.0
  0
LINE
  5
39C
100
AcDbEntity
  8
0
 62
     7
 48
0.0125
100
AcDbLine
 10
21.653149
 20
456.309156
 30
0.0
 11
22.153149
 21
456.309156
 31
0.0
210
0.0
220
0.0
230
1.0
  0
LINE
  5
39D
100
AcDbEntity
  8
0
 62
     7
 48
0.01875
100
AcDbLine
 10
21.653149
 20
455.559156
 30
0.0
 11
21.653149
 21
456.309156
 31
0.0
210
0.0
220
0.0
230
1.0
  0
LINE
  5
39E
100
AcDbEntity
  8
0
 62
     7
 48
0.0125
100
AcDbLine
 10
22.153149
 20
455.559156
 30
0.0
 11
21.653149
 21
455.559156
 31
0.0
210
0.0
220
0.0
230
1.0
  0
LINE
  5
39F
100
AcDbEntity
  8
0
 62
     7
 48
0.06875
100
AcDbLine
 10
22.153149
 20
452.809156
 30
0.0
 11
22.153149
 21
455.559156
 31
0.0
210
0.0
220
0.0
230
1.0
  0
LINE
  5
3A0
100
AcDbEntity
  8
0
 62
     7
 48
0.01875
100
AcDbLine
 10
22.903149
 20
452.809156
 30
0.0
 11
22.153149
 21
452.809156
 31
0.0
210
0.0
220
0.0
230
1.0
  0
LINE
  5
3A1
100
AcDbEntity
  8
0
 62
     7
 48
0.06875
100
AcDbLine
 10
22.903149
 20
455.559156
 30
0.0
 11
22.903149
 21
452.809156
 31
0.0
210
0.0
220
0.0
230
1.0
  0
LINE
  5
3A2
100
AcDbEntity
  8
0
 62
     7
 48
0.0125
100
AcDbLine
 10
23.403149
 20
455.559156
 30
0.0
 11
22.903149
 21
455.559156
 31
0.0
210
0.0
220
0.0
230
1.0
  0
LINE
  5
3A3
100
AcDbEntity
  8
0
 62
     7
 48
0.01875
100
AcDbLine
 10
23.403149
 20
456.309156
 30
0.0
 11
23.403149
 21
455.559156
 31
0.0
210
0.0
220
0.0
230
1.0
  0
LINE
  5
3A4
100
AcDbEntity
  8
0
 62
     7
 48
0.0125
100
AcDbLine
 10
22.903149
 20
456.309156
 30
0.0
 11
23.403149
 21
456.309156
 31
0.0
210
0.0
220
0.0
230
1.0
  0
LINE
  5
3A5
100
AcDbEntity
  8
0
 62
     7
 48
0.00625
100
AcDbLine
 10
22.903149
 20
456.559156
 30
0.0
 11
22.903149
 21
456.309156
 31
0.0
210
0.0
220
0.0
230
1.0
  0
ARC
  5
3A6
100
AcDbEntity
  8
0
 62
     7
100
AcDbCircle
 10
23.403355
 20
456.558949
 30
0.0
 40
0.500207
210
0.0
220
0.0
230
1.0
100
AcDbArc
 50
90.023724
 51
179.976277
  0
CIRCLE
  5
3A7
100
AcDbEntity
  8
0
 62
     7
100
AcDbCircle
 10
-42.346851
 20
455.559156
 30
0.0
 40
1.75
210
0.0
220
0.0
230
1.0
  0
POLYLINE
  5
3A8
100
AcDbEntity
  8
0
 62
     7
100
AcDb2dPolyline
 66
     1
 10
0.0
 20
0.0
 30
0.0
 70
     1
 71
   193
  0
VERTEX
  5
3A9
100
AcDbEntity
  8
0
100
AcDbVertex
100
AcDb2dVertex
 10
13.653149
 20
447.809156
 30
0.0
  0
VERTEX
  5
3AA
100
AcDbEntity
  8
0
100
AcDbVertex
100
AcDb2dVertex
 10
13.657152
 20
447.709142
 30
0.0
  0
VERTEX
  5
3AB
100
AcDbEntity
  8
0
100
AcDbVertex
100
AcDb2dVertex
 10
13.669172
 20
447.609171
 30
0.0
  0
VERTEX
  5
3AC
100
AcDbEntity
  8
0
100
AcDbVertex
100
AcDb2dVertex
 10
13.689278
 20
447.509166
 30
0.0
  0
VERTEX
  5
3AD
100
AcDbEntity
  8
0
100
AcDbVertex
100
AcDb2dVertex
 10
13.717592
 20
447.409068
 30
0.0
  0
VERTEX
  5
3AE
100
AcDbEntity
  8
0
100
AcDbVertex
100
AcDb2dVertex
 10
13.754299
 20
447.308837
 30
0.0
  0
VERTEX
  5
3AF
100
AcDbEntity
  8
0
100
AcDbVertex
100
AcDb2dVertex
 10
13.799629
 20
447.20846
 30
0.0
  0
VERTEX
  5
3B0
100
AcDbEntity
  8
0
100
AcDbVertex
100
AcDb2dVertex
 10
13.853851
 20
447.107952
 30
0.0
  0
VERTEX
  5
3B1
100
AcDbEntity
  8
0
100
AcDbVertex
100
AcDb2dVertex
 10
13.917269
 20
447.007369
 30
0.0
  0
VERTEX
  5
3B2
100
AcDbEntity
  8
0
100
AcDbVertex
100
AcDb2dVertex
 10
13.990206
 20
446.906802
 30
0.0
  0
VERTEX
  5
3B3
100
AcDbEntity
  8
0
100
AcDbVertex
100
AcDb2dVertex
 10
14.072996
 20
446.806384
 30
0.0
  0
VERTEX
  5
3B4
100
AcDbEntity
  8
0
100
AcDbVertex
100
AcDb2dVertex
 10
14.165972
 20
446.706291
 30
0.0
  0
VERTEX
  5
3B5
100
AcDbEntity
  8
0
100
AcDbVertex
100
AcDb2dVertex
 10
14.269455
 20
446.606738
 30
0.0
  0
VERTEX
  5
3B6
100
AcDbEntity
  8
0
100
AcDbVertex
100
AcDb2dVertex
 10
14.383745
 20
446.507984
 30
0.0
  0
VERTEX
  5
3B7
100
AcDbEntity
  8
0
100
AcDbVertex
100
AcDb2dVertex
 10
14.509104
 20
446.410328
 30
0.0
  0
VERTEX
  5
3B8
100
AcDbEntity
  8
0
100
AcDbVertex
100
AcDb2dVertex
 10
14.645748
 20
446.314103
 30
0.0
  0
VERTEX
  5
3B9
100
AcDbEntity
  8
0
100
AcDbVertex
100
AcDb2dVertex
 10
14.79384
 20
446.21968
 30
0.0
  0
VERTEX
  5
3BA
100
AcDbEntity
  8
0
100
AcDbVertex
100
AcDb2dVertex
 10
14.953478
 20
446.127457
 30
0.0
  0
VERTEX
  5
3BB
100
AcDbEntity
  8
0
100
AcDbVertex
100
AcDb2dVertex
 10
15.124678
 20
446.037864
 30
0.0
  0
VERTEX
  5
3BC
100
AcDbEntity
  8
0
100
AcDbVertex
100
AcDb2dVertex
 10
15.307379
 20
445.951347
 30
0.0
  0
VERTEX
  5
3BD
100
AcDbEntity
  8
0
100
AcDbVertex
100
AcDb2dVertex
 10
15.501423
 20
445.868368
 30
0.0
  0
VERTEX
  5
3BE
100
AcDbEntity
  8
0
100
AcDbVertex
100
AcDb2dVertex
 10
15.706562
 20
445.789402
 30
0.0
  0
VERTEX
  5
3BF
100
AcDbEntity
  8
0
100
AcDbVertex
100
AcDb2dVertex
 10
15.922442
 20
445.714924
 30
0.0
  0
VERTEX
  5
3C0
100
AcDbEntity
  8
0
100
AcDbVertex
100
AcDb2dVertex
 10
16.148604
 20
445.645406
 30
0.0
  0
VERTEX
  5
3C1
100
AcDbEntity
  8
0
100
AcDbVertex
100
AcDb2dVertex
 10
16.384485
 20
445.581311
 30
0.0
  0
VERTEX
  5
3C2
100
AcDbEntity
  8
0
100
AcDbVertex
100
AcDb2dVertex
 10
16.629423
 20
445.523082
 30
0.0
  0
VERTEX
  5
3C3
100
AcDbEntity
  8
0
100
AcDbVertex
100
AcDb2dVertex
 10
16.882647
 20
445.471138
 30
0.0
  0
VERTEX
  5
3C4
100
AcDbEntity
  8
0
100
AcDbVertex
100
AcDb2dVertex
 10
17.143292
 20
445.425864
 30
0.0
  0
VERTEX
  5
3C5
100
AcDbEntity
  8
0
100
AcDbVertex
100
AcDb2dVertex
 10
17.410406
 20
445.387607
 30
0.0
  0
VERTEX
  5
3C6
100
AcDbEntity
  8
0
100
AcDbVertex
100
AcDb2dVertex
 10
17.682959
 20
445.356671
 30
0.0
  0
VERTEX
  5
3C7
100
AcDbEntity
  8
0
100
AcDbVertex
100
AcDb2dVertex
 10
17.959845
 20
445.333306
 30
0.0
  0
VERTEX
  5
3C8
100
AcDbEntity
  8
0
100
AcDbVertex
100
AcDb2dVertex
 10
18.239908
 20
445.317709
 30
0.0
  0
VERTEX
  5
3C9
100
AcDbEntity
  8
0
100
AcDbVertex
100
AcDb2dVertex
 10
18.521944
 20
445.310016
 30
0.0
  0
VERTEX
  5
3CA
100
AcDbEntity
  8
0
100
AcDbVertex
100
AcDb2dVertex
 10
18.804728
 20
445.310305
 30
0.0
  0
VERTEX
  5
3CB
100
AcDbEntity
  8
0
100
AcDbVertex
100
AcDb2dVertex
 10
18.945986
 20
445.313448
 30
0.0
  0
VERTEX
  5
3CC
100
AcDbEntity
  8
0
100
AcDbVertex
100
AcDb2dVertex
 10
19.087011
 20
445.318585
 30
0.0
  0
VERTEX
  5
3CD
100
AcDbEntity
  8
0
100
AcDbVertex
100
AcDb2dVertex
 10
19.227516
 20
445.325705
 30
0.0
  0
VERTEX
  5
3CE
100
AcDbEntity
  8
0
100
AcDbVertex
100
AcDb2dVertex
 10
19.367561
 20
445.334807
 30
0.0
  0
VERTEX
  5
3CF
100
AcDbEntity
  8
0
100
AcDbVertex
100
AcDb2dVertex
 10
19.506699
 20
445.345853
 30
0.0
  0
VERTEX
  5
3D0
100
AcDbEntity
  8
0
100
AcDbVertex
100
AcDb2dVertex
 10
19.645157
 20
445.358854
 30
0.0
  0
VERTEX
  5
3D1
100
AcDbEntity
  8
0
100
AcDbVertex
100
AcDb2dVertex
 10
19.782332
 20
445.373743
 30
0.0
  0
VERTEX
  5
3D2
100
AcDbEntity
  8
0
100
AcDbVertex
100
AcDb2dVertex
 10
19.918613
 20
445.390551
 30
0.0
  0
VERTEX
  5
3D3
100
AcDbEntity
  8
0
100
AcDbVertex
100
AcDb2dVertex
 10
20.053253
 20
445.409171
 30
0.0
  0
VERTEX
  5
3D4
100
AcDbEntity
  8
0
100
AcDbVertex
100
AcDb2dVertex
 10
20.1868
 20
445.429664
 30
0.0
  0
VERTEX
  5
3D5
100
AcDbEntity
  8
0
100
AcDbVertex
100
AcDb2dVertex
 10
20.318363
 20
445.451876
 30
0.0
  0
VERTEX
  5
3D6
100
AcDbEntity
  8
0
100
AcDbVertex
100
AcDb2dVertex
 10
20.448641
 20
445.475907
 30
0.0
  0
VERTEX
  5
3D7
100
AcDbEntity
  8
0
100
AcDbVertex
100
AcDb2dVertex
 10
20.576624
 20
445.501547
 30
0.0
  0
VERTEX
  5
3D8
100
AcDbEntity
  8
0
100
AcDbVertex
100
AcDb2dVertex
 10
20.703144
 20
445.528941
 30
0.0
  0
VERTEX
  5
3D9
100
AcDbEntity
  8
0
100
AcDbVertex
100
AcDb2dVertex
 10
20.827087
 20
445.557823
 30
0.0
  0
VERTEX
  5
3DA
100
AcDbEntity
  8
0
100
AcDbVertex
100
AcDb2dVertex
 10
20.949402
 20
445.588389
 30
0.0
  0
VERTEX
  5
3DB
100
AcDbEntity
  8
0
100
AcDbVertex
100
AcDb2dVertex
 10
21.068882
 20
445.620308
 30
0.0
  0
VERTEX
  5
3DC
100
AcDbEntity
  8
0
100
AcDbVertex
100
AcDb2dVertex
 10
21.186592
 20
445.653833
 30
0.0
  0
VERTEX
  5
3DD
100
AcDbEntity
  8
0
100
AcDbVertex
100
AcDb2dVertex
 10
21.301251
 20
445.688569
 30
0.0
  0
VERTEX
  5
3DE
100
AcDbEntity
  8
0
100
AcDbVertex
100
AcDb2dVertex
 10
21.414005
 20
445.724829
 30
0.0
  0
VERTEX
  5
3DF
100
AcDbEntity
  8
0
100
AcDbVertex
100
AcDb2dVertex
 10
21.523529
 20
445.762151
 30
0.0
  0
VERTEX
  5
3E0
100
AcDbEntity
  8
0
100
AcDbVertex
100
AcDb2dVertex
 10
21.631035
 20
445.800911
 30
0.0
  0
VERTEX
  5
3E1
100
AcDbEntity
  8
0
100
AcDbVertex
100
AcDb2dVertex
 10
21.735161
 20
445.840578
 30
0.0
  0
VERTEX
  5
3E2
100
AcDbEntity
  8
0
100
AcDbVertex
100
AcDb2dVertex
 10
21.837174
 20
445.881593
 30
0.0
  0
VERTEX
  5
3E3
100
AcDbEntity
  8
0
100
AcDbVertex
100
AcDb2dVertex
 10
21.9357
 20
445.923362
 30
0.0
  0
VERTEX
  5
3E4
100
AcDbEntity
  8
0
100
AcDbVertex
100
AcDb2dVertex
 10
22.032032
 20
445.96639
 30
0.0
  0
VERTEX
  5
3E5
100
AcDbEntity
  8
0
100
AcDbVertex
100
AcDb2dVertex
 10
22.124802
 20
446.010016
 30
0.0
  0
VERTEX
  5
3E6
100
AcDbEntity
  8
0
100
AcDbVertex
100
AcDb2dVertex
 10
22.215321
 20
446.054809
 30
0.0
  0
VERTEX
  5
3E7
100
AcDbEntity
  8
0
100
AcDbVertex
100
AcDb2dVertex
 10
22.302239
 20
446.100052
 30
0.0
  0
VERTEX
  5
3E8
100
AcDbEntity
  8
0
100
AcDbVertex
100
AcDb2dVertex
 10
22.386856
 20
446.14637
 30
0.0
  0
VERTEX
  5
3E9
100
AcDbEntity
  8
0
100
AcDbVertex
100
AcDb2dVertex
 10
22.467865
 20
446.192993
 30
0.0
  0
VERTEX
  5
3EA
100
AcDbEntity
  8
0
100
AcDbVertex
100
AcDb2dVertex
 10
22.546551
 20
446.240603
 30
0.0
  0
VERTEX
  5
3EB
100
AcDbEntity
  8
0
100
AcDbVertex
100
AcDb2dVertex
 10
22.621647
 20
446.288381
 30
0.0
  0
VERTEX
  5
3EC
100
AcDbEntity
  8
0
100
AcDbVertex
100
AcDb2dVertex
 10
22.694401
 20
446.337059
 30
0.0
  0
VERTEX
  5
3ED
100
AcDbEntity
  8
0
100
AcDbVertex
100
AcDb2dVertex
 10
22.763622
 20
446.38578
 30
0.0
  0
VERTEX
  5
3EE
100
AcDbEntity
  8
0
100
AcDbVertex
100
AcDb2dVertex
 10
22.830498
 20
446.435315
 30
0.0
  0
VERTEX
  5
3EF
100
AcDbEntity
  8
0
100
AcDbVertex
100
AcDb2dVertex
 10
22.893917
 20
446.48478
 30
0.0
  0
VERTEX
  5
3F0
100
AcDbEntity
  8
0
100
AcDbVertex
100
AcDb2dVertex
 10
22.954994
 20
446.534977
 30
0.0
  0
VERTEX
  5
3F1
100
AcDbEntity
  8
0
100
AcDbVertex
100
AcDb2dVertex
 10
23.012714
 20
446.585005
 30
0.0
  0
VERTEX
  5
3F2
100
AcDbEntity
  8
0
100
AcDbVertex
100
AcDb2dVertex
 10
23.068108
 20
446.635687
 30
0.0
  0
VERTEX
  5
3F3
100
AcDbEntity
  8
0
100
AcDbVertex
100
AcDb2dVertex
 10
23.120262
 20
446.686115
 30
0.0
  0
VERTEX
  5
3F4
100
AcDbEntity
  8
0
100
AcDbVertex
100
AcDb2dVertex
 10
23.170113
 20
446.737122
 30
0.0
  0
VERTEX
  5
3F5
100
AcDbEntity
  8
0
100
AcDbVertex
100
AcDb2dVertex
 10
23.216854
 20
446.787809
 30
0.0
  0
VERTEX
  5
3F6
100
AcDbEntity
  8
0
100
AcDbVertex
100
AcDb2dVertex
 10
23.261318
 20
446.839004
 30
0.0
  0
VERTEX
  5
3F7
100
AcDbEntity
  8
0
100
AcDbVertex
100
AcDb2dVertex
 10
23.302811
 20
446.889828
 30
0.0
  0
VERTEX
  5
3F8
100
AcDbEntity
  8
0
100
AcDbVertex
100
AcDb2dVertex
 10
23.34206
 20
446.941096
 30
0.0
  0
VERTEX
  5
3F9
100
AcDbEntity
  8
0
100
AcDbVertex
100
AcDb2dVertex
 10
23.378479
 20
446.991959
 30
0.0
  0
VERTEX
  5
3FA
100
AcDbEntity
  8
0
100
AcDbVertex
100
AcDb2dVertex
 10
23.412693
 20
447.043204
 30
0.0
  0
VERTEX
  5
3FB
100
AcDbEntity
  8
0
100
AcDbVertex
100
AcDb2dVertex
 10
23.444222
 20
447.094028
 30
0.0
  0
VERTEX
  5
3FC
100
AcDbEntity
  8
0
100
AcDbVertex
100
AcDb2dVertex
 10
23.473576
 20
447.145178
 30
0.0
  0
VERTEX
  5
3FD
100
AcDbEntity
  8
0
100
AcDbVertex
100
AcDb2dVertex
 10
23.500385
 20
447.195909
 30
0.0
  0
VERTEX
  5
3FE
100
AcDbEntity
  8
0
100
AcDbVertex
100
AcDb2dVertex
 10
23.525059
 20
447.246911
 30
0.0
  0
VERTEX
  5
3FF
100
AcDbEntity
  8
0
100
AcDbVertex
100
AcDb2dVertex
 10
23.547318
 20
447.297515
 30
0.0
  0
VERTEX
  5
400
100
AcDbEntity
  8
0
100
AcDbVertex
100
AcDb2dVertex
 10
23.567474
 20
447.348339
 30
0.0
  0
VERTEX
  5
401
100
AcDbEntity
  8
0
100
AcDbVertex
100
AcDb2dVertex
 10
23.585331
 20
447.3988
 30
0.0
  0
VERTEX
  5
402
100
AcDbEntity
  8
0
100
AcDbVertex
100
AcDb2dVertex
 10
23.601116
 20
447.449433
 30
0.0
  0
VERTEX
  5
403
100
AcDbEntity
  8
0
100
AcDbVertex
100
AcDb2dVertex
 10
23.614708
 20
447.499753
 30
0.0
  0
VERTEX
  5
404
100
AcDbEntity
  8
0
100
AcDbVertex
100
AcDb2dVertex
 10
23.626255
 20
447.5502
 30
0.0
  0
VERTEX
  5
405
100
AcDbEntity
  8
0
100
AcDbVertex
100
AcDb2dVertex
 10
23.635685
 20
447.600396
 30
0.0
  0
VERTEX
  5
406
100
AcDbEntity
  8
0
100
AcDbVertex
100
AcDb2dVertex
 10
23.643093
 20
447.650676
 30
0.0
  0
VERTEX
  5
407
100
AcDbEntity
  8
0
100
AcDbVertex
100
AcDb2dVertex
 10
23.648449
 20
447.700773
 30
0.0
  0
VERTEX
  5
408
100
AcDbEntity
  8
0
100
AcDbVertex
100
AcDb2dVertex
 10
23.651791
 20
447.750913
 30
0.0
  0
VERTEX
  5
409
100
AcDbEntity
  8
0
100
AcDbVertex
100
AcDb2dVertex
 10
23.653122
 20
447.800949
 30
0.0
  0
VERTEX
  5
40A
100
AcDbEntity
  8
0
100
AcDbVertex
100
AcDb2dVertex
 10
23.652451
 20
447.850987
 30
0.0
  0
VERTEX
  5
40B
100
AcDbEntity
  8
0
100
AcDbVertex
100
AcDb2dVertex
 10
23.645096
 20
447.950974
 30
0.0
  0
VERTEX
  5
40C
100
AcDbEntity
  8
0
100
AcDbVertex
100
AcDb2dVertex
 10
23.629707
 20
448.050952
 30
0.0
  0
VERTEX
  5
40D
100
AcDbEntity
  8
0
100
AcDbVertex
100
AcDb2dVertex
 10
23.60619
 20
448.150988
 30
0.0
  0
VERTEX
  5
40E
100
AcDbEntity
  8
0
100
AcDbVertex
100
AcDb2dVertex
 10
23.57439
 20
448.251138
 30
0.0
  0
VERTEX
  5
40F
100
AcDbEntity
  8
0
100
AcDbVertex
100
AcDb2dVertex
 10
23.534107
 20
448.351431
 30
0.0
  0
VERTEX
  5
410
100
AcDbEntity
  8
0
100
AcDbVertex
100
AcDb2dVertex
 10
23.485092
 20
448.451867
 30
0.0
  0
VERTEX
  5
411
100
AcDbEntity
  8
0
100
AcDbVertex
100
AcDb2dVertex
 10
23.427063
 20
448.552415
 30
0.0
  0
VERTEX
  5
412
100
AcDbEntity
  8
0
100
AcDbVertex
100
AcDb2dVertex
 10
23.359707
 20
448.653004
 30
0.0
  0
VERTEX
  5
413
100
AcDbEntity
  8
0
100
AcDbVertex
100
AcDb2dVertex
 10
23.282688
 20
448.753527
 30
0.0
  0
VERTEX
  5
414
100
AcDbEntity
  8
0
100
AcDbVertex
100
AcDb2dVertex
 10
23.195683
 20
448.853833
 30
0.0
  0
VERTEX
  5
415
100
AcDbEntity
  8
0
100
AcDbVertex
100
AcDb2dVertex
 10
23.098351
 20
448.953729
 30
0.0
  0
VERTEX
  5
416
100
AcDbEntity
  8
0
100
AcDbVertex
100
AcDb2dVertex
 10
22.990383
 20
449.052982
 30
0.0
  0
VERTEX
  5
417
100
AcDbEntity
  8
0
100
AcDbVertex
100
AcDb2dVertex
 10
22.871494
 20
449.151315
 30
0.0
  0
VERTEX
  5
418
100
AcDbEntity
  8
0
100
AcDbVertex
100
AcDb2dVertex
 10
22.74144
 20
449.248417
 30
0.0
  0
VERTEX
  5
419
100
AcDbEntity
  8
0
100
AcDbVertex
100
AcDb2dVertex
 10
22.600025
 20
449.343934
 30
0.0
  0
VERTEX
  5
41A
100
AcDbEntity
  8
0
100
AcDbVertex
100
AcDb2dVertex
 10
22.447109
 20
449.437487
 30
0.0
  0
VERTEX
  5
41B
100
AcDbEntity
  8
0
100
AcDbVertex
100
AcDb2dVertex
 10
22.282635
 20
449.528663
 30
0.0
  0
VERTEX
  5
41C
100
AcDbEntity
  8
0
100
AcDbVertex
100
AcDb2dVertex
 10
22.106613
 20
449.617026
 30
0.0
  0
VERTEX
  5
41D
100
AcDbEntity
  8
0
100
AcDbVertex
100
AcDb2dVertex
 10
21.919148
 20
449.702121
 30
0.0
  0
VERTEX
  5
41E
100
AcDbEntity
  8
0
100
AcDbVertex
100
AcDb2dVertex
 10
21.720425
 20
449.783479
 30
0.0
  0
VERTEX
  5
41F
100
AcDbEntity
  8
0
100
AcDbVertex
100
AcDb2dVertex
 10
21.510746
 20
449.860627
 30
0.0
  0
VERTEX
  5
420
100
AcDbEntity
  8
0
100
AcDbVertex
100
AcDb2dVertex
 10
21.290505
 20
449.933088
 30
0.0
  0
VERTEX
  5
421
100
AcDbEntity
  8
0
100
AcDbVertex
100
AcDb2dVertex
 10
21.060204
 20
450.000393
 30
0.0
  0
VERTEX
  5
422
100
AcDbEntity
  8
0
100
AcDbVertex
100
AcDb2dVertex
 10
20.82045
 20
450.062088
 30
0.0
  0
VERTEX
  5
423
100
AcDbEntity
  8
0
100
AcDbVertex
100
AcDb2dVertex
 10
20.571949
 20
450.117738
 30
0.0
  0
VERTEX
  5
424
100
AcDbEntity
  8
0
100
AcDbVertex
100
AcDb2dVertex
 10
20.315512
 20
450.166938
 30
0.0
  0
VERTEX
  5
425
100
AcDbEntity
  8
0
100
AcDbVertex
100
AcDb2dVertex
 10
20.05204
 20
450.209317
 30
0.0
  0
VERTEX
  5
426
100
AcDbEntity
  8
0
100
AcDbVertex
100
AcDb2dVertex
 10
19.78252
 20
450.244547
 30
0.0
  0
VERTEX
  5
427
100
AcDbEntity
  8
0
100
AcDbVertex
100
AcDb2dVertex
 10
19.508019
 20
450.272345
 30
0.0
  0
VERTEX
  5
428
100
AcDbEntity
  8
0
100
AcDbVertex
100
AcDb2dVertex
 10
19.22966
 20
450.292482
 30
0.0
  0
VERTEX
  5
429
100
AcDbEntity
  8
0
100
AcDbVertex
100
AcDb2dVertex
 10
18.948624
 20
450.304787
 30
0.0
  0
VERTEX
  5
42A
100
AcDbEntity
  8
0
100
AcDbVertex
100
AcDb2dVertex
 10
18.666124
 20
450.309148
 30
0.0
  0
VERTEX
  5
42B
100
AcDbEntity
  8
0
100
AcDbVertex
100
AcDb2dVertex
 10
18.3834
 20
450.305515
 30
0.0
  0
VERTEX
  5
42C
100
AcDbEntity
  8
0
100
AcDbVertex
100
AcDb2dVertex
 10
18.24238
 20
450.300705
 30
0.0
  0
VERTEX
  5
42D
100
AcDbEntity
  8
0
100
AcDbVertex
100
AcDb2dVertex
 10
18.10169
 20
450.293904
 30
0.0
  0
VERTEX
  5
42E
100
AcDbEntity
  8
0
100
AcDbVertex
100
AcDb2dVertex
 10
17.961685
 20
450.285135
 30
0.0
  0
VERTEX
  5
42F
100
AcDbEntity
  8
0
100
AcDbVertex
100
AcDb2dVertex
 10
17.822229
 20
450.274393
 30
0.0
  0
VERTEX
  5
430
100
AcDbEntity
  8
0
100
AcDbVertex
100
AcDb2dVertex
 10
17.683842
 20
450.261728
 30
0.0
  0
VERTEX
  5
431
100
AcDbEntity
  8
0
100
AcDbVertex
100
AcDb2dVertex
 10
17.546223
 20
450.247122
 30
0.0
  0
VERTEX
  5
432
100
AcDbEntity
  8
0
100
AcDbVertex
100
AcDb2dVertex
 10
17.41004
 20
450.230658
 30
0.0
  0
VERTEX
  5
433
100
AcDbEntity
  8
0
100
AcDbVertex
100
AcDb2dVertex
 10
17.274836
 20
450.212292
 30
0.0
  0
VERTEX
  5
434
100
AcDbEntity
  8
0
100
AcDbVertex
100
AcDb2dVertex
 10
17.141419
 20
450.192151
 30
0.0
  0
VERTEX
  5
435
100
AcDbEntity
  8
0
100
AcDbVertex
100
AcDb2dVertex
 10
17.009176
 20
450.17016
 30
0.0
  0
VERTEX
  5
436
100
AcDbEntity
  8
0
100
AcDbVertex
100
AcDb2dVertex
 10
16.879051
 20
450.146493
 30
0.0
  0
VERTEX
  5
437
100
AcDbEntity
  8
0
100
AcDbVertex
100
AcDb2dVertex
 10
16.750286
 20
450.121033
 30
0.0
  0
VERTEX
  5
438
100
AcDbEntity
  8
0
100
AcDbVertex
100
AcDb2dVertex
 10
16.62394
 20
450.094014
 30
0.0
  0
VERTEX
  5
439
100
AcDbEntity
  8
0
100
AcDbVertex
100
AcDb2dVertex
 10
16.499126
 20
450.065269
 30
0.0
  0
VERTEX
  5
43A
100
AcDbEntity
  8
0
100
AcDbVertex
100
AcDb2dVertex
 10
16.377003
 20
450.035092
 30
0.0
  0
VERTEX
  5
43B
100
AcDbEntity
  8
0
100
AcDbVertex
100
AcDb2dVertex
 10
16.256567
 20
450.003261
 30
0.0
  0
VERTEX
  5
43C
100
AcDbEntity
  8
0
100
AcDbVertex
100
AcDb2dVertex
 10
16.139061
 20
449.970137
 30
0.0
  0
VERTEX
  5
43D
100
AcDbEntity
  8
0
100
AcDbVertex
100
AcDb2dVertex
 10
16.023382
 20
449.93544
 30
0.0
  0
VERTEX
  5
43E
100
AcDbEntity
  8
0
100
AcDbVertex
100
AcDb2dVertex
 10
15.910837
 20
449.899594
 30
0.0
  0
VERTEX
  5
43F
100
AcDbEntity
  8
0
100
AcDbVertex
100
AcDb2dVertex
 10
15.800243
 20
449.862259
 30
0.0
  0
VERTEX
  5
440
100
AcDbEntity
  8
0
100
AcDbVertex
100
AcDb2dVertex
 10
15.692949
 20
449.823928
 30
0.0
  0
VERTEX
  5
441
100
AcDbEntity
  8
0
100
AcDbVertex
100
AcDb2dVertex
 10
15.587715
 20
449.784195
 30
0.0
  0
VERTEX
  5
442
100
AcDbEntity
  8
0
100
AcDbVertex
100
AcDb2dVertex
 10
15.485909
 20
449.743619
 30
0.0
  0
VERTEX
  5
443
100
AcDbEntity
  8
0
100
AcDbVertex
100
AcDb2dVertex
 10
15.386252
 20
449.701732
 30
0.0
  0
VERTEX
  5
444
100
AcDbEntity
  8
0
100
AcDbVertex
100
AcDb2dVertex
 10
15.290117
 20
449.659157
 30
0.0
  0
VERTEX
  5
445
100
AcDbEntity
  8
0
100
AcDbVertex
100
AcDb2dVertex
 10
15.196201
 20
449.615361
 30
0.0
  0
VERTEX
  5
446
100
AcDbEntity
  8
0
100
AcDbVertex
100
AcDb2dVertex
 10
15.105869
 20
449.57103
 30
0.0
  0
VERTEX
  5
447
100
AcDbEntity
  8
0
100
AcDbVertex
100
AcDb2dVertex
 10
15.017811
 20
449.525571
 30
0.0
  0
VERTEX
  5
448
100
AcDbEntity
  8
0
100
AcDbVertex
100
AcDb2dVertex
 10
14.933359
 20
449.479723
 30
0.0
  0
VERTEX
  5
449
100
AcDbEntity
  8
0
100
AcDbVertex
100
AcDb2dVertex
 10
14.851221
 20
449.432836
 30
0.0
  0
VERTEX
  5
44A
100
AcDbEntity
  8
0
100
AcDbVertex
100
AcDb2dVertex
 10
14.772686
 20
449.385703
 30
0.0
  0
VERTEX
  5
44B
100
AcDbEntity
  8
0
100
AcDbVertex
100
AcDb2dVertex
 10
14.696486
 20
449.33762
 30
0.0
  0
VERTEX
  5
44C
100
AcDbEntity
  8
0
100
AcDbVertex
100
AcDb2dVertex
 10
14.62385
 20
449.289423
 30
0.0
  0
VERTEX
  5
44D
100
AcDbEntity
  8
0
100
AcDbVertex
100
AcDb2dVertex
 10
14.553564
 20
449.240362
 30
0.0
  0
VERTEX
  5
44E
100
AcDbEntity
  8
0
100
AcDbVertex
100
AcDb2dVertex
 10
14.486778
 20
449.191307
 30
0.0
  0
VERTEX
  5
44F
100
AcDbEntity
  8
0
100
AcDbVertex
100
AcDb2dVertex
 10
14.42234
 20
449.141473
 30
0.0
  0
VERTEX
  5
450
100
AcDbEntity
  8
0
100
AcDbVertex
100
AcDb2dVertex
 10
14.361319
 20
449.091751
 30
0.0
  0
VERTEX
  5
451
100
AcDbEntity
  8
0
100
AcDbVertex
100
AcDb2dVertex
 10
14.302633
 20
449.041331
 30
0.0
  0
VERTEX
  5
452
100
AcDbEntity
  8
0
100
AcDbVertex
100
AcDb2dVertex
 10
14.247257
 20
448.991116
 30
0.0
  0
VERTEX
  5
453
100
AcDbEntity
  8
0
100
AcDbVertex
100
AcDb2dVertex
 10
14.194201
 20
448.940281
 30
0.0
  0
VERTEX
  5
454
100
AcDbEntity
  8
0
100
AcDbVertex
100
AcDb2dVertex
 10
14.144329
 20
448.889728
 30
0.0
  0
VERTEX
  5
455
100
AcDbEntity
  8
0
100
AcDbVertex
100
AcDb2dVertex
 10
14.09675
 20
448.838627
 30
0.0
  0
VERTEX
  5
456
100
AcDbEntity
  8
0
100
AcDbVertex
100
AcDb2dVertex
 10
14.052227
 20
448.787869
 30
0.0
  0
VERTEX
  5
457
100
AcDbEntity
  8
0
100
AcDbVertex
100
AcDb2dVertex
 10
14.009964
 20
448.73663
 30
0.0
  0
VERTEX
  5
458
100
AcDbEntity
  8
0
100
AcDbVertex
100
AcDb2dVertex
 10
13.970614
 20
448.685779
 30
0.0
  0
VERTEX
  5
459
100
AcDbEntity
  8
0
100
AcDbVertex
100
AcDb2dVertex
 10
13.933493
 20
448.634511
 30
0.0
  0
VERTEX
  5
45A
100
AcDbEntity
  8
0
100
AcDbVertex
100
AcDb2dVertex
 10
13.899139
 20
448.583656
 30
0.0
  0
VERTEX
  5
45B
100
AcDbEntity
  8
0
100
AcDbVertex
100
AcDb2dVertex
 10
13.86698
 20
448.532444
 30
0.0
  0
VERTEX
  5
45C
100
AcDbEntity
  8
0
100
AcDbVertex
100
AcDb2dVertex
 10
13.837446
 20
448.481652
 30
0.0
  0
VERTEX
  5
45D
100
AcDbEntity
  8
0
100
AcDbVertex
100
AcDb2dVertex
 10
13.810068
 20
448.43056
 30
0.0
  0
VERTEX
  5
45E
100
AcDbEntity
  8
0
100
AcDbVertex
100
AcDb2dVertex
 10
13.785181
 20
448.379879
 30
0.0
  0
VERTEX
  5
45F
100
AcDbEntity
  8
0
100
AcDbVertex
100
AcDb2dVertex
 10
13.762417
 20
448.328949
 30
0.0
  0
VERTEX
  5
460
100
AcDbEntity
  8
0
100
AcDbVertex
100
AcDb2dVertex
 10
13.742016
 20
448.278403
 30
0.0
  0
VERTEX
  5
461
100
AcDbEntity
  8
0
100
AcDbVertex
100
AcDb2dVertex
 10
13.723703
 20
448.227659
 30
0.0
  0
VERTEX
  5
462
100
AcDbEntity
  8
0
100
AcDbVertex
100
AcDb2dVertex
 10
13.707645
 20
448.177258
 30
0.0
  0
VERTEX
  5
463
100
AcDbEntity
  8
0
100
AcDbVertex
100
AcDb2dVertex
 10
13.693647
 20
448.126704
 30
0.0
  0
VERTEX
  5
464
100
AcDbEntity
  8
0
100
AcDbVertex
100
AcDb2dVertex
 10
13.681807
 20
448.076439
 30
0.0
  0
VERTEX
  5
465
100
AcDbEntity
  8
0
100
AcDbVertex
100
AcDb2dVertex
 10
13.672005
 20
448.026065
 30
0.0
  0
VERTEX
  5
466
100
AcDbEntity
  8
0
100
AcDbVertex
100
AcDb2dVertex
 10
13.664284
 20
447.975914
 30
0.0
  0
VERTEX
  5
467
100
AcDbEntity
  8
0
100
AcDbVertex
100
AcDb2dVertex
 10
13.658585
 20
447.925696
 30
0.0
  0
VERTEX
  5
468
100
AcDbEntity
  8
0
100
AcDbVertex
100
AcDb2dVertex
 10
13.654917
 20
447.875629
 30
0.0
  0
VERTEX
  5
469
100
AcDbEntity
  8
0
100
AcDbVertex
100
AcDb2dVertex
 10
13.653256
 20
447.825536
 30
0.0
  0
SEQEND
  5
46A
100
AcDbEntity
  8
0
  0
LINE
  5
46B
100
AcDbEntity
  8
0
 62
     7
 48
0.025
100
AcDbLine
 10
-42.846851
 20
481.209156
 30
0.0
 11
-41.846851
 21
481.209156
 31
0.0
210
0.0
220
0.0
230
1.0
  0
LINE
  5
46C
100
AcDbEntity
  8
0
 62
     7
 48
0.125
100
AcDbLine
 10
-41.846851
 20
481.209156
 30
0.0
 11
-41.846851
 21
476.209156
 31
0.0
210
0.0
220
0.0
230
1.0
  0
LINE
  5
46D
100
AcDbEntity
  8
0
 62
     7
 48
0.025
100
AcDbLine
 10
-41.846851
 20
476.209156
 30
0.0
 11
-42.846851
 21
476.209156
 31
0.0
210
0.0
220
0.0
230
1.0
  0
LINE
  5
46E
100
AcDbEntity
  8
0
 62
     7
 48
0.125
100
AcDbLine
 10
-42.846851
 20
481.209156
 30
0.0
 11
-42.846851
 21
476.209156
 31
0.0
210
0.0
220
0.0
230
1.0
  0
CIRCLE
  5
46F
100
AcDbEntity
  8
0
 62
     7
100
AcDbCircle
 10
-11.346851
 20
468.309152
 30
0.0
 40
18.85
210
0.0
220
0.0
230
1.0
  0
LINE
  5
470
100
AcDbEntity
  8
0
 62
     7
 48
0.026684
100
AcDbLine
 10
0.153149
 20
465.376511
 30
0.0
 11
0.153149
 21
464.309155
 31
0.0
210
0.0
220
0.0
230
1.0
  0
LINE
  5
471
100
AcDbEntity
  8
0
 62
     7
 48
0.146632
100
AcDbLine
 10
0.153149
 20
471.241788
 30
0.0
 11
0.153149
 21
465.376511
 31
0.0
210
0.0
220
0.0
230
1.0
  0
LINE
  5
472
100
AcDbEntity
  8
0
 62
     7
 48
0.026684
100
AcDbLine
 10
0.153149
 20
472.309155
 30
0.0
 11
0.153149
 21
471.241788
 31
0.0
210
0.0
220
0.0
230
1.0
  0
ARC
  5
473
100
AcDbEntity
  8
0
 62
     7
100
AcDbCircle
 10
-0.646851
 20
464.309153
 30
0.0
 40
0.8
210
0.0
220
0.0
230
1.0
100
AcDbArc
 50
270.000001
 51
0.000163
  0
LINE
  5
474
100
AcDbEntity
  8
0
 62
     7
 48
0.0175
100
AcDbLine
 10
-1.346851
 20
463.509155
 30
0.0
 11
-0.646851
 21
463.509155
 31
0.0
210
0.0
220
0.0
230
1.0
  0
LINE
  5
475
100
AcDbEntity
  8
0
 62
     7
100
AcDbLine
 10
-1.346851
 20
463.509155
 30
0.0
 11
-21.346851
 21
463.509155
 31
0.0
210
0.0
220
0.0
230
1.0
  0
LINE
  5
476
100
AcDbEntity
  8
0
 62
     7
 48
0.0175
100
AcDbLine
 10
-21.346851
 20
463.509155
 30
0.0
 11
-22.046851
 21
463.509155
 31
0.0
210
0.0
220
0.0
230
1.0
  0
ARC
  5
477
100
AcDbEntity
  8
0
 62
     7
100
AcDbCircle
 10
-22.046851
 20
464.309153
 30
0.0
 40
0.8
210
0.0
220
0.0
230
1.0
100
AcDbArc
 50
179.999841
 51
270.000001
  0
LINE
  5
478
100
AcDbEntity
  8
0
 62
     7
 48
0.026684
100
AcDbLine
 10
-22.846851
 20
465.376511
 30
0.0
 11
-22.846851
 21
464.309155
 31
0.0
210
0.0
220
0.0
230
1.0
  0
LINE
  5
479
100
AcDbEntity
  8
0
 62
     7
 48
0.146632
100
AcDbLine
 10
-22.846851
 20
471.241788
 30
0.0
 11
-22.846851
 21
465.376511
 31
0.0
210
0.0
220
0.0
230
1.0
  0
LINE
  5
47A
100
AcDbEntity
  8
0
 62
     7
 48
0.026684
100
AcDbLine
 10
-22.846851
 20
472.309155
 30
0.0
 11
-22.846851
 21
471.241788
 31
0.0
210
0.0
220
0.0
230
1.0
  0
ARC
  5
47B
100
AcDbEntity
  8
0
 62
     7
100
AcDbCircle
 10
-22.046851
 20
472.309152
 30
0.0
 40
0.8
210
0.0
220
0.0
230
1.0
100
AcDbArc
 50
90.000003
 51
179.999841
  0
LINE
  5
47C
100
AcDbEntity
  8
0
 62
     7
 48
0.0175
100
AcDbLine
 10
-21.346851
 20
473.109154
 30
0.0
 11
-22.046851
 21
473.109154
 31
0.0
210
0.0
220
0.0
230
1.0
  0
LINE
  5
47D
100
AcDbEntity
  8
0
 62
     7
100
AcDbLine
 10
-1.346851
 20
473.109154
 30
0.0
 11
-21.346851
 21
473.109154
 31
0.0
210
0.0
220
0.0
230
1.0
  0
LINE
  5
47E
100
AcDbEntity
  8
0
 62
     7
 48
0.0175
100
AcDbLine
 10
-1.346851
 20
473.109154
 30
0.0
 11
-0.646851
 21
473.109154
 31
0.0
210
0.0
220
0.0
230
1.0
  0
ARC
  5
47F
100
AcDbEntity
  8
0
 62
     7
100
AcDbCircle
 10
-0.646851
 20
472.309152
 30
0.0
 40
0.8
210
0.0
220
0.0
230
1.0
100
AcDbArc
 50
0.000163
 51
90.000003
  0
ARC
  5
480
100
AcDbEntity
  8
0
 62
     7
100
AcDbCircle
 10
22.77816
 20
478.834186
 30
0.0
 40
1.124987
210
0.0
220
0.0
230
1.0
100
AcDbArc
 50
359.998453
 51
135.001558
  0
LINE
  5
481
100
AcDbEntity
  8
0
 62
     7
 48
0.059375
100
AcDbLine
 10
23.903149
 20
478.834156
 30
0.0
 11
23.903149
 21
476.459156
 31
0.0
210
0.0
220
0.0
230
1.0
  0
LINE
  5
482
100
AcDbEntity
  8
0
 62
     7
 48
0.01875
100
AcDbLine
 10
23.903149
 20
476.459156
 30
0.0
 11
23.153149
 21
476.459156
 31
0.0
210
0.0
220
0.0
230
1.0
  0
CIRCLE
  5
483
100
AcDbEntity
  8
0
 62
     7
100
AcDbCircle
 10
-11.346851
 20
468.309152
 30
0.0
 40
26.450001
210
0.0
220
0.0
230
1.0
  0
CIRCLE
  5
484
100
AcDbEntity
  8
0
 62
     7
100
AcDbCircle
 10
-11.346851
 20
468.309157
 30
0.0
 40
28.450001
210
0.0
220
0.0
230
1.0
  0
CIRCLE
  5
485
100
AcDbEntity
  8
0
 62
     7
100
AcDbCircle
 10
-42.346851
 20
455.559156
 30
0.0
 40
2.943795
210
0.0
220
0.0
230
1.0
  0
INSERT
  5
654
100
AcDbEntity
  8
0
100
AcDbBlockReference
  2
BLOCK0
 10
0.0
 20
0.0
 30
0.0
210
0.0
220
0.0
230
1.0
  0
INSERT
  5
655
100
AcDbEntity
  8
0
100
AcDbBlockReference
  2
BLOCK1
 10
0.0
 20
0.0
 30
0.0
210
0.0
220
0.0
230
1.0
  0
INSERT
  5
656
100
AcDbEntity
  8
0
100
AcDbBlockReference
  2
BLOCK2
 10
0.0
 20
0.0
 30
0.0
210
0.0
220
0.0
230
1.0
  0
INSERT
  5
657
100
AcDbEntity
  8
0
100
AcDbBlockReference
  2
BLOCK3
 10
0.0
 20
0.0
 30
0.0
210
0.0
220
0.0
230
1.0
  0
INSERT
  5
658
100
AcDbEntity
  8
0
100
AcDbBlockReference
  2
BLOCK4
 10
118.961367
 20
457.309103
 30
0.0
210
0.0
220
0.0
230
1.0
  0
INSERT
  5
659
100
AcDbEntity
  8
0
100
AcDbBlockReference
  2
BLOCK5
 10
118.961367
 20
457.309103
 30
0.0
210
0.0
220
0.0
230
1.0
  0
INSERT
  5
65A
100
AcDbEntity
  8
0
100
AcDbBlockReference
  2
BLOCK6
 10
118.961367
 20
457.309103
 30
0.0
210
0.0
220
0.0
230
1.0
  0
INSERT
  5
65B
100
AcDbEntity
  8
0
100
AcDbBlockReference
  2
BLOCK7
 10
118.961367
 20
457.309103
 30
0.0
210
0.0
220
0.0
230
1.0
  0
INSERT
  5
65C
100
AcDbEntity
  8
0
100
AcDbBlockReference
  2
BLOCK8
 10
118.961367
 20
457.309103
 30
0.0
210
0.0
220
0.0
230
1.0
  0
INSERT
  5
65D
100
AcDbEntity
  8
0
100
AcDbBlockReference
  2
BLOCK9
 10
118.961367
 20
457.309103
 30
0.0
210
0.0
220
0.0
230
1.0
  0
INSERT
  5
65E
100
AcDbEntity
  8
0
100
AcDbBlockReference
  2
BLOCK10
 10
118.961367
 20
457.309103
 30
0.0
210
0.0
220
0.0
230
1.0
  0
INSERT
  5
65F
100
AcDbEntity
  8
0
100
AcDbBlockReference
  2
BLOCK11
 10
118.961367
 20
457.309103
 30
0.0
210
0.0
220
0.0
230
1.0
  0
INSERT
  5
660
100
AcDbEntity
  8
0
100
AcDbBlockReference
  2
BLOCK12
 10
118.961367
 20
457.309103
 30
0.0
210
0.0
220
0.0
230
1.0
  0
INSERT
  5
661
100
AcDbEntity
  8
0
100
AcDbBlockReference
  2
BLOCK13
 10
118.961367
 20
457.309103
 30
0.0
210
0.0
220
0.0
230
1.0
  0
INSERT
  5
662
100
AcDbEntity
  8
0
100
AcDbBlockReference
  2
BLOCK14
 10
118.961367
 20
457.309103
 30
0.0
210
0.0
220
0.0
230
1.0
  0
INSERT
  5
663
100
AcDbEntity
  8
0
100
AcDbBlockReference
  2
BLOCK15
 10
118.961367
 20
457.309103
 30
0.0
210
0.0
220
0.0
230
1.0
  0
INSERT
  5
664
100
AcDbEntity
  8
0
100
AcDbBlockReference
  2
BLOCK16
 10
366.650995
 20
457.308991
 30
0.0
210
0.0
220
0.0
230
1.0
  0
INSERT
  5
665
100
AcDbEntity
  8
0
100
AcDbBlockReference
  2
BLOCK17
 10
366.650995
 20
457.308991
 30
0.0
210
0.0
220
0.0
230
1.0
  0
INSERT
  5
666
100
AcDbEntity
  8
0
100
AcDbBlockReference
  2
BLOCK18
 10
366.650995
 20
457.308991
 30
0.0
210
0.0
220
0.0
230
1.0
  0
INSERT
  5
667
100
AcDbEntity
  8
0
100
AcDbBlockReference
  2
BLOCK19
 10
366.650995
 20
457.308991
 30
0.0
210
0.0
220
0.0
230
1.0
  0
INSERT
  5
668
100
AcDbEntity
  8
0
100
AcDbBlockReference
  2
BLOCK20
 10
366.650995
 20
457.308991
 30
0.0
210
0.0
220
0.0
230
1.0
  0
INSERT
  5
669
100
AcDbEntity
  8
0
100
AcDbBlockReference
  2
BLOCK21
 10
366.650995
 20
457.308991
 30
0.0
210
0.0
220
0.0
230
1.0
  0
INSERT
  5
66A
100
AcDbEntity
  8
0
100
AcDbBlockReference
  2
BLOCK22
 10
366.650995
 20
457.308991
 30
0.0
210
0.0
220
0.0
230
1.0
  0
INSERT
  5
66B
100
AcDbEntity
  8
0
100
AcDbBlockReference
  2
BLOCK23
 10
-11.346851
 20
457.309185
 30
0.0
210
0.0
220
0.0
230
1.0
  0
INSERT
  5
66C
100
AcDbEntity
  8
0
100
AcDbBlockReference
  2
BLOCK24
 10
-11.346851
 20
457.309185
 30
0.0
210
0.0
220
0.0
230
1.0
  0
INSERT
  5
66D
100
AcDbEntity
  8
0
100
AcDbBlockReference
  2
BLOCK25
 10
-11.346851
 20
457.309185
 30
0.0
210
0.0
220
0.0
230
1.0
  0
INSERT
  5
66E
100
AcDbEntity
  8
0
100
AcDbBlockReference
  2
BLOCK26
 10
-11.346851
 20
457.309185
 30
0.0
210
0.0
220
0.0
230
1.0
  0
INSERT
  5
66F
100
AcDbEntity
  8
0
100
AcDbBlockReference
  2
BLOCK27
 10
-11.346851
 20
457.309185
 30
0.0
210
0.0
220
0.0
230
1.0
  0
INSERT
  5
670
100
AcDbEntity
  8
0
100
AcDbBlockReference
  2
BLOCK28
 10
-11.346851
 20
457.309185
 30
0.0
210
0.0
220
0.0
230
1.0
  0
INSERT
  5
671
100
AcDbEntity
  8
0
100
AcDbBlockReference
  2
BLOCK29
 10
-11.346851
 20
457.309185
 30
0.0
210
0.0
220
0.0
230
1.0
  0
INSERT
  5
672
100
AcDbEntity
  8
0
100
AcDbBlockReference
  2
BLOCK30
 10
-11.346851
 20
457.309185
 30
0.0
210
0.0
220
0.0
230
1.0
  0
INSERT
  5
673
100
AcDbEntity
  8
0
100
AcDbBlockReference
  2
BLOCK31
 10
-11.346851
 20
457.309185
 30
0.0
210
0.0
220
0.0
230
1.0
  0
INSERT
  5
674
100
AcDbEntity
  8
0
100
AcDbBlockReference
  2
BLOCK32
 10
-11.346851
 20
457.309185
 30
0.0
210
0.0
220
0.0
230
1.0
  0
INSERT
  5
675
100
AcDbEntity
  8
0
100
AcDbBlockReference
  2
BLOCK33
 10
-11.346851
 20
457.309185
 30
0.0
210
0.0
220
0.0
230
1.0
  0
INSERT
  5
676
100
AcDbEntity
  8
0
100
AcDbBlockReference
  2
BLOCK34
 10
-11.346851
 20
457.309185
 30
0.0
210
0.0
220
0.0
230
1.0
  0
INSERT
  5
677
100
AcDbEntity
  8
0
100
AcDbBlockReference
  2
BLOCK35
 10
-11.346851
 20
457.309185
 30
0.0
210
0.0
220
0.0
230
1.0
  0
INSERT
  5
678
100
AcDbEntity
  8
0
100
AcDbBlockReference
  2
BLOCK36
 10
-11.346851
 20
457.309185
 30
0.0
210
0.0
220
0.0
230
1.0
  0
INSERT
  5
679
100
AcDbEntity
  8
0
100
AcDbBlockReference
  2
BLOCK37
 10
-11.346851
 20
457.309185
 30
0.0
210
0.0
220
0.0
230
1.0
  0
INSERT
  5
67A
100
AcDbEntity
  8
0
100
AcDbBlockReference
  2
BLOCK38
 10
-11.346851
 20
457.309185
 30
0.0
210
0.0
220
0.0
230
1.0
  0
INSERT
  5
67B
100
AcDbEntity
  8
0
100
AcDbBlockReference
  2
BLOCK39
 10
-11.346851
 20
457.309185
 30
0.0
210
0.0
220
0.0
230
1.0
  0
INSERT
  5
67C
100
AcDbEntity
  8
0
100
AcDbBlockReference
  2
BLOCK40
 10
-11.346851
 20
457.309185
 30
0.0
210
0.0
220
0.0
230
1.0
  0
ENDSEC
  0
SECTION
  2
OBJECTS
  0
DICTIONARY
  5
19
100
AcDbDictionary
  3
ACAD_GROUP
350
1A
  3
ACAD_MLINESTYLE
350
1B
  0
DICTIONARY
  5
1A
102
{ACAD_REACTORS
330
19
102
}
100
AcDbDictionary
  0
DICTIONARY
  5
1B
102
{ACAD_REACTORS
330
19
102
}
100
AcDbDictionary
  3
STANDARD
350
1C
  0
MLINESTYLE
  5
1C
102
{ACAD_REACTORS
330
1B
102
}
100
AcDbMlineStyle
  2
STANDARD
 70
     0
  3

 62
     0
 51
90.0
 52
90.0
 71
     2
 49
0.5
 62
   256
  6
BYLAYER
 49
-0.5
 62
   256
  6
BYLAYER
  0
ENDSEC
  0
EOF
