  0
SECTION
  2
HEADER
  9
$ACADVER
  1
AC1024
  9
$ACADMAINTVER
 70
    63
  9
$DWGCODEPAGE
  3
ANSI_1252
  9
$LASTSAVEDBY
  1
SEVIELM1
  9
$INSBASE
 10
0.0
 20
0.0
 30
0.0
  9
$EXTMIN
 10
-4027.40438972984
 20
-1197.445669970388
 30
-0.00000000000012
  9
$EXTMAX
 10
1448.124831207856
 20
787.8265171503958
 30
0.0
  9
$LIMMIN
 10
-0.5
 20
-0.5
  9
$LIMMAX
 10
5.0
 20
5.0
  9
$ORTHOMODE
 70
     0
  9
$REGENMODE
 70
     1
  9
$FILLMODE
 70
     1
  9
$QTEXTMODE
 70
     0
  9
$MIRRTEXT
 70
     1
  9
$LTSCALE
 40
1.0
  9
$ATTMODE
 70
     1
  9
$TEXTSIZE
 40
0.2
  9
$TRACEWID
 40
0.05
  9
$TEXTSTYLE
  7
Standard
  9
$CLAYER
  8
0
  9
$CELTYPE
  6
BYLAYER
  9
$CECOLOR
 62
   256
  9
$CELTSCALE
 40
1.0
  9
$DISPSILH
 70
     0
  9
$DIMSCALE
 40
1.0
  9
$DIMASZ
 40
0.18
  9
$DIMEXO
 40
0.0625
  9
$DIMDLI
 40
0.38
  9
$DIMRND
 40
0.0
  9
$DIMDLE
 40
0.0
  9
$DIMEXE
 40
0.18
  9
$DIMTP
 40
0.0
  9
$DIMTM
 40
0.0
  9
$DIMTXT
 40
0.18
  9
$DIMCEN
 40
0.09
  9
$DIMTSZ
 40
0.0
  9
$DIMTOL
 70
     0
  9
$DIMLIM
 70
     0
  9
$DIMTIH
 70
     1
  9
$DIMTOH
 70
     1
  9
$DIMSE1
 70
     0
  9
$DIMSE2
 70
     0
  9
$DIMTAD
 70
     0
  9
$DIMZIN
 70
     0
  9
$DIMBLK
  1

  9
$DIMASO
 70
     1
  9
$DIMSHO
 70
     1
  9
$DIMPOST
  1

  9
$DIMAPOST
  1

  9
$DIMALT
 70
     0
  9
$DIMALTD
 70
     2
  9
$DIMALTF
 40
25.4
  9
$DIMLFAC
 40
1.0
  9
$DIMTOFL
 70
     0
  9
$DIMTVP
 40
0.0
  9
$DIMTIX
 70
     0
  9
$DIMSOXD
 70
     0
  9
$DIMSAH
 70
     0
  9
$DIMBLK1
  1

  9
$DIMBLK2
  1

  9
$DIMSTYLE
  2
Standard
  9
$DIMCLRD
 70
     0
  9
$DIMCLRE
 70
     0
  9
$DIMCLRT
 70
     0
  9
$DIMTFAC
 40
1.0
  9
$DIMGAP
 40
0.09
  9
$DIMJUST
 70
     0
  9
$DIMSD1
 70
     0
  9
$DIMSD2
 70
     0
  9
$DIMTOLJ
 70
     1
  9
$DIMTZIN
 70
     0
  9
$DIMALTZ
 70
     0
  9
$DIMALTTZ
 70
     0
  9
$DIMUPT
 70
     0
  9
$DIMDEC
 70
     4
  9
$DIMTDEC
 70
     4
  9
$DIMALTU
 70
     2
  9
$DIMALTTD
 70
     2
  9
$DIMTXSTY
  7
Standard
  9
$DIMAUNIT
 70
     0
  9
$DIMADEC
 70
     0
  9
$DIMALTRND
 40
0.0
  9
$DIMAZIN
 70
     0
  9
$DIMDSEP
 70
    46
  9
$DIMATFIT
 70
     3
  9
$DIMFRAC
 70
     0
  9
$DIMLDRBLK
  1

  9
$DIMLUNIT
 70
     2
  9
$DIMLWD
 70
    -2
  9
$DIMLWE
 70
    -2
  9
$DIMTMOVE
 70
     0
  9
$DIMFXL
 40
1.0
  9
$DIMFXLON
 70
     0
  9
$DIMJOGANG
 40
0.7853981633974483
  9
$DIMTFILL
 70
     0
  9
$DIMTFILLCLR
 70
     0
  9
$DIMARCSYM
 70
     0
  9
$DIMLTYPE
  6

  9
$DIMLTEX1
  6

  9
$DIMLTEX2
  6

  9
$DIMTXTDIRECTION
 70
     0
  9
$LUNITS
 70
     2
  9
$LUPREC
 70
     2
  9
$SKETCHINC
 40
0.1
  9
$FILLETRAD
 40
0.5
  9
$AUNITS
 70
     0
  9
$AUPREC
 70
     0
  9
$MENU
  1
.
  9
$ELEVATION
 40
0.0
  9
$PELEVATION
 40
0.0
  9
$THICKNESS
 40
0.0
  9
$LIMCHECK
 70
     0
  9
$CHAMFERA
 40
0.5
  9
$CHAMFERB
 40
0.5
  9
$CHAMFERC
 40
1.0
  9
$CHAMFERD
 40
0.0
  9
$SKPOLY
 70
     0
  9
$TDCREATE
 40
2456841.342101505
  9
$TDUCREATE
 40
2456841.258768171
  9
$TDUPDATE
 40
2456841.343841875
  9
$TDUUPDATE
 40
2456841.260508542
  9
$TDINDWG
 40
0.0016886806
  9
$TDUSRTIMER
 40
0.0016886806
  9
$USRTIMER
 70
     1
  9
$ANGBASE
 50
0.0
  9
$ANGDIR
 70
     0
  9
$PDMODE
 70
     0
  9
$PDSIZE
 40
0.0
  9
$PLINEWID
 40
0.0
  9
$SPLFRAME
 70
     0
  9
$SPLINETYPE
 70
     6
  9
$SPLINESEGS
 70
     8
  9
$HANDSEED
  5
57C
  9
$SURFTAB1
 70
     6
  9
$SURFTAB2
 70
     6
  9
$SURFTYPE
 70
     6
  9
$SURFU
 70
     6
  9
$SURFV
 70
     6
  9
$UCSBASE
  2

  9
$UCSNAME
  2

  9
$UCSORG
 10
0.0
 20
0.0
 30
0.0
  9
$UCSXDIR
 10
1.0
 20
0.0
 30
0.0
  9
$UCSYDIR
 10
0.0
 20
1.0
 30
0.0
  9
$UCSORTHOREF
  2

  9
$UCSORTHOVIEW
 70
     0
  9
$UCSORGTOP
 10
0.0
 20
0.0
 30
0.0
  9
$UCSORGBOTTOM
 10
0.0
 20
0.0
 30
0.0
  9
$UCSORGLEFT
 10
0.0
 20
0.0
 30
0.0
  9
$UCSORGRIGHT
 10
0.0
 20
0.0
 30
0.0
  9
$UCSORGFRONT
 10
0.0
 20
0.0
 30
0.0
  9
$UCSORGBACK
 10
0.0
 20
0.0
 30
0.0
  9
$PUCSBASE
  2

  9
$PUCSNAME
  2

  9
$PUCSORG
 10
0.0
 20
0.0
 30
0.0
  9
$PUCSXDIR
 10
1.0
 20
0.0
 30
0.0
  9
$PUCSYDIR
 10
0.0
 20
1.0
 30
0.0
  9
$PUCSORTHOREF
  2

  9
$PUCSORTHOVIEW
 70
     0
  9
$PUCSORGTOP
 10
0.0
 20
0.0
 30
0.0
  9
$PUCSORGBOTTOM
 10
0.0
 20
0.0
 30
0.0
  9
$PUCSORGLEFT
 10
0.0
 20
0.0
 30
0.0
  9
$PUCSORGRIGHT
 10
0.0
 20
0.0
 30
0.0
  9
$PUCSORGFRONT
 10
0.0
 20
0.0
 30
0.0
  9
$PUCSORGBACK
 10
0.0
 20
0.0
 30
0.0
  9
$USERI1
 70
     0
  9
$USERI2
 70
     0
  9
$USERI3
 70
     0
  9
$USERI4
 70
     0
  9
$USERI5
 70
     0
  9
$USERR1
 40
0.0
  9
$USERR2
 40
0.0
  9
$USERR3
 40
0.0
  9
$USERR4
 40
0.0
  9
$USERR5
 40
0.0
  9
$WORLDVIEW
 70
     1
  9
$SHADEDGE
 70
     3
  9
$SHADEDIF
 70
    70
  9
$TILEMODE
 70
     1
  9
$MAXACTVP
 70
    64
  9
$PINSBASE
 10
0.0
 20
0.0
 30
0.0
  9
$PLIMCHECK
 70
     0
  9
$PEXTMIN
 10
-0.5
 20
-0.5
 30
-0.5
  9
$PEXTMAX
 10
5.0
 20
5.0
 30
5.0
  9
$PLIMMIN
 10
-0.5
 20
-0.5
  9
$PLIMMAX
 10
5.0
 20
5.0
  9
$UNITMODE
 70
     0
  9
$VISRETAIN
 70
     1
  9
$PLINEGEN
 70
     0
  9
$PSLTSCALE
 70
     1
  9
$TREEDEPTH
 70
  3020
  9
$CMLSTYLE
  2
Standard
  9
$CMLJUST
 70
     0
  9
$CMLSCALE
 40
1.0
  9
$PROXYGRAPHICS
 70
     1
  9
$MEASUREMENT
 70
     1
  9
$CELWEIGHT
370
    -1
  9
$ENDCAPS
280
     0
  9
$JOINSTYLE
280
     0
  9
$LWDISPLAY
290
     1
  9
$INSUNITS
 70
     4
  9
$HYPERLINKBASE
  1

  9
$STYLESHEET
  1

  9
$XEDIT
290
     1
  9
$CEPSNTYPE
380
     0
  9
$PSTYLEMODE
290
     1
  9
$FINGERPRINTGUID
  2
{D8C8F9A3-087D-4E68-B362-24B4D6ED8A5E}
  9
$VERSIONGUID
  2
{772AEB6C-FE62-48BB-A61C-CD8F78B16316}
  9
$EXTNAMES
290
     1
  9
$PSVPSCALE
 40
0.0
  9
$OLESTARTUP
290
     0
  9
$SORTENTS
280
   127
  9
$INDEXCTL
280
     0
  9
$HIDETEXT
280
     1
  9
$XCLIPFRAME
280
     0
  9
$HALOGAP
280
     0
  9
$OBSCOLOR
 70
   257
  9
$OBSLTYPE
280
     0
  9
$INTERSECTIONDISPLAY
280
     0
  9
$INTERSECTIONCOLOR
 70
   257
  9
$DIMASSOC
280
     2
  9
$PROJECTNAME
  1

  9
$CAMERADISPLAY
290
     0
  9
$LENSLENGTH
 40
50.0
  9
$CAMERAHEIGHT
 40
0.0
  9
$STEPSPERSEC
 40
2.0
  9
$STEPSIZE
 40
6.0
  9
$3DDWFPREC
 40
2.0
  9
$PSOLWIDTH
 40
0.25
  9
$PSOLHEIGHT
 40
4.0
  9
$LOFTANG1
 40
1.570796326794896
  9
$LOFTANG2
 40
1.570796326794896
  9
$LOFTMAG1
 40
0.0
  9
$LOFTMAG2
 40
0.0
  9
$LOFTPARAM
 70
     7
  9
$LOFTNORMALS
280
     1
  9
$LATITUDE
 40
37.795
  9
$LONGITUDE
 40
-122.394
  9
$NORTHDIRECTION
 40
0.0
  9
$TIMEZONE
 70
 -8000
  9
$LIGHTGLYPHDISPLAY
280
     1
  9
$TILEMODELIGHTSYNCH
280
     1
  9
$CMATERIAL
347
3C
  9
$SOLIDHIST
280
     0
  9
$SHOWHIST
280
     1
  9
$DWFFRAME
280
     2
  9
$DGNFRAME
280
     0
  9
$REALWORLDSCALE
290
     1
  9
$INTERFERECOLOR
 62
     1
  9
$INTERFEREOBJVS
345
33
  9
$INTERFEREVPVS
346
1FB
  9
$CSHADOW
280
     0
  9
$SHADOWPLANELOCATION
 40
0.0
  0
ENDSEC
  0
SECTION
  2
CLASSES
  0
CLASS
  1
ACDBDICTIONARYWDFLT
  2
AcDbDictionaryWithDefault
  3
ObjectDBX Classes
 90
        0
 91
        1
280
     0
281
     0
  0
CLASS
  1
VISUALSTYLE
  2
AcDbVisualStyle
  3
ObjectDBX Classes
 90
     4095
 91
       26
280
     0
281
     0
  0
CLASS
  1
MATERIAL
  2
AcDbMaterial
  3
ObjectDBX Classes
 90
     1153
 91
        3
280
     0
281
     0
  0
CLASS
  1
TABLESTYLE
  2
AcDbTableStyle
  3
ObjectDBX Classes
 90
     4095
 91
        1
280
     0
281
     0
  0
CLASS
  1
SCALE
  2
AcDbScale
  3
ObjectDBX Classes
 90
     1153
 91
       17
280
     0
281
     0
  0
CLASS
  1
MLEADERSTYLE
  2
AcDbMLeaderStyle
  3
ACDB_MLEADERSTYLE_CLASS
 90
     4095
 91
        1
280
     0
281
     0
  0
CLASS
  1
ACME_DOCUMENT
  2
AcMeDbDoc
  3
AcMeServices
 90
     1024
 91
        1
280
     0
281
     0
  0
CLASS
  1
ACMESCOPE
  2
AcMeScope
  3
AcMeServices
 90
     1024
 91
        1
280
     0
281
     0
  0
CLASS
  1
ACMECOMMANDHISTORY
  2
AcMeCommandHistory
  3
AcMeServices
 90
     1024
 91
        1
280
     0
281
     0
  0
CLASS
  1
ACIMSYSVARMAN
  2
AcImSysVarManager
  3
AcMeServices
 90
     1024
 91
        3
280
     0
281
     0
  0
CLASS
  1
ACIMINTSYSVAR
  2
AcImIntSysVar
  3
AcMeServices
 90
     1024
 91
        2
280
     0
281
     0
  0
CLASS
  1
ACMESTATEMGR
  2
AcMeStateMgr
  3
AcMeServices
 90
     1024
 91
        1
280
     0
281
     0
  0
CLASS
  1
ACDBENTITYCACHE
  2
AcMeEntityCache
  3
AcMeServices
 90
     1024
 91
        1
280
     0
281
     0
  0
CLASS
  1
ACGREFMASTER
  2
AcGrefMaster
  3
AcAttribServices
 90
     1024
 91
        1
280
     0
281
     0
  0
CLASS
  1
ACME_DATABASE
  2
AcMeDbDatabase
  3
AcMeServices
 90
     1024
 91
        7
280
     0
281
     0
  0
CLASS
  1
ACRFINSADJUSTERMGR
  2
AcRfInsAdjusterMgr
  3
AcMeServices
 90
     1024
 91
        1
280
     0
281
     0
  0
CLASS
  1
ACGREFACADMASTER
  2
AcGrefacadMaster
  3
AcGrefServices
 90
     1024
 91
        1
280
     0
281
     0
  0
CLASS
  1
AMDTMENUSTATEMGR
  2
AmdtMenuStateMgr
  3
McadcomServices
 90
     1024
 91
        1
280
     0
281
     0
  0
CLASS
  1
AMDTMCOMMENUSTATE
  2
AmdtMcomMenuState
  3
McadcomServices
 90
     1024
 91
        1
280
     0
281
     0
  0
CLASS
  1
AMIMASTER
  2
AmiMaster
  3
AmiServices
 90
     1024
 91
        1
280
     0
281
     0
  0
CLASS
  1
AMGSETTINGSOBJ
  2
AmgSettingsObj
  3
"AcadM|Product Description: AutoCAD Mechanical|Company: Autodesk, Inc."
 90
     1024
 91
        2
280
     0
281
     0
  0
CLASS
  1
MAPIAMMOUDLE
  2
MApiAmModule
  3
MApiAmServices
 90
     1024
 91
        1
280
     0
281
     0
  0
CLASS
  1
ACIMSTRSYSVAR
  2
AcImStrSysVar
  3
AcMeServices
 90
     1024
 91
        5
280
     0
281
     0
  0
CLASS
  1
AMDTAMMENUSTATE
  2
AmdtAmMenuState
  3
DesignerAssemblies
 90
     1024
 91
        1
280
     0
281
     0
  0
CLASS
  1
ACAMPROJECT
  2
AcAmProject
  3
DesignerAssemblies
 90
     1024
 91
        1
280
     0
281
     0
  0
CLASS
  1
ACAMGRCOMPDEF
  2
AcAmGrCompDef
  3
DesignerAssemblies
 90
     1024
 91
        1
280
     0
281
     0
  0
CLASS
  1
ACAMCOMPDEF
  2
AcAmCompDef
  3
DesignerAssemblies
 90
     1024
 91
        1
280
     0
281
     0
  0
CLASS
  1
ACAMCOMPDEFMGR
  2
AcAmCompDefMgr
  3
DesignerAssemblies
 90
     1024
 91
        1
280
     0
281
     0
  0
CLASS
  1
AMCONTEXTMGR
  2
AcAmContextMgr
  3
DesignerAssemblies
 90
     1024
 91
        1
280
     0
281
     0
  0
CLASS
  1
ACAMCONTEXTMODELER
  2
AcAmContextModeler
  3
DesignerAssemblies
 90
     1024
 91
        1
280
     0
281
     0
  0
CLASS
  1
ACMDATADICTIONARY
  2
AcmDataDictionary
  3
"AcmSymBB|Product Description: AutoCAD Mechanical|Company: Autodesk, Inc."
 90
     1024
 91
        1
280
     0
281
     0
  0
CLASS
  1
ACAMGRCOMPDEFSET
  2
AcAmGrCompDefSet
  3
DesignerAssemblies
 90
     1024
 91
        1
280
     0
281
     0
  0
CLASS
  1
AMDTBROWSERDBTAB
  2
AmdtBrowserDbTab
  3
McadcomServices
 90
     1024
 91
        1
280
     0
281
     0
  0
CLASS
  1
CBROWSERAPPOBJECT
  2
CBrowserAppObject
  3
McadcomServices
 90
     1024
 91
        2
280
     0
281
     0
  0
CLASS
  1
DM_PLACEHOLDER
  2
AcDmSelsetPlaceholder
  3
McadcomServices
 90
     1024
 91
        1
280
     0
281
     0
  0
CLASS
  1
ACMSTANDARDISO
  2
AcmStandardISO
  3
"Amdt_StdImp|Product Description: AutoCAD Mechanical|Company: Autodesk, Inc."
 90
     1024
 91
        1
280
     0
281
     0
  0
CLASS
  1
AMDTEDGESTANDARDISO13715
  2
AmdtEdgeStdISO13715
  3
"Amdt_StdImp|Product Description: AutoCAD Mechanical|Company: Autodesk, Inc."
 90
     1024
 91
        1
280
     0
281
     0
  0
CLASS
  1
ACMSURFSTANDARDISO2002
  2
AcmSurfTextStdISO2002
  3
"Amdt_StdImp|Product Description: AutoCAD Mechanical|Company: Autodesk, Inc."
 90
     1024
 91
        1
280
     0
281
     0
  0
CLASS
  1
ACMFCFSTANDARDISO2004
  2
AcmFCFStdISO2004
  3
"Amdt_StdImp|Product Description: AutoCAD Mechanical|Company: Autodesk, Inc."
 90
     1024
 91
        1
280
     0
281
     0
  0
CLASS
  1
ACMWELDSTANDARDISO
  2
AcmWeldingStdISO
  3
"Amdt_StdImp|Product Description: AutoCAD Mechanical|Company: Autodesk, Inc."
 90
     1024
 91
        1
280
     0
281
     0
  0
CLASS
  1
ACMIDSTANDARDISO2004
  2
AcmIdStdISO2004
  3
"Amdt_StdImp|Product Description: AutoCAD Mechanical|Company: Autodesk, Inc."
 90
     1024
 91
        1
280
     0
281
     0
  0
CLASS
  1
ACMDATUMSTANDARDISO
  2
AcmDatumStdISO
  3
"Amdt_StdImp|Product Description: AutoCAD Mechanical|Company: Autodesk, Inc."
 90
     1024
 91
        1
280
     0
281
     0
  0
CLASS
  1
ACMBOMSTANDARDISO
  2
AcmBOMStdISO
  3
"Amdt_StdImp|Product Description: AutoCAD Mechanical|Company: Autodesk, Inc."
 90
     1024
 91
        1
280
     0
281
     0
  0
CLASS
  1
ACMDETAILSTANDARDISO
  2
AmdtDetailSymStdISO
  3
"Amdt_StdImp|Product Description: AutoCAD Mechanical|Company: Autodesk, Inc."
 90
     1024
 91
        1
280
     0
281
     0
  0
CLASS
  1
ACMSECTIONSTANDARDISO2001
  2
AmdtSectionSymStdISO2001
  3
"Amdt_StdImp|Product Description: AutoCAD Mechanical|Company: Autodesk, Inc."
 90
     1024
 91
        1
280
     0
281
     0
  0
CLASS
  1
ACMCENTERLINESTANDARDISO
  2
AmdtCenterLineStdISO
  3
"Amdt_StdImp|Product Description: AutoCAD Mechanical|Company: Autodesk, Inc."
 90
     1024
 91
        1
280
     0
281
     0
  0
CLASS
  1
ACMTHREADLINESTANDARDISO
  2
AmdtThreadLineStdISO
  3
"Amdt_StdImp|Product Description: AutoCAD Mechanical|Company: Autodesk, Inc."
 90
     1024
 91
        1
280
     0
281
     0
  0
CLASS
  1
ACMNOTESTANDARDISO
  2
AmdtNoteStdISO
  3
"Amdt_StdImp|Product Description: AutoCAD Mechanical|Company: Autodesk, Inc."
 90
     1024
 91
        1
280
     0
281
     0
  0
CLASS
  1
ACMTAPERSTANDARDISO
  2
AcmTaperStdISO
  3
"Amdt_StdImp|Product Description: AutoCAD Mechanical|Company: Autodesk, Inc."
 90
     1024
 91
        1
280
     0
281
     0
  0
CLASS
  1
ACMANOOTATIONVIEWSTANDARDISO
  2
AmdtAnViewStdISO
  3
"Amdt_StdImp|Product Description: AutoCAD Mechanical|Company: Autodesk, Inc."
 90
     1024
 91
        1
280
     0
281
     0
  0
CLASS
  1
ACAMGLAYSTD
  2
AcAmgLayStd
  3
"AmgLay|Product Description: AutoCAD Mechanical|Company: Autodesk, Inc."
 90
     1024
 91
        1
280
     0
281
     0
  0
CLASS
  1
ACAMGDIMSTD
  2
AcAmgDimStd
  3
"AmgDim|Product Description: AutoCAD Mechanical|Company: Autodesk, Inc."
 90
     1024
 91
        1
280
     0
281
     0
  0
CLASS
  1
AMGOBJPROPCFG
  2
AmgObjPropCfg
  3
"AmgLay|Product Description: AutoCAD Mechanical|Company: Autodesk, Inc."
 90
     1025
 91
        1
280
     0
281
     0
  0
CLASS
  1
ACAMGHOLECHARTSTDISO
  2
AcAmgHoleChartStdISO
  3
AmgDim|Product Description: AutoCAD Mechanical|Company: Autodesk, Inc.
 90
     1024
 91
        1
280
     0
281
     0
  0
CLASS
  1
ACAMGTITLESTD
  2
AcAmgTitleStd
  3
"AmgTitle|Product Description: AutoCAD Mechanical|Company: Autodesk, Inc."
 90
     4095
 91
        1
280
     0
281
     0
  0
CLASS
  1
AMDTNOTETEMPLATEDB
  2
AmdtNoteTemplateDB
  3
AcmSymBB|Product Description: AutoCAD Mechanical|Company: Autodesk, Inc.
 90
     1024
 91
        6
280
     0
281
     0
  0
CLASS
  1
ACAMGFILTERDAT
  2
AcAmgFilterDat
  3
"AcadM|Product Description: AutoCAD Mechanical|Company: Autodesk, Inc."
 90
     1024
 91
        6
280
     0
281
     0
  0
CLASS
  1
DICTIONARYVAR
  2
AcDbDictionaryVar
  3
ObjectDBX Classes
 90
        0
 91
        7
280
     0
281
     0
  0
CLASS
  1
CELLSTYLEMAP
  2
AcDbCellStyleMap
  3
ObjectDBX Classes
 90
     1152
 91
        1
280
     0
281
     0
  0
ENDSEC
  0
SECTION
  2
TABLES
  0
TABLE
  2
VPORT
  5
8
330
0
100
AcDbSymbolTable
 70
    17
  0
VPORT
  5
29
330
8
100
AcDbSymbolTableRecord
100
AcDbViewportTableRecord
  2
DUMMY
 70
     0
 10
0.0
 20
0.0
 11
1.0
 21
1.0
 12
10.429907
 22
4.5
 13
0.0
 23
0.0
 14
0.5
 24
0.5
 15
0.5
 25
0.5
 16
0.0
 26
0.0
 36
1.0
 17
0.0
 27
0.0
 37
0.0
 40
9.0
 41
1.972972999999999
 42
50.0
 43
0.0
 44
0.0
 50
0.0
 51
0.0
 71
     0
 72
   100
 73
     1
 74
     3
 75
     0
 76
     0
 77
     0
 78
     0
281
     0
 65
     1
110
0.0
120
0.0
130
0.0
111
1.0
121
0.0
131
0.0
112
0.0
122
1.0
132
0.0
 79
     0
146
0.0
348
2F
 60
     3
 61
     5
292
     1
282
     1
141
0.0
142
0.0
 63
   250
421
  3355443
  0
VPORT
  5
1C1
330
8
100
AcDbSymbolTableRecord
100
AcDbViewportTableRecord
  2
*ACTIVE
 70
     0
 10
0.0
 20
0.0
 11
1.0
 21
1.0
 12
846.2025728561936
 22
199.2908515836412
 13
0.0
 23
0.0
 14
0.5
 24
0.5
 15
0.5
 25
0.5
 16
0.0
 26
0.0
 36
1.0
 17
0.0
 27
0.0
 37
0.0
 40
863.2782400587453
 41
2.206199460916442
 42
50.0
 43
1992.215838
 44
-1992.215838
 50
0.0
 51
0.0
 71
     0
 72
   100
 73
     1
 74
     3
 75
     0
 76
     0
 77
     0
 78
     0
281
     0
 65
     0
110
0.0
120
0.0
130
0.0
111
1.0
121
0.0
131
0.0
112
0.0
122
1.0
132
0.0
 79
     0
146
0.0
348
2F
 60
     3
 61
     5
292
     1
282
     1
141
0.0
142
0.0
 63
   250
421
  3355443
1001
ACAD_NAV_VCDISPLAY
1070
     3
  0
VPORT
  5
1C2
330
8
100
AcDbSymbolTableRecord
100
AcDbViewportTableRecord
  2
L1
 70
     0
 10
0.0
 20
0.0
 11
1.0
 21
1.0
 12
578.364116
 22
465.419195
 13
0.0
 23
0.0
 14
0.5
 24
0.5
 15
0.5
 25
0.5
 16
0.0
 26
0.0
 36
1.0
 17
0.0
 27
0.0
 37
0.0
 40
200.554167
 41
0.088538
 42
50.0
 43
1992.215838
 44
-1992.215838
 50
0.0
 51
0.0
 71
     0
 72
   100
 73
     1
 74
     3
 75
     0
 76
     0
 77
     0
 78
     0
281
     0
 65
     1
110
0.0
120
0.0
130
0.0
111
1.0
121
0.0
131
0.0
112
0.0
122
1.0
132
0.0
 79
     0
146
0.0
348
2F
 60
     3
 61
     5
292
     1
282
     1
141
0.0
142
0.0
 63
   250
421
  3355443
  0
VPORT
  5
1C3
330
8
100
AcDbSymbolTableRecord
100
AcDbViewportTableRecord
  2
L2
 70
     0
 10
0.0
 20
0.0
 11
0.5
 21
1.0
 12
0.0
 22
0.0
 13
0.0
 23
0.0
 14
0.5
 24
0.5
 15
0.5
 25
0.5
 16
0.0
 26
-1.0
 36
0.0
 17
0.0
 27
0.0
 37
0.0
 40
1350.964365
 41
0.013144
 42
50.0
 43
697.755362
 44
-697.755362
 50
0.0
 51
0.0
 71
     0
 72
   100
 73
     1
 74
     3
 75
     0
 76
     0
 77
     0
 78
     0
281
     0
 65
     1
110
0.0
120
0.0
130
0.0
111
1.0
121
0.0
131
0.0
112
0.0
122
1.0
132
0.0
 79
     0
146
0.0
348
2F
 60
     3
 61
     5
292
     1
282
     1
141
0.0
142
0.0
 63
   250
421
  3355443
  0
VPORT
  5
1C4
330
8
100
AcDbSymbolTableRecord
100
AcDbViewportTableRecord
  2
L2
 70
     0
 10
0.5
 20
0.0
 11
1.0
 21
1.0
 12
0.0
 22
0.0
 13
0.0
 23
0.0
 14
0.5
 24
0.5
 15
0.5
 25
0.5
 16
1.0
 26
0.0
 36
0.0
 17
0.0
 27
0.0
 37
0.0
 40
1350.964365
 41
0.013144
 42
50.0
 43
682.884817
 44
-682.884817
 50
0.0
 51
0.0
 71
     0
 72
   100
 73
     1
 74
     3
 75
     0
 76
     0
 77
     0
 78
     0
281
     0
 65
     1
110
0.0
120
0.0
130
0.0
111
1.0
121
0.0
131
0.0
112
0.0
122
1.0
132
0.0
 79
     0
146
0.0
348
2F
 60
     3
 61
     5
292
     1
282
     1
141
0.0
142
0.0
 63
   250
421
  3355443
  0
VPORT
  5
1C5
330
8
100
AcDbSymbolTableRecord
100
AcDbViewportTableRecord
  2
L3
 70
     0
 10
0.0
 20
0.5
 11
1.0
 21
1.0
 12
578.364116
 22
465.419195
 13
0.0
 23
0.0
 14
0.5
 24
0.5
 15
0.5
 25
0.5
 16
0.0
 26
0.0
 36
1.0
 17
0.0
 27
0.0
 37
0.0
 40
200.554167
 41
0.088538
 42
50.0
 43
1992.215838
 44
-1992.215838
 50
0.0
 51
0.0
 71
     0
 72
   100
 73
     1
 74
     3
 75
     0
 76
     0
 77
     0
 78
     0
281
     0
 65
     1
110
0.0
120
0.0
130
0.0
111
1.0
121
0.0
131
0.0
112
0.0
122
1.0
132
0.0
 79
     0
146
0.0
348
2F
 60
     3
 61
     5
292
     1
282
     1
141
0.0
142
0.0
 63
   250
421
  3355443
  0
VPORT
  5
1C6
330
8
100
AcDbSymbolTableRecord
100
AcDbViewportTableRecord
  2
L3
 70
     0
 10
0.0
 20
0.0
 11
1.0
 21
0.5
 12
0.0
 22
0.0
 13
0.0
 23
0.0
 14
0.5
 24
0.5
 15
0.5
 25
0.5
 16
0.0
 26
-1.0
 36
0.0
 17
0.0
 27
0.0
 37
0.0
 40
1350.964365
 41
0.013144
 42
50.0
 43
697.755362
 44
-697.755362
 50
0.0
 51
0.0
 71
     0
 72
   100
 73
     1
 74
     3
 75
     0
 76
     0
 77
     0
 78
     0
281
     0
 65
     1
110
0.0
120
0.0
130
0.0
111
1.0
121
0.0
131
0.0
112
0.0
122
1.0
132
0.0
 79
     0
146
0.0
348
2F
 60
     3
 61
     5
292
     1
282
     1
141
0.0
142
0.0
 63
   250
421
  3355443
  0
VPORT
  5
1C7
330
8
100
AcDbSymbolTableRecord
100
AcDbViewportTableRecord
  2
L4
 70
     0
 10
0.0
 20
0.5
 11
0.5
 21
1.0
 12
578.364116
 22
465.419195
 13
0.0
 23
0.0
 14
0.5
 24
0.5
 15
0.5
 25
0.5
 16
0.0
 26
0.0
 36
1.0
 17
0.0
 27
0.0
 37
0.0
 40
200.554167
 41
0.088538
 42
50.0
 43
1992.215838
 44
-1992.215838
 50
0.0
 51
0.0
 71
     0
 72
   100
 73
     1
 74
     3
 75
     0
 76
     0
 77
     0
 78
     0
281
     0
 65
     1
110
0.0
120
0.0
130
0.0
111
1.0
121
0.0
131
0.0
112
0.0
122
1.0
132
0.0
 79
     0
146
0.0
348
2F
 60
     3
 61
     5
292
     1
282
     1
141
0.0
142
0.0
 63
   250
421
  3355443
  0
VPORT
  5
1C8
330
8
100
AcDbSymbolTableRecord
100
AcDbViewportTableRecord
  2
L4
 70
     0
 10
0.0
 20
0.0
 11
0.5
 21
0.5
 12
0.0
 22
0.0
 13
0.0
 23
0.0
 14
0.5
 24
0.5
 15
0.5
 25
0.5
 16
0.0
 26
-1.0
 36
0.0
 17
0.0
 27
0.0
 37
0.0
 40
1350.964365
 41
0.013144
 42
50.0
 43
697.755362
 44
-697.755362
 50
0.0
 51
0.0
 71
     0
 72
   100
 73
     1
 74
     3
 75
     0
 76
     0
 77
     0
 78
     0
281
     0
 65
     1
110
0.0
120
0.0
130
0.0
111
1.0
121
0.0
131
0.0
112
0.0
122
1.0
132
0.0
 79
     0
146
0.0
348
2F
 60
     3
 61
     5
292
     1
282
     1
141
0.0
142
0.0
 63
   250
421
  3355443
  0
VPORT
  5
1C9
330
8
100
AcDbSymbolTableRecord
100
AcDbViewportTableRecord
  2
L4
 70
     0
 10
0.5
 20
0.0
 11
1.0
 21
0.5
 12
0.0
 22
0.0
 13
0.0
 23
0.0
 14
0.5
 24
0.5
 15
0.5
 25
0.5
 16
1.0
 26
0.0
 36
0.0
 17
0.0
 27
0.0
 37
0.0
 40
1350.964365
 41
0.013144
 42
50.0
 43
682.884817
 44
-682.884817
 50
0.0
 51
0.0
 71
     0
 72
   100
 73
     1
 74
     3
 75
     0
 76
     0
 77
     0
 78
     0
281
     0
 65
     1
110
0.0
120
0.0
130
0.0
111
1.0
121
0.0
131
0.0
112
0.0
122
1.0
132
0.0
 79
     0
146
0.0
348
2F
 60
     3
 61
     5
292
     1
282
     1
141
0.0
142
0.0
 63
   250
421
  3355443
  0
VPORT
  5
1CA
330
8
100
AcDbSymbolTableRecord
100
AcDbViewportTableRecord
  2
L4
 70
     0
 10
0.5
 20
0.5
 11
1.0
 21
1.0
 12
0.0
 22
0.0
 13
0.0
 23
0.0
 14
0.5
 24
0.5
 15
0.5
 25
0.5
 16
0.5773502691896259
 26
-0.5773502691896259
 36
0.5773502691896259
 17
0.0
 27
0.0
 37
0.0
 40
1327.730428
 41
0.013374
 42
50.0
 43
691.791421
 44
-691.791421
 50
0.0
 51
0.0
 71
     0
 72
   100
 73
     1
 74
     3
 75
     0
 76
     0
 77
     0
 78
     0
281
     0
 65
     1
110
0.0
120
0.0
130
0.0
111
1.0
121
0.0
131
0.0
112
0.0
122
1.0
132
0.0
 79
     0
146
0.0
348
2F
 60
     3
 61
     5
292
     1
282
     1
141
0.0
142
0.0
 63
   250
421
  3355443
  0
VPORT
  5
1CB
330
8
100
AcDbSymbolTableRecord
100
AcDbViewportTableRecord
  2
L6
 70
     0
 10
0.0
 20
0.5
 11
0.333333
 21
1.0
 12
0.0
 22
0.0
 13
0.0
 23
0.0
 14
0.5
 24
0.5
 15
0.5
 25
0.5
 16
0.7188730927569434
 26
-0.5850486126764433
 36
0.3754192287502549
 17
0.0
 27
0.0
 37
0.0
 40
1401.521515
 41
0.01267
 42
50.0
 43
725.584739
 44
-725.584739
 50
0.0
 51
0.0
 71
     0
 72
   100
 73
     1
 74
     3
 75
     0
 76
     0
 77
     0
 78
     0
281
     0
 65
     1
110
0.0
120
0.0
130
0.0
111
1.0
121
0.0
131
0.0
112
0.0
122
1.0
132
0.0
 79
     0
146
0.0
348
2F
 60
     3
 61
     5
292
     1
282
     1
141
0.0
142
0.0
 63
   250
421
  3355443
  0
VPORT
  5
1CC
330
8
100
AcDbSymbolTableRecord
100
AcDbViewportTableRecord
  2
L6
 70
     0
 10
0.0
 20
0.0
 11
0.333333
 21
0.5
 12
0.0
 22
0.0
 13
0.0
 23
0.0
 14
0.5
 24
0.5
 15
0.5
 25
0.5
 16
-1.0
 26
0.0
 36
0.0
 17
0.0
 27
0.0
 37
0.0
 40
1350.964365
 41
0.013144
 42
50.0
 43
682.884817
 44
-682.884817
 50
0.0
 51
0.0
 71
     0
 72
   100
 73
     1
 74
     3
 75
     0
 76
     0
 77
     0
 78
     0
281
     0
 65
     1
110
0.0
120
0.0
130
0.0
111
1.0
121
0.0
131
0.0
112
0.0
122
1.0
132
0.0
 79
     0
146
0.0
348
2F
 60
     3
 61
     5
292
     1
282
     1
141
0.0
142
0.0
 63
   250
421
  3355443
  0
VPORT
  5
1CD
330
8
100
AcDbSymbolTableRecord
100
AcDbViewportTableRecord
  2
L6
 70
     0
 10
0.333333
 20
0.5
 11
0.666667
 21
1.0
 12
578.364116
 22
465.419195
 13
0.0
 23
0.0
 14
0.5
 24
0.5
 15
0.5
 25
0.5
 16
0.0
 26
0.0
 36
1.0
 17
0.0
 27
0.0
 37
0.0
 40
200.554167
 41
0.088538
 42
50.0
 43
1992.215838
 44
-1992.215838
 50
0.0
 51
0.0
 71
     0
 72
   100
 73
     1
 74
     3
 75
     0
 76
     0
 77
     0
 78
     0
281
     0
 65
     1
110
0.0
120
0.0
130
0.0
111
1.0
121
0.0
131
0.0
112
0.0
122
1.0
132
0.0
 79
     0
146
0.0
348
2F
 60
     3
 61
     5
292
     1
282
     1
141
0.0
142
0.0
 63
   250
421
  3355443
  0
VPORT
  5
1CE
330
8
100
AcDbSymbolTableRecord
100
AcDbViewportTableRecord
  2
L6
 70
     0
 10
0.333333
 20
0.0
 11
0.666667
 21
0.5
 12
0.0
 22
0.0
 13
0.0
 23
0.0
 14
0.5
 24
0.5
 15
0.5
 25
0.5
 16
0.0
 26
-1.0
 36
0.0
 17
0.0
 27
0.0
 37
0.0
 40
1350.964365
 41
0.013144
 42
50.0
 43
697.755362
 44
-697.755362
 50
0.0
 51
0.0
 71
     0
 72
   100
 73
     1
 74
     3
 75
     0
 76
     0
 77
     0
 78
     0
281
     0
 65
     1
110
0.0
120
0.0
130
0.0
111
1.0
121
0.0
131
0.0
112
0.0
122
1.0
132
0.0
 79
     0
146
0.0
348
2F
 60
     3
 61
     5
292
     1
282
     1
141
0.0
142
0.0
 63
   250
421
  3355443
  0
VPORT
  5
1CF
330
8
100
AcDbSymbolTableRecord
100
AcDbViewportTableRecord
  2
L6
 70
     0
 10
0.666667
 20
0.5
 11
1.0
 21
1.0
 12
0.0
 22
0.0
 13
0.0
 23
0.0
 14
0.5
 24
0.5
 15
0.5
 25
0.5
 16
0.5773502691896259
 26
-0.5773502691896259
 36
0.5773502691896259
 17
0.0
 27
0.0
 37
0.0
 40
1327.730428
 41
0.013374
 42
50.0
 43
691.791421
 44
-691.791421
 50
0.0
 51
0.0
 71
     0
 72
   100
 73
     1
 74
     3
 75
     0
 76
     0
 77
     0
 78
     0
281
     0
 65
     1
110
0.0
120
0.0
130
0.0
111
1.0
121
0.0
131
0.0
112
0.0
122
1.0
132
0.0
 79
     0
146
0.0
348
2F
 60
     3
 61
     5
292
     1
282
     1
141
0.0
142
0.0
 63
   250
421
  3355443
  0
VPORT
  5
1D0
330
8
100
AcDbSymbolTableRecord
100
AcDbViewportTableRecord
  2
L6
 70
     0
 10
0.666667
 20
0.0
 11
1.0
 21
0.5
 12
0.0
 22
0.0
 13
0.0
 23
0.0
 14
0.5
 24
0.5
 15
0.5
 25
0.5
 16
1.0
 26
0.0
 36
0.0
 17
0.0
 27
0.0
 37
0.0
 40
1350.964365
 41
0.013144
 42
50.0
 43
682.884817
 44
-682.884817
 50
0.0
 51
0.0
 71
     0
 72
   100
 73
     1
 74
     3
 75
     0
 76
     0
 77
     0
 78
     0
281
     0
 65
     1
110
0.0
120
0.0
130
0.0
111
1.0
121
0.0
131
0.0
112
0.0
122
1.0
132
0.0
 79
     0
146
0.0
348
2F
 60
     3
 61
     5
292
     1
282
     1
141
0.0
142
0.0
 63
   250
421
  3355443
  0
ENDTAB
  0
TABLE
  2
LTYPE
  5
5
330
0
100
AcDbSymbolTable
 70
    20
  0
LTYPE
  5
14
330
5
100
AcDbSymbolTableRecord
100
AcDbLinetypeTableRecord
  2
BYBLOCK
 70
     0
  3

 72
    65
 73
     0
 40
0.0
  0
LTYPE
  5
15
330
5
100
AcDbSymbolTableRecord
100
AcDbLinetypeTableRecord
  2
BYLAYER
 70
     0
  3

 72
    65
 73
     0
 40
0.0
  0
LTYPE
  5
16
330
5
100
AcDbSymbolTableRecord
100
AcDbLinetypeTableRecord
  2
CONTINUOUS
 70
     0
  3
Solid line
 72
    65
 73
     0
 40
0.0
  0
LTYPE
  5
3F
330
5
100
AcDbSymbolTableRecord
100
AcDbLinetypeTableRecord
  2
DASHED
 70
     0
  3
__ __ __ __ __ __ __ __ __
 72
    65
 73
     2
 40
25.72
 49
12.86
 74
     4
 75
     0
340
0
 46
0.0
 50
0.0
 44
0.0
 45
0.0
 49
-12.86
 74
     4
 75
     0
340
0
 46
0.0
 50
0.0
 44
0.0
 45
0.0
  0
LTYPE
  5
40
330
5
100
AcDbSymbolTableRecord
100
AcDbLinetypeTableRecord
  2
HIDDEN
 70
     0
  3
_ _ _ _ _ _ _ _ _ _ _ _ _ _ _
 72
    65
 73
     2
 40
0.5
 49
0.25
 74
     4
 75
     0
340
0
 46
0.0
 50
0.0
 44
0.0
 45
0.0
 49
-0.25
 74
     4
 75
     0
340
0
 46
0.0
 50
0.0
 44
0.0
 45
0.0
  0
LTYPE
  5
41
330
5
100
AcDbSymbolTableRecord
100
AcDbLinetypeTableRecord
  2
PHANTOM
 70
     0
  3
____ _ _ ____ _ _ _____ _ _ ____
 72
    65
 73
     6
 40
50.5
 49
18.0
 74
     4
 75
     0
340
0
 46
0.0
 50
0.0
 44
0.0
 45
0.0
 49
-6.5
 74
     4
 75
     0
340
0
 46
0.0
 50
0.0
 44
0.0
 45
0.0
 49
6.5
 74
     4
 75
     0
340
0
 46
0.0
 50
0.0
 44
0.0
 45
0.0
 49
-6.5
 74
     4
 75
     0
340
0
 46
0.0
 50
0.0
 44
0.0
 45
0.0
 49
6.5
 74
     4
 75
     0
340
0
 46
0.0
 50
0.0
 44
0.0
 45
0.0
 49
-6.5
 74
     4
 75
     0
340
0
 46
0.0
 50
0.0
 44
0.0
 45
0.0
  0
LTYPE
  5
42
330
5
100
AcDbSymbolTableRecord
100
AcDbLinetypeTableRecord
  2
CENTER
 70
     0
  3
____ _ ____ _ ____ _ ____
 72
    65
 73
     4
 40
47.4
 49
22.0
 74
     4
 75
     0
340
0
 46
0.0
 50
0.0
 44
0.0
 45
0.0
 49
-8.5
 74
     4
 75
     0
340
0
 46
0.0
 50
0.0
 44
0.0
 45
0.0
 49
8.5
 74
     4
 75
     0
340
0
 46
0.0
 50
0.0
 44
0.0
 45
0.0
 49
-8.5
 74
     4
 75
     0
340
0
 46
0.0
 50
0.0
 44
0.0
 45
0.0
  0
LTYPE
  5
43
330
5
100
AcDbSymbolTableRecord
100
AcDbLinetypeTableRecord
  2
DOT
 70
     0
  3
.........................
 72
    65
 73
     2
 40
10.0
 49
0.0
 74
     4
 75
     0
340
0
 46
0.0
 50
0.0
 44
0.0
 45
0.0
 49
-10.0
 74
     4
 75
     0
340
0
 46
0.0
 50
0.0
 44
0.0
 45
0.0
  0
LTYPE
  5
44
330
5
100
AcDbSymbolTableRecord
100
AcDbLinetypeTableRecord
  2
DASHDOT
 70
     0
  3
_._._._._._._._._._._._._._._._.
 72
    65
 73
     4
 40
70.0
 49
31.0
 74
     4
 75
     0
340
0
 46
0.0
 50
0.0
 44
0.0
 45
0.0
 49
-13.0
 74
     4
 75
     0
340
0
 46
0.0
 50
0.0
 44
0.0
 45
0.0
 49
13.0
 74
     4
 75
     0
340
0
 46
0.0
 50
0.0
 44
0.0
 45
0.0
 49
-13.0
 74
     4
 75
     0
340
0
 46
0.0
 50
0.0
 44
0.0
 45
0.0
  0
LTYPE
  5
225
330
5
100
AcDbSymbolTableRecord
100
AcDbLinetypeTableRecord
  2
PHANTOM2
 70
     0
  3
Phantom (.5x) ___ _ _ ___ _ _ ___ _ _ ___ _ _
 72
    65
 73
     6
 40
31.75
 49
15.875
 74
     0
 49
-3.174999999999999
 74
     0
 49
3.174999999999999
 74
     0
 49
-3.174999999999999
 74
     0
 49
3.174999999999999
 74
     0
 49
-3.174999999999999
 74
     0
  0
LTYPE
  5
264
330
5
100
AcDbSymbolTableRecord
100
AcDbLinetypeTableRecord
  2
AM_ISO02W050
 70
     0
  3
__ __ __ __ __ __ __ __ __ __ __ __ __ __ __
 72
    65
 73
     2
 40
7.5
 49
6.0
 74
     0
 49
-1.5
 74
     0
  0
LTYPE
  5
265
330
5
100
AcDbSymbolTableRecord
100
AcDbLinetypeTableRecord
  2
AM_ISO08W050
 70
     0
  3
____ . ____ . ____ . ____ . ____ . ____ . ____
 72
    65
 73
     4
 40
18.0
 49
12.0
 74
     0
 49
-1.5
 74
     0
 49
3.0
 74
     0
 49
-1.5
 74
     0
  0
LTYPE
  5
266
330
5
100
AcDbSymbolTableRecord
100
AcDbLinetypeTableRecord
  2
AM_ISO09W050
 70
     0
  3
_____ . . _____ . . _____ . . ____ .. ____
 72
    65
 73
     6
 40
22.5
 49
12.0
 74
     0
 49
-1.5
 74
     0
 49
3.0
 74
     0
 49
-1.5
 74
     0
 49
3.0
 74
     0
 49
-1.5
 74
     0
  0
LTYPE
  5
267
330
5
100
AcDbSymbolTableRecord
100
AcDbLinetypeTableRecord
  2
Amconstr
 70
     0
  3
_______________________
 72
    65
 73
     2
 40
9999.0
 49
9999.0
 74
     0
 49
0.0
 74
     0
  0
LTYPE
  5
268
330
5
100
AcDbSymbolTableRecord
100
AcDbLinetypeTableRecord
  2
AM_ISO08W050x2
 70
     0
  3
__ . __ . __ . __ . __ . __
 72
    65
 73
     4
 40
9.0
 49
6.0
 74
     0
 49
-0.75
 74
     0
 49
1.5
 74
     0
 49
-0.75
 74
     0
  0
LTYPE
  5
269
330
5
100
AcDbSymbolTableRecord
100
AcDbLinetypeTableRecord
  2
AM_ISO02W050x2
 70
     0
  3
 _ _ _ _ _ _ _ _ _ _ _ _
 72
    65
 73
     2
 40
3.75
 49
3.0
 74
     0
 49
-0.75
 74
     0
  0
LTYPE
  5
26C
330
5
100
AcDbSymbolTableRecord
100
AcDbLinetypeTableRecord
  2
Amzigzag
 70
     0
  3
/\/-/\/-/\/-/\/-/\/-/\/
 72
    65
 73
     2
 40
11.0001
 49
0.0001
 74
     4
 75
   136
340
26B
 46
0.04
 50
0.0
 44
0.0
 45
0.0
 49
-11.0
 74
     0
  0
LTYPE
  5
27B
330
5
100
AcDbSymbolTableRecord
100
AcDbLinetypeTableRecord
  2
ACISOWELD
 70
     0
  3
_ _ _ _ _
 72
    65
 73
     2
 40
2.0
 49
2.0
 74
     0
 49
-1.0
 74
     0
  0
LTYPE
  5
27C
330
5
100
AcDbSymbolTableRecord
100
AcDbLinetypeTableRecord
  2
ACISOTGL
 70
     0
  3
_ _ _ _ _
 72
    65
 73
     2
 40
3.0
 49
2.0
 74
     0
 49
-1.0
 74
     0
  0
LTYPE
  5
27D
330
5
100
AcDbSymbolTableRecord
100
AcDbLinetypeTableRecord
  2
ACISOTGB
 70
     0
  3
__ . . __ . .
 72
    65
 73
     6
 40
9.0
 49
4.0
 74
     0
 49
-1.0
 74
     0
 49
1.0
 74
     0
 49
-1.0
 74
     0
 49
1.0
 74
     0
 49
-1.0
 74
     0
  0
ENDTAB
  0
TABLE
  2
LAYER
  5
2
330
0
100
AcDbSymbolTable
 70
     2
  0
LAYER
  5
10
102
{ACAD_XDICTIONARY
360
56D
102
}
330
2
100
AcDbSymbolTableRecord
100
AcDbLayerTableRecord
  2
0
 70
     0
 62
     7
  6
CONTINUOUS
370
    -3
390
F
347
3E
  0
LAYER
  5
46
102
{ACAD_XDICTIONARY
360
56F
102
}
330
2
100
AcDbSymbolTableRecord
100
AcDbLayerTableRecord
  2
1
 70
     0
 62
     7
420
 16777215
  6
CONTINUOUS
370
    -3
390
F
347
3E
  0
ENDTAB
  0
TABLE
  2
STYLE
  5
3
330
0
100
AcDbSymbolTable
 70
     4
  0
STYLE
  5
11
330
3
100
AcDbSymbolTableRecord
100
AcDbTextStyleTableRecord
  2
Standard
 70
     0
 40
0.0
 41
1.0
 50
0.0
 71
     0
 42
0.2
  3
txt
  4

  0
STYLE
  5
26B
330
3
100
AcDbSymbolTableRecord
100
AcDbTextStyleTableRecord
  2

 70
     1
 40
0.0
 41
1.0
 50
0.0
 71
     0
 42
0.2
  3
genltshp.shx
  4

  0
STYLE
  5
279
330
3
100
AcDbSymbolTableRecord
100
AcDbTextStyleTableRecord
  2
ACISOTS
 70
     0
 40
1.0
 41
1.0
 50
0.0
 71
     0
 42
0.2
  3
isocp.shx
  4

  0
STYLE
  5
27A
330
3
100
AcDbSymbolTableRecord
100
AcDbTextStyleTableRecord
  2
ACISOGDT
 70
     0
 40
0.0
 41
1.0
 50
0.0
 71
     0
 42
0.2
  3
amgdt.shx
  4

  0
ENDTAB
  0
TABLE
  2
VIEW
  5
6
330
0
100
AcDbSymbolTable
 70
     0
  0
ENDTAB
  0
TABLE
  2
UCS
  5
7
330
0
100
AcDbSymbolTable
 70
     0
  0
ENDTAB
  0
TABLE
  2
APPID
  5
9
330
0
100
AcDbSymbolTable
 70
     9
  0
APPID
  5
12
330
9
100
AcDbSymbolTableRecord
100
AcDbRegAppTableRecord
  2
ACAD
 70
     0
  0
APPID
  5
21E
330
9
100
AcDbSymbolTableRecord
100
AcDbRegAppTableRecord
  2
MCAD_NO_VIS
 70
     0
  0
APPID
  5
21F
330
9
100
AcDbSymbolTableRecord
100
AcDbRegAppTableRecord
  2
ACAD_TEMP_GRAPHIC
 70
     0
  0
APPID
  5
22A
330
9
100
AcDbSymbolTableRecord
100
AcDbRegAppTableRecord
  2
ACATTRIBSERVICES
 70
     0
  0
APPID
  5
246
330
9
100
AcDbSymbolTableRecord
100
AcDbRegAppTableRecord
  2
DESIGNERASSEMBLIES
 70
     0
  0
APPID
  5
261
330
9
100
AcDbSymbolTableRecord
100
AcDbRegAppTableRecord
  2
ACAD_DSTYLE_DIMJAG
 70
     0
  0
APPID
  5
262
330
9
100
AcDbSymbolTableRecord
100
AcDbRegAppTableRecord
  2
ACAD_DSTYLE_DIMBREAK
 70
     0
  0
APPID
  5
284
330
9
100
AcDbSymbolTableRecord
100
AcDbRegAppTableRecord
  2
ACAD_NAV_VCDISPLAY
 70
     0
  0
APPID
  5
56A
330
9
100
AcDbSymbolTableRecord
100
AcDbRegAppTableRecord
  2
ACAD_EXEMPT_FROM_CAD_STANDARDS
 70
     0
  0
ENDTAB
  0
TABLE
  2
DIMSTYLE
  5
A
330
0
100
AcDbSymbolTable
 70
     9
100
AcDbDimStyleTable
 71
     0
  0
DIMSTYLE
105
27
330
A
100
AcDbSymbolTableRecord
100
AcDbDimStyleTableRecord
  2
Standard
 70
     0
340
11
  0
DIMSTYLE
105
260
102
{ACAD_REACTORS
330
24F
102
}
330
A
100
AcDbSymbolTableRecord
100
AcDbDimStyleTableRecord
  2
AM_ISO
 70
     0
  4
"
 41
3.5
 42
1.0
 43
10.0
 44
1.0
 47
0.1
 48
0.1
 73
     0
 74
     0
 77
     1
 78
     8
 79
     2
 90
     1
140
3.5
141
0.0
143
0.0393701
146
0.71
147
1.5
172
     1
176
   256
177
   256
178
     2
271
     2
272
     3
274
     4
283
     0
284
     8
340
11
345
14
346
14
347
14
371
    -1
372
    -1
1001
ACAD_DSTYLE_DIMJAG
1070
   388
1040
1.5
1001
ACAD_DSTYLE_DIMBREAK
1070
   391
1040
3.75
  0
DIMSTYLE
105
26D
330
A
100
AcDbSymbolTableRecord
100
AcDbDimStyleTableRecord
  2
AM_ISO$3
 70
     0
  4
"
 41
3.5
 42
1.0
 43
10.0
 44
1.0
 47
0.1
 48
0.1
 73
     0
 77
     1
 78
     8
 79
     2
 90
     1
140
3.5
141
0.0
143
0.0393701
146
0.71
147
1.5
176
   256
177
   256
178
     2
271
     2
272
     3
274
     4
283
     0
284
     8
288
     1
289
     0
340
11
345
14
346
14
347
14
371
    -1
372
    -1
1001
ACAD_DSTYLE_DIMBREAK
1070
   391
1040
3.75
1001
ACAD_DSTYLE_DIMJAG
1070
   388
1040
1.5
  0
DIMSTYLE
105
26E
330
A
100
AcDbSymbolTableRecord
100
AcDbDimStyleTableRecord
  2
AM_ISO$4
 70
     0
  4
"
 41
3.5
 42
1.0
 43
10.0
 44
1.0
 47
0.1
 48
0.1
 73
     0
 77
     1
 78
     8
 79
     2
 90
     1
140
3.5
141
0.0
143
0.0393701
146
0.71
147
1.5
176
   256
177
   256
178
     2
271
     2
272
     3
274
     4
283
     0
284
     8
288
     1
289
     0
340
11
345
14
346
14
347
14
371
    -1
372
    -1
1001
ACAD_DSTYLE_DIMBREAK
1070
   391
1040
3.75
1001
ACAD_DSTYLE_DIMJAG
1070
   388
1040
1.5
  0
DIMSTYLE
105
26F
330
A
100
AcDbSymbolTableRecord
100
AcDbDimStyleTableRecord
  2
AM_ISO$6
 70
     0
  4
"
 41
3.5
 42
1.0
 43
10.0
 44
1.0
 47
0.1
 48
0.1
 73
     0
 74
     0
 78
     8
 79
     2
 90
     1
140
3.5
141
0.0
143
0.0393701
146
0.71
147
1.5
172
     1
176
   256
177
   256
178
     2
271
     2
272
     3
274
     4
283
     0
284
     8
340
11
345
14
346
14
347
14
371
    -1
372
    -1
1001
ACAD_DSTYLE_DIMBREAK
1070
   391
1040
3.75
1001
ACAD_DSTYLE_DIMJAG
1070
   388
1040
1.5
  0
DIMSTYLE
105
270
330
A
100
AcDbSymbolTableRecord
100
AcDbDimStyleTableRecord
  2
AM_ISO$7
 70
     0
  4
"
 41
3.5
 42
1.0
 43
10.0
 44
1.0
 47
0.1
 48
0.1
 73
     0
 74
     0
 77
     1
 78
     8
 79
     2
 90
     1
140
3.5
141
0.0
143
0.0393701
146
0.71
147
1.5
172
     1
176
   256
177
   256
178
     2
271
     2
272
     3
274
     4
283
     0
284
     8
340
11
345
14
346
14
347
14
371
    -1
372
    -1
1001
ACAD_DSTYLE_DIMBREAK
1070
   391
1040
3.75
1001
ACAD_DSTYLE_DIMJAG
1070
   388
1040
1.5
  0
DIMSTYLE
105
271
330
A
100
AcDbSymbolTableRecord
100
AcDbDimStyleTableRecord
  2
AM_ISO$SF
 70
     0
  4
"
 41
3.5
 42
1.0
 43
10.0
 44
1.0
 47
0.1
 48
0.1
 73
     0
 74
     0
 75
     1
 76
     1
 77
     1
 78
     8
 79
     2
 90
     1
140
3.5
141
0.0
143
0.0393701
146
0.71
147
1.5
172
     1
176
   256
177
   256
178
     2
271
     2
272
     3
274
     4
283
     0
284
     8
340
11
345
14
346
14
347
14
371
    -1
372
    -1
1001
ACAD_DSTYLE_DIMBREAK
1070
   391
1040
3.75
1001
ACAD_DSTYLE_DIMJAG
1070
   388
1040
1.5
  0
DIMSTYLE
105
276
330
A
100
AcDbSymbolTableRecord
100
AcDbDimStyleTableRecord
  2
AM_ISO$SH
 70
     0
  4
"
 41
3.5
 42
1.0
 43
10.0
 44
1.0
 47
0.1
 48
0.1
 73
     0
 74
     0
 75
     1
 76
     1
 77
     1
 78
     8
 79
     2
 90
     1
140
3.5
141
0.0
143
0.0393701
144
2.0
146
0.71
147
1.5
172
     1
173
     1
176
   256
177
   256
178
     2
271
     2
272
     3
274
     4
283
     0
284
     8
340
11
343
272
345
14
346
14
347
14
371
    -1
372
    -1
1001
ACAD_DSTYLE_DIMBREAK
1070
   391
1040
3.75
1001
ACAD_DSTYLE_DIMJAG
1070
   388
1040
1.5
  0
ENDTAB
  0
TABLE
  2
BLOCK_RECORD
  5
1
330
0
100
AcDbSymbolTable
 70
     9
  0
BLOCK_RECORD
  5
1F
330
1
100
AcDbSymbolTableRecord
100
AcDbBlockTableRecord
  2
*Model_Space
340
22
 70
     0
280
     1
281
     0
  0
BLOCK_RECORD
  5
1B
330
1
100
AcDbSymbolTableRecord
100
AcDbBlockTableRecord
  2
*Paper_Space
340
1E
 70
     0
280
     1
281
     0
  0
BLOCK_RECORD
  5
23
330
1
100
AcDbSymbolTableRecord
100
AcDbBlockTableRecord
  2
*Paper_Space0
340
26
 70
     0
280
     1
281
     0
  0
BLOCK_RECORD
  5
272
330
1
100
AcDbSymbolTableRecord
100
AcDbBlockTableRecord
  2
GENAXEH
340
0
 70
     0
280
     1
281
     0
  0
ENDTAB
  0
ENDSEC
  0
SECTION
  2
BLOCKS
  0
BLOCK
  5
20
330
1F
100
AcDbEntity
  8
0
100
AcDbBlockBegin
  2
*Model_Space
 70
     0
 10
0.0
 20
0.0
 30
0.0
  3
*Model_Space
  1

  0
ENDBLK
  5
21
330
1F
100
AcDbEntity
  8
0
100
AcDbBlockEnd
  0
BLOCK
  5
1C
330
1B
100
AcDbEntity
 67
     1
  8
0
100
AcDbBlockBegin
  2
*Paper_Space
 70
     0
 10
0.0
 20
0.0
 30
0.0
  3
*Paper_Space
  1

  0
ENDBLK
  5
1D
330
1B
100
AcDbEntity
 67
     1
  8
0
100
AcDbBlockEnd
  0
BLOCK
  5
24
330
23
100
AcDbEntity
 67
     1
  8
0
100
AcDbBlockBegin
  2
*Paper_Space0
 70
     0
 10
0.0
 20
0.0
 30
0.0
  3
*Paper_Space0
  1

  0
ENDBLK
  5
25
330
23
100
AcDbEntity
 67
     1
  8
0
100
AcDbBlockEnd
  0
BLOCK
  5
274
330
272
100
AcDbEntity
  8
0
100
AcDbBlockBegin
  2
GENAXEH
 70
     0
 10
0.0
 20
0.0
 30
0.0
  3
GENAXEH
  1

  0
LINE
  5
273
330
272
100
AcDbEntity
  8
0
100
AcDbLine
 10
-1.0
 20
0.0
 30
0.0
 11
1.0
 21
0.0
 31
0.0
  0
ENDBLK
  5
275
330
272
100
AcDbEntity
  8
0
100
AcDbBlockEnd
  0
ENDSEC
  0
SECTION
  2
ENTITIES
  0
LINE
  5
45
330
1F
100
AcDbEntity
  8
1
  6
Continuous
 62
   155
100
AcDbLine
 10
492.209763
 20
542.3265169999999
 30
0.0
 11
492.209763
 21
536.326517
 31
0.0
  0
LINE
  5
47
330
1F
100
AcDbEntity
  8
1
  6
Continuous
 62
   155
100
AcDbLine
 10
710.2097629999999
 20
702.326517
 30
0.0
 11
492.209763
 21
702.326517
 31
0.0
  0
LINE
  5
48
330
1F
100
AcDbEntity
  8
1
  6
Continuous
 62
   155
100
AcDbLine
 10
492.209763
 20
702.326517
 30
0.0
 11
492.209763
 21
542.3265169999999
 31
0.0
  0
LINE
  5
49
330
1F
100
AcDbEntity
  8
1
  6
Continuous
 62
   155
100
AcDbLine
 10
710.2097629999999
 20
542.3265169999999
 30
0.0
 11
492.209763
 21
542.3265169999999
 31
0.0
  0
LINE
  5
4A
330
1F
100
AcDbEntity
  8
1
  6
Continuous
 62
   155
100
AcDbLine
 10
492.209763
 20
536.326517
 30
0.0
 11
710.2097629999999
 21
536.326517
 31
0.0
  0
LINE
  5
4B
330
1F
100
AcDbEntity
  8
1
  6
Continuous
 62
   155
100
AcDbLine
 10
710.2097629999999
 20
491.8265169999999
 30
0.0
 11
709.2083249999999
 21
491.8265169999999
 31
0.0
  0
LINE
  5
4C
330
1F
100
AcDbEntity
  8
1
  6
Continuous
 62
   155
100
AcDbLine
 10
497.2101379999999
 20
491.8265169999999
 30
0.0
 11
492.209763
 21
491.8265169999999
 31
0.0
  0
LINE
  5
4D
330
1F
100
AcDbEntity
  8
1
  6
Continuous
 62
   155
100
AcDbLine
 10
744.709763
 20
622.3265169999999
 30
0.0
 11
744.709763
 21
702.740731
 31
0.0
  0
LINE
  5
4E
330
1F
100
AcDbEntity
  8
1
  6
Continuous
 62
   155
100
AcDbLine
 10
497.209763
 20
504.3265169999999
 30
0.0
 11
709.2097629999999
 21
504.3265169999999
 31
0.0
  0
LINE
  5
4F
330
1F
100
AcDbEntity
  8
1
  6
Continuous
 62
   155
100
AcDbLine
 10
710.2097629999999
 20
490.8265169999999
 30
0.0
 11
744.709763
 21
490.8265169999999
 31
0.0
  0
LINE
  5
50
330
1F
100
AcDbEntity
  8
1
  6
Continuous
 62
   155
100
AcDbLine
 10
346.209763
 20
622.3265169999999
 30
0.0
 11
346.209763
 21
641.3265169999999
 31
0.0
  0
LINE
  5
51
330
1F
100
AcDbEntity
  8
1
  6
Continuous
 62
   155
100
AcDbLine
 10
744.709763
 20
541.9123039999999
 30
0.0
 11
744.709763
 21
622.3265169999999
 31
0.0
  0
LINE
  5
52
330
1F
100
AcDbEntity
  8
1
  6
Continuous
 62
   155
100
AcDbLine
 10
710.2097629999999
 20
541.9123039999999
 30
0.0
 11
744.709763
 21
541.9123039999999
 31
0.0
  0
LINE
  5
53
330
1F
100
AcDbEntity
  8
1
  6
Continuous
 62
   155
100
AcDbLine
 10
710.2097629999999
 20
708.3265169999999
 30
0.0
 11
492.209763
 21
708.3265169999999
 31
0.0
  0
LINE
  5
54
330
1F
100
AcDbEntity
  8
1
  6
Continuous
 62
   155
100
AcDbLine
 10
744.709763
 20
490.8265169999999
 30
0.0
 11
744.709763
 21
541.9123039999999
 31
0.0
  0
LINE
  5
55
330
1F
100
AcDbEntity
  8
1
  6
Continuous
 62
   155
100
AcDbLine
 10
492.209763
 20
708.3265169999999
 30
0.0
 11
492.209763
 21
702.326517
 31
0.0
  0
LINE
  5
56
330
1F
100
AcDbEntity
  8
1
  6
Continuous
 62
   155
100
AcDbLine
 10
709.2097629999999
 20
490.326517
 30
0.0
 11
709.2097629999999
 21
504.3265169999999
 31
0.0
  0
LINE
  5
57
330
1F
100
AcDbEntity
  8
1
  6
Continuous
 62
   155
100
AcDbLine
 10
497.209763
 20
490.326517
 30
0.0
 11
709.2097629999999
 21
490.326517
 31
0.0
  0
LINE
  5
58
330
1F
100
AcDbEntity
  8
1
  6
Continuous
 62
   155
100
AcDbLine
 10
497.209763
 20
490.326517
 30
0.0
 11
497.209763
 21
504.3265169999999
 31
0.0
  0
LINE
  5
59
330
1F
100
AcDbEntity
  8
1
  6
Continuous
 62
   155
100
AcDbLine
 10
497.209763
 20
752.826517
 30
0.0
 11
497.209763
 21
753.8265169999999
 31
0.0
  0
LINE
  5
5A
330
1F
100
AcDbEntity
  8
1
  6
Continuous
 62
   155
100
AcDbLine
 10
710.2097629999999
 20
490.8265169999999
 30
0.0
 11
710.2097629999999
 21
541.9123039999999
 31
0.0
  0
LINE
  5
5B
330
1F
100
AcDbEntity
  8
1
  6
Continuous
 62
   155
100
AcDbLine
 10
710.2097629999999
 20
541.9123039999999
 30
0.0
 11
710.2097629999999
 21
702.740731
 31
0.0
  0
LINE
  5
5C
330
1F
100
AcDbEntity
  8
1
  6
Continuous
 62
   155
100
AcDbLine
 10
710.2097629999999
 20
702.740731
 30
0.0
 11
710.2097629999999
 21
753.8265169999999
 31
0.0
  0
LINE
  5
5D
330
1F
100
AcDbEntity
  8
1
  6
Continuous
 62
   155
100
AcDbLine
 10
426.209763
 20
622.3265169999999
 30
0.0
 11
426.209763
 21
642.3265169999999
 31
0.0
  0
LINE
  5
5E
330
1F
100
AcDbEntity
  8
1
  6
Continuous
 62
   155
100
AcDbLine
 10
426.209763
 20
622.3265169999999
 30
0.0
 11
426.209763
 21
602.326517
 31
0.0
  0
LINE
  5
5F
330
1F
100
AcDbEntity
  8
1
  6
Continuous
 62
   155
100
AcDbLine
 10
482.8411599999999
 20
622.3265169999999
 30
0.0
 11
482.8411599999999
 21
505.3265169999999
 31
0.0
  0
LINE
  5
60
330
1F
100
AcDbEntity
  8
1
  6
Continuous
 62
   155
100
AcDbLine
 10
492.209763
 20
491.8265169999999
 30
0.0
 11
492.209763
 21
536.326517
 31
0.0
  0
LINE
  5
61
330
1F
100
AcDbEntity
  8
1
  6
Continuous
 62
   155
100
AcDbLine
 10
492.209763
 20
708.3265169999999
 30
0.0
 11
492.209763
 21
752.826517
 31
0.0
  0
LINE
  5
62
330
1F
100
AcDbEntity
  8
1
  6
Continuous
 62
   155
100
AcDbLine
 10
497.209763
 20
752.826517
 30
0.0
 11
492.209763
 21
752.826517
 31
0.0
  0
LINE
  5
63
330
1F
100
AcDbEntity
  8
1
  6
Continuous
 62
   155
100
AcDbLine
 10
710.2097629999999
 20
752.826517
 30
0.0
 11
657.209763
 21
752.826517
 31
0.0
  0
LINE
  5
64
330
1F
100
AcDbEntity
  8
1
  6
Continuous
 62
   155
100
AcDbLine
 10
657.209763
 20
752.826517
 30
0.0
 11
657.209763
 21
753.8265169999999
 31
0.0
  0
LINE
  5
65
330
1F
100
AcDbEntity
  8
1
  6
Continuous
 62
   155
100
AcDbLine
 10
658.2097629999999
 20
753.8265169999999
 30
0.0
 11
496.209763
 21
753.8265169999999
 31
0.0
  0
LINE
  5
66
330
1F
100
AcDbEntity
  8
1
  6
Continuous
 62
   155
100
AcDbLine
 10
496.209763
 20
753.8265169999999
 30
0.0
 11
496.209763
 21
759.8265169999999
 31
0.0
  0
LINE
  5
67
330
1F
100
AcDbEntity
  8
1
  6
Continuous
 62
   155
100
AcDbLine
 10
658.2097629999999
 20
759.8265169999999
 30
0.0
 11
496.209763
 21
759.8265169999999
 31
0.0
  0
LINE
  5
68
330
1F
100
AcDbEntity
  8
1
  6
Continuous
 62
   155
100
AcDbLine
 10
658.2097629999999
 20
753.8265169999999
 30
0.0
 11
658.2097629999999
 21
759.8265169999999
 31
0.0
  0
LINE
  5
69
330
1F
100
AcDbEntity
  8
1
  6
Continuous
 62
   155
370
     5
100
AcDbLine
 10
346.209763
 20
622.3265169999999
 30
0.0
 11
426.209763
 21
622.3265169999999
 31
0.0
  0
LINE
  5
6A
330
1F
100
AcDbEntity
  8
1
  6
Continuous
 62
   155
100
AcDbLine
 10
346.209763
 20
622.3265169999999
 30
0.0
 11
346.209763
 21
603.3265169999999
 31
0.0
  0
LINE
  5
6B
330
1F
100
AcDbEntity
  8
1
  6
Continuous
 62
   155
370
     5
100
AcDbLine
 10
492.209763
 20
622.3265169999999
 30
0.0
 11
482.8411599999999
 21
622.3265169999999
 31
0.0
  0
LINE
  5
6C
330
1F
100
AcDbEntity
  8
1
  6
Continuous
 62
   155
100
AcDbLine
 10
482.8411599999999
 20
739.3265169999999
 30
0.0
 11
482.8411599999999
 21
622.3265169999999
 31
0.0
  0
LINE
  5
6D
330
1F
100
AcDbEntity
  8
1
  6
Continuous
 62
   155
370
     5
100
AcDbLine
 10
426.209763
 20
622.3265169999999
 30
0.0
 11
428.2097629999999
 21
622.3265169999999
 31
0.0
  0
LINE
  5
6E
330
1F
100
AcDbEntity
  8
1
  6
Continuous
 62
   155
100
AcDbLine
 10
482.8411599999999
 20
505.3265169999999
 30
0.0
 11
435.209763
 21
532.8265169999999
 31
0.0
  0
LINE
  5
6F
330
1F
100
AcDbEntity
  8
1
  6
Continuous
 62
   155
100
AcDbLine
 10
793.2097629999999
 20
522.8265169999999
 30
0.0
 11
744.709763
 21
490.8265169999999
 31
0.0
  0
LINE
  5
70
330
1F
100
AcDbEntity
  8
1
  6
Continuous
 62
   155
100
AcDbLine
 10
435.209763
 20
560.826517
 30
0.0
 11
428.2097629999999
 21
560.826517
 31
0.0
  0
LINE
  5
71
330
1F
100
AcDbEntity
  8
1
  6
Continuous
 62
   155
100
AcDbLine
 10
793.2097629999999
 20
721.8265169999999
 30
0.0
 11
744.709763
 21
753.8265169999999
 31
0.0
  0
LINE
  5
72
330
1F
100
AcDbEntity
  8
1
  6
Continuous
 62
   155
100
AcDbLine
 10
793.2097629999999
 20
721.8265169999999
 30
0.0
 11
793.2097629999999
 21
522.8265169999999
 31
0.0
  0
LINE
  5
73
330
1F
100
AcDbEntity
  8
1
  6
Continuous
 62
   155
100
AcDbLine
 10
744.709763
 20
702.740731
 30
0.0
 11
744.709763
 21
753.8265169999999
 31
0.0
  0
LINE
  5
74
330
1F
100
AcDbEntity
  8
1
  6
Continuous
 62
   155
100
AcDbLine
 10
710.2097629999999
 20
702.740731
 30
0.0
 11
744.709763
 21
702.740731
 31
0.0
  0
LINE
  5
75
330
1F
100
AcDbEntity
  8
1
  6
Continuous
 62
   155
100
AcDbLine
 10
710.2097629999999
 20
753.8265169999999
 30
0.0
 11
744.709763
 21
753.8265169999999
 31
0.0
  0
LINE
  5
76
330
1F
100
AcDbEntity
  8
1
  6
Continuous
 62
   155
100
AcDbLine
 10
482.8411599999999
 20
739.3265169999999
 30
0.0
 11
435.209763
 21
711.8265169999999
 31
0.0
  0
LINE
  5
77
330
1F
100
AcDbEntity
  8
1
  6
Continuous
 62
   155
100
AcDbLine
 10
435.209763
 20
683.8265169999999
 30
0.0
 11
428.2097629999999
 21
683.8265169999999
 31
0.0
  0
LINE
  5
78
330
1F
100
AcDbEntity
  8
1
  6
Continuous
 62
   155
100
AcDbLine
 10
428.2097629999999
 20
683.8265169999999
 30
0.0
 11
428.2097629999999
 21
560.826517
 31
0.0
  0
LINE
  5
79
330
1F
100
AcDbEntity
  8
1
  6
Continuous
 62
   155
100
AcDbLine
 10
435.209763
 20
532.8265169999999
 30
0.0
 11
435.209763
 21
711.8265169999999
 31
0.0
  0
LINE
  5
7A
330
1F
100
AcDbEntity
  8
1
  6
Continuous
 62
   155
100
AcDbLine
 10
529.7097629999999
 20
504.3265169999999
 30
0.0
 11
529.7097629999999
 21
522.8265169999999
 31
0.0
  0
LINE
  5
7B
330
1F
100
AcDbEntity
  8
1
  6
Continuous
 62
   155
100
AcDbLine
 10
529.7097629999999
 20
522.8265169999999
 30
0.0
 11
529.7097629999999
 21
536.326517
 31
0.0
  0
LINE
  5
7C
330
1F
100
AcDbEntity
  8
1
  6
Continuous
 62
   155
100
AcDbLine
 10
634.7097629999999
 20
504.3265169999999
 30
0.0
 11
634.7097629999999
 21
522.8265169999999
 31
0.0
  0
LINE
  5
7D
330
1F
100
AcDbEntity
  8
1
  6
Continuous
 62
   155
100
AcDbLine
 10
529.7097629999999
 20
522.8265169999999
 30
0.0
 11
634.7097629999999
 21
522.8265169999999
 31
0.0
  0
LINE
  5
7E
330
1F
100
AcDbEntity
  8
1
  6
Continuous
 62
   155
100
AcDbLine
 10
634.7097629999999
 20
522.8265169999999
 30
0.0
 11
634.7097629999999
 21
536.326517
 31
0.0
  0
LINE
  5
7F
330
1F
100
AcDbEntity
  8
1
  6
Continuous
 62
   155
100
AcDbLine
 10
575.945114
 20
787.8265169999999
 30
0.0
 11
591.5652309999999
 21
787.8265169999999
 31
0.0
  0
LINE
  5
80
330
1F
100
AcDbEntity
  8
1
  6
Continuous
 62
   155
100
AcDbLine
 10
591.5652309999999
 20
786.8265169999999
 30
0.0
 11
591.5652309999999
 21
787.8265169999999
 31
0.0
  0
LINE
  5
81
330
1F
100
AcDbEntity
  8
1
  6
Continuous
 62
   155
100
AcDbLine
 10
575.945114
 20
786.8265169999999
 30
0.0
 11
575.945114
 21
787.8265169999999
 31
0.0
  0
LINE
  5
82
330
1F
100
AcDbEntity
  8
1
  6
Continuous
 62
   155
100
AcDbLine
 10
559.7097629999999
 20
787.8265169999999
 30
0.0
 11
575.32988
 21
787.8265169999999
 31
0.0
  0
LINE
  5
83
330
1F
100
AcDbEntity
  8
1
  6
Continuous
 62
   155
100
AcDbLine
 10
575.32988
 20
786.8265169999999
 30
0.0
 11
575.32988
 21
787.8265169999999
 31
0.0
  0
LINE
  5
84
330
1F
100
AcDbEntity
  8
1
  6
Continuous
 62
   155
100
AcDbLine
 10
559.7097629999999
 20
786.8265169999999
 30
0.0
 11
559.7097629999999
 21
787.8265169999999
 31
0.0
  0
LINE
  5
85
330
1F
100
AcDbEntity
  8
1
  6
Continuous
 62
   155
100
AcDbLine
 10
630.7097629999999
 20
786.8265169999999
 30
0.0
 11
523.709763
 21
786.8265169999999
 31
0.0
  0
LINE
  5
86
330
1F
100
AcDbEntity
  8
1
  6
Continuous
 62
   155
100
AcDbLine
 10
657.7097629999999
 20
759.8265169999999
 30
0.0
 11
630.7097629999999
 21
786.8265169999999
 31
0.0
  0
LINE
  5
87
330
1F
100
AcDbEntity
  8
1
  6
Continuous
 62
   155
100
AcDbLine
 10
496.709763
 20
759.8265169999999
 30
0.0
 11
523.709763
 21
786.8265169999999
 31
0.0
  0
LINE
  5
88
330
1F
100
AcDbEntity
  8
1
  6
Continuous
 62
   155
100
AcDbLine
 10
428.2097629999999
 20
642.3265169999999
 30
0.0
 11
426.209763
 21
642.3265169999999
 31
0.0
  0
LINE
  5
89
330
1F
100
AcDbEntity
  8
1
  6
Continuous
 62
   155
100
AcDbLine
 10
346.209763
 20
603.3265169999999
 30
0.0
 11
426.209763
 21
603.3265169999999
 31
0.0
  0
LINE
  5
8A
330
1F
100
AcDbEntity
  8
1
  6
Continuous
 62
   155
100
AcDbLine
 10
426.209763
 20
641.3265169999999
 30
0.0
 11
346.209763
 21
641.3265169999999
 31
0.0
  0
LINE
  5
8B
330
1F
100
AcDbEntity
  8
1
  6
Continuous
 62
   155
100
AcDbLine
 10
492.209763
 20
739.3265169999999
 30
0.0
 11
482.8411599999999
 21
739.3265169999999
 31
0.0
  0
LINE
  5
8C
330
1F
100
AcDbEntity
  8
1
  6
Continuous
 62
   155
100
AcDbLine
 10
482.8411599999999
 20
505.3265169999999
 30
0.0
 11
492.209763
 21
505.3265169999999
 31
0.0
  0
LINE
  5
8D
330
1F
100
AcDbEntity
  8
1
  6
Continuous
 62
   155
100
AcDbLine
 10
426.209763
 20
602.326517
 30
0.0
 11
428.2097629999999
 21
602.326517
 31
0.0
  0
LINE
  5
8E
330
1F
100
AcDbEntity
  8
1
  6
Continuous
 62
   155
100
AcDbLine
 10
297.700528
 20
541.9123039999999
 30
0.0
 11
246.614741
 21
490.8265169999999
 31
0.0
  0
LINE
  5
8F
330
1F
100
AcDbEntity
  8
1
  6
Continuous
 62
   155
100
AcDbLine
 10
246.614741
 20
490.8265169999999
 30
0.0
 11
166.200528
 21
490.8265169999999
 31
0.0
  0
LINE
  5
90
330
1F
100
AcDbEntity
  8
1
  6
Continuous
 62
   155
100
AcDbLine
 10
35.20052800000001
 20
504.3265169999999
 30
0.0
 11
72.28573100000001
 21
504.3265169999999
 31
0.0
  0
LINE
  5
91
330
1F
100
AcDbEntity
  8
1
  6
Continuous
 62
   155
100
AcDbLine
 10
166.200528
 20
490.8265169999999
 30
0.0
 11
85.786314
 21
490.8265169999999
 31
0.0
  0
LINE
  5
92
330
1F
100
AcDbEntity
  8
1
  6
Continuous
 62
   155
100
AcDbLine
 10
34.70052800000001
 20
622.3265169999999
 30
0.0
 11
34.70052800000001
 21
702.740731
 31
0.0
  0
LINE
  5
93
330
1F
100
AcDbEntity
  8
1
  6
Continuous
 62
   155
100
AcDbLine
 10
34.70052800000001
 20
541.9123039999999
 30
0.0
 11
34.70052800000001
 21
622.3265169999999
 31
0.0
  0
LINE
  5
94
330
1F
100
AcDbEntity
  8
1
  6
Continuous
 62
   155
100
AcDbLine
 10
85.786314
 20
490.8265169999999
 30
0.0
 11
34.70052800000001
 21
541.9123039999999
 31
0.0
  0
LINE
  5
95
330
1F
100
AcDbEntity
  8
1
  6
Continuous
 62
   155
100
AcDbLine
 10
35.20052800000001
 20
490.326517
 30
0.0
 11
35.20052800000001
 21
504.3265169999999
 31
0.0
  0
LINE
  5
96
330
1F
100
AcDbEntity
  8
1
  6
Continuous
 62
   155
100
AcDbLine
 10
82.20052800000001
 20
494.41233
 30
0.0
 11
82.20052800000001
 21
490.326517
 31
0.0
  0
LINE
  5
97
330
1F
100
AcDbEntity
  8
1
  6
Continuous
 62
   155
100
AcDbLine
 10
82.20052800000001
 20
490.326517
 30
0.0
 11
35.20052800000001
 21
490.326517
 31
0.0
  0
LINE
  5
98
330
1F
100
AcDbEntity
  8
1
  6
Continuous
 62
   155
100
AcDbLine
 10
247.200528
 20
753.8265169999999
 30
0.0
 11
246.613278
 21
753.8265169999999
 31
0.0
  0
LINE
  5
99
330
1F
100
AcDbEntity
  8
1
  6
Continuous
 62
   155
100
AcDbLine
 10
85.78777800000001
 20
753.8265169999999
 30
0.0
 11
85.200528
 21
753.8265169999999
 31
0.0
  0
LINE
  5
9A
330
1F
100
AcDbEntity
  8
1
  6
Continuous
 62
   155
100
AcDbLine
 10
247.200528
 20
759.8265169999999
 30
0.0
 11
85.200528
 21
759.8265169999999
 31
0.0
  0
LINE
  5
9B
330
1F
100
AcDbEntity
  8
1
  6
Continuous
 62
   155
100
AcDbLine
 10
247.200528
 20
753.8265169999999
 30
0.0
 11
247.200528
 21
759.8265169999999
 31
0.0
  0
LINE
  5
9C
330
1F
100
AcDbEntity
  8
1
  6
Continuous
 62
   155
100
AcDbLine
 10
85.200528
 20
753.8265169999999
 30
0.0
 11
85.200528
 21
759.8265169999999
 31
0.0
  0
LINE
  5
9D
330
1F
100
AcDbEntity
  8
1
  6
Continuous
 62
   155
370
     5
100
AcDbLine
 10
166.200528
 20
522.8265169999999
 30
0.0
 11
166.200528
 21
490.8265169999999
 31
0.0
  0
LINE
  5
9E
330
1F
100
AcDbEntity
  8
1
  6
Continuous
 62
   155
370
     5
100
AcDbLine
 10
166.200528
 20
721.8265169999999
 30
0.0
 11
166.200528
 21
753.8265169999999
 31
0.0
  0
LINE
  5
9F
330
1F
100
AcDbEntity
  8
1
  6
Continuous
 62
   155
100
AcDbLine
 10
34.70052800000001
 20
702.740731
 30
0.0
 11
85.786314
 21
753.8265169999999
 31
0.0
  0
LINE
  5
A0
330
1F
100
AcDbEntity
  8
1
  6
Continuous
 62
   155
100
AcDbLine
 10
246.614741
 20
753.8265169999999
 30
0.0
 11
297.700528
 21
702.740731
 31
0.0
  0
LINE
  5
A1
330
1F
100
AcDbEntity
  8
1
  6
Continuous
 62
   155
100
AcDbLine
 10
166.200528
 20
753.8265169999999
 30
0.0
 11
246.614741
 21
753.8265169999999
 31
0.0
  0
LINE
  5
A2
330
1F
100
AcDbEntity
  8
1
  6
Continuous
 62
   155
100
AcDbLine
 10
85.786314
 20
753.8265169999999
 30
0.0
 11
166.200528
 21
753.8265169999999
 31
0.0
  0
LINE
  5
A3
330
1F
100
AcDbEntity
  8
1
  6
Continuous
 62
   155
100
AcDbLine
 10
297.700528
 20
622.3265169999999
 30
0.0
 11
297.700528
 21
541.9123039999999
 31
0.0
  0
LINE
  5
A4
330
1F
100
AcDbEntity
  8
1
  6
Continuous
 62
   155
100
AcDbLine
 10
297.700528
 20
702.740731
 30
0.0
 11
297.700528
 21
622.3265169999999
 31
0.0
  0
LINE
  5
A5
330
1F
100
AcDbEntity
  8
1
  6
Continuous
 62
   155
100
AcDbLine
 10
248.704965
 20
492.916907
 30
0.0
 11
250.200528
 21
490.326517
 31
0.0
  0
LINE
  5
A6
330
1F
100
AcDbEntity
  8
1
  6
Continuous
 62
   155
100
AcDbLine
 10
287.700528
 20
504.3265169999999
 30
0.0
 11
273.907911
 21
518.119134
 31
0.0
  0
LINE
  5
A7
330
1F
100
AcDbEntity
  8
1
  6
Continuous
 62
   155
100
AcDbLine
 10
250.200528
 20
494.41233
 30
0.0
 11
250.200528
 21
490.326517
 31
0.0
  0
LINE
  5
A8
330
1F
100
AcDbEntity
  8
1
  6
Continuous
 62
   155
100
AcDbLine
 10
297.200528
 20
490.326517
 30
0.0
 11
297.200528
 21
504.3265169999999
 31
0.0
  0
LINE
  5
A9
330
1F
100
AcDbEntity
  8
1
  6
Continuous
 62
   155
100
AcDbLine
 10
250.200528
 20
490.326517
 30
0.0
 11
297.200528
 21
490.326517
 31
0.0
  0
LINE
  5
AA
330
1F
100
AcDbEntity
  8
1
  6
Continuous
 62
   155
100
AcDbLine
 10
297.200528
 20
504.3265169999999
 30
0.0
 11
260.115325
 21
504.3265169999999
 31
0.0
  0
LINE
  5
AB
330
1F
100
AcDbEntity
  8
1
  6
Continuous
 62
   155
100
AcDbLine
 10
44.700528
 20
504.3265169999999
 30
0.0
 11
58.493145
 21
518.119134
 31
0.0
  0
LINE
  5
AC
330
1F
100
AcDbEntity
  8
1
  6
Continuous
 62
   155
100
AcDbLine
 10
83.69609
 20
492.916907
 30
0.0
 11
82.20052800000001
 21
490.326517
 31
0.0
  0
LINE
  5
AD
330
1F
100
AcDbEntity
  8
1
  6
Continuous
 62
   155
100
AcDbLine
 10
125.717618
 20
787.8265169999999
 30
0.0
 11
133.681485
 21
787.8265169999999
 31
0.0
  0
LINE
  5
AE
330
1F
100
AcDbEntity
  8
1
  6
Continuous
 62
   155
100
AcDbLine
 10
133.681485
 20
787.8265169999999
 30
0.0
 11
135.920254
 21
787.8265169999999
 31
0.0
  0
LINE
  5
AF
330
1F
100
AcDbEntity
  8
1
  6
Continuous
 62
   155
100
AcDbLine
 10
135.920254
 20
787.8265169999999
 30
0.0
 11
141.337735
 21
787.8265169999999
 31
0.0
  0
LINE
  5
B0
330
1F
100
AcDbEntity
  8
1
  6
Continuous
 62
   155
100
AcDbLine
 10
125.717618
 20
786.8265169999999
 30
0.0
 11
125.717618
 21
787.8265169999999
 31
0.0
  0
LINE
  5
B1
330
1F
100
AcDbEntity
  8
1
  6
Continuous
 62
   155
100
AcDbLine
 10
133.681485
 20
786.8265169999999
 30
0.0
 11
133.681485
 21
787.8265169999999
 31
0.0
  0
LINE
  5
B2
330
1F
100
AcDbEntity
  8
1
  6
Continuous
 62
   155
100
AcDbLine
 10
135.920254
 20
786.8265169999999
 30
0.0
 11
135.920254
 21
787.8265169999999
 31
0.0
  0
LINE
  5
B3
330
1F
100
AcDbEntity
  8
1
  6
Continuous
 62
   155
100
AcDbLine
 10
141.337735
 20
786.8265169999999
 30
0.0
 11
141.337735
 21
787.8265169999999
 31
0.0
  0
LINE
  5
B4
330
1F
100
AcDbEntity
  8
1
  6
Continuous
 62
   155
100
AcDbLine
 10
159.760586
 20
787.8265169999999
 30
0.0
 11
168.989102
 21
787.8265169999999
 31
0.0
  0
LINE
  5
B5
330
1F
100
AcDbEntity
  8
1
  6
Continuous
 62
   155
100
AcDbLine
 10
168.989102
 20
786.8265169999999
 30
0.0
 11
168.989102
 21
787.8265169999999
 31
0.0
  0
LINE
  5
B6
330
1F
100
AcDbEntity
  8
1
  6
Continuous
 62
   155
100
AcDbLine
 10
159.760586
 20
786.8265169999999
 30
0.0
 11
159.760586
 21
787.8265169999999
 31
0.0
  0
LINE
  5
B7
330
1F
100
AcDbEntity
  8
1
  6
Continuous
 62
   155
100
AcDbLine
 10
169.638516
 20
787.8265169999999
 30
0.0
 11
172.49252
 21
787.8265169999999
 31
0.0
  0
LINE
  5
B8
330
1F
100
AcDbEntity
  8
1
  6
Continuous
 62
   155
100
AcDbLine
 10
169.638516
 20
786.8265169999999
 30
0.0
 11
169.638516
 21
787.8265169999999
 31
0.0
  0
LINE
  5
B9
330
1F
100
AcDbEntity
  8
1
  6
Continuous
 62
   155
100
AcDbLine
 10
182.079922
 20
786.8265169999999
 30
0.0
 11
182.079922
 21
787.8265169999999
 31
0.0
  0
LINE
  5
BA
330
1F
100
AcDbEntity
  8
1
  6
Continuous
 62
   155
370
     5
100
AcDbLine
 10
172.49252
 20
786.8265169999999
 30
0.0
 11
172.49252
 21
787.8265169999999
 31
0.0
  0
LINE
  5
BB
330
1F
100
AcDbEntity
  8
1
  6
Continuous
 62
   155
370
     5
100
AcDbLine
 10
197.306973
 20
786.8265169999999
 30
0.0
 11
197.306973
 21
787.8265169999999
 31
0.0
  0
LINE
  5
BC
330
1F
100
AcDbEntity
  8
1
  6
Continuous
 62
   155
100
AcDbLine
 10
206.894375
 20
786.8265169999999
 30
0.0
 11
206.894375
 21
787.8265169999999
 31
0.0
  0
LINE
  5
BD
330
1F
100
AcDbEntity
  8
1
  6
Continuous
 62
   155
100
AcDbLine
 10
194.452969
 20
786.8265169999999
 30
0.0
 11
194.452969
 21
787.8265169999999
 31
0.0
  0
LINE
  5
BE
330
1F
100
AcDbEntity
  8
1
  6
Continuous
 62
   155
100
AcDbLine
 10
194.452969
 20
787.8265169999999
 30
0.0
 11
197.306973
 21
787.8265169999999
 31
0.0
  0
LINE
  5
BF
330
1F
100
AcDbEntity
  8
1
  6
Continuous
 62
   155
100
AcDbLine
 10
184.575039
 20
786.8265169999999
 30
0.0
 11
184.575039
 21
787.8265169999999
 31
0.0
  0
LINE
  5
C0
330
1F
100
AcDbEntity
  8
1
  6
Continuous
 62
   155
100
AcDbLine
 10
193.803555
 20
786.8265169999999
 30
0.0
 11
193.803555
 21
787.8265169999999
 31
0.0
  0
LINE
  5
C1
330
1F
100
AcDbEntity
  8
1
  6
Continuous
 62
   155
100
AcDbLine
 10
184.575039
 20
787.8265169999999
 30
0.0
 11
193.803555
 21
787.8265169999999
 31
0.0
  0
LINE
  5
C2
330
1F
100
AcDbEntity
  8
1
  6
Continuous
 62
   155
100
AcDbLine
 10
147.37045
 20
787.8265169999999
 30
0.0
 11
149.609219
 21
787.8265169999999
 31
0.0
  0
LINE
  5
C3
330
1F
100
AcDbEntity
  8
1
  6
Continuous
 62
   155
100
AcDbLine
 10
141.952969
 20
787.8265169999999
 30
0.0
 11
147.37045
 21
787.8265169999999
 31
0.0
  0
LINE
  5
C4
330
1F
100
AcDbEntity
  8
1
  6
Continuous
 62
   155
100
AcDbLine
 10
149.609219
 20
787.8265169999999
 30
0.0
 11
157.573086
 21
787.8265169999999
 31
0.0
  0
LINE
  5
C5
330
1F
100
AcDbEntity
  8
1
  6
Continuous
 62
   155
100
AcDbLine
 10
141.952969
 20
786.8265169999999
 30
0.0
 11
141.952969
 21
787.8265169999999
 31
0.0
  0
LINE
  5
C6
330
1F
100
AcDbEntity
  8
1
  6
Continuous
 62
   155
100
AcDbLine
 10
157.573086
 20
786.8265169999999
 30
0.0
 11
157.573086
 21
787.8265169999999
 31
0.0
  0
LINE
  5
C7
330
1F
100
AcDbEntity
  8
1
  6
Continuous
 62
   155
100
AcDbLine
 10
149.609219
 20
786.8265169999999
 30
0.0
 11
149.609219
 21
787.8265169999999
 31
0.0
  0
LINE
  5
C8
330
1F
100
AcDbEntity
  8
1
  6
Continuous
 62
   155
100
AcDbLine
 10
147.37045
 20
786.8265169999999
 30
0.0
 11
147.37045
 21
787.8265169999999
 31
0.0
  0
LINE
  5
C9
330
1F
100
AcDbEntity
  8
1
  6
Continuous
 62
   155
100
AcDbLine
 10
85.700528
 20
759.8265169999999
 30
0.0
 11
112.700528
 21
786.8265169999999
 31
0.0
  0
LINE
  5
CA
330
1F
100
AcDbEntity
  8
1
  6
Continuous
 62
   155
100
AcDbLine
 10
246.700528
 20
759.8265169999999
 30
0.0
 11
219.700528
 21
786.8265169999999
 31
0.0
  0
LINE
  5
CB
330
1F
100
AcDbEntity
  8
1
  6
Continuous
 62
   155
100
AcDbLine
 10
219.700528
 20
786.8265169999999
 30
0.0
 11
112.700528
 21
786.8265169999999
 31
0.0
  0
LINE
  5
CC
330
1F
100
AcDbEntity
  8
1
  6
Continuous
 62
   155
100
AcDbLine
 10
1121.027704
 20
542.3265169999999
 30
0.0
 11
1115.027704
 21
536.326517
 31
0.0
  0
LINE
  5
CD
330
1F
100
AcDbEntity
  8
1
  6
Continuous
 62
   155
100
AcDbLine
 10
1121.027704
 20
702.326517
 30
0.0
 11
1121.027704
 21
542.3265169999999
 31
0.0
  0
LINE
  5
CE
330
1F
100
AcDbEntity
  8
1
  6
Continuous
 62
   155
100
AcDbLine
 10
860.0277039999998
 20
702.326517
 30
0.0
 11
866.0277039999998
 21
708.3265169999999
 31
0.0
  0
LINE
  5
CF
330
1F
100
AcDbEntity
  8
1
  6
Continuous
 62
   155
100
AcDbLine
 10
860.0277039999998
 20
542.3265169999999
 30
0.0
 11
860.0277039999998
 21
702.326517
 31
0.0
  0
LINE
  5
D0
330
1F
100
AcDbEntity
  8
1
  6
Continuous
 62
   155
100
AcDbLine
 10
1070.527704
 20
491.8265169999999
 30
0.0
 11
910.5277039999998
 21
491.8265169999999
 31
0.0
  0
LINE
  5
D1
330
1F
100
AcDbEntity
  8
1
  6
Continuous
 62
   155
100
AcDbLine
 10
910.5277039999998
 20
752.826517
 30
0.0
 11
1070.527704
 21
752.826517
 31
0.0
  0
LINE
  5
D2
330
1F
100
AcDbEntity
  8
1
  6
Continuous
 62
   155
100
AcDbLine
 10
1115.027704
 20
708.3265169999999
 30
0.0
 11
1121.027704
 21
702.326517
 31
0.0
  0
LINE
  5
D3
330
1F
100
AcDbEntity
  8
1
  6
Continuous
 62
   155
100
AcDbLine
 10
1121.527704
 20
504.3265169999999
 30
0.0
 11
1074.527704
 21
504.3265169999999
 31
0.0
  0
LINE
  5
D4
330
1F
100
AcDbEntity
  8
1
  6
Continuous
 62
   155
100
AcDbLine
 10
1074.527704
 20
490.326517
 30
0.0
 11
1121.527704
 21
490.326517
 31
0.0
  0
LINE
  5
D5
330
1F
100
AcDbEntity
  8
1
  6
Continuous
 62
   155
100
AcDbLine
 10
1121.527704
 20
490.326517
 30
0.0
 11
1121.527704
 21
504.3265169999999
 31
0.0
  0
LINE
  5
D6
330
1F
100
AcDbEntity
  8
1
  6
Continuous
 62
   155
100
AcDbLine
 10
1074.527704
 20
504.3265169999999
 30
0.0
 11
1074.527704
 21
490.326517
 31
0.0
  0
LINE
  5
D7
330
1F
100
AcDbEntity
  8
1
  6
Continuous
 62
   155
100
AcDbLine
 10
910.5277039999998
 20
752.826517
 30
0.0
 11
910.5277039999998
 21
753.8265169999999
 31
0.0
  0
LINE
  5
D8
330
1F
100
AcDbEntity
  8
1
  6
Continuous
 62
   155
100
AcDbLine
 10
1070.527704
 20
752.826517
 30
0.0
 11
1070.527704
 21
753.8265169999999
 31
0.0
  0
LINE
  5
D9
330
1F
100
AcDbEntity
  8
1
  6
Continuous
 62
   155
100
AcDbLine
 10
859.0277039999998
 20
702.740731
 30
0.0
 11
859.0277039999998
 21
541.9123039999999
 31
0.0
  0
LINE
  5
DA
330
1F
100
AcDbEntity
  8
1
  6
Continuous
 62
   155
100
AcDbLine
 10
859.0277039999998
 20
541.9123039999999
 30
0.0
 11
882.8209099999998
 21
518.119099
 31
0.0
  0
LINE
  5
DB
330
1F
100
AcDbEntity
  8
1
  6
Continuous
 62
   155
100
AcDbLine
 10
908.0229649999999
 20
492.917043
 30
0.0
 11
910.113491
 21
490.8265169999999
 31
0.0
  0
LINE
  5
DC
330
1F
100
AcDbEntity
  8
1
  6
Continuous
 62
   155
100
AcDbLine
 10
910.113491
 20
490.8265169999999
 30
0.0
 11
1070.941918
 21
490.8265169999999
 31
0.0
  0
LINE
  5
DD
330
1F
100
AcDbEntity
  8
1
  6
Continuous
 62
   155
100
AcDbLine
 10
1070.941918
 20
490.8265169999999
 30
0.0
 11
1073.032444
 21
492.917043
 31
0.0
  0
LINE
  5
DE
330
1F
100
AcDbEntity
  8
1
  6
Continuous
 62
   155
100
AcDbLine
 10
1098.234499
 20
518.119099
 30
0.0
 11
1122.027704
 21
541.9123039999999
 31
0.0
  0
LINE
  5
DF
330
1F
100
AcDbEntity
  8
1
  6
Continuous
 62
   155
100
AcDbLine
 10
1122.027704
 20
541.9123039999999
 30
0.0
 11
1122.027704
 21
702.740731
 31
0.0
  0
LINE
  5
E0
330
1F
100
AcDbEntity
  8
1
  6
Continuous
 62
   155
100
AcDbLine
 10
1122.027704
 20
702.740731
 30
0.0
 11
1070.941918
 21
753.8265169999999
 31
0.0
  0
LINE
  5
E1
330
1F
100
AcDbEntity
  8
1
  6
Continuous
 62
   155
100
AcDbLine
 10
910.113491
 20
753.8265169999999
 30
0.0
 11
859.0277039999998
 21
702.740731
 31
0.0
  0
LINE
  5
E2
330
1F
100
AcDbEntity
  8
1
  6
Continuous
 62
   155
100
AcDbLine
 10
866.0277039999998
 20
536.326517
 30
0.0
 11
860.0277039999998
 21
542.3265169999999
 31
0.0
  0
LINE
  5
E3
330
1F
100
AcDbEntity
  8
1
  6
Continuous
 62
   155
100
AcDbLine
 10
910.5277039999998
 20
536.326517
 30
0.0
 11
910.5277039999998
 21
491.8265169999999
 31
0.0
  0
LINE
  5
E4
330
1F
100
AcDbEntity
  8
1
  6
Continuous
 62
   155
100
AcDbLine
 10
1070.527704
 20
491.8265169999999
 30
0.0
 11
1070.527704
 21
536.326517
 31
0.0
  0
LINE
  5
E5
330
1F
100
AcDbEntity
  8
1
  6
Continuous
 62
   155
100
AcDbLine
 10
1070.527704
 20
536.326517
 30
0.0
 11
1115.027704
 21
536.326517
 31
0.0
  0
LINE
  5
E6
330
1F
100
AcDbEntity
  8
1
  6
Continuous
 62
   155
100
AcDbLine
 10
1115.027704
 20
708.3265169999999
 30
0.0
 11
1070.527704
 21
708.3265169999999
 31
0.0
  0
LINE
  5
E7
330
1F
100
AcDbEntity
  8
1
  6
Continuous
 62
   155
100
AcDbLine
 10
1070.527704
 20
708.3265169999999
 30
0.0
 11
1070.527704
 21
752.826517
 31
0.0
  0
LINE
  5
E8
330
1F
100
AcDbEntity
  8
1
  6
Continuous
 62
   155
100
AcDbLine
 10
910.5277039999998
 20
752.826517
 30
0.0
 11
910.5277039999998
 21
708.3265169999999
 31
0.0
  0
LINE
  5
E9
330
1F
100
AcDbEntity
  8
1
  6
Continuous
 62
   155
100
AcDbLine
 10
910.5277039999998
 20
708.3265169999999
 30
0.0
 11
866.0277039999998
 21
708.3265169999999
 31
0.0
  0
LINE
  5
EA
330
1F
100
AcDbEntity
  8
1
  6
Continuous
 62
   155
100
AcDbLine
 10
866.0277039999998
 20
536.326517
 30
0.0
 11
910.5277039999998
 21
536.326517
 31
0.0
  0
LINE
  5
EB
330
1F
100
AcDbEntity
  8
1
  6
Continuous
 62
   155
100
AcDbLine
 10
1071.527704
 20
753.8265169999999
 30
0.0
 11
909.5277039999999
 21
753.8265169999999
 31
0.0
  0
LINE
  5
EC
330
1F
100
AcDbEntity
  8
1
  6
Continuous
 62
   155
100
AcDbLine
 10
1071.527704
 20
759.8265169999999
 30
0.0
 11
909.5277039999999
 21
759.8265169999999
 31
0.0
  0
LINE
  5
ED
330
1F
100
AcDbEntity
  8
1
  6
Continuous
 62
   155
100
AcDbLine
 10
1071.527704
 20
753.8265169999999
 30
0.0
 11
1071.527704
 21
759.8265169999999
 31
0.0
  0
LINE
  5
EE
330
1F
100
AcDbEntity
  8
1
  6
Continuous
 62
   155
100
AcDbLine
 10
909.5277039999999
 20
753.8265169999999
 30
0.0
 11
909.5277039999999
 21
759.8265169999999
 31
0.0
  0
LINE
  5
EF
330
1F
100
AcDbEntity
  8
1
  6
Continuous
 62
   155
370
     5
100
AcDbLine
 10
990.5277039999999
 20
505.3265169999999
 30
0.0
 11
990.5277039999999
 21
532.8265169999999
 31
0.0
  0
LINE
  5
F0
330
1F
100
AcDbEntity
  8
1
  6
Continuous
 62
   155
370
     5
100
AcDbLine
 10
990.5277039999999
 20
739.3265169999999
 30
0.0
 11
990.5277039999999
 21
711.8265169999999
 31
0.0
  0
LINE
  5
F1
330
1F
100
AcDbEntity
  8
1
  6
Continuous
 62
   155
100
AcDbLine
 10
910.5277039999998
 20
497.25472
 30
0.0
 11
906.5277039999998
 21
490.326517
 31
0.0
  0
LINE
  5
F2
330
1F
100
AcDbEntity
  8
1
  6
Continuous
 62
   155
100
AcDbLine
 10
869.0277039999998
 20
504.3265169999999
 30
0.0
 11
887.5277039999998
 21
522.8265169999999
 31
0.0
  0
LINE
  5
F3
330
1F
100
AcDbEntity
  8
1
  6
Continuous
 62
   155
100
AcDbLine
 10
887.5277039999998
 20
522.8265169999999
 30
0.0
 11
887.5277039999998
 21
536.326517
 31
0.0
  0
LINE
  5
F4
330
1F
100
AcDbEntity
  8
1
  6
Continuous
 62
   155
100
AcDbLine
 10
859.5277039999999
 20
504.3265169999999
 30
0.0
 11
906.5277039999998
 21
504.3265169999999
 31
0.0
  0
LINE
  5
F5
330
1F
100
AcDbEntity
  8
1
  6
Continuous
 62
   155
100
AcDbLine
 10
906.5277039999998
 20
504.3265169999999
 30
0.0
 11
906.5277039999998
 21
490.326517
 31
0.0
  0
LINE
  5
F6
330
1F
100
AcDbEntity
  8
1
  6
Continuous
 62
   155
100
AcDbLine
 10
906.5277039999998
 20
490.326517
 30
0.0
 11
859.5277039999999
 21
490.326517
 31
0.0
  0
LINE
  5
F7
330
1F
100
AcDbEntity
  8
1
  6
Continuous
 62
   155
100
AcDbLine
 10
859.5277039999999
 20
490.326517
 30
0.0
 11
859.5277039999999
 21
504.3265169999999
 31
0.0
  0
LINE
  5
F8
330
1F
100
AcDbEntity
  8
1
  6
Continuous
 62
   155
100
AcDbLine
 10
1070.527704
 20
497.25472
 30
0.0
 11
1074.527704
 21
490.326517
 31
0.0
  0
LINE
  5
F9
330
1F
100
AcDbEntity
  8
1
  6
Continuous
 62
   155
100
AcDbLine
 10
1112.027704
 20
504.3265169999999
 30
0.0
 11
1093.527704
 21
522.8265169999999
 31
0.0
  0
LINE
  5
FA
330
1F
100
AcDbEntity
  8
1
  6
Continuous
 62
   155
100
AcDbLine
 10
1093.527704
 20
522.8265169999999
 30
0.0
 11
1093.527704
 21
536.326517
 31
0.0
  0
LINE
  5
FB
330
1F
100
AcDbEntity
  8
1
  6
Continuous
 62
   155
100
AcDbLine
 10
1025.541865
 20
787.8265169999999
 30
0.0
 11
1031.010615
 21
787.8265169999999
 31
0.0
  0
LINE
  5
FC
330
1F
100
AcDbEntity
  8
1
  6
Continuous
 62
   155
100
AcDbLine
 10
1025.319645
 20
787.8265169999999
 30
0.0
 11
1025.541865
 21
787.8265169999999
 31
0.0
  0
LINE
  5
FD
330
1F
100
AcDbEntity
  8
1
  6
Continuous
 62
   155
100
AcDbLine
 10
1031.010615
 20
786.8265169999999
 30
0.0
 11
1031.010615
 21
787.8265169999999
 31
0.0
  0
LINE
  5
FE
330
1F
100
AcDbEntity
  8
1
  6
Continuous
 62
   155
100
AcDbLine
 10
1025.541865
 20
786.8265169999999
 30
0.0
 11
1025.541865
 21
787.8265169999999
 31
0.0
  0
LINE
  5
FF
330
1F
100
AcDbEntity
  8
1
  6
Continuous
 62
   155
100
AcDbLine
 10
987.7391300000001
 20
786.8265169999999
 30
0.0
 11
987.7391300000001
 21
787.8265169999999
 31
0.0
  0
LINE
  5
100
330
1F
100
AcDbEntity
  8
1
  6
Continuous
 62
   155
100
AcDbLine
 10
996.967646
 20
786.8265169999999
 30
0.0
 11
996.967646
 21
787.8265169999999
 31
0.0
  0
LINE
  5
101
330
1F
100
AcDbEntity
  8
1
  6
Continuous
 62
   155
100
AcDbLine
 10
987.7391300000001
 20
787.8265169999999
 30
0.0
 11
996.967646
 21
787.8265169999999
 31
0.0
  0
LINE
  5
102
330
1F
100
AcDbEntity
  8
1
  6
Continuous
 62
   155
100
AcDbLine
 10
977.057978
 20
786.8265169999999
 30
0.0
 11
977.057978
 21
787.8265169999999
 31
0.0
  0
LINE
  5
103
330
1F
100
AcDbEntity
  8
1
  6
Continuous
 62
   155
370
     5
100
AcDbLine
 10
984.2357119999999
 20
786.8265169999999
 30
0.0
 11
984.2357119999999
 21
787.8265169999999
 31
0.0
  0
LINE
  5
104
330
1F
100
AcDbEntity
  8
1
  6
Continuous
 62
   155
100
AcDbLine
 10
987.089716
 20
786.8265169999999
 30
0.0
 11
987.089716
 21
787.8265169999999
 31
0.0
  0
LINE
  5
105
330
1F
100
AcDbEntity
  8
1
  6
Continuous
 62
   155
100
AcDbLine
 10
984.2357119999999
 20
787.8265169999999
 30
0.0
 11
987.089716
 21
787.8265169999999
 31
0.0
  0
LINE
  5
106
330
1F
100
AcDbEntity
  8
1
  6
Continuous
 62
   155
100
AcDbLine
 10
976.8358099999998
 20
787.8265169999999
 30
0.0
 11
976.9542109999999
 21
787.8265169999999
 31
0.0
  0
LINE
  5
107
330
1F
100
AcDbEntity
  8
1
  6
Continuous
 62
   155
100
AcDbLine
 10
976.8358099999998
 20
786.8265169999999
 30
0.0
 11
976.8358099999998
 21
787.8265169999999
 31
0.0
  0
LINE
  5
108
330
1F
100
AcDbEntity
  8
1
  6
Continuous
 62
   155
100
AcDbLine
 10
974.6483099999998
 20
786.8265169999999
 30
0.0
 11
974.6483099999998
 21
787.8265169999999
 31
0.0
  0
LINE
  5
109
330
1F
100
AcDbEntity
  8
1
  6
Continuous
 62
   155
100
AcDbLine
 10
949.8338570000001
 20
786.8265169999999
 30
0.0
 11
949.8338570000001
 21
787.8265169999999
 31
0.0
  0
LINE
  5
10A
330
1F
100
AcDbEntity
  8
1
  6
Continuous
 62
   155
100
AcDbLine
 10
952.0213570000001
 20
786.8265169999999
 30
0.0
 11
952.0213570000001
 21
787.8265169999999
 31
0.0
  0
LINE
  5
10B
330
1F
100
AcDbEntity
  8
1
  6
Continuous
 62
   155
100
AcDbLine
 10
952.0213570000001
 20
787.8265169999999
 30
0.0
 11
952.1397570000001
 21
787.8265169999999
 31
0.0
  0
LINE
  5
10C
330
1F
100
AcDbEntity
  8
1
  6
Continuous
 62
   155
100
AcDbLine
 10
1004.846064
 20
787.8265169999999
 30
0.0
 11
1010.314814
 21
787.8265169999999
 31
0.0
  0
LINE
  5
10D
330
1F
100
AcDbEntity
  8
1
  6
Continuous
 62
   155
100
AcDbLine
 10
1010.314814
 20
787.8265169999999
 30
0.0
 11
1014.775263
 21
787.8265169999999
 31
0.0
  0
LINE
  5
10E
330
1F
100
AcDbEntity
  8
1
  6
Continuous
 62
   155
100
AcDbLine
 10
1010.314814
 20
786.8265169999999
 30
0.0
 11
1010.314814
 21
787.8265169999999
 31
0.0
  0
LINE
  5
10F
330
1F
100
AcDbEntity
  8
1
  6
Continuous
 62
   155
100
AcDbLine
 10
1004.846064
 20
786.8265169999999
 30
0.0
 11
1004.846064
 21
787.8265169999999
 31
0.0
  0
LINE
  5
110
330
1F
100
AcDbEntity
  8
1
  6
Continuous
 62
   155
100
AcDbLine
 10
1014.775263
 20
786.8265169999999
 30
0.0
 11
1014.775263
 21
787.8265169999999
 31
0.0
  0
LINE
  5
111
330
1F
100
AcDbEntity
  8
1
  6
Continuous
 62
   155
100
AcDbLine
 10
1019.850947
 20
787.8265169999999
 30
0.0
 11
1025.319697
 21
787.8265169999999
 31
0.0
  0
LINE
  5
112
330
1F
100
AcDbEntity
  8
1
  6
Continuous
 62
   155
100
AcDbLine
 10
1015.390497
 20
787.8265169999999
 30
0.0
 11
1019.850947
 21
787.8265169999999
 31
0.0
  0
LINE
  5
113
330
1F
100
AcDbEntity
  8
1
  6
Continuous
 62
   155
100
AcDbLine
 10
1015.390497
 20
786.8265169999999
 30
0.0
 11
1015.390497
 21
787.8265169999999
 31
0.0
  0
LINE
  5
114
330
1F
100
AcDbEntity
  8
1
  6
Continuous
 62
   155
100
AcDbLine
 10
1025.319697
 20
786.8265169999999
 30
0.0
 11
1025.319697
 21
787.8265169999999
 31
0.0
  0
LINE
  5
115
330
1F
100
AcDbEntity
  8
1
  6
Continuous
 62
   155
100
AcDbLine
 10
1019.850947
 20
786.8265169999999
 30
0.0
 11
1019.850947
 21
787.8265169999999
 31
0.0
  0
LINE
  5
116
330
1F
100
AcDbEntity
  8
1
  6
Continuous
 62
   155
100
AcDbLine
 10
962.9246769999999
 20
786.8265169999999
 30
0.0
 11
962.9246769999999
 21
787.8265169999999
 31
0.0
  0
LINE
  5
117
330
1F
100
AcDbEntity
  8
1
  6
Continuous
 62
   155
100
AcDbLine
 10
972.1531929999999
 20
786.8265169999999
 30
0.0
 11
972.1531929999999
 21
787.8265169999999
 31
0.0
  0
LINE
  5
118
330
1F
100
AcDbEntity
  8
1
  6
Continuous
 62
   155
100
AcDbLine
 10
962.9246769999999
 20
787.8265169999999
 30
0.0
 11
972.1531929999999
 21
787.8265169999999
 31
0.0
  0
LINE
  5
119
330
1F
100
AcDbEntity
  8
1
  6
Continuous
 62
   155
100
AcDbLine
 10
999.155146
 20
787.8265169999999
 30
0.0
 11
1004.623896
 21
787.8265169999999
 31
0.0
  0
LINE
  5
11A
330
1F
100
AcDbEntity
  8
1
  6
Continuous
 62
   155
100
AcDbLine
 10
1004.623896
 20
787.8265169999999
 30
0.0
 11
1004.846116
 21
787.8265169999999
 31
0.0
  0
LINE
  5
11B
330
1F
100
AcDbEntity
  8
1
  6
Continuous
 62
   155
100
AcDbLine
 10
999.155146
 20
786.8265169999999
 30
0.0
 11
999.155146
 21
787.8265169999999
 31
0.0
  0
LINE
  5
11C
330
1F
100
AcDbEntity
  8
1
  6
Continuous
 62
   155
100
AcDbLine
 10
1004.623896
 20
786.8265169999999
 30
0.0
 11
1004.623896
 21
787.8265169999999
 31
0.0
  0
LINE
  5
11D
330
1F
100
AcDbEntity
  8
1
  6
Continuous
 62
   155
100
AcDbLine
 10
952.2435249999999
 20
786.8265169999999
 30
0.0
 11
952.2435249999999
 21
787.8265169999999
 31
0.0
  0
LINE
  5
11E
330
1F
100
AcDbEntity
  8
1
  6
Continuous
 62
   155
370
     5
100
AcDbLine
 10
959.4212589999999
 20
786.8265169999999
 30
0.0
 11
959.4212589999999
 21
787.8265169999999
 31
0.0
  0
LINE
  5
11F
330
1F
100
AcDbEntity
  8
1
  6
Continuous
 62
   155
100
AcDbLine
 10
962.275263
 20
786.8265169999999
 30
0.0
 11
962.275263
 21
787.8265169999999
 31
0.0
  0
LINE
  5
120
330
1F
100
AcDbEntity
  8
1
  6
Continuous
 62
   155
100
AcDbLine
 10
959.4212589999999
 20
787.8265169999999
 30
0.0
 11
962.275263
 21
787.8265169999999
 31
0.0
  0
LINE
  5
121
330
1F
100
AcDbEntity
  8
1
  6
Continuous
 62
   155
100
AcDbLine
 10
1044.027704
 20
786.8265169999999
 30
0.0
 11
937.0277039999999
 21
786.8265169999999
 31
0.0
  0
LINE
  5
122
330
1F
100
AcDbEntity
  8
1
  6
Continuous
 62
   155
100
AcDbLine
 10
1071.027704
 20
759.8265169999999
 30
0.0
 11
1044.027704
 21
786.8265169999999
 31
0.0
  0
LINE
  5
123
330
1F
100
AcDbEntity
  8
1
  6
Continuous
 62
   155
100
AcDbLine
 10
910.0277039999998
 20
759.8265169999999
 30
0.0
 11
937.0277039999999
 21
786.8265169999999
 31
0.0
  0
LINE
  5
124
330
1F
100
AcDbEntity
  8
1
  6
Continuous
 62
   155
100
AcDbLine
 10
709.2097629999999
 20
143.511873
 30
0.0
 11
709.2097629999999
 21
144.011983
 31
0.0
  0
LINE
  5
125
330
1F
100
AcDbEntity
  8
1
  6
Continuous
 62
   155
100
AcDbLine
 10
710.2097629999999
 20
144.011873
 30
0.0
 11
492.209763
 21
144.011873
 31
0.0
  0
LINE
  5
126
330
1F
100
AcDbEntity
  8
1
  6
Continuous
 62
   155
100
AcDbLine
 10
492.209763
 20
405.0118729999999
 30
0.0
 11
492.209763
 21
399.011873
 31
0.0
  0
LINE
  5
127
330
1F
100
AcDbEntity
  8
1
  6
Continuous
 62
   155
100
AcDbLine
 10
710.2097629999999
 20
405.0118729999999
 30
0.0
 11
492.209763
 21
405.0118729999999
 31
0.0
  0
LINE
  5
128
330
1F
100
AcDbEntity
  8
1
  6
Continuous
 62
   155
100
AcDbLine
 10
497.209763
 20
143.511873
 30
0.0
 11
709.2097629999999
 21
143.511873
 31
0.0
  0
LINE
  5
129
330
1F
100
AcDbEntity
  8
1
  6
Continuous
 62
   155
100
AcDbLine
 10
346.209763
 20
293.511873
 30
0.0
 11
426.209763
 21
293.511873
 31
0.0
  0
LINE
  5
12A
330
1F
100
AcDbEntity
  8
1
  6
Continuous
 62
   155
100
AcDbLine
 10
346.209763
 20
293.511873
 30
0.0
 11
346.209763
 21
255.511873
 31
0.0
  0
LINE
  5
12B
330
1F
100
AcDbEntity
  8
1
  6
Continuous
 62
   155
100
AcDbLine
 10
710.2097629999999
 20
354.511873
 30
0.0
 11
658.210138
 21
354.511873
 31
0.0
  0
LINE
  5
12C
330
1F
100
AcDbEntity
  8
1
  6
Continuous
 62
   155
100
AcDbLine
 10
496.209763
 20
354.511873
 30
0.0
 11
492.209763
 21
354.511873
 31
0.0
  0
LINE
  5
12D
330
1F
100
AcDbEntity
  8
1
  6
Continuous
 62
   155
100
AcDbLine
 10
492.209763
 20
354.511873
 30
0.0
 11
492.209763
 21
194.511873
 31
0.0
  0
LINE
  5
12E
330
1F
100
AcDbEntity
  8
1
  6
Continuous
 62
   155
100
AcDbLine
 10
710.2097629999999
 20
150.011873
 30
0.0
 11
492.209763
 21
150.011873
 31
0.0
  0
LINE
  5
12F
330
1F
100
AcDbEntity
  8
1
  6
Continuous
 62
   155
100
AcDbLine
 10
492.209763
 20
399.011873
 30
0.0
 11
710.2097629999999
 21
399.011873
 31
0.0
  0
LINE
  5
130
330
1F
100
AcDbEntity
  8
1
  6
Continuous
 62
   155
100
AcDbLine
 10
492.209763
 20
150.011873
 30
0.0
 11
492.209763
 21
144.011873
 31
0.0
  0
LINE
  5
131
330
1F
100
AcDbEntity
  8
1
  6
Continuous
 62
   155
100
AcDbLine
 10
497.209763
 20
143.511873
 30
0.0
 11
497.209763
 21
144.011983
 31
0.0
  0
LINE
  5
132
330
1F
100
AcDbEntity
  8
1
  6
Continuous
 62
   155
100
AcDbLine
 10
710.2097629999999
 20
143.011873
 30
0.0
 11
710.2097629999999
 21
194.09766
 31
0.0
  0
LINE
  5
133
330
1F
100
AcDbEntity
  8
1
  6
Continuous
 62
   155
100
AcDbLine
 10
710.2097629999999
 20
194.09766
 30
0.0
 11
710.2097629999999
 21
354.926087
 31
0.0
  0
LINE
  5
134
330
1F
100
AcDbEntity
  8
1
  6
Continuous
 62
   155
100
AcDbLine
 10
710.2097629999999
 20
354.926087
 30
0.0
 11
710.2097629999999
 21
406.011873
 31
0.0
  0
LINE
  5
135
330
1F
100
AcDbEntity
  8
1
  6
Continuous
 62
   155
100
AcDbLine
 10
426.209763
 20
294.511873
 30
0.0
 11
428.2097629999999
 21
294.511873
 31
0.0
  0
LINE
  5
136
330
1F
100
AcDbEntity
  8
1
  6
Continuous
 62
   155
100
AcDbLine
 10
426.209763
 20
254.511873
 30
0.0
 11
426.209763
 21
294.511873
 31
0.0
  0
LINE
  5
137
330
1F
100
AcDbEntity
  8
1
  6
Continuous
 62
   155
100
AcDbLine
 10
492.209763
 20
391.511873
 30
0.0
 11
482.8411599999999
 21
391.511873
 31
0.0
  0
LINE
  5
138
330
1F
100
AcDbEntity
  8
1
  6
Continuous
 62
   155
100
AcDbLine
 10
492.209763
 20
150.011873
 30
0.0
 11
492.209763
 21
194.511873
 31
0.0
  0
LINE
  5
139
330
1F
100
AcDbEntity
  8
1
  6
Continuous
 62
   155
100
AcDbLine
 10
492.209763
 20
354.511873
 30
0.0
 11
492.209763
 21
399.011873
 31
0.0
  0
LINE
  5
13A
330
1F
100
AcDbEntity
  8
1
  6
Continuous
 62
   155
100
AcDbLine
 10
496.209763
 20
194.511873
 30
0.0
 11
492.209763
 21
194.511873
 31
0.0
  0
LINE
  5
13B
330
1F
100
AcDbEntity
  8
1
  6
Continuous
 62
   155
100
AcDbLine
 10
710.2097629999999
 20
194.511873
 30
0.0
 11
658.210138
 21
194.511873
 31
0.0
  0
LINE
  5
13C
330
1F
100
AcDbEntity
  8
1
  6
Continuous
 62
   155
100
AcDbLine
 10
496.209763
 20
193.511873
 30
0.0
 11
496.209763
 21
355.511873
 31
0.0
  0
LINE
  5
13D
330
1F
100
AcDbEntity
  8
1
  6
Continuous
 62
   155
100
AcDbLine
 10
496.209763
 20
355.511873
 30
0.0
 11
658.2097629999999
 21
355.511873
 31
0.0
  0
LINE
  5
13E
330
1F
100
AcDbEntity
  8
1
  6
Continuous
 62
   155
100
AcDbLine
 10
658.2097629999999
 20
355.511873
 30
0.0
 11
658.2097629999999
 21
193.511873
 31
0.0
  0
LINE
  5
13F
330
1F
100
AcDbEntity
  8
1
  6
Continuous
 62
   155
100
AcDbLine
 10
658.2097629999999
 20
193.511873
 30
0.0
 11
496.209763
 21
193.511873
 31
0.0
  0
LINE
  5
140
330
1F
100
AcDbEntity
  8
1
  6
Continuous
 62
   155
100
AcDbLine
 10
657.7097629999999
 20
194.011873
 30
0.0
 11
496.709763
 21
194.011873
 31
0.0
  0
LINE
  5
141
330
1F
100
AcDbEntity
  8
1
  6
Continuous
 62
   155
100
AcDbLine
 10
496.709763
 20
194.011873
 30
0.0
 11
496.709763
 21
355.011873
 31
0.0
  0
LINE
  5
142
330
1F
100
AcDbEntity
  8
1
  6
Continuous
 62
   155
100
AcDbLine
 10
496.709763
 20
355.011873
 30
0.0
 11
657.7097629999999
 21
355.011873
 31
0.0
  0
LINE
  5
143
330
1F
100
AcDbEntity
  8
1
  6
Continuous
 62
   155
100
AcDbLine
 10
657.7097629999999
 20
355.011873
 30
0.0
 11
657.7097629999999
 21
194.011873
 31
0.0
  0
LINE
  5
144
330
1F
100
AcDbEntity
  8
1
  6
Continuous
 62
   155
100
AcDbLine
 10
346.209763
 20
255.511873
 30
0.0
 11
426.209763
 21
255.511873
 31
0.0
  0
LINE
  5
145
330
1F
100
AcDbEntity
  8
1
  6
Continuous
 62
   155
100
AcDbLine
 10
482.8411599999999
 20
391.511873
 30
0.0
 11
482.8411599999999
 21
274.511873
 31
0.0
  0
LINE
  5
146
330
1F
100
AcDbEntity
  8
1
  6
Continuous
 62
   155
100
AcDbLine
 10
492.209763
 20
157.511873
 30
0.0
 11
482.8411599999999
 21
157.511873
 31
0.0
  0
LINE
  5
147
330
1F
100
AcDbEntity
  8
1
  6
Continuous
 62
   155
100
AcDbLine
 10
482.8411599999999
 20
274.511873
 30
0.0
 11
482.8411599999999
 21
157.511873
 31
0.0
  0
LINE
  5
148
330
1F
100
AcDbEntity
  8
1
  6
Continuous
 62
   155
100
AcDbLine
 10
426.209763
 20
254.511873
 30
0.0
 11
428.2097629999999
 21
254.511873
 31
0.0
  0
LINE
  5
149
330
1F
100
AcDbEntity
  8
1
  6
Continuous
 62
   155
100
AcDbLine
 10
428.2097629999999
 20
274.511873
 30
0.0
 11
428.2097629999999
 21
336.011873
 31
0.0
  0
LINE
  5
14A
330
1F
100
AcDbEntity
  8
1
  6
Continuous
 62
   155
370
     5
100
AcDbLine
 10
793.2097629999999
 20
274.511873
 30
0.0
 11
744.709763
 21
274.511873
 31
0.0
  0
LINE
  5
14B
330
1F
100
AcDbEntity
  8
1
  6
Continuous
 62
   155
100
AcDbLine
 10
793.2097629999999
 20
274.511873
 30
0.0
 11
793.2097629999999
 21
374.011873
 31
0.0
  0
LINE
  5
14C
330
1F
100
AcDbEntity
  8
1
  6
Continuous
 62
   155
100
AcDbLine
 10
793.2097629999999
 20
274.511873
 30
0.0
 11
793.2097629999999
 21
175.011873
 31
0.0
  0
LINE
  5
14D
330
1F
100
AcDbEntity
  8
1
  6
Continuous
 62
   155
100
AcDbLine
 10
744.709763
 20
143.011873
 30
0.0
 11
744.709763
 21
194.09766
 31
0.0
  0
LINE
  5
14E
330
1F
100
AcDbEntity
  8
1
  6
Continuous
 62
   155
100
AcDbLine
 10
710.2097629999999
 20
143.011873
 30
0.0
 11
744.709763
 21
143.011873
 31
0.0
  0
LINE
  5
14F
330
1F
100
AcDbEntity
  8
1
  6
Continuous
 62
   155
100
AcDbLine
 10
710.2097629999999
 20
194.09766
 30
0.0
 11
744.709763
 21
194.09766
 31
0.0
  0
LINE
  5
150
330
1F
100
AcDbEntity
  8
1
  6
Continuous
 62
   155
100
AcDbLine
 10
744.709763
 20
354.926087
 30
0.0
 11
744.709763
 21
406.011873
 31
0.0
  0
LINE
  5
151
330
1F
100
AcDbEntity
  8
1
  6
Continuous
 62
   155
100
AcDbLine
 10
744.709763
 20
274.511873
 30
0.0
 11
744.709763
 21
354.926087
 31
0.0
  0
LINE
  5
152
330
1F
100
AcDbEntity
  8
1
  6
Continuous
 62
   155
100
AcDbLine
 10
744.709763
 20
194.09766
 30
0.0
 11
744.709763
 21
274.511873
 31
0.0
  0
LINE
  5
153
330
1F
100
AcDbEntity
  8
1
  6
Continuous
 62
   155
100
AcDbLine
 10
710.2097629999999
 20
354.926087
 30
0.0
 11
744.709763
 21
354.926087
 31
0.0
  0
LINE
  5
154
330
1F
100
AcDbEntity
  8
1
  6
Continuous
 62
   155
100
AcDbLine
 10
710.2097629999999
 20
406.011873
 30
0.0
 11
744.709763
 21
406.011873
 31
0.0
  0
LINE
  5
155
330
1F
100
AcDbEntity
  8
1
  6
Continuous
 62
   155
370
     5
100
AcDbLine
 10
482.8411599999999
 20
274.511873
 30
0.0
 11
435.209763
 21
274.511873
 31
0.0
  0
LINE
  5
156
330
1F
100
AcDbEntity
  8
1
  6
Continuous
 62
   155
370
     5
100
AcDbLine
 10
435.209763
 20
274.511873
 30
0.0
 11
428.2097629999999
 21
274.511873
 31
0.0
  0
LINE
  5
157
330
1F
100
AcDbEntity
  8
1
  6
Continuous
 62
   155
100
AcDbLine
 10
428.2097629999999
 20
274.511873
 30
0.0
 11
428.2097629999999
 21
213.011873
 31
0.0
  0
LINE
  5
158
330
1F
100
AcDbEntity
  8
1
  6
Continuous
 62
   155
100
AcDbLine
 10
435.209763
 20
274.511873
 30
0.0
 11
435.209763
 21
364.011873
 31
0.0
  0
LINE
  5
159
330
1F
100
AcDbEntity
  8
1
  6
Continuous
 62
   155
100
AcDbLine
 10
435.209763
 20
274.511873
 30
0.0
 11
435.209763
 21
185.011873
 31
0.0
  0
LINE
  5
15A
330
1F
100
AcDbEntity
  8
1
  6
Continuous
 62
   155
100
AcDbLine
 10
497.209763
 20
405.511873
 30
0.0
 11
497.209763
 21
405.011764
 31
0.0
  0
LINE
  5
15B
330
1F
100
AcDbEntity
  8
1
  6
Continuous
 62
   155
100
AcDbLine
 10
497.209763
 20
405.511873
 30
0.0
 11
709.2097629999999
 21
405.511873
 31
0.0
  0
LINE
  5
15C
330
1F
100
AcDbEntity
  8
1
  6
Continuous
 62
   155
100
AcDbLine
 10
709.2097629999999
 20
405.511873
 30
0.0
 11
709.2097629999999
 21
405.011764
 31
0.0
  0
LINE
  5
15D
330
1F
100
AcDbEntity
  8
1
  6
Continuous
 62
   155
100
AcDbLine
 10
543.0135377304163
 20
277.4264928102192
 30
0.0
 11
537.5447877304163
 21
261.8063758102193
 31
0.0
  0
LINE
  5
15E
330
1F
100
AcDbEntity
  8
1
  6
Continuous
 62
   155
100
AcDbLine
 10
553.1649047304163
 20
277.4264928102192
 30
0.0
 11
543.0135377304163
 21
277.4264928102192
 31
0.0
  0
LINE
  5
15F
330
1F
100
AcDbEntity
  8
1
  6
Continuous
 62
   155
100
AcDbLine
 10
537.5447877304163
 20
261.8063758102193
 30
0.0
 11
545.5086547304163
 21
261.8063758102193
 31
0.0
  0
LINE
  5
160
330
1F
100
AcDbEntity
  8
1
  6
Continuous
 62
   155
100
AcDbLine
 10
545.5086547304163
 20
261.8063758102193
 30
0.0
 11
547.7474247304163
 21
268.1979768102192
 31
0.0
  0
LINE
  5
161
330
1F
100
AcDbEntity
  8
1
  6
Continuous
 62
   155
100
AcDbLine
 10
547.7474247304163
 20
268.1979768102192
 30
0.0
 11
553.1649047304163
 21
268.1979768102192
 31
0.0
  0
LINE
  5
162
330
1F
100
AcDbEntity
  8
1
  6
Continuous
 62
   155
100
AcDbLine
 10
553.1649047304163
 20
268.1979768102192
 30
0.0
 11
553.1649047304163
 21
277.4264928102192
 31
0.0
  0
LINE
  5
163
330
1F
100
AcDbEntity
  8
1
  6
Continuous
 62
   155
100
AcDbLine
 10
580.8162727304163
 20
278.0417268102192
 30
0.0
 11
580.8162727304163
 21
293.6618438102192
 31
0.0
  0
LINE
  5
164
330
1F
100
AcDbEntity
  8
1
  6
Continuous
 62
   155
100
AcDbLine
 10
580.8162727304163
 20
293.6618438102192
 30
0.0
 11
571.5877567304164
 21
293.6618438102192
 31
0.0
  0
LINE
  5
165
330
1F
100
AcDbEntity
  8
1
  6
Continuous
 62
   155
100
AcDbLine
 10
571.5877567304164
 20
293.6618438102192
 30
0.0
 11
571.5877567304164
 21
278.0417268102192
 31
0.0
  0
LINE
  5
166
330
1F
100
AcDbEntity
  8
1
  6
Continuous
 62
   155
100
AcDbLine
 10
571.5877567304164
 20
278.0417268102192
 30
0.0
 11
580.8162727304163
 21
278.0417268102192
 31
0.0
  0
LINE
  5
167
330
1F
100
AcDbEntity
  8
1
  6
Continuous
 62
   155
100
AcDbLine
 10
580.8162727304163
 20
261.8063758102193
 30
0.0
 11
580.8162727304163
 21
277.4264928102192
 31
0.0
  0
LINE
  5
168
330
1F
100
AcDbEntity
  8
1
  6
Continuous
 62
   155
100
AcDbLine
 10
580.8162727304163
 20
277.4264928102192
 30
0.0
 11
571.5877567304164
 21
277.4264928102192
 31
0.0
  0
LINE
  5
169
330
1F
100
AcDbEntity
  8
1
  6
Continuous
 62
   155
100
AcDbLine
 10
571.5877567304164
 20
277.4264928102192
 30
0.0
 11
571.5877567304164
 21
261.8063758102193
 31
0.0
  0
LINE
  5
16A
330
1F
100
AcDbEntity
  8
1
  6
Continuous
 62
   155
100
AcDbLine
 10
571.5877567304164
 20
261.8063758102193
 30
0.0
 11
580.8162727304163
 21
261.8063758102193
 31
0.0
  0
LINE
  5
16B
330
1F
100
AcDbEntity
  8
1
  6
Continuous
 62
   155
100
AcDbLine
 10
584.3196907304164
 20
293.6618438102192
 30
0.0
 11
581.4656867304163
 21
293.6618438102192
 31
0.0
  0
LINE
  5
16C
330
1F
100
AcDbEntity
  8
1
  6
Continuous
 62
   155
100
AcDbLine
 10
581.4656867304163
 20
293.6618438102192
 30
0.0
 11
581.4656867304163
 21
278.0417268102192
 31
0.0
  0
LINE
  5
16D
330
1F
100
AcDbEntity
  8
1
  6
Continuous
 62
   155
100
AcDbLine
 10
581.4656867304163
 20
278.0417268102192
 30
0.0
 11
591.1385377304164
 21
278.0417268102192
 31
0.0
  0
LINE
  5
16E
330
1F
100
AcDbEntity
  8
1
  6
Continuous
 62
   155
100
AcDbLine
 10
591.7195927304164
 20
277.4264928102192
 30
0.0
 11
581.4656867304163
 21
277.4264928102192
 31
0.0
  0
LINE
  5
16F
330
1F
100
AcDbEntity
  8
1
  6
Continuous
 62
   155
100
AcDbLine
 10
581.4656867304163
 20
277.4264928102192
 30
0.0
 11
581.4656867304163
 21
261.8063758102193
 31
0.0
  0
LINE
  5
170
330
1F
100
AcDbEntity
  8
1
  6
Continuous
 62
   155
100
AcDbLine
 10
581.4656867304163
 20
261.8063758102193
 30
0.0
 11
584.3196907304164
 21
261.8063758102193
 31
0.0
  0
LINE
  5
171
330
1F
100
AcDbEntity
  8
1
  6
Continuous
 62
   155
100
AcDbLine
 10
616.5340457304164
 20
277.4264928102191
 30
0.0
 11
606.2801397304164
 21
277.4264928102192
 31
0.0
  0
LINE
  5
172
330
1F
100
AcDbEntity
  8
1
  6
Continuous
 62
   155
100
AcDbLine
 10
606.2801397304164
 20
277.4264928102192
 30
0.0
 11
606.2801397304164
 21
261.8063758102193
 31
0.0
  0
LINE
  5
173
330
1F
100
AcDbEntity
  8
1
  6
Continuous
 62
   155
100
AcDbLine
 10
606.2801397304164
 20
261.8063758102193
 30
0.0
 11
609.1341437304163
 21
261.8063758102193
 31
0.0
  0
LINE
  5
174
330
1F
100
AcDbEntity
  8
1
  6
Continuous
 62
   155
100
AcDbLine
 10
563.7093387304164
 20
278.0417268102192
 30
0.0
 11
558.2405887304164
 21
293.6618438102192
 31
0.0
  0
LINE
  5
175
330
1F
100
AcDbEntity
  8
1
  6
Continuous
 62
   155
100
AcDbLine
 10
553.7801397304163
 20
278.0417268102192
 30
0.0
 11
563.7093387304164
 21
278.0417268102192
 31
0.0
  0
LINE
  5
176
330
1F
100
AcDbEntity
  8
1
  6
Continuous
 62
   155
100
AcDbLine
 10
558.2405887304164
 20
293.6618438102192
 30
0.0
 11
553.7801397304163
 21
293.6618438102192
 31
0.0
  0
LINE
  5
177
330
1F
100
AcDbEntity
  8
1
  6
Continuous
 62
   155
100
AcDbLine
 10
553.7801397304163
 20
293.6618438102192
 30
0.0
 11
553.7801397304163
 21
278.0417268102192
 31
0.0
  0
LINE
  5
178
330
1F
100
AcDbEntity
  8
1
  6
Continuous
 62
   155
100
AcDbLine
 10
605.6307257304163
 20
277.4264928102192
 30
0.0
 11
596.4022097304164
 21
277.4264928102192
 31
0.0
  0
LINE
  5
179
330
1F
100
AcDbEntity
  8
1
  6
Continuous
 62
   155
100
AcDbLine
 10
605.6307257304163
 20
261.8063758102193
 30
0.0
 11
605.6307257304163
 21
277.4264928102192
 31
0.0
  0
LINE
  5
17A
330
1F
100
AcDbEntity
  8
1
  6
Continuous
 62
   155
100
AcDbLine
 10
596.4022097304164
 20
277.4264928102192
 30
0.0
 11
596.4022097304164
 21
261.8063758102193
 31
0.0
  0
LINE
  5
17B
330
1F
100
AcDbEntity
  8
1
  6
Continuous
 62
   155
100
AcDbLine
 10
596.4022097304164
 20
261.8063758102193
 30
0.0
 11
605.6307257304163
 21
261.8063758102193
 31
0.0
  0
LINE
  5
17C
330
1F
100
AcDbEntity
  8
1
  6
Continuous
 62
   155
100
AcDbLine
 10
543.2357057304163
 20
278.0417268102192
 30
0.0
 11
553.1649047304163
 21
278.0417268102192
 31
0.0
  0
LINE
  5
17D
330
1F
100
AcDbEntity
  8
1
  6
Continuous
 62
   155
100
AcDbLine
 10
553.1649047304163
 20
278.0417268102192
 30
0.0
 11
553.1649047304163
 21
293.6618438102192
 31
0.0
  0
LINE
  5
17E
330
1F
100
AcDbEntity
  8
1
  6
Continuous
 62
   155
100
AcDbLine
 10
548.7044557304163
 20
293.6618438102192
 30
0.0
 11
543.2357057304163
 21
278.0417268102192
 31
0.0
  0
LINE
  5
17F
330
1F
100
AcDbEntity
  8
1
  6
Continuous
 62
   155
100
AcDbLine
 10
553.1649047304163
 20
293.6618438102192
 30
0.0
 11
548.7044557304163
 21
293.6618438102192
 31
0.0
  0
LINE
  5
180
330
1F
100
AcDbEntity
  8
1
  6
Continuous
 62
   155
100
AcDbLine
 10
605.6307257304163
 20
278.0417268102192
 30
0.0
 11
605.6307257304163
 21
293.6618438102192
 31
0.0
  0
LINE
  5
181
330
1F
100
AcDbEntity
  8
1
  6
Continuous
 62
   155
100
AcDbLine
 10
605.6307257304163
 20
293.6618438102192
 30
0.0
 11
596.4022097304164
 21
293.6618438102192
 31
0.0
  0
LINE
  5
182
330
1F
100
AcDbEntity
  8
1
  6
Continuous
 62
   155
100
AcDbLine
 10
596.4022097304164
 20
293.6618438102192
 30
0.0
 11
596.4022097304164
 21
278.0417268102192
 31
0.0
  0
LINE
  5
183
330
1F
100
AcDbEntity
  8
1
  6
Continuous
 62
   155
100
AcDbLine
 10
596.4022097304164
 20
278.0417268102192
 30
0.0
 11
605.6307257304163
 21
278.0417268102192
 31
0.0
  0
LINE
  5
184
330
1F
100
AcDbEntity
  8
1
  6
Continuous
 62
   155
100
AcDbLine
 10
569.4002567304164
 20
261.8063758102193
 30
0.0
 11
563.9315067304164
 21
277.4264928102192
 31
0.0
  0
LINE
  5
185
330
1F
100
AcDbEntity
  8
1
  6
Continuous
 62
   155
100
AcDbLine
 10
563.9315067304164
 20
277.4264928102192
 30
0.0
 11
553.7801397304163
 21
277.4264928102192
 31
0.0
  0
LINE
  5
186
330
1F
100
AcDbEntity
  8
1
  6
Continuous
 62
   155
100
AcDbLine
 10
553.7801397304163
 20
277.4264928102192
 30
0.0
 11
553.7801397304163
 21
268.1979768102192
 31
0.0
  0
LINE
  5
187
330
1F
100
AcDbEntity
  8
1
  6
Continuous
 62
   155
100
AcDbLine
 10
559.1976197304163
 20
268.1979768102192
 30
0.0
 11
561.4363897304164
 21
261.8063758102193
 31
0.0
  0
LINE
  5
188
330
1F
100
AcDbEntity
  8
1
  6
Continuous
 62
   155
100
AcDbLine
 10
553.7801397304163
 20
268.1979768102192
 30
0.0
 11
559.1976197304163
 21
268.1979768102192
 31
0.0
  0
LINE
  5
189
330
1F
100
AcDbEntity
  8
1
  6
Continuous
 62
   155
100
AcDbLine
 10
561.4363897304164
 20
261.8063758102193
 30
0.0
 11
569.4002567304164
 21
261.8063758102193
 31
0.0
  0
LINE
  5
18A
330
1F
100
AcDbEntity
  8
1
  6
Continuous
 62
   155
100
AcDbLine
 10
609.1341437304163
 20
293.6618438102192
 30
0.0
 11
606.2801397304164
 21
293.6618438102192
 31
0.0
  0
LINE
  5
18B
330
1F
100
AcDbEntity
  8
1
  6
Continuous
 62
   155
100
AcDbLine
 10
606.2801397304164
 20
293.6618438102192
 30
0.0
 11
606.2801397304164
 21
278.0417268102192
 31
0.0
  0
LINE
  5
18C
330
1F
100
AcDbEntity
  8
1
  6
Continuous
 62
   155
100
AcDbLine
 10
606.2801397304164
 20
278.0417268102192
 30
0.0
 11
615.9529907304163
 21
278.0417268102191
 31
0.0
  0
LINE
  5
18D
330
1F
100
AcDbEntity
  8
1
  6
Continuous
 62
   155
100
AcDbLine
 10
630.7097629999999
 20
221.011873
 30
0.0
 11
523.709763
 21
221.011873
 31
0.0
  0
LINE
  5
18E
330
1F
100
AcDbEntity
  8
1
  6
Continuous
 62
   155
100
AcDbLine
 10
523.709763
 20
221.011873
 30
0.0
 11
523.709763
 21
328.011873
 31
0.0
  0
LINE
  5
18F
330
1F
100
AcDbEntity
  8
1
  6
Continuous
 62
   155
100
AcDbLine
 10
657.7097629999999
 20
194.011873
 30
0.0
 11
630.7097629999999
 21
221.011873
 31
0.0
  0
LINE
  5
190
330
1F
100
AcDbEntity
  8
1
  6
Continuous
 62
   155
100
AcDbLine
 10
496.709763
 20
194.011873
 30
0.0
 11
523.709763
 21
221.011873
 31
0.0
  0
LINE
  5
191
330
1F
100
AcDbEntity
  8
1
  6
Continuous
 62
   155
100
AcDbLine
 10
523.709763
 20
328.011873
 30
0.0
 11
630.7097629999999
 21
328.011873
 31
0.0
  0
LINE
  5
192
330
1F
100
AcDbEntity
  8
1
  6
Continuous
 62
   155
100
AcDbLine
 10
496.709763
 20
355.011873
 30
0.0
 11
523.709763
 21
328.011873
 31
0.0
  0
LINE
  5
193
330
1F
100
AcDbEntity
  8
1
  6
Continuous
 62
   155
100
AcDbLine
 10
657.7097629999999
 20
355.011873
 30
0.0
 11
630.7097629999999
 21
328.011873
 31
0.0
  0
LINE
  5
194
330
1F
100
AcDbEntity
  8
1
  6
Continuous
 62
   155
100
AcDbLine
 10
630.7097629999999
 20
328.011873
 30
0.0
 11
630.7097629999999
 21
221.011873
 31
0.0
  0
LINE
  5
195
330
1F
100
AcDbEntity
  8
1
  6
Continuous
 62
   155
100
AcDbLine
 10
428.2097629999999
 20
213.011873
 30
0.0
 11
435.209763
 21
213.011873
 31
0.0
  0
LINE
  5
196
330
1F
100
AcDbEntity
  8
1
  6
Continuous
 62
   155
100
AcDbLine
 10
482.8411599999999
 20
391.511873
 30
0.0
 11
435.209763
 21
364.011873
 31
0.0
  0
LINE
  5
197
330
1F
100
AcDbEntity
  8
1
  6
Continuous
 62
   155
100
AcDbLine
 10
435.209763
 20
185.011873
 30
0.0
 11
482.8411599999999
 21
157.511873
 31
0.0
  0
LINE
  5
198
330
1F
100
AcDbEntity
  8
1
  6
Continuous
 62
   155
100
AcDbLine
 10
793.2097629999999
 20
374.011873
 30
0.0
 11
744.709763
 21
406.011873
 31
0.0
  0
LINE
  5
199
330
1F
100
AcDbEntity
  8
1
  6
Continuous
 62
   155
100
AcDbLine
 10
435.209763
 20
336.011873
 30
0.0
 11
428.2097629999999
 21
336.011873
 31
0.0
  0
LINE
  5
19A
330
1F
100
AcDbEntity
  8
1
  6
Continuous
 62
   155
100
AcDbLine
 10
744.709763
 20
143.011873
 30
0.0
 11
793.2097629999999
 21
175.011873
 31
0.0
  0
ARC
  5
19B
330
1F
100
AcDbEntity
  8
1
  6
Continuous
 62
   155
100
AcDbCircle
 10
-577.2097629999999
 20
732.3265169999999
 30
0.0
 40
10.25
210
0.0
220
0.0
230
-1.0
100
AcDbArc
 50
90.0
 51
270.0
  0
ARC
  5
19C
330
1F
100
AcDbEntity
  8
1
  6
Continuous
 62
   155
100
AcDbCircle
 10
-577.2097629999999
 20
732.3265169999999
 30
0.0
 40
10.25
210
0.0
220
0.0
230
-1.0
100
AcDbArc
 50
270.0
 51
90.0
  0
ARC
  5
19D
330
1F
100
AcDbEntity
  8
1
  6
Continuous
 62
   155
100
AcDbCircle
 10
-617.2097629999999
 20
732.3265169999999
 30
0.0
 40
12.75
210
0.0
220
0.0
230
-1.0
100
AcDbArc
 50
90.0
 51
270.0
  0
ARC
  5
19E
330
1F
100
AcDbEntity
  8
1
  6
Continuous
 62
   155
100
AcDbCircle
 10
-617.2097629999999
 20
732.3265169999999
 30
0.0
 40
12.75
210
0.0
220
0.0
230
-1.0
100
AcDbArc
 50
270.0
 51
90.0
  0
ARC
  5
19F
330
1F
100
AcDbEntity
  8
1
  6
Continuous
 62
   155
100
AcDbCircle
 10
-166.200528
 20
622.3265169999999
 30
0.0
 40
131.5
210
0.0
220
0.0
230
-1.0
100
AcDbArc
 50
270.0
 51
0.0
  0
ARC
  5
1A0
330
1F
100
AcDbEntity
  8
1
  6
Continuous
 62
   155
100
AcDbCircle
 10
166.200528
 20
622.3265169999999
 30
0.0
 40
99.50000000000001
100
AcDbArc
 50
270.0
 51
90.0
  0
ARC
  5
1A1
330
1F
100
AcDbEntity
  8
1
  6
Continuous
 62
   155
100
AcDbCircle
 10
166.200528
 20
622.3265169999999
 30
0.0
 40
99.50000000000001
100
AcDbArc
 50
90.0
 51
270.0
  0
ARC
  5
1A2
330
1F
100
AcDbEntity
  8
1
  6
Continuous
 62
   155
100
AcDbCircle
 10
-166.200528
 20
622.3265169999999
 30
0.0
 40
131.5
210
0.0
220
0.0
230
-1.0
100
AcDbArc
 50
0.0
 51
90.0
  0
ARC
  5
1A3
330
1F
100
AcDbEntity
  8
1
  6
Continuous
 62
   155
100
AcDbCircle
 10
-166.200528
 20
622.3265169999999
 30
0.0
 40
131.5
210
0.0
220
0.0
230
-1.0
100
AcDbArc
 50
90.0
 51
180.0
  0
ARC
  5
1A4
330
1F
100
AcDbEntity
  8
1
  6
Continuous
 62
   155
100
AcDbCircle
 10
-166.200528
 20
622.3265169999999
 30
0.0
 40
131.5
210
0.0
220
0.0
230
-1.0
100
AcDbArc
 50
180.0
 51
270.0
  0
ARC
  5
1A5
330
1F
100
AcDbEntity
  8
1
  6
Continuous
 62
   155
100
AcDbCircle
 10
-990.5277039999999
 20
622.3265169999999
 30
0.0
 40
19.0
210
0.0
220
0.0
230
-1.0
100
AcDbArc
 50
0.0
 51
180.0
  0
ARC
  5
1A6
330
1F
100
AcDbEntity
  8
1
  6
Continuous
 62
   155
100
AcDbCircle
 10
990.5277039999999
 20
622.3265169999999
 30
0.0
 40
20.0
100
AcDbArc
 50
0.0
 51
180.0
  0
ARC
  5
1A7
330
1F
100
AcDbEntity
  8
1
  6
Continuous
 62
   155
100
AcDbCircle
 10
990.5277039999999
 20
622.3265169999999
 30
0.0
 40
20.0
100
AcDbArc
 50
180.0
 51
0.0
  0
ARC
  5
1A8
330
1F
100
AcDbEntity
  8
1
  6
Continuous
 62
   155
100
AcDbCircle
 10
-990.5277039999999
 20
622.3265169999999
 30
0.0
 40
117.0
210
0.0
220
0.0
230
-1.0
100
AcDbArc
 50
180.0
 51
270.0
  0
ARC
  5
1A9
330
1F
100
AcDbEntity
  8
1
  6
Continuous
 62
   155
100
AcDbCircle
 10
-990.5277039999999
 20
622.3265169999999
 30
0.0
 40
117.0
210
0.0
220
0.0
230
-1.0
100
AcDbArc
 50
270.0
 51
0.0
  0
ARC
  5
1AA
330
1F
100
AcDbEntity
  8
1
  6
Continuous
 62
   155
100
AcDbCircle
 10
-990.5277039999999
 20
622.3265169999999
 30
0.0
 40
19.0
210
0.0
220
0.0
230
-1.0
100
AcDbArc
 50
180.0
 51
0.0
  0
ARC
  5
1AB
330
1F
100
AcDbEntity
  8
1
  6
Continuous
 62
   155
100
AcDbCircle
 10
-990.5277039999999
 20
622.3265169999999
 30
0.0
 40
117.0
210
0.0
220
0.0
230
-1.0
100
AcDbArc
 50
0.0
 51
90.0
  0
ARC
  5
1AC
330
1F
100
AcDbEntity
  8
1
  6
Continuous
 62
   155
100
AcDbCircle
 10
-990.5277039999999
 20
622.3265169999999
 30
0.0
 40
117.0
210
0.0
220
0.0
230
-1.0
100
AcDbArc
 50
90.0
 51
180.0
  0
ARC
  5
1AD
330
1F
100
AcDbEntity
  8
1
  6
Continuous
 62
   155
100
AcDbCircle
 10
-990.5277039999999
 20
622.3265169999999
 30
0.0
 40
61.5
210
0.0
220
0.0
230
-1.0
100
AcDbArc
 50
270.0
 51
90.0
  0
ARC
  5
1AE
330
1F
100
AcDbEntity
  8
1
  6
Continuous
 62
   155
100
AcDbCircle
 10
-990.5277039999999
 20
622.3265169999999
 30
0.0
 40
61.5
210
0.0
220
0.0
230
-1.0
100
AcDbArc
 50
90.0
 51
270.0
  0
ARC
  5
1AF
330
1F
100
AcDbEntity
  8
1
  6
Continuous
 62
   155
100
AcDbCircle
 10
990.5277039999999
 20
622.3265169999999
 30
0.0
 40
89.50000000000001
100
AcDbArc
 50
90.0
 51
270.0
  0
ARC
  5
1B0
330
1F
100
AcDbEntity
  8
1
  6
Continuous
 62
   155
100
AcDbCircle
 10
990.5277039999999
 20
622.3265169999999
 30
0.0
 40
89.50000000000001
100
AcDbArc
 50
270.0
 51
90.0
  0
SPLINE
  5
1B1
330
1F
100
AcDbEntity
  8
1
  6
Continuous
 62
   155
100
AcDbSpline
210
0.0
220
0.0
230
1.0
 70
    24
 71
     3
 72
    10
 73
     6
 74
     0
 42
0.0000000001
 43
0.0000000001
 40
0.0
 40
0.0
 40
0.0
 40
0.0
 40
0.5000000000000015
 40
0.5000000000000015
 40
1.0
 40
1.0
 40
1.0
 40
1.0
 10
172.4925198919854
 20
787.8265171503958
 30
0.0
 10
175.2268948919854
 20
787.8265171503958
 30
0.0
 10
177.5083890326104
 20
787.8265171503958
 30
0.0
 10
181.1656155951104
 20
787.8265171503958
 30
0.0
 10
182.0799332368354
 20
787.8265171503958
 30
0.0
 10
182.0799174852604
 20
787.8265171503958
 30
0.0
  0
SPLINE
  5
1B2
330
1F
100
AcDbEntity
  8
1
  6
Continuous
 62
   155
100
AcDbSpline
210
0.0
220
0.0
230
1.0
 70
    24
 71
     3
 72
    10
 73
     6
 74
     0
 42
0.0000000001
 43
0.0000000001
 40
0.0
 40
0.0
 40
0.0
 40
0.0
 40
0.5000000000000014
 40
0.5000000000000014
 40
1.0
 40
1.0
 40
1.0
 40
1.0
 10
197.3069730169854
 20
787.8265171503958
 30
0.0
 10
200.0413480169854
 20
787.8265171503958
 30
0.0
 10
202.3228421576104
 20
787.8265171503958
 30
0.0
 10
205.9800687201104
 20
787.8265171503958
 30
0.0
 10
206.8943863618354
 20
787.8265171503958
 30
0.0
 10
206.8943706102604
 20
787.8265171503958
 30
0.0
  0
SPLINE
  5
1B3
330
1F
100
AcDbEntity
  8
1
  6
Continuous
 62
   155
100
AcDbSpline
210
0.0
220
0.0
230
1.0
 70
    24
 71
     3
 72
    10
 73
     6
 74
     0
 42
0.0000000001
 43
0.0000000001
 40
0.0
 40
0.0
 40
0.0
 40
0.0
 40
0.5000000000000006
 40
0.5000000000000006
 40
1.0
 40
1.0
 40
1.0
 40
1.0
 10
977.0579729224879
 20
787.8265171503958
 30
0.0
 10
977.0579829234879
 20
787.8265171503958
 30
0.0
 10
977.7586615167379
 20
787.8265171503958
 30
0.0
 10
980.561395891738
 20
787.8265171503958
 30
0.0
 10
982.2532904229881
 20
787.8265171503958
 30
0.0
 10
984.235712297988
 20
787.8265171503958
 30
0.0
  0
SPLINE
  5
1B4
330
1F
100
AcDbEntity
  8
1
  6
Continuous
 62
   155
100
AcDbSpline
210
0.0
220
0.0
230
1.0
 70
    24
 71
     3
 72
     8
 73
     4
 74
     0
 42
0.0000000001
 43
0.0000000001
 40
0.0
 40
0.0
 40
0.0
 40
0.0
 40
1.0
 40
1.0
 40
1.0
 40
1.0
 10
974.6483049537379
 20
787.8265171503958
 30
0.0
 10
974.648314954738
 20
787.8265171503958
 30
0.0
 10
975.3774766209046
 20
787.8265171503958
 30
0.0
 10
976.835809954238
 20
787.8265171503958
 30
0.0
  0
SPLINE
  5
1B5
330
1F
100
AcDbEntity
  8
1
  6
Continuous
 62
   155
100
AcDbSpline
210
0.0
220
0.0
230
1.0
 70
    24
 71
     3
 72
     8
 73
     4
 74
     0
 42
0.0000000001
 43
0.0000000001
 40
0.0
 40
0.0
 40
0.0
 40
0.0
 40
1.0
 40
1.0
 40
1.0
 40
1.0
 10
949.8338518287379
 20
787.8265171503958
 30
0.0
 10
949.8338618297379
 20
787.8265171503958
 30
0.0
 10
950.5630234959046
 20
787.8265171503958
 30
0.0
 10
952.021356829238
 20
787.8265171503958
 30
0.0
  0
SPLINE
  5
1B6
330
1F
100
AcDbEntity
  8
1
  6
Continuous
 62
   155
100
AcDbSpline
210
0.0
220
0.0
230
1.0
 70
    24
 71
     3
 72
    10
 73
     6
 74
     0
 42
0.0000000001
 43
0.0000000001
 40
0.0
 40
0.0
 40
0.0
 40
0.0
 40
0.4999999999999994
 40
0.4999999999999994
 40
1.0
 40
1.0
 40
1.0
 40
1.0
 10
952.2435197974878
 20
787.8265171503958
 30
0.0
 10
952.243529798488
 20
787.8265171503958
 30
0.0
 10
952.9442083917381
 20
787.8265171503958
 30
0.0
 10
955.7469427667379
 20
787.8265171503958
 30
0.0
 10
957.438837297988
 20
787.8265171503958
 30
0.0
 10
959.4212591729879
 20
787.8265171503958
 30
0.0
  0
SPLINE
  5
1B7
330
1F
100
AcDbEntity
  8
1
  6
Continuous
 62
   155
100
AcDbSpline
210
0.0
220
0.0
230
1.0
 70
     8
 71
     3
 72
    10
 73
     6
 74
     0
 42
0.0000000001
 43
0.0000000001
 40
0.0
 40
0.0
 40
0.0
 40
0.0
 40
0.5000000000000006
 40
0.5000000000000006
 40
1.0
 40
1.0
 40
1.0
 40
1.0
 10
591.4974246438398
 20
286.4841099022377
 30
-0.0000000000000008
 10
591.4974246438398
 20
288.4665317772377
 30
-0.0000000000000008
 10
590.7967410500898
 20
290.1584263084877
 30
-0.0000000000000008
 10
587.9940066750898
 20
292.9611606834877
 30
-0.0000000000000006
 10
586.3021121438398
 20
293.6618442772377
 30
-0.0000000000000005
 10
584.3196902688398
 20
293.6618442772377
 30
-0.0000000000000004
  0
SPLINE
  5
1B8
330
1F
100
AcDbEntity
  8
1
  6
Continuous
 62
   155
100
AcDbSpline
210
0.0
220
0.0
230
1.0
 70
     8
 71
     3
 72
     8
 73
     4
 74
     0
 42
0.0000000001
 43
0.0000000001
 40
0.0
 40
0.0
 40
0.0
 40
0.0
 40
1.0
 40
1.0
 40
1.0
 40
1.0
 10
587.8572879250898
 20
280.2292270897377
 30
-0.0000000000000006
 10
590.2840457375898
 20
281.6305942772377
 30
-0.0000000000000008
 10
591.4974246438398
 20
283.7155552147377
 30
-0.0000000000000008
 10
591.4974246438398
 20
286.4841099022377
 30
-0.0000000000000008
  0
SPLINE
  5
1B9
330
1F
100
AcDbEntity
  8
1
  6
Continuous
 62
   155
100
AcDbSpline
210
0.0
220
0.0
230
1.0
 70
     8
 71
     3
 72
     8
 73
     4
 74
     0
 42
0.0000000001
 43
0.0000000001
 40
0.0
 40
0.0
 40
0.0
 40
0.0
 40
1.0
 40
1.0
 40
1.0
 40
1.0
 10
591.1385379250898
 20
278.0417270897377
 30
-0.0000000000000008
 10
590.2384728209231
 20
278.9987583397377
 30
-0.0000000000000007
 10
589.1447228209231
 20
279.7279250064047
 30
-0.0000000000000007
 10
587.8572879250898
 20
280.2292270897377
 30
-0.0000000000000006
  0
SPLINE
  5
1BA
330
1F
100
AcDbEntity
  8
1
  6
Continuous
 62
   155
100
AcDbSpline
210
0.0
220
0.0
230
1.0
 70
     8
 71
     3
 72
     8
 73
     4
 74
     0
 42
0.0000000001
 43
0.0000000001
 40
0.0
 40
0.0
 40
0.0
 40
0.0
 40
1.0
 40
1.0
 40
1.0
 40
1.0
 10
593.9070926125898
 20
271.3425083397377
 30
-0.000000000000001
 10
593.9070926125898
 20
273.6211541730718
 30
-0.000000000000001
 10
593.1779259459231
 20
275.6491489647377
 30
-0.0000000000000009
 10
591.7195926125898
 20
277.4264927147377
 30
-0.0000000000000008
  0
SPLINE
  5
1BB
330
1F
100
AcDbEntity
  8
1
  6
Continuous
 62
   155
100
AcDbSpline
210
0.0
220
0.0
230
1.0
 70
     8
 71
     3
 72
    10
 73
     6
 74
     0
 42
0.0000000001
 43
0.0000000001
 40
0.0
 40
0.0
 40
0.0
 40
0.0
 40
0.5000000000000015
 40
0.5000000000000015
 40
1.0
 40
1.0
 40
1.0
 40
1.0
 10
584.3196902688398
 20
261.8063755272377
 30
-0.0000000000000004
 10
587.0540652688398
 20
261.8063755272377
 30
-0.0000000000000006
 10
589.3355594094648
 20
262.7092889386968
 30
-0.0000000000000007
 10
592.9927859719648
 20
266.3209425845297
 30
-0.0000000000000009
 10
593.9070926125898
 20
268.5967401105718
 30
-0.000000000000001
 10
593.9070926125898
 20
271.3425083397377
 30
-0.000000000000001
  0
SPLINE
  5
1BC
330
1F
100
AcDbEntity
  8
1
  6
Continuous
 62
   155
100
AcDbSpline
210
0.0
220
0.0
230
1.0
 70
     8
 71
     3
 72
     8
 73
     4
 74
     0
 42
0.0000000001
 43
0.0000000001
 40
0.0
 40
0.0
 40
0.0
 40
0.0
 40
1.0
 40
1.0
 40
1.0
 40
1.0
 10
618.7215457375899
 20
271.3425083397376
 30
-0.0000000000000025
 10
618.7215457375899
 20
273.6211541730717
 30
-0.0000000000000025
 10
617.9923790709231
 20
275.6491489647376
 30
-0.0000000000000024
 10
616.5340457375898
 20
277.4264927147376
 30
-0.0000000000000024
  0
SPLINE
  5
1BD
330
1F
100
AcDbEntity
  8
1
  6
Continuous
 62
   155
100
AcDbSpline
210
0.0
220
0.0
230
1.0
 70
     8
 71
     3
 72
    10
 73
     6
 74
     0
 42
0.0000000001
 43
0.0000000001
 40
0.0
 40
0.0
 40
0.0
 40
0.0
 40
0.5000000000000014
 40
0.5000000000000014
 40
1.0
 40
1.0
 40
1.0
 40
1.0
 10
609.1341433938398
 20
261.8063755272377
 30
-0.0000000000000019
 10
611.8685183938398
 20
261.8063755272377
 30
-0.0000000000000021
 10
614.1500125344649
 20
262.7092889386966
 30
-0.0000000000000022
 10
617.8072390969648
 20
266.3209425845296
 30
-0.0000000000000024
 10
618.7215457375899
 20
268.5967401105717
 30
-0.0000000000000025
 10
618.7215457375899
 20
271.3425083397376
 30
-0.0000000000000025
  0
SPLINE
  5
1BE
330
1F
100
AcDbEntity
  8
1
  6
Continuous
 62
   155
100
AcDbSpline
210
0.0
220
0.0
230
1.0
 70
     8
 71
     3
 72
     8
 73
     4
 74
     0
 42
0.0000000001
 43
0.0000000001
 40
0.0
 40
0.0
 40
0.0
 40
0.0
 40
1.0
 40
1.0
 40
1.0
 40
1.0
 10
612.6717410500898
 20
280.2292270897377
 30
-0.0000000000000021
 10
615.0984988625898
 20
281.6305942772376
 30
-0.0000000000000023
 10
616.3118777688398
 20
283.7155552147376
 30
-0.0000000000000023
 10
616.3118777688398
 20
286.4841099022376
 30
-0.0000000000000023
  0
SPLINE
  5
1BF
330
1F
100
AcDbEntity
  8
1
  6
Continuous
 62
   155
100
AcDbSpline
210
0.0
220
0.0
230
1.0
 70
     8
 71
     3
 72
    10
 73
     6
 74
     0
 42
0.0000000001
 43
0.0000000001
 40
0.0
 40
0.0
 40
0.0
 40
0.0
 40
0.4999999999999994
 40
0.4999999999999994
 40
1.0
 40
1.0
 40
1.0
 40
1.0
 10
616.3118777688398
 20
286.4841099022376
 30
-0.0000000000000023
 10
616.3118777688398
 20
288.4665317772376
 30
-0.0000000000000023
 10
615.6111941750898
 20
290.1584263084876
 30
-0.0000000000000023
 10
612.8084598000898
 20
292.9611606834877
 30
-0.0000000000000021
 10
611.1165652688399
 20
293.6618442772377
 30
-0.000000000000002
 10
609.1341433938398
 20
293.6618442772377
 30
-0.0000000000000019
  0
SPLINE
  5
1C0
330
1F
100
AcDbEntity
  8
1
  6
Continuous
 62
   155
100
AcDbSpline
210
-0.0000000000000013
220
-0.0000000000000019
230
1.0
 70
     8
 71
     3
 72
     8
 73
     4
 74
     0
 42
0.0000000001
 43
0.0000000001
 40
0.0
 40
0.0
 40
0.0
 40
0.0
 40
1.0
 40
1.0
 40
1.0
 40
1.0
 10
615.9529910500898
 20
278.0417270897376
 30
-0.0000000000000023
 10
615.0529259459232
 20
278.9987583397376
 30
-0.0000000000000023
 10
613.9591759459232
 20
279.7279250064046
 30
-0.0000000000000022
 10
612.6717410500898
 20
280.2292270897377
 30
-0.0000000000000021
  0
LINE
  5
2CD
330
1F
100
AcDbEntity
  8
1
  6
Continuous
 62
   155
100
AcDbLine
 10
129.7400389225017
 20
624.4713259405722
 30
0.0
 11
124.2712889225017
 21
608.8512089405723
 31
0.0
  0
LINE
  5
2CE
330
1F
100
AcDbEntity
  8
1
  6
Continuous
 62
   155
100
AcDbLine
 10
139.8914059225017
 20
624.4713259405722
 30
0.0
 11
129.7400389225017
 21
624.4713259405722
 31
0.0
  0
LINE
  5
2CF
330
1F
100
AcDbEntity
  8
1
  6
Continuous
 62
   155
100
AcDbLine
 10
124.2712889225017
 20
608.8512089405723
 30
0.0
 11
132.2351559225017
 21
608.8512089405723
 31
0.0
  0
LINE
  5
2D0
330
1F
100
AcDbEntity
  8
1
  6
Continuous
 62
   155
100
AcDbLine
 10
132.2351559225017
 20
608.8512089405723
 30
0.0
 11
134.4739259225017
 21
615.2428099405722
 31
0.0
  0
LINE
  5
2D1
330
1F
100
AcDbEntity
  8
1
  6
Continuous
 62
   155
100
AcDbLine
 10
134.4739259225017
 20
615.2428099405722
 30
0.0
 11
139.8914059225017
 21
615.2428099405722
 31
0.0
  0
LINE
  5
2D2
330
1F
100
AcDbEntity
  8
1
  6
Continuous
 62
   155
100
AcDbLine
 10
139.8914059225017
 20
615.2428099405722
 30
0.0
 11
139.8914059225017
 21
624.4713259405722
 31
0.0
  0
LINE
  5
2D3
330
1F
100
AcDbEntity
  8
1
  6
Continuous
 62
   155
100
AcDbLine
 10
167.5427739225017
 20
625.0865599405722
 30
0.0
 11
167.5427739225017
 21
640.7066769405722
 31
0.0
  0
LINE
  5
2D4
330
1F
100
AcDbEntity
  8
1
  6
Continuous
 62
   155
100
AcDbLine
 10
167.5427739225017
 20
640.7066769405722
 30
0.0
 11
158.3142579225018
 21
640.7066769405722
 31
0.0
  0
LINE
  5
2D5
330
1F
100
AcDbEntity
  8
1
  6
Continuous
 62
   155
100
AcDbLine
 10
158.3142579225018
 20
640.7066769405722
 30
0.0
 11
158.3142579225018
 21
625.0865599405722
 31
0.0
  0
LINE
  5
2D6
330
1F
100
AcDbEntity
  8
1
  6
Continuous
 62
   155
100
AcDbLine
 10
158.3142579225018
 20
625.0865599405722
 30
0.0
 11
167.5427739225017
 21
625.0865599405722
 31
0.0
  0
LINE
  5
2D7
330
1F
100
AcDbEntity
  8
1
  6
Continuous
 62
   155
100
AcDbLine
 10
167.5427739225017
 20
608.8512089405723
 30
0.0
 11
167.5427739225017
 21
624.4713259405722
 31
0.0
  0
LINE
  5
2D8
330
1F
100
AcDbEntity
  8
1
  6
Continuous
 62
   155
100
AcDbLine
 10
167.5427739225017
 20
624.4713259405722
 30
0.0
 11
158.3142579225018
 21
624.4713259405722
 31
0.0
  0
LINE
  5
2D9
330
1F
100
AcDbEntity
  8
1
  6
Continuous
 62
   155
100
AcDbLine
 10
158.3142579225018
 20
624.4713259405722
 30
0.0
 11
158.3142579225018
 21
608.8512089405723
 31
0.0
  0
LINE
  5
2DA
330
1F
100
AcDbEntity
  8
1
  6
Continuous
 62
   155
100
AcDbLine
 10
158.3142579225018
 20
608.8512089405723
 30
0.0
 11
167.5427739225017
 21
608.8512089405723
 31
0.0
  0
LINE
  5
2DB
330
1F
100
AcDbEntity
  8
1
  6
Continuous
 62
   155
100
AcDbLine
 10
171.0461919225017
 20
640.7066769405722
 30
0.0
 11
168.1921879225017
 21
640.7066769405722
 31
0.0
  0
LINE
  5
2DC
330
1F
100
AcDbEntity
  8
1
  6
Continuous
 62
   155
100
AcDbLine
 10
168.1921879225017
 20
640.7066769405722
 30
0.0
 11
168.1921879225017
 21
625.0865599405722
 31
0.0
  0
LINE
  5
2DD
330
1F
100
AcDbEntity
  8
1
  6
Continuous
 62
   155
100
AcDbLine
 10
168.1921879225017
 20
625.0865599405722
 30
0.0
 11
177.8650389225017
 21
625.0865599405722
 31
0.0
  0
LINE
  5
2DE
330
1F
100
AcDbEntity
  8
1
  6
Continuous
 62
   155
100
AcDbLine
 10
178.4460939225018
 20
624.4713259405722
 30
0.0
 11
168.1921879225017
 21
624.4713259405722
 31
0.0
  0
LINE
  5
2DF
330
1F
100
AcDbEntity
  8
1
  6
Continuous
 62
   155
100
AcDbLine
 10
168.1921879225017
 20
624.4713259405722
 30
0.0
 11
168.1921879225017
 21
608.8512089405723
 31
0.0
  0
LINE
  5
2E0
330
1F
100
AcDbEntity
  8
1
  6
Continuous
 62
   155
100
AcDbLine
 10
168.1921879225017
 20
608.8512089405723
 30
0.0
 11
171.0461919225017
 21
608.8512089405723
 31
0.0
  0
LINE
  5
2E1
330
1F
100
AcDbEntity
  8
1
  6
Continuous
 62
   155
100
AcDbLine
 10
203.2605469225018
 20
624.471325940572
 30
0.0
 11
193.0066409225018
 21
624.4713259405722
 31
0.0
  0
LINE
  5
2E2
330
1F
100
AcDbEntity
  8
1
  6
Continuous
 62
   155
100
AcDbLine
 10
193.0066409225018
 20
624.4713259405722
 30
0.0
 11
193.0066409225018
 21
608.8512089405723
 31
0.0
  0
LINE
  5
2E3
330
1F
100
AcDbEntity
  8
1
  6
Continuous
 62
   155
100
AcDbLine
 10
193.0066409225018
 20
608.8512089405723
 30
0.0
 11
195.8606449225017
 21
608.8512089405723
 31
0.0
  0
LINE
  5
2E4
330
1F
100
AcDbEntity
  8
1
  6
Continuous
 62
   155
100
AcDbLine
 10
150.4358399225018
 20
625.0865599405722
 30
0.0
 11
144.9670899225018
 21
640.7066769405722
 31
0.0
  0
LINE
  5
2E5
330
1F
100
AcDbEntity
  8
1
  6
Continuous
 62
   155
100
AcDbLine
 10
140.5066409225018
 20
625.0865599405722
 30
0.0
 11
150.4358399225018
 21
625.0865599405722
 31
0.0
  0
LINE
  5
2E6
330
1F
100
AcDbEntity
  8
1
  6
Continuous
 62
   155
100
AcDbLine
 10
144.9670899225018
 20
640.7066769405722
 30
0.0
 11
140.5066409225018
 21
640.7066769405722
 31
0.0
  0
LINE
  5
2E7
330
1F
100
AcDbEntity
  8
1
  6
Continuous
 62
   155
100
AcDbLine
 10
140.5066409225018
 20
640.7066769405722
 30
0.0
 11
140.5066409225018
 21
625.0865599405722
 31
0.0
  0
LINE
  5
2E8
330
1F
100
AcDbEntity
  8
1
  6
Continuous
 62
   155
100
AcDbLine
 10
192.3572269225017
 20
624.4713259405722
 30
0.0
 11
183.1287109225018
 21
624.4713259405722
 31
0.0
  0
LINE
  5
2E9
330
1F
100
AcDbEntity
  8
1
  6
Continuous
 62
   155
100
AcDbLine
 10
192.3572269225017
 20
608.8512089405723
 30
0.0
 11
192.3572269225017
 21
624.4713259405722
 31
0.0
  0
LINE
  5
2EA
330
1F
100
AcDbEntity
  8
1
  6
Continuous
 62
   155
100
AcDbLine
 10
183.1287109225018
 20
624.4713259405722
 30
0.0
 11
183.1287109225018
 21
608.8512089405723
 31
0.0
  0
LINE
  5
2EB
330
1F
100
AcDbEntity
  8
1
  6
Continuous
 62
   155
100
AcDbLine
 10
183.1287109225018
 20
608.8512089405723
 30
0.0
 11
192.3572269225017
 21
608.8512089405723
 31
0.0
  0
LINE
  5
2EC
330
1F
100
AcDbEntity
  8
1
  6
Continuous
 62
   155
100
AcDbLine
 10
129.9622069225017
 20
625.0865599405722
 30
0.0
 11
139.8914059225017
 21
625.0865599405722
 31
0.0
  0
LINE
  5
2ED
330
1F
100
AcDbEntity
  8
1
  6
Continuous
 62
   155
100
AcDbLine
 10
139.8914059225017
 20
625.0865599405722
 30
0.0
 11
139.8914059225017
 21
640.7066769405722
 31
0.0
  0
LINE
  5
2EE
330
1F
100
AcDbEntity
  8
1
  6
Continuous
 62
   155
100
AcDbLine
 10
135.4309569225017
 20
640.7066769405722
 30
0.0
 11
129.9622069225017
 21
625.0865599405722
 31
0.0
  0
LINE
  5
2EF
330
1F
100
AcDbEntity
  8
1
  6
Continuous
 62
   155
100
AcDbLine
 10
139.8914059225017
 20
640.7066769405722
 30
0.0
 11
135.4309569225017
 21
640.7066769405722
 31
0.0
  0
LINE
  5
2F0
330
1F
100
AcDbEntity
  8
1
  6
Continuous
 62
   155
100
AcDbLine
 10
192.3572269225017
 20
625.0865599405722
 30
0.0
 11
192.3572269225017
 21
640.7066769405722
 31
0.0
  0
LINE
  5
2F1
330
1F
100
AcDbEntity
  8
1
  6
Continuous
 62
   155
100
AcDbLine
 10
192.3572269225017
 20
640.7066769405722
 30
0.0
 11
183.1287109225018
 21
640.7066769405722
 31
0.0
  0
LINE
  5
2F2
330
1F
100
AcDbEntity
  8
1
  6
Continuous
 62
   155
100
AcDbLine
 10
183.1287109225018
 20
640.7066769405722
 30
0.0
 11
183.1287109225018
 21
625.0865599405722
 31
0.0
  0
LINE
  5
2F3
330
1F
100
AcDbEntity
  8
1
  6
Continuous
 62
   155
100
AcDbLine
 10
183.1287109225018
 20
625.0865599405722
 30
0.0
 11
192.3572269225017
 21
625.0865599405722
 31
0.0
  0
LINE
  5
2F4
330
1F
100
AcDbEntity
  8
1
  6
Continuous
 62
   155
100
AcDbLine
 10
156.1267579225018
 20
608.8512089405723
 30
0.0
 11
150.6580079225018
 21
624.4713259405722
 31
0.0
  0
LINE
  5
2F5
330
1F
100
AcDbEntity
  8
1
  6
Continuous
 62
   155
100
AcDbLine
 10
150.6580079225018
 20
624.4713259405722
 30
0.0
 11
140.5066409225018
 21
624.4713259405722
 31
0.0
  0
LINE
  5
2F6
330
1F
100
AcDbEntity
  8
1
  6
Continuous
 62
   155
100
AcDbLine
 10
140.5066409225018
 20
624.4713259405722
 30
0.0
 11
140.5066409225018
 21
615.2428099405722
 31
0.0
  0
LINE
  5
2F7
330
1F
100
AcDbEntity
  8
1
  6
Continuous
 62
   155
100
AcDbLine
 10
145.9241209225017
 20
615.2428099405722
 30
0.0
 11
148.1628909225018
 21
608.8512089405723
 31
0.0
  0
LINE
  5
2F8
330
1F
100
AcDbEntity
  8
1
  6
Continuous
 62
   155
100
AcDbLine
 10
140.5066409225018
 20
615.2428099405722
 30
0.0
 11
145.9241209225017
 21
615.2428099405722
 31
0.0
  0
LINE
  5
2F9
330
1F
100
AcDbEntity
  8
1
  6
Continuous
 62
   155
100
AcDbLine
 10
148.1628909225018
 20
608.8512089405723
 30
0.0
 11
156.1267579225018
 21
608.8512089405723
 31
0.0
  0
LINE
  5
2FA
330
1F
100
AcDbEntity
  8
1
  6
Continuous
 62
   155
100
AcDbLine
 10
195.8606449225017
 20
640.7066769405722
 30
0.0
 11
193.0066409225018
 21
640.7066769405722
 31
0.0
  0
LINE
  5
2FB
330
1F
100
AcDbEntity
  8
1
  6
Continuous
 62
   155
100
AcDbLine
 10
193.0066409225018
 20
640.7066769405722
 30
0.0
 11
193.0066409225018
 21
625.0865599405722
 31
0.0
  0
LINE
  5
2FC
330
1F
100
AcDbEntity
  8
1
  6
Continuous
 62
   155
100
AcDbLine
 10
193.0066409225018
 20
625.0865599405722
 30
0.0
 11
202.6794919225017
 21
625.086559940572
 31
0.0
  0
SPLINE
  5
2FD
330
1F
100
AcDbEntity
  8
1
  6
Continuous
 62
   155
100
AcDbSpline
210
0.0
220
0.0
230
1.0
 70
     8
 71
     3
 72
    10
 73
     6
 74
     0
 42
0.0000000001
 43
0.0000000001
 40
0.0
 40
0.0
 40
0.0
 40
0.0
 40
0.5000000000000006
 40
0.5000000000000006
 40
1.0
 40
1.0
 40
1.0
 40
1.0
 10
178.2239258359252
 20
633.5289430325907
 30
-0.0000000000000008
 10
178.2239258359252
 20
635.5113649075907
 30
-0.0000000000000008
 10
177.5232422421752
 20
637.2032594388407
 30
-0.0000000000000008
 10
174.7205078671752
 20
640.0059938138407
 30
-0.0000000000000006
 10
173.0286133359252
 20
640.7066774075907
 30
-0.0000000000000005
 10
171.0461914609252
 20
640.7066774075907
 30
-0.0000000000000004
  0
SPLINE
  5
2FE
330
1F
100
AcDbEntity
  8
1
  6
Continuous
 62
   155
100
AcDbSpline
210
0.0
220
0.0
230
1.0
 70
     8
 71
     3
 72
     8
 73
     4
 74
     0
 42
0.0000000001
 43
0.0000000001
 40
0.0
 40
0.0
 40
0.0
 40
0.0
 40
1.0
 40
1.0
 40
1.0
 40
1.0
 10
174.5837891171752
 20
627.2740602200907
 30
-0.0000000000000006
 10
177.0105469296752
 20
628.6754274075907
 30
-0.0000000000000008
 10
178.2239258359252
 20
630.7603883450907
 30
-0.0000000000000008
 10
178.2239258359252
 20
633.5289430325907
 30
-0.0000000000000008
  0
SPLINE
  5
2FF
330
1F
100
AcDbEntity
  8
1
  6
Continuous
 62
   155
100
AcDbSpline
210
0.0
220
0.0
230
1.0
 70
     8
 71
     3
 72
     8
 73
     4
 74
     0
 42
0.0000000001
 43
0.0000000001
 40
0.0
 40
0.0
 40
0.0
 40
0.0
 40
1.0
 40
1.0
 40
1.0
 40
1.0
 10
177.8650391171752
 20
625.0865602200907
 30
-0.0000000000000008
 10
176.9649740130085
 20
626.0435914700907
 30
-0.0000000000000007
 10
175.8712240130085
 20
626.7727581367577
 30
-0.0000000000000007
 10
174.5837891171752
 20
627.2740602200907
 30
-0.0000000000000006
  0
SPLINE
  5
300
330
1F
100
AcDbEntity
  8
1
  6
Continuous
 62
   155
100
AcDbSpline
210
0.0
220
0.0
230
1.0
 70
     8
 71
     3
 72
     8
 73
     4
 74
     0
 42
0.0000000001
 43
0.0000000001
 40
0.0
 40
0.0
 40
0.0
 40
0.0
 40
1.0
 40
1.0
 40
1.0
 40
1.0
 10
180.6335938046752
 20
618.3873414700907
 30
-0.000000000000001
 10
180.6335938046752
 20
620.6659873034247
 30
-0.000000000000001
 10
179.9044271380085
 20
622.6939820950907
 30
-0.0000000000000009
 10
178.4460938046752
 20
624.4713258450907
 30
-0.0000000000000008
  0
SPLINE
  5
301
330
1F
100
AcDbEntity
  8
1
  6
Continuous
 62
   155
100
AcDbSpline
210
0.0
220
0.0
230
1.0
 70
     8
 71
     3
 72
    10
 73
     6
 74
     0
 42
0.0000000001
 43
0.0000000001
 40
0.0
 40
0.0
 40
0.0
 40
0.0
 40
0.5000000000000015
 40
0.5000000000000015
 40
1.0
 40
1.0
 40
1.0
 40
1.0
 10
171.0461914609252
 20
608.8512086575907
 30
-0.0000000000000004
 10
173.7805664609252
 20
608.8512086575907
 30
-0.0000000000000006
 10
176.0620606015502
 20
609.7541220690498
 30
-0.0000000000000007
 10
179.7192871640502
 20
613.3657757148827
 30
-0.0000000000000009
 10
180.6335938046752
 20
615.6415732409247
 30
-0.000000000000001
 10
180.6335938046752
 20
618.3873414700907
 30
-0.000000000000001
  0
SPLINE
  5
302
330
1F
100
AcDbEntity
  8
1
  6
Continuous
 62
   155
100
AcDbSpline
210
0.0
220
0.0
230
1.0
 70
     8
 71
     3
 72
     8
 73
     4
 74
     0
 42
0.0000000001
 43
0.0000000001
 40
0.0
 40
0.0
 40
0.0
 40
0.0
 40
1.0
 40
1.0
 40
1.0
 40
1.0
 10
205.4480469296752
 20
618.3873414700906
 30
-0.0000000000000025
 10
205.4480469296752
 20
620.6659873034246
 30
-0.0000000000000025
 10
204.7188802630086
 20
622.6939820950906
 30
-0.0000000000000024
 10
203.2605469296752
 20
624.4713258450906
 30
-0.0000000000000024
  0
SPLINE
  5
303
330
1F
100
AcDbEntity
  8
1
  6
Continuous
 62
   155
100
AcDbSpline
210
0.0
220
0.0
230
1.0
 70
     8
 71
     3
 72
    10
 73
     6
 74
     0
 42
0.0000000001
 43
0.0000000001
 40
0.0
 40
0.0
 40
0.0
 40
0.0
 40
0.5000000000000014
 40
0.5000000000000014
 40
1.0
 40
1.0
 40
1.0
 40
1.0
 10
195.8606445859252
 20
608.8512086575907
 30
-0.0000000000000019
 10
198.5950195859252
 20
608.8512086575907
 30
-0.0000000000000021
 10
200.8765137265502
 20
609.7541220690496
 30
-0.0000000000000022
 10
204.5337402890502
 20
613.3657757148825
 30
-0.0000000000000024
 10
205.4480469296752
 20
615.6415732409246
 30
-0.0000000000000025
 10
205.4480469296752
 20
618.3873414700906
 30
-0.0000000000000025
  0
SPLINE
  5
304
330
1F
100
AcDbEntity
  8
1
  6
Continuous
 62
   155
100
AcDbSpline
210
0.0
220
0.0
230
1.0
 70
     8
 71
     3
 72
     8
 73
     4
 74
     0
 42
0.0000000001
 43
0.0000000001
 40
0.0
 40
0.0
 40
0.0
 40
0.0
 40
1.0
 40
1.0
 40
1.0
 40
1.0
 10
199.3982422421752
 20
627.2740602200907
 30
-0.0000000000000021
 10
201.8250000546752
 20
628.6754274075906
 30
-0.0000000000000023
 10
203.0383789609252
 20
630.7603883450906
 30
-0.0000000000000023
 10
203.0383789609252
 20
633.5289430325906
 30
-0.0000000000000023
  0
SPLINE
  5
305
330
1F
100
AcDbEntity
  8
1
  6
Continuous
 62
   155
100
AcDbSpline
210
0.0
220
0.0
230
1.0
 70
     8
 71
     3
 72
    10
 73
     6
 74
     0
 42
0.0000000001
 43
0.0000000001
 40
0.0
 40
0.0
 40
0.0
 40
0.0
 40
0.4999999999999994
 40
0.4999999999999994
 40
1.0
 40
1.0
 40
1.0
 40
1.0
 10
203.0383789609252
 20
633.5289430325906
 30
-0.0000000000000023
 10
203.0383789609252
 20
635.5113649075906
 30
-0.0000000000000023
 10
202.3376953671752
 20
637.2032594388406
 30
-0.0000000000000023
 10
199.5349609921752
 20
640.0059938138407
 30
-0.0000000000000021
 10
197.8430664609252
 20
640.7066774075907
 30
-0.000000000000002
 10
195.8606445859252
 20
640.7066774075907
 30
-0.0000000000000019
  0
SPLINE
  5
306
330
1F
100
AcDbEntity
  8
1
  6
Continuous
 62
   155
100
AcDbSpline
210
-0.0000000000000013
220
-0.0000000000000019
230
1.0
 70
     8
 71
     3
 72
     8
 73
     4
 74
     0
 42
0.0000000001
 43
0.0000000001
 40
0.0
 40
0.0
 40
0.0
 40
0.0
 40
1.0
 40
1.0
 40
1.0
 40
1.0
 10
202.6794922421752
 20
625.0865602200906
 30
-0.0000000000000023
 10
201.7794271380086
 20
626.0435914700906
 30
-0.0000000000000023
 10
200.6856771380086
 20
626.7727581367576
 30
-0.0000000000000022
 10
199.3982422421752
 20
627.2740602200907
 30
-0.0000000000000021
  0
LINE
  5
346
330
1F
100
AcDbEntity
  8
1
  6
Continuous
 62
   155
100
AcDbLine
 10
557.0860751879495
 20
621.2558352171803
 30
0.0
 11
551.6173251879495
 21
605.6357182171804
 31
0.0
  0
LINE
  5
347
330
1F
100
AcDbEntity
  8
1
  6
Continuous
 62
   155
100
AcDbLine
 10
567.2374421879494
 20
621.2558352171803
 30
0.0
 11
557.0860751879495
 21
621.2558352171803
 31
0.0
  0
LINE
  5
348
330
1F
100
AcDbEntity
  8
1
  6
Continuous
 62
   155
100
AcDbLine
 10
551.6173251879495
 20
605.6357182171804
 30
0.0
 11
559.5811921879494
 21
605.6357182171804
 31
0.0
  0
LINE
  5
349
330
1F
100
AcDbEntity
  8
1
  6
Continuous
 62
   155
100
AcDbLine
 10
559.5811921879494
 20
605.6357182171804
 30
0.0
 11
561.8199621879495
 21
612.0273192171802
 31
0.0
  0
LINE
  5
34A
330
1F
100
AcDbEntity
  8
1
  6
Continuous
 62
   155
100
AcDbLine
 10
561.8199621879495
 20
612.0273192171802
 30
0.0
 11
567.2374421879494
 21
612.0273192171802
 31
0.0
  0
LINE
  5
34B
330
1F
100
AcDbEntity
  8
1
  6
Continuous
 62
   155
100
AcDbLine
 10
567.2374421879494
 20
612.0273192171802
 30
0.0
 11
567.2374421879494
 21
621.2558352171803
 31
0.0
  0
LINE
  5
34C
330
1F
100
AcDbEntity
  8
1
  6
Continuous
 62
   155
100
AcDbLine
 10
594.8888101879495
 20
621.8710692171803
 30
0.0
 11
594.8888101879495
 21
637.4911862171804
 31
0.0
  0
LINE
  5
34D
330
1F
100
AcDbEntity
  8
1
  6
Continuous
 62
   155
100
AcDbLine
 10
594.8888101879495
 20
637.4911862171804
 30
0.0
 11
585.6602941879495
 21
637.4911862171804
 31
0.0
  0
LINE
  5
34E
330
1F
100
AcDbEntity
  8
1
  6
Continuous
 62
   155
100
AcDbLine
 10
585.6602941879495
 20
637.4911862171804
 30
0.0
 11
585.6602941879495
 21
621.8710692171803
 31
0.0
  0
LINE
  5
34F
330
1F
100
AcDbEntity
  8
1
  6
Continuous
 62
   155
100
AcDbLine
 10
585.6602941879495
 20
621.8710692171803
 30
0.0
 11
594.8888101879495
 21
621.8710692171803
 31
0.0
  0
LINE
  5
350
330
1F
100
AcDbEntity
  8
1
  6
Continuous
 62
   155
100
AcDbLine
 10
594.8888101879495
 20
605.6357182171804
 30
0.0
 11
594.8888101879495
 21
621.2558352171803
 31
0.0
  0
LINE
  5
351
330
1F
100
AcDbEntity
  8
1
  6
Continuous
 62
   155
100
AcDbLine
 10
594.8888101879495
 20
621.2558352171803
 30
0.0
 11
585.6602941879495
 21
621.2558352171803
 31
0.0
  0
LINE
  5
352
330
1F
100
AcDbEntity
  8
1
  6
Continuous
 62
   155
100
AcDbLine
 10
585.6602941879495
 20
621.2558352171803
 30
0.0
 11
585.6602941879495
 21
605.6357182171804
 31
0.0
  0
LINE
  5
353
330
1F
100
AcDbEntity
  8
1
  6
Continuous
 62
   155
100
AcDbLine
 10
585.6602941879495
 20
605.6357182171804
 30
0.0
 11
594.8888101879495
 21
605.6357182171804
 31
0.0
  0
LINE
  5
354
330
1F
100
AcDbEntity
  8
1
  6
Continuous
 62
   155
100
AcDbLine
 10
598.3922281879495
 20
637.4911862171804
 30
0.0
 11
595.5382241879495
 21
637.4911862171804
 31
0.0
  0
LINE
  5
355
330
1F
100
AcDbEntity
  8
1
  6
Continuous
 62
   155
100
AcDbLine
 10
595.5382241879495
 20
637.4911862171804
 30
0.0
 11
595.5382241879495
 21
621.8710692171803
 31
0.0
  0
LINE
  5
356
330
1F
100
AcDbEntity
  8
1
  6
Continuous
 62
   155
100
AcDbLine
 10
595.5382241879495
 20
621.8710692171803
 30
0.0
 11
605.2110751879495
 21
621.8710692171803
 31
0.0
  0
LINE
  5
357
330
1F
100
AcDbEntity
  8
1
  6
Continuous
 62
   155
100
AcDbLine
 10
605.7921301879495
 20
621.2558352171803
 30
0.0
 11
595.5382241879495
 21
621.2558352171803
 31
0.0
  0
LINE
  5
358
330
1F
100
AcDbEntity
  8
1
  6
Continuous
 62
   155
100
AcDbLine
 10
595.5382241879495
 20
621.2558352171803
 30
0.0
 11
595.5382241879495
 21
605.6357182171804
 31
0.0
  0
LINE
  5
359
330
1F
100
AcDbEntity
  8
1
  6
Continuous
 62
   155
100
AcDbLine
 10
595.5382241879495
 20
605.6357182171804
 30
0.0
 11
598.3922281879495
 21
605.6357182171804
 31
0.0
  0
LINE
  5
35A
330
1F
100
AcDbEntity
  8
1
  6
Continuous
 62
   155
100
AcDbLine
 10
630.6065831879496
 20
621.2558352171802
 30
0.0
 11
620.3526771879495
 21
621.2558352171803
 31
0.0
  0
LINE
  5
35B
330
1F
100
AcDbEntity
  8
1
  6
Continuous
 62
   155
100
AcDbLine
 10
620.3526771879495
 20
621.2558352171803
 30
0.0
 11
620.3526771879495
 21
605.6357182171804
 31
0.0
  0
LINE
  5
35C
330
1F
100
AcDbEntity
  8
1
  6
Continuous
 62
   155
100
AcDbLine
 10
620.3526771879495
 20
605.6357182171804
 30
0.0
 11
623.2066811879494
 21
605.6357182171804
 31
0.0
  0
LINE
  5
35D
330
1F
100
AcDbEntity
  8
1
  6
Continuous
 62
   155
100
AcDbLine
 10
577.7818761879496
 20
621.8710692171803
 30
0.0
 11
572.3131261879496
 21
637.4911862171804
 31
0.0
  0
LINE
  5
35E
330
1F
100
AcDbEntity
  8
1
  6
Continuous
 62
   155
100
AcDbLine
 10
567.8526771879496
 20
621.8710692171803
 30
0.0
 11
577.7818761879496
 21
621.8710692171803
 31
0.0
  0
LINE
  5
35F
330
1F
100
AcDbEntity
  8
1
  6
Continuous
 62
   155
100
AcDbLine
 10
572.3131261879496
 20
637.4911862171804
 30
0.0
 11
567.8526771879496
 21
637.4911862171804
 31
0.0
  0
LINE
  5
360
330
1F
100
AcDbEntity
  8
1
  6
Continuous
 62
   155
100
AcDbLine
 10
567.8526771879496
 20
637.4911862171804
 30
0.0
 11
567.8526771879496
 21
621.8710692171803
 31
0.0
  0
LINE
  5
361
330
1F
100
AcDbEntity
  8
1
  6
Continuous
 62
   155
100
AcDbLine
 10
619.7032631879494
 20
621.2558352171803
 30
0.0
 11
610.4747471879496
 21
621.2558352171803
 31
0.0
  0
LINE
  5
362
330
1F
100
AcDbEntity
  8
1
  6
Continuous
 62
   155
100
AcDbLine
 10
619.7032631879494
 20
605.6357182171804
 30
0.0
 11
619.7032631879494
 21
621.2558352171803
 31
0.0
  0
LINE
  5
363
330
1F
100
AcDbEntity
  8
1
  6
Continuous
 62
   155
100
AcDbLine
 10
610.4747471879496
 20
621.2558352171803
 30
0.0
 11
610.4747471879496
 21
605.6357182171804
 31
0.0
  0
LINE
  5
364
330
1F
100
AcDbEntity
  8
1
  6
Continuous
 62
   155
100
AcDbLine
 10
610.4747471879496
 20
605.6357182171804
 30
0.0
 11
619.7032631879494
 21
605.6357182171804
 31
0.0
  0
LINE
  5
365
330
1F
100
AcDbEntity
  8
1
  6
Continuous
 62
   155
100
AcDbLine
 10
557.3082431879495
 20
621.8710692171803
 30
0.0
 11
567.2374421879494
 21
621.8710692171803
 31
0.0
  0
LINE
  5
366
330
1F
100
AcDbEntity
  8
1
  6
Continuous
 62
   155
100
AcDbLine
 10
567.2374421879494
 20
621.8710692171803
 30
0.0
 11
567.2374421879494
 21
637.4911862171804
 31
0.0
  0
LINE
  5
367
330
1F
100
AcDbEntity
  8
1
  6
Continuous
 62
   155
100
AcDbLine
 10
562.7769931879495
 20
637.4911862171804
 30
0.0
 11
557.3082431879495
 21
621.8710692171803
 31
0.0
  0
LINE
  5
368
330
1F
100
AcDbEntity
  8
1
  6
Continuous
 62
   155
100
AcDbLine
 10
567.2374421879494
 20
637.4911862171804
 30
0.0
 11
562.7769931879495
 21
637.4911862171804
 31
0.0
  0
LINE
  5
369
330
1F
100
AcDbEntity
  8
1
  6
Continuous
 62
   155
100
AcDbLine
 10
619.7032631879494
 20
621.8710692171803
 30
0.0
 11
619.7032631879494
 21
637.4911862171804
 31
0.0
  0
LINE
  5
36A
330
1F
100
AcDbEntity
  8
1
  6
Continuous
 62
   155
100
AcDbLine
 10
619.7032631879494
 20
637.4911862171804
 30
0.0
 11
610.4747471879496
 21
637.4911862171804
 31
0.0
  0
LINE
  5
36B
330
1F
100
AcDbEntity
  8
1
  6
Continuous
 62
   155
100
AcDbLine
 10
610.4747471879496
 20
637.4911862171804
 30
0.0
 11
610.4747471879496
 21
621.8710692171803
 31
0.0
  0
LINE
  5
36C
330
1F
100
AcDbEntity
  8
1
  6
Continuous
 62
   155
100
AcDbLine
 10
610.4747471879496
 20
621.8710692171803
 30
0.0
 11
619.7032631879494
 21
621.8710692171803
 31
0.0
  0
LINE
  5
36D
330
1F
100
AcDbEntity
  8
1
  6
Continuous
 62
   155
100
AcDbLine
 10
583.4727941879496
 20
605.6357182171804
 30
0.0
 11
578.0040441879496
 21
621.2558352171803
 31
0.0
  0
LINE
  5
36E
330
1F
100
AcDbEntity
  8
1
  6
Continuous
 62
   155
100
AcDbLine
 10
578.0040441879496
 20
621.2558352171803
 30
0.0
 11
567.8526771879496
 21
621.2558352171803
 31
0.0
  0
LINE
  5
36F
330
1F
100
AcDbEntity
  8
1
  6
Continuous
 62
   155
100
AcDbLine
 10
567.8526771879496
 20
621.2558352171803
 30
0.0
 11
567.8526771879496
 21
612.0273192171802
 31
0.0
  0
LINE
  5
370
330
1F
100
AcDbEntity
  8
1
  6
Continuous
 62
   155
100
AcDbLine
 10
573.2701571879495
 20
612.0273192171802
 30
0.0
 11
575.5089271879495
 21
605.6357182171804
 31
0.0
  0
LINE
  5
371
330
1F
100
AcDbEntity
  8
1
  6
Continuous
 62
   155
100
AcDbLine
 10
567.8526771879496
 20
612.0273192171802
 30
0.0
 11
573.2701571879495
 21
612.0273192171802
 31
0.0
  0
LINE
  5
372
330
1F
100
AcDbEntity
  8
1
  6
Continuous
 62
   155
100
AcDbLine
 10
575.5089271879495
 20
605.6357182171804
 30
0.0
 11
583.4727941879496
 21
605.6357182171804
 31
0.0
  0
LINE
  5
373
330
1F
100
AcDbEntity
  8
1
  6
Continuous
 62
   155
100
AcDbLine
 10
623.2066811879494
 20
637.4911862171804
 30
0.0
 11
620.3526771879495
 21
637.4911862171804
 31
0.0
  0
LINE
  5
374
330
1F
100
AcDbEntity
  8
1
  6
Continuous
 62
   155
100
AcDbLine
 10
620.3526771879495
 20
637.4911862171804
 30
0.0
 11
620.3526771879495
 21
621.8710692171803
 31
0.0
  0
LINE
  5
375
330
1F
100
AcDbEntity
  8
1
  6
Continuous
 62
   155
100
AcDbLine
 10
620.3526771879495
 20
621.8710692171803
 30
0.0
 11
630.0255281879494
 21
621.8710692171802
 31
0.0
  0
SPLINE
  5
376
330
1F
100
AcDbEntity
  8
1
  6
Continuous
 62
   155
100
AcDbSpline
210
0.0
220
0.0
230
1.0
 70
     8
 71
     3
 72
    10
 73
     6
 74
     0
 42
0.0000000001
 43
0.0000000001
 40
0.0
 40
0.0
 40
0.0
 40
0.0
 40
0.5000000000000006
 40
0.5000000000000006
 40
1.0
 40
1.0
 40
1.0
 40
1.0
 10
605.5699621013729
 20
630.3134523091988
 30
-0.0000000000000008
 10
605.5699621013729
 20
632.2958741841988
 30
-0.0000000000000008
 10
604.8692785076229
 20
633.9877687154488
 30
-0.0000000000000008
 10
602.0665441326229
 20
636.7905030904488
 30
-0.0000000000000006
 10
600.374649601373
 20
637.4911866841988
 30
-0.0000000000000005
 10
598.3922277263729
 20
637.4911866841988
 30
-0.0000000000000004
  0
SPLINE
  5
377
330
1F
100
AcDbEntity
  8
1
  6
Continuous
 62
   155
100
AcDbSpline
210
0.0
220
0.0
230
1.0
 70
     8
 71
     3
 72
     8
 73
     4
 74
     0
 42
0.0000000001
 43
0.0000000001
 40
0.0
 40
0.0
 40
0.0
 40
0.0
 40
1.0
 40
1.0
 40
1.0
 40
1.0
 10
601.929825382623
 20
624.0585694966988
 30
-0.0000000000000006
 10
604.3565831951229
 20
625.4599366841988
 30
-0.0000000000000008
 10
605.5699621013729
 20
627.5448976216988
 30
-0.0000000000000008
 10
605.5699621013729
 20
630.3134523091988
 30
-0.0000000000000008
  0
SPLINE
  5
378
330
1F
100
AcDbEntity
  8
1
  6
Continuous
 62
   155
100
AcDbSpline
210
0.0
220
0.0
230
1.0
 70
     8
 71
     3
 72
     8
 73
     4
 74
     0
 42
0.0000000001
 43
0.0000000001
 40
0.0
 40
0.0
 40
0.0
 40
0.0
 40
1.0
 40
1.0
 40
1.0
 40
1.0
 10
605.2110753826229
 20
621.8710694966988
 30
-0.0000000000000008
 10
604.3110102784562
 20
622.8281007466988
 30
-0.0000000000000007
 10
603.2172602784562
 20
623.5572674133658
 30
-0.0000000000000007
 10
601.929825382623
 20
624.0585694966988
 30
-0.0000000000000006
  0
SPLINE
  5
379
330
1F
100
AcDbEntity
  8
1
  6
Continuous
 62
   155
100
AcDbSpline
210
0.0
220
0.0
230
1.0
 70
     8
 71
     3
 72
     8
 73
     4
 74
     0
 42
0.0000000001
 43
0.0000000001
 40
0.0
 40
0.0
 40
0.0
 40
0.0
 40
1.0
 40
1.0
 40
1.0
 40
1.0
 10
607.979630070123
 20
615.1718507466988
 30
-0.000000000000001
 10
607.979630070123
 20
617.4504965800329
 30
-0.000000000000001
 10
607.2504634034562
 20
619.4784913716988
 30
-0.0000000000000009
 10
605.792130070123
 20
621.2558351216988
 30
-0.0000000000000008
  0
SPLINE
  5
37A
330
1F
100
AcDbEntity
  8
1
  6
Continuous
 62
   155
100
AcDbSpline
210
0.0
220
0.0
230
1.0
 70
     8
 71
     3
 72
    10
 73
     6
 74
     0
 42
0.0000000001
 43
0.0000000001
 40
0.0
 40
0.0
 40
0.0
 40
0.0
 40
0.5000000000000015
 40
0.5000000000000015
 40
1.0
 40
1.0
 40
1.0
 40
1.0
 10
598.3922277263729
 20
605.6357179341988
 30
-0.0000000000000004
 10
601.1266027263729
 20
605.6357179341988
 30
-0.0000000000000006
 10
603.408096866998
 20
606.5386313456579
 30
-0.0000000000000007
 10
607.0653234294979
 20
610.1502849914908
 30
-0.0000000000000009
 10
607.979630070123
 20
612.4260825175329
 30
-0.000000000000001
 10
607.979630070123
 20
615.1718507466988
 30
-0.000000000000001
  0
SPLINE
  5
37B
330
1F
100
AcDbEntity
  8
1
  6
Continuous
 62
   155
100
AcDbSpline
210
0.0
220
0.0
230
1.0
 70
     8
 71
     3
 72
     8
 73
     4
 74
     0
 42
0.0000000001
 43
0.0000000001
 40
0.0
 40
0.0
 40
0.0
 40
0.0
 40
1.0
 40
1.0
 40
1.0
 40
1.0
 10
632.794083195123
 20
615.1718507466987
 30
-0.0000000000000025
 10
632.794083195123
 20
617.4504965800328
 30
-0.0000000000000025
 10
632.0649165284564
 20
619.4784913716987
 30
-0.0000000000000024
 10
630.6065831951229
 20
621.2558351216987
 30
-0.0000000000000024
  0
SPLINE
  5
37C
330
1F
100
AcDbEntity
  8
1
  6
Continuous
 62
   155
100
AcDbSpline
210
0.0
220
0.0
230
1.0
 70
     8
 71
     3
 72
    10
 73
     6
 74
     0
 42
0.0000000001
 43
0.0000000001
 40
0.0
 40
0.0
 40
0.0
 40
0.0
 40
0.5000000000000014
 40
0.5000000000000014
 40
1.0
 40
1.0
 40
1.0
 40
1.0
 10
623.206680851373
 20
605.6357179341988
 30
-0.0000000000000019
 10
625.941055851373
 20
605.6357179341988
 30
-0.0000000000000021
 10
628.222549991998
 20
606.5386313456578
 30
-0.0000000000000022
 10
631.879776554498
 20
610.1502849914907
 30
-0.0000000000000024
 10
632.794083195123
 20
612.4260825175327
 30
-0.0000000000000025
 10
632.794083195123
 20
615.1718507466987
 30
-0.0000000000000025
  0
SPLINE
  5
37D
330
1F
100
AcDbEntity
  8
1
  6
Continuous
 62
   155
100
AcDbSpline
210
0.0
220
0.0
230
1.0
 70
     8
 71
     3
 72
     8
 73
     4
 74
     0
 42
0.0000000001
 43
0.0000000001
 40
0.0
 40
0.0
 40
0.0
 40
0.0
 40
1.0
 40
1.0
 40
1.0
 40
1.0
 10
626.7442785076229
 20
624.0585694966988
 30
-0.0000000000000021
 10
629.171036320123
 20
625.4599366841987
 30
-0.0000000000000023
 10
630.384415226373
 20
627.5448976216987
 30
-0.0000000000000023
 10
630.384415226373
 20
630.3134523091987
 30
-0.0000000000000023
  0
SPLINE
  5
37E
330
1F
100
AcDbEntity
  8
1
  6
Continuous
 62
   155
100
AcDbSpline
210
0.0
220
0.0
230
1.0
 70
     8
 71
     3
 72
    10
 73
     6
 74
     0
 42
0.0000000001
 43
0.0000000001
 40
0.0
 40
0.0
 40
0.0
 40
0.0
 40
0.4999999999999994
 40
0.4999999999999994
 40
1.0
 40
1.0
 40
1.0
 40
1.0
 10
630.384415226373
 20
630.3134523091987
 30
-0.0000000000000023
 10
630.384415226373
 20
632.2958741841987
 30
-0.0000000000000023
 10
629.683731632623
 20
633.9877687154487
 30
-0.0000000000000023
 10
626.880997257623
 20
636.7905030904488
 30
-0.0000000000000021
 10
625.189102726373
 20
637.4911866841988
 30
-0.000000000000002
 10
623.206680851373
 20
637.4911866841988
 30
-0.0000000000000019
  0
SPLINE
  5
37F
330
1F
100
AcDbEntity
  8
1
  6
Continuous
 62
   155
100
AcDbSpline
210
-0.0000000000000013
220
-0.0000000000000019
230
1.0
 70
     8
 71
     3
 72
     8
 73
     4
 74
     0
 42
0.0000000001
 43
0.0000000001
 40
0.0
 40
0.0
 40
0.0
 40
0.0
 40
1.0
 40
1.0
 40
1.0
 40
1.0
 10
630.025528507623
 20
621.8710694966987
 30
-0.0000000000000023
 10
629.1254634034563
 20
622.8281007466987
 30
-0.0000000000000023
 10
628.0317134034564
 20
623.5572674133656
 30
-0.0000000000000022
 10
626.7442785076229
 20
624.0585694966988
 30
-0.0000000000000021
  0
LINE
  5
530
330
1F
100
AcDbEntity
  8
1
  6
Continuous
 62
   155
100
AcDbLine
 10
969.676669163603
 20
696.6148728491645
 30
0.0
 11
966.6141691636029
 21
687.8676073291644
 31
0.0
  0
LINE
  5
531
330
1F
100
AcDbEntity
  8
1
  6
Continuous
 62
   155
100
AcDbLine
 10
975.3614346836029
 20
696.6148728491645
 30
0.0
 11
969.676669163603
 21
696.6148728491645
 31
0.0
  0
LINE
  5
532
330
1F
100
AcDbEntity
  8
1
  6
Continuous
 62
   155
100
AcDbLine
 10
966.6141691636029
 20
687.8676073291644
 30
0.0
 11
971.0739346836028
 21
687.8676073291644
 31
0.0
  0
LINE
  5
533
330
1F
100
AcDbEntity
  8
1
  6
Continuous
 62
   155
100
AcDbLine
 10
971.0739346836028
 20
687.8676073291644
 30
0.0
 11
972.3276458836028
 21
691.4469038891644
 31
0.0
  0
LINE
  5
534
330
1F
100
AcDbEntity
  8
1
  6
Continuous
 62
   155
100
AcDbLine
 10
972.3276458836028
 20
691.4469038891644
 30
0.0
 11
975.3614346836029
 21
691.4469038891644
 31
0.0
  0
LINE
  5
535
330
1F
100
AcDbEntity
  8
1
  6
Continuous
 62
   155
100
AcDbLine
 10
975.3614346836029
 20
691.4469038891644
 30
0.0
 11
975.3614346836029
 21
696.6148728491645
 31
0.0
  0
LINE
  5
536
330
1F
100
AcDbEntity
  8
1
  6
Continuous
 62
   155
100
AcDbLine
 10
990.8462007636028
 20
696.9594038891646
 30
0.0
 11
990.8462007636028
 21
705.7066694091645
 31
0.0
  0
LINE
  5
537
330
1F
100
AcDbEntity
  8
1
  6
Continuous
 62
   155
100
AcDbLine
 10
990.8462007636028
 20
705.7066694091645
 30
0.0
 11
985.678231803603
 21
705.7066694091645
 31
0.0
  0
LINE
  5
538
330
1F
100
AcDbEntity
  8
1
  6
Continuous
 62
   155
100
AcDbLine
 10
985.678231803603
 20
705.7066694091645
 30
0.0
 11
985.678231803603
 21
696.9594038891646
 31
0.0
  0
LINE
  5
539
330
1F
100
AcDbEntity
  8
1
  6
Continuous
 62
   155
100
AcDbLine
 10
985.678231803603
 20
696.9594038891646
 30
0.0
 11
990.8462007636028
 21
696.9594038891646
 31
0.0
  0
LINE
  5
53A
330
1F
100
AcDbEntity
  8
1
  6
Continuous
 62
   155
100
AcDbLine
 10
990.8462007636028
 20
687.8676073291644
 30
0.0
 11
990.8462007636028
 21
696.6148728491645
 31
0.0
  0
LINE
  5
53B
330
1F
100
AcDbEntity
  8
1
  6
Continuous
 62
   155
100
AcDbLine
 10
990.8462007636028
 20
696.6148728491645
 30
0.0
 11
985.678231803603
 21
696.6148728491645
 31
0.0
  0
LINE
  5
53C
330
1F
100
AcDbEntity
  8
1
  6
Continuous
 62
   155
100
AcDbLine
 10
985.678231803603
 20
696.6148728491645
 30
0.0
 11
985.678231803603
 21
687.8676073291644
 31
0.0
  0
LINE
  5
53D
330
1F
100
AcDbEntity
  8
1
  6
Continuous
 62
   155
100
AcDbLine
 10
985.678231803603
 20
687.8676073291644
 30
0.0
 11
990.8462007636028
 21
687.8676073291644
 31
0.0
  0
LINE
  5
53E
330
1F
100
AcDbEntity
  8
1
  6
Continuous
 62
   155
100
AcDbLine
 10
992.8081148436028
 20
705.7066694091645
 30
0.0
 11
991.2098726036029
 21
705.7066694091645
 31
0.0
  0
LINE
  5
53F
330
1F
100
AcDbEntity
  8
1
  6
Continuous
 62
   155
100
AcDbLine
 10
991.2098726036029
 20
705.7066694091645
 30
0.0
 11
991.2098726036029
 21
696.9594038891646
 31
0.0
  0
LINE
  5
540
330
1F
100
AcDbEntity
  8
1
  6
Continuous
 62
   155
100
AcDbLine
 10
991.2098726036029
 20
696.9594038891646
 30
0.0
 11
996.6266691636029
 21
696.9594038891646
 31
0.0
  0
LINE
  5
541
330
1F
100
AcDbEntity
  8
1
  6
Continuous
 62
   155
100
AcDbLine
 10
996.952059963603
 20
696.6148728491645
 30
0.0
 11
991.2098726036029
 21
696.6148728491645
 31
0.0
  0
LINE
  5
542
330
1F
100
AcDbEntity
  8
1
  6
Continuous
 62
   155
100
AcDbLine
 10
991.2098726036029
 20
696.6148728491645
 30
0.0
 11
991.2098726036029
 21
687.8676073291644
 31
0.0
  0
LINE
  5
543
330
1F
100
AcDbEntity
  8
1
  6
Continuous
 62
   155
100
AcDbLine
 10
991.2098726036029
 20
687.8676073291644
 30
0.0
 11
992.8081148436028
 21
687.8676073291644
 31
0.0
  0
LINE
  5
544
330
1F
100
AcDbEntity
  8
1
  6
Continuous
 62
   155
100
AcDbLine
 10
1010.848153643603
 20
696.6148728491644
 30
0.0
 11
1005.105966283603
 21
696.6148728491645
 31
0.0
  0
LINE
  5
545
330
1F
100
AcDbEntity
  8
1
  6
Continuous
 62
   155
100
AcDbLine
 10
1005.105966283603
 20
696.6148728491645
 30
0.0
 11
1005.105966283603
 21
687.8676073291644
 31
0.0
  0
LINE
  5
546
330
1F
100
AcDbEntity
  8
1
  6
Continuous
 62
   155
100
AcDbLine
 10
1005.105966283603
 20
687.8676073291644
 30
0.0
 11
1006.704208523603
 21
687.8676073291644
 31
0.0
  0
LINE
  5
547
330
1F
100
AcDbEntity
  8
1
  6
Continuous
 62
   155
100
AcDbLine
 10
981.2663177236029
 20
696.9594038891646
 30
0.0
 11
978.203817723603
 21
705.7066694091645
 31
0.0
  0
LINE
  5
548
330
1F
100
AcDbEntity
  8
1
  6
Continuous
 62
   155
100
AcDbLine
 10
975.7059662836029
 20
696.9594038891646
 30
0.0
 11
981.2663177236029
 21
696.9594038891646
 31
0.0
  0
LINE
  5
549
330
1F
100
AcDbEntity
  8
1
  6
Continuous
 62
   155
100
AcDbLine
 10
978.203817723603
 20
705.7066694091645
 30
0.0
 11
975.7059662836029
 21
705.7066694091645
 31
0.0
  0
LINE
  5
54A
330
1F
100
AcDbEntity
  8
1
  6
Continuous
 62
   155
100
AcDbLine
 10
975.7059662836029
 20
705.7066694091645
 30
0.0
 11
975.7059662836029
 21
696.9594038891646
 31
0.0
  0
LINE
  5
54B
330
1F
100
AcDbEntity
  8
1
  6
Continuous
 62
   155
100
AcDbLine
 10
1004.742294443603
 20
696.6148728491645
 30
0.0
 11
999.5743254836028
 21
696.6148728491645
 31
0.0
  0
LINE
  5
54C
330
1F
100
AcDbEntity
  8
1
  6
Continuous
 62
   155
100
AcDbLine
 10
1004.742294443603
 20
687.8676073291644
 30
0.0
 11
1004.742294443603
 21
696.6148728491645
 31
0.0
  0
LINE
  5
54D
330
1F
100
AcDbEntity
  8
1
  6
Continuous
 62
   155
100
AcDbLine
 10
999.5743254836028
 20
696.6148728491645
 30
0.0
 11
999.5743254836028
 21
687.8676073291644
 31
0.0
  0
LINE
  5
54E
330
1F
100
AcDbEntity
  8
1
  6
Continuous
 62
   155
100
AcDbLine
 10
999.5743254836028
 20
687.8676073291644
 30
0.0
 11
1004.742294443603
 21
687.8676073291644
 31
0.0
  0
LINE
  5
54F
330
1F
100
AcDbEntity
  8
1
  6
Continuous
 62
   155
100
AcDbLine
 10
969.8010832436029
 20
696.9594038891646
 30
0.0
 11
975.3614346836029
 21
696.9594038891646
 31
0.0
  0
LINE
  5
550
330
1F
100
AcDbEntity
  8
1
  6
Continuous
 62
   155
100
AcDbLine
 10
975.3614346836029
 20
696.9594038891646
 30
0.0
 11
975.3614346836029
 21
705.7066694091645
 31
0.0
  0
LINE
  5
551
330
1F
100
AcDbEntity
  8
1
  6
Continuous
 62
   155
100
AcDbLine
 10
972.863583243603
 20
705.7066694091645
 30
0.0
 11
969.8010832436029
 21
696.9594038891646
 31
0.0
  0
LINE
  5
552
330
1F
100
AcDbEntity
  8
1
  6
Continuous
 62
   155
100
AcDbLine
 10
975.3614346836029
 20
705.7066694091645
 30
0.0
 11
972.863583243603
 21
705.7066694091645
 31
0.0
  0
LINE
  5
553
330
1F
100
AcDbEntity
  8
1
  6
Continuous
 62
   155
100
AcDbLine
 10
1004.742294443603
 20
696.9594038891646
 30
0.0
 11
1004.742294443603
 21
705.7066694091645
 31
0.0
  0
LINE
  5
554
330
1F
100
AcDbEntity
  8
1
  6
Continuous
 62
   155
100
AcDbLine
 10
1004.742294443603
 20
705.7066694091645
 30
0.0
 11
999.5743254836028
 21
705.7066694091645
 31
0.0
  0
LINE
  5
555
330
1F
100
AcDbEntity
  8
1
  6
Continuous
 62
   155
100
AcDbLine
 10
999.5743254836028
 20
705.7066694091645
 30
0.0
 11
999.5743254836028
 21
696.9594038891646
 31
0.0
  0
LINE
  5
556
330
1F
100
AcDbEntity
  8
1
  6
Continuous
 62
   155
100
AcDbLine
 10
999.5743254836028
 20
696.9594038891646
 30
0.0
 11
1004.742294443603
 21
696.9594038891646
 31
0.0
  0
LINE
  5
557
330
1F
100
AcDbEntity
  8
1
  6
Continuous
 62
   155
100
AcDbLine
 10
984.4532318036028
 20
687.8676073291644
 30
0.0
 11
981.3907318036028
 21
696.6148728491645
 31
0.0
  0
LINE
  5
558
330
1F
100
AcDbEntity
  8
1
  6
Continuous
 62
   155
100
AcDbLine
 10
981.3907318036028
 20
696.6148728491645
 30
0.0
 11
975.7059662836029
 21
696.6148728491645
 31
0.0
  0
LINE
  5
559
330
1F
100
AcDbEntity
  8
1
  6
Continuous
 62
   155
100
AcDbLine
 10
975.7059662836029
 20
696.6148728491645
 30
0.0
 11
975.7059662836029
 21
691.4469038891644
 31
0.0
  0
LINE
  5
55A
330
1F
100
AcDbEntity
  8
1
  6
Continuous
 62
   155
100
AcDbLine
 10
978.7397550836029
 20
691.4469038891644
 30
0.0
 11
979.9934662836031
 21
687.8676073291644
 31
0.0
  0
LINE
  5
55B
330
1F
100
AcDbEntity
  8
1
  6
Continuous
 62
   155
100
AcDbLine
 10
975.7059662836029
 20
691.4469038891644
 30
0.0
 11
978.7397550836029
 21
691.4469038891644
 31
0.0
  0
LINE
  5
55C
330
1F
100
AcDbEntity
  8
1
  6
Continuous
 62
   155
100
AcDbLine
 10
979.9934662836031
 20
687.8676073291644
 30
0.0
 11
984.4532318036028
 21
687.8676073291644
 31
0.0
  0
LINE
  5
55D
330
1F
100
AcDbEntity
  8
1
  6
Continuous
 62
   155
100
AcDbLine
 10
1006.704208523603
 20
705.7066694091645
 30
0.0
 11
1005.105966283603
 21
705.7066694091645
 31
0.0
  0
LINE
  5
55E
330
1F
100
AcDbEntity
  8
1
  6
Continuous
 62
   155
100
AcDbLine
 10
1005.105966283603
 20
705.7066694091645
 30
0.0
 11
1005.105966283603
 21
696.9594038891646
 31
0.0
  0
LINE
  5
55F
330
1F
100
AcDbEntity
  8
1
  6
Continuous
 62
   155
100
AcDbLine
 10
1005.105966283603
 20
696.9594038891646
 30
0.0
 11
1010.522762843603
 21
696.9594038891645
 31
0.0
  0
SPLINE
  5
560
330
1F
100
AcDbEntity
  8
1
  6
Continuous
 62
   155
100
AcDbSpline
210
0.0
220
0.0
230
1.0
 70
     8
 71
     3
 72
    10
 73
     6
 74
     0
 42
0.0000000001
 43
0.0000000001
 40
0.0
 40
0.0
 40
0.0
 40
0.0
 40
0.5000000000000006
 40
0.5000000000000006
 40
1.0
 40
1.0
 40
1.0
 40
1.0
 10
996.8276458351201
 20
701.6871384206949
 30
-0.0000000000000004
 10
996.8276458351201
 20
702.797294670695
 30
-0.0000000000000004
 10
996.4352630226203
 20
703.7447556081949
 30
-0.0000000000000004
 10
994.8657317726201
 20
705.3142868581949
 30
-0.0000000000000003
 10
993.9182708351202
 20
705.7066696706948
 30
-0.0000000000000003
 10
992.8081145851201
 20
705.7066696706948
 30
-0.0000000000000002
  0
SPLINE
  5
561
330
1F
100
AcDbEntity
  8
1
  6
Continuous
 62
   155
100
AcDbSpline
210
0.0
220
0.0
230
1.0
 70
     8
 71
     3
 72
     8
 73
     4
 74
     0
 42
0.0000000001
 43
0.0000000001
 40
0.0
 40
0.0
 40
0.0
 40
0.0
 40
1.0
 40
1.0
 40
1.0
 40
1.0
 10
994.7891692726201
 20
698.1844040456949
 30
-0.0000000000000003
 10
996.1481536476203
 20
698.969169670695
 30
-0.0000000000000004
 10
996.8276458351201
 20
700.1367477956949
 30
-0.0000000000000004
 10
996.8276458351201
 20
701.6871384206949
 30
-0.0000000000000004
  0
SPLINE
  5
562
330
1F
100
AcDbEntity
  8
1
  6
Continuous
 62
   155
100
AcDbSpline
210
0.0000000000000011
220
0.0000000000000017
230
-1.0
 70
     8
 71
     3
 72
     8
 73
     4
 74
     0
 42
0.0000000001
 43
0.0000000001
 40
0.0
 40
0.0
 40
0.0
 40
0.0
 40
1.0
 40
1.0
 40
1.0
 40
1.0
 10
996.6266692726204
 20
696.959404045695
 30
-0.0000000000000004
 10
996.1226328142865
 20
697.4953415456948
 30
-0.0000000000000004
 10
995.5101328142868
 20
697.9036748790283
 30
-0.0000000000000004
 10
994.7891692726201
 20
698.1844040456949
 30
-0.0000000000000003
  0
SPLINE
  5
563
330
1F
100
AcDbEntity
  8
1
  6
Continuous
 62
   155
100
AcDbSpline
210
0.0
220
0.0
230
1.0
 70
     8
 71
     3
 72
     8
 73
     4
 74
     0
 42
0.0000000001
 43
0.0000000001
 40
0.0
 40
0.0
 40
0.0
 40
0.0
 40
1.0
 40
1.0
 40
1.0
 40
1.0
 10
998.1770598976202
 20
693.2078415456949
 30
-0.0000000000000006
 10
998.1770598976202
 20
694.483883212362
 30
-0.0000000000000006
 10
997.7687265642869
 20
695.619560295695
 30
-0.0000000000000005
 10
996.9520598976201
 20
696.6148727956949
 30
-0.0000000000000004
  0
SPLINE
  5
564
330
1F
100
AcDbEntity
  8
1
  6
Continuous
 62
   155
100
AcDbSpline
210
0.0
220
0.0
230
1.0
 70
     8
 71
     3
 72
    10
 73
     6
 74
     0
 42
0.0000000001
 43
0.0000000001
 40
0.0
 40
0.0
 40
0.0
 40
0.0
 40
0.5000000000000015
 40
0.5000000000000015
 40
1.0
 40
1.0
 40
1.0
 40
1.0
 10
992.8081145851201
 20
687.8676071706949
 30
-0.0000000000000002
 10
994.3393645851202
 20
687.8676071706949
 30
-0.0000000000000003
 10
995.6170013038702
 20
688.3732386811121
 30
-0.0000000000000004
 10
997.6650481788702
 20
690.3957647227785
 30
-0.0000000000000005
 10
998.1770598976202
 20
691.670211337362
 30
-0.0000000000000006
 10
998.1770598976202
 20
693.2078415456949
 30
-0.0000000000000006
  0
SPLINE
  5
565
330
1F
100
AcDbEntity
  8
1
  6
Continuous
 62
   155
100
AcDbSpline
210
0.0
220
0.0
230
1.0
 70
     8
 71
     3
 72
     8
 73
     4
 74
     0
 42
0.0000000001
 43
0.0000000001
 40
0.0
 40
0.0
 40
0.0
 40
0.0
 40
1.0
 40
1.0
 40
1.0
 40
1.0
 10
1012.07315364762
 20
693.2078415456949
 30
-0.0000000000000014
 10
1012.07315364762
 20
694.4838832123618
 30
-0.0000000000000014
 10
1011.664820314287
 20
695.6195602956949
 30
-0.0000000000000013
 10
1010.84815364762
 20
696.6148727956949
 30
-0.0000000000000013
  0
SPLINE
  5
566
330
1F
100
AcDbEntity
  8
1
  6
Continuous
 62
   155
100
AcDbSpline
210
0.0
220
0.0
230
1.0
 70
     8
 71
     3
 72
    10
 73
     6
 74
     0
 42
0.0000000001
 43
0.0000000001
 40
0.0
 40
0.0
 40
0.0
 40
0.0
 40
0.5000000000000014
 40
0.5000000000000014
 40
1.0
 40
1.0
 40
1.0
 40
1.0
 10
1006.70420833512
 20
687.8676071706949
 30
-0.0000000000000011
 10
1008.23545833512
 20
687.8676071706949
 30
-0.0000000000000012
 10
1009.51309505387
 20
688.3732386811119
 30
-0.0000000000000012
 10
1011.56114192887
 20
690.3957647227784
 30
-0.0000000000000013
 10
1012.07315364762
 20
691.6702113373619
 30
-0.0000000000000014
 10
1012.07315364762
 20
693.2078415456949
 30
-0.0000000000000014
  0
SPLINE
  5
567
330
1F
100
AcDbEntity
  8
1
  6
Continuous
 62
   155
100
AcDbSpline
210
0.0
220
0.0
230
1.0
 70
     8
 71
     3
 72
     8
 73
     4
 74
     0
 42
0.0000000001
 43
0.0000000001
 40
0.0
 40
0.0
 40
0.0
 40
0.0
 40
1.0
 40
1.0
 40
1.0
 40
1.0
 10
1008.68526302262
 20
698.1844040456949
 30
-0.0000000000000012
 10
1010.04424739762
 20
698.969169670695
 30
-0.0000000000000013
 10
1010.72373958512
 20
700.1367477956949
 30
-0.0000000000000013
 10
1010.72373958512
 20
701.6871384206949
 30
-0.0000000000000013
  0
SPLINE
  5
568
330
1F
100
AcDbEntity
  8
1
  6
Continuous
 62
   155
100
AcDbSpline
210
0.0
220
0.0
230
1.0
 70
     8
 71
     3
 72
    10
 73
     6
 74
     0
 42
0.0000000001
 43
0.0000000001
 40
0.0
 40
0.0
 40
0.0
 40
0.0
 40
0.4999999999999994
 40
0.4999999999999994
 40
1.0
 40
1.0
 40
1.0
 40
1.0
 10
1010.72373958512
 20
701.6871384206949
 30
-0.0000000000000013
 10
1010.72373958512
 20
702.797294670695
 30
-0.0000000000000013
 10
1010.33135677262
 20
703.7447556081949
 30
-0.0000000000000013
 10
1008.76182552262
 20
705.3142868581949
 30
-0.0000000000000012
 10
1007.81436458512
 20
705.7066696706948
 30
-0.0000000000000011
 10
1006.70420833512
 20
705.7066696706948
 30
-0.0000000000000011
  0
SPLINE
  5
569
330
1F
100
AcDbEntity
  8
1
  6
Continuous
 62
   155
100
AcDbSpline
210
0.0000000000000013
220
0.0000000000000019
230
-1.0
 70
     8
 71
     3
 72
     8
 73
     4
 74
     0
 42
0.0000000001
 43
0.0000000001
 40
0.0
 40
0.0
 40
0.0
 40
0.0
 40
1.0
 40
1.0
 40
1.0
 40
1.0
 10
1010.52276302262
 20
696.959404045695
 30
-0.0000000000000013
 10
1010.018726564287
 20
697.4953415456948
 30
-0.0000000000000013
 10
1009.406226564287
 20
697.9036748790283
 30
-0.0000000000000012
 10
1008.68526302262
 20
698.1844040456949
 30
-0.0000000000000012
  0
MTEXT
  5
56C
330
1F
100
AcDbEntity
  8
0
100
AcDbMText
 10
896.781653783365
 20
128.4160571577045
 30
0.0
 40
25.0
 41
408.1208554268004
 46
0.0
 71
     1
 72
     5
  1
M3AA 132SB3
 73
     1
 44
1.0
1001
ACAD
1000
ACAD_MTEXT_COLUMN_INFO_BEGIN
1070
    75
1070
     2
1070
    79
1070
     0
1070
    76
1070
     1
1070
    78
1070
     0
1070
    48
1040
408.1208554268004
1070
    49
1040
1.0
1070
    50
1070
     1
1040
0.0
1000
ACAD_MTEXT_COLUMN_INFO_END
  0
ENDSEC
  0
SECTION
  2
OBJECTS
  0
DICTIONARY
  5
C
330
0
100
AcDbDictionary
281
     1
  3
ACAD_CIP_PREVIOUS_PRODUCT_INFO
350
21C
  3
ACAD_COLOR
350
205
  3
ACAD_GROUP
350
D
  3
ACAD_LAYOUT
350
1A
  3
ACAD_MATERIAL
350
3B
  3
ACAD_MLEADERSTYLE
350
1F8
  3
ACAD_MLINESTYLE
350
17
  3
ACAD_PLOTSETTINGS
350
19
  3
ACAD_PLOTSTYLENAME
350
E
  3
ACAD_SCALELIST
350
207
  3
ACAD_TABLESTYLE
350
1F7
  3
ACAD_VISUALSTYLE
350
2A
  3
ACDB_RECOMPOSE_DATA
350
57B
  3
AcDbVariableDictionary
350
571
  3
AcmDictionary
350
247
  3
AMG
350
22F
  3
AMGSNAPSETTINGS
350
285
  0
DICTIONARY
  5
56D
330
10
100
AcDbDictionary
280
     1
281
     1
  3
ADSK_XREC_LAYER_RECONCILED
360
56E
  0
DICTIONARY
  5
56F
330
46
100
AcDbDictionary
280
     1
281
     1
  3
ADSK_XREC_LAYER_RECONCILED
360
570
  0
XRECORD
  5
21C
102
{ACAD_REACTORS
330
C
102
}
330
C
100
AcDbXrecord
280
     1
300
AMECH_PP
300
2012
300

  0
DICTIONARY
  5
205
102
{ACAD_REACTORS
330
C
102
}
330
C
100
AcDbDictionary
281
     1
  0
DICTIONARY
  5
D
102
{ACAD_REACTORS
330
C
102
}
330
C
100
AcDbDictionary
281
     1
  0
DICTIONARY
  5
1A
102
{ACAD_REACTORS
330
C
102
}
330
C
100
AcDbDictionary
281
     1
  3
Layout1
350
1E
  3
Layout2
350
26
  3
Model
350
22
  0
DICTIONARY
  5
3B
102
{ACAD_REACTORS
330
C
102
}
330
C
100
AcDbDictionary
281
     1
  3
BYBLOCK
350
3D
  3
BYLAYER
350
3C
  3
Global
350
3E
  0
DICTIONARY
  5
1F8
102
{ACAD_REACTORS
330
C
102
}
330
C
100
AcDbDictionary
281
     1
  3
Standard
350
219
  0
DICTIONARY
  5
17
102
{ACAD_REACTORS
330
C
102
}
330
C
100
AcDbDictionary
281
     1
  3
Standard
350
18
  0
DICTIONARY
  5
19
102
{ACAD_REACTORS
330
C
102
}
330
C
100
AcDbDictionary
281
     1
  0
ACDBDICTIONARYWDFLT
  5
E
102
{ACAD_REACTORS
330
C
102
}
330
C
100
AcDbDictionary
281
     1
  3
Normal
350
F
100
AcDbDictionaryWithDefault
340
F
  0
DICTIONARY
  5
207
102
{ACAD_REACTORS
330
C
102
}
330
C
100
AcDbDictionary
281
     1
  3
A0
350
208
  3
A1
350
209
  3
A2
350
20A
  3
A3
350
20B
  3
A4
350
20C
  3
A5
350
20D
  3
A6
350
20E
  3
A7
350
20F
  3
A8
350
210
  3
A9
350
211
  3
B0
350
212
  3
B1
350
213
  3
B2
350
214
  3
B3
350
215
  3
B4
350
216
  3
B5
350
217
  3
B6
350
218
  0
DICTIONARY
  5
1F7
102
{ACAD_REACTORS
330
C
102
}
330
C
100
AcDbDictionary
281
     1
  3
Standard
350
206
  0
DICTIONARY
  5
2A
102
{ACAD_REACTORS
330
C
102
}
330
C
100
AcDbDictionary
281
     1
  3
2dWireframe
350
2F
  3
3D Hidden
350
31
  3
3dWireframe
350
30
  3
Basic
350
32
  3
Brighten
350
36
  3
ColorChange
350
3A
  3
Conceptual
350
34
  3
Dim
350
35
  3
EdgeColorOff
350
204
  3
Facepattern
350
39
  3
Flat
350
2B
  3
FlatWithEdges
350
2C
  3
Gouraud
350
2D
  3
GouraudWithEdges
350
2E
  3
Hidden
350
1FC
  3
JitterOff
350
202
  3
Linepattern
350
38
  3
OverhangOff
350
203
  3
Realistic
350
33
  3
Shaded
350
201
  3
Shaded with edges
350
200
  3
Shades of Gray
350
1FD
  3
Sketchy
350
1FE
  3
Thicken
350
37
  3
Wireframe
350
1FB
  3
X-Ray
350
1FF
  0
XRECORD
  5
57B
102
{ACAD_REACTORS
330
C
102
}
330
C
100
AcDbXrecord
280
     1
 90
        1
330
206
330
56C
  0
DICTIONARY
  5
571
102
{ACAD_REACTORS
330
C
102
}
330
C
100
AcDbDictionary
281
     1
  3
CANNOSCALE
350
575
  3
CMLEADERSTYLE
350
573
  3
CTABLESTYLE
350
572
  3
LAYEREVAL
350
577
  3
LAYERNOTIFY
350
578
  3
LIGHTINGUNITS
350
576
  3
MSLTSCALE
350
574
  0
DICTIONARY
  5
247
102
{ACAD_REACTORS
330
C
102
}
330
C
100
AcDbDictionary
281
     1
  3
AcmStdDictionary
350
24E
  0
DICTIONARY
  5
22F
102
{ACAD_REACTORS
330
C
102
}
330
C
100
AcDbDictionary
281
     1
  0
DICTIONARY
  5
285
102
{ACAD_REACTORS
330
C
102
}
330
C
100
AcDbDictionary
281
     1
  0
XRECORD
  5
56E
102
{ACAD_REACTORS
330
56D
102
}
330
56D
100
AcDbXrecord
280
     1
290
     1
  0
XRECORD
  5
570
102
{ACAD_REACTORS
330
56F
102
}
330
56F
100
AcDbXrecord
280
     1
290
     1
  0
LAYOUT
  5
1E
102
{ACAD_REACTORS
330
1A
102
}
330
1A
100
AcDbPlotSettings
  1

  2
none_device
  4

  6

 40
0.0
 41
0.0
 42
0.0
 43
0.0
 44
0.0
 45
0.0
 46
0.0
 47
0.0
 48
0.0
 49
0.0
140
0.0
141
0.0
142
1.0
143
1.0
 70
   688
 72
     0
 73
     0
 74
     5
  7

 75
    16
147
1.0
 76
     0
 77
     2
 78
   300
148
0.0
149
0.0
100
AcDbLayout
  1
Layout1
 70
     1
 71
     1
 10
-0.5
 20
-0.5
 11
5.0
 21
5.0
 12
0.0
 22
0.0
 32
0.0
 14
-0.5
 24
-0.5
 34
-0.5
 15
5.0
 25
5.0
 35
5.0
146
0.0
 13
0.0
 23
0.0
 33
0.0
 16
1.0
 26
0.0
 36
0.0
 17
0.0
 27
1.0
 37
0.0
 76
     0
330
1B
  0
LAYOUT
  5
26
102
{ACAD_REACTORS
330
1A
102
}
330
1A
100
AcDbPlotSettings
  1

  2
none_device
  4

  6

 40
0.0
 41
0.0
 42
0.0
 43
0.0
 44
0.0
 45
0.0
 46
0.0
 47
0.0
 48
0.0
 49
0.0
140
0.0
141
0.0
142
1.0
143
1.0
 70
   688
 72
     0
 73
     0
 74
     5
  7

 75
    16
147
1.0
 76
     0
 77
     2
 78
   300
148
0.0
149
0.0
100
AcDbLayout
  1
Layout2
 70
     1
 71
     2
 10
0.0
 20
0.0
 11
0.0
 21
0.0
 12
0.0
 22
0.0
 32
0.0
 14
0.0
 24
0.0
 34
0.0
 15
0.0
 25
0.0
 35
0.0
146
0.0
 13
0.0
 23
0.0
 33
0.0
 16
1.0
 26
0.0
 36
0.0
 17
0.0
 27
1.0
 37
0.0
 76
     0
330
23
  0
LAYOUT
  5
22
102
{ACAD_REACTORS
330
1A
102
}
330
1A
100
AcDbPlotSettings
  1

  2
none_device
  4

  6

 40
0.0
 41
0.0
 42
0.0
 43
0.0
 44
0.0
 45
0.0
 46
0.0
 47
0.0
 48
0.0
 49
0.0
140
0.0
141
0.0
142
1.0
143
1.0
 70
  1712
 72
     0
 73
     0
 74
     0
  7

 75
     0
147
1.0
 76
     0
 77
     2
 78
   300
148
0.0
149
0.0
100
AcDbLayout
  1
Model
 70
     1
 71
     0
 10
-0.5
 20
-0.5
 11
5.0
 21
5.0
 12
0.0
 22
0.0
 32
0.0
 14
-0.5
 24
-0.5
 34
-0.5
 15
5.0
 25
5.0
 35
5.0
146
0.0
 13
0.0
 23
0.0
 33
0.0
 16
1.0
 26
0.0
 36
0.0
 17
0.0
 27
1.0
 37
0.0
 76
     0
330
1F
331
1C1
  0
MATERIAL
  5
3D
102
{ACAD_XDICTIONARY
360
1F3
102
}
102
{ACAD_REACTORS
330
3B
102
}
330
3B
100
AcDbMaterial
  1
BYBLOCK
  0
MATERIAL
  5
3C
102
{ACAD_XDICTIONARY
360
1F1
102
}
102
{ACAD_REACTORS
330
3B
102
}
330
3B
100
AcDbMaterial
  1
BYLAYER
  0
MATERIAL
  5
3E
102
{ACAD_XDICTIONARY
360
1F5
102
}
102
{ACAD_REACTORS
330
3B
102
}
330
3B
100
AcDbMaterial
  1
Global
  0
MLEADERSTYLE
  5
219
102
{ACAD_REACTORS
330
1F8
102
}
330
1F8
100
AcDbMLeaderStyle
179
     2
170
     2
171
     1
172
     0
 90
        2
 40
0.0
 41
0.0
173
     1
 91
-1056964608
340
14
 92
       -2
290
     1
 42
2.0
291
     1
 43
0.36
  3
Standard
 44
4.0
300

342
11
174
     1
178
     6
175
     1
176
     0
 93
-1056964608
 45
4.0
292
     0
297
     0
 46
4.0
 94
-1056964608
 47
1.0
 49
1.0
140
1.0
293
     1
141
0.0
294
     1
177
     0
142
1.0
295
     0
296
     0
143
0.125
271
     0
272
     9
273
     9
  0
MLINESTYLE
  5
18
102
{ACAD_REACTORS
330
17
102
}
330
17
100
AcDbMlineStyle
  2
STANDARD
 70
     0
  3

 62
   256
 51
90.0
 52
90.0
 71
     2
 49
0.5
 62
   256
  6
BYLAYER
 49
-0.5
 62
   256
  6
BYLAYER
  0
ACDBPLACEHOLDER
  5
F
102
{ACAD_REACTORS
330
E
102
}
330
E
  0
SCALE
  5
208
102
{ACAD_REACTORS
330
207
102
}
330
207
100
AcDbScale
 70
     0
300
1:1
140
1.0
141
1.0
290
     1
  0
SCALE
  5
209
102
{ACAD_REACTORS
330
207
102
}
330
207
100
AcDbScale
 70
     0
300
1:2
140
1.0
141
2.0
290
     0
  0
SCALE
  5
20A
102
{ACAD_REACTORS
330
207
102
}
330
207
100
AcDbScale
 70
     0
300
1:4
140
1.0
141
4.0
290
     0
  0
SCALE
  5
20B
102
{ACAD_REACTORS
330
207
102
}
330
207
100
AcDbScale
 70
     0
300
1:5
140
1.0
141
5.0
290
     0
  0
SCALE
  5
20C
102
{ACAD_REACTORS
330
207
102
}
330
207
100
AcDbScale
 70
     0
300
1:8
140
1.0
141
8.0
290
     0
  0
SCALE
  5
20D
102
{ACAD_REACTORS
330
207
102
}
330
207
100
AcDbScale
 70
     0
300
1:10
140
1.0
141
10.0
290
     0
  0
SCALE
  5
20E
102
{ACAD_REACTORS
330
207
102
}
330
207
100
AcDbScale
 70
     0
300
1:16
140
1.0
141
16.0
290
     0
  0
SCALE
  5
20F
102
{ACAD_REACTORS
330
207
102
}
330
207
100
AcDbScale
 70
     0
300
1:20
140
1.0
141
20.0
290
     0
  0
SCALE
  5
210
102
{ACAD_REACTORS
330
207
102
}
330
207
100
AcDbScale
 70
     0
300
1:30
140
1.0
141
30.0
290
     0
  0
SCALE
  5
211
102
{ACAD_REACTORS
330
207
102
}
330
207
100
AcDbScale
 70
     0
300
1:40
140
1.0
141
40.0
290
     0
  0
SCALE
  5
212
102
{ACAD_REACTORS
330
207
102
}
330
207
100
AcDbScale
 70
     0
300
1:50
140
1.0
141
50.0
290
     0
  0
SCALE
  5
213
102
{ACAD_REACTORS
330
207
102
}
330
207
100
AcDbScale
 70
     0
300
1:100
140
1.0
141
100.0
290
     0
  0
SCALE
  5
214
102
{ACAD_REACTORS
330
207
102
}
330
207
100
AcDbScale
 70
     0
300
2:1
140
2.0
141
1.0
290
     0
  0
SCALE
  5
215
102
{ACAD_REACTORS
330
207
102
}
330
207
100
AcDbScale
 70
     0
300
4:1
140
4.0
141
1.0
290
     0
  0
SCALE
  5
216
102
{ACAD_REACTORS
330
207
102
}
330
207
100
AcDbScale
 70
     0
300
8:1
140
8.0
141
1.0
290
     0
  0
SCALE
  5
217
102
{ACAD_REACTORS
330
207
102
}
330
207
100
AcDbScale
 70
     0
300
10:1
140
10.0
141
1.0
290
     0
  0
SCALE
  5
218
102
{ACAD_REACTORS
330
207
102
}
330
207
100
AcDbScale
 70
     0
300
100:1
140
100.0
141
1.0
290
     0
  0
TABLESTYLE
  5
206
102
{ACAD_XDICTIONARY
360
579
102
}
102
{ACAD_REACTORS
330
1F7
102
}
330
1F7
100
AcDbTableStyle
280
     0
  3
Standard
 70
     0
 71
     0
 40
1.5
 41
1.5
280
     0
281
     0
  7
Standard
140
4.5
170
     2
 62
     0
 63
     7
283
     0
 90
      512
 91
        0
  1

274
    -2
284
     1
 64
     0
275
    -2
285
     1
 65
     0
276
    -2
286
     1
 66
     0
277
    -2
287
     1
 67
     0
278
    -2
288
     1
 68
     0
279
    -2
289
     1
 69
     0
  7
Standard
140
6.0
170
     5
 62
     0
 63
     7
283
     0
 90
      512
 91
        0
  1

274
    -2
284
     1
 64
     0
275
    -2
285
     1
 65
     0
276
    -2
286
     1
 66
     0
277
    -2
287
     1
 67
     0
278
    -2
288
     1
 68
     0
279
    -2
289
     1
 69
     0
  7
Standard
140
4.5
170
     5
 62
     0
 63
     7
283
     0
 90
      512
 91
        0
  1

274
    -2
284
     1
 64
     0
275
    -2
285
     1
 65
     0
276
    -2
286
     1
 66
     0
277
    -2
287
     1
 67
     0
278
    -2
288
     1
 68
     0
279
    -2
289
     1
 69
     0
  0
VISUALSTYLE
  5
2F
102
{ACAD_REACTORS
330
2A
102
}
330
2A
100
AcDbVisualStyle
  2

 70
     4
177
     2
291
     0
 71
     0
176
     1
 72
     2
176
     1
 73
     0
176
     1
 90
        0
176
     1
 40
0.6
176
     1
 41
30.0
176
     1
 63
     7
421
 16777215
176
     1
 74
     1
176
     1
 91
        4
176
     1
 64
     7
176
     1
 65
   257
176
     1
 75
     1
176
     1
175
     1
176
     1
 42
1.0
176
     1
 92
        0
176
     1
 66
   257
176
     1
 43
1.0
176
     1
 76
     1
176
     1
 77
     6
176
     1
 78
     2
176
     1
 67
     7
176
     1
 79
     5
176
     1
170
     0
176
     1
171
     0
176
     1
290
     0
176
     1
 93
        1
176
     1
 44
0.0
176
     1
173
     0
176
     1
1001
ACAD
1000
AcDbSavedByObjectVersion
1070
     0
  0
VISUALSTYLE
  5
31
102
{ACAD_REACTORS
330
2A
102
}
330
2A
100
AcDbVisualStyle
  2

 70
     6
177
     2
291
     0
 71
     1
176
     1
 72
     2
176
     1
 73
     2
176
     1
 90
        0
176
     1
 40
0.6
176
     1
 41
30.0
176
     1
 63
     7
421
 16777215
176
     1
 74
     2
176
     1
 91
        2
176
     1
 64
     7
176
     1
 65
   257
176
     1
 75
     2
176
     1
175
     1
176
     1
 42
40.0
176
     1
 92
        0
176
     1
 66
   257
176
     1
 43
1.0
176
     1
 76
     1
176
     1
 77
     6
176
     1
 78
     2
176
     1
 67
     7
176
     1
 79
     3
176
     1
170
     0
176
     1
171
     0
176
     1
290
     0
176
     1
 93
        1
176
     1
 44
0.0
176
     1
173
     0
176
     1
1001
ACAD
1000
AcDbSavedByObjectVersion
1070
     0
  0
VISUALSTYLE
  5
30
102
{ACAD_REACTORS
330
2A
102
}
330
2A
100
AcDbVisualStyle
  2

 70
     5
177
     2
291
     0
 71
     0
176
     1
 72
     2
176
     1
 73
     0
176
     1
 90
        0
176
     1
 40
0.6
176
     1
 41
30.0
176
     1
 63
     7
421
 16777215
176
     1
 74
     1
176
     1
 91
        4
176
     1
 64
     7
176
     1
 65
   257
176
     1
 75
     1
176
     1
175
     1
176
     1
 42
1.0
176
     1
 92
        0
176
     1
 66
   257
176
     1
 43
1.0
176
     1
 76
     1
176
     1
 77
     6
176
     1
 78
     2
176
     1
 67
     7
176
     1
 79
     5
176
     1
170
     0
176
     1
171
     0
176
     1
290
     0
176
     1
 93
        1
176
     1
 44
0.0
176
     1
173
     0
176
     1
1001
ACAD
1000
AcDbSavedByObjectVersion
1070
     0
  0
VISUALSTYLE
  5
32
102
{ACAD_REACTORS
330
2A
102
}
330
2A
100
AcDbVisualStyle
  2

 70
     7
177
     2
291
     1
 71
     1
176
     1
 72
     0
176
     1
 73
     1
176
     1
 90
        0
176
     1
 40
0.6
176
     1
 41
30.0
176
     1
 63
     7
421
 16777215
176
     1
 74
     0
176
     1
 91
        4
176
     1
 64
     7
176
     1
 65
   257
176
     1
 75
     1
176
     1
175
     1
176
     1
 42
1.0
176
     1
 92
        8
176
     1
 66
     7
176
     1
 43
1.0
176
     1
 76
     1
176
     1
 77
     6
176
     1
 78
     2
176
     1
 67
     7
176
     1
 79
     5
176
     1
170
     0
176
     1
171
     0
176
     1
290
     0
176
     1
 93
        1
176
     1
 44
0.0
176
     1
173
     0
176
     1
1001
ACAD
1000
AcDbSavedByObjectVersion
1070
     0
  0
VISUALSTYLE
  5
36
102
{ACAD_REACTORS
330
2A
102
}
330
2A
100
AcDbVisualStyle
  2

 70
    12
177
     2
291
     1
 71
     2
176
     1
 72
     2
176
     1
 73
     0
176
     1
 90
        0
176
     1
 40
0.6
176
     1
 41
30.0
176
     1
 63
     7
421
 16777215
176
     1
 74
     1
176
     1
 91
        4
176
     1
 64
     7
176
     1
 65
   257
176
     1
 75
     1
176
     1
175
     1
176
     1
 42
1.0
176
     1
 92
        8
176
     1
 66
     7
176
     1
 43
1.0
176
     1
 76
     1
176
     1
 77
     6
176
     1
 78
     2
176
     1
 67
     7
176
     1
 79
     5
176
     1
170
     0
176
     1
171
     0
176
     1
290
     0
176
     1
 93
        1
176
     1
 44
50.0
176
     1
173
     0
176
     1
1001
ACAD
1000
AcDbSavedByObjectVersion
1070
     0
  0
VISUALSTYLE
  5
3A
102
{ACAD_REACTORS
330
2A
102
}
330
2A
100
AcDbVisualStyle
  2

 70
    16
177
     2
291
     1
 71
     2
176
     1
 72
     2
176
     1
 73
     3
176
     1
 90
        0
176
     1
 40
0.6
176
     1
 41
30.0
176
     1
 63
     8
421
  8421504
176
     1
 74
     1
176
     1
 91
        4
176
     1
 64
     7
176
     1
 65
   257
176
     1
 75
     1
176
     1
175
     1
176
     1
 42
1.0
176
     1
 92
        8
176
     1
 66
     8
424
  8421504
176
     1
 43
1.0
176
     1
 76
     1
176
     1
 77
     6
176
     1
 78
     2
176
     1
 67
     7
176
     1
 79
     5
176
     1
170
     0
176
     1
171
     0
176
     1
290
     0
176
     1
 93
        1
176
     1
 44
0.0
176
     1
173
     0
176
     1
1001
ACAD
1000
AcDbSavedByObjectVersion
1070
     0
  0
VISUALSTYLE
  5
34
102
{ACAD_REACTORS
330
2A
102
}
330
2A
100
AcDbVisualStyle
  2

 70
     9
177
     2
291
     0
 71
     3
176
     1
 72
     2
176
     1
 73
     0
176
     1
 90
        0
176
     1
 40
0.6
176
     1
 41
30.0
176
     1
 63
     7
421
 16777215
176
     1
 74
     2
176
     1
 91
        2
176
     1
 64
     7
176
     1
 65
   257
176
     1
 75
     1
176
     1
175
     1
176
     1
 42
40.0
176
     1
 92
        8
176
     1
 66
     7
176
     1
 43
1.0
176
     1
 76
     1
176
     1
 77
     6
176
     1
 78
     2
176
     1
 67
     7
176
     1
 79
     3
176
     1
170
     0
176
     1
171
     0
176
     1
290
     0
176
     1
 93
        1
176
     1
 44
0.0
176
     1
173
     0
176
     1
1001
ACAD
1000
AcDbSavedByObjectVersion
1070
     0
  0
VISUALSTYLE
  5
35
102
{ACAD_REACTORS
330
2A
102
}
330
2A
100
AcDbVisualStyle
  2

 70
    11
177
     2
291
     1
 71
     2
176
     1
 72
     2
176
     1
 73
     0
176
     1
 90
        0
176
     1
 40
0.6
176
     1
 41
30.0
176
     1
 63
     7
421
 16777215
176
     1
 74
     1
176
     1
 91
        4
176
     1
 64
     7
176
     1
 65
   257
176
     1
 75
     1
176
     1
175
     1
176
     1
 42
1.0
176
     1
 92
        8
176
     1
 66
     7
176
     1
 43
1.0
176
     1
 76
     1
176
     1
 77
     6
176
     1
 78
     2
176
     1
 67
     7
176
     1
 79
     5
176
     1
170
     0
176
     1
171
     0
176
     1
290
     0
176
     1
 93
        1
176
     1
 44
-50.0
176
     1
173
     0
176
     1
1001
ACAD
1000
AcDbSavedByObjectVersion
1070
     0
  0
VISUALSTYLE
  5
204
102
{ACAD_REACTORS
330
2A
102
}
330
2A
100
AcDbVisualStyle
  2
EdgeColorOff
 70
    22
177
     2
291
     1
 71
     2
176
     0
 72
     2
176
     0
 73
     0
176
     0
 90
        0
176
     0
 40
0.6
176
     0
 41
30.0
176
     0
 63
     7
421
 16777215
176
     0
 74
     1
176
     0
 91
        4
176
     0
 64
     7
176
     0
 65
   257
176
     0
 75
     1
176
     0
175
     1
176
     0
 42
1.0
176
     0
 92
        8
176
     2
 66
     7
176
     0
 43
1.0
176
     0
 76
     1
176
     0
 77
     6
176
     0
 78
     2
176
     0
 67
     7
176
     0
 79
     5
176
     0
170
     0
176
     0
171
     0
176
     0
290
     0
176
     0
 93
        1
176
     0
 44
0.0
176
     0
173
     0
176
     0
  0
VISUALSTYLE
  5
39
102
{ACAD_REACTORS
330
2A
102
}
330
2A
100
AcDbVisualStyle
  2

 70
    15
177
     2
291
     1
 71
     2
176
     1
 72
     2
176
     1
 73
     0
176
     1
 90
        0
176
     1
 40
0.6
176
     1
 41
30.0
176
     1
 63
     7
421
 16777215
176
     1
 74
     1
176
     1
 91
        4
176
     1
 64
     7
176
     1
 65
   257
176
     1
 75
     1
176
     1
175
     1
176
     1
 42
1.0
176
     1
 92
        8
176
     1
 66
     7
176
     1
 43
1.0
176
     1
 76
     1
176
     1
 77
     6
176
     1
 78
     2
176
     1
 67
     7
176
     1
 79
     5
176
     1
170
     0
176
     1
171
     0
176
     1
290
     0
176
     1
 93
        1
176
     1
 44
0.0
176
     1
173
     0
176
     1
1001
ACAD
1000
AcDbSavedByObjectVersion
1070
     0
  0
VISUALSTYLE
  5
2B
102
{ACAD_REACTORS
330
2A
102
}
330
2A
100
AcDbVisualStyle
  2

 70
     0
177
     2
291
     1
 71
     2
176
     1
 72
     1
176
     1
 73
     1
176
     1
 90
        2
176
     1
 40
0.6
176
     1
 41
30.0
176
     1
 63
     7
421
 16777215
176
     1
 74
     0
176
     1
 91
        4
176
     1
 64
     7
176
     1
 65
   257
176
     1
 75
     1
176
     1
175
     1
176
     1
 42
1.0
176
     1
 92
        8
176
     1
 66
     7
176
     1
 43
1.0
176
     1
 76
     1
176
     1
 77
     6
176
     1
 78
     2
176
     1
 67
     7
176
     1
 79
     5
176
     1
170
     0
176
     1
171
     0
176
     1
290
     0
176
     1
 93
       13
176
     1
 44
0.0
176
     1
173
     0
176
     1
1001
ACAD
1000
AcDbSavedByObjectVersion
1070
     0
  0
VISUALSTYLE
  5
2C
102
{ACAD_REACTORS
330
2A
102
}
330
2A
100
AcDbVisualStyle
  2

 70
     1
177
     2
291
     1
 71
     2
176
     1
 72
     1
176
     1
 73
     1
176
     1
 90
        2
176
     1
 40
0.6
176
     1
 41
30.0
176
     1
 63
     7
421
 16777215
176
     1
 74
     1
176
     1
 91
        4
176
     1
 64
     7
176
     1
 65
   257
176
     1
 75
     1
176
     1
175
     1
176
     1
 42
1.0
176
     1
 92
        0
176
     1
 66
   257
176
     1
 43
1.0
176
     1
 76
     1
176
     1
 77
     6
176
     1
 78
     2
176
     1
 67
     7
176
     1
 79
     5
176
     1
170
     0
176
     1
171
     0
176
     1
290
     0
176
     1
 93
       13
176
     1
 44
0.0
176
     1
173
     0
176
     1
1001
ACAD
1000
AcDbSavedByObjectVersion
1070
     0
  0
VISUALSTYLE
  5
2D
102
{ACAD_REACTORS
330
2A
102
}
330
2A
100
AcDbVisualStyle
  2

 70
     2
177
     2
291
     1
 71
     2
176
     1
 72
     2
176
     1
 73
     1
176
     1
 90
        2
176
     1
 40
0.6
176
     1
 41
30.0
176
     1
 63
     7
421
 16777215
176
     1
 74
     0
176
     1
 91
        4
176
     1
 64
     7
176
     1
 65
   257
176
     1
 75
     1
176
     1
175
     1
176
     1
 42
1.0
176
     1
 92
        0
176
     1
 66
     7
176
     1
 43
1.0
176
     1
 76
     1
176
     1
 77
     6
176
     1
 78
     2
176
     1
 67
     7
176
     1
 79
     5
176
     1
170
     0
176
     1
171
     0
176
     1
290
     0
176
     1
 93
       13
176
     1
 44
0.0
176
     1
173
     0
176
     1
1001
ACAD
1000
AcDbSavedByObjectVersion
1070
     0
  0
VISUALSTYLE
  5
2E
102
{ACAD_REACTORS
330
2A
102
}
330
2A
100
AcDbVisualStyle
  2

 70
     3
177
     2
291
     1
 71
     2
176
     1
 72
     2
176
     1
 73
     1
176
     1
 90
        2
176
     1
 40
0.6
176
     1
 41
30.0
176
     1
 63
     7
421
 16777215
176
     1
 74
     1
176
     1
 91
        4
176
     1
 64
     7
176
     1
 65
   257
176
     1
 75
     1
176
     1
175
     1
176
     1
 42
1.0
176
     1
 92
        0
176
     1
 66
   257
176
     1
 43
1.0
176
     1
 76
     1
176
     1
 77
     6
176
     1
 78
     2
176
     1
 67
     7
176
     1
 79
     5
176
     1
170
     0
176
     1
171
     0
176
     1
290
     0
176
     1
 93
       13
176
     1
 44
0.0
176
     1
173
     0
176
     1
1001
ACAD
1000
AcDbSavedByObjectVersion
1070
     0
  0
VISUALSTYLE
  5
1FC
102
{ACAD_REACTORS
330
2A
102
}
330
2A
100
AcDbVisualStyle
  2
Hidden
 70
     6
177
     2
291
     0
 71
     1
176
     1
 72
     2
176
     1
 73
     2
176
     1
 90
        0
176
     1
 40
0.6
176
     1
 41
30.0
176
     1
 63
     7
421
 16777215
176
     1
 74
     2
176
     1
 91
        2
176
     1
 64
     7
176
     1
 65
   257
176
     1
 75
     2
176
     1
175
     1
176
     1
 42
40.0
176
     1
 92
        0
176
     1
 66
   257
176
     1
 43
1.0
176
     1
 76
     1
176
     1
 77
     6
176
     1
 78
     2
176
     1
 67
     7
176
     1
 79
     3
176
     1
170
     0
176
     1
171
     0
176
     1
290
     0
176
     1
 93
        1
176
     1
 44
0.0
176
     1
173
     0
176
     1
  0
VISUALSTYLE
  5
202
102
{ACAD_REACTORS
330
2A
102
}
330
2A
100
AcDbVisualStyle
  2
JitterOff
 70
    20
177
     2
291
     1
 71
     2
176
     0
 72
     2
176
     0
 73
     0
176
     0
 90
        0
176
     0
 40
0.6
176
     0
 41
30.0
176
     0
 63
     7
421
 16777215
176
     0
 74
     1
176
     0
 91
        4
176
     0
 64
     7
176
     0
 65
   257
176
     0
 75
     1
176
     0
175
     1
176
     0
 42
1.0
176
     0
 92
       10
176
     2
 66
     7
176
     0
 43
1.0
176
     0
 76
     1
176
     0
 77
     6
176
     0
 78
     2
176
     0
 67
     7
176
     0
 79
     5
176
     0
170
     0
176
     0
171
     0
176
     0
290
     0
176
     0
 93
        1
176
     0
 44
0.0
176
     0
173
     0
176
     0
  0
VISUALSTYLE
  5
38
102
{ACAD_REACTORS
330
2A
102
}
330
2A
100
AcDbVisualStyle
  2

 70
    14
177
     2
291
     1
 71
     2
176
     1
 72
     2
176
     1
 73
     0
176
     1
 90
        0
176
     1
 40
0.6
176
     1
 41
30.0
176
     1
 63
     7
421
 16777215
176
     1
 74
     1
176
     1
 91
        4
176
     1
 64
     7
176
     1
 65
   257
176
     1
 75
     7
176
     1
175
     7
176
     1
 42
1.0
176
     1
 92
        8
176
     1
 66
     7
176
     1
 43
1.0
176
     1
 76
     1
176
     1
 77
     6
176
     1
 78
     2
176
     1
 67
     7
176
     1
 79
     5
176
     1
170
     0
176
     1
171
     0
176
     1
290
     0
176
     1
 93
        1
176
     1
 44
0.0
176
     1
173
     0
176
     1
1001
ACAD
1000
AcDbSavedByObjectVersion
1070
     0
  0
VISUALSTYLE
  5
203
102
{ACAD_REACTORS
330
2A
102
}
330
2A
100
AcDbVisualStyle
  2
OverhangOff
 70
    21
177
     2
291
     1
 71
     2
176
     0
 72
     2
176
     0
 73
     0
176
     0
 90
        0
176
     0
 40
0.6
176
     0
 41
30.0
176
     0
 63
     7
421
 16777215
176
     0
 74
     1
176
     0
 91
        4
176
     0
 64
     7
176
     0
 65
   257
176
     0
 75
     1
176
     0
175
     1
176
     0
 42
1.0
176
     0
 92
        9
176
     2
 66
     7
176
     0
 43
1.0
176
     0
 76
     1
176
     0
 77
     6
176
     0
 78
     2
176
     0
 67
     7
176
     0
 79
     5
176
     0
170
     0
176
     0
171
     0
176
     0
290
     0
176
     0
 93
        1
176
     0
 44
0.0
176
     0
173
     0
176
     0
  0
VISUALSTYLE
  5
33
102
{ACAD_REACTORS
330
2A
102
}
330
2A
100
AcDbVisualStyle
  2

 70
     8
177
     2
291
     0
 71
     2
176
     1
 72
     2
176
     1
 73
     0
176
     1
 90
        0
176
     1
 40
0.6
176
     1
 41
30.0
176
     1
 63
     7
421
 16777215
176
     1
 74
     1
176
     1
 91
        0
176
     1
 64
     7
176
     1
 65
   257
176
     1
 75
     1
176
     1
175
     1
176
     1
 42
1.0
176
     1
 92
        8
176
     1
 66
     8
424
  7895160
176
     1
 43
1.0
176
     1
 76
     1
176
     1
 77
     6
176
     1
 78
     2
176
     1
 67
     7
176
     1
 79
     5
176
     1
170
     0
176
     1
171
     0
176
     1
290
     0
176
     1
 93
       13
176
     1
 44
0.0
176
     1
173
     0
176
     1
1001
ACAD
1000
AcDbSavedByObjectVersion
1070
     0
  0
VISUALSTYLE
  5
201
102
{ACAD_REACTORS
330
2A
102
}
330
2A
100
AcDbVisualStyle
  2
Shaded
 70
    27
177
     2
291
     0
 71
     2
176
     1
 72
     2
176
     1
 73
     1
176
     1
 90
        2
176
     1
 40
0.6
176
     1
 41
30.0
176
     1
 63
     7
421
 16777215
176
     1
 74
     0
176
     1
 91
        4
176
     1
 64
     7
176
     1
 65
   257
176
     1
 75
     1
176
     1
175
     1
176
     1
 42
1.0
176
     1
 92
        8
176
     1
 66
   257
176
     1
 43
1.0
176
     1
 76
     1
176
     1
 77
     6
176
     1
 78
     2
176
     1
 67
     8
425
  7895160
176
     1
 79
     3
176
     1
170
     0
176
     1
171
     0
176
     1
290
     0
176
     1
 93
        5
176
     1
 44
0.0
176
     1
173
     0
176
     1
  0
VISUALSTYLE
  5
200
102
{ACAD_REACTORS
330
2A
102
}
330
2A
100
AcDbVisualStyle
  2
Shaded with edges
 70
    26
177
     2
291
     0
 71
     2
176
     1
 72
     2
176
     1
 73
     1
176
     1
 90
        2
176
     1
 40
0.6
176
     1
 41
30.0
176
     1
 63
     7
421
 16777215
176
     1
 74
     1
176
     1
 91
       10
176
     1
 64
     7
176
     1
 65
   257
176
     1
 75
     2
176
     1
175
     1
176
     1
 42
1.0
176
     1
 92
        8
176
     1
 66
   257
176
     1
 43
1.0
176
     1
 76
     1
176
     1
 77
     6
176
     1
 78
     2
176
     1
 67
     7
176
     1
 79
     3
176
     1
170
     0
176
     1
171
     0
176
     1
290
     0
176
     1
 93
        5
176
     1
 44
0.0
176
     1
173
     0
176
     1
  0
VISUALSTYLE
  5
1FD
102
{ACAD_REACTORS
330
2A
102
}
330
2A
100
AcDbVisualStyle
  2
Shades of Gray
 70
    23
177
     2
291
     0
 71
     2
176
     1
 72
     2
176
     1
 73
     3
176
     1
 90
        0
176
     1
 40
0.6
176
     1
 41
30.0
176
     1
 63
     7
421
 16777215
176
     1
 74
     2
176
     1
 91
        2
176
     1
 64
     7
176
     1
 65
     7
176
     1
 75
     1
176
     1
175
     1
176
     1
 42
40.0
176
     1
 92
        8
176
     1
 66
     7
176
     1
 43
1.0
176
     1
 76
     1
176
     1
 77
     6
176
     1
 78
     2
176
     1
 67
     7
176
     1
 79
     3
176
     1
170
     0
176
     1
171
     0
176
     1
290
     0
176
     1
 93
        1
176
     1
 44
0.0
176
     1
173
     0
176
     1
  0
VISUALSTYLE
  5
1FE
102
{ACAD_REACTORS
330
2A
102
}
330
2A
100
AcDbVisualStyle
  2
Sketchy
 70
    24
177
     2
291
     0
 71
     1
176
     1
 72
     2
176
     1
 73
     2
176
     1
 90
        0
176
     1
 40
0.6
176
     1
 41
30.0
176
     1
 63
     7
421
 16777215
176
     1
 74
     2
176
     1
 91
        2
176
     1
 64
     7
176
     1
 65
     7
176
     1
 75
     1
176
     1
175
     1
176
     1
 42
40.0
176
     1
 92
       11
176
     1
 66
     7
176
     1
 43
1.0
176
     1
 76
     1
176
     1
 77
     6
176
     1
 78
     2
176
     1
 67
     7
176
     1
 79
     6
176
     1
170
     0
176
     1
171
     0
176
     1
290
     0
176
     1
 93
        1
176
     1
 44
0.0
176
     1
173
     0
176
     1
  0
VISUALSTYLE
  5
37
102
{ACAD_REACTORS
330
2A
102
}
330
2A
100
AcDbVisualStyle
  2

 70
    13
177
     2
291
     1
 71
     2
176
     1
 72
     2
176
     1
 73
     0
176
     1
 90
        0
176
     1
 40
0.6
176
     1
 41
30.0
176
     1
 63
     7
421
 16777215
176
     1
 74
     1
176
     1
 91
        4
176
     1
 64
     7
176
     1
 65
   257
176
     1
 75
     1
176
     1
175
     1
176
     1
 42
1.0
176
     1
 92
       12
176
     1
 66
     7
176
     1
 43
1.0
176
     1
 76
     1
176
     1
 77
     6
176
     1
 78
     2
176
     1
 67
     7
176
     1
 79
     5
176
     1
170
     0
176
     1
171
     0
176
     1
290
     0
176
     1
 93
        1
176
     1
 44
0.0
176
     1
173
     0
176
     1
1001
ACAD
1000
AcDbSavedByObjectVersion
1070
     0
  0
VISUALSTYLE
  5
1FB
102
{ACAD_REACTORS
330
2A
102
}
330
2A
100
AcDbVisualStyle
  2
Wireframe
 70
     5
177
     2
291
     0
 71
     0
176
     1
 72
     2
176
     1
 73
     0
176
     1
 90
        0
176
     1
 40
0.6
176
     1
 41
30.0
176
     1
 63
     7
421
 16777215
176
     1
 74
     1
176
     1
 91
        4
176
     1
 64
     7
176
     1
 65
   257
176
     1
 75
     1
176
     1
175
     1
176
     1
 42
1.0
176
     1
 92
        0
176
     1
 66
   257
176
     1
 43
1.0
176
     1
 76
     1
176
     1
 77
     6
176
     1
 78
     2
176
     1
 67
     7
176
     1
 79
     3
176
     1
170
     0
176
     1
171
     0
176
     1
290
     0
176
     1
 93
        1
176
     1
 44
0.0
176
     1
173
     0
176
     1
  0
VISUALSTYLE
  5
1FF
102
{ACAD_REACTORS
330
2A
102
}
330
2A
100
AcDbVisualStyle
  2
X-Ray
 70
    25
177
     2
291
     0
 71
     2
176
     1
 72
     2
176
     1
 73
     1
176
     1
 90
        1
176
     1
 40
0.5
176
     1
 41
30.0
176
     1
 63
     7
421
 16777215
176
     1
 74
     1
176
     1
 91
        0
176
     1
 64
     7
176
     1
 65
   257
176
     1
 75
     1
176
     1
175
     1
176
     1
 42
1.0
176
     1
 92
        8
176
     1
 66
     7
176
     1
 43
1.0
176
     1
 76
     1
176
     1
 77
     6
176
     1
 78
     2
176
     1
 67
     7
176
     1
 79
     3
176
     1
170
     0
176
     1
171
     0
176
     1
290
     0
176
     1
 93
       13
176
     1
 44
0.0
176
     1
173
     0
176
     1
  0
DICTIONARYVAR
  5
575
102
{ACAD_REACTORS
330
571
102
}
330
571
100
DictionaryVariables
280
     0
  1
1:1
  0
DICTIONARYVAR
  5
573
102
{ACAD_REACTORS
330
571
102
}
330
571
100
DictionaryVariables
280
     0
  1
STANDARD
  0
DICTIONARYVAR
  5
572
102
{ACAD_REACTORS
330
571
102
}
330
571
100
DictionaryVariables
280
     0
  1
STANDARD
  0
DICTIONARYVAR
  5
577
102
{ACAD_REACTORS
330
571
102
}
330
571
100
DictionaryVariables
280
     0
  1
1
  0
DICTIONARYVAR
  5
578
102
{ACAD_REACTORS
330
571
102
}
330
571
100
DictionaryVariables
280
     0
  1
15
  0
DICTIONARYVAR
  5
576
102
{ACAD_REACTORS
330
571
102
}
330
571
100
DictionaryVariables
280
     0
  1
0
  0
DICTIONARYVAR
  5
574
102
{ACAD_REACTORS
330
571
102
}
330
571
100
DictionaryVariables
280
     0
  1
0
  0
DICTIONARY
  5
24E
102
{ACAD_REACTORS
330
247
102
}
330
247
100
AcDbDictionary
281
     1
  0
DICTIONARY
  5
1F3
330
3D
100
AcDbDictionary
280
     1
281
     1
  3
ACAD_XREC_ROUNDTRIP
360
1F4
  0
DICTIONARY
  5
1F1
330
3C
100
AcDbDictionary
280
     1
281
     1
  3
ACAD_XREC_ROUNDTRIP
360
1F2
  0
DICTIONARY
  5
1F5
330
3E
100
AcDbDictionary
280
     1
281
     1
  3
ACAD_XREC_ROUNDTRIP
360
1F6
  0
DICTIONARY
  5
579
330
206
100
AcDbDictionary
280
     1
281
     1
  3
ACAD_ROUNDTRIP_2008_TABLESTYLE_CELLSTYLEMAP
360
57A
  0
XRECORD
  5
1F4
102
{ACAD_REACTORS
330
1F3
102
}
330
1F3
100
AcDbXrecord
280
     1
102
MATERIAL
148
0.0
149
0.0
149
0.0
 93
        0
 94
      127
282
     0
 72
     1
 77
     1
171
     1
175
     1
179
     1
273
     0
  0
XRECORD
  5
1F2
102
{ACAD_REACTORS
330
1F1
102
}
330
1F1
100
AcDbXrecord
280
     1
102
MATERIAL
148
0.0
149
0.0
149
0.0
 93
        0
 94
      127
282
     0
 72
     1
 77
     1
171
     1
175
     1
179
     1
273
     0
  0
XRECORD
  5
1F6
102
{ACAD_REACTORS
330
1F5
102
}
330
1F5
100
AcDbXrecord
280
     1
102
MATERIAL
148
0.0
149
0.0
149
0.0
 93
        0
 94
      127
282
     0
 72
     1
 77
     1
171
     1
175
     1
179
     1
273
     0
  0
CELLSTYLEMAP
  5
57A
102
{ACAD_REACTORS
330
579
102
}
330
579
100
AcDbCellStyleMap
 90
        3
300
CELLSTYLE
  1
TABLEFORMAT_BEGIN
 90
        5
170
     1
 91
        0
 92
    32768
 62
   257
 93
        1
300
CONTENTFORMAT
  1
CONTENTFORMAT_BEGIN
 90
        0
 91
        0
 92
      512
 93
        0
300

 40
0.0
140
1.0
 94
        5
 62
     0
340
11
144
6.0
309
CONTENTFORMAT_END
171
     1
301
MARGIN
  1
CELLMARGIN_BEGIN
 40
1.5
 40
1.5
 40
1.5
 40
1.5
 40
4.5
 40
4.5
309
CELLMARGIN_END
 94
        6
 95
        1
302
GRIDFORMAT
  1
GRIDFORMAT_BEGIN
 90
        0
 91
        1
 62
     0
 92
       -2
340
0
 93
        0
 40
1.125
309
GRIDFORMAT_END
 95
        2
302
GRIDFORMAT
  1
GRIDFORMAT_BEGIN
 90
        0
 91
        1
 62
     0
 92
       -2
340
0
 93
        0
 40
1.125
309
GRIDFORMAT_END
 95
        4
302
GRIDFORMAT
  1
GRIDFORMAT_BEGIN
 90
        0
 91
        1
 62
     0
 92
       -2
340
0
 93
        0
 40
1.125
309
GRIDFORMAT_END
 95
        8
302
GRIDFORMAT
  1
GRIDFORMAT_BEGIN
 90
        0
 91
        1
 62
     0
 92
       -2
340
0
 93
        0
 40
1.125
309
GRIDFORMAT_END
 95
       16
302
GRIDFORMAT
  1
GRIDFORMAT_BEGIN
 90
        0
 91
        1
 62
     0
 92
       -2
340
0
 93
        0
 40
1.125
309
GRIDFORMAT_END
 95
       32
302
GRIDFORMAT
  1
GRIDFORMAT_BEGIN
 90
        0
 91
        1
 62
     0
 92
       -2
340
0
 93
        0
 40
1.125
309
GRIDFORMAT_END
309
TABLEFORMAT_END
  1
CELLSTYLE_BEGIN
 90
        1
 91
        1
300
_TITLE
309
CELLSTYLE_END
300
CELLSTYLE
  1
TABLEFORMAT_BEGIN
 90
        5
170
     1
 91
        0
 92
        0
 62
   257
 93
        1
300
CONTENTFORMAT
  1
CONTENTFORMAT_BEGIN
 90
        0
 91
        0
 92
      512
 93
        0
300

 40
0.0
140
1.0
 94
        5
 62
     0
340
11
144
4.5
309
CONTENTFORMAT_END
171
     1
301
MARGIN
  1
CELLMARGIN_BEGIN
 40
1.5
 40
1.5
 40
1.5
 40
1.5
 40
4.5
 40
4.5
309
CELLMARGIN_END
 94
        6
 95
        1
302
GRIDFORMAT
  1
GRIDFORMAT_BEGIN
 90
        0
 91
        1
 62
     0
 92
       -2
340
0
 93
        0
 40
1.125
309
GRIDFORMAT_END
 95
        2
302
GRIDFORMAT
  1
GRIDFORMAT_BEGIN
 90
        0
 91
        1
 62
     0
 92
       -2
340
0
 93
        0
 40
1.125
309
GRIDFORMAT_END
 95
        4
302
GRIDFORMAT
  1
GRIDFORMAT_BEGIN
 90
        0
 91
        1
 62
     0
 92
       -2
340
0
 93
        0
 40
1.125
309
GRIDFORMAT_END
 95
        8
302
GRIDFORMAT
  1
GRIDFORMAT_BEGIN
 90
        0
 91
        1
 62
     0
 92
       -2
340
0
 93
        0
 40
1.125
309
GRIDFORMAT_END
 95
       16
302
GRIDFORMAT
  1
GRIDFORMAT_BEGIN
 90
        0
 91
        1
 62
     0
 92
       -2
340
0
 93
        0
 40
1.125
309
GRIDFORMAT_END
 95
       32
302
GRIDFORMAT
  1
GRIDFORMAT_BEGIN
 90
        0
 91
        1
 62
     0
 92
       -2
340
0
 93
        0
 40
1.125
309
GRIDFORMAT_END
309
TABLEFORMAT_END
  1
CELLSTYLE_BEGIN
 90
        2
 91
        1
300
_HEADER
309
CELLSTYLE_END
300
CELLSTYLE
  1
TABLEFORMAT_BEGIN
 90
        5
170
     1
 91
        0
 92
        0
 62
   257
 93
        1
300
CONTENTFORMAT
  1
CONTENTFORMAT_BEGIN
 90
        0
 91
        0
 92
      512
 93
        0
300

 40
0.0
140
1.0
 94
        2
 62
     0
340
11
144
4.5
309
CONTENTFORMAT_END
171
     1
301
MARGIN
  1
CELLMARGIN_BEGIN
 40
1.5
 40
1.5
 40
1.5
 40
1.5
 40
4.5
 40
4.5
309
CELLMARGIN_END
 94
        6
 95
        1
302
GRIDFORMAT
  1
GRIDFORMAT_BEGIN
 90
        0
 91
        1
 62
     0
 92
       -2
340
0
 93
        0
 40
1.125
309
GRIDFORMAT_END
 95
        2
302
GRIDFORMAT
  1
GRIDFORMAT_BEGIN
 90
        0
 91
        1
 62
     0
 92
       -2
340
0
 93
        0
 40
1.125
309
GRIDFORMAT_END
 95
        4
302
GRIDFORMAT
  1
GRIDFORMAT_BEGIN
 90
        0
 91
        1
 62
     0
 92
       -2
340
0
 93
        0
 40
1.125
309
GRIDFORMAT_END
 95
        8
302
GRIDFORMAT
  1
GRIDFORMAT_BEGIN
 90
        0
 91
        1
 62
     0
 92
       -2
340
0
 93
        0
 40
1.125
309
GRIDFORMAT_END
 95
       16
302
GRIDFORMAT
  1
GRIDFORMAT_BEGIN
 90
        0
 91
        1
 62
     0
 92
       -2
340
0
 93
        0
 40
1.125
309
GRIDFORMAT_END
 95
       32
302
GRIDFORMAT
  1
GRIDFORMAT_BEGIN
 90
        0
 91
        1
 62
     0
 92
       -2
340
0
 93
        0
 40
1.125
309
GRIDFORMAT_END
309
TABLEFORMAT_END
  1
CELLSTYLE_BEGIN
 90
        3
 91
        2
300
_DATA
309
CELLSTYLE_END
  0
ENDSEC
  0
EOF
