  0
SECTION
  2
HEADER
  9
$ACADVER
  1
AC1009
  9
$INSBASE
 10
0.0
 20
0.0
 30
0.0
  9
$EXTMIN
 10
0.237099
 20
0.237999
 30
0.0
  9
$EXTMAX
 10
392.237099
 20
262.737999
 30
0.0
  9
$LIMMIN
 10
0.0
 20
0.0
  9
$LIMMAX
 10
12.0
 20
9.0
  9
$ORTHOMODE
 70
     1
  9
$REGENMODE
 70
     1
  9
$FILLMODE
 70
     1
  9
$QTEXTMODE
 70
     0
  9
$MIRRTEXT
 70
     1
  9
$DRAGMODE
 70
     2
  9
$LTSCALE
 40
5.0
  9
$OSMODE
 70
     0
  9
$ATTMODE
 70
     1
  9
$TEXTSIZE
 40
2.0
  9
$TRACEWID
 40
0.05
  9
$TEXTSTYLE
  7
ROMANS
  9
$CLAYER
  8
0
  9
$CELTYPE
  6
CONTINUOUS
  9
$CECOLOR
 62
   256
  9
$DIMSCALE
 40
1.0
  9
$DIMASZ
 40
0.18
  9
$DIMEXO
 40
0.0625
  9
$DIMDLI
 40
0.38
  9
$DIMRND
 40
0.0
  9
$DIMDLE
 40
0.0
  9
$DIMEXE
 40
0.18
  9
$DIMTP
 40
0.0
  9
$DIMTM
 40
0.0
  9
$DIMTXT
 40
0.18
  9
$DIMCEN
 40
0.09
  9
$DIMTSZ
 40
0.0
  9
$DIMTOL
 70
     0
  9
$DIMLIM
 70
     0
  9
$DIMTIH
 70
     1
  9
$DIMTOH
 70
     1
  9
$DIMSE1
 70
     0
  9
$DIMSE2
 70
     0
  9
$DIMTAD
 70
     0
  9
$DIMZIN
 70
     0
  9
$DIMBLK
  1

  9
$DIMASO
 70
     1
  9
$DIMSHO
 70
     1
  9
$DIMPOST
  1

  9
$DIMAPOST
  1

  9
$DIMALT
 70
     0
  9
$DIMALTD
 70
     2
  9
$DIMALTF
 40
25.4
  9
$DIMLFAC
 40
1.0
  9
$DIMTOFL
 70
     0
  9
$DIMTVP
 40
0.0
  9
$DIMTIX
 70
     0
  9
$DIMSOXD
 70
     0
  9
$DIMSAH
 70
     0
  9
$DIMBLK1
  1

  9
$DIMBLK2
  1

  9
$DIMSTYLE
  2
*UNNAMED
  9
$DIMCLRD
 70
     0
  9
$DIMCLRE
 70
     0
  9
$DIMCLRT
 70
     0
  9
$DIMTFAC
 40
1.0
  9
$DIMGAP
 40
0.09
  9
$LUNITS
 70
     2
  9
$LUPREC
 70
     4
  9
$SKETCHINC
 40
0.1
  9
$FILLETRAD
 40
0.0
  9
$AUNITS
 70
     0
  9
$AUPREC
 70
     0
  9
$MENU
  1
acad
  9
$ELEVATION
 40
0.0
  9
$PELEVATION
 40
0.0
  9
$THICKNESS
 40
0.0
  9
$LIMCHECK
 70
     0
  9
$BLIPMODE
 70
     1
  9
$CHAMFERA
 40
0.0
  9
$CHAMFERB
 40
0.0
  9
$SKPOLY
 70
     0
  9
$TDCREATE
 40
2448859.540134953
  9
$TDUPDATE
 40
2449114.523218056
  9
$TDINDWG
 40
0.0139736111
  9
$TDUSRTIMER
 40
0.0139736111
  9
$USRTIMER
 70
     1
  9
$ANGBASE
 50
0.0
  9
$ANGDIR
 70
     0
  9
$PDMODE
 70
     0
  9
$PDSIZE
 40
0.0
  9
$PLINEWID
 40
0.0
  9
$COORDS
 70
     2
  9
$SPLFRAME
 70
     0
  9
$SPLINETYPE
 70
     6
  9
$SPLINESEGS
 70
     8
  9
$ATTDIA
 70
     0
  9
$ATTREQ
 70
     1
  9
$HANDLING
 70
     0
  9
$HANDSEED
  5
0
  9
$SURFTAB1
 70
   250
  9
$SURFTAB2
 70
   250
  9
$SURFTYPE
 70
     6
  9
$SURFU
 70
     6
  9
$SURFV
 70
     6
  9
$UCSNAME
  2

  9
$UCSORG
 10
0.0
 20
0.0
 30
0.0
  9
$UCSXDIR
 10
1.0
 20
0.0
 30
0.0
  9
$UCSYDIR
 10
0.0
 20
1.0
 30
0.0
  9
$PUCSNAME
  2

  9
$PUCSORG
 10
0.0
 20
0.0
 30
0.0
  9
$PUCSXDIR
 10
1.0
 20
0.0
 30
0.0
  9
$PUCSYDIR
 10
0.0
 20
1.0
 30
0.0
  9
$USERI1
 70
     0
  9
$USERI2
 70
     0
  9
$USERI3
 70
     0
  9
$USERI4
 70
     0
  9
$USERI5
 70
     0
  9
$USERR1
 40
0.0
  9
$USERR2
 40
0.0
  9
$USERR3
 40
0.0
  9
$USERR4
 40
0.0
  9
$USERR5
 40
0.0
  9
$WORLDVIEW
 70
     1
  9
$SHADEDGE
 70
     3
  9
$SHADEDIF
 70
    70
  9
$TILEMODE
 70
     1
  9
$MAXACTVP
 70
    16
  9
$PINSBASE
 10
0.0
 20
0.0
 30
0.0
  9
$PLIMCHECK
 70
     0
  9
$PEXTMIN
 10
1.000000E+20
 20
1.000000E+20
 30
1.000000E+20
  9
$PEXTMAX
 10
-1.000000E+20
 20
-1.000000E+20
 30
-1.000000E+20
  9
$PLIMMIN
 10
0.0
 20
0.0
  9
$PLIMMAX
 10
12.0
 20
9.0
  9
$UNITMODE
 70
     0
  9
$VISRETAIN
 70
     0
  9
$PLINEGEN
 70
     0
  9
$PSLTSCALE
 70
     0
  9
$TREEDEPTH
 70
  3020
  9
$DWGCODEPAGE
  3
undefined
  0
ENDSEC
  0
SECTION
  2
TABLES
  0
TABLE
  2
VPORT
 70
     2
  0
VPORT
  2
*ACTIVE
 70
     0
 10
0.0
 20
0.0
 11
1.0
 21
1.0
 12
222.522843
 22
142.040485
 13
0.0
 23
0.0
 14
2.5
 24
2.5
 15
0.0
 25
0.0
 16
0.0
 26
0.0
 36
1.0
 17
0.0
 27
0.0
 37
0.0
 40
284.080971
 41
1.566616
 42
50.0
 43
0.0
 44
0.0
 50
0.0
 51
0.0
 71
     0
 72
   100
 73
     1
 74
     1
 75
     1
 76
     0
 77
     0
 78
     0
  0
ENDTAB
  0
TABLE
  2
LTYPE
 70
     7
  0
LTYPE
  2
CONTINUOUS
 70
    64
  3
Solid line
 72
    65
 73
     0
 40
0.0
  0
LTYPE
  2
DASHED
 70
    64
  3
__ __ __ __ __ __ __ __ __ __ __ __ __ __ __ __
 72
    65
 73
     2
 40
0.75
 49
0.5
 49
-0.25
  0
LTYPE
  2
CENTER
 70
    64
  3
____ _ ____ _ ____ _ ____ _ ____ _ ____ _ ____ 
 72
    65
 73
     4
 40
2.0
 49
1.25
 49
-0.25
 49
0.25
 49
-0.25
  0
LTYPE
  2
HIDDEN
 70
    64
  3
__ __ __ __ __ __ __ __ __ __ __ __ __ __ __ __
 72
    65
 73
     2
 40
0.375
 49
0.25
 49
-0.125
  0
LTYPE
  2
DOT
 70
     0
  3
. . . . . . . . . . . . . . . . . . . . . . . .
 72
    65
 73
     2
 40
0.25
 49
0.0
 49
-0.25
  0
LTYPE
  2
DASHDOT
 70
     0
  3
__ . __ . __ . __ . __ . __ . __ . __ . __ . __
 72
    65
 73
     4
 40
1.0
 49
0.5
 49
-0.25
 49
0.0
 49
-0.25
  0
LTYPE
  2
PHANTOM
 70
     0
  3
______  __  __  ______  __  __  ______  __  __ 
 72
    65
 73
     6
 40
2.5
 49
1.25
 49
-0.25
 49
0.25
 49
-0.25
 49
0.25
 49
-0.25
  0
ENDTAB
  0
TABLE
  2
LAYER
 70
    13
  0
LAYER
  2
0
 70
    64
 62
     7
  6
CONTINUOUS
  0
LAYER
  2
RAAMI
 70
    64
 62
    -4
  6
CONTINUOUS
  0
LAYER
  2
PAKSU
 70
    64
 62
    -3
  6
CONTINUOUS
  0
LAYER
  2
OHUT
 70
    64
 62
    -6
  6
CONTINUOUS
  0
LAYER
  2
SWEDEN
 70
    64
 62
    -7
  6
CONTINUOUS
  0
LAYER
  2
SWEDEN2
 70
    64
 62
    -5
  6
CONTINUOUS
  0
LAYER
  2
BASE
 70
    64
 62
    -7
  6
CONTINUOUS
  0
LAYER
  2
21
 70
    64
 62
    -2
  6
CONTINUOUS
  0
LAYER
  2
HEL035
 70
    64
 62
    -7
  6
CONTINUOUS
  0
LAYER
  2
MUO
 70
    64
 62
    -7
  6
CONTINUOUS
  0
LAYER
  2
1
 70
    64
 62
    -2
  6
CONTINUOUS
  0
LAYER
  2
BASE1
 70
    64
 62
    -1
  6
CONTINUOUS
  0
LAYER
  2
TEKS
 70
    64
 62
    -5
  6
CONTINUOUS
  0
ENDTAB
  0
TABLE
  2
STYLE
 70
     6
  0
STYLE
  2
STANDARD
 70
    64
 40
0.0
 41
1.0
 50
0.0
 71
     0
 42
2.5
  3
txt
  4

  0
STYLE
  2
ROMANS
 70
    64
 40
0.0
 41
1.0
 50
0.0
 71
     0
 42
2.0
  3
romans
  4

  0
STYLE
  2
GREEKC
 70
     0
 40
0.0
 41
1.0
 50
0.0
 71
     0
 42
1.5
  3
GREEKC
  4

  0
STYLE
  2
GREEKS
 70
    64
 40
0.0
 41
1.0
 50
0.0
 71
     0
 42
2.0
  3
TXT
  4

  0
STYLE
  2
MONOTXT
 70
     0
 40
0.0
 41
1.0
 50
0.0
 71
     0
 42
2.0
  3
monotxt
  4

  0
STYLE
  2
ROMANT
 70
     0
 40
0.0
 41
1.0
 50
0.0
 71
     0
 42
2.5
  3
romant
  4

  0
ENDTAB
  0
TABLE
  2
VIEW
 70
     0
  0
ENDTAB
  0
TABLE
  2
UCS
 70
     0
  0
ENDTAB
  0
TABLE
  2
APPID
 70
     1
  0
APPID
  2
ACAD
 70
    64
  0
ENDTAB
  0
TABLE
  2
DIMSTYLE
 70
     0
  0
ENDTAB
  0
ENDSEC
  0
SECTION
  2
BLOCKS
  0
BLOCK
  8
0
  2
1
 70
    64
 10
0.0
 20
0.0
 30
0.0
  3
1
  0
ENDBLK
  8
0
  0
BLOCK
  8
0
  2
BLC16
 70
     0
 10
0.0
 20
0.0
 30
0.0
  3
BLC16
  0
LINE
  8
0
  6
CONTINUOUS
 10
0.007689
 20
38.054928
 30
0.0
 11
19.983683
 21
38.054928
 31
0.0
  0
LINE
  8
0
  6
CONTINUOUS
 10
19.983683
 20
38.054928
 30
0.0
 11
19.983683
 21
-0.003751
 31
0.0
  0
LINE
  8
0
  6
CONTINUOUS
 10
19.983683
 20
-0.003751
 30
0.0
 11
0.007689
 21
-0.003751
 31
0.0
  0
LINE
  8
0
  6
CONTINUOUS
 10
0.007689
 20
-0.003751
 30
0.0
 11
0.007689
 21
38.054928
 31
0.0
  0
LINE
  8
0
  6
CONTINUOUS
 10
14.152643
 20
36.919738
 30
0.0
 11
14.152643
 21
33.528469
 31
0.0
  0
LINE
  8
0
  6
CONTINUOUS
 10
14.152643
 20
33.528469
 30
0.0
 11
11.560435
 21
33.528469
 31
0.0
  0
LINE
  8
0
  6
CONTINUOUS
 10
11.560435
 20
33.528469
 30
0.0
 11
11.560435
 21
30.778433
 31
0.0
  0
LINE
  8
0
  6
CONTINUOUS
 10
11.560435
 20
30.778433
 30
0.0
 11
14.152643
 21
30.778433
 31
0.0
  0
LINE
  8
0
  6
CONTINUOUS
 10
14.152643
 20
30.778433
 30
0.0
 11
14.152643
 21
27.387164
 31
0.0
  0
TEXT
  8
0
  6
CONTINUOUS
 10
6.558569
 20
30.805266
 30
0.0
 40
2.5
  1
2
 11
6.558569
 21
29.971932
 31
0.0
 73
     1
  0
TEXT
  8
0
  6
CONTINUOUS
 10
6.553289
 20
23.854078
 30
0.0
 40
2.5
  1
2 I
 11
6.553289
 21
23.020744
 31
0.0
 73
     1
  0
LINE
  8
0
  6
CONTINUOUS
 10
12.942534
 20
26.359129
 30
0.0
 11
15.288299
 21
25.023775
 31
0.0
  0
LINE
  8
0
  6
CONTINUOUS
 10
15.288299
 20
25.023775
 30
0.0
 11
12.942534
 21
23.833856
 31
0.0
  0
LINE
  8
0
  6
CONTINUOUS
 10
14.169823
 20
26.359129
 30
0.0
 11
16.515589
 21
25.023775
 31
0.0
  0
LINE
  8
0
  6
CONTINUOUS
 10
16.515589
 20
25.023775
 30
0.0
 11
14.169823
 21
23.833856
 31
0.0
  0
TEXT
  8
0
  6
CONTINUOUS
 10
11.566446
 20
19.235679
 30
0.0
 40
2.5
  1
I
 11
11.566446
 21
18.402346
 31
0.0
 73
     1
  0
TEXT
  8
0
  6
CONTINUOUS
 10
13.018181
 20
18.902346
 30
0.0
 40
1.5
  1
2
 11
13.018181
 21
18.402346
 31
0.0
 73
     1
  0
LINE
  8
0
  6
CONTINUOUS
 10
10.65733
 20
12.773825
 30
0.0
 11
13.003095
 21
13.963744
 31
0.0
  0
LINE
  8
0
  6
CONTINUOUS
 10
13.003095
 20
11.438471
 30
0.0
 11
10.65733
 21
12.773825
 31
0.0
  0
LINE
  8
0
  6
CONTINUOUS
 10
6.557002
 20
16.714658
 30
0.0
 11
15.281743
 21
16.714658
 31
0.0
  0
LINE
  8
0
  6
CONTINUOUS
 10
6.557002
 20
17.523984
 30
0.0
 11
6.557002
 21
15.908791
 31
0.0
  0
LINE
  8
0
  6
CONTINUOUS
 10
15.286518
 20
17.523984
 30
0.0
 11
15.286518
 21
15.908791
 31
0.0
  0
ARC
  8
0
  6
CONTINUOUS
 10
12.684846
 20
18.508045
 30
0.0
 40
2.922744
 50
193.105513
 51
283.105513
  0
TEXT
  8
0
  6
CONTINUOUS
 10
6.557002
 20
11.567974
 30
0.0
 40
2.5
  1
2I
 11
6.557002
 21
10.734641
 31
0.0
 73
     1
  0
LINE
  8
0
  6
CONTINUOUS
 10
6.557002
 20
9.441103
 30
0.0
 11
15.281743
 21
9.441103
 31
0.0
  0
LINE
  8
0
  6
CONTINUOUS
 10
15.286518
 20
10.250429
 30
0.0
 11
15.286518
 21
8.635236
 31
0.0
  0
LINE
  8
0
  6
CONTINUOUS
 10
6.557002
 20
10.250429
 30
0.0
 11
6.557002
 21
8.635236
 31
0.0
  0
TEXT
  8
0
  6
CONTINUOUS
 10
6.557002
 20
4.778631
 30
0.0
 40
2.5
  1
I
 11
6.557002
 21
3.945298
 31
0.0
 73
     1
  0
LINE
  8
0
  6
CONTINUOUS
 10
9.509029
 20
6.822462
 30
0.0
 11
9.509029
 21
5.477736
 31
0.0
  0
LINE
  8
0
  6
CONTINUOUS
 10
8.615065
 20
5.477736
 30
0.0
 11
9.52622
 21
5.477736
 31
0.0
  0
LINE
  8
0
  6
CONTINUOUS
 10
9.509029
 20
5.477736
 30
0.0
 11
10.402992
 21
5.477736
 31
0.0
  0
LINE
  8
0
  6
CONTINUOUS
 10
8.901592
 20
5.082328
 30
0.0
 11
9.509029
 21
5.082328
 31
0.0
  0
LINE
  8
0
  6
CONTINUOUS
 10
9.509029
 20
5.082328
 30
0.0
 11
10.150849
 21
5.082328
 31
0.0
  0
LINE
  8
0
  6
CONTINUOUS
 10
9.981861
 20
4.719969
 30
0.0
 11
9.072041
 21
4.719969
 31
0.0
  0
LINE
  8
0
  6
CONTINUOUS
 10
15.286518
 20
2.797924
 30
0.0
 11
15.286518
 21
1.182731
 31
0.0
  0
LINE
  8
0
  6
CONTINUOUS
 10
6.557002
 20
1.988598
 30
0.0
 11
15.281743
 21
1.988598
 31
0.0
  0
LINE
  8
0
  6
CONTINUOUS
 10
6.557002
 20
2.797924
 30
0.0
 11
6.557002
 21
1.182731
 31
0.0
  0
ENDBLK
  8
0
  0
BLOCK
  8
0
  2
BLC27
 70
    64
 10
0.0
 20
0.0
 30
0.0
  3
BLC27
  0
INSERT
  8
SWEDEN2
  6
CENTER
  2
BLC26
 10
0.08063
 20
0.037985
 30
0.0
 41
1.006225
 42
1.006225
 43
1.006225
  0
ENDBLK
  8
0
  0
BLOCK
  8
0
  2
BLC26
 70
    64
 10
0.0
 20
0.0
 30
0.0
  3
BLC26
  0
ARC
  8
0
  6
CONTINUOUS
 10
-0.180576
 20
1.17922
 30
0.0
 40
1.196859
 50
90.0
 51
265.706237
  0
LINE
  8
0
  6
CONTINUOUS
 10
-0.186638
 20
-0.01092
 30
0.0
 11
0.458942
 21
-0.01092
 31
0.0
  0
LINE
  8
0
  6
CONTINUOUS
 10
-0.186638
 20
2.375671
 30
0.0
 11
0.45288
 21
2.375671
 31
0.0
  0
LINE
  8
0
  6
CONTINUOUS
 10
-0.185509
 20
-2.404629
 30
0.0
 11
0.460071
 21
-2.404629
 31
0.0
  0
ARC
  8
0
  6
CONTINUOUS
 10
-0.180576
 20
-1.207779
 30
0.0
 40
1.196859
 50
90.0
 51
270.0
  0
LINE
  8
0
  6
CONTINUOUS
 10
0.451525
 20
-2.404586
 30
0.0
 11
1.401805
 21
-2.404586
 31
0.0
  0
LINE
  8
0
  6
CONTINUOUS
 10
0.446785
 20
2.375674
 30
0.0
 11
1.418544
 21
2.375674
 31
0.0
  0
LINE
  8
0
  6
CONTINUOUS
 10
0.456627
 20
-0.010911
 30
0.0
 11
1.422749
 21
-0.010911
 31
0.0
  0
ENDBLK
  8
0
  0
BLOCK
  8
0
  2
BLC22
 70
     0
 10
0.0
 20
0.0
 30
0.0
  3
BLC22
  0
LINE
  8
HEL035
 10
0.0
 20
-0.00155
 30
0.0
 11
0.0
 21
9.99845
 31
0.0
  0
LINE
  8
21
 10
2.5
 20
10.0
 30
0.0
 11
5.0
 21
10.0
 31
0.0
  0
LINE
  8
HEL035
 10
0.0
 20
9.99845
 30
0.0
 11
2.5
 21
9.99845
 31
0.0
  0
LINE
  8
HEL035
 10
-2.5
 20
5.0
 30
0.0
 11
2.5
 21
5.0
 31
0.0
  0
LINE
  8
21
 10
2.5
 20
5.0
 30
0.0
 11
5.0
 21
5.0
 31
0.0
  0
LINE
  8
21
 10
5.0
 20
5.0
 30
0.0
 11
5.0
 21
7.9
 31
0.0
  0
LINE
  8
HEL035
 10
3.88095
 20
6.944425
 30
0.0
 11
4.560313
 21
6.008681
 31
0.0
  0
LINE
  8
21
 10
10.0
 20
10.0
 30
0.0
 11
4.2
 21
6.5
 31
0.0
  0
LINE
  8
HEL035
 10
2.5
 20
-0.00155
 30
0.0
 11
0.0
 21
-0.00155
 31
0.0
  0
LINE
  8
21
 10
2.5
 20
0.0
 30
0.0
 11
5.0
 21
0.0
 31
0.0
  0
ENDBLK
  8
0
  0
BLOCK
  8
0
  2
BLC18
 70
     0
 10
0.0
 20
0.0
 30
0.0
  3
BLC18
  0
LINE
  8
MUO
 10
-0.056268
 20
0.849555
 30
0.0
 11
8.307242
 21
9.215502
 31
0.0
  0
LINE
  8
MUO
 10
0.928025
 20
-0.107047
 30
0.0
 11
9.268386
 21
8.2307
 31
0.0
  0
LINE
  8
MUO
 10
-0.056268
 20
-0.107047
 30
0.0
 11
-0.056268
 21
9.215502
 31
0.0
  0
LINE
  8
MUO
 10
9.268386
 20
-0.107047
 30
0.0
 11
-0.056268
 21
-0.107047
 31
0.0
  0
LINE
  8
MUO
 10
9.268386
 20
9.215502
 30
0.0
 11
9.268386
 21
-0.107047
 31
0.0
  0
LINE
  8
MUO
 10
-0.056268
 20
9.215502
 30
0.0
 11
9.268386
 21
9.215502
 31
0.0
  0
ENDBLK
  8
0
  0
BLOCK
  8
0
  2
BLC29
 70
    64
 10
0.0
 20
0.0
 30
0.0
  3
BLC29
  0
LINE
  8
0
  6
CONTINUOUS
 10
0.004865
 20
1.206889
 30
0.0
 11
2.350631
 21
-0.128465
 31
0.0
  0
LINE
  8
0
  6
CONTINUOUS
 10
2.350631
 20
-0.128465
 30
0.0
 11
0.004865
 21
-1.318384
 31
0.0
  0
ENDBLK
  8
0
  0
BLOCK
  8
0
  2
WKU130
 70
     0
 10
190.0
 20
250.0
 30
0.0
  3
WKU130
  0
ARC
  8
21
 10
191.083333
 20
249.916667
 30
0.0
 40
1.086534
 50
32.471192
 51
175.601295
  0
ARC
  8
21
 10
192.916667
 20
251.083333
 30
0.0
 40
1.086534
 50
212.471192
 51
355.601295
  0
ENDBLK
  8
0
  0
BLOCK
  8
0
  2
BLC15
 70
    64
 10
0.0
 20
0.0
 30
0.0
  3
BLC15
  0
LINE
  8
0
  6
CONTINUOUS
 10
0.142084
 20
3.490022
 30
0.0
 11
0.142084
 21
0.844365
 31
0.0
  0
LINE
  8
0
  6
CONTINUOUS
 10
-0.461611
 20
-0.937188
 30
0.0
 11
0.745779
 21
-0.937188
 31
0.0
  0
LINE
  8
0
  6
CONTINUOUS
 10
-0.894108
 20
-0.049675
 30
0.0
 11
1.169267
 21
-0.049675
 31
0.0
  0
LINE
  8
0
  6
CONTINUOUS
 10
-1.389679
 20
0.844365
 30
0.0
 11
1.673848
 21
0.844365
 31
0.0
  0
ENDBLK
  8
0
  0
BLOCK
  8
0
  2
BLC5
 70
     0
 10
0.0
 20
0.0
 30
0.0
  3
BLC5
  0
TEXT
  8
0
 10
-3.043704
 20
-6.645912
 30
0.0
 40
3.2
  1
PE
  0
LINE
  8
0
 10
-2.946392
 20
1.181176
 30
0.0
 11
2.135458
 21
1.181176
 31
0.0
  0
LINE
  8
0
 10
-0.48656
 20
2.238362
 30
0.0
 11
-0.48656
 21
6.930438
 31
0.0
  0
LINE
  8
0
 10
-1.973271
 20
0.065258
 30
0.0
 11
1.225411
 21
0.065258
 31
0.0
  0
LINE
  8
0
 10
2.685091
 20
2.238362
 30
0.0
 11
1.68494
 21
2.238362
 31
0.0
  0
LINE
  8
0
 10
-3.505035
 20
2.238362
 30
0.0
 11
2.649049
 21
2.238362
 31
0.0
  0
CIRCLE
  8
0
 10
-0.47755
 20
1.422632
 30
0.0
 40
3.804563
  0
ENDBLK
  8
0
  0
BLOCK
  8
0
  2
BLC43
 70
    64
 10
0.0
 20
0.0
 30
0.0
  3
BLC43
  0
TEXT
  8
SWEDEN2
  6
CONTINUOUS
 10
-0.646672
 20
-0.986365
 30
0.0
 40
2.0
  1
+
  0
ENDBLK
  8
0
  0
BLOCK
  8
0
  2
BLC42
 70
    64
 10
0.0
 20
0.0
 30
0.0
  3
BLC42
  0
TEXT
  8
SWEDEN2
  6
CONTINUOUS
 10
-0.655237
 20
-0.99442
 30
0.0
 40
2.0
  1
-
  0
ENDBLK
  8
0
  0
BLOCK
  8
0
  2
BLC25
 70
     0
 10
0.0
 20
0.0
 30
0.0
  3
BLC25
  0
TEXT
  8
0
  6
CONTINUOUS
 10
2.0
 20
30.666667
 30
0.0
 40
2.0
  1
1)
 11
2.0
 21
30.0
 31
0.0
 73
     1
  0
TEXT
  8
0
 10
6.0
 20
2.0
 30
0.0
 40
2.0
  1
7B    27     26
 11
6.0
 21
1.333333
 31
0.0
 73
     1
  0
TEXT
  8
0
 10
6.0
 20
5.333333
 30
0.0
 40
2.0
  1
5B     9      8
 11
6.0
 21
4.666667
 31
0.0
 73
     1
  0
TEXT
  8
0
 10
6.0
 20
8.666667
 30
0.0
 40
2.0
  1
3B     3      2
 11
6.0
 21
8.0
 31
0.0
 73
     1
  0
TEXT
  8
0
 10
32.0
 20
12.666667
 30
0.0
 40
2.0
  1
In=5A
 11
32.0
 21
12.0
 31
0.0
 73
     1
  0
TEXT
  8
0
 10
16.0
 20
12.666667
 30
0.0
 40
2.0
  1
In=1A 
 11
16.0
 21
12.0
 31
0.0
 73
     1
  0
TEXT
  8
0
 10
26.0
 20
18.666667
 30
0.0
 40
2.0
  1
108:
 11
26.0
 21
18.0
 31
0.0
 73
     1
  0
TEXT
  8
0
 10
6.0
 20
18.666667
 30
0.0
 40
2.0
  1
101:       
 11
6.0
 21
18.0
 31
0.0
 73
     1
  0
TEXT
  8
0
 10
6.0
 20
24.666667
 30
0.0
 40
2.0
  1
TERMINALS / UTTAG
 11
6.0
 21
24.0
 31
0.0
 73
     1
  0
LINE
  8
0
 10
0.0
 20
12.0
 30
0.0
 11
44.0
 21
12.0
 31
0.0
  0
LINE
  8
0
 10
28.0
 20
18.0
 30
0.0
 11
28.0
 21
0.0
 31
0.0
  0
LINE
  8
0
 10
14.0
 20
18.0
 30
0.0
 11
44.0
 21
18.0
 31
0.0
  0
LINE
  8
0
 10
14.0
 20
24.0
 30
0.0
 11
14.0
 21
0.0
 31
0.0
  0
LINE
  8
0
 10
0.0
 20
24.0
 30
0.0
 11
44.0
 21
24.0
 31
0.0
  0
LINE
  8
0
 10
44.0
 20
0.0
 30
0.0
 11
44.0
 21
30.0
 31
0.0
  0
LINE
  8
0
 10
0.0
 20
0.0
 30
0.0
 11
44.0
 21
0.0
 31
0.0
  0
LINE
  8
0
 10
0.0
 20
30.0
 30
0.0
 11
0.0
 21
0.0
 31
0.0
  0
LINE
  8
0
 10
44.0
 20
30.0
 30
0.0
 11
0.0
 21
30.0
 31
0.0
  0
ENDBLK
  8
0
  0
BLOCK
  8
0
  2
ABBA3V
 70
    64
 10
0.0
 20
0.0
 30
0.0
  3
ABBA3V
  0
TEXT
  8
RAAMI
  6
DASHED
 10
292.217194
 20
11.813359
 30
0.0
 40
3.0
  1
A3
  7
GREEKS
  0
TEXT
  8
RAAMI
  6
DASHED
 10
351.818577
 20
15.69253
 30
0.0
 40
1.4
  1
LEHTI SHEET
  7
GREEKS
  0
LINE
  8
PAKSU
 10
0.237099
 20
262.737999
 30
0.0
 11
392.237099
 21
262.737999
 31
0.0
  0
LINE
  8
RAAMI
 10
18.237099
 20
0.237999
 30
0.0
 11
0.237099
 21
0.237999
 31
0.0
  0
LINE
  8
PAKSU
 10
209.237099
 20
0.237999
 30
0.0
 11
392.237099
 21
0.237999
 31
0.0
  0
LINE
  8
PAKSU
 10
209.237099
 20
0.237999
 30
0.0
 11
209.237099
 21
35.237999
 31
0.0
  0
LINE
  8
PAKSU
 10
392.237099
 20
0.237999
 30
0.0
 11
392.237099
 21
35.237999
 31
0.0
  0
LINE
  8
OHUT
 10
209.237099
 20
18.237999
 30
0.0
 11
392.237099
 21
18.237999
 31
0.0
  0
LINE
  8
OHUT
 10
209.237099
 20
9.737999
 30
0.0
 11
392.237099
 21
9.737999
 31
0.0
  0
LINE
  8
OHUT
 10
209.237099
 20
26.737999
 30
0.0
 11
307.237099
 21
26.737999
 31
0.0
  0
LINE
  8
PAKSU
 10
209.237099
 20
35.237999
 30
0.0
 11
392.237099
 21
35.237999
 31
0.0
  0
TEXT
  8
RAAMI
 10
210.237099
 20
23.971333
 30
0.0
 40
1.4
  1
TARKASTI  CHECKED
  7
ROMANS
  0
TEXT
  8
RAAMI
 10
209.979934
 20
15.704666
 30
0.0
 40
1.4
  1
HYVÄKSYI  APPROVED
  7
ROMANS
  0
LINE
  8
OHUT
 10
307.237099
 20
0.237999
 30
0.0
 11
307.237099
 21
35.237999
 31
0.0
  0
TEXT
  8
RAAMI
 10
259.237099
 20
32.737999
 30
0.0
 40
1.4
  1
LIITTYY  CONCERNING
  7
ROMANS
  0
TEXT
  8
RAAMI
 10
259.237099
 20
23.737999
 30
0.0
 40
1.4
  1
TOLERANSSIT  TOLERANCES
  7
ROMANS
  0
TEXT
  8
RAAMI
 10
259.237099
 20
15.737999
 30
0.0
 40
1.4
  1
SUHDE  SCALE
  7
ROMANS
  0
TEXT
  8
RAAMI
 10
309.237099
 20
32.737999
 30
0.0
 40
1.4
  1
NIMITYS  NAME
  7
ROMANS
  0
TEXT
  8
RAAMI
 10
309.237099
 20
15.737999
 30
0.0
 40
1.4
  1
KOODI  CODE
  7
ROMANS
  0
TEXT
  8
RAAMI
 10
309.237099
 20
7.237999
 30
0.0
 40
1.4
  1
PIIRUSTUS NO  DRAWING NR
  7
ROMANS
  0
LINE
  8
OHUT
 10
349.737099
 20
9.737999
 30
0.0
 11
349.737099
 21
18.237999
 31
0.0
  0
TEXT
  8
RAAMI
 10
371.237099
 20
7.237999
 30
0.0
 40
1.4
  1
PAINOS  REVISION
  7
ROMANS
  0
LINE
  8
OHUT
 10
369.737099
 20
9.737999
 30
0.0
 11
369.737099
 21
0.237999
 31
0.0
  0
LINE
  8
RAAMI
 10
210.187099
 20
1.737999
 30
0.0
 11
211.937099
 21
1.737999
 31
0.0
  0
LINE
  8
RAAMI
 10
215.437099
 20
1.737999
 30
0.0
 11
217.187099
 21
1.737999
 31
0.0
  0
LINE
  8
RAAMI
 10
212.637099
 20
8.737999
 30
0.0
 11
211.459571
 21
5.373634
 31
0.0
  0
LINE
  8
RAAMI
 10
212.425886
 20
3.137999
 30
0.0
 11
213.547099
 21
3.137999
 31
0.0
  0
LINE
  8
RAAMI
 10
212.425889
 20
3.134542
 30
0.0
 11
211.937099
 21
1.737999
 31
0.0
  0
LINE
  8
RAAMI
 10
214.737099
 20
8.737999
 30
0.0
 11
215.913452
 21
5.376991
 31
0.0
  0
LINE
  8
RAAMI
 10
214.948197
 20
3.134863
 30
0.0
 11
215.437099
 21
1.737999
 31
0.0
  0
LINE
  8
RAAMI
 10
214.737099
 20
8.737999
 30
0.0
 11
213.827099
 21
8.737999
 31
0.0
  0
LINE
  8
RAAMI
 10
213.547099
 20
8.737999
 30
0.0
 11
213.547099
 21
5.377999
 31
0.0
  0
LINE
  8
RAAMI
 10
213.827099
 20
8.737999
 30
0.0
 11
213.827099
 21
5.377999
 31
0.0
  0
LINE
  8
RAAMI
 10
213.827099
 20
3.137999
 30
0.0
 11
214.946992
 21
3.137999
 31
0.0
  0
LINE
  8
RAAMI
 10
213.547099
 20
8.737999
 30
0.0
 11
212.637099
 21
8.737999
 31
0.0
  0
LINE
  8
RAAMI
 10
211.45904
 20
5.377999
 30
0.0
 11
213.547099
 21
5.377999
 31
0.0
  0
LINE
  8
RAAMI
 10
211.360082
 20
5.097999
 30
0.0
 11
213.547099
 21
5.097999
 31
0.0
  0
LINE
  8
RAAMI
 10
216.011591
 20
5.096594
 30
0.0
 11
217.187099
 21
1.737999
 31
0.0
  0
LINE
  8
RAAMI
 10
213.827099
 20
5.377999
 30
0.0
 11
215.912213
 21
5.377999
 31
0.0
  0
LINE
  8
RAAMI
 10
213.827099
 20
5.097999
 30
0.0
 11
216.010356
 21
5.097999
 31
0.0
  0
LINE
  8
RAAMI
 10
213.827099
 20
5.097999
 30
0.0
 11
213.827099
 21
3.137999
 31
0.0
  0
LINE
  8
RAAMI
 10
213.547099
 20
5.097999
 30
0.0
 11
213.547099
 21
3.137999
 31
0.0
  0
LINE
  8
RAAMI
 10
211.356988
 20
5.080538
 30
0.0
 11
210.187099
 21
1.737999
 31
0.0
  0
INSERT
  8
RAAMI
  2
*X22
 10
210.187099
 20
1.737999
 30
0.0
 41
0.7
 42
0.7
 43
0.7
  0
INSERT
  8
RAAMI
  2
*X23
 10
210.187099
 20
1.737999
 30
0.0
 41
0.7
 42
0.7
 43
0.7
  0
INSERT
  8
RAAMI
  2
*X24
 10
210.187099
 20
1.737999
 30
0.0
 41
0.7
 42
0.7
 43
0.7
  0
INSERT
  8
RAAMI
  2
*X25
 10
210.187099
 20
1.737999
 30
0.0
 41
0.7
 42
0.7
 43
0.7
  0
LINE
  8
RAAMI
 10
217.677099
 20
1.737999
 30
0.0
 11
217.677099
 21
5.097999
 31
0.0
  0
LINE
  8
RAAMI
 10
217.677099
 20
8.737999
 30
0.0
 11
219.637099
 21
8.737999
 31
0.0
  0
LINE
  8
RAAMI
 10
219.637099
 20
8.737999
 30
0.0
 11
219.637099
 21
5.377999
 31
0.0
  0
LINE
  8
RAAMI
 10
219.637099
 20
5.377999
 30
0.0
 11
217.677099
 21
5.377999
 31
0.0
  0
LINE
  8
RAAMI
 10
217.677099
 20
5.097999
 30
0.0
 11
219.637099
 21
5.097999
 31
0.0
  0
LINE
  8
RAAMI
 10
219.637099
 20
5.097999
 30
0.0
 11
219.637099
 21
1.737999
 31
0.0
  0
LINE
  8
RAAMI
 10
219.637099
 20
1.737999
 30
0.0
 11
217.677099
 21
1.737999
 31
0.0
  0
LINE
  8
RAAMI
 10
217.677099
 20
5.377999
 30
0.0
 11
217.677099
 21
8.737999
 31
0.0
  0
ARC
  8
RAAMI
 10
220.477099
 20
7.162999
 30
0.0
 40
1.575
 50
298.455859
 51
90.052437
  0
LINE
  8
RAAMI
 10
219.917099
 20
8.737999
 30
0.0
 11
220.475658
 21
8.737999
 31
0.0
  0
LINE
  8
RAAMI
 10
219.917099
 20
8.737999
 30
0.0
 11
219.917099
 21
5.377999
 31
0.0
  0
LINE
  8
RAAMI
 10
219.917099
 20
5.377999
 30
0.0
 11
221.901542
 21
5.377999
 31
0.0
  0
LINE
  8
RAAMI
 10
222.157099
 20
5.097999
 30
0.0
 11
219.917099
 21
5.097999
 31
0.0
  0
LINE
  8
RAAMI
 10
219.917099
 20
5.097999
 30
0.0
 11
219.917099
 21
1.737999
 31
0.0
  0
ARC
  8
RAAMI
 10
220.477099
 20
3.837999
 30
0.0
 40
2.1
 50
269.937724
 51
37.056553
  0
LINE
  8
RAAMI
 10
219.917099
 20
1.737999
 30
0.0
 11
220.474817
 21
1.738
 31
0.0
  0
ARC
  8
RAAMI
 10
220.477099
 20
3.837999
 30
0.0
 40
2.1
 50
47.28622
 51
68.787999
  0
INSERT
  8
RAAMI
  2
*X26
 10
210.187099
 20
1.737999
 30
0.0
 41
0.7
 42
0.7
 43
0.7
  0
INSERT
  8
RAAMI
  2
*X27
 10
210.187099
 20
1.737999
 30
0.0
 41
0.7
 42
0.7
 43
0.7
  0
INSERT
  8
RAAMI
  2
*X28
 10
210.187099
 20
1.737999
 30
0.0
 41
0.7
 42
0.7
 43
0.7
  0
INSERT
  8
RAAMI
  2
*X29
 10
210.187099
 20
1.737999
 30
0.0
 41
0.7
 42
0.7
 43
0.7
  0
INSERT
  8
RAAMI
  2
*X29
 10
215.647099
 20
1.737999
 30
0.0
 41
0.7
 42
0.7
 43
0.7
  0
INSERT
  8
RAAMI
  2
*X28
 10
215.647099
 20
1.737999
 30
0.0
 41
0.7
 42
0.7
 43
0.7
  0
INSERT
  8
RAAMI
  2
*X27
 10
215.647099
 20
1.737999
 30
0.0
 41
0.7
 42
0.7
 43
0.7
  0
INSERT
  8
RAAMI
  2
*X26
 10
215.647099
 20
1.737999
 30
0.0
 41
0.7
 42
0.7
 43
0.7
  0
ARC
  8
RAAMI
 10
225.937099
 20
3.837999
 30
0.0
 40
2.1
 50
47.28622
 51
68.787999
  0
LINE
  8
RAAMI
 10
225.377099
 20
1.737999
 30
0.0
 11
225.934817
 21
1.738
 31
0.0
  0
ARC
  8
RAAMI
 10
225.937099
 20
3.837999
 30
0.0
 40
2.1
 50
269.937724
 51
37.056553
  0
LINE
  8
RAAMI
 10
225.377099
 20
5.097999
 30
0.0
 11
225.377099
 21
1.737999
 31
0.0
  0
LINE
  8
RAAMI
 10
227.617099
 20
5.097999
 30
0.0
 11
225.377099
 21
5.097999
 31
0.0
  0
LINE
  8
RAAMI
 10
225.377099
 20
5.377999
 30
0.0
 11
227.361542
 21
5.377999
 31
0.0
  0
LINE
  8
RAAMI
 10
225.377099
 20
8.737999
 30
0.0
 11
225.377099
 21
5.377999
 31
0.0
  0
LINE
  8
RAAMI
 10
225.377099
 20
8.737999
 30
0.0
 11
225.935658
 21
8.737999
 31
0.0
  0
ARC
  8
RAAMI
 10
225.937099
 20
7.162999
 30
0.0
 40
1.575
 50
298.455859
 51
90.052437
  0
LINE
  8
RAAMI
 10
223.137099
 20
5.377999
 30
0.0
 11
223.137099
 21
8.737999
 31
0.0
  0
LINE
  8
RAAMI
 10
225.097099
 20
1.737999
 30
0.0
 11
223.137099
 21
1.737999
 31
0.0
  0
LINE
  8
RAAMI
 10
225.097099
 20
5.097999
 30
0.0
 11
225.097099
 21
1.737999
 31
0.0
  0
LINE
  8
RAAMI
 10
223.137099
 20
5.097999
 30
0.0
 11
225.097099
 21
5.097999
 31
0.0
  0
LINE
  8
RAAMI
 10
225.097099
 20
5.377999
 30
0.0
 11
223.137099
 21
5.377999
 31
0.0
  0
LINE
  8
RAAMI
 10
225.097099
 20
8.737999
 30
0.0
 11
225.097099
 21
5.377999
 31
0.0
  0
LINE
  8
RAAMI
 10
223.137099
 20
8.737999
 30
0.0
 11
225.097099
 21
8.737999
 31
0.0
  0
LINE
  8
RAAMI
 10
223.137099
 20
1.737999
 30
0.0
 11
223.137099
 21
5.097999
 31
0.0
  0
TEXT
  8
RAAMI
 10
229.737099
 20
1.737999
 30
0.0
 40
3.0
  1
ABB 
 41
0.8
  7
ROMANS
  0
TEXT
  8
RAAMI
 10
237.737099
 20
1.737999
 30
0.0
 40
3.0
  1
Strömberg
 41
0.8
  7
ROMANS
  0
LINE
  8
OHUT
 10
282.237099
 20
9.737999
 30
0.0
 11
282.237099
 21
18.237999
 31
0.0
  0
TEXT
  8
RAAMI
 10
27.737099
 20
4.737999
 30
0.0
 40
1.4
  1
MUUTOS
  7
ROMANS
  0
TEXT
  8
RAAMI
 10
27.737099
 20
2.471333
 30
0.0
 40
1.4
  1
REVISION
  7
ROMANS
  0
LINE
  8
OHUT
 10
46.737099
 20
9.237999
 30
0.0
 11
209.237099
 21
9.237999
 31
0.0
  0
LINE
  8
OHUT
 10
46.737099
 20
0.237999
 30
0.0
 11
46.737099
 21
9.237999
 31
0.0
  0
LINE
  8
OHUT
 10
40.737099
 20
4.737999
 30
0.0
 11
209.237099
 21
4.737999
 31
0.0
  0
LINE
  8
OHUT
 10
257.237099
 20
9.737999
 30
0.0
 11
257.237099
 21
35.237999
 31
0.0
  0
LINE
  8
OHUT
 10
271.237099
 20
9.737999
 30
0.0
 11
271.237099
 21
0.237999
 31
0.0
  0
TEXT
  8
RAAMI
 10
210.237099
 20
32.237999
 30
0.0
 40
1.4
  1
TEKI  PREPARED
  7
ROMANS
  0
TEXT
  8
RAAMI
 10
273.237099
 20
7.237999
 30
0.0
 40
1.4
  1
VAST.OSASTO RESP.DEPT.
  7
ROMANS
  0
TEXT
  8
RAAMI
 10
257.407006
 20
1.741783
 30
0.0
 40
3.0
  1
Power
 41
0.8
  7
ROMANS
  0
TEXT
  8
RAAMI
 10
42.237099
 20
1.195292
 30
0.0
 40
2.5
  1
B
  7
ROMANS
  0
TEXT
  8
RAAMI
 10
42.237099
 20
5.587508
 30
0.0
 40
2.5
  1
C
  7
ROMANS
  0
LINE
  8
PAKSU
 10
0.237099
 20
0.237999
 30
0.0
 11
392.237099
 21
0.237999
 31
0.0
  0
LINE
  8
PAKSU
 10
392.237099
 20
262.737999
 30
0.0
 11
392.237099
 21
0.237999
 31
0.0
  0
LINE
  8
PAKSU
 10
0.237099
 20
0.237999
 30
0.0
 11
0.237099
 21
262.737999
 31
0.0
  0
ENDBLK
  8
0
  0
BLOCK
  8
0
  2
*X22
 70
    65
 10
0.0
 20
0.0
 30
0.0
  3
*X
  0
LINE
  8
0
 62
     0
 10
2.284499
 20
6.52714
 30
0.0
 11
4.8
 21
9.042641
 31
0.0
  0
LINE
  8
0
 62
     0
 10
2.379686
 20
6.799104
 30
0.0
 11
4.8
 21
9.219417
 31
0.0
  0
LINE
  8
0
 62
     0
 10
2.474874
 20
7.071068
 30
0.0
 11
4.8
 21
9.396194
 31
0.0
  0
LINE
  8
0
 62
     0
 10
2.570061
 20
7.343032
 30
0.0
 11
4.8
 21
9.572971
 31
0.0
  0
LINE
  8
0
 62
     0
 10
2.665249
 20
7.614996
 30
0.0
 11
4.8
 21
9.749747
 31
0.0
  0
LINE
  8
0
 62
     0
 10
2.760436
 20
7.88696
 30
0.0
 11
4.8
 21
9.926524
 31
0.0
  0
LINE
  8
0
 62
     0
 10
2.855624
 20
8.158924
 30
0.0
 11
4.696699
 21
10.0
 31
0.0
  0
LINE
  8
0
 62
     0
 10
2.950811
 20
8.430889
 30
0.0
 11
4.519922
 21
10.0
 31
0.0
  0
LINE
  8
0
 62
     0
 10
3.045998
 20
8.702853
 30
0.0
 11
4.343146
 21
10.0
 31
0.0
  0
LINE
  8
0
 62
     0
 10
3.141186
 20
8.974817
 30
0.0
 11
4.166369
 21
10.0
 31
0.0
  0
LINE
  8
0
 62
     0
 10
3.236373
 20
9.246781
 30
0.0
 11
3.989592
 21
10.0
 31
0.0
  0
LINE
  8
0
 62
     0
 10
3.331561
 20
9.518745
 30
0.0
 11
3.812816
 21
10.0
 31
0.0
  0
LINE
  8
0
 62
     0
 10
3.426748
 20
9.790709
 30
0.0
 11
3.636039
 21
10.0
 31
0.0
  0
LINE
  8
0
 62
     0
 10
2.189311
 20
6.255175
 30
0.0
 11
4.8
 21
8.865864
 31
0.0
  0
LINE
  8
0
 62
     0
 10
2.094124
 20
5.983211
 30
0.0
 11
4.8
 21
8.689087
 31
0.0
  0
LINE
  8
0
 62
     0
 10
1.998936
 20
5.711247
 30
0.0
 11
4.8
 21
8.512311
 31
0.0
  0
LINE
  8
0
 62
     0
 10
1.903749
 20
5.439283
 30
0.0
 11
4.8
 21
8.335534
 31
0.0
  0
LINE
  8
0
 62
     0
 10
1.841243
 20
5.2
 30
0.0
 11
4.8
 21
8.158757
 31
0.0
  0
LINE
  8
0
 62
     0
 10
2.018019
 20
5.2
 30
0.0
 11
4.8
 21
7.981981
 31
0.0
  0
LINE
  8
0
 62
     0
 10
2.194796
 20
5.2
 30
0.0
 11
4.8
 21
7.805204
 31
0.0
  0
LINE
  8
0
 62
     0
 10
2.371573
 20
5.2
 30
0.0
 11
4.8
 21
7.628427
 31
0.0
  0
LINE
  8
0
 62
     0
 10
2.54835
 20
5.2
 30
0.0
 11
4.8
 21
7.45165
 31
0.0
  0
LINE
  8
0
 62
     0
 10
2.725126
 20
5.2
 30
0.0
 11
4.8
 21
7.274874
 31
0.0
  0
LINE
  8
0
 62
     0
 10
2.901903
 20
5.2
 30
0.0
 11
4.8
 21
7.098097
 31
0.0
  0
LINE
  8
0
 62
     0
 10
3.07868
 20
5.2
 30
0.0
 11
4.8
 21
6.92132
 31
0.0
  0
LINE
  8
0
 62
     0
 10
3.255456
 20
5.2
 30
0.0
 11
4.8
 21
6.744544
 31
0.0
  0
LINE
  8
0
 62
     0
 10
3.432233
 20
5.2
 30
0.0
 11
4.8
 21
6.567767
 31
0.0
  0
LINE
  8
0
 62
     0
 10
3.60901
 20
5.2
 30
0.0
 11
4.8
 21
6.39099
 31
0.0
  0
LINE
  8
0
 62
     0
 10
3.785786
 20
5.2
 30
0.0
 11
4.8
 21
6.214214
 31
0.0
  0
LINE
  8
0
 62
     0
 10
3.962563
 20
5.2
 30
0.0
 11
4.8
 21
6.037437
 31
0.0
  0
LINE
  8
0
 62
     0
 10
4.13934
 20
5.2
 30
0.0
 11
4.8
 21
5.86066
 31
0.0
  0
LINE
  8
0
 62
     0
 10
4.316117
 20
5.2
 30
0.0
 11
4.8
 21
5.683883
 31
0.0
  0
LINE
  8
0
 62
     0
 10
4.492893
 20
5.2
 30
0.0
 11
4.8
 21
5.507107
 31
0.0
  0
LINE
  8
0
 62
     0
 10
4.66967
 20
5.2
 30
0.0
 11
4.8
 21
5.33033
 31
0.0
  0
ENDBLK
  8
0
  0
BLOCK
  8
0
  2
*X23
 70
    65
 10
0.0
 20
0.0
 30
0.0
  3
*X
  0
LINE
  8
0
 62
     0
 10
5.2
 20
6.083883
 30
0.0
 11
7.178252
 21
8.062136
 31
0.0
  0
LINE
  8
0
 62
     0
 10
5.2
 20
6.26066
 30
0.0
 11
7.132421
 21
8.193082
 31
0.0
  0
LINE
  8
0
 62
     0
 10
5.2
 20
6.437437
 30
0.0
 11
7.08659
 21
8.324027
 31
0.0
  0
LINE
  8
0
 62
     0
 10
5.2
 20
6.614214
 30
0.0
 11
7.040759
 21
8.454973
 31
0.0
  0
LINE
  8
0
 62
     0
 10
5.2
 20
6.79099
 30
0.0
 11
6.994928
 21
8.585919
 31
0.0
  0
LINE
  8
0
 62
     0
 10
5.2
 20
6.967767
 30
0.0
 11
6.949097
 21
8.716864
 31
0.0
  0
LINE
  8
0
 62
     0
 10
5.2
 20
7.144544
 30
0.0
 11
6.903266
 21
8.84781
 31
0.0
  0
LINE
  8
0
 62
     0
 10
5.2
 20
7.32132
 30
0.0
 11
6.857435
 21
8.978756
 31
0.0
  0
LINE
  8
0
 62
     0
 10
5.2
 20
7.498097
 30
0.0
 11
6.811604
 21
9.109702
 31
0.0
  0
LINE
  8
0
 62
     0
 10
5.2
 20
7.674874
 30
0.0
 11
6.765773
 21
9.240647
 31
0.0
  0
LINE
  8
0
 62
     0
 10
5.2
 20
7.85165
 30
0.0
 11
6.719942
 21
9.371593
 31
0.0
  0
LINE
  8
0
 62
     0
 10
5.2
 20
8.028427
 30
0.0
 11
6.674111
 21
9.502539
 31
0.0
  0
LINE
  8
0
 62
     0
 10
5.2
 20
8.205204
 30
0.0
 11
6.62828
 21
9.633484
 31
0.0
  0
LINE
  8
0
 62
     0
 10
5.2
 20
8.381981
 30
0.0
 11
6.582449
 21
9.76443
 31
0.0
  0
LINE
  8
0
 62
     0
 10
5.2
 20
8.558757
 30
0.0
 11
6.536619
 21
9.895376
 31
0.0
  0
LINE
  8
0
 62
     0
 10
5.2
 20
8.735534
 30
0.0
 11
6.464466
 21
10.0
 31
0.0
  0
LINE
  8
0
 62
     0
 10
5.2
 20
8.912311
 30
0.0
 11
6.287689
 21
10.0
 31
0.0
  0
LINE
  8
0
 62
     0
 10
5.2
 20
9.089087
 30
0.0
 11
6.110913
 21
10.0
 31
0.0
  0
LINE
  8
0
 62
     0
 10
5.2
 20
9.265864
 30
0.0
 11
5.934136
 21
10.0
 31
0.0
  0
LINE
  8
0
 62
     0
 10
5.2
 20
9.442641
 30
0.0
 11
5.757359
 21
10.0
 31
0.0
  0
LINE
  8
0
 62
     0
 10
5.2
 20
9.619417
 30
0.0
 11
5.580583
 21
10.0
 31
0.0
  0
LINE
  8
0
 62
     0
 10
5.2
 20
9.796194
 30
0.0
 11
5.403806
 21
10.0
 31
0.0
  0
LINE
  8
0
 62
     0
 10
5.2
 20
9.972971
 30
0.0
 11
5.227029
 21
10.0
 31
0.0
  0
LINE
  8
0
 62
     0
 10
5.2
 20
5.907107
 30
0.0
 11
7.224083
 21
7.93119
 31
0.0
  0
LINE
  8
0
 62
     0
 10
5.2
 20
5.73033
 30
0.0
 11
7.269914
 21
7.800245
 31
0.0
  0
LINE
  8
0
 62
     0
 10
5.2
 20
5.553553
 30
0.0
 11
7.315745
 21
7.669299
 31
0.0
  0
LINE
  8
0
 62
     0
 10
5.2
 20
5.376777
 30
0.0
 11
7.361576
 21
7.538353
 31
0.0
  0
LINE
  8
0
 62
     0
 10
5.2
 20
5.2
 30
0.0
 11
7.407407
 21
7.407407
 31
0.0
  0
LINE
  8
0
 62
     0
 10
5.376777
 20
5.2
 30
0.0
 11
7.453238
 21
7.276462
 31
0.0
  0
LINE
  8
0
 62
     0
 10
5.553553
 20
5.2
 30
0.0
 11
7.499069
 21
7.145516
 31
0.0
  0
LINE
  8
0
 62
     0
 10
5.73033
 20
5.2
 30
0.0
 11
7.5449
 21
7.01457
 31
0.0
  0
LINE
  8
0
 62
     0
 10
5.907107
 20
5.2
 30
0.0
 11
7.590731
 21
6.883625
 31
0.0
  0
LINE
  8
0
 62
     0
 10
6.083883
 20
5.2
 30
0.0
 11
7.636562
 21
6.752679
 31
0.0
  0
LINE
  8
0
 62
     0
 10
6.26066
 20
5.2
 30
0.0
 11
7.682393
 21
6.621733
 31
0.0
  0
LINE
  8
0
 62
     0
 10
6.437437
 20
5.2
 30
0.0
 11
7.728224
 21
6.490788
 31
0.0
  0
LINE
  8
0
 62
     0
 10
6.614214
 20
5.2
 30
0.0
 11
7.774055
 21
6.359842
 31
0.0
  0
LINE
  8
0
 62
     0
 10
6.79099
 20
5.2
 30
0.0
 11
7.819886
 21
6.228896
 31
0.0
  0
LINE
  8
0
 62
     0
 10
6.967767
 20
5.2
 30
0.0
 11
7.865717
 21
6.09795
 31
0.0
  0
LINE
  8
0
 62
     0
 10
7.144544
 20
5.2
 30
0.0
 11
7.911548
 21
5.967005
 31
0.0
  0
LINE
  8
0
 62
     0
 10
7.32132
 20
5.2
 30
0.0
 11
7.957379
 21
5.836059
 31
0.0
  0
LINE
  8
0
 62
     0
 10
7.498097
 20
5.2
 30
0.0
 11
8.00321
 21
5.705113
 31
0.0
  0
LINE
  8
0
 62
     0
 10
7.674874
 20
5.2
 30
0.0
 11
8.049041
 21
5.574168
 31
0.0
  0
LINE
  8
0
 62
     0
 10
7.85165
 20
5.2
 30
0.0
 11
8.094872
 21
5.443222
 31
0.0
  0
LINE
  8
0
 62
     0
 10
8.028427
 20
5.2
 30
0.0
 11
8.140703
 21
5.312276
 31
0.0
  0
ENDBLK
  8
0
  0
BLOCK
  8
0
  2
*X24
 70
    65
 10
0.0
 20
0.0
 30
0.0
  3
*X
  0
LINE
  8
0
 62
     0
 10
0.0
 20
0.0
 30
0.0
 11
4.8
 21
4.8
 31
0.0
  0
LINE
  8
0
 62
     0
 10
0.095187
 20
0.271964
 30
0.0
 11
4.623223
 21
4.8
 31
0.0
  0
LINE
  8
0
 62
     0
 10
0.190375
 20
0.543928
 30
0.0
 11
4.446447
 21
4.8
 31
0.0
  0
LINE
  8
0
 62
     0
 10
0.285562
 20
0.815892
 30
0.0
 11
4.26967
 21
4.8
 31
0.0
  0
LINE
  8
0
 62
     0
 10
0.38075
 20
1.087857
 30
0.0
 11
4.092893
 21
4.8
 31
0.0
  0
LINE
  8
0
 62
     0
 10
0.475937
 20
1.359821
 30
0.0
 11
3.916117
 21
4.8
 31
0.0
  0
LINE
  8
0
 62
     0
 10
0.571125
 20
1.631785
 30
0.0
 11
3.73934
 21
4.8
 31
0.0
  0
LINE
  8
0
 62
     0
 10
0.666312
 20
1.903749
 30
0.0
 11
3.562563
 21
4.8
 31
0.0
  0
LINE
  8
0
 62
     0
 10
0.7615
 20
2.175713
 30
0.0
 11
3.385786
 21
4.8
 31
0.0
  0
LINE
  8
0
 62
     0
 10
0.856687
 20
2.447677
 30
0.0
 11
3.20901
 21
4.8
 31
0.0
  0
LINE
  8
0
 62
     0
 10
0.951875
 20
2.719641
 30
0.0
 11
3.032233
 21
4.8
 31
0.0
  0
LINE
  8
0
 62
     0
 10
1.047062
 20
2.991606
 30
0.0
 11
2.855456
 21
4.8
 31
0.0
  0
LINE
  8
0
 62
     0
 10
1.142249
 20
3.26357
 30
0.0
 11
2.67868
 21
4.8
 31
0.0
  0
LINE
  8
0
 62
     0
 10
1.237437
 20
3.535534
 30
0.0
 11
2.501903
 21
4.8
 31
0.0
  0
LINE
  8
0
 62
     0
 10
1.332624
 20
3.807498
 30
0.0
 11
2.325126
 21
4.8
 31
0.0
  0
LINE
  8
0
 62
     0
 10
1.427812
 20
4.079462
 30
0.0
 11
2.14835
 21
4.8
 31
0.0
  0
LINE
  8
0
 62
     0
 10
1.522999
 20
4.351426
 30
0.0
 11
1.971573
 21
4.8
 31
0.0
  0
LINE
  8
0
 62
     0
 10
1.618187
 20
4.62339
 30
0.0
 11
1.794796
 21
4.8
 31
0.0
  0
LINE
  8
0
 62
     0
 10
0.176777
 20
0.0
 30
0.0
 11
4.8
 21
4.623223
 31
0.0
  0
LINE
  8
0
 62
     0
 10
0.353553
 20
0.0
 30
0.0
 11
4.8
 21
4.446447
 31
0.0
  0
LINE
  8
0
 62
     0
 10
0.53033
 20
0.0
 30
0.0
 11
4.8
 21
4.26967
 31
0.0
  0
LINE
  8
0
 62
     0
 10
0.707107
 20
0.0
 30
0.0
 11
4.8
 21
4.092893
 31
0.0
  0
LINE
  8
0
 62
     0
 10
0.883883
 20
0.0
 30
0.0
 11
4.8
 21
3.916117
 31
0.0
  0
LINE
  8
0
 62
     0
 10
1.06066
 20
0.0
 30
0.0
 11
4.8
 21
3.73934
 31
0.0
  0
LINE
  8
0
 62
     0
 10
1.237437
 20
0.0
 30
0.0
 11
3.179842
 21
1.942405
 31
0.0
  0
LINE
  8
0
 62
     0
 10
3.237437
 20
2.0
 30
0.0
 11
4.8
 21
3.562563
 31
0.0
  0
LINE
  8
0
 62
     0
 10
1.414214
 20
0.0
 30
0.0
 11
3.084654
 21
1.670441
 31
0.0
  0
LINE
  8
0
 62
     0
 10
3.414214
 20
2.0
 30
0.0
 11
4.8
 21
3.385786
 31
0.0
  0
LINE
  8
0
 62
     0
 10
1.59099
 20
0.0
 30
0.0
 11
2.989467
 21
1.398477
 31
0.0
  0
LINE
  8
0
 62
     0
 10
3.59099
 20
2.0
 30
0.0
 11
4.8
 21
3.20901
 31
0.0
  0
LINE
  8
0
 62
     0
 10
1.767767
 20
0.0
 30
0.0
 11
2.894279
 21
1.126512
 31
0.0
  0
LINE
  8
0
 62
     0
 10
3.767767
 20
2.0
 30
0.0
 11
4.8
 21
3.032233
 31
0.0
  0
LINE
  8
0
 62
     0
 10
1.944544
 20
0.0
 30
0.0
 11
2.799092
 21
0.854548
 31
0.0
  0
LINE
  8
0
 62
     0
 10
3.944544
 20
2.0
 30
0.0
 11
4.8
 21
2.855456
 31
0.0
  0
LINE
  8
0
 62
     0
 10
2.12132
 20
0.0
 30
0.0
 11
2.703904
 21
0.582584
 31
0.0
  0
LINE
  8
0
 62
     0
 10
4.12132
 20
2.0
 30
0.0
 11
4.8
 21
2.67868
 31
0.0
  0
LINE
  8
0
 62
     0
 10
2.298097
 20
0.0
 30
0.0
 11
2.608717
 21
0.31062
 31
0.0
  0
LINE
  8
0
 62
     0
 10
4.298097
 20
2.0
 30
0.0
 11
4.8
 21
2.501903
 31
0.0
  0
LINE
  8
0
 62
     0
 10
2.474874
 20
0.0
 30
0.0
 11
2.51353
 21
0.038656
 31
0.0
  0
LINE
  8
0
 62
     0
 10
4.474874
 20
2.0
 30
0.0
 11
4.8
 21
2.325126
 31
0.0
  0
LINE
  8
0
 62
     0
 10
4.65165
 20
2.0
 30
0.0
 11
4.8
 21
2.14835
 31
0.0
  0
ENDBLK
  8
0
  0
BLOCK
  8
0
  2
*X25
 70
    65
 10
0.0
 20
0.0
 30
0.0
  3
*X
  0
LINE
  8
0
 62
     0
 10
6.884654
 20
1.75813
 30
0.0
 11
8.736506
 21
3.609982
 31
0.0
  0
LINE
  8
0
 62
     0
 10
6.838823
 20
1.889076
 30
0.0
 11
8.690675
 21
3.740928
 31
0.0
  0
LINE
  8
0
 62
     0
 10
6.772971
 20
2.0
 30
0.0
 11
8.644844
 21
3.871874
 31
0.0
  0
LINE
  8
0
 62
     0
 10
6.596194
 20
2.0
 30
0.0
 11
8.599013
 21
4.002819
 31
0.0
  0
LINE
  8
0
 62
     0
 10
6.419417
 20
2.0
 30
0.0
 11
8.553182
 21
4.133765
 31
0.0
  0
LINE
  8
0
 62
     0
 10
6.242641
 20
2.0
 30
0.0
 11
8.507351
 21
4.264711
 31
0.0
  0
LINE
  8
0
 62
     0
 10
6.065864
 20
2.0
 30
0.0
 11
8.46152
 21
4.395656
 31
0.0
  0
LINE
  8
0
 62
     0
 10
5.889087
 20
2.0
 30
0.0
 11
8.415689
 21
4.526602
 31
0.0
  0
LINE
  8
0
 62
     0
 10
5.712311
 20
2.0
 30
0.0
 11
8.369858
 21
4.657548
 31
0.0
  0
LINE
  8
0
 62
     0
 10
5.535534
 20
2.0
 30
0.0
 11
8.324027
 21
4.788493
 31
0.0
  0
LINE
  8
0
 62
     0
 10
5.358757
 20
2.0
 30
0.0
 11
8.158757
 21
4.8
 31
0.0
  0
LINE
  8
0
 62
     0
 10
5.2
 20
2.018019
 30
0.0
 11
7.981981
 21
4.8
 31
0.0
  0
LINE
  8
0
 62
     0
 10
5.2
 20
2.194796
 30
0.0
 11
7.805204
 21
4.8
 31
0.0
  0
LINE
  8
0
 62
     0
 10
5.2
 20
2.371573
 30
0.0
 11
7.628427
 21
4.8
 31
0.0
  0
LINE
  8
0
 62
     0
 10
5.2
 20
2.54835
 30
0.0
 11
7.45165
 21
4.8
 31
0.0
  0
LINE
  8
0
 62
     0
 10
5.2
 20
2.725126
 30
0.0
 11
7.274874
 21
4.8
 31
0.0
  0
LINE
  8
0
 62
     0
 10
5.2
 20
2.901903
 30
0.0
 11
7.098097
 21
4.8
 31
0.0
  0
LINE
  8
0
 62
     0
 10
5.2
 20
3.07868
 30
0.0
 11
6.92132
 21
4.8
 31
0.0
  0
LINE
  8
0
 62
     0
 10
5.2
 20
3.255456
 30
0.0
 11
6.744544
 21
4.8
 31
0.0
  0
LINE
  8
0
 62
     0
 10
5.2
 20
3.432233
 30
0.0
 11
6.567767
 21
4.8
 31
0.0
  0
LINE
  8
0
 62
     0
 10
5.2
 20
3.60901
 30
0.0
 11
6.39099
 21
4.8
 31
0.0
  0
LINE
  8
0
 62
     0
 10
5.2
 20
3.785786
 30
0.0
 11
6.214214
 21
4.8
 31
0.0
  0
LINE
  8
0
 62
     0
 10
5.2
 20
3.962563
 30
0.0
 11
6.037437
 21
4.8
 31
0.0
  0
LINE
  8
0
 62
     0
 10
5.2
 20
4.13934
 30
0.0
 11
5.86066
 21
4.8
 31
0.0
  0
LINE
  8
0
 62
     0
 10
5.2
 20
4.316117
 30
0.0
 11
5.683883
 21
4.8
 31
0.0
  0
LINE
  8
0
 62
     0
 10
5.2
 20
4.492893
 30
0.0
 11
5.507107
 21
4.8
 31
0.0
  0
LINE
  8
0
 62
     0
 10
5.2
 20
4.66967
 30
0.0
 11
5.33033
 21
4.8
 31
0.0
  0
LINE
  8
0
 62
     0
 10
6.930485
 20
1.627185
 30
0.0
 11
8.782337
 21
3.479036
 31
0.0
  0
LINE
  8
0
 62
     0
 10
6.976316
 20
1.496239
 30
0.0
 11
8.828168
 21
3.348091
 31
0.0
  0
LINE
  8
0
 62
     0
 10
7.022147
 20
1.365293
 30
0.0
 11
8.873999
 21
3.217145
 31
0.0
  0
LINE
  8
0
 62
     0
 10
7.067978
 20
1.234347
 30
0.0
 11
8.91983
 21
3.086199
 31
0.0
  0
LINE
  8
0
 62
     0
 10
7.113809
 20
1.103402
 30
0.0
 11
8.965661
 21
2.955254
 31
0.0
  0
LINE
  8
0
 62
     0
 10
7.15964
 20
0.972456
 30
0.0
 11
9.011492
 21
2.824308
 31
0.0
  0
LINE
  8
0
 62
     0
 10
7.205471
 20
0.84151
 30
0.0
 11
9.057323
 21
2.693362
 31
0.0
  0
LINE
  8
0
 62
     0
 10
7.251302
 20
0.710565
 30
0.0
 11
9.103154
 21
2.562416
 31
0.0
  0
LINE
  8
0
 62
     0
 10
7.297133
 20
0.579619
 30
0.0
 11
9.148985
 21
2.431471
 31
0.0
  0
LINE
  8
0
 62
     0
 10
7.342964
 20
0.448673
 30
0.0
 11
9.194816
 21
2.300525
 31
0.0
  0
LINE
  8
0
 62
     0
 10
7.388795
 20
0.317728
 30
0.0
 11
9.240647
 21
2.169579
 31
0.0
  0
LINE
  8
0
 62
     0
 10
7.434626
 20
0.186782
 30
0.0
 11
9.286478
 21
2.038634
 31
0.0
  0
LINE
  8
0
 62
     0
 10
7.480457
 20
0.055836
 30
0.0
 11
9.332309
 21
1.907688
 31
0.0
  0
LINE
  8
0
 62
     0
 10
7.601398
 20
0.0
 30
0.0
 11
9.37814
 21
1.776742
 31
0.0
  0
LINE
  8
0
 62
     0
 10
7.778175
 20
0.0
 30
0.0
 11
9.423971
 21
1.645797
 31
0.0
  0
LINE
  8
0
 62
     0
 10
7.954951
 20
0.0
 30
0.0
 11
9.469802
 21
1.514851
 31
0.0
  0
LINE
  8
0
 62
     0
 10
8.131728
 20
0.0
 30
0.0
 11
9.515633
 21
1.383905
 31
0.0
  0
LINE
  8
0
 62
     0
 10
8.308505
 20
0.0
 30
0.0
 11
9.561464
 21
1.252959
 31
0.0
  0
LINE
  8
0
 62
     0
 10
8.485281
 20
0.0
 30
0.0
 11
9.607295
 21
1.122014
 31
0.0
  0
LINE
  8
0
 62
     0
 10
8.662058
 20
0.0
 30
0.0
 11
9.653126
 21
0.991068
 31
0.0
  0
LINE
  8
0
 62
     0
 10
8.838835
 20
0.0
 30
0.0
 11
9.698957
 21
0.860122
 31
0.0
  0
LINE
  8
0
 62
     0
 10
9.015611
 20
0.0
 30
0.0
 11
9.744788
 21
0.729177
 31
0.0
  0
LINE
  8
0
 62
     0
 10
9.192388
 20
0.0
 30
0.0
 11
9.790619
 21
0.598231
 31
0.0
  0
LINE
  8
0
 62
     0
 10
9.369165
 20
0.0
 30
0.0
 11
9.83645
 21
0.467285
 31
0.0
  0
LINE
  8
0
 62
     0
 10
9.545942
 20
0.0
 30
0.0
 11
9.882281
 21
0.33634
 31
0.0
  0
LINE
  8
0
 62
     0
 10
9.722718
 20
0.0
 30
0.0
 11
9.928112
 21
0.205394
 31
0.0
  0
LINE
  8
0
 62
     0
 10
9.899495
 20
0.0
 30
0.0
 11
9.973943
 21
0.074448
 31
0.0
  0
ENDBLK
  8
0
  0
BLOCK
  8
0
  2
*X26
 70
    65
 10
0.0
 20
0.0
 30
0.0
  3
*X
  0
LINE
  8
0
 62
     0
 10
10.7
 20
6.280583
 30
0.0
 11
13.5
 21
9.080583
 31
0.0
  0
LINE
  8
0
 62
     0
 10
10.7
 20
6.457359
 30
0.0
 11
13.5
 21
9.257359
 31
0.0
  0
LINE
  8
0
 62
     0
 10
10.7
 20
6.634136
 30
0.0
 11
13.5
 21
9.434136
 31
0.0
  0
LINE
  8
0
 62
     0
 10
10.7
 20
6.810913
 30
0.0
 11
13.5
 21
9.610913
 31
0.0
  0
LINE
  8
0
 62
     0
 10
10.7
 20
6.987689
 30
0.0
 11
13.5
 21
9.787689
 31
0.0
  0
LINE
  8
0
 62
     0
 10
10.7
 20
7.164466
 30
0.0
 11
13.5
 21
9.964466
 31
0.0
  0
LINE
  8
0
 62
     0
 10
10.7
 20
7.341243
 30
0.0
 11
13.358757
 21
10.0
 31
0.0
  0
LINE
  8
0
 62
     0
 10
10.7
 20
7.518019
 30
0.0
 11
13.181981
 21
10.0
 31
0.0
  0
LINE
  8
0
 62
     0
 10
10.7
 20
7.694796
 30
0.0
 11
13.005204
 21
10.0
 31
0.0
  0
LINE
  8
0
 62
     0
 10
10.7
 20
7.871573
 30
0.0
 11
12.828427
 21
10.0
 31
0.0
  0
LINE
  8
0
 62
     0
 10
10.7
 20
8.04835
 30
0.0
 11
12.65165
 21
10.0
 31
0.0
  0
LINE
  8
0
 62
     0
 10
10.7
 20
8.225126
 30
0.0
 11
12.474874
 21
10.0
 31
0.0
  0
LINE
  8
0
 62
     0
 10
10.7
 20
8.401903
 30
0.0
 11
12.298097
 21
10.0
 31
0.0
  0
LINE
  8
0
 62
     0
 10
10.7
 20
8.57868
 30
0.0
 11
12.12132
 21
10.0
 31
0.0
  0
LINE
  8
0
 62
     0
 10
10.7
 20
8.755456
 30
0.0
 11
11.944544
 21
10.0
 31
0.0
  0
LINE
  8
0
 62
     0
 10
10.7
 20
8.932233
 30
0.0
 11
11.767767
 21
10.0
 31
0.0
  0
LINE
  8
0
 62
     0
 10
10.7
 20
9.10901
 30
0.0
 11
11.59099
 21
10.0
 31
0.0
  0
LINE
  8
0
 62
     0
 10
10.7
 20
9.285786
 30
0.0
 11
11.414214
 21
10.0
 31
0.0
  0
LINE
  8
0
 62
     0
 10
10.7
 20
9.462563
 30
0.0
 11
11.237437
 21
10.0
 31
0.0
  0
LINE
  8
0
 62
     0
 10
10.7
 20
9.63934
 30
0.0
 11
11.06066
 21
10.0
 31
0.0
  0
LINE
  8
0
 62
     0
 10
10.7
 20
9.816117
 30
0.0
 11
10.883883
 21
10.0
 31
0.0
  0
LINE
  8
0
 62
     0
 10
10.7
 20
9.992893
 30
0.0
 11
10.707107
 21
10.0
 31
0.0
  0
LINE
  8
0
 62
     0
 10
10.7
 20
6.103806
 30
0.0
 11
13.5
 21
8.903806
 31
0.0
  0
LINE
  8
0
 62
     0
 10
10.7
 20
5.927029
 30
0.0
 11
13.5
 21
8.727029
 31
0.0
  0
LINE
  8
0
 62
     0
 10
10.7
 20
5.750253
 30
0.0
 11
13.5
 21
8.550253
 31
0.0
  0
LINE
  8
0
 62
     0
 10
10.7
 20
5.573476
 30
0.0
 11
13.5
 21
8.373476
 31
0.0
  0
LINE
  8
0
 62
     0
 10
10.7
 20
5.396699
 30
0.0
 11
13.5
 21
8.196699
 31
0.0
  0
LINE
  8
0
 62
     0
 10
10.7
 20
5.219922
 30
0.0
 11
13.5
 21
8.019922
 31
0.0
  0
LINE
  8
0
 62
     0
 10
10.856854
 20
5.2
 30
0.0
 11
13.5
 21
7.843146
 31
0.0
  0
LINE
  8
0
 62
     0
 10
11.033631
 20
5.2
 30
0.0
 11
13.5
 21
7.666369
 31
0.0
  0
LINE
  8
0
 62
     0
 10
11.210408
 20
5.2
 30
0.0
 11
13.5
 21
7.489592
 31
0.0
  0
LINE
  8
0
 62
     0
 10
11.387184
 20
5.2
 30
0.0
 11
13.5
 21
7.312816
 31
0.0
  0
LINE
  8
0
 62
     0
 10
11.563961
 20
5.2
 30
0.0
 11
13.5
 21
7.136039
 31
0.0
  0
LINE
  8
0
 62
     0
 10
11.740738
 20
5.2
 30
0.0
 11
13.5
 21
6.959262
 31
0.0
  0
LINE
  8
0
 62
     0
 10
11.917514
 20
5.2
 30
0.0
 11
13.5
 21
6.782486
 31
0.0
  0
LINE
  8
0
 62
     0
 10
12.094291
 20
5.2
 30
0.0
 11
13.5
 21
6.605709
 31
0.0
  0
LINE
  8
0
 62
     0
 10
12.271068
 20
5.2
 30
0.0
 11
13.5
 21
6.428932
 31
0.0
  0
LINE
  8
0
 62
     0
 10
12.447845
 20
5.2
 30
0.0
 11
13.5
 21
6.252155
 31
0.0
  0
LINE
  8
0
 62
     0
 10
12.624621
 20
5.2
 30
0.0
 11
13.5
 21
6.075379
 31
0.0
  0
LINE
  8
0
 62
     0
 10
12.801398
 20
5.2
 30
0.0
 11
13.5
 21
5.898602
 31
0.0
  0
LINE
  8
0
 62
     0
 10
12.978175
 20
5.2
 30
0.0
 11
13.5
 21
5.721825
 31
0.0
  0
LINE
  8
0
 62
     0
 10
13.154951
 20
5.2
 30
0.0
 11
13.5
 21
5.545049
 31
0.0
  0
LINE
  8
0
 62
     0
 10
13.331728
 20
5.2
 30
0.0
 11
13.5
 21
5.368272
 31
0.0
  0
ENDBLK
  8
0
  0
BLOCK
  8
0
  2
*X27
 70
    65
 10
0.0
 20
0.0
 30
0.0
  3
*X
  0
LINE
  8
0
 62
     0
 10
10.7
 20
1.154058
 30
0.0
 11
13.5
 21
3.954058
 31
0.0
  0
LINE
  8
0
 62
     0
 10
10.7
 20
1.330835
 30
0.0
 11
13.5
 21
4.130835
 31
0.0
  0
LINE
  8
0
 62
     0
 10
10.7
 20
1.507612
 30
0.0
 11
13.5
 21
4.307612
 31
0.0
  0
LINE
  8
0
 62
     0
 10
10.7
 20
1.684389
 30
0.0
 11
13.5
 21
4.484389
 31
0.0
  0
LINE
  8
0
 62
     0
 10
10.7
 20
1.861165
 30
0.0
 11
13.5
 21
4.661165
 31
0.0
  0
LINE
  8
0
 62
     0
 10
10.7
 20
2.037942
 30
0.0
 11
13.462058
 21
4.8
 31
0.0
  0
LINE
  8
0
 62
     0
 10
10.7
 20
2.214719
 30
0.0
 11
13.285281
 21
4.8
 31
0.0
  0
LINE
  8
0
 62
     0
 10
10.7
 20
2.391495
 30
0.0
 11
13.108505
 21
4.8
 31
0.0
  0
LINE
  8
0
 62
     0
 10
10.7
 20
2.568272
 30
0.0
 11
12.931728
 21
4.8
 31
0.0
  0
LINE
  8
0
 62
     0
 10
10.7
 20
2.745049
 30
0.0
 11
12.754951
 21
4.8
 31
0.0
  0
LINE
  8
0
 62
     0
 10
10.7
 20
2.921825
 30
0.0
 11
12.578175
 21
4.8
 31
0.0
  0
LINE
  8
0
 62
     0
 10
10.7
 20
3.098602
 30
0.0
 11
12.401398
 21
4.8
 31
0.0
  0
LINE
  8
0
 62
     0
 10
10.7
 20
3.275379
 30
0.0
 11
12.224621
 21
4.8
 31
0.0
  0
LINE
  8
0
 62
     0
 10
10.7
 20
3.452155
 30
0.0
 11
12.047845
 21
4.8
 31
0.0
  0
LINE
  8
0
 62
     0
 10
10.7
 20
3.628932
 30
0.0
 11
11.871068
 21
4.8
 31
0.0
  0
LINE
  8
0
 62
     0
 10
10.7
 20
3.805709
 30
0.0
 11
11.694291
 21
4.8
 31
0.0
  0
LINE
  8
0
 62
     0
 10
10.7
 20
3.982486
 30
0.0
 11
11.517514
 21
4.8
 31
0.0
  0
LINE
  8
0
 62
     0
 10
10.7
 20
4.159262
 30
0.0
 11
11.340738
 21
4.8
 31
0.0
  0
LINE
  8
0
 62
     0
 10
10.7
 20
4.336039
 30
0.0
 11
11.163961
 21
4.8
 31
0.0
  0
LINE
  8
0
 62
     0
 10
10.7
 20
4.512816
 30
0.0
 11
10.987184
 21
4.8
 31
0.0
  0
LINE
  8
0
 62
     0
 10
10.7
 20
4.689592
 30
0.0
 11
10.810408
 21
4.8
 31
0.0
  0
LINE
  8
0
 62
     0
 10
10.7
 20
0.977282
 30
0.0
 11
13.5
 21
3.777282
 31
0.0
  0
LINE
  8
0
 62
     0
 10
10.7
 20
0.800505
 30
0.0
 11
13.5
 21
3.600505
 31
0.0
  0
LINE
  8
0
 62
     0
 10
10.7
 20
0.623728
 30
0.0
 11
13.5
 21
3.423728
 31
0.0
  0
LINE
  8
0
 62
     0
 10
10.7
 20
0.446952
 30
0.0
 11
13.5
 21
3.246952
 31
0.0
  0
LINE
  8
0
 62
     0
 10
10.7
 20
0.270175
 30
0.0
 11
13.5
 21
3.070175
 31
0.0
  0
LINE
  8
0
 62
     0
 10
10.7
 20
0.093398
 30
0.0
 11
13.5
 21
2.893398
 31
0.0
  0
LINE
  8
0
 62
     0
 10
10.783378
 20
0.0
 30
0.0
 11
13.5
 21
2.716622
 31
0.0
  0
LINE
  8
0
 62
     0
 10
10.960155
 20
0.0
 30
0.0
 11
13.5
 21
2.539845
 31
0.0
  0
LINE
  8
0
 62
     0
 10
11.136932
 20
0.0
 30
0.0
 11
13.5
 21
2.363068
 31
0.0
  0
LINE
  8
0
 62
     0
 10
11.313708
 20
0.0
 30
0.0
 11
13.5
 21
2.186292
 31
0.0
  0
LINE
  8
0
 62
     0
 10
11.490485
 20
0.0
 30
0.0
 11
13.5
 21
2.009515
 31
0.0
  0
LINE
  8
0
 62
     0
 10
11.667262
 20
0.0
 30
0.0
 11
13.5
 21
1.832738
 31
0.0
  0
LINE
  8
0
 62
     0
 10
11.844039
 20
0.0
 30
0.0
 11
13.5
 21
1.655961
 31
0.0
  0
LINE
  8
0
 62
     0
 10
12.020815
 20
0.0
 30
0.0
 11
13.5
 21
1.479185
 31
0.0
  0
LINE
  8
0
 62
     0
 10
12.197592
 20
0.0
 30
0.0
 11
13.5
 21
1.302408
 31
0.0
  0
LINE
  8
0
 62
     0
 10
12.374369
 20
0.0
 30
0.0
 11
13.5
 21
1.125631
 31
0.0
  0
LINE
  8
0
 62
     0
 10
12.551145
 20
0.0
 30
0.0
 11
13.5
 21
0.948855
 31
0.0
  0
LINE
  8
0
 62
     0
 10
12.727922
 20
0.0
 30
0.0
 11
13.5
 21
0.772078
 31
0.0
  0
LINE
  8
0
 62
     0
 10
12.904699
 20
0.0
 30
0.0
 11
13.5
 21
0.595301
 31
0.0
  0
LINE
  8
0
 62
     0
 10
13.081475
 20
0.0
 30
0.0
 11
13.5
 21
0.418525
 31
0.0
  0
LINE
  8
0
 62
     0
 10
13.258252
 20
0.0
 30
0.0
 11
13.5
 21
0.241748
 31
0.0
  0
LINE
  8
0
 62
     0
 10
13.435029
 20
0.0
 30
0.0
 11
13.5
 21
0.064971
 31
0.0
  0
ENDBLK
  8
0
  0
BLOCK
  8
0
  2
*X28
 70
    65
 10
0.0
 20
0.0
 30
0.0
  3
*X
  0
LINE
  8
0
 62
     0
 10
13.9
 20
6.298602
 30
0.0
 11
16.582995
 21
8.981597
 31
0.0
  0
LINE
  8
0
 62
     0
 10
13.9
 20
6.475379
 30
0.0
 11
16.510503
 21
9.085882
 31
0.0
  0
LINE
  8
0
 62
     0
 10
13.9
 20
6.652155
 30
0.0
 11
16.432927
 21
9.185083
 31
0.0
  0
LINE
  8
0
 62
     0
 10
13.9
 20
6.828932
 30
0.0
 11
16.350372
 21
9.279304
 31
0.0
  0
LINE
  8
0
 62
     0
 10
13.9
 20
7.005709
 30
0.0
 11
16.262892
 21
9.368601
 31
0.0
  0
LINE
  8
0
 62
     0
 10
13.9
 20
7.182486
 30
0.0
 11
16.170495
 21
9.452981
 31
0.0
  0
LINE
  8
0
 62
     0
 10
13.9
 20
7.359262
 30
0.0
 11
16.073145
 21
9.532407
 31
0.0
  0
LINE
  8
0
 62
     0
 10
13.9
 20
7.536039
 30
0.0
 11
15.970755
 21
9.606794
 31
0.0
  0
LINE
  8
0
 62
     0
 10
13.9
 20
7.712816
 30
0.0
 11
15.863189
 21
9.676004
 31
0.0
  0
LINE
  8
0
 62
     0
 10
13.9
 20
7.889592
 30
0.0
 11
15.75025
 21
9.739843
 31
0.0
  0
LINE
  8
0
 62
     0
 10
13.9
 20
8.066369
 30
0.0
 11
15.631675
 21
9.798044
 31
0.0
  0
LINE
  8
0
 62
     0
 10
13.9
 20
8.243146
 30
0.0
 11
15.50711
 21
9.850256
 31
0.0
  0
LINE
  8
0
 62
     0
 10
13.9
 20
8.419922
 30
0.0
 11
15.376096
 21
9.896018
 31
0.0
  0
LINE
  8
0
 62
     0
 10
13.9
 20
8.596699
 30
0.0
 11
15.238027
 21
9.934726
 31
0.0
  0
LINE
  8
0
 62
     0
 10
13.9
 20
8.773476
 30
0.0
 11
15.092096
 21
9.965572
 31
0.0
  0
LINE
  8
0
 62
     0
 10
13.9
 20
8.950253
 30
0.0
 11
14.937209
 21
9.987461
 31
0.0
  0
LINE
  8
0
 62
     0
 10
13.9
 20
9.127029
 30
0.0
 11
14.771824
 21
9.998853
 31
0.0
  0
LINE
  8
0
 62
     0
 10
13.9
 20
9.303806
 30
0.0
 11
14.596193
 21
9.999999
 31
0.0
  0
LINE
  8
0
 62
     0
 10
13.9
 20
9.480583
 30
0.0
 11
14.419417
 21
9.999999
 31
0.0
  0
LINE
  8
0
 62
     0
 10
13.9
 20
9.657359
 30
0.0
 11
14.24264
 21
10.0
 31
0.0
  0
LINE
  8
0
 62
     0
 10
13.9
 20
9.834136
 30
0.0
 11
14.065864
 21
10.0
 31
0.0
  0
LINE
  8
0
 62
     0
 10
13.9
 20
6.121825
 30
0.0
 11
16.650245
 21
8.872071
 31
0.0
  0
LINE
  8
0
 62
     0
 10
13.9
 20
5.945049
 30
0.0
 11
16.712035
 21
8.757083
 31
0.0
  0
LINE
  8
0
 62
     0
 10
13.9
 20
5.768272
 30
0.0
 11
16.768067
 21
8.636339
 31
0.0
  0
LINE
  8
0
 62
     0
 10
13.9
 20
5.591495
 30
0.0
 11
16.817955
 21
8.509451
 31
0.0
  0
LINE
  8
0
 62
     0
 10
13.9
 20
5.414719
 30
0.0
 11
16.861189
 21
8.375908
 31
0.0
  0
LINE
  8
0
 62
     0
 10
13.9
 20
5.237942
 30
0.0
 11
16.897097
 21
8.235039
 31
0.0
  0
LINE
  8
0
 62
     0
 10
14.038835
 20
5.2
 30
0.0
 11
16.924779
 21
8.085944
 31
0.0
  0
LINE
  8
0
 62
     0
 10
14.215611
 20
5.2
 30
0.0
 11
16.942997
 21
7.927385
 31
0.0
  0
LINE
  8
0
 62
     0
 10
14.392388
 20
5.2
 30
0.0
 11
16.949987
 21
7.757599
 31
0.0
  0
LINE
  8
0
 62
     0
 10
14.569165
 20
5.2
 30
0.0
 11
16.943101
 21
7.573936
 31
0.0
  0
LINE
  8
0
 62
     0
 10
14.745942
 20
5.2
 30
0.0
 11
16.918037
 21
7.372095
 31
0.0
  0
LINE
  8
0
 62
     0
 10
14.922718
 20
5.2
 30
0.0
 11
16.866909
 21
7.144191
 31
0.0
  0
LINE
  8
0
 62
     0
 10
15.099495
 20
5.2
 30
0.0
 11
16.771715
 21
6.87222
 31
0.0
  0
LINE
  8
0
 62
     0
 10
15.276272
 20
5.2
 30
0.0
 11
15.847951
 21
5.77168
 31
0.0
  0
LINE
  8
0
 62
     0
 10
15.96673
 20
5.890458
 30
0.0
 11
16.559542
 21
6.48327
 31
0.0
  0
LINE
  8
0
 62
     0
 10
15.453048
 20
5.2
 30
0.0
 11
15.970661
 21
5.717613
 31
0.0
  0
LINE
  8
0
 62
     0
 10
15.629825
 20
5.2
 30
0.0
 11
16.088934
 21
5.659109
 31
0.0
  0
LINE
  8
0
 62
     0
 10
15.806602
 20
5.2
 30
0.0
 11
16.202964
 21
5.596363
 31
0.0
  0
LINE
  8
0
 62
     0
 10
15.983378
 20
5.2
 30
0.0
 11
16.312909
 21
5.529531
 31
0.0
  0
LINE
  8
0
 62
     0
 10
16.160155
 20
5.2
 30
0.0
 11
16.418895
 21
5.45874
 31
0.0
  0
LINE
  8
0
 62
     0
 10
16.336932
 20
5.2
 30
0.0
 11
16.521021
 21
5.384089
 31
0.0
  0
LINE
  8
0
 62
     0
 10
16.513708
 20
5.2
 30
0.0
 11
16.619363
 21
5.305655
 31
0.0
  0
LINE
  8
0
 62
     0
 10
16.690485
 20
5.2
 30
0.0
 11
16.713975
 21
5.22349
 31
0.0
  0
ENDBLK
  8
0
  0
BLOCK
  8
0
  2
*X29
 70
    65
 10
0.0
 20
0.0
 30
0.0
  3
*X
  0
LINE
  8
0
 62
     0
 10
13.9
 20
0.818525
 30
0.0
 11
17.39645
 21
4.314974
 31
0.0
  0
LINE
  8
0
 62
     0
 10
13.9
 20
0.995301
 30
0.0
 11
17.336354
 21
4.431655
 31
0.0
  0
LINE
  8
0
 62
     0
 10
13.9
 20
1.172078
 30
0.0
 11
17.272078
 21
4.544156
 31
0.0
  0
LINE
  8
0
 62
     0
 10
13.9
 20
1.348855
 30
0.0
 11
17.203766
 21
4.652621
 31
0.0
  0
LINE
  8
0
 62
     0
 10
13.9
 20
1.525631
 30
0.0
 11
17.131535
 21
4.757167
 31
0.0
  0
LINE
  8
0
 62
     0
 10
13.9
 20
1.702408
 30
0.0
 11
16.997592
 21
4.8
 31
0.0
  0
LINE
  8
0
 62
     0
 10
13.9
 20
1.879185
 30
0.0
 11
16.820815
 21
4.8
 31
0.0
  0
LINE
  8
0
 62
     0
 10
13.9
 20
2.055961
 30
0.0
 11
16.644039
 21
4.8
 31
0.0
  0
LINE
  8
0
 62
     0
 10
13.9
 20
2.232738
 30
0.0
 11
16.467262
 21
4.8
 31
0.0
  0
LINE
  8
0
 62
     0
 10
13.9
 20
2.409515
 30
0.0
 11
16.290485
 21
4.8
 31
0.0
  0
LINE
  8
0
 62
     0
 10
13.9
 20
2.586292
 30
0.0
 11
16.113708
 21
4.8
 31
0.0
  0
LINE
  8
0
 62
     0
 10
13.9
 20
2.763068
 30
0.0
 11
15.936932
 21
4.8
 31
0.0
  0
LINE
  8
0
 62
     0
 10
13.9
 20
2.939845
 30
0.0
 11
15.760155
 21
4.8
 31
0.0
  0
LINE
  8
0
 62
     0
 10
13.9
 20
3.116622
 30
0.0
 11
15.583378
 21
4.8
 31
0.0
  0
LINE
  8
0
 62
     0
 10
13.9
 20
3.293398
 30
0.0
 11
15.406602
 21
4.8
 31
0.0
  0
LINE
  8
0
 62
     0
 10
13.9
 20
3.470175
 30
0.0
 11
15.229825
 21
4.8
 31
0.0
  0
LINE
  8
0
 62
     0
 10
13.9
 20
3.646952
 30
0.0
 11
15.053048
 21
4.8
 31
0.0
  0
LINE
  8
0
 62
     0
 10
13.9
 20
3.823728
 30
0.0
 11
14.876272
 21
4.8
 31
0.0
  0
LINE
  8
0
 62
     0
 10
13.9
 20
4.000505
 30
0.0
 11
14.699495
 21
4.8
 31
0.0
  0
LINE
  8
0
 62
     0
 10
13.9
 20
4.177282
 30
0.0
 11
14.522718
 21
4.8
 31
0.0
  0
LINE
  8
0
 62
     0
 10
13.9
 20
4.354058
 30
0.0
 11
14.345942
 21
4.8
 31
0.0
  0
LINE
  8
0
 62
     0
 10
13.9
 20
4.530835
 30
0.0
 11
14.169165
 21
4.8
 31
0.0
  0
LINE
  8
0
 62
     0
 10
13.9
 20
4.707612
 30
0.0
 11
13.992388
 21
4.8
 31
0.0
  0
LINE
  8
0
 62
     0
 10
13.9
 20
0.641748
 30
0.0
 11
17.452185
 21
4.193933
 31
0.0
  0
LINE
  8
0
 62
     0
 10
13.9
 20
0.464971
 30
0.0
 11
17.503339
 21
4.068311
 31
0.0
  0
LINE
  8
0
 62
     0
 10
13.9
 20
0.288194
 30
0.0
 11
17.549642
 21
3.937837
 31
0.0
  0
LINE
  8
0
 62
     0
 10
13.9
 20
0.111418
 30
0.0
 11
17.590762
 21
3.80218
 31
0.0
  0
LINE
  8
0
 62
     0
 10
13.965359
 20
0.0
 30
0.0
 11
17.62629
 21
3.660931
 31
0.0
  0
LINE
  8
0
 62
     0
 10
14.142136
 20
0.000001
 30
0.0
 11
17.655713
 21
3.513577
 31
0.0
  0
LINE
  8
0
 62
     0
 10
14.318913
 20
0.000001
 30
0.0
 11
17.678385
 21
3.359473
 31
0.0
  0
LINE
  8
0
 62
     0
 10
14.49569
 20
0.000001
 30
0.0
 11
17.693473
 21
3.197784
 31
0.0
  0
LINE
  8
0
 62
     0
 10
14.672467
 20
0.000002
 30
0.0
 11
17.699875
 21
3.027409
 31
0.0
  0
LINE
  8
0
 62
     0
 10
14.853154
 20
0.003912
 30
0.0
 11
17.696088
 21
2.846846
 31
0.0
  0
LINE
  8
0
 62
     0
 10
15.046044
 20
0.020025
 30
0.0
 11
17.679975
 21
2.653956
 31
0.0
  0
LINE
  8
0
 62
     0
 10
15.254483
 20
0.051687
 30
0.0
 11
17.648313
 21
2.445517
 31
0.0
  0
LINE
  8
0
 62
     0
 10
15.483762
 20
0.10419
 30
0.0
 11
17.59581
 21
2.216238
 31
0.0
  0
LINE
  8
0
 62
     0
 10
15.743786
 20
0.187437
 30
0.0
 11
17.512563
 21
1.956214
 31
0.0
  0
LINE
  8
0
 62
     0
 10
16.058176
 20
0.32505
 30
0.0
 11
17.37495
 21
1.641824
 31
0.0
  0
LINE
  8
0
 62
     0
 10
16.54193
 20
0.632028
 30
0.0
 11
17.067972
 21
1.15807
 31
0.0
  0
ENDBLK
  8
0
  0
BLOCK
  8
0
  2
B507
 70
    64
 10
0.0
 20
0.0
 30
0.0
  3
B507
  0
LINE
  8
0
  6
CONTINUOUS
 10
0.079622
 20
0.147754
 30
0.0
 11
0.079622
 21
-9.002074
 31
0.0
  0
INSERT
  8
0
  6
CONTINUOUS
  2
BLC29
 10
0.212369
 20
-6.641509
 30
0.0
 50
270.0
  0
ENDBLK
  8
0
  0
ENDSEC
  0
SECTION
  2
ENTITIES
  0
INSERT
  8
0
  2
1
 10
65.405438
 20
98.713066
 30
0.0
  0
INSERT
  8
0
  2
1
 10
72.541652
 20
49.71056
 30
0.0
  0
INSERT
  8
0
  2
1
 10
85.390443
 20
73.497234
 30
0.0
  0
LINE
  8
0
  6
CENTER
 62
     7
 10
250.0
 20
195.0
 30
0.0
 11
250.0
 21
87.5
 31
0.0
  0
LINE
  8
0
  6
CENTER
 62
     7
 10
250.0
 20
87.5
 30
0.0
 11
250.0
 21
57.5
 31
0.0
  0
LINE
  8
0
  6
CONTINUOUS
 62
     7
 10
210.450615
 20
187.209828
 30
0.0
 11
210.450615
 21
130.0
 31
0.0
  0
LINE
  8
0
  6
CONTINUOUS
 62
     7
 10
210.450615
 20
215.0
 30
0.0
 11
210.450615
 21
187.18832
 31
0.0
  0
LINE
  8
0
  6
CENTER
 62
     7
 10
250.0
 20
217.5
 30
0.0
 11
250.0
 21
195.0
 31
0.0
  0
LINE
  8
0
  6
CONTINUOUS
 62
     7
 10
180.0
 20
130.0
 30
0.0
 11
210.450615
 21
130.0
 31
0.0
  0
LINE
  8
0
  6
CONTINUOUS
 62
     7
 10
200.0
 20
130.0
 30
0.0
 11
200.0
 21
215.0
 31
0.0
  0
LINE
  8
0
  6
CONTINUOUS
 62
     7
 10
180.0
 20
200.0
 30
0.0
 11
180.0
 21
185.0
 31
0.0
  0
LINE
  8
0
  6
CONTINUOUS
 62
     7
 10
180.0
 20
200.0
 30
0.0
 11
180.0
 21
215.0
 31
0.0
  0
LINE
  8
0
  6
CONTINUOUS
 62
     7
 10
180.0
 20
185.0
 30
0.0
 11
180.0
 21
130.0
 31
0.0
  0
LINE
  8
0
  6
CENTER
 62
     7
 10
40.0
 20
242.5
 30
0.0
 11
40.0
 21
57.5
 31
0.0
  0
LINE
  8
0
  6
CONTINUOUS
 62
     7
 10
75.0
 20
122.5
 30
0.0
 11
69.256076
 21
119.285297
 31
0.0
  0
LINE
  8
0
  6
CONTINUOUS
 62
     7
 10
75.0
 20
122.5
 30
0.0
 11
77.5
 21
122.5
 31
0.0
  0
LINE
  8
0
  6
CONTINUOUS
 62
     7
 10
70.0
 20
122.5
 30
0.0
 11
40.0
 21
122.5
 31
0.0
  0
LINE
  8
0
  6
DASHED
 62
     7
 10
55.0
 20
137.5
 30
0.0
 11
55.0
 21
131.100824
 31
0.0
  0
LINE
  8
0
  6
DASHED
 62
     7
 10
72.5
 20
135.0
 30
0.0
 11
72.5
 21
121.100824
 31
0.0
  0
LINE
  8
0
  6
DASHED
 62
     7
 10
85.0
 20
135.0
 30
0.0
 11
85.0
 21
106.100824
 31
0.0
  0
LINE
  8
0
  6
DASHED
 62
     7
 10
97.5
 20
135.0
 30
0.0
 11
97.5
 21
91.100824
 31
0.0
  0
LINE
  8
0
  6
DASHED
 62
     7
 10
107.5
 20
112.5
 30
0.0
 11
107.5
 21
76.100824
 31
0.0
  0
TEXT
  8
0
  6
DASHED
 62
     7
 10
50.697373
 20
133.403492
 30
0.0
 40
2.0
  1
A
  7
ROMANS
  0
TEXT
  8
0
  6
DASHED
 62
     7
 10
69.143373
 20
123.774588
 30
0.0
 40
2.0
  1
B
  7
ROMANS
  0
TEXT
  8
0
  6
DASHED
 62
     7
 10
81.055109
 20
108.134364
 30
0.0
 40
2.0
  1
C
  7
ROMANS
  0
TEXT
  8
0
  6
DASHED
 62
     7
 10
93.484014
 20
93.255752
 30
0.0
 40
2.0
  1
D
  7
ROMANS
  0
TEXT
  8
0
  6
DASHED
 62
     7
 10
103.171573
 20
78.364654
 30
0.0
 40
2.0
  1
E
  7
ROMANS
  0
LINE
  8
0
  6
CENTER
 62
     7
 10
40.0
 20
57.5
 30
0.0
 11
250.0
 21
57.5
 31
0.0
  0
LINE
  8
0
  6
CONTINUOUS
 62
     7
 10
230.0
 20
167.5
 30
0.0
 11
231.0
 21
166.5
 31
0.0
  0
LINE
  8
0
  6
CONTINUOUS
 62
     7
 10
230.0
 20
212.5
 30
0.0
 11
231.0
 21
213.5
 31
0.0
  0
LINE
  8
0
  6
CONTINUOUS
 62
     7
 10
230.0
 20
212.5
 30
0.0
 11
230.0
 21
167.5
 31
0.0
  0
LINE
  8
0
  6
CENTER
 62
     7
 10
250.0
 20
217.5
 30
0.0
 11
250.0
 21
242.5
 31
0.0
  0
LINE
  8
0
  6
CENTER
 62
     7
 10
250.0
 20
242.5
 30
0.0
 11
40.0
 21
242.5
 31
0.0
  0
LINE
  8
0
  6
CONTINUOUS
 62
     7
 10
25.0
 20
107.5
 30
0.0
 11
25.0
 21
97.499655
 31
0.0
  0
LINE
  8
0
  6
CONTINUOUS
 62
     7
 10
25.0
 20
107.5
 30
0.0
 11
26.0
 21
108.5
 31
0.0
  0
LINE
  8
0
  6
CONTINUOUS
 62
     7
 10
25.0
 20
97.499655
 30
0.0
 11
26.0
 21
96.499655
 31
0.0
  0
TEXT
  8
0
  6
CONTINUOUS
 62
     7
 10
20.0
 20
131.534374
 30
0.0
 40
2.0
  1
3)
  7
ROMANS
  0
TEXT
  8
0
  6
CONTINUOUS
 62
     7
 10
20.0
 20
118.829878
 30
0.0
 40
2.0
  1
4)
  7
ROMANS
  0
TEXT
  8
0
  6
CONTINUOUS
 62
     7
 10
20.0
 20
101.238118
 30
0.0
 40
2.0
  1
5)
  7
ROMANS
  0
TEXT
  8
0
  6
CONTINUOUS
 62
     7
 10
20.0
 20
79.300652
 30
0.0
 40
2.0
  1
6)
  7
ROMANS
  0
LINE
  8
0
  6
CONTINUOUS
 62
     7
 10
180.0
 20
155.0
 30
0.0
 11
210.450615
 21
155.0
 31
0.0
  0
LINE
  8
0
  6
CONTINUOUS
 62
     7
 10
107.5
 20
120.0
 30
0.0
 11
107.5
 21
112.5
 31
0.0
  0
TEXT
  8
0
 62
     7
 10
345.447956
 20
83.338465
 30
0.0
 40
2.0
  1
TERMINALS / UTTAG
  7
ROMANS
 11
345.447956
 21
82.671798
 31
0.0
 73
     1
  0
LINE
  8
0
 62
     7
 10
353.50882
 20
58.564865
 30
0.0
 11
383.50882
 21
58.564865
 31
0.0
  0
LINE
  8
0
 62
     7
 10
368.735242
 20
82.671798
 30
0.0
 11
368.735242
 21
41.519587
 31
0.0
  0
LINE
  8
0
 62
     7
 10
353.50882
 20
82.671798
 30
0.0
 11
353.50882
 21
41.519587
 31
0.0
  0
LINE
  8
0
 62
     7
 10
339.50882
 20
82.671798
 30
0.0
 11
383.50882
 21
82.671798
 31
0.0
  0
LINE
  8
0
 62
     7
 10
383.50882
 20
41.519587
 30
0.0
 11
383.50882
 21
88.671798
 31
0.0
  0
LINE
  8
0
 62
     7
 10
339.50882
 20
88.671798
 30
0.0
 11
339.50882
 21
41.519587
 31
0.0
  0
LINE
  8
0
  6
CONTINUOUS
 62
     7
 10
339.50882
 20
41.519587
 30
0.0
 11
383.50882
 21
41.519587
 31
0.0
  0
LINE
  8
0
  6
CONTINUOUS
 62
     7
 10
198.834541
 20
202.48981
 30
0.0
 11
198.834541
 21
200.701678
 31
0.0
  0
LINE
  8
0
  6
CONTINUOUS
 62
     7
 10
193.435021
 20
200.476928
 30
0.0
 11
196.311132
 21
203.305487
 31
0.0
  0
ARC
  8
0
  6
HIDDEN
 62
     7
 10
197.745745
 20
205.573075
 30
0.0
 40
4.998196
 50
206.402922
 51
282.21115
  0
LINE
  8
0
  6
CONTINUOUS
 62
     7
 10
195.880429
 20
203.842694
 30
0.0
 11
196.781105
 21
202.718945
 31
0.0
  0
LINE
  8
0
  6
CONTINUOUS
 62
     7
 10
191.050877
 20
201.644531
 30
0.0
 11
198.839082
 21
201.644531
 31
0.0
  0
LINE
  8
0
  6
CONTINUOUS
 62
     7
 10
191.019845
 20
202.48981
 30
0.0
 11
191.019845
 21
200.701678
 31
0.0
  0
LINE
  8
0
  6
HIDDEN
 62
     7
 10
180.0
 20
195.0
 30
0.0
 11
200.0
 21
195.0
 31
0.0
  0
TEXT
  8
0
  6
CONTINUOUS
 62
     7
 10
181.270128
 20
185.862088
 30
0.0
 40
2.5
  1
I
 11
181.270128
 21
185.028755
 31
0.0
 73
     1
  0
LINE
  8
0
  6
CONTINUOUS
 62
     7
 10
186.909947
 20
187.064692
 30
0.0
 11
184.564181
 21
185.874773
 31
0.0
  0
LINE
  8
0
  6
CONTINUOUS
 62
     7
 10
184.564181
 20
188.400046
 30
0.0
 11
186.909947
 21
187.064692
 31
0.0
  0
LINE
  8
0
  6
CONTINUOUS
 62
     7
 10
185.178827
 20
187.064692
 30
0.0
 11
182.833062
 21
185.874773
 31
0.0
  0
LINE
  8
0
  6
CONTINUOUS
 62
     7
 10
182.833062
 20
188.400046
 30
0.0
 11
185.178827
 21
187.064692
 31
0.0
  0
LINE
  8
0
  6
CONTINUOUS
 62
     7
 10
198.834995
 20
187.63757
 30
0.0
 11
198.834995
 21
185.849439
 31
0.0
  0
LINE
  8
0
  6
CONTINUOUS
 62
     7
 10
193.435476
 20
185.624689
 30
0.0
 11
196.311586
 21
188.453248
 31
0.0
  0
LINE
  8
0
  6
CONTINUOUS
 62
     7
 10
195.880883
 20
188.990455
 30
0.0
 11
196.78156
 21
187.866706
 31
0.0
  0
LINE
  8
0
  6
CONTINUOUS
 62
     7
 10
191.051331
 20
186.792292
 30
0.0
 11
198.839536
 21
186.792292
 31
0.0
  0
LINE
  8
0
  6
CONTINUOUS
 62
     7
 10
191.020299
 20
187.63757
 30
0.0
 11
191.020299
 21
185.849439
 31
0.0
  0
LINE
  8
0
  6
HIDDEN
 62
     7
 10
180.0
 20
200.0
 30
0.0
 11
200.0
 21
200.0
 31
0.0
  0
LINE
  8
0
  6
CONTINUOUS
 62
     7
 10
182.833062
 20
198.730934
 30
0.0
 11
185.178827
 21
197.395581
 31
0.0
  0
LINE
  8
0
  6
CONTINUOUS
 62
     7
 10
185.178827
 20
197.395581
 30
0.0
 11
182.833062
 21
196.205662
 31
0.0
  0
LINE
  8
0
  6
CONTINUOUS
 62
     7
 10
184.564181
 20
198.730934
 30
0.0
 11
186.909947
 21
197.395581
 31
0.0
  0
LINE
  8
0
  6
CONTINUOUS
 62
     7
 10
186.909947
 20
197.395581
 30
0.0
 11
184.564181
 21
196.205662
 31
0.0
  0
TEXT
  8
0
  6
CONTINUOUS
 62
     7
 10
181.270128
 20
196.192977
 30
0.0
 40
2.5
  1
I
 11
181.270128
 21
195.359644
 31
0.0
 73
     1
  0
LINE
  8
0
  6
HIDDEN
 62
     7
 10
180.0
 20
210.0
 30
0.0
 11
200.0
 21
210.0
 31
0.0
  0
TEXT
  8
0
  6
CONTINUOUS
 62
     7
 10
181.270128
 20
200.531635
 30
0.0
 40
2.5
  1
I
 11
181.270128
 21
199.698301
 31
0.0
 73
     1
  0
LINE
  8
0
  6
CONTINUOUS
 62
     7
 10
186.406117
 20
201.734238
 30
0.0
 11
184.060351
 21
200.544319
 31
0.0
  0
LINE
  8
0
  6
CONTINUOUS
 62
     7
 10
184.060351
 20
203.069592
 30
0.0
 11
186.406117
 21
201.734238
 31
0.0
  0
LINE
  8
0
  6
CONTINUOUS
 62
     7
 10
189.900936
 20
204.960055
 30
0.0
 11
192.400936
 21
204.960055
 31
0.0
  0
LINE
  8
0
  6
CONTINUOUS
 62
     7
 10
189.900936
 20
204.960055
 30
0.0
 11
187.676489
 21
204.399413
 31
0.0
  0
LINE
  8
0
  6
CONTINUOUS
 62
     7
 10
184.900936
 20
204.960055
 30
0.0
 11
187.400936
 21
204.960055
 31
0.0
  0
TEXT
  8
0
  6
HIDDEN
 62
     7
 10
181.080478
 20
204.226807
 30
0.0
 40
1.5
  1
EN
  0
CIRCLE
  8
0
  6
CONTINUOUS
 62
     7
 10
179.012659
 20
207.994509
 30
0.0
 40
1.0
  0
LINE
  8
0
  6
CONTINUOUS
 62
     7
 10
178.01273
 20
208.000813
 30
0.0
 11
65.0
 21
208.000813
 31
0.0
  0
LINE
  8
0
  6
CONTINUOUS
 62
     7
 10
180.0
 20
215.0
 30
0.0
 11
210.450615
 21
215.0
 31
0.0
  0
LINE
  8
0
  6
CONTINUOUS
 62
     7
 10
184.060351
 20
213.279314
 30
0.0
 11
186.406117
 21
211.94396
 31
0.0
  0
LINE
  8
0
  6
CONTINUOUS
 62
     7
 10
186.406117
 20
211.94396
 30
0.0
 11
184.060351
 21
210.754041
 31
0.0
  0
TEXT
  8
0
  6
CONTINUOUS
 62
     7
 10
181.270128
 20
210.741357
 30
0.0
 40
2.5
  1
I
 11
181.270128
 21
209.908023
 31
0.0
 73
     1
  0
TEXT
  8
0
  6
CONTINUOUS
 62
     7
 10
205.0
 20
210.0
 30
0.0
 40
2.5
  1
U1
  7
ROMANS
  0
TEXT
  8
0
  6
DASHED
 62
     7
 10
202.077439
 20
198.915137
 30
0.0
 40
2.5
  1
3I
  0
LINE
  8
0
  6
CONTINUOUS
 62
     7
 10
206.48466
 20
201.463417
 30
0.0
 11
208.830425
 21
200.128063
 31
0.0
  0
LINE
  8
0
  6
CONTINUOUS
 62
     7
 10
208.830425
 20
200.128063
 30
0.0
 11
206.48466
 21
198.938144
 31
0.0
  0
LINE
  8
0
  6
CONTINUOUS
 62
     7
 10
52.798812
 20
215.0
 30
0.0
 11
47.5
 21
215.0
 31
0.0
  0
LINE
  8
0
  6
CONTINUOUS
 62
     7
 10
52.798812
 20
220.0
 30
0.0
 11
40.0
 21
220.0
 31
0.0
  0
LINE
  8
0
 62
     7
 10
52.798812
 20
221.589925
 30
0.0
 11
52.798812
 21
213.4
 31
0.0
  0
LINE
  8
0
 62
     7
 10
57.004853
 20
221.59384
 30
0.0
 11
55.09105
 21
219.315018
 31
0.0
  0
LINE
  8
0
 62
     7
 10
58.496971
 20
221.59384
 30
0.0
 11
56.642636
 21
219.315018
 31
0.0
  0
LINE
  8
0
 62
     7
 10
60.221556
 20
221.589925
 30
0.0
 11
52.798812
 21
221.589925
 31
0.0
  0
LINE
  8
0
 62
     7
 10
60.221556
 20
213.4
 30
0.0
 11
60.221556
 21
221.589925
 31
0.0
  0
LINE
  8
0
  6
CONTINUOUS
 62
     7
 10
60.221556
 20
217.5
 30
0.0
 11
65.0
 21
217.5
 31
0.0
  0
LINE
  8
0
  6
CONTINUOUS
 62
     7
 10
60.221556
 20
210.0
 30
0.0
 11
65.0
 21
210.0
 31
0.0
  0
LINE
  8
0
 62
     7
 10
60.221556
 20
206.204212
 30
0.0
 11
60.221556
 21
214.089925
 31
0.0
  0
LINE
  8
0
 62
     7
 10
60.221556
 20
213.704212
 30
0.0
 11
52.798812
 21
213.704212
 31
0.0
  0
LINE
  8
0
 62
     7
 10
58.496971
 20
213.708127
 30
0.0
 11
56.642636
 21
211.429305
 31
0.0
  0
LINE
  8
0
 62
     7
 10
57.004853
 20
213.708127
 30
0.0
 11
55.09105
 21
211.429305
 31
0.0
  0
LINE
  8
0
 62
     7
 10
52.798812
 20
214.089925
 30
0.0
 11
52.798812
 21
206.204212
 31
0.0
  0
LINE
  8
0
  6
CONTINUOUS
 62
     7
 10
52.798812
 20
212.5
 30
0.0
 11
40.0
 21
212.5
 31
0.0
  0
LINE
  8
0
  6
CONTINUOUS
 62
     7
 10
52.798812
 20
207.5
 30
0.0
 11
47.5
 21
207.5
 31
0.0
  0
LINE
  8
0
 62
     7
 10
60.221556
 20
206.204212
 30
0.0
 11
52.798812
 21
206.204212
 31
0.0
  0
LINE
  8
0
  6
CONTINUOUS
 62
     7
 10
222.950615
 20
95.0
 30
0.0
 11
230.0
 21
95.0
 31
0.0
  0
LINE
  8
0
  6
CONTINUOUS
 62
     7
 10
107.5
 20
127.5
 30
0.0
 11
107.5
 21
119.999975
 31
0.0
  0
LINE
  8
0
 62
     7
 10
235.0
 20
167.5
 30
0.0
 11
233.480133
 21
167.5
 31
0.0
  0
ARC
  8
0
 62
     7
 10
235.065849
 20
168.75
 30
0.0
 40
1.251733
 50
266.984476
 51
93.015524
  0
LINE
  8
0
 62
     7
 10
235.0
 20
170.0
 30
0.0
 11
233.480133
 21
170.0
 31
0.0
  0
LINE
  8
0
 62
     7
 10
235.0
 20
172.5
 30
0.0
 11
233.480133
 21
172.5
 31
0.0
  0
ARC
  8
0
 62
     7
 10
235.065849
 20
171.25
 30
0.0
 40
1.251733
 50
266.984476
 51
93.015524
  0
LINE
  8
0
 62
     7
 10
240.0
 20
165.0
 30
0.0
 11
242.5
 21
165.0
 31
0.0
  0
ARC
  8
0
 62
     7
 10
239.934151
 20
166.25
 30
0.0
 40
1.251733
 50
86.984476
 51
273.015524
  0
ARC
  8
0
 62
     7
 10
239.934151
 20
168.75
 30
0.0
 40
1.251733
 50
86.984476
 51
273.015524
  0
LINE
  8
0
 62
     7
 10
240.0
 20
167.5
 30
0.0
 11
242.5
 21
167.5
 31
0.0
  0
LINE
  8
0
 62
     7
 10
240.0
 20
170.0
 30
0.0
 11
242.5
 21
170.0
 31
0.0
  0
LINE
  8
0
 62
     7
 10
242.5
 20
170.0
 30
0.0
 11
245.0
 21
170.0
 31
0.0
  0
LINE
  8
0
 62
     7
 10
242.5
 20
165.0
 30
0.0
 11
250.0
 21
165.0
 31
0.0
  0
LINE
  8
0
 62
     7
 10
242.5
 20
170.0
 30
0.0
 11
250.0
 21
170.0
 31
0.0
  0
LINE
  8
0
 62
     7
 10
242.5
 20
175.0
 30
0.0
 11
250.0
 21
175.0
 31
0.0
  0
LINE
  8
0
 62
     7
 10
240.0
 20
175.0
 30
0.0
 11
242.5
 21
175.0
 31
0.0
  0
LINE
  8
0
 62
     7
 10
240.0
 20
172.5
 30
0.0
 11
242.5
 21
172.5
 31
0.0
  0
ARC
  8
0
 62
     7
 10
239.934151
 20
173.75
 30
0.0
 40
1.251733
 50
86.984476
 51
273.015524
  0
ARC
  8
0
 62
     7
 10
239.934151
 20
171.25
 30
0.0
 40
1.251733
 50
86.984476
 51
273.015524
  0
LINE
  8
0
 62
     7
 10
240.0
 20
170.0
 30
0.0
 11
242.5
 21
170.0
 31
0.0
  0
LINE
  8
0
 62
     7
 10
235.0
 20
187.5
 30
0.0
 11
233.480133
 21
187.5
 31
0.0
  0
ARC
  8
0
 62
     7
 10
235.065849
 20
188.75
 30
0.0
 40
1.251733
 50
266.984476
 51
93.015524
  0
LINE
  8
0
 62
     7
 10
235.0
 20
190.0
 30
0.0
 11
233.480133
 21
190.0
 31
0.0
  0
LINE
  8
0
 62
     7
 10
235.0
 20
192.5
 30
0.0
 11
233.480133
 21
192.5
 31
0.0
  0
ARC
  8
0
 62
     7
 10
235.065849
 20
191.25
 30
0.0
 40
1.251733
 50
266.984476
 51
93.015524
  0
LINE
  8
0
 62
     7
 10
240.0
 20
185.0
 30
0.0
 11
242.5
 21
185.0
 31
0.0
  0
ARC
  8
0
 62
     7
 10
239.934151
 20
186.25
 30
0.0
 40
1.251733
 50
86.984476
 51
273.015524
  0
ARC
  8
0
 62
     7
 10
239.934151
 20
188.75
 30
0.0
 40
1.251733
 50
86.984476
 51
273.015524
  0
LINE
  8
0
 62
     7
 10
240.0
 20
187.5
 30
0.0
 11
242.5
 21
187.5
 31
0.0
  0
LINE
  8
0
 62
     7
 10
240.0
 20
190.0
 30
0.0
 11
242.5
 21
190.0
 31
0.0
  0
LINE
  8
0
 62
     7
 10
242.5
 20
190.0
 30
0.0
 11
245.0
 21
190.0
 31
0.0
  0
LINE
  8
0
 62
     7
 10
242.5
 20
185.0
 30
0.0
 11
250.0
 21
185.0
 31
0.0
  0
LINE
  8
0
 62
     7
 10
242.5
 20
190.0
 30
0.0
 11
250.0
 21
190.0
 31
0.0
  0
LINE
  8
0
 62
     7
 10
242.5
 20
195.0
 30
0.0
 11
250.0
 21
195.0
 31
0.0
  0
LINE
  8
0
 62
     7
 10
240.0
 20
195.0
 30
0.0
 11
242.5
 21
195.0
 31
0.0
  0
LINE
  8
0
 62
     7
 10
240.0
 20
192.5
 30
0.0
 11
242.5
 21
192.5
 31
0.0
  0
ARC
  8
0
 62
     7
 10
239.934151
 20
193.75
 30
0.0
 40
1.251733
 50
86.984476
 51
273.015524
  0
ARC
  8
0
 62
     7
 10
239.934151
 20
191.25
 30
0.0
 40
1.251733
 50
86.984476
 51
273.015524
  0
LINE
  8
0
 62
     7
 10
240.0
 20
190.0
 30
0.0
 11
242.5
 21
190.0
 31
0.0
  0
LINE
  8
0
 62
     7
 10
235.0
 20
207.5
 30
0.0
 11
233.480133
 21
207.5
 31
0.0
  0
ARC
  8
0
 62
     7
 10
235.065849
 20
208.75
 30
0.0
 40
1.251733
 50
266.984476
 51
93.015524
  0
LINE
  8
0
 62
     7
 10
235.0
 20
210.0
 30
0.0
 11
233.480133
 21
210.0
 31
0.0
  0
LINE
  8
0
 62
     7
 10
235.0
 20
212.5
 30
0.0
 11
233.480133
 21
212.5
 31
0.0
  0
ARC
  8
0
 62
     7
 10
235.065849
 20
211.25
 30
0.0
 40
1.251733
 50
266.984476
 51
93.015524
  0
LINE
  8
0
 62
     7
 10
240.0
 20
205.0
 30
0.0
 11
242.5
 21
205.0
 31
0.0
  0
ARC
  8
0
 62
     7
 10
239.934151
 20
206.25
 30
0.0
 40
1.251733
 50
86.984476
 51
273.015524
  0
ARC
  8
0
 62
     7
 10
239.934151
 20
208.75
 30
0.0
 40
1.251733
 50
86.984476
 51
273.015524
  0
LINE
  8
0
 62
     7
 10
240.0
 20
207.5
 30
0.0
 11
242.5
 21
207.5
 31
0.0
  0
LINE
  8
0
 62
     7
 10
240.0
 20
210.0
 30
0.0
 11
242.5
 21
210.0
 31
0.0
  0
LINE
  8
0
 62
     7
 10
242.5
 20
210.0
 30
0.0
 11
245.0
 21
210.0
 31
0.0
  0
LINE
  8
0
 62
     7
 10
242.5
 20
205.0
 30
0.0
 11
250.0
 21
205.0
 31
0.0
  0
LINE
  8
0
 62
     7
 10
242.5
 20
210.0
 30
0.0
 11
245.0
 21
210.0
 31
0.0
  0
LINE
  8
0
 62
     7
 10
242.5
 20
215.0
 30
0.0
 11
245.0
 21
215.0
 31
0.0
  0
LINE
  8
0
 62
     7
 10
240.0
 20
215.0
 30
0.0
 11
250.0
 21
215.0
 31
0.0
  0
LINE
  8
0
 62
     7
 10
240.0
 20
212.5
 30
0.0
 11
242.5
 21
212.5
 31
0.0
  0
ARC
  8
0
 62
     7
 10
239.934151
 20
213.75
 30
0.0
 40
1.251733
 50
86.984476
 51
273.015524
  0
ARC
  8
0
 62
     7
 10
239.934151
 20
211.25
 30
0.0
 40
1.251733
 50
86.984476
 51
273.015524
  0
LINE
  8
0
 62
     7
 10
240.0
 20
210.0
 30
0.0
 11
250.0
 21
210.0
 31
0.0
  0
TEXT
  8
0
  6
CONTINUOUS
 62
     7
 10
246.572566
 20
212.163714
 30
0.0
 40
2.0
  1
3
  7
ROMANS
  0
TEXT
  8
0
  6
CONTINUOUS
 62
     7
 10
246.572566
 20
207.199365
 30
0.0
 40
2.0
  1
2
  7
ROMANS
  0
TEXT
  8
0
  6
CONTINUOUS
 62
     7
 10
246.572566
 20
202.246037
 30
0.0
 40
2.0
  1
1
  7
ROMANS
  0
TEXT
  8
0
  6
CONTINUOUS
 62
     7
 10
246.572566
 20
172.106638
 30
0.0
 40
2.0
  1
9
  7
ROMANS
  0
TEXT
  8
0
  6
CONTINUOUS
 62
     7
 10
246.572566
 20
167.505961
 30
0.0
 40
2.0
  1
8
  7
ROMANS
  0
TEXT
  8
0
  6
CONTINUOUS
 62
     7
 10
246.572566
 20
162.001615
 30
0.0
 40
2.0
  1
7
  7
ROMANS
  0
LINE
  8
0
  6
HIDDEN
 62
     7
 10
250.0
 20
220.0
 30
0.0
 11
245.0
 21
220.0
 31
0.0
  0
LINE
  8
0
  6
HIDDEN
 62
     7
 10
245.0
 20
220.0
 30
0.0
 11
245.0
 21
65.0
 31
0.0
  0
LINE
  8
0
  6
HIDDEN
 62
     7
 10
245.0
 20
65.0
 30
0.0
 11
250.0
 21
65.0
 31
0.0
  0
TEXT
  8
0
  6
HIDDEN
 62
     7
 10
245.929881
 20
216.186149
 30
0.0
 40
2.0
  1
X0
  7
ROMANS
  0
LINE
  8
0
  6
CONTINUOUS
 62
     7
 10
210.450615
 20
200.0
 30
0.0
 11
222.5
 21
200.0
 31
0.0
  0
LINE
  8
0
  6
CONTINUOUS
 62
     7
 10
215.0
 20
200.0
 30
0.0
 11
215.0
 21
57.5
 31
0.0
  0
LINE
  8
0
  6
CONTINUOUS
 62
     7
 10
230.0
 20
190.0
 30
0.0
 11
222.5
 21
190.0
 31
0.0
  0
LINE
  8
0
  6
DASHED
 62
     7
 10
40.0
 20
220.0
 30
0.0
 11
32.5
 21
220.0
 31
0.0
  0
LINE
  8
0
  6
DASHED
 62
     7
 10
40.0
 20
212.5
 30
0.0
 11
32.5
 21
212.5
 31
0.0
  0
LINE
  8
0
  6
DASHED
 62
     7
 10
40.0
 20
207.5
 30
0.0
 11
32.5
 21
207.5
 31
0.0
  0
LINE
  8
0
  6
CONTINUOUS
 62
     7
 10
22.5
 20
207.499655
 30
0.0
 11
23.5
 21
206.499655
 31
0.0
  0
LINE
  8
0
  6
CONTINUOUS
 62
     7
 10
22.5
 20
220.0
 30
0.0
 11
23.5
 21
221.0
 31
0.0
  0
LINE
  8
0
  6
CONTINUOUS
 62
     7
 10
22.5
 20
220.0
 30
0.0
 11
22.5
 21
207.499655
 31
0.0
  0
LINE
  8
0
  6
DASHED
 62
     7
 10
40.0
 20
107.5
 30
0.0
 11
27.5
 21
107.5
 31
0.0
  0
LINE
  8
0
  6
DASHED
 62
     7
 10
40.0
 20
97.5
 30
0.0
 11
27.5
 21
97.5
 31
0.0
  0
LINE
  8
0
  6
DASHED
 62
     7
 10
40.0
 20
92.5
 30
0.0
 11
27.5
 21
92.5
 31
0.0
  0
LINE
  8
0
  6
DASHED
 62
     7
 10
40.0
 20
82.5
 30
0.0
 11
27.5
 21
82.5
 31
0.0
  0
LINE
  8
0
  6
DASHED
 62
     7
 10
40.0
 20
77.5
 30
0.0
 11
27.5
 21
77.5
 31
0.0
  0
LINE
  8
0
  6
CONTINUOUS
 62
     7
 10
25.0
 20
92.5
 30
0.0
 11
26.0
 21
93.5
 31
0.0
  0
LINE
  8
0
  6
CONTINUOUS
 62
     7
 10
25.0
 20
67.499655
 30
0.0
 11
26.0
 21
66.499655
 31
0.0
  0
LINE
  8
0
  6
CONTINUOUS
 62
     7
 10
25.0
 20
92.5
 30
0.0
 11
25.0
 21
67.499655
 31
0.0
  0
LINE
  8
0
  6
CONTINUOUS
 62
     7
 10
373.227984
 20
204.473716
 30
0.0
 11
373.227984
 21
211.973716
 31
0.0
  0
LINE
  8
0
  6
CONTINUOUS
 62
     7
 10
353.227984
 20
214.473716
 30
0.0
 11
373.227984
 21
214.473716
 31
0.0
  0
LINE
  8
0
  6
CONTINUOUS
 62
     7
 10
353.227984
 20
211.973716
 30
0.0
 11
353.227984
 21
204.473716
 31
0.0
  0
LINE
  8
0
  6
CONTINUOUS
 62
     7
 10
360.685823
 20
211.269897
 30
0.0
 11
365.178973
 21
211.269897
 31
0.0
  0
TEXT
  8
0
  6
CONTINUOUS
 62
     7
 10
358.808659
 20
210.353271
 30
0.0
 40
2.0
  1
O
  0
TEXT
  8
0
  6
CONTINUOUS
 62
     7
 10
365.331775
 20
210.34902
 30
0.0
 40
2.0
  1
I
  0
LINE
  8
0
  6
CONTINUOUS
 62
     7
 10
353.227984
 20
211.973716
 30
0.0
 11
353.227984
 21
254.473716
 31
0.0
  0
LINE
  8
0
  6
CONTINUOUS
 62
     7
 10
373.227984
 20
254.473716
 30
0.0
 11
373.227984
 21
211.973716
 31
0.0
  0
LINE
  8
0
  6
CONTINUOUS
 62
     7
 10
353.227984
 20
254.473716
 30
0.0
 11
373.227984
 21
254.473716
 31
0.0
  0
LINE
  8
0
  6
CONTINUOUS
 62
     7
 10
353.227984
 20
234.473716
 30
0.0
 11
373.227984
 21
234.473716
 31
0.0
  0
LINE
  8
0
  6
CONTINUOUS
 62
     7
 10
358.82826
 20
237.525889
 30
0.0
 11
358.82826
 21
235.737757
 31
0.0
  0
LINE
  8
0
  6
CONTINUOUS
 62
     7
 10
358.859291
 20
236.68061
 30
0.0
 11
366.647496
 21
236.68061
 31
0.0
  0
LINE
  8
0
  6
CONTINUOUS
 62
     7
 10
361.243436
 20
235.513008
 30
0.0
 11
364.119546
 21
238.341566
 31
0.0
  0
LINE
  8
0
  6
CONTINUOUS
 62
     7
 10
363.688843
 20
238.878773
 30
0.0
 11
364.58952
 21
237.755024
 31
0.0
  0
LINE
  8
0
  6
CONTINUOUS
 62
     7
 10
366.642955
 20
237.525889
 30
0.0
 11
366.642955
 21
235.737757
 31
0.0
  0
LINE
  8
0
  6
CONTINUOUS
 62
     7
 10
368.375072
 20
241.483276
 30
0.0
 11
366.029306
 21
240.293357
 31
0.0
  0
LINE
  8
0
  6
CONTINUOUS
 62
     7
 10
366.029306
 20
242.81863
 30
0.0
 11
368.375072
 21
241.483276
 31
0.0
  0
LINE
  8
0
  6
CONTINUOUS
 62
     7
 10
364.321088
 20
242.81863
 30
0.0
 11
366.666854
 21
241.483276
 31
0.0
  0
LINE
  8
0
  6
CONTINUOUS
 62
     7
 10
366.666854
 20
241.483276
 30
0.0
 11
364.321088
 21
240.293357
 31
0.0
  0
TEXT
  8
0
  6
DASHED
 62
     7
 10
359.671343
 20
240.256468
 30
0.0
 40
2.5
  1
3I
  0
LINE
  8
0
  6
CONTINUOUS
 62
     7
 10
366.642955
 20
247.179859
 30
0.0
 11
366.642955
 21
245.391728
 31
0.0
  0
LINE
  8
0
  6
CONTINUOUS
 62
     7
 10
361.243436
 20
245.166978
 30
0.0
 11
364.119546
 21
247.995537
 31
0.0
  0
ARC
  8
0
  6
HIDDEN
 62
     7
 10
365.554159
 20
250.263125
 30
0.0
 40
4.998196
 50
206.402922
 51
282.21115
  0
LINE
  8
0
  6
CONTINUOUS
 62
     7
 10
363.688843
 20
248.532744
 30
0.0
 11
364.58952
 21
247.408994
 31
0.0
  0
LINE
  8
0
  6
CONTINUOUS
 62
     7
 10
358.859291
 20
246.334581
 30
0.0
 11
366.647496
 21
246.334581
 31
0.0
  0
LINE
  8
0
  6
CONTINUOUS
 62
     7
 10
358.82826
 20
247.179859
 30
0.0
 11
358.82826
 21
245.391728
 31
0.0
  0
LINE
  8
0
  6
CONTINUOUS
 62
     7
 10
366.424329
 20
251.455116
 30
0.0
 11
364.078563
 21
250.265197
 31
0.0
  0
LINE
  8
0
  6
CONTINUOUS
 62
     7
 10
364.078563
 20
252.79047
 30
0.0
 11
366.424329
 21
251.455116
 31
0.0
  0
TEXT
  8
0
  6
DASHED
 62
     7
 10
359.671343
 20
250.24219
 30
0.0
 40
2.5
  1
3I
  0
LINE
  8
0
  6
CONTINUOUS
 62
     7
 10
363.930299
 20
211.980719
 30
0.0
 11
365.178973
 21
211.269897
 31
0.0
  0
LINE
  8
0
  6
CONTINUOUS
 62
     7
 10
365.178973
 20
211.269897
 30
0.0
 11
363.930299
 21
210.636492
 31
0.0
  0
TEXT
  8
0
  6
CONTINUOUS
 62
     7
 10
356.074498
 20
78.820117
 30
0.0
 40
2.0
  1
In=1A
  7
ROMANS
  0
TEXT
  8
0
  6
CONTINUOUS
 62
     7
 10
342.883098
 20
64.637557
 30
0.0
 40
2.0
  1
L3
  7
ROMANS
  0
TEXT
  8
0
  6
CONTINUOUS
 62
     7
 10
357.23092
 20
64.565595
 30
0.0
 40
2.0
  1
7-9
  7
ROMANS
  0
TEXT
  8
0
  6
CONTINUOUS
 62
     7
 10
372.370919
 20
64.565595
 30
0.0
 40
2.0
  1
7-8
  7
ROMANS
  0
TEXT
  8
0
  6
CONTINUOUS
 62
     7
 10
370.336545
 20
11.978665
 30
0.0
 40
2.0
  1
1/2
  7
ROMANS
  0
LINE
  8
0
 62
     7
 10
353.50882
 20
78.171798
 30
0.0
 11
383.50882
 21
78.171798
 31
0.0
  0
TEXT
  8
0
  6
DASHED
 62
     7
 10
371.077552
 20
78.820117
 30
0.0
 40
2.0
  1
In=5A
  7
ROMANS
  0
TEXT
  8
0
  6
DASHED
 62
     7
 10
342.883098
 20
72.869116
 30
0.0
 40
2.0
  1
L1            
  7
ROMANS
  0
TEXT
  8
0
  6
DASHED
 62
     7
 10
357.195349
 20
72.869116
 30
0.0
 40
2.0
  1
1-3
  7
ROMANS
  0
TEXT
  8
0
  6
DASHED
 62
     7
 10
372.350564
 20
72.869116
 30
0.0
 40
2.0
  1
1-2
  7
ROMANS
  0
TEXT
  8
0
  6
CONTINUOUS
 62
     7
 10
354.206231
 20
59.594715
 30
0.0
 40
2.0
  1
Un=100V
  7
ROMANS
  0
TEXT
  8
0
  6
CONTINUOUS
 62
     7
 10
369.156524
 20
59.594715
 30
0.0
 40
2.0
  1
Un=110V
  7
ROMANS
  0
LINE
  8
0
  6
CONTINUOUS
 62
     7
 10
47.5
 20
207.5
 30
0.0
 11
40.0
 21
207.5
 31
0.0
  0
LINE
  8
0
  6
CONTINUOUS
 62
     7
 10
47.5
 20
215.0
 30
0.0
 11
47.5
 21
207.5
 31
0.0
  0
TEXT
  8
0
  6
HIDDEN
 62
     7
 10
181.080478
 20
207.167847
 30
0.0
 40
1.5
  1
EN
  0
LINE
  8
0
  6
CONTINUOUS
 62
     7
 10
184.900936
 20
207.901095
 30
0.0
 11
187.400936
 21
207.901095
 31
0.0
  0
LINE
  8
0
  6
CONTINUOUS
 62
     7
 10
189.900936
 20
207.901095
 30
0.0
 11
187.676489
 21
207.340453
 31
0.0
  0
LINE
  8
0
  6
CONTINUOUS
 62
     7
 10
189.900936
 20
207.901095
 30
0.0
 11
192.400936
 21
207.901095
 31
0.0
  0
CIRCLE
  8
0
  6
CONTINUOUS
 62
     7
 10
179.012659
 20
204.965349
 30
0.0
 40
1.0
  0
LINE
  8
0
  6
CONTINUOUS
 62
     7
 10
178.01273
 20
204.971652
 30
0.0
 11
172.5
 21
204.971652
 31
0.0
  0
LINE
  8
0
  6
CONTINUOUS
 62
     7
 10
189.900936
 20
192.901095
 30
0.0
 11
192.400936
 21
192.901095
 31
0.0
  0
LINE
  8
0
  6
CONTINUOUS
 62
     7
 10
189.900936
 20
192.901095
 30
0.0
 11
187.676489
 21
192.340453
 31
0.0
  0
LINE
  8
0
  6
CONTINUOUS
 62
     7
 10
184.900936
 20
192.901095
 30
0.0
 11
187.400936
 21
192.901095
 31
0.0
  0
TEXT
  8
0
  6
HIDDEN
 62
     7
 10
181.080478
 20
192.167847
 30
0.0
 40
1.5
  1
EN
  0
TEXT
  8
0
  6
HIDDEN
 62
     7
 10
181.080478
 20
189.226807
 30
0.0
 40
1.5
  1
EN
  0
LINE
  8
0
  6
CONTINUOUS
 62
     7
 10
184.900936
 20
189.960055
 30
0.0
 11
187.400936
 21
189.960055
 31
0.0
  0
LINE
  8
0
  6
CONTINUOUS
 62
     7
 10
189.900936
 20
189.960055
 30
0.0
 11
187.676489
 21
189.399413
 31
0.0
  0
LINE
  8
0
  6
CONTINUOUS
 62
     7
 10
189.900936
 20
189.960055
 30
0.0
 11
192.400936
 21
189.960055
 31
0.0
  0
CIRCLE
  8
0
  6
CONTINUOUS
 62
     7
 10
179.012659
 20
189.965349
 30
0.0
 40
1.0
  0
CIRCLE
  8
0
  6
CONTINUOUS
 62
     7
 10
179.012659
 20
192.994509
 30
0.0
 40
1.0
  0
LINE
  8
0
  6
CONTINUOUS
 62
     7
 10
178.01273
 20
193.000813
 30
0.0
 11
170.0
 21
193.000813
 31
0.0
  0
LINE
  8
0
  6
CONTINUOUS
 62
     7
 10
178.01273
 20
189.971652
 30
0.0
 11
172.5
 21
189.971652
 31
0.0
  0
LINE
  8
0
  6
CONTINUOUS
 62
     7
 10
180.0
 20
185.0
 30
0.0
 11
210.450615
 21
185.0
 31
0.0
  0
TEXT
  8
0
  6
CONTINUOUS
 62
     7
 10
205.0
 20
180.775586
 30
0.0
 40
2.5
  1
U2
  7
ROMANS
  0
LINE
  8
0
  6
CONTINUOUS
 62
     7
 10
191.019845
 20
147.997958
 30
0.0
 11
191.019845
 21
146.209827
 31
0.0
  0
LINE
  8
0
  6
CONTINUOUS
 62
     7
 10
191.050877
 20
147.152679
 30
0.0
 11
198.839082
 21
147.152679
 31
0.0
  0
LINE
  8
0
  6
CONTINUOUS
 62
     7
 10
195.880429
 20
149.350842
 30
0.0
 11
196.781105
 21
148.227093
 31
0.0
  0
ARC
  8
0
  6
HIDDEN
 62
     7
 10
197.745745
 20
151.081224
 30
0.0
 40
4.998196
 50
206.402922
 51
282.21115
  0
LINE
  8
0
  6
CONTINUOUS
 62
     7
 10
193.435021
 20
145.985077
 30
0.0
 11
196.311132
 21
148.813635
 31
0.0
  0
LINE
  8
0
  6
CONTINUOUS
 62
     7
 10
198.834541
 20
147.997958
 30
0.0
 11
198.834541
 21
146.209827
 31
0.0
  0
LINE
  8
0
  6
HIDDEN
 62
     7
 10
180.0
 20
150.0
 30
0.0
 11
200.0
 21
150.0
 31
0.0
  0
TEXT
  8
0
  6
CONTINUOUS
 62
     7
 10
181.215896
 20
150.777441
 30
0.0
 40
2.5
  1
U
  7
GREEKS
  0
LINE
  8
0
  6
CONTINUOUS
 62
     7
 10
184.217066
 20
153.404976
 30
0.0
 11
186.562832
 21
152.069622
 31
0.0
  0
LINE
  8
0
  6
CONTINUOUS
 62
     7
 10
186.562832
 20
152.069622
 30
0.0
 11
184.217066
 21
150.879703
 31
0.0
  0
LINE
  8
0
  6
HIDDEN
 62
     7
 10
180.0
 20
145.0
 30
0.0
 11
200.0
 21
145.0
 31
0.0
  0
LINE
  8
0
  6
CONTINUOUS
 62
     7
 10
186.562832
 20
147.134843
 30
0.0
 11
184.217066
 21
145.944924
 31
0.0
  0
LINE
  8
0
  6
CONTINUOUS
 62
     7
 10
184.217066
 20
148.470197
 30
0.0
 11
186.562832
 21
147.134843
 31
0.0
  0
TEXT
  8
0
  6
CONTINUOUS
 62
     7
 10
181.215896
 20
145.842662
 30
0.0
 40
2.5
  1
U
  7
GREEKS
  0
LINE
  8
0
  6
HIDDEN
 62
     7
 10
180.0
 20
140.0
 30
0.0
 11
200.0
 21
140.0
 31
0.0
  0
TEXT
  8
0
  6
CONTINUOUS
 62
     7
 10
181.215896
 20
141.117171
 30
0.0
 40
2.5
  1
U
  7
GREEKS
  0
LINE
  8
0
  6
CONTINUOUS
 62
     7
 10
186.562044
 20
141.071927
 30
0.0
 11
184.216279
 21
142.407281
 31
0.0
  0
LINE
  8
0
  6
CONTINUOUS
 62
     7
 10
184.216279
 20
142.407281
 30
0.0
 11
186.562044
 21
143.5972
 31
0.0
  0
LINE
  8
0
  6
CONTINUOUS
 62
     7
 10
189.900936
 20
134.960055
 30
0.0
 11
192.400936
 21
134.960055
 31
0.0
  0
LINE
  8
0
  6
CONTINUOUS
 62
     7
 10
189.900936
 20
134.960055
 30
0.0
 11
187.676489
 21
134.399413
 31
0.0
  0
LINE
  8
0
  6
CONTINUOUS
 62
     7
 10
184.900936
 20
134.960055
 30
0.0
 11
187.400936
 21
134.960055
 31
0.0
  0
TEXT
  8
0
  6
HIDDEN
 62
     7
 10
181.080478
 20
134.226807
 30
0.0
 40
1.5
  1
EN
  0
TEXT
  8
0
  6
HIDDEN
 62
     7
 10
181.080478
 20
137.167847
 30
0.0
 40
1.5
  1
EN
  0
LINE
  8
0
  6
CONTINUOUS
 62
     7
 10
184.900936
 20
137.901095
 30
0.0
 11
187.400936
 21
137.901095
 31
0.0
  0
LINE
  8
0
  6
CONTINUOUS
 62
     7
 10
189.900936
 20
137.901095
 30
0.0
 11
187.676489
 21
137.340453
 31
0.0
  0
LINE
  8
0
  6
CONTINUOUS
 62
     7
 10
189.900936
 20
137.901095
 30
0.0
 11
192.400936
 21
137.901095
 31
0.0
  0
LINE
  8
0
  6
CONTINUOUS
 62
     7
 10
178.01273
 20
134.971652
 30
0.0
 11
172.5
 21
134.971652
 31
0.0
  0
LINE
  8
0
  6
CONTINUOUS
 62
     7
 10
178.01273
 20
138.000813
 30
0.0
 11
170.0
 21
138.000813
 31
0.0
  0
CIRCLE
  8
0
  6
CONTINUOUS
 62
     7
 10
179.012659
 20
137.994509
 30
0.0
 40
1.0
  0
CIRCLE
  8
0
  6
CONTINUOUS
 62
     7
 10
179.012659
 20
134.965349
 30
0.0
 40
1.0
  0
LINE
  8
0
  6
CONTINUOUS
 62
     7
 10
184.216279
 20
131.854786
 30
0.0
 11
186.562044
 21
133.044705
 31
0.0
  0
LINE
  8
0
  6
CONTINUOUS
 62
     7
 10
186.562044
 20
130.519432
 30
0.0
 11
184.216279
 21
131.854786
 31
0.0
  0
TEXT
  8
0
  6
CONTINUOUS
 62
     7
 10
181.215896
 20
130.564676
 30
0.0
 40
2.5
  1
U
  7
GREEKS
  0
LINE
  8
0
  6
CONTINUOUS
 62
     7
 10
191.020299
 20
132.429735
 30
0.0
 11
191.020299
 21
130.641604
 31
0.0
  0
LINE
  8
0
  6
CONTINUOUS
 62
     7
 10
191.051331
 20
131.584457
 30
0.0
 11
198.839536
 21
131.584457
 31
0.0
  0
LINE
  8
0
  6
CONTINUOUS
 62
     7
 10
195.880883
 20
133.782619
 30
0.0
 11
196.78156
 21
132.65887
 31
0.0
  0
LINE
  8
0
  6
CONTINUOUS
 62
     7
 10
193.435476
 20
130.416854
 30
0.0
 11
196.311586
 21
133.245413
 31
0.0
  0
LINE
  8
0
  6
CONTINUOUS
 62
     7
 10
198.834995
 20
132.429735
 30
0.0
 11
198.834995
 21
130.641604
 31
0.0
  0
TEXT
  8
0
  6
CONTINUOUS
 62
     7
 10
205.001359
 20
150.658649
 30
0.0
 40
2.5
  1
U3
  7
ROMANS
  0
TEXT
  8
0
  6
CONTINUOUS
 62
     7
 10
202.079411
 20
139.434231
 30
0.0
 40
2.5
  1
3U
  7
GREEKS
  0
LINE
  8
0
  6
CONTINUOUS
 62
     7
 10
209.071266
 20
141.516875
 30
0.0
 11
207.073389
 21
140.503426
 31
0.0
  0
LINE
  8
0
  6
CONTINUOUS
 62
     7
 10
207.073389
 20
142.654189
 30
0.0
 11
209.071266
 21
141.516875
 31
0.0
  0
LINE
  8
0
  6
CONTINUOUS
 62
     7
 10
207.056619
 20
139.849659
 30
0.0
 11
209.054496
 21
140.863107
 31
0.0
  0
LINE
  8
0
  6
CONTINUOUS
 62
     7
 10
209.054496
 20
138.712345
 30
0.0
 11
207.056619
 21
139.849659
 31
0.0
  0
LINE
  8
0
  6
HIDDEN
 62
     7
 10
180.0
 20
130.0
 30
0.0
 11
180.0
 21
57.5
 31
0.0
  0
LINE
  8
0
  6
HIDDEN
 62
     7
 10
210.450615
 20
130.0
 30
0.0
 11
210.450615
 21
57.5
 31
0.0
  0
ARC
  8
0
 62
     7
 10
239.934151
 20
116.25
 30
0.0
 40
1.251733
 50
86.984476
 51
273.015524
  0
ARC
  8
0
 62
     7
 10
239.934151
 20
118.75
 30
0.0
 40
1.251733
 50
86.984476
 51
273.015524
  0
LINE
  8
0
 62
     7
 10
240.0
 20
117.5
 30
0.0
 11
242.5
 21
117.5
 31
0.0
  0
LINE
  8
0
 62
     7
 10
242.5
 20
120.0
 30
0.0
 11
245.0
 21
120.0
 31
0.0
  0
LINE
  8
0
 62
     7
 10
242.5
 20
115.0
 30
0.0
 11
245.0
 21
115.0
 31
0.0
  0
LINE
  8
0
 62
     7
 10
242.5
 20
115.0
 30
0.0
 11
245.0
 21
115.0
 31
0.0
  0
LINE
  8
0
 62
     7
 10
240.0
 20
115.0
 30
0.0
 11
250.0
 21
115.0
 31
0.0
  0
LINE
  8
0
 62
     7
 10
240.0
 20
112.5
 30
0.0
 11
242.5
 21
112.5
 31
0.0
  0
ARC
  8
0
 62
     7
 10
239.934151
 20
113.75
 30
0.0
 40
1.251733
 50
86.984476
 51
273.015524
  0
ARC
  8
0
 62
     7
 10
239.934151
 20
111.25
 30
0.0
 40
1.251733
 50
86.984476
 51
273.015524
  0
LINE
  8
0
 62
     7
 10
240.0
 20
110.0
 30
0.0
 11
242.5
 21
110.0
 31
0.0
  0
ARC
  8
0
 62
     7
 10
235.065849
 20
116.25
 30
0.0
 40
1.251733
 50
266.984476
 51
93.015524
  0
LINE
  8
0
 62
     7
 10
235.0
 20
117.5
 30
0.0
 11
233.480133
 21
117.5
 31
0.0
  0
LINE
  8
0
 62
     7
 10
235.0
 20
115.0
 30
0.0
 11
233.480133
 21
115.0
 31
0.0
  0
ARC
  8
0
 62
     7
 10
235.065849
 20
113.75
 30
0.0
 40
1.251733
 50
266.984476
 51
93.015524
  0
LINE
  8
0
 62
     7
 10
235.0
 20
112.5
 30
0.0
 11
233.480133
 21
112.5
 31
0.0
  0
LINE
  8
0
 62
     7
 10
240.0
 20
95.0
 30
0.0
 11
242.5
 21
95.0
 31
0.0
  0
ARC
  8
0
 62
     7
 10
239.934151
 20
96.25
 30
0.0
 40
1.251733
 50
86.984476
 51
273.015524
  0
ARC
  8
0
 62
     7
 10
239.934151
 20
98.75
 30
0.0
 40
1.251733
 50
86.984476
 51
273.015524
  0
LINE
  8
0
 62
     7
 10
240.0
 20
97.5
 30
0.0
 11
242.5
 21
97.5
 31
0.0
  0
LINE
  8
0
 62
     7
 10
242.5
 20
95.0
 30
0.0
 11
245.0
 21
95.0
 31
0.0
  0
LINE
  8
0
 62
     7
 10
240.0
 20
95.0
 30
0.0
 11
250.0
 21
95.0
 31
0.0
  0
LINE
  8
0
 62
     7
 10
240.0
 20
92.5
 30
0.0
 11
242.5
 21
92.5
 31
0.0
  0
ARC
  8
0
 62
     7
 10
239.934151
 20
93.75
 30
0.0
 40
1.251733
 50
86.984476
 51
273.015524
  0
ARC
  8
0
 62
     7
 10
239.934151
 20
91.25
 30
0.0
 40
1.251733
 50
86.984476
 51
273.015524
  0
LINE
  8
0
 62
     7
 10
240.0
 20
90.0
 30
0.0
 11
242.5
 21
90.0
 31
0.0
  0
ARC
  8
0
 62
     7
 10
235.065849
 20
96.25
 30
0.0
 40
1.251733
 50
266.984476
 51
93.015524
  0
LINE
  8
0
 62
     7
 10
235.0
 20
97.5
 30
0.0
 11
233.480133
 21
97.5
 31
0.0
  0
LINE
  8
0
 62
     7
 10
235.0
 20
95.0
 30
0.0
 11
233.480133
 21
95.0
 31
0.0
  0
ARC
  8
0
 62
     7
 10
235.065849
 20
93.75
 30
0.0
 40
1.251733
 50
266.984476
 51
93.015524
  0
LINE
  8
0
 62
     7
 10
235.0
 20
92.5
 30
0.0
 11
233.480133
 21
92.5
 31
0.0
  0
LINE
  8
0
 62
     7
 10
240.0
 20
75.0
 30
0.0
 11
242.5
 21
75.0
 31
0.0
  0
ARC
  8
0
 62
     7
 10
239.934151
 20
76.25
 30
0.0
 40
1.251733
 50
86.984476
 51
273.015524
  0
ARC
  8
0
 62
     7
 10
239.934151
 20
78.75
 30
0.0
 40
1.251733
 50
86.984476
 51
273.015524
  0
LINE
  8
0
 62
     7
 10
240.0
 20
77.5
 30
0.0
 11
242.5
 21
77.5
 31
0.0
  0
LINE
  8
0
 62
     7
 10
242.5
 20
75.0
 30
0.0
 11
245.0
 21
75.0
 31
0.0
  0
LINE
  8
0
 62
     7
 10
240.0
 20
75.0
 30
0.0
 11
250.0
 21
75.0
 31
0.0
  0
LINE
  8
0
 62
     7
 10
240.0
 20
72.5
 30
0.0
 11
242.5
 21
72.5
 31
0.0
  0
ARC
  8
0
 62
     7
 10
239.934151
 20
73.75
 30
0.0
 40
1.251733
 50
86.984476
 51
273.015524
  0
ARC
  8
0
 62
     7
 10
239.934151
 20
71.25
 30
0.0
 40
1.251733
 50
86.984476
 51
273.015524
  0
LINE
  8
0
 62
     7
 10
240.0
 20
70.0
 30
0.0
 11
242.5
 21
70.0
 31
0.0
  0
ARC
  8
0
 62
     7
 10
235.065849
 20
76.25
 30
0.0
 40
1.251733
 50
266.984476
 51
93.015524
  0
LINE
  8
0
 62
     7
 10
235.0
 20
77.5
 30
0.0
 11
233.480133
 21
77.5
 31
0.0
  0
LINE
  8
0
 62
     7
 10
235.0
 20
75.0
 30
0.0
 11
233.480133
 21
75.0
 31
0.0
  0
ARC
  8
0
 62
     7
 10
235.065849
 20
73.75
 30
0.0
 40
1.251733
 50
266.984476
 51
93.015524
  0
LINE
  8
0
 62
     7
 10
235.0
 20
72.5
 30
0.0
 11
233.480133
 21
72.5
 31
0.0
  0
LINE
  8
0
 62
     7
 10
240.0
 20
120.0
 30
0.0
 11
250.0
 21
120.0
 31
0.0
  0
LINE
  8
0
 62
     7
 10
242.5
 20
110.0
 30
0.0
 11
250.0
 21
110.0
 31
0.0
  0
LINE
  8
0
 62
     7
 10
240.0
 20
80.0
 30
0.0
 11
250.0
 21
80.0
 31
0.0
  0
LINE
  8
0
 62
     7
 10
242.5
 20
70.0
 30
0.0
 11
250.0
 21
70.0
 31
0.0
  0
LINE
  8
0
 62
     7
 10
242.5
 20
90.0
 30
0.0
 11
250.0
 21
90.0
 31
0.0
  0
LINE
  8
0
 62
     7
 10
240.0
 20
100.0
 30
0.0
 11
250.0
 21
100.0
 31
0.0
  0
LINE
  8
0
  6
CONTINUOUS
 62
     7
 10
230.0
 20
117.5
 30
0.0
 11
230.0
 21
72.5
 31
0.0
  0
LINE
  8
0
  6
CONTINUOUS
 62
     7
 10
230.0
 20
72.5
 30
0.0
 11
231.0
 21
71.5
 31
0.0
  0
LINE
  8
0
  6
CONTINUOUS
 62
     7
 10
230.0
 20
117.5
 30
0.0
 11
231.0
 21
118.5
 31
0.0
  0
TEXT
  8
0
  6
HIDDEN
 62
     7
 10
246.555253
 20
192.505131
 30
0.0
 40
2.0
  1
6
  7
ROMANS
  0
TEXT
  8
0
  6
HIDDEN
 62
     7
 10
246.555253
 20
187.453437
 30
0.0
 40
2.0
  1
5
  7
ROMANS
  0
TEXT
  8
0
  6
HIDDEN
 62
     7
 10
246.555253
 20
182.390728
 30
0.0
 40
2.0
  1
4
  7
ROMANS
  0
TEXT
  8
0
  6
HIDDEN
 62
     7
 10
245.496424
 20
117.459045
 30
0.0
 40
2.0
  1
15
  7
ROMANS
  0
TEXT
  8
0
  6
HIDDEN
 62
     7
 10
245.496424
 20
112.352276
 30
0.0
 40
2.0
  1
14
  7
ROMANS
  0
TEXT
  8
0
  6
HIDDEN
 62
     7
 10
245.496424
 20
107.344643
 30
0.0
 40
2.0
  1
13
  7
ROMANS
  0
TEXT
  8
0
  6
HIDDEN
 62
     7
 10
245.496424
 20
97.325125
 30
0.0
 40
2.0
  1
18
  7
ROMANS
  0
TEXT
  8
0
  6
HIDDEN
 62
     7
 10
245.496424
 20
92.328507
 30
0.0
 40
2.0
  1
17
  7
ROMANS
  0
TEXT
  8
0
  6
HIDDEN
 62
     7
 10
245.496424
 20
87.320874
 30
0.0
 40
2.0
  1
16
  7
ROMANS
  0
TEXT
  8
0
  6
HIDDEN
 62
     7
 10
245.496424
 20
77.455568
 30
0.0
 40
2.0
  1
21
  7
ROMANS
  0
TEXT
  8
0
  6
HIDDEN
 62
     7
 10
245.496424
 20
72.293723
 30
0.0
 40
2.0
  1
20
  7
ROMANS
  0
TEXT
  8
0
  6
HIDDEN
 62
     7
 10
245.496424
 20
67.297105
 30
0.0
 40
2.0
  1
19
  7
ROMANS
  0
LINE
  8
0
  6
CONTINUOUS
 62
     7
 10
222.5
 20
190.0
 30
0.0
 11
222.5
 21
200.0
 31
0.0
  0
LINE
  8
0
  6
CONTINUOUS
 62
     7
 10
210.450615
 20
140.0
 30
0.0
 11
222.5
 21
140.0
 31
0.0
  0
LINE
  8
0
  6
CONTINUOUS
 62
     7
 10
222.5
 20
140.0
 30
0.0
 11
222.5
 21
57.5
 31
0.0
  0
TEXT
  8
0
  6
CONTINUOUS
 62
     7
 10
56.295492
 20
143.964455
 30
0.0
 40
2.5
  1
1
 11
56.295492
 21
143.131122
 31
0.0
 73
     1
  0
LINE
  8
0
  6
CONTINUOUS
 62
     7
 10
51.86163
 20
146.624549
 30
0.0
 11
54.207396
 21
145.289195
 31
0.0
  0
LINE
  8
0
  6
CONTINUOUS
 62
     7
 10
51.853589
 20
143.299262
 30
0.0
 11
54.237049
 21
144.487454
 31
0.0
  0
LINE
  8
0
  6
CONTINUOUS
 62
     7
 10
54.207396
 20
145.289195
 30
0.0
 11
51.86163
 21
144.099276
 31
0.0
  0
LINE
  8
0
  6
CONTINUOUS
 62
     7
 10
55.0
 20
142.5
 30
0.0
 11
55.0
 21
137.5
 31
0.0
  0
LINE
  8
0
  6
CONTINUOUS
 62
     7
 10
55.0
 20
147.5
 30
0.0
 11
55.0
 21
202.066264
 31
0.0
  0
LINE
  8
0
  6
CONTINUOUS
 62
     7
 10
60.0
 20
147.5
 30
0.0
 11
50.0
 21
147.5
 31
0.0
  0
LINE
  8
0
  6
CONTINUOUS
 62
     7
 10
60.0
 20
147.5
 30
0.0
 11
60.0
 21
142.5
 31
0.0
  0
LINE
  8
0
  6
CONTINUOUS
 62
     7
 10
52.5
 20
147.5
 30
0.0
 11
52.5
 21
187.015226
 31
0.0
  0
LINE
  8
0
  6
CONTINUOUS
 62
     7
 10
50.0
 20
142.5
 30
0.0
 11
60.0
 21
142.5
 31
0.0
  0
LINE
  8
0
  6
CONTINUOUS
 62
     7
 10
50.0
 20
147.5
 30
0.0
 11
50.0
 21
142.5
 31
0.0
  0
LINE
  8
0
  6
CONTINUOUS
 62
     7
 10
67.5
 20
147.5
 30
0.0
 11
77.5
 21
147.5
 31
0.0
  0
LINE
  8
0
  6
CONTINUOUS
 62
     7
 10
77.5
 20
147.5
 30
0.0
 11
77.5
 21
142.5
 31
0.0
  0
LINE
  8
0
  6
CONTINUOUS
 62
     7
 10
77.5
 20
142.5
 30
0.0
 11
67.5
 21
142.5
 31
0.0
  0
LINE
  8
0
  6
CONTINUOUS
 62
     7
 10
67.5
 20
142.5
 30
0.0
 11
67.5
 21
147.5
 31
0.0
  0
LINE
  8
0
  6
CONTINUOUS
 62
     7
 10
71.707396
 20
145.289195
 30
0.0
 11
69.36163
 21
144.099276
 31
0.0
  0
LINE
  8
0
  6
CONTINUOUS
 62
     7
 10
69.353589
 20
143.299262
 30
0.0
 11
71.737049
 21
144.487454
 31
0.0
  0
LINE
  8
0
  6
CONTINUOUS
 62
     7
 10
69.36163
 20
146.624549
 30
0.0
 11
71.707396
 21
145.289195
 31
0.0
  0
TEXT
  8
0
  6
CONTINUOUS
 62
     7
 10
73.795492
 20
143.964455
 30
0.0
 40
2.5
  1
1
 11
73.795492
 21
143.131122
 31
0.0
 73
     1
  0
LINE
  8
0
  6
CONTINUOUS
 62
     7
 10
92.5
 20
147.5
 30
0.0
 11
102.5
 21
147.5
 31
0.0
  0
LINE
  8
0
  6
CONTINUOUS
 62
     7
 10
102.5
 20
147.5
 30
0.0
 11
102.5
 21
142.5
 31
0.0
  0
LINE
  8
0
  6
CONTINUOUS
 62
     7
 10
102.5
 20
142.5
 30
0.0
 11
92.5
 21
142.5
 31
0.0
  0
LINE
  8
0
  6
CONTINUOUS
 62
     7
 10
92.5
 20
142.5
 30
0.0
 11
92.5
 21
147.5
 31
0.0
  0
LINE
  8
0
  6
CONTINUOUS
 62
     7
 10
96.707396
 20
145.289195
 30
0.0
 11
94.36163
 21
144.099276
 31
0.0
  0
LINE
  8
0
  6
CONTINUOUS
 62
     7
 10
94.353589
 20
143.299262
 30
0.0
 11
96.737049
 21
144.487454
 31
0.0
  0
LINE
  8
0
  6
CONTINUOUS
 62
     7
 10
94.36163
 20
146.624549
 30
0.0
 11
96.707396
 21
145.289195
 31
0.0
  0
TEXT
  8
0
  6
CONTINUOUS
 62
     7
 10
98.795492
 20
143.964455
 30
0.0
 40
2.5
  1
1
 11
98.795492
 21
143.131122
 31
0.0
 73
     1
  0
TEXT
  8
0
  6
CONTINUOUS
 62
     7
 10
100.633706
 20
154.995896
 30
0.0
 40
2.0
  1
5
  7
ROMANS
  0
LINE
  8
0
  6
CONTINUOUS
 62
     7
 10
100.0
 20
157.5
 30
0.0
 11
100.0
 21
160.0
 31
0.0
  0
LINE
  8
0
  6
CONTINUOUS
 62
     7
 10
100.0
 20
152.5
 30
0.0
 11
98.285914
 21
157.586297
 31
0.0
  0
LINE
  8
0
  6
CONTINUOUS
 62
     7
 10
100.0
 20
147.5
 30
0.0
 11
100.0
 21
152.5
 31
0.0
  0
LINE
  8
0
  6
CONTINUOUS
 62
     7
 10
95.0
 20
147.5
 30
0.0
 11
95.0
 21
152.5
 31
0.0
  0
LINE
  8
0
  6
CONTINUOUS
 62
     7
 10
95.0
 20
152.5
 30
0.0
 11
93.285914
 21
157.586297
 31
0.0
  0
LINE
  8
0
  6
CONTINUOUS
 62
     7
 10
95.0
 20
157.5
 30
0.0
 11
95.0
 21
160.0
 31
0.0
  0
LINE
  8
0
  6
CONTINUOUS
 62
     7
 10
85.0
 20
152.5
 30
0.0
 11
83.285914
 21
157.586297
 31
0.0
  0
LINE
  8
0
  6
CONTINUOUS
 62
     7
 10
85.0
 20
157.5
 30
0.0
 11
85.0
 21
160.0
 31
0.0
  0
LINE
  8
0
  6
CONTINUOUS
 62
     7
 10
75.0
 20
157.5
 30
0.0
 11
75.0
 21
162.5
 31
0.0
  0
LINE
  8
0
  6
CONTINUOUS
 62
     7
 10
75.0
 20
152.5
 30
0.0
 11
73.285914
 21
157.586297
 31
0.0
  0
LINE
  8
0
  6
CONTINUOUS
 62
     7
 10
75.0
 20
147.5
 30
0.0
 11
75.0
 21
152.5
 31
0.0
  0
LINE
  8
0
  6
CONTINUOUS
 62
     7
 10
70.0
 20
147.5
 30
0.0
 11
70.0
 21
152.5
 31
0.0
  0
LINE
  8
0
  6
CONTINUOUS
 62
     7
 10
70.0
 20
152.5
 30
0.0
 11
68.285914
 21
157.586297
 31
0.0
  0
LINE
  8
0
  6
CONTINUOUS
 62
     7
 10
70.0
 20
157.5
 30
0.0
 11
70.0
 21
175.0
 31
0.0
  0
TEXT
  8
0
  6
CONTINUOUS
 62
     7
 10
58.099854
 20
155.0
 30
0.0
 40
2.0
  1
6
  7
ROMANS
  0
TEXT
  8
0
  6
CONTINUOUS
 62
     7
 10
70.718547
 20
155.0
 30
0.0
 40
2.0
  1
2
  7
ROMANS
  0
TEXT
  8
0
  6
CONTINUOUS
 62
     7
 10
75.531391
 20
155.0
 30
0.0
 40
2.0
  1
7
  7
ROMANS
  0
TEXT
  8
0
  6
CONTINUOUS
 62
     7
 10
85.589219
 20
155.0
 30
0.0
 40
2.0
  1
8
  7
ROMANS
  0
TEXT
  8
0
  6
CONTINUOUS
 62
     7
 10
95.762686
 20
155.0
 30
0.0
 40
2.0
  1
1
  7
ROMANS
  0
LINE
  8
0
  6
CONTINUOUS
 62
     7
 10
57.5
 20
147.5
 30
0.0
 11
57.5
 21
152.5
 31
0.0
  0
LINE
  8
0
  6
CONTINUOUS
 62
     7
 10
57.5
 20
152.5
 30
0.0
 11
55.785914
 21
157.586297
 31
0.0
  0
LINE
  8
0
  6
CONTINUOUS
 62
     7
 10
57.5
 20
157.5
 30
0.0
 11
57.5
 21
160.0
 31
0.0
  0
LINE
  8
0
  6
CONTINUOUS
 62
     7
 10
52.5
 20
132.5
 30
0.0
 11
40.0
 21
132.5
 31
0.0
  0
LINE
  8
0
  6
CONTINUOUS
 62
     7
 10
60.0
 20
132.5
 30
0.0
 11
60.0
 21
127.5
 31
0.0
  0
LINE
  8
0
  6
CONTINUOUS
 62
     7
 10
60.0
 20
127.5
 30
0.0
 11
40.0
 21
127.5
 31
0.0
  0
LINE
  8
0
  6
CONTINUOUS
 62
     7
 10
57.5
 20
132.5
 30
0.0
 11
60.0
 21
132.5
 31
0.0
  0
LINE
  8
0
  6
CONTINUOUS
 62
     7
 10
77.5
 20
122.5
 30
0.0
 11
77.5
 21
117.5
 31
0.0
  0
LINE
  8
0
  6
CONTINUOUS
 62
     7
 10
77.5
 20
117.5
 30
0.0
 11
40.0
 21
117.5
 31
0.0
  0
LINE
  8
0
  6
CONTINUOUS
 62
     7
 10
132.5
 20
125.0
 30
0.0
 11
132.5
 21
127.5
 31
0.0
  0
LINE
  8
0
  6
CONTINUOUS
 62
     7
 10
125.0
 20
125.0
 30
0.0
 11
137.5
 21
125.0
 31
0.0
  0
LINE
  8
0
  6
CONTINUOUS
 62
     7
 10
137.5
 20
125.0
 30
0.0
 11
137.5
 21
120.0
 31
0.0
  0
LINE
  8
0
  6
CONTINUOUS
 62
     7
 10
137.5
 20
120.0
 30
0.0
 11
125.0
 21
120.0
 31
0.0
  0
LINE
  8
0
  6
CONTINUOUS
 62
     7
 10
125.0
 20
120.0
 30
0.0
 11
125.0
 21
125.0
 31
0.0
  0
LINE
  8
0
  6
CONTINUOUS
 62
     7
 10
131.063758
 20
122.789195
 30
0.0
 11
128.717992
 21
121.599276
 31
0.0
  0
LINE
  8
0
  6
CONTINUOUS
 62
     7
 10
128.70995
 20
120.799262
 30
0.0
 11
131.093411
 21
121.987454
 31
0.0
  0
LINE
  8
0
  6
CONTINUOUS
 62
     7
 10
128.717992
 20
124.124549
 30
0.0
 11
131.063758
 21
122.789195
 31
0.0
  0
TEXT
  8
0
  6
CONTINUOUS
 62
     7
 10
133.151854
 20
121.464455
 30
0.0
 40
2.5
  1
1
 11
133.151854
 21
120.631122
 31
0.0
 73
     1
  0
LINE
  8
0
  6
CONTINUOUS
 62
     7
 10
162.5
 20
125.0
 30
0.0
 11
162.5
 21
127.5
 31
0.0
  0
LINE
  8
0
  6
CONTINUOUS
 62
     7
 10
155.0
 20
125.0
 30
0.0
 11
167.5
 21
125.0
 31
0.0
  0
LINE
  8
0
  6
CONTINUOUS
 62
     7
 10
167.5
 20
125.0
 30
0.0
 11
167.5
 21
120.0
 31
0.0
  0
LINE
  8
0
  6
CONTINUOUS
 62
     7
 10
167.5
 20
120.0
 30
0.0
 11
155.0
 21
120.0
 31
0.0
  0
LINE
  8
0
  6
CONTINUOUS
 62
     7
 10
155.0
 20
120.0
 30
0.0
 11
155.0
 21
125.0
 31
0.0
  0
LINE
  8
0
  6
CONTINUOUS
 62
     7
 10
161.063758
 20
122.789195
 30
0.0
 11
158.717992
 21
121.599276
 31
0.0
  0
LINE
  8
0
  6
CONTINUOUS
 62
     7
 10
158.70995
 20
120.799262
 30
0.0
 11
161.093411
 21
121.987454
 31
0.0
  0
LINE
  8
0
  6
CONTINUOUS
 62
     7
 10
158.717992
 20
124.124549
 30
0.0
 11
161.063758
 21
122.789195
 31
0.0
  0
TEXT
  8
0
  6
CONTINUOUS
 62
     7
 10
163.151854
 20
121.464455
 30
0.0
 40
2.5
  1
1
 11
163.151854
 21
120.631122
 31
0.0
 73
     1
  0
LINE
  8
0
  6
CONTINUOUS
 62
     7
 10
72.5
 20
135.0
 30
0.0
 11
72.5
 21
142.5
 31
0.0
  0
LINE
  8
0
  6
CONTINUOUS
 62
     7
 10
85.0
 20
135.0
 30
0.0
 11
85.0
 21
152.5
 31
0.0
  0
LINE
  8
0
  6
CONTINUOUS
 62
     7
 10
97.5
 20
135.0
 30
0.0
 11
97.5
 21
142.5
 31
0.0
  0
LINE
  8
0
  6
CONTINUOUS
 62
     7
 10
132.5
 20
120.0
 30
0.0
 11
132.5
 21
57.5
 31
0.0
  0
LINE
  8
0
  6
CONTINUOUS
 62
     7
 10
162.5
 20
120.0
 30
0.0
 11
162.5
 21
57.5
 31
0.0
  0
LINE
  8
0
  6
CONTINUOUS
 62
     7
 10
95.0
 20
160.0
 30
0.0
 11
95.0
 21
212.5
 31
0.0
  0
LINE
  8
0
  6
CONTINUOUS
 62
     7
 10
95.0
 20
212.5
 30
0.0
 11
180.0
 21
212.5
 31
0.0
  0
LINE
  8
0
  6
CONTINUOUS
 62
     7
 10
97.5
 20
147.5
 30
0.0
 11
97.5
 21
197.5
 31
0.0
  0
LINE
  8
0
  6
CONTINUOUS
 62
     7
 10
97.5
 20
197.5
 30
0.0
 11
180.0
 21
197.5
 31
0.0
  0
LINE
  8
0
  6
CONTINUOUS
 62
     7
 10
107.5
 20
127.5
 30
0.0
 11
105.785914
 21
132.586297
 31
0.0
  0
LINE
  8
0
  6
CONTINUOUS
 62
     7
 10
107.5
 20
132.5
 30
0.0
 11
107.5
 21
135.0
 31
0.0
  0
TEXT
  8
0
  6
CONTINUOUS
 62
     7
 10
107.760574
 20
130.0
 30
0.0
 40
2.0
  1
4
  7
ROMANS
  0
LINE
  8
0
  6
CONTINUOUS
 62
     7
 10
65.0
 20
210.0
 30
0.0
 11
65.0
 21
208.000813
 31
0.0
  0
LINE
  8
0
  6
CONTINUOUS
 62
     7
 10
65.0
 20
217.5
 30
0.0
 11
172.5
 21
217.5
 31
0.0
  0
LINE
  8
0
  6
CONTINUOUS
 62
     7
 10
172.5
 20
217.5
 30
0.0
 11
172.5
 21
134.971652
 31
0.0
  0
LINE
  8
0
  6
CONTINUOUS
 62
     7
 10
170.0
 20
208.000813
 30
0.0
 11
170.0
 21
138.000813
 31
0.0
  0
LINE
  8
0
  6
CONTINUOUS
 62
     7
 10
180.0
 20
152.5
 30
0.0
 11
107.5
 21
152.5
 31
0.0
  0
LINE
  8
0
  6
CONTINUOUS
 62
     7
 10
107.5
 20
152.5
 30
0.0
 11
107.5
 21
135.0
 31
0.0
  0
LINE
  8
0
  6
CONTINUOUS
 62
     7
 10
40.0
 20
107.5
 30
0.0
 11
82.5
 21
107.5
 31
0.0
  0
LINE
  8
0
  6
CONTINUOUS
 62
     7
 10
82.5
 20
102.5
 30
0.0
 11
40.0
 21
102.5
 31
0.0
  0
LINE
  8
0
  6
CONTINUOUS
 62
     7
 10
82.5
 20
102.5
 30
0.0
 11
82.5
 21
105.0
 31
0.0
  0
LINE
  8
0
  6
CONTINUOUS
 62
     7
 10
87.5
 20
107.5
 30
0.0
 11
90.0
 21
107.5
 31
0.0
  0
LINE
  8
0
  6
CONTINUOUS
 62
     7
 10
87.5
 20
107.5
 30
0.0
 11
81.756076
 21
104.285297
 31
0.0
  0
LINE
  8
0
  6
CONTINUOUS
 62
     7
 10
100.0
 20
92.5
 30
0.0
 11
94.256076
 21
89.285297
 31
0.0
  0
LINE
  8
0
  6
CONTINUOUS
 62
     7
 10
100.0
 20
92.5
 30
0.0
 11
102.5
 21
92.5
 31
0.0
  0
LINE
  8
0
  6
CONTINUOUS
 62
     7
 10
95.0
 20
87.5
 30
0.0
 11
95.0
 21
90.0
 31
0.0
  0
LINE
  8
0
  6
CONTINUOUS
 62
     7
 10
95.0
 20
87.5
 30
0.0
 11
40.0
 21
87.5
 31
0.0
  0
LINE
  8
0
  6
CONTINUOUS
 62
     7
 10
40.0
 20
92.5
 30
0.0
 11
95.0
 21
92.5
 31
0.0
  0
LINE
  8
0
  6
CONTINUOUS
 62
     7
 10
40.0
 20
77.5
 30
0.0
 11
105.0
 21
77.5
 31
0.0
  0
LINE
  8
0
  6
CONTINUOUS
 62
     7
 10
105.0
 20
72.5
 30
0.0
 11
40.0
 21
72.5
 31
0.0
  0
LINE
  8
0
  6
CONTINUOUS
 62
     7
 10
105.0
 20
72.5
 30
0.0
 11
105.0
 21
75.0
 31
0.0
  0
LINE
  8
0
  6
CONTINUOUS
 62
     7
 10
110.0
 20
77.5
 30
0.0
 11
112.5
 21
77.5
 31
0.0
  0
LINE
  8
0
  6
CONTINUOUS
 62
     7
 10
110.0
 20
77.5
 30
0.0
 11
104.256076
 21
74.285297
 31
0.0
  0
LINE
  8
0
  6
CONTINUOUS
 62
     7
 10
90.0
 20
107.5
 30
0.0
 11
90.0
 21
97.5
 31
0.0
  0
LINE
  8
0
  6
CONTINUOUS
 62
     7
 10
90.0
 20
97.5
 30
0.0
 11
40.0
 21
97.5
 31
0.0
  0
LINE
  8
0
  6
CONTINUOUS
 62
     7
 10
102.5
 20
92.5
 30
0.0
 11
102.5
 21
82.5
 31
0.0
  0
LINE
  8
0
  6
CONTINUOUS
 62
     7
 10
102.5
 20
82.5
 30
0.0
 11
40.0
 21
82.5
 31
0.0
  0
LINE
  8
0
  6
CONTINUOUS
 62
     7
 10
112.5
 20
77.5
 30
0.0
 11
112.5
 21
67.5
 31
0.0
  0
LINE
  8
0
  6
CONTINUOUS
 62
     7
 10
112.5
 20
67.5
 30
0.0
 11
40.0
 21
67.5
 31
0.0
  0
LINE
  8
0
  6
CONTINUOUS
 62
     7
 10
180.0
 20
187.015226
 30
0.0
 11
52.5
 21
187.015226
 31
0.0
  0
LINE
  8
0
  6
CONTINUOUS
 62
     7
 10
180.0
 20
202.066264
 30
0.0
 11
55.0
 21
202.066264
 31
0.0
  0
LINE
  8
0
  6
CONTINUOUS
 62
     7
 10
67.5
 20
175.0
 30
0.0
 11
67.5
 21
180.0
 31
0.0
  0
LINE
  8
0
  6
CONTINUOUS
 62
     7
 10
67.5
 20
180.0
 30
0.0
 11
75.0
 21
180.0
 31
0.0
  0
LINE
  8
0
  6
CONTINUOUS
 62
     7
 10
75.0
 20
180.0
 30
0.0
 11
75.0
 21
175.0
 31
0.0
  0
LINE
  8
0
  6
CONTINUOUS
 62
     7
 10
75.0
 20
175.0
 30
0.0
 11
67.5
 21
175.0
 31
0.0
  0
TEXT
  8
0
  6
CONTINUOUS
 62
     7
 10
73.2936
 20
176.40358
 30
0.0
 40
2.5
  1
1
 11
73.2936
 21
175.570247
 31
0.0
 73
     1
  0
LINE
  8
0
  6
CONTINUOUS
 62
     7
 10
68.859739
 20
179.063674
 30
0.0
 11
71.205504
 21
177.72832
 31
0.0
  0
LINE
  8
0
  6
CONTINUOUS
 62
     7
 10
68.851697
 20
175.738387
 30
0.0
 11
71.235157
 21
176.926579
 31
0.0
  0
LINE
  8
0
  6
CONTINUOUS
 62
     7
 10
71.205504
 20
177.72832
 30
0.0
 11
68.859739
 21
176.538401
 31
0.0
  0
LINE
  8
0
  6
CONTINUOUS
 62
     7
 10
57.5
 20
160.0
 30
0.0
 11
57.5
 21
170.0
 31
0.0
  0
LINE
  8
0
  6
CONTINUOUS
 62
     7
 10
57.5
 20
170.0
 30
0.0
 11
160.0
 21
170.0
 31
0.0
  0
LINE
  8
0
  6
CONTINUOUS
 62
     7
 10
160.0
 20
170.0
 30
0.0
 11
160.0
 21
125.0
 31
0.0
  0
LINE
  8
0
  6
CONTINUOUS
 62
     7
 10
165.0
 20
125.0
 30
0.0
 11
165.0
 21
167.5
 31
0.0
  0
LINE
  8
0
  6
CONTINUOUS
 62
     7
 10
165.0
 20
167.5
 30
0.0
 11
77.5
 21
167.5
 31
0.0
  0
LINE
  8
0
  6
CONTINUOUS
 62
     7
 10
77.5
 20
167.5
 30
0.0
 11
72.5
 21
167.5
 31
0.0
  0
LINE
  8
0
  6
CONTINUOUS
 62
     7
 10
72.5
 20
167.5
 30
0.0
 11
72.5
 21
147.5
 31
0.0
  0
LINE
  8
0
  6
CONTINUOUS
 62
     7
 10
162.5
 20
127.5
 30
0.0
 11
162.5
 21
165.0
 31
0.0
  0
LINE
  8
0
  6
CONTINUOUS
 62
     7
 10
162.5
 20
165.0
 30
0.0
 11
100.0
 21
165.0
 31
0.0
  0
LINE
  8
0
  6
CONTINUOUS
 62
     7
 10
100.0
 20
165.0
 30
0.0
 11
100.0
 21
160.0
 31
0.0
  0
LINE
  8
0
  6
CONTINUOUS
 62
     7
 10
85.0
 20
160.0
 30
0.0
 11
85.0
 21
162.5
 31
0.0
  0
LINE
  8
0
  6
CONTINUOUS
 62
     7
 10
85.0
 20
162.5
 30
0.0
 11
65.0
 21
162.5
 31
0.0
  0
LINE
  8
0
  6
CONTINUOUS
 62
     7
 10
65.0
 20
162.5
 30
0.0
 11
65.0
 21
138.644494
 31
0.0
  0
LINE
  8
0
  6
CONTINUOUS
 62
     7
 10
65.0
 20
138.644494
 30
0.0
 11
55.0
 21
138.644494
 31
0.0
  0
LINE
  8
0
  6
CONTINUOUS
 62
     7
 10
157.5
 20
125.0
 30
0.0
 11
157.5
 21
152.5
 31
0.0
  0
LINE
  8
0
  6
CONTINUOUS
 62
     7
 10
135.0
 20
125.0
 30
0.0
 11
135.0
 21
187.015226
 31
0.0
  0
LINE
  8
0
  6
CONTINUOUS
 62
     7
 10
132.5
 20
127.5
 30
0.0
 11
132.5
 21
197.5
 31
0.0
  0
LINE
  8
0
  6
CONTINUOUS
 62
     7
 10
130.0
 20
125.0
 30
0.0
 11
130.0
 21
202.066264
 31
0.0
  0
LINE
  8
0
  6
CONTINUOUS
 62
     7
 10
127.5
 20
125.0
 30
0.0
 11
127.5
 21
212.5
 31
0.0
  0
LINE
  8
0
  6
CONTINUOUS
 62
     7
 10
70.0
 20
180.0
 30
0.0
 11
70.0
 21
202.066264
 31
0.0
  0
LINE
  8
0
  6
CONTINUOUS
 62
     7
 10
72.5
 20
180.0
 30
0.0
 11
72.5
 21
187.015226
 31
0.0
  0
LINE
  8
0
  6
CONTINUOUS
 62
     7
 10
180.0
 20
147.5
 30
0.0
 11
160.0
 21
147.5
 31
0.0
  0
LINE
  8
0
  6
CONTINUOUS
 62
     7
 10
180.0
 20
142.5
 30
0.0
 11
162.5
 21
142.5
 31
0.0
  0
LINE
  8
0
  6
CONTINUOUS
 62
     7
 10
180.0
 20
131.921912
 30
0.0
 11
165.0
 21
131.921912
 31
0.0
  0
LINE
  8
0
  6
HIDDEN
 62
     7
 10
40.0
 20
225.0
 30
0.0
 11
45.0
 21
225.0
 31
0.0
  0
LINE
  8
0
  6
HIDDEN
 62
     7
 10
45.0
 20
225.0
 30
0.0
 11
45.0
 21
202.5
 31
0.0
  0
LINE
  8
0
  6
HIDDEN
 62
     7
 10
45.0
 20
202.5
 30
0.0
 11
40.0
 21
202.5
 31
0.0
  0
TEXT
  8
0
  6
HIDDEN
 62
     7
 10
40.879157
 20
221.746473
 30
0.0
 40
2.0
  1
X2
  7
ROMANS
  0
TEXT
  8
0
  6
HIDDEN
 62
     7
 10
40.440117
 20
217.333058
 30
0.0
 40
2.0
  1
12
  7
ROMANS
  0
TEXT
  8
0
  6
HIDDEN
 62
     7
 10
40.440117
 20
209.949416
 30
0.0
 40
2.0
  1
10
  7
ROMANS
  0
TEXT
  8
0
  6
HIDDEN
 62
     7
 10
40.440117
 20
204.809022
 30
0.0
 40
2.0
  1
11
  7
ROMANS
  0
LINE
  8
0
  6
HIDDEN
 62
     7
 10
40.0
 20
137.5
 30
0.0
 11
45.0
 21
137.5
 31
0.0
  0
LINE
  8
0
  6
HIDDEN
 62
     7
 10
45.0
 20
137.5
 30
0.0
 11
45.0
 21
113.211798
 31
0.0
  0
LINE
  8
0
  6
HIDDEN
 62
     7
 10
45.0
 20
113.211798
 30
0.0
 11
40.0
 21
113.211798
 31
0.0
  0
LINE
  8
0
  6
HIDDEN
 62
     7
 10
40.0
 20
62.5
 30
0.0
 11
45.0
 21
62.5
 31
0.0
  0
LINE
  8
0
  6
HIDDEN
 62
     7
 10
45.0
 20
62.5
 30
0.0
 11
45.0
 21
111.97351
 31
0.0
  0
LINE
  8
0
  6
HIDDEN
 62
     7
 10
45.0
 20
111.97351
 30
0.0
 11
40.0
 21
111.97351
 31
0.0
  0
TEXT
  8
0
  6
HIDDEN
 62
     7
 10
41.1717
 20
133.629257
 30
0.0
 40
2.0
  1
X1
  7
ROMANS
  0
TEXT
  8
0
  6
HIDDEN
 62
     7
 10
41.1717
 20
129.910394
 30
0.0
 40
2.0
  1
4
  7
ROMANS
  0
TEXT
  8
0
  6
HIDDEN
 62
     7
 10
41.1717
 20
124.902761
 30
0.0
 40
2.0
  1
3
  7
ROMANS
  0
TEXT
  8
0
  6
HIDDEN
 62
     7
 10
41.1717
 20
119.61975
 30
0.0
 40
2.0
  1
7
  7
ROMANS
  0
TEXT
  8
0
  6
HIDDEN
 62
     7
 10
41.1717
 20
114.810389
 30
0.0
 40
2.0
  1
6
  7
ROMANS
  0
TEXT
  8
0
  6
HIDDEN
 62
     7
 10
40.745853
 20
108.976621
 30
0.0
 40
2.0
  1
X2
  7
ROMANS
  0
TEXT
  8
0
  6
HIDDEN
 62
     7
 10
41.1717
 20
104.773092
 30
0.0
 40
2.0
  1
3
  7
ROMANS
  0
TEXT
  8
0
  6
HIDDEN
 62
     7
 10
41.1717
 20
99.842565
 30
0.0
 40
2.0
  1
1
  7
ROMANS
  0
TEXT
  8
0
  6
HIDDEN
 62
     7
 10
41.1717
 20
94.625644
 30
0.0
 40
2.0
  1
2
  7
ROMANS
  0
TEXT
  8
0
  6
HIDDEN
 62
     7
 10
41.1717
 20
89.695117
 30
0.0
 40
2.0
  1
6
  7
ROMANS
  0
TEXT
  8
0
  6
HIDDEN
 62
     7
 10
41.1717
 20
84.918802
 30
0.0
 40
2.0
  1
4
  7
ROMANS
  0
TEXT
  8
0
  6
HIDDEN
 62
     7
 10
41.1717
 20
79.690866
 30
0.0
 40
2.0
  1
5
  7
ROMANS
  0
TEXT
  8
0
  6
HIDDEN
 62
     7
 10
41.1717
 20
74.760338
 30
0.0
 40
2.0
  1
9
  7
ROMANS
  0
TEXT
  8
0
  6
HIDDEN
 62
     7
 10
41.1717
 20
69.686614
 30
0.0
 40
2.0
  1
7
  7
ROMANS
  0
TEXT
  8
0
  6
HIDDEN
 62
     7
 10
41.1717
 20
64.756087
 30
0.0
 40
2.0
  1
8
  7
ROMANS
  0
TEXT
  8
0
  6
HIDDEN
 62
     7
 10
17.455888
 20
212.527386
 30
0.0
 40
2.0
  1
2)
  7
ROMANS
  0
LINE
  8
0
  6
DASHED
 62
     7
 10
40.0
 20
132.5
 30
0.0
 11
27.5
 21
132.5
 31
0.0
  0
LINE
  8
0
  6
DASHED
 62
     7
 10
40.0
 20
127.5
 30
0.0
 11
27.5
 21
127.5
 31
0.0
  0
LINE
  8
0
  6
DASHED
 62
     7
 10
40.0
 20
117.5
 30
0.0
 11
27.5
 21
117.5
 31
0.0
  0
LINE
  8
0
  6
DASHED
 62
     7
 10
40.0
 20
122.5
 30
0.0
 11
27.5
 21
122.5
 31
0.0
  0
LINE
  8
0
  6
CONTINUOUS
 62
     7
 10
25.0
 20
122.5
 30
0.0
 11
26.0
 21
123.5
 31
0.0
  0
LINE
  8
0
  6
CONTINUOUS
 62
     7
 10
25.0
 20
117.499655
 30
0.0
 11
26.0
 21
116.499655
 31
0.0
  0
LINE
  8
0
  6
CONTINUOUS
 62
     7
 10
25.0
 20
122.5
 30
0.0
 11
25.0
 21
117.5
 31
0.0
  0
LINE
  8
0
  6
DASHED
 62
     7
 10
40.0
 20
67.5
 30
0.0
 11
27.5
 21
67.5
 31
0.0
  0
LINE
  8
0
  6
CONTINUOUS
 62
     7
 10
132.5
 20
45.0
 30
0.0
 11
222.500345
 21
45.0
 31
0.0
  0
LINE
  8
0
  6
CONTINUOUS
 62
     7
 10
222.500345
 20
45.0
 30
0.0
 11
223.500345
 21
46.0
 31
0.0
  0
LINE
  8
0
  6
CONTINUOUS
 62
     7
 10
132.5
 20
45.0
 30
0.0
 11
131.5
 21
46.0
 31
0.0
  0
LINE
  8
0
  6
CONTINUOUS
 62
     7
 10
132.5
 20
57.5
 30
0.0
 11
132.5
 21
50.0
 31
0.0
  0
LINE
  8
0
  6
CONTINUOUS
 62
     7
 10
162.5
 20
57.5
 30
0.0
 11
162.5
 21
50.0
 31
0.0
  0
LINE
  8
0
  6
CONTINUOUS
 62
     7
 10
215.0
 20
57.5
 30
0.0
 11
215.0
 21
50.0
 31
0.0
  0
LINE
  8
0
  6
CONTINUOUS
 62
     7
 10
222.5
 20
57.5
 30
0.0
 11
222.5
 21
50.0
 31
0.0
  0
LINE
  8
0
  6
HIDDEN
 62
     7
 10
180.0
 20
57.5
 30
0.0
 11
180.0
 21
50.0
 31
0.0
  0
LINE
  8
0
  6
HIDDEN
 62
     7
 10
210.450615
 20
57.5
 30
0.0
 11
210.450615
 21
50.0
 31
0.0
  0
TEXT
  8
0
  6
HIDDEN
 62
     7
 10
168.484926
 20
38.667815
 30
0.0
 40
2.0
  1
SHEET 2
  7
ROMANS
  0
TEXT
  8
0
  6
HIDDEN
 62
     7
 10
359.045981
 20
230.616883
 30
0.0
 40
2.5
  1
3U
  7
GREEKS
  0
LINE
  8
0
  6
CONTINUOUS
 62
     7
 10
366.621227
 20
231.88562
 30
0.0
 11
364.275462
 21
230.695701
 31
0.0
  0
LINE
  8
0
  6
CONTINUOUS
 62
     7
 10
364.275462
 20
233.220974
 30
0.0
 11
366.621227
 21
231.88562
 31
0.0
  0
LINE
  8
0
  6
CONTINUOUS
 62
     7
 10
358.82826
 20
227.679601
 30
0.0
 11
358.82826
 21
225.891469
 31
0.0
  0
LINE
  8
0
  6
CONTINUOUS
 62
     7
 10
358.859291
 20
226.834322
 30
0.0
 11
366.647496
 21
226.834322
 31
0.0
  0
LINE
  8
0
  6
CONTINUOUS
 62
     7
 10
363.688843
 20
229.032485
 30
0.0
 11
364.58952
 21
227.908736
 31
0.0
  0
ARC
  8
0
  6
HIDDEN
 62
     7
 10
365.554159
 20
230.762866
 30
0.0
 40
4.998196
 50
206.402922
 51
282.21115
  0
LINE
  8
0
  6
CONTINUOUS
 62
     7
 10
361.243436
 20
225.666719
 30
0.0
 11
364.119546
 21
228.495278
 31
0.0
  0
LINE
  8
0
  6
CONTINUOUS
 62
     7
 10
366.642955
 20
227.679601
 30
0.0
 11
366.642955
 21
225.891469
 31
0.0
  0
LINE
  8
0
  6
CONTINUOUS
 62
     7
 10
366.333378
 20
220.654685
 30
0.0
 11
363.987613
 21
221.990039
 31
0.0
  0
LINE
  8
0
  6
CONTINUOUS
 62
     7
 10
363.987613
 20
221.990039
 30
0.0
 11
366.333378
 21
223.179958
 31
0.0
  0
TEXT
  8
0
  6
HIDDEN
 62
     7
 10
359.045981
 20
220.703265
 30
0.0
 40
2.5
  1
3U
  7
GREEKS
  0
LINE
  8
0
  6
CONTINUOUS
 62
     7
 10
358.82826
 20
217.94118
 30
0.0
 11
358.82826
 21
216.153048
 31
0.0
  0
LINE
  8
0
  6
CONTINUOUS
 62
     7
 10
358.859291
 20
217.095901
 30
0.0
 11
366.647496
 21
217.095901
 31
0.0
  0
LINE
  8
0
  6
CONTINUOUS
 62
     7
 10
361.243436
 20
215.928298
 30
0.0
 11
364.119546
 21
218.756857
 31
0.0
  0
LINE
  8
0
  6
CONTINUOUS
 62
     7
 10
363.688843
 20
219.294064
 30
0.0
 11
364.58952
 21
218.170315
 31
0.0
  0
LINE
  8
0
  6
CONTINUOUS
 62
     7
 10
366.642955
 20
217.94118
 30
0.0
 11
366.642955
 21
216.153048
 31
0.0
  0
LINE
  8
0
  6
CONTINUOUS
 62
     7
 10
353.227984
 20
204.473716
 30
0.0
 11
373.227984
 21
204.473716
 31
0.0
  0
LINE
  8
0
  6
CONTINUOUS
 62
     7
 10
370.019318
 20
207.575942
 30
0.0
 11
370.019318
 21
205.78781
 31
0.0
  0
LINE
  8
0
  6
CONTINUOUS
 62
     7
 10
367.065206
 20
208.928826
 30
0.0
 11
367.965883
 21
207.805077
 31
0.0
  0
LINE
  8
0
  6
CONTINUOUS
 62
     7
 10
364.619799
 20
205.56306
 30
0.0
 11
367.49591
 21
208.391619
 31
0.0
  0
LINE
  8
0
  6
CONTINUOUS
 62
     7
 10
362.235654
 20
206.730663
 30
0.0
 11
370.023859
 21
206.730663
 31
0.0
  0
LINE
  8
0
  6
CONTINUOUS
 62
     7
 10
362.204623
 20
207.575942
 30
0.0
 11
362.204623
 21
205.78781
 31
0.0
  0
TEXT
  8
0
  6
CONTINUOUS
 62
     7
 10
356.095465
 20
206.086187
 30
0.0
 40
2.5
  1
n
  7
GREEKS
  0
TEXT
  8
0
  6
CONTINUOUS
 62
     7
 10
359.487037
 20
206.064157
 30
0.0
 40
2.0
  1
x
  7
GREEKS
  0
TEXT
  8
0
  6
CONTINUOUS
 62
     7
 10
342.883098
 20
68.813619
 30
0.0
 40
2.0
  1
L2
  7
ROMANS
  0
TEXT
  8
0
  6
CONTINUOUS
 62
     7
 10
357.246136
 20
68.82464
 30
0.0
 40
2.0
  1
4-6
  7
ROMANS
  0
TEXT
  8
0
  6
CONTINUOUS
 62
     7
 10
372.340486
 20
68.82464
 30
0.0
 40
2.0
  1
4-5
  7
ROMANS
  0
LINE
  8
0
 62
     7
 10
383.50882
 20
88.671798
 30
0.0
 11
339.50882
 21
88.671798
 31
0.0
  0
TEXT
  8
0
  6
HIDDEN
 62
     7
 10
342.919928
 20
52.944869
 30
0.0
 40
2.0
  1
U12
  7
ROMANS
  0
TEXT
  8
0
  6
HIDDEN
 62
     7
 10
342.919928
 20
48.872315
 30
0.0
 40
2.0
  1
U23
  7
ROMANS
  0
TEXT
  8
0
  6
HIDDEN
 62
     7
 10
342.919928
 20
44.962756
 30
0.0
 40
2.0
  1
U31
  7
ROMANS
  0
LINE
  8
0
  6
CONTINUOUS
 62
     7
 10
353.50882
 20
63.060985
 30
0.0
 11
383.493873
 21
63.060985
 31
0.0
  0
TEXT
  8
0
  6
CONTINUOUS
 62
     7
 10
355.815824
 20
52.94301
 30
0.0
 40
2.0
  1
13-14
  7
ROMANS
  0
TEXT
  8
0
  6
CONTINUOUS
 62
     7
 10
355.815824
 20
48.860291
 30
0.0
 40
2.0
  1
16-17
  7
ROMANS
  0
TEXT
  8
0
  6
CONTINUOUS
 62
     7
 10
355.815824
 20
44.98696
 30
0.0
 40
2.0
  1
19-20
  7
ROMANS
  0
TEXT
  8
0
  6
CONTINUOUS
 62
     7
 10
371.290577
 20
52.920969
 30
0.0
 40
2.0
  1
13-15
  7
ROMANS
  0
TEXT
  8
0
  6
CONTINUOUS
 62
     7
 10
371.290577
 20
48.849271
 30
0.0
 40
2.0
  1
16-18
  7
ROMANS
  0
TEXT
  8
0
  6
CONTINUOUS
 62
     7
 10
371.290577
 20
44.99798
 30
0.0
 40
2.0
  1
19-21
  7
ROMANS
  0
TEXT
  8
0
  6
CONTINUOUS
 62
     7
 10
333.326001
 20
85.711176
 30
0.0
 40
2.0
  1
1)
  7
ROMANS
  0
TEXT
  8
0
  6
CONTINUOUS
 62
     7
 10
11.860934
 20
40.664692
 30
0.0
 40
2.0
  1
2) BLOCKING INPUT /
  7
ROMANS
  0
TEXT
  8
0
  6
CONTINUOUS
 62
     7
 10
13.199949
 20
37.331358
 30
0.0
 40
2.0
  1
  BLOCKERING IN
  7
ROMANS
  0
TEXT
  8
0
  6
CONTINUOUS
 62
     7
 10
11.860934
 20
31.498025
 30
0.0
 40
2.0
  1
3) TRIP 1 /
  7
ROMANS
  0
TEXT
  8
0
  6
CONTINUOUS
 62
     7
 10
13.199949
 20
28.164692
 30
0.0
 40
2.0
  1
  UTLÖSNING 1
  7
ROMANS
  0
TEXT
  8
0
  6
CONTINUOUS
 62
     7
 10
11.860934
 20
22.323237
 30
0.0
 40
2.0
  1
4) TRIP 2 OR ALARM OUTPUT /
  7
ROMANS
  0
TEXT
  8
0
  6
CONTINUOUS
 62
     7
 10
13.184733
 20
18.989903
 30
0.0
 40
2.0
  1
  UTLÖSNING 2 ELLER SIGNALUTGÅNG
  7
ROMANS
  0
TEXT
  8
0
  6
CONTINUOUS
 62
     7
 10
80.850637
 20
31.363048
 30
0.0
 40
2.0
  1
5) ALARM OUTPUT /
  7
ROMANS
  0
TEXT
  8
0
  6
CONTINUOUS
 62
     7
 10
82.18879
 20
28.029715
 30
0.0
 40
2.0
  1
  SIGNALUTGÅNG
  7
ROMANS
  0
TEXT
  8
0
  6
CONTINUOUS
 62
     7
 10
80.850637
 20
22.306098
 30
0.0
 40
2.0
  1
6) START, BLOCKING ETC.
  7
ROMANS
  0
TEXT
  8
0
  6
CONTINUOUS
 62
     7
 10
82.189015
 20
18.972765
 30
0.0
 40
2.0
  1
  START, BLOCKERING MM.
  7
ROMANS
  0
LINE
  8
0
  6
DASHED
 62
     7
 10
372.5
 20
95.0
 30
0.0
 11
372.5
 21
115.0
 31
0.0
  0
LINE
  8
0
  6
DASHED
 62
     7
 10
365.0
 20
102.5
 30
0.0
 11
365.0
 21
115.0
 31
0.0
  0
LINE
  8
0
  6
DASHED
 62
     7
 10
357.5
 20
120.0
 30
0.0
 11
357.5
 21
115.0
 31
0.0
  0
TEXT
  8
0
  6
DASHED
 62
     7
 10
332.5
 20
148.991307
 30
0.0
 40
2.0
  1
L3(T)
  7
ROMANS
  0
TEXT
  8
0
  6
DASHED
 62
     7
 10
332.5
 20
154.010757
 30
0.0
 40
2.0
  1
L2(S)
  7
ROMANS
  0
TEXT
  8
0
  6
DASHED
 62
     7
 10
332.5
 20
159.030207
 30
0.0
 40
2.0
  1
L1(R)
  7
ROMANS
  0
LINE
  8
0
  6
DASHED
 62
     7
 10
380.0
 20
150.0
 30
0.0
 11
342.5
 21
150.0
 31
0.0
  0
LINE
  8
0
  6
DASHED
 62
     7
 10
380.0
 20
155.0
 30
0.0
 11
342.5
 21
155.0
 31
0.0
  0
LINE
  8
0
  6
DASHED
 62
     7
 10
380.0
 20
160.0
 30
0.0
 11
342.5
 21
160.0
 31
0.0
  0
LINE
  8
0
  6
DASHED
 62
     7
 10
357.5
 20
137.5
 30
0.0
 11
357.5
 21
160.0
 31
0.0
  0
LINE
  8
0
  6
DASHED
 62
     7
 10
365.0
 20
137.5
 30
0.0
 11
365.0
 21
155.0
 31
0.0
  0
LINE
  8
0
  6
DASHED
 62
     7
 10
372.5
 20
137.5
 30
0.0
 11
372.5
 21
150.0
 31
0.0
  0
LINE
  8
0
  6
CONTINUOUS
 62
     7
 10
356.506031
 20
125.098556
 30
0.0
 11
357.478167
 21
125.098556
 31
0.0
  0
LINE
  8
0
  6
CONTINUOUS
 62
     7
 10
356.496128
 20
127.499996
 30
0.0
 11
357.473936
 21
127.499996
 31
0.0
  0
LINE
  8
0
  6
CONTINUOUS
 62
     7
 10
356.500897
 20
122.68998
 30
0.0
 11
357.5
 21
122.68998
 31
0.0
  0
ARC
  8
0
  6
CONTINUOUS
 62
     7
 10
355.864862
 20
123.894238
 30
0.0
 40
1.204309
 50
90.0
 51
270.0
  0
LINE
  8
0
  6
CONTINUOUS
 62
     7
 10
355.859898
 20
122.689937
 30
0.0
 11
356.509496
 21
122.689937
 31
0.0
  0
LINE
  8
0
  6
CONTINUOUS
 62
     7
 10
355.858762
 20
127.499993
 30
0.0
 11
356.502261
 21
127.499993
 31
0.0
  0
LINE
  8
0
  6
CONTINUOUS
 62
     7
 10
355.858762
 20
125.098547
 30
0.0
 11
356.50836
 21
125.098547
 31
0.0
  0
ARC
  8
0
  6
CONTINUOUS
 62
     7
 10
355.864862
 20
126.296095
 30
0.0
 40
1.204309
 50
90.0
 51
265.706237
  0
LINE
  8
0
  6
CONTINUOUS
 62
     7
 10
364.006031
 20
125.098556
 30
0.0
 11
364.978167
 21
125.098556
 31
0.0
  0
LINE
  8
0
  6
CONTINUOUS
 62
     7
 10
363.996128
 20
127.499996
 30
0.0
 11
364.973936
 21
127.499996
 31
0.0
  0
LINE
  8
0
  6
CONTINUOUS
 62
     7
 10
364.000897
 20
122.68998
 30
0.0
 11
365.0
 21
122.68998
 31
0.0
  0
ARC
  8
0
  6
CONTINUOUS
 62
     7
 10
363.364862
 20
123.894238
 30
0.0
 40
1.204309
 50
90.0
 51
270.0
  0
LINE
  8
0
  6
CONTINUOUS
 62
     7
 10
363.359898
 20
122.689937
 30
0.0
 11
364.009496
 21
122.689937
 31
0.0
  0
LINE
  8
0
  6
CONTINUOUS
 62
     7
 10
363.358762
 20
127.499993
 30
0.0
 11
364.002261
 21
127.499993
 31
0.0
  0
LINE
  8
0
  6
CONTINUOUS
 62
     7
 10
363.358762
 20
125.098547
 30
0.0
 11
364.00836
 21
125.098547
 31
0.0
  0
ARC
  8
0
  6
CONTINUOUS
 62
     7
 10
363.364862
 20
126.296095
 30
0.0
 40
1.204309
 50
90.0
 51
265.706237
  0
LINE
  8
0
  6
CONTINUOUS
 62
     7
 10
365.0
 20
122.68998
 30
0.0
 11
365.0
 21
120.0
 31
0.0
  0
LINE
  8
0
  6
CONTINUOUS
 62
     7
 10
357.5
 20
122.68998
 30
0.0
 11
357.5
 21
120.0
 31
0.0
  0
LINE
  8
0
  6
CONTINUOUS
 62
     7
 10
357.5
 20
127.5
 30
0.0
 11
377.5
 21
127.5
 31
0.0
  0
LINE
  8
0
  6
CONTINUOUS
 62
     7
 10
371.506031
 20
125.098556
 30
0.0
 11
372.478167
 21
125.098556
 31
0.0
  0
LINE
  8
0
  6
CONTINUOUS
 62
     7
 10
371.496128
 20
127.499996
 30
0.0
 11
372.473936
 21
127.499996
 31
0.0
  0
LINE
  8
0
  6
CONTINUOUS
 62
     7
 10
371.500897
 20
122.68998
 30
0.0
 11
372.5
 21
122.68998
 31
0.0
  0
ARC
  8
0
  6
CONTINUOUS
 62
     7
 10
370.864862
 20
123.894238
 30
0.0
 40
1.204309
 50
90.0
 51
270.0
  0
LINE
  8
0
  6
CONTINUOUS
 62
     7
 10
370.859898
 20
122.689937
 30
0.0
 11
371.509496
 21
122.689937
 31
0.0
  0
LINE
  8
0
  6
CONTINUOUS
 62
     7
 10
370.858762
 20
127.499993
 30
0.0
 11
371.502261
 21
127.499993
 31
0.0
  0
LINE
  8
0
  6
CONTINUOUS
 62
     7
 10
370.858762
 20
125.098547
 30
0.0
 11
371.50836
 21
125.098547
 31
0.0
  0
ARC
  8
0
  6
CONTINUOUS
 62
     7
 10
370.864862
 20
126.296095
 30
0.0
 40
1.204309
 50
90.0
 51
265.706237
  0
LINE
  8
0
  6
CONTINUOUS
 62
     7
 10
372.5
 20
122.68998
 30
0.0
 11
372.5
 21
120.0
 31
0.0
  0
LINE
  8
0
  6
CONTINUOUS
 62
     7
 10
357.5
 20
132.68998
 30
0.0
 11
377.5
 21
132.68998
 31
0.0
  0
LINE
  8
0
  6
DASHED
 62
     7
 10
282.5
 20
95.0
 30
0.0
 11
372.5
 21
95.0
 31
0.0
  0
LINE
  8
0
  6
DASHED
 62
     7
 10
277.5
 20
102.5
 30
0.0
 11
365.0
 21
102.5
 31
0.0
  0
LINE
  8
0
  6
DASHED
 62
     7
 10
250.0
 20
110.0
 30
0.0
 11
262.5
 21
110.0
 31
0.0
  0
TEXT
  8
0
  6
DASHED
 62
     7
 10
256.160685
 20
80.791503
 30
0.0
 40
2.0
  1
1)
  7
ROMANS
  0
TEXT
  8
0
  6
DASHED
 62
     7
 10
256.160685
 20
100.791503
 30
0.0
 40
2.0
  1
1)
  7
ROMANS
  0
TEXT
  8
0
  6
DASHED
 62
     7
 10
256.160685
 20
120.791503
 30
0.0
 40
2.0
  1
1)
  7
ROMANS
  0
LINE
  8
0
  6
DASHED
 62
     7
 10
282.5
 20
80.0
 30
0.0
 11
282.5
 21
95.0
 31
0.0
  0
LINE
  8
0
  6
DASHED
 62
     7
 10
277.5
 20
100.0
 30
0.0
 11
277.5
 21
102.5
 31
0.0
  0
LINE
  8
0
  6
DASHED
 62
     7
 10
255.0
 20
80.0
 30
0.0
 11
282.5
 21
80.0
 31
0.0
  0
LINE
  8
0
  6
DASHED
 62
     7
 10
267.5
 20
120.0
 30
0.0
 11
267.5
 21
70.0
 31
0.0
  0
LINE
  8
0
  6
DASHED
 62
     7
 10
255.0
 20
120.0
 30
0.0
 11
272.5
 21
120.0
 31
0.0
  0
LINE
  8
0
  6
DASHED
 62
     7
 10
262.5
 20
90.0
 30
0.0
 11
262.5
 21
80.0
 31
0.0
  0
LINE
  8
0
  6
DASHED
 62
     7
 10
255.0
 20
100.0
 30
0.0
 11
277.5
 21
100.0
 31
0.0
  0
LINE
  8
0
  6
CONTINUOUS
 62
     7
 10
255.0
 20
80.3468
 30
0.0
 11
255.0
 21
74.66187
 31
0.0
  0
LINE
  8
0
  6
CONTINUOUS
 62
     7
 10
255.0
 20
74.66187
 30
0.0
 11
254.0
 21
73.66187
 31
0.0
  0
LINE
  8
0
  6
CONTINUOUS
 62
     7
 10
255.0
 20
80.3468
 30
0.0
 11
254.0
 21
81.3468
 31
0.0
  0
LINE
  8
0
  6
CONTINUOUS
 62
     7
 10
255.0
 20
100.3468
 30
0.0
 11
254.0
 21
101.3468
 31
0.0
  0
LINE
  8
0
  6
CONTINUOUS
 62
     7
 10
255.0
 20
94.66187
 30
0.0
 11
254.0
 21
93.66187
 31
0.0
  0
LINE
  8
0
  6
CONTINUOUS
 62
     7
 10
255.0
 20
100.3468
 30
0.0
 11
255.0
 21
94.66187
 31
0.0
  0
LINE
  8
0
  6
CONTINUOUS
 62
     7
 10
255.0
 20
120.3468
 30
0.0
 11
255.0
 21
114.66187
 31
0.0
  0
LINE
  8
0
  6
CONTINUOUS
 62
     7
 10
255.0
 20
114.66187
 30
0.0
 11
254.0
 21
113.66187
 31
0.0
  0
LINE
  8
0
  6
CONTINUOUS
 62
     7
 10
255.0
 20
120.3468
 30
0.0
 11
254.0
 21
121.3468
 31
0.0
  0
LINE
  8
0
  6
CONTINUOUS
 62
     7
 10
250.0
 20
120.0
 30
0.0
 11
252.5
 21
120.0
 31
0.0
  0
LINE
  8
0
  6
CONTINUOUS
 62
     7
 10
250.0
 20
115.0
 30
0.0
 11
252.5
 21
115.0
 31
0.0
  0
LINE
  8
0
  6
CONTINUOUS
 62
     7
 10
250.0
 20
100.0
 30
0.0
 11
252.5
 21
100.0
 31
0.0
  0
LINE
  8
0
  6
CONTINUOUS
 62
     7
 10
250.0
 20
95.0
 30
0.0
 11
252.5
 21
95.0
 31
0.0
  0
LINE
  8
0
  6
DASHED
 62
     7
 10
250.0
 20
90.0
 30
0.0
 11
262.5
 21
90.0
 31
0.0
  0
LINE
  8
0
  6
CONTINUOUS
 62
     7
 10
250.0
 20
80.0
 30
0.0
 11
252.5
 21
80.0
 31
0.0
  0
LINE
  8
0
  6
CONTINUOUS
 62
     7
 10
250.0
 20
75.0
 30
0.0
 11
252.5
 21
75.0
 31
0.0
  0
LINE
  8
0
  6
DASHED
 62
     7
 10
250.0
 20
70.0
 30
0.0
 11
267.5
 21
70.0
 31
0.0
  0
LINE
  8
0
  6
DASHED
 62
     7
 10
357.5
 20
115.0
 30
0.0
 11
357.5
 21
110.0
 31
0.0
  0
LINE
  8
0
  6
DASHED
 62
     7
 10
365.0
 20
115.0
 30
0.0
 11
365.0
 21
120.0
 31
0.0
  0
LINE
  8
0
  6
DASHED
 62
     7
 10
372.5
 20
115.0
 30
0.0
 11
372.5
 21
120.0
 31
0.0
  0
LINE
  8
0
  6
CONTINUOUS
 62
     7
 10
255.0
 20
175.3468
 30
0.0
 11
255.0
 21
169.66187
 31
0.0
  0
LINE
  8
0
  6
CONTINUOUS
 62
     7
 10
255.0
 20
169.66187
 30
0.0
 11
254.0
 21
168.66187
 31
0.0
  0
LINE
  8
0
  6
CONTINUOUS
 62
     7
 10
255.0
 20
175.3468
 30
0.0
 11
254.0
 21
176.3468
 31
0.0
  0
LINE
  8
0
  6
CONTINUOUS
 62
     7
 10
255.0
 20
195.3468
 30
0.0
 11
254.0
 21
196.3468
 31
0.0
  0
LINE
  8
0
  6
CONTINUOUS
 62
     7
 10
255.0
 20
189.66187
 30
0.0
 11
254.0
 21
188.66187
 31
0.0
  0
LINE
  8
0
  6
CONTINUOUS
 62
     7
 10
255.0
 20
195.3468
 30
0.0
 11
255.0
 21
189.66187
 31
0.0
  0
LINE
  8
0
  6
CONTINUOUS
 62
     7
 10
255.0
 20
215.3468
 30
0.0
 11
255.0
 21
209.66187
 31
0.0
  0
LINE
  8
0
  6
CONTINUOUS
 62
     7
 10
255.0
 20
209.66187
 30
0.0
 11
254.0
 21
208.66187
 31
0.0
  0
LINE
  8
0
  6
CONTINUOUS
 62
     7
 10
255.0
 20
215.3468
 30
0.0
 11
254.0
 21
216.3468
 31
0.0
  0
LINE
  8
0
  6
DASHED
 62
     7
 10
290.0
 20
175.0
 30
0.0
 11
255.0
 21
175.0
 31
0.0
  0
LINE
  8
0
  6
DASHED
 62
     7
 10
285.0
 20
195.0
 30
0.0
 11
255.0
 21
195.0
 31
0.0
  0
LINE
  8
0
  6
DASHED
 62
     7
 10
280.0
 20
215.0
 30
0.0
 11
255.0
 21
215.0
 31
0.0
  0
LINE
  8
0
  6
DASHED
 62
     7
 10
275.0
 20
210.189992
 30
0.0
 11
275.0
 21
162.5
 31
0.0
  0
LINE
  8
0
  6
DASHED
 62
     7
 10
260.0
 20
205.0
 30
0.0
 11
260.0
 21
165.0
 31
0.0
  0
LINE
  8
0
  6
DASHED
 62
     7
 10
290.006921
 20
170.189984
 30
0.0
 11
275.0
 21
170.189984
 31
0.0
  0
LINE
  8
0
  6
DASHED
 62
     7
 10
285.069797
 20
190.189984
 30
0.0
 11
275.0
 21
190.189984
 31
0.0
  0
LINE
  8
0
  6
DASHED
 62
     7
 10
280.0
 20
187.5
 30
0.0
 11
280.0
 21
162.5
 31
0.0
  0
LINE
  8
0
  6
DASHED
 62
     7
 10
285.0
 20
187.5
 30
0.0
 11
285.0
 21
162.5
 31
0.0
  0
LINE
  8
0
  6
DASHED
 62
     7
 10
290.0
 20
187.5
 30
0.0
 11
290.0
 21
162.5
 31
0.0
  0
LINE
  8
0
  6
DASHED
 62
     7
 10
280.0
 20
220.0
 30
0.0
 11
280.0
 21
187.5
 31
0.0
  0
LINE
  8
0
  6
DASHED
 62
     7
 10
280.0
 20
227.5
 30
0.0
 11
280.0
 21
240.0
 31
0.0
  0
LINE
  8
0
  6
DASHED
 62
     7
 10
285.0
 20
250.0
 30
0.0
 11
285.0
 21
227.5
 31
0.0
  0
LINE
  8
0
  6
DASHED
 62
     7
 10
285.0
 20
220.0
 30
0.0
 11
285.0
 21
187.5
 31
0.0
  0
LINE
  8
0
  6
DASHED
 62
     7
 10
290.0
 20
245.0
 30
0.0
 11
290.0
 21
227.5
 31
0.0
  0
LINE
  8
0
  6
DASHED
 62
     7
 10
290.0
 20
220.0
 30
0.0
 11
290.0
 21
187.5
 31
0.0
  0
LINE
  8
0
  6
DASHED
 62
     7
 10
285.0
 20
240.0
 30
0.0
 11
285.0
 21
247.5
 31
0.0
  0
LINE
  8
0
  6
DASHED
 62
     7
 10
280.0
 20
240.0
 30
0.0
 11
280.0
 21
255.0
 31
0.0
  0
LINE
  8
0
  6
CONTINUOUS
 62
     7
 10
280.0
 20
220.0
 30
0.0
 11
277.5
 21
227.5
 31
0.0
  0
LINE
  8
0
  6
CONTINUOUS
 62
     7
 10
285.0
 20
220.0
 30
0.0
 11
282.5
 21
227.5
 31
0.0
  0
LINE
  8
0
  6
CONTINUOUS
 62
     7
 10
290.0
 20
220.0
 30
0.0
 11
287.5
 21
227.5
 31
0.0
  0
LINE
  8
0
  6
CONTINUOUS
 62
     7
 10
280.0
 20
227.5
 30
0.0
 11
279.5
 21
228.0
 31
0.0
  0
LINE
  8
0
  6
CONTINUOUS
 62
     7
 10
280.0
 20
227.5
 30
0.0
 11
280.5
 21
227.0
 31
0.0
  0
LINE
  8
0
  6
CONTINUOUS
 62
     7
 10
280.0
 20
227.5
 30
0.0
 11
280.5
 21
228.0
 31
0.0
  0
LINE
  8
0
  6
CONTINUOUS
 62
     7
 10
280.0
 20
227.5
 30
0.0
 11
279.5
 21
227.0
 31
0.0
  0
LINE
  8
0
  6
CONTINUOUS
 62
     7
 10
285.0
 20
227.5
 30
0.0
 11
285.5
 21
228.0
 31
0.0
  0
LINE
  8
0
  6
CONTINUOUS
 62
     7
 10
285.0
 20
227.5
 30
0.0
 11
285.5
 21
227.0
 31
0.0
  0
LINE
  8
0
  6
CONTINUOUS
 62
     7
 10
285.0
 20
227.5
 30
0.0
 11
284.5
 21
227.0
 31
0.0
  0
LINE
  8
0
  6
CONTINUOUS
 62
     7
 10
285.0
 20
227.5
 30
0.0
 11
284.5
 21
228.0
 31
0.0
  0
LINE
  8
0
  6
CONTINUOUS
 62
     7
 10
290.0
 20
227.5
 30
0.0
 11
290.5
 21
227.0
 31
0.0
  0
LINE
  8
0
  6
CONTINUOUS
 62
     7
 10
290.0
 20
227.5
 30
0.0
 11
290.5
 21
228.0
 31
0.0
  0
LINE
  8
0
  6
CONTINUOUS
 62
     7
 10
290.0
 20
227.5
 30
0.0
 11
289.5
 21
228.0
 31
0.0
  0
LINE
  8
0
  6
CONTINUOUS
 62
     7
 10
290.0
 20
227.5
 30
0.0
 11
289.5
 21
227.0
 31
0.0
  0
LINE
  8
0
  6
DASHED
 62
     7
 10
280.0
 20
210.189992
 30
0.0
 11
275.0
 21
210.189992
 31
0.0
  0
TEXT
  8
0
  6
CONTINUOUS
 62
     7
 10
263.732328
 20
253.985054
 30
0.0
 40
2.0
  1
L1(R)
  7
ROMANS
 11
263.732328
 21
253.318387
 31
0.0
 73
     1
  0
TEXT
  8
0
  6
CONTINUOUS
 62
     7
 10
263.732328
 20
248.928359
 30
0.0
 40
2.0
  1
L2(S)
  7
ROMANS
 11
263.732328
 21
248.261693
 31
0.0
 73
     1
  0
TEXT
  8
0
  6
CONTINUOUS
 62
     7
 10
263.732328
 20
244.006967
 30
0.0
 40
2.0
  1
L3(T)
  7
ROMANS
 11
263.732328
 21
243.3403
 31
0.0
 73
     1
  0
LINE
  8
0
  6
DASHED
 62
     7
 10
250.0
 20
165.0
 30
0.0
 11
275.0
 21
165.0
 31
0.0
  0
LINE
  8
0
  6
CONTINUOUS
 62
     7
 10
250.0
 20
170.0
 30
0.0
 11
252.5
 21
170.0
 31
0.0
  0
LINE
  8
0
  6
CONTINUOUS
 62
     7
 10
250.0
 20
175.0
 30
0.0
 11
252.5
 21
175.0
 31
0.0
  0
LINE
  8
0
  6
DASHED
 62
     7
 10
250.0
 20
185.0
 30
0.0
 11
260.0
 21
185.0
 31
0.0
  0
LINE
  8
0
  6
CONTINUOUS
 62
     7
 10
250.0
 20
190.0
 30
0.0
 11
252.5
 21
190.0
 31
0.0
  0
LINE
  8
0
  6
CONTINUOUS
 62
     7
 10
250.0
 20
195.0
 30
0.0
 11
252.5
 21
195.0
 31
0.0
  0
LINE
  8
0
  6
DASHED
 62
     7
 10
250.0
 20
205.0
 30
0.0
 11
260.0
 21
205.0
 31
0.0
  0
LINE
  8
0
  6
CONTINUOUS
 62
     7
 10
250.0
 20
210.0
 30
0.0
 11
252.5
 21
210.0
 31
0.0
  0
LINE
  8
0
  6
CONTINUOUS
 62
     7
 10
250.0
 20
215.0
 30
0.0
 11
252.5
 21
215.0
 31
0.0
  0
LINE
  8
0
  6
DASHED
 62
     7
 10
302.5
 20
245.0
 30
0.0
 11
272.5
 21
245.0
 31
0.0
  0
LINE
  8
0
  6
DASHED
 62
     7
 10
302.5
 20
250.0
 30
0.0
 11
272.5
 21
250.0
 31
0.0
  0
LINE
  8
0
  6
DASHED
 62
     7
 10
302.5
 20
255.0
 30
0.0
 11
272.5
 21
255.0
 31
0.0
  0
TEXT
  8
0
  6
CONTINUOUS
 62
     7
 10
255.871082
 20
216.069215
 30
0.0
 40
2.0
  1
1)
  7
ROMANS
  0
TEXT
  8
0
  6
CONTINUOUS
 62
     7
 10
255.871082
 20
196.080827
 30
0.0
 40
2.0
  1
1)
  7
ROMANS
  0
TEXT
  8
0
  6
CONTINUOUS
 62
     7
 10
255.871082
 20
176.083768
 30
0.0
 40
2.0
  1
1)
  7
ROMANS
  0
TEXT
  8
0
  6
CONTINUOUS
 62
     7
 10
212.764026
 20
28.12979
 30
0.0
 40
2.0
  1
1992-08-19 HJ / RITU
  7
ROMANS
  0
LINE
  8
0
  6
CONTINUOUS
 62
     7
 10
57.5
 20
132.5
 30
0.0
 11
51.756076
 21
129.285297
 31
0.0
  0
TEXT
  8
0
  6
CONTINUOUS
 62
     7
 10
50.0
 20
155.0
 30
0.0
 40
2.0
  1
SGR
 50
90.0
  7
ROMANS
  0
TEXT
  8
0
  6
CONTINUOUS
 62
     7
 10
40.452983
 20
51.497323
 30
0.0
 40
2.0
  1
DIM 185 X 210
  7
ROMANS
  0
TEXT
  8
0
  6
CONTINUOUS
 62
     7
 10
40.452983
 20
48.16399
 30
0.0
 40
2.0
  1
RS 10106-AAC
  7
ROMANS
  0
TEXT
  8
0
  6
CONTINUOUS
 62
     7
 10
322.5
 20
27.5
 30
0.0
 40
2.0
  1
TERMINAL DIAGRAM / UTTAGSSCHEMA
  7
ROMANS
  0
TEXT
  8
0
  6
CONTINUOUS
 62
     7
 10
322.5
 20
24.166667
 30
0.0
 40
2.0
  1
SPAC 634 C2
  7
ROMANS
  0
TEXT
  8
0
  6
CONTINUOUS
 62
     7
 10
322.5
 20
2.5
 30
0.0
 40
2.5
  1
RS 10106-AAC
  7
ROMANS
  0
TEXT
  8
0
  6
CONTINUOUS
 62
     7
 10
350.0
 20
197.5
 30
0.0
 40
2.0
  1
FEEDER TERMINAL / 
  7
ROMANS
  0
TEXT
  8
0
  6
CONTINUOUS
 62
     7
 10
350.0
 20
194.166667
 30
0.0
 40
2.0
  1
LEDNINGSTERMINAL
  7
ROMANS
  0
TEXT
  8
0
  6
CONTINUOUS
 62
     7
 10
380.0
 20
2.5
 30
0.0
 40
2.5
  1
B
  7
ROMANS
  0
TEXT
  8
0
  6
CONTINUOUS
 62
     7
 10
45.0
 20
237.5
 30
0.0
 40
2.0
  1
RS 10106-AA  SPAC 634 C
  7
ROMANS
  0
LINE
  8
0
  6
DASHED
 62
     7
 10
262.5
 20
110.0
 30
0.0
 11
262.5
 21
100.0
 31
0.0
  0
LINE
  8
0
  6
DASHED
 62
     7
 10
272.5
 20
120.0
 30
0.0
 11
272.5
 21
110.0
 31
0.0
  0
LINE
  8
0
  6
DASHED
 62
     7
 10
272.5
 20
110.0
 30
0.0
 11
357.5
 21
110.0
 31
0.0
  0
TEXT
  8
0
  6
CONTINUOUS
 62
     7
 10
293.591252
 20
200.324509
 30
0.0
 40
2.0
  1
P/Q
  7
ROMANS
  0
TEXT
  8
0
  6
CONTINUOUS
 62
     7
 10
54.557181
 20
1.348184
 30
0.0
 40
2.0
  1
A CHANGE OF CONNECTION FOR THE VOLTAGE TRANSFORMER 1993-05-06  KM / RITU Power
  7
ROMANS
  0
TEXT
  8
0
  6
DASHED
 62
     7
 10
292.217194
 20
11.813359
 30
0.0
 40
3.0
  1
A3
  7
GREEKS
  0
TEXT
  8
0
  6
DASHED
 62
     7
 10
351.818577
 20
15.69253
 30
0.0
 40
1.4
  1
LEHTI SHEET
  7
GREEKS
  0
LINE
  8
0
 62
     7
 10
0.237099
 20
262.737999
 30
0.0
 11
392.237099
 21
262.737999
 31
0.0
  0
LINE
  8
0
 62
     7
 10
18.237099
 20
0.237999
 30
0.0
 11
0.237099
 21
0.237999
 31
0.0
  0
LINE
  8
0
 62
     7
 10
209.237099
 20
0.237999
 30
0.0
 11
392.237099
 21
0.237999
 31
0.0
  0
LINE
  8
0
 62
     7
 10
209.237099
 20
0.237999
 30
0.0
 11
209.237099
 21
35.237999
 31
0.0
  0
LINE
  8
0
 62
     7
 10
392.237099
 20
0.237999
 30
0.0
 11
392.237099
 21
35.237999
 31
0.0
  0
LINE
  8
0
 62
     7
 10
209.237099
 20
18.237999
 30
0.0
 11
392.237099
 21
18.237999
 31
0.0
  0
LINE
  8
0
 62
     7
 10
209.237099
 20
9.737999
 30
0.0
 11
392.237099
 21
9.737999
 31
0.0
  0
LINE
  8
0
 62
     7
 10
209.237099
 20
26.737999
 30
0.0
 11
307.237099
 21
26.737999
 31
0.0
  0
LINE
  8
0
 62
     7
 10
209.237099
 20
35.237999
 30
0.0
 11
392.237099
 21
35.237999
 31
0.0
  0
TEXT
  8
0
 62
     7
 10
210.237099
 20
23.971333
 30
0.0
 40
1.4
  1
TARKASTI  CHECKED
  7
ROMANS
  0
TEXT
  8
0
 62
     7
 10
209.979934
 20
15.704666
 30
0.0
 40
1.4
  1
HYVÄKSYI  APPROVED
  7
ROMANS
  0
LINE
  8
0
 62
     7
 10
307.237099
 20
0.237999
 30
0.0
 11
307.237099
 21
35.237999
 31
0.0
  0
TEXT
  8
0
 62
     7
 10
259.237099
 20
32.737999
 30
0.0
 40
1.4
  1
LIITTYY  CONCERNING
  7
ROMANS
  0
TEXT
  8
0
 62
     7
 10
259.237099
 20
23.737999
 30
0.0
 40
1.4
  1
TOLERANSSIT  TOLERANCES
  7
ROMANS
  0
TEXT
  8
0
 62
     7
 10
259.237099
 20
15.737999
 30
0.0
 40
1.4
  1
SUHDE  SCALE
  7
ROMANS
  0
TEXT
  8
0
 62
     7
 10
309.237099
 20
32.737999
 30
0.0
 40
1.4
  1
NIMITYS  NAME
  7
ROMANS
  0
TEXT
  8
0
 62
     7
 10
309.237099
 20
15.737999
 30
0.0
 40
1.4
  1
KOODI  CODE
  7
ROMANS
  0
TEXT
  8
0
 62
     7
 10
309.237099
 20
7.237999
 30
0.0
 40
1.4
  1
PIIRUSTUS NO  DRAWING NR
  7
ROMANS
  0
LINE
  8
0
 62
     7
 10
349.737099
 20
9.737999
 30
0.0
 11
349.737099
 21
18.237999
 31
0.0
  0
TEXT
  8
0
 62
     7
 10
371.237099
 20
7.237999
 30
0.0
 40
1.4
  1
PAINOS  REVISION
  7
ROMANS
  0
LINE
  8
0
 62
     7
 10
369.737099
 20
9.737999
 30
0.0
 11
369.737099
 21
0.237999
 31
0.0
  0
LINE
  8
0
 62
     7
 10
210.187099
 20
1.737999
 30
0.0
 11
211.937099
 21
1.737999
 31
0.0
  0
LINE
  8
0
 62
     7
 10
215.437099
 20
1.737999
 30
0.0
 11
217.187099
 21
1.737999
 31
0.0
  0
LINE
  8
0
 62
     7
 10
212.637099
 20
8.737999
 30
0.0
 11
211.459571
 21
5.373634
 31
0.0
  0
LINE
  8
0
 62
     7
 10
212.425886
 20
3.137999
 30
0.0
 11
213.547099
 21
3.137999
 31
0.0
  0
LINE
  8
0
 62
     7
 10
212.425889
 20
3.134542
 30
0.0
 11
211.937099
 21
1.737999
 31
0.0
  0
LINE
  8
0
 62
     7
 10
214.737099
 20
8.737999
 30
0.0
 11
215.913452
 21
5.376991
 31
0.0
  0
LINE
  8
0
 62
     7
 10
214.948197
 20
3.134863
 30
0.0
 11
215.437099
 21
1.737999
 31
0.0
  0
LINE
  8
0
 62
     7
 10
214.737099
 20
8.737999
 30
0.0
 11
213.827099
 21
8.737999
 31
0.0
  0
LINE
  8
0
 62
     7
 10
213.547099
 20
8.737999
 30
0.0
 11
213.547099
 21
5.377999
 31
0.0
  0
LINE
  8
0
 62
     7
 10
213.827099
 20
8.737999
 30
0.0
 11
213.827099
 21
5.377999
 31
0.0
  0
LINE
  8
0
 62
     7
 10
213.827099
 20
3.137999
 30
0.0
 11
214.946992
 21
3.137999
 31
0.0
  0
LINE
  8
0
 62
     7
 10
213.547099
 20
8.737999
 30
0.0
 11
212.637099
 21
8.737999
 31
0.0
  0
LINE
  8
0
 62
     7
 10
211.45904
 20
5.377999
 30
0.0
 11
213.547099
 21
5.377999
 31
0.0
  0
LINE
  8
0
 62
     7
 10
211.360082
 20
5.097999
 30
0.0
 11
213.547099
 21
5.097999
 31
0.0
  0
LINE
  8
0
 62
     7
 10
216.011591
 20
5.096594
 30
0.0
 11
217.187099
 21
1.737999
 31
0.0
  0
LINE
  8
0
 62
     7
 10
213.827099
 20
5.377999
 30
0.0
 11
215.912213
 21
5.377999
 31
0.0
  0
LINE
  8
0
 62
     7
 10
213.827099
 20
5.097999
 30
0.0
 11
216.010356
 21
5.097999
 31
0.0
  0
LINE
  8
0
 62
     7
 10
213.827099
 20
5.097999
 30
0.0
 11
213.827099
 21
3.137999
 31
0.0
  0
LINE
  8
0
 62
     7
 10
213.547099
 20
5.097999
 30
0.0
 11
213.547099
 21
3.137999
 31
0.0
  0
LINE
  8
0
 62
     7
 10
211.356988
 20
5.080538
 30
0.0
 11
210.187099
 21
1.737999
 31
0.0
  0
INSERT
  8
0
 62
     7
  2
*X22
 10
210.187099
 20
1.737999
 30
0.0
 41
0.7
 42
0.7
 43
0.7
  0
INSERT
  8
0
 62
     7
  2
*X23
 10
210.187099
 20
1.737999
 30
0.0
 41
0.7
 42
0.7
 43
0.7
  0
INSERT
  8
0
 62
     7
  2
*X24
 10
210.187099
 20
1.737999
 30
0.0
 41
0.7
 42
0.7
 43
0.7
  0
INSERT
  8
0
 62
     7
  2
*X25
 10
210.187099
 20
1.737999
 30
0.0
 41
0.7
 42
0.7
 43
0.7
  0
LINE
  8
0
 62
     7
 10
217.677099
 20
1.737999
 30
0.0
 11
217.677099
 21
5.097999
 31
0.0
  0
LINE
  8
0
 62
     7
 10
217.677099
 20
8.737999
 30
0.0
 11
219.637099
 21
8.737999
 31
0.0
  0
LINE
  8
0
 62
     7
 10
219.637099
 20
8.737999
 30
0.0
 11
219.637099
 21
5.377999
 31
0.0
  0
LINE
  8
0
 62
     7
 10
219.637099
 20
5.377999
 30
0.0
 11
217.677099
 21
5.377999
 31
0.0
  0
LINE
  8
0
 62
     7
 10
217.677099
 20
5.097999
 30
0.0
 11
219.637099
 21
5.097999
 31
0.0
  0
LINE
  8
0
 62
     7
 10
219.637099
 20
5.097999
 30
0.0
 11
219.637099
 21
1.737999
 31
0.0
  0
LINE
  8
0
 62
     7
 10
219.637099
 20
1.737999
 30
0.0
 11
217.677099
 21
1.737999
 31
0.0
  0
LINE
  8
0
 62
     7
 10
217.677099
 20
5.377999
 30
0.0
 11
217.677099
 21
8.737999
 31
0.0
  0
ARC
  8
0
 62
     7
 10
220.477099
 20
7.162999
 30
0.0
 40
1.575
 50
298.455859
 51
90.052437
  0
LINE
  8
0
 62
     7
 10
219.917099
 20
8.737999
 30
0.0
 11
220.475658
 21
8.737999
 31
0.0
  0
LINE
  8
0
 62
     7
 10
219.917099
 20
8.737999
 30
0.0
 11
219.917099
 21
5.377999
 31
0.0
  0
LINE
  8
0
 62
     7
 10
219.917099
 20
5.377999
 30
0.0
 11
221.901542
 21
5.377999
 31
0.0
  0
LINE
  8
0
 62
     7
 10
222.157099
 20
5.097999
 30
0.0
 11
219.917099
 21
5.097999
 31
0.0
  0
LINE
  8
0
 62
     7
 10
219.917099
 20
5.097999
 30
0.0
 11
219.917099
 21
1.737999
 31
0.0
  0
ARC
  8
0
 62
     7
 10
220.477099
 20
3.837999
 30
0.0
 40
2.1
 50
269.937724
 51
37.056553
  0
LINE
  8
0
 62
     7
 10
219.917099
 20
1.737999
 30
0.0
 11
220.474817
 21
1.738
 31
0.0
  0
ARC
  8
0
 62
     7
 10
220.477099
 20
3.837999
 30
0.0
 40
2.1
 50
47.28622
 51
68.787999
  0
INSERT
  8
0
 62
     7
  2
*X26
 10
210.187099
 20
1.737999
 30
0.0
 41
0.7
 42
0.7
 43
0.7
  0
INSERT
  8
0
 62
     7
  2
*X27
 10
210.187099
 20
1.737999
 30
0.0
 41
0.7
 42
0.7
 43
0.7
  0
INSERT
  8
0
 62
     7
  2
*X28
 10
210.187099
 20
1.737999
 30
0.0
 41
0.7
 42
0.7
 43
0.7
  0
INSERT
  8
0
 62
     7
  2
*X29
 10
210.187099
 20
1.737999
 30
0.0
 41
0.7
 42
0.7
 43
0.7
  0
INSERT
  8
0
 62
     7
  2
*X29
 10
215.647099
 20
1.737999
 30
0.0
 41
0.7
 42
0.7
 43
0.7
  0
INSERT
  8
0
 62
     7
  2
*X28
 10
215.647099
 20
1.737999
 30
0.0
 41
0.7
 42
0.7
 43
0.7
  0
INSERT
  8
0
 62
     7
  2
*X27
 10
215.647099
 20
1.737999
 30
0.0
 41
0.7
 42
0.7
 43
0.7
  0
INSERT
  8
0
 62
     7
  2
*X26
 10
215.647099
 20
1.737999
 30
0.0
 41
0.7
 42
0.7
 43
0.7
  0
ARC
  8
0
 62
     7
 10
225.937099
 20
3.837999
 30
0.0
 40
2.1
 50
47.28622
 51
68.787999
  0
LINE
  8
0
 62
     7
 10
225.377099
 20
1.737999
 30
0.0
 11
225.934817
 21
1.738
 31
0.0
  0
ARC
  8
0
 62
     7
 10
225.937099
 20
3.837999
 30
0.0
 40
2.1
 50
269.937724
 51
37.056553
  0
LINE
  8
0
 62
     7
 10
225.377099
 20
5.097999
 30
0.0
 11
225.377099
 21
1.737999
 31
0.0
  0
LINE
  8
0
 62
     7
 10
227.617099
 20
5.097999
 30
0.0
 11
225.377099
 21
5.097999
 31
0.0
  0
LINE
  8
0
 62
     7
 10
225.377099
 20
5.377999
 30
0.0
 11
227.361542
 21
5.377999
 31
0.0
  0
LINE
  8
0
 62
     7
 10
225.377099
 20
8.737999
 30
0.0
 11
225.377099
 21
5.377999
 31
0.0
  0
LINE
  8
0
 62
     7
 10
225.377099
 20
8.737999
 30
0.0
 11
225.935658
 21
8.737999
 31
0.0
  0
ARC
  8
0
 62
     7
 10
225.937099
 20
7.162999
 30
0.0
 40
1.575
 50
298.455859
 51
90.052437
  0
LINE
  8
0
 62
     7
 10
223.137099
 20
5.377999
 30
0.0
 11
223.137099
 21
8.737999
 31
0.0
  0
LINE
  8
0
 62
     7
 10
225.097099
 20
1.737999
 30
0.0
 11
223.137099
 21
1.737999
 31
0.0
  0
LINE
  8
0
 62
     7
 10
225.097099
 20
5.097999
 30
0.0
 11
225.097099
 21
1.737999
 31
0.0
  0
LINE
  8
0
 62
     7
 10
223.137099
 20
5.097999
 30
0.0
 11
225.097099
 21
5.097999
 31
0.0
  0
LINE
  8
0
 62
     7
 10
225.097099
 20
5.377999
 30
0.0
 11
223.137099
 21
5.377999
 31
0.0
  0
LINE
  8
0
 62
     7
 10
225.097099
 20
8.737999
 30
0.0
 11
225.097099
 21
5.377999
 31
0.0
  0
LINE
  8
0
 62
     7
 10
223.137099
 20
8.737999
 30
0.0
 11
225.097099
 21
8.737999
 31
0.0
  0
LINE
  8
0
 62
     7
 10
223.137099
 20
1.737999
 30
0.0
 11
223.137099
 21
5.097999
 31
0.0
  0
TEXT
  8
0
 62
     7
 10
229.737099
 20
1.737999
 30
0.0
 40
3.0
  1
ABB 
 41
0.8
  7
ROMANS
  0
TEXT
  8
0
 62
     7
 10
237.737099
 20
1.737999
 30
0.0
 40
3.0
  1
Strömberg
 41
0.8
  7
ROMANS
  0
LINE
  8
0
 62
     7
 10
282.237099
 20
9.737999
 30
0.0
 11
282.237099
 21
18.237999
 31
0.0
  0
TEXT
  8
0
 62
     7
 10
27.737099
 20
4.737999
 30
0.0
 40
1.4
  1
MUUTOS
  7
ROMANS
  0
TEXT
  8
0
 62
     7
 10
27.737099
 20
2.471333
 30
0.0
 40
1.4
  1
REVISION
  7
ROMANS
  0
LINE
  8
0
 62
     7
 10
46.737099
 20
9.237999
 30
0.0
 11
209.237099
 21
9.237999
 31
0.0
  0
LINE
  8
0
 62
     7
 10
46.737099
 20
0.237999
 30
0.0
 11
46.737099
 21
9.237999
 31
0.0
  0
LINE
  8
0
 62
     7
 10
40.737099
 20
4.737999
 30
0.0
 11
209.237099
 21
4.737999
 31
0.0
  0
LINE
  8
0
 62
     7
 10
257.237099
 20
9.737999
 30
0.0
 11
257.237099
 21
35.237999
 31
0.0
  0
LINE
  8
0
 62
     7
 10
271.237099
 20
9.737999
 30
0.0
 11
271.237099
 21
0.237999
 31
0.0
  0
TEXT
  8
0
 62
     7
 10
210.237099
 20
32.237999
 30
0.0
 40
1.4
  1
TEKI  PREPARED
  7
ROMANS
  0
TEXT
  8
0
 62
     7
 10
273.237099
 20
7.237999
 30
0.0
 40
1.4
  1
VAST.OSASTO RESP.DEPT.
  7
ROMANS
  0
TEXT
  8
0
 62
     7
 10
257.407006
 20
1.741783
 30
0.0
 40
3.0
  1
Power
 41
0.8
  7
ROMANS
  0
TEXT
  8
0
 62
     7
 10
42.237099
 20
1.195292
 30
0.0
 40
2.5
  1
B
  7
ROMANS
  0
TEXT
  8
0
 62
     7
 10
42.237099
 20
5.587508
 30
0.0
 40
2.5
  1
C
  7
ROMANS
  0
LINE
  8
0
 62
     7
 10
0.237099
 20
0.237999
 30
0.0
 11
392.237099
 21
0.237999
 31
0.0
  0
LINE
  8
0
 62
     7
 10
392.237099
 20
262.737999
 30
0.0
 11
392.237099
 21
0.237999
 31
0.0
  0
LINE
  8
0
 62
     7
 10
0.237099
 20
0.237999
 30
0.0
 11
0.237099
 21
262.737999
 31
0.0
  0
ARC
  8
0
  6
CONTINUOUS
 62
     7
 10
165.0
 20
131.921912
 30
0.0
 40
0.5
 50
180.0
 51
0.0
  0
ARC
  8
0
  6
CONTINUOUS
 62
     7
 10
165.0
 20
131.921912
 30
0.0
 40
0.5
 50
0.0
 51
180.0
  0
LINE
  8
0
  6
CONTINUOUS
 62
     7
 10
176.989729
 20
130.586572
 30
0.0
 11
174.643963
 21
131.921926
 31
0.0
  0
LINE
  8
0
  6
CONTINUOUS
 62
     7
 10
174.643963
 20
131.921926
 30
0.0
 11
176.989729
 21
133.111845
 31
0.0
  0
ARC
  8
0
  6
CONTINUOUS
 62
     7
 10
55.0
 20
138.644494
 30
0.0
 40
0.5
 50
180.0
 51
0.0
  0
ARC
  8
0
  6
CONTINUOUS
 62
     7
 10
55.0
 20
138.644494
 30
0.0
 40
0.5
 50
0.0
 51
180.0
  0
TEXT
  8
0
  6
CONTINUOUS
 62
     7
 10
26.844763
 20
206.50558
 30
0.0
 40
2.0
  1
-
  0
TEXT
  8
0
  6
CONTINUOUS
 62
     7
 10
26.853328
 20
211.513635
 30
0.0
 40
2.0
  1
+
  0
ARC
  8
0
  6
CONTINUOUS
 62
     7
 10
72.5
 20
187.015226
 30
0.0
 40
0.5
 50
180.0
 51
0.0
  0
ARC
  8
0
  6
CONTINUOUS
 62
     7
 10
72.5
 20
187.015226
 30
0.0
 40
0.5
 50
0.0
 51
180.0
  0
ARC
  8
0
  6
CONTINUOUS
 62
     7
 10
47.5
 20
207.5
 30
0.0
 40
0.5
 50
180.0
 51
0.0
  0
ARC
  8
0
  6
CONTINUOUS
 62
     7
 10
47.5
 20
207.5
 30
0.0
 40
0.5
 50
0.0
 51
180.0
  0
ARC
  8
0
  6
CONTINUOUS
 62
     7
 10
70.0
 20
202.066264
 30
0.0
 40
0.5
 50
180.0
 51
0.0
  0
ARC
  8
0
  6
CONTINUOUS
 62
     7
 10
70.0
 20
202.066264
 30
0.0
 40
0.5
 50
0.0
 51
180.0
  0
TEXT
  8
0
  6
CONTINUOUS
 62
     7
 10
26.853328
 20
219.013635
 30
0.0
 40
2.0
  1
+
  0
LINE
  8
0
  6
CONTINUOUS
 62
     7
 10
176.989729
 20
211.164635
 30
0.0
 11
174.643963
 21
212.499989
 31
0.0
  0
LINE
  8
0
  6
CONTINUOUS
 62
     7
 10
174.643963
 20
212.499989
 30
0.0
 11
176.989729
 21
213.689908
 31
0.0
  0
ARC
  8
0
  6
CONTINUOUS
 62
     7
 10
135.0
 20
187.015226
 30
0.0
 40
0.5
 50
180.0
 51
0.0
  0
ARC
  8
0
  6
CONTINUOUS
 62
     7
 10
135.0
 20
187.015226
 30
0.0
 40
0.5
 50
0.0
 51
180.0
  0
ARC
  8
0
  6
CONTINUOUS
 62
     7
 10
75.0
 20
162.5
 30
0.0
 40
0.5
 50
180.0
 51
0.0
  0
ARC
  8
0
  6
CONTINUOUS
 62
     7
 10
75.0
 20
162.5
 30
0.0
 40
0.5
 50
0.0
 51
180.0
  0
ARC
  8
0
  6
CONTINUOUS
 62
     7
 10
132.5
 20
197.5
 30
0.0
 40
0.5
 50
180.0
 51
0.0
  0
ARC
  8
0
  6
CONTINUOUS
 62
     7
 10
132.5
 20
197.5
 30
0.0
 40
0.5
 50
0.0
 51
180.0
  0
ARC
  8
0
  6
CONTINUOUS
 62
     7
 10
130.0
 20
202.066264
 30
0.0
 40
0.5
 50
180.0
 51
0.0
  0
ARC
  8
0
  6
CONTINUOUS
 62
     7
 10
130.0
 20
202.066264
 30
0.0
 40
0.5
 50
0.0
 51
180.0
  0
ARC
  8
0
  6
CONTINUOUS
 62
     7
 10
127.5
 20
212.5
 30
0.0
 40
0.5
 50
180.0
 51
0.0
  0
ARC
  8
0
  6
CONTINUOUS
 62
     7
 10
127.5
 20
212.5
 30
0.0
 40
0.5
 50
0.0
 51
180.0
  0
ARC
  8
0
  6
CONTINUOUS
 62
     7
 10
157.5
 20
152.5
 30
0.0
 40
0.5
 50
180.0
 51
0.0
  0
ARC
  8
0
  6
CONTINUOUS
 62
     7
 10
157.5
 20
152.5
 30
0.0
 40
0.5
 50
0.0
 51
180.0
  0
ARC
  8
0
  6
CONTINUOUS
 62
     7
 10
160.0
 20
147.5
 30
0.0
 40
0.5
 50
180.0
 51
0.0
  0
ARC
  8
0
  6
CONTINUOUS
 62
     7
 10
160.0
 20
147.5
 30
0.0
 40
0.5
 50
0.0
 51
180.0
  0
ARC
  8
0
  6
CONTINUOUS
 62
     7
 10
162.5
 20
142.5
 30
0.0
 40
0.5
 50
180.0
 51
0.0
  0
ARC
  8
0
  6
CONTINUOUS
 62
     7
 10
162.5
 20
142.5
 30
0.0
 40
0.5
 50
0.0
 51
180.0
  0
LINE
  8
0
  6
CONTINUOUS
 62
     7
 10
176.989729
 20
151.164635
 30
0.0
 11
174.643963
 21
152.499989
 31
0.0
  0
LINE
  8
0
  6
CONTINUOUS
 62
     7
 10
174.643963
 20
152.499989
 30
0.0
 11
176.989729
 21
153.689908
 31
0.0
  0
LINE
  8
0
  6
CONTINUOUS
 62
     7
 10
176.989729
 20
141.164635
 30
0.0
 11
174.643963
 21
142.499989
 31
0.0
  0
LINE
  8
0
  6
CONTINUOUS
 62
     7
 10
174.643963
 20
142.499989
 30
0.0
 11
176.989729
 21
143.689908
 31
0.0
  0
LINE
  8
0
  6
CONTINUOUS
 62
     7
 10
176.989729
 20
146.164635
 30
0.0
 11
174.643963
 21
147.499989
 31
0.0
  0
LINE
  8
0
  6
CONTINUOUS
 62
     7
 10
174.643963
 20
147.499989
 30
0.0
 11
176.989729
 21
148.689908
 31
0.0
  0
ARC
  8
0
  6
CONTINUOUS
 62
     7
 10
170.0
 20
193.000813
 30
0.0
 40
0.5
 50
180.0
 51
0.0
  0
ARC
  8
0
  6
CONTINUOUS
 62
     7
 10
170.0
 20
193.000813
 30
0.0
 40
0.5
 50
0.0
 51
180.0
  0
ARC
  8
0
  6
CONTINUOUS
 62
     7
 10
172.5
 20
189.971652
 30
0.0
 40
0.5
 50
180.0
 51
0.0
  0
ARC
  8
0
  6
CONTINUOUS
 62
     7
 10
172.5
 20
189.971652
 30
0.0
 40
0.5
 50
0.0
 51
180.0
  0
LINE
  8
0
  6
CONTINUOUS
 62
     7
 10
176.989729
 20
185.679877
 30
0.0
 11
174.643963
 21
187.015231
 31
0.0
  0
LINE
  8
0
  6
CONTINUOUS
 62
     7
 10
174.643963
 20
187.015231
 30
0.0
 11
176.989729
 21
188.20515
 31
0.0
  0
LINE
  8
0
  6
CONTINUOUS
 62
     7
 10
176.989729
 20
200.731684
 30
0.0
 11
174.643963
 21
202.067038
 31
0.0
  0
LINE
  8
0
  6
CONTINUOUS
 62
     7
 10
174.643963
 20
202.067038
 30
0.0
 11
176.989729
 21
203.256957
 31
0.0
  0
LINE
  8
0
  6
CONTINUOUS
 62
     7
 10
176.989729
 20
196.164635
 30
0.0
 11
174.643963
 21
197.499989
 31
0.0
  0
LINE
  8
0
  6
CONTINUOUS
 62
     7
 10
174.643963
 20
197.499989
 30
0.0
 11
176.989729
 21
198.689908
 31
0.0
  0
ARC
  8
0
  6
CONTINUOUS
 62
     7
 10
172.5
 20
204.971652
 30
0.0
 40
0.5
 50
180.0
 51
0.0
  0
ARC
  8
0
  6
CONTINUOUS
 62
     7
 10
172.5
 20
204.971652
 30
0.0
 40
0.5
 50
0.0
 51
180.0
  0
ARC
  8
0
  6
CONTINUOUS
 62
     7
 10
170.0
 20
208.000813
 30
0.0
 40
0.5
 50
180.0
 51
0.0
  0
ARC
  8
0
  6
CONTINUOUS
 62
     7
 10
170.0
 20
208.000813
 30
0.0
 40
0.5
 50
0.0
 51
180.0
  0
LINE
  8
0
  6
CONTINUOUS
 62
     7
 10
379.009978
 20
132.68998
 30
0.0
 11
381.655635
 21
132.68998
 31
0.0
  0
LINE
  8
0
  6
CONTINUOUS
 62
     7
 10
383.437188
 20
132.086285
 30
0.0
 11
383.437188
 21
133.293675
 31
0.0
  0
LINE
  8
0
  6
CONTINUOUS
 62
     7
 10
382.549675
 20
131.653787
 30
0.0
 11
382.549675
 21
133.717163
 31
0.0
  0
LINE
  8
0
  6
CONTINUOUS
 62
     7
 10
381.655635
 20
131.158217
 30
0.0
 11
381.655635
 21
134.221743
 31
0.0
  0
LINE
  8
0
  6
CONTINUOUS
 62
     7
 10
227.38991
 20
93.666103
 30
0.0
 11
225.044144
 21
95.001457
 31
0.0
  0
LINE
  8
0
  6
CONTINUOUS
 62
     7
 10
225.044144
 20
95.001457
 30
0.0
 11
227.38991
 21
96.191376
 31
0.0
  0
ARC
  8
0
  6
CONTINUOUS
 62
     7
 10
222.5
 20
95.0
 30
0.0
 40
0.5
 50
180.0
 51
0.0
  0
ARC
  8
0
  6
CONTINUOUS
 62
     7
 10
222.5
 20
95.0
 30
0.0
 40
0.5
 50
0.0
 51
180.0
  0
ARC
  8
0
  6
CONTINUOUS
 62
     7
 10
262.5
 20
80.0
 30
0.0
 40
0.5
 50
180.0
 51
0.0
  0
ARC
  8
0
  6
CONTINUOUS
 62
     7
 10
262.5
 20
80.0
 30
0.0
 40
0.5
 50
0.0
 51
180.0
  0
ARC
  8
0
  6
CONTINUOUS
 62
     7
 10
262.5
 20
100.0
 30
0.0
 40
0.5
 50
180.0
 51
0.0
  0
ARC
  8
0
  6
CONTINUOUS
 62
     7
 10
262.5
 20
100.0
 30
0.0
 40
0.5
 50
0.0
 51
180.0
  0
ARC
  8
0
  6
CONTINUOUS
 62
     7
 10
267.5
 20
120.0
 30
0.0
 40
0.5
 50
180.0
 51
0.0
  0
ARC
  8
0
  6
CONTINUOUS
 62
     7
 10
267.5
 20
120.0
 30
0.0
 40
0.5
 50
0.0
 51
180.0
  0
LINE
  8
0
  6
CONTINUOUS
 62
     7
 10
379.009978
 20
127.5
 30
0.0
 11
381.655635
 21
127.5
 31
0.0
  0
LINE
  8
0
  6
CONTINUOUS
 62
     7
 10
383.437188
 20
126.896305
 30
0.0
 11
383.437188
 21
128.103695
 31
0.0
  0
LINE
  8
0
  6
CONTINUOUS
 62
     7
 10
382.549675
 20
126.463807
 30
0.0
 11
382.549675
 21
128.527182
 31
0.0
  0
LINE
  8
0
  6
CONTINUOUS
 62
     7
 10
381.655635
 20
125.968237
 30
0.0
 11
381.655635
 21
129.031763
 31
0.0
  0
INSERT
  8
0
  6
CENTER
 62
     7
  2
BLC26
 10
281.410524
 20
212.580448
 30
0.0
 41
1.006225
 42
1.006225
 50
180.0
 43
1.006225
  0
LINE
  8
0
  6
CONTINUOUS
 62
     7
 10
226.989729
 20
188.664635
 30
0.0
 11
224.643963
 21
189.999989
 31
0.0
  0
LINE
  8
0
  6
CONTINUOUS
 62
     7
 10
224.643963
 20
189.999989
 30
0.0
 11
226.989729
 21
191.189908
 31
0.0
  0
ARC
  8
0
  6
CONTINUOUS
 62
     7
 10
215.0
 20
200.0
 30
0.0
 40
0.5
 50
180.0
 51
0.0
  0
ARC
  8
0
  6
CONTINUOUS
 62
     7
 10
215.0
 20
200.0
 30
0.0
 40
0.5
 50
0.0
 51
180.0
  0
INSERT
  8
0
  6
CENTER
 62
     7
  2
BLC26
 10
291.410526
 20
172.580446
 30
0.0
 41
1.006225
 42
1.006225
 50
180.0
 43
1.006225
  0
ARC
  8
0
  6
CONTINUOUS
 62
     7
 10
260.0
 20
165.0
 30
0.0
 40
0.5
 50
180.0
 51
0.0
  0
ARC
  8
0
  6
CONTINUOUS
 62
     7
 10
260.0
 20
165.0
 30
0.0
 40
0.5
 50
0.0
 51
180.0
  0
LINE
  8
0
  6
CONTINUOUS
 62
     7
 10
275.0
 20
163.490022
 30
0.0
 11
275.0
 21
160.844365
 31
0.0
  0
LINE
  8
0
  6
CONTINUOUS
 62
     7
 10
274.396305
 20
159.062812
 30
0.0
 11
275.603695
 21
159.062812
 31
0.0
  0
LINE
  8
0
  6
CONTINUOUS
 62
     7
 10
273.963807
 20
159.950325
 30
0.0
 11
276.027182
 21
159.950325
 31
0.0
  0
LINE
  8
0
  6
CONTINUOUS
 62
     7
 10
273.468237
 20
160.844365
 30
0.0
 11
276.531763
 21
160.844365
 31
0.0
  0
ARC
  8
0
  6
CONTINUOUS
 62
     7
 10
275.0
 20
165.0
 30
0.0
 40
0.5
 50
180.0
 51
0.0
  0
ARC
  8
0
  6
CONTINUOUS
 62
     7
 10
275.0
 20
165.0
 30
0.0
 40
0.5
 50
0.0
 51
180.0
  0
ARC
  8
0
  6
CONTINUOUS
 62
     7
 10
275.0
 20
170.189984
 30
0.0
 40
0.5
 50
180.0
 51
0.0
  0
ARC
  8
0
  6
CONTINUOUS
 62
     7
 10
275.0
 20
170.189984
 30
0.0
 40
0.5
 50
0.0
 51
180.0
  0
INSERT
  8
0
  6
CENTER
 62
     7
  2
BLC26
 10
286.43164
 20
192.580445
 30
0.0
 41
1.006225
 42
1.006225
 50
180.0
 43
1.006225
  0
ARC
  8
0
  6
CONTINUOUS
 62
     7
 10
260.0
 20
185.0
 30
0.0
 40
0.5
 50
180.0
 51
0.0
  0
ARC
  8
0
  6
CONTINUOUS
 62
     7
 10
260.0
 20
185.0
 30
0.0
 40
0.5
 50
0.0
 51
180.0
  0
ARC
  8
0
  6
CONTINUOUS
 62
     7
 10
275.0
 20
190.189984
 30
0.0
 40
0.5
 50
180.0
 51
0.0
  0
ARC
  8
0
  6
CONTINUOUS
 62
     7
 10
275.0
 20
190.189984
 30
0.0
 40
0.5
 50
0.0
 51
180.0
  0
LINE
  8
0
  6
CONTINUOUS
 62
     7
 10
296.304463
 20
198.400135
 30
0.0
 11
296.304463
 21
189.250307
 31
0.0
  0
INSERT
  8
0
  6
CONTINUOUS
 62
     7
  2
BLC29
 10
296.43721
 20
191.610872
 30
0.0
 50
270.0
  0
ARC
  8
0
  6
CONTINUOUS
 62
     7
 10
280.0
 20
255.0
 30
0.0
 40
0.5
 50
180.0
 51
0.0
  0
ARC
  8
0
  6
CONTINUOUS
 62
     7
 10
280.0
 20
255.0
 30
0.0
 40
0.5
 50
0.0
 51
180.0
  0
ARC
  8
0
  6
CONTINUOUS
 62
     7
 10
285.0
 20
250.0
 30
0.0
 40
0.5
 50
180.0
 51
0.0
  0
ARC
  8
0
  6
CONTINUOUS
 62
     7
 10
285.0
 20
250.0
 30
0.0
 40
0.5
 50
0.0
 51
180.0
  0
ARC
  8
0
  6
CONTINUOUS
 62
     7
 10
290.0
 20
245.0
 30
0.0
 40
0.5
 50
180.0
 51
0.0
  0
ARC
  8
0
  6
CONTINUOUS
 62
     7
 10
290.0
 20
245.0
 30
0.0
 40
0.5
 50
0.0
 51
180.0
  0
INSERT
  8
0
  6
CENTER
 62
     7
  2
BLC26
 10
363.546562
 20
135.109534
 30
0.0
 41
1.006225
 42
1.006225
 43
1.006225
  0
INSERT
  8
0
  6
CENTER
 62
     7
  2
BLC26
 10
356.046562
 20
135.109534
 30
0.0
 41
1.006225
 42
1.006225
 43
1.006225
  0
INSERT
  8
0
  6
CENTER
 62
     7
  2
BLC26
 10
371.046562
 20
135.109534
 30
0.0
 41
1.006225
 42
1.006225
 43
1.006225
  0
ARC
  8
0
  6
CONTINUOUS
 62
     7
 10
372.5
 20
150.0
 30
0.0
 40
0.5
 50
180.0
 51
0.0
  0
ARC
  8
0
  6
CONTINUOUS
 62
     7
 10
372.5
 20
150.0
 30
0.0
 40
0.5
 50
0.0
 51
180.0
  0
ARC
  8
0
  6
CONTINUOUS
 62
     7
 10
365.0
 20
155.0
 30
0.0
 40
0.5
 50
180.0
 51
0.0
  0
ARC
  8
0
  6
CONTINUOUS
 62
     7
 10
365.0
 20
155.0
 30
0.0
 40
0.5
 50
0.0
 51
180.0
  0
ARC
  8
0
  6
CONTINUOUS
 62
     7
 10
357.5
 20
160.0
 30
0.0
 40
0.5
 50
180.0
 51
0.0
  0
ARC
  8
0
  6
CONTINUOUS
 62
     7
 10
357.5
 20
160.0
 30
0.0
 40
0.5
 50
0.0
 51
180.0
  0
ENDSEC
  0
EOF
