  0
SECTION
  2
HEADER
  9
$ACADVER
  1
AC1009
  9
$DWGCODEPAGE
  3
iso8859-1
  9
$INSBASE
 10
0.0
 20
0.0
 30
0.0
  9
$EXTMIN
 10
1.0E20
 20
1.0E20
  9
$EXTMAX
 10
-1.0E20
 20
-1.0E20
  9
$LIMMIN
 10
0.0
 20
0.0
  9
$LIMMAX
 10
12.0
 20
9.0
  9
$ORTHOMODE
 70
     0
  9
$REGENMODE
 70
     1
  9
$FILLMODE
 70
     1
  9
$QTEXTMODE
 70
     0
  9
$MIRRTEXT
 70
     1
  9
$DRAGMODE
 70
     2
  9
$LTSCALE
 40
15.0
  9
$OSMODE
 70
     0
  9
$ATTMODE
 70
     1
  9
$TEXTSIZE
 40
0.2
  9
$TRACEWID
 40
0.05
  9
$TEXTSTYLE
  7
STANDARD
  9
$CLAYER
  8
0
  9
$CELTYPE
  6
DASHED
  9
$CECOLOR
 62
   256
  9
$DIMSCALE
 40
1.0
  9
$DIMASZ
 40
0.18
  9
$DIMEXO
 40
0.0625
  9
$DIMDLI
 40
0.38
  9
$DIMRND
 40
0.0
  9
$DIMDLE
 40
0.0
  9
$DIMEXE
 40
0.18
  9
$DIMTP
 40
0.0
  9
$DIMTM
 40
0.0
  9
$DIMTXT
 40
0.18
  9
$DIMCEN
 40
0.09
  9
$DIMTSZ
 40
0.0
  9
$DIMTOL
 70
     0
  9
$DIMLIM
 70
     0
  9
$DIMTIH
 70
     1
  9
$DIMTOH
 70
     1
  9
$DIMSE1
 70
     0
  9
$DIMSE2
 70
     0
  9
$DIMTAD
 70
     0
  9
$DIMZIN
 70
     0
  9
$DIMBLK
  1

  9
$DIMASO
 70
     1
  9
$DIMSHO
 70
     1
  9
$DIMPOST
  1

  9
$DIMAPOST
  1

  9
$DIMALT
 70
     0
  9
$DIMALTD
 70
     2
  9
$DIMALTF
 40
25.4
  9
$DIMLFAC
 40
1.0
  9
$DIMTOFL
 70
     0
  9
$DIMTVP
 40
0.0
  9
$DIMTIX
 70
     0
  9
$DIMSOXD
 70
     0
  9
$DIMSAH
 70
     0
  9
$DIMBLK1
  1

  9
$DIMBLK2
  1

  9
$DIMSTYLE
  2
STANDARD
  9
$DIMCLRD
 70
     0
  9
$DIMCLRE
 70
     0
  9
$DIMCLRT
 70
     0
  9
$DIMTFAC
 40
1.0
  9
$DIMGAP
 40
0.09
  9
$LUNITS
 70
     2
  9
$LUPREC
 70
     4
  9
$AXISMODE
 70
     0
  9
$AXISUNIT
 10
0.0
 20
0.0
  9
$SKETCHINC
 40
0.1
  9
$FILLETRAD
 40
0.0
  9
$AUNITS
 70
     0
  9
$AUPREC
 70
     0
  9
$MENU
  1
acad
  9
$ELEVATION
 40
0.0
  9
$PELEVATION
 40
0.0
  9
$THICKNESS
 40
0.0
  9
$LIMCHECK
 70
     0
  9
$BLIPMODE
 70
     1
  9
$CHAMFERA
 40
0.0
  9
$CHAMFERB
 40
0.0
  9
$SKPOLY
 70
     0
  9
$TDCREATE
 40
0.000000000
  9
$TDUPDATE
 40
0.000000000
  9
$TDINDWG
 40
0.0
  9
$TDUSRTIMER
 40
0.0
  9
$USRTIMER
 70
     1
  9
$ANGBASE
 50
0.0
  9
$ANGDIR
 70
     0
  9
$PDMODE
 70
     0
  9
$PDSIZE
 40
0.0
  9
$PLINEWID
 40
0.0
  9
$COORDS
 70
     1
  9
$SPLFRAME
 70
     0
  9
$SPLINETYPE
 70
     6
  9
$SPLINESEGS
 70
     8
  9
$ATTDIA
 70
     0
  9
$ATTREQ
 70
     1
  9
$HANDLING
 70
     1
  9
$HANDSEED
  5
   605
  9
$SURFTAB1
 70
     6
  9
$SURFTAB2
 70
     6
  9
$SURFTYPE
 70
     6
  9
$SURFU
 70
     6
  9
$SURFV
 70
     6
  9
$UCSNAME
  2

  9
$UCSORG
 10
0.0
 20
0.0
 30
0.0
  9
$UCSXDIR
 10
1.0
 20
0.0
 30
0.0
  9
$UCSYDIR
 10
0.0
 20
1.0
 30
0.0
  9
$PUCSNAME
  2

  9
$PUCSORG
 10
0.0
 20
0.0
 30
0.0
  9
$PUCSXDIR
 10
1.0
 20
0.0
 30
0.0
  9
$PUCSYDIR
 10
0.0
 20
1.0
 30
0.0
  9
$USERI1
 70
     0
  9
$USERI2
 70
     0
  9
$USERI3
 70
     0
  9
$USERI4
 70
     0
  9
$USERI5
 70
     0
  9
$USERR1
 40
0.0
  9
$USERR2
 40
0.0
  9
$USERR3
 40
0.0
  9
$USERR4
 40
0.0
  9
$USERR5
 40
0.0
  9
$WORLDVIEW
 70
     1
  9
$SHADEDGE
 70
     3
  9
$SHADEDIF
 70
    70
  9
$TILEMODE
 70
     1
  9
$MAXACTVP
 70
    16
  9
$PINSBASE
 10
0.0
 20
0.0
 30
0.0
  9
$PLIMCHECK
 70
     0
  9
$PEXTMIN
 10
1.0E20
 20
1.0E20
 30
1.0E20
  9
$PEXTMAX
 10
-1.0E20
 20
-1.0E20
 30
-1.0E20
  9
$PLIMMIN
 10
0.0
 20
0.0
  9
$PLIMMAX
 10
12.0
 20
9.0
  9
$UNITMODE
 70
     0
  9
$VISRETAIN
 70
     0
  0
ENDSEC
  0
SECTION
  2
TABLES
  0
TABLE
  2
VPORT
 70
     1
  0
VPORT
  2
*ACTIVE
 70
     0
 10
0.0
 20
0.0
 11
1.0
 21
1.0
 12
6.801242
 22
4.5
 13
0.0
 23
0.0
 14
1.0
 24
1.0
 15
0.0
 25
0.0
 16
0.0
 26
0.0
 36
1.0
 17
0.0
 27
0.0
 37
0.0
 40
9.0
 41
1.511387
 42
50.0
 43
0.0
 44
0.0
 50
0.0
 51
0.0
 71
     0
 72
   100
 73
     1
 74
     1
 75
     0
 76
     0
 77
     0
 78
     0
  0
ENDTAB
  0
TABLE
  2
LTYPE
 70
    41
  0
LTYPE
  2
BYBLOCK
 70
     0
  3

 72
    65
 73
     0
 40
0.0
  0
LTYPE
  2
BYLAYER
 70
     0
  3

 72
    65
 73
     0
 40
0.0
  0
LTYPE
  2
CONTINUOUS
 70
     0
  3
Solid line
 72
    65
 73
     0
 40
0.0
  0
LTYPE
  2
BORDER
 70
    64
  3
__ __ . __ __ . __ __ . __ __ . __ __ . __ __ .
 72
    65
 73
     6
 40
1.75
 49
0.5
 49
-0.25
 49
0.5
 49
-0.25
 49
0.0
 49
-0.25
  0
LTYPE
  2
BORDER2
 70
    64
  3
__.__.__.__.__.__.__.__.__.__.__.__.__.__.__.__
 72
    65
 73
     6
 40
0.875
 49
0.25
 49
-0.125
 49
0.25
 49
-0.125
 49
0.0
 49
-0.125
  0
LTYPE
  2
BORDERX2
 70
    64
  3
____  ____  .  ____  ____  .  ____  ____  .  __
 72
    65
 73
     6
 40
3.5
 49
1.0
 49
-0.5
 49
1.0
 49
-0.5
 49
0.0
 49
-0.5
  0
LTYPE
  2
CENTER
 70
    64
  3
____ _ ____ _ ____ _ ____ _ ____ _ ____ _ ____
 72
    65
 73
     4
 40
2.0
 49
1.25
 49
-0.25
 49
0.25
 49
-0.25
  0
LTYPE
  2
CENTER2
 70
    64
  3
___ _ ___ _ ___ _ ___ _ ___ _ ___ _ ___ _ ___ _
 72
    65
 73
     4
 40
1.125
 49
0.75
 49
-0.125
 49
0.125
 49
-0.125
  0
LTYPE
  2
CENTERX2
 70
    64
  3
________  __  ________  __  ________  __  _____
 72
    65
 73
     4
 40
4.0
 49
2.5
 49
-0.5
 49
0.5
 49
-0.5
  0
LTYPE
  2
DASHDOT
 70
    64
  3
__ . __ . __ . __ . __ . __ . __ . __ . __ . __
 72
    65
 73
     4
 40
1.0
 49
0.5
 49
-0.25
 49
0.0
 49
-0.25
  0
LTYPE
  2
DASHDOT2
 70
    64
  3
_._._._._._._._._._._._._._._._._._._._._._._._
 72
    65
 73
     4
 40
0.5
 49
0.25
 49
-0.125
 49
0.0
 49
-0.125
  0
LTYPE
  2
DASHDOTX2
 70
    64
  3
____  .  ____  .  ____  .  ____  .  ____  .  __
 72
    65
 73
     4
 40
2.0
 49
1.0
 49
-0.5
 49
0.0
 49
-0.5
  0
LTYPE
  2
DASHED
 70
    64
  3
__ __ __ __ __ __ __ __ __ __ __ __ __ __ __ __
 72
    65
 73
     2
 40
0.75
 49
0.5
 49
-0.25
  0
LTYPE
  2
DASHED2
 70
    64
  3
_ _ _ _ _ _ _ _ _ _ _ _ _ _ _ _ _ _ _ _ _ _ _ _
 72
    65
 73
     2
 40
0.375
 49
0.25
 49
-0.125
  0
LTYPE
  2
DASHEDX2
 70
    64
  3
____  ____  ____  ____  ____  ____  ____  ____
 72
    65
 73
     2
 40
1.5
 49
1.0
 49
-0.5
  0
LTYPE
  2
DIVIDE
 70
    64
  3
____ . . ____ . . ____ . . ____ . . ____ . . __
 72
    65
 73
     6
 40
1.25
 49
0.5
 49
-0.25
 49
0.0
 49
-0.25
 49
0.0
 49
-0.25
  0
LTYPE
  2
DIVIDE2
 70
    64
  3
__..__..__..__..__..__..__..__..__..__..__..__.
 72
    65
 73
     6
 40
0.625
 49
0.25
 49
-0.125
 49
0.0
 49
-0.125
 49
0.0
 49
-0.125
  0
LTYPE
  2
DIVIDEX2
 70
    64
  3
________  .  .  ________  .  .  ________  .  .
 72
    65
 73
     6
 40
2.5
 49
1.0
 49
-0.5
 49
0.0
 49
-0.5
 49
0.0
 49
-0.5
  0
LTYPE
  2
DOT
 70
    64
  3
. . . . . . . . . . . . . . . . . . . . . . . .
 72
    65
 73
     2
 40
0.25
 49
0.0
 49
-0.25
  0
LTYPE
  2
DOT2
 70
    64
  3
...............................................
 72
    65
 73
     2
 40
0.125
 49
0.0
 49
-0.125
  0
LTYPE
  2
DOTX2
 70
    64
  3
.  .  .  .  .  .  .  .  .  .  .  .  .  .  .  .
 72
    65
 73
     2
 40
0.5
 49
0.0
 49
-0.5
  0
LTYPE
  2
HIDDEN
 70
    64
  3
__ __ __ __ __ __ __ __ __ __ __ __ __ __ __ __
 72
    65
 73
     2
 40
0.375
 49
0.25
 49
-0.125
  0
LTYPE
  2
HIDDEN2
 70
    64
  3
_ _ _ _ _ _ _ _ _ _ _ _ _ _ _ _ _ _ _ _ _ _ _ _
 72
    65
 73
     2
 40
0.1875
 49
0.125
 49
-0.0625
  0
LTYPE
  2
HIDDENX2
 70
    64
  3
____ ____ ____ ____ ____ ____ ____ ____ ____ __
 72
    65
 73
     2
 40
0.75
 49
0.5
 49
-0.25
  0
LTYPE
  2
PHANTOM
 70
    64
  3
______  __  __  ______  __  __  ______  __  __
 72
    65
 73
     6
 40
2.5
 49
1.25
 49
-0.25
 49
0.25
 49
-0.25
 49
0.25
 49
-0.25
  0
LTYPE
  2
PHANTOM2
 70
    64
  3
___ _ _ ___ _ _ ___ _ _ ___ _ _ ___ _ _ ___ _ _
 72
    65
 73
     6
 40
1.25
 49
0.625
 49
-0.125
 49
0.125
 49
-0.125
 49
0.125
 49
-0.125
  0
LTYPE
  2
PHANTOMX2
 70
    64
  3
____________    ____    ____    ____________
 72
    65
 73
     6
 40
5.0
 49
2.5
 49
-0.5
 49
0.5
 49
-0.5
 49
0.5
 49
-0.5
  0
LTYPE
  2
ACAD_ISO02W100
 70
    64
  3
__ __ __ __ __ __ __ __ __ __ __ __ __ __ __ __
 72
    65
 73
     2
 40
15.0
 49
12.0
 49
-3.0
  0
LTYPE
  2
ACAD_ISO03W100
 70
    64
  3
__    __    __    __    __    __    __    __
 72
    65
 73
     2
 40
30.0
 49
12.0
 49
-18.0
  0
LTYPE
  2
ACAD_ISO04W100
 70
    64
  3
____ . ____ . ____ . ____ . ____ . ____ . ____
 72
    65
 73
     4
 40
30.5
 49
24.0
 49
-3.0
 49
0.5
 49
-3.0
  0
LTYPE
  2
ACAD_ISO05W100
 70
    64
  3
____ .. ____ .. ____ .. ____ .. ____ .. ____ ..
 72
    65
 73
     6
 40
34.0
 49
24.0
 49
-3.0
 49
0.5
 49
-3.0
 49
0.5
 49
-3.0
  0
LTYPE
  2
ACAD_ISO06W100
 70
    64
  3
____ ... ____ ... ____ ... ____ ... ____ ... __
 72
    65
 73
     8
 40
37.5
 49
24.0
 49
-3.0
 49
0.5
 49
-3.0
 49
0.5
 49
-3.0
 49
0.5
 49
-3.0
  0
LTYPE
  2
ACAD_ISO07W100
 70
    64
  3
. . . . . . . . . . . . . . . . . . . . . . . .
 72
    65
 73
     2
 40
3.5
 49
0.5
 49
-3.0
  0
LTYPE
  2
ACAD_ISO08W100
 70
    64
  3
____ __ ____ __ ____ __ ____ ____ __ __ ____ __
 72
    65
 73
     4
 40
36.0
 49
24.0
 49
-3.0
 49
6.0
 49
-3.0
  0
LTYPE
  2
ACAD_ISO09W100
 70
    64
  3
____ __ __ ____ __ __ ____ __ __ ____ __ __ ___
 72
    65
 73
     6
 40
45.0
 49
24.0
 49
-3.0
 49
6.0
 49
-3.0
 49
6.0
 49
-3.0
  0
LTYPE
  2
ACAD_ISO10W100
 70
    64
  3
__ . __ . __ . __ . __ . __ . __ . __ . __ . __
 72
    65
 73
     4
 40
18.5
 49
12.0
 49
-3.0
 49
0.5
 49
-3.0
  0
LTYPE
  2
ACAD_ISO11W100
 70
    64
  3
__ __ . __ __ . __ __ . __ __ . __ __ . __ __ .
 72
    65
 73
     6
 40
33.5
 49
12.0
 49
-3.0
 49
12.0
 49
-3.0
 49
0.5
 49
-3.0
  0
LTYPE
  2
ACAD_ISO12W100
 70
    64
  3
__ . . __ . . __ . . __ . . __ . . __ . . __ .
 72
    65
 73
     6
 40
22.0
 49
12.0
 49
-3.0
 49
0.5
 49
-3.0
 49
0.5
 49
-3.0
  0
LTYPE
  2
ACAD_ISO13W100
 70
    64
  3
__ __ . . __ __ . . __ __ . . __ __ . . __ __ .
 72
    65
 73
     8
 40
37.0
 49
12.0
 49
-3.0
 49
12.0
 49
-3.0
 49
0.5
 49
-3.0
 49
0.5
 49
-3.0
  0
LTYPE
  2
ACAD_ISO14W100
 70
    64
  3
__ . . . __ . . . __ . . . __ . . . __ . . . __
 72
    65
 73
     8
 40
25.5
 49
12.0
 49
-3.0
 49
0.5
 49
-3.0
 49
0.5
 49
-3.0
 49
0.5
 49
-3.0
  0
LTYPE
  2
ACAD_ISO15W100
 70
    64
  3
__ __ . . . __ __ . . . __ __ . . . __ __ . . .
 72
    65
 73
    10
 40
40.5
 49
12.0
 49
-3.0
 49
12.0
 49
-3.0
 49
0.5
 49
-3.0
 49
0.5
 49
-3.0
 49
0.5
 49
-3.0
  0
ENDTAB
  0
TABLE
  2
STYLE
 70
     4
  0
STYLE
  2
STANDARD
 70
    64
 40
0.0
 41
1.0
 50
0.0
 71
     0
 42
0.2
  3
txt
  4

  0
STYLE
  2
TOLERANCE
 70
    64
 40
0.0
 41
1.0
 50
0.0
 71
     0
 42
0.2
  3
../igesfont/iges1003.shx
  4

  0
STYLE
  2
ROMANS
 70
    64
 40
0.0
 41
1.0
 50
0.0
 71
     0
 42
0.2
  3
romans.shx
  4

  0
STYLE
  2
ROMANC
 70
    64
 40
0.0
 41
1.0
 50
0.0
 71
     0
 42
0.2
  3
romanc.shx
  4

  0
ENDTAB
  0
TABLE
  2
DIMSTYLE
 70
     2
  0
DIMSTYLE
  2
UNNAMED
 70
     0
  3

  4

  5

  6

  7

 40
1.0
 41
0.18
 42
0.0625
 43
0.38
 44
0.18
 45
0.0
 46
0.0
 47
0.0
 48
0.0
140
0.18
141
0.09
142
0.0
143
25.4
144
1.0
145
0.0
146
1.0
147
0.09
 71
     0
 72
     0
 73
     1
 74
     1
 75
     0
 76
     0
 77
     0
 78
     0
170
     0
171
     2
172
     0
173
     0
174
     0
175
     0
176
     0
177
     0
178
     0
  0
DIMSTYLE
  2
STANDARD
 70
     0
  3

  4

  5

  6

  7

 40
1.0
 41
0.18
 42
0.0625
 43
0.38
 44
0.18
 45
0.0
 46
0.0
 47
0.0
 48
0.0
140
0.18
141
0.09
142
0.0
143
25.4
144
1.0
145
0.0
146
1.0
147
0.09
 71
     0
 72
     0
 73
     1
 74
     1
 75
     0
 76
     0
 77
     0
 78
     0
170
     0
171
     2
172
     0
173
     0
174
     0
175
     0
176
     0
177
     0
178
     0
  0
ENDTAB
  0
TABLE
  2
LAYER
 70
     2
  0
LAYER
  2
0
 70
     0
 62
     7
  6
CONTINUOUS
  0
LAYER
  2
255
 70
     0
 62
     7
  6
CONTINUOUS
  0
ENDTAB
  0
ENDSEC
  0
SECTION
  2
BLOCKS
  0
BLOCK
  5
     B
  8
0
  6
CONTINUOUS
 62
     7
  2
*UDIM242
 70
    65
 10
0.0
 20
0.0
 30
0.0
  3
*UDIM242
  0
TEXT
  5
     C
  8
0
  6
CONTINUOUS
 62
     7
 10
140.0019664293
 20
-99.7544288505573
 30
0.0
 40
3.00000002980232
  1
5,5
 50
380.370483205792
 41
0.933333333333333
 72
     1
 11
143.135932346961
 21
-96.9906889977787
 31
0.0
 73
     2
  0
TEXT
  5
     D
  8
0
  6
CONTINUOUS
 62
     7
 10
137.048962896204
 20
-100.850909673969
 30
0.0
 40
3.00000002980232
  1
Ø
 50
380.370483205792
 41
0.933333333333334
 72
     1
 11
137.558036763319
 21
-99.0618194396422
 31
0.0
 73
     2
  0
TEXT
  5
     E
  8
0
  6
CONTINUOUS
 62
     7
 10
147.829769509403
 20
-96.8478844362694
 30
0.0
 40
3.00000002980232
  1
-M5
 50
380.370483205792
 41
0.933333333333333
 72
     1
 11
150.963735427064
 21
-94.0841445834908
 31
0.0
 73
     2
  0
LINE
  5
     F
  8
0
  6
CONTINUOUS
 62
     7
 10
165.952533912523
 20
-91.185424733916
 30
0.0
 11
137.397052047124
 21
-101.788371111571
 31
0.0
  0
LINE
  5
    10
  8
0
  6
CONTINUOUS
 62
     7
 10
168.540856699925
 20
-89.6686567397201
 30
0.0
 11
165.952533912523
 21
-91.185424733916
 31
0.0
  0
LINE
  5
    11
  8
0
  6
CONTINUOUS
 62
     7
 10
165.952533912523
 20
-91.185424733916
 30
0.0
 11
168.90352690515
 21
-90.6453873671871
 31
0.0
  0
LINE
  5
    12
  8
0
  6
CONTINUOUS
 62
     7
 10
162.075201649685
 20
-93.1808153061784
 30
0.0
 11
164.663524437086
 21
-91.6640473119824
 31
0.0
  0
LINE
  5
    13
  8
0
  6
CONTINUOUS
 62
     7
 10
164.663524437086
 20
-91.6640473119824
 30
0.0
 11
161.712531444459
 21
-92.2040846787113
 31
0.0
  0
ENDBLK
  5
    14
  8
0
  6
CONTINUOUS
 62
     7
  0
BLOCK
  5
    15
  8
0
  6
CONTINUOUS
 62
     7
  2
*UDIM243
 70
    65
 10
0.0
 20
0.0
 30
0.0
  3
*UDIM243
  0
TEXT
  5
    16
  8
0
  6
CONTINUOUS
 62
     7
 10
196.176368706329
 20
-67.5997360703642
 30
0.0
 40
3.00000002980232
  1
224
 50
449.999999896069
 41
0.933333333333333
 72
     1
 11
194.676368698478
 21
-63.6997360289097
 31
0.0
 73
     2
  0
LINE
  5
    17
  8
0
  6
CONTINUOUS
 62
     7
 10
178.171310432699
 20
-35.4247360229492
 30
0.0
 11
199.176368713379
 21
-35.4247360229492
 31
0.0
  0
LINE
  5
    18
  8
0
  6
CONTINUOUS
 62
     7
 10
177.201895006098
 20
-91.4247360229492
 30
0.0
 11
199.176368713379
 21
-91.4247360229492
 31
0.0
  0
LINE
  5
    19
  8
0
  6
CONTINUOUS
 62
     7
 10
197.176368713379
 20
-35.4247360229492
 30
0.0
 11
197.176368713379
 21
-91.4247360229492
 31
0.0
  0
LINE
  5
    1A
  8
0
  6
CONTINUOUS
 62
     7
 10
197.697313143331
 20
-38.3791593001562
 30
0.0
 11
197.176368713379
 21
-35.4247360229492
 31
0.0
  0
LINE
  5
    1B
  8
0
  6
CONTINUOUS
 62
     7
 10
197.176368713379
 20
-35.4247360229492
 30
0.0
 11
196.655424283427
 21
-38.3791593001562
 31
0.0
  0
LINE
  5
    1C
  8
0
  6
CONTINUOUS
 62
     7
 10
196.655424283427
 20
-88.4703127457423
 30
0.0
 11
197.176368713379
 21
-91.4247360229492
 31
0.0
  0
LINE
  5
    1D
  8
0
  6
CONTINUOUS
 62
     7
 10
197.176368713379
 20
-91.4247360229492
 30
0.0
 11
197.697313143331
 21
-88.4703127457423
 31
0.0
  0
ENDBLK
  5
    1E
  8
0
  6
CONTINUOUS
 62
     7
  0
BLOCK
  5
    1F
  8
0
  6
CONTINUOUS
 62
     7
  2
*UDIM244
 70
    65
 10
0.0
 20
0.0
 30
0.0
  3
*UDIM244
  0
TEXT
  5
    20
  8
0
  6
CONTINUOUS
 62
     7
 10
189.625059115696
 20
-89.6448733053898
 30
0.0
 40
3.00000002980232
  1
67,25
 50
449.999999896069
 41
0.933333333333333
 72
     1
 11
188.125059112906
 21
-82.9448732361197
 31
0.0
 73
     2
  0
LINE
  5
    21
  8
0
  6
CONTINUOUS
 62
     7
 10
184.597037300577
 20
-74.6122360229492
 30
0.0
 11
192.625059127808
 21
-74.6122360229492
 31
0.0
  0
LINE
  5
    22
  8
0
  6
CONTINUOUS
 62
     7
 10
177.201895006098
 20
-91.4247360229492
 30
0.0
 11
192.625059127808
 21
-91.4247360229492
 31
0.0
  0
LINE
  5
    23
  8
0
  6
CONTINUOUS
 62
     7
 10
190.625059127808
 20
-74.6122360229492
 30
0.0
 11
190.625059127808
 21
-91.4247360229492
 31
0.0
  0
LINE
  5
    24
  8
0
  6
CONTINUOUS
 62
     7
 10
190.104114697856
 20
-71.6578127457423
 30
0.0
 11
190.625059127808
 21
-74.6122360229492
 31
0.0
  0
LINE
  5
    25
  8
0
  6
CONTINUOUS
 62
     7
 10
190.625059127808
 20
-74.6122360229492
 30
0.0
 11
191.146003557759
 21
-71.6578127457423
 31
0.0
  0
LINE
  5
    26
  8
0
  6
CONTINUOUS
 62
     7
 10
191.146003557759
 20
-94.3791593001562
 30
0.0
 11
190.625059127808
 21
-91.4247360229492
 31
0.0
  0
LINE
  5
    27
  8
0
  6
CONTINUOUS
 62
     7
 10
190.625059127808
 20
-91.4247360229492
 30
0.0
 11
190.104114697856
 21
-94.3791593001562
 31
0.0
  0
ENDBLK
  5
    28
  8
0
  6
CONTINUOUS
 62
     7
  0
BLOCK
  5
    29
  8
0
  6
CONTINUOUS
 62
     7
  2
*UDIM245
 70
    65
 10
0.0
 20
0.0
 30
0.0
  3
*UDIM245
  0
TEXT
  5
    2A
  8
0
  6
CONTINUOUS
 62
     7
 10
177.033029528726
 20
-107.005481715448
 30
0.0
 40
3.00000002980232
  1
35
 50
359.999999896069
 41
0.933333333333333
 72
     1
 11
179.533029556274
 21
-105.50548170507
 31
0.0
 73
     2
  0
LINE
  5
    2B
  8
0
  6
CONTINUOUS
 62
     7
 10
174.058029174805
 20
-103.58844726231
 30
0.0
 11
174.058029174805
 21
-110.005481719971
 31
0.0
  0
LINE
  5
    2C
  8
0
  6
CONTINUOUS
 62
     7
 10
165.308029174805
 20
-103.793176024066
 30
0.0
 11
165.308029174805
 21
-110.005481719971
 31
0.0
  0
LINE
  5
    2D
  8
0
  6
CONTINUOUS
 62
     7
 10
182.03302958111
 20
-108.005481719971
 30
0.0
 11
165.308029174805
 21
-108.005481719971
 31
0.0
  0
LINE
  5
    2E
  8
0
  6
CONTINUOUS
 62
     7
 10
177.012452452012
 20
-107.484537290019
 30
0.0
 11
174.058029174805
 21
-108.005481719971
 31
0.0
  0
LINE
  5
    2F
  8
0
  6
CONTINUOUS
 62
     7
 10
174.058029174805
 20
-108.005481719971
 30
0.0
 11
177.012452452012
 21
-108.526426149922
 31
0.0
  0
LINE
  5
    30
  8
0
  6
CONTINUOUS
 62
     7
 10
162.353605897598
 20
-108.526426149922
 30
0.0
 11
165.308029174805
 21
-108.005481719971
 31
0.0
  0
LINE
  5
    31
  8
0
  6
CONTINUOUS
 62
     7
 10
165.308029174805
 20
-108.005481719971
 30
0.0
 11
162.353605897598
 21
-107.484537290019
 31
0.0
  0
ENDBLK
  5
    32
  8
0
  6
CONTINUOUS
 62
     7
  0
BLOCK
  5
    33
  8
0
  6
CONTINUOUS
 62
     7
  2
*UDIM246
 70
    65
 10
0.0
 20
0.0
 30
0.0
  3
*UDIM246
  0
TEXT
  5
    34
  8
0
  6
CONTINUOUS
 62
     7
 10
84.5144827076133
 20
-101.868507991016
 30
0.0
 40
3.00000002980232
  1
7
 50
401.743212308633
 41
0.933333333333334
 72
     1
 11
84.3365426699662
 21
-100.016930984315
 31
0.0
 73
     2
  0
TEXT
  5
    35
  8
0
  6
CONTINUOUS
 62
     7
 10
82.1641535020137
 20
-103.965756828873
 30
0.0
 40
3.00000002980232
  1
Ø
 50
401.743212308633
 41
0.933333333333334
 72
     1
 11
81.9862134643665
 21
-102.114179822171
 31
0.0
 73
     2
  0
LINE
  5
    36
  8
0
  6
CONTINUOUS
 62
     7
 10
97.322737690957
 20
-91.7796669031597
 30
0.0
 11
82.8299467868007
 21
-104.711893081783
 31
0.0
  0
LINE
  5
    37
  8
0
  6
CONTINUOUS
 62
     7
 10
99.1802987053589
 20
-89.4239362144403
 30
0.0
 11
97.322737690957
 21
-91.7796669031597
 31
0.0
  0
LINE
  5
    38
  8
0
  6
CONTINUOUS
 62
     7
 10
97.322737690957
 20
-91.7796669031597
 30
0.0
 11
99.8739813065388
 21
-90.2013272648203
 31
0.0
  0
LINE
  5
    39
  8
0
  6
CONTINUOUS
 62
     7
 10
94.1594382331177
 20
-95.3005358314581
 30
0.0
 11
96.0169992475195
 21
-92.9448051427388
 31
0.0
  0
LINE
  5
    3A
  8
0
  6
CONTINUOUS
 62
     7
 10
96.0169992475195
 20
-92.9448051427388
 30
0.0
 11
93.4657556319378
 21
-94.5231447810781
 31
0.0
  0
ENDBLK
  5
    3B
  8
0
  6
CONTINUOUS
 62
     7
  0
BLOCK
  5
    3C
  8
0
  6
CONTINUOUS
 62
     7
  2
*UDIM247
 70
    65
 10
0.0
 20
0.0
 30
0.0
  3
*UDIM247
  0
TEXT
  5
    3D
  8
0
  6
CONTINUOUS
 62
     7
 10
65.9008331192958
 20
-78.7872360717247
 30
0.0
 40
3.00000002980232
  1
142
 50
449.999999844103
 41
0.933333333333333
 72
     1
 11
64.4008331149817
 21
-74.8872360289097
 31
0.0
 73
     2
  0
LINE
  5
    3E
  8
0
  6
CONTINUOUS
 62
     7
 10
94.0448684692383
 20
-56.8622360229492
 30
0.0
 11
64.9008331298828
 21
-56.8622360229492
 31
0.0
  0
LINE
  5
    3F
  8
0
  6
CONTINUOUS
 62
     7
 10
94.0448684692383
 20
-92.3622360229492
 30
0.0
 11
64.9008331298828
 21
-92.3622360229492
 31
0.0
  0
LINE
  5
    40
  8
0
  6
CONTINUOUS
 62
     7
 10
66.9008331298828
 20
-56.8622360229492
 30
0.0
 11
66.9008331298828
 21
-92.3622360229492
 31
0.0
  0
LINE
  5
    41
  8
0
  6
CONTINUOUS
 62
     7
 10
67.4217775598345
 20
-59.8166593001562
 30
0.0
 11
66.9008331298828
 21
-56.8622360229492
 31
0.0
  0
LINE
  5
    42
  8
0
  6
CONTINUOUS
 62
     7
 10
66.9008331298828
 20
-56.8622360229492
 30
0.0
 11
66.3798886999311
 21
-59.8166593001562
 31
0.0
  0
LINE
  5
    43
  8
0
  6
CONTINUOUS
 62
     7
 10
66.3798886999311
 20
-89.4078127457423
 30
0.0
 11
66.9008331298828
 21
-92.3622360229492
 31
0.0
  0
LINE
  5
    44
  8
0
  6
CONTINUOUS
 62
     7
 10
66.9008331298828
 20
-92.3622360229492
 30
0.0
 11
67.4217775598345
 21
-89.4078127457423
 31
0.0
  0
ENDBLK
  5
    45
  8
0
  6
CONTINUOUS
 62
     7
  0
BLOCK
  5
    46
  8
0
  6
CONTINUOUS
 62
     7
  2
*UDIM248
 70
    65
 10
0.0
 20
0.0
 30
0.0
  3
*UDIM248
  0
TEXT
  5
    47
  8
0
  6
CONTINUOUS
 62
     7
 10
75.9325275315272
 20
-78.7872360717247
 30
0.0
 40
3.00000002980232
  1
112
 50
449.999999844103
 41
0.933333333333333
 72
     1
 11
74.4325275272131
 21
-74.8872360289097
 31
0.0
 73
     2
  0
LINE
  5
    48
  8
0
  6
CONTINUOUS
 62
     7
 10
91.6698684692383
 20
-60.6122360229492
 30
0.0
 11
74.9325275421143
 21
-60.6122360229492
 31
0.0
  0
LINE
  5
    49
  8
0
  6
CONTINUOUS
 62
     7
 10
91.6698684692383
 20
-88.6122360229492
 30
0.0
 11
74.9325275421143
 21
-88.6122360229492
 31
0.0
  0
LINE
  5
    4A
  8
0
  6
CONTINUOUS
 62
     7
 10
76.9325275421143
 20
-60.6122360229492
 30
0.0
 11
76.9325275421143
 21
-88.6122360229492
 31
0.0
  0
LINE
  5
    4B
  8
0
  6
CONTINUOUS
 62
     7
 10
77.4534719720659
 20
-63.5666593001562
 30
0.0
 11
76.9325275421143
 21
-60.6122360229492
 31
0.0
  0
LINE
  5
    4C
  8
0
  6
CONTINUOUS
 62
     7
 10
76.9325275421143
 20
-60.6122360229492
 30
0.0
 11
76.4115831121626
 21
-63.5666593001562
 31
0.0
  0
LINE
  5
    4D
  8
0
  6
CONTINUOUS
 62
     7
 10
76.4115831121626
 20
-85.6578127457423
 30
0.0
 11
76.9325275421143
 21
-88.6122360229492
 31
0.0
  0
LINE
  5
    4E
  8
0
  6
CONTINUOUS
 62
     7
 10
76.9325275421143
 20
-88.6122360229492
 30
0.0
 11
77.4534719720659
 21
-85.6578127457423
 31
0.0
  0
ENDBLK
  5
    4F
  8
0
  6
CONTINUOUS
 62
     7
  0
BLOCK
  5
    50
  8
0
  6
CONTINUOUS
 62
     7
  2
*UDIM249
 70
    65
 10
0.0
 20
0.0
 30
0.0
  3
*UDIM249
  0
TEXT
  5
    51
  8
0
  6
CONTINUOUS
 62
     7
 10
102.494868420461
 20
-35.896469105619
 30
0.0
 40
3.00000002980232
  1
112
 50
359.999999844103
 41
0.933333333333333
 72
     1
 11
106.394868463278
 21
-34.3964691013098
 31
0.0
 73
     2
  0
LINE
  5
    52
  8
0
  6
CONTINUOUS
 62
     7
 10
92.6698684692383
 20
-59.6122360229492
 30
0.0
 11
92.6698684692383
 21
-34.8964691162109
 31
0.0
  0
LINE
  5
    53
  8
0
  6
CONTINUOUS
 62
     7
 10
120.669868469238
 20
-59.6122360229492
 30
0.0
 11
120.669868469238
 21
-34.8964691162109
 31
0.0
  0
LINE
  5
    54
  8
0
  6
CONTINUOUS
 62
     7
 10
92.6698684692383
 20
-36.8964691162109
 30
0.0
 11
120.669868469238
 21
-36.8964691162109
 31
0.0
  0
LINE
  5
    55
  8
0
  6
CONTINUOUS
 62
     7
 10
95.6242917464452
 20
-36.3755246862593
 30
0.0
 11
92.6698684692383
 21
-36.8964691162109
 31
0.0
  0
LINE
  5
    56
  8
0
  6
CONTINUOUS
 62
     7
 10
92.6698684692383
 20
-36.8964691162109
 30
0.0
 11
95.6242917464452
 21
-37.4174135461626
 31
0.0
  0
LINE
  5
    57
  8
0
  6
CONTINUOUS
 62
     7
 10
117.715445192031
 20
-37.4174135461626
 30
0.0
 11
120.669868469238
 21
-36.8964691162109
 31
0.0
  0
LINE
  5
    58
  8
0
  6
CONTINUOUS
 62
     7
 10
120.669868469238
 20
-36.8964691162109
 30
0.0
 11
117.715445192031
 21
-36.3755246862593
 31
0.0
  0
ENDBLK
  5
    59
  8
0
  6
CONTINUOUS
 62
     7
  0
BLOCK
  5
    5A
  8
0
  6
CONTINUOUS
 62
     7
  2
*UDIM250
 70
    65
 10
0.0
 20
0.0
 30
0.0
  3
*UDIM250
  0
TEXT
  5
    5B
  8
0
  6
CONTINUOUS
 62
     7
 10
103.894868434369
 20
-44.0173625878148
 30
0.0
 40
3.00000002980232
  1
80
 50
359.999999844103
 41
0.933333333333333
 72
     1
 11
106.394868463278
 21
-42.5173625797033
 31
0.0
 73
     2
  0
LINE
  5
    5C
  8
0
  6
CONTINUOUS
 62
     7
 10
96.6698684692383
 20
-54.2372360229492
 30
0.0
 11
96.6698684692383
 21
-43.0173625946045
 31
0.0
  0
LINE
  5
    5D
  8
0
  6
CONTINUOUS
 62
     7
 10
116.669868469238
 20
-54.2372360229492
 30
0.0
 11
116.669868469238
 21
-43.0173625946045
 31
0.0
  0
LINE
  5
    5E
  8
0
  6
CONTINUOUS
 62
     7
 10
96.6698684692383
 20
-45.0173625946045
 30
0.0
 11
116.669868469238
 21
-45.0173625946045
 31
0.0
  0
LINE
  5
    5F
  8
0
  6
CONTINUOUS
 62
     7
 10
99.6242917464452
 20
-44.4964181646528
 30
0.0
 11
96.6698684692383
 21
-45.0173625946045
 31
0.0
  0
LINE
  5
    60
  8
0
  6
CONTINUOUS
 62
     7
 10
96.6698684692383
 20
-45.0173625946045
 30
0.0
 11
99.6242917464452
 21
-45.5383070245562
 31
0.0
  0
LINE
  5
    61
  8
0
  6
CONTINUOUS
 62
     7
 10
113.715445192031
 20
-45.5383070245562
 30
0.0
 11
116.669868469238
 21
-45.0173625946045
 31
0.0
  0
LINE
  5
    62
  8
0
  6
CONTINUOUS
 62
     7
 10
116.669868469238
 20
-45.0173625946045
 30
0.0
 11
113.715445192031
 21
-44.4964181646528
 31
0.0
  0
ENDBLK
  5
    63
  8
0
  6
CONTINUOUS
 62
     7
  0
BLOCK
  5
    64
  8
0
  6
CONTINUOUS
 62
     7
  2
*HATCH211
 70
    65
 10
0.0
 20
0.0
 30
0.0
  3
*HATCH211
  0
LINE
  5
    65
  8
0
  6
CONTINUOUS
 62
   210
 10
14.1969509124756
 20
-46.0167922973633
 30
0.0
 11
17.1801414489746
 21
-48.9999885559082
 31
0.0
  0
ENDBLK
  5
    66
  8
0
  6
CONTINUOUS
 62
     7
  0
BLOCK
  5
    67
  8
0
  6
CONTINUOUS
 62
     7
  2
*HATCH212
 70
    65
 10
0.0
 20
0.0
 30
0.0
  3
*HATCH212
  0
LINE
  5
    68
  8
0
  6
CONTINUOUS
 62
   210
 10
20.7441368103027
 20
-45.0167922973633
 30
0.0
 11
18.0000019073486
 21
-47.7609252929688
 31
0.0
  0
LINE
  5
    69
  8
0
  6
CONTINUOUS
 62
   210
 10
21.0
 20
-49.0035667419434
 30
0.0
 11
18.0000019073486
 21
-52.0035667419434
 31
0.0
  0
LINE
  5
    6A
  8
0
  6
CONTINUOUS
 62
   210
 10
21.0
 20
-53.246208190918
 30
0.0
 11
19.3462104797363
 21
-54.9000015258789
 31
0.0
  0
ENDBLK
  5
    6B
  8
0
  6
CONTINUOUS
 62
     7
  0
BLOCK
  5
    6C
  8
0
  6
CONTINUOUS
 62
     7
  2
*HATCH213
 70
    65
 10
0.0
 20
0.0
 30
0.0
  3
*HATCH213
  0
LINE
  5
    6D
  8
0
  6
CONTINUOUS
 62
   210
 10
21.7528133392334
 20
-63.0999984741211
 30
0.0
 11
18.0000019073486
 21
-66.8528137207031
 31
0.0
  0
LINE
  5
    6E
  8
0
  6
CONTINUOUS
 62
   210
 10
23.0
 20
-66.0954513549805
 30
0.0
 11
21.0954647064209
 21
-67.9999847412109
 31
0.0
  0
ENDBLK
  5
    6F
  8
0
  6
CONTINUOUS
 62
     7
  0
BLOCK
  5
    70
  8
0
  6
CONTINUOUS
 62
     7
  2
*HATCH214
 70
    65
 10
0.0
 20
0.0
 30
0.0
  3
*HATCH214
  0
LINE
  5
    71
  8
0
  6
CONTINUOUS
 62
   210
 10
23.0
 20
-47.0035705566406
 30
0.0
 11
21.0000019073486
 21
-49.0035705566406
 31
0.0
  0
LINE
  5
    72
  8
0
  6
CONTINUOUS
 62
   210
 10
23.0
 20
-51.246208190918
 30
0.0
 11
21.0000019073486
 21
-53.246208190918
 31
0.0
  0
ENDBLK
  5
    73
  8
0
  6
CONTINUOUS
 62
     7
  0
BLOCK
  5
    74
  8
0
  6
CONTINUOUS
 62
     7
  2
*HATCH215
 70
    65
 10
0.0
 20
0.0
 30
0.0
  3
*HATCH215
  0
LINE
  5
    75
  8
0
  6
CONTINUOUS
 62
    52
 10
107.001167297363
 20
-64.8257827758789
 30
0.0
 11
105.001167297363
 21
-66.8257751464844
 31
0.0
  0
LINE
  5
    76
  8
0
  6
CONTINUOUS
 62
    52
 10
107.001167297363
 20
-69.0684280395508
 30
0.0
 11
105.001167297363
 21
-71.0684204101563
 31
0.0
  0
LINE
  5
    77
  8
0
  6
CONTINUOUS
 62
    52
 10
107.001167297363
 20
-73.3110733032227
 30
0.0
 11
105.001167297363
 21
-75.3110656738281
 31
0.0
  0
LINE
  5
    78
  8
0
  6
CONTINUOUS
 62
    52
 10
107.001167297363
 20
-77.5537185668945
 30
0.0
 11
105.001167297363
 21
-79.5537109375
 31
0.0
  0
LINE
  5
    79
  8
0
  6
CONTINUOUS
 62
    52
 10
107.001167297363
 20
-81.7963638305664
 30
0.0
 11
105.001167297363
 21
-83.7963562011719
 31
0.0
  0
LINE
  5
    7A
  8
0
  6
CONTINUOUS
 62
    52
 10
107.001167297363
 20
-86.0390090942383
 30
0.0
 11
105.001167297363
 21
-88.0390014648438
 31
0.0
  0
LINE
  5
    7B
  8
0
  6
CONTINUOUS
 62
    52
 10
107.001167297363
 20
-90.2816543579102
 30
0.0
 11
105.001167297363
 21
-92.2816467285156
 31
0.0
  0
LINE
  5
    7C
  8
0
  6
CONTINUOUS
 62
    52
 10
107.001167297363
 20
-94.524299621582
 30
0.0
 11
105.001167297363
 21
-96.5242919921875
 31
0.0
  0
LINE
  5
    7D
  8
0
  6
CONTINUOUS
 62
    52
 10
107.001167297363
 20
-98.7669448852539
 30
0.0
 11
105.001167297363
 21
-100.766937255859
 31
0.0
  0
LINE
  5
    7E
  8
0
  6
CONTINUOUS
 62
    52
 10
107.001167297363
 20
-103.009590148926
 30
0.0
 11
105.001167297363
 21
-105.009582519531
 31
0.0
  0
LINE
  5
    7F
  8
0
  6
CONTINUOUS
 62
    52
 10
107.001167297363
 20
-107.252235412598
 30
0.0
 11
105.001167297363
 21
-109.252227783203
 31
0.0
  0
LINE
  5
    80
  8
0
  6
CONTINUOUS
 62
    52
 10
107.001167297363
 20
-111.49488067627
 30
0.0
 11
105.001167297363
 21
-113.494873046875
 31
0.0
  0
LINE
  5
    81
  8
0
  6
CONTINUOUS
 62
    52
 10
107.001167297363
 20
-115.737464904785
 30
0.0
 11
105.269889831543
 21
-117.46875
 31
0.0
  0
ENDBLK
  5
    82
  8
0
  6
CONTINUOUS
 62
     7
  0
BLOCK
  5
    83
  8
0
  6
CONTINUOUS
 62
     7
  2
*HATCH216
 70
    65
 10
0.0
 20
0.0
 30
0.0
  3
*HATCH216
  0
LINE
  5
    84
  8
0
  6
CONTINUOUS
 62
    52
 10
107.001167297363
 20
-47.8552169799805
 30
0.0
 11
105.001167297363
 21
-49.8552169799805
 31
0.0
  0
LINE
  5
    85
  8
0
  6
CONTINUOUS
 62
    52
 10
107.001167297363
 20
-52.0978546142578
 30
0.0
 11
105.001167297363
 21
-54.0978546142578
 31
0.0
  0
LINE
  5
    86
  8
0
  6
CONTINUOUS
 62
    52
 10
107.001167297363
 20
-56.3404998779297
 30
0.0
 11
106.091667175293
 21
-57.25
 31
0.0
  0
ENDBLK
  5
    87
  8
0
  6
CONTINUOUS
 62
     7
  0
BLOCK
  5
    88
  8
0
  6
CONTINUOUS
 62
     7
  2
*HATCH217
 70
    65
 10
0.0
 20
0.0
 30
0.0
  3
*HATCH217
  0
LINE
  5
    89
  8
0
  6
CONTINUOUS
 62
    52
 10
107.001167297363
 20
77.3026809692383
 30
0.0
 11
105.001167297363
 21
75.3026809692383
 31
0.0
  0
LINE
  5
    8A
  8
0
  6
CONTINUOUS
 62
    52
 10
107.001167297363
 20
73.0600357055664
 30
0.0
 11
105.001167297363
 21
71.0600357055664
 31
0.0
  0
LINE
  5
    8B
  8
0
  6
CONTINUOUS
 62
    52
 10
107.001167297363
 20
68.8173904418945
 30
0.0
 11
105.001167297363
 21
66.8173904418945
 31
0.0
  0
ENDBLK
  5
    8C
  8
0
  6
CONTINUOUS
 62
     7
  0
BLOCK
  5
    8D
  8
0
  6
CONTINUOUS
 62
     7
  2
*HATCH218
 70
    65
 10
0.0
 20
0.0
 30
0.0
  3
*HATCH218
  0
LINE
  5
    8E
  8
0
  6
CONTINUOUS
 62
   210
 10
24.8035449981689
 20
-46.0167922973633
 30
0.0
 11
27.786735534668
 21
-48.9999885559082
 31
0.0
  0
LINE
  5
    8F
  8
0
  6
CONTINUOUS
 62
   210
 10
29.0461826324463
 20
-46.0167922973633
 30
0.0
 11
32.0293731689453
 21
-48.9999885559082
 31
0.0
  0
LINE
  5
    90
  8
0
  6
CONTINUOUS
 62
   210
 10
33.2888221740723
 20
-46.0167922973633
 30
0.0
 11
36.2720108032227
 21
-48.9999885559082
 31
0.0
  0
LINE
  5
    91
  8
0
  6
CONTINUOUS
 62
   210
 10
37.5314598083496
 20
-46.0167922973633
 30
0.0
 11
40.5146484375
 21
-48.9999885559082
 31
0.0
  0
LINE
  5
    92
  8
0
  6
CONTINUOUS
 62
   210
 10
41.774097442627
 20
-46.0167922973633
 30
0.0
 11
44.7572860717773
 21
-48.9999885559082
 31
0.0
  0
LINE
  5
    93
  8
0
  6
CONTINUOUS
 62
   210
 10
46.0167350769043
 20
-46.0167922973633
 30
0.0
 11
46.9614868164062
 21
-46.9615440368652
 31
0.0
  0
ENDBLK
  5
    94
  8
0
  6
CONTINUOUS
 62
     7
  0
BLOCK
  5
    95
  8
0
  6
CONTINUOUS
 62
     2
  2
*HATCH219
 70
    65
 10
0.0
 20
0.0
 30
0.0
  3
*HATCH219
  0
LINE
  5
    96
  8
0
  6
CONTINUOUS
 62
   210
 10
21.0223026275635
 20
178.0
 30
0.0
 11
18.0000019073486
 21
174.977691650391
 31
0.0
  0
LINE
  5
    97
  8
0
  6
CONTINUOUS
 62
   210
 10
22.0000019073486
 20
174.735061645508
 30
0.0
 11
20.4649429321289
 21
173.199996948242
 31
0.0
  0
ENDBLK
  5
    98
  8
0
  6
CONTINUOUS
 62
     2
  0
BLOCK
  5
    99
  8
0
  6
CONTINUOUS
 62
     2
  2
*HATCH220
 70
    65
 10
0.0
 20
0.0
 30
0.0
  3
*HATCH220
  0
LINE
  5
    9A
  8
0
  6
CONTINUOUS
 62
   210
 10
23.0000019073486
 20
161.554962158203
 30
0.0
 11
25.55495262146
 21
159.0
 31
0.0
  0
LINE
  5
    9B
  8
0
  6
CONTINUOUS
 62
   210
 10
24.0475978851318
 20
164.75
 30
0.0
 11
29.0000019073486
 21
159.797592163086
 31
0.0
  0
LINE
  5
    9C
  8
0
  6
CONTINUOUS
 62
   210
 10
28.2902355194092
 20
164.75
 30
0.0
 11
29.0000019073486
 21
164.040237426758
 31
0.0
  0
ENDBLK
  5
    9D
  8
0
  6
CONTINUOUS
 62
     2
  0
BLOCK
  5
    9E
  8
0
  6
CONTINUOUS
 62
     2
  2
*HATCH221
 70
    65
 10
0.0
 20
0.0
 30
0.0
  3
*HATCH221
  0
LINE
  5
    9F
  8
0
  6
CONTINUOUS
 62
   210
 10
23.0000019073486
 20
176.404205322266
 30
0.0
 11
26.154203414917
 21
173.25
 31
0.0
  0
LINE
  5
    A0
  8
0
  6
CONTINUOUS
 62
   210
 10
23.0000019073486
 20
180.646850585938
 30
0.0
 11
29.0000019073486
 21
174.646835327148
 31
0.0
  0
LINE
  5
    A1
  8
0
  6
CONTINUOUS
 62
   210
 10
23.0000019073486
 20
184.889495849609
 30
0.0
 11
29.0000019073486
 21
178.88948059082
 31
0.0
  0
LINE
  5
    A2
  8
0
  6
CONTINUOUS
 62
   210
 10
23.0000019073486
 20
189.132141113281
 30
0.0
 11
29.0000019073486
 21
183.132125854492
 31
0.0
  0
LINE
  5
    A3
  8
0
  6
CONTINUOUS
 62
   210
 10
23.0000019073486
 20
193.374786376953
 30
0.0
 11
29.0000019073486
 21
187.374771118164
 31
0.0
  0
LINE
  5
    A4
  8
0
  6
CONTINUOUS
 62
   210
 10
23.0000019073486
 20
197.617431640625
 30
0.0
 11
29.0000019073486
 21
191.617416381836
 31
0.0
  0
LINE
  5
    A5
  8
0
  6
CONTINUOUS
 62
   210
 10
26.6100635528564
 20
198.25
 30
0.0
 11
29.0000019073486
 21
195.860061645508
 31
0.0
  0
ENDBLK
  5
    A6
  8
0
  6
CONTINUOUS
 62
     2
  0
BLOCK
  5
    A7
  8
0
  6
CONTINUOUS
 62
     2
  2
*HATCH222
 70
    65
 10
0.0
 20
0.0
 30
0.0
  3
*HATCH222
  0
LINE
  5
    A8
  8
0
  6
CONTINUOUS
 62
   210
 10
23.0000019073486
 20
210.345352172852
 30
0.0
 11
26.5953502655029
 21
206.75
 31
0.0
  0
LINE
  5
    A9
  8
0
  6
CONTINUOUS
 62
   210
 10
23.0000019073486
 20
214.587997436523
 30
0.0
 11
29.0000019073486
 21
208.587982177734
 31
0.0
  0
LINE
  5
    AA
  8
0
  6
CONTINUOUS
 62
   210
 10
26.8306350708008
 20
215.0
 30
0.0
 11
29.0000019073486
 21
212.830627441406
 31
0.0
  0
ENDBLK
  5
    AB
  8
0
  6
CONTINUOUS
 62
     2
  0
BLOCK
  5
    AC
  8
0
  6
CONTINUOUS
 62
     7
  2
*HATCH223
 70
    65
 10
0.0
 20
0.0
 30
0.0
  3
*HATCH223
  0
LINE
  5
    AD
  8
0
  6
CONTINUOUS
 62
   210
 10
20.5502243041992
 20
164.800003051758
 30
0.0
 11
18.0000019073486
 21
162.249771118164
 31
0.0
  0
LINE
  5
    AE
  8
0
  6
CONTINUOUS
 62
   210
 10
22.0000019073486
 20
162.007141113281
 30
0.0
 11
18.2512645721436
 21
158.258407592773
 31
0.0
  0
LINE
  5
    AF
  8
0
  6
CONTINUOUS
 62
   210
 10
23.0000019073486
 20
158.764495849609
 30
0.0
 11
22.4939060211182
 21
158.258407592773
 31
0.0
  0
ENDBLK
  5
    B0
  8
0
  6
CONTINUOUS
 62
     7
  0
BLOCK
  5
    B1
  8
0
  6
CONTINUOUS
 62
     7
  2
*HATCH224
 70
    65
 10
0.0
 20
0.0
 30
0.0
  3
*HATCH224
  0
LINE
  5
    B2
  8
0
  6
CONTINUOUS
 62
   210
 10
25.55495262146
 20
159.0
 30
0.0
 11
26.2965507507324
 21
158.258407592773
 31
0.0
  0
LINE
  5
    B3
  8
0
  6
CONTINUOUS
 62
   210
 10
29.7975902557373
 20
159.0
 30
0.0
 11
30.5391883850098
 21
158.258407592773
 31
0.0
  0
LINE
  5
    B4
  8
0
  6
CONTINUOUS
 62
   210
 10
34.0402297973633
 20
159.0
 30
0.0
 11
34.7818260192871
 21
158.258407592773
 31
0.0
  0
ENDBLK
  5
    B5
  8
0
  6
CONTINUOUS
 62
     7
  0
BLOCK
  5
    B6
  8
0
  6
CONTINUOUS
 62
     7
  2
*HATCH225
 70
    65
 10
0.0
 20
0.0
 30
0.0
  3
*HATCH225
  0
LINE
  5
    B7
  8
0
  6
CONTINUOUS
 62
    52
 10
107.001167297363
 20
202.460571289063
 30
0.0
 11
105.001167297363
 21
200.460571289063
 31
0.0
  0
LINE
  5
    B8
  8
0
  6
CONTINUOUS
 62
    52
 10
107.001167297363
 20
198.217926025391
 30
0.0
 11
105.001167297363
 21
196.217926025391
 31
0.0
  0
LINE
  5
    B9
  8
0
  6
CONTINUOUS
 62
    52
 10
107.001167297363
 20
193.975280761719
 30
0.0
 11
105.001167297363
 21
191.975280761719
 31
0.0
  0
LINE
  5
    BA
  8
0
  6
CONTINUOUS
 62
    52
 10
107.001167297363
 20
189.732635498047
 30
0.0
 11
105.001167297363
 21
187.732635498047
 31
0.0
  0
LINE
  5
    BB
  8
0
  6
CONTINUOUS
 62
    52
 10
107.001167297363
 20
185.489990234375
 30
0.0
 11
105.001167297363
 21
183.489990234375
 31
0.0
  0
LINE
  5
    BC
  8
0
  6
CONTINUOUS
 62
    52
 10
107.001167297363
 20
181.247344970703
 30
0.0
 11
105.001167297363
 21
179.247344970703
 31
0.0
  0
LINE
  5
    BD
  8
0
  6
CONTINUOUS
 62
    52
 10
107.001167297363
 20
177.004699707031
 30
0.0
 11
105.001167297363
 21
175.004699707031
 31
0.0
  0
LINE
  5
    BE
  8
0
  6
CONTINUOUS
 62
    52
 10
107.001167297363
 20
172.762054443359
 30
0.0
 11
105.001167297363
 21
170.762054443359
 31
0.0
  0
LINE
  5
    BF
  8
0
  6
CONTINUOUS
 62
    52
 10
107.001167297363
 20
168.519409179688
 30
0.0
 11
105.001167297363
 21
166.519409179688
 31
0.0
  0
LINE
  5
    C0
  8
0
  6
CONTINUOUS
 62
    52
 10
107.001167297363
 20
164.276763916016
 30
0.0
 11
105.001167297363
 21
162.276763916016
 31
0.0
  0
LINE
  5
    C1
  8
0
  6
CONTINUOUS
 62
    52
 10
107.001167297363
 20
160.034118652344
 30
0.0
 11
105.001167297363
 21
158.034118652344
 31
0.0
  0
LINE
  5
    C2
  8
0
  6
CONTINUOUS
 62
    52
 10
107.001167297363
 20
155.791473388672
 30
0.0
 11
105.001167297363
 21
153.791473388672
 31
0.0
  0
LINE
  5
    C3
  8
0
  6
CONTINUOUS
 62
    52
 10
107.001167297363
 20
151.548828125
 30
0.0
 11
105.001167297363
 21
149.548828125
 31
0.0
  0
LINE
  5
    C4
  8
0
  6
CONTINUOUS
 62
    52
 10
107.001167297363
 20
147.306182861328
 30
0.0
 11
105.001167297363
 21
145.306182861328
 31
0.0
  0
LINE
  5
    C5
  8
0
  6
CONTINUOUS
 62
    52
 10
107.001167297363
 20
143.063537597656
 30
0.0
 11
105.001167297363
 21
141.063537597656
 31
0.0
  0
LINE
  5
    C6
  8
0
  6
CONTINUOUS
 62
    52
 10
107.001167297363
 20
138.820892333984
 30
0.0
 11
105.001167297363
 21
136.820892333984
 31
0.0
  0
LINE
  5
    C7
  8
0
  6
CONTINUOUS
 62
    52
 10
107.001167297363
 20
134.578247070313
 30
0.0
 11
105.001167297363
 21
132.578247070313
 31
0.0
  0
LINE
  5
    C8
  8
0
  6
CONTINUOUS
 62
    52
 10
107.001167297363
 20
130.335601806641
 30
0.0
 11
105.001167297363
 21
128.335601806641
 31
0.0
  0
LINE
  5
    C9
  8
0
  6
CONTINUOUS
 62
    52
 10
107.001167297363
 20
126.092956542969
 30
0.0
 11
105.001167297363
 21
124.092956542969
 31
0.0
  0
LINE
  5
    CA
  8
0
  6
CONTINUOUS
 62
    52
 10
107.001167297363
 20
121.850311279297
 30
0.0
 11
105.001167297363
 21
119.850311279297
 31
0.0
  0
LINE
  5
    CB
  8
0
  6
CONTINUOUS
 62
    52
 10
107.001167297363
 20
117.607666015625
 30
0.0
 11
105.001167297363
 21
115.607666015625
 31
0.0
  0
LINE
  5
    CC
  8
0
  6
CONTINUOUS
 62
    52
 10
107.001167297363
 20
113.365020751953
 30
0.0
 11
105.001167297363
 21
111.365020751953
 31
0.0
  0
LINE
  5
    CD
  8
0
  6
CONTINUOUS
 62
    52
 10
107.001167297363
 20
109.122375488281
 30
0.0
 11
105.001167297363
 21
107.122375488281
 31
0.0
  0
LINE
  5
    CE
  8
0
  6
CONTINUOUS
 62
    52
 10
107.001167297363
 20
104.879730224609
 30
0.0
 11
105.001167297363
 21
102.879730224609
 31
0.0
  0
LINE
  5
    CF
  8
0
  6
CONTINUOUS
 62
    52
 10
107.001167297363
 20
100.637084960938
 30
0.0
 11
105.001167297363
 21
98.6370849609375
 31
0.0
  0
LINE
  5
    D0
  8
0
  6
CONTINUOUS
 62
    52
 10
107.001167297363
 20
96.3944396972656
 30
0.0
 11
105.001167297363
 21
94.3944396972656
 31
0.0
  0
LINE
  5
    D1
  8
0
  6
CONTINUOUS
 62
    52
 10
107.001167297363
 20
92.1517944335938
 30
0.0
 11
105.001167297363
 21
90.1517944335938
 31
0.0
  0
LINE
  5
    D2
  8
0
  6
CONTINUOUS
 62
    52
 10
107.001167297363
 20
87.9091491699219
 30
0.0
 11
105.001167297363
 21
85.9091491699219
 31
0.0
  0
ENDBLK
  5
    D3
  8
0
  6
CONTINUOUS
 62
     7
  0
BLOCK
  5
    D4
  8
0
  6
CONTINUOUS
 62
     7
  2
*HATCH226
 70
    65
 10
0.0
 20
0.0
 30
0.0
  3
*HATCH226
  0
LINE
  5
    D5
  8
0
  6
CONTINUOUS
 62
     3
 10
29.5000019073486
 20
184.046340942383
 30
0.0
 11
31.046329498291
 21
182.500015258789
 31
0.0
  0
LINE
  5
    D6
  8
0
  6
CONTINUOUS
 62
     3
 10
30.6676654815674
 20
185.0
 30
0.0
 11
33.167652130127
 21
182.500015258789
 31
0.0
  0
LINE
  5
    D7
  8
0
  6
CONTINUOUS
 62
     3
 10
32.7889823913574
 20
185.0
 30
0.0
 11
35.2889747619629
 21
182.500015258789
 31
0.0
  0
LINE
  5
    D8
  8
0
  6
CONTINUOUS
 62
     3
 10
34.9102973937988
 20
185.0
 30
0.0
 11
37.4102973937988
 21
182.500015258789
 31
0.0
  0
LINE
  5
    D9
  8
0
  6
CONTINUOUS
 62
     3
 10
37.0316123962402
 20
185.0
 30
0.0
 11
39.5316200256348
 21
182.500015258789
 31
0.0
  0
LINE
  5
    DA
  8
0
  6
CONTINUOUS
 62
     3
 10
39.1529273986816
 20
185.0
 30
0.0
 11
41.6529426574707
 21
182.500015258789
 31
0.0
  0
LINE
  5
    DB
  8
0
  6
CONTINUOUS
 62
     3
 10
41.274242401123
 20
185.0
 30
0.0
 11
43.7742652893066
 21
182.500015258789
 31
0.0
  0
LINE
  5
    DC
  8
0
  6
CONTINUOUS
 62
     3
 10
43.3955574035645
 20
185.0
 30
0.0
 11
45.8955879211426
 21
182.500015258789
 31
0.0
  0
LINE
  5
    DD
  8
0
  6
CONTINUOUS
 62
     3
 10
45.5168724060059
 20
185.0
 30
0.0
 11
48.0169105529785
 21
182.500015258789
 31
0.0
  0
LINE
  5
    DE
  8
0
  6
CONTINUOUS
 62
     3
 10
47.6381874084473
 20
185.0
 30
0.0
 11
50.1382331848145
 21
182.500015258789
 31
0.0
  0
LINE
  5
    DF
  8
0
  6
CONTINUOUS
 62
     3
 10
49.7595024108887
 20
185.0
 30
0.0
 11
52.2595558166504
 21
182.500015258789
 31
0.0
  0
LINE
  5
    E0
  8
0
  6
CONTINUOUS
 62
     3
 10
51.8808174133301
 20
185.0
 30
0.0
 11
54.3808784484863
 21
182.500015258789
 31
0.0
  0
LINE
  5
    E1
  8
0
  6
CONTINUOUS
 62
     3
 10
54.0021324157715
 20
185.0
 30
0.0
 11
56.5022010803223
 21
182.500015258789
 31
0.0
  0
LINE
  5
    E2
  8
0
  6
CONTINUOUS
 62
     3
 10
56.1234474182129
 20
185.0
 30
0.0
 11
58.6235237121582
 21
182.500015258789
 31
0.0
  0
LINE
  5
    E3
  8
0
  6
CONTINUOUS
 62
     3
 10
58.2447624206543
 20
185.0
 30
0.0
 11
60.7448463439941
 21
182.500015258789
 31
0.0
  0
LINE
  5
    E4
  8
0
  6
CONTINUOUS
 62
     3
 10
60.3660774230957
 20
185.0
 30
0.0
 11
62.8661689758301
 21
182.500015258789
 31
0.0
  0
LINE
  5
    E5
  8
0
  6
CONTINUOUS
 62
     3
 10
62.4873924255371
 20
185.0
 30
0.0
 11
64.9874877929688
 21
182.500015258789
 31
0.0
  0
LINE
  5
    E6
  8
0
  6
CONTINUOUS
 62
     3
 10
64.608757019043
 20
185.000015258789
 30
0.0
 11
65.5542221069336
 21
184.054550170898
 31
0.0
  0
ENDBLK
  5
    E7
  8
0
  6
CONTINUOUS
 62
     7
  0
BLOCK
  5
    E8
  8
0
  6
CONTINUOUS
 62
     7
  2
*UDIM251
 70
    65
 10
0.0
 20
0.0
 30
0.0
  3
*UDIM251
  0
TEXT
  5
    E9
  8
0
  6
CONTINUOUS
 62
     7
 10
265.339804837069
 20
112.807960647471
 30
0.0
 40
2.99999994933605
  1
10
 50
90.0
 41
0.933333333333333
 72
     1
 11
263.839804862397
 21
115.307960605249
 31
0.0
 73
     2
  0
LINE
  5
    EA
  8
0
  6
CONTINUOUS
 62
     7
 10
230.536042063153
 20
121.332960695028
 30
0.0
 11
268.339804837065
 21
121.332960695028
 31
0.0
  0
LINE
  5
    EB
  8
0
  6
CONTINUOUS
 62
     7
 10
231.742637100816
 20
125.332960754633
 30
0.0
 11
268.339804837065
 21
125.332960754633
 31
0.0
  0
LINE
  5
    EC
  8
0
  6
CONTINUOUS
 62
     7
 10
266.339804837065
 20
112.807960647469
 30
0.0
 11
266.339804837065
 21
125.332960754633
 31
0.0
  0
LINE
  5
    ED
  8
0
  6
CONTINUOUS
 62
     7
 10
266.860749267017
 20
118.378537417821
 30
0.0
 11
266.339804837065
 21
121.332960695028
 31
0.0
  0
LINE
  5
    EE
  8
0
  6
CONTINUOUS
 62
     7
 10
266.339804837065
 20
121.332960695028
 30
0.0
 11
265.818860407114
 21
118.378537417821
 31
0.0
  0
LINE
  5
    EF
  8
0
  6
CONTINUOUS
 62
     7
 10
265.818860407114
 20
128.28738403184
 30
0.0
 11
266.339804837065
 21
125.332960754633
 31
0.0
  0
LINE
  5
    F0
  8
0
  6
CONTINUOUS
 62
     7
 10
266.339804837065
 20
125.332960754633
 30
0.0
 11
266.860749267017
 21
128.28738403184
 31
0.0
  0
ENDBLK
  5
    F1
  8
0
  6
CONTINUOUS
 62
     7
  0
BLOCK
  5
    F2
  8
0
  6
CONTINUOUS
 62
     7
  2
*UDIM252
 70
    65
 10
0.0
 20
0.0
 30
0.0
  3
*UDIM252
  0
TEXT
  5
    F3
  8
0
  6
CONTINUOUS
 62
     7
 10
276.179606023987
 20
57.657959775281
 30
0.0
 40
2.99999994933605
  1
105
 50
90.0
 41
0.933333333333333
 72
     1
 11
274.679606049314
 21
61.557959709416
 31
0.0
 73
     2
  0
LINE
  5
    F4
  8
0
  6
CONTINUOUS
 62
     7
 10
258.343104883021
 20
40.8329594964288
 30
0.0
 11
279.179606023982
 21
40.8329594964288
 31
0.0
  0
LINE
  5
    F5
  8
0
  6
CONTINUOUS
 62
     7
 10
258.343104883021
 20
82.8329601213336
 30
0.0
 11
279.179606023982
 21
82.8329601213336
 31
0.0
  0
LINE
  5
    F6
  8
0
  6
CONTINUOUS
 62
     7
 10
277.179606023982
 20
40.8329594964288
 30
0.0
 11
277.179606023982
 21
82.8329601213336
 31
0.0
  0
LINE
  5
    F7
  8
0
  6
CONTINUOUS
 62
     7
 10
276.65866159403
 20
43.7873827736358
 30
0.0
 11
277.179606023982
 21
40.8329594964288
 31
0.0
  0
LINE
  5
    F8
  8
0
  6
CONTINUOUS
 62
     7
 10
277.179606023982
 20
40.8329594964288
 30
0.0
 11
277.700550453933
 21
43.7873827736358
 31
0.0
  0
LINE
  5
    F9
  8
0
  6
CONTINUOUS
 62
     7
 10
277.700550453933
 20
79.8785368441266
 30
0.0
 11
277.179606023982
 21
82.8329601213336
 31
0.0
  0
LINE
  5
    FA
  8
0
  6
CONTINUOUS
 62
     7
 10
277.179606023982
 20
82.8329601213336
 30
0.0
 11
276.65866159403
 21
79.8785368441266
 31
0.0
  0
ENDBLK
  5
    FB
  8
0
  6
CONTINUOUS
 62
     7
  0
BLOCK
  5
    FC
  8
0
  6
CONTINUOUS
 62
     7
  2
*UDIM253
 70
    65
 10
0.0
 20
0.0
 30
0.0
  3
*UDIM253
  0
TEXT
  5
    FD
  8
0
  6
CONTINUOUS
 62
     7
 10
179.607717377922
 20
75.5579600892235
 30
0.0
 40
2.99999994933605
  1
228
 50
90.0
 41
0.933333333333333
 72
     1
 11
178.107717403249
 21
79.4579600233585
 31
0.0
 73
     2
  0
LINE
  5
    FE
  8
0
  6
CONTINUOUS
 62
     7
 10
220.342636960745
 20
34.132959395647
 30
0.0
 11
178.607717377917
 21
34.132959395647
 31
0.0
  0
LINE
  5
    FF
  8
0
  6
CONTINUOUS
 62
     7
 10
220.342636960745
 20
125.332960754633
 30
0.0
 11
178.607717377917
 21
125.332960754633
 31
0.0
  0
LINE
  5
   100
  8
0
  6
CONTINUOUS
 62
     7
 10
180.607717377917
 20
34.132959395647
 30
0.0
 11
180.607717377917
 21
125.332960754633
 31
0.0
  0
LINE
  5
   101
  8
0
  6
CONTINUOUS
 62
     7
 10
180.086772947966
 20
37.087382672854
 30
0.0
 11
180.607717377917
 21
34.132959395647
 31
0.0
  0
LINE
  5
   102
  8
0
  6
CONTINUOUS
 62
     7
 10
180.607717377917
 20
34.132959395647
 30
0.0
 11
181.128661807869
 21
37.087382672854
 31
0.0
  0
LINE
  5
   103
  8
0
  6
CONTINUOUS
 62
     7
 10
181.128661807869
 20
122.378537477426
 30
0.0
 11
180.607717377917
 21
125.332960754633
 31
0.0
  0
LINE
  5
   104
  8
0
  6
CONTINUOUS
 62
     7
 10
180.607717377917
 20
125.332960754633
 30
0.0
 11
180.086772947966
 21
122.378537477426
 31
0.0
  0
ENDBLK
  5
   105
  8
0
  6
CONTINUOUS
 62
     7
  0
BLOCK
  5
   106
  8
0
  6
CONTINUOUS
 62
     7
  2
*UDIM254
 70
    65
 10
0.0
 20
0.0
 30
0.0
  3
*UDIM254
  0
TEXT
  5
   107
  8
0
  6
CONTINUOUS
 62
     7
 10
179.607717377924
 20
126.544429363582
 30
0.0
 40
2.99999994933605
  1
33,5
 50
90.0
 41
0.933333333333333
 72
     1
 11
178.107717403249
 21
131.844429274074
 31
0.0
 73
     2
  0
LINE
  5
   108
  8
0
  6
CONTINUOUS
 62
     7
 10
219.411825656487
 20
138.732960954309
 30
0.0
 11
178.607717377917
 21
138.732960954309
 31
0.0
  0
LINE
  5
   109
  8
0
  6
CONTINUOUS
 62
     7
 10
180.607717377917
 20
125.332960754633
 30
0.0
 11
180.607717377917
 21
138.732960954309
 31
0.0
  0
LINE
  5
   10A
  8
0
  6
CONTINUOUS
 62
     7
 10
181.128661807869
 20
122.378537477426
 30
0.0
 11
180.607717377917
 21
125.332960754633
 31
0.0
  0
LINE
  5
   10B
  8
0
  6
CONTINUOUS
 62
     7
 10
180.607717377917
 20
125.332960754633
 30
0.0
 11
180.086772947966
 21
122.378537477426
 31
0.0
  0
LINE
  5
   10C
  8
0
  6
CONTINUOUS
 62
     7
 10
180.086772947966
 20
141.687384231515
 30
0.0
 11
180.607717377917
 21
138.732960954309
 31
0.0
  0
LINE
  5
   10D
  8
0
  6
CONTINUOUS
 62
     7
 10
180.607717377917
 20
138.732960954309
 30
0.0
 11
181.128661807869
 21
141.687384231515
 31
0.0
  0
ENDBLK
  5
   10E
  8
0
  6
CONTINUOUS
 62
     7
  0
BLOCK
  5
   10F
  8
0
  6
CONTINUOUS
 62
     7
  2
*UDIM255
 70
    65
 10
0.0
 20
0.0
 30
0.0
  3
*UDIM255
  0
TEXT
  5
   110
  8
0
  6
CONTINUOUS
 62
     7
 10
179.607717377924
 20
146.657961240885
 30
0.0
 40
2.99999994933605
  1
12,5
 50
90.0
 41
0.933333333333333
 72
     1
 11
178.107717403249
 21
151.957961151376
 31
0.0
 73
     2
  0
LINE
  5
   111
  8
0
  6
CONTINUOUS
 62
     7
 10
223.542637008429
 20
143.732961028814
 30
0.0
 11
178.607717377917
 21
143.732961028814
 31
0.0
  0
LINE
  5
   112
  8
0
  6
CONTINUOUS
 62
     7
 10
180.607717377917
 20
138.732960954309
 30
0.0
 11
180.607717377917
 21
157.25796106187
 31
0.0
  0
LINE
  5
   113
  8
0
  6
CONTINUOUS
 62
     7
 10
181.128661807869
 20
135.778537677102
 30
0.0
 11
180.607717377917
 21
138.732960954309
 31
0.0
  0
LINE
  5
   114
  8
0
  6
CONTINUOUS
 62
     7
 10
180.607717377917
 20
138.732960954309
 30
0.0
 11
180.086772947966
 21
135.778537677102
 31
0.0
  0
LINE
  5
   115
  8
0
  6
CONTINUOUS
 62
     7
 10
180.086772947966
 20
146.687384306021
 30
0.0
 11
180.607717377917
 21
143.732961028814
 31
0.0
  0
LINE
  5
   116
  8
0
  6
CONTINUOUS
 62
     7
 10
180.607717377917
 20
143.732961028814
 30
0.0
 11
181.128661807869
 21
146.687384306021
 31
0.0
  0
ENDBLK
  5
   117
  8
0
  6
CONTINUOUS
 62
     7
  0
BLOCK
  5
   118
  8
0
  6
CONTINUOUS
 62
     7
  2
*UDIM256
 70
    65
 10
0.0
 20
0.0
 30
0.0
  3
*UDIM256
  0
TEXT
  5
   119
  8
0
  6
CONTINUOUS
 62
     7
 10
189.989196414458
 20
41.0079596157142
 30
0.0
 40
2.99999994933605
  1
69,25
 50
90.0
 41
0.933333333333333
 72
     1
 11
188.489196439781
 21
47.7079595025629
 31
0.0
 73
     2
  0
LINE
  5
   11A
  8
0
  6
CONTINUOUS
 62
     7
 10
220.342636960745
 20
34.132959395647
 30
0.0
 11
188.989196414449
 21
34.132959395647
 31
0.0
  0
LINE
  5
   11B
  8
0
  6
CONTINUOUS
 62
     7
 10
205.27115679509
 20
61.8329598084092
 30
0.0
 11
188.989196414449
 21
61.8329598084092
 31
0.0
  0
LINE
  5
   11C
  8
0
  6
CONTINUOUS
 62
     7
 10
190.989196414449
 20
34.132959395647
 30
0.0
 11
190.989196414449
 21
61.8329598084092
 31
0.0
  0
LINE
  5
   11D
  8
0
  6
CONTINUOUS
 62
     7
 10
190.468251984498
 20
37.087382672854
 30
0.0
 11
190.989196414449
 21
34.132959395647
 31
0.0
  0
LINE
  5
   11E
  8
0
  6
CONTINUOUS
 62
     7
 10
190.989196414449
 20
34.132959395647
 30
0.0
 11
191.510140844401
 21
37.087382672854
 31
0.0
  0
LINE
  5
   11F
  8
0
  6
CONTINUOUS
 62
     7
 10
191.510140844401
 20
58.8785365312022
 30
0.0
 11
190.989196414449
 21
61.8329598084092
 31
0.0
  0
LINE
  5
   120
  8
0
  6
CONTINUOUS
 62
     7
 10
190.989196414449
 20
61.8329598084092
 30
0.0
 11
190.468251984498
 21
58.8785365312022
 31
0.0
  0
ENDBLK
  5
   121
  8
0
  6
CONTINUOUS
 62
     7
  0
BLOCK
  5
   122
  8
0
  6
CONTINUOUS
 62
     7
  2
*UDIM257
 70
    65
 10
0.0
 20
0.0
 30
0.0
  3
*UDIM257
  0
TEXT
  5
   123
  8
0
  6
CONTINUOUS
 62
     7
 10
237.671564267937
 20
18.969662740382
 30
0.0
 40
2.99999994933605
  1
M8
 50
90.0
 41
0.933333333333333
 72
     1
 11
236.171564293265
 21
21.4696626981602
 31
0.0
 73
     2
  0
LINE
  5
   124
  8
0
  6
CONTINUOUS
 62
     7
 10
227.542637038231
 20
32.5329593718052
 30
0.0
 11
240.671564267933
 21
32.5329593718052
 31
0.0
  0
LINE
  5
   125
  8
0
  6
CONTINUOUS
 62
     7
 10
227.542637038231
 20
35.7329594194889
 30
0.0
 11
240.671564267933
 21
35.7329594194889
 31
0.0
  0
LINE
  5
   126
  8
0
  6
CONTINUOUS
 62
     7
 10
238.671564267933
 20
18.9696627403801
 30
0.0
 11
238.671564267933
 21
35.7329594194889
 31
0.0
  0
LINE
  5
   127
  8
0
  6
CONTINUOUS
 62
     7
 10
239.192508697885
 20
29.5785360945982
 30
0.0
 11
238.671564267933
 21
32.5329593718052
 31
0.0
  0
LINE
  5
   128
  8
0
  6
CONTINUOUS
 62
     7
 10
238.671564267933
 20
32.5329593718052
 30
0.0
 11
238.150619837982
 21
29.5785360945982
 31
0.0
  0
LINE
  5
   129
  8
0
  6
CONTINUOUS
 62
     7
 10
238.150619837982
 20
38.6873826966959
 30
0.0
 11
238.671564267933
 21
35.7329594194889
 31
0.0
  0
LINE
  5
   12A
  8
0
  6
CONTINUOUS
 62
     7
 10
238.671564267933
 20
35.7329594194889
 30
0.0
 11
239.192508697885
 21
38.6873826966959
 31
0.0
  0
ENDBLK
  5
   12B
  8
0
  6
CONTINUOUS
 62
     7
  0
BLOCK
  5
   12C
  8
0
  6
CONTINUOUS
 62
     7
  2
*UDIM258
 70
    65
 10
0.0
 20
0.0
 30
0.0
  3
*UDIM258
  0
TEXT
  5
   12D
  8
0
  6
CONTINUOUS
 62
     7
 10
198.077091737608
 20
42.2147453738382
 30
0.0
 40
2.99999994933605
  1
10
 50
90.0
 41
0.933333333333333
 72
     1
 11
196.577091762937
 21
44.7147453316163
 31
0.0
 73
     2
  0
LINE
  5
   12E
  8
0
  6
CONTINUOUS
 62
     7
 10
220.342636960745
 20
34.132959395647
 30
0.0
 11
197.077091737605
 21
34.132959395647
 31
0.0
  0
LINE
  5
   12F
  8
0
  6
CONTINUOUS
 62
     7
 10
223.942637014389
 20
38.1329644224731
 30
0.0
 11
197.077091737605
 21
38.1329644224731
 31
0.0
  0
LINE
  5
   130
  8
0
  6
CONTINUOUS
 62
     7
 10
199.077091737605
 20
34.132959395647
 30
0.0
 11
199.077091737605
 21
47.2147452893964
 31
0.0
  0
LINE
  5
   131
  8
0
  6
CONTINUOUS
 62
     7
 10
199.598036167557
 20
31.1785361184401
 30
0.0
 11
199.077091737605
 21
34.132959395647
 31
0.0
  0
LINE
  5
   132
  8
0
  6
CONTINUOUS
 62
     7
 10
199.077091737605
 20
34.132959395647
 30
0.0
 11
198.556147307653
 21
31.1785361184401
 31
0.0
  0
LINE
  5
   133
  8
0
  6
CONTINUOUS
 62
     7
 10
198.556147307653
 20
41.0873876996801
 30
0.0
 11
199.077091737605
 21
38.1329644224731
 31
0.0
  0
LINE
  5
   134
  8
0
  6
CONTINUOUS
 62
     7
 10
199.077091737605
 20
38.1329644224731
 30
0.0
 11
199.598036167557
 21
41.0873876996801
 31
0.0
  0
ENDBLK
  5
   135
  8
0
  6
CONTINUOUS
 62
     7
  0
BLOCK
  5
   136
  8
0
  6
CONTINUOUS
 62
     7
  2
*UDIM259
 70
    65
 10
0.0
 20
0.0
 30
0.0
  3
*UDIM259
  0
TEXT
  5
   137
  8
0
  6
CONTINUOUS
 62
     7
 10
207.592636790822
 20
-14.4619571148592
 30
0.0
 40
2.99999994933605
  1
3
 41
0.933333333333333
 72
     1
 11
208.692636772245
 21
-12.9619571401911
 31
0.0
 73
     2
  0
TEXT
  5
   138
  8
0
  6
CONTINUOUS
 62
     7
 10
204.842636816055
 20
-14.4619571148592
 30
0.0
 40
2.99999994933605
  1
_
 41
0.933333333333333
 72
     1
 11
205.942636797478
 21
-12.9619571401911
 31
0.0
 73
     2
  0
LINE
  5
   139
  8
0
  6
CONTINUOUS
 62
     7
 10
213.342636841536
 20
21.5669584785743
 30
0.0
 11
213.342636841536
 21
-17.4619571148592
 31
0.0
  0
LINE
  5
   13A
  8
0
  6
CONTINUOUS
 62
     7
 10
214.542636859417
 20
21.9141720180434
 30
0.0
 11
214.542636859417
 21
-17.4619571148592
 31
0.0
  0
LINE
  5
   13B
  8
0
  6
CONTINUOUS
 62
     7
 10
204.842636816055
 20
-15.4619571148592
 30
0.0
 11
214.542636859417
 21
-15.4619571148592
 31
0.0
  0
LINE
  5
   13C
  8
0
  6
CONTINUOUS
 62
     7
 10
210.388213564329
 20
-15.9829015448108
 30
0.0
 11
213.342636841536
 21
-15.4619571148592
 31
0.0
  0
LINE
  5
   13D
  8
0
  6
CONTINUOUS
 62
     7
 10
213.342636841536
 20
-15.4619571148592
 30
0.0
 11
210.388213564329
 21
-14.9410126849075
 31
0.0
  0
LINE
  5
   13E
  8
0
  6
CONTINUOUS
 62
     7
 10
217.497060136624
 20
-14.9410126849075
 30
0.0
 11
214.542636859417
 21
-15.4619571148592
 31
0.0
  0
LINE
  5
   13F
  8
0
  6
CONTINUOUS
 62
     7
 10
214.542636859417
 20
-15.4619571148592
 30
0.0
 11
217.497060136624
 21
-15.9829015448108
 31
0.0
  0
ENDBLK
  5
   140
  8
0
  6
CONTINUOUS
 62
     7
  0
BLOCK
  5
   141
  8
0
  6
CONTINUOUS
 62
     7
  2
*UDIM260
 70
    65
 10
0.0
 20
0.0
 30
0.0
  3
*UDIM260
  0
TEXT
  5
   142
  8
0
  6
CONTINUOUS
 62
     7
 10
237.376651393373
 20
-14.4619571148592
 30
0.0
 40
2.99999994933605
  1
135
 41
0.933333333333333
 72
     1
 11
241.27665132751
 21
-12.9619571401911
 31
0.0
 73
     2
  0
LINE
  5
   143
  8
0
  6
CONTINUOUS
 62
     7
 10
268.56066465939
 20
56.7329597473144
 30
0.0
 11
268.56066465939
 21
-17.4619571148592
 31
0.0
  0
LINE
  5
   144
  8
0
  6
CONTINUOUS
 62
     7
 10
214.542636859417
 20
-15.4619571148592
 30
0.0
 11
268.56066465939
 21
-15.4619571148592
 31
0.0
  0
LINE
  5
   145
  8
0
  6
CONTINUOUS
 62
     7
 10
217.497060136624
 20
-14.9410126849075
 30
0.0
 11
214.542636859417
 21
-15.4619571148592
 31
0.0
  0
LINE
  5
   146
  8
0
  6
CONTINUOUS
 62
     7
 10
214.542636859417
 20
-15.4619571148592
 30
0.0
 11
217.497060136624
 21
-15.9829015448108
 31
0.0
  0
LINE
  5
   147
  8
0
  6
CONTINUOUS
 62
     7
 10
265.606241382183
 20
-15.9829015448108
 30
0.0
 11
268.56066465939
 21
-15.4619571148592
 31
0.0
  0
LINE
  5
   148
  8
0
  6
CONTINUOUS
 62
     7
 10
268.56066465939
 20
-15.4619571148592
 30
0.0
 11
265.606241382183
 21
-14.9410126849075
 31
0.0
  0
ENDBLK
  5
   149
  8
0
  6
CONTINUOUS
 62
     7
  0
BLOCK
  5
   14A
  8
0
  6
CONTINUOUS
 62
     7
  2
*UDIM261
 70
    65
 10
0.0
 20
0.0
 30
0.0
  3
*UDIM261
  0
TEXT
  5
   14B
  8
0
  6
CONTINUOUS
 62
     7
 10
231.767871409821
 20
-6.25334493199444
 30
0.0
 40
2.99999994933605
  1
107
 41
0.933333333333333
 72
     1
 11
235.667871343958
 21
-4.75334495732641
 31
0.0
 73
     2
  0
LINE
  5
   14C
  8
0
  6
CONTINUOUS
 62
     7
 10
214.542636859417
 20
21.9141720180434
 30
0.0
 11
214.542636859417
 21
-9.25334493199443
 31
0.0
  0
LINE
  5
   14D
  8
0
  6
CONTINUOUS
 62
     7
 10
257.343104883021
 20
9.66810961823647
 30
0.0
 11
257.343104883021
 21
-9.25334493199443
 31
0.0
  0
LINE
  5
   14E
  8
0
  6
CONTINUOUS
 62
     7
 10
214.542636859417
 20
-7.25334493199443
 30
0.0
 11
257.343104883021
 21
-7.25334493199443
 31
0.0
  0
LINE
  5
   14F
  8
0
  6
CONTINUOUS
 62
     7
 10
217.497060136624
 20
-6.73240050204278
 30
0.0
 11
214.542636859417
 21
-7.25334493199443
 31
0.0
  0
LINE
  5
   150
  8
0
  6
CONTINUOUS
 62
     7
 10
214.542636859417
 20
-7.25334493199443
 30
0.0
 11
217.497060136624
 21
-7.77428936194609
 31
0.0
  0
LINE
  5
   151
  8
0
  6
CONTINUOUS
 62
     7
 10
254.388681605814
 20
-7.77428936194609
 30
0.0
 11
257.343104883021
 21
-7.25334493199443
 31
0.0
  0
LINE
  5
   152
  8
0
  6
CONTINUOUS
 62
     7
 10
257.343104883021
 20
-7.25334493199443
 30
0.0
 11
254.388681605814
 21
-6.73240050204278
 31
0.0
  0
ENDBLK
  5
   153
  8
0
  6
CONTINUOUS
 62
     7
  0
BLOCK
  5
   154
  8
0
  6
CONTINUOUS
 62
     7
  2
*UDIM262
 70
    65
 10
0.0
 20
0.0
 30
0.0
  3
*UDIM262
  0
TEXT
  5
   155
  8
0
  6
CONTINUOUS
 62
     7
 10
261.143103830204
 20
-6.25334493199444
 30
0.0
 40
2.99999994933605
  1
2
 41
0.933333333333333
 72
     1
 11
262.243103811627
 21
-4.75334495732641
 31
0.0
 73
     2
  0
LINE
  5
   156
  8
0
  6
CONTINUOUS
 62
     7
 10
258.143104894942
 20
10.2438105613945
 30
0.0
 11
258.143104894942
 21
-9.25334493199443
 31
0.0
  0
LINE
  5
   157
  8
0
  6
CONTINUOUS
 62
     7
 10
257.343104883021
 20
-7.25334493199443
 30
0.0
 11
263.34310379305
 21
-7.25334493199443
 31
0.0
  0
LINE
  5
   158
  8
0
  6
CONTINUOUS
 62
     7
 10
254.388681605814
 20
-7.77428936194609
 30
0.0
 11
257.343104883021
 21
-7.25334493199443
 31
0.0
  0
LINE
  5
   159
  8
0
  6
CONTINUOUS
 62
     7
 10
257.343104883021
 20
-7.25334493199443
 30
0.0
 11
254.388681605814
 21
-6.73240050204278
 31
0.0
  0
LINE
  5
   15A
  8
0
  6
CONTINUOUS
 62
     7
 10
261.097528172149
 20
-6.73240050204278
 30
0.0
 11
258.143104894942
 21
-7.25334493199443
 31
0.0
  0
LINE
  5
   15B
  8
0
  6
CONTINUOUS
 62
     7
 10
258.143104894942
 20
-7.25334493199443
 30
0.0
 11
261.097528172149
 21
-7.77428936194609
 31
0.0
  0
ENDBLK
  5
   15C
  8
0
  6
CONTINUOUS
 62
     7
  0
BLOCK
  5
   15D
  8
0
  6
CONTINUOUS
 62
     7
  2
*UDIM263
 70
    65
 10
0.0
 20
0.0
 30
0.0
  3
*UDIM263
  0
TEXT
  5
   15E
  8
0
  6
CONTINUOUS
 62
     7
 10
228.267898876348
 20
2.31740714884472
 30
0.0
 40
2.99999994933605
  1
103,5
 41
0.933333333333333
 72
     1
 11
234.967898763198
 21
3.81740712351274
 31
0.0
 73
     2
  0
LINE
  5
   15F
  8
0
  6
CONTINUOUS
 62
     7
 10
214.542636859417
 20
21.9141720180434
 30
0.0
 11
214.542636859417
 21
-0.682592851155277
 31
0.0
  0
LINE
  5
   160
  8
0
  6
CONTINUOUS
 62
     7
 10
255.94316162885
 20
39.8329594969468
 30
0.0
 11
255.94316162885
 21
-0.682592851155277
 31
0.0
  0
LINE
  5
   161
  8
0
  6
CONTINUOUS
 62
     7
 10
214.542636859417
 20
1.31740714884472
 30
0.0
 11
255.94316162885
 21
1.31740714884472
 31
0.0
  0
LINE
  5
   162
  8
0
  6
CONTINUOUS
 62
     7
 10
217.497060136624
 20
1.83835157879638
 30
0.0
 11
214.542636859417
 21
1.31740714884472
 31
0.0
  0
LINE
  5
   163
  8
0
  6
CONTINUOUS
 62
     7
 10
214.542636859417
 20
1.31740714884472
 30
0.0
 11
217.497060136624
 21
0.796462718893061
 31
0.0
  0
LINE
  5
   164
  8
0
  6
CONTINUOUS
 62
     7
 10
252.988738351643
 20
0.796462718893061
 30
0.0
 11
255.94316162885
 21
1.31740714884472
 31
0.0
  0
LINE
  5
   165
  8
0
  6
CONTINUOUS
 62
     7
 10
255.94316162885
 20
1.31740714884472
 30
0.0
 11
252.988738351643
 21
1.83835157879638
 31
0.0
  0
ENDBLK
  5
   166
  8
0
  6
CONTINUOUS
 62
     7
  0
BLOCK
  5
   167
  8
0
  6
CONTINUOUS
 62
     7
  2
*UDIM264
 70
    65
 10
0.0
 20
0.0
 30
0.0
  3
*UDIM264
  0
TEXT
  5
   168
  8
0
  6
CONTINUOUS
 62
     7
 10
227.867637175595
 20
179.647536744395
 30
0.0
 40
2.99999994933605
  1
101,5
 41
0.933333333333333
 72
     1
 11
234.567637062445
 21
181.147536719063
 31
0.0
 73
     2
  0
LINE
  5
   169
  8
0
  6
CONTINUOUS
 62
     7
 10
214.542636859417
 20
135.744282952822
 30
0.0
 11
214.542636859417
 21
180.647536744395
 31
0.0
  0
LINE
  5
   16A
  8
0
  6
CONTINUOUS
 62
     7
 10
255.142637464404
 20
132.232965809771
 30
0.0
 11
255.142637464404
 21
180.647536744395
 31
0.0
  0
LINE
  5
   16B
  8
0
  6
CONTINUOUS
 62
     7
 10
214.542636859417
 20
178.647536744395
 30
0.0
 11
255.142637464404
 21
178.647536744395
 31
0.0
  0
LINE
  5
   16C
  8
0
  6
CONTINUOUS
 62
     7
 10
217.497060136624
 20
179.168481174346
 30
0.0
 11
214.542636859417
 21
178.647536744395
 31
0.0
  0
LINE
  5
   16D
  8
0
  6
CONTINUOUS
 62
     7
 10
214.542636859417
 20
178.647536744395
 30
0.0
 11
217.497060136624
 21
178.126592314443
 31
0.0
  0
LINE
  5
   16E
  8
0
  6
CONTINUOUS
 62
     7
 10
252.188214187197
 20
178.126592314443
 30
0.0
 11
255.142637464404
 21
178.647536744395
 31
0.0
  0
LINE
  5
   16F
  8
0
  6
CONTINUOUS
 62
     7
 10
255.142637464404
 20
178.647536744395
 30
0.0
 11
252.188214187197
 21
179.168481174346
 31
0.0
  0
ENDBLK
  5
   170
  8
0
  6
CONTINUOUS
 62
     7
  0
BLOCK
  5
   171
  8
0
  6
CONTINUOUS
 62
     7
  2
*UDIM265
 70
    65
 10
0.0
 20
0.0
 30
0.0
  3
*UDIM265
  0
TEXT
  5
   172
  8
0
  6
CONTINUOUS
 62
     7
 10
216.792636737177
 20
10.5260193317094
 30
0.0
 40
2.99999994933605
  1
5
 41
0.933333333333333
 72
     1
 11
217.8926367186
 21
12.0260193063775
 31
0.0
 73
     2
  0
LINE
  5
   173
  8
0
  6
CONTINUOUS
 62
     7
 10
222.542636978624
 20
29.5329643092243
 30
0.0
 11
222.542636978624
 21
7.52601933170945
 31
0.0
  0
LINE
  5
   174
  8
0
  6
CONTINUOUS
 62
     7
 10
224.542636626959
 20
29.5329643092242
 30
0.0
 11
224.542636626959
 21
7.52601933170945
 31
0.0
  0
LINE
  5
   175
  8
0
  6
CONTINUOUS
 62
     7
 10
216.792636737177
 20
9.52601933170945
 30
0.0
 11
224.542636626959
 21
9.52601933170945
 31
0.0
  0
LINE
  5
   176
  8
0
  6
CONTINUOUS
 62
     7
 10
219.588213701417
 20
9.00507490175779
 30
0.0
 11
222.542636978624
 21
9.52601933170945
 31
0.0
  0
LINE
  5
   177
  8
0
  6
CONTINUOUS
 62
     7
 10
222.542636978624
 20
9.52601933170945
 30
0.0
 11
219.588213701417
 21
10.0469637616611
 31
0.0
  0
LINE
  5
   178
  8
0
  6
CONTINUOUS
 62
     7
 10
227.497059904166
 20
10.0469637616611
 30
0.0
 11
224.542636626959
 21
9.52601933170945
 31
0.0
  0
LINE
  5
   179
  8
0
  6
CONTINUOUS
 62
     7
 10
224.542636626959
 20
9.52601933170945
 30
0.0
 11
227.497059904166
 21
9.00507490175778
 31
0.0
  0
ENDBLK
  5
   17A
  8
0
  6
CONTINUOUS
 62
     7
  0
BLOCK
  5
   17B
  8
0
  6
CONTINUOUS
 62
     7
  2
*UDIM266
 70
    65
 10
0.0
 20
0.0
 30
0.0
  3
*UDIM266
  0
TEXT
  5
   17C
  8
0
  6
CONTINUOUS
 62
     7
 10
243.319086717414
 20
10.5260193317094
 30
0.0
 40
2.99999994933605
  1
5
 41
0.933333333333333
 72
     1
 11
244.419086698837
 21
12.0260193063775
 31
0.0
 73
     2
  0
TEXT
  5
   17D
  8
0
  6
CONTINUOUS
 62
     7
 10
232.169086884505
 20
10.5260193317094
 30
0.0
 40
2.99999994933605
  1
min.
 41
0.933333333333333
 72
     1
 11
237.469086794999
 21
12.0260193063775
 31
0.0
 73
     2
  0
LINE
  5
   17E
  8
0
  6
CONTINUOUS
 62
     7
 10
226.542637038231
 20
29.5329593420029
 30
0.0
 11
226.542637038231
 21
7.52601933170945
 31
0.0
  0
LINE
  5
   17F
  8
0
  6
CONTINUOUS
 62
     7
 10
224.542636626959
 20
9.52601933170945
 30
0.0
 11
245.51908668026
 21
9.52601933170945
 31
0.0
  0
LINE
  5
   180
  8
0
  6
CONTINUOUS
 62
     7
 10
221.588213349752
 20
9.00507490175779
 30
0.0
 11
224.542636626959
 21
9.52601933170945
 31
0.0
  0
LINE
  5
   181
  8
0
  6
CONTINUOUS
 62
     7
 10
224.542636626959
 20
9.52601933170945
 30
0.0
 11
221.588213349752
 21
10.0469637616611
 31
0.0
  0
LINE
  5
   182
  8
0
  6
CONTINUOUS
 62
     7
 10
229.497060315438
 20
10.0469637616611
 30
0.0
 11
226.542637038231
 21
9.52601933170945
 31
0.0
  0
LINE
  5
   183
  8
0
  6
CONTINUOUS
 62
     7
 10
226.542637038231
 20
9.52601933170945
 30
0.0
 11
229.497060315438
 21
9.00507490175778
 31
0.0
  0
ENDBLK
  5
   184
  8
0
  6
CONTINUOUS
 62
     7
  0
BLOCK
  5
   185
  8
0
  6
CONTINUOUS
 62
     7
  2
*UDIM267
 70
    65
 10
0.0
 20
0.0
 30
0.0
  3
*UDIM267
  0
TEXT
  5
   186
  8
0
  6
CONTINUOUS
 62
     7
 10
206.017636811856
 20
18.372485513084
 30
0.0
 40
2.99999994933605
  1
20
 41
0.933333333333333
 72
     1
 11
208.517636769637
 21
19.8724854877521
 31
0.0
 73
     2
  0
LINE
  5
   187
  8
0
  6
CONTINUOUS
 62
     7
 10
214.542636859417
 20
21.9141720180434
 30
0.0
 11
214.542636859417
 21
15.372485513084
 31
0.0
  0
LINE
  5
   188
  8
0
  6
CONTINUOUS
 62
     7
 10
222.542636978624
 20
29.5329643092243
 30
0.0
 11
222.542636978624
 21
15.372485513084
 31
0.0
  0
LINE
  5
   189
  8
0
  6
CONTINUOUS
 62
     7
 10
206.017636811856
 20
17.372485513084
 30
0.0
 11
222.542636978624
 21
17.372485513084
 31
0.0
  0
LINE
  5
   18A
  8
0
  6
CONTINUOUS
 62
     7
 10
211.58821358221
 20
16.8515410831324
 30
0.0
 11
214.542636859417
 21
17.372485513084
 31
0.0
  0
LINE
  5
   18B
  8
0
  6
CONTINUOUS
 62
     7
 10
214.542636859417
 20
17.372485513084
 30
0.0
 11
211.58821358221
 21
17.8934299430357
 31
0.0
  0
LINE
  5
   18C
  8
0
  6
CONTINUOUS
 62
     7
 10
225.497060255831
 20
17.8934299430357
 30
0.0
 11
222.542636978624
 21
17.372485513084
 31
0.0
  0
LINE
  5
   18D
  8
0
  6
CONTINUOUS
 62
     7
 10
222.542636978624
 20
17.372485513084
 30
0.0
 11
225.497060255831
 21
16.8515410831324
 31
0.0
  0
ENDBLK
  5
   18E
  8
0
  6
CONTINUOUS
 62
     7
  0
BLOCK
  5
   18F
  8
0
  6
CONTINUOUS
 62
     7
  2
*UDIM268
 70
    65
 10
0.0
 20
0.0
 30
0.0
  3
*UDIM268
  0
TEXT
  5
   190
  8
0
  6
CONTINUOUS
 62
     7
 10
206.017636811857
 20
171.559633791844
 30
0.0
 40
2.99999994933605
  1
25
 41
0.933333333333333
 72
     1
 11
208.517636769637
 21
173.059633766512
 31
0.0
 73
     2
  0
LINE
  5
   191
  8
0
  6
CONTINUOUS
 62
     7
 10
214.542636859417
 20
135.744282952822
 30
0.0
 11
214.542636859417
 21
172.559633791844
 31
0.0
  0
LINE
  5
   192
  8
0
  6
CONTINUOUS
 62
     7
 10
224.542637008429
 20
144.732961028814
 30
0.0
 11
224.542637008429
 21
172.559633791844
 31
0.0
  0
LINE
  5
   193
  8
0
  6
CONTINUOUS
 62
     7
 10
206.017636811857
 20
170.559633791844
 30
0.0
 11
224.542637008429
 21
170.559633791844
 31
0.0
  0
LINE
  5
   194
  8
0
  6
CONTINUOUS
 62
     7
 10
217.497060136624
 20
171.080578221796
 30
0.0
 11
214.542636859417
 21
170.559633791844
 31
0.0
  0
LINE
  5
   195
  8
0
  6
CONTINUOUS
 62
     7
 10
214.542636859417
 20
170.559633791844
 30
0.0
 11
217.497060136624
 21
170.038689361892
 31
0.0
  0
LINE
  5
   196
  8
0
  6
CONTINUOUS
 62
     7
 10
221.588213731222
 20
170.038689361892
 30
0.0
 11
224.542637008429
 21
170.559633791844
 31
0.0
  0
LINE
  5
   197
  8
0
  6
CONTINUOUS
 62
     7
 10
224.542637008429
 20
170.559633791844
 30
0.0
 11
221.588213731222
 21
171.080578221796
 31
0.0
  0
ENDBLK
  5
   198
  8
0
  6
CONTINUOUS
 62
     7
  0
BLOCK
  5
   199
  8
0
  6
CONTINUOUS
 62
     7
  2
*UDIM269
 70
    65
 10
0.0
 20
0.0
 30
0.0
  3
*UDIM269
  0
TEXT
  5
   19A
  8
0
  6
CONTINUOUS
 62
     7
 10
229.942636360923
 20
171.559633791844
 30
0.0
 40
2.99999994933605
  1
6
 41
0.933333333333333
 72
     1
 11
231.042636342347
 21
173.059633766512
 31
0.0
 73
     2
  0
LINE
  5
   19B
  8
0
  6
CONTINUOUS
 62
     7
 10
226.942637044191
 20
144.732961028814
 30
0.0
 11
226.942637044191
 21
172.559633791844
 31
0.0
  0
LINE
  5
   19C
  8
0
  6
CONTINUOUS
 62
     7
 10
224.542637008429
 20
170.559633791844
 30
0.0
 11
232.14263632377
 21
170.559633791844
 31
0.0
  0
LINE
  5
   19D
  8
0
  6
CONTINUOUS
 62
     7
 10
221.588213731222
 20
170.038689361892
 30
0.0
 11
224.542637008429
 21
170.559633791844
 31
0.0
  0
LINE
  5
   19E
  8
0
  6
CONTINUOUS
 62
     7
 10
224.542637008429
 20
170.559633791844
 30
0.0
 11
221.588213731222
 21
171.080578221796
 31
0.0
  0
LINE
  5
   19F
  8
0
  6
CONTINUOUS
 62
     7
 10
229.897060321398
 20
171.080578221796
 30
0.0
 11
226.942637044191
 21
170.559633791844
 31
0.0
  0
LINE
  5
   1A0
  8
0
  6
CONTINUOUS
 62
     7
 10
226.942637044191
 20
170.559633791844
 30
0.0
 11
229.897060321398
 21
170.038689361892
 31
0.0
  0
ENDBLK
  5
   1A1
  8
0
  6
CONTINUOUS
 62
     7
  0
BLOCK
  5
   1A2
  8
0
  6
CONTINUOUS
 62
     7
  2
$1MOSTRINA
 70
    64
 10
0.0
 20
0.0
 30
0.0
  3
$1MOSTRINA
  0
LINE
  5
   1A3
  8
0
  6
CONTINUOUS
 62
     3
 10
173.338256835938
 20
30.7306251525879
 30
0.0
 11
173.338256835938
 21
189.230621337891
 31
0.0
  0
LINE
  5
   1A4
  8
0
  6
CONTINUOUS
 62
     3
 10
57.5882568359375
 20
29.4806251525879
 30
0.0
 11
172.088256835938
 21
29.4806251525879
 31
0.0
  0
LINE
  5
   1A5
  8
0
  6
CONTINUOUS
 62
     3
 10
56.3382568359375
 20
30.7306251525879
 30
0.0
 11
56.3382568359375
 21
189.230621337891
 31
0.0
  0
LINE
  5
   1A6
  8
0
  6
CONTINUOUS
 62
     3
 10
57.5882568359375
 20
190.480621337891
 30
0.0
 11
172.088256835938
 21
190.480621337891
 31
0.0
  0
LINE
  5
   1A7
  8
0
  6
CONTINUOUS
 62
     3
 10
167.838256835938
 20
56.9806251525879
 30
0.0
 11
167.838256835938
 21
162.980625152588
 31
0.0
  0
LINE
  5
   1A8
  8
0
  6
CONTINUOUS
 62
     3
 10
61.8382568359375
 20
56.9806251525879
 30
0.0
 11
167.838256835938
 21
56.9806251525879
 31
0.0
  0
LINE
  5
   1A9
  8
0
  6
CONTINUOUS
 62
     3
 10
61.8382568359375
 20
56.9806251525879
 30
0.0
 11
61.8382568359375
 21
162.980625152588
 31
0.0
  0
LINE
  5
   1AA
  8
0
  6
CONTINUOUS
 62
     3
 10
61.8382568359375
 20
162.980621337891
 30
0.0
 11
167.838256835938
 21
162.980621337891
 31
0.0
  0
LINE
  5
   1AB
  8
0
  6
CONTINUOUS
 62
     3
 10
168.838256835938
 20
48.4806251525879
 30
0.0
 11
168.838256835938
 21
49.4806251525879
 31
0.0
  0
LINE
  5
   1AC
  8
0
  6
CONTINUOUS
 62
     3
 10
61.8382568359375
 20
50.4806251525879
 30
0.0
 11
167.838256835938
 21
50.4806251525879
 31
0.0
  0
LINE
  5
   1AD
  8
0
  6
CONTINUOUS
 62
     3
 10
60.8382568359375
 20
48.4806251525879
 30
0.0
 11
60.8382568359375
 21
49.4806251525879
 31
0.0
  0
LINE
  5
   1AE
  8
0
  6
CONTINUOUS
 62
     3
 10
61.8382568359375
 20
49.4806251525879
 30
0.0
 11
167.838256835938
 21
49.4806251525879
 31
0.0
  0
LINE
  5
   1AF
  8
0
  6
CONTINUOUS
 62
     3
 10
60.8382568359375
 20
29.4806251525879
 30
0.0
 11
60.8382568359375
 21
48.4806251525879
 31
0.0
  0
LINE
  5
   1B0
  8
0
  6
CONTINUOUS
 62
     3
 10
60.8382568359375
 20
49.4806213378906
 30
0.0
 11
60.8382568359375
 21
190.480621337891
 31
0.0
  0
LINE
  5
   1B1
  8
0
  6
CONTINUOUS
 62
     3
 10
61.8382568359375
 20
29.4806251525879
 30
0.0
 11
61.8382568359375
 21
49.4806251525879
 31
0.0
  0
LINE
  5
   1B2
  8
0
  6
CONTINUOUS
 62
     3
 10
61.8382568359375
 20
162.980621337891
 30
0.0
 11
61.8382568359375
 21
169.480621337891
 31
0.0
  0
LINE
  5
   1B3
  8
0
  6
CONTINUOUS
 62
     3
 10
61.8382568359375
 20
50.4806251525879
 30
0.0
 11
61.8382568359375
 21
56.9806251525879
 31
0.0
  0
LINE
  5
   1B4
  8
0
  6
CONTINUOUS
 62
     3
 10
168.838256835938
 20
29.4806251525879
 30
0.0
 11
168.838256835938
 21
48.4806251525879
 31
0.0
  0
LINE
  5
   1B5
  8
0
  6
CONTINUOUS
 62
     3
 10
168.838256835938
 20
49.4806251525879
 30
0.0
 11
168.838256835938
 21
190.480621337891
 31
0.0
  0
LINE
  5
   1B6
  8
0
  6
CONTINUOUS
 62
     3
 10
167.838256835938
 20
50.4806251525879
 30
0.0
 11
167.838256835938
 21
56.9806251525879
 31
0.0
  0
LINE
  5
   1B7
  8
0
  6
CONTINUOUS
 62
     3
 10
167.838256835938
 20
162.980621337891
 30
0.0
 11
167.838256835938
 21
169.480621337891
 31
0.0
  0
LINE
  5
   1B8
  8
0
  6
CONTINUOUS
 62
     3
 10
167.838256835938
 20
29.4806251525879
 30
0.0
 11
167.838256835938
 21
49.4806251525879
 31
0.0
  0
LINE
  5
   1B9
  8
0
  6
CONTINUOUS
 62
     3
 10
60.8382568359375
 20
170.480621337891
 30
0.0
 11
168.838256835938
 21
170.480621337891
 31
0.0
  0
LINE
  5
   1BA
  8
0
  6
CONTINUOUS
 62
     3
 10
61.8382568359375
 20
169.480621337891
 30
0.0
 11
167.838256835938
 21
169.480621337891
 31
0.0
  0
ARC
  5
   1BB
  8
0
  6
CONTINUOUS
 62
     3
 10
57.5882568359375
 20
30.7306251525879
 30
0.0
 40
1.25
 50
180.0
 51
270.0
  0
ARC
  5
   1BC
  8
0
  6
CONTINUOUS
 62
     3
 10
172.088256835938
 20
30.7306251525879
 30
0.0
 40
1.25
 50
270.0
 51
360.0
  0
ARC
  5
   1BD
  8
0
  6
CONTINUOUS
 62
     3
 10
172.088256835938
 20
189.230621337891
 30
0.0
 40
1.25
 50
0.0
 51
90.0
  0
ARC
  5
   1BE
  8
0
  6
CONTINUOUS
 62
     3
 10
57.5882568359375
 20
189.230621337891
 30
0.0
 40
1.25
 50
90.0
 51
180.0
  0
LINE
  5
   1BF
  8
0
  6
DOT
 62
     3
 10
60.3382577409677
 20
179.7306252571
 30
0.0
 11
60.8382568359375
 21
179.7306252571
 31
0.0
  0
LINE
  5
   1C0
  8
0
  6
DOT
 62
     3
 10
60.3382577409676
 20
181.2306252571
 30
0.0
 11
60.8382568359375
 21
181.2306252571
 31
0.0
  0
LINE
  5
   1C1
  8
0
  6
CONTINUOUS
 62
     3
 10
168.338257745313
 20
179.730625257273
 30
0.0
 11
168.838256835938
 21
179.730625257273
 31
0.0
  0
LINE
  5
   1C2
  8
0
  6
CONTINUOUS
 62
     3
 10
168.338257745314
 20
181.230625257273
 30
0.0
 11
168.838256835938
 21
181.230625257273
 31
0.0
  0
ARC
  5
   1C3
  8
0
  6
DOT
 62
     3
 10
60.3382577401871
 20
180.480625257147
 30
0.0
 40
0.749999999345164
 50
90.0
 51
270.0
  0
ARC
  5
   1C4
  8
0
  6
CONTINUOUS
 62
     3
 10
61.338257740822
 20
180.480625256974
 30
0.0
 40
0.750000000009701
 50
270.0
 51
450.0
  0
LINE
  5
   1C5
  8
0
  6
CONTINUOUS
 62
     3
 10
60.8382568359375
 20
181.2306252571
 30
0.0
 11
61.3382577409688
 21
181.2306252571
 31
0.0
  0
LINE
  5
   1C6
  8
0
  6
CONTINUOUS
 62
     3
 10
60.8382568359375
 20
179.7306252571
 30
0.0
 11
61.3382577409689
 21
179.7306252571
 31
0.0
  0
ARC
  5
   1C7
  8
0
  6
CONTINUOUS
 62
     3
 10
168.338257745503
 20
180.480625256952
 30
0.0
 40
0.750000000048506
 50
90.0000000038822
 51
269.999999996024
  0
ARC
  5
   1C8
  8
0
  6
DOT
 62
     3
 10
169.338257745421
 20
180.480625256965
 30
0.0
 40
0.750000000029104
 50
270.000000002449
 51
449.999999997486
  0
LINE
  5
   1C9
  8
0
  6
DOT
 62
     3
 10
168.838256835938
 20
181.230625257273
 30
0.0
 11
169.338257745315
 21
181.230625257273
 31
0.0
  0
LINE
  5
   1CA
  8
0
  6
DOT
 62
     3
 10
168.838256835938
 20
179.730625257273
 30
0.0
 11
169.338257745315
 21
179.730625257273
 31
0.0
  0
POINT
  5
   1CB
  8
0
  6
CONTINUOUS
 62
     3
 10
114.838256835938
 20
109.980621337891
 30
0.0
  0
ENDBLK
  5
   1CC
  8
0
  6
CONTINUOUS
 62
     7
  0
BLOCK
  5
   1CD
  8
0
  6
CONTINUOUS
 62
     7
  2
*UDIM270
 70
    65
 10
0.0
 20
0.0
 30
0.0
  3
*UDIM270
  0
TEXT
  5
   1CE
  8
0
  6
CONTINUOUS
 62
     7
 10
67.4587320320579
 20
57.6579605832171
 30
0.0
 40
2.99999994933605
  1
161
 50
89.9999999480344
 41
0.933333333333333
 72
     1
 11
65.9587320609222
 21
61.5579605187125
 31
0.0
 73
     2
  0
LINE
  5
   1CF
  8
0
  6
CONTINUOUS
 62
     7
 10
82.7698681280017
 20
29.6329593515791
 30
0.0
 11
66.4587320355902
 21
29.6329593515791
 31
0.0
  0
LINE
  5
   1D0
  8
0
  6
CONTINUOUS
 62
     7
 10
82.7698681280017
 20
94.0329587853349
 30
0.0
 11
66.4587320355902
 21
94.0329587853349
 31
0.0
  0
LINE
  5
   1D1
  8
0
  6
CONTINUOUS
 62
     7
 10
68.4587320355902
 20
29.6329593515791
 30
0.0
 11
68.4587320355902
 21
94.0329587853349
 31
0.0
  0
LINE
  5
   1D2
  8
0
  6
CONTINUOUS
 62
     7
 10
67.9377876056385
 20
32.587382628786
 30
0.0
 11
68.4587320355902
 21
29.6329593515791
 31
0.0
  0
LINE
  5
   1D3
  8
0
  6
CONTINUOUS
 62
     7
 10
68.4587320355902
 20
29.6329593515791
 30
0.0
 11
68.9796764655418
 21
32.587382628786
 31
0.0
  0
LINE
  5
   1D4
  8
0
  6
CONTINUOUS
 62
     7
 10
68.9796764655418
 20
91.0785355081279
 30
0.0
 11
68.4587320355902
 21
94.0329587853349
 31
0.0
  0
LINE
  5
   1D5
  8
0
  6
CONTINUOUS
 62
     7
 10
68.4587320355902
 20
94.0329587853349
 30
0.0
 11
67.9377876056385
 21
91.0785355081279
 31
0.0
  0
ENDBLK
  5
   1D6
  8
0
  6
CONTINUOUS
 62
     7
  0
BLOCK
  5
   1D7
  8
0
  6
CONTINUOUS
 62
     7
  2
*UDIM271
 70
    65
 10
0.0
 20
0.0
 30
0.0
  3
*UDIM271
  0
TEXT
  5
   1D8
  8
0
  6
CONTINUOUS
 62
     7
 10
148.067336138493
 20
75.5579547464336
 30
0.0
 40
2.99999994933605
  1
260
 50
89.9999999480344
 41
0.933333333333333
 72
     1
 11
146.567336167357
 21
79.4579546819291
 31
0.0
 73
     2
  0
LINE
  5
   1D9
  8
0
  6
CONTINUOUS
 62
     7
 10
126.269857010721
 20
27.7329547456315
 30
0.0
 11
151.067336142025
 21
27.7329547456315
 31
0.0
  0
LINE
  5
   1DA
  8
0
  6
CONTINUOUS
 62
     7
 10
128.169861594344
 20
131.732956295352
 30
0.0
 11
151.067336142025
 21
131.732956295352
 31
0.0
  0
LINE
  5
   1DB
  8
0
  6
CONTINUOUS
 62
     7
 10
149.067336142025
 20
27.7329547456315
 30
0.0
 11
149.067336142025
 21
131.732956295352
 31
0.0
  0
LINE
  5
   1DC
  8
0
  6
CONTINUOUS
 62
     7
 10
148.546391712074
 20
30.6873780228384
 30
0.0
 11
149.067336142025
 21
27.7329547456315
 31
0.0
  0
LINE
  5
   1DD
  8
0
  6
CONTINUOUS
 62
     7
 10
149.067336142025
 20
27.7329547456315
 30
0.0
 11
149.588280571977
 21
30.6873780228384
 31
0.0
  0
LINE
  5
   1DE
  8
0
  6
CONTINUOUS
 62
     7
 10
149.588280571977
 20
128.778533018145
 30
0.0
 11
149.067336142025
 21
131.732956295352
 31
0.0
  0
LINE
  5
   1DF
  8
0
  6
CONTINUOUS
 62
     7
 10
149.067336142025
 20
131.732956295352
 30
0.0
 11
148.546391712074
 21
128.778533018145
 31
0.0
  0
ENDBLK
  5
   1E0
  8
0
  6
CONTINUOUS
 62
     7
  0
BLOCK
  5
   1E1
  8
0
  6
CONTINUOUS
 62
     7
  2
*UDIM272
 70
    65
 10
0.0
 20
0.0
 30
0.0
  3
*UDIM272
  0
TEXT
  5
   1E2
  8
0
  6
CONTINUOUS
 62
     7
 10
148.067336139761
 20
145.55795574501
 30
0.0
 40
2.99999994933605
  1
83
 50
89.9999999480344
 41
0.933333333333333
 72
     1
 11
146.567336167357
 21
148.057955704149
 31
0.0
 73
     2
  0
LINE
  5
   1E3
  8
0
  6
CONTINUOUS
 62
     7
 10
115.069854533841
 20
164.932957171541
 30
0.0
 11
151.067336142025
 21
164.932957171541
 31
0.0
  0
LINE
  5
   1E4
  8
0
  6
CONTINUOUS
 62
     7
 10
149.067336142025
 20
131.732956295352
 30
0.0
 11
149.067336142025
 21
164.932957171541
 31
0.0
  0
LINE
  5
   1E5
  8
0
  6
CONTINUOUS
 62
     7
 10
148.546391712074
 20
134.687379572559
 30
0.0
 11
149.067336142025
 21
131.732956295352
 31
0.0
  0
LINE
  5
   1E6
  8
0
  6
CONTINUOUS
 62
     7
 10
149.067336142025
 20
131.732956295352
 30
0.0
 11
149.588280571977
 21
134.687379572559
 31
0.0
  0
LINE
  5
   1E7
  8
0
  6
CONTINUOUS
 62
     7
 10
149.588280571977
 20
161.978533894334
 30
0.0
 11
149.067336142025
 21
164.932957171541
 31
0.0
  0
LINE
  5
   1E8
  8
0
  6
CONTINUOUS
 62
     7
 10
149.067336142025
 20
164.932957171541
 30
0.0
 11
148.546391712074
 21
161.978533894334
 31
0.0
  0
ENDBLK
  5
   1E9
  8
0
  6
CONTINUOUS
 62
     7
  0
BLOCK
  5
   1EA
  8
0
  6
CONTINUOUS
 62
     7
  2
*UDIM273
 70
    65
 10
0.0
 20
0.0
 30
0.0
  3
*UDIM273
  0
TEXT
  5
   1EB
  8
0
  6
CONTINUOUS
 62
     7
 10
138.010500048599
 20
37.8079557511188
 30
0.0
 40
2.99999994933605
  1
85,25
 50
89.9999999480344
 41
0.933333333333333
 72
     1
 11
136.510500079999
 21
44.5079556393279
 31
0.0
 73
     2
  0
LINE
  5
   1EC
  8
0
  6
CONTINUOUS
 62
     7
 10
126.269857010721
 20
27.7329547456315
 30
0.0
 11
141.010500054667
 21
27.7329547456315
 31
0.0
  0
LINE
  5
   1ED
  8
0
  6
CONTINUOUS
 62
     7
 10
139.010500054667
 20
27.7329547456315
 30
0.0
 11
139.010500054667
 21
61.8329583055175
 31
0.0
  0
LINE
  5
   1EE
  8
0
  6
CONTINUOUS
 62
     7
 10
138.489555624715
 20
30.6873780228384
 30
0.0
 11
139.010500054667
 21
27.7329547456315
 31
0.0
  0
LINE
  5
   1EF
  8
0
  6
CONTINUOUS
 62
     7
 10
139.010500054667
 20
27.7329547456315
 30
0.0
 11
139.531444484619
 21
30.6873780228384
 31
0.0
  0
LINE
  5
   1F0
  8
0
  6
CONTINUOUS
 62
     7
 10
139.531444484619
 20
58.8785350283105
 30
0.0
 11
139.010500054667
 21
61.8329583055175
 31
0.0
  0
LINE
  5
   1F1
  8
0
  6
CONTINUOUS
 62
     7
 10
139.010500054667
 20
61.8329583055175
 30
0.0
 11
138.489555624715
 21
58.8785350283105
 31
0.0
  0
ENDBLK
  5
   1F2
  8
0
  6
CONTINUOUS
 62
     7
  0
BLOCK
  5
   1F3
  8
0
  6
CONTINUOUS
 62
     7
  2
*UDIM274
 70
    65
 10
0.0
 20
0.0
 30
0.0
  3
*UDIM274
  0
TEXT
  5
   1F4
  8
0
  6
CONTINUOUS
 62
     7
 10
58.9925209684015
 20
75.5579547464336
 30
0.0
 40
2.99999994933605
  1
255
 50
89.9999999480344
 41
0.933333333333333
 72
     1
 11
57.4925209972658
 21
79.4579546819291
 31
0.0
 73
     2
  0
LINE
  5
   1F5
  8
0
  6
CONTINUOUS
 62
     7
 10
86.0698564414969
 20
28.7329547605326
 30
0.0
 11
57.9925209719338
 21
28.7329547605326
 31
0.0
  0
LINE
  5
   1F6
  8
0
  6
CONTINUOUS
 62
     7
 10
86.0698564414969
 20
130.732956280451
 30
0.0
 11
57.9925209719338
 21
130.732956280451
 31
0.0
  0
LINE
  5
   1F7
  8
0
  6
CONTINUOUS
 62
     7
 10
59.9925209719338
 20
28.7329547605326
 30
0.0
 11
59.9925209719338
 21
130.732956280451
 31
0.0
  0
LINE
  5
   1F8
  8
0
  6
CONTINUOUS
 62
     7
 10
59.4715765419821
 20
31.6873780377396
 30
0.0
 11
59.9925209719338
 21
28.7329547605326
 31
0.0
  0
LINE
  5
   1F9
  8
0
  6
CONTINUOUS
 62
     7
 10
59.9925209719338
 20
28.7329547605326
 30
0.0
 11
60.5134654018855
 21
31.6873780377396
 31
0.0
  0
LINE
  5
   1FA
  8
0
  6
CONTINUOUS
 62
     7
 10
60.5134654018855
 20
127.778533003244
 30
0.0
 11
59.9925209719338
 21
130.732956280451
 31
0.0
  0
LINE
  5
   1FB
  8
0
  6
CONTINUOUS
 62
     7
 10
59.9925209719338
 20
130.732956280451
 30
0.0
 11
59.4715765419821
 21
127.778533003244
 31
0.0
  0
ENDBLK
  5
   1FC
  8
0
  6
CONTINUOUS
 62
     7
  0
BLOCK
  5
   1FD
  8
0
  6
CONTINUOUS
 62
     7
  2
*UDIM275
 70
    65
 10
0.0
 20
0.0
 30
0.0
  3
*UDIM275
  0
TEXT
  5
   1FE
  8
0
  6
CONTINUOUS
 62
     7
 10
76.5406688103611
 20
38.3079557585694
 30
0.0
 40
2.99999994933605
  1
82,75
 50
89.9999999480344
 41
0.933333333333333
 72
     1
 11
75.0406688417614
 21
45.0079556467785
 31
0.0
 73
     2
  0
LINE
  5
   1FF
  8
0
  6
CONTINUOUS
 62
     7
 10
86.0698564414969
 20
28.7329547605326
 30
0.0
 11
75.5406688164294
 21
28.7329547605326
 31
0.0
  0
LINE
  5
   200
  8
0
  6
CONTINUOUS
 62
     7
 10
77.5406688164294
 20
28.7329547605326
 30
0.0
 11
77.5406688164294
 21
61.8329583055175
 31
0.0
  0
LINE
  5
   201
  8
0
  6
CONTINUOUS
 62
     7
 10
77.0197243864777
 20
31.6873780377396
 30
0.0
 11
77.5406688164294
 21
28.7329547605326
 31
0.0
  0
LINE
  5
   202
  8
0
  6
CONTINUOUS
 62
     7
 10
77.5406688164294
 20
28.7329547605326
 30
0.0
 11
78.0616132463811
 21
31.6873780377396
 31
0.0
  0
LINE
  5
   203
  8
0
  6
CONTINUOUS
 62
     7
 10
78.0616132463811
 20
58.8785350283105
 30
0.0
 11
77.5406688164294
 21
61.8329583055175
 31
0.0
  0
LINE
  5
   204
  8
0
  6
CONTINUOUS
 62
     7
 10
77.5406688164294
 20
61.8329583055175
 30
0.0
 11
77.0197243864777
 21
58.8785350283105
 31
0.0
  0
ENDBLK
  5
   205
  8
0
  6
CONTINUOUS
 62
     7
  0
BLOCK
  5
   206
  8
0
  6
CONTINUOUS
 62
     7
  2
*UDIM276
 70
    65
 10
0.0
 20
0.0
 30
0.0
  3
*UDIM276
  0
TEXT
  5
   207
  8
0
  6
CONTINUOUS
 62
     7
 10
133.557256876434
 20
148.376916221437
 30
0.0
 40
2.99999994933605
  1
8,5
 50
393.246581799562
 41
0.933333333333333
 72
     1
 11
135.996535403339
 21
151.769543474533
 31
0.0
 73
     2
  0
TEXT
  5
   208
  8
0
  6
CONTINUOUS
 62
     7
 10
130.922852495978
 20
146.649949733324
 30
0.0
 40
2.99999994933605
  1
Ø
 50
393.246581799562
 41
0.933333333333333
 72
     1
 11
131.020438240706
 21
148.50749566965
 31
0.0
 73
     2
  0
LINE
  5
   209
  8
0
  6
CONTINUOUS
 62
     7
 10
119.248114607027
 20
137.800935822697
 30
0.0
 11
140.628787249132
 21
151.816895314572
 31
0.0
  0
LINE
  5
   20A
  8
0
  6
CONTINUOUS
 62
     7
 10
117.062878999748
 20
135.745517290942
 30
0.0
 11
119.248114607027
 21
137.800935822697
 31
0.0
  0
LINE
  5
   20B
  8
0
  6
CONTINUOUS
 62
     7
 10
119.248114607027
 20
137.800935822697
 30
0.0
 11
116.491670373963
 21
136.616868599094
 31
0.0
  0
LINE
  5
   20C
  8
0
  6
CONTINUOUS
 62
     7
 10
124.27683439566
 20
141.720381729492
 30
0.0
 11
122.091598788382
 21
139.664963197737
 31
0.0
  0
LINE
  5
   20D
  8
0
  6
CONTINUOUS
 62
     7
 10
122.091598788382
 20
139.664963197737
 30
0.0
 11
124.848043021445
 21
140.849030421339
 31
0.0
  0
ENDBLK
  5
   20E
  8
0
  6
CONTINUOUS
 62
     7
  0
BLOCK
  5
   20F
  8
0
  6
CONTINUOUS
 62
     7
  2
*UDIM277
 70
    65
 10
0.0
 20
0.0
 30
0.0
  3
*UDIM277
  0
TEXT
  5
   210
  8
0
  6
CONTINUOUS
 62
     7
 10
74.9403604712707
 20
148.790530213846
 30
0.0
 40
2.99999994933605
  1
20
 50
359.999999948034
 41
0.933333333333333
 72
     1
 11
77.4403604304037
 21
150.290530186259
 31
0.0
 73
     2
  0
LINE
  5
   211
  8
0
  6
CONTINUOUS
 62
     7
 10
96.6698544303244
 20
144.732949584723
 30
0.0
 11
96.6698544303244
 21
149.790530211591
 31
0.0
  0
LINE
  5
   212
  8
0
  6
CONTINUOUS
 62
     7
 10
88.6698543111151
 20
144.732949584723
 30
0.0
 11
88.6698543111151
 21
149.790530211591
 31
0.0
  0
LINE
  5
   213
  8
0
  6
CONTINUOUS
 62
     7
 10
96.6698544303244
 20
147.790530211591
 30
0.0
 11
74.9403604726236
 21
147.790530211591
 31
0.0
  0
LINE
  5
   214
  8
0
  6
CONTINUOUS
 62
     7
 10
99.6242777075313
 20
148.311474641543
 30
0.0
 11
96.6698544303244
 21
147.790530211591
 31
0.0
  0
LINE
  5
   215
  8
0
  6
CONTINUOUS
 62
     7
 10
96.6698544303244
 20
147.790530211591
 30
0.0
 11
99.6242777075313
 21
147.26958578164
 31
0.0
  0
LINE
  5
   216
  8
0
  6
CONTINUOUS
 62
     7
 10
85.7154310339081
 20
147.26958578164
 30
0.0
 11
88.6698543111151
 21
147.790530211591
 31
0.0
  0
LINE
  5
   217
  8
0
  6
CONTINUOUS
 62
     7
 10
88.6698543111151
 20
147.790530211591
 30
0.0
 11
85.7154310339081
 21
148.311474641543
 31
0.0
  0
ENDBLK
  5
   218
  8
0
  6
CONTINUOUS
 62
     7
  0
BLOCK
  5
   219
  8
0
  6
CONTINUOUS
 62
     7
  2
*UDIM278
 70
    65
 10
0.0
 20
0.0
 30
0.0
  3
*UDIM278
  0
TEXT
  5
   21A
  8
0
  6
CONTINUOUS
 62
     7
 10
102.494868481967
 20
17.692521059448
 30
0.0
 40
2.99999994933605
  1
117
 50
359.999999948034
 41
0.933333333333333
 72
     1
 11
106.394868417457
 21
19.1925210305985
 31
0.0
 73
     2
  0
LINE
  5
   21B
  8
0
  6
CONTINUOUS
 62
     7
 10
130.069868817925
 20
29.1329593590296
 30
0.0
 11
130.069868817925
 21
14.6925210559305
 31
0.0
  0
LINE
  5
   21C
  8
0
  6
CONTINUOUS
 62
     7
 10
83.2698681205511
 20
29.1329593590296
 30
0.0
 11
83.2698681205511
 21
14.6925210559305
 31
0.0
  0
LINE
  5
   21D
  8
0
  6
CONTINUOUS
 62
     7
 10
130.069868817925
 20
16.6925210559305
 30
0.0
 11
83.2698681205511
 21
16.6925210559305
 31
0.0
  0
LINE
  5
   21E
  8
0
  6
CONTINUOUS
 62
     7
 10
127.115445540718
 20
16.1715766259788
 30
0.0
 11
130.069868817925
 21
16.6925210559305
 31
0.0
  0
LINE
  5
   21F
  8
0
  6
CONTINUOUS
 62
     7
 10
130.069868817925
 20
16.6925210559305
 30
0.0
 11
127.115445540718
 21
17.2134654858821
 31
0.0
  0
LINE
  5
   220
  8
0
  6
CONTINUOUS
 62
     7
 10
86.2242913977581
 20
17.2134654858821
 30
0.0
 11
83.2698681205511
 21
16.6925210559305
 31
0.0
  0
LINE
  5
   221
  8
0
  6
CONTINUOUS
 62
     7
 10
83.2698681205511
 20
16.6925210559305
 30
0.0
 11
86.2242913977581
 21
16.1715766259788
 31
0.0
  0
ENDBLK
  5
   222
  8
0
  6
CONTINUOUS
 62
     7
  0
BLOCK
  5
   223
  8
0
  6
CONTINUOUS
 62
     7
  2
*UDIM279
 70
    65
 10
0.0
 20
0.0
 30
0.0
  3
*UDIM279
  0
TEXT
  5
   224
  8
0
  6
CONTINUOUS
 62
     7
 10
102.494866954605
 20
179.474136629362
 30
0.0
 40
2.99999994933605
  1
105
 50
359.999999948034
 41
0.933333333333333
 72
     1
 11
106.394866890095
 21
180.974136600512
 31
0.0
 73
     2
  0
LINE
  5
   225
  8
0
  6
CONTINUOUS
 62
     7
 10
127.669883152866
 20
132.232911267013
 30
0.0
 11
127.669883152866
 21
180.474136625844
 31
0.0
  0
LINE
  5
   226
  8
0
  6
CONTINUOUS
 62
     7
 10
85.6698519229802
 20
130.612955043059
 30
0.0
 11
85.6698519229802
 21
180.474136625844
 31
0.0
  0
LINE
  5
   227
  8
0
  6
CONTINUOUS
 62
     7
 10
127.669883152866
 20
178.474136625844
 30
0.0
 11
85.6698519229802
 21
178.474136625844
 31
0.0
  0
LINE
  5
   228
  8
0
  6
CONTINUOUS
 62
     7
 10
124.715459875659
 20
177.953192195892
 30
0.0
 11
127.669883152866
 21
178.474136625844
 31
0.0
  0
LINE
  5
   229
  8
0
  6
CONTINUOUS
 62
     7
 10
127.669883152866
 20
178.474136625844
 30
0.0
 11
124.715459875659
 21
178.995081055796
 31
0.0
  0
LINE
  5
   22A
  8
0
  6
CONTINUOUS
 62
     7
 10
88.6242752001871
 20
178.995081055796
 30
0.0
 11
85.6698519229802
 21
178.474136625844
 31
0.0
  0
LINE
  5
   22B
  8
0
  6
CONTINUOUS
 62
     7
 10
85.6698519229802
 20
178.474136625844
 30
0.0
 11
88.6242752001871
 21
177.953192195892
 31
0.0
  0
ENDBLK
  5
   22C
  8
0
  6
CONTINUOUS
 62
     7
  0
BLOCK
  5
   22D
  8
0
  6
CONTINUOUS
 62
     7
  2
*UDIM280
 70
    65
 10
0.0
 20
0.0
 30
0.0
  3
*UDIM280
  0
TEXT
  5
   22E
  8
0
  6
CONTINUOUS
 62
     7
 10
110.894862477189
 20
172.188064742184
 30
0.0
 40
2.99999994933605
  1
35
 50
359.999999948034
 41
0.933333333333333
 72
     1
 11
113.394862436322
 21
173.688064714597
 31
0.0
 73
     2
  0
LINE
  5
   22F
  8
0
  6
CONTINUOUS
 62
     7
 10
120.669856697704
 20
141.832949541509
 30
0.0
 11
120.669856697704
 21
173.188064739929
 31
0.0
  0
LINE
  5
   230
  8
0
  6
CONTINUOUS
 62
     7
 10
106.669868469238
 20
145.557978345345
 30
0.0
 11
106.669868469238
 21
173.188064739929
 31
0.0
  0
LINE
  5
   231
  8
0
  6
CONTINUOUS
 62
     7
 10
120.669856697704
 20
171.188064739929
 30
0.0
 11
106.669868469238
 21
171.188064739929
 31
0.0
  0
LINE
  5
   232
  8
0
  6
CONTINUOUS
 62
     7
 10
117.715433420497
 20
170.667120309978
 30
0.0
 11
120.669856697704
 21
171.188064739929
 31
0.0
  0
LINE
  5
   233
  8
0
  6
CONTINUOUS
 62
     7
 10
120.669856697704
 20
171.188064739929
 30
0.0
 11
117.715433420497
 21
171.709009169881
 31
0.0
  0
LINE
  5
   234
  8
0
  6
CONTINUOUS
 62
     7
 10
109.624291746445
 20
171.709009169881
 30
0.0
 11
106.669868469238
 21
171.188064739929
 31
0.0
  0
LINE
  5
   235
  8
0
  6
CONTINUOUS
 62
     7
 10
106.669868469238
 20
171.188064739929
 30
0.0
 11
109.624291746445
 21
170.667120309978
 31
0.0
  0
ENDBLK
  5
   236
  8
0
  6
CONTINUOUS
 62
     7
  0
BLOCK
  5
   237
  8
0
  6
CONTINUOUS
 62
     7
  2
*UDIM281
 70
    65
 10
0.0
 20
0.0
 30
0.0
  3
*UDIM281
  0
TEXT
  5
   238
  8
0
  6
CONTINUOUS
 62
     7
 10
96.894862268573
 20
172.188064742184
 30
0.0
 40
2.99999994933605
  1
35
 50
359.999999948034
 41
0.933333333333333
 72
     1
 11
99.394862227706
 21
173.688064714597
 31
0.0
 73
     2
  0
LINE
  5
   239
  8
0
  6
CONTINUOUS
 62
     7
 10
92.6698562804716
 20
141.832949541509
 30
0.0
 11
92.6698562804716
 21
173.188064739929
 31
0.0
  0
LINE
  5
   23A
  8
0
  6
CONTINUOUS
 62
     7
 10
106.669868469238
 20
171.188064739929
 30
0.0
 11
92.6698562804716
 21
171.188064739929
 31
0.0
  0
LINE
  5
   23B
  8
0
  6
CONTINUOUS
 62
     7
 10
103.715445192031
 20
170.667120309978
 30
0.0
 11
106.669868469238
 21
171.188064739929
 31
0.0
  0
LINE
  5
   23C
  8
0
  6
CONTINUOUS
 62
     7
 10
106.669868469238
 20
171.188064739929
 30
0.0
 11
103.715445192031
 21
171.709009169881
 31
0.0
  0
LINE
  5
   23D
  8
0
  6
CONTINUOUS
 62
     7
 10
95.6242795576785
 20
171.709009169881
 30
0.0
 11
92.6698562804716
 21
171.188064739929
 31
0.0
  0
LINE
  5
   23E
  8
0
  6
CONTINUOUS
 62
     7
 10
92.6698562804716
 20
171.188064739929
 30
0.0
 11
95.6242795576785
 21
170.667120309978
 31
0.0
  0
ENDBLK
  5
   23F
  8
0
  6
CONTINUOUS
 62
     7
  0
ENDSEC
  0
SECTION
  2
ENTITIES
  0
LINE
  5
   240
  8
0
  6
DASHDOT
 62
     7
 10
169.683029174805
 20
-45.6415372462832
 30
0.0
 11
169.683029174805
 21
-63.3397508401604
 31
0.0
  0
LINE
  5
   241
  8
0
  6
DASHDOT
 62
     7
 10
177.171310432699
 20
-35.4247360229492
 30
0.0
 11
161.131891556215
 21
-35.4247360229492
 31
0.0
  0
LINE
  5
   242
  8
0
  6
DASHDOT
 62
     7
 10
176.201895006098
 20
-91.4247360229492
 30
0.0
 11
161.131891556215
 21
-91.4247360229492
 31
0.0
  0
LINE
  5
   243
  8
0
  6
DASHDOT
 62
     7
 10
165.308029174805
 20
-26.0881332862349
 30
0.0
 11
165.308029174805
 21
-102.793176024066
 31
0.0
  0
LINE
  5
   244
  8
0
  6
DASHDOT
 62
     7
 10
174.058029174805
 20
-25.2009753186265
 30
0.0
 11
174.058029174805
 21
-102.58844726231
 31
0.0
  0
LINE
  5
   245
  8
0
  6
CONTINUOUS
 62
     3
 10
157.808029174805
 20
-27.9247360229492
 30
0.0
 11
157.808029174805
 21
-98.9247360229492
 31
0.0
  0
LINE
  5
   246
  8
0
  6
CONTINUOUS
 62
     3
 10
181.558029174805
 20
-27.9247360229492
 30
0.0
 11
181.558029174805
 21
-98.9247360229492
 31
0.0
  0
LINE
  5
   247
  8
0
  6
CONTINUOUS
 62
     3
 10
181.558029174805
 20
-27.9247360229492
 30
0.0
 11
157.808029174805
 21
-27.9247360229492
 31
0.0
  0
LINE
  5
   248
  8
0
  6
CONTINUOUS
 62
     3
 10
181.558029174805
 20
-98.9247360229492
 30
0.0
 11
157.808029174805
 21
-98.9247360229492
 31
0.0
  0
CIRCLE
  5
   249
  8
0
  6
CONTINUOUS
 62
     7
 10
165.308029174805
 20
-35.4247360229492
 30
0.0
 40
0.6875
  0
CIRCLE
  5
   24A
  8
0
  6
CONTINUOUS
 62
     7
 10
174.058029174805
 20
-35.4247360229492
 30
0.0
 40
0.6875
  0
CIRCLE
  5
   24B
  8
0
  6
CONTINUOUS
 62
     7
 10
165.308029174805
 20
-91.4247360229492
 30
0.0
 40
0.6875
  0
CIRCLE
  5
   24C
  8
0
  6
CONTINUOUS
 62
     7
 10
174.058029174805
 20
-91.4247360229492
 30
0.0
 40
0.6875
  0
LINE
  5
   24D
  8
0
  6
DASHDOT
 62
     7
 10
183.597037300577
 20
-74.6122360229492
 30
0.0
 11
144.979093686022
 21
-74.6122360229492
 31
0.0
  0
LINE
  5
   24E
  8
0
  6
DASHDOT
 62
     7
 10
169.683029174805
 20
-70.1986718889118
 30
0.0
 11
169.683029174805
 21
-104.976949482794
 31
0.0
  0
TEXT
  5
   24F
  8
0
  6
CONTINUOUS
 62
     1
 10
163.136889700767
 20
-193.480718893192
 30
0.0
 40
2.00000008940697
  1
N0035 00-03-15
 50
359.999999896069
 41
0.749999861419206
 72
     2
 11
183.83688679355
 21
-193.480718930637
 31
0.0
  0
INSERT
  5
   250
  8
0
  6
CONTINUOUS
 62
     7
  2
*UDIM242
 10
0.0
 20
0.0
 30
0.0
  0
INSERT
  5
   251
  8
0
  6
CONTINUOUS
 62
     7
  2
*UDIM243
 10
0.0
 20
0.0
 30
0.0
  0
INSERT
  5
   252
  8
0
  6
CONTINUOUS
 62
     7
  2
*UDIM244
 10
0.0
 20
0.0
 30
0.0
  0
INSERT
  5
   253
  8
0
  6
CONTINUOUS
 62
     7
  2
*UDIM245
 10
0.0
 20
0.0
 30
0.0
  0
TEXT
  5
   254
  8
0
  6
CONTINUOUS
 62
     7
 10
165.656698701053
 20
-110.774909995983
 30
0.0
 40
3.00000002980232
  1
= =
 50
359.999999896069
 41
0.916666604744064
 72
     2
 11
173.356698253024
 21
-110.774910009911
 31
0.0
  0
TEXT
  5
   255
  8
0
  6
CONTINUOUS
 62
     7
 10
168.591144201426
 20
-115.278942135967
 30
0.0
 40
3.00000002980232
  1
Y
 50
359.999999896069
 41
0.916666604744064
 72
     2
 11
170.791144070296
 21
-115.278942139946
 31
0.0
  0
TEXT
  5
   256
  8
0
  6
CONTINUOUS
 62
     7
 10
168.697349187999
 20
-22.5537681857715
 30
0.0
 40
3.00000002980232
  1
Y
 50
359.999999896069
 41
0.916666604744064
 72
     2
 11
170.897349056868
 21
-22.5537681897511
 31
0.0
  0
TEXT
  5
   257
  8
0
  6
CONTINUOUS
 62
     7
 10
139.587902066378
 20
-76.2439914623867
 30
0.0
 40
3.00000002980232
  1
X
 50
359.999999896069
 41
0.916666604744064
 72
     2
 11
141.787901935248
 21
-76.2439914663663
 31
0.0
  0
TEXT
  5
   258
  8
0
  6
CONTINUOUS
 62
     1
 10
231.973709102828
 20
-204.68986525788
 30
0.0
 40
4.00000017881393
  1
605032/041
 50
359.999999896069
 41
0.937499973922969
 72
     2
 11
268.723709702599
 21
-204.689865324357
 31
0.0
  0
TEXT
  5
   259
  8
0
  6
CONTINUOUS
 62
     1
 10
250.059402463107
 20
-195.708282493541
 30
0.0
 40
3.00000002980232
  1
S3X
 50
359.999999896069
 41
0.916666604744064
 72
     2
 11
257.759402015079
 21
-195.70828250747
 31
0.0
  0
TEXT
  5
   25A
  8
0
  6
CONTINUOUS
 62
     1
 10
219.306229939366
 20
-177.3980102419
 30
0.0
 40
2.00000008940697
  1
3POLE LOW VOLTAGE M.C.C.B SERIES ISOMAX SUPERLIMITING
 50
359.999999896069
 41
0.593749948963525
 72
     1
 11
250.656228639185
 21
-176.398010253906
 31
0.0
 73
     2
  0
TEXT
  5
   25B
  8
0
  6
CONTINUOUS
 62
     1
 10
224.649979718921
 20
-180.398010251567
 30
0.0
 40
2.00000008940697
  1
FIXED VERSION FRONT+EXTENDED FRONT TERMINALS
 50
359.999999896069
 41
0.593749948963525
 72
     1
 11
250.656228639185
 21
-179.398010253906
 31
0.0
 73
     2
  0
TEXT
  5
   25C
  8
0
  6
CONTINUOUS
 62
     1
 10
215.602369909228
 20
-185.468276965284
 30
0.0
 40
2.00000008940697
  1
INTERR.AUTOMATICO SERIE ISOMAX SUPERLIMITATORE
 50
359.999999896069
 41
0.687499997764826
 72
     1
 11
247.08987121284
 21
-184.468276977539
 31
0.0
 73
     2
  0
TEXT
  5
   25D
  8
0
  6
CONTINUOUS
 62
     1
 10
212.852369795235
 20
-188.46827696031
 30
0.0
 40
2.00000008940697
  1
TRIPOL.ESECUZIONE FISSA TERMINALI ANT. E ANT.PROL.
 50
359.999999896069
 41
0.687499997764826
 72
     1
 11
247.08987121284
 21
-187.468276977539
 31
0.0
 73
     2
  0
LINE
  5
   25E
  8
0
  6
CONTINUOUS
 62
     7
 10
92.6698684692383
 20
-88.6122360229492
 30
0.0
 11
120.669868469238
 21
-88.6122360229492
 31
0.0
  0
LINE
  5
   25F
  8
0
  6
CONTINUOUS
 62
     7
 10
92.6698684692383
 20
-60.6122360229492
 30
0.0
 11
120.669868469238
 21
-60.6122360229492
 31
0.0
  0
LINE
  5
   260
  8
0
  6
CONTINUOUS
 62
     7
 10
92.6698684692383
 20
-60.6122360229492
 30
0.0
 11
92.6698684692383
 21
-88.6122360229492
 31
0.0
  0
LINE
  5
   261
  8
0
  6
CONTINUOUS
 62
     7
 10
120.669868469238
 20
-60.6122360229492
 30
0.0
 11
120.669868469238
 21
-88.6122360229492
 31
0.0
  0
LINE
  5
   262
  8
0
  6
DASHDOT
 62
     7
 10
106.669868469238
 20
-45.5182727769736
 30
0.0
 11
106.669868469238
 21
-104.649026300756
 31
0.0
  0
CIRCLE
  5
   263
  8
0
  6
CONTINUOUS
 62
     7
 10
96.6698684692383
 20
-56.8622360229492
 30
0.0
 40
0.875
  0
CIRCLE
  5
   264
  8
0
  6
CONTINUOUS
 62
     7
 10
116.669868469238
 20
-56.8622360229492
 30
0.0
 40
0.875
  0
CIRCLE
  5
   265
  8
0
  6
CONTINUOUS
 62
     7
 10
116.669868469238
 20
-92.3622360229492
 30
0.0
 40
0.875
  0
CIRCLE
  5
   266
  8
0
  6
CONTINUOUS
 62
     7
 10
96.6698684692383
 20
-92.3622360229492
 30
0.0
 40
0.875
  0
LINE
  5
   267
  8
0
  6
CONTINUOUS
 62
     3
 10
88.7053727998238
 20
-54.512435725658
 30
0.0
 11
124.508742069809
 21
-54.512435725658
 31
0.0
  0
LINE
  5
   268
  8
0
  6
CONTINUOUS
 62
     3
 10
88.7053727998238
 20
-95.7177168504132
 30
0.0
 11
124.508742069809
 21
-95.7177168504132
 31
0.0
  0
LINE
  5
   269
  8
0
  6
CONTINUOUS
 62
     3
 10
124.508742069809
 20
-54.512435725658
 30
0.0
 11
124.508742069809
 21
-95.7177168504132
 31
0.0
  0
LINE
  5
   26A
  8
0
  6
CONTINUOUS
 62
     3
 10
88.7053727998238
 20
-54.512435725658
 30
0.0
 11
88.7053727998238
 21
-95.7177168504132
 31
0.0
  0
LINE
  5
   26B
  8
0
  6
DASHDOT
 62
     7
 10
116.669868469238
 20
-55.2372360229492
 30
0.0
 11
116.669868469238
 21
-58.4872360229492
 31
0.0
  0
LINE
  5
   26C
  8
0
  6
DASHDOT
 62
     7
 10
115.044868469238
 20
-56.8622360229492
 30
0.0
 11
118.294868469238
 21
-56.8622360229492
 31
0.0
  0
LINE
  5
   26D
  8
0
  6
DASHDOT
 62
     7
 10
96.6698684692383
 20
-55.2372360229492
 30
0.0
 11
96.6698684692383
 21
-58.4872360229492
 31
0.0
  0
LINE
  5
   26E
  8
0
  6
DASHDOT
 62
     7
 10
95.0448684692383
 20
-56.8622360229492
 30
0.0
 11
98.2948684692383
 21
-56.8622360229492
 31
0.0
  0
LINE
  5
   26F
  8
0
  6
DASHDOT
 62
     7
 10
96.6698684692383
 20
-90.7372360229492
 30
0.0
 11
96.6698684692383
 21
-93.9872360229492
 31
0.0
  0
LINE
  5
   270
  8
0
  6
DASHDOT
 62
     7
 10
95.0448684692383
 20
-92.3622360229492
 30
0.0
 11
98.2948684692383
 21
-92.3622360229492
 31
0.0
  0
LINE
  5
   271
  8
0
  6
DASHDOT
 62
     7
 10
116.669868469238
 20
-90.7372360229492
 30
0.0
 11
116.669868469238
 21
-93.9872360229492
 31
0.0
  0
LINE
  5
   272
  8
0
  6
DASHDOT
 62
     7
 10
115.044868469238
 20
-92.3622360229492
 30
0.0
 11
118.294868469238
 21
-92.3622360229492
 31
0.0
  0
LINE
  5
   273
  8
0
  6
DASHDOT
 62
     7
 10
81.3040109158817
 20
-74.6122360229492
 30
0.0
 11
134.300161768609
 21
-74.6122360229492
 31
0.0
  0
INSERT
  5
   274
  8
0
  6
CONTINUOUS
 62
     7
  2
*UDIM246
 10
0.0
 20
0.0
 30
0.0
  0
INSERT
  5
   275
  8
0
  6
CONTINUOUS
 62
     7
  2
*UDIM247
 10
0.0
 20
0.0
 30
0.0
  0
INSERT
  5
   276
  8
0
  6
CONTINUOUS
 62
     7
  2
*UDIM248
 10
0.0
 20
0.0
 30
0.0
  0
INSERT
  5
   277
  8
0
  6
CONTINUOUS
 62
     7
  2
*UDIM249
 10
0.0
 20
0.0
 30
0.0
  0
INSERT
  5
   278
  8
0
  6
CONTINUOUS
 62
     7
  2
*UDIM250
 10
0.0
 20
0.0
 30
0.0
  0
TEXT
  5
   279
  8
0
  6
CONTINUOUS
 62
     7
 10
99.4198644438358
 20
-48.0743582810618
 30
0.0
 40
3.00000002980232
  1
=   =
 50
359.999999844103
 41
0.916666604744064
 72
     2
 11
112.61986367891
 21
-48.0743583169115
 31
0.0
  0
TEXT
  5
   27A
  8
0
  6
CONTINUOUS
 62
     7
 10
98.2035150005392
 20
-39.5540774994179
 30
0.0
 40
3.00000002980232
  1
=    =
 50
359.999999844103
 41
0.916666604744064
 72
     2
 11
114.153514077164
 21
-39.5540775427363
 31
0.0
  0
TEXT
  5
   27B
  8
0
  6
CONTINUOUS
 62
     7
 10
80.1111708315449
 20
-84.8761355232149
 30
0.0
 40
3.00000002980232
  1
=     =
 50
449.999999844103
 41
0.916666604744064
 72
     2
 11
80.1111708823084
 21
-66.1761366050392
 31
0.0
  0
TEXT
  5
   27C
  8
0
  6
CONTINUOUS
 62
     7
 10
70.3980510768311
 20
-86.9680226803769
 30
0.0
 40
3.00000002980232
  1
=       =
 50
449.999999844103
 41
0.916666604744064
 72
     2
 11
70.3980511425251
 21
-62.7680240790992
 31
0.0
  0
TEXT
  5
   27D
  8
0
  6
CONTINUOUS
 62
     7
 10
105.478100528218
 20
-108.057140419478
 30
0.0
 40
3.00000002980232
  1
Y
 50
359.999999844103
 41
0.916666604744064
 72
     2
 11
107.678100397087
 21
-108.057140425453
 31
0.0
  0
TEXT
  5
   27E
  8
0
  6
CONTINUOUS
 62
     7
 10
105.648506154515
 20
-30.1817665791461
 30
0.0
 40
3.00000002980232
  1
Y
 50
359.999999844103
 41
0.916666604744064
 72
     2
 11
107.848506023384
 21
-30.181766585121
 31
0.0
  0
TEXT
  5
   27F
  8
0
  6
CONTINUOUS
 62
     7
 10
57.2533074517023
 20
-76.0208805298755
 30
0.0
 40
3.00000002980232
  1
X
 50
359.999999844103
 41
0.916666604744064
 72
     2
 11
59.4533073205721
 21
-76.0208805358504
 31
0.0
  0
LINE
  5
   280
  8
0
  6
CONTINUOUS
 62
     3
 10
235.227478437652
 20
29.85296513021
 30
0.0
 11
244.142637300491
 21
29.85296513021
 31
0.0
  0
LINE
  5
   281
  8
0
  6
CONTINUOUS
 62
     7
 10
215.342636871338
 20
28.7329642824025
 30
0.0
 11
215.342636871338
 21
44.850652510856
 31
0.0
  0
LINE
  5
   282
  8
0
  6
CONTINUOUS
 62
     7
 10
215.342636871338
 20
44.8506414401186
 30
0.0
 11
215.342636871338
 21
96.7329542159683
 31
0.0
  0
LINE
  5
   283
  8
0
  6
DASHDOT
 62
     7
 10
214.542636859417
 20
22.9141720180434
 30
0.0
 11
214.542636859417
 21
134.744282952822
 31
0.0
  0
LINE
  5
   284
  8
0
  6
CONTINUOUS
 62
     7
 10
214.542636859417
 20
92.4648023058749
 30
0.0
 11
214.542636859417
 21
92.5329480588434
 31
0.0
  0
LINE
  5
   285
  8
0
  6
CONTINUOUS
 62
     7
 10
242.742628124456
 20
71.6329590167437
 30
0.0
 11
242.742635871248
 21
68.3329494848318
 31
0.0
  0
LINE
  5
   286
  8
0
  6
CONTINUOUS
 62
     7
 10
243.742613605596
 20
90.1329574428819
 30
0.0
 11
244.025462723751
 21
90.2501144089583
 31
0.0
  0
LINE
  5
   287
  8
0
  6
CONTINUOUS
 62
     7
 10
244.025467820996
 20
90.2501059585268
 30
0.0
 11
244.142624796245
 21
90.5329489621214
 31
0.0
  0
LINE
  5
   288
  8
0
  6
CONTINUOUS
 62
     7
 10
242.742630740194
 20
87.3329597543532
 30
0.0
 11
242.742636843709
 21
90.1329597963004
 31
0.0
  0
LINE
  5
   289
  8
0
  6
CONTINUOUS
 62
     7
 10
242.74263727963
 20
90.1329602301121
 30
0.0
 11
243.742625087499
 21
90.1329602301121
 31
0.0
  0
LINE
  5
   28A
  8
0
  6
CONTINUOUS
 62
     7
 10
242.742631176114
 20
71.6329599544406
 30
0.0
 11
242.742631176114
 21
87.3329601883888
 31
0.0
  0
LINE
  5
   28B
  8
0
  6
CONTINUOUS
 62
     7
 10
240.942637252808
 20
51.332959651947
 30
0.0
 11
240.942637252808
 21
67.5329598933458
 31
0.0
  0
LINE
  5
   28C
  8
0
  6
CONTINUOUS
 62
     7
 10
240.942649237692
 20
67.5329819242041
 30
0.0
 11
241.0498269651
 21
67.9329819192095
 31
0.0
  0
LINE
  5
   28D
  8
0
  6
CONTINUOUS
 62
     7
 10
241.049840592097
 20
67.9329971412396
 30
0.0
 11
241.342656743666
 21
68.2258193894601
 31
0.0
  0
LINE
  5
   28E
  8
0
  6
CONTINUOUS
 62
     7
 10
241.342615344767
 20
68.2257717574703
 30
0.0
 11
241.742621432792
 21
68.3329494848318
 31
0.0
  0
LINE
  5
   28F
  8
0
  6
CONTINUOUS
 62
     7
 10
240.942637252808
 20
51.332959651947
 30
0.0
 11
244.142637300491
 21
51.332959651947
 31
0.0
  0
LINE
  5
   290
  8
0
  6
CONTINUOUS
 62
     7
 10
243.742589718464
 20
45.732954453441
 30
0.0
 11
244.142620225633
 21
45.3329544617552
 31
0.0
  0
LINE
  5
   291
  8
0
  6
CONTINUOUS
 62
     7
 10
243.742599127149
 20
50.1329638765614
 30
0.0
 11
244.142635737438
 21
50.5329638679986
 31
0.0
  0
LINE
  5
   292
  8
0
  6
CONTINUOUS
 62
     7
 10
218.635470906648
 20
50.1329494169641
 30
0.0
 11
243.742594083507
 21
50.1329616239948
 31
0.0
  0
LINE
  5
   293
  8
0
  6
CONTINUOUS
 62
     7
 10
218.635452319575
 20
45.7329595685005
 30
0.0
 11
243.742599910497
 21
45.7329595685005
 31
0.0
  0
LINE
  5
   294
  8
0
  6
CONTINUOUS
 62
     7
 10
217.142635090111
 20
50.532948182151
 30
0.0
 11
218.635469118999
 21
50.1329420733253
 31
0.0
  0
LINE
  5
   295
  8
0
  6
CONTINUOUS
 62
     7
 10
215.742635051591
 20
50.9080781083958
 30
0.0
 11
217.142648027504
 21
50.5329438691033
 31
0.0
  0
LINE
  5
   296
  8
0
  6
CONTINUOUS
 62
     7
 10
215.342637315881
 20
44.850653904686
 30
0.0
 11
218.635453126542
 21
45.7329598124494
 31
0.0
  0
LINE
  5
   297
  8
0
  6
CONTINUOUS
 62
     7
 10
215.34264207174
 20
51.8506810973233
 30
0.0
 11
215.742640911963
 21
51.9578588247353
 31
0.0
  0
LINE
  5
   298
  8
0
  6
CONTINUOUS
 62
     7
 10
215.342636871338
 20
42.3329534143209
 30
0.0
 11
216.94263651371
 21
42.3329534143209
 31
0.0
  0
LINE
  5
   299
  8
0
  6
CONTINUOUS
 62
     7
 10
216.94263651371
 20
39.326242184811
 30
0.0
 11
216.94263651371
 21
42.3329534143209
 31
0.0
  0
LINE
  5
   29A
  8
0
  6
CONTINUOUS
 62
     7
 10
215.742636877298
 20
44.9578252796064
 30
0.0
 11
215.742636877298
 21
62.7329537183045
 31
0.0
  0
LINE
  5
   29B
  8
0
  6
CONTINUOUS
 62
     7
 10
217.14263689816
 20
50.5329596400261
 30
0.0
 11
217.14263689816
 21
60.5329597890377
 31
0.0
  0
LINE
  5
   29C
  8
0
  6
CONTINUOUS
 62
     7
 10
215.342636489868
 20
62.7329537183045
 30
0.0
 11
216.54263612628
 21
62.7329537183045
 31
0.0
  0
LINE
  5
   29D
  8
0
  6
CONTINUOUS
 62
     7
 10
216.542640247196
 20
62.7329497530542
 30
0.0
 11
216.842640998463
 21
62.6525664575018
 31
0.0
  0
LINE
  5
   29E
  8
0
  6
CONTINUOUS
 62
     7
 10
216.542640247196
 20
62.7329497530542
 30
0.0
 11
216.842640998463
 21
62.6525664575018
 31
0.0
  0
LINE
  5
   29F
  8
0
  6
CONTINUOUS
 62
     7
 10
216.842638187221
 20
62.6525644371991
 30
0.0
 11
217.062253359968
 21
62.4329477464485
 31
0.0
  0
LINE
  5
   2A0
  8
0
  6
CONTINUOUS
 62
     7
 10
217.062246457982
 20
62.432942467549
 30
0.0
 11
217.142630901292
 21
62.1329424640317
 31
0.0
  0
LINE
  5
   2A1
  8
0
  6
CONTINUOUS
 62
     7
 10
217.142644146085
 20
60.5329543054144
 30
0.0
 11
217.142644146085
 21
62.1329482257405
 31
0.0
  0
LINE
  5
   2A2
  8
0
  6
CONTINUOUS
 62
     7
 10
217.062255213903
 20
60.232951142088
 30
0.0
 11
217.100344198095
 21
60.3751020209602
 31
0.0
  0
LINE
  5
   2A3
  8
0
  6
CONTINUOUS
 62
     7
 10
217.100343464367
 20
60.3750981466067
 30
0.0
 11
217.142638919927
 21
60.5329533709611
 31
0.0
  0
LINE
  5
   2A4
  8
0
  6
CONTINUOUS
 62
     7
 10
216.842636770097
 20
60.0133225737727
 30
0.0
 11
217.062252313412
 21
60.2329392648476
 31
0.0
  0
LINE
  5
   2A5
  8
0
  6
CONTINUOUS
 62
     7
 10
216.542631748314
 20
59.932945365685
 30
0.0
 11
216.842631748643
 21
60.0133286550701
 31
0.0
  0
LINE
  5
   2A6
  8
0
  6
CONTINUOUS
 62
     7
 10
215.742636877298
 20
59.9329536765813
 30
0.0
 11
216.54263650775
 21
59.9329536765813
 31
0.0
  0
LINE
  5
   2A7
  8
0
  6
CONTINUOUS
 62
     7
 10
214.542636859417
 20
32.9329536557197
 30
0.0
 11
215.342636871338
 21
32.9329536557197
 31
0.0
  0
LINE
  5
   2A8
  8
0
  6
CONTINUOUS
 62
     7
 10
214.542636859417
 20
92.5329480588434
 30
0.0
 11
215.342636871338
 21
92.5329480588434
 31
0.0
  0
LINE
  5
   2A9
  8
0
  6
CONTINUOUS
 62
     7
 10
214.542636859417
 20
88.585609132836
 30
0.0
 11
215.342636871338
 21
88.585609132836
 31
0.0
  0
LINE
  5
   2AA
  8
0
  6
CONTINUOUS
 62
     7
 10
217.142627486455
 20
45.9329550141804
 30
0.0
 11
218.262242253366
 21
45.6329550329252
 31
0.0
  0
LINE
  5
   2AB
  8
0
  6
CONTINUOUS
 62
     7
 10
217.142623546719
 20
45.9329588276187
 30
0.0
 11
217.142623546719
 21
49.9329588872234
 31
0.0
  0
LINE
  5
   2AC
  8
0
  6
CONTINUOUS
 62
     7
 10
217.142623663733
 20
49.9329535375223
 30
0.0
 11
218.262247964848
 21
50.2329535393137
 31
0.0
  0
LINE
  5
   2AD
  8
0
  6
CONTINUOUS
 62
     7
 10
214.542636859417
 20
36.846802209524
 30
0.0
 11
215.342636871338
 21
36.846802209524
 31
0.0
  0
LINE
  5
   2AE
  8
0
  6
CONTINUOUS
 62
     7
 10
214.542636859417
 20
36.9329533338546
 30
0.0
 11
215.342636871338
 21
36.9329533338546
 31
0.0
  0
LINE
  5
   2AF
  8
0
  6
CONTINUOUS
 62
     7
 10
217.062256568872
 20
60.0212342358807
 30
0.0
 11
217.142640625694
 21
60.3751038582629
 31
0.0
  0
LINE
  5
   2B0
  8
0
  6
CONTINUOUS
 62
     7
 10
217.100341060127
 20
60.3751045620761
 30
0.0
 11
217.142636135221
 21
60.3751045620761
 31
0.0
  0
LINE
  5
   2B1
  8
0
  6
CONTINUOUS
 62
     7
 10
217.089046186871
 20
54.732949477063
 30
0.0
 11
217.142635050953
 21
54.7727321909197
 31
0.0
  0
LINE
  5
   2B2
  8
0
  6
CONTINUOUS
 62
     7
 10
217.062254173723
 20
54.7528267878369
 30
0.0
 11
217.089049750177
 21
54.7329354316229
 31
0.0
  0
LINE
  5
   2B3
  8
0
  6
CONTINUOUS
 62
     7
 10
217.062252070302
 20
58.7329597622156
 30
0.0
 11
217.14263651669
 21
58.7329597622156
 31
0.0
  0
LINE
  5
   2B4
  8
0
  6
CONTINUOUS
 62
     7
 10
217.062249883547
 20
56.3130450739073
 30
0.0
 11
217.089045460001
 21
56.3329364301212
 31
0.0
  0
LINE
  5
   2B5
  8
0
  6
CONTINUOUS
 62
     7
 10
217.089049332437
 20
56.3329467152379
 30
0.0
 11
217.142638196519
 21
56.2931640013812
 31
0.0
  0
LINE
  5
   2B6
  8
0
  6
CONTINUOUS
 62
     7
 10
217.062249807722
 20
59.6656973174668
 30
0.0
 11
217.105919303997
 21
59.4217886252154
 31
0.0
  0
LINE
  5
   2B7
  8
0
  6
CONTINUOUS
 62
     7
 10
217.105921261557
 20
59.4217914523441
 30
0.0
 11
217.142636196579
 21
58.7329609019435
 31
0.0
  0
LINE
  5
   2B8
  8
0
  6
CONTINUOUS
 62
     7
 10
216.856106380367
 20
54.7938420078244
 30
0.0
 11
217.062250330233
 21
54.7528385937299
 31
0.0
  0
LINE
  5
   2B9
  8
0
  6
CONTINUOUS
 62
     7
 10
216.842635883324
 20
54.802847107364
 30
0.0
 11
216.856107486834
 21
54.7938444222774
 31
0.0
  0
LINE
  5
   2BA
  8
0
  6
CONTINUOUS
 62
     7
 10
216.842629954077
 20
56.2630500242482
 30
0.0
 11
216.856102320063
 21
56.2720527095206
 31
0.0
  0
LINE
  5
   2BB
  8
0
  6
CONTINUOUS
 62
     7
 10
216.856104957763
 20
56.2720507927822
 30
0.0
 11
217.062248145149
 21
56.3130542004957
 31
0.0
  0
LINE
  5
   2BC
  8
0
  6
CONTINUOUS
 62
     7
 10
216.84263651222
 20
58.7329597622156
 30
0.0
 11
217.062252070302
 21
58.7329597622156
 31
0.0
  0
LINE
  5
   2BD
  8
0
  6
CONTINUOUS
 62
     7
 10
216.542634720257
 20
54.8565525160039
 30
0.0
 11
216.842634717765
 21
54.802841590079
 31
0.0
  0
LINE
  5
   2BE
  8
0
  6
CONTINUOUS
 62
     7
 10
216.542634256026
 20
56.2093403951837
 30
0.0
 11
216.842634253534
 21
56.2630513211087
 31
0.0
  0
LINE
  5
   2BF
  8
0
  6
CONTINUOUS
 62
     7
 10
216.54263650775
 20
58.7329597622156
 30
0.0
 11
216.84263651222
 21
58.7329597622156
 31
0.0
  0
LINE
  5
   2C0
  8
0
  6
CONTINUOUS
 62
     7
 10
215.742636877298
 20
56.2093452226577
 30
0.0
 11
216.54263650775
 21
56.2093452226577
 31
0.0
  0
LINE
  5
   2C1
  8
0
  6
CONTINUOUS
 62
     7
 10
215.742636877298
 20
58.7329597622156
 30
0.0
 11
216.54263650775
 21
58.7329597622156
 31
0.0
  0
LINE
  5
   2C2
  8
0
  6
CONTINUOUS
 62
     7
 10
215.742636877298
 20
54.8565619993747
 30
0.0
 11
216.54263650775
 21
54.8565619993747
 31
0.0
  0
LINE
  5
   2C3
  8
0
  6
CONTINUOUS
 62
     3
 10
215.342636871338
 20
95.612965194583
 30
0.0
 11
253.022636212588
 21
95.612965194583
 31
0.0
  0
LINE
  5
   2C4
  8
0
  6
CONTINUOUS
 62
     3
 10
244.142637300968
 20
29.85296513021
 30
0.0
 11
253.022636212588
 21
29.85296513021
 31
0.0
  0
LINE
  5
   2C5
  8
0
  6
CONTINUOUS
 62
     3
 10
244.142637300968
 20
28.7329654186965
 30
0.0
 11
254.14263744998
 21
28.7329654186965
 31
0.0
  0
LINE
  5
   2C6
  8
0
  6
CONTINUOUS
 62
     3
 10
244.142637300968
 20
28.7329654186965
 30
0.0
 11
244.142637300968
 21
45.6329595670104
 31
0.0
  0
LINE
  5
   2C7
  8
0
  6
CONTINUOUS
 62
     3
 10
244.14263730097
 20
50.23295353204
 30
0.0
 11
244.14263730097
 21
51.3329840660099
 31
0.0
  0
LINE
  5
   2C8
  8
0
  6
CONTINUOUS
 62
     3
 10
244.142637300491
 20
90.5329791501546
 30
0.0
 11
244.142637300491
 21
96.7329603284598
 31
0.0
  0
LINE
  5
   2C9
  8
0
  6
CONTINUOUS
 62
     3
 10
255.942637476802
 20
67.9125070181422
 30
0.0
 11
255.942637476802
 21
71.7328317821007
 31
0.0
  0
LINE
  5
   2CA
  8
0
  6
CONTINUOUS
 62
     3
 10
255.942615825247
 20
47.5531287237215
 30
0.0
 11
255.942634135794
 21
44.9328409801538
 31
0.0
  0
LINE
  5
   2CB
  8
0
  6
CONTINUOUS
 62
     3
 10
253.022636212588
 20
90.2329663351179
 30
0.0
 11
254.14263744998
 21
90.2329663351179
 31
0.0
  0
LINE
  5
   2CC
  8
0
  6
CONTINUOUS
 62
     3
 10
254.14263744998
 20
28.7329654186965
 30
0.0
 11
254.14263744998
 21
38.6329662746617
 31
0.0
  0
LINE
  5
   2CD
  8
0
  6
CONTINUOUS
 62
     3
 10
253.022636212588
 20
35.232965515554
 30
0.0
 11
254.14263744998
 21
35.232965515554
 31
0.0
  0
LINE
  5
   2CE
  8
0
  6
CONTINUOUS
 62
     3
 10
253.022636212588
 20
29.8529666560889
 30
0.0
 11
253.022636212588
 21
38.6329665798379
 31
0.0
  0
LINE
  5
   2CF
  8
0
  6
CONTINUOUS
 62
     3
 10
244.142636077443
 20
50.2329596355557
 30
0.0
 11
253.022634989062
 21
50.2329596355557
 31
0.0
  0
LINE
  5
   2D0
  8
0
  6
CONTINUOUS
 62
     3
 10
244.142636353607
 20
45.6329595670104
 30
0.0
 11
253.022635265226
 21
45.6329595670104
 31
0.0
  0
LINE
  5
   2D1
  8
0
  6
CONTINUOUS
 62
     1
 10
253.022636212588
 20
87.0329601839185
 30
0.0
 11
255.142637083411
 21
87.0329601839185
 31
0.0
  0
LINE
  5
   2D2
  8
0
  6
CONTINUOUS
 62
     1
 10
253.942637447
 20
38.6329659476877
 30
0.0
 11
254.14263744998
 21
38.6329659476877
 31
0.0
  0
LINE
  5
   2D3
  8
0
  6
CONTINUOUS
 62
     1
 10
253.022636212588
 20
38.6329665798378
 30
0.0
 11
254.14263744998
 21
38.6329662746617
 31
0.0
  0
LINE
  5
   2D4
  8
0
  6
CONTINUOUS
 62
     2
 10
259.543161658652
 20
41.0329598799348
 30
0.0
 11
259.543161658652
 21
41.8329587474465
 31
0.0
  0
LINE
  5
   2D5
  8
0
  6
CONTINUOUS
 62
     2
 10
255.94316162885
 20
40.8329594969468
 30
0.0
 11
255.94316162885
 21
82.8329601227956
 31
0.0
  0
LINE
  5
   2D6
  8
0
  6
CONTINUOUS
 62
     2
 10
255.142637083411
 20
82.8329601213336
 30
0.0
 11
257.343104883021
 21
82.8329601213336
 31
0.0
  0
LINE
  5
   2D7
  8
0
  6
CONTINUOUS
 62
     2
 10
255.142637083411
 20
40.8329594964288
 30
0.0
 11
257.343104883021
 21
40.8329594964288
 31
0.0
  0
LINE
  5
   2D8
  8
0
  6
CONTINUOUS
 62
     2
 10
259.54313890824
 20
48.2329531763255
 30
0.0
 11
259.543161414954
 21
41.0329591725959
 31
0.0
  0
LINE
  5
   2D9
  8
0
  6
CONTINUOUS
 62
     2
 10
259.543083791451
 20
53.4329534370237
 30
0.0
 11
259.543137578684
 21
48.6329533655729
 31
0.0
  0
LINE
  5
   2DA
  8
0
  6
CONTINUOUS
 62
     2
 10
259.543160514243
 20
53.8329595033556
 30
0.0
 11
259.543160514243
 21
61.632953516069
 31
0.0
  0
LINE
  5
   2DB
  8
0
  6
CONTINUOUS
 62
     2
 10
259.543080914209
 20
53.8329492800523
 30
0.0
 11
259.543102276513
 21
61.6329493967781
 31
0.0
  0
LINE
  5
   2DC
  8
0
  6
CONTINUOUS
 62
     2
 10
259.543018290562
 20
66.8329524814155
 30
0.0
 11
259.543101450917
 21
62.0329524099382
 31
0.0
  0
LINE
  5
   2DD
  8
0
  6
CONTINUOUS
 62
     7
 10
241.742621432792
 20
68.3329494848318
 30
0.0
 11
242.742634227972
 21
68.3329494848318
 31
0.0
  0
LINE
  5
   2DE
  8
0
  6
CONTINUOUS
 62
     7
 10
255.142637083411
 20
82.8329601213336
 30
0.0
 11
255.142637083411
 21
87.0329601839185
 31
0.0
  0
LINE
  5
   2DF
  8
0
  6
CONTINUOUS
 62
     7
 10
255.142637083411
 20
38.6329660021834
 30
0.0
 11
255.142637083411
 21
40.8329594964288
 31
0.0
  0
LINE
  5
   2E0
  8
0
  6
CONTINUOUS
 62
     2
 10
253.022636212588
 20
87.0329601839185
 30
0.0
 11
253.022636212588
 21
87.1329650682212
 31
0.0
  0
LINE
  5
   2E1
  8
0
  6
CONTINUOUS
 62
     3
 10
253.022636212588
 20
38.6329665798379
 30
0.0
 11
253.022636212588
 21
87.0329601839185
 31
0.0
  0
ARC
  5
   2E2
  8
0
  6
CONTINUOUS
 62
     7
 10
267.813053576947
 20
53.0154070167886
 30
0.0
 40
0.399999924262788
 50
348.623601768641
 51
436.688817106542
  0
ARC
  5
   2E3
  8
0
  6
CONTINUOUS
 62
     7
 10
267.334356986975
 20
50.6362795572977
 30
0.0
 40
0.400000304059165
 50
260.594020595617
 51
348.623601768641
  0
LINE
  5
   2E4
  8
0
  6
DASHDOT
 62
     7
 10
253.686611852801
 20
54.60547167529
 30
0.0
 11
273.733288734712
 21
50.5719453991536
 31
0.0
  0
LINE
  5
   2E5
  8
0
  6
CONTINUOUS
 62
     7
 10
259.543085159672
 20
55.3830918337508
 30
0.0
 11
267.90514936361
 21
53.4046602439132
 31
0.0
  0
LINE
  5
   2E6
  8
0
  6
CONTINUOUS
 62
     7
 10
267.72649818776
 20
50.5573781091106
 30
0.0
 11
268.205194646297
 21
52.936505595047
 31
0.0
  0
LINE
  5
   2E7
  8
0
  6
CONTINUOUS
 62
     7
 10
259.543105210609
 20
51.5214968971678
 30
0.0
 11
267.26898539037
 21
50.241657340777
 31
0.0
  0
LINE
  5
   2E8
  8
0
  6
DASHDOT
 62
     7
 10
213.342636841536
 20
22.5669584785743
 30
0.0
 11
213.342636841536
 21
134.744282952822
 31
0.0
  0
LINE
  5
   2E9
  8
0
  6
CONTINUOUS
 62
     7
 10
224.142637002468
 20
121.332960695028
 30
0.0
 11
229.536042063153
 21
121.332960695028
 31
0.0
  0
LINE
  5
   2EA
  8
0
  6
CONTINUOUS
 62
     7
 10
224.542637008429
 20
121.0363211867
 30
0.0
 11
224.542637008429
 21
121.332960695028
 31
0.0
  0
LINE
  5
   2EB
  8
0
  6
CONTINUOUS
 62
     7
 10
222.542636978626
 20
128.932960808277
 30
0.0
 11
224.542637008429
 21
128.932960808277
 31
0.0
  0
LINE
  5
   2EC
  8
0
  6
CONTINUOUS
 62
     7
 10
222.542636978626
 20
121.0363211867
 30
0.0
 11
222.542636978626
 21
123.652960729599
 31
0.0
  0
LINE
  5
   2ED
  8
0
  6
DASHDOT
 62
     7
 10
220.411825656487
 20
125.332960754633
 30
0.0
 11
227.075684607225
 21
125.332960754633
 31
0.0
  0
LINE
  5
   2EE
  8
0
  6
CONTINUOUS
 62
     7
 10
215.342636871338
 20
38.1329644224731
 30
0.0
 11
222.542636978626
 21
38.1329644224731
 31
0.0
  0
LINE
  5
   2EF
  8
0
  6
CONTINUOUS
 62
     7
 10
220.942636954784
 20
38.1329644224731
 30
0.0
 11
220.942636954784
 21
39.326242184811
 31
0.0
  0
LINE
  5
   2F0
  8
0
  6
CONTINUOUS
 62
     7
 10
222.542636978626
 20
38.1329644224731
 30
0.0
 11
222.542636978626
 21
39.326242184811
 31
0.0
  0
LINE
  5
   2F1
  8
0
  6
CONTINUOUS
 62
     7
 10
224.942637014389
 20
38.1329644224731
 30
0.0
 11
224.942637014389
 21
39.326242184811
 31
0.0
  0
LINE
  5
   2F2
  8
0
  6
CONTINUOUS
 62
     7
 10
224.942637014389
 20
38.1329644224731
 30
0.0
 11
234.22586562004
 21
38.1329644224731
 31
0.0
  0
LINE
  5
   2F3
  8
0
  6
CONTINUOUS
 62
     3
 10
214.787507858198
 20
39.326242184811
 30
0.0
 11
234.081517503628
 21
39.326242184811
 31
0.0
  0
LINE
  5
   2F4
  8
0
  6
CONTINUOUS
 62
     7
 10
222.542636978626
 20
30.5329643092243
 30
0.0
 11
223.742636615038
 21
30.5329643092243
 31
0.0
  0
LINE
  5
   2F5
  8
0
  6
CONTINUOUS
 62
     7
 10
223.742636615038
 20
30.5329643092242
 30
0.0
 11
223.742636615038
 21
32.5329593718052
 31
0.0
  0
LINE
  5
   2F6
  8
0
  6
CONTINUOUS
 62
     7
 10
222.542636978624
 20
30.5329643092243
 30
0.0
 11
222.542636978624
 21
39.326242184811
 31
0.0
  0
LINE
  5
   2F7
  8
0
  6
CONTINUOUS
 62
     7
 10
223.742636615038
 20
30.5329643092242
 30
0.0
 11
224.542636626959
 21
30.5329643092242
 31
0.0
  0
LINE
  5
   2F8
  8
0
  6
CONTINUOUS
 62
     7
 10
223.742636615038
 20
38.9329644343939
 30
0.0
 11
224.542636626959
 21
38.9329644343939
 31
0.0
  0
LINE
  5
   2F9
  8
0
  6
DASHDOT
 62
     7
 10
220.411825656487
 20
34.132959395647
 30
0.0
 11
228.979494733609
 21
34.132959395647
 31
0.0
  0
INSERT
  5
   2FA
  8
0
  6
CONTINUOUS
 62
     7
  2
*HATCH211
 10
215.342636108398
 20
57.7329597473145
 30
0.0
 41
0.400000005960464
 42
0.400000005960464
 43
0.400000005960464
  0
LINE
  5
   2FB
  8
0
  6
CONTINUOUS
 62
     7
 10
222.542636978624
 20
35.772959420085
 30
0.0
 11
224.542636626959
 21
35.772959420085
 31
0.0
  0
LINE
  5
   2FC
  8
0
  6
CONTINUOUS
 62
     7
 10
222.542636978624
 20
32.4929593712091
 30
0.0
 11
224.542636626959
 21
32.4929593712091
 31
0.0
  0
INSERT
  5
   2FD
  8
0
  6
CONTINUOUS
 62
     7
  2
*HATCH212
 10
215.342636108398
 20
57.7329597473145
 30
0.0
 41
0.400000005960464
 42
0.400000005960464
 43
0.400000005960464
  0
INSERT
  5
   2FE
  8
0
  6
CONTINUOUS
 62
     7
  2
*HATCH213
 10
215.342636108398
 20
57.7329597473145
 30
0.0
 41
0.400000005960464
 42
0.400000005960464
 43
0.400000005960464
  0
INSERT
  5
   2FF
  8
0
  6
CONTINUOUS
 62
     7
  2
*HATCH214
 10
215.342636108398
 20
57.7329597473145
 30
0.0
 41
0.400000005960464
 42
0.400000005960464
 43
0.400000005960464
  0
ARC
  5
   300
  8
0
  6
DASHDOT
 62
     7
 10
238.142956366327
 20
57.7329597473145
 30
0.0
 40
30.4177082930624
 50
337.492314756863
 51
360.0
  0
LINE
  5
   301
  8
0
  6
DASHDOT
 62
     7
 10
268.56066465939
 20
57.7329597473144
 30
0.0
 11
268.56066465939
 21
60.0330396354833
 31
0.0
  0
LINE
  5
   302
  8
0
  6
CONTINUOUS
 62
     7
 10
222.542636978626
 20
127.012960779667
 30
0.0
 11
224.142637002468
 21
127.012960779667
 31
0.0
  0
LINE
  5
   303
  8
0
  6
CONTINUOUS
 62
     7
 10
222.542636978626
 20
123.652960729599
 30
0.0
 11
224.142637002468
 21
123.652960729599
 31
0.0
  0
LINE
  5
   304
  8
0
  6
CONTINUOUS
 62
     1
 10
257.343104883021
 20
39.8329594805837
 30
0.0
 11
257.343104883021
 21
40.6329594925046
 31
0.0
  0
LINE
  5
   305
  8
0
  6
CONTINUOUS
 62
     1
 10
257.343104883021
 20
39.8329594805837
 30
0.0
 11
258.143104894942
 21
39.8329594805837
 31
0.0
  0
LINE
  5
   306
  8
0
  6
CONTINUOUS
 62
     1
 10
257.343104883021
 20
83.0329585984349
 30
0.0
 11
257.343104883021
 21
83.8329586103558
 31
0.0
  0
LINE
  5
   307
  8
0
  6
CONTINUOUS
 62
     1
 10
257.343104883021
 20
83.8329586103558
 30
0.0
 11
258.143104894942
 21
83.8329586103558
 31
0.0
  0
LINE
  5
   308
  8
0
  6
CONTINUOUS
 62
     1
 10
257.343104883021
 20
40.6329594925046
 30
0.0
 11
257.343104883021
 21
83.0329601243138
 31
0.0
  0
LINE
  5
   309
  8
0
  6
CONTINUOUS
 62
     1
 10
255.543104927724
 20
89.2638974119862
 30
0.0
 11
255.543104927724
 21
91.2020199994603
 31
0.0
  0
LINE
  5
   30A
  8
0
  6
CONTINUOUS
 62
     1
 10
255.543104927724
 20
32.4638996173582
 30
0.0
 11
255.543104927724
 21
34.4020191530743
 31
0.0
  0
LINE
  5
   30B
  8
0
  6
CONTINUOUS
 62
     1
 10
258.143104894942
 20
29.6329593285918
 30
0.0
 11
258.143104894942
 21
94.0329602882266
 31
0.0
  0
LINE
  5
   30C
  8
0
  6
CONTINUOUS
 62
     1
 10
259.543104915803
 20
29.6329593285918
 30
0.0
 11
259.543104915803
 21
94.0329602882266
 31
0.0
  0
LINE
  5
   30D
  8
0
  6
CONTINUOUS
 62
     1
 10
255.94310490124
 20
89.0329586878419
 30
0.0
 11
258.143104894942
 21
89.0329586878419
 31
0.0
  0
LINE
  5
   30E
  8
0
  6
CONTINUOUS
 62
     1
 10
255.943104947768
 20
91.4329587236047
 30
0.0
 11
258.143104894942
 21
91.4329587236047
 31
0.0
  0
LINE
  5
   30F
  8
0
  6
CONTINUOUS
 62
     1
 10
255.543105232162
 20
89.2638964960571
 30
0.0
 11
255.943105251293
 21
89.0329577690173
 31
0.0
  0
LINE
  5
   310
  8
0
  6
CONTINUOUS
 62
     1
 10
255.94310482526
 20
89.0329586878419
 30
0.0
 11
255.94310482526
 21
89.1243039040468
 31
0.0
  0
LINE
  5
   311
  8
0
  6
CONTINUOUS
 62
     1
 10
255.94310490124
 20
89.0329586878419
 30
0.0
 11
255.94310490124
 21
89.3844296403448
 31
0.0
  0
LINE
  5
   312
  8
0
  6
CONTINUOUS
 62
     1
 10
255.943104919085
 20
89.3844296403448
 30
0.0
 11
255.943104919085
 21
89.7737423902867
 31
0.0
  0
LINE
  5
   313
  8
0
  6
CONTINUOUS
 62
     1
 10
255.943104929004
 20
89.7737423902867
 30
0.0
 11
255.943104929004
 21
90.2329587057233
 31
0.0
  0
LINE
  5
   314
  8
0
  6
CONTINUOUS
 62
     1
 10
255.943104937722
 20
90.2329587057233
 30
0.0
 11
255.943104937722
 21
90.6921811246756
 31
0.0
  0
LINE
  5
   315
  8
0
  6
CONTINUOUS
 62
     1
 10
255.943104947768
 20
90.6921811246756
 30
0.0
 11
255.943104947768
 21
91.4329587236047
 31
0.0
  0
LINE
  5
   316
  8
0
  6
CONTINUOUS
 62
     1
 10
255.943104966036
 20
91.0814877711017
 30
0.0
 11
255.943104966036
 21
91.3416135073997
 31
0.0
  0
LINE
  5
   317
  8
0
  6
CONTINUOUS
 62
     1
 10
255.543104584852
 20
91.202019046765
 30
0.0
 11
255.943104603983
 21
91.4329577738049
 31
0.0
  0
LINE
  5
   318
  8
0
  6
CONTINUOUS
 62
     1
 10
255.943105044379
 20
91.3416135073997
 30
0.0
 11
255.943105044379
 21
91.4329587236046
 31
0.0
  0
LINE
  5
   319
  8
0
  6
CONTINUOUS
 62
     1
 10
255.943105735047
 20
34.6329594030976
 30
0.0
 11
258.143104894942
 21
34.6329594030976
 31
0.0
  0
LINE
  5
   31A
  8
0
  6
CONTINUOUS
 62
     1
 10
255.943104261624
 20
32.2329593673348
 30
0.0
 11
258.143104894942
 21
32.2329593673348
 31
0.0
  0
LINE
  5
   31B
  8
0
  6
CONTINUOUS
 62
     1
 10
255.943104971742
 20
34.5416141868927
 30
0.0
 11
255.943104971742
 21
34.6329594030976
 31
0.0
  0
LINE
  5
   31C
  8
0
  6
CONTINUOUS
 62
     1
 10
255.543104723662
 20
34.4020185929736
 30
0.0
 11
255.943104742794
 21
34.6329588302201
 31
0.0
  0
LINE
  5
   31D
  8
0
  6
CONTINUOUS
 62
     1
 10
255.943104953931
 20
34.2814869247157
 30
0.0
 11
255.943104953931
 21
34.5416141868927
 31
0.0
  0
LINE
  5
   31E
  8
0
  6
CONTINUOUS
 62
     1
 10
255.943104949903
 20
33.8921802782896
 30
0.0
 11
255.943104949903
 21
34.2814869247157
 31
0.0
  0
LINE
  5
   31F
  8
0
  6
CONTINUOUS
 62
     1
 10
255.943104947653
 20
33.4329593852162
 30
0.0
 11
255.943104947653
 21
33.8921802782896
 31
0.0
  0
LINE
  5
   320
  8
0
  6
CONTINUOUS
 62
     1
 10
255.943104945726
 20
32.9737400180218
 30
0.0
 11
255.943104945726
 21
33.4329593852162
 31
0.0
  0
LINE
  5
   321
  8
0
  6
CONTINUOUS
 62
     1
 10
255.943104943665
 20
32.5844318457167
 30
0.0
 11
255.943104943665
 21
32.9737400180218
 31
0.0
  0
LINE
  5
   322
  8
0
  6
CONTINUOUS
 62
     1
 10
255.943104939977
 20
32.3243045835397
 30
0.0
 11
255.943104939977
 21
32.5844318457167
 31
0.0
  0
LINE
  5
   323
  8
0
  6
CONTINUOUS
 62
     1
 10
255.943104924548
 20
32.2329593673349
 30
0.0
 11
255.943104924548
 21
32.3243045835398
 31
0.0
  0
LINE
  5
   324
  8
0
  6
CONTINUOUS
 62
     1
 10
255.543105092928
 20
32.4638991135817
 30
0.0
 11
255.94310511206
 21
32.2329588763352
 31
0.0
  0
LINE
  5
   325
  8
0
  6
CONTINUOUS
 62
     7
 10
258.143104894942
 20
94.0329602882266
 30
0.0
 11
258.143104894942
 21
139.230707740182
 31
0.0
  0
LINE
  5
   326
  8
0
  6
CONTINUOUS
 62
     7
 10
257.343104883021
 20
83.0329601243138
 30
0.0
 11
257.343104883021
 21
89.0329586878419
 31
0.0
  0
LINE
  5
   327
  8
0
  6
CONTINUOUS
 62
     7
 10
258.143104894942
 20
11.2438105613945
 30
0.0
 11
258.143104894942
 21
29.6329593285918
 31
0.0
  0
LINE
  5
   328
  8
0
  6
CONTINUOUS
 62
     7
 10
257.343104883021
 20
10.6681096182365
 30
0.0
 11
257.343104883021
 21
32.2329593673348
 31
0.0
  0
LINE
  5
   329
  8
0
  6
CONTINUOUS
 62
     3
 10
255.835040098312
 20
9.58286673578226
 30
0.0
 11
259.724608370485
 21
12.381901847533
 31
0.0
  0
LINE
  5
   32A
  8
0
  6
CONTINUOUS
 62
     7
 10
257.343104883021
 20
91.6329587265849
 30
0.0
 11
258.143104894942
 21
91.6329587265849
 31
0.0
  0
LINE
  5
   32B
  8
0
  6
CONTINUOUS
 62
     7
 10
257.343104883021
 20
88.8329586848616
 30
0.0
 11
258.143104894942
 21
88.8329586848616
 31
0.0
  0
LINE
  5
   32C
  8
0
  6
CONTINUOUS
 62
     7
 10
257.343104883021
 20
84.2329586163163
 30
0.0
 11
258.143104894942
 21
84.2329586163163
 31
0.0
  0
LINE
  5
   32D
  8
0
  6
CONTINUOUS
 62
     7
 10
257.343104883021
 20
39.4329594746232
 30
0.0
 11
258.143104894942
 21
39.4329594746232
 31
0.0
  0
LINE
  5
   32E
  8
0
  6
CONTINUOUS
 62
     7
 10
257.343104883021
 20
34.8329594060779
 30
0.0
 11
258.143104894942
 21
34.8329594060779
 31
0.0
  0
LINE
  5
   32F
  8
0
  6
CONTINUOUS
 62
     7
 10
257.343104883021
 20
32.0329593643546
 30
0.0
 11
258.143104894942
 21
32.0329593643546
 31
0.0
  0
LINE
  5
   330
  8
0
  6
CONTINUOUS
 62
     7
 10
257.343104883021
 20
34.6329594030976
 30
0.0
 11
257.343104883021
 21
39.8329594805837
 31
0.0
  0
LINE
  5
   331
  8
0
  6
CONTINUOUS
 62
     7
 10
257.343104883021
 20
91.4329587236047
 30
0.0
 11
257.343104883021
 21
139.307866304508
 31
0.0
  0
INSERT
  5
   332
  8
0
  6
CONTINUOUS
 62
     7
  2
*HATCH215
 10
215.342636108398
 20
57.7329597473145
 30
0.0
 41
0.400000005960464
 42
0.400000005960464
 43
0.400000005960464
  0
INSERT
  5
   333
  8
0
  6
CONTINUOUS
 62
     7
  2
*HATCH216
 10
215.342636108398
 20
57.7329597473145
 30
0.0
 41
0.400000005960464
 42
0.400000005960464
 43
0.400000005960464
  0
INSERT
  5
   334
  8
0
  6
CONTINUOUS
 62
     7
  2
*HATCH217
 10
215.342636108398
 20
57.7329597473145
 30
0.0
 41
0.400000005960464
 42
0.400000005960464
 43
0.400000005960464
  0
LINE
  5
   335
  8
0
  6
DASHDOT
 62
     7
 10
206.27115679509
 20
61.8329598084092
 30
0.0
 11
271.025297065586
 21
61.8329598084092
 31
0.0
  0
LINE
  5
   336
  8
0
  6
CONTINUOUS
 62
     3
 10
234.081517503628
 20
39.326242184811
 30
0.0
 11
235.504548024237
 21
27.5625232144418
 31
0.0
  0
INSERT
  5
   337
  8
0
  6
CONTINUOUS
 62
     7
  2
*HATCH218
 10
215.342636108398
 20
57.7329597473145
 30
0.0
 41
0.400000005960464
 42
0.400000005960464
 43
0.400000005960464
  0
LINE
  5
   338
  8
0
  6
CONTINUOUS
 62
     7
 10
215.342636871338
 20
28.7329642824022
 30
0.0
 11
215.942636880277
 21
28.7329642824022
 31
0.0
  0
LINE
  5
   339
  8
0
  6
CONTINUOUS
 62
     3
 10
241.056184804292
 20
121.943126349019
 30
0.0
 11
241.596664862415
 21
131.953756990771
 31
0.0
  0
LINE
  5
   33A
  8
0
  6
CONTINUOUS
 62
     3
 10
215.074268948045
 20
121.0363211867
 30
0.0
 11
229.536042063153
 21
121.0363211867
 31
0.0
  0
LINE
  5
   33B
  8
0
  6
CONTINUOUS
 62
     3
 10
229.536042063153
 20
121.0363211867
 30
0.0
 11
229.536042063153
 21
121.943126349019
 31
0.0
  0
LINE
  5
   33C
  8
0
  6
CONTINUOUS
 62
     7
 10
224.542636626959
 20
30.5329643092242
 30
0.0
 11
224.542636626959
 21
32.5329593718052
 31
0.0
  0
LINE
  5
   33D
  8
0
  6
CONTINUOUS
 62
     2
 10
226.942637044191
 20
121.332960695028
 30
0.0
 11
226.942637044191
 21
143.732961028814
 31
0.0
  0
LINE
  5
   33E
  8
0
  6
CONTINUOUS
 62
     2
 10
224.542637008429
 20
121.332959969586
 30
0.0
 11
224.542637008429
 21
123.732960730791
 31
0.0
  0
LINE
  5
   33F
  8
0
  6
DASHDOT
 62
     7
 10
220.411825656487
 20
138.732960954309
 30
0.0
 11
228.778187487911
 21
138.732960954309
 31
0.0
  0
LINE
  5
   340
  8
0
  6
CONTINUOUS
 62
     2
 10
224.542637008429
 20
143.732961028814
 30
0.0
 11
226.942637044191
 21
143.732961028814
 31
0.0
  0
LINE
  5
   341
  8
0
  6
CONTINUOUS
 62
     2
 10
224.542637008429
 20
140.432960979641
 30
0.0
 11
226.942637044191
 21
140.432960979641
 31
0.0
  0
LINE
  5
   342
  8
0
  6
CONTINUOUS
 62
     2
 10
224.542637008429
 20
137.032960928977
 30
0.0
 11
226.942637044191
 21
137.032960928977
 31
0.0
  0
LINE
  5
   343
  8
0
  6
CONTINUOUS
 62
     2
 10
224.142637002468
 20
127.032960779965
 30
0.0
 11
226.942637044191
 21
127.032960779965
 31
0.0
  0
LINE
  5
   344
  8
0
  6
CONTINUOUS
 62
     2
 10
224.542637008429
 20
123.632960729301
 30
0.0
 11
226.942637044191
 21
123.632960729301
 31
0.0
  0
LINE
  5
   345
  8
0
  6
CONTINUOUS
 62
     7
 10
222.542636978626
 20
127.932960602641
 30
0.0
 11
222.542636978626
 21
128.932960808277
 31
0.0
  0
LINE
  5
   346
  8
0
  6
CONTINUOUS
 62
     2
 10
223.342636990547
 20
130.732960293407
 30
0.0
 11
223.342636990547
 21
131.332960302348
 31
0.0
  0
LINE
  5
   347
  8
0
  6
CONTINUOUS
 62
     2
 10
222.142636972666
 20
130.732960293369
 30
0.0
 11
223.342636990547
 21
130.732960293369
 31
0.0
  0
LINE
  5
   348
  8
0
  6
CONTINUOUS
 62
     2
 10
222.142636972666
 20
131.732960277796
 30
0.0
 11
222.942636984587
 21
131.732960277796
 31
0.0
  0
LINE
  5
   349
  8
0
  6
CONTINUOUS
 62
     2
 10
215.942636880279
 20
121.332959932089
 30
0.0
 11
216.542636889219
 21
121.332959932089
 31
0.0
  0
LINE
  5
   34A
  8
0
  6
CONTINUOUS
 62
     2
 10
215.942636880279
 20
131.732960277796
 30
0.0
 11
222.142636972666
 21
131.732960277796
 31
0.0
  0
LINE
  5
   34B
  8
0
  6
CONTINUOUS
 62
     2
 10
215.942636880279
 20
121.332960122824
 30
0.0
 11
215.942636880279
 21
131.732960277796
 31
0.0
  0
LINE
  5
   34C
  8
0
  6
CONTINUOUS
 62
     2
 10
222.142636972666
 20
130.732960293394
 30
0.0
 11
222.142636972666
 21
131.732960308295
 31
0.0
  0
LINE
  5
   34D
  8
0
  6
CONTINUOUS
 62
     2
 10
221.908322241391
 20
129.452960320115
 30
0.0
 11
222.142636972666
 21
129.452960320115
 31
0.0
  0
LINE
  5
   34E
  8
0
  6
CONTINUOUS
 62
     2
 10
222.142636972666
 20
128.732960614562
 30
0.0
 11
222.142636972666
 21
130.732960262895
 31
0.0
  0
LINE
  5
   34F
  8
0
  6
CONTINUOUS
 62
     2
 10
221.475402923417
 20
129.612960265279
 30
0.0
 11
221.748322391595
 21
129.612960265279
 31
0.0
  0
LINE
  5
   350
  8
0
  6
CONTINUOUS
 62
     2
 10
221.748322670415
 20
129.612960127827
 30
0.0
 11
221.908322518966
 21
129.452960184868
 31
0.0
  0
LINE
  5
   351
  8
0
  6
CONTINUOUS
 62
     2
 10
216.54263690564
 20
121.332960053532
 30
0.0
 11
222.142636939131
 21
130.732959969996
 31
0.0
  0
LINE
  5
   352
  8
0
  6
CONTINUOUS
 62
     2
 10
222.342636975646
 20
121.932960703969
 30
0.0
 11
222.342636975646
 21
128.732960805297
 31
0.0
  0
LINE
  5
   353
  8
0
  6
CONTINUOUS
 62
     2
 10
222.942637272461
 20
131.732960215214
 30
0.0
 11
223.34263726473
 21
131.332960256663
 31
0.0
  0
LINE
  5
   354
  8
0
  6
CONTINUOUS
 62
   210
 10
222.542636978626
 20
122.73296071589
 30
0.0
 11
222.542636978626
 21
127.932960793376
 31
0.0
  0
LINE
  5
   355
  8
0
  6
CONTINUOUS
 62
     1
 10
255.142637464404
 20
132.132965823182
 30
0.0
 11
255.142637464404
 21
132.932965835103
 31
0.0
  0
LINE
  5
   356
  8
0
  6
CONTINUOUS
 62
     1
 10
214.742637231946
 20
132.932960486412
 30
0.0
 11
224.542637008429
 21
132.932960486412
 31
0.0
  0
LINE
  5
   357
  8
0
  6
CONTINUOUS
 62
     1
 10
214.742637231946
 20
132.132960474491
 30
0.0
 11
214.742637231946
 21
132.932960486412
 31
0.0
  0
LINE
  5
   358
  8
0
  6
CONTINUOUS
 62
     1
 10
215.142637249827
 20
131.732960468531
 30
0.0
 11
215.942636880279
 21
131.732960468531
 31
0.0
  0
LINE
  5
   359
  8
0
  6
CONTINUOUS
 62
     1
 10
222.942636984587
 20
131.732960468531
 30
0.0
 11
224.542637008429
 21
131.732960468531
 31
0.0
  0
LINE
  5
   35A
  8
0
  6
CONTINUOUS
 62
     1
 10
214.742637231946
 20
132.932960486412
 30
0.0
 11
214.742637231946
 21
164.932960963249
 31
0.0
  0
LINE
  5
   35B
  8
0
  6
CONTINUOUS
 62
     1
 10
255.142637464404
 20
132.932965835103
 30
0.0
 11
255.142637464404
 21
164.93296631194
 31
0.0
  0
LINE
  5
   35C
  8
0
  6
CONTINUOUS
 62
     1
 10
254.742636951861
 20
131.732965625542
 30
0.0
 11
255.14263694413
 21
132.132965617811
 31
0.0
  0
LINE
  5
   35D
  8
0
  6
CONTINUOUS
 62
     1
 10
214.74263724906
 20
132.13296043684
 30
0.0
 11
215.142637241329
 21
131.732960444571
 31
0.0
  0
LINE
  5
   35E
  8
0
  6
CONTINUOUS
 62
     2
 10
215.942636880279
 20
131.332960319519
 30
0.0
 11
222.142636972666
 21
131.332960319519
 31
0.0
  0
LINE
  5
   35F
  8
0
  6
CONTINUOUS
 62
     2
 10
215.942636880279
 20
121.732959938049
 30
0.0
 11
216.780934736703
 21
121.732959938049
 31
0.0
  0
LINE
  5
   360
  8
0
  6
CONTINUOUS
 62
     2
 10
216.900084137283
 20
121.932960703969
 30
0.0
 11
222.342637166381
 21
121.932960703969
 31
0.0
  0
LINE
  5
   361
  8
0
  6
CONTINUOUS
 62
     2
 10
220.951147544511
 20
128.732960614562
 30
0.0
 11
222.342636975646
 21
128.732960614562
 31
0.0
  0
LINE
  5
   362
  8
0
  6
CONTINUOUS
 62
   210
 10
222.342636975646
 20
127.932960602641
 30
0.0
 11
222.542636978626
 21
127.932960602641
 31
0.0
  0
LINE
  5
   363
  8
0
  6
CONTINUOUS
 62
   210
 10
222.342636975646
 20
122.73296071589
 30
0.0
 11
222.542636978626
 21
122.73296071589
 31
0.0
  0
LINE
  5
   364
  8
0
  6
CONTINUOUS
 62
     1
 10
214.742637231946
 20
164.932960963249
 30
0.0
 11
255.142637464404
 21
164.932960963249
 31
0.0
  0
INSERT
  5
   365
  8
0
  6
CONTINUOUS
 62
     2
  2
*HATCH219
 10
215.342636108398
 20
57.7329597473145
 30
0.0
 41
0.400000005960464
 42
0.400000005960464
 43
0.400000005960464
  0
INSERT
  5
   366
  8
0
  6
CONTINUOUS
 62
     2
  2
*HATCH220
 10
215.342636108398
 20
57.7329597473145
 30
0.0
 41
0.400000005960464
 42
0.400000005960464
 43
0.400000005960464
  0
INSERT
  5
   367
  8
0
  6
CONTINUOUS
 62
     2
  2
*HATCH221
 10
215.342636108398
 20
57.7329597473145
 30
0.0
 41
0.400000005960464
 42
0.400000005960464
 43
0.400000005960464
  0
INSERT
  5
   368
  8
0
  6
CONTINUOUS
 62
     2
  2
*HATCH222
 10
215.342636108398
 20
57.7329597473145
 30
0.0
 41
0.400000005960464
 42
0.400000005960464
 43
0.400000005960464
  0
LINE
  5
   369
  8
0
  6
CONTINUOUS
 62
     1
 10
226.942637044191
 20
132.932960486412
 30
0.0
 11
255.142637464404
 21
132.932960486412
 31
0.0
  0
LINE
  5
   36A
  8
0
  6
CONTINUOUS
 62
     1
 10
226.942637044191
 20
131.732960468531
 30
0.0
 11
254.74263179485
 21
131.732960468531
 31
0.0
  0
LINE
  5
   36B
  8
0
  6
CONTINUOUS
 62
     7
 10
227.342637050152
 20
121.732960700989
 30
0.0
 11
227.342637050152
 21
128.932960808277
 31
0.0
  0
LINE
  5
   36C
  8
0
  6
CONTINUOUS
 62
     7
 10
226.942637044191
 20
128.932960808277
 30
0.0
 11
227.342637050152
 21
128.932960808277
 31
0.0
  0
LINE
  5
   36D
  8
0
  6
CONTINUOUS
 62
     7
 10
226.942637044191
 20
121.732960700989
 30
0.0
 11
227.342637050152
 21
121.732960700989
 31
0.0
  0
LINE
  5
   36E
  8
0
  6
CONTINUOUS
 62
     2
 10
224.542637008429
 20
126.932960778475
 30
0.0
 11
224.542637008429
 21
143.732961028814
 31
0.0
  0
LINE
  5
   36F
  8
0
  6
CONTINUOUS
 62
     2
 10
223.342636990545
 20
28.132959847932
 30
0.0
 11
223.342636990545
 21
28.7329598568727
 31
0.0
  0
LINE
  5
   370
  8
0
  6
CONTINUOUS
 62
     2
 10
222.142636972664
 20
28.7329598569109
 30
0.0
 11
223.342636990545
 21
28.7329598569109
 31
0.0
  0
LINE
  5
   371
  8
0
  6
CONTINUOUS
 62
     2
 10
222.142636972664
 20
27.7329598724842
 30
0.0
 11
222.942636984585
 21
27.7329598724842
 31
0.0
  0
LINE
  5
   372
  8
0
  6
CONTINUOUS
 62
     2
 10
215.942636880277
 20
38.1329602181912
 30
0.0
 11
216.542636889217
 21
38.1329602181912
 31
0.0
  0
LINE
  5
   373
  8
0
  6
CONTINUOUS
 62
     2
 10
215.942636880277
 20
27.7329598724842
 30
0.0
 11
222.142636972664
 21
27.7329598724842
 31
0.0
  0
LINE
  5
   374
  8
0
  6
CONTINUOUS
 62
     2
 10
215.942636880277
 20
27.7329598724842
 30
0.0
 11
215.942636880277
 21
38.1329600274563
 31
0.0
  0
LINE
  5
   375
  8
0
  6
CONTINUOUS
 62
     2
 10
222.142636972664
 20
27.7329598419847
 30
0.0
 11
222.142636972664
 21
28.7329598568859
 31
0.0
  0
LINE
  5
   376
  8
0
  6
CONTINUOUS
 62
     2
 10
221.908322241389
 20
30.0129598301649
 30
0.0
 11
222.142636972664
 21
30.0129598301649
 31
0.0
  0
LINE
  5
   377
  8
0
  6
CONTINUOUS
 62
     2
 10
222.142636972664
 20
28.7329598873854
 30
0.0
 11
222.142636972664
 21
30.732959535718
 31
0.0
  0
LINE
  5
   378
  8
0
  6
CONTINUOUS
 62
     2
 10
221.475402923415
 20
29.8529598850012
 30
0.0
 11
221.748322391593
 21
29.8529598850012
 31
0.0
  0
LINE
  5
   379
  8
0
  6
CONTINUOUS
 62
     2
 10
221.748322670413
 20
29.8529600224526
 30
0.0
 11
221.908322518964
 21
30.0129599654123
 31
0.0
  0
LINE
  5
   37A
  8
0
  6
CONTINUOUS
 62
     2
 10
216.542636905638
 20
38.1329600967479
 30
0.0
 11
222.142636939129
 21
28.7329601802837
 31
0.0
  0
LINE
  5
   37B
  8
0
  6
CONTINUOUS
 62
     2
 10
222.342636975644
 20
30.7329593449831
 30
0.0
 11
222.342636975644
 21
37.532959446311
 31
0.0
  0
LINE
  5
   37C
  8
0
  6
CONTINUOUS
 62
     2
 10
222.942637272459
 20
27.7329599350657
 30
0.0
 11
223.342637264728
 21
28.1329598936173
 31
0.0
  0
LINE
  5
   37D
  8
0
  6
CONTINUOUS
 62
   210
 10
222.542636978624
 20
31.532959356904
 30
0.0
 11
222.542636978624
 21
36.7329594343901
 31
0.0
  0
LINE
  5
   37E
  8
0
  6
CONTINUOUS
 62
     2
 10
215.942636880277
 20
28.132959830761
 30
0.0
 11
222.142636972664
 21
28.132959830761
 31
0.0
  0
LINE
  5
   37F
  8
0
  6
CONTINUOUS
 62
     2
 10
215.942636880277
 20
37.7329602122307
 30
0.0
 11
216.780934736701
 21
37.7329602122307
 31
0.0
  0
LINE
  5
   380
  8
0
  6
CONTINUOUS
 62
     2
 10
216.900084137281
 20
37.532959446311
 30
0.0
 11
222.342637166379
 21
37.532959446311
 31
0.0
  0
LINE
  5
   381
  8
0
  6
CONTINUOUS
 62
     2
 10
220.951147544509
 20
30.732959535718
 30
0.0
 11
222.342636975644
 21
30.732959535718
 31
0.0
  0
LINE
  5
   382
  8
0
  6
CONTINUOUS
 62
   210
 10
222.342636975644
 20
31.5329595476389
 30
0.0
 11
222.542636978624
 21
31.5329595476389
 31
0.0
  0
LINE
  5
   383
  8
0
  6
CONTINUOUS
 62
   210
 10
222.342636975644
 20
36.7329594343901
 30
0.0
 11
222.542636978624
 21
36.7329594343901
 31
0.0
  0
LINE
  5
   384
  8
0
  6
CONTINUOUS
 62
     7
 10
222.142636972664
 20
28.7329642824022
 30
0.0
 11
244.142637300491
 21
28.7329642824022
 31
0.0
  0
LINE
  5
   385
  8
0
  6
CONTINUOUS
 62
     7
 10
226.542637038231
 20
30.5329593420029
 30
0.0
 11
226.942637044191
 21
30.5329593420029
 31
0.0
  0
LINE
  5
   386
  8
0
  6
CONTINUOUS
 62
     7
 10
226.942637044191
 20
30.5329593420029
 30
0.0
 11
226.942637044191
 21
37.7329594492912
 31
0.0
  0
LINE
  5
   387
  8
0
  6
CONTINUOUS
 62
     7
 10
226.542637038231
 20
37.7329594492912
 30
0.0
 11
226.942637044191
 21
37.7329594492912
 31
0.0
  0
LINE
  5
   388
  8
0
  6
CONTINUOUS
 62
     7
 10
226.542637038231
 20
30.5329593420029
 30
0.0
 11
226.542637038231
 21
37.7329594492912
 31
0.0
  0
LINE
  5
   389
  8
0
  6
CONTINUOUS
 62
     7
 10
224.542636626959
 20
35.7329594194889
 30
0.0
 11
224.542636626959
 21
38.9329644343939
 31
0.0
  0
LINE
  5
   38A
  8
0
  6
CONTINUOUS
 62
     7
 10
223.742636615038
 20
35.7329594194889
 30
0.0
 11
223.742636615038
 21
39.326242184811
 31
0.0
  0
LINE
  5
   38B
  8
0
  6
CONTINUOUS
 62
     1
 10
227.102637046576
 20
31.2569593527913
 30
0.0
 11
227.102637046576
 21
37.0089594385028
 31
0.0
  0
ARC
  5
   38C
  8
0
  6
CONTINUOUS
 62
     1
 10
228.044102812249
 20
31.9759593635052
 30
0.0
 40
1.09853426472474
 50
319.1176078909
 51
400.8823921091
  0
ARC
  5
   38D
  8
0
  6
CONTINUOUS
 62
     1
 10
228.044102812249
 20
36.2899594277889
 30
0.0
 40
1.09853426472474
 50
319.1176078909
 51
400.8823921091
  0
LINE
  5
   38E
  8
0
  6
CONTINUOUS
 62
     1
 10
227.102637046576
 20
32.6949593742192
 30
0.0
 11
228.895915278683
 21
32.6949593742192
 31
0.0
  0
ARC
  5
   38F
  8
0
  6
CONTINUOUS
 62
     1
 10
224.82863701269
 20
34.132959395647
 30
0.0
 40
4.31400006428361
 50
340.528779365509
 51
379.471220634491
  0
LINE
  5
   390
  8
0
  6
CONTINUOUS
 62
     1
 10
227.102637046576
 20
35.5709594170749
 30
0.0
 11
228.895915278683
 21
35.5709594170749
 31
0.0
  0
LINE
  5
   391
  8
0
  6
CONTINUOUS
 62
     1
 10
227.102637046576
 20
31.2569593527913
 30
0.0
 11
228.874654746428
 21
31.2569593527913
 31
0.0
  0
LINE
  5
   392
  8
0
  6
CONTINUOUS
 62
     1
 10
227.102637046576
 20
37.0089594385028
 30
0.0
 11
228.874654746428
 21
37.0089594385028
 31
0.0
  0
LINE
  5
   393
  8
0
  6
CONTINUOUS
 62
     1
 10
226.942637044191
 20
31.6929593592882
 30
0.0
 11
227.102637046576
 21
31.6929593592882
 31
0.0
  0
LINE
  5
   394
  8
0
  6
CONTINUOUS
 62
     1
 10
226.942637044191
 20
36.5729594320059
 30
0.0
 11
227.102637046576
 21
36.5729594320059
 31
0.0
  0
LINE
  5
   395
  8
0
  6
CONTINUOUS
 62
     7
 10
222.542636978624
 20
32.8396743763756
 30
0.0
 11
225.94263702929
 21
32.8396743763756
 31
0.0
  0
LINE
  5
   396
  8
0
  6
CONTINUOUS
 62
     7
 10
222.542636978624
 20
35.4262444149185
 30
0.0
 11
225.94263702929
 21
35.4262444149185
 31
0.0
  0
LINE
  5
   397
  8
0
  6
CONTINUOUS
 62
     1
 10
222.542636978624
 20
35.7329594194889
 30
0.0
 11
226.542637038231
 21
35.7329594194889
 31
0.0
  0
LINE
  5
   398
  8
0
  6
CONTINUOUS
 62
     1
 10
222.542636978624
 20
32.5329593718052
 30
0.0
 11
226.542637038231
 21
32.5329593718052
 31
0.0
  0
LINE
  5
   399
  8
0
  6
CONTINUOUS
 62
     1
 10
225.94263702929
 20
32.5329593718052
 30
0.0
 11
225.94263702929
 21
35.7329594194889
 31
0.0
  0
LINE
  5
   39A
  8
0
  6
CONTINUOUS
 62
     1
 10
226.942637044191
 20
31.6929593592882
 30
0.0
 11
226.942637044191
 21
36.5729594320059
 31
0.0
  0
LINE
  5
   39B
  8
0
  6
CONTINUOUS
 62
     1
 10
229.142637076974
 20
31.9759593635052
 30
0.0
 11
229.142637076974
 21
36.2899594277889
 31
0.0
  0
LINE
  5
   39C
  8
0
  6
DASHDOT
 62
     7
 10
221.342636960745
 20
34.132959395647
 30
0.0
 11
230.742637100816
 21
34.132959395647
 31
0.0
  0
LINE
  5
   39D
  8
0
  6
CONTINUOUS
 62
     1
 10
227.502637052536
 20
122.456960711777
 30
0.0
 11
227.502637052536
 21
128.208960797489
 31
0.0
  0
ARC
  5
   39E
  8
0
  6
CONTINUOUS
 62
     1
 10
228.44410281821
 20
123.175960722491
 30
0.0
 40
1.09853426472474
 50
319.1176078909
 51
400.8823921091
  0
ARC
  5
   39F
  8
0
  6
CONTINUOUS
 62
     1
 10
228.44410281821
 20
127.489960786775
 30
0.0
 40
1.09853426472474
 50
319.1176078909
 51
400.8823921091
  0
LINE
  5
   3A0
  8
0
  6
CONTINUOUS
 62
     1
 10
227.502637052536
 20
123.894960733205
 30
0.0
 11
229.295915284643
 21
123.894960733205
 31
0.0
  0
ARC
  5
   3A1
  8
0
  6
CONTINUOUS
 62
     1
 10
225.228637018651
 20
125.332960754633
 30
0.0
 40
4.31400006428361
 50
340.528779365509
 51
379.471220634491
  0
LINE
  5
   3A2
  8
0
  6
CONTINUOUS
 62
     1
 10
227.502637052536
 20
126.770960776061
 30
0.0
 11
229.295915284643
 21
126.770960776061
 31
0.0
  0
LINE
  5
   3A3
  8
0
  6
CONTINUOUS
 62
     1
 10
227.502637052536
 20
122.456960711777
 30
0.0
 11
229.274654752388
 21
122.456960711777
 31
0.0
  0
LINE
  5
   3A4
  8
0
  6
CONTINUOUS
 62
     1
 10
227.502637052536
 20
128.208960797489
 30
0.0
 11
229.274654752388
 21
128.208960797489
 31
0.0
  0
LINE
  5
   3A5
  8
0
  6
CONTINUOUS
 62
     1
 10
227.342637050152
 20
122.892960718274
 30
0.0
 11
227.502637052536
 21
122.892960718274
 31
0.0
  0
LINE
  5
   3A6
  8
0
  6
CONTINUOUS
 62
     1
 10
227.342637050152
 20
127.772960790992
 30
0.0
 11
227.502637052536
 21
127.772960790992
 31
0.0
  0
LINE
  5
   3A7
  8
0
  6
CONTINUOUS
 62
     7
 10
222.542636978626
 20
124.039675735361
 30
0.0
 11
225.94263702929
 21
124.039675735361
 31
0.0
  0
LINE
  5
   3A8
  8
0
  6
CONTINUOUS
 62
     7
 10
222.542636978626
 20
126.626245773904
 30
0.0
 11
225.94263702929
 21
126.626245773904
 31
0.0
  0
LINE
  5
   3A9
  8
0
  6
CONTINUOUS
 62
     1
 10
222.542636978626
 20
126.932960778475
 30
0.0
 11
226.942637044191
 21
126.932960778475
 31
0.0
  0
LINE
  5
   3AA
  8
0
  6
CONTINUOUS
 62
     1
 10
222.542636978626
 20
123.732960730791
 30
0.0
 11
226.942637044191
 21
123.732960730791
 31
0.0
  0
LINE
  5
   3AB
  8
0
  6
CONTINUOUS
 62
     1
 10
225.94263702929
 20
123.732960730791
 30
0.0
 11
225.94263702929
 21
126.932960778475
 31
0.0
  0
LINE
  5
   3AC
  8
0
  6
CONTINUOUS
 62
     1
 10
227.342637050152
 20
122.892960718274
 30
0.0
 11
227.342637050152
 21
127.772960790992
 31
0.0
  0
LINE
  5
   3AD
  8
0
  6
CONTINUOUS
 62
     1
 10
229.542637082934
 20
123.175960722491
 30
0.0
 11
229.542637082934
 21
127.489960786775
 31
0.0
  0
LINE
  5
   3AE
  8
0
  6
DASHDOT
 62
     7
 10
221.342636960745
 20
125.332960754633
 30
0.0
 11
230.742637100816
 21
125.332960754633
 31
0.0
  0
LINE
  5
   3AF
  8
0
  6
CONTINUOUS
 62
     2
 10
224.142637002468
 20
126.932960778475
 30
0.0
 11
224.142637002468
 21
128.932960808277
 31
0.0
  0
LINE
  5
   3B0
  8
0
  6
CONTINUOUS
 62
     2
 10
224.142637002468
 20
121.332960695028
 30
0.0
 11
224.142637002468
 21
123.732960730791
 31
0.0
  0
LINE
  5
   3B1
  8
0
  6
DASHDOT
 62
     7
 10
207.048731356575
 20
124.532960742712
 30
0.0
 11
216.432853809109
 21
124.532960742712
 31
0.0
  0
LINE
  5
   3B2
  8
0
  6
CONTINUOUS
 62
     7
 10
211.742636817694
 20
122.93296071887
 30
0.0
 11
211.742636817694
 21
126.132960766554
 31
0.0
  0
LINE
  5
   3B3
  8
0
  6
CONTINUOUS
 62
     7
 10
211.742636817694
 20
122.93296071887
 30
0.0
 11
213.342636841536
 21
122.93296071887
 31
0.0
  0
LINE
  5
   3B4
  8
0
  6
CONTINUOUS
 62
     7
 10
211.742636817694
 20
126.132960766554
 30
0.0
 11
213.342636841536
 21
126.132960766554
 31
0.0
  0
LINE
  5
   3B5
  8
0
  6
CONTINUOUS
 62
     7
 10
210.142636793852
 20
123.532960727811
 30
0.0
 11
210.142636793852
 21
125.532960757613
 31
0.0
  0
LINE
  5
   3B6
  8
0
  6
CONTINUOUS
 62
     7
 10
210.142636793852
 20
125.532960757613
 30
0.0
 11
213.342636841536
 21
125.532960757613
 31
0.0
  0
LINE
  5
   3B7
  8
0
  6
CONTINUOUS
 62
     7
 10
210.142636793852
 20
123.532960727811
 30
0.0
 11
213.342636841536
 21
123.532960727811
 31
0.0
  0
LINE
  5
   3B8
  8
0
  6
CONTINUOUS
 62
     7
 10
211.742636817694
 20
36.5329594314098
 30
0.0
 11
213.342636841536
 21
36.5329594314098
 31
0.0
  0
LINE
  5
   3B9
  8
0
  6
CONTINUOUS
 62
     7
 10
210.142636793852
 20
35.9329594224691
 30
0.0
 11
213.342636841536
 21
35.9329594224691
 31
0.0
  0
LINE
  5
   3BA
  8
0
  6
DASHDOT
 62
     7
 10
207.048731356575
 20
34.932959407568
 30
0.0
 11
216.432853809109
 21
34.932959407568
 31
0.0
  0
LINE
  5
   3BB
  8
0
  6
CONTINUOUS
 62
     7
 10
210.142636793852
 20
33.9329593926668
 30
0.0
 11
213.342636841536
 21
33.9329593926668
 31
0.0
  0
LINE
  5
   3BC
  8
0
  6
CONTINUOUS
 62
     7
 10
211.742636817694
 20
33.3329593837261
 30
0.0
 11
213.342636841536
 21
33.3329593837261
 31
0.0
  0
LINE
  5
   3BD
  8
0
  6
CONTINUOUS
 62
     7
 10
211.742636817694
 20
33.3329593837261
 30
0.0
 11
211.742636817694
 21
36.5329594314098
 31
0.0
  0
LINE
  5
   3BE
  8
0
  6
CONTINUOUS
 62
     7
 10
210.142636793852
 20
33.9329593926668
 30
0.0
 11
210.142636793852
 21
35.9329594224691
 31
0.0
  0
LINE
  5
   3BF
  8
0
  6
CONTINUOUS
 62
     1
 10
258.143104894942
 20
94.0329602882266
 30
0.0
 11
259.543104915803
 21
94.0329602882266
 31
0.0
  0
LINE
  5
   3C0
  8
0
  6
CONTINUOUS
 62
     1
 10
258.143104894942
 20
29.6329593285918
 30
0.0
 11
259.543104915803
 21
29.6329593285918
 31
0.0
  0
LINE
  5
   3C1
  8
0
  6
CONTINUOUS
 62
     3
 10
229.536042063153
 20
121.943126349019
 30
0.0
 11
241.056184804292
 21
121.943126349019
 31
0.0
  0
INSERT
  5
   3C2
  8
0
  6
CONTINUOUS
 62
     7
  2
*HATCH223
 10
215.342636108398
 20
57.7329597473145
 30
0.0
 41
0.400000005960464
 42
0.400000005960464
 43
0.400000005960464
  0
INSERT
  5
   3C3
  8
0
  6
CONTINUOUS
 62
     7
  2
*HATCH224
 10
215.342636108398
 20
57.7329597473145
 30
0.0
 41
0.400000005960464
 42
0.400000005960464
 43
0.400000005960464
  0
LINE
  5
   3C4
  8
0
  6
CONTINUOUS
 62
     3
 10
255.02958090861
 20
139.531001536684
 30
0.0
 11
260.67427332971
 21
138.986581090701
 31
0.0
  0
INSERT
  5
   3C5
  8
0
  6
CONTINUOUS
 62
     7
  2
*HATCH225
 10
215.342636108398
 20
57.7329597473145
 30
0.0
 41
0.400000005960464
 42
0.400000005960464
 43
0.400000005960464
  0
LINE
  5
   3C6
  8
0
  6
CONTINUOUS
 62
   130
 10
241.463805172798
 20
129.492964478731
 30
0.0
 11
244.142637300491
 21
129.492964478731
 31
0.0
  0
LINE
  5
   3C7
  8
0
  6
CONTINUOUS
 62
   130
 10
244.142637300491
 20
124.012965617776
 30
0.0
 11
244.142637300491
 21
129.732965787419
 31
0.0
  0
LINE
  5
   3C8
  8
0
  6
CONTINUOUS
 62
   130
 10
244.142637300491
 20
95.73296528078
 30
0.0
 11
244.142637300491
 21
97.213068978192
 31
0.0
  0
LINE
  5
   3C9
  8
0
  6
CONTINUOUS
 62
   130
 10
215.342636871338
 20
95.73296528078
 30
0.0
 11
215.342636871338
 21
131.732965817222
 31
0.0
  0
LINE
  5
   3CA
  8
0
  6
CONTINUOUS
 62
   130
 10
215.342636871338
 20
117.012965513468
 30
0.0
 11
216.94263689518
 21
117.012965513468
 31
0.0
  0
LINE
  5
   3CB
  8
0
  6
CONTINUOUS
 62
   130
 10
216.94263689518
 20
117.012965513468
 30
0.0
 11
216.94263689518
 21
121.0363211867
 31
0.0
  0
LINE
  5
   3CC
  8
0
  6
CONTINUOUS
 62
   130
 10
242.74263727963
 20
121.212965576053
 30
0.0
 11
242.782636669874
 21
121.212965576053
 31
0.0
  0
LINE
  5
   3CD
  8
0
  6
CONTINUOUS
 62
   130
 10
242.74263727963
 20
124.012965617776
 30
0.0
 11
244.142637300491
 21
124.012965617776
 31
0.0
  0
LINE
  5
   3CE
  8
0
  6
CONTINUOUS
 62
   130
 10
242.74263727963
 20
97.2130018395192
 30
0.0
 11
244.142637300491
 21
97.2130018395192
 31
0.0
  0
LINE
  5
   3CF
  8
0
  6
CONTINUOUS
 62
   130
 10
242.74263727963
 20
100.013001881242
 30
0.0
 11
242.782636669874
 21
100.013001881242
 31
0.0
  0
LINE
  5
   3D0
  8
0
  6
CONTINUOUS
 62
   130
 10
242.74263727963
 20
97.2130018395192
 30
0.0
 11
242.74263727963
 21
124.012965617776
 31
0.0
  0
LINE
  5
   3D1
  8
0
  6
CONTINUOUS
 62
   130
 10
214.542636859438
 20
122.75836745455
 30
0.0
 11
214.542636859438
 21
126.308965651989
 31
0.0
  0
LINE
  5
   3D2
  8
0
  6
CONTINUOUS
 62
   210
 10
244.142637300491
 20
129.492964478731
 30
0.0
 11
253.022636212111
 21
129.492964478731
 31
0.0
  0
LINE
  5
   3D3
  8
0
  6
CONTINUOUS
 62
   210
 10
244.142637300491
 20
97.2130018395192
 30
0.0
 11
244.142637300491
 21
97.312965219915
 31
0.0
  0
LINE
  5
   3D4
  8
0
  6
CONTINUOUS
 62
   210
 10
244.142637300491
 20
123.912965616286
 30
0.0
 11
244.142637300491
 21
124.012965617776
 31
0.0
  0
LINE
  5
   3D5
  8
0
  6
CONTINUOUS
 62
   210
 10
253.022636212111
 20
100.112965261638
 30
0.0
 11
253.142637434602
 21
100.112965261638
 31
0.0
  0
LINE
  5
   3D6
  8
0
  6
CONTINUOUS
 62
   210
 10
253.022636212111
 20
97.1129652169348
 30
0.0
 11
253.142637434602
 21
97.1129652169348
 31
0.0
  0
LINE
  5
   3D7
  8
0
  6
CONTINUOUS
 62
   210
 10
253.022636212111
 20
96.6129652094842
 30
0.0
 11
253.142637434602
 21
96.6129652094842
 31
0.0
  0
LINE
  5
   3D8
  8
0
  6
CONTINUOUS
 62
   210
 10
253.022636212111
 20
96.7329652956811
 30
0.0
 11
253.022636212111
 21
129.492964478731
 31
0.0
  0
LINE
  5
   3D9
  8
0
  6
CONTINUOUS
 62
   210
 10
242.982636672854
 20
97.312965219915
 30
0.0
 11
244.142637300491
 21
97.312965219915
 31
0.0
  0
LINE
  5
   3DA
  8
0
  6
CONTINUOUS
 62
   210
 10
242.841215872018
 20
97.3715485002695
 30
0.0
 11
242.982637385636
 21
97.3129669561242
 31
0.0
  0
LINE
  5
   3DB
  8
0
  6
CONTINUOUS
 62
   210
 10
242.782636261633
 20
97.5129592270897
 30
0.0
 11
242.841214753803
 21
97.3715407715426
 31
0.0
  0
LINE
  5
   3DC
  8
0
  6
CONTINUOUS
 62
   210
 10
242.782636669874
 20
97.5129652228952
 30
0.0
 11
242.782636669874
 21
99.7129652556778
 31
0.0
  0
LINE
  5
   3DD
  8
0
  6
CONTINUOUS
 62
   210
 10
242.782636669874
 20
121.512965580523
 30
0.0
 11
242.782636669874
 21
123.712965613306
 31
0.0
  0
LINE
  5
   3DE
  8
0
  6
CONTINUOUS
 62
   210
 10
242.782633302446
 20
123.712956116315
 30
0.0
 11
242.841211794617
 21
123.854374571862
 31
0.0
  0
LINE
  5
   3DF
  8
0
  6
CONTINUOUS
 62
   210
 10
242.841217335055
 20
123.85438707992
 30
0.0
 11
242.982638848672
 21
123.912968624066
 31
0.0
  0
LINE
  5
   3E0
  8
0
  6
CONTINUOUS
 62
   210
 10
242.982636672854
 20
123.912965616286
 30
0.0
 11
244.142637300491
 21
123.912965616286
 31
0.0
  0
LINE
  5
   3E1
  8
0
  6
CONTINUOUS
 62
   210
 10
242.782636669874
 20
99.7129652556778
 30
0.0
 11
242.782636669874
 21
121.512965580523
 31
0.0
  0
LINE
  5
   3E2
  8
0
  6
CONTINUOUS
 62
     2
 10
253.142637434602
 20
87.1329650682212
 30
0.0
 11
253.142637434602
 21
120.93296557188
 31
0.0
  0
LINE
  5
   3E3
  8
0
  6
CONTINUOUS
 62
     2
 10
255.142637464404
 20
87.5329650741816
 30
0.0
 11
255.142637464404
 21
115.532965491414
 31
0.0
  0
LINE
  5
   3E4
  8
0
  6
CONTINUOUS
 62
     2
 10
255.142637464404
 20
115.932965497375
 30
0.0
 11
255.142637464404
 21
120.93296557188
 31
0.0
  0
LINE
  5
   3E5
  8
0
  6
CONTINUOUS
 62
     2
 10
253.142637434602
 20
120.93296557188
 30
0.0
 11
254.142637449503
 21
120.93296557188
 31
0.0
  0
LINE
  5
   3E6
  8
0
  6
CONTINUOUS
 62
     2
 10
253.142637434602
 20
87.1329650682212
 30
0.0
 11
254.742637458444
 21
87.1329650682212
 31
0.0
  0
LINE
  5
   3E7
  8
0
  6
CONTINUOUS
 62
     2
 10
254.742637458444
 20
115.932965497375
 30
0.0
 11
255.142637464404
 21
115.932965497375
 31
0.0
  0
LINE
  5
   3E8
  8
0
  6
CONTINUOUS
 62
     2
 10
254.742637458444
 20
115.532965491414
 30
0.0
 11
255.142637464404
 21
115.532965491414
 31
0.0
  0
LINE
  5
   3E9
  8
0
  6
CONTINUOUS
 62
     2
 10
254.742637458444
 20
115.532965491414
 30
0.0
 11
254.742637458444
 21
115.932965497375
 31
0.0
  0
LINE
  5
   3EA
  8
0
  6
CONTINUOUS
 62
     2
 10
254.742637458444
 20
87.1329650682212
 30
0.0
 11
254.742637458444
 21
87.5329650741816
 31
0.0
  0
LINE
  5
   3EB
  8
0
  6
CONTINUOUS
 62
     2
 10
253.342637437582
 20
87.5329650741816
 30
0.0
 11
254.742637458444
 21
87.5329650741816
 31
0.0
  0
LINE
  5
   3EC
  8
0
  6
CONTINUOUS
 62
     2
 10
253.342637437582
 20
87.5329650741816
 30
0.0
 11
253.342637437582
 21
120.93296557188
 31
0.0
  0
LINE
  5
   3ED
  8
0
  6
CONTINUOUS
 62
   130
 10
214.542636859438
 20
126.308965651989
 30
0.0
 11
215.342636871338
 21
126.308965651989
 31
0.0
  0
LINE
  5
   3EE
  8
0
  6
CONTINUOUS
 62
   130
 10
214.542636859417
 20
122.75836745455
 30
0.0
 11
215.342636871338
 21
122.75836745455
 31
0.0
  0
LINE
  5
   3EF
  8
0
  6
CONTINUOUS
 62
   210
 10
253.022635323189
 20
101.312963856851
 30
0.0
 11
253.142633495154
 21
101.260180651991
 31
0.0
  0
LINE
  5
   3F0
  8
0
  6
CONTINUOUS
 62
   210
 10
253.022637858377
 20
119.912967453927
 30
0.0
 11
253.142639083831
 21
119.965750656727
 31
0.0
  0
LINE
  5
   3F1
  8
0
  6
CONTINUOUS
 62
     2
 10
254.742637458444
 20
87.5329650741816
 30
0.0
 11
255.142637464404
 21
87.5329650741816
 31
0.0
  0
LINE
  5
   3F2
  8
0
  6
CONTINUOUS
 62
     2
 10
254.142637449503
 20
120.93296557188
 30
0.0
 11
254.742637458444
 21
120.93296557188
 31
0.0
  0
LINE
  5
   3F3
  8
0
  6
CONTINUOUS
 62
   130
 10
215.342636871338
 20
95.73296528078
 30
0.0
 11
253.142637434602
 21
95.73296528078
 31
0.0
  0
POINT
  5
   3F4
  8
0
  6
CONTINUOUS
 62
     7
 10
215.342636871338
 20
96.7329652956811
 30
0.0
  0
LINE
  5
   3F5
  8
0
  6
CONTINUOUS
 62
     7
 10
255.142637464404
 20
121.332965577841
 30
0.0
 11
255.142637464404
 21
131.232965809771
 31
0.0
  0
ARC
  5
   3F6
  8
0
  6
CONTINUOUS
 62
     7
 10
254.642637456954
 20
131.232965809771
 30
0.0
 40
0.500000007450581
 50
0.0
 51
90.0
  0
LINE
  5
   3F7
  8
0
  6
CONTINUOUS
 62
     7
 10
253.142637434602
 20
120.93296557188
 30
0.0
 11
253.142637434602
 21
129.732965787419
 31
0.0
  0
LINE
  5
   3F8
  8
0
  6
CONTINUOUS
 62
     7
 10
241.476762989933
 20
129.732965787419
 30
0.0
 11
253.142637434602
 21
129.732965787419
 31
0.0
  0
LINE
  5
   3F9
  8
0
  6
CONTINUOUS
 62
     7
 10
241.48756111216
 20
129.9329657904
 30
0.0
 11
253.342637437582
 21
129.9329657904
 31
0.0
  0
LINE
  5
   3FA
  8
0
  6
CONTINUOUS
 62
     7
 10
253.342637437582
 20
121.332965577841
 30
0.0
 11
253.342637437582
 21
129.9329657904
 31
0.0
  0
LINE
  5
   3FB
  8
0
  6
CONTINUOUS
 62
     7
 10
253.342637437582
 20
121.332965577841
 30
0.0
 11
254.742637458444
 21
121.332965577841
 31
0.0
  0
LINE
  5
   3FC
  8
0
  6
CONTINUOUS
 62
     7
 10
254.742637458444
 20
120.935462732192
 30
0.0
 11
254.742637458444
 21
121.332965577841
 31
0.0
  0
LINE
  5
   3FD
  8
0
  6
CONTINUOUS
 62
     7
 10
234.342642188248
 20
131.732965817222
 30
0.0
 11
254.642637456954
 21
131.732965817222
 31
0.0
  0
LINE
  5
   3FE
  8
0
  6
CONTINUOUS
 62
     7
 10
226.942637044191
 20
130.732965802321
 30
0.0
 11
241.530753601066
 21
130.732965802321
 31
0.0
  0
LINE
  5
   3FF
  8
0
  6
CONTINUOUS
 62
     7
 10
223.342636990547
 20
130.732965802321
 30
0.0
 11
224.542637008429
 21
130.732965802321
 31
0.0
  0
LINE
  5
   400
  8
0
  6
CONTINUOUS
 62
     7
 10
227.142637047172
 20
130.732965802321
 30
0.0
 11
227.142637047172
 21
131.732965817222
 31
0.0
  0
INSERT
  5
   401
  8
0
  6
CONTINUOUS
 62
     7
  2
*HATCH226
 10
215.342636108398
 20
57.7329597473145
 30
0.0
 41
0.400000005960464
 42
0.400000005960464
 43
0.400000005960464
  0
LINE
  5
   402
  8
0
  6
CONTINUOUS
 62
     7
 10
254.742637458444
 20
121.332965577841
 30
0.0
 11
255.142637464404
 21
121.332965577841
 31
0.0
  0
LINE
  5
   403
  8
0
  6
CONTINUOUS
 62
     2
 10
254.742637458444
 20
120.93296557188
 30
0.0
 11
255.142637464404
 21
120.93296557188
 31
0.0
  0
LINE
  5
   404
  8
0
  6
CONTINUOUS
 62
     2
 10
253.022636212588
 20
87.1329650682212
 30
0.0
 11
253.022636212588
 21
95.612965194583
 31
0.0
  0
LINE
  5
   405
  8
0
  6
CONTINUOUS
 62
     1
 10
254.14263744998
 20
38.6329662746617
 30
0.0
 11
255.142637083411
 21
38.6329660021834
 31
0.0
  0
INSERT
  5
   406
  8
0
  6
CONTINUOUS
 62
     7
  2
*UDIM251
 10
0.0
 20
0.0
 30
0.0
  0
TEXT
  5
   407
  8
0
  6
CONTINUOUS
 62
     7
 10
280.61103914493
 20
53.6662669888402
 30
0.0
 40
2.99999994933605
  1
=    =
 50
90.0
 41
0.91666673368878
 72
     1
 11
279.111039170252
 21
61.6412674513952
 31
0.0
 73
     2
  0
INSERT
  5
   408
  8
0
  6
CONTINUOUS
 62
     7
  2
*UDIM252
 10
0.0
 20
0.0
 30
0.0
  0
INSERT
  5
   409
  8
0
  6
CONTINUOUS
 62
     7
  2
*UDIM253
 10
0.0
 20
0.0
 30
0.0
  0
INSERT
  5
   40A
  8
0
  6
CONTINUOUS
 62
     7
  2
*UDIM254
 10
0.0
 20
0.0
 30
0.0
  0
INSERT
  5
   40B
  8
0
  6
CONTINUOUS
 62
     7
  2
*UDIM255
 10
0.0
 20
0.0
 30
0.0
  0
INSERT
  5
   40C
  8
0
  6
CONTINUOUS
 62
     7
  2
*UDIM256
 10
0.0
 20
0.0
 30
0.0
  0
INSERT
  5
   40D
  8
0
  6
CONTINUOUS
 62
     7
  2
*UDIM257
 10
0.0
 20
0.0
 30
0.0
  0
INSERT
  5
   40E
  8
0
  6
CONTINUOUS
 62
     7
  2
*UDIM258
 10
0.0
 20
0.0
 30
0.0
  0
INSERT
  5
   40F
  8
0
  6
CONTINUOUS
 62
     7
  2
*UDIM259
 10
0.0
 20
0.0
 30
0.0
  0
INSERT
  5
   410
  8
0
  6
CONTINUOUS
 62
     7
  2
*UDIM260
 10
0.0
 20
0.0
 30
0.0
  0
INSERT
  5
   411
  8
0
  6
CONTINUOUS
 62
     7
  2
*UDIM261
 10
0.0
 20
0.0
 30
0.0
  0
INSERT
  5
   412
  8
0
  6
CONTINUOUS
 62
     7
  2
*UDIM262
 10
0.0
 20
0.0
 30
0.0
  0
INSERT
  5
   413
  8
0
  6
CONTINUOUS
 62
     7
  2
*UDIM263
 10
0.0
 20
0.0
 30
0.0
  0
INSERT
  5
   414
  8
0
  6
CONTINUOUS
 62
     7
  2
*UDIM264
 10
0.0
 20
0.0
 30
0.0
  0
INSERT
  5
   415
  8
0
  6
CONTINUOUS
 62
     7
  2
*UDIM265
 10
0.0
 20
0.0
 30
0.0
  0
INSERT
  5
   416
  8
0
  6
CONTINUOUS
 62
     7
  2
*UDIM266
 10
0.0
 20
0.0
 30
0.0
  0
INSERT
  5
   417
  8
0
  6
CONTINUOUS
 62
     7
  2
*UDIM267
 10
0.0
 20
0.0
 30
0.0
  0
INSERT
  5
   418
  8
0
  6
CONTINUOUS
 62
     7
  2
*UDIM268
 10
0.0
 20
0.0
 30
0.0
  0
INSERT
  5
   419
  8
0
  6
CONTINUOUS
 62
     7
  2
*UDIM269
 10
0.0
 20
0.0
 30
0.0
  0
TEXT
  5
   41A
  8
0
  6
CONTINUOUS
 62
     7
 10
280.953477200282
 20
60.7101101546069
 30
0.0
 40
2.99999994933605
  1
X
 41
0.916666607525612
 72
     2
 11
283.153477018488
 21
60.7101101546069
 31
0.0
  0
LINE
  5
   41B
  8
0
  6
CONTINUOUS
 62
     7
 10
98.969854308833
 20
130.732956280451
 30
0.0
 11
87.0698564414969
 21
130.732956280451
 31
0.0
  0
LINE
  5
   41C
  8
0
  6
CONTINUOUS
 62
     7
 10
101.284655051938
 20
130.732956280451
 30
0.0
 11
100.369854329695
 21
130.732956280451
 31
0.0
  0
LINE
  5
   41D
  8
0
  6
CONTINUOUS
 62
     7
 10
86.6698564355364
 20
129.612955043059
 30
0.0
 11
86.6698564355364
 21
130.332956274491
 31
0.0
  0
LINE
  5
   41E
  8
0
  6
CONTINUOUS
 62
     7
 10
86.6698564355364
 20
129.612955043059
 30
0.0
 11
85.6698564206353
 21
129.612955043059
 31
0.0
  0
LINE
  5
   41F
  8
0
  6
CONTINUOUS
 62
     7
 10
85.6698519229802
 20
94.0329587853349
 30
0.0
 11
85.6698519229802
 21
129.612955043059
 31
0.0
  0
LINE
  5
   420
  8
0
  6
CONTINUOUS
 62
     7
 10
86.6698564355364
 20
29.1329547664932
 30
0.0
 11
86.6698564355364
 21
29.6329593515791
 31
0.0
  0
LINE
  5
   421
  8
0
  6
CONTINUOUS
 62
     7
 10
98.969854308833
 20
28.7329547605326
 30
0.0
 11
87.0698564414969
 21
28.7329547605326
 31
0.0
  0
LINE
  5
   422
  8
0
  6
CONTINUOUS
 62
     7
 10
112.969882608782
 20
28.7329547605328
 30
0.0
 11
100.369854329695
 21
28.7329547605328
 31
0.0
  0
LINE
  5
   423
  8
0
  6
CONTINUOUS
 62
     7
 10
126.269857025622
 20
28.7329547605322
 30
0.0
 11
114.369882629644
 21
28.7329547605322
 31
0.0
  0
LINE
  5
   424
  8
0
  6
CONTINUOUS
 62
     7
 10
126.669857031583
 20
29.1329547664932
 30
0.0
 11
126.669857031583
 21
29.6329593515791
 31
0.0
  0
LINE
  5
   425
  8
0
  6
CONTINUOUS
 62
     7
 10
100.669854334165
 20
128.132956241708
 30
0.0
 11
98.6698543043627
 21
128.132956241708
 31
0.0
  0
LINE
  5
   426
  8
0
  6
CONTINUOUS
 62
     7
 10
86.6698540644677
 20
120.932954127789
 30
0.0
 11
86.6698540644677
 21
129.612955043059
 31
0.0
  0
CIRCLE
  5
   427
  8
0
  6
CONTINUOUS
 62
     7
 10
92.6698562804716
 20
125.732952565318
 30
0.0
 40
2.20000058570355
  0
ARC
  5
   428
  8
0
  6
CONTINUOUS
 62
     7
 10
87.0698574618714
 20
130.332956727423
 30
0.0
 40
0.40000160241227
 50
90.0000472185487
 51
180.000478784316
  0
CIRCLE
  5
   429
  8
0
  6
DOT
 62
     7
 10
92.6698629535679
 20
33.7329561979854
 30
0.0
 40
2.19999878903394
  0
CIRCLE
  5
   42A
  8
0
  6
DOT
 62
     7
 10
99.6698614627873
 20
34.9329557085421
 30
0.0
 40
1.79999922154889
  0
CIRCLE
  5
   42B
  8
0
  6
DOT
 62
     7
 10
106.669859608166
 20
33.7329543463199
 30
0.0
 40
2.19999885163413
  0
ARC
  5
   42C
  8
0
  6
CONTINUOUS
 62
     7
 10
87.0698565380044
 20
29.1329548079668
 30
0.0
 40
0.400000048409147
 50
180.000006024791
 51
269.999989483217
  0
CIRCLE
  5
   42D
  8
0
  6
DOT
 62
     7
 10
113.669862787485
 20
34.9329455583548
 30
0.0
 40
1.79999176240177
  0
CIRCLE
  5
   42E
  8
0
  6
DOT
 62
     7
 10
120.669885933734
 20
33.7329064622742
 30
0.0
 40
2.20005287110646
  0
ARC
  5
   42F
  8
0
  6
CONTINUOUS
 62
     7
 10
126.269860228575
 20
29.1329512294613
 30
0.0
 40
0.399996167509096
 50
269.999767510228
 51
360.00047760375
  0
LINE
  5
   430
  8
0
  6
DASHDOT
 62
     7
 10
92.6698543707197
 20
127.372958145459
 30
0.0
 11
92.6698543707197
 21
130.892961821149
 31
0.0
  0
LINE
  5
   431
  8
0
  6
DASHDOT
 62
     7
 10
92.6698562804716
 20
122.332951961733
 30
0.0
 11
92.6698562804716
 21
129.132953168903
 31
0.0
  0
LINE
  5
   432
  8
0
  6
DASHDOT
 62
     7
 10
96.0698568840565
 20
125.732952565318
 30
0.0
 11
89.2698556768866
 21
125.732952565318
 31
0.0
  0
LINE
  5
   433
  8
0
  6
DASHDOT
 62
     7
 10
92.6698629535679
 20
30.3329573910701
 30
0.0
 11
92.6698629535679
 21
37.1329550049008
 31
0.0
  0
LINE
  5
   434
  8
0
  6
DASHDOT
 62
     7
 10
96.0698617604833
 20
33.7329561979854
 30
0.0
 11
89.2698641466526
 21
33.7329561979854
 31
0.0
  0
LINE
  5
   435
  8
0
  6
DASHDOT
 62
     7
 10
99.6698614627873
 20
27.7620854256838
 30
0.0
 11
99.6698614627873
 21
37.9329549479724
 31
0.0
  0
LINE
  5
   436
  8
0
  6
DASHDOT
 62
     7
 10
102.669860702218
 20
34.9329557085421
 30
0.0
 11
96.669862223357
 21
34.9329557085421
 31
0.0
  0
LINE
  5
   437
  8
0
  6
DASHDOT
 62
     7
 10
110.069858477681
 20
33.7329543463199
 30
0.0
 11
103.26986073865
 21
33.7329543463199
 31
0.0
  0
LINE
  5
   438
  8
0
  6
DASHDOT
 62
     7
 10
116.669854567769
 20
34.9329455583548
 30
0.0
 11
110.669871007202
 21
34.9329455583548
 31
0.0
  0
LINE
  5
   439
  8
0
  6
DASHDOT
 62
     7
 10
120.669885933734
 20
30.3328535732863
 30
0.0
 11
120.669885933734
 21
37.132959351262
 31
0.0
  0
LINE
  5
   43A
  8
0
  6
DASHDOT
 62
     7
 10
124.069938822722
 20
33.7329064622742
 30
0.0
 11
117.269833044746
 21
33.7329064622742
 31
0.0
  0
LINE
  5
   43B
  8
0
  6
DASHDOT
 62
     7
 10
120.669864777328
 20
28.5729593006258
 30
0.0
 11
120.669864777328
 21
32.0929533708674
 31
0.0
  0
LINE
  5
   43C
  8
0
  6
DASHDOT
 62
     7
 10
92.6698615960654
 20
28.572954880021
 30
0.0
 11
92.6698615960654
 21
32.0929550937744
 31
0.0
  0
LINE
  5
   43D
  8
0
  6
CONTINUOUS
 62
     3
 10
127.469862675667
 20
82.8329586184419
 30
0.0
 11
85.8698681592941
 21
82.8329586184419
 31
0.0
  0
LINE
  5
   43E
  8
0
  6
CONTINUOUS
 62
     3
 10
127.469862675667
 20
40.8329640961091
 30
0.0
 11
122.069862619042
 21
40.8329640961091
 31
0.0
  0
LINE
  5
   43F
  8
0
  6
CONTINUOUS
 62
     3
 10
117.469862526655
 20
40.8329640961087
 30
0.0
 11
107.649580021629
 21
40.8329640961087
 31
0.0
  0
LINE
  5
   440
  8
0
  6
CONTINUOUS
 62
     3
 10
91.2698682397604
 20
40.832964096098
 30
0.0
 11
85.8698681592941
 21
40.832964096098
 31
0.0
  0
LINE
  5
   441
  8
0
  6
CONTINUOUS
 62
     3
 10
95.8698683083058
 20
40.8329640961077
 30
0.0
 11
91.2698682397604
 21
40.8329640961077
 31
0.0
  0
LINE
  5
   442
  8
0
  6
CONTINUOUS
 62
     3
 10
122.0698625952
 20
40.8329640961091
 30
0.0
 11
117.469862526655
 21
40.8329640961091
 31
0.0
  0
LINE
  5
   443
  8
0
  6
DASHDOT
 62
     7
 10
106.669868469238
 20
33.58448526042
 30
0.0
 11
106.669868469238
 21
74.9025935439641
 31
0.0
  0
ARC
  5
   444
  8
0
  6
CONTINUOUS
 62
     3
 10
85.8698681592941
 20
41.0329640990783
 30
0.0
 40
0.200000002980232
 50
179.999999948034
 51
269.999999948034
  0
ARC
  5
   445
  8
0
  6
CONTINUOUS
 62
     3
 10
85.8698681592941
 20
82.6329586154617
 30
0.0
 40
0.200000002980232
 50
449.999999948034
 51
539.999999948034
  0
ARC
  5
   446
  8
0
  6
CONTINUOUS
 62
     3
 10
127.469862675667
 20
82.6329586154617
 30
0.0
 40
0.200000002980232
 50
359.999999948034
 51
449.999999948034
  0
ARC
  5
   447
  8
0
  6
CONTINUOUS
 62
     3
 10
127.469862675667
 20
41.0329640990893
 30
0.0
 40
0.200000002980232
 50
269.999999948034
 51
359.999999948034
  0
LINE
  5
   448
  8
0
  6
DASHDOT
 62
     7
 10
106.669868469238
 20
77.2142873631455
 30
0.0
 11
106.669868469238
 21
144.557978345345
 31
0.0
  0
LINE
  5
   449
  8
0
  6
CONTINUOUS
 62
     3
 10
105.690088353912
 20
40.8329640961087
 30
0.0
 11
95.8698683083058
 21
40.8329640961087
 31
0.0
  0
LINE
  5
   44A
  8
0
  6
CONTINUOUS
 62
     7
 10
95.6698622018098
 20
40.8329579925931
 30
0.0
 11
91.6698682457209
 21
40.8329579925931
 31
0.0
  0
LINE
  5
   44B
  8
0
  6
CONTINUOUS
 62
     7
 10
121.669856485724
 20
40.8329579925931
 30
0.0
 11
117.66985642612
 21
40.8329579925931
 31
0.0
  0
LINE
  5
   44C
  8
0
  6
CONTINUOUS
 62
     7
 10
127.669868782163
 20
41.0329579955734
 30
0.0
 11
127.669868782163
 21
48.232951999346
 31
0.0
  0
LINE
  5
   44D
  8
0
  6
CONTINUOUS
 62
     7
 10
85.6698681563139
 20
41.0329579955734
 30
0.0
 11
85.6698681563139
 21
48.232951999346
 31
0.0
  0
LINE
  5
   44E
  8
0
  6
CONTINUOUS
 62
     7
 10
127.469868779182
 20
82.8329586184419
 30
0.0
 11
85.8698681593053
 21
82.8329586184419
 31
0.0
  0
LINE
  5
   44F
  8
0
  6
CONTINUOUS
 62
     7
 10
91.6698682457209
 20
40.8329579925931
 30
0.0
 11
85.8698681592941
 21
40.8329579925931
 31
0.0
  0
LINE
  5
   450
  8
0
  6
CONTINUOUS
 62
     7
 10
117.66985642612
 20
40.8329579925931
 30
0.0
 11
95.6698622018098
 21
40.8329579925931
 31
0.0
  0
LINE
  5
   451
  8
0
  6
CONTINUOUS
 62
     7
 10
127.469868779182
 20
40.8329579925931
 30
0.0
 11
121.669856485724
 21
40.8329579925931
 31
0.0
  0
LINE
  5
   452
  8
0
  6
CONTINUOUS
 62
     7
 10
110.969868533313
 20
49.7329520216978
 30
0.0
 11
110.969868533313
 21
65.7329461566006
 31
0.0
  0
LINE
  5
   453
  8
0
  6
CONTINUOUS
 62
     7
 10
102.369868405163
 20
49.7329520216978
 30
0.0
 11
102.369868405163
 21
65.7329461566006
 31
0.0
  0
LINE
  5
   454
  8
0
  6
CONTINUOUS
 62
     7
 10
127.669868782163
 20
78.0329463398849
 30
0.0
 11
85.6698681563139
 21
78.0329463398849
 31
0.0
  0
LINE
  5
   455
  8
0
  6
CONTINUOUS
 62
     7
 10
127.669868782163
 20
82.0329463994895
 30
0.0
 11
85.6698681563139
 21
82.0329463994895
 31
0.0
  0
LINE
  5
   456
  8
0
  6
CONTINUOUS
 62
     7
 10
110.969868533313
 20
65.6271600222118
 30
0.0
 11
102.369868405163
 21
65.6271600222118
 31
0.0
  0
LINE
  5
   457
  8
0
  6
CONTINUOUS
 62
     7
 10
110.969868533313
 20
65.7329461566006
 30
0.0
 11
102.369868405163
 21
65.7329461566006
 31
0.0
  0
LINE
  5
   458
  8
0
  6
CONTINUOUS
 62
     7
 10
110.969868533313
 20
49.7329520216977
 30
0.0
 11
102.369868405163
 21
49.7329520216977
 31
0.0
  0
LINE
  5
   459
  8
0
  6
CONTINUOUS
 62
     7
 10
110.969868533313
 20
49.838750363118
 30
0.0
 11
102.369868405163
 21
49.838750363118
 31
0.0
  0
LINE
  5
   45A
  8
0
  6
DASHDOT
 62
     7
 10
106.669868469238
 20
23.6194198595738
 30
0.0
 11
106.669868469238
 21
74.1139202035941
 31
0.0
  0
LINE
  5
   45B
  8
0
  6
CONTINUOUS
 62
     7
 10
127.669862678647
 20
48.6329520053065
 30
0.0
 11
127.669862678647
 21
53.4329488955366
 31
0.0
  0
LINE
  5
   45C
  8
0
  6
CONTINUOUS
 62
     7
 10
127.669862678647
 20
67.2329522824681
 30
0.0
 11
127.669862678647
 21
82.6329586154617
 31
0.0
  0
LINE
  5
   45D
  8
0
  6
CONTINUOUS
 62
     7
 10
127.669862678647
 20
53.8329489014971
 30
0.0
 11
127.669862678647
 21
61.6329521990216
 31
0.0
  0
LINE
  5
   45E
  8
0
  6
CONTINUOUS
 62
     7
 10
127.669862678647
 20
62.032952204982
 30
0.0
 11
127.669862678647
 21
66.8329522765076
 31
0.0
  0
LINE
  5
   45F
  8
0
  6
CONTINUOUS
 62
     7
 10
85.6698681563119
 20
48.6329520053065
 30
0.0
 11
85.6698681563119
 21
53.4329520768329
 31
0.0
  0
LINE
  5
   460
  8
0
  6
CONTINUOUS
 62
     7
 10
85.6698681563047
 20
53.8329520827934
 30
0.0
 11
85.6698681563047
 21
61.6329521990216
 31
0.0
  0
LINE
  5
   461
  8
0
  6
CONTINUOUS
 62
     7
 10
85.669868156316
 20
62.032952204982
 30
0.0
 11
85.669868156316
 21
66.8329522765076
 31
0.0
  0
LINE
  5
   462
  8
0
  6
CONTINUOUS
 62
     7
 10
85.669868156325
 20
67.2329522824681
 30
0.0
 11
85.669868156325
 21
82.6329586154617
 31
0.0
  0
LINE
  5
   463
  8
0
  6
CONTINUOUS
 62
     7
 10
102.369865215674
 20
53.4329597710019
 30
0.0
 11
86.0698681384325
 21
53.4329597710019
 31
0.0
  0
LINE
  5
   464
  8
0
  6
CONTINUOUS
 62
     7
 10
127.669862678647
 20
53.4329565897033
 30
0.0
 11
127.269862672687
 21
53.4329565897033
 31
0.0
  0
LINE
  5
   465
  8
0
  6
CONTINUOUS
 62
     7
 10
102.369857392038
 20
53.8329597769647
 30
0.0
 11
86.0698681384325
 21
53.8329597769647
 31
0.0
  0
LINE
  5
   466
  8
0
  6
CONTINUOUS
 62
     7
 10
127.669862678647
 20
53.8329565956637
 30
0.0
 11
127.269862672687
 21
53.8329565956637
 31
0.0
  0
LINE
  5
   467
  8
0
  6
CONTINUOUS
 62
     7
 10
86.0698681384325
 20
53.4329520768321
 30
0.0
 11
86.0698681384325
 21
53.8329520827925
 31
0.0
  0
LINE
  5
   468
  8
0
  6
CONTINUOUS
 62
     7
 10
127.269862672687
 20
53.432952076832
 30
0.0
 11
127.269862672687
 21
53.8329520827925
 31
0.0
  0
LINE
  5
   469
  8
0
  6
CONTINUOUS
 62
     7
 10
127.669868782163
 20
48.232951999346
 30
0.0
 11
127.269862672687
 21
48.232951999346
 31
0.0
  0
LINE
  5
   46A
  8
0
  6
CONTINUOUS
 62
     7
 10
127.669862678647
 20
48.6329520053065
 30
0.0
 11
127.269862672687
 21
48.6329520053065
 31
0.0
  0
LINE
  5
   46B
  8
0
  6
CONTINUOUS
 62
     7
 10
86.0698681384325
 20
48.232951999346
 30
0.0
 11
86.0698681384325
 21
48.6329520053065
 31
0.0
  0
LINE
  5
   46C
  8
0
  6
CONTINUOUS
 62
     7
 10
127.269862672687
 20
48.232951999346
 30
0.0
 11
127.269862672687
 21
48.6329520053065
 31
0.0
  0
LINE
  5
   46D
  8
0
  6
CONTINUOUS
 62
     7
 10
127.669862678647
 20
66.8329522765076
 30
0.0
 11
127.269862672687
 21
66.8329522765076
 31
0.0
  0
LINE
  5
   46E
  8
0
  6
CONTINUOUS
 62
     7
 10
127.669862678647
 20
67.2329522824681
 30
0.0
 11
127.269862672687
 21
67.2329522824681
 31
0.0
  0
LINE
  5
   46F
  8
0
  6
CONTINUOUS
 62
     7
 10
86.0698681384325
 20
66.8329522765076
 30
0.0
 11
86.0698681384325
 21
67.2329522824681
 31
0.0
  0
LINE
  5
   470
  8
0
  6
CONTINUOUS
 62
     7
 10
127.269862672687
 20
66.8329522765076
 30
0.0
 11
127.269862672687
 21
67.2329522824681
 31
0.0
  0
LINE
  5
   471
  8
0
  6
CONTINUOUS
 62
     7
 10
102.369865234196
 20
61.6329521990216
 30
0.0
 11
86.0698681384325
 21
61.6329521990216
 31
0.0
  0
LINE
  5
   472
  8
0
  6
CONTINUOUS
 62
     7
 10
127.669862678647
 20
61.6329521990216
 30
0.0
 11
127.269862672687
 21
61.6329521990216
 31
0.0
  0
LINE
  5
   473
  8
0
  6
CONTINUOUS
 62
     7
 10
102.369868405163
 20
62.032952204982
 30
0.0
 11
86.0698681384325
 21
62.032952204982
 31
0.0
  0
LINE
  5
   474
  8
0
  6
CONTINUOUS
 62
     7
 10
127.669862678647
 20
62.032952204982
 30
0.0
 11
127.269862672687
 21
62.032952204982
 31
0.0
  0
LINE
  5
   475
  8
0
  6
CONTINUOUS
 62
     7
 10
86.0698681384325
 20
61.6329521990216
 30
0.0
 11
86.0698681384325
 21
62.032952204982
 31
0.0
  0
LINE
  5
   476
  8
0
  6
CONTINUOUS
 62
     7
 10
127.269862672687
 20
61.6329521990216
 30
0.0
 11
127.269862672687
 21
62.032952204982
 31
0.0
  0
ARC
  5
   477
  8
0
  6
CONTINUOUS
 62
     7
 10
85.8698681592941
 20
41.0329579955734
 30
0.0
 40
0.200000002980232
 50
179.999999948034
 51
269.999999948034
  0
ARC
  5
   478
  8
0
  6
CONTINUOUS
 62
     7
 10
127.469868779182
 20
41.0329579955734
 30
0.0
 40
0.200000002980232
 50
269.999999948034
 51
359.999999948034
  0
ARC
  5
   479
  8
0
  6
CONTINUOUS
 62
     7
 10
127.469868779182
 20
82.6329586154617
 30
0.0
 40
0.200000002980232
 50
359.999999948034
 51
449.999999948034
  0
ARC
  5
   47A
  8
0
  6
CONTINUOUS
 62
     7
 10
85.8698681593053
 20
82.6329586154617
 30
0.0
 40
0.200000002980232
 50
449.999999948034
 51
539.999999948034
  0
LINE
  5
   47B
  8
0
  6
CONTINUOUS
 62
     7
 10
97.6698683351278
 20
66.2329522675669
 30
0.0
 11
97.0698683261871
 21
66.2329522675669
 31
0.0
  0
LINE
  5
   47C
  8
0
  6
CONTINUOUS
 62
     7
 10
97.6698683351278
 20
62.6329522139227
 30
0.0
 11
97.0698683261871
 21
62.6329522139227
 31
0.0
  0
CIRCLE
  5
   47D
  8
0
  6
CONTINUOUS
 62
     7
 10
97.3698683306575
 20
51.0329520410693
 30
0.0
 40
1.80000002682209
  0
CIRCLE
  5
   47E
  8
0
  6
CONTINUOUS
 62
     7
 10
97.3698683306575
 20
51.0329520410693
 30
0.0
 40
1.20000001788139
  0
LINE
  5
   47F
  8
0
  6
CONTINUOUS
 62
     7
 10
97.0698683261871
 20
62.6329522139227
 30
0.0
 11
97.0698683261871
 21
66.2329522675669
 31
0.0
  0
LINE
  5
   480
  8
0
  6
CONTINUOUS
 62
     7
 10
97.6698683351278
 20
62.6329522139227
 30
0.0
 11
97.6698683351278
 21
66.2329522675669
 31
0.0
  0
LINE
  5
   481
  8
0
  6
CONTINUOUS
 62
     7
 10
101.269868388772
 20
48.6329520053065
 30
0.0
 11
101.269868388772
 21
53.4329577924983
 31
0.0
  0
LINE
  5
   482
  8
0
  6
CONTINUOUS
 62
     7
 10
112.069868549705
 20
48.6329520053065
 30
0.0
 11
112.069868549705
 21
53.4329546111998
 31
0.0
  0
LINE
  5
   483
  8
0
  6
CONTINUOUS
 62
     7
 10
112.069868549705
 20
62.032952204982
 30
0.0
 11
112.069868549705
 21
66.8329522765076
 31
0.0
  0
LINE
  5
   484
  8
0
  6
CONTINUOUS
 62
     7
 10
101.269868388772
 20
62.032952204982
 30
0.0
 11
101.269868388772
 21
66.8329522765076
 31
0.0
  0
LINE
  5
   485
  8
0
  6
CONTINUOUS
 62
     7
 10
116.889864715278
 20
52.5729520640171
 30
0.0
 11
116.709864712596
 21
52.5729520640171
 31
0.0
  0
LINE
  5
   486
  8
0
  6
CONTINUOUS
 62
     7
 10
116.509864709616
 20
49.4929520181215
 30
0.0
 11
116.189864704847
 21
49.4929520181215
 31
0.0
  0
LINE
  5
   487
  8
0
  6
CONTINUOUS
 62
     7
 10
113.6298646667
 20
50.5329520336187
 30
0.0
 11
113.6298646667
 21
50.7329520365989
 31
0.0
  0
LINE
  5
   488
  8
0
  6
CONTINUOUS
 62
     7
 10
115.709864697695
 20
50.5329520336187
 30
0.0
 11
115.709864697695
 21
50.7329520365989
 31
0.0
  0
ARC
  5
   489
  8
0
  6
CONTINUOUS
 62
     7
 10
114.669864682197
 20
50.7329520365989
 30
0.0
 40
1.04000001549721
 50
359.999999948034
 51
539.999999948034
  0
ARC
  5
   48A
  8
0
  6
CONTINUOUS
 62
     7
 10
114.669864682197
 20
50.5329520336187
 30
0.0
 40
1.04000001549721
 50
179.999999948034
 51
359.999999948034
  0
ARC
  5
   48B
  8
0
  6
CONTINUOUS
 62
     7
 10
114.669864682197
 20
50.7329520365989
 30
0.0
 40
0.720000010728837
 50
359.999999948034
 51
539.999999948034
  0
ARC
  5
   48C
  8
0
  6
CONTINUOUS
 62
     7
 10
114.669864682197
 20
50.5329520336187
 30
0.0
 40
0.720000010728835
 50
179.999999948034
 51
359.999999948034
  0
LINE
  5
   48D
  8
0
  6
CONTINUOUS
 62
     7
 10
113.949864671469
 20
50.5329520336187
 30
0.0
 11
113.949864671469
 21
50.7329520365989
 31
0.0
  0
LINE
  5
   48E
  8
0
  6
CONTINUOUS
 62
     7
 10
115.389864692926
 20
50.5329520336187
 30
0.0
 11
115.389864692926
 21
50.7329520365989
 31
0.0
  0
LINE
  5
   48F
  8
0
  6
CONTINUOUS
 62
     7
 10
115.809864699185
 20
51.2929520449436
 30
0.0
 11
115.809864699185
 21
51.612952049712
 31
0.0
  0
LINE
  5
   490
  8
0
  6
CONTINUOUS
 62
     7
 10
116.189864704847
 20
51.2929520449436
 30
0.0
 11
115.809864699185
 21
51.2929520449436
 31
0.0
  0
LINE
  5
   491
  8
0
  6
CONTINUOUS
 62
     7
 10
116.889864715278
 20
51.2929520449436
 30
0.0
 11
116.889864715278
 21
51.612952049712
 31
0.0
  0
LINE
  5
   492
  8
0
  6
CONTINUOUS
 62
     7
 10
116.189864704847
 20
51.6129520497119
 30
0.0
 11
115.809864699185
 21
51.6129520497119
 31
0.0
  0
LINE
  5
   493
  8
0
  6
CONTINUOUS
 62
     7
 10
116.189864704847
 20
49.4929520181215
 30
0.0
 11
116.189864704847
 21
51.2929520449436
 31
0.0
  0
LINE
  5
   494
  8
0
  6
CONTINUOUS
 62
     7
 10
116.509864709616
 20
49.4929520181215
 30
0.0
 11
116.509864709616
 21
51.2929520449436
 31
0.0
  0
LINE
  5
   495
  8
0
  6
CONTINUOUS
 62
     7
 10
116.889864715278
 20
51.2929520449436
 30
0.0
 11
116.509864709616
 21
51.2929520449436
 31
0.0
  0
LINE
  5
   496
  8
0
  6
CONTINUOUS
 62
     7
 10
116.889864715278
 20
51.6129520497119
 30
0.0
 11
116.509864709616
 21
51.6129520497119
 31
0.0
  0
LINE
  5
   497
  8
0
  6
CONTINUOUS
 62
     7
 10
116.189864704847
 20
51.612952049712
 30
0.0
 11
116.189864704847
 21
52.0529520562685
 31
0.0
  0
LINE
  5
   498
  8
0
  6
CONTINUOUS
 62
     7
 10
116.509864709616
 20
51.612952049712
 30
0.0
 11
116.509864709616
 21
52.0529520562685
 31
0.0
  0
ARC
  5
   499
  8
0
  6
CONTINUOUS
 62
     7
 10
116.709864712596
 20
52.0529520562684
 30
0.0
 40
0.520000007748604
 50
449.999999948034
 51
539.999999948034
  0
ARC
  5
   49A
  8
0
  6
CONTINUOUS
 62
     7
 10
116.709864712596
 20
52.0529520562684
 30
0.0
 40
0.200000002980232
 50
449.999999948034
 51
539.999999948034
  0
LINE
  5
   49B
  8
0
  6
CONTINUOUS
 62
     7
 10
116.889864715278
 20
52.2529520592487
 30
0.0
 11
116.889864715278
 21
52.5729520640171
 31
0.0
  0
LINE
  5
   49C
  8
0
  6
CONTINUOUS
 62
     7
 10
116.889864715278
 20
52.2529520592487
 30
0.0
 11
116.709864712596
 21
52.2529520592487
 31
0.0
  0
LINE
  5
   49D
  8
0
  6
CONTINUOUS
 62
     7
 10
118.169864734352
 20
52.5729520640171
 30
0.0
 11
117.989864731669
 21
52.5729520640171
 31
0.0
  0
LINE
  5
   49E
  8
0
  6
CONTINUOUS
 62
     7
 10
117.789864728689
 20
49.4929520181215
 30
0.0
 11
117.469864723921
 21
49.4929520181215
 31
0.0
  0
LINE
  5
   49F
  8
0
  6
CONTINUOUS
 62
     7
 10
117.089864718258
 20
51.2929520449436
 30
0.0
 11
117.089864718258
 21
51.612952049712
 31
0.0
  0
LINE
  5
   4A0
  8
0
  6
CONTINUOUS
 62
     7
 10
117.469864723921
 20
51.2929520449436
 30
0.0
 11
117.089864718258
 21
51.2929520449436
 31
0.0
  0
LINE
  5
   4A1
  8
0
  6
CONTINUOUS
 62
     7
 10
118.169864734352
 20
51.2929520449436
 30
0.0
 11
118.169864734352
 21
51.612952049712
 31
0.0
  0
LINE
  5
   4A2
  8
0
  6
CONTINUOUS
 62
     7
 10
117.469864723921
 20
51.6129520497119
 30
0.0
 11
117.089864718258
 21
51.6129520497119
 31
0.0
  0
LINE
  5
   4A3
  8
0
  6
CONTINUOUS
 62
     7
 10
117.469864723921
 20
49.4929520181215
 30
0.0
 11
117.469864723921
 21
51.2929520449436
 31
0.0
  0
LINE
  5
   4A4
  8
0
  6
CONTINUOUS
 62
     7
 10
117.789864728689
 20
49.4929520181215
 30
0.0
 11
117.789864728689
 21
51.2929520449436
 31
0.0
  0
LINE
  5
   4A5
  8
0
  6
CONTINUOUS
 62
     7
 10
118.169864734352
 20
51.2929520449436
 30
0.0
 11
117.789864728689
 21
51.2929520449436
 31
0.0
  0
LINE
  5
   4A6
  8
0
  6
CONTINUOUS
 62
     7
 10
118.169864734352
 20
51.6129520497119
 30
0.0
 11
117.789864728689
 21
51.6129520497119
 31
0.0
  0
LINE
  5
   4A7
  8
0
  6
CONTINUOUS
 62
     7
 10
117.469864723921
 20
51.612952049712
 30
0.0
 11
117.469864723921
 21
52.0529520562685
 31
0.0
  0
LINE
  5
   4A8
  8
0
  6
CONTINUOUS
 62
     7
 10
117.789864728689
 20
51.612952049712
 30
0.0
 11
117.789864728689
 21
52.0529520562685
 31
0.0
  0
ARC
  5
   4A9
  8
0
  6
CONTINUOUS
 62
     7
 10
117.989864731669
 20
52.0529520562684
 30
0.0
 40
0.520000007748604
 50
449.999999948034
 51
539.999999948034
  0
ARC
  5
   4AA
  8
0
  6
CONTINUOUS
 62
     7
 10
117.989864731669
 20
52.0529520562684
 30
0.0
 40
0.200000002980232
 50
449.999999948034
 51
539.999999948034
  0
LINE
  5
   4AB
  8
0
  6
CONTINUOUS
 62
     7
 10
118.169864734352
 20
52.2529520592487
 30
0.0
 11
118.169864734352
 21
52.5729520640171
 31
0.0
  0
LINE
  5
   4AC
  8
0
  6
CONTINUOUS
 62
     7
 10
118.169864734352
 20
52.2529520592487
 30
0.0
 11
117.989864731669
 21
52.2529520592487
 31
0.0
  0
LINE
  5
   4AD
  8
0
  6
CONTINUOUS
 62
     7
 10
116.349864707231
 20
63.2929522237575
 30
0.0
 11
116.029864702463
 21
63.2929522237575
 31
0.0
  0
ARC
  5
   4AE
  8
0
  6
CONTINUOUS
 62
     7
 10
114.669864682198
 20
64.5329522422349
 30
0.0
 40
1.04000001549721
 50
359.999999948034
 51
539.999999948034
  0
ARC
  5
   4AF
  8
0
  6
CONTINUOUS
 62
     7
 10
114.669864682198
 20
64.5329522422349
 30
0.0
 40
0.720000010728837
 50
359.999999948034
 51
539.999999948034
  0
ARC
  5
   4B0
  8
0
  6
CONTINUOUS
 62
     7
 10
114.669864682198
 20
64.3329522392547
 30
0.0
 40
1.04000001549721
 50
179.999999948034
 51
359.999999948034
  0
ARC
  5
   4B1
  8
0
  6
CONTINUOUS
 62
     7
 10
114.669864682198
 20
64.3329522392547
 30
0.0
 40
0.720000010728835
 50
179.999999948034
 51
359.999999948034
  0
LINE
  5
   4B2
  8
0
  6
CONTINUOUS
 62
     7
 10
115.389864692926
 20
64.3329522392547
 30
0.0
 11
115.389864692926
 21
64.5329522422349
 31
0.0
  0
LINE
  5
   4B3
  8
0
  6
CONTINUOUS
 62
     7
 10
115.709864697695
 20
64.3329522392547
 30
0.0
 11
115.709864697695
 21
64.5329522422349
 31
0.0
  0
LINE
  5
   4B4
  8
0
  6
CONTINUOUS
 62
     7
 10
113.949864671469
 20
64.3329522392547
 30
0.0
 11
113.949864671469
 21
64.5329522422349
 31
0.0
  0
LINE
  5
   4B5
  8
0
  6
CONTINUOUS
 62
     7
 10
113.6298646667
 20
64.3329522392547
 30
0.0
 11
113.6298646667
 21
64.5329522422349
 31
0.0
  0
LINE
  5
   4B6
  8
0
  6
CONTINUOUS
 62
     7
 10
116.029864702463
 20
63.2929522237575
 30
0.0
 11
116.029864702463
 21
65.5729522577322
 31
0.0
  0
LINE
  5
   4B7
  8
0
  6
CONTINUOUS
 62
     7
 10
116.349864707231
 20
63.2929522237575
 30
0.0
 11
116.349864707231
 21
64.6929522446191
 31
0.0
  0
LINE
  5
   4B8
  8
0
  6
CONTINUOUS
 62
     7
 10
117.469864723921
 20
63.2929522237575
 30
0.0
 11
117.469864723921
 21
64.6929522446191
 31
0.0
  0
LINE
  5
   4B9
  8
0
  6
CONTINUOUS
 62
     7
 10
117.789864728689
 20
63.2929522237575
 30
0.0
 11
117.789864728689
 21
64.7729522458112
 31
0.0
  0
LINE
  5
   4BA
  8
0
  6
CONTINUOUS
 62
     7
 10
116.349864707231
 20
65.5729522577321
 30
0.0
 11
116.029864702463
 21
65.5729522577321
 31
0.0
  0
ARC
  5
   4BB
  8
0
  6
CONTINUOUS
 62
     7
 10
116.909864715576
 20
64.6929522446191
 30
0.0
 40
0.56000000834465
 50
359.999999948034
 51
539.999999948034
  0
LINE
  5
   4BC
  8
0
  6
CONTINUOUS
 62
     7
 10
116.349864707231
 20
65.2529522529638
 30
0.0
 11
116.349864707231
 21
65.5729522577322
 31
0.0
  0
ARC
  5
   4BD
  8
0
  6
CONTINUOUS
 62
     7
 10
116.989864716768
 20
64.7729522458112
 30
0.0
 40
0.800000011920929
 50
359.999999948034
 51
503.13010230219
  0
LINE
  5
   4BE
  8
0
  6
CONTINUOUS
 62
     7
 10
117.789864728689
 20
63.2929522237575
 30
0.0
 11
117.469864723921
 21
63.2929522237575
 31
0.0
  0
LINE
  5
   4BF
  8
0
  6
CONTINUOUS
 62
     7
 10
98.969854308833
 20
129.53295626257
 30
0.0
 11
98.969854308833
 21
130.732956280451
 31
0.0
  0
LINE
  5
   4C0
  8
0
  6
CONTINUOUS
 62
     7
 10
100.369854329695
 20
129.53295626257
 30
0.0
 11
100.369854329695
 21
130.732956280451
 31
0.0
  0
LINE
  5
   4C1
  8
0
  6
CONTINUOUS
 62
     7
 10
98.6698543043627
 20
128.132956241708
 30
0.0
 11
98.6698543043627
 21
129.53295626257
 31
0.0
  0
LINE
  5
   4C2
  8
0
  6
CONTINUOUS
 62
     7
 10
100.669854334165
 20
128.132956241708
 30
0.0
 11
100.669854334165
 21
129.53295626257
 31
0.0
  0
LINE
  5
   4C3
  8
0
  6
CONTINUOUS
 62
     7
 10
100.669854334165
 20
129.53295626257
 30
0.0
 11
100.369854329695
 21
129.53295626257
 31
0.0
  0
LINE
  5
   4C4
  8
0
  6
CONTINUOUS
 62
     7
 10
98.969854308833
 20
129.53295626257
 30
0.0
 11
98.6698543043627
 21
129.53295626257
 31
0.0
  0
LINE
  5
   4C5
  8
0
  6
CONTINUOUS
 62
     7
 10
114.369882629644
 20
28.7329547605328
 30
0.0
 11
114.369882629644
 21
29.6329593515791
 31
0.0
  0
LINE
  5
   4C6
  8
0
  6
CONTINUOUS
 62
     7
 10
112.969882608782
 20
28.7329547605328
 30
0.0
 11
112.969882608782
 21
29.6329593515791
 31
0.0
  0
LINE
  5
   4C7
  8
0
  6
CONTINUOUS
 62
     7
 10
100.369854329695
 20
28.7329547605328
 30
0.0
 11
100.369854329695
 21
29.6329593515791
 31
0.0
  0
LINE
  5
   4C8
  8
0
  6
CONTINUOUS
 62
     7
 10
98.969854308833
 20
28.7329547605328
 30
0.0
 11
98.969854308833
 21
29.6329593515791
 31
0.0
  0
LINE
  5
   4C9
  8
0
  6
CONTINUOUS
 62
     7
 10
86.0698681384325
 20
67.2329522824681
 30
0.0
 11
85.669868156325
 21
67.2329522824681
 31
0.0
  0
LINE
  5
   4CA
  8
0
  6
CONTINUOUS
 62
     7
 10
86.0698681384325
 20
66.8329522765076
 30
0.0
 11
85.669868156316
 21
66.8329522765076
 31
0.0
  0
LINE
  5
   4CB
  8
0
  6
CONTINUOUS
 62
     7
 10
86.0698681384325
 20
62.032952204982
 30
0.0
 11
85.669868156316
 21
62.032952204982
 31
0.0
  0
LINE
  5
   4CC
  8
0
  6
CONTINUOUS
 62
     7
 10
86.0698681384325
 20
61.6329521990216
 30
0.0
 11
85.6698681563047
 21
61.6329521990216
 31
0.0
  0
LINE
  5
   4CD
  8
0
  6
CONTINUOUS
 62
     7
 10
86.0698681384325
 20
53.8329597769647
 30
0.0
 11
85.6698681563047
 21
53.8329597769647
 31
0.0
  0
LINE
  5
   4CE
  8
0
  6
CONTINUOUS
 62
     7
 10
86.0698681384325
 20
53.4329597710019
 30
0.0
 11
85.6698681563119
 21
53.4329597710019
 31
0.0
  0
LINE
  5
   4CF
  8
0
  6
CONTINUOUS
 62
     7
 10
86.0698681384325
 20
48.6329520053065
 30
0.0
 11
85.6698681563119
 21
48.6329520053065
 31
0.0
  0
LINE
  5
   4D0
  8
0
  6
CONTINUOUS
 62
     7
 10
86.0698681384325
 20
48.232951999346
 30
0.0
 11
85.6698681563139
 21
48.232951999346
 31
0.0
  0
LINE
  5
   4D1
  8
0
  6
CONTINUOUS
 62
     7
 10
127.269862672687
 20
67.2329522824681
 30
0.0
 11
86.0698681384325
 21
67.2329522824681
 31
0.0
  0
LINE
  5
   4D2
  8
0
  6
CONTINUOUS
 62
     7
 10
127.269862672687
 20
66.8329522765076
 30
0.0
 11
86.0698681384325
 21
66.8329522765076
 31
0.0
  0
LINE
  5
   4D3
  8
0
  6
CONTINUOUS
 62
     7
 10
127.269862672687
 20
62.032952204982
 30
0.0
 11
110.969868533313
 21
62.032952204982
 31
0.0
  0
LINE
  5
   4D4
  8
0
  6
CONTINUOUS
 62
     7
 10
127.269862672687
 20
61.6329521990216
 30
0.0
 11
110.969868533313
 21
61.6329521990216
 31
0.0
  0
LINE
  5
   4D5
  8
0
  6
CONTINUOUS
 62
     7
 10
127.269862672687
 20
53.8329565956637
 30
0.0
 11
110.96986733941
 21
53.8329565956637
 31
0.0
  0
LINE
  5
   4D6
  8
0
  6
CONTINUOUS
 62
     7
 10
127.269862672687
 20
53.4329565897033
 30
0.0
 11
110.969867192854
 21
53.4329565897033
 31
0.0
  0
LINE
  5
   4D7
  8
0
  6
CONTINUOUS
 62
     7
 10
127.269862672687
 20
48.6329520053065
 30
0.0
 11
86.0698681384325
 21
48.6329520053065
 31
0.0
  0
LINE
  5
   4D8
  8
0
  6
CONTINUOUS
 62
     7
 10
127.269862672687
 20
48.232951999346
 30
0.0
 11
86.0698681384325
 21
48.232951999346
 31
0.0
  0
LINE
  5
   4D9
  8
0
  6
DASHDOT
 62
     7
 10
113.669862787485
 20
29.1329537363484
 30
0.0
 11
113.669862787485
 21
37.8156166727979
 31
0.0
  0
LINE
  5
   4DA
  8
0
  6
CONTINUOUS
 62
     7
 10
110.969868533313
 20
55.383080389659
 30
0.0
 11
102.369868405163
 21
55.383080389659
 31
0.0
  0
LINE
  5
   4DB
  8
0
  6
CONTINUOUS
 62
     7
 10
110.969868533313
 20
52.9364941509552
 30
0.0
 11
102.369868405163
 21
52.9364941509552
 31
0.0
  0
LINE
  5
   4DC
  8
0
  6
CONTINUOUS
 62
     7
 10
110.969868533313
 20
50.5573666650188
 30
0.0
 11
102.369868405163
 21
50.5573666650188
 31
0.0
  0
LINE
  5
   4DD
  8
0
  6
CONTINUOUS
 62
     7
 10
110.969868533313
 20
50.2362678091467
 30
0.0
 11
102.369868405163
 21
50.2362678091467
 31
0.0
  0
LINE
  5
   4DE
  8
0
  6
DASHDOT
 62
     7
 10
138.502361132471
 20
61.8329583055175
 30
0.0
 11
70.881998701475
 21
61.8329583055175
 31
0.0
  0
LINE
  5
   4DF
  8
0
  6
DASHDOT
 62
     7
 10
63.5204753865134
 20
61.8329583055175
 30
0.0
 11
55.4773295423888
 21
61.8329583055175
 31
0.0
  0
LINE
  5
   4E0
  8
0
  6
CONTINUOUS
 62
     2
 10
125.269857010721
 20
27.7329547456315
 30
0.0
 11
125.269857010721
 21
28.7329547605322
 31
0.0
  0
LINE
  5
   4E1
  8
0
  6
CONTINUOUS
 62
     2
 10
88.0698566730015
 20
27.7329547456315
 30
0.0
 11
88.0698566730015
 21
28.7329547605326
 31
0.0
  0
LINE
  5
   4E2
  8
0
  6
CONTINUOUS
 62
     2
 10
125.269857010721
 20
27.7329547456315
 30
0.0
 11
88.0698566730015
 21
27.7329547456315
 31
0.0
  0
LINE
  5
   4E3
  8
0
  6
CONTINUOUS
 62
     2
 10
88.6698543111151
 20
130.732956280451
 30
0.0
 11
88.6698543111151
 21
143.732949584723
 31
0.0
  0
LINE
  5
   4E4
  8
0
  6
CONTINUOUS
 62
     2
 10
96.6698544303244
 20
130.732956280451
 30
0.0
 11
96.6698544303244
 21
143.732949584723
 31
0.0
  0
LINE
  5
   4E5
  8
0
  6
CONTINUOUS
 62
     2
 10
96.6698544303244
 20
143.732949584723
 30
0.0
 11
88.6698543111151
 21
143.732949584723
 31
0.0
  0
CIRCLE
  5
   4E6
  8
0
  6
CONTINUOUS
 62
     2
 10
92.6698562804716
 20
138.732949510217
 30
0.0
 40
1.70000002533197
  0
LINE
  5
   4E7
  8
0
  6
CONTINUOUS
 62
     2
 10
110.669854638941
 20
143.732949584723
 30
0.0
 11
102.669854519731
 21
143.732949584723
 31
0.0
  0
LINE
  5
   4E8
  8
0
  6
CONTINUOUS
 62
     2
 10
110.669854638941
 20
131.732956295352
 30
0.0
 11
110.669854638941
 21
143.732949584723
 31
0.0
  0
CIRCLE
  5
   4E9
  8
0
  6
CONTINUOUS
 62
     2
 10
106.669856489088
 20
138.732949510217
 30
0.0
 40
1.70000002533197
  0
LINE
  5
   4EA
  8
0
  6
CONTINUOUS
 62
     2
 10
102.669854519731
 20
131.732956295352
 30
0.0
 11
102.669854519731
 21
143.732949584723
 31
0.0
  0
CIRCLE
  5
   4EB
  8
0
  6
CONTINUOUS
 62
     2
 10
120.669856697704
 20
138.732949510217
 30
0.0
 40
1.70000002533197
  0
LINE
  5
   4EC
  8
0
  6
CONTINUOUS
 62
     2
 10
124.669854847557
 20
131.732956295352
 30
0.0
 11
124.669854847557
 21
143.732949584723
 31
0.0
  0
LINE
  5
   4ED
  8
0
  6
CONTINUOUS
 62
     2
 10
116.669854728348
 20
131.732956295352
 30
0.0
 11
116.669854728348
 21
143.732949584723
 31
0.0
  0
LINE
  5
   4EE
  8
0
  6
CONTINUOUS
 62
     2
 10
124.669854847557
 20
143.732949584723
 30
0.0
 11
116.669854728348
 21
143.732949584723
 31
0.0
  0
LINE
  5
   4EF
  8
0
  6
DASHDOT
 62
     2
 10
120.669856697704
 20
136.632949478924
 30
0.0
 11
120.669856697704
 21
140.832949541509
 31
0.0
  0
LINE
  5
   4F0
  8
0
  6
DASHDOT
 62
     2
 10
122.769856728997
 20
138.732949510217
 30
0.0
 11
118.569856666412
 21
138.732949510217
 31
0.0
  0
LINE
  5
   4F1
  8
0
  6
DASHDOT
 62
     2
 10
108.76985652038
 20
138.732949510217
 30
0.0
 11
104.569856457795
 21
138.732949510217
 31
0.0
  0
LINE
  5
   4F2
  8
0
  6
DASHDOT
 62
     2
 10
92.6698562804716
 20
136.632949478924
 30
0.0
 11
92.6698562804716
 21
140.832949541509
 31
0.0
  0
LINE
  5
   4F3
  8
0
  6
DASHDOT
 62
     2
 10
94.769856311764
 20
138.732949510217
 30
0.0
 11
90.5698562491791
 21
138.732949510217
 31
0.0
  0
LINE
  5
   4F4
  8
0
  6
CONTINUOUS
 62
     1
 10
101.869854352046
 20
131.732956295352
 30
0.0
 11
101.869854352046
 21
132.932956313234
 31
0.0
  0
LINE
  5
   4F5
  8
0
  6
CONTINUOUS
 62
     1
 10
99.0698543103231
 20
132.932956313234
 30
0.0
 11
97.4698542864813
 21
132.932956313234
 31
0.0
  0
LINE
  5
   4F6
  8
0
  6
CONTINUOUS
 62
     1
 10
101.869854352046
 20
132.932956313234
 30
0.0
 11
100.269854328205
 21
132.932956313234
 31
0.0
  0
LINE
  5
   4F7
  8
0
  6
CONTINUOUS
 62
     1
 10
97.4698542864813
 20
130.732956280451
 30
0.0
 11
97.4698542864813
 21
132.932956313234
 31
0.0
  0
LINE
  5
   4F8
  8
0
  6
CONTINUOUS
 62
     1
 10
101.869854352046
 20
131.732956295352
 30
0.0
 11
97.4698542864813
 21
131.732956295352
 31
0.0
  0
LINE
  5
   4F9
  8
0
  6
CONTINUOUS
 62
     1
 10
99.0698543103231
 20
129.612956092101
 30
0.0
 11
98.969854308833
 21
129.612956092101
 31
0.0
  0
LINE
  5
   4FA
  8
0
  6
CONTINUOUS
 62
     1
 10
98.7698543058528
 20
128.332956053954
 30
0.0
 11
98.7698543058528
 21
129.53295626257
 31
0.0
  0
LINE
  5
   4FB
  8
0
  6
CONTINUOUS
 62
     1
 10
100.569854332675
 20
128.332956053954
 30
0.0
 11
98.7698543058528
 21
128.332956053954
 31
0.0
  0
LINE
  5
   4FC
  8
0
  6
CONTINUOUS
 62
     1
 10
100.569854332675
 20
128.332956053954
 30
0.0
 11
100.569854332675
 21
129.53295626257
 31
0.0
  0
LINE
  5
   4FD
  8
0
  6
CONTINUOUS
 62
     1
 10
100.369854329695
 20
129.612956092101
 30
0.0
 11
100.269854328205
 21
129.612956092101
 31
0.0
  0
LINE
  5
   4FE
  8
0
  6
CONTINUOUS
 62
     1
 10
100.269854328205
 20
129.612955996733
 30
0.0
 11
100.269854328205
 21
131.732956104617
 31
0.0
  0
LINE
  5
   4FF
  8
0
  6
CONTINUOUS
 62
     1
 10
99.0698543103231
 20
129.612955996733
 30
0.0
 11
99.0698543103231
 21
131.732956104617
 31
0.0
  0
LINE
  5
   500
  8
0
  6
CONTINUOUS
 62
     1
 10
100.069854325224
 20
164.932957171541
 30
0.0
 11
99.2698543133034
 21
164.932957171541
 31
0.0
  0
LINE
  5
   501
  8
0
  6
CONTINUOUS
 62
     1
 10
99.0698543103231
 20
129.21295608614
 30
0.0
 11
99.0698543103231
 21
129.612956092101
 31
0.0
  0
LINE
  5
   502
  8
0
  6
CONTINUOUS
 62
     1
 10
100.269854328205
 20
129.21295608614
 30
0.0
 11
100.269854328205
 21
129.612956092101
 31
0.0
  0
LINE
  5
   503
  8
0
  6
CONTINUOUS
 62
     1
 10
99.0698543103231
 20
129.21295608614
 30
0.0
 11
98.7698543058528
 21
129.21295608614
 31
0.0
  0
LINE
  5
   504
  8
0
  6
CONTINUOUS
 62
     1
 10
100.569854332675
 20
129.21295608614
 30
0.0
 11
100.269854328205
 21
129.21295608614
 31
0.0
  0
LINE
  5
   505
  8
0
  6
CONTINUOUS
 62
     1
 10
101.869854352046
 20
132.132956301313
 30
0.0
 11
97.4698542864813
 21
132.132956301313
 31
0.0
  0
LINE
  5
   506
  8
0
  6
CONTINUOUS
 62
     1
 10
100.269854328205
 20
132.932956313234
 30
0.0
 11
100.069854325224
 21
164.932957171541
 31
0.0
  0
LINE
  5
   507
  8
0
  6
CONTINUOUS
 62
     1
 10
99.0698543103231
 20
132.932956313234
 30
0.0
 11
99.2698543133034
 21
164.932957171541
 31
0.0
  0
LINE
  5
   508
  8
0
  6
CONTINUOUS
 62
     1
 10
113.069854518939
 20
132.932956313234
 30
0.0
 11
113.26985452192
 21
164.932957171541
 31
0.0
  0
LINE
  5
   509
  8
0
  6
CONTINUOUS
 62
     1
 10
114.269854536821
 20
132.932956313234
 30
0.0
 11
114.069854533841
 21
164.932957171541
 31
0.0
  0
LINE
  5
   50A
  8
0
  6
CONTINUOUS
 62
     1
 10
114.069854533841
 20
164.932957171541
 30
0.0
 11
113.26985452192
 21
164.932957171541
 31
0.0
  0
LINE
  5
   50B
  8
0
  6
CONTINUOUS
 62
     1
 10
115.869854560663
 20
132.932956313234
 30
0.0
 11
114.269854536821
 21
132.932956313234
 31
0.0
  0
LINE
  5
   50C
  8
0
  6
CONTINUOUS
 62
     1
 10
113.069854518939
 20
132.932956313234
 30
0.0
 11
111.469854495098
 21
132.932956313234
 31
0.0
  0
LINE
  5
   50D
  8
0
  6
CONTINUOUS
 62
     1
 10
115.869854560663
 20
132.132956301313
 30
0.0
 11
111.469854495098
 21
132.132956301313
 31
0.0
  0
LINE
  5
   50E
  8
0
  6
CONTINUOUS
 62
     1
 10
111.469854495098
 20
131.732956295352
 30
0.0
 11
111.469854495098
 21
132.932956313234
 31
0.0
  0
LINE
  5
   50F
  8
0
  6
CONTINUOUS
 62
     1
 10
115.869854560663
 20
131.732956295352
 30
0.0
 11
115.869854560663
 21
132.932956313234
 31
0.0
  0
INSERT
  5
   510
  8
255
  6
CONTINUOUS
 62
     7
  2
$1MOSTRINA
 10
60.7345650503739
 20
17.8407091148257
 30
0.0
 41
0.400000005960464
 42
0.400000005960464
 50
3.50835464724173E-15
 43
0.400000005960464
  0
LINE
  5
   511
  8
0
  6
CONTINUOUS
 62
     3
 10
127.169861594344
 20
131.732956295352
 30
0.0
 11
101.917579471786
 21
131.732956295352
 31
0.0
  0
LINE
  5
   512
  8
0
  6
CONTINUOUS
 62
     3
 10
127.669883152866
 20
94.0329587853349
 30
0.0
 11
127.669883152866
 21
131.232911267013
 31
0.0
  0
LINE
  5
   513
  8
0
  6
CONTINUOUS
 62
     3
 10
127.523416041368
 20
131.586511184725
 30
0.0
 11
127.16986378773
 21
131.732958943439
 31
0.0
  0
LINE
  5
   514
  8
0
  6
CONTINUOUS
 62
     3
 10
127.669862588891
 20
131.23296091229
 30
0.0
 11
127.523414830177
 21
131.586513165928
 31
0.0
  0
LINE
  5
   515
  8
0
  6
CONTINUOUS
 62
     3
 10
126.729862198139
 20
121.332954133749
 30
0.0
 11
126.729862198139
 21
131.608694818891
 31
0.0
  0
LINE
  5
   516
  8
0
  6
CONTINUOUS
 62
     3
 10
125.289862787033
 20
121.332954133749
 30
0.0
 11
125.289862787033
 21
131.608694818891
 31
0.0
  0
LINE
  5
   517
  8
0
  6
CONTINUOUS
 62
     3
 10
123.849863375927
 20
121.332954133749
 30
0.0
 11
123.849863375927
 21
131.608694818891
 31
0.0
  0
LINE
  5
   518
  8
0
  6
CONTINUOUS
 62
     3
 10
122.409863964821
 20
121.332954133749
 30
0.0
 11
122.409863964821
 21
131.608694818891
 31
0.0
  0
LINE
  5
   519
  8
0
  6
CONTINUOUS
 62
     3
 10
120.969861501957
 20
121.332954133749
 30
0.0
 11
120.969861501957
 21
131.608694818891
 31
0.0
  0
LINE
  5
   51A
  8
0
  6
CONTINUOUS
 62
     3
 10
119.529862090851
 20
121.332954133749
 30
0.0
 11
119.529862090851
 21
131.608694818891
 31
0.0
  0
LINE
  5
   51B
  8
0
  6
CONTINUOUS
 62
     3
 10
118.089862679745
 20
121.332954133749
 30
0.0
 11
118.089862679745
 21
131.608694818891
 31
0.0
  0
LINE
  5
   51C
  8
0
  6
CONTINUOUS
 62
     3
 10
116.649863268639
 20
121.332954133749
 30
0.0
 11
116.649863268639
 21
131.608694818891
 31
0.0
  0
LINE
  5
   51D
  8
0
  6
CONTINUOUS
 62
     3
 10
115.209863857533
 20
121.332954133749
 30
0.0
 11
115.209863857533
 21
131.608694818891
 31
0.0
  0
LINE
  5
   51E
  8
0
  6
CONTINUOUS
 62
     3
 10
113.769861394669
 20
121.332954133749
 30
0.0
 11
113.769861394669
 21
131.608694818891
 31
0.0
  0
LINE
  5
   51F
  8
0
  6
CONTINUOUS
 62
     3
 10
112.329861983563
 20
121.332954133749
 30
0.0
 11
112.329861983563
 21
131.608694818891
 31
0.0
  0
LINE
  5
   520
  8
0
  6
CONTINUOUS
 62
     3
 10
110.889862572456
 20
121.332954133749
 30
0.0
 11
110.889862572456
 21
131.608694818891
 31
0.0
  0
LINE
  5
   521
  8
0
  6
CONTINUOUS
 62
     3
 10
109.44986316135
 20
121.332954133749
 30
0.0
 11
109.44986316135
 21
131.608694818891
 31
0.0
  0
LINE
  5
   522
  8
0
  6
CONTINUOUS
 62
     3
 10
108.009862224365
 20
121.332954133749
 30
0.0
 11
108.009862224365
 21
131.608694818891
 31
0.0
  0
LINE
  5
   523
  8
0
  6
CONTINUOUS
 62
     3
 10
106.569862813259
 20
121.332954133749
 30
0.0
 11
106.569862813259
 21
131.608694818891
 31
0.0
  0
LINE
  5
   524
  8
0
  6
CONTINUOUS
 62
     3
 10
105.129863402153
 20
121.332954133749
 30
0.0
 11
105.129863402153
 21
131.608694818891
 31
0.0
  0
LINE
  5
   525
  8
0
  6
CONTINUOUS
 62
     3
 10
103.689862465168
 20
121.332954133749
 30
0.0
 11
103.689862465168
 21
131.608694818891
 31
0.0
  0
LINE
  5
   526
  8
0
  6
CONTINUOUS
 62
     3
 10
102.249863054062
 20
121.332954133749
 30
0.0
 11
102.249863054062
 21
131.608694818891
 31
0.0
  0
POLYLINE
  5
   527
  8
0
  6
CONTINUOUS
 62
     3
 66
     1
 10
0.0
 20
0.0
 30
0.0
  0
VERTEX
  5
   528
  8
0
  6
CONTINUOUS
 10
101.917579471786
 20
131.732956008298
 30
0.0
 40
0.0
 41
0.0
  0
VERTEX
  5
   529
  8
0
  6
CONTINUOUS
 10
101.854633116331
 20
131.683078285694
 30
0.0
 40
0.0
 41
0.0
  0
VERTEX
  5
   52A
  8
0
  6
CONTINUOUS
 10
101.795053262358
 20
131.632092519484
 30
0.0
 40
0.0
 41
0.0
  0
VERTEX
  5
   52B
  8
0
  6
CONTINUOUS
 10
101.738829160551
 20
131.580001363581
 30
0.0
 40
0.0
 41
0.0
  0
VERTEX
  5
   52C
  8
0
  6
CONTINUOUS
 10
101.685946363149
 20
131.526808385013
 30
0.0
 40
0.0
 41
0.0
  0
VERTEX
  5
   52D
  8
0
  6
CONTINUOUS
 10
101.636386175109
 20
131.472518199424
 30
0.0
 40
0.0
 41
0.0
  0
VERTEX
  5
   52E
  8
0
  6
CONTINUOUS
 10
101.612844920968
 20
131.444963416463
 30
0.0
 40
0.0
 41
0.0
  0
VERTEX
  5
   52F
  8
0
  6
CONTINUOUS
 10
101.590125105271
 20
131.417136606578
 30
0.0
 40
0.0
 41
0.0
  0
VERTEX
  5
   530
  8
0
  6
CONTINUOUS
 10
101.568222952186
 20
131.38903870199
 30
0.0
 40
0.0
 41
0.0
  0
VERTEX
  5
   531
  8
0
  6
CONTINUOUS
 10
101.547134317519
 20
131.360670725864
 30
0.0
 40
0.0
 41
0.0
  0
VERTEX
  5
   532
  8
0
  6
CONTINUOUS
 10
101.526854671561
 20
131.332033796546
 30
0.0
 40
0.0
 41
0.0
  0
VERTEX
  5
   533
  8
0
  6
CONTINUOUS
 10
101.507379081942
 20
131.303129131796
 30
0.0
 40
0.0
 41
0.0
  0
VERTEX
  5
   534
  8
0
  6
CONTINUOUS
 10
101.488702196473
 20
131.273958053023
 30
0.0
 40
0.0
 41
0.0
  0
VERTEX
  5
   535
  8
0
  6
CONTINUOUS
 10
101.470818226001
 20
131.244521989519
 30
0.0
 40
0.0
 41
0.0
  0
VERTEX
  5
   536
  8
0
  6
CONTINUOUS
 10
101.453720927252
 20
131.214822482694
 30
0.0
 40
0.0
 41
0.0
  0
VERTEX
  5
   537
  8
0
  6
CONTINUOUS
 10
101.437403585686
 20
131.18486119031
 30
0.0
 40
0.0
 41
0.0
  0
VERTEX
  5
   538
  8
0
  6
CONTINUOUS
 10
101.421858998341
 20
131.154639890717
 30
0.0
 40
0.0
 41
0.0
  0
VERTEX
  5
   539
  8
0
  6
CONTINUOUS
 10
101.407079456684
 20
131.124160487084
 30
0.0
 40
0.0
 41
0.0
  0
VERTEX
  5
   53A
  8
0
  6
CONTINUOUS
 10
101.379782045539
 20
131.062435629894
 30
0.0
 40
0.0
 41
0.0
  0
VERTEX
  5
   53B
  8
0
  6
CONTINUOUS
 10
101.355438920814
 20
130.999704501436
 30
0.0
 40
0.0
 41
0.0
  0
VERTEX
  5
   53C
  8
0
  6
CONTINUOUS
 10
101.333968464255
 20
130.935987252551
 30
0.0
 40
0.0
 41
0.0
  0
VERTEX
  5
   53D
  8
0
  6
CONTINUOUS
 10
101.315279321952
 20
130.871306437731
 30
0.0
 40
0.0
 41
0.0
  0
VERTEX
  5
   53E
  8
0
  6
CONTINUOUS
 10
101.299269855506
 20
130.805687150618
 30
0.0
 40
0.0
 41
0.0
  0
VERTEX
  5
   53F
  8
0
  6
CONTINUOUS
 10
101.285827593184
 20
130.739157159513
 30
0.0
 40
0.0
 41
0.0
  0
VERTEX
  5
   540
  8
0
  6
CONTINUOUS
 10
101.274828681089
 20
130.671747042872
 30
0.0
 40
0.0
 41
0.0
  0
VERTEX
  5
   541
  8
0
  6
CONTINUOUS
 10
101.266137334321
 20
130.603490324814
 30
0.0
 40
0.0
 41
0.0
  0
VERTEX
  5
   542
  8
0
  6
CONTINUOUS
 10
101.259605288134
 20
130.534423610623
 30
0.0
 40
0.0
 41
0.0
  0
VERTEX
  5
   543
  8
0
  6
CONTINUOUS
 10
101.25415860352
 20
130.445406541324
 30
0.0
 40
0.0
 41
0.0
  0
VERTEX
  5
   544
  8
0
  6
CONTINUOUS
 10
101.251584789115
 20
130.355231749628
 30
0.0
 40
0.0
 41
0.0
  0
VERTEX
  5
   545
  8
0
  6
CONTINUOUS
 10
101.251490466682
 20
130.263996990748
 30
0.0
 40
0.0
 41
0.0
  0
VERTEX
  5
   546
  8
0
  6
CONTINUOUS
 10
101.25345682515
 20
130.171807312686
 30
0.0
 40
0.0
 41
0.0
  0
VERTEX
  5
   547
  8
0
  6
CONTINUOUS
 10
101.257044721484
 20
130.078774303689
 30
0.0
 40
0.0
 41
0.0
  0
VERTEX
  5
   548
  8
0
  6
CONTINUOUS
 10
101.261799781566
 20
129.98501533971
 30
0.0
 40
0.0
 41
0.0
  0
VERTEX
  5
   549
  8
0
  6
CONTINUOUS
 10
101.272948346325
 20
129.795813473873
 30
0.0
 40
0.0
 41
0.0
  0
VERTEX
  5
   54A
  8
0
  6
CONTINUOUS
 10
101.283156738049
 20
129.605227880271
 30
0.0
 40
0.0
 41
0.0
  0
VERTEX
  5
   54B
  8
0
  6
CONTINUOUS
 10
101.286755978402
 20
129.509749672344
 30
0.0
 40
0.0
 41
0.0
  0
VERTEX
  5
   54C
  8
0
  6
CONTINUOUS
 10
101.288761934039
 20
129.414329164571
 30
0.0
 40
0.0
 41
0.0
  0
VERTEX
  5
   54D
  8
0
  6
CONTINUOUS
 10
101.288756437764
 20
129.319103175658
 30
0.0
 40
0.0
 41
0.0
  0
VERTEX
  5
   54E
  8
0
  6
CONTINUOUS
 10
101.286346898303
 20
129.224208291672
 30
0.0
 40
0.0
 41
0.0
  0
VERTEX
  5
   54F
  8
0
  6
CONTINUOUS
 10
101.281171401176
 20
129.129780113513
 30
0.0
 40
0.0
 41
0.0
  0
VERTEX
  5
   550
  8
0
  6
CONTINUOUS
 10
101.277442963693
 20
129.082782959818
 30
0.0
 40
0.0
 41
0.0
  0
VERTEX
  5
   551
  8
0
  6
CONTINUOUS
 10
101.272903809577
 20
129.035952504359
 30
0.0
 40
0.0
 41
0.0
  0
VERTEX
  5
   552
  8
0
  6
CONTINUOUS
 10
101.267519598848
 20
128.98930508505
 30
0.0
 40
0.0
 41
0.0
  0
VERTEX
  5
   553
  8
0
  6
CONTINUOUS
 10
101.261258865245
 20
128.942856837132
 30
0.0
 40
0.0
 41
0.0
  0
VERTEX
  5
   554
  8
0
  6
CONTINUOUS
 10
101.254093175621
 20
128.896623669655
 30
0.0
 40
0.0
 41
0.0
  0
VERTEX
  5
   555
  8
0
  6
CONTINUOUS
 10
101.245997289347
 20
128.850621241956
 30
0.0
 40
0.0
 41
0.0
  0
VERTEX
  5
   556
  8
0
  6
CONTINUOUS
 10
101.236949317716
 20
128.80486494015
 30
0.0
 40
0.0
 41
0.0
  0
VERTEX
  5
   557
  8
0
  6
CONTINUOUS
 10
101.226930883344
 20
128.759369853609
 30
0.0
 40
0.0
 41
0.0
  0
VERTEX
  5
   558
  8
0
  6
CONTINUOUS
 10
101.215927279574
 20
128.714150751443
 30
0.0
 40
0.0
 41
0.0
  0
VERTEX
  5
   559
  8
0
  6
CONTINUOUS
 10
101.203927629876
 20
128.669222058987
 30
0.0
 40
0.0
 41
0.0
  0
VERTEX
  5
   55A
  8
0
  6
CONTINUOUS
 10
101.185786301623
 20
128.607933869407
 30
0.0
 40
0.0
 41
0.0
  0
VERTEX
  5
   55B
  8
0
  6
CONTINUOUS
 10
101.165743237888
 20
128.547256768596
 30
0.0
 40
0.0
 41
0.0
  0
VERTEX
  5
   55C
  8
0
  6
CONTINUOUS
 10
101.143806817237
 20
128.487224355715
 30
0.0
 40
0.0
 41
0.0
  0
VERTEX
  5
   55D
  8
0
  6
CONTINUOUS
 10
101.119998240411
 20
128.427868229653
 30
0.0
 40
0.0
 41
0.0
  0
VERTEX
  5
   55E
  8
0
  6
CONTINUOUS
 10
101.09435052087
 20
128.369217687867
 30
0.0
 40
0.0
 41
0.0
  0
VERTEX
  5
   55F
  8
0
  6
CONTINUOUS
 10
101.066907475334
 20
128.311299425226
 30
0.0
 40
0.0
 41
0.0
  0
VERTEX
  5
   560
  8
0
  6
CONTINUOUS
 10
101.037722714336
 20
128.254137232858
 30
0.0
 40
0.0
 41
0.0
  0
VERTEX
  5
   561
  8
0
  6
CONTINUOUS
 10
101.00685863276
 20
128.197751696991
 30
0.0
 40
0.0
 41
0.0
  0
VERTEX
  5
   562
  8
0
  6
CONTINUOUS
 10
100.97438540039
 20
128.142159897797
 30
0.0
 40
0.0
 41
0.0
  0
VERTEX
  5
   563
  8
0
  6
CONTINUOUS
 10
100.940379952453
 20
128.087375108237
 30
0.0
 40
0.0
 41
0.0
  0
VERTEX
  5
   564
  8
0
  6
CONTINUOUS
 10
100.904924980167
 20
128.033406492904
 30
0.0
 40
0.0
 41
0.0
  0
VERTEX
  5
   565
  8
0
  6
CONTINUOUS
 10
100.868107921283
 20
127.980258806868
 30
0.0
 40
0.0
 41
0.0
  0
VERTEX
  5
   566
  8
0
  6
CONTINUOUS
 10
100.83001995063
 20
127.927932094517
 30
0.0
 40
0.0
 41
0.0
  0
VERTEX
  5
   567
  8
0
  6
CONTINUOUS
 10
100.790754970664
 20
127.876421388405
 30
0.0
 40
0.0
 41
0.0
  0
VERTEX
  5
   568
  8
0
  6
CONTINUOUS
 10
100.750408602008
 20
127.82571640809
 30
0.0
 40
0.0
 41
0.0
  0
VERTEX
  5
   569
  8
0
  6
CONTINUOUS
 10
100.709077174002
 20
127.775801258987
 30
0.0
 40
0.0
 41
0.0
  0
VERTEX
  5
   56A
  8
0
  6
CONTINUOUS
 10
100.666856715244
 20
127.7266541312
 30
0.0
 40
0.0
 41
0.0
  0
VERTEX
  5
   56B
  8
0
  6
CONTINUOUS
 10
100.623841944136
 20
127.678246998376
 30
0.0
 40
0.0
 41
0.0
  0
VERTEX
  5
   56C
  8
0
  6
CONTINUOUS
 10
100.580125259433
 20
127.630545316544
 30
0.0
 40
0.0
 41
0.0
  0
VERTEX
  5
   56D
  8
0
  6
CONTINUOUS
 10
100.535795730782
 20
127.583507722959
 30
0.0
 40
0.0
 41
0.0
  0
VERTEX
  5
   56E
  8
0
  6
CONTINUOUS
 10
100.480775281087
 20
127.52671466367
 30
0.0
 40
0.0
 41
0.0
  0
VERTEX
  5
   56F
  8
0
  6
CONTINUOUS
 10
100.425107585106
 20
127.470741457546
 30
0.0
 40
0.0
 41
0.0
  0
VERTEX
  5
   570
  8
0
  6
CONTINUOUS
 10
100.312363119868
 20
127.360769372733
 30
0.0
 40
0.0
 41
0.0
  0
VERTEX
  5
   571
  8
0
  6
CONTINUOUS
 10
100.084570241774
 20
127.144752800696
 30
0.0
 40
0.0
 41
0.0
  0
VERTEX
  5
   572
  8
0
  6
CONTINUOUS
 10
99.9712905494481
 20
127.036227111035
 30
0.0
 40
0.0
 41
0.0
  0
VERTEX
  5
   573
  8
0
  6
CONTINUOUS
 10
99.9151882580366
 20
126.981279644692
 30
0.0
 40
0.0
 41
0.0
  0
VERTEX
  5
   574
  8
0
  6
CONTINUOUS
 10
99.8595980196122
 20
126.925671524245
 30
0.0
 40
0.0
 41
0.0
  0
VERTEX
  5
   575
  8
0
  6
CONTINUOUS
 10
99.8046424049366
 20
126.86925785101
 30
0.0
 40
0.0
 41
0.0
  0
VERTEX
  5
   576
  8
0
  6
CONTINUOUS
 10
99.7504518197584
 20
126.811902944851
 30
0.0
 40
0.0
 41
0.0
  0
VERTEX
  5
   577
  8
0
  6
CONTINUOUS
 10
99.697166161703
 20
126.753482505538
 30
0.0
 40
0.0
 41
0.0
  0
VERTEX
  5
   578
  8
0
  6
CONTINUOUS
 10
99.6449364771635
 20
126.693885774109
 30
0.0
 40
0.0
 41
0.0
  0
VERTEX
  5
   579
  8
0
  6
CONTINUOUS
 10
99.5939266181907
 20
126.633017694234
 30
0.0
 40
0.0
 41
0.0
  0
VERTEX
  5
   57A
  8
0
  6
CONTINUOUS
 10
99.5443148993843
 20
126.570801073574
 30
0.0
 40
0.0
 41
0.0
  0
VERTEX
  5
   57B
  8
0
  6
CONTINUOUS
 10
99.4962957547829
 20
126.507178745144
 30
0.0
 40
0.0
 41
0.0
  0
VERTEX
  5
   57C
  8
0
  6
CONTINUOUS
 10
99.4500813947547
 20
126.442115728674
 30
0.0
 40
0.0
 41
0.0
  0
VERTEX
  5
   57D
  8
0
  6
CONTINUOUS
 10
99.4198040352643
 20
126.397043722529
 30
0.0
 40
0.0
 41
0.0
  0
VERTEX
  5
   57E
  8
0
  6
CONTINUOUS
 10
99.3905457872031
 20
126.351303463223
 30
0.0
 40
0.0
 41
0.0
  0
VERTEX
  5
   57F
  8
0
  6
CONTINUOUS
 10
99.3623876329045
 20
126.30490355846
 30
0.0
 40
0.0
 41
0.0
  0
VERTEX
  5
   580
  8
0
  6
CONTINUOUS
 10
99.3354121809578
 20
126.257857405623
 30
0.0
 40
0.0
 41
0.0
  0
VERTEX
  5
   581
  8
0
  6
CONTINUOUS
 10
99.3097022247091
 20
126.210182752634
 30
0.0
 40
0.0
 41
0.0
  0
VERTEX
  5
   582
  8
0
  6
CONTINUOUS
 10
99.2853393007623
 20
126.161901258816
 30
0.0
 40
0.0
 41
0.0
  0
VERTEX
  5
   583
  8
0
  6
CONTINUOUS
 10
99.2624022474801
 20
126.113038055759
 30
0.0
 40
0.0
 41
0.0
  0
VERTEX
  5
   584
  8
0
  6
CONTINUOUS
 10
99.240965763485
 20
126.063621308175
 30
0.0
 40
0.0
 41
0.0
  0
VERTEX
  5
   585
  8
0
  6
CONTINUOUS
 10
99.2210989661599
 20
126.013681774764
 30
0.0
 40
0.0
 41
0.0
  0
VERTEX
  5
   586
  8
0
  6
CONTINUOUS
 10
99.2028639501495
 20
125.963252369076
 30
0.0
 40
0.0
 41
0.0
  0
VERTEX
  5
   587
  8
0
  6
CONTINUOUS
 10
99.1863143458614
 20
125.912367720371
 30
0.0
 40
0.0
 41
0.0
  0
VERTEX
  5
   588
  8
0
  6
CONTINUOUS
 10
99.1714938779663
 20
125.86106373448
 30
0.0
 40
0.0
 41
0.0
  0
VERTEX
  5
   589
  8
0
  6
CONTINUOUS
 10
99.1584349238997
 20
125.809377154671
 30
0.0
 40
0.0
 41
0.0
  0
VERTEX
  5
   58A
  8
0
  6
CONTINUOUS
 10
99.1471570723625
 20
125.757345122507
 30
0.0
 40
0.0
 41
0.0
  0
VERTEX
  5
   58B
  8
0
  6
CONTINUOUS
 10
99.1376656818223
 20
125.705004738707
 30
0.0
 40
0.0
 41
0.0
  0
VERTEX
  5
   58C
  8
0
  6
CONTINUOUS
 10
99.1299504390137
 20
125.652392624013
 30
0.0
 40
0.0
 41
0.0
  0
VERTEX
  5
   58D
  8
0
  6
CONTINUOUS
 10
99.1239839174401
 20
125.599544480045
 30
0.0
 40
0.0
 41
0.0
  0
VERTEX
  5
   58E
  8
0
  6
CONTINUOUS
 10
99.1197201358741
 20
125.546494650168
 30
0.0
 40
0.0
 41
0.0
  0
VERTEX
  5
   58F
  8
0
  6
CONTINUOUS
 10
99.1170931168586
 20
125.493275680352
 30
0.0
 40
0.0
 41
0.0
  0
VERTEX
  5
   590
  8
0
  6
CONTINUOUS
 10
99.1160154452078
 20
125.439917880034
 30
0.0
 40
0.0
 41
0.0
  0
VERTEX
  5
   591
  8
0
  6
CONTINUOUS
 10
99.1161807564658
 20
125.398189460541
 30
0.0
 40
0.0
 41
0.0
  0
VERTEX
  5
   592
  8
0
  6
CONTINUOUS
 10
99.1171609968598
 20
125.356405258561
 30
0.0
 40
0.0
 41
0.0
  0
VERTEX
  5
   593
  8
0
  6
CONTINUOUS
 10
99.1212768141174
 20
125.27271211963
 30
0.0
 40
0.0
 41
0.0
  0
VERTEX
  5
   594
  8
0
  6
CONTINUOUS
 10
99.1277160905755
 20
125.188915430186
 30
0.0
 40
0.0
 41
0.0
  0
VERTEX
  5
   595
  8
0
  6
CONTINUOUS
 10
99.1357426583378
 20
125.105081792205
 30
0.0
 40
0.0
 41
0.0
  0
VERTEX
  5
   596
  8
0
  6
CONTINUOUS
 10
99.1533314951937
 20
124.93754266406
 30
0.0
 40
0.0
 41
0.0
  0
VERTEX
  5
   597
  8
0
  6
CONTINUOUS
 10
99.1612225807261
 20
124.853955168594
 30
0.0
 40
0.0
 41
0.0
  0
VERTEX
  5
   598
  8
0
  6
CONTINUOUS
 10
99.167413692593
 20
124.770574850789
 30
0.0
 40
0.0
 41
0.0
  0
VERTEX
  5
   599
  8
0
  6
CONTINUOUS
 10
99.1711351215867
 20
124.687477513785
 30
0.0
 40
0.0
 41
0.0
  0
VERTEX
  5
   59A
  8
0
  6
CONTINUOUS
 10
99.1718491837306
 20
124.646062380871
 30
0.0
 40
0.0
 41
0.0
  0
VERTEX
  5
   59B
  8
0
  6
CONTINUOUS
 10
99.1716931034656
 20
124.604753006167
 30
0.0
 40
0.0
 41
0.0
  0
VERTEX
  5
   59C
  8
0
  6
CONTINUOUS
 10
99.1707534612581
 20
124.567762470613
 30
0.0
 40
0.0
 41
0.0
  0
VERTEX
  5
   59D
  8
0
  6
CONTINUOUS
 10
99.1690099651067
 20
124.530879661778
 30
0.0
 40
0.0
 41
0.0
  0
VERTEX
  5
   59E
  8
0
  6
CONTINUOUS
 10
99.1664222735167
 20
124.494116527311
 30
0.0
 40
0.0
 41
0.0
  0
VERTEX
  5
   59F
  8
0
  6
CONTINUOUS
 10
99.1629550188957
 20
124.457485779152
 30
0.0
 40
0.0
 41
0.0
  0
VERTEX
  5
   5A0
  8
0
  6
CONTINUOUS
 10
99.158577632467
 20
124.421000825081
 30
0.0
 40
0.0
 41
0.0
  0
VERTEX
  5
   5A1
  8
0
  6
CONTINUOUS
 10
99.1532641691817
 20
124.384675700257
 30
0.0
 40
0.0
 41
0.0
  0
VERTEX
  5
   5A2
  8
0
  6
CONTINUOUS
 10
99.1469931326321
 20
124.348524998764
 30
0.0
 40
0.0
 41
0.0
  0
VERTEX
  5
   5A3
  8
0
  6
CONTINUOUS
 10
99.1397472999642
 20
124.312563805159
 30
0.0
 40
0.0
 41
0.0
  0
VERTEX
  5
   5A4
  8
0
  6
CONTINUOUS
 10
99.1315135467905
 20
124.276807626012
 30
0.0
 40
0.0
 41
0.0
  0
VERTEX
  5
   5A5
  8
0
  6
CONTINUOUS
 10
99.1222826721029
 20
124.241272321456
 30
0.0
 40
0.0
 41
0.0
  0
VERTEX
  5
   5A6
  8
0
  6
CONTINUOUS
 10
99.1120492231855
 20
124.205974036727
 30
0.0
 40
0.0
 41
0.0
  0
VERTEX
  5
   5A7
  8
0
  6
CONTINUOUS
 10
99.1008113205273
 20
124.170929133709
 30
0.0
 40
0.0
 41
0.0
  0
VERTEX
  5
   5A8
  8
0
  6
CONTINUOUS
 10
99.0885704827349
 20
124.136154122482
 30
0.0
 40
0.0
 41
0.0
  0
VERTEX
  5
   5A9
  8
0
  6
CONTINUOUS
 10
99.0753314514458
 20
124.101665592865
 30
0.0
 40
0.0
 41
0.0
  0
VERTEX
  5
   5AA
  8
0
  6
CONTINUOUS
 10
99.0611020162404
 20
124.067480145959
 30
0.0
 40
0.0
 41
0.0
  0
VERTEX
  5
   5AB
  8
0
  6
CONTINUOUS
 10
99.0458928395557
 20
124.033614325695
 30
0.0
 40
0.0
 41
0.0
  0
VERTEX
  5
   5AC
  8
0
  6
CONTINUOUS
 10
99.0297172815973
 20
124.000084550374
 30
0.0
 40
0.0
 41
0.0
  0
VERTEX
  5
   5AD
  8
0
  6
CONTINUOUS
 10
99.0125912252527
 20
123.966907044218
 30
0.0
 40
0.0
 41
0.0
  0
VERTEX
  5
   5AE
  8
0
  6
CONTINUOUS
 10
98.994532901004
 20
123.934097768908
 30
0.0
 40
0.0
 41
0.0
  0
VERTEX
  5
   5AF
  8
0
  6
CONTINUOUS
 10
98.9755627118403
 20
123.901672355134
 30
0.0
 40
0.0
 41
0.0
  0
VERTEX
  5
   5B0
  8
0
  6
CONTINUOUS
 10
98.9557030581713
 20
123.869646034138
 30
0.0
 40
0.0
 41
0.0
  0
VERTEX
  5
   5B1
  8
0
  6
CONTINUOUS
 10
98.9349781627394
 20
123.838033569256
 30
0.0
 40
0.0
 41
0.0
  0
VERTEX
  5
   5B2
  8
0
  6
CONTINUOUS
 10
98.9134138955327
 20
123.806849187467
 30
0.0
 40
0.0
 41
0.0
  0
VERTEX
  5
   5B3
  8
0
  6
CONTINUOUS
 10
98.8910375986979
 20
123.776106510934
 30
0.0
 40
0.0
 41
0.0
  0
VERTEX
  5
   5B4
  8
0
  6
CONTINUOUS
 10
98.8678779114529
 20
123.745818488552
 30
0.0
 40
0.0
 41
0.0
  0
VERTEX
  5
   5B5
  8
0
  6
CONTINUOUS
 10
98.8439645950001
 20
123.715997327489
 30
0.0
 40
0.0
 41
0.0
  0
VERTEX
  5
   5B6
  8
0
  6
CONTINUOUS
 10
98.8193283574383
 20
123.686654424735
 30
0.0
 40
0.0
 41
0.0
  0
VERTEX
  5
   5B7
  8
0
  6
CONTINUOUS
 10
98.7940006786765
 20
123.657800298644
 30
0.0
 40
0.0
 41
0.0
  0
VERTEX
  5
   5B8
  8
0
  6
CONTINUOUS
 10
98.768013635346
 20
123.629444520476
 30
0.0
 40
0.0
 41
0.0
  0
VERTEX
  5
   5B9
  8
0
  6
CONTINUOUS
 10
98.7413997257133
 20
123.60159564595
 30
0.0
 40
0.0
 41
0.0
  0
VERTEX
  5
   5BA
  8
0
  6
CONTINUOUS
 10
98.6864223582617
 20
123.547447342219
 30
0.0
 40
0.0
 41
0.0
  0
VERTEX
  5
   5BB
  8
0
  6
CONTINUOUS
 10
98.6293303418478
 20
123.495400920955
 30
0.0
 40
0.0
 41
0.0
  0
VERTEX
  5
   5BC
  8
0
  6
CONTINUOUS
 10
98.5703809825819
 20
123.445481285779
 30
0.0
 40
0.0
 41
0.0
  0
VERTEX
  5
   5BD
  8
0
  6
CONTINUOUS
 10
98.5098215243681
 20
123.397690519865
 30
0.0
 40
0.0
 41
0.0
  0
VERTEX
  5
   5BE
  8
0
  6
CONTINUOUS
 10
98.447883546114
 20
123.352005695366
 30
0.0
 40
0.0
 41
0.0
  0
VERTEX
  5
   5BF
  8
0
  6
CONTINUOUS
 10
98.3940559055791
 20
123.314620819091
 30
0.0
 40
0.0
 41
0.0
  0
VERTEX
  5
   5C0
  8
0
  6
CONTINUOUS
 10
98.3394933108755
 20
123.278688264492
 30
0.0
 40
0.0
 41
0.0
  0
VERTEX
  5
   5C1
  8
0
  6
CONTINUOUS
 10
98.2842991202138
 20
123.244146200697
 30
0.0
 40
0.0
 41
0.0
  0
VERTEX
  5
   5C2
  8
0
  6
CONTINUOUS
 10
98.2285644805492
 20
123.210919812131
 30
0.0
 40
0.0
 41
0.0
  0
VERTEX
  5
   5C3
  8
0
  6
CONTINUOUS
 10
98.172369368428
 20
123.178922623277
 30
0.0
 40
0.0
 41
0.0
  0
VERTEX
  5
   5C4
  8
0
  6
CONTINUOUS
 10
98.1157836308337
 20
123.148057823433
 30
0.0
 40
0.0
 41
0.0
  0
VERTEX
  5
   5C5
  8
0
  6
CONTINUOUS
 10
98.0588680260336
 20
123.118219591473
 30
0.0
 40
0.0
 41
0.0
  0
VERTEX
  5
   5C6
  8
0
  6
CONTINUOUS
 10
98.0016752644243
 20
123.089294420607
 30
0.0
 40
0.0
 41
0.0
  0
VERTEX
  5
   5C7
  8
0
  6
CONTINUOUS
 10
97.8866351180915
 20
123.033698755238
 30
0.0
 40
0.0
 41
0.0
  0
VERTEX
  5
   5C8
  8
0
  6
CONTINUOUS
 10
97.7709634697609
 20
122.9802594006
 30
0.0
 40
0.0
 41
0.0
  0
VERTEX
  5
   5C9
  8
0
  6
CONTINUOUS
 10
97.538649327058
 20
122.875655378959
 30
0.0
 40
0.0
 41
0.0
  0
VERTEX
  5
   5CA
  8
0
  6
CONTINUOUS
 10
97.4224298580245
 20
122.822446497793
 30
0.0
 40
0.0
 41
0.0
  0
VERTEX
  5
   5CB
  8
0
  6
CONTINUOUS
 10
97.3064915518289
 20
122.767390283659
 30
0.0
 40
0.0
 41
0.0
  0
VERTEX
  5
   5CC
  8
0
  6
CONTINUOUS
 10
97.2406994548425
 20
122.734900270368
 30
0.0
 40
0.0
 41
0.0
  0
VERTEX
  5
   5CD
  8
0
  6
CONTINUOUS
 10
97.1751743017497
 20
122.701434331127
 30
0.0
 40
0.0
 41
0.0
  0
VERTEX
  5
   5CE
  8
0
  6
CONTINUOUS
 10
97.1099990950009
 20
122.666888854563
 30
0.0
 40
0.0
 41
0.0
  0
VERTEX
  5
   5CF
  8
0
  6
CONTINUOUS
 10
97.0452659090379
 20
122.631176446913
 30
0.0
 40
0.0
 41
0.0
  0
VERTEX
  5
   5D0
  8
0
  6
CONTINUOUS
 10
96.9810749327359
 20
122.594224895278
 30
0.0
 40
0.0
 41
0.0
  0
VERTEX
  5
   5D1
  8
0
  6
CONTINUOUS
 10
96.9175335118446
 20
122.555976130878
 30
0.0
 40
0.0
 41
0.0
  0
VERTEX
  5
   5D2
  8
0
  6
CONTINUOUS
 10
96.8547551914297
 20
122.516385192309
 30
0.0
 40
0.0
 41
0.0
  0
VERTEX
  5
   5D3
  8
0
  6
CONTINUOUS
 10
96.7928587583145
 20
122.475419188799
 30
0.0
 40
0.0
 41
0.0
  0
VERTEX
  5
   5D4
  8
0
  6
CONTINUOUS
 10
96.7319672835217
 20
122.433056263462
 30
0.0
 40
0.0
 41
0.0
  0
VERTEX
  5
   5D5
  8
0
  6
CONTINUOUS
 10
96.6722071647141
 20
122.389284556553
 30
0.0
 40
0.0
 41
0.0
  0
VERTEX
  5
   5D6
  8
0
  6
CONTINUOUS
 10
96.6137071686367
 20
122.344101168725
 30
0.0
 40
0.0
 41
0.0
  0
VERTEX
  5
   5D7
  8
0
  6
CONTINUOUS
 10
96.5565974735582
 20
122.297511124286
 30
0.0
 40
0.0
 41
0.0
  0
VERTEX
  5
   5D8
  8
0
  6
CONTINUOUS
 10
96.5010087117122
 20
122.24952633445
 30
0.0
 40
0.0
 41
0.0
  0
VERTEX
  5
   5D9
  8
0
  6
CONTINUOUS
 10
96.4470710117387
 20
122.200164560599
 30
0.0
 40
0.0
 41
0.0
  0
VERTEX
  5
   5DA
  8
0
  6
CONTINUOUS
 10
96.3949130411259
 20
122.149448377531
 30
0.0
 40
0.0
 41
0.0
  0
VERTEX
  5
   5DB
  8
0
  6
CONTINUOUS
 10
96.3446610486514
 20
122.097404136722
 30
0.0
 40
0.0
 41
0.0
  0
VERTEX
  5
   5DC
  8
0
  6
CONTINUOUS
 10
96.2964379068237
 20
122.044060929578
 30
0.0
 40
0.0
 41
0.0
  0
VERTEX
  5
   5DD
  8
0
  6
CONTINUOUS
 10
96.250362154324
 20
121.989449550692
 30
0.0
 40
0.0
 41
0.0
  0
VERTEX
  5
   5DE
  8
0
  6
CONTINUOUS
 10
96.2065470384472
 20
121.9336014611
 30
0.0
 40
0.0
 41
0.0
  0
VERTEX
  5
   5DF
  8
0
  6
CONTINUOUS
 10
96.1650995575437
 20
121.876547751534
 30
0.0
 40
0.0
 41
0.0
  0
VERTEX
  5
   5E0
  8
0
  6
CONTINUOUS
 10
96.1310335171622
 20
121.825937208855
 30
0.0
 40
0.0
 41
0.0
  0
VERTEX
  5
   5E1
  8
0
  6
CONTINUOUS
 10
96.0988973327974
 20
121.774454313003
 30
0.0
 40
0.0
 41
0.0
  0
VERTEX
  5
   5E2
  8
0
  6
CONTINUOUS
 10
96.068747439753
 20
121.722115957053
 30
0.0
 40
0.0
 41
0.0
  0
VERTEX
  5
   5E3
  8
0
  6
CONTINUOUS
 10
96.0406359369799
 20
121.668937736053
 30
0.0
 40
0.0
 41
0.0
  0
VERTEX
  5
   5E4
  8
0
  6
CONTINUOUS
 10
96.0146107604692
 20
121.614933998936
 30
0.0
 40
0.0
 41
0.0
  0
VERTEX
  5
   5E5
  8
0
  6
CONTINUOUS
 10
95.9907158566433
 20
121.560117900413
 30
0.0
 40
0.0
 41
0.0
  0
VERTEX
  5
   5E6
  8
0
  6
CONTINUOUS
 10
95.968991355749
 20
121.50450145288
 30
0.0
 40
0.0
 41
0.0
  0
VERTEX
  5
   5E7
  8
0
  6
CONTINUOUS
 10
95.9494737452489
 20
121.44809557832
 30
0.0
 40
0.0
 41
0.0
  0
VERTEX
  5
   5E8
  8
0
  6
CONTINUOUS
 10
95.9321960432138
 20
121.390910160204
 30
0.0
 40
0.0
 41
0.0
  0
VERTEX
  5
   5E9
  8
0
  6
CONTINUOUS
 10
95.9171879717149
 20
121.332954095396
 30
0.0
 40
0.0
 41
0.0
  0
SEQEND
  5
   5EA
  8
0
  6
CONTINUOUS
 62
     3
  0
LINE
  5
   5EB
  8
0
  6
CONTINUOUS
 62
     7
 10
127.669883152866
 20
121.332954133749
 30
0.0
 11
95.9171879717149
 21
121.332954133749
 31
0.0
  0
LINE
  5
   5EC
  8
0
  6
CONTINUOUS
 62
     7
 10
127.669883152866
 20
120.932954127789
 30
0.0
 11
85.6698519229802
 21
120.932954127789
 31
0.0
  0
LINE
  5
   5ED
  8
0
  6
CONTINUOUS
 62
     7
 10
127.669883152866
 20
115.932954053283
 30
0.0
 11
85.6698519229802
 21
115.932954053283
 31
0.0
  0
LINE
  5
   5EE
  8
0
  6
CONTINUOUS
 62
     7
 10
127.669883152866
 20
115.532954047322
 30
0.0
 11
85.6698519229802
 21
115.532954047322
 31
0.0
  0
LINE
  5
   5EF
  8
0
  6
CONTINUOUS
 62
     7
 10
127.269883146905
 20
120.932954127789
 30
0.0
 11
127.269883146905
 21
121.332954133749
 31
0.0
  0
LINE
  5
   5F0
  8
0
  6
CONTINUOUS
 62
     3
 10
100.809863642956
 20
121.332954133749
 30
0.0
 11
100.809863642956
 21
127.901202718792
 31
0.0
  0
LINE
  5
   5F1
  8
0
  6
CONTINUOUS
 62
     3
 10
99.3698642318498
 20
121.332954133749
 30
0.0
 11
99.3698642318498
 21
126.317474597711
 31
0.0
  0
LINE
  5
   5F2
  8
0
  6
CONTINUOUS
 62
     3
 10
97.9298648207437
 20
121.332954133749
 30
0.0
 11
97.9298648207437
 21
123.054197959897
 31
0.0
  0
LINE
  5
   5F3
  8
0
  6
CONTINUOUS
 62
     3
 10
96.4898654096376
 20
121.332954133749
 30
0.0
 11
96.4898654096376
 21
122.239566872592
 31
0.0
  0
TEXT
  5
   5F4
  8
0
  6
CONTINUOUS
 62
     7
 10
72.2163888970284
 20
53.2364776286586
 30
0.0
 40
2.99999994933605
  1
=    =
 50
89.9999999480344
 41
0.91666673368878
 72
     1
 11
70.7163889295834
 21
61.211478092574
 31
0.0
 73
     2
  0
TEXT
  5
   5F5
  8
0
  6
CONTINUOUS
 62
     7
 10
104.950791538732
 20
11.1903085102235
 30
0.0
 40
2.99999994933605
  1
Y
 50
359.999999948034
 41
0.916666607525612
 72
     1
 11
106.050791449188
 21
12.6903084838994
 31
0.0
 73
     2
  0
INSERT
  5
   5F6
  8
0
  6
CONTINUOUS
 62
     7
  2
*UDIM270
 10
0.0
 20
0.0
 30
0.0
  0
INSERT
  5
   5F7
  8
0
  6
CONTINUOUS
 62
     7
  2
*UDIM271
 10
0.0
 20
0.0
 30
0.0
  0
INSERT
  5
   5F8
  8
0
  6
CONTINUOUS
 62
     7
  2
*UDIM272
 10
0.0
 20
0.0
 30
0.0
  0
INSERT
  5
   5F9
  8
0
  6
CONTINUOUS
 62
     7
  2
*UDIM273
 10
0.0
 20
0.0
 30
0.0
  0
INSERT
  5
   5FA
  8
0
  6
CONTINUOUS
 62
     7
  2
*UDIM274
 10
0.0
 20
0.0
 30
0.0
  0
INSERT
  5
   5FB
  8
0
  6
CONTINUOUS
 62
     7
  2
*UDIM275
 10
0.0
 20
0.0
 30
0.0
  0
INSERT
  5
   5FC
  8
0
  6
CONTINUOUS
 62
     7
  2
*UDIM276
 10
0.0
 20
0.0
 30
0.0
  0
INSERT
  5
   5FD
  8
0
  6
CONTINUOUS
 62
     7
  2
*UDIM277
 10
0.0
 20
0.0
 30
0.0
  0
INSERT
  5
   5FE
  8
0
  6
CONTINUOUS
 62
     7
  2
*UDIM278
 10
0.0
 20
0.0
 30
0.0
  0
INSERT
  5
   5FF
  8
0
  6
CONTINUOUS
 62
     7
  2
*UDIM279
 10
0.0
 20
0.0
 30
0.0
  0
INSERT
  5
   600
  8
0
  6
CONTINUOUS
 62
     7
  2
*UDIM280
 10
0.0
 20
0.0
 30
0.0
  0
INSERT
  5
   601
  8
0
  6
CONTINUOUS
 62
     7
  2
*UDIM281
 10
0.0
 20
0.0
 30
0.0
  0
TEXT
  5
   602
  8
0
  6
CONTINUOUS
 62
     7
 10
105.817557811834
 20
186.626687211392
 30
0.0
 40
2.99999994933605
  1
Y
 50
359.999999948034
 41
0.916666607525612
 72
     2
 11
108.01755763004
 21
186.626687209408
 31
0.0
  0
TEXT
  5
   603
  8
0
  6
CONTINUOUS
 62
     7
 10
160.021779462863
 20
60.5615403195518
 30
0.0
 40
2.99999994933605
  1
X
 50
359.999999948034
 41
0.916666607525612
 72
     2
 11
162.221779281069
 21
60.5615403175675
 31
0.0
  0
TEXT
  5
   604
  8
0
  6
CONTINUOUS
 62
     7
 10
51.9093816116282
 20
60.8464350762995
 30
0.0
 40
2.99999994933605
  1
X
 50
359.999999948034
 41
0.916666607525612
 72
     2
 11
54.1093814298341
 21
60.8464350743152
 31
0.0
  0
ENDSEC
  0
EOF
