  0
SECTION
  2
HEADER
  9
$ACADVER
  1
AC1009
  9
$DWGCODEPAGE
  3
iso8859-1
  9
$INSBASE
 10
0.0
 20
0.0
 30
0.0
  9
$EXTMIN
 10
1.0E20
 20
1.0E20
  9
$EXTMAX
 10
-1.0E20
 20
-1.0E20
  9
$LIMMIN
 10
0.0
 20
0.0
  9
$LIMMAX
 10
12.0
 20
9.0
  9
$ORTHOMODE
 70
     0
  9
$REGENMODE
 70
     1
  9
$FILLMODE
 70
     1
  9
$QTEXTMODE
 70
     0
  9
$MIRRTEXT
 70
     1
  9
$DRAGMODE
 70
     2
  9
$LTSCALE
 40
15.0
  9
$OSMODE
 70
     0
  9
$ATTMODE
 70
     1
  9
$TEXTSIZE
 40
0.2
  9
$TRACEWID
 40
0.05
  9
$TEXTSTYLE
  7
STANDARD
  9
$CLAYER
  8
0
  9
$CELTYPE
  6
DASHED
  9
$CECOLOR
 62
   256
  9
$DIMSCALE
 40
1.0
  9
$DIMASZ
 40
0.18
  9
$DIMEXO
 40
0.0625
  9
$DIMDLI
 40
0.38
  9
$DIMRND
 40
0.0
  9
$DIMDLE
 40
0.0
  9
$DIMEXE
 40
0.18
  9
$DIMTP
 40
0.0
  9
$DIMTM
 40
0.0
  9
$DIMTXT
 40
0.18
  9
$DIMCEN
 40
0.09
  9
$DIMTSZ
 40
0.0
  9
$DIMTOL
 70
     0
  9
$DIMLIM
 70
     0
  9
$DIMTIH
 70
     1
  9
$DIMTOH
 70
     1
  9
$DIMSE1
 70
     0
  9
$DIMSE2
 70
     0
  9
$DIMTAD
 70
     0
  9
$DIMZIN
 70
     0
  9
$DIMBLK
  1

  9
$DIMASO
 70
     1
  9
$DIMSHO
 70
     1
  9
$DIMPOST
  1

  9
$DIMAPOST
  1

  9
$DIMALT
 70
     0
  9
$DIMALTD
 70
     2
  9
$DIMALTF
 40
25.4
  9
$DIMLFAC
 40
1.0
  9
$DIMTOFL
 70
     0
  9
$DIMTVP
 40
0.0
  9
$DIMTIX
 70
     0
  9
$DIMSOXD
 70
     0
  9
$DIMSAH
 70
     0
  9
$DIMBLK1
  1

  9
$DIMBLK2
  1

  9
$DIMSTYLE
  2
STANDARD
  9
$DIMCLRD
 70
     0
  9
$DIMCLRE
 70
     0
  9
$DIMCLRT
 70
     0
  9
$DIMTFAC
 40
1.0
  9
$DIMGAP
 40
0.09
  9
$LUNITS
 70
     2
  9
$LUPREC
 70
     4
  9
$AXISMODE
 70
     0
  9
$AXISUNIT
 10
0.0
 20
0.0
  9
$SKETCHINC
 40
0.1
  9
$FILLETRAD
 40
0.0
  9
$AUNITS
 70
     0
  9
$AUPREC
 70
     0
  9
$MENU
  1
acad
  9
$ELEVATION
 40
0.0
  9
$PELEVATION
 40
0.0
  9
$THICKNESS
 40
0.0
  9
$LIMCHECK
 70
     0
  9
$BLIPMODE
 70
     1
  9
$CHAMFERA
 40
0.0
  9
$CHAMFERB
 40
0.0
  9
$SKPOLY
 70
     0
  9
$TDCREATE
 40
0.000000000
  9
$TDUPDATE
 40
0.000000000
  9
$TDINDWG
 40
0.0
  9
$TDUSRTIMER
 40
0.0
  9
$USRTIMER
 70
     1
  9
$ANGBASE
 50
0.0
  9
$ANGDIR
 70
     0
  9
$PDMODE
 70
     0
  9
$PDSIZE
 40
0.0
  9
$PLINEWID
 40
0.0
  9
$COORDS
 70
     1
  9
$SPLFRAME
 70
     0
  9
$SPLINETYPE
 70
     6
  9
$SPLINESEGS
 70
     8
  9
$ATTDIA
 70
     0
  9
$ATTREQ
 70
     1
  9
$HANDLING
 70
     1
  9
$HANDSEED
  5
   7E0
  9
$SURFTAB1
 70
     6
  9
$SURFTAB2
 70
     6
  9
$SURFTYPE
 70
     6
  9
$SURFU
 70
     6
  9
$SURFV
 70
     6
  9
$UCSNAME
  2

  9
$UCSORG
 10
0.0
 20
0.0
 30
0.0
  9
$UCSXDIR
 10
1.0
 20
0.0
 30
0.0
  9
$UCSYDIR
 10
0.0
 20
1.0
 30
0.0
  9
$PUCSNAME
  2

  9
$PUCSORG
 10
0.0
 20
0.0
 30
0.0
  9
$PUCSXDIR
 10
1.0
 20
0.0
 30
0.0
  9
$PUCSYDIR
 10
0.0
 20
1.0
 30
0.0
  9
$USERI1
 70
     0
  9
$USERI2
 70
     0
  9
$USERI3
 70
     0
  9
$USERI4
 70
     0
  9
$USERI5
 70
     0
  9
$USERR1
 40
0.0
  9
$USERR2
 40
0.0
  9
$USERR3
 40
0.0
  9
$USERR4
 40
0.0
  9
$USERR5
 40
0.0
  9
$WORLDVIEW
 70
     1
  9
$SHADEDGE
 70
     3
  9
$SHADEDIF
 70
    70
  9
$TILEMODE
 70
     1
  9
$MAXACTVP
 70
    16
  9
$PINSBASE
 10
0.0
 20
0.0
 30
0.0
  9
$PLIMCHECK
 70
     0
  9
$PEXTMIN
 10
1.0E20
 20
1.0E20
 30
1.0E20
  9
$PEXTMAX
 10
-1.0E20
 20
-1.0E20
 30
-1.0E20
  9
$PLIMMIN
 10
0.0
 20
0.0
  9
$PLIMMAX
 10
12.0
 20
9.0
  9
$UNITMODE
 70
     0
  9
$VISRETAIN
 70
     0
  0
ENDSEC
  0
SECTION
  2
TABLES
  0
TABLE
  2
VPORT
 70
     1
  0
VPORT
  2
*ACTIVE
 70
     0
 10
0.0
 20
0.0
 11
1.0
 21
1.0
 12
6.801242
 22
4.5
 13
0.0
 23
0.0
 14
1.0
 24
1.0
 15
0.0
 25
0.0
 16
0.0
 26
0.0
 36
1.0
 17
0.0
 27
0.0
 37
0.0
 40
9.0
 41
1.511387
 42
50.0
 43
0.0
 44
0.0
 50
0.0
 51
0.0
 71
     0
 72
   100
 73
     1
 74
     1
 75
     0
 76
     0
 77
     0
 78
     0
  0
ENDTAB
  0
TABLE
  2
LTYPE
 70
    41
  0
LTYPE
  2
BYBLOCK
 70
     0
  3

 72
    65
 73
     0
 40
0.0
  0
LTYPE
  2
BYLAYER
 70
     0
  3

 72
    65
 73
     0
 40
0.0
  0
LTYPE
  2
CONTINUOUS
 70
     0
  3
Solid line
 72
    65
 73
     0
 40
0.0
  0
LTYPE
  2
BORDER
 70
    64
  3
__ __ . __ __ . __ __ . __ __ . __ __ . __ __ .
 72
    65
 73
     6
 40
1.75
 49
0.5
 49
-0.25
 49
0.5
 49
-0.25
 49
0.0
 49
-0.25
  0
LTYPE
  2
BORDER2
 70
    64
  3
__.__.__.__.__.__.__.__.__.__.__.__.__.__.__.__
 72
    65
 73
     6
 40
0.875
 49
0.25
 49
-0.125
 49
0.25
 49
-0.125
 49
0.0
 49
-0.125
  0
LTYPE
  2
BORDERX2
 70
    64
  3
____  ____  .  ____  ____  .  ____  ____  .  __
 72
    65
 73
     6
 40
3.5
 49
1.0
 49
-0.5
 49
1.0
 49
-0.5
 49
0.0
 49
-0.5
  0
LTYPE
  2
CENTER
 70
    64
  3
____ _ ____ _ ____ _ ____ _ ____ _ ____ _ ____
 72
    65
 73
     4
 40
2.0
 49
1.25
 49
-0.25
 49
0.25
 49
-0.25
  0
LTYPE
  2
CENTER2
 70
    64
  3
___ _ ___ _ ___ _ ___ _ ___ _ ___ _ ___ _ ___ _
 72
    65
 73
     4
 40
1.125
 49
0.75
 49
-0.125
 49
0.125
 49
-0.125
  0
LTYPE
  2
CENTERX2
 70
    64
  3
________  __  ________  __  ________  __  _____
 72
    65
 73
     4
 40
4.0
 49
2.5
 49
-0.5
 49
0.5
 49
-0.5
  0
LTYPE
  2
DASHDOT
 70
    64
  3
__ . __ . __ . __ . __ . __ . __ . __ . __ . __
 72
    65
 73
     4
 40
1.0
 49
0.5
 49
-0.25
 49
0.0
 49
-0.25
  0
LTYPE
  2
DASHDOT2
 70
    64
  3
_._._._._._._._._._._._._._._._._._._._._._._._
 72
    65
 73
     4
 40
0.5
 49
0.25
 49
-0.125
 49
0.0
 49
-0.125
  0
LTYPE
  2
DASHDOTX2
 70
    64
  3
____  .  ____  .  ____  .  ____  .  ____  .  __
 72
    65
 73
     4
 40
2.0
 49
1.0
 49
-0.5
 49
0.0
 49
-0.5
  0
LTYPE
  2
DASHED
 70
    64
  3
__ __ __ __ __ __ __ __ __ __ __ __ __ __ __ __
 72
    65
 73
     2
 40
0.75
 49
0.5
 49
-0.25
  0
LTYPE
  2
DASHED2
 70
    64
  3
_ _ _ _ _ _ _ _ _ _ _ _ _ _ _ _ _ _ _ _ _ _ _ _
 72
    65
 73
     2
 40
0.375
 49
0.25
 49
-0.125
  0
LTYPE
  2
DASHEDX2
 70
    64
  3
____  ____  ____  ____  ____  ____  ____  ____
 72
    65
 73
     2
 40
1.5
 49
1.0
 49
-0.5
  0
LTYPE
  2
DIVIDE
 70
    64
  3
____ . . ____ . . ____ . . ____ . . ____ . . __
 72
    65
 73
     6
 40
1.25
 49
0.5
 49
-0.25
 49
0.0
 49
-0.25
 49
0.0
 49
-0.25
  0
LTYPE
  2
DIVIDE2
 70
    64
  3
__..__..__..__..__..__..__..__..__..__..__..__.
 72
    65
 73
     6
 40
0.625
 49
0.25
 49
-0.125
 49
0.0
 49
-0.125
 49
0.0
 49
-0.125
  0
LTYPE
  2
DIVIDEX2
 70
    64
  3
________  .  .  ________  .  .  ________  .  .
 72
    65
 73
     6
 40
2.5
 49
1.0
 49
-0.5
 49
0.0
 49
-0.5
 49
0.0
 49
-0.5
  0
LTYPE
  2
DOT
 70
    64
  3
. . . . . . . . . . . . . . . . . . . . . . . .
 72
    65
 73
     2
 40
0.25
 49
0.0
 49
-0.25
  0
LTYPE
  2
DOT2
 70
    64
  3
...............................................
 72
    65
 73
     2
 40
0.125
 49
0.0
 49
-0.125
  0
LTYPE
  2
DOTX2
 70
    64
  3
.  .  .  .  .  .  .  .  .  .  .  .  .  .  .  .
 72
    65
 73
     2
 40
0.5
 49
0.0
 49
-0.5
  0
LTYPE
  2
HIDDEN
 70
    64
  3
__ __ __ __ __ __ __ __ __ __ __ __ __ __ __ __
 72
    65
 73
     2
 40
0.375
 49
0.25
 49
-0.125
  0
LTYPE
  2
HIDDEN2
 70
    64
  3
_ _ _ _ _ _ _ _ _ _ _ _ _ _ _ _ _ _ _ _ _ _ _ _
 72
    65
 73
     2
 40
0.1875
 49
0.125
 49
-0.0625
  0
LTYPE
  2
HIDDENX2
 70
    64
  3
____ ____ ____ ____ ____ ____ ____ ____ ____ __
 72
    65
 73
     2
 40
0.75
 49
0.5
 49
-0.25
  0
LTYPE
  2
PHANTOM
 70
    64
  3
______  __  __  ______  __  __  ______  __  __
 72
    65
 73
     6
 40
2.5
 49
1.25
 49
-0.25
 49
0.25
 49
-0.25
 49
0.25
 49
-0.25
  0
LTYPE
  2
PHANTOM2
 70
    64
  3
___ _ _ ___ _ _ ___ _ _ ___ _ _ ___ _ _ ___ _ _
 72
    65
 73
     6
 40
1.25
 49
0.625
 49
-0.125
 49
0.125
 49
-0.125
 49
0.125
 49
-0.125
  0
LTYPE
  2
PHANTOMX2
 70
    64
  3
____________    ____    ____    ____________
 72
    65
 73
     6
 40
5.0
 49
2.5
 49
-0.5
 49
0.5
 49
-0.5
 49
0.5
 49
-0.5
  0
LTYPE
  2
ACAD_ISO02W100
 70
    64
  3
__ __ __ __ __ __ __ __ __ __ __ __ __ __ __ __
 72
    65
 73
     2
 40
15.0
 49
12.0
 49
-3.0
  0
LTYPE
  2
ACAD_ISO03W100
 70
    64
  3
__    __    __    __    __    __    __    __
 72
    65
 73
     2
 40
30.0
 49
12.0
 49
-18.0
  0
LTYPE
  2
ACAD_ISO04W100
 70
    64
  3
____ . ____ . ____ . ____ . ____ . ____ . ____
 72
    65
 73
     4
 40
30.5
 49
24.0
 49
-3.0
 49
0.5
 49
-3.0
  0
LTYPE
  2
ACAD_ISO05W100
 70
    64
  3
____ .. ____ .. ____ .. ____ .. ____ .. ____ ..
 72
    65
 73
     6
 40
34.0
 49
24.0
 49
-3.0
 49
0.5
 49
-3.0
 49
0.5
 49
-3.0
  0
LTYPE
  2
ACAD_ISO06W100
 70
    64
  3
____ ... ____ ... ____ ... ____ ... ____ ... __
 72
    65
 73
     8
 40
37.5
 49
24.0
 49
-3.0
 49
0.5
 49
-3.0
 49
0.5
 49
-3.0
 49
0.5
 49
-3.0
  0
LTYPE
  2
ACAD_ISO07W100
 70
    64
  3
. . . . . . . . . . . . . . . . . . . . . . . .
 72
    65
 73
     2
 40
3.5
 49
0.5
 49
-3.0
  0
LTYPE
  2
ACAD_ISO08W100
 70
    64
  3
____ __ ____ __ ____ __ ____ ____ __ __ ____ __
 72
    65
 73
     4
 40
36.0
 49
24.0
 49
-3.0
 49
6.0
 49
-3.0
  0
LTYPE
  2
ACAD_ISO09W100
 70
    64
  3
____ __ __ ____ __ __ ____ __ __ ____ __ __ ___
 72
    65
 73
     6
 40
45.0
 49
24.0
 49
-3.0
 49
6.0
 49
-3.0
 49
6.0
 49
-3.0
  0
LTYPE
  2
ACAD_ISO10W100
 70
    64
  3
__ . __ . __ . __ . __ . __ . __ . __ . __ . __
 72
    65
 73
     4
 40
18.5
 49
12.0
 49
-3.0
 49
0.5
 49
-3.0
  0
LTYPE
  2
ACAD_ISO11W100
 70
    64
  3
__ __ . __ __ . __ __ . __ __ . __ __ . __ __ .
 72
    65
 73
     6
 40
33.5
 49
12.0
 49
-3.0
 49
12.0
 49
-3.0
 49
0.5
 49
-3.0
  0
LTYPE
  2
ACAD_ISO12W100
 70
    64
  3
__ . . __ . . __ . . __ . . __ . . __ . . __ .
 72
    65
 73
     6
 40
22.0
 49
12.0
 49
-3.0
 49
0.5
 49
-3.0
 49
0.5
 49
-3.0
  0
LTYPE
  2
ACAD_ISO13W100
 70
    64
  3
__ __ . . __ __ . . __ __ . . __ __ . . __ __ .
 72
    65
 73
     8
 40
37.0
 49
12.0
 49
-3.0
 49
12.0
 49
-3.0
 49
0.5
 49
-3.0
 49
0.5
 49
-3.0
  0
LTYPE
  2
ACAD_ISO14W100
 70
    64
  3
__ . . . __ . . . __ . . . __ . . . __ . . . __
 72
    65
 73
     8
 40
25.5
 49
12.0
 49
-3.0
 49
0.5
 49
-3.0
 49
0.5
 49
-3.0
 49
0.5
 49
-3.0
  0
LTYPE
  2
ACAD_ISO15W100
 70
    64
  3
__ __ . . . __ __ . . . __ __ . . . __ __ . . .
 72
    65
 73
    10
 40
40.5
 49
12.0
 49
-3.0
 49
12.0
 49
-3.0
 49
0.5
 49
-3.0
 49
0.5
 49
-3.0
 49
0.5
 49
-3.0
  0
ENDTAB
  0
TABLE
  2
STYLE
 70
     4
  0
STYLE
  2
STANDARD
 70
    64
 40
0.0
 41
1.0
 50
0.0
 71
     0
 42
0.2
  3
txt
  4

  0
STYLE
  2
TOLERANCE
 70
    64
 40
0.0
 41
1.0
 50
0.0
 71
     0
 42
0.2
  3
../igesfont/iges1003.shx
  4

  0
STYLE
  2
ROMANS
 70
    64
 40
0.0
 41
1.0
 50
0.0
 71
     0
 42
0.2
  3
romans.shx
  4

  0
STYLE
  2
ROMANC
 70
    64
 40
0.0
 41
1.0
 50
0.0
 71
     0
 42
0.2
  3
romanc.shx
  4

  0
ENDTAB
  0
TABLE
  2
DIMSTYLE
 70
     2
  0
DIMSTYLE
  2
UNNAMED
 70
     0
  3

  4

  5

  6

  7

 40
1.0
 41
0.18
 42
0.0625
 43
0.38
 44
0.18
 45
0.0
 46
0.0
 47
0.0
 48
0.0
140
0.18
141
0.09
142
0.0
143
25.4
144
1.0
145
0.0
146
1.0
147
0.09
 71
     0
 72
     0
 73
     1
 74
     1
 75
     0
 76
     0
 77
     0
 78
     0
170
     0
171
     2
172
     0
173
     0
174
     0
175
     0
176
     0
177
     0
178
     0
  0
DIMSTYLE
  2
STANDARD
 70
     0
  3

  4

  5

  6

  7

 40
1.0
 41
0.18
 42
0.0625
 43
0.38
 44
0.18
 45
0.0
 46
0.0
 47
0.0
 48
0.0
140
0.18
141
0.09
142
0.0
143
25.4
144
1.0
145
0.0
146
1.0
147
0.09
 71
     0
 72
     0
 73
     1
 74
     1
 75
     0
 76
     0
 77
     0
 78
     0
170
     0
171
     2
172
     0
173
     0
174
     0
175
     0
176
     0
177
     0
178
     0
  0
ENDTAB
  0
TABLE
  2
LAYER
 70
     1
  0
LAYER
  2
0
 70
     0
 62
     7
  6
CONTINUOUS
  0
ENDTAB
  0
ENDSEC
  0
SECTION
  2
BLOCKS
  0
BLOCK
  5
     B
  8
0
  6
CONTINUOUS
 62
     3
  2
*UDIM0
 70
    65
 10
0.0
 20
0.0
 30
0.0
  3
*UDIM0
  0
TEXT
  5
     C
  8
0
  6
CONTINUOUS
 62
     3
 10
-817.66186004838
 20
-55.7459091443299
 30
0.0
 40
2.99999997871263
  1
42
 50
359.999999896069
 41
0.933333333333333
 72
     1
 11
-815.161860063406
 21
-54.2459091594959
 31
0.0
 73
     2
  0
LINE
  5
     D
  8
0
  6
CONTINUOUS
 62
     3
 10
-800.186861678692
 20
-76.0192524790764
 30
0.0
 11
-800.186861678692
 21
-54.7459091488522
 31
0.0
  0
LINE
  5
     E
  8
0
  6
CONTINUOUS
 62
     3
 10
-829.586861178013
 20
-83.3692523539066
 30
0.0
 11
-829.586861178013
 21
-54.7459091488522
 31
0.0
  0
LINE
  5
     F
  8
0
  6
CONTINUOUS
 62
     3
 10
-800.186861678692
 20
-56.7459091488522
 30
0.0
 11
-829.586861178013
 21
-56.7459091488522
 31
0.0
  0
LINE
  5
    10
  8
0
  6
CONTINUOUS
 62
     3
 10
-803.141284893797
 20
-57.2668539309986
 30
0.0
 11
-800.186861678692
 21
-56.7459091488522
 31
0.0
  0
LINE
  5
    11
  8
0
  6
CONTINUOUS
 62
     3
 10
-800.186861678692
 20
-56.7459091488522
 30
0.0
 11
-803.141284893797
 21
-56.2249643667058
 31
0.0
  0
LINE
  5
    12
  8
0
  6
CONTINUOUS
 62
     3
 10
-826.632437962907
 20
-56.2249643667058
 30
0.0
 11
-829.586861178013
 21
-56.7459091488522
 31
0.0
  0
LINE
  5
    13
  8
0
  6
CONTINUOUS
 62
     3
 10
-829.586861178013
 20
-56.7459091488522
 30
0.0
 11
-826.632437962907
 21
-57.2668539309986
 31
0.0
  0
ENDBLK
  5
    14
  8
0
  6
CONTINUOUS
 62
     3
  0
BLOCK
  5
    15
  8
0
  6
CONTINUOUS
 62
     3
  2
*UDIM1
 70
    65
 10
0.0
 20
0.0
 30
0.0
  3
*UDIM1
  0
TEXT
  5
    16
  8
0
  6
CONTINUOUS
 62
     3
 10
-813.111860125866
 20
-63.3111342352215
 30
0.0
 40
2.99999997871263
  1
29
 50
359.999999896069
 41
0.933333333333333
 72
     1
 11
-810.611860140892
 21
-61.8111342503874
 31
0.0
 73
     2
  0
LINE
  5
    17
  8
0
  6
CONTINUOUS
 62
     3
 10
-800.186861678692
 20
-76.0192524790764
 30
0.0
 11
-800.186861678692
 21
-62.3111342397438
 31
0.0
  0
LINE
  5
    18
  8
0
  6
CONTINUOUS
 62
     3
 10
-820.486861332985
 20
-79.5192524194717
 30
0.0
 11
-820.486861332985
 21
-62.3111342397438
 31
0.0
  0
LINE
  5
    19
  8
0
  6
CONTINUOUS
 62
     3
 10
-800.186861678692
 20
-64.3111342397438
 30
0.0
 11
-820.486861332985
 21
-64.3111342397438
 31
0.0
  0
LINE
  5
    1A
  8
0
  6
CONTINUOUS
 62
     3
 10
-803.141284893797
 20
-64.8320790218901
 30
0.0
 11
-800.186861678692
 21
-64.3111342397438
 31
0.0
  0
LINE
  5
    1B
  8
0
  6
CONTINUOUS
 62
     3
 10
-800.186861678692
 20
-64.3111342397438
 30
0.0
 11
-803.141284893797
 21
-63.7901894575974
 31
0.0
  0
LINE
  5
    1C
  8
0
  6
CONTINUOUS
 62
     3
 10
-817.532438117879
 20
-63.7901894575974
 30
0.0
 11
-820.486861332985
 21
-64.3111342397438
 31
0.0
  0
LINE
  5
    1D
  8
0
  6
CONTINUOUS
 62
     3
 10
-820.486861332985
 20
-64.3111342397438
 30
0.0
 11
-817.532438117879
 21
-64.8320790218901
 31
0.0
  0
ENDBLK
  5
    1E
  8
0
  6
CONTINUOUS
 62
     3
  0
BLOCK
  5
    1F
  8
0
  6
CONTINUOUS
 62
     7
  2
*UDIM2
 70
    65
 10
0.0
 20
0.0
 30
0.0
  3
*UDIM2
  0
TEXT
  5
    20
  8
0
  6
CONTINUOUS
 62
     7
 10
-868.067619406404
 20
-97.3442523031159
 30
0.0
 40
2.99999997871263
  1
25
 50
449.999999896069
 41
0.933333333333333
 72
     1
 11
-869.567619391242
 21
-94.8442523181438
 31
0.0
 73
     2
  0
LINE
  5
    21
  8
0
  6
CONTINUOUS
 62
     3
 10
-848.461835584821
 20
-85.8192523121834
 30
0.0
 11
-869.067619401885
 21
-85.8192523121834
 31
0.0
  0
LINE
  5
    22
  8
0
  6
CONTINUOUS
 62
     3
 10
-858.185426375224
 20
-103.31925201416
 30
0.0
 11
-869.067619401885
 21
-103.31925201416
 31
0.0
  0
LINE
  5
    23
  8
0
  6
CONTINUOUS
 62
     3
 10
-867.067619401885
 20
-85.8192523121834
 30
0.0
 11
-867.067619401885
 21
-103.31925201416
 31
0.0
  0
LINE
  5
    24
  8
0
  6
CONTINUOUS
 62
     3
 10
-866.546674619739
 20
-88.7736755272889
 30
0.0
 11
-867.067619401885
 21
-85.8192523121834
 31
0.0
  0
LINE
  5
    25
  8
0
  6
CONTINUOUS
 62
     3
 10
-867.067619401885
 20
-85.8192523121834
 30
0.0
 11
-867.588564184032
 21
-88.7736755272889
 31
0.0
  0
LINE
  5
    26
  8
0
  6
CONTINUOUS
 62
     3
 10
-867.588564184032
 20
-100.364828799055
 30
0.0
 11
-867.067619401885
 21
-103.31925201416
 31
0.0
  0
LINE
  5
    27
  8
0
  6
CONTINUOUS
 62
     3
 10
-867.067619401885
 20
-103.31925201416
 30
0.0
 11
-866.546674619739
 21
-100.364828799055
 31
0.0
  0
ENDBLK
  5
    28
  8
0
  6
CONTINUOUS
 62
     7
  0
BLOCK
  5
    29
  8
0
  6
CONTINUOUS
 62
     7
  2
*UDIM3
 70
    65
 10
0.0
 20
0.0
 30
0.0
  3
*UDIM3
  0
TEXT
  5
    2A
  8
0
  6
CONTINUOUS
 62
     7
 10
-868.067619406404
 20
-114.844250663988
 30
0.0
 40
2.99999997871263
  1
25
 50
449.999999896069
 41
0.933333333333333
 72
     1
 11
-869.567619391242
 21
-112.344250679016
 31
0.0
 73
     2
  0
LINE
  5
    2B
  8
0
  6
CONTINUOUS
 62
     3
 10
-850.492688137694
 20
-120.819251716137
 30
0.0
 11
-869.067619401885
 21
-120.819251716137
 31
0.0
  0
LINE
  5
    2C
  8
0
  6
CONTINUOUS
 62
     3
 10
-867.067619401885
 20
-103.31925201416
 30
0.0
 11
-867.067619401885
 21
-120.819251716137
 31
0.0
  0
LINE
  5
    2D
  8
0
  6
CONTINUOUS
 62
     3
 10
-866.546674619739
 20
-106.273675229266
 30
0.0
 11
-867.067619401885
 21
-103.31925201416
 31
0.0
  0
LINE
  5
    2E
  8
0
  6
CONTINUOUS
 62
     3
 10
-867.067619401885
 20
-103.31925201416
 30
0.0
 11
-867.588564184032
 21
-106.273675229266
 31
0.0
  0
LINE
  5
    2F
  8
0
  6
CONTINUOUS
 62
     3
 10
-867.588564184032
 20
-117.864828501031
 30
0.0
 11
-867.067619401885
 21
-120.819251716137
 31
0.0
  0
LINE
  5
    30
  8
0
  6
CONTINUOUS
 62
     3
 10
-867.067619401885
 20
-120.819251716137
 30
0.0
 11
-866.546674619739
 21
-117.864828501031
 31
0.0
  0
ENDBLK
  5
    31
  8
0
  6
CONTINUOUS
 62
     7
  0
BLOCK
  5
    32
  8
0
  6
CONTINUOUS
 62
     3
  2
*UDIM4
 70
    65
 10
0.0
 20
0.0
 30
0.0
  3
*UDIM4
  0
TEXT
  5
    33
  8
0
  6
CONTINUOUS
 62
     3
 10
-868.067619406404
 20
-132.344253018372
 30
0.0
 40
2.99999997871263
  1
25
 50
449.999999896069
 41
0.933333333333333
 72
     1
 11
-869.567619391242
 21
-129.8442530334
 31
0.0
 73
     2
  0
LINE
  5
    34
  8
0
  6
CONTINUOUS
 62
     3
 10
-849.492688137694
 20
-120.819251716137
 30
0.0
 11
-869.067619401885
 21
-120.819251716137
 31
0.0
  0
LINE
  5
    35
  8
0
  6
CONTINUOUS
 62
     3
 10
-857.185426375224
 20
-138.319251418114
 30
0.0
 11
-869.067619401885
 21
-138.319251418114
 31
0.0
  0
LINE
  5
    36
  8
0
  6
CONTINUOUS
 62
     3
 10
-867.067619401885
 20
-120.819251716137
 30
0.0
 11
-867.067619401885
 21
-138.319251418114
 31
0.0
  0
LINE
  5
    37
  8
0
  6
CONTINUOUS
 62
     3
 10
-866.546674619739
 20
-123.773674931242
 30
0.0
 11
-867.067619401885
 21
-120.819251716137
 31
0.0
  0
LINE
  5
    38
  8
0
  6
CONTINUOUS
 62
     3
 10
-867.067619401885
 20
-120.819251716137
 30
0.0
 11
-867.588564184032
 21
-123.773674931242
 31
0.0
  0
LINE
  5
    39
  8
0
  6
CONTINUOUS
 62
     3
 10
-867.588564184032
 20
-135.364828203008
 30
0.0
 11
-867.067619401885
 21
-138.319251418114
 31
0.0
  0
LINE
  5
    3A
  8
0
  6
CONTINUOUS
 62
     3
 10
-867.067619401885
 20
-138.319251418114
 30
0.0
 11
-866.546674619739
 21
-135.364828203008
 31
0.0
  0
ENDBLK
  5
    3B
  8
0
  6
CONTINUOUS
 62
     3
  0
BLOCK
  5
    3C
  8
0
  6
CONTINUOUS
 62
     3
  2
*UDIM5
 70
    65
 10
0.0
 20
0.0
 30
0.0
  3
*UDIM5
  0
TEXT
  5
    3D
  8
0
  6
CONTINUOUS
 62
     3
 10
-833.056607161953
 20
-114.794253336121
 30
0.0
 40
2.99999997871263
  1
11
 50
449.999999896069
 41
0.933333333333333
 72
     1
 11
-834.55660714679
 21
-112.294253351149
 31
0.0
 73
     2
  0
TEXT
  5
    3E
  8
0
  6
CONTINUOUS
 62
     3
 10
-833.056607159422
 20
-117.544253332431
 30
0.0
 40
2.99999997871263
  1
Ø
 50
449.999999896069
 41
0.933333333333333
 72
     1
 11
-834.55660714679
 21
-116.444253337525
 31
0.0
 73
     2
  0
LINE
  5
    3F
  8
0
  6
CONTINUOUS
 62
     3
 10
-832.056607157434
 20
-99.4692520797253
 30
0.0
 11
-832.056607157434
 21
-117.54425332972
 31
0.0
  0
LINE
  5
    40
  8
0
  6
CONTINUOUS
 62
     3
 10
-831.535662375287
 20
-102.423675294831
 30
0.0
 11
-832.056607157434
 21
-99.4692520797253
 31
0.0
  0
LINE
  5
    41
  8
0
  6
CONTINUOUS
 62
     3
 10
-832.056607157434
 20
-99.4692520797253
 30
0.0
 11
-832.57755193958
 21
-102.423675294831
 31
0.0
  0
LINE
  5
    42
  8
0
  6
CONTINUOUS
 62
     3
 10
-832.57755193958
 20
-104.21482873349
 30
0.0
 11
-832.056607157434
 21
-107.169251948595
 31
0.0
  0
LINE
  5
    43
  8
0
  6
CONTINUOUS
 62
     3
 10
-832.056607157434
 20
-107.169251948595
 30
0.0
 11
-831.535662375287
 21
-104.21482873349
 31
0.0
  0
ENDBLK
  5
    44
  8
0
  6
CONTINUOUS
 62
     3
  0
BLOCK
  5
    45
  8
0
  6
CONTINUOUS
 62
     3
  2
*UDIM6
 70
    65
 10
0.0
 20
0.0
 30
0.0
  3
*UDIM6
  0
TEXT
  5
    46
  8
0
  6
CONTINUOUS
 62
     3
 10
-824.661859929171
 20
-153.939460633725
 30
0.0
 40
2.99999997871263
  1
62
 50
359.999999896069
 41
0.933333333333333
 72
     1
 11
-822.161859944197
 21
-152.439460648891
 31
0.0
 73
     2
  0
LINE
  5
    47
  8
0
  6
CONTINUOUS
 62
     3
 10
-800.186861678692
 20
-148.119251251221
 30
0.0
 11
-800.186861678692
 21
-156.939460638247
 31
0.0
  0
LINE
  5
    48
  8
0
  6
CONTINUOUS
 62
     3
 10
-843.586860939594
 20
-144.619251310825
 30
0.0
 11
-843.586860939594
 21
-156.939460638247
 31
0.0
  0
LINE
  5
    49
  8
0
  6
CONTINUOUS
 62
     3
 10
-800.186861678692
 20
-154.939460638247
 30
0.0
 11
-843.586860939594
 21
-154.939460638247
 31
0.0
  0
LINE
  5
    4A
  8
0
  6
CONTINUOUS
 62
     3
 10
-803.141284893797
 20
-155.460405420393
 30
0.0
 11
-800.186861678692
 21
-154.939460638247
 31
0.0
  0
LINE
  5
    4B
  8
0
  6
CONTINUOUS
 62
     3
 10
-800.186861678692
 20
-154.939460638247
 30
0.0
 11
-803.141284893797
 21
-154.418515856101
 31
0.0
  0
LINE
  5
    4C
  8
0
  6
CONTINUOUS
 62
     3
 10
-840.632437724489
 20
-154.418515856101
 30
0.0
 11
-843.586860939594
 21
-154.939460638247
 31
0.0
  0
LINE
  5
    4D
  8
0
  6
CONTINUOUS
 62
     3
 10
-843.586860939594
 20
-154.939460638247
 30
0.0
 11
-840.632437724489
 21
-155.460405420393
 31
0.0
  0
ENDBLK
  5
    4E
  8
0
  6
CONTINUOUS
 62
     3
  0
BLOCK
  5
    4F
  8
0
  6
CONTINUOUS
 62
     3
  2
*UDIM7
 70
    65
 10
0.0
 20
0.0
 30
0.0
  3
*UDIM7
  0
TEXT
  5
    50
  8
0
  6
CONTINUOUS
 62
     3
 10
-829.211859851685
 20
-161.388896694606
 30
0.0
 40
2.99999997871263
  1
75
 50
359.999999896069
 41
0.933333333333333
 72
     1
 11
-826.711859866711
 21
-159.888896709772
 31
0.0
 73
     2
  0
LINE
  5
    51
  8
0
  6
CONTINUOUS
 62
     3
 10
-800.186861678692
 20
-148.119251251221
 30
0.0
 11
-800.186861678692
 21
-164.388896699128
 31
0.0
  0
LINE
  5
    52
  8
0
  6
CONTINUOUS
 62
     3
 10
-852.686860784622
 20
-140.76925137639
 30
0.0
 11
-852.686860784622
 21
-164.388896699128
 31
0.0
  0
LINE
  5
    53
  8
0
  6
CONTINUOUS
 62
     3
 10
-800.186861678692
 20
-162.388896699128
 30
0.0
 11
-852.686860784622
 21
-162.388896699128
 31
0.0
  0
LINE
  5
    54
  8
0
  6
CONTINUOUS
 62
     3
 10
-803.141284893797
 20
-162.909841481274
 30
0.0
 11
-800.186861678692
 21
-162.388896699128
 31
0.0
  0
LINE
  5
    55
  8
0
  6
CONTINUOUS
 62
     3
 10
-800.186861678692
 20
-162.388896699128
 30
0.0
 11
-803.141284893797
 21
-161.867951916982
 31
0.0
  0
LINE
  5
    56
  8
0
  6
CONTINUOUS
 62
     3
 10
-849.732437569517
 20
-161.867951916982
 30
0.0
 11
-852.686860784622
 21
-162.388896699128
 31
0.0
  0
LINE
  5
    57
  8
0
  6
CONTINUOUS
 62
     3
 10
-852.686860784622
 20
-162.388896699128
 30
0.0
 11
-849.732437569517
 21
-162.909841481274
 31
0.0
  0
ENDBLK
  5
    58
  8
0
  6
CONTINUOUS
 62
     3
  0
BLOCK
  5
    59
  8
0
  6
CONTINUOUS
 62
     7
  2
*UDIM8
 70
    65
 10
0.0
 20
0.0
 30
0.0
  3
*UDIM8
  0
TEXT
  5
    5A
  8
0
  6
CONTINUOUS
 62
     7
 10
-859.410619536855
 20
-92.7587428995692
 30
0.0
 40
2.99999997871263
  1
8
 50
449.999999896069
 41
0.933333333333333
 72
     1
 11
-860.910619524223
 21
-91.6587429046631
 31
0.0
 73
     2
  0
TEXT
  5
    5B
  8
0
  6
CONTINUOUS
 62
     7
 10
-859.410619536855
 20
-95.9587428839585
 30
0.0
 40
2.99999997871263
  1
M
 50
449.999999896069
 41
0.933333333333333
 72
     1
 11
-860.910619524223
 21
-94.8587428890523
 31
0.0
 73
     2
  0
LINE
  5
    5C
  8
0
  6
CONTINUOUS
 62
     7
 10
-853.336860790583
 20
-100.519252061844
 30
0.0
 11
-860.410619534867
 21
-100.519252061844
 31
0.0
  0
LINE
  5
    5D
  8
0
  6
CONTINUOUS
 62
     7
 10
-853.336860790583
 20
-106.119251966476
 30
0.0
 11
-860.410619534867
 21
-106.119251966476
 31
0.0
  0
LINE
  5
    5E
  8
0
  6
CONTINUOUS
 62
     7
 10
-858.410619534867
 20
-90.5587429124684
 30
0.0
 11
-858.410619534867
 21
-111.119251966476
 31
0.0
  0
LINE
  5
    5F
  8
0
  6
CONTINUOUS
 62
     3
 10
-859.187076691285
 20
-97.6214745886333
 30
0.0
 11
-858.410619534867
 21
-100.519252061844
 31
0.0
  0
LINE
  5
    60
  8
0
  6
CONTINUOUS
 62
     3
 10
-858.410619534867
 20
-100.519252061844
 30
0.0
 11
-857.634162378448
 21
-97.6214745886333
 31
0.0
  0
LINE
  5
    61
  8
0
  6
CONTINUOUS
 62
     3
 10
-857.634162378448
 20
-109.017029439687
 30
0.0
 11
-858.410619534867
 21
-106.119251966476
 31
0.0
  0
LINE
  5
    62
  8
0
  6
CONTINUOUS
 62
     3
 10
-858.410619534867
 20
-106.119251966476
 30
0.0
 11
-859.187076691285
 21
-109.017029439687
 31
0.0
  0
ENDBLK
  5
    63
  8
0
  6
CONTINUOUS
 62
     7
  0
BLOCK
  5
    64
  8
0
  6
CONTINUOUS
 62
     3
  2
*UDIM9
 70
    65
 10
0.0
 20
0.0
 30
0.0
  3
*UDIM9
  0
TEXT
  5
    65
  8
0
  6
CONTINUOUS
 62
     3
 10
-892.798331467437
 20
-55.0161390208907
 30
0.0
 40
2.99999994039535
  1
18
 50
401.366350268003
 41
0.933333333333333
 72
     1
 11
-891.913389983727
 21
-52.2382120541315
 31
0.0
 73
     2
  0
TEXT
  5
    66
  8
0
  6
CONTINUOUS
 62
     3
 10
-894.862204587537
 20
-56.8335348416434
 30
0.0
 40
2.99999994039535
  1
Ø
 50
401.366350268003
 41
0.933333333333333
 72
     1
 11
-895.027962141848
 21
-54.9808275534565
 31
0.0
 73
     2
  0
LINE
  5
    67
  8
0
  6
CONTINUOUS
 62
     3
 10
-888.384963690356
 20
-52.4622823441921
 30
0.0
 11
-917.472984011272
 21
-78.0764763094229
 31
0.0
  0
LINE
  5
    68
  8
0
  6
CONTINUOUS
 62
     3
 10
-911.240606189452
 20
-73.282528878158
 30
0.0
 11
-909.367590968511
 21
-70.9390669130045
 31
0.0
  0
LINE
  5
    69
  8
0
  6
CONTINUOUS
 62
     3
 10
-909.367590968511
 20
-70.9390669130045
 30
0.0
 11
-911.929161010815
 21
-72.5005914624013
 31
0.0
  0
LINE
  5
    6A
  8
0
  6
CONTINUOUS
 62
     3
 10
-915.59996879033
 20
-75.7330143442694
 30
0.0
 11
-917.472984011272
 21
-78.0764763094229
 31
0.0
  0
LINE
  5
    6B
  8
0
  6
CONTINUOUS
 62
     3
 10
-917.472984011272
 20
-78.0764763094229
 30
0.0
 11
-914.911413968967
 21
-76.5149517600261
 31
0.0
  0
ENDBLK
  5
    6C
  8
0
  6
CONTINUOUS
 62
     3
  0
BLOCK
  5
    6D
  8
0
  6
CONTINUOUS
 62
     7
  2
*UDIM10
 70
    65
 10
0.0
 20
0.0
 30
0.0
  3
*UDIM10
  0
TEXT
  5
    6E
  8
0
  6
CONTINUOUS
 62
     7
 10
-938.695285387453
 20
-52.05429632567
 30
0.0
 40
2.99999994039535
  1
25
 50
359.999999844103
 41
0.933333333333333
 72
     1
 11
-936.19528543305
 21
-50.554296362262
 31
0.0
 73
     2
  0
LINE
  5
    6F
  8
0
  6
CONTINUOUS
 62
     3
 10
-943.420288368067
 20
-62.7077711820603
 30
0.0
 11
-943.42028470985
 21
-51.0542963324598
 31
0.0
  0
LINE
  5
    70
  8
0
  6
CONTINUOUS
 62
     3
 10
-928.420287772021
 20
-62.7077711820603
 30
0.0
 11
-928.420284113803
 21
-51.0542963324598
 31
0.0
  0
LINE
  5
    71
  8
0
  6
CONTINUOUS
 62
     3
 10
-943.420285337683
 20
-53.0542963324597
 30
0.0
 11
-928.420284741636
 21
-53.0542963324597
 31
0.0
  0
LINE
  5
    72
  8
0
  6
CONTINUOUS
 62
     3
 10
-940.465862122577
 20
-52.5333515503133
 30
0.0
 11
-943.420285337683
 21
-53.0542963324597
 31
0.0
  0
LINE
  5
    73
  8
0
  6
CONTINUOUS
 62
     3
 10
-943.420285337683
 20
-53.0542963324597
 30
0.0
 11
-940.465862122577
 21
-53.575241114606
 31
0.0
  0
LINE
  5
    74
  8
0
  6
CONTINUOUS
 62
     3
 10
-931.374707956742
 20
-53.575241114606
 30
0.0
 11
-928.420284741636
 21
-53.0542963324597
 31
0.0
  0
LINE
  5
    75
  8
0
  6
CONTINUOUS
 62
     3
 10
-928.420284741636
 20
-53.0542963324597
 30
0.0
 11
-931.374707956742
 21
-52.5333515503133
 31
0.0
  0
ENDBLK
  5
    76
  8
0
  6
CONTINUOUS
 62
     7
  0
BLOCK
  5
    77
  8
0
  6
CONTINUOUS
 62
     7
  2
*UDIM11
 70
    65
 10
0.0
 20
0.0
 30
0.0
  3
*UDIM11
  0
TEXT
  5
    78
  8
0
  6
CONTINUOUS
 62
     7
 10
-923.695293672499
 20
-52.05429632567
 30
0.0
 40
2.99999994039535
  1
25
 50
359.999999844103
 41
0.933333333333333
 72
     1
 11
-921.195293718096
 21
-50.554296362262
 31
0.0
 73
     2
  0
LINE
  5
    79
  8
0
  6
CONTINUOUS
 62
     3
 10
-913.420287175975
 20
-62.7077711820603
 30
0.0
 11
-913.420283517757
 21
-51.0542963324598
 31
0.0
  0
LINE
  5
    7A
  8
0
  6
CONTINUOUS
 62
     3
 10
-928.420284741636
 20
-53.0542963324597
 30
0.0
 11
-913.42028414559
 21
-53.0542963324597
 31
0.0
  0
LINE
  5
    7B
  8
0
  6
CONTINUOUS
 62
     3
 10
-925.465861526531
 20
-52.5333515503133
 30
0.0
 11
-928.420284741636
 21
-53.0542963324597
 31
0.0
  0
LINE
  5
    7C
  8
0
  6
CONTINUOUS
 62
     3
 10
-928.420284741636
 20
-53.0542963324597
 30
0.0
 11
-925.465861526531
 21
-53.575241114606
 31
0.0
  0
LINE
  5
    7D
  8
0
  6
CONTINUOUS
 62
     3
 10
-916.374707360695
 20
-53.575241114606
 30
0.0
 11
-913.42028414559
 21
-53.0542963324597
 31
0.0
  0
LINE
  5
    7E
  8
0
  6
CONTINUOUS
 62
     3
 10
-913.42028414559
 20
-53.0542963324597
 30
0.0
 11
-916.374707360695
 21
-52.5333515503133
 31
0.0
  0
ENDBLK
  5
    7F
  8
0
  6
CONTINUOUS
 62
     7
  0
BLOCK
  5
    80
  8
0
  6
CONTINUOUS
 62
     3
  2
*UDIM12
 70
    65
 10
0.0
 20
0.0
 30
0.0
  3
*UDIM12
  0
TEXT
  5
    81
  8
0
  6
CONTINUOUS
 62
     3
 10
-953.69528828472
 20
-52.05429632567
 30
0.0
 40
2.99999994039535
  1
25
 50
359.999999844103
 41
0.933333333333333
 72
     1
 11
-951.195288330317
 21
-50.554296362262
 31
0.0
 73
     2
  0
LINE
  5
    82
  8
0
  6
CONTINUOUS
 62
     3
 10
-958.42028927803
 20
-68.5077713727951
 30
0.0
 11
-958.42028927803
 21
-51.0542963324597
 31
0.0
  0
LINE
  5
    83
  8
0
  6
CONTINUOUS
 62
     3
 10
-943.420288681984
 20
-63.7077711820602
 30
0.0
 11
-943.420288681984
 21
-51.0542963324597
 31
0.0
  0
LINE
  5
    84
  8
0
  6
CONTINUOUS
 62
     3
 10
-958.42028927803
 20
-53.0542963324597
 30
0.0
 11
-943.420288681984
 21
-53.0542963324597
 31
0.0
  0
LINE
  5
    85
  8
0
  6
CONTINUOUS
 62
     3
 10
-955.465866062925
 20
-52.5333515503133
 30
0.0
 11
-958.42028927803
 21
-53.0542963324597
 31
0.0
  0
LINE
  5
    86
  8
0
  6
CONTINUOUS
 62
     3
 10
-958.42028927803
 20
-53.0542963324597
 30
0.0
 11
-955.465866062925
 21
-53.575241114606
 31
0.0
  0
LINE
  5
    87
  8
0
  6
CONTINUOUS
 62
     3
 10
-946.37471189709
 20
-53.575241114606
 30
0.0
 11
-943.420288681984
 21
-53.0542963324597
 31
0.0
  0
LINE
  5
    88
  8
0
  6
CONTINUOUS
 62
     3
 10
-943.420288681984
 20
-53.0542963324597
 30
0.0
 11
-946.37471189709
 21
-52.5333515503133
 31
0.0
  0
ENDBLK
  5
    89
  8
0
  6
CONTINUOUS
 62
     3
  0
BLOCK
  5
    8A
  8
0
  6
CONTINUOUS
 62
     3
  2
*UDIM13
 70
    65
 10
0.0
 20
0.0
 30
0.0
  3
*UDIM13
  0
TEXT
  5
    8B
  8
0
  6
CONTINUOUS
 62
     3
 10
-986.402725964913
 20
-96.1827739617218
 30
0.0
 40
2.99999994039535
  1
63
 50
449.999999844103
 41
0.933333333333333
 72
     1
 11
-987.902725928324
 21
-93.6827740073204
 31
0.0
 73
     2
  0
LINE
  5
    8C
  8
0
  6
CONTINUOUS
 62
     3
 10
-964.420289516449
 20
-74.5077716112137
 30
0.0
 11
-987.402725958126
 21
-74.5077716112137
 31
0.0
  0
LINE
  5
    8D
  8
0
  6
CONTINUOUS
 62
     3
 10
-982.725897513121
 20
-112.307773113251
 30
0.0
 11
-987.402725958126
 21
-112.307773113251
 31
0.0
  0
LINE
  5
    8E
  8
0
  6
CONTINUOUS
 62
     3
 10
-985.402725958126
 20
-74.5077716112137
 30
0.0
 11
-985.402725958126
 21
-112.307773113251
 31
0.0
  0
LINE
  5
    8F
  8
0
  6
CONTINUOUS
 62
     3
 10
-984.88178117598
 20
-77.4621948263192
 30
0.0
 11
-985.402725958126
 21
-74.5077716112137
 31
0.0
  0
LINE
  5
    90
  8
0
  6
CONTINUOUS
 62
     3
 10
-985.402725958126
 20
-74.5077716112137
 30
0.0
 11
-985.923670740273
 21
-77.4621948263192
 31
0.0
  0
LINE
  5
    91
  8
0
  6
CONTINUOUS
 62
     3
 10
-985.923670740273
 20
-109.353349898145
 30
0.0
 11
-985.402725958126
 21
-112.307773113251
 31
0.0
  0
LINE
  5
    92
  8
0
  6
CONTINUOUS
 62
     3
 10
-985.402725958126
 20
-112.307773113251
 30
0.0
 11
-984.88178117598
 21
-109.353349898145
 31
0.0
  0
ENDBLK
  5
    93
  8
0
  6
CONTINUOUS
 62
     3
  0
BLOCK
  5
    94
  8
0
  6
CONTINUOUS
 62
     3
  2
*UDIM14
 70
    65
 10
0.0
 20
0.0
 30
0.0
  3
*UDIM14
  0
TEXT
  5
    95
  8
0
  6
CONTINUOUS
 62
     3
 10
-979.64806108469
 20
-96.4827739736428
 30
0.0
 40
2.99999994039535
  1
62
 50
449.999999844103
 41
0.933333333333333
 72
     1
 11
-981.148061048101
 21
-93.9827740192413
 31
0.0
 73
     2
  0
LINE
  5
    96
  8
0
  6
CONTINUOUS
 62
     3
 10
-943.120288670063
 20
-75.1077716350555
 30
0.0
 11
-980.648061077904
 21
-75.1077716350555
 31
0.0
  0
LINE
  5
    97
  8
0
  6
CONTINUOUS
 62
     3
 10
-978.648061077904
 20
-75.1077716350555
 30
0.0
 11
-978.648061077904
 21
-112.307773113251
 31
0.0
  0
LINE
  5
    98
  8
0
  6
CONTINUOUS
 62
     3
 10
-978.127116295757
 20
-78.0621948501611
 30
0.0
 11
-978.648061077904
 21
-75.1077716350555
 31
0.0
  0
LINE
  5
    99
  8
0
  6
CONTINUOUS
 62
     3
 10
-978.648061077904
 20
-75.1077716350555
 30
0.0
 11
-979.16900586005
 21
-78.0621948501611
 31
0.0
  0
LINE
  5
    9A
  8
0
  6
CONTINUOUS
 62
     3
 10
-979.16900586005
 20
-109.353349898145
 30
0.0
 11
-978.648061077904
 21
-112.307773113251
 31
0.0
  0
LINE
  5
    9B
  8
0
  6
CONTINUOUS
 62
     3
 10
-978.648061077904
 20
-112.307773113251
 30
0.0
 11
-978.127116295757
 21
-109.353349898145
 31
0.0
  0
ENDBLK
  5
    9C
  8
0
  6
CONTINUOUS
 62
     3
  0
BLOCK
  5
    9D
  8
0
  6
CONTINUOUS
 62
     3
  2
*UDIM15
 70
    65
 10
0.0
 20
0.0
 30
0.0
  3
*UDIM15
  0
TEXT
  5
    9E
  8
0
  6
CONTINUOUS
 62
     3
 10
-888.710946574096
 20
-109.282768348951
 30
0.0
 40
2.99999994039535
  1
100
 50
449.999999844103
 41
0.933333333333333
 72
     1
 11
-890.210946533706
 21
-105.382768422365
 31
0.0
 73
     2
  0
LINE
  5
    9F
  8
0
  6
CONTINUOUS
 62
     3
 10
-928.720288097858
 20
-75.1077716350555
 30
0.0
 11
-885.710946563509
 21
-75.1077716350555
 31
0.0
  0
LINE
  5
    A0
  8
0
  6
CONTINUOUS
 62
     3
 10
-913.720287501812
 20
-135.107774019241
 30
0.0
 11
-885.710946563509
 21
-135.107774019241
 31
0.0
  0
LINE
  5
    A1
  8
0
  6
CONTINUOUS
 62
     3
 10
-887.710946563509
 20
-75.1077716350555
 30
0.0
 11
-887.710946563509
 21
-135.107774019241
 31
0.0
  0
LINE
  5
    A2
  8
0
  6
CONTINUOUS
 62
     3
 10
-887.190001781362
 20
-78.0621948501611
 30
0.0
 11
-887.710946563509
 21
-75.1077716350555
 31
0.0
  0
LINE
  5
    A3
  8
0
  6
CONTINUOUS
 62
     3
 10
-887.710946563509
 20
-75.1077716350555
 30
0.0
 11
-888.231891345655
 21
-78.0621948501611
 31
0.0
  0
LINE
  5
    A4
  8
0
  6
CONTINUOUS
 62
     3
 10
-888.231891345655
 20
-132.153350804136
 30
0.0
 11
-887.710946563509
 21
-135.107774019241
 31
0.0
  0
LINE
  5
    A5
  8
0
  6
CONTINUOUS
 62
     3
 10
-887.710946563509
 20
-135.107774019241
 30
0.0
 11
-887.190001781362
 21
-132.153350804136
 31
0.0
  0
ENDBLK
  5
    A6
  8
0
  6
CONTINUOUS
 62
     3
  0
BLOCK
  5
    A7
  8
0
  6
CONTINUOUS
 62
     3
  2
*UDIM16
 70
    65
 10
0.0
 20
0.0
 30
0.0
  3
*UDIM16
  0
TEXT
  5
    A8
  8
0
  6
CONTINUOUS
 62
     3
 10
-881.608898562394
 20
-109.282768348951
 30
0.0
 40
2.99999994039535
  1
102
 50
449.999999844103
 41
0.933333333333333
 72
     1
 11
-883.108898522004
 21
-105.382768422365
 31
0.0
 73
     2
  0
LINE
  5
    A9
  8
0
  6
CONTINUOUS
 62
     3
 10
-902.620287060738
 20
-74.5077716112137
 30
0.0
 11
-878.608898551806
 21
-74.5077716112137
 31
0.0
  0
LINE
  5
    AA
  8
0
  6
CONTINUOUS
 62
     3
 10
-902.620287060738
 20
-135.707774043083
 30
0.0
 11
-878.608898551806
 21
-135.707774043083
 31
0.0
  0
LINE
  5
    AB
  8
0
  6
CONTINUOUS
 62
     3
 10
-880.608898551806
 20
-74.5077716112137
 30
0.0
 11
-880.608898551806
 21
-135.707774043083
 31
0.0
  0
LINE
  5
    AC
  8
0
  6
CONTINUOUS
 62
     3
 10
-880.08795376966
 20
-77.4621948263192
 30
0.0
 11
-880.608898551806
 21
-74.5077716112137
 31
0.0
  0
LINE
  5
    AD
  8
0
  6
CONTINUOUS
 62
     3
 10
-880.608898551806
 20
-74.5077716112137
 30
0.0
 11
-881.129843333953
 21
-77.4621948263192
 31
0.0
  0
LINE
  5
    AE
  8
0
  6
CONTINUOUS
 62
     3
 10
-881.129843333953
 20
-132.753350827978
 30
0.0
 11
-880.608898551806
 21
-135.707774043083
 31
0.0
  0
LINE
  5
    AF
  8
0
  6
CONTINUOUS
 62
     3
 10
-880.608898551806
 20
-135.707774043083
 30
0.0
 11
-880.08795376966
 21
-132.753350827978
 31
0.0
  0
ENDBLK
  5
    B0
  8
0
  6
CONTINUOUS
 62
     3
  0
BLOCK
  5
    B1
  8
0
  6
CONTINUOUS
 62
     3
  2
*UDIM17
 70
    65
 10
0.0
 20
0.0
 30
0.0
  3
*UDIM17
  0
TEXT
  5
    B2
  8
0
  6
CONTINUOUS
 62
     3
 10
-931.195288816832
 20
-160.376465546998
 30
0.0
 40
2.99999994039535
  1
25
 50
359.999999844103
 41
0.933333333333333
 72
     1
 11
-928.695288862429
 21
-158.87646558359
 31
0.0
 73
     2
  0
TEXT
  5
    B3
  8
0
  6
CONTINUOUS
 62
     3
 10
-934.878622298796
 20
-164.876465592626
 30
0.0
 40
3.500000055631
  1
=  =
 50
359.999999844103
 41
0.933333333333333
 72
     1
 11
-928.695288862429
 21
-163.126465581604
 31
0.0
 73
     2
  0
LINE
  5
    B4
  8
0
  6
CONTINUOUS
 62
     3
 10
-935.920288383961
 20
-82.3077719211578
 30
0.0
 11
-935.92031383276
 21
-163.376465553788
 31
0.0
  0
LINE
  5
    B5
  8
0
  6
CONTINUOUS
 62
     3
 10
-920.920287787914
 20
-142.307774305344
 30
0.0
 11
-920.920294401724
 21
-163.376465553788
 31
0.0
  0
LINE
  5
    B6
  8
0
  6
CONTINUOUS
 62
     3
 10
-935.920313204927
 20
-161.376465553788
 30
0.0
 11
-920.920293773891
 21
-161.376465553788
 31
0.0
  0
LINE
  5
    B7
  8
0
  6
CONTINUOUS
 62
     3
 10
-932.965889989821
 20
-160.855520771642
 30
0.0
 11
-935.920313204927
 21
-161.376465553788
 31
0.0
  0
LINE
  5
    B8
  8
0
  6
CONTINUOUS
 62
     3
 10
-935.920313204927
 20
-161.376465553788
 30
0.0
 11
-932.965889989821
 21
-161.897410335934
 31
0.0
  0
LINE
  5
    B9
  8
0
  6
CONTINUOUS
 62
     3
 10
-923.874716988996
 20
-161.897410335934
 30
0.0
 11
-920.920293773891
 21
-161.376465553788
 31
0.0
  0
LINE
  5
    BA
  8
0
  6
CONTINUOUS
 62
     3
 10
-920.920293773891
 20
-161.376465553788
 30
0.0
 11
-923.874716988996
 21
-160.855520771642
 31
0.0
  0
ENDBLK
  5
    BB
  8
0
  6
CONTINUOUS
 62
     3
  0
BLOCK
  5
    BC
  8
0
  6
CONTINUOUS
 62
     7
  2
*UDIM18
 70
    65
 10
0.0
 20
0.0
 30
0.0
  3
*UDIM18
  0
TEXT
  5
    BD
  8
0
  6
CONTINUOUS
 62
     7
 10
-928.417979512744
 20
-123.065883965419
 30
0.0
 40
2.99999994039535
  1
4.5
 50
305.950252824622
 41
0.933333333333333
 72
     1
 11
-924.914066888936
 21
-125.342415456727
 31
0.0
 73
     2
  0
TEXT
  5
    BE
  8
0
  6
CONTINUOUS
 62
     7
 10
-930.766309892639
 20
-119.827775883525
 30
0.0
 40
2.99999994039535
  1
Ø
 50
305.950252824622
 41
1.2
 72
     1
 11
-928.671395481324
 21
-120.161442529223
 31
0.0
 73
     2
  0
TEXT
  5
    BF
  8
0
  6
CONTINUOUS
 62
     7
 10
-937.576467948509
 20
-110.437262459432
 30
0.0
 40
2.99999994039535
  1
M4 o
 50
305.950252824622
 41
0.933333333333333
 72
     1
 11
-933.250639700746
 21
-113.847131777346
 31
0.0
 73
     2
  0
LINE
  5
    C0
  8
0
  6
CONTINUOUS
 62
     7
 10
-921.125766730249
 20
-134.824439514092
 30
0.0
 11
-938.385994991266
 21
-111.024345073586
 31
0.0
  0
LINE
  5
    C1
  8
0
  6
CONTINUOUS
 62
     3
 10
-924.042647131277
 20
-132.124927767032
 30
0.0
 11
-921.712849332651
 21
-134.014912480599
 31
0.0
  0
LINE
  5
    C2
  8
0
  6
CONTINUOUS
 62
     3
 10
-921.712849332651
 20
-134.014912480599
 30
0.0
 11
-922.785521014337
 21
-131.213238790943
 31
0.0
  0
ENDBLK
  5
    C3
  8
0
  6
CONTINUOUS
 62
     7
  0
BLOCK
  5
    C4
  8
0
  6
CONTINUOUS
 62
     3
  2
*UDIM19
 70
    65
 10
0.0
 20
0.0
 30
0.0
  3
*UDIM19
  0
TEXT
  5
    C5
  8
0
  6
CONTINUOUS
 62
     3
 10
-913.288280191398
 20
65.8289777545846
 30
0.0
 40
2.99999997871263
  1
39
 50
359.999999844103
 41
0.933333333333333
 72
     1
 11
-910.788280205063
 21
67.3289777371512
 31
0.0
 73
     2
  0
LINE
  5
    C6
  8
0
  6
CONTINUOUS
 62
     3
 10
-924.438259702552
 20
59.0573450168981
 30
0.0
 11
-924.438259702552
 21
66.8289777477949
 31
0.0
  0
LINE
  5
    C7
  8
0
  6
CONTINUOUS
 62
     3
 10
-897.138295000953
 20
56.4167530958672
 30
0.0
 11
-897.13830206432
 21
66.8289777477945
 31
0.0
  0
LINE
  5
    C8
  8
0
  6
CONTINUOUS
 62
     3
 10
-924.438259702552
 20
64.8289777477949
 30
0.0
 11
-897.138300707575
 21
64.8289777477949
 31
0.0
  0
LINE
  5
    C9
  8
0
  6
CONTINUOUS
 62
     3
 10
-921.540482229341
 20
65.6054349042135
 30
0.0
 11
-924.438259702552
 21
64.8289777477949
 31
0.0
  0
LINE
  5
    CA
  8
0
  6
CONTINUOUS
 62
     3
 10
-924.438259702552
 20
64.8289777477949
 30
0.0
 11
-921.540482229341
 21
64.0525205913764
 31
0.0
  0
LINE
  5
    CB
  8
0
  6
CONTINUOUS
 62
     3
 10
-900.036078180785
 20
64.0525205913764
 30
0.0
 11
-897.138300707575
 21
64.8289777477949
 31
0.0
  0
LINE
  5
    CC
  8
0
  6
CONTINUOUS
 62
     3
 10
-897.138300707575
 20
64.8289777477949
 30
0.0
 11
-900.036078180785
 21
65.6054349042135
 31
0.0
  0
ENDBLK
  5
    CD
  8
0
  6
CONTINUOUS
 62
     3
  0
BLOCK
  5
    CE
  8
0
  6
CONTINUOUS
 62
     3
  2
*UDIM20
 70
    65
 10
0.0
 20
0.0
 30
0.0
  3
*UDIM20
  0
TEXT
  5
    CF
  8
0
  6
CONTINUOUS
 62
     3
 10
-937.088278288971
 20
73.799923392578
 30
0.0
 40
2.99999997871263
  1
103
 50
359.999999844103
 41
0.933333333333333
 72
     1
 11
-933.188278312571
 21
75.2999233713424
 31
0.0
 73
     2
  0
LINE
  5
    D0
  8
0
  6
CONTINUOUS
 62
     3
 10
-969.23826630115
 20
56.4167530958674
 30
0.0
 11
-969.238262670503
 21
74.799923381986
 31
0.0
  0
LINE
  5
    D1
  8
0
  6
CONTINUOUS
 62
     3
 10
-897.138294278691
 20
56.4167530958674
 30
0.0
 11
-897.138293471864
 21
74.7999233819861
 31
0.0
  0
LINE
  5
    D2
  8
0
  6
CONTINUOUS
 62
     3
 10
-969.2382630655
 20
72.7999233819861
 30
0.0
 11
-897.138293559643
 21
72.7999233819861
 31
0.0
  0
LINE
  5
    D3
  8
0
  6
CONTINUOUS
 62
     3
 10
-966.340485592289
 20
73.5763805384046
 30
0.0
 11
-969.2382630655
 21
72.7999233819861
 31
0.0
  0
LINE
  5
    D4
  8
0
  6
CONTINUOUS
 62
     3
 10
-969.2382630655
 20
72.7999233819861
 30
0.0
 11
-966.340485592289
 21
72.0234662255675
 31
0.0
  0
LINE
  5
    D5
  8
0
  6
CONTINUOUS
 62
     3
 10
-900.036071032853
 20
72.0234662255675
 30
0.0
 11
-897.138293559643
 21
72.7999233819861
 31
0.0
  0
LINE
  5
    D6
  8
0
  6
CONTINUOUS
 62
     3
 10
-897.138293559643
 20
72.7999233819861
 30
0.0
 11
-900.036071032853
 21
73.5763805384046
 31
0.0
  0
ENDBLK
  5
    D7
  8
0
  6
CONTINUOUS
 62
     3
  0
BLOCK
  5
    D8
  8
0
  6
CONTINUOUS
 62
     3
  2
*UDIM21
 70
    65
 10
0.0
 20
0.0
 30
0.0
  3
*UDIM21
  0
TEXT
  5
    D9
  8
0
  6
CONTINUOUS
 62
     3
 10
-937.088354289774
 20
81.0462376054791
 30
0.0
 40
2.99999997871263
  1
116
 50
359.999999844103
 41
0.933333333333333
 72
     1
 11
-933.188354313373
 21
82.5462375842435
 31
0.0
 73
     2
  0
LINE
  5
    DA
  8
0
  6
CONTINUOUS
 62
     3
 10
-973.78835362196
 20
38.0422756522894
 30
0.0
 11
-973.78835362196
 21
82.0462375948872
 31
0.0
  0
LINE
  5
    DB
  8
0
  6
CONTINUOUS
 62
     3
 10
-892.588355004787
 20
38.0422756522894
 30
0.0
 11
-892.588355004787
 21
82.0462375948872
 31
0.0
  0
LINE
  5
    DC
  8
0
  6
CONTINUOUS
 62
     3
 10
-973.78835362196
 20
80.0462375948871
 30
0.0
 11
-892.588355004787
 21
80.0462375948871
 31
0.0
  0
LINE
  5
    DD
  8
0
  6
CONTINUOUS
 62
     3
 10
-970.890576148749
 20
80.8226947513057
 30
0.0
 11
-973.78835362196
 21
80.0462375948871
 31
0.0
  0
LINE
  5
    DE
  8
0
  6
CONTINUOUS
 62
     3
 10
-973.78835362196
 20
80.0462375948871
 30
0.0
 11
-970.890576148749
 21
79.2697804384686
 31
0.0
  0
LINE
  5
    DF
  8
0
  6
CONTINUOUS
 62
     3
 10
-895.486132477998
 20
79.2697804384686
 30
0.0
 11
-892.588355004787
 21
80.0462375948871
 31
0.0
  0
LINE
  5
    E0
  8
0
  6
CONTINUOUS
 62
     3
 10
-892.588355004787
 20
80.0462375948871
 30
0.0
 11
-895.486132477998
 21
80.8226947513057
 31
0.0
  0
ENDBLK
  5
    E1
  8
0
  6
CONTINUOUS
 62
     3
  0
BLOCK
  5
    E2
  8
0
  6
CONTINUOUS
 62
     3
  2
*UDIM22
 70
    65
 10
0.0
 20
0.0
 30
0.0
  3
*UDIM22
  0
TEXT
  5
    E3
  8
0
  6
CONTINUOUS
 62
     3
 10
-981.756128937929
 20
5.20386741932053
 30
0.0
 40
2.99999997871263
  1
96
 50
449.999999844103
 41
0.933333333333333
 72
     1
 11
-983.256128920499
 21
7.703867405653
 31
0.0
 73
     2
  0
LINE
  5
    E4
  8
0
  6
CONTINUOUS
 62
     3
 10
-973.913353636861
 20
37.9172756373882
 30
0.0
 11
-982.756128931143
 21
37.9172756373882
 31
0.0
  0
LINE
  5
    E5
  8
0
  6
CONTINUOUS
 62
     3
 10
-973.913353636861
 20
-29.2827232182026
 30
0.0
 11
-982.756128931143
 21
-29.2827232182026
 31
0.0
  0
LINE
  5
    E6
  8
0
  6
CONTINUOUS
 62
     3
 10
-980.756128931142
 20
37.9172756373882
 30
0.0
 11
-980.756128931142
 21
-29.2827232182026
 31
0.0
  0
LINE
  5
    E7
  8
0
  6
CONTINUOUS
 62
     3
 10
-979.979671774724
 20
35.0194981641777
 30
0.0
 11
-980.756128931142
 21
37.9172756373882
 31
0.0
  0
LINE
  5
    E8
  8
0
  6
CONTINUOUS
 62
     3
 10
-980.756128931142
 20
37.9172756373882
 30
0.0
 11
-981.532586087561
 21
35.0194981641777
 31
0.0
  0
LINE
  5
    E9
  8
0
  6
CONTINUOUS
 62
     3
 10
-981.532586087561
 20
-26.3849457449921
 30
0.0
 11
-980.756128931142
 21
-29.2827232182026
 31
0.0
  0
LINE
  5
    EA
  8
0
  6
CONTINUOUS
 62
     3
 10
-980.756128931142
 20
-29.2827232182026
 30
0.0
 11
-979.979671774724
 21
-26.3849457449921
 31
0.0
  0
ENDBLK
  5
    EB
  8
0
  6
CONTINUOUS
 62
     3
  0
BLOCK
  5
    EC
  8
0
  6
CONTINUOUS
 62
     3
  2
*UDIM23
 70
    65
 10
0.0
 20
0.0
 30
0.0
  3
*UDIM23
  0
TEXT
  5
    ED
  8
0
  6
CONTINUOUS
 62
     3
 10
-988.640127440185
 20
-15.9582297486496
 30
0.0
 40
2.99999997871263
  1
50
 50
449.999999844103
 41
0.933333333333333
 72
     1
 11
-990.140127422755
 21
-13.4582297623172
 31
0.0
 73
     2
  0
LINE
  5
    EE
  8
0
  6
CONTINUOUS
 62
     3
 10
-979.722701709589
 20
4.31677543520538
 30
0.0
 11
-989.640127433399
 21
4.31677543520538
 31
0.0
  0
LINE
  5
    EF
  8
0
  6
CONTINUOUS
 62
     3
 10
-968.538253479568
 20
-30.6832346498955
 30
0.0
 11
-989.640127433399
 21
-30.6832346498955
 31
0.0
  0
LINE
  5
    F0
  8
0
  6
CONTINUOUS
 62
     3
 10
-987.640127433399
 20
4.31677543520538
 30
0.0
 11
-987.640127433399
 21
-30.6832346498955
 31
0.0
  0
LINE
  5
    F1
  8
0
  6
CONTINUOUS
 62
     3
 10
-987.119182651252
 20
1.36235222009985
 30
0.0
 11
-987.640127433399
 21
4.31677543520538
 31
0.0
  0
LINE
  5
    F2
  8
0
  6
CONTINUOUS
 62
     3
 10
-987.640127433399
 20
4.31677543520538
 30
0.0
 11
-988.161072215545
 21
1.36235222009985
 31
0.0
  0
LINE
  5
    F3
  8
0
  6
CONTINUOUS
 62
     3
 10
-988.161072215545
 20
-27.72881143479
 30
0.0
 11
-987.640127433399
 21
-30.6832346498955
 31
0.0
  0
LINE
  5
    F4
  8
0
  6
CONTINUOUS
 62
     3
 10
-987.640127433399
 20
-30.6832346498955
 30
0.0
 11
-987.119182651252
 21
-27.72881143479
 31
0.0
  0
ENDBLK
  5
    F5
  8
0
  6
CONTINUOUS
 62
     3
  0
BLOCK
  5
    F6
  8
0
  6
CONTINUOUS
 62
     7
  2
*UDIM24
 70
    65
 10
0.0
 20
0.0
 30
0.0
  3
*UDIM24
  0
TEXT
  5
    F7
  8
0
  6
CONTINUOUS
 62
     7
 10
-886.981611648509
 20
11.0917753048284
 30
0.0
 40
2.99999997871263
  1
=
 50
449.999999844103
 41
0.933333333333333
 72
     1
 11
-888.481611634879
 21
12.1917753010949
 31
0.0
 73
     2
  0
LINE
  5
    F8
  8
0
  6
CONTINUOUS
 62
     3
 10
-896.138299716558
 20
20.0667751669845
 30
0.0
 11
-883.981611645523
 21
20.0667751669845
 31
0.0
  0
LINE
  5
    F9
  8
0
  6
CONTINUOUS
 62
     3
 10
-886.340136142953
 20
4.31677543520538
 30
0.0
 11
-883.981611645523
 21
4.31677543520538
 31
0.0
  0
LINE
  5
    FA
  8
0
  6
CONTINUOUS
 62
     3
 10
-885.981611645523
 20
20.0667751669845
 30
0.0
 11
-885.981611645523
 21
4.31677543520538
 31
0.0
  0
LINE
  5
    FB
  8
0
  6
CONTINUOUS
 62
     3
 10
-885.460666863377
 20
17.112351951879
 30
0.0
 11
-885.981611645523
 21
20.0667751669845
 31
0.0
  0
LINE
  5
    FC
  8
0
  6
CONTINUOUS
 62
     3
 10
-885.981611645523
 20
20.0667751669845
 30
0.0
 11
-886.502556427669
 21
17.112351951879
 31
0.0
  0
LINE
  5
    FD
  8
0
  6
CONTINUOUS
 62
     3
 10
-886.502556427669
 20
7.27119865031091
 30
0.0
 11
-885.981611645523
 21
4.31677543520538
 31
0.0
  0
LINE
  5
    FE
  8
0
  6
CONTINUOUS
 62
     3
 10
-885.981611645523
 20
4.31677543520538
 30
0.0
 11
-885.460666863377
 21
7.27119865031091
 31
0.0
  0
ENDBLK
  5
    FF
  8
0
  6
CONTINUOUS
 62
     7
  0
BLOCK
  5
   100
  8
0
  6
CONTINUOUS
 62
     7
  2
*UDIM25
 70
    65
 10
0.0
 20
0.0
 30
0.0
  3
*UDIM25
  0
TEXT
  5
   101
  8
0
  6
CONTINUOUS
 62
     7
 10
-886.981611648509
 20
-4.65822442694659
 30
0.0
 40
2.99999997871263
  1
=
 50
449.999999844103
 41
0.933333333333333
 72
     1
 11
-888.481611634879
 21
-3.55822443068001
 31
0.0
 73
     2
  0
LINE
  5
   102
  8
0
  6
CONTINUOUS
 62
     3
 10
-896.138304523075
 20
-11.4332242965654
 30
0.0
 11
-883.981611645523
 21
-11.4332242965654
 31
0.0
  0
LINE
  5
   103
  8
0
  6
CONTINUOUS
 62
     3
 10
-885.981611645523
 20
4.31677543520538
 30
0.0
 11
-885.981611645523
 21
-11.4332242965654
 31
0.0
  0
LINE
  5
   104
  8
0
  6
CONTINUOUS
 62
     3
 10
-885.460666863377
 20
1.36235222009985
 30
0.0
 11
-885.981611645523
 21
4.31677543520538
 31
0.0
  0
LINE
  5
   105
  8
0
  6
CONTINUOUS
 62
     3
 10
-885.981611645523
 20
4.31677543520538
 30
0.0
 11
-886.502556427669
 21
1.36235222009985
 31
0.0
  0
LINE
  5
   106
  8
0
  6
CONTINUOUS
 62
     3
 10
-886.502556427669
 20
-8.47880108145988
 30
0.0
 11
-885.981611645523
 21
-11.4332242965654
 31
0.0
  0
LINE
  5
   107
  8
0
  6
CONTINUOUS
 62
     3
 10
-885.981611645523
 20
-11.4332242965654
 30
0.0
 11
-885.460666863377
 21
-8.47880108145988
 31
0.0
  0
ENDBLK
  5
   108
  8
0
  6
CONTINUOUS
 62
     7
  0
BLOCK
  5
   109
  8
0
  6
CONTINUOUS
 62
     3
  2
*UDIM26
 70
    65
 10
0.0
 20
0.0
 30
0.0
  3
*UDIM26
  0
TEXT
  5
   10A
  8
0
  6
CONTINUOUS
 62
     3
 10
-873.894577701201
 20
8.54175708270053
 30
0.0
 40
2.99999997871263
  1
124
 50
449.999999844103
 41
0.933333333333333
 72
     1
 11
-875.39457767997
 21
12.4417570590989
 31
0.0
 73
     2
  0
LINE
  5
   10B
  8
0
  6
CONTINUOUS
 62
     3
 10
-897.838294310659
 20
56.116753190758
 30
0.0
 11
-870.894577690614
 21
56.116753190758
 31
0.0
  0
LINE
  5
   10C
  8
0
  6
CONTINUOUS
 62
     3
 10
-897.83830734166
 20
-30.6832346498955
 30
0.0
 11
-870.894577690614
 21
-30.6832346498955
 31
0.0
  0
LINE
  5
   10D
  8
0
  6
CONTINUOUS
 62
     3
 10
-872.894577690614
 20
56.116753190758
 30
0.0
 11
-872.894577690614
 21
-30.6832346498955
 31
0.0
  0
LINE
  5
   10E
  8
0
  6
CONTINUOUS
 62
     3
 10
-872.373632908467
 20
53.1623299756524
 30
0.0
 11
-872.894577690614
 21
56.116753190758
 31
0.0
  0
LINE
  5
   10F
  8
0
  6
CONTINUOUS
 62
     3
 10
-872.894577690614
 20
56.116753190758
 30
0.0
 11
-873.41552247276
 21
53.1623299756524
 31
0.0
  0
LINE
  5
   110
  8
0
  6
CONTINUOUS
 62
     3
 10
-873.41552247276
 20
-27.72881143479
 30
0.0
 11
-872.894577690614
 21
-30.6832346498955
 31
0.0
  0
LINE
  5
   111
  8
0
  6
CONTINUOUS
 62
     3
 10
-872.894577690614
 20
-30.6832346498955
 30
0.0
 11
-872.373632908467
 21
-27.72881143479
 31
0.0
  0
ENDBLK
  5
   112
  8
0
  6
CONTINUOUS
 62
     3
  0
BLOCK
  5
   113
  8
0
  6
CONTINUOUS
 62
     3
  2
*UDIM27
 70
    65
 10
0.0
 20
0.0
 30
0.0
  3
*UDIM27
  0
TEXT
  5
   114
  8
0
  6
CONTINUOUS
 62
     3
 10
-668.479785392782
 20
48.6789947680145
 30
0.0
 40
2.99999994039535
  1
111
 50
359.999999844103
 41
0.933333333333333
 72
     1
 11
-664.579785466194
 21
50.1789947276202
 31
0.0
 73
     2
  0
LINE
  5
   115
  8
0
  6
CONTINUOUS
 62
     3
 10
-697.604786634445
 20
19.3167759180069
 30
0.0
 11
-697.604786634445
 21
49.6789947574225
 31
0.0
  0
LINE
  5
   116
  8
0
  6
CONTINUOUS
 62
     3
 10
-631.004783987999
 20
19.3167759180069
 30
0.0
 11
-631.004783987999
 21
49.6789947574225
 31
0.0
  0
LINE
  5
   117
  8
0
  6
CONTINUOUS
 62
     3
 10
-697.604786634445
 20
47.6789947574225
 30
0.0
 11
-631.004783987999
 21
47.6789947574225
 31
0.0
  0
LINE
  5
   118
  8
0
  6
CONTINUOUS
 62
     3
 10
-694.65036341934
 20
48.1999395395689
 30
0.0
 11
-697.604786634445
 21
47.6789947574225
 31
0.0
  0
LINE
  5
   119
  8
0
  6
CONTINUOUS
 62
     3
 10
-697.604786634445
 20
47.6789947574225
 30
0.0
 11
-694.65036341934
 21
47.1580499752762
 31
0.0
  0
LINE
  5
   11A
  8
0
  6
CONTINUOUS
 62
     3
 10
-633.959207203105
 20
47.1580499752762
 30
0.0
 11
-631.004783987999
 21
47.6789947574225
 31
0.0
  0
LINE
  5
   11B
  8
0
  6
CONTINUOUS
 62
     3
 10
-631.004783987999
 20
47.6789947574225
 30
0.0
 11
-633.959207203105
 21
48.1999395395689
 31
0.0
  0
ENDBLK
  5
   11C
  8
0
  6
CONTINUOUS
 62
     3
  0
BLOCK
  5
   11D
  8
0
  6
CONTINUOUS
 62
     3
  2
*UDIM28
 70
    65
 10
0.0
 20
0.0
 30
0.0
  3
*UDIM28
  0
TEXT
  5
   11E
  8
0
  6
CONTINUOUS
 62
     3
 10
-646.679783805312
 20
32.8560174508933
 30
0.0
 40
2.99999994039535
  1
43
 50
359.999999844103
 41
0.933333333333333
 72
     1
 11
-644.179783850908
 21
34.3560174143013
 31
0.0
 73
     2
  0
LINE
  5
   11F
  8
0
  6
CONTINUOUS
 62
     3
 10
-656.804785013199
 20
25.1653276268964
 30
0.0
 11
-656.804785013199
 21
33.8560174441036
 31
0.0
  0
LINE
  5
   120
  8
0
  6
CONTINUOUS
 62
     3
 10
-631.004783987999
 20
19.3167759180069
 30
0.0
 11
-631.004783987999
 21
33.8560174441036
 31
0.0
  0
LINE
  5
   121
  8
0
  6
CONTINUOUS
 62
     3
 10
-656.804785013199
 20
31.8560174441036
 30
0.0
 11
-631.004783987999
 21
31.8560174441036
 31
0.0
  0
LINE
  5
   122
  8
0
  6
CONTINUOUS
 62
     3
 10
-653.850361798093
 20
32.37696222625
 30
0.0
 11
-656.804785013199
 21
31.8560174441036
 31
0.0
  0
LINE
  5
   123
  8
0
  6
CONTINUOUS
 62
     3
 10
-656.804785013199
 20
31.8560174441036
 30
0.0
 11
-653.850361798093
 21
31.3350726619572
 31
0.0
  0
LINE
  5
   124
  8
0
  6
CONTINUOUS
 62
     3
 10
-633.959207203105
 20
31.3350726619572
 30
0.0
 11
-631.004783987999
 21
31.8560174441036
 31
0.0
  0
LINE
  5
   125
  8
0
  6
CONTINUOUS
 62
     3
 10
-631.004783987999
 20
31.8560174441036
 30
0.0
 11
-633.959207203105
 21
32.37696222625
 31
0.0
  0
ENDBLK
  5
   126
  8
0
  6
CONTINUOUS
 62
     3
  0
BLOCK
  5
   127
  8
0
  6
CONTINUOUS
 62
     3
  2
*UDIM29
 70
    65
 10
0.0
 20
0.0
 30
0.0
  3
*UDIM29
  0
TEXT
  5
   128
  8
0
  6
CONTINUOUS
 62
     3
 10
-689.130793912634
 20
32.4823790064323
 30
0.0
 40
2.99999994039535
  1
4
 50
404.818079457524
 41
0.933333333333333
 72
     1
 11
-689.407797830505
 21
34.3217453897273
 31
0.0
 73
     2
  0
TEXT
  5
   129
  8
0
  6
CONTINUOUS
 62
     3
 10
-691.081501865639
 20
30.5440193114221
 30
0.0
 40
2.99999994039535
  1
Ø
 50
404.818079457524
 41
0.933333333333333
 72
     1
 11
-691.35850578351
 21
32.3833856947172
 31
0.0
 73
     2
  0
LINE
  5
   12A
  8
0
  6
CONTINUOUS
 62
     3
 10
-686.86536947914
 20
33.3237183955612
 30
0.0
 11
-697.586004659396
 21
22.6709463564168
 31
0.0
  0
LINE
  5
   12B
  8
0
  6
CONTINUOUS
 62
     3
 10
-694.155045431931
 20
26.8145862096445
 30
0.0
 11
-695.883568540353
 21
24.362605813383
 31
0.0
  0
LINE
  5
   12C
  8
0
  6
CONTINUOUS
 62
     3
 10
-695.883568540353
 20
24.362605813383
 30
0.0
 11
-693.42066115505
 21
26.075523561385
 31
0.0
  0
LINE
  5
   12D
  8
0
  6
CONTINUOUS
 62
     3
 10
-699.314527767818
 20
20.2189659601553
 30
0.0
 11
-697.586004659396
 21
22.6709463564168
 31
0.0
  0
LINE
  5
   12E
  8
0
  6
CONTINUOUS
 62
     3
 10
-697.586004659396
 20
22.6709463564168
 30
0.0
 11
-700.048912044699
 21
20.9580286084148
 31
0.0
  0
ENDBLK
  5
   12F
  8
0
  6
CONTINUOUS
 62
     3
  0
BLOCK
  5
   130
  8
0
  6
CONTINUOUS
 62
     3
  2
*UDIM30
 70
    65
 10
0.0
 20
0.0
 30
0.0
  3
*UDIM30
  0
TEXT
  5
   131
  8
0
  6
CONTINUOUS
 62
     3
 10
-710.644292124522
 20
1.54177372247085
 30
0.0
 40
2.99999994039535
  1
64
 50
449.999999844103
 41
0.933333333333333
 72
     1
 11
-712.144292087933
 21
4.04177367687225
 31
0.0
 73
     2
  0
LINE
  5
   132
  8
0
  6
CONTINUOUS
 62
     3
 10
-702.134786814451
 20
23.5167760848999
 30
0.0
 11
-711.644292117735
 21
23.5167760848999
 31
0.0
  0
LINE
  5
   133
  8
0
  6
CONTINUOUS
 62
     3
 10
-702.134786814451
 20
-14.883225440979
 30
0.0
 11
-711.644292117735
 21
-14.883225440979
 31
0.0
  0
LINE
  5
   134
  8
0
  6
CONTINUOUS
 62
     3
 10
-709.644292117735
 20
23.5167760848999
 30
0.0
 11
-709.644292117735
 21
-14.883225440979
 31
0.0
  0
LINE
  5
   135
  8
0
  6
CONTINUOUS
 62
     3
 10
-709.123347335589
 20
20.5623528697944
 30
0.0
 11
-709.644292117735
 21
23.5167760848999
 31
0.0
  0
LINE
  5
   136
  8
0
  6
CONTINUOUS
 62
     3
 10
-709.644292117735
 20
23.5167760848999
 30
0.0
 11
-710.165236899881
 21
20.5623528697944
 31
0.0
  0
LINE
  5
   137
  8
0
  6
CONTINUOUS
 62
     3
 10
-710.165236899881
 20
-11.9288022258735
 30
0.0
 11
-709.644292117735
 21
-14.883225440979
 31
0.0
  0
LINE
  5
   138
  8
0
  6
CONTINUOUS
 62
     3
 10
-709.644292117735
 20
-14.883225440979
 30
0.0
 11
-709.123347335589
 21
-11.9288022258735
 31
0.0
  0
ENDBLK
  5
   139
  8
0
  6
CONTINUOUS
 62
     3
  0
BLOCK
  5
   13A
  8
0
  6
CONTINUOUS
 62
     3
  2
*UDIM31
 70
    65
 10
0.0
 20
0.0
 30
0.0
  3
*UDIM31
  0
TEXT
  5
   13B
  8
0
  6
CONTINUOUS
 62
     3
 10
-615.618116473521
 20
1.54177488476143
 30
0.0
 40
2.99999994039535
  1
53
 50
449.999999844103
 41
0.933333333333333
 72
     1
 11
-617.118116436932
 21
4.04177483916283
 31
0.0
 73
     2
  0
LINE
  5
   13C
  8
0
  6
CONTINUOUS
 62
     3
 10
-631.904784023762
 20
20.2167759537697
 30
0.0
 11
-612.618116466734
 21
20.2167759537697
 31
0.0
  0
LINE
  5
   13D
  8
0
  6
CONTINUOUS
 62
     3
 10
-631.904784023762
 20
-11.5832253098488
 30
0.0
 11
-612.618116466734
 21
-11.5832253098488
 31
0.0
  0
LINE
  5
   13E
  8
0
  6
CONTINUOUS
 62
     3
 10
-614.618116466734
 20
20.2167759537697
 30
0.0
 11
-614.618116466734
 21
-11.5832253098488
 31
0.0
  0
LINE
  5
   13F
  8
0
  6
CONTINUOUS
 62
     3
 10
-614.097171684588
 20
17.2623527386642
 30
0.0
 11
-614.618116466734
 21
20.2167759537697
 31
0.0
  0
LINE
  5
   140
  8
0
  6
CONTINUOUS
 62
     3
 10
-614.618116466734
 20
20.2167759537697
 30
0.0
 11
-615.139061248881
 21
17.2623527386642
 31
0.0
  0
LINE
  5
   141
  8
0
  6
CONTINUOUS
 62
     3
 10
-615.139061248881
 20
-8.62880209474326
 30
0.0
 11
-614.618116466734
 21
-11.5832253098488
 31
0.0
  0
LINE
  5
   142
  8
0
  6
CONTINUOUS
 62
     3
 10
-614.618116466734
 20
-11.5832253098488
 30
0.0
 11
-614.097171684588
 21
-8.62880209474326
 31
0.0
  0
ENDBLK
  5
   143
  8
0
  6
CONTINUOUS
 62
     3
  0
BLOCK
  5
   144
  8
0
  6
CONTINUOUS
 62
     3
  2
*UDIM32
 70
    65
 10
0.0
 20
0.0
 30
0.0
  3
*UDIM32
  0
TEXT
  5
   145
  8
0
  6
CONTINUOUS
 62
     3
 10
-646.994784741701
 20
-26.3534590840087
 30
0.0
 40
2.99999994039535
  1
42
 50
359.999999844103
 41
0.933333333333333
 72
     1
 11
-644.494784787297
 21
-24.8534591206008
 31
0.0
 73
     2
  0
LINE
  5
   146
  8
0
  6
CONTINUOUS
 62
     3
 10
-656.804785013199
 20
-16.4849527306568
 30
0.0
 11
-656.804785013199
 21
-29.3534590907984
 31
0.0
  0
LINE
  5
   147
  8
0
  6
CONTINUOUS
 62
     3
 10
-631.634784013033
 20
-20.2832256555557
 30
0.0
 11
-631.634784013033
 21
-29.3534590907984
 31
0.0
  0
LINE
  5
   148
  8
0
  6
CONTINUOUS
 62
     3
 10
-656.804785013199
 20
-27.3534590907984
 30
0.0
 11
-631.634784013033
 21
-27.3534590907984
 31
0.0
  0
LINE
  5
   149
  8
0
  6
CONTINUOUS
 62
     3
 10
-653.850361798093
 20
-26.8325143086521
 30
0.0
 11
-656.804785013199
 21
-27.3534590907984
 31
0.0
  0
LINE
  5
   14A
  8
0
  6
CONTINUOUS
 62
     3
 10
-656.804785013199
 20
-27.3534590907984
 30
0.0
 11
-653.850361798093
 21
-27.8744038729448
 31
0.0
  0
LINE
  5
   14B
  8
0
  6
CONTINUOUS
 62
     3
 10
-634.589207228138
 20
-27.8744038729448
 30
0.0
 11
-631.634784013033
 21
-27.3534590907984
 31
0.0
  0
LINE
  5
   14C
  8
0
  6
CONTINUOUS
 62
     3
 10
-631.634784013033
 20
-27.3534590907984
 30
0.0
 11
-634.589207228138
 21
-26.8325143086521
 31
0.0
  0
ENDBLK
  5
   14D
  8
0
  6
CONTINUOUS
 62
     3
  0
BLOCK
  5
   14E
  8
0
  6
CONTINUOUS
 62
     3
  2
*UDIM33
 70
    65
 10
0.0
 20
0.0
 30
0.0
  3
*UDIM33
  0
TEXT
  5
   14F
  8
0
  6
CONTINUOUS
 62
     3
 10
-671.159784229697
 20
-38.8592426505919
 30
0.0
 40
2.99999994039535
  1
108,5
 50
359.999999844103
 41
0.933333333333333
 72
     1
 11
-664.45978435874
 21
-37.3592426985906
 31
0.0
 73
     2
  0
LINE
  5
   150
  8
0
  6
CONTINUOUS
 62
     3
 10
-696.734786599875
 20
-20.2832256555557
 30
0.0
 11
-696.734786599875
 21
-41.8592426687883
 31
0.0
  0
LINE
  5
   151
  8
0
  6
CONTINUOUS
 62
     3
 10
-631.634784013033
 20
-20.2832256555557
 30
0.0
 11
-631.634784013033
 21
-41.8592426687883
 31
0.0
  0
LINE
  5
   152
  8
0
  6
CONTINUOUS
 62
     3
 10
-696.734786599875
 20
-39.8592426687883
 30
0.0
 11
-631.634784013033
 21
-39.8592426687883
 31
0.0
  0
LINE
  5
   153
  8
0
  6
CONTINUOUS
 62
     3
 10
-693.780363384769
 20
-39.3382978866419
 30
0.0
 11
-696.734786599875
 21
-39.8592426687883
 31
0.0
  0
LINE
  5
   154
  8
0
  6
CONTINUOUS
 62
     3
 10
-696.734786599875
 20
-39.8592426687883
 30
0.0
 11
-693.780363384769
 21
-40.3801874509347
 31
0.0
  0
LINE
  5
   155
  8
0
  6
CONTINUOUS
 62
     3
 10
-634.589207228138
 20
-40.3801874509347
 30
0.0
 11
-631.634784013033
 21
-39.8592426687883
 31
0.0
  0
LINE
  5
   156
  8
0
  6
CONTINUOUS
 62
     3
 10
-631.634784013033
 20
-39.8592426687883
 30
0.0
 11
-634.589207228138
 21
-39.3382978866419
 31
0.0
  0
ENDBLK
  5
   157
  8
0
  6
CONTINUOUS
 62
     3
  0
BLOCK
  5
   158
  8
0
  6
CONTINUOUS
 62
     7
  2
*UDIM34
 70
    65
 10
0.0
 20
0.0
 30
0.0
  3
*UDIM34
  0
TEXT
  5
   159
  8
0
  6
CONTINUOUS
 62
     7
 10
-640.643335551406
 20
11.177506124142
 30
0.0
 40
2.99999994039535
  1
1.5
 50
407.769935634289
 41
0.933333333333333
 72
     1
 11
-639.132787690529
 21
15.073432774658
 31
0.0
 73
     2
  0
TEXT
  5
   15A
  8
0
  6
CONTINUOUS
 62
     7
 10
-643.331772352167
 20
8.21569804604515
 30
0.0
 40
2.99999994039535
  1
R
 50
407.769935634289
 41
1.2
 72
     1
 11
-643.434286571454
 21
10.3345398655376
 31
0.0
 73
     2
  0
LINE
  5
   15B
  8
0
  6
CONTINUOUS
 62
     7
 10
-631.299885709455
 20
19.9831827710041
 30
0.0
 11
-642.591320316951
 21
7.54358883491188
 31
0.0
  0
LINE
  5
   15C
  8
0
  6
CONTINUOUS
 62
     3
 10
-632.67257936456
 20
17.3156535529382
 30
0.0
 11
-631.299885709455
 21
19.9831827710041
 31
0.0
  0
LINE
  5
   15D
  8
0
  6
CONTINUOUS
 62
     3
 10
-631.299885709455
 20
19.9831827710041
 30
0.0
 11
-633.822437919082
 21
18.359381567129
 31
0.0
  0
ENDBLK
  5
   15E
  8
0
  6
CONTINUOUS
 62
     7
  0
BLOCK
  5
   15F
  8
0
  6
CONTINUOUS
 62
     7
  2
*HATCH0
 70
    65
 10
0.0
 20
0.0
 30
0.0
  3
*HATCH0
  0
LINE
  5
   160
  8
0
  6
CONTINUOUS
 62
     7
 10
-54.0224685668945
 20
-126.147354125977
 30
0.0
 11
-55.222469329834
 21
-127.347351074219
 31
0.0
  0
LINE
  5
   161
  8
0
  6
CONTINUOUS
 62
     7
 10
-49.7798271179199
 20
-126.147354125977
 30
0.0
 11
-50.9798278808594
 21
-127.347351074219
 31
0.0
  0
LINE
  5
   162
  8
0
  6
CONTINUOUS
 62
     7
 10
-45.5371856689453
 20
-126.147354125977
 30
0.0
 11
-46.7371864318848
 21
-127.347351074219
 31
0.0
  0
LINE
  5
   163
  8
0
  6
CONTINUOUS
 62
     7
 10
-41.2945442199707
 20
-126.147354125977
 30
0.0
 11
-42.4945449829102
 21
-127.347351074219
 31
0.0
  0
ENDBLK
  5
   164
  8
0
  6
CONTINUOUS
 62
     7
  0
BLOCK
  5
   165
  8
0
  6
CONTINUOUS
 62
     7
  2
*HATCH1
 70
    65
 10
0.0
 20
0.0
 30
0.0
  3
*HATCH1
  0
LINE
  5
   166
  8
0
  6
CONTINUOUS
 62
     7
 10
-32.8092651367188
 20
-126.147354125977
 30
0.0
 11
-33.4999885559082
 21
-126.838081359863
 31
0.0
  0
LINE
  5
   167
  8
0
  6
CONTINUOUS
 62
     7
 10
-28.8601341247559
 20
-126.440864562988
 30
0.0
 11
-29.9207935333252
 21
-127.501525878906
 31
0.0
  0
ENDBLK
  5
   168
  8
0
  6
CONTINUOUS
 62
     7
  0
BLOCK
  5
   169
  8
0
  6
CONTINUOUS
 62
     7
  2
*HATCH2
 70
    65
 10
0.0
 20
0.0
 30
0.0
  3
*HATCH2
  0
LINE
  5
   16A
  8
0
  6
CONTINUOUS
 62
     7
 10
-24.3239727020264
 20
-126.147346496582
 30
0.0
 11
-25.523983001709
 21
-127.347351074219
 31
0.0
  0
LINE
  5
   16B
  8
0
  6
CONTINUOUS
 62
     7
 10
-20.2998905181885
 20
-126.365905761719
 30
0.0
 11
-21.2813415527344
 21
-127.347351074219
 31
0.0
  0
LINE
  5
   16C
  8
0
  6
CONTINUOUS
 62
     7
 10
-17.6101741790771
 20
-127.918830871582
 30
0.0
 11
-18.4886226654053
 21
-128.797271728516
 31
0.0
  0
ENDBLK
  5
   16D
  8
0
  6
CONTINUOUS
 62
     7
  0
BLOCK
  5
   16E
  8
0
  6
CONTINUOUS
 62
     7
  2
*HATCH3
 70
    65
 10
0.0
 20
0.0
 30
0.0
  3
*HATCH3
  0
LINE
  5
   16F
  8
0
  6
CONTINUOUS
 62
     7
 10
-58.6862373352051
 20
-123.747352600098
 30
0.0
 11
-57.4862442016602
 21
-124.94734954834
 31
0.0
  0
LINE
  5
   170
  8
0
  6
CONTINUOUS
 62
     7
 10
-54.4435997009277
 20
-123.747352600098
 30
0.0
 11
-53.2436141967773
 21
-124.947341918945
 31
0.0
  0
LINE
  5
   171
  8
0
  6
CONTINUOUS
 62
     7
 10
-50.2009620666504
 20
-123.747352600098
 30
0.0
 11
-47.9009628295898
 21
-126.047355651855
 31
0.0
  0
ENDBLK
  5
   172
  8
0
  6
CONTINUOUS
 62
     7
  0
BLOCK
  5
   173
  8
0
  6
CONTINUOUS
 62
     7
  2
*HATCH4
 70
    65
 10
0.0
 20
0.0
 30
0.0
  3
*HATCH4
  0
LINE
  5
   174
  8
0
  6
CONTINUOUS
 62
     7
 10
-48.6999855041504
 20
-129.490966796875
 30
0.0
 11
-47.4999885559082
 21
-130.690979003906
 31
0.0
  0
ENDBLK
  5
   175
  8
0
  6
CONTINUOUS
 62
     7
  0
BLOCK
  5
   176
  8
0
  6
CONTINUOUS
 62
     7
  2
*HATCH5
 70
    65
 10
0.0
 20
0.0
 30
0.0
  3
*HATCH5
  0
LINE
  5
   177
  8
0
  6
CONTINUOUS
 62
     7
 10
-27.4999885559082
 20
-129.477783203125
 30
0.0
 11
-26.299991607666
 21
-130.677780151367
 31
0.0
  0
ENDBLK
  5
   178
  8
0
  6
CONTINUOUS
 62
     7
  0
BLOCK
  5
   179
  8
0
  6
CONTINUOUS
 62
     7
  2
*HATCH6
 70
    65
 10
0.0
 20
0.0
 30
0.0
  3
*HATCH6
  0
LINE
  5
   17A
  8
0
  6
CONTINUOUS
 62
     7
 10
-27.349479675293
 20
-125.385643005371
 30
0.0
 11
-26.6877727508545
 21
-126.047355651855
 31
0.0
  0
LINE
  5
   17B
  8
0
  6
CONTINUOUS
 62
     7
 10
-24.7451324462891
 20
-123.747352600098
 30
0.0
 11
-23.5451335906982
 21
-124.94734954834
 31
0.0
  0
LINE
  5
   17C
  8
0
  6
CONTINUOUS
 62
     7
 10
-20.5024948120117
 20
-123.747352600098
 30
0.0
 11
-19.3024959564209
 21
-124.94734954834
 31
0.0
  0
LINE
  5
   17D
  8
0
  6
CONTINUOUS
 62
     7
 10
-16.2598571777344
 20
-123.747352600098
 30
0.0
 11
-15.0598583221436
 21
-124.94734954834
 31
0.0
  0
LINE
  5
   17E
  8
0
  6
CONTINUOUS
 62
     7
 10
-12.017219543457
 20
-123.747352600098
 30
0.0
 11
-10.8172206878662
 21
-124.94734954834
 31
0.0
  0
LINE
  5
   17F
  8
0
  6
CONTINUOUS
 62
     7
 10
-7.77458143234253
 20
-123.747352600098
 30
0.0
 11
-6.57458257675171
 21
-124.94734954834
 31
0.0
  0
ENDBLK
  5
   180
  8
0
  6
CONTINUOUS
 62
     7
  0
BLOCK
  5
   181
  8
0
  6
CONTINUOUS
 62
     7
  2
*HATCH7
 70
    65
 10
0.0
 20
0.0
 30
0.0
  3
*HATCH7
  0
LINE
  5
   182
  8
0
  6
CONTINUOUS
 62
    52
 10
-50.3687210083008
 20
-48.2473983764648
 30
0.0
 11
-50.5000152587891
 21
-48.3786926269531
 31
0.0
  0
LINE
  5
   183
  8
0
  6
CONTINUOUS
 62
    52
 10
-48.2474021911621
 20
-48.2473983764648
 30
0.0
 11
-50.5000152587891
 21
-50.5000114440918
 31
0.0
  0
LINE
  5
   184
  8
0
  6
CONTINUOUS
 62
    52
 10
-46.1260833740234
 20
-48.2473983764648
 30
0.0
 11
-49.1260833740234
 21
-51.2473983764648
 31
0.0
  0
LINE
  5
   185
  8
0
  6
CONTINUOUS
 62
    52
 10
-44.0047645568848
 20
-48.2473983764648
 30
0.0
 11
-47.0047645568848
 21
-51.2473983764648
 31
0.0
  0
LINE
  5
   186
  8
0
  6
CONTINUOUS
 62
    52
 10
-41.8834457397461
 20
-48.2473983764648
 30
0.0
 11
-44.8834457397461
 21
-51.2473983764648
 31
0.0
  0
LINE
  5
   187
  8
0
  6
CONTINUOUS
 62
    52
 10
-39.7621269226074
 20
-48.2473983764648
 30
0.0
 11
-42.7621269226074
 21
-51.2473983764648
 31
0.0
  0
LINE
  5
   188
  8
0
  6
CONTINUOUS
 62
    52
 10
-37.6408081054688
 20
-48.2473983764648
 30
0.0
 11
-40.6408081054688
 21
-51.2473983764648
 31
0.0
  0
LINE
  5
   189
  8
0
  6
CONTINUOUS
 62
    52
 10
-35.5194892883301
 20
-48.2473983764648
 30
0.0
 11
-38.5194892883301
 21
-51.2473983764648
 31
0.0
  0
LINE
  5
   18A
  8
0
  6
CONTINUOUS
 62
    52
 10
-33.3981704711914
 20
-48.2473983764648
 30
0.0
 11
-36.3981704711914
 21
-51.2473983764648
 31
0.0
  0
LINE
  5
   18B
  8
0
  6
CONTINUOUS
 62
    52
 10
-31.2768497467041
 20
-48.2473983764648
 30
0.0
 11
-34.2768516540527
 21
-51.2473983764648
 31
0.0
  0
LINE
  5
   18C
  8
0
  6
CONTINUOUS
 62
    52
 10
-29.1555290222168
 20
-48.2473983764648
 30
0.0
 11
-32.1555328369141
 21
-51.2473983764648
 31
0.0
  0
LINE
  5
   18D
  8
0
  6
CONTINUOUS
 62
    52
 10
-27.0342082977295
 20
-48.2473983764648
 30
0.0
 11
-30.0342121124268
 21
-51.2473983764648
 31
0.0
  0
LINE
  5
   18E
  8
0
  6
CONTINUOUS
 62
    52
 10
-26.0000152587891
 20
-49.3345375061035
 30
0.0
 11
-27.912878036499
 21
-51.2473983764648
 31
0.0
  0
LINE
  5
   18F
  8
0
  6
CONTINUOUS
 62
    52
 10
-26.0000152587891
 20
-51.4558563232422
 30
0.0
 11
-27.2915573120117
 21
-52.7473983764648
 31
0.0
  0
ENDBLK
  5
   190
  8
0
  6
CONTINUOUS
 62
     7
  0
BLOCK
  5
   191
  8
0
  6
CONTINUOUS
 62
     7
  2
*HATCH8
 70
    65
 10
0.0
 20
0.0
 30
0.0
  3
*HATCH8
  0
LINE
  5
   192
  8
0
  6
CONTINUOUS
 62
    52
 10
21.7561721801758
 20
-48.2473983764648
 30
0.0
 11
20.9999847412109
 21
-49.0035858154297
 31
0.0
  0
LINE
  5
   193
  8
0
  6
CONTINUOUS
 62
    52
 10
23.8774929046631
 20
-48.2473983764648
 30
0.0
 11
20.9999847412109
 21
-51.1249046325684
 31
0.0
  0
LINE
  5
   194
  8
0
  6
CONTINUOUS
 62
    52
 10
25.9988136291504
 20
-48.2473983764648
 30
0.0
 11
22.9988117218018
 21
-51.2473983764648
 31
0.0
  0
LINE
  5
   195
  8
0
  6
CONTINUOUS
 62
    52
 10
22.4999847412109
 20
-51.7462272644043
 30
0.0
 11
21.4988117218018
 21
-52.7473983764648
 31
0.0
  0
LINE
  5
   196
  8
0
  6
CONTINUOUS
 62
    52
 10
28.1201324462891
 20
-48.2473983764648
 30
0.0
 11
25.1201324462891
 21
-51.2473983764648
 31
0.0
  0
LINE
  5
   197
  8
0
  6
CONTINUOUS
 62
    52
 10
30.2414531707764
 20
-48.2473983764648
 30
0.0
 11
27.2414531707764
 21
-51.2473983764648
 31
0.0
  0
LINE
  5
   198
  8
0
  6
CONTINUOUS
 62
    52
 10
32.3627738952637
 20
-48.2473983764648
 30
0.0
 11
29.3627738952637
 21
-51.2473983764648
 31
0.0
  0
LINE
  5
   199
  8
0
  6
CONTINUOUS
 62
    52
 10
34.4840927124023
 20
-48.2473983764648
 30
0.0
 11
31.484094619751
 21
-51.2473983764648
 31
0.0
  0
LINE
  5
   19A
  8
0
  6
CONTINUOUS
 62
    52
 10
36.605411529541
 20
-48.2473983764648
 30
0.0
 11
33.6054153442383
 21
-51.2473983764648
 31
0.0
  0
LINE
  5
   19B
  8
0
  6
CONTINUOUS
 62
    52
 10
38.7267303466797
 20
-48.2473983764648
 30
0.0
 11
35.726734161377
 21
-51.2473983764648
 31
0.0
  0
LINE
  5
   19C
  8
0
  6
CONTINUOUS
 62
    52
 10
40.8480491638184
 20
-48.2473983764648
 30
0.0
 11
37.8480529785156
 21
-51.2473983764648
 31
0.0
  0
LINE
  5
   19D
  8
0
  6
CONTINUOUS
 62
    52
 10
42.969367980957
 20
-48.2473983764648
 30
0.0
 11
39.9693717956543
 21
-51.2473983764648
 31
0.0
  0
LINE
  5
   19E
  8
0
  6
CONTINUOUS
 62
    52
 10
45.0906867980957
 20
-48.2473983764648
 30
0.0
 11
42.090690612793
 21
-51.2473983764648
 31
0.0
  0
LINE
  5
   19F
  8
0
  6
CONTINUOUS
 62
    52
 10
45.4999847412109
 20
-49.9594306945801
 30
0.0
 11
44.2120170593262
 21
-51.2473983764648
 31
0.0
  0
ENDBLK
  5
   1A0
  8
0
  6
CONTINUOUS
 62
     7
  0
BLOCK
  5
   1A1
  8
0
  6
CONTINUOUS
 62
     7
  2
*HATCH9
 70
    65
 10
0.0
 20
0.0
 30
0.0
  3
*HATCH9
  0
LINE
  5
   1A2
  8
0
  6
CONTINUOUS
 62
     7
 10
-106.241592407227
 20
-116.848182678223
 30
0.0
 11
-107.154991149902
 21
-117.761581420898
 31
0.0
  0
LINE
  5
   1A3
  8
0
  6
CONTINUOUS
 62
     7
 10
-105.625328063965
 20
-116.656181335449
 30
0.0
 11
-107.359191894531
 21
-118.390045166016
 31
0.0
  0
LINE
  5
   1A4
  8
0
  6
CONTINUOUS
 62
     7
 10
-105.201065063477
 20
-116.656181335449
 30
0.0
 11
-107.404304504395
 21
-118.859420776367
 31
0.0
  0
LINE
  5
   1A5
  8
0
  6
CONTINUOUS
 62
     7
 10
-104.776802062988
 20
-116.656181335449
 30
0.0
 11
-107.300262451172
 21
-119.179641723633
 31
0.0
  0
LINE
  5
   1A6
  8
0
  6
CONTINUOUS
 62
     7
 10
-104.478958129883
 20
-116.782608032227
 30
0.0
 11
-107.196212768555
 21
-119.499862670898
 31
0.0
  0
LINE
  5
   1A7
  8
0
  6
CONTINUOUS
 62
     7
 10
-104.23323059082
 20
-116.961143493652
 30
0.0
 11
-107.092170715332
 21
-119.820083618164
 31
0.0
  0
LINE
  5
   1A8
  8
0
  6
CONTINUOUS
 62
     7
 10
-103.987495422363
 20
-117.139671325684
 30
0.0
 11
-106.905563354492
 21
-120.057739257813
 31
0.0
  0
LINE
  5
   1A9
  8
0
  6
CONTINUOUS
 62
     7
 10
-103.741767883301
 20
-117.318206787109
 30
0.0
 11
-106.65983581543
 21
-120.236274719238
 31
0.0
  0
LINE
  5
   1AA
  8
0
  6
CONTINUOUS
 62
     7
 10
-103.545333862305
 20
-117.546035766602
 30
0.0
 11
-106.414100646973
 21
-120.41480255127
 31
0.0
  0
LINE
  5
   1AB
  8
0
  6
CONTINUOUS
 62
     7
 10
-103.441291809082
 20
-117.866256713867
 30
0.0
 11
-106.16837310791
 21
-120.593338012695
 31
0.0
  0
LINE
  5
   1AC
  8
0
  6
CONTINUOUS
 62
     7
 10
-103.337242126465
 20
-118.186477661133
 30
0.0
 11
-105.882904052734
 21
-120.732139587402
 31
0.0
  0
LINE
  5
   1AD
  8
0
  6
CONTINUOUS
 62
     7
 10
-103.233200073242
 20
-118.506698608398
 30
0.0
 11
-105.458641052246
 21
-120.732139587402
 31
0.0
  0
LINE
  5
   1AE
  8
0
  6
CONTINUOUS
 62
     7
 10
-103.256942749023
 20
-118.954704284668
 30
0.0
 11
-105.034378051758
 21
-120.732139587402
 31
0.0
  0
LINE
  5
   1AF
  8
0
  6
CONTINUOUS
 62
     7
 10
-103.461143493652
 20
-119.583168029785
 30
0.0
 11
-104.49626159668
 21
-120.618286132813
 31
0.0
  0
ENDBLK
  5
   1B0
  8
0
  6
CONTINUOUS
 62
     7
  0
BLOCK
  5
   1B1
  8
0
  6
CONTINUOUS
 62
     7
  2
*HATCH10
 70
    65
 10
0.0
 20
0.0
 30
0.0
  3
*HATCH10
  0
LINE
  5
   1B2
  8
0
  6
CONTINUOUS
 62
     7
 10
-89.8712997436524
 20
-91.1440887451172
 30
0.0
 11
-90.4581832885742
 21
-91.7309722900391
 31
0.0
  0
LINE
  5
   1B3
  8
0
  6
CONTINUOUS
 62
     7
 10
-89.0454025268555
 20
-90.7424545288086
 30
0.0
 11
-90.6623840332031
 21
-92.3594360351563
 31
0.0
  0
LINE
  5
   1B4
  8
0
  6
CONTINUOUS
 62
     7
 10
-88.6211395263672
 20
-90.7424545288086
 30
0.0
 11
-90.7648315429688
 21
-92.8861389160156
 31
0.0
  0
LINE
  5
   1B5
  8
0
  6
CONTINUOUS
 62
     7
 10
-88.1968765258789
 20
-90.7424545288086
 30
0.0
 11
-90.6607894897461
 21
-93.2063598632813
 31
0.0
  0
LINE
  5
   1B6
  8
0
  6
CONTINUOUS
 62
     7
 10
-87.8658294677734
 20
-90.8356704711914
 30
0.0
 11
-90.5567398071289
 21
-93.5265808105469
 31
0.0
  0
LINE
  5
   1B7
  8
0
  6
CONTINUOUS
 62
     7
 10
-87.6201019287109
 20
-91.0142059326172
 30
0.0
 11
-90.4526977539063
 21
-93.8468017578125
 31
0.0
  0
LINE
  5
   1B8
  8
0
  6
CONTINUOUS
 62
     7
 10
-87.3743743896484
 20
-91.192741394043
 30
0.0
 11
-90.2924346923828
 21
-94.1108016967774
 31
0.0
  0
LINE
  5
   1B9
  8
0
  6
CONTINUOUS
 62
     7
 10
-87.1286468505859
 20
-91.3712768554688
 30
0.0
 11
-90.0467071533203
 21
-94.2893371582031
 31
0.0
  0
LINE
  5
   1BA
  8
0
  6
CONTINUOUS
 62
     7
 10
-86.9058609008789
 20
-91.57275390625
 30
0.0
 11
-89.8009719848633
 21
-94.4678726196289
 31
0.0
  0
LINE
  5
   1BB
  8
0
  6
CONTINUOUS
 62
     7
 10
-86.8018188476563
 20
-91.8929748535156
 30
0.0
 11
-89.5552444458008
 21
-94.6464080810547
 31
0.0
  0
LINE
  5
   1BC
  8
0
  6
CONTINUOUS
 62
     7
 10
-86.6977691650391
 20
-92.2131958007813
 30
0.0
 11
-89.3029861450195
 21
-94.8184051513672
 31
0.0
  0
LINE
  5
   1BD
  8
0
  6
CONTINUOUS
 62
     7
 10
-86.5937271118164
 20
-92.5334167480469
 30
0.0
 11
-88.8787231445312
 21
-94.8184051513672
 31
0.0
  0
LINE
  5
   1BE
  8
0
  6
CONTINUOUS
 62
     7
 10
-86.5601425170899
 20
-92.9240951538086
 30
0.0
 11
-88.4544525146484
 21
-94.8184051513672
 31
0.0
  0
LINE
  5
   1BF
  8
0
  6
CONTINUOUS
 62
     7
 10
-86.7643432617188
 20
-93.5525588989258
 30
0.0
 11
-88.0301895141602
 21
-94.8184051513672
 31
0.0
  0
ENDBLK
  5
   1C0
  8
0
  6
CONTINUOUS
 62
     7
  0
BLOCK
  5
   1C1
  8
0
  6
CONTINUOUS
 62
     3
  2
*UDIM35
 70
    65
 10
0.0
 20
0.0
 30
0.0
  3
*UDIM35
  0
TEXT
  5
   1C2
  8
0
  6
CONTINUOUS
 62
     3
 10
-866.902048667248
 20
8.54176781749272
 30
0.0
 40
2.99999997871263
  1
102
 50
449.999999844103
 41
0.933333333333333
 72
     1
 11
-868.402048646017
 21
12.4417677938911
 31
0.0
 73
     2
  0
LINE
  5
   1C3
  8
0
  6
CONTINUOUS
 62
     3
 10
-847.120962299898
 20
48.4318596779457
 30
0.0
 11
-867.902048656661
 21
48.4318596779457
 31
0.0
  0
LINE
  5
   1C4
  8
0
  6
CONTINUOUS
 62
     3
 10
-847.459437725377
 20
-22.998330396335
 30
0.0
 11
-867.902048656661
 21
-22.998330396335
 31
0.0
  0
LINE
  5
   1C5
  8
0
  6
CONTINUOUS
 62
     3
 10
-865.902048656661
 20
48.4318596779457
 30
0.0
 11
-865.902048656661
 21
-22.998330396335
 31
0.0
  0
LINE
  5
   1C6
  8
0
  6
CONTINUOUS
 62
     3
 10
-865.381103874515
 20
45.4774364628402
 30
0.0
 11
-865.902048656661
 21
48.4318596779457
 31
0.0
  0
LINE
  5
   1C7
  8
0
  6
CONTINUOUS
 62
     3
 10
-865.902048656661
 20
48.4318596779457
 30
0.0
 11
-866.422993438807
 21
45.4774364628402
 31
0.0
  0
LINE
  5
   1C8
  8
0
  6
CONTINUOUS
 62
     3
 10
-866.422993438807
 20
-20.0439071812294
 30
0.0
 11
-865.902048656661
 21
-22.998330396335
 31
0.0
  0
LINE
  5
   1C9
  8
0
  6
CONTINUOUS
 62
     3
 10
-865.902048656661
 20
-22.998330396335
 30
0.0
 11
-865.381103874515
 21
-20.0439071812294
 31
0.0
  0
ENDBLK
  5
   1CA
  8
0
  6
CONTINUOUS
 62
     3
  0
BLOCK
  5
   1CB
  8
0
  6
CONTINUOUS
 62
     3
  2
*UDIM36
 70
    65
 10
0.0
 20
0.0
 30
0.0
  3
*UDIM36
  0
TEXT
  5
   1CC
  8
0
  6
CONTINUOUS
 62
     3
 10
-775.972544654965
 20
63.5872403481725
 30
0.0
 40
2.99999997871263
  1
71
 50
359.999999844103
 41
0.933333333333333
 72
     1
 11
-773.472544668631
 21
65.0872403307391
 31
0.0
 73
     2
  0
LINE
  5
   1CD
  8
0
  6
CONTINUOUS
 62
     3
 10
-800.536902862788
 20
52.6167532801628
 30
0.0
 11
-800.536902862788
 21
64.5872403413828
 31
0.0
  0
LINE
  5
   1CE
  8
0
  6
CONTINUOUS
 62
     3
 10
-800.536902862788
 20
62.5872403413828
 30
0.0
 11
-750.836935558946
 21
62.5872403413828
 31
0.0
  0
LINE
  5
   1CF
  8
0
  6
CONTINUOUS
 62
     3
 10
-797.582479647682
 20
63.1081851235291
 30
0.0
 11
-800.536902862788
 21
62.5872403413828
 31
0.0
  0
LINE
  5
   1D0
  8
0
  6
CONTINUOUS
 62
     3
 10
-800.536902862788
 20
62.5872403413828
 30
0.0
 11
-797.582479647682
 21
62.0662955592364
 31
0.0
  0
LINE
  5
   1D1
  8
0
  6
CONTINUOUS
 62
     3
 10
-753.791358774052
 20
62.0662955592364
 30
0.0
 11
-750.836935558946
 21
62.5872403413828
 31
0.0
  0
LINE
  5
   1D2
  8
0
  6
CONTINUOUS
 62
     3
 10
-750.836935558946
 20
62.5872403413828
 30
0.0
 11
-753.791358774052
 21
63.1081851235291
 31
0.0
  0
ENDBLK
  5
   1D3
  8
0
  6
CONTINUOUS
 62
     3
  0
BLOCK
  5
   1D4
  8
0
  6
CONTINUOUS
 62
     3
  2
*UDIM37
 70
    65
 10
0.0
 20
0.0
 30
0.0
  3
*UDIM37
  0
TEXT
  5
   1D5
  8
0
  6
CONTINUOUS
 62
     3
 10
-728.436042562148
 20
1.5417753415883
 30
0.0
 40
2.99999997871263
  1
45
 50
449.999999844103
 41
0.933333333333333
 72
     1
 11
-729.936042544718
 21
4.04177532792077
 31
0.0
 73
     2
  0
LINE
  5
   1D6
  8
0
  6
CONTINUOUS
 62
     3
 10
-747.686940786274
 20
20.0667752146719
 30
0.0
 11
-725.436042555361
 21
20.0667752146719
 31
0.0
  0
LINE
  5
   1D7
  8
0
  6
CONTINUOUS
 62
     3
 10
-747.686940786274
 20
-11.4332242488863
 30
0.0
 11
-725.436042555361
 21
-11.4332242488863
 31
0.0
  0
LINE
  5
   1D8
  8
0
  6
CONTINUOUS
 62
     3
 10
-727.436042555361
 20
20.0667752146719
 30
0.0
 11
-727.436042555361
 21
-11.4332242488863
 31
0.0
  0
LINE
  5
   1D9
  8
0
  6
CONTINUOUS
 62
     3
 10
-726.915097773215
 20
17.1123519995664
 30
0.0
 11
-727.436042555361
 21
20.0667752146719
 31
0.0
  0
LINE
  5
   1DA
  8
0
  6
CONTINUOUS
 62
     3
 10
-727.436042555361
 20
20.0667752146719
 30
0.0
 11
-727.956987337508
 21
17.1123519995664
 31
0.0
  0
LINE
  5
   1DB
  8
0
  6
CONTINUOUS
 62
     3
 10
-727.956987337508
 20
-8.47880103378072
 30
0.0
 11
-727.436042555361
 21
-11.4332242488863
 31
0.0
  0
LINE
  5
   1DC
  8
0
  6
CONTINUOUS
 62
     3
 10
-727.436042555361
 20
-11.4332242488863
 30
0.0
 11
-726.915097773215
 21
-8.47880103378072
 31
0.0
  0
ENDBLK
  5
   1DD
  8
0
  6
CONTINUOUS
 62
     3
  0
BLOCK
  5
   1DE
  8
0
  6
CONTINUOUS
 62
     7
  2
*UDIM38
 70
    65
 10
0.0
 20
0.0
 30
0.0
  3
*UDIM38
  0
TEXT
  5
   1DF
  8
0
  6
CONTINUOUS
 62
     7
 10
-849.948397561253
 20
-2.55823933805015
 30
0.0
 40
2.99999997871263
  1
=
 50
449.999999844103
 41
0.933333333333333
 72
     1
 11
-851.448397547623
 21
-1.45823934178357
 31
0.0
 73
     2
  0
LINE
  5
   1E0
  8
0
  6
CONTINUOUS
 62
     3
 10
-807.600431721773
 20
4.31676478385652
 30
0.0
 11
-850.948398063134
 21
4.31676478385652
 31
0.0
  0
LINE
  5
   1E1
  8
0
  6
CONTINUOUS
 62
     3
 10
-804.336902147532
 20
-7.23324303030971
 30
0.0
 11
-850.9483970534
 21
-7.23324303030971
 31
0.0
  0
LINE
  5
   1E2
  8
0
  6
CONTINUOUS
 62
     3
 10
-848.948398063134
 20
4.31676478385652
 30
0.0
 11
-848.9483970534
 21
-7.23324303030971
 31
0.0
  0
LINE
  5
   1E3
  8
0
  6
CONTINUOUS
 62
     3
 10
-848.427453022703
 20
1.36234161429345
 30
0.0
 11
-848.948398063134
 21
4.31676478385652
 31
0.0
  0
LINE
  5
   1E4
  8
0
  6
CONTINUOUS
 62
     3
 10
-848.948398063134
 20
4.31676478385652
 30
0.0
 11
-849.469342586996
 21
1.36234152320855
 31
0.0
  0
LINE
  5
   1E5
  8
0
  6
CONTINUOUS
 62
     3
 10
-849.46934209383
 20
-4.27881986074664
 30
0.0
 11
-848.9483970534
 21
-7.23324303030971
 31
0.0
  0
LINE
  5
   1E6
  8
0
  6
CONTINUOUS
 62
     3
 10
-848.9483970534
 20
-7.23324303030971
 30
0.0
 11
-848.427452529537
 21
-4.27881976966174
 31
0.0
  0
ENDBLK
  5
   1E7
  8
0
  6
CONTINUOUS
 62
     7
  0
BLOCK
  5
   1E8
  8
0
  6
CONTINUOUS
 62
     7
  2
*UDIM39
 70
    65
 10
0.0
 20
0.0
 30
0.0
  3
*UDIM39
  0
TEXT
  5
   1E9
  8
0
  6
CONTINUOUS
 62
     7
 10
-849.948398647481
 20
9.86676045035336
 30
0.0
 40
2.99999997871263
  1
=
 50
449.999999844103
 41
0.933333333333333
 72
     1
 11
-851.448398633851
 21
10.9667604466199
 31
0.0
 73
     2
  0
LINE
  5
   1EA
  8
0
  6
CONTINUOUS
 62
     3
 10
-804.336902147532
 20
17.6167565464973
 30
0.0
 11
-850.948399225856
 21
17.6167565464973
 31
0.0
  0
LINE
  5
   1EB
  8
0
  6
CONTINUOUS
 62
     3
 10
-848.948399225856
 20
17.6167565464973
 30
0.0
 11
-848.948398063134
 21
4.31676478385652
 31
0.0
  0
LINE
  5
   1EC
  8
0
  6
CONTINUOUS
 62
     3
 10
-848.427454185426
 20
14.6623333769342
 30
0.0
 11
-848.948399225856
 21
17.6167565464973
 31
0.0
  0
LINE
  5
   1ED
  8
0
  6
CONTINUOUS
 62
     3
 10
-848.948399225856
 20
17.6167565464973
 30
0.0
 11
-849.469343749718
 21
14.6623332858493
 31
0.0
  0
LINE
  5
   1EE
  8
0
  6
CONTINUOUS
 62
     3
 10
-849.469343103564
 20
7.27118795341959
 30
0.0
 11
-848.948398063134
 21
4.31676478385652
 31
0.0
  0
LINE
  5
   1EF
  8
0
  6
CONTINUOUS
 62
     3
 10
-848.948398063134
 20
4.31676478385652
 30
0.0
 11
-848.427453539271
 21
7.27118804450448
 31
0.0
  0
ENDBLK
  5
   1F0
  8
0
  6
CONTINUOUS
 62
     7
  0
BLOCK
  5
   1F1
  8
0
  6
CONTINUOUS
 62
     3
  2
*UDIM40
 70
    65
 10
0.0
 20
0.0
 30
0.0
  3
*UDIM40
  0
TEXT
  5
   1F2
  8
0
  6
CONTINUOUS
 62
     3
 10
-857.716681534828
 20
-12.1157773298047
 30
0.0
 40
2.99999997871263
  1
39
 50
449.999999844103
 41
0.933333333333333
 72
     1
 11
-859.216681517398
 21
-9.61577734347224
 31
0.0
 73
     2
  0
LINE
  5
   1F3
  8
0
  6
CONTINUOUS
 62
     3
 10
-828.026285793264
 20
4.31677548289284
 30
0.0
 11
-858.716681528042
 21
4.31677548289284
 31
0.0
  0
LINE
  5
   1F4
  8
0
  6
CONTINUOUS
 62
     3
 10
-847.459437725377
 20
-22.998330396335
 30
0.0
 11
-858.716681528042
 21
-22.998330396335
 31
0.0
  0
LINE
  5
   1F5
  8
0
  6
CONTINUOUS
 62
     3
 10
-856.716681528042
 20
4.31677548289284
 30
0.0
 11
-856.716681528042
 21
-22.998330396335
 31
0.0
  0
LINE
  5
   1F6
  8
0
  6
CONTINUOUS
 62
     3
 10
-856.195736745895
 20
1.36235226778732
 30
0.0
 11
-856.716681528042
 21
4.31677548289284
 31
0.0
  0
LINE
  5
   1F7
  8
0
  6
CONTINUOUS
 62
     3
 10
-856.716681528042
 20
4.31677548289284
 30
0.0
 11
-857.237626310188
 21
1.36235226778732
 31
0.0
  0
LINE
  5
   1F8
  8
0
  6
CONTINUOUS
 62
     3
 10
-857.237626310188
 20
-20.0439071812294
 30
0.0
 11
-856.716681528042
 21
-22.998330396335
 31
0.0
  0
LINE
  5
   1F9
  8
0
  6
CONTINUOUS
 62
     3
 10
-856.716681528042
 20
-22.998330396335
 30
0.0
 11
-856.195736745895
 21
-20.0439071812294
 31
0.0
  0
ENDBLK
  5
   1FA
  8
0
  6
CONTINUOUS
 62
     3
  0
BLOCK
  5
   1FB
  8
0
  6
CONTINUOUS
 62
     3
  2
*UDIM41
 70
    65
 10
0.0
 20
0.0
 30
0.0
  3
*UDIM41
  0
TEXT
  5
   1FC
  8
0
  6
CONTINUOUS
 62
     3
 10
-807.773035987461
 20
-38.8073845376387
 30
0.0
 40
2.99999997871263
  1
3
 50
359.999999844103
 41
0.933333333333333
 72
     1
 11
-806.673035991192
 21
-37.3073845512699
 31
0.0
 73
     2
  0
LINE
  5
   1FD
  8
0
  6
CONTINUOUS
 62
     3
 10
-802.636902159453
 20
-7.23324303030971
 30
0.0
 11
-802.636902159453
 21
-41.8073845406262
 31
0.0
  0
LINE
  5
   1FE
  8
0
  6
CONTINUOUS
 62
     3
 10
-800.536902862788
 20
-25.783234703541
 30
0.0
 11
-800.536902862788
 21
-41.8073845406262
 31
0.0
  0
LINE
  5
   1FF
  8
0
  6
CONTINUOUS
 62
     3
 10
-807.773035983387
 20
-39.8073845406262
 30
0.0
 11
-800.536902862788
 21
-39.8073845406262
 31
0.0
  0
LINE
  5
   200
  8
0
  6
CONTINUOUS
 62
     3
 10
-805.591325374558
 20
-40.3283293227725
 30
0.0
 11
-802.636902159453
 21
-39.8073845406262
 31
0.0
  0
LINE
  5
   201
  8
0
  6
CONTINUOUS
 62
     3
 10
-802.636902159453
 20
-39.8073845406262
 30
0.0
 11
-805.591325374558
 21
-39.2864397584798
 31
0.0
  0
LINE
  5
   202
  8
0
  6
CONTINUOUS
 62
     3
 10
-797.582479647682
 20
-39.2864397584798
 30
0.0
 11
-800.536902862788
 21
-39.8073845406262
 31
0.0
  0
LINE
  5
   203
  8
0
  6
CONTINUOUS
 62
     3
 10
-800.536902862788
 20
-39.8073845406262
 30
0.0
 11
-797.582479647682
 21
-40.3283293227725
 31
0.0
  0
ENDBLK
  5
   204
  8
0
  6
CONTINUOUS
 62
     3
  0
BLOCK
  5
   205
  8
0
  6
CONTINUOUS
 62
     3
  2
*UDIM42
 70
    65
 10
0.0
 20
0.0
 30
0.0
  3
*UDIM42
  0
TEXT
  5
   206
  8
0
  6
CONTINUOUS
 62
     3
 10
-776.711936636046
 20
-55.87289097925
 30
0.0
 40
2.99999997871263
  1
75
 50
359.999999844103
 41
0.933333333333333
 72
     1
 11
-774.211936649711
 21
-54.3728909966834
 31
0.0
 73
     2
  0
LINE
  5
   207
  8
0
  6
CONTINUOUS
 62
     3
 10
-800.186930713089
 20
-30.6832239210505
 30
0.0
 11
-800.186930713089
 21
-58.8728909860397
 31
0.0
  0
LINE
  5
   208
  8
0
  6
CONTINUOUS
 62
     3
 10
-747.686940786274
 20
-11.4332242488863
 30
0.0
 11
-747.686940786274
 21
-58.8728909860397
 31
0.0
  0
LINE
  5
   209
  8
0
  6
CONTINUOUS
 62
     3
 10
-800.186930713089
 20
-56.8728909860397
 30
0.0
 11
-747.686940786274
 21
-56.8728909860397
 31
0.0
  0
LINE
  5
   20A
  8
0
  6
CONTINUOUS
 62
     3
 10
-797.232507497983
 20
-56.3519462038933
 30
0.0
 11
-800.186930713089
 21
-56.8728909860397
 31
0.0
  0
LINE
  5
   20B
  8
0
  6
CONTINUOUS
 62
     3
 10
-800.186930713089
 20
-56.8728909860397
 30
0.0
 11
-797.232507497983
 21
-57.3938357681861
 31
0.0
  0
LINE
  5
   20C
  8
0
  6
CONTINUOUS
 62
     3
 10
-750.641364001379
 20
-57.3938357681861
 30
0.0
 11
-747.686940786274
 21
-56.8728909860397
 31
0.0
  0
LINE
  5
   20D
  8
0
  6
CONTINUOUS
 62
     3
 10
-747.686940786274
 20
-56.8728909860397
 30
0.0
 11
-750.641364001379
 21
-56.3519462038933
 31
0.0
  0
ENDBLK
  5
   20E
  8
0
  6
CONTINUOUS
 62
     3
  0
BLOCK
  5
   20F
  8
0
  6
CONTINUOUS
 62
     3
  2
*UDIM43
 70
    65
 10
0.0
 20
0.0
 30
0.0
  3
*UDIM43
  0
TEXT
  5
   210
  8
0
  6
CONTINUOUS
 62
     3
 10
-771.111931396797
 20
-63.3782482122744
 30
0.0
 40
2.99999997871263
  1
91
 50
359.999999844103
 41
0.933333333333333
 72
     1
 11
-768.611931410463
 21
-61.8782482297078
 31
0.0
 73
     2
  0
LINE
  5
   211
  8
0
  6
CONTINUOUS
 62
     3
 10
-800.186930713089
 20
-30.6832239210505
 30
0.0
 11
-800.186930713089
 21
-66.3782482190641
 31
0.0
  0
LINE
  5
   212
  8
0
  6
CONTINUOUS
 62
     3
 10
-736.486931797893
 20
-3.68293570921741
 30
0.0
 11
-736.486931797893
 21
-66.3782482190641
 31
0.0
  0
LINE
  5
   213
  8
0
  6
CONTINUOUS
 62
     3
 10
-800.186930713089
 20
-64.3782482190641
 30
0.0
 11
-736.486931797893
 21
-64.3782482190641
 31
0.0
  0
LINE
  5
   214
  8
0
  6
CONTINUOUS
 62
     3
 10
-797.232507497983
 20
-63.8573034369177
 30
0.0
 11
-800.186930713089
 21
-64.3782482190641
 31
0.0
  0
LINE
  5
   215
  8
0
  6
CONTINUOUS
 62
     3
 10
-800.186930713089
 20
-64.3782482190641
 30
0.0
 11
-797.232507497983
 21
-64.8991930012104
 31
0.0
  0
LINE
  5
   216
  8
0
  6
CONTINUOUS
 62
     3
 10
-739.441355012999
 20
-64.8991930012104
 30
0.0
 11
-736.486931797893
 21
-64.3782482190641
 31
0.0
  0
LINE
  5
   217
  8
0
  6
CONTINUOUS
 62
     3
 10
-736.486931797893
 20
-64.3782482190641
 30
0.0
 11
-739.441355012999
 21
-63.8573034369177
 31
0.0
  0
ENDBLK
  5
   218
  8
0
  6
CONTINUOUS
 62
     3
  0
BLOCK
  5
   219
  8
0
  6
CONTINUOUS
 62
     7
  2
*UDIM44
 70
    65
 10
0.0
 20
0.0
 30
0.0
  3
*UDIM44
  0
TEXT
  5
   21A
  8
0
  6
CONTINUOUS
 62
     7
 10
-746.060314679419
 20
63.5872403519747
 30
0.0
 40
2.99999997871263
  1
1.5
 50
359.999999844103
 41
0.933333333333333
 72
     1
 11
-742.160314703019
 21
65.0872403307391
 31
0.0
 73
     2
  0
TEXT
  5
   21B
  8
0
  6
CONTINUOUS
 62
     7
 10
-737.260314734766
 20
63.5872403481725
 30
0.0
 40
2.99999997871263
  1
-2
 50
359.999999844103
 41
0.933333333333333
 72
     1
 11
-734.760314748432
 21
65.0872403307391
 31
0.0
 73
     2
  0
LINE
  5
   21C
  8
0
  6
CONTINUOUS
 62
     7
 10
-755.836935558946
 20
62.5872403413828
 30
0.0
 11
-732.260314766171
 21
62.5872403413828
 31
0.0
  0
LINE
  5
   21D
  8
0
  6
CONTINUOUS
 62
     3
 10
-753.734713032157
 20
61.8107831849642
 30
0.0
 11
-750.836935558946
 21
62.5872403413828
 31
0.0
  0
LINE
  5
   21E
  8
0
  6
CONTINUOUS
 62
     3
 10
-750.836935558946
 20
62.5872403413828
 30
0.0
 11
-753.734713032157
 21
63.3636974978013
 31
0.0
  0
LINE
  5
   21F
  8
0
  6
CONTINUOUS
 62
     3
 10
-746.889158103617
 20
63.3636974978013
 30
0.0
 11
-749.786935576828
 21
62.5872403413828
 31
0.0
  0
LINE
  5
   220
  8
0
  6
CONTINUOUS
 62
     3
 10
-749.786935576828
 20
62.5872403413828
 30
0.0
 11
-746.889158103617
 21
61.8107831849642
 31
0.0
  0
ENDBLK
  5
   221
  8
0
  6
CONTINUOUS
 62
     7
  0
ENDSEC
  0
SECTION
  2
ENTITIES
  0
LINE
  5
   222
  8
0
  6
CONTINUOUS
 62
   130
 10
-747.686940786274
 20
-76.0192524790764
 30
0.0
 11
-800.186861678692
 21
-76.0192524790764
 31
0.0
  0
LINE
  5
   223
  8
0
  6
CONTINUOUS
 62
   130
 10
-747.686940786274
 20
-148.119251251221
 30
0.0
 11
-800.186861678692
 21
-148.119251251221
 31
0.0
  0
LINE
  5
   224
  8
0
  6
CONTINUOUS
 62
   130
 10
-800.186861678692
 20
-76.0192524790764
 30
0.0
 11
-800.186861678692
 21
-148.119251251221
 31
0.0
  0
LINE
  5
   225
  8
0
  6
DASHDOT
 62
   130
 10
-727.323688133156
 20
-103.31925201416
 30
0.0
 11
-857.185426375224
 21
-103.31925201416
 31
0.0
  0
LINE
  5
   226
  8
0
  6
DASHDOT
 62
   130
 10
-787.890160700536
 20
-85.8192523121834
 30
0.0
 11
-847.461835584821
 21
-85.8192523121834
 31
0.0
  0
LINE
  5
   227
  8
0
  6
DASHDOT
 62
   130
 10
-787.213209849579
 20
-120.819251716137
 30
0.0
 11
-849.492688137694
 21
-120.819251716137
 31
0.0
  0
LINE
  5
   228
  8
0
  6
CONTINUOUS
 62
   130
 10
-852.686860784622
 20
-100.869252055883
 30
0.0
 11
-852.686860784622
 21
-105.769251972437
 31
0.0
  0
LINE
  5
   229
  8
0
  6
CONTINUOUS
 62
   130
 10
-851.286860808464
 20
-100.519252061844
 30
0.0
 11
-852.336860790583
 21
-100.519252061844
 31
0.0
  0
LINE
  5
   22A
  8
0
  6
CONTINUOUS
 62
   130
 10
-851.286860808464
 20
-106.119251966476
 30
0.0
 11
-852.336860790583
 21
-106.119251966476
 31
0.0
  0
LINE
  5
   22B
  8
0
  6
CONTINUOUS
 62
   130
 10
-852.336860790583
 20
-100.519252061844
 30
0.0
 11
-852.686860784622
 21
-100.869252055883
 31
0.0
  0
LINE
  5
   22C
  8
0
  6
CONTINUOUS
 62
   130
 10
-852.336860790583
 20
-106.119251966476
 30
0.0
 11
-852.686860784622
 21
-105.769251972437
 31
0.0
  0
LINE
  5
   22D
  8
0
  6
CONTINUOUS
 62
   130
 10
-851.286860808464
 20
-97.7192521095276
 30
0.0
 11
-851.286860808464
 21
-108.919251918793
 31
0.0
  0
LINE
  5
   22E
  8
0
  6
CONTINUOUS
 62
   130
 10
-847.08686087999
 20
-97.0192521214485
 30
0.0
 11
-847.08686087999
 21
-109.619251906872
 31
0.0
  0
LINE
  5
   22F
  8
0
  6
CONTINUOUS
 62
   130
 10
-845.686860903831
 20
-97.0192521214485
 30
0.0
 11
-845.686860903831
 21
-109.619251906872
 31
0.0
  0
LINE
  5
   230
  8
0
  6
CONTINUOUS
 62
   130
 10
-843.586860939594
 20
-97.0192521214485
 30
0.0
 11
-843.586860939594
 21
-109.619251906872
 31
0.0
  0
LINE
  5
   231
  8
0
  6
CONTINUOUS
 62
   130
 10
-842.186860963436
 20
-97.0192521214485
 30
0.0
 11
-842.186860963436
 21
-109.619251906872
 31
0.0
  0
LINE
  5
   232
  8
0
  6
CONTINUOUS
 62
   130
 10
-837.986861034962
 20
-97.7192521095276
 30
0.0
 11
-837.986861034962
 21
-108.919251918793
 31
0.0
  0
LINE
  5
   233
  8
0
  6
CONTINUOUS
 62
   130
 10
-847.08686087999
 20
-97.7192521095276
 30
0.0
 11
-851.286860808464
 21
-97.7192521095276
 31
0.0
  0
LINE
  5
   234
  8
0
  6
CONTINUOUS
 62
   130
 10
-847.08686087999
 20
-108.919251918793
 30
0.0
 11
-851.286860808464
 21
-108.919251918793
 31
0.0
  0
LINE
  5
   235
  8
0
  6
CONTINUOUS
 62
   130
 10
-837.986861034962
 20
-97.7192521095276
 30
0.0
 11
-842.186860963436
 21
-97.7192521095276
 31
0.0
  0
LINE
  5
   236
  8
0
  6
CONTINUOUS
 62
   130
 10
-837.986861034962
 20
-108.919251918793
 30
0.0
 11
-842.186860963436
 21
-108.919251918793
 31
0.0
  0
LINE
  5
   237
  8
0
  6
CONTINUOUS
 62
   130
 10
-842.186860963436
 20
-97.0192521214485
 30
0.0
 11
-843.586860939594
 21
-97.0192521214485
 31
0.0
  0
LINE
  5
   238
  8
0
  6
CONTINUOUS
 62
   130
 10
-842.186860963436
 20
-109.619251906872
 30
0.0
 11
-843.586860939594
 21
-109.619251906872
 31
0.0
  0
LINE
  5
   239
  8
0
  6
CONTINUOUS
 62
   130
 10
-845.686860903831
 20
-97.0192521214485
 30
0.0
 11
-847.08686087999
 21
-97.0192521214485
 31
0.0
  0
LINE
  5
   23A
  8
0
  6
CONTINUOUS
 62
   130
 10
-845.686860903831
 20
-109.619251906872
 30
0.0
 11
-847.08686087999
 21
-109.619251906872
 31
0.0
  0
LINE
  5
   23B
  8
0
  6
CONTINUOUS
 62
   130
 10
-847.08686087999
 20
-103.31925201416
 30
0.0
 11
-851.286860808464
 21
-103.31925201416
 31
0.0
  0
LINE
  5
   23C
  8
0
  6
CONTINUOUS
 62
   130
 10
-837.986861034962
 20
-103.31925201416
 30
0.0
 11
-842.186860963436
 21
-103.31925201416
 31
0.0
  0
LINE
  5
   23D
  8
0
  6
CONTINUOUS
 62
   130
 10
-843.586860939594
 20
-100.519252061844
 30
0.0
 11
-845.686860903831
 21
-100.519252061844
 31
0.0
  0
LINE
  5
   23E
  8
0
  6
CONTINUOUS
 62
   130
 10
-843.586860939594
 20
-106.119251966476
 30
0.0
 11
-845.686860903831
 21
-106.119251966476
 31
0.0
  0
LINE
  5
   23F
  8
0
  6
CONTINUOUS
 62
   130
 10
-843.586860939594
 20
-100.869252055883
 30
0.0
 11
-845.686860903831
 21
-100.869252055883
 31
0.0
  0
LINE
  5
   240
  8
0
  6
CONTINUOUS
 62
   130
 10
-843.586860939594
 20
-105.769251972437
 30
0.0
 11
-845.686860903831
 21
-105.769251972437
 31
0.0
  0
LINE
  5
   241
  8
0
  6
CONTINUOUS
 62
   130
 10
-851.286860808464
 20
-105.769251972437
 30
0.0
 11
-852.686860784622
 21
-105.769251972437
 31
0.0
  0
LINE
  5
   242
  8
0
  6
CONTINUOUS
 62
   130
 10
-851.286860808464
 20
-100.869252055883
 30
0.0
 11
-852.686860784622
 21
-100.869252055883
 31
0.0
  0
LINE
  5
   243
  8
0
  6
CONTINUOUS
 62
   130
 10
-852.336860790583
 20
-100.519252061844
 30
0.0
 11
-852.336860790583
 21
-106.119251966476
 31
0.0
  0
LINE
  5
   244
  8
0
  6
CONTINUOUS
 62
   130
 10
-801.376861658426
 20
-99.4692520797253
 30
0.0
 11
-802.216861644121
 21
-99.4692520797253
 31
0.0
  0
LINE
  5
   245
  8
0
  6
CONTINUOUS
 62
   130
 10
-801.376861658426
 20
-107.169251948595
 30
0.0
 11
-802.216861644121
 21
-107.169251948595
 31
0.0
  0
LINE
  5
   246
  8
0
  6
CONTINUOUS
 62
   130
 10
-828.186861201855
 20
-115.219251811504
 30
0.0
 11
-828.186861201855
 21
-126.41925162077
 31
0.0
  0
LINE
  5
   247
  8
0
  6
CONTINUOUS
 62
   130
 10
-819.086861356827
 20
-114.519251823425
 30
0.0
 11
-819.086861356827
 21
-127.119251608849
 31
0.0
  0
LINE
  5
   248
  8
0
  6
CONTINUOUS
 62
   130
 10
-820.486861332985
 20
-114.519251823425
 30
0.0
 11
-820.486861332985
 21
-127.119251608849
 31
0.0
  0
LINE
  5
   249
  8
0
  6
CONTINUOUS
 62
   130
 10
-822.586861297222
 20
-114.519251823425
 30
0.0
 11
-822.586861297222
 21
-127.119251608849
 31
0.0
  0
LINE
  5
   24A
  8
0
  6
CONTINUOUS
 62
   130
 10
-823.98686127338
 20
-114.519251823425
 30
0.0
 11
-823.98686127338
 21
-127.119251608849
 31
0.0
  0
LINE
  5
   24B
  8
0
  6
CONTINUOUS
 62
   130
 10
-814.886861428352
 20
-115.219251811504
 30
0.0
 11
-819.086861356827
 21
-115.219251811504
 31
0.0
  0
LINE
  5
   24C
  8
0
  6
CONTINUOUS
 62
   130
 10
-823.98686127338
 20
-115.219251811504
 30
0.0
 11
-828.186861201855
 21
-115.219251811504
 31
0.0
  0
LINE
  5
   24D
  8
0
  6
CONTINUOUS
 62
   130
 10
-814.886861428352
 20
-126.41925162077
 30
0.0
 11
-819.086861356827
 21
-126.41925162077
 31
0.0
  0
LINE
  5
   24E
  8
0
  6
CONTINUOUS
 62
   130
 10
-823.98686127338
 20
-126.41925162077
 30
0.0
 11
-828.186861201855
 21
-126.41925162077
 31
0.0
  0
LINE
  5
   24F
  8
0
  6
CONTINUOUS
 62
   130
 10
-819.086861356827
 20
-114.519251823425
 30
0.0
 11
-820.486861332985
 21
-114.519251823425
 31
0.0
  0
LINE
  5
   250
  8
0
  6
CONTINUOUS
 62
   130
 10
-822.586861297222
 20
-114.519251823425
 30
0.0
 11
-823.98686127338
 21
-114.519251823425
 31
0.0
  0
LINE
  5
   251
  8
0
  6
CONTINUOUS
 62
   130
 10
-819.086861356827
 20
-127.119251608849
 30
0.0
 11
-820.486861332985
 21
-127.119251608849
 31
0.0
  0
LINE
  5
   252
  8
0
  6
CONTINUOUS
 62
   130
 10
-822.586861297222
 20
-127.119251608849
 30
0.0
 11
-823.98686127338
 21
-127.119251608849
 31
0.0
  0
LINE
  5
   253
  8
0
  6
CONTINUOUS
 62
   130
 10
-820.486861332985
 20
-123.619251668453
 30
0.0
 11
-822.586861297222
 21
-123.619251668453
 31
0.0
  0
LINE
  5
   254
  8
0
  6
CONTINUOUS
 62
   130
 10
-820.486861332985
 20
-118.019251763821
 30
0.0
 11
-822.586861297222
 21
-118.019251763821
 31
0.0
  0
LINE
  5
   255
  8
0
  6
CONTINUOUS
 62
   130
 10
-820.486861332985
 20
-118.36925175786
 30
0.0
 11
-822.586861297222
 21
-118.36925175786
 31
0.0
  0
LINE
  5
   256
  8
0
  6
CONTINUOUS
 62
   130
 10
-828.186861201855
 20
-118.019251763821
 30
0.0
 11
-829.236861183973
 21
-118.019251763821
 31
0.0
  0
LINE
  5
   257
  8
0
  6
CONTINUOUS
 62
   130
 10
-828.186861201855
 20
-118.36925175786
 30
0.0
 11
-829.586861178013
 21
-118.36925175786
 31
0.0
  0
LINE
  5
   258
  8
0
  6
CONTINUOUS
 62
   130
 10
-828.186861201855
 20
-123.619251668453
 30
0.0
 11
-829.236861183973
 21
-123.619251668453
 31
0.0
  0
LINE
  5
   259
  8
0
  6
CONTINUOUS
 62
   130
 10
-829.236861183973
 20
-118.019251763821
 30
0.0
 11
-829.236861183973
 21
-123.619251668453
 31
0.0
  0
LINE
  5
   25A
  8
0
  6
CONTINUOUS
 62
   130
 10
-829.586861178013
 20
-118.36925175786
 30
0.0
 11
-829.586861178013
 21
-123.269251674414
 31
0.0
  0
LINE
  5
   25B
  8
0
  6
CONTINUOUS
 62
   130
 10
-829.236861183973
 20
-118.019251763821
 30
0.0
 11
-829.236861183973
 21
-123.619251668453
 31
0.0
  0
LINE
  5
   25C
  8
0
  6
CONTINUOUS
 62
   130
 10
-829.236861183973
 20
-118.019251763821
 30
0.0
 11
-829.586861178013
 21
-118.36925175786
 31
0.0
  0
LINE
  5
   25D
  8
0
  6
CONTINUOUS
 62
   130
 10
-829.236861183973
 20
-123.619251668453
 30
0.0
 11
-829.586861178013
 21
-123.269251674414
 31
0.0
  0
LINE
  5
   25E
  8
0
  6
CONTINUOUS
 62
   130
 10
-800.186861678692
 20
-116.969251781702
 30
0.0
 11
-814.886861428352
 21
-116.969251781702
 31
0.0
  0
LINE
  5
   25F
  8
0
  6
CONTINUOUS
 62
   130
 10
-800.186861678692
 20
-124.669251650572
 30
0.0
 11
-814.886861428352
 21
-124.669251650572
 31
0.0
  0
LINE
  5
   260
  8
0
  6
CONTINUOUS
 62
   130
 10
-820.486861332985
 20
-123.269251674414
 30
0.0
 11
-822.586861297222
 21
-123.269251674414
 31
0.0
  0
LINE
  5
   261
  8
0
  6
CONTINUOUS
 62
   130
 10
-800.186861678692
 20
-89.6692522466183
 30
0.0
 11
-814.886861428352
 21
-89.6692522466183
 31
0.0
  0
LINE
  5
   262
  8
0
  6
CONTINUOUS
 62
   130
 10
-800.186861678692
 20
-81.9692523777485
 30
0.0
 11
-814.886861428352
 21
-81.9692523777485
 31
0.0
  0
LINE
  5
   263
  8
0
  6
CONTINUOUS
 62
   130
 10
-814.886861428352
 20
-80.2192524075508
 30
0.0
 11
-814.886861428352
 21
-91.4192522168159
 31
0.0
  0
LINE
  5
   264
  8
0
  6
CONTINUOUS
 62
   130
 10
-814.886861428352
 20
-91.4192522168159
 30
0.0
 11
-819.086861356827
 21
-91.4192522168159
 31
0.0
  0
LINE
  5
   265
  8
0
  6
CONTINUOUS
 62
   130
 10
-814.886861428352
 20
-80.2192524075508
 30
0.0
 11
-819.086861356827
 21
-80.2192524075508
 31
0.0
  0
LINE
  5
   266
  8
0
  6
CONTINUOUS
 62
   130
 10
-819.086861356827
 20
-79.5192524194717
 30
0.0
 11
-819.086861356827
 21
-92.119252204895
 31
0.0
  0
LINE
  5
   267
  8
0
  6
CONTINUOUS
 62
   130
 10
-820.486861332985
 20
-79.5192524194717
 30
0.0
 11
-820.486861332985
 21
-92.119252204895
 31
0.0
  0
LINE
  5
   268
  8
0
  6
CONTINUOUS
 62
   130
 10
-823.98686127338
 20
-79.5192524194717
 30
0.0
 11
-823.98686127338
 21
-92.119252204895
 31
0.0
  0
LINE
  5
   269
  8
0
  6
CONTINUOUS
 62
   130
 10
-823.98686127338
 20
-91.4192522168159
 30
0.0
 11
-828.186861201855
 21
-91.4192522168159
 31
0.0
  0
LINE
  5
   26A
  8
0
  6
CONTINUOUS
 62
   130
 10
-828.186861201855
 20
-80.2192524075508
 30
0.0
 11
-828.186861201855
 21
-91.4192522168159
 31
0.0
  0
LINE
  5
   26B
  8
0
  6
CONTINUOUS
 62
   130
 10
-823.98686127338
 20
-80.2192524075508
 30
0.0
 11
-828.186861201855
 21
-80.2192524075508
 31
0.0
  0
LINE
  5
   26C
  8
0
  6
CONTINUOUS
 62
   130
 10
-819.086861356827
 20
-79.5192524194717
 30
0.0
 11
-819.086861356827
 21
-92.119252204895
 31
0.0
  0
LINE
  5
   26D
  8
0
  6
CONTINUOUS
 62
   130
 10
-819.086861356827
 20
-92.119252204895
 30
0.0
 11
-820.486861332985
 21
-92.119252204895
 31
0.0
  0
LINE
  5
   26E
  8
0
  6
CONTINUOUS
 62
   130
 10
-822.586861297222
 20
-92.119252204895
 30
0.0
 11
-823.98686127338
 21
-92.119252204895
 31
0.0
  0
LINE
  5
   26F
  8
0
  6
CONTINUOUS
 62
   130
 10
-819.086861356827
 20
-79.5192524194717
 30
0.0
 11
-820.486861332985
 21
-79.5192524194717
 31
0.0
  0
LINE
  5
   270
  8
0
  6
CONTINUOUS
 62
   130
 10
-822.586861297222
 20
-79.5192524194717
 30
0.0
 11
-823.98686127338
 21
-79.5192524194717
 31
0.0
  0
LINE
  5
   271
  8
0
  6
CONTINUOUS
 62
   130
 10
-822.586861297222
 20
-79.5192524194717
 30
0.0
 11
-822.586861297222
 21
-92.119252204895
 31
0.0
  0
LINE
  5
   272
  8
0
  6
CONTINUOUS
 62
   130
 10
-820.486861332985
 20
-88.6192522644997
 30
0.0
 11
-822.586861297222
 21
-88.6192522644997
 31
0.0
  0
LINE
  5
   273
  8
0
  6
CONTINUOUS
 62
   130
 10
-820.486861332985
 20
-83.0192523598671
 30
0.0
 11
-822.586861297222
 21
-83.0192523598671
 31
0.0
  0
LINE
  5
   274
  8
0
  6
CONTINUOUS
 62
   130
 10
-820.486861332985
 20
-83.3692523539066
 30
0.0
 11
-822.586861297222
 21
-83.3692523539066
 31
0.0
  0
LINE
  5
   275
  8
0
  6
CONTINUOUS
 62
   130
 10
-817.686861380669
 20
-88.2692522704601
 30
0.0
 11
-819.786861344906
 21
-88.2692522704601
 31
0.0
  0
LINE
  5
   276
  8
0
  6
CONTINUOUS
 62
   130
 10
-828.186861201855
 20
-88.6192522644997
 30
0.0
 11
-829.236861183973
 21
-88.6192522644997
 31
0.0
  0
LINE
  5
   277
  8
0
  6
CONTINUOUS
 62
   130
 10
-829.586861178013
 20
-83.3692523539066
 30
0.0
 11
-829.586861178013
 21
-88.2692522704601
 31
0.0
  0
LINE
  5
   278
  8
0
  6
CONTINUOUS
 62
   130
 10
-828.186861201855
 20
-83.0192523598671
 30
0.0
 11
-829.236861183973
 21
-83.0192523598671
 31
0.0
  0
LINE
  5
   279
  8
0
  6
CONTINUOUS
 62
   130
 10
-828.186861201855
 20
-83.3692523539066
 30
0.0
 11
-829.586861178013
 21
-83.3692523539066
 31
0.0
  0
LINE
  5
   27A
  8
0
  6
CONTINUOUS
 62
   130
 10
-829.236861183973
 20
-83.0192523598671
 30
0.0
 11
-829.236861183973
 21
-88.6192522644997
 31
0.0
  0
LINE
  5
   27B
  8
0
  6
CONTINUOUS
 62
   130
 10
-828.186861201855
 20
-88.2692522704601
 30
0.0
 11
-829.586861178013
 21
-88.2692522704601
 31
0.0
  0
LINE
  5
   27C
  8
0
  6
CONTINUOUS
 62
   130
 10
-829.236861183973
 20
-83.0192523598671
 30
0.0
 11
-829.236861183973
 21
-88.6192522644997
 31
0.0
  0
LINE
  5
   27D
  8
0
  6
CONTINUOUS
 62
   130
 10
-829.236861183973
 20
-88.6192522644997
 30
0.0
 11
-829.586861178013
 21
-88.2692522704601
 31
0.0
  0
LINE
  5
   27E
  8
0
  6
CONTINUOUS
 62
   130
 10
-829.236861183973
 20
-83.0192523598671
 30
0.0
 11
-829.586861178013
 21
-83.3692523539066
 31
0.0
  0
LINE
  5
   27F
  8
0
  6
CONTINUOUS
 62
   130
 10
-823.98686127338
 20
-120.819251716137
 30
0.0
 11
-828.186861201855
 21
-120.819251716137
 31
0.0
  0
LINE
  5
   280
  8
0
  6
CONTINUOUS
 62
   130
 10
-823.98686127338
 20
-85.8192523121834
 30
0.0
 11
-828.186861201855
 21
-85.8192523121834
 31
0.0
  0
LINE
  5
   281
  8
0
  6
CONTINUOUS
 62
   130
 10
-814.886861428352
 20
-85.8192523121834
 30
0.0
 11
-819.086861356827
 21
-85.8192523121834
 31
0.0
  0
LINE
  5
   282
  8
0
  6
CONTINUOUS
 62
   130
 10
-814.886861428352
 20
-120.819251716137
 30
0.0
 11
-819.086861356827
 21
-120.819251716137
 31
0.0
  0
LINE
  5
   283
  8
0
  6
CONTINUOUS
 62
   130
 10
-737.072089687052
 20
-99.6792522096634
 30
0.0
 11
-737.072089687052
 21
-106.959251818657
 31
0.0
  0
LINE
  5
   284
  8
0
  6
CONTINUOUS
 62
   130
 10
-737.072089687052
 20
-99.6792522096634
 30
0.0
 11
-747.686940786274
 21
-99.6792522096634
 31
0.0
  0
LINE
  5
   285
  8
0
  6
CONTINUOUS
 62
   130
 10
-737.072089687052
 20
-106.959251818657
 30
0.0
 11
-747.686940786274
 21
-106.959251818657
 31
0.0
  0
LINE
  5
   286
  8
0
  6
DASHDOT
 62
   130
 10
-797.27738250114
 20
-94.5692521631718
 30
0.0
 11
-808.672721825596
 21
-94.5692521631718
 31
0.0
  0
LINE
  5
   287
  8
0
  6
CONTINUOUS
 62
   130
 10
-802.216861644121
 20
-93.1692521870136
 30
0.0
 11
-804.736861601206
 21
-93.1692521870136
 31
0.0
  0
LINE
  5
   288
  8
0
  6
CONTINUOUS
 62
   130
 10
-802.216861644121
 20
-95.9692521393299
 30
0.0
 11
-804.736861601206
 21
-95.9692521393299
 31
0.0
  0
LINE
  5
   289
  8
0
  6
CONTINUOUS
 62
   130
 10
-805.086861595245
 20
-93.5192521810532
 30
0.0
 11
-805.086861595245
 21
-95.6192521452904
 31
0.0
  0
LINE
  5
   28A
  8
0
  6
CONTINUOUS
 62
   130
 10
-804.736861601206
 20
-93.1692521870136
 30
0.0
 11
-805.086861595245
 21
-93.5192521810532
 31
0.0
  0
LINE
  5
   28B
  8
0
  6
CONTINUOUS
 62
   130
 10
-804.736861601206
 20
-95.9692521393299
 30
0.0
 11
-805.086861595245
 21
-95.6192521452904
 31
0.0
  0
LINE
  5
   28C
  8
0
  6
DASHDOT
 62
   130
 10
-802.216861644121
 20
-95.6192521452904
 30
0.0
 11
-805.086861595245
 21
-95.6192521452904
 31
0.0
  0
LINE
  5
   28D
  8
0
  6
CONTINUOUS
 62
   130
 10
-804.736861601206
 20
-93.1692521870136
 30
0.0
 11
-804.736861601206
 21
-95.9692521393299
 31
0.0
  0
LINE
  5
   28E
  8
0
  6
DASHDOT
 62
   130
 10
-802.216861644121
 20
-93.5192521810532
 30
0.0
 11
-805.086861595245
 21
-93.5192521810532
 31
0.0
  0
LINE
  5
   28F
  8
0
  6
DASHDOT
 62
   130
 10
-797.27738250114
 20
-112.069251865149
 30
0.0
 11
-808.672721825596
 21
-112.069251865149
 31
0.0
  0
LINE
  5
   290
  8
0
  6
CONTINUOUS
 62
   130
 10
-804.736861601206
 20
-110.66925188899
 30
0.0
 11
-804.736861601206
 21
-113.469251841307
 31
0.0
  0
LINE
  5
   291
  8
0
  6
CONTINUOUS
 62
   130
 10
-805.086861595245
 20
-111.01925188303
 30
0.0
 11
-805.086861595245
 21
-113.119251847267
 31
0.0
  0
LINE
  5
   292
  8
0
  6
DASHDOT
 62
   130
 10
-802.216861644121
 20
-113.119251847267
 30
0.0
 11
-805.086861595245
 21
-113.119251847267
 31
0.0
  0
LINE
  5
   293
  8
0
  6
DASHDOT
 62
   130
 10
-802.216861644121
 20
-111.01925188303
 30
0.0
 11
-805.086861595245
 21
-111.01925188303
 31
0.0
  0
LINE
  5
   294
  8
0
  6
CONTINUOUS
 62
   130
 10
-802.216861644121
 20
-110.66925188899
 30
0.0
 11
-804.736861601206
 21
-110.66925188899
 31
0.0
  0
LINE
  5
   295
  8
0
  6
CONTINUOUS
 62
   130
 10
-802.216861644121
 20
-113.469251841307
 30
0.0
 11
-804.736861601206
 21
-113.469251841307
 31
0.0
  0
LINE
  5
   296
  8
0
  6
CONTINUOUS
 62
   130
 10
-804.736861601206
 20
-113.469251841307
 30
0.0
 11
-805.086861595245
 21
-113.119251847267
 31
0.0
  0
LINE
  5
   297
  8
0
  6
CONTINUOUS
 62
   130
 10
-804.736861601206
 20
-110.66925188899
 30
0.0
 11
-805.086861595245
 21
-111.01925188303
 31
0.0
  0
LINE
  5
   298
  8
0
  6
CONTINUOUS
 62
   130
 10
-804.736861601206
 20
-113.469251841307
 30
0.0
 11
-805.086861595245
 21
-113.119251847267
 31
0.0
  0
LINE
  5
   299
  8
0
  6
CONTINUOUS
 62
   130
 10
-804.736861601206
 20
-110.66925188899
 30
0.0
 11
-805.086861595245
 21
-111.01925188303
 31
0.0
  0
LINE
  5
   29A
  8
0
  6
CONTINUOUS
 62
   130
 10
-814.886861428352
 20
-115.219251811504
 30
0.0
 11
-814.886861428352
 21
-126.41925162077
 31
0.0
  0
LINE
  5
   29B
  8
0
  6
CONTINUOUS
 62
   130
 10
-801.376861658426
 20
-89.6692522466183
 30
0.0
 11
-801.376861658426
 21
-117.169808008213
 31
0.0
  0
LINE
  5
   29C
  8
0
  6
CONTINUOUS
 62
   130
 10
-802.216861644121
 20
-98.0692521035671
 30
0.0
 11
-802.216861644121
 21
-108.569251924753
 31
0.0
  0
LINE
  5
   29D
  8
0
  6
CONTINUOUS
 62
   130
 10
-803.056861629816
 20
-98.0692521035671
 30
0.0
 11
-803.056861629816
 21
-108.569251924753
 31
0.0
  0
LINE
  5
   29E
  8
0
  6
CONTINUOUS
 62
   130
 10
-802.216861644121
 20
-98.0692521035671
 30
0.0
 11
-803.056861629816
 21
-98.0692521035671
 31
0.0
  0
LINE
  5
   29F
  8
0
  6
CONTINUOUS
 62
   130
 10
-802.216861644121
 20
-108.569251924753
 30
0.0
 11
-803.056861629816
 21
-108.569251924753
 31
0.0
  0
LINE
  5
   2A0
  8
0
  6
CONTINUOUS
 62
   130
 10
-803.056861629816
 20
-99.4692520797253
 30
0.0
 11
-837.986861034962
 21
-99.4692520797253
 31
0.0
  0
LINE
  5
   2A1
  8
0
  6
CONTINUOUS
 62
   130
 10
-802.216861644121
 20
-107.169251948595
 30
0.0
 11
-837.986861034962
 21
-107.169251948595
 31
0.0
  0
LINE
  5
   2A2
  8
0
  6
CONTINUOUS
 62
   130
 10
-802.216861644121
 20
-92.8192521929741
 30
0.0
 11
-802.216861644121
 21
-96.3192521333695
 31
0.0
  0
LINE
  5
   2A3
  8
0
  6
CONTINUOUS
 62
   130
 10
-801.726861652466
 20
-92.8192521929741
 30
0.0
 11
-802.216861644121
 21
-92.8192521929741
 31
0.0
  0
LINE
  5
   2A4
  8
0
  6
CONTINUOUS
 62
   130
 10
-801.726861652466
 20
-96.3192521333695
 30
0.0
 11
-802.216861644121
 21
-96.3192521333695
 31
0.0
  0
LINE
  5
   2A5
  8
0
  6
CONTINUOUS
 62
   130
 10
-801.726861652466
 20
-110.319251894951
 30
0.0
 11
-802.216861644121
 21
-110.319251894951
 31
0.0
  0
LINE
  5
   2A6
  8
0
  6
CONTINUOUS
 62
   130
 10
-801.726861652466
 20
-113.819251835346
 30
0.0
 11
-802.216861644121
 21
-113.819251835346
 31
0.0
  0
LINE
  5
   2A7
  8
0
  6
CONTINUOUS
 62
   130
 10
-802.216861644121
 20
-110.319251894951
 30
0.0
 11
-802.216861644121
 21
-113.819251835346
 31
0.0
  0
ARC
  5
   2A8
  8
0
  6
CONTINUOUS
 62
   130
 10
-801.726861652466
 20
-109.969251900911
 30
0.0
 40
0.349999994039536
 50
269.999999896069
 51
359.999999896069
  0
ARC
  5
   2A9
  8
0
  6
CONTINUOUS
 62
   130
 10
-801.726861652466
 20
-114.169251829386
 30
0.0
 40
0.349999994039536
 50
359.999999896069
 51
449.999999896069
  0
LINE
  5
   2AA
  8
0
  6
CONTINUOUS
 62
   130
 10
-802.216861644121
 20
-98.0692521035671
 30
0.0
 11
-802.216861644121
 21
-108.569251924753
 31
0.0
  0
ARC
  5
   2AB
  8
0
  6
CONTINUOUS
 62
   130
 10
-801.726861652466
 20
-92.4692521989346
 30
0.0
 40
0.349999994039536
 50
269.999999896069
 51
359.999999896069
  0
ARC
  5
   2AC
  8
0
  6
CONTINUOUS
 62
   130
 10
-801.726861652466
 20
-96.669252127409
 30
0.0
 40
0.349999994039536
 50
359.999999896069
 51
449.999999896069
  0
LINE
  5
   2AD
  8
0
  6
CONTINUOUS
 62
   130
 10
-747.686940786274
 20
-76.0192524790764
 30
0.0
 11
-747.686940786274
 21
-148.119251251221
 31
0.0
  0
LINE
  5
   2AE
  8
0
  6
CONTINUOUS
 62
   130
 10
-751.186951407821
 20
-76.0192524790764
 30
0.0
 11
-751.186951407821
 21
-148.119251251221
 31
0.0
  0
LINE
  5
   2AF
  8
0
  6
CONTINUOUS
 62
   130
 10
-753.286951372058
 20
-102.269252032042
 30
0.0
 11
-768.686951109798
 21
-102.269252032042
 31
0.0
  0
LINE
  5
   2B0
  8
0
  6
CONTINUOUS
 62
   130
 10
-753.286951372058
 20
-99.1192520856857
 30
0.0
 11
-768.686951109798
 21
-99.1192520856857
 31
0.0
  0
LINE
  5
   2B1
  8
0
  6
CONTINUOUS
 62
   130
 10
-753.286951372058
 20
-99.1192520856857
 30
0.0
 11
-753.286951372058
 21
-102.269252032042
 31
0.0
  0
LINE
  5
   2B2
  8
0
  6
CONTINUOUS
 62
   130
 10
-768.686951109798
 20
-99.1192520856857
 30
0.0
 11
-768.686951109798
 21
-102.269252032042
 31
0.0
  0
LINE
  5
   2B3
  8
0
  6
CONTINUOUS
 62
   130
 10
-768.686951109798
 20
-104.369251996279
 30
0.0
 11
-768.686951109798
 21
-107.519251942635
 31
0.0
  0
LINE
  5
   2B4
  8
0
  6
CONTINUOUS
 62
   130
 10
-753.286951372058
 20
-107.519251942635
 30
0.0
 11
-768.686951109798
 21
-107.519251942635
 31
0.0
  0
LINE
  5
   2B5
  8
0
  6
CONTINUOUS
 62
   130
 10
-753.286951372058
 20
-104.369251996279
 30
0.0
 11
-753.286951372058
 21
-107.519251942635
 31
0.0
  0
LINE
  5
   2B6
  8
0
  6
CONTINUOUS
 62
   130
 10
-753.286951372058
 20
-104.369251996279
 30
0.0
 11
-768.686951109798
 21
-104.369251996279
 31
0.0
  0
LINE
  5
   2B7
  8
0
  6
CONTINUOUS
 62
   130
 10
-753.286951372058
 20
-125.019251644611
 30
0.0
 11
-768.686951109798
 21
-125.019251644611
 31
0.0
  0
LINE
  5
   2B8
  8
0
  6
CONTINUOUS
 62
   130
 10
-768.686951109798
 20
-121.869251698256
 30
0.0
 11
-768.686951109798
 21
-125.019251644611
 31
0.0
  0
LINE
  5
   2B9
  8
0
  6
CONTINUOUS
 62
   130
 10
-753.286951372058
 20
-121.869251698256
 30
0.0
 11
-753.286951372058
 21
-125.019251644611
 31
0.0
  0
LINE
  5
   2BA
  8
0
  6
CONTINUOUS
 62
   130
 10
-753.286951372058
 20
-121.869251698256
 30
0.0
 11
-768.686951109798
 21
-121.869251698256
 31
0.0
  0
LINE
  5
   2BB
  8
0
  6
CONTINUOUS
 62
   130
 10
-768.686951109798
 20
-116.619251787663
 30
0.0
 11
-768.686951109798
 21
-119.769251734018
 31
0.0
  0
LINE
  5
   2BC
  8
0
  6
CONTINUOUS
 62
   130
 10
-753.286951372058
 20
-119.769251734018
 30
0.0
 11
-768.686951109798
 21
-119.769251734018
 31
0.0
  0
LINE
  5
   2BD
  8
0
  6
CONTINUOUS
 62
   130
 10
-753.286951372058
 20
-116.619251787663
 30
0.0
 11
-753.286951372058
 21
-119.769251734018
 31
0.0
  0
LINE
  5
   2BE
  8
0
  6
CONTINUOUS
 62
   130
 10
-753.286951372058
 20
-116.619251787663
 30
0.0
 11
-768.686951109798
 21
-116.619251787663
 31
0.0
  0
LINE
  5
   2BF
  8
0
  6
CONTINUOUS
 62
   130
 10
-768.686951109798
 20
-104.369251996279
 30
0.0
 11
-768.686951109798
 21
-107.519251942635
 31
0.0
  0
LINE
  5
   2C0
  8
0
  6
CONTINUOUS
 62
   130
 10
-753.286951372058
 20
-107.519251942635
 30
0.0
 11
-768.686951109798
 21
-107.519251942635
 31
0.0
  0
LINE
  5
   2C1
  8
0
  6
CONTINUOUS
 62
   130
 10
-753.286951372058
 20
-104.369251996279
 30
0.0
 11
-753.286951372058
 21
-107.519251942635
 31
0.0
  0
LINE
  5
   2C2
  8
0
  6
CONTINUOUS
 62
   130
 10
-753.286951372058
 20
-90.0192522406578
 30
0.0
 11
-768.686951109798
 21
-90.0192522406578
 31
0.0
  0
LINE
  5
   2C3
  8
0
  6
CONTINUOUS
 62
   130
 10
-768.686951109798
 20
-86.869252294302
 30
0.0
 11
-768.686951109798
 21
-90.0192522406578
 31
0.0
  0
LINE
  5
   2C4
  8
0
  6
CONTINUOUS
 62
   130
 10
-753.286951372058
 20
-86.869252294302
 30
0.0
 11
-768.686951109798
 21
-86.869252294302
 31
0.0
  0
LINE
  5
   2C5
  8
0
  6
CONTINUOUS
 62
   130
 10
-753.286951372058
 20
-86.869252294302
 30
0.0
 11
-753.286951372058
 21
-90.0192522406578
 31
0.0
  0
LINE
  5
   2C6
  8
0
  6
CONTINUOUS
 62
   130
 10
-753.286951372058
 20
-84.7692523300648
 30
0.0
 11
-768.686951109798
 21
-84.7692523300648
 31
0.0
  0
LINE
  5
   2C7
  8
0
  6
CONTINUOUS
 62
   130
 10
-753.286951372058
 20
-81.619252383709
 30
0.0
 11
-753.286951372058
 21
-84.7692523300648
 31
0.0
  0
LINE
  5
   2C8
  8
0
  6
CONTINUOUS
 62
   130
 10
-753.286951372058
 20
-81.619252383709
 30
0.0
 11
-768.686951109798
 21
-81.619252383709
 31
0.0
  0
LINE
  5
   2C9
  8
0
  6
CONTINUOUS
 62
   130
 10
-768.686951109798
 20
-81.619252383709
 30
0.0
 11
-768.686951109798
 21
-84.7692523300648
 31
0.0
  0
LINE
  5
   2CA
  8
0
  6
CONTINUOUS
 62
   130
 10
-753.286951372058
 20
-142.519251346588
 30
0.0
 11
-768.686951109798
 21
-142.519251346588
 31
0.0
  0
LINE
  5
   2CB
  8
0
  6
CONTINUOUS
 62
   130
 10
-753.286951372058
 20
-139.369251400232
 30
0.0
 11
-768.686951109798
 21
-139.369251400232
 31
0.0
  0
LINE
  5
   2CC
  8
0
  6
CONTINUOUS
 62
   130
 10
-768.686951109798
 20
-139.369251400232
 30
0.0
 11
-768.686951109798
 21
-142.519251346588
 31
0.0
  0
LINE
  5
   2CD
  8
0
  6
CONTINUOUS
 62
   130
 10
-753.286951372058
 20
-139.369251400232
 30
0.0
 11
-753.286951372058
 21
-142.519251346588
 31
0.0
  0
LINE
  5
   2CE
  8
0
  6
CONTINUOUS
 62
   130
 10
-753.286951372058
 20
-134.119251489639
 30
0.0
 11
-753.286951372058
 21
-137.269251435995
 31
0.0
  0
LINE
  5
   2CF
  8
0
  6
CONTINUOUS
 62
   130
 10
-768.686951109798
 20
-134.119251489639
 30
0.0
 11
-768.686951109798
 21
-137.269251435995
 31
0.0
  0
LINE
  5
   2D0
  8
0
  6
CONTINUOUS
 62
   130
 10
-753.286951372058
 20
-134.119251489639
 30
0.0
 11
-768.686951109798
 21
-134.119251489639
 31
0.0
  0
LINE
  5
   2D1
  8
0
  6
CONTINUOUS
 62
   130
 10
-753.286951372058
 20
-137.269251435995
 30
0.0
 11
-768.686951109798
 21
-137.269251435995
 31
0.0
  0
LINE
  5
   2D2
  8
0
  6
CONTINUOUS
 62
   130
 10
-800.186861678692
 20
-142.169251352549
 30
0.0
 11
-837.986861034962
 21
-142.169251352549
 31
0.0
  0
LINE
  5
   2D3
  8
0
  6
CONTINUOUS
 62
   130
 10
-800.186861678692
 20
-134.469251483679
 30
0.0
 11
-837.986861034962
 21
-134.469251483679
 31
0.0
  0
LINE
  5
   2D4
  8
0
  6
CONTINUOUS
 62
   130
 10
-837.986861034962
 20
-132.719251513481
 30
0.0
 11
-837.986861034962
 21
-143.919251322746
 31
0.0
  0
LINE
  5
   2D5
  8
0
  6
CONTINUOUS
 62
   130
 10
-842.186860963436
 20
-132.019251525402
 30
0.0
 11
-842.186860963436
 21
-144.619251310825
 31
0.0
  0
LINE
  5
   2D6
  8
0
  6
CONTINUOUS
 62
   130
 10
-843.586860939594
 20
-132.019251525402
 30
0.0
 11
-843.586860939594
 21
-144.619251310825
 31
0.0
  0
LINE
  5
   2D7
  8
0
  6
CONTINUOUS
 62
   130
 10
-837.986861034962
 20
-138.319251418114
 30
0.0
 11
-842.186860963436
 21
-138.319251418114
 31
0.0
  0
LINE
  5
   2D8
  8
0
  6
CONTINUOUS
 62
   130
 10
-837.986861034962
 20
-132.719251513481
 30
0.0
 11
-842.186860963436
 21
-132.719251513481
 31
0.0
  0
LINE
  5
   2D9
  8
0
  6
CONTINUOUS
 62
   130
 10
-837.986861034962
 20
-143.919251322746
 30
0.0
 11
-842.186860963436
 21
-143.919251322746
 31
0.0
  0
LINE
  5
   2DA
  8
0
  6
DASHDOT
 62
   130
 10
-738.364854774031
 20
-138.319251418114
 30
0.0
 11
-857.185426375224
 21
-138.319251418114
 31
0.0
  0
LINE
  5
   2DB
  8
0
  6
CONTINUOUS
 62
   130
 10
-842.186860963436
 20
-132.019251525402
 30
0.0
 11
-843.586860939594
 21
-132.019251525402
 31
0.0
  0
LINE
  5
   2DC
  8
0
  6
CONTINUOUS
 62
   130
 10
-842.186860963436
 20
-144.619251310825
 30
0.0
 11
-843.586860939594
 21
-144.619251310825
 31
0.0
  0
LINE
  5
   2DD
  8
0
  6
CONTINUOUS
 62
   130
 10
-845.686860903831
 20
-144.619251310825
 30
0.0
 11
-847.08686087999
 21
-144.619251310825
 31
0.0
  0
LINE
  5
   2DE
  8
0
  6
CONTINUOUS
 62
   130
 10
-845.686860903831
 20
-132.019251525402
 30
0.0
 11
-845.686860903831
 21
-144.619251310825
 31
0.0
  0
LINE
  5
   2DF
  8
0
  6
CONTINUOUS
 62
   130
 10
-847.08686087999
 20
-132.019251525402
 30
0.0
 11
-847.08686087999
 21
-144.619251310825
 31
0.0
  0
LINE
  5
   2E0
  8
0
  6
CONTINUOUS
 62
   130
 10
-845.686860903831
 20
-132.019251525402
 30
0.0
 11
-847.08686087999
 21
-132.019251525402
 31
0.0
  0
LINE
  5
   2E1
  8
0
  6
CONTINUOUS
 62
   130
 10
-843.586860939594
 20
-135.519251465797
 30
0.0
 11
-845.686860903831
 21
-135.519251465797
 31
0.0
  0
LINE
  5
   2E2
  8
0
  6
CONTINUOUS
 62
   130
 10
-843.586860939594
 20
-135.869251459837
 30
0.0
 11
-845.686860903831
 21
-135.869251459837
 31
0.0
  0
LINE
  5
   2E3
  8
0
  6
CONTINUOUS
 62
   130
 10
-843.586860939594
 20
-140.76925137639
 30
0.0
 11
-845.686860903831
 21
-140.76925137639
 31
0.0
  0
LINE
  5
   2E4
  8
0
  6
CONTINUOUS
 62
   130
 10
-843.586860939594
 20
-141.11925137043
 30
0.0
 11
-845.686860903831
 21
-141.11925137043
 31
0.0
  0
LINE
  5
   2E5
  8
0
  6
CONTINUOUS
 62
   130
 10
-852.336860790583
 20
-135.519251465797
 30
0.0
 11
-852.336860790583
 21
-141.11925137043
 31
0.0
  0
LINE
  5
   2E6
  8
0
  6
CONTINUOUS
 62
   130
 10
-852.686860784622
 20
-135.869251459837
 30
0.0
 11
-852.686860784622
 21
-140.76925137639
 31
0.0
  0
LINE
  5
   2E7
  8
0
  6
CONTINUOUS
 62
   130
 10
-851.286860808464
 20
-132.719251513481
 30
0.0
 11
-851.286860808464
 21
-143.919251322746
 31
0.0
  0
LINE
  5
   2E8
  8
0
  6
CONTINUOUS
 62
   130
 10
-847.08686087999
 20
-138.319251418114
 30
0.0
 11
-851.286860808464
 21
-138.319251418114
 31
0.0
  0
LINE
  5
   2E9
  8
0
  6
CONTINUOUS
 62
   130
 10
-847.08686087999
 20
-143.919251322746
 30
0.0
 11
-851.286860808464
 21
-143.919251322746
 31
0.0
  0
LINE
  5
   2EA
  8
0
  6
CONTINUOUS
 62
   130
 10
-847.08686087999
 20
-132.719251513481
 30
0.0
 11
-851.286860808464
 21
-132.719251513481
 31
0.0
  0
LINE
  5
   2EB
  8
0
  6
CONTINUOUS
 62
   130
 10
-852.336860790583
 20
-135.519251465797
 30
0.0
 11
-852.686860784622
 21
-135.869251459837
 31
0.0
  0
LINE
  5
   2EC
  8
0
  6
CONTINUOUS
 62
   130
 10
-851.286860808464
 20
-135.519251465797
 30
0.0
 11
-852.336860790583
 21
-135.519251465797
 31
0.0
  0
LINE
  5
   2ED
  8
0
  6
CONTINUOUS
 62
   130
 10
-851.286860808464
 20
-141.11925137043
 30
0.0
 11
-852.336860790583
 21
-141.11925137043
 31
0.0
  0
LINE
  5
   2EE
  8
0
  6
CONTINUOUS
 62
   130
 10
-851.286860808464
 20
-140.76925137639
 30
0.0
 11
-852.686860784622
 21
-140.76925137639
 31
0.0
  0
TEXT
  5
   2EF
  8
0
  6
CONTINUOUS
 62
     2
 10
-677.598739636538
 20
-160.708149396564
 30
0.0
 40
2.00000003448554
  1
4 POLE LOW VOLTAGE M.C.C.B SERIES ISOMAX
 50
359.999999896069
 41
0.75
 72
     1
 11
-647.848739121757
 21
-159.708149433136
 31
0.0
 73
     2
  0
TEXT
  5
   2F0
  8
0
  6
CONTINUOUS
 62
     2
 10
-668.598740485886
 20
-163.908149222109
 30
0.0
 40
2.00000003448554
  1
FIXED VERSION REAR TERMINALS
 50
359.999999896069
 41
0.75
 72
     1
 11
-647.84874012629
 21
-162.908149242401
 31
0.0
 73
     2
  0
TEXT
  5
   2F1
  8
0
  6
CONTINUOUS
 62
     2
 10
-687.447584033256
 20
-169.629133245959
 30
0.0
 40
2.00000003448554
  1
      INTERR.AUTOMATICO SERIE ISOMAX
 50
359.999999896069
 41
0.75
 11
-687.447584031447
 21
-168.629133228716
 31
0.0
 73
     2
  0
TEXT
  5
   2F2
  8
0
  6
CONTINUOUS
 62
     2
 10
-687.447588089551
 20
-172.829141599249
 30
0.0
 40
2.00000003448554
  1
TETRAP. ESECUZIONE FISSA TERMINALI POSTERIORI
 50
359.999999896069
 41
0.75
 11
-687.447588087742
 21
-171.829141582007
 31
0.0
 73
     2
  0
TEXT
  5
   2F3
  8
0
  6
CONTINUOUS
 62
     2
 10
-774.906326295754
 20
-160.285913257048
 30
0.0
 40
2.00000003448554
  1
3/11/92
 50
359.999999896069
 41
0.75
 11
-774.906326293945
 21
-159.285913239806
 31
0.0
 73
     2
  0
TEXT
  5
   2F4
  8
0
  6
CONTINUOUS
 62
     2
 10
-774.263076784035
 20
-163.502151278899
 30
0.0
 40
2.00000003448554
  1
MOSTOSI
 50
359.999999896069
 41
0.75
 11
-774.263076782227
 21
-162.502151261656
 31
0.0
 73
     2
  0
TEXT
  5
   2F5
  8
0
  6
CONTINUOUS
 62
     2
 10
-763.45004272687
 20
-177.746492795934
 30
0.0
 40
2.4999999335834
  1
M3727 95-01-18
 50
359.999999896069
 41
0.649999969792367
 11
-763.450042724609
 21
-176.496492829142
 31
0.0
 73
     2
  0
TEXT
  5
   2F6
  8
0
  6
CONTINUOUS
 62
     2
 10
-649.365600588651
 20
-179.574010688358
 30
0.0
 40
2.99999997871263
  1
S1
 50
359.999999896069
 41
0.983333365784751
 11
-649.365600585938
 21
-178.074010699002
 31
0.0
 73
     2
  0
TEXT
  5
   2F7
  8
0
  6
CONTINUOUS
 62
     2
 10
-614.554758098173
 20
-190.329470594939
 30
0.0
 40
2.4999999335834
  1
1/1
 50
359.999999896069
 41
1.01399997009277
 72
     1
 11
-611.064758300781
 21
-189.07947063446
 31
0.0
 73
     2
  0
TEXT
  5
   2F8
  8
0
  6
CONTINUOUS
 62
     2
 10
-669.552581791651
 20
-189.448903779528
 30
0.0
 40
4.99999986716679
  1
601855/051
 50
359.999999896069
 41
0.983334081014005
 11
-669.552581787129
 21
-186.948903845945
 31
0.0
 73
     2
  0
INSERT
  5
   2F9
  8
0
  6
CONTINUOUS
 62
     3
  2
*UDIM0
 10
0.0
 20
0.0
 30
0.0
  0
INSERT
  5
   2FA
  8
0
  6
CONTINUOUS
 62
     3
  2
*UDIM1
 10
0.0
 20
0.0
 30
0.0
  0
INSERT
  5
   2FB
  8
0
  6
CONTINUOUS
 62
     7
  2
*UDIM2
 10
0.0
 20
0.0
 30
0.0
  0
INSERT
  5
   2FC
  8
0
  6
CONTINUOUS
 62
     7
  2
*UDIM3
 10
0.0
 20
0.0
 30
0.0
  0
INSERT
  5
   2FD
  8
0
  6
CONTINUOUS
 62
     3
  2
*UDIM4
 10
0.0
 20
0.0
 30
0.0
  0
INSERT
  5
   2FE
  8
0
  6
CONTINUOUS
 62
     3
  2
*UDIM5
 10
0.0
 20
0.0
 30
0.0
  0
INSERT
  5
   2FF
  8
0
  6
CONTINUOUS
 62
     3
  2
*UDIM6
 10
0.0
 20
0.0
 30
0.0
  0
INSERT
  5
   300
  8
0
  6
CONTINUOUS
 62
     3
  2
*UDIM7
 10
0.0
 20
0.0
 30
0.0
  0
INSERT
  5
   301
  8
0
  6
CONTINUOUS
 62
     7
  2
*UDIM8
 10
0.0
 20
0.0
 30
0.0
  0
LINE
  5
   302
  8
0
  6
DASHDOT
 62
   130
 10
-935.920288383961
 20
-67.9077713489533
 30
0.0
 11
-935.920288383961
 21
-82.3077719211578
 31
0.0
  0
LINE
  5
   303
  8
0
  6
DASHDOT
 62
   130
 10
-943.120288670063
 20
-75.1077716350555
 30
0.0
 11
-928.720288097858
 21
-75.1077716350555
 31
0.0
  0
LINE
  5
   304
  8
0
  6
DASHDOT
 62
   130
 10
-920.920287787914
 20
-127.907773733139
 30
0.0
 11
-920.920287787914
 21
-142.307774305344
 31
0.0
  0
LINE
  5
   305
  8
0
  6
DASHDOT
 62
   130
 10
-928.120288074017
 20
-135.107774019241
 30
0.0
 11
-913.720287501812
 21
-135.107774019241
 31
0.0
  0
LINE
  5
   306
  8
0
  6
DASHDOT
 62
   130
 10
-928.420288085938
 20
-73.4621129119153
 30
0.0
 11
-928.420288085938
 21
-139.083636914668
 31
0.0
  0
LINE
  5
   307
  8
0
  6
DASHDOT
 62
   130
 10
-943.420288681984
 20
-63.7077711820602
 30
0.0
 11
-943.420288681984
 21
-85.3077720403671
 31
0.0
  0
LINE
  5
   308
  8
0
  6
DASHDOT
 62
   130
 10
-954.220289111137
 20
-74.5077716112137
 30
0.0
 11
-932.62028825283
 21
-74.5077716112137
 31
0.0
  0
LINE
  5
   309
  8
0
  6
DASHDOT
 62
   130
 10
-928.420288085938
 20
-63.7077711820602
 30
0.0
 11
-928.420288085938
 21
-85.3077720403671
 31
0.0
  0
LINE
  5
   30A
  8
0
  6
DASHDOT
 62
   130
 10
-939.220288515091
 20
-74.5077716112137
 30
0.0
 11
-917.620287656784
 21
-74.5077716112137
 31
0.0
  0
LINE
  5
   30B
  8
0
  6
DASHDOT
 62
   130
 10
-913.420287489891
 20
-63.7077711820602
 30
0.0
 11
-913.420287489891
 21
-85.3077720403671
 31
0.0
  0
LINE
  5
   30C
  8
0
  6
DASHDOT
 62
   130
 10
-924.220287919045
 20
-74.5077716112137
 30
0.0
 11
-902.620287060738
 21
-74.5077716112137
 31
0.0
  0
LINE
  5
   30D
  8
0
  6
DASHDOT
 62
   130
 10
-943.420288681984
 20
-124.90777361393
 30
0.0
 11
-943.420288681984
 21
-146.507774472237
 31
0.0
  0
LINE
  5
   30E
  8
0
  6
DASHDOT
 62
   130
 10
-954.220289111137
 20
-135.707774043083
 30
0.0
 11
-932.62028825283
 21
-135.707774043083
 31
0.0
  0
LINE
  5
   30F
  8
0
  6
DASHDOT
 62
   130
 10
-928.420288085938
 20
-124.90777361393
 30
0.0
 11
-928.420288085938
 21
-151.245319292933
 31
0.0
  0
LINE
  5
   310
  8
0
  6
DASHDOT
 62
   130
 10
-939.220288515091
 20
-135.707774043083
 30
0.0
 11
-917.620287656784
 21
-135.707774043083
 31
0.0
  0
LINE
  5
   311
  8
0
  6
DASHDOT
 62
   130
 10
-913.420287489891
 20
-124.90777361393
 30
0.0
 11
-913.420287489891
 21
-146.507774472237
 31
0.0
  0
LINE
  5
   312
  8
0
  6
DASHDOT
 62
   130
 10
-924.220287919045
 20
-135.707774043083
 30
0.0
 11
-902.620287060738
 21
-135.707774043083
 31
0.0
  0
LINE
  5
   313
  8
0
  6
CONTINUOUS
 62
   130
 10
-966.411879054421
 20
-64.569507148966
 30
0.0
 11
-905.360649942791
 21
-64.569507148966
 31
0.0
  0
LINE
  5
   314
  8
0
  6
CONTINUOUS
 62
   130
 10
-966.411879054421
 20
-146.525861959085
 30
0.0
 11
-905.360649942791
 21
-146.525861959085
 31
0.0
  0
LINE
  5
   315
  8
0
  6
CONTINUOUS
 62
   130
 10
-905.360649942791
 20
-64.569507148966
 30
0.0
 11
-905.360649942791
 21
-146.525861959085
 31
0.0
  0
LINE
  5
   316
  8
0
  6
CONTINUOUS
 62
   130
 10
-966.411879054421
 20
-64.569507148966
 30
0.0
 11
-966.411879054421
 21
-146.525861959085
 31
0.0
  0
CIRCLE
  5
   317
  8
0
  6
CONTINUOUS
 62
   130
 10
-943.420288681984
 20
-74.5077716112137
 30
0.0
 40
5.40000021457672
  0
CIRCLE
  5
   318
  8
0
  6
CONTINUOUS
 62
   130
 10
-928.420288085938
 20
-74.5077716112137
 30
0.0
 40
5.40000021457672
  0
CIRCLE
  5
   319
  8
0
  6
CONTINUOUS
 62
   130
 10
-913.420287489891
 20
-74.5077716112137
 30
0.0
 40
5.40000021457672
  0
CIRCLE
  5
   31A
  8
0
  6
CONTINUOUS
 62
   130
 10
-943.420288681984
 20
-135.707774043083
 30
0.0
 40
5.40000021457672
  0
CIRCLE
  5
   31B
  8
0
  6
CONTINUOUS
 62
   130
 10
-928.420288085938
 20
-135.707774043083
 30
0.0
 40
5.40000021457672
  0
CIRCLE
  5
   31C
  8
0
  6
CONTINUOUS
 62
   130
 10
-913.420287489891
 20
-135.707774043083
 30
0.0
 40
5.40000021457672
  0
LINE
  5
   31D
  8
0
  6
DASHDOT
 62
   130
 10
-982.725897513121
 20
-112.307773113251
 30
0.0
 11
-898.132433579472
 21
-112.307773113251
 31
0.0
  0
CIRCLE
  5
   31E
  8
0
  6
CONTINUOUS
 62
   130
 10
-958.42028927803
 20
-74.5077716112137
 30
0.0
 40
5.40000021457672
  0
CIRCLE
  5
   31F
  8
0
  6
CONTINUOUS
 62
   130
 10
-958.42028927803
 20
-135.707774043083
 30
0.0
 40
5.40000021457672
  0
LINE
  5
   320
  8
0
  6
DASHDOT
 62
   130
 10
-958.42028927803
 20
-129.707773804665
 30
0.0
 11
-958.42028927803
 21
-141.707774281502
 31
0.0
  0
LINE
  5
   321
  8
0
  6
DASHDOT
 62
   130
 10
-964.420289516449
 20
-135.707774043083
 30
0.0
 11
-952.420289039612
 21
-135.707774043083
 31
0.0
  0
LINE
  5
   322
  8
0
  6
DASHDOT
 62
   130
 10
-958.42028927803
 20
-68.5077713727951
 30
0.0
 11
-958.42028927803
 21
-80.5077718496323
 31
0.0
  0
LINE
  5
   323
  8
0
  6
DASHDOT
 62
   130
 10
-964.420289516449
 20
-74.5077716112137
 30
0.0
 11
-952.420289039612
 21
-74.5077716112137
 31
0.0
  0
ARC
  5
   324
  8
0
  6
DASHDOT
 62
   130
 10
-920.920287787914
 20
-135.107774019241
 30
0.0
 40
1.35000005364418
 50
566.387799805346
 51
809.999999844103
  0
CIRCLE
  5
   325
  8
0
  6
CONTINUOUS
 62
   130
 10
-920.920287787914
 20
-135.107774019241
 30
0.0
 40
1.35000005364418
  0
CIRCLE
  5
   326
  8
0
  6
CONTINUOUS
 62
   130
 10
-935.920288383961
 20
-75.1077716350555
 30
0.0
 40
1.35000005364418
  0
ARC
  5
   327
  8
0
  6
DASHDOT
 62
   130
 10
-935.920288383961
 20
-75.1077716350555
 30
0.0
 40
1.35000005364418
 50
566.387799805346
 51
809.999999844103
  0
TEXT
  5
   328
  8
0
  6
CONTINUOUS
 62
     2
 10
-929.499597024196
 20
-60.2119441814802
 30
0.0
 40
2.99999994039535
  1
Y
 50
359.999999844103
 41
0.983333333333333
 11
-929.499597020122
 21
-58.7119442112825
 31
0.0
 73
     2
  0
TEXT
  5
   329
  8
0
  6
CONTINUOUS
 62
     2
 10
-929.675315052571
 20
-154.353436963178
 30
0.0
 40
2.99999994039535
  1
Y
 50
359.999999844103
 41
0.983333333333333
 11
-929.675315048497
 21
-152.853436992981
 31
0.0
 73
     2
  0
TEXT
  5
   32A
  8
0
  6
CONTINUOUS
 62
     2
 10
-895.932341242416
 20
-113.734304070127
 30
0.0
 40
2.99999994039535
  1
X
 50
359.999999844103
 41
0.983333333333333
 11
-895.932341238342
 21
-112.23430409993
 31
0.0
 73
     2
  0
TEXT
  5
   32B
  8
0
  6
CONTINUOUS
 62
     2
 10
-990.57486972241
 20
-113.734304070127
 30
0.0
 40
2.99999994039535
  1
X
 50
359.999999844103
 41
0.983333333333333
 11
-990.574869718336
 21
-112.23430409993
 31
0.0
 73
     2
  0
INSERT
  5
   32C
  8
0
  6
CONTINUOUS
 62
     3
  2
*UDIM9
 10
0.0
 20
0.0
 30
0.0
  0
INSERT
  5
   32D
  8
0
  6
CONTINUOUS
 62
     7
  2
*UDIM10
 10
0.0
 20
0.0
 30
0.0
  0
INSERT
  5
   32E
  8
0
  6
CONTINUOUS
 62
     7
  2
*UDIM11
 10
0.0
 20
0.0
 30
0.0
  0
INSERT
  5
   32F
  8
0
  6
CONTINUOUS
 62
     3
  2
*UDIM12
 10
0.0
 20
0.0
 30
0.0
  0
INSERT
  5
   330
  8
0
  6
CONTINUOUS
 62
     3
  2
*UDIM13
 10
0.0
 20
0.0
 30
0.0
  0
INSERT
  5
   331
  8
0
  6
CONTINUOUS
 62
     3
  2
*UDIM14
 10
0.0
 20
0.0
 30
0.0
  0
INSERT
  5
   332
  8
0
  6
CONTINUOUS
 62
     3
  2
*UDIM15
 10
0.0
 20
0.0
 30
0.0
  0
INSERT
  5
   333
  8
0
  6
CONTINUOUS
 62
     3
  2
*UDIM16
 10
0.0
 20
0.0
 30
0.0
  0
INSERT
  5
   334
  8
0
  6
CONTINUOUS
 62
     3
  2
*UDIM17
 10
0.0
 20
0.0
 30
0.0
  0
INSERT
  5
   335
  8
0
  6
CONTINUOUS
 62
     7
  2
*UDIM18
 10
0.0
 20
0.0
 30
0.0
  0
CIRCLE
  5
   336
  8
0
  6
CONTINUOUS
 62
     2
 10
-906.938275997705
 20
54.0167532265207
 30
0.0
 40
1.39999997615814
  0
LINE
  5
   337
  8
0
  6
CONTINUOUS
 62
     2
 10
-906.079834635003
 20
55.1226819584227
 30
0.0
 11
-908.044204729607
 21
53.1583118638194
 31
0.0
  0
LINE
  5
   338
  8
0
  6
CONTINUOUS
 62
     2
 10
-905.832347265803
 20
54.8751945892221
 30
0.0
 11
-907.796717360406
 21
52.9108244946188
 31
0.0
  0
LINE
  5
   339
  8
0
  6
DASHDOT
 62
     2
 10
-906.938275997705
 20
61.0167531073115
 30
0.0
 11
-906.938275997705
 21
47.01675334573
 31
0.0
  0
LINE
  5
   33A
  8
0
  6
DASHDOT
 62
     2
 10
-913.938275878495
 20
54.0167532265207
 30
0.0
 11
-899.938276116914
 21
54.0167532265207
 31
0.0
  0
LINE
  5
   33B
  8
0
  6
CONTINUOUS
 62
   130
 10
-968.468294923635
 20
56.116753190758
 30
0.0
 11
-968.468294923635
 21
44.5667451515912
 31
0.0
  0
LINE
  5
   33C
  8
0
  6
CONTINUOUS
 62
   130
 10
-968.118304329004
 20
56.116753190758
 30
0.0
 11
-968.118304329004
 21
44.5667451515912
 31
0.0
  0
LINE
  5
   33D
  8
0
  6
CONTINUOUS
 62
   130
 10
-967.208294945092
 20
56.116753190758
 30
0.0
 11
-967.208294945092
 21
44.5667451515912
 31
0.0
  0
LINE
  5
   33E
  8
0
  6
CONTINUOUS
 62
   130
 10
-966.858304350462
 20
56.116753190758
 30
0.0
 11
-966.858304350462
 21
44.5667451515912
 31
0.0
  0
LINE
  5
   33F
  8
0
  6
CONTINUOUS
 62
   130
 10
-965.94829496655
 20
56.116753190758
 30
0.0
 11
-965.94829496655
 21
44.5667451515912
 31
0.0
  0
LINE
  5
   340
  8
0
  6
CONTINUOUS
 62
   130
 10
-965.598304371919
 20
56.116753190758
 30
0.0
 11
-965.598304371919
 21
44.5667451515912
 31
0.0
  0
LINE
  5
   341
  8
0
  6
CONTINUOUS
 62
   130
 10
-964.688294988008
 20
56.116753190758
 30
0.0
 11
-964.688294988008
 21
44.5667451515912
 31
0.0
  0
LINE
  5
   342
  8
0
  6
CONTINUOUS
 62
   130
 10
-964.338304393377
 20
56.116753190758
 30
0.0
 11
-964.338304393377
 21
44.5667451515912
 31
0.0
  0
LINE
  5
   343
  8
0
  6
CONTINUOUS
 62
   130
 10
-963.428295009466
 20
56.116753190758
 30
0.0
 11
-963.428295009466
 21
44.5667451515912
 31
0.0
  0
LINE
  5
   344
  8
0
  6
CONTINUOUS
 62
   130
 10
-963.078304414835
 20
56.116753190758
 30
0.0
 11
-963.078304414835
 21
44.5667451515912
 31
0.0
  0
LINE
  5
   345
  8
0
  6
CONTINUOUS
 62
   130
 10
-962.168295030923
 20
56.116753190758
 30
0.0
 11
-962.168295030923
 21
44.5667451515912
 31
0.0
  0
LINE
  5
   346
  8
0
  6
CONTINUOUS
 62
   130
 10
-961.818304436292
 20
56.116753190758
 30
0.0
 11
-961.818304436292
 21
44.5667451515912
 31
0.0
  0
LINE
  5
   347
  8
0
  6
CONTINUOUS
 62
   130
 10
-960.908295052381
 20
56.116753190758
 30
0.0
 11
-960.908295052381
 21
44.5667451515912
 31
0.0
  0
LINE
  5
   348
  8
0
  6
CONTINUOUS
 62
   130
 10
-960.55830445775
 20
56.116753190758
 30
0.0
 11
-960.55830445775
 21
44.5667451515912
 31
0.0
  0
LINE
  5
   349
  8
0
  6
CONTINUOUS
 62
   130
 10
-959.648295073839
 20
56.116753190758
 30
0.0
 11
-959.648295073839
 21
44.5667451515912
 31
0.0
  0
LINE
  5
   34A
  8
0
  6
CONTINUOUS
 62
   130
 10
-959.298304479208
 20
56.116753190758
 30
0.0
 11
-959.298304479208
 21
44.5667451515912
 31
0.0
  0
LINE
  5
   34B
  8
0
  6
CONTINUOUS
 62
   130
 10
-958.388295095296
 20
56.116753190758
 30
0.0
 11
-958.388295095296
 21
44.5667451515912
 31
0.0
  0
LINE
  5
   34C
  8
0
  6
CONTINUOUS
 62
   130
 10
-958.038304500665
 20
56.116753190758
 30
0.0
 11
-958.038304500665
 21
44.5667451515912
 31
0.0
  0
LINE
  5
   34D
  8
0
  6
CONTINUOUS
 62
   130
 10
-957.128295116754
 20
56.116753190758
 30
0.0
 11
-957.128295116754
 21
44.5667451515912
 31
0.0
  0
LINE
  5
   34E
  8
0
  6
CONTINUOUS
 62
   130
 10
-956.778304522123
 20
56.116753190758
 30
0.0
 11
-956.778304522123
 21
44.5667451515912
 31
0.0
  0
LINE
  5
   34F
  8
0
  6
CONTINUOUS
 62
   130
 10
-955.868295138212
 20
56.116753190758
 30
0.0
 11
-955.868295138212
 21
44.5667451515912
 31
0.0
  0
LINE
  5
   350
  8
0
  6
CONTINUOUS
 62
   130
 10
-955.518304543581
 20
56.116753190758
 30
0.0
 11
-955.518304543581
 21
44.5667451515912
 31
0.0
  0
LINE
  5
   351
  8
0
  6
CONTINUOUS
 62
   130
 10
-954.608295159669
 20
56.116753190758
 30
0.0
 11
-954.608295159669
 21
44.5667451515912
 31
0.0
  0
LINE
  5
   352
  8
0
  6
CONTINUOUS
 62
   130
 10
-954.258304565038
 20
56.116753190758
 30
0.0
 11
-954.258304565038
 21
44.5667451515912
 31
0.0
  0
LINE
  5
   353
  8
0
  6
CONTINUOUS
 62
   130
 10
-953.348295181127
 20
56.116753190758
 30
0.0
 11
-953.348295181127
 21
44.5667451515912
 31
0.0
  0
LINE
  5
   354
  8
0
  6
CONTINUOUS
 62
   130
 10
-952.998304586496
 20
56.116753190758
 30
0.0
 11
-952.998304586496
 21
44.5667451515912
 31
0.0
  0
LINE
  5
   355
  8
0
  6
CONTINUOUS
 62
   130
 10
-952.088295202585
 20
56.116753190758
 30
0.0
 11
-952.088295202585
 21
44.5667451515912
 31
0.0
  0
LINE
  5
   356
  8
0
  6
CONTINUOUS
 62
   130
 10
-951.738304607954
 20
56.116753190758
 30
0.0
 11
-951.738304607954
 21
44.5667451515912
 31
0.0
  0
LINE
  5
   357
  8
0
  6
CONTINUOUS
 62
   130
 10
-950.828295224042
 20
56.116753190758
 30
0.0
 11
-950.828295224042
 21
44.5667451515912
 31
0.0
  0
LINE
  5
   358
  8
0
  6
CONTINUOUS
 62
   130
 10
-950.478304629411
 20
56.116753190758
 30
0.0
 11
-950.478304629411
 21
44.5667451515912
 31
0.0
  0
LINE
  5
   359
  8
0
  6
CONTINUOUS
 62
   130
 10
-949.5682952455
 20
56.116753190758
 30
0.0
 11
-949.5682952455
 21
44.5667451515912
 31
0.0
  0
LINE
  5
   35A
  8
0
  6
CONTINUOUS
 62
   130
 10
-949.218304650869
 20
56.116753190758
 30
0.0
 11
-949.218304650869
 21
44.5667451515912
 31
0.0
  0
LINE
  5
   35B
  8
0
  6
CONTINUOUS
 62
   130
 10
-948.308295266957
 20
56.116753190758
 30
0.0
 11
-948.308295266957
 21
44.5667451515912
 31
0.0
  0
LINE
  5
   35C
  8
0
  6
CONTINUOUS
 62
   130
 10
-947.958304672327
 20
56.116753190758
 30
0.0
 11
-947.958304672327
 21
44.5667451515912
 31
0.0
  0
LINE
  5
   35D
  8
0
  6
CONTINUOUS
 62
   130
 10
-947.048295288415
 20
56.116753190758
 30
0.0
 11
-947.048295288415
 21
44.5667451515912
 31
0.0
  0
LINE
  5
   35E
  8
0
  6
CONTINUOUS
 62
   130
 10
-946.698304693784
 20
56.116753190758
 30
0.0
 11
-946.698304693784
 21
44.5667451515912
 31
0.0
  0
LINE
  5
   35F
  8
0
  6
CONTINUOUS
 62
   130
 10
-945.788295309873
 20
56.116753190758
 30
0.0
 11
-945.788295309873
 21
44.5667451515912
 31
0.0
  0
LINE
  5
   360
  8
0
  6
CONTINUOUS
 62
   130
 10
-945.438304715242
 20
56.116753190758
 30
0.0
 11
-945.438304715242
 21
44.5667451515912
 31
0.0
  0
LINE
  5
   361
  8
0
  6
CONTINUOUS
 62
   130
 10
-944.52829533133
 20
56.116753190758
 30
0.0
 11
-944.52829533133
 21
44.5667451515912
 31
0.0
  0
LINE
  5
   362
  8
0
  6
CONTINUOUS
 62
   130
 10
-944.1783047367
 20
56.116753190758
 30
0.0
 11
-944.1783047367
 21
44.5667451515912
 31
0.0
  0
LINE
  5
   363
  8
0
  6
CONTINUOUS
 62
   130
 10
-942.918304758157
 20
56.116753190758
 30
0.0
 11
-942.918304758157
 21
44.5667451515912
 31
0.0
  0
LINE
  5
   364
  8
0
  6
CONTINUOUS
 62
   130
 10
-942.918304758157
 20
56.116753190758
 30
0.0
 11
-942.918304758157
 21
44.5667451515912
 31
0.0
  0
LINE
  5
   365
  8
0
  6
CONTINUOUS
 62
   130
 10
-943.268295352788
 20
56.116753190758
 30
0.0
 11
-943.268295352788
 21
44.5667451515912
 31
0.0
  0
LINE
  5
   366
  8
0
  6
CONTINUOUS
 62
   130
 10
-942.008295374246
 20
56.116753190758
 30
0.0
 11
-942.008295374246
 21
44.5667451515912
 31
0.0
  0
LINE
  5
   367
  8
0
  6
CONTINUOUS
 62
   130
 10
-941.658304779615
 20
56.116753190758
 30
0.0
 11
-941.658304779615
 21
44.5667451515912
 31
0.0
  0
LINE
  5
   368
  8
0
  6
CONTINUOUS
 62
   130
 10
-940.748295395703
 20
56.116753190758
 30
0.0
 11
-940.748295395703
 21
44.5667451515912
 31
0.0
  0
LINE
  5
   369
  8
0
  6
CONTINUOUS
 62
   130
 10
-940.398304801073
 20
56.116753190758
 30
0.0
 11
-940.398304801073
 21
44.5667451515912
 31
0.0
  0
LINE
  5
   36A
  8
0
  6
CONTINUOUS
 62
   130
 10
-939.488295417161
 20
56.116753190758
 30
0.0
 11
-939.488295417161
 21
44.5667451515912
 31
0.0
  0
LINE
  5
   36B
  8
0
  6
CONTINUOUS
 62
   130
 10
-938.228295438619
 20
56.116753190758
 30
0.0
 11
-938.228295438619
 21
44.5667451515912
 31
0.0
  0
LINE
  5
   36C
  8
0
  6
CONTINUOUS
 62
   130
 10
-939.488295417161
 20
56.116753190758
 30
0.0
 11
-939.488295417161
 21
44.5667451515912
 31
0.0
  0
LINE
  5
   36D
  8
0
  6
CONTINUOUS
 62
   130
 10
-939.13830482253
 20
56.116753190758
 30
0.0
 11
-939.13830482253
 21
44.5667451515912
 31
0.0
  0
LINE
  5
   36E
  8
0
  6
CONTINUOUS
 62
   130
 10
-937.878304843988
 20
56.116753190758
 30
0.0
 11
-937.878304843988
 21
44.5667451515912
 31
0.0
  0
LINE
  5
   36F
  8
0
  6
CONTINUOUS
 62
   130
 10
-938.228295438619
 20
56.116753190758
 30
0.0
 11
-938.228295438619
 21
44.5667451515912
 31
0.0
  0
LINE
  5
   370
  8
0
  6
CONTINUOUS
 62
   130
 10
-936.968295460077
 20
56.116753190758
 30
0.0
 11
-936.968295460077
 21
44.5667451515912
 31
0.0
  0
LINE
  5
   371
  8
0
  6
CONTINUOUS
 62
   130
 10
-936.618304865446
 20
56.116753190758
 30
0.0
 11
-936.618304865446
 21
44.5667451515912
 31
0.0
  0
LINE
  5
   372
  8
0
  6
CONTINUOUS
 62
   130
 10
-935.708295481534
 20
56.116753190758
 30
0.0
 11
-935.708295481534
 21
44.5667451515912
 31
0.0
  0
LINE
  5
   373
  8
0
  6
CONTINUOUS
 62
   130
 10
-935.358304886903
 20
56.116753190758
 30
0.0
 11
-935.358304886903
 21
44.5667451515912
 31
0.0
  0
LINE
  5
   374
  8
0
  6
CONTINUOUS
 62
   130
 10
-934.098304908361
 20
56.116753190758
 30
0.0
 11
-934.098304908361
 21
44.5667451515912
 31
0.0
  0
LINE
  5
   375
  8
0
  6
CONTINUOUS
 62
   130
 10
-934.448295502992
 20
56.116753190758
 30
0.0
 11
-934.448295502992
 21
44.5667451515912
 31
0.0
  0
LINE
  5
   376
  8
0
  6
CONTINUOUS
 62
   130
 10
-932.838304929819
 20
56.116753190758
 30
0.0
 11
-932.838304929819
 21
44.5667451515912
 31
0.0
  0
LINE
  5
   377
  8
0
  6
CONTINUOUS
 62
   130
 10
-933.188295524449
 20
56.116753190758
 30
0.0
 11
-933.188295524449
 21
44.5667451515912
 31
0.0
  0
LINE
  5
   378
  8
0
  6
CONTINUOUS
 62
   130
 10
-932.838304929819
 20
56.116753190758
 30
0.0
 11
-932.838304929819
 21
44.5667451515912
 31
0.0
  0
LINE
  5
   379
  8
0
  6
CONTINUOUS
 62
   130
 10
-931.928295545907
 20
56.116753190758
 30
0.0
 11
-931.928295545907
 21
44.5667451515912
 31
0.0
  0
LINE
  5
   37A
  8
0
  6
CONTINUOUS
 62
   130
 10
-931.928295545907
 20
56.116753190758
 30
0.0
 11
-931.928295545907
 21
44.5667451515912
 31
0.0
  0
LINE
  5
   37B
  8
0
  6
CONTINUOUS
 62
   130
 10
-931.578304951276
 20
56.116753190758
 30
0.0
 11
-931.578304951276
 21
44.5667451515912
 31
0.0
  0
LINE
  5
   37C
  8
0
  6
CONTINUOUS
 62
   130
 10
-930.668295567365
 20
56.116753190758
 30
0.0
 11
-930.668295567365
 21
44.5667451515912
 31
0.0
  0
LINE
  5
   37D
  8
0
  6
CONTINUOUS
 62
   130
 10
-930.318304972734
 20
56.116753190758
 30
0.0
 11
-930.318304972734
 21
44.5667451515912
 31
0.0
  0
LINE
  5
   37E
  8
0
  6
CONTINUOUS
 62
   130
 10
-929.408295588822
 20
56.116753190758
 30
0.0
 11
-929.408295588822
 21
44.5667451515912
 31
0.0
  0
LINE
  5
   37F
  8
0
  6
CONTINUOUS
 62
   130
 10
-929.058304994192
 20
56.116753190758
 30
0.0
 11
-929.058304994192
 21
44.5667451515912
 31
0.0
  0
LINE
  5
   380
  8
0
  6
CONTINUOUS
 62
   130
 10
-928.14829561028
 20
56.116753190758
 30
0.0
 11
-928.14829561028
 21
44.5667451515912
 31
0.0
  0
LINE
  5
   381
  8
0
  6
CONTINUOUS
 62
   130
 10
-927.798305015649
 20
56.116753190758
 30
0.0
 11
-927.798305015649
 21
44.5667451515912
 31
0.0
  0
LINE
  5
   382
  8
0
  6
CONTINUOUS
 62
   130
 10
-926.888295631738
 20
56.116753190758
 30
0.0
 11
-926.888295631738
 21
44.5667451515912
 31
0.0
  0
LINE
  5
   383
  8
0
  6
CONTINUOUS
 62
   130
 10
-926.538305037107
 20
56.116753190758
 30
0.0
 11
-926.538305037107
 21
44.5667451515912
 31
0.0
  0
LINE
  5
   384
  8
0
  6
CONTINUOUS
 62
   130
 10
-925.278305058565
 20
56.116753190758
 30
0.0
 11
-925.278305058565
 21
44.5667451515912
 31
0.0
  0
LINE
  5
   385
  8
0
  6
CONTINUOUS
 62
   130
 10
-925.628295653195
 20
56.116753190758
 30
0.0
 11
-925.628295653195
 21
44.5667451515912
 31
0.0
  0
LINE
  5
   386
  8
0
  6
CONTINUOUS
 62
   130
 10
-924.368295674653
 20
56.116753190758
 30
0.0
 11
-924.368295674653
 21
44.5667451515912
 31
0.0
  0
LINE
  5
   387
  8
0
  6
CONTINUOUS
 62
   130
 10
-924.018305080022
 20
56.116753190758
 30
0.0
 11
-924.018305080022
 21
44.5667451515912
 31
0.0
  0
LINE
  5
   388
  8
0
  6
CONTINUOUS
 62
   130
 10
-923.108295696111
 20
56.116753190758
 30
0.0
 11
-923.108295696111
 21
44.5667451515912
 31
0.0
  0
LINE
  5
   389
  8
0
  6
CONTINUOUS
 62
   130
 10
-922.75830510148
 20
56.116753190758
 30
0.0
 11
-922.75830510148
 21
44.5667451515912
 31
0.0
  0
LINE
  5
   38A
  8
0
  6
CONTINUOUS
 62
   130
 10
-921.848295717568
 20
56.116753190758
 30
0.0
 11
-921.848295717568
 21
44.5667451515912
 31
0.0
  0
LINE
  5
   38B
  8
0
  6
CONTINUOUS
 62
   130
 10
-921.498305122938
 20
56.116753190758
 30
0.0
 11
-921.498305122938
 21
44.5667451515912
 31
0.0
  0
LINE
  5
   38C
  8
0
  6
CONTINUOUS
 62
   130
 10
-920.588295739026
 20
56.116753190758
 30
0.0
 11
-920.588295739026
 21
44.5667451515912
 31
0.0
  0
LINE
  5
   38D
  8
0
  6
CONTINUOUS
 62
   130
 10
-920.238305144395
 20
56.116753190758
 30
0.0
 11
-920.238305144395
 21
44.5667451515912
 31
0.0
  0
LINE
  5
   38E
  8
0
  6
CONTINUOUS
 62
   130
 10
-919.328295760484
 20
56.116753190758
 30
0.0
 11
-919.328295760484
 21
44.5667451515912
 31
0.0
  0
LINE
  5
   38F
  8
0
  6
CONTINUOUS
 62
   130
 10
-918.978305165853
 20
56.116753190758
 30
0.0
 11
-918.978305165853
 21
44.5667451515912
 31
0.0
  0
LINE
  5
   390
  8
0
  6
CONTINUOUS
 62
   130
 10
-918.068295781941
 20
56.116753190758
 30
0.0
 11
-918.068295781941
 21
44.5667451515912
 31
0.0
  0
LINE
  5
   391
  8
0
  6
CONTINUOUS
 62
   130
 10
-917.718305187311
 20
56.116753190758
 30
0.0
 11
-917.718305187311
 21
44.5667451515912
 31
0.0
  0
LINE
  5
   392
  8
0
  6
CONTINUOUS
 62
   130
 10
-916.808295803399
 20
56.116753190758
 30
0.0
 11
-916.808295803399
 21
44.5667451515912
 31
0.0
  0
LINE
  5
   393
  8
0
  6
CONTINUOUS
 62
   130
 10
-916.458305208768
 20
56.116753190758
 30
0.0
 11
-916.458305208768
 21
44.5667451515912
 31
0.0
  0
LINE
  5
   394
  8
0
  6
CONTINUOUS
 62
   130
 10
-915.548295824857
 20
56.116753190758
 30
0.0
 11
-915.548295824857
 21
44.5667451515912
 31
0.0
  0
LINE
  5
   395
  8
0
  6
CONTINUOUS
 62
   130
 10
-915.198305230226
 20
56.116753190758
 30
0.0
 11
-915.198305230226
 21
44.5667451515912
 31
0.0
  0
LINE
  5
   396
  8
0
  6
CONTINUOUS
 62
   130
 10
-914.288295846315
 20
56.116753190758
 30
0.0
 11
-914.288295846315
 21
44.5667451515912
 31
0.0
  0
LINE
  5
   397
  8
0
  6
CONTINUOUS
 62
   130
 10
-913.938305251684
 20
56.116753190758
 30
0.0
 11
-913.938305251684
 21
44.5667451515912
 31
0.0
  0
LINE
  5
   398
  8
0
  6
CONTINUOUS
 62
   130
 10
-913.028295867772
 20
56.116753190758
 30
0.0
 11
-913.028295867772
 21
44.5667451515912
 31
0.0
  0
LINE
  5
   399
  8
0
  6
CONTINUOUS
 62
   130
 10
-912.678305273141
 20
56.116753190758
 30
0.0
 11
-912.678305273141
 21
44.5667451515912
 31
0.0
  0
LINE
  5
   39A
  8
0
  6
CONTINUOUS
 62
   130
 10
-911.76829588923
 20
56.116753190758
 30
0.0
 11
-911.76829588923
 21
44.5667451515912
 31
0.0
  0
LINE
  5
   39B
  8
0
  6
CONTINUOUS
 62
   130
 10
-911.418305294599
 20
56.116753190758
 30
0.0
 11
-911.418305294599
 21
44.5667451515912
 31
0.0
  0
LINE
  5
   39C
  8
0
  6
CONTINUOUS
 62
   130
 10
-910.508295910688
 20
56.116753190758
 30
0.0
 11
-910.508295910688
 21
44.5667451515912
 31
0.0
  0
LINE
  5
   39D
  8
0
  6
CONTINUOUS
 62
   130
 10
-910.158305316057
 20
56.116753190758
 30
0.0
 11
-910.158305316057
 21
44.5667451515912
 31
0.0
  0
LINE
  5
   39E
  8
0
  6
CONTINUOUS
 62
   130
 10
-908.898305337514
 20
56.116753190758
 30
0.0
 11
-908.898305337514
 21
44.5667451515912
 31
0.0
  0
LINE
  5
   39F
  8
0
  6
CONTINUOUS
 62
   130
 10
-909.248295932145
 20
56.116753190758
 30
0.0
 11
-909.248295932145
 21
44.5667451515912
 31
0.0
  0
LINE
  5
   3A0
  8
0
  6
CONTINUOUS
 62
   130
 10
-908.898305337514
 20
56.116753190758
 30
0.0
 11
-908.898305337514
 21
44.5667451515912
 31
0.0
  0
LINE
  5
   3A1
  8
0
  6
CONTINUOUS
 62
   130
 10
-907.988295953603
 20
56.116753190758
 30
0.0
 11
-907.988295953603
 21
44.5667451515912
 31
0.0
  0
LINE
  5
   3A2
  8
0
  6
CONTINUOUS
 62
   130
 10
-907.638305358972
 20
56.116753190758
 30
0.0
 11
-907.638305358972
 21
44.5667451515912
 31
0.0
  0
LINE
  5
   3A3
  8
0
  6
CONTINUOUS
 62
   130
 10
-906.72829597506
 20
56.116753190758
 30
0.0
 11
-906.72829597506
 21
44.5667451515912
 31
0.0
  0
LINE
  5
   3A4
  8
0
  6
CONTINUOUS
 62
   130
 10
-906.37830538043
 20
56.116753190758
 30
0.0
 11
-906.37830538043
 21
44.5667451515912
 31
0.0
  0
LINE
  5
   3A5
  8
0
  6
CONTINUOUS
 62
   130
 10
-905.468295996518
 20
56.116753190758
 30
0.0
 11
-905.468295996518
 21
44.5667451515912
 31
0.0
  0
LINE
  5
   3A6
  8
0
  6
CONTINUOUS
 62
   130
 10
-905.118305401887
 20
56.116753190758
 30
0.0
 11
-905.118305401887
 21
44.5667451515912
 31
0.0
  0
LINE
  5
   3A7
  8
0
  6
CONTINUOUS
 62
   130
 10
-904.208296017976
 20
56.116753190758
 30
0.0
 11
-904.208296017976
 21
44.5667451515912
 31
0.0
  0
LINE
  5
   3A8
  8
0
  6
CONTINUOUS
 62
   130
 10
-903.858305423345
 20
56.116753190758
 30
0.0
 11
-903.858305423345
 21
44.5667451515912
 31
0.0
  0
LINE
  5
   3A9
  8
0
  6
CONTINUOUS
 62
   130
 10
-902.948296039433
 20
56.116753190758
 30
0.0
 11
-902.948296039433
 21
44.5667451515912
 31
0.0
  0
LINE
  5
   3AA
  8
0
  6
CONTINUOUS
 62
   130
 10
-902.598305444802
 20
56.116753190758
 30
0.0
 11
-902.598305444802
 21
44.5667451515912
 31
0.0
  0
LINE
  5
   3AB
  8
0
  6
CONTINUOUS
 62
   130
 10
-901.688296060891
 20
56.116753190758
 30
0.0
 11
-901.688296060891
 21
44.5667451515912
 31
0.0
  0
LINE
  5
   3AC
  8
0
  6
CONTINUOUS
 62
   130
 10
-901.33830546626
 20
56.116753190758
 30
0.0
 11
-901.33830546626
 21
44.5667451515912
 31
0.0
  0
LINE
  5
   3AD
  8
0
  6
CONTINUOUS
 62
   130
 10
-900.428296082349
 20
56.116753190758
 30
0.0
 11
-900.428296082349
 21
44.5667451515912
 31
0.0
  0
LINE
  5
   3AE
  8
0
  6
CONTINUOUS
 62
   130
 10
-900.078305487718
 20
56.116753190758
 30
0.0
 11
-900.078305487718
 21
44.5667451515912
 31
0.0
  0
LINE
  5
   3AF
  8
0
  6
CONTINUOUS
 62
   130
 10
-899.168296103806
 20
56.116753190758
 30
0.0
 11
-899.168296103806
 21
44.5667451515912
 31
0.0
  0
LINE
  5
   3B0
  8
0
  6
CONTINUOUS
 62
   130
 10
-898.818305509176
 20
56.116753190758
 30
0.0
 11
-898.818305509176
 21
44.5667451515912
 31
0.0
  0
LINE
  5
   3B1
  8
0
  6
CONTINUOUS
 62
   130
 10
-897.908296125264
 20
56.116753190758
 30
0.0
 11
-897.908296125264
 21
44.5667451515912
 31
0.0
  0
LINE
  5
   3B2
  8
0
  6
CONTINUOUS
 62
   130
 10
-897.558305530633
 20
56.116753190758
 30
0.0
 11
-897.558305530633
 21
44.5667451515912
 31
0.0
  0
LINE
  5
   3B3
  8
0
  6
CONTINUOUS
 62
   130
 10
-924.018305080022
 20
-29.2831732571137
 30
0.0
 11
-924.018305080022
 21
-30.6832346498955
 31
0.0
  0
LINE
  5
   3B4
  8
0
  6
CONTINUOUS
 62
   130
 10
-923.108295696111
 20
-29.2831732571137
 30
0.0
 11
-923.108295696111
 21
-30.6832346498955
 31
0.0
  0
LINE
  5
   3B5
  8
0
  6
CONTINUOUS
 62
   130
 10
-922.75830510148
 20
-29.2831732571137
 30
0.0
 11
-922.75830510148
 21
-30.6832346498955
 31
0.0
  0
LINE
  5
   3B6
  8
0
  6
CONTINUOUS
 62
   130
 10
-921.848295717568
 20
-29.2831732571137
 30
0.0
 11
-921.848295717568
 21
-30.6832346498955
 31
0.0
  0
LINE
  5
   3B7
  8
0
  6
CONTINUOUS
 62
   130
 10
-921.498305122938
 20
-29.2831732571137
 30
0.0
 11
-921.498305122938
 21
-30.6832346498955
 31
0.0
  0
LINE
  5
   3B8
  8
0
  6
CONTINUOUS
 62
   130
 10
-920.588295739026
 20
-29.2831732571137
 30
0.0
 11
-920.588295739026
 21
-30.6832346498955
 31
0.0
  0
LINE
  5
   3B9
  8
0
  6
CONTINUOUS
 62
   130
 10
-920.238305144395
 20
-29.2831732571137
 30
0.0
 11
-920.238305144395
 21
-30.6832346498955
 31
0.0
  0
LINE
  5
   3BA
  8
0
  6
CONTINUOUS
 62
   130
 10
-919.328295760484
 20
-29.2831732571137
 30
0.0
 11
-919.328295760484
 21
-30.6832346498955
 31
0.0
  0
LINE
  5
   3BB
  8
0
  6
CONTINUOUS
 62
   130
 10
-918.978305165853
 20
-29.2831732571137
 30
0.0
 11
-918.978305165853
 21
-30.6832346498955
 31
0.0
  0
LINE
  5
   3BC
  8
0
  6
CONTINUOUS
 62
   130
 10
-918.068295781941
 20
-29.2831732571137
 30
0.0
 11
-918.068295781941
 21
-30.6832346498955
 31
0.0
  0
LINE
  5
   3BD
  8
0
  6
CONTINUOUS
 62
   130
 10
-917.718305187311
 20
-29.2831732571137
 30
0.0
 11
-917.718305187311
 21
-30.6832346498955
 31
0.0
  0
LINE
  5
   3BE
  8
0
  6
CONTINUOUS
 62
   130
 10
-916.808295803399
 20
-29.2831732571137
 30
0.0
 11
-916.808295803399
 21
-30.6832346498955
 31
0.0
  0
LINE
  5
   3BF
  8
0
  6
CONTINUOUS
 62
   130
 10
-916.458305208768
 20
-29.2831732571137
 30
0.0
 11
-916.458305208768
 21
-30.6832346498955
 31
0.0
  0
LINE
  5
   3C0
  8
0
  6
CONTINUOUS
 62
   130
 10
-915.548295824857
 20
-29.2831732571137
 30
0.0
 11
-915.548295824857
 21
-30.6832346498955
 31
0.0
  0
LINE
  5
   3C1
  8
0
  6
CONTINUOUS
 62
   130
 10
-915.198305230226
 20
-29.2831732571137
 30
0.0
 11
-915.198305230226
 21
-30.6832346498955
 31
0.0
  0
LINE
  5
   3C2
  8
0
  6
CONTINUOUS
 62
   130
 10
-914.288295846315
 20
-29.2831732571137
 30
0.0
 11
-914.288295846315
 21
-30.6832346498955
 31
0.0
  0
LINE
  5
   3C3
  8
0
  6
CONTINUOUS
 62
   130
 10
-913.938305251684
 20
-29.2831732571137
 30
0.0
 11
-913.938305251684
 21
-30.6832346498955
 31
0.0
  0
LINE
  5
   3C4
  8
0
  6
CONTINUOUS
 62
   130
 10
-913.028295867772
 20
-29.2831732571137
 30
0.0
 11
-913.028295867772
 21
-30.6832346498955
 31
0.0
  0
LINE
  5
   3C5
  8
0
  6
CONTINUOUS
 62
   130
 10
-912.678305273141
 20
-29.2831732571137
 30
0.0
 11
-912.678305273141
 21
-30.6832346498955
 31
0.0
  0
LINE
  5
   3C6
  8
0
  6
CONTINUOUS
 62
   130
 10
-911.76829588923
 20
-29.2831732571137
 30
0.0
 11
-911.76829588923
 21
-30.6832346498955
 31
0.0
  0
LINE
  5
   3C7
  8
0
  6
CONTINUOUS
 62
   130
 10
-911.418305294599
 20
-29.2831732571137
 30
0.0
 11
-911.418305294599
 21
-30.6832346498955
 31
0.0
  0
LINE
  5
   3C8
  8
0
  6
CONTINUOUS
 62
   130
 10
-910.508295910688
 20
-29.2831732571137
 30
0.0
 11
-910.508295910688
 21
-30.6832346498955
 31
0.0
  0
LINE
  5
   3C9
  8
0
  6
CONTINUOUS
 62
   130
 10
-910.158305316057
 20
-29.2831732571137
 30
0.0
 11
-910.158305316057
 21
-30.6832346498955
 31
0.0
  0
LINE
  5
   3CA
  8
0
  6
CONTINUOUS
 62
   130
 10
-908.898305337514
 20
-29.2831732571137
 30
0.0
 11
-908.898305337514
 21
-30.6832346498955
 31
0.0
  0
LINE
  5
   3CB
  8
0
  6
CONTINUOUS
 62
   130
 10
-909.248295932145
 20
-29.2831732571137
 30
0.0
 11
-909.248295932145
 21
-30.6832346498955
 31
0.0
  0
LINE
  5
   3CC
  8
0
  6
CONTINUOUS
 62
   130
 10
-908.898305337514
 20
-29.2831732571137
 30
0.0
 11
-908.898305337514
 21
-30.6832346498955
 31
0.0
  0
LINE
  5
   3CD
  8
0
  6
CONTINUOUS
 62
   130
 10
-907.988295953603
 20
-29.2831732571137
 30
0.0
 11
-907.988295953603
 21
-30.6832346498955
 31
0.0
  0
LINE
  5
   3CE
  8
0
  6
CONTINUOUS
 62
   130
 10
-907.638305358972
 20
-29.2831732571137
 30
0.0
 11
-907.638305358972
 21
-30.6832346498955
 31
0.0
  0
LINE
  5
   3CF
  8
0
  6
CONTINUOUS
 62
   130
 10
-906.72829597506
 20
-29.2831732571137
 30
0.0
 11
-906.72829597506
 21
-30.6832346498955
 31
0.0
  0
LINE
  5
   3D0
  8
0
  6
CONTINUOUS
 62
   130
 10
-906.37830538043
 20
-29.2831732571137
 30
0.0
 11
-906.37830538043
 21
-30.6832346498955
 31
0.0
  0
LINE
  5
   3D1
  8
0
  6
CONTINUOUS
 62
   130
 10
-905.468295996518
 20
-29.2831732571137
 30
0.0
 11
-905.468295996518
 21
-30.6832346498955
 31
0.0
  0
LINE
  5
   3D2
  8
0
  6
CONTINUOUS
 62
   130
 10
-905.118305401887
 20
-29.2831732571137
 30
0.0
 11
-905.118305401887
 21
-30.6832346498955
 31
0.0
  0
LINE
  5
   3D3
  8
0
  6
CONTINUOUS
 62
   130
 10
-904.208296017976
 20
-29.2831732571137
 30
0.0
 11
-904.208296017976
 21
-30.6832346498955
 31
0.0
  0
LINE
  5
   3D4
  8
0
  6
CONTINUOUS
 62
   130
 10
-903.858305423345
 20
-29.2831732571137
 30
0.0
 11
-903.858305423345
 21
-30.6832346498955
 31
0.0
  0
LINE
  5
   3D5
  8
0
  6
CONTINUOUS
 62
   130
 10
-902.948296039433
 20
-29.2831732571137
 30
0.0
 11
-902.948296039433
 21
-30.6832346498955
 31
0.0
  0
LINE
  5
   3D6
  8
0
  6
CONTINUOUS
 62
   130
 10
-902.598305444802
 20
-29.2831732571137
 30
0.0
 11
-902.598305444802
 21
-30.6832346498955
 31
0.0
  0
LINE
  5
   3D7
  8
0
  6
CONTINUOUS
 62
   130
 10
-901.688296060891
 20
-29.2831732571137
 30
0.0
 11
-901.688296060891
 21
-30.6832346498955
 31
0.0
  0
LINE
  5
   3D8
  8
0
  6
CONTINUOUS
 62
   130
 10
-901.33830546626
 20
-29.2831732571137
 30
0.0
 11
-901.33830546626
 21
-30.6832346498955
 31
0.0
  0
LINE
  5
   3D9
  8
0
  6
CONTINUOUS
 62
   130
 10
-900.428296082349
 20
-29.2831732571137
 30
0.0
 11
-900.428296082349
 21
-30.6832346498955
 31
0.0
  0
LINE
  5
   3DA
  8
0
  6
CONTINUOUS
 62
   130
 10
-900.078305487718
 20
-29.2831732571137
 30
0.0
 11
-900.078305487718
 21
-30.6832346498955
 31
0.0
  0
LINE
  5
   3DB
  8
0
  6
CONTINUOUS
 62
   130
 10
-899.168296103806
 20
-29.2831732571137
 30
0.0
 11
-899.168296103806
 21
-30.6832346498955
 31
0.0
  0
LINE
  5
   3DC
  8
0
  6
CONTINUOUS
 62
   130
 10
-898.818305509176
 20
-29.2831732571137
 30
0.0
 11
-898.818305509176
 21
-30.6832346498955
 31
0.0
  0
LINE
  5
   3DD
  8
0
  6
CONTINUOUS
 62
   130
 10
-897.908296125264
 20
-29.2831732571137
 30
0.0
 11
-897.908296125264
 21
-30.6832346498955
 31
0.0
  0
LINE
  5
   3DE
  8
0
  6
CONTINUOUS
 62
   130
 10
-897.558305530633
 20
-29.2831732571137
 30
0.0
 11
-897.558305530633
 21
-30.6832346498955
 31
0.0
  0
LINE
  5
   3DF
  8
0
  6
CONTINUOUS
 62
   130
 10
-968.118304329004
 20
-29.2831732571137
 30
0.0
 11
-968.118304329004
 21
-30.6832346498955
 31
0.0
  0
LINE
  5
   3E0
  8
0
  6
CONTINUOUS
 62
   130
 10
-967.208294945092
 20
-29.2831732571137
 30
0.0
 11
-967.208294945092
 21
-30.6832346498955
 31
0.0
  0
LINE
  5
   3E1
  8
0
  6
CONTINUOUS
 62
   130
 10
-966.858304350462
 20
-29.2831732571137
 30
0.0
 11
-966.858304350462
 21
-30.6832346498955
 31
0.0
  0
LINE
  5
   3E2
  8
0
  6
CONTINUOUS
 62
   130
 10
-965.94829496655
 20
-29.2831732571137
 30
0.0
 11
-965.94829496655
 21
-30.6832346498955
 31
0.0
  0
LINE
  5
   3E3
  8
0
  6
CONTINUOUS
 62
   130
 10
-965.598304371919
 20
-29.2831732571137
 30
0.0
 11
-965.598304371919
 21
-30.6832346498955
 31
0.0
  0
LINE
  5
   3E4
  8
0
  6
CONTINUOUS
 62
   130
 10
-964.688294988008
 20
-29.2831732571137
 30
0.0
 11
-964.688294988008
 21
-30.6832346498955
 31
0.0
  0
LINE
  5
   3E5
  8
0
  6
CONTINUOUS
 62
   130
 10
-964.338304393377
 20
-29.2831732571137
 30
0.0
 11
-964.338304393377
 21
-30.6832346498955
 31
0.0
  0
LINE
  5
   3E6
  8
0
  6
CONTINUOUS
 62
   130
 10
-963.428295009466
 20
-29.2831732571137
 30
0.0
 11
-963.428295009466
 21
-30.6832346498955
 31
0.0
  0
LINE
  5
   3E7
  8
0
  6
CONTINUOUS
 62
   130
 10
-963.078304414835
 20
-29.2831732571137
 30
0.0
 11
-963.078304414835
 21
-30.6832346498955
 31
0.0
  0
LINE
  5
   3E8
  8
0
  6
CONTINUOUS
 62
   130
 10
-962.168295030923
 20
-29.2831732571137
 30
0.0
 11
-962.168295030923
 21
-30.6832346498955
 31
0.0
  0
LINE
  5
   3E9
  8
0
  6
CONTINUOUS
 62
   130
 10
-961.818304436292
 20
-29.2831732571137
 30
0.0
 11
-961.818304436292
 21
-30.6832346498955
 31
0.0
  0
LINE
  5
   3EA
  8
0
  6
CONTINUOUS
 62
   130
 10
-960.908295052381
 20
-29.2831732571137
 30
0.0
 11
-960.908295052381
 21
-30.6832346498955
 31
0.0
  0
LINE
  5
   3EB
  8
0
  6
CONTINUOUS
 62
   130
 10
-960.55830445775
 20
-29.2831732571137
 30
0.0
 11
-960.55830445775
 21
-30.6832346498955
 31
0.0
  0
LINE
  5
   3EC
  8
0
  6
CONTINUOUS
 62
   130
 10
-959.648295073839
 20
-29.2831732571137
 30
0.0
 11
-959.648295073839
 21
-30.6832346498955
 31
0.0
  0
LINE
  5
   3ED
  8
0
  6
CONTINUOUS
 62
   130
 10
-959.298304479208
 20
-29.2831732571137
 30
0.0
 11
-959.298304479208
 21
-30.6832346498955
 31
0.0
  0
LINE
  5
   3EE
  8
0
  6
CONTINUOUS
 62
   130
 10
-958.388295095296
 20
-29.2831732571137
 30
0.0
 11
-958.388295095296
 21
-30.6832346498955
 31
0.0
  0
LINE
  5
   3EF
  8
0
  6
CONTINUOUS
 62
   130
 10
-958.038304500665
 20
-29.2831732571137
 30
0.0
 11
-958.038304500665
 21
-30.6832346498955
 31
0.0
  0
LINE
  5
   3F0
  8
0
  6
CONTINUOUS
 62
   130
 10
-957.128295116754
 20
-29.2831732571137
 30
0.0
 11
-957.128295116754
 21
-30.6832346498955
 31
0.0
  0
LINE
  5
   3F1
  8
0
  6
CONTINUOUS
 62
   130
 10
-956.778304522123
 20
-29.2831732571137
 30
0.0
 11
-956.778304522123
 21
-30.6832346498955
 31
0.0
  0
LINE
  5
   3F2
  8
0
  6
CONTINUOUS
 62
   130
 10
-955.868295138212
 20
-29.2831732571137
 30
0.0
 11
-955.868295138212
 21
-30.6832346498955
 31
0.0
  0
LINE
  5
   3F3
  8
0
  6
CONTINUOUS
 62
   130
 10
-955.518304543581
 20
-29.2831732571137
 30
0.0
 11
-955.518304543581
 21
-30.6832346498955
 31
0.0
  0
LINE
  5
   3F4
  8
0
  6
CONTINUOUS
 62
   130
 10
-954.608295159669
 20
-29.2831732571137
 30
0.0
 11
-954.608295159669
 21
-30.6832346498955
 31
0.0
  0
LINE
  5
   3F5
  8
0
  6
CONTINUOUS
 62
   130
 10
-954.258304565038
 20
-29.2831732571137
 30
0.0
 11
-954.258304565038
 21
-30.6832346498955
 31
0.0
  0
LINE
  5
   3F6
  8
0
  6
CONTINUOUS
 62
   130
 10
-953.348295181127
 20
-29.2831732571137
 30
0.0
 11
-953.348295181127
 21
-30.6832346498955
 31
0.0
  0
LINE
  5
   3F7
  8
0
  6
CONTINUOUS
 62
   130
 10
-952.998304586496
 20
-29.2831732571137
 30
0.0
 11
-952.998304586496
 21
-30.6832346498955
 31
0.0
  0
LINE
  5
   3F8
  8
0
  6
CONTINUOUS
 62
   130
 10
-952.088295202585
 20
-29.2831732571137
 30
0.0
 11
-952.088295202585
 21
-30.6832346498955
 31
0.0
  0
LINE
  5
   3F9
  8
0
  6
CONTINUOUS
 62
   130
 10
-951.738304607954
 20
-29.2831732571137
 30
0.0
 11
-951.738304607954
 21
-30.6832346498955
 31
0.0
  0
LINE
  5
   3FA
  8
0
  6
CONTINUOUS
 62
   130
 10
-950.828295224042
 20
-29.2831732571137
 30
0.0
 11
-950.828295224042
 21
-30.6832346498955
 31
0.0
  0
LINE
  5
   3FB
  8
0
  6
CONTINUOUS
 62
   130
 10
-950.478304629411
 20
-29.2831732571137
 30
0.0
 11
-950.478304629411
 21
-30.6832346498955
 31
0.0
  0
LINE
  5
   3FC
  8
0
  6
CONTINUOUS
 62
   130
 10
-949.5682952455
 20
-29.2831732571137
 30
0.0
 11
-949.5682952455
 21
-30.6832346498955
 31
0.0
  0
LINE
  5
   3FD
  8
0
  6
CONTINUOUS
 62
   130
 10
-949.218304650869
 20
-29.2831732571137
 30
0.0
 11
-949.218304650869
 21
-30.6832346498955
 31
0.0
  0
LINE
  5
   3FE
  8
0
  6
CONTINUOUS
 62
   130
 10
-948.308295266957
 20
-29.2831732571137
 30
0.0
 11
-948.308295266957
 21
-30.6832346498955
 31
0.0
  0
LINE
  5
   3FF
  8
0
  6
CONTINUOUS
 62
   130
 10
-947.958304672327
 20
-29.2831732571137
 30
0.0
 11
-947.958304672327
 21
-30.6832346498955
 31
0.0
  0
LINE
  5
   400
  8
0
  6
CONTINUOUS
 62
   130
 10
-947.048295288415
 20
-29.2831732571137
 30
0.0
 11
-947.048295288415
 21
-30.6832346498955
 31
0.0
  0
LINE
  5
   401
  8
0
  6
CONTINUOUS
 62
   130
 10
-946.698304693784
 20
-29.2831732571137
 30
0.0
 11
-946.698304693784
 21
-30.6832346498955
 31
0.0
  0
LINE
  5
   402
  8
0
  6
CONTINUOUS
 62
   130
 10
-945.788295309873
 20
-29.2831732571137
 30
0.0
 11
-945.788295309873
 21
-30.6832346498955
 31
0.0
  0
LINE
  5
   403
  8
0
  6
CONTINUOUS
 62
   130
 10
-945.438304715242
 20
-29.2831732571137
 30
0.0
 11
-945.438304715242
 21
-30.6832346498955
 31
0.0
  0
LINE
  5
   404
  8
0
  6
CONTINUOUS
 62
   130
 10
-944.52829533133
 20
-29.2831732571137
 30
0.0
 11
-944.52829533133
 21
-30.6832346498955
 31
0.0
  0
LINE
  5
   405
  8
0
  6
CONTINUOUS
 62
   130
 10
-944.1783047367
 20
-29.2831732571137
 30
0.0
 11
-944.1783047367
 21
-30.6832346498955
 31
0.0
  0
LINE
  5
   406
  8
0
  6
CONTINUOUS
 62
   130
 10
-942.918304758157
 20
-29.2831732571137
 30
0.0
 11
-942.918304758157
 21
-30.6832346498955
 31
0.0
  0
LINE
  5
   407
  8
0
  6
CONTINUOUS
 62
   130
 10
-942.918304758157
 20
-29.2831732571137
 30
0.0
 11
-942.918304758157
 21
-30.6832346498955
 31
0.0
  0
LINE
  5
   408
  8
0
  6
CONTINUOUS
 62
   130
 10
-943.268295352788
 20
-29.2831732571137
 30
0.0
 11
-943.268295352788
 21
-30.6832346498955
 31
0.0
  0
LINE
  5
   409
  8
0
  6
CONTINUOUS
 62
   130
 10
-942.008295374246
 20
-29.2831732571137
 30
0.0
 11
-942.008295374246
 21
-30.6832346498955
 31
0.0
  0
LINE
  5
   40A
  8
0
  6
CONTINUOUS
 62
   130
 10
-941.658304779615
 20
-29.2831732571137
 30
0.0
 11
-941.658304779615
 21
-30.6832346498955
 31
0.0
  0
LINE
  5
   40B
  8
0
  6
CONTINUOUS
 62
   130
 10
-940.748295395703
 20
-29.2831732571137
 30
0.0
 11
-940.748295395703
 21
-30.6832346498955
 31
0.0
  0
LINE
  5
   40C
  8
0
  6
CONTINUOUS
 62
   130
 10
-940.398304801073
 20
-29.2831732571137
 30
0.0
 11
-940.398304801073
 21
-30.6832346498955
 31
0.0
  0
LINE
  5
   40D
  8
0
  6
CONTINUOUS
 62
   130
 10
-939.488295417161
 20
-29.2831732571137
 30
0.0
 11
-939.488295417161
 21
-30.6832346498955
 31
0.0
  0
LINE
  5
   40E
  8
0
  6
CONTINUOUS
 62
   130
 10
-938.228295438619
 20
-29.2831732571137
 30
0.0
 11
-938.228295438619
 21
-30.6832346498955
 31
0.0
  0
LINE
  5
   40F
  8
0
  6
CONTINUOUS
 62
   130
 10
-939.488295417161
 20
-29.2831732571137
 30
0.0
 11
-939.488295417161
 21
-30.6832346498955
 31
0.0
  0
LINE
  5
   410
  8
0
  6
CONTINUOUS
 62
   130
 10
-939.13830482253
 20
-29.2831732571137
 30
0.0
 11
-939.13830482253
 21
-30.6832346498955
 31
0.0
  0
LINE
  5
   411
  8
0
  6
CONTINUOUS
 62
   130
 10
-937.878304843988
 20
-29.2831732571137
 30
0.0
 11
-937.878304843988
 21
-30.6832346498955
 31
0.0
  0
LINE
  5
   412
  8
0
  6
CONTINUOUS
 62
   130
 10
-938.228295438619
 20
-29.2831732571137
 30
0.0
 11
-938.228295438619
 21
-30.6832346498955
 31
0.0
  0
LINE
  5
   413
  8
0
  6
CONTINUOUS
 62
   130
 10
-936.968295460077
 20
-29.2831732571137
 30
0.0
 11
-936.968295460077
 21
-30.6832346498955
 31
0.0
  0
LINE
  5
   414
  8
0
  6
CONTINUOUS
 62
   130
 10
-936.618304865446
 20
-29.2831732571137
 30
0.0
 11
-936.618304865446
 21
-30.6832346498955
 31
0.0
  0
LINE
  5
   415
  8
0
  6
CONTINUOUS
 62
   130
 10
-935.708295481534
 20
-29.2831732571137
 30
0.0
 11
-935.708295481534
 21
-30.6832346498955
 31
0.0
  0
LINE
  5
   416
  8
0
  6
CONTINUOUS
 62
   130
 10
-935.358304886903
 20
-29.2831732571137
 30
0.0
 11
-935.358304886903
 21
-30.6832346498955
 31
0.0
  0
LINE
  5
   417
  8
0
  6
CONTINUOUS
 62
   130
 10
-934.098304908361
 20
-29.2831732571137
 30
0.0
 11
-934.098304908361
 21
-30.6832346498955
 31
0.0
  0
LINE
  5
   418
  8
0
  6
CONTINUOUS
 62
   130
 10
-934.448295502992
 20
-29.2831732571137
 30
0.0
 11
-934.448295502992
 21
-30.6832346498955
 31
0.0
  0
LINE
  5
   419
  8
0
  6
CONTINUOUS
 62
   130
 10
-932.838304929819
 20
-29.2831732571137
 30
0.0
 11
-932.838304929819
 21
-30.6832346498955
 31
0.0
  0
LINE
  5
   41A
  8
0
  6
CONTINUOUS
 62
   130
 10
-933.188295524449
 20
-29.2831732571137
 30
0.0
 11
-933.188295524449
 21
-30.6832346498955
 31
0.0
  0
LINE
  5
   41B
  8
0
  6
CONTINUOUS
 62
   130
 10
-932.838304929819
 20
-29.2831732571137
 30
0.0
 11
-932.838304929819
 21
-30.6832346498955
 31
0.0
  0
LINE
  5
   41C
  8
0
  6
CONTINUOUS
 62
   130
 10
-931.928295545907
 20
-29.2831732571137
 30
0.0
 11
-931.928295545907
 21
-30.6832346498955
 31
0.0
  0
LINE
  5
   41D
  8
0
  6
CONTINUOUS
 62
   130
 10
-931.928295545907
 20
-29.2831732571137
 30
0.0
 11
-931.928295545907
 21
-30.6832346498955
 31
0.0
  0
LINE
  5
   41E
  8
0
  6
CONTINUOUS
 62
   130
 10
-931.578304951276
 20
-29.2831732571137
 30
0.0
 11
-931.578304951276
 21
-30.6832346498955
 31
0.0
  0
LINE
  5
   41F
  8
0
  6
CONTINUOUS
 62
   130
 10
-930.668295567365
 20
-29.2831732571137
 30
0.0
 11
-930.668295567365
 21
-30.6832346498955
 31
0.0
  0
LINE
  5
   420
  8
0
  6
CONTINUOUS
 62
   130
 10
-930.318304972734
 20
-29.2831732571137
 30
0.0
 11
-930.318304972734
 21
-30.6832346498955
 31
0.0
  0
LINE
  5
   421
  8
0
  6
CONTINUOUS
 62
   130
 10
-929.408295588822
 20
-29.2831732571137
 30
0.0
 11
-929.408295588822
 21
-30.6832346498955
 31
0.0
  0
LINE
  5
   422
  8
0
  6
CONTINUOUS
 62
   130
 10
-929.058304994192
 20
-29.2831732571137
 30
0.0
 11
-929.058304994192
 21
-30.6832346498955
 31
0.0
  0
LINE
  5
   423
  8
0
  6
CONTINUOUS
 62
   130
 10
-928.14829561028
 20
-29.2831732571137
 30
0.0
 11
-928.14829561028
 21
-30.6832346498955
 31
0.0
  0
LINE
  5
   424
  8
0
  6
CONTINUOUS
 62
   130
 10
-927.798305015649
 20
-29.2831732571137
 30
0.0
 11
-927.798305015649
 21
-30.6832346498955
 31
0.0
  0
LINE
  5
   425
  8
0
  6
CONTINUOUS
 62
   130
 10
-926.888295631738
 20
-29.2831732571137
 30
0.0
 11
-926.888295631738
 21
-30.6832346498955
 31
0.0
  0
LINE
  5
   426
  8
0
  6
CONTINUOUS
 62
   130
 10
-926.538305037107
 20
-29.2831732571137
 30
0.0
 11
-926.538305037107
 21
-30.6832346498955
 31
0.0
  0
LINE
  5
   427
  8
0
  6
CONTINUOUS
 62
   130
 10
-925.278305058565
 20
-29.2831732571137
 30
0.0
 11
-925.278305058565
 21
-30.6832346498955
 31
0.0
  0
LINE
  5
   428
  8
0
  6
CONTINUOUS
 62
   130
 10
-925.628295653195
 20
-29.2831732571137
 30
0.0
 11
-925.628295653195
 21
-30.6832346498955
 31
0.0
  0
LINE
  5
   429
  8
0
  6
CONTINUOUS
 62
   130
 10
-924.368295674653
 20
-29.2831732571137
 30
0.0
 11
-924.368295674653
 21
-30.6832346498955
 31
0.0
  0
LINE
  5
   42A
  8
0
  6
CONTINUOUS
 62
     2
 10
-907.885691257209
 20
-29.2831732571137
 30
0.0
 11
-908.044204729607
 21
-29.441686729511
 31
0.0
  0
LINE
  5
   42B
  8
0
  6
CONTINUOUS
 62
     2
 10
-907.390716518808
 20
-29.2831732571137
 30
0.0
 11
-907.796717360406
 21
-29.6891740987116
 31
0.0
  0
ARC
  5
   42C
  8
0
  6
CONTINUOUS
 62
     2
 10
-906.938275997705
 20
-28.5832453668096
 30
0.0
 40
1.39999997615814
 50
569.996592795103
 51
690.003406893104
  0
LINE
  5
   42D
  8
0
  6
DASHDOT
 62
     2
 10
-959.438275103635
 20
61.0167531073115
 30
0.0
 11
-959.438275103635
 21
47.01675334573
 31
0.0
  0
LINE
  5
   42E
  8
0
  6
DASHDOT
 62
     2
 10
-966.438274984426
 20
54.0167532265207
 30
0.0
 11
-952.438275222844
 21
54.0167532265207
 31
0.0
  0
LINE
  5
   42F
  8
0
  6
CONTINUOUS
 62
     2
 10
-958.579833740934
 20
55.1226819584227
 30
0.0
 11
-960.544203835537
 21
53.1583118638194
 31
0.0
  0
LINE
  5
   430
  8
0
  6
CONTINUOUS
 62
     2
 10
-958.332346371733
 20
54.8751945892221
 30
0.0
 11
-960.296716466336
 21
52.9108244946188
 31
0.0
  0
CIRCLE
  5
   431
  8
0
  6
CONTINUOUS
 62
     2
 10
-959.438275103635
 20
54.0167532265207
 30
0.0
 40
1.39999997615814
  0
LINE
  5
   432
  8
0
  6
CONTINUOUS
 62
     2
 10
-960.38569036314
 20
-29.2831732571137
 30
0.0
 11
-960.544203835537
 21
-29.441686729511
 31
0.0
  0
LINE
  5
   433
  8
0
  6
CONTINUOUS
 62
     2
 10
-959.890715624739
 20
-29.2831732571137
 30
0.0
 11
-960.296716466336
 21
-29.6891740987116
 31
0.0
  0
ARC
  5
   434
  8
0
  6
CONTINUOUS
 62
     2
 10
-959.438275103635
 20
-28.5832453668096
 30
0.0
 40
1.39999997615814
 50
569.996592795103
 51
690.003406893104
  0
LINE
  5
   435
  8
0
  6
CONTINUOUS
 62
     7
 10
-892.588355004787
 20
37.0422756522894
 30
0.0
 11
-892.588355004787
 21
-28.4077232331038
 31
0.0
  0
LINE
  5
   436
  8
0
  6
CONTINUOUS
 62
     7
 10
-972.913353636861
 20
-29.2827232182026
 30
0.0
 11
-893.463354989886
 21
-29.2827232182026
 31
0.0
  0
LINE
  5
   437
  8
0
  6
CONTINUOUS
 62
     7
 10
-973.78835362196
 20
37.0422756522894
 30
0.0
 11
-973.78835362196
 21
-28.4077232331038
 31
0.0
  0
LINE
  5
   438
  8
0
  6
CONTINUOUS
 62
     7
 10
-972.913353636861
 20
37.9172756373882
 30
0.0
 11
-893.463354989886
 21
37.9172756373882
 31
0.0
  0
LINE
  5
   439
  8
0
  6
CONTINUOUS
 62
     7
 10
-970.288353681564
 20
-12.4827235043049
 30
0.0
 11
-896.088354945183
 21
-12.4827235043049
 31
0.0
  0
LINE
  5
   43A
  8
0
  6
CONTINUOUS
 62
     7
 10
-970.288353681564
 20
21.1172759234905
 30
0.0
 11
-896.088354945183
 21
21.1172759234905
 31
0.0
  0
LINE
  5
   43B
  8
0
  6
CONTINUOUS
 62
     7
 10
-970.638353675604
 20
37.9172756373882
 30
0.0
 11
-970.638353675604
 21
-29.2827232182026
 31
0.0
  0
LINE
  5
   43C
  8
0
  6
CONTINUOUS
 62
     7
 10
-969.938353687525
 20
28.4672757983208
 30
0.0
 11
-969.938353687525
 21
21.1172759234905
 31
0.0
  0
LINE
  5
   43D
  8
0
  6
CONTINUOUS
 62
     7
 10
-969.938353687525
 20
-12.4827235043049
 30
0.0
 11
-969.938353687525
 21
-19.8327233791351
 31
0.0
  0
LINE
  5
   43E
  8
0
  6
CONTINUOUS
 62
     7
 10
-969.938353687525
 20
-20.5327233672142
 30
0.0
 11
-969.938353687525
 21
-29.2827232182026
 31
0.0
  0
LINE
  5
   43F
  8
0
  6
CONTINUOUS
 62
     7
 10
-895.738354951143
 20
37.9172756373882
 30
0.0
 11
-895.738354951143
 21
-29.2827232182026
 31
0.0
  0
LINE
  5
   440
  8
0
  6
CONTINUOUS
 62
     7
 10
-896.438354939222
 20
-12.4827235043049
 30
0.0
 11
-896.438354939222
 21
-19.8327233791351
 31
0.0
  0
LINE
  5
   441
  8
0
  6
CONTINUOUS
 62
     7
 10
-896.438354939222
 20
-20.5327233672142
 30
0.0
 11
-896.438354939222
 21
-29.2827232182026
 31
0.0
  0
LINE
  5
   442
  8
0
  6
CONTINUOUS
 62
     7
 10
-896.438354939222
 20
28.4672757983208
 30
0.0
 11
-896.438354939222
 21
21.1172759234905
 31
0.0
  0
LINE
  5
   443
  8
0
  6
CONTINUOUS
 62
     7
 10
-970.638353675604
 20
29.1672757863998
 30
0.0
 11
-895.738354951143
 21
29.1672757863998
 31
0.0
  0
LINE
  5
   444
  8
0
  6
CONTINUOUS
 62
     7
 10
-969.938353687525
 20
28.4672757983208
 30
0.0
 11
-896.438354939222
 21
28.4672757983208
 31
0.0
  0
LINE
  5
   445
  8
0
  6
CONTINUOUS
 62
     7
 10
-969.938353687525
 20
-20.5327233672142
 30
0.0
 11
-896.438354939222
 21
-20.5327233672142
 31
0.0
  0
LINE
  5
   446
  8
0
  6
CONTINUOUS
 62
     7
 10
-969.938353687525
 20
-19.8327233791351
 30
0.0
 11
-896.438354939222
 21
-19.8327233791351
 31
0.0
  0
LINE
  5
   447
  8
0
  6
CONTINUOUS
 62
     7
 10
-970.638353675604
 20
34.0672757029533
 30
0.0
 11
-970.42835154295
 21
34.0672757029533
 31
0.0
  0
LINE
  5
   448
  8
0
  6
CONTINUOUS
 62
     7
 10
-970.638353675604
 20
33.0172757208347
 30
0.0
 11
-970.42835154295
 21
33.0172757208347
 31
0.0
  0
LINE
  5
   449
  8
0
  6
CONTINUOUS
 62
     7
 10
-895.948355081081
 20
34.0672757029533
 30
0.0
 11
-895.738354951143
 21
34.0672757029533
 31
0.0
  0
LINE
  5
   44A
  8
0
  6
CONTINUOUS
 62
     7
 10
-895.948355081081
 20
33.0172757208347
 30
0.0
 11
-895.738354951143
 21
33.0172757208347
 31
0.0
  0
ARC
  5
   44B
  8
0
  6
CONTINUOUS
 62
     7
 10
-970.428379502822
 20
33.5422582693262
 30
0.0
 40
0.525030405667436
 50
270.002994716444
 51
449.997011754257
  0
ARC
  5
   44C
  8
0
  6
CONTINUOUS
 62
     7
 10
-895.948344676899
 20
33.5422718548028
 30
0.0
 40
0.525010449191336
 50
450.001135501493
 51
629.998857587167
  0
ARC
  5
   44D
  8
0
  6
CONTINUOUS
 62
     7
 10
-893.463354989886
 20
37.0422756522894
 30
0.0
 40
0.874999985098839
 50
359.999999844103
 51
449.999999844103
  0
ARC
  5
   44E
  8
0
  6
CONTINUOUS
 62
     7
 10
-972.913353636861
 20
37.0422756522894
 30
0.0
 40
0.874999985098839
 50
449.999999844103
 51
539.999999844103
  0
ARC
  5
   44F
  8
0
  6
CONTINUOUS
 62
     7
 10
-972.913353636861
 20
-28.4077232331038
 30
0.0
 40
0.874999985098839
 50
539.999999844103
 51
629.999999844103
  0
ARC
  5
   450
  8
0
  6
CONTINUOUS
 62
     7
 10
-893.463354989886
 20
-28.4077232331038
 30
0.0
 40
0.874999985098839
 50
269.999999844103
 51
359.999999844103
  0
LINE
  5
   451
  8
0
  6
CONTINUOUS
 62
     7
 10
-896.088354945183
 20
21.1172759234905
 30
0.0
 11
-896.088354945183
 21
-12.4827235043049
 31
0.0
  0
LINE
  5
   452
  8
0
  6
CONTINUOUS
 62
     7
 10
-970.288353681564
 20
21.1172759234905
 30
0.0
 11
-970.288353681564
 21
-12.4827235043049
 31
0.0
  0
LINE
  5
   453
  8
0
  6
CONTINUOUS
 62
   130
 10
-883.899291992188
 20
2.56675410270691
 30
0.0
 11
-883.899291992188
 21
2.56675410270691
 31
0.0
  0
LINE
  5
   454
  8
0
  6
CONTINUOUS
 62
   130
 10
-883.899291992188
 20
2.56675410270691
 30
0.0
 11
-883.899291992188
 21
2.56675410270691
 31
0.0
  0
LINE
  5
   455
  8
0
  6
CONTINUOUS
 62
   130
 10
-883.899291992188
 20
2.56675410270691
 30
0.0
 11
-883.899291992188
 21
2.56675410270691
 31
0.0
  0
LINE
  5
   456
  8
0
  6
CONTINUOUS
 62
   130
 10
-883.899291992188
 20
2.56675410270691
 30
0.0
 11
-883.899291992188
 21
2.56675410270691
 31
0.0
  0
LINE
  5
   457
  8
0
  6
CONTINUOUS
 62
   130
 10
-883.899291992188
 20
2.56675410270691
 30
0.0
 11
-883.899291992188
 21
2.56675410270691
 31
0.0
  0
LINE
  5
   458
  8
0
  6
CONTINUOUS
 62
   130
 10
-883.899291992188
 20
2.56675410270691
 30
0.0
 11
-883.899291992188
 21
2.56675410270691
 31
0.0
  0
LINE
  5
   459
  8
0
  6
CONTINUOUS
 62
   130
 10
-883.899291992188
 20
2.56675410270691
 30
0.0
 11
-883.899291992188
 21
2.56675410270691
 31
0.0
  0
LINE
  5
   45A
  8
0
  6
CONTINUOUS
 62
   130
 10
-883.899291992188
 20
2.56675410270691
 30
0.0
 11
-883.899291992188
 21
2.56675410270691
 31
0.0
  0
LINE
  5
   45B
  8
0
  6
CONTINUOUS
 62
   130
 10
-969.238266498648
 20
55.4167530958674
 30
0.0
 11
-969.238263828441
 21
37.9172756373882
 31
0.0
  0
LINE
  5
   45C
  8
0
  6
CONTINUOUS
 62
   130
 10
-969.238256298154
 20
-11.4332242965654
 30
0.0
 11
-924.438278423397
 21
-11.4332242965654
 31
0.0
  0
LINE
  5
   45D
  8
0
  6
CONTINUOUS
 62
   130
 10
-969.238261104671
 20
20.0667751669845
 30
0.0
 11
-924.438283229914
 21
20.0667751669845
 31
0.0
  0
LINE
  5
   45E
  8
0
  6
CONTINUOUS
 62
   130
 10
-929.688290928028
 20
14.2119776755418
 30
0.0
 11
-919.78717921487
 21
14.2119776755418
 31
0.0
  0
LINE
  5
   45F
  8
0
  6
CONTINUOUS
 62
   130
 10
-929.688290977802
 20
15.5167752444705
 30
0.0
 11
-929.688290259178
 21
-3.3215199909556
 31
0.0
  0
LINE
  5
   460
  8
0
  6
CONTINUOUS
 62
   130
 10
-929.688290259178
 20
-3.3215199909556
 30
0.0
 11
-928.988290271099
 21
-3.3215199909556
 31
0.0
  0
LINE
  5
   461
  8
0
  6
CONTINUOUS
 62
   130
 10
-929.688290269224
 20
-3.05817755580459
 30
0.0
 11
-928.988290281145
 21
-3.05817755580459
 31
0.0
  0
LINE
  5
   462
  8
0
  6
CONTINUOUS
 62
   130
 10
-951.738260548202
 20
14.4667752623519
 30
0.0
 11
-929.688290937748
 21
14.4667752623519
 31
0.0
  0
LINE
  5
   463
  8
0
  6
CONTINUOUS
 62
   130
 10
-951.738302898968
 20
-6.88322437405144
 30
0.0
 11
-942.358278652277
 21
-6.88322437405144
 31
0.0
  0
LINE
  5
   464
  8
0
  6
CONTINUOUS
 62
   130
 10
-951.738302738751
 20
-5.83322439193283
 30
0.0
 11
-928.988290175285
 21
-5.83322439193283
 31
0.0
  0
LINE
  5
   465
  8
0
  6
CONTINUOUS
 62
   130
 10
-935.358278771486
 20
-6.88322437405144
 30
0.0
 11
-897.1383038288
 21
-6.88322437405144
 31
0.0
  0
LINE
  5
   466
  8
0
  6
CONTINUOUS
 62
   130
 10
-928.988290409746
 20
0.313016482289215
 30
0.0
 11
-928.988290185094
 21
-5.57609125480973
 31
0.0
  0
LINE
  5
   467
  8
0
  6
CONTINUOUS
 62
   130
 10
-883.899291992188
 20
2.56675410270691
 30
0.0
 11
-883.899291992188
 21
2.56675410270691
 31
0.0
  0
LINE
  5
   468
  8
0
  6
CONTINUOUS
 62
   130
 10
-883.899291992188
 20
2.56675410270691
 30
0.0
 11
-883.899291992188
 21
2.56675410270691
 31
0.0
  0
LINE
  5
   469
  8
0
  6
CONTINUOUS
 62
   130
 10
-883.899291992188
 20
2.56675410270691
 30
0.0
 11
-883.899291992188
 21
2.56675410270691
 31
0.0
  0
LINE
  5
   46A
  8
0
  6
CONTINUOUS
 62
   130
 10
-883.899291992188
 20
2.56675410270691
 30
0.0
 11
-883.899291992188
 21
2.56675410270691
 31
0.0
  0
LINE
  5
   46B
  8
0
  6
CONTINUOUS
 62
   130
 10
-883.899291992188
 20
2.56675410270691
 30
0.0
 11
-883.899291992188
 21
2.56675410270691
 31
0.0
  0
LINE
  5
   46C
  8
0
  6
CONTINUOUS
 62
   130
 10
-883.899291992188
 20
2.56675410270691
 30
0.0
 11
-883.899291992188
 21
2.56675410270691
 31
0.0
  0
LINE
  5
   46D
  8
0
  6
CONTINUOUS
 62
   130
 10
-883.899291992188
 20
2.56675410270691
 30
0.0
 11
-883.899291992188
 21
2.56675410270691
 31
0.0
  0
LINE
  5
   46E
  8
0
  6
CONTINUOUS
 62
   130
 10
-968.538286217294
 20
44.5667451515912
 30
0.0
 11
-968.538286057077
 21
43.5167451694726
 31
0.0
  0
LINE
  5
   46F
  8
0
  6
CONTINUOUS
 62
   130
 10
-969.238264843069
 20
44.5667451515912
 30
0.0
 11
-924.4383014167
 21
44.5667451515912
 31
0.0
  0
LINE
  5
   470
  8
0
  6
CONTINUOUS
 62
   130
 10
-969.238264682852
 20
43.5167451694726
 30
0.0
 11
-924.438280559625
 21
43.5167451694726
 31
0.0
  0
LINE
  5
   471
  8
0
  6
CONTINUOUS
 62
   130
 10
-883.899291992188
 20
2.56675410270691
 30
0.0
 11
-883.899291992188
 21
2.56675410270691
 31
0.0
  0
LINE
  5
   472
  8
0
  6
CONTINUOUS
 62
   130
 10
-883.899291992188
 20
2.56675410270691
 30
0.0
 11
-883.899291992188
 21
2.56675410270691
 31
0.0
  0
LINE
  5
   473
  8
0
  6
CONTINUOUS
 62
   130
 10
-883.899291992188
 20
2.56675410270691
 30
0.0
 11
-883.899291992188
 21
2.56675410270691
 31
0.0
  0
LINE
  5
   474
  8
0
  6
CONTINUOUS
 62
   130
 10
-883.899291992188
 20
2.56675410270691
 30
0.0
 11
-883.899291992188
 21
2.56675410270691
 31
0.0
  0
LINE
  5
   475
  8
0
  6
CONTINUOUS
 62
   130
 10
-883.899291992188
 20
2.56675410270691
 30
0.0
 11
-883.899291992188
 21
2.56675410270691
 31
0.0
  0
LINE
  5
   476
  8
0
  6
CONTINUOUS
 62
   130
 10
-883.899291992188
 20
2.56675410270691
 30
0.0
 11
-883.899291992188
 21
2.56675410270691
 31
0.0
  0
LINE
  5
   477
  8
0
  6
CONTINUOUS
 62
   130
 10
-883.899291992188
 20
2.56675410270691
 30
0.0
 11
-883.899291992188
 21
2.56675410270691
 31
0.0
  0
LINE
  5
   478
  8
0
  6
CONTINUOUS
 62
   130
 10
-883.899291992188
 20
2.56675410270691
 30
0.0
 11
-883.899291992188
 21
2.56675410270691
 31
0.0
  0
LINE
  5
   479
  8
0
  6
CONTINUOUS
 62
   130
 10
-897.13829432258
 20
55.4167530958674
 30
0.0
 11
-897.138296992788
 21
37.9172756373882
 31
0.0
  0
LINE
  5
   47A
  8
0
  6
CONTINUOUS
 62
   130
 10
-919.888270179302
 20
14.2119776755418
 30
0.0
 11
-919.188270191223
 21
14.2119776755418
 31
0.0
  0
LINE
  5
   47B
  8
0
  6
CONTINUOUS
 62
   130
 10
-919.188270141449
 20
15.5167752444705
 30
0.0
 11
-919.188270860074
 21
-3.3215199909556
 31
0.0
  0
LINE
  5
   47C
  8
0
  6
CONTINUOUS
 62
   130
 10
-919.888270848153
 20
-3.3215199909556
 30
0.0
 11
-919.188270860074
 21
-3.3215199909556
 31
0.0
  0
LINE
  5
   47D
  8
0
  6
CONTINUOUS
 62
   130
 10
-919.888270838107
 20
-3.05817755580459
 30
0.0
 11
-919.188270850028
 21
-3.05817755580459
 31
0.0
  0
LINE
  5
   47E
  8
0
  6
CONTINUOUS
 62
   130
 10
-951.738260708419
 20
15.5167752444705
 30
0.0
 11
-897.138300410832
 21
15.5167752444705
 31
0.0
  0
LINE
  5
   47F
  8
0
  6
CONTINUOUS
 62
   130
 10
-919.188270181504
 20
14.4667752623519
 30
0.0
 11
-897.138300571049
 21
14.4667752623519
 31
0.0
  0
LINE
  5
   480
  8
0
  6
CONTINUOUS
 62
   130
 10
-919.888270709506
 20
0.313016482289215
 30
0.0
 11
-919.888270934158
 21
-5.57609125480973
 31
0.0
  0
LINE
  5
   481
  8
0
  6
CONTINUOUS
 62
   130
 10
-883.899291992188
 20
2.56675410270691
 30
0.0
 11
-883.899291992188
 21
2.56675410270691
 31
0.0
  0
LINE
  5
   482
  8
0
  6
CONTINUOUS
 62
   130
 10
-883.899291992188
 20
2.56675410270691
 30
0.0
 11
-883.899291992188
 21
2.56675410270691
 31
0.0
  0
LINE
  5
   483
  8
0
  6
CONTINUOUS
 62
   130
 10
-883.899291992188
 20
2.56675410270691
 30
0.0
 11
-883.899291992188
 21
2.56675410270691
 31
0.0
  0
LINE
  5
   484
  8
0
  6
CONTINUOUS
 62
   130
 10
-883.899291992188
 20
2.56675410270691
 30
0.0
 11
-883.899291992188
 21
2.56675410270691
 31
0.0
  0
LINE
  5
   485
  8
0
  6
CONTINUOUS
 62
   130
 10
-883.899291992188
 20
2.56675410270691
 30
0.0
 11
-883.899291992188
 21
2.56675410270691
 31
0.0
  0
LINE
  5
   486
  8
0
  6
CONTINUOUS
 62
   130
 10
-883.899291992188
 20
2.56675410270691
 30
0.0
 11
-883.899291992188
 21
2.56675410270691
 31
0.0
  0
LINE
  5
   487
  8
0
  6
CONTINUOUS
 62
   130
 10
-883.899291992188
 20
2.56675410270691
 30
0.0
 11
-883.899291992188
 21
2.56675410270691
 31
0.0
  0
LINE
  5
   488
  8
0
  6
CONTINUOUS
 62
   130
 10
-897.838274603935
 20
44.5667451515912
 30
0.0
 11
-897.838274764152
 21
43.5167451694726
 31
0.0
  0
LINE
  5
   489
  8
0
  6
CONTINUOUS
 62
   130
 10
-924.438259702552
 20
44.5667451515912
 30
0.0
 11
-897.13829597816
 21
44.5667451515912
 31
0.0
  0
LINE
  5
   48A
  8
0
  6
CONTINUOUS
 62
   130
 10
-924.438280559627
 20
43.5167451694726
 30
0.0
 11
-897.138296138377
 21
43.5167451694726
 31
0.0
  0
LINE
  5
   48B
  8
0
  6
DASHDOT
 62
   130
 10
-924.438259702552
 20
58.0573450168981
 30
0.0
 11
-924.438259702552
 21
-30.9132468259791
 31
0.0
  0
LINE
  5
   48C
  8
0
  6
DASHDOT
 62
   130
 10
-941.938301118677
 20
57.6567590257978
 30
0.0
 11
-941.938301118677
 21
39.456759335742
 31
0.0
  0
LINE
  5
   48D
  8
0
  6
DASHDOT
 62
   130
 10
-906.938260000575
 20
57.6567590257978
 30
0.0
 11
-906.938260000575
 21
39.456759335742
 31
0.0
  0
LINE
  5
   48E
  8
0
  6
CONTINUOUS
 62
   130
 10
-928.988290409746
 20
0.313016482289215
 30
0.0
 11
-919.888270709506
 21
0.313016482289215
 31
0.0
  0
LINE
  5
   48F
  8
0
  6
CONTINUOUS
 62
   130
 10
-928.638290255601
 20
-3.53404076193243
 30
0.0
 11
-920.238270863651
 21
-3.53404076193243
 31
0.0
  0
LINE
  5
   490
  8
0
  6
CONTINUOUS
 62
   130
 10
-928.638290191054
 20
-5.92609123549782
 30
0.0
 11
-920.238270928197
 21
-5.92609123549782
 31
0.0
  0
LINE
  5
   491
  8
0
  6
CONTINUOUS
 62
   130
 10
-919.888270943967
 20
-5.83322439193283
 30
0.0
 11
-897.138303668583
 21
-5.83322439193283
 31
0.0
  0
ARC
  5
   492
  8
0
  6
CONTINUOUS
 62
   130
 10
-928.638290191054
 20
-5.57609124145828
 30
0.0
 40
0.349999994039536
 50
540.000002029765
 51
629.999999844103
  0
ARC
  5
   493
  8
0
  6
CONTINUOUS
 62
   130
 10
-920.238270928197
 20
-5.57609124145828
 30
0.0
 40
0.349999994039536
 50
269.999999844103
 51
359.999997658442
  0
ARC
  5
   494
  8
0
  6
CONTINUOUS
 62
   130
 10
-920.238270863651
 20
-3.88404075597197
 30
0.0
 40
0.349999994039536
 50
359.999997658442
 51
449.999999844103
  0
ARC
  5
   495
  8
0
  6
CONTINUOUS
 62
   130
 10
-928.638290255601
 20
-3.88404075597197
 30
0.0
 40
0.349999994039536
 50
449.999999844103
 51
540.000002029765
  0
LINE
  5
   496
  8
0
  6
CONTINUOUS
 62
   130
 10
-924.438282695855
 20
-11.4332242965654
 30
0.0
 11
-897.138304523075
 21
-11.4332242965654
 31
0.0
  0
LINE
  5
   497
  8
0
  6
CONTINUOUS
 62
   130
 10
-924.438277889337
 20
20.0667751669845
 30
0.0
 11
-897.138299716558
 21
20.0667751669845
 31
0.0
  0
LINE
  5
   498
  8
0
  6
DASHDOT
 62
   130
 10
-979.722701709589
 20
4.31677543520538
 30
0.0
 11
-887.340136142953
 21
4.31677543520538
 31
0.0
  0
LINE
  5
   499
  8
0
  6
CONTINUOUS
 62
   130
 10
-934.076375488263
 20
12.9660780767331
 30
0.0
 11
-933.551375497204
 21
12.9660780767331
 31
0.0
  0
LINE
  5
   49A
  8
0
  6
CONTINUOUS
 62
   130
 10
-934.076375488263
 20
9.81607813037729
 30
0.0
 11
-933.551375497204
 21
9.81607813037729
 31
0.0
  0
CIRCLE
  5
   49B
  8
0
  6
CONTINUOUS
 62
   130
 10
-933.813875492733
 20
-0.33392169676923
 30
0.0
 40
1.57499997317791
  0
CIRCLE
  5
   49C
  8
0
  6
CONTINUOUS
 62
   130
 10
-933.813875492733
 20
-0.33392169676923
 30
0.0
 40
1.04999998211861
  0
LINE
  5
   49D
  8
0
  6
CONTINUOUS
 62
   130
 10
-934.076375488263
 20
12.9660780767331
 30
0.0
 11
-934.076375488263
 21
9.81607813037729
 31
0.0
  0
LINE
  5
   49E
  8
0
  6
CONTINUOUS
 62
   130
 10
-933.551375497204
 20
12.9660780767331
 30
0.0
 11
-933.551375497204
 21
9.81607813037729
 31
0.0
  0
LINE
  5
   49F
  8
0
  6
CONTINUOUS
 62
   130
 10
-914.091379246574
 20
1.01357828028298
 30
0.0
 11
-913.933879249256
 21
1.01357828028298
 31
0.0
  0
LINE
  5
   4A0
  8
0
  6
CONTINUOUS
 62
   130
 10
-914.546379238826
 20
-1.68142167382144
 30
0.0
 11
-914.266379243594
 21
-1.68142167382144
 31
0.0
  0
LINE
  5
   4A1
  8
0
  6
CONTINUOUS
 62
   130
 10
-914.966379231673
 20
-0.596421692298866
 30
0.0
 11
-914.966379231673
 21
-0.771421689318632
 31
0.0
  0
ARC
  5
   4A2
  8
0
  6
CONTINUOUS
 62
   130
 10
-915.876379216176
 20
-0.596421692298885
 30
0.0
 40
0.909999984502793
 50
359.999999844103
 51
539.999999844103
  0
ARC
  5
   4A3
  8
0
  6
CONTINUOUS
 62
   130
 10
-915.876379216176
 20
-0.77142168931865
 30
0.0
 40
0.909999984502792
 50
539.999999844103
 51
719.999999844103
  0
ARC
  5
   4A4
  8
0
  6
CONTINUOUS
 62
   130
 10
-915.876379216176
 20
-0.596421692298885
 30
0.0
 40
0.629999989271164
 50
359.999999844103
 51
539.999999844103
  0
ARC
  5
   4A5
  8
0
  6
CONTINUOUS
 62
   130
 10
-915.876379216176
 20
-0.77142168931865
 30
0.0
 40
0.629999989271163
 50
539.999999844103
 51
719.999999844103
  0
LINE
  5
   4A6
  8
0
  6
CONTINUOUS
 62
   130
 10
-915.246379226905
 20
-0.596421692298867
 30
0.0
 11
-915.246379226905
 21
-0.771421689318633
 31
0.0
  0
LINE
  5
   4A7
  8
0
  6
CONTINUOUS
 62
   130
 10
-914.878879233163
 20
0.17357829458811
 30
0.0
 11
-914.878879233163
 21
-0.106421700643514
 31
0.0
  0
LINE
  5
   4A8
  8
0
  6
CONTINUOUS
 62
   130
 10
-914.878879233163
 20
-0.106421700643533
 30
0.0
 11
-914.546379238826
 21
-0.106421700643533
 31
0.0
  0
LINE
  5
   4A9
  8
0
  6
CONTINUOUS
 62
   130
 10
-913.933879249256
 20
0.17357829458811
 30
0.0
 11
-913.933879249256
 21
-0.106421700643514
 31
0.0
  0
LINE
  5
   4AA
  8
0
  6
CONTINUOUS
 62
   130
 10
-914.878879233163
 20
0.173578294588092
 30
0.0
 11
-914.546379238826
 21
0.173578294588092
 31
0.0
  0
LINE
  5
   4AB
  8
0
  6
CONTINUOUS
 62
   130
 10
-914.546379238826
 20
-0.106421700643514
 30
0.0
 11
-914.546379238826
 21
-1.68142167382142
 31
0.0
  0
LINE
  5
   4AC
  8
0
  6
CONTINUOUS
 62
   130
 10
-914.266379243594
 20
-0.106421700643516
 30
0.0
 11
-914.266379243594
 21
-1.68142167382143
 31
0.0
  0
LINE
  5
   4AD
  8
0
  6
CONTINUOUS
 62
   130
 10
-914.266379243594
 20
-0.106421700643533
 30
0.0
 11
-913.933879249256
 21
-0.106421700643533
 31
0.0
  0
LINE
  5
   4AE
  8
0
  6
CONTINUOUS
 62
   130
 10
-914.266379243594
 20
0.173578294588092
 30
0.0
 11
-913.933879249256
 21
0.173578294588092
 31
0.0
  0
LINE
  5
   4AF
  8
0
  6
CONTINUOUS
 62
   130
 10
-914.546379238826
 20
0.558578288031602
 30
0.0
 11
-914.546379238826
 21
0.17357829458811
 31
0.0
  0
LINE
  5
   4B0
  8
0
  6
CONTINUOUS
 62
   130
 10
-914.266379243594
 20
0.558578288031601
 30
0.0
 11
-914.266379243594
 21
0.173578294588109
 31
0.0
  0
ARC
  5
   4B1
  8
0
  6
CONTINUOUS
 62
   130
 10
-914.091379246574
 20
0.55857828803158
 30
0.0
 40
0.454999992251396
 50
449.999999844103
 51
539.999999844103
  0
ARC
  5
   4B2
  8
0
  6
CONTINUOUS
 62
   130
 10
-914.091379246574
 20
0.55857828803158
 30
0.0
 40
0.174999997019768
 50
449.999999844103
 51
539.999999844103
  0
LINE
  5
   4B3
  8
0
  6
CONTINUOUS
 62
   130
 10
-913.933879249256
 20
1.013578280283
 30
0.0
 11
-913.933879249256
 21
0.733578285051369
 31
0.0
  0
LINE
  5
   4B4
  8
0
  6
CONTINUOUS
 62
   130
 10
-914.091379246574
 20
0.73357828505135
 30
0.0
 11
-913.933879249256
 21
0.73357828505135
 31
0.0
  0
LINE
  5
   4B5
  8
0
  6
CONTINUOUS
 62
   130
 10
-913.426379257899
 20
-1.68142167382144
 30
0.0
 11
-913.146379262667
 21
-1.68142167382144
 31
0.0
  0
LINE
  5
   4B6
  8
0
  6
CONTINUOUS
 62
   130
 10
-913.758879252237
 20
0.173578294588109
 30
0.0
 11
-913.758879252237
 21
-0.106421700643516
 31
0.0
  0
LINE
  5
   4B7
  8
0
  6
CONTINUOUS
 62
   130
 10
-913.758879252237
 20
-0.106421700643533
 30
0.0
 11
-913.426379257899
 21
-0.106421700643533
 31
0.0
  0
LINE
  5
   4B8
  8
0
  6
CONTINUOUS
 62
   130
 10
-912.81387926833
 20
0.173578294588109
 30
0.0
 11
-912.81387926833
 21
-0.106421700643516
 31
0.0
  0
LINE
  5
   4B9
  8
0
  6
CONTINUOUS
 62
   130
 10
-913.758879252237
 20
0.173578294588092
 30
0.0
 11
-913.426379257899
 21
0.173578294588092
 31
0.0
  0
LINE
  5
   4BA
  8
0
  6
CONTINUOUS
 62
   130
 10
-913.426379257899
 20
-0.106421700643514
 30
0.0
 11
-913.426379257899
 21
-1.68142167382142
 31
0.0
  0
LINE
  5
   4BB
  8
0
  6
CONTINUOUS
 62
   130
 10
-913.146379262667
 20
-0.106421700643514
 30
0.0
 11
-913.146379262667
 21
-1.68142167382142
 31
0.0
  0
LINE
  5
   4BC
  8
0
  6
CONTINUOUS
 62
   130
 10
-913.146379262667
 20
-0.106421700643533
 30
0.0
 11
-912.81387926833
 21
-0.106421700643533
 31
0.0
  0
LINE
  5
   4BD
  8
0
  6
CONTINUOUS
 62
   130
 10
-913.146379262667
 20
0.173578294588092
 30
0.0
 11
-912.81387926833
 21
0.173578294588092
 31
0.0
  0
LINE
  5
   4BE
  8
0
  6
CONTINUOUS
 62
   130
 10
-913.426379257899
 20
0.558578288031602
 30
0.0
 11
-913.426379257899
 21
0.17357829458811
 31
0.0
  0
LINE
  5
   4BF
  8
0
  6
CONTINUOUS
 62
   130
 10
-913.146379262667
 20
0.558578288031602
 30
0.0
 11
-913.146379262667
 21
0.17357829458811
 31
0.0
  0
ARC
  5
   4C0
  8
0
  6
CONTINUOUS
 62
   130
 10
-912.971379265648
 20
0.558578288031577
 30
0.0
 40
0.454999992251396
 50
449.999999844103
 51
539.999999844103
  0
ARC
  5
   4C1
  8
0
  6
CONTINUOUS
 62
   130
 10
-912.971379265648
 20
0.558578288031577
 30
0.0
 40
0.174999997019768
 50
449.999999844103
 51
539.999999844103
  0
LINE
  5
   4C2
  8
0
  6
CONTINUOUS
 62
   130
 10
-912.81387926833
 20
1.013578280283
 30
0.0
 11
-912.81387926833
 21
0.733578285051368
 31
0.0
  0
LINE
  5
   4C3
  8
0
  6
CONTINUOUS
 62
   130
 10
-914.686379236441
 20
10.3935781205425
 30
0.0
 11
-914.40637924121
 21
10.3935781205425
 31
0.0
  0
ARC
  5
   4C4
  8
0
  6
CONTINUOUS
 62
   130
 10
-915.876379216176
 20
11.4785781020651
 30
0.0
 40
0.909999984502793
 50
359.999999844103
 51
539.999999844103
  0
ARC
  5
   4C5
  8
0
  6
CONTINUOUS
 62
   130
 10
-915.876379216176
 20
11.4785781020651
 30
0.0
 40
0.629999989271164
 50
359.999999844103
 51
539.999999844103
  0
ARC
  5
   4C6
  8
0
  6
CONTINUOUS
 62
   130
 10
-915.876379216176
 20
11.3035781050453
 30
0.0
 40
0.909999984502792
 50
539.999999844103
 51
719.999999844103
  0
ARC
  5
   4C7
  8
0
  6
CONTINUOUS
 62
   130
 10
-915.876379216176
 20
11.3035781050453
 30
0.0
 40
0.629999989271163
 50
539.999999844103
 51
719.999999844103
  0
LINE
  5
   4C8
  8
0
  6
CONTINUOUS
 62
   130
 10
-914.686379236441
 20
12.3885780865679
 30
0.0
 11
-914.686379236441
 21
10.3935781205425
 31
0.0
  0
LINE
  5
   4C9
  8
0
  6
CONTINUOUS
 62
   130
 10
-914.40637924121
 20
11.6185780996809
 30
0.0
 11
-914.40637924121
 21
10.3935781205425
 31
0.0
  0
LINE
  5
   4CA
  8
0
  6
CONTINUOUS
 62
   130
 10
-913.426379257899
 20
11.6185780996809
 30
0.0
 11
-913.426379257899
 21
10.3935781205425
 31
0.0
  0
LINE
  5
   4CB
  8
0
  6
CONTINUOUS
 62
   130
 10
-913.146379262667
 20
11.6885780984888
 30
0.0
 11
-913.146379262667
 21
10.3935781205425
 31
0.0
  0
LINE
  5
   4CC
  8
0
  6
CONTINUOUS
 62
   130
 10
-914.686379236441
 20
12.3885780865679
 30
0.0
 11
-914.40637924121
 21
12.3885780865679
 31
0.0
  0
ARC
  5
   4CD
  8
0
  6
CONTINUOUS
 62
   130
 10
-913.916379249554
 20
11.6185780996809
 30
0.0
 40
0.489999991655349
 50
359.999999844103
 51
539.999999844103
  0
LINE
  5
   4CE
  8
0
  6
CONTINUOUS
 62
   130
 10
-914.40637924121
 20
12.3885780865679
 30
0.0
 11
-914.40637924121
 21
12.1085780913363
 31
0.0
  0
ARC
  5
   4CF
  8
0
  6
CONTINUOUS
 62
   130
 10
-913.846379250746
 20
11.6885780984888
 30
0.0
 40
0.699999988079071
 50
359.999999844103
 51
503.130102198259
  0
LINE
  5
   4D0
  8
0
  6
CONTINUOUS
 62
   130
 10
-913.426379257899
 20
10.3935781205425
 30
0.0
 11
-913.146379262667
 21
10.3935781205425
 31
0.0
  0
LINE
  5
   4D1
  8
0
  6
CONTINUOUS
 62
   130
 10
-914.358551886155
 20
19.1281516739942
 30
0.0
 11
-914.522374069198
 21
19.0992658361718
 31
0.0
  0
LINE
  5
   4D2
  8
0
  6
CONTINUOUS
 62
   130
 10
-914.522363950776
 20
19.0992713350903
 30
0.0
 11
-914.666425978543
 21
19.0160982162856
 31
0.0
  0
LINE
  5
   4D3
  8
0
  6
CONTINUOUS
 62
   130
 10
-914.666431904535
 20
19.0160921431268
 30
0.0
 11
-914.773355590209
 21
18.8886636474555
 31
0.0
  0
LINE
  5
   4D4
  8
0
  6
CONTINUOUS
 62
   130
 10
-914.773353594668
 20
18.8886644275782
 30
0.0
 11
-914.830246748538
 21
18.7323501082708
 31
0.0
  0
LINE
  5
   4D5
  8
0
  6
CONTINUOUS
 62
   130
 10
-914.830251834792
 20
18.7323503926563
 30
0.0
 11
-914.830251834792
 21
18.5660041316037
 31
0.0
  0
LINE
  5
   4D6
  8
0
  6
CONTINUOUS
 62
   130
 10
-914.830247212133
 20
18.5660058265279
 30
0.0
 11
-914.773354058263
 21
18.4096915072204
 31
0.0
  0
LINE
  5
   4D7
  8
0
  6
CONTINUOUS
 62
   130
 10
-914.773356550205
 20
18.409690840013
 30
0.0
 11
-914.666432864531
 21
18.2822623443417
 31
0.0
  0
LINE
  5
   4D8
  8
0
  6
CONTINUOUS
 62
   130
 10
-914.666423643711
 20
18.2822591240709
 30
0.0
 11
-914.522361615944
 21
18.1990860052662
 31
0.0
  0
LINE
  5
   4D9
  8
0
  6
CONTINUOUS
 62
   130
 10
-914.522372930531
 20
18.1990880545964
 30
0.0
 11
-914.358550747488
 21
18.170202216774
 31
0.0
  0
LINE
  5
   4DA
  8
0
  6
CONTINUOUS
 62
   130
 10
-914.35855079302
 20
18.1702023557361
 30
0.0
 11
-914.19795432969
 21
18.1702023557361
 31
0.0
  0
LINE
  5
   4DB
  8
0
  6
CONTINUOUS
 62
   130
 10
-914.197945784899
 20
18.1702057621646
 30
0.0
 11
-914.136673366002
 21
18.1502960981748
 31
0.0
  0
LINE
  5
   4DC
  8
0
  6
CONTINUOUS
 62
   130
 10
-914.136674041673
 20
18.1502959376318
 30
0.0
 11
-914.098804023144
 21
18.0981722554789
 31
0.0
  0
LINE
  5
   4DD
  8
0
  6
CONTINUOUS
 62
   130
 10
-914.098811875324
 20
18.0981689993426
 30
0.0
 11
-914.098811875324
 21
18.0337406232883
 31
0.0
  0
LINE
  5
   4DE
  8
0
  6
CONTINUOUS
 62
   130
 10
-914.098806822138
 20
18.0337429202816
 30
0.0
 11
-914.136676840666
 21
17.9816192381287
 31
0.0
  0
LINE
  5
   4DF
  8
0
  6
CONTINUOUS
 62
   130
 10
-914.136675089754
 20
17.9816192396008
 30
0.0
 11
-914.197947508651
 21
17.961709575611
 31
0.0
  0
LINE
  5
   4E0
  8
0
  6
CONTINUOUS
 62
   130
 10
-914.781177281184
 20
17.9617072668948
 30
0.0
 11
-914.19795432969
 21
17.9617072668948
 31
0.0
  0
LINE
  5
   4E1
  8
0
  6
CONTINUOUS
 62
   130
 10
-914.781177281184
 20
17.9617072668948
 30
0.0
 11
-914.781177281184
 21
17.5785276088085
 31
0.0
  0
LINE
  5
   4E2
  8
0
  6
CONTINUOUS
 62
   130
 10
-914.781177281184
 20
17.5785276088085
 30
0.0
 11
-914.19795432969
 21
17.5785276088085
 31
0.0
  0
LINE
  5
   4E3
  8
0
  6
CONTINUOUS
 62
   130
 10
-914.031244591265
 20
17.6079236613334
 30
0.0
 11
-914.197950664142
 21
17.5785284659444
 31
0.0
  0
LINE
  5
   4E4
  8
0
  6
CONTINUOUS
 62
   130
 10
-913.884641873273
 20
17.6925655185247
 30
0.0
 11
-914.031246048014
 21
17.6079243840286
 31
0.0
  0
LINE
  5
   4E5
  8
0
  6
CONTINUOUS
 62
   130
 10
-913.775821634458
 20
17.822243656281
 30
0.0
 11
-913.884635871556
 21
17.6925664669145
 31
0.0
  0
LINE
  5
   4E6
  8
0
  6
CONTINUOUS
 62
   130
 10
-913.717929749675
 20
17.9813121307057
 30
0.0
 11
-913.775826937245
 21
17.822239378359
 31
0.0
  0
LINE
  5
   4E7
  8
0
  6
CONTINUOUS
 62
   130
 10
-913.717932670385
 20
18.150595765799
 30
0.0
 11
-913.717932670385
 21
17.9813138568319
 31
0.0
  0
LINE
  5
   4E8
  8
0
  6
CONTINUOUS
 62
   130
 10
-913.775827070096
 20
18.3096695062912
 30
0.0
 11
-913.717929882525
 21
18.1505967539445
 31
0.0
  0
LINE
  5
   4E9
  8
0
  6
CONTINUOUS
 62
   130
 10
-913.884639463595
 20
18.4393501481956
 30
0.0
 11
-913.7758252192
 21
18.309672606388
 31
0.0
  0
LINE
  5
   4EA
  8
0
  6
CONTINUOUS
 62
   130
 10
-914.031249087443
 20
18.523987490489
 30
0.0
 11
-913.884644919256
 21
18.4393466935851
 31
0.0
  0
LINE
  5
   4EB
  8
0
  6
CONTINUOUS
 62
   130
 10
-914.197945730997
 20
18.5533813644616
 30
0.0
 11
-914.031239660522
 21
18.5239858359494
 31
0.0
  0
LINE
  5
   4EC
  8
0
  6
CONTINUOUS
 62
   130
 10
-914.35855079302
 20
18.5533823476085
 30
0.0
 11
-914.19795432969
 21
18.5533823476085
 31
0.0
  0
LINE
  5
   4ED
  8
0
  6
CONTINUOUS
 62
   130
 10
-914.414855924837
 20
18.5716791445148
 30
0.0
 11
-914.358544891455
 21
18.5533840005243
 31
0.0
  0
LINE
  5
   4EE
  8
0
  6
CONTINUOUS
 62
   130
 10
-914.449658963235
 20
18.6195741477376
 30
0.0
 11
-914.414859769473
 21
18.5716765218802
 31
0.0
  0
LINE
  5
   4EF
  8
0
  6
CONTINUOUS
 62
   130
 10
-914.449661020961
 20
18.6787794077746
 30
0.0
 11
-914.449661020961
 21
18.6195751164855
 31
0.0
  0
LINE
  5
   4F0
  8
0
  6
CONTINUOUS
 62
   130
 10
-914.414854600718
 20
18.7266754177134
 30
0.0
 11
-914.449653794479
 21
18.678777791856
 31
0.0
  0
LINE
  5
   4F1
  8
0
  6
CONTINUOUS
 62
   130
 10
-914.358542717749
 20
18.7449747940144
 30
0.0
 11
-914.414853751131
 21
18.7266796500238
 31
0.0
  0
LINE
  5
   4F2
  8
0
  6
CONTINUOUS
 62
   130
 10
-914.35855079302
 20
18.7449721766516
 30
0.0
 11
-913.766879050166
 21
18.7449721766516
 31
0.0
  0
LINE
  5
   4F3
  8
0
  6
CONTINUOUS
 62
   130
 10
-913.766879050166
 20
19.1281521685239
 30
0.0
 11
-913.766879050166
 21
18.7449721766516
 31
0.0
  0
LINE
  5
   4F4
  8
0
  6
CONTINUOUS
 62
   130
 10
-914.35855079302
 20
19.1281521685239
 30
0.0
 11
-913.766879050166
 21
19.1281521685239
 31
0.0
  0
LINE
  5
   4F5
  8
0
  6
CONTINUOUS
 62
   130
 10
-913.710530631936
 20
17.5785276088085
 30
0.0
 11
-913.311461424865
 21
17.5785276088085
 31
0.0
  0
LINE
  5
   4F6
  8
0
  6
CONTINUOUS
 62
   130
 10
-913.22129766048
 20
17.8884533594096
 30
0.0
 11
-913.311457263129
 21
17.5785287176757
 31
0.0
  0
LINE
  5
   4F7
  8
0
  6
CONTINUOUS
 62
   130
 10
-913.221301819467
 20
17.8884522537228
 30
0.0
 11
-912.791000923475
 21
17.8884522537228
 31
0.0
  0
LINE
  5
   4F8
  8
0
  6
CONTINUOUS
 62
   130
 10
-912.790997623405
 20
17.8884530799921
 30
0.0
 11
-912.700838020756
 21
17.5785284382582
 31
0.0
  0
LINE
  5
   4F9
  8
0
  6
CONTINUOUS
 62
   130
 10
-912.700841318077
 20
17.5785276088085
 30
0.0
 11
-912.301777451582
 21
17.5785276088085
 31
0.0
  0
LINE
  5
   4FA
  8
0
  6
CONTINUOUS
 62
   130
 10
-912.752577012664
 20
19.128152405352
 30
0.0
 11
-912.301773526837
 21
17.578527453065
 31
0.0
  0
LINE
  5
   4FB
  8
0
  6
CONTINUOUS
 62
   130
 10
-913.259727264369
 20
19.1281521685239
 30
0.0
 11
-912.752580819149
 21
19.1281521685239
 31
0.0
  0
LINE
  5
   4FC
  8
0
  6
CONTINUOUS
 62
   130
 10
-913.259725117717
 20
19.128146265419
 30
0.0
 11
-913.710528603543
 21
17.5785213131321
 31
0.0
  0
LINE
  5
   4FD
  8
0
  6
CONTINUOUS
 62
   130
 10
-913.006148304108
 20
18.6280318058862
 30
0.0
 11
-912.902471647835
 21
18.2716322920572
 31
0.0
  0
LINE
  5
   4FE
  8
0
  6
CONTINUOUS
 62
   130
 10
-913.109833315506
 20
18.2716322455951
 30
0.0
 11
-912.902474768012
 21
18.2716322455951
 31
0.0
  0
LINE
  5
   4FF
  8
0
  6
CONTINUOUS
 62
   130
 10
-913.006145125608
 20
18.6280321548164
 30
0.0
 11
-913.109827061863
 21
18.2716328370994
 31
0.0
  0
LINE
  5
   500
  8
0
  6
CONTINUOUS
 62
   130
 10
-910.994618203475
 20
18.9163211334324
 30
0.0
 11
-910.857568344914
 21
18.7435378032593
 31
0.0
  0
LINE
  5
   501
  8
0
  6
CONTINUOUS
 62
   130
 10
-911.174785709798
 20
19.043492573353
 30
0.0
 11
-910.994616046245
 21
18.9163181124456
 31
0.0
  0
LINE
  5
   502
  8
0
  6
CONTINUOUS
 62
   130
 10
-911.383492657462
 20
19.1147520794192
 30
0.0
 11
-911.174788286581
 21
19.0434897759466
 31
0.0
  0
LINE
  5
   503
  8
0
  6
CONTINUOUS
 62
   130
 10
-911.603817671877
 20
19.1243303724231
 30
0.0
 11
-911.383492199779
 21
19.1147530503054
 31
0.0
  0
LINE
  5
   504
  8
0
  6
CONTINUOUS
 62
   130
 10
-911.60382158522
 20
19.1243307746039
 30
0.0
 11
-911.817925280134
 21
19.0714470579431
 31
0.0
  0
LINE
  5
   505
  8
0
  6
CONTINUOUS
 62
   130
 10
-911.817921921876
 20
19.0714495342942
 30
0.0
 11
-912.008446962343
 21
18.9603889183376
 31
0.0
  0
LINE
  5
   506
  8
0
  6
CONTINUOUS
 62
   130
 10
-912.008449934369
 20
18.9603855486585
 30
0.0
 11
-912.159972757335
 21
18.8001455702954
 31
0.0
  0
LINE
  5
   507
  8
0
  6
CONTINUOUS
 62
   130
 10
-912.159969075816
 20
18.8001487171327
 30
0.0
 11
-912.260206336821
 21
18.6037113170656
 31
0.0
  0
LINE
  5
   508
  8
0
  6
CONTINUOUS
 62
   130
 10
-912.260208082158
 20
18.6037080693247
 30
0.0
 11
-912.301042126858
 21
18.3869871525705
 31
0.0
  0
LINE
  5
   509
  8
0
  6
CONTINUOUS
 62
   130
 10
-912.301041691568
 20
18.3869884741437
 30
0.0
 11
-912.279166702408
 21
18.1675415357548
 31
0.0
  0
LINE
  5
   50A
  8
0
  6
CONTINUOUS
 62
   130
 10
-912.279168402121
 20
18.1675420508341
 30
0.0
 11
-912.196352099008
 21
17.9631475336376
 31
0.0
  0
LINE
  5
   50B
  8
0
  6
CONTINUOUS
 62
   130
 10
-912.196351690895
 20
17.963149313229
 30
0.0
 11
-912.073128575112
 21
17.8037614824497
 31
0.0
  0
LINE
  5
   50C
  8
0
  6
CONTINUOUS
 62
   130
 10
-912.073126461385
 20
17.8037578293568
 30
0.0
 11
-911.91297326704
 21
17.6815277269619
 31
0.0
  0
LINE
  5
   50D
  8
0
  6
CONTINUOUS
 62
   130
 10
-911.912976533642
 20
17.6815294968294
 30
0.0
 11
-911.72672394625
 21
17.6047213331315
 31
0.0
  0
LINE
  5
   50E
  8
0
  6
CONTINUOUS
 62
   130
 10
-911.726721956852
 20
17.6047204017065
 30
0.0
 11
-911.526963053232
 21
17.5785275474089
 31
0.0
  0
LINE
  5
   50F
  8
0
  6
CONTINUOUS
 62
   130
 10
-911.327201270478
 20
17.6047211502607
 30
0.0
 11
-911.526960174097
 21
17.5785282959631
 31
0.0
  0
LINE
  5
   510
  8
0
  6
CONTINUOUS
 62
   130
 10
-911.140955036335
 20
17.6815286804697
 30
0.0
 11
-911.327207623727
 21
17.6047205167718
 31
0.0
  0
LINE
  5
   511
  8
0
  6
CONTINUOUS
 62
   130
 10
-910.980796473951
 20
17.8037628178015
 30
0.0
 11
-911.140949668296
 21
17.6815327154065
 31
0.0
  0
LINE
  5
   512
  8
0
  6
CONTINUOUS
 62
   130
 10
-910.857569344307
 20
17.9631470108835
 30
0.0
 11
-910.980797795482
 21
17.8037591907942
 31
0.0
  0
LINE
  5
   513
  8
0
  6
CONTINUOUS
 62
   130
 10
-911.18861452016
 20
18.1561165236498
 30
0.0
 11
-910.857568266928
 21
17.9631481848411
 31
0.0
  0
LINE
  5
   514
  8
0
  6
CONTINUOUS
 62
   130
 10
-911.18862048269
 20
18.1561127074881
 30
0.0
 11
-911.276061740623
 21
18.0526330292753
 31
0.0
  0
LINE
  5
   515
  8
0
  6
CONTINUOUS
 62
   130
 10
-911.276060095428
 20
18.0526358556731
 30
0.0
 11
-911.393531429672
 21
17.9851409750487
 31
0.0
  0
LINE
  5
   516
  8
0
  6
CONTINUOUS
 62
   130
 10
-911.393528217862
 20
17.9851404635196
 30
0.0
 11
-911.526962527805
 21
17.9617073513156
 31
0.0
  0
LINE
  5
   517
  8
0
  6
CONTINUOUS
 62
   130
 10
-911.66040348174
 20
17.9851406134506
 30
0.0
 11
-911.526969171797
 21
17.9617075012465
 31
0.0
  0
LINE
  5
   518
  8
0
  6
CONTINUOUS
 62
   130
 10
-911.777872308006
 20
18.0526367774618
 30
0.0
 11
-911.660400973762
 21
17.9851418968374
 31
0.0
  0
LINE
  5
   519
  8
0
  6
CONTINUOUS
 62
   130
 10
-911.865313119054
 20
18.1561171133499
 30
0.0
 11
-911.777871861121
 21
18.0526374351371
 31
0.0
  0
LINE
  5
   51A
  8
0
  6
CONTINUOUS
 62
   130
 10
-911.91502943436
 20
18.3006085477777
 30
0.0
 11
-911.865308671121
 21
18.1561162533181
 31
0.0
  0
LINE
  5
   51B
  8
0
  6
CONTINUOUS
 62
   130
 10
-911.905665784133
 20
18.4531260981616
 30
0.0
 11
-911.915027815097
 21
18.3006055714851
 31
0.0
  0
LINE
  5
   51C
  8
0
  6
CONTINUOUS
 62
   130
 10
-911.838652451777
 20
18.5904577857556
 30
0.0
 11
-911.905666003736
 21
18.4531292042983
 31
0.0
  0
LINE
  5
   51D
  8
0
  6
CONTINUOUS
 62
   130
 10
-911.724187705647
 20
18.691687837592
 30
0.0
 11
-911.838657622358
 21
18.5904578703232
 31
0.0
  0
LINE
  5
   51E
  8
0
  6
CONTINUOUS
 62
   130
 10
-911.579697329908
 20
18.7414064374244
 30
0.0
 11
-911.72418661577
 21
18.6916870140397
 31
0.0
  0
LINE
  5
   51F
  8
0
  6
CONTINUOUS
 62
   130
 10
-911.57969985737
 20
18.7414050076933
 30
0.0
 11
-911.427178298351
 21
18.7320453120121
 31
0.0
  0
LINE
  5
   520
  8
0
  6
CONTINUOUS
 62
   130
 10
-911.427174102282
 20
18.7320440186552
 30
0.0
 11
-911.28984651185
 21
18.6650294589322
 31
0.0
  0
LINE
  5
   521
  8
0
  6
CONTINUOUS
 62
   130
 10
-911.289844673825
 20
18.6650376179931
 30
0.0
 11
-911.188614046486
 21
18.5505710447216
 31
0.0
  0
LINE
  5
   522
  8
0
  6
CONTINUOUS
 62
   130
 10
-910.857565790329
 20
18.7435378976616
 30
0.0
 11
-911.188612043561
 21
18.5505695588528
 31
0.0
  0
LINE
  5
   523
  8
0
  6
CONTINUOUS
 62
   130
 10
-910.716699811339
 20
19.1281518347379
 30
0.0
 11
-910.716699811339
 21
17.5785276088085
 31
0.0
  0
LINE
  5
   524
  8
0
  6
CONTINUOUS
 62
   130
 10
-910.716699811339
 20
17.5785276088085
 30
0.0
 11
-909.702401580321
 21
17.5785276088085
 31
0.0
  0
LINE
  5
   525
  8
0
  6
CONTINUOUS
 62
   130
 10
-909.702401580321
 20
17.9617072668948
 30
0.0
 11
-909.702401580321
 21
17.5785276088085
 31
0.0
  0
LINE
  5
   526
  8
0
  6
CONTINUOUS
 62
   130
 10
-910.333518818109
 20
17.9617072668948
 30
0.0
 11
-909.702401580321
 21
17.9617072668948
 31
0.0
  0
LINE
  5
   527
  8
0
  6
CONTINUOUS
 62
   130
 10
-910.333518818109
 20
18.1617498927301
 30
0.0
 11
-910.333518818109
 21
17.9617072668948
 31
0.0
  0
LINE
  5
   528
  8
0
  6
CONTINUOUS
 62
   130
 10
-910.333518818109
 20
18.1617498927301
 30
0.0
 11
-909.786926877954
 21
18.1617498927301
 31
0.0
  0
LINE
  5
   529
  8
0
  6
CONTINUOUS
 62
   130
 10
-909.786926877954
 20
18.5449298846024
 30
0.0
 11
-909.786926877954
 21
18.1617498927301
 31
0.0
  0
LINE
  5
   52A
  8
0
  6
CONTINUOUS
 62
   130
 10
-910.333518818109
 20
18.5449298846024
 30
0.0
 11
-909.786926877954
 21
18.5449298846024
 31
0.0
  0
LINE
  5
   52B
  8
0
  6
CONTINUOUS
 62
   130
 10
-910.333518818109
 20
18.74497215579
 30
0.0
 11
-910.333518818109
 21
18.5449298846024
 31
0.0
  0
LINE
  5
   52C
  8
0
  6
CONTINUOUS
 62
   130
 10
-910.333518818109
 20
18.7449721766516
 30
0.0
 11
-909.702401580321
 21
18.7449721766516
 31
0.0
  0
LINE
  5
   52D
  8
0
  6
CONTINUOUS
 62
   130
 10
-909.702401580321
 20
19.1281521685239
 30
0.0
 11
-909.702401580321
 21
18.7449721766516
 31
0.0
  0
LINE
  5
   52E
  8
0
  6
CONTINUOUS
 62
   130
 10
-910.716699811339
 20
19.1281521685239
 30
0.0
 11
-909.702401580321
 21
19.1281521685239
 31
0.0
  0
LINE
  5
   52F
  8
0
  6
CONTINUOUS
 62
   130
 10
-949.152789733376
 20
19.2714954234279
 30
0.0
 11
-949.470489846868
 21
18.3637685954911
 31
0.0
  0
LINE
  5
   530
  8
0
  6
CONTINUOUS
 62
   130
 10
-949.470495251737
 20
18.3637712753753
 30
0.0
 11
-948.896767844516
 21
18.3637712753753
 31
0.0
  0
LINE
  5
   531
  8
0
  6
CONTINUOUS
 62
   130
 10
-949.152795061835
 20
19.271498310698
 30
0.0
 11
-948.896767844516
 21
19.271498310698
 31
0.0
  0
LINE
  5
   532
  8
0
  6
CONTINUOUS
 62
   130
 10
-949.804494879838
 20
17.4095007857213
 30
0.0
 11
-949.338994246897
 21
17.4095007857213
 31
0.0
  0
LINE
  5
   533
  8
0
  6
CONTINUOUS
 62
   130
 10
-949.208648222042
 20
17.7818994568131
 30
0.0
 11
-949.338990316784
 21
17.4094997340976
 31
0.0
  0
LINE
  5
   534
  8
0
  6
CONTINUOUS
 62
   130
 10
-949.208652147066
 20
17.7819004909882
 30
0.0
 11
-948.896767844516
 21
17.7819004909882
 31
0.0
  0
LINE
  5
   535
  8
0
  6
CONTINUOUS
 62
   130
 10
-949.48678934936
 20
18.3172228142539
 30
0.0
 11
-948.896767844516
 21
18.3172228142539
 31
0.0
  0
LINE
  5
   536
  8
0
  6
CONTINUOUS
 62
   130
 10
-949.486785634669
 20
18.3172209259387
 30
0.0
 11
-949.804491070207
 21
17.4094990861586
 31
0.0
  0
LINE
  5
   537
  8
0
  6
CONTINUOUS
 62
   130
 10
-948.260187927267
 20
18.3172208008334
 30
0.0
 11
-947.942482491729
 21
17.4094989610533
 31
0.0
  0
LINE
  5
   538
  8
0
  6
CONTINUOUS
 62
   130
 10
-948.850219383394
 20
18.3172228142539
 30
0.0
 11
-948.26019787855
 21
18.3172228142539
 31
0.0
  0
LINE
  5
   539
  8
0
  6
CONTINUOUS
 62
   130
 10
-948.850219383394
 20
18.3172228142539
 30
0.0
 11
-948.850219383394
 21
17.7819004909882
 31
0.0
  0
LINE
  5
   53A
  8
0
  6
CONTINUOUS
 62
   130
 10
-948.850219383394
 20
17.7819004909882
 30
0.0
 11
-948.538335080844
 21
17.7819004909882
 31
0.0
  0
LINE
  5
   53B
  8
0
  6
CONTINUOUS
 62
   130
 10
-948.538326972762
 20
17.7819010788958
 30
0.0
 11
-948.407984878019
 21
17.4095013561803
 31
0.0
  0
LINE
  5
   53C
  8
0
  6
CONTINUOUS
 62
   130
 10
-948.407992981013
 20
17.4095007857213
 30
0.0
 11
-947.942492348072
 21
17.4095007857213
 31
0.0
  0
LINE
  5
   53D
  8
0
  6
CONTINUOUS
 62
   130
 10
-948.850219383394
 20
19.271498310698
 30
0.0
 11
-948.594192166075
 21
19.271498310698
 31
0.0
  0
LINE
  5
   53E
  8
0
  6
CONTINUOUS
 62
   130
 10
-948.850219383394
 20
19.271498310698
 30
0.0
 11
-948.850219383394
 21
18.3637712753753
 31
0.0
  0
LINE
  5
   53F
  8
0
  6
CONTINUOUS
 62
   130
 10
-948.850219383394
 20
18.3637712753753
 30
0.0
 11
-948.276486635597
 21
18.3637712753753
 31
0.0
  0
LINE
  5
   540
  8
0
  6
CONTINUOUS
 62
   130
 10
-948.59418682021
 20
19.2714964690863
 30
0.0
 11
-948.276481360949
 21
18.3637695089539
 31
0.0
  0
LINE
  5
   541
  8
0
  6
CONTINUOUS
 62
   130
 10
-947.826115854692
 20
18.3637712753753
 30
0.0
 11
-947.290792530068
 21
18.3637712753753
 31
0.0
  0
LINE
  5
   542
  8
0
  6
CONTINUOUS
 62
   130
 10
-947.290792530068
 20
19.271498310698
 30
0.0
 11
-947.290792530068
 21
18.3637712753753
 31
0.0
  0
LINE
  5
   543
  8
0
  6
CONTINUOUS
 62
   130
 10
-947.826115854692
 20
19.271498310698
 30
0.0
 11
-947.290792530068
 21
19.271498310698
 31
0.0
  0
LINE
  5
   544
  8
0
  6
CONTINUOUS
 62
   130
 10
-947.826115854692
 20
17.4095007857213
 30
0.0
 11
-947.290792530068
 21
17.4095007857213
 31
0.0
  0
LINE
  5
   545
  8
0
  6
CONTINUOUS
 62
   130
 10
-947.290792530068
 20
18.3172228142539
 30
0.0
 11
-947.290792530068
 21
17.4095007857213
 31
0.0
  0
LINE
  5
   546
  8
0
  6
CONTINUOUS
 62
   130
 10
-947.826115854692
 20
18.3172228142539
 30
0.0
 11
-947.290792530068
 21
18.3172228142539
 31
0.0
  0
LINE
  5
   547
  8
0
  6
CONTINUOUS
 62
   130
 10
-946.383070835322
 20
19.271498310698
 30
0.0
 11
-946.383070835322
 21
18.3637712753753
 31
0.0
  0
LINE
  5
   548
  8
0
  6
CONTINUOUS
 62
   130
 10
-946.383070835322
 20
18.3637712753753
 30
0.0
 11
-945.847742170122
 21
18.3637712753753
 31
0.0
  0
LINE
  5
   549
  8
0
  6
CONTINUOUS
 62
   130
 10
-945.847742170122
 20
19.271498310698
 30
0.0
 11
-945.847742170122
 21
18.3637712753753
 31
0.0
  0
LINE
  5
   54A
  8
0
  6
CONTINUOUS
 62
   130
 10
-946.383070835322
 20
19.271498310698
 30
0.0
 11
-945.847742170122
 21
19.271498310698
 31
0.0
  0
LINE
  5
   54B
  8
0
  6
CONTINUOUS
 62
   130
 10
-946.383070835322
 20
17.4095007857213
 30
0.0
 11
-945.847742170122
 21
17.4095007857213
 31
0.0
  0
LINE
  5
   54C
  8
0
  6
CONTINUOUS
 62
   130
 10
-945.847742170122
 20
18.3172228142539
 30
0.0
 11
-945.847742170122
 21
17.4095007857213
 31
0.0
  0
LINE
  5
   54D
  8
0
  6
CONTINUOUS
 62
   130
 10
-946.383070835322
 20
18.3172228142539
 30
0.0
 11
-945.847742170122
 21
18.3172228142539
 31
0.0
  0
LINE
  5
   54E
  8
0
  6
CONTINUOUS
 62
   130
 10
-946.383070835322
 20
18.3172228142539
 30
0.0
 11
-946.383070835322
 21
17.4095007857213
 31
0.0
  0
LINE
  5
   54F
  8
0
  6
CONTINUOUS
 62
   130
 10
-945.801193709
 20
19.271498310698
 30
0.0
 11
-945.651577470093
 21
19.271498310698
 31
0.0
  0
LINE
  5
   550
  8
0
  6
CONTINUOUS
 62
   130
 10
-945.801193709
 20
19.271498310698
 30
0.0
 11
-945.801193709
 21
18.3637712753753
 31
0.0
  0
LINE
  5
   551
  8
0
  6
CONTINUOUS
 62
   130
 10
-945.801193709
 20
18.3637712753753
 30
0.0
 11
-945.259269432341
 21
18.3637712753753
 31
0.0
  0
LINE
  5
   552
  8
0
  6
CONTINUOUS
 62
   130
 10
-945.339220002808
 20
18.4240680296883
 30
0.0
 11
-945.259271567941
 21
18.363772916678
 31
0.0
  0
LINE
  5
   553
  8
0
  6
CONTINUOUS
 62
   130
 10
-945.428793739988
 20
18.468815133202
 30
0.0
 11
-945.339216244279
 21
18.4240664421122
 31
0.0
  0
LINE
  5
   554
  8
0
  6
CONTINUOUS
 62
   130
 10
-945.322168056461
 20
18.5593458784624
 30
0.0
 11
-945.428792647947
 21
18.4688124457156
 31
0.0
  0
LINE
  5
   555
  8
0
  6
CONTINUOUS
 62
   130
 10
-945.250035061701
 20
18.6791873851558
 30
0.0
 11
-945.322164874245
 21
18.5593448618995
 31
0.0
  0
LINE
  5
   556
  8
0
  6
CONTINUOUS
 62
   130
 10
-945.219953249178
 20
18.8157837127082
 30
0.0
 11
-945.250036710649
 21
18.679187814599
 31
0.0
  0
LINE
  5
   557
  8
0
  6
CONTINUOUS
 62
   130
 10
-945.235062837862
 20
18.9548434206499
 30
0.0
 11
-945.219954352606
 21
18.8157854713114
 31
0.0
  0
LINE
  5
   558
  8
0
  6
CONTINUOUS
 62
   130
 10
-945.293786293299
 20
19.0817919999262
 30
0.0
 11
-945.23506665011
 21
18.9548464910813
 31
0.0
  0
LINE
  5
   559
  8
0
  6
CONTINUOUS
 62
   130
 10
-945.389972142019
 20
19.1833495366339
 30
0.0
 11
-945.293788357673
 21
19.0817931355065
 31
0.0
  0
LINE
  5
   55A
  8
0
  6
CONTINUOUS
 62
   130
 10
-945.513542512634
 20
19.248858701124
 30
0.0
 11
-945.389966917446
 21
19.1833405083942
 31
0.0
  0
LINE
  5
   55B
  8
0
  6
CONTINUOUS
 62
   130
 10
-945.801193709
 20
18.3172228142539
 30
0.0
 11
-945.21378374586
 21
18.3172228142539
 31
0.0
  0
LINE
  5
   55C
  8
0
  6
CONTINUOUS
 62
   130
 10
-945.801193709
 20
18.3172228142539
 30
0.0
 11
-945.801193709
 21
17.4095007857213
 31
0.0
  0
LINE
  5
   55D
  8
0
  6
CONTINUOUS
 62
   130
 10
-945.801193709
 20
17.4095007857213
 30
0.0
 11
-945.628073594761
 21
17.4095007857213
 31
0.0
  0
LINE
  5
   55E
  8
0
  6
CONTINUOUS
 62
   130
 10
-945.473536415127
 20
17.4317229009097
 30
0.0
 11
-945.62807134128
 21
17.4094997643804
 31
0.0
  0
LINE
  5
   55F
  8
0
  6
CONTINUOUS
 62
   130
 10
-945.331525998565
 20
17.4965915552048
 30
0.0
 11
-945.473537265968
 21
17.4317232481434
 31
0.0
  0
LINE
  5
   560
  8
0
  6
CONTINUOUS
 62
   130
 10
-945.213553985394
 20
17.5988474648605
 30
0.0
 11
-945.331527321937
 21
17.4965911175356
 31
0.0
  0
LINE
  5
   561
  8
0
  6
CONTINUOUS
 62
   130
 10
-945.129171958562
 20
17.7302046956248
 30
0.0
 11
-945.21355306024
 21
17.5988478879058
 31
0.0
  0
LINE
  5
   562
  8
0
  6
CONTINUOUS
 62
   130
 10
-945.085223788456
 20
17.8800137380445
 30
0.0
 11
-945.129166047247
 21
17.7302029093217
 31
0.0
  0
LINE
  5
   563
  8
0
  6
CONTINUOUS
 62
   130
 10
-945.085276464174
 20
18.0361402022506
 30
0.0
 11
-945.085228398992
 21
17.8800167977761
 31
0.0
  0
LINE
  5
   564
  8
0
  6
CONTINUOUS
 62
   130
 10
-945.129313831726
 20
18.1859244031781
 30
0.0
 11
-945.085275444651
 21
18.0361412636686
 31
0.0
  0
LINE
  5
   565
  8
0
  6
CONTINUOUS
 62
   130
 10
-945.213782460923
 20
18.3172208546585
 30
0.0
 11
-945.129315910533
 21
18.1859207910681
 31
0.0
  0
LINE
  5
   566
  8
0
  6
CONTINUOUS
 62
   130
 10
-947.244244068947
 20
19.271498310698
 30
0.0
 11
-947.094622489464
 21
19.271498310698
 31
0.0
  0
LINE
  5
   567
  8
0
  6
CONTINUOUS
 62
   130
 10
-947.244244068947
 20
19.271498310698
 30
0.0
 11
-947.244244068947
 21
18.3637712753753
 31
0.0
  0
LINE
  5
   568
  8
0
  6
CONTINUOUS
 62
   130
 10
-947.244244068947
 20
18.3637712753753
 30
0.0
 11
-946.702319792287
 21
18.3637712753753
 31
0.0
  0
LINE
  5
   569
  8
0
  6
CONTINUOUS
 62
   130
 10
-946.782266890738
 20
18.4240653124601
 30
0.0
 11
-946.702318455871
 21
18.3637701994499
 31
0.0
  0
LINE
  5
   56A
  8
0
  6
CONTINUOUS
 62
   130
 10
-946.871845134786
 20
18.4688152373441
 30
0.0
 11
-946.782267639077
 21
18.4240665462543
 31
0.0
  0
LINE
  5
   56B
  8
0
  6
CONTINUOUS
 62
   130
 10
-946.765219207318
 20
18.5593486704771
 30
0.0
 11
-946.871843798804
 21
18.4688152377302
 31
0.0
  0
LINE
  5
   56C
  8
0
  6
CONTINUOUS
 62
   130
 10
-946.69308758662
 20
18.6791889796195
 30
0.0
 11
-946.765217399164
 21
18.5593464563632
 31
0.0
  0
LINE
  5
   56D
  8
0
  6
CONTINUOUS
 62
   130
 10
-946.662999146025
 20
18.8157842998757
 30
0.0
 11
-946.693087949157
 21
18.6791883937948
 31
0.0
  0
LINE
  5
   56E
  8
0
  6
CONTINUOUS
 62
   130
 10
-946.678107243289
 20
18.9548457306292
 30
0.0
 11
-946.662998758033
 21
18.8157877812907
 31
0.0
  0
LINE
  5
   56F
  8
0
  6
CONTINUOUS
 62
   130
 10
-946.736834529628
 20
19.0817877541666
 30
0.0
 11
-946.678109550872
 21
18.954842251366
 31
0.0
  0
LINE
  5
   570
  8
0
  6
CONTINUOUS
 62
   130
 10
-946.833020339706
 20
19.1833519708591
 30
0.0
 11
-946.736836555359
 21
19.0817955697317
 31
0.0
  0
LINE
  5
   571
  8
0
  6
CONTINUOUS
 62
   130
 10
-946.95659636086
 20
19.2488603904642
 30
0.0
 11
-946.833020765672
 21
19.1833421977345
 31
0.0
  0
LINE
  5
   572
  8
0
  6
CONTINUOUS
 62
   130
 10
-947.094622927107
 20
19.271498661166
 30
0.0
 11
-946.956595709097
 21
19.2488653004528
 31
0.0
  0
LINE
  5
   573
  8
0
  6
CONTINUOUS
 62
   130
 10
-947.244244068947
 20
18.3172228142539
 30
0.0
 11
-946.656834105806
 21
18.3172228142539
 31
0.0
  0
LINE
  5
   574
  8
0
  6
CONTINUOUS
 62
   130
 10
-947.244244068947
 20
18.3172228142539
 30
0.0
 11
-947.244244068947
 21
17.4095007857213
 31
0.0
  0
LINE
  5
   575
  8
0
  6
CONTINUOUS
 62
   130
 10
-947.244244068947
 20
17.4095007857213
 30
0.0
 11
-947.071123954708
 21
17.4095007857213
 31
0.0
  0
LINE
  5
   576
  8
0
  6
CONTINUOUS
 62
   130
 10
-946.916588584714
 20
17.4317194666483
 30
0.0
 11
-947.071123510868
 21
17.4094963301189
 31
0.0
  0
LINE
  5
   577
  8
0
  6
CONTINUOUS
 62
   130
 10
-946.774576208394
 20
17.4965906400627
 30
0.0
 11
-946.916587475798
 21
17.4317223330014
 31
0.0
  0
LINE
  5
   578
  8
0
  6
CONTINUOUS
 62
   130
 10
-946.656603942326
 20
17.5988467828018
 30
0.0
 11
-946.774577278869
 21
17.4965904354769
 31
0.0
  0
LINE
  5
   579
  8
0
  6
CONTINUOUS
 62
   130
 10
-946.572223042042
 20
17.7302048750885
 30
0.0
 11
-946.656604143719
 21
17.5988480673695
 31
0.0
  0
LINE
  5
   57A
  8
0
  6
CONTINUOUS
 62
   130
 10
-946.528271777529
 20
17.8800157187042
 30
0.0
 11
-946.572219381399
 21
17.7302048738247
 31
0.0
  0
LINE
  5
   57B
  8
0
  6
CONTINUOUS
 62
   130
 10
-946.52832846586
 20
18.0361403644725
 30
0.0
 11
-946.528275060125
 21
17.8800169582625
 31
0.0
  0
LINE
  5
   57C
  8
0
  6
CONTINUOUS
 62
   130
 10
-946.572362887625
 20
18.1859243317406
 30
0.0
 11
-946.52832450055
 21
18.036141192231
 31
0.0
  0
LINE
  5
   57D
  8
0
  6
CONTINUOUS
 62
   130
 10
-946.656831422753
 20
18.3172212116797
 30
0.0
 11
-946.572364872363
 21
18.1859211480893
 31
0.0
  0
LINE
  5
   57E
  8
0
  6
CONTINUOUS
 62
   130
 10
-947.826115854692
 20
19.271498310698
 30
0.0
 11
-947.826115854692
 21
17.4095007857213
 31
0.0
  0
LINE
  5
   57F
  8
0
  6
CONTINUOUS
 62
   130
 10
-951.738260815231
 20
16.2167752325496
 30
0.0
 11
-932.138290962782
 21
16.2167752325496
 31
0.0
  0
LINE
  5
   580
  8
0
  6
CONTINUOUS
 62
   130
 10
-931.788291022148
 20
17.6167752087077
 30
0.0
 11
-931.78829094204
 21
15.5167752444705
 31
0.0
  0
LINE
  5
   581
  8
0
  6
CONTINUOUS
 62
   130
 10
-917.088270097103
 20
17.6167752087077
 30
0.0
 11
-917.088270177212
 21
15.5167752444705
 31
0.0
  0
LINE
  5
   582
  8
0
  6
CONTINUOUS
 62
   130
 10
-931.788291022148
 20
17.6167752087077
 30
0.0
 11
-917.088270097103
 21
17.6167752087077
 31
0.0
  0
LINE
  5
   583
  8
0
  6
CONTINUOUS
 62
   130
 10
-916.73827015647
 20
16.2167752325496
 30
0.0
 11
-897.138300304021
 21
16.2167752325496
 31
0.0
  0
LINE
  5
   584
  8
0
  6
CONTINUOUS
 62
   130
 10
-932.138291029539
 20
17.9667752027473
 30
0.0
 11
-916.738270089712
 21
17.9667752027473
 31
0.0
  0
LINE
  5
   585
  8
0
  6
CONTINUOUS
 62
   130
 10
-916.738270089712
 20
17.9667752027473
 30
0.0
 11
-916.738270183173
 21
15.5167752444705
 31
0.0
  0
LINE
  5
   586
  8
0
  6
CONTINUOUS
 62
   130
 10
-932.138291029539
 20
17.9667752027473
 30
0.0
 11
-932.138290936079
 21
15.5167752444705
 31
0.0
  0
LINE
  5
   587
  8
0
  6
CONTINUOUS
 62
   130
 10
-917.088270869134
 20
-2.62152000287653
 30
0.0
 11
-917.088270949242
 21
-4.72151996711374
 31
0.0
  0
LINE
  5
   588
  8
0
  6
CONTINUOUS
 62
   130
 10
-931.788290250118
 20
-2.62152000287653
 30
0.0
 11
-931.78829017001
 21
-4.72151996711374
 31
0.0
  0
LINE
  5
   589
  8
0
  6
CONTINUOUS
 62
   130
 10
-931.788290250118
 20
-2.62152000287653
 30
0.0
 11
-929.688290285881
 21
-2.62152000287653
 31
0.0
  0
LINE
  5
   58A
  8
0
  6
CONTINUOUS
 62
   130
 10
-919.188270833371
 20
-2.62152000287653
 30
0.0
 11
-917.088270869134
 21
-2.62152000287653
 31
0.0
  0
LINE
  5
   58B
  8
0
  6
CONTINUOUS
 62
   130
 10
-931.78829017001
 20
-4.72151996711374
 30
0.0
 11
-928.988290217693
 21
-4.72151996711374
 31
0.0
  0
LINE
  5
   58C
  8
0
  6
CONTINUOUS
 62
   130
 10
-919.888270901558
 20
-4.72151996711374
 30
0.0
 11
-917.088270949242
 21
-4.72151996711374
 31
0.0
  0
LINE
  5
   58D
  8
0
  6
CONTINUOUS
 62
   130
 10
-935.358278771486
 20
-6.35823506414781
 30
0.0
 11
-935.358278771486
 21
-9.50823501050363
 31
0.0
  0
LINE
  5
   58E
  8
0
  6
CONTINUOUS
 62
   130
 10
-942.358278652277
 20
-6.35823506414781
 30
0.0
 11
-942.358278652277
 21
-9.50823501050363
 31
0.0
  0
LINE
  5
   58F
  8
0
  6
CONTINUOUS
 62
   130
 10
-942.358278652277
 20
-6.35823506414781
 30
0.0
 11
-935.358278771486
 21
-6.35823506414781
 31
0.0
  0
LINE
  5
   590
  8
0
  6
CONTINUOUS
 62
   130
 10
-942.358278652277
 20
-9.50823501050363
 30
0.0
 11
-935.358278771486
 21
-9.50823501050363
 31
0.0
  0
LINE
  5
   591
  8
0
  6
CONTINUOUS
 62
   130
 10
-968.538266510569
 20
56.116753190758
 30
0.0
 11
-897.838294310659
 21
56.116753190758
 31
0.0
  0
LINE
  5
   592
  8
0
  6
CONTINUOUS
 62
   130
 10
-968.538253479568
 20
-30.6832346498955
 30
0.0
 11
-897.83830734166
 21
-30.6832346498955
 31
0.0
  0
ARC
  5
   593
  8
0
  6
CONTINUOUS
 62
   130
 10
-897.838294310659
 20
55.4167532026789
 30
0.0
 40
0.699999988079071
 50
359.999991101463
 51
449.999999844103
  0
ARC
  5
   594
  8
0
  6
CONTINUOUS
 62
   130
 10
-968.538266510569
 20
55.4167532026789
 30
0.0
 40
0.699999988079071
 50
449.999999844103
 51
540.000008586744
  0
ARC
  5
   595
  8
0
  6
CONTINUOUS
 62
   130
 10
-968.538253479568
 20
-29.9832346618165
 30
0.0
 40
0.699999988079071
 50
540.000008586744
 51
629.999999844103
  0
ARC
  5
   596
  8
0
  6
CONTINUOUS
 62
   130
 10
-897.83830734166
 20
-29.9832346618165
 30
0.0
 40
0.699999988079071
 50
269.999999844103
 51
359.999991101463
  0
LINE
  5
   597
  8
0
  6
CONTINUOUS
 62
   130
 10
-951.738299481
 20
15.5167752444705
 30
0.0
 11
-951.738299641218
 21
14.4667752623519
 31
0.0
  0
LINE
  5
   598
  8
0
  6
CONTINUOUS
 62
   130
 10
-951.738302738751
 20
-5.83322439193283
 30
0.0
 11
-951.738302898968
 21
-6.88322437405144
 31
0.0
  0
LINE
  5
   599
  8
0
  6
DASHDOT
 62
   130
 10
-959.438300820653
 20
57.6567590257978
 30
0.0
 11
-959.438300820653
 21
39.456759335742
 31
0.0
  0
LINE
  5
   59A
  8
0
  6
CONTINUOUS
 62
   130
 10
-952.088295202585
 20
43.5167451694726
 30
0.0
 11
-952.088296056996
 21
37.9172756373882
 31
0.0
  0
LINE
  5
   59B
  8
0
  6
CONTINUOUS
 62
   130
 10
-952.998295187087
 20
43.5167451694726
 30
0.0
 11
-952.998296041498
 21
37.9172756373882
 31
0.0
  0
LINE
  5
   59C
  8
0
  6
CONTINUOUS
 62
   130
 10
-953.348295181127
 20
43.5167451694726
 30
0.0
 11
-953.348296035538
 21
37.9172756373882
 31
0.0
  0
LINE
  5
   59D
  8
0
  6
CONTINUOUS
 62
   130
 10
-954.25829516563
 20
43.5167451694726
 30
0.0
 11
-954.258296020041
 21
37.9172756373882
 31
0.0
  0
LINE
  5
   59E
  8
0
  6
CONTINUOUS
 62
   130
 10
-954.608295159669
 20
43.5167451694726
 30
0.0
 11
-954.60829601408
 21
37.9172756373882
 31
0.0
  0
LINE
  5
   59F
  8
0
  6
CONTINUOUS
 62
   130
 10
-954.25829516563
 20
43.5167451694726
 30
0.0
 11
-954.258296020041
 21
37.9172756373882
 31
0.0
  0
LINE
  5
   5A0
  8
0
  6
CONTINUOUS
 62
   130
 10
-955.518295144172
 20
43.5167451694726
 30
0.0
 11
-955.518295998583
 21
37.9172756373882
 31
0.0
  0
LINE
  5
   5A1
  8
0
  6
CONTINUOUS
 62
   130
 10
-955.868295138212
 20
43.5167451694726
 30
0.0
 11
-955.868295992623
 21
37.9172756373882
 31
0.0
  0
LINE
  5
   5A2
  8
0
  6
CONTINUOUS
 62
   130
 10
-956.778295122714
 20
43.5167451694726
 30
0.0
 11
-956.778295977126
 21
37.9172756373882
 31
0.0
  0
LINE
  5
   5A3
  8
0
  6
CONTINUOUS
 62
   130
 10
-957.128295116754
 20
43.5167451694726
 30
0.0
 11
-957.128295971165
 21
37.9172756373882
 31
0.0
  0
LINE
  5
   5A4
  8
0
  6
CONTINUOUS
 62
   130
 10
-958.038295101257
 20
43.5167451694726
 30
0.0
 11
-958.038295955668
 21
37.9172756373882
 31
0.0
  0
LINE
  5
   5A5
  8
0
  6
CONTINUOUS
 62
   130
 10
-958.388295095296
 20
43.5167451694726
 30
0.0
 11
-958.388295949707
 21
37.9172756373882
 31
0.0
  0
LINE
  5
   5A6
  8
0
  6
CONTINUOUS
 62
   130
 10
-959.298295079799
 20
43.5167451694726
 30
0.0
 11
-959.29829593421
 21
37.9172756373882
 31
0.0
  0
LINE
  5
   5A7
  8
0
  6
CONTINUOUS
 62
   130
 10
-959.648295073839
 20
43.5167451694726
 30
0.0
 11
-959.64829592825
 21
37.9172756373882
 31
0.0
  0
LINE
  5
   5A8
  8
0
  6
CONTINUOUS
 62
   130
 10
-960.558295058341
 20
43.5167451694726
 30
0.0
 11
-960.558295912752
 21
37.9172756373882
 31
0.0
  0
LINE
  5
   5A9
  8
0
  6
CONTINUOUS
 62
   130
 10
-960.908295052381
 20
43.5167451694726
 30
0.0
 11
-960.908295906792
 21
37.9172756373882
 31
0.0
  0
LINE
  5
   5AA
  8
0
  6
CONTINUOUS
 62
   130
 10
-961.818295036884
 20
43.5167451694726
 30
0.0
 11
-961.818295891295
 21
37.9172756373882
 31
0.0
  0
LINE
  5
   5AB
  8
0
  6
CONTINUOUS
 62
   130
 10
-962.168295030923
 20
43.5167451694726
 30
0.0
 11
-962.168295885334
 21
37.9172756373882
 31
0.0
  0
LINE
  5
   5AC
  8
0
  6
CONTINUOUS
 62
   130
 10
-963.078295015426
 20
43.5167451694726
 30
0.0
 11
-963.078295869837
 21
37.9172756373882
 31
0.0
  0
LINE
  5
   5AD
  8
0
  6
CONTINUOUS
 62
   130
 10
-963.428295009466
 20
43.5167451694726
 30
0.0
 11
-963.428295863877
 21
37.9172756373882
 31
0.0
  0
LINE
  5
   5AE
  8
0
  6
CONTINUOUS
 62
   130
 10
-964.338294993969
 20
43.5167451694726
 30
0.0
 11
-964.33829584838
 21
37.9172756373882
 31
0.0
  0
LINE
  5
   5AF
  8
0
  6
CONTINUOUS
 62
   130
 10
-964.688294988008
 20
43.5167451694726
 30
0.0
 11
-964.688295842419
 21
37.9172756373882
 31
0.0
  0
LINE
  5
   5B0
  8
0
  6
CONTINUOUS
 62
   130
 10
-965.598294972511
 20
43.5167451694726
 30
0.0
 11
-965.598295826922
 21
37.9172756373882
 31
0.0
  0
LINE
  5
   5B1
  8
0
  6
CONTINUOUS
 62
   130
 10
-965.94829496655
 20
43.5167451694726
 30
0.0
 11
-965.948295820961
 21
37.9172756373882
 31
0.0
  0
LINE
  5
   5B2
  8
0
  6
CONTINUOUS
 62
   130
 10
-966.858294951053
 20
43.5167451694726
 30
0.0
 11
-966.858295805464
 21
37.9172756373882
 31
0.0
  0
LINE
  5
   5B3
  8
0
  6
CONTINUOUS
 62
   130
 10
-967.208294945092
 20
43.5167451694726
 30
0.0
 11
-967.208295799504
 21
37.9172756373882
 31
0.0
  0
LINE
  5
   5B4
  8
0
  6
CONTINUOUS
 62
   130
 10
-968.118294929595
 20
43.5167451694726
 30
0.0
 11
-968.118295784006
 21
37.9172756373882
 31
0.0
  0
LINE
  5
   5B5
  8
0
  6
CONTINUOUS
 62
   130
 10
-968.468294923635
 20
43.5167451694726
 30
0.0
 11
-968.468295778046
 21
37.9172756373882
 31
0.0
  0
LINE
  5
   5B6
  8
0
  6
CONTINUOUS
 62
   130
 10
-897.138299556264
 20
21.1172759234905
 30
0.0
 11
-897.138304683216
 21
-12.4827235043049
 31
0.0
  0
LINE
  5
   5B7
  8
0
  6
CONTINUOUS
 62
   130
 10
-969.238261264965
 20
21.1172759234905
 30
0.0
 11
-969.238256138013
 21
-12.4827235043049
 31
0.0
  0
LINE
  5
   5B8
  8
0
  6
CONTINUOUS
 62
   130
 10
-952.088298620472
 20
21.1172759234905
 30
0.0
 11
-952.088303747423
 21
-12.4827235043049
 31
0.0
  0
LINE
  5
   5B9
  8
0
  6
CONTINUOUS
 62
   130
 10
-952.998298604974
 20
21.1172759234905
 30
0.0
 11
-952.998303731926
 21
-12.4827235043049
 31
0.0
  0
LINE
  5
   5BA
  8
0
  6
CONTINUOUS
 62
   130
 10
-953.348298599014
 20
21.1172759234905
 30
0.0
 11
-953.348303725966
 21
-12.4827235043049
 31
0.0
  0
LINE
  5
   5BB
  8
0
  6
CONTINUOUS
 62
   130
 10
-954.258298583517
 20
21.1172759234905
 30
0.0
 11
-954.258303710469
 21
-12.4827235043049
 31
0.0
  0
LINE
  5
   5BC
  8
0
  6
CONTINUOUS
 62
   130
 10
-954.608298577556
 20
21.1172759234905
 30
0.0
 11
-954.608303704508
 21
-12.4827235043049
 31
0.0
  0
LINE
  5
   5BD
  8
0
  6
CONTINUOUS
 62
   130
 10
-954.258298583517
 20
21.1172759234905
 30
0.0
 11
-954.258303710469
 21
-12.4827235043049
 31
0.0
  0
LINE
  5
   5BE
  8
0
  6
CONTINUOUS
 62
   130
 10
-955.518298562059
 20
21.1172759234905
 30
0.0
 11
-955.518303689011
 21
-12.4827235043049
 31
0.0
  0
LINE
  5
   5BF
  8
0
  6
CONTINUOUS
 62
   130
 10
-955.868298556098
 20
21.1172759234905
 30
0.0
 11
-955.868303683051
 21
-12.4827235043049
 31
0.0
  0
LINE
  5
   5C0
  8
0
  6
CONTINUOUS
 62
   130
 10
-956.778298540601
 20
21.1172759234905
 30
0.0
 11
-956.778303667553
 21
-12.4827235043049
 31
0.0
  0
LINE
  5
   5C1
  8
0
  6
CONTINUOUS
 62
   130
 10
-957.128298534641
 20
21.1172759234905
 30
0.0
 11
-957.128303661593
 21
-12.4827235043049
 31
0.0
  0
LINE
  5
   5C2
  8
0
  6
CONTINUOUS
 62
   130
 10
-958.038298519144
 20
21.1172759234905
 30
0.0
 11
-958.038303646096
 21
-12.4827235043049
 31
0.0
  0
LINE
  5
   5C3
  8
0
  6
CONTINUOUS
 62
   130
 10
-958.388298513183
 20
21.1172759234905
 30
0.0
 11
-958.388303640135
 21
-12.4827235043049
 31
0.0
  0
LINE
  5
   5C4
  8
0
  6
CONTINUOUS
 62
   130
 10
-959.298298497686
 20
21.1172759234905
 30
0.0
 11
-959.298303624638
 21
-12.4827235043049
 31
0.0
  0
LINE
  5
   5C5
  8
0
  6
CONTINUOUS
 62
   130
 10
-959.648298491726
 20
21.1172759234905
 30
0.0
 11
-959.648303618678
 21
-12.4827235043049
 31
0.0
  0
LINE
  5
   5C6
  8
0
  6
CONTINUOUS
 62
   130
 10
-960.558298476228
 20
21.1172759234905
 30
0.0
 11
-960.55830360318
 21
-12.4827235043049
 31
0.0
  0
LINE
  5
   5C7
  8
0
  6
CONTINUOUS
 62
   130
 10
-960.908298470268
 20
21.1172759234905
 30
0.0
 11
-960.90830359722
 21
-12.4827235043049
 31
0.0
  0
LINE
  5
   5C8
  8
0
  6
CONTINUOUS
 62
   130
 10
-961.818298454771
 20
21.1172759234905
 30
0.0
 11
-961.818303581723
 21
-12.4827235043049
 31
0.0
  0
LINE
  5
   5C9
  8
0
  6
CONTINUOUS
 62
   130
 10
-962.16829844881
 20
21.1172759234905
 30
0.0
 11
-962.168303575762
 21
-12.4827235043049
 31
0.0
  0
LINE
  5
   5CA
  8
0
  6
CONTINUOUS
 62
   130
 10
-963.078298433313
 20
21.1172759234905
 30
0.0
 11
-963.078303560265
 21
-12.4827235043049
 31
0.0
  0
LINE
  5
   5CB
  8
0
  6
CONTINUOUS
 62
   130
 10
-963.428298427353
 20
21.1172759234905
 30
0.0
 11
-963.428303554305
 21
-12.4827235043049
 31
0.0
  0
LINE
  5
   5CC
  8
0
  6
CONTINUOUS
 62
   130
 10
-964.338298411855
 20
21.1172759234905
 30
0.0
 11
-964.338303538807
 21
-12.4827235043049
 31
0.0
  0
LINE
  5
   5CD
  8
0
  6
CONTINUOUS
 62
   130
 10
-964.688298405895
 20
21.1172759234905
 30
0.0
 11
-964.688303532847
 21
-12.4827235043049
 31
0.0
  0
LINE
  5
   5CE
  8
0
  6
CONTINUOUS
 62
   130
 10
-965.598298390398
 20
21.1172759234905
 30
0.0
 11
-965.59830351735
 21
-12.4827235043049
 31
0.0
  0
LINE
  5
   5CF
  8
0
  6
CONTINUOUS
 62
   130
 10
-965.948298384437
 20
21.1172759234905
 30
0.0
 11
-965.948303511389
 21
-12.4827235043049
 31
0.0
  0
LINE
  5
   5D0
  8
0
  6
CONTINUOUS
 62
   130
 10
-966.85829836894
 20
21.1172759234905
 30
0.0
 11
-966.858303495892
 21
-12.4827235043049
 31
0.0
  0
LINE
  5
   5D1
  8
0
  6
CONTINUOUS
 62
   130
 10
-967.20829836298
 20
21.1172759234905
 30
0.0
 11
-967.208303489932
 21
-12.4827235043049
 31
0.0
  0
LINE
  5
   5D2
  8
0
  6
CONTINUOUS
 62
   130
 10
-968.118298347482
 20
21.1172759234905
 30
0.0
 11
-968.118303474434
 21
-12.4827235043049
 31
0.0
  0
LINE
  5
   5D3
  8
0
  6
CONTINUOUS
 62
   130
 10
-968.468298341522
 20
21.1172759234905
 30
0.0
 11
-968.468303468474
 21
-12.4827235043049
 31
0.0
  0
LINE
  5
   5D4
  8
0
  6
CONTINUOUS
 62
   130
 10
-969.238253574537
 20
-29.2827232182026
 30
0.0
 11
-969.238253467647
 21
-29.983234768628
 31
0.0
  0
LINE
  5
   5D5
  8
0
  6
CONTINUOUS
 62
   130
 10
-897.138307246692
 20
-29.2827232182026
 30
0.0
 11
-897.138307353581
 21
-29.983234768628
 31
0.0
  0
INSERT
  5
   5D6
  8
0
  6
CONTINUOUS
 62
     3
  2
*UDIM19
 10
0.0
 20
0.0
 30
0.0
  0
INSERT
  5
   5D7
  8
0
  6
CONTINUOUS
 62
     3
  2
*UDIM20
 10
0.0
 20
0.0
 30
0.0
  0
INSERT
  5
   5D8
  8
0
  6
CONTINUOUS
 62
     3
  2
*UDIM21
 10
0.0
 20
0.0
 30
0.0
  0
INSERT
  5
   5D9
  8
0
  6
CONTINUOUS
 62
     3
  2
*UDIM22
 10
0.0
 20
0.0
 30
0.0
  0
INSERT
  5
   5DA
  8
0
  6
CONTINUOUS
 62
     3
  2
*UDIM23
 10
0.0
 20
0.0
 30
0.0
  0
TEXT
  5
   5DB
  8
0
  6
CONTINUOUS
 62
     2
 10
-992.617881300828
 20
2.58071022852305
 30
0.0
 40
2.99999997871263
  1
X
 50
359.999999844103
 41
0.983333365784751
 72
     2
 11
-990.417881215011
 21
4.08071021190442
 31
0.0
 73
     2
  0
TEXT
  5
   5DC
  8
0
  6
CONTINUOUS
 62
     2
 10
-881.600682266062
 20
2.71615465625737
 30
0.0
 40
2.99999997871263
  1
X
 50
359.999999844103
 41
0.983333365784751
 72
     1
 11
-880.500682221117
 21
4.21615464262621
 31
0.0
 73
     2
  0
TEXT
  5
   5DD
  8
0
  6
CONTINUOUS
 62
     2
 10
-925.501735042449
 20
-36.8253488150234
 30
0.0
 40
2.99999997871263
  1
Y
 50
359.999999844103
 41
0.983333365784751
 72
     1
 11
-924.401734997504
 21
-35.3253488286546
 31
0.0
 73
     2
  0
TEXT
  5
   5DE
  8
0
  6
CONTINUOUS
 62
     2
 10
-925.397593808871
 20
68.4502071008848
 30
0.0
 40
2.99999997871263
  1
Y
 50
359.999999844103
 41
0.983333365784751
 72
     1
 11
-924.297593763925
 21
69.9502070872536
 31
0.0
 73
     2
  0
INSERT
  5
   5DF
  8
0
  6
CONTINUOUS
 62
     7
  2
*UDIM24
 10
0.0
 20
0.0
 30
0.0
  0
INSERT
  5
   5E0
  8
0
  6
CONTINUOUS
 62
     7
  2
*UDIM25
 10
0.0
 20
0.0
 30
0.0
  0
INSERT
  5
   5E1
  8
0
  6
CONTINUOUS
 62
     3
  2
*UDIM26
 10
0.0
 20
0.0
 30
0.0
  0
LINE
  5
   5E2
  8
0
  6
DASHDOT
 62
   130
 10
-704.99440157337
 20
4.31677532196045
 30
0.0
 11
-625.231702510256
 21
4.31677532196045
 31
0.0
  0
LINE
  5
   5E3
  8
0
  6
DASHDOT
 62
   130
 10
-656.804785013199
 20
25.1653276268964
 30
0.0
 11
-656.804785013199
 21
-16.4849527306568
 31
0.0
  0
CIRCLE
  5
   5E4
  8
0
  6
CONTINUOUS
 62
   130
 10
-631.634784013033
 20
23.5167760848999
 30
0.0
 40
1.20000004768372
  0
CIRCLE
  5
   5E5
  8
0
  6
CONTINUOUS
 62
   130
 10
-696.734786599875
 20
23.5167760848999
 30
0.0
 40
1.20000004768372
  0
CIRCLE
  5
   5E6
  8
0
  6
CONTINUOUS
 62
   130
 10
-696.734786599875
 20
-14.883225440979
 30
0.0
 40
1.20000004768372
  0
CIRCLE
  5
   5E7
  8
0
  6
CONTINUOUS
 62
   130
 10
-631.634784013033
 20
-14.883225440979
 30
0.0
 40
1.20000004768372
  0
LINE
  5
   5E8
  8
0
  6
CONTINUOUS
 62
   130
 10
-631.004783987999
 20
19.3167759180069
 30
0.0
 11
-631.004783987999
 21
-10.683225274086
 31
0.0
  0
LINE
  5
   5E9
  8
0
  6
CONTINUOUS
 62
   130
 10
-697.604786634445
 20
19.3167759180069
 30
0.0
 11
-697.604786634445
 21
-10.683225274086
 31
0.0
  0
LINE
  5
   5EA
  8
0
  6
CONTINUOUS
 62
   130
 10
-696.704786598682
 20
20.2167759537697
 30
0.0
 11
-631.904784023762
 21
20.2167759537697
 31
0.0
  0
LINE
  5
   5EB
  8
0
  6
CONTINUOUS
 62
   130
 10
-696.704786598682
 20
-11.5832253098488
 30
0.0
 11
-631.904784023762
 21
-11.5832253098488
 31
0.0
  0
ARC
  5
   5EC
  8
0
  6
CONTINUOUS
 62
   130
 10
-631.904784023762
 20
19.3167759180069
 30
0.0
 40
0.900000035762787
 50
359.999999844103
 51
449.999999844103
  0
ARC
  5
   5ED
  8
0
  6
CONTINUOUS
 62
   130
 10
-631.904784023762
 20
-10.683225274086
 30
0.0
 40
0.900000035762787
 50
269.999999844103
 51
359.999999844103
  0
ARC
  5
   5EE
  8
0
  6
CONTINUOUS
 62
   130
 10
-696.704786598682
 20
-10.683225274086
 30
0.0
 40
0.900000035762787
 50
539.999999844103
 51
629.999999844103
  0
ARC
  5
   5EF
  8
0
  6
CONTINUOUS
 62
   130
 10
-696.704786598682
 20
19.3167759180069
 30
0.0
 40
0.900000035762787
 50
449.999999844103
 51
539.999999844103
  0
LINE
  5
   5F0
  8
0
  6
CONTINUOUS
 62
   130
 10
-701.204334644047
 20
27.5661084824788
 30
0.0
 11
-626.840440594357
 21
27.5661084824788
 31
0.0
  0
LINE
  5
   5F1
  8
0
  6
CONTINUOUS
 62
   130
 10
-701.204334644047
 20
-20.8315197458704
 30
0.0
 11
-626.840440594357
 21
-20.8315197458704
 31
0.0
  0
LINE
  5
   5F2
  8
0
  6
CONTINUOUS
 62
   130
 10
-626.840440594357
 20
27.5661084824788
 30
0.0
 11
-626.840440594357
 21
-20.8315197458704
 31
0.0
  0
LINE
  5
   5F3
  8
0
  6
CONTINUOUS
 62
   130
 10
-701.204334644047
 20
27.5661084824788
 30
0.0
 11
-701.204334644047
 21
-20.8315197458704
 31
0.0
  0
LINE
  5
   5F4
  8
0
  6
DASHDOT
 62
     7
 10
-631.634784013033
 20
28.9167762994766
 30
0.0
 11
-631.634784013033
 21
18.1167758703232
 31
0.0
  0
LINE
  5
   5F5
  8
0
  6
DASHDOT
 62
     7
 10
-637.03478422761
 20
23.5167760848999
 30
0.0
 11
-626.234783798456
 21
23.5167760848999
 31
0.0
  0
LINE
  5
   5F6
  8
0
  6
DASHDOT
 62
     7
 10
-696.734786599875
 20
28.9167762994766
 30
0.0
 11
-696.734786599875
 21
18.1167758703232
 31
0.0
  0
LINE
  5
   5F7
  8
0
  6
DASHDOT
 62
     7
 10
-702.134786814451
 20
23.5167760848999
 30
0.0
 11
-691.334786385298
 21
23.5167760848999
 31
0.0
  0
LINE
  5
   5F8
  8
0
  6
DASHDOT
 62
     7
 10
-696.734786599875
 20
-9.48322522640228
 30
0.0
 11
-696.734786599875
 21
-20.2832256555557
 31
0.0
  0
LINE
  5
   5F9
  8
0
  6
DASHDOT
 62
     7
 10
-702.134786814451
 20
-14.883225440979
 30
0.0
 11
-691.334786385298
 21
-14.883225440979
 31
0.0
  0
LINE
  5
   5FA
  8
0
  6
DASHDOT
 62
     7
 10
-631.634784013033
 20
-9.48322522640228
 30
0.0
 11
-631.634784013033
 21
-20.2832256555557
 31
0.0
  0
LINE
  5
   5FB
  8
0
  6
DASHDOT
 62
     7
 10
-637.03478422761
 20
-14.883225440979
 30
0.0
 11
-626.234783798456
 21
-14.883225440979
 31
0.0
  0
TEXT
  5
   5FC
  8
0
  6
CONTINUOUS
 62
     2
 10
-657.227986654668
 20
-33.0992493749013
 30
0.0
 40
2.99999994039535
  1
Y
 50
359.999999844103
 41
0.983333333333333
 72
     2
 11
-655.027986694304
 21
-31.5992494106786
 31
0.0
 73
     2
  0
TEXT
  5
   5FD
  8
0
  6
CONTINUOUS
 62
     2
 10
-624.215465506443
 20
3.08140527724329
 30
0.0
 40
2.99999994039535
  1
X
 50
359.999999844103
 41
0.983333333333333
 72
     2
 11
-622.015465546079
 21
4.58140524146602
 31
0.0
 73
     2
  0
TEXT
  5
   5FE
  8
0
  6
CONTINUOUS
 62
     2
 10
-706.87277698797
 20
2.59896959055822
 30
0.0
 40
2.99999994039535
  1
X
 50
359.999999844103
 41
0.983333333333333
 72
     2
 11
-704.672777027607
 21
4.09896955478094
 31
0.0
 73
     2
  0
TEXT
  5
   5FF
  8
0
  6
CONTINUOUS
 62
     2
 10
-657.382378903235
 20
35.0649867321394
 30
0.0
 40
2.99999994039535
  1
Y
 50
359.999999844103
 41
0.983333333333333
 72
     2
 11
-655.182378942871
 21
36.5649866963622
 31
0.0
 73
     2
  0
INSERT
  5
   600
  8
0
  6
CONTINUOUS
 62
     3
  2
*UDIM27
 10
0.0
 20
0.0
 30
0.0
  0
INSERT
  5
   601
  8
0
  6
CONTINUOUS
 62
     3
  2
*UDIM28
 10
0.0
 20
0.0
 30
0.0
  0
INSERT
  5
   602
  8
0
  6
CONTINUOUS
 62
     3
  2
*UDIM29
 10
0.0
 20
0.0
 30
0.0
  0
INSERT
  5
   603
  8
0
  6
CONTINUOUS
 62
     3
  2
*UDIM30
 10
0.0
 20
0.0
 30
0.0
  0
INSERT
  5
   604
  8
0
  6
CONTINUOUS
 62
     3
  2
*UDIM31
 10
0.0
 20
0.0
 30
0.0
  0
INSERT
  5
   605
  8
0
  6
CONTINUOUS
 62
     3
  2
*UDIM32
 10
0.0
 20
0.0
 30
0.0
  0
INSERT
  5
   606
  8
0
  6
CONTINUOUS
 62
     3
  2
*UDIM33
 10
0.0
 20
0.0
 30
0.0
  0
INSERT
  5
   607
  8
0
  6
CONTINUOUS
 62
     7
  2
*UDIM34
 10
0.0
 20
0.0
 30
0.0
  0
LINE
  5
   608
  8
0
  6
CONTINUOUS
 62
   130
 10
-770.0869140625
 20
53.3167841539205
 30
0.0
 11
-770.0869140625
 21
-27.8832334742166
 31
0.0
  0
LINE
  5
   609
  8
0
  6
CONTINUOUS
 62
   130
 10
-800.186902868748
 20
10.6167560400858
 30
0.0
 11
-800.186902868748
 21
-29.2832346439363
 31
0.0
  0
LINE
  5
   60A
  8
0
  6
CONTINUOUS
 62
   130
 10
-800.186906817867
 20
14.8167558398298
 30
0.0
 11
-798.086906777231
 21
14.1167558262843
 31
0.0
  0
LINE
  5
   60B
  8
0
  6
CONTINUOUS
 62
   130
 10
-798.086897900342
 20
11.3167576962213
 30
0.0
 11
-800.186897940978
 21
10.6167576826758
 31
0.0
  0
LINE
  5
   60C
  8
0
  6
CONTINUOUS
 62
   130
 10
-798.086902904511
 20
14.1167639493941
 30
0.0
 11
-798.086902904511
 21
11.3167639970778
 31
0.0
  0
LINE
  5
   60D
  8
0
  6
CONTINUOUS
 62
   130
 10
-800.536902862788
 20
-26.4832240104679
 30
0.0
 11
-800.186902868748
 21
-26.4832240104679
 31
0.0
  0
LINE
  5
   60E
  8
0
  6
CONTINUOUS
 62
   130
 10
-800.536902862788
 20
-18.0832348346712
 30
0.0
 11
-800.186902868748
 21
-18.0832348346712
 31
0.0
  0
LINE
  5
   60F
  8
0
  6
CONTINUOUS
 62
   130
 10
-800.536902862788
 20
-18.0832348346712
 30
0.0
 11
-800.536902862788
 21
-26.4832240104679
 31
0.0
  0
LINE
  5
   610
  8
0
  6
CONTINUOUS
 62
   130
 10
-800.536902862788
 20
51.9167532920837
 30
0.0
 11
-800.186902868748
 21
51.9167532920837
 31
0.0
  0
LINE
  5
   611
  8
0
  6
CONTINUOUS
 62
   130
 10
-800.536902862788
 20
43.516764116287
 30
0.0
 11
-800.186902868748
 21
43.516764116287
 31
0.0
  0
LINE
  5
   612
  8
0
  6
CONTINUOUS
 62
   130
 10
-800.536902862788
 20
-18.083224153519
 30
0.0
 11
-800.186902868748
 21
-18.083224153519
 31
0.0
  0
LINE
  5
   613
  8
0
  6
CONTINUOUS
 62
   130
 10
-767.986914098263
 20
10.2667646825312
 30
0.0
 11
-767.986914098263
 21
-1.98323510885257
 31
0.0
  0
LINE
  5
   614
  8
0
  6
CONTINUOUS
 62
   130
 10
-737.058832622538
 20
1.27210237287852
 30
0.0
 11
-736.89896777982
 21
1.19961939358158
 31
0.0
  0
LINE
  5
   615
  8
0
  6
CONTINUOUS
 62
   130
 10
-736.89897532902
 20
1.19962841510763
 30
0.0
 11
-736.794406824139
 21
1.05865118723278
 31
0.0
  0
LINE
  5
   616
  8
0
  6
CONTINUOUS
 62
   130
 10
-736.794408864466
 20
1.05865647620088
 30
0.0
 11
-736.771433703598
 21
0.884640448688377
 31
0.0
  0
LINE
  5
   617
  8
0
  6
CONTINUOUS
 62
   130
 10
-736.771441772454
 20
0.884646163236755
 30
0.0
 11
-737.029455691165
 21
-1.2166685244784
 31
0.0
  0
LINE
  5
   618
  8
0
  6
CONTINUOUS
 62
   130
 10
-737.029465555207
 20
-1.21667791465997
 30
0.0
 11
-737.097333590296
 21
-1.38465906473803
 31
0.0
  0
LINE
  5
   619
  8
0
  6
CONTINUOUS
 62
   130
 10
-737.097340854585
 20
-1.38465057528729
 30
0.0
 11
-737.240105125492
 21
-1.4961918290937
 31
0.0
  0
LINE
  5
   61A
  8
0
  6
CONTINUOUS
 62
   130
 10
-737.240013842656
 20
-1.49618772379052
 30
0.0
 11
-737.419425257029
 21
-1.52140260080318
 31
0.0
  0
LINE
  5
   61B
  8
0
  6
CONTINUOUS
 62
   130
 10
-770.0869140625
 20
10.2667646825312
 30
0.0
 11
-767.986914098263
 21
10.2667646825312
 31
0.0
  0
LINE
  5
   61C
  8
0
  6
CONTINUOUS
 62
   130
 10
-770.0869140625
 20
-1.98323510885257
 30
0.0
 11
-767.986914098263
 21
-1.98323510885257
 31
0.0
  0
LINE
  5
   61D
  8
0
  6
CONTINUOUS
 62
   130
 10
-770.0869140625
 20
9.91676402091963
 30
0.0
 11
-767.986914098263
 21
9.91676402091963
 31
0.0
  0
LINE
  5
   61E
  8
0
  6
CONTINUOUS
 62
   130
 10
-770.0869140625
 20
-1.63323511481303
 30
0.0
 11
-767.986914098263
 21
-1.63323511481303
 31
0.0
  0
LINE
  5
   61F
  8
0
  6
CONTINUOUS
 62
   130
 10
-747.686940786274
 20
3.12088341127759
 30
0.0
 11
-737.058869941469
 21
1.27212357292449
 31
0.0
  0
LINE
  5
   620
  8
0
  6
CONTINUOUS
 62
   130
 10
-737.058832622538
 20
1.27210237287852
 30
0.0
 11
-736.89896777982
 21
1.19961939358158
 31
0.0
  0
LINE
  5
   621
  8
0
  6
CONTINUOUS
 62
   130
 10
-736.89897532902
 20
1.19962841510763
 30
0.0
 11
-736.794406824139
 21
1.05865118723278
 31
0.0
  0
LINE
  5
   622
  8
0
  6
CONTINUOUS
 62
   130
 10
-736.794408864466
 20
1.05865647620088
 30
0.0
 11
-736.771433703598
 21
0.884640448688377
 31
0.0
  0
LINE
  5
   623
  8
0
  6
CONTINUOUS
 62
   130
 10
-736.771441772454
 20
0.884646163236755
 30
0.0
 11
-737.029455691165
 21
-1.2166685244784
 31
0.0
  0
LINE
  5
   624
  8
0
  6
CONTINUOUS
 62
   130
 10
-737.029465555207
 20
-1.21667791465997
 30
0.0
 11
-737.097333590296
 21
-1.38465906473803
 31
0.0
  0
LINE
  5
   625
  8
0
  6
CONTINUOUS
 62
   130
 10
-737.097340854585
 20
-1.38465057528729
 30
0.0
 11
-737.240105125492
 21
-1.4961918290937
 31
0.0
  0
LINE
  5
   626
  8
0
  6
CONTINUOUS
 62
   130
 10
-737.240013842656
 20
-1.49618772379052
 30
0.0
 11
-737.419425257029
 21
-1.52140260080318
 31
0.0
  0
LINE
  5
   627
  8
0
  6
CONTINUOUS
 62
   130
 10
-747.686940786274
 20
-0.260723215609486
 30
0.0
 11
-737.419495125366
 21
-1.52140731738149
 31
0.0
  0
ARC
  5
   628
  8
0
  6
CONTINUOUS
 62
   130
 10
-773.590456150089
 20
2.56713824736326
 30
0.0
 40
36.7512767740806
 50
341.662084871553
 51
365.929678541859
  0
LINE
  5
   629
  8
0
  6
DOT
 62
   130
 10
-805.926902770996
 20
48.4167533516884
 30
0.0
 11
-802.286902832985
 21
48.4167533516884
 31
0.0
  0
LINE
  5
   62A
  8
0
  6
DOT
 62
   130
 10
-805.926902770996
 20
-22.9832347512247
 30
0.0
 11
-802.286902832985
 21
-22.9832347512247
 31
0.0
  0
LINE
  5
   62B
  8
0
  6
CONTINUOUS
 62
   130
 10
-800.186902868748
 20
56.1167746007543
 30
0.0
 11
-800.186902868748
 21
14.8167545234567
 31
0.0
  0
LINE
  5
   62C
  8
0
  6
CONTINUOUS
 62
   130
 10
-814.798347588894
 20
51.9318596183411
 30
0.0
 11
-800.536902862788
 21
51.9318596183411
 31
0.0
  0
LINE
  5
   62D
  8
0
  6
CONTINUOUS
 62
   130
 10
-814.798347588894
 20
44.9318597375504
 30
0.0
 11
-800.536902862788
 21
44.9318597375504
 31
0.0
  0
LINE
  5
   62E
  8
0
  6
CONTINUOUS
 62
   130
 10
-814.798347588894
 20
54.0318595825783
 30
0.0
 11
-814.798347588894
 21
42.8318597733131
 31
0.0
  0
LINE
  5
   62F
  8
0
  6
CONTINUOUS
 62
   130
 10
-818.998347517369
 20
54.7318595706573
 30
0.0
 11
-818.998347517369
 21
42.1318597852341
 31
0.0
  0
LINE
  5
   630
  8
0
  6
CONTINUOUS
 62
   130
 10
-818.998347517369
 20
54.0318595825783
 30
0.0
 11
-814.798347588894
 21
54.0318595825783
 31
0.0
  0
LINE
  5
   631
  8
0
  6
CONTINUOUS
 62
   130
 10
-818.998347517369
 20
42.8318597733131
 30
0.0
 11
-814.798347588894
 21
42.8318597733131
 31
0.0
  0
LINE
  5
   632
  8
0
  6
CONTINUOUS
 62
   130
 10
-818.998347517369
 20
54.7318595706573
 30
0.0
 11
-818.998347517369
 21
42.1318597852341
 31
0.0
  0
LINE
  5
   633
  8
0
  6
CONTINUOUS
 62
   130
 10
-820.398347493527
 20
54.7318595706573
 30
0.0
 11
-820.398347493527
 21
42.1318597852341
 31
0.0
  0
LINE
  5
   634
  8
0
  6
CONTINUOUS
 62
   130
 10
-822.498347457764
 20
54.7318595706573
 30
0.0
 11
-822.498347457764
 21
42.1318597852341
 31
0.0
  0
LINE
  5
   635
  8
0
  6
CONTINUOUS
 62
   130
 10
-823.898347433922
 20
54.7318595706573
 30
0.0
 11
-823.898347433922
 21
42.1318597852341
 31
0.0
  0
LINE
  5
   636
  8
0
  6
CONTINUOUS
 62
   130
 10
-828.098347362396
 20
54.0318595825783
 30
0.0
 11
-823.898347433922
 21
54.0318595825783
 31
0.0
  0
LINE
  5
   637
  8
0
  6
CONTINUOUS
 62
   130
 10
-828.098347362396
 20
54.0318595825783
 30
0.0
 11
-828.098347362396
 21
42.8318597733131
 31
0.0
  0
LINE
  5
   638
  8
0
  6
CONTINUOUS
 62
   130
 10
-828.098347362396
 20
42.8318597733131
 30
0.0
 11
-823.898347433922
 21
42.8318597733131
 31
0.0
  0
LINE
  5
   639
  8
0
  6
CONTINUOUS
 62
   130
 10
-829.148347344515
 20
51.231859630262
 30
0.0
 11
-828.098347362396
 21
51.231859630262
 31
0.0
  0
LINE
  5
   63A
  8
0
  6
CONTINUOUS
 62
   130
 10
-829.498347338555
 20
50.8818596362225
 30
0.0
 11
-828.098347362396
 21
50.8818596362225
 31
0.0
  0
LINE
  5
   63B
  8
0
  6
CONTINUOUS
 62
   130
 10
-829.148347344515
 20
51.231859630262
 30
0.0
 11
-829.148347344515
 21
45.6318597256294
 31
0.0
  0
LINE
  5
   63C
  8
0
  6
CONTINUOUS
 62
   130
 10
-829.498347338555
 20
50.8818596362225
 30
0.0
 11
-829.498347338555
 21
45.981859719669
 31
0.0
  0
LINE
  5
   63D
  8
0
  6
CONTINUOUS
 62
   130
 10
-829.148347344515
 20
51.231859630262
 30
0.0
 11
-829.498347338555
 21
50.8818596362225
 31
0.0
  0
LINE
  5
   63E
  8
0
  6
CONTINUOUS
 62
   130
 10
-829.498347338554
 20
45.9818597196689
 30
0.0
 11
-829.148347344515
 21
45.6318597256293
 31
0.0
  0
LINE
  5
   63F
  8
0
  6
CONTINUOUS
 62
   130
 10
-829.148347344515
 20
45.6318597256294
 30
0.0
 11
-828.098347362396
 21
45.6318597256294
 31
0.0
  0
LINE
  5
   640
  8
0
  6
CONTINUOUS
 62
   130
 10
-829.498347338555
 20
45.981859719669
 30
0.0
 11
-828.098347362396
 21
45.981859719669
 31
0.0
  0
LINE
  5
   641
  8
0
  6
CONTINUOUS
 62
   130
 10
-822.498347457764
 20
50.8818596362225
 30
0.0
 11
-820.398347493527
 21
50.8818596362225
 31
0.0
  0
LINE
  5
   642
  8
0
  6
CONTINUOUS
 62
   130
 10
-820.398347493527
 20
54.7318595706573
 30
0.0
 11
-818.998347517369
 21
54.7318595706573
 31
0.0
  0
LINE
  5
   643
  8
0
  6
CONTINUOUS
 62
   130
 10
-823.898347433922
 20
54.7318595706573
 30
0.0
 11
-822.498347457764
 21
54.7318595706573
 31
0.0
  0
LINE
  5
   644
  8
0
  6
CONTINUOUS
 62
   130
 10
-820.398347493527
 20
42.1318597852341
 30
0.0
 11
-818.998347517369
 21
42.1318597852341
 31
0.0
  0
LINE
  5
   645
  8
0
  6
CONTINUOUS
 62
   130
 10
-823.898347433922
 20
42.1318597852341
 30
0.0
 11
-822.498347457764
 21
42.1318597852341
 31
0.0
  0
LINE
  5
   646
  8
0
  6
CONTINUOUS
 62
   130
 10
-822.498347457764
 20
51.231859630262
 30
0.0
 11
-820.398347493527
 21
51.231859630262
 31
0.0
  0
LINE
  5
   647
  8
0
  6
CONTINUOUS
 62
   130
 10
-822.498347457764
 20
50.8818596362225
 30
0.0
 11
-820.398347493527
 21
50.8818596362225
 31
0.0
  0
LINE
  5
   648
  8
0
  6
CONTINUOUS
 62
   130
 10
-822.498347457764
 20
45.981859719669
 30
0.0
 11
-820.398347493527
 21
45.981859719669
 31
0.0
  0
LINE
  5
   649
  8
0
  6
CONTINUOUS
 62
   130
 10
-822.498347457764
 20
45.6318597256294
 30
0.0
 11
-820.398347493527
 21
45.6318597256294
 31
0.0
  0
LINE
  5
   64A
  8
0
  6
CONTINUOUS
 62
   130
 10
-828.098347362396
 20
50.936753308773
 30
0.0
 11
-823.898347433922
 21
50.936753308773
 31
0.0
  0
LINE
  5
   64B
  8
0
  6
CONTINUOUS
 62
   130
 10
-818.998347517369
 20
50.936753308773
 30
0.0
 11
-814.798347588894
 21
50.936753308773
 31
0.0
  0
LINE
  5
   64C
  8
0
  6
CONTINUOUS
 62
   130
 10
-818.998347517369
 20
46.0367533922195
 30
0.0
 11
-814.798347588894
 21
46.0367533922195
 31
0.0
  0
LINE
  5
   64D
  8
0
  6
CONTINUOUS
 62
   130
 10
-828.098347362396
 20
46.0367533922195
 30
0.0
 11
-823.898347433922
 21
46.0367533922195
 31
0.0
  0
LINE
  5
   64E
  8
0
  6
CONTINUOUS
 62
   130
 10
-837.898347195503
 20
51.9318596183411
 30
0.0
 11
-828.098347362396
 21
51.9318596183411
 31
0.0
  0
LINE
  5
   64F
  8
0
  6
CONTINUOUS
 62
   130
 10
-837.898347195503
 20
44.9318597375504
 30
0.0
 11
-828.098347362396
 21
44.9318597375504
 31
0.0
  0
LINE
  5
   650
  8
0
  6
CONTINUOUS
 62
   130
 10
-837.898347195503
 20
54.0318595825783
 30
0.0
 11
-837.898347195503
 21
42.8318597733131
 31
0.0
  0
LINE
  5
   651
  8
0
  6
CONTINUOUS
 62
   130
 10
-842.098347123978
 20
54.7318595706573
 30
0.0
 11
-842.098347123978
 21
42.1318597852341
 31
0.0
  0
LINE
  5
   652
  8
0
  6
CONTINUOUS
 62
   130
 10
-842.098347123978
 20
54.0318595825783
 30
0.0
 11
-837.898347195503
 21
54.0318595825783
 31
0.0
  0
LINE
  5
   653
  8
0
  6
CONTINUOUS
 62
   130
 10
-842.098347123978
 20
42.8318597733131
 30
0.0
 11
-837.898347195503
 21
42.8318597733131
 31
0.0
  0
LINE
  5
   654
  8
0
  6
CONTINUOUS
 62
   130
 10
-843.498347100136
 20
54.7318595706573
 30
0.0
 11
-843.498347100136
 21
42.1318597852341
 31
0.0
  0
LINE
  5
   655
  8
0
  6
CONTINUOUS
 62
   130
 10
-845.598347064373
 20
54.7318595706573
 30
0.0
 11
-845.598347064373
 21
42.1318597852341
 31
0.0
  0
LINE
  5
   656
  8
0
  6
CONTINUOUS
 62
   130
 10
-846.998347040531
 20
54.7318595706573
 30
0.0
 11
-846.998347040531
 21
42.1318597852341
 31
0.0
  0
LINE
  5
   657
  8
0
  6
CONTINUOUS
 62
   130
 10
-851.198346969006
 20
54.0318595825783
 30
0.0
 11
-846.998347040531
 21
54.0318595825783
 31
0.0
  0
LINE
  5
   658
  8
0
  6
CONTINUOUS
 62
   130
 10
-851.198346969006
 20
54.0318595825783
 30
0.0
 11
-851.198346969006
 21
42.8318597733131
 31
0.0
  0
LINE
  5
   659
  8
0
  6
CONTINUOUS
 62
   130
 10
-851.198346969006
 20
42.8318597733131
 30
0.0
 11
-846.998347040531
 21
42.8318597733131
 31
0.0
  0
LINE
  5
   65A
  8
0
  6
CONTINUOUS
 62
   130
 10
-852.248346951124
 20
51.231859630262
 30
0.0
 11
-851.198346969006
 21
51.231859630262
 31
0.0
  0
LINE
  5
   65B
  8
0
  6
CONTINUOUS
 62
   130
 10
-852.598346945164
 20
50.8818596362225
 30
0.0
 11
-851.198346969006
 21
50.8818596362225
 31
0.0
  0
LINE
  5
   65C
  8
0
  6
CONTINUOUS
 62
   130
 10
-852.248346951124
 20
51.231859630262
 30
0.0
 11
-852.248346951124
 21
45.6318597256294
 31
0.0
  0
LINE
  5
   65D
  8
0
  6
CONTINUOUS
 62
   130
 10
-852.598346945164
 20
50.8818596362225
 30
0.0
 11
-852.598346945164
 21
45.981859719669
 31
0.0
  0
LINE
  5
   65E
  8
0
  6
CONTINUOUS
 62
   130
 10
-852.248346951124
 20
51.2318596302621
 30
0.0
 11
-852.598346945164
 21
50.8818596362225
 31
0.0
  0
LINE
  5
   65F
  8
0
  6
CONTINUOUS
 62
   130
 10
-852.598346945164
 20
45.9818597196687
 30
0.0
 11
-852.248346951124
 21
45.6318597256292
 31
0.0
  0
LINE
  5
   660
  8
0
  6
CONTINUOUS
 62
   130
 10
-852.248346951124
 20
45.6318597256294
 30
0.0
 11
-851.198346969006
 21
45.6318597256294
 31
0.0
  0
LINE
  5
   661
  8
0
  6
CONTINUOUS
 62
   130
 10
-852.598346945164
 20
45.981859719669
 30
0.0
 11
-851.198346969006
 21
45.981859719669
 31
0.0
  0
LINE
  5
   662
  8
0
  6
CONTINUOUS
 62
   130
 10
-845.598347064373
 20
50.8818596362225
 30
0.0
 11
-843.498347100136
 21
50.8818596362225
 31
0.0
  0
LINE
  5
   663
  8
0
  6
CONTINUOUS
 62
   130
 10
-843.498347100136
 20
54.7318595706573
 30
0.0
 11
-842.098347123978
 21
54.7318595706573
 31
0.0
  0
LINE
  5
   664
  8
0
  6
CONTINUOUS
 62
   130
 10
-846.998347040531
 20
54.7318595706573
 30
0.0
 11
-845.598347064373
 21
54.7318595706573
 31
0.0
  0
LINE
  5
   665
  8
0
  6
CONTINUOUS
 62
   130
 10
-843.498347100136
 20
42.1318597852341
 30
0.0
 11
-842.098347123978
 21
42.1318597852341
 31
0.0
  0
LINE
  5
   666
  8
0
  6
CONTINUOUS
 62
   130
 10
-846.998347040531
 20
42.1318597852341
 30
0.0
 11
-845.598347064373
 21
42.1318597852341
 31
0.0
  0
LINE
  5
   667
  8
0
  6
CONTINUOUS
 62
   130
 10
-845.598347064373
 20
51.231859630262
 30
0.0
 11
-843.498347100136
 21
51.231859630262
 31
0.0
  0
LINE
  5
   668
  8
0
  6
CONTINUOUS
 62
   130
 10
-845.598347064373
 20
45.981859719669
 30
0.0
 11
-843.498347100136
 21
45.981859719669
 31
0.0
  0
LINE
  5
   669
  8
0
  6
CONTINUOUS
 62
   130
 10
-845.598347064373
 20
45.6318597256294
 30
0.0
 11
-843.498347100136
 21
45.6318597256294
 31
0.0
  0
LINE
  5
   66A
  8
0
  6
CONTINUOUS
 62
   130
 10
-851.198346969006
 20
50.936753308773
 30
0.0
 11
-846.998347040531
 21
50.936753308773
 31
0.0
  0
LINE
  5
   66B
  8
0
  6
CONTINUOUS
 62
   130
 10
-842.098347123978
 20
50.936753308773
 30
0.0
 11
-837.898347195503
 21
50.936753308773
 31
0.0
  0
LINE
  5
   66C
  8
0
  6
CONTINUOUS
 62
   130
 10
-842.098347123978
 20
46.0367533922195
 30
0.0
 11
-837.898347195503
 21
46.0367533922195
 31
0.0
  0
LINE
  5
   66D
  8
0
  6
CONTINUOUS
 62
   130
 10
-851.198346969006
 20
46.0367533922195
 30
0.0
 11
-846.998347040531
 21
46.0367533922195
 31
0.0
  0
LINE
  5
   66E
  8
0
  6
CONTINUOUS
 62
   130
 10
-814.798347588894
 20
-26.4983303367303
 30
0.0
 11
-800.536902862788
 21
-26.4983303367303
 31
0.0
  0
LINE
  5
   66F
  8
0
  6
CONTINUOUS
 62
   130
 10
-814.798347588894
 20
-19.4983304559396
 30
0.0
 11
-800.536902862788
 21
-19.4983304559396
 31
0.0
  0
LINE
  5
   670
  8
0
  6
CONTINUOUS
 62
   130
 10
-814.798347588894
 20
-17.3983304917024
 30
0.0
 11
-814.798347588894
 21
-28.5983303009675
 31
0.0
  0
LINE
  5
   671
  8
0
  6
CONTINUOUS
 62
   130
 10
-818.998347517369
 20
-16.6983305036233
 30
0.0
 11
-818.998347517369
 21
-29.2983302890466
 31
0.0
  0
LINE
  5
   672
  8
0
  6
CONTINUOUS
 62
   130
 10
-818.998347517369
 20
-28.5983303009675
 30
0.0
 11
-814.798347588894
 21
-28.5983303009675
 31
0.0
  0
LINE
  5
   673
  8
0
  6
CONTINUOUS
 62
   130
 10
-818.998347517369
 20
-17.3983304917024
 30
0.0
 11
-814.798347588894
 21
-17.3983304917024
 31
0.0
  0
LINE
  5
   674
  8
0
  6
CONTINUOUS
 62
   130
 10
-820.398347493527
 20
-16.6983305036233
 30
0.0
 11
-820.398347493527
 21
-29.2983302890466
 31
0.0
  0
LINE
  5
   675
  8
0
  6
CONTINUOUS
 62
   130
 10
-822.498347457764
 20
-16.6983305036233
 30
0.0
 11
-822.498347457764
 21
-29.2983302890466
 31
0.0
  0
LINE
  5
   676
  8
0
  6
CONTINUOUS
 62
   130
 10
-823.898347433922
 20
-16.6983305036233
 30
0.0
 11
-823.898347433922
 21
-29.2983302890466
 31
0.0
  0
LINE
  5
   677
  8
0
  6
CONTINUOUS
 62
   130
 10
-828.098347362396
 20
-28.5983303009675
 30
0.0
 11
-823.898347433922
 21
-28.5983303009675
 31
0.0
  0
LINE
  5
   678
  8
0
  6
CONTINUOUS
 62
   130
 10
-828.098347362396
 20
-17.3983304917024
 30
0.0
 11
-828.098347362396
 21
-28.5983303009675
 31
0.0
  0
LINE
  5
   679
  8
0
  6
CONTINUOUS
 62
   130
 10
-828.098347362396
 20
-17.3983304917024
 30
0.0
 11
-823.898347433922
 21
-17.3983304917024
 31
0.0
  0
LINE
  5
   67A
  8
0
  6
CONTINUOUS
 62
   130
 10
-829.148347344515
 20
-25.7983303486513
 30
0.0
 11
-828.098347362396
 21
-25.7983303486513
 31
0.0
  0
LINE
  5
   67B
  8
0
  6
CONTINUOUS
 62
   130
 10
-829.498347338555
 20
-25.4483303546117
 30
0.0
 11
-828.098347362396
 21
-25.4483303546117
 31
0.0
  0
LINE
  5
   67C
  8
0
  6
CONTINUOUS
 62
   130
 10
-829.148347344515
 20
-20.1983304440187
 30
0.0
 11
-829.148347344515
 21
-25.7983303486513
 31
0.0
  0
LINE
  5
   67D
  8
0
  6
CONTINUOUS
 62
   130
 10
-829.498347338554
 20
-25.4483303546118
 30
0.0
 11
-829.148347344515
 21
-25.7983303486513
 31
0.0
  0
LINE
  5
   67E
  8
0
  6
CONTINUOUS
 62
   130
 10
-829.148347344515
 20
-20.1983304440186
 30
0.0
 11
-829.498347338554
 21
-20.5483304380582
 31
0.0
  0
LINE
  5
   67F
  8
0
  6
CONTINUOUS
 62
   130
 10
-829.148347344515
 20
-20.1983304440187
 30
0.0
 11
-828.098347362396
 21
-20.1983304440187
 31
0.0
  0
LINE
  5
   680
  8
0
  6
CONTINUOUS
 62
   130
 10
-829.498347338555
 20
-20.5483304380582
 30
0.0
 11
-828.098347362396
 21
-20.5483304380582
 31
0.0
  0
LINE
  5
   681
  8
0
  6
CONTINUOUS
 62
   130
 10
-822.498347457764
 20
-25.4483303546117
 30
0.0
 11
-820.398347493527
 21
-25.4483303546117
 31
0.0
  0
LINE
  5
   682
  8
0
  6
CONTINUOUS
 62
   130
 10
-820.398347493527
 20
-29.2983302890466
 30
0.0
 11
-818.998347517369
 21
-29.2983302890466
 31
0.0
  0
LINE
  5
   683
  8
0
  6
CONTINUOUS
 62
   130
 10
-823.898347433922
 20
-29.2983302890466
 30
0.0
 11
-822.498347457764
 21
-29.2983302890466
 31
0.0
  0
LINE
  5
   684
  8
0
  6
CONTINUOUS
 62
   130
 10
-820.398347493527
 20
-16.6983305036233
 30
0.0
 11
-818.998347517369
 21
-16.6983305036233
 31
0.0
  0
LINE
  5
   685
  8
0
  6
CONTINUOUS
 62
   130
 10
-823.898347433922
 20
-16.6983305036233
 30
0.0
 11
-822.498347457764
 21
-16.6983305036233
 31
0.0
  0
LINE
  5
   686
  8
0
  6
CONTINUOUS
 62
   130
 10
-822.498347457764
 20
-25.7983303486513
 30
0.0
 11
-820.398347493527
 21
-25.7983303486513
 31
0.0
  0
LINE
  5
   687
  8
0
  6
CONTINUOUS
 62
   130
 10
-822.498347457764
 20
-20.5483304380582
 30
0.0
 11
-820.398347493527
 21
-20.5483304380582
 31
0.0
  0
LINE
  5
   688
  8
0
  6
CONTINUOUS
 62
   130
 10
-822.498347457764
 20
-20.1983304440187
 30
0.0
 11
-820.398347493527
 21
-20.1983304440187
 31
0.0
  0
LINE
  5
   689
  8
0
  6
CONTINUOUS
 62
   130
 10
-829.498347338555
 20
-25.5032240271623
 30
0.0
 11
-823.898347433922
 21
-25.5032240271623
 31
0.0
  0
LINE
  5
   68A
  8
0
  6
CONTINUOUS
 62
   130
 10
-818.998347517369
 20
-25.5032240271623
 30
0.0
 11
-814.798347588894
 21
-25.5032240271623
 31
0.0
  0
LINE
  5
   68B
  8
0
  6
CONTINUOUS
 62
   130
 10
-818.998347517369
 20
-20.6032241106088
 30
0.0
 11
-814.798347588894
 21
-20.6032241106088
 31
0.0
  0
LINE
  5
   68C
  8
0
  6
CONTINUOUS
 62
   130
 10
-828.098347362396
 20
-20.6032241106088
 30
0.0
 11
-823.898347433922
 21
-20.6032241106088
 31
0.0
  0
LINE
  5
   68D
  8
0
  6
CONTINUOUS
 62
   130
 10
-837.898347195503
 20
-26.4983303367303
 30
0.0
 11
-828.098347362396
 21
-26.4983303367303
 31
0.0
  0
LINE
  5
   68E
  8
0
  6
CONTINUOUS
 62
   130
 10
-837.898347195503
 20
-19.4983304559396
 30
0.0
 11
-828.098347362396
 21
-19.4983304559396
 31
0.0
  0
LINE
  5
   68F
  8
0
  6
CONTINUOUS
 62
   130
 10
-837.898347195503
 20
-17.3983304917024
 30
0.0
 11
-837.898347195503
 21
-28.5983303009675
 31
0.0
  0
LINE
  5
   690
  8
0
  6
CONTINUOUS
 62
   130
 10
-842.098347123978
 20
-16.6983305036233
 30
0.0
 11
-842.098347123978
 21
-29.2983302890466
 31
0.0
  0
LINE
  5
   691
  8
0
  6
CONTINUOUS
 62
   130
 10
-842.098347123978
 20
-28.5983303009675
 30
0.0
 11
-837.898347195503
 21
-28.5983303009675
 31
0.0
  0
LINE
  5
   692
  8
0
  6
CONTINUOUS
 62
   130
 10
-842.098347123978
 20
-17.3983304917024
 30
0.0
 11
-837.898347195503
 21
-17.3983304917024
 31
0.0
  0
LINE
  5
   693
  8
0
  6
CONTINUOUS
 62
   130
 10
-843.498347100136
 20
-16.6983305036233
 30
0.0
 11
-843.498347100136
 21
-29.2983302890466
 31
0.0
  0
LINE
  5
   694
  8
0
  6
CONTINUOUS
 62
   130
 10
-845.598347064373
 20
-16.6983305036233
 30
0.0
 11
-845.598347064373
 21
-29.2983302890466
 31
0.0
  0
LINE
  5
   695
  8
0
  6
CONTINUOUS
 62
   130
 10
-846.998347040531
 20
-16.6983305036233
 30
0.0
 11
-846.998347040531
 21
-29.2983302890466
 31
0.0
  0
LINE
  5
   696
  8
0
  6
CONTINUOUS
 62
   130
 10
-851.198346969006
 20
-28.5983303009675
 30
0.0
 11
-846.998347040531
 21
-28.5983303009675
 31
0.0
  0
LINE
  5
   697
  8
0
  6
CONTINUOUS
 62
   130
 10
-851.198346969006
 20
-17.3983304917024
 30
0.0
 11
-851.198346969006
 21
-28.5983303009675
 31
0.0
  0
LINE
  5
   698
  8
0
  6
CONTINUOUS
 62
   130
 10
-851.198346969006
 20
-17.3983304917024
 30
0.0
 11
-846.998347040531
 21
-17.3983304917024
 31
0.0
  0
LINE
  5
   699
  8
0
  6
CONTINUOUS
 62
   130
 10
-852.248346951124
 20
-25.7983303486513
 30
0.0
 11
-851.198346969006
 21
-25.7983303486513
 31
0.0
  0
LINE
  5
   69A
  8
0
  6
CONTINUOUS
 62
   130
 10
-852.598346945164
 20
-25.4483303546117
 30
0.0
 11
-851.198346969006
 21
-25.4483303546117
 31
0.0
  0
LINE
  5
   69B
  8
0
  6
CONTINUOUS
 62
   130
 10
-852.248346951124
 20
-20.1983304440187
 30
0.0
 11
-852.248346951124
 21
-25.7983303486513
 31
0.0
  0
LINE
  5
   69C
  8
0
  6
CONTINUOUS
 62
   130
 10
-852.598346945164
 20
-20.5483304380582
 30
0.0
 11
-852.598346945164
 21
-25.4483303546117
 31
0.0
  0
LINE
  5
   69D
  8
0
  6
CONTINUOUS
 62
   130
 10
-852.598346945164
 20
-25.4483303546118
 30
0.0
 11
-852.248346951124
 21
-25.7983303486513
 31
0.0
  0
LINE
  5
   69E
  8
0
  6
CONTINUOUS
 62
   130
 10
-852.248346951124
 20
-20.1983304440186
 30
0.0
 11
-852.598346945164
 21
-20.5483304380581
 31
0.0
  0
LINE
  5
   69F
  8
0
  6
CONTINUOUS
 62
   130
 10
-852.248346951124
 20
-20.1983304440187
 30
0.0
 11
-851.198346969006
 21
-20.1983304440187
 31
0.0
  0
LINE
  5
   6A0
  8
0
  6
CONTINUOUS
 62
   130
 10
-852.598346945164
 20
-20.5483304380582
 30
0.0
 11
-851.198346969006
 21
-20.5483304380582
 31
0.0
  0
LINE
  5
   6A1
  8
0
  6
CONTINUOUS
 62
   130
 10
-845.598347064373
 20
-25.4483303546117
 30
0.0
 11
-843.498347100136
 21
-25.4483303546117
 31
0.0
  0
LINE
  5
   6A2
  8
0
  6
CONTINUOUS
 62
   130
 10
-843.498347100136
 20
-29.2983302890466
 30
0.0
 11
-842.098347123978
 21
-29.2983302890466
 31
0.0
  0
LINE
  5
   6A3
  8
0
  6
CONTINUOUS
 62
   130
 10
-846.998347040531
 20
-29.2983302890466
 30
0.0
 11
-845.598347064373
 21
-29.2983302890466
 31
0.0
  0
LINE
  5
   6A4
  8
0
  6
CONTINUOUS
 62
   130
 10
-843.498347100136
 20
-16.6983305036233
 30
0.0
 11
-842.098347123978
 21
-16.6983305036233
 31
0.0
  0
LINE
  5
   6A5
  8
0
  6
CONTINUOUS
 62
   130
 10
-846.998347040531
 20
-16.6983305036233
 30
0.0
 11
-845.598347064373
 21
-16.6983305036233
 31
0.0
  0
LINE
  5
   6A6
  8
0
  6
CONTINUOUS
 62
   130
 10
-845.598347064373
 20
-25.7983303486513
 30
0.0
 11
-843.498347100136
 21
-25.7983303486513
 31
0.0
  0
LINE
  5
   6A7
  8
0
  6
CONTINUOUS
 62
   130
 10
-845.598347064373
 20
-20.5483304380582
 30
0.0
 11
-843.498347100136
 21
-20.5483304380582
 31
0.0
  0
LINE
  5
   6A8
  8
0
  6
CONTINUOUS
 62
   130
 10
-845.598347064373
 20
-20.1983304440187
 30
0.0
 11
-843.498347100136
 21
-20.1983304440187
 31
0.0
  0
LINE
  5
   6A9
  8
0
  6
CONTINUOUS
 62
   130
 10
-851.198346969006
 20
-25.5032240271623
 30
0.0
 11
-846.998347040531
 21
-25.5032240271623
 31
0.0
  0
LINE
  5
   6AA
  8
0
  6
CONTINUOUS
 62
   130
 10
-842.098347123978
 20
-25.5032240271623
 30
0.0
 11
-837.898347195503
 21
-25.5032240271623
 31
0.0
  0
LINE
  5
   6AB
  8
0
  6
CONTINUOUS
 62
   130
 10
-842.098347123978
 20
-20.6032241106088
 30
0.0
 11
-837.898347195503
 21
-20.6032241106088
 31
0.0
  0
LINE
  5
   6AC
  8
0
  6
CONTINUOUS
 62
   130
 10
-851.198346969006
 20
-20.6032241106088
 30
0.0
 11
-846.998347040531
 21
-20.6032241106088
 31
0.0
  0
LINE
  5
   6AD
  8
0
  6
DASHDOT
 62
   130
 10
-847.120962299898
 20
48.4318596779457
 30
0.0
 11
-804.924359256863
 21
48.4318596779457
 31
0.0
  0
LINE
  5
   6AE
  8
0
  6
DASHDOT
 62
   130
 10
-847.459437725377
 20
-22.998330396335
 30
0.0
 11
-793.291200322065
 21
-22.998330396335
 31
0.0
  0
LINE
  5
   6AF
  8
0
  6
DASHDOT
 62
   130
 10
-806.600431721773
 20
4.31676478385652
 30
0.0
 11
-796.271585256961
 21
4.31676478385652
 31
0.0
  0
LINE
  5
   6B0
  8
0
  6
CONTINUOUS
 62
   130
 10
-801.376902714968
 20
52.6167559504509
 30
0.0
 11
-800.536902862788
 21
52.6167559504509
 31
0.0
  0
LINE
  5
   6B1
  8
0
  6
DOT
 62
   130
 10
-800.724467316056
 20
22.1667564690113
 30
0.0
 11
-800.536902862788
 21
22.1667564690113
 31
0.0
  0
LINE
  5
   6B2
  8
0
  6
CONTINUOUS
 62
   130
 10
-801.376902714968
 20
44.9318597375504
 30
0.0
 11
-801.376902714968
 21
37.3567016977589
 31
0.0
  0
LINE
  5
   6B3
  8
0
  6
CONTINUOUS
 62
   130
 10
-800.536902862788
 20
52.6167532801628
 30
0.0
 11
-800.536902862788
 21
-25.783234703541
 31
0.0
  0
LINE
  5
   6B4
  8
0
  6
CONTINUOUS
 62
   130
 10
-802.216902967692
 20
36.6567540860176
 30
0.0
 11
-802.076902703047
 21
36.6567540860176
 31
0.0
  0
LINE
  5
   6B5
  8
0
  6
CONTINUOUS
 62
   130
 10
-802.216902967692
 20
35.8167562365531
 30
0.0
 11
-802.076902836562
 21
35.8167562365531
 31
0.0
  0
LINE
  5
   6B6
  8
0
  6
CONTINUOUS
 62
   130
 10
-806.136902099848
 20
36.6567540860176
 30
0.0
 11
-806.136902099848
 21
35.8167562365531
 31
0.0
  0
LINE
  5
   6B7
  8
0
  6
CONTINUOUS
 62
   130
 10
-806.136902099848
 20
21.8167564749717
 30
0.0
 11
-806.136902099848
 21
20.9767586255073
 31
0.0
  0
LINE
  5
   6B8
  8
0
  6
CONTINUOUS
 62
   130
 10
-806.136902099848
 20
-5.48324306011203
 30
0.0
 11
-806.136902099848
 21
-8.98324300050739
 31
0.0
  0
LINE
  5
   6B9
  8
0
  6
CONTINUOUS
 62
   130
 10
-806.136902099848
 20
-5.48324306011203
 30
0.0
 11
-803.805813405874
 21
-5.48324306011203
 31
0.0
  0
LINE
  5
   6BA
  8
0
  6
CONTINUOUS
 62
   130
 10
-803.805813171387
 20
-5.48324272329837
 30
0.0
 11
-803.33690188461
 21
-7.2332428650701
 31
0.0
  0
LINE
  5
   6BB
  8
0
  6
CONTINUOUS
 62
   130
 10
-803.336902147532
 20
-7.23324303030971
 30
0.0
 11
-802.636902159453
 21
-7.23324303030971
 31
0.0
  0
LINE
  5
   6BC
  8
0
  6
CONTINUOUS
 62
   130
 10
-802.636902159453
 20
17.6167565464973
 30
0.0
 11
-802.636902159453
 21
-7.23324303030971
 31
0.0
  0
LINE
  5
   6BD
  8
0
  6
CONTINUOUS
 62
   130
 10
-803.336902147532
 20
17.6167565464973
 30
0.0
 11
-802.636902159453
 21
17.6167565464973
 31
0.0
  0
LINE
  5
   6BE
  8
0
  6
CONTINUOUS
 62
   130
 10
-806.136912664164
 20
18.3670307590895
 30
0.0
 11
-804.043460376865
 21
17.806086211363
 31
0.0
  0
LINE
  5
   6BF
  8
0
  6
CONTINUOUS
 62
   130
 10
-806.136902099848
 20
19.7167565107345
 30
0.0
 11
-806.136902099848
 21
18.36702203665
 31
0.0
  0
LINE
  5
   6C0
  8
0
  6
DOT
 62
   130
 10
-801.376902714968
 20
22.1667564690113
 30
0.0
 11
-800.724467274333
 21
22.1667564690113
 31
0.0
  0
LINE
  5
   6C1
  8
0
  6
CONTINUOUS
 62
   130
 10
-803.686902809144
 20
-11.433235615492
 30
0.0
 11
-800.536902862788
 21
-11.433235615492
 31
0.0
  0
LINE
  5
   6C2
  8
0
  6
CONTINUOUS
 62
   130
 10
-803.056902819872
 20
55.7667558968067
 30
0.0
 11
-802.216902967692
 21
55.7667558968067
 31
0.0
  0
LINE
  5
   6C3
  8
0
  6
CONTINUOUS
 62
   130
 10
-802.216902967692
 20
17.6167458653451
 30
0.0
 11
-802.216902967692
 21
17.0416833141032
 31
0.0
  0
LINE
  5
   6C4
  8
0
  6
CONTINUOUS
 62
   130
 10
-802.216902967692
 20
35.816745555401
 30
0.0
 11
-802.216902967692
 21
17.6167565464973
 31
0.0
  0
LINE
  5
   6C5
  8
0
  6
CONTINUOUS
 62
   130
 10
-802.216902967692
 20
44.9318597375504
 30
0.0
 11
-802.216902967692
 21
35.8167562365531
 31
0.0
  0
LINE
  5
   6C6
  8
0
  6
CONTINUOUS
 62
   130
 10
-802.216882094656
 20
17.0416995946237
 30
0.0
 11
-803.729421141314
 21
14.4219005022601
 31
0.0
  0
LINE
  5
   6C7
  8
0
  6
CONTINUOUS
 62
   130
 10
-804.456910517623
 20
14.8418872661883
 30
0.0
 11
-803.729449143061
 21
14.4218829509008
 31
0.0
  0
LINE
  5
   6C8
  8
0
  6
CONTINUOUS
 62
   130
 10
-803.056891725627
 20
17.2667461731277
 30
0.0
 11
-804.456891666569
 21
14.8418790803687
 31
0.0
  0
LINE
  5
   6C9
  8
0
  6
CONTINUOUS
 62
   130
 10
-803.056902819872
 20
44.9318597375504
 30
0.0
 11
-803.056902819872
 21
35.8167562365531
 31
0.0
  0
LINE
  5
   6CA
  8
0
  6
CONTINUOUS
 62
   130
 10
-803.056902819872
 20
35.8167669177053
 30
0.0
 11
-803.056902819872
 21
24.3165039007071
 31
0.0
  0
LINE
  5
   6CB
  8
0
  6
CONTINUOUS
 62
   130
 10
-803.056902819872
 20
17.8231057251121
 30
0.0
 11
-803.056902819872
 21
17.2667565524578
 31
0.0
  0
ARC
  5
   6CC
  8
0
  6
CONTINUOUS
 62
   130
 10
-803.686925698939
 20
19.7167618893584
 30
0.0
 40
2.44997289096194
 50
509.049985589538
 51
539.999999844103
  0
LINE
  5
   6CD
  8
0
  6
CONTINUOUS
 62
   130
 10
-803.12690281868
 20
36.6567540860176
 30
0.0
 11
-803.12690281868
 21
35.8167562365531
 31
0.0
  0
LINE
  5
   6CE
  8
0
  6
CONTINUOUS
 62
   130
 10
-803.12690281868
 20
21.8167564749717
 30
0.0
 11
-803.12690281868
 21
20.9767586255073
 31
0.0
  0
LINE
  5
   6CF
  8
0
  6
CONTINUOUS
 62
   130
 10
-802.146902968884
 20
36.6567540860176
 30
0.0
 11
-802.146902968884
 21
35.8167562365531
 31
0.0
  0
LINE
  5
   6D0
  8
0
  6
CONTINUOUS
 62
   130
 10
-802.146902968884
 20
21.8167564749717
 30
0.0
 11
-802.146902968884
 21
20.9767586255073
 31
0.0
  0
LINE
  5
   6D1
  8
0
  6
CONTINUOUS
 62
   130
 10
-806.136901432276
 20
36.6567540860176
 30
0.0
 11
-803.12690281868
 21
36.6567540860176
 31
0.0
  0
LINE
  5
   6D2
  8
0
  6
CONTINUOUS
 62
   130
 10
-806.136901432276
 20
35.8167562365531
 30
0.0
 11
-803.12690281868
 21
35.8167562365531
 31
0.0
  0
LINE
  5
   6D3
  8
0
  6
CONTINUOUS
 62
   130
 10
-806.136902099848
 20
21.8167564749717
 30
0.0
 11
-803.12690281868
 21
21.8167564749717
 31
0.0
  0
LINE
  5
   6D4
  8
0
  6
CONTINUOUS
 62
   130
 10
-806.136902099848
 20
20.9767586255073
 30
0.0
 11
-803.12690281868
 21
20.9767586255073
 31
0.0
  0
LINE
  5
   6D5
  8
0
  6
CONTINUOUS
 62
   130
 10
-803.06393817419
 20
24.2175089530268
 30
0.0
 11
-803.389932251453
 21
21.9355504121879
 31
0.0
  0
LINE
  5
   6D6
  8
0
  6
CONTINUOUS
 62
   130
 10
-802.223938322009
 20
24.1578110574756
 30
0.0
 11
-802.558374690939
 21
21.8167564749717
 31
0.0
  0
LINE
  5
   6D7
  8
0
  6
CONTINUOUS
 62
   130
 10
-803.389932251453
 20
21.935550412188
 30
0.0
 11
-802.558374690939
 21
21.8167564749717
 31
0.0
  0
ARC
  5
   6D8
  8
0
  6
CONTINUOUS
 62
   130
 10
-802.916902955771
 20
24.2568060051559
 30
0.0
 40
0.699999988079071
 50
351.869897489947
 51
359.999999844103
  0
LINE
  5
   6D9
  8
0
  6
CONTINUOUS
 62
   130
 10
-802.216902967692
 20
21.8167564749717
 30
0.0
 11
-802.076902836562
 21
21.8167564749717
 31
0.0
  0
LINE
  5
   6DA
  8
0
  6
CONTINUOUS
 62
   130
 10
-802.216902967692
 20
20.9767586255073
 30
0.0
 11
-802.076902703047
 21
20.9767586255073
 31
0.0
  0
LINE
  5
   6DB
  8
0
  6
DOT
 62
   130
 10
-803.056902819872
 20
24.3165039007071
 30
0.0
 11
-803.056902819872
 21
21.8879747791051
 31
0.0
  0
LINE
  5
   6DC
  8
0
  6
CONTINUOUS
 62
   130
 10
-803.056902819872
 20
21.8879747791051
 30
0.0
 11
-803.056902819872
 21
17.8230856232924
 31
0.0
  0
LINE
  5
   6DD
  8
0
  6
CONTINUOUS
 62
   130
 10
-803.056902819872
 20
54.3667559206485
 30
0.0
 11
-802.216902967692
 21
54.3667559206485
 31
0.0
  0
LINE
  5
   6DE
  8
0
  6
CONTINUOUS
 62
   130
 10
-803.056902819872
 20
41.7667561352253
 30
0.0
 11
-802.216902967692
 21
41.7667561352253
 31
0.0
  0
LINE
  5
   6DF
  8
0
  6
CONTINUOUS
 62
   130
 10
-803.056902819872
 20
30.9167563199997
 30
0.0
 11
-802.216902967692
 21
30.9167563199997
 31
0.0
  0
LINE
  5
   6E0
  8
0
  6
CONTINUOUS
 62
   130
 10
-803.056902819872
 20
26.0167564034462
 30
0.0
 11
-802.216902967692
 21
26.0167564034462
 31
0.0
  0
LINE
  5
   6E1
  8
0
  6
CONTINUOUS
 62
   130
 10
-803.056902819872
 20
20.7667586290836
 30
0.0
 11
-802.216902967692
 21
20.7667586290836
 31
0.0
  0
INSERT
  5
   6E2
  8
0
  6
CONTINUOUS
 62
     7
  2
*HATCH0
 10
-713.913757324219
 20
2.56676483154297
 30
0.0
 41
0.699999988079071
 42
0.699999988079071
 50
269.999999844103
 43
0.699999988079071
  0
INSERT
  5
   6E3
  8
0
  6
CONTINUOUS
 62
     7
  2
*HATCH1
 10
-713.913757324219
 20
2.56676483154297
 30
0.0
 41
0.699999988079071
 42
0.699999988079071
 50
269.999999844103
 43
0.699999988079071
  0
INSERT
  5
   6E4
  8
0
  6
CONTINUOUS
 62
     7
  2
*HATCH2
 10
-713.913757324219
 20
2.56676483154297
 30
0.0
 41
0.699999988079071
 42
0.699999988079071
 50
269.999999844103
 43
0.699999988079071
  0
ARC
  5
   6E5
  8
0
  6
CONTINUOUS
 62
   130
 10
-802.076902703047
 20
20.2767586374282
 30
0.0
 40
0.699999988079071
 50
359.999999844103
 51
449.999999844103
  0
ARC
  5
   6E6
  8
0
  6
CONTINUOUS
 62
   130
 10
-802.076902836562
 20
20.2767565011978
 30
0.0
 40
1.53999997377396
 50
359.999999844103
 51
449.999999844103
  0
LINE
  5
   6E7
  8
0
  6
CONTINUOUS
 62
   130
 10
-802.216902967692
 20
22.1667564690113
 30
0.0
 11
-801.376902714968
 21
22.1667564690113
 31
0.0
  0
ARC
  5
   6E8
  8
0
  6
CONTINUOUS
 62
   130
 10
-803.686925698939
 20
19.7167618893584
 30
0.0
 40
2.44997289096194
 50
467.486073703861
 51
481.001909793402
  0
ARC
  5
   6E9
  8
0
  6
DOT
 62
   130
 10
-803.686925698939
 20
19.7167618893584
 30
0.0
 40
2.44997289096194
 50
481.001909793402
 51
509.049985589538
  0
ARC
  5
   6EA
  8
0
  6
CONTINUOUS
 62
   130
 10
-803.686925698939
 20
19.7167618893584
 30
0.0
 40
2.44997289096194
 50
449.999999844103
 51
467.486073703861
  0
LINE
  5
   6EB
  8
0
  6
CONTINUOUS
 62
   130
 10
-803.686900848151
 20
22.1667564690113
 30
0.0
 11
-803.356902814763
 21
22.1667564690113
 31
0.0
  0
LINE
  5
   6EC
  8
0
  6
CONTINUOUS
 62
   130
 10
-804.043460376865
 20
17.806086211363
 30
0.0
 11
-803.336911638522
 21
17.6167651244286
 31
0.0
  0
ARC
  5
   6ED
  8
0
  6
CONTINUOUS
 62
   130
 10
-803.686940288218
 20
-8.98325568627217
 30
0.0
 40
2.44996160420214
 50
540.00021426687
 51
630.000884118422
  0
ARC
  5
   6EE
  8
0
  6
CONTINUOUS
 62
   130
 10
-802.076902836562
 20
37.3567562103271
 30
0.0
 40
1.53999997377396
 50
269.999999844103
 51
359.999999844103
  0
LINE
  5
   6EF
  8
0
  6
DOT
 62
   130
 10
-801.376902714968
 20
21.6484706656624
 30
0.0
 11
-801.376902714968
 21
20.2767586374282
 31
0.0
  0
LINE
  5
   6F0
  8
0
  6
CONTINUOUS
 62
   130
 10
-801.376902714968
 20
20.2767586374282
 30
0.0
 11
-801.376902714968
 21
5.43754003019759
 31
0.0
  0
LINE
  5
   6F1
  8
0
  6
CONTINUOUS
 62
   130
 10
-801.376902714968
 20
35.9850420458624
 30
0.0
 11
-801.376902714968
 21
21.6484706656624
 31
0.0
  0
LINE
  5
   6F2
  8
0
  6
DOT
 62
   130
 10
-801.376902714968
 20
37.3567016977589
 30
0.0
 11
-801.376902714968
 21
35.9850420458624
 31
0.0
  0
LINE
  5
   6F3
  8
0
  6
CONTINUOUS
 62
   130
 10
-801.376902714968
 20
-17.7332348406317
 30
0.0
 11
-800.536902862788
 21
-17.7332348406317
 31
0.0
  0
ARC
  5
   6F4
  8
0
  6
CONTINUOUS
 62
   130
 10
-802.076913698618
 20
37.3567628764572
 30
0.0
 40
0.700021741669109
 50
270.00070276675
 51
359.997118270512
  0
LINE
  5
   6F5
  8
0
  6
DASHDOT
 62
   130
 10
-803.134934434099
 20
48.4167640328405
 30
0.0
 11
-799.660424540677
 21
48.4167640328405
 31
0.0
  0
LINE
  5
   6F6
  8
0
  6
CONTINUOUS
 62
   130
 10
-802.216902967692
 20
24.9667564213276
 30
0.0
 11
-801.012520974552
 21
24.9667564213276
 31
0.0
  0
LINE
  5
   6F7
  8
0
  6
DASHDOT
 62
   130
 10
-801.061902920604
 20
37.7252536612371
 30
0.0
 11
-801.061902920604
 21
23.8606403558521
 31
0.0
  0
CIRCLE
  5
   6F8
  8
0
  6
CONTINUOUS
 62
   130
 10
-804.21190286696
 20
25.8023674070972
 30
0.0
 40
0.279999995231628
  0
CIRCLE
  5
   6F9
  8
0
  6
CONTINUOUS
 62
   130
 10
-804.21190286696
 20
26.9223673880237
 30
0.0
 40
0.279999995231628
  0
CIRCLE
  5
   6FA
  8
0
  6
CONTINUOUS
 62
   130
 10
-804.21190286696
 20
28.0423673689502
 30
0.0
 40
0.279999995231628
  0
CIRCLE
  5
   6FB
  8
0
  6
CONTINUOUS
 62
   130
 10
-804.21190286696
 20
29.1623673498767
 30
0.0
 40
0.279999995231628
  0
CIRCLE
  5
   6FC
  8
0
  6
CONTINUOUS
 62
   130
 10
-804.21190286696
 20
30.2823673308032
 30
0.0
 40
0.279999995231628
  0
CIRCLE
  5
   6FD
  8
0
  6
CONTINUOUS
 62
   130
 10
-804.21190286696
 20
31.4023673117297
 30
0.0
 40
0.279999995231628
  0
CIRCLE
  5
   6FE
  8
0
  6
CONTINUOUS
 62
   130
 10
-804.21190286696
 20
32.5223672926562
 30
0.0
 40
0.279999995231628
  0
CIRCLE
  5
   6FF
  8
0
  6
CONTINUOUS
 62
   130
 10
-804.21190286696
 20
33.6423672735828
 30
0.0
 40
0.279999995231628
  0
CIRCLE
  5
   700
  8
0
  6
CONTINUOUS
 62
   130
 10
-804.21190286696
 20
34.7623672545093
 30
0.0
 40
0.279999995231628
  0
ARC
  5
   701
  8
0
  6
CONTINUOUS
 62
   130
 10
-804.21190286696
 20
35.8823672354358
 30
0.0
 40
0.279999995231628
 50
553.551837029225
 51
629.999999844103
  0
CIRCLE
  5
   702
  8
0
  6
CONTINUOUS
 62
   130
 10
-801.061902920604
 20
26.3623673975604
 30
0.0
 40
0.279999995231628
  0
ARC
  5
   703
  8
0
  6
CONTINUOUS
 62
   130
 10
-801.061902920604
 20
25.2423674166339
 30
0.0
 40
0.279999995231628
 50
280.158049687986
 51
619.84195000022
  0
CIRCLE
  5
   704
  8
0
  6
CONTINUOUS
 62
   130
 10
-801.061902920604
 20
27.4823673784869
 30
0.0
 40
0.279999995231628
  0
CIRCLE
  5
   705
  8
0
  6
CONTINUOUS
 62
   130
 10
-801.061902920604
 20
28.6023673594135
 30
0.0
 40
0.279999995231628
  0
CIRCLE
  5
   706
  8
0
  6
CONTINUOUS
 62
   130
 10
-801.061902920604
 20
29.72236734034
 30
0.0
 40
0.279999995231628
  0
CIRCLE
  5
   707
  8
0
  6
CONTINUOUS
 62
   130
 10
-801.061902920604
 20
30.8423673212665
 30
0.0
 40
0.279999995231628
  0
CIRCLE
  5
   708
  8
0
  6
CONTINUOUS
 62
   130
 10
-801.061902920604
 20
31.962367302193
 30
0.0
 40
0.279999995231628
  0
CIRCLE
  5
   709
  8
0
  6
CONTINUOUS
 62
   130
 10
-801.061902920604
 20
33.0823672831195
 30
0.0
 40
0.279999995231628
  0
LINE
  5
   70A
  8
0
  6
CONTINUOUS
 62
   130
 10
-801.110912253491
 20
25.5180449141192
 30
0.0
 11
-802.216902967692
 21
25.3214243427056
 31
0.0
  0
LINE
  5
   70B
  8
0
  6
CONTINUOUS
 62
   130
 10
-801.012893587718
 20
26.0866899000751
 30
0.0
 11
-802.216902967692
 21
25.8726437880797
 31
0.0
  0
LINE
  5
   70C
  8
0
  6
CONTINUOUS
 62
   130
 10
-801.110912253491
 20
26.6380448950457
 30
0.0
 11
-802.216902967692
 21
26.4414243236321
 31
0.0
  0
LINE
  5
   70D
  8
0
  6
CONTINUOUS
 62
   130
 10
-801.012893587718
 20
27.2066898810016
 30
0.0
 11
-802.216902967692
 21
26.9926437690062
 31
0.0
  0
LINE
  5
   70E
  8
0
  6
CONTINUOUS
 62
   130
 10
-801.110912253491
 20
27.7580448759722
 30
0.0
 11
-802.216902967692
 21
27.5614243045586
 31
0.0
  0
LINE
  5
   70F
  8
0
  6
CONTINUOUS
 62
   130
 10
-801.012893587718
 20
28.3266898619281
 30
0.0
 11
-802.216902967692
 21
28.1126437499328
 31
0.0
  0
LINE
  5
   710
  8
0
  6
CONTINUOUS
 62
   130
 10
-801.110912253491
 20
28.8780448568987
 30
0.0
 11
-802.216902967692
 21
28.6814242854851
 31
0.0
  0
LINE
  5
   711
  8
0
  6
CONTINUOUS
 62
   130
 10
-801.012893587718
 20
29.4466898428546
 30
0.0
 11
-802.216902967692
 21
29.2326437308593
 31
0.0
  0
LINE
  5
   712
  8
0
  6
CONTINUOUS
 62
   130
 10
-801.110912253491
 20
29.9980448378252
 30
0.0
 11
-802.216902967692
 21
29.8014242664116
 31
0.0
  0
LINE
  5
   713
  8
0
  6
CONTINUOUS
 62
   130
 10
-801.012893587718
 20
30.5666898237811
 30
0.0
 11
-802.216902967692
 21
30.3526437117858
 31
0.0
  0
LINE
  5
   714
  8
0
  6
CONTINUOUS
 62
   130
 10
-801.110912253491
 20
31.1180448187517
 30
0.0
 11
-802.216902967692
 21
30.9214242473381
 31
0.0
  0
LINE
  5
   715
  8
0
  6
CONTINUOUS
 62
   130
 10
-801.012893587718
 20
31.6866898047077
 30
0.0
 11
-802.216902967692
 21
31.4726436927123
 31
0.0
  0
LINE
  5
   716
  8
0
  6
CONTINUOUS
 62
   130
 10
-801.110912253491
 20
32.2380447996782
 30
0.0
 11
-802.216902967692
 21
32.0414242282647
 31
0.0
  0
LINE
  5
   717
  8
0
  6
CONTINUOUS
 62
   130
 10
-801.012893587718
 20
32.8066897856342
 30
0.0
 11
-802.216902967692
 21
32.5926436736388
 31
0.0
  0
LINE
  5
   718
  8
0
  6
CONTINUOUS
 62
   130
 10
-801.110912253491
 20
33.3580447806048
 30
0.0
 11
-802.216902967692
 21
33.1614242091912
 31
0.0
  0
LINE
  5
   719
  8
0
  6
CONTINUOUS
 62
   130
 10
-801.012893587718
 20
33.9266897665607
 30
0.0
 11
-802.216902967692
 21
33.7126436545653
 31
0.0
  0
LINE
  5
   71A
  8
0
  6
CONTINUOUS
 62
   130
 10
-801.110912253491
 20
34.4780447615313
 30
0.0
 11
-802.216902967692
 21
34.2814241901177
 31
0.0
  0
LINE
  5
   71B
  8
0
  6
CONTINUOUS
 62
   130
 10
-801.012893587718
 20
35.0466897474872
 30
0.0
 11
-802.216902967692
 21
34.8326436354918
 31
0.0
  0
LINE
  5
   71C
  8
0
  6
CONTINUOUS
 62
   130
 10
-801.110912253491
 20
35.5980447424578
 30
0.0
 11
-802.216902967692
 21
35.4014241710442
 31
0.0
  0
LINE
  5
   71D
  8
0
  6
CONTINUOUS
 62
   130
 10
-803.056902819872
 20
35.803310309364
 30
0.0
 11
-804.162893534074
 21
35.6066897379504
 31
0.0
  0
CIRCLE
  5
   71E
  8
0
  6
CONTINUOUS
 62
   130
 10
-801.061902920604
 20
34.202367264046
 30
0.0
 40
0.279999995231628
  0
CIRCLE
  5
   71F
  8
0
  6
CONTINUOUS
 62
   130
 10
-801.061902920604
 20
35.3223672449725
 30
0.0
 40
0.279999995231628
  0
ARC
  5
   720
  8
0
  6
CONTINUOUS
 62
   130
 10
-804.21190286696
 20
35.8823672354358
 30
0.0
 40
0.279999995231628
 50
629.999999844103
 51
706.448162658981
  0
LINE
  5
   721
  8
0
  6
CONTINUOUS
 62
   130
 10
-803.056902819872
 20
35.2520908639899
 30
0.0
 11
-804.260912199847
 21
35.0380447519945
 31
0.0
  0
LINE
  5
   722
  8
0
  6
CONTINUOUS
 62
   130
 10
-803.056902819872
 20
34.6833103284375
 30
0.0
 11
-804.162893534074
 21
34.4866897570239
 31
0.0
  0
LINE
  5
   723
  8
0
  6
CONTINUOUS
 62
   130
 10
-803.056902819872
 20
34.1320908830634
 30
0.0
 11
-804.260912199847
 21
33.918044771068
 31
0.0
  0
LINE
  5
   724
  8
0
  6
CONTINUOUS
 62
   130
 10
-803.056902819872
 20
33.563310347511
 30
0.0
 11
-804.162893534074
 21
33.3666897760974
 31
0.0
  0
LINE
  5
   725
  8
0
  6
CONTINUOUS
 62
   130
 10
-803.056902819872
 20
33.0120909021369
 30
0.0
 11
-804.260912199847
 21
32.7980447901415
 31
0.0
  0
LINE
  5
   726
  8
0
  6
CONTINUOUS
 62
   130
 10
-803.056902819872
 20
32.4433103665845
 30
0.0
 11
-804.162893534074
 21
32.2466897951709
 31
0.0
  0
LINE
  5
   727
  8
0
  6
CONTINUOUS
 62
   130
 10
-803.056902819872
 20
31.8920909212103
 30
0.0
 11
-804.260912199847
 21
31.678044809215
 31
0.0
  0
LINE
  5
   728
  8
0
  6
CONTINUOUS
 62
   130
 10
-803.056902819872
 20
31.323310385658
 30
0.0
 11
-804.162893534074
 21
31.1266898142444
 31
0.0
  0
LINE
  5
   729
  8
0
  6
CONTINUOUS
 62
   130
 10
-803.056902819872
 20
30.7720909402838
 30
0.0
 11
-804.260912199847
 21
30.5580448282885
 31
0.0
  0
LINE
  5
   72A
  8
0
  6
CONTINUOUS
 62
   130
 10
-803.056902819872
 20
30.2033104047315
 30
0.0
 11
-804.162893534074
 21
30.0066898333179
 31
0.0
  0
LINE
  5
   72B
  8
0
  6
CONTINUOUS
 62
   130
 10
-803.056902819872
 20
29.6520909593573
 30
0.0
 11
-804.260912199847
 21
29.438044847362
 31
0.0
  0
LINE
  5
   72C
  8
0
  6
CONTINUOUS
 62
   130
 10
-803.056902819873
 20
29.083310423805
 30
0.0
 11
-804.162893534074
 21
28.8866898523914
 31
0.0
  0
LINE
  5
   72D
  8
0
  6
CONTINUOUS
 62
   130
 10
-803.056902819872
 20
28.5320909784308
 30
0.0
 11
-804.260912199847
 21
28.3180448664355
 31
0.0
  0
LINE
  5
   72E
  8
0
  6
CONTINUOUS
 62
   130
 10
-803.056902819872
 20
27.9633104428784
 30
0.0
 11
-804.162893534074
 21
27.7666898714649
 31
0.0
  0
LINE
  5
   72F
  8
0
  6
CONTINUOUS
 62
   130
 10
-803.056902819872
 20
27.4120909975043
 30
0.0
 11
-804.260912199847
 21
27.1980448855089
 31
0.0
  0
LINE
  5
   730
  8
0
  6
CONTINUOUS
 62
   130
 10
-803.056902819872
 20
26.8433104619519
 30
0.0
 11
-804.162893534074
 21
26.6466898905384
 31
0.0
  0
LINE
  5
   731
  8
0
  6
CONTINUOUS
 62
   130
 10
-803.056902819872
 20
26.2920910165778
 30
0.0
 11
-804.260912199847
 21
26.0780449045824
 31
0.0
  0
LINE
  5
   732
  8
0
  6
CONTINUOUS
 62
   130
 10
-803.056902819872
 20
25.7233104810254
 30
0.0
 11
-804.162893534074
 21
25.5266899096118
 31
0.0
  0
LINE
  5
   733
  8
0
  6
CONTINUOUS
 62
   130
 10
-803.056902819872
 20
25.1720910356513
 30
0.0
 11
-804.211910025444
 21
24.9667564213275
 31
0.0
  0
LINE
  5
   734
  8
0
  6
CONTINUOUS
 62
   130
 10
-804.211910025444
 20
24.9667564213276
 30
0.0
 11
-803.056902819872
 21
24.9667564213276
 31
0.0
  0
POLYLINE
  5
   735
  8
0
  6
CONTINUOUS
 62
   130
 66
     1
 10
0.0
 20
0.0
 30
0.0
  0
VERTEX
  5
   736
  8
0
  6
CONTINUOUS
 10
-800.536847893414
 20
5.65192793342064
 30
0.0
 40
0.0
 41
0.0
  0
VERTEX
  5
   737
  8
0
  6
CONTINUOUS
 10
-800.607615689202
 20
5.66313482580462
 30
0.0
 40
0.0
 41
0.0
  0
VERTEX
  5
   738
  8
0
  6
CONTINUOUS
 10
-800.677597209971
 20
5.67199369120492
 30
0.0
 40
0.0
 41
0.0
  0
VERTEX
  5
   739
  8
0
  6
CONTINUOUS
 10
-800.712269923183
 20
5.67528238387604
 30
0.0
 40
0.0
 41
0.0
  0
VERTEX
  5
   73A
  8
0
  6
CONTINUOUS
 10
-800.781315338323
 20
5.67905494608675
 30
0.0
 40
0.0
 41
0.0
  0
VERTEX
  5
   73B
  8
0
  6
CONTINUOUS
 10
-800.849488860102
 20
5.67831307216715
 30
0.0
 40
0.0
 41
0.0
  0
VERTEX
  5
   73C
  8
0
  6
CONTINUOUS
 10
-800.883263012605
 20
5.6759857000403
 30
0.0
 40
0.0
 41
0.0
  0
VERTEX
  5
   73D
  8
0
  6
CONTINUOUS
 10
-800.9168407708
 20
5.67222217878358
 30
0.0
 40
0.0
 41
0.0
  0
VERTEX
  5
   73E
  8
0
  6
CONTINUOUS
 10
-800.950233191205
 20
5.66693191527166
 30
0.0
 40
0.0
 41
0.0
  0
VERTEX
  5
   73F
  8
0
  6
CONTINUOUS
 10
-800.983452505841
 20
5.66003292699451
 30
0.0
 40
0.0
 41
0.0
  0
VERTEX
  5
   740
  8
0
  6
CONTINUOUS
 10
-801.016511736453
 20
5.6514534834778
 30
0.0
 40
0.0
 41
0.0
  0
VERTEX
  5
   741
  8
0
  6
CONTINUOUS
 10
-801.04942430872
 20
5.64113374770327
 30
0.0
 40
0.0
 41
0.0
  0
VERTEX
  5
   742
  8
0
  6
CONTINUOUS
 10
-801.08220366648
 20
5.62902741752919
 30
0.0
 40
0.0
 41
0.0
  0
VERTEX
  5
   743
  8
0
  6
CONTINUOUS
 10
-801.114862885936
 20
5.61510336711067
 30
0.0
 40
0.0
 41
0.0
  0
VERTEX
  5
   744
  8
0
  6
CONTINUOUS
 10
-801.147414289885
 20
5.59934728832014
 30
0.0
 40
0.0
 41
0.0
  0
VERTEX
  5
   745
  8
0
  6
CONTINUOUS
 10
-801.179869061924
 20
5.58176333216769
 30
0.0
 40
0.0
 41
0.0
  0
VERTEX
  5
   746
  8
0
  6
CONTINUOUS
 10
-801.21223686067
 20
5.56237575022148
 30
0.0
 40
0.0
 41
0.0
  0
VERTEX
  5
   747
  8
0
  6
CONTINUOUS
 10
-801.24452543398
 20
5.54123053602813
 30
0.0
 40
0.0
 41
0.0
  0
VERTEX
  5
   748
  8
0
  6
CONTINUOUS
 10
-801.308884027202
 20
5.49396974350126
 30
0.0
 40
0.0
 41
0.0
  0
VERTEX
  5
   749
  8
0
  6
CONTINUOUS
 10
-801.372953949412
 20
5.44084611650453
 30
0.0
 40
0.0
 41
0.0
  0
VERTEX
  5
   74A
  8
0
  6
CONTINUOUS
 10
-801.446659541923
 20
5.37381914985084
 30
0.0
 40
0.0
 41
0.0
  0
VERTEX
  5
   74B
  8
0
  6
CONTINUOUS
 10
-801.59196234158
 20
5.23337817519513
 30
0.0
 40
0.0
 41
0.0
  0
VERTEX
  5
   74C
  8
0
  6
CONTINUOUS
 10
-801.66302499952
 20
5.16715162579069
 30
0.0
 40
0.0
 41
0.0
  0
VERTEX
  5
   74D
  8
0
  6
CONTINUOUS
 10
-801.698034038018
 20
5.13671015150545
 30
0.0
 40
0.0
 41
0.0
  0
VERTEX
  5
   74E
  8
0
  6
CONTINUOUS
 10
-801.732651426403
 20
5.10867485618983
 30
0.0
 40
0.0
 41
0.0
  0
VERTEX
  5
   74F
  8
0
  6
CONTINUOUS
 10
-801.766849482738
 20
5.08348892626461
 30
0.0
 40
0.0
 41
0.0
  0
VERTEX
  5
   750
  8
0
  6
CONTINUOUS
 10
-801.800606021646
 20
5.06156460343625
 30
0.0
 40
0.0
 41
0.0
  0
VERTEX
  5
   751
  8
0
  6
CONTINUOUS
 10
-801.833905661182
 20
5.04327442916689
 30
0.0
 40
0.0
 41
0.0
  0
VERTEX
  5
   752
  8
0
  6
CONTINUOUS
 10
-801.866741129691
 20
5.02894248914434
 30
0.0
 40
0.0
 41
0.0
  0
VERTEX
  5
   753
  8
0
  6
CONTINUOUS
 10
-801.89911457268
 20
5.01883565775212
 30
0.0
 40
0.0
 41
0.0
  0
VERTEX
  5
   754
  8
0
  6
CONTINUOUS
 10
-801.931038859678
 20
5.01315484253948
 30
0.0
 40
0.0
 41
0.0
  0
VERTEX
  5
   755
  8
0
  6
CONTINUOUS
 10
-801.962538891101
 20
5.01202622869139
 30
0.0
 40
0.0
 41
0.0
  0
VERTEX
  5
   756
  8
0
  6
CONTINUOUS
 10
-801.993652905121
 20
5.01549252349853
 30
0.0
 40
0.0
 41
0.0
  0
VERTEX
  5
   757
  8
0
  6
CONTINUOUS
 10
-802.024433784525
 20
5.02350420082736
 30
0.0
 40
0.0
 41
0.0
  0
VERTEX
  5
   758
  8
0
  6
CONTINUOUS
 10
-802.054950363584
 20
5.03591074559009
 30
0.0
 40
0.0
 41
0.0
  0
VERTEX
  5
   759
  8
0
  6
CONTINUOUS
 10
-802.074806772733
 20
5.04628254288775
 30
0.0
 40
0.0
 41
0.0
  0
VERTEX
  5
   75A
  8
0
  6
CONTINUOUS
 10
-802.114405250799
 20
5.07192357203235
 30
0.0
 40
0.0
 41
0.0
  0
VERTEX
  5
   75B
  8
0
  6
CONTINUOUS
 10
-802.134211681678
 20
5.08693852812084
 30
0.0
 40
0.0
 41
0.0
  0
VERTEX
  5
   75C
  8
0
  6
CONTINUOUS
 10
-802.174014062612
 20
5.12060573284764
 30
0.0
 40
0.0
 41
0.0
  0
VERTEX
  5
   75D
  8
0
  6
CONTINUOUS
 10
-802.214314788406
 20
5.15798178148939
 30
0.0
 40
0.0
 41
0.0
  0
VERTEX
  5
   75E
  8
0
  6
CONTINUOUS
 10
-802.297580481504
 20
5.23788027516957
 30
0.0
 40
0.0
 41
0.0
  0
VERTEX
  5
   75F
  8
0
  6
CONTINUOUS
 10
-802.341077405549
 20
5.27732849288756
 30
0.0
 40
0.0
 41
0.0
  0
VERTEX
  5
   760
  8
0
  6
CONTINUOUS
 10
-802.386102309768
 20
5.31447949440788
 30
0.0
 40
0.0
 41
0.0
  0
VERTEX
  5
   761
  8
0
  6
CONTINUOUS
 10
-802.432791399936
 20
5.34803239411254
 30
0.0
 40
0.0
 41
0.0
  0
VERTEX
  5
   762
  8
0
  6
CONTINUOUS
 10
-802.481198122441
 20
5.37690895267594
 30
0.0
 40
0.0
 41
0.0
  0
VERTEX
  5
   763
  8
0
  6
CONTINUOUS
 10
-802.511289419687
 20
5.39175742433793
 30
0.0
 40
0.0
 41
0.0
  0
VERTEX
  5
   764
  8
0
  6
CONTINUOUS
 10
-802.541964477141
 20
5.40448812108876
 30
0.0
 40
0.0
 41
0.0
  0
VERTEX
  5
   765
  8
0
  6
CONTINUOUS
 10
-802.573179810595
 20
5.41503152899972
 30
0.0
 40
0.0
 41
0.0
  0
VERTEX
  5
   766
  8
0
  6
CONTINUOUS
 10
-802.604879898952
 20
5.4233578267882
 30
0.0
 40
0.0
 41
0.0
  0
VERTEX
  5
   767
  8
0
  6
CONTINUOUS
 10
-802.636998991545
 20
5.42947232352182
 30
0.0
 40
0.0
 41
0.0
  0
SEQEND
  5
   768
  8
0
  6
CONTINUOUS
 62
   130
  0
LINE
  5
   769
  8
0
  6
DOT
 62
   130
 10
-801.376902714968
 20
5.43754003019759
 30
0.0
 11
-801.376902714968
 21
-11.433235615492
 31
0.0
  0
LINE
  5
   76A
  8
0
  6
CONTINUOUS
 62
   130
 10
-803.266902549267
 20
36.6567540860176
 30
0.0
 11
-803.056902819872
 21
36.6567540860176
 31
0.0
  0
LINE
  5
   76B
  8
0
  6
CONTINUOUS
 62
   130
 10
-803.266902549267
 20
35.8167562365531
 30
0.0
 11
-803.056902819872
 21
35.8167562365531
 31
0.0
  0
LINE
  5
   76C
  8
0
  6
CONTINUOUS
 62
   130
 10
-803.12690281868
 20
21.8167564749717
 30
0.0
 11
-803.056902819872
 21
21.8167564749717
 31
0.0
  0
LINE
  5
   76D
  8
0
  6
CONTINUOUS
 62
   130
 10
-803.12690281868
 20
20.9767586255073
 30
0.0
 11
-803.056902819872
 21
20.9767586255073
 31
0.0
  0
LINE
  5
   76E
  8
0
  6
CONTINUOUS
 62
   130
 10
-803.356902814763
 20
22.1667564690113
 30
0.0
 11
-803.056902819872
 21
22.1667564690113
 31
0.0
  0
LINE
  5
   76F
  8
0
  6
DOT
 62
   130
 10
-803.056902819872
 20
22.1667564690113
 30
0.0
 11
-802.216902967692
 21
22.1667564690113
 31
0.0
  0
INSERT
  5
   770
  8
0
  6
CONTINUOUS
 62
     7
  2
*HATCH3
 10
-713.913757324219
 20
2.56676483154297
 30
0.0
 41
0.699999988079071
 42
0.699999988079071
 50
269.999999844103
 43
0.699999988079071
  0
INSERT
  5
   771
  8
0
  6
CONTINUOUS
 62
     7
  2
*HATCH4
 10
-713.913757324219
 20
2.56676483154297
 30
0.0
 41
0.699999988079071
 42
0.699999988079071
 50
269.999999844103
 43
0.699999988079071
  0
INSERT
  5
   772
  8
0
  6
CONTINUOUS
 62
     7
  2
*HATCH5
 10
-713.913757324219
 20
2.56676483154297
 30
0.0
 41
0.699999988079071
 42
0.699999988079071
 50
269.999999844103
 43
0.699999988079071
  0
INSERT
  5
   773
  8
0
  6
CONTINUOUS
 62
     7
  2
*HATCH6
 10
-713.913757324219
 20
2.56676483154297
 30
0.0
 41
0.699999988079071
 42
0.699999988079071
 50
269.999999844103
 43
0.699999988079071
  0
LINE
  5
   774
  8
0
  6
CONTINUOUS
 62
   130
 10
-801.376902714968
 20
52.6167559504509
 30
0.0
 11
-801.376902714968
 21
51.9318596183411
 31
0.0
  0
LINE
  5
   775
  8
0
  6
CONTINUOUS
 62
   130
 10
-803.056902819872
 20
55.7667558968067
 30
0.0
 11
-803.056902819872
 21
51.9318596183411
 31
0.0
  0
LINE
  5
   776
  8
0
  6
CONTINUOUS
 62
   130
 10
-802.216902967692
 20
55.7667558968067
 30
0.0
 11
-802.216902967692
 21
51.9318596183411
 31
0.0
  0
LINE
  5
   777
  8
0
  6
CONTINUOUS
 62
   130
 10
-801.376902714968
 20
-11.4332215964798
 30
0.0
 11
-801.376902714968
 21
-19.4983304559396
 31
0.0
  0
LINE
  5
   778
  8
0
  6
CONTINUOUS
 62
   130
 10
-800.186930713089
 20
51.2167534054142
 30
0.0
 11
-800.186930713089
 21
-30.6832239210505
 31
0.0
  0
LINE
  5
   779
  8
0
  6
CONTINUOUS
 62
   130
 10
-751.186951407821
 20
-11.4332242488863
 30
0.0
 11
-751.186951407821
 21
-17.3832348287106
 31
0.0
  0
LINE
  5
   77A
  8
0
  6
CONTINUOUS
 62
   130
 10
-751.18695163508
 20
-11.4332242488863
 30
0.0
 11
-747.686940786274
 21
-11.4332242488863
 31
0.0
  0
LINE
  5
   77B
  8
0
  6
CONTINUOUS
 62
   130
 10
-751.186940953927
 20
20.0667752146719
 30
0.0
 11
-747.686940786274
 21
20.0667752146719
 31
0.0
  0
LINE
  5
   77C
  8
0
  6
CONTINUOUS
 62
   130
 10
-751.186940726669
 20
42.8167641460896
 30
0.0
 11
-751.186940726669
 21
20.0667752146719
 31
0.0
  0
LINE
  5
   77D
  8
0
  6
CONTINUOUS
 62
   130
 10
-747.686940786274
 20
20.0667752146719
 30
0.0
 11
-747.686940786274
 21
-11.4332242488863
 31
0.0
  0
LINE
  5
   77E
  8
0
  6
CONTINUOUS
 62
   130
 10
-751.8869513959
 20
-18.0832348167896
 30
0.0
 11
-751.8869513959
 21
-19.1332347989082
 31
0.0
  0
LINE
  5
   77F
  8
0
  6
CONTINUOUS
 62
   130
 10
-752.936951378019
 20
-19.1332347989082
 30
0.0
 11
-752.936951378019
 21
-27.8832334742166
 31
0.0
  0
LINE
  5
   780
  8
0
  6
CONTINUOUS
 62
   130
 10
-755.736951330335
 20
-19.1332347989082
 30
0.0
 11
-752.936951378019
 21
-19.1332347989082
 31
0.0
  0
LINE
  5
   781
  8
0
  6
CONTINUOUS
 62
   130
 10
-755.736951330335
 20
-18.0832348167896
 30
0.0
 11
-751.8869513959
 21
-18.0832348167896
 31
0.0
  0
LINE
  5
   782
  8
0
  6
CONTINUOUS
 62
   130
 10
-755.736951330335
 20
43.5167641341686
 30
0.0
 11
-751.886940714748
 21
43.5167641341686
 31
0.0
  0
LINE
  5
   783
  8
0
  6
CONTINUOUS
 62
   130
 10
-751.8869513959
 20
44.5667641162872
 30
0.0
 11
-751.8869513959
 21
43.5167641341686
 31
0.0
  0
LINE
  5
   784
  8
0
  6
CONTINUOUS
 62
   130
 10
-755.736951330335
 20
44.5667641162872
 30
0.0
 11
-752.936951378019
 21
44.5667641162872
 31
0.0
  0
LINE
  5
   785
  8
0
  6
CONTINUOUS
 62
   130
 10
-755.736951330335
 20
51.2167628273584
 30
0.0
 11
-755.736951330335
 21
43.5167641341686
 31
0.0
  0
LINE
  5
   786
  8
0
  6
CONTINUOUS
 62
   130
 10
-800.186930401555
 20
51.9167628154374
 30
0.0
 11
-756.436951318414
 21
51.9167628154374
 31
0.0
  0
ARC
  5
   787
  8
0
  6
CONTINUOUS
 62
   130
 10
-756.436951318414
 20
51.2167628273584
 30
0.0
 40
0.699999988079071
 50
359.999999844103
 51
449.999999844103
  0
ARC
  5
   788
  8
0
  6
CONTINUOUS
 62
   130
 10
-751.886940714748
 20
42.8167641460896
 30
0.0
 40
0.699999988079071
 50
359.999999844103
 51
449.999999844103
  0
ARC
  5
   789
  8
0
  6
CONTINUOUS
 62
   130
 10
-756.436951318414
 20
-25.7832335099794
 30
0.0
 40
0.699999988079071
 50
269.999999844103
 51
359.999999844103
  0
LINE
  5
   78A
  8
0
  6
CONTINUOUS
 62
   130
 10
-755.736951330335
 20
-18.0832348167896
 30
0.0
 11
-755.736951330335
 21
-25.7832335099794
 31
0.0
  0
ARC
  5
   78B
  8
0
  6
CONTINUOUS
 62
   130
 10
-751.8869513959
 20
-17.3832348287106
 30
0.0
 40
0.699999988079071
 50
269.999999844103
 51
359.999999844103
  0
LINE
  5
   78C
  8
0
  6
DASHDOT
 62
   130
 10
-828.026285793264
 20
4.31677548289284
 30
0.0
 11
-722.829977741062
 21
4.31677548289284
 31
0.0
  0
LINE
  5
   78D
  8
0
  6
CONTINUOUS
 62
   130
 10
-800.186930713089
 20
-26.4832334980584
 30
0.0
 11
-756.436951318414
 21
-26.4832334980584
 31
0.0
  0
LINE
  5
   78E
  8
0
  6
CONTINUOUS
 62
   130
 10
-752.936951378019
 20
44.5667641162872
 30
0.0
 11
-751.8869513959
 21
44.5667641162872
 31
0.0
  0
LINE
  5
   78F
  8
0
  6
CONTINUOUS
 62
   130
 10
-752.936951378019
 20
-19.1332347989082
 30
0.0
 11
-751.536951401861
 21
-19.1332347989082
 31
0.0
  0
LINE
  5
   790
  8
0
  6
CONTINUOUS
 62
   130
 10
-800.186930713089
 20
-27.8832334742166
 30
0.0
 11
-752.936951378019
 21
-27.8832334742166
 31
0.0
  0
LINE
  5
   791
  8
0
  6
CONTINUOUS
 62
   130
 10
-751.536951401861
 20
-19.1332347989082
 30
0.0
 11
-751.536951401861
 21
-29.9832239329714
 31
0.0
  0
LINE
  5
   792
  8
0
  6
CONTINUOUS
 62
   130
 10
-800.186930713089
 20
-30.6832239210505
 30
0.0
 11
-752.23695138994
 21
-30.6832239210505
 31
0.0
  0
ARC
  5
   793
  8
0
  6
CONTINUOUS
 62
   130
 10
-752.23695138994
 20
-29.9832239329714
 30
0.0
 40
0.699999988079071
 50
269.999999844103
 51
359.999999844103
  0
LINE
  5
   794
  8
0
  6
CONTINUOUS
 62
   130
 10
-800.186930713089
 20
56.1167746007543
 30
0.0
 11
-752.23695138994
 21
56.1167746007543
 31
0.0
  0
LINE
  5
   795
  8
0
  6
CONTINUOUS
 62
   130
 10
-751.536951401861
 20
55.4167746126753
 30
0.0
 11
-751.536951401861
 21
44.5667854786121
 31
0.0
  0
ARC
  5
   796
  8
0
  6
CONTINUOUS
 62
   130
 10
-752.23695138994
 20
55.4167746126753
 30
0.0
 40
0.699999988079071
 50
359.999999844103
 51
449.999999844103
  0
LINE
  5
   797
  8
0
  6
CONTINUOUS
 62
   130
 10
-752.936951378019
 20
53.3167841539205
 30
0.0
 11
-752.936951378019
 21
44.5667854786121
 31
0.0
  0
LINE
  5
   798
  8
0
  6
CONTINUOUS
 62
   130
 10
-800.186930713089
 20
53.3167841539205
 30
0.0
 11
-752.936951378019
 21
53.3167841539205
 31
0.0
  0
LINE
  5
   799
  8
0
  6
CONTINUOUS
 62
   130
 10
-749.786935576828
 20
20.766775202751
 30
0.0
 11
-749.786935576828
 21
20.0667752146719
 31
0.0
  0
LINE
  5
   79A
  8
0
  6
CONTINUOUS
 62
   130
 10
-749.786935576828
 20
-11.4332242488863
 30
0.0
 11
-749.786935576828
 21
-12.1332242369653
 31
0.0
  0
LINE
  5
   79B
  8
0
  6
CONTINUOUS
 62
   130
 10
-749.786935576828
 20
37.9167749106883
 30
0.0
 11
-749.786935576828
 21
21.8167751848696
 31
0.0
  0
LINE
  5
   79C
  8
0
  6
DASHDOT
 62
   130
 10
-749.786935576828
 20
62.8657114748818
 30
0.0
 11
-749.786935576828
 21
-43.635251092567
 31
0.0
  0
LINE
  5
   79D
  8
0
  6
CONTINUOUS
 62
   130
 10
-747.68693561259
 20
-11.4332242488863
 30
0.0
 11
-747.68693561259
 21
-29.2832239449026
 31
0.0
  0
LINE
  5
   79E
  8
0
  6
CONTINUOUS
 62
   130
 10
-750.836935558946
 20
20.766775202751
 30
0.0
 11
-749.786935576828
 21
20.766775202751
 31
0.0
  0
LINE
  5
   79F
  8
0
  6
CONTINUOUS
 62
   130
 10
-750.836935558946
 20
21.8167751848696
 30
0.0
 11
-749.786935576828
 21
21.8167751848696
 31
0.0
  0
LINE
  5
   7A0
  8
0
  6
CONTINUOUS
 62
   130
 10
-750.836935558946
 20
21.8167751848696
 30
0.0
 11
-750.836935558946
 21
20.766775202751
 31
0.0
  0
LINE
  5
   7A1
  8
0
  6
CONTINUOUS
 62
   130
 10
-749.786935576828
 20
37.9167749106883
 30
0.0
 11
-747.68693561259
 21
37.9167749106883
 31
0.0
  0
LINE
  5
   7A2
  8
0
  6
CONTINUOUS
 62
   130
 10
-749.786935576828
 20
-29.2832239449026
 30
0.0
 11
-747.68693561259
 21
-29.2832239449026
 31
0.0
  0
LINE
  5
   7A3
  8
0
  6
CONTINUOUS
 62
   130
 10
-749.786935576828
 20
-13.1832242190839
 30
0.0
 11
-749.786935576828
 21
-29.2832239449026
 31
0.0
  0
LINE
  5
   7A4
  8
0
  6
CONTINUOUS
 62
   130
 10
-750.836935558946
 20
-13.1832242190839
 30
0.0
 11
-749.786935576828
 21
-13.1832242190839
 31
0.0
  0
LINE
  5
   7A5
  8
0
  6
CONTINUOUS
 62
   130
 10
-750.836935558946
 20
-12.1332242369653
 30
0.0
 11
-750.836935558946
 21
-13.1832242190839
 31
0.0
  0
LINE
  5
   7A6
  8
0
  6
DOT
 62
   130
 10
-749.786935576828
 20
20.0667752146719
 30
0.0
 11
-749.786935576828
 21
-11.4332242488863
 31
0.0
  0
LINE
  5
   7A7
  8
0
  6
CONTINUOUS
 62
   130
 10
-747.68693561259
 20
37.9167749106883
 30
0.0
 11
-747.68693561259
 21
20.0667752146719
 31
0.0
  0
LINE
  5
   7A8
  8
0
  6
CONTINUOUS
 62
   130
 10
-751.186935552986
 20
27.7667750835417
 30
0.0
 11
-749.786935576828
 21
27.7667750835417
 31
0.0
  0
LINE
  5
   7A9
  8
0
  6
CONTINUOUS
 62
   130
 10
-751.186935552986
 20
25.6667751193045
 30
0.0
 11
-749.786935576828
 21
25.6667751193045
 31
0.0
  0
LINE
  5
   7AA
  8
0
  6
CONTINUOUS
 62
   130
 10
-751.186935552986
 20
28.291775074601
 30
0.0
 11
-751.186935552986
 21
25.1417751282452
 31
0.0
  0
LINE
  5
   7AB
  8
0
  6
DOT
 62
   130
 10
-751.186935552986
 20
28.291775074601
 30
0.0
 11
-752.586935529144
 21
27.3474631671032
 31
0.0
  0
LINE
  5
   7AC
  8
0
  6
DOT
 62
   130
 10
-752.586935529144
 20
26.0860870357431
 30
0.0
 11
-751.186935552986
 21
25.1417751282452
 31
0.0
  0
LINE
  5
   7AD
  8
0
  6
DOT
 62
   130
 10
-752.586935529144
 20
27.3474631671032
 30
0.0
 11
-752.586935529144
 21
26.0860870357431
 31
0.0
  0
LINE
  5
   7AE
  8
0
  6
DOT
 62
   130
 10
-752.586935529144
 20
-18.7139122013175
 30
0.0
 11
-751.186935552986
 21
-19.6582241088154
 31
0.0
  0
LINE
  5
   7AF
  8
0
  6
DOT
 62
   130
 10
-752.586935529144
 20
-17.4525360699574
 30
0.0
 11
-752.586935529144
 21
-18.7139122013175
 31
0.0
  0
LINE
  5
   7B0
  8
0
  6
DOT
 62
   130
 10
-751.186935552986
 20
-16.5082241624595
 30
0.0
 11
-752.586935529144
 21
-17.4525360699574
 31
0.0
  0
LINE
  5
   7B1
  8
0
  6
CONTINUOUS
 62
   130
 10
-751.186935552986
 20
-16.5082241624595
 30
0.0
 11
-751.186935552986
 21
-19.6582241088153
 31
0.0
  0
LINE
  5
   7B2
  8
0
  6
CONTINUOUS
 62
   130
 10
-751.186935552986
 20
-19.133224117756
 30
0.0
 11
-749.786935576828
 21
-19.133224117756
 31
0.0
  0
LINE
  5
   7B3
  8
0
  6
CONTINUOUS
 62
   130
 10
-751.186935552986
 20
-17.0332241535188
 30
0.0
 11
-749.786935576828
 21
-17.0332241535188
 31
0.0
  0
LINE
  5
   7B4
  8
0
  6
CONTINUOUS
 62
   130
 10
-749.786935576828
 20
20.766775202751
 30
0.0
 11
-747.68693561259
 21
20.766775202751
 31
0.0
  0
LINE
  5
   7B5
  8
0
  6
CONTINUOUS
 62
   130
 10
-750.836935558946
 20
-12.1332242369653
 30
0.0
 11
-747.68693561259
 21
-12.1332242369653
 31
0.0
  0
LINE
  5
   7B6
  8
0
  6
DASHDOT
 62
   130
 10
-750.836935558946
 20
62.8657114748818
 30
0.0
 11
-750.836935558946
 21
-44.0078413651901
 31
0.0
  0
INSERT
  5
   7B7
  8
0
  6
CONTINUOUS
 62
     7
  2
*HATCH7
 10
-713.913757324219
 20
2.56676483154297
 30
0.0
 41
0.699999988079071
 42
0.699999988079071
 50
269.999999844103
 43
0.699999988079071
  0
INSERT
  5
   7B8
  8
0
  6
CONTINUOUS
 62
     7
  2
*HATCH8
 10
-713.913757324219
 20
2.56676483154297
 30
0.0
 41
0.699999988079071
 42
0.699999988079071
 50
269.999999844103
 43
0.699999988079071
  0
LINE
  5
   7B9
  8
0
  6
CONTINUOUS
 62
   130
 10
-736.486931797893
 20
1.83482004602639
 30
0.0
 11
-736.486931797893
 21
-3.68293570921741
 31
0.0
  0
LINE
  5
   7BA
  8
0
  6
CONTINUOUS
 62
   130
 10
-751.186940726669
 20
55.7667639255524
 30
0.0
 11
-748.736940768392
 21
55.7667639255524
 31
0.0
  0
LINE
  5
   7BB
  8
0
  6
CONTINUOUS
 62
   130
 10
-751.186940726669
 20
52.266763985157
 30
0.0
 11
-748.736940768392
 21
52.266763985157
 31
0.0
  0
LINE
  5
   7BC
  8
0
  6
CONTINUOUS
 62
   130
 10
-748.386940774353
 20
55.4167639315128
 30
0.0
 11
-748.386940774353
 21
52.6167639791966
 31
0.0
  0
CIRCLE
  5
   7BD
  8
0
  6
CONTINUOUS
 62
   130
 10
-749.786940750511
 20
54.0167639553547
 30
0.0
 40
0.524999991059303
  0
LINE
  5
   7BE
  8
0
  6
CONTINUOUS
 62
   130
 10
-748.736940768392
 20
55.7667639255524
 30
0.0
 11
-748.386940774353
 21
55.4167639315128
 31
0.0
  0
LINE
  5
   7BF
  8
0
  6
CONTINUOUS
 62
   130
 10
-748.386940774353
 20
52.6167639791966
 30
0.0
 11
-748.736940768392
 21
52.266763985157
 31
0.0
  0
LINE
  5
   7C0
  8
0
  6
CONTINUOUS
 62
   130
 10
-748.736940768392
 20
55.7667639255524
 30
0.0
 11
-748.736940768392
 21
52.266763985157
 31
0.0
  0
LINE
  5
   7C1
  8
0
  6
CONTINUOUS
 62
   130
 10
-751.186940726669
 20
-30.3332346081734
 30
0.0
 11
-748.736940768392
 21
-30.3332346081734
 31
0.0
  0
LINE
  5
   7C2
  8
0
  6
CONTINUOUS
 62
   130
 10
-748.736940768392
 20
-26.833234667778
 30
0.0
 11
-748.736940768392
 21
-30.3332346081734
 31
0.0
  0
LINE
  5
   7C3
  8
0
  6
CONTINUOUS
 62
   130
 10
-751.186940726669
 20
-26.833234667778
 30
0.0
 11
-748.736940768392
 21
-26.833234667778
 31
0.0
  0
LINE
  5
   7C4
  8
0
  6
CONTINUOUS
 62
   130
 10
-748.386940774353
 20
-29.9832346141338
 30
0.0
 11
-748.736940768392
 21
-30.3332346081734
 31
0.0
  0
LINE
  5
   7C5
  8
0
  6
CONTINUOUS
 62
   130
 10
-748.386940774353
 20
-27.1832346618176
 30
0.0
 11
-748.386940774353
 21
-29.9832346141338
 31
0.0
  0
LINE
  5
   7C6
  8
0
  6
CONTINUOUS
 62
   130
 10
-748.736940768392
 20
-26.833234667778
 30
0.0
 11
-748.386940774353
 21
-27.1832346618176
 31
0.0
  0
CIRCLE
  5
   7C7
  8
0
  6
CONTINUOUS
 62
   130
 10
-749.786940750511
 20
-28.5832346379757
 30
0.0
 40
0.524999991059303
  0
CIRCLE
  5
   7C8
  8
0
  6
CONTINUOUS
 62
   130
 10
-796.999667812017
 20
76.2873652009586
 30
0.0
 40
1.5
  0
CIRCLE
  5
   7C9
  8
0
  6
CONTINUOUS
 62
   130
 10
-778.860057342611
 20
64.6261870420545
 30
0.0
 40
1.5
  0
INSERT
  5
   7CA
  8
0
  6
CONTINUOUS
 62
     7
  2
*HATCH9
 10
-713.913757324219
 20
2.56676483154297
 30
0.0
 41
0.699999988079071
 42
0.699999988079071
 50
269.999999844103
 43
0.699999988079071
  0
INSERT
  5
   7CB
  8
0
  6
CONTINUOUS
 62
     7
  2
*HATCH10
 10
-713.913757324219
 20
2.56676483154297
 30
0.0
 41
0.699999988079071
 42
0.699999988079071
 50
269.999999844103
 43
0.699999988079071
  0
LINE
  5
   7CC
  8
0
  6
CONTINUOUS
 62
   130
 10
-822.498347457764
 20
51.9318596183411
 30
0.0
 11
-820.398347493527
 21
51.9318596183411
 31
0.0
  0
LINE
  5
   7CD
  8
0
  6
CONTINUOUS
 62
   130
 10
-822.498347457764
 20
44.9318597375504
 30
0.0
 11
-820.398347493527
 21
44.9318597375504
 31
0.0
  0
LINE
  5
   7CE
  8
0
  6
CONTINUOUS
 62
   130
 10
-822.498347457764
 20
-19.4983304559396
 30
0.0
 11
-820.398347493527
 21
-19.4983304559396
 31
0.0
  0
LINE
  5
   7CF
  8
0
  6
CONTINUOUS
 62
   130
 10
-822.498347457764
 20
-26.4983303367303
 30
0.0
 11
-820.398347493527
 21
-26.4983303367303
 31
0.0
  0
LINE
  5
   7D0
  8
0
  6
CONTINUOUS
 62
   130
 10
-829.498347338555
 20
-20.5483304380582
 30
0.0
 11
-829.498347338555
 21
-25.5032240271623
 31
0.0
  0
INSERT
  5
   7D1
  8
0
  6
CONTINUOUS
 62
     3
  2
*UDIM35
 10
0.0
 20
0.0
 30
0.0
  0
TEXT
  5
   7D2
  8
0
  6
CONTINUOUS
 62
     2
 10
-793.436521388579
 20
77.1113002398706
 30
0.0
 40
2.00000003448554
  1
75mm.CON VITI SIGILLABILI
 50
359.999999844103
 41
0.75
 11
-793.436521385863
 21
78.1113002571134
 31
0.0
 73
     2
  0
TEXT
  5
   7D3
  8
0
  6
CONTINUOUS
 62
     2
 10
-793.436521257445
 20
74.1113002050501
 30
0.0
 40
2.00000003448554
  1
75mm.WITH SCREWS TO SEAL
 50
359.999999844103
 41
0.75
 11
-793.436521254729
 21
75.1113002222929
 31
0.0
 73
     2
  0
TEXT
  5
   7D4
  8
0
  6
CONTINUOUS
 62
     2
 10
-721.131375003229
 20
2.33089393819596
 30
0.0
 40
2.99999997871263
  1
X
 50
359.999999844103
 41
0.983333365784751
 11
-721.131374999155
 21
3.83089392755227
 31
0.0
 73
     2
  0
TEXT
  5
   7D5
  8
0
  6
CONTINUOUS
 62
     2
 10
-862.544991064208
 20
2.71614991212672
 30
0.0
 40
2.99999997871263
  1
X
 50
359.999999844103
 41
0.983333365784751
 11
-862.544991060134
 21
4.21614990148304
 31
0.0
 73
     2
  0
INSERT
  5
   7D6
  8
0
  6
CONTINUOUS
 62
     3
  2
*UDIM36
 10
0.0
 20
0.0
 30
0.0
  0
INSERT
  5
   7D7
  8
0
  6
CONTINUOUS
 62
     3
  2
*UDIM37
 10
0.0
 20
0.0
 30
0.0
  0
INSERT
  5
   7D8
  8
0
  6
CONTINUOUS
 62
     7
  2
*UDIM38
 10
0.0
 20
0.0
 30
0.0
  0
INSERT
  5
   7D9
  8
0
  6
CONTINUOUS
 62
     7
  2
*UDIM39
 10
0.0
 20
0.0
 30
0.0
  0
INSERT
  5
   7DA
  8
0
  6
CONTINUOUS
 62
     3
  2
*UDIM40
 10
0.0
 20
0.0
 30
0.0
  0
INSERT
  5
   7DB
  8
0
  6
CONTINUOUS
 62
     3
  2
*UDIM41
 10
0.0
 20
0.0
 30
0.0
  0
INSERT
  5
   7DC
  8
0
  6
CONTINUOUS
 62
     3
  2
*UDIM42
 10
0.0
 20
0.0
 30
0.0
  0
INSERT
  5
   7DD
  8
0
  6
CONTINUOUS
 62
     3
  2
*UDIM43
 10
0.0
 20
0.0
 30
0.0
  0
INSERT
  5
   7DE
  8
0
  6
CONTINUOUS
 62
     7
  2
*UDIM44
 10
0.0
 20
0.0
 30
0.0
  0
TEXT
  5
   7DF
  8
0
  6
CONTINUOUS
 62
     2
 10
-737.525825368511
 20
63.3531713558356
 30
0.0
 40
3.50000002384186
  1
:
 50
359.999999844103
 41
0.933333333333333
 72
     1
 11
-736.242492021682
 21
65.1031713642712
 31
0.0
 73
     2
  0
ENDSEC
  0
EOF
