  0
SECTION
  2
HEADER
  9
$ACADVER
  1
AC1009
  9
$DWGCODEPAGE
  3
iso8859-1
  9
$INSBASE
 10
0.0
 20
0.0
 30
0.0
  9
$EXTMIN
 10
1.0E20
 20
1.0E20
  9
$EXTMAX
 10
-1.0E20
 20
-1.0E20
  9
$LIMMIN
 10
0.0
 20
0.0
  9
$LIMMAX
 10
12.0
 20
9.0
  9
$ORTHOMODE
 70
     0
  9
$REGENMODE
 70
     1
  9
$FILLMODE
 70
     1
  9
$QTEXTMODE
 70
     0
  9
$MIRRTEXT
 70
     1
  9
$DRAGMODE
 70
     2
  9
$LTSCALE
 40
15.0
  9
$OSMODE
 70
     0
  9
$ATTMODE
 70
     1
  9
$TEXTSIZE
 40
0.2
  9
$TRACEWID
 40
0.05
  9
$TEXTSTYLE
  7
STANDARD
  9
$CLAYER
  8
0
  9
$CELTYPE
  6
DASHED
  9
$CECOLOR
 62
   256
  9
$DIMSCALE
 40
1.0
  9
$DIMASZ
 40
0.18
  9
$DIMEXO
 40
0.0625
  9
$DIMDLI
 40
0.38
  9
$DIMRND
 40
0.0
  9
$DIMDLE
 40
0.0
  9
$DIMEXE
 40
0.18
  9
$DIMTP
 40
0.0
  9
$DIMTM
 40
0.0
  9
$DIMTXT
 40
0.18
  9
$DIMCEN
 40
0.09
  9
$DIMTSZ
 40
0.0
  9
$DIMTOL
 70
     0
  9
$DIMLIM
 70
     0
  9
$DIMTIH
 70
     1
  9
$DIMTOH
 70
     1
  9
$DIMSE1
 70
     0
  9
$DIMSE2
 70
     0
  9
$DIMTAD
 70
     0
  9
$DIMZIN
 70
     0
  9
$DIMBLK
  1

  9
$DIMASO
 70
     1
  9
$DIMSHO
 70
     1
  9
$DIMPOST
  1

  9
$DIMAPOST
  1

  9
$DIMALT
 70
     0
  9
$DIMALTD
 70
     2
  9
$DIMALTF
 40
25.4
  9
$DIMLFAC
 40
1.0
  9
$DIMTOFL
 70
     0
  9
$DIMTVP
 40
0.0
  9
$DIMTIX
 70
     0
  9
$DIMSOXD
 70
     0
  9
$DIMSAH
 70
     0
  9
$DIMBLK1
  1

  9
$DIMBLK2
  1

  9
$DIMSTYLE
  2
STANDARD
  9
$DIMCLRD
 70
     0
  9
$DIMCLRE
 70
     0
  9
$DIMCLRT
 70
     0
  9
$DIMTFAC
 40
1.0
  9
$DIMGAP
 40
0.09
  9
$LUNITS
 70
     2
  9
$LUPREC
 70
     4
  9
$AXISMODE
 70
     0
  9
$AXISUNIT
 10
0.0
 20
0.0
  9
$SKETCHINC
 40
0.1
  9
$FILLETRAD
 40
0.0
  9
$AUNITS
 70
     0
  9
$AUPREC
 70
     0
  9
$MENU
  1
acad
  9
$ELEVATION
 40
0.0
  9
$PELEVATION
 40
0.0
  9
$THICKNESS
 40
0.0
  9
$LIMCHECK
 70
     0
  9
$BLIPMODE
 70
     1
  9
$CHAMFERA
 40
0.0
  9
$CHAMFERB
 40
0.0
  9
$SKPOLY
 70
     0
  9
$TDCREATE
 40
0.000000000
  9
$TDUPDATE
 40
0.000000000
  9
$TDINDWG
 40
0.0
  9
$TDUSRTIMER
 40
0.0
  9
$USRTIMER
 70
     1
  9
$ANGBASE
 50
0.0
  9
$ANGDIR
 70
     0
  9
$PDMODE
 70
     0
  9
$PDSIZE
 40
0.0
  9
$PLINEWID
 40
0.0
  9
$COORDS
 70
     1
  9
$SPLFRAME
 70
     0
  9
$SPLINETYPE
 70
     6
  9
$SPLINESEGS
 70
     8
  9
$ATTDIA
 70
     0
  9
$ATTREQ
 70
     1
  9
$HANDLING
 70
     1
  9
$HANDSEED
  5
   849
  9
$SURFTAB1
 70
     6
  9
$SURFTAB2
 70
     6
  9
$SURFTYPE
 70
     6
  9
$SURFU
 70
     6
  9
$SURFV
 70
     6
  9
$UCSNAME
  2

  9
$UCSORG
 10
0.0
 20
0.0
 30
0.0
  9
$UCSXDIR
 10
1.0
 20
0.0
 30
0.0
  9
$UCSYDIR
 10
0.0
 20
1.0
 30
0.0
  9
$PUCSNAME
  2

  9
$PUCSORG
 10
0.0
 20
0.0
 30
0.0
  9
$PUCSXDIR
 10
1.0
 20
0.0
 30
0.0
  9
$PUCSYDIR
 10
0.0
 20
1.0
 30
0.0
  9
$USERI1
 70
     0
  9
$USERI2
 70
     0
  9
$USERI3
 70
     0
  9
$USERI4
 70
     0
  9
$USERI5
 70
     0
  9
$USERR1
 40
0.0
  9
$USERR2
 40
0.0
  9
$USERR3
 40
0.0
  9
$USERR4
 40
0.0
  9
$USERR5
 40
0.0
  9
$WORLDVIEW
 70
     1
  9
$SHADEDGE
 70
     3
  9
$SHADEDIF
 70
    70
  9
$TILEMODE
 70
     1
  9
$MAXACTVP
 70
    16
  9
$PINSBASE
 10
0.0
 20
0.0
 30
0.0
  9
$PLIMCHECK
 70
     0
  9
$PEXTMIN
 10
1.0E20
 20
1.0E20
 30
1.0E20
  9
$PEXTMAX
 10
-1.0E20
 20
-1.0E20
 30
-1.0E20
  9
$PLIMMIN
 10
0.0
 20
0.0
  9
$PLIMMAX
 10
12.0
 20
9.0
  9
$UNITMODE
 70
     0
  9
$VISRETAIN
 70
     0
  0
ENDSEC
  0
SECTION
  2
TABLES
  0
TABLE
  2
VPORT
 70
     1
  0
VPORT
  2
*ACTIVE
 70
     0
 10
0.0
 20
0.0
 11
1.0
 21
1.0
 12
6.801242
 22
4.5
 13
0.0
 23
0.0
 14
1.0
 24
1.0
 15
0.0
 25
0.0
 16
0.0
 26
0.0
 36
1.0
 17
0.0
 27
0.0
 37
0.0
 40
9.0
 41
1.511387
 42
50.0
 43
0.0
 44
0.0
 50
0.0
 51
0.0
 71
     0
 72
   100
 73
     1
 74
     1
 75
     0
 76
     0
 77
     0
 78
     0
  0
ENDTAB
  0
TABLE
  2
LTYPE
 70
    41
  0
LTYPE
  2
BYBLOCK
 70
     0
  3

 72
    65
 73
     0
 40
0.0
  0
LTYPE
  2
BYLAYER
 70
     0
  3

 72
    65
 73
     0
 40
0.0
  0
LTYPE
  2
CONTINUOUS
 70
     0
  3
Solid line
 72
    65
 73
     0
 40
0.0
  0
LTYPE
  2
BORDER
 70
    64
  3
__ __ . __ __ . __ __ . __ __ . __ __ . __ __ .
 72
    65
 73
     6
 40
1.75
 49
0.5
 49
-0.25
 49
0.5
 49
-0.25
 49
0.0
 49
-0.25
  0
LTYPE
  2
BORDER2
 70
    64
  3
__.__.__.__.__.__.__.__.__.__.__.__.__.__.__.__
 72
    65
 73
     6
 40
0.875
 49
0.25
 49
-0.125
 49
0.25
 49
-0.125
 49
0.0
 49
-0.125
  0
LTYPE
  2
BORDERX2
 70
    64
  3
____  ____  .  ____  ____  .  ____  ____  .  __
 72
    65
 73
     6
 40
3.5
 49
1.0
 49
-0.5
 49
1.0
 49
-0.5
 49
0.0
 49
-0.5
  0
LTYPE
  2
CENTER
 70
    64
  3
____ _ ____ _ ____ _ ____ _ ____ _ ____ _ ____
 72
    65
 73
     4
 40
2.0
 49
1.25
 49
-0.25
 49
0.25
 49
-0.25
  0
LTYPE
  2
CENTER2
 70
    64
  3
___ _ ___ _ ___ _ ___ _ ___ _ ___ _ ___ _ ___ _
 72
    65
 73
     4
 40
1.125
 49
0.75
 49
-0.125
 49
0.125
 49
-0.125
  0
LTYPE
  2
CENTERX2
 70
    64
  3
________  __  ________  __  ________  __  _____
 72
    65
 73
     4
 40
4.0
 49
2.5
 49
-0.5
 49
0.5
 49
-0.5
  0
LTYPE
  2
DASHDOT
 70
    64
  3
__ . __ . __ . __ . __ . __ . __ . __ . __ . __
 72
    65
 73
     4
 40
1.0
 49
0.5
 49
-0.25
 49
0.0
 49
-0.25
  0
LTYPE
  2
DASHDOT2
 70
    64
  3
_._._._._._._._._._._._._._._._._._._._._._._._
 72
    65
 73
     4
 40
0.5
 49
0.25
 49
-0.125
 49
0.0
 49
-0.125
  0
LTYPE
  2
DASHDOTX2
 70
    64
  3
____  .  ____  .  ____  .  ____  .  ____  .  __
 72
    65
 73
     4
 40
2.0
 49
1.0
 49
-0.5
 49
0.0
 49
-0.5
  0
LTYPE
  2
DASHED
 70
    64
  3
__ __ __ __ __ __ __ __ __ __ __ __ __ __ __ __
 72
    65
 73
     2
 40
0.75
 49
0.5
 49
-0.25
  0
LTYPE
  2
DASHED2
 70
    64
  3
_ _ _ _ _ _ _ _ _ _ _ _ _ _ _ _ _ _ _ _ _ _ _ _
 72
    65
 73
     2
 40
0.375
 49
0.25
 49
-0.125
  0
LTYPE
  2
DASHEDX2
 70
    64
  3
____  ____  ____  ____  ____  ____  ____  ____
 72
    65
 73
     2
 40
1.5
 49
1.0
 49
-0.5
  0
LTYPE
  2
DIVIDE
 70
    64
  3
____ . . ____ . . ____ . . ____ . . ____ . . __
 72
    65
 73
     6
 40
1.25
 49
0.5
 49
-0.25
 49
0.0
 49
-0.25
 49
0.0
 49
-0.25
  0
LTYPE
  2
DIVIDE2
 70
    64
  3
__..__..__..__..__..__..__..__..__..__..__..__.
 72
    65
 73
     6
 40
0.625
 49
0.25
 49
-0.125
 49
0.0
 49
-0.125
 49
0.0
 49
-0.125
  0
LTYPE
  2
DIVIDEX2
 70
    64
  3
________  .  .  ________  .  .  ________  .  .
 72
    65
 73
     6
 40
2.5
 49
1.0
 49
-0.5
 49
0.0
 49
-0.5
 49
0.0
 49
-0.5
  0
LTYPE
  2
DOT
 70
    64
  3
. . . . . . . . . . . . . . . . . . . . . . . .
 72
    65
 73
     2
 40
0.25
 49
0.0
 49
-0.25
  0
LTYPE
  2
DOT2
 70
    64
  3
...............................................
 72
    65
 73
     2
 40
0.125
 49
0.0
 49
-0.125
  0
LTYPE
  2
DOTX2
 70
    64
  3
.  .  .  .  .  .  .  .  .  .  .  .  .  .  .  .
 72
    65
 73
     2
 40
0.5
 49
0.0
 49
-0.5
  0
LTYPE
  2
HIDDEN
 70
    64
  3
__ __ __ __ __ __ __ __ __ __ __ __ __ __ __ __
 72
    65
 73
     2
 40
0.375
 49
0.25
 49
-0.125
  0
LTYPE
  2
HIDDEN2
 70
    64
  3
_ _ _ _ _ _ _ _ _ _ _ _ _ _ _ _ _ _ _ _ _ _ _ _
 72
    65
 73
     2
 40
0.1875
 49
0.125
 49
-0.0625
  0
LTYPE
  2
HIDDENX2
 70
    64
  3
____ ____ ____ ____ ____ ____ ____ ____ ____ __
 72
    65
 73
     2
 40
0.75
 49
0.5
 49
-0.25
  0
LTYPE
  2
PHANTOM
 70
    64
  3
______  __  __  ______  __  __  ______  __  __
 72
    65
 73
     6
 40
2.5
 49
1.25
 49
-0.25
 49
0.25
 49
-0.25
 49
0.25
 49
-0.25
  0
LTYPE
  2
PHANTOM2
 70
    64
  3
___ _ _ ___ _ _ ___ _ _ ___ _ _ ___ _ _ ___ _ _
 72
    65
 73
     6
 40
1.25
 49
0.625
 49
-0.125
 49
0.125
 49
-0.125
 49
0.125
 49
-0.125
  0
LTYPE
  2
PHANTOMX2
 70
    64
  3
____________    ____    ____    ____________
 72
    65
 73
     6
 40
5.0
 49
2.5
 49
-0.5
 49
0.5
 49
-0.5
 49
0.5
 49
-0.5
  0
LTYPE
  2
ACAD_ISO02W100
 70
    64
  3
__ __ __ __ __ __ __ __ __ __ __ __ __ __ __ __
 72
    65
 73
     2
 40
15.0
 49
12.0
 49
-3.0
  0
LTYPE
  2
ACAD_ISO03W100
 70
    64
  3
__    __    __    __    __    __    __    __
 72
    65
 73
     2
 40
30.0
 49
12.0
 49
-18.0
  0
LTYPE
  2
ACAD_ISO04W100
 70
    64
  3
____ . ____ . ____ . ____ . ____ . ____ . ____
 72
    65
 73
     4
 40
30.5
 49
24.0
 49
-3.0
 49
0.5
 49
-3.0
  0
LTYPE
  2
ACAD_ISO05W100
 70
    64
  3
____ .. ____ .. ____ .. ____ .. ____ .. ____ ..
 72
    65
 73
     6
 40
34.0
 49
24.0
 49
-3.0
 49
0.5
 49
-3.0
 49
0.5
 49
-3.0
  0
LTYPE
  2
ACAD_ISO06W100
 70
    64
  3
____ ... ____ ... ____ ... ____ ... ____ ... __
 72
    65
 73
     8
 40
37.5
 49
24.0
 49
-3.0
 49
0.5
 49
-3.0
 49
0.5
 49
-3.0
 49
0.5
 49
-3.0
  0
LTYPE
  2
ACAD_ISO07W100
 70
    64
  3
. . . . . . . . . . . . . . . . . . . . . . . .
 72
    65
 73
     2
 40
3.5
 49
0.5
 49
-3.0
  0
LTYPE
  2
ACAD_ISO08W100
 70
    64
  3
____ __ ____ __ ____ __ ____ ____ __ __ ____ __
 72
    65
 73
     4
 40
36.0
 49
24.0
 49
-3.0
 49
6.0
 49
-3.0
  0
LTYPE
  2
ACAD_ISO09W100
 70
    64
  3
____ __ __ ____ __ __ ____ __ __ ____ __ __ ___
 72
    65
 73
     6
 40
45.0
 49
24.0
 49
-3.0
 49
6.0
 49
-3.0
 49
6.0
 49
-3.0
  0
LTYPE
  2
ACAD_ISO10W100
 70
    64
  3
__ . __ . __ . __ . __ . __ . __ . __ . __ . __
 72
    65
 73
     4
 40
18.5
 49
12.0
 49
-3.0
 49
0.5
 49
-3.0
  0
LTYPE
  2
ACAD_ISO11W100
 70
    64
  3
__ __ . __ __ . __ __ . __ __ . __ __ . __ __ .
 72
    65
 73
     6
 40
33.5
 49
12.0
 49
-3.0
 49
12.0
 49
-3.0
 49
0.5
 49
-3.0
  0
LTYPE
  2
ACAD_ISO12W100
 70
    64
  3
__ . . __ . . __ . . __ . . __ . . __ . . __ .
 72
    65
 73
     6
 40
22.0
 49
12.0
 49
-3.0
 49
0.5
 49
-3.0
 49
0.5
 49
-3.0
  0
LTYPE
  2
ACAD_ISO13W100
 70
    64
  3
__ __ . . __ __ . . __ __ . . __ __ . . __ __ .
 72
    65
 73
     8
 40
37.0
 49
12.0
 49
-3.0
 49
12.0
 49
-3.0
 49
0.5
 49
-3.0
 49
0.5
 49
-3.0
  0
LTYPE
  2
ACAD_ISO14W100
 70
    64
  3
__ . . . __ . . . __ . . . __ . . . __ . . . __
 72
    65
 73
     8
 40
25.5
 49
12.0
 49
-3.0
 49
0.5
 49
-3.0
 49
0.5
 49
-3.0
 49
0.5
 49
-3.0
  0
LTYPE
  2
ACAD_ISO15W100
 70
    64
  3
__ __ . . . __ __ . . . __ __ . . . __ __ . . .
 72
    65
 73
    10
 40
40.5
 49
12.0
 49
-3.0
 49
12.0
 49
-3.0
 49
0.5
 49
-3.0
 49
0.5
 49
-3.0
 49
0.5
 49
-3.0
  0
ENDTAB
  0
TABLE
  2
STYLE
 70
     4
  0
STYLE
  2
STANDARD
 70
    64
 40
0.0
 41
1.0
 50
0.0
 71
     0
 42
0.2
  3
txt
  4

  0
STYLE
  2
TOLERANCE
 70
    64
 40
0.0
 41
1.0
 50
0.0
 71
     0
 42
0.2
  3
../igesfont/iges1003.shx
  4

  0
STYLE
  2
ROMANS
 70
    64
 40
0.0
 41
1.0
 50
0.0
 71
     0
 42
0.2
  3
romans.shx
  4

  0
STYLE
  2
ROMANC
 70
    64
 40
0.0
 41
1.0
 50
0.0
 71
     0
 42
0.2
  3
romanc.shx
  4

  0
ENDTAB
  0
TABLE
  2
DIMSTYLE
 70
     2
  0
DIMSTYLE
  2
UNNAMED
 70
     0
  3

  4

  5

  6

  7

 40
1.0
 41
0.18
 42
0.0625
 43
0.38
 44
0.18
 45
0.0
 46
0.0
 47
0.0
 48
0.0
140
0.18
141
0.09
142
0.0
143
25.4
144
1.0
145
0.0
146
1.0
147
0.09
 71
     0
 72
     0
 73
     1
 74
     1
 75
     0
 76
     0
 77
     0
 78
     0
170
     0
171
     2
172
     0
173
     0
174
     0
175
     0
176
     0
177
     0
178
     0
  0
DIMSTYLE
  2
STANDARD
 70
     0
  3

  4

  5

  6

  7

 40
1.0
 41
0.18
 42
0.0625
 43
0.38
 44
0.18
 45
0.0
 46
0.0
 47
0.0
 48
0.0
140
0.18
141
0.09
142
0.0
143
25.4
144
1.0
145
0.0
146
1.0
147
0.09
 71
     0
 72
     0
 73
     1
 74
     1
 75
     0
 76
     0
 77
     0
 78
     0
170
     0
171
     2
172
     0
173
     0
174
     0
175
     0
176
     0
177
     0
178
     0
  0
ENDTAB
  0
TABLE
  2
LAYER
 70
     2
  0
LAYER
  2
0
 70
     0
 62
     7
  6
CONTINUOUS
  0
LAYER
  2
255
 70
     0
 62
     7
  6
CONTINUOUS
  0
ENDTAB
  0
ENDSEC
  0
SECTION
  2
BLOCKS
  0
BLOCK
  5
     B
  8
0
  6
CONTINUOUS
 62
     3
  2
*HATCH724
 70
    65
 10
0.0
 20
0.0
 30
0.0
  3
*HATCH724
  0
ENDBLK
  5
     C
  8
0
  6
CONTINUOUS
 62
     3
  0
BLOCK
  5
     D
  8
0
  6
CONTINUOUS
 62
     3
  2
*HATCH725
 70
    65
 10
0.0
 20
0.0
 30
0.0
  3
*HATCH725
  0
ENDBLK
  5
     E
  8
0
  6
CONTINUOUS
 62
     3
  0
BLOCK
  5
     F
  8
0
  6
CONTINUOUS
 62
     3
  2
*HATCH726
 70
    65
 10
0.0
 20
0.0
 30
0.0
  3
*HATCH726
  0
ENDBLK
  5
    10
  8
0
  6
CONTINUOUS
 62
     3
  0
BLOCK
  5
    11
  8
0
  6
CONTINUOUS
 62
     3
  2
*HATCH727
 70
    65
 10
0.0
 20
0.0
 30
0.0
  3
*HATCH727
  0
ENDBLK
  5
    12
  8
0
  6
CONTINUOUS
 62
     3
  0
BLOCK
  5
    13
  8
0
  6
CONTINUOUS
 62
     7
  2
*HATCH728
 70
    65
 10
0.0
 20
0.0
 30
0.0
  3
*HATCH728
  0
LINE
  5
    14
  8
0
  6
CONTINUOUS
 62
    52
 10
-51.7261390686035
 20
9.79215240478516
 30
0.0
 11
-54.5000152587891
 21
7.01827669143677
 31
0.0
  0
LINE
  5
    15
  8
0
  6
CONTINUOUS
 62
    52
 10
-47.4835014343262
 20
9.79215240478516
 30
0.0
 11
-50.4835014343262
 21
6.79215240478516
 31
0.0
  0
LINE
  5
    16
  8
0
  6
CONTINUOUS
 62
    52
 10
-43.2408638000488
 20
9.79215240478516
 30
0.0
 11
-46.2408638000488
 21
6.79215240478516
 31
0.0
  0
LINE
  5
    17
  8
0
  6
CONTINUOUS
 62
    52
 10
-38.9982261657715
 20
9.79215240478516
 30
0.0
 11
-41.9982261657715
 21
6.79215240478516
 31
0.0
  0
LINE
  5
    18
  8
0
  6
CONTINUOUS
 62
    52
 10
-34.7555885314941
 20
9.79215240478516
 30
0.0
 11
-37.7555885314941
 21
6.79215240478516
 31
0.0
  0
LINE
  5
    19
  8
0
  6
CONTINUOUS
 62
    52
 10
-30.5129489898682
 20
9.79215240478516
 30
0.0
 11
-33.5129508972168
 21
6.79215240478516
 31
0.0
  0
LINE
  5
    1A
  8
0
  6
CONTINUOUS
 62
    52
 10
-30.0000152587891
 20
6.06243133544922
 30
0.0
 11
-30.7702941894531
 21
5.29215240478516
 31
0.0
  0
ENDBLK
  5
    1B
  8
0
  6
CONTINUOUS
 62
     7
  0
BLOCK
  5
    1C
  8
0
  6
CONTINUOUS
 62
     7
  2
*HATCH729
 70
    65
 10
0.0
 20
0.0
 30
0.0
  3
*HATCH729
  0
LINE
  5
    1D
  8
0
  6
CONTINUOUS
 62
    52
 10
20.3987560272217
 20
9.79215240478516
 30
0.0
 11
16.9999847412109
 21
6.39338254928589
 31
0.0
  0
LINE
  5
    1E
  8
0
  6
CONTINUOUS
 62
    52
 10
18.4999847412109
 20
5.77206182479858
 30
0.0
 11
18.0200748443604
 21
5.29215240478516
 31
0.0
  0
LINE
  5
    1F
  8
0
  6
CONTINUOUS
 62
    52
 10
26.762716293335
 20
9.79215240478516
 30
0.0
 11
23.762716293335
 21
6.79215240478516
 31
0.0
  0
LINE
  5
    20
  8
0
  6
CONTINUOUS
 62
    52
 10
31.0053577423096
 20
9.79215240478516
 30
0.0
 11
28.0053577423096
 21
6.79215240478516
 31
0.0
  0
LINE
  5
    21
  8
0
  6
CONTINUOUS
 62
    52
 10
35.2479972839356
 20
9.79215240478516
 30
0.0
 11
32.2479972839355
 21
6.79215240478516
 31
0.0
  0
LINE
  5
    22
  8
0
  6
CONTINUOUS
 62
    52
 10
39.4906349182129
 20
9.79215240478516
 30
0.0
 11
36.4906349182129
 21
6.79215240478516
 31
0.0
  0
LINE
  5
    23
  8
0
  6
CONTINUOUS
 62
    52
 10
41.4999847412109
 20
7.55885744094849
 30
0.0
 11
40.7332763671875
 21
6.79215240478516
 31
0.0
  0
ENDBLK
  5
    24
  8
0
  6
CONTINUOUS
 62
     7
  0
BLOCK
  5
    25
  8
0
  6
CONTINUOUS
 62
     7
  2
*HATCH730
 70
    65
 10
0.0
 20
0.0
 30
0.0
  3
*HATCH730
  0
LINE
  5
    26
  8
0
  6
CONTINUOUS
 62
    52
 10
73.4315872192383
 20
9.79197025299072
 30
0.0
 11
70.5
 21
6.86038446426392
 31
0.0
  0
LINE
  5
    27
  8
0
  6
CONTINUOUS
 62
    52
 10
77.6742248535156
 20
9.79197025299072
 30
0.0
 11
74.6742248535156
 21
6.79196977615356
 31
0.0
  0
LINE
  5
    28
  8
0
  6
CONTINUOUS
 62
    52
 10
81.9168701171875
 20
9.79197025299072
 30
0.0
 11
78.9168701171875
 21
6.79196977615356
 31
0.0
  0
LINE
  5
    29
  8
0
  6
CONTINUOUS
 62
    52
 10
86.1595153808594
 20
9.79197025299072
 30
0.0
 11
83.1595153808594
 21
6.79196977615356
 31
0.0
  0
LINE
  5
    2A
  8
0
  6
CONTINUOUS
 62
    52
 10
90.4021606445312
 20
9.79197025299072
 30
0.0
 11
87.4021606445313
 21
6.79196977615356
 31
0.0
  0
LINE
  5
    2B
  8
0
  6
CONTINUOUS
 62
    52
 10
94.6448059082031
 20
9.79197025299072
 30
0.0
 11
91.6448059082031
 21
6.79196977615356
 31
0.0
  0
LINE
  5
    2C
  8
0
  6
CONTINUOUS
 62
    52
 10
95.0
 20
5.90454006195068
 30
0.0
 11
94.3874282836914
 21
5.29196977615356
 31
0.0
  0
ENDBLK
  5
    2D
  8
0
  6
CONTINUOUS
 62
     7
  0
BLOCK
  5
    2E
  8
0
  6
CONTINUOUS
 62
     7
  2
*HATCH731
 70
    65
 10
0.0
 20
0.0
 30
0.0
  3
*HATCH731
  0
LINE
  5
    2F
  8
0
  6
CONTINUOUS
 62
    52
 10
145.55647277832
 20
9.79197025299072
 30
0.0
 11
142.0
 21
6.23549032211304
 31
0.0
  0
LINE
  5
    30
  8
0
  6
CONTINUOUS
 62
    52
 10
143.5
 20
5.61417007446289
 30
0.0
 11
143.177795410156
 21
5.29196977615356
 31
0.0
  0
LINE
  5
    31
  8
0
  6
CONTINUOUS
 62
    52
 10
151.920440673828
 20
9.79197025299072
 30
0.0
 11
148.920440673828
 21
6.79196977615356
 31
0.0
  0
LINE
  5
    32
  8
0
  6
CONTINUOUS
 62
    52
 10
156.1630859375
 20
9.79197025299072
 30
0.0
 11
153.1630859375
 21
6.79196977615356
 31
0.0
  0
LINE
  5
    33
  8
0
  6
CONTINUOUS
 62
    52
 10
160.405731201172
 20
9.79197025299072
 30
0.0
 11
157.405731201172
 21
6.79196977615356
 31
0.0
  0
LINE
  5
    34
  8
0
  6
CONTINUOUS
 62
    52
 10
164.648376464844
 20
9.79197025299072
 30
0.0
 11
161.648376464844
 21
6.79196977615356
 31
0.0
  0
LINE
  5
    35
  8
0
  6
CONTINUOUS
 62
    52
 10
166.5
 20
7.40096616744995
 30
0.0
 11
165.891006469727
 21
6.79196977615356
 31
0.0
  0
ENDBLK
  5
    36
  8
0
  6
CONTINUOUS
 62
     7
  0
BLOCK
  5
    37
  8
0
  6
CONTINUOUS
 62
     7
  2
*HATCH732
 70
    65
 10
0.0
 20
0.0
 30
0.0
  3
*HATCH732
  0
LINE
  5
    38
  8
0
  6
CONTINUOUS
 62
     7
 10
-192.591552734375
 20
-60.6454391479492
 30
0.0
 11
-194.597961425781
 21
-62.6518478393555
 31
0.0
  0
LINE
  5
    39
  8
0
  6
CONTINUOUS
 62
     7
 10
-191.743026733398
 20
-60.6454391479492
 30
0.0
 11
-194.805191040039
 21
-63.7075996398926
 31
0.0
  0
LINE
  5
    3A
  8
0
  6
CONTINUOUS
 62
     7
 10
-190.91618347168
 20
-60.6671295166016
 30
0.0
 11
-194.597091674805
 21
-64.3480377197266
 31
0.0
  0
LINE
  5
    3B
  8
0
  6
CONTINUOUS
 62
     7
 10
-190.424728393555
 20
-61.0242004394531
 30
0.0
 11
-194.38899230957
 21
-64.9884796142578
 31
0.0
  0
LINE
  5
    3C
  8
0
  6
CONTINUOUS
 62
     7
 10
-189.93327331543
 20
-61.3812637329102
 30
0.0
 11
-194.0185546875
 21
-65.466552734375
 31
0.0
  0
LINE
  5
    3D
  8
0
  6
CONTINUOUS
 62
     7
 10
-189.444244384766
 20
-61.7407722473145
 30
0.0
 11
-193.527084350586
 21
-65.823616027832
 31
0.0
  0
LINE
  5
    3E
  8
0
  6
CONTINUOUS
 62
     7
 10
-189.236145019531
 20
-62.3812065124512
 30
0.0
 11
-193.035629272461
 21
-66.1806869506836
 31
0.0
  0
LINE
  5
    3F
  8
0
  6
CONTINUOUS
 62
     7
 10
-189.028060913086
 20
-63.0216445922852
 30
0.0
 11
-192.358184814453
 21
-66.3517761230469
 31
0.0
  0
LINE
  5
    40
  8
0
  6
CONTINUOUS
 62
     7
 10
-188.977340698242
 20
-63.8194465637207
 30
0.0
 11
-191.509674072266
 21
-66.3517761230469
 31
0.0
  0
LINE
  5
    41
  8
0
  6
CONTINUOUS
 62
     7
 10
-189.3857421875
 20
-65.0763778686524
 30
0.0
 11
-189.904205322266
 21
-65.5948333740234
 31
0.0
  0
ENDBLK
  5
    42
  8
0
  6
CONTINUOUS
 62
     7
  0
BLOCK
  5
    43
  8
0
  6
CONTINUOUS
 62
     7
  2
*HATCH733
 70
    65
 10
0.0
 20
0.0
 30
0.0
  3
*HATCH733
  0
LINE
  5
    44
  8
0
  6
CONTINUOUS
 62
     7
 10
-160.91291809082
 20
-35.3307571411133
 30
0.0
 11
-163.125274658203
 21
-37.5431289672852
 31
0.0
  0
LINE
  5
    45
  8
0
  6
CONTINUOUS
 62
     7
 10
-160.064376831055
 20
-35.3307571411133
 30
0.0
 11
-163.231491088867
 21
-38.497859954834
 31
0.0
  0
LINE
  5
    46
  8
0
  6
CONTINUOUS
 62
     7
 10
-159.296051025391
 20
-35.4109573364258
 30
0.0
 11
-163.023391723633
 21
-39.138298034668
 31
0.0
  0
LINE
  5
    47
  8
0
  6
CONTINUOUS
 62
     7
 10
-158.804595947266
 20
-35.7680282592773
 30
0.0
 11
-162.815292358398
 21
-39.7787322998047
 31
0.0
  0
LINE
  5
    48
  8
0
  6
CONTINUOUS
 62
     7
 10
-158.313140869141
 20
-36.1250953674316
 30
0.0
 11
-162.398422241211
 21
-40.2103805541992
 31
0.0
  0
LINE
  5
    49
  8
0
  6
CONTINUOUS
 62
     7
 10
-157.870544433594
 20
-36.5310363769531
 30
0.0
 11
-161.906951904297
 21
-40.5674476623535
 31
0.0
  0
LINE
  5
    4A
  8
0
  6
CONTINUOUS
 62
     7
 10
-157.662445068359
 20
-37.1714706420898
 30
0.0
 11
-161.415496826172
 21
-40.9245185852051
 31
0.0
  0
LINE
  5
    4B
  8
0
  6
CONTINUOUS
 62
     7
 10
-157.454360961914
 20
-37.8119087219238
 30
0.0
 11
-160.679550170898
 21
-41.0370979309082
 31
0.0
  0
LINE
  5
    4C
  8
0
  6
CONTINUOUS
 62
     7
 10
-157.504653930664
 20
-38.7107276916504
 30
0.0
 11
-159.831024169922
 21
-41.0370979309082
 31
0.0
  0
ENDBLK
  5
    4D
  8
0
  6
CONTINUOUS
 62
     7
  0
BLOCK
  5
    4E
  8
0
  6
CONTINUOUS
 62
     3
  2
*UDIM1130
 70
    65
 10
0.0
 20
0.0
 30
0.0
  3
*UDIM1130
  0
TEXT
  5
    4F
  8
0
  6
CONTINUOUS
 62
     3
 10
2180.04602953881
 20
-1103.2329940728
 30
0.0
 40
3.00000002980232
  1
71
 50
359.999999844103
 41
0.933333333333333
 72
     1
 11
2182.54602956772
 21
-1101.73299406469
 31
0.0
 73
     2
  0
LINE
  5
    50
  8
0
  6
CONTINUOUS
 62
     3
 10
2162.24202632904
 20
-1153.51033582665
 30
0.0
 11
2162.24202632904
 21
-1102.23299407959
 31
0.0
  0
LINE
  5
    51
  8
0
  6
CONTINUOUS
 62
     3
 10
2197.74202346802
 20
-1137.07959164739
 30
0.0
 11
2197.74202346802
 21
-1102.23299407959
 31
0.0
  0
LINE
  5
    52
  8
0
  6
CONTINUOUS
 62
     3
 10
2162.24202632904
 20
-1104.23299407959
 30
0.0
 11
2197.74202346802
 21
-1104.23299407959
 31
0.0
  0
LINE
  5
    53
  8
0
  6
CONTINUOUS
 62
     3
 10
2165.19644960625
 20
-1103.71204964964
 30
0.0
 11
2162.24202632904
 21
-1104.23299407959
 31
0.0
  0
LINE
  5
    54
  8
0
  6
CONTINUOUS
 62
     3
 10
2162.24202632904
 20
-1104.23299407959
 30
0.0
 11
2165.19644960625
 21
-1104.75393850954
 31
0.0
  0
LINE
  5
    55
  8
0
  6
CONTINUOUS
 62
     3
 10
2194.78760019081
 20
-1104.75393850954
 30
0.0
 11
2197.74202346802
 21
-1104.23299407959
 31
0.0
  0
LINE
  5
    56
  8
0
  6
CONTINUOUS
 62
     3
 10
2197.74202346802
 20
-1104.23299407959
 30
0.0
 11
2194.78760019081
 21
-1103.71204964964
 31
0.0
  0
ENDBLK
  5
    57
  8
0
  6
CONTINUOUS
 62
     3
  0
BLOCK
  5
    58
  8
0
  6
CONTINUOUS
 62
     3
  2
*UDIM1131
 70
    65
 10
0.0
 20
0.0
 30
0.0
  3
*UDIM1131
  0
TEXT
  5
    59
  8
0
  6
CONTINUOUS
 62
     3
 10
2143.60853194132
 20
-1207.82526097407
 30
0.0
 40
3.00000002980232
  1
325
 50
449.999999844103
 41
0.933333333333333
 72
     1
 11
2142.108531937
 21
-1203.92526093125
 31
0.0
 73
     2
  0
LINE
  5
    5A
  8
0
  6
CONTINUOUS
 62
     3
 10
2162.24202632904
 20
-1122.40026092529
 30
0.0
 11
2142.6085319519
 21
-1122.40026092529
 31
0.0
  0
LINE
  5
    5B
  8
0
  6
CONTINUOUS
 62
     3
 10
2162.24197387695
 20
-1284.90026092529
 30
0.0
 11
2142.6085319519
 21
-1284.90026092529
 31
0.0
  0
LINE
  5
    5C
  8
0
  6
CONTINUOUS
 62
     3
 10
2144.6085319519
 20
-1122.40026092529
 30
0.0
 11
2144.6085319519
 21
-1284.90026092529
 31
0.0
  0
LINE
  5
    5D
  8
0
  6
CONTINUOUS
 62
     3
 10
2145.12947638186
 20
-1125.3546842025
 30
0.0
 11
2144.6085319519
 21
-1122.40026092529
 31
0.0
  0
LINE
  5
    5E
  8
0
  6
CONTINUOUS
 62
     3
 10
2144.6085319519
 20
-1122.40026092529
 30
0.0
 11
2144.08758752195
 21
-1125.3546842025
 31
0.0
  0
LINE
  5
    5F
  8
0
  6
CONTINUOUS
 62
     3
 10
2144.08758752195
 20
-1281.94583764809
 30
0.0
 11
2144.6085319519
 21
-1284.90026092529
 31
0.0
  0
LINE
  5
    60
  8
0
  6
CONTINUOUS
 62
     3
 10
2144.6085319519
 20
-1284.90026092529
 30
0.0
 11
2145.12947638186
 21
-1281.94583764809
 31
0.0
  0
ENDBLK
  5
    61
  8
0
  6
CONTINUOUS
 62
     3
  0
BLOCK
  5
    62
  8
0
  6
CONTINUOUS
 62
     7
  2
*UDIM1132
 70
    65
 10
0.0
 20
0.0
 30
0.0
  3
*UDIM1132
  0
TEXT
  5
    63
  8
0
  6
CONTINUOUS
 62
     7
 10
2201.28138738165
 20
-1103.232994069
 30
0.0
 40
3.00000002980232
  1
1.5
 50
359.999999844103
 41
0.933333333333333
 72
     1
 11
2205.18138742447
 21
-1101.73299406469
 31
0.0
 73
     2
  0
TEXT
  5
    64
  8
0
  6
CONTINUOUS
 62
     7
 10
2210.08138745914
 20
-1103.2329940728
 30
0.0
 40
3.00000002980232
  1
-2
 50
359.999999844103
 41
0.933333333333333
 72
     1
 11
2212.58138748805
 21
-1101.73299406469
 31
0.0
 73
     2
  0
LINE
  5
    65
  8
0
  6
CONTINUOUS
 62
     7
 10
2197.74202346802
 20
-1136.07959164738
 30
0.0
 11
2197.74202346802
 21
-1102.23299407959
 31
0.0
  0
LINE
  5
    66
  8
0
  6
CONTINUOUS
 62
     7
 10
2198.49202346802
 20
-1136.07959164738
 30
0.0
 11
2198.49202346802
 21
-1102.23299407959
 31
0.0
  0
LINE
  5
    67
  8
0
  6
CONTINUOUS
 62
     7
 10
2192.74202346802
 20
-1104.23299407959
 30
0.0
 11
2215.08138751288
 21
-1104.23299407959
 31
0.0
  0
LINE
  5
    68
  8
0
  6
CONTINUOUS
 62
     3
 10
2194.84424599481
 20
-1105.00945123601
 30
0.0
 11
2197.74202346802
 21
-1104.23299407959
 31
0.0
  0
LINE
  5
    69
  8
0
  6
CONTINUOUS
 62
     3
 10
2197.74202346802
 20
-1104.23299407959
 30
0.0
 11
2194.84424599481
 21
-1103.45653692317
 31
0.0
  0
LINE
  5
    6A
  8
0
  6
CONTINUOUS
 62
     3
 10
2201.38980094123
 20
-1103.45653692317
 30
0.0
 11
2198.49202346802
 21
-1104.23299407959
 31
0.0
  0
LINE
  5
    6B
  8
0
  6
CONTINUOUS
 62
     3
 10
2198.49202346802
 20
-1104.23299407959
 30
0.0
 11
2201.38980094123
 21
-1105.00945123601
 31
0.0
  0
ENDBLK
  5
    6C
  8
0
  6
CONTINUOUS
 62
     7
  0
BLOCK
  5
    6D
  8
0
  6
CONTINUOUS
 62
     3
  2
*UDIM1133
 70
    65
 10
0.0
 20
0.0
 30
0.0
  3
*UDIM1133
  0
TEXT
  5
    6E
  8
0
  6
CONTINUOUS
 62
     3
 10
2175.54196618487
 20
-1302.99823759547
 30
0.0
 40
3.00000002980232
  1
75,5
 50
359.999999844103
 41
0.933333333333333
 72
     1
 11
2180.8419662416
 21
-1301.49823759496
 31
0.0
 73
     2
  0
LINE
  5
    6F
  8
0
  6
CONTINUOUS
 62
     3
 10
2162.24197387695
 20
-1285.90026092529
 30
0.0
 11
2162.24197387695
 21
-1305.99823760986
 31
0.0
  0
LINE
  5
    70
  8
0
  6
CONTINUOUS
 62
     3
 10
2199.991959095
 20
-1252.90027999878
 30
0.0
 11
2199.991959095
 21
-1305.99823760986
 31
0.0
  0
LINE
  5
    71
  8
0
  6
CONTINUOUS
 62
     3
 10
2162.24197387695
 20
-1303.99823760986
 30
0.0
 11
2199.991959095
 21
-1303.99823760986
 31
0.0
  0
LINE
  5
    72
  8
0
  6
CONTINUOUS
 62
     3
 10
2165.19639715416
 20
-1303.47729317991
 30
0.0
 11
2162.24197387695
 21
-1303.99823760986
 31
0.0
  0
LINE
  5
    73
  8
0
  6
CONTINUOUS
 62
     3
 10
2162.24197387695
 20
-1303.99823760986
 30
0.0
 11
2165.19639715416
 21
-1304.51918203982
 31
0.0
  0
LINE
  5
    74
  8
0
  6
CONTINUOUS
 62
     3
 10
2197.03753581779
 20
-1304.51918203982
 30
0.0
 11
2199.991959095
 21
-1303.99823760986
 31
0.0
  0
LINE
  5
    75
  8
0
  6
CONTINUOUS
 62
     3
 10
2199.991959095
 20
-1303.99823760986
 30
0.0
 11
2197.03753581779
 21
-1303.47729317991
 31
0.0
  0
ENDBLK
  5
    76
  8
0
  6
CONTINUOUS
 62
     3
  0
BLOCK
  5
    77
  8
0
  6
CONTINUOUS
 62
     3
  2
*UDIM1134
 70
    65
 10
0.0
 20
0.0
 30
0.0
  3
*UDIM1134
  0
TEXT
  5
    78
  8
0
  6
CONTINUOUS
 62
     3
 10
2281.51549075581
 20
-1182.12171679718
 30
0.0
 40
2.99999994933605
  1
41,7
 50
359.999999896069
 41
0.933333333333333
 72
     1
 11
2286.81549066901
 21
-1180.62171683209
 31
0.0
 73
     2
  0
LINE
  5
    79
  8
0
  6
CONTINUOUS
 62
     3
 10
2295.05703162402
 20
-1183.12171680676
 30
0.0
 11
2278.37703137547
 21
-1183.12171680676
 31
0.0
  0
LINE
  5
    7A
  8
0
  6
CONTINUOUS
 62
     3
 10
2292.10260834681
 20
-1183.64266123671
 30
0.0
 11
2295.05703162402
 21
-1183.12171680676
 31
0.0
  0
LINE
  5
    7B
  8
0
  6
CONTINUOUS
 62
     3
 10
2295.05703162402
 20
-1183.12171680676
 30
0.0
 11
2292.10260834681
 21
-1182.60077237681
 31
0.0
  0
LINE
  5
    7C
  8
0
  6
CONTINUOUS
 62
     3
 10
2281.33145465268
 20
-1182.60077237681
 30
0.0
 11
2278.37703137547
 21
-1183.12171680676
 31
0.0
  0
LINE
  5
    7D
  8
0
  6
CONTINUOUS
 62
     3
 10
2278.37703137547
 20
-1183.12171680676
 30
0.0
 11
2281.33145465268
 21
-1183.64266123671
 31
0.0
  0
ENDBLK
  5
    7E
  8
0
  6
CONTINUOUS
 62
     3
  0
BLOCK
  5
    7F
  8
0
  6
CONTINUOUS
 62
     3
  2
*UDIM1135
 70
    65
 10
0.0
 20
0.0
 30
0.0
  3
*UDIM1135
  0
TEXT
  5
    80
  8
0
  6
CONTINUOUS
 62
     3
 10
2269.18203129825
 20
-1097.46768111444
 30
0.0
 40
2.99999994933605
  1
111
 50
359.999999896069
 41
0.933333333333333
 72
     1
 11
2273.0820312351
 21
-1095.96768114682
 31
0.0
 73
     2
  0
LINE
  5
    81
  8
0
  6
CONTINUOUS
 62
     3
 10
2295.55703163147
 20
-1139.69018539786
 30
0.0
 11
2295.55703163147
 21
-1096.46768112149
 31
0.0
  0
LINE
  5
    82
  8
0
  6
CONTINUOUS
 62
     3
 10
2251.15703096986
 20
-1139.69018539786
 30
0.0
 11
2251.15703096986
 21
-1096.46768112149
 31
0.0
  0
LINE
  5
    83
  8
0
  6
CONTINUOUS
 62
     3
 10
2295.55703163147
 20
-1098.46768112149
 30
0.0
 11
2251.15703096986
 21
-1098.46768112149
 31
0.0
  0
LINE
  5
    84
  8
0
  6
CONTINUOUS
 62
     3
 10
2292.60260835426
 20
-1098.98862555144
 30
0.0
 11
2295.55703163147
 21
-1098.46768112149
 31
0.0
  0
LINE
  5
    85
  8
0
  6
CONTINUOUS
 62
     3
 10
2295.55703163147
 20
-1098.46768112149
 30
0.0
 11
2292.60260835426
 21
-1097.94673669154
 31
0.0
  0
LINE
  5
    86
  8
0
  6
CONTINUOUS
 62
     3
 10
2254.11145424707
 20
-1097.94673669154
 30
0.0
 11
2251.15703096986
 21
-1098.46768112149
 31
0.0
  0
LINE
  5
    87
  8
0
  6
CONTINUOUS
 62
     3
 10
2251.15703096986
 20
-1098.46768112149
 30
0.0
 11
2254.11145424707
 21
-1098.98862555144
 31
0.0
  0
ENDBLK
  5
    88
  8
0
  6
CONTINUOUS
 62
     3
  0
BLOCK
  5
    89
  8
0
  6
CONTINUOUS
 62
     3
  2
*UDIM1136
 70
    65
 10
0.0
 20
0.0
 30
0.0
  3
*UDIM1136
  0
TEXT
  5
    8A
  8
0
  6
CONTINUOUS
 62
     3
 10
2266.38203131573
 20
-1105.02958918104
 30
0.0
 40
2.99999994933605
  1
108,5
 50
359.999999896069
 41
0.933333333333333
 72
     1
 11
2273.0820312053
 21
-1103.52958921849
 31
0.0
 73
     2
  0
LINE
  5
    8B
  8
0
  6
CONTINUOUS
 62
     3
 10
2295.05703162402
 20
-1158.49018567801
 30
0.0
 11
2295.05703162402
 21
-1104.02958919316
 31
0.0
  0
LINE
  5
    8C
  8
0
  6
CONTINUOUS
 62
     3
 10
2251.65703097731
 20
-1158.49018567801
 30
0.0
 11
2251.65703097731
 21
-1104.02958919316
 31
0.0
  0
LINE
  5
    8D
  8
0
  6
CONTINUOUS
 62
     3
 10
2295.05703162402
 20
-1106.02958919316
 30
0.0
 11
2251.65703097731
 21
-1106.02958919316
 31
0.0
  0
LINE
  5
    8E
  8
0
  6
CONTINUOUS
 62
     3
 10
2292.10260834681
 20
-1106.55053362311
 30
0.0
 11
2295.05703162402
 21
-1106.02958919316
 31
0.0
  0
LINE
  5
    8F
  8
0
  6
CONTINUOUS
 62
     3
 10
2295.05703162402
 20
-1106.02958919316
 30
0.0
 11
2292.10260834681
 21
-1105.5086447632
 31
0.0
  0
LINE
  5
    90
  8
0
  6
CONTINUOUS
 62
     3
 10
2254.61145425452
 20
-1105.5086447632
 30
0.0
 11
2251.65703097731
 21
-1106.02958919316
 31
0.0
  0
LINE
  5
    91
  8
0
  6
CONTINUOUS
 62
     3
 10
2251.65703097731
 20
-1106.02958919316
 30
0.0
 11
2254.61145425452
 21
-1106.55053362311
 31
0.0
  0
ENDBLK
  5
    92
  8
0
  6
CONTINUOUS
 62
     3
  0
BLOCK
  5
    93
  8
0
  6
CONTINUOUS
 62
     3
  2
*UDIM1137
 70
    65
 10
0.0
 20
0.0
 30
0.0
  3
*UDIM1137
  0
TEXT
  5
    94
  8
0
  6
CONTINUOUS
 62
     3
 10
2284.19203210326
 20
-1113.49314827471
 30
0.0
 40
2.99999994933605
  1
43
 50
359.999999896069
 41
0.933333333333333
 72
     1
 11
2286.69203206375
 21
-1111.99314830457
 31
0.0
 73
     2
  0
LINE
  5
    95
  8
0
  6
CONTINUOUS
 62
     3
 10
2295.55703163147
 20
-1139.69018539786
 30
0.0
 11
2295.55703163147
 21
-1112.49314827923
 31
0.0
  0
LINE
  5
    96
  8
0
  6
CONTINUOUS
 62
     3
 10
2278.37703137547
 20
-1140.18903996216
 30
0.0
 11
2278.37703137547
 21
-1112.49314827923
 31
0.0
  0
LINE
  5
    97
  8
0
  6
CONTINUOUS
 62
     3
 10
2295.55703163147
 20
-1114.49314827923
 30
0.0
 11
2278.37703137547
 21
-1114.49314827923
 31
0.0
  0
LINE
  5
    98
  8
0
  6
CONTINUOUS
 62
     3
 10
2292.60260835426
 20
-1115.01409270919
 30
0.0
 11
2295.55703163147
 21
-1114.49314827923
 31
0.0
  0
LINE
  5
    99
  8
0
  6
CONTINUOUS
 62
     3
 10
2295.55703163147
 20
-1114.49314827923
 30
0.0
 11
2292.60260835426
 21
-1113.97220384928
 31
0.0
  0
LINE
  5
    9A
  8
0
  6
CONTINUOUS
 62
     3
 10
2281.33145465268
 20
-1113.97220384928
 30
0.0
 11
2278.37703137547
 21
-1114.49314827923
 31
0.0
  0
LINE
  5
    9B
  8
0
  6
CONTINUOUS
 62
     3
 10
2278.37703137547
 20
-1114.49314827923
 30
0.0
 11
2281.33145465268
 21
-1115.01409270919
 31
0.0
  0
ENDBLK
  5
    9C
  8
0
  6
CONTINUOUS
 62
     3
  0
BLOCK
  5
    9D
  8
0
  6
CONTINUOUS
 62
     3
  2
*UDIM1138
 70
    65
 10
0.0
 20
0.0
 30
0.0
  3
*UDIM1138
  0
TEXT
  5
    9E
  8
0
  6
CONTINUOUS
 62
     3
 10
2262.50250670767
 20
-1132.73051960517
 30
0.0
 40
2.99999994933605
  1
4
 50
376.045100105182
 41
0.933333333333333
 72
     1
 11
2263.14506468696
 21
-1130.98491967209
 31
0.0
 73
     2
  0
TEXT
  5
    9F
  8
0
  6
CONTINUOUS
 62
     3
 10
2259.85963454665
 20
-1133.49060289124
 30
0.0
 40
2.99999994933605
  1
Ø
 50
376.045100105182
 41
0.933333333333333
 72
     1
 11
2260.50219252595
 21
-1131.74500295816
 31
0.0
 73
     2
  0
LINE
  5
    A0
  8
0
  6
CONTINUOUS
 62
     3
 10
2264.89319834807
 20
-1133.08349741317
 30
0.0
 11
2250.88819542105
 21
-1137.11130049923
 31
0.0
  0
LINE
  5
    A1
  8
0
  6
CONTINUOUS
 62
     3
 10
2255.12121269539
 20
-1135.35183482484
 30
0.0
 11
2252.42586653357
 21
-1136.66907021305
 31
0.0
  0
LINE
  5
    A2
  8
0
  6
CONTINUOUS
 62
     3
 10
2252.42586653357
 20
-1136.66907021305
 30
0.0
 11
2255.40918444653
 21
-1136.35313631138
 31
0.0
  0
LINE
  5
    A3
  8
0
  6
CONTINUOUS
 62
     3
 10
2248.19284925923
 20
-1138.42853588744
 30
0.0
 11
2250.88819542105
 21
-1137.11130049923
 31
0.0
  0
LINE
  5
    A4
  8
0
  6
CONTINUOUS
 62
     3
 10
2250.88819542105
 20
-1137.11130049923
 30
0.0
 11
2247.90487750809
 21
-1137.4272344009
 31
0.0
  0
ENDBLK
  5
    A5
  8
0
  6
CONTINUOUS
 62
     3
  0
BLOCK
  5
    A6
  8
0
  6
CONTINUOUS
 62
     3
  2
*UDIM1139
 70
    65
 10
0.0
 20
0.0
 30
0.0
  3
*UDIM1139
  0
TEXT
  5
    A7
  8
0
  6
CONTINUOUS
 62
     3
 10
2269.18203129825
 20
-1171.21711458644
 30
0.0
 40
2.99999994933605
  1
111
 50
359.999999896069
 41
0.933333333333333
 72
     1
 11
2273.0820312351
 21
-1169.71711461882
 31
0.0
 73
     2
  0
LINE
  5
    A8
  8
0
  6
CONTINUOUS
 62
     3
 10
2295.55703163147
 20
-1189.69444395549
 30
0.0
 11
2295.55703163147
 21
-1170.21711459349
 31
0.0
  0
LINE
  5
    A9
  8
0
  6
CONTINUOUS
 62
     3
 10
2251.15703096986
 20
-1189.69444395549
 30
0.0
 11
2251.15703096986
 21
-1170.21711459349
 31
0.0
  0
LINE
  5
    AA
  8
0
  6
CONTINUOUS
 62
     3
 10
2295.55703163147
 20
-1172.21711459349
 30
0.0
 11
2251.15703096986
 21
-1172.21711459349
 31
0.0
  0
LINE
  5
    AB
  8
0
  6
CONTINUOUS
 62
     3
 10
2292.60260835426
 20
-1172.73805902344
 30
0.0
 11
2295.55703163147
 21
-1172.21711459349
 31
0.0
  0
LINE
  5
    AC
  8
0
  6
CONTINUOUS
 62
     3
 10
2295.55703163147
 20
-1172.21711459349
 30
0.0
 11
2292.60260835426
 21
-1171.69617016354
 31
0.0
  0
LINE
  5
    AD
  8
0
  6
CONTINUOUS
 62
     3
 10
2254.11145424707
 20
-1171.69617016354
 30
0.0
 11
2251.15703096986
 21
-1172.21711459349
 31
0.0
  0
LINE
  5
    AE
  8
0
  6
CONTINUOUS
 62
     3
 10
2251.15703096986
 20
-1172.21711459349
 30
0.0
 11
2254.11145424707
 21
-1172.73805902344
 31
0.0
  0
ENDBLK
  5
    AF
  8
0
  6
CONTINUOUS
 62
     3
  0
BLOCK
  5
    B0
  8
0
  6
CONTINUOUS
 62
     3
  2
*UDIM1140
 70
    65
 10
0.0
 20
0.0
 30
0.0
  3
*UDIM1140
  0
TEXT
  5
    B1
  8
0
  6
CONTINUOUS
 62
     3
 10
2262.50250365772
 20
-1182.73477021069
 30
0.0
 40
2.99999994933605
  1
4
 50
376.045142115515
 41
0.933333333333333
 72
     1
 11
2263.14506035711
 21
-1180.98916980647
 31
0.0
 73
     2
  0
TEXT
  5
    B2
  8
0
  6
CONTINUOUS
 62
     3
 10
2259.85963205401
 20
-1183.49485543456
 30
0.0
 40
2.99999994933605
  1
Ø
 50
376.045142115515
 41
0.933333333333333
 72
     1
 11
2260.5021887534
 21
-1181.74925503034
 31
0.0
 73
     2
  0
LINE
  5
    B3
  8
0
  6
CONTINUOUS
 62
     3
 10
2264.89319555693
 20
-1183.08774626579
 30
0.0
 11
2250.88819558317
 21
-1187.11555962058
 31
0.0
  0
LINE
  5
    B4
  8
0
  6
CONTINUOUS
 62
     3
 10
2255.12121156744
 20
-1185.35609084246
 30
0.0
 11
2252.42586637144
 21
-1186.67332820695
 31
0.0
  0
LINE
  5
    B5
  8
0
  6
CONTINUOUS
 62
     3
 10
2252.42586637144
 20
-1186.67332820695
 30
0.0
 11
2255.40918405275
 21
-1186.35739211785
 31
0.0
  0
LINE
  5
    B6
  8
0
  6
CONTINUOUS
 62
     3
 10
2248.19285038717
 20
-1188.43279698506
 30
0.0
 11
2250.88819558317
 21
-1187.11555962058
 31
0.0
  0
LINE
  5
    B7
  8
0
  6
CONTINUOUS
 62
     3
 10
2250.88819558317
 20
-1187.11555962058
 30
0.0
 11
2247.90487790187
 21
-1187.43149570967
 31
0.0
  0
ENDBLK
  5
    B8
  8
0
  6
CONTINUOUS
 62
     3
  0
BLOCK
  5
    B9
  8
0
  6
CONTINUOUS
 62
     3
  2
*UDIM1141
 70
    65
 10
0.0
 20
0.0
 30
0.0
  3
*UDIM1141
  0
TEXT
  5
    BA
  8
0
  6
CONTINUOUS
 62
     3
 10
2225.14977351009
 20
-1178.86731604999
 30
0.0
 40
2.99999994933605
  1
125
 50
449.999999896069
 41
0.933333333333333
 72
     1
 11
2223.64977354248
 21
-1174.96731611315
 31
0.0
 73
     2
  0
LINE
  5
    BB
  8
0
  6
CONTINUOUS
 62
     3
 10
2240.76818292622
 20
-1149.69018554688
 30
0.0
 11
2224.14977351714
 21
-1149.69018554688
 31
0.0
  0
LINE
  5
    BC
  8
0
  6
CONTINUOUS
 62
     3
 10
2240.76818292622
 20
-1199.6944441045
 30
0.0
 11
2224.14977351714
 21
-1199.6944441045
 31
0.0
  0
LINE
  5
    BD
  8
0
  6
CONTINUOUS
 62
     3
 10
2226.14977351714
 20
-1149.69018554688
 30
0.0
 11
2226.14977351714
 21
-1199.6944441045
 31
0.0
  0
LINE
  5
    BE
  8
0
  6
CONTINUOUS
 62
     3
 10
2226.6707179471
 20
-1152.64460882408
 30
0.0
 11
2226.14977351714
 21
-1149.69018554688
 31
0.0
  0
LINE
  5
    BF
  8
0
  6
CONTINUOUS
 62
     3
 10
2226.14977351714
 20
-1149.69018554688
 30
0.0
 11
2225.62882908719
 21
-1152.64460882408
 31
0.0
  0
LINE
  5
    C0
  8
0
  6
CONTINUOUS
 62
     3
 10
2225.62882908719
 20
-1196.74002082729
 30
0.0
 11
2226.14977351714
 21
-1199.6944441045
 31
0.0
  0
LINE
  5
    C1
  8
0
  6
CONTINUOUS
 62
     3
 10
2226.14977351714
 20
-1199.6944441045
 30
0.0
 11
2226.6707179471
 21
-1196.74002082729
 31
0.0
  0
ENDBLK
  5
    C2
  8
0
  6
CONTINUOUS
 62
     3
  0
BLOCK
  5
    C3
  8
0
  6
CONTINUOUS
 62
     3
  2
*UDIM1142
 70
    65
 10
0.0
 20
0.0
 30
0.0
  3
*UDIM1142
  0
TEXT
  5
    C4
  8
0
  6
CONTINUOUS
 62
     3
 10
2316.86183847787
 20
-1152.46518554313
 30
0.0
 40
2.99999994933605
  1
53
 50
449.999999896069
 41
0.933333333333333
 72
     1
 11
2315.36183850772
 21
-1149.96518558264
 31
0.0
 73
     2
  0
LINE
  5
    C5
  8
0
  6
CONTINUOUS
 62
     3
 10
2294.95703162253
 20
-1139.09018538892
 30
0.0
 11
2319.86183848239
 21
-1139.09018538892
 31
0.0
  0
LINE
  5
    C6
  8
0
  6
CONTINUOUS
 62
     3
 10
2294.95703162253
 20
-1160.29018570483
 30
0.0
 11
2319.86183848239
 21
-1160.29018570483
 31
0.0
  0
LINE
  5
    C7
  8
0
  6
CONTINUOUS
 62
     3
 10
2317.86183848239
 20
-1139.09018538892
 30
0.0
 11
2317.86183848239
 21
-1160.29018570483
 31
0.0
  0
LINE
  5
    C8
  8
0
  6
CONTINUOUS
 62
     3
 10
2318.38278291234
 20
-1142.04460866613
 30
0.0
 11
2317.86183848239
 21
-1139.09018538892
 31
0.0
  0
LINE
  5
    C9
  8
0
  6
CONTINUOUS
 62
     3
 10
2317.86183848239
 20
-1139.09018538892
 30
0.0
 11
2317.34089405244
 21
-1142.04460866613
 31
0.0
  0
LINE
  5
    CA
  8
0
  6
CONTINUOUS
 62
     3
 10
2317.34089405244
 20
-1157.33576242762
 30
0.0
 11
2317.86183848239
 21
-1160.29018570483
 31
0.0
  0
LINE
  5
    CB
  8
0
  6
CONTINUOUS
 62
     3
 10
2317.86183848239
 20
-1160.29018570483
 30
0.0
 11
2318.38278291234
 21
-1157.33576242762
 31
0.0
  0
ENDBLK
  5
    CC
  8
0
  6
CONTINUOUS
 62
     3
  0
BLOCK
  5
    CD
  8
0
  6
CONTINUOUS
 62
     3
  2
*UDIM1143
 70
    65
 10
0.0
 20
0.0
 30
0.0
  3
*UDIM1143
  0
TEXT
  5
    CE
  8
0
  6
CONTINUOUS
 62
     3
 10
2326.19109581904
 20
-1152.46518554313
 30
0.0
 40
2.99999994933605
  1
64
 50
449.999999896069
 41
0.933333333333333
 72
     1
 11
2324.69109584889
 21
-1149.96518558264
 31
0.0
 73
     2
  0
LINE
  5
    CF
  8
0
  6
CONTINUOUS
 62
     3
 10
2299.85703169555
 20
-1136.89018535614
 30
0.0
 11
2329.19109582356
 21
-1136.89018535614
 31
0.0
  0
LINE
  5
    D0
  8
0
  6
CONTINUOUS
 62
     3
 10
2299.05703168362
 20
-1162.49018573761
 30
0.0
 11
2329.19109582356
 21
-1162.49018573761
 31
0.0
  0
LINE
  5
    D1
  8
0
  6
CONTINUOUS
 62
     3
 10
2327.19109582356
 20
-1136.89018535614
 30
0.0
 11
2327.19109582356
 21
-1162.49018573761
 31
0.0
  0
LINE
  5
    D2
  8
0
  6
CONTINUOUS
 62
     3
 10
2327.71204025351
 20
-1139.84460863335
 30
0.0
 11
2327.19109582356
 21
-1136.89018535614
 31
0.0
  0
LINE
  5
    D3
  8
0
  6
CONTINUOUS
 62
     3
 10
2327.19109582356
 20
-1136.89018535614
 30
0.0
 11
2326.67015139361
 21
-1139.84460863335
 31
0.0
  0
LINE
  5
    D4
  8
0
  6
CONTINUOUS
 62
     3
 10
2326.67015139361
 20
-1159.5357624604
 30
0.0
 11
2327.19109582356
 21
-1162.49018573761
 31
0.0
  0
LINE
  5
    D5
  8
0
  6
CONTINUOUS
 62
     3
 10
2327.19109582356
 20
-1162.49018573761
 30
0.0
 11
2327.71204025351
 21
-1159.5357624604
 31
0.0
  0
ENDBLK
  5
    D6
  8
0
  6
CONTINUOUS
 62
     3
  0
BLOCK
  5
    D7
  8
0
  6
CONTINUOUS
 62
     3
  2
*UDIM1144
 70
    65
 10
0.0
 20
0.0
 30
0.0
  3
*UDIM1144
  0
TEXT
  5
    D8
  8
0
  6
CONTINUOUS
 62
     3
 10
2326.19109581904
 20
-1202.46944654454
 30
0.0
 40
2.99999994933605
  1
64
 50
449.999999896069
 41
0.933333333333333
 72
     1
 11
2324.69109584889
 21
-1199.96944658405
 31
0.0
 73
     2
  0
LINE
  5
    D9
  8
0
  6
CONTINUOUS
 62
     3
 10
2299.85703169555
 20
-1186.89444391376
 30
0.0
 11
2329.19109582356
 21
-1186.89444391376
 31
0.0
  0
LINE
  5
    DA
  8
0
  6
CONTINUOUS
 62
     3
 10
2299.05703168362
 20
-1212.49444429523
 30
0.0
 11
2329.19109582356
 21
-1212.49444429523
 31
0.0
  0
LINE
  5
    DB
  8
0
  6
CONTINUOUS
 62
     3
 10
2327.19109582356
 20
-1186.89444391376
 30
0.0
 11
2327.19109582356
 21
-1212.49444429523
 31
0.0
  0
LINE
  5
    DC
  8
0
  6
CONTINUOUS
 62
     3
 10
2327.71204025351
 20
-1189.84886719097
 30
0.0
 11
2327.19109582356
 21
-1186.89444391376
 31
0.0
  0
LINE
  5
    DD
  8
0
  6
CONTINUOUS
 62
     3
 10
2327.19109582356
 20
-1186.89444391376
 30
0.0
 11
2326.67015139361
 21
-1189.84886719097
 31
0.0
  0
LINE
  5
    DE
  8
0
  6
CONTINUOUS
 62
     3
 10
2326.67015139361
 20
-1209.54002101802
 30
0.0
 11
2327.19109582356
 21
-1212.49444429523
 31
0.0
  0
LINE
  5
    DF
  8
0
  6
CONTINUOUS
 62
     3
 10
2327.19109582356
 20
-1212.49444429523
 30
0.0
 11
2327.71204025351
 21
-1209.54002101802
 31
0.0
  0
ENDBLK
  5
    E0
  8
0
  6
CONTINUOUS
 62
     3
  0
BLOCK
  5
    E1
  8
0
  6
CONTINUOUS
 62
     3
  2
*UDIM1145
 70
    65
 10
0.0
 20
0.0
 30
0.0
  3
*UDIM1145
  0
TEXT
  5
    E2
  8
0
  6
CONTINUOUS
 62
     3
 10
2316.86184152963
 20
-1202.46944654454
 30
0.0
 40
2.99999994933605
  1
53
 50
449.999999896069
 41
0.933333333333333
 72
     1
 11
2315.36184155948
 21
-1199.96944658405
 31
0.0
 73
     2
  0
LINE
  5
    E3
  8
0
  6
CONTINUOUS
 62
     3
 10
2294.95703162253
 20
-1189.09444394654
 30
0.0
 11
2319.86184153415
 21
-1189.09444394654
 31
0.0
  0
LINE
  5
    E4
  8
0
  6
CONTINUOUS
 62
     3
 10
2294.95703162253
 20
-1210.29444426245
 30
0.0
 11
2319.86184153415
 21
-1210.29444426245
 31
0.0
  0
LINE
  5
    E5
  8
0
  6
CONTINUOUS
 62
     3
 10
2317.86184153415
 20
-1189.09444394654
 30
0.0
 11
2317.86184153415
 21
-1210.29444426245
 31
0.0
  0
LINE
  5
    E6
  8
0
  6
CONTINUOUS
 62
     3
 10
2318.3827859641
 20
-1192.04886722375
 30
0.0
 11
2317.86184153415
 21
-1189.09444394654
 31
0.0
  0
LINE
  5
    E7
  8
0
  6
CONTINUOUS
 62
     3
 10
2317.86184153415
 20
-1189.09444394654
 30
0.0
 11
2317.3408971042
 21
-1192.04886722375
 31
0.0
  0
LINE
  5
    E8
  8
0
  6
CONTINUOUS
 62
     3
 10
2317.3408971042
 20
-1207.34002098524
 30
0.0
 11
2317.86184153415
 21
-1210.29444426245
 31
0.0
  0
LINE
  5
    E9
  8
0
  6
CONTINUOUS
 62
     3
 10
2317.86184153415
 20
-1210.29444426245
 30
0.0
 11
2318.3827859641
 21
-1207.34002098524
 31
0.0
  0
ENDBLK
  5
    EA
  8
0
  6
CONTINUOUS
 62
     3
  0
BLOCK
  5
    EB
  8
0
  6
CONTINUOUS
 62
     7
  2
*UDIM1146
 70
    65
 10
0.0
 20
0.0
 30
0.0
  3
*UDIM1146
  0
TEXT
  5
    EC
  8
0
  6
CONTINUOUS
 62
     7
 10
2284.61453314882
 20
-1146.23791187117
 30
0.0
 40
2.99999994933605
  1
1.5
 50
397.023368295939
 41
0.933333333333333
 72
     1
 11
2286.82504302761
 21
-1142.69197821612
 31
0.0
 73
     2
  0
TEXT
  5
    ED
  8
0
  6
CONTINUOUS
 62
     7
 10
2281.42097323168
 20
-1148.64647464808
 30
0.0
 40
2.99999994933605
  1
R
 50
397.023368295939
 41
1.2
 72
     1
 11
2281.7153471641
 21
-1146.54567864754
 31
0.0
 73
     2
  0
LINE
  5
    EE
  8
0
  6
CONTINUOUS
 62
     7
 10
2295.4360656237
 20
-1139.32890097189
 30
0.0
 11
2282.02311393646
 21
-1149.44486463867
 31
0.0
  0
LINE
  5
    EF
  8
0
  6
CONTINUOUS
 62
     3
 10
2293.59004555215
 20
-1141.6936863523
 30
0.0
 11
2295.4360656237
 21
-1139.32890097189
 31
0.0
  0
LINE
  5
    F0
  8
0
  6
CONTINUOUS
 62
     3
 10
2295.4360656237
 20
-1139.32890097189
 30
0.0
 11
2292.65497263924
 21
-1140.45385510953
 31
0.0
  0
ENDBLK
  5
    F1
  8
0
  6
CONTINUOUS
 62
     7
  0
BLOCK
  5
    F2
  8
0
  6
CONTINUOUS
 62
     7
  2
*UDIM1147
 70
    65
 10
0.0
 20
0.0
 30
0.0
  3
*UDIM1147
  0
TEXT
  5
    F3
  8
0
  6
CONTINUOUS
 62
     7
 10
2284.999552904
 20
-1196.81403763898
 30
0.0
 40
2.99999994933605
  1
1.5
 50
400.250654106171
 41
0.933333333333333
 72
     1
 11
2287.00693169493
 21
-1193.14928255849
 31
0.0
 73
     2
  0
TEXT
  5
    F4
  8
0
  6
CONTINUOUS
 62
     7
 10
2281.94665257663
 20
-1199.39856838668
 30
0.0
 40
2.99999994933605
  1
R
 50
400.250654106171
 41
1.2
 72
     1
 11
2282.12229117438
 21
-1197.28453174296
 31
0.0
 73
     2
  0
LINE
  5
    F5
  8
0
  6
CONTINUOUS
 62
     7
 10
2295.41496668468
 20
-1189.30676433314
 30
0.0
 11
2282.59278527473
 21
-1200.16179347921
 31
0.0
  0
LINE
  5
    F6
  8
0
  6
CONTINUOUS
 62
     3
 10
2293.70500455995
 20
-1191.77172468414
 30
0.0
 11
2295.41496668468
 21
-1189.30676433314
 31
0.0
  0
LINE
  5
    F7
  8
0
  6
CONTINUOUS
 62
     3
 10
2295.41496668468
 20
-1189.30676433314
 30
0.0
 11
2292.70161585101
 21
-1190.58650151453
 31
0.0
  0
ENDBLK
  5
    F8
  8
0
  6
CONTINUOUS
 62
     7
  0
BLOCK
  5
    F9
  8
0
  6
CONTINUOUS
 62
     7
  2
*HATCH734
 70
    65
 10
0.0
 20
0.0
 30
0.0
  3
*HATCH734
  0
LINE
  5
    FA
  8
0
  6
CONTINUOUS
 62
     7
 10
-6.72705316543579
 20
2.18249082565308
 30
0.0
 11
-7.30467510223389
 21
1.60486936569214
 31
0.0
  0
LINE
  5
    FB
  8
0
  6
CONTINUOUS
 62
     7
 10
-6.27154493331909
 20
2.21373534202576
 30
0.0
 11
-7.22455787658691
 21
1.26072216033936
 31
0.0
  0
LINE
  5
    FC
  8
0
  6
CONTINUOUS
 62
     7
 10
-5.84726810455322
 20
2.21374821662903
 30
0.0
 11
-6.39466667175293
 21
1.66634941101074
 31
0.0
  0
LINE
  5
    FD
  8
0
  6
CONTINUOUS
 62
     7
 10
-6.66426229476929
 20
1.39675414562225
 30
0.0
 11
-7.0505313873291
 21
1.01048505306244
 31
0.0
  0
LINE
  5
    FE
  8
0
  6
CONTINUOUS
 62
     7
 10
-5.806396484375
 20
1.83035564422607
 30
0.0
 11
-5.97040271759033
 21
1.66634941101074
 31
0.0
  0
LINE
  5
    FF
  8
0
  6
CONTINUOUS
 62
     7
 10
-6.29627180099487
 20
1.34048020839691
 30
0.0
 11
-6.75053644180298
 21
0.886215686798096
 31
0.0
  0
LINE
  5
   100
  8
0
  6
CONTINUOUS
 62
     7
 10
-7.08935260772705
 20
0.547399520874023
 30
0.0
 11
-7.25539398193359
 21
0.381358295679092
 31
0.0
  0
LINE
  5
   101
  8
0
  6
CONTINUOUS
 62
     7
 10
-5.99627304077148
 20
1.2162150144577
 30
0.0
 11
-6.38071584701538
 21
0.83177250623703
 31
0.0
  0
LINE
  5
   102
  8
0
  6
CONTINUOUS
 62
     7
 10
-6.66508865356445
 20
0.547399520874023
 30
0.0
 11
-7.21248769760132
 21
5.17343551109661E-7
 31
0.0
  0
LINE
  5
   103
  8
0
  6
CONTINUOUS
 62
     7
 10
-5.83309316635132
 20
0.955130934715271
 30
0.0
 11
-6.78821849822998
 21
5.63298863198725E-6
 31
0.0
  0
LINE
  5
   104
  8
0
  6
CONTINUOUS
 62
     7
 10
-5.76708984375
 20
0.596870422363281
 30
0.0
 11
-6.32275247573853
 21
4.12076637148857E-2
 31
0.0
  0
ENDBLK
  5
   105
  8
0
  6
CONTINUOUS
 62
     7
  0
BLOCK
  5
   106
  8
0
  6
CONTINUOUS
 62
     7
  2
*HATCH735
 70
    65
 10
0.0
 20
0.0
 30
0.0
  3
*HATCH735
  0
LINE
  5
   107
  8
0
  6
CONTINUOUS
 62
     7
 10
-4.99874639511108
 20
2.21374201774597
 30
0.0
 11
-5.11600208282471
 21
2.09648633003235
 31
0.0
  0
LINE
  5
   108
  8
0
  6
CONTINUOUS
 62
     7
 10
-4.5744776725769
 20
2.21374702453613
 30
0.0
 11
-5.29006290435791
 21
1.49816131591797
 31
0.0
  0
LINE
  5
   109
  8
0
  6
CONTINUOUS
 62
     7
 10
-4.31070804595947
 20
2.05325198173523
 30
0.0
 11
-5.46412372589111
 21
0.899836301803589
 31
0.0
  0
LINE
  5
   10A
  8
0
  6
CONTINUOUS
 62
     7
 10
-4.21509790420532
 20
1.72459805011749
 30
0.0
 11
-4.65671157836914
 21
1.28298437595367
 31
0.0
  0
LINE
  5
   10B
  8
0
  6
CONTINUOUS
 62
     7
 10
-4.8342022895813
 20
1.10549378395081
 30
0.0
 11
-5.63818502426147
 21
0.301511287689209
 31
0.0
  0
LINE
  5
   10C
  8
0
  6
CONTINUOUS
 62
     7
 10
-4.11948823928833
 20
1.39594399929047
 30
0.0
 11
-5.51543140411377
 21
5.84804922709736E-7
 31
0.0
  0
LINE
  5
   10D
  8
0
  6
CONTINUOUS
 62
     7
 10
-4.02387809753418
 20
1.06729006767273
 30
0.0
 11
-4.64841794967651
 21
0.442750215530396
 31
0.0
  0
LINE
  5
   10E
  8
0
  6
CONTINUOUS
 62
     7
 10
-3.92826819419861
 20
0.738636076450348
 30
0.0
 11
-4.36988687515259
 21
0.297017365694046
 31
0.0
  0
LINE
  5
   10F
  8
0
  6
CONTINUOUS
 62
     7
 10
-3.83265805244446
 20
0.409982055425644
 30
0.0
 11
-4.24264001846313
 21
-1.59405963984227E-8
 31
0.0
  0
LINE
  5
   110
  8
0
  6
CONTINUOUS
 62
     7
 10
-3.73704814910889
 20
8.13280642032623E-2
 30
0.0
 11
-3.81837606430054
 21
-1.81517350483773E-7
 31
0.0
  0
ENDBLK
  5
   111
  8
0
  6
CONTINUOUS
 62
     7
  0
BLOCK
  5
   112
  8
0
  6
CONTINUOUS
 62
     7
  2
*HATCH736
 70
    65
 10
0.0
 20
0.0
 30
0.0
  3
*HATCH736
  0
LINE
  5
   113
  8
0
  6
CONTINUOUS
 62
     7
 10
-2.9884078502655
 20
2.10276007652283
 30
0.0
 11
-3.5777416229248
 21
1.51342642307281
 31
0.0
  0
LINE
  5
   114
  8
0
  6
CONTINUOUS
 62
     7
 10
-2.51154756546021
 20
2.15535640716553
 30
0.0
 11
-3.66166138648987
 21
1.00524282455444
 31
0.0
  0
LINE
  5
   115
  8
0
  6
CONTINUOUS
 62
     7
 10
-2.14052557945251
 20
2.10211443901062
 30
0.0
 11
-2.58813261985779
 21
1.65450739860535
 31
0.0
  0
LINE
  5
   116
  8
0
  6
CONTINUOUS
 62
     7
 10
-3.09122323989868
 20
1.15141689777374
 30
0.0
 11
-3.58603048324585
 21
0.65660959482193
 31
0.0
  0
LINE
  5
   117
  8
0
  6
CONTINUOUS
 62
     7
 10
-1.91638314723969
 20
1.90199279785156
 30
0.0
 11
-2.31821155548096
 21
1.50016450881958
 31
0.0
  0
LINE
  5
   118
  8
0
  6
CONTINUOUS
 62
     7
 10
-3.04562044143677
 20
0.772755563259125
 30
0.0
 11
-3.43465447425842
 21
0.383721768856049
 31
0.0
  0
LINE
  5
   119
  8
0
  6
CONTINUOUS
 62
     7
 10
-1.69224071502686
 20
1.70187127590179
 30
0.0
 11
-1.84102010726929
 21
1.55309188365936
 31
0.0
  0
LINE
  5
   11A
  8
0
  6
CONTINUOUS
 62
     7
 10
-2.80736231803894
 20
0.586749851703644
 30
0.0
 11
-3.20844173431396
 21
0.185670480132103
 31
0.0
  0
LINE
  5
   11B
  8
0
  6
CONTINUOUS
 62
     7
 10
-2.35260963439941
 20
0.617238461971283
 30
0.0
 11
-2.92059206962585
 21
4.92561422288418E-2
 31
0.0
  0
LINE
  5
   11C
  8
0
  6
CONTINUOUS
 62
     7
 10
-1.86875593662262
 20
0.676828145980835
 30
0.0
 11
-2.53638815879822
 21
9.19588841497898E-3
 31
0.0
  0
ENDBLK
  5
   11D
  8
0
  6
CONTINUOUS
 62
     7
  0
BLOCK
  5
   11E
  8
0
  6
CONTINUOUS
 62
     7
  2
*HATCH737
 70
    65
 10
0.0
 20
0.0
 30
0.0
  3
*HATCH737
  0
LINE
  5
   11F
  8
0
  6
CONTINUOUS
 62
     7
 10
-1.18036293983459
 20
2.21374893188477
 30
0.0
 11
-1.44899749755859
 21
1.94511449337006
 31
0.0
  0
LINE
  5
   120
  8
0
  6
CONTINUOUS
 62
     7
 10
-0.756098747253418
 20
2.21374917030334
 30
0.0
 11
-1.44899749755859
 21
1.52085041999817
 31
0.0
  0
LINE
  5
   121
  8
0
  6
CONTINUOUS
 62
     7
 10
-0.331834644079208
 20
2.21374940872192
 30
0.0
 11
-0.879234552383423
 21
1.66634941101074
 31
0.0
  0
LINE
  5
   122
  8
0
  6
CONTINUOUS
 62
     7
 10
-0.901596069335938
 20
1.64398789405823
 30
0.0
 11
-1.44899749755859
 21
1.09658646583557
 31
0.0
  0
LINE
  5
   123
  8
0
  6
CONTINUOUS
 62
     7
 10
1.8455197529913E-16
 20
2.12132000923157
 30
0.0
 11
-0.45497053861618
 21
1.66634941101074
 31
0.0
  0
LINE
  5
   124
  8
0
  6
CONTINUOUS
 62
     7
 10
-0.740745306015015
 20
1.38057470321655
 30
0.0
 11
-1.44899749755859
 21
0.672322511672974
 31
0.0
  0
LINE
  5
   125
  8
0
  6
CONTINUOUS
 62
     7
 10
1.24556434776123E-17
 20
1.69705593585968
 30
0.0
 11
-3.07065322995186E-2
 21
1.66634941101074
 31
0.0
  0
LINE
  5
   126
  8
0
  6
CONTINUOUS
 62
     7
 10
-0.31648126244545
 20
1.38057470321655
 30
0.0
 11
-0.863881289958954
 21
0.833174705505371
 31
0.0
  0
LINE
  5
   127
  8
0
  6
CONTINUOUS
 62
     7
 10
-0.901596069335938
 20
0.795459926128387
 30
0.0
 11
-1.44899749755859
 21
0.248058557510376
 31
0.0
  0
LINE
  5
   128
  8
0
  6
CONTINUOUS
 62
     7
 10
-0.120750427246094
 20
1.15204155445099
 30
0.0
 11
-0.439617276191711
 21
0.833174705505371
 31
0.0
  0
LINE
  5
   129
  8
0
  6
CONTINUOUS
 62
     7
 10
-0.725392460823059
 20
0.547399520874023
 30
0.0
 11
-1.27279210090637
 21
1.13804191595359E-15
 31
0.0
  0
LINE
  5
   12A
  8
0
  6
CONTINUOUS
 62
     7
 10
-0.301128476858139
 20
0.547399520874023
 30
0.0
 11
-0.848528027534485
 21
7.58694610635728E-16
 31
0.0
  0
LINE
  5
   12B
  8
0
  6
CONTINUOUS
 62
     7
 10
0.0
 20
0.42426398396492
 30
0.0
 11
-0.424264013767242
 21
3.79347305317864E-16
 31
0.0
  0
LINE
  5
   12C
  8
0
  6
CONTINUOUS
 62
     7
 10
0.0
 20
0.0
 30
0.0
 11
0.0
 21
2.64697796016969E-23
 31
0.0
  0
ENDBLK
  5
   12D
  8
0
  6
CONTINUOUS
 62
     7
  0
BLOCK
  5
   12E
  8
0
  6
CONTINUOUS
 62
     7
  2
$2SACE
 70
    64
 10
0.0
 20
0.0
 30
0.0
  3
$2SACE
  0
LINE
  5
   12F
  8
0
  6
CONTINUOUS
 62
     7
 10
-6.65164184570313
 20
0.84524965286255
 30
0.0
 11
-6.42221832275391
 21
0.84524965286255
 31
0.0
  0
LINE
  5
   130
  8
0
  6
CONTINUOUS
 62
     7
 10
-6.42220611590814
 20
0.845254519188986
 30
0.0
 11
-6.33467408742227
 21
0.816812141576352
 31
0.0
  0
LINE
  5
   131
  8
0
  6
CONTINUOUS
 62
     7
 10
-6.33467505266625
 20
0.816811912229198
 30
0.0
 11
-6.28057502527593
 21
0.742349507885551
 31
0.0
  0
LINE
  5
   132
  8
0
  6
CONTINUOUS
 62
     7
 10
-6.28058624267578
 20
0.650304317474365
 30
0.0
 11
-6.28058624267578
 21
0.742344856262207
 31
0.0
  0
LINE
  5
   133
  8
0
  6
CONTINUOUS
 62
     7
 10
-6.33467905122843
 20
0.575845194549701
 30
0.0
 11
-6.28057902383813
 21
0.650307598893328
 31
0.0
  0
LINE
  5
   134
  8
0
  6
CONTINUOUS
 62
     7
 10
-6.42220857841173
 20
0.547402819040099
 30
0.0
 11
-6.33467654992582
 21
0.575845196652746
 31
0.0
  0
LINE
  5
   135
  8
0
  6
CONTINUOUS
 62
     7
 10
-7.25539398193359
 20
0.547399520874025
 30
0.0
 11
-6.42221832275391
 21
0.547399520874025
 31
0.0
  0
LINE
  5
   136
  8
0
  6
CONTINUOUS
 62
     7
 10
-7.25539398193359
 20
0.0
 30
0.0
 11
-7.25539398193359
 21
0.547399520874023
 31
0.0
  0
LINE
  5
   137
  8
0
  6
CONTINUOUS
 62
     7
 10
-7.25539398193359
 20
1.29559252739714E-15
 30
0.0
 11
-6.42221832275391
 21
1.29559252739714E-15
 31
0.0
  0
LINE
  5
   138
  8
0
  6
CONTINUOUS
 62
     7
 10
-6.65164184570313
 20
1.39264965057373
 30
0.0
 11
-6.42221832275391
 21
1.39264965057373
 31
0.0
  0
LINE
  5
   139
  8
0
  6
CONTINUOUS
 62
     7
 10
-6.73207774966845
 20
1.41878793231365
 30
0.0
 11
-6.65163341489544
 21
1.39265201188207
 31
0.0
  0
LINE
  5
   13A
  8
0
  6
CONTINUOUS
 62
     7
 10
-6.78179637679859
 20
1.4872093666543
 30
0.0
 11
-6.73208324200653
 21
1.41878418569267
 31
0.0
  0
LINE
  5
   13B
  8
0
  6
CONTINUOUS
 62
     7
 10
-6.78179931640625
 20
1.48721075057983
 30
0.0
 11
-6.78179931640625
 21
1.57178831100464
 31
0.0
  0
LINE
  5
   13C
  8
0
  6
CONTINUOUS
 62
     7
 10
-6.78178899286177
 20
1.57178600254942
 30
0.0
 11
-6.73207585806973
 21
1.64021118351102
 31
0.0
  0
LINE
  5
   13D
  8
0
  6
CONTINUOUS
 62
     7
 10
-6.73207464437523
 20
1.64021722966892
 30
0.0
 11
-6.65163030960224
 21
1.66635315010049
 31
0.0
  0
LINE
  5
   13E
  8
0
  6
CONTINUOUS
 62
     7
 10
-6.65164184570313
 20
1.66634941101074
 30
0.0
 11
-5.806396484375
 21
1.66634941101074
 31
0.0
  0
LINE
  5
   13F
  8
0
  6
CONTINUOUS
 62
     7
 10
-5.806396484375
 20
1.66634941101074
 30
0.0
 11
-5.806396484375
 21
2.21374940872192
 31
0.0
  0
LINE
  5
   140
  8
0
  6
CONTINUOUS
 62
     7
 10
-6.65164184570313
 20
2.21374940872193
 30
0.0
 11
-5.806396484375
 21
2.21374940872193
 31
0.0
  0
LINE
  5
   141
  8
0
  6
CONTINUOUS
 62
     7
 10
-5.72589874267578
 20
1.29559252739714E-15
 30
0.0
 11
-5.15579986572266
 21
1.29559252739714E-15
 31
0.0
  0
LINE
  5
   142
  8
0
  6
CONTINUOUS
 62
     7
 10
-5.1557939203843
 20
1.58409603323584E-6
 30
0.0
 11
-5.02699448583549
 21
0.442751079827253
 31
0.0
  0
LINE
  5
   143
  8
0
  6
CONTINUOUS
 62
     7
 10
-5.02700042724609
 20
0.442749500274659
 30
0.0
 11
-4.41228485107422
 21
0.442749500274659
 31
0.0
  0
LINE
  5
   144
  8
0
  6
CONTINUOUS
 62
     7
 10
-4.41228013668901
 20
0.442750680659383
 30
0.0
 11
-4.2834807021402
 21
1.18492813960813E-6
 31
0.0
  0
LINE
  5
   145
  8
0
  6
CONTINUOUS
 62
     7
 10
-4.28348541259766
 20
1.29559252739714E-15
 30
0.0
 11
-3.71339416503906
 21
1.29559252739714E-15
 31
0.0
  0
LINE
  5
   146
  8
0
  6
CONTINUOUS
 62
     7
 10
-4.35739354898064
 20
2.21374974704771
 30
0.0
 11
-3.71338855826095
 21
-2.22490751156101E-7
 31
0.0
  0
LINE
  5
   147
  8
0
  6
CONTINUOUS
 62
     7
 10
-5.08189392089844
 20
2.21374940872193
 30
0.0
 11
-4.35739898681641
 21
2.21374940872193
 31
0.0
  0
LINE
  5
   148
  8
0
  6
CONTINUOUS
 62
     7
 10
-5.72589584497131
 20
-8.99382360142198E-6
 30
0.0
 11
-5.08189085425162
 21
2.21374097571486
 31
0.0
  0
LINE
  5
   149
  8
0
  6
CONTINUOUS
 62
     7
 10
-4.71963825721332
 20
1.49929173564375
 30
0.0
 11
-4.57152874572855
 21
0.990149564360237
 31
0.0
  0
LINE
  5
   14A
  8
0
  6
CONTINUOUS
 62
     7
 10
-4.86775970458984
 20
0.990149497985841
 30
0.0
 11
-4.571533203125
 21
0.990149497985841
 31
0.0
  0
LINE
  5
   14B
  8
0
  6
CONTINUOUS
 62
     7
 10
-4.86775077081381
 20
0.990150342992026
 30
0.0
 11
-4.71963371649822
 21
1.4992922341155
 31
0.0
  0
LINE
  5
   14C
  8
0
  6
CONTINUOUS
 62
     7
 10
-3.56278593292238
 20
0.549459587100848
 30
0.0
 11
-3.38675290737703
 21
0.321762682109787
 31
0.0
  0
LINE
  5
   14D
  8
0
  6
CONTINUOUS
 62
     7
 10
-3.38674988776631
 20
0.321757463405608
 30
0.0
 11
-3.15795960623514
 21
0.14714302843915
 31
0.0
  0
LINE
  5
   14E
  8
0
  6
CONTINUOUS
 62
     7
 10
-3.15796427280975
 20
0.147145556821385
 30
0.0
 11
-2.89188914343168
 21
3.74196068128748E-2
 31
0.0
  0
LINE
  5
   14F
  8
0
  6
CONTINUOUS
 62
     7
 10
-2.8918863014344
 20
3.74182762057862E-2
 30
0.0
 11
-2.60651643426088
 21
-8.77137409371898E-8
 31
0.0
  0
LINE
  5
   150
  8
0
  6
CONTINUOUS
 62
     7
 10
-2.6065123212118
 20
9.81649358411385E-7
 30
0.0
 11
-2.32114245403815
 21
3.74193455689014E-2
 31
0.0
  0
LINE
  5
   151
  8
0
  6
CONTINUOUS
 62
     7
 10
-2.32115153010861
 20
3.74184405847322E-2
 30
0.0
 11
-2.05507640073053
 21
0.147144390593243
 31
0.0
  0
LINE
  5
   152
  8
0
  6
CONTINUOUS
 62
     7
 10
-2.05506873210346
 20
0.147150154788858
 30
0.0
 11
-1.82627845057229
 21
0.321764589755316
 31
0.0
  0
LINE
  5
   153
  8
0
  6
CONTINUOUS
 62
     7
 10
-1.82628033847405
 20
0.321759408316239
 30
0.0
 11
-1.65023969094006
 21
0.549456298035748
 31
0.0
  0
LINE
  5
   154
  8
0
  6
CONTINUOUS
 62
     7
 10
-2.12316137878389
 20
0.825127035253691
 30
0.0
 11
-1.65023815182741
 21
0.549457975118036
 31
0.0
  0
LINE
  5
   155
  8
0
  6
CONTINUOUS
 62
     7
 10
-2.24808598157176
 20
0.677293469343914
 30
0.0
 11
-2.12316989668348
 21
0.825121583594019
 31
0.0
  0
LINE
  5
   156
  8
0
  6
CONTINUOUS
 62
     7
 10
-2.41589982592873
 20
0.580876247378224
 30
0.0
 11
-2.24808363129394
 21
0.677297507055141
 31
0.0
  0
LINE
  5
   157
  8
0
  6
CONTINUOUS
 62
     7
 10
-2.60651568365088
 20
0.547399641475173
 30
0.0
 11
-2.41589523762909
 21
0.580875516622462
 31
0.0
  0
LINE
  5
   158
  8
0
  6
CONTINUOUS
 62
     7
 10
-2.79714562109014
 20
0.580875730809506
 30
0.0
 11
-2.60652517506844
 21
0.547399855662232
 31
0.0
  0
LINE
  5
   159
  8
0
  6
CONTINUOUS
 62
     7
 10
-2.96495823289931
 20
0.677298823896134
 30
0.0
 11
-2.7971420382645
 21
0.580877564219204
 31
0.0
  0
LINE
  5
   15A
  8
0
  6
CONTINUOUS
 62
     7
 10
-3.08987367938059
 20
0.825127877682344
 30
0.0
 11
-2.96495759449232
 21
0.677299763432247
 31
0.0
  0
LINE
  5
   15B
  8
0
  6
CONTINUOUS
 62
     7
 10
-2.12315784078463
 20
1.38863138085445
 30
0.0
 11
-1.65023461382815
 21
1.6643004409901
 31
0.0
  0
LINE
  5
   15C
  8
0
  6
CONTINUOUS
 62
     7
 10
-1.44899749755859
 20
0.0
 30
0.0
 11
-1.44899749755859
 21
2.21374893188477
 31
0.0
  0
LINE
  5
   15D
  8
0
  6
CONTINUOUS
 62
     7
 10
-1.44899749755859
 20
1.29559252739714E-15
 30
0.0
 11
7.93321620838069E-32
 21
1.29559252739714E-15
 31
0.0
  0
LINE
  5
   15E
  8
0
  6
CONTINUOUS
 62
     7
 10
0.0
 20
0.0
 30
0.0
 11
0.0
 21
0.547399520874023
 31
0.0
  0
LINE
  5
   15F
  8
0
  6
CONTINUOUS
 62
     7
 10
-0.901596069335938
 20
0.547399520874025
 30
0.0
 11
3.35185535546584E-17
 21
0.547399520874025
 31
0.0
  0
LINE
  5
   160
  8
0
  6
CONTINUOUS
 62
     7
 10
-0.901596069335938
 20
0.547399520874023
 30
0.0
 11
-0.901596069335938
 21
0.833174705505371
 31
0.0
  0
LINE
  5
   161
  8
0
  6
CONTINUOUS
 62
     7
 10
-0.901596069335938
 20
0.833174705505373
 30
0.0
 11
-0.120750427246094
 21
0.833174705505373
 31
0.0
  0
LINE
  5
   162
  8
0
  6
CONTINUOUS
 62
     7
 10
-0.120750427246094
 20
0.833174705505371
 30
0.0
 11
-0.120750427246094
 21
1.38057470321655
 31
0.0
  0
LINE
  5
   163
  8
0
  6
CONTINUOUS
 62
     7
 10
-0.901596069335937
 20
1.38057470321655
 30
0.0
 11
-0.120750427246094
 21
1.38057470321655
 31
0.0
  0
LINE
  5
   164
  8
0
  6
CONTINUOUS
 62
     7
 10
-0.901596069335938
 20
1.38057470321655
 30
0.0
 11
-0.901596069335938
 21
1.66634938120842
 31
0.0
  0
LINE
  5
   165
  8
0
  6
CONTINUOUS
 62
     7
 10
-0.901596069335937
 20
1.66634941101074
 30
0.0
 11
1.02034473622769E-16
 21
1.66634941101074
 31
0.0
  0
LINE
  5
   166
  8
0
  6
CONTINUOUS
 62
     7
 10
0.0
 20
1.66634941101074
 30
0.0
 11
0.0
 21
2.21374940872192
 31
0.0
  0
LINE
  5
   167
  8
0
  6
CONTINUOUS
 62
     7
 10
-1.44899749755859
 20
2.21374940872193
 30
0.0
 11
1.35553056375283E-16
 21
2.21374940872193
 31
0.0
  0
ARC
  5
   168
  8
0
  6
CONTINUOUS
 62
     7
 10
-6.65167272329478
 20
1.52950251971625
 30
0.0
 40
0.684221325991138
 50
89.9975452090749
 51
270.002590974911
  0
ARC
  5
   169
  8
0
  6
CONTINUOUS
 62
     7
 10
-6.4222121249208
 20
0.696328140844565
 30
0.0
 40
0.696318094728419
 50
269.999920898491
 51
449.999499220325
  0
ARC
  5
   16A
  8
0
  6
CONTINUOUS
 62
     7
 10
-2.60648164577671
 20
1.10683590907698
 30
0.0
 40
1.10692783346537
 50
30.24104526357
 51
210.235617348036
  0
ARC
  5
   16B
  8
0
  6
CONTINUOUS
 62
     7
 10
-2.60650097665835
 20
1.10686381958204
 30
0.0
 40
0.5594873152035
 50
30.2406197505008
 51
210.236398393491
  0
INSERT
  5
   16C
  8
0
  6
CONTINUOUS
 62
     7
  2
*HATCH734
 10
0.0
 20
0.0
 30
0.0
  0
INSERT
  5
   16D
  8
0
  6
CONTINUOUS
 62
     7
  2
*HATCH735
 10
0.0
 20
0.0
 30
0.0
  0
INSERT
  5
   16E
  8
0
  6
CONTINUOUS
 62
     7
  2
*HATCH736
 10
0.0
 20
0.0
 30
0.0
  0
INSERT
  5
   16F
  8
0
  6
CONTINUOUS
 62
     7
  2
*HATCH737
 10
0.0
 20
0.0
 30
0.0
  0
ENDBLK
  5
   170
  8
0
  6
CONTINUOUS
 62
     7
  0
BLOCK
  5
   171
  8
0
  6
CONTINUOUS
 62
     7
  2
*HATCH738
 70
    65
 10
0.0
 20
0.0
 30
0.0
  3
*HATCH738
  0
LINE
  5
   172
  8
0
  6
CONTINUOUS
 62
     7
 10
-3.7039635181427
 20
2.659996509552
 30
0.0
 11
-4.09285688400269
 21
2.27110314369202
 31
0.0
  0
LINE
  5
   173
  8
0
  6
CONTINUOUS
 62
     7
 10
-3.6409957408905
 20
2.2987003326416
 30
0.0
 11
-4.3212947845459
 21
1.61840128898621
 31
0.0
  0
LINE
  5
   174
  8
0
  6
CONTINUOUS
 62
     7
 10
-3.6409957408905
 20
1.87443625926971
 30
0.0
 11
-4.10218858718872
 21
1.41324353218079
 31
0.0
  0
LINE
  5
   175
  8
0
  6
CONTINUOUS
 62
     7
 10
-3.6409957408905
 20
1.45017230510712
 30
0.0
 11
-3.67792463302612
 21
1.41324353218079
 31
0.0
  0
ENDBLK
  5
   176
  8
0
  6
CONTINUOUS
 62
     7
  0
BLOCK
  5
   177
  8
0
  6
CONTINUOUS
 62
     7
  2
*HATCH739
 70
    65
 10
0.0
 20
0.0
 30
0.0
  3
*HATCH739
  0
LINE
  5
   178
  8
0
  6
CONTINUOUS
 62
     7
 10
-4.26868629455566
 20
1.24674582481384
 30
0.0
 11
-4.54975318908691
 21
0.965678870677948
 31
0.0
  0
LINE
  5
   179
  8
0
  6
CONTINUOUS
 62
     7
 10
-3.84442234039307
 20
1.24674582481384
 30
0.0
 11
-4.77821111679077
 21
0.312956929206848
 31
0.0
  0
LINE
  5
   17A
  8
0
  6
CONTINUOUS
 62
     7
 10
-3.6409957408905
 20
1.02590835094452
 30
0.0
 11
-4.66690492630005
 21
-4.98909855650709E-7
 31
0.0
  0
LINE
  5
   17B
  8
0
  6
CONTINUOUS
 62
     7
 10
-3.6409957408905
 20
0.601644337177277
 30
0.0
 11
-3.71064043045044
 21
0.531999588012695
 31
0.0
  0
LINE
  5
   17C
  8
0
  6
CONTINUOUS
 62
     7
 10
-4.21202754974365
 20
3.06128244847059E-2
 30
0.0
 11
-4.24264144897461
 21
-1.45736464673973E-6
 31
0.0
  0
ENDBLK
  5
   17D
  8
0
  6
CONTINUOUS
 62
     7
  0
BLOCK
  5
   17E
  8
0
  6
CONTINUOUS
 62
     7
  2
*HATCH740
 70
    65
 10
0.0
 20
0.0
 30
0.0
  3
*HATCH740
  0
LINE
  5
   17F
  8
0
  6
CONTINUOUS
 62
     7
 10
-3.42015838623047
 20
1.24674582481384
 30
0.0
 11
-3.47449803352356
 21
1.19240605831146
 31
0.0
  0
LINE
  5
   180
  8
0
  6
CONTINUOUS
 62
     7
 10
-2.99589443206787
 20
1.24674582481384
 30
0.0
 11
-3.47449803352356
 21
0.768142104148865
 31
0.0
  0
LINE
  5
   181
  8
0
  6
CONTINUOUS
 62
     7
 10
-2.64012384414673
 20
1.17825222015381
 30
0.0
 11
-3.28637623786926
 21
0.532000005245209
 31
0.0
  0
LINE
  5
   182
  8
0
  6
CONTINUOUS
 62
     7
 10
-2.53012871742249
 20
0.863983333110809
 30
0.0
 11
-3.02272534370422
 21
0.371386826038361
 31
0.0
  0
LINE
  5
   183
  8
0
  6
CONTINUOUS
 62
     7
 10
-2.42013359069824
 20
0.54971444606781
 30
0.0
 11
-2.91273474693298
 21
0.057113379240036
 31
0.0
  0
LINE
  5
   184
  8
0
  6
CONTINUOUS
 62
     7
 10
-2.310138463974
 20
0.235445529222488
 30
0.0
 11
-2.54558539390564
 21
-1.36076994294854E-6
 31
0.0
  0
ENDBLK
  5
   185
  8
0
  6
CONTINUOUS
 62
     7
  0
BLOCK
  5
   186
  8
0
  6
CONTINUOUS
 62
     7
  2
*HATCH741
 70
    65
 10
0.0
 20
0.0
 30
0.0
  3
*HATCH741
  0
LINE
  5
   187
  8
0
  6
CONTINUOUS
 62
     7
 10
-3.27970123291016
 20
2.65999484062195
 30
0.0
 11
-3.47449803352356
 21
2.46519804000854
 31
0.0
  0
LINE
  5
   188
  8
0
  6
CONTINUOUS
 62
     7
 10
-3.08010387420654
 20
2.43532824516296
 30
0.0
 11
-3.47449803352356
 21
2.04093408584595
 31
0.0
  0
LINE
  5
   189
  8
0
  6
CONTINUOUS
 62
     7
 10
-2.97010922431946
 20
2.12105894088745
 30
0.0
 11
-3.47449803352356
 21
1.61667013168335
 31
0.0
  0
LINE
  5
   18A
  8
0
  6
CONTINUOUS
 62
     7
 10
-2.86011457443237
 20
1.80678939819336
 30
0.0
 11
-3.25366044044495
 21
1.41324353218079
 31
0.0
  0
LINE
  5
   18B
  8
0
  6
CONTINUOUS
 62
     7
 10
-2.75011992454529
 20
1.49252009391785
 30
0.0
 11
-2.82939648628235
 21
1.41324353218079
 31
0.0
  0
ENDBLK
  5
   18C
  8
0
  6
CONTINUOUS
 62
     7
  0
BLOCK
  5
   18D
  8
0
  6
CONTINUOUS
 62
     7
  2
*HATCH742
 70
    65
 10
0.0
 20
0.0
 30
0.0
  3
*HATCH742
  0
LINE
  5
   18E
  8
0
  6
CONTINUOUS
 62
     7
 10
-2.00690746307373
 20
2.659996509552
 30
0.0
 11
-2.06149291992188
 21
2.60541105270386
 31
0.0
  0
LINE
  5
   18F
  8
0
  6
CONTINUOUS
 62
     7
 10
-1.58264350891113
 20
2.659996509552
 30
0.0
 11
-2.06149291992188
 21
2.18114709854126
 31
0.0
  0
LINE
  5
   190
  8
0
  6
CONTINUOUS
 62
     7
 10
-1.34674525260925
 20
2.47163057327271
 30
0.0
 11
-2.06149291992188
 21
1.75688314437866
 31
0.0
  0
LINE
  5
   191
  8
0
  6
CONTINUOUS
 62
     7
 10
-1.34674525260925
 20
2.04736661911011
 30
0.0
 11
-1.98086845874786
 21
1.41324353218079
 31
0.0
  0
LINE
  5
   192
  8
0
  6
CONTINUOUS
 62
     7
 10
-1.34674525260925
 20
1.62310266494751
 30
0.0
 11
-1.55660438537598
 21
1.41324353218079
 31
0.0
  0
ENDBLK
  5
   193
  8
0
  6
CONTINUOUS
 62
     7
  0
BLOCK
  5
   194
  8
0
  6
CONTINUOUS
 62
     7
  2
*HATCH743
 70
    65
 10
0.0
 20
0.0
 30
0.0
  3
*HATCH743
  0
LINE
  5
   195
  8
0
  6
CONTINUOUS
 62
     7
 10
-1.72310221195221
 20
1.24674582481384
 30
0.0
 11
-2.06149291992188
 21
0.908355116844177
 31
0.0
  0
LINE
  5
   196
  8
0
  6
CONTINUOUS
 62
     7
 10
-1.34674525260925
 20
1.19883871078491
 30
0.0
 11
-2.06149291992188
 21
0.484091132879257
 31
0.0
  0
LINE
  5
   197
  8
0
  6
CONTINUOUS
 62
     7
 10
-1.34674525260925
 20
0.774574756622314
 30
0.0
 11
-2.06149291992188
 21
5.98271489143372E-2
 31
0.0
  0
LINE
  5
   198
  8
0
  6
CONTINUOUS
 62
     7
 10
-1.34674525260925
 20
0.350310742855072
 30
0.0
 11
-1.69705605506897
 21
6.53578086579266E-16
 31
0.0
  0
ENDBLK
  5
   199
  8
0
  6
CONTINUOUS
 62
     7
  0
BLOCK
  5
   19A
  8
0
  6
CONTINUOUS
 62
     7
  2
*HATCH744
 70
    65
 10
0.0
 20
0.0
 30
0.0
  3
*HATCH744
  0
LINE
  5
   19B
  8
0
  6
CONTINUOUS
 62
     7
 10
-1.15837943553925
 20
2.659996509552
 30
0.0
 11
-1.18024754524231
 21
2.63812851905823
 31
0.0
  0
LINE
  5
   19C
  8
0
  6
CONTINUOUS
 62
     7
 10
-0.823453903198242
 20
2.57065796852112
 30
0.0
 11
-1.18024754524231
 21
2.21386456489563
 31
0.0
  0
LINE
  5
   19D
  8
0
  6
CONTINUOUS
 62
     7
 10
-0.5418501496315
 20
2.42799782752991
 30
0.0
 11
-1.18024754524231
 21
1.78960049152374
 31
0.0
  0
LINE
  5
   19E
  8
0
  6
CONTINUOUS
 62
     7
 10
-0.449764907360077
 20
2.09581899642944
 30
0.0
 11
-1.13234043121338
 21
1.41324353218079
 31
0.0
  0
LINE
  5
   19F
  8
0
  6
CONTINUOUS
 62
     7
 10
-0.638074100017548
 20
1.48324584960938
 30
0.0
 11
-0.708076417446136
 21
1.41324353218079
 31
0.0
  0
ENDBLK
  5
   1A0
  8
0
  6
CONTINUOUS
 62
     7
  0
BLOCK
  5
   1A1
  8
0
  6
CONTINUOUS
 62
     7
  2
*HATCH745
 70
    65
 10
0.0
 20
0.0
 30
0.0
  3
*HATCH745
  0
LINE
  5
   1A2
  8
0
  6
CONTINUOUS
 62
     7
 10
-0.874574244022369
 20
1.24674582481384
 30
0.0
 11
-1.18024754524231
 21
0.941072523593903
 31
0.0
  0
LINE
  5
   1A3
  8
0
  6
CONTINUOUS
 62
     7
 10
-0.450310230255127
 20
1.24674582481384
 30
0.0
 11
-1.18024754524231
 21
0.51680850982666
 31
0.0
  0
LINE
  5
   1A4
  8
0
  6
CONTINUOUS
 62
     7
 10
-0.281659334897995
 20
0.991132616996765
 30
0.0
 11
-1.18024754524231
 21
9.25445482134819E-2
 31
0.0
  0
LINE
  5
   1A5
  8
0
  6
CONTINUOUS
 62
     7
 10
-0.263972669839859
 20
0.584555327892303
 30
0.0
 11
-0.764747977256775
 21
8.37800353765488E-2
 31
0.0
  0
ENDBLK
  5
   1A6
  8
0
  6
CONTINUOUS
 62
     7
  0
BLOCK
  5
   1A7
  8
0
  6
CONTINUOUS
 62
     7
  2
*HATCH746
 70
    65
 10
0.0
 20
0.0
 30
0.0
  3
*HATCH746
  0
LINE
  5
   1A8
  8
0
  6
CONTINUOUS
 62
     7
 10
0.114412605762482
 20
2.659996509552
 30
0.0
 11
0.0
 21
2.54558396339417
 31
0.0
  0
LINE
  5
   1A9
  8
0
  6
CONTINUOUS
 62
     7
 10
0.538676619529724
 20
2.659996509552
 30
0.0
 11
0.0
 21
2.12132000923157
 31
0.0
  0
LINE
  5
   1AA
  8
0
  6
CONTINUOUS
 62
     7
 10
0.714747607707977
 20
2.41180348396301
 30
0.0
 11
0.0
 21
1.69705593585968
 31
0.0
  0
LINE
  5
   1AB
  8
0
  6
CONTINUOUS
 62
     7
 10
0.714747607707977
 20
1.98753952980042
 30
0.0
 11
0.140451639890671
 21
1.41324353218079
 31
0.0
  0
LINE
  5
   1AC
  8
0
  6
CONTINUOUS
 62
     7
 10
0.714747607707977
 20
1.56327557563782
 30
0.0
 11
0.564715623855591
 21
1.41324353218079
 31
0.0
  0
ENDBLK
  5
   1AD
  8
0
  6
CONTINUOUS
 62
     7
  0
BLOCK
  5
   1AE
  8
0
  6
CONTINUOUS
 62
     7
  2
*HATCH747
 70
    65
 10
0.0
 20
0.0
 30
0.0
  3
*HATCH747
  0
LINE
  5
   1AF
  8
0
  6
CONTINUOUS
 62
     7
 10
0.962940633296967
 20
2.659996509552
 30
0.0
 11
0.88124543428421
 21
2.57830119132996
 31
0.0
  0
LINE
  5
   1B0
  8
0
  6
CONTINUOUS
 62
     7
 10
1.2789386510849
 20
2.55173063278198
 30
0.0
 11
0.88124543428421
 21
2.15403723716736
 31
0.0
  0
LINE
  5
   1B1
  8
0
  6
CONTINUOUS
 62
     7
 10
1.53262805938721
 20
2.3811559677124
 30
0.0
 11
0.88124543428421
 21
1.72977328300476
 31
0.0
  0
LINE
  5
   1B2
  8
0
  6
CONTINUOUS
 62
     7
 10
1.62471330165863
 20
2.04897713661194
 30
0.0
 11
0.988979697227478
 21
1.41324353218079
 31
0.0
  0
LINE
  5
   1B3
  8
0
  6
CONTINUOUS
 62
     7
 10
1.46331548690796
 20
1.46331536769867
 30
0.0
 11
1.41324365139008
 21
1.41324353218079
 31
0.0
  0
ENDBLK
  5
   1B4
  8
0
  6
CONTINUOUS
 62
     7
  0
BLOCK
  5
   1B5
  8
0
  6
CONTINUOUS
 62
     7
  2
*HATCH748
 70
    65
 10
0.0
 20
0.0
 30
0.0
  3
*HATCH748
  0
LINE
  5
   1B6
  8
0
  6
CONTINUOUS
 62
     7
 10
0.39821782708168
 20
1.24674582481384
 30
0.0
 11
0.0
 21
0.84852796792984
 31
0.0
  0
LINE
  5
   1B7
  8
0
  6
CONTINUOUS
 62
     7
 10
0.714747607707977
 20
1.13901150226593
 30
0.0
 11
0.0
 21
0.42426398396492
 31
0.0
  0
LINE
  5
   1B8
  8
0
  6
CONTINUOUS
 62
     7
 10
0.714747607707977
 20
0.714747548103333
 30
0.0
 11
0.0
 21
0.0
 31
0.0
  0
LINE
  5
   1B9
  8
0
  6
CONTINUOUS
 62
     7
 10
0.714747607707977
 20
0.290483593940735
 30
0.0
 11
0.424264013767242
 21
7.91553348000328E-16
 31
0.0
  0
ENDBLK
  5
   1BA
  8
0
  6
CONTINUOUS
 62
     7
  0
BLOCK
  5
   1BB
  8
0
  6
CONTINUOUS
 62
     7
  2
*HATCH749
 70
    65
 10
0.0
 20
0.0
 30
0.0
  3
*HATCH749
  0
LINE
  5
   1BC
  8
0
  6
CONTINUOUS
 62
     7
 10
1.24674582481384
 20
1.24674582481384
 30
0.0
 11
0.88124543428421
 21
0.881245374679565
 31
0.0
  0
LINE
  5
   1BD
  8
0
  6
CONTINUOUS
 62
     7
 10
1.67100977897644
 20
1.24674582481384
 30
0.0
 11
0.88124543428421
 21
0.456981390714645
 31
0.0
  0
LINE
  5
   1BE
  8
0
  6
CONTINUOUS
 62
     7
 10
1.79262113571167
 20
0.944092988967896
 30
0.0
 11
0.88124543428421
 21
3.27173843979836E-2
 31
0.0
  0
LINE
  5
   1BF
  8
0
  6
CONTINUOUS
 62
     7
 10
1.73607635498047
 20
0.463284254074097
 30
0.0
 11
1.39401113986969
 21
0.121219135820866
 31
0.0
  0
ENDBLK
  5
   1C0
  8
0
  6
CONTINUOUS
 62
     7
  0
BLOCK
  5
   1C1
  8
0
  6
CONTINUOUS
 62
     7
  2
$2ABB
 70
    64
 10
0.0
 20
0.0
 30
0.0
  3
$2ABB
  0
LINE
  5
   1C2
  8
0
  6
CONTINUOUS
 62
     7
 10
-4.39309755866065
 20
1.4132435798645
 30
0.0
 11
-3.95674135031761
 21
2.6599923848804
 31
0.0
  0
LINE
  5
   1C3
  8
0
  6
CONTINUOUS
 62
     7
 10
-4.88774871826172
 20
1.33351129624183E-15
 30
0.0
 11
-4.22274780273438
 21
1.33351129624183E-15
 31
0.0
  0
LINE
  5
   1C4
  8
0
  6
CONTINUOUS
 62
     7
 10
-4.22274218828809
 20
-1.50231959450409E-6
 30
0.0
 11
-4.0365391926282
 21
0.531998110619612
 31
0.0
  0
LINE
  5
   1C5
  8
0
  6
CONTINUOUS
 62
     7
 10
-4.03654479980469
 20
0.531999588012697
 30
0.0
 11
-3.64099578857422
 21
0.531999588012697
 31
0.0
  0
LINE
  5
   1C6
  8
0
  6
CONTINUOUS
 62
     7
 10
-4.88774327593104
 20
-2.42794669391699E-6
 30
0.0
 11
-4.45137756989492
 21
1.24674577713013
 31
0.0
  0
LINE
  5
   1C7
  8
0
  6
CONTINUOUS
 62
     7
 10
-2.66409674425225
 20
1.24674577713013
 30
0.0
 11
-2.22773097566292
 21
-2.60666856455316E-6
 31
0.0
  0
LINE
  5
   1C8
  8
0
  6
CONTINUOUS
 62
     7
 10
-3.47449798583984
 20
0.531999588012697
 30
0.0
 11
-3.07894897460938
 21
0.531999588012697
 31
0.0
  0
LINE
  5
   1C9
  8
0
  6
CONTINUOUS
 62
     7
 10
-3.07893739163377
 20
0.53200042788059
 30
0.0
 11
-2.89273439597387
 21
8.14941384263967E-7
 31
0.0
  0
LINE
  5
   1CA
  8
0
  6
CONTINUOUS
 62
     7
 10
-2.89274597167969
 20
1.33351129624183E-15
 30
0.0
 11
-2.22774505615234
 21
1.33351129624183E-15
 31
0.0
  0
LINE
  5
   1CB
  8
0
  6
CONTINUOUS
 62
     7
 10
-3.15873717506253
 20
2.65999387867798
 30
0.0
 11
-2.72237316510625
 21
1.4132435798645
 31
0.0
  0
LINE
  5
   1CC
  8
0
  6
CONTINUOUS
 62
     7
 10
-2.06149291992188
 20
1.33351129624183E-15
 30
0.0
 11
-1.34674530029297
 21
1.33351129624183E-15
 31
0.0
  0
LINE
  5
   1CD
  8
0
  6
CONTINUOUS
 62
     7
 10
-0.698249011125256
 20
1.51330638523267
 30
0.0
 11
-0.497944258065633
 21
1.4132435798645
 31
0.0
  0
LINE
  5
   1CE
  8
0
  6
CONTINUOUS
 62
     7
 10
-1.18024749755859
 20
1.33351129624183E-15
 30
0.0
 11
-0.982933044433594
 21
1.33351129624183E-15
 31
0.0
  0
LINE
  5
   1CF
  8
0
  6
CONTINUOUS
 62
     7
 10
-2.06149291992188
 20
0.0
 30
0.0
 11
-2.06149291992188
 21
1.24674577713013
 31
0.0
  0
LINE
  5
   1D0
  8
0
  6
CONTINUOUS
 62
     7
 10
-3.95674896240234
 20
2.659996509552
 30
0.0
 11
-3.64099578857422
 21
2.659996509552
 31
0.0
  0
LINE
  5
   1D1
  8
0
  6
CONTINUOUS
 62
     7
 10
-3.47449798583984
 20
2.659996509552
 30
0.0
 11
-3.15874481201172
 21
2.659996509552
 31
0.0
  0
LINE
  5
   1D2
  8
0
  6
CONTINUOUS
 62
     7
 10
-2.06149291992188
 20
2.659996509552
 30
0.0
 11
-1.34674530029297
 21
2.659996509552
 31
0.0
  0
LINE
  5
   1D3
  8
0
  6
CONTINUOUS
 62
     7
 10
-1.18024749755859
 20
2.659996509552
 30
0.0
 11
-1.01650238037109
 21
2.659996509552
 31
0.0
  0
LINE
  5
   1D4
  8
0
  6
CONTINUOUS
 62
     7
 10
-3.47449798583984
 20
1.4132435798645
 30
0.0
 11
-3.47449798583984
 21
2.659996509552
 31
0.0
  0
LINE
  5
   1D5
  8
0
  6
CONTINUOUS
 62
     7
 10
-3.47449798583984
 20
0.531999588012695
 30
0.0
 11
-3.47449798583984
 21
1.24674577713013
 31
0.0
  0
LINE
  5
   1D6
  8
0
  6
CONTINUOUS
 62
     7
 10
-3.64099578857422
 20
1.4132435798645
 30
0.0
 11
-3.64099578857422
 21
2.659996509552
 31
0.0
  0
LINE
  5
   1D7
  8
0
  6
CONTINUOUS
 62
     7
 10
-3.64099578857422
 20
0.531999588012695
 30
0.0
 11
-3.64099578857422
 21
1.24674577713013
 31
0.0
  0
LINE
  5
   1D8
  8
0
  6
CONTINUOUS
 62
     7
 10
-4.39309755866065
 20
1.4132435798645
 30
0.0
 11
-3.64099578857422
 21
1.4132435798645
 31
0.0
  0
LINE
  5
   1D9
  8
0
  6
CONTINUOUS
 62
     7
 10
-4.45137756989492
 20
1.24674577713013
 30
0.0
 11
-3.64099578857422
 21
1.24674577713013
 31
0.0
  0
LINE
  5
   1DA
  8
0
  6
CONTINUOUS
 62
     7
 10
-3.47449798583984
 20
1.24674577713013
 30
0.0
 11
-2.66409674425225
 21
1.24674577713013
 31
0.0
  0
LINE
  5
   1DB
  8
0
  6
CONTINUOUS
 62
     7
 10
-1.34674530029297
 20
1.4132435798645
 30
0.0
 11
-1.34674530029297
 21
2.659996509552
 31
0.0
  0
LINE
  5
   1DC
  8
0
  6
CONTINUOUS
 62
     7
 10
-2.06149291992188
 20
1.4132435798645
 30
0.0
 11
-1.34674530029297
 21
1.4132435798645
 31
0.0
  0
LINE
  5
   1DD
  8
0
  6
CONTINUOUS
 62
     7
 10
-1.18024749755859
 20
1.4132435798645
 30
0.0
 11
-1.18024749755859
 21
2.659996509552
 31
0.0
  0
LINE
  5
   1DE
  8
0
  6
CONTINUOUS
 62
     7
 10
-1.18024749755859
 20
1.4132435798645
 30
0.0
 11
-0.497944258065633
 21
1.4132435798645
 31
0.0
  0
LINE
  5
   1DF
  8
0
  6
CONTINUOUS
 62
     7
 10
-2.06149291992188
 20
1.24674577713013
 30
0.0
 11
-1.34674530029297
 21
1.24674577713013
 31
0.0
  0
LINE
  5
   1E0
  8
0
  6
CONTINUOUS
 62
     7
 10
-1.18024749755859
 20
1.24674577713013
 30
0.0
 11
-0.351146494976341
 21
1.24674577713013
 31
0.0
  0
LINE
  5
   1E1
  8
0
  6
CONTINUOUS
 62
     7
 10
-1.18024749755859
 20
0.0
 30
0.0
 11
-1.18024749755859
 21
1.24674577713013
 31
0.0
  0
LINE
  5
   1E2
  8
0
  6
CONTINUOUS
 62
     7
 10
-1.34674530029297
 20
0.0
 30
0.0
 11
-1.34674530029297
 21
1.24674577713013
 31
0.0
  0
ARC
  5
   1E3
  8
0
  6
CONTINUOUS
 62
     7
 10
-1.01636629288394
 20
2.0426469527994
 30
0.0
 40
0.617302755021266
 50
300.988438672012
 51
450.0
  0
ARC
  5
   1E4
  8
0
  6
CONTINUOUS
 62
     7
 10
-0.983116632612569
 20
0.783417365308862
 30
0.0
 40
0.783619468916367
 50
270.01347311298
 51
396.246977192996
  0
LINE
  5
   1E5
  8
0
  6
CONTINUOUS
 62
     7
 10
-2.06149291992188
 20
1.4132435798645
 30
0.0
 11
-2.06149291992188
 21
2.659996509552
 31
0.0
  0
LINE
  5
   1E6
  8
0
  6
CONTINUOUS
 62
     7
 10
-3.47449798583984
 20
1.4132435798645
 30
0.0
 11
-2.72237316510625
 21
1.4132435798645
 31
0.0
  0
LINE
  5
   1E7
  8
0
  6
CONTINUOUS
 62
     7
 10
0.0
 20
1.33351129624183E-15
 30
0.0
 11
0.714747619628906
 21
1.33351129624183E-15
 31
0.0
  0
LINE
  5
   1E8
  8
0
  6
CONTINUOUS
 62
     7
 10
1.36324390879662
 20
1.51330638523267
 30
0.0
 11
1.56354866185624
 21
1.4132435798645
 31
0.0
  0
LINE
  5
   1E9
  8
0
  6
CONTINUOUS
 62
     7
 10
0.881245422363281
 20
1.33351129624183E-15
 30
0.0
 11
1.07855987548828
 21
1.33351129624183E-15
 31
0.0
  0
LINE
  5
   1EA
  8
0
  6
CONTINUOUS
 62
     7
 10
0.0
 20
0.0
 30
0.0
 11
0.0
 21
1.24674577713013
 31
0.0
  0
LINE
  5
   1EB
  8
0
  6
CONTINUOUS
 62
     7
 10
0.0
 20
2.659996509552
 30
0.0
 11
0.714747619628906
 21
2.659996509552
 31
0.0
  0
LINE
  5
   1EC
  8
0
  6
CONTINUOUS
 62
     7
 10
0.881245422363281
 20
2.659996509552
 30
0.0
 11
1.04499053955078
 21
2.659996509552
 31
0.0
  0
LINE
  5
   1ED
  8
0
  6
CONTINUOUS
 62
     7
 10
0.714747619628906
 20
1.4132435798645
 30
0.0
 11
0.714747619628906
 21
2.659996509552
 31
0.0
  0
LINE
  5
   1EE
  8
0
  6
CONTINUOUS
 62
     7
 10
0.0
 20
1.4132435798645
 30
0.0
 11
0.714747619628906
 21
1.4132435798645
 31
0.0
  0
LINE
  5
   1EF
  8
0
  6
CONTINUOUS
 62
     7
 10
0.881245422363281
 20
1.4132435798645
 30
0.0
 11
0.881245422363281
 21
2.659996509552
 31
0.0
  0
LINE
  5
   1F0
  8
0
  6
CONTINUOUS
 62
     7
 10
0.881245422363281
 20
1.4132435798645
 30
0.0
 11
1.56354866185624
 21
1.4132435798645
 31
0.0
  0
LINE
  5
   1F1
  8
0
  6
CONTINUOUS
 62
     7
 10
0.0
 20
1.24674577713013
 30
0.0
 11
0.714747619628906
 21
1.24674577713013
 31
0.0
  0
LINE
  5
   1F2
  8
0
  6
CONTINUOUS
 62
     7
 10
0.881245422363281
 20
1.24674577713013
 30
0.0
 11
1.71034642494553
 21
1.24674577713013
 31
0.0
  0
LINE
  5
   1F3
  8
0
  6
CONTINUOUS
 62
     7
 10
0.881245422363281
 20
0.0
 30
0.0
 11
0.881245422363281
 21
1.24674577713013
 31
0.0
  0
LINE
  5
   1F4
  8
0
  6
CONTINUOUS
 62
     7
 10
0.714747619628906
 20
0.0
 30
0.0
 11
0.714747619628906
 21
1.24674577713013
 31
0.0
  0
ARC
  5
   1F5
  8
0
  6
CONTINUOUS
 62
     7
 10
1.04512662703793
 20
2.0426469527994
 30
0.0
 40
0.617302755021266
 50
300.988438672012
 51
450.0
  0
ARC
  5
   1F6
  8
0
  6
CONTINUOUS
 62
     7
 10
1.07837628730931
 20
0.783417365308862
 30
0.0
 40
0.783619468916367
 50
270.01347311298
 51
396.246977192996
  0
LINE
  5
   1F7
  8
0
  6
CONTINUOUS
 62
     7
 10
0.0
 20
1.4132435798645
 30
0.0
 11
0.0
 21
2.659996509552
 31
0.0
  0
INSERT
  5
   1F8
  8
0
  6
CONTINUOUS
 62
     7
  2
*HATCH738
 10
0.0
 20
0.0
 30
0.0
  0
INSERT
  5
   1F9
  8
0
  6
CONTINUOUS
 62
     7
  2
*HATCH739
 10
0.0
 20
0.0
 30
0.0
  0
INSERT
  5
   1FA
  8
0
  6
CONTINUOUS
 62
     7
  2
*HATCH740
 10
0.0
 20
0.0
 30
0.0
  0
INSERT
  5
   1FB
  8
0
  6
CONTINUOUS
 62
     7
  2
*HATCH741
 10
0.0
 20
0.0
 30
0.0
  0
INSERT
  5
   1FC
  8
0
  6
CONTINUOUS
 62
     7
  2
*HATCH742
 10
0.0
 20
0.0
 30
0.0
  0
INSERT
  5
   1FD
  8
0
  6
CONTINUOUS
 62
     7
  2
*HATCH743
 10
0.0
 20
0.0
 30
0.0
  0
INSERT
  5
   1FE
  8
0
  6
CONTINUOUS
 62
     7
  2
*HATCH744
 10
0.0
 20
0.0
 30
0.0
  0
INSERT
  5
   1FF
  8
0
  6
CONTINUOUS
 62
     7
  2
*HATCH745
 10
0.0
 20
0.0
 30
0.0
  0
INSERT
  5
   200
  8
0
  6
CONTINUOUS
 62
     7
  2
*HATCH746
 10
0.0
 20
0.0
 30
0.0
  0
INSERT
  5
   201
  8
0
  6
CONTINUOUS
 62
     7
  2
*HATCH747
 10
0.0
 20
0.0
 30
0.0
  0
INSERT
  5
   202
  8
0
  6
CONTINUOUS
 62
     7
  2
*HATCH748
 10
0.0
 20
0.0
 30
0.0
  0
INSERT
  5
   203
  8
0
  6
CONTINUOUS
 62
     7
  2
*HATCH749
 10
0.0
 20
0.0
 30
0.0
  0
ENDBLK
  5
   204
  8
0
  6
CONTINUOUS
 62
     7
  0
BLOCK
  5
   205
  8
0
  6
CONTINUOUS
 62
     7
  2
$2SETTORE
 70
    64
 10
0.0
 20
0.0
 30
0.0
  3
$2SETTORE
  0
LINE
  5
   206
  8
0
  6
CONTINUOUS
 62
     7
 10
0.0
 20
0.0
 30
0.0
 11
0.0
 21
6.24258713789282
 31
0.0
  0
LINE
  5
   207
  8
0
  6
CONTINUOUS
 62
     7
 10
0.0
 20
6.24258713789282
 30
0.0
 11
10.246732288018
 21
6.24258713789282
 31
0.0
  0
LINE
  5
   208
  8
0
  6
CONTINUOUS
 62
     7
 10
0.0
 20
0.0
 30
0.0
 11
10.246732288018
 21
0.0
 31
0.0
  0
ARC
  5
   209
  8
0
  6
CONTINUOUS
 62
     7
 10
3.00394911306302
 20
1.0864500117421
 30
0.0
 40
1.56546573367076
 50
6.88816001651171
 51
173.111839983488
  0
ARC
  5
   20A
  8
0
  6
CONTINUOUS
 62
     7
 10
7.01184733918905
 20
1.08645001174209
 30
0.0
 40
1.56546573367076
 50
6.88816001651175
 51
173.111839983488
  0
LINE
  5
   20B
  8
0
  6
CONTINUOUS
 62
     7
 10
4.55811554458609
 20
1.27419895694331
 30
0.0
 11
5.45768090766596
 21
1.27419895694331
 31
0.0
  0
LINE
  5
   20C
  8
0
  6
CONTINUOUS
 62
     7
 10
8.56601377071214
 20
1.27419895694331
 30
0.0
 11
9.32812373766353
 21
1.27419895694331
 31
0.0
  0
LINE
  5
   20D
  8
0
  6
CONTINUOUS
 62
     7
 10
10.246732288018
 20
0.0
 30
0.0
 11
10.246732288018
 21
6.24258713789282
 31
0.0
  0
POLYLINE
  5
   20E
  8
0
  6
CONTINUOUS
 62
     7
 66
     1
 10
0.0
 20
0.0
 30
0.0
  0
VERTEX
  5
   20F
  8
0
  6
CONTINUOUS
 10
1.47743232669794
 20
4.62974475182398
 30
0.0
 40
0.0
 41
0.0
  0
VERTEX
  5
   210
  8
0
  6
CONTINUOUS
 10
1.50907090971912
 20
4.68541072145247
 30
0.0
 40
0.0
 41
0.0
  0
VERTEX
  5
   211
  8
0
  6
CONTINUOUS
 10
1.54295933904664
 20
4.7397363550725
 30
0.0
 40
0.0
 41
0.0
  0
VERTEX
  5
   212
  8
0
  6
CONTINUOUS
 10
1.57904092337672
 20
4.79263077238764
 30
0.0
 40
0.0
 41
0.0
  0
VERTEX
  5
   213
  8
0
  6
CONTINUOUS
 10
1.61725530251987
 20
4.84400548735488
 30
0.0
 40
0.0
 41
0.0
  0
VERTEX
  5
   214
  8
0
  6
CONTINUOUS
 10
1.65753854837676
 20
4.89377455621077
 30
0.0
 40
0.0
 41
0.0
  0
VERTEX
  5
   215
  8
0
  6
CONTINUOUS
 10
1.69982327188269
 20
4.94185472124475
 30
0.0
 40
0.0
 41
0.0
  0
VERTEX
  5
   216
  8
0
  6
CONTINUOUS
 10
1.74403873574163
 20
4.98816555007912
 30
0.0
 40
0.0
 41
0.0
  0
VERTEX
  5
   217
  8
0
  6
CONTINUOUS
 10
1.79011097276124
 20
5.0326295702228
 30
0.0
 40
0.0
 41
0.0
  0
VERTEX
  5
   218
  8
0
  6
CONTINUOUS
 10
1.83796290959098
 20
5.07517239867363
 30
0.0
 40
0.0
 41
0.0
  0
VERTEX
  5
   219
  8
0
  6
CONTINUOUS
 10
1.88751449565626
 20
5.11572286635262
 30
0.0
 40
0.0
 41
0.0
  0
VERTEX
  5
   21A
  8
0
  6
CONTINUOUS
 10
1.93868283707304
 20
5.15421313716167
 30
0.0
 40
0.0
 41
0.0
  0
VERTEX
  5
   21B
  8
0
  6
CONTINUOUS
 10
1.99138233531874
 20
5.19057882146581
 30
0.0
 40
0.0
 41
0.0
  0
VERTEX
  5
   21C
  8
0
  6
CONTINUOUS
 10
2.04552483042776
 20
5.22475908380999
 30
0.0
 40
0.0
 41
0.0
  0
VERTEX
  5
   21D
  8
0
  6
CONTINUOUS
 10
2.10101974847194
 20
5.25669674469012
 30
0.0
 40
0.0
 41
0.0
  0
VERTEX
  5
   21E
  8
0
  6
CONTINUOUS
 10
2.15777425307935
 20
5.28633837620813
 30
0.0
 40
0.0
 41
0.0
  0
VERTEX
  5
   21F
  8
0
  6
CONTINUOUS
 10
2.21569340073804
 20
5.31363439145094
 30
0.0
 40
0.0
 41
0.0
  0
VERTEX
  5
   220
  8
0
  6
CONTINUOUS
 10
2.2746802996249
 20
5.33853912744377
 30
0.0
 40
0.0
 41
0.0
  0
VERTEX
  5
   221
  8
0
  6
CONTINUOUS
 10
2.3346362716941
 20
5.36101092153898
 30
0.0
 40
0.0
 41
0.0
  0
VERTEX
  5
   222
  8
0
  6
CONTINUOUS
 10
2.39546101775383
 20
5.38101218111262
 30
0.0
 40
0.0
 41
0.0
  0
VERTEX
  5
   223
  8
0
  6
CONTINUOUS
 10
2.45705278525531
 20
5.39850944645206
 30
0.0
 40
0.0
 41
0.0
  0
VERTEX
  5
   224
  8
0
  6
CONTINUOUS
 10
2.51930853851338
 20
5.4134734467295
 30
0.0
 40
0.0
 41
0.0
  0
VERTEX
  5
   225
  8
0
  6
CONTINUOUS
 10
2.58212413107371
 20
5.42587914896778
 30
0.0
 40
0.0
 41
0.0
  0
VERTEX
  5
   226
  8
0
  6
CONTINUOUS
 10
2.64539447993848
 20
5.43570579991652
 30
0.0
 40
0.0
 41
0.0
  0
VERTEX
  5
   227
  8
0
  6
CONTINUOUS
 10
2.70901374135873
 20
5.44293696076883
 30
0.0
 40
0.0
 41
0.0
  0
VERTEX
  5
   228
  8
0
  6
CONTINUOUS
 10
2.77287548789944
 20
5.44756053466028
 30
0.0
 40
0.0
 41
0.0
  0
VERTEX
  5
   229
  8
0
  6
CONTINUOUS
 10
2.83687288648079
 20
5.44956878690456
 30
0.0
 40
0.0
 41
0.0
  0
VERTEX
  5
   22A
  8
0
  6
CONTINUOUS
 10
2.90089887709781
 20
5.44895835793193
 30
0.0
 40
0.0
 41
0.0
  0
VERTEX
  5
   22B
  8
0
  6
CONTINUOUS
 10
2.96484635191918
 20
5.44573026890904
 30
0.0
 40
0.0
 41
0.0
  0
VERTEX
  5
   22C
  8
0
  6
CONTINUOUS
 10
3.02860833446559
 20
5.43988992003082
 30
0.0
 40
0.0
 41
0.0
  0
VERTEX
  5
   22D
  8
0
  6
CONTINUOUS
 10
3.09207815856758
 20
5.43144708148745
 30
0.0
 40
0.0
 41
0.0
  0
VERTEX
  5
   22E
  8
0
  6
CONTINUOUS
 10
3.15514964680372
 20
5.42041587712159
 30
0.0
 40
0.0
 41
0.0
  0
VERTEX
  5
   22F
  8
0
  6
CONTINUOUS
 10
3.2177172881204
 20
5.40681476080326
 30
0.0
 40
0.0
 41
0.0
  0
VERTEX
  5
   230
  8
0
  6
CONTINUOUS
 10
3.27967641433626
 20
5.39066648556181
 30
0.0
 40
0.0
 41
0.0
  0
VERTEX
  5
   231
  8
0
  6
CONTINUOUS
 10
3.34092337523629
 20
5.37199806552637
 30
0.0
 40
0.0
 41
0.0
  0
VERTEX
  5
   232
  8
0
  6
CONTINUOUS
 10
3.40135571196283
 20
5.35084073073817
 30
0.0
 40
0.0
 41
0.0
  0
VERTEX
  5
   233
  8
0
  6
CONTINUOUS
 10
3.46087232841431
 20
5.32722987490957
 30
0.0
 40
0.0
 41
0.0
  0
VERTEX
  5
   234
  8
0
  6
CONTINUOUS
 10
3.51937366036546
 20
5.30120499621645
 30
0.0
 40
0.0
 41
0.0
  0
VERTEX
  5
   235
  8
0
  6
CONTINUOUS
 10
3.57676184202738
 20
5.27280963122154
 30
0.0
 40
0.0
 41
0.0
  0
VERTEX
  5
   236
  8
0
  6
CONTINUOUS
 10
3.63294086977031
 20
5.24209128203773
 30
0.0
 40
0.0
 41
0.0
  0
VERTEX
  5
   237
  8
0
  6
CONTINUOUS
 10
3.6878167627369
 20
5.20910133685067
 30
0.0
 40
0.0
 41
0.0
  0
VERTEX
  5
   238
  8
0
  6
CONTINUOUS
 10
3.74129772007988
 20
5.17389498393089
 30
0.0
 40
0.0
 41
0.0
  0
VERTEX
  5
   239
  8
0
  6
CONTINUOUS
 10
3.79329427456388
 20
5.13653111927552
 30
0.0
 40
0.0
 41
0.0
  0
VERTEX
  5
   23A
  8
0
  6
CONTINUOUS
 10
3.84371944227804
 20
5.09707224802936
 30
0.0
 40
0.0
 41
0.0
  0
VERTEX
  5
   23B
  8
0
  6
CONTINUOUS
 10
3.89248886821343
 20
5.05558437984477
 30
0.0
 40
0.0
 41
0.0
  0
VERTEX
  5
   23C
  8
0
  6
CONTINUOUS
 10
6.0912629150773
 20
3.70503503045824
 30
0.0
 40
0.0
 41
0.0
  0
VERTEX
  5
   23D
  8
0
  6
CONTINUOUS
 10
6.14003234101554
 20
3.6635471622731
 30
0.0
 40
0.0
 41
0.0
  0
VERTEX
  5
   23E
  8
0
  6
CONTINUOUS
 10
6.19045750872971
 20
3.62408829102695
 30
0.0
 40
0.0
 41
0.0
  0
VERTEX
  5
   23F
  8
0
  6
CONTINUOUS
 10
6.2424540632137
 20
3.58672442637157
 30
0.0
 40
0.0
 41
0.0
  0
VERTEX
  5
   240
  8
0
  6
CONTINUOUS
 10
6.29593502055669
 20
3.55151807345179
 30
0.0
 40
0.0
 41
0.0
  0
VERTEX
  5
   241
  8
0
  6
CONTINUOUS
 10
6.35081091352328
 20
3.51852812826473
 30
0.0
 40
0.0
 41
0.0
  0
VERTEX
  5
   242
  8
0
  6
CONTINUOUS
 10
6.4069899412662
 20
3.48780977908092
 30
0.0
 40
0.0
 41
0.0
  0
VERTEX
  5
   243
  8
0
  6
CONTINUOUS
 10
6.46437812292813
 20
3.45941441408601
 30
0.0
 40
0.0
 41
0.0
  0
VERTEX
  5
   244
  8
0
  6
CONTINUOUS
 10
6.52287945487927
 20
3.43338953539289
 30
0.0
 40
0.0
 41
0.0
  0
VERTEX
  5
   245
  8
0
  6
CONTINUOUS
 10
6.58239607133076
 20
3.40977867956429
 30
0.0
 40
0.0
 41
0.0
  0
VERTEX
  5
   246
  8
0
  6
CONTINUOUS
 10
6.6428284080573
 20
3.38862134477609
 30
0.0
 40
0.0
 41
0.0
  0
VERTEX
  5
   247
  8
0
  6
CONTINUOUS
 10
6.70407536895733
 20
3.36995292474065
 30
0.0
 40
0.0
 41
0.0
  0
VERTEX
  5
   248
  8
0
  6
CONTINUOUS
 10
6.7660344951732
 20
3.3538046494992
 30
0.0
 40
0.0
 41
0.0
  0
VERTEX
  5
   249
  8
0
  6
CONTINUOUS
 10
6.82860213648987
 20
3.34020353318088
 30
0.0
 40
0.0
 41
0.0
  0
VERTEX
  5
   24A
  8
0
  6
CONTINUOUS
 10
6.89167362472602
 20
3.32917232881501
 30
0.0
 40
0.0
 41
0.0
  0
VERTEX
  5
   24B
  8
0
  6
CONTINUOUS
 10
6.95514344882801
 20
3.32072949027164
 30
0.0
 40
0.0
 41
0.0
  0
VERTEX
  5
   24C
  8
0
  6
CONTINUOUS
 10
7.01890543137442
 20
3.31488914139342
 30
0.0
 40
0.0
 41
0.0
  0
VERTEX
  5
   24D
  8
0
  6
CONTINUOUS
 10
7.08285290619579
 20
3.31166105237053
 30
0.0
 40
0.0
 41
0.0
  0
VERTEX
  5
   24E
  8
0
  6
CONTINUOUS
 10
7.14687889681281
 20
3.3110506233979
 30
0.0
 40
0.0
 41
0.0
  0
VERTEX
  5
   24F
  8
0
  6
CONTINUOUS
 10
7.21087629539416
 20
3.31305887564218
 30
0.0
 40
0.0
 41
0.0
  0
VERTEX
  5
   250
  8
0
  6
CONTINUOUS
 10
7.27473804193487
 20
3.31768244953363
 30
0.0
 40
0.0
 41
0.0
  0
VERTEX
  5
   251
  8
0
  6
CONTINUOUS
 10
7.33835730335512
 20
3.32491361038594
 30
0.0
 40
0.0
 41
0.0
  0
VERTEX
  5
   252
  8
0
  6
CONTINUOUS
 10
7.40162765221989
 20
3.33474026133469
 30
0.0
 40
0.0
 41
0.0
  0
VERTEX
  5
   253
  8
0
  6
CONTINUOUS
 10
7.46444324478022
 20
3.34714596357296
 30
0.0
 40
0.0
 41
0.0
  0
VERTEX
  5
   254
  8
0
  6
CONTINUOUS
 10
7.52669899803829
 20
3.36210996385041
 30
0.0
 40
0.0
 41
0.0
  0
VERTEX
  5
   255
  8
0
  6
CONTINUOUS
 10
7.58829076553978
 20
3.37960722918985
 30
0.0
 40
0.0
 41
0.0
  0
VERTEX
  5
   256
  8
0
  6
CONTINUOUS
 10
7.6491155115995
 20
3.39960848876349
 30
0.0
 40
0.0
 41
0.0
  0
VERTEX
  5
   257
  8
0
  6
CONTINUOUS
 10
7.70907148366871
 20
3.4220802828587
 30
0.0
 40
0.0
 41
0.0
  0
VERTEX
  5
   258
  8
0
  6
CONTINUOUS
 10
7.76805838255557
 20
3.44698501885154
 30
0.0
 40
0.0
 41
0.0
  0
VERTEX
  5
   259
  8
0
  6
CONTINUOUS
 10
7.82597753021426
 20
3.47428103409435
 30
0.0
 40
0.0
 41
0.0
  0
VERTEX
  5
   25A
  8
0
  6
CONTINUOUS
 10
7.88273203482167
 20
3.50392266561236
 30
0.0
 40
0.0
 41
0.0
  0
VERTEX
  5
   25B
  8
0
  6
CONTINUOUS
 10
7.93822695286585
 20
3.53586032649249
 30
0.0
 40
0.0
 41
0.0
  0
VERTEX
  5
   25C
  8
0
  6
CONTINUOUS
 10
7.99236944797487
 20
3.57004058883668
 30
0.0
 40
0.0
 41
0.0
  0
VERTEX
  5
   25D
  8
0
  6
CONTINUOUS
 10
8.04506894622057
 20
3.60640627314082
 30
0.0
 40
0.0
 41
0.0
  0
VERTEX
  5
   25E
  8
0
  6
CONTINUOUS
 10
8.09623728763735
 20
3.64489654394987
 30
0.0
 40
0.0
 41
0.0
  0
VERTEX
  5
   25F
  8
0
  6
CONTINUOUS
 10
8.14578887370264
 20
3.68544701162886
 30
0.0
 40
0.0
 41
0.0
  0
VERTEX
  5
   260
  8
0
  6
CONTINUOUS
 10
8.19364081053237
 20
3.7279898400797
 30
0.0
 40
0.0
 41
0.0
  0
VERTEX
  5
   261
  8
0
  6
CONTINUOUS
 10
8.23971304755198
 20
3.77245386022337
 30
0.0
 40
0.0
 41
0.0
  0
VERTEX
  5
   262
  8
0
  6
CONTINUOUS
 10
8.28392851141091
 20
3.81876468905774
 30
0.0
 40
0.0
 41
0.0
  0
VERTEX
  5
   263
  8
0
  6
CONTINUOUS
 10
8.32621323491685
 20
3.86684485409172
 30
0.0
 40
0.0
 41
0.0
  0
VERTEX
  5
   264
  8
0
  6
CONTINUOUS
 10
8.36649648077374
 20
3.91661392294762
 30
0.0
 40
0.0
 41
0.0
  0
VERTEX
  5
   265
  8
0
  6
CONTINUOUS
 10
8.40471085991688
 20
3.96798863791486
 30
0.0
 40
0.0
 41
0.0
  0
VERTEX
  5
   266
  8
0
  6
CONTINUOUS
 10
8.44079244424696
 20
4.02088305523
 30
0.0
 40
0.0
 41
0.0
  0
VERTEX
  5
   267
  8
0
  6
CONTINUOUS
 10
8.47468087357449
 20
4.07520868885003
 30
0.0
 40
0.0
 41
0.0
  0
VERTEX
  5
   268
  8
0
  6
CONTINUOUS
 10
8.50631945659566
 20
4.13087465847852
 30
0.0
 40
0.0
 41
0.0
  0
SEQEND
  5
   269
  8
0
  6
CONTINUOUS
 62
     7
  0
ENDBLK
  5
   26A
  8
0
  6
CONTINUOUS
 62
     7
  0
BLOCK
  5
   26B
  8
0
  6
CONTINUOUS
 62
     3
  2
*UDIM1148
 70
    65
 10
0.0
 20
0.0
 30
0.0
  3
*UDIM1148
  0
TEXT
  5
   26C
  8
0
  6
CONTINUOUS
 62
     3
 10
2097.99444167365
 20
-1112.59428414791
 30
0.0
 40
3.00000002980232
  1
39
 50
359.999999844103
 41
0.933333333333333
 72
     1
 11
2100.49444170256
 21
-1111.0942841398
 31
0.0
 73
     2
  0
LINE
  5
   26D
  8
0
  6
CONTINUOUS
 62
     3
 10
2090.74445245122
 20
-1121.40026092529
 30
0.0
 11
2090.74445245122
 21
-1111.5942841547
 31
0.0
  0
LINE
  5
   26E
  8
0
  6
CONTINUOUS
 62
     3
 10
2110.24443095389
 20
-1121.90026100159
 30
0.0
 11
2110.24443095389
 21
-1111.5942841547
 31
0.0
  0
LINE
  5
   26F
  8
0
  6
CONTINUOUS
 62
     3
 10
2090.74445245122
 20
-1113.5942841547
 30
0.0
 11
2110.24443095389
 21
-1113.5942841547
 31
0.0
  0
LINE
  5
   270
  8
0
  6
CONTINUOUS
 62
     3
 10
2093.64222992443
 20
-1112.81782699828
 30
0.0
 11
2090.74445245122
 21
-1113.5942841547
 31
0.0
  0
LINE
  5
   271
  8
0
  6
CONTINUOUS
 62
     3
 10
2090.74445245122
 20
-1113.5942841547
 30
0.0
 11
2093.64222992443
 21
-1114.37074131112
 31
0.0
  0
LINE
  5
   272
  8
0
  6
CONTINUOUS
 62
     3
 10
2107.34665348068
 20
-1114.37074131112
 30
0.0
 11
2110.24443095389
 21
-1113.5942841547
 31
0.0
  0
LINE
  5
   273
  8
0
  6
CONTINUOUS
 62
     3
 10
2110.24443095389
 20
-1113.5942841547
 30
0.0
 11
2107.34665348068
 21
-1112.81782699828
 31
0.0
  0
ENDBLK
  5
   274
  8
0
  6
CONTINUOUS
 62
     3
  0
BLOCK
  5
   275
  8
0
  6
CONTINUOUS
 62
     3
  2
*UDIM1149
 70
    65
 10
0.0
 20
0.0
 30
0.0
  3
*UDIM1149
  0
TEXT
  5
   276
  8
0
  6
CONTINUOUS
 62
     3
 10
2080.59443587017
 20
-1105.36203347659
 30
0.0
 40
3.00000002980232
  1
103
 50
359.999999844103
 41
0.933333333333333
 72
     1
 11
2084.49443591299
 21
-1103.86203347228
 31
0.0
 73
     2
  0
LINE
  5
   277
  8
0
  6
CONTINUOUS
 62
     3
 10
2058.74444419886
 20
-1121.90026100159
 30
0.0
 11
2058.74444500794
 21
-1104.36203348718
 31
0.0
  0
LINE
  5
   278
  8
0
  6
CONTINUOUS
 62
     3
 10
2110.24443070939
 20
-1121.90026100159
 30
0.0
 11
2110.24442642131
 21
-1104.36203348718
 31
0.0
  0
LINE
  5
   279
  8
0
  6
CONTINUOUS
 62
     3
 10
2058.74444491567
 20
-1106.36203348718
 30
0.0
 11
2110.24442691031
 21
-1106.36203348718
 31
0.0
  0
LINE
  5
   27A
  8
0
  6
CONTINUOUS
 62
     3
 10
2061.64222238888
 20
-1105.58557633076
 30
0.0
 11
2058.74444491567
 21
-1106.36203348718
 31
0.0
  0
LINE
  5
   27B
  8
0
  6
CONTINUOUS
 62
     3
 10
2058.74444491567
 20
-1106.36203348718
 30
0.0
 11
2061.64222238888
 21
-1107.1384906436
 31
0.0
  0
LINE
  5
   27C
  8
0
  6
CONTINUOUS
 62
     3
 10
2107.3466494371
 20
-1107.1384906436
 30
0.0
 11
2110.24442691031
 21
-1106.36203348718
 31
0.0
  0
LINE
  5
   27D
  8
0
  6
CONTINUOUS
 62
     3
 10
2110.24442691031
 20
-1106.36203348718
 30
0.0
 11
2107.3466494371
 21
-1105.58557633076
 31
0.0
  0
ENDBLK
  5
   27E
  8
0
  6
CONTINUOUS
 62
     3
  0
BLOCK
  5
   27F
  8
0
  6
CONTINUOUS
 62
     3
  2
*UDIM1150
 70
    65
 10
0.0
 20
0.0
 30
0.0
  3
*UDIM1150
  0
TEXT
  5
   280
  8
0
  6
CONTINUOUS
 62
     3
 10
2080.59438472281
 20
-1098.12978280907
 30
0.0
 40
3.00000002980232
  1
116
 50
359.999999844103
 41
0.933333333333333
 72
     1
 11
2084.49438476563
 21
-1096.62978280476
 31
0.0
 73
     2
  0
LINE
  5
   281
  8
0
  6
CONTINUOUS
 62
     3
 10
2055.49438476563
 20
-1154.02526855469
 30
0.0
 11
2055.49438476563
 21
-1097.12978281966
 31
0.0
  0
LINE
  5
   282
  8
0
  6
CONTINUOUS
 62
     3
 10
2113.49438476563
 20
-1154.02526855469
 30
0.0
 11
2113.49438476563
 21
-1097.12978281966
 31
0.0
  0
LINE
  5
   283
  8
0
  6
CONTINUOUS
 62
     3
 10
2055.49438476563
 20
-1099.12978281966
 30
0.0
 11
2113.49438476563
 21
-1099.12978281966
 31
0.0
  0
LINE
  5
   284
  8
0
  6
CONTINUOUS
 62
     3
 10
2058.39216223884
 20
-1098.35332566324
 30
0.0
 11
2055.49438476563
 21
-1099.12978281966
 31
0.0
  0
LINE
  5
   285
  8
0
  6
CONTINUOUS
 62
     3
 10
2055.49438476563
 20
-1099.12978281966
 30
0.0
 11
2058.39216223884
 21
-1099.90623997608
 31
0.0
  0
LINE
  5
   286
  8
0
  6
CONTINUOUS
 62
     3
 10
2110.59660729241
 20
-1099.90623997608
 30
0.0
 11
2113.49438476563
 21
-1099.12978281966
 31
0.0
  0
LINE
  5
   287
  8
0
  6
CONTINUOUS
 62
     3
 10
2113.49438476563
 20
-1099.12978281966
 30
0.0
 11
2110.59660729241
 21
-1098.35332566324
 31
0.0
  0
ENDBLK
  5
   288
  8
0
  6
CONTINUOUS
 62
     3
  0
BLOCK
  5
   289
  8
0
  6
CONTINUOUS
 62
     3
  2
*UDIM1151
 70
    65
 10
0.0
 20
0.0
 30
0.0
  3
*UDIM1151
  0
TEXT
  5
   28A
  8
0
  6
CONTINUOUS
 62
     3
 10
2044.99243470165
 20
-1180.90026858359
 30
0.0
 40
3.00000002980232
  1
96
 50
449.999999844103
 41
0.933333333333333
 72
     1
 11
2043.49243469354
 21
-1178.40026855469
 31
0.0
 73
     2
  0
LINE
  5
   28B
  8
0
  6
CONTINUOUS
 62
     3
 10
2055.11938476563
 20
-1154.40026855469
 30
0.0
 11
2043.99243470844
 21
-1154.40026855469
 31
0.0
  0
LINE
  5
   28C
  8
0
  6
CONTINUOUS
 62
     3
 10
2055.11938476563
 20
-1202.40026855469
 30
0.0
 11
2043.99243470844
 21
-1202.40026855469
 31
0.0
  0
LINE
  5
   28D
  8
0
  6
CONTINUOUS
 62
     3
 10
2045.99243470844
 20
-1154.40026855469
 30
0.0
 11
2045.99243470844
 21
-1202.40026855469
 31
0.0
  0
LINE
  5
   28E
  8
0
  6
CONTINUOUS
 62
     3
 10
2046.76889186486
 20
-1157.2980460279
 30
0.0
 11
2045.99243470844
 21
-1154.40026855469
 31
0.0
  0
LINE
  5
   28F
  8
0
  6
CONTINUOUS
 62
     3
 10
2045.99243470844
 20
-1154.40026855469
 30
0.0
 11
2045.21597755202
 21
-1157.2980460279
 31
0.0
  0
LINE
  5
   290
  8
0
  6
CONTINUOUS
 62
     3
 10
2045.21597755202
 20
-1199.50249108148
 30
0.0
 11
2045.99243470844
 21
-1202.40026855469
 31
0.0
  0
LINE
  5
   291
  8
0
  6
CONTINUOUS
 62
     3
 10
2045.99243470844
 20
-1202.40026855469
 30
0.0
 11
2046.76889186486
 21
-1199.50249108148
 31
0.0
  0
ENDBLK
  5
   292
  8
0
  6
CONTINUOUS
 62
     3
  0
BLOCK
  5
   293
  8
0
  6
CONTINUOUS
 62
     3
  2
*UDIM1152
 70
    65
 10
0.0
 20
0.0
 30
0.0
  3
*UDIM1152
  0
TEXT
  5
   294
  8
0
  6
CONTINUOUS
 62
     3
 10
2128.36422728814
 20
-1180.9003045848
 30
0.0
 40
3.00000002980232
  1
45
 50
449.999999844103
 41
0.933333333333333
 72
     1
 11
2126.86422728002
 21
-1178.40030455589
 31
0.0
 73
     2
  0
TEXT
  5
   295
  8
0
  6
CONTINUOUS
 62
     3
 10
2132.36422730654
 20
-1185.10030462652
 30
0.0
 40
3.00000002980232
  1
=   =
 50
449.999999844103
 41
0.933333333333333
 72
     1
 11
2130.86422730982
 21
-1178.40030455589
 31
0.0
 73
     2
  0
LINE
  5
   296
  8
0
  6
CONTINUOUS
 62
     3
 10
2110.24442420187
 20
-1167.1503045559
 30
0.0
 11
2131.36422729492
 21
-1167.1503045559
 31
0.0
  0
LINE
  5
   297
  8
0
  6
CONTINUOUS
 62
     3
 10
2110.24442076864
 20
-1189.65030455589
 30
0.0
 11
2131.36422729492
 21
-1189.65030455589
 31
0.0
  0
LINE
  5
   298
  8
0
  6
CONTINUOUS
 62
     3
 10
2129.36422729492
 20
-1167.1503045559
 30
0.0
 11
2129.36422729492
 21
-1189.65030455589
 31
0.0
  0
LINE
  5
   299
  8
0
  6
CONTINUOUS
 62
     3
 10
2129.88517172487
 20
-1170.1047278331
 30
0.0
 11
2129.36422729492
 21
-1167.1503045559
 31
0.0
  0
LINE
  5
   29A
  8
0
  6
CONTINUOUS
 62
     3
 10
2129.36422729492
 20
-1167.1503045559
 30
0.0
 11
2128.84328286497
 21
-1170.1047278331
 31
0.0
  0
LINE
  5
   29B
  8
0
  6
CONTINUOUS
 62
     3
 10
2128.84328286497
 20
-1186.69588127868
 30
0.0
 11
2129.36422729492
 21
-1189.65030455589
 31
0.0
  0
LINE
  5
   29C
  8
0
  6
CONTINUOUS
 62
     3
 10
2129.36422729492
 20
-1189.65030455589
 30
0.0
 11
2129.88517172487
 21
-1186.69588127868
 31
0.0
  0
ENDBLK
  5
   29D
  8
0
  6
CONTINUOUS
 62
     3
  0
BLOCK
  5
   29E
  8
0
  6
CONTINUOUS
 62
     3
  2
*UDIM1153
 70
    65
 10
0.0
 20
0.0
 30
0.0
  3
*UDIM1153
  0
TEXT
  5
   29F
  8
0
  6
CONTINUOUS
 62
     3
 10
2128.36422728814
 20
-1212.1502827695
 30
0.0
 40
3.00000002980232
  1
80
 50
449.999999844103
 41
0.933333333333333
 72
     1
 11
2126.86422728002
 21
-1209.65028274059
 31
0.0
 73
     2
  0
LINE
  5
   2A0
  8
0
  6
CONTINUOUS
 62
     3
 10
2110.24442076864
 20
-1189.65030455589
 30
0.0
 11
2131.36422729492
 21
-1189.65030455589
 31
0.0
  0
LINE
  5
   2A1
  8
0
  6
CONTINUOUS
 62
     3
 10
2110.09437532806
 20
-1229.6502609253
 30
0.0
 11
2131.36422729492
 21
-1229.6502609253
 31
0.0
  0
LINE
  5
   2A2
  8
0
  6
CONTINUOUS
 62
     3
 10
2129.36422729492
 20
-1189.65030455589
 30
0.0
 11
2129.36422729492
 21
-1229.6502609253
 31
0.0
  0
LINE
  5
   2A3
  8
0
  6
CONTINUOUS
 62
     3
 10
2129.88517172487
 20
-1192.6047278331
 30
0.0
 11
2129.36422729492
 21
-1189.65030455589
 31
0.0
  0
LINE
  5
   2A4
  8
0
  6
CONTINUOUS
 62
     3
 10
2129.36422729492
 20
-1189.65030455589
 30
0.0
 11
2128.84328286497
 21
-1192.6047278331
 31
0.0
  0
LINE
  5
   2A5
  8
0
  6
CONTINUOUS
 62
     3
 10
2128.84328286497
 20
-1226.69583764809
 30
0.0
 11
2129.36422729492
 21
-1229.6502609253
 31
0.0
  0
LINE
  5
   2A6
  8
0
  6
CONTINUOUS
 62
     3
 10
2129.36422729492
 20
-1229.6502609253
 30
0.0
 11
2129.88517172487
 21
-1226.69583764809
 31
0.0
  0
ENDBLK
  5
   2A7
  8
0
  6
CONTINUOUS
 62
     3
  0
BLOCK
  5
   2A8
  8
0
  6
CONTINUOUS
 62
     3
  2
*UDIM1154
 70
    65
 10
0.0
 20
0.0
 30
0.0
  3
*UDIM1154
  0
TEXT
  5
   2A9
  8
0
  6
CONTINUOUS
 62
     3
 10
2128.36422728814
 20
-1243.4002609542
 30
0.0
 40
3.00000002980232
  1
45
 50
449.999999844103
 41
0.933333333333333
 72
     1
 11
2126.86422728002
 21
-1240.90026092529
 31
0.0
 73
     2
  0
TEXT
  5
   2AA
  8
0
  6
CONTINUOUS
 62
     3
 10
2132.36422730654
 20
-1247.60026099592
 30
0.0
 40
3.00000002980232
  1
=   =
 50
449.999999844103
 41
0.933333333333333
 72
     1
 11
2130.86422730982
 21
-1240.90026092529
 31
0.0
 73
     2
  0
LINE
  5
   2AB
  8
0
  6
CONTINUOUS
 62
     3
 10
2110.09437532806
 20
-1229.6502609253
 30
0.0
 11
2131.36422729492
 21
-1229.6502609253
 31
0.0
  0
LINE
  5
   2AC
  8
0
  6
CONTINUOUS
 62
     3
 10
2109.74447289983
 20
-1252.15026092529
 30
0.0
 11
2131.36422729492
 21
-1252.15026092529
 31
0.0
  0
LINE
  5
   2AD
  8
0
  6
CONTINUOUS
 62
     3
 10
2129.36422729492
 20
-1229.6502609253
 30
0.0
 11
2129.36422729492
 21
-1252.15026092529
 31
0.0
  0
LINE
  5
   2AE
  8
0
  6
CONTINUOUS
 62
     3
 10
2129.88517172487
 20
-1232.6046842025
 30
0.0
 11
2129.36422729492
 21
-1229.6502609253
 31
0.0
  0
LINE
  5
   2AF
  8
0
  6
CONTINUOUS
 62
     3
 10
2129.36422729492
 20
-1229.6502609253
 30
0.0
 11
2128.84328286497
 21
-1232.6046842025
 31
0.0
  0
LINE
  5
   2B0
  8
0
  6
CONTINUOUS
 62
     3
 10
2128.84328286497
 20
-1249.19583764808
 30
0.0
 11
2129.36422729492
 21
-1252.15026092529
 31
0.0
  0
LINE
  5
   2B1
  8
0
  6
CONTINUOUS
 62
     3
 10
2129.36422729492
 20
-1252.15026092529
 30
0.0
 11
2129.88517172487
 21
-1249.19583764808
 31
0.0
  0
ENDBLK
  5
   2B2
  8
0
  6
CONTINUOUS
 62
     3
  0
BLOCK
  5
   2B3
  8
0
  6
CONTINUOUS
 62
     3
  2
*UDIM1155
 70
    65
 10
0.0
 20
0.0
 30
0.0
  3
*UDIM1155
  0
TEXT
  5
   2B4
  8
0
  6
CONTINUOUS
 62
     3
 10
1949.63677722695
 20
-1168.64028357645
 30
0.0
 40
2.99999994933605
  1
293
 50
449.999999844103
 41
0.933333333333333
 72
     1
 11
1948.13677726287
 21
-1164.74028363824
 31
0.0
 73
     2
  0
LINE
  5
   2B5
  8
0
  6
CONTINUOUS
 62
     3
 10
1976.86874958873
 20
-1105.86528269947
 30
0.0
 11
1948.63677723754
 21
-1105.86528269947
 31
0.0
  0
LINE
  5
   2B6
  8
0
  6
CONTINUOUS
 62
     3
 10
1976.86874958873
 20
-1223.06528444588
 30
0.0
 11
1948.63677723754
 21
-1223.06528444588
 31
0.0
  0
LINE
  5
   2B7
  8
0
  6
CONTINUOUS
 62
     3
 10
1950.63677723754
 20
-1105.86528269947
 30
0.0
 11
1950.63677723754
 21
-1223.06528444588
 31
0.0
  0
LINE
  5
   2B8
  8
0
  6
CONTINUOUS
 62
     3
 10
1951.15772166749
 20
-1108.81970597667
 30
0.0
 11
1950.63677723754
 21
-1105.86528269947
 31
0.0
  0
LINE
  5
   2B9
  8
0
  6
CONTINUOUS
 62
     3
 10
1950.63677723754
 20
-1105.86528269947
 30
0.0
 11
1950.11583280759
 21
-1108.81970597667
 31
0.0
  0
LINE
  5
   2BA
  8
0
  6
CONTINUOUS
 62
     3
 10
1950.11583280759
 20
-1220.11086116868
 30
0.0
 11
1950.63677723754
 21
-1223.06528444588
 31
0.0
  0
LINE
  5
   2BB
  8
0
  6
CONTINUOUS
 62
     3
 10
1950.63677723754
 20
-1223.06528444588
 30
0.0
 11
1951.15772166749
 21
-1220.11086116868
 31
0.0
  0
ENDBLK
  5
   2BC
  8
0
  6
CONTINUOUS
 62
     3
  0
BLOCK
  5
   2BD
  8
0
  6
CONTINUOUS
 62
     7
  2
*UDIM1156
 70
    65
 10
0.0
 20
0.0
 30
0.0
  3
*UDIM1156
  0
TEXT
  5
   2BE
  8
0
  6
CONTINUOUS
 62
     7
 10
1997.26593468367
 20
-1089.46903002185
 30
0.0
 40
2.99999994933605
  1
25
 50
359.999999844103
 41
0.933333333333333
 72
     1
 11
1999.76593464552
 21
-1087.96903005397
 31
0.0
 73
     2
  0
LINE
  5
   2BF
  8
0
  6
CONTINUOUS
 62
     3
 10
1994.4687501649
 20
-1111.06528279185
 30
0.0
 11
1994.46875725824
 21
-1088.46903002864
 31
0.0
  0
LINE
  5
   2C0
  8
0
  6
CONTINUOUS
 62
     3
 10
2004.46875031392
 20
-1111.06528279185
 30
0.0
 11
2004.46875740725
 21
-1088.46903002864
 31
0.0
  0
LINE
  5
   2C1
  8
0
  6
CONTINUOUS
 62
     3
 10
1994.46875663041
 20
-1090.46903002864
 30
0.0
 11
2004.46875677942
 21
-1090.46903002864
 31
0.0
  0
LINE
  5
   2C2
  8
0
  6
CONTINUOUS
 62
     3
 10
1991.5143333532
 20
-1090.98997445859
 30
0.0
 11
1994.46875663041
 21
-1090.46903002864
 31
0.0
  0
LINE
  5
   2C3
  8
0
  6
CONTINUOUS
 62
     3
 10
1994.46875663041
 20
-1090.46903002864
 30
0.0
 11
1991.5143333532
 21
-1089.94808559869
 31
0.0
  0
LINE
  5
   2C4
  8
0
  6
CONTINUOUS
 62
     3
 10
2007.42318005663
 20
-1089.94808559869
 30
0.0
 11
2004.46875677942
 21
-1090.46903002864
 31
0.0
  0
LINE
  5
   2C5
  8
0
  6
CONTINUOUS
 62
     3
 10
2004.46875677942
 20
-1090.46903002864
 30
0.0
 11
2007.42318005663
 21
-1090.98997445859
 31
0.0
  0
ENDBLK
  5
   2C6
  8
0
  6
CONTINUOUS
 62
     7
  0
BLOCK
  5
   2C7
  8
0
  6
CONTINUOUS
 62
     7
  2
*UDIM1157
 70
    65
 10
0.0
 20
0.0
 30
0.0
  3
*UDIM1157
  0
TEXT
  5
   2C8
  8
0
  6
CONTINUOUS
 62
     7
 10
2007.8760761994
 20
-1089.46903002185
 30
0.0
 40
2.99999994933605
  1
25
 50
359.999999844103
 41
0.933333333333333
 72
     1
 11
2010.37607616125
 21
-1087.96903005397
 31
0.0
 73
     2
  0
LINE
  5
   2C9
  8
0
  6
CONTINUOUS
 62
     3
 10
2014.46875046293
 20
-1111.06528279185
 30
0.0
 11
2014.46875755626
 21
-1088.46903002864
 31
0.0
  0
LINE
  5
   2CA
  8
0
  6
CONTINUOUS
 62
     3
 10
2004.46875677942
 20
-1090.46903002864
 30
0.0
 11
2014.46875692843
 21
-1090.46903002864
 31
0.0
  0
LINE
  5
   2CB
  8
0
  6
CONTINUOUS
 62
     3
 10
2007.42318005663
 20
-1089.94808559869
 30
0.0
 11
2004.46875677942
 21
-1090.46903002864
 31
0.0
  0
LINE
  5
   2CC
  8
0
  6
CONTINUOUS
 62
     3
 10
2004.46875677942
 20
-1090.46903002864
 30
0.0
 11
2007.42318005663
 21
-1090.98997445859
 31
0.0
  0
LINE
  5
   2CD
  8
0
  6
CONTINUOUS
 62
     3
 10
2011.51433365122
 20
-1090.98997445859
 30
0.0
 11
2014.46875692843
 21
-1090.46903002864
 31
0.0
  0
LINE
  5
   2CE
  8
0
  6
CONTINUOUS
 62
     3
 10
2014.46875692843
 20
-1090.46903002864
 30
0.0
 11
2011.51433365122
 21
-1089.94808559869
 31
0.0
  0
ENDBLK
  5
   2CF
  8
0
  6
CONTINUOUS
 62
     7
  0
BLOCK
  5
   2D0
  8
0
  6
CONTINUOUS
 62
     3
  2
*UDIM1158
 70
    65
 10
0.0
 20
0.0
 30
0.0
  3
*UDIM1158
  0
TEXT
  5
   2D1
  8
0
  6
CONTINUOUS
 62
     3
 10
1987.45301186383
 20
-1089.46903002185
 30
0.0
 40
2.99999994933605
  1
25
 50
359.999999844103
 41
0.933333333333333
 72
     1
 11
1989.95301182568
 21
-1087.96903005397
 31
0.0
 73
     2
  0
LINE
  5
   2D2
  8
0
  6
CONTINUOUS
 62
     3
 10
1984.46874970198
 20
-1111.66528278589
 30
0.0
 11
1984.46874970198
 21
-1088.46903002864
 31
0.0
  0
LINE
  5
   2D3
  8
0
  6
CONTINUOUS
 62
     3
 10
1994.46874985099
 20
-1112.06528279185
 30
0.0
 11
1994.46874985099
 21
-1088.46903002864
 31
0.0
  0
LINE
  5
   2D4
  8
0
  6
CONTINUOUS
 62
     3
 10
1984.46874970198
 20
-1090.46903002864
 30
0.0
 11
1994.46874985099
 21
-1090.46903002864
 31
0.0
  0
LINE
  5
   2D5
  8
0
  6
CONTINUOUS
 62
     3
 10
1987.42317297918
 20
-1089.94808559869
 30
0.0
 11
1984.46874970198
 21
-1090.46903002864
 31
0.0
  0
LINE
  5
   2D6
  8
0
  6
CONTINUOUS
 62
     3
 10
1984.46874970198
 20
-1090.46903002864
 30
0.0
 11
1987.42317297918
 21
-1090.98997445859
 31
0.0
  0
LINE
  5
   2D7
  8
0
  6
CONTINUOUS
 62
     3
 10
1991.51432657378
 20
-1090.98997445859
 30
0.0
 11
1994.46874985099
 21
-1090.46903002864
 31
0.0
  0
LINE
  5
   2D8
  8
0
  6
CONTINUOUS
 62
     3
 10
1994.46874985099
 20
-1090.46903002864
 30
0.0
 11
1991.51432657378
 21
-1089.94808559869
 31
0.0
  0
ENDBLK
  5
   2D9
  8
0
  6
CONTINUOUS
 62
     3
  0
BLOCK
  5
   2DA
  8
0
  6
CONTINUOUS
 62
     3
  2
*UDIM1159
 70
    65
 10
0.0
 20
0.0
 30
0.0
  3
*UDIM1159
  0
TEXT
  5
   2DB
  8
0
  6
CONTINUOUS
 62
     3
 10
2028.82753584431
 20
-1091.63703112982
 30
0.0
 40
2.99999994933605
  1
20
 50
401.902801911679
 41
0.933333333333333
 72
     1
 11
2029.68642961615
 21
-1088.85094046338
 31
0.0
 73
     2
  0
TEXT
  5
   2DC
  8
0
  6
CONTINUOUS
 62
     3
 10
2026.78076893247
 20
-1093.4736707433
 30
0.0
 40
2.99999994933605
  1
Ø
 50
401.902801911679
 41
0.933333333333333
 72
     1
 11
2026.59767228067
 21
-1091.62259659588
 31
0.0
 73
     2
  0
LINE
  5
   2DD
  8
0
  6
CONTINUOUS
 62
     3
 10
2033.21679916841
 20
-1089.04196529605
 30
0.0
 11
2011.4916345655
 21
-1108.5367585611
 31
0.0
  0
LINE
  5
   2DE
  8
0
  6
CONTINUOUS
 62
     3
 10
2019.29685798218
 20
-1100.83291131035
 30
0.0
 11
2017.44586573252
 21
-1103.19380683784
 31
0.0
  0
LINE
  5
   2DF
  8
0
  6
CONTINUOUS
 62
     3
 10
2017.44586573252
 20
-1103.19380683784
 30
0.0
 11
2019.99270320675
 21
-1101.60836718907
 31
0.0
  0
LINE
  5
   2E0
  8
0
  6
CONTINUOUS
 62
     3
 10
2009.64064231584
 20
-1110.89765408858
 30
0.0
 11
2011.4916345655
 21
-1108.5367585611
 31
0.0
  0
LINE
  5
   2E1
  8
0
  6
CONTINUOUS
 62
     3
 10
2011.4916345655
 20
-1108.5367585611
 30
0.0
 11
2008.94479709128
 21
-1110.12219820986
 31
0.0
  0
ENDBLK
  5
   2E2
  8
0
  6
CONTINUOUS
 62
     3
  0
BLOCK
  5
   2E3
  8
0
  6
CONTINUOUS
 62
     3
  2
*UDIM1160
 70
    65
 10
0.0
 20
0.0
 30
0.0
  3
*UDIM1160
  0
TEXT
  5
   2E4
  8
0
  6
CONTINUOUS
 62
     3
 10
1960.45663996968
 20
-1130.74028299699
 30
0.0
 40
2.99999994933605
  1
96,5
 50
449.999999844103
 41
0.933333333333333
 72
     1
 11
1958.9566400094
 21
-1125.44028308243
 31
0.0
 73
     2
  0
LINE
  5
   2E5
  8
0
  6
CONTINUOUS
 62
     3
 10
1987.2687497437
 20
-1105.86528269947
 30
0.0
 11
1959.45663998407
 21
-1105.86528269947
 31
0.0
  0
LINE
  5
   2E6
  8
0
  6
CONTINUOUS
 62
     3
 10
1984.84197799597
 20
-1144.46528327465
 30
0.0
 11
1959.45663998407
 21
-1144.46528327465
 31
0.0
  0
LINE
  5
   2E7
  8
0
  6
CONTINUOUS
 62
     3
 10
1961.45663998407
 20
-1105.86528269947
 30
0.0
 11
1961.45663998407
 21
-1144.46528327465
 31
0.0
  0
LINE
  5
   2E8
  8
0
  6
CONTINUOUS
 62
     3
 10
1961.97758441402
 20
-1108.81970597667
 30
0.0
 11
1961.45663998407
 21
-1105.86528269947
 31
0.0
  0
LINE
  5
   2E9
  8
0
  6
CONTINUOUS
 62
     3
 10
1961.45663998407
 20
-1105.86528269947
 30
0.0
 11
1960.93569555412
 21
-1108.81970597667
 31
0.0
  0
LINE
  5
   2EA
  8
0
  6
CONTINUOUS
 62
     3
 10
1960.93569555412
 20
-1141.51085999744
 30
0.0
 11
1961.45663998407
 21
-1144.46528327465
 31
0.0
  0
LINE
  5
   2EB
  8
0
  6
CONTINUOUS
 62
     3
 10
1961.45663998407
 20
-1144.46528327465
 30
0.0
 11
1961.97758441402
 21
-1141.51085999744
 31
0.0
  0
ENDBLK
  5
   2EC
  8
0
  6
CONTINUOUS
 62
     3
  0
BLOCK
  5
   2ED
  8
0
  6
CONTINUOUS
 62
     3
  2
*UDIM1161
 70
    65
 10
0.0
 20
0.0
 30
0.0
  3
*UDIM1161
  0
TEXT
  5
   2EE
  8
0
  6
CONTINUOUS
 62
     3
 10
1968.02405036837
 20
-1134.84028308749
 30
0.0
 40
2.99999994933605
  1
62
 50
449.999999844103
 41
0.933333333333333
 72
     1
 11
1966.52405040049
 21
-1132.34028312564
 31
0.0
 73
     2
  0
LINE
  5
   2EF
  8
0
  6
CONTINUOUS
 62
     3
 10
1994.66874985397
 20
-1119.6652829051
 30
0.0
 11
1967.02405037515
 21
-1119.6652829051
 31
0.0
  0
LINE
  5
   2F0
  8
0
  6
CONTINUOUS
 62
     3
 10
1984.84197799597
 20
-1144.46528327465
 30
0.0
 11
1967.02405037515
 21
-1144.46528327465
 31
0.0
  0
LINE
  5
   2F1
  8
0
  6
CONTINUOUS
 62
     3
 10
1969.02405037515
 20
-1119.6652829051
 30
0.0
 11
1969.02405037515
 21
-1144.46528327465
 31
0.0
  0
LINE
  5
   2F2
  8
0
  6
CONTINUOUS
 62
     3
 10
1969.5449948051
 20
-1122.61970618231
 30
0.0
 11
1969.02405037515
 21
-1119.6652829051
 31
0.0
  0
LINE
  5
   2F3
  8
0
  6
CONTINUOUS
 62
     3
 10
1969.02405037515
 20
-1119.6652829051
 30
0.0
 11
1968.5031059452
 21
-1122.61970618231
 31
0.0
  0
LINE
  5
   2F4
  8
0
  6
CONTINUOUS
 62
     3
 10
1968.5031059452
 20
-1141.51085999744
 30
0.0
 11
1969.02405037515
 21
-1144.46528327465
 31
0.0
  0
LINE
  5
   2F5
  8
0
  6
CONTINUOUS
 62
     3
 10
1969.02405037515
 20
-1144.46528327465
 30
0.0
 11
1969.5449948051
 21
-1141.51085999744
 31
0.0
  0
ENDBLK
  5
   2F6
  8
0
  6
CONTINUOUS
 62
     3
  0
BLOCK
  5
   2F7
  8
0
  6
CONTINUOUS
 62
     3
  2
*UDIM1162
 70
    65
 10
0.0
 20
0.0
 30
0.0
  3
*UDIM1162
  0
TEXT
  5
   2F8
  8
0
  6
CONTINUOUS
 62
     3
 10
1960.45663996968
 20
-1209.34028416822
 30
0.0
 40
2.99999994933605
  1
96,5
 50
449.999999844103
 41
0.933333333333333
 72
     1
 11
1958.9566400094
 21
-1204.04028425366
 31
0.0
 73
     2
  0
LINE
  5
   2F9
  8
0
  6
CONTINUOUS
 62
     3
 10
1975.10560293421
 20
-1184.4652838707
 30
0.0
 11
1959.45663998407
 21
-1184.4652838707
 31
0.0
  0
LINE
  5
   2FA
  8
0
  6
CONTINUOUS
 62
     3
 10
1976.86874958873
 20
-1223.06528444588
 30
0.0
 11
1959.45663998407
 21
-1223.06528444588
 31
0.0
  0
LINE
  5
   2FB
  8
0
  6
CONTINUOUS
 62
     3
 10
1961.45663998407
 20
-1184.4652838707
 30
0.0
 11
1961.45663998407
 21
-1223.06528444588
 31
0.0
  0
LINE
  5
   2FC
  8
0
  6
CONTINUOUS
 62
     3
 10
1961.97758441402
 20
-1187.4197071479
 30
0.0
 11
1961.45663998407
 21
-1184.4652838707
 31
0.0
  0
LINE
  5
   2FD
  8
0
  6
CONTINUOUS
 62
     3
 10
1961.45663998407
 20
-1184.4652838707
 30
0.0
 11
1960.93569555412
 21
-1187.4197071479
 31
0.0
  0
LINE
  5
   2FE
  8
0
  6
CONTINUOUS
 62
     3
 10
1960.93569555412
 20
-1220.11086116868
 30
0.0
 11
1961.45663998407
 21
-1223.06528444588
 31
0.0
  0
LINE
  5
   2FF
  8
0
  6
CONTINUOUS
 62
     3
 10
1961.45663998407
 20
-1223.06528444588
 30
0.0
 11
1961.97758441402
 21
-1220.11086116868
 31
0.0
  0
ENDBLK
  5
   300
  8
0
  6
CONTINUOUS
 62
     3
  0
BLOCK
  5
   301
  8
0
  6
CONTINUOUS
 62
     3
  2
*UDIM1163
 70
    65
 10
0.0
 20
0.0
 30
0.0
  3
*UDIM1163
  0
TEXT
  5
   302
  8
0
  6
CONTINUOUS
 62
     3
 10
1968.02405036837
 20
-1199.64028405309
 30
0.0
 40
2.99999994933605
  1
62
 50
449.999999844103
 41
0.933333333333333
 72
     1
 11
1966.52405040049
 21
-1197.14028409123
 31
0.0
 73
     2
  0
LINE
  5
   303
  8
0
  6
CONTINUOUS
 62
     3
 10
1975.10560293421
 20
-1184.4652838707
 30
0.0
 11
1967.02405037515
 21
-1184.4652838707
 31
0.0
  0
LINE
  5
   304
  8
0
  6
CONTINUOUS
 62
     3
 10
2004.66875000298
 20
-1209.26528424025
 30
0.0
 11
1967.02405037515
 21
-1209.26528424025
 31
0.0
  0
LINE
  5
   305
  8
0
  6
CONTINUOUS
 62
     3
 10
1969.02405037515
 20
-1184.4652838707
 30
0.0
 11
1969.02405037515
 21
-1209.26528424025
 31
0.0
  0
LINE
  5
   306
  8
0
  6
CONTINUOUS
 62
     3
 10
1969.5449948051
 20
-1187.4197071479
 30
0.0
 11
1969.02405037515
 21
-1184.4652838707
 31
0.0
  0
LINE
  5
   307
  8
0
  6
CONTINUOUS
 62
     3
 10
1969.02405037515
 20
-1184.4652838707
 30
0.0
 11
1968.5031059452
 21
-1187.4197071479
 31
0.0
  0
LINE
  5
   308
  8
0
  6
CONTINUOUS
 62
     3
 10
1968.5031059452
 20
-1206.31086096304
 30
0.0
 11
1969.02405037515
 21
-1209.26528424025
 31
0.0
  0
LINE
  5
   309
  8
0
  6
CONTINUOUS
 62
     3
 10
1969.02405037515
 20
-1209.26528424025
 30
0.0
 11
1969.5449948051
 21
-1206.31086096304
 31
0.0
  0
ENDBLK
  5
   30A
  8
0
  6
CONTINUOUS
 62
     3
  0
BLOCK
  5
   30B
  8
0
  6
CONTINUOUS
 62
     3
  2
*UDIM1164
 70
    65
 10
0.0
 20
0.0
 30
0.0
  3
*UDIM1164
  0
TEXT
  5
   30C
  8
0
  6
CONTINUOUS
 62
     3
 10
2001.93141460399
 20
-1176.07965448139
 30
0.0
 40
2.99999994933605
  1
25
 50
359.999999844103
 41
0.933333333333333
 72
     1
 11
2004.43141456584
 21
-1174.57965451351
 31
0.0
 73
     2
  0
TEXT
  5
   30D
  8
0
  6
CONTINUOUS
 62
     3
 10
2000.53141462763
 20
-1180.07965442693
 30
0.0
 40
2.99999994933605
  1
= =
 50
359.999999844103
 41
0.933333333333333
 72
     1
 11
2004.43141456584
 21
-1178.57965446285
 31
0.0
 73
     2
  0
LINE
  5
   30E
  8
0
  6
CONTINUOUS
 62
     3
 10
1999.46874992549
 20
-1124.46528297663
 30
0.0
 11
1999.46873278114
 21
-1179.07965448818
 31
0.0
  0
LINE
  5
   30F
  8
0
  6
CONTINUOUS
 62
     3
 10
2009.46875007451
 20
-1164.46528357267
 30
0.0
 11
2009.46874548681
 21
-1179.07965448818
 31
0.0
  0
LINE
  5
   310
  8
0
  6
CONTINUOUS
 62
     3
 10
1999.46873340898
 20
-1177.07965448818
 30
0.0
 11
2009.46874611465
 21
-1177.07965448818
 31
0.0
  0
LINE
  5
   311
  8
0
  6
CONTINUOUS
 62
     3
 10
1996.51431013177
 20
-1177.60059891813
 30
0.0
 11
1999.46873340898
 21
-1177.07965448818
 31
0.0
  0
LINE
  5
   312
  8
0
  6
CONTINUOUS
 62
     3
 10
1999.46873340898
 20
-1177.07965448818
 30
0.0
 11
1996.51431013177
 21
-1176.55871005823
 31
0.0
  0
LINE
  5
   313
  8
0
  6
CONTINUOUS
 62
     3
 10
2012.42316939185
 20
-1176.55871005823
 30
0.0
 11
2009.46874611465
 21
-1177.07965448818
 31
0.0
  0
LINE
  5
   314
  8
0
  6
CONTINUOUS
 62
     3
 10
2009.46874611465
 20
-1177.07965448818
 30
0.0
 11
2012.42316939185
 21
-1177.60059891813
 31
0.0
  0
ENDBLK
  5
   315
  8
0
  6
CONTINUOUS
 62
     3
  0
BLOCK
  5
   316
  8
0
  6
CONTINUOUS
 62
     3
  2
*UDIM1165
 70
    65
 10
0.0
 20
0.0
 30
0.0
  3
*UDIM1165
  0
TEXT
  5
   317
  8
0
  6
CONTINUOUS
 62
     3
 10
2036.63921251982
 20
-1143.84028013726
 30
0.0
 40
2.99999994933605
  1
100
 50
449.999999844103
 41
0.933333333333333
 72
     1
 11
2035.13921255574
 21
-1139.94028019905
 31
0.0
 73
     2
  0
LINE
  5
   318
  8
0
  6
CONTINUOUS
 62
     3
 10
2004.26874999702
 20
-1119.6652829051
 30
0.0
 11
2039.63921253041
 21
-1119.6652829051
 31
0.0
  0
LINE
  5
   319
  8
0
  6
CONTINUOUS
 62
     3
 10
2014.26875014603
 20
-1159.66528350115
 30
0.0
 11
2039.63921253041
 21
-1159.66528350115
 31
0.0
  0
LINE
  5
   31A
  8
0
  6
CONTINUOUS
 62
     3
 10
2037.63921253041
 20
-1119.6652829051
 30
0.0
 11
2037.63921253041
 21
-1159.66528350115
 31
0.0
  0
LINE
  5
   31B
  8
0
  6
CONTINUOUS
 62
     3
 10
2038.16015696036
 20
-1122.61970618231
 30
0.0
 11
2037.63921253041
 21
-1119.6652829051
 31
0.0
  0
LINE
  5
   31C
  8
0
  6
CONTINUOUS
 62
     3
 10
2037.63921253041
 20
-1119.6652829051
 30
0.0
 11
2037.11826810046
 21
-1122.61970618231
 31
0.0
  0
LINE
  5
   31D
  8
0
  6
CONTINUOUS
 62
     3
 10
2037.11826810046
 20
-1156.71086022394
 30
0.0
 11
2037.63921253041
 21
-1159.66528350115
 31
0.0
  0
LINE
  5
   31E
  8
0
  6
CONTINUOUS
 62
     3
 10
2037.63921253041
 20
-1159.66528350115
 30
0.0
 11
2038.16015696036
 21
-1156.71086022394
 31
0.0
  0
ENDBLK
  5
   31F
  8
0
  6
CONTINUOUS
 62
     3
  0
BLOCK
  5
   320
  8
0
  6
CONTINUOUS
 62
     3
  2
*UDIM1166
 70
    65
 10
0.0
 20
0.0
 30
0.0
  3
*UDIM1166
  0
TEXT
  5
   321
  8
0
  6
CONTINUOUS
 62
     3
 10
2036.63921251982
 20
-1193.440283946
 30
0.0
 40
2.99999994933605
  1
100
 50
449.999999844103
 41
0.933333333333333
 72
     1
 11
2035.13921255574
 21
-1189.54028400779
 31
0.0
 73
     2
  0
LINE
  5
   322
  8
0
  6
CONTINUOUS
 62
     3
 10
2009.26875007153
 20
-1169.2652836442
 30
0.0
 11
2039.63921253041
 21
-1169.2652836442
 31
0.0
  0
LINE
  5
   323
  8
0
  6
CONTINUOUS
 62
     3
 10
2014.26875014603
 20
-1209.26528424025
 30
0.0
 11
2039.63921253041
 21
-1209.26528424025
 31
0.0
  0
LINE
  5
   324
  8
0
  6
CONTINUOUS
 62
     3
 10
2037.63921253041
 20
-1169.2652836442
 30
0.0
 11
2037.63921253041
 21
-1209.26528424025
 31
0.0
  0
LINE
  5
   325
  8
0
  6
CONTINUOUS
 62
     3
 10
2038.16015696036
 20
-1172.21970692141
 30
0.0
 11
2037.63921253041
 21
-1169.2652836442
 31
0.0
  0
LINE
  5
   326
  8
0
  6
CONTINUOUS
 62
     3
 10
2037.63921253041
 20
-1169.2652836442
 30
0.0
 11
2037.11826810046
 21
-1172.21970692141
 31
0.0
  0
LINE
  5
   327
  8
0
  6
CONTINUOUS
 62
     3
 10
2037.11826810046
 20
-1206.31086096304
 30
0.0
 11
2037.63921253041
 21
-1209.26528424025
 31
0.0
  0
LINE
  5
   328
  8
0
  6
CONTINUOUS
 62
     3
 10
2037.63921253041
 20
-1209.26528424025
 30
0.0
 11
2038.16015696036
 21
-1206.31086096304
 31
0.0
  0
ENDBLK
  5
   329
  8
0
  6
CONTINUOUS
 62
     3
  0
BLOCK
  5
   32A
  8
0
  6
CONTINUOUS
 62
     7
  2
*UDIM1167
 70
    65
 10
0.0
 20
0.0
 30
0.0
  3
*UDIM1167
  0
TEXT
  5
   32B
  8
0
  6
CONTINUOUS
 62
     7
 10
1986.72786296509
 20
-1164.13110441543
 30
0.0
 40
2.99999994933605
  1
4.5
 50
342.226875639873
 41
0.933333333333333
 72
     1
 11
1990.89959933293
 21
-1163.89316516382
 31
0.0
 73
     2
  0
TEXT
  5
   32C
  8
0
  6
CONTINUOUS
 62
     7
 10
1982.91877228802
 20
-1162.91010981733
 30
0.0
 40
2.99999994933605
  1
Ø
 50
342.226875639873
 41
1.2
 72
     1
 11
1984.80505426246
 21
-1161.93957380002
 31
0.0
 73
     2
  0
TEXT
  5
   32D
  8
0
  6
CONTINUOUS
 62
     7
 10
1971.87240936401
 20
-1159.36922546481
 30
0.0
 40
2.99999994933605
  1
M4 o
 50
342.226875639873
 41
0.933333333333333
 72
     1
 11
1977.37732746135
 21
-1159.55863432651
 31
0.0
 73
     2
  0
LINE
  5
   32E
  8
0
  6
CONTINUOUS
 62
     7
 10
1999.56397718081
 20
-1169.2958085056
 30
0.0
 11
1971.56716070855
 21
-1160.32149816059
 31
0.0
  0
LINE
  5
   32F
  8
0
  6
CONTINUOUS
 62
     3
 10
1995.6152176745
 20
-1168.84541611253
 30
0.0
 11
1998.61170449998
 21
-1168.99055985066
 31
0.0
  0
LINE
  5
   330
  8
0
  6
CONTINUOUS
 62
     3
 10
1998.61170449998
 20
-1168.99055985066
 30
0.0
 11
1996.08924267973
 21
-1167.36661823674
 31
0.0
  0
ENDBLK
  5
   331
  8
0
  6
CONTINUOUS
 62
     7
  0
ENDSEC
  0
SECTION
  2
ENTITIES
  0
LINE
  5
   332
  8
0
  6
CONTINUOUS
 62
     7
 10
2162.24194335938
 20
-1264.90021514893
 30
0.0
 11
2169.66603193086
 21
-1264.90021514893
 31
0.0
  0
LINE
  5
   333
  8
0
  6
CONTINUOUS
 62
     7
 10
2162.241959095
 20
-1204.90020751953
 30
0.0
 11
2173.99195098877
 21
-1204.90020751953
 31
0.0
  0
LINE
  5
   334
  8
0
  6
CONTINUOUS
 62
     7
 10
2178.99191761017
 20
-1264.15021514893
 30
0.0
 11
2178.99191761017
 21
-1264.90021514893
 31
0.0
  0
LINE
  5
   335
  8
0
  6
CONTINUOUS
 62
     7
 10
2162.241959095
 20
-1205.65020751953
 30
0.0
 11
2163.241959095
 21
-1205.65020751953
 31
0.0
  0
LINE
  5
   336
  8
0
  6
CONTINUOUS
 62
     7
 10
2162.24194335938
 20
-1204.90022277832
 30
0.0
 11
2162.24194335938
 21
-1264.90021514893
 31
0.0
  0
LINE
  5
   337
  8
0
  6
CONTINUOUS
 62
     7
 10
2185.241959095
 20
-1204.90020751953
 30
0.0
 11
2185.241959095
 21
-1205.75020751953
 31
0.0
  0
LINE
  5
   338
  8
0
  6
CONTINUOUS
 62
     7
 10
2193.74194383621
 20
-1264.90027236938
 30
0.0
 11
2194.991959095
 21
-1264.90027236938
 31
0.0
  0
LINE
  5
   339
  8
0
  6
CONTINUOUS
 62
     7
 10
2193.74194335938
 20
-1204.90026855469
 30
0.0
 11
2194.99194335938
 21
-1204.90026855469
 31
0.0
  0
LINE
  5
   33A
  8
0
  6
CONTINUOUS
 62
     7
 10
2175.99195098877
 20
-1204.90026855469
 30
0.0
 11
2195.991959095
 21
-1204.90026855469
 31
0.0
  0
LINE
  5
   33B
  8
0
  6
CONTINUOUS
 62
     7
 10
2185.241959095
 20
-1264.90027236938
 30
0.0
 11
2196.241959095
 21
-1264.90027236938
 31
0.0
  0
LINE
  5
   33C
  8
0
  6
CONTINUOUS
 62
     7
 10
2193.74194383621
 20
-1264.90027236938
 30
0.0
 11
2194.991959095
 21
-1264.90027236938
 31
0.0
  0
LINE
  5
   33D
  8
0
  6
CONTINUOUS
 62
     7
 10
2199.991959095
 20
-1229.90027618377
 30
0.0
 11
2199.991959095
 21
-1251.90027999878
 31
0.0
  0
LINE
  5
   33E
  8
0
  6
CONTINUOUS
 62
     7
 10
2197.49195241932
 20
-1252.15027999348
 30
0.0
 11
2197.49194637938
 21
-1256.90027236596
 31
0.0
  0
LINE
  5
   33F
  8
0
  6
CONTINUOUS
 62
     7
 10
2197.491959095
 20
-1252.15027999878
 30
0.0
 11
2199.741959095
 21
-1252.15027999878
 31
0.0
  0
LINE
  5
   340
  8
0
  6
CONTINUOUS
 62
     7
 10
2197.49195051146
 20
-1229.65026760067
 30
0.0
 11
2199.74196005007
 21
-1229.65027618377
 31
0.0
  0
LINE
  5
   341
  8
0
  6
CONTINUOUS
 62
     7
 10
2197.49192857741
 20
-1212.90026855469
 30
0.0
 11
2197.49192857741
 21
-1229.6502599713
 31
0.0
  0
LINE
  5
   342
  8
0
  6
CONTINUOUS
 62
     7
 10
2196.241959095
 20
-1257.65027236938
 30
0.0
 11
2196.241959095
 21
-1264.90027236938
 31
0.0
  0
LINE
  5
   343
  8
0
  6
CONTINUOUS
 62
     7
 10
2196.241959095
 20
-1204.90026855469
 30
0.0
 11
2196.241959095
 21
-1212.15027542087
 31
0.0
  0
LINE
  5
   344
  8
0
  6
CONTINUOUS
 62
     7
 10
2196.991959095
 20
-1256.90027236938
 30
0.0
 11
2196.991959095
 21
-1257.65027236938
 31
0.0
  0
LINE
  5
   345
  8
0
  6
CONTINUOUS
 62
     7
 10
2196.241959095
 20
-1257.65027236938
 30
0.0
 11
2197.491959095
 21
-1257.65027236938
 31
0.0
  0
LINE
  5
   346
  8
0
  6
CONTINUOUS
 62
     7
 10
2196.991959095
 20
-1256.90027236938
 30
0.0
 11
2197.49194637938
 21
-1256.90027236938
 31
0.0
  0
LINE
  5
   347
  8
0
  6
CONTINUOUS
 62
     7
 10
2196.241959095
 20
-1212.15026855469
 30
0.0
 11
2197.24192154408
 21
-1212.15026855469
 31
0.0
  0
LINE
  5
   348
  8
0
  6
CONTINUOUS
 62
     7
 10
2196.991959095
 20
-1212.90026855469
 30
0.0
 11
2197.49192857741
 21
-1212.90026855469
 31
0.0
  0
LINE
  5
   349
  8
0
  6
CONTINUOUS
 62
     7
 10
2196.991959095
 20
-1212.15026855469
 30
0.0
 11
2196.991959095
 21
-1212.90026855469
 31
0.0
  0
LINE
  5
   34A
  8
0
  6
CONTINUOUS
 62
     7
 10
2185.241959095
 20
-1204.90026855469
 30
0.0
 11
2185.241959095
 21
-1205.75026092529
 31
0.0
  0
ARC
  5
   34B
  8
0
  6
CONTINUOUS
 62
     7
 10
2199.741959095
 20
-1229.90027618377
 30
0.0
 40
0.25
 50
359.999999844103
 51
449.999781278102
  0
ARC
  5
   34C
  8
0
  6
CONTINUOUS
 62
     7
 10
2199.741959095
 20
-1251.90027999878
 30
0.0
 40
0.25
 50
269.999999844103
 51
359.999999844103
  0
LINE
  5
   34D
  8
0
  6
CONTINUOUS
 62
     7
 10
2162.24194335938
 20
-1204.90026453958
 30
0.0
 11
2162.24194335938
 21
-1263.99125823975
 31
0.0
  0
LINE
  5
   34E
  8
0
  6
CONTINUOUS
 62
     7
 10
2162.24194335938
 20
-1230.30013009833
 30
0.0
 11
2162.24194335938
 21
-1238.80013009833
 31
0.0
  0
LINE
  5
   34F
  8
0
  6
CONTINUOUS
 62
     7
 10
2162.24194335938
 20
-1257.39125823975
 30
0.0
 11
2162.49194335938
 21
-1257.39125823975
 31
0.0
  0
LINE
  5
   350
  8
0
  6
CONTINUOUS
 62
     7
 10
2162.24194335938
 20
-1204.90026453958
 30
0.0
 11
2172.99194335938
 21
-1204.90026453958
 31
0.0
  0
LINE
  5
   351
  8
0
  6
CONTINUOUS
 62
     7
 10
2167.741959095
 20
-1264.90021514893
 30
0.0
 11
2184.991959095
 21
-1264.90021514893
 31
0.0
  0
LINE
  5
   352
  8
0
  6
CONTINUOUS
 62
     7
 10
2185.491959095
 20
-1215.27526092529
 30
0.0
 11
2185.741959095
 21
-1215.27526092529
 31
0.0
  0
LINE
  5
   353
  8
0
  6
CONTINUOUS
 62
     7
 10
2162.24197387695
 20
-1206.90028065437
 30
0.0
 11
2162.24197387695
 21
-1284.90026092529
 31
0.0
  0
LINE
  5
   354
  8
0
  6
CONTINUOUS
 62
     7
 10
2162.24193595251
 20
-1204.90026855469
 30
0.0
 11
2184.99192905426
 21
-1204.90026855469
 31
0.0
  0
LINE
  5
   355
  8
0
  6
CONTINUOUS
 62
     7
 10
2185.24192616186
 20
-1204.90026092529
 30
0.0
 11
2196.24192154408
 21
-1204.90026092529
 31
0.0
  0
LINE
  5
   356
  8
0
  6
CONTINUOUS
 62
     7
 10
2193.99192154407
 20
-1195.17910104049
 30
0.0
 11
2193.99192154407
 21
-1195.50026092529
 31
0.0
  0
LINE
  5
   357
  8
0
  6
CONTINUOUS
 62
     7
 10
2196.24192154408
 20
-1195.15026855469
 30
0.0
 11
2196.24192154408
 21
-1202.40026975934
 31
0.0
  0
LINE
  5
   358
  8
0
  6
CONTINUOUS
 62
     7
 10
2196.24192154408
 20
-1195.15026855469
 30
0.0
 11
2196.99192154408
 21
-1195.15026855469
 31
0.0
  0
LINE
  5
   359
  8
0
  6
CONTINUOUS
 62
     7
 10
2196.24192154408
 20
-1204.90026092529
 30
0.0
 11
2196.24192154408
 21
-1210.15026855469
 31
0.0
  0
LINE
  5
   35A
  8
0
  6
CONTINUOUS
 62
     7
 10
2196.24192154408
 20
-1195.15026855469
 30
0.0
 11
2197.24192154408
 21
-1195.15026855469
 31
0.0
  0
LINE
  5
   35B
  8
0
  6
CONTINUOUS
 62
     7
 10
2197.49192154408
 20
-1195.40026855469
 30
0.0
 11
2197.49192154408
 21
-1202.90026855469
 31
0.0
  0
ARC
  5
   35C
  8
0
  6
CONTINUOUS
 62
     7
 10
2197.24192154408
 20
-1195.40026855469
 30
0.0
 40
0.25
 50
359.999999844103
 51
449.999999844103
  0
ARC
  5
   35D
  8
0
  6
CONTINUOUS
 62
     7
 10
2197.24192154408
 20
-1211.90026855469
 30
0.0
 40
0.25
 50
269.999999844103
 51
359.999999844103
  0
LINE
  5
   35E
  8
0
  6
DASHDOT
 62
     7
 10
2191.3309797514
 20
-1206.40027618408
 30
0.0
 11
2199.94581381315
 21
-1206.40027618408
 31
0.0
  0
LINE
  5
   35F
  8
0
  6
CONTINUOUS
 62
     7
 10
2197.49192154408
 20
-1207.90027618408
 30
0.0
 11
2198.99192154408
 21
-1207.90027618408
 31
0.0
  0
LINE
  5
   360
  8
0
  6
CONTINUOUS
 62
     7
 10
2199.24192154408
 20
-1205.05027618408
 30
0.0
 11
2199.24192154408
 21
-1207.65027618408
 31
0.0
  0
LINE
  5
   361
  8
0
  6
CONTINUOUS
 62
     7
 10
2199.24192154408
 20
-1207.65027618408
 30
0.0
 11
2198.99192154408
 21
-1207.90027618408
 31
0.0
  0
LINE
  5
   362
  8
0
  6
CONTINUOUS
 62
     7
 10
2198.99192154408
 20
-1206.65027618408
 30
0.0
 11
2198.99192154408
 21
-1207.90027618408
 31
0.0
  0
LINE
  5
   363
  8
0
  6
CONTINUOUS
 62
     7
 10
2198.74192154408
 20
-1206.65027618408
 30
0.0
 11
2199.24192154408
 21
-1206.65027618408
 31
0.0
  0
LINE
  5
   364
  8
0
  6
CONTINUOUS
 62
     7
 10
2198.74192154408
 20
-1206.15027618408
 30
0.0
 11
2199.24192154408
 21
-1206.15027618408
 31
0.0
  0
LINE
  5
   365
  8
0
  6
CONTINUOUS
 62
     7
 10
2198.74192154408
 20
-1206.15027618408
 30
0.0
 11
2198.74192154408
 21
-1206.65027618408
 31
0.0
  0
LINE
  5
   366
  8
0
  6
CONTINUOUS
 62
     7
 10
2198.99192154408
 20
-1204.90027618408
 30
0.0
 11
2198.99192154408
 21
-1206.15027618408
 31
0.0
  0
CIRCLE
  5
   367
  8
0
  6
CONTINUOUS
 62
     7
 10
2197.99192154408
 20
-1206.40027618408
 30
0.0
 40
0.25
  0
LINE
  5
   368
  8
0
  6
CONTINUOUS
 62
     7
 10
2162.24202655156
 20
-1204.90026855469
 30
0.0
 11
2178.37981570811
 21
-1204.90026855469
 31
0.0
  0
LINE
  5
   369
  8
0
  6
CONTINUOUS
 62
     7
 10
2162.24202655156
 20
-1142.40027618408
 30
0.0
 11
2162.24202655156
 21
-1153.15026855469
 31
0.0
  0
LINE
  5
   36A
  8
0
  6
CONTINUOUS
 62
     7
 10
2199.99201977253
 20
-1181.26008879751
 30
0.0
 11
2208.58983697039
 21
-1183.85820276646
 31
0.0
  0
LINE
  5
   36B
  8
0
  6
CONTINUOUS
 62
     7
 10
2208.58986403561
 20
-1183.85821088649
 30
0.0
 11
2208.69695062762
 21
-1183.92341281108
 31
0.0
  0
LINE
  5
   36C
  8
0
  6
CONTINUOUS
 62
     7
 10
2208.69693157046
 20
-1183.92340578996
 30
0.0
 11
2208.75890063128
 21
-1184.03239866946
 31
0.0
  0
LINE
  5
   36D
  8
0
  6
CONTINUOUS
 62
     7
 10
2208.75891094638
 20
-1184.03240498191
 30
0.0
 11
2208.76017374459
 21
-1184.15777517205
 31
0.0
  0
LINE
  5
   36E
  8
0
  6
CONTINUOUS
 62
     7
 10
2208.76016911408
 20
-1184.15777098533
 30
0.0
 11
2208.39570754295
 21
-1185.62540444239
 31
0.0
  0
LINE
  5
   36F
  8
0
  6
CONTINUOUS
 62
     7
 10
2208.39571062454
 20
-1185.62540202399
 30
0.0
 11
2208.33307889721
 21
-1185.73864536063
 31
0.0
  0
LINE
  5
   370
  8
0
  6
CONTINUOUS
 62
     7
 10
2208.33308210233
 20
-1185.73864930371
 30
0.0
 11
2208.22221873621
 21
-1185.80540446557
 31
0.0
  0
LINE
  5
   371
  8
0
  6
CONTINUOUS
 62
     7
 10
2208.22223031926
 20
-1185.80540447321
 30
0.0
 11
2208.09284266992
 21
-1185.80778487508
 31
0.0
  0
LINE
  5
   372
  8
0
  6
CONTINUOUS
 62
     7
 10
2199.99201977253
 20
-1183.79613061908
 30
0.0
 11
2208.0928298584
 21
-1185.80778432983
 31
0.0
  0
LINE
  5
   373
  8
0
  6
CONTINUOUS
 62
     7
 10
2162.24202655156
 20
-1182.00026855469
 30
0.0
 11
2162.24202655156
 21
-1202.40026855469
 31
0.0
  0
LINE
  5
   374
  8
0
  6
CONTINUOUS
 62
     7
 10
2162.24202632904
 20
-1122.40026092529
 30
0.0
 11
2162.24202632904
 21
-1207.93436804546
 31
0.0
  0
INSERT
  5
   375
  8
0
  6
CONTINUOUS
 62
     3
  2
*HATCH724
 10
2195.09594726563
 20
-1181.65026855469
 30
0.0
 41
0.5
 42
0.5
 50
269.999999844103
 43
0.5
  0
INSERT
  5
   376
  8
0
  6
CONTINUOUS
 62
     3
  2
*HATCH725
 10
2195.09594726563
 20
-1181.65026855469
 30
0.0
 41
0.5
 42
0.5
 50
269.999999844103
 43
0.5
  0
INSERT
  5
   377
  8
0
  6
CONTINUOUS
 62
     3
  2
*HATCH726
 10
2195.09594726563
 20
-1181.65026855469
 30
0.0
 41
0.5
 42
0.5
 50
269.999999844103
 43
0.5
  0
INSERT
  5
   378
  8
0
  6
CONTINUOUS
 62
     3
  2
*HATCH727
 10
2195.09594726563
 20
-1181.65026855469
 30
0.0
 41
0.5
 42
0.5
 50
269.999999844103
 43
0.5
  0
LINE
  5
   379
  8
0
  6
CONTINUOUS
 62
     7
 10
2197.49201214314
 20
-1189.65026092529
 30
0.0
 11
2197.49201214314
 21
-1193.90026855469
 31
0.0
  0
LINE
  5
   37A
  8
0
  6
CONTINUOUS
 62
     7
 10
2197.49201198081
 20
-1189.65026092529
 30
0.0
 11
2199.99201977253
 21
-1189.65026092529
 31
0.0
  0
LINE
  5
   37B
  8
0
  6
CONTINUOUS
 62
     7
 10
2185.24201676092
 20
-1204.90026092529
 30
0.0
 11
2196.24192154408
 21
-1204.90026092529
 31
0.0
  0
LINE
  5
   37C
  8
0
  6
CONTINUOUS
 62
     7
 10
2197.4920196102
 20
-1167.15026092529
 30
0.0
 11
2199.99201977253
 21
-1167.15026092529
 31
0.0
  0
LINE
  5
   37D
  8
0
  6
CONTINUOUS
 62
     7
 10
2197.49201977253
 20
-1150.90026855469
 30
0.0
 11
2197.49201977253
 21
-1167.15026092529
 31
0.0
  0
LINE
  5
   37E
  8
0
  6
CONTINUOUS
 62
     7
 10
2199.99201977253
 20
-1167.15026092529
 30
0.0
 11
2199.99201977253
 21
-1189.65026092529
 31
0.0
  0
LINE
  5
   37F
  8
0
  6
CONTINUOUS
 62
     7
 10
2196.99201214314
 20
-1194.40026855469
 30
0.0
 11
2196.99201214314
 21
-1195.15026855469
 31
0.0
  0
LINE
  5
   380
  8
0
  6
CONTINUOUS
 62
     7
 10
2196.24201214314
 20
-1195.15026855469
 30
0.0
 11
2196.24201214314
 21
-1202.40026855469
 31
0.0
  0
LINE
  5
   381
  8
0
  6
CONTINUOUS
 62
     7
 10
2196.99201214314
 20
-1149.65026855469
 30
0.0
 11
2196.99201214314
 21
-1150.40026855469
 31
0.0
  0
LINE
  5
   382
  8
0
  6
CONTINUOUS
 62
     7
 10
2196.24201214314
 20
-1142.65026855469
 30
0.0
 11
2196.24201214314
 21
-1149.65026855469
 31
0.0
  0
ARC
  5
   383
  8
0
  6
CONTINUOUS
 62
     7
 10
2196.99201977253
 20
-1150.90026855469
 30
0.0
 40
0.5
 50
359.999999844103
 51
449.999999844103
  0
ARC
  5
   384
  8
0
  6
CONTINUOUS
 62
     7
 10
2196.99201214314
 20
-1193.90026855469
 30
0.0
 40
0.5
 50
269.999999844103
 51
359.999999844103
  0
LINE
  5
   385
  8
0
  6
CONTINUOUS
 62
     7
 10
2176.99960708618
 20
-1204.90026855469
 30
0.0
 11
2184.99201965332
 21
-1204.90026855469
 31
0.0
  0
LINE
  5
   386
  8
0
  6
CONTINUOUS
 62
     7
 10
2196.24201214314
 20
-1149.65026855469
 30
0.0
 11
2197.49201214314
 21
-1149.65026855469
 31
0.0
  0
LINE
  5
   387
  8
0
  6
CONTINUOUS
 62
     7
 10
2196.24201214314
 20
-1195.15026855469
 30
0.0
 11
2196.99201214314
 21
-1195.15026855469
 31
0.0
  0
LINE
  5
   388
  8
0
  6
CONTINUOUS
 62
     7
 10
2198.49202346802
 20
-1166.65026092529
 30
0.0
 11
2198.49202346802
 21
-1167.15026092529
 31
0.0
  0
LINE
  5
   389
  8
0
  6
CONTINUOUS
 62
     7
 10
2198.49202346802
 20
-1189.65026092529
 30
0.0
 11
2198.49202346802
 21
-1190.15026092529
 31
0.0
  0
LINE
  5
   38A
  8
0
  6
CONTINUOUS
 62
     7
 10
2198.49202346802
 20
-1154.40026092529
 30
0.0
 11
2198.49202346802
 21
-1165.90026092529
 31
0.0
  0
LINE
  5
   38B
  8
0
  6
DASHDOT
 62
     7
 10
2198.49202346802
 20
-1137.07959164739
 30
0.0
 11
2198.49202346802
 21
-1265.82486816156
 31
0.0
  0
LINE
  5
   38C
  8
0
  6
CONTINUOUS
 62
     7
 10
2199.99202346802
 20
-1189.65026092529
 30
0.0
 11
2199.99202346802
 21
-1202.40026092529
 31
0.0
  0
LINE
  5
   38D
  8
0
  6
CONTINUOUS
 62
     7
 10
2197.74202346802
 20
-1166.65026092529
 30
0.0
 11
2198.49202346802
 21
-1166.65026092529
 31
0.0
  0
LINE
  5
   38E
  8
0
  6
CONTINUOUS
 62
     7
 10
2197.74202346802
 20
-1165.90026092529
 30
0.0
 11
2198.49202346802
 21
-1165.90026092529
 31
0.0
  0
LINE
  5
   38F
  8
0
  6
CONTINUOUS
 62
     7
 10
2197.74202346802
 20
-1165.90026092529
 30
0.0
 11
2197.74202346802
 21
-1166.65026092529
 31
0.0
  0
LINE
  5
   390
  8
0
  6
CONTINUOUS
 62
     7
 10
2198.49202346802
 20
-1154.40026092529
 30
0.0
 11
2199.99202346802
 21
-1154.40026092529
 31
0.0
  0
LINE
  5
   391
  8
0
  6
CONTINUOUS
 62
     7
 10
2198.49202346802
 20
-1190.90026092529
 30
0.0
 11
2198.49202346802
 21
-1202.40026092529
 31
0.0
  0
LINE
  5
   392
  8
0
  6
CONTINUOUS
 62
     7
 10
2197.74202346802
 20
-1190.90026092529
 30
0.0
 11
2198.49202346802
 21
-1190.90026092529
 31
0.0
  0
LINE
  5
   393
  8
0
  6
CONTINUOUS
 62
     7
 10
2197.74202346802
 20
-1190.15026092529
 30
0.0
 11
2197.74202346802
 21
-1190.90026092529
 31
0.0
  0
LINE
  5
   394
  8
0
  6
DOT
 62
     7
 10
2198.49202346802
 20
-1167.15026092529
 30
0.0
 11
2198.49202346802
 21
-1189.65026092529
 31
0.0
  0
LINE
  5
   395
  8
0
  6
CONTINUOUS
 62
     7
 10
2199.99202346802
 20
-1154.40026092529
 30
0.0
 11
2199.99202346802
 21
-1167.15026092529
 31
0.0
  0
LINE
  5
   396
  8
0
  6
CONTINUOUS
 62
     7
 10
2197.49202346802
 20
-1161.65026092529
 30
0.0
 11
2198.49202346802
 21
-1161.65026092529
 31
0.0
  0
LINE
  5
   397
  8
0
  6
CONTINUOUS
 62
     7
 10
2197.49202346802
 20
-1163.15026092529
 30
0.0
 11
2198.49202346802
 21
-1163.15026092529
 31
0.0
  0
LINE
  5
   398
  8
0
  6
CONTINUOUS
 62
     7
 10
2197.49202346802
 20
-1161.27526092529
 30
0.0
 11
2197.49202346802
 21
-1163.52526092529
 31
0.0
  0
LINE
  5
   399
  8
0
  6
DOT
 62
     7
 10
2197.49202346802
 20
-1161.27526092529
 30
0.0
 11
2196.49202346802
 21
-1161.94976944214
 31
0.0
  0
LINE
  5
   39A
  8
0
  6
DOT
 62
     7
 10
2196.49202346802
 20
-1162.85075240845
 30
0.0
 11
2197.49202346802
 21
-1163.52526092529
 31
0.0
  0
LINE
  5
   39B
  8
0
  6
DOT
 62
     7
 10
2196.49202346802
 20
-1161.94976944214
 30
0.0
 11
2196.49202346802
 21
-1162.85075240845
 31
0.0
  0
LINE
  5
   39C
  8
0
  6
DOT
 62
     7
 10
2196.49202346802
 20
-1194.85075240845
 30
0.0
 11
2197.49202346802
 21
-1195.52526092529
 31
0.0
  0
LINE
  5
   39D
  8
0
  6
DOT
 62
     7
 10
2196.49202346802
 20
-1193.94976944214
 30
0.0
 11
2196.49202346802
 21
-1194.85075240845
 31
0.0
  0
LINE
  5
   39E
  8
0
  6
DOT
 62
     7
 10
2197.49202346802
 20
-1193.27526092529
 30
0.0
 11
2196.49202346802
 21
-1193.94976944214
 31
0.0
  0
LINE
  5
   39F
  8
0
  6
CONTINUOUS
 62
     7
 10
2197.49202346802
 20
-1193.27526092529
 30
0.0
 11
2197.49202346802
 21
-1195.52526092529
 31
0.0
  0
LINE
  5
   3A0
  8
0
  6
CONTINUOUS
 62
     7
 10
2197.49202346802
 20
-1195.15026092529
 30
0.0
 11
2198.49202346802
 21
-1195.15026092529
 31
0.0
  0
LINE
  5
   3A1
  8
0
  6
CONTINUOUS
 62
     7
 10
2197.49202346802
 20
-1193.65026092529
 30
0.0
 11
2198.49202346802
 21
-1193.65026092529
 31
0.0
  0
LINE
  5
   3A2
  8
0
  6
CONTINUOUS
 62
     7
 10
2198.49202346802
 20
-1166.65026092529
 30
0.0
 11
2199.99202346802
 21
-1166.65026092529
 31
0.0
  0
LINE
  5
   3A3
  8
0
  6
CONTINUOUS
 62
     7
 10
2197.74202346802
 20
-1190.15026092529
 30
0.0
 11
2199.99202346802
 21
-1190.15026092529
 31
0.0
  0
LINE
  5
   3A4
  8
0
  6
DASHDOT
 62
     7
 10
2197.74202346802
 20
-1137.07959164739
 30
0.0
 11
2197.74202346802
 21
-1265.97307785625
 31
0.0
  0
INSERT
  5
   3A5
  8
0
  6
CONTINUOUS
 62
     7
  2
*HATCH728
 10
2195.09594726563
 20
-1181.65026855469
 30
0.0
 41
0.5
 42
0.5
 50
269.999999844103
 43
0.5
  0
INSERT
  5
   3A6
  8
0
  6
CONTINUOUS
 62
     7
  2
*HATCH729
 10
2195.09594726563
 20
-1181.65026855469
 30
0.0
 41
0.5
 42
0.5
 50
269.999999844103
 43
0.5
  0
LINE
  5
   3A7
  8
0
  6
CONTINUOUS
 62
     7
 10
2198.4919322729
 20
-1216.90026760059
 30
0.0
 11
2199.9919322729
 21
-1216.90026760059
 31
0.0
  0
LINE
  5
   3A8
  8
0
  6
CONTINUOUS
 62
     7
 10
2199.9919322729
 20
-1216.90026760059
 30
0.0
 11
2199.9919322729
 21
-1229.65026760059
 31
0.0
  0
LINE
  5
   3A9
  8
0
  6
CONTINUOUS
 62
     7
 10
2197.7419322729
 20
-1228.40026760059
 30
0.0
 11
2198.4919322729
 21
-1228.40026760059
 31
0.0
  0
LINE
  5
   3AA
  8
0
  6
CONTINUOUS
 62
     7
 10
2197.7419322729
 20
-1229.15026760059
 30
0.0
 11
2198.4919322729
 21
-1229.15026760059
 31
0.0
  0
LINE
  5
   3AB
  8
0
  6
CONTINUOUS
 62
     7
 10
2198.4919322729
 20
-1229.15026760059
 30
0.0
 11
2199.9919322729
 21
-1229.15026760059
 31
0.0
  0
LINE
  5
   3AC
  8
0
  6
DOT
 62
     7
 10
2198.4919322729
 20
-1229.65026760059
 30
0.0
 11
2198.4919322729
 21
-1252.15026760059
 31
0.0
  0
INSERT
  5
   3AD
  8
0
  6
CONTINUOUS
 62
     7
  2
*HATCH730
 10
2195.09594726563
 20
-1181.65026855469
 30
0.0
 41
0.5
 42
0.5
 50
269.999999844103
 43
0.5
  0
LINE
  5
   3AE
  8
0
  6
CONTINUOUS
 62
     7
 10
2197.7419322729
 20
-1252.65026760059
 30
0.0
 11
2199.9919322729
 21
-1252.65026760059
 31
0.0
  0
LINE
  5
   3AF
  8
0
  6
DASHDOT
 62
     7
 10
2198.4919322729
 20
-1196.57959832268
 30
0.0
 11
2198.4919322729
 21
-1202.40026092529
 31
0.0
  0
LINE
  5
   3B0
  8
0
  6
CONTINUOUS
 62
     7
 10
2197.7419322729
 20
-1253.40026760059
 30
0.0
 11
2198.4919322729
 21
-1253.40026760059
 31
0.0
  0
LINE
  5
   3B1
  8
0
  6
CONTINUOUS
 62
     7
 10
2199.9919322729
 20
-1252.15026760059
 30
0.0
 11
2199.9919322729
 21
-1264.90026760059
 31
0.0
  0
LINE
  5
   3B2
  8
0
  6
CONTINUOUS
 62
     7
 10
2198.4919322729
 20
-1264.90026760059
 30
0.0
 11
2199.9919322729
 21
-1264.90026760059
 31
0.0
  0
INSERT
  5
   3B3
  8
0
  6
CONTINUOUS
 62
     7
  2
*HATCH731
 10
2195.09594726563
 20
-1181.65026855469
 30
0.0
 41
0.5
 42
0.5
 50
269.999999844103
 43
0.5
  0
LINE
  5
   3B4
  8
0
  6
CONTINUOUS
 62
     7
 10
2198.4919322729
 20
-1253.40026760059
 30
0.0
 11
2198.4919322729
 21
-1264.90026760059
 31
0.0
  0
LINE
  5
   3B5
  8
0
  6
CONTINUOUS
 62
     7
 10
2198.4919322729
 20
-1216.90026760059
 30
0.0
 11
2198.4919322729
 21
-1228.40026760059
 31
0.0
  0
LINE
  5
   3B6
  8
0
  6
CONTINUOUS
 62
     7
 10
2197.74202346802
 20
-1228.40026760059
 30
0.0
 11
2197.74202346802
 21
-1229.15026760059
 31
0.0
  0
LINE
  5
   3B7
  8
0
  6
CONTINUOUS
 62
     7
 10
2197.7419322729
 20
-1252.65026760059
 30
0.0
 11
2197.7419322729
 21
-1253.40026760059
 31
0.0
  0
LINE
  5
   3B8
  8
0
  6
CONTINUOUS
 62
     7
 10
2162.24202632904
 20
-1202.40026855469
 30
0.0
 11
2195.99201214314
 21
-1202.40026855469
 31
0.0
  0
LINE
  5
   3B9
  8
0
  6
CONTINUOUS
 62
     7
 10
2162.24202632904
 20
-1203.40026855469
 30
0.0
 11
2196.74192154408
 21
-1203.40026855469
 31
0.0
  0
LINE
  5
   3BA
  8
0
  6
CONTINUOUS
 62
     7
 10
2197.49192154408
 20
-1204.90027618408
 30
0.0
 11
2199.09192154408
 21
-1204.90027618408
 31
0.0
  0
LINE
  5
   3BB
  8
0
  6
CONTINUOUS
 62
     7
 10
2198.4919322729
 20
-1202.40026092529
 30
0.0
 11
2199.99202346802
 21
-1202.40026092529
 31
0.0
  0
LINE
  5
   3BC
  8
0
  6
CONTINUOUS
 62
     7
 10
2199.09192154408
 20
-1204.90027618408
 30
0.0
 11
2199.24192154408
 21
-1205.05027618408
 31
0.0
  0
LINE
  5
   3BD
  8
0
  6
CONTINUOUS
 62
     7
 10
2194.24201214314
 20
-1257.65021514893
 30
0.0
 11
2196.24201214314
 21
-1257.65021514893
 31
0.0
  0
LINE
  5
   3BE
  8
0
  6
DOT
 62
     7
 10
2185.24201021195
 20
-1262.90026092529
 30
0.0
 11
2186.24201021195
 21
-1262.90026092529
 31
0.0
  0
LINE
  5
   3BF
  8
0
  6
DASHDOT
 62
     7
 10
2161.24202632904
 20
-1117.72271871368
 30
0.0
 11
2161.24202632904
 21
-1296.37361106289
 31
0.0
  0
LINE
  5
   3C0
  8
0
  6
DASHDOT
 62
     7
 10
2162.24202632904
 20
-1153.51033582665
 30
0.0
 11
2162.24202632904
 21
-1251.56426051962
 31
0.0
  0
LINE
  5
   3C1
  8
0
  6
DASHDOT
 62
     7
 10
2156.53394530626
 20
-1259.90029592065
 30
0.0
 11
2167.90378405296
 21
-1259.90029592065
 31
0.0
  0
LINE
  5
   3C2
  8
0
  6
CONTINUOUS
 62
     7
 10
2158.49202632904
 20
-1146.40023560785
 30
0.0
 11
2159.24202632904
 21
-1146.40023560785
 31
0.0
  0
LINE
  5
   3C3
  8
0
  6
CONTINUOUS
 62
     7
 10
2158.49202632904
 20
-1148.40023560785
 30
0.0
 11
2159.24202632904
 21
-1148.40023560785
 31
0.0
  0
LINE
  5
   3C4
  8
0
  6
CONTINUOUS
 62
     7
 10
2159.24202632904
 20
-1145.40023560785
 30
0.0
 11
2159.24202632904
 21
-1149.40023560785
 31
0.0
  0
LINE
  5
   3C5
  8
0
  6
CONTINUOUS
 62
     7
 10
2161.24202632904
 20
-1145.15023560785
 30
0.0
 11
2161.24202632904
 21
-1149.65023560785
 31
0.0
  0
LINE
  5
   3C6
  8
0
  6
CONTINUOUS
 62
     7
 10
2158.24202632904
 20
-1146.65023560785
 30
0.0
 11
2158.24202632904
 21
-1148.15023560785
 31
0.0
  0
LINE
  5
   3C7
  8
0
  6
CONTINUOUS
 62
     7
 10
2159.24202632904
 20
-1145.40023560785
 30
0.0
 11
2160.99202632904
 21
-1145.40023560785
 31
0.0
  0
LINE
  5
   3C8
  8
0
  6
CONTINUOUS
 62
     7
 10
2159.24202632904
 20
-1149.40023560785
 30
0.0
 11
2160.99202632904
 21
-1149.40023560785
 31
0.0
  0
LINE
  5
   3C9
  8
0
  6
CONTINUOUS
 62
     7
 10
2159.24202632904
 20
-1148.40023560785
 30
0.0
 11
2160.99202632904
 21
-1148.40023560785
 31
0.0
  0
LINE
  5
   3CA
  8
0
  6
CONTINUOUS
 62
     7
 10
2159.24202632904
 20
-1146.40023560785
 30
0.0
 11
2160.99202632904
 21
-1146.40023560785
 31
0.0
  0
LINE
  5
   3CB
  8
0
  6
CONTINUOUS
 62
     7
 10
2159.24202632904
 20
-1257.90029592065
 30
0.0
 11
2160.99202632904
 21
-1257.90029592065
 31
0.0
  0
LINE
  5
   3CC
  8
0
  6
CONTINUOUS
 62
     7
 10
2159.24202632904
 20
-1257.90029592065
 30
0.0
 11
2159.24202632904
 21
-1261.90029592065
 31
0.0
  0
LINE
  5
   3CD
  8
0
  6
CONTINUOUS
 62
     7
 10
2158.49202632904
 20
-1258.90029592065
 30
0.0
 11
2160.99202632904
 21
-1258.90029592065
 31
0.0
  0
LINE
  5
   3CE
  8
0
  6
CONTINUOUS
 62
     7
 10
2158.49202632904
 20
-1260.90029592065
 30
0.0
 11
2160.99202632904
 21
-1260.90029592065
 31
0.0
  0
LINE
  5
   3CF
  8
0
  6
CONTINUOUS
 62
     7
 10
2159.24202632904
 20
-1261.90029592065
 30
0.0
 11
2160.99202632904
 21
-1261.90029592065
 31
0.0
  0
LINE
  5
   3D0
  8
0
  6
CONTINUOUS
 62
     7
 10
2159.24202632904
 20
-1257.90029592065
 30
0.0
 11
2159.24202632904
 21
-1261.90029592065
 31
0.0
  0
LINE
  5
   3D1
  8
0
  6
CONTINUOUS
 62
     7
 10
2158.24202632904
 20
-1259.15029592065
 30
0.0
 11
2158.24202632904
 21
-1260.65029592065
 31
0.0
  0
LINE
  5
   3D2
  8
0
  6
CONTINUOUS
 62
     7
 10
2161.24202632904
 20
-1257.65029592065
 30
0.0
 11
2161.24202632904
 21
-1262.15029592065
 31
0.0
  0
LINE
  5
   3D3
  8
0
  6
CONTINUOUS
 62
     7
 10
2160.99202632904
 20
-1257.65029592065
 30
0.0
 11
2160.99202632904
 21
-1262.15029592065
 31
0.0
  0
LINE
  5
   3D4
  8
0
  6
CONTINUOUS
 62
     7
 10
2160.99202632904
 20
-1257.65029592065
 30
0.0
 11
2161.24202632904
 21
-1257.65029592065
 31
0.0
  0
LINE
  5
   3D5
  8
0
  6
CONTINUOUS
 62
     7
 10
2160.99202632904
 20
-1262.15029592065
 30
0.0
 11
2161.24202632904
 21
-1262.15029592065
 31
0.0
  0
LINE
  5
   3D6
  8
0
  6
CONTINUOUS
 62
     7
 10
2160.99202632904
 20
-1145.15023560785
 30
0.0
 11
2160.99202632904
 21
-1149.65023560785
 31
0.0
  0
LINE
  5
   3D7
  8
0
  6
CONTINUOUS
 62
     7
 10
2160.99202632904
 20
-1145.15023560785
 30
0.0
 11
2161.24202632904
 21
-1145.15023560785
 31
0.0
  0
LINE
  5
   3D8
  8
0
  6
CONTINUOUS
 62
     7
 10
2160.99202632904
 20
-1149.65023560785
 30
0.0
 11
2161.24202632904
 21
-1149.65023560785
 31
0.0
  0
LINE
  5
   3D9
  8
0
  6
CONTINUOUS
 62
     7
 10
2158.24202632904
 20
-1146.65023560785
 30
0.0
 11
2159.24202632904
 21
-1146.65023560785
 31
0.0
  0
LINE
  5
   3DA
  8
0
  6
CONTINUOUS
 62
     7
 10
2158.24202632904
 20
-1148.15023560785
 30
0.0
 11
2159.24202632904
 21
-1148.15023560785
 31
0.0
  0
LINE
  5
   3DB
  8
0
  6
CONTINUOUS
 62
     7
 10
2158.49202632904
 20
-1146.40023560785
 30
0.0
 11
2158.24202632904
 21
-1146.65023560785
 31
0.0
  0
LINE
  5
   3DC
  8
0
  6
CONTINUOUS
 62
     7
 10
2158.24202632904
 20
-1148.15023560785
 30
0.0
 11
2158.49202632904
 21
-1148.40023560785
 31
0.0
  0
LINE
  5
   3DD
  8
0
  6
CONTINUOUS
 62
     7
 10
2158.49202632904
 20
-1146.40023560785
 30
0.0
 11
2158.49202632904
 21
-1148.40023560785
 31
0.0
  0
LINE
  5
   3DE
  8
0
  6
CONTINUOUS
 62
     7
 10
2158.49202632904
 20
-1258.90029592065
 30
0.0
 11
2158.49202632904
 21
-1260.90029592065
 31
0.0
  0
LINE
  5
   3DF
  8
0
  6
CONTINUOUS
 62
     7
 10
2158.24202632904
 20
-1259.15029592065
 30
0.0
 11
2159.24202632904
 21
-1259.15029592065
 31
0.0
  0
LINE
  5
   3E0
  8
0
  6
CONTINUOUS
 62
     7
 10
2158.24202632904
 20
-1260.65029592065
 30
0.0
 11
2159.24202632904
 21
-1260.65029592065
 31
0.0
  0
LINE
  5
   3E1
  8
0
  6
CONTINUOUS
 62
     7
 10
2158.49202632904
 20
-1258.90029592065
 30
0.0
 11
2158.24202632904
 21
-1259.15029592065
 31
0.0
  0
LINE
  5
   3E2
  8
0
  6
CONTINUOUS
 62
     7
 10
2158.24202632904
 20
-1260.65029592065
 30
0.0
 11
2158.49202632904
 21
-1260.90029592065
 31
0.0
  0
LINE
  5
   3E3
  8
0
  6
DOT
 62
     7
 10
2184.24201664171
 20
-1145.40026855469
 30
0.0
 11
2184.24201664171
 21
-1149.90026855469
 31
0.0
  0
LINE
  5
   3E4
  8
0
  6
CONTINUOUS
 62
     7
 10
2184.24201664171
 20
-1204.90026855469
 30
0.0
 11
2184.24201664171
 21
-1264.90021514893
 31
0.0
  0
LINE
  5
   3E5
  8
0
  6
DOT
 62
     7
 10
2158.39194208462
 20
-1195.82184707559
 30
0.0
 11
2158.24194208462
 21
-1195.97184707559
 31
0.0
  0
LINE
  5
   3E6
  8
0
  6
DOT
 62
     7
 10
2158.24194208462
 20
-1197.67184707559
 30
0.0
 11
2158.39194208462
 21
-1197.82184707559
 31
0.0
  0
LINE
  5
   3E7
  8
0
  6
CONTINUOUS
 62
     7
 10
2197.49201214314
 20
-1122.90026092529
 30
0.0
 11
2197.49201214314
 21
-1149.65026855469
 31
0.0
  0
LINE
  5
   3E8
  8
0
  6
CONTINUOUS
 62
     7
 10
2197.491959095
 20
-1257.65027236938
 30
0.0
 11
2197.491959095
 21
-1284.40026092529
 31
0.0
  0
LINE
  5
   3E9
  8
0
  6
CONTINUOUS
 62
     7
 10
2197.49192154408
 20
-1204.40026855469
 30
0.0
 11
2197.49192154408
 21
-1211.90026855469
 31
0.0
  0
ARC
  5
   3EA
  8
0
  6
CONTINUOUS
 62
     7
 10
2196.99192154408
 20
-1202.90026855469
 30
0.0
 40
0.5
 50
269.999999844103
 51
359.999999844103
  0
ARC
  5
   3EB
  8
0
  6
CONTINUOUS
 62
     7
 10
2196.99192154408
 20
-1204.40026855469
 30
0.0
 40
0.5
 50
359.999999844103
 51
449.999999844103
  0
LINE
  5
   3EC
  8
0
  6
CONTINUOUS
 62
     7
 10
2162.24202632904
 20
-1142.65026855469
 30
0.0
 11
2195.99201214314
 21
-1142.65026855469
 31
0.0
  0
LINE
  5
   3ED
  8
0
  6
CONTINUOUS
 62
     7
 10
2159.24202632904
 20
-1199.40030150153
 30
0.0
 11
2160.99202632904
 21
-1199.40030150153
 31
0.0
  0
LINE
  5
   3EE
  8
0
  6
CONTINUOUS
 62
     7
 10
2159.24202632904
 20
-1195.40030150153
 30
0.0
 11
2159.24202632904
 21
-1199.40030150153
 31
0.0
  0
LINE
  5
   3EF
  8
0
  6
CONTINUOUS
 62
     7
 10
2158.49202632904
 20
-1196.40030150153
 30
0.0
 11
2158.49202632904
 21
-1198.40030150153
 31
0.0
  0
LINE
  5
   3F0
  8
0
  6
CONTINUOUS
 62
     7
 10
2158.24202632904
 20
-1196.65030150153
 30
0.0
 11
2158.24202632904
 21
-1198.15030150153
 31
0.0
  0
LINE
  5
   3F1
  8
0
  6
CONTINUOUS
 62
     7
 10
2158.24202632904
 20
-1198.15030150153
 30
0.0
 11
2158.49202632904
 21
-1198.40030150153
 31
0.0
  0
LINE
  5
   3F2
  8
0
  6
CONTINUOUS
 62
     7
 10
2158.49202632904
 20
-1196.40030150153
 30
0.0
 11
2158.24202632904
 21
-1196.65030150153
 31
0.0
  0
LINE
  5
   3F3
  8
0
  6
CONTINUOUS
 62
     7
 10
2160.99202632904
 20
-1199.65030150153
 30
0.0
 11
2161.24202632904
 21
-1199.65030150153
 31
0.0
  0
LINE
  5
   3F4
  8
0
  6
CONTINUOUS
 62
     7
 10
2161.24202632904
 20
-1195.15030150153
 30
0.0
 11
2161.24202632904
 21
-1199.65030150153
 31
0.0
  0
LINE
  5
   3F5
  8
0
  6
CONTINUOUS
 62
     7
 10
2160.99202632904
 20
-1195.15030150153
 30
0.0
 11
2161.24202632904
 21
-1195.15030150153
 31
0.0
  0
LINE
  5
   3F6
  8
0
  6
CONTINUOUS
 62
     7
 10
2158.24202632904
 20
-1196.65030150153
 30
0.0
 11
2159.24202632904
 21
-1196.65030150153
 31
0.0
  0
LINE
  5
   3F7
  8
0
  6
CONTINUOUS
 62
     7
 10
2158.24202632904
 20
-1198.15030150153
 30
0.0
 11
2159.24202632904
 21
-1198.15030150153
 31
0.0
  0
LINE
  5
   3F8
  8
0
  6
CONTINUOUS
 62
     7
 10
2158.49202632904
 20
-1198.40030150153
 30
0.0
 11
2159.24202632904
 21
-1198.40030150153
 31
0.0
  0
LINE
  5
   3F9
  8
0
  6
CONTINUOUS
 62
     7
 10
2158.49202632904
 20
-1196.40030150153
 30
0.0
 11
2159.24202632904
 21
-1196.40030150153
 31
0.0
  0
LINE
  5
   3FA
  8
0
  6
CONTINUOUS
 62
     7
 10
2159.24202632904
 20
-1199.40030150153
 30
0.0
 11
2160.99202632904
 21
-1199.40030150153
 31
0.0
  0
LINE
  5
   3FB
  8
0
  6
CONTINUOUS
 62
     7
 10
2160.99202632904
 20
-1199.65030150153
 30
0.0
 11
2161.24202632904
 21
-1199.65030150153
 31
0.0
  0
LINE
  5
   3FC
  8
0
  6
CONTINUOUS
 62
     7
 10
2160.99202632904
 20
-1195.15030150153
 30
0.0
 11
2160.99202632904
 21
-1199.65030150153
 31
0.0
  0
LINE
  5
   3FD
  8
0
  6
CONTINUOUS
 62
     7
 10
2159.24202632904
 20
-1198.40030150153
 30
0.0
 11
2160.99202632904
 21
-1198.40030150153
 31
0.0
  0
LINE
  5
   3FE
  8
0
  6
CONTINUOUS
 62
     7
 10
2159.24202632904
 20
-1196.40030150153
 30
0.0
 11
2160.99202632904
 21
-1196.40030150153
 31
0.0
  0
LINE
  5
   3FF
  8
0
  6
CONTINUOUS
 62
     7
 10
2159.24202632904
 20
-1195.40030150153
 30
0.0
 11
2160.99202632904
 21
-1195.40030150153
 31
0.0
  0
LINE
  5
   400
  8
0
  6
CONTINUOUS
 62
     7
 10
2159.24202632904
 20
-1211.90023560785
 30
0.0
 11
2160.99202632904
 21
-1211.90023560785
 31
0.0
  0
LINE
  5
   401
  8
0
  6
CONTINUOUS
 62
     7
 10
2159.24202632904
 20
-1210.90023560785
 30
0.0
 11
2160.99202632904
 21
-1210.90023560785
 31
0.0
  0
LINE
  5
   402
  8
0
  6
CONTINUOUS
 62
     7
 10
2159.24202632904
 20
-1208.90023560785
 30
0.0
 11
2160.99202632904
 21
-1208.90023560785
 31
0.0
  0
LINE
  5
   403
  8
0
  6
CONTINUOUS
 62
     7
 10
2159.24202632904
 20
-1207.90023560785
 30
0.0
 11
2160.99202632904
 21
-1207.90023560785
 31
0.0
  0
LINE
  5
   404
  8
0
  6
CONTINUOUS
 62
     7
 10
2159.24202632904
 20
-1207.90023560785
 30
0.0
 11
2159.24202632904
 21
-1211.90023560785
 31
0.0
  0
LINE
  5
   405
  8
0
  6
CONTINUOUS
 62
     7
 10
2160.99202632904
 20
-1207.65023560785
 30
0.0
 11
2160.99202632904
 21
-1212.15023560785
 31
0.0
  0
LINE
  5
   406
  8
0
  6
CONTINUOUS
 62
     7
 10
2160.99202632904
 20
-1212.15023560785
 30
0.0
 11
2161.24202632904
 21
-1212.15023560785
 31
0.0
  0
LINE
  5
   407
  8
0
  6
CONTINUOUS
 62
     7
 10
2161.24202632904
 20
-1207.65023560785
 30
0.0
 11
2161.24202632904
 21
-1212.15023560785
 31
0.0
  0
LINE
  5
   408
  8
0
  6
CONTINUOUS
 62
     7
 10
2160.99202632904
 20
-1207.65023560785
 30
0.0
 11
2161.24202632904
 21
-1207.65023560785
 31
0.0
  0
LINE
  5
   409
  8
0
  6
CONTINUOUS
 62
     7
 10
2158.49202632904
 20
-1210.90023560785
 30
0.0
 11
2159.24202632904
 21
-1210.90023560785
 31
0.0
  0
LINE
  5
   40A
  8
0
  6
CONTINUOUS
 62
     7
 10
2158.49202632904
 20
-1208.90023560785
 30
0.0
 11
2159.24202632904
 21
-1208.90023560785
 31
0.0
  0
LINE
  5
   40B
  8
0
  6
CONTINUOUS
 62
     7
 10
2158.49202632904
 20
-1208.90023560785
 30
0.0
 11
2158.24202632904
 21
-1209.15023560785
 31
0.0
  0
LINE
  5
   40C
  8
0
  6
CONTINUOUS
 62
     7
 10
2158.24202632904
 20
-1210.65023560785
 30
0.0
 11
2158.49202632904
 21
-1210.90023560785
 31
0.0
  0
LINE
  5
   40D
  8
0
  6
CONTINUOUS
 62
     7
 10
2158.24202632904
 20
-1209.15023560785
 30
0.0
 11
2158.24202632904
 21
-1210.65023560785
 31
0.0
  0
LINE
  5
   40E
  8
0
  6
CONTINUOUS
 62
     7
 10
2158.24202632904
 20
-1210.65023560785
 30
0.0
 11
2159.24202632904
 21
-1210.65023560785
 31
0.0
  0
LINE
  5
   40F
  8
0
  6
CONTINUOUS
 62
     7
 10
2158.24202632904
 20
-1209.15023560785
 30
0.0
 11
2159.24202632904
 21
-1209.15023560785
 31
0.0
  0
LINE
  5
   410
  8
0
  6
CONTINUOUS
 62
     7
 10
2157.17651367188
 20
-1197.40030150153
 30
0.0
 11
2163.10480555793
 21
-1197.40030150153
 31
0.0
  0
LINE
  5
   411
  8
0
  6
CONTINUOUS
 62
     7
 10
2157.02050599066
 20
-1209.90023560785
 30
0.0
 11
2162.94879787672
 21
-1209.90023560785
 31
0.0
  0
LINE
  5
   412
  8
0
  6
CONTINUOUS
 62
     7
 10
2158.49202632904
 20
-1208.90023560785
 30
0.0
 11
2158.49202632904
 21
-1210.90023560785
 31
0.0
  0
LINE
  5
   413
  8
0
  6
CONTINUOUS
 62
     7
 10
2197.49201214314
 20
-1145.40026855469
 30
0.0
 11
2198.99201214314
 21
-1145.40026855469
 31
0.0
  0
LINE
  5
   414
  8
0
  6
CONTINUOUS
 62
     7
 10
2199.24201214314
 20
-1142.55026855469
 30
0.0
 11
2199.24201214314
 21
-1145.15026855469
 31
0.0
  0
LINE
  5
   415
  8
0
  6
CONTINUOUS
 62
     7
 10
2199.24201214314
 20
-1145.15026855469
 30
0.0
 11
2198.99201214314
 21
-1145.40026855469
 31
0.0
  0
LINE
  5
   416
  8
0
  6
CONTINUOUS
 62
     7
 10
2198.99201214314
 20
-1144.15026855469
 30
0.0
 11
2198.99201214314
 21
-1145.40026855469
 31
0.0
  0
LINE
  5
   417
  8
0
  6
CONTINUOUS
 62
     7
 10
2198.74201214314
 20
-1144.15026855469
 30
0.0
 11
2199.24201214314
 21
-1144.15026855469
 31
0.0
  0
LINE
  5
   418
  8
0
  6
CONTINUOUS
 62
     7
 10
2198.74201214314
 20
-1143.65026855469
 30
0.0
 11
2199.24201214314
 21
-1143.65026855469
 31
0.0
  0
LINE
  5
   419
  8
0
  6
CONTINUOUS
 62
     7
 10
2198.74201214314
 20
-1143.65026855469
 30
0.0
 11
2198.74201214314
 21
-1144.15026855469
 31
0.0
  0
LINE
  5
   41A
  8
0
  6
CONTINUOUS
 62
     7
 10
2198.99201214314
 20
-1142.40026855469
 30
0.0
 11
2198.99201214314
 21
-1143.65026855469
 31
0.0
  0
CIRCLE
  5
   41B
  8
0
  6
CONTINUOUS
 62
     7
 10
2197.99201214314
 20
-1143.90026855469
 30
0.0
 40
0.25
  0
LINE
  5
   41C
  8
0
  6
CONTINUOUS
 62
     7
 10
2197.49201214314
 20
-1142.40026855469
 30
0.0
 11
2199.09201214314
 21
-1142.40026855469
 31
0.0
  0
LINE
  5
   41D
  8
0
  6
CONTINUOUS
 62
     7
 10
2199.09201214314
 20
-1142.40026855469
 30
0.0
 11
2199.24201214314
 21
-1142.55026855469
 31
0.0
  0
LINE
  5
   41E
  8
0
  6
DASHDOT
 62
     7
 10
2195.62212448536
 20
-1143.90026855469
 30
0.0
 11
2201.02046822647
 21
-1143.90026855469
 31
0.0
  0
LINE
  5
   41F
  8
0
  6
CONTINUOUS
 62
     7
 10
2162.24202632904
 20
-1122.40026092529
 30
0.0
 11
2196.74201214314
 21
-1122.40026092529
 31
0.0
  0
LINE
  5
   420
  8
0
  6
CONTINUOUS
 62
     7
 10
2162.24197387695
 20
-1284.90026092529
 30
0.0
 11
2196.741959095
 21
-1284.90026092529
 31
0.0
  0
ARC
  5
   421
  8
0
  6
CONTINUOUS
 62
     7
 10
2196.991959095
 20
-1284.40026092529
 30
0.0
 40
0.5
 50
269.999999844103
 51
359.999999844103
  0
ARC
  5
   422
  8
0
  6
CONTINUOUS
 62
     7
 10
2196.99201214314
 20
-1122.90026092529
 30
0.0
 40
0.5
 50
359.999999844103
 51
449.999999844103
  0
LINE
  5
   423
  8
0
  6
DASHDOT
 62
     7
 10
2166.45819258209
 20
-1147.65026855469
 30
0.0
 11
2185.49023489075
 21
-1147.65026855469
 31
0.0
  0
LINE
  5
   424
  8
0
  6
DOT
 62
     7
 10
2168.49201936722
 20
-1150.65027618409
 30
0.0
 11
2174.74201966524
 21
-1150.65027618409
 31
0.0
  0
LINE
  5
   425
  8
0
  6
DOT
 62
     7
 10
2178.24201936722
 20
-1144.65027452697
 30
0.0
 11
2178.24201936722
 21
-1146.15027452697
 31
0.0
  0
LINE
  5
   426
  8
0
  6
DOT
 62
     7
 10
2169.49201936722
 20
-1144.65027452697
 30
0.0
 11
2169.49201936722
 21
-1150.65027452697
 31
0.0
  0
LINE
  5
   427
  8
0
  6
DOT
 62
     7
 10
2168.49201936722
 20
-1144.65027452697
 30
0.0
 11
2168.49201936722
 21
-1150.65027452697
 31
0.0
  0
LINE
  5
   428
  8
0
  6
DOT
 62
     7
 10
2168.49201936722
 20
-1144.65027452697
 30
0.0
 11
2178.24201936722
 21
-1144.65027452697
 31
0.0
  0
LINE
  5
   429
  8
0
  6
DOT
 62
     7
 10
2176.24201936722
 20
-1150.65027452697
 30
0.0
 11
2178.24201936722
 21
-1150.65027452697
 31
0.0
  0
LINE
  5
   42A
  8
0
  6
DOT
 62
     7
 10
2176.49201936722
 20
-1146.15027452697
 30
0.0
 11
2183.99201664171
 21
-1146.15027452697
 31
0.0
  0
LINE
  5
   42B
  8
0
  6
DOT
 62
     7
 10
2176.49201936722
 20
-1149.15027452697
 30
0.0
 11
2183.99201664171
 21
-1149.15027452697
 31
0.0
  0
LINE
  5
   42C
  8
0
  6
CONTINUOUS
 62
     7
 10
2176.49201936722
 20
-1146.15027452697
 30
0.0
 11
2176.24201936722
 21
-1146.40027452697
 31
0.0
  0
LINE
  5
   42D
  8
0
  6
CONTINUOUS
 62
     7
 10
2176.24201936722
 20
-1148.90027452697
 30
0.0
 11
2176.49201936722
 21
-1149.15027452697
 31
0.0
  0
LINE
  5
   42E
  8
0
  6
DOT
 62
     7
 10
2176.49201936722
 20
-1146.15027452697
 30
0.0
 11
2176.49201936722
 21
-1149.15027452697
 31
0.0
  0
LINE
  5
   42F
  8
0
  6
DOT
 62
     7
 10
2178.24201936722
 20
-1149.15027452697
 30
0.0
 11
2178.24201936722
 21
-1150.65027452697
 31
0.0
  0
LINE
  5
   430
  8
0
  6
DOT
 62
     7
 10
2176.24201936722
 20
-1146.40027452697
 30
0.0
 11
2183.74201936722
 21
-1146.40027452697
 31
0.0
  0
LINE
  5
   431
  8
0
  6
DOT
 62
     7
 10
2176.24201936722
 20
-1148.90027452697
 30
0.0
 11
2183.74201936722
 21
-1148.90027452697
 31
0.0
  0
LINE
  5
   432
  8
0
  6
DOT
 62
     7
 10
2174.74202576876
 20
-1145.02527687681
 30
0.0
 11
2174.74202576876
 21
-1150.87527236938
 31
0.0
  0
LINE
  5
   433
  8
0
  6
DOT
 62
     7
 10
2176.24202547073
 20
-1145.02527999878
 30
0.0
 11
2176.24202547073
 21
-1151.12527236938
 31
0.0
  0
LINE
  5
   434
  8
0
  6
DOT
 62
     7
 10
2174.74202576885
 20
-1145.02527340891
 30
0.0
 11
2176.24202547074
 21
-1145.02528381263
 31
0.0
  0
LINE
  5
   435
  8
0
  6
CONTINUOUS
 62
     7
 10
2169.49201936722
 20
-1149.42398776718
 30
0.0
 11
2170.02417895425
 21
-1150.65026855469
 31
0.0
  0
LINE
  5
   436
  8
0
  6
CONTINUOUS
 62
     7
 10
2169.49201936722
 20
-1146.91201266707
 30
0.0
 11
2171.11428135618
 21
-1150.65026855469
 31
0.0
  0
LINE
  5
   437
  8
0
  6
CONTINUOUS
 62
     7
 10
2169.49193284134
 20
-1144.39983818123
 30
0.0
 11
2172.20438375812
 21
-1150.65026855469
 31
0.0
  0
LINE
  5
   438
  8
0
  6
CONTINUOUS
 62
     7
 10
2170.58203524327
 20
-1144.39983818123
 30
0.0
 11
2173.29448616006
 21
-1150.65026855469
 31
0.0
  0
LINE
  5
   439
  8
0
  6
CONTINUOUS
 62
     7
 10
2171.67213764521
 20
-1144.39983818123
 30
0.0
 11
2174.38458856199
 21
-1150.65026855469
 31
0.0
  0
LINE
  5
   43A
  8
0
  6
CONTINUOUS
 62
     7
 10
2172.76224004714
 20
-1144.39983818123
 30
0.0
 11
2174.74202576876
 21
-1148.96195310495
 31
0.0
  0
LINE
  5
   43B
  8
0
  6
CONTINUOUS
 62
     7
 10
2173.85234244908
 20
-1144.39983818123
 30
0.0
 11
2174.74202576876
 21
-1146.44997800483
 31
0.0
  0
LINE
  5
   43C
  8
0
  6
DOT
 62
     7
 10
2184.24201664171
 20
-1145.40026855469
 30
0.0
 11
2184.99201936722
 21
-1145.40026855469
 31
0.0
  0
LINE
  5
   43D
  8
0
  6
DOT
 62
     7
 10
2184.24201664171
 20
-1149.90026855469
 30
0.0
 11
2184.99201936722
 21
-1149.90026855469
 31
0.0
  0
LINE
  5
   43E
  8
0
  6
DOT
 62
     7
 10
2185.99201936722
 20
-1146.40026855469
 30
0.0
 11
2185.99201936722
 21
-1148.90026855469
 31
0.0
  0
ARC
  5
   43F
  8
0
  6
DOT
 62
     7
 10
2184.99201936722
 20
-1146.40026855469
 30
0.0
 40
1.0
 50
359.999999844103
 51
449.999999844103
  0
ARC
  5
   440
  8
0
  6
DOT
 62
     7
 10
2184.99201936722
 20
-1148.90026855469
 30
0.0
 40
1.0
 50
269.999999844103
 51
359.999999844103
  0
LINE
  5
   441
  8
0
  6
CONTINUOUS
 62
     7
 10
2168.97811456024
 20
-1118.05610088364
 30
0.0
 11
2168.97811456024
 21
-1144.65027452697
 31
0.0
  0
LINE
  5
   442
  8
0
  6
CONTINUOUS
 62
     7
 10
2175.14529203308
 20
-1118.05610088364
 30
0.0
 11
2175.14529203308
 21
-1144.65027452697
 31
0.0
  0
LINE
  5
   443
  8
0
  6
CONTINUOUS
 62
     7
 10
2167.58552609863
 20
-1118.05610088364
 30
0.0
 11
2177.00207664856
 21
-1118.05610088364
 31
0.0
  0
LINE
  5
   444
  8
0
  6
DOT
 62
     7
 10
2184.24201664171
 20
-1257.4002532959
 30
0.0
 11
2184.24201664171
 21
-1261.9002532959
 31
0.0
  0
LINE
  5
   445
  8
0
  6
CONTINUOUS
 62
     7
 10
2162.24202632904
 20
-1264.6502532959
 30
0.0
 11
2195.99201214314
 21
-1264.6502532959
 31
0.0
  0
LINE
  5
   446
  8
0
  6
DASHDOT
 62
     7
 10
2166.45819258209
 20
-1259.6502532959
 30
0.0
 11
2185.49023489075
 21
-1259.6502532959
 31
0.0
  0
LINE
  5
   447
  8
0
  6
DOT
 62
     7
 10
2168.49201936722
 20
-1256.6502456665
 30
0.0
 11
2174.74201966524
 21
-1256.6502456665
 31
0.0
  0
LINE
  5
   448
  8
0
  6
DOT
 62
     7
 10
2178.24201936722
 20
-1261.15024732362
 30
0.0
 11
2178.24201936722
 21
-1262.65024732362
 31
0.0
  0
LINE
  5
   449
  8
0
  6
DOT
 62
     7
 10
2169.49201936722
 20
-1256.65024732362
 30
0.0
 11
2169.49201936722
 21
-1262.65024732362
 31
0.0
  0
LINE
  5
   44A
  8
0
  6
DOT
 62
     7
 10
2168.49201936722
 20
-1256.65024732362
 30
0.0
 11
2168.49201936722
 21
-1262.65024732362
 31
0.0
  0
LINE
  5
   44B
  8
0
  6
DOT
 62
     7
 10
2168.49201936722
 20
-1262.65024732362
 30
0.0
 11
2178.24201936722
 21
-1262.65024732362
 31
0.0
  0
LINE
  5
   44C
  8
0
  6
DOT
 62
     7
 10
2176.24201936722
 20
-1256.65024732362
 30
0.0
 11
2178.24201936722
 21
-1256.65024732362
 31
0.0
  0
LINE
  5
   44D
  8
0
  6
DOT
 62
     7
 10
2176.49201936722
 20
-1261.15024732362
 30
0.0
 11
2183.99201664171
 21
-1261.15024732362
 31
0.0
  0
LINE
  5
   44E
  8
0
  6
DOT
 62
     7
 10
2176.49201936722
 20
-1258.15024732362
 30
0.0
 11
2183.99201664171
 21
-1258.15024732362
 31
0.0
  0
LINE
  5
   44F
  8
0
  6
CONTINUOUS
 62
     7
 10
2176.24201936722
 20
-1260.90024732362
 30
0.0
 11
2176.49201936722
 21
-1261.15024732362
 31
0.0
  0
LINE
  5
   450
  8
0
  6
CONTINUOUS
 62
     7
 10
2176.49201936722
 20
-1258.15024732362
 30
0.0
 11
2176.24201936722
 21
-1258.40024732362
 31
0.0
  0
LINE
  5
   451
  8
0
  6
DOT
 62
     7
 10
2176.49201936722
 20
-1258.15024732362
 30
0.0
 11
2176.49201936722
 21
-1261.15024732362
 31
0.0
  0
LINE
  5
   452
  8
0
  6
DOT
 62
     7
 10
2178.24201936722
 20
-1256.65024732362
 30
0.0
 11
2178.24201936722
 21
-1258.15024732362
 31
0.0
  0
LINE
  5
   453
  8
0
  6
DOT
 62
     7
 10
2176.24201936722
 20
-1260.90024732362
 30
0.0
 11
2183.74201936722
 21
-1260.90024732362
 31
0.0
  0
LINE
  5
   454
  8
0
  6
DOT
 62
     7
 10
2176.24201936722
 20
-1258.40024732362
 30
0.0
 11
2183.74201936722
 21
-1258.40024732362
 31
0.0
  0
LINE
  5
   455
  8
0
  6
DOT
 62
     7
 10
2174.74202576876
 20
-1256.4252494812
 30
0.0
 11
2174.74202576876
 21
-1262.27524497377
 31
0.0
  0
LINE
  5
   456
  8
0
  6
DOT
 62
     7
 10
2176.24202547073
 20
-1256.1752494812
 30
0.0
 11
2176.24202547073
 21
-1262.27524185181
 31
0.0
  0
LINE
  5
   457
  8
0
  6
DOT
 62
     7
 10
2176.24202547038
 20
-1262.27523803796
 30
0.0
 11
2174.74202576952
 21
-1262.27524844168
 31
0.0
  0
LINE
  5
   458
  8
0
  6
CONTINUOUS
 62
     7
 10
2170.02417895425
 20
-1256.6502532959
 30
0.0
 11
2169.49201936722
 21
-1257.8765340834
 31
0.0
  0
LINE
  5
   459
  8
0
  6
CONTINUOUS
 62
     7
 10
2171.11428135618
 20
-1256.6502532959
 30
0.0
 11
2169.49201936722
 21
-1260.38850918352
 31
0.0
  0
LINE
  5
   45A
  8
0
  6
CONTINUOUS
 62
     7
 10
2172.20438375812
 20
-1256.6502532959
 30
0.0
 11
2169.49193284134
 21
-1262.90068366936
 31
0.0
  0
LINE
  5
   45B
  8
0
  6
CONTINUOUS
 62
     7
 10
2173.29448616006
 20
-1256.6502532959
 30
0.0
 11
2170.58203524327
 21
-1262.90068366936
 31
0.0
  0
LINE
  5
   45C
  8
0
  6
CONTINUOUS
 62
     7
 10
2174.38458856199
 20
-1256.6502532959
 30
0.0
 11
2171.67213764521
 21
-1262.90068366936
 31
0.0
  0
LINE
  5
   45D
  8
0
  6
CONTINUOUS
 62
     7
 10
2174.74202576876
 20
-1258.33856874564
 30
0.0
 11
2172.76224004714
 21
-1262.90068366936
 31
0.0
  0
LINE
  5
   45E
  8
0
  6
CONTINUOUS
 62
     7
 10
2174.74202576876
 20
-1260.85054384575
 30
0.0
 11
2173.85234244908
 21
-1262.90068366936
 31
0.0
  0
LINE
  5
   45F
  8
0
  6
DOT
 62
     7
 10
2184.24201664171
 20
-1261.9002532959
 30
0.0
 11
2184.99201936722
 21
-1261.9002532959
 31
0.0
  0
LINE
  5
   460
  8
0
  6
DOT
 62
     7
 10
2184.24201664171
 20
-1257.4002532959
 30
0.0
 11
2184.99201936722
 21
-1257.4002532959
 31
0.0
  0
LINE
  5
   461
  8
0
  6
DOT
 62
     7
 10
2185.99201936722
 20
-1258.4002532959
 30
0.0
 11
2185.99201936722
 21
-1260.9002532959
 31
0.0
  0
ARC
  5
   462
  8
0
  6
DOT
 62
     7
 10
2184.99201936722
 20
-1260.9002532959
 30
0.0
 40
1.0
 50
269.999999844103
 51
359.999999844103
  0
ARC
  5
   463
  8
0
  6
DOT
 62
     7
 10
2184.99201936722
 20
-1258.4002532959
 30
0.0
 40
1.0
 50
359.999999844103
 51
449.999999844103
  0
LINE
  5
   464
  8
0
  6
CONTINUOUS
 62
     7
 10
2168.97811456024
 20
-1262.65024732362
 30
0.0
 11
2168.97811456024
 21
-1289.24442096694
 31
0.0
  0
LINE
  5
   465
  8
0
  6
CONTINUOUS
 62
     7
 10
2175.14529203308
 20
-1262.65024732362
 30
0.0
 11
2175.14529203308
 21
-1289.24442096694
 31
0.0
  0
LINE
  5
   466
  8
0
  6
CONTINUOUS
 62
     7
 10
2167.58552609863
 20
-1289.24442096694
 30
0.0
 11
2177.00207664856
 21
-1289.24442096694
 31
0.0
  0
LINE
  5
   467
  8
0
  6
CONTINUOUS
 62
     7
 10
2184.24201664171
 20
-1142.65026855469
 30
0.0
 11
2184.24201664171
 21
-1202.40026855469
 31
0.0
  0
CIRCLE
  5
   468
  8
0
  6
CONTINUOUS
 62
     7
 10
2163.34664311655
 20
-1085.71372351466
 30
0.0
 40
1.5
  0
CIRCLE
  5
   469
  8
0
  6
CONTINUOUS
 62
     7
 10
2176.00398303662
 20
-1101.48352407082
 30
0.0
 40
1.5
  0
INSERT
  5
   46A
  8
0
  6
CONTINUOUS
 62
     7
  2
*HATCH732
 10
2195.09594726563
 20
-1181.65026855469
 30
0.0
 41
0.5
 42
0.5
 50
269.999999844103
 43
0.5
  0
INSERT
  5
   46B
  8
0
  6
CONTINUOUS
 62
     7
  2
*HATCH733
 10
2195.09594726563
 20
-1181.65026855469
 30
0.0
 41
0.5
 42
0.5
 50
269.999999844103
 43
0.5
  0
LINE
  5
   46C
  8
0
  6
CONTINUOUS
 62
     7
 10
2162.24202632904
 20
-1203.90026855469
 30
0.0
 11
2196.74192154408
 21
-1203.90026855469
 31
0.0
  0
LINE
  5
   46D
  8
0
  6
DASHDOT
 62
     7
 10
2191.3309797514
 20
-1262.65027618408
 30
0.0
 11
2199.94581381315
 21
-1262.65027618408
 31
0.0
  0
LINE
  5
   46E
  8
0
  6
CONTINUOUS
 62
     7
 10
2197.49192154408
 20
-1261.15027618408
 30
0.0
 11
2199.09192154408
 21
-1261.15027618408
 31
0.0
  0
LINE
  5
   46F
  8
0
  6
CONTINUOUS
 62
     7
 10
2199.09192154408
 20
-1261.15027618408
 30
0.0
 11
2199.24192154408
 21
-1261.30027618408
 31
0.0
  0
LINE
  5
   470
  8
0
  6
CONTINUOUS
 62
     7
 10
2199.24192154408
 20
-1261.30027618408
 30
0.0
 11
2199.24192154408
 21
-1263.90027618408
 31
0.0
  0
LINE
  5
   471
  8
0
  6
CONTINUOUS
 62
     7
 10
2198.99192154408
 20
-1261.15027618408
 30
0.0
 11
2198.99192154408
 21
-1262.40027618408
 31
0.0
  0
LINE
  5
   472
  8
0
  6
CONTINUOUS
 62
     7
 10
2198.74192154408
 20
-1262.40027618408
 30
0.0
 11
2199.24192154408
 21
-1262.40027618408
 31
0.0
  0
LINE
  5
   473
  8
0
  6
CONTINUOUS
 62
     7
 10
2198.74192154408
 20
-1262.40027618408
 30
0.0
 11
2198.74192154408
 21
-1262.90027618408
 31
0.0
  0
LINE
  5
   474
  8
0
  6
CONTINUOUS
 62
     7
 10
2198.74192154408
 20
-1262.90027618408
 30
0.0
 11
2199.24192154408
 21
-1262.90027618408
 31
0.0
  0
LINE
  5
   475
  8
0
  6
CONTINUOUS
 62
     7
 10
2198.99192154408
 20
-1262.90027618408
 30
0.0
 11
2198.99192154408
 21
-1264.15027618408
 31
0.0
  0
LINE
  5
   476
  8
0
  6
CONTINUOUS
 62
     7
 10
2199.24192154408
 20
-1263.90027618408
 30
0.0
 11
2198.99192154408
 21
-1264.15027618408
 31
0.0
  0
LINE
  5
   477
  8
0
  6
CONTINUOUS
 62
     7
 10
2197.49192154408
 20
-1264.15027618408
 30
0.0
 11
2198.99192154408
 21
-1264.15027618408
 31
0.0
  0
CIRCLE
  5
   478
  8
0
  6
CONTINUOUS
 62
     7
 10
2197.99192154408
 20
-1262.65027618408
 30
0.0
 40
0.25
  0
TEXT
  5
   479
  8
0
  6
CONTINUOUS
 62
     2
 10
2166.1038963056
 20
-1086.66620636077
 30
0.0
 40
2.00000008940697
  1
75 mm.CON VITI SIGILLABILI
 50
359.999999844103
 41
0.625
 72
     1
 11
2182.22889702916
 21
-1085.66620635986
 31
0.0
 73
     2
  0
TEXT
  5
   47A
  8
0
  6
CONTINUOUS
 62
     2
 10
2166.10389643673
 20
-1089.66620636077
 30
0.0
 40
2.00000008940697
  1
75 mm. WITH SCREWS TO SEAL
 50
359.999999844103
 41
0.625
 72
     1
 11
2182.22889716029
 21
-1088.66620635986
 31
0.0
 73
     2
  0
INSERT
  5
   47B
  8
0
  6
CONTINUOUS
 62
     3
  2
*UDIM1130
 10
0.0
 20
0.0
 30
0.0
  0
INSERT
  5
   47C
  8
0
  6
CONTINUOUS
 62
     3
  2
*UDIM1131
 10
0.0
 20
0.0
 30
0.0
  0
INSERT
  5
   47D
  8
0
  6
CONTINUOUS
 62
     7
  2
*UDIM1132
 10
0.0
 20
0.0
 30
0.0
  0
TEXT
  5
   47E
  8
0
  6
CONTINUOUS
 62
     2
 10
2209.88053415368
 20
-1103.28846388597
 30
0.0
 40
3.5
  1
:
 50
359.999999844103
 41
0.933333333333334
 72
     1
 11
2211.16386749177
 21
-1101.53846388946
 31
0.0
 73
     2
  0
INSERT
  5
   47F
  8
0
  6
CONTINUOUS
 62
     3
  2
*UDIM1133
 10
0.0
 20
0.0
 30
0.0
  0
TEXT
  5
   480
  8
0
  6
CONTINUOUS
 62
     2
 10
2327.15454415419
 20
-1351.03651070763
 30
0.0
 40
2.50000001341104
  1
1/1
 50
359.999999896069
 41
0.954999921455383
 72
     1
 11
2330.49704389891
 21
-1349.78651070697
 31
0.0
 73
     2
  0
TEXT
  5
   481
  8
0
  6
CONTINUOUS
 62
     2
 10
2177.29172852466
 20
-1338.087385126
 30
0.0
 40
2.50000001341104
  1
M3727 95-01-18
 50
359.999999896069
 41
0.649999610972401
 11
2177.29172852692
 21
-1336.8373851193
 31
0.0
 73
     2
  0
LINE
  5
   482
  8
0
  6
CONTINUOUS
 62
     7
 10
2294.95703162253
 20
-1139.09018538892
 30
0.0
 11
2251.7570309788
 21
-1139.09018538892
 31
0.0
  0
LINE
  5
   483
  8
0
  6
CONTINUOUS
 62
     7
 10
2294.95703162253
 20
-1160.29018570483
 30
0.0
 11
2251.7570309788
 21
-1160.29018570483
 31
0.0
  0
LINE
  5
   484
  8
0
  6
CONTINUOUS
 62
     7
 10
2295.55703163147
 20
-1139.69018539786
 30
0.0
 11
2295.55703163147
 21
-1159.69018569589
 31
0.0
  0
LINE
  5
   485
  8
0
  6
CONTINUOUS
 62
     7
 10
2251.15703096986
 20
-1139.69018539786
 30
0.0
 11
2251.15703096986
 21
-1159.69018569589
 31
0.0
  0
ARC
  5
   486
  8
0
  6
CONTINUOUS
 62
     7
 10
2294.95703162253
 20
-1139.69018539786
 30
0.0
 40
0.600000008940697
 50
359.999999896069
 51
449.999999896069
  0
ARC
  5
   487
  8
0
  6
CONTINUOUS
 62
     7
 10
2294.95703162253
 20
-1159.69018569589
 30
0.0
 40
0.600000008940697
 50
269.999999896069
 51
359.999999896069
  0
ARC
  5
   488
  8
0
  6
CONTINUOUS
 62
     7
 10
2251.7570309788
 20
-1159.69018569589
 30
0.0
 40
0.600000008940697
 50
179.999999896069
 51
269.999999896069
  0
ARC
  5
   489
  8
0
  6
CONTINUOUS
 62
     7
 10
2251.7570309788
 20
-1139.69018539786
 30
0.0
 40
0.600000008940697
 50
449.999999896069
 51
539.999999896069
  0
LINE
  5
   48A
  8
0
  6
DASHDOT
 62
     7
 10
2306.054498152
 20
-1149.69018554688
 30
0.0
 11
2240.76818292622
 21
-1149.69018554688
 31
0.0
  0
CIRCLE
  5
   48B
  8
0
  6
CONTINUOUS
 62
     7
 10
2251.65703097731
 20
-1136.89018535614
 30
0.0
 40
0.800000011920929
  0
CIRCLE
  5
   48C
  8
0
  6
CONTINUOUS
 62
     7
 10
2295.05703162402
 20
-1136.89018535614
 30
0.0
 40
0.800000011920929
  0
CIRCLE
  5
   48D
  8
0
  6
CONTINUOUS
 62
     7
 10
2295.05703162402
 20
-1162.49018573761
 30
0.0
 40
0.800000011920929
  0
CIRCLE
  5
   48E
  8
0
  6
CONTINUOUS
 62
     7
 10
2251.65703097731
 20
-1162.49018573761
 30
0.0
 40
0.800000011920929
  0
LINE
  5
   48F
  8
0
  6
DASHDOT
 62
     7
 10
2256.45703104883
 20
-1136.89018535614
 30
0.0
 11
2246.85703090578
 21
-1136.89018535614
 31
0.0
  0
LINE
  5
   490
  8
0
  6
DASHDOT
 62
     7
 10
2251.65703097731
 20
-1158.49018567801
 30
0.0
 11
2251.65703097731
 21
-1166.49018579721
 31
0.0
  0
LINE
  5
   491
  8
0
  6
DASHDOT
 62
     7
 10
2255.65703103691
 20
-1162.49018573761
 30
0.0
 11
2247.6570309177
 21
-1162.49018573761
 31
0.0
  0
LINE
  5
   492
  8
0
  6
DASHDOT
 62
     7
 10
2295.05703162402
 20
-1158.49018567801
 30
0.0
 11
2295.05703162402
 21
-1166.49018579721
 31
0.0
  0
LINE
  5
   493
  8
0
  6
DASHDOT
 62
     7
 10
2299.05703168362
 20
-1162.49018573761
 30
0.0
 11
2291.05703156441
 21
-1162.49018573761
 31
0.0
  0
LINE
  5
   494
  8
0
  6
DASHDOT
 62
     7
 10
2295.05703162402
 20
-1132.09018528461
 30
0.0
 11
2295.05703162402
 21
-1141.69018542767
 31
0.0
  0
LINE
  5
   495
  8
0
  6
DASHDOT
 62
     7
 10
2299.85703169555
 20
-1136.89018535614
 30
0.0
 11
2290.25703155249
 21
-1136.89018535614
 31
0.0
  0
LINE
  5
   496
  8
0
  6
CONTINUOUS
 62
     7
 10
2294.95703162253
 20
-1189.09444394654
 30
0.0
 11
2251.7570309788
 21
-1189.09444394654
 31
0.0
  0
LINE
  5
   497
  8
0
  6
CONTINUOUS
 62
     7
 10
2294.95703162253
 20
-1210.29444426245
 30
0.0
 11
2251.7570309788
 21
-1210.29444426245
 31
0.0
  0
LINE
  5
   498
  8
0
  6
CONTINUOUS
 62
     7
 10
2295.55703163147
 20
-1189.69444395549
 30
0.0
 11
2295.55703163147
 21
-1209.69444425351
 31
0.0
  0
LINE
  5
   499
  8
0
  6
CONTINUOUS
 62
     7
 10
2251.15703096986
 20
-1189.69444395549
 30
0.0
 11
2251.15703096986
 21
-1209.69444425351
 31
0.0
  0
ARC
  5
   49A
  8
0
  6
CONTINUOUS
 62
     7
 10
2294.95703162253
 20
-1189.69444395549
 30
0.0
 40
0.600000008940697
 50
359.999999896069
 51
449.999999896069
  0
ARC
  5
   49B
  8
0
  6
CONTINUOUS
 62
     7
 10
2294.95703162253
 20
-1209.69444425351
 30
0.0
 40
0.600000008940697
 50
269.999999896069
 51
359.999999896069
  0
ARC
  5
   49C
  8
0
  6
CONTINUOUS
 62
     7
 10
2251.7570309788
 20
-1209.69444425351
 30
0.0
 40
0.600000008940697
 50
179.999999896069
 51
269.999999896069
  0
ARC
  5
   49D
  8
0
  6
CONTINUOUS
 62
     7
 10
2251.7570309788
 20
-1189.69444395549
 30
0.0
 40
0.600000008940697
 50
449.999999896069
 51
539.999999896069
  0
LINE
  5
   49E
  8
0
  6
DASHDOT
 62
     7
 10
2304.74259726388
 20
-1199.6944441045
 30
0.0
 11
2240.76818292622
 21
-1199.6944441045
 31
0.0
  0
CIRCLE
  5
   49F
  8
0
  6
CONTINUOUS
 62
     7
 10
2251.65703097731
 20
-1186.89444391376
 30
0.0
 40
0.800000011920929
  0
CIRCLE
  5
   4A0
  8
0
  6
CONTINUOUS
 62
     7
 10
2295.05703162402
 20
-1186.89444391376
 30
0.0
 40
0.800000011920929
  0
CIRCLE
  5
   4A1
  8
0
  6
CONTINUOUS
 62
     7
 10
2295.05703162402
 20
-1212.49444429523
 30
0.0
 40
0.800000011920929
  0
CIRCLE
  5
   4A2
  8
0
  6
CONTINUOUS
 62
     7
 10
2251.65703097731
 20
-1212.49444429523
 30
0.0
 40
0.800000011920929
  0
LINE
  5
   4A3
  8
0
  6
DASHDOT
 62
     7
 10
2251.65703097731
 20
-1184.37721185317
 30
0.0
 11
2251.65703097731
 21
-1191.69444398529
 31
0.0
  0
LINE
  5
   4A4
  8
0
  6
DASHDOT
 62
     7
 10
2256.45703104883
 20
-1186.89444391376
 30
0.0
 11
2246.85703090578
 21
-1186.89444391376
 31
0.0
  0
LINE
  5
   4A5
  8
0
  6
DASHDOT
 62
     7
 10
2251.65703097731
 20
-1208.49444423563
 30
0.0
 11
2251.65703097731
 21
-1216.49444435484
 31
0.0
  0
LINE
  5
   4A6
  8
0
  6
DASHDOT
 62
     7
 10
2256.05703104287
 20
-1212.49444429523
 30
0.0
 11
2248.05703092366
 21
-1212.49444429523
 31
0.0
  0
LINE
  5
   4A7
  8
0
  6
DASHDOT
 62
     7
 10
2295.05703162402
 20
-1208.49444423563
 30
0.0
 11
2295.05703162402
 21
-1216.49444435484
 31
0.0
  0
LINE
  5
   4A8
  8
0
  6
DASHDOT
 62
     7
 10
2299.05703168362
 20
-1212.49444429523
 30
0.0
 11
2291.05703156441
 21
-1212.49444429523
 31
0.0
  0
LINE
  5
   4A9
  8
0
  6
DASHDOT
 62
     7
 10
2295.05703162402
 20
-1182.09444384224
 30
0.0
 11
2295.05703162402
 21
-1191.69444398529
 31
0.0
  0
LINE
  5
   4AA
  8
0
  6
DASHDOT
 62
     7
 10
2299.85703169555
 20
-1186.89444391376
 30
0.0
 11
2290.25703155249
 21
-1186.89444391376
 31
0.0
  0
LINE
  5
   4AB
  8
0
  6
CONTINUOUS
 62
     7
 10
2302.34149084921
 20
-1122.84854350967
 30
0.0
 11
2302.34149084921
 21
-1219.18767272429
 31
0.0
  0
LINE
  5
   4AC
  8
0
  6
CONTINUOUS
 62
     7
 10
2244.74550368958
 20
-1122.84854350967
 30
0.0
 11
2244.74550368958
 21
-1219.18767272429
 31
0.0
  0
LINE
  5
   4AD
  8
0
  6
CONTINUOUS
 62
     7
 10
2302.34149084921
 20
-1122.84854350967
 30
0.0
 11
2244.74550368958
 21
-1122.84854350967
 31
0.0
  0
LINE
  5
   4AE
  8
0
  6
CONTINUOUS
 62
     7
 10
2302.34149084921
 20
-1219.18767272429
 30
0.0
 11
2245.14550369554
 21
-1219.18767272429
 31
0.0
  0
LINE
  5
   4AF
  8
0
  6
DASHDOT
 62
     7
 10
2278.37703137547
 20
-1140.18903996216
 30
0.0
 11
2278.37703137547
 21
-1223.50186770644
 31
0.0
  0
TEXT
  5
   4B0
  8
0
  6
CONTINUOUS
 62
     2
 10
2258.64039343019
 20
-1330.55141779496
 30
0.0
 40
2.00000007748604
  1
INTERR.AUTOM.SERIE ISOMAX DIFFERENZIALE RC 211-212/1
 50
359.999999896069
 41
0.625
 72
     1
 11
2291.0153946863
 21
-1329.55141781478
 31
0.0
 73
     2
  0
TEXT
  5
   4B1
  8
0
  6
CONTINUOUS
 62
     2
 10
2269.26539361534
 20
-1333.55141781418
 30
0.0
 40
2.00000007748604
  1
ESECUZIONE FISSA CON COPRITERMINALI
 50
359.999999896069
 41
0.625
 72
     1
 11
2291.01539445981
 21
-1332.55141781478
 31
0.0
 73
     2
  0
TEXT
  5
   4B2
  8
0
  6
CONTINUOUS
 62
     2
 10
2267.4933826533
 20
-1321.2153554922
 30
0.0
 40
2.00000007748604
  1
4 POLE LOW VOLTAGE M.C.C.B.SERIES ISOMAX
 50
359.999999896069
 41
0.625
 72
     1
 11
2292.36838361884
 21
-1320.21535549846
 31
0.0
 73
     2
  0
TEXT
  5
   4B3
  8
0
  6
CONTINUOUS
 62
     2
 10
2274.36838305079
 20
-1324.21535550464
 30
0.0
 40
2.00000007748604
  1
SELECTED CURRENT RC 211-212/1
 50
359.999999896069
 41
0.625
 72
     1
 11
2292.36838374997
 21
-1323.21535549846
 31
0.0
 73
     2
  0
TEXT
  5
   4B4
  8
0
  6
CONTINUOUS
 62
     2
 10
2273.74338315771
 20
-1327.21535550351
 30
0.0
 40
2.00000007748604
  1
FIXED VERSION TERMINALS COVERS
 50
359.999999896069
 41
0.625
 72
     1
 11
2292.36838388111
 21
-1326.21535549846
 31
0.0
 73
     2
  0
TEXT
  5
   4B5
  8
0
  6
CONTINUOUS
 62
     2
 10
2277.25930846174
 20
-1111.8671711519
 30
0.0
 40
2.99999994933605
  1
Y
 50
359.999999896069
 41
0.916666718787619
 72
     1
 11
2278.35930853774
 21
-1111.86717115389
 31
0.0
  0
TEXT
  5
   4B6
  8
0
  6
CONTINUOUS
 62
     2
 10
2218.06488821612
 20
-1151.22268060362
 30
0.0
 40
2.99999994933605
  1
X
 50
359.999999896069
 41
0.916666718787619
 72
     2
 11
2220.26488837082
 21
-1149.72268063293
 31
0.0
 73
     2
  0
TEXT
  5
   4B7
  8
0
  6
CONTINUOUS
 62
     2
 10
2220.72738828006
 20
-1151.22268077431
 30
0.0
 40
1.49999997466803
  1
1
 50
359.999999896069
 41
0.75
 72
     2
 11
2221.47738826875
 21
-1150.47268078833
 31
0.0
 73
     2
  0
TEXT
  5
   4B8
  8
0
  6
CONTINUOUS
 62
     2
 10
2305.89827551645
 20
-1151.22268090195
 30
0.0
 40
2.99999994933605
  1
X
 50
359.999999896069
 41
0.916666718787619
 11
2305.89827551916
 21
-1149.72268092728
 31
0.0
 73
     2
  0
TEXT
  5
   4B9
  8
0
  6
CONTINUOUS
 62
     2
 10
2308.56077558039
 20
-1151.22268107264
 30
0.0
 40
1.49999997466803
  1
1
 50
359.999999896069
 41
0.75
 11
2308.56077558175
 21
-1150.47268108531
 31
0.0
 73
     2
  0
INSERT
  5
   4BA
  8
0
  6
CONTINUOUS
 62
     3
  2
*UDIM1134
 10
0.0
 20
0.0
 30
0.0
  0
TEXT
  5
   4BB
  8
0
  6
CONTINUOUS
 62
     2
 10
2218.34676096131
 20
-1201.19871817905
 30
0.0
 40
2.99999994933605
  1
X
 50
359.999999896069
 41
0.916666718787619
 72
     2
 11
2220.54676111602
 21
-1199.69871820836
 31
0.0
 73
     2
  0
TEXT
  5
   4BC
  8
0
  6
CONTINUOUS
 62
     2
 10
2221.00926097757
 20
-1201.19871847292
 30
0.0
 40
1.49999997466803
  1
2
 50
359.999999896069
 41
0.75
 72
     2
 11
2221.75926096626
 21
-1200.44871848694
 31
0.0
 73
     2
  0
TEXT
  5
   4BD
  8
0
  6
CONTINUOUS
 62
     2
 10
2277.31568255779
 20
-1226.74246366773
 30
0.0
 40
2.99999994933605
  1
Y
 50
359.999999896069
 41
0.916666718787619
 72
     1
 11
2278.41568263921
 21
-1223.74246372039
 31
0.0
 73
     3
  0
TEXT
  5
   4BE
  8
0
  6
CONTINUOUS
 62
     2
 10
2281.6733625255
 20
-1340.76968378321
 30
0.0
 40
2.99999994933605
  1
RC 211-212/1
 50
359.999999896069
 41
0.916666607525612
 72
     1
 11
2297.89836120605
 21
-1339.26968383789
 31
0.0
 73
     2
  0
TEXT
  5
   4BF
  8
0
  6
CONTINUOUS
 62
     2
 10
2165.50500471635
 20
-1321.03628543145
 30
0.0
 40
2.00000007748604
  1
MOSTOSI
 50
359.999999896069
 41
0.625
 72
     1
 11
2169.75500488281
 21
-1320.03628540039
 31
0.0
 73
     2
  0
TEXT
  5
   4C0
  8
0
  6
CONTINUOUS
 62
     2
 10
2271.35897754374
 20
-1350.24899289162
 30
0.0
 40
5.00000002682209
  1
601855/361
 50
359.999999896069
 41
0.943334007700291
 72
     1
 11
2294.41732788086
 21
-1347.74899291992
 31
0.0
 73
     2
  0
TEXT
  5
   4C1
  8
0
  6
CONTINUOUS
 62
     2
 10
2304.63978624838
 20
-1201.14424806203
 30
0.0
 40
2.99999994933605
  1
X
 50
359.999999896069
 41
0.916666718787619
 72
     1
 11
2305.73978632709
 21
-1199.64424808936
 31
0.0
 73
     2
  0
TEXT
  5
   4C2
  8
0
  6
CONTINUOUS
 62
     2
 10
2307.30228626464
 20
-1201.1442483559
 30
0.0
 40
1.49999997466803
  1
2
 50
359.999999896069
 41
0.75
 72
     1
 11
2307.67728625967
 21
-1200.39424836924
 31
0.0
 73
     2
  0
INSERT
  5
   4C3
  8
0
  6
CONTINUOUS
 62
     3
  2
*UDIM1135
 10
0.0
 20
0.0
 30
0.0
  0
INSERT
  5
   4C4
  8
0
  6
CONTINUOUS
 62
     3
  2
*UDIM1136
 10
0.0
 20
0.0
 30
0.0
  0
INSERT
  5
   4C5
  8
0
  6
CONTINUOUS
 62
     3
  2
*UDIM1137
 10
0.0
 20
0.0
 30
0.0
  0
INSERT
  5
   4C6
  8
0
  6
CONTINUOUS
 62
     3
  2
*UDIM1138
 10
0.0
 20
0.0
 30
0.0
  0
INSERT
  5
   4C7
  8
0
  6
CONTINUOUS
 62
     3
  2
*UDIM1139
 10
0.0
 20
0.0
 30
0.0
  0
INSERT
  5
   4C8
  8
0
  6
CONTINUOUS
 62
     3
  2
*UDIM1140
 10
0.0
 20
0.0
 30
0.0
  0
INSERT
  5
   4C9
  8
0
  6
CONTINUOUS
 62
     3
  2
*UDIM1141
 10
0.0
 20
0.0
 30
0.0
  0
INSERT
  5
   4CA
  8
0
  6
CONTINUOUS
 62
     3
  2
*UDIM1142
 10
0.0
 20
0.0
 30
0.0
  0
INSERT
  5
   4CB
  8
0
  6
CONTINUOUS
 62
     3
  2
*UDIM1143
 10
0.0
 20
0.0
 30
0.0
  0
INSERT
  5
   4CC
  8
0
  6
CONTINUOUS
 62
     3
  2
*UDIM1144
 10
0.0
 20
0.0
 30
0.0
  0
INSERT
  5
   4CD
  8
0
  6
CONTINUOUS
 62
     3
  2
*UDIM1145
 10
0.0
 20
0.0
 30
0.0
  0
INSERT
  5
   4CE
  8
0
  6
CONTINUOUS
 62
     7
  2
*UDIM1146
 10
0.0
 20
0.0
 30
0.0
  0
INSERT
  5
   4CF
  8
0
  6
CONTINUOUS
 62
     7
  2
*UDIM1147
 10
0.0
 20
0.0
 30
0.0
  0
TEXT
  5
   4D0
  8
0
  6
CONTINUOUS
 62
     2
 10
2164.56756423137
 20
-1324.78514667804
 30
0.0
 40
2.00000007748604
  1
22/12/94
 50
359.999999896069
 41
0.625
 72
     1
 11
2169.44256442205
 21
-1323.78514664811
 31
0.0
 73
     2
  0
LINE
  5
   4D1
  8
0
  6
CONTINUOUS
 62
     7
 10
2113.49438476563
 20
-1217.52526855469
 30
0.0
 11
2113.49438476563
 21
-1251.35983955308
 31
0.0
  0
LINE
  5
   4D2
  8
0
  6
CONTINUOUS
 62
     7
 10
2056.11938476563
 20
-1264.90026855469
 30
0.0
 11
2062.57369233642
 21
-1264.90026855469
 31
0.0
  0
LINE
  5
   4D3
  8
0
  6
CONTINUOUS
 62
     7
 10
2055.49438476563
 20
-1217.52526855469
 30
0.0
 11
2055.49438476563
 21
-1264.27526855469
 31
0.0
  0
LINE
  5
   4D4
  8
0
  6
CONTINUOUS
 62
     7
 10
2056.11938476563
 20
-1216.90026855469
 30
0.0
 11
2112.86938476563
 21
-1216.90026855469
 31
0.0
  0
LINE
  5
   4D5
  8
0
  6
CONTINUOUS
 62
     7
 10
2057.99438476563
 20
-1252.90026855469
 30
0.0
 11
2062.57369233642
 21
-1252.90026855469
 31
0.0
  0
LINE
  5
   4D6
  8
0
  6
CONTINUOUS
 62
     7
 10
2057.99438476563
 20
-1228.90026855469
 30
0.0
 11
2110.99438476563
 21
-1228.90026855469
 31
0.0
  0
LINE
  5
   4D7
  8
0
  6
CONTINUOUS
 62
     7
 10
2057.74438476563
 20
-1216.90026855469
 30
0.0
 11
2057.74438476563
 21
-1264.90026855469
 31
0.0
  0
LINE
  5
   4D8
  8
0
  6
CONTINUOUS
 62
     7
 10
2058.24438476563
 20
-1223.65026855469
 30
0.0
 11
2058.24438476563
 21
-1228.90026855469
 31
0.0
  0
LINE
  5
   4D9
  8
0
  6
CONTINUOUS
 62
     7
 10
2058.24438476563
 20
-1252.90026855469
 30
0.0
 11
2058.24438476563
 21
-1258.15026855469
 31
0.0
  0
LINE
  5
   4DA
  8
0
  6
CONTINUOUS
 62
     7
 10
2058.24438476563
 20
-1258.65026855469
 30
0.0
 11
2058.24438476563
 21
-1264.90026855469
 31
0.0
  0
LINE
  5
   4DB
  8
0
  6
CONTINUOUS
 62
     7
 10
2111.24438476563
 20
-1216.90026855469
 30
0.0
 11
2111.24438476563
 21
-1251.35983955308
 31
0.0
  0
LINE
  5
   4DC
  8
0
  6
CONTINUOUS
 62
     7
 10
2110.74438476563
 20
-1223.65026855469
 30
0.0
 11
2110.74438476563
 21
-1228.90026855469
 31
0.0
  0
LINE
  5
   4DD
  8
0
  6
CONTINUOUS
 62
     7
 10
2057.74438476563
 20
-1223.15026855469
 30
0.0
 11
2111.24438476563
 21
-1223.15026855469
 31
0.0
  0
LINE
  5
   4DE
  8
0
  6
CONTINUOUS
 62
     7
 10
2058.24438476563
 20
-1223.65026855469
 30
0.0
 11
2110.74438476563
 21
-1223.65026855469
 31
0.0
  0
LINE
  5
   4DF
  8
0
  6
CONTINUOUS
 62
     7
 10
2058.24438476563
 20
-1258.65026855469
 30
0.0
 11
2062.57369233642
 21
-1258.65026855469
 31
0.0
  0
LINE
  5
   4E0
  8
0
  6
CONTINUOUS
 62
     7
 10
2058.24438476563
 20
-1258.15026855469
 30
0.0
 11
2062.57369233642
 21
-1258.15026855469
 31
0.0
  0
LINE
  5
   4E1
  8
0
  6
CONTINUOUS
 62
     7
 10
2057.74438476563
 20
-1219.65026855469
 30
0.0
 11
2057.8943862915
 21
-1219.65026855469
 31
0.0
  0
LINE
  5
   4E2
  8
0
  6
CONTINUOUS
 62
     7
 10
2057.74438476563
 20
-1220.40026855469
 30
0.0
 11
2057.8943862915
 21
-1220.40026855469
 31
0.0
  0
LINE
  5
   4E3
  8
0
  6
CONTINUOUS
 62
     7
 10
2111.09438467026
 20
-1219.65026855469
 30
0.0
 11
2111.24438476563
 21
-1219.65026855469
 31
0.0
  0
LINE
  5
   4E4
  8
0
  6
CONTINUOUS
 62
     7
 10
2111.09438467026
 20
-1220.40026855469
 30
0.0
 11
2111.24438476563
 21
-1220.40026855469
 31
0.0
  0
ARC
  5
   4E5
  8
0
  6
CONTINUOUS
 62
     7
 10
2057.89436632017
 20
-1220.02528101366
 30
0.0
 40
0.375021724720464
 50
270.002994716444
 51
449.997011754257
  0
ARC
  5
   4E6
  8
0
  6
CONTINUOUS
 62
     7
 10
2111.09439210182
 20
-1220.02527130975
 30
0.0
 40
0.375007470094436
 50
450.001135501493
 51
629.998857587167
  0
ARC
  5
   4E7
  8
0
  6
CONTINUOUS
 62
     7
 10
2112.86938476563
 20
-1217.52526855469
 30
0.0
 40
0.625
 50
359.999999844103
 51
449.999999844103
  0
ARC
  5
   4E8
  8
0
  6
CONTINUOUS
 62
     7
 10
2056.11938476563
 20
-1217.52526855469
 30
0.0
 40
0.625
 50
449.999999844103
 51
539.999999844103
  0
ARC
  5
   4E9
  8
0
  6
CONTINUOUS
 62
     7
 10
2056.11938476563
 20
-1264.27526855469
 30
0.0
 40
0.625
 50
539.999999844103
 51
629.999999844103
  0
LINE
  5
   4EA
  8
0
  6
CONTINUOUS
 62
     7
 10
2110.99438476563
 20
-1228.90026855469
 30
0.0
 11
2110.99438476563
 21
-1251.35983955308
 31
0.0
  0
LINE
  5
   4EB
  8
0
  6
CONTINUOUS
 62
     7
 10
2057.99438476563
 20
-1228.90026855469
 30
0.0
 11
2057.99438476563
 21
-1252.90026855469
 31
0.0
  0
LINE
  5
   4EC
  8
0
  6
CONTINUOUS
 62
     7
 10
2113.49438476563
 20
-1155.02526855469
 30
0.0
 11
2113.49438476563
 21
-1201.77526855469
 31
0.0
  0
LINE
  5
   4ED
  8
0
  6
CONTINUOUS
 62
     7
 10
2056.11938476563
 20
-1202.40026855469
 30
0.0
 11
2112.86938476563
 21
-1202.40026855469
 31
0.0
  0
LINE
  5
   4EE
  8
0
  6
CONTINUOUS
 62
     7
 10
2055.49438476563
 20
-1155.02526855469
 30
0.0
 11
2055.49438476563
 21
-1201.77526855469
 31
0.0
  0
LINE
  5
   4EF
  8
0
  6
CONTINUOUS
 62
     7
 10
2056.11938476563
 20
-1154.40026855469
 30
0.0
 11
2112.86938476563
 21
-1154.40026855469
 31
0.0
  0
LINE
  5
   4F0
  8
0
  6
CONTINUOUS
 62
     7
 10
2057.99438476563
 20
-1190.40026855469
 30
0.0
 11
2110.99438476563
 21
-1190.40026855469
 31
0.0
  0
LINE
  5
   4F1
  8
0
  6
CONTINUOUS
 62
     7
 10
2057.99438476563
 20
-1166.40026855469
 30
0.0
 11
2110.99438476563
 21
-1166.40026855469
 31
0.0
  0
LINE
  5
   4F2
  8
0
  6
CONTINUOUS
 62
     7
 10
2057.74438476563
 20
-1154.40026855469
 30
0.0
 11
2057.74438476563
 21
-1202.40026855469
 31
0.0
  0
LINE
  5
   4F3
  8
0
  6
CONTINUOUS
 62
     7
 10
2058.24438476563
 20
-1161.15026855469
 30
0.0
 11
2058.24438476563
 21
-1166.40026855469
 31
0.0
  0
LINE
  5
   4F4
  8
0
  6
CONTINUOUS
 62
     7
 10
2058.24438476563
 20
-1190.40026855469
 30
0.0
 11
2058.24438476563
 21
-1195.65026855469
 31
0.0
  0
LINE
  5
   4F5
  8
0
  6
CONTINUOUS
 62
     7
 10
2058.24438476563
 20
-1196.15026855469
 30
0.0
 11
2058.24438476563
 21
-1202.40026855469
 31
0.0
  0
LINE
  5
   4F6
  8
0
  6
CONTINUOUS
 62
     7
 10
2111.24438476563
 20
-1154.40026855469
 30
0.0
 11
2111.24438476563
 21
-1202.40026855469
 31
0.0
  0
LINE
  5
   4F7
  8
0
  6
CONTINUOUS
 62
     7
 10
2110.74438476563
 20
-1190.40026855469
 30
0.0
 11
2110.74438476563
 21
-1195.65026855469
 31
0.0
  0
LINE
  5
   4F8
  8
0
  6
CONTINUOUS
 62
     7
 10
2110.74438476563
 20
-1196.15026855469
 30
0.0
 11
2110.74438476563
 21
-1202.40026855469
 31
0.0
  0
LINE
  5
   4F9
  8
0
  6
CONTINUOUS
 62
     7
 10
2110.74438476563
 20
-1161.15026855469
 30
0.0
 11
2110.74438476563
 21
-1166.40026855469
 31
0.0
  0
LINE
  5
   4FA
  8
0
  6
CONTINUOUS
 62
     7
 10
2057.74438476563
 20
-1160.65026855469
 30
0.0
 11
2111.24438476563
 21
-1160.65026855469
 31
0.0
  0
LINE
  5
   4FB
  8
0
  6
CONTINUOUS
 62
     7
 10
2058.24438476563
 20
-1161.15026855469
 30
0.0
 11
2110.74438476563
 21
-1161.15026855469
 31
0.0
  0
LINE
  5
   4FC
  8
0
  6
CONTINUOUS
 62
     7
 10
2058.24438476563
 20
-1196.15026855469
 30
0.0
 11
2110.74438476563
 21
-1196.15026855469
 31
0.0
  0
LINE
  5
   4FD
  8
0
  6
CONTINUOUS
 62
     7
 10
2058.24438476563
 20
-1195.65026855469
 30
0.0
 11
2110.74438476563
 21
-1195.65026855469
 31
0.0
  0
LINE
  5
   4FE
  8
0
  6
CONTINUOUS
 62
     7
 10
2057.74438476563
 20
-1157.15026855469
 30
0.0
 11
2057.8943862915
 21
-1157.15026855469
 31
0.0
  0
LINE
  5
   4FF
  8
0
  6
CONTINUOUS
 62
     7
 10
2057.74438476563
 20
-1157.90026855469
 30
0.0
 11
2057.8943862915
 21
-1157.90026855469
 31
0.0
  0
LINE
  5
   500
  8
0
  6
CONTINUOUS
 62
     7
 10
2111.09438467026
 20
-1157.15026855469
 30
0.0
 11
2111.24438476563
 21
-1157.15026855469
 31
0.0
  0
LINE
  5
   501
  8
0
  6
CONTINUOUS
 62
     7
 10
2111.09438467026
 20
-1157.90026855469
 30
0.0
 11
2111.24438476563
 21
-1157.90026855469
 31
0.0
  0
ARC
  5
   502
  8
0
  6
CONTINUOUS
 62
     7
 10
2057.89436632017
 20
-1157.52528101366
 30
0.0
 40
0.375021724720464
 50
270.002994716444
 51
449.997011754257
  0
ARC
  5
   503
  8
0
  6
CONTINUOUS
 62
     7
 10
2111.09439210182
 20
-1157.52527130975
 30
0.0
 40
0.375007470094436
 50
450.001135501493
 51
629.998857587167
  0
ARC
  5
   504
  8
0
  6
CONTINUOUS
 62
     7
 10
2112.86938476563
 20
-1155.02526855469
 30
0.0
 40
0.625
 50
359.999999844103
 51
449.999999844103
  0
ARC
  5
   505
  8
0
  6
CONTINUOUS
 62
     7
 10
2056.11938476563
 20
-1155.02526855469
 30
0.0
 40
0.625
 50
449.999999844103
 51
539.999999844103
  0
ARC
  5
   506
  8
0
  6
CONTINUOUS
 62
     7
 10
2056.11938476563
 20
-1201.77526855469
 30
0.0
 40
0.625
 50
539.999999844103
 51
629.999999844103
  0
ARC
  5
   507
  8
0
  6
CONTINUOUS
 62
     7
 10
2112.86938476563
 20
-1201.77526855469
 30
0.0
 40
0.625
 50
269.999999844103
 51
359.999999844103
  0
LINE
  5
   508
  8
0
  6
CONTINUOUS
 62
     7
 10
2110.99438476563
 20
-1166.40026855469
 30
0.0
 11
2110.99438476563
 21
-1190.40026855469
 31
0.0
  0
LINE
  5
   509
  8
0
  6
CONTINUOUS
 62
     7
 10
2057.99438476563
 20
-1166.40026855469
 30
0.0
 11
2057.99438476563
 21
-1190.40026855469
 31
0.0
  0
LINE
  5
   50A
  8
0
  6
CONTINUOUS
 62
     7
 10
2091.99438476563
 20
-1241.65026855469
 30
0.0
 11
2091.99438476563
 21
-1241.65026855469
 31
0.0
  0
LINE
  5
   50B
  8
0
  6
CONTINUOUS
 62
     7
 10
2091.99438476563
 20
-1241.65026855469
 30
0.0
 11
2091.99438476563
 21
-1241.65026855469
 31
0.0
  0
LINE
  5
   50C
  8
0
  6
CONTINUOUS
 62
     7
 10
2091.99438476563
 20
-1241.65026855469
 30
0.0
 11
2091.99438476563
 21
-1241.65026855469
 31
0.0
  0
LINE
  5
   50D
  8
0
  6
CONTINUOUS
 62
     7
 10
2091.99438476563
 20
-1241.65026855469
 30
0.0
 11
2091.99438476563
 21
-1241.65026855469
 31
0.0
  0
LINE
  5
   50E
  8
0
  6
CONTINUOUS
 62
     7
 10
2091.99438476563
 20
-1241.65026855469
 30
0.0
 11
2091.99438476563
 21
-1241.65026855469
 31
0.0
  0
LINE
  5
   50F
  8
0
  6
CONTINUOUS
 62
     7
 10
2091.99438476563
 20
-1241.65026855469
 30
0.0
 11
2091.99438476563
 21
-1241.65026855469
 31
0.0
  0
LINE
  5
   510
  8
0
  6
CONTINUOUS
 62
     7
 10
2091.99438476563
 20
-1241.65026855469
 30
0.0
 11
2091.99438476563
 21
-1241.65026855469
 31
0.0
  0
LINE
  5
   511
  8
0
  6
CONTINUOUS
 62
     7
 10
2091.99438476563
 20
-1241.65026855469
 30
0.0
 11
2091.99438476563
 21
-1241.65026855469
 31
0.0
  0
LINE
  5
   512
  8
0
  6
CONTINUOUS
 62
     7
 10
2058.74444415273
 20
-1122.90026100159
 30
0.0
 11
2058.74444895925
 21
-1154.40026855469
 31
0.0
  0
LINE
  5
   513
  8
0
  6
CONTINUOUS
 62
     7
 10
2058.74445433798
 20
-1189.65030455589
 30
0.0
 11
2090.74443907919
 21
-1189.65030455589
 31
0.0
  0
LINE
  5
   514
  8
0
  6
CONTINUOUS
 62
     7
 10
2058.74445090475
 20
-1167.1503045559
 30
0.0
 11
2090.74443564596
 21
-1167.1503045559
 31
0.0
  0
LINE
  5
   515
  8
0
  6
CONTINUOUS
 62
     7
 10
2086.99443008345
 20
-1171.33230283529
 30
0.0
 11
2094.06665285614
 21
-1171.33230283529
 31
0.0
  0
LINE
  5
   516
  8
0
  6
CONTINUOUS
 62
     7
 10
2086.99443004789
 20
-1170.4003045559
 30
0.0
 11
2086.9944305612
 21
-1183.85622995321
 31
0.0
  0
LINE
  5
   517
  8
0
  6
CONTINUOUS
 62
     7
 10
2086.9944305612
 20
-1183.85622995321
 30
0.0
 11
2087.4944305612
 21
-1183.85622995321
 31
0.0
  0
LINE
  5
   518
  8
0
  6
CONTINUOUS
 62
     7
 10
2086.99443055402
 20
-1183.66812821061
 30
0.0
 11
2087.49443055402
 21
-1183.66812821061
 31
0.0
  0
LINE
  5
   519
  8
0
  6
CONTINUOUS
 62
     7
 10
2071.24442359152
 20
-1171.1503045559
 30
0.0
 11
2086.9944300765
 21
-1171.1503045559
 31
0.0
  0
LINE
  5
   51A
  8
0
  6
CONTINUOUS
 62
     7
 10
2071.24442126456
 20
-1186.40030455589
 30
0.0
 11
2077.94443869772
 21
-1186.40030455589
 31
0.0
  0
LINE
  5
   51B
  8
0
  6
CONTINUOUS
 62
     7
 10
2071.244421379
 20
-1185.65030455589
 30
0.0
 11
2087.49443062964
 21
-1185.65030455589
 31
0.0
  0
LINE
  5
   51C
  8
0
  6
CONTINUOUS
 62
     7
 10
2082.94443869772
 20
-1186.40030455589
 30
0.0
 11
2110.24442126456
 21
-1186.40030455589
 31
0.0
  0
LINE
  5
   51D
  8
0
  6
CONTINUOUS
 62
     7
 10
2087.49443046216
 20
-1181.26013242811
 30
0.0
 11
2087.49443062263
 21
-1185.46663802625
 31
0.0
  0
LINE
  5
   51E
  8
0
  6
CONTINUOUS
 62
     7
 10
2091.99438476563
 20
-1241.65026855469
 30
0.0
 11
2091.99438476563
 21
-1241.65026855469
 31
0.0
  0
LINE
  5
   51F
  8
0
  6
CONTINUOUS
 62
     7
 10
2091.99438476563
 20
-1241.65026855469
 30
0.0
 11
2091.99438476563
 21
-1241.65026855469
 31
0.0
  0
LINE
  5
   520
  8
0
  6
CONTINUOUS
 62
     7
 10
2091.99438476563
 20
-1241.65026855469
 30
0.0
 11
2091.99438476563
 21
-1241.65026855469
 31
0.0
  0
LINE
  5
   521
  8
0
  6
CONTINUOUS
 62
     7
 10
2091.99438476563
 20
-1241.65026855469
 30
0.0
 11
2091.99438476563
 21
-1241.65026855469
 31
0.0
  0
LINE
  5
   522
  8
0
  6
CONTINUOUS
 62
     7
 10
2091.99438476563
 20
-1241.65026855469
 30
0.0
 11
2091.99438476563
 21
-1241.65026855469
 31
0.0
  0
LINE
  5
   523
  8
0
  6
CONTINUOUS
 62
     7
 10
2091.99438476563
 20
-1241.65026855469
 30
0.0
 11
2091.99438476563
 21
-1241.65026855469
 31
0.0
  0
LINE
  5
   524
  8
0
  6
CONTINUOUS
 62
     7
 10
2091.99438476563
 20
-1241.65026855469
 30
0.0
 11
2091.99438476563
 21
-1241.65026855469
 31
0.0
  0
LINE
  5
   525
  8
0
  6
CONTINUOUS
 62
     7
 10
2059.24443297568
 20
-1149.65032569744
 30
0.0
 11
2059.24443309012
 21
-1150.40032569744
 31
0.0
  0
LINE
  5
   526
  8
0
  6
CONTINUOUS
 62
     7
 10
2058.74444834891
 20
-1150.40032569744
 30
0.0
 11
2090.74443755331
 21
-1150.40032569744
 31
0.0
  0
LINE
  5
   527
  8
0
  6
CONTINUOUS
 62
     7
 10
2091.99438476563
 20
-1241.65026855469
 30
0.0
 11
2091.99438476563
 21
-1241.65026855469
 31
0.0
  0
LINE
  5
   528
  8
0
  6
CONTINUOUS
 62
     7
 10
2091.99438476563
 20
-1241.65026855469
 30
0.0
 11
2091.99438476563
 21
-1241.65026855469
 31
0.0
  0
LINE
  5
   529
  8
0
  6
CONTINUOUS
 62
     7
 10
2091.99438476563
 20
-1241.65026855469
 30
0.0
 11
2091.99438476563
 21
-1241.65026855469
 31
0.0
  0
LINE
  5
   52A
  8
0
  6
CONTINUOUS
 62
     7
 10
2091.99438476563
 20
-1241.65026855469
 30
0.0
 11
2091.99438476563
 21
-1241.65026855469
 31
0.0
  0
LINE
  5
   52B
  8
0
  6
CONTINUOUS
 62
     7
 10
2091.99438476563
 20
-1241.65026855469
 30
0.0
 11
2091.99438476563
 21
-1241.65026855469
 31
0.0
  0
LINE
  5
   52C
  8
0
  6
CONTINUOUS
 62
     7
 10
2091.99438476563
 20
-1241.65026855469
 30
0.0
 11
2091.99438476563
 21
-1241.65026855469
 31
0.0
  0
LINE
  5
   52D
  8
0
  6
CONTINUOUS
 62
     7
 10
2091.99438476563
 20
-1241.65026855469
 30
0.0
 11
2091.99438476563
 21
-1241.65026855469
 31
0.0
  0
LINE
  5
   52E
  8
0
  6
CONTINUOUS
 62
     7
 10
2091.99438476563
 20
-1241.65026855469
 30
0.0
 11
2091.99438476563
 21
-1241.65026855469
 31
0.0
  0
LINE
  5
   52F
  8
0
  6
CONTINUOUS
 62
     7
 10
2110.24443095389
 20
-1122.90026100159
 30
0.0
 11
2110.24442614737
 21
-1154.40026855469
 31
0.0
  0
LINE
  5
   530
  8
0
  6
CONTINUOUS
 62
     7
 10
2093.99444502318
 20
-1171.33230283529
 30
0.0
 11
2094.49444502318
 21
-1171.33230283529
 31
0.0
  0
LINE
  5
   531
  8
0
  6
CONTINUOUS
 62
     7
 10
2094.49444505873
 20
-1170.4003045559
 30
0.0
 11
2094.49444454542
 21
-1183.85622995321
 31
0.0
  0
LINE
  5
   532
  8
0
  6
CONTINUOUS
 62
     7
 10
2093.99444454543
 20
-1183.85622995321
 30
0.0
 11
2094.49444454542
 21
-1183.85622995321
 31
0.0
  0
LINE
  5
   533
  8
0
  6
CONTINUOUS
 62
     7
 10
2093.9944445526
 20
-1183.66812821061
 30
0.0
 11
2094.4944445526
 21
-1183.66812821061
 31
0.0
  0
LINE
  5
   534
  8
0
  6
CONTINUOUS
 62
     7
 10
2071.24442370596
 20
-1170.4003045559
 30
0.0
 11
2110.24442370596
 21
-1170.4003045559
 31
0.0
  0
LINE
  5
   535
  8
0
  6
CONTINUOUS
 62
     7
 10
2094.49444503012
 20
-1171.1503045559
 30
0.0
 11
2110.24442359152
 21
-1171.1503045559
 31
0.0
  0
LINE
  5
   536
  8
0
  6
CONTINUOUS
 62
     7
 10
2093.99444464446
 20
-1181.26013242811
 30
0.0
 11
2093.99444448399
 21
-1185.46663802625
 31
0.0
  0
LINE
  5
   537
  8
0
  6
CONTINUOUS
 62
     7
 10
2091.99438476563
 20
-1241.65026855469
 30
0.0
 11
2091.99438476563
 21
-1241.65026855469
 31
0.0
  0
LINE
  5
   538
  8
0
  6
CONTINUOUS
 62
     7
 10
2091.99438476563
 20
-1241.65026855469
 30
0.0
 11
2091.99438476563
 21
-1241.65026855469
 31
0.0
  0
LINE
  5
   539
  8
0
  6
CONTINUOUS
 62
     7
 10
2091.99438476563
 20
-1241.65026855469
 30
0.0
 11
2091.99438476563
 21
-1241.65026855469
 31
0.0
  0
LINE
  5
   53A
  8
0
  6
CONTINUOUS
 62
     7
 10
2091.99438476563
 20
-1241.65026855469
 30
0.0
 11
2091.99438476563
 21
-1241.65026855469
 31
0.0
  0
LINE
  5
   53B
  8
0
  6
CONTINUOUS
 62
     7
 10
2091.99438476563
 20
-1241.65026855469
 30
0.0
 11
2091.99438476563
 21
-1241.65026855469
 31
0.0
  0
LINE
  5
   53C
  8
0
  6
CONTINUOUS
 62
     7
 10
2091.99438476563
 20
-1241.65026855469
 30
0.0
 11
2091.99438476563
 21
-1241.65026855469
 31
0.0
  0
LINE
  5
   53D
  8
0
  6
CONTINUOUS
 62
     7
 10
2090.74443755331
 20
-1150.40032569744
 30
0.0
 11
2110.24442675772
 21
-1150.40032569744
 31
0.0
  0
LINE
  5
   53E
  8
0
  6
DASHDOT
 62
     7
 10
2090.74445245122
 20
-1122.40026092529
 30
0.0
 11
2090.74445245122
 21
-1289.78404190739
 31
0.0
  0
LINE
  5
   53F
  8
0
  6
CONTINUOUS
 62
     7
 10
2087.49443046216
 20
-1181.26013242811
 30
0.0
 11
2093.99444464446
 21
-1181.26013242811
 31
0.0
  0
LINE
  5
   540
  8
0
  6
CONTINUOUS
 62
     7
 10
2087.74443057653
 20
-1184.00803050649
 30
0.0
 11
2093.7444445301
 21
-1184.00803050649
 31
0.0
  0
LINE
  5
   541
  8
0
  6
CONTINUOUS
 62
     7
 10
2087.74443062263
 20
-1185.71663801671
 30
0.0
 11
2093.74444448399
 21
-1185.71663801671
 31
0.0
  0
LINE
  5
   542
  8
0
  6
CONTINUOUS
 62
     7
 10
2093.99444447699
 20
-1185.65030455589
 30
0.0
 11
2110.244421379
 21
-1185.65030455589
 31
0.0
  0
ARC
  5
   543
  8
0
  6
CONTINUOUS
 62
     7
 10
2087.74443062263
 20
-1185.46663801671
 30
0.0
 40
0.25
 50
540.000002029765
 51
629.999999844103
  0
ARC
  5
   544
  8
0
  6
CONTINUOUS
 62
     7
 10
2093.74444448399
 20
-1185.46663801671
 30
0.0
 40
0.25
 50
269.999999844103
 51
359.999997658442
  0
ARC
  5
   545
  8
0
  6
CONTINUOUS
 62
     7
 10
2093.7444445301
 20
-1184.25803050649
 30
0.0
 40
0.25
 50
359.999997658442
 51
449.999999844103
  0
ARC
  5
   546
  8
0
  6
CONTINUOUS
 62
     7
 10
2087.74443057653
 20
-1184.25803050649
 30
0.0
 40
0.25
 50
449.999999844103
 51
540.000002029765
  0
LINE
  5
   547
  8
0
  6
CONTINUOUS
 62
     7
 10
2090.74443602743
 20
-1189.65030455589
 30
0.0
 11
2110.24442076864
 21
-1189.65030455589
 31
0.0
  0
LINE
  5
   548
  8
0
  6
CONTINUOUS
 62
     7
 10
2090.74443946066
 20
-1167.1503045559
 30
0.0
 11
2110.24442420187
 21
-1167.1503045559
 31
0.0
  0
LINE
  5
   549
  8
0
  6
DASHDOT
 62
     7
 10
2052.34270358724
 20
-1178.4003045559
 30
0.0
 11
2115.66899601748
 21
-1178.4003045559
 31
0.0
  0
LINE
  5
   54A
  8
0
  6
CONTINUOUS
 62
     7
 10
2083.86008391562
 20
-1172.22223113531
 30
0.0
 11
2084.23508391562
 21
-1172.22223113531
 31
0.0
  0
LINE
  5
   54B
  8
0
  6
CONTINUOUS
 62
     7
 10
2083.86008391562
 20
-1174.47223113531
 30
0.0
 11
2084.23508391562
 21
-1174.47223113531
 31
0.0
  0
CIRCLE
  5
   54C
  8
0
  6
CONTINUOUS
 62
     7
 10
2084.04758391562
 20
-1181.72223113531
 30
0.0
 40
1.125
  0
CIRCLE
  5
   54D
  8
0
  6
CONTINUOUS
 62
     7
 10
2084.04758391562
 20
-1181.72223113531
 30
0.0
 40
0.75
  0
LINE
  5
   54E
  8
0
  6
CONTINUOUS
 62
     7
 10
2083.86008391562
 20
-1172.22223113531
 30
0.0
 11
2083.86008391562
 21
-1174.47223113531
 31
0.0
  0
LINE
  5
   54F
  8
0
  6
CONTINUOUS
 62
     7
 10
2084.23508391562
 20
-1172.22223113531
 30
0.0
 11
2084.23508391562
 21
-1174.47223113531
 31
0.0
  0
LINE
  5
   550
  8
0
  6
CONTINUOUS
 62
     7
 10
2098.13508147421
 20
-1180.75973113531
 30
0.0
 11
2098.24758147421
 21
-1180.75973113531
 31
0.0
  0
LINE
  5
   551
  8
0
  6
CONTINUOUS
 62
     7
 10
2097.81008147421
 20
-1182.68473113531
 30
0.0
 11
2098.01008147421
 21
-1182.68473113531
 31
0.0
  0
LINE
  5
   552
  8
0
  6
CONTINUOUS
 62
     7
 10
2097.51008147421
 20
-1181.90973113531
 30
0.0
 11
2097.51008147421
 21
-1182.03473113531
 31
0.0
  0
ARC
  5
   553
  8
0
  6
CONTINUOUS
 62
     7
 10
2096.86008147421
 20
-1181.90973113531
 30
0.0
 40
0.65
 50
359.999999844103
 51
539.999999844103
  0
ARC
  5
   554
  8
0
  6
CONTINUOUS
 62
     7
 10
2096.86008147421
 20
-1182.03473113531
 30
0.0
 40
0.649999999999999
 50
539.999999844103
 51
719.999999844103
  0
ARC
  5
   555
  8
0
  6
CONTINUOUS
 62
     7
 10
2096.86008147421
 20
-1181.90973113531
 30
0.0
 40
0.45
 50
359.999999844103
 51
539.999999844103
  0
ARC
  5
   556
  8
0
  6
CONTINUOUS
 62
     7
 10
2096.86008147421
 20
-1182.03473113531
 30
0.0
 40
0.449999999999999
 50
539.999999844103
 51
719.999999844103
  0
LINE
  5
   557
  8
0
  6
CONTINUOUS
 62
     7
 10
2097.31008147421
 20
-1181.90973113531
 30
0.0
 11
2097.31008147421
 21
-1182.03473113531
 31
0.0
  0
LINE
  5
   558
  8
0
  6
CONTINUOUS
 62
     7
 10
2097.57258147421
 20
-1181.35973113531
 30
0.0
 11
2097.57258147421
 21
-1181.55973113531
 31
0.0
  0
LINE
  5
   559
  8
0
  6
CONTINUOUS
 62
     7
 10
2097.57258147421
 20
-1181.55973113531
 30
0.0
 11
2097.81008147421
 21
-1181.55973113531
 31
0.0
  0
LINE
  5
   55A
  8
0
  6
CONTINUOUS
 62
     7
 10
2098.24758147421
 20
-1181.35973113531
 30
0.0
 11
2098.24758147421
 21
-1181.55973113531
 31
0.0
  0
LINE
  5
   55B
  8
0
  6
CONTINUOUS
 62
     7
 10
2097.57258147421
 20
-1181.35973113531
 30
0.0
 11
2097.81008147421
 21
-1181.35973113531
 31
0.0
  0
LINE
  5
   55C
  8
0
  6
CONTINUOUS
 62
     7
 10
2097.81008147421
 20
-1181.55973113531
 30
0.0
 11
2097.81008147421
 21
-1182.68473113531
 31
0.0
  0
LINE
  5
   55D
  8
0
  6
CONTINUOUS
 62
     7
 10
2098.01008147421
 20
-1181.55973113531
 30
0.0
 11
2098.01008147421
 21
-1182.68473113531
 31
0.0
  0
LINE
  5
   55E
  8
0
  6
CONTINUOUS
 62
     7
 10
2098.01008147421
 20
-1181.55973113531
 30
0.0
 11
2098.24758147421
 21
-1181.55973113531
 31
0.0
  0
LINE
  5
   55F
  8
0
  6
CONTINUOUS
 62
     7
 10
2098.01008147421
 20
-1181.35973113531
 30
0.0
 11
2098.24758147421
 21
-1181.35973113531
 31
0.0
  0
LINE
  5
   560
  8
0
  6
CONTINUOUS
 62
     7
 10
2097.81008147421
 20
-1181.08473113531
 30
0.0
 11
2097.81008147421
 21
-1181.35973113531
 31
0.0
  0
LINE
  5
   561
  8
0
  6
CONTINUOUS
 62
     7
 10
2098.01008147421
 20
-1181.08473113531
 30
0.0
 11
2098.01008147421
 21
-1181.35973113531
 31
0.0
  0
ARC
  5
   562
  8
0
  6
CONTINUOUS
 62
     7
 10
2098.13508147421
 20
-1181.08473113531
 30
0.0
 40
0.325
 50
449.999999844103
 51
539.999999844103
  0
ARC
  5
   563
  8
0
  6
CONTINUOUS
 62
     7
 10
2098.13508147421
 20
-1181.08473113531
 30
0.0
 40
0.125
 50
449.999999844103
 51
539.999999844103
  0
LINE
  5
   564
  8
0
  6
CONTINUOUS
 62
     7
 10
2098.24758147421
 20
-1180.75973113531
 30
0.0
 11
2098.24758147421
 21
-1180.95973113531
 31
0.0
  0
LINE
  5
   565
  8
0
  6
CONTINUOUS
 62
     7
 10
2098.13508147421
 20
-1180.95973113531
 30
0.0
 11
2098.24758147421
 21
-1180.95973113531
 31
0.0
  0
LINE
  5
   566
  8
0
  6
CONTINUOUS
 62
     7
 10
2098.61008147421
 20
-1182.68473113531
 30
0.0
 11
2098.81008147421
 21
-1182.68473113531
 31
0.0
  0
LINE
  5
   567
  8
0
  6
CONTINUOUS
 62
     7
 10
2098.37258147421
 20
-1181.35973113531
 30
0.0
 11
2098.37258147421
 21
-1181.55973113531
 31
0.0
  0
LINE
  5
   568
  8
0
  6
CONTINUOUS
 62
     7
 10
2098.37258147421
 20
-1181.55973113531
 30
0.0
 11
2098.61008147421
 21
-1181.55973113531
 31
0.0
  0
LINE
  5
   569
  8
0
  6
CONTINUOUS
 62
     7
 10
2099.04758147421
 20
-1181.35973113531
 30
0.0
 11
2099.04758147421
 21
-1181.55973113531
 31
0.0
  0
LINE
  5
   56A
  8
0
  6
CONTINUOUS
 62
     7
 10
2098.37258147421
 20
-1181.35973113531
 30
0.0
 11
2098.61008147421
 21
-1181.35973113531
 31
0.0
  0
LINE
  5
   56B
  8
0
  6
CONTINUOUS
 62
     7
 10
2098.61008147421
 20
-1181.55973113531
 30
0.0
 11
2098.61008147421
 21
-1182.68473113531
 31
0.0
  0
LINE
  5
   56C
  8
0
  6
CONTINUOUS
 62
     7
 10
2098.81008147421
 20
-1181.55973113531
 30
0.0
 11
2098.81008147421
 21
-1182.68473113531
 31
0.0
  0
LINE
  5
   56D
  8
0
  6
CONTINUOUS
 62
     7
 10
2098.81008147421
 20
-1181.55973113531
 30
0.0
 11
2099.04758147421
 21
-1181.55973113531
 31
0.0
  0
LINE
  5
   56E
  8
0
  6
CONTINUOUS
 62
     7
 10
2098.81008147421
 20
-1181.35973113531
 30
0.0
 11
2099.04758147421
 21
-1181.35973113531
 31
0.0
  0
LINE
  5
   56F
  8
0
  6
CONTINUOUS
 62
     7
 10
2098.61008147421
 20
-1181.08473113531
 30
0.0
 11
2098.61008147421
 21
-1181.35973113531
 31
0.0
  0
LINE
  5
   570
  8
0
  6
CONTINUOUS
 62
     7
 10
2098.81008147421
 20
-1181.08473113531
 30
0.0
 11
2098.81008147421
 21
-1181.35973113531
 31
0.0
  0
ARC
  5
   571
  8
0
  6
CONTINUOUS
 62
     7
 10
2098.93508147421
 20
-1181.08473113531
 30
0.0
 40
0.325
 50
449.999999844103
 51
539.999999844103
  0
ARC
  5
   572
  8
0
  6
CONTINUOUS
 62
     7
 10
2098.93508147421
 20
-1181.08473113531
 30
0.0
 40
0.125
 50
449.999999844103
 51
539.999999844103
  0
LINE
  5
   573
  8
0
  6
CONTINUOUS
 62
     7
 10
2099.04758147421
 20
-1180.75973113531
 30
0.0
 11
2099.04758147421
 21
-1180.95973113531
 31
0.0
  0
LINE
  5
   574
  8
0
  6
CONTINUOUS
 62
     7
 10
2097.71008147421
 20
-1174.05973113531
 30
0.0
 11
2097.91008147421
 21
-1174.05973113531
 31
0.0
  0
ARC
  5
   575
  8
0
  6
CONTINUOUS
 62
     7
 10
2096.86008147421
 20
-1173.28473113531
 30
0.0
 40
0.65
 50
359.999999844103
 51
539.999999844103
  0
ARC
  5
   576
  8
0
  6
CONTINUOUS
 62
     7
 10
2096.86008147421
 20
-1173.28473113531
 30
0.0
 40
0.45
 50
359.999999844103
 51
539.999999844103
  0
ARC
  5
   577
  8
0
  6
CONTINUOUS
 62
     7
 10
2096.86008147421
 20
-1173.40973113531
 30
0.0
 40
0.649999999999999
 50
539.999999844103
 51
719.999999844103
  0
ARC
  5
   578
  8
0
  6
CONTINUOUS
 62
     7
 10
2096.86008147421
 20
-1173.40973113531
 30
0.0
 40
0.449999999999999
 50
539.999999844103
 51
719.999999844103
  0
LINE
  5
   579
  8
0
  6
CONTINUOUS
 62
     7
 10
2097.71008147421
 20
-1172.63473113531
 30
0.0
 11
2097.71008147421
 21
-1174.05973113531
 31
0.0
  0
LINE
  5
   57A
  8
0
  6
CONTINUOUS
 62
     7
 10
2097.91008147421
 20
-1173.18473113531
 30
0.0
 11
2097.91008147421
 21
-1174.05973113531
 31
0.0
  0
LINE
  5
   57B
  8
0
  6
CONTINUOUS
 62
     7
 10
2098.61008147421
 20
-1173.18473113531
 30
0.0
 11
2098.61008147421
 21
-1174.05973113531
 31
0.0
  0
LINE
  5
   57C
  8
0
  6
CONTINUOUS
 62
     7
 10
2098.81008147421
 20
-1173.13473113531
 30
0.0
 11
2098.81008147421
 21
-1174.05973113531
 31
0.0
  0
LINE
  5
   57D
  8
0
  6
CONTINUOUS
 62
     7
 10
2097.71008147421
 20
-1172.63473113531
 30
0.0
 11
2097.91008147421
 21
-1172.63473113531
 31
0.0
  0
ARC
  5
   57E
  8
0
  6
CONTINUOUS
 62
     7
 10
2098.26008147421
 20
-1173.18473113531
 30
0.0
 40
0.35
 50
359.999999844103
 51
539.999999844103
  0
LINE
  5
   57F
  8
0
  6
CONTINUOUS
 62
     7
 10
2097.91008147421
 20
-1172.63473113531
 30
0.0
 11
2097.91008147421
 21
-1172.83473113531
 31
0.0
  0
ARC
  5
   580
  8
0
  6
CONTINUOUS
 62
     7
 10
2098.31008147421
 20
-1173.13473113531
 30
0.0
 40
0.5
 50
359.999999844103
 51
503.130102198259
  0
LINE
  5
   581
  8
0
  6
CONTINUOUS
 62
     7
 10
2098.61008147421
 20
-1174.05973113531
 30
0.0
 11
2098.81008147421
 21
-1174.05973113531
 31
0.0
  0
LINE
  5
   582
  8
0
  6
CONTINUOUS
 62
     7
 10
2097.94424387126
 20
-1167.82074991945
 30
0.0
 11
2097.82722802424
 21
-1167.8413826611
 31
0.0
  0
LINE
  5
   583
  8
0
  6
CONTINUOUS
 62
     7
 10
2097.82723525168
 20
-1167.8413787333
 30
0.0
 11
2097.72433380152
 21
-1167.90078810489
 31
0.0
  0
LINE
  5
   584
  8
0
  6
CONTINUOUS
 62
     7
 10
2097.72432956867
 20
-1167.90079244286
 30
0.0
 11
2097.64795550617
 21
-1167.99181279846
 31
0.0
  0
LINE
  5
   585
  8
0
  6
CONTINUOUS
 62
     7
 10
2097.64795693156
 20
-1167.99181224123
 30
0.0
 11
2097.60731896382
 21
-1168.10346532835
 31
0.0
  0
LINE
  5
   586
  8
0
  6
CONTINUOUS
 62
     7
 10
2097.60731533078
 20
-1168.10346512522
 30
0.0
 11
2097.60731533078
 21
-1168.22228388514
 31
0.0
  0
LINE
  5
   587
  8
0
  6
CONTINUOUS
 62
     7
 10
2097.60731863268
 20
-1168.22228267448
 30
0.0
 11
2097.64795660042
 21
-1168.3339357616
 31
0.0
  0
LINE
  5
   588
  8
0
  6
CONTINUOUS
 62
     7
 10
2097.64795482046
 20
-1168.33393623818
 30
0.0
 11
2097.72432888296
 21
-1168.42495659378
 31
0.0
  0
LINE
  5
   589
  8
0
  6
CONTINUOUS
 62
     7
 10
2097.72433546926
 20
-1168.42495889397
 30
0.0
 11
2097.82723691942
 21
-1168.48436826556
 31
0.0
  0
LINE
  5
   58A
  8
0
  6
CONTINUOUS
 62
     7
 10
2097.82722883757
 20
-1168.48436680175
 30
0.0
 11
2097.94424468459
 21
-1168.5049995434
 31
0.0
  0
LINE
  5
   58B
  8
0
  6
CONTINUOUS
 62
     7
 10
2097.94424465207
 20
-1168.50499944414
 30
0.0
 11
2098.05895641355
 21
-1168.50499944414
 31
0.0
  0
LINE
  5
   58C
  8
0
  6
CONTINUOUS
 62
     7
 10
2098.05896251697
 20
-1168.50499701098
 30
0.0
 11
2098.10272853121
 21
-1168.51921819979
 31
0.0
  0
LINE
  5
   58D
  8
0
  6
CONTINUOUS
 62
     7
 10
2098.10272804859
 20
-1168.51921831446
 30
0.0
 11
2098.12977806228
 21
-1168.55644951663
 31
0.0
  0
LINE
  5
   58E
  8
0
  6
CONTINUOUS
 62
     7
 10
2098.12977245358
 20
-1168.55645184244
 30
0.0
 11
2098.12977245358
 21
-1168.60247211184
 31
0.0
  0
LINE
  5
   58F
  8
0
  6
CONTINUOUS
 62
     7
 10
2098.129776063
 20
-1168.60247047113
 30
0.0
 11
2098.10272604931
 21
-1168.6397016733
 31
0.0
  0
LINE
  5
   590
  8
0
  6
CONTINUOUS
 62
     7
 10
2098.10272729996
 20
-1168.63970167225
 30
0.0
 11
2098.05896128572
 21
-1168.65392286106
 31
0.0
  0
LINE
  5
   591
  8
0
  6
CONTINUOUS
 62
     7
 10
2097.64236858396
 20
-1168.65392451014
 30
0.0
 11
2098.05895641355
 21
-1168.65392451014
 31
0.0
  0
LINE
  5
   592
  8
0
  6
CONTINUOUS
 62
     7
 10
2097.64236858396
 20
-1168.65392451014
 30
0.0
 11
2097.64236858396
 21
-1168.92762427058
 31
0.0
  0
LINE
  5
   593
  8
0
  6
CONTINUOUS
 62
     7
 10
2097.64236858396
 20
-1168.92762427058
 30
0.0
 11
2098.05895641355
 21
-1168.92762427058
 31
0.0
  0
LINE
  5
   594
  8
0
  6
CONTINUOUS
 62
     7
 10
2098.17803480016
 20
-1168.90662708984
 30
0.0
 11
2098.05895903179
 21
-1168.92762365834
 31
0.0
  0
LINE
  5
   595
  8
0
  6
CONTINUOUS
 62
     7
 10
2098.28275102908
 20
-1168.84616861939
 30
0.0
 11
2098.17803375963
 21
-1168.90662657363
 31
0.0
  0
LINE
  5
   596
  8
0
  6
CONTINUOUS
 62
     7
 10
2098.36047977242
 20
-1168.75354137656
 30
0.0
 11
2098.28275531602
 21
-1168.84616794197
 31
0.0
  0
LINE
  5
   597
  8
0
  6
CONTINUOUS
 62
     7
 10
2098.4018311194
 20
-1168.63992103575
 30
0.0
 11
2098.36047598471
 21
-1168.75354443222
 31
0.0
  0
LINE
  5
   598
  8
0
  6
CONTINUOUS
 62
     7
 10
2098.40182903317
 20
-1168.51900415148
 30
0.0
 11
2098.40182903317
 21
-1168.6399198028
 31
0.0
  0
LINE
  5
   599
  8
0
  6
CONTINUOUS
 62
     7
 10
2098.36047588982
 20
-1168.40538004919
 30
0.0
 11
2098.4018310245
 21
-1168.51900344566
 31
0.0
  0
LINE
  5
   59A
  8
0
  6
CONTINUOUS
 62
     7
 10
2098.28275275028
 20
-1168.31275101768
 30
0.0
 11
2098.36047721189
 21
-1168.40537783484
 31
0.0
  0
LINE
  5
   59B
  8
0
  6
CONTINUOUS
 62
     7
 10
2098.17803158861
 20
-1168.25229577216
 30
0.0
 11
2098.28274885338
 21
-1168.31275348526
 31
0.0
  0
LINE
  5
   59C
  8
0
  6
CONTINUOUS
 62
     7
 10
2098.05896255547
 20
-1168.23130014754
 30
0.0
 11
2098.17803832212
 21
-1168.25229695397
 31
0.0
  0
LINE
  5
   59D
  8
0
  6
CONTINUOUS
 62
     7
 10
2097.94424465207
 20
-1168.23129944529
 30
0.0
 11
2098.05895641355
 21
-1168.23129944529
 31
0.0
  0
LINE
  5
   59E
  8
0
  6
CONTINUOUS
 62
     7
 10
2097.90402670009
 20
-1168.21823030442
 30
0.0
 11
2097.94424886747
 21
-1168.23129826463
 31
0.0
  0
LINE
  5
   59F
  8
0
  6
CONTINUOUS
 62
     7
 10
2097.87916738652
 20
-1168.18401958725
 30
0.0
 11
2097.90402395392
 21
-1168.21823217773
 31
0.0
  0
LINE
  5
   5A0
  8
0
  6
CONTINUOUS
 62
     7
 10
2097.87916591672
 20
-1168.14173011507
 30
0.0
 11
2097.87916591672
 21
-1168.18401889529
 31
0.0
  0
LINE
  5
   5A1
  8
0
  6
CONTINUOUS
 62
     7
 10
2097.90402764589
 20
-1168.10751867882
 30
0.0
 11
2097.87917107849
 21
-1168.1417312693
 31
0.0
  0
LINE
  5
   5A2
  8
0
  6
CONTINUOUS
 62
     7
 10
2097.94425042012
 20
-1168.09444769553
 30
0.0
 11
2097.90402825273
 21
-1168.10751565574
 31
0.0
  0
LINE
  5
   5A3
  8
0
  6
CONTINUOUS
 62
     7
 10
2097.94424465207
 20
-1168.09444956507
 30
0.0
 11
2098.36686733273
 21
-1168.09444956507
 31
0.0
  0
LINE
  5
   5A4
  8
0
  6
CONTINUOUS
 62
     7
 10
2098.36686733273
 20
-1167.82074956621
 30
0.0
 11
2098.36686733273
 21
-1168.09444956507
 31
0.0
  0
LINE
  5
   5A5
  8
0
  6
CONTINUOUS
 62
     7
 10
2097.94424465207
 20
-1167.82074956621
 30
0.0
 11
2098.36686733273
 21
-1167.82074956621
 31
0.0
  0
LINE
  5
   5A6
  8
0
  6
CONTINUOUS
 62
     7
 10
2098.40711620358
 20
-1168.92762427058
 30
0.0
 11
2098.69216564206
 21
-1168.92762427058
 31
0.0
  0
LINE
  5
   5A7
  8
0
  6
CONTINUOUS
 62
     7
 10
2098.756568332
 20
-1168.70624873066
 30
0.0
 11
2098.69216861473
 21
-1168.92762347853
 31
0.0
  0
LINE
  5
   5A8
  8
0
  6
CONTINUOUS
 62
     7
 10
2098.7565653613
 20
-1168.70624952044
 30
0.0
 11
2099.06392314939
 21
-1168.70624952044
 31
0.0
  0
LINE
  5
   5A9
  8
0
  6
CONTINUOUS
 62
     7
 10
2099.06392550658
 20
-1168.70624893025
 30
0.0
 11
2099.12832522385
 21
-1168.92762367811
 31
0.0
  0
LINE
  5
   5AA
  8
0
  6
CONTINUOUS
 62
     7
 10
2099.12832286862
 20
-1168.92762427058
 30
0.0
 11
2099.4133684924
 21
-1168.92762427058
 31
0.0
  0
LINE
  5
   5AB
  8
0
  6
CONTINUOUS
 62
     7
 10
2099.09136880043
 20
-1167.82074939705
 30
0.0
 11
2099.41337129579
 21
-1168.92762438182
 31
0.0
  0
LINE
  5
   5AC
  8
0
  6
CONTINUOUS
 62
     7
 10
2098.72911861447
 20
-1167.82074956621
 30
0.0
 11
2099.09136608151
 21
-1167.82074956621
 31
0.0
  0
LINE
  5
   5AD
  8
0
  6
CONTINUOUS
 62
     7
 10
2098.7291201478
 20
-1167.82075378272
 30
0.0
 11
2098.40711765244
 21
-1168.92762876749
 31
0.0
  0
LINE
  5
   5AE
  8
0
  6
CONTINUOUS
 62
     7
 10
2098.91024644632
 20
-1168.17797840275
 30
0.0
 11
2098.98430120206
 21
-1168.4325494884
 31
0.0
  0
LINE
  5
   5AF
  8
0
  6
CONTINUOUS
 62
     7
 10
2098.83618572263
 20
-1168.43254952158
 30
0.0
 11
2098.98429897336
 21
-1168.43254952158
 31
0.0
  0
LINE
  5
   5B0
  8
0
  6
CONTINUOUS
 62
     7
 10
2098.91024871667
 20
-1168.17797815352
 30
0.0
 11
2098.83619018951
 21
-1168.43254909908
 31
0.0
  0
LINE
  5
   5B1
  8
0
  6
CONTINUOUS
 62
     7
 10
2100.34705368552
 20
-1167.972057451
 30
0.0
 11
2100.4449464433
 21
-1168.09547411751
 31
0.0
  0
LINE
  5
   5B2
  8
0
  6
CONTINUOUS
 62
     7
 10
2100.21836260739
 20
-1167.88122070665
 30
0.0
 11
2100.3470552264
 21
-1167.97205960885
 31
0.0
  0
LINE
  5
   5B3
  8
0
  6
CONTINUOUS
 62
     7
 10
2100.06928621366
 20
-1167.8303210586
 30
0.0
 11
2100.21836076683
 21
-1167.8812227048
 31
0.0
  0
LINE
  5
   5B4
  8
0
  6
CONTINUOUS
 62
     7
 10
2099.91191120068
 20
-1167.82347942062
 30
0.0
 11
2100.06928654058
 21
-1167.83032036511
 31
0.0
  0
LINE
  5
   5B5
  8
0
  6
CONTINUOUS
 62
     7
 10
2099.91190840544
 20
-1167.82347913335
 30
0.0
 11
2099.75897719218
 21
-1167.86125321732
 31
0.0
  0
LINE
  5
   5B6
  8
0
  6
CONTINUOUS
 62
     7
 10
2099.75897959094
 20
-1167.8612514485
 30
0.0
 11
2099.622890274
 21
-1167.94058046125
 31
0.0
  0
LINE
  5
   5B7
  8
0
  6
CONTINUOUS
 62
     7
 10
2099.62288815112
 20
-1167.94058286816
 30
0.0
 11
2099.51465756145
 21
-1168.05503999751
 31
0.0
  0
LINE
  5
   5B8
  8
0
  6
CONTINUOUS
 62
     7
 10
2099.5146601911
 20
-1168.05503774977
 30
0.0
 11
2099.44306214631
 21
-1168.19535018078
 31
0.0
  0
LINE
  5
   5B9
  8
0
  6
CONTINUOUS
 62
     7
 10
2099.44306089964
 20
-1168.19535250059
 30
0.0
 11
2099.41389372436
 21
-1168.35015315805
 31
0.0
  0
LINE
  5
   5BA
  8
0
  6
CONTINUOUS
 62
     7
 10
2099.41389403528
 20
-1168.35015221407
 30
0.0
 11
2099.4295190278
 21
-1168.50690002988
 31
0.0
  0
LINE
  5
   5BB
  8
0
  6
CONTINUOUS
 62
     7
 10
2099.42951781372
 20
-1168.50689966196
 30
0.0
 11
2099.48867231695
 21
-1168.65289574816
 31
0.0
  0
LINE
  5
   5BC
  8
0
  6
CONTINUOUS
 62
     7
 10
2099.48867260846
 20
-1168.65289447702
 30
0.0
 11
2099.57668912123
 21
-1168.76674292952
 31
0.0
  0
LINE
  5
   5BD
  8
0
  6
CONTINUOUS
 62
     7
 10
2099.57669063104
 20
-1168.76674553887
 30
0.0
 11
2099.6910857718
 21
-1168.85405275636
 31
0.0
  0
LINE
  5
   5BE
  8
0
  6
CONTINUOUS
 62
     7
 10
2099.69108343852
 20
-1168.85405149216
 30
0.0
 11
2099.82412100321
 21
-1168.90891446717
 31
0.0
  0
LINE
  5
   5BF
  8
0
  6
CONTINUOUS
 62
     7
 10
2099.8241224242
 20
-1168.90891513247
 30
0.0
 11
2099.96680735779
 21
-1168.92762431443
 31
0.0
  0
LINE
  5
   5C0
  8
0
  6
CONTINUOUS
 62
     7
 10
2100.1094943479
 20
-1168.90891459779
 30
0.0
 11
2099.96680941432
 21
-1168.92762377975
 31
0.0
  0
LINE
  5
   5C1
  8
0
  6
CONTINUOUS
 62
     7
 10
2100.24252737456
 20
-1168.85405207528
 30
0.0
 11
2100.10948980987
 21
-1168.90891505028
 31
0.0
  0
LINE
  5
   5C2
  8
0
  6
CONTINUOUS
 62
     7
 10
2100.35692634964
 20
-1168.7667419757
 30
0.0
 11
2100.24253120887
 21
-1168.85404919318
 31
0.0
  0
LINE
  5
   5C3
  8
0
  6
CONTINUOUS
 62
     7
 10
2100.44494572945
 20
-1168.65289612156
 30
0.0
 11
2100.35692540569
 21
-1168.76674456642
 31
0.0
  0
LINE
  5
   5C4
  8
0
  6
CONTINUOUS
 62
     7
 10
2100.20848488553
 20
-1168.51506075295
 30
0.0
 11
2100.44494649901
 21
-1168.65289528302
 31
0.0
  0
LINE
  5
   5C5
  8
0
  6
CONTINUOUS
 62
     7
 10
2100.20848062658
 20
-1168.51506347878
 30
0.0
 11
2100.14602258414
 21
-1168.5889775359
 31
0.0
  0
LINE
  5
   5C6
  8
0
  6
CONTINUOUS
 62
     7
 10
2100.14602375928
 20
-1168.58897551705
 30
0.0
 11
2100.06211566196
 21
-1168.63718614689
 31
0.0
  0
LINE
  5
   5C7
  8
0
  6
CONTINUOUS
 62
     7
 10
2100.06211795611
 20
-1168.63718651226
 30
0.0
 11
2099.9668077331
 21
-1168.65392444984
 31
0.0
  0
LINE
  5
   5C8
  8
0
  6
CONTINUOUS
 62
     7
 10
2099.87149276438
 20
-1168.63718640517
 30
0.0
 11
2099.96680298739
 21
-1168.65392434274
 31
0.0
  0
LINE
  5
   5C9
  8
0
  6
CONTINUOUS
 62
     7
 10
2099.78758645847
 20
-1168.58897485863
 30
0.0
 11
2099.87149455579
 21
-1168.63718548847
 31
0.0
  0
LINE
  5
   5CA
  8
0
  6
CONTINUOUS
 62
     7
 10
2099.72512873523
 20
-1168.51506033173
 30
0.0
 11
2099.78758677768
 21
-1168.58897438886
 31
0.0
  0
LINE
  5
   5CB
  8
0
  6
CONTINUOUS
 62
     7
 10
2099.68961708084
 20
-1168.41185216253
 30
0.0
 11
2099.72513191233
 21
-1168.51506094604
 31
0.0
  0
LINE
  5
   5CC
  8
0
  6
CONTINUOUS
 62
     7
 10
2099.69630540254
 20
-1168.30291105326
 30
0.0
 11
2099.68961823745
 21
-1168.41185428845
 31
0.0
  0
LINE
  5
   5CD
  8
0
  6
CONTINUOUS
 62
     7
 10
2099.74417206933
 20
-1168.20481698902
 30
0.0
 11
2099.69630524568
 21
-1168.30290883459
 31
0.0
  0
LINE
  5
   5CE
  8
0
  6
CONTINUOUS
 62
     7
 10
2099.82593260367
 20
-1168.1325098079
 30
0.0
 11
2099.74416837605
 21
-1168.20481692861
 31
0.0
  0
LINE
  5
   5CF
  8
0
  6
CONTINUOUS
 62
     7
 10
2099.92914001667
 20
-1168.0969965217
 30
0.0
 11
2099.82593338215
 21
-1168.13251039616
 31
0.0
  0
LINE
  5
   5D0
  8
0
  6
CONTINUOUS
 62
     7
 10
2099.92913821134
 20
-1168.09699754294
 30
0.0
 11
2100.03808218392
 21
-1168.10368303997
 31
0.0
  0
LINE
  5
   5D1
  8
0
  6
CONTINUOUS
 62
     7
 10
2100.03808518111
 20
-1168.1036839638
 30
0.0
 11
2100.13617631881
 21
-1168.15155150727
 31
0.0
  0
LINE
  5
   5D2
  8
0
  6
CONTINUOUS
 62
     7
 10
2100.13617763168
 20
-1168.15154567937
 30
0.0
 11
2100.20848522387
 21
-1168.23330751881
 31
0.0
  0
LINE
  5
   5D3
  8
0
  6
CONTINUOUS
 62
     7
 10
2100.44494826801
 20
-1168.09547405008
 30
0.0
 11
2100.20848665453
 21
-1168.23330858015
 31
0.0
  0
LINE
  5
   5D4
  8
0
  6
CONTINUOUS
 62
     7
 10
2100.54556682614
 20
-1167.82074980463
 30
0.0
 11
2100.54556682614
 21
-1168.92762427058
 31
0.0
  0
LINE
  5
   5D5
  8
0
  6
CONTINUOUS
 62
     7
 10
2100.54556682614
 20
-1168.92762427058
 30
0.0
 11
2101.27006557492
 21
-1168.92762427058
 31
0.0
  0
LINE
  5
   5D6
  8
0
  6
CONTINUOUS
 62
     7
 10
2101.27006557492
 20
-1168.65392451014
 30
0.0
 11
2101.27006557492
 21
-1168.92762427058
 31
0.0
  0
LINE
  5
   5D7
  8
0
  6
CONTINUOUS
 62
     7
 10
2100.81926754025
 20
-1168.65392451014
 30
0.0
 11
2101.27006557492
 21
-1168.65392451014
 31
0.0
  0
LINE
  5
   5D8
  8
0
  6
CONTINUOUS
 62
     7
 10
2100.81926754025
 20
-1168.51103691782
 30
0.0
 11
2100.81926754025
 21
-1168.65392451014
 31
0.0
  0
LINE
  5
   5D9
  8
0
  6
CONTINUOUS
 62
     7
 10
2100.81926754025
 20
-1168.51103691782
 30
0.0
 11
2101.2096903613
 21
-1168.51103691782
 31
0.0
  0
LINE
  5
   5DA
  8
0
  6
CONTINUOUS
 62
     7
 10
2101.2096903613
 20
-1168.23733691897
 30
0.0
 11
2101.2096903613
 21
-1168.51103691782
 31
0.0
  0
LINE
  5
   5DB
  8
0
  6
CONTINUOUS
 62
     7
 10
2100.81926754025
 20
-1168.23733691897
 30
0.0
 11
2101.2096903613
 21
-1168.23733691897
 31
0.0
  0
LINE
  5
   5DC
  8
0
  6
CONTINUOUS
 62
     7
 10
2100.81926754025
 20
-1168.09444957997
 30
0.0
 11
2100.81926754025
 21
-1168.23733691897
 31
0.0
  0
LINE
  5
   5DD
  8
0
  6
CONTINUOUS
 62
     7
 10
2100.81926754025
 20
-1168.09444956507
 30
0.0
 11
2101.27006557492
 21
-1168.09444956507
 31
0.0
  0
LINE
  5
   5DE
  8
0
  6
CONTINUOUS
 62
     7
 10
2101.27006557492
 20
-1167.82074956621
 30
0.0
 11
2101.27006557492
 21
-1168.09444956507
 31
0.0
  0
LINE
  5
   5DF
  8
0
  6
CONTINUOUS
 62
     7
 10
2100.54556682614
 20
-1167.82074956621
 30
0.0
 11
2101.27006557492
 21
-1167.82074956621
 31
0.0
  0
LINE
  5
   5E0
  8
0
  6
CONTINUOUS
 62
     7
 10
2073.05882138978
 20
-1167.71836152525
 30
0.0
 11
2072.83189273342
 21
-1168.36673784196
 31
0.0
  0
LINE
  5
   5E1
  8
0
  6
CONTINUOUS
 62
     7
 10
2072.8318888728
 20
-1168.36673592776
 30
0.0
 11
2073.24169417065
 21
-1168.36673592776
 31
0.0
  0
LINE
  5
   5E2
  8
0
  6
CONTINUOUS
 62
     7
 10
2073.05881758374
 20
-1167.71835946292
 30
0.0
 11
2073.24169417065
 21
-1167.71835946292
 31
0.0
  0
LINE
  5
   5E3
  8
0
  6
CONTINUOUS
 62
     7
 10
2072.59331770581
 20
-1169.04835771769
 30
0.0
 11
2072.92581816357
 21
-1169.04835771769
 31
0.0
  0
LINE
  5
   5E4
  8
0
  6
CONTINUOUS
 62
     7
 10
2073.01892246862
 20
-1168.78235866238
 30
0.0
 11
2072.92582097079
 21
-1169.04835846885
 31
0.0
  0
LINE
  5
   5E5
  8
0
  6
CONTINUOUS
 62
     7
 10
2073.01891966503
 20
-1168.78235792369
 30
0.0
 11
2073.24169417065
 21
-1168.78235792369
 31
0.0
  0
LINE
  5
   5E6
  8
0
  6
CONTINUOUS
 62
     7
 10
2072.82025023144
 20
-1168.39998482913
 30
0.0
 11
2073.24169417065
 21
-1168.39998482913
 31
0.0
  0
LINE
  5
   5E7
  8
0
  6
CONTINUOUS
 62
     7
 10
2072.82025288479
 20
-1168.39998617793
 30
0.0
 11
2072.59332042697
 21
-1169.04835893167
 31
0.0
  0
LINE
  5
   5E8
  8
0
  6
CONTINUOUS
 62
     7
 10
2073.69639411928
 20
-1168.39998626729
 30
0.0
 11
2073.92332657711
 21
-1169.04835902103
 31
0.0
  0
LINE
  5
   5E9
  8
0
  6
CONTINUOUS
 62
     7
 10
2073.27494307202
 20
-1168.39998482913
 30
0.0
 11
2073.69638701123
 21
-1168.39998482913
 31
0.0
  0
LINE
  5
   5EA
  8
0
  6
CONTINUOUS
 62
     7
 10
2073.27494307202
 20
-1168.39998482913
 30
0.0
 11
2073.27494307202
 21
-1168.78235792369
 31
0.0
  0
LINE
  5
   5EB
  8
0
  6
CONTINUOUS
 62
     7
 10
2073.27494307202
 20
-1168.78235792369
 30
0.0
 11
2073.49771757763
 21
-1168.78235792369
 31
0.0
  0
LINE
  5
   5EC
  8
0
  6
CONTINUOUS
 62
     7
 10
2073.49772336912
 20
-1168.78235750375
 30
0.0
 11
2073.59082486695
 21
-1169.04835731022
 31
0.0
  0
LINE
  5
   5ED
  8
0
  6
CONTINUOUS
 62
     7
 10
2073.5908190791
 20
-1169.04835771769
 30
0.0
 11
2073.92331953686
 21
-1169.04835771769
 31
0.0
  0
LINE
  5
   5EE
  8
0
  6
CONTINUOUS
 62
     7
 10
2073.27494307202
 20
-1167.71835946292
 30
0.0
 11
2073.45781965893
 21
-1167.71835946292
 31
0.0
  0
LINE
  5
   5EF
  8
0
  6
CONTINUOUS
 62
     7
 10
2073.27494307202
 20
-1167.71835946292
 30
0.0
 11
2073.27494307202
 21
-1168.36673592776
 31
0.0
  0
LINE
  5
   5F0
  8
0
  6
CONTINUOUS
 62
     7
 10
2073.27494307202
 20
-1168.36673592776
 30
0.0
 11
2073.68475218456
 21
-1168.36673592776
 31
0.0
  0
LINE
  5
   5F1
  8
0
  6
CONTINUOUS
 62
     7
 10
2073.45782347741
 20
-1167.71836077835
 30
0.0
 11
2073.68475595217
 21
-1168.36673718949
 31
0.0
  0
LINE
  5
   5F2
  8
0
  6
CONTINUOUS
 62
     7
 10
2074.00644560498
 20
-1168.36673592776
 30
0.0
 11
2074.38881941479
 21
-1168.36673592776
 31
0.0
  0
LINE
  5
   5F3
  8
0
  6
CONTINUOUS
 62
     7
 10
2074.38881941479
 20
-1167.71835946292
 30
0.0
 11
2074.38881941479
 21
-1168.36673592776
 31
0.0
  0
LINE
  5
   5F4
  8
0
  6
CONTINUOUS
 62
     7
 10
2074.00644560498
 20
-1167.71835946292
 30
0.0
 11
2074.38881941479
 21
-1167.71835946292
 31
0.0
  0
LINE
  5
   5F5
  8
0
  6
CONTINUOUS
 62
     7
 10
2074.00644560498
 20
-1169.04835771769
 30
0.0
 11
2074.38881941479
 21
-1169.04835771769
 31
0.0
  0
LINE
  5
   5F6
  8
0
  6
CONTINUOUS
 62
     7
 10
2074.38881941479
 20
-1168.39998482913
 30
0.0
 11
2074.38881941479
 21
-1169.04835771769
 31
0.0
  0
LINE
  5
   5F7
  8
0
  6
CONTINUOUS
 62
     7
 10
2074.00644560498
 20
-1168.39998482913
 30
0.0
 11
2074.38881941479
 21
-1168.39998482913
 31
0.0
  0
LINE
  5
   5F8
  8
0
  6
CONTINUOUS
 62
     7
 10
2075.03719206494
 20
-1167.71835946292
 30
0.0
 11
2075.03719206494
 21
-1168.36673592776
 31
0.0
  0
LINE
  5
   5F9
  8
0
  6
CONTINUOUS
 62
     7
 10
2075.03719206494
 20
-1168.36673592776
 30
0.0
 11
2075.41956968945
 21
-1168.36673592776
 31
0.0
  0
LINE
  5
   5FA
  8
0
  6
CONTINUOUS
 62
     7
 10
2075.41956968945
 20
-1167.71835946292
 30
0.0
 11
2075.41956968945
 21
-1168.36673592776
 31
0.0
  0
LINE
  5
   5FB
  8
0
  6
CONTINUOUS
 62
     7
 10
2075.03719206494
 20
-1167.71835946292
 30
0.0
 11
2075.41956968945
 21
-1167.71835946292
 31
0.0
  0
LINE
  5
   5FC
  8
0
  6
CONTINUOUS
 62
     7
 10
2075.03719206494
 20
-1169.04835771769
 30
0.0
 11
2075.41956968945
 21
-1169.04835771769
 31
0.0
  0
LINE
  5
   5FD
  8
0
  6
CONTINUOUS
 62
     7
 10
2075.41956968945
 20
-1168.39998482913
 30
0.0
 11
2075.41956968945
 21
-1169.04835771769
 31
0.0
  0
LINE
  5
   5FE
  8
0
  6
CONTINUOUS
 62
     7
 10
2075.03719206494
 20
-1168.39998482913
 30
0.0
 11
2075.41956968945
 21
-1168.39998482913
 31
0.0
  0
LINE
  5
   5FF
  8
0
  6
CONTINUOUS
 62
     7
 10
2075.03719206494
 20
-1168.39998482913
 30
0.0
 11
2075.03719206494
 21
-1169.04835771769
 31
0.0
  0
LINE
  5
   600
  8
0
  6
CONTINUOUS
 62
     7
 10
2075.45281859081
 20
-1167.71835946292
 30
0.0
 11
2075.55968733471
 21
-1167.71835946292
 31
0.0
  0
LINE
  5
   601
  8
0
  6
CONTINUOUS
 62
     7
 10
2075.45281859081
 20
-1167.71835946292
 30
0.0
 11
2075.45281859081
 21
-1168.36673592776
 31
0.0
  0
LINE
  5
   602
  8
0
  6
CONTINUOUS
 62
     7
 10
2075.45281859081
 20
-1168.36673592776
 30
0.0
 11
2075.83990736645
 21
-1168.36673592776
 31
0.0
  0
LINE
  5
   603
  8
0
  6
CONTINUOUS
 62
     7
 10
2075.78279981514
 20
-1168.3236668168
 30
0.0
 11
2075.83990584102
 21
-1168.3667347554
 31
0.0
  0
LINE
  5
   604
  8
0
  6
CONTINUOUS
 62
     7
 10
2075.71881857321
 20
-1168.29170459946
 30
0.0
 11
2075.78280249981
 21
-1168.32366795079
 31
0.0
  0
LINE
  5
   605
  8
0
  6
CONTINUOUS
 62
     7
 10
2075.79497977703
 20
-1168.22703978032
 30
0.0
 11
2075.71881935324
 21
-1168.2917065191
 31
0.0
  0
LINE
  5
   606
  8
0
  6
CONTINUOUS
 62
     7
 10
2075.84650334559
 20
-1168.14143870265
 30
0.0
 11
2075.79498205004
 21
-1168.22704050644
 31
0.0
  0
LINE
  5
   607
  8
0
  6
CONTINUOUS
 62
     7
 10
2075.8679903549
 20
-1168.0438698956
 30
0.0
 11
2075.84650216777
 21
-1168.14143839591
 31
0.0
  0
LINE
  5
   608
  8
0
  6
CONTINUOUS
 62
     7
 10
2075.85719779137
 20
-1167.94454153109
 30
0.0
 11
2075.86798956674
 21
-1168.04386863945
 31
0.0
  0
LINE
  5
   609
  8
0
  6
CONTINUOUS
 62
     7
 10
2075.81525246535
 20
-1167.85386397292
 30
0.0
 11
2075.85719506834
 21
-1167.94453933792
 31
0.0
  0
LINE
  5
   60A
  8
0
  6
CONTINUOUS
 62
     7
 10
2075.74654828652
 20
-1167.78132287404
 30
0.0
 11
2075.81525099079
 21
-1167.85386316179
 31
0.0
  0
LINE
  5
   60B
  8
0
  6
CONTINUOUS
 62
     7
 10
2075.65828373458
 20
-1167.73453061289
 30
0.0
 11
2075.74655201836
 21
-1167.78132932278
 31
0.0
  0
LINE
  5
   60C
  8
0
  6
CONTINUOUS
 62
     7
 10
2075.45281859081
 20
-1168.39998482913
 30
0.0
 11
2075.87239714306
 21
-1168.39998482913
 31
0.0
  0
LINE
  5
   60D
  8
0
  6
CONTINUOUS
 62
     7
 10
2075.45281859081
 20
-1168.39998482913
 30
0.0
 11
2075.45281859081
 21
-1169.04835771769
 31
0.0
  0
LINE
  5
   60E
  8
0
  6
CONTINUOUS
 62
     7
 10
2075.45281859081
 20
-1169.04835771769
 30
0.0
 11
2075.57647581738
 21
-1169.04835771769
 31
0.0
  0
LINE
  5
   60F
  8
0
  6
CONTINUOUS
 62
     7
 10
2075.686859519
 20
-1169.032484778
 30
0.0
 11
2075.57647742701
 21
-1169.04835844722
 31
0.0
  0
LINE
  5
   610
  8
0
  6
CONTINUOUS
 62
     7
 10
2075.78829553255
 20
-1168.98615002415
 30
0.0
 11
2075.68685891125
 21
-1169.03248452998
 31
0.0
  0
LINE
  5
   611
  8
0
  6
CONTINUOUS
 62
     7
 10
2075.87256125768
 20
-1168.91311008743
 30
0.0
 11
2075.78829458729
 21
-1168.98615033677
 31
0.0
  0
LINE
  5
   612
  8
0
  6
CONTINUOUS
 62
     7
 10
2075.93283413502
 20
-1168.81928349243
 30
0.0
 11
2075.87256191851
 21
-1168.91310978526
 31
0.0
  0
LINE
  5
   613
  8
0
  6
CONTINUOUS
 62
     7
 10
2075.96422568563
 20
-1168.71227703174
 30
0.0
 11
2075.93283835738
 21
-1168.81928476836
 31
0.0
  0
LINE
  5
   614
  8
0
  6
CONTINUOUS
 62
     7
 10
2075.96418806011
 20
-1168.60075812684
 30
0.0
 11
2075.96422239239
 21
-1168.71227484622
 31
0.0
  0
LINE
  5
   615
  8
0
  6
CONTINUOUS
 62
     7
 10
2075.93273279704
 20
-1168.49376941007
 30
0.0
 11
2075.96418878834
 21
-1168.60075736868
 31
0.0
  0
LINE
  5
   616
  8
0
  6
CONTINUOUS
 62
     7
 10
2075.87239806087
 20
-1168.39998622884
 30
0.0
 11
2075.93273131218
 21
-1168.49377199014
 31
0.0
  0
LINE
  5
   617
  8
0
  6
CONTINUOUS
 62
     7
 10
2074.42206831616
 20
-1167.71835946292
 30
0.0
 11
2074.52894087475
 21
-1167.71835946292
 31
0.0
  0
LINE
  5
   618
  8
0
  6
CONTINUOUS
 62
     7
 10
2074.42206831616
 20
-1167.71835946292
 30
0.0
 11
2074.42206831616
 21
-1168.36673592776
 31
0.0
  0
LINE
  5
   619
  8
0
  6
CONTINUOUS
 62
     7
 10
2074.42206831616
 20
-1168.36673592776
 30
0.0
 11
2074.80915709179
 21
-1168.36673592776
 31
0.0
  0
LINE
  5
   61A
  8
0
  6
CONTINUOUS
 62
     7
 10
2074.7520520205
 20
-1168.32366875768
 30
0.0
 11
2074.80915804637
 21
-1168.36673669628
 31
0.0
  0
LINE
  5
   61B
  8
0
  6
CONTINUOUS
 62
     7
 10
2074.68806755937
 20
-1168.29170452508
 30
0.0
 11
2074.75205148597
 21
-1168.3236678764
 31
0.0
  0
LINE
  5
   61C
  8
0
  6
CONTINUOUS
 62
     7
 10
2074.76422893743
 20
-1168.22703778602
 30
0.0
 11
2074.68806851365
 21
-1168.2917045248
 31
0.0
  0
LINE
  5
   61D
  8
0
  6
CONTINUOUS
 62
     7
 10
2074.81575152452
 20
-1168.14143756375
 30
0.0
 11
2074.76423022897
 21
-1168.22703936753
 31
0.0
  0
LINE
  5
   61E
  8
0
  6
CONTINUOUS
 62
     7
 10
2074.83724326817
 20
-1168.04386947619
 30
0.0
 11
2074.81575126557
 21
-1168.1414379822
 31
0.0
  0
LINE
  5
   61F
  8
0
  6
CONTINUOUS
 62
     7
 10
2074.82645176994
 20
-1167.9445398811
 30
0.0
 11
2074.83724354531
 21
-1168.04386698947
 31
0.0
  0
LINE
  5
   620
  8
0
  6
CONTINUOUS
 62
     7
 10
2074.78450370756
 20
-1167.85386700561
 30
0.0
 11
2074.82645012167
 21
-1167.94454236629
 31
0.0
  0
LINE
  5
   621
  8
0
  6
CONTINUOUS
 62
     7
 10
2074.71579955633
 20
-1167.7813211353
 30
0.0
 11
2074.78450226061
 21
-1167.85386142306
 31
0.0
  0
LINE
  5
   622
  8
0
  6
CONTINUOUS
 62
     7
 10
2074.62753096829
 20
-1167.73452940622
 30
0.0
 11
2074.71579925207
 21
-1167.78132811611
 31
0.0
  0
LINE
  5
   623
  8
0
  6
CONTINUOUS
 62
     7
 10
2074.52894056215
 20
-1167.71835921258
 30
0.0
 11
2074.62753143383
 21
-1167.73452589908
 31
0.0
  0
LINE
  5
   624
  8
0
  6
CONTINUOUS
 62
     7
 10
2074.42206831616
 20
-1168.39998482913
 30
0.0
 11
2074.8416468684
 21
-1168.39998482913
 31
0.0
  0
LINE
  5
   625
  8
0
  6
CONTINUOUS
 62
     7
 10
2074.42206831616
 20
-1168.39998482913
 30
0.0
 11
2074.42206831616
 21
-1169.04835771769
 31
0.0
  0
LINE
  5
   626
  8
0
  6
CONTINUOUS
 62
     7
 10
2074.42206831616
 20
-1169.04835771769
 30
0.0
 11
2074.54572554272
 21
-1169.04835771769
 31
0.0
  0
LINE
  5
   627
  8
0
  6
CONTINUOUS
 62
     7
 10
2074.65610795174
 20
-1169.03248723105
 30
0.0
 11
2074.54572585975
 21
-1169.04836090027
 31
0.0
  0
LINE
  5
   628
  8
0
  6
CONTINUOUS
 62
     7
 10
2074.75754536512
 20
-1168.98615067782
 30
0.0
 11
2074.65610874382
 21
-1169.03248518365
 31
0.0
  0
LINE
  5
   629
  8
0
  6
CONTINUOUS
 62
     7
 10
2074.84181127089
 20
-1168.91311057462
 30
0.0
 11
2074.7575446005
 21
-1168.98615082395
 31
0.0
  0
LINE
  5
   62A
  8
0
  6
CONTINUOUS
 62
     7
 10
2074.90208334355
 20
-1168.81928336424
 30
0.0
 11
2074.84181112704
 21
-1168.91310965707
 31
0.0
  0
LINE
  5
   62B
  8
0
  6
CONTINUOUS
 62
     7
 10
2074.93347710445
 20
-1168.71227561698
 30
0.0
 11
2074.90208595829
 21
-1168.81928336515
 31
0.0
  0
LINE
  5
   62C
  8
0
  6
CONTINUOUS
 62
     7
 10
2074.93343661278
 20
-1168.60075801096
 30
0.0
 11
2074.93347475974
 21
-1168.71227473158
 31
0.0
  0
LINE
  5
   62D
  8
0
  6
CONTINUOUS
 62
     7
 10
2074.90198345385
 20
-1168.49376946109
 30
0.0
 11
2074.93343944515
 21
-1168.60075741971
 31
0.0
  0
LINE
  5
   62E
  8
0
  6
CONTINUOUS
 62
     7
 10
2074.84164878487
 20
-1168.39998597382
 30
0.0
 11
2074.90198203618
 21
-1168.49377173513
 31
0.0
  0
LINE
  5
   62F
  8
0
  6
CONTINUOUS
 62
     7
 10
2074.00644560498
 20
-1167.71835946292
 30
0.0
 11
2074.00644560498
 21
-1169.04835771769
 31
0.0
  0
LINE
  5
   630
  8
0
  6
CONTINUOUS
 62
     7
 10
2071.24442378225
 20
-1169.9003045559
 30
0.0
 11
2085.24443002882
 21
-1169.9003045559
 31
0.0
  0
LINE
  5
   631
  8
0
  6
CONTINUOUS
 62
     7
 10
2085.49442999067
 20
-1168.9003045559
 30
0.0
 11
2085.49443004789
 21
-1170.4003045559
 31
0.0
  0
LINE
  5
   632
  8
0
  6
CONTINUOUS
 62
     7
 10
2095.99444511595
 20
-1168.9003045559
 30
0.0
 11
2095.99444505873
 21
-1170.4003045559
 31
0.0
  0
LINE
  5
   633
  8
0
  6
CONTINUOUS
 62
     7
 10
2085.49442999067
 20
-1168.9003045559
 30
0.0
 11
2095.99444511595
 21
-1168.9003045559
 31
0.0
  0
LINE
  5
   634
  8
0
  6
CONTINUOUS
 62
     7
 10
2096.2444450778
 20
-1169.9003045559
 30
0.0
 11
2110.24442378225
 21
-1169.9003045559
 31
0.0
  0
LINE
  5
   635
  8
0
  6
CONTINUOUS
 62
     7
 10
2085.24442998114
 20
-1168.6503045559
 30
0.0
 11
2096.24444512549
 21
-1168.6503045559
 31
0.0
  0
LINE
  5
   636
  8
0
  6
CONTINUOUS
 62
     7
 10
2096.24444512549
 20
-1168.6503045559
 30
0.0
 11
2096.24444505873
 21
-1170.4003045559
 31
0.0
  0
LINE
  5
   637
  8
0
  6
CONTINUOUS
 62
     7
 10
2085.24442998114
 20
-1168.6503045559
 30
0.0
 11
2085.24443004789
 21
-1170.4003045559
 31
0.0
  0
LINE
  5
   638
  8
0
  6
CONTINUOUS
 62
     7
 10
2095.9944445645
 20
-1183.35622995321
 30
0.0
 11
2095.99444450728
 21
-1184.85622995321
 31
0.0
  0
LINE
  5
   639
  8
0
  6
CONTINUOUS
 62
     7
 10
2085.49443054212
 20
-1183.35622995321
 30
0.0
 11
2085.49443059934
 21
-1184.85622995321
 31
0.0
  0
LINE
  5
   63A
  8
0
  6
CONTINUOUS
 62
     7
 10
2085.49443054212
 20
-1183.35622995321
 30
0.0
 11
2086.99443054212
 21
-1183.35622995321
 31
0.0
  0
LINE
  5
   63B
  8
0
  6
CONTINUOUS
 62
     7
 10
2094.4944445645
 20
-1183.35622995321
 30
0.0
 11
2095.9944445645
 21
-1183.35622995321
 31
0.0
  0
LINE
  5
   63C
  8
0
  6
CONTINUOUS
 62
     7
 10
2085.49443059934
 20
-1184.85622995321
 30
0.0
 11
2087.49443059934
 21
-1184.85622995321
 31
0.0
  0
LINE
  5
   63D
  8
0
  6
CONTINUOUS
 62
     7
 10
2093.99444450728
 20
-1184.85622995321
 30
0.0
 11
2095.99444450728
 21
-1184.85622995321
 31
0.0
  0
LINE
  5
   63E
  8
0
  6
CONTINUOUS
 62
     7
 10
2077.94443869772
 20
-1186.02531218529
 30
0.0
 11
2077.94443869772
 21
-1188.27531218529
 31
0.0
  0
LINE
  5
   63F
  8
0
  6
CONTINUOUS
 62
     7
 10
2082.94443869772
 20
-1186.02531218529
 30
0.0
 11
2082.94443869772
 21
-1188.27531218529
 31
0.0
  0
LINE
  5
   640
  8
0
  6
CONTINUOUS
 62
     7
 10
2077.94443869772
 20
-1186.02531218529
 30
0.0
 11
2082.94443869772
 21
-1186.02531218529
 31
0.0
  0
LINE
  5
   641
  8
0
  6
CONTINUOUS
 62
     7
 10
2077.94443869772
 20
-1188.27531218529
 30
0.0
 11
2082.94443869772
 21
-1188.27531218529
 31
0.0
  0
LINE
  5
   642
  8
0
  6
CONTINUOUS
 62
     7
 10
2071.24442370596
 20
-1170.4003045559
 30
0.0
 11
2071.24442359152
 21
-1171.1503045559
 31
0.0
  0
LINE
  5
   643
  8
0
  6
CONTINUOUS
 62
     7
 10
2071.244421379
 20
-1185.65030455589
 30
0.0
 11
2071.24442126456
 21
-1186.40030455589
 31
0.0
  0
LINE
  5
   644
  8
0
  6
CONTINUOUS
 62
     7
 10
2070.34442675771
 20
-1150.40032569744
 30
0.0
 11
2070.34442614737
 21
-1154.40026855469
 31
0.0
  0
LINE
  5
   645
  8
0
  6
CONTINUOUS
 62
     7
 10
2069.44442675771
 20
-1150.40032569744
 30
0.0
 11
2069.44442614737
 21
-1154.40026855469
 31
0.0
  0
LINE
  5
   646
  8
0
  6
CONTINUOUS
 62
     7
 10
2068.54442675771
 20
-1150.40032569744
 30
0.0
 11
2068.54442614737
 21
-1154.40026855469
 31
0.0
  0
LINE
  5
   647
  8
0
  6
CONTINUOUS
 62
     7
 10
2067.64442675771
 20
-1150.40032569744
 30
0.0
 11
2067.64442614737
 21
-1154.40026855469
 31
0.0
  0
LINE
  5
   648
  8
0
  6
CONTINUOUS
 62
     7
 10
2066.74442675771
 20
-1150.40032569744
 30
0.0
 11
2066.74442614737
 21
-1154.40026855469
 31
0.0
  0
LINE
  5
   649
  8
0
  6
CONTINUOUS
 62
     7
 10
2065.84442675771
 20
-1150.40032569744
 30
0.0
 11
2065.84442614737
 21
-1154.40026855469
 31
0.0
  0
LINE
  5
   64A
  8
0
  6
CONTINUOUS
 62
     7
 10
2064.94442675771
 20
-1150.40032569744
 30
0.0
 11
2064.94442614737
 21
-1154.40026855469
 31
0.0
  0
LINE
  5
   64B
  8
0
  6
CONTINUOUS
 62
     7
 10
2064.04442675771
 20
-1150.40032569744
 30
0.0
 11
2064.04442614737
 21
-1154.40026855469
 31
0.0
  0
LINE
  5
   64C
  8
0
  6
CONTINUOUS
 62
     7
 10
2063.14442675771
 20
-1150.40032569744
 30
0.0
 11
2063.14442614737
 21
-1154.40026855469
 31
0.0
  0
LINE
  5
   64D
  8
0
  6
CONTINUOUS
 62
     7
 10
2062.24442675771
 20
-1150.40032569744
 30
0.0
 11
2062.24442614737
 21
-1154.40026855469
 31
0.0
  0
LINE
  5
   64E
  8
0
  6
CONTINUOUS
 62
     7
 10
2061.34442675771
 20
-1150.40032569744
 30
0.0
 11
2061.34442614737
 21
-1154.40026855469
 31
0.0
  0
LINE
  5
   64F
  8
0
  6
CONTINUOUS
 62
     7
 10
2060.44442675771
 20
-1150.40032569744
 30
0.0
 11
2060.44442614737
 21
-1154.40026855469
 31
0.0
  0
LINE
  5
   650
  8
0
  6
CONTINUOUS
 62
     7
 10
2059.54442675771
 20
-1150.40032569744
 30
0.0
 11
2059.54442614737
 21
-1154.40026855469
 31
0.0
  0
LINE
  5
   651
  8
0
  6
CONTINUOUS
 62
     7
 10
2110.24437147141
 20
-1204.52529704977
 30
0.0
 11
2110.24437335968
 21
-1216.90026855469
 31
0.0
  0
LINE
  5
   652
  8
0
  6
CONTINUOUS
 62
     7
 10
2058.7443867302
 20
-1204.52529720236
 30
0.0
 11
2058.74438861847
 21
-1216.90026855469
 31
0.0
  0
LINE
  5
   653
  8
0
  6
CONTINUOUS
 62
     7
 10
2058.74439399719
 20
-1252.15026092529
 30
0.0
 11
2109.74447289983
 21
-1252.15026092529
 31
0.0
  0
LINE
  5
   654
  8
0
  6
CONTINUOUS
 62
     7
 10
2058.89439058685
 20
-1229.6502609253
 30
0.0
 11
2110.09437532806
 21
-1229.6502609253
 31
0.0
  0
LINE
  5
   655
  8
0
  6
CONTINUOUS
 62
     7
 10
2059.24438789368
 20
-1212.15028381348
 30
0.0
 11
2109.74438789368
 21
-1212.15028381348
 31
0.0
  0
LINE
  5
   656
  8
0
  6
CONTINUOUS
 62
     7
 10
2058.74438800812
 20
-1212.90028381348
 30
0.0
 11
2110.24437274933
 21
-1212.90028381348
 31
0.0
  0
LINE
  5
   657
  8
0
  6
CONTINUOUS
 62
     7
 10
2065.24439472198
 20
-1256.90026855469
 30
0.0
 11
2109.74447217504
 21
-1256.90026855469
 31
0.0
  0
LINE
  5
   658
  8
0
  6
CONTINUOUS
 62
     7
 10
2063.14443344851
 20
-1254.65026855469
 30
0.0
 11
2068.54443344851
 21
-1254.65026855469
 31
0.0
  0
ARC
  5
   659
  8
0
  6
CONTINUOUS
 62
     7
 10
2110.09437532806
 20
-1229.8002609253
 30
0.0
 40
0.15
 50
360.000008586743
 51
449.999999844103
  0
ARC
  5
   65A
  8
0
  6
CONTINUOUS
 62
     7
 10
2110.09437871551
 20
-1252.00026092529
 30
0.0
 40
0.15
 50
269.999999844103
 51
360.000008586743
  0
ARC
  5
   65B
  8
0
  6
CONTINUOUS
 62
     7
 10
2058.89439058685
 20
-1229.8002609253
 30
0.0
 40
0.15
 50
449.999999844103
 51
540.000008586744
  0
ARC
  5
   65C
  8
0
  6
CONTINUOUS
 62
     7
 10
2058.8943939743
 20
-1252.00026092529
 30
0.0
 40
0.15
 50
540.000008586744
 51
629.999999844103
  0
LINE
  5
   65D
  8
0
  6
DASHDOT
 62
     7
 10
2078.24443344851
 20
-1239.80027618408
 30
0.0
 11
2078.24443344851
 21
-1254.80027618408
 31
0.0
  0
LINE
  5
   65E
  8
0
  6
CONTINUOUS
 62
     7
 10
2069.49443337222
 20
-1247.20027618408
 30
0.0
 11
2084.49443337222
 21
-1247.20027618408
 31
0.0
  0
LINE
  5
   65F
  8
0
  6
DASHDOT
 62
     7
 10
2073.35114495994
 20
-1247.20027618408
 30
0.0
 11
2095.54982912072
 21
-1247.20027618408
 31
0.0
  0
CIRCLE
  5
   660
  8
0
  6
CONTINUOUS
 62
     7
 10
2095.74439193726
 20
-1239.10027618408
 30
0.0
 40
1.0
  0
LINE
  5
   661
  8
0
  6
CONTINUOUS
 62
     7
 10
2105.79438527909
 20
-1246.37527618408
 30
0.0
 11
2105.79438527909
 21
-1248.07527618408
 31
0.0
  0
LINE
  5
   662
  8
0
  6
CONTINUOUS
 62
     7
 10
2100.69438527909
 20
-1246.37527618408
 30
0.0
 11
2100.69438527909
 21
-1248.07527618408
 31
0.0
  0
LINE
  5
   663
  8
0
  6
CONTINUOUS
 62
     7
 10
2101.19438527909
 20
-1245.87527618408
 30
0.0
 11
2105.29438527909
 21
-1245.87527618408
 31
0.0
  0
LINE
  5
   664
  8
0
  6
CONTINUOUS
 62
     7
 10
2101.19438527909
 20
-1248.57527618408
 30
0.0
 11
2105.29438527909
 21
-1248.57527618408
 31
0.0
  0
LINE
  5
   665
  8
0
  6
CONTINUOUS
 62
     7
 10
2058.74439399719
 20
-1252.15026092529
 30
0.0
 11
2080.17817788969
 21
-1252.15026092529
 31
0.0
  0
LINE
  5
   666
  8
0
  6
CONTINUOUS
 62
     7
 10
2109.49438493347
 20
-1252.15026092529
 30
0.0
 11
2110.09437871551
 21
-1252.15026092529
 31
0.0
  0
LINE
  5
   667
  8
0
  6
DASHDOT
 62
     7
 10
2084.49438493347
 20
-1244.87526855469
 30
0.0
 11
2084.49438493347
 21
-1248.96039158504
 31
0.0
  0
LINE
  5
   668
  8
0
  6
DASHDOT
 62
     7
 10
2084.49438493347
 20
-1248.37526855469
 30
0.0
 11
2084.49438493347
 21
-1250.12526855469
 31
0.0
  0
LINE
  5
   669
  8
0
  6
CONTINUOUS
 62
     7
 10
2071.24443344851
 20
-1240.70026092529
 30
0.0
 11
2097.49443344851
 21
-1240.70026092529
 31
0.0
  0
LINE
  5
   66A
  8
0
  6
CONTINUOUS
 62
     7
 10
2097.49443344851
 20
-1240.65026092529
 30
0.0
 11
2097.49443344851
 21
-1252.15026092529
 31
0.0
  0
LINE
  5
   66B
  8
0
  6
CONTINUOUS
 62
     7
 10
2083.11938493347
 20
-1247.95027618408
 30
0.0
 11
2085.86938493347
 21
-1247.95027618408
 31
0.0
  0
LINE
  5
   66C
  8
0
  6
CONTINUOUS
 62
     7
 10
2083.11938493347
 20
-1248.95027618408
 30
0.0
 11
2085.86938493347
 21
-1248.95027618408
 31
0.0
  0
LINE
  5
   66D
  8
0
  6
DOT
 62
     7
 10
2084.86938493347
 20
-1247.95027618408
 30
0.0
 11
2084.86938493347
 21
-1248.95027618408
 31
0.0
  0
LINE
  5
   66E
  8
0
  6
DOT
 62
     7
 10
2084.11938493347
 20
-1247.95027618408
 30
0.0
 11
2084.11938493347
 21
-1248.95027618408
 31
0.0
  0
LINE
  5
   66F
  8
0
  6
CONTINUOUS
 62
     7
 10
2085.86938493347
 20
-1247.95027618408
 30
0.0
 11
2085.86938493347
 21
-1248.95027618408
 31
0.0
  0
LINE
  5
   670
  8
0
  6
CONTINUOUS
 62
     7
 10
2083.11938493347
 20
-1247.95027618408
 30
0.0
 11
2083.11938493347
 21
-1248.95027618408
 31
0.0
  0
LINE
  5
   671
  8
0
  6
CONTINUOUS
 62
     7
 10
2097.49443344851
 20
-1249.15026092529
 30
0.0
 11
2097.49443344851
 21
-1251.15026092529
 31
0.0
  0
LINE
  5
   672
  8
0
  6
CONTINUOUS
 62
     7
 10
2071.49433641843
 20
-1249.15026092529
 30
0.0
 11
2071.49433641843
 21
-1251.15026092529
 31
0.0
  0
LINE
  5
   673
  8
0
  6
CONTINUOUS
 62
     7
 10
2100.74438535538
 20
-1254.65026855469
 30
0.0
 11
2105.74438535538
 21
-1254.65026855469
 31
0.0
  0
LINE
  5
   674
  8
0
  6
CONTINUOUS
 62
     7
 10
2105.74438535538
 20
-1254.65026855469
 30
0.0
 11
2105.74438535538
 21
-1256.90026855469
 31
0.0
  0
LINE
  5
   675
  8
0
  6
CONTINUOUS
 62
     7
 10
2100.74438535538
 20
-1254.65026855469
 30
0.0
 11
2100.74438535538
 21
-1256.90026855469
 31
0.0
  0
LINE
  5
   676
  8
0
  6
DASHDOT
 62
     7
 10
2095.74439193726
 20
-1237.60027618408
 30
0.0
 11
2095.74439193726
 21
-1240.60027618408
 31
0.0
  0
LINE
  5
   677
  8
0
  6
DASHDOT
 62
     7
 10
2094.24439193726
 20
-1239.10027618408
 30
0.0
 11
2097.24439193726
 21
-1239.10027618408
 31
0.0
  0
LINE
  5
   678
  8
0
  6
CONTINUOUS
 62
     7
 10
2071.24443344851
 20
-1213.40028381348
 30
0.0
 11
2071.24443344851
 21
-1216.90026855469
 31
0.0
  0
LINE
  5
   679
  8
0
  6
CONTINUOUS
 62
     7
 10
2070.34443344851
 20
-1213.40028381348
 30
0.0
 11
2070.34443344851
 21
-1216.90026855469
 31
0.0
  0
LINE
  5
   67A
  8
0
  6
CONTINUOUS
 62
     7
 10
2069.44443344851
 20
-1213.40028381348
 30
0.0
 11
2069.44443344851
 21
-1216.90026855469
 31
0.0
  0
LINE
  5
   67B
  8
0
  6
CONTINUOUS
 62
     7
 10
2068.54443344851
 20
-1213.40028381348
 30
0.0
 11
2068.54443344851
 21
-1216.90026855469
 31
0.0
  0
LINE
  5
   67C
  8
0
  6
CONTINUOUS
 62
     7
 10
2067.64443344851
 20
-1213.40028381348
 30
0.0
 11
2067.64443344851
 21
-1216.90026855469
 31
0.0
  0
LINE
  5
   67D
  8
0
  6
CONTINUOUS
 62
     7
 10
2066.74443344851
 20
-1213.40028381348
 30
0.0
 11
2066.74443344851
 21
-1216.90026855469
 31
0.0
  0
LINE
  5
   67E
  8
0
  6
CONTINUOUS
 62
     7
 10
2065.84443344851
 20
-1213.40028381348
 30
0.0
 11
2065.84443344851
 21
-1216.90026855469
 31
0.0
  0
LINE
  5
   67F
  8
0
  6
CONTINUOUS
 62
     7
 10
2064.94443344851
 20
-1213.40028381348
 30
0.0
 11
2064.94443344851
 21
-1216.90026855469
 31
0.0
  0
LINE
  5
   680
  8
0
  6
CONTINUOUS
 62
     7
 10
2064.04443344851
 20
-1213.40028381348
 30
0.0
 11
2064.04443344851
 21
-1216.90026855469
 31
0.0
  0
LINE
  5
   681
  8
0
  6
CONTINUOUS
 62
     7
 10
2063.14443344851
 20
-1213.40028381348
 30
0.0
 11
2063.14443344851
 21
-1216.90026855469
 31
0.0
  0
LINE
  5
   682
  8
0
  6
CONTINUOUS
 62
     7
 10
2062.24443344851
 20
-1213.40028381348
 30
0.0
 11
2062.24443344851
 21
-1216.90026855469
 31
0.0
  0
LINE
  5
   683
  8
0
  6
CONTINUOUS
 62
     7
 10
2061.34443344851
 20
-1213.40028381348
 30
0.0
 11
2061.34443344851
 21
-1216.90026855469
 31
0.0
  0
LINE
  5
   684
  8
0
  6
CONTINUOUS
 62
     7
 10
2060.69443344851
 20
-1213.40028381348
 30
0.0
 11
2060.69443344851
 21
-1216.90026855469
 31
0.0
  0
LINE
  5
   685
  8
0
  6
CONTINUOUS
 62
     7
 10
2059.79443344851
 20
-1213.40028381348
 30
0.0
 11
2059.79443344851
 21
-1216.90026855469
 31
0.0
  0
CIRCLE
  5
   686
  8
0
  6
CONTINUOUS
 62
     7
 10
2103.24438535538
 20
-1239.10027618408
 30
0.0
 40
2.25
  0
LINE
  5
   687
  8
0
  6
CONTINUOUS
 62
     7
 10
2071.49443344851
 20
-1240.70026092529
 30
0.0
 11
2071.49443344851
 21
-1252.15026092529
 31
0.0
  0
LINE
  5
   688
  8
0
  6
CONTINUOUS
 62
     7
 10
2071.24443344851
 20
-1241.95026092529
 30
0.0
 11
2071.24443344851
 21
-1256.90026855469
 31
0.0
  0
LINE
  5
   689
  8
0
  6
CONTINUOUS
 62
     7
 10
2071.24443344851
 20
-1241.95026092529
 30
0.0
 11
2071.49443344851
 21
-1241.95026092529
 31
0.0
  0
LINE
  5
   68A
  8
0
  6
CONTINUOUS
 62
     7
 10
2059.24438657761
 20
-1203.02529712606
 30
0.0
 11
2109.74441880408
 21
-1203.02529712606
 31
0.0
  0
ARC
  5
   68B
  8
0
  6
CONTINUOUS
 62
     7
 10
2109.74441880408
 20
-1202.52529712606
 30
0.0
 40
0.5
 50
269.999999844103
 51
359.999991101463
  0
ARC
  5
   68C
  8
0
  6
CONTINUOUS
 62
     7
 10
2059.24445630255
 20
-1202.52529712606
 30
0.0
 40
0.5
 50
540.000008586744
 51
629.999999844103
  0
ARC
  5
   68D
  8
0
  6
CONTINUOUS
 62
     7
 10
2059.24438665391
 20
-1204.02529712606
 30
0.0
 40
0.5
 50
449.999999844103
 51
540.000008586744
  0
ARC
  5
   68E
  8
0
  6
CONTINUOUS
 62
     7
 10
2109.74437139512
 20
-1204.02529712606
 30
0.0
 40
0.5
 50
360.000008586744
 51
449.999999844103
  0
LINE
  5
   68F
  8
0
  6
CONTINUOUS
 62
     7
 10
2058.74438789368
 20
-1212.15028381348
 30
0.0
 11
2110.24437263489
 21
-1212.15028381348
 31
0.0
  0
LINE
  5
   690
  8
0
  6
CONTINUOUS
 62
     7
 10
2070.34442012014
 20
-1203.52529712606
 30
0.0
 11
2070.34442012014
 21
-1212.15028381348
 31
0.0
  0
LINE
  5
   691
  8
0
  6
CONTINUOUS
 62
     7
 10
2069.44442012015
 20
-1203.52529712606
 30
0.0
 11
2069.44442012015
 21
-1212.15028381348
 31
0.0
  0
LINE
  5
   692
  8
0
  6
CONTINUOUS
 62
     7
 10
2068.54442012015
 20
-1203.52529712606
 30
0.0
 11
2068.54442012015
 21
-1212.15028381348
 31
0.0
  0
LINE
  5
   693
  8
0
  6
CONTINUOUS
 62
     7
 10
2067.64442012014
 20
-1203.52529712606
 30
0.0
 11
2067.64442012014
 21
-1212.15028381348
 31
0.0
  0
LINE
  5
   694
  8
0
  6
CONTINUOUS
 62
     7
 10
2071.24442012014
 20
-1203.52529712606
 30
0.0
 11
2071.24442012014
 21
-1212.15028381348
 31
0.0
  0
LINE
  5
   695
  8
0
  6
CONTINUOUS
 62
     7
 10
2072.14442012015
 20
-1203.52529712606
 30
0.0
 11
2072.14442012015
 21
-1212.15028381348
 31
0.0
  0
LINE
  5
   696
  8
0
  6
CONTINUOUS
 62
     7
 10
2073.04442012014
 20
-1203.52529712606
 30
0.0
 11
2073.04442012014
 21
-1212.15028381348
 31
0.0
  0
LINE
  5
   697
  8
0
  6
CONTINUOUS
 62
     7
 10
2073.94442012014
 20
-1203.52529712606
 30
0.0
 11
2073.94442012014
 21
-1212.15028381348
 31
0.0
  0
LINE
  5
   698
  8
0
  6
CONTINUOUS
 62
     7
 10
2074.84442012015
 20
-1203.52529712606
 30
0.0
 11
2074.84442012015
 21
-1212.15028381348
 31
0.0
  0
LINE
  5
   699
  8
0
  6
CONTINUOUS
 62
     7
 10
2075.74442012015
 20
-1203.52529712606
 30
0.0
 11
2075.74442012015
 21
-1212.15028381348
 31
0.0
  0
LINE
  5
   69A
  8
0
  6
CONTINUOUS
 62
     7
 10
2076.64442012015
 20
-1203.52529712606
 30
0.0
 11
2076.64442012015
 21
-1212.15028381348
 31
0.0
  0
LINE
  5
   69B
  8
0
  6
CONTINUOUS
 62
     7
 10
2077.54442012014
 20
-1203.52529712606
 30
0.0
 11
2077.54442012014
 21
-1212.15028381348
 31
0.0
  0
LINE
  5
   69C
  8
0
  6
CONTINUOUS
 62
     7
 10
2078.44442012015
 20
-1203.52529712606
 30
0.0
 11
2078.44442012015
 21
-1212.15028381348
 31
0.0
  0
LINE
  5
   69D
  8
0
  6
CONTINUOUS
 62
     7
 10
2079.34442012015
 20
-1203.52529712606
 30
0.0
 11
2079.34442012015
 21
-1212.15028381348
 31
0.0
  0
LINE
  5
   69E
  8
0
  6
CONTINUOUS
 62
     7
 10
2080.24442012014
 20
-1203.52529712606
 30
0.0
 11
2080.24442012014
 21
-1212.15028381348
 31
0.0
  0
LINE
  5
   69F
  8
0
  6
CONTINUOUS
 62
     7
 10
2081.14442012014
 20
-1203.52529712606
 30
0.0
 11
2081.14442012014
 21
-1212.15028381348
 31
0.0
  0
LINE
  5
   6A0
  8
0
  6
CONTINUOUS
 62
     7
 10
2082.04442012015
 20
-1203.52529712606
 30
0.0
 11
2082.04442012015
 21
-1212.15028381348
 31
0.0
  0
LINE
  5
   6A1
  8
0
  6
CONTINUOUS
 62
     7
 10
2082.94442012014
 20
-1203.52529712606
 30
0.0
 11
2082.94442012014
 21
-1212.15028381348
 31
0.0
  0
LINE
  5
   6A2
  8
0
  6
CONTINUOUS
 62
     7
 10
2083.84442012014
 20
-1203.52529712606
 30
0.0
 11
2083.84442012014
 21
-1212.15028381348
 31
0.0
  0
LINE
  5
   6A3
  8
0
  6
CONTINUOUS
 62
     7
 10
2087.44442012014
 20
-1203.52529712606
 30
0.0
 11
2087.44442012014
 21
-1212.15028381348
 31
0.0
  0
LINE
  5
   6A4
  8
0
  6
CONTINUOUS
 62
     7
 10
2088.34442012015
 20
-1203.52529712606
 30
0.0
 11
2088.34442012015
 21
-1212.15028381348
 31
0.0
  0
LINE
  5
   6A5
  8
0
  6
CONTINUOUS
 62
     7
 10
2089.24442012015
 20
-1203.52529712606
 30
0.0
 11
2089.24442012015
 21
-1212.15028381348
 31
0.0
  0
LINE
  5
   6A6
  8
0
  6
CONTINUOUS
 62
     7
 10
2090.14442012014
 20
-1203.52529712606
 30
0.0
 11
2090.14442012014
 21
-1212.15028381348
 31
0.0
  0
LINE
  5
   6A7
  8
0
  6
CONTINUOUS
 62
     7
 10
2091.04442012015
 20
-1203.52529712606
 30
0.0
 11
2091.04442012015
 21
-1212.15028381348
 31
0.0
  0
LINE
  5
   6A8
  8
0
  6
CONTINUOUS
 62
     7
 10
2091.94442012014
 20
-1203.52529712606
 30
0.0
 11
2091.94442012014
 21
-1212.15028381348
 31
0.0
  0
LINE
  5
   6A9
  8
0
  6
CONTINUOUS
 62
     7
 10
2092.84442012014
 20
-1203.52529712606
 30
0.0
 11
2092.84442012014
 21
-1212.15028381348
 31
0.0
  0
LINE
  5
   6AA
  8
0
  6
CONTINUOUS
 62
     7
 10
2093.74442012014
 20
-1203.52529712606
 30
0.0
 11
2093.74442012014
 21
-1212.15028381348
 31
0.0
  0
LINE
  5
   6AB
  8
0
  6
CONTINUOUS
 62
     7
 10
2094.64442012015
 20
-1203.52529712606
 30
0.0
 11
2094.64442012015
 21
-1212.15028381348
 31
0.0
  0
LINE
  5
   6AC
  8
0
  6
CONTINUOUS
 62
     7
 10
2095.54442012015
 20
-1203.52529712606
 30
0.0
 11
2095.54442012015
 21
-1212.15028381348
 31
0.0
  0
LINE
  5
   6AD
  8
0
  6
CONTINUOUS
 62
     7
 10
2096.44442012014
 20
-1203.52529712606
 30
0.0
 11
2096.44442012014
 21
-1212.15028381348
 31
0.0
  0
LINE
  5
   6AE
  8
0
  6
CONTINUOUS
 62
     7
 10
2097.34442012014
 20
-1203.52529712606
 30
0.0
 11
2097.34442012014
 21
-1212.15028381348
 31
0.0
  0
LINE
  5
   6AF
  8
0
  6
CONTINUOUS
 62
     7
 10
2098.24442012015
 20
-1203.52529712606
 30
0.0
 11
2098.24442012015
 21
-1212.15028381348
 31
0.0
  0
LINE
  5
   6B0
  8
0
  6
CONTINUOUS
 62
     7
 10
2099.14442012015
 20
-1203.52529712606
 30
0.0
 11
2099.14442012015
 21
-1212.15028381348
 31
0.0
  0
LINE
  5
   6B1
  8
0
  6
CONTINUOUS
 62
     7
 10
2100.04442012014
 20
-1203.52529712606
 30
0.0
 11
2100.04442012014
 21
-1212.15028381348
 31
0.0
  0
LINE
  5
   6B2
  8
0
  6
CONTINUOUS
 62
     7
 10
2100.94442012014
 20
-1203.52529712606
 30
0.0
 11
2100.94442012014
 21
-1212.15028381348
 31
0.0
  0
LINE
  5
   6B3
  8
0
  6
CONTINUOUS
 62
     7
 10
2101.84442012014
 20
-1203.52529712606
 30
0.0
 11
2101.84442012014
 21
-1212.15028381348
 31
0.0
  0
LINE
  5
   6B4
  8
0
  6
CONTINUOUS
 62
     7
 10
2102.74442012014
 20
-1203.52529712606
 30
0.0
 11
2102.74442012014
 21
-1212.15028381348
 31
0.0
  0
LINE
  5
   6B5
  8
0
  6
CONTINUOUS
 62
     7
 10
2103.64442012014
 20
-1203.52529712606
 30
0.0
 11
2103.64442012014
 21
-1212.15028381348
 31
0.0
  0
LINE
  5
   6B6
  8
0
  6
CONTINUOUS
 62
     7
 10
2104.54442012015
 20
-1203.52529712606
 30
0.0
 11
2104.54442012015
 21
-1212.15028381348
 31
0.0
  0
LINE
  5
   6B7
  8
0
  6
CONTINUOUS
 62
     7
 10
2105.44442012014
 20
-1203.52529712606
 30
0.0
 11
2105.44442012014
 21
-1212.15028381348
 31
0.0
  0
LINE
  5
   6B8
  8
0
  6
CONTINUOUS
 62
     7
 10
2106.34442012014
 20
-1203.52529712606
 30
0.0
 11
2106.34442012014
 21
-1212.15028381348
 31
0.0
  0
LINE
  5
   6B9
  8
0
  6
CONTINUOUS
 62
     7
 10
2107.24442012015
 20
-1203.52529712606
 30
0.0
 11
2107.24442012015
 21
-1212.15028381348
 31
0.0
  0
LINE
  5
   6BA
  8
0
  6
CONTINUOUS
 62
     7
 10
2108.14442012015
 20
-1203.52529712606
 30
0.0
 11
2108.14442012015
 21
-1212.15028381348
 31
0.0
  0
LINE
  5
   6BB
  8
0
  6
CONTINUOUS
 62
     7
 10
2109.04442012015
 20
-1203.52529712606
 30
0.0
 11
2109.04442012015
 21
-1212.15028381348
 31
0.0
  0
LINE
  5
   6BC
  8
0
  6
CONTINUOUS
 62
     7
 10
2066.74442012014
 20
-1203.52529712606
 30
0.0
 11
2066.74442012014
 21
-1212.15028381348
 31
0.0
  0
LINE
  5
   6BD
  8
0
  6
CONTINUOUS
 62
     7
 10
2065.84442012014
 20
-1203.52529712606
 30
0.0
 11
2065.84442012014
 21
-1212.15028381348
 31
0.0
  0
LINE
  5
   6BE
  8
0
  6
CONTINUOUS
 62
     7
 10
2064.94442012015
 20
-1203.52529712606
 30
0.0
 11
2064.94442012015
 21
-1212.15028381348
 31
0.0
  0
LINE
  5
   6BF
  8
0
  6
CONTINUOUS
 62
     7
 10
2064.04442012014
 20
-1203.52529712606
 30
0.0
 11
2064.04442012014
 21
-1212.15028381348
 31
0.0
  0
LINE
  5
   6C0
  8
0
  6
CONTINUOUS
 62
     7
 10
2063.14442012015
 20
-1203.52529712606
 30
0.0
 11
2063.14442012015
 21
-1212.15028381348
 31
0.0
  0
LINE
  5
   6C1
  8
0
  6
CONTINUOUS
 62
     7
 10
2062.24442012015
 20
-1203.52529712606
 30
0.0
 11
2062.24442012015
 21
-1212.15028381348
 31
0.0
  0
LINE
  5
   6C2
  8
0
  6
CONTINUOUS
 62
     7
 10
2061.34442012014
 20
-1203.52529712606
 30
0.0
 11
2061.34442012014
 21
-1212.15028381348
 31
0.0
  0
LINE
  5
   6C3
  8
0
  6
CONTINUOUS
 62
     7
 10
2060.44442012014
 20
-1203.52529712606
 30
0.0
 11
2060.44442012014
 21
-1212.15028381348
 31
0.0
  0
LINE
  5
   6C4
  8
0
  6
CONTINUOUS
 62
     7
 10
2059.54442012014
 20
-1203.52529712606
 30
0.0
 11
2059.54442012014
 21
-1212.15028381348
 31
0.0
  0
LINE
  5
   6C5
  8
0
  6
CONTINUOUS
 62
     7
 10
2071.49443344851
 20
-1232.40033946719
 30
0.0
 11
2110.2443757248
 21
-1232.40033946719
 31
0.0
  0
INSERT
  5
   6C6
  8
255
  6
CONTINUOUS
 62
     7
  2
$2SACE
 10
2101.37008219259
 20
-1231.77545882953
 30
0.0
 41
0.6
 42
0.6
 50
359.999999792138
 43
0.6
  0
INSERT
  5
   6C7
  8
255
  6
CONTINUOUS
 62
     7
  2
$2ABB
 10
2075.70065159074
 20
-1231.80916460397
 30
0.0
 41
0.6
 42
0.6
 50
359.999999792138
 43
0.6
  0
CIRCLE
  5
   6C8
  8
0
  6
CONTINUOUS
 62
     7
 10
2078.24442162756
 20
-1247.30033946718
 30
0.0
 40
2.5
  0
CIRCLE
  5
   6C9
  8
0
  6
DOT
 62
     7
 10
2090.74443344851
 20
-1247.30033946718
 30
0.0
 40
2.5
  0
LINE
  5
   6CA
  8
0
  6
CONTINUOUS
 62
     7
 10
2075.0692730382
 20
-1245.4671665744
 30
0.0
 11
2076.0793581181
 21
-1246.05033946718
 31
0.0
  0
LINE
  5
   6CB
  8
0
  6
CONTINUOUS
 62
     7
 10
2076.2236956854
 20
-1243.80033946718
 30
0.0
 11
2076.99442162756
 21
-1245.13527595772
 31
0.0
  0
LINE
  5
   6CC
  8
0
  6
CONTINUOUS
 62
     7
 10
2075.32602653887
 20
-1243.80033946718
 30
0.0
 11
2076.2236956854
 21
-1243.80033946718
 31
0.0
  0
LINE
  5
   6CD
  8
0
  6
CONTINUOUS
 62
     7
 10
2080.26514756973
 20
-1243.80033946718
 30
0.0
 11
2081.1358787513
 21
-1243.80033946718
 31
0.0
  0
LINE
  5
   6CE
  8
0
  6
CONTINUOUS
 62
     7
 10
2080.26514756973
 20
-1243.80033946718
 30
0.0
 11
2079.49442162756
 21
-1245.13527595772
 31
0.0
  0
LINE
  5
   6CF
  8
0
  6
CONTINUOUS
 62
     7
 10
2081.25607932076
 20
-1245.56155808731
 30
0.0
 11
2080.40948513703
 21
-1246.05033946718
 31
0.0
  0
LINE
  5
   6D0
  8
0
  6
DOT
 62
     7
 10
2088.72370750635
 20
-1243.80033946718
 30
0.0
 11
2089.49443344851
 21
-1245.13527595772
 31
0.0
  0
LINE
  5
   6D1
  8
0
  6
DOT
 62
     7
 10
2087.82603835982
 20
-1243.80033946718
 30
0.0
 11
2088.72370750635
 21
-1243.80033946718
 31
0.0
  0
LINE
  5
   6D2
  8
0
  6
DOT
 62
     7
 10
2092.76515939067
 20
-1243.80033946718
 30
0.0
 11
2093.63589057224
 21
-1243.80033946718
 31
0.0
  0
LINE
  5
   6D3
  8
0
  6
DOT
 62
     7
 10
2092.76515939067
 20
-1243.80033946718
 30
0.0
 11
2091.99443344851
 21
-1245.13527595772
 31
0.0
  0
LINE
  5
   6D4
  8
0
  6
DOT
 62
     7
 10
2093.75609114171
 20
-1245.56155808731
 30
0.0
 11
2092.90949695797
 21
-1246.05033946718
 31
0.0
  0
LINE
  5
   6D5
  8
0
  6
DOT
 62
     7
 10
2087.56928485915
 20
-1245.4671665744
 30
0.0
 11
2088.57936993905
 21
-1246.05033946718
 31
0.0
  0
INSERT
  5
   6D6
  8
255
  6
CONTINUOUS
 62
     7
  2
$2SETTORE
 10
2073.03797634616
 20
-1237.10898817372
 30
0.0
 41
0.45
 42
0.45
 50
359.999999792138
 43
0.45
  0
LINE
  5
   6D7
  8
0
  6
DASHDOT
 62
     7
 10
2078.24442162756
 20
-1242.57085291111
 30
0.0
 11
2078.24442162756
 21
-1254.80033946718
 31
0.0
  0
ARC
  5
   6D8
  8
0
  6
CONTINUOUS
 62
     7
 10
2101.19438527909
 20
-1246.37527618408
 30
0.0
 40
0.5
 50
449.999999844103
 51
539.999999844103
  0
ARC
  5
   6D9
  8
0
  6
CONTINUOUS
 62
     7
 10
2105.29438527909
 20
-1246.37527618408
 30
0.0
 40
0.5
 50
359.999999844103
 51
449.999999844103
  0
ARC
  5
   6DA
  8
0
  6
CONTINUOUS
 62
     7
 10
2105.29438527909
 20
-1248.07527618408
 30
0.0
 40
0.5
 50
269.999999844103
 51
359.999999844103
  0
ARC
  5
   6DB
  8
0
  6
CONTINUOUS
 62
     7
 10
2101.19438527909
 20
-1248.07527618408
 30
0.0
 40
0.5
 50
539.999999844103
 51
629.999999844103
  0
LINE
  5
   6DC
  8
0
  6
DASHDOT
 62
     7
 10
2052.25450540837
 20
-1240.90026092529
 30
0.0
 11
2114.9634105865
 21
-1240.90026092529
 31
0.0
  0
LINE
  5
   6DD
  8
0
  6
CONTINUOUS
 62
     7
 10
2070.34442004385
 20
-1122.40026092529
 30
0.0
 11
2070.34442004385
 21
-1150.27530650209
 31
0.0
  0
LINE
  5
   6DE
  8
0
  6
CONTINUOUS
 62
     7
 10
2069.44442004385
 20
-1122.40026092529
 30
0.0
 11
2069.44442004385
 21
-1150.27530650209
 31
0.0
  0
LINE
  5
   6DF
  8
0
  6
CONTINUOUS
 62
     7
 10
2068.54442004385
 20
-1122.40026092529
 30
0.0
 11
2068.54442004385
 21
-1150.27530650209
 31
0.0
  0
LINE
  5
   6E0
  8
0
  6
CONTINUOUS
 62
     7
 10
2067.64442004385
 20
-1122.40026092529
 30
0.0
 11
2067.64442004385
 21
-1150.27530650209
 31
0.0
  0
LINE
  5
   6E1
  8
0
  6
CONTINUOUS
 62
     7
 10
2071.24442004385
 20
-1122.40026092529
 30
0.0
 11
2071.24442004385
 21
-1150.27530650209
 31
0.0
  0
LINE
  5
   6E2
  8
0
  6
CONTINUOUS
 62
     7
 10
2072.14442004385
 20
-1122.40026092529
 30
0.0
 11
2072.14442004385
 21
-1150.27530650209
 31
0.0
  0
LINE
  5
   6E3
  8
0
  6
CONTINUOUS
 62
     7
 10
2073.04442004385
 20
-1122.40026092529
 30
0.0
 11
2073.04442004385
 21
-1150.27530650209
 31
0.0
  0
LINE
  5
   6E4
  8
0
  6
CONTINUOUS
 62
     7
 10
2073.94442004385
 20
-1122.40026092529
 30
0.0
 11
2073.94442004385
 21
-1150.27530650209
 31
0.0
  0
LINE
  5
   6E5
  8
0
  6
CONTINUOUS
 62
     7
 10
2074.84442004385
 20
-1122.40026092529
 30
0.0
 11
2074.84442004385
 21
-1150.27530650209
 31
0.0
  0
LINE
  5
   6E6
  8
0
  6
CONTINUOUS
 62
     7
 10
2075.74442004385
 20
-1122.40026092529
 30
0.0
 11
2075.74442004385
 21
-1150.27530650209
 31
0.0
  0
LINE
  5
   6E7
  8
0
  6
CONTINUOUS
 62
     7
 10
2076.64442004385
 20
-1122.40026092529
 30
0.0
 11
2076.64442004385
 21
-1150.27530650209
 31
0.0
  0
LINE
  5
   6E8
  8
0
  6
CONTINUOUS
 62
     7
 10
2077.54442004385
 20
-1122.40026092529
 30
0.0
 11
2077.54442004385
 21
-1150.27530650209
 31
0.0
  0
LINE
  5
   6E9
  8
0
  6
CONTINUOUS
 62
     7
 10
2078.44442004385
 20
-1122.40026092529
 30
0.0
 11
2078.44442004385
 21
-1150.27530650209
 31
0.0
  0
LINE
  5
   6EA
  8
0
  6
CONTINUOUS
 62
     7
 10
2079.34442004385
 20
-1122.40026092529
 30
0.0
 11
2079.34442004385
 21
-1150.27530650209
 31
0.0
  0
LINE
  5
   6EB
  8
0
  6
CONTINUOUS
 62
     7
 10
2080.24442004385
 20
-1122.40026092529
 30
0.0
 11
2080.24442004385
 21
-1150.27530650209
 31
0.0
  0
LINE
  5
   6EC
  8
0
  6
CONTINUOUS
 62
     7
 10
2081.14442004385
 20
-1122.40026092529
 30
0.0
 11
2081.14442004385
 21
-1150.27530650209
 31
0.0
  0
LINE
  5
   6ED
  8
0
  6
CONTINUOUS
 62
     7
 10
2082.04442004385
 20
-1122.40026092529
 30
0.0
 11
2082.04442004385
 21
-1150.27530650209
 31
0.0
  0
LINE
  5
   6EE
  8
0
  6
CONTINUOUS
 62
     7
 10
2082.94442004385
 20
-1122.40026092529
 30
0.0
 11
2082.94442004385
 21
-1150.27530650209
 31
0.0
  0
LINE
  5
   6EF
  8
0
  6
CONTINUOUS
 62
     7
 10
2084.74442004385
 20
-1122.40026092529
 30
0.0
 11
2084.74442004385
 21
-1150.27530650209
 31
0.0
  0
LINE
  5
   6F0
  8
0
  6
CONTINUOUS
 62
     7
 10
2086.54442004385
 20
-1122.40026092529
 30
0.0
 11
2086.54442004385
 21
-1150.40032569744
 31
0.0
  0
LINE
  5
   6F1
  8
0
  6
CONTINUOUS
 62
     7
 10
2087.44442004385
 20
-1122.40026092529
 30
0.0
 11
2087.44442004385
 21
-1150.27530650209
 31
0.0
  0
LINE
  5
   6F2
  8
0
  6
CONTINUOUS
 62
     7
 10
2089.24442004385
 20
-1122.40026092529
 30
0.0
 11
2089.24442004385
 21
-1150.27530650209
 31
0.0
  0
LINE
  5
   6F3
  8
0
  6
CONTINUOUS
 62
     7
 10
2091.04442004385
 20
-1122.40026092529
 30
0.0
 11
2091.04442004385
 21
-1150.27530650209
 31
0.0
  0
LINE
  5
   6F4
  8
0
  6
CONTINUOUS
 62
     7
 10
2092.84442004385
 20
-1122.40026092529
 30
0.0
 11
2092.84442004385
 21
-1150.27530650209
 31
0.0
  0
LINE
  5
   6F5
  8
0
  6
CONTINUOUS
 62
     7
 10
2102.74442004385
 20
-1122.40026092529
 30
0.0
 11
2102.74442004385
 21
-1150.27530650209
 31
0.0
  0
LINE
  5
   6F6
  8
0
  6
CONTINUOUS
 62
     7
 10
2103.64442004385
 20
-1122.40026092529
 30
0.0
 11
2103.64442004385
 21
-1150.27530650209
 31
0.0
  0
LINE
  5
   6F7
  8
0
  6
CONTINUOUS
 62
     7
 10
2104.54442004385
 20
-1122.40026092529
 30
0.0
 11
2104.54442004385
 21
-1150.27530650209
 31
0.0
  0
LINE
  5
   6F8
  8
0
  6
CONTINUOUS
 62
     7
 10
2105.44442004385
 20
-1122.40026092529
 30
0.0
 11
2105.44442004385
 21
-1150.27530650209
 31
0.0
  0
LINE
  5
   6F9
  8
0
  6
CONTINUOUS
 62
     7
 10
2066.74442004385
 20
-1122.40026092529
 30
0.0
 11
2066.74442004385
 21
-1150.27530650209
 31
0.0
  0
LINE
  5
   6FA
  8
0
  6
CONTINUOUS
 62
     7
 10
2065.84442004385
 20
-1122.40026092529
 30
0.0
 11
2065.84442004385
 21
-1150.27530650209
 31
0.0
  0
LINE
  5
   6FB
  8
0
  6
CONTINUOUS
 62
     7
 10
2064.94442004385
 20
-1122.40026092529
 30
0.0
 11
2064.94442004385
 21
-1150.27530650209
 31
0.0
  0
LINE
  5
   6FC
  8
0
  6
CONTINUOUS
 62
     7
 10
2064.04442004385
 20
-1122.40026092529
 30
0.0
 11
2064.04442004385
 21
-1150.27530650209
 31
0.0
  0
LINE
  5
   6FD
  8
0
  6
CONTINUOUS
 62
     7
 10
2063.14442004385
 20
-1122.40026092529
 30
0.0
 11
2063.14442004385
 21
-1150.27530650209
 31
0.0
  0
LINE
  5
   6FE
  8
0
  6
CONTINUOUS
 62
     7
 10
2062.24442004385
 20
-1122.40026092529
 30
0.0
 11
2062.24442004385
 21
-1150.27530650209
 31
0.0
  0
LINE
  5
   6FF
  8
0
  6
CONTINUOUS
 62
     7
 10
2061.34442004385
 20
-1122.40026092529
 30
0.0
 11
2061.34442004385
 21
-1150.27530650209
 31
0.0
  0
LINE
  5
   700
  8
0
  6
CONTINUOUS
 62
     7
 10
2060.44442004385
 20
-1122.40026092529
 30
0.0
 11
2060.44442004385
 21
-1150.27530650209
 31
0.0
  0
LINE
  5
   701
  8
0
  6
CONTINUOUS
 62
     7
 10
2059.54442004385
 20
-1122.40026092529
 30
0.0
 11
2059.54442004385
 21
-1150.27530650209
 31
0.0
  0
LINE
  5
   702
  8
0
  6
CONTINUOUS
 62
     7
 10
2109.04442004385
 20
-1122.40026092529
 30
0.0
 11
2109.04442004385
 21
-1150.27530650209
 31
0.0
  0
LINE
  5
   703
  8
0
  6
CONTINUOUS
 62
     7
 10
2108.14442004385
 20
-1122.40026092529
 30
0.0
 11
2108.14442004385
 21
-1150.27530650209
 31
0.0
  0
LINE
  5
   704
  8
0
  6
CONTINUOUS
 62
     7
 10
2107.24442004385
 20
-1122.40026092529
 30
0.0
 11
2107.24442004385
 21
-1150.27530650209
 31
0.0
  0
LINE
  5
   705
  8
0
  6
CONTINUOUS
 62
     7
 10
2106.34442004385
 20
-1122.40026092529
 30
0.0
 11
2106.34442004385
 21
-1150.27530650209
 31
0.0
  0
LINE
  5
   706
  8
0
  6
CONTINUOUS
 62
     7
 10
2083.11938493347
 20
-1247.70027618408
 30
0.0
 11
2085.86938493347
 21
-1247.70027618408
 31
0.0
  0
LINE
  5
   707
  8
0
  6
CONTINUOUS
 62
     7
 10
2083.11938493347
 20
-1246.70027618408
 30
0.0
 11
2085.86938493347
 21
-1246.70027618408
 31
0.0
  0
LINE
  5
   708
  8
0
  6
CONTINUOUS
 62
     7
 10
2085.86938493347
 20
-1246.70027618408
 30
0.0
 11
2085.86938493347
 21
-1247.70027618408
 31
0.0
  0
LINE
  5
   709
  8
0
  6
CONTINUOUS
 62
     7
 10
2083.11938493347
 20
-1246.70027618408
 30
0.0
 11
2083.11938493347
 21
-1247.70027618408
 31
0.0
  0
LINE
  5
   70A
  8
0
  6
DOT
 62
     7
 10
2084.11938493347
 20
-1246.70027618408
 30
0.0
 11
2084.11938493347
 21
-1247.70027618408
 31
0.0
  0
LINE
  5
   70B
  8
0
  6
DOT
 62
     7
 10
2084.86938493347
 20
-1246.70027618408
 30
0.0
 11
2084.86938493347
 21
-1247.70027618408
 31
0.0
  0
LINE
  5
   70C
  8
0
  6
CONTINUOUS
 62
     7
 10
2084.74442012015
 20
-1203.52529712606
 30
0.0
 11
2084.74442012015
 21
-1212.15028381348
 31
0.0
  0
LINE
  5
   70D
  8
0
  6
CONTINUOUS
 62
     7
 10
2085.64442012015
 20
-1203.52529712606
 30
0.0
 11
2085.64442012015
 21
-1212.15028381348
 31
0.0
  0
LINE
  5
   70E
  8
0
  6
CONTINUOUS
 62
     7
 10
2086.54442012015
 20
-1203.52529712606
 30
0.0
 11
2086.54442012015
 21
-1212.15028381348
 31
0.0
  0
LINE
  5
   70F
  8
0
  6
CONTINUOUS
 62
     7
 10
2083.84442004385
 20
-1122.40026092529
 30
0.0
 11
2083.84442004385
 21
-1150.27530650209
 31
0.0
  0
LINE
  5
   710
  8
0
  6
CONTINUOUS
 62
     7
 10
2085.64442004385
 20
-1122.40026092529
 30
0.0
 11
2085.64442004385
 21
-1150.27530650209
 31
0.0
  0
LINE
  5
   711
  8
0
  6
CONTINUOUS
 62
     7
 10
2059.24439890289
 20
-1284.80026855469
 30
0.0
 11
2109.7443836441
 21
-1284.80026855469
 31
0.0
  0
ARC
  5
   712
  8
0
  6
CONTINUOUS
 62
     7
 10
2059.24439890289
 20
-1284.30026855469
 30
0.0
 40
0.5
 50
540.000008586744
 51
629.999999844103
  0
ARC
  5
   713
  8
0
  6
CONTINUOUS
 62
     7
 10
2109.7443836441
 20
-1284.30026855469
 30
0.0
 40
0.5
 50
269.999999844103
 51
360.000008586744
  0
LINE
  5
   714
  8
0
  6
CONTINUOUS
 62
     7
 10
2059.24444415273
 20
-1122.40026092529
 30
0.0
 11
2109.74443095389
 21
-1122.40026092529
 31
0.0
  0
ARC
  5
   715
  8
0
  6
CONTINUOUS
 62
     7
 10
2059.24444415273
 20
-1122.90026092529
 30
0.0
 40
0.5
 50
449.999999844103
 51
540.000008586744
  0
ARC
  5
   716
  8
0
  6
CONTINUOUS
 62
     7
 10
2109.74443095389
 20
-1122.90026092529
 30
0.0
 40
0.5
 50
359.999991101463
 51
449.999999844103
  0
CIRCLE
  5
   717
  8
0
  6
CONTINUOUS
 62
     7
 10
2103.24452559181
 20
-1144.275390625
 30
0.0
 40
1.5
  0
LINE
  5
   718
  8
0
  6
DOT
 62
     7
 10
2101.79215683699
 20
-1144.650390625
 30
0.0
 11
2104.69689434664
 21
-1144.650390625
 31
0.0
  0
LINE
  5
   719
  8
0
  6
DOT
 62
     7
 10
2101.79215683699
 20
-1143.900390625
 30
0.0
 11
2104.69689434664
 21
-1143.900390625
 31
0.0
  0
LINE
  5
   71A
  8
0
  6
CONTINUOUS
 62
     7
 10
2096.74448485859
 20
-1122.40026092529
 30
0.0
 11
2096.74448485859
 21
-1150.27530650209
 31
0.0
  0
LINE
  5
   71B
  8
0
  6
CONTINUOUS
 62
     7
 10
2094.94448485859
 20
-1122.40026092529
 30
0.0
 11
2094.94448485859
 21
-1150.27530650209
 31
0.0
  0
LINE
  5
   71C
  8
0
  6
CONTINUOUS
 62
     7
 10
2098.54448485859
 20
-1122.40026092529
 30
0.0
 11
2098.54448485859
 21
-1150.27530650209
 31
0.0
  0
LINE
  5
   71D
  8
0
  6
CONTINUOUS
 62
     7
 10
2099.44448485859
 20
-1122.40026092529
 30
0.0
 11
2099.44448485859
 21
-1150.27530650209
 31
0.0
  0
LINE
  5
   71E
  8
0
  6
CONTINUOUS
 62
     7
 10
2100.34448485859
 20
-1122.40026092529
 30
0.0
 11
2100.34448485859
 21
-1150.27530650209
 31
0.0
  0
LINE
  5
   71F
  8
0
  6
CONTINUOUS
 62
     7
 10
2097.64448485859
 20
-1122.40026092529
 30
0.0
 11
2097.64448485859
 21
-1150.27530650209
 31
0.0
  0
LINE
  5
   720
  8
0
  6
CONTINUOUS
 62
     7
 10
2095.84448485859
 20
-1122.40026092529
 30
0.0
 11
2095.84448485859
 21
-1150.27530650209
 31
0.0
  0
LINE
  5
   721
  8
0
  6
CONTINUOUS
 62
     7
 10
2101.54445245122
 20
-1122.40026092529
 30
0.0
 11
2101.54445245122
 21
-1150.40032569744
 31
0.0
  0
LINE
  5
   722
  8
0
  6
CONTINUOUS
 62
     7
 10
2088.34442004385
 20
-1122.40026092529
 30
0.0
 11
2088.34442004385
 21
-1150.27530650209
 31
0.0
  0
LINE
  5
   723
  8
0
  6
CONTINUOUS
 62
     7
 10
2090.14442004385
 20
-1122.40026092529
 30
0.0
 11
2090.14442004385
 21
-1150.27530650209
 31
0.0
  0
LINE
  5
   724
  8
0
  6
CONTINUOUS
 62
     7
 10
2091.94442004385
 20
-1122.40026092529
 30
0.0
 11
2091.94442004385
 21
-1150.27530650209
 31
0.0
  0
LINE
  5
   725
  8
0
  6
CONTINUOUS
 62
     7
 10
2093.74442004385
 20
-1122.40026092529
 30
0.0
 11
2093.74442004385
 21
-1150.27530650209
 31
0.0
  0
LINE
  5
   726
  8
0
  6
CONTINUOUS
 62
     7
 10
2070.34442012014
 20
-1256.90026855469
 30
0.0
 11
2070.34442012014
 21
-1284.80026855469
 31
0.0
  0
LINE
  5
   727
  8
0
  6
CONTINUOUS
 62
     7
 10
2069.44442012015
 20
-1256.90026855469
 30
0.0
 11
2069.44442012015
 21
-1284.80026855469
 31
0.0
  0
LINE
  5
   728
  8
0
  6
CONTINUOUS
 62
     7
 10
2068.54442012015
 20
-1256.90026855469
 30
0.0
 11
2068.54442012015
 21
-1284.80026855469
 31
0.0
  0
LINE
  5
   729
  8
0
  6
CONTINUOUS
 62
     7
 10
2067.64442012014
 20
-1256.90026855469
 30
0.0
 11
2067.64442012014
 21
-1284.80026855469
 31
0.0
  0
LINE
  5
   72A
  8
0
  6
CONTINUOUS
 62
     7
 10
2071.24442012014
 20
-1256.90026855469
 30
0.0
 11
2071.24442012014
 21
-1284.80026855469
 31
0.0
  0
LINE
  5
   72B
  8
0
  6
CONTINUOUS
 62
     7
 10
2072.14442012015
 20
-1256.90026855469
 30
0.0
 11
2072.14442012015
 21
-1284.80026855469
 31
0.0
  0
LINE
  5
   72C
  8
0
  6
CONTINUOUS
 62
     7
 10
2073.04442012014
 20
-1256.90026855469
 30
0.0
 11
2073.04442012014
 21
-1284.80026855469
 31
0.0
  0
LINE
  5
   72D
  8
0
  6
CONTINUOUS
 62
     7
 10
2073.94442012014
 20
-1256.90026855469
 30
0.0
 11
2073.94442012014
 21
-1284.80026855469
 31
0.0
  0
LINE
  5
   72E
  8
0
  6
CONTINUOUS
 62
     7
 10
2074.84442012015
 20
-1256.90026855469
 30
0.0
 11
2074.84442012015
 21
-1284.80026855469
 31
0.0
  0
LINE
  5
   72F
  8
0
  6
CONTINUOUS
 62
     7
 10
2075.74442012015
 20
-1256.90026855469
 30
0.0
 11
2075.74442012015
 21
-1284.80026855469
 31
0.0
  0
LINE
  5
   730
  8
0
  6
CONTINUOUS
 62
     7
 10
2076.64442012015
 20
-1256.90026855469
 30
0.0
 11
2076.64442012015
 21
-1284.80026855469
 31
0.0
  0
LINE
  5
   731
  8
0
  6
CONTINUOUS
 62
     7
 10
2077.54442012014
 20
-1256.90026855469
 30
0.0
 11
2077.54442012014
 21
-1284.80026855469
 31
0.0
  0
LINE
  5
   732
  8
0
  6
CONTINUOUS
 62
     7
 10
2078.44442012015
 20
-1256.90026855469
 30
0.0
 11
2078.44442012015
 21
-1284.80026855469
 31
0.0
  0
LINE
  5
   733
  8
0
  6
CONTINUOUS
 62
     7
 10
2079.34442012015
 20
-1256.90026855469
 30
0.0
 11
2079.34442012015
 21
-1284.80026855469
 31
0.0
  0
LINE
  5
   734
  8
0
  6
CONTINUOUS
 62
     7
 10
2080.24442012014
 20
-1256.90026855469
 30
0.0
 11
2080.24442012014
 21
-1284.80026855469
 31
0.0
  0
LINE
  5
   735
  8
0
  6
CONTINUOUS
 62
     7
 10
2081.14442012014
 20
-1256.90026855469
 30
0.0
 11
2081.14442012014
 21
-1284.80026855469
 31
0.0
  0
LINE
  5
   736
  8
0
  6
CONTINUOUS
 62
     7
 10
2082.04442012015
 20
-1256.90026855469
 30
0.0
 11
2082.04442012015
 21
-1284.80026855469
 31
0.0
  0
LINE
  5
   737
  8
0
  6
CONTINUOUS
 62
     7
 10
2083.84442012014
 20
-1256.90026855469
 30
0.0
 11
2083.84442012014
 21
-1284.80026855469
 31
0.0
  0
LINE
  5
   738
  8
0
  6
CONTINUOUS
 62
     7
 10
2085.64442012015
 20
-1256.90026855469
 30
0.0
 11
2085.64442012015
 21
-1284.80026855469
 31
0.0
  0
LINE
  5
   739
  8
0
  6
CONTINUOUS
 62
     7
 10
2086.54442012015
 20
-1256.90026855469
 30
0.0
 11
2086.54442012015
 21
-1284.80026855469
 31
0.0
  0
LINE
  5
   73A
  8
0
  6
CONTINUOUS
 62
     7
 10
2088.34442012015
 20
-1256.90026855469
 30
0.0
 11
2088.34442012015
 21
-1284.80026855469
 31
0.0
  0
LINE
  5
   73B
  8
0
  6
CONTINUOUS
 62
     7
 10
2090.14442012014
 20
-1256.90026855469
 30
0.0
 11
2090.14442012014
 21
-1284.80026855469
 31
0.0
  0
LINE
  5
   73C
  8
0
  6
CONTINUOUS
 62
     7
 10
2091.94442012014
 20
-1256.90026855469
 30
0.0
 11
2091.94442012014
 21
-1284.80026855469
 31
0.0
  0
LINE
  5
   73D
  8
0
  6
CONTINUOUS
 62
     7
 10
2093.74442012014
 20
-1256.90026855469
 30
0.0
 11
2093.74442012014
 21
-1284.80026855469
 31
0.0
  0
LINE
  5
   73E
  8
0
  6
CONTINUOUS
 62
     7
 10
2102.74442012014
 20
-1256.90026855469
 30
0.0
 11
2102.74442012014
 21
-1284.80026855469
 31
0.0
  0
LINE
  5
   73F
  8
0
  6
CONTINUOUS
 62
     7
 10
2103.64442012014
 20
-1256.90026855469
 30
0.0
 11
2103.64442012014
 21
-1284.80026855469
 31
0.0
  0
LINE
  5
   740
  8
0
  6
CONTINUOUS
 62
     7
 10
2104.54442012015
 20
-1256.90026855469
 30
0.0
 11
2104.54442012015
 21
-1284.80026855469
 31
0.0
  0
LINE
  5
   741
  8
0
  6
CONTINUOUS
 62
     7
 10
2105.44442012014
 20
-1256.90026855469
 30
0.0
 11
2105.44442012014
 21
-1284.80026855469
 31
0.0
  0
LINE
  5
   742
  8
0
  6
CONTINUOUS
 62
     7
 10
2066.74442012014
 20
-1256.90026855469
 30
0.0
 11
2066.74442012014
 21
-1284.80026855469
 31
0.0
  0
LINE
  5
   743
  8
0
  6
CONTINUOUS
 62
     7
 10
2065.84442012014
 20
-1256.90026855469
 30
0.0
 11
2065.84442012014
 21
-1284.80026855469
 31
0.0
  0
LINE
  5
   744
  8
0
  6
CONTINUOUS
 62
     7
 10
2064.94442012015
 20
-1256.90026855469
 30
0.0
 11
2064.94442012015
 21
-1284.80026855469
 31
0.0
  0
LINE
  5
   745
  8
0
  6
CONTINUOUS
 62
     7
 10
2064.04442012014
 20
-1256.90026855469
 30
0.0
 11
2064.04442012014
 21
-1284.80026855469
 31
0.0
  0
LINE
  5
   746
  8
0
  6
CONTINUOUS
 62
     7
 10
2063.14442012015
 20
-1256.90026855469
 30
0.0
 11
2063.14442012015
 21
-1284.80026855469
 31
0.0
  0
LINE
  5
   747
  8
0
  6
CONTINUOUS
 62
     7
 10
2109.04442012015
 20
-1256.90026855469
 30
0.0
 11
2109.04442012015
 21
-1284.80026855469
 31
0.0
  0
LINE
  5
   748
  8
0
  6
CONTINUOUS
 62
     7
 10
2108.14442012015
 20
-1256.90026855469
 30
0.0
 11
2108.14442012015
 21
-1284.80026855469
 31
0.0
  0
LINE
  5
   749
  8
0
  6
CONTINUOUS
 62
     7
 10
2107.24442012015
 20
-1256.90026855469
 30
0.0
 11
2107.24442012015
 21
-1284.80026855469
 31
0.0
  0
LINE
  5
   74A
  8
0
  6
CONTINUOUS
 62
     7
 10
2106.34442012014
 20
-1256.90026855469
 30
0.0
 11
2106.34442012014
 21
-1284.80026855469
 31
0.0
  0
LINE
  5
   74B
  8
0
  6
CONTINUOUS
 62
     7
 10
2082.94442012014
 20
-1256.90026855469
 30
0.0
 11
2082.94442012014
 21
-1284.80026855469
 31
0.0
  0
LINE
  5
   74C
  8
0
  6
CONTINUOUS
 62
     7
 10
2084.74442012015
 20
-1256.90026855469
 30
0.0
 11
2084.74442012015
 21
-1284.80026855469
 31
0.0
  0
CIRCLE
  5
   74D
  8
0
  6
CONTINUOUS
 62
     7
 10
2103.24452566811
 20
-1262.27520362713
 30
0.0
 40
1.5
  0
LINE
  5
   74E
  8
0
  6
DOT
 62
     7
 10
2101.79215691328
 20
-1261.90020362713
 30
0.0
 11
2104.69689442294
 21
-1261.90020362713
 31
0.0
  0
LINE
  5
   74F
  8
0
  6
DOT
 62
     7
 10
2101.79215691328
 20
-1262.65020362713
 30
0.0
 11
2104.69689442294
 21
-1262.65020362713
 31
0.0
  0
LINE
  5
   750
  8
0
  6
CONTINUOUS
 62
     7
 10
2097.64448493489
 20
-1256.90026855469
 30
0.0
 11
2097.64448493489
 21
-1284.80026855469
 31
0.0
  0
LINE
  5
   751
  8
0
  6
CONTINUOUS
 62
     7
 10
2095.84448493489
 20
-1256.90026855469
 30
0.0
 11
2095.84448493489
 21
-1284.80026855469
 31
0.0
  0
LINE
  5
   752
  8
0
  6
CONTINUOUS
 62
     7
 10
2099.44448493489
 20
-1256.90026855469
 30
0.0
 11
2099.44448493489
 21
-1284.80026855469
 31
0.0
  0
LINE
  5
   753
  8
0
  6
CONTINUOUS
 62
     7
 10
2100.34448493489
 20
-1256.90026855469
 30
0.0
 11
2100.34448493489
 21
-1284.80026855469
 31
0.0
  0
LINE
  5
   754
  8
0
  6
CONTINUOUS
 62
     7
 10
2098.54448493489
 20
-1256.90026855469
 30
0.0
 11
2098.54448493489
 21
-1284.80026855469
 31
0.0
  0
LINE
  5
   755
  8
0
  6
CONTINUOUS
 62
     7
 10
2096.74448493489
 20
-1256.90026855469
 30
0.0
 11
2096.74448493489
 21
-1284.80026855469
 31
0.0
  0
LINE
  5
   756
  8
0
  6
CONTINUOUS
 62
     7
 10
2094.94448493489
 20
-1256.90026855469
 30
0.0
 11
2094.94448493489
 21
-1284.80026855469
 31
0.0
  0
LINE
  5
   757
  8
0
  6
CONTINUOUS
 62
     7
 10
2101.54445252752
 20
-1256.90026855469
 30
0.0
 11
2101.54445252752
 21
-1284.80026855469
 31
0.0
  0
LINE
  5
   758
  8
0
  6
CONTINUOUS
 62
     7
 10
2087.44442012014
 20
-1256.90026855469
 30
0.0
 11
2087.44442012014
 21
-1284.80026855469
 31
0.0
  0
LINE
  5
   759
  8
0
  6
CONTINUOUS
 62
     7
 10
2089.24442012015
 20
-1256.90026855469
 30
0.0
 11
2089.24442012015
 21
-1284.80026855469
 31
0.0
  0
LINE
  5
   75A
  8
0
  6
CONTINUOUS
 62
     7
 10
2091.04442012015
 20
-1256.90026855469
 30
0.0
 11
2091.04442012015
 21
-1284.80026855469
 31
0.0
  0
LINE
  5
   75B
  8
0
  6
CONTINUOUS
 62
     7
 10
2092.84442012014
 20
-1256.90026855469
 30
0.0
 11
2092.84442012014
 21
-1284.80026855469
 31
0.0
  0
LINE
  5
   75C
  8
0
  6
DASHDOT
 62
     7
 10
2090.74443344851
 20
-1239.80033946718
 30
0.0
 11
2090.74443344851
 21
-1254.80033946718
 31
0.0
  0
LINE
  5
   75D
  8
0
  6
CONTINUOUS
 62
     7
 10
2059.24438665391
 20
-1203.52529712606
 30
0.0
 11
2109.74441888037
 21
-1203.52529712606
 31
0.0
  0
TEXT
  5
   75E
  8
0
  6
CONTINUOUS
 62
     2
 10
2089.59548517821
 20
-1110.48217289233
 30
0.0
 40
3.00000002980232
  1
Y
 50
359.999999844103
 41
0.916666674282816
 72
     1
 11
2090.69548521695
 21
-1110.48217289531
 31
0.0
  0
LINE
  5
   75F
  8
0
  6
CONTINUOUS
 62
     7
 10
2110.24442431632
 20
-1166.40026855469
 30
0.0
 11
2110.24442065421
 21
-1190.40026855469
 31
0.0
  0
LINE
  5
   760
  8
0
  6
CONTINUOUS
 62
     7
 10
2058.7444507903
 20
-1166.40026855469
 30
0.0
 11
2058.74445445241
 21
-1190.40026855469
 31
0.0
  0
LINE
  5
   761
  8
0
  6
CONTINUOUS
 62
     7
 10
2070.34442431632
 20
-1166.40026855469
 30
0.0
 11
2070.34442065421
 21
-1190.40026855469
 31
0.0
  0
LINE
  5
   762
  8
0
  6
CONTINUOUS
 62
     7
 10
2069.44442431632
 20
-1166.40026855469
 30
0.0
 11
2069.44442065421
 21
-1190.40026855469
 31
0.0
  0
LINE
  5
   763
  8
0
  6
CONTINUOUS
 62
     7
 10
2068.54442431632
 20
-1166.40026855469
 30
0.0
 11
2068.54442065421
 21
-1190.40026855469
 31
0.0
  0
LINE
  5
   764
  8
0
  6
CONTINUOUS
 62
     7
 10
2067.64442431632
 20
-1166.40026855469
 30
0.0
 11
2067.64442065421
 21
-1190.40026855469
 31
0.0
  0
LINE
  5
   765
  8
0
  6
CONTINUOUS
 62
     7
 10
2066.74442431632
 20
-1166.40026855469
 30
0.0
 11
2066.74442065421
 21
-1190.40026855469
 31
0.0
  0
LINE
  5
   766
  8
0
  6
CONTINUOUS
 62
     7
 10
2065.84442431632
 20
-1166.40026855469
 30
0.0
 11
2065.84442065421
 21
-1190.40026855469
 31
0.0
  0
LINE
  5
   767
  8
0
  6
CONTINUOUS
 62
     7
 10
2064.94442431632
 20
-1166.40026855469
 30
0.0
 11
2064.94442065421
 21
-1190.40026855469
 31
0.0
  0
LINE
  5
   768
  8
0
  6
CONTINUOUS
 62
     7
 10
2064.04442431632
 20
-1166.40026855469
 30
0.0
 11
2064.04442065421
 21
-1190.40026855469
 31
0.0
  0
LINE
  5
   769
  8
0
  6
CONTINUOUS
 62
     7
 10
2063.14442431632
 20
-1166.40026855469
 30
0.0
 11
2063.14442065421
 21
-1190.40026855469
 31
0.0
  0
LINE
  5
   76A
  8
0
  6
CONTINUOUS
 62
     7
 10
2062.24442431632
 20
-1166.40026855469
 30
0.0
 11
2062.24442065421
 21
-1190.40026855469
 31
0.0
  0
LINE
  5
   76B
  8
0
  6
CONTINUOUS
 62
     7
 10
2061.34442431632
 20
-1166.40026855469
 30
0.0
 11
2061.34442065421
 21
-1190.40026855469
 31
0.0
  0
LINE
  5
   76C
  8
0
  6
CONTINUOUS
 62
     7
 10
2060.44442431632
 20
-1166.40026855469
 30
0.0
 11
2060.44442065421
 21
-1190.40026855469
 31
0.0
  0
LINE
  5
   76D
  8
0
  6
CONTINUOUS
 62
     7
 10
2059.54442431632
 20
-1166.40026855469
 30
0.0
 11
2059.54442065421
 21
-1190.40026855469
 31
0.0
  0
LINE
  5
   76E
  8
0
  6
CONTINUOUS
 62
     7
 10
2070.34442012014
 20
-1202.40026855469
 30
0.0
 11
2070.34442012014
 21
-1203.02529712606
 31
0.0
  0
LINE
  5
   76F
  8
0
  6
CONTINUOUS
 62
     7
 10
2069.44442012015
 20
-1202.40026855469
 30
0.0
 11
2069.44442012015
 21
-1203.02529712606
 31
0.0
  0
LINE
  5
   770
  8
0
  6
CONTINUOUS
 62
     7
 10
2068.54442012015
 20
-1202.40026855469
 30
0.0
 11
2068.54442012015
 21
-1203.02529712606
 31
0.0
  0
LINE
  5
   771
  8
0
  6
CONTINUOUS
 62
     7
 10
2067.64442012014
 20
-1202.40026855469
 30
0.0
 11
2067.64442012014
 21
-1203.02529712606
 31
0.0
  0
LINE
  5
   772
  8
0
  6
CONTINUOUS
 62
     7
 10
2071.24442012014
 20
-1202.40026855469
 30
0.0
 11
2071.24442012014
 21
-1203.02529712606
 31
0.0
  0
LINE
  5
   773
  8
0
  6
CONTINUOUS
 62
     7
 10
2072.14442012015
 20
-1202.40026855469
 30
0.0
 11
2072.14442012015
 21
-1203.02529712606
 31
0.0
  0
LINE
  5
   774
  8
0
  6
CONTINUOUS
 62
     7
 10
2073.04442012014
 20
-1202.40026855469
 30
0.0
 11
2073.04442012014
 21
-1203.02529712606
 31
0.0
  0
LINE
  5
   775
  8
0
  6
CONTINUOUS
 62
     7
 10
2073.94442012014
 20
-1202.40026855469
 30
0.0
 11
2073.94442012014
 21
-1203.02529712606
 31
0.0
  0
LINE
  5
   776
  8
0
  6
CONTINUOUS
 62
     7
 10
2074.84442012015
 20
-1202.40026855469
 30
0.0
 11
2074.84442012015
 21
-1203.02529712606
 31
0.0
  0
LINE
  5
   777
  8
0
  6
CONTINUOUS
 62
     7
 10
2075.74442012015
 20
-1202.40026855469
 30
0.0
 11
2075.74442012015
 21
-1203.02529712606
 31
0.0
  0
LINE
  5
   778
  8
0
  6
CONTINUOUS
 62
     7
 10
2076.64442012015
 20
-1202.40026855469
 30
0.0
 11
2076.64442012015
 21
-1203.02529712606
 31
0.0
  0
LINE
  5
   779
  8
0
  6
CONTINUOUS
 62
     7
 10
2077.54442012014
 20
-1202.40026855469
 30
0.0
 11
2077.54442012014
 21
-1203.02529712606
 31
0.0
  0
LINE
  5
   77A
  8
0
  6
CONTINUOUS
 62
     7
 10
2078.44442012015
 20
-1202.40026855469
 30
0.0
 11
2078.44442012015
 21
-1203.02529712606
 31
0.0
  0
LINE
  5
   77B
  8
0
  6
CONTINUOUS
 62
     7
 10
2079.34442012015
 20
-1202.40026855469
 30
0.0
 11
2079.34442012015
 21
-1203.02529712606
 31
0.0
  0
LINE
  5
   77C
  8
0
  6
CONTINUOUS
 62
     7
 10
2080.24442012014
 20
-1202.40026855469
 30
0.0
 11
2080.24442012014
 21
-1203.02529712606
 31
0.0
  0
LINE
  5
   77D
  8
0
  6
CONTINUOUS
 62
     7
 10
2081.14442012014
 20
-1202.40026855469
 30
0.0
 11
2081.14442012014
 21
-1203.02529712606
 31
0.0
  0
LINE
  5
   77E
  8
0
  6
CONTINUOUS
 62
     7
 10
2082.04442012015
 20
-1202.40026855469
 30
0.0
 11
2082.04442012015
 21
-1203.02529712606
 31
0.0
  0
LINE
  5
   77F
  8
0
  6
CONTINUOUS
 62
     7
 10
2082.94442012014
 20
-1202.40026855469
 30
0.0
 11
2082.94442012014
 21
-1203.02529712606
 31
0.0
  0
LINE
  5
   780
  8
0
  6
CONTINUOUS
 62
     7
 10
2083.84442012014
 20
-1202.40026855469
 30
0.0
 11
2083.84442012014
 21
-1203.02529712606
 31
0.0
  0
LINE
  5
   781
  8
0
  6
CONTINUOUS
 62
     7
 10
2087.44442012014
 20
-1202.40026855469
 30
0.0
 11
2087.44442012014
 21
-1203.02529712606
 31
0.0
  0
LINE
  5
   782
  8
0
  6
CONTINUOUS
 62
     7
 10
2088.34442012015
 20
-1202.40026855469
 30
0.0
 11
2088.34442012015
 21
-1203.02529712606
 31
0.0
  0
LINE
  5
   783
  8
0
  6
CONTINUOUS
 62
     7
 10
2089.24442012015
 20
-1202.40026855469
 30
0.0
 11
2089.24442012015
 21
-1203.02529712606
 31
0.0
  0
LINE
  5
   784
  8
0
  6
CONTINUOUS
 62
     7
 10
2090.14442012014
 20
-1202.40026855469
 30
0.0
 11
2090.14442012014
 21
-1203.02529712606
 31
0.0
  0
LINE
  5
   785
  8
0
  6
CONTINUOUS
 62
     7
 10
2091.04442012015
 20
-1202.40026855469
 30
0.0
 11
2091.04442012015
 21
-1203.02529712606
 31
0.0
  0
LINE
  5
   786
  8
0
  6
CONTINUOUS
 62
     7
 10
2091.94442012014
 20
-1202.40026855469
 30
0.0
 11
2091.94442012014
 21
-1203.02529712606
 31
0.0
  0
LINE
  5
   787
  8
0
  6
CONTINUOUS
 62
     7
 10
2092.84442012014
 20
-1202.40026855469
 30
0.0
 11
2092.84442012014
 21
-1203.02529712606
 31
0.0
  0
LINE
  5
   788
  8
0
  6
CONTINUOUS
 62
     7
 10
2093.74442012014
 20
-1202.40026855469
 30
0.0
 11
2093.74442012014
 21
-1203.02529712606
 31
0.0
  0
LINE
  5
   789
  8
0
  6
CONTINUOUS
 62
     7
 10
2094.64442012015
 20
-1202.40026855469
 30
0.0
 11
2094.64442012015
 21
-1203.02529712606
 31
0.0
  0
LINE
  5
   78A
  8
0
  6
CONTINUOUS
 62
     7
 10
2095.54442012015
 20
-1202.40026855469
 30
0.0
 11
2095.54442012015
 21
-1203.02529712606
 31
0.0
  0
LINE
  5
   78B
  8
0
  6
CONTINUOUS
 62
     7
 10
2096.44442012014
 20
-1202.40026855469
 30
0.0
 11
2096.44442012014
 21
-1203.02529712606
 31
0.0
  0
LINE
  5
   78C
  8
0
  6
CONTINUOUS
 62
     7
 10
2097.34442012014
 20
-1202.40026855469
 30
0.0
 11
2097.34442012014
 21
-1203.02529712606
 31
0.0
  0
LINE
  5
   78D
  8
0
  6
CONTINUOUS
 62
     7
 10
2098.24442012015
 20
-1202.40026855469
 30
0.0
 11
2098.24442012015
 21
-1203.02529712606
 31
0.0
  0
LINE
  5
   78E
  8
0
  6
CONTINUOUS
 62
     7
 10
2099.14442012015
 20
-1202.40026855469
 30
0.0
 11
2099.14442012015
 21
-1203.02529712606
 31
0.0
  0
LINE
  5
   78F
  8
0
  6
CONTINUOUS
 62
     7
 10
2100.04442012014
 20
-1202.40026855469
 30
0.0
 11
2100.04442012014
 21
-1203.02529712606
 31
0.0
  0
LINE
  5
   790
  8
0
  6
CONTINUOUS
 62
     7
 10
2100.94442012014
 20
-1202.40026855469
 30
0.0
 11
2100.94442012014
 21
-1203.02529712606
 31
0.0
  0
LINE
  5
   791
  8
0
  6
CONTINUOUS
 62
     7
 10
2101.84442012014
 20
-1202.40026855469
 30
0.0
 11
2101.84442012014
 21
-1203.02529712606
 31
0.0
  0
LINE
  5
   792
  8
0
  6
CONTINUOUS
 62
     7
 10
2102.74442012014
 20
-1202.40026855469
 30
0.0
 11
2102.74442012014
 21
-1203.02529712606
 31
0.0
  0
LINE
  5
   793
  8
0
  6
CONTINUOUS
 62
     7
 10
2103.64442012014
 20
-1202.40026855469
 30
0.0
 11
2103.64442012014
 21
-1203.02529712606
 31
0.0
  0
LINE
  5
   794
  8
0
  6
CONTINUOUS
 62
     7
 10
2104.54442012015
 20
-1202.40026855469
 30
0.0
 11
2104.54442012015
 21
-1203.02529712606
 31
0.0
  0
LINE
  5
   795
  8
0
  6
CONTINUOUS
 62
     7
 10
2105.44442012014
 20
-1202.40026855469
 30
0.0
 11
2105.44442012014
 21
-1203.02529712606
 31
0.0
  0
LINE
  5
   796
  8
0
  6
CONTINUOUS
 62
     7
 10
2106.34442012014
 20
-1202.40026855469
 30
0.0
 11
2106.34442012014
 21
-1203.02529712606
 31
0.0
  0
LINE
  5
   797
  8
0
  6
CONTINUOUS
 62
     7
 10
2107.24442012015
 20
-1202.40026855469
 30
0.0
 11
2107.24442012015
 21
-1203.02529712606
 31
0.0
  0
LINE
  5
   798
  8
0
  6
CONTINUOUS
 62
     7
 10
2108.14442012015
 20
-1202.40026855469
 30
0.0
 11
2108.14442012015
 21
-1203.02529712606
 31
0.0
  0
LINE
  5
   799
  8
0
  6
CONTINUOUS
 62
     7
 10
2109.04442012015
 20
-1202.40026855469
 30
0.0
 11
2109.04442012015
 21
-1203.02529712606
 31
0.0
  0
LINE
  5
   79A
  8
0
  6
CONTINUOUS
 62
     7
 10
2066.74442012014
 20
-1202.40026855469
 30
0.0
 11
2066.74442012014
 21
-1203.02529712606
 31
0.0
  0
LINE
  5
   79B
  8
0
  6
CONTINUOUS
 62
     7
 10
2065.84442012014
 20
-1202.40026855469
 30
0.0
 11
2065.84442012014
 21
-1203.02529712606
 31
0.0
  0
LINE
  5
   79C
  8
0
  6
CONTINUOUS
 62
     7
 10
2064.94442012015
 20
-1202.40026855469
 30
0.0
 11
2064.94442012015
 21
-1203.02529712606
 31
0.0
  0
LINE
  5
   79D
  8
0
  6
CONTINUOUS
 62
     7
 10
2064.04442012014
 20
-1202.40026855469
 30
0.0
 11
2064.04442012014
 21
-1203.02529712606
 31
0.0
  0
LINE
  5
   79E
  8
0
  6
CONTINUOUS
 62
     7
 10
2063.14442012015
 20
-1202.40026855469
 30
0.0
 11
2063.14442012015
 21
-1203.02529712606
 31
0.0
  0
LINE
  5
   79F
  8
0
  6
CONTINUOUS
 62
     7
 10
2062.24442012015
 20
-1202.40026855469
 30
0.0
 11
2062.24442012015
 21
-1203.02529712606
 31
0.0
  0
LINE
  5
   7A0
  8
0
  6
CONTINUOUS
 62
     7
 10
2061.34442012014
 20
-1202.40026855469
 30
0.0
 11
2061.34442012014
 21
-1203.02529712606
 31
0.0
  0
LINE
  5
   7A1
  8
0
  6
CONTINUOUS
 62
     7
 10
2060.44442012014
 20
-1202.40026855469
 30
0.0
 11
2060.44442012014
 21
-1203.02529712606
 31
0.0
  0
LINE
  5
   7A2
  8
0
  6
CONTINUOUS
 62
     7
 10
2059.54442012014
 20
-1202.40026855469
 30
0.0
 11
2059.54442012014
 21
-1203.02529712606
 31
0.0
  0
LINE
  5
   7A3
  8
0
  6
CONTINUOUS
 62
     7
 10
2084.74442012015
 20
-1202.40026855469
 30
0.0
 11
2084.74442012015
 21
-1203.02529712606
 31
0.0
  0
LINE
  5
   7A4
  8
0
  6
CONTINUOUS
 62
     7
 10
2085.64442012015
 20
-1202.40026855469
 30
0.0
 11
2085.64442012015
 21
-1203.02529712606
 31
0.0
  0
LINE
  5
   7A5
  8
0
  6
CONTINUOUS
 62
     7
 10
2086.54442012015
 20
-1202.40026855469
 30
0.0
 11
2086.54442012015
 21
-1203.02529712606
 31
0.0
  0
LINE
  5
   7A6
  8
0
  6
CONTINUOUS
 62
     7
 10
2110.24441882316
 20
-1202.40026855469
 30
0.0
 11
2110.24441880408
 21
-1202.52529720236
 31
0.0
  0
LINE
  5
   7A7
  8
0
  6
CONTINUOUS
 62
     7
 10
2058.74445628347
 20
-1202.40026855469
 30
0.0
 11
2058.74445630255
 21
-1202.52529720236
 31
0.0
  0
LINE
  5
   7A8
  8
0
  6
CONTINUOUS
 62
     7
 10
2110.46530346402
 20
-1251.35983955308
 30
0.0
 11
2113.81683426116
 21
-1251.35983955308
 31
0.0
  0
LINE
  5
   7A9
  8
0
  6
CONTINUOUS
 62
     7
 10
2062.57369233642
 20
-1252.50641587842
 30
0.0
 11
2062.57369233642
 21
-1265.38334999376
 31
0.0
  0
LINE
  5
   7AA
  8
0
  6
CONTINUOUS
 62
     7
 10
2062.57369233642
 20
-1256.90026855469
 30
0.0
 11
2110.2443794632
 21
-1256.90026855469
 31
0.0
  0
LINE
  5
   7AB
  8
0
  6
CONTINUOUS
 62
     7
 10
2062.24442012015
 20
-1264.90026855469
 30
0.0
 11
2062.24442012015
 21
-1284.80026855469
 31
0.0
  0
LINE
  5
   7AC
  8
0
  6
CONTINUOUS
 62
     7
 10
2061.34442012014
 20
-1264.90026855469
 30
0.0
 11
2061.34442012014
 21
-1284.80026855469
 31
0.0
  0
LINE
  5
   7AD
  8
0
  6
CONTINUOUS
 62
     7
 10
2060.44442012014
 20
-1264.90026855469
 30
0.0
 11
2060.44442012014
 21
-1284.80026855469
 31
0.0
  0
LINE
  5
   7AE
  8
0
  6
CONTINUOUS
 62
     7
 10
2059.54442012014
 20
-1264.90026855469
 30
0.0
 11
2059.54442012014
 21
-1284.80026855469
 31
0.0
  0
LINE
  5
   7AF
  8
0
  6
CONTINUOUS
 62
     7
 10
2058.74439594269
 20
-1264.90026855469
 30
0.0
 11
2058.74439890289
 21
-1284.30026863098
 31
0.0
  0
LINE
  5
   7B0
  8
0
  6
CONTINUOUS
 62
     7
 10
2058.74439044952
 20
-1228.90026855469
 30
0.0
 11
2058.74439411163
 21
-1252.90026855469
 31
0.0
  0
LINE
  5
   7B1
  8
0
  6
CONTINUOUS
 62
     7
 10
2071.24443344851
 20
-1228.90026855469
 30
0.0
 11
2071.24443344851
 21
-1240.70026092529
 31
0.0
  0
LINE
  5
   7B2
  8
0
  6
CONTINUOUS
 62
     7
 10
2070.34443344851
 20
-1228.90026855469
 30
0.0
 11
2070.34443344851
 21
-1256.90026855469
 31
0.0
  0
LINE
  5
   7B3
  8
0
  6
CONTINUOUS
 62
     7
 10
2069.44443344851
 20
-1228.90026855469
 30
0.0
 11
2069.44443344851
 21
-1256.90026855469
 31
0.0
  0
LINE
  5
   7B4
  8
0
  6
CONTINUOUS
 62
     7
 10
2068.54443344851
 20
-1228.90026855469
 30
0.0
 11
2068.54443344851
 21
-1256.90026855469
 31
0.0
  0
LINE
  5
   7B5
  8
0
  6
CONTINUOUS
 62
     7
 10
2067.64443344851
 20
-1228.90026855469
 30
0.0
 11
2067.64443344851
 21
-1254.65026855469
 31
0.0
  0
LINE
  5
   7B6
  8
0
  6
CONTINUOUS
 62
     7
 10
2066.74443344851
 20
-1228.90026855469
 30
0.0
 11
2066.74443344851
 21
-1254.65026855469
 31
0.0
  0
LINE
  5
   7B7
  8
0
  6
CONTINUOUS
 62
     7
 10
2065.84443344851
 20
-1228.90026855469
 30
0.0
 11
2065.84443344851
 21
-1254.65026855469
 31
0.0
  0
LINE
  5
   7B8
  8
0
  6
CONTINUOUS
 62
     7
 10
2064.94443344851
 20
-1228.90026855469
 30
0.0
 11
2064.94443344851
 21
-1254.65026855469
 31
0.0
  0
LINE
  5
   7B9
  8
0
  6
CONTINUOUS
 62
     7
 10
2064.04443344851
 20
-1228.90026855469
 30
0.0
 11
2064.04443344851
 21
-1254.65026855469
 31
0.0
  0
LINE
  5
   7BA
  8
0
  6
CONTINUOUS
 62
     7
 10
2063.14443344851
 20
-1228.90026855469
 30
0.0
 11
2063.14443344851
 21
-1256.90026855469
 31
0.0
  0
LINE
  5
   7BB
  8
0
  6
CONTINUOUS
 62
     7
 10
2062.24443344851
 20
-1228.90026855469
 30
0.0
 11
2062.24443344851
 21
-1252.90026855469
 31
0.0
  0
LINE
  5
   7BC
  8
0
  6
CONTINUOUS
 62
     7
 10
2061.34443344851
 20
-1228.90026855469
 30
0.0
 11
2061.34443344851
 21
-1252.90026855469
 31
0.0
  0
LINE
  5
   7BD
  8
0
  6
CONTINUOUS
 62
     7
 10
2060.69443344851
 20
-1228.90026855469
 30
0.0
 11
2060.69443344851
 21
-1252.90026855469
 31
0.0
  0
LINE
  5
   7BE
  8
0
  6
CONTINUOUS
 62
     7
 10
2059.79443344851
 20
-1228.90026855469
 30
0.0
 11
2059.79443344851
 21
-1252.90026855469
 31
0.0
  0
LINE
  5
   7BF
  8
0
  6
CONTINUOUS
 62
     7
 10
2110.24437519074
 20
-1228.90026855469
 30
0.0
 11
2110.2443836441
 21
-1284.30026847839
 31
0.0
  0
INSERT
  5
   7C0
  8
0
  6
CONTINUOUS
 62
     3
  2
*UDIM1148
 10
0.0
 20
0.0
 30
0.0
  0
INSERT
  5
   7C1
  8
0
  6
CONTINUOUS
 62
     3
  2
*UDIM1149
 10
0.0
 20
0.0
 30
0.0
  0
INSERT
  5
   7C2
  8
0
  6
CONTINUOUS
 62
     3
  2
*UDIM1150
 10
0.0
 20
0.0
 30
0.0
  0
INSERT
  5
   7C3
  8
0
  6
CONTINUOUS
 62
     3
  2
*UDIM1151
 10
0.0
 20
0.0
 30
0.0
  0
TEXT
  5
   7C4
  8
0
  6
CONTINUOUS
 62
     2
 10
2046.81344722914
 20
-1179.91994573877
 30
0.0
 40
3.00000002980232
  1
X
 50
359.999999844103
 41
0.916666674282816
 72
     2
 11
2049.0134473107
 21
-1178.41994572984
 31
0.0
 73
     2
  0
TEXT
  5
   7C5
  8
0
  6
CONTINUOUS
 62
     2
 10
2049.4759473176
 20
-1179.91994565605
 30
0.0
 40
1.50000001490116
  1
1
 50
359.999999844103
 41
0.75
 72
     2
 11
2050.22594732709
 21
-1179.16994565063
 31
0.0
 73
     2
  0
TEXT
  5
   7C6
  8
0
  6
CONTINUOUS
 62
     2
 10
2116.0217887289
 20
-1179.9199455896
 30
0.0
 40
3.00000002980232
  1
X
 50
359.999999844103
 41
0.916666674282816
 11
2116.02178873297
 21
-1178.4199455747
 31
0.0
 73
     2
  0
TEXT
  5
   7C7
  8
0
  6
CONTINUOUS
 62
     2
 10
2118.68428881736
 20
-1179.91994550688
 30
0.0
 40
1.50000001490116
  1
1
 50
359.999999844103
 41
0.75
 11
2118.6842888194
 21
-1179.16994549943
 31
0.0
 73
     2
  0
TEXT
  5
   7C8
  8
0
  6
CONTINUOUS
 62
     2
 10
2115.49259965566
 20
-1242.45245440999
 30
0.0
 40
3.00000002980232
  1
X
 50
359.999999844103
 41
0.916666674282816
 11
2115.49259965974
 21
-1240.95245439509
 31
0.0
 73
     2
  0
TEXT
  5
   7C9
  8
0
  6
CONTINUOUS
 62
     2
 10
2118.15509974413
 20
-1242.45245432727
 30
0.0
 40
1.50000001490116
  1
2
 50
359.999999844103
 41
0.75
 11
2118.15509974616
 21
-1241.70245431982
 31
0.0
 73
     2
  0
TEXT
  5
   7CA
  8
0
  6
CONTINUOUS
 62
     2
 10
2046.81344722914
 20
-1242.36425638029
 30
0.0
 40
3.00000002980232
  1
X
 50
359.999999844103
 41
0.916666674282816
 72
     2
 11
2049.0134473107
 21
-1240.86425637136
 31
0.0
 73
     2
  0
TEXT
  5
   7CB
  8
0
  6
CONTINUOUS
 62
     2
 10
2049.4759473176
 20
-1242.36425629756
 30
0.0
 40
1.50000001490116
  1
2
 50
359.999999844103
 41
0.75
 72
     2
 11
2050.22594732709
 21
-1241.61425629215
 31
0.0
 73
     2
  0
LINE
  5
   7CC
  8
0
  6
DASHDOT
 62
     7
 10
2103.24452566811
 20
-1260.27520362713
 30
0.0
 11
2103.24452566811
 21
-1264.27520362713
 31
0.0
  0
LINE
  5
   7CD
  8
0
  6
DASHDOT
 62
     7
 10
2101.24452566811
 20
-1262.27520362713
 30
0.0
 11
2105.24452566811
 21
-1262.27520362713
 31
0.0
  0
LINE
  5
   7CE
  8
0
  6
DASHDOT
 62
     7
 10
2103.24452559181
 20
-1142.275390625
 30
0.0
 11
2103.24452559181
 21
-1146.275390625
 31
0.0
  0
LINE
  5
   7CF
  8
0
  6
DASHDOT
 62
     7
 10
2101.24452559181
 20
-1144.275390625
 30
0.0
 11
2105.24452559181
 21
-1144.275390625
 31
0.0
  0
CIRCLE
  5
   7D0
  8
0
  6
CONTINUOUS
 62
     7
 10
2103.24452566811
 20
-1206.02520362713
 30
0.0
 40
1.5
  0
LINE
  5
   7D1
  8
0
  6
DASHDOT
 62
     7
 10
2103.24452566811
 20
-1204.02520362713
 30
0.0
 11
2103.24452566811
 21
-1208.02520362713
 31
0.0
  0
LINE
  5
   7D2
  8
0
  6
DOT
 62
     7
 10
2101.79215691328
 20
-1205.65020362713
 30
0.0
 11
2104.69689442294
 21
-1205.65020362713
 31
0.0
  0
LINE
  5
   7D3
  8
0
  6
DASHDOT
 62
     7
 10
2101.24452566811
 20
-1206.02520362713
 30
0.0
 11
2105.24452566811
 21
-1206.02520362713
 31
0.0
  0
LINE
  5
   7D4
  8
0
  6
DOT
 62
     7
 10
2101.79215691328
 20
-1206.40020362713
 30
0.0
 11
2104.69689442294
 21
-1206.40020362713
 31
0.0
  0
CIRCLE
  5
   7D5
  8
0
  6
CONTINUOUS
 62
     7
 10
2065.74452559181
 20
-1144.275390625
 30
0.0
 40
1.5
  0
LINE
  5
   7D6
  8
0
  6
DASHDOT
 62
     7
 10
2065.74452559181
 20
-1142.275390625
 30
0.0
 11
2065.74452559181
 21
-1146.275390625
 31
0.0
  0
LINE
  5
   7D7
  8
0
  6
DOT
 62
     7
 10
2064.29215683699
 20
-1143.900390625
 30
0.0
 11
2067.19689434664
 21
-1143.900390625
 31
0.0
  0
LINE
  5
   7D8
  8
0
  6
DASHDOT
 62
     7
 10
2063.74452559181
 20
-1144.275390625
 30
0.0
 11
2067.74452559181
 21
-1144.275390625
 31
0.0
  0
LINE
  5
   7D9
  8
0
  6
DOT
 62
     7
 10
2064.29215683699
 20
-1144.650390625
 30
0.0
 11
2067.19689434664
 21
-1144.650390625
 31
0.0
  0
LINE
  5
   7DA
  8
0
  6
DASHDOT
 62
     7
 10
2065.74452566811
 20
-1204.02520362713
 30
0.0
 11
2065.74452566811
 21
-1208.02520362713
 31
0.0
  0
CIRCLE
  5
   7DB
  8
0
  6
CONTINUOUS
 62
     7
 10
2065.74452566811
 20
-1206.02520362713
 30
0.0
 40
1.5
  0
LINE
  5
   7DC
  8
0
  6
DOT
 62
     7
 10
2064.29215691328
 20
-1205.65020362713
 30
0.0
 11
2067.19689442294
 21
-1205.65020362713
 31
0.0
  0
LINE
  5
   7DD
  8
0
  6
DASHDOT
 62
     7
 10
2063.74452566811
 20
-1206.02520362713
 30
0.0
 11
2067.74452566811
 21
-1206.02520362713
 31
0.0
  0
LINE
  5
   7DE
  8
0
  6
DOT
 62
     7
 10
2064.29215691328
 20
-1206.40020362713
 30
0.0
 11
2067.19689442294
 21
-1206.40020362713
 31
0.0
  0
LINE
  5
   7DF
  8
0
  6
DASHDOT
 62
     7
 10
2065.74452566811
 20
-1260.27520362713
 30
0.0
 11
2065.74452566811
 21
-1264.27520362713
 31
0.0
  0
CIRCLE
  5
   7E0
  8
0
  6
CONTINUOUS
 62
     7
 10
2065.74452566811
 20
-1262.27520362713
 30
0.0
 40
1.5
  0
LINE
  5
   7E1
  8
0
  6
DOT
 62
     7
 10
2064.29215691328
 20
-1261.90020362713
 30
0.0
 11
2067.19689442294
 21
-1261.90020362713
 31
0.0
  0
LINE
  5
   7E2
  8
0
  6
DASHDOT
 62
     7
 10
2063.74452566811
 20
-1262.27520362713
 30
0.0
 11
2067.74452566811
 21
-1262.27520362713
 31
0.0
  0
LINE
  5
   7E3
  8
0
  6
DOT
 62
     7
 10
2064.29215691328
 20
-1262.65020362713
 30
0.0
 11
2067.19689442294
 21
-1262.65020362713
 31
0.0
  0
TEXT
  5
   7E4
  8
0
  6
CONTINUOUS
 62
     7
 10
2089.55068267724
 20
-1292.89474264331
 30
0.0
 40
3.00000002980232
  1
Y
 50
359.999999844103
 41
0.916666674282816
 72
     1
 11
2090.65068272005
 21
-1291.3947426314
 31
0.0
 73
     2
  0
INSERT
  5
   7E5
  8
0
  6
CONTINUOUS
 62
     3
  2
*UDIM1152
 10
0.0
 20
0.0
 30
0.0
  0
INSERT
  5
   7E6
  8
0
  6
CONTINUOUS
 62
     3
  2
*UDIM1153
 10
0.0
 20
0.0
 30
0.0
  0
INSERT
  5
   7E7
  8
0
  6
CONTINUOUS
 62
     3
  2
*UDIM1154
 10
0.0
 20
0.0
 30
0.0
  0
TEXT
  5
   7E8
  8
0
  6
CONTINUOUS
 62
     2
 10
2065.11516759273
 20
-1256.77114205473
 30
0.0
 40
2.00000008940697
  1
N
 50
359.999999844103
 41
0.625
 72
     1
 11
2065.6151676178
 21
-1255.77114201138
 31
0.0
 73
     2
  0
TEXT
  5
   7E9
  8
0
  6
CONTINUOUS
 62
     2
 10
2100.93828953599
 20
-1247.95879221609
 30
0.0
 40
1.50000001490116
  1
TEST
 50
359.999999844103
 41
0.833333361479971
 72
     1
 11
2103.31328964233
 21
-1247.20879221509
 31
0.0
 73
     2
  0
LINE
  5
   7EA
  8
0
  6
DASHDOT
 62
     7
 10
1999.46874992549
 20
-1114.86528283358
 30
0.0
 11
1999.46874992549
 21
-1124.46528297663
 31
0.0
  0
LINE
  5
   7EB
  8
0
  6
DASHDOT
 62
     7
 10
1994.66874985397
 20
-1119.6652829051
 30
0.0
 11
2004.26874999702
 21
-1119.6652829051
 31
0.0
  0
LINE
  5
   7EC
  8
0
  6
DASHDOT
 62
     7
 10
2009.46875007451
 20
-1154.86528342962
 30
0.0
 11
2009.46875007451
 21
-1164.46528357267
 31
0.0
  0
LINE
  5
   7ED
  8
0
  6
DASHDOT
 62
     7
 10
2004.66875000298
 20
-1159.66528350115
 30
0.0
 11
2014.26875014603
 21
-1159.66528350115
 31
0.0
  0
LINE
  5
   7EE
  8
0
  6
DASHDOT
 62
     7
 10
2004.46875
 20
-1118.56817711692
 30
0.0
 11
2004.46875
 21
-1162.31585869894
 31
0.0
  0
LINE
  5
   7EF
  8
0
  6
DASHDOT
 62
     7
 10
1994.46874985099
 20
-1112.06528279185
 30
0.0
 11
1994.46874985099
 21
-1126.46528300643
 31
0.0
  0
LINE
  5
   7F0
  8
0
  6
DASHDOT
 62
     7
 10
1987.2687497437
 20
-1105.86528269947
 30
0.0
 11
2001.66874995828
 21
-1105.86528269947
 31
0.0
  0
LINE
  5
   7F1
  8
0
  6
DASHDOT
 62
     7
 10
2004.46875
 20
-1112.06528279185
 30
0.0
 11
2004.46875
 21
-1126.46528300643
 31
0.0
  0
LINE
  5
   7F2
  8
0
  6
DASHDOT
 62
     7
 10
1997.26874989271
 20
-1105.86528269947
 30
0.0
 11
2011.66875010729
 21
-1105.86528269947
 31
0.0
  0
LINE
  5
   7F3
  8
0
  6
DASHDOT
 62
     7
 10
2014.46875014901
 20
-1112.06528279185
 30
0.0
 11
2014.46875014901
 21
-1126.46528300643
 31
0.0
  0
LINE
  5
   7F4
  8
0
  6
DASHDOT
 62
     7
 10
2007.26875004172
 20
-1105.86528269947
 30
0.0
 11
2021.6687502563
 21
-1105.86528269947
 31
0.0
  0
LINE
  5
   7F5
  8
0
  6
DASHDOT
 62
     7
 10
1994.46874985099
 20
-1121.35496939296
 30
0.0
 11
1994.46874985099
 21
-1222.0357580744
 31
0.0
  0
LINE
  5
   7F6
  8
0
  6
DASHDOT
 62
     7
 10
2004.46875
 20
-1152.86528339982
 30
0.0
 11
2004.46875
 21
-1228.36383173258
 31
0.0
  0
LINE
  5
   7F7
  8
0
  6
DASHDOT
 62
     7
 10
2014.46875014901
 20
-1115.89842683739
 30
0.0
 11
2014.46875014901
 21
-1224.99138529199
 31
0.0
  0
LINE
  5
   7F8
  8
0
  6
CONTINUOUS
 62
     7
 10
1979.1410233167
 20
-1099.23977322251
 30
0.0
 11
2019.84184171364
 21
-1099.23977322251
 31
0.0
  0
LINE
  5
   7F9
  8
0
  6
CONTINUOUS
 62
     7
 10
2019.84184171364
 20
-1099.23977322251
 30
0.0
 11
2019.84184171364
 21
-1233.12430621929
 31
0.0
  0
LINE
  5
   7FA
  8
0
  6
CONTINUOUS
 62
     7
 10
1979.1410233167
 20
-1099.23977322251
 30
0.0
 11
1979.1410233167
 21
-1233.12430621929
 31
0.0
  0
LINE
  5
   7FB
  8
0
  6
DASHDOT
 62
     7
 10
1984.84197799597
 20
-1144.46528327465
 30
0.0
 11
2023.35407994736
 21
-1144.46528327465
 31
0.0
  0
LINE
  5
   7FC
  8
0
  6
CONTINUOUS
 62
     7
 10
1979.1410233167
 20
-1233.12430621929
 30
0.0
 11
2019.84184171364
 21
-1233.12430621929
 31
0.0
  0
LINE
  5
   7FD
  8
0
  6
DASHDOT
 62
     7
 10
2004.46875
 20
-1202.06528413296
 30
0.0
 11
2004.46875
 21
-1240.60332937455
 31
0.0
  0
LINE
  5
   7FE
  8
0
  6
DASHDOT
 62
     7
 10
1996.86874988675
 20
-1223.06528444588
 30
0.0
 11
2012.06875011325
 21
-1223.06528444588
 31
0.0
  0
LINE
  5
   7FF
  8
0
  6
DASHDOT
 62
     7
 10
2014.46875014901
 20
-1202.06528413296
 30
0.0
 11
2014.46875014901
 21
-1217.26528435946
 31
0.0
  0
LINE
  5
   800
  8
0
  6
DASHDOT
 62
     7
 10
2006.86875003576
 20
-1223.06528444588
 30
0.0
 11
2022.06875026226
 21
-1223.06528444588
 31
0.0
  0
LINE
  5
   801
  8
0
  6
DASHDOT
 62
     7
 10
1994.46874985099
 20
-1202.06528413296
 30
0.0
 11
1994.46874985099
 21
-1217.26528435946
 31
0.0
  0
LINE
  5
   802
  8
0
  6
DASHDOT
 62
     7
 10
1986.86874973774
 20
-1223.06528444588
 30
0.0
 11
2002.06874996424
 21
-1223.06528444588
 31
0.0
  0
LINE
  5
   803
  8
0
  6
DASHDOT
 62
     7
 10
2009.46875007451
 20
-1164.46528357267
 30
0.0
 11
2009.46875007451
 21
-1211.5309032045
 31
0.0
  0
LINE
  5
   804
  8
0
  6
DASHDOT
 62
     7
 10
1999.66874992847
 20
-1169.2652836442
 30
0.0
 11
2009.26875007153
 21
-1169.2652836442
 31
0.0
  0
LINE
  5
   805
  8
0
  6
DASHDOT
 62
     7
 10
2009.46875007451
 20
-1204.46528416872
 30
0.0
 11
2009.46875007451
 21
-1214.06528431177
 31
0.0
  0
LINE
  5
   806
  8
0
  6
DASHDOT
 62
     7
 10
2004.66875000298
 20
-1209.26528424025
 30
0.0
 11
2014.26875014603
 21
-1209.26528424025
 31
0.0
  0
LINE
  5
   807
  8
0
  6
DASHDOT
 62
     7
 10
1984.46874970198
 20
-1111.66528278589
 30
0.0
 11
1984.46874970198
 21
-1126.86528301239
 31
0.0
  0
LINE
  5
   808
  8
0
  6
DASHDOT
 62
     7
 10
1976.86874958873
 20
-1105.86528269947
 30
0.0
 11
1992.06874981523
 21
-1105.86528269947
 31
0.0
  0
LINE
  5
   809
  8
0
  6
DASHDOT
 62
     7
 10
1984.46874970198
 20
-1112.08084429192
 30
0.0
 11
1984.46874970198
 21
-1217.26528435946
 31
0.0
  0
LINE
  5
   80A
  8
0
  6
DASHDOT
 62
     7
 10
1976.86874958873
 20
-1223.06528444588
 30
0.0
 11
1992.06874981523
 21
-1223.06528444588
 31
0.0
  0
LINE
  5
   80B
  8
0
  6
DASHDOT
 62
     7
 10
1975.10560293421
 20
-1184.4652838707
 30
0.0
 11
2023.31315834385
 21
-1184.4652838707
 31
0.0
  0
LINE
  5
   80C
  8
0
  6
DASHDOT
 62
     7
 10
1984.46874970198
 20
-1215.46528433263
 30
0.0
 11
1984.46874970198
 21
-1230.66528455913
 31
0.0
  0
LINE
  5
   80D
  8
0
  6
DASHDOT
 62
     7
 10
1976.86874958873
 20
-1223.06528444588
 30
0.0
 11
1992.06874981523
 21
-1223.06528444588
 31
0.0
  0
LINE
  5
   80E
  8
0
  6
DASHDOT
 62
     7
 10
1994.46874985099
 20
-1215.46528433263
 30
0.0
 11
1994.46874985099
 21
-1230.66528455913
 31
0.0
  0
LINE
  5
   80F
  8
0
  6
DASHDOT
 62
     7
 10
1986.86874973774
 20
-1223.06528444588
 30
0.0
 11
2002.06874996424
 21
-1223.06528444588
 31
0.0
  0
LINE
  5
   810
  8
0
  6
DASHDOT
 62
     7
 10
2004.46875
 20
-1215.46528433263
 30
0.0
 11
2004.46875
 21
-1230.66528455913
 31
0.0
  0
LINE
  5
   811
  8
0
  6
DASHDOT
 62
     7
 10
1996.86874988675
 20
-1223.06528444588
 30
0.0
 11
2012.06875011325
 21
-1223.06528444588
 31
0.0
  0
LINE
  5
   812
  8
0
  6
DASHDOT
 62
     7
 10
2014.46875014901
 20
-1215.46528433263
 30
0.0
 11
2014.46875014901
 21
-1230.66528455913
 31
0.0
  0
LINE
  5
   813
  8
0
  6
DASHDOT
 62
     7
 10
2006.86875003576
 20
-1223.06528444588
 30
0.0
 11
2022.06875026226
 21
-1223.06528444588
 31
0.0
  0
LINE
  5
   814
  8
0
  6
DASHDOT
 62
     7
 10
1999.46874992549
 20
-1164.46528357267
 30
0.0
 11
1999.46874992549
 21
-1174.06528371573
 31
0.0
  0
LINE
  5
   815
  8
0
  6
DASHDOT
 62
     7
 10
1994.66874985397
 20
-1169.2652836442
 30
0.0
 11
2004.26874999702
 21
-1169.2652836442
 31
0.0
  0
LINE
  5
   816
  8
0
  6
DASHDOT
 62
     7
 10
1984.46874970198
 20
-1098.26528258622
 30
0.0
 11
1984.46874970198
 21
-1113.46528281271
 31
0.0
  0
LINE
  5
   817
  8
0
  6
DASHDOT
 62
     7
 10
1976.86874958873
 20
-1105.86528269947
 30
0.0
 11
1992.06874981523
 21
-1105.86528269947
 31
0.0
  0
LINE
  5
   818
  8
0
  6
DASHDOT
 62
     7
 10
1994.46874985099
 20
-1098.26528258622
 30
0.0
 11
1994.46874985099
 21
-1113.46528281271
 31
0.0
  0
LINE
  5
   819
  8
0
  6
DASHDOT
 62
     7
 10
1986.86874973774
 20
-1105.86528269947
 30
0.0
 11
2002.06874996424
 21
-1105.86528269947
 31
0.0
  0
LINE
  5
   81A
  8
0
  6
DASHDOT
 62
     7
 10
2004.46875
 20
-1098.26528258622
 30
0.0
 11
2004.46875
 21
-1113.46528281271
 31
0.0
  0
LINE
  5
   81B
  8
0
  6
DASHDOT
 62
     7
 10
1996.86874988675
 20
-1105.86528269947
 30
0.0
 11
2012.06875011325
 21
-1105.86528269947
 31
0.0
  0
LINE
  5
   81C
  8
0
  6
DASHDOT
 62
     7
 10
2014.46875014901
 20
-1098.26528258622
 30
0.0
 11
2014.46875014901
 21
-1113.46528281271
 31
0.0
  0
LINE
  5
   81D
  8
0
  6
DASHDOT
 62
     7
 10
2006.86875003576
 20
-1105.86528269947
 30
0.0
 11
2022.06875026226
 21
-1105.86528269947
 31
0.0
  0
LINE
  5
   81E
  8
0
  6
DASHDOT
 62
     7
 10
1984.46874970198
 20
-1215.46528433263
 30
0.0
 11
1984.46874970198
 21
-1230.66528455913
 31
0.0
  0
LINE
  5
   81F
  8
0
  6
DASHDOT
 62
     7
 10
1976.86874958873
 20
-1223.06528444588
 30
0.0
 11
1992.06874981523
 21
-1223.06528444588
 31
0.0
  0
LINE
  5
   820
  8
0
  6
DASHDOT
 62
     7
 10
1994.46874985099
 20
-1215.46528433263
 30
0.0
 11
1994.46874985099
 21
-1230.66528455913
 31
0.0
  0
LINE
  5
   821
  8
0
  6
DASHDOT
 62
     7
 10
1986.86874973774
 20
-1223.06528444588
 30
0.0
 11
2002.06874996424
 21
-1223.06528444588
 31
0.0
  0
LINE
  5
   822
  8
0
  6
DASHDOT
 62
     7
 10
2004.46875
 20
-1215.46528433263
 30
0.0
 11
2004.46875
 21
-1230.66528455913
 31
0.0
  0
LINE
  5
   823
  8
0
  6
DASHDOT
 62
     7
 10
1996.86874988675
 20
-1223.06528444588
 30
0.0
 11
2012.06875011325
 21
-1223.06528444588
 31
0.0
  0
LINE
  5
   824
  8
0
  6
DASHDOT
 62
     7
 10
2014.46875014901
 20
-1215.46528433263
 30
0.0
 11
2014.46875014901
 21
-1230.66528455913
 31
0.0
  0
LINE
  5
   825
  8
0
  6
DASHDOT
 62
     7
 10
2006.86875003576
 20
-1223.06528444588
 30
0.0
 11
2022.06875026226
 21
-1223.06528444588
 31
0.0
  0
CIRCLE
  5
   826
  8
0
  6
CONTINUOUS
 62
     7
 10
1984.46874970198
 20
-1223.06528444588
 30
0.0
 40
4.00000005960464
  0
CIRCLE
  5
   827
  8
0
  6
CONTINUOUS
 62
     7
 10
1994.46874985099
 20
-1223.06528444588
 30
0.0
 40
4.00000005960464
  0
CIRCLE
  5
   828
  8
0
  6
CONTINUOUS
 62
     7
 10
2004.46875
 20
-1223.06528444588
 30
0.0
 40
4.00000005960464
  0
CIRCLE
  5
   829
  8
0
  6
CONTINUOUS
 62
     7
 10
2014.46875014901
 20
-1223.06528444588
 30
0.0
 40
4.00000005960464
  0
CIRCLE
  5
   82A
  8
0
  6
CONTINUOUS
 62
     7
 10
1984.46874970198
 20
-1105.86528269947
 30
0.0
 40
4.00000005960464
  0
CIRCLE
  5
   82B
  8
0
  6
CONTINUOUS
 62
     7
 10
1994.46874985099
 20
-1105.86528269947
 30
0.0
 40
4.00000005960464
  0
CIRCLE
  5
   82C
  8
0
  6
CONTINUOUS
 62
     7
 10
2004.46875
 20
-1105.86528269947
 30
0.0
 40
4.00000005960464
  0
CIRCLE
  5
   82D
  8
0
  6
CONTINUOUS
 62
     7
 10
2014.46875014901
 20
-1105.86528269947
 30
0.0
 40
4.00000005960464
  0
CIRCLE
  5
   82E
  8
0
  6
CONTINUOUS
 62
     7
 10
1999.46874992549
 20
-1119.6652829051
 30
0.0
 40
0.900000013411045
  0
CIRCLE
  5
   82F
  8
0
  6
CONTINUOUS
 62
     7
 10
2009.46875007451
 20
-1159.66528350115
 30
0.0
 40
0.900000013411045
  0
CIRCLE
  5
   830
  8
0
  6
CONTINUOUS
 62
     7
 10
1999.46874992549
 20
-1169.2652836442
 30
0.0
 40
0.900000013411045
  0
CIRCLE
  5
   831
  8
0
  6
CONTINUOUS
 62
     7
 10
2009.46875007451
 20
-1209.26528424025
 30
0.0
 40
0.900000013411045
  0
TEXT
  5
   832
  8
0
  6
CONTINUOUS
 62
     2
 10
2023.31207662416
 20
-1146.11486843584
 30
0.0
 40
2.99999994933605
  1
X
 50
359.999999844103
 41
0.916666718787619
 11
2023.31207662823
 21
-1144.61486846118
 31
0.0
 73
     2
  0
TEXT
  5
   833
  8
0
  6
CONTINUOUS
 62
     2
 10
2025.97457651891
 20
-1146.11486904603
 30
0.0
 40
1.49999997466803
  1
1
 50
359.999999844103
 41
0.75
 11
2025.97457652095
 21
-1145.36486905869
 31
0.0
 73
     2
  0
TEXT
  5
   834
  8
0
  6
CONTINUOUS
 62
     2
 10
2023.31207662416
 20
-1186.06864307156
 30
0.0
 40
2.99999994933605
  1
X
 50
359.999999844103
 41
0.916666718787619
 11
2023.31207662823
 21
-1184.56864309689
 31
0.0
 73
     2
  0
TEXT
  5
   835
  8
0
  6
CONTINUOUS
 62
     2
 10
2025.97457678713
 20
-1186.06864298884
 30
0.0
 40
1.49999997466803
  1
2
 50
359.999999844103
 41
0.75
 11
2025.97457678917
 21
-1185.31864300151
 31
0.0
 73
     2
  0
INSERT
  5
   836
  8
0
  6
CONTINUOUS
 62
     3
  2
*UDIM1155
 10
0.0
 20
0.0
 30
0.0
  0
TEXT
  5
   837
  8
0
  6
CONTINUOUS
 62
     2
 10
1953.48634781791
 20
-1146.02666918573
 30
0.0
 40
2.99999994933605
  1
X
 50
359.999999844103
 41
0.916666718787619
 72
     2
 11
1955.68634797397
 21
-1144.52666921704
 31
0.0
 73
     2
  0
TEXT
  5
   838
  8
0
  6
CONTINUOUS
 62
     2
 10
1956.14884771266
 20
-1146.02666979591
 30
0.0
 40
1.49999997466803
  1
1
 50
359.999999844103
 41
0.75
 72
     2
 11
1956.89884770203
 21
-1145.27666981062
 31
0.0
 73
     2
  0
TEXT
  5
   839
  8
0
  6
CONTINUOUS
 62
     2
 10
1953.57454599678
 20
-1185.98044504185
 30
0.0
 40
2.99999994933605
  1
X
 50
359.999999844103
 41
0.916666718787619
 72
     2
 11
1955.77454615285
 21
-1184.48044507316
 31
0.0
 73
     2
  0
TEXT
  5
   83A
  8
0
  6
CONTINUOUS
 62
     2
 10
1956.23704615975
 20
-1185.98044495913
 30
0.0
 40
1.49999997466803
  1
2
 50
359.999999844103
 41
0.75
 72
     2
 11
1956.98704614912
 21
-1185.23044497383
 31
0.0
 73
     2
  0
TEXT
  5
   83B
  8
0
  6
CONTINUOUS
 62
     2
 10
2003.33766579864
 20
-1243.57448667816
 30
0.0
 40
2.99999994933605
  1
Y
 50
359.999999844103
 41
0.916666718787619
 72
     1
 11
2004.43766588278
 21
-1240.57448673181
 31
0.0
 73
     3
  0
TEXT
  5
   83C
  8
0
  6
CONTINUOUS
 62
     2
 10
2003.23132436408
 20
-1083.65771391042
 30
0.0
 40
2.99999994933605
  1
Y
 50
359.999999844103
 41
0.916666718787619
 11
2003.23132436816
 21
-1082.15771393575
 31
0.0
 73
     2
  0
INSERT
  5
   83D
  8
0
  6
CONTINUOUS
 62
     7
  2
*UDIM1156
 10
0.0
 20
0.0
 30
0.0
  0
INSERT
  5
   83E
  8
0
  6
CONTINUOUS
 62
     7
  2
*UDIM1157
 10
0.0
 20
0.0
 30
0.0
  0
INSERT
  5
   83F
  8
0
  6
CONTINUOUS
 62
     3
  2
*UDIM1158
 10
0.0
 20
0.0
 30
0.0
  0
INSERT
  5
   840
  8
0
  6
CONTINUOUS
 62
     3
  2
*UDIM1159
 10
0.0
 20
0.0
 30
0.0
  0
INSERT
  5
   841
  8
0
  6
CONTINUOUS
 62
     3
  2
*UDIM1160
 10
0.0
 20
0.0
 30
0.0
  0
INSERT
  5
   842
  8
0
  6
CONTINUOUS
 62
     3
  2
*UDIM1161
 10
0.0
 20
0.0
 30
0.0
  0
INSERT
  5
   843
  8
0
  6
CONTINUOUS
 62
     3
  2
*UDIM1162
 10
0.0
 20
0.0
 30
0.0
  0
INSERT
  5
   844
  8
0
  6
CONTINUOUS
 62
     3
  2
*UDIM1163
 10
0.0
 20
0.0
 30
0.0
  0
INSERT
  5
   845
  8
0
  6
CONTINUOUS
 62
     3
  2
*UDIM1164
 10
0.0
 20
0.0
 30
0.0
  0
INSERT
  5
   846
  8
0
  6
CONTINUOUS
 62
     3
  2
*UDIM1165
 10
0.0
 20
0.0
 30
0.0
  0
INSERT
  5
   847
  8
0
  6
CONTINUOUS
 62
     3
  2
*UDIM1166
 10
0.0
 20
0.0
 30
0.0
  0
INSERT
  5
   848
  8
0
  6
CONTINUOUS
 62
     7
  2
*UDIM1167
 10
0.0
 20
0.0
 30
0.0
  0
ENDSEC
  0
EOF
