  0
SECTION
  2
HEADER
  9
$ACADVER
  1
AC1009
  9
$DWGCODEPAGE
  3
iso8859-1
  9
$INSBASE
 10
0.0
 20
0.0
 30
0.0
  9
$EXTMIN
 10
1.0E20
 20
1.0E20
  9
$EXTMAX
 10
-1.0E20
 20
-1.0E20
  9
$LIMMIN
 10
0.0
 20
0.0
  9
$LIMMAX
 10
12.0
 20
9.0
  9
$ORTHOMODE
 70
     0
  9
$REGENMODE
 70
     1
  9
$FILLMODE
 70
     1
  9
$QTEXTMODE
 70
     0
  9
$MIRRTEXT
 70
     1
  9
$DRAGMODE
 70
     2
  9
$LTSCALE
 40
15.0
  9
$OSMODE
 70
     0
  9
$ATTMODE
 70
     1
  9
$TEXTSIZE
 40
0.2
  9
$TRACEWID
 40
0.05
  9
$TEXTSTYLE
  7
STANDARD
  9
$CLAYER
  8
0
  9
$CELTYPE
  6
DASHED
  9
$CECOLOR
 62
   256
  9
$DIMSCALE
 40
1.0
  9
$DIMASZ
 40
0.18
  9
$DIMEXO
 40
0.0625
  9
$DIMDLI
 40
0.38
  9
$DIMRND
 40
0.0
  9
$DIMDLE
 40
0.0
  9
$DIMEXE
 40
0.18
  9
$DIMTP
 40
0.0
  9
$DIMTM
 40
0.0
  9
$DIMTXT
 40
0.18
  9
$DIMCEN
 40
0.09
  9
$DIMTSZ
 40
0.0
  9
$DIMTOL
 70
     0
  9
$DIMLIM
 70
     0
  9
$DIMTIH
 70
     1
  9
$DIMTOH
 70
     1
  9
$DIMSE1
 70
     0
  9
$DIMSE2
 70
     0
  9
$DIMTAD
 70
     0
  9
$DIMZIN
 70
     0
  9
$DIMBLK
  1

  9
$DIMASO
 70
     1
  9
$DIMSHO
 70
     1
  9
$DIMPOST
  1

  9
$DIMAPOST
  1

  9
$DIMALT
 70
     0
  9
$DIMALTD
 70
     2
  9
$DIMALTF
 40
25.4
  9
$DIMLFAC
 40
1.0
  9
$DIMTOFL
 70
     0
  9
$DIMTVP
 40
0.0
  9
$DIMTIX
 70
     0
  9
$DIMSOXD
 70
     0
  9
$DIMSAH
 70
     0
  9
$DIMBLK1
  1

  9
$DIMBLK2
  1

  9
$DIMSTYLE
  2
STANDARD
  9
$DIMCLRD
 70
     0
  9
$DIMCLRE
 70
     0
  9
$DIMCLRT
 70
     0
  9
$DIMTFAC
 40
1.0
  9
$DIMGAP
 40
0.09
  9
$LUNITS
 70
     2
  9
$LUPREC
 70
     4
  9
$AXISMODE
 70
     0
  9
$AXISUNIT
 10
0.0
 20
0.0
  9
$SKETCHINC
 40
0.1
  9
$FILLETRAD
 40
0.0
  9
$AUNITS
 70
     0
  9
$AUPREC
 70
     0
  9
$MENU
  1
acad
  9
$ELEVATION
 40
0.0
  9
$PELEVATION
 40
0.0
  9
$THICKNESS
 40
0.0
  9
$LIMCHECK
 70
     0
  9
$BLIPMODE
 70
     1
  9
$CHAMFERA
 40
0.0
  9
$CHAMFERB
 40
0.0
  9
$SKPOLY
 70
     0
  9
$TDCREATE
 40
0.000000000
  9
$TDUPDATE
 40
0.000000000
  9
$TDINDWG
 40
0.0
  9
$TDUSRTIMER
 40
0.0
  9
$USRTIMER
 70
     1
  9
$ANGBASE
 50
0.0
  9
$ANGDIR
 70
     0
  9
$PDMODE
 70
     0
  9
$PDSIZE
 40
0.0
  9
$PLINEWID
 40
0.0
  9
$COORDS
 70
     1
  9
$SPLFRAME
 70
     0
  9
$SPLINETYPE
 70
     6
  9
$SPLINESEGS
 70
     8
  9
$ATTDIA
 70
     0
  9
$ATTREQ
 70
     1
  9
$HANDLING
 70
     1
  9
$HANDSEED
  5
   634
  9
$SURFTAB1
 70
     6
  9
$SURFTAB2
 70
     6
  9
$SURFTYPE
 70
     6
  9
$SURFU
 70
     6
  9
$SURFV
 70
     6
  9
$UCSNAME
  2

  9
$UCSORG
 10
0.0
 20
0.0
 30
0.0
  9
$UCSXDIR
 10
1.0
 20
0.0
 30
0.0
  9
$UCSYDIR
 10
0.0
 20
1.0
 30
0.0
  9
$PUCSNAME
  2

  9
$PUCSORG
 10
0.0
 20
0.0
 30
0.0
  9
$PUCSXDIR
 10
1.0
 20
0.0
 30
0.0
  9
$PUCSYDIR
 10
0.0
 20
1.0
 30
0.0
  9
$USERI1
 70
     0
  9
$USERI2
 70
     0
  9
$USERI3
 70
     0
  9
$USERI4
 70
     0
  9
$USERI5
 70
     0
  9
$USERR1
 40
0.0
  9
$USERR2
 40
0.0
  9
$USERR3
 40
0.0
  9
$USERR4
 40
0.0
  9
$USERR5
 40
0.0
  9
$WORLDVIEW
 70
     1
  9
$SHADEDGE
 70
     3
  9
$SHADEDIF
 70
    70
  9
$TILEMODE
 70
     1
  9
$MAXACTVP
 70
    16
  9
$PINSBASE
 10
0.0
 20
0.0
 30
0.0
  9
$PLIMCHECK
 70
     0
  9
$PEXTMIN
 10
1.0E20
 20
1.0E20
 30
1.0E20
  9
$PEXTMAX
 10
-1.0E20
 20
-1.0E20
 30
-1.0E20
  9
$PLIMMIN
 10
0.0
 20
0.0
  9
$PLIMMAX
 10
12.0
 20
9.0
  9
$UNITMODE
 70
     0
  9
$VISRETAIN
 70
     0
  0
ENDSEC
  0
SECTION
  2
TABLES
  0
TABLE
  2
VPORT
 70
     1
  0
VPORT
  2
*ACTIVE
 70
     0
 10
0.0
 20
0.0
 11
1.0
 21
1.0
 12
6.801242
 22
4.5
 13
0.0
 23
0.0
 14
1.0
 24
1.0
 15
0.0
 25
0.0
 16
0.0
 26
0.0
 36
1.0
 17
0.0
 27
0.0
 37
0.0
 40
9.0
 41
1.511387
 42
50.0
 43
0.0
 44
0.0
 50
0.0
 51
0.0
 71
     0
 72
   100
 73
     1
 74
     1
 75
     0
 76
     0
 77
     0
 78
     0
  0
ENDTAB
  0
TABLE
  2
LTYPE
 70
    41
  0
LTYPE
  2
BYBLOCK
 70
     0
  3

 72
    65
 73
     0
 40
0.0
  0
LTYPE
  2
BYLAYER
 70
     0
  3

 72
    65
 73
     0
 40
0.0
  0
LTYPE
  2
CONTINUOUS
 70
     0
  3
Solid line
 72
    65
 73
     0
 40
0.0
  0
LTYPE
  2
BORDER
 70
    64
  3
__ __ . __ __ . __ __ . __ __ . __ __ . __ __ .
 72
    65
 73
     6
 40
1.75
 49
0.5
 49
-0.25
 49
0.5
 49
-0.25
 49
0.0
 49
-0.25
  0
LTYPE
  2
BORDER2
 70
    64
  3
__.__.__.__.__.__.__.__.__.__.__.__.__.__.__.__
 72
    65
 73
     6
 40
0.875
 49
0.25
 49
-0.125
 49
0.25
 49
-0.125
 49
0.0
 49
-0.125
  0
LTYPE
  2
BORDERX2
 70
    64
  3
____  ____  .  ____  ____  .  ____  ____  .  __
 72
    65
 73
     6
 40
3.5
 49
1.0
 49
-0.5
 49
1.0
 49
-0.5
 49
0.0
 49
-0.5
  0
LTYPE
  2
CENTER
 70
    64
  3
____ _ ____ _ ____ _ ____ _ ____ _ ____ _ ____
 72
    65
 73
     4
 40
2.0
 49
1.25
 49
-0.25
 49
0.25
 49
-0.25
  0
LTYPE
  2
CENTER2
 70
    64
  3
___ _ ___ _ ___ _ ___ _ ___ _ ___ _ ___ _ ___ _
 72
    65
 73
     4
 40
1.125
 49
0.75
 49
-0.125
 49
0.125
 49
-0.125
  0
LTYPE
  2
CENTERX2
 70
    64
  3
________  __  ________  __  ________  __  _____
 72
    65
 73
     4
 40
4.0
 49
2.5
 49
-0.5
 49
0.5
 49
-0.5
  0
LTYPE
  2
DASHDOT
 70
    64
  3
__ . __ . __ . __ . __ . __ . __ . __ . __ . __
 72
    65
 73
     4
 40
1.0
 49
0.5
 49
-0.25
 49
0.0
 49
-0.25
  0
LTYPE
  2
DASHDOT2
 70
    64
  3
_._._._._._._._._._._._._._._._._._._._._._._._
 72
    65
 73
     4
 40
0.5
 49
0.25
 49
-0.125
 49
0.0
 49
-0.125
  0
LTYPE
  2
DASHDOTX2
 70
    64
  3
____  .  ____  .  ____  .  ____  .  ____  .  __
 72
    65
 73
     4
 40
2.0
 49
1.0
 49
-0.5
 49
0.0
 49
-0.5
  0
LTYPE
  2
DASHED
 70
    64
  3
__ __ __ __ __ __ __ __ __ __ __ __ __ __ __ __
 72
    65
 73
     2
 40
0.75
 49
0.5
 49
-0.25
  0
LTYPE
  2
DASHED2
 70
    64
  3
_ _ _ _ _ _ _ _ _ _ _ _ _ _ _ _ _ _ _ _ _ _ _ _
 72
    65
 73
     2
 40
0.375
 49
0.25
 49
-0.125
  0
LTYPE
  2
DASHEDX2
 70
    64
  3
____  ____  ____  ____  ____  ____  ____  ____
 72
    65
 73
     2
 40
1.5
 49
1.0
 49
-0.5
  0
LTYPE
  2
DIVIDE
 70
    64
  3
____ . . ____ . . ____ . . ____ . . ____ . . __
 72
    65
 73
     6
 40
1.25
 49
0.5
 49
-0.25
 49
0.0
 49
-0.25
 49
0.0
 49
-0.25
  0
LTYPE
  2
DIVIDE2
 70
    64
  3
__..__..__..__..__..__..__..__..__..__..__..__.
 72
    65
 73
     6
 40
0.625
 49
0.25
 49
-0.125
 49
0.0
 49
-0.125
 49
0.0
 49
-0.125
  0
LTYPE
  2
DIVIDEX2
 70
    64
  3
________  .  .  ________  .  .  ________  .  .
 72
    65
 73
     6
 40
2.5
 49
1.0
 49
-0.5
 49
0.0
 49
-0.5
 49
0.0
 49
-0.5
  0
LTYPE
  2
DOT
 70
    64
  3
. . . . . . . . . . . . . . . . . . . . . . . .
 72
    65
 73
     2
 40
0.25
 49
0.0
 49
-0.25
  0
LTYPE
  2
DOT2
 70
    64
  3
...............................................
 72
    65
 73
     2
 40
0.125
 49
0.0
 49
-0.125
  0
LTYPE
  2
DOTX2
 70
    64
  3
.  .  .  .  .  .  .  .  .  .  .  .  .  .  .  .
 72
    65
 73
     2
 40
0.5
 49
0.0
 49
-0.5
  0
LTYPE
  2
HIDDEN
 70
    64
  3
__ __ __ __ __ __ __ __ __ __ __ __ __ __ __ __
 72
    65
 73
     2
 40
0.375
 49
0.25
 49
-0.125
  0
LTYPE
  2
HIDDEN2
 70
    64
  3
_ _ _ _ _ _ _ _ _ _ _ _ _ _ _ _ _ _ _ _ _ _ _ _
 72
    65
 73
     2
 40
0.1875
 49
0.125
 49
-0.0625
  0
LTYPE
  2
HIDDENX2
 70
    64
  3
____ ____ ____ ____ ____ ____ ____ ____ ____ __
 72
    65
 73
     2
 40
0.75
 49
0.5
 49
-0.25
  0
LTYPE
  2
PHANTOM
 70
    64
  3
______  __  __  ______  __  __  ______  __  __
 72
    65
 73
     6
 40
2.5
 49
1.25
 49
-0.25
 49
0.25
 49
-0.25
 49
0.25
 49
-0.25
  0
LTYPE
  2
PHANTOM2
 70
    64
  3
___ _ _ ___ _ _ ___ _ _ ___ _ _ ___ _ _ ___ _ _
 72
    65
 73
     6
 40
1.25
 49
0.625
 49
-0.125
 49
0.125
 49
-0.125
 49
0.125
 49
-0.125
  0
LTYPE
  2
PHANTOMX2
 70
    64
  3
____________    ____    ____    ____________
 72
    65
 73
     6
 40
5.0
 49
2.5
 49
-0.5
 49
0.5
 49
-0.5
 49
0.5
 49
-0.5
  0
LTYPE
  2
ACAD_ISO02W100
 70
    64
  3
__ __ __ __ __ __ __ __ __ __ __ __ __ __ __ __
 72
    65
 73
     2
 40
15.0
 49
12.0
 49
-3.0
  0
LTYPE
  2
ACAD_ISO03W100
 70
    64
  3
__    __    __    __    __    __    __    __
 72
    65
 73
     2
 40
30.0
 49
12.0
 49
-18.0
  0
LTYPE
  2
ACAD_ISO04W100
 70
    64
  3
____ . ____ . ____ . ____ . ____ . ____ . ____
 72
    65
 73
     4
 40
30.5
 49
24.0
 49
-3.0
 49
0.5
 49
-3.0
  0
LTYPE
  2
ACAD_ISO05W100
 70
    64
  3
____ .. ____ .. ____ .. ____ .. ____ .. ____ ..
 72
    65
 73
     6
 40
34.0
 49
24.0
 49
-3.0
 49
0.5
 49
-3.0
 49
0.5
 49
-3.0
  0
LTYPE
  2
ACAD_ISO06W100
 70
    64
  3
____ ... ____ ... ____ ... ____ ... ____ ... __
 72
    65
 73
     8
 40
37.5
 49
24.0
 49
-3.0
 49
0.5
 49
-3.0
 49
0.5
 49
-3.0
 49
0.5
 49
-3.0
  0
LTYPE
  2
ACAD_ISO07W100
 70
    64
  3
. . . . . . . . . . . . . . . . . . . . . . . .
 72
    65
 73
     2
 40
3.5
 49
0.5
 49
-3.0
  0
LTYPE
  2
ACAD_ISO08W100
 70
    64
  3
____ __ ____ __ ____ __ ____ ____ __ __ ____ __
 72
    65
 73
     4
 40
36.0
 49
24.0
 49
-3.0
 49
6.0
 49
-3.0
  0
LTYPE
  2
ACAD_ISO09W100
 70
    64
  3
____ __ __ ____ __ __ ____ __ __ ____ __ __ ___
 72
    65
 73
     6
 40
45.0
 49
24.0
 49
-3.0
 49
6.0
 49
-3.0
 49
6.0
 49
-3.0
  0
LTYPE
  2
ACAD_ISO10W100
 70
    64
  3
__ . __ . __ . __ . __ . __ . __ . __ . __ . __
 72
    65
 73
     4
 40
18.5
 49
12.0
 49
-3.0
 49
0.5
 49
-3.0
  0
LTYPE
  2
ACAD_ISO11W100
 70
    64
  3
__ __ . __ __ . __ __ . __ __ . __ __ . __ __ .
 72
    65
 73
     6
 40
33.5
 49
12.0
 49
-3.0
 49
12.0
 49
-3.0
 49
0.5
 49
-3.0
  0
LTYPE
  2
ACAD_ISO12W100
 70
    64
  3
__ . . __ . . __ . . __ . . __ . . __ . . __ .
 72
    65
 73
     6
 40
22.0
 49
12.0
 49
-3.0
 49
0.5
 49
-3.0
 49
0.5
 49
-3.0
  0
LTYPE
  2
ACAD_ISO13W100
 70
    64
  3
__ __ . . __ __ . . __ __ . . __ __ . . __ __ .
 72
    65
 73
     8
 40
37.0
 49
12.0
 49
-3.0
 49
12.0
 49
-3.0
 49
0.5
 49
-3.0
 49
0.5
 49
-3.0
  0
LTYPE
  2
ACAD_ISO14W100
 70
    64
  3
__ . . . __ . . . __ . . . __ . . . __ . . . __
 72
    65
 73
     8
 40
25.5
 49
12.0
 49
-3.0
 49
0.5
 49
-3.0
 49
0.5
 49
-3.0
 49
0.5
 49
-3.0
  0
LTYPE
  2
ACAD_ISO15W100
 70
    64
  3
__ __ . . . __ __ . . . __ __ . . . __ __ . . .
 72
    65
 73
    10
 40
40.5
 49
12.0
 49
-3.0
 49
12.0
 49
-3.0
 49
0.5
 49
-3.0
 49
0.5
 49
-3.0
 49
0.5
 49
-3.0
  0
ENDTAB
  0
TABLE
  2
STYLE
 70
     4
  0
STYLE
  2
STANDARD
 70
    64
 40
0.0
 41
1.0
 50
0.0
 71
     0
 42
0.2
  3
txt
  4

  0
STYLE
  2
TOLERANCE
 70
    64
 40
0.0
 41
1.0
 50
0.0
 71
     0
 42
0.2
  3
../igesfont/iges1003.shx
  4

  0
STYLE
  2
ROMANS
 70
    64
 40
0.0
 41
1.0
 50
0.0
 71
     0
 42
0.2
  3
romans.shx
  4

  0
STYLE
  2
ROMANC
 70
    64
 40
0.0
 41
1.0
 50
0.0
 71
     0
 42
0.2
  3
romanc.shx
  4

  0
ENDTAB
  0
TABLE
  2
DIMSTYLE
 70
     2
  0
DIMSTYLE
  2
UNNAMED
 70
     0
  3

  4

  5

  6

  7

 40
1.0
 41
0.18
 42
0.0625
 43
0.38
 44
0.18
 45
0.0
 46
0.0
 47
0.0
 48
0.0
140
0.18
141
0.09
142
0.0
143
25.4
144
1.0
145
0.0
146
1.0
147
0.09
 71
     0
 72
     0
 73
     1
 74
     1
 75
     0
 76
     0
 77
     0
 78
     0
170
     0
171
     2
172
     0
173
     0
174
     0
175
     0
176
     0
177
     0
178
     0
  0
DIMSTYLE
  2
STANDARD
 70
     0
  3

  4

  5

  6

  7

 40
1.0
 41
0.18
 42
0.0625
 43
0.38
 44
0.18
 45
0.0
 46
0.0
 47
0.0
 48
0.0
140
0.18
141
0.09
142
0.0
143
25.4
144
1.0
145
0.0
146
1.0
147
0.09
 71
     0
 72
     0
 73
     1
 74
     1
 75
     0
 76
     0
 77
     0
 78
     0
170
     0
171
     2
172
     0
173
     0
174
     0
175
     0
176
     0
177
     0
178
     0
  0
ENDTAB
  0
TABLE
  2
LAYER
 70
     2
  0
LAYER
  2
0
 70
     0
 62
     7
  6
CONTINUOUS
  0
LAYER
  2
255
 70
     0
 62
     7
  6
CONTINUOUS
  0
ENDTAB
  0
ENDSEC
  0
SECTION
  2
BLOCKS
  0
BLOCK
  5
     B
  8
0
  6
CONTINUOUS
 62
     7
  2
*UDIM2379
 70
    65
 10
0.0
 20
0.0
 30
0.0
  3
*UDIM2379
  0
TEXT
  5
     C
  8
0
  6
CONTINUOUS
 62
     7
 10
-697.349773419094
 20
-108.436038664708
 30
0.0
 40
3.00000002980232
  1
65,75
 50
449.999999896069
 41
0.933333333333333
 72
     1
 11
-698.849773421884
 21
-101.736038595438
 31
0.0
 73
     2
  0
LINE
  5
     D
  8
0
  6
CONTINUOUS
 62
     7
 10
-688.037140153588
 20
-93.75390625
 30
0.0
 11
-698.349773406983
 21
-93.75390625
 31
0.0
  0
LINE
  5
     E
  8
0
  6
CONTINUOUS
 62
     7
 10
-696.349773406982
 20
-93.75390625
 30
0.0
 11
-696.349773406982
 21
-110.19140625
 31
0.0
  0
LINE
  5
     F
  8
0
  6
CONTINUOUS
 62
     7
 10
-695.828828977031
 20
-96.708329527207
 30
0.0
 11
-696.349773406982
 21
-93.75390625
 31
0.0
  0
LINE
  5
    10
  8
0
  6
CONTINUOUS
 62
     7
 10
-696.349773406982
 20
-93.75390625
 30
0.0
 11
-696.870717836934
 21
-96.708329527207
 31
0.0
  0
LINE
  5
    11
  8
0
  6
CONTINUOUS
 62
     7
 10
-696.870717836934
 20
-107.236982972793
 30
0.0
 11
-696.349773406982
 21
-110.19140625
 31
0.0
  0
LINE
  5
    12
  8
0
  6
CONTINUOUS
 62
     7
 10
-696.349773406982
 20
-110.19140625
 30
0.0
 11
-695.828828977031
 21
-107.236982972793
 31
0.0
  0
ENDBLK
  5
    13
  8
0
  6
CONTINUOUS
 62
     7
  0
BLOCK
  5
    14
  8
0
  6
CONTINUOUS
 62
     7
  2
*UDIM2380
 70
    65
 10
0.0
 20
0.0
 30
0.0
  3
*UDIM2380
  0
TEXT
  5
    15
  8
0
  6
CONTINUOUS
 62
     7
 10
-651.750581755975
 20
-105.160156339138
 30
0.0
 40
3.00000002980232
  1
107,25
 50
449.999999896069
 41
0.933333333333333
 72
     1
 11
-653.250581756234
 21
-97.0601562559605
 31
0.0
 73
     2
  0
LINE
  5
    16
  8
0
  6
CONTINUOUS
 62
     7
 10
-659.671325683594
 20
-83.37890625
 30
0.0
 11
-648.750581741333
 21
-83.37890625
 31
0.0
  0
LINE
  5
    17
  8
0
  6
CONTINUOUS
 62
     7
 10
-652.811908774281
 20
-110.19140625
 30
0.0
 11
-648.750581741333
 21
-110.19140625
 31
0.0
  0
LINE
  5
    18
  8
0
  6
CONTINUOUS
 62
     7
 10
-650.750581741333
 20
-83.37890625
 30
0.0
 11
-650.750581741333
 21
-110.19140625
 31
0.0
  0
LINE
  5
    19
  8
0
  6
CONTINUOUS
 62
     7
 10
-650.229637311381
 20
-86.333329527207
 30
0.0
 11
-650.750581741333
 21
-83.37890625
 31
0.0
  0
LINE
  5
    1A
  8
0
  6
CONTINUOUS
 62
     7
 10
-650.750581741333
 20
-83.37890625
 30
0.0
 11
-651.271526171285
 21
-86.333329527207
 31
0.0
  0
LINE
  5
    1B
  8
0
  6
CONTINUOUS
 62
     7
 10
-651.271526171285
 20
-107.236982972793
 30
0.0
 11
-650.750581741333
 21
-110.19140625
 31
0.0
  0
LINE
  5
    1C
  8
0
  6
CONTINUOUS
 62
     7
 10
-650.750581741333
 20
-110.19140625
 30
0.0
 11
-650.229637311381
 21
-107.236982972793
 31
0.0
  0
ENDBLK
  5
    1D
  8
0
  6
CONTINUOUS
 62
     7
  0
BLOCK
  5
    1E
  8
0
  6
CONTINUOUS
 62
     7
  2
*UDIM2381
 70
    65
 10
0.0
 20
0.0
 30
0.0
  3
*UDIM2381
  0
TEXT
  5
    1F
  8
0
  6
CONTINUOUS
 62
     7
 10
-645.482145316498
 20
-114.803907709772
 30
0.0
 40
3.00000002980232
  1
218
 50
449.999999896069
 41
0.933333333333333
 72
     1
 11
-646.982145324349
 21
-110.903907668317
 31
0.0
 73
     2
  0
LINE
  5
    20
  8
0
  6
CONTINUOUS
 62
     7
 10
-659.671325683594
 20
-83.3789070680698
 30
0.0
 11
-642.482145309449
 21
-83.3789211300182
 31
0.0
  0
LINE
  5
    21
  8
0
  6
CONTINUOUS
 62
     7
 10
-659.671325683594
 20
-137.87890706807
 30
0.0
 11
-642.482145309449
 21
-137.878921130018
 31
0.0
  0
LINE
  5
    22
  8
0
  6
CONTINUOUS
 62
     7
 10
-644.482145309448
 20
-83.3789194938787
 30
0.0
 11
-644.482145309448
 21
-137.878919493879
 31
0.0
  0
LINE
  5
    23
  8
0
  6
CONTINUOUS
 62
     7
 10
-643.961200879497
 20
-86.3333427710857
 30
0.0
 11
-644.482145309448
 21
-83.3789194938787
 31
0.0
  0
LINE
  5
    24
  8
0
  6
CONTINUOUS
 62
     7
 10
-644.482145309448
 20
-83.3789194938787
 30
0.0
 11
-645.0030897394
 21
-86.3333427710857
 31
0.0
  0
LINE
  5
    25
  8
0
  6
CONTINUOUS
 62
     7
 10
-645.0030897394
 20
-134.924496216672
 30
0.0
 11
-644.482145309448
 21
-137.878919493879
 31
0.0
  0
LINE
  5
    26
  8
0
  6
CONTINUOUS
 62
     7
 10
-644.482145309448
 20
-137.878919493879
 30
0.0
 11
-643.961200879497
 21
-134.924496216672
 31
0.0
  0
ENDBLK
  5
    27
  8
0
  6
CONTINUOUS
 62
     7
  0
BLOCK
  5
    28
  8
0
  6
CONTINUOUS
 62
     7
  2
*UDIM2382
 70
    65
 10
0.0
 20
0.0
 30
0.0
  3
*UDIM2382
  0
TEXT
  5
    29
  8
0
  6
CONTINUOUS
 62
     7
 10
-676.446325717103
 20
-154.080974574335
 30
0.0
 40
3.00000002980232
  1
70
 50
359.999999896069
 41
0.933333333333333
 72
     1
 11
-673.946325689554
 21
-152.580974563956
 31
0.0
 73
     2
  0
LINE
  5
    2A
  8
0
  6
CONTINUOUS
 62
     7
 10
-664.921325683594
 20
-143.12890625
 30
0.0
 11
-664.921325683594
 21
-157.080974578857
 31
0.0
  0
LINE
  5
    2B
  8
0
  6
CONTINUOUS
 62
     7
 10
-682.421325683594
 20
-143.12890625
 30
0.0
 11
-682.421325683594
 21
-157.080974578857
 31
0.0
  0
LINE
  5
    2C
  8
0
  6
CONTINUOUS
 62
     7
 10
-664.921325683594
 20
-155.080974578857
 30
0.0
 11
-682.421325683594
 21
-155.080974578857
 31
0.0
  0
LINE
  5
    2D
  8
0
  6
CONTINUOUS
 62
     7
 10
-667.875748960801
 20
-155.601919008809
 30
0.0
 11
-664.921325683594
 21
-155.080974578857
 31
0.0
  0
LINE
  5
    2E
  8
0
  6
CONTINUOUS
 62
     7
 10
-664.921325683594
 20
-155.080974578857
 30
0.0
 11
-667.875748960801
 21
-154.560030148906
 31
0.0
  0
LINE
  5
    2F
  8
0
  6
CONTINUOUS
 62
     7
 10
-679.466902406387
 20
-154.560030148906
 30
0.0
 11
-682.421325683594
 21
-155.080974578857
 31
0.0
  0
LINE
  5
    30
  8
0
  6
CONTINUOUS
 62
     7
 10
-682.421325683594
 20
-155.080974578857
 30
0.0
 11
-679.466902406387
 21
-155.601919008809
 31
0.0
  0
ENDBLK
  5
    31
  8
0
  6
CONTINUOUS
 62
     7
  0
BLOCK
  5
    32
  8
0
  6
CONTINUOUS
 62
     7
  2
*UDIM2383
 70
    65
 10
0.0
 20
0.0
 30
0.0
  3
*UDIM2383
  0
TEXT
  5
    33
  8
0
  6
CONTINUOUS
 62
     7
 10
-647.716596718515
 20
-70.8363992530031
 30
0.0
 40
3.00000002980232
  1
14
 50
393.400574337683
 41
0.933333333333333
 72
     1
 11
-646.45522450607
 21
-68.2079129375445
 31
0.0
 73
     2
  0
TEXT
  5
    34
  8
0
  6
CONTINUOUS
 62
     7
 10
-650.012413191753
 20
-72.3502443266403
 30
0.0
 40
3.00000002980232
  1
R
 50
393.400574337683
 41
0.933333333333334
 72
     1
 11
-649.919820274134
 21
-70.4924427709431
 31
0.0
 73
     2
  0
LINE
  5
    35
  8
0
  6
CONTINUOUS
 62
     7
 10
-642.991895841348
 20
-68.9187960213168
 30
0.0
 11
-674.52201264141
 21
-89.7095310167992
 31
0.0
  0
LINE
  5
    36
  8
0
  6
CONTINUOUS
 62
     7
 10
-664.179080897734
 20
-83.5134786744245
 30
0.0
 11
-661.999377479041
 21
-81.4521943644524
 31
0.0
  0
LINE
  5
    37
  8
0
  6
CONTINUOUS
 62
     7
 10
-661.999377479041
 20
-81.4521943644524
 30
0.0
 11
-664.752629369104
 21
-82.6436657362707
 31
0.0
  0
ENDBLK
  5
    38
  8
0
  6
CONTINUOUS
 62
     7
  0
BLOCK
  5
    39
  8
0
  6
CONTINUOUS
 62
     7
  2
*UDIM2384
 70
    65
 10
0.0
 20
0.0
 30
0.0
  3
*UDIM2384
  0
TEXT
  5
    3A
  8
0
  6
CONTINUOUS
 62
     7
 10
-705.270059268488
 20
-141.380876852509
 30
0.0
 40
3.00000002980232
  1
5
 50
395.275203288638
 41
0.933333333333334
 72
     1
 11
-705.238289444893
 21
-139.521040637395
 31
0.0
 73
     2
  0
TEXT
  5
    3B
  8
0
  6
CONTINUOUS
 62
     7
 10
-707.841680217465
 20
-143.200015593059
 30
0.0
 40
3.00000002980232
  1
Ø
 50
395.275203288638
 41
0.933333333333334
 72
     1
 11
-707.80991039387
 21
-141.340179377944
 31
0.0
 73
     2
  0
TEXT
  5
    3C
  8
0
  6
CONTINUOUS
 62
     7
 10
-703.024993346006
 20
-139.792739834027
 30
0.0
 40
3.00000002980232
  1
 (M4)
 50
395.275203288638
 41
0.933333333333333
 72
     1
 11
-698.421452909605
 21
-134.698879177608
 31
0.0
 73
     2
  0
LINE
  5
    3D
  8
0
  6
CONTINUOUS
 62
     7
 10
-683.411083433422
 20
-127.142966024839
 30
0.0
 11
-707.264175853844
 21
-144.016403193391
 31
0.0
  0
LINE
  5
    3E
  8
0
  6
CONTINUOUS
 62
     7
 10
-681.299976583695
 20
-125.011481127159
 30
0.0
 11
-683.411083433422
 21
-127.142966024839
 31
0.0
  0
LINE
  5
    3F
  8
0
  6
CONTINUOUS
 62
     7
 10
-683.411083433422
 20
-127.142966024839
 30
0.0
 11
-680.698281224197
 21
-125.862066273249
 31
0.0
  0
LINE
  5
    40
  8
0
  6
CONTINUOUS
 62
     7
 10
-686.542674783493
 20
-129.996331372841
 30
0.0
 11
-684.431567933766
 21
-127.864846475161
 31
0.0
  0
LINE
  5
    41
  8
0
  6
CONTINUOUS
 62
     7
 10
-684.431567933766
 20
-127.864846475161
 30
0.0
 11
-687.144370142991
 21
-129.145746226751
 31
0.0
  0
ENDBLK
  5
    42
  8
0
  6
CONTINUOUS
 62
     7
  0
BLOCK
  5
    43
  8
0
  6
CONTINUOUS
 62
     7
  2
*UDIM2385
 70
    65
 10
0.0
 20
0.0
 30
0.0
  3
*UDIM2385
  0
TEXT
  5
    44
  8
0
  6
CONTINUOUS
 62
     7
 10
-676.446327624451
 20
-63.7710266068058
 30
0.0
 40
3.00000002980232
  1
82
 50
359.999999896069
 41
0.933333333333333
 72
     1
 11
-673.946327596903
 21
-62.271026596427
 31
0.0
 73
     2
  0
LINE
  5
    45
  8
0
  6
CONTINUOUS
 62
     7
 10
-663.421325683594
 20
-88.2089827186109
 30
0.0
 11
-663.421325683594
 21
-62.7710266113281
 31
0.0
  0
LINE
  5
    46
  8
0
  6
CONTINUOUS
 62
     7
 10
-683.921325683594
 20
-88.2089827186109
 30
0.0
 11
-683.921325683594
 21
-62.7710266113281
 31
0.0
  0
LINE
  5
    47
  8
0
  6
CONTINUOUS
 62
     7
 10
-663.421325683594
 20
-64.7710266113281
 30
0.0
 11
-683.921325683594
 21
-64.7710266113281
 31
0.0
  0
LINE
  5
    48
  8
0
  6
CONTINUOUS
 62
     7
 10
-666.375748960801
 20
-65.2919710412798
 30
0.0
 11
-663.421325683594
 21
-64.7710266113281
 31
0.0
  0
LINE
  5
    49
  8
0
  6
CONTINUOUS
 62
     7
 10
-663.421325683594
 20
-64.7710266113281
 30
0.0
 11
-666.375748960801
 21
-64.2500821813765
 31
0.0
  0
LINE
  5
    4A
  8
0
  6
CONTINUOUS
 62
     7
 10
-680.966902406387
 20
-64.2500821813765
 30
0.0
 11
-683.921325683594
 21
-64.7710266113281
 31
0.0
  0
LINE
  5
    4B
  8
0
  6
CONTINUOUS
 62
     7
 10
-683.921325683594
 20
-64.7710266113281
 30
0.0
 11
-680.966902406387
 21
-65.2919710412798
 31
0.0
  0
ENDBLK
  5
    4C
  8
0
  6
CONTINUOUS
 62
     7
  0
BLOCK
  5
    4D
  8
0
  6
CONTINUOUS
 62
     7
  2
*UDIM2386
 70
    65
 10
0.0
 20
0.0
 30
0.0
  3
*UDIM2386
  0
TEXT
  5
    4E
  8
0
  6
CONTINUOUS
 62
     7
 10
-703.785545356171
 20
-114.803907722935
 30
0.0
 40
3.00000002980232
  1
135
 50
449.999999896069
 41
0.933333333333333
 72
     1
 11
-705.285545364022
 21
-110.90390768148
 31
0.0
 73
     2
  0
LINE
  5
    4F
  8
0
  6
CONTINUOUS
 62
     7
 10
-688.037140153588
 20
-93.7539059360835
 30
0.0
 11
-704.785545349121
 21
-93.7539006784832
 31
0.0
  0
LINE
  5
    50
  8
0
  6
CONTINUOUS
 62
     7
 10
-688.172902295122
 20
-127.503905936084
 30
0.0
 11
-704.785545349121
 21
-127.503900721101
 31
0.0
  0
LINE
  5
    51
  8
0
  6
CONTINUOUS
 62
     7
 10
-702.785545349121
 20
-93.7539013063162
 30
0.0
 11
-702.785545349121
 21
-127.503901348934
 31
0.0
  0
LINE
  5
    52
  8
0
  6
CONTINUOUS
 62
     7
 10
-702.26460091917
 20
-96.7083245835232
 30
0.0
 11
-702.785545349121
 21
-93.7539013063162
 31
0.0
  0
LINE
  5
    53
  8
0
  6
CONTINUOUS
 62
     7
 10
-702.785545349121
 20
-93.7539013063162
 30
0.0
 11
-703.306489779073
 21
-96.7083245835232
 31
0.0
  0
LINE
  5
    54
  8
0
  6
CONTINUOUS
 62
     7
 10
-703.306489779073
 20
-124.549478071727
 30
0.0
 11
-702.785545349121
 21
-127.503901348934
 31
0.0
  0
LINE
  5
    55
  8
0
  6
CONTINUOUS
 62
     7
 10
-702.785545349121
 20
-127.503901348934
 30
0.0
 11
-702.26460091917
 21
-124.549478071727
 31
0.0
  0
ENDBLK
  5
    56
  8
0
  6
CONTINUOUS
 62
     7
  0
BLOCK
  5
    57
  8
0
  6
CONTINUOUS
 62
     7
  2
*HATCH1316
 70
    65
 10
0.0
 20
0.0
 30
0.0
  3
*HATCH1316
  0
LINE
  5
    58
  8
0
  6
CONTINUOUS
 62
    52
 10
-37.9411773681641
 20
-4.00005149841309
 30
0.0
 11
-39.9411773681641
 21
-6.00005149841309
 31
0.0
  0
LINE
  5
    59
  8
0
  6
CONTINUOUS
 62
    52
 10
-33.6985397338867
 20
-4.00005149841309
 30
0.0
 11
-35.6985397338867
 21
-6.00005149841309
 31
0.0
  0
LINE
  5
    5A
  8
0
  6
CONTINUOUS
 62
    52
 10
-29.4558982849121
 20
-4.00005149841309
 30
0.0
 11
-31.4559001922607
 21
-6.00005149841309
 31
0.0
  0
LINE
  5
    5B
  8
0
  6
CONTINUOUS
 62
    52
 10
-25.2132568359375
 20
-4.00005149841309
 30
0.0
 11
-27.2132587432861
 21
-6.00005149841309
 31
0.0
  0
LINE
  5
    5C
  8
0
  6
CONTINUOUS
 62
    52
 10
-20.9706153869629
 20
-4.00005149841309
 30
0.0
 11
-22.9706172943115
 21
-6.00005149841309
 31
0.0
  0
LINE
  5
    5D
  8
0
  6
CONTINUOUS
 62
    52
 10
-16.7279739379883
 20
-4.00005149841309
 30
0.0
 11
-18.7279758453369
 21
-6.00005149841309
 31
0.0
  0
LINE
  5
    5E
  8
0
  6
CONTINUOUS
 62
    52
 10
-12.4853324890137
 20
-4.00005149841309
 30
0.0
 11
-14.4853343963623
 21
-6.00005149841309
 31
0.0
  0
LINE
  5
    5F
  8
0
  6
CONTINUOUS
 62
    52
 10
-8.24269104003906
 20
-4.00005149841309
 30
0.0
 11
-10.2426929473877
 21
-6.00005149841309
 31
0.0
  0
LINE
  5
    60
  8
0
  6
CONTINUOUS
 62
    52
 10
-4.00004959106445
 20
-4.00005149841309
 30
0.0
 11
-6.00005149841309
 21
-6.00005149841309
 31
0.0
  0
LINE
  5
    61
  8
0
  6
CONTINUOUS
 62
    52
 10
0.242591381072998
 20
-4.00005149841309
 30
0.0
 11
-1.75741052627563
 21
-6.00005149841309
 31
0.0
  0
LINE
  5
    62
  8
0
  6
CONTINUOUS
 62
    52
 10
4.48523235321045
 20
-4.00005149841309
 30
0.0
 11
2.48523044586182
 21
-6.00005149841309
 31
0.0
  0
LINE
  5
    63
  8
0
  6
CONTINUOUS
 62
    52
 10
8.72787380218506
 20
-4.00005149841309
 30
0.0
 11
6.72787189483643
 21
-6.00005149841309
 31
0.0
  0
LINE
  5
    64
  8
0
  6
CONTINUOUS
 62
    52
 10
12.9705152511597
 20
-4.00005149841309
 30
0.0
 11
10.970513343811
 21
-6.00005149841309
 31
0.0
  0
LINE
  5
    65
  8
0
  6
CONTINUOUS
 62
    52
 10
17.21315574646
 20
-4.00005149841309
 30
0.0
 11
15.2131547927856
 21
-6.00005149841309
 31
0.0
  0
LINE
  5
    66
  8
0
  6
CONTINUOUS
 62
    52
 10
21.4557971954346
 20
-4.00005149841309
 30
0.0
 11
19.4557952880859
 21
-6.00005149841309
 31
0.0
  0
LINE
  5
    67
  8
0
  6
CONTINUOUS
 62
    52
 10
25.6984386444092
 20
-4.00005149841309
 30
0.0
 11
23.6984367370605
 21
-6.00005149841309
 31
0.0
  0
LINE
  5
    68
  8
0
  6
CONTINUOUS
 62
    52
 10
29.9410800933838
 20
-4.00005149841309
 30
0.0
 11
27.9410781860352
 21
-6.00005149841309
 31
0.0
  0
LINE
  5
    69
  8
0
  6
CONTINUOUS
 62
    52
 10
34.1837196350098
 20
-4.00005149841309
 30
0.0
 11
32.1837196350098
 21
-6.00005149841309
 31
0.0
  0
ENDBLK
  5
    6A
  8
0
  6
CONTINUOUS
 62
     7
  0
BLOCK
  5
    6B
  8
0
  6
CONTINUOUS
 62
     7
  2
*HATCH1317
 70
    65
 10
0.0
 20
0.0
 30
0.0
  3
*HATCH1317
  0
LINE
  5
    6C
  8
0
  6
CONTINUOUS
 62
    52
 10
44.7903175354004
 20
-4.00005149841309
 30
0.0
 11
42.7903175354004
 21
-6.00005149841309
 31
0.0
  0
LINE
  5
    6D
  8
0
  6
CONTINUOUS
 62
    52
 10
49.0329551696777
 20
-4.00005149841309
 30
0.0
 11
47.0329551696777
 21
-6.00005149841309
 31
0.0
  0
LINE
  5
    6E
  8
0
  6
CONTINUOUS
 62
    52
 10
53.2755928039551
 20
-4.00005149841309
 30
0.0
 11
51.2755928039551
 21
-6.00005149841309
 31
0.0
  0
ENDBLK
  5
    6F
  8
0
  6
CONTINUOUS
 62
     7
  0
BLOCK
  5
    70
  8
0
  6
CONTINUOUS
 62
     7
  2
*HATCH1318
 70
    65
 10
0.0
 20
0.0
 30
0.0
  3
*HATCH1318
  0
LINE
  5
    71
  8
0
  6
CONTINUOUS
 62
    52
 10
169.948226928711
 20
-4.00005149841309
 30
0.0
 11
167.948226928711
 21
-6.00005149841309
 31
0.0
  0
LINE
  5
    72
  8
0
  6
CONTINUOUS
 62
    52
 10
174.190872192383
 20
-4.00005149841309
 30
0.0
 11
172.190872192383
 21
-6.00005149841309
 31
0.0
  0
LINE
  5
    73
  8
0
  6
CONTINUOUS
 62
    52
 10
177.480621337891
 20
-4.95293474197388
 30
0.0
 11
176.433502197266
 21
-6.00005149841309
 31
0.0
  0
ENDBLK
  5
    74
  8
0
  6
CONTINUOUS
 62
     7
  0
BLOCK
  5
    75
  8
0
  6
CONTINUOUS
 62
     7
  2
*HATCH1319
 70
    65
 10
0.0
 20
0.0
 30
0.0
  3
*HATCH1319
  0
LINE
  5
    76
  8
0
  6
CONTINUOUS
 62
    52
 10
186.918792724609
 20
-4.00005149841309
 30
0.0
 11
184.918792724609
 21
-6.00005149841309
 31
0.0
  0
LINE
  5
    77
  8
0
  6
CONTINUOUS
 62
    52
 10
191.161437988281
 20
-4.00005149841309
 30
0.0
 11
189.161437988281
 21
-6.00005149841309
 31
0.0
  0
LINE
  5
    78
  8
0
  6
CONTINUOUS
 62
    52
 10
195.404083251953
 20
-4.00005149841309
 30
0.0
 11
193.404083251953
 21
-6.00005149841309
 31
0.0
  0
LINE
  5
    79
  8
0
  6
CONTINUOUS
 62
    52
 10
199.646728515625
 20
-4.00005149841309
 30
0.0
 11
197.646728515625
 21
-6.00005149841309
 31
0.0
  0
LINE
  5
    7A
  8
0
  6
CONTINUOUS
 62
    52
 10
203.889373779297
 20
-4.00005149841309
 30
0.0
 11
201.889373779297
 21
-6.00005149841309
 31
0.0
  0
LINE
  5
    7B
  8
0
  6
CONTINUOUS
 62
    52
 10
208.132019042969
 20
-4.00005149841309
 30
0.0
 11
206.132019042969
 21
-6.00005149841309
 31
0.0
  0
LINE
  5
    7C
  8
0
  6
CONTINUOUS
 62
    52
 10
212.374664306641
 20
-4.00005149841309
 30
0.0
 11
210.374664306641
 21
-6.00005149841309
 31
0.0
  0
LINE
  5
    7D
  8
0
  6
CONTINUOUS
 62
    52
 10
216.617309570313
 20
-4.00005149841309
 30
0.0
 11
214.617309570313
 21
-6.00005149841309
 31
0.0
  0
LINE
  5
    7E
  8
0
  6
CONTINUOUS
 62
    52
 10
220.859954833984
 20
-4.00005149841309
 30
0.0
 11
218.859954833984
 21
-6.00005149841309
 31
0.0
  0
LINE
  5
    7F
  8
0
  6
CONTINUOUS
 62
    52
 10
225.102600097656
 20
-4.00005149841309
 30
0.0
 11
223.102600097656
 21
-6.00005149841309
 31
0.0
  0
LINE
  5
    80
  8
0
  6
CONTINUOUS
 62
    52
 10
229.345245361328
 20
-4.00005149841309
 30
0.0
 11
227.345245361328
 21
-6.00005149841309
 31
0.0
  0
LINE
  5
    81
  8
0
  6
CONTINUOUS
 62
    52
 10
233.587890625
 20
-4.00005149841309
 30
0.0
 11
231.587890625
 21
-6.00005149841309
 31
0.0
  0
LINE
  5
    82
  8
0
  6
CONTINUOUS
 62
    52
 10
237.830535888672
 20
-4.00005149841309
 30
0.0
 11
235.830535888672
 21
-6.00005149841309
 31
0.0
  0
LINE
  5
    83
  8
0
  6
CONTINUOUS
 62
    52
 10
242.073181152344
 20
-4.00005149841309
 30
0.0
 11
240.073181152344
 21
-6.00005149841309
 31
0.0
  0
ENDBLK
  5
    84
  8
0
  6
CONTINUOUS
 62
     7
  0
BLOCK
  5
    85
  8
0
  6
CONTINUOUS
 62
     7
  2
*UDIM2387
 70
    65
 10
0.0
 20
0.0
 30
0.0
  3
*UDIM2387
  0
TEXT
  5
    86
  8
0
  6
CONTINUOUS
 62
     7
 10
-577.997450288496
 20
104.537933351864
 30
0.0
 40
3.00000002980232
  1
83
 50
359.999999948034
 41
0.933333333333333
 72
     1
 11
-575.497450262308
 21
106.037933364511
 31
0.0
 73
     2
  0
LINE
  5
    87
  8
0
  6
CONTINUOUS
 62
     7
 10
-554.522453308106
 20
98.4984624380636
 30
0.0
 11
-554.522453308106
 21
105.537933349609
 31
0.0
  0
LINE
  5
    88
  8
0
  6
CONTINUOUS
 62
     7
 10
-595.922439575195
 20
87.3929748535156
 30
0.0
 11
-595.922439575195
 21
105.537933349609
 31
0.0
  0
LINE
  5
    89
  8
0
  6
CONTINUOUS
 62
     7
 10
-554.522453308106
 20
103.537933349609
 30
0.0
 11
-595.922439575195
 21
103.537933349609
 31
0.0
  0
LINE
  5
    8A
  8
0
  6
CONTINUOUS
 62
     7
 10
-557.476876585313
 20
103.016988919658
 30
0.0
 11
-554.522453308106
 21
103.537933349609
 31
0.0
  0
LINE
  5
    8B
  8
0
  6
CONTINUOUS
 62
     7
 10
-554.522453308106
 20
103.537933349609
 30
0.0
 11
-557.476876585313
 21
104.058877779561
 31
0.0
  0
LINE
  5
    8C
  8
0
  6
CONTINUOUS
 62
     7
 10
-592.968016297988
 20
104.058877779561
 30
0.0
 11
-595.922439575195
 21
103.537933349609
 31
0.0
  0
LINE
  5
    8D
  8
0
  6
CONTINUOUS
 62
     7
 10
-595.922439575195
 20
103.537933349609
 30
0.0
 11
-592.968016297988
 21
103.016988919658
 31
0.0
  0
ENDBLK
  5
    8E
  8
0
  6
CONTINUOUS
 62
     7
  0
BLOCK
  5
    8F
  8
0
  6
CONTINUOUS
 62
     7
  2
*UDIM2388
 70
    65
 10
0.0
 20
0.0
 30
0.0
  3
*UDIM2388
  0
TEXT
  5
    90
  8
0
  6
CONTINUOUS
 62
     7
 10
-564.997450288496
 20
95.8809356712002
 30
0.0
 40
3.00000002980232
  1
31
 50
359.999999948034
 41
0.933333333333333
 72
     1
 11
-562.497450262308
 21
97.3809356838465
 31
0.0
 73
     2
  0
LINE
  5
    91
  8
0
  6
CONTINUOUS
 62
     7
 10
-569.922439575195
 20
87.3929748535156
 30
0.0
 11
-569.922439575195
 21
96.8809356689453
 31
0.0
  0
LINE
  5
    92
  8
0
  6
CONTINUOUS
 62
     7
 10
-554.522453308106
 20
94.8809356689453
 30
0.0
 11
-569.922439575195
 21
94.8809356689453
 31
0.0
  0
LINE
  5
    93
  8
0
  6
CONTINUOUS
 62
     7
 10
-557.476876585313
 20
94.3599912389936
 30
0.0
 11
-554.522453308106
 21
94.8809356689453
 31
0.0
  0
LINE
  5
    94
  8
0
  6
CONTINUOUS
 62
     7
 10
-554.522453308106
 20
94.8809356689453
 30
0.0
 11
-557.476876585313
 21
95.401880098897
 31
0.0
  0
LINE
  5
    95
  8
0
  6
CONTINUOUS
 62
     7
 10
-566.968016297988
 20
95.401880098897
 30
0.0
 11
-569.922439575195
 21
94.8809356689453
 31
0.0
  0
LINE
  5
    96
  8
0
  6
CONTINUOUS
 62
     7
 10
-569.922439575195
 20
94.8809356689453
 30
0.0
 11
-566.968016297988
 21
94.3599912389936
 31
0.0
  0
ENDBLK
  5
    97
  8
0
  6
CONTINUOUS
 62
     7
  0
BLOCK
  5
    98
  8
0
  6
CONTINUOUS
 62
     7
  2
*UDIM2389
 70
    65
 10
0.0
 20
0.0
 30
0.0
  3
*UDIM2389
  0
TEXT
  5
    99
  8
0
  6
CONTINUOUS
 62
     7
 10
-608.13014221925
 20
45.7054900161659
 30
0.0
 40
3.00000002980232
  1
107,25
 50
89.9999999480344
 41
0.933333333333333
 72
     1
 11
-609.630142226815
 21
53.8054900979907
 31
0.0
 73
     2
  0
LINE
  5
    9A
  8
0
  6
CONTINUOUS
 62
     7
 10
-568.974319643318
 20
27.2679995727362
 30
0.0
 11
-609.130142211914
 21
27.2679995727362
 31
0.0
  0
LINE
  5
    9B
  8
0
  6
CONTINUOUS
 62
     7
 10
-607.130142211914
 20
27.2679995727362
 30
0.0
 11
-607.130142211914
 21
80.8929748535156
 31
0.0
  0
LINE
  5
    9C
  8
0
  6
CONTINUOUS
 62
     7
 10
-607.651086641866
 20
30.2224228499432
 30
0.0
 11
-607.130142211914
 21
27.2679995727362
 31
0.0
  0
LINE
  5
    9D
  8
0
  6
CONTINUOUS
 62
     7
 10
-607.130142211914
 20
27.2679995727362
 30
0.0
 11
-606.609197781962
 21
30.2224228499432
 31
0.0
  0
LINE
  5
    9E
  8
0
  6
CONTINUOUS
 62
     7
 10
-606.609197781962
 20
77.9385515763087
 30
0.0
 11
-607.130142211914
 21
80.8929748535156
 31
0.0
  0
LINE
  5
    9F
  8
0
  6
CONTINUOUS
 62
     7
 10
-607.130142211914
 20
80.8929748535156
 30
0.0
 11
-607.651086641866
 21
77.9385515763087
 31
0.0
  0
ENDBLK
  5
    A0
  8
0
  6
CONTINUOUS
 62
     7
  0
BLOCK
  5
    A1
  8
0
  6
CONTINUOUS
 62
     7
  2
*UDIM2390
 70
    65
 10
0.0
 20
0.0
 30
0.0
  3
*UDIM2390
  0
TEXT
  5
    A2
  8
0
  6
CONTINUOUS
 62
     7
 10
-472.272435295941
 20
-54.1120834340665
 30
0.0
 40
3.00000002980232
  1
2
 50
359.999999948034
 41
0.933333333333334
 72
     1
 11
-471.172435283661
 21
-52.6120834201574
 31
0.0
 73
     2
  0
LINE
  5
    A3
  8
0
  6
CONTINUOUS
 62
     7
 10
-475.272435188293
 20
-49.2405699424528
 30
0.0
 11
-475.272435188293
 21
-57.1120834350586
 31
0.0
  0
LINE
  5
    A4
  8
0
  6
CONTINUOUS
 62
     7
 10
-476.272435188293
 20
-49.0405699424528
 30
0.0
 11
-476.272435188293
 21
-57.1120834350586
 31
0.0
  0
LINE
  5
    A5
  8
0
  6
CONTINUOUS
 62
     7
 10
-470.072435272733
 20
-55.1120834350586
 30
0.0
 11
-476.272435188293
 21
-55.1120834350586
 31
0.0
  0
LINE
  5
    A6
  8
0
  6
CONTINUOUS
 62
     7
 10
-472.318011911087
 20
-54.5911390051069
 30
0.0
 11
-475.272435188293
 21
-55.1120834350586
 31
0.0
  0
LINE
  5
    A7
  8
0
  6
CONTINUOUS
 62
     7
 10
-475.272435188293
 20
-55.1120834350586
 30
0.0
 11
-472.318011911087
 21
-55.6330278650103
 31
0.0
  0
LINE
  5
    A8
  8
0
  6
CONTINUOUS
 62
     7
 10
-479.2268584655
 20
-55.6330278650103
 30
0.0
 11
-476.272435188293
 21
-55.1120834350586
 31
0.0
  0
LINE
  5
    A9
  8
0
  6
CONTINUOUS
 62
     7
 10
-476.272435188293
 20
-55.1120834350586
 30
0.0
 11
-479.2268584655
 21
-54.5911390051069
 31
0.0
  0
ENDBLK
  5
    AA
  8
0
  6
CONTINUOUS
 62
     7
  0
BLOCK
  5
    AB
  8
0
  6
CONTINUOUS
 62
     7
  2
*UDIM2391
 70
    65
 10
0.0
 20
0.0
 30
0.0
  3
*UDIM2391
  0
TEXT
  5
    AC
  8
0
  6
CONTINUOUS
 62
     7
 10
-522.372441937886
 20
-54.1120834290156
 30
0.0
 40
3.00000002980232
  1
156,5
 50
359.999999948034
 41
0.933333333333333
 72
     1
 11
-515.672441869974
 21
-52.6120834201574
 31
0.0
 73
     2
  0
LINE
  5
    AD
  8
0
  6
CONTINUOUS
 62
     7
 10
-476.272435188293
 20
-55.1120834350586
 30
0.0
 11
-554.522453308106
 21
-55.1120834350586
 31
0.0
  0
LINE
  5
    AE
  8
0
  6
CONTINUOUS
 62
     7
 10
-479.2268584655
 20
-55.6330278650103
 30
0.0
 11
-476.272435188293
 21
-55.1120834350586
 31
0.0
  0
LINE
  5
    AF
  8
0
  6
CONTINUOUS
 62
     7
 10
-476.272435188293
 20
-55.1120834350586
 30
0.0
 11
-479.2268584655
 21
-54.5911390051069
 31
0.0
  0
LINE
  5
    B0
  8
0
  6
CONTINUOUS
 62
     7
 10
-551.568030030899
 20
-54.5911390051069
 30
0.0
 11
-554.522453308106
 21
-55.1120834350586
 31
0.0
  0
LINE
  5
    B1
  8
0
  6
CONTINUOUS
 62
     7
 10
-554.522453308106
 20
-55.1120834350586
 30
0.0
 11
-551.568030030899
 21
-55.6330278650103
 31
0.0
  0
ENDBLK
  5
    B2
  8
0
  6
CONTINUOUS
 62
     7
  0
BLOCK
  5
    B3
  8
0
  6
CONTINUOUS
 62
     7
  2
*UDIM2392
 70
    65
 10
0.0
 20
0.0
 30
0.0
  3
*UDIM2392
  0
TEXT
  5
    B4
  8
0
  6
CONTINUOUS
 62
     7
 10
-567.523262382277
 20
-60.6051368703458
 30
0.0
 40
3.00000002980232
  1
3
 50
359.999999948034
 41
0.933333333333334
 72
     1
 11
-566.423262369997
 21
-59.1051368564367
 31
0.0
 73
     2
  0
TEXT
  5
    B5
  8
0
  6
CONTINUOUS
 62
     7
 10
-570.273262416053
 20
-60.6051368703458
 30
0.0
 40
3.00000002980232
  1
_
 50
359.999999948034
 41
0.933333333333334
 72
     1
 11
-569.173262403773
 21
-59.1051368564367
 31
0.0
 73
     2
  0
LINE
  5
    B6
  8
0
  6
CONTINUOUS
 62
     7
 10
-554.522455514216
 20
-55.4195489770863
 30
0.0
 11
-554.522473572528
 21
-63.605136871333
 31
0.0
  0
LINE
  5
    B7
  8
0
  6
CONTINUOUS
 62
     7
 10
-556.022453622022
 20
-53.7842636012529
 30
0.0
 11
-556.022456704956
 21
-63.6051368713378
 31
0.0
  0
LINE
  5
    B8
  8
0
  6
CONTINUOUS
 62
     7
 10
-554.522469160307
 20
-61.6051368713379
 30
0.0
 11
-570.2732624147
 21
-61.6051368713379
 31
0.0
  0
LINE
  5
    B9
  8
0
  6
CONTINUOUS
 62
     7
 10
-551.5680458831
 20
-61.0841924413862
 30
0.0
 11
-554.522469160307
 21
-61.6051368713379
 31
0.0
  0
LINE
  5
    BA
  8
0
  6
CONTINUOUS
 62
     7
 10
-554.522469160307
 20
-61.6051368713379
 30
0.0
 11
-551.5680458831
 21
-62.1260813012896
 31
0.0
  0
LINE
  5
    BB
  8
0
  6
CONTINUOUS
 62
     7
 10
-558.97687935433
 20
-62.1260813012896
 30
0.0
 11
-556.022456077123
 21
-61.6051368713379
 31
0.0
  0
LINE
  5
    BC
  8
0
  6
CONTINUOUS
 62
     7
 10
-556.022456077123
 20
-61.6051368713379
 30
0.0
 11
-558.97687935433
 21
-61.0841924413862
 31
0.0
  0
ENDBLK
  5
    BD
  8
0
  6
CONTINUOUS
 62
     7
  0
BLOCK
  5
    BE
  8
0
  6
CONTINUOUS
 62
     7
  2
*UDIM2393
 70
    65
 10
0.0
 20
0.0
 30
0.0
  3
*UDIM2393
  0
TEXT
  5
    BF
  8
0
  6
CONTINUOUS
 62
     7
 10
-615.098312381462
 20
22.2179748074536
 30
0.0
 40
3.00000002980232
  1
218
 50
89.9999999480344
 41
0.933333333333333
 72
     1
 11
-616.598312392831
 21
26.1179748475552
 31
0.0
 73
     2
  0
LINE
  5
    C0
  8
0
  6
CONTINUOUS
 62
     7
 10
-609.209310466305
 20
-28.1070251464844
 30
0.0
 11
-616.09831237793
 21
-28.1070251464844
 31
0.0
  0
LINE
  5
    C1
  8
0
  6
CONTINUOUS
 62
     7
 10
-609.209310466305
 20
80.8929748535156
 30
0.0
 11
-616.09831237793
 21
80.8929748535156
 31
0.0
  0
LINE
  5
    C2
  8
0
  6
CONTINUOUS
 62
     7
 10
-614.09831237793
 20
-28.1070251464844
 30
0.0
 11
-614.09831237793
 21
80.8929748535156
 31
0.0
  0
LINE
  5
    C3
  8
0
  6
CONTINUOUS
 62
     7
 10
-614.619256807881
 20
-25.1526018692774
 30
0.0
 11
-614.09831237793
 21
-28.1070251464844
 31
0.0
  0
LINE
  5
    C4
  8
0
  6
CONTINUOUS
 62
     7
 10
-614.09831237793
 20
-28.1070251464844
 30
0.0
 11
-613.577367947978
 21
-25.1526018692774
 31
0.0
  0
LINE
  5
    C5
  8
0
  6
CONTINUOUS
 62
     7
 10
-613.577367947978
 20
77.9385515763087
 30
0.0
 11
-614.09831237793
 21
80.8929748535156
 31
0.0
  0
LINE
  5
    C6
  8
0
  6
CONTINUOUS
 62
     7
 10
-614.09831237793
 20
80.8929748535156
 30
0.0
 11
-614.619256807881
 21
77.9385515763087
 31
0.0
  0
ENDBLK
  5
    C7
  8
0
  6
CONTINUOUS
 62
     7
  0
BLOCK
  5
    C8
  8
0
  6
CONTINUOUS
 62
     7
  2
*UDIM2394
 70
    65
 10
0.0
 20
0.0
 30
0.0
  3
*UDIM2394
  0
TEXT
  5
    C9
  8
0
  6
CONTINUOUS
 62
     7
 10
-515.36142128113
 20
-60.6694297730097
 30
0.0
 40
3.00000002980232
  1
184,5
 50
359.999999948034
 41
0.933333333333333
 72
     1
 11
-508.661421213218
 21
-59.1694297641516
 31
0.0
 73
     2
  0
LINE
  5
    CA
  8
0
  6
CONTINUOUS
 62
     7
 10
-462.250397139403
 20
21.1430148315254
 30
0.0
 11
-462.250430648635
 21
-63.6694297790526
 31
0.0
  0
LINE
  5
    CB
  8
0
  6
CONTINUOUS
 62
     7
 10
-554.522455497436
 20
-55.4195489770864
 30
0.0
 11
-554.52247355915
 21
-63.6694297790479
 31
0.0
  0
LINE
  5
    CC
  8
0
  6
CONTINUOUS
 62
     7
 10
-462.250429858439
 20
-61.6694297790527
 30
0.0
 11
-554.522469180489
 21
-61.6694297790527
 31
0.0
  0
LINE
  5
    CD
  8
0
  6
CONTINUOUS
 62
     7
 10
-465.204853135646
 20
-62.1903742090044
 30
0.0
 11
-462.250429858439
 21
-61.6694297790527
 31
0.0
  0
LINE
  5
    CE
  8
0
  6
CONTINUOUS
 62
     7
 10
-462.250429858439
 20
-61.6694297790527
 30
0.0
 11
-465.204853135646
 21
-61.1484853491011
 31
0.0
  0
LINE
  5
    CF
  8
0
  6
CONTINUOUS
 62
     7
 10
-551.568045903282
 20
-61.1484853491011
 30
0.0
 11
-554.522469180489
 21
-61.6694297790527
 31
0.0
  0
LINE
  5
    D0
  8
0
  6
CONTINUOUS
 62
     7
 10
-554.522469180489
 20
-61.6694297790527
 30
0.0
 11
-551.568045903282
 21
-62.1903742090044
 31
0.0
  0
ENDBLK
  5
    D1
  8
0
  6
CONTINUOUS
 62
     7
  0
BLOCK
  5
    D2
  8
0
  6
CONTINUOUS
 62
     7
  2
*UDIM2395
 70
    65
 10
0.0
 20
0.0
 30
0.0
  3
*UDIM2395
  0
TEXT
  5
    D3
  8
0
  6
CONTINUOUS
 62
     7
 10
-520.447438078241
 20
-45.3824920619121
 30
0.0
 40
3.00000002980232
  1
153
 50
359.999999948034
 41
0.933333333333333
 72
     1
 11
-516.547438038146
 21
-43.8824920505285
 31
0.0
 73
     2
  0
LINE
  5
    D4
  8
0
  6
CONTINUOUS
 62
     7
 10
-478.022438363233
 20
1.80148315253668E-2
 30
0.0
 11
-478.02245355695
 21
-48.3824920654296
 31
0.0
  0
LINE
  5
    D5
  8
0
  6
CONTINUOUS
 62
     7
 10
-478.022452929117
 20
-46.3824920654297
 30
0.0
 11
-554.522464381668
 21
-46.3824920654297
 31
0.0
  0
LINE
  5
    D6
  8
0
  6
CONTINUOUS
 62
     7
 10
-480.976876206324
 20
-46.9034364953813
 30
0.0
 11
-478.022452929117
 21
-46.3824920654297
 31
0.0
  0
LINE
  5
    D7
  8
0
  6
CONTINUOUS
 62
     7
 10
-478.022452929117
 20
-46.3824920654297
 30
0.0
 11
-480.976876206324
 21
-45.861547635478
 31
0.0
  0
LINE
  5
    D8
  8
0
  6
CONTINUOUS
 62
     7
 10
-551.568041104461
 20
-45.861547635478
 30
0.0
 11
-554.522464381668
 21
-46.3824920654297
 31
0.0
  0
LINE
  5
    D9
  8
0
  6
CONTINUOUS
 62
     7
 10
-554.522464381668
 20
-46.3824920654297
 30
0.0
 11
-551.568041104461
 21
-46.9034364953814
 31
0.0
  0
ENDBLK
  5
    DA
  8
0
  6
CONTINUOUS
 62
     7
  0
BLOCK
  5
    DB
  8
0
  6
CONTINUOUS
 62
     7
  2
*UDIM2396
 70
    65
 10
0.0
 20
0.0
 30
0.0
  3
*UDIM2396
  0
TEXT
  5
    DC
  8
0
  6
CONTINUOUS
 62
     7
 10
-454.586034778313
 20
23.0930053381271
 30
0.0
 40
3.00000002980232
  1
105
 50
89.9999999480344
 41
0.933333333333333
 72
     1
 11
-456.086034789682
 21
26.9930053782287
 31
0.0
 73
     2
  0
LINE
  5
    DD
  8
0
  6
CONTINUOUS
 62
     7
 10
-475.272435188293
 20
1.01801483152532
 30
0.0
 11
-451.58603477478
 21
1.01801483152532
 31
0.0
  0
LINE
  5
    DE
  8
0
  6
CONTINUOUS
 62
     7
 10
-475.272435188293
 20
53.5179995727362
 30
0.0
 11
-451.58603477478
 21
53.5179995727362
 31
0.0
  0
LINE
  5
    DF
  8
0
  6
CONTINUOUS
 62
     7
 10
-453.58603477478
 20
1.01801483152532
 30
0.0
 11
-453.58603477478
 21
53.5179995727362
 31
0.0
  0
LINE
  5
    E0
  8
0
  6
CONTINUOUS
 62
     7
 10
-454.106979204732
 20
3.97243810873228
 30
0.0
 11
-453.58603477478
 21
1.01801483152532
 31
0.0
  0
LINE
  5
    E1
  8
0
  6
CONTINUOUS
 62
     7
 10
-453.58603477478
 20
1.01801483152532
 30
0.0
 11
-453.065090344829
 21
3.97243810873228
 31
0.0
  0
LINE
  5
    E2
  8
0
  6
CONTINUOUS
 62
     7
 10
-453.065090344829
 20
50.5635762955293
 30
0.0
 11
-453.58603477478
 21
53.5179995727362
 31
0.0
  0
LINE
  5
    E3
  8
0
  6
CONTINUOUS
 62
     7
 10
-453.58603477478
 20
53.5179995727362
 30
0.0
 11
-454.106979204732
 21
50.5635762955293
 31
0.0
  0
ENDBLK
  5
    E4
  8
0
  6
CONTINUOUS
 62
     7
  0
BLOCK
  5
    E5
  8
0
  6
CONTINUOUS
 62
     0
  2
ON-OFF
 70
    64
 10
0.0
 20
0.0
 30
0.0
  3
ON-OFF
  0
LINE
  5
    E6
  8
0
  6
CONTINUOUS
 62
     0
 10
5.09999999999999
 20
-29.65
 30
0.0
 11
5.54999999999999
 21
-29.65
 31
0.0
  0
LINE
  5
    E7
  8
0
  6
CONTINUOUS
 62
     0
 10
3.79999999999999
 20
-37.35
 30
0.0
 11
4.59999999999999
 21
-37.35
 31
0.0
  0
LINE
  5
    E8
  8
0
  6
CONTINUOUS
 62
     0
 10
-2.6
 20
-34.75
 30
0.0
 11
-2.6
 21
-34.25
 31
0.0
  0
LINE
  5
    E9
  8
0
  6
CONTINUOUS
 62
     0
 10
2.6
 20
-34.75
 30
0.0
 11
2.6
 21
-34.25
 31
0.0
  0
ARC
  5
    EA
  8
0
  6
CONTINUOUS
 62
     0
 10
-3.5527136788005E-15
 20
-34.25
 30
0.0
 40
2.6
 50
0.0
 51
180.0
  0
ARC
  5
    EB
  8
0
  6
CONTINUOUS
 62
     0
 10
-3.5527136788005E-15
 20
-34.75
 30
0.0
 40
2.6
 50
180.0
 51
360.0
  0
ARC
  5
    EC
  8
0
  6
CONTINUOUS
 62
     0
 10
-3.5527136788005E-15
 20
-34.25
 30
0.0
 40
1.8
 50
0.0
 51
180.0
  0
ARC
  5
    ED
  8
0
  6
CONTINUOUS
 62
     0
 10
-3.5527136788005E-15
 20
-34.75
 30
0.0
 40
1.8
 50
180.0
 51
360.0
  0
LINE
  5
    EE
  8
0
  6
CONTINUOUS
 62
     0
 10
-1.8
 20
-34.75
 30
0.0
 11
-1.8
 21
-34.25
 31
0.0
  0
LINE
  5
    EF
  8
0
  6
CONTINUOUS
 62
     0
 10
1.8
 20
-34.75
 30
0.0
 11
1.8
 21
-34.25
 31
0.0
  0
LINE
  5
    F0
  8
0
  6
CONTINUOUS
 62
     0
 10
2.84999999999999
 20
-32.85
 30
0.0
 11
2.84999999999999
 21
-32.05
 31
0.0
  0
LINE
  5
    F1
  8
0
  6
CONTINUOUS
 62
     0
 10
2.84999999999999
 20
-32.85
 30
0.0
 11
3.79999999999999
 21
-32.85
 31
0.0
  0
LINE
  5
    F2
  8
0
  6
CONTINUOUS
 62
     0
 10
5.54999999999999
 20
-32.85
 30
0.0
 11
5.54999999999999
 21
-32.05
 31
0.0
  0
LINE
  5
    F3
  8
0
  6
CONTINUOUS
 62
     0
 10
2.84999999999999
 20
-32.05
 30
0.0
 11
3.79999999999999
 21
-32.05
 31
0.0
  0
LINE
  5
    F4
  8
0
  6
CONTINUOUS
 62
     0
 10
3.79999999999999
 20
-37.35
 30
0.0
 11
3.79999999999999
 21
-32.85
 31
0.0
  0
LINE
  5
    F5
  8
0
  6
CONTINUOUS
 62
     0
 10
4.59999999999999
 20
-37.35
 30
0.0
 11
4.59999999999999
 21
-32.85
 31
0.0
  0
LINE
  5
    F6
  8
0
  6
CONTINUOUS
 62
     0
 10
4.59999999999999
 20
-32.85
 30
0.0
 11
5.54999999999999
 21
-32.85
 31
0.0
  0
LINE
  5
    F7
  8
0
  6
CONTINUOUS
 62
     0
 10
4.59999999999999
 20
-32.05
 30
0.0
 11
5.54999999999999
 21
-32.05
 31
0.0
  0
LINE
  5
    F8
  8
0
  6
CONTINUOUS
 62
     0
 10
3.79999999999999
 20
-32.05
 30
0.0
 11
3.79999999999999
 21
-30.95
 31
0.0
  0
LINE
  5
    F9
  8
0
  6
CONTINUOUS
 62
     0
 10
4.59999999999999
 20
-32.05
 30
0.0
 11
4.59999999999999
 21
-30.95
 31
0.0
  0
ARC
  5
    FA
  8
0
  6
CONTINUOUS
 62
     0
 10
5.09999999999999
 20
-30.95
 30
0.0
 40
1.3
 50
89.9999999999999
 51
180.0
  0
ARC
  5
    FB
  8
0
  6
CONTINUOUS
 62
     0
 10
5.09999999999999
 20
-30.95
 30
0.0
 40
0.5
 50
89.9999999999999
 51
180.0
  0
LINE
  5
    FC
  8
0
  6
CONTINUOUS
 62
     0
 10
5.54999999999999
 20
-30.45
 30
0.0
 11
5.54999999999999
 21
-29.65
 31
0.0
  0
LINE
  5
    FD
  8
0
  6
CONTINUOUS
 62
     0
 10
5.09999999999999
 20
-30.45
 30
0.0
 11
5.54999999999999
 21
-30.45
 31
0.0
  0
LINE
  5
    FE
  8
0
  6
CONTINUOUS
 62
     0
 10
8.29999999999998
 20
-29.65
 30
0.0
 11
8.74999999999999
 21
-29.65
 31
0.0
  0
LINE
  5
    FF
  8
0
  6
CONTINUOUS
 62
     0
 10
6.99999999999999
 20
-37.35
 30
0.0
 11
7.79999999999999
 21
-37.35
 31
0.0
  0
LINE
  5
   100
  8
0
  6
CONTINUOUS
 62
     0
 10
6.04999999999999
 20
-32.85
 30
0.0
 11
6.04999999999999
 21
-32.05
 31
0.0
  0
LINE
  5
   101
  8
0
  6
CONTINUOUS
 62
     0
 10
6.04999999999999
 20
-32.85
 30
0.0
 11
6.99999999999999
 21
-32.85
 31
0.0
  0
LINE
  5
   102
  8
0
  6
CONTINUOUS
 62
     0
 10
8.74999999999999
 20
-32.85
 30
0.0
 11
8.74999999999999
 21
-32.05
 31
0.0
  0
LINE
  5
   103
  8
0
  6
CONTINUOUS
 62
     0
 10
6.04999999999999
 20
-32.05
 30
0.0
 11
6.99999999999999
 21
-32.05
 31
0.0
  0
LINE
  5
   104
  8
0
  6
CONTINUOUS
 62
     0
 10
6.99999999999999
 20
-37.35
 30
0.0
 11
6.99999999999999
 21
-32.85
 31
0.0
  0
LINE
  5
   105
  8
0
  6
CONTINUOUS
 62
     0
 10
7.79999999999999
 20
-37.35
 30
0.0
 11
7.79999999999999
 21
-32.85
 31
0.0
  0
LINE
  5
   106
  8
0
  6
CONTINUOUS
 62
     0
 10
7.79999999999999
 20
-32.85
 30
0.0
 11
8.74999999999999
 21
-32.85
 31
0.0
  0
LINE
  5
   107
  8
0
  6
CONTINUOUS
 62
     0
 10
7.79999999999999
 20
-32.05
 30
0.0
 11
8.74999999999999
 21
-32.05
 31
0.0
  0
LINE
  5
   108
  8
0
  6
CONTINUOUS
 62
     0
 10
6.99999999999999
 20
-32.05
 30
0.0
 11
6.99999999999999
 21
-30.95
 31
0.0
  0
LINE
  5
   109
  8
0
  6
CONTINUOUS
 62
     0
 10
7.79999999999999
 20
-32.05
 30
0.0
 11
7.79999999999999
 21
-30.95
 31
0.0
  0
ARC
  5
   10A
  8
0
  6
CONTINUOUS
 62
     0
 10
8.29999999999998
 20
-30.95
 30
0.0
 40
1.3
 50
89.9999999999999
 51
180.0
  0
ARC
  5
   10B
  8
0
  6
CONTINUOUS
 62
     0
 10
8.29999999999998
 20
-30.95
 30
0.0
 40
0.5
 50
89.9999999999999
 51
180.0
  0
LINE
  5
   10C
  8
0
  6
CONTINUOUS
 62
     0
 10
8.74999999999999
 20
-30.45
 30
0.0
 11
8.74999999999999
 21
-29.65
 31
0.0
  0
LINE
  5
   10D
  8
0
  6
CONTINUOUS
 62
     0
 10
8.29999999999998
 20
-30.45
 30
0.0
 11
8.74999999999999
 21
-30.45
 31
0.0
  0
LINE
  5
   10E
  8
0
  6
CONTINUOUS
 62
     0
 10
3.4
 20
-2.85000000000002
 30
0.0
 11
4.19999999999999
 21
-2.85000000000002
 31
0.0
  0
ARC
  5
   10F
  8
0
  6
CONTINUOUS
 62
     0
 10
-3.5527136788005E-15
 20
0.249999999999979
 30
0.0
 40
2.6
 50
0.0
 51
180.0
  0
ARC
  5
   110
  8
0
  6
CONTINUOUS
 62
     0
 10
-3.5527136788005E-15
 20
0.249999999999979
 30
0.0
 40
1.8
 50
0.0
 51
180.0
  0
ARC
  5
   111
  8
0
  6
CONTINUOUS
 62
     0
 10
-3.5527136788005E-15
 20
-0.250000000000018
 30
0.0
 40
2.6
 50
180.0
 51
360.0
  0
ARC
  5
   112
  8
0
  6
CONTINUOUS
 62
     0
 10
-3.5527136788005E-15
 20
-0.250000000000018
 30
0.0
 40
1.8
 50
180.0
 51
360.0
  0
LINE
  5
   113
  8
0
  6
CONTINUOUS
 62
     0
 10
1.8
 20
-0.250000000000018
 30
0.0
 11
1.8
 21
0.249999999999979
 31
0.0
  0
LINE
  5
   114
  8
0
  6
CONTINUOUS
 62
     0
 10
2.6
 20
-0.250000000000018
 30
0.0
 11
2.6
 21
0.249999999999979
 31
0.0
  0
LINE
  5
   115
  8
0
  6
CONTINUOUS
 62
     0
 10
-1.8
 20
-0.250000000000032
 30
0.0
 11
-1.8
 21
0.249999999999964
 31
0.0
  0
LINE
  5
   116
  8
0
  6
CONTINUOUS
 62
     0
 10
-2.6
 20
-0.250000000000018
 30
0.0
 11
-2.6
 21
0.249999999999979
 31
0.0
  0
LINE
  5
   117
  8
0
  6
CONTINUOUS
 62
     0
 10
3.4
 20
-2.85000000000002
 30
0.0
 11
3.4
 21
2.84999999999998
 31
0.0
  0
LINE
  5
   118
  8
0
  6
CONTINUOUS
 62
     0
 10
4.19999999999999
 20
-2.85000000000002
 30
0.0
 11
4.19999999999999
 21
0.649999999999981
 31
0.0
  0
LINE
  5
   119
  8
0
  6
CONTINUOUS
 62
     0
 10
6.99999999999999
 20
-2.85000000000002
 30
0.0
 11
6.99999999999999
 21
0.649999999999981
 31
0.0
  0
LINE
  5
   11A
  8
0
  6
CONTINUOUS
 62
     0
 10
7.79999999999999
 20
-2.85000000000002
 30
0.0
 11
7.79999999999999
 21
0.84999999999998
 31
0.0
  0
LINE
  5
   11B
  8
0
  6
CONTINUOUS
 62
     0
 10
3.4
 20
2.84999999999998
 30
0.0
 11
4.19999999999999
 21
2.84999999999998
 31
0.0
  0
ARC
  5
   11C
  8
0
  6
CONTINUOUS
 62
     0
 10
5.59999999999999
 20
0.649999999999981
 30
0.0
 40
1.4
 50
0.0
 51
180.0
  0
LINE
  5
   11D
  8
0
  6
CONTINUOUS
 62
     0
 10
4.19999999999999
 20
2.05
 30
0.0
 11
4.19999999999999
 21
2.84999999999998
 31
0.0
  0
ARC
  5
   11E
  8
0
  6
CONTINUOUS
 62
     0
 10
5.79999999999999
 20
0.84999999999998
 30
0.0
 40
2.0
 50
0.0
 51
143.130102354155
  0
LINE
  5
   11F
  8
0
  6
CONTINUOUS
 62
     0
 10
6.99999999999999
 20
-2.85000000000002
 30
0.0
 11
7.79999999999999
 21
-2.85000000000002
 31
0.0
  0
ENDBLK
  5
   120
  8
0
  6
CONTINUOUS
 62
     0
  0
BLOCK
  5
   121
  8
0
  6
CONTINUOUS
 62
     7
  2
MOSTRINA
 70
    64
 10
0.0
 20
0.0
 30
0.0
  3
MOSTRINA
  0
LINE
  5
   122
  8
0
  6
CONTINUOUS
 62
     3
 10
173.338256835938
 20
30.7306251525879
 30
0.0
 11
173.338256835938
 21
189.230621337891
 31
0.0
  0
LINE
  5
   123
  8
0
  6
CONTINUOUS
 62
     3
 10
57.5882568359375
 20
29.4806251525879
 30
0.0
 11
172.088256835938
 21
29.4806251525879
 31
0.0
  0
LINE
  5
   124
  8
0
  6
CONTINUOUS
 62
     3
 10
56.3382568359375
 20
30.7306251525879
 30
0.0
 11
56.3382568359375
 21
189.230621337891
 31
0.0
  0
LINE
  5
   125
  8
0
  6
CONTINUOUS
 62
     3
 10
57.5882568359375
 20
190.480621337891
 30
0.0
 11
172.088256835938
 21
190.480621337891
 31
0.0
  0
LINE
  5
   126
  8
0
  6
CONTINUOUS
 62
     3
 10
167.838256835938
 20
56.9806251525879
 30
0.0
 11
167.838256835938
 21
162.980625152588
 31
0.0
  0
LINE
  5
   127
  8
0
  6
CONTINUOUS
 62
     3
 10
61.8382568359375
 20
56.9806251525879
 30
0.0
 11
167.838256835938
 21
56.9806251525879
 31
0.0
  0
LINE
  5
   128
  8
0
  6
CONTINUOUS
 62
     3
 10
61.8382568359375
 20
56.9806251525879
 30
0.0
 11
61.8382568359375
 21
162.980625152588
 31
0.0
  0
LINE
  5
   129
  8
0
  6
CONTINUOUS
 62
     3
 10
61.8382568359375
 20
162.980621337891
 30
0.0
 11
167.838256835938
 21
162.980621337891
 31
0.0
  0
LINE
  5
   12A
  8
0
  6
CONTINUOUS
 62
     3
 10
168.838256835938
 20
48.4806251525879
 30
0.0
 11
168.838256835938
 21
49.4806251525879
 31
0.0
  0
LINE
  5
   12B
  8
0
  6
CONTINUOUS
 62
     3
 10
61.8382568359375
 20
50.4806251525879
 30
0.0
 11
167.838256835938
 21
50.4806251525879
 31
0.0
  0
LINE
  5
   12C
  8
0
  6
CONTINUOUS
 62
     3
 10
60.8382568359375
 20
48.4806251525879
 30
0.0
 11
60.8382568359375
 21
49.4806251525879
 31
0.0
  0
LINE
  5
   12D
  8
0
  6
CONTINUOUS
 62
     3
 10
61.8382568359375
 20
49.4806251525879
 30
0.0
 11
167.838256835938
 21
49.4806251525879
 31
0.0
  0
LINE
  5
   12E
  8
0
  6
CONTINUOUS
 62
     3
 10
60.8382568359375
 20
29.4806251525879
 30
0.0
 11
60.8382568359375
 21
48.4806251525879
 31
0.0
  0
LINE
  5
   12F
  8
0
  6
CONTINUOUS
 62
     3
 10
60.8382568359375
 20
49.4806213378906
 30
0.0
 11
60.8382568359375
 21
190.480621337891
 31
0.0
  0
LINE
  5
   130
  8
0
  6
CONTINUOUS
 62
     3
 10
61.8382568359375
 20
29.4806251525879
 30
0.0
 11
61.8382568359375
 21
49.4806251525879
 31
0.0
  0
LINE
  5
   131
  8
0
  6
CONTINUOUS
 62
     3
 10
61.8382568359375
 20
162.980621337891
 30
0.0
 11
61.8382568359375
 21
169.480621337891
 31
0.0
  0
LINE
  5
   132
  8
0
  6
CONTINUOUS
 62
     3
 10
61.8382568359375
 20
50.4806251525879
 30
0.0
 11
61.8382568359375
 21
56.9806251525879
 31
0.0
  0
LINE
  5
   133
  8
0
  6
CONTINUOUS
 62
     3
 10
168.838256835938
 20
29.4806251525879
 30
0.0
 11
168.838256835938
 21
48.4806251525879
 31
0.0
  0
LINE
  5
   134
  8
0
  6
CONTINUOUS
 62
     3
 10
168.838256835938
 20
49.4806251525879
 30
0.0
 11
168.838256835938
 21
190.480621337891
 31
0.0
  0
LINE
  5
   135
  8
0
  6
CONTINUOUS
 62
     3
 10
167.838256835938
 20
50.4806251525879
 30
0.0
 11
167.838256835938
 21
56.9806251525879
 31
0.0
  0
LINE
  5
   136
  8
0
  6
CONTINUOUS
 62
     3
 10
167.838256835938
 20
162.980621337891
 30
0.0
 11
167.838256835938
 21
169.480621337891
 31
0.0
  0
LINE
  5
   137
  8
0
  6
CONTINUOUS
 62
     3
 10
167.838256835938
 20
29.4806251525879
 30
0.0
 11
167.838256835938
 21
49.4806251525879
 31
0.0
  0
LINE
  5
   138
  8
0
  6
CONTINUOUS
 62
     3
 10
60.8382568359375
 20
170.480621337891
 30
0.0
 11
168.838256835938
 21
170.480621337891
 31
0.0
  0
LINE
  5
   139
  8
0
  6
CONTINUOUS
 62
     3
 10
61.8382568359375
 20
169.480621337891
 30
0.0
 11
167.838256835938
 21
169.480621337891
 31
0.0
  0
ARC
  5
   13A
  8
0
  6
CONTINUOUS
 62
     3
 10
57.5882568359375
 20
30.7306251525879
 30
0.0
 40
1.25
 50
180.0
 51
270.0
  0
ARC
  5
   13B
  8
0
  6
CONTINUOUS
 62
     3
 10
172.088256835938
 20
30.7306251525879
 30
0.0
 40
1.25
 50
270.0
 51
360.0
  0
ARC
  5
   13C
  8
0
  6
CONTINUOUS
 62
     3
 10
172.088256835938
 20
189.230621337891
 30
0.0
 40
1.25
 50
0.0
 51
90.0
  0
ARC
  5
   13D
  8
0
  6
CONTINUOUS
 62
     3
 10
57.5882568359375
 20
189.230621337891
 30
0.0
 40
1.25
 50
90.0
 51
180.0
  0
LINE
  5
   13E
  8
0
  6
DOT
 62
     3
 10
60.3382577409677
 20
179.7306252571
 30
0.0
 11
60.8382568359375
 21
179.7306252571
 31
0.0
  0
LINE
  5
   13F
  8
0
  6
DOT
 62
     3
 10
60.3382577409676
 20
181.2306252571
 30
0.0
 11
60.8382568359375
 21
181.2306252571
 31
0.0
  0
LINE
  5
   140
  8
0
  6
CONTINUOUS
 62
     3
 10
168.338257745313
 20
179.730625257273
 30
0.0
 11
168.838256835938
 21
179.730625257273
 31
0.0
  0
LINE
  5
   141
  8
0
  6
CONTINUOUS
 62
     3
 10
168.338257745314
 20
181.230625257273
 30
0.0
 11
168.838256835938
 21
181.230625257273
 31
0.0
  0
ARC
  5
   142
  8
0
  6
DOT
 62
     3
 10
60.3382577401871
 20
180.480625257147
 30
0.0
 40
0.749999999345164
 50
90.0
 51
270.0
  0
ARC
  5
   143
  8
0
  6
CONTINUOUS
 62
     3
 10
61.338257740822
 20
180.480625256974
 30
0.0
 40
0.750000000009701
 50
270.0
 51
450.0
  0
LINE
  5
   144
  8
0
  6
CONTINUOUS
 62
     3
 10
60.8382568359375
 20
181.2306252571
 30
0.0
 11
61.3382577409688
 21
181.2306252571
 31
0.0
  0
LINE
  5
   145
  8
0
  6
CONTINUOUS
 62
     3
 10
60.8382568359375
 20
179.7306252571
 30
0.0
 11
61.3382577409689
 21
179.7306252571
 31
0.0
  0
ARC
  5
   146
  8
0
  6
CONTINUOUS
 62
     3
 10
168.338257745503
 20
180.480625256952
 30
0.0
 40
0.750000000048506
 50
90.0000000038822
 51
269.999999996024
  0
ARC
  5
   147
  8
0
  6
DOT
 62
     3
 10
169.338257745421
 20
180.480625256965
 30
0.0
 40
0.750000000029104
 50
270.000000002449
 51
449.999999997486
  0
LINE
  5
   148
  8
0
  6
DOT
 62
     3
 10
168.838256835938
 20
181.230625257273
 30
0.0
 11
169.338257745315
 21
181.230625257273
 31
0.0
  0
LINE
  5
   149
  8
0
  6
DOT
 62
     3
 10
168.838256835938
 20
179.730625257273
 30
0.0
 11
169.338257745315
 21
179.730625257273
 31
0.0
  0
POINT
  5
   14A
  8
0
  6
CONTINUOUS
 62
     3
 10
114.838256835938
 20
109.980621337891
 30
0.0
  0
ENDBLK
  5
   14B
  8
0
  6
CONTINUOUS
 62
     7
  0
BLOCK
  5
   14C
  8
0
  6
CONTINUOUS
 62
     7
  2
*UDIM2397
 70
    65
 10
0.0
 20
0.0
 30
0.0
  3
*UDIM2397
  0
TEXT
  5
   14D
  8
0
  6
CONTINUOUS
 62
     7
 10
-634.862625125603
 20
23.0929900662407
 30
0.0
 40
3.00000002980232
  1
161
 50
89.9999999480344
 41
0.933333333333333
 72
     1
 11
-636.362625136972
 21
26.9929901063423
 31
0.0
 73
     2
  0
LINE
  5
   14E
  8
0
  6
CONTINUOUS
 62
     7
 10
-644.046389889554
 20
-12.9820117950459
 30
0.0
 11
-631.86262512207
 21
-12.9820117950459
 31
0.0
  0
LINE
  5
   14F
  8
0
  6
CONTINUOUS
 62
     7
 10
-644.046389889554
 20
67.5179862976055
 30
0.0
 11
-631.86262512207
 21
67.5179862976055
 31
0.0
  0
LINE
  5
   150
  8
0
  6
CONTINUOUS
 62
     7
 10
-633.86262512207
 20
-12.9820117950459
 30
0.0
 11
-633.86262512207
 21
67.5179862976055
 31
0.0
  0
LINE
  5
   151
  8
0
  6
CONTINUOUS
 62
     7
 10
-634.383569552022
 20
-10.0275885178389
 30
0.0
 11
-633.86262512207
 21
-12.9820117950459
 31
0.0
  0
LINE
  5
   152
  8
0
  6
CONTINUOUS
 62
     7
 10
-633.86262512207
 20
-12.9820117950459
 30
0.0
 11
-633.341680692119
 21
-10.0275885178389
 31
0.0
  0
LINE
  5
   153
  8
0
  6
CONTINUOUS
 62
     7
 10
-633.341680692119
 20
64.5635630203985
 30
0.0
 11
-633.86262512207
 21
67.5179862976055
 31
0.0
  0
LINE
  5
   154
  8
0
  6
CONTINUOUS
 62
     7
 10
-633.86262512207
 20
67.5179862976055
 30
0.0
 11
-634.383569552022
 21
64.5635630203985
 31
0.0
  0
ENDBLK
  5
   155
  8
0
  6
CONTINUOUS
 62
     7
  0
BLOCK
  5
   156
  8
0
  6
CONTINUOUS
 62
     7
  2
*UDIM2398
 70
    65
 10
0.0
 20
0.0
 30
0.0
  3
*UDIM2398
  0
TEXT
  5
   157
  8
0
  6
CONTINUOUS
 62
     7
 10
-677.846386746762
 20
-46.0717201197734
 30
0.0
 40
3.00000002980232
  1
117
 50
359.999999948034
 41
0.933333333333333
 72
     1
 11
-673.946386706666
 21
-44.5717201083899
 31
0.0
 73
     2
  0
LINE
  5
   158
  8
0
  6
CONTINUOUS
 62
     7
 10
-644.421389889554
 20
-13.3570117950459
 30
0.0
 11
-644.421389889554
 21
-49.071720123291
 31
0.0
  0
LINE
  5
   159
  8
0
  6
CONTINUOUS
 62
     7
 10
-702.921389889555
 20
-13.3570117950459
 30
0.0
 11
-702.921389889555
 21
-49.071720123291
 31
0.0
  0
LINE
  5
   15A
  8
0
  6
CONTINUOUS
 62
     7
 10
-644.421389889554
 20
-47.071720123291
 30
0.0
 11
-702.921389889555
 21
-47.071720123291
 31
0.0
  0
LINE
  5
   15B
  8
0
  6
CONTINUOUS
 62
     7
 10
-647.375813166761
 20
-47.5926645532427
 30
0.0
 11
-644.421389889554
 21
-47.071720123291
 31
0.0
  0
LINE
  5
   15C
  8
0
  6
CONTINUOUS
 62
     7
 10
-644.421389889554
 20
-47.071720123291
 30
0.0
 11
-647.375813166761
 21
-46.5507756933394
 31
0.0
  0
LINE
  5
   15D
  8
0
  6
CONTINUOUS
 62
     7
 10
-699.966966612347
 20
-46.5507756933394
 30
0.0
 11
-702.921389889555
 21
-47.071720123291
 31
0.0
  0
LINE
  5
   15E
  8
0
  6
CONTINUOUS
 62
     7
 10
-702.921389889555
 20
-47.071720123291
 30
0.0
 11
-699.966966612347
 21
-47.5926645532427
 31
0.0
  0
ENDBLK
  5
   15F
  8
0
  6
CONTINUOUS
 62
     7
  0
BLOCK
  5
   160
  8
0
  6
CONTINUOUS
 62
     7
  2
*UDIM2399
 70
    65
 10
0.0
 20
0.0
 30
0.0
  3
*UDIM2399
  0
TEXT
  5
   161
  8
0
  6
CONTINUOUS
 62
     7
 10
-710.323968894665
 20
50.8304747657302
 30
0.0
 40
3.00000002980232
  1
127,75
 50
89.9999999480344
 41
0.933333333333333
 72
     1
 11
-711.82396890223
 21
58.9304748475551
 31
0.0
 73
     2
  0
LINE
  5
   162
  8
0
  6
CONTINUOUS
 62
     7
 10
-700.29639041183
 20
91.1429443359373
 30
0.0
 11
-711.323968887329
 21
91.1429443359373
 31
0.0
  0
LINE
  5
   163
  8
0
  6
CONTINUOUS
 62
     7
 10
-709.323968887329
 20
27.2680053710937
 30
0.0
 11
-709.323968887329
 21
91.1429443359373
 31
0.0
  0
LINE
  5
   164
  8
0
  6
CONTINUOUS
 62
     7
 10
-709.844913317281
 20
30.2224286483007
 30
0.0
 11
-709.323968887329
 21
27.2680053710937
 31
0.0
  0
LINE
  5
   165
  8
0
  6
CONTINUOUS
 62
     7
 10
-709.323968887329
 20
27.2680053710937
 30
0.0
 11
-708.803024457377
 21
30.2224286483007
 31
0.0
  0
LINE
  5
   166
  8
0
  6
CONTINUOUS
 62
     7
 10
-708.803024457377
 20
88.1885210587303
 30
0.0
 11
-709.323968887329
 21
91.1429443359373
 31
0.0
  0
LINE
  5
   167
  8
0
  6
CONTINUOUS
 62
     7
 10
-709.323968887329
 20
91.1429443359373
 30
0.0
 11
-709.844913317281
 21
88.1885210587303
 31
0.0
  0
ENDBLK
  5
   168
  8
0
  6
CONTINUOUS
 62
     7
  0
BLOCK
  5
   169
  8
0
  6
CONTINUOUS
 62
     7
  2
*UDIM2400
 70
    65
 10
0.0
 20
0.0
 30
0.0
  3
*UDIM2400
  0
TEXT
  5
   16A
  8
0
  6
CONTINUOUS
 62
     7
 10
-719.170310977653
 20
22.2179748074536
 30
0.0
 40
3.00000002980232
  1
259
 50
89.9999999480344
 41
0.933333333333333
 72
     1
 11
-720.670310989022
 21
26.1179748475552
 31
0.0
 73
     2
  0
LINE
  5
   16B
  8
0
  6
CONTINUOUS
 62
     7
 10
-700.29639041183
 20
-38.356994628906
 30
0.0
 11
-720.170310974121
 21
-38.356994628906
 31
0.0
  0
LINE
  5
   16C
  8
0
  6
CONTINUOUS
 62
     7
 10
-700.29639041183
 20
91.1429443359373
 30
0.0
 11
-720.170310974121
 21
91.1429443359373
 31
0.0
  0
LINE
  5
   16D
  8
0
  6
CONTINUOUS
 62
     7
 10
-718.170310974121
 20
-38.356994628906
 30
0.0
 11
-718.170310974121
 21
91.1429443359373
 31
0.0
  0
LINE
  5
   16E
  8
0
  6
CONTINUOUS
 62
     7
 10
-718.691255404073
 20
-35.402571351699
 30
0.0
 11
-718.170310974121
 21
-38.356994628906
 31
0.0
  0
LINE
  5
   16F
  8
0
  6
CONTINUOUS
 62
     7
 10
-718.170310974121
 20
-38.356994628906
 30
0.0
 11
-717.649366544169
 21
-35.402571351699
 31
0.0
  0
LINE
  5
   170
  8
0
  6
CONTINUOUS
 62
     7
 10
-717.649366544169
 20
88.1885210587303
 30
0.0
 11
-718.170310974121
 21
91.1429443359373
 31
0.0
  0
LINE
  5
   171
  8
0
  6
CONTINUOUS
 62
     7
 10
-718.170310974121
 20
91.1429443359373
 30
0.0
 11
-718.691255404073
 21
88.1885210587303
 31
0.0
  0
ENDBLK
  5
   172
  8
0
  6
CONTINUOUS
 62
     7
  0
BLOCK
  5
   173
  8
0
  6
CONTINUOUS
 62
     7
  2
*UDIM2401
 70
    65
 10
0.0
 20
0.0
 30
0.0
  3
*UDIM2401
  0
TEXT
  5
   174
  8
0
  6
CONTINUOUS
 62
     7
 10
-677.846363882635
 20
100.629409793557
 30
0.0
 40
3.00000002980232
  1
105
 50
359.999999948034
 41
0.933333333333333
 72
     1
 11
-673.946363842539
 21
102.12940980494
 31
0.0
 73
     2
  0
LINE
  5
   175
  8
0
  6
CONTINUOUS
 62
     7
 10
-647.421375143008
 20
78.6429901123046
 30
0.0
 11
-647.421367927193
 21
101.629409790039
 31
0.0
  0
LINE
  5
   176
  8
0
  6
CONTINUOUS
 62
     7
 10
-699.921344480868
 20
78.6429901123046
 30
0.0
 11
-699.921333942084
 21
101.629409790039
 31
0.0
  0
LINE
  5
   177
  8
0
  6
CONTINUOUS
 62
     7
 10
-647.421368555026
 20
99.6294097900391
 30
0.0
 11
-699.921334859042
 21
99.6294097900391
 31
0.0
  0
LINE
  5
   178
  8
0
  6
CONTINUOUS
 62
     7
 10
-650.375791832233
 20
99.1084653600874
 30
0.0
 11
-647.421368555026
 21
99.6294097900391
 31
0.0
  0
LINE
  5
   179
  8
0
  6
CONTINUOUS
 62
     7
 10
-647.421368555026
 20
99.6294097900391
 30
0.0
 11
-650.375791832233
 21
100.150354219991
 31
0.0
  0
LINE
  5
   17A
  8
0
  6
CONTINUOUS
 62
     7
 10
-696.966911581835
 20
100.150354219991
 30
0.0
 11
-699.921334859042
 21
99.6294097900391
 31
0.0
  0
LINE
  5
   17B
  8
0
  6
CONTINUOUS
 62
     7
 10
-699.921334859042
 20
99.6294097900391
 30
0.0
 11
-696.966911581835
 21
99.1084653600874
 31
0.0
  0
ENDBLK
  5
   17C
  8
0
  6
CONTINUOUS
 62
     7
  0
BLOCK
  5
   17D
  8
0
  6
CONTINUOUS
 62
     7
  2
*UDIM2402
 70
    65
 10
0.0
 20
0.0
 30
0.0
  3
*UDIM2402
  0
TEXT
  5
   17E
  8
0
  6
CONTINUOUS
 62
     7
 10
-610.566375736941
 20
-86.4075145996903
 30
0.0
 40
3.00000002980232
  1
12
 50
449.999999896069
 41
0.933333333333333
 72
     1
 11
-612.066375747323
 21
-83.9075145721436
 31
0.0
 73
     2
  0
TEXT
  5
   17F
  8
0
  6
CONTINUOUS
 62
     7
 10
-610.56637573441
 20
-89.1575146334663
 30
0.0
 40
3.00000002980232
  1
M
 50
449.999999896069
 41
0.933333333333334
 72
     1
 11
-612.066375747323
 21
-88.0575146198273
 31
0.0
 73
     2
  0
LINE
  5
   180
  8
0
  6
CONTINUOUS
 62
     7
 10
-605.272438049316
 20
-89.3825149536133
 30
0.0
 11
-611.566375732422
 21
-89.3825149536133
 31
0.0
  0
LINE
  5
   181
  8
0
  6
CONTINUOUS
 62
     7
 10
-605.272438049316
 20
-95.3825149536133
 30
0.0
 11
-611.566375732422
 21
-95.3825149536133
 31
0.0
  0
LINE
  5
   182
  8
0
  6
CONTINUOUS
 62
     7
 10
-609.566375732422
 20
-81.4075145473083
 30
0.0
 11
-609.566375732422
 21
-95.3825149536133
 31
0.0
  0
LINE
  5
   183
  8
0
  6
CONTINUOUS
 62
     7
 10
-610.087320162374
 20
-86.4280916764063
 30
0.0
 11
-609.566375732422
 21
-89.3825149536133
 31
0.0
  0
LINE
  5
   184
  8
0
  6
CONTINUOUS
 62
     7
 10
-609.566375732422
 20
-89.3825149536133
 30
0.0
 11
-609.04543130247
 21
-86.4280916764063
 31
0.0
  0
LINE
  5
   185
  8
0
  6
CONTINUOUS
 62
     7
 10
-609.04543130247
 20
-98.3369382308202
 30
0.0
 11
-609.566375732422
 21
-95.3825149536133
 31
0.0
  0
LINE
  5
   186
  8
0
  6
CONTINUOUS
 62
     7
 10
-609.566375732422
 20
-95.3825149536133
 30
0.0
 11
-610.087320162374
 21
-98.3369382308202
 31
0.0
  0
ENDBLK
  5
   187
  8
0
  6
CONTINUOUS
 62
     7
  0
BLOCK
  5
   188
  8
0
  6
CONTINUOUS
 62
     7
  2
*UDIM2403
 70
    65
 10
0.0
 20
0.0
 30
0.0
  3
*UDIM2403
  0
TEXT
  5
   189
  8
0
  6
CONTINUOUS
 62
     7
 10
-584.447445726128
 20
-131.892761223414
 30
0.0
 40
3.00000002980232
  1
100
 50
359.999999896069
 41
0.933333333333333
 72
     1
 11
-580.547445684671
 21
-130.392761215568
 31
0.0
 73
     2
  0
LINE
  5
   18A
  8
0
  6
CONTINUOUS
 62
     7
 10
-555.2724609375
 20
-117.632499694824
 30
0.0
 11
-555.2724609375
 21
-134.892761230469
 31
0.0
  0
LINE
  5
   18B
  8
0
  6
CONTINUOUS
 62
     7
 10
-605.272438049316
 20
-95.3825149536133
 30
0.0
 11
-605.272438049316
 21
-134.892761230469
 31
0.0
  0
LINE
  5
   18C
  8
0
  6
CONTINUOUS
 62
     7
 10
-555.2724609375
 20
-132.892761230469
 30
0.0
 11
-605.272438049316
 21
-132.892761230469
 31
0.0
  0
LINE
  5
   18D
  8
0
  6
CONTINUOUS
 62
     7
 10
-558.226884214707
 20
-133.41370566042
 30
0.0
 11
-555.2724609375
 21
-132.892761230469
 31
0.0
  0
LINE
  5
   18E
  8
0
  6
CONTINUOUS
 62
     7
 10
-555.2724609375
 20
-132.892761230469
 30
0.0
 11
-558.226884214707
 21
-132.371816800517
 31
0.0
  0
LINE
  5
   18F
  8
0
  6
CONTINUOUS
 62
     7
 10
-602.31801477211
 20
-132.371816800517
 30
0.0
 11
-605.272438049316
 21
-132.892761230469
 31
0.0
  0
LINE
  5
   190
  8
0
  6
CONTINUOUS
 62
     7
 10
-605.272438049316
 20
-132.892761230469
 30
0.0
 11
-602.31801477211
 21
-133.41370566042
 31
0.0
  0
ENDBLK
  5
   191
  8
0
  6
CONTINUOUS
 62
     7
  0
BLOCK
  5
   192
  8
0
  6
CONTINUOUS
 62
     7
  2
*UDIM2404
 70
    65
 10
0.0
 20
0.0
 30
0.0
  3
*UDIM2404
  0
TEXT
  5
   193
  8
0
  6
CONTINUOUS
 62
     7
 10
-570.04744571222
 20
-123.847908015497
 30
0.0
 40
3.00000002980232
  1
48
 50
359.999999896069
 41
0.933333333333333
 72
     1
 11
-567.547445684671
 21
-122.347908005118
 31
0.0
 73
     2
  0
LINE
  5
   194
  8
0
  6
CONTINUOUS
 62
     7
 10
-555.2724609375
 20
-117.632499694824
 30
0.0
 11
-555.2724609375
 21
-126.84790802002
 31
0.0
  0
LINE
  5
   195
  8
0
  6
CONTINUOUS
 62
     7
 10
-579.272438049316
 20
-112.882514953613
 30
0.0
 11
-579.272438049316
 21
-126.84790802002
 31
0.0
  0
LINE
  5
   196
  8
0
  6
CONTINUOUS
 62
     7
 10
-555.2724609375
 20
-124.84790802002
 30
0.0
 11
-579.272438049316
 21
-124.84790802002
 31
0.0
  0
LINE
  5
   197
  8
0
  6
CONTINUOUS
 62
     7
 10
-558.226884214707
 20
-125.368852449971
 30
0.0
 11
-555.2724609375
 21
-124.84790802002
 31
0.0
  0
LINE
  5
   198
  8
0
  6
CONTINUOUS
 62
     7
 10
-555.2724609375
 20
-124.84790802002
 30
0.0
 11
-558.226884214707
 21
-124.326963590068
 31
0.0
  0
LINE
  5
   199
  8
0
  6
CONTINUOUS
 62
     7
 10
-576.31801477211
 20
-124.326963590068
 30
0.0
 11
-579.272438049316
 21
-124.84790802002
 31
0.0
  0
LINE
  5
   19A
  8
0
  6
CONTINUOUS
 62
     7
 10
-579.272438049316
 20
-124.84790802002
 30
0.0
 11
-576.31801477211
 21
-125.368852449971
 31
0.0
  0
ENDBLK
  5
   19B
  8
0
  6
CONTINUOUS
 62
     7
  0
BLOCK
  5
   19C
  8
0
  6
CONTINUOUS
 62
     7
  2
*UDIM2405
 70
    65
 10
0.0
 20
0.0
 30
0.0
  3
*UDIM2405
  0
TEXT
  5
   19D
  8
0
  6
CONTINUOUS
 62
     7
 10
-619.429931645144
 20
-86.4075073508134
 30
0.0
 40
3.00000002980232
  1
35
 50
449.999999896069
 41
0.933333333333333
 72
     1
 11
-620.929931655526
 21
-83.9075073232666
 31
0.0
 73
     2
  0
LINE
  5
   19E
  8
0
  6
CONTINUOUS
 62
     7
 10
-609.638652909904
 20
-74.8825043588886
 30
0.0
 11
-620.429931640616
 21
-74.8824723591837
 31
0.0
  0
LINE
  5
   19F
  8
0
  6
CONTINUOUS
 62
     7
 10
-609.638652909904
 20
-92.3825043588885
 30
0.0
 11
-620.429931640616
 21
-92.3824723591837
 31
0.0
  0
LINE
  5
   1A0
  8
0
  6
CONTINUOUS
 62
     7
 10
-618.429931640625
 20
-74.8824782898441
 30
0.0
 11
-618.429931640625
 21
-92.3824782898441
 31
0.0
  0
LINE
  5
   1A1
  8
0
  6
CONTINUOUS
 62
     7
 10
-617.908987210673
 20
-77.8369015670511
 30
0.0
 11
-618.429931640625
 21
-74.8824782898441
 31
0.0
  0
LINE
  5
   1A2
  8
0
  6
CONTINUOUS
 62
     7
 10
-618.429931640625
 20
-74.8824782898441
 30
0.0
 11
-618.950876070577
 21
-77.8369015670511
 31
0.0
  0
LINE
  5
   1A3
  8
0
  6
CONTINUOUS
 62
     7
 10
-618.950876070577
 20
-89.4280550126371
 30
0.0
 11
-618.429931640625
 21
-92.3824782898441
 31
0.0
  0
LINE
  5
   1A4
  8
0
  6
CONTINUOUS
 62
     7
 10
-618.429931640625
 20
-92.3824782898441
 30
0.0
 11
-617.908987210673
 21
-89.4280550126371
 31
0.0
  0
ENDBLK
  5
   1A5
  8
0
  6
CONTINUOUS
 62
     7
  0
BLOCK
  5
   1A6
  8
0
  6
CONTINUOUS
 62
     7
  2
*UDIM2406
 70
    65
 10
0.0
 20
0.0
 30
0.0
  3
*UDIM2406
  0
TEXT
  5
   1A7
  8
0
  6
CONTINUOUS
 62
     7
 10
-619.429931645144
 20
-103.907507341926
 30
0.0
 40
3.00000002980232
  1
35
 50
449.999999896069
 41
0.933333333333333
 72
     1
 11
-620.929931655526
 21
-101.407507314379
 31
0.0
 73
     2
  0
LINE
  5
   1A8
  8
0
  6
CONTINUOUS
 62
     7
 10
-526.939167048055
 20
-109.882504358889
 30
0.0
 11
-620.429931640616
 21
-109.8822271279
 31
0.0
  0
LINE
  5
   1A9
  8
0
  6
CONTINUOUS
 62
     7
 10
-618.429931640625
 20
-92.3824782898441
 30
0.0
 11
-618.429931640625
 21
-109.88223305856
 31
0.0
  0
LINE
  5
   1AA
  8
0
  6
CONTINUOUS
 62
     7
 10
-617.908987210673
 20
-95.3369015670511
 30
0.0
 11
-618.429931640625
 21
-92.3824782898441
 31
0.0
  0
LINE
  5
   1AB
  8
0
  6
CONTINUOUS
 62
     7
 10
-618.429931640625
 20
-92.3824782898441
 30
0.0
 11
-618.950876070577
 21
-95.3369015670511
 31
0.0
  0
LINE
  5
   1AC
  8
0
  6
CONTINUOUS
 62
     7
 10
-618.950876070577
 20
-106.927809781353
 30
0.0
 11
-618.429931640625
 21
-109.88223305856
 31
0.0
  0
LINE
  5
   1AD
  8
0
  6
CONTINUOUS
 62
     7
 10
-618.429931640625
 20
-109.88223305856
 30
0.0
 11
-617.908987210673
 21
-106.927809781353
 31
0.0
  0
ENDBLK
  5
   1AE
  8
0
  6
CONTINUOUS
 62
     7
  0
BLOCK
  5
   1AF
  8
0
  6
CONTINUOUS
 62
     7
  2
*UDIM2407
 70
    65
 10
0.0
 20
0.0
 30
0.0
  3
*UDIM2407
  0
TEXT
  5
   1B0
  8
0
  6
CONTINUOUS
 62
     7
 10
-417.012072386856
 20
22.5448898046482
 30
0.0
 40
3.00000002980232
  1
7
 50
404.893139787217
 41
0.933333333333334
 72
     1
 11
-417.291485736393
 21
24.3838917755129
 31
0.0
 73
     2
  0
TEXT
  5
   1B1
  8
0
  6
CONTINUOUS
 62
     7
 10
-419.243609087131
 20
20.3216615172445
 30
0.0
 40
3.00000002980232
  1
Ø
 50
404.893139787217
 41
0.933333333333334
 72
     1
 11
-419.523022436668
 21
22.1606634881092
 31
0.0
 73
     2
  0
LINE
  5
   1B2
  8
0
  6
CONTINUOUS
 62
     7
 10
-402.539674594761
 20
35.5518209185443
 30
0.0
 11
-418.537822326457
 21
19.6132371709437
 31
0.0
  0
LINE
  5
   1B3
  8
0
  6
CONTINUOUS
 62
     7
 10
-400.814364892773
 20
38.0060634559128
 30
0.0
 11
-402.539674594761
 21
35.5518209185443
 31
0.0
  0
LINE
  5
   1B4
  8
0
  6
CONTINUOUS
 62
     7
 10
-402.539674594761
 20
35.5518209185443
 30
0.0
 11
-400.079013534563
 21
37.2679640206273
 31
0.0
  0
LINE
  5
   1B5
  8
0
  6
CONTINUOUS
 62
     7
 10
-405.504726904102
 20
31.8624515587356
 30
0.0
 11
-403.779417202115
 21
34.3166940961041
 31
0.0
  0
LINE
  5
   1B6
  8
0
  6
CONTINUOUS
 62
     7
 10
-403.779417202115
 20
34.3166940961041
 30
0.0
 11
-406.240078262312
 21
32.6005509940211
 31
0.0
  0
ENDBLK
  5
   1B7
  8
0
  6
CONTINUOUS
 62
     7
  0
BLOCK
  5
   1B8
  8
0
  6
CONTINUOUS
 62
     7
  2
*UDIM2408
 70
    65
 10
0.0
 20
0.0
 30
0.0
  3
*UDIM2408
  0
TEXT
  5
   1B9
  8
0
  6
CONTINUOUS
 62
     7
 10
-395.934545933307
 20
83.2204361029811
 30
0.0
 40
3.00000002980232
  1
80
 50
359.999999844103
 41
0.933333333333333
 72
     1
 11
-393.434545904398
 21
84.7204361110926
 31
0.0
 73
     2
  0
LINE
  5
   1BA
  8
0
  6
CONTINUOUS
 62
     7
 10
-403.159545898438
 20
73.0592575073242
 30
0.0
 11
-403.159545898438
 21
84.2204360961914
 31
0.0
  0
LINE
  5
   1BB
  8
0
  6
CONTINUOUS
 62
     7
 10
-383.159545898438
 20
73.0592575073242
 30
0.0
 11
-383.159545898438
 21
84.2204360961914
 31
0.0
  0
LINE
  5
   1BC
  8
0
  6
CONTINUOUS
 62
     7
 10
-403.159545898438
 20
82.2204360961914
 30
0.0
 11
-383.159545898438
 21
82.2204360961914
 31
0.0
  0
LINE
  5
   1BD
  8
0
  6
CONTINUOUS
 62
     7
 10
-400.205122621231
 20
82.7413805261431
 30
0.0
 11
-403.159545898438
 21
82.2204360961914
 31
0.0
  0
LINE
  5
   1BE
  8
0
  6
CONTINUOUS
 62
     7
 10
-403.159545898438
 20
82.2204360961914
 30
0.0
 11
-400.205122621231
 21
81.6994916662397
 31
0.0
  0
LINE
  5
   1BF
  8
0
  6
CONTINUOUS
 62
     7
 10
-386.113969175645
 20
81.6994916662397
 30
0.0
 11
-383.159545898438
 21
82.2204360961914
 31
0.0
  0
LINE
  5
   1C0
  8
0
  6
CONTINUOUS
 62
     7
 10
-383.159545898438
 20
82.2204360961914
 30
0.0
 11
-386.113969175645
 21
82.7413805261431
 31
0.0
  0
ENDBLK
  5
   1C1
  8
0
  6
CONTINUOUS
 62
     7
  0
BLOCK
  5
   1C2
  8
0
  6
CONTINUOUS
 62
     7
  2
*UDIM2409
 70
    65
 10
0.0
 20
0.0
 30
0.0
  3
*UDIM2409
  0
TEXT
  5
   1C3
  8
0
  6
CONTINUOUS
 62
     7
 10
-397.334545947215
 20
89.6600952254357
 30
0.0
 40
3.00000002980232
  1
112
 50
359.999999844103
 41
0.933333333333333
 72
     1
 11
-393.434545904398
 21
91.1600952297449
 31
0.0
 73
     2
  0
LINE
  5
   1C4
  8
0
  6
CONTINUOUS
 62
     7
 10
-407.159545898438
 20
67.6842575073242
 30
0.0
 11
-407.159545898438
 21
90.6600952148438
 31
0.0
  0
LINE
  5
   1C5
  8
0
  6
CONTINUOUS
 62
     7
 10
-379.159545898438
 20
67.6842575073242
 30
0.0
 11
-379.159545898438
 21
90.6600952148438
 31
0.0
  0
LINE
  5
   1C6
  8
0
  6
CONTINUOUS
 62
     7
 10
-407.159545898438
 20
88.6600952148438
 30
0.0
 11
-379.159545898438
 21
88.6600952148438
 31
0.0
  0
LINE
  5
   1C7
  8
0
  6
CONTINUOUS
 62
     7
 10
-404.205122621231
 20
89.1810396447954
 30
0.0
 11
-407.159545898438
 21
88.6600952148438
 31
0.0
  0
LINE
  5
   1C8
  8
0
  6
CONTINUOUS
 62
     7
 10
-407.159545898438
 20
88.6600952148438
 30
0.0
 11
-404.205122621231
 21
88.1391507848921
 31
0.0
  0
LINE
  5
   1C9
  8
0
  6
CONTINUOUS
 62
     7
 10
-382.113969175645
 20
88.1391507848921
 30
0.0
 11
-379.159545898438
 21
88.6600952148438
 31
0.0
  0
LINE
  5
   1CA
  8
0
  6
CONTINUOUS
 62
     7
 10
-379.159545898438
 20
88.6600952148438
 30
0.0
 11
-382.113969175645
 21
89.1810396447954
 31
0.0
  0
ENDBLK
  5
   1CB
  8
0
  6
CONTINUOUS
 62
     7
  0
BLOCK
  5
   1CC
  8
0
  6
CONTINUOUS
 62
     7
  2
*UDIM2410
 70
    65
 10
0.0
 20
0.0
 30
0.0
  3
*UDIM2410
  0
TEXT
  5
   1CD
  8
0
  6
CONTINUOUS
 62
     7
 10
-419.566921244718
 20
48.5092574585488
 30
0.0
 40
3.00000002980232
  1
112
 50
449.999999844103
 41
0.933333333333333
 72
     1
 11
-421.066921249032
 21
52.4092575013638
 31
0.0
 73
     2
  0
LINE
  5
   1CE
  8
0
  6
CONTINUOUS
 62
     7
 10
-408.159545898438
 20
66.6842575073242
 30
0.0
 11
-420.566921234131
 21
66.6842575073242
 31
0.0
  0
LINE
  5
   1CF
  8
0
  6
CONTINUOUS
 62
     7
 10
-408.159545898438
 20
38.6842575073242
 30
0.0
 11
-420.566921234131
 21
38.6842575073242
 31
0.0
  0
LINE
  5
   1D0
  8
0
  6
CONTINUOUS
 62
     7
 10
-418.566921234131
 20
66.6842575073242
 30
0.0
 11
-418.566921234131
 21
38.6842575073242
 31
0.0
  0
LINE
  5
   1D1
  8
0
  6
CONTINUOUS
 62
     7
 10
-418.045976804179
 20
63.7298342301173
 30
0.0
 11
-418.566921234131
 21
66.6842575073242
 31
0.0
  0
LINE
  5
   1D2
  8
0
  6
CONTINUOUS
 62
     7
 10
-418.566921234131
 20
66.6842575073242
 30
0.0
 11
-419.087865664083
 21
63.7298342301173
 31
0.0
  0
LINE
  5
   1D3
  8
0
  6
CONTINUOUS
 62
     7
 10
-419.087865664083
 20
41.6386807845312
 30
0.0
 11
-418.566921234131
 21
38.6842575073242
 31
0.0
  0
LINE
  5
   1D4
  8
0
  6
CONTINUOUS
 62
     7
 10
-418.566921234131
 20
38.6842575073242
 30
0.0
 11
-418.045976804179
 21
41.6386807845312
 31
0.0
  0
ENDBLK
  5
   1D5
  8
0
  6
CONTINUOUS
 62
     7
  0
BLOCK
  5
   1D6
  8
0
  6
CONTINUOUS
 62
     7
  2
*UDIM2411
 70
    65
 10
0.0
 20
0.0
 30
0.0
  3
*UDIM2411
  0
TEXT
  5
   1D7
  8
0
  6
CONTINUOUS
 62
     7
 10
-426.943256388761
 20
48.5092574585488
 30
0.0
 40
3.00000002980232
  1
142
 50
449.999999844103
 41
0.933333333333333
 72
     1
 11
-428.443256393075
 21
52.4092575013638
 31
0.0
 73
     2
  0
LINE
  5
   1D8
  8
0
  6
CONTINUOUS
 62
     7
 10
-405.784545898438
 20
70.4342575073242
 30
0.0
 11
-427.943256378174
 21
70.4342575073242
 31
0.0
  0
LINE
  5
   1D9
  8
0
  6
CONTINUOUS
 62
     7
 10
-405.784545898438
 20
34.9342575073242
 30
0.0
 11
-427.943256378174
 21
34.9342575073242
 31
0.0
  0
LINE
  5
   1DA
  8
0
  6
CONTINUOUS
 62
     7
 10
-425.943256378174
 20
70.4342575073242
 30
0.0
 11
-425.943256378174
 21
34.9342575073242
 31
0.0
  0
LINE
  5
   1DB
  8
0
  6
CONTINUOUS
 62
     7
 10
-425.422311948222
 20
67.4798342301173
 30
0.0
 11
-425.943256378174
 21
70.4342575073242
 31
0.0
  0
LINE
  5
   1DC
  8
0
  6
CONTINUOUS
 62
     7
 10
-425.943256378174
 20
70.4342575073242
 30
0.0
 11
-426.464200808126
 21
67.4798342301173
 31
0.0
  0
LINE
  5
   1DD
  8
0
  6
CONTINUOUS
 62
     7
 10
-426.464200808126
 20
37.8886807845312
 30
0.0
 11
-425.943256378174
 21
34.9342575073242
 31
0.0
  0
LINE
  5
   1DE
  8
0
  6
CONTINUOUS
 62
     7
 10
-425.943256378174
 20
34.9342575073242
 30
0.0
 11
-425.422311948222
 21
37.8886807845312
 31
0.0
  0
ENDBLK
  5
   1DF
  8
0
  6
CONTINUOUS
 62
     7
  0
ENDSEC
  0
SECTION
  2
ENTITIES
  0
LINE
  5
   1E0
  8
0
  6
DASHDOT
 62
     3
 10
-673.671325683594
 20
-67.236383963414
 30
0.0
 11
-673.671325683594
 21
-151.318061192677
 31
0.0
  0
LINE
  5
   1E1
  8
0
  6
CONTINUOUS
 62
     7
 10
-657.421325683594
 20
-70.999298530773
 30
0.0
 11
-657.421325683594
 21
-148.852703372683
 31
0.0
  0
LINE
  5
   1E2
  8
0
  6
CONTINUOUS
 62
     7
 10
-689.921325683594
 20
-70.6100315065634
 30
0.0
 11
-689.921325683594
 21
-149.501481746365
 31
0.0
  0
LINE
  5
   1E3
  8
0
  6
CONTINUOUS
 62
     7
 10
-652.7782395837
 20
-147.37890625
 30
0.0
 11
-691.575186329918
 21
-147.37890625
 31
0.0
  0
LINE
  5
   1E4
  8
0
  6
CONTINUOUS
 62
     7
 10
-654.335307680538
 20
-73.87890625
 30
0.0
 11
-693.262010101493
 21
-73.87890625
 31
0.0
  0
LINE
  5
   1E5
  8
0
  6
DASHDOT
 62
     3
 10
-683.921325683594
 20
-89.2089827186109
 30
0.0
 11
-683.921325683594
 21
-131.838295160457
 31
0.0
  0
LINE
  5
   1E6
  8
0
  6
DASHDOT
 62
     3
 10
-663.421325683594
 20
-89.2089827186109
 30
0.0
 11
-663.421325683594
 21
-132.245581585061
 31
0.0
  0
LINE
  5
   1E7
  8
0
  6
DASHDOT
 62
     3
 10
-660.699284695886
 20
-93.75390625
 30
0.0
 11
-687.037140153588
 21
-93.75390625
 31
0.0
  0
LINE
  5
   1E8
  8
0
  6
DASHDOT
 62
     3
 10
-660.835046837421
 20
-127.50390625
 30
0.0
 11
-687.172902295122
 21
-127.50390625
 31
0.0
  0
CIRCLE
  5
   1E9
  8
0
  6
CONTINUOUS
 62
     7
 10
-683.921325683594
 20
-93.75390625
 30
0.0
 40
0.625
  0
CIRCLE
  5
   1EA
  8
0
  6
CONTINUOUS
 62
     7
 10
-663.421325683594
 20
-93.75390625
 30
0.0
 40
0.625
  0
CIRCLE
  5
   1EB
  8
0
  6
CONTINUOUS
 62
     7
 10
-663.421325683594
 20
-127.50390625
 30
0.0
 40
0.625
  0
CIRCLE
  5
   1EC
  8
0
  6
CONTINUOUS
 62
     7
 10
-683.921325683594
 20
-127.50390625
 30
0.0
 40
0.625
  0
LINE
  5
   1ED
  8
0
  6
CONTINUOUS
 62
     7
 10
-664.921325683594
 20
-79.87890625
 30
0.0
 11
-682.421325683594
 21
-79.87890625
 31
0.0
  0
LINE
  5
   1EE
  8
0
  6
CONTINUOUS
 62
     7
 10
-664.921325683594
 20
-86.87890625
 30
0.0
 11
-682.421325683594
 21
-86.87890625
 31
0.0
  0
LINE
  5
   1EF
  8
0
  6
CONTINUOUS
 62
     7
 10
-664.921325683594
 20
-134.37890625
 30
0.0
 11
-682.421325683594
 21
-134.37890625
 31
0.0
  0
LINE
  5
   1F0
  8
0
  6
CONTINUOUS
 62
     7
 10
-664.921325683594
 20
-141.37890625
 30
0.0
 11
-682.421325683594
 21
-141.37890625
 31
0.0
  0
ARC
  5
   1F1
  8
0
  6
CONTINUOUS
 62
     7
 10
-682.421325683594
 20
-83.37890625
 30
0.0
 40
3.5
 50
449.999999896069
 51
629.999999896069
  0
ARC
  5
   1F2
  8
0
  6
CONTINUOUS
 62
     7
 10
-664.921325683594
 20
-83.37890625
 30
0.0
 40
3.5
 50
269.999999896069
 51
449.999999896069
  0
ARC
  5
   1F3
  8
0
  6
CONTINUOUS
 62
     7
 10
-682.421325683594
 20
-137.87890625
 30
0.0
 40
3.5
 50
449.999999896069
 51
629.999999896069
  0
ARC
  5
   1F4
  8
0
  6
CONTINUOUS
 62
     7
 10
-664.921325683594
 20
-137.87890625
 30
0.0
 40
3.5
 50
269.999999896069
 51
449.999999896069
  0
LINE
  5
   1F5
  8
0
  6
DASHDOT
 62
     7
 10
-664.921325683594
 20
-79.12890625
 30
0.0
 11
-664.921325683594
 21
-134.449823476929
 31
0.0
  0
LINE
  5
   1F6
  8
0
  6
DASHDOT
 62
     7
 10
-682.421325683594
 20
-79.12890625
 30
0.0
 11
-682.421325683594
 21
-133.67128942851
 31
0.0
  0
LINE
  5
   1F7
  8
0
  6
DASHDOT
 62
     7
 10
-660.671325683594
 20
-83.37890625
 30
0.0
 11
-686.671325683594
 21
-83.37890625
 31
0.0
  0
LINE
  5
   1F8
  8
0
  6
DASHDOT
 62
     7
 10
-682.421325683594
 20
-133.62890625
 30
0.0
 11
-682.421325683594
 21
-142.12890625
 31
0.0
  0
LINE
  5
   1F9
  8
0
  6
DASHDOT
 62
     7
 10
-660.671325683594
 20
-137.87890625
 30
0.0
 11
-686.671325683594
 21
-137.87890625
 31
0.0
  0
LINE
  5
   1FA
  8
0
  6
DASHDOT
 62
     7
 10
-664.921325683594
 20
-133.62890625
 30
0.0
 11
-664.921325683594
 21
-142.12890625
 31
0.0
  0
CIRCLE
  5
   1FB
  8
0
  6
CONTINUOUS
 62
     7
 10
-687.42300473835
 20
-78.784639014964
 30
0.0
 40
0.05
  0
LINE
  5
   1FC
  8
0
  6
DASHDOT
 62
     3
 10
-673.671325683594
 20
-53.6120381160798
 30
0.0
 11
-673.671325683594
 21
-59.0617764550135
 31
0.0
  0
LINE
  5
   1FD
  8
0
  6
DASHDOT
 62
     3
 10
-653.81190877428
 20
-110.19140625
 30
0.0
 11
-699.338212363517
 21
-110.19140625
 31
0.0
  0
INSERT
  5
   1FE
  8
0
  6
CONTINUOUS
 62
     7
  2
*UDIM2379
 10
0.0
 20
0.0
 30
0.0
  0
INSERT
  5
   1FF
  8
0
  6
CONTINUOUS
 62
     7
  2
*UDIM2380
 10
0.0
 20
0.0
 30
0.0
  0
TEXT
  5
   200
  8
0
  6
CONTINUOUS
 62
     7
 10
-678.859127047391
 20
-157.432197591152
 30
0.0
 40
3.00000002980232
  1
=  =
 50
359.999999896069
 41
0.916666604744064
 72
     2
 11
-668.409127653868
 21
-157.432197610055
 31
0.0
  0
INSERT
  5
   201
  8
0
  6
CONTINUOUS
 62
     7
  2
*UDIM2381
 10
0.0
 20
0.0
 30
0.0
  0
INSERT
  5
   202
  8
0
  6
CONTINUOUS
 62
     7
  2
*UDIM2382
 10
0.0
 20
0.0
 30
0.0
  0
INSERT
  5
   203
  8
0
  6
CONTINUOUS
 62
     7
  2
*UDIM2383
 10
0.0
 20
0.0
 30
0.0
  0
TEXT
  5
   204
  8
0
  6
CONTINUOUS
 62
     7
 10
-680.286441805692
 20
-67.7710266291916
 30
0.0
 40
3.00000002980232
  1
=   =
 50
359.999999896069
 41
0.916666604744064
 72
     2
 11
-667.086442570618
 21
-67.7710266530693
 31
0.0
  0
INSERT
  5
   205
  8
0
  6
CONTINUOUS
 62
     7
  2
*UDIM2384
 10
0.0
 20
0.0
 30
0.0
  0
INSERT
  5
   206
  8
0
  6
CONTINUOUS
 62
     7
  2
*UDIM2385
 10
0.0
 20
0.0
 30
0.0
  0
INSERT
  5
   207
  8
0
  6
CONTINUOUS
 62
     7
  2
*UDIM2386
 10
0.0
 20
0.0
 30
0.0
  0
TEXT
  5
   208
  8
0
  6
CONTINUOUS
 62
     7
 10
-675.770123794412
 20
-53.7417935482678
 30
0.0
 40
3.00000002980232
  1
Y
 50
359.999999896069
 41
0.916666604744064
 72
     2
 11
-673.570123925542
 21
-53.7417935522474
 31
0.0
  0
TEXT
  5
   209
  8
0
  6
CONTINUOUS
 62
     7
 10
-713.216228487821
 20
-111.507786778606
 30
0.0
 40
3.00000002980232
  1
X
 50
359.999999896069
 41
0.916666604744064
 72
     2
 11
-711.016228618951
 21
-111.507786782586
 31
0.0
  0
TEXT
  5
   20A
  8
0
  6
CONTINUOUS
 62
     7
 10
-639.773536684842
 20
-111.682719735302
 30
0.0
 40
3.00000002980232
  1
X
 50
359.999999896069
 41
0.916666604744064
 72
     2
 11
-637.573536815973
 21
-111.682719739281
 31
0.0
  0
TEXT
  5
   20B
  8
0
  6
CONTINUOUS
 62
     7
 10
-674.577192786069
 20
-159.767799405254
 30
0.0
 40
3.00000002980232
  1
Y
 50
359.999999896069
 41
0.916666604744064
 72
     2
 11
-672.377192917199
 21
-159.767799409234
 31
0.0
  0
LINE
  5
   20C
  8
0
  6
CONTINUOUS
 62
     7
 10
-528.772445678711
 20
41.1429901123047
 30
0.0
 11
-528.772445678711
 21
41.3929748535156
 31
0.0
  0
LINE
  5
   20D
  8
0
  6
CONTINUOUS
 62
     7
 10
-528.772445678711
 20
48.8929748535156
 30
0.0
 11
-528.772445678711
 21
58.8929595947266
 31
0.0
  0
LINE
  5
   20E
  8
0
  6
CONTINUOUS
 62
     7
 10
-527.522430419922
 20
41.3929748535156
 30
0.0
 11
-527.522430419922
 21
48.8929748535156
 31
0.0
  0
LINE
  5
   20F
  8
0
  6
CONTINUOUS
 62
     7
 10
-527.522430419922
 20
41.3929748535156
 30
0.0
 11
-528.772445678711
 21
41.3929748535156
 31
0.0
  0
LINE
  5
   210
  8
0
  6
CONTINUOUS
 62
     7
 10
-527.522430419922
 20
48.8929748535156
 30
0.0
 11
-528.772445678711
 21
48.8929748535156
 31
0.0
  0
LINE
  5
   211
  8
0
  6
CONTINUOUS
 62
     7
 10
-527.522430419922
 20
58.8929595947266
 30
0.0
 11
-527.522430419922
 21
66.3929595947266
 31
0.0
  0
LINE
  5
   212
  8
0
  6
CONTINUOUS
 62
     7
 10
-527.522430419922
 20
58.8929595947266
 30
0.0
 11
-528.772445678711
 21
58.8929595947266
 31
0.0
  0
LINE
  5
   213
  8
0
  6
CONTINUOUS
 62
     7
 10
-527.522430419922
 20
66.3929595947266
 30
0.0
 11
-528.772445678711
 21
66.3929595947266
 31
0.0
  0
LINE
  5
   214
  8
0
  6
CONTINUOUS
 62
     7
 10
-494.522453308106
 20
41.1429748535156
 30
0.0
 11
-494.522453308106
 21
68.6429595947266
 31
0.0
  0
LINE
  5
   215
  8
0
  6
CONTINUOUS
 62
     2
 10
-528.772476196521
 20
68.3929595947266
 30
0.0
 11
-528.772476196521
 21
78.7002716064453
 31
0.0
  0
LINE
  5
   216
  8
0
  6
CONTINUOUS
 62
     7
 10
-492.772445678711
 20
77.3929595947266
 30
0.0
 11
-494.522445678711
 21
77.3929595947266
 31
0.0
  0
LINE
  5
   217
  8
0
  6
CONTINUOUS
 62
     7
 10
-494.522499084828
 20
68.6429552351198
 30
0.0
 11
-494.522499084828
 21
77.3929552351198
 31
0.0
  0
LINE
  5
   218
  8
0
  6
CONTINUOUS
 62
     7
 10
-526.772445678711
 20
69.6429595947266
 30
0.0
 11
-528.772445678711
 21
69.6429595947266
 31
0.0
  0
LINE
  5
   219
  8
0
  6
CONTINUOUS
 62
     7
 10
-526.772444407328
 20
69.6429532464902
 30
0.0
 11
-526.772396469236
 21
88.4929827880683
 31
0.0
  0
LINE
  5
   21A
  8
0
  6
CONTINUOUS
 62
     7
 10
-494.522453308106
 20
36.3929824829102
 30
0.0
 11
-494.522453308106
 21
41.1429901123047
 31
0.0
  0
LINE
  5
   21B
  8
0
  6
CONTINUOUS
 62
     7
 10
-528.77244057905
 20
5.89299520153472
 30
0.0
 11
-528.772425320261
 21
6.04011275670333
 31
0.0
  0
LINE
  5
   21C
  8
0
  6
CONTINUOUS
 62
     7
 10
-528.772430420062
 20
13.7458758620685
 30
0.0
 11
-528.772430420062
 21
41.14298584742
 31
0.0
  0
LINE
  5
   21D
  8
0
  6
CONTINUOUS
 62
     7
 10
-493.272445678711
 20
12.6429901123047
 30
0.0
 11
-527.27246246338
 21
12.6429901123047
 31
0.0
  0
LINE
  5
   21E
  8
0
  6
CONTINUOUS
 62
     7
 10
-493.272445678711
 20
7.14299011230469
 30
0.0
 11
-527.27246246338
 21
7.14299011230469
 31
0.0
  0
LINE
  5
   21F
  8
0
  6
CONTINUOUS
 62
     7
 10
-524.656416180586
 20
12.6429951969161
 30
0.0
 11
-528.772428577591
 21
13.7458809099845
 31
0.0
  0
LINE
  5
   220
  8
0
  6
CONTINUOUS
 62
     7
 10
-528.7724262706
 20
6.04010848226832
 30
0.0
 11
-524.656413778822
 21
7.14299064666449
 31
0.0
  0
LINE
  5
   221
  8
0
  6
CONTINUOUS
 62
     7
 10
-492.772453308106
 20
14.1429901123047
 30
0.0
 11
-496.772453308106
 21
14.1429901123047
 31
0.0
  0
LINE
  5
   222
  8
0
  6
CONTINUOUS
 62
     7
 10
-496.772453308106
 20
14.1429901123047
 30
0.0
 11
-496.772453308106
 21
35.3929824829102
 31
0.0
  0
LINE
  5
   223
  8
0
  6
CONTINUOUS
 62
     7
 10
-528.272430419922
 20
10.1429901123047
 30
0.0
 11
-528.272430419922
 21
13.6119003295898
 31
0.0
  0
LINE
  5
   224
  8
0
  6
CONTINUOUS
 62
     7
 10
-528.272437462422
 20
6.17408486568537
 30
0.0
 11
-528.272429833034
 21
6.6429950847583
 31
0.0
  0
LINE
  5
   225
  8
0
  6
CONTINUOUS
 62
     2
 10
-528.772430419922
 20
14.1429901123047
 30
0.0
 11
-529.772430419922
 21
14.1429901123047
 31
0.0
  0
LINE
  5
   226
  8
0
  6
CONTINUOUS
 62
     2
 10
-528.772430419922
 20
16.8929901123047
 30
0.0
 11
-529.772430419922
 21
16.8929901123047
 31
0.0
  0
LINE
  5
   227
  8
0
  6
CONTINUOUS
 62
     7
 10
-492.772464113104
 20
6.64300962540135
 30
0.0
 11
-493.272456467412
 21
7.14300197970891
 31
0.0
  0
LINE
  5
   228
  8
0
  6
CONTINUOUS
 62
     7
 10
-493.272451996974
 20
12.642990813283
 30
0.0
 11
-492.772452014088
 21
13.1429907961687
 31
0.0
  0
LINE
  5
   229
  8
0
  6
CONTINUOUS
 62
     7
 10
-494.522453308106
 20
35.3929824829102
 30
0.0
 11
-494.522453308106
 21
36.3929824829102
 31
0.0
  0
LINE
  5
   22A
  8
0
  6
CONTINUOUS
 62
     2
 10
-527.772430419922
 20
-3.10699462890566
 30
0.0
 11
-529.772430419922
 21
-3.10699462890566
 31
0.0
  0
LINE
  5
   22B
  8
0
  6
CONTINUOUS
 62
     7
 10
-528.772445678711
 20
3.89299011230469
 30
0.0
 11
-528.772445678711
 21
5.89299011230469
 31
0.0
  0
LINE
  5
   22C
  8
0
  6
CONTINUOUS
 62
     7
 10
-492.772453308106
 20
-0.60699462890625
 30
0.0
 11
-497.772445678711
 21
-0.60699462890625
 31
0.0
  0
LINE
  5
   22D
  8
0
  6
CONTINUOUS
 62
     7
 10
-497.772445678711
 20
-3.10699462890625
 30
0.0
 11
-497.772445678711
 21
-0.60699462890625
 31
0.0
  0
LINE
  5
   22E
  8
0
  6
CONTINUOUS
 62
     7
 10
-528.772445678711
 20
-1.85698516847492
 30
0.0
 11
-528.772445678711
 21
3.89299011230469
 31
0.0
  0
LINE
  5
   22F
  8
0
  6
CONTINUOUS
 62
     2
 10
-528.772445678711
 20
68.3929595947266
 30
0.0
 11
-529.022430419922
 21
68.3929595947266
 31
0.0
  0
LINE
  5
   230
  8
0
  6
CONTINUOUS
 62
     7
 10
-528.772438049316
 20
33.1429901123047
 30
0.0
 11
-529.022430419922
 21
33.1429901123047
 31
0.0
  0
LINE
  5
   231
  8
0
  6
CONTINUOUS
 62
     7
 10
-528.772430419922
 20
17.1429920196533
 30
0.0
 11
-529.022430419922
 21
17.1429920196533
 31
0.0
  0
LINE
  5
   232
  8
0
  6
CONTINUOUS
 62
     7
 10
-528.272430419922
 20
13.3929905891418
 30
0.0
 11
-529.022430419922
 21
13.3929905891418
 31
0.0
  0
LINE
  5
   233
  8
0
  6
CONTINUOUS
 62
     7
 10
-528.772445678711
 20
5.39299774169922
 30
0.0
 11
-529.022430419922
 21
5.39299774169922
 31
0.0
  0
LINE
  5
   234
  8
0
  6
CONTINUOUS
 62
     2
 10
-529.022430419922
 20
-1.40698985345003
 30
0.0
 11
-529.022430419922
 21
14.1429824829102
 31
0.0
  0
LINE
  5
   235
  8
0
  6
CONTINUOUS
 62
     2
 10
-529.022430419922
 20
16.8929824829102
 30
0.0
 11
-529.022430419922
 21
68.392951965332
 31
0.0
  0
LINE
  5
   236
  8
0
  6
CONTINUOUS
 62
     7
 10
-528.272430419922
 20
58.8929824829102
 30
0.0
 11
-528.272430419922
 21
66.3929595947266
 31
0.0
  0
LINE
  5
   237
  8
0
  6
CONTINUOUS
 62
     7
 10
-528.272430419922
 20
41.3930053710938
 30
0.0
 11
-528.272430419922
 21
48.8929977416992
 31
0.0
  0
LINE
  5
   238
  8
0
  6
CONTINUOUS
 62
     7
 10
-528.272430419922
 20
6.64302825927734
 30
0.0
 11
-528.272430419922
 21
10.1430282592773
 31
0.0
  0
LINE
  5
   239
  8
0
  6
CONTINUOUS
 62
     2
 10
-528.822434324438
 20
-1.60698594893393
 30
0.0
 11
-529.022431270375
 21
-1.40698900299703
 31
0.0
  0
LINE
  5
   23A
  8
0
  6
CONTINUOUS
 62
     2
 10
-528.772430419922
 20
76.3929595947266
 30
0.0
 11
-529.772430419922
 21
76.3929595947266
 31
0.0
  0
LINE
  5
   23B
  8
0
  6
CONTINUOUS
 62
     2
 10
-528.772430419922
 20
81.8929595947266
 30
0.0
 11
-529.772430419922
 21
81.8929595947266
 31
0.0
  0
LINE
  5
   23C
  8
0
  6
CONTINUOUS
 62
     2
 10
-528.772430419922
 20
80.5487823486328
 30
0.0
 11
-529.772430419922
 21
80.5487823486328
 31
0.0
  0
LINE
  5
   23D
  8
0
  6
CONTINUOUS
 62
     2
 10
-528.772430419922
 20
78.7002716064453
 30
0.0
 11
-529.772430419922
 21
78.7002716064453
 31
0.0
  0
LINE
  5
   23E
  8
0
  6
CONTINUOUS
 62
     7
 10
-494.272460937501
 20
42.6429575060844
 30
0.0
 11
-494.272460937501
 21
69.892980394268
 31
0.0
  0
LINE
  5
   23F
  8
0
  6
CONTINUOUS
 62
     7
 10
-492.772445678711
 20
77.1429690551581
 30
0.0
 11
-492.772445678711
 21
77.6429766845527
 31
0.0
  0
LINE
  5
   240
  8
0
  6
CONTINUOUS
 62
     7
 10
-481.522445678711
 20
77.6429766845527
 30
0.0
 11
-481.67244720459
 21
77.6429766845527
 31
0.0
  0
LINE
  5
   241
  8
0
  6
CONTINUOUS
 62
     7
 10
-492.772445678711
 20
77.1429843139472
 30
0.0
 11
-494.272445678711
 21
77.1429843139472
 31
0.0
  0
LINE
  5
   242
  8
0
  6
CONTINUOUS
 62
     7
 10
-494.272445678711
 20
69.8929843139472
 30
0.0
 11
-494.272445678711
 21
77.1429843139472
 31
0.0
  0
LINE
  5
   243
  8
0
  6
CONTINUOUS
 62
     7
 10
-492.772468566895
 20
-0.107008056658277
 30
0.0
 11
-492.772468566895
 21
3.53129760740422
 31
0.0
  0
LINE
  5
   244
  8
0
  6
CONTINUOUS
 62
     7
 10
-494.272453308105
 20
36.6429766845527
 30
0.0
 11
-494.272453308105
 21
42.6429614257636
 31
0.0
  0
LINE
  5
   245
  8
0
  6
CONTINUOUS
 62
     7
 10
-494.272453308105
 20
35.3929614257636
 30
0.0
 11
-494.772453308105
 21
35.3929614257636
 31
0.0
  0
LINE
  5
   246
  8
0
  6
CONTINUOUS
 62
     7
 10
-481.672462841397
 20
-1.60699279785858
 30
0.0
 11
-492.772468944913
 21
-1.60699279785858
 31
0.0
  0
LINE
  5
   247
  8
0
  6
CONTINUOUS
 62
     7
 10
-492.772468566895
 20
-1.60700805665828
 30
0.0
 11
-492.772468566895
 21
-0.107008056658277
 31
0.0
  0
LINE
  5
   248
  8
0
  6
CONTINUOUS
 62
     7
 10
-492.7724609375
 20
3.53129760740422
 30
0.0
 11
-492.7724609375
 21
7.01799654848347
 31
0.0
  0
LINE
  5
   249
  8
0
  6
CONTINUOUS
 62
     7
 10
-481.522468566895
 20
-3.10701568605281
 30
0.0
 11
-481.522468566895
 21
-1.60701568605281
 31
0.0
  0
LINE
  5
   24A
  8
0
  6
CONTINUOUS
 62
     7
 10
-481.522468566895
 20
-1.60701568605281
 30
0.0
 11
-481.672462433577
 21
-1.60701568605281
 31
0.0
  0
LINE
  5
   24B
  8
0
  6
CONTINUOUS
 62
     7
 10
-494.772453308105
 20
35.3929614257636
 30
0.0
 11
-496.772453308106
 21
35.3929614257636
 31
0.0
  0
LINE
  5
   24C
  8
0
  6
CONTINUOUS
 62
     7
 10
-494.272453308105
 20
35.3929614257636
 30
0.0
 11
-494.272453308105
 21
36.6429766845527
 31
0.0
  0
LINE
  5
   24D
  8
0
  6
CONTINUOUS
 62
     7
 10
-481.672464542556
 20
7.01800720213938
 30
0.0
 11
-492.772463016677
 21
7.01800720213938
 31
0.0
  0
LINE
  5
   24E
  8
0
  6
CONTINUOUS
 62
     7
 10
-481.672468219787
 20
12.768007202138
 30
0.0
 11
-492.772466693908
 21
12.768007202138
 31
0.0
  0
LINE
  5
   24F
  8
0
  6
CONTINUOUS
 62
     7
 10
-492.122948213839
 20
0.268000501671239
 30
0.0
 11
-492.022469103605
 21
0.643000496494189
 31
0.0
  0
LINE
  5
   250
  8
0
  6
CONTINUOUS
 62
     7
 10
-492.397463895954
 20
-6.52403105820909E-3
 30
0.0
 11
-492.122950669454
 21
0.267996831660863
 31
0.0
  0
LINE
  5
   251
  8
0
  6
CONTINUOUS
 62
     7
 10
-492.772477209593
 20
-0.106996338818306
 30
0.0
 11
-492.39746959532
 21
-6.51722093691021E-3
 31
0.0
  0
LINE
  5
   252
  8
0
  6
CONTINUOUS
 62
     7
 10
-492.397465417436
 20
5.79251390558873
 30
0.0
 11
-492.772465414687
 21
5.89300065211599
 31
0.0
  0
LINE
  5
   253
  8
0
  6
CONTINUOUS
 62
     7
 10
-492.122952827095
 20
5.51799647687966
 30
0.0
 11
-492.397466057415
 21
5.79250970719971
 31
0.0
  0
LINE
  5
   254
  8
0
  6
CONTINUOUS
 62
     7
 10
-492.022474293526
 20
5.14299717204582
 30
0.0
 11
-492.122961040054
 21
5.51799716929622
 31
0.0
  0
LINE
  5
   255
  8
0
  6
CONTINUOUS
 62
     7
 10
-492.02247280543
 20
0.642994911659247
 30
0.0
 11
-492.022465176036
 21
5.14299491165924
 31
0.0
  0
LINE
  5
   256
  8
0
  6
CONTINUOUS
 62
     7
 10
-481.67246246338
 20
-1.60701568605281
 30
0.0
 11
-481.67246246338
 21
77.64297042816
 31
0.0
  0
LINE
  5
   257
  8
0
  6
CONTINUOUS
 62
     2
 10
-481.672439575195
 20
88.4929827880683
 30
0.0
 11
-528.772476196521
 21
88.4929827880683
 31
0.0
  0
LINE
  5
   258
  8
0
  6
CONTINUOUS
 62
     2
 10
-481.672492980964
 20
77.6429732390696
 30
0.0
 11
-481.672492980964
 21
88.4929793425852
 31
0.0
  0
LINE
  5
   259
  8
0
  6
CONTINUOUS
 62
     7
 10
-492.772445678711
 20
77.6429843139472
 30
0.0
 11
-492.772445678711
 21
88.4929827880683
 31
0.0
  0
LINE
  5
   25A
  8
0
  6
CONTINUOUS
 62
     7
 10
-473.522438049316
 20
52.3929995727362
 30
0.0
 11
-473.522438049316
 21
52.5179995727362
 31
0.0
  0
LINE
  5
   25B
  8
0
  6
CONTINUOUS
 62
     7
 10
-476.272435188293
 20
53.5179995727362
 30
0.0
 11
-478.022438049316
 21
53.5179995727362
 31
0.0
  0
LINE
  5
   25C
  8
0
  6
CONTINUOUS
 62
     7
 10
-476.272435188293
 20
1.01801483152532
 30
0.0
 11
-478.022438049316
 21
1.01801483152532
 31
0.0
  0
LINE
  5
   25D
  8
0
  6
CONTINUOUS
 62
     7
 10
-481.522438049316
 20
-7.10698516847468
 30
0.0
 11
-481.522438049316
 21
-1.60701568605281
 31
0.0
  0
LINE
  5
   25E
  8
0
  6
CONTINUOUS
 62
     7
 10
-479.022438049316
 20
-7.10698516847468
 30
0.0
 11
-479.022438049316
 21
1.01801483152532
 31
0.0
  0
LINE
  5
   25F
  8
0
  6
CONTINUOUS
 62
     7
 10
-479.022438049316
 20
53.5179995727362
 30
0.0
 11
-479.022438049316
 21
77.6429995727363
 31
0.0
  0
LINE
  5
   260
  8
0
  6
CONTINUOUS
 62
     7
 10
-479.022438049316
 20
77.6429995727363
 30
0.0
 11
-481.522438049316
 21
77.6429995727363
 31
0.0
  0
LINE
  5
   261
  8
0
  6
CONTINUOUS
 62
     7
 10
-479.022438049316
 20
-7.10698516847468
 30
0.0
 11
-481.522438049316
 21
-7.10698516847468
 31
0.0
  0
LINE
  5
   262
  8
0
  6
CONTINUOUS
 62
     7
 10
-478.022438049316
 20
1.01801483152532
 30
0.0
 11
-478.022438049316
 21
53.5179995727362
 31
0.0
  0
LINE
  5
   263
  8
0
  6
CONTINUOUS
 62
     7
 10
-478.022438049316
 20
1.01801483152532
 30
0.0
 11
-479.022438049316
 21
1.01801483152532
 31
0.0
  0
LINE
  5
   264
  8
0
  6
CONTINUOUS
 62
     7
 10
-478.022438049316
 20
53.5179995727362
 30
0.0
 11
-479.022438049316
 21
53.5179995727362
 31
0.0
  0
LINE
  5
   265
  8
0
  6
CONTINUOUS
 62
     7
 10
-481.672474043494
 20
13.0429766361558
 30
0.0
 11
-481.522472524571
 21
13.0560991931432
 31
0.0
  0
LINE
  5
   266
  8
0
  6
CONTINUOUS
 62
     7
 10
-481.522446738535
 20
6.72986392060044
 30
0.0
 11
-481.672448261653
 21
6.74299410700682
 31
0.0
  0
LINE
  5
   267
  8
0
  6
CONTINUOUS
 62
     7
 10
-492.7724609375
 20
12.7679965484848
 30
0.0
 11
-492.7724609375
 21
14.1429766845527
 31
0.0
  0
LINE
  5
   268
  8
0
  6
CONTINUOUS
 62
   218
 10
-481.672440052033
 20
-35.7069855499446
 30
0.0
 11
-528.772430896759
 21
-35.7069855499446
 31
0.0
  0
LINE
  5
   269
  8
0
  6
CONTINUOUS
 62
     2
 10
-527.772430419922
 20
-1.85698516847492
 30
0.0
 11
-529.772430419922
 21
-1.85698516847492
 31
0.0
  0
LINE
  5
   26A
  8
0
  6
CONTINUOUS
 62
     7
 10
-481.672431945801
 20
-1.85698516847492
 30
0.0
 11
-490.272438049317
 21
-1.85698516847492
 31
0.0
  0
LINE
  5
   26B
  8
0
  6
CONTINUOUS
 62
     2
 10
-527.772430419922
 20
-3.10698516847493
 30
0.0
 11
-527.772430419922
 21
-1.85698516847493
 31
0.0
  0
LINE
  5
   26C
  8
0
  6
CONTINUOUS
 62
   218
 10
-481.67243604717
 20
-23.1069927983172
 30
0.0
 11
-481.522438049706
 21
-23.1069910377154
 31
0.0
  0
LINE
  5
   26D
  8
0
  6
CONTINUOUS
 62
   218
 10
-479.522438049316
 20
-25.1069927978695
 30
0.0
 11
-481.672431945801
 21
-25.1069927978695
 31
0.0
  0
LINE
  5
   26E
  8
0
  6
CONTINUOUS
 62
   218
 10
-481.672431945801
 20
-35.706983642596
 30
0.0
 11
-481.672431945801
 21
-23.1069851684749
 31
0.0
  0
LINE
  5
   26F
  8
0
  6
CONTINUOUS
 62
   218
 10
-481.672431945801
 20
-23.1069851684749
 30
0.0
 11
-481.672431945801
 21
-1.85698516847492
 31
0.0
  0
LINE
  5
   270
  8
0
  6
CONTINUOUS
 62
     7
 10
-481.522438049316
 20
-7.60698516847492
 30
0.0
 11
-481.672431945801
 21
-7.60698516847492
 31
0.0
  0
LINE
  5
   271
  8
0
  6
CONTINUOUS
 62
   218
 10
-529.772430419964
 20
-20.1069927973747
 30
0.0
 11
-528.772430896824
 21
-20.1069851679802
 31
0.0
  0
LINE
  5
   272
  8
0
  6
CONTINUOUS
 62
   218
 10
-528.772430896759
 20
-38.3569851684747
 30
0.0
 11
-528.772430896759
 21
-20.1069927978692
 31
0.0
  0
LINE
  5
   273
  8
0
  6
CONTINUOUS
 62
   218
 10
-528.772430419922
 20
-25.4819927978695
 30
0.0
 11
-529.772430419922
 21
-25.4819927978695
 31
0.0
  0
LINE
  5
   274
  8
0
  6
CONTINUOUS
 62
     7
 10
-492.772443770286
 20
-1.85698516575398
 30
0.0
 11
-492.772436140891
 21
-0.856985165731121
 31
0.0
  0
LINE
  5
   275
  8
0
  6
CONTINUOUS
 62
     7
 10
-492.772430419922
 20
-0.856985168474921
 30
0.0
 11
-497.772430419922
 21
-0.856985168474921
 31
0.0
  0
LINE
  5
   276
  8
0
  6
CONTINUOUS
 62
     7
 10
-490.272438049317
 20
-1.85698516847492
 30
0.0
 11
-492.772438049317
 21
-1.85698516847492
 31
0.0
  0
LINE
  5
   277
  8
0
  6
CONTINUOUS
 62
   218
 10
-528.772430419922
 20
-29.8407884407222
 30
0.0
 11
-529.772430419922
 21
-29.8407884407222
 31
0.0
  0
LINE
  5
   278
  8
0
  6
CONTINUOUS
 62
   218
 10
-528.772430419922
 20
-28.6142941284359
 30
0.0
 11
-529.772430419922
 21
-28.6142941284359
 31
0.0
  0
LINE
  5
   279
  8
0
  6
CONTINUOUS
 62
     7
 10
-479.022438049316
 20
-7.35698516847468
 30
0.0
 11
-481.522438049316
 21
-7.35698516847468
 31
0.0
  0
LINE
  5
   27A
  8
0
  6
CONTINUOUS
 62
     7
 10
-479.022438049316
 20
-24.8569851684747
 30
0.0
 11
-481.522438049317
 21
-24.8569851684747
 31
0.0
  0
LINE
  5
   27B
  8
0
  6
CONTINUOUS
 62
     7
 10
-479.022438049316
 20
-24.8569851684747
 30
0.0
 11
-479.022438049316
 21
-7.35698516847468
 31
0.0
  0
LINE
  5
   27C
  8
0
  6
CONTINUOUS
 62
     7
 10
-480.022438049317
 20
-24.8569851684747
 30
0.0
 11
-480.022438049317
 21
-7.35698516847468
 31
0.0
  0
LINE
  5
   27D
  8
0
  6
CONTINUOUS
 62
     7
 10
-481.522438049316
 20
-24.8569851684747
 30
0.0
 11
-481.522438049316
 21
-7.35698516847468
 31
0.0
  0
ARC
  5
   27E
  8
0
  6
CONTINUOUS
 62
     7
 10
-463.18491166406
 20
16.2460740989938
 30
0.0
 40
0.499999897877905
 50
348.623573369035
 51
436.688788706936
  0
ARC
  5
   27F
  8
0
  6
CONTINUOUS
 62
     7
 10
-463.783283863978
 20
13.272165114995
 30
0.0
 40
0.50000037262337
 50
260.593992196011
 51
348.623573369035
  0
LINE
  5
   280
  8
0
  6
DASHDOT
 62
     7
 10
-455.784619338286
 20
13.1917434610966
 30
0.0
 11
-480.84296257274
 21
18.2336636289948
 31
0.0
  0
LINE
  5
   281
  8
0
  6
CONTINUOUS
 62
     7
 10
-463.069791691713
 20
16.7326405686925
 30
0.0
 11
-473.522438049317
 21
19.2057011566644
 31
0.0
  0
LINE
  5
   282
  8
0
  6
CONTINUOUS
 62
     7
 10
-463.293107419098
 20
13.1735380637115
 30
0.0
 11
-462.694735383473
 21
16.1474470807672
 31
0.0
  0
LINE
  5
   283
  8
0
  6
CONTINUOUS
 62
     7
 10
-463.864998602572
 20
12.7788873921236
 30
0.0
 11
-473.522438049317
 21
14.3787065270249
 31
0.0
  0
LINE
  5
   284
  8
0
  6
CONTINUOUS
 62
     7
 10
-527.27246246338
 20
7.14299011230469
 30
0.0
 11
-527.27246246338
 21
12.6429901123047
 31
0.0
  0
LINE
  5
   285
  8
0
  6
CONTINUOUS
 62
     2
 10
-528.772476196521
 20
80.5487823486328
 30
0.0
 11
-528.772476196521
 21
91.1429824829102
 31
0.0
  0
ARC
  5
   286
  8
0
  6
CONTINUOUS
 62
     7
 10
-500.272438049316
 20
22.1430148315253
 30
0.0
 40
38.0220413050115
 50
333.082565820193
 51
379.93594827737
  0
LINE
  5
   287
  8
0
  6
CONTINUOUS
 62
     7
 10
-462.250396744305
 20
22.1430148315253
 30
0.0
 11
-462.250396744305
 21
43.8176543469576
 31
0.0
  0
LINE
  5
   288
  8
0
  6
CONTINUOUS
 62
     7
 10
-497.772445678711
 20
-3.10699462890566
 30
0.0
 11
-527.772430419922
 21
-3.10699462890566
 31
0.0
  0
LINE
  5
   289
  8
0
  6
CONTINUOUS
 62
     7
 10
-473.522438049316
 20
27.5179977416992
 30
0.0
 11
-473.522438049316
 21
33.5179977416992
 31
0.0
  0
LINE
  5
   28A
  8
0
  6
CONTINUOUS
 62
     7
 10
-529.772430419922
 20
76.3929595947266
 30
0.0
 11
-529.772430419922
 21
81.8929595947266
 31
0.0
  0
LINE
  5
   28B
  8
0
  6
CONTINUOUS
 62
     7
 10
-529.772430419922
 20
14.1429901123047
 30
0.0
 11
-529.772430419922
 21
16.8929901123047
 31
0.0
  0
LINE
  5
   28C
  8
0
  6
CONTINUOUS
 62
     7
 10
-529.772430419921
 20
-3.10699462890332
 30
0.0
 11
-529.772430419921
 21
-1.85698516847258
 31
0.0
  0
LINE
  5
   28D
  8
0
  6
CONTINUOUS
 62
     7
 10
-529.772430419983
 20
-20.1069927975048
 30
0.0
 11
-529.772430419983
 21
-3.10699462903342
 31
0.0
  0
LINE
  5
   28E
  8
0
  6
CONTINUOUS
 62
     7
 10
-529.772430419922
 20
-29.8407884407229
 30
0.0
 11
-529.772430419922
 21
-25.4819927978701
 31
0.0
  0
LINE
  5
   28F
  8
0
  6
CONTINUOUS
 62
     7
 10
-553.772453308106
 20
74.6429824829102
 30
0.0
 11
-553.772453308106
 21
87.1429824829102
 31
0.0
  0
LINE
  5
   290
  8
0
  6
CONTINUOUS
 62
     7
 10
-553.772453308106
 20
-34.3570094108582
 30
0.0
 11
-553.772453308106
 21
-21.8570170402527
 31
0.0
  0
LINE
  5
   291
  8
0
  6
CONTINUOUS
 62
     7
 10
-548.272449439198
 20
-37.107031126239
 30
0.0
 11
-529.772426551015
 21
-37.1070234968449
 31
0.0
  0
LINE
  5
   292
  8
0
  6
CONTINUOUS
 62
     7
 10
-529.772430419922
 20
89.8929824829102
 30
0.0
 11
-548.272453308106
 21
89.8929824829102
 31
0.0
  0
LINE
  5
   293
  8
0
  6
CONTINUOUS
 62
     7
 10
-529.772430419922
 20
-28.1070251464844
 30
0.0
 11
-529.772430419922
 21
-16.6070175170898
 31
0.0
  0
LINE
  5
   294
  8
0
  6
CONTINUOUS
 62
     7
 10
-529.772430419922
 20
-37.1070251464844
 30
0.0
 11
-529.772430419922
 21
-35.7070007324219
 31
0.0
  0
LINE
  5
   295
  8
0
  6
CONTINUOUS
 62
     7
 10
-529.772430419922
 20
88.4929962158203
 30
0.0
 11
-529.772430419922
 21
89.8929824829102
 31
0.0
  0
LINE
  5
   296
  8
0
  6
CONTINUOUS
 62
     7
 10
-529.772430419922
 20
69.3929824829102
 30
0.0
 11
-529.772430419922
 21
80.8929977416992
 31
0.0
  0
LINE
  5
   297
  8
0
  6
CONTINUOUS
 62
     7
 10
-529.772430419922
 20
36.3929824829102
 30
0.0
 11
-529.772430419922
 21
69.3929824829102
 31
0.0
  0
LINE
  5
   298
  8
0
  6
CONTINUOUS
 62
     7
 10
-529.772430419922
 20
16.3929901123047
 30
0.0
 11
-529.772430419922
 21
36.3929824829102
 31
0.0
  0
LINE
  5
   299
  8
0
  6
CONTINUOUS
 62
     7
 10
-529.772430419922
 20
-16.6070098876953
 30
0.0
 11
-529.772430419922
 21
16.3929901123047
 31
0.0
  0
LINE
  5
   29A
  8
0
  6
CONTINUOUS
 62
     7
 10
-548.272453308106
 20
44.3929824829102
 30
0.0
 11
-548.272453308106
 21
56.3929824829102
 31
0.0
  0
LINE
  5
   29B
  8
0
  6
CONTINUOUS
 62
     7
 10
-548.272453308106
 20
88.4929733276367
 30
0.0
 11
-548.272453308106
 21
89.8929824829102
 31
0.0
  0
LINE
  5
   29C
  8
0
  6
CONTINUOUS
 62
     7
 10
-548.272453308106
 20
44.3929824829102
 30
0.0
 11
-551.522453308106
 21
44.3929824829102
 31
0.0
  0
LINE
  5
   29D
  8
0
  6
CONTINUOUS
 62
     7
 10
-551.522460912393
 20
8.39295985962845
 30
0.0
 11
-551.522460594502
 21
9.89295959472656
 31
0.0
  0
LINE
  5
   29E
  8
0
  6
CONTINUOUS
 62
     7
 10
-548.272453308106
 20
-37.1070327758789
 30
0.0
 11
-548.272453308106
 21
-35.7070116996765
 31
0.0
  0
LINE
  5
   29F
  8
0
  6
CONTINUOUS
 62
     7
 10
-548.272453308106
 20
-28.1070404052734
 30
0.0
 11
-548.272453308106
 21
-21.8570098876953
 31
0.0
  0
LINE
  5
   2A0
  8
0
  6
CONTINUOUS
 62
     7
 10
-554.522453308106
 20
56.3929824829102
 30
0.0
 11
-554.522453308106
 21
63.8929824829102
 31
0.0
  0
LINE
  5
   2A1
  8
0
  6
CONTINUOUS
 62
     7
 10
-554.522453308106
 20
-11.1069869995117
 30
0.0
 11
-554.522453308106
 21
-3.60698699951172
 31
0.0
  0
LINE
  5
   2A2
  8
0
  6
CONTINUOUS
 62
     7
 10
-548.2724609375
 20
4.89295959472656
 30
0.0
 11
-551.5224609375
 21
4.89295959472656
 31
0.0
  0
LINE
  5
   2A3
  8
0
  6
CONTINUOUS
 62
     7
 10
-551.5224609375
 20
4.89295959472656
 30
0.0
 11
-551.5224609375
 21
8.39295959472656
 31
0.0
  0
LINE
  5
   2A4
  8
0
  6
CONTINUOUS
 62
     7
 10
-551.522453308106
 20
9.89295959472656
 30
0.0
 11
-553.522453308106
 21
9.89295959472656
 31
0.0
  0
LINE
  5
   2A5
  8
0
  6
CONTINUOUS
 62
     7
 10
-551.522453308106
 20
13.392951965332
 30
0.0
 11
-553.522453308106
 21
13.392951965332
 31
0.0
  0
LINE
  5
   2A6
  8
0
  6
CONTINUOUS
 62
     7
 10
-530.272408297047
 20
12.6429706348504
 30
0.0
 11
-551.522454073415
 21
12.6429782642441
 31
0.0
  0
LINE
  5
   2A7
  8
0
  6
CONTINUOUS
 62
     7
 10
-530.272410647787
 20
12.6429696517505
 30
0.0
 11
-529.772425921972
 21
13.1429772631277
 31
0.0
  0
LINE
  5
   2A8
  8
0
  6
CONTINUOUS
 62
     7
 10
-530.272415161133
 20
7.14299011230469
 30
0.0
 11
-551.5224609375
 21
7.14299011230469
 31
0.0
  0
LINE
  5
   2A9
  8
0
  6
CONTINUOUS
 62
     7
 10
-529.772421575339
 20
6.64297555675819
 30
0.0
 11
-530.272406301154
 21
7.14298316813543
 31
0.0
  0
LINE
  5
   2AA
  8
0
  6
CONTINUOUS
 62
     7
 10
-529.772430419922
 20
88.4929885864258
 30
0.0
 11
-548.272453308106
 21
88.4929885864258
 31
0.0
  0
LINE
  5
   2AB
  8
0
  6
CONTINUOUS
 62
     7
 10
-529.772430419922
 20
80.8929824829102
 30
0.0
 11
-529.772430419922
 21
88.4929885864258
 31
0.0
  0
LINE
  5
   2AC
  8
0
  6
CONTINUOUS
 62
     7
 10
-548.272453308106
 20
80.8929901123047
 30
0.0
 11
-548.272453308106
 21
87.1429824829102
 31
0.0
  0
LINE
  5
   2AD
  8
0
  6
CONTINUOUS
 62
     7
 10
-529.772430419922
 20
-35.7070097923279
 30
0.0
 11
-548.272453308106
 21
-35.7070097923279
 31
0.0
  0
LINE
  5
   2AE
  8
0
  6
CONTINUOUS
 62
     7
 10
-529.772430419922
 20
-35.7070097923279
 30
0.0
 11
-529.772430419922
 21
-28.1070327758789
 31
0.0
  0
LINE
  5
   2AF
  8
0
  6
CONTINUOUS
 62
     7
 10
-548.272453308106
 20
-35.7070097923279
 30
0.0
 11
-548.272453308106
 21
-34.3570094108582
 31
0.0
  0
LINE
  5
   2B0
  8
0
  6
CONTINUOUS
 62
     3
 10
-553.522453308106
 20
-3.10702514648438
 30
0.0
 11
-554.272453308106
 21
-3.10702514648438
 31
0.0
  0
LINE
  5
   2B1
  8
0
  6
CONTINUOUS
 62
     3
 10
-553.522453308106
 20
-11.6070251464844
 30
0.0
 11
-554.272453308106
 21
-11.6070251464844
 31
0.0
  0
LINE
  5
   2B2
  8
0
  6
CONTINUOUS
 62
     3
 10
-553.522453308106
 20
-17.1070251464844
 30
0.0
 11
-554.272453308106
 21
-17.1070251464844
 31
0.0
  0
LINE
  5
   2B3
  8
0
  6
CONTINUOUS
 62
     3
 10
-553.522453308106
 20
69.8929748535156
 30
0.0
 11
-554.272453308106
 21
69.8929748535156
 31
0.0
  0
LINE
  5
   2B4
  8
0
  6
CONTINUOUS
 62
     3
 10
-553.522453308106
 20
64.3929748535156
 30
0.0
 11
-554.272453308106
 21
64.3929748535156
 31
0.0
  0
LINE
  5
   2B5
  8
0
  6
CONTINUOUS
 62
     3
 10
-553.522453308106
 20
55.8929748535156
 30
0.0
 11
-554.272453308106
 21
55.8929748535156
 31
0.0
  0
LINE
  5
   2B6
  8
0
  6
CONTINUOUS
 62
     3
 10
-553.522453308106
 20
63.8929824829102
 30
0.0
 11
-553.522453308106
 21
69.8929748535156
 31
0.0
  0
LINE
  5
   2B7
  8
0
  6
CONTINUOUS
 62
     3
 10
-553.522453308106
 20
-3.60694885253906
 30
0.0
 11
-553.522453308106
 21
56.3929977416992
 31
0.0
  0
LINE
  5
   2B8
  8
0
  6
CONTINUOUS
 62
     3
 10
-553.522453308106
 20
-17.1070251464844
 30
0.0
 11
-553.522453308106
 21
-11.1069488525391
 31
0.0
  0
LINE
  5
   2B9
  8
0
  6
CONTINUOUS
 62
     3
 10
-554.272453308106
 20
-17.1070251464844
 30
0.0
 11
-554.272453308106
 21
-11.1069946289063
 31
0.0
  0
LINE
  5
   2BA
  8
0
  6
CONTINUOUS
 62
     3
 10
-554.272453308106
 20
-3.60700225830078
 30
0.0
 11
-554.272453308106
 21
56.3929290771484
 31
0.0
  0
LINE
  5
   2BB
  8
0
  6
CONTINUOUS
 62
     3
 10
-554.272453308106
 20
63.8929443359375
 30
0.0
 11
-554.272453308106
 21
69.8929748535156
 31
0.0
  0
LINE
  5
   2BC
  8
0
  6
CONTINUOUS
 62
     7
 10
-548.272453308106
 20
87.1429824829102
 30
0.0
 11
-553.772453308106
 21
87.1429824829102
 31
0.0
  0
LINE
  5
   2BD
  8
0
  6
CONTINUOUS
 62
     7
 10
-548.272453308106
 20
74.6429824829102
 30
0.0
 11
-548.772430419922
 21
74.6429824829102
 31
0.0
  0
LINE
  5
   2BE
  8
0
  6
CONTINUOUS
 62
     7
 10
-548.772430419922
 20
74.6429824829102
 30
0.0
 11
-553.772453308106
 21
74.6429824829102
 31
0.0
  0
LINE
  5
   2BF
  8
0
  6
CONTINUOUS
 62
     7
 10
-548.272453308106
 20
-34.3570094108582
 30
0.0
 11
-553.772453308106
 21
-34.3570094108582
 31
0.0
  0
LINE
  5
   2C0
  8
0
  6
CONTINUOUS
 62
     7
 10
-548.772430419922
 20
-21.8570098876953
 30
0.0
 11
-553.772453308106
 21
-21.8570098876953
 31
0.0
  0
LINE
  5
   2C1
  8
0
  6
CONTINUOUS
 62
     7
 10
-548.272453308106
 20
-21.8570098876953
 30
0.0
 11
-548.772430419922
 21
-21.8570098876953
 31
0.0
  0
LINE
  5
   2C2
  8
0
  6
CONTINUOUS
 62
     7
 10
-548.272453308106
 20
63.8929824829102
 30
0.0
 11
-553.5224609375
 21
63.8929824829102
 31
0.0
  0
LINE
  5
   2C3
  8
0
  6
CONTINUOUS
 62
     7
 10
-548.272453308106
 20
56.3929824829102
 30
0.0
 11
-553.5224609375
 21
56.3929824829102
 31
0.0
  0
LINE
  5
   2C4
  8
0
  6
CONTINUOUS
 62
     7
 10
-548.272453308106
 20
-3.60698699951172
 30
0.0
 11
-553.5224609375
 21
-3.60698699951172
 31
0.0
  0
LINE
  5
   2C5
  8
0
  6
CONTINUOUS
 62
     7
 10
-548.272453308106
 20
-11.1069869995117
 30
0.0
 11
-553.5224609375
 21
-11.1069869995117
 31
0.0
  0
LINE
  5
   2C6
  8
0
  6
DASHDOT
 62
     7
 10
-554.522453308106
 20
-3.60698699951172
 30
0.0
 11
-554.522453308106
 21
56.3929824829101
 31
0.0
  0
LINE
  5
   2C7
  8
0
  6
DASHDOT
 62
     7
 10
-554.522453308106
 20
-54.4195489770888
 30
0.0
 11
-554.522453308106
 21
-11.1069869995117
 31
0.0
  0
LINE
  5
   2C8
  8
0
  6
DASHDOT
 62
     7
 10
-554.522453308106
 20
63.8929824829102
 30
0.0
 11
-554.522453308106
 21
97.4984624380636
 31
0.0
  0
LINE
  5
   2C9
  8
0
  6
DASHDOT
 62
     7
 10
-556.022453308105
 20
-52.7842636012529
 30
0.0
 11
-556.022453308105
 21
98.1525765883979
 31
0.0
  0
LINE
  5
   2CA
  8
0
  6
CONTINUOUS
 62
     7
 10
-550.514221450526
 20
97.7231817316695
 30
0.0
 11
-560.118617356882
 21
99.1151231673732
 31
0.0
  0
LINE
  5
   2CB
  8
0
  6
CONTINUOUS
 62
     7
 10
-550.096639019815
 20
-55.32077912396
 30
0.0
 11
-559.144258351889
 21
-50.866566529708
 31
0.0
  0
LINE
  5
   2CC
  8
0
  6
CONTINUOUS
 62
     7
 10
-548.272453308106
 20
87.1429824829102
 30
0.0
 11
-548.272453308106
 21
88.4929885864258
 31
0.0
  0
LINE
  5
   2CD
  8
0
  6
CONTINUOUS
 62
     7
 10
-548.272453308106
 20
74.6429824829102
 30
0.0
 11
-548.272453308106
 21
80.892951965332
 31
0.0
  0
LINE
  5
   2CE
  8
0
  6
CONTINUOUS
 62
     7
 10
-548.272453308106
 20
63.8929824829102
 30
0.0
 11
-548.272453308106
 21
74.6429824829102
 31
0.0
  0
LINE
  5
   2CF
  8
0
  6
CONTINUOUS
 62
     7
 10
-548.272453308106
 20
56.3929824829102
 30
0.0
 11
-548.272453308106
 21
63.8929824829102
 31
0.0
  0
LINE
  5
   2D0
  8
0
  6
CONTINUOUS
 62
     7
 10
-551.522459852757
 20
13.392951965332
 30
0.0
 11
-551.522453283
 21
44.3929751184175
 31
0.0
  0
LINE
  5
   2D1
  8
0
  6
CONTINUOUS
 62
     7
 10
-551.522460594502
 20
9.89295959472656
 30
0.0
 11
-551.522459852757
 21
13.392951965332
 31
0.0
  0
LINE
  5
   2D2
  8
0
  6
CONTINUOUS
 62
     7
 10
-548.272453308106
 20
4.89295959472656
 30
0.0
 11
-548.272453308106
 21
6.64297485351563
 31
0.0
  0
LINE
  5
   2D3
  8
0
  6
CONTINUOUS
 62
     7
 10
-548.272453308106
 20
-3.60698699951172
 30
0.0
 11
-548.272453308106
 21
4.89295959472656
 31
0.0
  0
LINE
  5
   2D4
  8
0
  6
CONTINUOUS
 62
     7
 10
-548.272453308106
 20
-11.1069869995117
 30
0.0
 11
-548.272453308106
 21
-3.60698699951172
 31
0.0
  0
LINE
  5
   2D5
  8
0
  6
CONTINUOUS
 62
     7
 10
-548.272453308106
 20
-21.8570098876953
 30
0.0
 11
-548.272453308106
 21
-11.1069869995117
 31
0.0
  0
LINE
  5
   2D6
  8
0
  6
CONTINUOUS
 62
     7
 10
-548.272453308106
 20
-34.3570094108582
 30
0.0
 11
-548.272453308106
 21
-28.1070327758789
 31
0.0
  0
LINE
  5
   2D7
  8
0
  6
DASHDOT
 62
     7
 10
-545.557715950396
 20
60.1429824829101
 30
0.0
 11
-562.727299052317
 21
60.1429824829101
 31
0.0
  0
LINE
  5
   2D8
  8
0
  6
DASHDOT
 62
     7
 10
-545.971209155132
 20
-7.35701751708985
 30
0.0
 11
-563.143599422433
 21
-7.35701751708985
 31
0.0
  0
LINE
  5
   2D9
  8
0
  6
CONTINUOUS
 62
   253
 10
-553.7724609375
 20
74.8929748535156
 30
0.0
 11
-553.7724609375
 21
86.8929748535156
 31
0.0
  0
LINE
  5
   2DA
  8
0
  6
CONTINUOUS
 62
   253
 10
-561.7724609375
 20
74.8929748535156
 30
0.0
 11
-561.7724609375
 21
86.8929748535156
 31
0.0
  0
LINE
  5
   2DB
  8
0
  6
CONTINUOUS
 62
   253
 10
-553.772438049316
 20
-34.1070251464844
 30
0.0
 11
-553.772438049316
 21
-22.1070251464844
 31
0.0
  0
LINE
  5
   2DC
  8
0
  6
CONTINUOUS
 62
   253
 10
-561.772438049316
 20
-33.6070251464844
 30
0.0
 11
-561.772438049316
 21
-22.6070251464844
 31
0.0
  0
LINE
  5
   2DD
  8
0
  6
CONTINUOUS
 62
     7
 10
-594.672439575195
 20
83.6767196655273
 30
0.0
 11
-594.672439575195
 21
86.3929748535156
 31
0.0
  0
LINE
  5
   2DE
  8
0
  6
CONTINUOUS
 62
     7
 10
-594.672439575195
 20
78.2497329711914
 30
0.0
 11
-594.672439575195
 21
83.5362167358399
 31
0.0
  0
LINE
  5
   2DF
  8
0
  6
CONTINUOUS
 62
     7
 10
-594.672439575195
 20
75.3929748535156
 30
0.0
 11
-594.672439575195
 21
78.1092224121094
 31
0.0
  0
LINE
  5
   2E0
  8
0
  6
CONTINUOUS
 62
     7
 10
-595.922439575195
 20
75.3929748535156
 30
0.0
 11
-595.922439575195
 21
86.3929748535156
 31
0.0
  0
LINE
  5
   2E1
  8
0
  6
CONTINUOUS
 62
     7
 10
-598.922439575195
 20
75.3929748535156
 30
0.0
 11
-598.922439575195
 21
86.3929748535156
 31
0.0
  0
LINE
  5
   2E2
  8
0
  6
CONTINUOUS
 62
     7
 10
-600.172439575195
 20
75.3929748535156
 30
0.0
 11
-600.172439575195
 21
78.1092224121094
 31
0.0
  0
LINE
  5
   2E3
  8
0
  6
CONTINUOUS
 62
     7
 10
-600.172439575195
 20
78.2497329711914
 30
0.0
 11
-600.172439575195
 21
83.5362167358399
 31
0.0
  0
LINE
  5
   2E4
  8
0
  6
CONTINUOUS
 62
     7
 10
-600.172439575195
 20
83.6767196655273
 30
0.0
 11
-600.172439575195
 21
86.3929748535156
 31
0.0
  0
LINE
  5
   2E5
  8
0
  6
CONTINUOUS
 62
     7
 10
-587.772438049316
 20
75.8929748535156
 30
0.0
 11
-587.772438049316
 21
85.8929748535156
 31
0.0
  0
LINE
  5
   2E6
  8
0
  6
CONTINUOUS
 62
     7
 10
-588.172439575195
 20
76.0762634277344
 30
0.0
 11
-588.172439575195
 21
77.4560623168945
 31
0.0
  0
LINE
  5
   2E7
  8
0
  6
CONTINUOUS
 62
     7
 10
-588.172439575195
 20
79.3375244140625
 30
0.0
 11
-588.172439575195
 21
82.4484252929688
 31
0.0
  0
LINE
  5
   2E8
  8
0
  6
CONTINUOUS
 62
     7
 10
-588.172439575195
 20
84.3298721313477
 30
0.0
 11
-588.172439575195
 21
85.7096862792969
 31
0.0
  0
LINE
  5
   2E9
  8
0
  6
CONTINUOUS
 62
     3
 10
-594.672439575195
 20
78.1092224121094
 30
0.0
 11
-594.672439575195
 21
78.2497329711914
 31
0.0
  0
LINE
  5
   2EA
  8
0
  6
CONTINUOUS
 62
     3
 10
-594.672439575195
 20
83.5362167358399
 30
0.0
 11
-594.672439575195
 21
83.6767196655273
 31
0.0
  0
LINE
  5
   2EB
  8
0
  6
CONTINUOUS
 62
     3
 10
-591.672439575195
 20
75.4081497192383
 30
0.0
 11
-591.672439575195
 21
86.377799987793
 31
0.0
  0
LINE
  5
   2EC
  8
0
  6
CONTINUOUS
 62
     3
 10
-600.172439575195
 20
83.5362167358399
 30
0.0
 11
-600.172439575195
 21
83.6767196655273
 31
0.0
  0
LINE
  5
   2ED
  8
0
  6
CONTINUOUS
 62
     3
 10
-600.172439575195
 20
78.1092224121094
 30
0.0
 11
-600.172439575195
 21
78.2497329711914
 31
0.0
  0
LINE
  5
   2EE
  8
0
  6
CONTINUOUS
 62
     3
 10
-603.172439575195
 20
75.4081497192383
 30
0.0
 11
-603.172439575195
 21
86.377799987793
 31
0.0
  0
LINE
  5
   2EF
  8
0
  6
CONTINUOUS
 62
     3
 10
-591.172439575195
 20
75.4081497192383
 30
0.0
 11
-591.172439575195
 21
86.377799987793
 31
0.0
  0
LINE
  5
   2F0
  8
0
  6
CONTINUOUS
 62
     3
 10
-588.172439575195
 20
85.7096939086914
 30
0.0
 11
-588.172439575195
 21
86.377799987793
 31
0.0
  0
LINE
  5
   2F1
  8
0
  6
CONTINUOUS
 62
     3
 10
-588.172439575195
 20
82.4484252929688
 30
0.0
 11
-588.172439575195
 21
84.3298797607422
 31
0.0
  0
LINE
  5
   2F2
  8
0
  6
CONTINUOUS
 62
     3
 10
-588.172439575195
 20
77.4560623168945
 30
0.0
 11
-588.172439575195
 21
79.337516784668
 31
0.0
  0
LINE
  5
   2F3
  8
0
  6
CONTINUOUS
 62
     3
 10
-588.172439575195
 20
75.4081497192383
 30
0.0
 11
-588.172439575195
 21
76.0762634277344
 31
0.0
  0
LINE
  5
   2F4
  8
0
  6
CONTINUOUS
 62
     3
 10
-553.5224609375
 20
-3.10702133178711
 30
0.0
 11
-554.2724609375
 21
-3.10702133178711
 31
0.0
  0
LINE
  5
   2F5
  8
0
  6
CONTINUOUS
 62
     3
 10
-553.5224609375
 20
-11.6070213317871
 30
0.0
 11
-554.2724609375
 21
-11.6070213317871
 31
0.0
  0
LINE
  5
   2F6
  8
0
  6
CONTINUOUS
 62
     3
 10
-553.5224609375
 20
-17.1070213317871
 30
0.0
 11
-554.2724609375
 21
-17.1070213317871
 31
0.0
  0
LINE
  5
   2F7
  8
0
  6
CONTINUOUS
 62
     3
 10
-553.5224609375
 20
69.8929824829102
 30
0.0
 11
-554.2724609375
 21
69.8929824829102
 31
0.0
  0
LINE
  5
   2F8
  8
0
  6
CONTINUOUS
 62
     3
 10
-553.5224609375
 20
64.3929824829102
 30
0.0
 11
-554.2724609375
 21
64.3929824829102
 31
0.0
  0
LINE
  5
   2F9
  8
0
  6
CONTINUOUS
 62
     3
 10
-553.5224609375
 20
55.8929824829102
 30
0.0
 11
-554.2724609375
 21
55.8929824829102
 31
0.0
  0
LINE
  5
   2FA
  8
0
  6
CONTINUOUS
 62
     3
 10
-553.5224609375
 20
-17.1070175170898
 30
0.0
 11
-553.5224609375
 21
69.8929824829102
 31
0.0
  0
LINE
  5
   2FB
  8
0
  6
CONTINUOUS
 62
     3
 10
-554.2724609375
 20
-17.1070213317871
 30
0.0
 11
-554.2724609375
 21
69.8929786682129
 31
0.0
  0
LINE
  5
   2FC
  8
0
  6
CONTINUOUS
 62
   212
 10
-604.522438049316
 20
78.8929748535156
 30
0.0
 11
-604.522438049316
 21
82.8929748535156
 31
0.0
  0
LINE
  5
   2FD
  8
0
  6
CONTINUOUS
 62
   253
 10
-561.7724609375
 20
-34.1070251464844
 30
0.0
 11
-561.7724609375
 21
-33.6070251464844
 31
0.0
  0
LINE
  5
   2FE
  8
0
  6
CONTINUOUS
 62
   253
 10
-561.7724609375
 20
-22.6070246696472
 30
0.0
 11
-561.7724609375
 21
-22.1070251464844
 31
0.0
  0
LINE
  5
   2FF
  8
0
  6
CONTINUOUS
 62
     7
 10
-594.672439575195
 20
-25.3232789039612
 30
0.0
 11
-594.672439575195
 21
-22.6070251464844
 31
0.0
  0
LINE
  5
   300
  8
0
  6
CONTINUOUS
 62
     7
 10
-594.672439575195
 20
-30.7502679824829
 30
0.0
 11
-594.672439575195
 21
-25.4637832641602
 31
0.0
  0
LINE
  5
   301
  8
0
  6
CONTINUOUS
 62
     7
 10
-594.672439575195
 20
-33.6070251464844
 30
0.0
 11
-594.672439575195
 21
-30.8907721042633
 31
0.0
  0
LINE
  5
   302
  8
0
  6
CONTINUOUS
 62
     7
 10
-595.922439575195
 20
-33.6070251464844
 30
0.0
 11
-595.922439575195
 21
-22.6070251464844
 31
0.0
  0
LINE
  5
   303
  8
0
  6
CONTINUOUS
 62
     7
 10
-598.922439575195
 20
-33.6070251464844
 30
0.0
 11
-598.922439575195
 21
-22.6070251464844
 31
0.0
  0
LINE
  5
   304
  8
0
  6
CONTINUOUS
 62
     7
 10
-600.172439575195
 20
-33.6070251464844
 30
0.0
 11
-600.172439575195
 21
-30.890771150589
 31
0.0
  0
LINE
  5
   305
  8
0
  6
CONTINUOUS
 62
     7
 10
-600.172439575195
 20
-30.7502670288086
 30
0.0
 11
-600.172439575195
 21
-25.4637823104858
 31
0.0
  0
LINE
  5
   306
  8
0
  6
CONTINUOUS
 62
     7
 10
-600.172439575195
 20
-25.3232781887054
 30
0.0
 11
-600.172439575195
 21
-22.6070251464844
 31
0.0
  0
LINE
  5
   307
  8
0
  6
CONTINUOUS
 62
     7
 10
-587.772438049316
 20
-33.1070251464844
 30
0.0
 11
-587.772438049316
 21
-23.1070251464844
 31
0.0
  0
LINE
  5
   308
  8
0
  6
CONTINUOUS
 62
     7
 10
-588.172439575195
 20
-32.9237422943115
 30
0.0
 11
-588.172439575195
 21
-31.5439286231995
 31
0.0
  0
LINE
  5
   309
  8
0
  6
CONTINUOUS
 62
     7
 10
-588.172439575195
 20
-29.6624789237976
 30
0.0
 11
-588.172439575195
 21
-26.5515704154968
 31
0.0
  0
LINE
  5
   30A
  8
0
  6
CONTINUOUS
 62
     7
 10
-588.172439575195
 20
-24.6701216697693
 30
0.0
 11
-588.172439575195
 21
-23.2903070449829
 31
0.0
  0
LINE
  5
   30B
  8
0
  6
CONTINUOUS
 62
     3
 10
-600.172439575195
 20
-25.4637818336487
 30
0.0
 11
-600.172439575195
 21
-25.3232793807983
 31
0.0
  0
LINE
  5
   30C
  8
0
  6
CONTINUOUS
 62
     3
 10
-600.172439575195
 20
-30.890772819519
 30
0.0
 11
-600.172439575195
 21
-30.7502660751343
 31
0.0
  0
LINE
  5
   30D
  8
0
  6
CONTINUOUS
 62
     3
 10
-603.172439575195
 20
-33.5918526649475
 30
0.0
 11
-603.172439575195
 21
-22.6221976280212
 31
0.0
  0
LINE
  5
   30E
  8
0
  6
CONTINUOUS
 62
     3
 10
-591.172439575195
 20
-33.5918526649475
 30
0.0
 11
-591.172439575195
 21
-22.6221976280212
 31
0.0
  0
LINE
  5
   30F
  8
0
  6
CONTINUOUS
 62
     3
 10
-588.172439575195
 20
-23.2903079986572
 30
0.0
 11
-588.172439575195
 21
-22.6221976280212
 31
0.0
  0
LINE
  5
   310
  8
0
  6
CONTINUOUS
 62
     3
 10
-588.172439575195
 20
-26.5515710115433
 30
0.0
 11
-588.172439575195
 21
-24.6701214313507
 31
0.0
  0
LINE
  5
   311
  8
0
  6
CONTINUOUS
 62
     3
 10
-588.172439575195
 20
-31.5439286231995
 30
0.0
 11
-588.172439575195
 21
-29.6624796390533
 31
0.0
  0
LINE
  5
   312
  8
0
  6
CONTINUOUS
 62
     3
 10
-588.172439575195
 20
-33.5918526649475
 30
0.0
 11
-588.172439575195
 21
-32.9237427711487
 31
0.0
  0
LINE
  5
   313
  8
0
  6
CONTINUOUS
 62
     3
 10
-594.672439575195
 20
-30.8907725811005
 30
0.0
 11
-594.672439575195
 21
-30.7502658367157
 31
0.0
  0
LINE
  5
   314
  8
0
  6
CONTINUOUS
 62
     3
 10
-594.672439575195
 20
-25.4637815952301
 30
0.0
 11
-594.672439575195
 21
-25.3232793807983
 31
0.0
  0
LINE
  5
   315
  8
0
  6
CONTINUOUS
 62
     3
 10
-591.672439575195
 20
-33.5918526649475
 30
0.0
 11
-591.672439575195
 21
-22.6221976280212
 31
0.0
  0
LINE
  5
   316
  8
0
  6
CONTINUOUS
 62
   212
 10
-604.522438049316
 20
-30.1070251464844
 30
0.0
 11
-604.522438049316
 21
-26.1070251464844
 31
0.0
  0
LINE
  5
   317
  8
0
  6
CONTINUOUS
 62
   253
 10
-553.7724609375
 20
86.8929748535156
 30
0.0
 11
-561.7724609375
 21
86.8929748535156
 31
0.0
  0
LINE
  5
   318
  8
0
  6
CONTINUOUS
 62
   253
 10
-553.7724609375
 20
74.8929748535156
 30
0.0
 11
-561.7724609375
 21
74.8929748535156
 31
0.0
  0
LINE
  5
   319
  8
0
  6
CONTINUOUS
 62
   253
 10
-565.172439575195
 20
75.8929748535156
 30
0.0
 11
-565.672439575195
 21
75.8929748535156
 31
0.0
  0
LINE
  5
   31A
  8
0
  6
CONTINUOUS
 62
   253
 10
-587.626016470645
 20
85.7465296231454
 30
0.0
 11
-587.272462698611
 21
85.8929758514285
 31
0.0
  0
LINE
  5
   31B
  8
0
  6
CONTINUOUS
 62
   253
 10
-587.772461865268
 20
85.3929767211564
 30
0.0
 11
-587.626015636985
 21
85.746530493191
 31
0.0
  0
LINE
  5
   31C
  8
0
  6
CONTINUOUS
 62
   253
 10
-587.272463534243
 20
75.8929765652628
 30
0.0
 11
-587.626017306278
 21
76.0394227935459
 31
0.0
  0
LINE
  5
   31D
  8
0
  6
CONTINUOUS
 62
   253
 10
-587.626016472617
 20
76.0394235947734
 30
0.0
 11
-587.772462700901
 21
76.3929773668081
 31
0.0
  0
LINE
  5
   31E
  8
0
  6
CONTINUOUS
 62
   253
 10
-553.772438049316
 20
-22.1070251464844
 30
0.0
 11
-561.272438049317
 21
-22.1070251464844
 31
0.0
  0
LINE
  5
   31F
  8
0
  6
CONTINUOUS
 62
   253
 10
-553.772438049316
 20
-34.1070251464844
 30
0.0
 11
-561.272438049317
 21
-34.1070251464844
 31
0.0
  0
LINE
  5
   320
  8
0
  6
CONTINUOUS
 62
   253
 10
-561.772435949554
 20
-22.6070245633633
 30
0.0
 11
-561.272435966669
 21
-22.1070245804775
 31
0.0
  0
LINE
  5
   321
  8
0
  6
CONTINUOUS
 62
   253
 10
-561.272435973198
 20
-34.1070256929047
 30
0.0
 11
-561.772435956083
 21
-33.607025710019
 31
0.0
  0
LINE
  5
   322
  8
0
  6
CONTINUOUS
 62
     7
 10
-594.672439575195
 20
86.3929748535156
 30
0.0
 11
-595.922439575195
 21
86.3929748535156
 31
0.0
  0
LINE
  5
   323
  8
0
  6
CONTINUOUS
 62
     7
 10
-594.672439575195
 20
75.3929748535156
 30
0.0
 11
-595.922439575195
 21
75.3929748535156
 31
0.0
  0
LINE
  5
   324
  8
0
  6
CONTINUOUS
 62
     7
 10
-598.922439575195
 20
86.3929748535156
 30
0.0
 11
-600.172439575195
 21
86.3929748535156
 31
0.0
  0
LINE
  5
   325
  8
0
  6
CONTINUOUS
 62
     7
 10
-598.922439575195
 20
75.3929748535156
 30
0.0
 11
-600.172439575195
 21
75.3929748535156
 31
0.0
  0
LINE
  5
   326
  8
0
  6
CONTINUOUS
 62
     7
 10
-587.772438049316
 20
85.8929748535156
 30
0.0
 11
-588.172439575195
 21
85.8929748535156
 31
0.0
  0
LINE
  5
   327
  8
0
  6
CONTINUOUS
 62
     7
 10
-587.772438049316
 20
75.8929748535156
 30
0.0
 11
-588.172439575195
 21
75.8929748535156
 31
0.0
  0
LINE
  5
   328
  8
0
  6
CONTINUOUS
 62
     3
 10
-591.672439575195
 20
86.377799987793
 30
0.0
 11
-594.672439575195
 21
86.377799987793
 31
0.0
  0
LINE
  5
   329
  8
0
  6
CONTINUOUS
 62
     3
 10
-591.672439575195
 20
83.6353912353516
 30
0.0
 11
-594.672439575195
 21
83.6353912353516
 31
0.0
  0
LINE
  5
   32A
  8
0
  6
CONTINUOUS
 62
     3
 10
-591.672439575195
 20
78.1505584716797
 30
0.0
 11
-594.672439575195
 21
78.1505584716797
 31
0.0
  0
LINE
  5
   32B
  8
0
  6
CONTINUOUS
 62
     3
 10
-591.672439575195
 20
75.4081497192383
 30
0.0
 11
-594.672439575195
 21
75.4081497192383
 31
0.0
  0
LINE
  5
   32C
  8
0
  6
CONTINUOUS
 62
     3
 10
-600.172439575195
 20
86.377799987793
 30
0.0
 11
-603.172439575195
 21
86.377799987793
 31
0.0
  0
LINE
  5
   32D
  8
0
  6
CONTINUOUS
 62
     3
 10
-600.172439575195
 20
83.6353912353516
 30
0.0
 11
-603.172439575195
 21
83.6353912353516
 31
0.0
  0
LINE
  5
   32E
  8
0
  6
CONTINUOUS
 62
     3
 10
-600.172439575195
 20
78.1505584716797
 30
0.0
 11
-603.172439575195
 21
78.1505584716797
 31
0.0
  0
LINE
  5
   32F
  8
0
  6
CONTINUOUS
 62
     3
 10
-600.172439575195
 20
75.4081497192383
 30
0.0
 11
-603.172439575195
 21
75.4081497192383
 31
0.0
  0
LINE
  5
   330
  8
0
  6
CONTINUOUS
 62
     3
 10
-588.172439575195
 20
86.377799987793
 30
0.0
 11
-591.172439575195
 21
86.377799987793
 31
0.0
  0
LINE
  5
   331
  8
0
  6
CONTINUOUS
 62
     3
 10
-588.172439575195
 20
83.6353912353516
 30
0.0
 11
-591.172439575195
 21
83.6353912353516
 31
0.0
  0
LINE
  5
   332
  8
0
  6
CONTINUOUS
 62
     3
 10
-588.172439575195
 20
78.1505584716797
 30
0.0
 11
-591.172439575195
 21
78.1505584716797
 31
0.0
  0
LINE
  5
   333
  8
0
  6
CONTINUOUS
 62
     3
 10
-588.172439575195
 20
75.4081497192383
 30
0.0
 11
-591.172439575195
 21
75.4081497192383
 31
0.0
  0
LINE
  5
   334
  8
0
  6
CONTINUOUS
 62
   212
 10
-604.52243575488
 20
82.8929730941209
 30
0.0
 11
-603.522435789108
 21
83.8929730598924
 31
0.0
  0
LINE
  5
   335
  8
0
  6
CONTINUOUS
 62
   212
 10
-603.522433930182
 20
77.8929710703588
 30
0.0
 11
-604.522433895953
 21
78.8929710361303
 31
0.0
  0
LINE
  5
   336
  8
0
  6
CONTINUOUS
 62
   212
 10
-603.522438049317
 20
77.8929748535156
 30
0.0
 11
-603.522438049317
 21
83.8929748535156
 31
0.0
  0
LINE
  5
   337
  8
0
  6
CONTINUOUS
 62
   212
 10
-603.172439575195
 20
83.8929748535156
 30
0.0
 11
-603.522438049317
 21
83.8929748535156
 31
0.0
  0
LINE
  5
   338
  8
0
  6
CONTINUOUS
 62
   212
 10
-595.922439575195
 20
83.8929748535156
 30
0.0
 11
-598.922439575195
 21
83.8929748535156
 31
0.0
  0
LINE
  5
   339
  8
0
  6
CONTINUOUS
 62
   212
 10
-591.172439575195
 20
83.8929748535156
 30
0.0
 11
-591.672439575195
 21
83.8929748535156
 31
0.0
  0
LINE
  5
   33A
  8
0
  6
CONTINUOUS
 62
   212
 10
-603.172439575195
 20
77.8929748535156
 30
0.0
 11
-603.522438049317
 21
77.8929748535156
 31
0.0
  0
LINE
  5
   33B
  8
0
  6
CONTINUOUS
 62
   212
 10
-595.922439575195
 20
77.8929748535156
 30
0.0
 11
-598.922439575195
 21
77.8929748535156
 31
0.0
  0
LINE
  5
   33C
  8
0
  6
CONTINUOUS
 62
   212
 10
-591.172439575195
 20
77.8929748535156
 30
0.0
 11
-591.672439575195
 21
77.8929748535156
 31
0.0
  0
LINE
  5
   33D
  8
0
  6
CONTINUOUS
 62
     5
 10
-529.772430419922
 20
78.083964869276
 30
0.0
 11
-528.772476196521
 21
78.4479209118886
 31
0.0
  0
LINE
  5
   33E
  8
0
  6
CONTINUOUS
 62
     5
 10
-528.772476196521
 20
83.3380211013788
 30
0.0
 11
-529.772430419922
 21
83.7019771439915
 31
0.0
  0
LINE
  5
   33F
  8
0
  6
CONTINUOUS
 62
     5
 10
-529.772430419922
 20
-30.9160300099219
 30
0.0
 11
-528.772430896759
 21
-30.5520603312147
 31
0.0
  0
LINE
  5
   340
  8
0
  6
CONTINUOUS
 62
     5
 10
-528.772430896759
 20
-25.6619899613613
 30
0.0
 11
-529.772430419922
 21
-25.2980202826542
 31
0.0
  0
LINE
  5
   341
  8
0
  6
CONTINUOUS
 62
   253
 10
-561.272438049317
 20
-22.1070251464844
 30
0.0
 11
-561.7724609375
 21
-22.1070251464844
 31
0.0
  0
LINE
  5
   342
  8
0
  6
CONTINUOUS
 62
   253
 10
-561.272438049317
 20
-34.1070251464844
 30
0.0
 11
-561.7724609375
 21
-34.1070251464844
 31
0.0
  0
LINE
  5
   343
  8
0
  6
CONTINUOUS
 62
   253
 10
-577.172439575195
 20
-23.1070251464844
 30
0.0
 11
-587.2724609375
 21
-23.1070251464844
 31
0.0
  0
LINE
  5
   344
  8
0
  6
CONTINUOUS
 62
   253
 10
-577.172439575195
 20
-33.1070251464844
 30
0.0
 11
-587.2724609375
 21
-33.1070251464844
 31
0.0
  0
LINE
  5
   345
  8
0
  6
CONTINUOUS
 62
   253
 10
-587.626008609254
 20
-23.2534708401756
 30
0.0
 11
-587.272454826961
 21
-23.1070241328884
 31
0.0
  0
LINE
  5
   346
  8
0
  6
CONTINUOUS
 62
   253
 10
-587.772454782751
 20
-23.6070236364451
 30
0.0
 11
-587.626008554467
 21
-23.2534703411221
 31
0.0
  0
LINE
  5
   347
  8
0
  6
CONTINUOUS
 62
   253
 10
-587.272454835186
 20
-33.1070261334097
 30
0.0
 11
-587.626008617479
 21
-32.9605794261225
 31
0.0
  0
LINE
  5
   348
  8
0
  6
CONTINUOUS
 62
   253
 10
-587.62600856788
 20
-32.9605798815286
 30
0.0
 11
-587.772454796163
 21
-32.6070265862056
 31
0.0
  0
LINE
  5
   349
  8
0
  6
CONTINUOUS
 62
     7
 10
-594.672439575195
 20
-22.6070251464844
 30
0.0
 11
-595.922439575195
 21
-22.6070251464844
 31
0.0
  0
LINE
  5
   34A
  8
0
  6
CONTINUOUS
 62
     7
 10
-594.672439575195
 20
-33.6070251464844
 30
0.0
 11
-595.922439575195
 21
-33.6070251464844
 31
0.0
  0
LINE
  5
   34B
  8
0
  6
CONTINUOUS
 62
     7
 10
-598.922439575195
 20
-22.6070251464844
 30
0.0
 11
-600.172439575195
 21
-22.6070251464844
 31
0.0
  0
LINE
  5
   34C
  8
0
  6
CONTINUOUS
 62
     7
 10
-598.922439575195
 20
-33.6070251464844
 30
0.0
 11
-600.172439575195
 21
-33.6070251464844
 31
0.0
  0
LINE
  5
   34D
  8
0
  6
CONTINUOUS
 62
     7
 10
-587.772438049316
 20
-23.1070251464844
 30
0.0
 11
-588.172439575195
 21
-23.1070251464844
 31
0.0
  0
LINE
  5
   34E
  8
0
  6
CONTINUOUS
 62
     7
 10
-587.772438049316
 20
-33.1070251464844
 30
0.0
 11
-588.172439575195
 21
-33.1070251464844
 31
0.0
  0
LINE
  5
   34F
  8
0
  6
CONTINUOUS
 62
     3
 10
-600.172439575195
 20
-22.6221976280212
 30
0.0
 11
-603.172439575195
 21
-22.6221976280212
 31
0.0
  0
LINE
  5
   350
  8
0
  6
CONTINUOUS
 62
     3
 10
-600.172439575195
 20
-25.3646113872528
 30
0.0
 11
-603.172439575195
 21
-25.3646113872528
 31
0.0
  0
LINE
  5
   351
  8
0
  6
CONTINUOUS
 62
     3
 10
-600.172439575195
 20
-30.8494389057159
 30
0.0
 11
-603.172439575195
 21
-30.8494389057159
 31
0.0
  0
LINE
  5
   352
  8
0
  6
CONTINUOUS
 62
     3
 10
-600.172439575195
 20
-33.5918526649475
 30
0.0
 11
-603.172439575195
 21
-33.5918526649475
 31
0.0
  0
LINE
  5
   353
  8
0
  6
CONTINUOUS
 62
     3
 10
-588.172439575195
 20
-22.6221976280212
 30
0.0
 11
-591.172439575195
 21
-22.6221976280212
 31
0.0
  0
LINE
  5
   354
  8
0
  6
CONTINUOUS
 62
     3
 10
-588.172439575195
 20
-25.3646113872528
 30
0.0
 11
-591.172439575195
 21
-25.3646113872528
 31
0.0
  0
LINE
  5
   355
  8
0
  6
CONTINUOUS
 62
     3
 10
-588.172439575195
 20
-30.8494389057159
 30
0.0
 11
-591.172439575195
 21
-30.8494389057159
 31
0.0
  0
LINE
  5
   356
  8
0
  6
CONTINUOUS
 62
     3
 10
-588.172439575195
 20
-33.5918526649475
 30
0.0
 11
-591.172439575195
 21
-33.5918526649475
 31
0.0
  0
LINE
  5
   357
  8
0
  6
CONTINUOUS
 62
     3
 10
-591.672439575195
 20
-22.6221976280212
 30
0.0
 11
-594.672439575195
 21
-22.6221976280212
 31
0.0
  0
LINE
  5
   358
  8
0
  6
CONTINUOUS
 62
     3
 10
-591.672439575195
 20
-25.3646113872528
 30
0.0
 11
-594.672439575195
 21
-25.3646113872528
 31
0.0
  0
LINE
  5
   359
  8
0
  6
CONTINUOUS
 62
     3
 10
-591.672439575195
 20
-30.8494389057159
 30
0.0
 11
-594.672439575195
 21
-30.8494389057159
 31
0.0
  0
LINE
  5
   35A
  8
0
  6
CONTINUOUS
 62
     3
 10
-591.672439575195
 20
-33.5918526649475
 30
0.0
 11
-594.672439575195
 21
-33.5918526649475
 31
0.0
  0
LINE
  5
   35B
  8
0
  6
CONTINUOUS
 62
   212
 10
-604.522434822152
 20
-26.1070241076958
 30
0.0
 11
-603.52243485638
 21
-25.1070241419243
 31
0.0
  0
LINE
  5
   35C
  8
0
  6
CONTINUOUS
 62
   212
 10
-603.522434862909
 20
-31.1070261314579
 30
0.0
 11
-604.522434828681
 21
-30.1070261656865
 31
0.0
  0
LINE
  5
   35D
  8
0
  6
CONTINUOUS
 62
   212
 10
-603.522438049317
 20
-31.1070251464844
 30
0.0
 11
-603.522438049317
 21
-25.1070251464844
 31
0.0
  0
LINE
  5
   35E
  8
0
  6
CONTINUOUS
 62
   212
 10
-603.172439575195
 20
-25.1070251464844
 30
0.0
 11
-603.522438049317
 21
-25.1070251464844
 31
0.0
  0
LINE
  5
   35F
  8
0
  6
CONTINUOUS
 62
   212
 10
-595.922439575195
 20
-25.1070251464844
 30
0.0
 11
-598.922439575195
 21
-25.1070251464844
 31
0.0
  0
LINE
  5
   360
  8
0
  6
CONTINUOUS
 62
   212
 10
-591.172439575195
 20
-25.1070251464844
 30
0.0
 11
-591.672439575195
 21
-25.1070251464844
 31
0.0
  0
LINE
  5
   361
  8
0
  6
CONTINUOUS
 62
   212
 10
-603.172439575195
 20
-31.1070251464844
 30
0.0
 11
-603.522438049317
 21
-31.1070251464844
 31
0.0
  0
LINE
  5
   362
  8
0
  6
CONTINUOUS
 62
   212
 10
-595.922439575195
 20
-31.1070251464844
 30
0.0
 11
-598.922439575195
 21
-31.1070251464844
 31
0.0
  0
LINE
  5
   363
  8
0
  6
CONTINUOUS
 62
   212
 10
-591.172439575195
 20
-31.1070251464844
 30
0.0
 11
-591.672439575195
 21
-31.1070251464844
 31
0.0
  0
LINE
  5
   364
  8
0
  6
CONTINUOUS
 62
     7
 10
-554.2724609375
 20
-3.60698699951172
 30
0.0
 11
-554.522453308106
 21
-3.60698699951172
 31
0.0
  0
LINE
  5
   365
  8
0
  6
CONTINUOUS
 62
     7
 10
-554.2724609375
 20
-11.1069869995117
 30
0.0
 11
-554.522453308106
 21
-11.1069869995117
 31
0.0
  0
LINE
  5
   366
  8
0
  6
CONTINUOUS
 62
     7
 10
-554.2724609375
 20
63.8929824829102
 30
0.0
 11
-554.522453308106
 21
63.8929824829102
 31
0.0
  0
LINE
  5
   367
  8
0
  6
CONTINUOUS
 62
     7
 10
-554.2724609375
 20
56.3929824829102
 30
0.0
 11
-554.522453308106
 21
56.3929824829102
 31
0.0
  0
LINE
  5
   368
  8
0
  6
DASHDOT
 62
     7
 10
-525.864595928523
 20
-28.1070251464844
 30
0.0
 11
-608.209310466305
 21
-28.1070251464844
 31
0.0
  0
LINE
  5
   369
  8
0
  6
DASHDOT
 62
     7
 10
-525.864595928523
 20
80.8929748535156
 30
0.0
 11
-608.209310466305
 21
80.8929748535156
 31
0.0
  0
LINE
  5
   36A
  8
0
  6
CONTINUOUS
 62
     3
 10
-595.922439575195
 20
-25.6070251464844
 30
0.0
 11
-598.922439575195
 21
-25.6070251464844
 31
0.0
  0
LINE
  5
   36B
  8
0
  6
CONTINUOUS
 62
     3
 10
-595.922439575195
 20
-30.6070251464844
 30
0.0
 11
-598.922439575195
 21
-30.6070251464844
 31
0.0
  0
LINE
  5
   36C
  8
0
  6
CONTINUOUS
 62
     3
 10
-595.922439575195
 20
83.3929748535156
 30
0.0
 11
-598.922439575195
 21
83.3929748535156
 31
0.0
  0
LINE
  5
   36D
  8
0
  6
CONTINUOUS
 62
     3
 10
-595.922439575195
 20
78.3929748535156
 30
0.0
 11
-598.922439575195
 21
78.3929748535156
 31
0.0
  0
CIRCLE
  5
   36E
  8
0
  6
CONTINUOUS
 62
     7
 10
-582.228095804875
 20
-30.1262533593758
 30
0.0
 40
0.1
  0
CIRCLE
  5
   36F
  8
0
  6
CONTINUOUS
 62
     7
 10
-539.019456117615
 20
84.3182517582315
 30
0.0
 40
0.1
  0
LINE
  5
   370
  8
0
  6
CONTINUOUS
 62
     1
 10
-476.272435188293
 20
-0.235227584838867
 30
0.0
 11
-476.272435188293
 21
0.764772415161133
 31
0.0
  0
LINE
  5
   371
  8
0
  6
CONTINUOUS
 62
     1
 10
-475.272435188293
 20
-0.235227584838867
 30
0.0
 11
-476.272435188293
 21
-0.235227584838867
 31
0.0
  0
LINE
  5
   372
  8
0
  6
CONTINUOUS
 62
     1
 10
-476.272435188293
 20
53.7647705078125
 30
0.0
 11
-476.272435188293
 21
54.7647705078125
 31
0.0
  0
LINE
  5
   373
  8
0
  6
CONTINUOUS
 62
     1
 10
-475.272435188293
 20
54.7647705078125
 30
0.0
 11
-476.272435188293
 21
54.7647705078125
 31
0.0
  0
LINE
  5
   374
  8
0
  6
CONTINUOUS
 62
     1
 10
-476.272435188293
 20
0.764772415161133
 30
0.0
 11
-476.272435188293
 21
53.7647724151611
 31
0.0
  0
LINE
  5
   375
  8
0
  6
CONTINUOUS
 62
     1
 10
-478.522435098887
 20
61.5534439086914
 30
0.0
 11
-478.522435098887
 21
63.9760971069336
 31
0.0
  0
LINE
  5
   376
  8
0
  6
CONTINUOUS
 62
     1
 10
-478.522435098887
 20
-9.44655227661133
 30
0.0
 11
-478.522435098887
 21
-7.02390289306641
 31
0.0
  0
LINE
  5
   377
  8
0
  6
CONTINUOUS
 62
     1
 10
-475.272435188293
 20
-13.4852275848389
 30
0.0
 11
-475.272435188293
 21
68.0147724151611
 31
0.0
  0
LINE
  5
   378
  8
0
  6
CONTINUOUS
 62
     1
 10
-473.522435188293
 20
-13.4852275848389
 30
0.0
 11
-475.272435188293
 21
-13.4852275848389
 31
0.0
  0
LINE
  5
   379
  8
0
  6
CONTINUOUS
 62
     1
 10
-473.522435188293
 20
-13.4852294921875
 30
0.0
 11
-473.522435188293
 21
68.0147705078125
 31
0.0
  0
LINE
  5
   37A
  8
0
  6
CONTINUOUS
 62
     1
 10
-473.522435188293
 20
68.0147705078125
 30
0.0
 11
-474.022435188294
 21
68.0147705078125
 31
0.0
  0
LINE
  5
   37B
  8
0
  6
CONTINUOUS
 62
     1
 10
-474.522435188293
 20
68.0147705078125
 30
0.0
 11
-475.272435188293
 21
68.0147705078125
 31
0.0
  0
LINE
  5
   37C
  8
0
  6
CONTINUOUS
 62
     1
 10
-475.272435188293
 20
61.2647705078125
 30
0.0
 11
-478.022436697201
 21
61.2647705078125
 31
0.0
  0
LINE
  5
   37D
  8
0
  6
CONTINUOUS
 62
     1
 10
-475.272435188293
 20
64.2647705078125
 30
0.0
 11
-478.022433460623
 21
64.2647705078125
 31
0.0
  0
LINE
  5
   37E
  8
0
  6
CONTINUOUS
 62
     1
 10
-478.022434707875
 20
61.2647693592818
 30
0.0
 11
-478.522434724338
 21
61.55344276378
 31
0.0
  0
LINE
  5
   37F
  8
0
  6
CONTINUOUS
 62
     1
 10
-478.022435105737
 20
61.3789520263672
 30
0.0
 11
-478.022435105737
 21
61.7041091918945
 31
0.0
  0
LINE
  5
   380
  8
0
  6
CONTINUOUS
 62
     1
 10
-478.022435105737
 20
61.7041091918945
 30
0.0
 11
-478.022435105737
 21
62.1907501220703
 31
0.0
  0
LINE
  5
   381
  8
0
  6
CONTINUOUS
 62
     1
 10
-478.022435105737
 20
62.1907501220703
 30
0.0
 11
-478.022435105737
 21
62.7647705078125
 31
0.0
  0
LINE
  5
   382
  8
0
  6
CONTINUOUS
 62
     1
 10
-478.022435105737
 20
62.7647705078125
 30
0.0
 11
-478.022435105737
 21
63.3387985229492
 31
0.0
  0
LINE
  5
   383
  8
0
  6
CONTINUOUS
 62
     1
 10
-478.022435105737
 20
63.3387985229492
 30
0.0
 11
-478.022435105737
 21
63.8254318237305
 31
0.0
  0
LINE
  5
   384
  8
0
  6
CONTINUOUS
 62
     1
 10
-478.022435105737
 20
63.8254318237305
 30
0.0
 11
-478.022435105737
 21
64.1505889892578
 31
0.0
  0
LINE
  5
   385
  8
0
  6
CONTINUOUS
 62
     1
 10
-478.022435105737
 20
64.1505889892578
 30
0.0
 11
-478.022435105737
 21
64.2647705078125
 31
0.0
  0
LINE
  5
   386
  8
0
  6
CONTINUOUS
 62
     1
 10
-478.522435533475
 20
63.9760959160646
 30
0.0
 11
-478.022435517012
 21
64.2647693205628
 31
0.0
  0
LINE
  5
   387
  8
0
  6
CONTINUOUS
 62
     1
 10
-475.272435188293
 20
-6.73522758483887
 30
0.0
 11
-478.022434103181
 21
-6.73522758483887
 31
0.0
  0
LINE
  5
   388
  8
0
  6
CONTINUOUS
 62
     1
 10
-475.272435188293
 20
-9.73522758483887
 30
0.0
 11
-478.022435944961
 21
-9.73522758483887
 31
0.0
  0
LINE
  5
   389
  8
0
  6
CONTINUOUS
 62
     1
 10
-478.522435359961
 20
-7.02390359319227
 30
0.0
 11
-478.022435343497
 21
-6.73522830093572
 31
0.0
  0
LINE
  5
   38A
  8
0
  6
CONTINUOUS
 62
     1
 10
-478.022435089079
 20
-6.84940910339356
 30
0.0
 11
-478.022435089079
 21
-6.73522758483887
 31
0.0
  0
LINE
  5
   38B
  8
0
  6
CONTINUOUS
 62
     1
 10
-478.022435089091
 20
-7.17456817626954
 30
0.0
 11
-478.022435089091
 21
-6.84940910339356
 31
0.0
  0
LINE
  5
   38C
  8
0
  6
CONTINUOUS
 62
     1
 10
-478.022435089077
 20
-7.66120147705079
 30
0.0
 11
-478.022435089077
 21
-7.17456817626954
 31
0.0
  0
LINE
  5
   38D
  8
0
  6
CONTINUOUS
 62
     1
 10
-478.022435089112
 20
-8.23522758483887
 30
0.0
 11
-478.022435089112
 21
-7.66120147705079
 31
0.0
  0
LINE
  5
   38E
  8
0
  6
CONTINUOUS
 62
     1
 10
-478.02243508905
 20
-8.80925178527833
 30
0.0
 11
-478.02243508905
 21
-8.23522758483887
 31
0.0
  0
LINE
  5
   38F
  8
0
  6
CONTINUOUS
 62
     1
 10
-478.022435089077
 20
-9.29588699340821
 30
0.0
 11
-478.022435089077
 21
-8.80925178527833
 31
0.0
  0
LINE
  5
   390
  8
0
  6
CONTINUOUS
 62
     1
 10
-478.02243508909
 20
-9.62104606628419
 30
0.0
 11
-478.02243508909
 21
-9.29588699340821
 31
0.0
  0
LINE
  5
   391
  8
0
  6
CONTINUOUS
 62
     1
 10
-478.022434881917
 20
-9.73522819858839
 30
0.0
 11
-478.522434898381
 21
-9.44655290633185
 31
0.0
  0
LINE
  5
   392
  8
0
  6
CONTINUOUS
 62
     1
 10
-478.022435089079
 20
-9.73522758483887
 30
0.0
 11
-478.022435089079
 21
-9.62104606628419
 31
0.0
  0
LINE
  5
   393
  8
0
  6
CONTINUOUS
 62
     1
 10
-474.022435188294
 20
68.0147705078125
 30
0.0
 11
-474.522435188293
 21
68.0147705078125
 31
0.0
  0
LINE
  5
   394
  8
0
  6
CONTINUOUS
 62
     7
 10
-475.272435188293
 20
68.0147705078125
 30
0.0
 11
-475.272435188293
 21
93.4320196779012
 31
0.0
  0
LINE
  5
   395
  8
0
  6
CONTINUOUS
 62
     7
 10
-476.272435188293
 20
54.7647705078125
 30
0.0
 11
-476.272435188293
 21
61.2647705078125
 31
0.0
  0
LINE
  5
   396
  8
0
  6
CONTINUOUS
 62
     7
 10
-475.272435188293
 20
-48.2405699424528
 30
0.0
 11
-475.272435188293
 21
-13.4852275848389
 31
0.0
  0
LINE
  5
   397
  8
0
  6
CONTINUOUS
 62
     7
 10
-476.272435188293
 20
-48.0405699424528
 30
0.0
 11
-476.272435188293
 21
-9.73522758483887
 31
0.0
  0
LINE
  5
   398
  8
0
  6
CONTINUOUS
 62
     7
 10
-470.582590640854
 20
-49.1785388519406
 30
0.0
 11
-479.099126593896
 21
-47.4752316613323
 31
0.0
  0
LINE
  5
   399
  8
0
  6
CONTINUOUS
 62
     7
 10
-471.201975073803
 20
91.2668813191294
 30
0.0
 11
-478.479742160947
 21
95.1380340250575
 31
0.0
  0
LINE
  5
   39A
  8
0
  6
CONTINUOUS
 62
     7
 10
-475.272435188293
 20
64.5147705078125
 30
0.0
 11
-476.272435188293
 21
64.5147705078125
 31
0.0
  0
LINE
  5
   39B
  8
0
  6
CONTINUOUS
 62
     7
 10
-475.272435188293
 20
61.0147705078125
 30
0.0
 11
-476.272435188293
 21
61.0147705078125
 31
0.0
  0
LINE
  5
   39C
  8
0
  6
CONTINUOUS
 62
     7
 10
-475.272435188293
 20
55.2647705078125
 30
0.0
 11
-476.272435188293
 21
55.2647705078125
 31
0.0
  0
LINE
  5
   39D
  8
0
  6
CONTINUOUS
 62
     7
 10
-475.272435188293
 20
-0.735227584838867
 30
0.0
 11
-476.272435188293
 21
-0.735227584838867
 31
0.0
  0
LINE
  5
   39E
  8
0
  6
CONTINUOUS
 62
     7
 10
-475.272435188293
 20
-6.48522758483887
 30
0.0
 11
-476.272435188293
 21
-6.48522758483887
 31
0.0
  0
LINE
  5
   39F
  8
0
  6
CONTINUOUS
 62
     7
 10
-475.272435188293
 20
-9.98522758483887
 30
0.0
 11
-476.272435188293
 21
-9.98522758483887
 31
0.0
  0
LINE
  5
   3A0
  8
0
  6
CONTINUOUS
 62
     7
 10
-476.272435188293
 20
-6.73522758483887
 30
0.0
 11
-476.272435188293
 21
-0.235227584838867
 31
0.0
  0
LINE
  5
   3A1
  8
0
  6
CONTINUOUS
 62
     7
 10
-476.272435188293
 20
64.2647705078125
 30
0.0
 11
-476.272435188293
 21
93.9639345715182
 31
0.0
  0
INSERT
  5
   3A2
  8
0
  6
CONTINUOUS
 62
     7
  2
*HATCH1316
 10
-478.2724609375
 20
-27.7255401611328
 30
0.0
 41
0.5
 42
0.5
 50
89.9999999480344
 43
0.5
  0
INSERT
  5
   3A3
  8
0
  6
CONTINUOUS
 62
     7
  2
*HATCH1317
 10
-478.2724609375
 20
-27.7255401611328
 30
0.0
 41
0.5
 42
0.5
 50
89.9999999480344
 43
0.5
  0
INSERT
  5
   3A4
  8
0
  6
CONTINUOUS
 62
     7
  2
*HATCH1318
 10
-478.2724609375
 20
-27.7255401611328
 30
0.0
 41
0.5
 42
0.5
 50
89.9999999480344
 43
0.5
  0
INSERT
  5
   3A5
  8
0
  6
CONTINUOUS
 62
     7
  2
*HATCH1319
 10
-478.2724609375
 20
-27.7255401611328
 30
0.0
 41
0.5
 42
0.5
 50
89.9999999480344
 43
0.5
  0
LINE
  5
   3A6
  8
0
  6
CONTINUOUS
 62
     7
 10
-479.522438049316
 20
91.1429824829102
 30
0.0
 11
-528.772476196521
 21
91.1429824829102
 31
0.0
  0
LINE
  5
   3A7
  8
0
  6
CONTINUOUS
 62
     7
 10
-479.022438049316
 20
78.1429995727362
 30
0.0
 11
-479.022438049316
 21
90.6429824829102
 31
0.0
  0
LINE
  5
   3A8
  8
0
  6
CONTINUOUS
 62
     7
 10
-479.022438049316
 20
-37.8569851684747
 30
0.0
 11
-479.022438049316
 21
-25.6069927978695
 31
0.0
  0
LINE
  5
   3A9
  8
0
  6
CONTINUOUS
 62
     7
 10
-479.522438049316
 20
-38.3569851684747
 30
0.0
 11
-528.772430896759
 21
-38.3569851684747
 31
0.0
  0
LINE
  5
   3AA
  8
0
  6
CONTINUOUS
 62
     7
 10
-479.522438049316
 20
-25.6069927978695
 30
0.0
 11
-479.522438049316
 21
-25.1069927978695
 31
0.0
  0
LINE
  5
   3AB
  8
0
  6
CONTINUOUS
 62
     7
 10
-479.022438049316
 20
-25.6069927978695
 30
0.0
 11
-479.522438049316
 21
-25.6069927978695
 31
0.0
  0
LINE
  5
   3AC
  8
0
  6
CONTINUOUS
 62
     7
 10
-479.522438049316
 20
77.6429995727363
 30
0.0
 11
-479.522438049316
 21
78.1429995727362
 31
0.0
  0
LINE
  5
   3AD
  8
0
  6
CONTINUOUS
 62
     7
 10
-479.022438049316
 20
78.1429995727362
 30
0.0
 11
-479.522438049316
 21
78.1429995727362
 31
0.0
  0
ARC
  5
   3AE
  8
0
  6
CONTINUOUS
 62
     7
 10
-479.522438049316
 20
-37.8569851684747
 30
0.0
 40
0.5
 50
269.999999948034
 51
359.999999948034
  0
ARC
  5
   3AF
  8
0
  6
CONTINUOUS
 62
     7
 10
-479.522438049316
 20
90.6429824829102
 30
0.0
 40
0.5
 50
359.999999948034
 51
449.999999948034
  0
LINE
  5
   3B0
  8
0
  6
DASHDOT
 62
     7
 10
-465.128315217424
 20
27.2679995727362
 30
0.0
 11
-567.974319643318
 21
27.2679995727362
 31
0.0
  0
LINE
  5
   3B1
  8
0
  6
CONTINUOUS
 62
   212
 10
-578.522438049317
 20
78.8929748535156
 30
0.0
 11
-578.522438049317
 21
82.8929748535156
 31
0.0
  0
LINE
  5
   3B2
  8
0
  6
CONTINUOUS
 62
   212
 10
-578.522435489608
 20
82.8929756698187
 30
0.0
 11
-577.522435523837
 21
83.8929756355902
 31
0.0
  0
LINE
  5
   3B3
  8
0
  6
CONTINUOUS
 62
   212
 10
-577.522438049316
 20
77.8929748535156
 30
0.0
 11
-577.522438049316
 21
83.8929748535156
 31
0.0
  0
LINE
  5
   3B4
  8
0
  6
CONTINUOUS
 62
   212
 10
-577.172439575195
 20
83.8929748535156
 30
0.0
 11
-577.522438049316
 21
83.8929748535156
 31
0.0
  0
LINE
  5
   3B5
  8
0
  6
CONTINUOUS
 62
   212
 10
-577.172439575195
 20
77.8929748535156
 30
0.0
 11
-577.522438049316
 21
77.8929748535156
 31
0.0
  0
LINE
  5
   3B6
  8
0
  6
CONTINUOUS
 62
   212
 10
-577.522435530366
 20
77.8929740910276
 30
0.0
 11
-578.522435496137
 21
78.8929740567991
 31
0.0
  0
LINE
  5
   3B7
  8
0
  6
CONTINUOUS
 62
     3
 10
-577.172439575195
 20
75.4081473350525
 30
0.0
 11
-577.172439575195
 21
86.3778023719788
 31
0.0
  0
LINE
  5
   3B8
  8
0
  6
CONTINUOUS
 62
     3
 10
-574.172439575195
 20
86.3778023719788
 30
0.0
 11
-577.172439575195
 21
86.3778023719788
 31
0.0
  0
LINE
  5
   3B9
  8
0
  6
CONTINUOUS
 62
     3
 10
-574.172439575195
 20
83.6353886127472
 30
0.0
 11
-577.172439575195
 21
83.6353886127472
 31
0.0
  0
LINE
  5
   3BA
  8
0
  6
CONTINUOUS
 62
     3
 10
-574.172439575195
 20
78.1505610942841
 30
0.0
 11
-577.172439575195
 21
78.1505610942841
 31
0.0
  0
LINE
  5
   3BB
  8
0
  6
CONTINUOUS
 62
     3
 10
-574.172439575195
 20
75.4081473350525
 30
0.0
 11
-577.172439575195
 21
75.4081473350525
 31
0.0
  0
LINE
  5
   3BC
  8
0
  6
CONTINUOUS
 62
     7
 10
-574.172439575195
 20
75.3929748535156
 30
0.0
 11
-574.172439575195
 21
86.3929748535156
 31
0.0
  0
LINE
  5
   3BD
  8
0
  6
CONTINUOUS
 62
     7
 10
-572.922439575195
 20
75.3929748535156
 30
0.0
 11
-572.922439575195
 21
86.3929748535156
 31
0.0
  0
LINE
  5
   3BE
  8
0
  6
CONTINUOUS
 62
     7
 10
-572.922439575195
 20
75.3929748535156
 30
0.0
 11
-574.172439575195
 21
75.3929748535156
 31
0.0
  0
LINE
  5
   3BF
  8
0
  6
CONTINUOUS
 62
     7
 10
-572.922439575195
 20
86.3929748535156
 30
0.0
 11
-574.172439575195
 21
86.3929748535156
 31
0.0
  0
LINE
  5
   3C0
  8
0
  6
CONTINUOUS
 62
   212
 10
-569.922439575195
 20
83.8929748535156
 30
0.0
 11
-572.922439575195
 21
83.8929748535156
 31
0.0
  0
LINE
  5
   3C1
  8
0
  6
CONTINUOUS
 62
     3
 10
-569.922439575195
 20
83.3929748535156
 30
0.0
 11
-572.922439575195
 21
83.3929748535156
 31
0.0
  0
LINE
  5
   3C2
  8
0
  6
CONTINUOUS
 62
     3
 10
-569.922439575195
 20
78.3929748535156
 30
0.0
 11
-572.922439575195
 21
78.3929748535156
 31
0.0
  0
LINE
  5
   3C3
  8
0
  6
CONTINUOUS
 62
   212
 10
-569.922439575195
 20
77.8929748535156
 30
0.0
 11
-572.922439575195
 21
77.8929748535156
 31
0.0
  0
LINE
  5
   3C4
  8
0
  6
CONTINUOUS
 62
     7
 10
-569.922439575195
 20
75.3929748535156
 30
0.0
 11
-569.922439575195
 21
86.3929748535156
 31
0.0
  0
LINE
  5
   3C5
  8
0
  6
CONTINUOUS
 62
     7
 10
-568.672439575195
 20
75.3929748535156
 30
0.0
 11
-568.672439575195
 21
86.3929748535156
 31
0.0
  0
LINE
  5
   3C6
  8
0
  6
CONTINUOUS
 62
     7
 10
-568.672439575195
 20
86.3929748535156
 30
0.0
 11
-569.922439575195
 21
86.3929748535156
 31
0.0
  0
LINE
  5
   3C7
  8
0
  6
CONTINUOUS
 62
     3
 10
-565.672439575195
 20
86.3778023719788
 30
0.0
 11
-568.672439575195
 21
86.3778023719788
 31
0.0
  0
LINE
  5
   3C8
  8
0
  6
CONTINUOUS
 62
     3
 10
-565.672439575195
 20
83.6353886127472
 30
0.0
 11
-568.672439575195
 21
83.6353886127472
 31
0.0
  0
LINE
  5
   3C9
  8
0
  6
CONTINUOUS
 62
     3
 10
-565.672439575195
 20
78.1505610942841
 30
0.0
 11
-568.672439575195
 21
78.1505610942841
 31
0.0
  0
LINE
  5
   3CA
  8
0
  6
CONTINUOUS
 62
     3
 10
-565.672439575195
 20
75.4081473350525
 30
0.0
 11
-568.672439575195
 21
75.4081473350525
 31
0.0
  0
LINE
  5
   3CB
  8
0
  6
CONTINUOUS
 62
     7
 10
-568.672439575195
 20
75.3929748535156
 30
0.0
 11
-569.922439575195
 21
75.3929748535156
 31
0.0
  0
LINE
  5
   3CC
  8
0
  6
CONTINUOUS
 62
     3
 10
-565.672439575195
 20
75.4081473350525
 30
0.0
 11
-565.672439575195
 21
86.3778023719788
 31
0.0
  0
LINE
  5
   3CD
  8
0
  6
CONTINUOUS
 62
   212
 10
-565.172439575195
 20
77.8929748535156
 30
0.0
 11
-565.672439575195
 21
77.8929748535156
 31
0.0
  0
LINE
  5
   3CE
  8
0
  6
CONTINUOUS
 62
   212
 10
-565.172439575195
 20
83.8929748535156
 30
0.0
 11
-565.672439575195
 21
83.8929748535156
 31
0.0
  0
LINE
  5
   3CF
  8
0
  6
CONTINUOUS
 62
     3
 10
-565.172439575195
 20
75.4081473350525
 30
0.0
 11
-565.172439575195
 21
86.3778023719788
 31
0.0
  0
LINE
  5
   3D0
  8
0
  6
CONTINUOUS
 62
     3
 10
-562.172439575195
 20
86.3778023719788
 30
0.0
 11
-565.172439575195
 21
86.3778023719788
 31
0.0
  0
LINE
  5
   3D1
  8
0
  6
CONTINUOUS
 62
     3
 10
-562.172439575195
 20
83.6353886127472
 30
0.0
 11
-565.172439575195
 21
83.6353886127472
 31
0.0
  0
LINE
  5
   3D2
  8
0
  6
CONTINUOUS
 62
     3
 10
-562.172439575195
 20
78.1505610942841
 30
0.0
 11
-565.172439575195
 21
78.1505610942841
 31
0.0
  0
LINE
  5
   3D3
  8
0
  6
CONTINUOUS
 62
     3
 10
-562.172439575195
 20
75.4081473350525
 30
0.0
 11
-565.172439575195
 21
75.4081473350525
 31
0.0
  0
LINE
  5
   3D4
  8
0
  6
CONTINUOUS
 62
     3
 10
-562.172439575195
 20
75.4081473350525
 30
0.0
 11
-562.172439575195
 21
76.0762572288513
 31
0.0
  0
LINE
  5
   3D5
  8
0
  6
CONTINUOUS
 62
     7
 10
-562.172439575195
 20
76.0762577056885
 30
0.0
 11
-562.172439575195
 21
86.3778023719788
 31
0.0
  0
LINE
  5
   3D6
  8
0
  6
CONTINUOUS
 62
     7
 10
-561.772438049316
 20
85.8929748535156
 30
0.0
 11
-562.172439575195
 21
85.8929748535156
 31
0.0
  0
LINE
  5
   3D7
  8
0
  6
CONTINUOUS
 62
     7
 10
-561.772438049316
 20
75.8929748535156
 30
0.0
 11
-562.172439575195
 21
75.8929748535156
 31
0.0
  0
LINE
  5
   3D8
  8
0
  6
CONTINUOUS
 62
   253
 10
-565.172439575195
 20
85.8929748535156
 30
0.0
 11
-565.672439575195
 21
85.8929748535156
 31
0.0
  0
LINE
  5
   3D9
  8
0
  6
CONTINUOUS
 62
   253
 10
-569.922439575195
 20
85.8929748535156
 30
0.0
 11
-572.922439575195
 21
85.8929748535156
 31
0.0
  0
LINE
  5
   3DA
  8
0
  6
CONTINUOUS
 62
   253
 10
-577.172439575195
 20
85.8929748535156
 30
0.0
 11
-587.2724609375
 21
85.8929748535156
 31
0.0
  0
LINE
  5
   3DB
  8
0
  6
CONTINUOUS
 62
   253
 10
-577.172439575195
 20
75.8929748535156
 30
0.0
 11
-587.2724609375
 21
75.8929748535156
 31
0.0
  0
LINE
  5
   3DC
  8
0
  6
CONTINUOUS
 62
   253
 10
-569.922439575195
 20
75.8929748535156
 30
0.0
 11
-572.922439575195
 21
75.8929748535156
 31
0.0
  0
LINE
  5
   3DD
  8
0
  6
CONTINUOUS
 62
     7
 10
-557.622453308106
 20
58.1929824829101
 30
0.0
 11
-557.622453308106
 21
62.0929824829101
 31
0.0
  0
LINE
  5
   3DE
  8
0
  6
CONTINUOUS
 62
     7
 10
-559.222453308105
 20
59.1429824829101
 30
0.0
 11
-559.222453308105
 21
61.1429824829101
 31
0.0
  0
LINE
  5
   3DF
  8
0
  6
CONTINUOUS
 62
     7
 10
-556.022453308105
 20
62.0929824829101
 30
0.0
 11
-557.622453308106
 21
62.0929824829101
 31
0.0
  0
LINE
  5
   3E0
  8
0
  6
CONTINUOUS
 62
     7
 10
-556.022453308105
 20
58.1929824829101
 30
0.0
 11
-557.622453308106
 21
58.1929824829101
 31
0.0
  0
LINE
  5
   3E1
  8
0
  6
CONTINUOUS
 62
     7
 10
-556.022453308105
 20
61.1429824829101
 30
0.0
 11
-559.222453308105
 21
61.1429824829101
 31
0.0
  0
LINE
  5
   3E2
  8
0
  6
CONTINUOUS
 62
     7
 10
-556.022453308105
 20
59.1429824829101
 30
0.0
 11
-559.222453308105
 21
59.1429824829101
 31
0.0
  0
LINE
  5
   3E3
  8
0
  6
CONTINUOUS
 62
     7
 10
-556.022453308105
 20
-5.40701751708984
 30
0.0
 11
-557.622453308106
 21
-5.40701751708984
 31
0.0
  0
LINE
  5
   3E4
  8
0
  6
CONTINUOUS
 62
     7
 10
-556.022453308105
 20
-6.35701751708984
 30
0.0
 11
-559.222453308105
 21
-6.35701751708984
 31
0.0
  0
LINE
  5
   3E5
  8
0
  6
CONTINUOUS
 62
     7
 10
-556.022453308105
 20
-8.35701751708984
 30
0.0
 11
-559.222453308105
 21
-8.35701751708984
 31
0.0
  0
LINE
  5
   3E6
  8
0
  6
CONTINUOUS
 62
     7
 10
-556.022453308105
 20
-9.30701751708985
 30
0.0
 11
-557.622453308106
 21
-9.30701751708985
 31
0.0
  0
LINE
  5
   3E7
  8
0
  6
CONTINUOUS
 62
     7
 10
-557.622453308106
 20
-9.30701751708985
 30
0.0
 11
-557.622453308106
 21
-5.40701751708984
 31
0.0
  0
LINE
  5
   3E8
  8
0
  6
CONTINUOUS
 62
     7
 10
-559.222453308105
 20
-8.35701751708984
 30
0.0
 11
-559.222453308105
 21
-6.35701751708984
 31
0.0
  0
CIRCLE
  5
   3E9
  8
0
  6
CONTINUOUS
 62
     7
 10
-557.419469333333
 20
60.1776640530159
 30
0.0
 40
0.1
  0
LINE
  5
   3EA
  8
0
  6
CONTINUOUS
 62
   253
 10
-565.172439575195
 20
-33.1070251464844
 30
0.0
 11
-565.672439575195
 21
-33.1070251464844
 31
0.0
  0
LINE
  5
   3EB
  8
0
  6
CONTINUOUS
 62
   212
 10
-578.522438049317
 20
-30.1070251464844
 30
0.0
 11
-578.522438049317
 21
-26.1070251464844
 31
0.0
  0
LINE
  5
   3EC
  8
0
  6
CONTINUOUS
 62
   212
 10
-578.522435489608
 20
-26.1070243301813
 30
0.0
 11
-577.522435523837
 21
-25.1070243644098
 31
0.0
  0
LINE
  5
   3ED
  8
0
  6
CONTINUOUS
 62
   212
 10
-577.522438049316
 20
-31.1070251464844
 30
0.0
 11
-577.522438049316
 21
-25.1070251464844
 31
0.0
  0
LINE
  5
   3EE
  8
0
  6
CONTINUOUS
 62
   212
 10
-577.172439575195
 20
-25.1070251464844
 30
0.0
 11
-577.522438049316
 21
-25.1070251464844
 31
0.0
  0
LINE
  5
   3EF
  8
0
  6
CONTINUOUS
 62
   212
 10
-577.172439575195
 20
-31.1070251464844
 30
0.0
 11
-577.522438049316
 21
-31.1070251464844
 31
0.0
  0
LINE
  5
   3F0
  8
0
  6
CONTINUOUS
 62
   212
 10
-577.522435530366
 20
-31.1070259089724
 30
0.0
 11
-578.522435496137
 21
-30.1070259432009
 31
0.0
  0
LINE
  5
   3F1
  8
0
  6
CONTINUOUS
 62
     3
 10
-577.172439575195
 20
-33.5918526649475
 30
0.0
 11
-577.172439575195
 21
-22.6221976280212
 31
0.0
  0
LINE
  5
   3F2
  8
0
  6
CONTINUOUS
 62
     3
 10
-574.172439575195
 20
-22.6221976280212
 30
0.0
 11
-577.172439575195
 21
-22.6221976280212
 31
0.0
  0
LINE
  5
   3F3
  8
0
  6
CONTINUOUS
 62
     3
 10
-574.172439575195
 20
-25.3646113872528
 30
0.0
 11
-577.172439575195
 21
-25.3646113872528
 31
0.0
  0
LINE
  5
   3F4
  8
0
  6
CONTINUOUS
 62
     3
 10
-574.172439575195
 20
-30.8494389057159
 30
0.0
 11
-577.172439575195
 21
-30.8494389057159
 31
0.0
  0
LINE
  5
   3F5
  8
0
  6
CONTINUOUS
 62
     3
 10
-574.172439575195
 20
-33.5918526649475
 30
0.0
 11
-577.172439575195
 21
-33.5918526649475
 31
0.0
  0
LINE
  5
   3F6
  8
0
  6
CONTINUOUS
 62
     7
 10
-574.172439575195
 20
-33.6070251464844
 30
0.0
 11
-574.172439575195
 21
-22.6070251464844
 31
0.0
  0
LINE
  5
   3F7
  8
0
  6
CONTINUOUS
 62
     7
 10
-572.922439575195
 20
-33.6070251464844
 30
0.0
 11
-572.922439575195
 21
-22.6070251464844
 31
0.0
  0
LINE
  5
   3F8
  8
0
  6
CONTINUOUS
 62
     7
 10
-572.922439575195
 20
-33.6070251464844
 30
0.0
 11
-574.172439575195
 21
-33.6070251464844
 31
0.0
  0
LINE
  5
   3F9
  8
0
  6
CONTINUOUS
 62
     7
 10
-572.922439575195
 20
-22.6070251464844
 30
0.0
 11
-574.172439575195
 21
-22.6070251464844
 31
0.0
  0
LINE
  5
   3FA
  8
0
  6
CONTINUOUS
 62
   212
 10
-569.922439575195
 20
-25.1070251464844
 30
0.0
 11
-572.922439575195
 21
-25.1070251464844
 31
0.0
  0
LINE
  5
   3FB
  8
0
  6
CONTINUOUS
 62
     3
 10
-569.922439575195
 20
-25.6070251464844
 30
0.0
 11
-572.922439575195
 21
-25.6070251464844
 31
0.0
  0
LINE
  5
   3FC
  8
0
  6
CONTINUOUS
 62
     3
 10
-569.922439575195
 20
-30.6070251464844
 30
0.0
 11
-572.922439575195
 21
-30.6070251464844
 31
0.0
  0
LINE
  5
   3FD
  8
0
  6
CONTINUOUS
 62
   212
 10
-569.922439575195
 20
-31.1070251464844
 30
0.0
 11
-572.922439575195
 21
-31.1070251464844
 31
0.0
  0
LINE
  5
   3FE
  8
0
  6
CONTINUOUS
 62
     7
 10
-569.922439575195
 20
-33.6070251464844
 30
0.0
 11
-569.922439575195
 21
-22.6070251464844
 31
0.0
  0
LINE
  5
   3FF
  8
0
  6
CONTINUOUS
 62
     7
 10
-568.672439575195
 20
-33.6070251464844
 30
0.0
 11
-568.672439575195
 21
-22.6070251464844
 31
0.0
  0
LINE
  5
   400
  8
0
  6
CONTINUOUS
 62
     7
 10
-568.672439575195
 20
-22.6070251464844
 30
0.0
 11
-569.922439575195
 21
-22.6070251464844
 31
0.0
  0
LINE
  5
   401
  8
0
  6
CONTINUOUS
 62
     3
 10
-565.672439575195
 20
-22.6221976280212
 30
0.0
 11
-568.672439575195
 21
-22.6221976280212
 31
0.0
  0
LINE
  5
   402
  8
0
  6
CONTINUOUS
 62
     3
 10
-565.672439575195
 20
-25.3646113872528
 30
0.0
 11
-568.672439575195
 21
-25.3646113872528
 31
0.0
  0
LINE
  5
   403
  8
0
  6
CONTINUOUS
 62
     3
 10
-565.672439575195
 20
-30.8494389057159
 30
0.0
 11
-568.672439575195
 21
-30.8494389057159
 31
0.0
  0
LINE
  5
   404
  8
0
  6
CONTINUOUS
 62
     3
 10
-565.672439575195
 20
-33.5918526649475
 30
0.0
 11
-568.672439575195
 21
-33.5918526649475
 31
0.0
  0
LINE
  5
   405
  8
0
  6
CONTINUOUS
 62
     7
 10
-568.672439575195
 20
-33.6070251464844
 30
0.0
 11
-569.922439575195
 21
-33.6070251464844
 31
0.0
  0
LINE
  5
   406
  8
0
  6
CONTINUOUS
 62
     3
 10
-565.672439575195
 20
-33.5918526649475
 30
0.0
 11
-565.672439575195
 21
-22.6221976280212
 31
0.0
  0
LINE
  5
   407
  8
0
  6
CONTINUOUS
 62
   212
 10
-565.172439575195
 20
-31.1070251464844
 30
0.0
 11
-565.672439575195
 21
-31.1070251464844
 31
0.0
  0
LINE
  5
   408
  8
0
  6
CONTINUOUS
 62
   212
 10
-565.172439575195
 20
-25.1070251464844
 30
0.0
 11
-565.672439575195
 21
-25.1070251464844
 31
0.0
  0
LINE
  5
   409
  8
0
  6
CONTINUOUS
 62
     3
 10
-565.172439575195
 20
-33.5918526649475
 30
0.0
 11
-565.172439575195
 21
-22.6221976280212
 31
0.0
  0
LINE
  5
   40A
  8
0
  6
CONTINUOUS
 62
     3
 10
-562.172439575195
 20
-22.6221976280212
 30
0.0
 11
-565.172439575195
 21
-22.6221976280212
 31
0.0
  0
LINE
  5
   40B
  8
0
  6
CONTINUOUS
 62
     3
 10
-562.172439575195
 20
-25.3646113872528
 30
0.0
 11
-565.172439575195
 21
-25.3646113872528
 31
0.0
  0
LINE
  5
   40C
  8
0
  6
CONTINUOUS
 62
     3
 10
-562.172439575195
 20
-30.8494389057159
 30
0.0
 11
-565.172439575195
 21
-30.8494389057159
 31
0.0
  0
LINE
  5
   40D
  8
0
  6
CONTINUOUS
 62
     3
 10
-562.172439575195
 20
-33.5918526649475
 30
0.0
 11
-565.172439575195
 21
-33.5918526649475
 31
0.0
  0
LINE
  5
   40E
  8
0
  6
CONTINUOUS
 62
     3
 10
-562.172439575195
 20
-33.5918526649475
 30
0.0
 11
-562.172439575195
 21
-32.9237427711487
 31
0.0
  0
LINE
  5
   40F
  8
0
  6
CONTINUOUS
 62
     7
 10
-562.172439575195
 20
-32.9237422943115
 30
0.0
 11
-562.172439575195
 21
-22.6221976280212
 31
0.0
  0
LINE
  5
   410
  8
0
  6
CONTINUOUS
 62
     7
 10
-561.772438049316
 20
-23.1070251464844
 30
0.0
 11
-562.172439575195
 21
-23.1070251464844
 31
0.0
  0
LINE
  5
   411
  8
0
  6
CONTINUOUS
 62
     7
 10
-561.772438049316
 20
-33.1070251464844
 30
0.0
 11
-562.172439575195
 21
-33.1070251464844
 31
0.0
  0
LINE
  5
   412
  8
0
  6
CONTINUOUS
 62
   253
 10
-565.172439575195
 20
-23.1070251464844
 30
0.0
 11
-565.672439575195
 21
-23.1070251464844
 31
0.0
  0
LINE
  5
   413
  8
0
  6
CONTINUOUS
 62
   253
 10
-569.922439575195
 20
-23.1070251464844
 30
0.0
 11
-572.922439575195
 21
-23.1070251464844
 31
0.0
  0
LINE
  5
   414
  8
0
  6
CONTINUOUS
 62
   253
 10
-569.922439575195
 20
-33.1070251464844
 30
0.0
 11
-572.922439575195
 21
-33.1070251464844
 31
0.0
  0
INSERT
  5
   415
  8
0
  6
CONTINUOUS
 62
     7
  2
*UDIM2387
 10
0.0
 20
0.0
 30
0.0
  0
INSERT
  5
   416
  8
0
  6
CONTINUOUS
 62
     7
  2
*UDIM2388
 10
0.0
 20
0.0
 30
0.0
  0
TEXT
  5
   417
  8
0
  6
CONTINUOUS
 62
     7
 10
-449.355192199144
 20
10.8588276039883
 30
0.0
 40
3.00000002980232
  1
=          =
 50
89.9999999480344
 41
0.916666604744064
 72
     2
 11
-449.355192169753
 21
43.3088257299189
 31
0.0
  0
INSERT
  5
   418
  8
0
  6
CONTINUOUS
 62
     7
  2
*UDIM2389
 10
0.0
 20
0.0
 30
0.0
  0
INSERT
  5
   419
  8
0
  6
CONTINUOUS
 62
     7
  2
*UDIM2390
 10
0.0
 20
0.0
 30
0.0
  0
INSERT
  5
   41A
  8
0
  6
CONTINUOUS
 62
     7
  2
*UDIM2391
 10
0.0
 20
0.0
 30
0.0
  0
INSERT
  5
   41B
  8
0
  6
CONTINUOUS
 62
     7
  2
*UDIM2392
 10
0.0
 20
0.0
 30
0.0
  0
INSERT
  5
   41C
  8
0
  6
CONTINUOUS
 62
     7
  2
*UDIM2393
 10
0.0
 20
0.0
 30
0.0
  0
INSERT
  5
   41D
  8
0
  6
CONTINUOUS
 62
     7
  2
*UDIM2394
 10
0.0
 20
0.0
 30
0.0
  0
INSERT
  5
   41E
  8
0
  6
CONTINUOUS
 62
     7
  2
*UDIM2395
 10
0.0
 20
0.0
 30
0.0
  0
INSERT
  5
   41F
  8
0
  6
CONTINUOUS
 62
     7
  2
*UDIM2396
 10
0.0
 20
0.0
 30
0.0
  0
TEXT
  5
   420
  8
0
  6
CONTINUOUS
 62
     7
 10
-447.76081839339
 20
26.1261299199835
 30
0.0
 40
3.00000002980232
  1
X
 50
359.999999948034
 41
0.916666604744064
 72
     1
 11
-446.660818457602
 21
27.6261299338925
 31
0.0
 73
     2
  0
LINE
  5
   421
  8
0
  6
CONTINUOUS
 62
     7
 10
-687.421344939347
 20
1.01800537109375
 30
0.0
 11
-692.421344939347
 21
1.01800537109375
 31
0.0
  0
LINE
  5
   422
  8
0
  6
CONTINUOUS
 62
     7
 10
-699.921344939347
 20
52.5179901123047
 30
0.0
 11
-699.921344939347
 21
53.5179901123047
 31
0.0
  0
LINE
  5
   423
  8
0
  6
CONTINUOUS
 62
     7
 10
-673.671360198136
 20
1.01800537109375
 30
0.0
 11
-687.421344939347
 21
1.01800537109375
 31
0.0
  0
LINE
  5
   424
  8
0
  6
CONTINUOUS
 62
    52
 10
-654.921375456925
 20
1.01800537109375
 30
0.0
 11
-659.921375456925
 21
1.01800537109375
 31
0.0
  0
LINE
  5
   425
  8
0
  6
CONTINUOUS
 62
    52
 10
-659.921375456925
 20
1.01800537109375
 30
0.0
 11
-673.671360198136
 21
1.01800537109375
 31
0.0
  0
LINE
  5
   426
  8
0
  6
CONTINUOUS
 62
     7
 10
-699.921344939347
 20
67.5179862976055
 30
0.0
 11
-699.921344939347
 21
77.6429901123047
 31
0.0
  0
LINE
  5
   427
  8
0
  6
CONTINUOUS
 62
     7
 10
-647.421375456925
 20
67.5179862976055
 30
0.0
 11
-647.421375456925
 21
77.6429901123047
 31
0.0
  0
LINE
  5
   428
  8
0
  6
DASHDOT
 62
     3
 10
-679.546351026635
 20
1.14301390556183
 30
0.0
 11
-685.296338391138
 21
1.14301390556183
 31
0.0
  0
LINE
  5
   429
  8
0
  6
DASHDOT
 62
     3
 10
-662.046147939881
 20
1.14279278254995
 30
0.0
 11
-667.79650551716
 21
1.14279278254995
 31
0.0
  0
LINE
  5
   42A
  8
0
  6
CONTINUOUS
 62
     7
 10
-687.421352568741
 20
1.01800537109375
 30
0.0
 11
-692.421344939347
 21
1.01800537109375
 31
0.0
  0
LINE
  5
   42B
  8
0
  6
CONTINUOUS
 62
     7
 10
-654.921360198136
 20
1.01800537109375
 30
0.0
 11
-659.921360198136
 21
1.01800537109375
 31
0.0
  0
LINE
  5
   42C
  8
0
  6
CONTINUOUS
 62
     7
 10
-647.421344939347
 20
1.26800537109375
 30
0.0
 11
-647.421344939347
 21
10.2679977416992
 31
0.0
  0
LINE
  5
   42D
  8
0
  6
CONTINUOUS
 62
     7
 10
-699.921344939347
 20
1.26800537109375
 30
0.0
 11
-699.921344939347
 21
10.2679977416992
 31
0.0
  0
LINE
  5
   42E
  8
0
  6
CONTINUOUS
 62
     7
 10
-647.671344939347
 20
53.5180053710937
 30
0.0
 11
-699.671344939333
 21
53.5180053710937
 31
0.0
  0
LINE
  5
   42F
  8
0
  6
CONTINUOUS
 62
     7
 10
-692.421344939347
 20
1.01800537109375
 30
0.0
 11
-699.671344939347
 21
1.01800537109375
 31
0.0
  0
LINE
  5
   430
  8
0
  6
CONTINUOUS
 62
     7
 10
-659.921360198136
 20
1.01800537109375
 30
0.0
 11
-687.421352568741
 21
1.01800537109375
 31
0.0
  0
LINE
  5
   431
  8
0
  6
CONTINUOUS
 62
     7
 10
-647.671344939347
 20
1.01800537109375
 30
0.0
 11
-654.921360198136
 21
1.01800537109375
 31
0.0
  0
LINE
  5
   432
  8
0
  6
CONTINUOUS
 62
     7
 10
-668.296344939347
 20
12.1429977416992
 30
0.0
 11
-668.296344939347
 21
32.1429901123047
 31
0.0
  0
LINE
  5
   433
  8
0
  6
CONTINUOUS
 62
     7
 10
-679.046344939347
 20
12.1429977416992
 30
0.0
 11
-679.046344939347
 21
32.1429901123047
 31
0.0
  0
LINE
  5
   434
  8
0
  6
CONTINUOUS
 62
     7
 10
-647.421344939347
 20
47.5179901123047
 30
0.0
 11
-699.921344939347
 21
47.5179901123047
 31
0.0
  0
LINE
  5
   435
  8
0
  6
CONTINUOUS
 62
     7
 10
-647.421344939347
 20
52.5179901123047
 30
0.0
 11
-699.921344939347
 21
52.5179901123047
 31
0.0
  0
LINE
  5
   436
  8
0
  6
CONTINUOUS
 62
     7
 10
-668.296344939347
 20
32.0107574462891
 30
0.0
 11
-679.046344939347
 21
32.0107574462891
 31
0.0
  0
LINE
  5
   437
  8
0
  6
CONTINUOUS
 62
     7
 10
-668.296344939347
 20
32.1429901123047
 30
0.0
 11
-679.046344939347
 21
32.1429901123047
 31
0.0
  0
LINE
  5
   438
  8
0
  6
CONTINUOUS
 62
     7
 10
-668.296344939347
 20
12.1429977416992
 30
0.0
 11
-679.046344939347
 21
12.1429977416992
 31
0.0
  0
LINE
  5
   439
  8
0
  6
CONTINUOUS
 62
     7
 10
-668.296344939347
 20
12.2752456665039
 30
0.0
 11
-679.046344939347
 21
12.2752456665039
 31
0.0
  0
LINE
  5
   43A
  8
0
  6
CONTINUOUS
 62
     7
 10
-647.421352568741
 20
10.7679977416992
 30
0.0
 11
-647.421352568741
 21
16.76799376508
 31
0.0
  0
LINE
  5
   43B
  8
0
  6
CONTINUOUS
 62
     7
 10
-647.421352568741
 20
34.0179977416992
 30
0.0
 11
-647.421352568741
 21
53.2680053710938
 31
0.0
  0
LINE
  5
   43C
  8
0
  6
CONTINUOUS
 62
     7
 10
-647.421352568741
 20
17.26799376508
 30
0.0
 11
-647.421352568741
 21
27.0179977416992
 31
0.0
  0
LINE
  5
   43D
  8
0
  6
CONTINUOUS
 62
     7
 10
-647.421352568741
 20
27.5179977416992
 30
0.0
 11
-647.421352568741
 21
33.5179977416992
 31
0.0
  0
LINE
  5
   43E
  8
0
  6
CONTINUOUS
 62
     7
 10
-699.921344939349
 20
10.7679977416992
 30
0.0
 11
-699.921344939349
 21
16.7679977417003
 31
0.0
  0
LINE
  5
   43F
  8
0
  6
CONTINUOUS
 62
     7
 10
-699.921344939358
 20
17.2679977417003
 30
0.0
 11
-699.921344939358
 21
27.0179977416992
 31
0.0
  0
LINE
  5
   440
  8
0
  6
CONTINUOUS
 62
     7
 10
-699.921344939344
 20
27.5179977416992
 30
0.0
 11
-699.921344939344
 21
33.5179977416992
 31
0.0
  0
LINE
  5
   441
  8
0
  6
CONTINUOUS
 62
     7
 10
-699.921344939333
 20
34.0179977416992
 30
0.0
 11
-699.921344939333
 21
53.2680053710938
 31
0.0
  0
LINE
  5
   442
  8
0
  6
CONTINUOUS
 62
     7
 10
-679.046348926209
 20
16.7679977416982
 30
0.0
 11
-699.421344969149
 21
16.7679977416982
 31
0.0
  0
LINE
  5
   443
  8
0
  6
CONTINUOUS
 62
     7
 10
-647.421352568741
 20
16.7680130004873
 30
0.0
 11
-647.921352568741
 21
16.7680130004873
 31
0.0
  0
LINE
  5
   444
  8
0
  6
CONTINUOUS
 62
     7
 10
-679.046358705753
 20
17.2679977416982
 30
0.0
 11
-699.421344969149
 21
17.2679977416982
 31
0.0
  0
LINE
  5
   445
  8
0
  6
CONTINUOUS
 62
     7
 10
-647.421352568741
 20
17.2680130004872
 30
0.0
 11
-647.921352568741
 21
17.2680130004872
 31
0.0
  0
LINE
  5
   446
  8
0
  6
CONTINUOUS
 62
     7
 10
-699.421344969149
 20
16.7679977416992
 30
0.0
 11
-699.421344969149
 21
17.2679977416992
 31
0.0
  0
LINE
  5
   447
  8
0
  6
CONTINUOUS
 62
     7
 10
-647.921352568741
 20
16.7679977416992
 30
0.0
 11
-647.921352568741
 21
17.2679977416992
 31
0.0
  0
LINE
  5
   448
  8
0
  6
CONTINUOUS
 62
     7
 10
-647.421344939347
 20
10.2679977416992
 30
0.0
 11
-647.921352568741
 21
10.2679977416992
 31
0.0
  0
LINE
  5
   449
  8
0
  6
CONTINUOUS
 62
     7
 10
-647.421352568741
 20
10.7679977416992
 30
0.0
 11
-647.921352568741
 21
10.7679977416992
 31
0.0
  0
LINE
  5
   44A
  8
0
  6
CONTINUOUS
 62
     7
 10
-699.421344969149
 20
10.2679977416992
 30
0.0
 11
-699.421344969149
 21
10.7679977416992
 31
0.0
  0
LINE
  5
   44B
  8
0
  6
CONTINUOUS
 62
     7
 10
-647.921352568741
 20
10.2679977416992
 30
0.0
 11
-647.921352568741
 21
10.7679977416992
 31
0.0
  0
LINE
  5
   44C
  8
0
  6
CONTINUOUS
 62
     7
 10
-647.421352568741
 20
33.5179977416992
 30
0.0
 11
-647.921352568741
 21
33.5179977416992
 31
0.0
  0
LINE
  5
   44D
  8
0
  6
CONTINUOUS
 62
     7
 10
-647.421352568741
 20
34.0179977416992
 30
0.0
 11
-647.921352568741
 21
34.0179977416992
 31
0.0
  0
LINE
  5
   44E
  8
0
  6
CONTINUOUS
 62
     7
 10
-699.421344969149
 20
33.5179977416992
 30
0.0
 11
-699.421344969149
 21
34.0179977416992
 31
0.0
  0
LINE
  5
   44F
  8
0
  6
CONTINUOUS
 62
     7
 10
-647.921352568741
 20
33.5179977416992
 30
0.0
 11
-647.921352568741
 21
34.0179977416992
 31
0.0
  0
LINE
  5
   450
  8
0
  6
CONTINUOUS
 62
     7
 10
-679.046348903056
 20
27.0179977416992
 30
0.0
 11
-699.421344969149
 21
27.0179977416992
 31
0.0
  0
LINE
  5
   451
  8
0
  6
CONTINUOUS
 62
     7
 10
-647.421352568741
 20
27.0179977416992
 30
0.0
 11
-647.921352568741
 21
27.0179977416992
 31
0.0
  0
LINE
  5
   452
  8
0
  6
CONTINUOUS
 62
     7
 10
-679.046344939347
 20
27.5179977416992
 30
0.0
 11
-699.421344969149
 21
27.5179977416992
 31
0.0
  0
LINE
  5
   453
  8
0
  6
CONTINUOUS
 62
     7
 10
-647.421352568741
 20
27.5179977416992
 30
0.0
 11
-647.921352568741
 21
27.5179977416992
 31
0.0
  0
LINE
  5
   454
  8
0
  6
CONTINUOUS
 62
     7
 10
-699.421344969149
 20
27.0179977416992
 30
0.0
 11
-699.421344969149
 21
27.5179977416992
 31
0.0
  0
LINE
  5
   455
  8
0
  6
CONTINUOUS
 62
     7
 10
-647.921352568741
 20
27.0179977416992
 30
0.0
 11
-647.921352568741
 21
27.5179977416992
 31
0.0
  0
ARC
  5
   456
  8
0
  6
CONTINUOUS
 62
     7
 10
-699.671344939347
 20
1.26800537109375
 30
0.0
 40
0.25
 50
179.999999948034
 51
269.999999948034
  0
ARC
  5
   457
  8
0
  6
CONTINUOUS
 62
     7
 10
-647.671344939347
 20
1.26800537109376
 30
0.0
 40
0.25
 50
269.999999948034
 51
359.999999948034
  0
ARC
  5
   458
  8
0
  6
CONTINUOUS
 62
     7
 10
-647.671344939347
 20
53.2680053710938
 30
0.0
 40
0.25
 50
359.999999948034
 51
449.999999948034
  0
ARC
  5
   459
  8
0
  6
CONTINUOUS
 62
     7
 10
-699.671344939333
 20
53.2680053710937
 30
0.0
 40
0.25
 50
449.999999948034
 51
539.999999948034
  0
INSERT
  5
   45A
  8
255
  6
CONTINUOUS
 62
     7
  2
ON-OFF
 10
-663.671349822159
 20
30.5179977416992
 30
0.0
 41
0.5
 42
0.5
 50
359.999999792137
 43
0.5
  0
LINE
  5
   45B
  8
0
  6
CONTINUOUS
 62
     7
 10
-684.921344939347
 20
32.7679977416992
 30
0.0
 11
-685.671344939347
 21
32.7679977416992
 31
0.0
  0
LINE
  5
   45C
  8
0
  6
CONTINUOUS
 62
     7
 10
-684.921344939347
 20
28.2679977416992
 30
0.0
 11
-685.671344939347
 21
28.2679977416992
 31
0.0
  0
CIRCLE
  5
   45D
  8
0
  6
CONTINUOUS
 62
     7
 10
-685.296344939347
 20
13.7679977416992
 30
0.0
 40
2.25
  0
CIRCLE
  5
   45E
  8
0
  6
CONTINUOUS
 62
     7
 10
-685.296344939347
 20
13.7679977416992
 30
0.0
 40
1.5
  0
LINE
  5
   45F
  8
0
  6
CONTINUOUS
 62
     7
 10
-685.671344939347
 20
28.2679977416992
 30
0.0
 11
-685.671344939347
 21
32.7679977416992
 31
0.0
  0
LINE
  5
   460
  8
0
  6
CONTINUOUS
 62
     7
 10
-684.921344939347
 20
28.2679977416992
 30
0.0
 11
-684.921344939347
 21
32.7679977416992
 31
0.0
  0
LINE
  5
   461
  8
0
  6
CONTINUOUS
 62
     7
 10
-680.421344939347
 20
10.7679977416992
 30
0.0
 11
-680.421344939347
 21
16.768004886282
 31
0.0
  0
LINE
  5
   462
  8
0
  6
CONTINUOUS
 62
     7
 10
-666.921344939347
 20
10.7679977416992
 30
0.0
 11
-666.921344939347
 21
16.7680009096588
 31
0.0
  0
LINE
  5
   463
  8
0
  6
CONTINUOUS
 62
     7
 10
-666.921344939347
 20
27.5179977416992
 30
0.0
 11
-666.921344939347
 21
33.5179977416992
 31
0.0
  0
LINE
  5
   464
  8
0
  6
CONTINUOUS
 62
     7
 10
-680.421344939347
 20
27.5179977416992
 30
0.0
 11
-680.421344939347
 21
33.5179977416992
 31
0.0
  0
LINE
  5
   465
  8
0
  6
CONTINUOUS
 62
     7
 10
-668.296344939347
 20
16.7326409194196
 30
0.0
 11
-679.046344939347
 21
16.7326409194196
 31
0.0
  0
LINE
  5
   466
  8
0
  6
CONTINUOUS
 62
     7
 10
-668.296344939347
 20
12.7721647423716
 30
0.0
 11
-679.046344939347
 21
12.7721647423716
 31
0.0
  0
LINE
  5
   467
  8
0
  6
CONTINUOUS
 62
     7
 10
-668.296344939347
 20
16.7326405686925
 30
0.0
 11
-679.046344939347
 21
16.7326405686925
 31
0.0
  0
LINE
  5
   468
  8
0
  6
CONTINUOUS
 62
     7
 10
-668.296344939347
 20
19.2057011566644
 30
0.0
 11
-679.046344939347
 21
19.2057011566644
 31
0.0
  0
LINE
  5
   469
  8
0
  6
CONTINUOUS
 62
     7
 10
-699.171373494138
 20
67.5179862976055
 30
0.0
 11
-699.171375523471
 21
75.1429901123046
 31
0.0
  0
LINE
  5
   46A
  8
0
  6
CONTINUOUS
 62
     7
 10
-648.171373494137
 20
67.5179862976055
 30
0.0
 11
-648.171375523469
 21
75.1429901123046
 31
0.0
  0
LINE
  5
   46B
  8
0
  6
CONTINUOUS
 62
     7
 10
-699.421344969149
 20
34.0179977416992
 30
0.0
 11
-699.921344939333
 21
34.0179977416992
 31
0.0
  0
LINE
  5
   46C
  8
0
  6
CONTINUOUS
 62
     7
 10
-699.421344969149
 20
33.5179977416992
 30
0.0
 11
-699.921344939344
 21
33.5179977416992
 31
0.0
  0
LINE
  5
   46D
  8
0
  6
CONTINUOUS
 62
     7
 10
-699.421344969149
 20
27.5179977416992
 30
0.0
 11
-699.921344939344
 21
27.5179977416992
 31
0.0
  0
LINE
  5
   46E
  8
0
  6
CONTINUOUS
 62
     7
 10
-699.421344969149
 20
27.0179977416992
 30
0.0
 11
-699.921344939358
 21
27.0179977416992
 31
0.0
  0
LINE
  5
   46F
  8
0
  6
CONTINUOUS
 62
     7
 10
-699.421344969149
 20
17.2679977416982
 30
0.0
 11
-699.921344939358
 21
17.2679977416982
 31
0.0
  0
LINE
  5
   470
  8
0
  6
CONTINUOUS
 62
     7
 10
-699.421344969149
 20
16.7679977416982
 30
0.0
 11
-699.921344939349
 21
16.7679977416982
 31
0.0
  0
LINE
  5
   471
  8
0
  6
CONTINUOUS
 62
     7
 10
-699.421344969149
 20
10.7679977416992
 30
0.0
 11
-699.921344939349
 21
10.7679977416992
 31
0.0
  0
LINE
  5
   472
  8
0
  6
CONTINUOUS
 62
     7
 10
-699.421344969149
 20
10.2679977416992
 30
0.0
 11
-699.921344939347
 21
10.2679977416992
 31
0.0
  0
LINE
  5
   473
  8
0
  6
CONTINUOUS
 62
     7
 10
-647.921352568741
 20
10.7679977416992
 30
0.0
 11
-699.421344969149
 21
10.7679977416992
 31
0.0
  0
LINE
  5
   474
  8
0
  6
CONTINUOUS
 62
     7
 10
-647.921352568741
 20
10.2679977416992
 30
0.0
 11
-699.421344969149
 21
10.2679977416992
 31
0.0
  0
LINE
  5
   475
  8
0
  6
CONTINUOUS
 62
     7
 10
-647.921352568741
 20
17.2680130004872
 30
0.0
 11
-668.296346431726
 21
17.2680130004872
 31
0.0
  0
LINE
  5
   476
  8
0
  6
CONTINUOUS
 62
     7
 10
-647.921352568741
 20
16.7680130004873
 30
0.0
 11
-668.29634661492
 21
16.7680130004873
 31
0.0
  0
LINE
  5
   477
  8
0
  6
CONTINUOUS
 62
     7
 10
-647.921352568741
 20
27.5179977416992
 30
0.0
 11
-668.296344939347
 21
27.5179977416992
 31
0.0
  0
LINE
  5
   478
  8
0
  6
CONTINUOUS
 62
     7
 10
-647.921352568741
 20
27.0179977416992
 30
0.0
 11
-668.296344939347
 21
27.0179977416992
 31
0.0
  0
LINE
  5
   479
  8
0
  6
CONTINUOUS
 62
     7
 10
-647.921352568741
 20
34.0179977416992
 30
0.0
 11
-699.421344969149
 21
34.0179977416992
 31
0.0
  0
LINE
  5
   47A
  8
0
  6
CONTINUOUS
 62
     7
 10
-647.921352568741
 20
33.5179977416992
 30
0.0
 11
-699.421344969149
 21
33.5179977416992
 31
0.0
  0
LINE
  5
   47B
  8
0
  6
CONTINUOUS
 62
     7
 10
-648.171375523469
 20
75.1429901123046
 30
0.0
 11
-699.171375523471
 21
75.1429901123046
 31
0.0
  0
LINE
  5
   47C
  8
0
  6
CONTINUOUS
 62
     7
 10
-699.9213931528
 20
-24.3570306303304
 30
0.0
 11
-699.921361359884
 21
-12.9820117950459
 31
0.0
  0
LINE
  5
   47D
  8
0
  6
CONTINUOUS
 62
     7
 10
-647.421398041224
 20
-24.3570022583005
 30
0.0
 11
-647.421383148698
 21
-12.9820117950459
 31
0.0
  0
LINE
  5
   47E
  8
0
  6
CONTINUOUS
 62
     7
 10
-647.921398041224
 20
76.6429539395486
 30
0.0
 11
-699.421390411829
 21
76.6429539395486
 31
0.0
  0
LINE
  5
   47F
  8
0
  6
CONTINUOUS
 62
     3
 10
-648.046398041224
 20
91.1429443359373
 30
0.0
 11
-699.29639041183
 21
91.1429443359373
 31
0.0
  0
LINE
  5
   480
  8
0
  6
CONTINUOUS
 62
     3
 10
-647.421398041224
 20
77.1429519653319
 30
0.0
 11
-647.421398041224
 21
90.5179394638801
 31
0.0
  0
LINE
  5
   481
  8
0
  6
CONTINUOUS
 62
     3
 10
-699.921393265831
 20
77.1429553031926
 30
0.0
 11
-699.921393265831
 21
90.5179551010075
 31
0.0
  0
LINE
  5
   482
  8
0
  6
CONTINUOUS
 62
     3
 10
-698.096392509913
 20
77.1429557800291
 30
0.0
 11
-698.096392509913
 21
91.1429443359373
 31
0.0
  0
LINE
  5
   483
  8
0
  6
CONTINUOUS
 62
     3
 10
-696.296392319178
 20
77.142955303192
 30
0.0
 11
-696.296392319178
 21
91.1429443359373
 31
0.0
  0
LINE
  5
   484
  8
0
  6
CONTINUOUS
 62
     3
 10
-694.496392605281
 20
77.142955303192
 30
0.0
 11
-694.496392605281
 21
91.1429443359373
 31
0.0
  0
LINE
  5
   485
  8
0
  6
CONTINUOUS
 62
     3
 10
-692.696392414546
 20
77.142955303192
 30
0.0
 11
-692.696392414546
 21
91.1429443359373
 31
0.0
  0
LINE
  5
   486
  8
0
  6
CONTINUOUS
 62
     3
 10
-690.896396515345
 20
77.1429548263548
 30
0.0
 11
-690.896396515345
 21
91.1429443359373
 31
0.0
  0
LINE
  5
   487
  8
0
  6
CONTINUOUS
 62
     3
 10
-689.096393463588
 20
77.1429548263548
 30
0.0
 11
-689.096393463588
 21
91.1429443359373
 31
0.0
  0
LINE
  5
   488
  8
0
  6
CONTINUOUS
 62
     3
 10
-687.296398041224
 20
77.1429548263548
 30
0.0
 11
-687.296398041224
 21
91.1429443359373
 31
0.0
  0
LINE
  5
   489
  8
0
  6
CONTINUOUS
 62
     3
 10
-685.496394989466
 20
77.1429548263548
 30
0.0
 11
-685.496394989466
 21
91.1429443359373
 31
0.0
  0
LINE
  5
   48A
  8
0
  6
CONTINUOUS
 62
     3
 10
-683.696399567103
 20
77.1429543495176
 30
0.0
 11
-683.696399567103
 21
91.1429443359373
 31
0.0
  0
LINE
  5
   48B
  8
0
  6
CONTINUOUS
 62
     3
 10
-681.896396515345
 20
77.1429543495176
 30
0.0
 11
-681.896396515345
 21
91.1429443359373
 31
0.0
  0
LINE
  5
   48C
  8
0
  6
CONTINUOUS
 62
     3
 10
-680.096393463588
 20
77.1429543495177
 30
0.0
 11
-680.096393463588
 21
91.1429443359373
 31
0.0
  0
LINE
  5
   48D
  8
0
  6
CONTINUOUS
 62
     3
 10
-678.296398041224
 20
77.1429538726805
 30
0.0
 11
-678.296398041224
 21
91.1429443359373
 31
0.0
  0
LINE
  5
   48E
  8
0
  6
CONTINUOUS
 62
     3
 10
-676.496394989467
 20
77.1429538726805
 30
0.0
 11
-676.496394989467
 21
91.1429443359373
 31
0.0
  0
LINE
  5
   48F
  8
0
  6
CONTINUOUS
 62
     3
 10
-674.696399567103
 20
77.1429538726805
 30
0.0
 11
-674.696399567103
 21
91.1429443359373
 31
0.0
  0
LINE
  5
   490
  8
0
  6
CONTINUOUS
 62
     3
 10
-672.896396515345
 20
77.1429538726805
 30
0.0
 11
-672.896396515345
 21
91.1429443359373
 31
0.0
  0
LINE
  5
   491
  8
0
  6
CONTINUOUS
 62
     3
 10
-671.096393463588
 20
77.1429533958433
 30
0.0
 11
-671.096393463588
 21
91.1429443359373
 31
0.0
  0
LINE
  5
   492
  8
0
  6
CONTINUOUS
 62
     3
 10
-669.296398041224
 20
77.1429533958433
 30
0.0
 11
-669.296398041224
 21
91.1429443359373
 31
0.0
  0
LINE
  5
   493
  8
0
  6
CONTINUOUS
 62
     3
 10
-667.496394989467
 20
77.1429533958433
 30
0.0
 11
-667.496394989467
 21
91.1429443359373
 31
0.0
  0
LINE
  5
   494
  8
0
  6
CONTINUOUS
 62
     3
 10
-665.696399567103
 20
77.1429529190062
 30
0.0
 11
-665.696399567103
 21
91.1429443359373
 31
0.0
  0
LINE
  5
   495
  8
0
  6
CONTINUOUS
 62
     3
 10
-663.896396515345
 20
77.1429529190062
 30
0.0
 11
-663.896396515345
 21
91.1429443359373
 31
0.0
  0
LINE
  5
   496
  8
0
  6
CONTINUOUS
 62
     3
 10
-662.096393463588
 20
77.1429529190062
 30
0.0
 11
-662.096393463588
 21
91.1429443359373
 31
0.0
  0
LINE
  5
   497
  8
0
  6
CONTINUOUS
 62
     3
 10
-660.296398041224
 20
77.1429529190062
 30
0.0
 11
-660.296398041224
 21
91.1429443359373
 31
0.0
  0
LINE
  5
   498
  8
0
  6
CONTINUOUS
 62
     3
 10
-658.496394989466
 20
77.142952442169
 30
0.0
 11
-658.496394989466
 21
91.1429443359373
 31
0.0
  0
LINE
  5
   499
  8
0
  6
CONTINUOUS
 62
     3
 10
-656.696399567103
 20
77.142952442169
 30
0.0
 11
-656.696399567103
 21
91.1429443359373
 31
0.0
  0
LINE
  5
   49A
  8
0
  6
CONTINUOUS
 62
     3
 10
-654.896396515345
 20
77.142952442169
 30
0.0
 11
-654.896396515345
 21
91.1429443359373
 31
0.0
  0
LINE
  5
   49B
  8
0
  6
CONTINUOUS
 62
     3
 10
-653.096393463588
 20
77.1429519653319
 30
0.0
 11
-653.096393463588
 21
91.1429443359373
 31
0.0
  0
LINE
  5
   49C
  8
0
  6
CONTINUOUS
 62
     3
 10
-651.296398041224
 20
77.1429519653319
 30
0.0
 11
-651.296398041224
 21
91.1429443359373
 31
0.0
  0
LINE
  5
   49D
  8
0
  6
CONTINUOUS
 62
     3
 10
-649.496394989467
 20
77.1429519653319
 30
0.0
 11
-649.496394989467
 21
91.1429443359373
 31
0.0
  0
LINE
  5
   49E
  8
0
  6
CONTINUOUS
 62
     7
 10
-699.421397564387
 20
76.6429558941089
 30
0.0
 11
-699.421397564387
 21
77.1429558047019
 31
0.0
  0
LINE
  5
   49F
  8
0
  6
CONTINUOUS
 62
     3
 10
-699.421397593346
 20
77.1429803373617
 30
0.0
 11
-699.9213931528
 21
77.1429803373617
 31
0.0
  0
LINE
  5
   4A0
  8
0
  6
CONTINUOUS
 62
     3
 10
-647.473178287959
 20
77.1429538524224
 30
0.0
 11
-699.421397587275
 21
77.1429538524224
 31
0.0
  0
LINE
  5
   4A1
  8
0
  6
CONTINUOUS
 62
     7
 10
-647.921398041224
 20
76.6429519849907
 30
0.0
 11
-647.921398041224
 21
77.1429519849907
 31
0.0
  0
LINE
  5
   4A2
  8
0
  6
CONTINUOUS
 62
     3
 10
-647.421398041224
 20
77.1429519653318
 30
0.0
 11
-647.604457733607
 21
77.1429519653318
 31
0.0
  0
ARC
  5
   4A3
  8
0
  6
CONTINUOUS
 62
     3
 10
-648.046406338251
 20
90.5179394638801
 30
0.0
 40
0.624999378846369
 50
360.000027285161
 51
450.00046185832
  0
ARC
  5
   4A4
  8
0
  6
CONTINUOUS
 62
     3
 10
-699.296407251976
 20
90.5179551010075
 30
0.0
 40
0.624983634017216
 50
449.998225807986
 51
540.001187191324
  0
LINE
  5
   4A5
  8
0
  6
CONTINUOUS
 62
     7
 10
-647.921398041224
 20
-23.8570042325174
 30
0.0
 11
-699.421390411829
 21
-23.8570042325174
 31
0.0
  0
LINE
  5
   4A6
  8
0
  6
CONTINUOUS
 62
     3
 10
-648.046398041224
 20
-38.356994628906
 30
0.0
 11
-699.29639041183
 21
-38.356994628906
 31
0.0
  0
LINE
  5
   4A7
  8
0
  6
CONTINUOUS
 62
     3
 10
-647.421398041224
 20
-37.7319897568488
 30
0.0
 11
-647.421398041224
 21
-24.3570022583005
 31
0.0
  0
LINE
  5
   4A8
  8
0
  6
CONTINUOUS
 62
     3
 10
-699.92139326583
 20
-37.7320053939762
 30
0.0
 11
-699.92139326583
 21
-24.3570055961613
 31
0.0
  0
LINE
  5
   4A9
  8
0
  6
CONTINUOUS
 62
     3
 10
-698.096392509913
 20
-38.356994628906
 30
0.0
 11
-698.096392509913
 21
-24.3570060729978
 31
0.0
  0
LINE
  5
   4AA
  8
0
  6
CONTINUOUS
 62
     3
 10
-696.296392319178
 20
-38.356994628906
 30
0.0
 11
-696.296392319178
 21
-24.3570055961606
 31
0.0
  0
LINE
  5
   4AB
  8
0
  6
CONTINUOUS
 62
     3
 10
-694.496392605281
 20
-38.356994628906
 30
0.0
 11
-694.496392605281
 21
-24.3570055961606
 31
0.0
  0
LINE
  5
   4AC
  8
0
  6
CONTINUOUS
 62
     3
 10
-692.696392414546
 20
-38.356994628906
 30
0.0
 11
-692.696392414546
 21
-24.3570055961606
 31
0.0
  0
LINE
  5
   4AD
  8
0
  6
CONTINUOUS
 62
     3
 10
-690.896396515345
 20
-38.356994628906
 30
0.0
 11
-690.896396515345
 21
-24.3570051193235
 31
0.0
  0
LINE
  5
   4AE
  8
0
  6
CONTINUOUS
 62
     3
 10
-689.096393463587
 20
-38.356994628906
 30
0.0
 11
-689.096393463587
 21
-24.3570051193235
 31
0.0
  0
LINE
  5
   4AF
  8
0
  6
CONTINUOUS
 62
     3
 10
-687.296398041224
 20
-38.356994628906
 30
0.0
 11
-687.296398041224
 21
-24.3570051193235
 31
0.0
  0
LINE
  5
   4B0
  8
0
  6
CONTINUOUS
 62
     3
 10
-685.496394989466
 20
-38.356994628906
 30
0.0
 11
-685.496394989466
 21
-24.3570051193235
 31
0.0
  0
LINE
  5
   4B1
  8
0
  6
CONTINUOUS
 62
     3
 10
-683.696399567103
 20
-38.356994628906
 30
0.0
 11
-683.696399567103
 21
-24.3570046424863
 31
0.0
  0
LINE
  5
   4B2
  8
0
  6
CONTINUOUS
 62
     3
 10
-681.896396515345
 20
-38.356994628906
 30
0.0
 11
-681.896396515345
 21
-24.3570046424863
 31
0.0
  0
LINE
  5
   4B3
  8
0
  6
CONTINUOUS
 62
     3
 10
-680.096393463588
 20
-38.356994628906
 30
0.0
 11
-680.096393463588
 21
-24.3570046424863
 31
0.0
  0
LINE
  5
   4B4
  8
0
  6
CONTINUOUS
 62
     3
 10
-678.296398041224
 20
-38.356994628906
 30
0.0
 11
-678.296398041224
 21
-24.3570041656492
 31
0.0
  0
LINE
  5
   4B5
  8
0
  6
CONTINUOUS
 62
     3
 10
-676.496394989466
 20
-38.356994628906
 30
0.0
 11
-676.496394989466
 21
-24.3570041656492
 31
0.0
  0
LINE
  5
   4B6
  8
0
  6
CONTINUOUS
 62
     3
 10
-674.696399567103
 20
-38.356994628906
 30
0.0
 11
-674.696399567103
 21
-24.3570041656492
 31
0.0
  0
LINE
  5
   4B7
  8
0
  6
CONTINUOUS
 62
     3
 10
-672.896396515345
 20
-38.356994628906
 30
0.0
 11
-672.896396515345
 21
-24.3570041656492
 31
0.0
  0
LINE
  5
   4B8
  8
0
  6
CONTINUOUS
 62
     3
 10
-671.096393463587
 20
-38.356994628906
 30
0.0
 11
-671.096393463587
 21
-24.357003688812
 31
0.0
  0
LINE
  5
   4B9
  8
0
  6
CONTINUOUS
 62
     3
 10
-669.296398041224
 20
-38.356994628906
 30
0.0
 11
-669.296398041224
 21
-24.357003688812
 31
0.0
  0
LINE
  5
   4BA
  8
0
  6
CONTINUOUS
 62
     3
 10
-667.496394989466
 20
-38.356994628906
 30
0.0
 11
-667.496394989466
 21
-24.357003688812
 31
0.0
  0
LINE
  5
   4BB
  8
0
  6
CONTINUOUS
 62
     3
 10
-665.696399567103
 20
-38.356994628906
 30
0.0
 11
-665.696399567103
 21
-24.3570032119749
 31
0.0
  0
LINE
  5
   4BC
  8
0
  6
CONTINUOUS
 62
     3
 10
-663.896396515345
 20
-38.356994628906
 30
0.0
 11
-663.896396515345
 21
-24.3570032119749
 31
0.0
  0
LINE
  5
   4BD
  8
0
  6
CONTINUOUS
 62
     3
 10
-662.096393463587
 20
-38.356994628906
 30
0.0
 11
-662.096393463587
 21
-24.3570032119749
 31
0.0
  0
LINE
  5
   4BE
  8
0
  6
CONTINUOUS
 62
     3
 10
-660.296398041224
 20
-38.356994628906
 30
0.0
 11
-660.296398041224
 21
-24.3570032119749
 31
0.0
  0
LINE
  5
   4BF
  8
0
  6
CONTINUOUS
 62
     3
 10
-658.496394989466
 20
-38.356994628906
 30
0.0
 11
-658.496394989466
 21
-24.3570027351377
 31
0.0
  0
LINE
  5
   4C0
  8
0
  6
CONTINUOUS
 62
     3
 10
-656.696399567103
 20
-38.356994628906
 30
0.0
 11
-656.696399567103
 21
-24.3570027351377
 31
0.0
  0
LINE
  5
   4C1
  8
0
  6
CONTINUOUS
 62
     3
 10
-654.896396515345
 20
-38.356994628906
 30
0.0
 11
-654.896396515345
 21
-24.3570027351377
 31
0.0
  0
LINE
  5
   4C2
  8
0
  6
CONTINUOUS
 62
     3
 10
-653.096393463588
 20
-38.356994628906
 30
0.0
 11
-653.096393463588
 21
-24.3570022583005
 31
0.0
  0
LINE
  5
   4C3
  8
0
  6
CONTINUOUS
 62
     3
 10
-651.296398041224
 20
-38.356994628906
 30
0.0
 11
-651.296398041224
 21
-24.3570022583005
 31
0.0
  0
LINE
  5
   4C4
  8
0
  6
CONTINUOUS
 62
     3
 10
-649.496394989466
 20
-38.356994628906
 30
0.0
 11
-649.496394989466
 21
-24.3570022583005
 31
0.0
  0
LINE
  5
   4C5
  8
0
  6
CONTINUOUS
 62
     7
 10
-699.421397564387
 20
-24.3570060976706
 30
0.0
 11
-699.421397564387
 21
-23.8570061870775
 31
0.0
  0
LINE
  5
   4C6
  8
0
  6
CONTINUOUS
 62
     3
 10
-699.421397593346
 20
-24.3570306303304
 30
0.0
 11
-699.9213931528
 21
-24.3570306303304
 31
0.0
  0
LINE
  5
   4C7
  8
0
  6
CONTINUOUS
 62
     3
 10
-647.473178287959
 20
-24.3570041453912
 30
0.0
 11
-699.421397587275
 21
-24.3570041453912
 31
0.0
  0
LINE
  5
   4C8
  8
0
  6
CONTINUOUS
 62
     7
 10
-647.921398041224
 20
-24.3570022779594
 30
0.0
 11
-647.921398041224
 21
-23.8570022779594
 31
0.0
  0
LINE
  5
   4C9
  8
0
  6
CONTINUOUS
 62
     3
 10
-647.421398041224
 20
-24.3570022583005
 30
0.0
 11
-647.604457733607
 21
-24.3570022583005
 31
0.0
  0
ARC
  5
   4CA
  8
0
  6
CONTINUOUS
 62
     3
 10
-648.046406338251
 20
-37.7319897568488
 30
0.0
 40
0.624999378846369
 50
269.999538037749
 51
359.999972610908
  0
ARC
  5
   4CB
  8
0
  6
CONTINUOUS
 62
     3
 10
-699.296407251976
 20
-37.7320053939762
 30
0.0
 40
0.624983634017216
 50
179.998812704745
 51
270.001774088083
  0
LINE
  5
   4CC
  8
0
  6
DASHDOT
 62
     7
 10
-673.671344939347
 20
-43.3843310978033
 30
0.0
 11
-673.671344939347
 21
96.0962828320875
 31
0.0
  0
LINE
  5
   4CD
  8
0
  6
DASHDOT
 62
     7
 10
-637.572298720355
 20
27.2680053710937
 30
0.0
 11
-713.070449949512
 21
27.2680053710937
 31
0.0
  0
INSERT
  5
   4CE
  8
255
  6
CONTINUOUS
 62
     7
  2
MOSTRINA
 10
-731.090518307523
 20
-27.7223243713398
 30
0.0
 41
0.5
 42
0.5
 50
3.50835464724173E-15
 43
0.5
  0
CIRCLE
  5
   4CF
  8
0
  6
CONTINUOUS
 62
     7
 10
-645.250689449944
 20
64.1443212037208
 30
0.0
 40
0.1
  0
TEXT
  5
   4D0
  8
0
  6
CONTINUOUS
 62
     7
 10
-631.052597060594
 20
8.13192178123436
 30
0.0
 40
3.00000002980232
  1
=          =
 50
89.9999999480344
 41
0.916666604744064
 72
     2
 11
-631.052597031203
 21
40.581919907165
 31
0.0
  0
INSERT
  5
   4D1
  8
0
  6
CONTINUOUS
 62
     7
  2
*UDIM2397
 10
0.0
 20
0.0
 30
0.0
  0
INSERT
  5
   4D2
  8
0
  6
CONTINUOUS
 62
     7
  2
*UDIM2398
 10
0.0
 20
0.0
 30
0.0
  0
INSERT
  5
   4D3
  8
0
  6
CONTINUOUS
 62
     7
  2
*UDIM2399
 10
0.0
 20
0.0
 30
0.0
  0
INSERT
  5
   4D4
  8
0
  6
CONTINUOUS
 62
     7
  2
*UDIM2400
 10
0.0
 20
0.0
 30
0.0
  0
TEXT
  5
   4D5
  8
0
  6
CONTINUOUS
 62
     7
 10
-628.83700552718
 20
25.6858599252478
 30
0.0
 40
3.00000002980232
  1
X
 50
359.999999948034
 41
0.916666604744064
 72
     1
 11
-627.737005591392
 21
27.1858599391569
 31
0.0
 73
     2
  0
TEXT
  5
   4D6
  8
0
  6
CONTINUOUS
 62
     7
 10
-731.357866199177
 20
27.5423281259314
 30
0.0
 40
3.00000002980232
  1
X
 50
359.999999948034
 41
0.916666604744064
 72
     1
 11
-730.25786626339
 21
29.0423281398404
 31
0.0
 73
     2
  0
TEXT
  5
   4D7
  8
0
  6
CONTINUOUS
 62
     7
 10
-674.524879367512
 20
106.823044068314
 30
0.0
 40
3.00000002980232
  1
Y
 50
359.999999948034
 41
0.916666604744064
 72
     1
 11
-673.424879431724
 21
108.323044082223
 31
0.0
 73
     2
  0
INSERT
  5
   4D8
  8
0
  6
CONTINUOUS
 62
     7
  2
*UDIM2401
 10
0.0
 20
0.0
 30
0.0
  0
LINE
  5
   4D9
  8
0
  6
CONTINUOUS
 62
     7
 10
-554.5224609375
 20
-68.6325225830078
 30
0.0
 11
-554.5224609375
 21
-68.8825073242188
 31
0.0
  0
LINE
  5
   4DA
  8
0
  6
CONTINUOUS
 62
     7
 10
-554.5224609375
 20
-86.1325073242188
 30
0.0
 11
-554.5224609375
 21
-98.6325073242188
 31
0.0
  0
LINE
  5
   4DB
  8
0
  6
CONTINUOUS
 62
     7
 10
-554.5224609375
 20
-103.632499694824
 30
0.0
 11
-554.5224609375
 21
-115.882507324219
 31
0.0
  0
LINE
  5
   4DC
  8
0
  6
CONTINUOUS
 62
     7
 10
-530.522438049316
 20
-118.632486343384
 30
0.0
 11
-552.2724609375
 21
-118.632486343384
 31
0.0
  0
LINE
  5
   4DD
  8
0
  6
CONTINUOUS
 62
     7
 10
-549.022460937904
 20
-66.1324920651994
 30
0.0
 11
-552.272460937904
 21
-66.1324844358046
 31
0.0
  0
LINE
  5
   4DE
  8
0
  6
CONTINUOUS
 62
     7
 10
-530.522438049316
 20
-66.1324996948242
 30
0.0
 11
-549.0224609375
 21
-66.1324996948242
 31
0.0
  0
LINE
  5
   4DF
  8
0
  6
CONTINUOUS
 62
     2
 10
-530.522438049316
 20
-70.8825225830078
 30
0.0
 11
-530.522438049316
 21
-72.0735015869141
 31
0.0
  0
LINE
  5
   4E0
  8
0
  6
CONTINUOUS
 62
     2
 10
-530.522438049316
 20
-77.691520690918
 30
0.0
 11
-530.522438049316
 21
-78.8825225830078
 31
0.0
  0
LINE
  5
   4E1
  8
0
  6
CONTINUOUS
 62
     2
 10
-530.522438049316
 20
-88.3825073242187
 30
0.0
 11
-530.522438049316
 21
-89.5735130310059
 31
0.0
  0
LINE
  5
   4E2
  8
0
  6
CONTINUOUS
 62
     2
 10
-530.522438049316
 20
-95.1915245056152
 30
0.0
 11
-530.522438049316
 21
-96.382511138916
 31
0.0
  0
LINE
  5
   4E3
  8
0
  6
CONTINUOUS
 62
     2
 10
-530.522438049316
 20
-105.882503509522
 30
0.0
 11
-530.522438049316
 21
-107.073505401611
 31
0.0
  0
LINE
  5
   4E4
  8
0
  6
CONTINUOUS
 62
     7
 10
-530.522438049316
 20
-66.1324996948242
 30
0.0
 11
-530.522438049316
 21
-68.6325001178544
 31
0.0
  0
LINE
  5
   4E5
  8
0
  6
CONTINUOUS
 62
     2
 10
-530.522438049316
 20
-78.8825225830078
 30
0.0
 11
-530.522438049316
 21
-88.3825073242187
 31
0.0
  0
LINE
  5
   4E6
  8
0
  6
CONTINUOUS
 62
     7
 10
-530.522438049316
 20
-98.6324999484673
 30
0.0
 11
-530.522438049316
 21
-103.632499938892
 31
0.0
  0
LINE
  5
   4E7
  8
0
  6
CONTINUOUS
 62
     7
 10
-530.522438049316
 20
-116.132499858986
 30
0.0
 11
-530.522438049316
 21
-118.632486343384
 31
0.0
  0
LINE
  5
   4E8
  8
0
  6
CONTINUOUS
 62
     2
 10
-530.522438049316
 20
-112.691516876221
 30
0.0
 11
-530.522438049316
 21
-113.882499694824
 31
0.0
  0
LINE
  5
   4E9
  8
0
  6
CONTINUOUS
 62
     7
 10
-549.0224609375
 20
-66.1325016021729
 30
0.0
 11
-549.0224609375
 21
-118.632486343384
 31
0.0
  0
LINE
  5
   4EA
  8
0
  6
CONTINUOUS
 62
     7
 10
-552.2724609375
 20
-116.632499694824
 30
0.0
 11
-552.2724609375
 21
-118.632486343384
 31
0.0
  0
LINE
  5
   4EB
  8
0
  6
CONTINUOUS
 62
     7
 10
-552.2724609375
 20
-98.6325073242188
 30
0.0
 11
-552.2724609375
 21
-103.632499694824
 31
0.0
  0
LINE
  5
   4EC
  8
0
  6
CONTINUOUS
 62
     7
 10
-552.2724609375
 20
-81.1325225830078
 30
0.0
 11
-552.2724609375
 21
-86.1325073242188
 31
0.0
  0
LINE
  5
   4ED
  8
0
  6
CONTINUOUS
 62
     7
 10
-552.2724609375
 20
-66.1324844360352
 30
0.0
 11
-552.2724609375
 21
-68.1324691772461
 31
0.0
  0
LINE
  5
   4EE
  8
0
  6
CONTINUOUS
 62
     7
 10
-555.2724609375
 20
-115.882507324219
 30
0.0
 11
-555.2724609375
 21
-116.632499694824
 31
0.0
  0
LINE
  5
   4EF
  8
0
  6
CONTINUOUS
 62
     7
 10
-555.2724609375
 20
-68.1324691772461
 30
0.0
 11
-555.2724609375
 21
-68.8825073242188
 31
0.0
  0
LINE
  5
   4F0
  8
0
  6
CONTINUOUS
 62
     7
 10
-539.772438049317
 20
-87.2575073242188
 30
0.0
 11
-539.772438049317
 21
-97.5075073242188
 31
0.0
  0
LINE
  5
   4F1
  8
0
  6
CONTINUOUS
 62
     7
 10
-536.022438049316
 20
-97.5075073242188
 30
0.0
 11
-539.772438049317
 21
-97.5075073242188
 31
0.0
  0
LINE
  5
   4F2
  8
0
  6
CONTINUOUS
 62
     7
 10
-536.022438049316
 20
-87.2575073242188
 30
0.0
 11
-539.772438049317
 21
-87.2575073242188
 31
0.0
  0
LINE
  5
   4F3
  8
0
  6
CONTINUOUS
 62
     7
 10
-539.772438049317
 20
-104.757507324219
 30
0.0
 11
-539.772438049317
 21
-115.007507324219
 31
0.0
  0
LINE
  5
   4F4
  8
0
  6
CONTINUOUS
 62
     7
 10
-536.022438049316
 20
-115.007507324219
 30
0.0
 11
-539.772438049317
 21
-115.007507324219
 31
0.0
  0
LINE
  5
   4F5
  8
0
  6
CONTINUOUS
 62
     7
 10
-536.022438049316
 20
-104.757507324219
 30
0.0
 11
-539.772438049317
 21
-104.757507324219
 31
0.0
  0
LINE
  5
   4F6
  8
0
  6
CONTINUOUS
 62
     7
 10
-539.772438049317
 20
-69.7575073242188
 30
0.0
 11
-539.772438049317
 21
-80.0075073242188
 31
0.0
  0
LINE
  5
   4F7
  8
0
  6
CONTINUOUS
 62
     7
 10
-536.022438049316
 20
-80.0075073242188
 30
0.0
 11
-539.772438049317
 21
-80.0075073242188
 31
0.0
  0
LINE
  5
   4F8
  8
0
  6
CONTINUOUS
 62
     7
 10
-536.022438049316
 20
-69.7575073242188
 30
0.0
 11
-539.772438049317
 21
-69.7575073242188
 31
0.0
  0
LINE
  5
   4F9
  8
0
  6
CONTINUOUS
 62
     7
 10
-530.522438049316
 20
-67.3824996948242
 30
0.0
 11
-549.0224609375
 21
-67.3824996948242
 31
0.0
  0
LINE
  5
   4FA
  8
0
  6
CONTINUOUS
 62
     7
 10
-530.522438049316
 20
-117.382499694824
 30
0.0
 11
-549.0224609375
 21
-117.382499694824
 31
0.0
  0
LINE
  5
   4FB
  8
0
  6
CONTINUOUS
 62
     7
 10
-530.522438049316
 20
-99.8824996948242
 30
0.0
 11
-549.0224609375
 21
-99.8824996948242
 31
0.0
  0
LINE
  5
   4FC
  8
0
  6
CONTINUOUS
 62
     7
 10
-530.522438049316
 20
-102.382499694824
 30
0.0
 11
-549.0224609375
 21
-102.382499694824
 31
0.0
  0
LINE
  5
   4FD
  8
0
  6
CONTINUOUS
 62
     7
 10
-530.522438049316
 20
-84.8824691772461
 30
0.0
 11
-549.0224609375
 21
-84.8824691772461
 31
0.0
  0
LINE
  5
   4FE
  8
0
  6
CONTINUOUS
 62
     7
 10
-530.522438049316
 20
-82.3824691772461
 30
0.0
 11
-549.0224609375
 21
-82.3824691772461
 31
0.0
  0
LINE
  5
   4FF
  8
0
  6
CONTINUOUS
 62
   253
 10
-562.5224609375
 20
-103.882507324219
 30
0.0
 11
-562.5224609375
 21
-115.882507324219
 31
0.0
  0
LINE
  5
   500
  8
0
  6
CONTINUOUS
 62
   253
 10
-562.5224609375
 20
-68.8825073242188
 30
0.0
 11
-562.5224609375
 21
-80.8825073242187
 31
0.0
  0
LINE
  5
   501
  8
0
  6
CONTINUOUS
 62
   253
 10
-562.522438049317
 20
-86.8825149536133
 30
0.0
 11
-562.522438049317
 21
-97.8825149536133
 31
0.0
  0
LINE
  5
   502
  8
0
  6
CONTINUOUS
 62
     7
 10
-573.672439575195
 20
-104.382530212402
 30
0.0
 11
-573.672439575195
 21
-115.382530212402
 31
0.0
  0
LINE
  5
   503
  8
0
  6
CONTINUOUS
 62
     7
 10
-574.922439575195
 20
-114.632530212402
 30
0.0
 11
-574.922439575195
 21
-115.382530212402
 31
0.0
  0
LINE
  5
   504
  8
0
  6
CONTINUOUS
 62
     7
 10
-574.922439575195
 20
-105.204124450684
 30
0.0
 11
-574.922439575195
 21
-114.560935974121
 31
0.0
  0
LINE
  5
   505
  8
0
  6
CONTINUOUS
 62
     7
 10
-574.922439575195
 20
-104.382530212402
 30
0.0
 11
-574.922439575195
 21
-105.132530212402
 31
0.0
  0
LINE
  5
   506
  8
0
  6
CONTINUOUS
 62
     7
 10
-569.422439575195
 20
-104.382530212402
 30
0.0
 11
-569.422439575195
 21
-105.132530212402
 31
0.0
  0
LINE
  5
   507
  8
0
  6
CONTINUOUS
 62
     7
 10
-569.422439575195
 20
-105.204124450684
 30
0.0
 11
-569.422439575195
 21
-114.560935974121
 31
0.0
  0
LINE
  5
   508
  8
0
  6
CONTINUOUS
 62
     7
 10
-569.422439575195
 20
-114.632530212402
 30
0.0
 11
-569.422439575195
 21
-115.382530212402
 31
0.0
  0
LINE
  5
   509
  8
0
  6
CONTINUOUS
 62
     7
 10
-570.672439575195
 20
-104.382530212402
 30
0.0
 11
-570.672439575195
 21
-115.382530212402
 31
0.0
  0
LINE
  5
   50A
  8
0
  6
CONTINUOUS
 62
     3
 10
-562.922439575195
 20
-105.132530212402
 30
0.0
 11
-565.922439575195
 21
-105.132530212402
 31
0.0
  0
LINE
  5
   50B
  8
0
  6
CONTINUOUS
 62
     3
 10
-562.922439575195
 20
-114.632530212402
 30
0.0
 11
-565.922439575195
 21
-114.632530212402
 31
0.0
  0
LINE
  5
   50C
  8
0
  6
CONTINUOUS
 62
     3
 10
-565.922439575195
 20
-105.132530212402
 30
0.0
 11
-565.922439575195
 21
-114.632530212402
 31
0.0
  0
LINE
  5
   50D
  8
0
  6
CONTINUOUS
 62
     3
 10
-562.922439575195
 20
-105.132530212402
 30
0.0
 11
-562.922439575195
 21
-106.335441589355
 31
0.0
  0
LINE
  5
   50E
  8
0
  6
CONTINUOUS
 62
     3
 10
-562.922439575195
 20
-108.72533416748
 30
0.0
 11
-562.922439575195
 21
-111.039733886719
 31
0.0
  0
LINE
  5
   50F
  8
0
  6
CONTINUOUS
 62
     3
 10
-562.922439575195
 20
-113.429637908936
 30
0.0
 11
-562.922439575195
 21
-114.632530212402
 31
0.0
  0
LINE
  5
   510
  8
0
  6
CONTINUOUS
 62
     3
 10
-566.422439575195
 20
-105.132530212402
 30
0.0
 11
-569.422439575195
 21
-105.132530212402
 31
0.0
  0
LINE
  5
   511
  8
0
  6
CONTINUOUS
 62
     3
 10
-566.422439575195
 20
-114.632530212402
 30
0.0
 11
-569.422439575195
 21
-114.632530212402
 31
0.0
  0
LINE
  5
   512
  8
0
  6
CONTINUOUS
 62
     3
 10
-569.422439575195
 20
-114.560935974121
 30
0.0
 11
-569.422439575195
 21
-114.632530212402
 31
0.0
  0
LINE
  5
   513
  8
0
  6
CONTINUOUS
 62
     3
 10
-569.422439575195
 20
-105.132530212402
 30
0.0
 11
-569.422439575195
 21
-105.204128265381
 31
0.0
  0
LINE
  5
   514
  8
0
  6
CONTINUOUS
 62
     3
 10
-566.422439575195
 20
-105.132530212402
 30
0.0
 11
-566.422439575195
 21
-114.632530212402
 31
0.0
  0
LINE
  5
   515
  8
0
  6
CONTINUOUS
 62
     3
 10
-574.922439575195
 20
-105.132530212402
 30
0.0
 11
-577.922439575195
 21
-105.132530212402
 31
0.0
  0
LINE
  5
   516
  8
0
  6
CONTINUOUS
 62
     3
 10
-574.922439575195
 20
-114.632530212402
 30
0.0
 11
-577.922439575195
 21
-114.632530212402
 31
0.0
  0
LINE
  5
   517
  8
0
  6
CONTINUOUS
 62
     3
 10
-574.922439575195
 20
-105.132530212402
 30
0.0
 11
-574.922439575195
 21
-105.204128265381
 31
0.0
  0
LINE
  5
   518
  8
0
  6
CONTINUOUS
 62
     3
 10
-574.922439575195
 20
-114.560935974121
 30
0.0
 11
-574.922439575195
 21
-114.632530212402
 31
0.0
  0
LINE
  5
   519
  8
0
  6
CONTINUOUS
 62
     3
 10
-577.922439575195
 20
-105.132530212402
 30
0.0
 11
-577.922439575195
 21
-114.632530212402
 31
0.0
  0
LINE
  5
   51A
  8
0
  6
CONTINUOUS
 62
   130
 10
-538.772438049316
 20
-87.3825149536133
 30
0.0
 11
-538.772438049316
 21
-97.3825149536133
 31
0.0
  0
LINE
  5
   51B
  8
0
  6
CONTINUOUS
 62
   130
 10
-538.772438049316
 20
-104.882507324219
 30
0.0
 11
-538.772438049316
 21
-114.882507324219
 31
0.0
  0
LINE
  5
   51C
  8
0
  6
CONTINUOUS
 62
     7
 10
-562.922439575195
 20
-114.632530212402
 30
0.0
 11
-562.922439575195
 21
-114.882530212402
 31
0.0
  0
LINE
  5
   51D
  8
0
  6
CONTINUOUS
 62
     7
 10
-562.922439575195
 20
-111.039741516113
 30
0.0
 11
-562.922439575195
 21
-113.429626464844
 31
0.0
  0
LINE
  5
   51E
  8
0
  6
CONTINUOUS
 62
     7
 10
-562.922439575195
 20
-106.335426330566
 30
0.0
 11
-562.922439575195
 21
-108.725326538086
 31
0.0
  0
LINE
  5
   51F
  8
0
  6
CONTINUOUS
 62
     7
 10
-562.922439575195
 20
-104.882530212402
 30
0.0
 11
-562.922439575195
 21
-105.132530212402
 31
0.0
  0
LINE
  5
   520
  8
0
  6
CONTINUOUS
 62
   130
 10
-538.772438049316
 20
-69.8825073242188
 30
0.0
 11
-538.772438049316
 21
-79.8825073242188
 31
0.0
  0
LINE
  5
   521
  8
0
  6
CONTINUOUS
 62
   212
 10
-579.272438049316
 20
-107.882514953613
 30
0.0
 11
-579.272438049316
 21
-111.882514953613
 31
0.0
  0
LINE
  5
   522
  8
0
  6
CONTINUOUS
 62
     3
 10
-554.2724609375
 20
-81.1325225830078
 30
0.0
 11
-554.2724609375
 21
-86.1325073242188
 31
0.0
  0
LINE
  5
   523
  8
0
  6
CONTINUOUS
 62
     3
 10
-554.2724609375
 20
-98.632511138916
 30
0.0
 11
-554.2724609375
 21
-103.632503509522
 31
0.0
  0
LINE
  5
   524
  8
0
  6
CONTINUOUS
 62
     3
 10
-555.0224609375
 20
-98.3825149536133
 30
0.0
 11
-555.0224609375
 21
-103.882507324219
 31
0.0
  0
LINE
  5
   525
  8
0
  6
CONTINUOUS
 62
     3
 10
-555.0224609375
 20
-80.8825073242187
 30
0.0
 11
-555.0224609375
 21
-86.3825149536133
 31
0.0
  0
LINE
  5
   526
  8
0
  6
CONTINUOUS
 62
   253
 10
-562.5224609375
 20
-97.8825149536133
 30
0.0
 11
-562.5224609375
 21
-98.3825073242188
 31
0.0
  0
LINE
  5
   527
  8
0
  6
CONTINUOUS
 62
   253
 10
-562.5224609375
 20
-86.3825073242188
 30
0.0
 11
-562.5224609375
 21
-86.8825149536133
 31
0.0
  0
LINE
  5
   528
  8
0
  6
CONTINUOUS
 62
     7
 10
-595.422439575195
 20
-86.8825149536133
 30
0.0
 11
-595.422439575195
 21
-87.6325149536133
 31
0.0
  0
LINE
  5
   529
  8
0
  6
CONTINUOUS
 62
     7
 10
-595.422439575195
 20
-87.7041091918945
 30
0.0
 11
-595.422439575195
 21
-97.0609245300293
 31
0.0
  0
LINE
  5
   52A
  8
0
  6
CONTINUOUS
 62
     7
 10
-595.422439575195
 20
-97.1325149536133
 30
0.0
 11
-595.422439575195
 21
-97.8825149536133
 31
0.0
  0
LINE
  5
   52B
  8
0
  6
CONTINUOUS
 62
     7
 10
-596.672439575195
 20
-86.8825149536133
 30
0.0
 11
-596.672439575195
 21
-97.8825149536133
 31
0.0
  0
LINE
  5
   52C
  8
0
  6
CONTINUOUS
 62
     7
 10
-599.672439575195
 20
-86.8825149536133
 30
0.0
 11
-599.672439575195
 21
-97.8825149536133
 31
0.0
  0
LINE
  5
   52D
  8
0
  6
CONTINUOUS
 62
     7
 10
-600.922439575195
 20
-97.1325149536133
 30
0.0
 11
-600.922439575195
 21
-97.8825149536133
 31
0.0
  0
LINE
  5
   52E
  8
0
  6
CONTINUOUS
 62
     7
 10
-600.922439575195
 20
-87.7041091918945
 30
0.0
 11
-600.922439575195
 21
-97.0609245300293
 31
0.0
  0
LINE
  5
   52F
  8
0
  6
CONTINUOUS
 62
     7
 10
-600.922439575195
 20
-86.8825149536133
 30
0.0
 11
-600.922439575195
 21
-87.6325149536133
 31
0.0
  0
LINE
  5
   530
  8
0
  6
CONTINUOUS
 62
     3
 10
-588.922439575195
 20
-97.1325149536133
 30
0.0
 11
-591.922439575195
 21
-97.1325149536133
 31
0.0
  0
LINE
  5
   531
  8
0
  6
CONTINUOUS
 62
     3
 10
-588.922439575195
 20
-87.6325149536133
 30
0.0
 11
-591.922439575195
 21
-87.6325149536133
 31
0.0
  0
LINE
  5
   532
  8
0
  6
CONTINUOUS
 62
     3
 10
-591.922439575195
 20
-87.6325149536133
 30
0.0
 11
-591.922439575195
 21
-97.1325149536133
 31
0.0
  0
LINE
  5
   533
  8
0
  6
CONTINUOUS
 62
     3
 10
-588.922439575195
 20
-87.6325149536133
 30
0.0
 11
-588.922439575195
 21
-88.8354148864746
 31
0.0
  0
LINE
  5
   534
  8
0
  6
CONTINUOUS
 62
     3
 10
-588.922439575195
 20
-91.2253112792969
 30
0.0
 11
-588.922439575195
 21
-93.5397148132324
 31
0.0
  0
LINE
  5
   535
  8
0
  6
CONTINUOUS
 62
     3
 10
-588.922439575195
 20
-95.9296226501465
 30
0.0
 11
-588.922439575195
 21
-97.1325149536133
 31
0.0
  0
LINE
  5
   536
  8
0
  6
CONTINUOUS
 62
     3
 10
-592.422439575195
 20
-97.1325149536133
 30
0.0
 11
-595.422439575195
 21
-97.1325149536133
 31
0.0
  0
LINE
  5
   537
  8
0
  6
CONTINUOUS
 62
     3
 10
-592.422439575195
 20
-87.6325149536133
 30
0.0
 11
-595.422439575195
 21
-87.6325149536133
 31
0.0
  0
LINE
  5
   538
  8
0
  6
CONTINUOUS
 62
     3
 10
-595.422439575195
 20
-97.0609245300293
 30
0.0
 11
-595.422439575195
 21
-97.1325149536133
 31
0.0
  0
LINE
  5
   539
  8
0
  6
CONTINUOUS
 62
     3
 10
-595.422439575195
 20
-87.6325149536133
 30
0.0
 11
-595.422439575195
 21
-87.7041130065918
 31
0.0
  0
LINE
  5
   53A
  8
0
  6
CONTINUOUS
 62
     3
 10
-592.422439575195
 20
-87.6325149536133
 30
0.0
 11
-592.422439575195
 21
-97.1325149536133
 31
0.0
  0
LINE
  5
   53B
  8
0
  6
CONTINUOUS
 62
     3
 10
-600.922439575195
 20
-97.1325149536133
 30
0.0
 11
-603.922439575195
 21
-97.1325149536133
 31
0.0
  0
LINE
  5
   53C
  8
0
  6
CONTINUOUS
 62
     3
 10
-600.922439575195
 20
-87.6325149536133
 30
0.0
 11
-603.922439575195
 21
-87.6325149536133
 31
0.0
  0
LINE
  5
   53D
  8
0
  6
CONTINUOUS
 62
     3
 10
-600.922439575195
 20
-87.6325149536133
 30
0.0
 11
-600.922439575195
 21
-87.7041130065918
 31
0.0
  0
LINE
  5
   53E
  8
0
  6
CONTINUOUS
 62
     3
 10
-600.922439575195
 20
-97.0609245300293
 30
0.0
 11
-600.922439575195
 21
-97.1325149536133
 31
0.0
  0
LINE
  5
   53F
  8
0
  6
CONTINUOUS
 62
     3
 10
-603.922439575195
 20
-87.6325149536133
 30
0.0
 11
-603.922439575195
 21
-97.1325149536133
 31
0.0
  0
LINE
  5
   540
  8
0
  6
CONTINUOUS
 62
     7
 10
-588.522438049316
 20
-87.3825149536133
 30
0.0
 11
-588.522438049316
 21
-97.3825149536133
 31
0.0
  0
LINE
  5
   541
  8
0
  6
CONTINUOUS
 62
     7
 10
-588.922439575195
 20
-97.1325149536133
 30
0.0
 11
-588.922439575195
 21
-97.3825149536133
 31
0.0
  0
LINE
  5
   542
  8
0
  6
CONTINUOUS
 62
     7
 10
-588.922439575195
 20
-93.5397186279297
 30
0.0
 11
-588.922439575195
 21
-95.9296264648438
 31
0.0
  0
LINE
  5
   543
  8
0
  6
CONTINUOUS
 62
     7
 10
-588.922439575195
 20
-88.8354187011719
 30
0.0
 11
-588.922439575195
 21
-91.2253150939941
 31
0.0
  0
LINE
  5
   544
  8
0
  6
CONTINUOUS
 62
     7
 10
-588.922439575195
 20
-87.3825149536133
 30
0.0
 11
-588.922439575195
 21
-87.6325149536133
 31
0.0
  0
LINE
  5
   545
  8
0
  6
CONTINUOUS
 62
   212
 10
-605.272438049316
 20
-90.3825149536133
 30
0.0
 11
-605.272438049316
 21
-94.3825149536133
 31
0.0
  0
LINE
  5
   546
  8
0
  6
CONTINUOUS
 62
     7
 10
-549.0224609375
 20
-81.1325225830078
 30
0.0
 11
-552.2724609375
 21
-81.1325225830078
 31
0.0
  0
LINE
  5
   547
  8
0
  6
CONTINUOUS
 62
     7
 10
-549.0224609375
 20
-68.6325225830078
 30
0.0
 11
-554.5224609375
 21
-68.6325225830078
 31
0.0
  0
LINE
  5
   548
  8
0
  6
CONTINUOUS
 62
     7
 10
-549.0224609375
 20
-98.6325073242188
 30
0.0
 11
-552.2724609375
 21
-98.6325073242188
 31
0.0
  0
LINE
  5
   549
  8
0
  6
CONTINUOUS
 62
     7
 10
-549.0224609375
 20
-86.1325073242188
 30
0.0
 11
-552.2724609375
 21
-86.1325073242188
 31
0.0
  0
LINE
  5
   54A
  8
0
  6
CONTINUOUS
 62
     7
 10
-549.0224609375
 20
-116.132499694824
 30
0.0
 11
-554.5224609375
 21
-116.132499694824
 31
0.0
  0
LINE
  5
   54B
  8
0
  6
CONTINUOUS
 62
     7
 10
-549.0224609375
 20
-103.632499694824
 30
0.0
 11
-552.2724609375
 21
-103.632499694824
 31
0.0
  0
LINE
  5
   54C
  8
0
  6
CONTINUOUS
 62
     7
 10
-549.0224609375
 20
-116.632499694824
 30
0.0
 11
-552.2724609375
 21
-116.632499694824
 31
0.0
  0
LINE
  5
   54D
  8
0
  6
CONTINUOUS
 62
     7
 10
-549.0224609375
 20
-68.1324691772461
 30
0.0
 11
-552.2724609375
 21
-68.1324691772461
 31
0.0
  0
LINE
  5
   54E
  8
0
  6
CONTINUOUS
 62
     7
 10
-530.522438049316
 20
-67.8824996948242
 30
0.0
 11
-549.0224609375
 21
-67.8824996948242
 31
0.0
  0
LINE
  5
   54F
  8
0
  6
CONTINUOUS
 62
     7
 10
-530.522438049316
 20
-116.882499694824
 30
0.0
 11
-549.0224609375
 21
-116.882499694824
 31
0.0
  0
LINE
  5
   550
  8
0
  6
CONTINUOUS
 62
   253
 10
-554.5224609375
 20
-103.882507324219
 30
0.0
 11
-562.5224609375
 21
-103.882507324219
 31
0.0
  0
LINE
  5
   551
  8
0
  6
CONTINUOUS
 62
   253
 10
-554.5224609375
 20
-115.882507324219
 30
0.0
 11
-562.5224609375
 21
-115.882507324219
 31
0.0
  0
LINE
  5
   552
  8
0
  6
CONTINUOUS
 62
   253
 10
-554.5224609375
 20
-68.8825073242188
 30
0.0
 11
-562.5224609375
 21
-68.8825073242188
 31
0.0
  0
LINE
  5
   553
  8
0
  6
CONTINUOUS
 62
   253
 10
-554.5224609375
 20
-80.8825073242187
 30
0.0
 11
-562.5224609375
 21
-80.8825073242187
 31
0.0
  0
LINE
  5
   554
  8
0
  6
CONTINUOUS
 62
   253
 10
-554.522438049316
 20
-86.3825149536133
 30
0.0
 11
-562.022438049316
 21
-86.3825149536133
 31
0.0
  0
LINE
  5
   555
  8
0
  6
CONTINUOUS
 62
   253
 10
-554.522438049316
 20
-98.3825149536133
 30
0.0
 11
-562.022438049316
 21
-98.3825149536133
 31
0.0
  0
LINE
  5
   556
  8
0
  6
CONTINUOUS
 62
   253
 10
-562.022436461276
 20
-86.3825158714293
 30
0.0
 11
-562.522436444162
 21
-86.882515854315
 31
0.0
  0
LINE
  5
   557
  8
0
  6
CONTINUOUS
 62
   253
 10
-562.02243547859
 20
-98.3825169838565
 30
0.0
 11
-562.522435461476
 21
-97.8825170009707
 31
0.0
  0
LINE
  5
   558
  8
0
  6
CONTINUOUS
 62
     7
 10
-573.672439575195
 20
-104.382530212402
 30
0.0
 11
-574.922439575195
 21
-104.382530212402
 31
0.0
  0
LINE
  5
   559
  8
0
  6
CONTINUOUS
 62
     7
 10
-573.672439575195
 20
-115.382530212402
 30
0.0
 11
-574.922439575195
 21
-115.382530212402
 31
0.0
  0
LINE
  5
   55A
  8
0
  6
CONTINUOUS
 62
     7
 10
-569.422439575195
 20
-104.382530212402
 30
0.0
 11
-570.672439575195
 21
-104.382530212402
 31
0.0
  0
LINE
  5
   55B
  8
0
  6
CONTINUOUS
 62
     7
 10
-569.422439575195
 20
-115.382530212402
 30
0.0
 11
-570.672439575195
 21
-115.382530212402
 31
0.0
  0
LINE
  5
   55C
  8
0
  6
CONTINUOUS
 62
     3
 10
-562.922439575195
 20
-92.3825302124023
 30
0.0
 11
-565.922439575195
 21
-92.3825302124023
 31
0.0
  0
LINE
  5
   55D
  8
0
  6
CONTINUOUS
 62
     3
 10
-566.422439575195
 20
-92.3825302124023
 30
0.0
 11
-569.422439575195
 21
-92.3825302124023
 31
0.0
  0
LINE
  5
   55E
  8
0
  6
CONTINUOUS
 62
     3
 10
-574.922439575195
 20
-92.3825302124023
 30
0.0
 11
-577.922439575195
 21
-92.3825302124023
 31
0.0
  0
LINE
  5
   55F
  8
0
  6
CONTINUOUS
 62
   130
 10
-538.772438049316
 20
-97.3825149536133
 30
0.0
 11
-539.772438049317
 21
-97.3825149536133
 31
0.0
  0
LINE
  5
   560
  8
0
  6
CONTINUOUS
 62
   130
 10
-538.772438049316
 20
-87.3825149536133
 30
0.0
 11
-539.772438049317
 21
-87.3825149536133
 31
0.0
  0
LINE
  5
   561
  8
0
  6
CONTINUOUS
 62
   130
 10
-538.772438049316
 20
-114.882507324219
 30
0.0
 11
-539.772438049317
 21
-114.882507324219
 31
0.0
  0
LINE
  5
   562
  8
0
  6
CONTINUOUS
 62
   130
 10
-538.772438049316
 20
-104.882507324219
 30
0.0
 11
-539.772438049317
 21
-104.882507324219
 31
0.0
  0
LINE
  5
   563
  8
0
  6
CONTINUOUS
 62
     7
 10
-562.522438049317
 20
-104.882530212402
 30
0.0
 11
-562.922439575195
 21
-104.882530212402
 31
0.0
  0
LINE
  5
   564
  8
0
  6
CONTINUOUS
 62
     7
 10
-562.522438049317
 20
-114.882530212402
 30
0.0
 11
-562.922439575195
 21
-114.882530212402
 31
0.0
  0
LINE
  5
   565
  8
0
  6
CONTINUOUS
 62
   130
 10
-538.772438049316
 20
-79.8825073242188
 30
0.0
 11
-539.772438049317
 21
-79.8825073242188
 31
0.0
  0
LINE
  5
   566
  8
0
  6
CONTINUOUS
 62
   130
 10
-538.772438049316
 20
-69.8825073242188
 30
0.0
 11
-539.772438049317
 21
-69.8825073242188
 31
0.0
  0
LINE
  5
   567
  8
0
  6
CONTINUOUS
 62
   212
 10
-578.272436018445
 20
-106.882515655362
 30
0.0
 11
-579.272435984216
 21
-107.882515621133
 31
0.0
  0
LINE
  5
   568
  8
0
  6
CONTINUOUS
 62
   212
 10
-578.272435035758
 20
-112.882517199924
 30
0.0
 11
-579.27243500153
 21
-111.882517234153
 31
0.0
  0
LINE
  5
   569
  8
0
  6
CONTINUOUS
 62
   212
 10
-577.922439575195
 20
-106.882514953613
 30
0.0
 11
-578.272438049316
 21
-106.882514953613
 31
0.0
  0
LINE
  5
   56A
  8
0
  6
CONTINUOUS
 62
   212
 10
-570.672439575195
 20
-106.882514953613
 30
0.0
 11
-573.672439575195
 21
-106.882514953613
 31
0.0
  0
LINE
  5
   56B
  8
0
  6
CONTINUOUS
 62
   212
 10
-565.922439575195
 20
-106.882514953613
 30
0.0
 11
-566.422439575195
 21
-106.882514953613
 31
0.0
  0
LINE
  5
   56C
  8
0
  6
CONTINUOUS
 62
   212
 10
-578.272438049316
 20
-106.882514953613
 30
0.0
 11
-578.272438049316
 21
-112.882514953613
 31
0.0
  0
LINE
  5
   56D
  8
0
  6
CONTINUOUS
 62
   212
 10
-577.922439575195
 20
-112.882514953613
 30
0.0
 11
-578.272438049316
 21
-112.882514953613
 31
0.0
  0
LINE
  5
   56E
  8
0
  6
CONTINUOUS
 62
   212
 10
-570.672439575195
 20
-112.882514953613
 30
0.0
 11
-573.672439575195
 21
-112.882514953613
 31
0.0
  0
LINE
  5
   56F
  8
0
  6
CONTINUOUS
 62
   212
 10
-565.922439575195
 20
-112.882514953613
 30
0.0
 11
-566.422439575195
 21
-112.882514953613
 31
0.0
  0
LINE
  5
   570
  8
0
  6
CONTINUOUS
 62
   253
 10
-562.022438049316
 20
-86.3825073242188
 30
0.0
 11
-562.5224609375
 21
-86.3825073242188
 31
0.0
  0
LINE
  5
   571
  8
0
  6
CONTINUOUS
 62
   253
 10
-562.022438049316
 20
-98.3825073242188
 30
0.0
 11
-562.5224609375
 21
-98.3825073242188
 31
0.0
  0
LINE
  5
   572
  8
0
  6
CONTINUOUS
 62
   253
 10
-562.522438049317
 20
-87.3825073242188
 30
0.0
 11
-588.0224609375
 21
-87.3825073242188
 31
0.0
  0
LINE
  5
   573
  8
0
  6
CONTINUOUS
 62
   253
 10
-562.522438049317
 20
-97.3825073242188
 30
0.0
 11
-588.0224609375
 21
-97.3825073242188
 31
0.0
  0
LINE
  5
   574
  8
0
  6
CONTINUOUS
 62
   253
 10
-588.022463153042
 20
-87.382506917685
 30
0.0
 11
-588.376016928453
 21
-87.5289569552021
 31
0.0
  0
LINE
  5
   575
  8
0
  6
CONTINUOUS
 62
   253
 10
-588.376012639075
 20
-87.5289589047084
 30
0.0
 11
-588.522458867351
 21
-87.8825088575202
 31
0.0
  0
LINE
  5
   576
  8
0
  6
CONTINUOUS
 62
   253
 10
-588.022463337297
 20
-97.3825062510963
 30
0.0
 11
-588.376017109332
 21
-97.2360600228132
 31
0.0
  0
LINE
  5
   577
  8
0
  6
CONTINUOUS
 62
   253
 10
-588.376016275672
 20
-97.2360596154787
 30
0.0
 11
-588.522462503955
 21
-96.8825058434441
 31
0.0
  0
LINE
  5
   578
  8
0
  6
CONTINUOUS
 62
     7
 10
-595.422439575195
 20
-97.8825149536133
 30
0.0
 11
-596.672439575195
 21
-97.8825149536133
 31
0.0
  0
LINE
  5
   579
  8
0
  6
CONTINUOUS
 62
     7
 10
-595.422439575195
 20
-86.8825149536133
 30
0.0
 11
-596.672439575195
 21
-86.8825149536133
 31
0.0
  0
LINE
  5
   57A
  8
0
  6
CONTINUOUS
 62
     7
 10
-599.672439575195
 20
-97.8825149536133
 30
0.0
 11
-600.922439575195
 21
-97.8825149536133
 31
0.0
  0
LINE
  5
   57B
  8
0
  6
CONTINUOUS
 62
     7
 10
-599.672439575195
 20
-86.8825149536133
 30
0.0
 11
-600.922439575195
 21
-86.8825149536133
 31
0.0
  0
LINE
  5
   57C
  8
0
  6
CONTINUOUS
 62
     3
 10
-588.922439575195
 20
-92.3825149536133
 30
0.0
 11
-591.922439575195
 21
-92.3825149536133
 31
0.0
  0
LINE
  5
   57D
  8
0
  6
CONTINUOUS
 62
     3
 10
-592.422439575195
 20
-92.3825149536133
 30
0.0
 11
-595.422439575195
 21
-92.3825149536133
 31
0.0
  0
LINE
  5
   57E
  8
0
  6
CONTINUOUS
 62
     3
 10
-600.922439575195
 20
-92.3825149536133
 30
0.0
 11
-603.922439575195
 21
-92.3825149536133
 31
0.0
  0
LINE
  5
   57F
  8
0
  6
CONTINUOUS
 62
     7
 10
-588.522438049316
 20
-97.3825149536133
 30
0.0
 11
-588.922439575195
 21
-97.3825149536133
 31
0.0
  0
LINE
  5
   580
  8
0
  6
CONTINUOUS
 62
     7
 10
-588.522438049316
 20
-87.3825149536133
 30
0.0
 11
-588.922439575195
 21
-87.3825149536133
 31
0.0
  0
LINE
  5
   581
  8
0
  6
CONTINUOUS
 62
   212
 10
-604.272434368302
 20
-95.3825174224096
 30
0.0
 11
-605.272434334073
 21
-94.3825174566382
 31
0.0
  0
LINE
  5
   582
  8
0
  6
CONTINUOUS
 62
   212
 10
-604.272435350988
 20
-89.3825154328761
 30
0.0
 11
-605.272435316759
 21
-90.3825153986475
 31
0.0
  0
LINE
  5
   583
  8
0
  6
CONTINUOUS
 62
   212
 10
-603.922439575195
 20
-95.3825149536133
 30
0.0
 11
-604.272438049316
 21
-95.3825149536133
 31
0.0
  0
LINE
  5
   584
  8
0
  6
CONTINUOUS
 62
   212
 10
-596.672439575195
 20
-95.3825149536133
 30
0.0
 11
-599.672439575195
 21
-95.3825149536133
 31
0.0
  0
LINE
  5
   585
  8
0
  6
CONTINUOUS
 62
   212
 10
-591.922439575195
 20
-95.3825149536133
 30
0.0
 11
-592.422439575195
 21
-95.3825149536133
 31
0.0
  0
LINE
  5
   586
  8
0
  6
CONTINUOUS
 62
   212
 10
-604.272438049316
 20
-89.3825149536133
 30
0.0
 11
-604.272438049316
 21
-95.3825149536133
 31
0.0
  0
LINE
  5
   587
  8
0
  6
CONTINUOUS
 62
   212
 10
-603.922439575195
 20
-89.3825149536133
 30
0.0
 11
-604.272438049316
 21
-89.3825149536133
 31
0.0
  0
LINE
  5
   588
  8
0
  6
CONTINUOUS
 62
   212
 10
-596.672439575195
 20
-89.3825149536133
 30
0.0
 11
-599.672439575195
 21
-89.3825149536133
 31
0.0
  0
LINE
  5
   589
  8
0
  6
CONTINUOUS
 62
   212
 10
-591.922439575195
 20
-89.3825149536133
 30
0.0
 11
-592.422439575195
 21
-89.3825149536133
 31
0.0
  0
LINE
  5
   58A
  8
0
  6
CONTINUOUS
 62
     7
 10
-552.2724609375
 20
-68.1324691772461
 30
0.0
 11
-555.2724609375
 21
-68.1324691772461
 31
0.0
  0
LINE
  5
   58B
  8
0
  6
CONTINUOUS
 62
     7
 10
-552.2724609375
 20
-81.1325225830078
 30
0.0
 11
-554.5224609375
 21
-81.1325225830078
 31
0.0
  0
LINE
  5
   58C
  8
0
  6
CONTINUOUS
 62
     7
 10
-552.2724609375
 20
-86.1325073242188
 30
0.0
 11
-554.5224609375
 21
-86.1325073242188
 31
0.0
  0
LINE
  5
   58D
  8
0
  6
CONTINUOUS
 62
     7
 10
-552.2724609375
 20
-98.6325073242188
 30
0.0
 11
-554.5224609375
 21
-98.6325073242188
 31
0.0
  0
LINE
  5
   58E
  8
0
  6
CONTINUOUS
 62
     7
 10
-552.2724609375
 20
-103.632499694824
 30
0.0
 11
-554.5224609375
 21
-103.632499694824
 31
0.0
  0
LINE
  5
   58F
  8
0
  6
CONTINUOUS
 62
     7
 10
-552.2724609375
 20
-116.632499694824
 30
0.0
 11
-555.2724609375
 21
-116.632499694824
 31
0.0
  0
LINE
  5
   590
  8
0
  6
CONTINUOUS
 62
     7
 10
-554.5224609375
 20
-68.8825073242188
 30
0.0
 11
-554.5224609375
 21
-81.1325225830078
 31
0.0
  0
LINE
  5
   591
  8
0
  6
CONTINUOUS
 62
     7
 10
-554.5224609375
 20
-115.882507324219
 30
0.0
 11
-554.5224609375
 21
-116.132499694824
 31
0.0
  0
LINE
  5
   592
  8
0
  6
DASHDOT
 62
     7
 10
-525.939167048059
 20
-74.8825073242188
 30
0.0
 11
-608.638652909909
 21
-74.8825073242188
 31
0.0
  0
LINE
  5
   593
  8
0
  6
DASHDOT
 62
     7
 10
-525.939167048059
 20
-92.3825073242188
 30
0.0
 11
-608.638652909909
 21
-92.3825073242188
 31
0.0
  0
LINE
  5
   594
  8
0
  6
DASHDOT
 62
     7
 10
-525.939167048059
 20
-109.882507324219
 30
0.0
 11
-608.638652909909
 21
-109.882507324219
 31
0.0
  0
LINE
  5
   595
  8
0
  6
CONTINUOUS
 62
     7
 10
-596.672439575195
 20
-89.8825073242188
 30
0.0
 11
-599.672439575195
 21
-89.8825073242188
 31
0.0
  0
LINE
  5
   596
  8
0
  6
CONTINUOUS
 62
     7
 10
-596.672439575195
 20
-94.8825073242188
 30
0.0
 11
-599.672439575195
 21
-94.8825073242188
 31
0.0
  0
LINE
  5
   597
  8
0
  6
CONTINUOUS
 62
     7
 10
-570.672439575195
 20
-107.382507324219
 30
0.0
 11
-573.672439575195
 21
-107.382507324219
 31
0.0
  0
LINE
  5
   598
  8
0
  6
CONTINUOUS
 62
     7
 10
-570.672439575195
 20
-112.382507324219
 30
0.0
 11
-573.672439575195
 21
-112.382507324219
 31
0.0
  0
LINE
  5
   599
  8
0
  6
CONTINUOUS
 62
     7
 10
-529.522438049316
 20
-62.4115544106825
 30
0.0
 11
-529.522438049316
 21
-122.358676138953
 31
0.0
  0
LINE
  5
   59A
  8
0
  6
CONTINUOUS
 62
     2
 10
-536.022438049316
 20
-97.0075149536133
 30
0.0
 11
-538.522438049316
 21
-97.0075149536133
 31
0.0
  0
LINE
  5
   59B
  8
0
  6
CONTINUOUS
 62
     2
 10
-536.022438049316
 20
-87.7575149536133
 30
0.0
 11
-538.522438049316
 21
-87.7575149536133
 31
0.0
  0
LINE
  5
   59C
  8
0
  6
CONTINUOUS
 62
     2
 10
-538.522438049316
 20
-87.7575149536133
 30
0.0
 11
-538.522438049316
 21
-97.0075149536133
 31
0.0
  0
LINE
  5
   59D
  8
0
  6
CONTINUOUS
 62
     2
 10
-531.022438049347
 20
-97.0075111389006
 30
0.0
 11
-536.022438049347
 21
-97.007514953598
 31
0.0
  0
LINE
  5
   59E
  8
0
  6
CONTINUOUS
 62
     2
 10
-531.02243804935
 20
-87.7575111388979
 30
0.0
 11
-536.02243804935
 21
-87.7575149535952
 31
0.0
  0
LINE
  5
   59F
  8
0
  6
CONTINUOUS
 62
     2
 10
-536.022438049316
 20
-97.0075035095215
 30
0.0
 11
-536.022438049316
 21
-98.8824996948242
 31
0.0
  0
LINE
  5
   5A0
  8
0
  6
CONTINUOUS
 62
     2
 10
-536.022438049316
 20
-85.8824996948242
 30
0.0
 11
-536.022438049316
 21
-87.7574996948242
 31
0.0
  0
LINE
  5
   5A1
  8
0
  6
CONTINUOUS
 62
     2
 10
-530.522438049316
 20
-85.8824996948242
 30
0.0
 11
-530.522438049316
 21
-87.3824996948242
 31
0.0
  0
LINE
  5
   5A2
  8
0
  6
CONTINUOUS
 62
     2
 10
-530.522438049316
 20
-87.757511138916
 30
0.0
 11
-530.522438049316
 21
-97.0075149536133
 31
0.0
  0
LINE
  5
   5A3
  8
0
  6
CONTINUOUS
 62
     2
 10
-530.522438049316
 20
-97.3824996948242
 30
0.0
 11
-530.522438049316
 21
-98.8824996948242
 31
0.0
  0
LINE
  5
   5A4
  8
0
  6
CONTINUOUS
 62
     2
 10
-530.522438049316
 20
-97.3824996948242
 30
0.0
 11
-531.022438049316
 21
-97.3824996948242
 31
0.0
  0
LINE
  5
   5A5
  8
0
  6
CONTINUOUS
 62
     2
 10
-530.522438049316
 20
-87.3824996948242
 30
0.0
 11
-531.022438049316
 21
-87.3824996948242
 31
0.0
  0
LINE
  5
   5A6
  8
0
  6
CONTINUOUS
 62
     2
 10
-530.522438049316
 20
-87.3824996948242
 30
0.0
 11
-530.522438049316
 21
-87.7575149536133
 31
0.0
  0
LINE
  5
   5A7
  8
0
  6
CONTINUOUS
 62
     2
 10
-530.522438049316
 20
-97.0075149536133
 30
0.0
 11
-530.522438049316
 21
-97.3824996948242
 31
0.0
  0
LINE
  5
   5A8
  8
0
  6
CONTINUOUS
 62
     2
 10
-531.022438049316
 20
-87.3824996948242
 30
0.0
 11
-531.022438049316
 21
-87.7575149536133
 31
0.0
  0
LINE
  5
   5A9
  8
0
  6
CONTINUOUS
 62
     2
 10
-531.022438049316
 20
-97.0075149536133
 30
0.0
 11
-531.022438049316
 21
-97.3824996948242
 31
0.0
  0
LINE
  5
   5AA
  8
0
  6
CONTINUOUS
 62
     2
 10
-534.156414031983
 20
-97.0075149536133
 30
0.0
 11
-534.156414031983
 21
-97.5074920654297
 31
0.0
  0
LINE
  5
   5AB
  8
0
  6
CONTINUOUS
 62
     2
 10
-534.156412548118
 20
-97.5074929283578
 30
0.0
 11
-536.022436517706
 21
-97.0075043546075
 31
0.0
  0
LINE
  5
   5AC
  8
0
  6
CONTINUOUS
 62
     2
 10
-534.156414031983
 20
-87.2574882507324
 30
0.0
 11
-534.156414031983
 21
-87.7574882507324
 31
0.0
  0
LINE
  5
   5AD
  8
0
  6
CONTINUOUS
 62
     2
 10
-534.156410656193
 20
-87.2574902163419
 30
0.0
 11
-536.022434625785
 21
-87.7575016350166
 31
0.0
  0
LINE
  5
   5AE
  8
0
  6
CONTINUOUS
 62
     2
 10
-536.022438049316
 20
-79.5075149536133
 30
0.0
 11
-538.522438049316
 21
-79.5075149536133
 31
0.0
  0
LINE
  5
   5AF
  8
0
  6
CONTINUOUS
 62
     2
 10
-536.022438049316
 20
-70.2575149536133
 30
0.0
 11
-538.522438049316
 21
-70.2575149536133
 31
0.0
  0
LINE
  5
   5B0
  8
0
  6
CONTINUOUS
 62
     2
 10
-538.522438049316
 20
-70.2575149536133
 30
0.0
 11
-538.522438049316
 21
-79.5075149536133
 31
0.0
  0
LINE
  5
   5B1
  8
0
  6
CONTINUOUS
 62
     2
 10
-531.022438049316
 20
-79.5075149536133
 30
0.0
 11
-536.022438049316
 21
-79.5075149536133
 31
0.0
  0
LINE
  5
   5B2
  8
0
  6
CONTINUOUS
 62
     2
 10
-531.022438049316
 20
-70.2575149536133
 30
0.0
 11
-536.022438049316
 21
-70.2575149536133
 31
0.0
  0
LINE
  5
   5B3
  8
0
  6
CONTINUOUS
 62
     2
 10
-536.022438049316
 20
-79.5074996948242
 30
0.0
 11
-536.022438049316
 21
-81.3824996948242
 31
0.0
  0
LINE
  5
   5B4
  8
0
  6
CONTINUOUS
 62
     2
 10
-536.022438049316
 20
-68.3824996948242
 30
0.0
 11
-536.022438049316
 21
-70.2574996948242
 31
0.0
  0
LINE
  5
   5B5
  8
0
  6
CONTINUOUS
 62
     2
 10
-530.522438049316
 20
-68.3824996948242
 30
0.0
 11
-530.522438049316
 21
-69.8824996948242
 31
0.0
  0
LINE
  5
   5B6
  8
0
  6
CONTINUOUS
 62
     2
 10
-530.522438049316
 20
-70.2575073242188
 30
0.0
 11
-530.522438049316
 21
-79.5075149536133
 31
0.0
  0
LINE
  5
   5B7
  8
0
  6
CONTINUOUS
 62
     2
 10
-530.522438049316
 20
-79.8824996948242
 30
0.0
 11
-530.522438049316
 21
-81.3824996948242
 31
0.0
  0
LINE
  5
   5B8
  8
0
  6
CONTINUOUS
 62
     2
 10
-530.522438049316
 20
-79.8824996948242
 30
0.0
 11
-531.022438049316
 21
-79.8824996948242
 31
0.0
  0
LINE
  5
   5B9
  8
0
  6
CONTINUOUS
 62
     2
 10
-530.522438049316
 20
-69.8824996948242
 30
0.0
 11
-531.022438049316
 21
-69.8824996948242
 31
0.0
  0
LINE
  5
   5BA
  8
0
  6
CONTINUOUS
 62
     2
 10
-530.522438049316
 20
-69.8824996948242
 30
0.0
 11
-530.522438049316
 21
-70.2575149536133
 31
0.0
  0
LINE
  5
   5BB
  8
0
  6
CONTINUOUS
 62
     2
 10
-530.522438049316
 20
-79.5075149536133
 30
0.0
 11
-530.522438049316
 21
-79.8824996948242
 31
0.0
  0
LINE
  5
   5BC
  8
0
  6
CONTINUOUS
 62
     2
 10
-531.022438049316
 20
-69.8824996948242
 30
0.0
 11
-531.022438049316
 21
-70.2575149536133
 31
0.0
  0
LINE
  5
   5BD
  8
0
  6
CONTINUOUS
 62
     2
 10
-531.022438049316
 20
-79.5075149536133
 30
0.0
 11
-531.022438049316
 21
-79.8824996948242
 31
0.0
  0
LINE
  5
   5BE
  8
0
  6
CONTINUOUS
 62
     2
 10
-534.156414031983
 20
-79.5075149536133
 30
0.0
 11
-534.156414031983
 21
-80.0074920654297
 31
0.0
  0
LINE
  5
   5BF
  8
0
  6
CONTINUOUS
 62
     2
 10
-534.156414680795
 20
-80.007491603746
 30
0.0
 11
-536.022438650386
 21
-79.5074992136106
 31
0.0
  0
LINE
  5
   5C0
  8
0
  6
CONTINUOUS
 62
     2
 10
-534.156414031983
 20
-69.7574920654297
 30
0.0
 11
-534.156414031983
 21
-70.2574920654297
 31
0.0
  0
LINE
  5
   5C1
  8
0
  6
CONTINUOUS
 62
     2
 10
-534.156409290632
 20
-69.7574959884327
 30
0.0
 11
-536.022433260225
 21
-70.2575035907043
 31
0.0
  0
LINE
  5
   5C2
  8
0
  6
CONTINUOUS
 62
     2
 10
-536.022438049316
 20
-114.507514953613
 30
0.0
 11
-538.522438049316
 21
-114.507514953613
 31
0.0
  0
LINE
  5
   5C3
  8
0
  6
CONTINUOUS
 62
     2
 10
-536.022438049316
 20
-105.257514953613
 30
0.0
 11
-538.522438049316
 21
-105.257514953613
 31
0.0
  0
LINE
  5
   5C4
  8
0
  6
CONTINUOUS
 62
     2
 10
-538.522438049316
 20
-105.257514953613
 30
0.0
 11
-538.522438049316
 21
-114.507514953613
 31
0.0
  0
LINE
  5
   5C5
  8
0
  6
CONTINUOUS
 62
     2
 10
-531.022434234649
 20
-114.507511138906
 30
0.0
 11
-536.022438049347
 21
-114.507514953603
 31
0.0
  0
LINE
  5
   5C6
  8
0
  6
CONTINUOUS
 62
     2
 10
-531.022441864047
 20
-105.257511138903
 30
0.0
 11
-536.02243804935
 21
-105.2575149536
 31
0.0
  0
LINE
  5
   5C7
  8
0
  6
CONTINUOUS
 62
     2
 10
-536.022438049316
 20
-114.507503509521
 30
0.0
 11
-536.022438049316
 21
-116.382499694824
 31
0.0
  0
LINE
  5
   5C8
  8
0
  6
CONTINUOUS
 62
     2
 10
-536.022438049316
 20
-103.382499694824
 30
0.0
 11
-536.022438049316
 21
-105.257499694824
 31
0.0
  0
LINE
  5
   5C9
  8
0
  6
CONTINUOUS
 62
     2
 10
-530.522438049316
 20
-103.382499694824
 30
0.0
 11
-530.522438049316
 21
-104.882499694824
 31
0.0
  0
LINE
  5
   5CA
  8
0
  6
CONTINUOUS
 62
     2
 10
-530.522438049316
 20
-105.257511138916
 30
0.0
 11
-530.522438049316
 21
-114.507514953613
 31
0.0
  0
LINE
  5
   5CB
  8
0
  6
CONTINUOUS
 62
     2
 10
-530.522438049316
 20
-114.882499694824
 30
0.0
 11
-530.522438049316
 21
-116.382499694824
 31
0.0
  0
LINE
  5
   5CC
  8
0
  6
CONTINUOUS
 62
     2
 10
-530.522438049316
 20
-114.882499694824
 30
0.0
 11
-531.022438049316
 21
-114.882499694824
 31
0.0
  0
LINE
  5
   5CD
  8
0
  6
CONTINUOUS
 62
     2
 10
-530.522438049316
 20
-104.882499694824
 30
0.0
 11
-531.022438049316
 21
-104.882499694824
 31
0.0
  0
LINE
  5
   5CE
  8
0
  6
CONTINUOUS
 62
     2
 10
-530.522438049316
 20
-104.882499694824
 30
0.0
 11
-530.522438049316
 21
-105.257514953613
 31
0.0
  0
LINE
  5
   5CF
  8
0
  6
CONTINUOUS
 62
     2
 10
-530.522438049316
 20
-114.507514953613
 30
0.0
 11
-530.522438049316
 21
-114.882499694824
 31
0.0
  0
LINE
  5
   5D0
  8
0
  6
CONTINUOUS
 62
     2
 10
-531.022438049316
 20
-104.882499694824
 30
0.0
 11
-531.022438049316
 21
-105.257514953613
 31
0.0
  0
LINE
  5
   5D1
  8
0
  6
CONTINUOUS
 62
     2
 10
-531.022438049316
 20
-114.507514953613
 30
0.0
 11
-531.022438049316
 21
-114.882499694824
 31
0.0
  0
LINE
  5
   5D2
  8
0
  6
CONTINUOUS
 62
     2
 10
-534.156414031983
 20
-114.507514953613
 30
0.0
 11
-534.156414031983
 21
-115.00749206543
 31
0.0
  0
LINE
  5
   5D3
  8
0
  6
CONTINUOUS
 62
     2
 10
-534.156412602375
 20
-115.007492696787
 30
0.0
 11
-536.022436571964
 21
-114.507504123036
 31
0.0
  0
LINE
  5
   5D4
  8
0
  6
CONTINUOUS
 62
     2
 10
-534.156414031983
 20
-104.757488250732
 30
0.0
 11
-534.156414031983
 21
-105.257488250732
 31
0.0
  0
LINE
  5
   5D5
  8
0
  6
CONTINUOUS
 62
     2
 10
-534.156410493782
 20
-104.757489523191
 30
0.0
 11
-536.022434463374
 21
-105.257500941865
 31
0.0
  0
LINE
  5
   5D6
  8
0
  6
CONTINUOUS
 62
     2
 10
-530.522438049316
 20
-98.8824996948242
 30
0.0
 11
-536.022438049316
 21
-98.8824996948242
 31
0.0
  0
LINE
  5
   5D7
  8
0
  6
CONTINUOUS
 62
     2
 10
-530.522438049316
 20
-85.8824996948242
 30
0.0
 11
-536.022438049316
 21
-85.8824996948242
 31
0.0
  0
LINE
  5
   5D8
  8
0
  6
CONTINUOUS
 62
     2
 10
-529.522438049316
 20
-86.1658333594702
 30
0.0
 11
-530.522437690451
 21
-86.1325000403354
 31
0.0
  0
LINE
  5
   5D9
  8
0
  6
CONTINUOUS
 62
     2
 10
-529.522438049316
 20
-98.5991666173704
 30
0.0
 11
-530.522437710002
 21
-98.6324999371568
 31
0.0
  0
LINE
  5
   5DA
  8
0
  6
CONTINUOUS
 62
     2
 10
-530.522438049316
 20
-81.3824996948242
 30
0.0
 11
-536.022438049316
 21
-81.3824996948242
 31
0.0
  0
LINE
  5
   5DB
  8
0
  6
CONTINUOUS
 62
     2
 10
-530.522438049316
 20
-68.3824996948242
 30
0.0
 11
-536.022438049316
 21
-68.3824996948242
 31
0.0
  0
LINE
  5
   5DC
  8
0
  6
CONTINUOUS
 62
     2
 10
-529.522438049316
 20
-68.6658334489513
 30
0.0
 11
-530.522437687472
 21
-68.6325001299159
 31
0.0
  0
LINE
  5
   5DD
  8
0
  6
CONTINUOUS
 62
     2
 10
-529.522438049316
 20
-81.0991667068515
 30
0.0
 11
-530.522437712982
 21
-81.1325000267373
 31
0.0
  0
LINE
  5
   5DE
  8
0
  6
CONTINUOUS
 62
     2
 10
-530.522438049316
 20
-116.382499694824
 30
0.0
 11
-536.022438049316
 21
-116.382499694824
 31
0.0
  0
LINE
  5
   5DF
  8
0
  6
CONTINUOUS
 62
     2
 10
-530.522438049316
 20
-103.382499694824
 30
0.0
 11
-536.022438049316
 21
-103.382499694824
 31
0.0
  0
LINE
  5
   5E0
  8
0
  6
CONTINUOUS
 62
     2
 10
-529.522438049316
 20
-103.665833269989
 30
0.0
 11
-530.522437693431
 21
-103.632499950755
 31
0.0
  0
LINE
  5
   5E1
  8
0
  6
CONTINUOUS
 62
     2
 10
-529.522438049316
 20
-116.099166527889
 30
0.0
 11
-530.522437707023
 21
-116.132499847576
 31
0.0
  0
LINE
  5
   5E2
  8
0
  6
CONTINUOUS
 62
   212
 10
-579.272438049316
 20
-72.8824996948242
 30
0.0
 11
-579.272438049316
 21
-76.8824996948242
 31
0.0
  0
LINE
  5
   5E3
  8
0
  6
CONTINUOUS
 62
   212
 10
-578.272438049316
 20
-71.8824996948242
 30
0.0
 11
-578.272438049316
 21
-77.8824996948242
 31
0.0
  0
LINE
  5
   5E4
  8
0
  6
CONTINUOUS
 62
   212
 10
-577.922439575195
 20
-77.8824996948242
 30
0.0
 11
-578.272438049316
 21
-77.8824996948242
 31
0.0
  0
LINE
  5
   5E5
  8
0
  6
CONTINUOUS
 62
   212
 10
-577.922439575195
 20
-71.8824996948242
 30
0.0
 11
-578.272438049316
 21
-71.8824996948242
 31
0.0
  0
LINE
  5
   5E6
  8
0
  6
CONTINUOUS
 62
   212
 10
-578.272435035758
 20
-71.8824974485133
 30
0.0
 11
-579.27243500153
 21
-72.8824974142848
 31
0.0
  0
LINE
  5
   5E7
  8
0
  6
CONTINUOUS
 62
   212
 10
-578.272435035758
 20
-71.8824974485133
 30
0.0
 11
-579.27243500153
 21
-72.8824974142848
 31
0.0
  0
LINE
  5
   5E8
  8
0
  6
CONTINUOUS
 62
     3
 10
-574.922439575195
 20
-79.6324844360352
 30
0.0
 11
-577.922439575195
 21
-79.6324844360352
 31
0.0
  0
LINE
  5
   5E9
  8
0
  6
CONTINUOUS
 62
     3
 10
-577.922439575195
 20
-70.1324844360352
 30
0.0
 11
-577.922439575195
 21
-79.6324844360352
 31
0.0
  0
LINE
  5
   5EA
  8
0
  6
CONTINUOUS
 62
     3
 10
-574.922439575195
 20
-70.1324844360352
 30
0.0
 11
-577.922439575195
 21
-70.1324844360352
 31
0.0
  0
LINE
  5
   5EB
  8
0
  6
CONTINUOUS
 62
     7
 10
-574.922439575195
 20
-69.3824844360352
 30
0.0
 11
-574.922439575195
 21
-80.3824844360352
 31
0.0
  0
LINE
  5
   5EC
  8
0
  6
CONTINUOUS
 62
     7
 10
-573.672439575195
 20
-69.3824844360352
 30
0.0
 11
-573.672439575195
 21
-80.3824844360352
 31
0.0
  0
LINE
  5
   5ED
  8
0
  6
CONTINUOUS
 62
     7
 10
-573.672439575195
 20
-80.3824844360352
 30
0.0
 11
-574.922439575195
 21
-80.3824844360352
 31
0.0
  0
LINE
  5
   5EE
  8
0
  6
CONTINUOUS
 62
     7
 10
-573.672439575195
 20
-69.3824844360352
 30
0.0
 11
-574.922439575195
 21
-69.3824844360352
 31
0.0
  0
LINE
  5
   5EF
  8
0
  6
CONTINUOUS
 62
   212
 10
-570.672439575195
 20
-71.8824996948242
 30
0.0
 11
-573.672439575195
 21
-71.8824996948242
 31
0.0
  0
LINE
  5
   5F0
  8
0
  6
CONTINUOUS
 62
     7
 10
-570.672439575195
 20
-72.3825073242188
 30
0.0
 11
-573.672439575195
 21
-72.3825073242188
 31
0.0
  0
LINE
  5
   5F1
  8
0
  6
CONTINUOUS
 62
     7
 10
-570.672439575195
 20
-77.3825073242188
 30
0.0
 11
-573.672439575195
 21
-77.3825073242188
 31
0.0
  0
LINE
  5
   5F2
  8
0
  6
CONTINUOUS
 62
   212
 10
-570.672439575195
 20
-77.8824996948242
 30
0.0
 11
-573.672439575195
 21
-77.8824996948242
 31
0.0
  0
LINE
  5
   5F3
  8
0
  6
CONTINUOUS
 62
     7
 10
-569.422439575195
 20
-80.3824844360352
 30
0.0
 11
-570.672439575195
 21
-80.3824844360352
 31
0.0
  0
LINE
  5
   5F4
  8
0
  6
CONTINUOUS
 62
     7
 10
-569.422439575195
 20
-69.3824844360352
 30
0.0
 11
-569.422439575195
 21
-80.3824844360352
 31
0.0
  0
LINE
  5
   5F5
  8
0
  6
CONTINUOUS
 62
     7
 10
-570.672439575195
 20
-69.3824844360352
 30
0.0
 11
-570.672439575195
 21
-80.3824844360352
 31
0.0
  0
LINE
  5
   5F6
  8
0
  6
CONTINUOUS
 62
     7
 10
-569.422439575195
 20
-69.3824844360352
 30
0.0
 11
-570.672439575195
 21
-69.3824844360352
 31
0.0
  0
LINE
  5
   5F7
  8
0
  6
CONTINUOUS
 62
     3
 10
-566.422439575195
 20
-79.6324844360352
 30
0.0
 11
-569.422439575195
 21
-79.6324844360352
 31
0.0
  0
LINE
  5
   5F8
  8
0
  6
CONTINUOUS
 62
     3
 10
-566.422439575195
 20
-70.1324844360352
 30
0.0
 11
-566.422439575195
 21
-79.6324844360352
 31
0.0
  0
LINE
  5
   5F9
  8
0
  6
CONTINUOUS
 62
   212
 10
-565.922439575195
 20
-77.8824996948242
 30
0.0
 11
-566.422439575195
 21
-77.8824996948242
 31
0.0
  0
LINE
  5
   5FA
  8
0
  6
CONTINUOUS
 62
   212
 10
-565.922439575195
 20
-71.8824996948242
 30
0.0
 11
-566.422439575195
 21
-71.8824996948242
 31
0.0
  0
LINE
  5
   5FB
  8
0
  6
CONTINUOUS
 62
     3
 10
-566.422439575195
 20
-70.1324844360352
 30
0.0
 11
-569.422439575195
 21
-70.1324844360352
 31
0.0
  0
LINE
  5
   5FC
  8
0
  6
CONTINUOUS
 62
     3
 10
-565.922439575195
 20
-70.1324844360352
 30
0.0
 11
-565.922439575195
 21
-79.6324844360352
 31
0.0
  0
LINE
  5
   5FD
  8
0
  6
CONTINUOUS
 62
     3
 10
-562.922439575195
 20
-79.6324844360352
 30
0.0
 11
-565.922439575195
 21
-79.6324844360352
 31
0.0
  0
LINE
  5
   5FE
  8
0
  6
CONTINUOUS
 62
     7
 10
-562.922439575195
 20
-69.8824844360352
 30
0.0
 11
-562.922439575195
 21
-79.8824844360352
 31
0.0
  0
LINE
  5
   5FF
  8
0
  6
CONTINUOUS
 62
     7
 10
-562.522438049317
 20
-79.8824844360352
 30
0.0
 11
-562.922439575195
 21
-79.8824844360352
 31
0.0
  0
LINE
  5
   600
  8
0
  6
CONTINUOUS
 62
     7
 10
-562.522438049317
 20
-69.8824844360352
 30
0.0
 11
-562.922439575195
 21
-69.8824844360352
 31
0.0
  0
LINE
  5
   601
  8
0
  6
CONTINUOUS
 62
     3
 10
-562.922439575195
 20
-70.1324844360352
 30
0.0
 11
-565.922439575195
 21
-70.1324844360352
 31
0.0
  0
LINE
  5
   602
  8
0
  6
CONTINUOUS
 62
     7
 10
-578.272438049316
 20
-77.8824996948242
 30
0.0
 11
-579.272438049316
 21
-76.8824996948242
 31
0.0
  0
INSERT
  5
   603
  8
0
  6
CONTINUOUS
 62
     7
  2
*UDIM2402
 10
0.0
 20
0.0
 30
0.0
  0
INSERT
  5
   604
  8
0
  6
CONTINUOUS
 62
     7
  2
*UDIM2403
 10
0.0
 20
0.0
 30
0.0
  0
INSERT
  5
   605
  8
0
  6
CONTINUOUS
 62
     7
  2
*UDIM2404
 10
0.0
 20
0.0
 30
0.0
  0
INSERT
  5
   606
  8
0
  6
CONTINUOUS
 62
     7
  2
*UDIM2405
 10
0.0
 20
0.0
 30
0.0
  0
INSERT
  5
   607
  8
0
  6
CONTINUOUS
 62
     7
  2
*UDIM2406
 10
0.0
 20
0.0
 30
0.0
  0
LINE
  5
   608
  8
0
  6
CONTINUOUS
 62
     7
 10
-407.159545898438
 20
38.6842575073242
 30
0.0
 11
-379.159545898438
 21
38.6842575073242
 31
0.0
  0
LINE
  5
   609
  8
0
  6
CONTINUOUS
 62
     7
 10
-407.159545898438
 20
66.6842575073242
 30
0.0
 11
-379.159545898438
 21
66.6842575073242
 31
0.0
  0
LINE
  5
   60A
  8
0
  6
CONTINUOUS
 62
     7
 10
-407.159545898438
 20
66.6842575073242
 30
0.0
 11
-407.159545898438
 21
38.6842575073242
 31
0.0
  0
LINE
  5
   60B
  8
0
  6
CONTINUOUS
 62
     7
 10
-379.159545898438
 20
66.6842575073242
 30
0.0
 11
-379.159545898438
 21
38.6842575073242
 31
0.0
  0
CIRCLE
  5
   60C
  8
0
  6
CONTINUOUS
 62
     7
 10
-403.159545898438
 20
70.4342575073242
 30
0.0
 40
0.875
  0
CIRCLE
  5
   60D
  8
0
  6
CONTINUOUS
 62
     7
 10
-383.159545898438
 20
70.4342575073242
 30
0.0
 40
0.875
  0
CIRCLE
  5
   60E
  8
0
  6
CONTINUOUS
 62
     7
 10
-403.159545898438
 20
34.9342575073242
 30
0.0
 40
0.875
  0
CIRCLE
  5
   60F
  8
0
  6
CONTINUOUS
 62
     7
 10
-383.159545898438
 20
34.9342575073242
 30
0.0
 40
0.875
  0
LINE
  5
   610
  8
0
  6
DASHDOT
 62
     7
 10
-403.159545898438
 20
72.0592575073242
 30
0.0
 11
-403.159545898438
 21
68.8092575073242
 31
0.0
  0
LINE
  5
   611
  8
0
  6
DASHDOT
 62
     7
 10
-404.784545898438
 20
70.4342575073242
 30
0.0
 11
-401.534545898438
 21
70.4342575073242
 31
0.0
  0
LINE
  5
   612
  8
0
  6
DASHDOT
 62
     7
 10
-383.159545898438
 20
72.0592575073242
 30
0.0
 11
-383.159545898438
 21
68.8092575073242
 31
0.0
  0
LINE
  5
   613
  8
0
  6
DASHDOT
 62
     7
 10
-384.784545898438
 20
70.4342575073242
 30
0.0
 11
-381.534545898438
 21
70.4342575073242
 31
0.0
  0
LINE
  5
   614
  8
0
  6
DASHDOT
 62
     7
 10
-383.159545898438
 20
36.5592575073242
 30
0.0
 11
-383.159545898438
 21
33.3092575073242
 31
0.0
  0
LINE
  5
   615
  8
0
  6
DASHDOT
 62
     7
 10
-384.784545898438
 20
34.9342575073242
 30
0.0
 11
-381.534545898438
 21
34.9342575073242
 31
0.0
  0
LINE
  5
   616
  8
0
  6
DASHDOT
 62
     7
 10
-403.159545898438
 20
36.5592575073242
 30
0.0
 11
-403.159545898438
 21
33.3092575073242
 31
0.0
  0
LINE
  5
   617
  8
0
  6
DASHDOT
 62
     7
 10
-404.784545898438
 20
34.9342575073242
 30
0.0
 11
-401.534545898438
 21
34.9342575073242
 31
0.0
  0
LINE
  5
   618
  8
0
  6
DASHDOT
 62
     7
 10
-393.159545898438
 20
80.0543697926613
 30
0.0
 11
-393.159545898438
 21
23.5610066625032
 31
0.0
  0
LINE
  5
   619
  8
0
  6
CONTINUOUS
 62
     7
 10
-409.980122442103
 20
73.0854431625303
 30
0.0
 11
-376.025562218796
 21
73.0854431625303
 31
0.0
  0
LINE
  5
   61A
  8
0
  6
CONTINUOUS
 62
     7
 10
-409.980122442103
 20
31.520378061585
 30
0.0
 11
-376.025562218796
 21
31.520378061585
 31
0.0
  0
LINE
  5
   61B
  8
0
  6
CONTINUOUS
 62
     7
 10
-376.025562218796
 20
73.0854431625303
 30
0.0
 11
-376.025562218796
 21
31.520378061585
 31
0.0
  0
LINE
  5
   61C
  8
0
  6
CONTINUOUS
 62
     7
 10
-409.980122442103
 20
73.0854431625303
 30
0.0
 11
-409.980122442103
 21
31.520378061585
 31
0.0
  0
CIRCLE
  5
   61D
  8
0
  6
CONTINUOUS
 62
     7
 10
-408.1067673953
 20
71.2706304609397
 30
0.0
 40
0.0625
  0
LINE
  5
   61E
  8
0
  6
DASHDOT
 62
     7
 10
-416.219974345862
 20
52.6842575073242
 30
0.0
 11
-370.956070200944
 21
52.6842575073242
 31
0.0
  0
TEXT
  5
   61F
  8
0
  6
CONTINUOUS
 62
     1
 10
-503.986784308885
 20
-149.388816849842
 30
0.0
 40
2.00000008940697
  1
M 3076 95-01-16
 50
359.999999844103
 41
0.749999861419206
 72
     1
 11
-492.88678586483
 21
-148.388816835285
 31
0.0
 73
     2
  0
TEXT
  5
   620
  8
0
  6
CONTINUOUS
 62
     1
 10
-514.894149771064
 20
-135.481269719398
 30
0.0
 40
2.00000008940697
  1
93-04-05 FERRARI M.
 50
359.999999844103
 41
0.749999861419206
 72
     2
 11
-486.694153728813
 21
-135.481269795986
 31
0.0
  0
TEXT
  5
   621
  8
0
  6
CONTINUOUS
 62
     7
 10
-422.823695119993
 20
43.0991261650176
 30
0.0
 40
3.00000002980232
  1
=     =
 50
449.999999844103
 41
0.916666604744064
 72
     2
 11
-422.82369506923
 21
61.7991250831933
 31
0.0
  0
TEXT
  5
   622
  8
0
  6
CONTINUOUS
 62
     7
 10
-415.37446683325
 20
42.9970820594878
 30
0.0
 40
3.00000002980232
  1
=     =
 50
449.999999844103
 41
0.916666604744064
 72
     2
 11
-415.374466782487
 21
61.6970809776635
 31
0.0
  0
INSERT
  5
   623
  8
0
  6
CONTINUOUS
 62
     7
  2
*UDIM2407
 10
0.0
 20
0.0
 30
0.0
  0
TEXT
  5
   624
  8
0
  6
CONTINUOUS
 62
     7
 10
-400.060087891522
 20
85.9086033736013
 30
0.0
 40
3.00000002980232
  1
=   =
 50
359.999999844103
 41
0.916666604744064
 72
     2
 11
-386.860088656448
 21
85.9086033377516
 31
0.0
  0
TEXT
  5
   625
  8
0
  6
CONTINUOUS
 62
     7
 10
-400.118630143109
 20
79.3518616591238
 30
0.0
 40
3.00000002980232
  1
=   =
 50
359.999999844103
 41
0.916666604744064
 72
     2
 11
-386.918630908035
 21
79.3518616232741
 31
0.0
  0
INSERT
  5
   626
  8
0
  6
CONTINUOUS
 62
     7
  2
*UDIM2408
 10
0.0
 20
0.0
 30
0.0
  0
INSERT
  5
   627
  8
0
  6
CONTINUOUS
 62
     7
  2
*UDIM2409
 10
0.0
 20
0.0
 30
0.0
  0
INSERT
  5
   628
  8
0
  6
CONTINUOUS
 62
     7
  2
*UDIM2410
 10
0.0
 20
0.0
 30
0.0
  0
INSERT
  5
   629
  8
0
  6
CONTINUOUS
 62
     7
  2
*UDIM2411
 10
0.0
 20
0.0
 30
0.0
  0
TEXT
  5
   62A
  8
0
  6
CONTINUOUS
 62
     7
 10
-394.347825894855
 20
16.7091635966352
 30
0.0
 40
3.00000002980232
  1
Y
 50
359.999999844103
 41
0.916666604744064
 72
     2
 11
-392.147826025986
 21
16.7091635906602
 31
0.0
  0
TEXT
  5
   62B
  8
0
  6
CONTINUOUS
 62
     7
 10
-393.411148438953
 20
95.448619773393
 30
0.0
 40
3.00000002980232
  1
Y
 50
359.999999844103
 41
0.916666604744064
 72
     2
 11
-391.211148570083
 21
95.448619767418
 31
0.0
  0
TEXT
  5
   62C
  8
0
  6
CONTINUOUS
 62
     7
 10
-369.711767087482
 20
50.5994606518796
 30
0.0
 40
3.00000002980232
  1
X
 50
359.999999844103
 41
0.916666604744064
 72
     2
 11
-367.511767218613
 21
50.5994606459047
 31
0.0
  0
TEXT
  5
   62D
  8
0
  6
CONTINUOUS
 62
     7
 10
-437.92104710152
 20
51.3429257774404
 30
0.0
 40
3.00000002980232
  1
X
 50
359.999999844103
 41
0.916666604744064
 72
     2
 11
-435.721047232651
 21
51.3429257714654
 31
0.0
  0
TEXT
  5
   62E
  8
0
  6
CONTINUOUS
 62
     1
 10
-409.308593731582
 20
-160.425849824341
 30
0.0
 40
4.00000017881393
  1
601812/261
 50
359.999999844103
 41
0.937499973922969
 72
     2
 11
-372.55859313181
 21
-160.425849924149
 31
0.0
  0
TEXT
  5
   62F
  8
0
  6
CONTINUOUS
 62
     1
 10
-398.222900376811
 20
-151.444251927202
 30
0.0
 40
3.00000002980232
  1
    S4
 50
359.999999844103
 41
0.916666604744064
 72
     2
 11
-382.272901300187
 21
-151.444251970521
 31
0.0
  0
TEXT
  5
   630
  8
0
  6
CONTINUOUS
 62
     1
 10
-419.757320135573
 20
-133.133979764823
 30
0.0
 40
2.00000008940697
  1
3POLE LOW VOLTAGE M.C.C.B SERIES ISOMAX
 50
359.999999844103
 41
0.749999861419206
 72
     1
 11
-390.657324212795
 21
-132.133979799152
 31
0.0
 73
     2
  0
TEXT
  5
   631
  8
0
  6
CONTINUOUS
 62
     1
 10
-413.007321045277
 20
-136.133979783155
 30
0.0
 40
2.00000008940697
  1
PLUG-IN VERSION REAR TERMINALS
 50
359.999999844103
 41
0.749999861419206
 72
     1
 11
-390.657324177021
 21
-135.133979799152
 31
0.0
 73
     2
  0
TEXT
  5
   632
  8
0
  6
CONTINUOUS
 62
     1
 10
-416.554928502927
 20
-141.204261765577
 30
0.0
 40
2.00000008940697
  1
INTERR.AUTOMATICO SERIE ISOMAX
 50
359.999999844103
 41
0.749999861419206
 72
     1
 11
-394.204931634671
 21
-140.204261781574
 31
0.0
 73
     2
  0
TEXT
  5
   633
  8
0
  6
CONTINUOUS
 62
     1
 10
-428.554926786301
 20
-144.204261732987
 30
0.0
 40
2.00000008940697
  1
TRIPOL.ESECUZIONE RIMOVIBILE TERMIN.POSTERIORI
 50
359.999999844103
 41
0.749999861419206
 72
     1
 11
-394.204931598896
 21
-143.204261781574
 31
0.0
 73
     2
  0
ENDSEC
  0
EOF
