  0
SECTION
  2
HEADER
  9
$ACADVER
  1
AC1015
  9
$ACADMAINTVER
 70
     6
  9
$DWGCODEPAGE
  3
ANSI_1252
  9
$INSBASE
 10
0.0
 20
0.0
 30
0.0
  9
$EXTMIN
 10
-2.994738265192717
 20
0.0
 30
0.0
  9
$EXTMAX
 10
392.0
 20
262.5
 30
0.0
  9
$LIMMIN
 10
0.0
 20
0.0
  9
$LIMMAX
 10
420.0
 20
297.0
  9
$ORTHOMODE
 70
     0
  9
$REGENMODE
 70
     1
  9
$FILLMODE
 70
     1
  9
$QTEXTMODE
 70
     0
  9
$MIRRTEXT
 70
     1
  9
$LTSCALE
 40
4.0
  9
$ATTMODE
 70
     1
  9
$TEXTSIZE
 40
3.5
  9
$TRACEWID
 40
1.0
  9
$TEXTSTYLE
  7
T25
  9
$CLAYER
  8
TEXT25
  9
$CELTYPE
  6
ByLayer
  9
$CECOLOR
 62
   256
  9
$CELTSCALE
 40
1.0
  9
$DISPSILH
 70
     0
  9
$DIMSCALE
 40
1.0
  9
$DIMASZ
 40
2.5
  9
$DIMEXO
 40
0.625
  9
$DIMDLI
 40
3.75
  9
$DIMRND
 40
0.0
  9
$DIMDLE
 40
0.0
  9
$DIMEXE
 40
1.25
  9
$DIMTP
 40
0.0
  9
$DIMTM
 40
0.0
  9
$DIMTXT
 40
2.5
  9
$DIMCEN
 40
2.5
  9
$DIMTSZ
 40
0.0
  9
$DIMTOL
 70
     0
  9
$DIMLIM
 70
     0
  9
$DIMTIH
 70
     0
  9
$DIMTOH
 70
     0
  9
$DIMSE1
 70
     0
  9
$DIMSE2
 70
     0
  9
$DIMTAD
 70
     1
  9
$DIMZIN
 70
     8
  9
$DIMBLK
  1

  9
$DIMASO
 70
     1
  9
$DIMSHO
 70
     1
  9
$DIMPOST
  1

  9
$DIMAPOST
  1

  9
$DIMALT
 70
     0
  9
$DIMALTD
 70
     3
  9
$DIMALTF
 40
0.03937007874016
  9
$DIMLFAC
 40
1.0
  9
$DIMTOFL
 70
     1
  9
$DIMTVP
 40
0.0
  9
$DIMTIX
 70
     0
  9
$DIMSOXD
 70
     0
  9
$DIMSAH
 70
     0
  9
$DIMBLK1
  1

  9
$DIMBLK2
  1

  9
$DIMSTYLE
  2
ISO-25
  9
$DIMCLRD
 70
     0
  9
$DIMCLRE
 70
     0
  9
$DIMCLRT
 70
     0
  9
$DIMTFAC
 40
1.0
  9
$DIMGAP
 40
0.625
  9
$DIMJUST
 70
     0
  9
$DIMSD1
 70
     0
  9
$DIMSD2
 70
     0
  9
$DIMTOLJ
 70
     0
  9
$DIMTZIN
 70
     8
  9
$DIMALTZ
 70
     0
  9
$DIMALTTZ
 70
     0
  9
$DIMUPT
 70
     0
  9
$DIMDEC
 70
     2
  9
$DIMTDEC
 70
     2
  9
$DIMALTU
 70
     2
  9
$DIMALTTD
 70
     3
  9
$DIMTXSTY
  7
Standard
  9
$DIMAUNIT
 70
     0
  9
$DIMADEC
 70
     0
  9
$DIMALTRND
 40
0.0
  9
$DIMAZIN
 70
     0
  9
$DIMDSEP
 70
    44
  9
$DIMATFIT
 70
     3
  9
$DIMFRAC
 70
     0
  9
$DIMLDRBLK
  1

  9
$DIMLUNIT
 70
     2
  9
$DIMLWD
 70
    -2
  9
$DIMLWE
 70
    -2
  9
$DIMTMOVE
 70
     0
  9
$LUNITS
 70
     2
  9
$LUPREC
 70
     4
  9
$SKETCHINC
 40
1.0
  9
$FILLETRAD
 40
0.0
  9
$AUNITS
 70
     0
  9
$AUPREC
 70
     0
  9
$MENU
  1
.
  9
$ELEVATION
 40
0.0
  9
$PELEVATION
 40
0.0
  9
$THICKNESS
 40
0.0
  9
$LIMCHECK
 70
     0
  9
$CHAMFERA
 40
10.0
  9
$CHAMFERB
 40
10.0
  9
$CHAMFERC
 40
20.0
  9
$CHAMFERD
 40
0.0
  9
$SKPOLY
 70
     0
  9
$TDCREATE
 40
2451507.447628368
  9
$TDUCREATE
 40
2451507.364295034
  9
$TDUPDATE
 40
2452985.627602430
  9
$TDUUPDATE
 40
2452985.544269096
  9
$TDINDWG
 40
2.2743034028
  9
$TDUSRTIMER
 40
2.2743032870
  9
$USRTIMER
 70
     1
  9
$ANGBASE
 50
0.0
  9
$ANGDIR
 70
     0
  9
$PDMODE
 70
     0
  9
$PDSIZE
 40
0.0
  9
$PLINEWID
 40
0.0
  9
$SPLFRAME
 70
     0
  9
$SPLINETYPE
 70
     6
  9
$SPLINESEGS
 70
     8
  9
$HANDSEED
  5
D0B
  9
$SURFTAB1
 70
     6
  9
$SURFTAB2
 70
     6
  9
$SURFTYPE
 70
     6
  9
$SURFU
 70
     6
  9
$SURFV
 70
     6
  9
$UCSBASE
  2

  9
$UCSNAME
  2

  9
$UCSORG
 10
0.0
 20
0.0
 30
0.0
  9
$UCSXDIR
 10
1.0
 20
0.0
 30
0.0
  9
$UCSYDIR
 10
0.0
 20
1.0
 30
0.0
  9
$UCSORTHOREF
  2

  9
$UCSORTHOVIEW
 70
     0
  9
$UCSORGTOP
 10
0.0
 20
0.0
 30
0.0
  9
$UCSORGBOTTOM
 10
0.0
 20
0.0
 30
0.0
  9
$UCSORGLEFT
 10
0.0
 20
0.0
 30
0.0
  9
$UCSORGRIGHT
 10
0.0
 20
0.0
 30
0.0
  9
$UCSORGFRONT
 10
0.0
 20
0.0
 30
0.0
  9
$UCSORGBACK
 10
0.0
 20
0.0
 30
0.0
  9
$PUCSBASE
  2

  9
$PUCSNAME
  2

  9
$PUCSORG
 10
0.0
 20
0.0
 30
0.0
  9
$PUCSXDIR
 10
1.0
 20
0.0
 30
0.0
  9
$PUCSYDIR
 10
0.0
 20
1.0
 30
0.0
  9
$PUCSORTHOREF
  2

  9
$PUCSORTHOVIEW
 70
     0
  9
$PUCSORGTOP
 10
0.0
 20
0.0
 30
0.0
  9
$PUCSORGBOTTOM
 10
0.0
 20
0.0
 30
0.0
  9
$PUCSORGLEFT
 10
0.0
 20
0.0
 30
0.0
  9
$PUCSORGRIGHT
 10
0.0
 20
0.0
 30
0.0
  9
$PUCSORGFRONT
 10
0.0
 20
0.0
 30
0.0
  9
$PUCSORGBACK
 10
0.0
 20
0.0
 30
0.0
  9
$USERI1
 70
     0
  9
$USERI2
 70
     0
  9
$USERI3
 70
     0
  9
$USERI4
 70
     0
  9
$USERI5
 70
     0
  9
$USERR1
 40
0.0
  9
$USERR2
 40
0.0
  9
$USERR3
 40
0.0
  9
$USERR4
 40
0.0
  9
$USERR5
 40
0.0
  9
$WORLDVIEW
 70
     1
  9
$SHADEDGE
 70
     3
  9
$SHADEDIF
 70
    70
  9
$TILEMODE
 70
     1
  9
$MAXACTVP
 70
    64
  9
$PINSBASE
 10
0.0
 20
0.0
 30
0.0
  9
$PLIMCHECK
 70
     0
  9
$PEXTMIN
 10
1.000000000000000E+20
 20
1.000000000000000E+20
 30
1.000000000000000E+20
  9
$PEXTMAX
 10
-1.000000000000000E+20
 20
-1.000000000000000E+20
 30
-1.000000000000000E+20
  9
$PLIMMIN
 10
0.0
 20
0.0
  9
$PLIMMAX
 10
420.0
 20
297.0
  9
$UNITMODE
 70
     0
  9
$VISRETAIN
 70
     1
  9
$PLINEGEN
 70
     0
  9
$PSLTSCALE
 70
     1
  9
$TREEDEPTH
 70
  3020
  9
$CMLSTYLE
  2
Standard
  9
$CMLJUST
 70
     0
  9
$CMLSCALE
 40
20.0
  9
$PROXYGRAPHICS
 70
     1
  9
$MEASUREMENT
 70
     1
  9
$CELWEIGHT
370
    -1
  9
$ENDCAPS
280
     0
  9
$JOINSTYLE
280
     0
  9
$LWDISPLAY
290
     0
  9
$INSUNITS
 70
     4
  9
$HYPERLINKBASE
  1

  9
$STYLESHEET
  1
HP5Si.ctb
  9
$XEDIT
290
     1
  9
$CEPSNTYPE
380
     0
  9
$PSTYLEMODE
290
     1
  9
$FINGERPRINTGUID
  2
{16D15905-A24A-11D3-B118-0008C7CA2EDA}
  9
$VERSIONGUID
  2
{4BDF7778-5449-4AF5-8F8E-48EE08D0D4C0}
  9
$EXTNAMES
290
     1
  9
$PSVPSCALE
 40
0.0
  9
$OLESTARTUP
290
     0
  0
ENDSEC
  0
SECTION
  2
CLASSES
  0
CLASS
  1
ACDBDICTIONARYWDFLT
  2
AcDbDictionaryWithDefault
  3
AutoCAD 2000
 90
        0
280
     0
281
     0
  0
CLASS
  1
ACDBPLACEHOLDER
  2
AcDbPlaceHolder
  3
AutoCAD 2000
 90
        0
280
     0
281
     0
  0
CLASS
  1
LAYOUT
  2
AcDbLayout
  3
AutoCAD 2000
 90
        0
280
     0
281
     0
  0
CLASS
  1
DICTIONARYVAR
  2
AcDbDictionaryVar
  3
AutoCAD 2000
 90
        0
280
     0
281
     0
  0
CLASS
  1
ACME_DOCUMENT
  2
AcMeDbDoc
  3
AcMeServices
 90
        0
280
     0
281
     0
  0
CLASS
  1
AMGSETTINGSOBJ
  2
AmgSettingsObj
  3
"AcadM|Product Description: AutoCAD Mechanical 2000|Company: Autodesk"
 90
        0
280
     0
281
     0
  0
CLASS
  1
ACMESCOPE
  2
AcMeScope
  3
AcMeServices
 90
        0
280
     0
281
     0
  0
CLASS
  1
ACMECOMMANDHISTORY
  2
AcMeCommandHistory
  3
AcMeServices
 90
        0
280
     0
281
     0
  0
CLASS
  1
ACIMSYSVARMAN
  2
AcImSysVarManager
  3
AcMeServices
 90
        0
280
     0
281
     0
  0
CLASS
  1
ACIMREALSYSVAR
  2
AcImRealSysVar
  3
AcMeServices
 90
        0
280
     0
281
     0
  0
CLASS
  1
ACIMINTSYSVAR
  2
AcImIntSysVar
  3
AcMeServices
 90
        0
280
     0
281
     0
  0
CLASS
  1
ACMEDRAWINGMAN
  2
AcMeDrawingMan
  3
AcMeServices
 90
        0
280
     0
281
     0
  0
CLASS
  1
ACMEVIEW
  2
AcMeView
  3
AcMeServices
 90
        0
280
     0
281
     0
  0
CLASS
  1
ACDBENTITYCACHE
  2
AcMeEntityCache
  3
AcMeServices
 90
        0
280
     0
281
     0
  0
CLASS
  1
GSMANAGER
  2
AcMeGSManager
  3
AcMeServices
 90
        0
280
     0
281
     0
  0
CLASS
  1
AmdtInternalReactor
  2
AmdtInternalReactor
  3
AcMeServices
 90
        0
280
     0
281
     0
  0
CLASS
  1
ACMESTATEMGR
  2
AcMeStateMgr
  3
AcMeServices
 90
        0
280
     0
281
     0
  0
CLASS
  1
ACGREFMASTER
  2
AcGrefMaster
  3
AcAttribServices
 90
        0
280
     0
281
     0
  0
CLASS
  1
AM_DRAWING_MGR
  2
AcDmDwgMgr
  3
AcMechDwgViewMgmt
 90
        0
280
     0
281
     0
  0
CLASS
  1
AM_DWG_DOCUMENT
  2
AcDmDwgDocument
  3
AcMechDwgViewMgmt
 90
        0
280
     0
281
     0
  0
CLASS
  1
AM_DWG_SHEET
  2
AcDmSheet
  3
AcMechDwgViewMgmt
 90
        0
280
     0
281
     0
  0
CLASS
  1
AM_VIEWDIMPARMAP
  2
AcDmViewDimParMap
  3
AcMechDwgViewMgmt
 90
        0
280
     0
281
     0
  0
CLASS
  1
AM_DWGMGR_NAME
  2
AcDmDwgMgrName
  3
AcMechDwgViewMgmt
 90
        0
280
     0
281
     0
  0
CLASS
  1
ACME_DATABASE
  2
AcMeDbDatabase
  3
AcMeServices
 90
        0
280
     0
281
     0
  0
CLASS
  1
ACRFINSADJUSTERMGR
  2
AcRfInsAdjusterMgr
  3
AcMeServices
 90
        0
280
     0
281
     0
  0
CLASS
  1
ACGREFMASTER
  2
AcGrefacadMaster
  3
AcGrefServices
 90
        0
280
     0
281
     0
  0
CLASS
  1
AMDTMENUSTATEMGR
  2
AmdtMenuStateMgr
  3
McadcomServices
 90
        0
280
     0
281
     0
  0
CLASS
  1
AMDTMCOMMENUSTATE
  2
AmdtMcomMenuState
  3
McadcomServices
 90
        0
280
     0
281
     0
  0
CLASS
  1
ASAPP
  2
AcAsAppObject
  3
AutoSurfServices
 90
        0
280
     0
281
     0
  0
CLASS
  1
IM_STATIC_MAN
  2
AcImStaticVarManager
  3
AcMeServices
 90
        0
280
     0
281
     0
  0
CLASS
  1
ACIMSTRSYSVAR
  2
AcImStrSysVar
  3
AcMeServices
 90
        0
280
     0
281
     0
  0
CLASS
  1
ACIMDBLSTATICVAR
  2
AcImDblStaticVar
  3
AcMeServices
 90
        0
280
     0
281
     0
  0
CLASS
  1
ACIMSTRSTATICVAR
  2
AcImStrStaticVar
  3
AcMeServices
 90
        0
280
     0
281
     0
  0
CLASS
  1
ACIMINTSTATICVAR
  2
AcImIntStaticVar
  3
AcMeServices
 90
        0
280
     0
281
     0
  0
CLASS
  1
ACADGREFMODULE
  2
AcAdGrefModule
  3
AdGrefServices
 90
        0
280
     0
281
     0
  0
CLASS
  1
AMIMASTER
  2
AmiMaster
  3
AmiServices
 90
        0
280
     0
281
     0
  0
CLASS
  1
ACASGREFMASTER
  2
AcAsGrefMaster
  3
AutoSurfResolverServices
 90
        0
280
     0
281
     0
  0
CLASS
  1
MAPIAMMOUDLE
  2
MApiAmModule
  3
MApiAmServices
 90
        0
280
     0
281
     0
  0
CLASS
  1
AMDTDMMENUSTATE
  2
AmdtDmMenuState
  3
AcMechDwgViewMgmt
 90
        0
280
     0
281
     0
  0
CLASS
  1
AMDTADMENUSTATE
  2
AmdtAdMenuState
  3
DesignerServices
 90
        0
280
     0
281
     0
  0
CLASS
  1
ADAPPL
  2
AcAdAppl
  3
DesignerServices
 90
        0
280
     0
281
     0
  0
CLASS
  1
DEPMGR
  2
AcAdDepMgr
  3
DesignerServices
 90
        0
280
     0
281
     0
  0
CLASS
  1
PARAMMGR
  2
AcAdParamMgr
  3
DesignerServices
 90
        0
280
     0
281
     0
  0
CLASS
  1
PARAMSCOPE
  2
AcAdParamScope
  3
DesignerServices
 90
        0
280
     0
281
     0
  0
CLASS
  1
NAMEDAPPL
  2
AcAdNamedAppl
  3
DesignerServices
 90
        0
280
     0
281
     0
  0
CLASS
  1
ADHNTMPLT
  2
AdHoleNoteTemplateMgr
  3
DesignerServices
 90
        0
280
     0
281
     0
  0
CLASS
  1
AM_HNTEMPLATE_MGR_NAME
  2
AdHoleNoteTemplateMgrName
  3
DesignerServices
 90
        0
280
     0
281
     0
  0
CLASS
  1
AMDTAMMENUSTATE
  2
AmdtAmMenuState
  3
DesignerAssemblies
 90
        0
280
     0
281
     0
  0
CLASS
  1
ACAMPROJECT
  2
AcAmProject
  3
DesignerAssemblies
 90
        0
280
     0
281
     0
  0
CLASS
  1
ACAMGRCOMPDEF
  2
AcAmGrCompDef
  3
DesignerAssemblies
 90
        0
280
     0
281
     0
  0
CLASS
  1
ACCMCONTEXT
  2
AcCmContext
  3
DesignerAssemblies
 90
        0
280
     0
281
     0
  0
CLASS
  1
ACAMCOMPDEF
  2
AcAmCompDef
  3
DesignerAssemblies
 90
        0
280
     0
281
     0
  0
CLASS
  1
ACAMCOMPDEFMGR
  2
AcAmCompDefMgr
  3
DesignerAssemblies
 90
        0
280
     0
281
     0
  0
CLASS
  1
AMCONTEXTMGR
  2
AcAmContextMgr
  3
DesignerAssemblies
 90
        0
280
     0
281
     0
  0
CLASS
  1
ACAMCONTEXTMODELER
  2
AcAmContextModeler
  3
DesignerAssemblies
 90
        0
280
     0
281
     0
  0
CLASS
  1
MAPIADMODULE
  2
MApiAdModule
  3
MApiAdServices
 90
        0
280
     0
281
     0
  0
CLASS
  1
ACMDATADICTIONARY
  2
AcmDataDictionary
  3
"AcmSymBB|Product Description: AutoCAD Mechanical 2000|Company: Autodesk"
 90
        0
280
     0
281
     0
  0
CLASS
  1
ACMDATAENTRYBLOCK
  2
AcmDataEntryBlock
  3
"AcmSymBB|Product Description: AutoCAD Mechanical 2000|Company: Autodesk"
 90
        0
280
     0
281
     0
  0
CLASS
  1
AMDTBROWSERDBTAB
  2
AmdtBrowserDbTab
  3
McadcomServices
 90
        0
280
     0
281
     0
  0
CLASS
  1
CBROWSERAPPOBJECT
  2
CBrowserAppObject
  3
McadcomServices
 90
        0
280
     0
281
     0
  0
CLASS
  1
DM_PLACEHOLDER
  2
AcDmSelsetPlaceholder
  3
AcMechDwgViewMgmt
 90
        0
280
     0
281
     0
  0
CLASS
  1
CATALOGSTATE
  2
AcAmCatalogState
  3
DesignerAssemblies
 90
        0
280
     0
281
     0
  0
CLASS
  1
ACAMGRCOMPDEFSET
  2
AcAmGrCompDefSet
  3
DesignerAssemblies
 90
        0
280
     0
281
     0
  0
CLASS
  1
AMGOBJPROPCFG
  2
AmgObjPropCfg
  3
"AmgLay|Product Description: AutoCAD Mechanical 2000|Company: Autodesk"
 90
        1
280
     0
281
     0
  0
CLASS
  1
LAYER_INDEX
  2
AcDbLayerIndex
  3
AutoCAD 2000
 90
        0
280
     0
281
     0
  0
CLASS
  1
IDBUFFER
  2
AcDbIdBuffer
  3
AutoCAD 2000
 90
        0
280
     0
281
     0
  0
ENDSEC
  0
SECTION
  2
TABLES
  0
TABLE
  2
VPORT
  5
8
330
0
100
AcDbSymbolTable
 70
     3
  0
VPORT
  5
CE9
330
8
100
AcDbSymbolTableRecord
100
AcDbViewportTableRecord
  2
*Active
 70
     0
 10
0.0
 20
0.0
 11
1.0
 21
1.0
 12
208.5168063775366
 22
185.2761802636249
 13
0.0
 23
0.0
 14
0.5
 24
0.5
 15
10.0
 25
10.0
 16
0.0
 26
0.0
 36
1.0
 17
0.0
 27
0.0
 37
0.0
 40
416.368202579301
 41
1.26002971768202
 42
50.0
 43
0.0
 44
0.0
 50
0.0
 51
0.0
 71
     0
 72
   100
 73
     1
 74
     1
 75
     0
 76
     0
 77
     0
 78
     0
281
     0
 65
     1
110
0.0
120
0.0
130
0.0
111
1.0
121
0.0
131
0.0
112
0.0
122
1.0
132
0.0
 79
     0
146
0.0
  0
ENDTAB
  0
TABLE
  2
LTYPE
  5
5
330
0
100
AcDbSymbolTable
 70
    16
  0
LTYPE
  5
14
330
5
100
AcDbSymbolTableRecord
100
AcDbLinetypeTableRecord
  2
ByBlock
 70
     0
  3

 72
    65
 73
     0
 40
0.0
  0
LTYPE
  5
15
330
5
100
AcDbSymbolTableRecord
100
AcDbLinetypeTableRecord
  2
ByLayer
 70
     0
  3

 72
    65
 73
     0
 40
0.0
  0
LTYPE
  5
16
330
5
100
AcDbSymbolTableRecord
100
AcDbLinetypeTableRecord
  2
Continuous
 70
     0
  3
Solid line
 72
    65
 73
     0
 40
0.0
  0
LTYPE
  5
1BB
330
5
100
AcDbSymbolTableRecord
100
AcDbLinetypeTableRecord
  2
DASHED
 70
     0
  3
__ __ __ __ __ __ __ __ __ __ __ __ __ __ __ __
 72
    65
 73
     2
 40
0.75
 49
0.5
 74
     0
 49
-0.25
 74
     0
  0
LTYPE
  5
1BC
330
5
100
AcDbSymbolTableRecord
100
AcDbLinetypeTableRecord
  2
CENTER
 70
     0
  3
____ _ ____ _ ____ _ ____ _ ____ _ ____ _ ____ 
 72
    65
 73
     4
 40
2.0
 49
1.25
 74
     0
 49
-0.25
 74
     0
 49
0.25
 74
     0
 49
-0.25
 74
     0
  0
LTYPE
  5
1BD
330
5
100
AcDbSymbolTableRecord
100
AcDbLinetypeTableRecord
  2
DASHDOT
 70
     0
  3
__ . __ . __ . __ . __ . __ . __ . __ . __ . __
 72
    65
 73
     4
 40
1.0
 49
0.5
 74
     0
 49
-0.25
 74
     0
 49
0.0
 74
     0
 49
-0.25
 74
     0
  0
LTYPE
  5
1BE
330
5
100
AcDbSymbolTableRecord
100
AcDbLinetypeTableRecord
  2
DOT
 70
     0
  3
. . . . . . . . . . . . . . . . . . . . . . . .
 72
    65
 73
     2
 40
0.25
 49
0.0
 74
     0
 49
-0.25
 74
     0
  0
LTYPE
  5
1BF
330
5
100
AcDbSymbolTableRecord
100
AcDbLinetypeTableRecord
  2
HIDDEN
 70
     0
  3
__ __ __ __ __ __ __ __ __ __ __ __ __ __ __ __
 72
    65
 73
     2
 40
0.375
 49
0.25
 74
     0
 49
-0.125
 74
     0
  0
LTYPE
  5
1C0
330
5
100
AcDbSymbolTableRecord
100
AcDbLinetypeTableRecord
  2
PHANTOM2
 70
     0
  3
___ _ _ ___ _ _ ___ _ _ ___ _ _ ___ _ _ ___ _ _
 72
    65
 73
     6
 40
1.25
 49
0.625
 74
     0
 49
-0.125
 74
     0
 49
0.125
 74
     0
 49
-0.125
 74
     0
 49
0.125
 74
     0
 49
-0.125
 74
     0
  0
LTYPE
  5
1C1
330
5
100
AcDbSymbolTableRecord
100
AcDbLinetypeTableRecord
  2
ASULTYPE
 70
     0
  3
Solid line
 72
    65
 73
     2
 40
3.0
 49
2.5
 74
     0
 49
0.5
 74
     0
  0
LTYPE
  5
1C2
330
5
100
AcDbSymbolTableRecord
100
AcDbLinetypeTableRecord
  2
ASVLTYPE
 70
     0
  3
__ __ __ __ __ __ __ __ __ __ __ __ __ __ __ __ __ __ __ __ __
 72
    65
 73
     2
 40
0.75
 49
0.5
 74
     0
 49
-0.25
 74
     0
  0
LTYPE
  5
1C3
330
5
100
AcDbSymbolTableRecord
100
AcDbLinetypeTableRecord
  2
GEN3
 70
     0
  3
-- -- -- -- -- -- -- -- -- -- -- -- -- -- --
 72
    65
 73
     2
 40
6.25
 49
4.75
 74
     0
 49
-1.5
 74
     0
  0
LTYPE
  5
1C4
330
5
100
AcDbSymbolTableRecord
100
AcDbLinetypeTableRecord
  2
GEN7
 70
     0
  3
____ . ____ . ____ . ____ . ____ . ____ . ____
 72
    65
 73
     4
 40
13.75
 49
9.75
 74
     0
 49
-1.5
 74
     0
 49
1.0
 74
     0
 49
-1.5
 74
     0
  0
LTYPE
  5
CC4
330
5
100
AcDbSymbolTableRecord
100
AcDbLinetypeTableRecord
  2
gen3a
 70
     0
  3
 - - - - -
 72
    65
 73
     2
 40
3.125
 49
2.25
 74
     0
 49
-0.875
 74
     0
  0
LTYPE
  5
CC5
330
5
100
AcDbSymbolTableRecord
100
AcDbLinetypeTableRecord
  2
gen7a
 70
     0
  3
__ . __ . __
 72
    65
 73
     4
 40
6.875
 49
4.75
 74
     0
 49
-0.875
 74
     0
 49
0.375
 74
     0
 49
-0.875
 74
     0
  0
LTYPE
  5
CC6
330
5
100
AcDbSymbolTableRecord
100
AcDbLinetypeTableRecord
  2
gen4a
 70
     0
  3
_____ . . _____ . . _____ . . ____ .. ____
 72
    65
 73
     6
 40
16.25
 49
9.75
 74
     0
 49
-1.5
 74
     0
 49
1.0
 74
     0
 49
-1.5
 74
     0
 49
1.0
 74
     0
 49
-1.5
 74
     0
  0
LTYPE
  5
CC9
330
5
100
AcDbSymbolTableRecord
100
AcDbLinetypeTableRecord
  2
genzigzag
 70
     0
  3
/\/-/\/-/\/-/\/-/\/-/\/
 72
    65
 73
     2
 40
12.0001
 49
0.0001
 74
     4
 75
   135
340
CC8
 46
2.0
 50
0.0
 44
0.0
 45
0.0
 49
-12.0
 74
     0
  0
LTYPE
  5
CCA
330
5
100
AcDbSymbolTableRecord
100
AcDbLinetypeTableRecord
  2
AM_ISO02W050
 70
     0
  3
__ __ __ __ __ __ __ __ __ __ __ __ __ __ __
 72
    65
 73
     2
 40
7.5
 49
6.0
 74
     0
 49
-1.5
 74
     0
  0
ENDTAB
  0
TABLE
  2
LAYER
  5
2
330
0
100
AcDbSymbolTable
 70
    25
  0
LAYER
  5
10
330
2
100
AcDbSymbolTableRecord
100
AcDbLayerTableRecord
  2
0
 70
     0
 62
     7
  6
Continuous
370
    -3
390
F
  0
LAYER
  5
1C5
330
2
100
AcDbSymbolTableRecord
100
AcDbLayerTableRecord
  2
PAKSU
 70
     0
 62
     3
  6
Continuous
370
    -3
390
F
  0
LAYER
  5
1C6
330
2
100
AcDbSymbolTableRecord
100
AcDbLayerTableRecord
  2
RAAMI
 70
     0
 62
     4
  6
Continuous
370
    -3
390
F
  0
LAYER
  5
1C7
330
2
100
AcDbSymbolTableRecord
100
AcDbLayerTableRecord
  2
OHUT
 70
     0
 62
     6
  6
Continuous
370
    -3
390
F
  0
LAYER
  5
1C8
330
2
100
AcDbSymbolTableRecord
100
AcDbLayerTableRecord
  2
KESKI
 70
     0
 62
     2
  6
Continuous
370
    -3
390
F
  0
LAYER
  5
1C9
330
2
100
AcDbSymbolTableRecord
100
AcDbLayerTableRecord
  2
KATKO
 70
     0
 62
    13
  6
CENTER
370
    -3
390
F
  0
LAYER
  5
1CA
330
2
100
AcDbSymbolTableRecord
100
AcDbLayerTableRecord
  2
KATKO07
 70
     0
 62
     1
  6
DASHED
370
    -3
390
F
  0
LAYER
  5
1CB
330
2
100
AcDbSymbolTableRecord
100
AcDbLayerTableRecord
  2
PISTKATK
 70
     0
 62
     7
  6
DASHDOT
370
    -3
390
F
  0
LAYER
  5
1CC
330
2
100
AcDbSymbolTableRecord
100
AcDbLayerTableRecord
  2
MITTA
 70
     4
 62
     1
  6
Continuous
370
    -3
390
F
  0
LAYER
  5
1CD
330
2
100
AcDbSymbolTableRecord
100
AcDbLayerTableRecord
  2
APU
 70
     0
 62
     1
  6
DOT
370
    -3
390
F
  0
LAYER
  5
1CE
330
2
100
AcDbSymbolTableRecord
100
AcDbLayerTableRecord
  2
TEXT25
 70
     0
 62
     1
  6
Continuous
370
    -3
390
F
  0
LAYER
  5
1CF
330
2
100
AcDbSymbolTableRecord
100
AcDbLayerTableRecord
  2
TEXT35
 70
     0
 62
     5
  6
Continuous
370
    -3
390
F
  0
LAYER
  5
1D0
330
2
100
AcDbSymbolTableRecord
100
AcDbLayerTableRecord
  2
TEXT5
 70
     0
 62
    14
  6
Continuous
370
    -3
390
F
  0
LAYER
  5
1D1
330
2
100
AcDbSymbolTableRecord
100
AcDbLayerTableRecord
  2
TEXT7
 70
     0
 62
     3
  6
Continuous
370
    -3
390
F
  0
LAYER
  5
1D2
330
2
100
AcDbSymbolTableRecord
100
AcDbLayerTableRecord
  2
TEXT
 70
     0
 62
     1
  6
Continuous
370
    -3
390
F
  0
LAYER
  5
1D3
330
2
100
AcDbSymbolTableRecord
100
AcDbLayerTableRecord
  2
AM_TR
 70
     0
 62
     7
  6
Continuous
370
    -3
390
F
  0
LAYER
  5
1D4
330
2
100
AcDbSymbolTableRecord
100
AcDbLayerTableRecord
  2
AM_BM
 70
     0
 62
     7
  6
Continuous
370
    -3
390
F
  0
LAYER
  5
1D5
330
2
100
AcDbSymbolTableRecord
100
AcDbLayerTableRecord
  2
AM_BL
 70
     0
 62
     7
  6
Continuous
370
    -3
390
F
  0
LAYER
  5
1D6
330
2
100
AcDbSymbolTableRecord
100
AcDbLayerTableRecord
  2
AM_VIEWS
 70
     0
 62
    -7
  6
Continuous
370
    -3
390
F
  0
LAYER
  5
1D7
330
2
100
AcDbSymbolTableRecord
100
AcDbLayerTableRecord
  2
AM_PARDIM
 70
     0
 62
     3
  6
Continuous
370
    -3
390
F
  0
LAYER
  5
1D8
330
2
100
AcDbSymbolTableRecord
100
AcDbLayerTableRecord
  2
AM_REFDIM
 70
     0
 62
     4
  6
Continuous
370
    -3
390
F
  0
LAYER
  5
1D9
330
2
100
AcDbSymbolTableRecord
100
AcDbLayerTableRecord
  2
AM_VIS
 70
     0
 62
     7
  6
Continuous
370
    -3
390
F
  0
LAYER
  5
1DA
330
2
100
AcDbSymbolTableRecord
100
AcDbLayerTableRecord
  2
AM_HID
 70
     0
 62
     6
  6
GEN3
370
    -3
390
F
  0
LAYER
  5
B89
330
2
100
AcDbSymbolTableRecord
100
AcDbLayerTableRecord
  2
MUOTOVIIVA
 70
     0
 62
     3
  6
Continuous
370
    -3
390
F
  0
LAYER
  5
B8A
330
2
100
AcDbSymbolTableRecord
100
AcDbLayerTableRecord
  2
OHUTVIIVA
 70
     0
 62
     6
  6
Continuous
370
     0
390
F
  0
ENDTAB
  0
TABLE
  2
STYLE
  5
3
330
0
100
AcDbSymbolTable
 70
     7
  0
STYLE
  5
11
330
3
100
AcDbSymbolTableRecord
100
AcDbTextStyleTableRecord
  2
Standard
 70
     0
 40
0.0
 41
1.0
 50
0.0
 71
     0
 42
2.0
  3
txt
  4

  0
STYLE
  5
1DB
330
3
100
AcDbSymbolTableRecord
100
AcDbTextStyleTableRecord
  2
ROMANS
 70
     0
 40
0.0
 41
1.0
 50
0.0
 71
     0
 42
2.5
  3
romans
  4

  0
STYLE
  5
1DC
330
3
100
AcDbSymbolTableRecord
100
AcDbTextStyleTableRecord
  2
T7
 70
     0
 40
7.0
 41
0.9
 50
0.0
 71
     0
 42
0.2
  3
ROMANS
  4

  0
STYLE
  5
1DD
330
3
100
AcDbSymbolTableRecord
100
AcDbTextStyleTableRecord
  2
T5
 70
     0
 40
5.0
 41
0.9
 50
0.0
 71
     0
 42
0.2
  3
ROMANS
  4

  0
STYLE
  5
1DE
330
3
100
AcDbSymbolTableRecord
100
AcDbTextStyleTableRecord
  2
T35
 70
     0
 40
3.5
 41
0.9
 50
0.0
 71
     0
 42
0.2
  3
ROMANS
  4

  0
STYLE
  5
1DF
330
3
100
AcDbSymbolTableRecord
100
AcDbTextStyleTableRecord
  2
T25
 70
     0
 40
3.5
 41
1.0
 50
0.0
 71
     0
 42
3.5
  3
norm.shx
  4

  0
STYLE
  5
CC8
330
3
100
AcDbSymbolTableRecord
100
AcDbTextStyleTableRecord
  2

 70
     1
 40
0.0
 41
1.0
 50
0.0
 71
     0
 42
3.5
  3
genltshp.shx
  4

  0
ENDTAB
  0
TABLE
  2
VIEW
  5
6
330
0
100
AcDbSymbolTable
 70
     0
  0
ENDTAB
  0
TABLE
  2
UCS
  5
7
330
0
100
AcDbSymbolTable
 70
     0
  0
ENDTAB
  0
TABLE
  2
APPID
  5
9
330
0
100
AcDbSymbolTable
 70
    20
  0
APPID
  5
12
330
9
100
AcDbSymbolTableRecord
100
AcDbRegAppTableRecord
  2
ACAD
 70
     0
  0
APPID
  5
1E1
330
9
100
AcDbSymbolTableRecord
100
AcDbRegAppTableRecord
  2
GENIUS_GENCFG_13
 70
     0
1001
GENIUS_GEVCFG0_13
1000
GEV
1001
GENIUS_GENCFG0_13
1000
GEN@INFO_POS@XLATE
1001
GENIUS_GENCFG1_13
1000
GEN@LAYER@DEFS
1001
GENIUS_GENCFG2_13
1000
GEN@LAYER@ENTSORT
1001
GENIUS_GENCFG3_13
1000
GEN@OSWIZ
1001
GENIUS_GENCFG4_13
1000
GEN
1001
GENIUS_GE3CFG0_13
1000
GE3
1001
GENIUS_GENCFG5_13
1000
GEN@INFO_POS
  0
APPID
  5
1E2
330
9
100
AcDbSymbolTableRecord
100
AcDbRegAppTableRecord
  2
GENIUS_GEVCFG0_13
 70
     0
1001
GENIUS_GENCFG_13
1071
919852330
1000
404
1000
GEV
1070
     1
1000
GenCfgObject
1000
VED
1070
     0
1002
{
1002
}
  0
APPID
  5
1E3
330
9
100
AcDbSymbolTableRecord
100
AcDbRegAppTableRecord
  2
GENIUS_GENCFG0_13
 70
     0
1001
GENIUS_GENCFG_13
1071
919852330
1000
405
1000
GEN@INFO_POS@XLATE
1070
     7
1000
GenCfgObject
1000
GenCfgShort
1000
GenCfgReal
1000
GenCfgBool
1000
GenCfgString
1000
GenCfgDim
1000
GenCfgAttrInf
1000
INFOPOINTS
1070
     0
1002
{
1000
GENINF14
1070
     0
1002
{
1000
2GENINF
1070
     4
1000
2
1002
{
1002
}
1000
3GENINF
1070
     4
1000
3
1002
{
1002
}
1000
4GENINF
1070
     4
1000
4
1002
{
1002
}
1000
5GENINF
1070
     4
1000
5
1002
{
1002
}
1000
6GENINF
1070
     4
1000
6
1002
{
1002
}
1000
7GENINF
1070
     4
1000
7
1002
{
1002
}
1000
8GENINF
1070
     4
1000
8
1002
{
1002
}
1000
9GENINF
1070
     4
1000
9
1002
{
1002
}
1000
10GENINF
1070
     4
1000
10
1002
{
1002
}
1000
11GENINF
1070
     4
1000
11
1002
{
1002
}
1000
12GENINF
1070
     4
1000
12
1002
{
1002
}
1000
13GENINF
1070
     4
1000
13
1002
{
1002
}
1000
14GENINF
1070
     4
1000
14
1002
{
1002
}
1000
15GENINF
1070
     4
1000
15
1002
{
1002
}
1000
16GENINF
1070
     4
1000
16
1002
{
1002
}
1000
17GENINF
1070
     4
1000
17
1002
{
1002
}
1000
18GENINF
1070
     4
1000
18
1002
{
1002
}
1000
19GENINF
1070
     4
1000
19
1002
{
1002
}
1000
20GENINF
1070
     4
1000
20
1002
{
1002
}
1000
21GENINF
1070
     4
1000
21
1002
{
1002
}
1000
22GENINF
1070
     4
1000
22
1002
{
1002
}
1000
23GENINF
1070
     4
1000
23
1002
{
1002
}
1000
24GENINF
1070
     4
1000
24
1002
{
1002
}
1000
25GENINF
1070
     4
1000
25
1002
{
1002
}
1000
26GENINF
1070
     4
1000
26
1002
{
1002
}
1000
27GENINF
1070
     4
1000
27
1002
{
1002
}
1000
0GENINF
1070
     4
1000
0
1002
{
1002
}
1002
}
1000
GENINF13
1070
     0
1002
{
1000
2GENINF
1070
     4
1000
2
1002
{
1002
}
1000
3GENINF
1070
     4
1000
3
1002
{
1002
}
1000
4GENINF
1070
     4
1000
4
1002
{
1002
}
1000
5GENINF
1070
     4
1000
5
1002
{
1002
}
1000
6GENINF
1070
     4
1000
6
1002
{
1002
}
1000
7GENINF
1070
     4
1000
7
1002
{
1002
}
1000
8GENINF
1070
     4
1000
8
1002
{
1002
}
1000
9GENINF
1070
     4
1000
9
1002
{
1002
}
1000
10GENINF
1070
     4
1000
10
1002
{
1002
}
1000
11GENINF
1070
     4
1000
11
1002
{
1002
}
1000
12GENINF
1070
     4
1000
12
1002
{
1002
}
1000
13GENINF
1070
     4
1000
13
1002
{
1002
}
1000
14GENINF
1070
     4
1000
14
1002
{
1002
}
1000
15GENINF
1070
     4
1000
15
1002
{
1002
}
1000
16GENINF
1070
     4
1000
16
1002
{
1002
}
1000
17GENINF
1070
     4
1000
17
1002
{
1002
}
1000
18GENINF
1070
     4
1000
18
1002
{
1002
}
1000
19GENINF
1070
     4
1000
19
1002
{
1002
}
1000
20GENINF
1070
     4
1000
20
1002
{
1002
}
1000
21GENINF
1070
     4
1000
21
1002
{
1002
}
1000
22GENINF
1070
     4
1000
22
1002
{
1002
}
1000
23GENINF
1070
     4
1000
23
1002
{
1002
}
1000
24GENINF
1070
     4
1000
24
1002
{
1002
}
1000
0GENINF
1070
     4
1000
0
1002
{
1002
}
1002
}
1000
GENINFO
1070
     0
1002
{
1000
3GENINF
1070
     4
1000
3
1002
{
1002
}
1000
4GENINF
1070
     4
1000
4
1002
{
1002
}
1000
5GENINF
1070
     4
1000
5
1002
{
1002
}
1000
6GENINF
1070
     4
1000
6
1002
{
1002
}
1000
7GENINF
1070
     4
1000
7
1002
{
1002
}
1000
8GENINF
1070
     4
1000
8
1002
{
1002
}
1000
9GENINF
1070
     4
1000
9
1002
{
1002
}
1000
10GENINF
1070
     4
1000
10
1002
{
1002
}
1000
11GENINF
1070
     4
1000
11
1002
{
1002
}
1000
12GENINF
1070
     4
1000
12
1002
{
1002
}
1000
13GENINF
1070
     4
1000
13
1002
{
1002
}
1000
14GENINF
1070
     4
1000
14
1002
{
1002
}
1000
15GENINF
1070
     4
1000
15
1002
{
1002
}
1000
16GENINF
1070
     4
1000
16
1002
{
1002
}
1000
17GENINF
1070
     4
1000
17
1002
{
1002
}
1000
18GENINF
1070
     4
1000
18
1002
{
1002
}
1000
19GENINF
1070
     4
1000
19
1002
{
1002
}
1000
20GENINF
1070
     4
1000
20
1002
{
1002
}
1000
21GENINF
1070
     4
1000
21
1002
{
1002
}
1000
22GENINF
1070
     4
1000
22
1002
{
1002
}
1002
}
1000
DININFO
1070
     0
1002
{
1000
ST-NAME1
1070
     4
1000
5
1002
{
1002
}
1000
ST-NAME2
1070
     4
1000
6
1002
{
1002
}
1000
ST-NORM1
1070
     4
1000
7
1002
{
1002
}
1000
ST-NORM2
1070
     4
1000
8
1002
{
1002
}
1000
ST-MAT1
1070
     4
1000
9
1002
{
1002
}
1000
ST-MAT2
1070
     4
1000
10
1002
{
1002
}
1002
}
1002
}
1000
POS_NUMBERS
1070
     0
1002
{
1000
GENPOS14
1070
     0
1002
{
1000
1GENPOS
1070
     4
1000
1
1002
{
1002
}
1000
2GENPOS
1070
     4
1000
2
1002
{
1002
}
1000
3GENPOS
1070
     4
1000
3
1002
{
1002
}
1000
4GENPOS
1070
     4
1000
4
1002
{
1002
}
1000
5GENPOS
1070
     4
1000
5
1002
{
1002
}
1000
6GENPOS
1070
     4
1000
6
1002
{
1002
}
1000
7GENPOS
1070
     4
1000
7
1002
{
1002
}
1000
8GENPOS
1070
     4
1000
8
1002
{
1002
}
1000
9GENPOS
1070
     4
1000
9
1002
{
1002
}
1000
10GENPOS
1070
     4
1000
10
1002
{
1002
}
1000
11GENPOS
1070
     4
1000
11
1002
{
1002
}
1000
12GENPOS
1070
     4
1000
12
1002
{
1002
}
1000
13GENPOS
1070
     4
1000
13
1002
{
1002
}
1000
14GENPOS
1070
     4
1000
14
1002
{
1002
}
1000
15GENPOS
1070
     4
1000
15
1002
{
1002
}
1000
16GENPOS
1070
     4
1000
16
1002
{
1002
}
1000
17GENPOS
1070
     4
1000
17
1002
{
1002
}
1000
18GENPOS
1070
     4
1000
18
1002
{
1002
}
1000
19GENPOS
1070
     4
1000
19
1002
{
1002
}
1000
20GENPOS
1070
     4
1000
20
1002
{
1002
}
1000
21GENPOS
1070
     4
1000
21
1002
{
1002
}
1000
22GENPOS
1070
     4
1000
22
1002
{
1002
}
1000
23GENPOS
1070
     4
1000
23
1002
{
1002
}
1000
24GENPOS
1070
     4
1000
24
1002
{
1002
}
1000
25GENPOS
1070
     4
1000
25
1002
{
1002
}
1000
26GENPOS
1070
     4
1000
26
1002
{
1002
}
1000
27GENPOS
1070
     4
1000
27
1002
{
1002
}
1000
0GENPOS
1070
     4
1000
0
1002
{
1002
}
1002
}
1000
GENPOS13
1070
     0
1002
{
1000
1GENPOS
1070
     4
1000
1
1002
{
1002
}
1000
2GENPOS
1070
     4
1000
2
1002
{
1002
}
1000
3GENPOS
1070
     4
1000
3
1002
{
1002
}
1000
4GENPOS
1070
     4
1000
4
1002
{
1002
}
1000
5GENPOS
1070
     4
1000
5
1002
{
1002
}
1000
6GENPOS
1070
     4
1000
6
1002
{
1002
}
1000
7GENPOS
1070
     4
1000
7
1002
{
1002
}
1000
8GENPOS
1070
     4
1000
8
1002
{
1002
}
1000
9GENPOS
1070
     4
1000
9
1002
{
1002
}
1000
10GENPOS
1070
     4
1000
10
1002
{
1002
}
1000
11GENPOS
1070
     4
1000
11
1002
{
1002
}
1000
12GENPOS
1070
     4
1000
12
1002
{
1002
}
1000
13GENPOS
1070
     4
1000
13
1002
{
1002
}
1000
14GENPOS
1070
     4
1000
14
1002
{
1002
}
1000
15GENPOS
1070
     4
1000
15
1002
{
1002
}
1000
16GENPOS
1070
     4
1000
16
1002
{
1002
}
1000
17GENPOS
1070
     4
1000
17
1002
{
1002
}
1000
18GENPOS
1070
     4
1000
18
1002
{
1002
}
1000
19GENPOS
1070
     4
1000
19
1002
{
1002
}
1000
20GENPOS
1070
     4
1000
20
1002
{
1002
}
1000
21GENPOS
1070
     4
1000
21
1002
{
1002
}
1000
22GENPOS
1070
     4
1000
22
1002
{
1002
}
1000
23GENPOS
1070
     4
1000
23
1002
{
1002
}
1000
24GENPOS
1070
     4
1000
24
1002
{
1002
}
1000
0GENPOS
1070
     4
1000
0
1002
{
1002
}
1002
}
1000
GENPOS
1070
     0
1002
{
1000
1GENPOS
1070
     4
1000
1
1002
{
1002
}
1000
2GENPOS
1070
     4
1000
2
1002
{
1002
}
1000
3GENPOS
1070
     4
1000
3
1002
{
1002
}
1000
4GENPOS
1070
     4
1000
4
1002
{
1002
}
1000
5GENPOS
1070
     4
1000
5
1002
{
1002
}
1000
6GENPOS
1070
     4
1000
6
1002
{
1002
}
1000
7GENPOS
1070
     4
1000
7
1002
{
1002
}
1000
8GENPOS
1070
     4
1000
8
1002
{
1002
}
1000
9GENPOS
1070
     4
1000
9
1002
{
1002
}
1000
10GENPOS
1070
     4
1000
10
1002
{
1002
}
1000
11GENPOS
1070
     4
1000
11
1002
{
1002
}
1000
12GENPOS
1070
     4
1000
12
1002
{
1002
}
1000
13GENPOS
1070
     4
1000
13
1002
{
1002
}
1000
14GENPOS
1070
     4
1000
14
1002
{
1002
}
1000
15GENPOS
1070
     4
1000
15
1002
{
1002
}
1000
16GENPOS
1070
     4
1000
16
1002
{
1002
}
1000
17GENPOS
1070
     4
1000
17
1002
{
1002
}
1000
18GENPOS
1070
     4
1000
18
1002
{
1002
}
1000
19GENPOS
1070
     4
1000
19
1002
{
1002
}
1000
20GENPOS
1070
     4
1000
20
1002
{
1002
}
1000
21GENPOS
1070
     4
1000
21
1002
{
1002
}
1000
22GENPOS
1070
     4
1000
22
1002
{
1002
}
1000
23GENPOS
1070
     4
1000
23
1002
{
1002
}
1002
}
1000
DIN985
1070
     0
1002
{
1000
POSITION
1070
     4
1000
1
1002
{
1002
}
1000
MENGE
1070
     4
1000
2
1002
{
1002
}
1000
BLATT
1070
     4
1000
3
1002
{
1002
}
1000
BENENN
1070
     4
1000
5
1002
{
1002
}
1000
BENENN2
1070
     4
1000
6
1002
{
1002
}
1000
NORM
1070
     4
1000
7
1002
{
1002
}
1000
NORM2
1070
     4
1000
8
1002
{
1002
}
1000
WERKSTOFF
1070
     4
1000
9
1002
{
1002
}
1000
WERKSTOFF2
1070
     4
1000
10
1002
{
1002
}
1002
}
1000
DIN986
1070
     0
1002
{
1000
POSITION
1070
     4
1000
1
1002
{
1002
}
1000
MENGE
1070
     4
1000
2
1002
{
1002
}
1000
BLATT
1070
     4
1000
3
1002
{
1002
}
1000
BENENN
1070
     4
1000
5
1002
{
1002
}
1000
BENENN2
1070
     4
1000
6
1002
{
1002
}
1000
NORM
1070
     4
1000
7
1002
{
1002
}
1000
NORM2
1070
     4
1000
8
1002
{
1002
}
1000
WERKSTOFF
1070
     4
1000
9
1002
{
1002
}
1000
WERKSTOFF2
1070
     4
1000
10
1002
{
1002
}
1002
}
1000
DIN987
1070
     0
1002
{
1000
POSITION
1070
     4
1000
1
1002
{
1002
}
1000
MENGE
1070
     4
1000
2
1002
{
1002
}
1000
BLATT
1070
     4
1000
3
1002
{
1002
}
1000
BENENN
1070
     4
1000
5
1002
{
1002
}
1000
BENENN2
1070
     4
1000
6
1002
{
1002
}
1000
NORM
1070
     4
1000
7
1002
{
1002
}
1000
NORM2
1070
     4
1000
8
1002
{
1002
}
1000
WERKSTOFF
1070
     4
1000
9
1002
{
1002
}
1000
WERKSTOFF2
1070
     4
1000
10
1002
{
1002
}
1002
}
1002
}
  0
APPID
  5
1E4
330
9
100
AcDbSymbolTableRecord
100
AcDbRegAppTableRecord
  2
GENIUS_GENCFG1_13
 70
     0
1001
GENIUS_GENCFG_13
1071
919852330
1000
406
1000
GEN@LAYER@DEFS
1070
     9
1000
GenCfgObject
1000
GenCfgShort
1000
GenCfgReal
1000
GenCfgBool
1000
GenCfgString
1000
GenCfgDim
1000
GenCfgAttrInf
1000
GenCfgLaySection
1000
GenCfgLayer
1000
Basic
1070
     0
1002
{
1000
0
1070
     8
1000
0
1002
{
1000
Color
1070
     1
1070
     7
1002
{
1002
}
1000
LType
1070
     4
1000
CONTINUOUS
1002
{
1002
}
1000
Base
1070
     3
1070
     0
1002
{
1002
}
1002
}
1000
1
1070
     8
1000
1
1002
{
1000
Color
1070
     1
1070
    14
1002
{
1002
}
1000
LType
1070
     4
1000
CONTINUOUS
1002
{
1002
}
1000
Base
1070
     3
1070
     0
1002
{
1002
}
1002
}
1000
2
1070
     8
1000
2
1002
{
1000
Color
1070
     1
1070
     5
1002
{
1002
}
1000
LType
1070
     4
1000
CONTINUOUS
1002
{
1002
}
1000
Base
1070
     3
1070
     0
1002
{
1002
}
1002
}
1000
3
1070
     8
1000
3
1002
{
1000
Color
1070
     1
1070
     6
1002
{
1002
}
1000
LType
1070
     4
1000
GEN3
1002
{
1002
}
1000
Base
1070
     3
1070
     0
1002
{
1002
}
1002
}
1000
4
1070
     8
1000
4
1002
{
1000
Color
1070
     1
1070
     3
1002
{
1002
}
1000
LType
1070
     4
1000
CONTINUOUS
1002
{
1002
}
1000
Base
1070
     3
1070
     0
1002
{
1002
}
1002
}
1000
5
1070
     8
1000
5
1002
{
1000
Color
1070
     1
1070
     3
1002
{
1002
}
1000
LType
1070
     4
1000
CONTINUOUS
1002
{
1002
}
1000
Base
1070
     3
1070
     0
1002
{
1002
}
1002
}
1000
6
1070
     8
1000
6
1002
{
1000
Color
1070
     1
1070
     2
1002
{
1002
}
1000
LType
1070
     4
1000
CONTINUOUS
1002
{
1002
}
1000
Base
1070
     3
1070
     0
1002
{
1002
}
1002
}
1000
7
1070
     8
1000
7
1002
{
1000
Color
1070
     1
1070
     4
1002
{
1002
}
1000
LType
1070
     4
1000
GEN7
1002
{
1002
}
1000
Base
1070
     3
1070
     0
1002
{
1002
}
1002
}
1000
8
1070
     8
1000
8
1002
{
1000
Color
1070
     1
1070
     1
1002
{
1002
}
1000
LType
1070
     4
1000
CONTINUOUS
1002
{
1002
}
1000
Base
1070
     3
1070
     0
1002
{
1002
}
1002
}
1000
3A
1070
     8
1000
3A
1002
{
1000
Color
1070
     1
1070
     6
1002
{
1002
}
1000
LType
1070
     4
1000
GEN3A
1002
{
1002
}
1000
Base
1070
     3
1070
     0
1002
{
1002
}
1002
}
1000
7A
1070
     8
1000
7A
1002
{
1000
Color
1070
     1
1070
     4
1002
{
1002
}
1000
LType
1070
     4
1000
GEN7A
1002
{
1002
}
1000
Base
1070
     3
1070
     0
1002
{
1002
}
1002
}
1000
2A
1070
     8
1000
2A
1002
{
1000
Color
1070
     1
1070
     7
1002
{
1002
}
1000
LType
1070
     4
1000
GEN7
1002
{
1002
}
1000
Base
1070
     3
1070
     0
1002
{
1002
}
1002
}
1000
4A
1070
     8
1000
4A
1002
{
1000
Color
1070
     1
1070
     3
1002
{
1002
}
1000
LType
1070
     4
1000
GEN4A
1002
{
1002
}
1000
Base
1070
     3
1070
     0
1002
{
1002
}
1002
}
1000
9
1070
     8
1000
9
1002
{
1000
Color
1070
     1
1070
   253
1002
{
1002
}
1000
LType
1070
     4
1000
CONTINUOUS
1002
{
1002
}
1000
Base
1070
     3
1070
     0
1002
{
1002
}
1002
}
1000
IP
1070
     8
1000
IP
1002
{
1000
Color
1070
     1
1070
     7
1002
{
1002
}
1000
LType
1070
     4
1000
CONTINUOUS
1002
{
1002
}
1000
Base
1070
     3
1070
     0
1002
{
1002
}
1002
}
1002
}
1000
Standard
1070
     0
1002
{
1000
0N
1070
     8
1000
0N
1002
{
1000
Color
1070
     1
1070
     7
1002
{
1002
}
1000
LType
1070
     4
1000
CONTINUOUS
1002
{
1002
}
1000
Base
1070
     3
1070
     0
1002
{
1002
}
1002
}
1000
1N
1070
     8
1000
1N
1002
{
1000
Color
1070
     1
1070
    14
1002
{
1002
}
1000
LType
1070
     4
1000
CONTINUOUS
1002
{
1002
}
1000
Base
1070
     3
1070
     0
1002
{
1002
}
1002
}
1000
2N
1070
     8
1000
2N
1002
{
1000
Color
1070
     1
1070
     5
1002
{
1002
}
1000
LType
1070
     4
1000
CONTINUOUS
1002
{
1002
}
1000
Base
1070
     3
1070
     0
1002
{
1002
}
1002
}
1000
3N
1070
     8
1000
3N
1002
{
1000
Color
1070
     1
1070
     6
1002
{
1002
}
1000
LType
1070
     4
1000
GEN3
1002
{
1002
}
1000
Base
1070
     3
1070
     0
1002
{
1002
}
1002
}
1000
4N
1070
     8
1000
4N
1002
{
1000
Color
1070
     1
1070
     3
1002
{
1002
}
1000
LType
1070
     4
1000
CONTINUOUS
1002
{
1002
}
1000
Base
1070
     3
1070
     0
1002
{
1002
}
1002
}
1000
5N
1070
     8
1000
5N
1002
{
1000
Color
1070
     1
1070
     3
1002
{
1002
}
1000
LType
1070
     4
1000
CONTINUOUS
1002
{
1002
}
1000
Base
1070
     3
1070
     0
1002
{
1002
}
1002
}
1000
6N
1070
     8
1000
6N
1002
{
1000
Color
1070
     1
1070
     2
1002
{
1002
}
1000
LType
1070
     4
1000
CONTINUOUS
1002
{
1002
}
1000
Base
1070
     3
1070
     0
1002
{
1002
}
1002
}
1000
7N
1070
     8
1000
7N
1002
{
1000
Color
1070
     1
1070
     4
1002
{
1002
}
1000
LType
1070
     4
1000
GEN7
1002
{
1002
}
1000
Base
1070
     3
1070
     0
1002
{
1002
}
1002
}
1000
8N
1070
     8
1000
8N
1002
{
1000
Color
1070
     1
1070
     1
1002
{
1002
}
1000
LType
1070
     4
1000
CONTINUOUS
1002
{
1002
}
1000
Base
1070
     3
1070
     0
1002
{
1002
}
1002
}
1000
3AN
1070
     8
1000
3AN
1002
{
1000
Color
1070
     1
1070
     6
1002
{
1002
}
1000
LType
1070
     4
1000
GEN3A
1002
{
1002
}
1000
Base
1070
     3
1070
     0
1002
{
1002
}
1002
}
1000
7AN
1070
     8
1000
7AN
1002
{
1000
Color
1070
     1
1070
     4
1002
{
1002
}
1000
LType
1070
     4
1000
GEN7A
1002
{
1002
}
1000
Base
1070
     3
1070
     0
1002
{
1002
}
1002
}
1000
2AN
1070
     8
1000
2AN
1002
{
1000
Color
1070
     1
1070
     7
1002
{
1002
}
1000
LType
1070
     4
1000
GEN7
1002
{
1002
}
1000
Base
1070
     3
1070
     0
1002
{
1002
}
1002
}
1000
4AN
1070
     8
1000
4AN
1002
{
1000
Color
1070
     1
1070
     3
1002
{
1002
}
1000
LType
1070
     4
1000
GEN4A
1002
{
1002
}
1000
Base
1070
     3
1070
     0
1002
{
1002
}
1002
}
1000
9N
1070
     8
1000
9N
1002
{
1000
Color
1070
     1
1070
   253
1002
{
1002
}
1000
LType
1070
     4
1000
CONTINUOUS
1002
{
1002
}
1000
Base
1070
     3
1070
     0
1002
{
1002
}
1002
}
1000
IPN
1070
     8
1000
IPN
1002
{
1000
Color
1070
     1
1070
     7
1002
{
1002
}
1000
LType
1070
     4
1000
CONTINUOUS
1002
{
1002
}
1000
Base
1070
     3
1070
     0
1002
{
1002
}
1002
}
1002
}
1000
Extra
1070
     0
1002
{
1000
Klin
1070
     8
1000
KLIN
1002
{
1000
Color
1070
     1
1070
     1
1002
{
1002
}
1000
LType
1070
     4
1000
GEN3
1002
{
1002
}
1000
Base
1070
     3
1070
     1
1002
{
1002
}
1002
}
1000
Info
1070
     8
1000
INFO
1002
{
1000
Color
1070
     1
1070
     4
1002
{
1002
}
1000
LType
1070
     4
1000
CONTINUOUS
1002
{
1002
}
1000
Base
1070
     3
1070
     1
1002
{
1002
}
1002
}
1000
Rahm2
1070
     8
1000
RAHM2
1002
{
1000
Color
1070
     1
1070
     1
1002
{
1002
}
1000
LType
1070
     4
1000
CONTINUOUS
1002
{
1002
}
1000
Base
1070
     3
1070
     1
1002
{
1002
}
1002
}
1000
Rahm3
1070
     8
1000
RAHM3
1002
{
1000
Color
1070
     1
1070
     2
1002
{
1002
}
1000
LType
1070
     4
1000
CONTINUOUS
1002
{
1002
}
1000
Base
1070
     3
1070
     1
1002
{
1002
}
1002
}
1000
Rahm5
1070
     8
1000
RAHM5
1002
{
1000
Color
1070
     1
1070
     7
1002
{
1002
}
1000
LType
1070
     4
1000
CONTINUOUS
1002
{
1002
}
1000
Base
1070
     3
1070
     1
1002
{
1002
}
1002
}
1000
View
1070
     8
1000
VIEW
1002
{
1000
Color
1070
     1
1070
     1
1002
{
1002
}
1000
LType
1070
     4
1000
CONTINUOUS
1002
{
1002
}
1000
Base
1070
     3
1070
     1
1002
{
1002
}
1002
}
1000
Behind
1070
     8
1000
BEHIND
1002
{
1000
Color
1070
     1
1070
   253
1002
{
1002
}
1000
LType
1070
     4
1000
CONTINUOUS
1002
{
1002
}
1000
Base
1070
     3
1070
     1
1002
{
1002
}
1002
}
1002
}
  0
APPID
  5
1E5
330
9
100
AcDbSymbolTableRecord
100
AcDbRegAppTableRecord
  2
GENIUS_GENCFG2_13
 70
     0
1001
GENIUS_GENCFG_13
1071
919852330
1000
407
1000
GEN@LAYER@ENTSORT
1070
    10
1000
GenCfgObject
1000
GenCfgShort
1000
GenCfgReal
1000
GenCfgBool
1000
GenCfgString
1000
GenCfgDim
1000
GenCfgAttrInf
1000
GenCfgLaySection
1000
GenCfgLayer
1000
GenCfgEntSort
1000
ADDL
1070
     9
1000
5
1002
{
1000
Class
1070
     4
1000
SYM
1002
{
1002
}
1000
Color
1070
     1
1070
     1
1002
{
1002
}
1000
LType
1070
     4
1000
BYLAYER
1002
{
1002
}
1002
}
1000
ALTR
1070
     9
1000
4
1002
{
1000
Class
1070
     4
1000

1002
{
1002
}
1000
Color
1070
     1
1070
     7
1002
{
1002
}
1000
LType
1070
     4
1000
GEN3A
1002
{
1002
}
1002
}
1000
BELI
1070
     9
1000
4
1002
{
1000
Class
1070
     4
1000

1002
{
1002
}
1000
Color
1070
     1
1070
   256
1002
{
1002
}
1000
LType
1070
     4
1000
BYLAYER
1002
{
1002
}
1002
}
1000
BHNV
1070
     9
1000
9
1002
{
1000
Class
1070
     4
1000
INV
1002
{
1002
}
1000
Color
1070
     1
1070
   256
1002
{
1002
}
1000
LType
1070
     4
1000
BYLAYER
1002
{
1002
}
1002
}
1000
BHNVS
1070
     9
1000
BEHIND
1002
{
1000
Class
1070
     4
1000
INV
1002
{
1002
}
1000
Color
1070
     1
1070
   256
1002
{
1002
}
1000
LType
1070
     4
1000
BYLAYER
1002
{
1002
}
1002
}
1000
BLID
1070
     9
1000
4A
1002
{
1000
Class
1070
     4
1000

1002
{
1002
}
1000
Color
1070
     1
1070
   256
1002
{
1002
}
1000
LType
1070
     4
1000
BYLAYER
1002
{
1002
}
1002
}
1000
BOAP
1070
     9
1000
4A
1002
{
1000
Class
1070
     4
1000

1002
{
1002
}
1000
Color
1070
     1
1070
   256
1002
{
1002
}
1000
LType
1070
     4
1000
BYLAYER
1002
{
1002
}
1002
}
1000
BOR2
1070
     9
1000
RAHM2
1002
{
1000
Class
1070
     4
1000
SPZ,SYM
1002
{
1002
}
1000
Color
1070
     1
1070
   256
1002
{
1002
}
1000
LType
1070
     4
1000
BYLAYER
1002
{
1002
}
1002
}
1000
BOR3
1070
     9
1000
RAHM3
1002
{
1000
Class
1070
     4
1000
SPZ,SYM
1002
{
1002
}
1000
Color
1070
     1
1070
   256
1002
{
1002
}
1000
LType
1070
     4
1000
BYLAYER
1002
{
1002
}
1002
}
1000
BOR5
1070
     9
1000
RAHM5
1002
{
1000
Class
1070
     4
1000
SPZ,SYM
1002
{
1002
}
1000
Color
1070
     1
1070
   256
1002
{
1002
}
1000
LType
1070
     4
1000
BYLAYER
1002
{
1002
}
1002
}
1000
BOR7
1070
     9
1000
RAHM5
1002
{
1000
Class
1070
     4
1000
SPZ,SYM
1002
{
1002
}
1000
Color
1070
     1
1070
     7
1002
{
1002
}
1000
LType
1070
     4
1000
CONTINUOUS
1002
{
1002
}
1002
}
1000
BPAP
1070
     9
1000
e
1002
{
1000
Class
1070
     4
1000

1002
{
1002
}
1000
Color
1070
     1
1070
   256
1002
{
1002
}
1000
LType
1070
     4
1000
BYLAYER
1002
{
1002
}
1002
}
1000
BPEX
1070
     9
1000
4A
1002
{
1000
Class
1070
     4
1000

1002
{
1002
}
1000
Color
1070
     1
1070
   256
1002
{
1002
}
1000
LType
1070
     4
1000
BYLAYER
1002
{
1002
}
1002
}
1000
BTDI
1070
     9
1000
5
1002
{
1000
Class
1070
     4
1000
DIM,SYM
1002
{
1002
}
1000
Color
1070
     1
1070
   256
1002
{
1002
}
1000
LType
1070
     4
1000
BYLAYER
1002
{
1002
}
1002
}
1000
CAL2
1070
     9
1000
4
1002
{
1000
Class
1070
     4
1000
SYM
1002
{
1002
}
1000
Color
1070
     1
1070
   256
1002
{
1002
}
1000
LType
1070
     4
1000
BYLAYER
1002
{
1002
}
1002
}
1000
CAL3
1070
     9
1000
4
1002
{
1000
Class
1070
     4
1000
SYM
1002
{
1002
}
1000
Color
1070
     1
1070
     2
1002
{
1002
}
1000
LType
1070
     4
1000
BYLAYER
1002
{
1002
}
1002
}
1000
CAL5
1070
     9
1000
4
1002
{
1000
Class
1070
     4
1000
SYM
1002
{
1002
}
1000
Color
1070
     1
1070
     7
1002
{
1002
}
1000
LType
1070
     4
1000
BYLAYER
1002
{
1002
}
1002
}
1000
CAL7
1070
     9
1000
4
1002
{
1000
Class
1070
     4
1000
SYM
1002
{
1002
}
1000
Color
1070
     1
1070
     5
1002
{
1002
}
1000
LType
1070
     4
1000
BYLAYER
1002
{
1002
}
1002
}
1000
CENN
1070
     9
1000
7A
1002
{
1000
Class
1070
     4
1000
CEN
1002
{
1002
}
1000
Color
1070
     1
1070
   256
1002
{
1002
}
1000
LType
1070
     4
1000
BYLAYER
1002
{
1002
}
1002
}
1000
CENW
1070
     9
1000
7
1002
{
1000
Class
1070
     4
1000
CEN
1002
{
1002
}
1000
Color
1070
     1
1070
   256
1002
{
1002
}
1000
LType
1070
     4
1000
BYLAYER
1002
{
1002
}
1002
}
1000
CLIN
1070
     9
1000
KLIN
1002
{
1000
Class
1070
     4
1000
SPZ
1002
{
1002
}
1000
Color
1070
     1
1070
   256
1002
{
1002
}
1000
LType
1070
     4
1000
BYLAYER
1002
{
1002
}
1002
}
1000
CON1
1070
     9
1000
0
1002
{
1000
Class
1070
     4
1000
CON,BGD
1002
{
1002
}
1000
Color
1070
     1
1070
   256
1002
{
1002
}
1000
LType
1070
     4
1000
BYLAYER
1002
{
1002
}
1002
}
1000
CON2
1070
     9
1000
1
1002
{
1000
Class
1070
     4
1000
CON,BGD
1002
{
1002
}
1000
Color
1070
     1
1070
   256
1002
{
1002
}
1000
LType
1070
     4
1000
BYLAYER
1002
{
1002
}
1002
}
1000
CON3
1070
     9
1000
2
1002
{
1000
Class
1070
     4
1000
CON,BGD
1002
{
1002
}
1000
Color
1070
     1
1070
   256
1002
{
1002
}
1000
LType
1070
     4
1000
BYLAYER
1002
{
1002
}
1002
}
1000
CON4
1070
     9
1000
2
1002
{
1000
Class
1070
     4
1000
CON,BGD
1002
{
1002
}
1000
Color
1070
     1
1070
   256
1002
{
1002
}
1000
LType
1070
     4
1000
BYLAYER
1002
{
1002
}
1002
}
1000
DERP
1070
     9
1000
4
1002
{
1000
Class
1070
     4
1000

1002
{
1002
}
1000
Color
1070
     1
1070
   256
1002
{
1002
}
1000
LType
1070
     4
1000
BYLAYER
1002
{
1002
}
1002
}
1000
DETA
1070
     9
1000
4
1002
{
1000
Class
1070
     4
1000

1002
{
1002
}
1000
Color
1070
     1
1070
   256
1002
{
1002
}
1000
LType
1070
     4
1000
BYLAYER
1002
{
1002
}
1002
}
1000
DIAG
1070
     9
1000
5
1002
{
1000
Class
1070
     4
1000
SYM
1002
{
1002
}
1000
Color
1070
     1
1070
   256
1002
{
1002
}
1000
LType
1070
     4
1000
BYLAYER
1002
{
1002
}
1002
}
1000
DILI
1070
     9
1000
5
1002
{
1000
Class
1070
     4
1000
DIM,SYM
1002
{
1002
}
1000
Color
1070
     1
1070
   256
1002
{
1002
}
1000
LType
1070
     4
1000
BYLAYER
1002
{
1002
}
1002
}
1000
DITO2
1070
     9
1000
5
1002
{
1000
Class
1070
     4
1000
DIM,SYM
1002
{
1002
}
1000
Color
1070
     1
1070
     3
1002
{
1002
}
1000
LType
1070
     4
1000
BYLAYER
1002
{
1002
}
1002
}
1000
DITO3
1070
     9
1000
5
1002
{
1000
Class
1070
     4
1000
DIM,SYM
1002
{
1002
}
1000
Color
1070
     1
1070
     2
1002
{
1002
}
1000
LType
1070
     4
1000
BYLAYER
1002
{
1002
}
1002
}
1000
DITX
1070
     9
1000
5
1002
{
1000
Class
1070
     4
1000
DIM,SYM
1002
{
1002
}
1000
Color
1070
     1
1070
     1
1002
{
1002
}
1000
LType
1070
     4
1000
CONTINUOUS
1002
{
1002
}
1002
}
1000
DIXL
1070
     9
1000
5
1002
{
1000
Class
1070
     4
1000
DIM,SYM
1002
{
1002
}
1000
Color
1070
     1
1070
   256
1002
{
1002
}
1000
LType
1070
     4
1000
BYLAYER
1002
{
1002
}
1002
}
1000
EXMP
1070
     9
1000
4A
1002
{
1000
Class
1070
     4
1000

1002
{
1002
}
1000
Color
1070
     1
1070
   256
1002
{
1002
}
1000
LType
1070
     4
1000
BYLAYER
1002
{
1002
}
1002
}
1000
FEMN
1070
     9
1000
8
1002
{
1000
Class
1070
     4
1000

1002
{
1002
}
1000
Color
1070
     1
1070
   256
1002
{
1002
}
1000
LType
1070
     4
1000
BYLAYER
1002
{
1002
}
1002
}
1000
FEMPN
1070
     9
1000
8
1002
{
1000
Class
1070
     4
1000
SYM
1002
{
1002
}
1000
Color
1070
     1
1070
     3
1002
{
1002
}
1000
LType
1070
     4
1000
BYLAYER
1002
{
1002
}
1002
}
1000
FEMSP
1070
     9
1000
4A
1002
{
1000
Class
1070
     4
1000

1002
{
1002
}
1000
Color
1070
     1
1070
   256
1002
{
1002
}
1000
LType
1070
     4
1000
CONTINUOUS
1002
{
1002
}
1002
}
1000
FEMST
1070
     9
1000
4A
1002
{
1000
Class
1070
     4
1000
SYM
1002
{
1002
}
1000
Color
1070
     1
1070
     3
1002
{
1002
}
1000
LType
1070
     4
1000
BYLAYER
1002
{
1002
}
1002
}
1000
FEMVN
1070
     9
1000
2
1002
{
1000
Class
1070
     4
1000
CON
1002
{
1002
}
1000
Color
1070
     1
1070
   256
1002
{
1002
}
1000
LType
1070
     4
1000
BYLAYER
1002
{
1002
}
1002
}
1000
FEMVT
1070
     9
1000
2
1002
{
1000
Class
1070
     4
1000
SYM
1002
{
1002
}
1000
Color
1070
     1
1070
     3
1002
{
1002
}
1000
LType
1070
     4
1000
BYLAYER
1002
{
1002
}
1002
}
1000
FLAT
1070
     9
1000
0
1002
{
1000
Class
1070
     4
1000

1002
{
1002
}
1000
Color
1070
     1
1070
   256
1002
{
1002
}
1000
LType
1070
     4
1000
BYLAYER
1002
{
1002
}
1002
}
1000
FRAR
1070
     9
1000
4A
1002
{
1000
Class
1070
     4
1000

1002
{
1002
}
1000
Color
1070
     1
1070
   256
1002
{
1002
}
1000
LType
1070
     4
1000
BYLAYER
1002
{
1002
}
1002
}
1000
GRLI
1070
     9
1000
5
1002
{
1000
Class
1070
     4
1000
SYM
1002
{
1002
}
1000
Color
1070
     1
1070
   256
1002
{
1002
}
1000
LType
1070
     4
1000
BYLAYER
1002
{
1002
}
1002
}
1000
GVLI
1070
     9
1000
4A
1002
{
1000
Class
1070
     4
1000

1002
{
1002
}
1000
Color
1070
     1
1070
   256
1002
{
1002
}
1000
LType
1070
     4
1000
BYLAYER
1002
{
1002
}
1002
}
1000
HATC
1070
     9
1000
8
1002
{
1000
Class
1070
     4
1000
HTC,BGD
1002
{
1002
}
1000
Color
1070
     1
1070
   256
1002
{
1002
}
1000
LType
1070
     4
1000
BYLAYER
1002
{
1002
}
1002
}
1000
HIDN
1070
     9
1000
3A
1002
{
1000
Class
1070
     4
1000
HID,BGD
1002
{
1002
}
1000
Color
1070
     1
1070
   256
1002
{
1002
}
1000
LType
1070
     4
1000
BYLAYER
1002
{
1002
}
1002
}
1000
HIDW
1070
     9
1000
3
1002
{
1000
Class
1070
     4
1000
HID,BGD
1002
{
1002
}
1000
Color
1070
     1
1070
   256
1002
{
1002
}
1000
LType
1070
     4
1000
BYLAYER
1002
{
1002
}
1002
}
1000
HLIN
1070
     9
1000
4
1002
{
1000
Class
1070
     4
1000
BGD
1002
{
1002
}
1000
Color
1070
     1
1070
   256
1002
{
1002
}
1000
LType
1070
     4
1000
BYLAYER
1002
{
1002
}
1002
}
1000
HOCN
1070
     9
1000
7A
1002
{
1000
Class
1070
     4
1000
CEN
1002
{
1002
}
1000
Color
1070
     1
1070
   256
1002
{
1002
}
1000
LType
1070
     4
1000
BYLAYER
1002
{
1002
}
1002
}
1000
HOCW
1070
     9
1000
7
1002
{
1000
Class
1070
     4
1000
CEN
1002
{
1002
}
1000
Color
1070
     1
1070
   256
1002
{
1002
}
1000
LType
1070
     4
1000
BYLAYER
1002
{
1002
}
1002
}
1000
INFO
1070
     9
1000
INFO
1002
{
1000
Class
1070
     4
1000
SPZ,SYM
1002
{
1002
}
1000
Color
1070
     1
1070
   256
1002
{
1002
}
1000
LType
1070
     4
1000
BYLAYER
1002
{
1002
}
1002
}
1000
LADI
1070
     9
1000
4
1002
{
1000
Class
1070
     4
1000
BGD
1002
{
1002
}
1000
Color
1070
     1
1070
   256
1002
{
1002
}
1000
LType
1070
     4
1000
BYLAYER
1002
{
1002
}
1002
}
1000
LEAD
1070
     9
1000
5
1002
{
1000
Class
1070
     4
1000
SYM
1002
{
1002
}
1000
Color
1070
     1
1070
   256
1002
{
1002
}
1000
LType
1070
     4
1000
BYLAYER
1002
{
1002
}
1002
}
1000
N_ADDL
1070
     9
1000
5N
1002
{
1000
Class
1070
     4
1000
SYM
1002
{
1002
}
1000
Color
1070
     1
1070
     1
1002
{
1002
}
1000
LType
1070
     4
1000
BYLAYER
1002
{
1002
}
1002
}
1000
N_BHNV
1070
     9
1000
9N
1002
{
1000
Class
1070
     4
1000
INV
1002
{
1002
}
1000
Color
1070
     1
1070
   256
1002
{
1002
}
1000
LType
1070
     4
1000
BYLAYER
1002
{
1002
}
1002
}
1000
N_CON1
1070
     9
1000
0N
1002
{
1000
Class
1070
     4
1000
CON,BGD
1002
{
1002
}
1000
Color
1070
     1
1070
   256
1002
{
1002
}
1000
LType
1070
     4
1000
BYLAYER
1002
{
1002
}
1002
}
1000
N_CON2
1070
     9
1000
1N
1002
{
1000
Class
1070
     4
1000
CON,BGD
1002
{
1002
}
1000
Color
1070
     1
1070
   256
1002
{
1002
}
1000
LType
1070
     4
1000
BYLAYER
1002
{
1002
}
1002
}
1000
N_CON3
1070
     9
1000
2N
1002
{
1000
Class
1070
     4
1000
CON,BGD
1002
{
1002
}
1000
Color
1070
     1
1070
   256
1002
{
1002
}
1000
LType
1070
     4
1000
BYLAYER
1002
{
1002
}
1002
}
1000
N_CON4
1070
     9
1000
2N
1002
{
1000
Class
1070
     4
1000
CON,BGD
1002
{
1002
}
1000
Color
1070
     1
1070
   256
1002
{
1002
}
1000
LType
1070
     4
1000
BYLAYER
1002
{
1002
}
1002
}
1000
N_CENN
1070
     9
1000
7AN
1002
{
1000
Class
1070
     4
1000
CEN
1002
{
1002
}
1000
Color
1070
     1
1070
   256
1002
{
1002
}
1000
LType
1070
     4
1000
BYLAYER
1002
{
1002
}
1002
}
1000
N_CENW
1070
     9
1000
7N
1002
{
1000
Class
1070
     4
1000
CEN
1002
{
1002
}
1000
Color
1070
     1
1070
   256
1002
{
1002
}
1000
LType
1070
     4
1000
BYLAYER
1002
{
1002
}
1002
}
1000
N_DILI
1070
     9
1000
5N
1002
{
1000
Class
1070
     4
1000
DIM,SYM
1002
{
1002
}
1000
Color
1070
     1
1070
   256
1002
{
1002
}
1000
LType
1070
     4
1000
BYLAYER
1002
{
1002
}
1002
}
1000
N_DITX
1070
     9
1000
5N
1002
{
1000
Class
1070
     4
1000
DIM,SYM
1002
{
1002
}
1000
Color
1070
     1
1070
     2
1002
{
1002
}
1000
LType
1070
     4
1000
CONTINUOUS
1002
{
1002
}
1002
}
1000
N_DIXL
1070
     9
1000
5N
1002
{
1000
Class
1070
     4
1000
DIM,SYM
1002
{
1002
}
1000
Color
1070
     1
1070
   256
1002
{
1002
}
1000
LType
1070
     4
1000
BYLAYER
1002
{
1002
}
1002
}
1000
N_HATC
1070
     9
1000
8N
1002
{
1000
Class
1070
     4
1000
HTC,BGD
1002
{
1002
}
1000
Color
1070
     1
1070
   256
1002
{
1002
}
1000
LType
1070
     4
1000
BYLAYER
1002
{
1002
}
1002
}
1000
N_HIDN
1070
     9
1000
3AN
1002
{
1000
Class
1070
     4
1000
HID,BGD
1002
{
1002
}
1000
Color
1070
     1
1070
   256
1002
{
1002
}
1000
LType
1070
     4
1000
BYLAYER
1002
{
1002
}
1002
}
1000
N_HIDW
1070
     9
1000
3N
1002
{
1000
Class
1070
     4
1000
HID,BGD
1002
{
1002
}
1000
Color
1070
     1
1070
   256
1002
{
1002
}
1000
LType
1070
     4
1000
BYLAYER
1002
{
1002
}
1002
}
1000
N_NGIP
1070
     9
1000
IPN
1002
{
1000
Class
1070
     4
1000

1002
{
1002
}
1000
Color
1070
     1
1070
   256
1002
{
1002
}
1000
LType
1070
     4
1000
BYLAYER
1002
{
1002
}
1002
}
1000
N_PHAN
1070
     9
1000
4AN
1002
{
1000
Class
1070
     4
1000

1002
{
1002
}
1000
Color
1070
     1
1070
   256
1002
{
1002
}
1000
LType
1070
     4
1000
BYLAYER
1002
{
1002
}
1002
}
1000
N_POSL
1070
     9
1000
5N
1002
{
1000
Class
1070
     4
1000
SYM
1002
{
1002
}
1000
Color
1070
     1
1070
   256
1002
{
1002
}
1000
LType
1070
     4
1000
BYLAYER
1002
{
1002
}
1002
}
1000
N_TCON
1070
     9
1000
0N
1002
{
1000
Class
1070
     4
1000
CON,BGD
1002
{
1002
}
1000
Color
1070
     1
1070
   256
1002
{
1002
}
1000
LType
1070
     4
1000
BYLAYER
1002
{
1002
}
1002
}
1000
N_THLI
1070
     9
1000
4N
1002
{
1000
Class
1070
     4
1000
BGD
1002
{
1002
}
1000
Color
1070
     1
1070
   256
1002
{
1002
}
1000
LType
1070
     4
1000
BYLAYER
1002
{
1002
}
1002
}
1000
N_TLEN
1070
     9
1000
0N
1002
{
1000
Class
1070
     4
1000
CON,BGD
1002
{
1002
}
1000
Color
1070
     1
1070
   256
1002
{
1002
}
1000
LType
1070
     4
1000
BYLAYER
1002
{
1002
}
1002
}
1000
N_TXT3
1070
     9
1000
6N
1002
{
1000
Class
1070
     4
1000
SYM
1002
{
1002
}
1000
Color
1070
     1
1070
   256
1002
{
1002
}
1000
LType
1070
     4
1000
BYLAYER
1002
{
1002
}
1002
}
1000
N_VPLI
1070
     9
1000
2AN
1002
{
1000
Class
1070
     4
1000

1002
{
1002
}
1000
Color
1070
     1
1070
   256
1002
{
1002
}
1000
LType
1070
     4
1000
BYLAYER
1002
{
1002
}
1002
}
1000
NGIP
1070
     9
1000
IP
1002
{
1000
Class
1070
     4
1000

1002
{
1002
}
1000
Color
1070
     1
1070
   256
1002
{
1002
}
1000
LType
1070
     4
1000
BYLAYER
1002
{
1002
}
1002
}
1000
PAL2
1070
     9
1000
RAHM2
1002
{
1000
Class
1070
     4
1000
SPZ,SYM
1002
{
1002
}
1000
Color
1070
     1
1070
   256
1002
{
1002
}
1000
LType
1070
     4
1000
BYLAYER
1002
{
1002
}
1002
}
1000
PAL3
1070
     9
1000
RAHM3
1002
{
1000
Class
1070
     4
1000
SPZ,SYM
1002
{
1002
}
1000
Color
1070
     1
1070
   256
1002
{
1002
}
1000
LType
1070
     4
1000
BYLAYER
1002
{
1002
}
1002
}
1000
PAL5
1070
     9
1000
RAHM5
1002
{
1000
Class
1070
     4
1000
SPZ,SYM
1002
{
1002
}
1000
Color
1070
     1
1070
   256
1002
{
1002
}
1000
LType
1070
     4
1000
BYLAYER
1002
{
1002
}
1002
}
1000
PAL7
1070
     9
1000
RAHM5
1002
{
1000
Class
1070
     4
1000
SPZ,SYM
1002
{
1002
}
1000
Color
1070
     1
1070
     7
1002
{
1002
}
1000
LType
1070
     4
1000
CONTINUOUS
1002
{
1002
}
1002
}
1000
PHAN
1070
     9
1000
4A
1002
{
1000
Class
1070
     4
1000

1002
{
1002
}
1000
Color
1070
     1
1070
   256
1002
{
1002
}
1000
LType
1070
     4
1000
BYLAYER
1002
{
1002
}
1002
}
1000
POSL
1070
     9
1000
5
1002
{
1000
Class
1070
     4
1000
SYM
1002
{
1002
}
1000
Color
1070
     1
1070
   256
1002
{
1002
}
1000
LType
1070
     4
1000
BYLAYER
1002
{
1002
}
1002
}
1000
POSN
1070
     9
1000
6
1002
{
1000
Class
1070
     4
1000
SYM
1002
{
1002
}
1000
Color
1070
     1
1070
     7
1002
{
1002
}
1000
LType
1070
     4
1000
BYLAYER
1002
{
1002
}
1002
}
1000
POSREF
1070
     9
1000
6
1002
{
1000
Class
1070
     4
1000
SYM
1002
{
1002
}
1000
Color
1070
     1
1070
     5
1002
{
1002
}
1000
LType
1070
     4
1000
BYLAYER
1002
{
1002
}
1002
}
1000
POSX
1070
     9
1000
5
1002
{
1000
Class
1070
     4
1000
SYM
1002
{
1002
}
1000
Color
1070
     1
1070
     2
1002
{
1002
}
1000
LType
1070
     4
1000
CONTINUOUS
1002
{
1002
}
1002
}
1000
PSEC
1070
     9
1000
4A
1002
{
1000
Class
1070
     4
1000

1002
{
1002
}
1000
Color
1070
     1
1070
   256
1002
{
1002
}
1000
LType
1070
     4
1000
BYLAYER
1002
{
1002
}
1002
}
1000
RCGN
1070
     9
1000
7A
1002
{
1000
Class
1070
     4
1000
CEN
1002
{
1002
}
1000
Color
1070
     1
1070
   256
1002
{
1002
}
1000
LType
1070
     4
1000
BYLAYER
1002
{
1002
}
1002
}
1000
RCGW
1070
     9
1000
7
1002
{
1000
Class
1070
     4
1000
CEN
1002
{
1002
}
1000
Color
1070
     1
1070
   256
1002
{
1002
}
1000
LType
1070
     4
1000
BYLAYER
1002
{
1002
}
1002
}
1000
RFDI
1070
     9
1000
4
1002
{
1000
Class
1070
     4
1000
BGD
1002
{
1002
}
1000
Color
1070
     1
1070
   256
1002
{
1002
}
1000
LType
1070
     4
1000
BYLAYER
1002
{
1002
}
1002
}
1000
RQTR
1070
     9
1000
4
1002
{
1000
Class
1070
     4
1000

1002
{
1002
}
1000
Color
1070
     1
1070
     7
1002
{
1002
}
1000
LType
1070
     4
1000
GEN7A
1002
{
1002
}
1002
}
1000
RSBO
1070
     9
1000
4
1002
{
1000
Class
1070
     4
1000
BGD
1002
{
1002
}
1000
Color
1070
     1
1070
   256
1002
{
1002
}
1000
LType
1070
     4
1000
BYLAYER
1002
{
1002
}
1002
}
1000
SBRK
1070
     9
1000
4
1002
{
1000
Class
1070
     4
1000
BGD
1002
{
1002
}
1000
Color
1070
     1
1070
   256
1002
{
1002
}
1000
LType
1070
     4
1000
BYLAYER
1002
{
1002
}
1002
}
1000
SCEN
1070
     9
1000
7
1002
{
1000
Class
1070
     4
1000

1002
{
1002
}
1000
Color
1070
     1
1070
   256
1002
{
1002
}
1000
LType
1070
     4
1000
CONTINUOUS
1002
{
1002
}
1002
}
1000
SECT
1070
     9
1000
4
1002
{
1000
Class
1070
     4
1000
BGD
1002
{
1002
}
1000
Color
1070
     1
1070
   256
1002
{
1002
}
1000
LType
1070
     4
1000
BYLAYER
1002
{
1002
}
1002
}
1000
SELN
1070
     9
1000
7A
1002
{
1000
Class
1070
     4
1000

1002
{
1002
}
1000
Color
1070
     1
1070
   256
1002
{
1002
}
1000
LType
1070
     4
1000
BYLAYER
1002
{
1002
}
1002
}
1000
SELW
1070
     9
1000
7
1002
{
1000
Class
1070
     4
1000

1002
{
1002
}
1000
Color
1070
     1
1070
   256
1002
{
1002
}
1000
LType
1070
     4
1000
BYLAYER
1002
{
1002
}
1002
}
1000
SSYS
1070
     9
1000
0
1002
{
1000
Class
1070
     4
1000

1002
{
1002
}
1000
Color
1070
     1
1070
   256
1002
{
1002
}
1000
LType
1070
     4
1000
BYLAYER
1002
{
1002
}
1002
}
1000
STLI
1070
     9
1000
4
1002
{
1000
Class
1070
     4
1000

1002
{
1002
}
1000
Color
1070
     1
1070
     7
1002
{
1002
}
1000
LType
1070
     4
1000
GEN3A
1002
{
1002
}
1002
}
1000
SYB1
1070
     9
1000
5
1002
{
1000
Class
1070
     4
1000
SYM
1002
{
1002
}
1000
Color
1070
     1
1070
   256
1002
{
1002
}
1000
LType
1070
     4
1000
BYLAYER
1002
{
1002
}
1002
}
1000
SYB2
1070
     9
1000
5
1002
{
1000
Class
1070
     4
1000
SYM
1002
{
1002
}
1000
Color
1070
     1
1070
   256
1002
{
1002
}
1000
LType
1070
     4
1000
BYLAYER
1002
{
1002
}
1002
}
1000
SYB3
1070
     9
1000
6
1002
{
1000
Class
1070
     4
1000
SYM
1002
{
1002
}
1000
Color
1070
     1
1070
   256
1002
{
1002
}
1000
LType
1070
     4
1000
CONTINUOUS
1002
{
1002
}
1002
}
1000
SYB5
1070
     9
1000
5
1002
{
1000
Class
1070
     4
1000
SYM
1002
{
1002
}
1000
Color
1070
     1
1070
     7
1002
{
1002
}
1000
LType
1070
     4
1000
BYLAYER
1002
{
1002
}
1002
}
1000
SYMN
1070
     9
1000
7A
1002
{
1000
Class
1070
     4
1000
CEN
1002
{
1002
}
1000
Color
1070
     1
1070
   256
1002
{
1002
}
1000
LType
1070
     4
1000
BYLAYER
1002
{
1002
}
1002
}
1000
SYMW
1070
     9
1000
7
1002
{
1000
Class
1070
     4
1000
CEN
1002
{
1002
}
1000
Color
1070
     1
1070
   256
1002
{
1002
}
1000
LType
1070
     4
1000
BYLAYER
1002
{
1002
}
1002
}
1000
TCON
1070
     9
1000
0
1002
{
1000
Class
1070
     4
1000
CON,BGD
1002
{
1002
}
1000
Color
1070
     1
1070
   256
1002
{
1002
}
1000
LType
1070
     4
1000
BYLAYER
1002
{
1002
}
1002
}
1000
THLI
1070
     9
1000
4
1002
{
1000
Class
1070
     4
1000
BGD
1002
{
1002
}
1000
Color
1070
     1
1070
   256
1002
{
1002
}
1000
LType
1070
     4
1000
BYLAYER
1002
{
1002
}
1002
}
1000
TIT2
1070
     9
1000
RAHM2
1002
{
1000
Class
1070
     4
1000
SPZ,SYM
1002
{
1002
}
1000
Color
1070
     1
1070
   256
1002
{
1002
}
1000
LType
1070
     4
1000
BYLAYER
1002
{
1002
}
1002
}
1000
TIT3
1070
     9
1000
RAHM3
1002
{
1000
Class
1070
     4
1000
SPZ,SYM
1002
{
1002
}
1000
Color
1070
     1
1070
   256
1002
{
1002
}
1000
LType
1070
     4
1000
BYLAYER
1002
{
1002
}
1002
}
1000
TIT5
1070
     9
1000
RAHM5
1002
{
1000
Class
1070
     4
1000
SPZ,SYM
1002
{
1002
}
1000
Color
1070
     1
1070
   256
1002
{
1002
}
1000
LType
1070
     4
1000
BYLAYER
1002
{
1002
}
1002
}
1000
TIT7
1070
     9
1000
RAHM5
1002
{
1000
Class
1070
     4
1000
SPZ,SYM
1002
{
1002
}
1000
Color
1070
     1
1070
     7
1002
{
1002
}
1000
LType
1070
     4
1000
CONTINUOUS
1002
{
1002
}
1002
}
1000
TLEN
1070
     9
1000
0
1002
{
1000
Class
1070
     4
1000
CON,BGD
1002
{
1002
}
1000
Color
1070
     1
1070
   256
1002
{
1002
}
1000
LType
1070
     4
1000
BYLAYER
1002
{
1002
}
1002
}
1000
TRKN
1070
     9
1000
7A
1002
{
1000
Class
1070
     4
1000

1002
{
1002
}
1000
Color
1070
     1
1070
   256
1002
{
1002
}
1000
LType
1070
     4
1000
BYLAYER
1002
{
1002
}
1002
}
1000
TRKW
1070
     9
1000
7
1002
{
1000
Class
1070
     4
1000

1002
{
1002
}
1000
Color
1070
     1
1070
   256
1002
{
1002
}
1000
LType
1070
     4
1000
BYLAYER
1002
{
1002
}
1002
}
1000
TRLI
1070
     9
1000
4
1002
{
1000
Class
1070
     4
1000
BGD
1002
{
1002
}
1000
Color
1070
     1
1070
   256
1002
{
1002
}
1000
LType
1070
     4
1000
BYLAYER
1002
{
1002
}
1002
}
1000
TXT1
1070
     9
1000
6
1002
{
1000
Class
1070
     4
1000
SYM
1002
{
1002
}
1000
Color
1070
     1
1070
     2
1002
{
1002
}
1000
LType
1070
     4
1000
BYLAYER
1002
{
1002
}
1002
}
1000
TXT2
1070
     9
1000
6
1002
{
1000
Class
1070
     4
1000
SYM
1002
{
1002
}
1000
Color
1070
     1
1070
     2
1002
{
1002
}
1000
LType
1070
     4
1000
BYLAYER
1002
{
1002
}
1002
}
1000
TXT3
1070
     9
1000
6
1002
{
1000
Class
1070
     4
1000
SYM
1002
{
1002
}
1000
Color
1070
     1
1070
   256
1002
{
1002
}
1000
LType
1070
     4
1000
BYLAYER
1002
{
1002
}
1002
}
1000
TXT5
1070
     9
1000
6
1002
{
1000
Class
1070
     4
1000
SYM
1002
{
1002
}
1000
Color
1070
     1
1070
     7
1002
{
1002
}
1000
LType
1070
     4
1000
BYLAYER
1002
{
1002
}
1002
}
1000
TXT7
1070
     9
1000
6
1002
{
1000
Class
1070
     4
1000
SYM
1002
{
1002
}
1000
Color
1070
     1
1070
     7
1002
{
1002
}
1000
LType
1070
     4
1000
BYLAYER
1002
{
1002
}
1002
}
1000
VIEW
1070
     9
1000
VIEW
1002
{
1000
Class
1070
     4
1000
SPZ
1002
{
1002
}
1000
Color
1070
     1
1070
   256
1002
{
1002
}
1000
LType
1070
     4
1000
BYLAYER
1002
{
1002
}
1002
}
1000
VPLI
1070
     9
1000
2A
1002
{
1000
Class
1070
     4
1000

1002
{
1002
}
1000
Color
1070
     1
1070
   256
1002
{
1002
}
1000
LType
1070
     4
1000
BYLAYER
1002
{
1002
}
1002
}
1000
ZIZA
1070
     9
1000
4
1002
{
1000
Class
1070
     4
1000
BGD
1002
{
1002
}
1000
Color
1070
     1
1070
   256
1002
{
1002
}
1000
LType
1070
     4
1000
GENZIGZAG
1002
{
1002
}
1002
}
  0
APPID
  5
1E6
330
9
100
AcDbSymbolTableRecord
100
AcDbRegAppTableRecord
  2
GENIUS_GENCFG3_13
 70
     0
1001
GENIUS_GENCFG_13
1071
919852330
1000
408
1000
GEN@OSWIZ
1070
    12
1000
GenCfgObject
1000
GenCfgShort
1000
GenCfgReal
1000
GenCfgBool
1000
GenCfgString
1000
GenCfgDim
1000
GenCfgAttrInf
1000
GenCfgLaySection
1000
GenCfgLayer
1000
GenCfgEntSort
1000
GenCfgLType
1000
GenCfgFilter
1000
Filter
1070
     0
1002
{
1000
HATCH
1070
    11
1002
{
1000
EntityType
1070
     4
1000
LINE
1002
{
1002
}
1000
Layer
1070
     4
1000
8,8N,*-8,*-8N
1002
{
1002
}
1000
Linetype
1070
     4
1000
*
1002
{
1002
}
1000
Color
1070
     4
1000
*
1002
{
1002
}
1000
ApplyInDims
1070
     3
1070
     1
1002
{
1002
}
1002
}
1000
SYMBOLS
1070
    11
1002
{
1000
EntityType
1070
     4
1000
*
1002
{
1002
}
1000
Layer
1070
     4
1000
[5-6],[5-6]N,*-[5-6],*-[5-6]N
1002
{
1002
}
1000
Linetype
1070
     4
1000
*
1002
{
1002
}
1000
Color
1070
     4
1000
*
1002
{
1002
}
1000
ApplyInDims
1070
     3
1070
     1
1002
{
1002
}
1002
}
1000
FEM
1070
    11
1002
{
1000
EntityType
1070
     4
1000
*
1002
{
1002
}
1000
Layer
1070
     4
1000
4A,4AN,*-4A,*-4AN
1002
{
1002
}
1000
Linetype
1070
     4
1000
*
1002
{
1002
}
1000
Color
1070
     4
1000
*
1002
{
1002
}
1000
ApplyInDims
1070
     3
1070
     1
1002
{
1002
}
1002
}
1002
}
  0
APPID
  5
1E7
330
9
100
AcDbSymbolTableRecord
100
AcDbRegAppTableRecord
  2
GENIUS_GENCFG4_13
 70
     0
1001
GENIUS_GENCFG_13
1071
919852469
1000
409
1000
GEN
1070
     8
1000
GenCfgObject
1000
GenCfgShort
1000
GenCfgReal
1000
GenCfgBool
1000
GenCfgString
1000
GenCfgDim
1000
GenCfgLaySection
1000
GenCfgLType
1000
Balloon
1070
     0
1002
{
1000
GenIF
1070
     1
1070
     0
1002
{
1002
}
1000
GenPosInc
1070
     1
1070
     1
1002
{
1002
}
1000
GenPosBlk
1070
     1
1070
     8
1002
{
1002
}
1000
GenPosVar
1070
     1
1070
     0
1002
{
1002
}
1000
GenZiCir
1070
     2
1040
1.5
1002
{
1002
}
1000
MaxCharForCenteredText
1070
     1
1070
    30
1002
{
1002
}
1000
Snap
1070
     0
1002
{
1000
ActivationRadius
1070
     2
1040
1.0
1002
{
1002
}
1000
M
1070
     0
1002
{
1000
SnapStepX
1070
     2
1040
20.0
1002
{
1002
}
1000
SnapStepY
1070
     2
1040
10.0
1002
{
1002
}
1002
}
1000
I
1070
     0
1002
{
1000
SnapStepX
1070
     2
1040
1.0
1002
{
1002
}
1000
SnapStepY
1070
     2
1040
0.5
1002
{
1002
}
1002
}
1002
}
1002
}
1000
Centerline
1070
     0
1002
{
1000
ScaleNot
1070
     3
1070
     0
1002
{
1002
}
1000
M
1070
     0
1002
{
1000
GenCenAng
1070
     4
1000
45|90|135
1002
{
1002
}
1000
GenCenDia
1070
     2
1040
10.0
1002
{
1002
}
1000
GenCenDias
1070
     4
1000
10|20|30
1002
{
1002
}
1000
GenCenDist
1070
     2
1040
3.0
1002
{
1002
}
1000
GenCenLen
1070
     2
1040
10.0
1002
{
1002
}
1000
GenCenOff
1070
     2
1040
10.0
1002
{
1002
}
1002
}
1000
I
1070
     0
1002
{
1000
GenCenAng
1070
     4
1000
45|90|135
1002
{
1002
}
1000
GenCenDia
1070
     2
1040
0.5
1002
{
1002
}
1000
GenCenDias
1070
     4
1000
0.5|1.0|1.5
1002
{
1002
}
1000
GenCenDist
1070
     2
1040
0.125
1002
{
1002
}
1000
GenCenLen
1070
     2
1040
0.5
1002
{
1002
}
1000
GenCenOff
1070
     2
1040
0.5
1002
{
1002
}
1002
}
1002
}
1000
CLine
1070
     0
1002
{
1000
CAngArray
1070
     4
1000
30|45|60
1002
{
1002
}
1000
Typ
1070
     4
1000
XLINE
1002
{
1002
}
1000
M
1070
     0
1002
{
1000
CLinArray
1070
     4
1000
10|20|30
1002
{
1002
}
1002
}
1000
I
1070
     0
1002
{
1000
CLinArray
1070
     4
1000
0.125|0.25|0.5
1002
{
1002
}
1002
}
1002
}
1000
Detail
1070
     0
1002
{
1002
}
1000
Dimension
1070
     5
1002
{
1000
DIMALT
1070
     1
1070
     0
1002
{
1002
}
1000
DIMALTD
1070
     1
1070
     2
1002
{
1002
}
1000
DIMALTTD
1070
     1
1070
     4
1002
{
1002
}
1000
DIMALTTZ
1070
     1
1070
     0
1002
{
1002
}
1000
DIMALTU
1070
     1
1070
     2
1002
{
1002
}
1000
DIMALTZ
1070
     1
1070
     0
1002
{
1002
}
1000
DIMAUNIT
1070
     1
1070
     0
1002
{
1002
}
1000
DIMBLK
1070
     4
1000

1002
{
1002
}
1000
DIMBLK1
1070
     4
1000

1002
{
1002
}
1000
DIMBLK2
1070
     4
1000

1002
{
1002
}
1000
DIMCLRD
1070
     1
1070
   256
1002
{
1002
}
1000
DIMCLRE
1070
     1
1070
   256
1002
{
1002
}
1000
DIMCLRT
1070
     1
1070
     1
1002
{
1002
}
1000
DIMDLE
1070
     2
1040
0.0
1002
{
1002
}
1000
DIMFIT
1070
     1
1070
     3
1002
{
1002
}
1000
DIMJUST
1070
     1
1070
     0
1002
{
1002
}
1000
DIMLFAC
1070
     2
1040
1.0
1002
{
1002
}
1000
DIMLIM
1070
     1
1070
     0
1002
{
1002
}
1000
DIMPOST
1070
     4
1000

1002
{
1002
}
1000
DIMRND
1070
     2
1040
0.0
1002
{
1002
}
1000
DIMSAH
1070
     1
1070
     0
1002
{
1002
}
1000
DIMSCALE
1070
     2
1040
1.0
1002
{
1002
}
1000
DIMSD1
1070
     1
1070
     0
1002
{
1002
}
1000
DIMSD2
1070
     1
1070
     0
1002
{
1002
}
1000
DIMSE1
1070
     1
1070
     0
1002
{
1002
}
1000
DIMSE2
1070
     1
1070
     0
1002
{
1002
}
1000
DIMSOXD
1070
     1
1070
     0
1002
{
1002
}
1000
DIMTAD
1070
     1
1070
     2
1002
{
1002
}
1000
DIMTFAC
1070
     2
1040
0.71
1002
{
1002
}
1000
DIMTIH
1070
     1
1070
     0
1002
{
1002
}
1000
DIMTIX
1070
     1
1070
     0
1002
{
1002
}
1000
DIMTM
1070
     2
1040
0.1
1002
{
1002
}
1000
DIMTOFL
1070
     1
1070
     0
1002
{
1002
}
1000
DIMTOH
1070
     1
1070
     0
1002
{
1002
}
1000
DIMTOL
1070
     1
1070
     0
1002
{
1002
}
1000
DIMTOLJ
1070
     1
1070
     1
1002
{
1002
}
1000
DIMTP
1070
     2
1040
0.1
1002
{
1002
}
1000
DIMTSZ
1070
     2
1040
0.0
1002
{
1002
}
1000
DIMTVP
1070
     2
1040
0.0
1002
{
1002
}
1000
DIMTXSTY
1070
     4
1000
STANDARD
1002
{
1002
}
1000
DIMTZIN
1070
     1
1070
     0
1002
{
1002
}
1000
DIMUNIT
1070
     1
1070
     2
1002
{
1002
}
1000
DIMUPT
1070
     1
1070
     0
1002
{
1002
}
1000
M
1070
     0
1002
{
1000
DIMALTF
1070
     2
1040
0.0393701
1002
{
1002
}
1000
DIMAPOST
1070
     4
1000
<>
1002
{
1002
}
1000
DIMASZ
1070
     2
1040
2.5
1002
{
1002
}
1000
DIMCEN
1070
     2
1040
0.0
1002
{
1002
}
1000
DIMDEC
1070
     1
1070
     2
1002
{
1002
}
1000
DIMDLI
1070
     2
1040
0.0
1002
{
1002
}
1000
DIMEXE
1070
     2
1040
1.0
1002
{
1002
}
1000
DIMEXO
1070
     2
1040
1.0
1002
{
1002
}
1000
DIMGAP
1070
     2
1040
1.5
1002
{
1002
}
1000
DIMTDEC
1070
     1
1070
     3
1002
{
1002
}
1000
DIMTXT
1070
     2
1040
3.5
1002
{
1002
}
1000
DIMZIN
1070
     1
1070
     8
1002
{
1002
}
1002
}
1000
I
1070
     0
1002
{
1000
DIMALTF
1070
     2
1040
25.4
1002
{
1002
}
1000
DIMAPOST
1070
     4
1000
mm
1002
{
1002
}
1000
DIMASZ
1070
     2
1040
0.1
1002
{
1002
}
1000
DIMCEN
1070
     2
1040
0.0
1002
{
1002
}
1000
DIMDEC
1070
     1
1070
     4
1002
{
1002
}
1000
DIMDLI
1070
     2
1040
0.5
1002
{
1002
}
1000
DIMEXE
1070
     2
1040
0.1
1002
{
1002
}
1000
DIMEXO
1070
     2
1040
0.05
1002
{
1002
}
1000
DIMGAP
1070
     2
1040
0.06
1002
{
1002
}
1000
DIMTDEC
1070
     1
1070
     4
1002
{
1002
}
1000
DIMTXT
1070
     2
1040
0.12
1002
{
1002
}
1000
DIMZIN
1070
     1
1070
     7
1002
{
1002
}
1002
}
1000
GEN-ISO
1070
     5
1002
{
1000
NAME
1070
     4
1000
GEN-ISO
1002
{
1002
}
1000
DIMTAD
1070
     1
1070
     1
1002
{
1002
}
1000
DIMTOLJ
1070
     1
1070
     0
1002
{
1002
}
1000
DIMTOFL
1070
     1
1070
     1
1002
{
1002
}
1000
M
1070
     0
1002
{
1002
}
1000
I
1070
     0
1002
{
1002
}
1000
DIMPOST
1070
     4
1000
<>
1002
{
1002
}
1002
}
1000
GEN-ISO-POS
1070
     5
1002
{
1000
NAME
1070
     4
1000
GEN-ISO-POS
1002
{
1002
}
1000
DIMTOLJ
1070
     1
1070
     0
1002
{
1002
}
1000
DIMTXSTY
1070
     4
1000
STANDARD
1002
{
1002
}
1000
M
1070
     0
1002
{
1000
DIMASZ
1070
     2
1040
2.5
1002
{
1002
}
1000
DIMGAP
1070
     2
1040
1.5
1002
{
1002
}
1000
DIMTXT
1070
     2
1040
5.0
1002
{
1002
}
1002
}
1000
I
1070
     0
1002
{
1000
DIMASZ
1070
     2
1040
0.1
1002
{
1002
}
1000
DIMGAP
1070
     2
1040
0.06
1002
{
1002
}
1000
DIMTXT
1070
     2
1040
0.2
1002
{
1002
}
1002
}
1002
}
1000
GEN-ISO-CIR
1070
     5
1002
{
1000
NAME
1070
     4
1000
GEN-ISO$3
1002
{
1002
}
1000
DIMFIT
1070
     1
1070
     0
1002
{
1002
}
1000
DIMTAD
1070
     1
1070
     1
1002
{
1002
}
1000
DIMTIH
1070
     1
1070
     0
1002
{
1002
}
1000
DIMTIX
1070
     1
1070
     0
1002
{
1002
}
1000
DIMTOH
1070
     1
1070
     1
1002
{
1002
}
1000
DIMTOLJ
1070
     1
1070
     0
1002
{
1002
}
1000
DIMTOFL
1070
     1
1070
     0
1002
{
1002
}
1000
DIMUPT
1070
     1
1070
     1
1002
{
1002
}
1000
M
1070
     0
1002
{
1002
}
1000
I
1070
     0
1002
{
1002
}
1002
}
1000
GEN-ISO-RAD
1070
     5
1002
{
1000
NAME
1070
     4
1000
GEN-ISO$4
1002
{
1002
}
1000
DIMFIT
1070
     1
1070
     0
1002
{
1002
}
1000
DIMTAD
1070
     1
1070
     1
1002
{
1002
}
1000
DIMTIH
1070
     1
1070
     0
1002
{
1002
}
1000
DIMTIX
1070
     1
1070
     0
1002
{
1002
}
1000
DIMTOH
1070
     1
1070
     1
1002
{
1002
}
1000
DIMTOLJ
1070
     1
1070
     0
1002
{
1002
}
1000
DIMTOFL
1070
     1
1070
     0
1002
{
1002
}
1000
DIMUPT
1070
     1
1070
     1
1002
{
1002
}
1000
M
1070
     0
1002
{
1002
}
1000
I
1070
     0
1002
{
1002
}
1002
}
1000
GEN-ISO-ORD
1070
     5
1002
{
1000
NAME
1070
     4
1000
GEN-ISO$6
1002
{
1002
}
1000
DIMTOLJ
1070
     1
1070
     0
1002
{
1002
}
1000
M
1070
     0
1002
{
1002
}
1000
I
1070
     0
1002
{
1002
}
1002
}
1000
GEN-ISO-AXE-F
1070
     5
1002
{
1000
NAME
1070
     4
1000
GEN-ISO-AXE-F
1002
{
1002
}
1000
DIMSE1
1070
     1
1070
     1
1002
{
1002
}
1000
DIMSE2
1070
     1
1070
     1
1002
{
1002
}
1000
DIMTAD
1070
     1
1070
     1
1002
{
1002
}
1000
DIMTOLJ
1070
     1
1070
     0
1002
{
1002
}
1000
DIMTOFL
1070
     1
1070
     1
1002
{
1002
}
1000
M
1070
     0
1002
{
1002
}
1000
I
1070
     0
1002
{
1002
}
1002
}
1000
GEN-ISO-AXE-H
1070
     5
1002
{
1000
DIMBLK1
1070
     4
1000
GENAXEH
1002
{
1002
}
1000
DIMLFAC
1070
     2
1040
2.0
1002
{
1002
}
1000
DIMSAH
1070
     1
1070
     1
1002
{
1002
}
1000
DIMSE1
1070
     1
1070
     1
1002
{
1002
}
1000
DIMSE2
1070
     1
1070
     1
1002
{
1002
}
1000
DIMTAD
1070
     1
1070
     1
1002
{
1002
}
1000
DIMTOLJ
1070
     1
1070
     0
1002
{
1002
}
1000
DIMTOFL
1070
     1
1070
     1
1002
{
1002
}
1000
M
1070
     0
1002
{
1002
}
1000
I
1070
     0
1002
{
1002
}
1002
}
1000
GEN-ANSI
1070
     5
1002
{
1000
NAME
1070
     4
1000
GEN-ANSI
1002
{
1002
}
1000
DIMTIH
1070
     1
1070
     1
1002
{
1002
}
1000
DIMTOH
1070
     1
1070
     1
1002
{
1002
}
1000
DIMTAD
1070
     1
1070
     0
1002
{
1002
}
1000
DIMTOLJ
1070
     1
1070
     1
1002
{
1002
}
1000
M
1070
     0
1002
{
1002
}
1000
I
1070
     0
1002
{
1002
}
1002
}
1000
GEN-ANSI-POS
1070
     5
1002
{
1000
NAME
1070
     4
1000
GEN-ANSI-POS
1002
{
1002
}
1000
DIMTOLJ
1070
     1
1070
     1
1002
{
1002
}
1000
DIMTXSTY
1070
     4
1000
STANDARD
1002
{
1002
}
1000
M
1070
     0
1002
{
1000
DIMASZ
1070
     2
1040
2.5
1002
{
1002
}
1000
DIMGAP
1070
     2
1040
1.5
1002
{
1002
}
1000
DIMTXT
1070
     2
1040
5.0
1002
{
1002
}
1002
}
1000
I
1070
     0
1002
{
1000
DIMASZ
1070
     2
1040
0.1
1002
{
1002
}
1000
DIMGAP
1070
     2
1040
0.06
1002
{
1002
}
1000
DIMTXT
1070
     2
1040
0.2
1002
{
1002
}
1002
}
1002
}
1000
GEN-ANSI-CIR
1070
     5
1002
{
1000
NAME
1070
     4
1000
GEN-ANSI$3
1002
{
1002
}
1000
DIMFIT
1070
     1
1070
     0
1002
{
1002
}
1000
DIMTAD
1070
     1
1070
     0
1002
{
1002
}
1000
DIMTIH
1070
     1
1070
     1
1002
{
1002
}
1000
DIMTIX
1070
     1
1070
     0
1002
{
1002
}
1000
DIMTOFL
1070
     1
1070
     0
1002
{
1002
}
1000
DIMTOH
1070
     1
1070
     1
1002
{
1002
}
1000
DIMTOLJ
1070
     1
1070
     1
1002
{
1002
}
1000
DIMUPT
1070
     1
1070
     1
1002
{
1002
}
1000
M
1070
     0
1002
{
1002
}
1000
I
1070
     0
1002
{
1002
}
1002
}
1000
GEN-ANSI-RAD
1070
     5
1002
{
1000
NAME
1070
     4
1000
GEN-ANSI$4
1002
{
1002
}
1000
DIMFIT
1070
     1
1070
     0
1002
{
1002
}
1000
DIMTAD
1070
     1
1070
     0
1002
{
1002
}
1000
DIMTIH
1070
     1
1070
     1
1002
{
1002
}
1000
DIMTIX
1070
     1
1070
     0
1002
{
1002
}
1000
DIMTOFL
1070
     1
1070
     0
1002
{
1002
}
1000
DIMTOH
1070
     1
1070
     1
1002
{
1002
}
1000
DIMTOLJ
1070
     1
1070
     1
1002
{
1002
}
1000
DIMUPT
1070
     1
1070
     1
1002
{
1002
}
1000
M
1070
     0
1002
{
1002
}
1000
I
1070
     0
1002
{
1002
}
1002
}
1000
GEN-ANSI-ORD
1070
     5
1002
{
1000
NAME
1070
     4
1000
GEN-ANSI$6
1002
{
1002
}
1000
DIMTAD
1070
     1
1070
     0
1002
{
1002
}
1000
DIMTIH
1070
     1
1070
     1
1002
{
1002
}
1000
DIMTOH
1070
     1
1070
     1
1002
{
1002
}
1000
DIMTOLJ
1070
     1
1070
     1
1002
{
1002
}
1000
M
1070
     0
1002
{
1002
}
1000
I
1070
     0
1002
{
1002
}
1002
}
1000
GEN-ANSI-AXE-F
1070
     5
1002
{
1000
NAME
1070
     4
1000
GEN-ANSI-AXE-F
1002
{
1002
}
1000
DIMBLK1
1070
     4
1000
GENAXEH
1002
{
1002
}
1000
DIMSAH
1070
     1
1070
     1
1002
{
1002
}
1000
DIMSE1
1070
     1
1070
     1
1002
{
1002
}
1000
DIMSE2
1070
     1
1070
     1
1002
{
1002
}
1000
DIMTAD
1070
     1
1070
     0
1002
{
1002
}
1000
DIMTIH
1070
     1
1070
     1
1002
{
1002
}
1000
DIMTOH
1070
     1
1070
     1
1002
{
1002
}
1000
DIMTOLJ
1070
     1
1070
     1
1002
{
1002
}
1000
M
1070
     0
1002
{
1002
}
1000
I
1070
     0
1002
{
1002
}
1002
}
1000
GEN-ANSI-AXE-H
1070
     5
1002
{
1000
NAME
1070
     4
1000
GEN-ANSI-AXE-H
1002
{
1002
}
1000
DIMBLK1
1070
     4
1000
GENAXEH
1002
{
1002
}
1000
DIMLFAC
1070
     2
1040
2.0
1002
{
1002
}
1000
DIMSAH
1070
     1
1070
     1
1002
{
1002
}
1000
DIMSE1
1070
     1
1070
     1
1002
{
1002
}
1000
DIMSE2
1070
     1
1070
     1
1002
{
1002
}
1000
DIMTAD
1070
     1
1070
     0
1002
{
1002
}
1000
DIMTOFL
1070
     1
1070
     1
1002
{
1002
}
1000
DIMTOLJ
1070
     1
1070
     1
1002
{
1002
}
1000
M
1070
     0
1002
{
1002
}
1000
I
1070
     0
1002
{
1002
}
1002
}
1000
DIMAPOST
1070
     4
1000

1002
{
1002
}
1002
}
1000
DimSet
1070
     0
1002
{
1000
ChainSum
1070
     3
1070
     0
1002
{
1002
}
1000
DimDclTyp0
1070
     4
1000
dim11
1002
{
1002
}
1000
HorBra
1070
     3
1070
     0
1002
{
1002
}
1000
StrDia
1070
     4
1000
%%c<>
1002
{
1002
}
1000
StrRad
1070
     4
1000
R<>
1002
{
1002
}
1000
TextMinus
1070
     4
1000
<>
1002
{
1002
}
1000
TextPlus
1070
     4
1000
<>
1002
{
1002
}
1000
M
1070
     0
1002
{
1000
DimdliFirst
1070
     2
1040
12.0
1002
{
1002
}
1000
PointMakeDist
1070
     2
1040
10.0
1002
{
1002
}
1002
}
1000
I
1070
     0
1002
{
1000
DimdliFirst
1070
     2
1040
0.5
1002
{
1002
}
1000
PointMakeDist
1070
     2
1040
0.5
1002
{
1002
}
1002
}
1002
}
1000
Drawing
1070
     0
1002
{
1000
ChamferDimMode
1070
     1
1070
     2
1002
{
1002
}
1000
Gen_Fiso
1070
    -3
1040
1.0
1002
{
1002
}
1000
GenDimStil
1070
     4
1000
ISO
1002
{
1002
}
1000
GenDwgUScale
1070
     2
1040
1.0
1002
{
1002
}
1000
GenInch
1070
     4
1000
M
1002
{
1002
}
1000
GenPlotScale
1070
     4
1000
1:1
1002
{
1002
}
1000
Revisi
1070
     4
1000
0
1002
{
1002
}
1000
Version
1070
    -5
1000
14.01/May 26 1998
1002
{
1002
}
1000
Platform
1070
    -5
1000
WINNT
1002
{
1002
}
1002
}
1000
DwgVar
1070
     0
1002
{
1000
M
1070
     0
1002
{
1002
}
1000
I
1070
     0
1002
{
1002
}
1002
}
1000
Hatch
1070
     0
1002
{
1000
GenHtcFlag
1070
     3
1070
     0
1002
{
1002
}
1002
}
1000
Info_Pos
1070
     0
1002
{
1000
>
1002
}
1000
Layer
1070
     6
1002
{
1000
Defs
1070
     0
1002
{
1000
>
1002
}
1000
EntSort
1070
     0
1002
{
1000
>
1002
}
1000
Match
1070
     0
1002
{
1002
}
1000
Settings
1070
     0
1002
{
1000
FocGrNC
1070
     3
1070
     0
1002
{
1002
}
1000
FocGrLo
1070
     3
1070
     0
1002
{
1002
}
1000
FocLoNC
1070
     3
1070
     0
1002
{
1002
}
1000
FocusCol
1070
     1
1070
   253
1002
{
1002
}
1000
GenStdLG
1070
     4
1000

1002
{
1002
}
1000
LayMatch
1070
     3
1070
     0
1002
{
1002
}
1000
LgOff
1070
     3
1070
     0
1002
{
1002
}
1000
CurLG
1070
    -5
1000

1002
{
1002
}
1002
}
1002
}
1000
LType
1070
     0
1002
{
1000
GEN3
1070
     7
1000
genius.lin
1002
{
1002
}
1000
GEN7
1070
     7
1000
genius.lin
1002
{
1002
}
1000
GEN4A
1070
     7
1000
genius.lin
1002
{
1002
}
1000
GEN3A
1070
     7
1000
genius.lin
1002
{
1002
}
1000
GEN7A
1070
     7
1000
genius.lin
1002
{
1002
}
1000
GENZIGZAG
1070
     7
1000
genius.lin
1002
{
1002
}
1002
}
1000
Objecter
1070
     0
1002
{
1000
CreateGroups
1070
     3
1070
     0
1002
{
1002
}
1000
LaySwitch
1070
     3
1070
     1
1002
{
1002
}
1000
LastObj
1070
    -5
1000
0
1002
{
1002
}
1000
TimeStamp
1070
    -5
1000
19990224.12320750
1002
{
1002
}
1002
}
1000
OSWiz
1070
     0
1002
{
1000
>
1002
}
1000
PaList
1070
     0
1002
{
1000
AutoUpdatePartList
1070
     1
1070
     0
1002
{
1002
}
1000
ReadInfoPoint
1070
     3
1070
     0
1002
{
1002
}
1000
ReadPosNr
1070
     3
1070
     1
1002
{
1002
}
1000
RevStr
1070
     4
1000
0
1002
{
1002
}
1002
}
1000
Paper
1070
     0
1002
{
1002
}
1000
PartDB
1070
     0
1002
{
1000
GenDbOwner
1070
     4
1000

1002
{
1002
}
1002
}
1000
System
1070
     0
1002
{
1000
Menu
1070
     4
1000
GEV
1002
{
1002
}
1002
}
1000
Title
1070
     0
1002
{
1000
MakeView
1070
     1
1070
     2
1002
{
1002
}
1002
}
1000
Tools
1070
     0
1002
{
1000
Trans
1070
     0
1002
{
1000
Drawingtranslation
1070
    -4
1070
     1
1002
{
1002
}
1000
upreserve
1070
     3
1070
     0
1002
{
1002
}
1000
originally_on
1070
    -4
1070
     0
1002
{
1002
}
1000
sourcelang
1070
    -5
1000
GB
1002
{
1002
}
1002
}
1002
}
  0
APPID
  5
1E8
330
9
100
AcDbSymbolTableRecord
100
AcDbRegAppTableRecord
  2
MCAD_NO_VIS
 70
     0
  0
APPID
  5
1E9
330
9
100
AcDbSymbolTableRecord
100
AcDbRegAppTableRecord
  2
AD_DRAW
 70
     0
  0
APPID
  5
1EA
330
9
100
AcDbSymbolTableRecord
100
AcDbRegAppTableRecord
  2
DESIGNERASSEMBLIES
 70
     0
  0
APPID
  5
1EB
330
9
100
AcDbSymbolTableRecord
100
AcDbRegAppTableRecord
  2
ASURF_PCURVE_APPNAME
 70
     0
  0
APPID
  5
1EC
330
9
100
AcDbSymbolTableRecord
100
AcDbRegAppTableRecord
  2
GENIUS_GE3CFG0_13
 70
     0
1001
GENIUS_GENCFG_13
1071
919852330
1000
4CB
1000
GE3
1070
     2
1000
GenCfgObject
1000
GenCfgShort
1000
Dimension
1070
     0
1002
{
1000
RefDimEnhance
1070
     1
1070
     1
1002
{
1002
}
1000
RefDim
1070
     0
1002
{
1000
DIMCLRD
1070
     1
1070
     4
1002
{
1002
}
1002
}
1002
}
1000
Drawing
1070
     0
1002
{
1000
MSpace3D
1070
     1
1070
     1
1002
{
1002
}
1000
UpdateList
1070
     1
1070
     1
1002
{
1002
}
1002
}
1000
Shaft
1070
     0
1002
{
1002
}
1000
View
1070
     0
1002
{
1002
}
  0
APPID
  5
1ED
330
9
100
AcDbSymbolTableRecord
100
AcDbRegAppTableRecord
  2
GENIUS_GENCFG5_13
 70
     0
1001
GENIUS_GENCFG_13
1071
919852330
1000
4CC
1000
GEN@INFO_POS
1070
     7
1000
GenCfgObject
1000
GenCfgShort
1000
GenCfgReal
1000
GenCfgBool
1000
GenCfgString
1000
GenCfgDim
1000
GenCfgAttrInf
1000
DescrText
1070
     4
1000
5,6,7,8
1002
{
1002
}
1000
DescrText2
1070
     4
1000
26
1002
{
1002
}
1000
VisibleAttr1
1070
     4
1000
1
1002
{
1002
}
1000
VisibleAttr2
1070
     4
1000
26
1002
{
1002
}
1000
UpdateBlock
1070
     3
1070
     1
1002
{
1002
}
1000
Attrib
1070
     0
1002
{
1000
0
1070
     6
1002
{
1000
Prompt
1070
     4
1000
(genmsg gendwg 103)
1002
{
1002
}
1000
Value
1070
     4
1000

1002
{
1002
}
1000
EditFlag
1070
     1
1070
     0
1002
{
1002
}
1000
PosInDDATTE
1070
     1
1070
    27
1002
{
1002
}
1000
FieldLen
1070
     1
1070
    -1
1002
{
1002
}
1002
}
1000
1
1070
     6
1002
{
1000
Prompt
1070
     4
1000
(genmsg gendwg 31)
1002
{
1002
}
1000
Value
1070
     4
1000
1
1002
{
1002
}
1000
EditFlag
1070
     1
1070
     1
1002
{
1002
}
1000
PosInDDATTE
1070
     1
1070
     1
1002
{
1002
}
1000
FieldLen
1070
     1
1070
    -1
1002
{
1002
}
1002
}
1000
2
1070
     6
1002
{
1000
Prompt
1070
     4
1000
(genmsg gendwg 32)
1002
{
1002
}
1000
Value
1070
     4
1000
1
1002
{
1002
}
1000
EditFlag
1070
     1
1070
     1
1002
{
1002
}
1000
PosInDDATTE
1070
     1
1070
     2
1002
{
1002
}
1000
FieldLen
1070
     1
1070
    -1
1002
{
1002
}
1002
}
1000
3
1070
     6
1002
{
1000
Prompt
1070
     4
1000
(genmsg gendwg 33)
1002
{
1002
}
1000
Value
1070
     4
1000

1002
{
1002
}
1000
EditFlag
1070
     1
1070
     1
1002
{
1002
}
1000
PosInDDATTE
1070
     1
1070
     3
1002
{
1002
}
1000
FieldLen
1070
     1
1070
    -1
1002
{
1002
}
1002
}
1000
4
1070
     6
1002
{
1000
Prompt
1070
     4
1000
(genmsg gendwg 34)
1002
{
1002
}
1000
Value
1070
     4
1000

1002
{
1002
}
1000
EditFlag
1070
     1
1070
     1
1002
{
1002
}
1000
PosInDDATTE
1070
     1
1070
     4
1002
{
1002
}
1000
FieldLen
1070
     1
1070
    -1
1002
{
1002
}
1002
}
1000
5
1070
     6
1002
{
1000
Prompt
1070
     4
1000
(genmsg gendwg 35)
1002
{
1002
}
1000
Value
1070
     4
1000

1002
{
1002
}
1000
EditFlag
1070
     1
1070
     1
1002
{
1002
}
1000
PosInDDATTE
1070
     1
1070
     5
1002
{
1002
}
1000
FieldLen
1070
     1
1070
    -1
1002
{
1002
}
1002
}
1000
6
1070
     6
1002
{
1000
Prompt
1070
     4
1000
(genmsg gendwg 36)
1002
{
1002
}
1000
Value
1070
     4
1000

1002
{
1002
}
1000
EditFlag
1070
     1
1070
     1
1002
{
1002
}
1000
PosInDDATTE
1070
     1
1070
     6
1002
{
1002
}
1000
FieldLen
1070
     1
1070
    -1
1002
{
1002
}
1002
}
1000
7
1070
     6
1002
{
1000
Prompt
1070
     4
1000
(genmsg gendwg 37)
1002
{
1002
}
1000
Value
1070
     4
1000

1002
{
1002
}
1000
EditFlag
1070
     1
1070
     1
1002
{
1002
}
1000
PosInDDATTE
1070
     1
1070
     7
1002
{
1002
}
1000
FieldLen
1070
     1
1070
    -1
1002
{
1002
}
1002
}
1000
8
1070
     6
1002
{
1000
Prompt
1070
     4
1000
(genmsg gendwg 38)
1002
{
1002
}
1000
Value
1070
     4
1000

1002
{
1002
}
1000
EditFlag
1070
     1
1070
     1
1002
{
1002
}
1000
PosInDDATTE
1070
     1
1070
     8
1002
{
1002
}
1000
FieldLen
1070
     1
1070
    -1
1002
{
1002
}
1002
}
1000
9
1070
     6
1002
{
1000
Prompt
1070
     4
1000
(genmsg gendwg 39)
1002
{
1002
}
1000
Value
1070
     4
1000

1002
{
1002
}
1000
EditFlag
1070
     1
1070
     1
1002
{
1002
}
1000
PosInDDATTE
1070
     1
1070
     9
1002
{
1002
}
1000
FieldLen
1070
     1
1070
    -1
1002
{
1002
}
1002
}
1000
10
1070
     6
1002
{
1000
Prompt
1070
     4
1000
(genmsg gendwg 40)
1002
{
1002
}
1000
Value
1070
     4
1000

1002
{
1002
}
1000
EditFlag
1070
     1
1070
     1
1002
{
1002
}
1000
PosInDDATTE
1070
     1
1070
    10
1002
{
1002
}
1000
FieldLen
1070
     1
1070
    -1
1002
{
1002
}
1002
}
1000
11
1070
     6
1002
{
1000
Prompt
1070
     4
1000
(genmsg gendwg 41)
1002
{
1002
}
1000
Value
1070
     4
1000

1002
{
1002
}
1000
EditFlag
1070
     1
1070
     1
1002
{
1002
}
1000
PosInDDATTE
1070
     1
1070
    11
1002
{
1002
}
1000
FieldLen
1070
     1
1070
    -1
1002
{
1002
}
1002
}
1000
12
1070
     6
1002
{
1000
Prompt
1070
     4
1000
(genmsg gendwg 42)
1002
{
1002
}
1000
Value
1070
     4
1000

1002
{
1002
}
1000
EditFlag
1070
     1
1070
     1
1002
{
1002
}
1000
PosInDDATTE
1070
     1
1070
    12
1002
{
1002
}
1000
FieldLen
1070
     1
1070
    -1
1002
{
1002
}
1002
}
1000
13
1070
     6
1002
{
1000
Prompt
1070
     4
1000
(genmsg gendwg 43)
1002
{
1002
}
1000
Value
1070
     4
1000

1002
{
1002
}
1000
EditFlag
1070
     1
1070
     1
1002
{
1002
}
1000
PosInDDATTE
1070
     1
1070
    13
1002
{
1002
}
1000
FieldLen
1070
     1
1070
    -1
1002
{
1002
}
1002
}
1000
14
1070
     6
1002
{
1000
Prompt
1070
     4
1000
(genmsg gendwg 44)
1002
{
1002
}
1000
Value
1070
     4
1000

1002
{
1002
}
1000
EditFlag
1070
     1
1070
     1
1002
{
1002
}
1000
PosInDDATTE
1070
     1
1070
    14
1002
{
1002
}
1000
FieldLen
1070
     1
1070
    -1
1002
{
1002
}
1002
}
1000
15
1070
     6
1002
{
1000
Prompt
1070
     4
1000
(genmsg gendwg 45)
1002
{
1002
}
1000
Value
1070
     4
1000

1002
{
1002
}
1000
EditFlag
1070
     1
1070
     1
1002
{
1002
}
1000
PosInDDATTE
1070
     1
1070
    15
1002
{
1002
}
1000
FieldLen
1070
     1
1070
    -1
1002
{
1002
}
1002
}
1000
16
1070
     6
1002
{
1000
Prompt
1070
     4
1000
(genmsg gendwg 46)
1002
{
1002
}
1000
Value
1070
     4
1000

1002
{
1002
}
1000
EditFlag
1070
     1
1070
     1
1002
{
1002
}
1000
PosInDDATTE
1070
     1
1070
    16
1002
{
1002
}
1000
FieldLen
1070
     1
1070
    -1
1002
{
1002
}
1002
}
1000
17
1070
     6
1002
{
1000
Prompt
1070
     4
1000
(genmsg gendwg 47)
1002
{
1002
}
1000
Value
1070
     4
1000

1002
{
1002
}
1000
EditFlag
1070
     1
1070
     1
1002
{
1002
}
1000
PosInDDATTE
1070
     1
1070
    17
1002
{
1002
}
1000
FieldLen
1070
     1
1070
    -1
1002
{
1002
}
1002
}
1000
18
1070
     6
1002
{
1000
Prompt
1070
     4
1000
(genmsg gendwg 48)
1002
{
1002
}
1000
Value
1070
     4
1000

1002
{
1002
}
1000
EditFlag
1070
     1
1070
     1
1002
{
1002
}
1000
PosInDDATTE
1070
     1
1070
    18
1002
{
1002
}
1000
FieldLen
1070
     1
1070
    -1
1002
{
1002
}
1002
}
1000
19
1070
     6
1002
{
1000
Prompt
1070
     4
1000
(genmsg gendwg 99)
1002
{
1002
}
1000
Value
1070
     4
1000

1002
{
1002
}
1000
EditFlag
1070
     1
1070
     1
1002
{
1002
}
1000
PosInDDATTE
1070
     1
1070
    19
1002
{
1002
}
1000
FieldLen
1070
     1
1070
    -1
1002
{
1002
}
1002
}
1000
20
1070
     6
1002
{
1000
Prompt
1070
     4
1000
(genmsg gendwg 100)
1002
{
1002
}
1000
Value
1070
     4
1000

1002
{
1002
}
1000
EditFlag
1070
     1
1070
     1
1002
{
1002
}
1000
PosInDDATTE
1070
     1
1070
    20
1002
{
1002
}
1000
FieldLen
1070
     1
1070
    -1
1002
{
1002
}
1002
}
1000
21
1070
     6
1002
{
1000
Prompt
1070
     4
1000
(genmsg gendwg 101)
1002
{
1002
}
1000
Value
1070
     4
1000

1002
{
1002
}
1000
EditFlag
1070
     1
1070
     1
1002
{
1002
}
1000
PosInDDATTE
1070
     1
1070
    21
1002
{
1002
}
1000
FieldLen
1070
     1
1070
    -1
1002
{
1002
}
1002
}
1000
22
1070
     6
1002
{
1000
Prompt
1070
     4
1000
(genmsg gendwg 102)
1002
{
1002
}
1000
Value
1070
     4
1000

1002
{
1002
}
1000
EditFlag
1070
     1
1070
     1
1002
{
1002
}
1000
PosInDDATTE
1070
     1
1070
    22
1002
{
1002
}
1000
FieldLen
1070
     1
1070
    -1
1002
{
1002
}
1002
}
1000
23
1070
     6
1002
{
1000
Prompt
1070
     4
1000
(genmsg gendwg 30)
1002
{
1002
}
1000
Value
1070
     4
1000

1002
{
1002
}
1000
EditFlag
1070
     1
1070
     1
1002
{
1002
}
1000
PosInDDATTE
1070
     1
1070
    23
1002
{
1002
}
1000
FieldLen
1070
     1
1070
    -1
1002
{
1002
}
1002
}
1000
24
1070
     6
1002
{
1000
Prompt
1070
     4
1000
(genmsg gendwg 104)
1002
{
1002
}
1000
Value
1070
     4
1000

1002
{
1002
}
1000
EditFlag
1070
     1
1070
     1
1002
{
1002
}
1000
PosInDDATTE
1070
     1
1070
    24
1002
{
1002
}
1000
FieldLen
1070
     1
1070
    -1
1002
{
1002
}
1002
}
1000
25
1070
     6
1002
{
1000
Prompt
1070
     4
1000
(genmsg gendwg 105)
1002
{
1002
}
1000
Value
1070
     4
1000

1002
{
1002
}
1000
EditFlag
1070
     1
1070
     1
1002
{
1002
}
1000
PosInDDATTE
1070
     1
1070
    25
1002
{
1002
}
1000
FieldLen
1070
     1
1070
    -1
1002
{
1002
}
1002
}
1000
26
1070
     6
1002
{
1000
Prompt
1070
     4
1000
(genmsg gendwg 106)
1002
{
1002
}
1000
Value
1070
     4
1000

1002
{
1002
}
1000
EditFlag
1070
     1
1070
     1
1002
{
1002
}
1000
PosInDDATTE
1070
     1
1070
    26
1002
{
1002
}
1000
FieldLen
1070
     1
1070
    -1
1002
{
1002
}
1002
}
1000
27
1070
     6
1002
{
1000
Prompt
1070
     4
1000
(genmsg gendwg 109)
1002
{
1002
}
1000
Value
1070
     4
1000

1002
{
1002
}
1000
EditFlag
1070
     1
1070
     2
1002
{
1002
}
1000
PosInDDATTE
1070
     1
1070
    27
1002
{
1002
}
1000
FieldLen
1070
     1
1070
    -1
1002
{
1002
}
1002
}
1002
}
1000
Xlate
1070
     0
1002
{
1000
>
1002
}
  0
APPID
  5
C0E
330
9
100
AcDbSymbolTableRecord
100
AcDbRegAppTableRecord
  2
GENIUS_GENDIM_13
 70
     0
  0
APPID
  5
C0F
330
9
100
AcDbSymbolTableRecord
100
AcDbRegAppTableRecord
  2
GENIUS_GENDTOL_13
 70
     0
  0
APPID
  5
C10
330
9
100
AcDbSymbolTableRecord
100
AcDbRegAppTableRecord
  2
GENIUS_GE3DTOL_13
 70
     0
  0
APPID
  5
C13
330
9
100
AcDbSymbolTableRecord
100
AcDbRegAppTableRecord
  2
ACAD_TEMP_GRAPHIC
 70
     0
  0
APPID
  5
C47
330
9
100
AcDbSymbolTableRecord
100
AcDbRegAppTableRecord
  2
ACATTRIBSERVICES
 70
     0
  0
APPID
  5
CB6
330
9
100
AcDbSymbolTableRecord
100
AcDbRegAppTableRecord
  2
ACADM_DIM_EDIT
 70
     0
  0
ENDTAB
  0
TABLE
  2
DIMSTYLE
  5
A
330
0
100
AcDbSymbolTable
 70
     9
100
AcDbDimStyleTable
 71
     0
  0
DIMSTYLE
105
27
330
A
100
AcDbSymbolTableRecord
100
AcDbDimStyleTableRecord
  2
ISO-25
 70
     0
 41
2.5
 42
0.625
 43
3.75
 44
1.25
 73
     0
 74
     0
 77
     1
 78
     8
140
2.5
141
2.5
143
0.03937007874016
147
0.625
171
     3
172
     1
271
     2
272
     2
274
     3
278
    44
283
     0
284
     8
340
11
  0
DIMSTYLE
105
1E0
330
A
100
AcDbSymbolTableRecord
100
AcDbDimStyleTableRecord
  2
STANDARD
 70
     0
340
11
  0
DIMSTYLE
105
CBC
330
A
100
AcDbSymbolTableRecord
100
AcDbDimStyleTableRecord
  2
GEN-ISO
 70
     0
  3
<>
 41
2.5
 42
1.0
 43
0.0
 44
1.0
 47
0.1
 48
0.1
 73
     0
 74
     0
 77
     1
 78
     8
140
3.5
141
0.0
143
0.0393701
146
0.71
147
1.5
172
     1
176
   256
177
   256
178
     1
271
     2
272
     3
274
     4
283
     0
340
11
  0
DIMSTYLE
105
CBD
330
A
100
AcDbSymbolTableRecord
100
AcDbDimStyleTableRecord
  2
GEN-ISO$3
 70
     0
 41
2.5
 42
1.0
 43
0.0
 44
1.0
 47
0.1
 48
0.1
 73
     0
 77
     1
 78
     8
140
3.5
141
0.0
143
0.0393701
146
0.71
147
1.5
176
   256
177
   256
178
     1
271
     2
272
     3
274
     4
283
     0
288
     1
289
     0
340
11
  0
DIMSTYLE
105
CBE
330
A
100
AcDbSymbolTableRecord
100
AcDbDimStyleTableRecord
  2
GEN-ISO$4
 70
     0
 41
2.5
 42
1.0
 43
0.0
 44
1.0
 47
0.1
 48
0.1
 73
     0
 77
     1
 78
     8
140
3.5
141
0.0
143
0.0393701
146
0.71
147
1.5
176
   256
177
   256
178
     1
271
     2
272
     3
274
     4
283
     0
288
     1
289
     0
340
11
  0
DIMSTYLE
105
CBF
330
A
100
AcDbSymbolTableRecord
100
AcDbDimStyleTableRecord
  2
GEN-ISO$6
 70
     0
 41
2.5
 42
1.0
 43
0.0
 44
1.0
 47
0.1
 48
0.1
 73
     0
 74
     0
 77
     2
 78
     8
140
3.5
141
0.0
143
0.0393701
146
0.71
147
1.5
176
   256
177
   256
178
     1
271
     2
272
     3
274
     4
283
     0
340
11
  0
DIMSTYLE
105
CC0
330
A
100
AcDbSymbolTableRecord
100
AcDbDimStyleTableRecord
  2
GEN-ISO-POS
 70
     0
 41
2.5
 42
1.0
 43
0.0
 44
1.0
 47
0.1
 48
0.1
 73
     0
 74
     0
 77
     2
 78
     8
140
5.0
141
0.0
143
0.0393701
146
0.71
147
1.5
176
   256
177
   256
178
     1
271
     2
272
     3
274
     4
283
     0
340
11
  0
DIMSTYLE
105
CC1
330
A
100
AcDbSymbolTableRecord
100
AcDbDimStyleTableRecord
  2
GEN-ISO-AXE-F
 70
     0
 41
2.5
 42
1.0
 43
0.0
 44
1.0
 47
0.1
 48
0.1
 73
     0
 74
     0
 75
     1
 76
     1
 77
     1
 78
     8
140
3.5
141
0.0
143
0.0393701
146
0.71
147
1.5
172
     1
176
   256
177
   256
178
     1
271
     2
272
     3
274
     4
283
     0
340
11
  0
DIMSTYLE
105
CC2
330
A
100
AcDbSymbolTableRecord
100
AcDbDimStyleTableRecord
  2
GEN-ISO-AXE-H
 70
     0
 41
2.5
 42
1.0
 43
0.0
 44
1.0
 47
0.1
 48
0.1
 73
     0
 74
     0
 75
     1
 76
     1
 77
     1
 78
     8
140
3.5
141
0.0
143
0.0393701
144
2.0
146
0.71
147
1.5
172
     1
173
     1
176
   256
177
   256
178
     1
271
     2
272
     3
274
     4
283
     0
340
11
  0
ENDTAB
  0
TABLE
  2
BLOCK_RECORD
  5
1
330
0
100
AcDbSymbolTable
 70
    18
  0
BLOCK_RECORD
  5
1F
102
{ACAD_XDICTIONARY
360
CCC
102
}
330
1
100
AcDbSymbolTableRecord
100
AcDbBlockTableRecord
  2
*Model_Space
340
22
  0
BLOCK_RECORD
  5
1B
330
1
100
AcDbSymbolTableRecord
100
AcDbBlockTableRecord
  2
*Paper_Space
340
1E
  0
BLOCK_RECORD
  5
23
330
1
100
AcDbSymbolTableRecord
100
AcDbBlockTableRecord
  2
*Paper_Space0
340
26
  0
BLOCK_RECORD
  5
2B
330
1
100
AcDbSymbolTableRecord
100
AcDbBlockTableRecord
  2
LOGO
340
0
102
{BLKREFS
331
B8F
331
BC7
102
}
  0
BLOCK_RECORD
  5
70
330
1
100
AcDbSymbolTableRecord
100
AcDbBlockTableRecord
  2
*X2
340
0
102
{BLKREFS
331
51
102
}
  0
BLOCK_RECORD
  5
90
330
1
100
AcDbSymbolTableRecord
100
AcDbBlockTableRecord
  2
*X3
340
0
102
{BLKREFS
331
52
102
}
  0
BLOCK_RECORD
  5
B8
330
1
100
AcDbSymbolTableRecord
100
AcDbBlockTableRecord
  2
*X4
340
0
102
{BLKREFS
331
53
102
}
  0
BLOCK_RECORD
  5
DD
330
1
100
AcDbSymbolTableRecord
100
AcDbBlockTableRecord
  2
*X5
340
0
102
{BLKREFS
331
54
102
}
  0
BLOCK_RECORD
  5
10E
330
1
100
AcDbSymbolTableRecord
100
AcDbBlockTableRecord
  2
*X6
340
0
102
{BLKREFS
331
55
331
5C
102
}
  0
BLOCK_RECORD
  5
136
330
1
100
AcDbSymbolTableRecord
100
AcDbBlockTableRecord
  2
*X7
340
0
102
{BLKREFS
331
56
331
5B
102
}
  0
BLOCK_RECORD
  5
15D
330
1
100
AcDbSymbolTableRecord
100
AcDbBlockTableRecord
  2
*X8
340
0
102
{BLKREFS
331
57
331
5A
102
}
  0
BLOCK_RECORD
  5
185
330
1
100
AcDbSymbolTableRecord
100
AcDbBlockTableRecord
  2
*X9
340
0
102
{BLKREFS
331
58
331
59
102
}
  0
BLOCK_RECORD
  5
1A9
330
1
100
AcDbSymbolTableRecord
100
AcDbBlockTableRecord
  2
A$C4
340
0
  0
BLOCK_RECORD
  5
1EE
330
1
100
AcDbSymbolTableRecord
100
AcDbBlockTableRecord
  2
ABB3T
340
0
  0
BLOCK_RECORD
  5
367
330
1
100
AcDbSymbolTableRecord
100
AcDbBlockTableRecord
  2
VT
340
0
310
2800000020000000200000000100080000000000000400000000000000000000000000000000000000000000000080000080000000808000800000008000800080800000C0C0C000C0DCC000F0CAA6000020400000206000002080000020A0000020C0000020E00000400000004020000040400000406000004080000040A0
310
000040C0000040E00000600000006020000060400000606000006080000060A0000060C0000060E00000800000008020000080400000806000008080000080A0000080C0000080E00000A0000000A0200000A0400000A0600000A0800000A0A00000A0C00000A0E00000C0000000C0200000C0400000C0600000C0800000C0
310
A00000C0C00000C0E00000E0000000E0200000E0400000E0600000E0800000E0A00000E0C00000E0E00040000000400020004000400040006000400080004000A0004000C0004000E00040200000402020004020400040206000402080004020A0004020C0004020E000404000004040200040404000404060004040800040
310
40A0004040C0004040E00040600000406020004060400040606000406080004060A0004060C0004060E00040800000408020004080400040806000408080004080A0004080C0004080E00040A0000040A0200040A0400040A0600040A0800040A0A00040A0C00040A0E00040C0000040C0200040C0400040C0600040C08000
310
40C0A00040C0C00040C0E00040E0000040E0200040E0400040E0600040E0800040E0A00040E0C00040E0E00080000000800020008000400080006000800080008000A0008000C0008000E00080200000802020008020400080206000802080008020A0008020C0008020E00080400000804020008040400080406000804080
310
008040A0008040C0008040E00080600000806020008060400080606000806080008060A0008060C0008060E00080800000808020008080400080806000808080008080A0008080C0008080E00080A0000080A0200080A0400080A0600080A0800080A0A00080A0C00080A0E00080C0000080C0200080C0400080C0600080C0
310
800080C0A00080C0C00080C0E00080E0000080E0200080E0400080E0600080E0800080E0A00080E0C00080E0E000C0000000C0002000C0004000C0006000C0008000C000A000C000C000C000E000C0200000C0202000C0204000C0206000C0208000C020A000C020C000C020E000C0400000C0402000C0404000C0406000C0
310
408000C040A000C040C000C040E000C0600000C0602000C0604000C0606000C0608000C060A000C060C000C060E000C0800000C0802000C0804000C0806000C0808000C080A000C080C000C080E000C0A00000C0A02000C0A04000C0A06000C0A08000C0A0A000C0A0C000C0A0E000C0C00000C0C02000C0C04000C0C06000
310
C0C08000C0C0A000F0FBFF00A4A0A000808080000000FF0000FF000000FFFF00FF000000FF00FF00FFFF0000FFFFFF0000000000000000000000000000000000000000000000000000000000000000000000000000000000000000000000000000000000000000000000000000000000000000000000000000000000000000
310
00000000000000000000000000000000000000000000000000000000000000000000000000000000000000000000000000000000000000000000000000000000000000000000000000000000000000000000000000000000000000000000000000000000000000000000000000000000000000000000000000000000000000
310
00000000000000000000000000000000000000000000000000000000000000000000000000000000000000000000000000000000000000000000000000000000000000000000000000000000000000000000000000000000000000000000000000000000000000000000000000000000000000000000000000000000000000
310
000000000000000000000000000000000000000000000000000000000000000000000000000000000000000000000000000000000000000000000000000000000000000000000000000000000000000000000000F9F9F9F9F9F9F9F9F9F9F9F9F9F9F9F9F9F9F9F9F9F9F9F9F9F9F9F9F9F90000000000000000F9F9000000
310
00000000000000000000000000000000000000000000000000F9F9F9F9F900000000000000000000000000000000000000000000000000000000F9F9F9F90000000000000000000000000000000000000000000000000000000000F9F9000000000000000000000000000000000000000000000000F9F9F9F9F9F9F9F9F9F9
310
F9F9F9F9F9F9F9F9F9F9F9F9F9F9F9F9F9F9F9F90000000000000000000000000000000000000000000000000000000000000000000000000000000000000000000000000000000000000000000000000000000000000000000000000000000000000000000000000000000000000000000000000000000000000000000000
310
00000000000000000000000000000000000000000000000000000000000000000000000000000000000000000000000000000000000000000000000000000000000000000000000000000000000000000000000000000000000000000000000000000000000000000000000000000000000000000000000000000000000000
310
00000000000000000000000000000000000000000000000000000000000000000000000000000000000000000000000000000000000000000000000000000000000000000000000000000000000000000000000000000000000000000000000000000000000000000000000000000000000000000000000000000000000000
310
0000000000000000000000000000000000000000000000000000000000000000000000000000000000000000000000000000000000000000
102
{BLKREFS
331
38A
331
38B
331
38C
331
38D
102
}
1001
ACAD
1000
DesignCenter Data
1002
{
1070
     1
1070
     4
1002
}
  0
BLOCK_RECORD
  5
39D
330
1
100
AcDbSymbolTableRecord
100
AcDbBlockTableRecord
  2
CT
340
0
310
2800000020000000200000000100080000000000000400000000000000000000000000000000000000000000000080000080000000808000800000008000800080800000C0C0C000C0DCC000F0CAA6000020400000206000002080000020A0000020C0000020E00000400000004020000040400000406000004080000040A0
310
000040C0000040E00000600000006020000060400000606000006080000060A0000060C0000060E00000800000008020000080400000806000008080000080A0000080C0000080E00000A0000000A0200000A0400000A0600000A0800000A0A00000A0C00000A0E00000C0000000C0200000C0400000C0600000C0800000C0
310
A00000C0C00000C0E00000E0000000E0200000E0400000E0600000E0800000E0A00000E0C00000E0E00040000000400020004000400040006000400080004000A0004000C0004000E00040200000402020004020400040206000402080004020A0004020C0004020E000404000004040200040404000404060004040800040
310
40A0004040C0004040E00040600000406020004060400040606000406080004060A0004060C0004060E00040800000408020004080400040806000408080004080A0004080C0004080E00040A0000040A0200040A0400040A0600040A0800040A0A00040A0C00040A0E00040C0000040C0200040C0400040C0600040C08000
310
40C0A00040C0C00040C0E00040E0000040E0200040E0400040E0600040E0800040E0A00040E0C00040E0E00080000000800020008000400080006000800080008000A0008000C0008000E00080200000802020008020400080206000802080008020A0008020C0008020E00080400000804020008040400080406000804080
310
008040A0008040C0008040E00080600000806020008060400080606000806080008060A0008060C0008060E00080800000808020008080400080806000808080008080A0008080C0008080E00080A0000080A0200080A0400080A0600080A0800080A0A00080A0C00080A0E00080C0000080C0200080C0400080C0600080C0
310
800080C0A00080C0C00080C0E00080E0000080E0200080E0400080E0600080E0800080E0A00080E0C00080E0E000C0000000C0002000C0004000C0006000C0008000C000A000C000C000C000E000C0200000C0202000C0204000C0206000C0208000C020A000C020C000C020E000C0400000C0402000C0404000C0406000C0
310
408000C040A000C040C000C040E000C0600000C0602000C0604000C0606000C0608000C060A000C060C000C060E000C0800000C0802000C0804000C0806000C0808000C080A000C080C000C080E000C0A00000C0A02000C0A04000C0A06000C0A08000C0A0A000C0A0C000C0A0E000C0C00000C0C02000C0C04000C0C06000
310
C0C08000C0C0A000F0FBFF00A4A0A000808080000000FF0000FF000000FFFF00FF000000FF00FF00FFFF0000FFFFFF0000000000000000000000000000000000000000000000000000000000000000000000000000000000000000000000000000000000000000000000000000000000000000000000000000000000000000
310
00000000000000000000000000000000000000000000000000000000000000000000000000000000000000000000000000000000000000000000000000000000000000000000000000000000000000000000000000000000000000000000000000000000000000000000000000000000000000000000000000000000000000
310
00000000000000000000000000000000000000000000000000000000000000000000000000000000000000000000000000000000000000000000000000000000000000000000000000000000000000000000000000000000000000000000000000000000000000000000000000000000000000000000000000000000000000
310
00000000000000000000000000000000000000000000000000000000000000000000000000000000000000000000000000000000F9F9F9F9F9F90000F9F9F9F9F9F9F9F9F9F9F9F9F9F9F9F9F9F9F9F9F9F900000000000000F900F900000000000000000000000000000000000000000000000000000000F9F900F9F90000
310
0000000000000000000000000000000000000000000000000000F900F90000F9F9F90000000000000000000000000000000000000000000000F9F900F9F9F9F9F9F9F9F9F9F9F9F9F9F9F9F9F9F9F9F9F9F9F900000000000000F900F90000F9F90000000000000000000000000000000000000000F9F9F9F9F9F900F9F9F9
310
F9F9F9F9F9F9F9F9F9F9F9F9F9F9F9F9F9F9F9F9000000000000000000000000F9F9000000000000000000000000000000000000000000000000000000000000000000000000000000000000000000000000000000000000000000000000000000000000000000000000000000000000000000000000000000000000000000
310
00000000000000000000000000000000000000000000000000000000000000000000000000000000000000000000000000000000000000000000000000000000000000000000000000000000000000000000000000000000000000000000000000000000000000000000000000000000000000000000000000000000000000
310
00000000000000000000000000000000000000000000000000000000000000000000000000000000000000000000000000000000000000000000000000000000000000000000000000000000000000000000000000000000000000000000000000000000000000000000000000000000000000000000000000000000000000
310
0000000000000000000000000000000000000000000000000000000000000000000000000000000000000000000000000000000000000000
102
{BLKREFS
331
3AF
331
3B0
331
3B1
331
3B2
102
}
1001
ACAD
1000
DesignCenter Data
1002
{
1070
     1
1070
     4
1002
}
  0
BLOCK_RECORD
  5
3F6
330
1
100
AcDbSymbolTableRecord
100
AcDbBlockTableRecord
  2
SENS
340
0
310
2800000020000000200000000100080000000000000400000000000000000000000000000000000000000000000080000080000000808000800000008000800080800000C0C0C000C0DCC000F0CAA6000020400000206000002080000020A0000020C0000020E00000400000004020000040400000406000004080000040A0
310
000040C0000040E00000600000006020000060400000606000006080000060A0000060C0000060E00000800000008020000080400000806000008080000080A0000080C0000080E00000A0000000A0200000A0400000A0600000A0800000A0A00000A0C00000A0E00000C0000000C0200000C0400000C0600000C0800000C0
310
A00000C0C00000C0E00000E0000000E0200000E0400000E0600000E0800000E0A00000E0C00000E0E00040000000400020004000400040006000400080004000A0004000C0004000E00040200000402020004020400040206000402080004020A0004020C0004020E000404000004040200040404000404060004040800040
310
40A0004040C0004040E00040600000406020004060400040606000406080004060A0004060C0004060E00040800000408020004080400040806000408080004080A0004080C0004080E00040A0000040A0200040A0400040A0600040A0800040A0A00040A0C00040A0E00040C0000040C0200040C0400040C0600040C08000
310
40C0A00040C0C00040C0E00040E0000040E0200040E0400040E0600040E0800040E0A00040E0C00040E0E00080000000800020008000400080006000800080008000A0008000C0008000E00080200000802020008020400080206000802080008020A0008020C0008020E00080400000804020008040400080406000804080
310
008040A0008040C0008040E00080600000806020008060400080606000806080008060A0008060C0008060E00080800000808020008080400080806000808080008080A0008080C0008080E00080A0000080A0200080A0400080A0600080A0800080A0A00080A0C00080A0E00080C0000080C0200080C0400080C0600080C0
310
800080C0A00080C0C00080C0E00080E0000080E0200080E0400080E0600080E0800080E0A00080E0C00080E0E000C0000000C0002000C0004000C0006000C0008000C000A000C000C000C000E000C0200000C0202000C0204000C0206000C0208000C020A000C020C000C020E000C0400000C0402000C0404000C0406000C0
310
408000C040A000C040C000C040E000C0600000C0602000C0604000C0606000C0608000C060A000C060C000C060E000C0800000C0802000C0804000C0806000C0808000C080A000C080C000C080E000C0A00000C0A02000C0A04000C0A06000C0A08000C0A0A000C0A0C000C0A0E000C0C00000C0C02000C0C04000C0C06000
310
C0C08000C0C0A000F0FBFF00A4A0A000808080000000FF0000FF000000FFFF00FF000000FF00FF00FFFF0000FFFFFF0000000000000000000000000000000000000000000000000000000000000000000000000000000000000000000000000000000000000000000000000000000000000000000000000000000000000000
310
00000000000000000000000000000000000000000000000000000000000000000000000000000000000000000000000000000000000000000000000000000000000000000000000000000000000000000000000000000000000000000000000000000000000000000000000000000000000000000000000000000000000000
310
00000000000000000000000000000000000000000000000000000000000000000000000000000000000000000000000000000000000000000000000000000000000000000000000000000000000000000000000000000000000000000000000000000000000000000000000000000000000000000000000000000000000000
310
000000000000000000000000000000000000000000000000000000000000000000000000000000000000000000000000000000000000000000F9F9F9F9F9F9F900000000000000000000000000000000000000000000000000F9F9F9F900F9F900000000000000000000000000000000000000000000000000F9F9F9F9F9F9
310
F9F9F9F9F9F9F9F9F9F9F9F9F9F9F9F9F9F9F900000000F90000F9F9F90000F9F90000000000000000000000F90000000000F90000F9F9F9F9F9F9F9000000F9F90000000000000000000000F90000000000F900000000000000F900F9F900F9F9F9F9F9F9F9F9F9F9F9F9F9F9F9F9F9F9F9F900000000000000F9000000F9
310
F9F900000000000000000000000000000000000000000000000000F9F9F9F9F9F9F9000000000000000000000000000000000000000000000000000000000000000000000000000000000000000000000000000000000000000000000000000000000000000000000000000000000000000000000000000000000000000000
310
00000000000000000000000000000000000000000000000000000000000000000000000000000000000000000000000000000000000000000000000000000000000000000000000000000000000000000000000000000000000000000000000000000000000000000000000000000000000000000000000000000000000000
310
00000000000000000000000000000000000000000000000000000000000000000000000000000000000000000000000000000000000000000000000000000000000000000000000000000000000000000000000000000000000000000000000000000000000000000000000000000000000000000000000000000000000000
310
0000000000000000000000000000000000000000000000000000000000000000000000000000000000000000000000000000000000000000
1001
ACAD
1000
DesignCenter Data
1002
{
1070
     1
1070
     4
1002
}
  0
BLOCK_RECORD
  5
92D
330
1
100
AcDbSymbolTableRecord
100
AcDbBlockTableRecord
  2
UFTRAFO
340
0
310
2800000020000000200000000100080000000000000400000000000000000000000000000000000000000000000080000080000000808000800000008000800080800000C0C0C000C0DCC000F0CAA6000020400000206000002080000020A0000020C0000020E00000400000004020000040400000406000004080000040A0
310
000040C0000040E00000600000006020000060400000606000006080000060A0000060C0000060E00000800000008020000080400000806000008080000080A0000080C0000080E00000A0000000A0200000A0400000A0600000A0800000A0A00000A0C00000A0E00000C0000000C0200000C0400000C0600000C0800000C0
310
A00000C0C00000C0E00000E0000000E0200000E0400000E0600000E0800000E0A00000E0C00000E0E00040000000400020004000400040006000400080004000A0004000C0004000E00040200000402020004020400040206000402080004020A0004020C0004020E000404000004040200040404000404060004040800040
310
40A0004040C0004040E00040600000406020004060400040606000406080004060A0004060C0004060E00040800000408020004080400040806000408080004080A0004080C0004080E00040A0000040A0200040A0400040A0600040A0800040A0A00040A0C00040A0E00040C0000040C0200040C0400040C0600040C08000
310
40C0A00040C0C00040C0E00040E0000040E0200040E0400040E0600040E0800040E0A00040E0C00040E0E00080000000800020008000400080006000800080008000A0008000C0008000E00080200000802020008020400080206000802080008020A0008020C0008020E00080400000804020008040400080406000804080
310
008040A0008040C0008040E00080600000806020008060400080606000806080008060A0008060C0008060E00080800000808020008080400080806000808080008080A0008080C0008080E00080A0000080A0200080A0400080A0600080A0800080A0A00080A0C00080A0E00080C0000080C0200080C0400080C0600080C0
310
800080C0A00080C0C00080C0E00080E0000080E0200080E0400080E0600080E0800080E0A00080E0C00080E0E000C0000000C0002000C0004000C0006000C0008000C000A000C000C000C000E000C0200000C0202000C0204000C0206000C0208000C020A000C020C000C020E000C0400000C0402000C0404000C0406000C0
310
408000C040A000C040C000C040E000C0600000C0602000C0604000C0606000C0608000C060A000C060C000C060E000C0800000C0802000C0804000C0806000C0808000C080A000C080C000C080E000C0A00000C0A02000C0A04000C0A06000C0A08000C0A0A000C0A0C000C0A0E000C0C00000C0C02000C0C04000C0C06000
310
C0C08000C0C0A000F0FBFF00A4A0A000808080000000FF0000FF000000FFFF00FF000000FF00FF00FFFF0000FFFFFF000000000000000000000000000000000000000000000000000000000000000000000000000000000000000000F9F90000000000000000000000000000000000000000000000000000000000F9F9F9F9
310
0000000000000000000000000000000000000000F9F9F9F9F9F9F9F9F9F9F900000000000000000000000000000000000000000000000000000000000000F9000000000000000000000000000000000000000000F9F90000F90000F90000F9000000000000000000000000000000000000000000F9F900F9F900F9F900F900
310
000000000000000000000000000000000000000000F9F9F9F9F9F9F900F9F9000000000000000000000000000000000000000000000000000000F9F9F9F9F9F9000000000000000000000000000000000000000000F9F90000F90000F90000F9000000000000000000000000000000000000000000F9F900F9F900F9F900F9
310
00000000F9F900000000000000000000000000000000F9F9F9F900F9F900F9F9000000F9F9F9F9000000000000000000000000000000000000F9F9F9F9F900000000000000F900000000000000000000000000000000F9F90000F90000F9F9F9F900000000F900F9F900F9F900F9F9F900000000000000F900F9F900F9F900
310
F90000000000F9F9F900F9F900F9F900000000000000000000F9F900F9F900F9F90000000000F900000000000000000000000000000000000000000000000000000000000000F900000000000000000000000000000000000000000000000000000000000000F900F9F900F9F900F9F9F90000000000000000000000000000
310
00F9F900000000F9F9F900F9F900F9F900000000000000000000000000000000F9F9F9F9000000F900000000000000000000000000000000F9F90000F90000F90000F900000000F90000F90000F90000F9F900000000000000F9F9F9F9F9F9F9F9F9F900000000F900F9F900F9F900F9000000000000000000000000000000
310
000000F90000000000F9F900F9F900F9F9000000000000000000000000000000000000F9000000000000000000000000000000000000000000F9F90000F90000F90000F900000000000000000000000000000000000000000000F9F9F9F9F9F9F9F9F9F9000000000000000000000000000000000000000000000000000000
310
00000000F900000000000000000000000000000000000000000000000000000000000000F9000000000000000000000000000000000000000000F9F90000F90000F90000F900000000000000000000000000000000000000000000F900F9F900F9F900F9000000000000000000000000000000000000000000000000F9F900
310
F9F900F9F9000000000000000000000000000000000000000000000000000000000000000000000000000000000000000000000000000000
102
{BLKREFS
331
994
102
}
1001
ACAD
1000
DesignCenter Data
1002
{
1070
     1
1070
     4
1002
}
  0
BLOCK_RECORD
  5
B83
330
1
100
AcDbSymbolTableRecord
100
AcDbBlockTableRecord
  2
COPYRIGHT
340
0
102
{BLKREFS
331
B97
331
BCF
102
}
  0
ENDTAB
  0
ENDSEC
  0
SECTION
  2
BLOCKS
  0
BLOCK
  5
20
330
1F
100
AcDbEntity
  8
0
100
AcDbBlockBegin
  2
*Model_Space
 70
     0
 10
0.0
 20
0.0
 30
0.0
  3
*Model_Space
  1

  0
ENDBLK
  5
21
330
1F
100
AcDbEntity
  8
0
100
AcDbBlockEnd
  0
BLOCK
  5
1C
330
1B
100
AcDbEntity
 67
     1
  8
0
100
AcDbBlockBegin
  2
*Paper_Space
 70
     0
 10
0.0
 20
0.0
 30
0.0
  3
*Paper_Space
  1

  0
ENDBLK
  5
1D
330
1B
100
AcDbEntity
 67
     1
  8
0
100
AcDbBlockEnd
  0
BLOCK
  5
24
330
23
100
AcDbEntity
  8
0
100
AcDbBlockBegin
  2
*Paper_Space0
 70
     0
 10
0.0
 20
0.0
 30
0.0
  3
*Paper_Space0
  1

  0
ENDBLK
  5
25
330
23
100
AcDbEntity
  8
0
100
AcDbBlockEnd
  0
BLOCK
  5
6E
330
2B
100
AcDbEntity
  8
0
100
AcDbBlockBegin
  2
LOGO
 70
     0
 10
0.0
 20
0.0
 30
0.0
  3
LOGO
  1

  0
LINE
  5
2C
330
2B
100
AcDbEntity
  8
RAAMI
100
AcDbLine
 10
0.9499999999999992
 20
10.5
 30
0.0
 11
2.699999999999999
 21
10.5
 31
0.0
  0
LINE
  5
2D
330
2B
100
AcDbEntity
  8
RAAMI
100
AcDbLine
 10
6.199999999999999
 20
10.5
 30
0.0
 11
7.949999999999999
 21
10.5
 31
0.0
  0
LINE
  5
2E
330
2B
100
AcDbEntity
  8
RAAMI
100
AcDbLine
 10
3.399999999999998
 20
17.5
 30
0.0
 11
2.250249999999998
 21
14.21499999999999
 31
0.0
  0
LINE
  5
2F
330
2B
100
AcDbEntity
  8
RAAMI
100
AcDbLine
 10
3.188786698097196
 20
11.9
 30
0.0
 11
4.235000000000002
 21
11.9
 31
0.0
  0
LINE
  5
30
330
2B
100
AcDbEntity
  8
RAAMI
100
AcDbLine
 10
3.18878989496271
 20
11.8965425570363
 30
0.0
 11
2.699999999999999
 21
10.5
 31
0.0
  0
LINE
  5
31
330
2B
100
AcDbEntity
  8
RAAMI
100
AcDbLine
 10
5.5
 20
17.5
 30
0.0
 11
6.64975
 21
14.21499999999999
 31
0.0
  0
LINE
  5
32
330
2B
100
AcDbEntity
  8
RAAMI
100
AcDbLine
 10
5.711097703285556
 20
11.8968637048984
 30
0.0
 11
6.199999999999999
 21
10.5
 31
0.0
  0
LINE
  5
33
330
2B
100
AcDbEntity
  8
RAAMI
100
AcDbLine
 10
5.5
 20
17.5
 30
0.0
 11
4.665
 21
17.5
 31
0.0
  0
LINE
  5
34
330
2B
100
AcDbEntity
  8
RAAMI
100
AcDbLine
 10
4.235000000000002
 20
17.5
 30
0.0
 11
4.235000000000002
 21
14.21499999999999
 31
0.0
  0
LINE
  5
35
330
2B
100
AcDbEntity
  8
RAAMI
100
AcDbLine
 10
4.665
 20
17.5
 30
0.0
 11
4.665
 21
14.21499999999999
 31
0.0
  0
LINE
  5
36
330
2B
100
AcDbEntity
  8
RAAMI
100
AcDbLine
 10
4.665
 20
11.9
 30
0.0
 11
5.709893393426749
 21
11.9
 31
0.0
  0
LINE
  5
37
330
2B
100
AcDbEntity
  8
RAAMI
100
AcDbLine
 10
4.235000000000002
 20
17.5
 30
0.0
 11
3.399999999999998
 21
17.5
 31
0.0
  0
LINE
  5
38
330
2B
100
AcDbEntity
  8
RAAMI
100
AcDbLine
 10
2.250249999999998
 20
14.21499999999999
 30
0.0
 11
4.235000000000002
 21
14.21499999999999
 31
0.0
  0
LINE
  5
39
330
2B
100
AcDbEntity
  8
RAAMI
100
AcDbLine
 10
2.09975
 20
13.785
 30
0.0
 11
4.235000000000002
 21
13.785
 31
0.0
  0
LINE
  5
3A
330
2B
100
AcDbEntity
  8
RAAMI
100
AcDbLine
 10
6.800249999999999
 20
13.785
 30
0.0
 11
7.949999999999999
 21
10.5
 31
0.0
  0
LINE
  5
3B
330
2B
100
AcDbEntity
  8
RAAMI
100
AcDbLine
 10
4.665
 20
14.21499999999999
 30
0.0
 11
6.64975
 21
14.21499999999999
 31
0.0
  0
LINE
  5
3C
330
2B
100
AcDbEntity
  8
RAAMI
100
AcDbLine
 10
4.665
 20
13.785
 30
0.0
 11
6.800249999999999
 21
13.785
 31
0.0
  0
LINE
  5
3D
330
2B
100
AcDbEntity
  8
RAAMI
100
AcDbLine
 10
4.665
 20
13.785
 30
0.0
 11
4.665
 21
11.9
 31
0.0
  0
LINE
  5
3E
330
2B
100
AcDbEntity
  8
RAAMI
100
AcDbLine
 10
4.235000000000002
 20
13.785
 30
0.0
 11
4.235000000000002
 21
11.9
 31
0.0
  0
LINE
  5
3F
330
2B
100
AcDbEntity
  8
RAAMI
100
AcDbLine
 10
2.09975
 20
13.785
 30
0.0
 11
0.9499999999999992
 21
10.5
 31
0.0
  0
LINE
  5
40
330
2B
100
AcDbEntity
  8
RAAMI
100
AcDbLine
 10
8.440000000000001
 20
10.5
 30
0.0
 11
8.440000000000001
 21
13.785
 31
0.0
  0
LINE
  5
41
330
2B
100
AcDbEntity
  8
RAAMI
100
AcDbLine
 10
8.440000000000001
 20
17.5
 30
0.0
 11
10.32499999999999
 21
17.5
 31
0.0
  0
LINE
  5
42
330
2B
100
AcDbEntity
  8
RAAMI
100
AcDbLine
 10
10.32499999999999
 20
17.5
 30
0.0
 11
10.32499999999999
 21
14.21499999999999
 31
0.0
  0
LINE
  5
43
330
2B
100
AcDbEntity
  8
RAAMI
100
AcDbLine
 10
10.32499999999999
 20
14.21499999999999
 30
0.0
 11
8.440000000000001
 21
14.21499999999999
 31
0.0
  0
LINE
  5
44
330
2B
100
AcDbEntity
  8
RAAMI
100
AcDbLine
 10
8.440000000000001
 20
13.785
 30
0.0
 11
10.32499999999999
 21
13.785
 31
0.0
  0
LINE
  5
45
330
2B
100
AcDbEntity
  8
RAAMI
100
AcDbLine
 10
10.32499999999999
 20
13.785
 30
0.0
 11
10.32499999999999
 21
10.5
 31
0.0
  0
LINE
  5
46
330
2B
100
AcDbEntity
  8
RAAMI
100
AcDbLine
 10
10.32499999999999
 20
10.5
 30
0.0
 11
8.440000000000001
 21
10.5
 31
0.0
  0
LINE
  5
47
330
2B
100
AcDbEntity
  8
RAAMI
100
AcDbLine
 10
8.440000000000001
 20
14.21499999999999
 30
0.0
 11
8.440000000000001
 21
17.5
 31
0.0
  0
ARC
  5
48
330
2B
100
AcDbEntity
  8
RAAMI
100
AcDbCircle
 10
11.24
 20
15.925
 30
0.0
 40
1.574999999999998
100
AcDbArc
 50
298.4558593394117
 51
90.0524369955635
  0
LINE
  5
49
330
2B
100
AcDbEntity
  8
RAAMI
100
AcDbLine
 10
10.75499999999999
 20
17.49999934039966
 30
0.0
 11
11.23855856300088
 21
17.49999934039966
 31
0.0
  0
LINE
  5
4A
330
2B
100
AcDbEntity
  8
RAAMI
100
AcDbLine
 10
10.75499999999999
 20
17.5
 30
0.0
 11
10.75499999999999
 21
14.21499999999999
 31
0.0
  0
LINE
  5
4B
330
2B
100
AcDbEntity
  8
RAAMI
100
AcDbLine
 10
10.75499999999999
 20
14.21499999999999
 30
0.0
 11
12.5823021269446
 21
14.21499999999999
 31
0.0
  0
LINE
  5
4C
330
2B
100
AcDbEntity
  8
RAAMI
100
AcDbLine
 10
12.97371710495109
 20
13.785
 30
0.0
 11
10.75499999999999
 21
13.785
 31
0.0
  0
LINE
  5
4D
330
2B
100
AcDbEntity
  8
RAAMI
100
AcDbLine
 10
10.75499999999999
 20
13.785
 30
0.0
 11
10.75499999999999
 21
10.5
 31
0.0
  0
ARC
  5
4E
330
2B
100
AcDbEntity
  8
RAAMI
100
AcDbCircle
 10
11.24
 20
12.6
 30
0.0
 40
2.099999999999998
100
AcDbArc
 50
269.9377244294032
 51
34.35270472657853
  0
LINE
  5
4F
330
2B
100
AcDbEntity
  8
RAAMI
100
AcDbLine
 10
10.75499999999999
 20
10.50000124045045
 30
0.0
 11
11.23771748157343
 21
10.50000124045045
 31
0.0
  0
ARC
  5
50
330
2B
100
AcDbEntity
  8
RAAMI
100
AcDbCircle
 10
11.24
 20
12.6
 30
0.0
 40
2.099999999999998
100
AcDbArc
 50
50.26844274022763
 51
68.78799932186918
  0
INSERT
  5
51
330
2B
100
AcDbEntity
  8
RAAMI
100
AcDbBlockReference
  2
*X2
 10
0.0
 20
0.0
 30
0.0
  0
INSERT
  5
52
330
2B
100
AcDbEntity
  8
RAAMI
100
AcDbBlockReference
  2
*X3
 10
0.0
 20
0.0
 30
0.0
  0
INSERT
  5
53
330
2B
100
AcDbEntity
  8
RAAMI
100
AcDbBlockReference
  2
*X4
 10
0.0
 20
0.0
 30
0.0
  0
INSERT
  5
54
330
2B
100
AcDbEntity
  8
RAAMI
100
AcDbBlockReference
  2
*X5
 10
0.0
 20
0.0
 30
0.0
  0
INSERT
  5
55
330
2B
100
AcDbEntity
  8
RAAMI
100
AcDbBlockReference
  2
*X6
 10
0.0
 20
0.0
 30
0.0
  0
INSERT
  5
56
330
2B
100
AcDbEntity
  8
RAAMI
100
AcDbBlockReference
  2
*X7
 10
0.0
 20
0.0
 30
0.0
  0
INSERT
  5
57
330
2B
100
AcDbEntity
  8
RAAMI
100
AcDbBlockReference
  2
*X8
 10
0.0
 20
0.0
 30
0.0
  0
INSERT
  5
58
330
2B
100
AcDbEntity
  8
RAAMI
100
AcDbBlockReference
  2
*X9
 10
0.0
 20
0.0
 30
0.0
  0
INSERT
  5
59
330
2B
100
AcDbEntity
  8
RAAMI
100
AcDbBlockReference
  2
*X9
 10
5.459999999999997
 20
0.0
 30
0.0
  0
INSERT
  5
5A
330
2B
100
AcDbEntity
  8
RAAMI
100
AcDbBlockReference
  2
*X8
 10
5.459999999999997
 20
0.0
 30
0.0
  0
INSERT
  5
5B
330
2B
100
AcDbEntity
  8
RAAMI
100
AcDbBlockReference
  2
*X7
 10
5.459999999999997
 20
0.0
 30
0.0
  0
INSERT
  5
5C
330
2B
100
AcDbEntity
  8
RAAMI
100
AcDbBlockReference
  2
*X6
 10
5.459999999999997
 20
0.0
 30
0.0
  0
ARC
  5
5D
330
2B
100
AcDbEntity
  8
RAAMI
100
AcDbCircle
 10
16.69999999999999
 20
12.6
 30
0.0
 40
2.099999999999998
100
AcDbArc
 50
50.26844274022763
 51
68.78799932186918
  0
LINE
  5
5E
330
2B
100
AcDbEntity
  8
RAAMI
100
AcDbLine
 10
16.21499999999999
 20
10.50000124045045
 30
0.0
 11
16.69771748157342
 21
10.50000124045045
 31
0.0
  0
ARC
  5
5F
330
2B
100
AcDbEntity
  8
RAAMI
100
AcDbCircle
 10
16.69999999999999
 20
12.6
 30
0.0
 40
2.099999999999998
100
AcDbArc
 50
269.9377244294032
 51
34.35270472657853
  0
LINE
  5
60
330
2B
100
AcDbEntity
  8
RAAMI
100
AcDbLine
 10
16.21499999999999
 20
13.785
 30
0.0
 11
16.21499999999999
 21
10.5
 31
0.0
  0
LINE
  5
61
330
2B
100
AcDbEntity
  8
RAAMI
100
AcDbLine
 10
18.43371710495109
 20
13.785
 30
0.0
 11
16.21499999999999
 21
13.785
 31
0.0
  0
LINE
  5
62
330
2B
100
AcDbEntity
  8
RAAMI
100
AcDbLine
 10
16.21499999999999
 20
14.21499999999999
 30
0.0
 11
18.04230212694459
 21
14.21499999999999
 31
0.0
  0
LINE
  5
63
330
2B
100
AcDbEntity
  8
RAAMI
100
AcDbLine
 10
16.21499999999999
 20
17.5
 30
0.0
 11
16.21499999999999
 21
14.21499999999999
 31
0.0
  0
LINE
  5
64
330
2B
100
AcDbEntity
  8
RAAMI
100
AcDbLine
 10
16.21499999999999
 20
17.49999934039966
 30
0.0
 11
16.69855856300087
 21
17.49999934039966
 31
0.0
  0
ARC
  5
65
330
2B
100
AcDbEntity
  8
RAAMI
100
AcDbCircle
 10
16.69999999999999
 20
15.925
 30
0.0
 40
1.574999999999998
100
AcDbArc
 50
298.4558593394117
 51
90.0524369955635
  0
LINE
  5
66
330
2B
100
AcDbEntity
  8
RAAMI
100
AcDbLine
 10
13.89999999999999
 20
14.21499999999999
 30
0.0
 11
13.89999999999999
 21
17.5
 31
0.0
  0
LINE
  5
67
330
2B
100
AcDbEntity
  8
RAAMI
100
AcDbLine
 10
15.78499999999999
 20
10.5
 30
0.0
 11
13.89999999999999
 21
10.5
 31
0.0
  0
LINE
  5
68
330
2B
100
AcDbEntity
  8
RAAMI
100
AcDbLine
 10
15.78499999999999
 20
13.785
 30
0.0
 11
15.78499999999999
 21
10.5
 31
0.0
  0
LINE
  5
69
330
2B
100
AcDbEntity
  8
RAAMI
100
AcDbLine
 10
13.89999999999999
 20
13.785
 30
0.0
 11
15.78499999999999
 21
13.785
 31
0.0
  0
LINE
  5
6A
330
2B
100
AcDbEntity
  8
RAAMI
100
AcDbLine
 10
15.78499999999999
 20
14.21499999999999
 30
0.0
 11
13.89999999999999
 21
14.21499999999999
 31
0.0
  0
LINE
  5
6B
330
2B
100
AcDbEntity
  8
RAAMI
100
AcDbLine
 10
15.78499999999999
 20
17.5
 30
0.0
 11
15.78499999999999
 21
14.21499999999999
 31
0.0
  0
LINE
  5
6C
330
2B
100
AcDbEntity
  8
RAAMI
100
AcDbLine
 10
13.89999999999999
 20
17.5
 30
0.0
 11
15.78499999999999
 21
17.5
 31
0.0
  0
LINE
  5
6D
330
2B
100
AcDbEntity
  8
RAAMI
100
AcDbLine
 10
13.89999999999999
 20
10.5
 30
0.0
 11
13.89999999999999
 21
13.785
 31
0.0
  0
ENDBLK
  5
6F
330
2B
100
AcDbEntity
  8
0
100
AcDbBlockEnd
  0
BLOCK
  5
8E
330
70
100
AcDbEntity
  8
0
100
AcDbBlockBegin
  2
*X2
 70
     1
 10
0.0
 20
0.0
 30
0.0
  3
*X2
  1

  0
LINE
  5
71
330
70
100
AcDbEntity
  8
0
 62
     0
100
AcDbLine
 10
2.585038841218752
 20
15.17153954633929
 30
0.0
 11
4.235000000000002
 21
16.82150070512054
 31
0.0
  0
LINE
  5
72
330
70
100
AcDbEntity
  8
0
 62
     0
100
AcDbLine
 10
2.661188802269611
 20
15.38911086362746
 30
0.0
 11
4.235000000000002
 21
16.96292206135785
 31
0.0
  0
LINE
  5
73
330
70
100
AcDbEntity
  8
0
 62
     0
100
AcDbLine
 10
2.737338763320471
 20
15.60668218091563
 30
0.0
 11
4.235000000000002
 21
17.10434341759516
 31
0.0
  0
LINE
  5
74
330
70
100
AcDbEntity
  8
0
 62
     0
100
AcDbLine
 10
2.81348872437133
 20
15.8242534982038
 30
0.0
 11
4.235000000000002
 21
17.24576477383247
 31
0.0
  0
LINE
  5
75
330
70
100
AcDbEntity
  8
0
 62
     0
100
AcDbLine
 10
2.889638685422188
 20
16.04182481549197
 30
0.0
 11
4.235000000000002
 21
17.38718613006978
 31
0.0
  0
LINE
  5
76
330
70
100
AcDbEntity
  8
0
 62
     0
100
AcDbLine
 10
2.965788646473047
 20
16.25939613278013
 30
0.0
 11
4.206392513692907
 21
17.5
 31
0.0
  0
LINE
  5
77
330
70
100
AcDbEntity
  8
0
 62
     0
100
AcDbLine
 10
3.041938607523906
 20
16.4769674500683
 30
0.0
 11
4.064971157455597
 21
17.5
 31
0.0
  0
LINE
  5
78
330
70
100
AcDbEntity
  8
0
 62
     0
100
AcDbLine
 10
3.118088568574766
 20
16.69453876735648
 30
0.0
 11
3.923549801218286
 21
17.5
 31
0.0
  0
LINE
  5
79
330
70
100
AcDbEntity
  8
0
 62
     0
100
AcDbLine
 10
3.194238529625625
 20
16.91211008464464
 30
0.0
 11
3.782128444980977
 21
17.5
 31
0.0
  0
LINE
  5
7A
330
70
100
AcDbEntity
  8
0
 62
     0
100
AcDbLine
 10
3.270388490676483
 20
17.12968140193281
 30
0.0
 11
3.640707088743668
 21
17.5
 31
0.0
  0
LINE
  5
7B
330
70
100
AcDbEntity
  8
0
 62
     0
100
AcDbLine
 10
3.346538451727341
 20
17.34725271922098
 30
0.0
 11
3.499285732506359
 21
17.5
 31
0.0
  0
LINE
  5
7C
330
70
100
AcDbEntity
  8
0
 62
     0
100
AcDbLine
 10
2.508888880167894
 20
14.95396822905113
 30
0.0
 11
4.235000000000002
 21
16.68007934888324
 31
0.0
  0
LINE
  5
7D
330
70
100
AcDbEntity
  8
0
 62
     0
100
AcDbLine
 10
2.432738919117035
 20
14.73639691176296
 30
0.0
 11
4.235000000000002
 21
16.53865799264593
 31
0.0
  0
LINE
  5
7E
330
70
100
AcDbEntity
  8
0
 62
     0
100
AcDbLine
 10
2.356588958066176
 20
14.51882559447479
 30
0.0
 11
4.235000000000002
 21
16.39723663640862
 31
0.0
  0
LINE
  5
7F
330
70
100
AcDbEntity
  8
0
 62
     0
100
AcDbLine
 10
2.280438997015318
 20
14.30125427718662
 30
0.0
 11
4.235000000000002
 21
16.25581528017131
 31
0.0
  0
LINE
  5
80
330
70
100
AcDbEntity
  8
0
 62
     0
100
AcDbLine
 10
2.335606076066001
 20
14.21499999999999
 30
0.0
 11
4.235000000000002
 21
16.114393923934
 31
0.0
  0
LINE
  5
81
330
70
100
AcDbEntity
  8
0
 62
     0
100
AcDbLine
 10
2.47702743230331
 20
14.21499999999999
 30
0.0
 11
4.235000000000002
 21
15.97297256769669
 31
0.0
  0
LINE
  5
82
330
70
100
AcDbEntity
  8
0
 62
     0
100
AcDbLine
 10
2.618448788540619
 20
14.21499999999999
 30
0.0
 11
4.235000000000002
 21
15.83155121145938
 31
0.0
  0
LINE
  5
83
330
70
100
AcDbEntity
  8
0
 62
     0
100
AcDbLine
 10
2.759870144777928
 20
14.21499999999999
 30
0.0
 11
4.235000000000002
 21
15.69012985522207
 31
0.0
  0
LINE
  5
84
330
70
100
AcDbEntity
  8
0
 62
     0
100
AcDbLine
 10
2.901291501015239
 20
14.21499999999999
 30
0.0
 11
4.235000000000002
 21
15.54870849898476
 31
0.0
  0
LINE
  5
85
330
70
100
AcDbEntity
  8
0
 62
     0
100
AcDbLine
 10
3.042712857252547
 20
14.21499999999999
 30
0.0
 11
4.235000000000002
 21
15.40728714274745
 31
0.0
  0
LINE
  5
86
330
70
100
AcDbEntity
  8
0
 62
     0
100
AcDbLine
 10
3.184134213489858
 20
14.21499999999999
 30
0.0
 11
4.235000000000002
 21
15.26586578651014
 31
0.0
  0
LINE
  5
87
330
70
100
AcDbEntity
  8
0
 62
     0
100
AcDbLine
 10
3.325555569727167
 20
14.21499999999999
 30
0.0
 11
4.235000000000002
 21
15.12444443027283
 31
0.0
  0
LINE
  5
88
330
70
100
AcDbEntity
  8
0
 62
     0
100
AcDbLine
 10
3.466976925964476
 20
14.21499999999999
 30
0.0
 11
4.235000000000002
 21
14.98302307403552
 31
0.0
  0
LINE
  5
89
330
70
100
AcDbEntity
  8
0
 62
     0
100
AcDbLine
 10
3.608398282201786
 20
14.21499999999999
 30
0.0
 11
4.235000000000002
 21
14.84160171779821
 31
0.0
  0
LINE
  5
8A
330
70
100
AcDbEntity
  8
0
 62
     0
100
AcDbLine
 10
3.749819638439095
 20
14.21499999999999
 30
0.0
 11
4.235000000000002
 21
14.7001803615609
 31
0.0
  0
LINE
  5
8B
330
70
100
AcDbEntity
  8
0
 62
     0
100
AcDbLine
 10
3.891240994676405
 20
14.21499999999999
 30
0.0
 11
4.235000000000002
 21
14.55875900532359
 31
0.0
  0
LINE
  5
8C
330
70
100
AcDbEntity
  8
0
 62
     0
100
AcDbLine
 10
4.032662350913715
 20
14.21499999999999
 30
0.0
 11
4.235000000000002
 21
14.41733764908628
 31
0.0
  0
LINE
  5
8D
330
70
100
AcDbEntity
  8
0
 62
     0
100
AcDbLine
 10
4.174083707151023
 20
14.21499999999999
 30
0.0
 11
4.235000000000002
 21
14.27591629284898
 31
0.0
  0
ENDBLK
  5
8F
330
70
100
AcDbEntity
  8
0
100
AcDbBlockEnd
  0
BLOCK
  5
B6
330
90
100
AcDbEntity
  8
0
100
AcDbBlockBegin
  2
*X3
 70
     1
 10
0.0
 20
0.0
 30
0.0
  3
*X3
  1

  0
LINE
  5
91
330
90
100
AcDbEntity
  8
0
 62
     0
100
AcDbLine
 10
4.665
 20
14.84733764908628
 30
0.0
 11
5.971245794681333
 21
16.15358344376762
 31
0.0
  0
LINE
  5
92
330
90
100
AcDbEntity
  8
0
 62
     0
100
AcDbLine
 10
4.665
 20
14.98875900532359
 30
0.0
 11
5.934580998619808
 21
16.2583400039434
 31
0.0
  0
LINE
  5
93
330
90
100
AcDbEntity
  8
0
 62
     0
100
AcDbLine
 10
4.665
 20
15.1301803615609
 30
0.0
 11
5.897916202558284
 21
16.36309656411919
 31
0.0
  0
LINE
  5
94
330
90
100
AcDbEntity
  8
0
 62
     0
100
AcDbLine
 10
4.665
 20
15.27160171779821
 30
0.0
 11
5.861251406496759
 21
16.46785312429497
 31
0.0
  0
LINE
  5
95
330
90
100
AcDbEntity
  8
0
 62
     0
100
AcDbLine
 10
4.665
 20
15.41302307403552
 30
0.0
 11
5.824586610435234
 21
16.57260968447076
 31
0.0
  0
LINE
  5
96
330
90
100
AcDbEntity
  8
0
 62
     0
100
AcDbLine
 10
4.665
 20
15.55444443027283
 30
0.0
 11
5.787921814373709
 21
16.67736624464654
 31
0.0
  0
LINE
  5
97
330
90
100
AcDbEntity
  8
0
 62
     0
100
AcDbLine
 10
4.665
 20
15.69586578651014
 30
0.0
 11
5.751257018312185
 21
16.78212280482232
 31
0.0
  0
LINE
  5
98
330
90
100
AcDbEntity
  8
0
 62
     0
100
AcDbLine
 10
4.665
 20
15.83728714274745
 30
0.0
 11
5.71459222225066
 21
16.88687936499811
 31
0.0
  0
LINE
  5
99
330
90
100
AcDbEntity
  8
0
 62
     0
100
AcDbLine
 10
4.665
 20
15.97870849898476
 30
0.0
 11
5.677927426189135
 21
16.99163592517389
 31
0.0
  0
LINE
  5
9A
330
90
100
AcDbEntity
  8
0
 62
     0
100
AcDbLine
 10
4.665
 20
16.12012985522207
 30
0.0
 11
5.64126263012761
 21
17.09639248534968
 31
0.0
  0
LINE
  5
9B
330
90
100
AcDbEntity
  8
0
 62
     0
100
AcDbLine
 10
4.665
 20
16.26155121145938
 30
0.0
 11
5.604597834066086
 21
17.20114904552546
 31
0.0
  0
LINE
  5
9C
330
90
100
AcDbEntity
  8
0
 62
     0
100
AcDbLine
 10
4.665
 20
16.40297256769668
 30
0.0
 11
5.567933038004562
 21
17.30590560570125
 31
0.0
  0
LINE
  5
9D
330
90
100
AcDbEntity
  8
0
 62
     0
100
AcDbLine
 10
4.665
 20
16.54439392393399
 30
0.0
 11
5.531268241943037
 21
17.41066216587703
 31
0.0
  0
LINE
  5
9E
330
90
100
AcDbEntity
  8
0
 62
     0
100
AcDbLine
 10
4.665
 20
16.68581528017131
 30
0.0
 11
5.47918471982869
 21
17.5
 31
0.0
  0
LINE
  5
9F
330
90
100
AcDbEntity
  8
0
 62
     0
100
AcDbLine
 10
4.665
 20
16.82723663640862
 30
0.0
 11
5.337763363591381
 21
17.5
 31
0.0
  0
LINE
  5
A0
330
90
100
AcDbEntity
  8
0
 62
     0
100
AcDbLine
 10
4.665
 20
16.96865799264593
 30
0.0
 11
5.196342007354072
 21
17.5
 31
0.0
  0
LINE
  5
A1
330
90
100
AcDbEntity
  8
0
 62
     0
100
AcDbLine
 10
4.665
 20
17.11007934888324
 30
0.0
 11
5.054920651116764
 21
17.5
 31
0.0
  0
LINE
  5
A2
330
90
100
AcDbEntity
  8
0
 62
     0
100
AcDbLine
 10
4.665
 20
17.25150070512054
 30
0.0
 11
4.913499294879454
 21
17.5
 31
0.0
  0
LINE
  5
A3
330
90
100
AcDbEntity
  8
0
 62
     0
100
AcDbLine
 10
4.665
 20
17.39292206135785
 30
0.0
 11
4.772077938642145
 21
17.5
 31
0.0
  0
LINE
  5
A4
330
90
100
AcDbEntity
  8
0
 62
     0
100
AcDbLine
 10
4.665
 20
14.70591629284897
 30
0.0
 11
6.007910590742858
 21
16.04882688359183
 31
0.0
  0
LINE
  5
A5
330
90
100
AcDbEntity
  8
0
 62
     0
100
AcDbLine
 10
4.665
 20
14.56449493661166
 30
0.0
 11
6.044575386804383
 21
15.94407032341604
 31
0.0
  0
LINE
  5
A6
330
90
100
AcDbEntity
  8
0
 62
     0
100
AcDbLine
 10
4.665
 20
14.42307358037435
 30
0.0
 11
6.081240182865907
 21
15.83931376324026
 31
0.0
  0
LINE
  5
A7
330
90
100
AcDbEntity
  8
0
 62
     0
100
AcDbLine
 10
4.665
 20
14.28165222413704
 30
0.0
 11
6.117904978927431
 21
15.73455720306447
 31
0.0
  0
LINE
  5
A8
330
90
100
AcDbEntity
  8
0
 62
     0
100
AcDbLine
 10
4.739769132100263
 20
14.21499999999999
 30
0.0
 11
6.154569774988956
 21
15.62980064288869
 31
0.0
  0
LINE
  5
A9
330
90
100
AcDbEntity
  8
0
 62
     0
100
AcDbLine
 10
4.881190488337572
 20
14.21499999999999
 30
0.0
 11
6.191234571050481
 21
15.52504408271291
 31
0.0
  0
LINE
  5
AA
330
90
100
AcDbEntity
  8
0
 62
     0
100
AcDbLine
 10
5.022611844574882
 20
14.21499999999999
 30
0.0
 11
6.227899367112006
 21
15.42028752253712
 31
0.0
  0
LINE
  5
AB
330
90
100
AcDbEntity
  8
0
 62
     0
100
AcDbLine
 10
5.164033200812191
 20
14.21499999999999
 30
0.0
 11
6.26456416317353
 21
15.31553096236134
 31
0.0
  0
LINE
  5
AC
330
90
100
AcDbEntity
  8
0
 62
     0
100
AcDbLine
 10
5.305454557049501
 20
14.21499999999999
 30
0.0
 11
6.301228959235055
 21
15.21077440218555
 31
0.0
  0
LINE
  5
AD
330
90
100
AcDbEntity
  8
0
 62
     0
100
AcDbLine
 10
5.44687591328681
 20
14.21499999999999
 30
0.0
 11
6.33789375529658
 21
15.10601784200977
 31
0.0
  0
LINE
  5
AE
330
90
100
AcDbEntity
  8
0
 62
     0
100
AcDbLine
 10
5.58829726952412
 20
14.21499999999999
 30
0.0
 11
6.374558551358104
 21
15.00126128183398
 31
0.0
  0
LINE
  5
AF
330
90
100
AcDbEntity
  8
0
 62
     0
100
AcDbLine
 10
5.72971862576143
 20
14.21499999999999
 30
0.0
 11
6.411223347419629
 21
14.8965047216582
 31
0.0
  0
LINE
  5
B0
330
90
100
AcDbEntity
  8
0
 62
     0
100
AcDbLine
 10
5.871139981998739
 20
14.21499999999999
 30
0.0
 11
6.447888143481153
 21
14.79174816148241
 31
0.0
  0
LINE
  5
B1
330
90
100
AcDbEntity
  8
0
 62
     0
100
AcDbLine
 10
6.012561338236047
 20
14.21499999999999
 30
0.0
 11
6.484552939542679
 21
14.68699160130663
 31
0.0
  0
LINE
  5
B2
330
90
100
AcDbEntity
  8
0
 62
     0
100
AcDbLine
 10
6.153982694473358
 20
14.21499999999999
 30
0.0
 11
6.521217735604203
 21
14.58223504113084
 31
0.0
  0
LINE
  5
B3
330
90
100
AcDbEntity
  8
0
 62
     0
100
AcDbLine
 10
6.295404050710667
 20
14.21499999999999
 30
0.0
 11
6.557882531665728
 21
14.47747848095506
 31
0.0
  0
LINE
  5
B4
330
90
100
AcDbEntity
  8
0
 62
     0
100
AcDbLine
 10
6.436825406947978
 20
14.21499999999999
 30
0.0
 11
6.594547327727252
 21
14.37272192077927
 31
0.0
  0
LINE
  5
B5
330
90
100
AcDbEntity
  8
0
 62
     0
100
AcDbLine
 10
6.578246763185286
 20
14.21499999999999
 30
0.0
 11
6.631212123788778
 21
14.26796536060349
 31
0.0
  0
ENDBLK
  5
B7
330
90
100
AcDbEntity
  8
0
100
AcDbBlockEnd
  0
BLOCK
  5
DB
330
B8
100
AcDbEntity
  8
0
100
AcDbBlockBegin
  2
*X4
 70
     1
 10
0.0
 20
0.0
 30
0.0
  3
*X4
  1

  0
LINE
  5
B9
330
B8
100
AcDbEntity
  8
0
 62
     0
100
AcDbLine
 10
1.024769132100263
 20
10.5
 30
0.0
 11
4.235000000000002
 21
13.71023086789974
 31
0.0
  0
LINE
  5
BA
330
B8
100
AcDbEntity
  8
0
 62
     0
100
AcDbLine
 10
0.9858896591507162
 20
10.60254188328776
 30
0.0
 11
4.168347775862955
 21
13.785
 31
0.0
  0
LINE
  5
BB
330
B8
100
AcDbEntity
  8
0
 62
     0
100
AcDbLine
 10
1.062039620201575
 20
10.82011320057593
 30
0.0
 11
4.026926419625644
 21
13.785
 31
0.0
  0
LINE
  5
BC
330
B8
100
AcDbEntity
  8
0
 62
     0
100
AcDbLine
 10
1.138189581252434
 20
11.0376845178641
 30
0.0
 11
3.885505063388335
 21
13.785
 31
0.0
  0
LINE
  5
BD
330
B8
100
AcDbEntity
  8
0
 62
     0
100
AcDbLine
 10
1.214339542303294
 20
11.25525583515226
 30
0.0
 11
3.744083707151025
 21
13.785
 31
0.0
  0
LINE
  5
BE
330
B8
100
AcDbEntity
  8
0
 62
     0
100
AcDbLine
 10
1.290489503354153
 20
11.47282715244043
 30
0.0
 11
3.602662350913716
 21
13.785
 31
0.0
  0
LINE
  5
BF
330
B8
100
AcDbEntity
  8
0
 62
     0
100
AcDbLine
 10
1.366639464405011
 20
11.6903984697286
 30
0.0
 11
3.461240994676407
 21
13.785
 31
0.0
  0
LINE
  5
C0
330
B8
100
AcDbEntity
  8
0
 62
     0
100
AcDbLine
 10
1.442789425455871
 20
11.90796978701677
 30
0.0
 11
3.319819638439096
 21
13.785
 31
0.0
  0
LINE
  5
C1
330
B8
100
AcDbEntity
  8
0
 62
     0
100
AcDbLine
 10
1.51893938650673
 20
12.12554110430494
 30
0.0
 11
3.178398282201788
 21
13.785
 31
0.0
  0
LINE
  5
C2
330
B8
100
AcDbEntity
  8
0
 62
     0
100
AcDbLine
 10
1.595089347557589
 20
12.34311242159311
 30
0.0
 11
3.036976925964477
 21
13.785
 31
0.0
  0
LINE
  5
C3
330
B8
100
AcDbEntity
  8
0
 62
     0
100
AcDbLine
 10
1.671239308608448
 20
12.56068373888128
 30
0.0
 11
2.895555569727168
 21
13.785
 31
0.0
  0
LINE
  5
C4
330
B8
100
AcDbEntity
  8
0
 62
     0
100
AcDbLine
 10
1.747389269659307
 20
12.77825505616944
 30
0.0
 11
2.754134213489859
 21
13.785
 31
0.0
  0
LINE
  5
C5
330
B8
100
AcDbEntity
  8
0
 62
     0
100
AcDbLine
 10
1.823539230710166
 20
12.99582637345761
 30
0.0
 11
2.612712857252549
 21
13.785
 31
0.0
  0
LINE
  5
C6
330
B8
100
AcDbEntity
  8
0
 62
     0
100
AcDbLine
 10
1.899689191761025
 20
13.21339769074578
 30
0.0
 11
2.47129150101524
 21
13.785
 31
0.0
  0
LINE
  5
C7
330
B8
100
AcDbEntity
  8
0
 62
     0
100
AcDbLine
 10
1.975839152811885
 20
13.43096900803395
 30
0.0
 11
2.32987014477793
 21
13.785
 31
0.0
  0
LINE
  5
C8
330
B8
100
AcDbEntity
  8
0
 62
     0
100
AcDbLine
 10
2.051989113862743
 20
13.64854032532212
 30
0.0
 11
2.188448788540621
 21
13.785
 31
0.0
  0
LINE
  5
C9
330
B8
100
AcDbEntity
  8
0
 62
     0
100
AcDbLine
 10
1.166190488337572
 20
10.5
 30
0.0
 11
4.235000000000002
 21
13.56880951166243
 31
0.0
  0
LINE
  5
CA
330
B8
100
AcDbEntity
  8
0
 62
     0
100
AcDbLine
 10
1.307611844574882
 20
10.5
 30
0.0
 11
4.235000000000002
 21
13.42738815542512
 31
0.0
  0
LINE
  5
CB
330
B8
100
AcDbEntity
  8
0
 62
     0
100
AcDbLine
 10
1.449033200812191
 20
10.5
 30
0.0
 11
4.235000000000002
 21
13.28596679918781
 31
0.0
  0
LINE
  5
CC
330
B8
100
AcDbEntity
  8
0
 62
     0
100
AcDbLine
 10
1.590454557049502
 20
10.5
 30
0.0
 11
4.235000000000002
 21
13.1445454429505
 31
0.0
  0
LINE
  5
CD
330
B8
100
AcDbEntity
  8
0
 62
     0
100
AcDbLine
 10
1.731875913286811
 20
10.5
 30
0.0
 11
4.235000000000002
 21
13.00312408671319
 31
0.0
  0
LINE
  5
CE
330
B8
100
AcDbEntity
  8
0
 62
     0
100
AcDbLine
 10
1.87329726952412
 20
10.5
 30
0.0
 11
3.145147624102399
 21
11.77185035457827
 31
0.0
  0
LINE
  5
CF
330
B8
100
AcDbEntity
  8
0
 62
     0
100
AcDbLine
 10
3.27329726952412
 20
11.9
 30
0.0
 11
4.235000000000002
 21
12.86170273047588
 31
0.0
  0
LINE
  5
D0
330
B8
100
AcDbEntity
  8
0
 62
     0
100
AcDbLine
 10
2.01471862576143
 20
10.5
 30
0.0
 11
3.068997663051539
 21
11.5542790372901
 31
0.0
  0
LINE
  5
D1
330
B8
100
AcDbEntity
  8
0
 62
     0
100
AcDbLine
 10
3.41471862576143
 20
11.9
 30
0.0
 11
4.235000000000002
 21
12.72028137423857
 31
0.0
  0
LINE
  5
D2
330
B8
100
AcDbEntity
  8
0
 62
     0
100
AcDbLine
 10
2.156139981998739
 20
10.5
 30
0.0
 11
2.99284770200068
 21
11.33670772000194
 31
0.0
  0
LINE
  5
D3
330
B8
100
AcDbEntity
  8
0
 62
     0
100
AcDbLine
 10
3.556139981998739
 20
11.9
 30
0.0
 11
4.235000000000002
 21
12.57886001800126
 31
0.0
  0
LINE
  5
D4
330
B8
100
AcDbEntity
  8
0
 62
     0
100
AcDbLine
 10
2.297561338236048
 20
10.5
 30
0.0
 11
2.91669774094982
 21
11.11913640271377
 31
0.0
  0
LINE
  5
D5
330
B8
100
AcDbEntity
  8
0
 62
     0
100
AcDbLine
 10
3.697561338236048
 20
11.9
 30
0.0
 11
4.235000000000002
 21
12.43743866176395
 31
0.0
  0
LINE
  5
D6
330
B8
100
AcDbEntity
  8
0
 62
     0
100
AcDbLine
 10
2.438982694473358
 20
10.5
 30
0.0
 11
2.84054777989896
 21
10.9015650854256
 31
0.0
  0
LINE
  5
D7
330
B8
100
AcDbEntity
  8
0
 62
     0
100
AcDbLine
 10
3.838982694473358
 20
11.9
 30
0.0
 11
4.235000000000002
 21
12.29601730552664
 31
0.0
  0
LINE
  5
D8
330
B8
100
AcDbEntity
  8
0
 62
     0
100
AcDbLine
 10
2.580404050710667
 20
10.5
 30
0.0
 11
2.764397818848101
 21
10.68399376813743
 31
0.0
  0
LINE
  5
D9
330
B8
100
AcDbEntity
  8
0
 62
     0
100
AcDbLine
 10
3.980404050710667
 20
11.9
 30
0.0
 11
4.235000000000002
 21
12.15459594928933
 31
0.0
  0
LINE
  5
DA
330
B8
100
AcDbEntity
  8
0
 62
     0
100
AcDbLine
 10
4.121825406947977
 20
11.9
 30
0.0
 11
4.235000000000002
 21
12.01317459305202
 31
0.0
  0
ENDBLK
  5
DC
330
B8
100
AcDbEntity
  8
0
100
AcDbBlockEnd
  0
BLOCK
  5
10C
330
DD
100
AcDbEntity
  8
0
100
AcDbBlockBegin
  2
*X5
 70
     1
 10
0.0
 20
0.0
 30
0.0
  3
*X5
  1

  0
LINE
  5
DE
330
DD
100
AcDbEntity
  8
0
 62
     0
100
AcDbLine
 10
5.811558176292301
 20
11.60983378202199
 30
0.0
 11
7.107854472588599
 21
12.90613007831828
 31
0.0
  0
LINE
  5
DF
330
DD
100
AcDbEntity
  8
0
 62
     0
100
AcDbLine
 10
5.774893380230777
 20
11.71459034219777
 30
0.0
 11
7.071189676527073
 21
13.01088663849407
 31
0.0
  0
LINE
  5
E0
330
DD
100
AcDbEntity
  8
0
 62
     0
100
AcDbLine
 10
5.738228584169251
 20
11.81934690237356
 30
0.0
 11
7.034524880465549
 21
13.11564319866985
 31
0.0
  0
LINE
  5
E1
330
DD
100
AcDbEntity
  8
0
 62
     0
100
AcDbLine
 10
5.677460325558382
 20
11.9
 30
0.0
 11
6.997860084404024
 21
13.22039975884564
 31
0.0
  0
LINE
  5
E2
330
DD
100
AcDbEntity
  8
0
 62
     0
100
AcDbLine
 10
5.536038969321073
 20
11.9
 30
0.0
 11
6.9611952883425
 21
13.32515631902142
 31
0.0
  0
LINE
  5
E3
330
DD
100
AcDbEntity
  8
0
 62
     0
100
AcDbLine
 10
5.394617613083763
 20
11.9
 30
0.0
 11
6.924530492280974
 21
13.42991287919721
 31
0.0
  0
LINE
  5
E4
330
DD
100
AcDbEntity
  8
0
 62
     0
100
AcDbLine
 10
5.253196256846454
 20
11.9
 30
0.0
 11
6.88786569621945
 21
13.53466943937299
 31
0.0
  0
LINE
  5
E5
330
DD
100
AcDbEntity
  8
0
 62
     0
100
AcDbLine
 10
5.111774900609144
 20
11.9
 30
0.0
 11
6.851200900157925
 21
13.63942599954878
 31
0.0
  0
LINE
  5
E6
330
DD
100
AcDbEntity
  8
0
 62
     0
100
AcDbLine
 10
4.970353544371834
 20
11.9
 30
0.0
 11
6.814536104096401
 21
13.74418255972456
 31
0.0
  0
LINE
  5
E7
330
DD
100
AcDbEntity
  8
0
 62
     0
100
AcDbLine
 10
4.828932188134526
 20
11.9
 30
0.0
 11
6.713932188134525
 21
13.785
 31
0.0
  0
LINE
  5
E8
330
DD
100
AcDbEntity
  8
0
 62
     0
100
AcDbLine
 10
4.687510831897216
 20
11.9
 30
0.0
 11
6.572510831897214
 21
13.785
 31
0.0
  0
LINE
  5
E9
330
DD
100
AcDbEntity
  8
0
 62
     0
100
AcDbLine
 10
4.665
 20
12.01891052434009
 30
0.0
 11
6.431089475659906
 21
13.785
 31
0.0
  0
LINE
  5
EA
330
DD
100
AcDbEntity
  8
0
 62
     0
100
AcDbLine
 10
4.665
 20
12.1603318805774
 30
0.0
 11
6.289668119422596
 21
13.785
 31
0.0
  0
LINE
  5
EB
330
DD
100
AcDbEntity
  8
0
 62
     0
100
AcDbLine
 10
4.665
 20
12.30175323681471
 30
0.0
 11
6.148246763185286
 21
13.785
 31
0.0
  0
LINE
  5
EC
330
DD
100
AcDbEntity
  8
0
 62
     0
100
AcDbLine
 10
4.665
 20
12.44317459305202
 30
0.0
 11
6.006825406947977
 21
13.785
 31
0.0
  0
LINE
  5
ED
330
DD
100
AcDbEntity
  8
0
 62
     0
100
AcDbLine
 10
4.665
 20
12.58459594928933
 30
0.0
 11
5.865404050710667
 21
13.785
 31
0.0
  0
LINE
  5
EE
330
DD
100
AcDbEntity
  8
0
 62
     0
100
AcDbLine
 10
4.665
 20
12.72601730552664
 30
0.0
 11
5.723982694473358
 21
13.785
 31
0.0
  0
LINE
  5
EF
330
DD
100
AcDbEntity
  8
0
 62
     0
100
AcDbLine
 10
4.665
 20
12.86743866176395
 30
0.0
 11
5.582561338236048
 21
13.785
 31
0.0
  0
LINE
  5
F0
330
DD
100
AcDbEntity
  8
0
 62
     0
100
AcDbLine
 10
4.665
 20
13.00886001800126
 30
0.0
 11
5.441139981998738
 21
13.785
 31
0.0
  0
LINE
  5
F1
330
DD
100
AcDbEntity
  8
0
 62
     0
100
AcDbLine
 10
4.665
 20
13.15028137423857
 30
0.0
 11
5.299718625761429
 21
13.785
 31
0.0
  0
LINE
  5
F2
330
DD
100
AcDbEntity
  8
0
 62
     0
100
AcDbLine
 10
4.665
 20
13.29170273047588
 30
0.0
 11
5.158297269524119
 21
13.785
 31
0.0
  0
LINE
  5
F3
330
DD
100
AcDbEntity
  8
0
 62
     0
100
AcDbLine
 10
4.665
 20
13.43312408671319
 30
0.0
 11
5.01687591328681
 21
13.785
 31
0.0
  0
LINE
  5
F4
330
DD
100
AcDbEntity
  8
0
 62
     0
100
AcDbLine
 10
4.665
 20
13.57454544295049
 30
0.0
 11
4.875454557049502
 21
13.785
 31
0.0
  0
LINE
  5
F5
330
DD
100
AcDbEntity
  8
0
 62
     0
100
AcDbLine
 10
4.665
 20
13.71596679918781
 30
0.0
 11
4.734033200812191
 21
13.785
 31
0.0
  0
LINE
  5
F6
330
DD
100
AcDbEntity
  8
0
 62
     0
100
AcDbLine
 10
5.848222972353826
 20
11.5050772218462
 30
0.0
 11
7.144519268650123
 21
12.8013735181425
 31
0.0
  0
LINE
  5
F7
330
DD
100
AcDbEntity
  8
0
 62
     0
100
AcDbLine
 10
5.88488776841535
 20
11.40032066167042
 30
0.0
 11
7.181184064711648
 21
12.69661695796671
 31
0.0
  0
LINE
  5
F8
330
DD
100
AcDbEntity
  8
0
 62
     0
100
AcDbLine
 10
5.921552564476876
 20
11.29556410149463
 30
0.0
 11
7.217848860773172
 21
12.59186039779093
 31
0.0
  0
LINE
  5
F9
330
DD
100
AcDbEntity
  8
0
 62
     0
100
AcDbLine
 10
5.9582173605384
 20
11.19080754131885
 30
0.0
 11
7.254513656834697
 21
12.48710383761514
 31
0.0
  0
LINE
  5
FA
330
DD
100
AcDbEntity
  8
0
 62
     0
100
AcDbLine
 10
5.994882156599925
 20
11.08605098114306
 30
0.0
 11
7.291178452896222
 21
12.38234727743936
 31
0.0
  0
LINE
  5
FB
330
DD
100
AcDbEntity
  8
0
 62
     0
100
AcDbLine
 10
6.031546952661449
 20
10.98129442096728
 30
0.0
 11
7.327843248957746
 21
12.27759071726358
 31
0.0
  0
LINE
  5
FC
330
DD
100
AcDbEntity
  8
0
 62
     0
100
AcDbLine
 10
6.068211748722974
 20
10.87653786079149
 30
0.0
 11
7.364508045019271
 21
12.17283415708779
 31
0.0
  0
LINE
  5
FD
330
DD
100
AcDbEntity
  8
0
 62
     0
100
AcDbLine
 10
6.104876544784499
 20
10.77178130061571
 30
0.0
 11
7.401172841080795
 21
12.06807759691201
 31
0.0
  0
LINE
  5
FE
330
DD
100
AcDbEntity
  8
0
 62
     0
100
AcDbLine
 10
6.141541340846024
 20
10.66702474043992
 30
0.0
 11
7.437837637142321
 21
11.96332103673622
 31
0.0
  0
LINE
  5
FF
330
DD
100
AcDbEntity
  8
0
 62
     0
100
AcDbLine
 10
6.178206136907548
 20
10.56226818026414
 30
0.0
 11
7.474502433203845
 21
11.85856447656044
 31
0.0
  0
LINE
  5
100
330
DD
100
AcDbEntity
  8
0
 62
     0
100
AcDbLine
 10
6.257359312880715
 20
10.5
 30
0.0
 11
7.51116722926537
 21
11.75380791638465
 31
0.0
  0
LINE
  5
101
330
DD
100
AcDbEntity
  8
0
 62
     0
100
AcDbLine
 10
6.398780669118024
 20
10.5
 30
0.0
 11
7.547832025326894
 21
11.64905135620887
 31
0.0
  0
LINE
  5
102
330
DD
100
AcDbEntity
  8
0
 62
     0
100
AcDbLine
 10
6.540202025355334
 20
10.5
 30
0.0
 11
7.584496821388419
 21
11.54429479603308
 31
0.0
  0
LINE
  5
103
330
DD
100
AcDbEntity
  8
0
 62
     0
100
AcDbLine
 10
6.681623381592643
 20
10.5
 30
0.0
 11
7.621161617449944
 21
11.4395382358573
 31
0.0
  0
LINE
  5
104
330
DD
100
AcDbEntity
  8
0
 62
     0
100
AcDbLine
 10
6.823044737829953
 20
10.5
 30
0.0
 11
7.657826413511468
 21
11.33478167568151
 31
0.0
  0
LINE
  5
105
330
DD
100
AcDbEntity
  8
0
 62
     0
100
AcDbLine
 10
6.964466094067263
 20
10.5
 30
0.0
 11
7.694491209572993
 21
11.23002511550573
 31
0.0
  0
LINE
  5
106
330
DD
100
AcDbEntity
  8
0
 62
     0
100
AcDbLine
 10
7.105887450304572
 20
10.5
 30
0.0
 11
7.731156005634518
 21
11.12526855532994
 31
0.0
  0
LINE
  5
107
330
DD
100
AcDbEntity
  8
0
 62
     0
100
AcDbLine
 10
7.247308806541881
 20
10.5
 30
0.0
 11
7.767820801696043
 21
11.02051199515416
 31
0.0
  0
LINE
  5
108
330
DD
100
AcDbEntity
  8
0
 62
     0
100
AcDbLine
 10
7.388730162779191
 20
10.5
 30
0.0
 11
7.804485597757567
 21
10.91575543497837
 31
0.0
  0
LINE
  5
109
330
DD
100
AcDbEntity
  8
0
 62
     0
100
AcDbLine
 10
7.5301515190165
 20
10.5
 30
0.0
 11
7.841150393819092
 21
10.81099887480259
 31
0.0
  0
LINE
  5
10A
330
DD
100
AcDbEntity
  8
0
 62
     0
100
AcDbLine
 10
7.671572875253811
 20
10.5
 30
0.0
 11
7.877815189880617
 21
10.7062423146268
 31
0.0
  0
LINE
  5
10B
330
DD
100
AcDbEntity
  8
0
 62
     0
100
AcDbLine
 10
7.81299423149112
 20
10.5
 30
0.0
 11
7.914479985942141
 21
10.60148575445102
 31
0.0
  0
ENDBLK
  5
10D
330
DD
100
AcDbEntity
  8
0
100
AcDbBlockEnd
  0
BLOCK
  5
134
330
10E
100
AcDbEntity
  8
0
100
AcDbBlockBegin
  2
*X6
 70
     1
 10
0.0
 20
0.0
 30
0.0
  3
*X6
  1

  0
LINE
  5
10F
330
10E
100
AcDbEntity
  8
0
 62
     0
100
AcDbLine
 10
8.440000000000001
 20
14.80396103067892
 30
0.0
 11
10.325
 21
16.68896103067893
 31
0.0
  0
LINE
  5
110
330
10E
100
AcDbEntity
  8
0
 62
     0
100
AcDbLine
 10
8.440000000000001
 20
14.94538238691624
 30
0.0
 11
10.325
 21
16.83038238691623
 31
0.0
  0
LINE
  5
111
330
10E
100
AcDbEntity
  8
0
 62
     0
100
AcDbLine
 10
8.440000000000001
 20
15.08680374315354
 30
0.0
 11
10.325
 21
16.97180374315354
 31
0.0
  0
LINE
  5
112
330
10E
100
AcDbEntity
  8
0
 62
     0
100
AcDbLine
 10
8.440000000000001
 20
15.22822509939086
 30
0.0
 11
10.325
 21
17.11322509939085
 31
0.0
  0
LINE
  5
113
330
10E
100
AcDbEntity
  8
0
 62
     0
100
AcDbLine
 10
8.440000000000001
 20
15.36964645562816
 30
0.0
 11
10.325
 21
17.25464645562816
 31
0.0
  0
LINE
  5
114
330
10E
100
AcDbEntity
  8
0
 62
     0
100
AcDbLine
 10
8.440000000000001
 20
15.51106781186547
 30
0.0
 11
10.325
 21
17.39606781186547
 31
0.0
  0
LINE
  5
115
330
10E
100
AcDbEntity
  8
0
 62
     0
100
AcDbLine
 10
8.440000000000001
 20
15.65248916810278
 30
0.0
 11
10.28751083189721
 21
17.5
 31
0.0
  0
LINE
  5
116
330
10E
100
AcDbEntity
  8
0
 62
     0
100
AcDbLine
 10
8.440000000000001
 20
15.79391052434009
 30
0.0
 11
10.1460894756599
 21
17.5
 31
0.0
  0
LINE
  5
117
330
10E
100
AcDbEntity
  8
0
 62
     0
100
AcDbLine
 10
8.440000000000001
 20
15.9353318805774
 30
0.0
 11
10.00466811942259
 21
17.5
 31
0.0
  0
LINE
  5
118
330
10E
100
AcDbEntity
  8
0
 62
     0
100
AcDbLine
 10
8.440000000000001
 20
16.07675323681471
 30
0.0
 11
9.863246763185287
 21
17.5
 31
0.0
  0
LINE
  5
119
330
10E
100
AcDbEntity
  8
0
 62
     0
100
AcDbLine
 10
8.440000000000001
 20
16.21817459305202
 30
0.0
 11
9.72182540694798
 21
17.5
 31
0.0
  0
LINE
  5
11A
330
10E
100
AcDbEntity
  8
0
 62
     0
100
AcDbLine
 10
8.440000000000001
 20
16.35959594928933
 30
0.0
 11
9.580404050710669
 21
17.5
 31
0.0
  0
LINE
  5
11B
330
10E
100
AcDbEntity
  8
0
 62
     0
100
AcDbLine
 10
8.440000000000001
 20
16.50101730552664
 30
0.0
 11
9.438982694473359
 21
17.5
 31
0.0
  0
LINE
  5
11C
330
10E
100
AcDbEntity
  8
0
 62
     0
100
AcDbLine
 10
8.440000000000001
 20
16.64243866176395
 30
0.0
 11
9.297561338236048
 21
17.5
 31
0.0
  0
LINE
  5
11D
330
10E
100
AcDbEntity
  8
0
 62
     0
100
AcDbLine
 10
8.440000000000001
 20
16.78386001800126
 30
0.0
 11
9.156139981998741
 21
17.5
 31
0.0
  0
LINE
  5
11E
330
10E
100
AcDbEntity
  8
0
 62
     0
100
AcDbLine
 10
8.440000000000001
 20
16.92528137423857
 30
0.0
 11
9.014718625761432
 21
17.5
 31
0.0
  0
LINE
  5
11F
330
10E
100
AcDbEntity
  8
0
 62
     0
100
AcDbLine
 10
8.440000000000001
 20
17.06670273047588
 30
0.0
 11
8.873297269524121
 21
17.5
 31
0.0
  0
LINE
  5
120
330
10E
100
AcDbEntity
  8
0
 62
     0
100
AcDbLine
 10
8.440000000000001
 20
17.20812408671319
 30
0.0
 11
8.731875913286812
 21
17.5
 31
0.0
  0
LINE
  5
121
330
10E
100
AcDbEntity
  8
0
 62
     0
100
AcDbLine
 10
8.440000000000001
 20
17.3495454429505
 30
0.0
 11
8.590454557049502
 21
17.5
 31
0.0
  0
LINE
  5
122
330
10E
100
AcDbEntity
  8
0
 62
     0
100
AcDbLine
 10
8.440000000000001
 20
17.49096679918781
 30
0.0
 11
8.449033200812193
 21
17.5
 31
0.0
  0
LINE
  5
123
330
10E
100
AcDbEntity
  8
0
 62
     0
100
AcDbLine
 10
8.440000000000001
 20
14.66253967444162
 30
0.0
 11
10.325
 21
16.54753967444162
 31
0.0
  0
LINE
  5
124
330
10E
100
AcDbEntity
  8
0
 62
     0
100
AcDbLine
 10
8.440000000000001
 20
14.52111831820431
 30
0.0
 11
10.325
 21
16.40611831820431
 31
0.0
  0
LINE
  5
125
330
10E
100
AcDbEntity
  8
0
 62
     0
100
AcDbLine
 10
8.440000000000001
 20
14.379696961967
 30
0.0
 11
10.325
 21
16.264696961967
 31
0.0
  0
LINE
  5
126
330
10E
100
AcDbEntity
  8
0
 62
     0
100
AcDbLine
 10
8.440000000000001
 20
14.23827560572969
 30
0.0
 11
10.325
 21
16.12327560572969
 31
0.0
  0
LINE
  5
127
330
10E
100
AcDbEntity
  8
0
 62
     0
100
AcDbLine
 10
8.55814575050762
 20
14.21499999999999
 30
0.0
 11
10.325
 21
15.98185424949238
 31
0.0
  0
LINE
  5
128
330
10E
100
AcDbEntity
  8
0
 62
     0
100
AcDbLine
 10
8.699567106744929
 20
14.21499999999999
 30
0.0
 11
10.325
 21
15.84043289325507
 31
0.0
  0
LINE
  5
129
330
10E
100
AcDbEntity
  8
0
 62
     0
100
AcDbLine
 10
8.840988462982238
 20
14.21499999999999
 30
0.0
 11
10.325
 21
15.69901153701776
 31
0.0
  0
LINE
  5
12A
330
10E
100
AcDbEntity
  8
0
 62
     0
100
AcDbLine
 10
8.982409819219547
 20
14.21499999999999
 30
0.0
 11
10.325
 21
15.55759018078045
 31
0.0
  0
LINE
  5
12B
330
10E
100
AcDbEntity
  8
0
 62
     0
100
AcDbLine
 10
9.123831175456857
 20
14.21499999999999
 30
0.0
 11
10.325
 21
15.41616882454314
 31
0.0
  0
LINE
  5
12C
330
10E
100
AcDbEntity
  8
0
 62
     0
100
AcDbLine
 10
9.265252531694168
 20
14.21499999999999
 30
0.0
 11
10.325
 21
15.27474746830583
 31
0.0
  0
LINE
  5
12D
330
10E
100
AcDbEntity
  8
0
 62
     0
100
AcDbLine
 10
9.406673887931477
 20
14.21499999999999
 30
0.0
 11
10.325
 21
15.13332611206852
 31
0.0
  0
LINE
  5
12E
330
10E
100
AcDbEntity
  8
0
 62
     0
100
AcDbLine
 10
9.548095244168786
 20
14.21499999999999
 30
0.0
 11
10.325
 21
14.99190475583121
 31
0.0
  0
LINE
  5
12F
330
10E
100
AcDbEntity
  8
0
 62
     0
100
AcDbLine
 10
9.689516600406095
 20
14.21499999999999
 30
0.0
 11
10.325
 21
14.8504833995939
 31
0.0
  0
LINE
  5
130
330
10E
100
AcDbEntity
  8
0
 62
     0
100
AcDbLine
 10
9.830937956643404
 20
14.21499999999999
 30
0.0
 11
10.325
 21
14.70906204335659
 31
0.0
  0
LINE
  5
131
330
10E
100
AcDbEntity
  8
0
 62
     0
100
AcDbLine
 10
9.972359312880714
 20
14.21499999999999
 30
0.0
 11
10.325
 21
14.56764068711928
 31
0.0
  0
LINE
  5
132
330
10E
100
AcDbEntity
  8
0
 62
     0
100
AcDbLine
 10
10.11378066911802
 20
14.21499999999999
 30
0.0
 11
10.325
 21
14.42621933088197
 31
0.0
  0
LINE
  5
133
330
10E
100
AcDbEntity
  8
0
 62
     0
100
AcDbLine
 10
10.25520202535533
 20
14.21499999999999
 30
0.0
 11
10.325
 21
14.28479797464467
 31
0.0
  0
ENDBLK
  5
135
330
10E
100
AcDbEntity
  8
0
100
AcDbBlockEnd
  0
BLOCK
  5
15B
330
136
100
AcDbEntity
  8
0
100
AcDbBlockBegin
  2
*X7
 70
     1
 10
0.0
 20
0.0
 30
0.0
  3
*X7
  1

  0
LINE
  5
137
330
136
100
AcDbEntity
  8
0
 62
     0
100
AcDbLine
 10
8.440000000000001
 20
11.12700576850888
 30
0.0
 11
10.325
 21
13.01200576850888
 31
0.0
  0
LINE
  5
138
330
136
100
AcDbEntity
  8
0
 62
     0
100
AcDbLine
 10
8.440000000000001
 20
11.26842712474619
 30
0.0
 11
10.325
 21
13.15342712474619
 31
0.0
  0
LINE
  5
139
330
136
100
AcDbEntity
  8
0
 62
     0
100
AcDbLine
 10
8.440000000000001
 20
11.4098484809835
 30
0.0
 11
10.325
 21
13.2948484809835
 31
0.0
  0
LINE
  5
13A
330
136
100
AcDbEntity
  8
0
 62
     0
100
AcDbLine
 10
8.440000000000001
 20
11.55126983722081
 30
0.0
 11
10.325
 21
13.43626983722081
 31
0.0
  0
LINE
  5
13B
330
136
100
AcDbEntity
  8
0
 62
     0
100
AcDbLine
 10
8.440000000000001
 20
11.69269119345812
 30
0.0
 11
10.325
 21
13.57769119345812
 31
0.0
  0
LINE
  5
13C
330
136
100
AcDbEntity
  8
0
 62
     0
100
AcDbLine
 10
8.440000000000001
 20
11.83411254969543
 30
0.0
 11
10.325
 21
13.71911254969543
 31
0.0
  0
LINE
  5
13D
330
136
100
AcDbEntity
  8
0
 62
     0
100
AcDbLine
 10
8.440000000000001
 20
11.97553390593274
 30
0.0
 11
10.24946609406726
 21
13.785
 31
0.0
  0
LINE
  5
13E
330
136
100
AcDbEntity
  8
0
 62
     0
100
AcDbLine
 10
8.440000000000001
 20
12.11695526217004
 30
0.0
 11
10.10804473782995
 21
13.785
 31
0.0
  0
LINE
  5
13F
330
136
100
AcDbEntity
  8
0
 62
     0
100
AcDbLine
 10
8.440000000000001
 20
12.25837661840736
 30
0.0
 11
9.966623381592642
 21
13.785
 31
0.0
  0
LINE
  5
140
330
136
100
AcDbEntity
  8
0
 62
     0
100
AcDbLine
 10
8.440000000000001
 20
12.39979797464466
 30
0.0
 11
9.825202025355332
 21
13.785
 31
0.0
  0
LINE
  5
141
330
136
100
AcDbEntity
  8
0
 62
     0
100
AcDbLine
 10
8.440000000000001
 20
12.54121933088197
 30
0.0
 11
9.683780669118023
 21
13.785
 31
0.0
  0
LINE
  5
142
330
136
100
AcDbEntity
  8
0
 62
     0
100
AcDbLine
 10
8.440000000000001
 20
12.68264068711928
 30
0.0
 11
9.542359312880714
 21
13.785
 31
0.0
  0
LINE
  5
143
330
136
100
AcDbEntity
  8
0
 62
     0
100
AcDbLine
 10
8.440000000000001
 20
12.82406204335659
 30
0.0
 11
9.400937956643405
 21
13.785
 31
0.0
  0
LINE
  5
144
330
136
100
AcDbEntity
  8
0
 62
     0
100
AcDbLine
 10
8.440000000000001
 20
12.9654833995939
 30
0.0
 11
9.259516600406096
 21
13.785
 31
0.0
  0
LINE
  5
145
330
136
100
AcDbEntity
  8
0
 62
     0
100
AcDbLine
 10
8.440000000000001
 20
13.10690475583121
 30
0.0
 11
9.118095244168785
 21
13.785
 31
0.0
  0
LINE
  5
146
330
136
100
AcDbEntity
  8
0
 62
     0
100
AcDbLine
 10
8.440000000000001
 20
13.24832611206852
 30
0.0
 11
8.976673887931477
 21
13.785
 31
0.0
  0
LINE
  5
147
330
136
100
AcDbEntity
  8
0
 62
     0
100
AcDbLine
 10
8.440000000000001
 20
13.38974746830583
 30
0.0
 11
8.835252531694166
 21
13.785
 31
0.0
  0
LINE
  5
148
330
136
100
AcDbEntity
  8
0
 62
     0
100
AcDbLine
 10
8.440000000000001
 20
13.53116882454314
 30
0.0
 11
8.693831175456857
 21
13.785
 31
0.0
  0
LINE
  5
149
330
136
100
AcDbEntity
  8
0
 62
     0
100
AcDbLine
 10
8.440000000000001
 20
13.67259018078045
 30
0.0
 11
8.552409819219548
 21
13.785
 31
0.0
  0
LINE
  5
14A
330
136
100
AcDbEntity
  8
0
 62
     0
100
AcDbLine
 10
8.440000000000001
 20
10.98558441227157
 30
0.0
 11
10.325
 21
12.87058441227157
 31
0.0
  0
LINE
  5
14B
330
136
100
AcDbEntity
  8
0
 62
     0
100
AcDbLine
 10
8.440000000000001
 20
10.84416305603426
 30
0.0
 11
10.325
 21
12.72916305603426
 31
0.0
  0
LINE
  5
14C
330
136
100
AcDbEntity
  8
0
 62
     0
100
AcDbLine
 10
8.440000000000001
 20
10.70274169979695
 30
0.0
 11
10.325
 21
12.58774169979695
 31
0.0
  0
LINE
  5
14D
330
136
100
AcDbEntity
  8
0
 62
     0
100
AcDbLine
 10
8.440000000000001
 20
10.56132034355964
 30
0.0
 11
10.325
 21
12.44632034355964
 31
0.0
  0
LINE
  5
14E
330
136
100
AcDbEntity
  8
0
 62
     0
100
AcDbLine
 10
8.520101012677667
 20
10.5
 30
0.0
 11
10.325
 21
12.30489898732233
 31
0.0
  0
LINE
  5
14F
330
136
100
AcDbEntity
  8
0
 62
     0
100
AcDbLine
 10
8.661522368914976
 20
10.5
 30
0.0
 11
10.325
 21
12.16347763108502
 31
0.0
  0
LINE
  5
150
330
136
100
AcDbEntity
  8
0
 62
     0
100
AcDbLine
 10
8.802943725152285
 20
10.5
 30
0.0
 11
10.325
 21
12.02205627484771
 31
0.0
  0
LINE
  5
151
330
136
100
AcDbEntity
  8
0
 62
     0
100
AcDbLine
 10
8.944365081389594
 20
10.5
 30
0.0
 11
10.325
 21
11.8806349186104
 31
0.0
  0
LINE
  5
152
330
136
100
AcDbEntity
  8
0
 62
     0
100
AcDbLine
 10
9.085786437626904
 20
10.5
 30
0.0
 11
10.325
 21
11.73921356237309
 31
0.0
  0
LINE
  5
153
330
136
100
AcDbEntity
  8
0
 62
     0
100
AcDbLine
 10
9.227207793864213
 20
10.5
 30
0.0
 11
10.325
 21
11.59779220613578
 31
0.0
  0
LINE
  5
154
330
136
100
AcDbEntity
  8
0
 62
     0
100
AcDbLine
 10
9.368629150101524
 20
10.5
 30
0.0
 11
10.325
 21
11.45637084989847
 31
0.0
  0
LINE
  5
155
330
136
100
AcDbEntity
  8
0
 62
     0
100
AcDbLine
 10
9.510050506338833
 20
10.5
 30
0.0
 11
10.325
 21
11.31494949366116
 31
0.0
  0
LINE
  5
156
330
136
100
AcDbEntity
  8
0
 62
     0
100
AcDbLine
 10
9.651471862576142
 20
10.5
 30
0.0
 11
10.325
 21
11.17352813742385
 31
0.0
  0
LINE
  5
157
330
136
100
AcDbEntity
  8
0
 62
     0
100
AcDbLine
 10
9.792893218813452
 20
10.5
 30
0.0
 11
10.325
 21
11.03210678118655
 31
0.0
  0
LINE
  5
158
330
136
100
AcDbEntity
  8
0
 62
     0
100
AcDbLine
 10
9.934314575050761
 20
10.5
 30
0.0
 11
10.325
 21
10.89068542494924
 31
0.0
  0
LINE
  5
159
330
136
100
AcDbEntity
  8
0
 62
     0
100
AcDbLine
 10
10.07573593128807
 20
10.5
 30
0.0
 11
10.325
 21
10.74926406871193
 31
0.0
  0
LINE
  5
15A
330
136
100
AcDbEntity
  8
0
 62
     0
100
AcDbLine
 10
10.21715728752538
 20
10.5
 30
0.0
 11
10.325
 21
10.60784271247461
 31
0.0
  0
ENDBLK
  5
15C
330
136
100
AcDbEntity
  8
0
100
AcDbBlockEnd
  0
BLOCK
  5
183
330
15D
100
AcDbEntity
  8
0
100
AcDbBlockBegin
  2
*X8
 70
     1
 10
0.0
 20
0.0
 30
0.0
  3
*X8
  1

  0
LINE
  5
15E
330
15D
100
AcDbEntity
  8
0
 62
     0
100
AcDbLine
 10
10.75499999999999
 20
14.85621933088197
 30
0.0
 11
12.60665195119362
 21
16.70787128207559
 31
0.0
  0
LINE
  5
15F
330
15D
100
AcDbEntity
  8
0
 62
     0
100
AcDbLine
 10
10.75499999999999
 20
14.99764068711928
 30
0.0
 11
12.55268873087672
 21
16.795329417996
 31
0.0
  0
LINE
  5
160
330
15D
100
AcDbEntity
  8
0
 62
     0
100
AcDbLine
 10
10.75499999999999
 20
15.13906204335659
 30
0.0
 11
12.49395055341158
 21
16.87801259676817
 31
0.0
  0
LINE
  5
161
330
15D
100
AcDbEntity
  8
0
 62
     0
100
AcDbLine
 10
10.75499999999999
 20
15.2804833995939
 30
0.0
 11
12.43059182218045
 21
16.95607522177436
 31
0.0
  0
LINE
  5
162
330
15D
100
AcDbEntity
  8
0
 62
     0
100
AcDbLine
 10
10.75499999999999
 20
15.42190475583121
 30
0.0
 11
12.36270405049246
 21
17.02960880632368
 31
0.0
  0
LINE
  5
163
330
15D
100
AcDbEntity
  8
0
 62
     0
100
AcDbLine
 10
10.75499999999999
 20
15.56332611206852
 30
0.0
 11
12.29032173141587
 21
17.09864784348439
 31
0.0
  0
LINE
  5
164
330
15D
100
AcDbEntity
  8
0
 62
     0
100
AcDbLine
 10
10.75499999999999
 20
15.70474746830583
 30
0.0
 11
12.21342448184601
 21
17.16317195015184
 31
0.0
  0
LINE
  5
165
330
15D
100
AcDbEntity
  8
0
 62
     0
100
AcDbLine
 10
10.75499999999999
 20
15.84616882454314
 30
0.0
 11
12.13193578000449
 21
17.22310460454764
 31
0.0
  0
LINE
  5
166
330
15D
100
AcDbEntity
  8
0
 62
     0
100
AcDbLine
 10
10.75499999999999
 20
15.98759018078045
 30
0.0
 11
12.04571810938003
 21
17.27830829016048
 31
0.0
  0
LINE
  5
167
330
15D
100
AcDbEntity
  8
0
 62
     0
100
AcDbLine
 10
10.75499999999999
 20
16.12901153701776
 30
0.0
 11
11.95456376436614
 21
17.3285753013839
 31
0.0
  0
LINE
  5
168
330
15D
100
AcDbEntity
  8
0
 62
     0
100
AcDbLine
 10
10.75499999999999
 20
16.27043289325507
 30
0.0
 11
11.85817979995458
 21
17.37361269320965
 31
0.0
  0
LINE
  5
169
330
15D
100
AcDbEntity
  8
0
 62
     0
100
AcDbLine
 10
10.75499999999999
 20
16.41185424949237
 30
0.0
 11
11.75616435283253
 21
17.41301860232491
 31
0.0
  0
LINE
  5
16A
330
15D
100
AcDbEntity
  8
0
 62
     0
100
AcDbLine
 10
10.75499999999999
 20
16.55327560572969
 30
0.0
 11
11.64796929664345
 21
17.44624490237314
 31
0.0
  0
LINE
  5
16B
330
15D
100
AcDbEntity
  8
0
 62
     0
100
AcDbLine
 10
10.75499999999999
 20
16.69469696196699
 30
0.0
 11
11.53283975161226
 21
17.47253671357926
 31
0.0
  0
LINE
  5
16C
330
15D
100
AcDbEntity
  8
0
 62
     0
100
AcDbLine
 10
10.75499999999999
 20
16.83611831820431
 30
0.0
 11
11.40971149630951
 21
17.49082981451382
 31
0.0
  0
LINE
  5
16D
330
15D
100
AcDbEntity
  8
0
 62
     0
100
AcDbLine
 10
10.75499999999999
 20
16.97753967444161
 30
0.0
 11
11.2770250730259
 21
17.49956474746751
 31
0.0
  0
LINE
  5
16E
330
15D
100
AcDbEntity
  8
0
 62
     0
100
AcDbLine
 10
10.75499999999999
 20
17.11896103067893
 30
0.0
 11
11.13603830972073
 21
17.49999934039966
 31
0.0
  0
LINE
  5
16F
330
15D
100
AcDbEntity
  8
0
 62
     0
100
AcDbLine
 10
10.75499999999999
 20
17.26038238691623
 30
0.0
 11
10.99461695348342
 21
17.49999934039966
 31
0.0
  0
LINE
  5
170
330
15D
100
AcDbEntity
  8
0
 62
     0
100
AcDbLine
 10
10.75499999999999
 20
17.40180374315354
 30
0.0
 11
10.85319559724611
 21
17.49999934039966
 31
0.0
  0
LINE
  5
171
330
15D
100
AcDbEntity
  8
0
 62
     0
100
AcDbLine
 10
10.75499999999999
 20
14.71479797464466
 30
0.0
 11
12.65561241128887
 21
16.61541038593354
 31
0.0
  0
LINE
  5
172
330
15D
100
AcDbEntity
  8
0
 62
     0
100
AcDbLine
 10
10.75499999999999
 20
14.57337661840735
 30
0.0
 11
12.69925198078363
 21
16.51762859919098
 31
0.0
  0
LINE
  5
173
330
15D
100
AcDbEntity
  8
0
 62
     0
100
AcDbLine
 10
10.75499999999999
 20
14.43195526217004
 30
0.0
 11
12.73713563115315
 21
16.41409089332319
 31
0.0
  0
LINE
  5
174
330
15D
100
AcDbEntity
  8
0
 62
     0
100
AcDbLine
 10
10.75499999999999
 20
14.29053390593273
 30
0.0
 11
12.76866932616733
 21
16.30420323210007
 31
0.0
  0
LINE
  5
175
330
15D
100
AcDbEntity
  8
0
 62
     0
100
AcDbLine
 10
10.82088745030457
 20
14.215
 30
0.0
 11
12.79303113012304
 21
16.18714367981846
 31
0.0
  0
LINE
  5
176
330
15D
100
AcDbEntity
  8
0
 62
     0
100
AcDbLine
 10
10.96230880654188
 20
14.215
 30
0.0
 11
12.80905262151017
 21
16.06174381496829
 31
0.0
  0
LINE
  5
177
330
15D
100
AcDbEntity
  8
0
 62
     0
100
AcDbLine
 10
11.10373016277919
 20
14.215
 30
0.0
 11
12.81499948851172
 21
15.92626932573253
 31
0.0
  0
LINE
  5
178
330
15D
100
AcDbEntity
  8
0
 62
     0
100
AcDbLine
 10
11.2451515190165
 20
14.215
 30
0.0
 11
12.80812225109332
 21
15.77797073207682
 31
0.0
  0
LINE
  5
179
330
15D
100
AcDbEntity
  8
0
 62
     0
100
AcDbLine
 10
11.38657287525381
 20
14.215
 30
0.0
 11
12.78358863144548
 21
15.61201575619167
 31
0.0
  0
LINE
  5
17A
330
15D
100
AcDbEntity
  8
0
 62
     0
100
AcDbLine
 10
11.52799423149111
 20
14.215
 30
0.0
 11
12.73125442928398
 21
15.41826019779286
 31
0.0
  0
LINE
  5
17B
330
15D
100
AcDbEntity
  8
0
 62
     0
100
AcDbLine
 10
11.66941558772843
 20
14.215
 30
0.0
 11
11.99980823635216
 21
14.54539264862373
 31
0.0
  0
LINE
  5
17C
330
15D
100
AcDbEntity
  8
0
 62
     0
100
AcDbLine
 10
12.00867663314944
 20
14.55426104542102
 30
0.0
 11
12.61960735137626
 21
15.16519176364783
 31
0.0
  0
LINE
  5
17D
330
15D
100
AcDbEntity
  8
0
 62
     0
100
AcDbLine
 10
11.81083694396573
 20
14.215
 30
0.0
 11
12.1080374877881
 21
14.51220054382236
 31
0.0
  0
LINE
  5
17E
330
15D
100
AcDbEntity
  8
0
 62
     0
100
AcDbLine
 10
11.95225830020304
 20
14.215
 30
0.0
 11
12.20328965915022
 21
14.46603135894718
 31
0.0
  0
LINE
  5
17F
330
15D
100
AcDbEntity
  8
0
 62
     0
100
AcDbLine
 10
12.09367965644035
 20
14.215
 30
0.0
 11
12.29464391921294
 21
14.41596426277258
 31
0.0
  0
LINE
  5
180
330
15D
100
AcDbEntity
  8
0
 62
     0
100
AcDbLine
 10
12.23510101267766
 20
14.215
 30
0.0
 11
12.38226650658783
 21
14.36216549391016
 31
0.0
  0
LINE
  5
181
330
15D
100
AcDbEntity
  8
0
 62
     0
100
AcDbLine
 10
12.37652236891497
 20
14.215
 30
0.0
 11
12.46628661553598
 21
14.30476424662101
 31
0.0
  0
LINE
  5
182
330
15D
100
AcDbEntity
  8
0
 62
     0
100
AcDbLine
 10
12.51794372515228
 20
14.215
 30
0.0
 11
12.54680174666866
 21
14.24385802151638
 31
0.0
  0
ENDBLK
  5
184
330
15D
100
AcDbEntity
  8
0
100
AcDbBlockEnd
  0
BLOCK
  5
1A7
330
185
100
AcDbEntity
  8
0
100
AcDbBlockBegin
  2
*X9
 70
     1
 10
0.0
 20
0.0
 30
0.0
  3
*X9
  1

  0
LINE
  5
186
330
185
100
AcDbEntity
  8
0
 62
     0
100
AcDbLine
 10
10.75499999999999
 20
10.89642135623731
 30
0.0
 11
13.20345567881146
 21
13.34487703504876
 31
0.0
  0
LINE
  5
187
330
185
100
AcDbEntity
  8
0
 62
     0
100
AcDbLine
 10
10.75499999999999
 20
11.03784271247461
 30
0.0
 11
13.16238970184929
 21
13.4452324143239
 31
0.0
  0
LINE
  5
188
330
185
100
AcDbEntity
  8
0
 62
     0
100
AcDbLine
 10
10.75499999999999
 20
11.17926406871192
 30
0.0
 11
13.11715841360858
 21
13.54142248232051
 31
0.0
  0
LINE
  5
189
330
185
100
AcDbEntity
  8
0
 62
     0
100
AcDbLine
 10
10.75499999999999
 20
11.32068542494923
 30
0.0
 11
13.06798435218605
 21
13.63366977713529
 31
0.0
  0
LINE
  5
18A
330
185
100
AcDbEntity
  8
0
 62
     0
100
AcDbLine
 10
10.75499999999999
 20
11.46210678118654
 30
0.0
 11
13.01504338256579
 21
13.72215016375234
 31
0.0
  0
LINE
  5
18B
330
185
100
AcDbEntity
  8
0
 62
     0
100
AcDbLine
 10
10.75499999999999
 20
11.60352813742385
 30
0.0
 11
12.93647186257614
 21
13.785
 31
0.0
  0
LINE
  5
18C
330
185
100
AcDbEntity
  8
0
 62
     0
100
AcDbLine
 10
10.75499999999999
 20
11.74494949366116
 30
0.0
 11
12.79505050633883
 21
13.785
 31
0.0
  0
LINE
  5
18D
330
185
100
AcDbEntity
  8
0
 62
     0
100
AcDbLine
 10
10.75499999999999
 20
11.88637084989847
 30
0.0
 11
12.65362915010152
 21
13.785
 31
0.0
  0
LINE
  5
18E
330
185
100
AcDbEntity
  8
0
 62
     0
100
AcDbLine
 10
10.75499999999999
 20
12.02779220613578
 30
0.0
 11
12.51220779386421
 21
13.785
 31
0.0
  0
LINE
  5
18F
330
185
100
AcDbEntity
  8
0
 62
     0
100
AcDbLine
 10
10.75499999999999
 20
12.16921356237309
 30
0.0
 11
12.3707864376269
 21
13.785
 31
0.0
  0
LINE
  5
190
330
185
100
AcDbEntity
  8
0
 62
     0
100
AcDbLine
 10
10.75499999999999
 20
12.3106349186104
 30
0.0
 11
12.22936508138959
 21
13.785
 31
0.0
  0
LINE
  5
191
330
185
100
AcDbEntity
  8
0
 62
     0
100
AcDbLine
 10
10.75499999999999
 20
12.45205627484771
 30
0.0
 11
12.08794372515228
 21
13.785
 31
0.0
  0
LINE
  5
192
330
185
100
AcDbEntity
  8
0
 62
     0
100
AcDbLine
 10
10.75499999999999
 20
12.59347763108502
 30
0.0
 11
11.94652236891497
 21
13.785
 31
0.0
  0
LINE
  5
193
330
185
100
AcDbEntity
  8
0
 62
     0
100
AcDbLine
 10
10.75499999999999
 20
12.73489898732233
 30
0.0
 11
11.80510101267766
 21
13.785
 31
0.0
  0
LINE
  5
194
330
185
100
AcDbEntity
  8
0
 62
     0
100
AcDbLine
 10
10.75499999999999
 20
12.87632034355964
 30
0.0
 11
11.66367965644035
 21
13.785
 31
0.0
  0
LINE
  5
195
330
185
100
AcDbEntity
  8
0
 62
     0
100
AcDbLine
 10
10.75499999999999
 20
13.01774169979695
 30
0.0
 11
11.52225830020304
 21
13.785
 31
0.0
  0
LINE
  5
196
330
185
100
AcDbEntity
  8
0
 62
     0
100
AcDbLine
 10
10.75499999999999
 20
13.15916305603426
 30
0.0
 11
11.38083694396573
 21
13.785
 31
0.0
  0
LINE
  5
197
330
185
100
AcDbEntity
  8
0
 62
     0
100
AcDbLine
 10
10.75499999999999
 20
13.30058441227157
 30
0.0
 11
11.23941558772842
 21
13.785
 31
0.0
  0
LINE
  5
198
330
185
100
AcDbEntity
  8
0
 62
     0
100
AcDbLine
 10
10.75499999999999
 20
13.44200576850888
 30
0.0
 11
11.09799423149111
 21
13.785
 31
0.0
  0
LINE
  5
199
330
185
100
AcDbEntity
  8
0
 62
     0
100
AcDbLine
 10
10.75499999999999
 20
13.58342712474619
 30
0.0
 11
10.95657287525381
 21
13.785
 31
0.0
  0
LINE
  5
19A
330
185
100
AcDbEntity
  8
0
 62
     0
100
AcDbLine
 10
10.75499999999999
 20
13.7248484809835
 30
0.0
 11
10.8151515190165
 21
13.785
 31
0.0
  0
LINE
  5
19B
330
185
100
AcDbEntity
  8
0
 62
     0
100
AcDbLine
 10
10.75499999999999
 20
10.75499999999999
 30
0.0
 11
13.24007575540194
 21
13.24007575540194
 31
0.0
  0
LINE
  5
19C
330
185
100
AcDbEntity
  8
0
 62
     0
100
AcDbLine
 10
10.75499999999999
 20
10.61357864376269
 30
0.0
 11
13.2718950823941
 21
13.13047372615679
 31
0.0
  0
LINE
  5
19D
330
185
100
AcDbEntity
  8
0
 62
     0
100
AcDbLine
 10
10.78284395292507
 20
10.50000124045045
 30
0.0
 11
13.29846094958801
 21
13.01561823711339
 31
0.0
  0
LINE
  5
19E
330
185
100
AcDbEntity
  8
0
 62
     0
100
AcDbLine
 10
10.92426530916238
 20
10.50000124045045
 30
0.0
 11
13.3191873967026
 21
12.89492332799067
 31
0.0
  0
LINE
  5
19F
330
185
100
AcDbEntity
  8
0
 62
     0
100
AcDbLine
 10
11.06568666539969
 20
10.50000124045045
 30
0.0
 11
13.33330010266432
 21
12.76761467771509
 31
0.0
  0
LINE
  5
1A0
330
185
100
AcDbEntity
  8
0
 62
     0
100
AcDbLine
 10
11.207108021637
 20
10.50000124045045
 30
0.0
 11
13.33974633222867
 21
12.63263955104213
 31
0.0
  0
LINE
  5
1A1
330
185
100
AcDbEntity
  8
0
 62
     0
100
AcDbLine
 10
11.35148974060317
 20
10.50296160317931
 30
0.0
 11
13.33703839682068
 21
12.48851025939682
 31
0.0
  0
LINE
  5
1A2
330
185
100
AcDbEntity
  8
0
 62
     0
100
AcDbLine
 10
11.50699107720297
 20
10.5170415835418
 30
0.0
 11
13.32295841645819
 21
12.33300892279702
 31
0.0
  0
LINE
  5
1A3
330
185
100
AcDbEntity
  8
0
 62
     0
100
AcDbLine
 10
11.67743557368476
 20
10.54606472378628
 30
0.0
 11
13.29393527621371
 21
12.16256442631523
 31
0.0
  0
LINE
  5
1A4
330
185
100
AcDbEntity
  8
0
 62
     0
100
AcDbLine
 10
11.86929982173049
 20
10.59650761559471
 30
0.0
 11
13.24349238440528
 21
11.9707001782695
 31
0.0
  0
LINE
  5
1A5
330
185
100
AcDbEntity
  8
0
 62
     0
100
AcDbLine
 10
12.0970739731583
 20
10.6828604107852
 30
0.0
 11
13.15713958921479
 21
11.74292602684169
 31
0.0
  0
LINE
  5
1A6
330
185
100
AcDbEntity
  8
0
 62
     0
100
AcDbLine
 10
12.41538471448807
 20
10.85974979587767
 30
0.0
 11
12.98025020412232
 21
11.42461528551192
 31
0.0
  0
ENDBLK
  5
1A8
330
185
100
AcDbEntity
  8
0
100
AcDbBlockEnd
  0
BLOCK
  5
1B6
330
1A9
100
AcDbEntity
  8
0
100
AcDbBlockBegin
  2
A$C4
 70
     0
 10
0.0
 20
0.0
 30
0.0
  3
A$C4
  1

  0
TEXT
  5
1AA
330
1A9
100
AcDbEntity
  8
RAAMI
100
AcDbText
 10
-0.2441931095487746
 20
5.267359427125477
 30
0.0
 40
1.399999999999999
  1
PROJ
  7
ROMANS
100
AcDbText
  0
LINE
  5
1AB
330
1A9
100
AcDbEntity
  8
PISTKATK
  6
DASHDOT
100
AcDbLine
 10
17.71800043355263
 20
3.178515524645927
 30
0.0
 11
14.37542435577205
 21
3.178515524645927
 31
0.0
  0
CIRCLE
  5
1AC
330
1A9
100
AcDbEntity
  8
RAAMI
100
AcDbCircle
 10
17.71800043355263
 20
3.178515524645927
 30
0.0
 40
2.343653787115606
  0
LINE
  5
1AD
330
1A9
100
AcDbEntity
  8
PISTKATK
  6
DASHDOT
100
AcDbLine
 10
13.45279153821954
 20
3.183237031131845
 30
0.0
 11
6.216116927576166
 21
3.183237031131845
 31
0.0
  0
LINE
  5
1AE
330
1A9
100
AcDbEntity
  8
RAAMI
100
AcDbLine
 10
7.299073560640977
 20
2.028902184086533
 30
0.0
 11
12.30956819013314
 21
0.8745673370412134
 31
0.0
  0
LINE
  5
1AF
330
1A9
100
AcDbEntity
  8
RAAMI
100
AcDbLine
 10
12.30956819013314
 20
5.491906725222481
 30
0.0
 11
7.299073560640977
 21
4.222138393472636
 31
0.0
  0
LINE
  5
1B0
330
1A9
100
AcDbEntity
  8
RAAMI
100
AcDbLine
 10
7.299073560640977
 20
4.222138393472636
 30
0.0
 11
7.299073560640977
 21
2.028902184086533
 31
0.0
  0
LINE
  5
1B1
330
1A9
100
AcDbEntity
  8
RAAMI
100
AcDbLine
 10
12.30956819013314
 20
0.8745673370412134
 30
0.0
 11
12.30956819013314
 21
5.491906725222481
 31
0.0
  0
LINE
  5
1B2
330
1A9
100
AcDbEntity
  8
PISTKATK
  6
DASHDOT
100
AcDbLine
 10
17.71800043355263
 20
3.178515524645927
 30
0.0
 11
17.71800043355263
 21
0.021462716470495
 31
0.0
  0
LINE
  5
1B3
330
1A9
100
AcDbEntity
  8
PISTKATK
  6
DASHDOT
100
AcDbLine
 10
17.71800043355263
 20
3.178515524645927
 30
0.0
 11
17.71800043355263
 21
6.33556833282136
 31
0.0
  0
LINE
  5
1B4
330
1A9
100
AcDbEntity
  8
PISTKATK
  6
DASHDOT
100
AcDbLine
 10
17.71800043355263
 20
3.178515524645927
 30
0.0
 11
21.0605765113332
 21
3.178515524645927
 31
0.0
  0
CIRCLE
  5
1B5
330
1A9
100
AcDbEntity
  8
RAAMI
100
AcDbCircle
 10
17.71800043355263
 20
3.178515524645927
 30
0.0
 40
1.114664538372245
  0
ENDBLK
  5
1B7
330
1A9
100
AcDbEntity
  8
0
100
AcDbBlockEnd
  0
BLOCK
  5
220
330
1EE
100
AcDbEntity
  8
0
100
AcDbBlockBegin
  2
ABB3T
 70
     0
 10
0.0
 20
0.0
 30
0.0
  3
ABB3T
  1

  0
TEXT
  5
B8B
330
1EE
100
AcDbEntity
  8
RAAMI
100
AcDbText
 10
210.0
 20
32.0
 30
0.0
 40
1.399999999999999
  1
TEKI  PREPARED
  7
ROMANS
100
AcDbText
  0
LINE
  5
B8C
330
1EE
100
AcDbEntity
  8
OHUT
100
AcDbLine
 10
209.0
 20
26.5
 30
0.0
 11
307.0
 21
26.5
 31
0.0
  0
TEXT
  5
B8D
330
1EE
100
AcDbEntity
  8
RAAMI
100
AcDbText
 10
210.0
 20
23.73333333333334
 30
0.0
 40
1.399999999999999
  1
TARKASTI  CHECKED
  7
ROMANS
100
AcDbText
  0
LINE
  5
B8E
330
1EE
100
AcDbEntity
  8
RAAMI
100
AcDbLine
 10
209.9499999999999
 20
1.5
 30
0.0
 11
211.6999999999999
 21
1.5
 31
0.0
  0
INSERT
  5
B8F
330
1EE
100
AcDbEntity
  8
RAAMI
100
AcDbBlockReference
  2
LOGO
 10
209.0
 20
-9.0
 30
0.0
  0
TEXT
  5
B90
330
1EE
100
AcDbEntity
  8
RAAMI
100
AcDbText
 10
209.7428347258663
 20
15.46666666666664
 30
0.0
 40
1.399999999999999
  1
HYVÄKSYI  APPROVED
  7
ROMANS
100
AcDbText
  0
LINE
  5
B91
330
1EE
100
AcDbEntity
  8
PAKSU
100
AcDbLine
 10
209.0
 20
35.0
 30
0.0
 11
392.0
 21
35.0
 31
0.0
  0
LINE
  5
B92
330
1EE
100
AcDbEntity
  8
OHUT
100
AcDbLine
 10
209.0
 20
9.5
 30
0.0
 11
392.0
 21
9.5
 31
0.0
  0
LINE
  5
B93
330
1EE
100
AcDbEntity
  8
OHUT
100
AcDbLine
 10
209.0
 20
18.0
 30
0.0
 11
392.0
 21
18.0
 31
0.0
  0
LINE
  5
B94
330
1EE
100
AcDbEntity
  8
PAKSU
100
AcDbLine
 10
209.0
 20
0.0
 30
0.0
 11
392.0
 21
0.0
 31
0.0
  0
LINE
  5
B95
330
1EE
100
AcDbEntity
  8
PAKSU
100
AcDbLine
 10
0.0
 20
0.0
 30
0.0
 11
392.0
 21
0.0
 31
0.0
  0
LINE
  5
B96
330
1EE
100
AcDbEntity
  8
PAKSU
100
AcDbLine
 10
0.0
 20
262.5
 30
0.0
 11
392.0
 21
262.5
 31
0.0
  0
INSERT
  5
B97
330
1EE
100
AcDbEntity
  8
MUOTOVIIVA
100
AcDbBlockReference
  2
COPYRIGHT
 10
4.671896275298706
 20
0.5010094147980908
 30
0.0
  0
LINE
  5
B98
330
1EE
100
AcDbEntity
  8
PAKSU
100
AcDbLine
 10
0.0
 20
0.0
 30
0.0
 11
0.0
 21
262.5
 31
0.0
  0
LINE
  5
B99
330
1EE
100
AcDbEntity
  8
OHUT
100
AcDbLine
 10
40.49999999999999
 20
4.5
 30
0.0
 11
209.0
 21
4.5
 31
0.0
  0
LINE
  5
B9A
330
1EE
100
AcDbEntity
  8
OHUT
100
AcDbLine
 10
46.5
 20
9.0
 30
0.0
 11
209.0
 21
9.0
 31
0.0
  0
TEXT
  5
B9B
330
1EE
100
AcDbEntity
  8
RAAMI
100
AcDbText
 10
42.0
 20
0.9523809523809632
 30
0.0
 40
2.5
  1
B
  7
ROMANS
100
AcDbText
  0
TEXT
  5
B9C
330
1EE
100
AcDbEntity
  8
RAAMI
100
AcDbText
 10
27.5
 20
2.233333333333348
 30
0.0
 40
1.399999999999999
  1
REVISION
  7
ROMANS
100
AcDbText
  0
TEXT
  5
B9D
330
1EE
100
AcDbEntity
  8
RAAMI
100
AcDbText
 10
27.5
 20
4.5
 30
0.0
 40
1.399999999999999
  1
MUUTOS
  7
ROMANS
100
AcDbText
  0
TEXT
  5
B9E
330
1EE
100
AcDbEntity
  8
RAAMI
100
AcDbText
 10
42.0
 20
5.354421058643254
 30
0.0
 40
2.5
  1
C
  7
ROMANS
100
AcDbText
  0
LINE
  5
B9F
330
1EE
100
AcDbEntity
  8
OHUT
100
AcDbLine
 10
46.5
 20
0.0
 30
0.0
 11
46.5
 21
9.0
 31
0.0
  0
LINE
  5
BA0
330
1EE
100
AcDbEntity
  8
PAKSU
100
AcDbLine
 10
209.0
 20
0.0
 30
0.0
 11
209.0
 21
35.0
 31
0.0
  0
LINE
  5
BA1
330
1EE
100
AcDbEntity
  8
PAKSU
100
AcDbLine
 10
392.0
 20
262.5
 30
0.0
 11
392.0
 21
0.0
 31
0.0
  0
LINE
  5
BA2
330
1EE
100
AcDbEntity
  8
OHUT
100
AcDbLine
 10
257.0
 20
9.5
 30
0.0
 11
257.0
 21
35.0
 31
0.0
  0
LINE
  5
BA3
330
1EE
100
AcDbEntity
  8
OHUT
100
AcDbLine
 10
307.0
 20
0.0
 30
0.0
 11
307.0
 21
35.0
 31
0.0
  0
TEXT
  5
BA4
330
1EE
100
AcDbEntity
  8
RAAMI
100
AcDbText
 10
259.0
 20
23.5
 30
0.0
 40
1.399999999999999
  1
TOLERANSSIT  TOLERANCES
  7
ROMANS
100
AcDbText
  0
MTEXT
  5
BA5
330
1EE
100
AcDbEntity
  8
RAAMI
100
AcDbMText
 10
229.5997894316988
 20
4.023556471652455
 30
0.0
 40
2.5
 41
40.04327811644144
 71
     1
 72
     1
  1
Substation Automation 
  7
T25
 73
     1
 44
1.0
  0
TEXT
  5
BA6
330
1EE
100
AcDbEntity
  8
RAAMI
100
AcDbText
 10
229.5533819379557
 20
5.546348597761834
 30
0.0
 40
2.43
  1
ABB Oy
 41
0.8
  7
ROMANS
100
AcDbText
  0
TEXT
  5
BA7
330
1EE
100
AcDbEntity
  8
RAAMI
100
AcDbText
 10
259.0
 20
15.5
 30
0.0
 40
1.399999999999999
  1
SUHDE  SCALE
  7
ROMANS
100
AcDbText
  0
LINE
  5
BA8
330
1EE
100
AcDbEntity
  8
OHUT
100
AcDbLine
 10
281.9742533365683
 20
9.5
 30
0.0
 11
281.9742533365683
 21
0.0
 31
0.0
  0
LINE
  5
BA9
330
1EE
100
AcDbEntity
  8
RAAMI
100
AcDbLine
 10
296.1085865096258
 20
15.72551329875028
 30
0.0
 11
291.0980918801336
 21
14.45574496700044
 31
0.0
  0
LINE
  5
BAA
330
1EE
100
AcDbEntity
  8
RAAMI
  6
DASHDOT
100
AcDbLine
 10
297.2518098577122
 20
13.41684360465967
 30
0.0
 11
290.0151352470688
 21
13.41684360465967
 31
0.0
  0
LINE
  5
BAB
330
1EE
100
AcDbEntity
  8
RAAMI
100
AcDbLine
 10
291.0980918801336
 20
12.26250875761434
 30
0.0
 11
296.1085865096258
 21
11.10817391056906
 31
0.0
  0
TEXT
  5
BAC
330
1EE
100
AcDbEntity
  8
RAAMI
100
AcDbText
 10
283.9742533365683
 20
7.0
 30
0.0
 40
1.399999999999999
  1
OSASTO DEPT.
  7
ROMANS
100
AcDbText
  0
LINE
  5
BAD
330
1EE
100
AcDbEntity
  8
OHUT
100
AcDbLine
 10
282.0
 20
9.5
 30
0.0
 11
282.0
 21
18.0
 31
0.0
  0
LINE
  5
BAE
330
1EE
100
AcDbEntity
  8
RAAMI
100
AcDbLine
 10
291.0980918801336
 20
14.45574496700044
 30
0.0
 11
291.0980918801336
 21
12.26250875761434
 31
0.0
  0
TEXT
  5
BAF
330
1EE
100
AcDbEntity
  8
RAAMI
100
AcDbText
 10
283.5548252099439
 20
15.5009660006533
 30
0.0
 40
1.399999999999999
  1
PROJ
  7
ROMANS
100
AcDbText
  0
CIRCLE
  5
BB0
330
1EE
100
AcDbEntity
  8
RAAMI
100
AcDbCircle
 10
301.5170187530453
 20
13.41212209817376
 30
0.0
 40
2.343653787115606
  0
LINE
  5
BB1
330
1EE
100
AcDbEntity
  8
RAAMI
  6
DASHDOT
100
AcDbLine
 10
301.5170187530453
 20
13.41212209817376
 30
0.0
 11
301.5170187530453
 21
16.56917490634919
 31
0.0
  0
CIRCLE
  5
BB2
330
1EE
100
AcDbEntity
  8
RAAMI
100
AcDbCircle
 10
301.5170187530453
 20
13.41212209817376
 30
0.0
 40
1.114664538372245
  0
LINE
  5
BB3
330
1EE
100
AcDbEntity
  8
RAAMI
100
AcDbLine
 10
296.1085865096258
 20
11.10817391056906
 30
0.0
 11
296.1085865096258
 21
15.72551329875028
 31
0.0
  0
LINE
  5
BB4
330
1EE
100
AcDbEntity
  8
RAAMI
  6
DASHDOT
100
AcDbLine
 10
301.5170187530453
 20
13.41212209817376
 30
0.0
 11
298.1744426752647
 21
13.41212209817376
 31
0.0
  0
LINE
  5
BB5
330
1EE
100
AcDbEntity
  8
RAAMI
  6
DASHDOT
100
AcDbLine
 10
301.5170187530453
 20
13.41212209817376
 30
0.0
 11
304.8595948308259
 21
13.41212209817376
 31
0.0
  0
LINE
  5
BB6
330
1EE
100
AcDbEntity
  8
RAAMI
  6
DASHDOT
100
AcDbLine
 10
301.5170187530453
 20
13.41212209817376
 30
0.0
 11
301.5170187530453
 21
10.25506928999828
 31
0.0
  0
TEXT
  5
BB7
330
1EE
100
AcDbEntity
  8
RAAMI
100
AcDbText
 10
309.0
 20
7.0
 30
0.0
 40
1.399999999999999
  1
PIIRUSTUS NO  DRAWING NO
  7
ROMANS
100
AcDbText
  0
TEXT
  5
BB8
330
1EE
100
AcDbEntity
  8
RAAMI
100
AcDbText
 10
259.0
 20
32.5
 30
0.0
 40
1.399999999999999
  1
LIITTYY  CONCERNING
  7
ROMANS
100
AcDbText
  0
TEXT
  5
BB9
330
1EE
100
AcDbEntity
  8
RAAMI
100
AcDbText
 10
309.0
 20
32.5
 30
0.0
 40
1.399999999999999
  1
NIMITYS  NAME
  7
ROMANS
100
AcDbText
  0
LINE
  5
BBA
330
1EE
100
AcDbEntity
  8
PAKSU
100
AcDbLine
 10
392.0
 20
0.0
 30
0.0
 11
392.0
 21
35.0
 31
0.0
  0
TEXT
  5
BBB
330
1EE
100
AcDbEntity
  8
RAAMI
100
AcDbText
 10
371.0
 20
7.0
 30
0.0
 40
1.399999999999999
  1
PAINOS  REVISION
  7
ROMANS
100
AcDbText
  0
TEXT
  5
BBC
330
1EE
100
AcDbEntity
  8
RAAMI
100
AcDbText
 10
371.0
 20
15.05846792701606
 30
0.0
 40
1.399999999999999
  1
LEHTI   SHEET
  7
ROMANS
100
AcDbText
  0
LINE
  5
BBD
330
1EE
100
AcDbEntity
  8
OHUT
100
AcDbLine
 10
369.5
 20
18.0
 30
0.0
 11
369.5
 21
0.0
 31
0.0
  0
ENDBLK
  5
221
330
1EE
100
AcDbEntity
  8
0
100
AcDbBlockEnd
  0
BLOCK
  5
368
330
367
100
AcDbEntity
  8
0
100
AcDbBlockBegin
  2
VT
 70
     0
 10
0.0
 20
0.0
 30
0.0
  3
VT
  1

  0
LINE
  5
A35
330
367
100
AcDbEntity
  8
TEXT25
100
AcDbLine
 10
-31.95824794524537
 20
9.0
 30
0.0
 11
0.0
 21
9.0
 31
0.0
  0
LINE
  5
A36
330
367
100
AcDbEntity
  8
TEXT25
100
AcDbLine
 10
-31.95824794524537
 20
0.0
 30
0.0
 11
0.0
 21
0.0
 31
0.0
  0
LWPOLYLINE
  5
A37
330
367
100
AcDbEntity
  8
TEXT25
100
AcDbPolyline
 90
        2
 70
     0
 43
0.0
 10
-37.95824794524537
 20
4.499999999999971
 42
1.0
 10
-37.95824794524537
 20
8.999999999999971
 42
-0.9999999999999998
  0
LINE
  5
A38
330
367
100
AcDbEntity
  8
TEXT25
100
AcDbLine
 10
-37.95824794524537
 20
0.0
 30
0.0
 11
-43.95824794524537
 21
0.0
 31
0.0
  0
LWPOLYLINE
  5
A39
330
367
100
AcDbEntity
  8
TEXT25
100
AcDbPolyline
 90
        2
 70
     0
 43
0.0
 10
-37.95824794524537
 20
-0.0000000000000284
 42
1.0
 10
-37.95824794524537
 20
4.499999999999971
 42
-0.9999999999999998
  0
LINE
  5
A3A
330
367
100
AcDbEntity
  8
TEXT25
100
AcDbLine
 10
-37.95824794524537
 20
9.0
 30
0.0
 11
-43.95824794524537
 21
9.0
 31
0.0
  0
LWPOLYLINE
  5
A3B
330
367
100
AcDbEntity
  8
TEXT25
100
AcDbPolyline
 90
        2
 70
     0
 43
0.0
 10
-31.95824794524537
 20
4.499999999999971
 42
-1.0
 10
-31.95824794524537
 20
8.999999999999971
 42
0.9999999999999998
  0
LINE
  5
A3C
330
367
100
AcDbEntity
  8
TEXT25
100
AcDbLine
 10
-34.95824794524537
 20
9.0
 30
0.0
 11
-34.95824794524537
 21
0.0
 31
0.0
  0
LWPOLYLINE
  5
A3D
330
367
100
AcDbEntity
  8
TEXT25
100
AcDbPolyline
 90
        2
 70
     0
 43
0.0
 10
-31.95824794524537
 20
-0.0000000000000284
 42
-1.0
 10
-31.95824794524537
 20
4.499999999999971
 42
0.9999999999999998
  0
ENDBLK
  5
369
330
367
100
AcDbEntity
  8
0
100
AcDbBlockEnd
  0
BLOCK
  5
39E
330
39D
100
AcDbEntity
  8
0
100
AcDbBlockBegin
  2
CT
 70
     0
 10
0.0
 20
0.0
 30
0.0
  3
CT
  1

  0
LWPOLYLINE
  5
A03
330
39D
100
AcDbEntity
  8
TEXT25
100
AcDbPolyline
 90
        2
 70
     0
 43
0.0
 10
-38.01400563735933
 20
-3.0
 42
-0.9999999999999998
 10
-38.01400563735933
 20
-6.0
 42
1.0
  0
LINE
  5
A04
330
39D
100
AcDbEntity
  8
TEXT25
100
AcDbLine
 10
-38.01400563735933
 20
-9.0
 30
0.0
 11
-44.01400563735933
 21
-9.0
 31
0.0
  0
LWPOLYLINE
  5
A05
330
39D
100
AcDbEntity
  8
TEXT25
100
AcDbPolyline
 90
        2
 70
     0
 43
0.0
 10
-38.01400563735933
 20
-6.0
 42
-0.9999999999999998
 10
-38.01400563735933
 20
-9.0
 42
1.0
  0
LINE
  5
A06
330
39D
100
AcDbEntity
  8
TEXT25
100
AcDbLine
 10
-38.01400563735933
 20
0.0
 30
0.0
 11
-44.01400563735933
 21
0.0
 31
0.0
  0
LWPOLYLINE
  5
A07
330
39D
100
AcDbEntity
  8
TEXT25
100
AcDbPolyline
 90
        2
 70
     0
 43
0.0
 10
-38.01400563735933
 20
0.0
 42
-0.9999999999999998
 10
-38.01400563735933
 20
-3.0
 42
1.0
  0
LINE
  5
A08
330
39D
100
AcDbEntity
  8
TEXT25
100
AcDbLine
 10
-25.51400563735933
 20
0.0
 30
0.0
 11
0.0
 21
0.0
 31
0.0
  0
LINE
  5
A09
330
39D
100
AcDbEntity
  8
TEXT25
100
AcDbLine
 10
-25.51400563735933
 20
-3.0
 30
0.0
 11
0.0
 21
-3.0
 31
0.0
  0
LINE
  5
A0A
330
39D
100
AcDbEntity
  8
TEXT25
100
AcDbLine
 10
-32.01400563735933
 20
-9.0
 30
0.0
 11
0.0
 21
-9.0
 31
0.0
  0
LWPOLYLINE
  5
A0B
330
39D
100
AcDbEntity
  8
TEXT25
100
AcDbPolyline
 90
        2
 70
     0
 43
0.0
 10
-32.01400563735933
 20
-3.0
 42
0.9999999999999998
 10
-32.01400563735933
 20
-6.0
 42
-1.0
  0
LWPOLYLINE
  5
A0C
330
39D
100
AcDbEntity
  8
TEXT25
100
AcDbPolyline
 90
        2
 70
     0
 43
0.0
 10
-32.01400563735933
 20
-6.0
 42
0.9999999999999998
 10
-32.01400563735933
 20
-9.0
 42
-1.0
  0
TEXT
  5
A0D
330
39D
100
AcDbEntity
  8
TEXT25
100
AcDbText
 10
-29.51400563735933
 20
-1.0
 30
0.0
 40
2.0
  1
1A
 41
0.9
  7
T25
100
AcDbText
  0
LINE
  5
A0E
330
39D
100
AcDbEntity
  8
TEXT25
100
AcDbLine
 10
-32.01400563735933
 20
0.0
 30
0.0
 11
-30.01400563735933
 21
0.0
 31
0.0
  0
LINE
  5
A0F
330
39D
100
AcDbEntity
  8
TEXT25
100
AcDbLine
 10
-32.01400563735933
 20
-3.0
 30
0.0
 11
-30.01400563735933
 21
-3.0
 31
0.0
  0
LWPOLYLINE
  5
A10
330
39D
100
AcDbEntity
  8
TEXT25
100
AcDbPolyline
 90
        2
 70
     0
 43
0.0
 10
-32.01400563735933
 20
0.0
 42
0.9999999999999998
 10
-32.01400563735933
 20
-3.0
 42
-1.0
  0
TEXT
  5
A11
330
39D
100
AcDbEntity
  8
TEXT25
100
AcDbText
 10
-29.51400563735933
 20
-4.23809523809524
 30
0.0
 40
2.0
  1
5A
 41
0.9
  7
T25
100
AcDbText
  0
ENDBLK
  5
39F
330
39D
100
AcDbEntity
  8
0
100
AcDbBlockEnd
  0
BLOCK
  5
3F7
330
3F6
100
AcDbEntity
  8
0
100
AcDbBlockBegin
  2
SENS
 70
     0
 10
0.0
 20
0.0
 30
0.0
  3
SENS
  1

  0
LINE
  5
3F9
330
3F6
100
AcDbEntity
  8
TEXT25
100
AcDbLine
 10
-8.0
 20
1.0
 30
0.0
 11
-25.0
 21
1.0
 31
0.0
  0
LINE
  5
3FA
330
3F6
100
AcDbEntity
  8
TEXT25
100
AcDbLine
 10
-25.0
 20
4.0
 30
0.0
 11
-8.0
 21
4.0
 31
0.0
  0
LINE
  5
3FB
330
3F6
100
AcDbEntity
  8
TEXT25
100
AcDbLine
 10
-34.0
 20
7.0
 30
0.0
 11
-25.0
 21
7.0
 31
0.0
  0
LINE
  5
3FC
330
3F6
100
AcDbEntity
  8
TEXT25
100
AcDbLine
 10
-25.0
 20
-2.0
 30
0.0
 11
-34.0
 21
-2.0
 31
0.0
  0
LWPOLYLINE
  5
3FD
330
3F6
100
AcDbEntity
  8
TEXT25
100
AcDbPolyline
 90
        3
 70
     1
 43
0.0
 10
-26.5
 20
6.0
 10
-26.5
 20
-1.0
 10
-33.0
 20
2.5
  0
TEXT
  5
3FE
330
3F6
100
AcDbEntity
  8
TEXT25
100
AcDbText
 10
-33.5
 20
-1.5
 30
0.0
 40
1.5
  1
DIFF
 41
0.9
  7
T25
100
AcDbText
  0
LINE
  5
3FF
330
3F6
100
AcDbEntity
  8
TEXT25
100
AcDbLine
 10
-34.0
 20
-2.0
 30
0.0
 11
-34.0
 21
7.0
 31
0.0
  0
LINE
  5
400
330
3F6
100
AcDbEntity
  8
TEXT25
100
AcDbLine
 10
-34.0
 20
2.5
 30
0.0
 11
-39.0
 21
2.5
 31
0.0
  0
LINE
  5
401
330
3F6
100
AcDbEntity
  8
TEXT25
100
AcDbLine
 10
-40.0
 20
2.5
 30
0.0
 11
-38.0
 21
3.5
 31
0.0
  0
LINE
  5
402
330
3F6
100
AcDbEntity
  8
TEXT25
100
AcDbLine
 10
-38.0
 20
3.5
 30
0.0
 11
-38.0
 21
1.5
 31
0.0
  0
LINE
  5
403
330
3F6
100
AcDbEntity
  8
TEXT25
100
AcDbLine
 10
-38.0
 20
1.5
 30
0.0
 11
-40.0
 21
2.5
 31
0.0
  0
HATCH
  5
404
330
3F6
100
AcDbEntity
  8
TEXT25
100
AcDbHatch
 10
0.0
 20
0.0
 30
0.0
210
0.0
220
0.0
230
1.0
  2
SOLID
 70
     1
 71
     0
 91
        1
 92
        1
 93
        3
 72
     1
 10
-40.0
 20
2.5
 11
-38.0
 21
3.5
 72
     1
 10
-38.0
 20
3.5
 11
-38.0
 21
1.5
 72
     1
 10
-38.0
 20
1.5
 11
-40.0
 21
2.5
 97
        0
 75
     0
 76
     1
 98
        1
 10
-194.0
 20
-114.0
  0
LINE
  5
405
330
3F6
100
AcDbEntity
  8
TEXT25
100
AcDbLine
 10
-25.0
 20
7.0
 30
0.0
 11
-25.0
 21
-2.0
 31
0.0
  0
LWPOLYLINE
  5
406
330
3F6
100
AcDbEntity
  8
TEXT25
100
AcDbPolyline
 90
        4
 70
     1
 43
0.0
 10
-8.0
 20
5.0
 10
0.0
 20
5.0
 10
0.0
 20
0.0
 10
-8.0
 20
0.0
  0
ENDBLK
  5
3F8
330
3F6
100
AcDbEntity
  8
0
100
AcDbBlockEnd
  0
BLOCK
  5
969
330
92D
100
AcDbEntity
  8
0
100
AcDbBlockBegin
  2
UFTRAFO
 70
     0
 10
0.0
 20
0.0
 30
0.0
  3
UFTRAFO
  1

  0
LINE
  5
92E
330
92D
100
AcDbEntity
  8
TEXT25
100
AcDbLine
 10
11.75000019617135
 20
17.99999978170546
 30
0.0
 11
11.75000019617135
 21
6.5
 31
0.0
  0
LWPOLYLINE
  5
92F
330
92D
100
AcDbEntity
  8
TEXT25
100
AcDbPolyline
 90
        2
 70
     0
 43
0.0
 10
8.150000196171333
 20
7.999999781705469
 42
1.0
 10
4.550000196171367
 20
7.999999781705469
 42
-0.9999999999999998
  0
LWPOLYLINE
  5
930
330
92D
100
AcDbEntity
  8
TEXT25
100
AcDbPolyline
 90
        2
 70
     0
 43
0.0
 10
0.9500001961713451
 20
7.999999781705469
 42
-1.0
 10
4.550000196171367
 20
7.999999781705469
 42
0.9999999999999998
  0
LWPOLYLINE
  5
931
330
92D
100
AcDbEntity
  8
TEXT25
100
AcDbPolyline
 90
        2
 70
     0
 43
0.0
 10
11.75000019617135
 20
7.999999781705469
 42
1.0
 10
8.150000196171333
 20
7.999999781705469
 42
-0.9999999999999998
  0
LWPOLYLINE
  5
932
330
92D
100
AcDbEntity
  8
TEXT25
100
AcDbPolyline
 90
        2
 70
     0
 43
0.0
 10
25.15000019617133
 20
8.499999781705469
 42
1.0
 10
21.55000019617137
 20
8.499999781705469
 42
-0.9999999999999998
  0
LWPOLYLINE
  5
933
330
92D
100
AcDbEntity
  8
TEXT25
100
AcDbPolyline
 90
        2
 70
     0
 43
0.0
 10
28.75000019617136
 20
8.499999781705469
 42
1.0
 10
25.15000019617133
 20
8.499999781705469
 42
-0.9999999999999998
  0
LWPOLYLINE
  5
934
330
92D
100
AcDbEntity
  8
TEXT25
100
AcDbPolyline
 90
        2
 70
     0
 43
0.0
 10
17.95000019617134
 20
8.499999781705469
 42
-1.0
 10
21.55000019617137
 20
8.499999781705469
 42
0.9999999999999998
  0
LINE
  5
935
330
92D
100
AcDbEntity
  8
TEXT25
100
AcDbLine
 10
10.75000019617135
 20
-14.0
 30
0.0
 11
12.25000019617135
 21
-14.0
 31
0.0
  0
LINE
  5
936
330
92D
100
AcDbEntity
  8
TEXT25
100
AcDbLine
 10
12.75000019617135
 20
-14.0
 30
0.0
 11
10.75000019617135
 21
-14.0
 31
0.0
  0
LINE
  5
937
330
92D
100
AcDbEntity
  8
TEXT25
100
AcDbLine
 10
12.25000019617135
 20
-14.5
 30
0.0
 11
11.25000019617135
 21
-14.5
 31
0.0
  0
LINE
  5
938
330
92D
100
AcDbEntity
  8
TEXT25
100
AcDbLine
 10
11.75000019617135
 20
-1.0
 30
0.0
 11
0.0
 21
-2.5
 31
0.0
  0
LINE
  5
939
330
92D
100
AcDbEntity
  8
TEXT25
100
AcDbLine
 10
11.75000019617135
 20
-6.0
 30
0.0
 11
0.0
 21
-7.5
 31
0.0
  0
LWPOLYLINE
  5
93A
330
92D
100
AcDbEntity
  8
TEXT25
100
AcDbPolyline
 90
        2
 70
     0
 43
0.0
 10
8.150000196171333
 20
-5.00000021829453
 42
1.0
 10
4.550000196171367
 20
-5.00000021829453
 42
-0.9999999999999998
  0
LINE
  5
93B
330
92D
100
AcDbEntity
  8
TEXT25
100
AcDbLine
 10
11.75000019617135
 20
-12.0
 30
0.0
 11
0.0
 21
-12.0
 31
0.0
  0
LWPOLYLINE
  5
93C
330
92D
100
AcDbEntity
  8
TEXT25
100
AcDbPolyline
 90
        2
 70
     0
 43
0.0
 10
8.150000196171333
 20
-10.00000021829453
 42
1.0
 10
4.550000196171367
 20
-10.00000021829453
 42
-0.9999999999999998
  0
LINE
  5
93D
330
92D
100
AcDbEntity
  8
TEXT25
100
AcDbLine
 10
0.0
 20
-7.5
 30
0.0
 11
0.0
 21
-10.0
 31
0.0
  0
LWPOLYLINE
  5
93E
330
92D
100
AcDbEntity
  8
TEXT25
100
AcDbPolyline
 90
        2
 70
     0
 43
0.0
 10
0.9500001961713451
 20
-10.00000021829453
 42
-1.0
 10
4.550000196171367
 20
-10.00000021829453
 42
0.9999999999999998
  0
LINE
  5
93F
330
92D
100
AcDbEntity
  8
TEXT25
100
AcDbLine
 10
0.0
 20
-10.0
 30
0.0
 11
1.0
 21
-10.0
 31
0.0
  0
LWPOLYLINE
  5
940
330
92D
100
AcDbEntity
  8
TEXT25
100
AcDbPolyline
 90
        2
 70
     0
 43
0.0
 10
0.9500001961713451
 20
-5.00000021829453
 42
-1.0
 10
4.550000196171367
 20
-5.00000021829453
 42
0.9999999999999998
  0
LINE
  5
941
330
92D
100
AcDbEntity
  8
TEXT25
100
AcDbLine
 10
0.0
 20
-5.0
 30
0.0
 11
1.0
 21
-5.0
 31
0.0
  0
LINE
  5
942
330
92D
100
AcDbEntity
  8
TEXT25
100
AcDbLine
 10
0.0
 20
-2.5
 30
0.0
 11
0.0
 21
-5.0
 31
0.0
  0
LINE
  5
943
330
92D
100
AcDbEntity
  8
TEXT25
100
AcDbLine
 10
13.25000019617135
 20
-13.5
 30
0.0
 11
10.25000019617135
 21
-13.5
 31
0.0
  0
LWPOLYLINE
  5
944
330
92D
100
AcDbEntity
  8
TEXT25
100
AcDbPolyline
 90
        2
 70
     0
 43
0.0
 10
11.75000019617135
 20
-10.00000021829453
 42
1.0
 10
8.150000196171333
 20
-10.00000021829453
 42
-0.9999999999999998
  0
LINE
  5
945
330
92D
100
AcDbEntity
  8
TEXT25
100
AcDbLine
 10
11.75000019617135
 20
-10.00000021829453
 30
0.0
 11
11.75000019617135
 21
-13.5
 31
0.0
  0
LWPOLYLINE
  5
946
330
92D
100
AcDbEntity
  8
TEXT25
100
AcDbPolyline
 90
        2
 70
     1
 43
0.5
 10
11.50000019617135
 20
-12.0
 42
1.0
 10
12.00000019617135
 20
-12.0
 42
1.0
  0
LWPOLYLINE
  5
947
330
92D
100
AcDbEntity
  8
TEXT25
100
AcDbPolyline
 90
        2
 70
     0
 43
0.0
 10
11.75000019617135
 20
-5.00000021829453
 42
1.0
 10
8.150000196171333
 20
-5.00000021829453
 42
-0.9999999999999998
  0
LINE
  5
948
330
92D
100
AcDbEntity
  8
TEXT25
100
AcDbLine
 10
11.75000019617135
 20
-5.00000021829453
 30
0.0
 11
11.75000019617135
 21
-6.0
 31
0.0
  0
LWPOLYLINE
  5
949
330
92D
100
AcDbEntity
  8
TEXT25
100
AcDbPolyline
 90
        2
 70
     0
 43
0.0
 10
8.150000196171333
 20
-0.0000002182945309
 42
1.0
 10
4.550000196171367
 20
-0.0000002182945309
 42
-0.9999999999999998
  0
LWPOLYLINE
  5
94A
330
92D
100
AcDbEntity
  8
TEXT25
100
AcDbPolyline
 90
        2
 70
     0
 43
0.0
 10
0.9500001961713451
 20
-0.0000002182945309
 42
-1.0
 10
4.550000196171367
 20
-0.0000002182945309
 42
0.9999999999999998
  0
LINE
  5
94B
330
92D
100
AcDbEntity
  8
TEXT25
100
AcDbLine
 10
1.0
 20
0.0
 30
0.0
 11
0.0
 21
0.0
 31
0.0
  0
LINE
  5
94C
330
92D
100
AcDbEntity
  8
TEXT25
100
AcDbLine
 10
0.9500001961713451
 20
7.999999781705469
 30
0.0
 11
-0.5
 21
7.999999781705469
 31
0.0
  0
LWPOLYLINE
  5
94D
330
92D
100
AcDbEntity
  8
TEXT25
100
AcDbPolyline
 90
        2
 70
     0
 43
0.0
 10
11.75000019617135
 20
-0.0000002182945309
 42
1.0
 10
8.150000196171333
 20
-0.0000002182945309
 42
-0.9999999999999998
  0
LINE
  5
94E
330
92D
100
AcDbEntity
  8
TEXT25
100
AcDbLine
 10
11.75000019617135
 20
-0.0000002182945309
 30
0.0
 11
11.75000019617135
 21
-1.0
 31
0.0
  0
LINE
  5
94F
330
92D
100
AcDbEntity
  8
TEXT25
100
AcDbLine
 10
13.25000019617135
 20
6.5
 30
0.0
 11
10.25000019617135
 21
6.5
 31
0.0
  0
LINE
  5
950
330
92D
100
AcDbEntity
  8
TEXT25
100
AcDbLine
 10
12.25000019617135
 20
5.5
 30
0.0
 11
11.25000019617135
 21
5.5
 31
0.0
  0
LINE
  5
951
330
92D
100
AcDbEntity
  8
TEXT25
100
AcDbLine
 10
12.75000019617135
 20
6.0
 30
0.0
 11
10.75000019617135
 21
6.0
 31
0.0
  0
LINE
  5
952
330
92D
100
AcDbEntity
  8
TEXT25
100
AcDbLine
 10
10.75000019617135
 20
6.0
 30
0.0
 11
12.25000019617135
 21
6.0
 31
0.0
  0
LINE
  5
953
330
92D
100
AcDbEntity
  8
TEXT25
100
AcDbLine
 10
17.95000019617134
 20
8.999999781705469
 30
0.0
 11
17.95000019617134
 21
-2.5
 31
0.0
  0
LINE
  5
954
330
92D
100
AcDbEntity
  8
TEXT25
100
AcDbLine
 10
18.95000019617134
 20
-3.0
 30
0.0
 11
16.95000019617134
 21
-3.0
 31
0.0
  0
LINE
  5
955
330
92D
100
AcDbEntity
  8
TEXT25
100
AcDbLine
 10
19.45000019617134
 20
-2.5
 30
0.0
 11
16.45000019617134
 21
-2.5
 31
0.0
  0
LINE
  5
956
330
92D
100
AcDbEntity
  8
TEXT25
100
AcDbLine
 10
18.45000019617134
 20
-3.5
 30
0.0
 11
17.45000019617134
 21
-3.5
 31
0.0
  0
LINE
  5
957
330
92D
100
AcDbEntity
  8
TEXT25
100
AcDbLine
 10
16.95000019617134
 20
-3.0
 30
0.0
 11
18.45000019617134
 21
-3.0
 31
0.0
  0
LWPOLYLINE
  5
958
330
92D
100
AcDbEntity
  8
TEXT25
100
AcDbPolyline
 90
        2
 70
     0
 43
0.0
 10
25.15000019617133
 20
-1.00000021829453
 42
1.0
 10
21.55000019617137
 20
-1.00000021829453
 42
-0.9999999999999998
  0
LWPOLYLINE
  5
959
330
92D
100
AcDbEntity
  8
TEXT25
100
AcDbPolyline
 90
        2
 70
     0
 43
0.0
 10
25.15000019617133
 20
3.999999781705469
 42
1.0
 10
21.55000019617137
 20
3.999999781705469
 42
-0.9999999999999998
  0
LWPOLYLINE
  5
95A
330
92D
100
AcDbEntity
  8
TEXT25
100
AcDbPolyline
 90
        2
 70
     0
 43
0.0
 10
17.95000019617134
 20
-1.00000021829453
 42
-1.0
 10
21.55000019617137
 20
-1.00000021829453
 42
0.9999999999999998
  0
LWPOLYLINE
  5
95B
330
92D
100
AcDbEntity
  8
TEXT25
100
AcDbPolyline
 90
        2
 70
     0
 43
0.0
 10
17.95000019617134
 20
3.999999781705469
 42
-1.0
 10
21.55000019617137
 20
3.999999781705469
 42
0.9999999999999998
  0
LWPOLYLINE
  5
95C
330
92D
100
AcDbEntity
  8
TEXT25
100
AcDbPolyline
 90
        2
 70
     0
 43
0.0
 10
28.75000019617136
 20
-1.00000021829453
 42
1.0
 10
25.15000019617133
 20
-1.00000021829453
 42
-0.9999999999999998
  0
LINE
  5
95D
330
92D
100
AcDbEntity
  8
TEXT25
100
AcDbLine
 10
28.75000019617136
 20
-1.00000021829453
 30
0.0
 11
31.0
 21
-1.00000021829453
 31
0.0
  0
LWPOLYLINE
  5
95E
330
92D
100
AcDbEntity
  8
TEXT25
100
AcDbPolyline
 90
        2
 70
     0
 43
0.0
 10
28.75000019617136
 20
3.999999781705469
 42
1.0
 10
25.15000019617133
 20
3.999999781705469
 42
-0.9999999999999998
  0
LINE
  5
95F
330
92D
100
AcDbEntity
  8
TEXT25
100
AcDbLine
 10
28.75000019617136
 20
8.499999781705469
 30
0.0
 11
31.0
 21
8.499999781705469
 31
0.0
  0
LINE
  5
960
330
92D
100
AcDbEntity
  8
TEXT25
100
AcDbLine
 10
28.75000019617136
 20
3.999999781705469
 30
0.0
 11
31.0
 21
3.999999781705469
 31
0.0
  0
LWPOLYLINE
  5
961
330
92D
100
AcDbEntity
  8
TEXT25
100
AcDbPolyline
 90
        2
 70
     0
 43
0.0
 10
8.150000196171333
 20
12.99999978170546
 42
1.0
 10
4.550000196171367
 20
12.99999978170546
 42
-0.9999999999999998
  0
LWPOLYLINE
  5
962
330
92D
100
AcDbEntity
  8
TEXT25
100
AcDbPolyline
 90
        2
 70
     0
 43
0.0
 10
8.150000196171333
 20
17.99999978170546
 42
1.0
 10
4.550000196171367
 20
17.99999978170546
 42
-0.9999999999999998
  0
LWPOLYLINE
  5
963
330
92D
100
AcDbEntity
  8
TEXT25
100
AcDbPolyline
 90
        2
 70
     0
 43
0.0
 10
0.9500001961713451
 20
12.99999978170546
 42
-1.0
 10
4.550000196171367
 20
12.99999978170546
 42
0.9999999999999998
  0
LINE
  5
964
330
92D
100
AcDbEntity
  8
TEXT25
100
AcDbLine
 10
0.9500001961713451
 20
12.99999978170546
 30
0.0
 11
-0.5
 21
12.99999978170546
 31
0.0
  0
LWPOLYLINE
  5
965
330
92D
100
AcDbEntity
  8
TEXT25
100
AcDbPolyline
 90
        2
 70
     0
 43
0.0
 10
0.9500001961713451
 20
17.99999978170546
 42
-1.0
 10
4.550000196171367
 20
17.99999978170546
 42
0.9999999999999998
  0
LINE
  5
966
330
92D
100
AcDbEntity
  8
TEXT25
100
AcDbLine
 10
0.9500001961713451
 20
17.99999978170546
 30
0.0
 11
-0.5
 21
17.99999978170546
 31
0.0
  0
LWPOLYLINE
  5
967
330
92D
100
AcDbEntity
  8
TEXT25
100
AcDbPolyline
 90
        2
 70
     0
 43
0.0
 10
11.75000019617135
 20
12.99999978170546
 42
1.0
 10
8.150000196171333
 20
12.99999978170546
 42
-0.9999999999999998
  0
LWPOLYLINE
  5
968
330
92D
100
AcDbEntity
  8
TEXT25
100
AcDbPolyline
 90
        2
 70
     0
 43
0.0
 10
11.75000019617135
 20
17.99999978170546
 42
1.0
 10
8.150000196171333
 20
17.99999978170546
 42
-0.9999999999999998
  0
ENDBLK
  5
96A
330
92D
100
AcDbEntity
  8
0
100
AcDbBlockEnd
  0
BLOCK
  5
B87
330
B83
100
AcDbEntity
  8
0
100
AcDbBlockBegin
  2
COPYRIGHT
 70
     0
 10
0.0
 20
0.0
 30
0.0
  3
COPYRIGHT
  1

  0
MTEXT
  5
B84
330
B83
100
AcDbEntity
  8
OHUTVIIVA
100
AcDbMText
 10
-7.069100515778472
 20
0.2480355719440013
 30
0.0
 40
1.5
 41
709.4787
 71
     1
 72
     5
  1
We reserve all rights in this document and in the information contained therein. Reproduction, use or disclosure to third parties without express authority is strictly forbidden.   ABB Oy.
  7
ROMANS
 11
0.0000000000000001
 21
1.0
 31
0.0
 73
     1
 44
1.0
  0
TEXT
  5
B85
330
B83
100
AcDbEntity
  8
OHUTVIIVA
100
AcDbText
 10
-5.528396371740242
 20
211.2153781608921
 30
0.0
 40
1.5
  1
C
 50
90.0
  7
ROMANS
100
AcDbText
  0
CIRCLE
  5
B86
330
B83
100
AcDbEntity
  8
OHUTVIIVA
100
AcDbCircle
 10
-6.306905249304691
 20
212.0403355111974
 30
0.0
 40
1.359729291186732
  0
ENDBLK
  5
B88
330
B83
100
AcDbEntity
  8
0
100
AcDbBlockEnd
  0
ENDSEC
  0
SECTION
  2
ENTITIES
  0
INSERT
  5
38A
330
1F
100
AcDbEntity
  8
MITTA
100
AcDbBlockReference
  2
VT
 10
144.4254542242338
 20
218.0
 30
0.0
  0
INSERT
  5
38B
330
1F
100
AcDbEntity
  8
MITTA
100
AcDbBlockReference
  2
VT
 10
144.4254542242338
 20
230.5
 30
0.0
  0
INSERT
  5
38C
330
1F
100
AcDbEntity
  8
MITTA
100
AcDbBlockReference
  2
VT
 10
144.4254542242338
 20
205.5
 30
0.0
  0
INSERT
  5
38D
330
1F
100
AcDbEntity
  8
MITTA
100
AcDbBlockReference
  2
VT
 10
144.4254542242338
 20
193.0
 30
0.0
  0
INSERT
  5
3AF
330
1F
100
AcDbEntity
  8
MITTA
100
AcDbBlockReference
  2
CT
 10
144.8753709656409
 20
177.5
 30
0.0
  0
INSERT
  5
3B0
330
1F
100
AcDbEntity
  8
MITTA
100
AcDbBlockReference
  2
CT
 10
144.8753709656409
 20
165.5
 30
0.0
  0
INSERT
  5
3B1
330
1F
100
AcDbEntity
  8
MITTA
100
AcDbBlockReference
  2
CT
 10
144.8753709656409
 20
153.5
 30
0.0
  0
INSERT
  5
3B2
330
1F
100
AcDbEntity
  8
MITTA
100
AcDbBlockReference
  2
CT
 10
144.8753709656409
 20
141.5
 30
0.0
  0
TEXT
  5
3C4
330
1F
100
AcDbEntity
  8
MITTA
100
AcDbText
 10
137.067460876626
 20
243.0
 30
0.0
 40
2.5
  1
X1.1
 41
0.9
  7
T25
100
AcDbText
  0
TEXT
  5
3CC
330
1F
100
AcDbEntity
  8
MITTA
100
AcDbText
 10
140.2586784792622
 20
192.0080346374381
 30
0.0
 40
2.5
  1
16
 41
0.9
  7
T25
100
AcDbText
  0
TEXT
  5
3CD
330
1F
100
AcDbEntity
  8
MITTA
100
AcDbText
 10
140.2957065985306
 20
188.4414732695478
 30
0.0
 40
2.5
  1
15
 41
0.9
  7
T25
100
AcDbText
  0
TEXT
  5
3CE
330
1F
100
AcDbEntity
  8
MITTA
100
AcDbText
 10
140.3327347177987
 20
185.3749119016575
 30
0.0
 40
2.5
  1
14
 41
0.9
  7
T25
100
AcDbText
  0
TEXT
  5
3CF
330
1F
100
AcDbEntity
  8
MITTA
100
AcDbText
 10
140.4808451506439
 20
179.4581282655319
 30
0.0
 40
2.5
  1
13
 41
0.9
  7
T25
100
AcDbText
  0
TEXT
  5
3D0
330
1F
100
AcDbEntity
  8
MITTA
100
AcDbText
 10
140.4808441285301
 20
176.4285714285715
 30
0.0
 40
2.5
  1
12
 41
0.9
  7
T25
100
AcDbText
  0
TEXT
  5
3D1
330
1F
100
AcDbEntity
  8
MITTA
100
AcDbText
 10
140.6659816585295
 20
173.4360191225411
 30
0.0
 40
2.5
  1
11
 41
0.9
  7
T25
100
AcDbText
  0
TEXT
  5
3D2
330
1F
100
AcDbEntity
  8
MITTA
100
AcDbText
 10
140.519441522938
 20
167.3480942524014
 30
0.0
 40
2.5
  1
10
 41
0.9
  7
T25
100
AcDbText
  0
TEXT
  5
3D3
330
1F
100
AcDbEntity
  8
MITTA
100
AcDbText
 10
141.5879039435578
 20
164.2755088249823
 30
0.0
 40
2.5
  1
9
 41
0.9
  7
T25
100
AcDbText
  0
TEXT
  5
3D4
330
1F
100
AcDbEntity
  8
MITTA
100
AcDbText
 10
141.541773401344
 20
161.3691354993145
 30
0.0
 40
2.5
  1
8
 41
0.9
  7
T25
100
AcDbText
  0
TEXT
  5
3D5
330
1F
100
AcDbEntity
  8
MITTA
100
AcDbText
 10
141.462458635686
 20
155.5054535358266
 30
0.0
 40
2.5
  1
7
 41
0.9
  7
T25
100
AcDbText
  0
TEXT
  5
3D6
330
1F
100
AcDbEntity
  8
MITTA
100
AcDbText
 10
141.3513763221089
 20
152.4018882481866
 30
0.0
 40
2.5
  1
6
 41
0.9
  7
T25
100
AcDbText
  0
TEXT
  5
3D7
330
1F
100
AcDbEntity
  8
MITTA
100
AcDbText
 10
141.3884044413773
 20
149.4093359421562
 30
0.0
 40
2.5
  1
5
 41
0.9
  7
T25
100
AcDbText
  0
TEXT
  5
3D8
330
1F
100
AcDbEntity
  8
MITTA
100
AcDbText
 10
141.3143492249546
 20
143.8255924732199
 30
0.0
 40
2.5
  1
4
 41
0.9
  7
T25
100
AcDbText
  0
TEXT
  5
3D9
330
1F
100
AcDbEntity
  8
MITTA
100
AcDbText
 10
141.5051541969187
 20
140.5527015293708
 30
0.0
 40
2.5
  1
3
 41
0.9
  7
T25
100
AcDbText
  0
TEXT
  5
3DA
330
1F
100
AcDbEntity
  8
MITTA
100
AcDbText
 10
141.5051541969187
 20
137.4880284794973
 30
0.0
 40
2.5
  1
2
 41
0.9
  7
T25
100
AcDbText
  0
TEXT
  5
3DB
330
1F
100
AcDbEntity
  8
MITTA
100
AcDbText
 10
141.1891532382164
 20
131.4942855440986
 30
0.0
 40
2.5
  1
1
 41
0.9
  7
T25
100
AcDbText
  0
LINE
  5
3E2
330
1F
100
AcDbEntity
  8
MITTA
100
AcDbLine
 10
109.488127647287
 20
189.4999999999999
 30
0.0
 11
109.488127647287
 21
180.4999999999999
 31
0.0
  0
LINE
  5
3E3
330
1F
100
AcDbEntity
  8
MITTA
100
AcDbLine
 10
109.488127647287
 20
177.5
 30
0.0
 11
109.488127647287
 21
168.5
 31
0.0
  0
LINE
  5
3E4
330
1F
100
AcDbEntity
  8
MITTA
100
AcDbLine
 10
109.488127647287
 20
165.5
 30
0.0
 11
109.488127647287
 21
156.4999999999999
 31
0.0
  0
LINE
  5
3E5
330
1F
100
AcDbEntity
  8
MITTA
100
AcDbLine
 10
109.488127647287
 20
153.5
 30
0.0
 11
109.488127647287
 21
144.5
 31
0.0
  0
LINE
  5
3E6
330
1F
100
AcDbEntity
  8
MITTA
100
AcDbLine
 10
109.488127647287
 20
141.5
 30
0.0
 11
109.488127647287
 21
132.4999999999999
 31
0.0
  0
TEXT
  5
3E7
330
1F
100
AcDbEntity
  8
MITTA
100
AcDbText
 10
135.0
 20
124.0
 30
0.0
 40
2.5
  1
X2.1:1
 41
0.9
  7
T25
100
AcDbText
  0
LINE
  5
411
330
1F
100
AcDbEntity
  8
MITTA
100
AcDbLine
 10
100.488127647287
 20
235.0
 30
0.0
 11
58.488127647287
 21
235.0
 31
0.0
  0
LINE
  5
412
330
1F
100
AcDbEntity
  8
MITTA
100
AcDbLine
 10
100.488127647287
 20
222.5
 30
0.0
 11
58.488127647287
 21
222.5
 31
0.0
  0
LINE
  5
413
330
1F
100
AcDbEntity
  8
MITTA
100
AcDbLine
 10
100.488127647287
 20
210.0
 30
0.0
 11
58.488127647287
 21
210.0
 31
0.0
  0
LINE
  5
414
330
1F
100
AcDbEntity
  8
MITTA
100
AcDbLine
 10
100.488127647287
 20
197.5
 30
0.0
 11
58.488127647287
 21
197.5
 31
0.0
  0
LINE
  5
415
330
1F
100
AcDbEntity
  8
MITTA
100
AcDbLine
 10
100.488127647287
 20
185.0
 30
0.0
 11
58.988127647287
 21
185.0
 31
0.0
  0
LINE
  5
416
330
1F
100
AcDbEntity
  8
MITTA
100
AcDbLine
 10
100.488127647287
 20
173.0
 30
0.0
 11
58.988127647287
 21
173.0
 31
0.0
  0
LINE
  5
417
330
1F
100
AcDbEntity
  8
MITTA
100
AcDbLine
 10
100.488127647287
 20
161.0
 30
0.0
 11
58.988127647287
 21
161.0
 31
0.0
  0
LINE
  5
418
330
1F
100
AcDbEntity
  8
MITTA
100
AcDbLine
 10
100.488127647287
 20
149.0
 30
0.0
 11
58.988127647287
 21
149.0
 31
0.0
  0
LINE
  5
419
330
1F
100
AcDbEntity
  8
MITTA
100
AcDbLine
 10
100.488127647287
 20
137.0
 30
0.0
 11
58.988127647287
 21
137.0
 31
0.0
  0
LINE
  5
41A
330
1F
100
AcDbEntity
  8
MITTA
100
AcDbLine
 10
89.488127647287
 20
137.0
 30
0.0
 11
89.488127647287
 21
53.0
 31
0.0
  0
LINE
  5
41B
330
1F
100
AcDbEntity
  8
MITTA
100
AcDbLine
 10
89.488127647287
 20
53.0
 30
0.0
 11
92.98812764728699
 21
53.0
 31
0.0
  0
LINE
  5
41C
330
1F
100
AcDbEntity
  8
MITTA
100
AcDbLine
 10
85.48812764728699
 20
149.0
 30
0.0
 11
85.48812764728699
 21
63.0
 31
0.0
  0
LINE
  5
41D
330
1F
100
AcDbEntity
  8
MITTA
100
AcDbLine
 10
81.48812764728701
 20
161.0
 30
0.0
 11
81.48812764728701
 21
73.0
 31
0.0
  0
LINE
  5
41E
330
1F
100
AcDbEntity
  8
MITTA
100
AcDbLine
 10
77.488127647287
 20
173.0
 30
0.0
 11
77.488127647287
 21
83.0
 31
0.0
  0
LINE
  5
41F
330
1F
100
AcDbEntity
  8
MITTA
100
AcDbLine
 10
73.488127647287
 20
197.5
 30
0.0
 11
73.488127647287
 21
93.0
 31
0.0
  0
LINE
  5
420
330
1F
100
AcDbEntity
  8
MITTA
100
AcDbLine
 10
69.488127647287
 20
210.0
 30
0.0
 11
69.488127647287
 21
103.0
 31
0.0
  0
LINE
  5
421
330
1F
100
AcDbEntity
  8
MITTA
100
AcDbLine
 10
65.488127647287
 20
222.5
 30
0.0
 11
65.488127647287
 21
113.0
 31
0.0
  0
LINE
  5
422
330
1F
100
AcDbEntity
  8
MITTA
100
AcDbLine
 10
61.488127647287
 20
235.0
 30
0.0
 11
61.488127647287
 21
123.0
 31
0.0
  0
LINE
  5
423
330
1F
100
AcDbEntity
  8
MITTA
100
AcDbLine
 10
92.488127647287
 20
63.0
 30
0.0
 11
85.48812764728699
 21
63.0
 31
0.0
  0
LINE
  5
424
330
1F
100
AcDbEntity
  8
MITTA
100
AcDbLine
 10
92.488127647287
 20
73.0
 30
0.0
 11
81.48812764728701
 21
73.0
 31
0.0
  0
LINE
  5
425
330
1F
100
AcDbEntity
  8
MITTA
100
AcDbLine
 10
92.488127647287
 20
83.0
 30
0.0
 11
77.488127647287
 21
83.0
 31
0.0
  0
LINE
  5
426
330
1F
100
AcDbEntity
  8
MITTA
100
AcDbLine
 10
92.488127647287
 20
93.0
 30
0.0
 11
73.488127647287
 21
93.0
 31
0.0
  0
LINE
  5
427
330
1F
100
AcDbEntity
  8
MITTA
100
AcDbLine
 10
92.488127647287
 20
103.0
 30
0.0
 11
69.488127647287
 21
103.0
 31
0.0
  0
LINE
  5
428
330
1F
100
AcDbEntity
  8
MITTA
100
AcDbLine
 10
92.488127647287
 20
113.0
 30
0.0
 11
65.488127647287
 21
113.0
 31
0.0
  0
LINE
  5
429
330
1F
100
AcDbEntity
  8
MITTA
100
AcDbLine
 10
92.488127647287
 20
123.0
 30
0.0
 11
61.488127647287
 21
123.0
 31
0.0
  0
LWPOLYLINE
  5
42A
330
1F
100
AcDbEntity
  8
MITTA
100
AcDbPolyline
 90
        2
 70
     1
 43
0.5
 10
89.23812764728699
 20
137.0
 42
1.0
 10
89.738127647287
 20
137.0
 42
1.0
  0
LWPOLYLINE
  5
42B
330
1F
100
AcDbEntity
  8
MITTA
100
AcDbPolyline
 90
        2
 70
     1
 43
0.5
 10
85.23812764728701
 20
149.0
 42
1.0
 10
85.738127647287
 20
149.0
 42
1.0
  0
LWPOLYLINE
  5
42C
330
1F
100
AcDbEntity
  8
MITTA
100
AcDbPolyline
 90
        2
 70
     1
 43
0.5
 10
81.238127647287
 20
161.0
 42
1.0
 10
81.73812764728699
 20
161.0
 42
1.0
  0
LWPOLYLINE
  5
42D
330
1F
100
AcDbEntity
  8
MITTA
100
AcDbPolyline
 90
        2
 70
     1
 43
0.5
 10
77.238127647287
 20
173.0
 42
1.0
 10
77.738127647287
 20
173.0
 42
1.0
  0
LWPOLYLINE
  5
42E
330
1F
100
AcDbEntity
  8
MITTA
100
AcDbPolyline
 90
        2
 70
     1
 43
0.5
 10
73.238127647287
 20
197.5
 42
1.0
 10
73.738127647287
 20
197.5
 42
1.0
  0
LWPOLYLINE
  5
42F
330
1F
100
AcDbEntity
  8
MITTA
100
AcDbPolyline
 90
        2
 70
     1
 43
0.5
 10
69.238127647287
 20
210.0
 42
1.0
 10
69.738127647287
 20
210.0
 42
1.0
  0
LWPOLYLINE
  5
430
330
1F
100
AcDbEntity
  8
MITTA
100
AcDbPolyline
 90
        2
 70
     1
 43
0.5
 10
65.238127647287
 20
222.5
 42
1.0
 10
65.738127647287
 20
222.5
 42
1.0
  0
LWPOLYLINE
  5
431
330
1F
100
AcDbEntity
  8
MITTA
100
AcDbPolyline
 90
        2
 70
     1
 43
0.5
 10
61.238127647287
 20
235.0
 42
1.0
 10
61.738127647287
 20
235.0
 42
1.0
  0
TEXT
  5
433
330
1F
100
AcDbEntity
  8
MITTA
100
AcDbText
 10
38.488127647287
 20
233.4999999999999
 30
0.0
 40
2.5
  1
CH10, VT4
 41
0.9
  7
T25
100
AcDbText
  0
TEXT
  5
434
330
1F
100
AcDbEntity
  8
MITTA
100
AcDbText
 10
38.488127647287
 20
221.4523809523809
 30
0.0
 40
2.5
  1
CH9, VT3
 41
0.9
  7
T25
100
AcDbText
  0
TEXT
  5
435
330
1F
100
AcDbEntity
  8
MITTA
100
AcDbText
 10
38.488127647287
 20
208.9047619047619
 30
0.0
 40
2.5
  1
CH8, VT2
 41
0.9
  7
T25
100
AcDbText
  0
TEXT
  5
436
330
1F
100
AcDbEntity
  8
MITTA
100
AcDbText
 10
38.488127647287
 20
196.8571428571428
 30
0.0
 40
2.5
  1
CH7, VT1
 41
0.9
  7
T25
100
AcDbText
  0
TEXT
  5
437
330
1F
100
AcDbEntity
  8
MITTA
100
AcDbText
 10
38.488127647287
 20
183.8095238095238
 30
0.0
 40
2.5
  1
CH6, CT5
 41
0.9
  7
T25
100
AcDbText
  0
TEXT
  5
438
330
1F
100
AcDbEntity
  8
MITTA
100
AcDbText
 10
38.488127647287
 20
171.2619047619048
 30
0.0
 40
2.5
  1
CH5, CT4
 41
0.9
  7
T25
100
AcDbText
  0
TEXT
  5
439
330
1F
100
AcDbEntity
  8
MITTA
100
AcDbText
 10
38.488127647287
 20
159.7142857142857
 30
0.0
 40
2.5
  1
CH4, CT3
 41
0.9
  7
T25
100
AcDbText
  0
TEXT
  5
43A
330
1F
100
AcDbEntity
  8
MITTA
100
AcDbText
 10
38.488127647287
 20
147.6666666666667
 30
0.0
 40
2.5
  1
CH3, CT2
 41
0.9
  7
T25
100
AcDbText
  0
TEXT
  5
43B
330
1F
100
AcDbEntity
  8
MITTA
100
AcDbText
 10
38.488127647287
 20
136.1190476190477
 30
0.0
 40
2.5
  1
CH2, CT1
 41
0.9
  7
T25
100
AcDbText
  0
LINE
  5
43C
330
1F
100
AcDbEntity
  8
MITTA
100
AcDbLine
 10
92.488127647287
 20
43.0
 30
0.0
 11
61.488127647287
 21
43.0
 31
0.0
  0
TEXT
  5
43D
330
1F
100
AcDbEntity
  8
MITTA
100
AcDbText
 10
31.988127647287
 20
122.0
 30
0.0
 40
2.5
  1
CH10, SENSOR
 41
0.9
  7
T25
100
AcDbText
  0
TEXT
  5
43E
330
1F
100
AcDbEntity
  8
MITTA
100
AcDbText
 10
34.488127647287
 20
111.9523809523809
 30
0.0
 40
2.5
  1
CH9, SENSOR
 41
0.9
  7
T25
100
AcDbText
  0
TEXT
  5
43F
330
1F
100
AcDbEntity
  8
MITTA
100
AcDbText
 10
34.488127647287
 20
102.4047619047619
 30
0.0
 40
2.5
  1
CH8, SENSOR
 41
0.9
  7
T25
100
AcDbText
  0
TEXT
  5
440
330
1F
100
AcDbEntity
  8
MITTA
100
AcDbText
 10
34.488127647287
 20
91.85714285714285
 30
0.0
 40
2.5
  1
CH7, SENSOR
 41
0.9
  7
T25
100
AcDbText
  0
TEXT
  5
442
330
1F
100
AcDbEntity
  8
MITTA
100
AcDbText
 10
34.488127647287
 20
81.26190476190474
 30
0.0
 40
2.5
  1
CH5, SENSOR
 41
0.9
  7
T25
100
AcDbText
  0
TEXT
  5
443
330
1F
100
AcDbEntity
  8
MITTA
100
AcDbText
 10
34.488127647287
 20
71.2142857142857
 30
0.0
 40
2.5
  1
CH4, SENSOR
 41
0.9
  7
T25
100
AcDbText
  0
TEXT
  5
444
330
1F
100
AcDbEntity
  8
MITTA
100
AcDbText
 10
34.488127647287
 20
61.66666666666664
 30
0.0
 40
2.5
  1
CH3, SENSOR
 41
0.9
  7
T25
100
AcDbText
  0
TEXT
  5
445
330
1F
100
AcDbEntity
  8
MITTA
100
AcDbText
 10
34.488127647287
 20
51.61904761904759
 30
0.0
 40
2.5
  1
CH2, SENSOR
 41
0.9
  7
T25
100
AcDbText
  0
TEXT
  5
446
330
1F
100
AcDbEntity
  8
MITTA
100
AcDbText
 10
34.488127647287
 20
41.57142857142853
 30
0.0
 40
2.5
  1
CH1, SENSOR
 41
0.9
  7
T25
100
AcDbText
  0
LINE
  5
44D
330
1F
100
AcDbEntity
  8
PISTKATK
100
AcDbLine
 10
24.0
 20
253.0
 30
0.0
 11
24.0
 21
37.0
 31
0.0
  0
LINE
  5
44E
330
1F
100
AcDbEntity
  8
PISTKATK
100
AcDbLine
 10
24.0
 20
37.0
 30
0.0
 11
144.5
 21
37.0
 31
0.0
  0
LINE
  5
44F
330
1F
100
AcDbEntity
  8
PISTKATK
100
AcDbLine
 10
144.5
 20
37.0
 30
0.0
 11
144.5
 21
253.0
 31
0.0
  0
TEXT
  5
450
330
1F
100
AcDbEntity
  8
MITTA
100
AcDbText
 10
114.988127647287
 20
233.4999999999999
 30
0.0
 40
2.5
  1
100V
 41
0.9
  7
T25
100
AcDbText
  0
TEXT
  5
451
330
1F
100
AcDbEntity
  8
MITTA
100
AcDbText
 10
114.988127647287
 20
221.0
 30
0.0
 40
2.5
  1
100V
 41
0.9
  7
T25
100
AcDbText
  0
TEXT
  5
452
330
1F
100
AcDbEntity
  8
MITTA
100
AcDbText
 10
114.988127647287
 20
208.4999999999999
 30
0.0
 40
2.5
  1
100V
 41
0.9
  7
T25
100
AcDbText
  0
TEXT
  5
453
330
1F
100
AcDbEntity
  8
MITTA
100
AcDbText
 10
114.988127647287
 20
196.0
 30
0.0
 40
2.5
  1
100V
 41
0.9
  7
T25
100
AcDbText
  0
LINE
  5
4C1
330
1F
100
AcDbEntity
  8
MITTA
100
AcDbLine
 10
112.4881276472869
 20
180.4999999999999
 30
0.0
 11
144.5372728902057
 21
180.4999999999999
 31
0.0
  0
LWPOLYLINE
  5
4C2
330
1F
100
AcDbEntity
  8
MITTA
100
AcDbPolyline
 90
        2
 70
     0
 43
0.0
 10
106.488127647287
 20
183.4999999999999
 42
-0.9999999999999998
 10
106.488127647287
 20
180.4999999999999
 42
1.0
  0
LWPOLYLINE
  5
4C3
330
1F
100
AcDbEntity
  8
MITTA
100
AcDbPolyline
 90
        2
 70
     0
 43
0.0
 10
112.4881276472869
 20
183.4999999999999
 42
0.9999999999999998
 10
112.4881276472869
 20
180.4999999999999
 42
-1.0
  0
LINE
  5
4C4
330
1F
100
AcDbEntity
  8
MITTA
100
AcDbLine
 10
106.488127647287
 20
180.4999999999999
 30
0.0
 11
100.488127647287
 21
180.4999999999999
 31
0.0
  0
LWPOLYLINE
  5
4C5
330
1F
100
AcDbEntity
  8
MITTA
100
AcDbPolyline
 90
        2
 70
     0
 43
0.0
 10
106.488127647287
 20
186.5
 42
-0.9999999999999998
 10
106.488127647287
 20
183.4999999999999
 42
1.0
  0
LWPOLYLINE
  5
4C6
330
1F
100
AcDbEntity
  8
MITTA
100
AcDbPolyline
 90
        2
 70
     0
 43
0.0
 10
106.488127647287
 20
189.4999999999999
 42
-0.9999999999999998
 10
106.488127647287
 20
186.5
 42
1.0
  0
LINE
  5
4C7
330
1F
100
AcDbEntity
  8
MITTA
100
AcDbLine
 10
106.488127647287
 20
189.4999999999999
 30
0.0
 11
100.488127647287
 21
189.4999999999999
 31
0.0
  0
LWPOLYLINE
  5
4C8
330
1F
100
AcDbEntity
  8
MITTA
100
AcDbPolyline
 90
        2
 70
     0
 43
0.0
 10
112.4881276472869
 20
189.4999999999999
 42
0.9999999999999998
 10
112.4881276472869
 20
186.5
 42
-1.0
  0
LINE
  5
4C9
330
1F
100
AcDbEntity
  8
MITTA
100
AcDbLine
 10
112.4881276472869
 20
186.5
 30
0.0
 11
114.4881276472869
 21
186.5
 31
0.0
  0
LWPOLYLINE
  5
4CA
330
1F
100
AcDbEntity
  8
MITTA
100
AcDbPolyline
 90
        2
 70
     0
 43
0.0
 10
112.4881276472869
 20
186.5
 42
0.9999999999999998
 10
112.4881276472869
 20
183.4999999999999
 42
-1.0
  0
LINE
  5
4CB
330
1F
100
AcDbEntity
  8
MITTA
100
AcDbLine
 10
112.4881276472869
 20
189.4999999999999
 30
0.0
 11
114.4881276472869
 21
189.4999999999999
 31
0.0
  0
LINE
  5
4CC
330
1F
100
AcDbEntity
  8
MITTA
100
AcDbLine
 10
118.988127647287
 20
186.5
 30
0.0
 11
144.5372728902057
 21
186.5
 31
0.0
  0
LINE
  5
4CD
330
1F
100
AcDbEntity
  8
MITTA
100
AcDbLine
 10
121.488127647287
 20
189.4999999999999
 30
0.0
 11
144.5372728902057
 21
189.4999999999999
 31
0.0
  0
TEXT
  5
4CE
330
1F
100
AcDbEntity
  8
MITTA
100
AcDbText
 10
114.988127647287
 20
185.2619047619047
 30
0.0
 40
2.0
  1
1A
 41
0.9
  7
T25
100
AcDbText
  0
TEXT
  5
4CF
330
1F
100
AcDbEntity
  8
MITTA
100
AcDbText
 10
114.988127647287
 20
188.4999999999999
 30
0.0
 40
2.0
  1
0.2A
 41
0.9
  7
T25
100
AcDbText
  0
LWPOLYLINE
  5
4D0
330
1F
100
AcDbEntity
  8
KATKO07
100
AcDbPolyline
 90
        4
 70
     0
 43
0.0
 10
148.5
 20
137.0
 10
150.0
 20
138.5
 10
150.0
 20
141.5
 10
148.5
 20
143.0
  0
LINE
  5
4D1
330
1F
100
AcDbEntity
  8
KATKO07
100
AcDbLine
 10
144.5
 20
141.5
 30
0.0
 11
147.5
 21
141.5
 31
0.0
  0
LINE
  5
4D2
330
1F
100
AcDbEntity
  8
KATKO07
100
AcDbLine
 10
144.5
 20
138.5
 30
0.0
 11
147.5
 21
138.5
 31
0.0
  0
LINE
  5
4D8
330
1F
100
AcDbEntity
  8
KATKO07
100
AcDbLine
 10
144.5
 20
150.5
 30
0.0
 11
147.5
 21
150.5
 31
0.0
  0
LINE
  5
4D9
330
1F
100
AcDbEntity
  8
KATKO07
100
AcDbLine
 10
144.5
 20
153.5
 30
0.0
 11
147.5
 21
153.5
 31
0.0
  0
LWPOLYLINE
  5
4DA
330
1F
100
AcDbEntity
  8
KATKO07
100
AcDbPolyline
 90
        4
 70
     0
 43
0.0
 10
148.5
 20
149.0
 10
150.0
 20
150.5
 10
150.0
 20
153.5
 10
148.5
 20
155.0
  0
LINE
  5
4DC
330
1F
100
AcDbEntity
  8
KATKO07
100
AcDbLine
 10
144.5
 20
162.5
 30
0.0
 11
147.5
 21
162.5
 31
0.0
  0
LINE
  5
4DD
330
1F
100
AcDbEntity
  8
KATKO07
100
AcDbLine
 10
144.5
 20
165.5
 30
0.0
 11
147.5
 21
165.5
 31
0.0
  0
LWPOLYLINE
  5
4DE
330
1F
100
AcDbEntity
  8
KATKO07
100
AcDbPolyline
 90
        4
 70
     0
 43
0.0
 10
148.5
 20
161.0
 10
150.0
 20
162.5
 10
150.0
 20
165.5
 10
148.5
 20
167.0
  0
LWPOLYLINE
  5
4FC
330
1F
100
AcDbEntity
  8
KATKO07
100
AcDbPolyline
 90
        4
 70
     0
 43
0.0
 10
148.5
 20
173.0
 10
150.0
 20
174.5
 10
150.0
 20
177.5
 10
148.5
 20
179.0
  0
LINE
  5
500
330
1F
100
AcDbEntity
  8
KATKO07
100
AcDbLine
 10
144.5
 20
177.5
 30
0.0
 11
147.5
 21
177.5
 31
0.0
  0
LINE
  5
501
330
1F
100
AcDbEntity
  8
KATKO07
100
AcDbLine
 10
144.5
 20
174.5
 30
0.0
 11
147.5
 21
174.5
 31
0.0
  0
TEXT
  5
51E
330
1F
100
AcDbEntity
  8
TEXT25
100
AcDbText
 10
29.0
 20
255.5
 30
0.0
 40
2.5
  1
MIM4149, TRANSFORMER AND SENSOR INPUT MODULE  +  RTXP 24
 41
0.9
  7
T25
100
AcDbText
  0
TEXT
  5
521
330
1F
100
AcDbEntity
  8
TEXT25
100
AcDbText
 10
307.2621085458022
 20
225.9767317641309
 30
0.0
 40
2.5
  1
MODULE
 41
0.9
  7
T25
100
AcDbText
  0
TEXT
  5
522
330
1F
100
AcDbEntity
  8
TEXT25
100
AcDbText
 10
307.2621085458022
 20
221.4291127165119
 30
0.0
 40
2.5
  1
MIM4149
 41
0.9
  7
T25
100
AcDbText
  0
TEXT
  5
523
330
1F
100
AcDbEntity
  8
TEXT25
100
AcDbText
 10
323.7621085458022
 20
225.9767317641309
 30
0.0
 40
2.5
  1
FRONT
 41
0.9
  7
T25
100
AcDbText
  0
TEXT
  5
524
330
1F
100
AcDbEntity
  8
TEXT25
100
AcDbText
 10
348.7621085458022
 20
225.9767317641309
 30
0.0
 40
2.5
  1
REAR
 41
0.9
  7
T25
100
AcDbText
  0
TEXT
  5
525
330
1F
100
AcDbEntity
  8
TEXT25
100
AcDbText
 10
323.7621085458022
 20
221.4767317641309
 30
0.0
 40
2.5
  1
S1,S2
 41
0.9
  7
T25
100
AcDbText
  0
TEXT
  5
526
330
1F
100
AcDbEntity
  8
TEXT25
100
AcDbText
 10
338.7621085458022
 20
221.4767317641309
 30
0.0
 40
2.5
  1
X1.1 and X2.1 ... X2.9
 41
0.8
  7
T25
100
AcDbText
  0
TEXT
  5
527
330
1F
100
AcDbEntity
  8
TEXT25
100
AcDbText
 10
337.7621085458022
 20
230.9767317641309
 30
0.0
 40
2.5
  1
POSITION
 41
0.9
  7
T25
100
AcDbText
  0
LINE
  5
528
330
1F
100
AcDbEntity
  8
TEXT25
100
AcDbLine
 10
306.0
 20
225.4999999999999
 30
0.0
 11
374.0
 21
225.4999999999999
 31
0.0
  0
LINE
  5
529
330
1F
100
AcDbEntity
  8
TEXT25
100
AcDbLine
 10
306.0
 20
220.5
 30
0.0
 11
374.0
 21
220.5
 31
0.0
  0
LINE
  5
52A
330
1F
100
AcDbEntity
  8
TEXT25
100
AcDbLine
 10
322.0
 20
230.5
 30
0.0
 11
374.0
 21
230.5
 31
0.0
  0
LINE
  5
52B
330
1F
100
AcDbEntity
  8
TEXT25
100
AcDbLine
 10
306.0
 20
235.4999999999999
 30
0.0
 11
374.0
 21
235.4999999999999
 31
0.0
  0
LINE
  5
52C
330
1F
100
AcDbEntity
  8
TEXT25
100
AcDbLine
 10
306.0
 20
220.5
 30
0.0
 11
306.0
 21
235.4999999999999
 31
0.0
  0
LINE
  5
52D
330
1F
100
AcDbEntity
  8
TEXT25
100
AcDbLine
 10
322.0
 20
220.5
 30
0.0
 11
322.0
 21
235.4999999999999
 31
0.0
  0
LINE
  5
52E
330
1F
100
AcDbEntity
  8
TEXT25
100
AcDbLine
 10
374.0
 20
220.5
 30
0.0
 11
374.0
 21
235.4999999999999
 31
0.0
  0
LINE
  5
52F
330
1F
100
AcDbEntity
  8
TEXT25
100
AcDbLine
 10
336.5
 20
220.5
 30
0.0
 11
336.5
 21
230.5
 31
0.0
  0
LINE
  5
532
330
1F
100
AcDbEntity
  8
PISTKATK
100
AcDbLine
 10
24.0
 20
253.0
 30
0.0
 11
194.5
 21
253.0
 31
0.0
  0
LINE
  5
533
330
1F
100
AcDbEntity
  8
PISTKATK
100
AcDbLine
 10
194.5
 20
253.0
 30
0.0
 11
194.5
 21
28.0
 31
0.0
  0
LINE
  5
534
330
1F
100
AcDbEntity
  8
PISTKATK
100
AcDbLine
 10
194.5
 20
28.0
 30
0.0
 11
24.0
 21
28.0
 31
0.0
  0
LINE
  5
535
330
1F
100
AcDbEntity
  8
PISTKATK
100
AcDbLine
 10
24.0
 20
28.0
 30
0.0
 11
24.0
 21
37.0
 31
0.0
  0
LWPOLYLINE
  5
536
330
1F
100
AcDbEntity
  8
MITTA
100
AcDbPolyline
 90
        5
 70
     0
 43
0.0
 10
194.5
 20
137.0
 10
184.4999999999999
 20
137.0
 10
176.5
 20
134.0
 10
176.0
 20
135.0
 10
177.0
 20
133.0
  0
LWPOLYLINE
  5
539
330
1F
100
AcDbEntity
  8
MITTA
100
AcDbPolyline
 90
        5
 70
     0
 43
0.0
 10
194.5
 20
143.0
 10
184.4999999999999
 20
143.0
 10
176.5
 20
140.0
 10
176.0
 20
141.0
 10
177.0
 20
139.0
  0
LINE
  5
53B
330
1F
100
AcDbEntity
  8
MITTA
100
AcDbLine
 10
177.5
 20
141.5
 30
0.0
 11
177.5
 21
138.5
 31
0.0
  0
LWPOLYLINE
  5
545
330
1F
100
AcDbEntity
  8
MITTA
100
AcDbPolyline
 90
        5
 70
     0
 43
0.0
 10
194.5
 20
149.0
 10
184.4999999999999
 20
149.0
 10
176.5
 20
146.0
 10
176.0
 20
147.0
 10
177.0
 20
145.0
  0
LWPOLYLINE
  5
546
330
1F
100
AcDbEntity
  8
MITTA
100
AcDbPolyline
 90
        5
 70
     0
 43
0.0
 10
194.5
 20
155.0
 10
184.4999999999999
 20
155.0
 10
176.5
 20
152.0
 10
176.0
 20
153.0
 10
177.0
 20
151.0
  0
LINE
  5
54A
330
1F
100
AcDbEntity
  8
MITTA
100
AcDbLine
 10
177.5
 20
153.5
 30
0.0
 11
177.5
 21
150.5
 31
0.0
  0
LWPOLYLINE
  5
54F
330
1F
100
AcDbEntity
  8
MITTA
100
AcDbPolyline
 90
        5
 70
     0
 43
0.0
 10
194.5
 20
161.0
 10
184.4999999999999
 20
161.0
 10
176.5
 20
158.0
 10
176.0
 20
159.0
 10
177.0
 20
157.0
  0
LWPOLYLINE
  5
550
330
1F
100
AcDbEntity
  8
MITTA
100
AcDbPolyline
 90
        5
 70
     0
 43
0.0
 10
194.5
 20
167.0
 10
184.4999999999999
 20
167.0
 10
176.5
 20
164.0
 10
176.0
 20
165.0
 10
177.0
 20
163.0
  0
LINE
  5
554
330
1F
100
AcDbEntity
  8
MITTA
100
AcDbLine
 10
177.5
 20
165.5
 30
0.0
 11
177.5
 21
162.5
 31
0.0
  0
LWPOLYLINE
  5
555
330
1F
100
AcDbEntity
  8
MITTA
100
AcDbPolyline
 90
        5
 70
     0
 43
0.0
 10
194.5
 20
179.0
 10
184.4999999999999
 20
179.0
 10
176.5
 20
176.0
 10
176.0
 20
177.0
 10
177.0
 20
175.0
  0
LWPOLYLINE
  5
556
330
1F
100
AcDbEntity
  8
MITTA
100
AcDbPolyline
 90
        5
 70
     0
 43
0.0
 10
194.5
 20
173.0
 10
184.4999999999999
 20
173.0
 10
176.5
 20
170.0
 10
176.0
 20
171.0
 10
177.0
 20
169.0
  0
LINE
  5
55A
330
1F
100
AcDbEntity
  8
MITTA
100
AcDbLine
 10
177.5
 20
177.5
 30
0.0
 11
177.5
 21
174.5
 31
0.0
  0
LWPOLYLINE
  5
55B
330
1F
100
AcDbEntity
  8
MITTA
100
AcDbPolyline
 90
        5
 70
     0
 43
0.0
 10
194.5
 20
185.0
 10
184.4999999999999
 20
185.0
 10
176.5
 20
182.0
 10
176.0
 20
183.0
 10
177.0
 20
181.0
  0
LWPOLYLINE
  5
55C
330
1F
100
AcDbEntity
  8
MITTA
100
AcDbPolyline
 90
        5
 70
     0
 43
0.0
 10
194.5
 20
191.0
 10
184.4999999999999
 20
191.0
 10
176.5
 20
188.0
 10
176.0
 20
189.0
 10
177.0
 20
187.0
  0
LWPOLYLINE
  5
561
330
1F
100
AcDbEntity
  8
KATKO07
100
AcDbPolyline
 90
        4
 70
     0
 43
0.0
 10
148.5
 20
185.0
 10
150.0
 20
186.5
 10
150.0
 20
189.4999999999999
 10
148.5
 20
191.0
  0
LINE
  5
562
330
1F
100
AcDbEntity
  8
KATKO07
100
AcDbLine
 10
144.5
 20
186.5
 30
0.0
 11
147.5
 21
186.5
 31
0.0
  0
LINE
  5
563
330
1F
100
AcDbEntity
  8
KATKO07
100
AcDbLine
 10
144.5
 20
189.4999999999999
 30
0.0
 11
147.5
 21
189.4999999999999
 31
0.0
  0
LWPOLYLINE
  5
564
330
1F
100
AcDbEntity
  8
MITTA
100
AcDbPolyline
 90
        4
 70
     0
 43
0.0
 10
194.5
 20
196.0
 10
184.4999999999999
 20
196.0
 10
177.0
 20
199.0
 10
176.0
 20
197.0
  0
LWPOLYLINE
  5
567
330
1F
100
AcDbEntity
  8
MITTA
100
AcDbPolyline
 90
        4
 70
     0
 43
0.0
 10
194.5
 20
202.0
 10
184.4999999999999
 20
202.0
 10
177.0
 20
205.0
 10
176.0
 20
203.0
  0
LWPOLYLINE
  5
568
330
1F
100
AcDbEntity
  8
MITTA
100
AcDbPolyline
 90
        4
 70
     0
 43
0.0
 10
194.5
 20
214.5
 10
184.4999999999999
 20
214.5
 10
177.0
 20
217.5
 10
176.0
 20
215.5
  0
LWPOLYLINE
  5
56A
330
1F
100
AcDbEntity
  8
MITTA
100
AcDbPolyline
 90
        4
 70
     0
 43
0.0
 10
194.5
 20
227.0
 10
184.4999999999999
 20
227.0
 10
177.0
 20
230.0
 10
176.0
 20
228.0
  0
LWPOLYLINE
  5
56C
330
1F
100
AcDbEntity
  8
MITTA
100
AcDbPolyline
 90
        4
 70
     0
 43
0.0
 10
194.5
 20
239.5
 10
184.4999999999999
 20
239.5
 10
177.0
 20
242.5
 10
176.0
 20
240.5
  0
TEXT
  5
57E
330
1F
100
AcDbEntity
  8
MITTA
100
AcDbText
 10
187.0
 20
138.0187049228297
 30
0.0
 40
2.5
  1
13A
 41
0.9
  7
T25
100
AcDbText
  0
TEXT
  5
57F
330
1F
100
AcDbEntity
  8
MITTA
100
AcDbText
 10
167.5881419470013
 20
133.4794907058832
 30
0.0
 40
2.5
  1
13B
 41
0.9
  7
T25
100
AcDbText
  0
LWPOLYLINE
  5
580
330
1F
100
AcDbEntity
  8
MITTA
100
AcDbPolyline
 90
        4
 70
     0
 43
0.0
 10
177.5
 20
137.0
 10
174.0
 20
137.0
 10
174.0
 20
143.0
 10
177.5
 20
143.0
  0
LWPOLYLINE
  5
581
330
1F
100
AcDbEntity
  8
MITTA
100
AcDbPolyline
 90
        4
 70
     0
 43
0.0
 10
177.5
 20
149.0
 10
174.0
 20
149.0
 10
174.0
 20
155.0
 10
177.5
 20
155.0
  0
LWPOLYLINE
  5
582
330
1F
100
AcDbEntity
  8
MITTA
100
AcDbPolyline
 90
        4
 70
     0
 43
0.0
 10
177.5
 20
161.0
 10
174.0
 20
161.0
 10
174.0
 20
167.0
 10
177.5
 20
167.0
  0
LWPOLYLINE
  5
583
330
1F
100
AcDbEntity
  8
MITTA
100
AcDbPolyline
 90
        4
 70
     0
 43
0.0
 10
177.5
 20
173.0
 10
174.0
 20
173.0
 10
174.0
 20
179.0
 10
177.5
 20
179.0
  0
LWPOLYLINE
  5
584
330
1F
100
AcDbEntity
  8
MITTA
100
AcDbPolyline
 90
        4
 70
     0
 43
0.0
 10
177.5
 20
185.0
 10
174.0
 20
185.0
 10
174.0
 20
191.0
 10
177.5
 20
191.0
  0
TEXT
  5
585
330
1F
100
AcDbEntity
  8
MITTA
100
AcDbText
 10
167.5881419470013
 20
139.4794907058832
 30
0.0
 40
2.5
  1
14B
 41
0.9
  7
T25
100
AcDbText
  0
TEXT
  5
586
330
1F
100
AcDbEntity
  8
MITTA
100
AcDbText
 10
187.0
 20
144.0187049228297
 30
0.0
 40
2.5
  1
14A
 41
0.9
  7
T25
100
AcDbText
  0
TEXT
  5
587
330
1F
100
AcDbEntity
  8
MITTA
100
AcDbText
 10
167.5881419470013
 20
145.4794907058832
 30
0.0
 40
2.5
  1
15B
 41
0.9
  7
T25
100
AcDbText
  0
TEXT
  5
588
330
1F
100
AcDbEntity
  8
MITTA
100
AcDbText
 10
187.0
 20
150.0187049228297
 30
0.0
 40
2.5
  1
15A
 41
0.9
  7
T25
100
AcDbText
  0
TEXT
  5
589
330
1F
100
AcDbEntity
  8
MITTA
100
AcDbText
 10
167.5881419470013
 20
151.4794907058832
 30
0.0
 40
2.5
  1
16B
 41
0.9
  7
T25
100
AcDbText
  0
TEXT
  5
58A
330
1F
100
AcDbEntity
  8
MITTA
100
AcDbText
 10
187.0
 20
156.0187049228297
 30
0.0
 40
2.5
  1
16A
 41
0.9
  7
T25
100
AcDbText
  0
TEXT
  5
58B
330
1F
100
AcDbEntity
  8
MITTA
100
AcDbText
 10
167.5881419470013
 20
157.4794907058832
 30
0.0
 40
2.5
  1
17B
 41
0.9
  7
T25
100
AcDbText
  0
TEXT
  5
58C
330
1F
100
AcDbEntity
  8
MITTA
100
AcDbText
 10
187.0
 20
162.0187049228297
 30
0.0
 40
2.5
  1
17A
 41
0.9
  7
T25
100
AcDbText
  0
TEXT
  5
58D
330
1F
100
AcDbEntity
  8
MITTA
100
AcDbText
 10
167.5881419470013
 20
163.4794907058832
 30
0.0
 40
2.5
  1
18B
 41
0.9
  7
T25
100
AcDbText
  0
TEXT
  5
58E
330
1F
100
AcDbEntity
  8
MITTA
100
AcDbText
 10
187.0
 20
168.4743165338875
 30
0.0
 40
2.5
  1
18A
 41
0.9
  7
T25
100
AcDbText
  0
TEXT
  5
58F
330
1F
100
AcDbEntity
  8
MITTA
100
AcDbText
 10
167.5881419470013
 20
169.4794907058832
 30
0.0
 40
2.5
  1
19B
 41
0.9
  7
T25
100
AcDbText
  0
TEXT
  5
590
330
1F
100
AcDbEntity
  8
MITTA
100
AcDbText
 10
187.0
 20
174.4743165338875
 30
0.0
 40
2.5
  1
19A
 41
0.9
  7
T25
100
AcDbText
  0
TEXT
  5
591
330
1F
100
AcDbEntity
  8
MITTA
100
AcDbText
 10
167.5881419470013
 20
175.4794907058832
 30
0.0
 40
2.5
  1
20B
 41
0.9
  7
T25
100
AcDbText
  0
TEXT
  5
592
330
1F
100
AcDbEntity
  8
MITTA
100
AcDbText
 10
187.0
 20
180.4743165338875
 30
0.0
 40
2.5
  1
20A
 41
0.9
  7
T25
100
AcDbText
  0
TEXT
  5
593
330
1F
100
AcDbEntity
  8
MITTA
100
AcDbText
 10
167.5881419470013
 20
181.4794907058832
 30
0.0
 40
2.5
  1
5B
 41
0.9
  7
T25
100
AcDbText
  0
TEXT
  5
594
330
1F
100
AcDbEntity
  8
MITTA
100
AcDbText
 10
187.0
 20
186.4743165338875
 30
0.0
 40
2.5
  1
5A
 41
0.9
  7
T25
100
AcDbText
  0
TEXT
  5
595
330
1F
100
AcDbEntity
  8
MITTA
100
AcDbText
 10
167.5881419470013
 20
187.4794907058832
 30
0.0
 40
2.5
  1
6B
 41
0.9
  7
T25
100
AcDbText
  0
TEXT
  5
596
330
1F
100
AcDbEntity
  8
MITTA
100
AcDbText
 10
187.0
 20
192.4743165338875
 30
0.0
 40
2.5
  1
6A
 41
0.9
  7
T25
100
AcDbText
  0
LINE
  5
598
330
1F
100
AcDbEntity
  8
MITTA
100
AcDbLine
 10
177.0
 20
196.0
 30
0.0
 11
177.0
 21
198.5
 31
0.0
  0
TEXT
  5
59D
330
1F
100
AcDbEntity
  8
MITTA
100
AcDbText
 10
187.0
 20
197.4743165338875
 30
0.0
 40
2.5
  1
7A
 41
0.9
  7
T25
100
AcDbText
  0
TEXT
  5
59E
330
1F
100
AcDbEntity
  8
MITTA
100
AcDbText
 10
170.5
 20
196.7233689031451
 30
0.0
 40
2.5
  1
7B
 41
0.9
  7
T25
100
AcDbText
  0
TEXT
  5
59F
330
1F
100
AcDbEntity
  8
MITTA
100
AcDbText
 10
170.5
 20
202.2233689031451
 30
0.0
 40
2.5
  1
8B
 41
0.9
  7
T25
100
AcDbText
  0
TEXT
  5
5A0
330
1F
100
AcDbEntity
  8
MITTA
100
AcDbText
 10
187.0
 20
202.9743165338875
 30
0.0
 40
2.5
  1
8A
 41
0.9
  7
T25
100
AcDbText
  0
TEXT
  5
5A1
330
1F
100
AcDbEntity
  8
MITTA
100
AcDbText
 10
187.0
 20
215.4743165338875
 30
0.0
 40
2.5
  1
21A
 41
0.9
  7
T25
100
AcDbText
  0
TEXT
  5
5A2
330
1F
100
AcDbEntity
  8
MITTA
100
AcDbText
 10
169.0
 20
215.2233689031451
 30
0.0
 40
2.5
  1
21B
 41
0.9
  7
T25
100
AcDbText
  0
TEXT
  5
5A3
330
1F
100
AcDbEntity
  8
MITTA
100
AcDbText
 10
187.0
 20
227.9743165338875
 30
0.0
 40
2.5
  1
22A
 41
0.9
  7
T25
100
AcDbText
  0
TEXT
  5
5A4
330
1F
100
AcDbEntity
  8
MITTA
100
AcDbText
 10
169.0
 20
227.7233689031451
 30
0.0
 40
2.5
  1
22B
 41
0.9
  7
T25
100
AcDbText
  0
TEXT
  5
5A5
330
1F
100
AcDbEntity
  8
MITTA
100
AcDbText
 10
187.0
 20
240.4743165338875
 30
0.0
 40
2.5
  1
23A
 41
0.9
  7
T25
100
AcDbText
  0
TEXT
  5
5A6
330
1F
100
AcDbEntity
  8
MITTA
100
AcDbText
 10
169.0
 20
240.2233689031451
 30
0.0
 40
2.5
  1
23B
 41
0.9
  7
T25
100
AcDbText
  0
LWPOLYLINE
  5
5A8
330
1F
100
AcDbEntity
  8
TEXT25
100
AcDbPolyline
 90
        4
 70
     0
 43
0.0
 10
174.0
 20
56.5
 10
174.0
 20
46.5
 10
171.0
 20
39.0
 10
173.0
 20
38.0
  0
TEXT
  5
5AA
330
1F
100
AcDbEntity
  8
TEXT25
100
AcDbText
 10
173.5
 20
31.0
 30
0.0
 40
2.5
  1
1A
 50
90.0
 41
0.9
  7
T25
100
AcDbText
  0
TEXT
  5
5AB
330
1F
100
AcDbEntity
  8
TEXT25
100
AcDbText
 10
173.5
 20
47.0
 30
0.0
 40
2.5
  1
1B
 50
90.0
 41
0.9
  7
T25
100
AcDbText
  0
LINE
  5
5AC
330
1F
100
AcDbEntity
  8
TEXT25
100
AcDbLine
 10
174.0
 20
28.0
 30
0.0
 11
174.0
 21
39.0
 31
0.0
  0
LINE
  5
5AD
330
1F
100
AcDbEntity
  8
TEXT25
100
AcDbLine
 10
174.0
 20
39.0
 30
0.0
 11
171.5
 21
39.0
 31
0.0
  0
LWPOLYLINE
  5
5AE
330
1F
100
AcDbEntity
  8
TEXT25
100
AcDbPolyline
 90
        4
 70
     0
 43
0.0
 10
182.5
 20
56.5
 10
182.5
 20
46.5
 10
179.4999999999999
 20
39.0
 10
181.4999999999999
 20
38.0
  0
LINE
  5
5AF
330
1F
100
AcDbEntity
  8
TEXT25
100
AcDbLine
 10
182.5
 20
28.0
 30
0.0
 11
182.5
 21
39.0
 31
0.0
  0
TEXT
  5
5B0
330
1F
100
AcDbEntity
  8
TEXT25
100
AcDbText
 10
182.0
 20
31.0
 30
0.0
 40
2.5
  1
12A
 50
90.0
 41
0.9
  7
T25
100
AcDbText
  0
LINE
  5
5B1
330
1F
100
AcDbEntity
  8
TEXT25
100
AcDbLine
 10
182.5
 20
39.0
 30
0.0
 11
180.0
 21
39.0
 31
0.0
  0
TEXT
  5
5B2
330
1F
100
AcDbEntity
  8
TEXT25
100
AcDbText
 10
182.0
 20
47.0
 30
0.0
 40
2.5
  1
12B
 50
90.0
 41
0.9
  7
T25
100
AcDbText
  0
TEXT
  5
5B5
330
1F
100
AcDbEntity
  8
TEXT25
100
AcDbText
 10
169.0
 20
74.5
 30
0.0
 40
2.5
  1
24B
 41
0.9
  7
T25
100
AcDbText
  0
TEXT
  5
5B6
330
1F
100
AcDbEntity
  8
TEXT25
100
AcDbText
 10
185.0
 20
74.5
 30
0.0
 40
2.5
  1
24A
 41
0.9
  7
T25
100
AcDbText
  0
LINE
  5
5B7
330
1F
100
AcDbEntity
  8
TEXT25
100
AcDbLine
 10
168.0
 20
74.0
 30
0.0
 11
177.0
 21
74.0
 31
0.0
  0
LINE
  5
5B8
330
1F
100
AcDbEntity
  8
TEXT25
100
AcDbLine
 10
177.0
 20
74.0
 30
0.0
 11
177.0
 21
76.5
 31
0.0
  0
LINE
  5
5B9
330
1F
100
AcDbEntity
  8
TEXT25
100
AcDbLine
 10
191.5
 20
74.0
 30
0.0
 11
184.4999999999999
 21
74.0
 31
0.0
  0
LINE
  5
5BA
330
1F
100
AcDbEntity
  8
TEXT25
100
AcDbLine
 10
184.4999999999999
 20
74.0
 30
0.0
 11
177.0
 21
77.0
 31
0.0
  0
LINE
  5
5BB
330
1F
100
AcDbEntity
  8
TEXT25
100
AcDbLine
 10
177.0
 20
77.0
 30
0.0
 11
176.0
 21
75.0
 31
0.0
  0
LWPOLYLINE
  5
5BD
330
1F
100
AcDbEntity
  8
TEXT25
100
AcDbPolyline
 90
        3
 70
     0
 43
0.0
 10
168.0
 20
112.0
 10
177.0
 20
112.0
 10
177.0
 20
114.0
  0
LWPOLYLINE
  5
5BF
330
1F
100
AcDbEntity
  8
TEXT25
100
AcDbPolyline
 90
        3
 70
     0
 43
0.0
 10
191.5
 20
112.0
 10
184.0
 20
112.0
 10
176.5
 20
113.5
  0
TEXT
  5
5C0
330
1F
100
AcDbEntity
  8
TEXT25
100
AcDbText
 10
169.0
 20
112.5
 30
0.0
 40
2.5
  1
2B
 41
0.9
  7
T25
100
AcDbText
  0
TEXT
  5
5C1
330
1F
100
AcDbEntity
  8
TEXT25
100
AcDbText
 10
187.0
 20
112.5
 30
0.0
 40
2.5
  1
2A
 41
0.9
  7
T25
100
AcDbText
  0
LWPOLYLINE
  5
5C2
330
1F
100
AcDbEntity
  8
TEXT25
100
AcDbPolyline
 90
        3
 70
     0
 43
0.0
 10
168.0
 20
106.0
 10
177.0
 20
106.0
 10
177.0
 20
108.0
  0
TEXT
  5
5C3
330
1F
100
AcDbEntity
  8
TEXT25
100
AcDbText
 10
169.0
 20
106.4999999999999
 30
0.0
 40
2.5
  1
3B
 41
0.9
  7
T25
100
AcDbText
  0
TEXT
  5
5C4
330
1F
100
AcDbEntity
  8
TEXT25
100
AcDbText
 10
187.0
 20
106.4999999999999
 30
0.0
 40
2.5
  1
3A
 41
0.9
  7
T25
100
AcDbText
  0
LWPOLYLINE
  5
5C5
330
1F
100
AcDbEntity
  8
TEXT25
100
AcDbPolyline
 90
        3
 70
     0
 43
0.0
 10
191.5
 20
106.0
 10
184.0
 20
106.0
 10
176.5
 20
107.4999999999999
  0
LWPOLYLINE
  5
5C6
330
1F
100
AcDbEntity
  8
TEXT25
100
AcDbPolyline
 90
        3
 70
     0
 43
0.0
 10
168.0
 20
100.0
 10
177.0
 20
100.0
 10
177.0
 20
102.0
  0
TEXT
  5
5C7
330
1F
100
AcDbEntity
  8
TEXT25
100
AcDbText
 10
169.0
 20
100.5
 30
0.0
 40
2.5
  1
4B
 41
0.9
  7
T25
100
AcDbText
  0
TEXT
  5
5C8
330
1F
100
AcDbEntity
  8
TEXT25
100
AcDbText
 10
187.0
 20
100.5
 30
0.0
 40
2.5
  1
4A
 41
0.9
  7
T25
100
AcDbText
  0
LWPOLYLINE
  5
5C9
330
1F
100
AcDbEntity
  8
TEXT25
100
AcDbPolyline
 90
        3
 70
     0
 43
0.0
 10
191.5
 20
100.0
 10
184.0
 20
100.0
 10
176.5
 20
101.5
  0
LWPOLYLINE
  5
5CA
330
1F
100
AcDbEntity
  8
TEXT25
100
AcDbPolyline
 90
        3
 70
     0
 43
0.0
 10
168.0
 20
94.0
 10
177.0
 20
94.0
 10
177.0
 20
96.0
  0
TEXT
  5
5CB
330
1F
100
AcDbEntity
  8
TEXT25
100
AcDbText
 10
169.0
 20
94.50000000000001
 30
0.0
 40
2.5
  1
9B
 41
0.9
  7
T25
100
AcDbText
  0
TEXT
  5
5CC
330
1F
100
AcDbEntity
  8
TEXT25
100
AcDbText
 10
187.0
 20
94.50000000000001
 30
0.0
 40
2.5
  1
9A
 41
0.9
  7
T25
100
AcDbText
  0
LWPOLYLINE
  5
5CD
330
1F
100
AcDbEntity
  8
TEXT25
100
AcDbPolyline
 90
        3
 70
     0
 43
0.0
 10
191.5
 20
94.0
 10
184.0
 20
94.0
 10
176.5
 20
95.5
  0
LWPOLYLINE
  5
5CE
330
1F
100
AcDbEntity
  8
TEXT25
100
AcDbPolyline
 90
        3
 70
     0
 43
0.0
 10
168.0
 20
88.0
 10
177.0
 20
88.0
 10
177.0
 20
90.0
  0
TEXT
  5
5CF
330
1F
100
AcDbEntity
  8
TEXT25
100
AcDbText
 10
169.0
 20
88.49999999999999
 30
0.0
 40
2.5
  1
10B
 41
0.9
  7
T25
100
AcDbText
  0
TEXT
  5
5D0
330
1F
100
AcDbEntity
  8
TEXT25
100
AcDbText
 10
185.0
 20
88.49999999999999
 30
0.0
 40
2.5
  1
10A
 41
0.9
  7
T25
100
AcDbText
  0
LWPOLYLINE
  5
5D1
330
1F
100
AcDbEntity
  8
TEXT25
100
AcDbPolyline
 90
        3
 70
     0
 43
0.0
 10
191.5
 20
88.0
 10
184.0
 20
88.0
 10
176.5
 20
89.50000000000001
  0
LWPOLYLINE
  5
5D2
330
1F
100
AcDbEntity
  8
TEXT25
100
AcDbPolyline
 90
        3
 70
     0
 43
0.0
 10
168.0
 20
82.0
 10
177.0
 20
82.0
 10
177.0
 20
84.0
  0
TEXT
  5
5D3
330
1F
100
AcDbEntity
  8
TEXT25
100
AcDbText
 10
169.0
 20
82.5
 30
0.0
 40
2.5
  1
11B
 41
0.9
  7
T25
100
AcDbText
  0
TEXT
  5
5D4
330
1F
100
AcDbEntity
  8
TEXT25
100
AcDbText
 10
185.0
 20
82.5
 30
0.0
 40
2.5
  1
11A
 41
0.9
  7
T25
100
AcDbText
  0
LWPOLYLINE
  5
5D5
330
1F
100
AcDbEntity
  8
TEXT25
100
AcDbPolyline
 90
        3
 70
     0
 43
0.0
 10
191.5
 20
82.0
 10
184.0
 20
82.0
 10
176.5
 20
83.49999999999999
  0
LWPOLYLINE
  5
5D6
330
1F
100
AcDbEntity
  8
TEXT25
100
AcDbPolyline
 90
        3
 70
     0
 43
0.0
 10
169.5
 20
67.5
 10
177.0
 20
67.5
 10
184.0
 20
64.5
  0
TEXT
  5
5D8
330
1F
100
AcDbEntity
  8
TEXT25
100
AcDbText
 10
185.0
 20
68.0
 30
0.0
 40
2.5
  1
29
 41
0.9
  7
T25
100
AcDbText
  0
TEXT
  5
5D9
330
1F
100
AcDbEntity
  8
TEXT25
100
AcDbText
 10
169.0
 20
68.0
 30
0.0
 40
2.5
  1
30
 41
0.9
  7
T25
100
AcDbText
  0
LINE
  5
5DA
330
1F
100
AcDbEntity
  8
TEXT25
100
AcDbLine
 10
184.4999999999999
 20
67.5
 30
0.0
 11
190.5
 21
67.5
 31
0.0
  0
LWPOLYLINE
  5
5DB
330
1F
100
AcDbEntity
  8
MITTA
100
AcDbPolyline
 90
        3
 70
     0
 43
0.0
 10
144.5
 20
239.5
 10
177.0
 20
239.5
 10
177.0
 20
242.0
  0
LWPOLYLINE
  5
5DC
330
1F
100
AcDbEntity
  8
MITTA
100
AcDbPolyline
 90
        3
 70
     0
 43
0.0
 10
144.5
 20
227.0
 10
177.0
 20
227.0
 10
177.0
 20
229.4999999999999
  0
LWPOLYLINE
  5
5DD
330
1F
100
AcDbEntity
  8
MITTA
100
AcDbPolyline
 90
        3
 70
     0
 43
0.0
 10
144.5
 20
214.5
 10
177.0
 20
214.5
 10
177.0
 20
217.0
  0
LWPOLYLINE
  5
5DE
330
1F
100
AcDbEntity
  8
MITTA
100
AcDbPolyline
 90
        3
 70
     0
 43
0.0
 10
144.5
 20
202.0
 10
177.0
 20
202.0
 10
177.0
 20
204.4999999999999
  0
LWPOLYLINE
  5
5E0
330
1F
100
AcDbEntity
  8
MITTA
100
AcDbPolyline
 90
        4
 70
     0
 43
0.0
 10
144.5
 20
193.0
 10
151.0
 20
193.0
 10
151.0
 20
196.0
 10
177.0
 20
196.0
  0
LWPOLYLINE
  5
5E1
330
1F
100
AcDbEntity
  8
MITTA
100
AcDbPolyline
 90
        3
 70
     0
 43
0.0
 10
144.5
 20
180.4999999999999
 10
177.5
 20
180.4999999999999
 10
177.5
 20
183.0
  0
LWPOLYLINE
  5
5E2
330
1F
100
AcDbEntity
  8
MITTA
100
AcDbPolyline
 90
        3
 70
     0
 43
0.0
 10
144.5
 20
168.5
 10
177.5
 20
168.5
 10
177.5
 20
171.0
  0
LWPOLYLINE
  5
5E3
330
1F
100
AcDbEntity
  8
MITTA
100
AcDbPolyline
 90
        3
 70
     0
 43
0.0
 10
144.5
 20
156.4999999999999
 10
177.5
 20
156.4999999999999
 10
177.5
 20
159.0
  0
LWPOLYLINE
  5
5E4
330
1F
100
AcDbEntity
  8
MITTA
100
AcDbPolyline
 90
        3
 70
     0
 43
0.0
 10
144.5
 20
144.5
 10
177.5
 20
144.5
 10
177.5
 20
147.0
  0
LWPOLYLINE
  5
5E5
330
1F
100
AcDbEntity
  8
MITTA
100
AcDbPolyline
 90
        3
 70
     0
 43
0.0
 10
144.5
 20
132.4999999999999
 10
177.5
 20
132.4999999999999
 10
177.5
 20
135.0
  0
LWPOLYLINE
  5
5E6
330
1F
100
AcDbEntity
  8
MITTA
100
AcDbPolyline
 90
        3
 70
     0
 43
0.0
 10
177.5
 20
189.0
 10
177.5
 20
186.5
 10
150.0
 20
186.5
  0
LWPOLYLINE
  5
5E7
330
1F
100
AcDbEntity
  8
MITTA
100
AcDbPolyline
 90
        3
 70
     0
 43
0.0
 10
177.5
 20
177.0
 10
177.5
 20
174.5
 10
150.0
 20
174.5
  0
LWPOLYLINE
  5
5E8
330
1F
100
AcDbEntity
  8
MITTA
100
AcDbPolyline
 90
        3
 70
     0
 43
0.0
 10
177.5
 20
165.0
 10
177.5
 20
162.5
 10
150.0
 20
162.5
  0
LWPOLYLINE
  5
5E9
330
1F
100
AcDbEntity
  8
MITTA
100
AcDbPolyline
 90
        3
 70
     0
 43
0.0
 10
177.5
 20
153.0
 10
177.5
 20
150.5
 10
150.0
 20
150.5
  0
LWPOLYLINE
  5
5EA
330
1F
100
AcDbEntity
  8
MITTA
100
AcDbPolyline
 90
        3
 70
     0
 43
0.0
 10
177.5
 20
141.0
 10
177.5
 20
138.5
 10
150.0
 20
138.5
  0
LINE
  5
5EC
330
1F
100
AcDbEntity
  8
KATKO07
100
AcDbLine
 10
174.0
 20
28.0
 30
0.0
 11
174.0
 21
17.5
 31
0.0
  0
LINE
  5
5ED
330
1F
100
AcDbEntity
  8
KATKO07
100
AcDbLine
 10
182.5
 20
28.0
 30
0.0
 11
182.5
 21
17.5
 31
0.0
  0
TEXT
  5
5EE
330
1F
100
AcDbEntity
  8
TEXT25
100
AcDbText
 10
172.5
 20
13.5
 30
0.0
 40
2.5
  1
+
 41
0.9
  7
T25
100
AcDbText
  0
TEXT
  5
5EF
330
1F
100
AcDbEntity
  8
TEXT25
100
AcDbText
 10
181.0
 20
13.5
 30
0.0
 40
2.5
  1
-
 41
0.9
  7
T25
100
AcDbText
  0
TEXT
  5
5F0
330
1F
100
AcDbEntity
  8
TEXT25
100
AcDbText
 10
172.5
 20
57.5
 30
0.0
 40
2.5
  1
+
 41
0.9
  7
T25
100
AcDbText
  0
TEXT
  5
5F1
330
1F
100
AcDbEntity
  8
TEXT25
100
AcDbText
 10
181.0
 20
57.5
 30
0.0
 40
2.5
  1
-
 41
0.9
  7
T25
100
AcDbText
  0
TEXT
  5
5F2
330
1F
100
AcDbEntity
  8
TEXT25
100
AcDbText
 10
176.5
 20
247.0
 30
0.0
 40
2.5
  1
101
 41
0.9
  7
T25
100
AcDbText
  0
TEXT
  5
5F3
330
1F
100
AcDbEntity
  8
MITTA
100
AcDbText
 10
160.4999999999999
 20
133.2233689031451
 30
0.0
 40
2.5
  1
IL1
 41
0.9
  7
T25
100
AcDbText
  0
TEXT
  5
5F4
330
1F
100
AcDbEntity
  8
MITTA
100
AcDbText
 10
160.4999999999999
 20
139.2233689031451
 30
0.0
 40
2.5
  1
IL1
 41
0.9
  7
T25
100
AcDbText
  0
TEXT
  5
5F5
330
1F
100
AcDbEntity
  8
MITTA
100
AcDbText
 10
160.4999999999999
 20
145.2233689031451
 30
0.0
 40
2.5
  1
IL2
 41
0.9
  7
T25
100
AcDbText
  0
TEXT
  5
5F6
330
1F
100
AcDbEntity
  8
MITTA
100
AcDbText
 10
160.4999999999999
 20
151.2233689031451
 30
0.0
 40
2.5
  1
IL2
 41
0.9
  7
T25
100
AcDbText
  0
TEXT
  5
5F7
330
1F
100
AcDbEntity
  8
MITTA
100
AcDbText
 10
160.4999999999999
 20
157.2233689031451
 30
0.0
 40
2.5
  1
IL3
 41
0.9
  7
T25
100
AcDbText
  0
TEXT
  5
5F8
330
1F
100
AcDbEntity
  8
MITTA
100
AcDbText
 10
160.4999999999999
 20
163.2233689031451
 30
0.0
 40
2.5
  1
IL3
 41
0.9
  7
T25
100
AcDbText
  0
TEXT
  5
5F9
330
1F
100
AcDbEntity
  8
MITTA
100
AcDbText
 10
160.4999999999999
 20
175.2233689031451
 30
0.0
 40
2.5
  1
IN
 41
0.9
  7
T25
100
AcDbText
  0
TEXT
  5
5FA
330
1F
100
AcDbEntity
  8
MITTA
100
AcDbText
 10
160.4999999999999
 20
169.2233689031451
 30
0.0
 40
2.5
  1
IN
 41
0.9
  7
T25
100
AcDbText
  0
TEXT
  5
5FB
330
1F
100
AcDbEntity
  8
MITTA
100
AcDbText
 10
160.4999999999999
 20
187.2233689031451
 30
0.0
 40
2.5
  1
IN
 41
0.9
  7
T25
100
AcDbText
  0
TEXT
  5
5FC
330
1F
100
AcDbEntity
  8
MITTA
100
AcDbText
 10
160.4999999999999
 20
181.2233689031451
 30
0.0
 40
2.5
  1
IN
 41
0.9
  7
T25
100
AcDbText
  0
TEXT
  5
5FD
330
1F
100
AcDbEntity
  8
MITTA
100
AcDbText
 10
160.4999999999999
 20
196.7233689031451
 30
0.0
 40
2.5
  1
UN
 41
0.9
  7
T25
100
AcDbText
  0
TEXT
  5
5FE
330
1F
100
AcDbEntity
  8
MITTA
100
AcDbText
 10
160.4999999999999
 20
202.7233689031451
 30
0.0
 40
2.5
  1
UN
 41
0.9
  7
T25
100
AcDbText
  0
TEXT
  5
5FF
330
1F
100
AcDbEntity
  8
MITTA
100
AcDbText
 10
160.4999999999999
 20
215.2233689031451
 30
0.0
 40
2.5
  1
UL1
 41
0.9
  7
T25
100
AcDbText
  0
TEXT
  5
600
330
1F
100
AcDbEntity
  8
MITTA
100
AcDbText
 10
160.4999999999999
 20
227.7233689031451
 30
0.0
 40
2.5
  1
UL2
 41
0.9
  7
T25
100
AcDbText
  0
TEXT
  5
601
330
1F
100
AcDbEntity
  8
MITTA
100
AcDbText
 10
160.4999999999999
 20
240.2233689031451
 30
0.0
 40
2.5
  1
UL3
 41
0.9
  7
T25
100
AcDbText
  0
TEXT
  5
608
330
1F
100
AcDbEntity
  8
TEXT25
100
AcDbText
 10
309.0
 20
202.0
 30
0.0
 40
2.5
  1
101
 41
0.9
  7
T25
100
AcDbText
  0
TEXT
  5
609
330
1F
100
AcDbEntity
  8
TEXT25
100
AcDbText
 10
309.0
 20
195.9523809523809
 30
0.0
 40
2.5
  1
RTXP 24
 41
0.9
  7
T25
100
AcDbText
  0
TEXT
  5
60A
330
1F
100
AcDbEntity
  8
TEXT25
100
AcDbText
 10
309.0
 20
191.9047619047619
 30
0.0
 40
2.5
  1
RK 926 315-AG
 41
0.9
  7
T25
100
AcDbText
  0
TEXT
  5
60F
330
1F
100
AcDbEntity
  8
MITTA
100
AcDbText
 10
140.2586784792622
 20
200.9031639312423
 30
0.0
 40
2.5
  1
18
 41
0.9
  7
T25
100
AcDbText
  0
TEXT
  5
610
330
1F
100
AcDbEntity
  8
MITTA
100
AcDbText
 10
140.2586784792622
 20
204.6901992901138
 30
0.0
 40
2.5
  1
19
 41
0.9
  7
T25
100
AcDbText
  0
TEXT
  5
611
330
1F
100
AcDbEntity
  8
MITTA
100
AcDbText
 10
140.2586784792622
 20
213.5853279727375
 30
0.0
 40
2.5
  1
21
 41
0.9
  7
T25
100
AcDbText
  0
TEXT
  5
612
330
1F
100
AcDbEntity
  8
MITTA
100
AcDbText
 10
140.2586784792622
 20
217.2842928413622
 30
0.0
 40
2.5
  1
22
 41
0.9
  7
T25
100
AcDbText
  0
TEXT
  5
613
330
1F
100
AcDbEntity
  8
MITTA
100
AcDbText
 10
140.2586784792622
 20
226.0913510337392
 30
0.0
 40
2.5
  1
24
 41
0.9
  7
T25
100
AcDbText
  0
TEXT
  5
614
330
1F
100
AcDbEntity
  8
MITTA
100
AcDbText
 10
140.2586784792622
 20
229.684623246486
 30
0.0
 40
2.5
  1
25
 41
0.9
  7
T25
100
AcDbText
  0
TEXT
  5
615
330
1F
100
AcDbEntity
  8
MITTA
100
AcDbText
 10
140.2586784792622
 20
238.5797519291097
 30
0.0
 40
2.5
  1
27
 41
0.9
  7
T25
100
AcDbText
  0
LINE
  5
618
330
1F
100
AcDbEntity
  8
MITTA
100
AcDbLine
 10
98.488127647287
 20
97.5
 30
0.0
 11
107.488127647287
 21
97.5
 31
0.0
  0
LINE
  5
619
330
1F
100
AcDbEntity
  8
MITTA
100
AcDbLine
 10
107.488127647287
 20
88.49999999999999
 30
0.0
 11
98.488127647287
 21
88.49999999999999
 31
0.0
  0
LWPOLYLINE
  5
61A
330
1F
100
AcDbEntity
  8
MITTA
100
AcDbPolyline
 90
        3
 70
     1
 43
0.0
 10
105.988127647287
 20
96.5
 10
105.988127647287
 20
89.50000000000001
 10
99.488127647287
 20
93.0
  0
TEXT
  5
61B
330
1F
100
AcDbEntity
  8
MITTA
100
AcDbText
 10
98.98812764728701
 20
89.0
 30
0.0
 40
1.5
  1
DIFF
 41
0.9
  7
T25
100
AcDbText
  0
LINE
  5
61C
330
1F
100
AcDbEntity
  8
MITTA
100
AcDbLine
 10
98.488127647287
 20
88.49999999999999
 30
0.0
 11
98.488127647287
 21
97.5
 31
0.0
  0
LINE
  5
61D
330
1F
100
AcDbEntity
  8
MITTA
100
AcDbLine
 10
98.488127647287
 20
93.0
 30
0.0
 11
93.488127647287
 21
93.0
 31
0.0
  0
LINE
  5
61E
330
1F
100
AcDbEntity
  8
MITTA
100
AcDbLine
 10
92.488127647287
 20
93.0
 30
0.0
 11
94.488127647287
 21
94.0
 31
0.0
  0
LINE
  5
61F
330
1F
100
AcDbEntity
  8
MITTA
100
AcDbLine
 10
94.488127647287
 20
94.0
 30
0.0
 11
94.488127647287
 21
92.0
 31
0.0
  0
LINE
  5
620
330
1F
100
AcDbEntity
  8
MITTA
100
AcDbLine
 10
94.488127647287
 20
92.0
 30
0.0
 11
92.488127647287
 21
93.0
 31
0.0
  0
HATCH
  5
621
330
1F
100
AcDbEntity
  8
MITTA
100
AcDbHatch
 10
0.0
 20
0.0
 30
0.0
210
0.0
220
0.0
230
1.0
  2
SOLID
 70
     1
 71
     0
 91
        1
 92
        1
 93
        3
 72
     1
 10
92.488127647287
 20
93.0
 11
94.488127647287
 21
94.0
 72
     1
 10
94.488127647287
 20
94.0
 11
94.488127647287
 21
92.0
 72
     1
 10
94.488127647287
 20
92.0
 11
92.488127647287
 21
93.0
 97
        0
 75
     0
 76
     1
 98
        1
 10
-61.511872352713
 20
-23.5
  0
LINE
  5
622
330
1F
100
AcDbEntity
  8
MITTA
100
AcDbLine
 10
107.488127647287
 20
97.5
 30
0.0
 11
107.488127647287
 21
88.49999999999999
 31
0.0
  0
LINE
  5
626
330
1F
100
AcDbEntity
  8
MITTA
100
AcDbLine
 10
98.488127647287
 20
107.4999999999999
 30
0.0
 11
107.488127647287
 21
107.4999999999999
 31
0.0
  0
LINE
  5
627
330
1F
100
AcDbEntity
  8
MITTA
100
AcDbLine
 10
107.488127647287
 20
98.50000000000001
 30
0.0
 11
98.488127647287
 21
98.50000000000001
 31
0.0
  0
LWPOLYLINE
  5
628
330
1F
100
AcDbEntity
  8
MITTA
100
AcDbPolyline
 90
        3
 70
     1
 43
0.0
 10
105.988127647287
 20
106.4999999999999
 10
105.988127647287
 20
99.50000000000001
 10
99.488127647287
 20
103.0
  0
TEXT
  5
629
330
1F
100
AcDbEntity
  8
MITTA
100
AcDbText
 10
98.98812764728701
 20
99.0
 30
0.0
 40
1.5
  1
DIFF
 41
0.9
  7
T25
100
AcDbText
  0
LINE
  5
62A
330
1F
100
AcDbEntity
  8
MITTA
100
AcDbLine
 10
98.488127647287
 20
98.50000000000001
 30
0.0
 11
98.488127647287
 21
107.4999999999999
 31
0.0
  0
LINE
  5
62B
330
1F
100
AcDbEntity
  8
MITTA
100
AcDbLine
 10
98.488127647287
 20
103.0
 30
0.0
 11
93.488127647287
 21
103.0
 31
0.0
  0
LINE
  5
62C
330
1F
100
AcDbEntity
  8
MITTA
100
AcDbLine
 10
92.488127647287
 20
103.0
 30
0.0
 11
94.488127647287
 21
104.0
 31
0.0
  0
LINE
  5
62D
330
1F
100
AcDbEntity
  8
MITTA
100
AcDbLine
 10
94.488127647287
 20
104.0
 30
0.0
 11
94.488127647287
 21
102.0
 31
0.0
  0
LINE
  5
62E
330
1F
100
AcDbEntity
  8
MITTA
100
AcDbLine
 10
94.488127647287
 20
102.0
 30
0.0
 11
92.488127647287
 21
103.0
 31
0.0
  0
HATCH
  5
62F
330
1F
100
AcDbEntity
  8
MITTA
100
AcDbHatch
 10
0.0
 20
0.0
 30
0.0
210
0.0
220
0.0
230
1.0
  2
SOLID
 70
     1
 71
     0
 91
        1
 92
        1
 93
        3
 72
     1
 10
92.488127647287
 20
103.0
 11
94.488127647287
 21
104.0
 72
     1
 10
94.488127647287
 20
104.0
 11
94.488127647287
 21
102.0
 72
     1
 10
94.488127647287
 20
102.0
 11
92.488127647287
 21
103.0
 97
        0
 75
     0
 76
     1
 98
        1
 10
-61.511872352713
 20
-13.5
  0
LINE
  5
630
330
1F
100
AcDbEntity
  8
MITTA
100
AcDbLine
 10
107.488127647287
 20
107.4999999999999
 30
0.0
 11
107.488127647287
 21
98.50000000000001
 31
0.0
  0
LINE
  5
634
330
1F
100
AcDbEntity
  8
MITTA
100
AcDbLine
 10
98.488127647287
 20
117.5
 30
0.0
 11
107.488127647287
 21
117.5
 31
0.0
  0
LINE
  5
635
330
1F
100
AcDbEntity
  8
MITTA
100
AcDbLine
 10
107.488127647287
 20
108.4999999999999
 30
0.0
 11
98.488127647287
 21
108.4999999999999
 31
0.0
  0
LWPOLYLINE
  5
636
330
1F
100
AcDbEntity
  8
MITTA
100
AcDbPolyline
 90
        3
 70
     1
 43
0.0
 10
105.988127647287
 20
116.5
 10
105.988127647287
 20
109.4999999999999
 10
99.488127647287
 20
113.0
  0
TEXT
  5
637
330
1F
100
AcDbEntity
  8
MITTA
100
AcDbText
 10
98.98812764728701
 20
109.0
 30
0.0
 40
1.5
  1
DIFF
 41
0.9
  7
T25
100
AcDbText
  0
LINE
  5
638
330
1F
100
AcDbEntity
  8
MITTA
100
AcDbLine
 10
98.488127647287
 20
108.4999999999999
 30
0.0
 11
98.488127647287
 21
117.5
 31
0.0
  0
LINE
  5
639
330
1F
100
AcDbEntity
  8
MITTA
100
AcDbLine
 10
98.488127647287
 20
113.0
 30
0.0
 11
93.488127647287
 21
113.0
 31
0.0
  0
LINE
  5
63A
330
1F
100
AcDbEntity
  8
MITTA
100
AcDbLine
 10
92.488127647287
 20
113.0
 30
0.0
 11
94.488127647287
 21
114.0
 31
0.0
  0
LINE
  5
63B
330
1F
100
AcDbEntity
  8
MITTA
100
AcDbLine
 10
94.488127647287
 20
114.0
 30
0.0
 11
94.488127647287
 21
112.0
 31
0.0
  0
LINE
  5
63C
330
1F
100
AcDbEntity
  8
MITTA
100
AcDbLine
 10
94.488127647287
 20
112.0
 30
0.0
 11
92.488127647287
 21
113.0
 31
0.0
  0
HATCH
  5
63D
330
1F
100
AcDbEntity
  8
MITTA
100
AcDbHatch
 10
0.0
 20
0.0
 30
0.0
210
0.0
220
0.0
230
1.0
  2
SOLID
 70
     1
 71
     0
 91
        1
 92
        1
 93
        3
 72
     1
 10
92.488127647287
 20
113.0
 11
94.488127647287
 21
114.0
 72
     1
 10
94.488127647287
 20
114.0
 11
94.488127647287
 21
112.0
 72
     1
 10
94.488127647287
 20
112.0
 11
92.488127647287
 21
113.0
 97
        0
 75
     0
 76
     1
 98
        1
 10
-61.511872352713
 20
-3.5
  0
LINE
  5
63E
330
1F
100
AcDbEntity
  8
MITTA
100
AcDbLine
 10
107.488127647287
 20
117.5
 30
0.0
 11
107.488127647287
 21
108.4999999999999
 31
0.0
  0
LINE
  5
640
330
1F
100
AcDbEntity
  8
MITTA
100
AcDbLine
 10
132.488127647287
 20
121.0
 30
0.0
 11
107.488127647287
 21
121.0
 31
0.0
  0
LINE
  5
641
330
1F
100
AcDbEntity
  8
MITTA
100
AcDbLine
 10
107.488127647287
 20
125.0
 30
0.0
 11
132.488127647287
 21
125.0
 31
0.0
  0
LINE
  5
642
330
1F
100
AcDbEntity
  8
MITTA
100
AcDbLine
 10
98.488127647287
 20
127.5
 30
0.0
 11
107.488127647287
 21
127.5
 31
0.0
  0
LINE
  5
643
330
1F
100
AcDbEntity
  8
MITTA
100
AcDbLine
 10
107.488127647287
 20
118.5
 30
0.0
 11
98.488127647287
 21
118.5
 31
0.0
  0
LWPOLYLINE
  5
644
330
1F
100
AcDbEntity
  8
MITTA
100
AcDbPolyline
 90
        3
 70
     1
 43
0.0
 10
105.988127647287
 20
126.5
 10
105.988127647287
 20
119.5
 10
99.488127647287
 20
123.0
  0
TEXT
  5
645
330
1F
100
AcDbEntity
  8
MITTA
100
AcDbText
 10
98.98812764728701
 20
119.0
 30
0.0
 40
1.5
  1
DIFF
 41
0.9
  7
T25
100
AcDbText
  0
LINE
  5
646
330
1F
100
AcDbEntity
  8
MITTA
100
AcDbLine
 10
98.488127647287
 20
118.5
 30
0.0
 11
98.488127647287
 21
127.5
 31
0.0
  0
LINE
  5
647
330
1F
100
AcDbEntity
  8
MITTA
100
AcDbLine
 10
98.488127647287
 20
123.0
 30
0.0
 11
93.488127647287
 21
123.0
 31
0.0
  0
LINE
  5
648
330
1F
100
AcDbEntity
  8
MITTA
100
AcDbLine
 10
92.488127647287
 20
123.0
 30
0.0
 11
94.488127647287
 21
124.0
 31
0.0
  0
LINE
  5
649
330
1F
100
AcDbEntity
  8
MITTA
100
AcDbLine
 10
94.488127647287
 20
124.0
 30
0.0
 11
94.488127647287
 21
122.0
 31
0.0
  0
LINE
  5
64A
330
1F
100
AcDbEntity
  8
MITTA
100
AcDbLine
 10
94.488127647287
 20
122.0
 30
0.0
 11
92.488127647287
 21
123.0
 31
0.0
  0
HATCH
  5
64B
330
1F
100
AcDbEntity
  8
MITTA
100
AcDbHatch
 10
0.0
 20
0.0
 30
0.0
210
0.0
220
0.0
230
1.0
  2
SOLID
 70
     1
 71
     0
 91
        1
 92
        1
 93
        3
 72
     1
 10
92.488127647287
 20
123.0
 11
94.488127647287
 21
124.0
 72
     1
 10
94.488127647287
 20
124.0
 11
94.488127647287
 21
122.0
 72
     1
 10
94.488127647287
 20
122.0
 11
92.488127647287
 21
123.0
 97
        0
 75
     0
 76
     1
 98
        1
 10
-61.511872352713
 20
6.5
  0
LINE
  5
64C
330
1F
100
AcDbEntity
  8
MITTA
100
AcDbLine
 10
107.488127647287
 20
127.5
 30
0.0
 11
107.488127647287
 21
118.5
 31
0.0
  0
LINE
  5
650
330
1F
100
AcDbEntity
  8
MITTA
100
AcDbLine
 10
98.488127647287
 20
57.5
 30
0.0
 11
107.488127647287
 21
57.5
 31
0.0
  0
LINE
  5
651
330
1F
100
AcDbEntity
  8
MITTA
100
AcDbLine
 10
107.488127647287
 20
48.5
 30
0.0
 11
98.488127647287
 21
48.5
 31
0.0
  0
LWPOLYLINE
  5
652
330
1F
100
AcDbEntity
  8
MITTA
100
AcDbPolyline
 90
        3
 70
     1
 43
0.0
 10
105.988127647287
 20
56.5
 10
105.988127647287
 20
49.5
 10
99.488127647287
 20
53.0
  0
TEXT
  5
653
330
1F
100
AcDbEntity
  8
MITTA
100
AcDbText
 10
98.98812764728701
 20
49.0
 30
0.0
 40
1.5
  1
DIFF
 41
0.9
  7
T25
100
AcDbText
  0
LINE
  5
654
330
1F
100
AcDbEntity
  8
MITTA
100
AcDbLine
 10
98.488127647287
 20
48.5
 30
0.0
 11
98.488127647287
 21
57.5
 31
0.0
  0
LINE
  5
655
330
1F
100
AcDbEntity
  8
MITTA
100
AcDbLine
 10
98.488127647287
 20
53.0
 30
0.0
 11
93.488127647287
 21
53.0
 31
0.0
  0
LINE
  5
656
330
1F
100
AcDbEntity
  8
MITTA
100
AcDbLine
 10
92.488127647287
 20
53.0
 30
0.0
 11
94.488127647287
 21
54.0
 31
0.0
  0
LINE
  5
657
330
1F
100
AcDbEntity
  8
MITTA
100
AcDbLine
 10
94.488127647287
 20
54.0
 30
0.0
 11
94.488127647287
 21
52.0
 31
0.0
  0
LINE
  5
658
330
1F
100
AcDbEntity
  8
MITTA
100
AcDbLine
 10
94.488127647287
 20
52.0
 30
0.0
 11
92.488127647287
 21
53.0
 31
0.0
  0
HATCH
  5
659
330
1F
100
AcDbEntity
  8
MITTA
100
AcDbHatch
 10
0.0
 20
0.0
 30
0.0
210
0.0
220
0.0
230
1.0
  2
SOLID
 70
     1
 71
     0
 91
        1
 92
        1
 93
        3
 72
     1
 10
92.488127647287
 20
53.0
 11
94.488127647287
 21
54.0
 72
     1
 10
94.488127647287
 20
54.0
 11
94.488127647287
 21
52.0
 72
     1
 10
94.488127647287
 20
52.0
 11
92.488127647287
 21
53.0
 97
        0
 75
     0
 76
     1
 98
        1
 10
-61.511872352713
 20
-63.5
  0
LINE
  5
65A
330
1F
100
AcDbEntity
  8
MITTA
100
AcDbLine
 10
107.488127647287
 20
57.5
 30
0.0
 11
107.488127647287
 21
48.5
 31
0.0
  0
LINE
  5
65E
330
1F
100
AcDbEntity
  8
MITTA
100
AcDbLine
 10
98.488127647287
 20
67.5
 30
0.0
 11
107.488127647287
 21
67.5
 31
0.0
  0
LINE
  5
65F
330
1F
100
AcDbEntity
  8
MITTA
100
AcDbLine
 10
107.488127647287
 20
58.5
 30
0.0
 11
98.488127647287
 21
58.5
 31
0.0
  0
LWPOLYLINE
  5
660
330
1F
100
AcDbEntity
  8
MITTA
100
AcDbPolyline
 90
        3
 70
     1
 43
0.0
 10
105.988127647287
 20
66.5
 10
105.988127647287
 20
59.5
 10
99.488127647287
 20
63.0
  0
TEXT
  5
661
330
1F
100
AcDbEntity
  8
MITTA
100
AcDbText
 10
98.98812764728701
 20
59.0
 30
0.0
 40
1.5
  1
DIFF
 41
0.9
  7
T25
100
AcDbText
  0
LINE
  5
662
330
1F
100
AcDbEntity
  8
MITTA
100
AcDbLine
 10
98.488127647287
 20
58.5
 30
0.0
 11
98.488127647287
 21
67.5
 31
0.0
  0
LINE
  5
663
330
1F
100
AcDbEntity
  8
MITTA
100
AcDbLine
 10
98.488127647287
 20
63.0
 30
0.0
 11
93.488127647287
 21
63.0
 31
0.0
  0
LINE
  5
664
330
1F
100
AcDbEntity
  8
MITTA
100
AcDbLine
 10
92.488127647287
 20
63.0
 30
0.0
 11
94.488127647287
 21
64.0
 31
0.0
  0
LINE
  5
665
330
1F
100
AcDbEntity
  8
MITTA
100
AcDbLine
 10
94.488127647287
 20
64.0
 30
0.0
 11
94.488127647287
 21
62.0
 31
0.0
  0
LINE
  5
666
330
1F
100
AcDbEntity
  8
MITTA
100
AcDbLine
 10
94.488127647287
 20
62.0
 30
0.0
 11
92.488127647287
 21
63.0
 31
0.0
  0
HATCH
  5
667
330
1F
100
AcDbEntity
  8
MITTA
100
AcDbHatch
 10
0.0
 20
0.0
 30
0.0
210
0.0
220
0.0
230
1.0
  2
SOLID
 70
     1
 71
     0
 91
        1
 92
        1
 93
        3
 72
     1
 10
92.488127647287
 20
63.0
 11
94.488127647287
 21
64.0
 72
     1
 10
94.488127647287
 20
64.0
 11
94.488127647287
 21
62.0
 72
     1
 10
94.488127647287
 20
62.0
 11
92.488127647287
 21
63.0
 97
        0
 75
     0
 76
     1
 98
        1
 10
-61.511872352713
 20
-53.5
  0
LINE
  5
668
330
1F
100
AcDbEntity
  8
MITTA
100
AcDbLine
 10
107.488127647287
 20
67.5
 30
0.0
 11
107.488127647287
 21
58.5
 31
0.0
  0
LINE
  5
66C
330
1F
100
AcDbEntity
  8
MITTA
100
AcDbLine
 10
98.488127647287
 20
77.5
 30
0.0
 11
107.488127647287
 21
77.5
 31
0.0
  0
LINE
  5
66D
330
1F
100
AcDbEntity
  8
MITTA
100
AcDbLine
 10
107.488127647287
 20
68.5
 30
0.0
 11
98.488127647287
 21
68.5
 31
0.0
  0
LWPOLYLINE
  5
66E
330
1F
100
AcDbEntity
  8
MITTA
100
AcDbPolyline
 90
        3
 70
     1
 43
0.0
 10
105.988127647287
 20
76.5
 10
105.988127647287
 20
69.5
 10
99.488127647287
 20
73.0
  0
TEXT
  5
66F
330
1F
100
AcDbEntity
  8
MITTA
100
AcDbText
 10
98.98812764728701
 20
69.0
 30
0.0
 40
1.5
  1
DIFF
 41
0.9
  7
T25
100
AcDbText
  0
LINE
  5
670
330
1F
100
AcDbEntity
  8
MITTA
100
AcDbLine
 10
98.488127647287
 20
68.5
 30
0.0
 11
98.488127647287
 21
77.5
 31
0.0
  0
LINE
  5
671
330
1F
100
AcDbEntity
  8
MITTA
100
AcDbLine
 10
98.488127647287
 20
73.0
 30
0.0
 11
93.488127647287
 21
73.0
 31
0.0
  0
LINE
  5
672
330
1F
100
AcDbEntity
  8
MITTA
100
AcDbLine
 10
92.488127647287
 20
73.0
 30
0.0
 11
94.488127647287
 21
74.0
 31
0.0
  0
LINE
  5
673
330
1F
100
AcDbEntity
  8
MITTA
100
AcDbLine
 10
94.488127647287
 20
74.0
 30
0.0
 11
94.488127647287
 21
72.0
 31
0.0
  0
LINE
  5
674
330
1F
100
AcDbEntity
  8
MITTA
100
AcDbLine
 10
94.488127647287
 20
72.0
 30
0.0
 11
92.488127647287
 21
73.0
 31
0.0
  0
HATCH
  5
675
330
1F
100
AcDbEntity
  8
MITTA
100
AcDbHatch
 10
0.0
 20
0.0
 30
0.0
210
0.0
220
0.0
230
1.0
  2
SOLID
 70
     1
 71
     0
 91
        1
 92
        1
 93
        3
 72
     1
 10
92.488127647287
 20
73.0
 11
94.488127647287
 21
74.0
 72
     1
 10
94.488127647287
 20
74.0
 11
94.488127647287
 21
72.0
 72
     1
 10
94.488127647287
 20
72.0
 11
92.488127647287
 21
73.0
 97
        0
 75
     0
 76
     1
 98
        1
 10
-61.511872352713
 20
-43.5
  0
LINE
  5
676
330
1F
100
AcDbEntity
  8
MITTA
100
AcDbLine
 10
107.488127647287
 20
77.5
 30
0.0
 11
107.488127647287
 21
68.5
 31
0.0
  0
LINE
  5
67A
330
1F
100
AcDbEntity
  8
MITTA
100
AcDbLine
 10
98.488127647287
 20
87.5
 30
0.0
 11
107.488127647287
 21
87.5
 31
0.0
  0
LINE
  5
67B
330
1F
100
AcDbEntity
  8
MITTA
100
AcDbLine
 10
107.488127647287
 20
78.5
 30
0.0
 11
98.488127647287
 21
78.5
 31
0.0
  0
LWPOLYLINE
  5
67C
330
1F
100
AcDbEntity
  8
MITTA
100
AcDbPolyline
 90
        3
 70
     1
 43
0.0
 10
105.988127647287
 20
86.5
 10
105.988127647287
 20
79.5
 10
99.488127647287
 20
83.0
  0
TEXT
  5
67D
330
1F
100
AcDbEntity
  8
MITTA
100
AcDbText
 10
98.98812764728701
 20
79.0
 30
0.0
 40
1.5
  1
DIFF
 41
0.9
  7
T25
100
AcDbText
  0
LINE
  5
67E
330
1F
100
AcDbEntity
  8
MITTA
100
AcDbLine
 10
98.488127647287
 20
78.5
 30
0.0
 11
98.488127647287
 21
87.5
 31
0.0
  0
LINE
  5
67F
330
1F
100
AcDbEntity
  8
MITTA
100
AcDbLine
 10
98.488127647287
 20
83.0
 30
0.0
 11
93.488127647287
 21
83.0
 31
0.0
  0
LINE
  5
680
330
1F
100
AcDbEntity
  8
MITTA
100
AcDbLine
 10
92.488127647287
 20
83.0
 30
0.0
 11
94.488127647287
 21
84.0
 31
0.0
  0
LINE
  5
681
330
1F
100
AcDbEntity
  8
MITTA
100
AcDbLine
 10
94.488127647287
 20
84.0
 30
0.0
 11
94.488127647287
 21
82.0
 31
0.0
  0
LINE
  5
682
330
1F
100
AcDbEntity
  8
MITTA
100
AcDbLine
 10
94.488127647287
 20
82.0
 30
0.0
 11
92.488127647287
 21
83.0
 31
0.0
  0
HATCH
  5
683
330
1F
100
AcDbEntity
  8
MITTA
100
AcDbHatch
 10
0.0
 20
0.0
 30
0.0
210
0.0
220
0.0
230
1.0
  2
SOLID
 70
     1
 71
     0
 91
        1
 92
        1
 93
        3
 72
     1
 10
92.488127647287
 20
83.0
 11
94.488127647287
 21
84.0
 72
     1
 10
94.488127647287
 20
84.0
 11
94.488127647287
 21
82.0
 72
     1
 10
94.488127647287
 20
82.0
 11
92.488127647287
 21
83.0
 97
        0
 75
     0
 76
     1
 98
        1
 10
-61.511872352713
 20
-33.5
  0
LINE
  5
684
330
1F
100
AcDbEntity
  8
MITTA
100
AcDbLine
 10
107.488127647287
 20
87.5
 30
0.0
 11
107.488127647287
 21
78.5
 31
0.0
  0
LINE
  5
688
330
1F
100
AcDbEntity
  8
MITTA
100
AcDbLine
 10
98.488127647287
 20
47.5
 30
0.0
 11
107.488127647287
 21
47.5
 31
0.0
  0
LINE
  5
689
330
1F
100
AcDbEntity
  8
TEXT25
100
AcDbLine
 10
107.488127647287
 20
38.5
 30
0.0
 11
98.488127647287
 21
38.5
 31
0.0
  0
LWPOLYLINE
  5
68A
330
1F
100
AcDbEntity
  8
MITTA
100
AcDbPolyline
 90
        3
 70
     1
 43
0.0
 10
105.988127647287
 20
46.5
 10
105.988127647287
 20
39.5
 10
99.488127647287
 20
43.0
  0
TEXT
  5
68B
330
1F
100
AcDbEntity
  8
MITTA
100
AcDbText
 10
98.98812764728701
 20
39.0
 30
0.0
 40
1.5
  1
DIFF
 41
0.9
  7
T25
100
AcDbText
  0
LINE
  5
68C
330
1F
100
AcDbEntity
  8
TEXT25
100
AcDbLine
 10
98.488127647287
 20
38.5
 30
0.0
 11
98.488127647287
 21
47.5
 31
0.0
  0
LINE
  5
68D
330
1F
100
AcDbEntity
  8
MITTA
100
AcDbLine
 10
98.488127647287
 20
43.0
 30
0.0
 11
93.488127647287
 21
43.0
 31
0.0
  0
LINE
  5
68E
330
1F
100
AcDbEntity
  8
MITTA
100
AcDbLine
 10
92.488127647287
 20
43.0
 30
0.0
 11
94.488127647287
 21
44.0
 31
0.0
  0
LINE
  5
68F
330
1F
100
AcDbEntity
  8
MITTA
100
AcDbLine
 10
94.488127647287
 20
44.0
 30
0.0
 11
94.488127647287
 21
42.0
 31
0.0
  0
LINE
  5
690
330
1F
100
AcDbEntity
  8
MITTA
100
AcDbLine
 10
94.488127647287
 20
42.0
 30
0.0
 11
92.488127647287
 21
43.0
 31
0.0
  0
HATCH
  5
691
330
1F
100
AcDbEntity
  8
MITTA
100
AcDbHatch
 10
0.0
 20
0.0
 30
0.0
210
0.0
220
0.0
230
1.0
  2
SOLID
 70
     1
 71
     0
 91
        1
 92
        1
 93
        3
 72
     1
 10
92.488127647287
 20
43.0
 11
94.488127647287
 21
44.0
 72
     1
 10
94.488127647287
 20
44.0
 11
94.488127647287
 21
42.0
 72
     1
 10
94.488127647287
 20
42.0
 11
92.488127647287
 21
43.0
 97
        0
 75
     0
 76
     1
 98
        1
 10
-61.511872352713
 20
-73.5
  0
LINE
  5
692
330
1F
100
AcDbEntity
  8
TEXT25
100
AcDbLine
 10
107.488127647287
 20
47.5
 30
0.0
 11
107.488127647287
 21
38.5
 31
0.0
  0
TEXT
  5
694
330
1F
100
AcDbEntity
  8
MITTA
100
AcDbText
 10
135.0
 20
120.0
 30
0.0
 40
2.5
  1
X2.1:2
 41
0.9
  7
T25
100
AcDbText
  0
LINE
  5
695
330
1F
100
AcDbEntity
  8
MITTA
100
AcDbLine
 10
132.488127647287
 20
111.0
 30
0.0
 11
107.488127647287
 21
111.0
 31
0.0
  0
LINE
  5
696
330
1F
100
AcDbEntity
  8
MITTA
100
AcDbLine
 10
107.488127647287
 20
115.0
 30
0.0
 11
132.488127647287
 21
115.0
 31
0.0
  0
TEXT
  5
697
330
1F
100
AcDbEntity
  8
MITTA
100
AcDbText
 10
135.0
 20
110.0
 30
0.0
 40
2.5
  1
X2.2:2
 41
0.9
  7
T25
100
AcDbText
  0
TEXT
  5
698
330
1F
100
AcDbEntity
  8
MITTA
100
AcDbText
 10
135.0
 20
114.0
 30
0.0
 40
2.5
  1
X2.2:1
 41
0.9
  7
T25
100
AcDbText
  0
LINE
  5
699
330
1F
100
AcDbEntity
  8
MITTA
100
AcDbLine
 10
132.488127647287
 20
101.0
 30
0.0
 11
107.488127647287
 21
101.0
 31
0.0
  0
LINE
  5
69A
330
1F
100
AcDbEntity
  8
MITTA
100
AcDbLine
 10
107.488127647287
 20
105.0
 30
0.0
 11
132.488127647287
 21
105.0
 31
0.0
  0
TEXT
  5
69B
330
1F
100
AcDbEntity
  8
MITTA
100
AcDbText
 10
135.0
 20
100.0
 30
0.0
 40
2.5
  1
X2.3:2
 41
0.9
  7
T25
100
AcDbText
  0
TEXT
  5
69C
330
1F
100
AcDbEntity
  8
MITTA
100
AcDbText
 10
135.0
 20
104.0
 30
0.0
 40
2.5
  1
X2.3:1
 41
0.9
  7
T25
100
AcDbText
  0
LINE
  5
69D
330
1F
100
AcDbEntity
  8
MITTA
100
AcDbLine
 10
132.488127647287
 20
91.0
 30
0.0
 11
107.488127647287
 21
91.0
 31
0.0
  0
LINE
  5
69E
330
1F
100
AcDbEntity
  8
MITTA
100
AcDbLine
 10
107.488127647287
 20
95.0
 30
0.0
 11
132.488127647287
 21
95.0
 31
0.0
  0
TEXT
  5
69F
330
1F
100
AcDbEntity
  8
MITTA
100
AcDbText
 10
135.0
 20
90.0
 30
0.0
 40
2.5
  1
X2.4:2
 41
0.9
  7
T25
100
AcDbText
  0
TEXT
  5
6A0
330
1F
100
AcDbEntity
  8
MITTA
100
AcDbText
 10
135.0
 20
94.0
 30
0.0
 40
2.5
  1
X2.4:1
 41
0.9
  7
T25
100
AcDbText
  0
LINE
  5
6A1
330
1F
100
AcDbEntity
  8
MITTA
100
AcDbLine
 10
132.488127647287
 20
81.0
 30
0.0
 11
107.488127647287
 21
81.0
 31
0.0
  0
LINE
  5
6A2
330
1F
100
AcDbEntity
  8
MITTA
100
AcDbLine
 10
107.488127647287
 20
85.0
 30
0.0
 11
132.488127647287
 21
85.0
 31
0.0
  0
TEXT
  5
6A3
330
1F
100
AcDbEntity
  8
MITTA
100
AcDbText
 10
135.0
 20
80.0
 30
0.0
 40
2.5
  1
X2.5:2
 41
0.9
  7
T25
100
AcDbText
  0
TEXT
  5
6A4
330
1F
100
AcDbEntity
  8
MITTA
100
AcDbText
 10
135.0
 20
84.0
 30
0.0
 40
2.5
  1
X2.5:1
 41
0.9
  7
T25
100
AcDbText
  0
LINE
  5
6A5
330
1F
100
AcDbEntity
  8
MITTA
100
AcDbLine
 10
132.488127647287
 20
71.0
 30
0.0
 11
107.488127647287
 21
71.0
 31
0.0
  0
LINE
  5
6A6
330
1F
100
AcDbEntity
  8
MITTA
100
AcDbLine
 10
107.488127647287
 20
75.0
 30
0.0
 11
132.488127647287
 21
75.0
 31
0.0
  0
TEXT
  5
6A7
330
1F
100
AcDbEntity
  8
MITTA
100
AcDbText
 10
135.0
 20
70.0
 30
0.0
 40
2.5
  1
X2.6:2
 41
0.9
  7
T25
100
AcDbText
  0
TEXT
  5
6A8
330
1F
100
AcDbEntity
  8
MITTA
100
AcDbText
 10
135.0
 20
74.0
 30
0.0
 40
2.5
  1
X2.6:1
 41
0.9
  7
T25
100
AcDbText
  0
LINE
  5
6A9
330
1F
100
AcDbEntity
  8
MITTA
100
AcDbLine
 10
132.488127647287
 20
61.0
 30
0.0
 11
107.488127647287
 21
61.0
 31
0.0
  0
LINE
  5
6AA
330
1F
100
AcDbEntity
  8
MITTA
100
AcDbLine
 10
107.488127647287
 20
65.0
 30
0.0
 11
132.488127647287
 21
65.0
 31
0.0
  0
TEXT
  5
6AB
330
1F
100
AcDbEntity
  8
MITTA
100
AcDbText
 10
135.0
 20
60.0
 30
0.0
 40
2.5
  1
X2.7:2
 41
0.9
  7
T25
100
AcDbText
  0
TEXT
  5
6AC
330
1F
100
AcDbEntity
  8
MITTA
100
AcDbText
 10
135.0
 20
64.0
 30
0.0
 40
2.5
  1
X2.7:1
 41
0.9
  7
T25
100
AcDbText
  0
LINE
  5
6AD
330
1F
100
AcDbEntity
  8
MITTA
100
AcDbLine
 10
132.488127647287
 20
51.0
 30
0.0
 11
107.488127647287
 21
51.0
 31
0.0
  0
LINE
  5
6AE
330
1F
100
AcDbEntity
  8
MITTA
100
AcDbLine
 10
107.488127647287
 20
55.0
 30
0.0
 11
132.488127647287
 21
55.0
 31
0.0
  0
TEXT
  5
6AF
330
1F
100
AcDbEntity
  8
MITTA
100
AcDbText
 10
135.0
 20
50.0
 30
0.0
 40
2.5
  1
X2.8:2
 41
0.9
  7
T25
100
AcDbText
  0
TEXT
  5
6B0
330
1F
100
AcDbEntity
  8
MITTA
100
AcDbText
 10
135.0
 20
54.0
 30
0.0
 40
2.5
  1
X2.8:1
 41
0.9
  7
T25
100
AcDbText
  0
LINE
  5
6B1
330
1F
100
AcDbEntity
  8
MITTA
100
AcDbLine
 10
132.488127647287
 20
41.0
 30
0.0
 11
107.488127647287
 21
41.0
 31
0.0
  0
LINE
  5
6B2
330
1F
100
AcDbEntity
  8
MITTA
100
AcDbLine
 10
107.488127647287
 20
45.0
 30
0.0
 11
132.488127647287
 21
45.0
 31
0.0
  0
TEXT
  5
6B3
330
1F
100
AcDbEntity
  8
MITTA
100
AcDbText
 10
135.0
 20
40.0
 30
0.0
 40
2.5
  1
X2.9:2
 41
0.9
  7
T25
100
AcDbText
  0
TEXT
  5
6B4
330
1F
100
AcDbEntity
  8
MITTA
100
AcDbText
 10
135.0
 20
44.0
 30
0.0
 40
2.5
  1
X2.9:1
 41
0.9
  7
T25
100
AcDbText
  0
LINE
  5
74E
330
1F
100
AcDbEntity
  8
KATKO07
100
AcDbLine
 10
194.5000002941585
 20
173.0000003165438
 30
0.0
 11
266.0
 21
173.0000003165438
 31
0.0
  0
LINE
  5
74F
330
1F
100
AcDbEntity
  8
KATKO07
100
AcDbLine
 10
239.0000002941585
 20
185.0000003165438
 30
0.0
 11
194.5000002941585
 21
185.0000003165438
 31
0.0
  0
LINE
  5
750
330
1F
100
AcDbEntity
  8
KATKO07
100
AcDbLine
 10
244.0000002941585
 20
191.0000003165438
 30
0.0
 11
194.5
 21
191.0000003165438
 31
0.0
  0
LINE
  5
757
330
1F
100
AcDbEntity
  8
KATKO07
100
AcDbLine
 10
291.0000002941585
 20
167.0000003165438
 30
0.0
 11
194.5
 21
167.0000003165438
 31
0.0
  0
LINE
  5
758
330
1F
100
AcDbEntity
  8
KATKO07
100
AcDbLine
 10
286.0000002941585
 20
155.0000003165438
 30
0.0
 11
194.5
 21
155.0000003165438
 31
0.0
  0
LINE
  5
759
330
1F
100
AcDbEntity
  8
KATKO07
100
AcDbLine
 10
281.0000002941585
 20
143.0000003165438
 30
0.0
 11
194.5
 21
143.0000003165438
 31
0.0
  0
LINE
  5
75C
330
1F
100
AcDbEntity
  8
KATKO07
100
AcDbLine
 10
207.0000002941585
 20
137.0000003165438
 30
0.0
 11
207.0000002941585
 21
179.0000003165438
 31
0.0
  0
LINE
  5
75D
330
1F
100
AcDbEntity
  8
KATKO07
100
AcDbLine
 10
194.5000002941585
 20
137.0000003165438
 30
0.0
 11
207.0000002941585
 21
137.0000003165438
 31
0.0
  0
LINE
  5
75E
330
1F
100
AcDbEntity
  8
KATKO07
100
AcDbLine
 10
207.0000002941585
 20
149.0000003165438
 30
0.0
 11
194.5000002941585
 21
149.0000003165438
 31
0.0
  0
LWPOLYLINE
  5
75F
330
1F
100
AcDbEntity
  8
KATKO07
100
AcDbPolyline
 90
        2
 70
     1
 43
0.5
 10
206.7500002941585
 20
149.0000003165438
 42
1.0
 10
207.2500002941585
 20
149.0000003165438
 42
1.0
  0
LINE
  5
760
330
1F
100
AcDbEntity
  8
KATKO07
100
AcDbLine
 10
207.0000002941585
 20
161.0000003165438
 30
0.0
 11
194.5000002941585
 21
161.0000003165438
 31
0.0
  0
LWPOLYLINE
  5
761
330
1F
100
AcDbEntity
  8
KATKO07
100
AcDbPolyline
 90
        2
 70
     1
 43
0.5
 10
206.7500002941585
 20
161.0000003165438
 42
1.0
 10
207.2500002941585
 20
161.0000003165438
 42
1.0
  0
LINE
  5
762
330
1F
100
AcDbEntity
  8
KATKO07
100
AcDbLine
 10
207.0000002941585
 20
179.0000003165438
 30
0.0
 11
194.5
 21
179.0000003165438
 31
0.0
  0
LINE
  5
765
330
1F
100
AcDbEntity
  8
KATKO07
100
AcDbLine
 10
266.0000002941585
 20
126.5000003165438
 30
0.0
 11
266.0000002941585
 21
173.0
 31
0.0
  0
LINE
  5
767
330
1F
100
AcDbEntity
  8
KATKO07
100
AcDbLine
 10
239.0000002941585
 20
109.5000003165438
 30
0.0
 11
239.0000002941585
 21
185.0000003165438
 31
0.0
  0
LINE
  5
768
330
1F
100
AcDbEntity
  8
KATKO07
100
AcDbLine
 10
244.0000002941585
 20
118.5000003165438
 30
0.0
 11
244.0000002941586
 21
191.0000003165438
 31
0.0
  0
LINE
  5
769
330
1F
100
AcDbEntity
  8
KATKO07
100
AcDbLine
 10
291.0000002941585
 20
185.5000003165438
 30
0.0
 11
291.0000002941585
 21
125.0000003165438
 31
0.0
  0
LINE
  5
76A
330
1F
100
AcDbEntity
  8
KATKO07
100
AcDbLine
 10
286.0000002941585
 20
185.5000003165438
 30
0.0
 11
286.0000002941585
 21
125.0000003165438
 31
0.0
  0
LINE
  5
76B
330
1F
100
AcDbEntity
  8
KATKO07
100
AcDbLine
 10
281.0000002941585
 20
185.5000003165438
 30
0.0
 11
281.0000002941585
 21
125.0000003165438
 31
0.0
  0
LWPOLYLINE
  5
76C
330
1F
100
AcDbEntity
  8
TEXT25
100
AcDbPolyline
 90
        7
 70
     0
 43
0.0
 10
284.0000002941585
 20
155.0000003165438
 10
286.0000002941585
 20
155.0000003165438
 42
-1.0
 10
286.0000002941585
 20
150.5000003165438
 10
284.0000002941585
 20
150.5000003165438
 10
286.0000002941585
 20
150.5000003165438
 42
-1.0
 10
286.0000002941585
 20
146.0000003165438
 10
284.0000002941585
 20
146.0000003165438
  0
LINE
  5
76D
330
1F
100
AcDbEntity
  8
KATKO07
100
AcDbLine
 10
266.0000002941585
 20
134.0000003165438
 30
0.0
 11
281.0000002941585
 21
134.0000003165438
 31
0.0
  0
LINE
  5
76E
330
1F
100
AcDbEntity
  8
KATKO07
100
AcDbLine
 10
286.0000002941585
 20
146.0000003165438
 30
0.0
 11
266.0000002941585
 21
146.0000003165438
 31
0.0
  0
LINE
  5
76F
330
1F
100
AcDbEntity
  8
KATKO07
100
AcDbLine
 10
284.0000002941585
 20
118.5000003165438
 30
0.0
 11
244.0000002941585
 21
118.5000003165438
 31
0.0
  0
LINE
  5
770
330
1F
100
AcDbEntity
  8
KATKO07
100
AcDbLine
 10
284.0000002941585
 20
109.5000003165438
 30
0.0
 11
239.0000002941585
 21
109.5000003165438
 31
0.0
  0
LINE
  5
772
330
1F
100
AcDbEntity
  8
TEXT25
100
AcDbLine
 10
267.5000002941585
 20
126.5000003165438
 30
0.0
 11
264.5000002941585
 21
126.5000003165438
 31
0.0
  0
LINE
  5
773
330
1F
100
AcDbEntity
  8
TEXT25
100
AcDbLine
 10
266.5000002941585
 20
125.5000003165438
 30
0.0
 11
265.5000002941585
 21
125.5000003165438
 31
0.0
  0
LINE
  5
774
330
1F
100
AcDbEntity
  8
TEXT25
100
AcDbLine
 10
267.0000002941585
 20
126.0000003165438
 30
0.0
 11
265.0000002941585
 21
126.0000003165438
 31
0.0
  0
LINE
  5
775
330
1F
100
AcDbEntity
  8
TEXT25
100
AcDbLine
 10
265.0000002941585
 20
126.0000003165438
 30
0.0
 11
266.5000002941585
 21
126.0000003165438
 31
0.0
  0
LWPOLYLINE
  5
776
330
1F
100
AcDbEntity
  8
KATKO07
100
AcDbPolyline
 90
        2
 70
     1
 43
0.5
 10
265.7500002941585
 20
134.0000003165438
 42
1.0
 10
266.2500002941585
 20
134.0000003165438
 42
1.0
  0
LWPOLYLINE
  5
777
330
1F
100
AcDbEntity
  8
KATKO07
100
AcDbPolyline
 90
        2
 70
     1
 43
0.5
 10
265.7500002941585
 20
146.0000003165438
 42
1.0
 10
266.2500002941585
 20
146.0000003165438
 42
1.0
  0
LINE
  5
778
330
1F
100
AcDbEntity
  8
KATKO07
100
AcDbLine
 10
286.0000002941585
 20
106.0000003165438
 30
0.0
 11
286.0000002941585
 21
89.50000031654383
 31
0.0
  0
LWPOLYLINE
  5
779
330
1F
100
AcDbEntity
  8
TEXT25
100
AcDbPolyline
 90
        2
 70
     1
 43
0.5
 10
283.7500002941585
 20
125.0000003165438
 42
1.0
 10
284.2500002941585
 20
125.0000003165438
 42
1.0
  0
LINE
  5
77A
330
1F
100
AcDbEntity
  8
TEXT25
100
AcDbLine
 10
286.0000002941585
 20
126.5000003165438
 30
0.0
 11
286.0000002941585
 21
105.5000003165438
 31
0.0
  0
LINE
  5
77B
330
1F
100
AcDbEntity
  8
TEXT25
100
AcDbLine
 10
284.0000002941585
 20
124.9441858590256
 30
0.0
 11
284.0000002941585
 21
105.5000003165438
 31
0.0
  0
LWPOLYLINE
  5
77C
330
1F
100
AcDbEntity
  8
TEXT25
100
AcDbPolyline
 90
        7
 70
     0
 43
0.0
 10
284.0000002941585
 20
118.5000003165438
 10
286.0000002941585
 20
118.5000003165438
 42
-1.0
 10
286.0000002941585
 20
114.0000003165438
 10
284.0000002941585
 20
114.0000003165438
 10
286.0000002941585
 20
114.0000003165438
 42
-1.0
 10
286.0000002941585
 20
109.5000003165438
 10
284.0000002941585
 20
109.5000003165438
  0
LINE
  5
77D
330
1F
100
AcDbEntity
  8
TEXT25
100
AcDbLine
 10
281.0000002941585
 20
105.0000003165438
 30
0.0
 11
281.0000002941585
 21
106.0000003165438
 31
0.0
  0
LINE
  5
77E
330
1F
100
AcDbEntity
  8
TEXT25
100
AcDbLine
 10
284.0000002941585
 20
105.5000003165438
 30
0.0
 11
282.0000002941585
 21
105.5000003165438
 31
0.0
  0
LINE
  5
77F
330
1F
100
AcDbEntity
  8
TEXT25
100
AcDbLine
 10
282.0000002941585
 20
104.0000003165438
 30
0.0
 11
282.0000002941585
 21
107.0000003165438
 31
0.0
  0
LINE
  5
780
330
1F
100
AcDbEntity
  8
TEXT25
100
AcDbLine
 10
281.5000002941585
 20
104.5000003165438
 30
0.0
 11
281.5000002941585
 21
106.5000003165438
 31
0.0
  0
LINE
  5
781
330
1F
100
AcDbEntity
  8
TEXT25
100
AcDbLine
 10
281.5000002941585
 20
106.5000003165438
 30
0.0
 11
281.5000002941585
 21
105.0000003165438
 31
0.0
  0
LINE
  5
782
330
1F
100
AcDbEntity
  8
TEXT25
100
AcDbLine
 10
284.0000002941585
 20
125.0000003165438
 30
0.0
 11
286.0000002941585
 21
121.5000003165438
 31
0.0
  0
LINE
  5
783
330
1F
100
AcDbEntity
  8
TEXT25
100
AcDbLine
 10
281.0000002941585
 20
125.0000003165438
 30
0.0
 11
291.0000002941585
 21
125.0000003165438
 31
0.0
  0
LINE
  5
784
330
1F
100
AcDbEntity
  8
TEXT25
100
AcDbLine
 10
286.0000002941585
 20
121.5000003165438
 30
0.0
 11
288.0000002941585
 21
125.0000003165438
 31
0.0
  0
LWPOLYLINE
  5
785
330
1F
100
AcDbEntity
  8
TEXT25
100
AcDbPolyline
 90
        7
 70
     0
 43
0.0
 10
279.5000002941585
 20
143.0000003165438
 10
281.5000002941585
 20
143.0000003165438
 42
-1.0
 10
281.5000002941585
 20
138.5000003165438
 10
279.5000002941585
 20
138.5000003165438
 10
281.5000002941585
 20
138.5000003165438
 42
-1.0
 10
281.5000002941585
 20
134.0000003165438
 10
279.5000002941585
 20
134.0000003165438
  0
LINE
  5
786
330
1F
100
AcDbEntity
  8
KATKO07
100
AcDbLine
 10
227.5000002941585
 20
244.5000003165438
 30
0.0
 11
347.5000002941585
 21
244.5000003165438
 31
0.0
  0
LINE
  5
787
330
1F
100
AcDbEntity
  8
KATKO07
100
AcDbLine
 10
227.5000002941585
 20
249.5000003165438
 30
0.0
 11
347.5000002941585
 21
249.5000003165438
 31
0.0
  0
LINE
  5
788
330
1F
100
AcDbEntity
  8
KATKO07
100
AcDbLine
 10
227.5000002941585
 20
254.5000003165438
 30
0.0
 11
347.5000002941585
 21
254.5000003165438
 31
0.0
  0
LINE
  5
789
330
1F
100
AcDbEntity
  8
KATKO07
100
AcDbLine
 10
291.0000002941585
 20
244.5000003165438
 30
0.0
 11
291.0000002941585
 21
192.5000003165438
 31
0.0
  0
LINE
  5
78A
330
1F
100
AcDbEntity
  8
KATKO07
100
AcDbLine
 10
286.0000002941585
 20
249.5000003165438
 30
0.0
 11
286.0000002941585
 21
193.0000003165438
 31
0.0
  0
LINE
  5
78B
330
1F
100
AcDbEntity
  8
KATKO07
100
AcDbLine
 10
281.0000002941585
 20
254.5000003165438
 30
0.0
 11
281.0000002941585
 21
193.0000003165438
 31
0.0
  0
LINE
  5
78F
330
1F
100
AcDbEntity
  8
KATKO07
100
AcDbLine
 10
291.0000002941585
 20
158.0000003165438
 30
0.0
 11
266.0000002941585
 21
158.0000003165438
 31
0.0
  0
LWPOLYLINE
  5
7BA
330
1F
100
AcDbEntity
  8
TEXT25
100
AcDbPolyline
 90
        7
 70
     0
 43
0.0
 10
289.0000002941585
 20
167.0000003165438
 10
291.0000002941585
 20
167.0000003165438
 42
-1.0
 10
291.0000002941585
 20
162.5000003165438
 10
289.0000002941585
 20
162.5000003165438
 10
291.0000002941585
 20
162.5000003165438
 42
-1.0
 10
291.0000002941585
 20
158.0000003165438
 10
289.0000002941585
 20
158.0000003165438
  0
LWPOLYLINE
  5
7BB
330
1F
100
AcDbEntity
  8
TEXT25
100
AcDbPolyline
 90
        3
 70
     0
 43
0.0
 10
291.0000002941585
 20
181.5000003165438
 10
291.0000002941585
 20
185.5000003165438
 10
288.0000002941585
 20
192.5000003165438
  0
LWPOLYLINE
  5
7BC
330
1F
100
AcDbEntity
  8
TEXT25
100
AcDbPolyline
 90
        3
 70
     0
 43
0.0
 10
286.0000002941585
 20
181.5000003165438
 10
286.0000002941585
 20
185.5000003165438
 10
283.0000002941585
 20
192.5000003165438
  0
LWPOLYLINE
  5
7BD
330
1F
100
AcDbEntity
  8
TEXT25
100
AcDbPolyline
 90
        3
 70
     0
 43
0.0
 10
281.0000002941585
 20
181.5000003165438
 10
281.0000002941585
 20
185.5000003165438
 10
278.0000002941585
 20
192.5000003165438
  0
LINE
  5
7BE
330
1F
100
AcDbEntity
  8
TEXT25
100
AcDbLine
 10
285.0000002941585
 20
192.0000003165438
 30
0.0
 11
287.0000002941585
 21
194.0000003165438
 31
0.0
  0
LINE
  5
7BF
330
1F
100
AcDbEntity
  8
TEXT25
100
AcDbLine
 10
287.0000002941585
 20
192.0000003165438
 30
0.0
 11
285.0000002941585
 21
194.0000003165438
 31
0.0
  0
LINE
  5
7C0
330
1F
100
AcDbEntity
  8
TEXT25
100
AcDbLine
 10
282.0000002941585
 20
192.0000003165438
 30
0.0
 11
280.0000002941585
 21
194.0000003165438
 31
0.0
  0
LINE
  5
7C1
330
1F
100
AcDbEntity
  8
TEXT25
100
AcDbLine
 10
280.0000002941585
 20
192.0000003165438
 30
0.0
 11
282.0000002941585
 21
194.0000003165438
 31
0.0
  0
LINE
  5
7C2
330
1F
100
AcDbEntity
  8
TEXT25
100
AcDbLine
 10
290.0000002941585
 20
192.0000003165438
 30
0.0
 11
292.0000002941585
 21
194.0000003165438
 31
0.0
  0
LINE
  5
7C3
330
1F
100
AcDbEntity
  8
TEXT25
100
AcDbLine
 10
292.0000002941585
 20
192.0000003165438
 30
0.0
 11
290.0000002941585
 21
194.0000003165438
 31
0.0
  0
TEXT
  5
7C4
330
1F
100
AcDbEntity
  8
KATKO07
100
AcDbText
 10
221.0000002941585
 20
243.4047622213057
 30
0.0
 40
2.5
  1
L3
 41
0.9
  7
T25
100
AcDbText
  0
TEXT
  5
7C5
330
1F
100
AcDbEntity
  8
KATKO07
100
AcDbText
 10
221.0000002941585
 20
247.9523812689247
 30
0.0
 40
2.5
  1
L2
 41
0.9
  7
T25
100
AcDbText
  0
TEXT
  5
7C6
330
1F
100
AcDbEntity
  8
KATKO07
100
AcDbText
 10
221.0000002941585
 20
252.5000003165438
 30
0.0
 40
2.5
  1
L1
 41
0.9
  7
T25
100
AcDbText
  0
LWPOLYLINE
  5
7D8
330
1F
100
AcDbEntity
  8
TEXT25
100
AcDbPolyline
 90
        4
 70
     0
 43
0.0
 10
302.0
 20
147.5
 10
304.0
 20
147.5
 10
303.0
 20
143.5
 10
302.0
 20
147.5
  0
LINE
  5
7D9
330
1F
100
AcDbEntity
  8
TEXT25
100
AcDbLine
 10
303.0
 20
146.5
 30
0.0
 11
303.0
 21
157.5
 31
0.0
  0
HATCH
  5
7DA
330
1F
100
AcDbEntity
  8
TEXT25
100
AcDbHatch
 10
0.0
 20
0.0
 30
0.0
210
0.0
220
0.0
230
1.0
  2
SOLID
 70
     1
 71
     0
 91
        1
 92
        1
 93
        3
 72
     1
 10
302.0
 20
147.5
 11
304.0
 21
147.5
 72
     1
 10
304.0
 20
147.5
 11
303.0
 21
143.5
 72
     1
 10
303.0
 20
143.5
 11
302.0
 21
147.5
 97
        0
 75
     0
 76
     1
 98
        1
 10
0.0
 20
0.0
  0
TEXT
  5
7DB
330
1F
100
AcDbEntity
  8
TEXT25
100
AcDbText
 10
302.4999999999999
 20
158.4999999999999
 30
0.0
 40
2.5
  1
P
 41
0.9
  7
T25
100
AcDbText
  0
TEXT
  5
883
330
1F
100
AcDbEntity
  8
TEXT25
100
AcDbText
 10
309.5
 20
1.0
 30
0.0
 40
4.0
  1
1MRS010244-AAA
  7
T25
100
AcDbText
  0
TEXT
  5
884
330
1F
100
AcDbEntity
  8
TEXT25
100
AcDbText
 10
311.0
 20
28.0
 30
0.0
 40
3.0
  1
TERMINAL DIAGRAM
  7
T25
100
AcDbText
  0
TEXT
  5
885
330
1F
100
AcDbEntity
  8
TEXT25
100
AcDbText
 10
311.0
 20
23.5
 30
0.0
 40
3.0
  1
FEEDER TERMINAL
  7
T25
100
AcDbText
  0
TEXT
  5
886
330
1F
100
AcDbEntity
  8
TEXT25
100
AcDbText
 10
311.0
 20
19.0
 30
0.0
 40
3.0
  1
REF 54_ , MIM4149 + RTXP 24
  7
T25
100
AcDbText
  0
TEXT
  5
8A5
330
1F
100
AcDbEntity
  8
TEXT25
100
AcDbText
 10
210.1624997588507
 20
27.24999972324758
 30
0.0
 40
2.5
  1
13-06-2000 S.Bjorklund
 41
0.9
  7
T25
100
AcDbText
  0
TEXT
  5
8A6
330
1F
100
AcDbEntity
  8
TEXT25
100
AcDbText
 10
285.6624997588507
 20
1.249999723247583
 30
0.0
 40
3.5
  1
RSG
 41
0.9
  7
T25
100
AcDbText
  0
TEXT
  5
8A8
330
1F
100
AcDbEntity
  8
TEXT25
100
AcDbText
 10
377.1624997588507
 20
0.7499997232475835
 30
0.0
 40
4.0
  1
B
  7
T25
100
AcDbText
  0
TEXT
  5
8A9
330
1F
100
AcDbEntity
  8
TEXT25
100
AcDbText
 10
373.1624997588507
 20
11.24999972324758
 30
0.0
 40
2.5
  1
7 / 13
 41
0.9
  7
T25
100
AcDbText
  0
LWPOLYLINE
  5
8B4
330
1F
100
AcDbEntity
  8
TEXT25
100
AcDbPolyline
 90
        2
 70
     1
 43
0.5
 10
265.75
 20
134.0
 42
1.0
 10
266.25
 20
134.0
 42
1.0
  0
LWPOLYLINE
  5
8B5
330
1F
100
AcDbEntity
  8
TEXT25
100
AcDbPolyline
 90
        2
 70
     1
 43
0.5
 10
265.75
 20
146.0
 42
1.0
 10
266.25
 20
146.0
 42
1.0
  0
LWPOLYLINE
  5
8B6
330
1F
100
AcDbEntity
  8
TEXT25
100
AcDbPolyline
 90
        2
 70
     1
 43
0.5
 10
265.75
 20
158.0
 42
1.0
 10
266.25
 20
158.0
 42
1.0
  0
LWPOLYLINE
  5
8B7
330
1F
100
AcDbEntity
  8
TEXT25
100
AcDbPolyline
 90
        2
 70
     1
 43
0.5
 10
265.75
 20
109.4999999999999
 42
1.0
 10
266.25
 20
109.4999999999999
 42
1.0
  0
LWPOLYLINE
  5
8B8
330
1F
100
AcDbEntity
  8
TEXT25
100
AcDbPolyline
 90
        2
 70
     1
 43
0.5
 10
206.7499999999999
 20
149.0
 42
1.0
 10
207.25
 20
149.0
 42
1.0
  0
LWPOLYLINE
  5
8B9
330
1F
100
AcDbEntity
  8
TEXT25
100
AcDbPolyline
 90
        2
 70
     1
 43
0.5
 10
206.7499999999999
 20
161.0
 42
1.0
 10
207.25
 20
161.0
 42
1.0
  0
LINE
  5
8C5
330
1F
100
AcDbEntity
  8
TEXT25
100
AcDbLine
 10
267.5000002941585
 20
107.0000003165438
 30
0.0
 11
264.5000002941585
 21
107.0000003165438
 31
0.0
  0
LINE
  5
8C6
330
1F
100
AcDbEntity
  8
TEXT25
100
AcDbLine
 10
265.0000002941585
 20
106.5000003165438
 30
0.0
 11
266.5000002941585
 21
106.5000003165438
 31
0.0
  0
LINE
  5
8C7
330
1F
100
AcDbEntity
  8
TEXT25
100
AcDbLine
 10
267.0000002941585
 20
106.5000003165438
 30
0.0
 11
265.0000002941585
 21
106.5000003165438
 31
0.0
  0
LINE
  5
8C8
330
1F
100
AcDbEntity
  8
TEXT25
100
AcDbLine
 10
266.5000002941585
 20
106.0000003165438
 30
0.0
 11
265.5000002941585
 21
106.0000003165438
 31
0.0
  0
LINE
  5
8C9
330
1F
100
AcDbEntity
  8
KATKO07
100
AcDbLine
 10
266.0
 20
109.4999999999999
 30
0.0
 11
266.0
 21
107.0
 31
0.0
  0
LINE
  5
98B
330
1F
100
AcDbEntity
  8
KATKO07
100
AcDbLine
 10
194.5000005554339
 20
195.9999996768168
 30
0.0
 11
239.0000005554339
 21
195.9999996768168
 31
0.0
  0
LINE
  5
98C
330
1F
100
AcDbEntity
  8
KATKO07
100
AcDbLine
 10
194.5000005554339
 20
201.9999996768168
 30
0.0
 11
246.000000555434
 21
201.9999996768168
 31
0.0
  0
LINE
  5
98D
330
1F
100
AcDbEntity
  8
KATKO07
100
AcDbLine
 10
194.5000005554339
 20
226.9999996768168
 30
0.0
 11
224.0000005554339
 21
226.9999996768168
 31
0.0
  0
LINE
  5
98E
330
1F
100
AcDbEntity
  8
KATKO07
100
AcDbLine
 10
194.5000005554339
 20
214.4999996768168
 30
0.0
 11
212.0000005554339
 21
214.4999996768168
 31
0.0
  0
LINE
  5
98F
330
1F
100
AcDbEntity
  8
KATKO07
100
AcDbLine
 10
245.0000005554339
 20
221.9999996768168
 30
0.0
 11
207.0000005554339
 21
221.9999996768168
 31
0.0
  0
LINE
  5
990
330
1F
100
AcDbEntity
  8
KATKO07
100
AcDbLine
 10
207.0000005554339
 20
221.9999996768168
 30
0.0
 11
207.0000005554339
 21
239.4999996768168
 31
0.0
  0
LINE
  5
993
330
1F
100
AcDbEntity
  8
KATKO07
100
AcDbLine
 10
207.0000005554339
 20
239.4999996768168
 30
0.0
 11
194.5000005554339
 21
239.4999996768168
 31
0.0
  0
INSERT
  5
994
330
1F
100
AcDbEntity
  8
KATKO07
100
AcDbBlockReference
  2
UFTRAFO
 10
246.000000300345
 20
213.9999996618399
 30
0.0
  0
LINE
  5
995
330
1F
100
AcDbEntity
  8
KATKO07
100
AcDbLine
 10
224.0000005554339
 20
226.9999996768168
 30
0.0
 11
245.5000005554339
 21
226.9999996768168
 31
0.0
  0
LINE
  5
996
330
1F
100
AcDbEntity
  8
KATKO07
100
AcDbLine
 10
212.000000555434
 20
231.9999996768168
 30
0.0
 11
245.5000005554339
 21
231.9999996768168
 31
0.0
  0
LINE
  5
997
330
1F
100
AcDbEntity
  8
KATKO07
100
AcDbLine
 10
239.0000005554339
 20
213.9999996768168
 30
0.0
 11
246.000000555434
 21
213.9999996768168
 31
0.0
  0
LINE
  5
998
330
1F
100
AcDbEntity
  8
KATKO07
100
AcDbLine
 10
212.0000005554339
 20
214.4999996768168
 30
0.0
 11
212.000000555434
 21
231.9999996768168
 31
0.0
  0
LINE
  5
99A
330
1F
100
AcDbEntity
  8
KATKO07
100
AcDbLine
 10
239.0000005554339
 20
195.9999996768168
 30
0.0
 11
239.0000005554339
 21
213.9999996768168
 31
0.0
  0
LINE
  5
99D
330
1F
100
AcDbEntity
  8
KATKO07
100
AcDbLine
 10
277.000000555434
 20
217.9999996768168
 30
0.0
 11
286.000000555434
 21
217.9999996768168
 31
0.0
  0
LINE
  5
99E
330
1F
100
AcDbEntity
  8
KATKO07
100
AcDbLine
 10
277.000000555434
 20
212.9999996768168
 30
0.0
 11
291.0000005554339
 21
212.9999996768168
 31
0.0
  0
LINE
  5
99F
330
1F
100
AcDbEntity
  8
KATKO07
100
AcDbLine
 10
277.000000555434
 20
222.4999996768168
 30
0.0
 11
281.0000005554339
 21
222.4999996768168
 31
0.0
  0
LWPOLYLINE
  5
9A0
330
1F
100
AcDbEntity
  8
TEXT25
100
AcDbPolyline
 90
        2
 70
     1
 43
0.5
 10
285.750000555434
 20
217.9999996768168
 42
1.0
 10
286.2500005554339
 20
217.9999996768168
 42
1.0
  0
LWPOLYLINE
  5
9A1
330
1F
100
AcDbEntity
  8
TEXT25
100
AcDbPolyline
 90
        2
 70
     1
 43
0.5
 10
290.7500005554339
 20
212.9999996768168
 42
1.0
 10
291.2500005554339
 20
212.9999996768168
 42
1.0
  0
LWPOLYLINE
  5
9A2
330
1F
100
AcDbEntity
  8
TEXT25
100
AcDbPolyline
 90
        2
 70
     1
 43
0.5
 10
280.7500005554339
 20
222.4999996768168
 42
1.0
 10
281.250000555434
 20
222.4999996768168
 42
1.0
  0
LWPOLYLINE
  5
9A3
330
1F
100
AcDbEntity
  8
TEXT25
100
AcDbPolyline
 90
        2
 70
     1
 43
0.5
 10
285.750000555434
 20
249.4999996768168
 42
1.0
 10
286.2500005554339
 20
249.4999996768168
 42
1.0
  0
LWPOLYLINE
  5
9A4
330
1F
100
AcDbEntity
  8
TEXT25
100
AcDbPolyline
 90
        2
 70
     1
 43
0.5
 10
290.7500005554339
 20
244.4999996768168
 42
1.0
 10
291.2500005554339
 20
244.4999996768168
 42
1.0
  0
LWPOLYLINE
  5
9A5
330
1F
100
AcDbEntity
  8
TEXT25
100
AcDbPolyline
 90
        2
 70
     1
 43
0.5
 10
280.7500005554339
 20
254.4999996768168
 42
1.0
 10
281.250000555434
 20
254.4999996768168
 42
1.0
  0
TEXT
  5
9CA
330
1F
100
AcDbEntity
  8
TEXT25
100
AcDbText
 10
210.6624996838912
 20
18.12500013943133
 30
0.0
 40
2.5
  1
A Fagerroos
 41
0.9
  7
T25
100
AcDbText
  0
TEXT
  5
9CB
330
1F
100
AcDbEntity
  8
TEXT25
100
AcDbText
 10
210.6624996838912
 20
9.625000139431335
 30
0.0
 40
2.5
  1
K.Latva-Rasku
 41
0.9
  7
T25
100
AcDbText
  0
LINE
  5
A3F
330
1F
100
AcDbEntity
  8
MITTA
100
AcDbLine
 10
126.6992278364823
 20
218.0
 30
0.0
 11
126.6992278364823
 21
239.5
 31
0.0
  0
LINE
  5
A40
330
1F
100
AcDbEntity
  8
MITTA
100
AcDbLine
 10
130.3718916079346
 20
214.5
 30
0.0
 11
130.3718916079346
 21
230.5
 31
0.0
  0
LINE
  5
A41
330
1F
100
AcDbEntity
  8
MITTA
100
AcDbLine
 10
134.5692216324519
 20
205.5
 30
0.0
 11
134.5692216324519
 21
227.0
 31
0.0
  0
LWPOLYLINE
  5
A42
330
1F
100
AcDbEntity
  8
TEXT25
100
AcDbPolyline
 90
        2
 70
     1
 43
0.5
 10
126.4492275423237
 20
239.4999996834561
 42
1.0
 10
126.9492275423238
 20
239.4999996834561
 42
1.0
  0
LWPOLYLINE
  5
A43
330
1F
100
AcDbEntity
  8
TEXT25
100
AcDbPolyline
 90
        2
 70
     1
 43
0.5
 10
126.4492275423237
 20
217.9999996834561
 42
1.0
 10
126.9492275423238
 20
217.9999996834561
 42
1.0
  0
LWPOLYLINE
  5
A44
330
1F
100
AcDbEntity
  8
TEXT25
100
AcDbPolyline
 90
        2
 70
     1
 43
0.5
 10
130.1218913137761
 20
230.4999996834561
 42
1.0
 10
130.6218913137761
 20
230.4999996834561
 42
1.0
  0
LWPOLYLINE
  5
A45
330
1F
100
AcDbEntity
  8
TEXT25
100
AcDbPolyline
 90
        2
 70
     1
 43
0.5
 10
130.1218913137761
 20
214.4999996834561
 42
1.0
 10
130.6218913137761
 20
214.4999996834561
 42
1.0
  0
LWPOLYLINE
  5
A46
330
1F
100
AcDbEntity
  8
TEXT25
100
AcDbPolyline
 90
        2
 70
     1
 43
0.5
 10
134.3192213382933
 20
226.9999996834561
 42
1.0
 10
134.8192213382933
 20
226.9999996834561
 42
1.0
  0
LWPOLYLINE
  5
A47
330
1F
100
AcDbEntity
  8
TEXT25
100
AcDbPolyline
 90
        2
 70
     1
 43
0.5
 10
134.3192213382933
 20
205.4999996834561
 42
1.0
 10
134.8192213382933
 20
205.4999996834561
 42
1.0
  0
TEXT
  5
BC3
330
1F
100
AcDbEntity
  8
RAAMI
100
AcDbText
 10
210.0
 20
32.0
 30
0.0
 40
1.399999999999999
  1
TEKI  PREPARED
  7
ROMANS
100
AcDbText
  0
LINE
  5
BC4
330
1F
100
AcDbEntity
  8
OHUT
100
AcDbLine
 10
209.0
 20
26.5
 30
0.0
 11
307.0
 21
26.5
 31
0.0
  0
TEXT
  5
BC5
330
1F
100
AcDbEntity
  8
RAAMI
100
AcDbText
 10
210.0
 20
23.73333333333334
 30
0.0
 40
1.399999999999999
  1
TARKASTI  CHECKED
  7
ROMANS
100
AcDbText
  0
LINE
  5
BC6
330
1F
100
AcDbEntity
  8
RAAMI
100
AcDbLine
 10
209.9499999999999
 20
1.5
 30
0.0
 11
211.6999999999999
 21
1.5
 31
0.0
  0
INSERT
  5
BC7
330
1F
100
AcDbEntity
  8
RAAMI
100
AcDbBlockReference
  2
LOGO
 10
209.0
 20
-9.0
 30
0.0
  0
TEXT
  5
BC8
330
1F
100
AcDbEntity
  8
RAAMI
100
AcDbText
 10
209.7428347258663
 20
15.46666666666664
 30
0.0
 40
1.399999999999999
  1
HYVÄKSYI  APPROVED
  7
ROMANS
100
AcDbText
  0
LINE
  5
BC9
330
1F
100
AcDbEntity
  8
PAKSU
100
AcDbLine
 10
209.0
 20
35.0
 30
0.0
 11
392.0
 21
35.0
 31
0.0
  0
LINE
  5
BCA
330
1F
100
AcDbEntity
  8
OHUT
100
AcDbLine
 10
209.0
 20
9.5
 30
0.0
 11
392.0
 21
9.5
 31
0.0
  0
LINE
  5
BCB
330
1F
100
AcDbEntity
  8
OHUT
100
AcDbLine
 10
209.0
 20
18.0
 30
0.0
 11
392.0
 21
18.0
 31
0.0
  0
LINE
  5
BCC
330
1F
100
AcDbEntity
  8
PAKSU
100
AcDbLine
 10
209.0
 20
0.0
 30
0.0
 11
392.0
 21
0.0
 31
0.0
  0
LINE
  5
BCD
330
1F
100
AcDbEntity
  8
PAKSU
100
AcDbLine
 10
0.0
 20
0.0
 30
0.0
 11
392.0
 21
0.0
 31
0.0
  0
LINE
  5
BCE
330
1F
100
AcDbEntity
  8
PAKSU
100
AcDbLine
 10
0.0
 20
262.5
 30
0.0
 11
392.0
 21
262.5
 31
0.0
  0
INSERT
  5
BCF
330
1F
100
AcDbEntity
  8
MUOTOVIIVA
100
AcDbBlockReference
  2
COPYRIGHT
 10
4.671896275298706
 20
0.5010094147980908
 30
0.0
  0
LINE
  5
BD0
330
1F
100
AcDbEntity
  8
PAKSU
100
AcDbLine
 10
0.0
 20
0.0
 30
0.0
 11
0.0
 21
262.5
 31
0.0
  0
LINE
  5
BD1
330
1F
100
AcDbEntity
  8
OHUT
100
AcDbLine
 10
40.49999999999999
 20
4.5
 30
0.0
 11
209.0
 21
4.5
 31
0.0
  0
LINE
  5
BD2
330
1F
100
AcDbEntity
  8
OHUT
100
AcDbLine
 10
46.5
 20
9.0
 30
0.0
 11
209.0
 21
9.0
 31
0.0
  0
TEXT
  5
BD3
330
1F
100
AcDbEntity
  8
RAAMI
100
AcDbText
 10
42.0
 20
0.9523809523809632
 30
0.0
 40
2.5
  1
B
  7
ROMANS
100
AcDbText
  0
TEXT
  5
BD4
330
1F
100
AcDbEntity
  8
RAAMI
100
AcDbText
 10
27.5
 20
2.233333333333348
 30
0.0
 40
1.399999999999999
  1
REVISION
  7
ROMANS
100
AcDbText
  0
TEXT
  5
BD5
330
1F
100
AcDbEntity
  8
RAAMI
100
AcDbText
 10
27.5
 20
4.5
 30
0.0
 40
1.399999999999999
  1
MUUTOS
  7
ROMANS
100
AcDbText
  0
TEXT
  5
BD6
330
1F
100
AcDbEntity
  8
RAAMI
100
AcDbText
 10
42.0
 20
5.354421058643254
 30
0.0
 40
2.5
  1
C
  7
ROMANS
100
AcDbText
  0
LINE
  5
BD7
330
1F
100
AcDbEntity
  8
OHUT
100
AcDbLine
 10
46.5
 20
0.0
 30
0.0
 11
46.5
 21
9.0
 31
0.0
  0
LINE
  5
BD8
330
1F
100
AcDbEntity
  8
PAKSU
100
AcDbLine
 10
209.0
 20
0.0
 30
0.0
 11
209.0
 21
35.0
 31
0.0
  0
LINE
  5
BD9
330
1F
100
AcDbEntity
  8
PAKSU
100
AcDbLine
 10
392.0
 20
262.5
 30
0.0
 11
392.0
 21
0.0
 31
0.0
  0
LINE
  5
BDA
330
1F
100
AcDbEntity
  8
OHUT
100
AcDbLine
 10
257.0
 20
9.5
 30
0.0
 11
257.0
 21
35.0
 31
0.0
  0
LINE
  5
BDB
330
1F
100
AcDbEntity
  8
OHUT
100
AcDbLine
 10
307.0
 20
0.0
 30
0.0
 11
307.0
 21
35.0
 31
0.0
  0
TEXT
  5
BDC
330
1F
100
AcDbEntity
  8
RAAMI
100
AcDbText
 10
259.0
 20
23.5
 30
0.0
 40
1.399999999999999
  1
TOLERANSSIT  TOLERANCES
  7
ROMANS
100
AcDbText
  0
MTEXT
  5
BDD
330
1F
100
AcDbEntity
  8
RAAMI
100
AcDbMText
 10
229.5997894316988
 20
4.023556471652455
 30
0.0
 40
2.5
 41
0.0
 71
     1
 72
     1
  1
Substation Automation 
  7
T25
 73
     1
 44
1.0
  0
TEXT
  5
BDE
330
1F
100
AcDbEntity
  8
RAAMI
100
AcDbText
 10
229.5533819379557
 20
5.546348597761834
 30
0.0
 40
2.43
  1
ABB Oy
 41
0.8
  7
ROMANS
100
AcDbText
  0
TEXT
  5
BDF
330
1F
100
AcDbEntity
  8
RAAMI
100
AcDbText
 10
259.0
 20
15.5
 30
0.0
 40
1.399999999999999
  1
SUHDE  SCALE
  7
ROMANS
100
AcDbText
  0
LINE
  5
BE0
330
1F
100
AcDbEntity
  8
OHUT
100
AcDbLine
 10
281.9742533365683
 20
9.5
 30
0.0
 11
281.9742533365683
 21
0.0
 31
0.0
  0
LINE
  5
BE1
330
1F
100
AcDbEntity
  8
RAAMI
100
AcDbLine
 10
296.1085865096258
 20
15.72551329875028
 30
0.0
 11
291.0980918801336
 21
14.45574496700044
 31
0.0
  0
LINE
  5
BE2
330
1F
100
AcDbEntity
  8
RAAMI
  6
DASHDOT
100
AcDbLine
 10
297.2518098577122
 20
13.41684360465967
 30
0.0
 11
290.0151352470688
 21
13.41684360465967
 31
0.0
  0
LINE
  5
BE3
330
1F
100
AcDbEntity
  8
RAAMI
100
AcDbLine
 10
291.0980918801336
 20
12.26250875761434
 30
0.0
 11
296.1085865096258
 21
11.10817391056906
 31
0.0
  0
TEXT
  5
BE4
330
1F
100
AcDbEntity
  8
RAAMI
100
AcDbText
 10
283.9742533365683
 20
7.0
 30
0.0
 40
1.399999999999999
  1
OSASTO DEPT.
  7
ROMANS
100
AcDbText
  0
LINE
  5
BE5
330
1F
100
AcDbEntity
  8
OHUT
100
AcDbLine
 10
282.0
 20
9.5
 30
0.0
 11
282.0
 21
18.0
 31
0.0
  0
LINE
  5
BE6
330
1F
100
AcDbEntity
  8
RAAMI
100
AcDbLine
 10
291.0980918801336
 20
14.45574496700044
 30
0.0
 11
291.0980918801336
 21
12.26250875761434
 31
0.0
  0
TEXT
  5
BE7
330
1F
100
AcDbEntity
  8
RAAMI
100
AcDbText
 10
283.5548252099439
 20
15.5009660006533
 30
0.0
 40
1.399999999999999
  1
PROJ
  7
ROMANS
100
AcDbText
  0
CIRCLE
  5
BE8
330
1F
100
AcDbEntity
  8
RAAMI
100
AcDbCircle
 10
301.5170187530453
 20
13.41212209817376
 30
0.0
 40
2.343653787115606
  0
LINE
  5
BE9
330
1F
100
AcDbEntity
  8
RAAMI
  6
DASHDOT
100
AcDbLine
 10
301.5170187530453
 20
13.41212209817376
 30
0.0
 11
301.5170187530453
 21
16.56917490634919
 31
0.0
  0
CIRCLE
  5
BEA
330
1F
100
AcDbEntity
  8
RAAMI
100
AcDbCircle
 10
301.5170187530453
 20
13.41212209817376
 30
0.0
 40
1.114664538372245
  0
LINE
  5
BEB
330
1F
100
AcDbEntity
  8
RAAMI
100
AcDbLine
 10
296.1085865096258
 20
11.10817391056906
 30
0.0
 11
296.1085865096258
 21
15.72551329875028
 31
0.0
  0
LINE
  5
BEC
330
1F
100
AcDbEntity
  8
RAAMI
  6
DASHDOT
100
AcDbLine
 10
301.5170187530453
 20
13.41212209817376
 30
0.0
 11
298.1744426752647
 21
13.41212209817376
 31
0.0
  0
LINE
  5
BED
330
1F
100
AcDbEntity
  8
RAAMI
  6
DASHDOT
100
AcDbLine
 10
301.5170187530453
 20
13.41212209817376
 30
0.0
 11
304.8595948308259
 21
13.41212209817376
 31
0.0
  0
LINE
  5
BEE
330
1F
100
AcDbEntity
  8
RAAMI
  6
DASHDOT
100
AcDbLine
 10
301.5170187530453
 20
13.41212209817376
 30
0.0
 11
301.5170187530453
 21
10.25506928999828
 31
0.0
  0
TEXT
  5
BEF
330
1F
100
AcDbEntity
  8
RAAMI
100
AcDbText
 10
309.0
 20
7.0
 30
0.0
 40
1.399999999999999
  1
PIIRUSTUS NO  DRAWING NO
  7
ROMANS
100
AcDbText
  0
TEXT
  5
BF0
330
1F
100
AcDbEntity
  8
RAAMI
100
AcDbText
 10
259.0
 20
32.5
 30
0.0
 40
1.399999999999999
  1
LIITTYY  CONCERNING
  7
ROMANS
100
AcDbText
  0
TEXT
  5
BF1
330
1F
100
AcDbEntity
  8
RAAMI
100
AcDbText
 10
309.0
 20
32.5
 30
0.0
 40
1.399999999999999
  1
NIMITYS  NAME
  7
ROMANS
100
AcDbText
  0
LINE
  5
BF2
330
1F
100
AcDbEntity
  8
PAKSU
100
AcDbLine
 10
392.0
 20
0.0
 30
0.0
 11
392.0
 21
35.0
 31
0.0
  0
TEXT
  5
BF3
330
1F
100
AcDbEntity
  8
RAAMI
100
AcDbText
 10
371.0
 20
7.0
 30
0.0
 40
1.399999999999999
  1
PAINOS  REVISION
  7
ROMANS
100
AcDbText
  0
TEXT
  5
BF4
330
1F
100
AcDbEntity
  8
RAAMI
100
AcDbText
 10
371.0
 20
15.05846792701606
 30
0.0
 40
1.399999999999999
  1
LEHTI   SHEET
  7
ROMANS
100
AcDbText
  0
LINE
  5
BF5
330
1F
100
AcDbEntity
  8
OHUT
100
AcDbLine
 10
369.5
 20
18.0
 30
0.0
 11
369.5
 21
0.0
 31
0.0
  0
TEXT
  5
C03
330
1F
100
AcDbEntity
  8
TEXT25
100
AcDbText
 10
48.88077860861108
 20
1.207419434076427
 30
0.0
 40
2.0
  1
Added binary treshold voltage 155-265 VDC (sheet 1) and IEC communication ( sheet 3)  21.11.03 *SV
 41
0.9
  7
T25
100
AcDbText
  0
ENDSEC
  0
SECTION
  2
OBJECTS
  0
DICTIONARY
  5
C
330
0
100
AcDbDictionary
281
     1
  3
ACAD_GROUP
350
D
  3
ACAD_LAYOUT
350
1A
  3
ACAD_MLINESTYLE
350
17
  3
ACAD_PLOTSETTINGS
350
19
  3
ACAD_PLOTSTYLENAME
350
E
  3
ACDBHEADERROUNDTRIPXREC
350
CEA
  3
AcDbVariableDictionary
350
9D3
  3
AcmDictionary
350
CAF
  3
AMG
350
C0B
  3
DWGPROPS
350
CB2
  0
DICTIONARY
  5
CCC
330
1F
100
AcDbDictionary
280
     1
281
     1
  3
ACAD_INDEX
360
CCD
  0
DICTIONARY
  5
D
102
{ACAD_REACTORS
330
C
102
}
330
C
100
AcDbDictionary
281
     1
  0
DICTIONARY
  5
1A
102
{ACAD_REACTORS
330
C
102
}
330
C
100
AcDbDictionary
281
     1
  3
Layout1
350
1E
  3
Layout2
350
26
  3
Model
350
22
  0
DICTIONARY
  5
17
102
{ACAD_REACTORS
330
C
102
}
330
C
100
AcDbDictionary
281
     1
  3
Standard
350
18
  0
DICTIONARY
  5
19
102
{ACAD_REACTORS
330
C
102
}
330
C
100
AcDbDictionary
281
     1
  0
ACDBDICTIONARYWDFLT
  5
E
102
{ACAD_REACTORS
330
C
102
}
330
C
100
AcDbDictionary
281
     1
  3
Normal
350
F
100
AcDbDictionaryWithDefault
340
F
  0
DICTIONARY
  5
CEA
102
{ACAD_REACTORS
330
C
102
}
330
C
100
AcDbDictionary
281
     1
  3
CEPSNTYPE
350
CF4
  3
DIMSTYLEDATA
350
CF8
  3
FINGERPRINTGUID
350
CF5
  3
HYPERLINKBASE
350
CED
  3
INSUNITS
350
CF3
  3
LAYOUTDICT
350
CEF
  3
LWETCUNION
350
CF2
  3
PLOTSETDICT
350
CF0
  3
PLOTSTYLNAMDICT
350
CF1
  3
PSVPSCALE
350
CF7
  3
PUCSBASE
350
CFB
  3
PUCSORGBACK
350
D01
  3
PUCSORGBOTTOM
350
CFD
  3
PUCSORGFRONT
350
D00
  3
PUCSORGLEFT
350
CFE
  3
PUCSORGRIGHT
350
CFF
  3
PUCSORGTOP
350
CFC
  3
PUCSORTHOREF
350
CF9
  3
PUCSORTHOVIEW
350
CFA
  3
STYLESHEET
350
CEE
  3
TSTACKALIGN
350
CEB
  3
TSTACKSIZE
350
CEC
  3
UCSBASE
350
D04
  3
UCSORGBACK
350
D0A
  3
UCSORGBOTTOM
350
D06
  3
UCSORGFRONT
350
D09
  3
UCSORGLEFT
350
D07
  3
UCSORGRIGHT
350
D08
  3
UCSORGTOP
350
D05
  3
UCSORTHOREF
350
D02
  3
UCSORTHOVIEW
350
D03
  3
VERSIONGUID
350
CF6
  0
DICTIONARY
  5
9D3
102
{ACAD_REACTORS
330
C
102
}
330
C
100
AcDbDictionary
281
     1
  3
DIMASSOC
350
9D4
  3
INDEXCTL
350
CE8
  0
DICTIONARY
  5
CAF
102
{ACAD_REACTORS
330
C
102
}
330
C
100
AcDbDictionary
281
     1
  0
DICTIONARY
  5
C0B
102
{ACAD_REACTORS
330
C
102
}
330
C
100
AcDbDictionary
281
     1
  3
AcMgSettings
350
C0C
  0
XRECORD
  5
CB2
102
{ACAD_REACTORS
330
C
102
}
330
C
100
AcDbXrecord
280
     1
  1
DWGPROPS COOKIE
  2

  3

  4

  6

  7

  8

  9

300
AmdtFileType=84
301
=
302
=
303
=
304
=
305
=
306
=
307
=
308
=
309
=
 40
2.272968379629629
 41
2451507.447628368
 42
2452983.615252256
  1

 90
        1
  0
DICTIONARY
  5
CCD
102
{ACAD_REACTORS
330
CCC
102
}
330
CCC
100
AcDbDictionary
281
     1
  3
*A1
350
CCE
  0
LAYOUT
  5
1E
102
{ACAD_REACTORS
330
1A
102
}
330
1A
100
AcDbPlotSettings
  1

  2
\\FISUB-VA-S003\FISUB-VA-P0028
  4

  6

 40
0.0
 41
0.0
 42
0.0
 43
0.0
 44
0.0
 45
0.0
 46
0.0
 47
0.0
 48
0.0
 49
0.0
140
0.0
141
0.0
142
1.0
143
1.0
 70
   688
 72
     0
 73
     0
 74
     5
  7
HP5Si.ctb
 75
    16
147
1.0
148
0.0
149
0.0
100
AcDbLayout
  1
Layout1
 70
     1
 71
     1
 10
0.0
 20
0.0
 11
420.0
 21
297.0
 12
0.0
 22
0.0
 32
0.0
 14
1.000000000000000E+20
 24
1.000000000000000E+20
 34
1.000000000000000E+20
 15
-1.000000000000000E+20
 25
-1.000000000000000E+20
 35
-1.000000000000000E+20
146
0.0
 13
0.0
 23
0.0
 33
0.0
 16
1.0
 26
0.0
 36
0.0
 17
0.0
 27
1.0
 37
0.0
 76
     0
330
1B
  0
LAYOUT
  5
26
102
{ACAD_REACTORS
330
1A
102
}
330
1A
100
AcDbPlotSettings
  1

  2
\\FISUB-VA-S003\FISUB-VA-P0028
  4

  6

 40
0.0
 41
0.0
 42
0.0
 43
0.0
 44
0.0
 45
0.0
 46
0.0
 47
0.0
 48
0.0
 49
0.0
140
0.0
141
0.0
142
1.0
143
1.0
 70
   688
 72
     0
 73
     0
 74
     5
  7
HP5Si.ctb
 75
    16
147
1.0
148
0.0
149
0.0
100
AcDbLayout
  1
Layout2
 70
     1
 71
     2
 10
0.0
 20
0.0
 11
12.0
 21
9.0
 12
0.0
 22
0.0
 32
0.0
 14
0.0
 24
0.0
 34
0.0
 15
0.0
 25
0.0
 35
0.0
146
0.0
 13
0.0
 23
0.0
 33
0.0
 16
1.0
 26
0.0
 36
0.0
 17
0.0
 27
1.0
 37
0.0
 76
     0
330
23
  0
LAYOUT
  5
22
102
{ACAD_REACTORS
330
1A
102
}
330
1A
100
AcDbPlotSettings
  1

  2
\\FIVAA-S-IGS2002\FIVAA-P-250
  4
A4
  6

 40
5.873749732971191
 41
5.408092021942138
 42
5.577407836914062
 43
5.069427490234375
 44
209.9733276367187
 45
296.9683227539062
 46
3.95
 47
0.0
 48
-4.862029718784697
 49
-1.727368767466941
140
394.1588273405984
141
263.7771091872408
142
1.0
143
1.392787665587662
 70
 11956
 72
     1
 73
     1
 74
     4
  7
HP5Si.ctb
 75
     0
147
0.7179845318188307
148
4.862029718784697
149
1.727368767466941
100
AcDbLayout
  1
Model
 70
     1
 71
     0
 10
0.0
 20
0.0
 11
12.0
 21
9.0
 12
0.0
 22
0.0
 32
0.0
 14
0.0
 24
0.0
 34
0.0
 15
0.0
 25
0.0
 35
0.0
146
0.0
 13
0.0
 23
0.0
 33
0.0
 16
1.0
 26
0.0
 36
0.0
 17
0.0
 27
1.0
 37
0.0
 76
     0
330
1F
  0
MLINESTYLE
  5
18
102
{ACAD_REACTORS
330
17
102
}
330
17
100
AcDbMlineStyle
  2
STANDARD
 70
     0
  3

 62
   256
 51
90.0
 52
90.0
 71
     2
 49
0.5
 62
   256
  6
BYLAYER
 49
-0.5
 62
   256
  6
BYLAYER
  0
ACDBPLACEHOLDER
  5
F
102
{ACAD_REACTORS
330
E
102
}
330
E
  0
XRECORD
  5
CF4
102
{ACAD_REACTORS
330
CEA
102
}
330
CEA
100
AcDbXrecord
280
     1
 90
        0
  0
XRECORD
  5
CF8
102
{ACAD_REACTORS
330
CEA
102
}
330
CEA
100
AcDbXrecord
280
     1
1000
DSTYLE
1002
{
1070
   278
 70
    44
1002
}
  0
XRECORD
  5
CF5
102
{ACAD_REACTORS
330
CEA
102
}
330
CEA
100
AcDbXrecord
280
     1
  1
{16D15905-A24A-11D3-B118-0008C7CA2EDA}
  0
XRECORD
  5
CED
102
{ACAD_REACTORS
330
CEA
102
}
330
CEA
100
AcDbXrecord
280
     1
  1

  0
XRECORD
  5
CF3
102
{ACAD_REACTORS
330
CEA
102
}
330
CEA
100
AcDbXrecord
280
     1
 90
        4
  0
XRECORD
  5
CEF
102
{ACAD_REACTORS
330
CEA
102
}
330
CEA
100
AcDbXrecord
280
     1
340
1A
  0
XRECORD
  5
CF2
102
{ACAD_REACTORS
330
CEA
102
}
330
CEA
100
AcDbXrecord
280
     1
 90
    10781
  0
XRECORD
  5
CF0
102
{ACAD_REACTORS
330
CEA
102
}
330
CEA
100
AcDbXrecord
280
     1
340
19
  0
XRECORD
  5
CF1
102
{ACAD_REACTORS
330
CEA
102
}
330
CEA
100
AcDbXrecord
280
     1
340
E
  0
XRECORD
  5
CF7
102
{ACAD_REACTORS
330
CEA
102
}
330
CEA
100
AcDbXrecord
280
     1
 40
0.0
  0
XRECORD
  5
CFB
102
{ACAD_REACTORS
330
CEA
102
}
330
CEA
100
AcDbXrecord
280
     1
340
0
  0
XRECORD
  5
D01
102
{ACAD_REACTORS
330
CEA
102
}
330
CEA
100
AcDbXrecord
280
     1
 10
0.0
 20
0.0
 30
0.0
  0
XRECORD
  5
CFD
102
{ACAD_REACTORS
330
CEA
102
}
330
CEA
100
AcDbXrecord
280
     1
 10
0.0
 20
0.0
 30
0.0
  0
XRECORD
  5
D00
102
{ACAD_REACTORS
330
CEA
102
}
330
CEA
100
AcDbXrecord
280
     1
 10
0.0
 20
0.0
 30
0.0
  0
XRECORD
  5
CFE
102
{ACAD_REACTORS
330
CEA
102
}
330
CEA
100
AcDbXrecord
280
     1
 10
0.0
 20
0.0
 30
0.0
  0
XRECORD
  5
CFF
102
{ACAD_REACTORS
330
CEA
102
}
330
CEA
100
AcDbXrecord
280
     1
 10
0.0
 20
0.0
 30
0.0
  0
XRECORD
  5
CFC
102
{ACAD_REACTORS
330
CEA
102
}
330
CEA
100
AcDbXrecord
280
     1
 10
0.0
 20
0.0
 30
0.0
  0
XRECORD
  5
CF9
102
{ACAD_REACTORS
330
CEA
102
}
330
CEA
100
AcDbXrecord
280
     1
340
0
  0
XRECORD
  5
CFA
102
{ACAD_REACTORS
330
CEA
102
}
330
CEA
100
AcDbXrecord
280
     1
 70
     0
  0
XRECORD
  5
CEE
102
{ACAD_REACTORS
330
CEA
102
}
330
CEA
100
AcDbXrecord
280
     1
  1
HP5Si.ctb
  0
XRECORD
  5
CEB
102
{ACAD_REACTORS
330
CEA
102
}
330
CEA
100
AcDbXrecord
280
     1
 90
        1
  0
XRECORD
  5
CEC
102
{ACAD_REACTORS
330
CEA
102
}
330
CEA
100
AcDbXrecord
280
     1
 90
       70
  0
XRECORD
  5
D04
102
{ACAD_REACTORS
330
CEA
102
}
330
CEA
100
AcDbXrecord
280
     1
340
0
  0
XRECORD
  5
D0A
102
{ACAD_REACTORS
330
CEA
102
}
330
CEA
100
AcDbXrecord
280
     1
 10
0.0
 20
0.0
 30
0.0
  0
XRECORD
  5
D06
102
{ACAD_REACTORS
330
CEA
102
}
330
CEA
100
AcDbXrecord
280
     1
 10
0.0
 20
0.0
 30
0.0
  0
XRECORD
  5
D09
102
{ACAD_REACTORS
330
CEA
102
}
330
CEA
100
AcDbXrecord
280
     1
 10
0.0
 20
0.0
 30
0.0
  0
XRECORD
  5
D07
102
{ACAD_REACTORS
330
CEA
102
}
330
CEA
100
AcDbXrecord
280
     1
 10
0.0
 20
0.0
 30
0.0
  0
XRECORD
  5
D08
102
{ACAD_REACTORS
330
CEA
102
}
330
CEA
100
AcDbXrecord
280
     1
 10
0.0
 20
0.0
 30
0.0
  0
XRECORD
  5
D05
102
{ACAD_REACTORS
330
CEA
102
}
330
CEA
100
AcDbXrecord
280
     1
 10
0.0
 20
0.0
 30
0.0
  0
XRECORD
  5
D02
102
{ACAD_REACTORS
330
CEA
102
}
330
CEA
100
AcDbXrecord
280
     1
340
0
  0
XRECORD
  5
D03
102
{ACAD_REACTORS
330
CEA
102
}
330
CEA
100
AcDbXrecord
280
     1
 70
     0
  0
XRECORD
  5
CF6
102
{ACAD_REACTORS
330
CEA
102
}
330
CEA
100
AcDbXrecord
280
     1
  1
{4BDF7778-5449-4AF5-8F8E-48EE08D0D4C0}
  0
DICTIONARYVAR
  5
9D4
102
{ACAD_REACTORS
330
9D3
102
}
330
9D3
100
DictionaryVariables
280
     0
  1
1
  0
DICTIONARYVAR
  5
CE8
102
{ACAD_REACTORS
330
9D3
102
}
330
9D3
100
DictionaryVariables
280
     0
  1
1
  0
DICTIONARY
  5
C0C
102
{ACAD_REACTORS
330
C0B
102
}
330
C0B
100
AcDbDictionary
281
     1
  3
Dimension
350
CBB
  3
DWGSETTINGS
350
C0D
  3
TRANSSETTINGS
350
C11
  0
LAYER_INDEX
  5
CCE
102
{ACAD_REACTORS
330
CCD
102
}
330
CCD
100
AcDbIndex
 40
2452985.62760243
100
AcDbLayerIndex
  8
0
360
CCF
 90
        0
  8
PAKSU
360
CD0
 90
        8
  8
RAAMI
360
CD1
 90
       31
  8
OHUT
360
CD2
 90
       11
  8
KESKI
360
CD3
 90
        0
  8
KATKO
360
CD4
 90
        0
  8
KATKO07
360
CD5
 90
       70
  8
PISTKATK
360
CD6
 90
        7
  8
MITTA
360
CD7
 90
      328
  8
APU
360
CD8
 90
        0
  8
TEXT25
360
CD9
 90
      137
  8
TEXT35
360
CDA
 90
        0
  8
TEXT5
360
CDB
 90
        0
  8
TEXT7
360
CDC
 90
        0
  8
TEXT
360
CDD
 90
        0
  8
AM_TR
360
CDE
 90
        0
  8
AM_BM
360
CDF
 90
        0
  8
AM_BL
360
CE0
 90
        0
  8
AM_VIEWS
360
CE1
 90
        0
  8
AM_PARDIM
360
CE2
 90
        0
  8
AM_REFDIM
360
CE3
 90
        0
  8
AM_VIS
360
CE4
 90
        0
  8
AM_HID
360
CE5
 90
        0
  8
MUOTOVIIVA
360
CE6
 90
        1
  8
OHUTVIIVA
360
CE7
 90
        0
  0
IDBUFFER
  5
CCF
330
0
100
AcDbIdBuffer
  0
IDBUFFER
  5
CD0
330
0
100
AcDbIdBuffer
330
BC9
330
BCC
330
BCD
330
BCE
330
BD0
330
BD8
330
BD9
330
BF2
  0
IDBUFFER
  5
CD1
330
0
100
AcDbIdBuffer
330
BE4
330
BE6
330
BE7
330
BE8
330
BE9
330
BEA
330
BEB
330
BEC
330
BED
330
BEE
330
BEF
330
BF0
330
BF1
330
BF3
330
BF4
330
BC3
330
BC5
330
BC6
330
BC7
330
BC8
330
BD3
330
BD4
330
BD5
330
BD6
330
BDC
330
BDD
330
BDE
330
BDF
330
BE1
330
BE2
330
BE3
  0
IDBUFFER
  5
CD2
330
0
100
AcDbIdBuffer
330
BC4
330
BCA
330
BCB
330
BD1
330
BD2
330
BD7
330
BDA
330
BDB
330
BE0
330
BE5
330
BF5
  0
IDBUFFER
  5
CD3
330
0
100
AcDbIdBuffer
  0
IDBUFFER
  5
CD4
330
0
100
AcDbIdBuffer
  0
IDBUFFER
  5
CD5
330
0
100
AcDbIdBuffer
330
78B
330
78F
330
7C4
330
7C5
330
7C6
330
8C9
330
98B
330
98C
330
98D
330
98E
330
98F
330
990
330
993
330
994
330
995
330
996
330
997
330
998
330
99A
330
99D
330
99E
330
99F
330
4D0
330
4D1
330
4D2
330
4D8
330
4D9
330
4DA
330
4DC
330
4DD
330
4DE
330
4FC
330
500
330
501
330
561
330
562
330
563
330
5EC
330
5ED
330
74E
330
74F
330
750
330
757
330
758
330
759
330
75C
330
75D
330
75E
330
75F
330
760
330
761
330
762
330
765
330
767
330
768
330
769
330
76A
330
76B
330
76D
330
76E
330
76F
330
770
330
776
330
777
330
778
330
786
330
787
330
788
330
789
330
78A
  0
IDBUFFER
  5
CD6
330
0
100
AcDbIdBuffer
330
44D
330
44E
330
44F
330
532
330
533
330
534
330
535
  0
IDBUFFER
  5
CD7
330
0
100
AcDbIdBuffer
330
650
330
651
330
652
330
653
330
654
330
655
330
656
330
657
330
658
330
659
330
65A
330
65E
330
65F
330
660
330
661
330
662
330
663
330
664
330
665
330
666
330
667
330
668
330
66C
330
66D
330
66E
330
66F
330
670
330
671
330
672
330
673
330
674
330
675
330
676
330
67A
330
67B
330
67C
330
67D
330
67E
330
67F
330
680
330
681
330
682
330
683
330
684
330
688
330
68A
330
68B
330
68D
330
68E
330
68F
330
690
330
691
330
694
330
695
330
696
330
697
330
698
330
699
330
69A
330
69B
330
69C
330
69D
330
69E
330
69F
330
6A0
330
6A1
330
6A2
330
6A3
330
6A4
330
6A5
330
6A6
330
6A7
330
6A8
330
6A9
330
6AA
330
6AB
330
6AC
330
6AD
330
6AE
330
6AF
330
6B0
330
6B1
330
6B2
330
6B3
330
6B4
330
A3F
330
A40
330
A41
330
38A
330
38B
330
38C
330
38D
330
3AF
330
3B0
330
3B1
330
3B2
330
3C4
330
3CC
330
3CD
330
3CE
330
3CF
330
3D0
330
3D1
330
3D2
330
3D3
330
3D4
330
3D5
330
3D6
330
3D7
330
3D8
330
3D9
330
3DA
330
3DB
330
3E2
330
3E3
330
3E4
330
3E5
330
3E6
330
3E7
330
411
330
412
330
413
330
414
330
415
330
416
330
417
330
418
330
419
330
41A
330
41B
330
41C
330
41D
330
41E
330
41F
330
420
330
421
330
422
330
423
330
424
330
425
330
426
330
427
330
428
330
429
330
42A
330
42B
330
42C
330
42D
330
42E
330
42F
330
430
330
431
330
433
330
434
330
435
330
436
330
437
330
438
330
439
330
43A
330
43B
330
43C
330
43D
330
43E
330
43F
330
440
330
442
330
443
330
444
330
445
330
446
330
450
330
451
330
452
330
453
330
4C1
330
4C2
330
4C3
330
4C4
330
4C5
330
4C6
330
4C7
330
4C8
330
4C9
330
4CA
330
4CB
330
4CC
330
4CD
330
4CE
330
4CF
330
536
330
539
330
53B
330
545
330
546
330
54A
330
54F
330
550
330
554
330
555
330
556
330
55A
330
55B
330
55C
330
564
330
567
330
568
330
56A
330
56C
330
57E
330
57F
330
580
330
581
330
582
330
583
330
584
330
585
330
586
330
587
330
588
330
589
330
58A
330
58B
330
58C
330
58D
330
58E
330
58F
330
590
330
591
330
592
330
593
330
594
330
595
330
596
330
598
330
59D
330
59E
330
59F
330
5A0
330
5A1
330
5A2
330
5A3
330
5A4
330
5A5
330
5A6
330
5DB
330
5DC
330
5DD
330
5DE
330
5E0
330
5E1
330
5E2
330
5E3
330
5E4
330
5E5
330
5E6
330
5E7
330
5E8
330
5E9
330
5EA
330
5F3
330
5F4
330
5F5
330
5F6
330
5F7
330
5F8
330
5F9
330
5FA
330
5FB
330
5FC
330
5FD
330
5FE
330
5FF
330
600
330
601
330
60F
330
610
330
611
330
612
330
613
330
614
330
615
330
618
330
619
330
61A
330
61B
330
61C
330
61D
330
61E
330
61F
330
620
330
621
330
622
330
626
330
627
330
628
330
629
330
62A
330
62B
330
62C
330
62D
330
62E
330
62F
330
630
330
634
330
635
330
636
330
637
330
638
330
639
330
63A
330
63B
330
63C
330
63D
330
63E
330
640
330
641
330
642
330
643
330
644
330
645
330
646
330
647
330
648
330
649
330
64A
330
64B
330
64C
  0
IDBUFFER
  5
CD8
330
0
100
AcDbIdBuffer
  0
IDBUFFER
  5
CD9
330
0
100
AcDbIdBuffer
330
8B4
330
8B5
330
8B6
330
8B7
330
8B8
330
8B9
330
8C5
330
8C6
330
8C7
330
8C8
330
9A0
330
9A1
330
9A2
330
9A3
330
9A4
330
9A5
330
9CA
330
9CB
330
A42
330
A43
330
A44
330
A45
330
A46
330
A47
330
C03
330
51E
330
521
330
522
330
523
330
524
330
525
330
526
330
527
330
528
330
529
330
52A
330
52B
330
52C
330
52D
330
52E
330
52F
330
5A8
330
5AA
330
5AB
330
5AC
330
5AD
330
5AE
330
5AF
330
5B0
330
5B1
330
5B2
330
5B5
330
5B6
330
5B7
330
5B8
330
5B9
330
5BA
330
5BB
330
5BD
330
5BF
330
5C0
330
5C1
330
5C2
330
5C3
330
5C4
330
5C5
330
5C6
330
5C7
330
5C8
330
5C9
330
5CA
330
5CB
330
5CC
330
5CD
330
5CE
330
5CF
330
5D0
330
5D1
330
5D2
330
5D3
330
5D4
330
5D5
330
5D6
330
5D8
330
5D9
330
5DA
330
5EE
330
5EF
330
5F0
330
5F1
330
5F2
330
608
330
609
330
60A
330
689
330
68C
330
692
330
76C
330
772
330
773
330
774
330
775
330
779
330
77A
330
77B
330
77C
330
77D
330
77E
330
77F
330
780
330
781
330
782
330
783
330
784
330
785
330
7BA
330
7BB
330
7BC
330
7BD
330
7BE
330
7BF
330
7C0
330
7C1
330
7C2
330
7C3
330
7D8
330
7D9
330
7DA
330
7DB
330
883
330
884
330
885
330
886
330
8A5
330
8A6
330
8A8
330
8A9
  0
IDBUFFER
  5
CDA
330
0
100
AcDbIdBuffer
  0
IDBUFFER
  5
CDB
330
0
100
AcDbIdBuffer
  0
IDBUFFER
  5
CDC
330
0
100
AcDbIdBuffer
  0
IDBUFFER
  5
CDD
330
0
100
AcDbIdBuffer
  0
IDBUFFER
  5
CDE
330
0
100
AcDbIdBuffer
  0
IDBUFFER
  5
CDF
330
0
100
AcDbIdBuffer
  0
IDBUFFER
  5
CE0
330
0
100
AcDbIdBuffer
  0
IDBUFFER
  5
CE1
330
0
100
AcDbIdBuffer
  0
IDBUFFER
  5
CE2
330
0
100
AcDbIdBuffer
  0
IDBUFFER
  5
CE3
330
0
100
AcDbIdBuffer
  0
IDBUFFER
  5
CE4
330
0
100
AcDbIdBuffer
  0
IDBUFFER
  5
CE5
330
0
100
AcDbIdBuffer
  0
IDBUFFER
  5
CE6
330
0
100
AcDbIdBuffer
330
BCF
  0
IDBUFFER
  5
CE7
330
0
100
AcDbIdBuffer
  0
ENDSEC
  0
EOF
