  0
SECTION
  2
HEADER
  9
$ACADVER
  1
AC1009
  9
$INSBASE
 10
0.0
 20
0.0
 30
0.0
  9
$EXTMIN
 10
-14.694306
 20
-6.0
 30
0.0
  9
$EXTMAX
 10
391.0
 20
282.0
 30
0.0
  9
$LIMMIN
 10
0.0
 20
0.0
  9
$LIMMAX
 10
385.0
 20
276.0
  9
$ORTHOMODE
 70
     1
  9
$REGENMODE
 70
     0
  9
$FILLMODE
 70
     1
  9
$QTEXTMODE
 70
     0
  9
$MIRRTEXT
 70
     1
  9
$DRAGMODE
 70
     2
  9
$LTSCALE
 40
10.0
  9
$OSMODE
 70
     0
  9
$ATTMODE
 70
     1
  9
$TEXTSIZE
 40
3.15
  9
$TRACEWID
 40
0.05
  9
$TEXTSTYLE
  7
ROMANS
  9
$CLAYER
  8
102
  9
$CELTYPE
  6
BYLAYER
  9
$CECOLOR
 62
   256
  9
$DIMSCALE
 40
1.0
  9
$DIMASZ
 40
2.5
  9
$DIMEXO
 40
0.0
  9
$DIMDLI
 40
10.0
  9
$DIMRND
 40
0.0
  9
$DIMDLE
 40
0.0
  9
$DIMEXE
 40
2.0
  9
$DIMTP
 40
0.0
  9
$DIMTM
 40
0.0
  9
$DIMTXT
 40
3.15
  9
$DIMCEN
 40
0.0
  9
$DIMTSZ
 40
0.0
  9
$DIMTOL
 70
     0
  9
$DIMLIM
 70
     0
  9
$DIMTIH
 70
     0
  9
$DIMTOH
 70
     0
  9
$DIMSE1
 70
     0
  9
$DIMSE2
 70
     0
  9
$DIMTAD
 70
     0
  9
$DIMZIN
 70
     8
  9
$DIMBLK
  1
DIMPIL
  9
$DIMASO
 70
     1
  9
$DIMSHO
 70
     1
  9
$DIMPOST
  1

  9
$DIMAPOST
  1

  9
$DIMALT
 70
     0
  9
$DIMALTD
 70
     2
  9
$DIMALTF
 40
25.4
  9
$DIMLFAC
 40
1.0
  9
$DIMTOFL
 70
     1
  9
$DIMTVP
 40
1.0
  9
$DIMTIX
 70
     0
  9
$DIMSOXD
 70
     0
  9
$DIMSAH
 70
     0
  9
$DIMBLK1
  1
DIMPIL
  9
$DIMBLK2
  1
DIMPIL
  9
$DIMSTYLE
  2
*UNNAMED
  9
$DIMCLRD
 70
   256
  9
$DIMCLRE
 70
   256
  9
$DIMCLRT
 70
     6
  9
$DIMTFAC
 40
1.0
  9
$DIMGAP
 40
0.1
  9
$LUNITS
 70
     2
  9
$LUPREC
 70
     2
  9
$SKETCHINC
 40
0.1
  9
$FILLETRAD
 40
0.0
  9
$AUNITS
 70
     0
  9
$AUPREC
 70
     0
  9
$MENU
  1
mek
  9
$ELEVATION
 40
0.0
  9
$PELEVATION
 40
0.0
  9
$THICKNESS
 40
0.0
  9
$LIMCHECK
 70
     1
  9
$BLIPMODE
 70
     0
  9
$CHAMFERA
 40
0.0
  9
$CHAMFERB
 40
0.0
  9
$SKPOLY
 70
     0
  9
$TDCREATE
 40
2451625.724191898
  9
$TDUPDATE
 40
2451975.473837268
  9
$TDINDWG
 40
0.1995730324
  9
$TDUSRTIMER
 40
0.1995730324
  9
$USRTIMER
 70
     1
  9
$ANGBASE
 50
0.0
  9
$ANGDIR
 70
     0
  9
$PDMODE
 70
     0
  9
$PDSIZE
 40
0.0
  9
$PLINEWID
 40
0.0
  9
$COORDS
 70
     2
  9
$SPLFRAME
 70
     0
  9
$SPLINETYPE
 70
     6
  9
$SPLINESEGS
 70
     8
  9
$ATTDIA
 70
     1
  9
$ATTREQ
 70
     1
  9
$HANDLING
 70
     0
  9
$HANDSEED
  5
0
  9
$SURFTAB1
 70
     6
  9
$SURFTAB2
 70
     6
  9
$SURFTYPE
 70
     6
  9
$SURFU
 70
     6
  9
$SURFV
 70
     6
  9
$UCSNAME
  2

  9
$UCSORG
 10
0.0
 20
0.0
 30
0.0
  9
$UCSXDIR
 10
1.0
 20
0.0
 30
0.0
  9
$UCSYDIR
 10
0.0
 20
1.0
 30
0.0
  9
$PUCSNAME
  2

  9
$PUCSORG
 10
0.0
 20
0.0
 30
0.0
  9
$PUCSXDIR
 10
1.0
 20
0.0
 30
0.0
  9
$PUCSYDIR
 10
0.0
 20
1.0
 30
0.0
  9
$USERI1
 70
   132
  9
$USERI2
 70
     0
  9
$USERI3
 70
     0
  9
$USERI4
 70
     0
  9
$USERI5
 70
     0
  9
$USERR1
 40
1.0
  9
$USERR2
 40
0.0
  9
$USERR3
 40
0.0
  9
$USERR4
 40
0.0
  9
$USERR5
 40
0.0
  9
$WORLDVIEW
 70
     1
  9
$SHADEDGE
 70
     3
  9
$SHADEDIF
 70
    70
  9
$TILEMODE
 70
     1
  9
$MAXACTVP
 70
    12
  9
$PINSBASE
 10
0.0
 20
0.0
 30
0.0
  9
$PLIMCHECK
 70
     0
  9
$PEXTMIN
 10
1.000000E+20
 20
1.000000E+20
 30
1.000000E+20
  9
$PEXTMAX
 10
-1.000000E+20
 20
-1.000000E+20
 30
-1.000000E+20
  9
$PLIMMIN
 10
0.0
 20
0.0
  9
$PLIMMAX
 10
12.0
 20
9.0
  9
$UNITMODE
 70
     0
  9
$VISRETAIN
 70
     0
  9
$PLINEGEN
 70
     0
  9
$PSLTSCALE
 70
     0
  9
$TREEDEPTH
 70
  3020
  9
$DWGCODEPAGE
  3
iso8859-1
  0
ENDSEC
  0
SECTION
  2
TABLES
  0
TABLE
  2
VPORT
 70
     2
  0
VPORT
  2
*ACTIVE
 70
     0
 10
0.0
 20
0.0
 11
1.0
 21
1.0
 12
228.905694
 22
138.0
 13
0.0
 23
0.0
 14
2.5
 24
2.5
 15
5.0
 25
5.0
 16
0.0
 26
0.0
 36
1.0
 17
0.0
 27
0.0
 37
0.0
 40
288.0
 41
1.691667
 42
50.0
 43
0.0
 44
0.0
 50
0.0
 51
0.0
 71
     0
 72
   200
 73
     1
 74
     0
 75
     0
 76
     0
 77
     0
 78
     0
  0
ENDTAB
  0
TABLE
  2
LTYPE
 70
     7
  0
LTYPE
  2
CONTINUOUS
 70
    64
  3
Solid line
 72
    65
 73
     0
 40
0.0
  0
LTYPE
  2
HIDDEN
 70
    64
  3
_ _ _ _ _ _ _ _ _ _ _ _ _ _ _ _ _ _ _ _ _ _ _
 72
    65
 73
     2
 40
0.375
 49
0.25
 49
-0.125
  0
LTYPE
  2
DASHDOT
 70
    64
  3
__ . __ . __ . __ . __ . __ . __ . __ . __ . __
 72
    65
 73
     4
 40
1.0
 49
0.5
 49
-0.25
 49
0.0
 49
-0.25
  0
LTYPE
  2
PHANTOM
 70
    64
  3
_____ _ _ _____ _ _ _____ _ _ _____ _ _ ____
 72
    65
 73
     6
 40
2.5
 49
1.25
 49
-0.25
 49
0.25
 49
-0.25
 49
0.25
 49
-0.25
  0
LTYPE
  2
DIVIDE
 70
    64
  3
____ . . ____ . . ____ . . ____ . . ____ . . __
 72
    65
 73
     6
 40
1.25
 49
0.5
 49
-0.25
 49
0.0
 49
-0.25
 49
0.0
 49
-0.25
  0
LTYPE
  2
DASHED
 70
    64
  3
__ __ __ __ __ __ __ __ __ __ __ __ __ __ __ __
 72
    65
 73
     2
 40
0.75
 49
0.5
 49
-0.25
  0
LTYPE
  2
DASHED2
 70
    64
  3
_ _ _ _ _ _ _ _ _ _ _ _ _ _ _ _ _ _ _ _ _ _ _ _
 72
    65
 73
     2
 40
0.375
 49
0.25
 49
-0.125
  0
ENDTAB
  0
TABLE
  2
LAYER
 70
    35
  0
LAYER
  2
0
 70
    64
 62
     7
  6
CONTINUOUS
  0
LAYER
  2
MASTERLINE_CFG
 70
    69
 62
     7
  6
CONTINUOUS
  0
LAYER
  2
16
 70
     0
 62
     7
  6
CONTINUOUS
  0
LAYER
  2
15
 70
    64
 62
     5
  6
CONTINUOUS
  0
LAYER
  2
14
 70
     0
 62
     7
  6
CONTINUOUS
  0
LAYER
  2
13
 70
     0
 62
     7
  6
CONTINUOUS
  0
LAYER
  2
12
 70
     0
 62
     7
  6
CONTINUOUS
  0
LAYER
  2
11
 70
    64
 62
     7
  6
CONTINUOUS
  0
LAYER
  2
10
 70
     0
 62
     1
  6
CONTINUOUS
  0
LAYER
  2
09
 70
    64
 62
     2
  6
CONTINUOUS
  0
LAYER
  2
08
 70
    64
 62
     2
  6
CONTINUOUS
  0
LAYER
  2
07
 70
     0
 62
     6
  6
PHANTOM
  0
LAYER
  2
06
 70
     0
 62
     3
  6
DASHDOT
  0
LAYER
  2
05
 70
     0
 62
     6
  6
DASHDOT
  0
LAYER
  2
04
 70
     0
 62
     4
  6
HIDDEN
  0
LAYER
  2
03
 70
     0
 62
     3
  6
HIDDEN
  0
LAYER
  2
02
 70
    64
 62
     1
  6
CONTINUOUS
  0
LAYER
  2
01
 70
    64
 62
     3
  6
CONTINUOUS
  0
LAYER
  2
101
 70
    64
 62
     5
  6
CONTINUOUS
  0
LAYER
  2
110
 70
    64
 62
     7
  6
CONTINUOUS
  0
LAYER
  2
102
 70
    64
 62
     7
  6
CONTINUOUS
  0
LAYER
  2
103
 70
    64
 62
     3
  6
CONTINUOUS
  0
LAYER
  2
104
 70
    64
 62
     7
  6
HIDDEN
  0
LAYER
  2
105
 70
    64
 62
     3
  6
HIDDEN
  0
LAYER
  2
106
 70
    64
 62
     7
  6
DASHDOT
  0
LAYER
  2
107
 70
    64
 62
     7
  6
DIVIDE
  0
LAYER
  2
108
 70
    64
 62
     7
  6
CONTINUOUS
  0
LAYER
  2
109
 70
     0
 62
     7
  6
CONTINUOUS
  0
LAYER
  2
111
 70
    64
 62
     7
  6
CONTINUOUS
  0
LAYER
  2
3
 70
    64
 62
     3
  6
CONTINUOUS
  0
LAYER
  2
4
 70
    64
 62
     7
  6
HIDDEN
  0
LAYER
  2
8
 70
    64
 62
     7
  6
CONTINUOUS
  0
LAYER
  2
NOD
 70
    64
 62
     7
  6
CONTINUOUS
  0
LAYER
  2
5
 70
    64
 62
     3
  6
HIDDEN
  0
LAYER
  2
9
 70
    64
 62
     7
  6
CONTINUOUS
  0
ENDTAB
  0
TABLE
  2
STYLE
 70
     5
  0
STYLE
  2
STANDARD
 70
    64
 40
3.15
 41
1.0
 50
0.0
 71
     0
 42
7.0
  3
simplex
  4

  0
STYLE
  2
VERTIKAL
 70
     4
 40
3.15
 41
1.0
 50
0.0
 71
     0
 42
7.0
  3
simplex
  4

  0
STYLE
  2
ISO
 70
    64
 40
3.15
 41
1.0
 50
0.0
 71
     0
 42
3.15
  3
fiso
  4

  0
STYLE
  2
SIMPLEX
 70
     0
 40
0.0
 41
1.0
 50
0.0
 71
     0
 42
7.0
  3
simplex
  4

  0
STYLE
  2
ROMANS
 70
    64
 40
3.15
 41
1.0
 50
0.0
 71
     0
 42
3.15
  3
romans
  4

  0
ENDTAB
  0
TABLE
  2
VIEW
 70
     0
  0
ENDTAB
  0
TABLE
  2
UCS
 70
     0
  0
ENDTAB
  0
TABLE
  2
APPID
 70
     3
  0
APPID
  2
ACAD
 70
    64
  0
APPID
  2
MASTERLINE_CFG
 70
    64
  0
APPID
  2
MASTERLINE_CFG_LAYER
 70
    64
  0
ENDTAB
  0
TABLE
  2
DIMSTYLE
 70
     0
  0
ENDTAB
  0
ENDSEC
  0
SECTION
  2
BLOCKS
  0
BLOCK
  8
0
  2
DIMPIL
 70
     0
 10
0.0
 20
0.0
 30
0.0
  3
DIMPIL
  0
POLYLINE
  8
0
 62
     0
 66
     1
 10
0.0
 20
0.0
 30
0.0
 41
0.4
  0
VERTEX
  8
0
 62
     0
 10
0.0
 20
0.0
 30
0.0
  0
VERTEX
  8
0
 62
     0
 10
-1.0
 20
0.0
 30
0.0
 40
0.4
  0
SEQEND
  8
0
 62
     0
  0
ENDBLK
  8
0
  0
BLOCK
  8
0
  2
DIMRING
 70
     0
 10
0.0
 20
0.0
 30
0.0
  3
DIMRING
  0
CIRCLE
  8
0
 62
     0
 10
0.0
 20
0.0
 30
0.0
 40
0.5
  0
LINE
  8
0
 62
     0
 10
0.0
 20
0.0
 30
0.0
 11
-1.0
 21
0.0
 31
0.0
  0
ENDBLK
  8
0
  0
BLOCK
  8
0
  2
A3EL
 70
    66
 10
0.0
 20
0.0
 30
0.0
  3
A3EL
  0
LINE
  8
101
 10
0.0
 20
0.0
 30
0.0
 11
0.0
 21
276.0
 31
0.0
  0
TEXT
  8
101
 62
     2
 10
84.1965
 20
1.474364
 30
0.0
 40
1.62
  1
Year    Week
 41
0.7
  7
ROMANS
  0
TEXT
  8
101
 62
     2
 10
77.08
 20
1.591667
 30
0.0
 40
1.6
  1
Appd
 41
0.7
  7
ROMANS
 72
     4
 11
79.0
 21
2.125
 31
0.0
  0
TEXT
  8
101
 62
     2
 10
0.986667
 20
1.325
 30
0.0
 40
1.6
  1
Rev Ind
 41
0.7
 72
     4
 11
4.0
 21
2.125
 31
0.0
  0
LINE
  8
101
 10
385.0
 20
0.0
 30
0.0
 11
0.0
 21
0.0
 31
0.0
  0
LINE
  8
101
 10
98.0
 20
4.25
 30
0.0
 11
0.0
 21
4.25
 31
0.0
  0
LINE
  8
101
 10
98.0
 20
8.5
 30
0.0
 11
0.0
 21
8.5
 31
0.0
  0
LINE
  8
101
 10
98.0
 20
12.75
 30
0.0
 11
0.0
 21
12.75
 31
0.0
  0
LINE
  8
101
 10
98.0
 20
17.0
 30
0.0
 11
0.0
 21
17.0
 31
0.0
  0
LINE
  8
101
 10
8.0
 20
0.0
 30
0.0
 11
8.0
 21
21.25
 31
0.0
  0
LINE
  8
101
 10
75.0
 20
0.0
 30
0.0
 11
75.0
 21
21.25
 31
0.0
  0
LINE
  8
101
 10
83.0
 20
0.0
 30
0.0
 11
83.0
 21
21.25
 31
0.0
  0
LINE
  8
101
 10
98.0
 20
0.0
 30
0.0
 11
98.0
 21
21.25
 31
0.0
  0
LINE
  8
101
 10
385.0
 20
21.25
 30
0.0
 11
0.0
 21
21.25
 31
0.0
  0
LINE
  8
101
 10
179.0
 20
0.0
 30
0.0
 11
179.0
 21
21.25
 31
0.0
  0
LINE
  8
101
 10
215.0
 20
14.25
 30
0.0
 11
179.0
 21
14.25
 31
0.0
  0
LINE
  8
101
 10
296.0
 20
7.25
 30
0.0
 11
179.0
 21
7.25
 31
0.0
  0
LINE
  8
101
 10
0.0
 20
276.0
 30
0.0
 11
385.0
 21
276.0
 31
0.0
  0
LINE
  8
101
 10
385.0
 20
276.0
 30
0.0
 11
385.0
 21
0.0
 31
0.0
  0
LINE
  8
101
 10
215.0
 20
0.0
 30
0.0
 11
215.0
 21
21.25
 31
0.0
  0
LINE
  8
101
 10
268.0
 20
0.0
 30
0.0
 11
268.0
 21
7.25
 31
0.0
  0
LINE
  8
101
 10
296.0
 20
0.0
 30
0.0
 11
296.0
 21
21.25
 31
0.0
  0
LINE
  8
101
 10
385.0
 20
14.25
 30
0.0
 11
296.0
 21
14.25
 31
0.0
  0
LINE
  8
101
 10
362.0
 20
0.0
 30
0.0
 11
362.0
 21
21.25
 31
0.0
  0
LINE
  8
101
 10
370.0
 20
0.0
 30
0.0
 11
370.0
 21
21.25
 31
0.0
  0
LINE
  8
101
 10
385.0
 20
7.25
 30
0.0
 11
362.0
 21
7.25
 31
0.0
  0
ATTDEF
  8
110
 62
     3
 10
319.916667
 20
5.75
 30
0.0
 40
5.0
  1

  3
Document No.
  2
DOCNO
 70
     0
 41
0.7
  7
ROMANS
 72
     4
 11
329.0
 21
8.25
 31
0.0
  0
ATTDEF
  8
110
 10
216.5
 20
17.25
 30
0.0
 40
2.5
  1
KRETSSCHEMA
  3
Dokumenttyp
  2
DOCTYPE
 70
     0
 41
0.8
  7
ROMANS
  0
ATTDEF
  8
110
 10
363.903758
 20
24.218725
 30
0.0
 40
2.5
  1

  3
Filnamn
  2
FILENAME
 70
     0
 41
0.8
  7
ROMANS
 72
     2
 11
377.522806
 21
24.218725
 31
0.0
  0
ATTDEF
  8
110
 10
216.5
 20
13.0
 30
0.0
 40
2.5
  1

  3
Title (engelska)
  2
TITLE1
 70
     0
 41
0.8
  7
ROMANS
  0
ATTDEF
  8
110
 10
216.5
 20
8.75
 30
0.0
 40
2.5
  1

  3
Title (svenska)
  2
TITLE2
 70
     0
 41
0.8
  7
ROMANS
  0
ATTDEF
  8
110
 10
268.635145
 20
1.521977
 30
0.0
 40
2.0
  1
SECRL/
  3
Iss by Dept
  2
RESPDEPT
 70
     0
 41
0.8
  7
ROMANS
  0
ATTDEF
  8
110
 10
280.273899
 20
1.521977
 30
0.0
 40
2.0
  1

  3
Year
  2
ISSYEAR
 70
     0
 41
0.8
  7
ROMANS
 72
     1
 11
285.035804
 21
1.521977
 31
0.0
  0
ATTDEF
  8
110
 10
286.007233
 20
1.521977
 30
0.0
 40
2.0
  1

  3
Week
  2
ISSWEEK
 70
     0
 41
0.8
  7
ROMANS
 72
     1
 11
291.035804
 21
1.521977
 31
0.0
  0
ATTDEF
  8
110
 10
297.5
 20
1.5
 30
0.0
 40
2.0
  1
PREL
  3
Status
  2
STATUS
 70
     0
 41
0.8
  7
ROMANS
  0
ATTDEF
  8
110
 10
180.5
 20
15.272399
 30
0.0
 40
2.5
  1

  3
Design checked by
  2
APPROVED
 70
     0
 41
0.8
  7
ROMANS
  0
ATTDEF
  8
110
 10
180.5
 20
8.272399
 30
0.0
 40
2.5
  1

  3
Drawing checked by
  2
PREPARED
 70
     0
 41
0.8
  7
ROMANS
  0
ATTDEF
  8
110
 10
180.5
 20
1.225889
 30
0.0
 40
2.5
  1

  3
Drawn by
  2
DRAWNBY
 70
     0
 41
0.8
  7
ROMANS
  0
ATTDEF
  8
110
 10
2.633082
 20
270.33846
 30
0.0
 40
2.5
  1

  3
Typ
  2
TYPE
 70
     0
 41
0.8
  7
ROMANS
  0
ATTDEF
  8
110
 10
362.080189
 20
8.831832
 30
0.0
 40
2.5
  1
82
  3
Language (82=E,S)
  2
LANG
 70
     0
 41
0.8
  7
ROMANS
 72
     4
 11
365.842094
 21
10.081832
 31
0.0
  0
ATTDEF
  8
110
 10
359.358234
 20
1.278552
 30
0.0
 40
2.5
  1

  3
Rev Ind
  2
REVISION
 70
     0
 41
0.8
  7
ROMANS
 72
     4
 11
365.929663
 21
2.528552
 31
0.0
  0
ATTDEF
  8
110
 10
372.833333
 20
8.772399
 30
0.0
 40
2.5
  1
1
  3
Sheet
  2
SHEET
 70
     0
 41
0.8
  7
ROMANS
 72
     1
 11
377.5
 21
8.772399
 31
0.0
  0
ATTDEF
  8
110
 10
373.547619
 20
1.247159
 30
0.0
 40
2.5
  1
-
  3
Cont
  2
CONT
 70
     0
 41
0.8
  7
ROMANS
 72
     1
 11
377.5
 21
1.247159
 31
0.0
  0
POINT
  8
MASTERLINE_CFG
 62
     7
 10
0.0
 20
0.0
 30
0.0
1001
MASTERLINE_CFG
1000
MEKVERSION
1000
12
1000
ITEMLISTHEAD
1000
shuv6
1000
ITEMLISTROW
1000
skol6
1000
ITEMLISTTEMPLATE
1000
kol6
1000
ITEMLISTDISTHEAD
1000
7
1000
ITEMLISTDISTROW
1000
5
1000
ITEMLISTSUM
1000
0
1000
ITEMLISTSUMCOLUMNS
1000
,2,
1000
DWGNAME
1000
A3EL
1000
CFGVER
1000
12
1000
DRAWINGSCALE
1000
1.00
1000
MDIM_MLDIMEXO
1000
12
1000
FORMATTYPE
1000
A3L
1000
HEADNAME
1000
sms_687
1000
REVLISTROW
1000
relist
1000
AUTOUPDATE_FROM_DMI
1000
0
1000
AUTOUPDATE_TO_DMI
1000
1
1000
AUTOINSERT
1000
0
1000
FRAMEEXPLODE
1000
0
1000
FORMATNAME
1000

1000
FORMSET
1000

1000
LGRAUTOLOCK
1000
1
1000
REVBLOCK
1000
revring
1000
REVRADIUS
1000
5
1000
MDIM_PARATEXT
1000
1
1000
ARROWHEAD
1000
pilhuvud
1000
TOLPREC
1000
2
1000
TOLDIMZIN
1000
8
1000
POSBLOCK
1000
pos
1000
POSRADIUS
1000
7
1000
POSSHAPE
1000
1
1000
POSENDBLOCK
1000
ARROW
1001
MASTERLINE_CFG_LAYER
1000
LAYERDESC_16
1000
Info
1000
COLOR_16
1000
7
1000
LINETYPE_16
1000
CONTINUOUS
1000
LAYER_16
1000
16
1000
LAYERDESC_15
1000
Ritram
1000
COLOR_15
1000
5
1000
LINETYPE_15
1000
CONTINUOUS
1000
LAYER_15
1000
15
1000
LAYERDESC_14
1000
Konstrunktion
1000
COLOR_14
1000
7
1000
LINETYPE_14
1000
CONTINUOUS
1000
LAYER_14
1000
14
1000
LAYERDESC_13
1000
Heldragen fin
1000
COLOR_13
1000
7
1000
LINETYPE_13
1000
CONTINUOUS
1000
LAYER_13
1000
13
1000
LAYERDESC_12
1000
Dimensionstext
1000
COLOR_12
1000
7
1000
LINETYPE_12
1000
CONTINUOUS
1000
LAYER_12
1000
12
1000
LAYERDESC_11
1000
Text
1000
COLOR_11
1000
7
1000
LINETYPE_11
1000
CONTINUOUS
1000
LAYER_11
1000
11
1000
LAYERDESC_10
1000
Snittmarkering
1000
COLOR_10
1000
1
1000
LINETYPE_10
1000
CONTINUOUS
1000
LAYER_10
1000
10
1000
LAYERDESC_9
1000
Position
1000
COLOR_9
1000
2
1000
LINETYPE_9
1000
CONTINUOUS
1000
LAYER_9
1000
09
1000
LAYERDESC_8
1000
Mttsttning
1000
COLOR_8
1000
2
1000
LINETYPE_8
1000
CONTINUOUS
1000
LAYER_8
1000
08
1000
LAYERDESC_7
1000
Dubbelpunktstreckad fin
1000
COLOR_7
1000
6
1000
LINETYPE_7
1000
PHANTOM
1000
LAYER_7
1000
07
1000
LAYERDESC_6
1000
Punktstreckad grov
1000
COLOR_6
1000
3
1000
LINETYPE_6
1000
DASHDOT
1000
LAYER_6
1000
06
1000
LAYERDESC_5
1000
Centrumlinje
1000
COLOR_5
1000
6
1000
LINETYPE_5
1000
DASHDOT
1000
LAYER_5
1000
05
1000
LAYERDESC_4
1000
Streckad fin
1000
COLOR_4
1000
4
1000
LINETYPE_4
1000
HIDDEN
1000
LAYER_4
1000
04
1000
LAYERDESC_3
1000
Streckad grov
1000
COLOR_3
1000
3
1000
LINETYPE_3
1000
HIDDEN
1000
LAYER_3
1000
03
1000
LAYERDESC_2
1000
Heldragen fin
1000
COLOR_2
1000
1
1000
LINETYPE_2
1000
CONTINUOUS
1000
LAYER_2
1000
02
1000
LAYERDESC_1
1000
Heldragen grov
1000
COLOR_1
1000
3
1000
LINETYPE_1
1000
CONTINUOUS
1000
LAYER_1
1000
01
1000
GROUPDESC_0
1000

1000
GROUP_0
1000

1000
ACTIVE_GROUP
1000

1000
LAYERMODE
1000
1
  0
ENDBLK
  8
0
  0
BLOCK
  8
0
  2
ABBS6
 70
    64
 10
0.0
 20
0.0
 30
0.0
  3
ABBS6
  0
LINE
  8
0
 10
1.464514
 20
0.994296
 30
0.0
 11
1.415136
 21
0.994296
 31
0.0
  0
LINE
  8
0
 10
0.320293
 20
0.194372
 30
0.0
 11
0.250406
 21
-0.004855
 31
0.0
  0
LINE
  8
0
 10
0.0
 20
0.003568
 30
0.0
 11
0.0
 21
-0.006114
 31
0.0
  0
LINE
  8
0
 10
0.749566
 20
-0.006114
 30
0.0
 11
1.000337
 21
-0.006114
 31
0.0
  0
LINE
  8
0
 10
1.069877
 20
-0.006114
 30
0.0
 11
1.325629
 21
-0.006114
 31
0.0
  0
LINE
  8
0
 10
1.416103
 20
0.449852
 30
0.0
 11
1.730236
 21
0.449852
 31
0.0
  0
ARC
  8
0
 10
1.472715
 20
0.294901
 30
0.0
 40
0.300544
 50
54.789554
 51
68.052793
  0
LINE
  8
0
 10
1.069519
 20
0.449852
 30
0.0
 11
1.325169
 21
0.449852
 31
0.0
  0
LINE
  8
0
 10
1.069519
 20
0.540458
 30
0.0
 11
1.32506
 21
0.540458
 31
0.0
  0
LINE
  8
0
 10
1.416103
 20
0.449852
 30
0.0
 11
1.416103
 21
-0.005984
 31
0.0
  0
LINE
  8
0
 10
1.325169
 20
0.449852
 30
0.0
 11
1.325169
 21
-0.005984
 31
0.0
  0
LINE
  8
0
 10
1.416139
 20
0.994271
 30
0.0
 11
1.416139
 21
0.943067
 31
0.0
  0
LINE
  8
0
 10
1.32506
 20
0.99425
 30
0.0
 11
1.32506
 21
0.540458
 31
0.0
  0
LINE
  8
0
 10
1.416139
 20
0.540458
 30
0.0
 11
1.646004
 21
0.540458
 31
0.0
  0
LINE
  8
0
 10
1.416139
 20
0.943067
 30
0.0
 11
1.416139
 21
0.540458
 31
0.0
  0
LINE
  8
0
 10
0.54487
 20
0.45009
 30
0.0
 11
0.54487
 21
0.195257
 31
0.0
  0
LINE
  8
0
 10
0.453553
 20
0.45009
 30
0.0
 11
0.453553
 21
0.195019
 31
0.0
  0
LINE
  8
0
 10
0.54487
 20
0.45009
 30
0.0
 11
0.840739
 21
0.45009
 31
0.0
  0
LINE
  8
0
 10
0.54487
 20
0.540458
 30
0.0
 11
0.80911
 21
0.540458
 31
0.0
  0
LINE
  8
0
 10
0.54487
 20
0.943067
 30
0.0
 11
0.54487
 21
0.540458
 31
0.0
  0
LINE
  8
0
 10
0.54487
 20
0.994271
 30
0.0
 11
0.54487
 21
0.943067
 31
0.0
  0
LINE
  8
0
 10
0.453553
 20
0.99425
 30
0.0
 11
0.453553
 21
0.540458
 31
0.0
  0
LINE
  8
0
 10
0.166503
 20
0.45009
 30
0.0
 11
0.453553
 21
0.45009
 31
0.0
  0
LINE
  8
0
 10
0.189586
 20
0.540458
 30
0.0
 11
0.453553
 21
0.540458
 31
0.0
  0
ARC
  8
0
 10
1.472715
 20
0.294901
 30
0.0
 40
0.300544
 50
267.096919
 51
31.001763
  0
ARC
  8
0
 10
1.472596
 20
0.767641
 30
0.0
 40
0.224456
 50
300.316969
 51
92.196755
  0
LINE
  8
0
 10
1.069528
 20
0.994127
 30
0.0
 11
1.069528
 21
0.541519
 31
0.0
  0
LINE
  8
0
 10
0.679643
 20
0.193953
 30
0.0
 11
0.749733
 21
-0.006305
 31
0.0
  0
LINE
  8
0
 10
0.322454
 20
0.194757
 30
0.0
 11
0.454598
 21
0.194757
 31
0.0
  0
LINE
  8
0
 10
0.650267
 20
0.994296
 30
0.0
 11
0.80911
 21
0.540458
 31
0.0
  0
LINE
  8
0
 10
0.34877
 20
0.994246
 30
0.0
 11
0.189586
 21
0.540458
 31
0.0
  0
LINE
  8
0
 10
0.0
 20
-0.006114
 30
0.0
 11
0.250881
 21
-0.006114
 31
0.0
  0
LINE
  8
0
 10
0.157688
 20
0.449524
 30
0.0
 11
-0.002024
 21
-0.005771
 31
0.0
  0
LINE
  8
0
 10
0.546485
 20
0.994277
 30
0.0
 11
0.650267
 21
0.994296
 31
0.0
  0
LINE
  8
0
 10
0.546486
 20
0.194757
 30
0.0
 11
0.679491
 21
0.194757
 31
0.0
  0
LINE
  8
0
 10
0.166503
 20
0.45009
 30
0.0
 11
0.158938
 21
0.45009
 31
0.0
  0
LINE
  8
0
 10
0.832086
 20
0.45009
 30
0.0
 11
0.840598
 21
0.45009
 31
0.0
  0
LINE
  8
0
 10
1.069528
 20
0.449628
 30
0.0
 11
1.069528
 21
-0.005652
 31
0.0
  0
LINE
  8
0
 10
0.166503
 20
0.45009
 30
0.0
 11
0.160485
 21
0.45009
 31
0.0
  0
LINE
  8
0
 10
0.166503
 20
0.45009
 30
0.0
 11
0.158164
 21
0.45009
 31
0.0
  0
LINE
  8
0
 10
0.840704
 20
0.450189
 30
0.0
 11
1.00041
 21
-0.006114
 31
0.0
  0
LINE
  8
0
 10
0.455312
 20
0.994296
 30
0.0
 11
0.349118
 21
0.994296
 31
0.0
  0
SOLID
  8
0
 10
0.349118
 20
0.994296
 30
0.0
 11
0.453553
 21
0.99425
 31
0.0
 12
0.189586
 22
0.540458
 32
0.0
 13
0.453553
 23
0.540458
 33
0.0
  0
SOLID
  8
0
 10
0.546485
 20
0.994277
 30
0.0
 11
0.650267
 21
0.994296
 31
0.0
 12
0.54487
 22
0.540458
 32
0.0
 13
0.80911
 23
0.540458
 33
0.0
  0
SOLID
  8
0
 10
0.157688
 20
0.449524
 30
0.0
 11
0.453553
 21
0.45009
 31
0.0
 12
0.320293
 22
0.194372
 32
0.0
 13
0.453553
 23
0.195019
 33
0.0
  0
SOLID
  8
0
 10
0.157688
 20
0.449524
 30
0.0
 11
0.320293
 21
0.194372
 31
0.0
 12
-0.002461
 22
-0.004468
 32
0.0
 13
0.251183
 23
-0.004468
 33
0.0
  0
SOLID
  8
0
 10
0.54487
 20
0.45009
 30
0.0
 11
0.840598
 21
0.45009
 31
0.0
 12
0.546486
 22
0.194757
 32
0.0
 13
0.679643
 23
0.193953
 33
0.0
  0
SOLID
  8
0
 10
0.679643
 20
0.193953
 30
0.0
 11
0.840739
 21
0.45009
 31
0.0
 12
0.753471
 22
-0.007801
 32
0.0
 13
0.998784
 23
-0.004468
 33
0.0
  0
LINE
  8
0
 10
1.416326
 20
-0.006114
 30
0.0
 11
1.458675
 21
-0.006114
 31
0.0
  0
LINE
  8
0
 10
1.327057
 20
0.994296
 30
0.0
 11
1.068805
 21
0.994296
 31
0.0
  0
SOLID
  8
0
 10
1.069528
 20
0.994127
 30
0.0
 11
1.32506
 21
0.99425
 31
0.0
 12
1.069528
 22
0.541519
 32
0.0
 13
1.32506
 23
0.540458
 33
0.0
  0
SOLID
  8
0
 10
1.069528
 20
0.449628
 30
0.0
 11
1.325169
 21
0.449852
 31
0.0
 12
1.069877
 22
-0.006114
 32
0.0
 13
1.325169
 23
-0.005984
 33
0.0
  0
SOLID
  8
0
 10
1.472596
 20
0.767641
 30
0.0
 11
1.473816
 21
0.992282
 31
0.0
 12
1.517141
 22
0.986211
 32
0.0
 13
1.517141
 23
0.986211
 33
0.0
  0
SOLID
  8
0
 10
1.472596
 20
0.767641
 30
0.0
 11
1.517379
 21
0.985973
 31
0.0
 12
1.561419
 22
0.973951
 32
0.0
 13
1.561419
 23
0.973951
 33
0.0
  0
SOLID
  8
0
 10
1.472596
 20
0.767641
 30
0.0
 11
1.561419
 21
0.972761
 31
0.0
 12
1.604506
 22
0.946932
 32
0.0
 13
1.604506
 23
0.946932
 33
0.0
  0
SOLID
  8
0
 10
1.472596
 20
0.767641
 30
0.0
 11
1.604506
 21
0.946932
 31
0.0
 12
1.639738
 22
0.914913
 32
0.0
 13
1.639738
 23
0.914913
 33
0.0
  0
SOLID
  8
0
 10
1.472596
 20
0.767641
 30
0.0
 11
1.640247
 21
0.914061
 31
0.0
 12
1.667697
 22
0.875164
 32
0.0
 13
1.667697
 23
0.875164
 33
0.0
  0
SOLID
  8
0
 10
1.472147
 20
0.766668
 30
0.0
 11
1.685729
 21
0.829343
 31
0.0
 12
1.69435
 22
0.782523
 32
0.0
 13
1.69435
 23
0.782523
 33
0.0
  0
SOLID
  8
0
 10
1.472147
 20
0.766668
 30
0.0
 11
1.667056
 21
0.874168
 31
0.0
 12
1.685624
 22
0.830331
 32
0.0
 13
1.685624
 23
0.830331
 33
0.0
  0
SOLID
  8
0
 10
1.472258
 20
0.766537
 30
0.0
 11
1.65838
 21
0.644454
 31
0.0
 12
1.628302
 22
0.607553
 32
0.0
 13
1.628302
 23
0.607553
 33
0.0
  0
SOLID
  8
0
 10
1.472258
 20
0.766537
 30
0.0
 11
1.680425
 21
0.687721
 31
0.0
 12
1.659065
 22
0.645174
 32
0.0
 13
1.659065
 23
0.645174
 33
0.0
  0
SOLID
  8
0
 10
1.47329
 20
0.766825
 30
0.0
 11
1.693443
 21
0.733988
 31
0.0
 12
1.681599
 22
0.687877
 32
0.0
 13
1.681599
 23
0.687877
 33
0.0
  0
SOLID
  8
0
 10
1.47329
 20
0.766825
 30
0.0
 11
1.695325
 21
0.78251
 31
0.0
 12
1.693762
 22
0.734928
 32
0.0
 13
1.693762
 23
0.734928
 33
0.0
  0
SOLID
  8
0
 10
1.472596
 20
0.767641
 30
0.0
 11
1.628668
 21
0.607937
 31
0.0
 12
1.585224
 22
0.573775
 32
0.0
 13
1.585224
 23
0.573775
 33
0.0
  0
SOLID
  8
0
 10
1.417636
 20
0.992639
 30
0.0
 11
1.472149
 21
0.992639
 31
0.0
 12
1.417636
 22
0.542352
 32
0.0
 13
1.471673
 23
0.542352
 33
0.0
  0
SOLID
  8
0
 10
1.472149
 20
0.766722
 30
0.0
 11
1.471673
 21
0.54128
 31
0.0
 12
1.585224
 22
0.573775
 32
0.0
 13
1.585224
 23
0.573775
 33
0.0
  0
SOLID
  8
0
 10
1.475482
 20
0.542352
 30
0.0
 11
1.585224
 21
0.572704
 31
0.0
 12
1.64307
 22
0.542352
 32
0.0
 13
1.64307
 23
0.542352
 33
0.0
  0
SOLID
  8
0
 10
1.472715
 20
0.294901
 30
0.0
 11
1.72984
 21
0.4482
 31
0.0
 12
1.756145
 22
0.390471
 32
0.0
 13
1.756145
 23
0.390471
 33
0.0
  0
SOLID
  8
0
 10
1.472715
 20
0.294901
 30
0.0
 11
1.756138
 21
0.39126
 31
0.0
 12
1.769837
 22
0.329317
 32
0.0
 13
1.769837
 23
0.329317
 33
0.0
  0
SOLID
  8
0
 10
1.473259
 20
0.294659
 30
0.0
 11
1.771348
 21
0.267155
 31
0.0
 12
1.758615
 22
0.205006
 32
0.0
 13
1.758615
 23
0.205006
 33
0.0
  0
SOLID
  8
0
 10
1.473259
 20
0.294659
 30
0.0
 11
1.770536
 21
0.329869
 31
0.0
 12
1.771032
 22
0.266432
 32
0.0
 13
1.771032
 23
0.266432
 33
0.0
  0
SOLID
  8
0
 10
1.47343
 20
0.294104
 30
0.0
 11
1.734377
 21
0.147405
 31
0.0
 12
1.697402
 22
0.095855
 32
0.0
 13
1.697402
 23
0.095855
 33
0.0
  0
SOLID
  8
0
 10
1.47343
 20
0.294104
 30
0.0
 11
1.759216
 21
0.204996
 31
0.0
 12
1.733794
 22
0.146873
 32
0.0
 13
1.733794
 23
0.146873
 33
0.0
  0
SOLID
  8
0
 10
1.472715
 20
0.294901
 30
0.0
 11
1.695204
 21
0.09635
 31
0.0
 12
1.650569
 22
0.055642
 32
0.0
 13
1.650569
 23
0.055642
 33
0.0
  0
SOLID
  8
0
 10
1.472715
 20
0.294901
 30
0.0
 11
1.649954
 21
0.055088
 31
0.0
 12
1.597945
 22
0.024356
 32
0.0
 13
1.597945
 23
0.024356
 33
0.0
  0
SOLID
  8
0
 10
1.472715
 20
0.294901
 30
0.0
 11
1.597761
 21
0.024185
 31
0.0
 12
1.540609
 22
0.004612
 32
0.0
 13
1.540609
 23
0.004612
 33
0.0
  0
SOLID
  8
0
 10
1.472715
 20
0.294901
 30
0.0
 11
1.473578
 21
-0.00423
 31
0.0
 12
1.539518
 22
0.004578
 32
0.0
 13
1.539518
 23
0.004578
 33
0.0
  0
SOLID
  8
0
 10
1.417517
 20
0.448795
 30
0.0
 11
1.473578
 21
0.448795
 31
0.0
 12
1.417517
 22
-0.00423
 32
0.0
 13
1.473578
 23
-0.003754
 33
0.0
  0
SOLID
  8
0
 10
1.474054
 20
0.448795
 30
0.0
 11
1.729245
 21
0.4482
 31
0.0
 12
1.474054
 22
0.295961
 32
0.0
 13
1.474054
 23
0.295961
 33
0.0
  0
SOLID
  8
0
 10
2.241651
 20
0.448795
 30
0.0
 11
2.496843
 21
0.4482
 31
0.0
 12
2.241651
 22
0.295961
 32
0.0
 13
2.241651
 23
0.295961
 33
0.0
  0
SOLID
  8
0
 10
2.185114
 20
0.448795
 30
0.0
 11
2.241175
 21
0.448795
 31
0.0
 12
2.185114
 22
-0.00423
 32
0.0
 13
2.241175
 23
-0.003754
 33
0.0
  0
SOLID
  8
0
 10
2.240313
 20
0.294901
 30
0.0
 11
2.241175
 21
-0.00423
 31
0.0
 12
2.307116
 22
0.004578
 32
0.0
 13
2.307116
 23
0.004578
 33
0.0
  0
SOLID
  8
0
 10
2.240313
 20
0.294901
 30
0.0
 11
2.365358
 21
0.024185
 31
0.0
 12
2.308207
 22
0.004612
 32
0.0
 13
2.308207
 23
0.004612
 33
0.0
  0
SOLID
  8
0
 10
2.240313
 20
0.294901
 30
0.0
 11
2.417552
 21
0.055088
 31
0.0
 12
2.365543
 22
0.024356
 32
0.0
 13
2.365543
 23
0.024356
 33
0.0
  0
SOLID
  8
0
 10
2.240313
 20
0.294901
 30
0.0
 11
2.462801
 21
0.09635
 31
0.0
 12
2.418167
 22
0.055642
 32
0.0
 13
2.418167
 23
0.055642
 33
0.0
  0
SOLID
  8
0
 10
2.241028
 20
0.294104
 30
0.0
 11
2.526814
 21
0.204996
 31
0.0
 12
2.501391
 22
0.146873
 32
0.0
 13
2.501391
 23
0.146873
 33
0.0
  0
SOLID
  8
0
 10
2.241028
 20
0.294104
 30
0.0
 11
2.501974
 21
0.147405
 31
0.0
 12
2.464999
 22
0.095855
 32
0.0
 13
2.464999
 23
0.095855
 33
0.0
  0
SOLID
  8
0
 10
2.240856
 20
0.294659
 30
0.0
 11
2.538134
 21
0.329869
 31
0.0
 12
2.53863
 22
0.266432
 32
0.0
 13
2.53863
 23
0.266432
 33
0.0
  0
SOLID
  8
0
 10
2.240856
 20
0.294659
 30
0.0
 11
2.538946
 21
0.267155
 31
0.0
 12
2.526213
 22
0.205006
 32
0.0
 13
2.526213
 23
0.205006
 33
0.0
  0
SOLID
  8
0
 10
2.240313
 20
0.294901
 30
0.0
 11
2.523736
 21
0.39126
 31
0.0
 12
2.537435
 22
0.329317
 32
0.0
 13
2.537435
 23
0.329317
 33
0.0
  0
SOLID
  8
0
 10
2.240313
 20
0.294901
 30
0.0
 11
2.497438
 21
0.4482
 31
0.0
 12
2.523743
 22
0.390471
 32
0.0
 13
2.523743
 23
0.390471
 33
0.0
  0
SOLID
  8
0
 10
2.24308
 20
0.542352
 30
0.0
 11
2.352821
 21
0.572704
 31
0.0
 12
2.410668
 22
0.542352
 32
0.0
 13
2.410668
 23
0.542352
 33
0.0
  0
SOLID
  8
0
 10
2.239747
 20
0.766722
 30
0.0
 11
2.239271
 21
0.54128
 31
0.0
 12
2.352821
 22
0.573775
 32
0.0
 13
2.352821
 23
0.573775
 33
0.0
  0
SOLID
  8
0
 10
2.185233
 20
0.992639
 30
0.0
 11
2.239747
 21
0.992639
 31
0.0
 12
2.185233
 22
0.542352
 32
0.0
 13
2.239271
 23
0.542352
 33
0.0
  0
SOLID
  8
0
 10
2.240194
 20
0.767641
 30
0.0
 11
2.396266
 21
0.607937
 31
0.0
 12
2.352821
 22
0.573775
 32
0.0
 13
2.352821
 23
0.573775
 33
0.0
  0
SOLID
  8
0
 10
2.240888
 20
0.766825
 30
0.0
 11
2.462923
 21
0.78251
 31
0.0
 12
2.46136
 22
0.734928
 32
0.0
 13
2.46136
 23
0.734928
 33
0.0
  0
SOLID
  8
0
 10
2.240888
 20
0.766825
 30
0.0
 11
2.46104
 21
0.733988
 31
0.0
 12
2.449197
 22
0.687877
 32
0.0
 13
2.449197
 23
0.687877
 33
0.0
  0
SOLID
  8
0
 10
2.239856
 20
0.766537
 30
0.0
 11
2.448023
 21
0.687721
 31
0.0
 12
2.426662
 22
0.645174
 32
0.0
 13
2.426662
 23
0.645174
 33
0.0
  0
SOLID
  8
0
 10
2.239856
 20
0.766537
 30
0.0
 11
2.425978
 21
0.644454
 31
0.0
 12
2.395899
 22
0.607553
 32
0.0
 13
2.395899
 23
0.607553
 33
0.0
  0
SOLID
  8
0
 10
2.239745
 20
0.766668
 30
0.0
 11
2.434653
 21
0.874168
 31
0.0
 12
2.453222
 22
0.830331
 32
0.0
 13
2.453222
 23
0.830331
 33
0.0
  0
SOLID
  8
0
 10
2.239745
 20
0.766668
 30
0.0
 11
2.453327
 21
0.829343
 31
0.0
 12
2.461947
 22
0.782523
 32
0.0
 13
2.461947
 23
0.782523
 33
0.0
  0
SOLID
  8
0
 10
2.240194
 20
0.767641
 30
0.0
 11
2.407844
 21
0.914061
 31
0.0
 12
2.435294
 22
0.875164
 32
0.0
 13
2.435294
 23
0.875164
 33
0.0
  0
SOLID
  8
0
 10
2.240194
 20
0.767641
 30
0.0
 11
2.372104
 21
0.946932
 31
0.0
 12
2.407335
 22
0.914913
 32
0.0
 13
2.407335
 23
0.914913
 33
0.0
  0
SOLID
  8
0
 10
2.240194
 20
0.767641
 30
0.0
 11
2.329016
 21
0.972761
 31
0.0
 12
2.372104
 22
0.946932
 32
0.0
 13
2.372104
 23
0.946932
 33
0.0
  0
SOLID
  8
0
 10
2.240194
 20
0.767641
 30
0.0
 11
2.284977
 21
0.985973
 31
0.0
 12
2.329016
 22
0.973951
 32
0.0
 13
2.329016
 23
0.973951
 33
0.0
  0
SOLID
  8
0
 10
2.240194
 20
0.767641
 30
0.0
 11
2.241413
 21
0.992282
 31
0.0
 12
2.284739
 22
0.986211
 32
0.0
 13
2.284739
 23
0.986211
 33
0.0
  0
SOLID
  8
0
 10
1.837126
 20
0.449628
 30
0.0
 11
2.092767
 21
0.449852
 31
0.0
 12
1.837474
 22
-0.006114
 32
0.0
 13
2.092767
 23
-0.005984
 33
0.0
  0
SOLID
  8
0
 10
1.837126
 20
0.994127
 30
0.0
 11
2.092658
 21
0.99425
 31
0.0
 12
1.837126
 22
0.541519
 32
0.0
 13
2.092658
 23
0.540458
 33
0.0
  0
LINE
  8
0
 10
2.094654
 20
0.994296
 30
0.0
 11
1.836402
 21
0.994296
 31
0.0
  0
LINE
  8
0
 10
2.183924
 20
-0.006114
 30
0.0
 11
2.226273
 21
-0.006114
 31
0.0
  0
LINE
  8
0
 10
1.837126
 20
0.449628
 30
0.0
 11
1.837126
 21
-0.005652
 31
0.0
  0
LINE
  8
0
 10
1.837126
 20
0.994127
 30
0.0
 11
1.837126
 21
0.541519
 31
0.0
  0
ARC
  8
0
 10
2.240194
 20
0.767641
 30
0.0
 40
0.224456
 50
300.316969
 51
92.196755
  0
ARC
  8
0
 10
2.240313
 20
0.294901
 30
0.0
 40
0.300544
 50
267.096919
 51
31.001763
  0
LINE
  8
0
 10
2.183736
 20
0.943067
 30
0.0
 11
2.183736
 21
0.540458
 31
0.0
  0
LINE
  8
0
 10
2.183736
 20
0.540458
 30
0.0
 11
2.413601
 21
0.540458
 31
0.0
  0
LINE
  8
0
 10
2.092658
 20
0.99425
 30
0.0
 11
2.092658
 21
0.540458
 31
0.0
  0
LINE
  8
0
 10
2.183736
 20
0.994271
 30
0.0
 11
2.183736
 21
0.943067
 31
0.0
  0
LINE
  8
0
 10
2.092767
 20
0.449852
 30
0.0
 11
2.092767
 21
-0.005984
 31
0.0
  0
LINE
  8
0
 10
2.1837
 20
0.449852
 30
0.0
 11
2.1837
 21
-0.005984
 31
0.0
  0
LINE
  8
0
 10
1.837117
 20
0.540458
 30
0.0
 11
2.092658
 21
0.540458
 31
0.0
  0
LINE
  8
0
 10
1.837117
 20
0.449852
 30
0.0
 11
2.092767
 21
0.449852
 31
0.0
  0
ARC
  8
0
 10
2.240313
 20
0.294901
 30
0.0
 40
0.300544
 50
54.789554
 51
68.052793
  0
LINE
  8
0
 10
2.1837
 20
0.449852
 30
0.0
 11
2.497834
 21
0.449852
 31
0.0
  0
LINE
  8
0
 10
1.837474
 20
-0.006114
 30
0.0
 11
2.093226
 21
-0.006114
 31
0.0
  0
LINE
  8
0
 10
2.232112
 20
0.994296
 30
0.0
 11
2.182734
 21
0.994296
 31
0.0
  0
ENDBLK
  8
0
  0
BLOCK
  8
0
  2
WA3SCH
 70
    64
 10
0.0
 20
0.0
 30
0.0
  3
WA3SCH
  0
TEXT
  8
15
 62
     2
 10
0.589225
 20
-2.924989
 30
0.0
 40
1.75
  1
(A3)
 41
0.9
  7
ISO
  0
TEXT
  8
11
 10
-3.5
 20
20.682816
 30
0.0
 40
2.5
  1
C
 41
0.7
  7
ROMANS
  0
TEXT
  8
11
 10
-3.5
 20
94.682816
 30
0.0
 40
2.5
  1
C
 41
0.7
  7
ROMANS
  0
TEXT
  8
11
 10
-3.5
 20
168.682816
 30
0.0
 40
2.5
  1
B
 41
0.7
  7
ROMANS
  0
TEXT
  8
11
 10
-3.5
 20
242.682816
 30
0.0
 40
2.5
  1
A
 41
0.7
  7
ROMANS
  0
TEXT
  8
11
 10
386.5
 20
94.682816
 30
0.0
 40
2.5
  1
C
 41
0.7
  7
ROMANS
  0
TEXT
  8
11
 10
386.5
 20
168.682816
 30
0.0
 40
2.5
  1
B
 41
0.7
  7
ROMANS
  0
TEXT
  8
11
 10
386.5
 20
242.682816
 30
0.0
 40
2.5
  1
A
 41
0.7
  7
ROMANS
  0
TEXT
  8
11
 10
80.897436
 20
-4.0
 30
0.0
 40
2.5
  1
2
 41
0.7
  7
ROMANS
  0
TEXT
  8
11
 10
150.897436
 20
-4.0
 30
0.0
 40
2.5
  1
3
 41
0.7
  7
ROMANS
  0
TEXT
  8
11
 10
220.897436
 20
-4.0
 30
0.0
 40
2.5
  1
4
 41
0.7
  7
ROMANS
  0
TEXT
  8
11
 10
290.897436
 20
-4.0
 30
0.0
 40
2.5
  1
5
 41
0.7
  7
ROMANS
  0
TEXT
  8
11
 10
360.897436
 20
-4.0
 30
0.0
 40
2.5
  1
6
 41
0.7
  7
ROMANS
  0
TEXT
  8
11
 10
10.897436
 20
277.5
 30
0.0
 40
2.5
  1
1
 41
0.7
  7
ROMANS
  0
TEXT
  8
11
 10
360.897436
 20
277.5
 30
0.0
 40
2.5
  1
6
 41
0.7
  7
ROMANS
  0
TEXT
  8
11
 10
290.897436
 20
277.5
 30
0.0
 40
2.5
  1
5
 41
0.7
  7
ROMANS
  0
TEXT
  8
11
 10
220.897436
 20
277.5
 30
0.0
 40
2.5
  1
4
 41
0.7
  7
ROMANS
  0
TEXT
  8
11
 10
150.897436
 20
277.5
 30
0.0
 40
2.5
  1
3
 41
0.7
  7
ROMANS
  0
TEXT
  8
11
 10
80.897436
 20
277.5
 30
0.0
 40
2.5
  1
2
 41
0.7
  7
ROMANS
  0
LINE
  8
15
 10
-6.0
 20
64.0
 30
0.0
 11
0.0
 21
64.0
 31
0.0
  0
LINE
  8
15
 10
-6.0
 20
212.0
 30
0.0
 11
0.0
 21
212.0
 31
0.0
  0
LINE
  8
15
 10
385.0
 20
64.0
 30
0.0
 11
391.0
 21
64.0
 31
0.0
  0
LINE
  8
15
 10
385.0
 20
212.0
 30
0.0
 11
391.0
 21
212.0
 31
0.0
  0
LINE
  8
01
 10
385.0
 20
138.0
 30
0.0
 11
391.0
 21
138.0
 31
0.0
  0
LINE
  8
01
 10
185.0
 20
-6.0
 30
0.0
 11
185.0
 21
0.0
 31
0.0
  0
LINE
  8
15
 10
255.0
 20
-6.0
 30
0.0
 11
255.0
 21
0.0
 31
0.0
  0
LINE
  8
15
 10
325.0
 20
-6.0
 30
0.0
 11
325.0
 21
0.0
 31
0.0
  0
LINE
  8
15
 10
115.0
 20
-6.0
 30
0.0
 11
115.0
 21
0.0
 31
0.0
  0
LINE
  8
15
 10
45.0
 20
-6.0
 30
0.0
 11
45.0
 21
0.0
 31
0.0
  0
LINE
  8
15
 10
45.0
 20
276.0
 30
0.0
 11
45.0
 21
282.0
 31
0.0
  0
LINE
  8
15
 10
115.0
 20
276.0
 30
0.0
 11
115.0
 21
282.0
 31
0.0
  0
LINE
  8
15
 10
325.0
 20
276.0
 30
0.0
 11
325.0
 21
282.0
 31
0.0
  0
LINE
  8
15
 10
255.0
 20
276.0
 30
0.0
 11
255.0
 21
282.0
 31
0.0
  0
LINE
  8
01
 10
185.0
 20
276.0
 30
0.0
 11
185.0
 21
282.0
 31
0.0
  0
TEXT
  8
09
 10
-12.894306
 20
108.814026
 30
0.0
 40
1.8
  1
We reserve all rights in this document and in the 
 50
90.0
 41
0.7
  7
ROMANS
  0
TEXT
  8
09
 10
-9.98002
 20
108.814026
 30
0.0
 40
1.8
  1
information contained therein. Reproduction, use or
 50
90.0
 41
0.7
  7
ROMANS
  0
TEXT
  8
09
 10
-7.065735
 20
108.814026
 30
0.0
 40
1.8
  1
disclosure to third parties without express authority
 50
90.0
 41
0.7
  7
ROMANS
  0
TEXT
  8
09
 10
-4.151449
 20
108.814026
 30
0.0
 40
1.8
  1
is strictly forbidden.  c ABB Control
 50
90.0
 41
0.7
  7
ROMANS
  0
CIRCLE
  8
11
 10
-4.713522
 20
131.557937
 30
0.0
 40
1.12985
  0
TEXT
  8
110
 10
269.082784
 20
5.011624
 30
0.0
 40
1.62
  1
Iss by Dept   Year Week
 41
0.700749
  7
ROMANS
 72
     5
 11
291.570806
 21
5.011624
 31
0.0
  0
TEXT
  8
110
 10
362.40417
 20
5.011624
 30
0.0
 40
1.62
  1
Rev Ind
 41
0.667049
  7
ROMANS
 72
     5
 11
368.476222
 21
5.011624
 31
0.0
  0
TEXT
  8
110
 10
370.40417
 20
5.011624
 30
0.0
 40
1.62
  1
Cont
  7
ROMANS
  0
TEXT
  8
110
 10
370.40417
 20
12.011624
 30
0.0
 40
1.62
  1
Sheet
  7
ROMANS
  0
TEXT
  8
110
 10
362.40417
 20
12.011624
 30
0.0
 40
1.62
  1
Lang
  7
ROMANS
  0
TEXT
  8
110
 10
179.40417
 20
5.011624
 30
0.0
 40
1.62
  1
Drawn by
  7
ROMANS
  0
TEXT
  8
110
 10
179.40417
 20
12.011624
 30
0.0
 40
1.62
  1
Drawing checked by
  7
ROMANS
  0
TEXT
  8
110
 10
179.40417
 20
19.011624
 30
0.0
 40
1.62
  1
Design checked by
  7
ROMANS
  0
INSERT
  8
08
  2
ABBS6
 10
217.5
 20
1.278738
 30
0.0
 41
4.98
 42
4.98
 43
4.98
  0
TEXT
  8
101
 10
235.153469
 20
1.25
 30
0.0
 40
2.5
  1
ABB Control
  7
ROMANS
  0
POINT
  8
MASTERLINE_CFG
 62
     7
 10
0.0
 20
0.0
 30
0.0
1001
MASTERLINE_CFG
1000
MEKVERSION
1000
12
1000
ITEMLISTHEAD
1000
shuv6
1000
ITEMLISTROW
1000
skol6
1000
ITEMLISTTEMPLATE
1000
kol6
1000
ITEMLISTDISTHEAD
1000
7
1000
ITEMLISTDISTROW
1000
5
1000
ITEMLISTSUM
1000
0
1000
ITEMLISTSUMCOLUMNS
1000
,2,
1000
DWGNAME
1000
WA3SCH
1000
CFGVER
1000
12
1000
DRAWINGSCALE
1000
1.00
1000
MDIM_MLDIMEXO
1000
12
1000
FORMATTYPE
1000
A3L
1000
HEADNAME
1000
sms_687
1000
REVLISTROW
1000
relist
1000
AUTOUPDATE_FROM_DMI
1000
0
1000
AUTOUPDATE_TO_DMI
1000
1
1000
AUTOINSERT
1000
0
1000
FRAMEEXPLODE
1000
0
1000
FORMATNAME
1000

1000
FORMSET
1000

1000
LGRAUTOLOCK
1000
1
1000
REVBLOCK
1000
revring
1000
REVRADIUS
1000
5
1000
MDIM_PARATEXT
1000
1
1000
ARROWHEAD
1000
pilhuvud
1000
TOLPREC
1000
2
1000
TOLDIMZIN
1000
8
1000
POSBLOCK
1000
pos
1000
POSRADIUS
1000
7
1000
POSSHAPE
1000
1
1000
POSENDBLOCK
1000
ARROW
1001
MASTERLINE_CFG_LAYER
1000
LAYERDESC_16
1000
Info
1000
COLOR_16
1000
7
1000
LINETYPE_16
1000
CONTINUOUS
1000
LAYER_16
1000
16
1000
LAYERDESC_15
1000
Ritram
1000
COLOR_15
1000
5
1000
LINETYPE_15
1000
CONTINUOUS
1000
LAYER_15
1000
15
1000
LAYERDESC_14
1000
Konstrunktion
1000
COLOR_14
1000
7
1000
LINETYPE_14
1000
CONTINUOUS
1000
LAYER_14
1000
14
1000
LAYERDESC_13
1000
Heldragen fin
1000
COLOR_13
1000
7
1000
LINETYPE_13
1000
CONTINUOUS
1000
LAYER_13
1000
13
1000
LAYERDESC_12
1000
Dimensionstext
1000
COLOR_12
1000
7
1000
LINETYPE_12
1000
CONTINUOUS
1000
LAYER_12
1000
12
1000
LAYERDESC_11
1000
Text
1000
COLOR_11
1000
7
1000
LINETYPE_11
1000
CONTINUOUS
1000
LAYER_11
1000
11
1000
LAYERDESC_10
1000
Snittmarkering
1000
COLOR_10
1000
1
1000
LINETYPE_10
1000
CONTINUOUS
1000
LAYER_10
1000
10
1000
LAYERDESC_9
1000
Position
1000
COLOR_9
1000
2
1000
LINETYPE_9
1000
CONTINUOUS
1000
LAYER_9
1000
09
1000
LAYERDESC_8
1000
Mttsttning
1000
COLOR_8
1000
2
1000
LINETYPE_8
1000
CONTINUOUS
1000
LAYER_8
1000
08
1000
LAYERDESC_7
1000
Dubbelpunktstreckad fin
1000
COLOR_7
1000
6
1000
LINETYPE_7
1000
PHANTOM
1000
LAYER_7
1000
07
1000
LAYERDESC_6
1000
Punktstreckad grov
1000
COLOR_6
1000
3
1000
LINETYPE_6
1000
DASHDOT
1000
LAYER_6
1000
06
1000
LAYERDESC_5
1000
Centrumlinje
1000
COLOR_5
1000
6
1000
LINETYPE_5
1000
DASHDOT
1000
LAYER_5
1000
05
1000
LAYERDESC_4
1000
Streckad fin
1000
COLOR_4
1000
4
1000
LINETYPE_4
1000
HIDDEN
1000
LAYER_4
1000
04
1000
LAYERDESC_3
1000
Streckad grov
1000
COLOR_3
1000
3
1000
LINETYPE_3
1000
HIDDEN
1000
LAYER_3
1000
03
1000
LAYERDESC_2
1000
Heldragen fin
1000
COLOR_2
1000
1
1000
LINETYPE_2
1000
CONTINUOUS
1000
LAYER_2
1000
02
1000
LAYERDESC_1
1000
Heldragen grov
1000
COLOR_1
1000
3
1000
LINETYPE_1
1000
CONTINUOUS
1000
LAYER_1
1000
01
1000
GROUPDESC_0
1000

1000
GROUP_0
1000

1000
ACTIVE_GROUP
1000

1000
LAYERMODE
1000
1
  0
ENDBLK
  8
0
  0
BLOCK
  8
0
  2
REV3EL
 70
    66
 10
0.0
 20
0.0
 30
0.0
  3
REV3EL
  0
ATTDEF
  8
110
 10
-0.190476
 20
1.125
 30
0.0
 40
2.0
  1

  3
Rev ind
  2
REVIND
 70
     0
 41
0.8
  7
ROMANS
 72
     4
 11
4.0
 21
2.125
 31
0.0
  0
ATTDEF
  8
110
 10
8.950872
 20
1.138214
 30
0.0
 40
2.0
  1

  3
Revision
  2
REVTEXT
 70
     0
 41
0.8
  7
ROMANS
  0
ATTDEF
  8
110
 10
76.106926
 20
0.9
 30
0.0
 40
2.0
  1

  3
Appd
  2
APPD
 70
     0
 41
0.8
  7
ROMANS
 72
     1
 11
79.11645
 21
0.9
 31
0.0
  0
ATTDEF
  8
110
 10
81.357143
 20
0.9
 30
0.0
 40
2.0
  1

  3
Year
  2
REVYEAR
 70
     0
 41
0.8
  7
ROMANS
 72
     1
 11
86.5
 21
0.9
 31
0.0
  0
ATTDEF
  8
110
 10
88.090476
 20
0.9
 30
0.0
 40
2.0
  1

  3
Week
  2
REVWEEK
 70
     0
 41
0.8
  7
ROMANS
 72
     1
 11
93.5
 21
0.9
 31
0.0
  0
ENDBLK
  8
0
  0
BLOCK
  8
0
  2
6648
 70
     2
 10
0.0
 20
0.0
 30
0.0
  3
6648
  0
POINT
  8
MASTERLINE_CFG
 62
     7
 10
0.0
 20
0.0
 30
0.0
1001
MASTERLINE_CFG
1000
MEKVERSION
1000
12
1000
ITEMLISTHEAD
1000
shuv6
1000
ITEMLISTROW
1000
skol6
1000
ITEMLISTTEMPLATE
1000
kol6
1000
ITEMLISTDISTHEAD
1000
7
1000
ITEMLISTDISTROW
1000
5
1000
ITEMLISTSUM
1000
0
1000
ITEMLISTSUMCOLUMNS
1000
,2,
1000
DWGNAME
1000
6648
1000
CFGVER
1000
12
1000
DRAWINGSCALE
1000
1
1000
MDIM_MLDIMEXO
1000
12
1000
FORMATTYPE
1000
A3L
1000
HEADNAME
1000
A3EL
1000
AUTOUPDATE_FROM_DMI
1000
1
1000
AUTOUPDATE_TO_DMI
1000
1
1000
AUTOINSERT
1000
0
1000
FRAMEEXPLODE
1000
0
1000
FORMATNAME
1000

1000
FORMSET
1000

1000
LGRAUTOLOCK
1000
1
1000
REVLISTROW
1000
o:\mek12\msc\rev1
1000
REVBLOCK
1000
revring
1000
REVRADIUS
1000
5
1000
MDIM_PARATEXT
1000
1
1000
ARROWHEAD
1000
pilhuvud
1000
TOLPREC
1000
2
1000
TOLDIMZIN
1000
8
1000
POSBLOCK
1000
pos
1000
POSRADIUS
1000
7
1000
POSSHAPE
1000
1
1000
POSENDBLOCK
1000
ARROW
1001
MASTERLINE_CFG_LAYER
1000
LAYERDESC_16
1000
Info
1000
COLOR_16
1000
7
1000
LINETYPE_16
1000
CONTINUOUS
1000
LAYER_16
1000
16
1000
LAYERDESC_15
1000
Ritram
1000
COLOR_15
1000
5
1000
LINETYPE_15
1000
CONTINUOUS
1000
LAYER_15
1000
15
1000
LAYERDESC_14
1000
Konstrunktion
1000
COLOR_14
1000
7
1000
LINETYPE_14
1000
CONTINUOUS
1000
LAYER_14
1000
14
1000
LAYERDESC_13
1000
Heldragen fin
1000
COLOR_13
1000
7
1000
LINETYPE_13
1000
CONTINUOUS
1000
LAYER_13
1000
13
1000
LAYERDESC_12
1000
Dimensionstext
1000
COLOR_12
1000
7
1000
LINETYPE_12
1000
CONTINUOUS
1000
LAYER_12
1000
12
1000
LAYERDESC_11
1000
Text
1000
COLOR_11
1000
7
1000
LINETYPE_11
1000
CONTINUOUS
1000
LAYER_11
1000
11
1000
LAYERDESC_10
1000
Snittmarkering
1000
COLOR_10
1000
1
1000
LINETYPE_10
1000
CONTINUOUS
1000
LAYER_10
1000
10
1000
LAYERDESC_9
1000
Position
1000
COLOR_9
1000
2
1000
LINETYPE_9
1000
CONTINUOUS
1000
LAYER_9
1000
09
1000
LAYERDESC_8
1000
Mttsttning
1000
COLOR_8
1000
2
1000
LINETYPE_8
1000
CONTINUOUS
1000
LAYER_8
1000
08
1000
LAYERDESC_7
1000
Dubbelpunktstreckad fin
1000
COLOR_7
1000
6
1000
LINETYPE_7
1000
PHANTOM
1000
LAYER_7
1000
07
1000
LAYERDESC_6
1000
Punktstreckad grov
1000
COLOR_6
1000
3
1000
LINETYPE_6
1000
DASHDOT
1000
LAYER_6
1000
06
1000
LAYERDESC_5
1000
Centrumlinje
1000
COLOR_5
1000
6
1000
LINETYPE_5
1000
DASHDOT
1000
LAYER_5
1000
05
1000
LAYERDESC_4
1000
Streckad fin
1000
COLOR_4
1000
4
1000
LINETYPE_4
1000
HIDDEN
1000
LAYER_4
1000
04
1000
LAYERDESC_3
1000
Streckad grov
1000
COLOR_3
1000
3
1000
LINETYPE_3
1000
HIDDEN
1000
LAYER_3
1000
03
1000
LAYERDESC_2
1000
Heldragen fin
1000
COLOR_2
1000
1
1000
LINETYPE_2
1000
CONTINUOUS
1000
LAYER_2
1000
02
1000
LAYERDESC_1
1000
Heldragen grov
1000
COLOR_1
1000
3
1000
LINETYPE_1
1000
CONTINUOUS
1000
LAYER_1
1000
01
1000
GROUPDESC_0
1000

1000
GROUP_0
1000

1000
ACTIVE_GROUP
1000

1000
LAYERMODE
1000
1
  0
INSERT
  8
01
 66
     1
  2
A3EL
 10
0.0
 20
0.0
 30
0.0
  0
ATTRIB
  8
110
 62
     3
 10
312.25
 20
5.75
 30
0.0
 40
5.0
  1
5332 170-1
  2
DOCNO
 70
     0
 41
0.7
  7
ROMANS
 72
     4
 11
329.0
 21
8.25
 31
0.0
  0
ATTRIB
  8
110
 10
216.5
 20
17.25
 30
0.0
 40
2.5
  1
CIRCUIT DIAGRAM
  2
DOCTYPE
 70
     0
 41
0.8
  7
ROMANS
  0
ATTRIB
  8
110
 10
370.189472
 20
24.218725
 30
0.0
 40
2.5
  1
6648
  2
FILENAME
 70
     0
 41
0.8
  7
ROMANS
 72
     2
 11
377.522806
 21
24.218725
 31
0.0
  0
ATTRIB
  8
110
 10
216.5
 20
13.0
 30
0.0
 40
2.5
  1
Reversing starter
  2
TITLE1
 70
     0
 41
0.8
  7
ROMANS
  0
ATTRIB
  8
110
 10
216.5
 20
8.75
 30
0.0
 40
2.5
  1
Fram-backkopplare
  2
TITLE2
 70
     0
 41
0.8
  7
ROMANS
  0
ATTRIB
  8
110
 10
268.635145
 20
1.521977
 30
0.0
 40
2.0
  1
SECRL/BM1
  2
RESPDEPT
 70
     0
 41
0.8
  7
ROMANS
  0
ATTRIB
  8
110
 10
283.511994
 20
1.521977
 30
0.0
 40
2.0
  1
98
  2
ISSYEAR
 70
     0
 41
0.8
  7
ROMANS
 72
     1
 11
285.035804
 21
1.521977
 31
0.0
  0
ATTRIB
  8
110
 10
289.511994
 20
1.521977
 30
0.0
 40
2.0
  1
25
  2
ISSWEEK
 70
     0
 41
0.8
  7
ROMANS
 72
     1
 11
291.035804
 21
1.521977
 31
0.0
  0
ATTRIB
  8
110
 10
297.5
 20
1.5
 30
0.0
 40
2.0
  1
ISSUED
  2
STATUS
 70
     0
 41
0.8
  7
ROMANS
  0
ATTRIB
  8
110
 10
180.5
 20
15.272399
 30
0.0
 40
2.5
  1
B Adlerteg
  2
APPROVED
 70
     0
 41
0.8
  7
ROMANS
  0
ATTRIB
  8
110
 10
180.5
 20
8.272399
 30
0.0
 40
2.5
  1
B Adlerteg
  2
PREPARED
 70
     0
 41
0.8
  7
ROMANS
  0
ATTRIB
  8
110
 10
180.5
 20
1.225889
 30
0.0
 40
2.5
  1
M Ytterberg
  2
DRAWNBY
 70
     0
 41
0.8
  7
ROMANS
  0
ATTRIB
  8
110
 10
2.633082
 20
270.33846
 30
0.0
 40
2.5
  1
DAR 9-110
  2
TYPE
 70
     0
 41
0.8
  7
ROMANS
  0
ATTRIB
  8
110
 10
363.937332
 20
8.831832
 30
0.0
 40
2.5
  1
82
  2
LANG
 70
     0
 41
0.8
  7
ROMANS
 72
     4
 11
365.842094
 21
10.081832
 31
0.0
  0
ATTRIB
  8
110
 10
365.120139
 20
1.278552
 30
0.0
 40
2.5
  1
1
  2
REVISION
 70
     0
 41
0.8
  7
ROMANS
 72
     4
 11
365.929663
 21
2.528552
 31
0.0
  0
ATTRIB
  8
110
 10
376.690476
 20
8.772399
 30
0.0
 40
2.5
  1
1
  2
SHEET
 70
     0
 41
0.8
  7
ROMANS
 72
     1
 11
377.5
 21
8.772399
 31
0.0
  0
ATTRIB
  8
110
 10
376.261905
 20
1.247159
 30
0.0
 40
2.5
  1
-
  2
CONT
 70
     0
 41
0.8
  7
ROMANS
 72
     1
 11
377.5
 21
1.247159
 31
0.0
  0
SEQEND
  8
01
  0
INSERT
  8
01
  2
WA3SCH
 10
0.0
 20
0.0
 30
0.0
  0
LINE
  8
106
 10
247.5
 20
130.0
 30
0.0
 11
375.0
 21
130.0
 31
0.0
  0
LINE
  8
106
 10
375.0
 20
266.340638
 30
0.0
 11
247.5
 21
266.340638
 31
0.0
  0
LINE
  8
106
 10
247.5
 20
266.340638
 30
0.0
 11
247.5
 21
130.0
 31
0.0
  0
LINE
  8
103
 10
344.540196
 20
221.340638
 30
0.0
 11
281.395643
 21
221.340638
 31
0.0
  0
LINE
  8
103
 10
339.593384
 20
226.340638
 30
0.0
 11
276.645643
 21
226.340638
 31
0.0
  0
LINE
  8
103
 10
334.589075
 20
231.340638
 30
0.0
 11
271.395643
 21
231.340638
 31
0.0
  0
LINE
  8
104
 10
296.630402
 20
167.821843
 30
0.0
 11
307.630402
 21
167.821843
 31
0.0
  0
LINE
  8
104
 10
324.130402
 20
159.821843
 30
0.0
 11
301.630402
 21
159.821843
 31
0.0
  0
INSERT
  8
01
 66
     1
  2
XNO
 10
292.343384
 20
191.340638
 30
0.0
  0
ATTRIB
  8
110
 10
294.911605
 20
197.77506
 30
0.0
 40
2.2
  1

  2
POST
 70
     4
  7
ROMANS
  0
ATTRIB
  8
110
 10
284.015232
 20
197.77506
 30
0.0
 40
2.2
  1

  2
POST
 70
     4
  7
ROMANS
  0
ATTRIB
  8
110
 10
291.343384
 20
191.340638
 30
0.0
 40
2.2
  1
14
  2
UTTAG
 70
     4
 50
90.0
  7
ROMANS
  0
ATTRIB
  8
110
 10
291.343384
 20
202.522482
 30
0.0
 40
2.2
  1
13
  2
UTTAG
 70
     4
 50
90.0
  7
ROMANS
  0
SEQEND
  8
01
  0
LINE
  8
111
 10
258.145643
 20
200.340638
 30
0.0
 11
258.145643
 21
197.340638
 31
0.0
  0
LINE
  8
111
 10
264.145643
 20
197.340638
 30
0.0
 11
264.145643
 21
200.340638
 31
0.0
  0
LINE
  8
11
 10
268.895643
 20
201.340638
 30
0.0
 11
271.060233
 21
197.011458
 31
0.0
  0
LINE
  8
11
 10
273.895643
 20
201.340638
 30
0.0
 11
276.060233
 21
197.011458
 31
0.0
  0
LINE
  8
11
 10
278.895643
 20
201.340638
 30
0.0
 11
281.060233
 21
197.011458
 31
0.0
  0
ATTDEF
  8
110
 10
251.258636
 20
197.77506
 30
0.0
 40
2.2
  1
K1
  3
Post vnster
  2
KM2
 70
     0
  7
ROMANS
  0
LINE
  8
105
  6
CONTINUOUS
 10
276.395643
 20
183.840638
 30
0.0
 11
276.395643
 21
177.452958
 31
0.0
  0
LINE
  8
104
 10
280.145643
 20
198.840638
 30
0.0
 11
300.10758
 21
198.870601
 31
0.0
  0
LINE
  8
103
 10
276.395643
 20
191.340638
 30
0.0
 11
276.395643
 21
177.452958
 31
0.0
  0
LINE
  8
103
 10
281.395643
 20
191.340638
 30
0.0
 11
281.395643
 21
182.302566
 31
0.0
  0
CIRCLE
  8
11
 10
271.395643
 20
196.340638
 30
0.0
 40
0.75
  0
LINE
  8
4
 10
264.145643
 20
198.840638
 30
0.0
 11
280.145643
 21
198.840638
 31
0.0
  0
LINE
  8
103
 10
271.395643
 20
191.340638
 30
0.0
 11
271.395643
 21
172.280043
 31
0.0
  0
TEXT
  8
8
 10
270.663082
 20
185.877062
 30
0.0
 40
2.15
  1
2/T1
 50
90.0
  0
LINE
  8
111
 10
258.145643
 20
197.340638
 30
0.0
 11
264.145643
 21
197.340638
 31
0.0
  0
LINE
  8
111
 10
261.145643
 20
191.340638
 30
0.0
 11
261.145643
 21
197.340638
 31
0.0
  0
ATTDEF
  8
110
 10
256.645643
 20
190.340638
 30
0.0
 40
2.2
  1
A2
  3
Uttag 2
  2
A2
 70
     0
  7
ROMANS
  0
POINT
  8
NOD
 10
258.145643
 20
198.840638
 30
0.0
  0
LINE
  8
3
 10
271.395643
 20
191.340638
 30
0.0
 11
271.395643
 21
195.590638
 31
0.0
  0
POINT
  8
NOD
 10
264.145643
 20
198.840638
 30
0.0
  0
TEXT
  8
8
 10
275.663082
 20
185.877062
 30
0.0
 40
2.15
  1
4/T2
 50
90.0
  0
TEXT
  8
8
 10
280.663082
 20
185.877062
 30
0.0
 40
2.15
  1
6/T3
 50
90.0
  0
LINE
  8
3
 10
276.395643
 20
191.340638
 30
0.0
 11
276.395643
 21
195.590638
 31
0.0
  0
CIRCLE
  8
11
 10
276.395643
 20
196.340638
 30
0.0
 40
0.75
  0
LINE
  8
3
 10
281.395643
 20
191.340638
 30
0.0
 11
281.395643
 21
195.590638
 31
0.0
  0
CIRCLE
  8
11
 10
281.395643
 20
196.340638
 30
0.0
 40
0.75
  0
LINE
  8
104
 10
306.630402
 20
166.821843
 30
0.0
 11
306.630402
 21
162.321843
 31
0.0
  0
LINE
  8
102
 10
306.630402
 20
160.821843
 30
0.0
 11
306.630402
 21
164.821843
 31
0.0
  0
LINE
  8
102
 10
302.990446
 20
161.321843
 30
0.0
 11
305.490446
 21
159.821843
 31
0.0
  0
LINE
  8
102
 10
302.990446
 20
161.321843
 30
0.0
 11
302.990446
 21
159.821843
 31
0.0
  0
INSERT
  8
110
  2
S139
 10
292.003036
 20
166.472545
 30
0.0
 41
0.9
 42
0.9
 43
0.9
  0
LINE
  8
102
 10
296.630402
 20
169.821843
 30
0.0
 11
299.130402
 21
169.821843
 31
0.0
  0
LINE
  8
102
 10
296.630402
 20
164.821843
 30
0.0
 11
299.130402
 21
164.821843
 31
0.0
  0
LINE
  8
104
 10
296.630402
 20
166.821843
 30
0.0
 11
306.630402
 21
166.821843
 31
0.0
  0
LINE
  8
102
 10
296.630402
 20
164.821843
 30
0.0
 11
296.630402
 21
169.821843
 31
0.0
  0
LINE
  8
103
 10
276.395643
 20
206.340638
 30
0.0
 11
276.395643
 21
226.340638
 31
0.0
  0
LINE
  8
103
 10
271.395643
 20
206.340638
 30
0.0
 11
271.395643
 21
231.340638
 31
0.0
  0
LINE
  8
111
 10
264.145643
 20
200.340638
 30
0.0
 11
258.145643
 21
200.340638
 31
0.0
  0
LINE
  8
111
 10
261.145643
 20
200.340638
 30
0.0
 11
261.145643
 21
206.340638
 31
0.0
  0
ATTDEF
  8
110
 10
256.967996
 20
205.741163
 30
0.0
 40
2.2
  1
A1
  3
Uttag 1
  2
A1
 70
     0
  7
ROMANS
  0
LINE
  8
3
 10
271.395643
 20
201.340638
 30
0.0
 11
271.395643
 21
206.340638
 31
0.0
  0
ARC
  8
11
 10
271.395643
 20
202.840638
 30
0.0
 40
1.5
 50
90.0
 51
270.0
  0
TEXT
  8
8
 10
270.663082
 20
206.825958
 30
0.0
 40
2.15
  1
1/L1
 50
90.0
  0
LINE
  8
103
 10
281.395643
 20
206.340638
 30
0.0
 11
281.395643
 21
221.340638
 31
0.0
  0
LINE
  8
3
 10
276.395643
 20
201.340638
 30
0.0
 11
276.395643
 21
206.340638
 31
0.0
  0
ARC
  8
11
 10
276.395643
 20
202.840638
 30
0.0
 40
1.5
 50
90.0
 51
270.0
  0
LINE
  8
3
 10
281.395643
 20
201.340638
 30
0.0
 11
281.395643
 21
206.340638
 31
0.0
  0
ARC
  8
11
 10
281.395643
 20
202.840638
 30
0.0
 40
1.5
 50
90.0
 51
270.0
  0
TEXT
  8
8
 10
280.663082
 20
206.825958
 30
0.0
 40
2.15
  1
5/L3
 50
90.0
  0
TEXT
  8
8
 10
275.663082
 20
206.825958
 30
0.0
 40
2.15
  1
3/L2
 50
90.0
  0
LINE
  8
103
 10
276.645643
 20
226.340638
 30
0.0
 11
276.395643
 21
226.340638
 31
0.0
  0
INSERT
  8
01
 66
     1
  2
XNC
 10
361.645643
 20
191.340638
 30
0.0
  0
ATTRIB
  8
110
 10
364.213864
 20
197.77506
 30
0.0
 40
2.2
  1

  2
POST
 70
     4
  7
ROMANS
  0
ATTRIB
  8
110
 10
353.317491
 20
197.77506
 30
0.0
 40
2.2
  1

  2
POST
 70
     4
  7
ROMANS
  0
ATTRIB
  8
110
 10
360.645643
 20
191.340638
 30
0.0
 40
2.2
  1
22
  2
UTTAG
 70
     4
 50
90.0
  7
ROMANS
  0
ATTRIB
  8
110
 10
360.645643
 20
202.522482
 30
0.0
 40
2.2
  1
21
  2
UTTAG
 70
     4
 50
90.0
  7
ROMANS
  0
SEQEND
  8
01
  0
LINE
  8
111
 10
327.343384
 20
197.269775
 30
0.0
 11
327.343384
 21
200.269775
 31
0.0
  0
LINE
  8
111
 10
321.343384
 20
200.269775
 30
0.0
 11
321.343384
 21
197.269775
 31
0.0
  0
LINE
  8
106
 10
375.0
 20
130.0
 30
0.0
 11
375.0
 21
266.340638
 31
0.0
  0
LINE
  8
11
 10
332.093384
 20
201.269775
 30
0.0
 11
334.257974
 21
196.940596
 31
0.0
  0
LINE
  8
11
 10
337.093384
 20
201.269775
 30
0.0
 11
339.257974
 21
196.940596
 31
0.0
  0
LINE
  8
11
 10
342.093384
 20
201.269775
 30
0.0
 11
344.257974
 21
196.940596
 31
0.0
  0
LINE
  8
5
 10
339.742327
 20
118.423067
 30
0.0
 11
339.742327
 21
130.0
 31
0.0
  0
LINE
  8
5
 10
344.742327
 20
118.423067
 30
0.0
 11
344.742327
 21
130.0
 31
0.0
  0
TEXT
  8
8
 10
338.163082
 20
186.729267
 30
0.0
 40
2.15
  1
4/T2
 50
90.0
  0
LINE
  8
11
 10
337.593384
 20
159.417571
 30
0.0
 11
339.593384
 21
159.417571
 31
0.0
  0
LINE
  8
11
 10
339.593384
 20
161.417571
 30
0.0
 11
337.593384
 21
161.417571
 31
0.0
  0
TEXT
  8
8
 10
338.163082
 20
148.990648
 30
0.0
 40
2.15
  1
4/T2
 50
90.0
  0
LINE
  8
11
 10
346.093384
 20
157.917571
 30
0.0
 11
331.093384
 21
157.917571
 31
0.0
  0
LINE
  8
11
 10
331.093384
 20
162.917571
 30
0.0
 11
346.093384
 21
162.917571
 31
0.0
  0
LINE
  8
4
 10
327.343384
 20
198.769775
 30
0.0
 11
343.343384
 21
198.769775
 31
0.0
  0
LINE
  8
11
 10
334.593384
 20
162.917571
 30
0.0
 11
334.593384
 21
161.417571
 31
0.0
  0
LINE
  8
104
 10
307.630402
 20
167.821843
 30
0.0
 11
307.630402
 21
160.821843
 31
0.0
  0
LINE
  8
102
 10
316.630402
 20
162.321843
 30
0.0
 11
316.630402
 21
167.321843
 31
0.0
  0
LINE
  8
102
 10
316.630402
 20
157.321843
 30
0.0
 11
319.115683
 21
163.321843
 31
0.0
  0
LINE
  8
11
 10
331.093384
 20
157.917571
 30
0.0
 11
331.093384
 21
162.917571
 31
0.0
  0
LINE
  8
102
 10
327.093384
 20
157.321843
 30
0.0
 11
323.046333
 21
163.321843
 31
0.0
  0
LINE
  8
102
 10
327.093384
 20
167.321843
 30
0.0
 11
327.093384
 21
162.321843
 31
0.0
  0
ATTDEF
  8
102
 10
315.630402
 20
152.321843
 30
0.0
 40
2.2
  1
96
  3
Anslutning
  2
96
 70
     0
 50
90.0
  7
ROMANS
  0
LINE
  8
104
 10
318.080149
 20
160.821843
 30
0.0
 11
307.630402
 21
160.821843
 31
0.0
  0
LINE
  8
102
 10
316.630402
 20
157.321843
 30
0.0
 11
316.630402
 21
152.321843
 31
0.0
  0
LINE
  8
102
 10
316.630402
 20
162.321843
 30
0.0
 11
319.130402
 21
162.321843
 31
0.0
  0
TEXT
  8
8
 10
333.163082
 20
148.990648
 30
0.0
 40
2.15
  1
2/T1
 50
90.0
  0
LINE
  8
104
 10
324.130402
 20
159.821843
 30
0.0
 11
331.093384
 21
159.821843
 31
0.0
  0
LINE
  8
102
 10
327.093384
 20
152.321843
 30
0.0
 11
327.093384
 21
157.321843
 31
0.0
  0
ATTDEF
  8
110
 10
326.093384
 20
152.321843
 30
0.0
 40
2.2
  1
14
  3
Uttag 2
  2
98
 70
     4
 50
90.0
  7
ROMANS
  0
LINE
  8
3
 10
334.593384
 20
157.917571
 30
0.0
 11
334.593384
 21
152.917571
 31
0.0
  0
LINE
  8
11
 10
334.593384
 20
159.417571
 30
0.0
 11
334.593384
 21
157.917571
 31
0.0
  0
LINE
  8
11
 10
332.593384
 20
161.417571
 30
0.0
 11
332.593384
 21
159.417571
 31
0.0
  0
LINE
  8
11
 10
332.593384
 20
159.417571
 30
0.0
 11
334.593384
 21
159.417571
 31
0.0
  0
LINE
  8
11
 10
334.593384
 20
161.417571
 30
0.0
 11
332.593384
 21
161.417571
 31
0.0
  0
LINE
  8
11
 10
337.593384
 20
161.417571
 30
0.0
 11
337.593384
 21
159.417571
 31
0.0
  0
ATTDEF
  8
110
 10
319.843384
 20
190.269775
 30
0.0
 40
2.2
  1
A2
  3
Uttag 2
  2
A2
 70
     0
  7
ROMANS
  0
LINE
  8
111
 10
321.343384
 20
197.269775
 30
0.0
 11
327.343384
 21
197.269775
 31
0.0
  0
ATTDEF
  8
102
 10
315.630402
 20
162.321843
 30
0.0
 40
2.2
  1
95
  3
Anslutning
  2
95
 70
     0
 50
90.0
  7
ROMANS
  0
ATTDEF
  8
110
 10
314.456376
 20
197.704198
 30
0.0
 40
2.2
  1
K1
  3
Post vnster
  2
KM1
 70
     0
  7
ROMANS
  0
POINT
  8
NOD
 10
321.343384
 20
198.769775
 30
0.0
  0
LINE
  8
103
 10
334.593384
 20
191.269775
 30
0.0
 11
334.593384
 21
167.917571
 31
0.0
  0
TEXT
  8
8
 10
333.163082
 20
186.729267
 30
0.0
 40
2.15
  1
2/T1
 50
90.0
  0
ATTDEF
  8
110
 10
326.093384
 20
163.503688
 30
0.0
 40
2.2
  1
13
  3
Uttag 1
  2
97
 70
     4
 50
90.0
  7
ROMANS
  0
LINE
  8
3
 10
334.593384
 20
167.917571
 30
0.0
 11
334.593384
 21
162.917571
 31
0.0
  0
LINE
  8
111
 10
324.343384
 20
191.269775
 30
0.0
 11
324.343384
 21
197.269775
 31
0.0
  0
POINT
  8
NOD
 10
327.343384
 20
198.769775
 30
0.0
  0
LINE
  8
3
 10
334.593384
 20
191.269775
 30
0.0
 11
334.593384
 21
195.519775
 31
0.0
  0
CIRCLE
  8
11
 10
334.593384
 20
196.269775
 30
0.0
 40
0.75
  0
LINE
  8
11
 10
339.593384
 20
162.917571
 30
0.0
 11
339.593384
 21
161.417571
 31
0.0
  0
LINE
  8
11
 10
344.593384
 20
162.917571
 30
0.0
 11
344.593384
 21
161.417571
 31
0.0
  0
LINE
  8
11
 10
346.093384
 20
157.917571
 30
0.0
 11
346.093384
 21
162.917571
 31
0.0
  0
TEXT
  8
8
 10
343.163082
 20
148.990648
 30
0.0
 40
2.15
  1
6/T3
 50
90.0
  0
LINE
  8
3
 10
344.593384
 20
157.917571
 30
0.0
 11
344.593384
 21
152.917571
 31
0.0
  0
LINE
  8
3
 10
339.593384
 20
157.917571
 30
0.0
 11
339.593384
 21
152.917571
 31
0.0
  0
LINE
  8
11
 10
342.593384
 20
159.417571
 30
0.0
 11
344.593384
 21
159.417571
 31
0.0
  0
LINE
  8
11
 10
344.593384
 20
161.417571
 30
0.0
 11
342.593384
 21
161.417571
 31
0.0
  0
LINE
  8
11
 10
342.593384
 20
161.417571
 30
0.0
 11
342.593384
 21
159.417571
 31
0.0
  0
LINE
  8
11
 10
339.593384
 20
159.417571
 30
0.0
 11
339.593384
 21
157.917571
 31
0.0
  0
LINE
  8
11
 10
344.593384
 20
159.417571
 30
0.0
 11
344.593384
 21
157.917571
 31
0.0
  0
ATTDEF
  8
9
 10
347.920328
 20
159.498214
 30
0.0
 40
2.2
  1

  3
Post
  2
FR1
 70
     0
 72
     2
 11
352.529852
 21
159.498214
 31
0.0
  0
LINE
  8
104
 10
360.612856
 20
198.835388
 30
0.0
 11
362.703132
 21
198.893642
 31
0.0
  0
LINE
  8
103
 10
339.593384
 20
191.269775
 30
0.0
 11
339.593384
 21
167.917571
 31
0.0
  0
LINE
  8
103
 10
344.593384
 20
191.269775
 30
0.0
 11
344.593384
 21
167.917571
 31
0.0
  0
TEXT
  8
8
 10
343.163082
 20
186.729267
 30
0.0
 40
2.15
  1
6/T3
 50
90.0
  0
LINE
  8
3
 10
339.593384
 20
167.917571
 30
0.0
 11
339.593384
 21
162.917571
 31
0.0
  0
LINE
  8
3
 10
344.593384
 20
167.917571
 30
0.0
 11
344.593384
 21
162.917571
 31
0.0
  0
LINE
  8
104
 10
343.343384
 20
198.769775
 30
0.0
 11
360.612856
 21
198.835388
 31
0.0
  0
LINE
  8
3
 10
344.593384
 20
191.269775
 30
0.0
 11
344.593384
 21
195.519775
 31
0.0
  0
LINE
  8
3
 10
339.593384
 20
191.269775
 30
0.0
 11
339.593384
 21
195.519775
 31
0.0
  0
CIRCLE
  8
11
 10
339.593384
 20
196.269775
 30
0.0
 40
0.75
  0
CIRCLE
  8
11
 10
344.593384
 20
196.269775
 30
0.0
 40
0.75
  0
ATTDEF
  8
9
 10
339.089676
 20
269.864637
 30
0.0
 40
2.2
  1

  3
Post
  2
V
 70
     0
 50
90.0
 72
     2
 11
339.089676
 21
271.540828
 31
0.0
  0
TEXT
  8
8
 10
338.163082
 20
205.797893
 30
0.0
 40
2.15
  1
3/L2
 50
90.0
  0
ARC
  8
11
 10
339.593384
 20
202.769775
 30
0.0
 40
1.5
 50
90.0
 51
270.0
  0
ATTDEF
  8
110
 10
320.165737
 20
205.670301
 30
0.0
 40
2.2
  1
A1
  3
Uttag 1
  2
A1
 70
     0
  7
ROMANS
  0
LINE
  8
111
 10
327.343384
 20
200.269775
 30
0.0
 11
321.343384
 21
200.269775
 31
0.0
  0
LINE
  8
103
 10
334.593384
 20
206.269775
 30
0.0
 11
334.593384
 21
221.340638
 31
0.0
  0
TEXT
  8
8
 10
333.163082
 20
205.797893
 30
0.0
 40
2.15
  1
1/L1
 50
90.0
  0
LINE
  8
111
 10
324.343384
 20
200.269775
 30
0.0
 11
324.343384
 21
206.269775
 31
0.0
  0
LINE
  8
103
 10
334.593384
 20
206.269775
 30
0.0
 11
334.593384
 21
202.192843
 31
0.0
  0
LINE
  8
3
 10
334.593384
 20
201.269775
 30
0.0
 11
334.593384
 21
206.269775
 31
0.0
  0
ARC
  8
11
 10
334.593384
 20
202.769775
 30
0.0
 40
1.5
 50
90.0
 51
270.0
  0
INSERT
  8
105
  2
S71
 10
344.540196
 20
221.340638
 30
0.0
  0
ATTDEF
  8
9
 10
334.089676
 20
269.171116
 30
0.0
 40
2.2
  1

  3
Post
  2
U
 70
     0
 50
90.0
 72
     2
 11
334.089676
 21
270.637783
 31
0.0
  0
LINE
  8
103
 10
339.593384
 20
206.269775
 30
0.0
 11
339.593384
 21
226.340638
 31
0.0
  0
LINE
  8
103
 10
344.593384
 20
206.269775
 30
0.0
 11
344.593384
 21
231.340638
 31
0.0
  0
TEXT
  8
8
 10
343.163082
 20
205.797893
 30
0.0
 40
2.15
  1
5/L3
 50
90.0
  0
LINE
  8
3
 10
344.593384
 20
201.269775
 30
0.0
 11
344.593384
 21
206.269775
 31
0.0
  0
LINE
  8
3
 10
339.593384
 20
201.269775
 30
0.0
 11
339.593384
 21
206.269775
 31
0.0
  0
ARC
  8
11
 10
344.593384
 20
202.769775
 30
0.0
 40
1.5
 50
90.0
 51
270.0
  0
LINE
  8
105
 10
349.593384
 20
231.340638
 30
0.0
 11
349.593384
 21
271.340638
 31
0.0
  0
LINE
  8
105
 10
339.593384
 20
226.340638
 30
0.0
 11
339.593384
 21
271.340638
 31
0.0
  0
LINE
  8
105
 10
344.593384
 20
231.340638
 30
0.0
 11
344.593384
 21
271.340638
 31
0.0
  0
INSERT
  8
105
  2
S71
 10
339.593384
 20
226.340638
 30
0.0
  0
INSERT
  8
105
  2
S71
 10
334.589075
 20
231.340638
 30
0.0
  0
ATTDEF
  8
9
 10
342.71299
 20
269.355433
 30
0.0
 40
2.2
  1

  3
Post
  2
W
 70
     0
 50
90.0
 72
     2
 11
342.71299
 21
271.450671
 31
0.0
  0
ATTDEF
  8
9
 10
349.089676
 20
268.684657
 30
0.0
 40
2.2
  1

  3
Post
  2
PE
 70
     0
 50
90.0
 72
     2
 11
349.089676
 21
272.246562
 31
0.0
  0
LINE
  8
5
 10
334.742327
 20
118.423067
 30
0.0
 11
334.742327
 21
130.0
 31
0.0
  0
LINE
  8
105
  6
CONTINUOUS
 10
271.395643
 20
193.840638
 30
0.0
 11
271.395643
 21
172.280043
 31
0.0
  0
LINE
  8
103
 10
334.742327
 20
182.49703
 30
0.0
 11
281.395643
 21
182.302566
 31
0.0
  0
LINE
  8
103
 10
339.603945
 20
177.497578
 30
0.0
 11
276.395643
 21
177.452958
 31
0.0
  0
LINE
  8
103
 10
344.651592
 20
172.497835
 30
0.0
 11
271.395643
 21
172.280043
 31
0.0
  0
INSERT
  8
11
  2
SCHE70
 10
340.09287
 20
108.183493
 30
0.0
  0
INSERT
  8
01
 66
     1
  2
XNO
 10
354.843384
 20
191.269775
 30
0.0
  0
ATTRIB
  8
110
 10
357.411605
 20
197.704198
 30
0.0
 40
2.2
  1

  2
POST
 70
     4
  7
ROMANS
  0
ATTRIB
  8
110
 10
346.515232
 20
197.704198
 30
0.0
 40
2.2
  1

  2
POST
 70
     4
  7
ROMANS
  0
ATTRIB
  8
110
 10
353.843384
 20
191.269775
 30
0.0
 40
2.2
  1
14
  2
UTTAG
 70
     4
 50
90.0
  7
ROMANS
  0
ATTRIB
  8
110
 10
353.843384
 20
202.451619
 30
0.0
 40
2.2
  1
13
  2
UTTAG
 70
     4
 50
90.0
  7
ROMANS
  0
SEQEND
  8
01
  0
LINE
  8
105
 10
334.593384
 20
152.917571
 30
0.0
 11
334.742327
 21
130.0
 31
0.0
  0
LINE
  8
105
 10
339.742327
 20
130.0
 30
0.0
 11
339.593384
 21
152.917571
 31
0.0
  0
LINE
  8
105
 10
344.742327
 20
130.0
 30
0.0
 11
344.593384
 21
152.917571
 31
0.0
  0
INSERT
  8
105
  2
S71
 10
334.631543
 20
182.496702
 30
0.0
  0
INSERT
  8
105
  2
S71
 10
339.603945
 20
177.497578
 30
0.0
  0
INSERT
  8
105
  2
S71
 10
344.651592
 20
172.497835
 30
0.0
  0
LINE
  8
102
  6
DASHED2
 10
162.5
 20
214.25
 30
0.0
 11
235.0
 21
214.25
 31
0.0
  0
ATTDEF
  8
110
 10
216.75
 20
143.681844
 30
0.0
 40
2.2
  1
13
  3
Uttag 1
  2
13
 70
     4
 50
90.0
  7
ROMANS
  0
ATTDEF
  8
110
 10
216.75
 20
132.5
 30
0.0
 40
2.2
  1
14
  3
Uttag 2
  2
14
 70
     4
 50
90.0
  7
ROMANS
  0
LINE
  8
102
 10
217.75
 20
137.5
 30
0.0
 11
213.702949
 21
143.5
 31
0.0
  0
INSERT
  8
102
  6
DASHED
 66
     1
  2
XF31
 10
217.5
 20
194.25
 30
0.0
  0
ATTRIB
  8
102
  6
DASHED
 10
216.5
 20
204.25
 30
0.0
 40
2.2
  1
95
  2
ANSL
 70
     0
 50
90.0
  7
ROMANS
  0
ATTRIB
  8
102
  6
DASHED
 10
216.5
 20
194.25
 30
0.0
 40
2.2
  1
96
  2
ANSL
 70
     0
 50
90.0
  7
ROMANS
  0
ATTRIB
  8
102
  6
DASHED
 10
229.717518
 20
200.613341
 30
0.0
 40
2.2
  1
FR1
  2
POST
 70
     0
  7
ROMANS
  0
SEQEND
  8
102
  6
DASHED
  0
LINE
  8
102
 10
160.0
 20
26.75
 30
0.0
 11
235.0
 21
26.75
 31
0.0
  0
INSERT
  8
105
 66
     1
  2
XNC
 10
177.5
 20
46.75
 30
0.0
  0
ATTRIB
  8
110
 10
180.068221
 20
53.184423
 30
0.0
 40
2.2
  1

  2
POST
 70
     4
  7
ROMANS
  0
ATTRIB
  8
110
 10
169.171848
 20
53.184423
 30
0.0
 40
2.2
  1
KM2
  2
POST
 70
     4
  7
ROMANS
  0
ATTRIB
  8
110
 10
176.5
 20
46.75
 30
0.0
 40
2.2
  1
22
  2
UTTAG
 70
     4
 50
90.0
  7
ROMANS
  0
ATTRIB
  8
110
 10
176.5
 20
57.931844
 30
0.0
 40
2.2
  1
21
  2
UTTAG
 70
     4
 50
90.0
  7
ROMANS
  0
SEQEND
  8
105
  0
LINE
  8
102
 10
135.0
 20
26.75
 30
0.0
 11
160.0
 21
26.75
 31
0.0
  0
TEXT
  8
11
 10
127.5
 20
27.351312
 30
0.0
 40
3.15
  1
Y2
  7
ROMANS
  0
LINE
  8
104
 10
135.0
 20
26.75
 30
0.0
 11
127.058038
 21
26.75
 31
0.0
  0
ATTDEF
  8
110
 10
166.671848
 20
35.684423
 30
0.0
 40
2.2
  1
K1
  3
Post vnster
  2
KM1
 70
     0
  7
ROMANS
  0
LINE
  8
111
 10
180.5
 20
35.25
 30
0.0
 11
180.5
 21
38.25
 31
0.0
  0
LINE
  8
111
 10
174.5
 20
38.25
 30
0.0
 11
174.5
 21
35.25
 31
0.0
  0
LINE
  8
111
 10
174.5
 20
35.25
 30
0.0
 11
180.5
 21
35.25
 31
0.0
  0
ATTDEF
  8
110
 10
176.5
 20
29.25
 30
0.0
 40
2.2
  1
A2
  3
Uttag 2
  2
A2
 70
     0
 50
90.0
  7
ROMANS
  0
POINT
  8
NOD
 10
174.5
 20
36.75
 30
0.0
  0
LINE
  8
111
 10
177.5
 20
29.25
 30
0.0
 11
177.5
 21
35.25
 31
0.0
  0
INSERT
  8
102
  2
S71
 10
177.5
 20
26.75
 30
0.0
  0
LINE
  8
102
 10
177.5
 20
29.25
 30
0.0
 11
177.5
 21
26.75
 31
0.0
  0
POINT
  8
NOD
 10
180.5
 20
36.75
 30
0.0
  0
LINE
  8
111
 10
180.5
 20
38.25
 30
0.0
 11
174.5
 21
38.25
 31
0.0
  0
ATTDEF
  8
110
 10
176.5
 20
40.431844
 30
0.0
 40
2.2
  1
A1
  3
Uttag 1
  2
A1
 70
     0
 50
90.0
  7
ROMANS
  0
LINE
  8
111
 10
177.5
 20
38.25
 30
0.0
 11
177.5
 21
44.25
 31
0.0
  0
LINE
  8
102
 10
177.5
 20
46.75
 30
0.0
 11
177.5
 21
44.25
 31
0.0
  0
LINE
  8
102
 10
177.5
 20
104.25
 30
0.0
 11
177.5
 21
61.75
 31
0.0
  0
ATTDEF
  8
110
 10
206.921848
 20
138.934423
 30
0.0
 40
2.2
  1
K1
  3
Post vnster
  2
KM2
 70
     4
  7
ROMANS
  0
LINE
  8
102
  6
DASHED2
 10
135.0
 20
214.25
 30
0.0
 11
162.5
 21
214.25
 31
0.0
  0
INSERT
  8
01
  6
DASHED
 66
     1
  2
S153
 10
141.742841
 20
209.25
 30
0.0
  0
ATTRIB
  8
108
  6
DASHED
 10
140.742841
 20
206.05
 30
0.0
 40
2.2
  1

  2
TEXTUV
 70
     0
 72
     2
 11
140.742841
 21
206.05
 31
0.0
  0
ATTRIB
  8
108
  6
DASHED
 10
137.180937
 20
210.25
 30
0.0
 40
2.2
  1
95
  2
TEXTV
 70
     0
 72
     2
 11
140.742841
 21
210.25
 31
0.0
  0
ATTRIB
  8
108
  6
DASHED
 10
142.742841
 20
206.05
 30
0.0
 40
2.2
  1

  2
TEXTUH
 70
     0
  0
ATTRIB
  8
108
  6
DASHED
 10
142.742841
 20
210.25
 30
0.0
 40
2.2
  1

  2
TEXTH
 70
     0
  0
SEQEND
  8
01
  6
DASHED
  0
INSERT
  8
01
  6
DASHED
 66
     1
  2
S153
 10
141.742841
 20
214.25
 30
0.0
  0
ATTRIB
  8
108
  6
DASHED
 10
140.742841
 20
211.05
 30
0.0
 40
2.2
  1

  2
TEXTUV
 70
     0
 72
     2
 11
140.742841
 21
211.05
 31
0.0
  0
ATTRIB
  8
108
  6
DASHED
 10
136.133318
 20
215.25
 30
0.0
 40
2.2
  1
FR1
  2
TEXTV
 70
     0
 72
     2
 11
140.742841
 21
215.25
 31
0.0
  0
ATTRIB
  8
108
  6
DASHED
 10
142.742841
 20
211.05
 30
0.0
 40
2.2
  1

  2
TEXTUH
 70
     0
  0
ATTRIB
  8
108
  6
DASHED
 10
142.742841
 20
215.25
 30
0.0
 40
2.2
  1

  2
TEXTH
 70
     0
  0
SEQEND
  8
01
  6
DASHED
  0
ATTDEF
  8
110
 10
216.75
 20
40.431844
 30
0.0
 40
2.2
  1
A1
  3
Uttag 1
  2
A1
 70
     0
 50
90.0
  7
ROMANS
  0
ATTDEF
  8
110
 10
216.75
 20
29.25
 30
0.0
 40
2.2
  1
A2
  3
Uttag 2
  2
A2
 70
     0
 50
90.0
  7
ROMANS
  0
LINE
  8
111
 10
214.75
 20
35.25
 30
0.0
 11
220.75
 21
35.25
 31
0.0
  0
LINE
  8
111
 10
220.75
 20
38.25
 30
0.0
 11
214.75
 21
38.25
 31
0.0
  0
ATTDEF
  8
110
 10
206.921848
 20
35.684423
 30
0.0
 40
2.2
  1
K1
  3
Post vnster
  2
KM2
 70
     0
  7
ROMANS
  0
LINE
  8
111
 10
214.75
 20
38.25
 30
0.0
 11
214.75
 21
35.25
 31
0.0
  0
POINT
  8
NOD
 10
214.75
 20
36.75
 30
0.0
  0
LINE
  8
111
 10
220.75
 20
35.25
 30
0.0
 11
220.75
 21
38.25
 31
0.0
  0
LINE
  8
111
 10
217.75
 20
26.75
 30
0.0
 11
217.75
 21
35.25
 31
0.0
  0
POINT
  8
NOD
 10
220.75
 20
36.75
 30
0.0
  0
LINE
  8
111
 10
217.75
 20
38.25
 30
0.0
 11
217.75
 21
44.25
 31
0.0
  0
LINE
  8
102
 10
217.75
 20
132.5
 30
0.0
 11
217.75
 21
131.75
 31
0.0
  0
LINE
  8
102
 10
177.5
 20
147.5
 30
0.0
 11
177.5
 21
142.5
 31
0.0
  0
LINE
  8
102
 10
217.75
 20
147.5
 30
0.0
 11
217.75
 21
142.5
 31
0.0
  0
ATTDEF
  8
110
 10
176.5
 20
132.5
 30
0.0
 40
2.2
  1
14
  3
Uttag 2
  2
14
 70
     4
 50
90.0
  7
ROMANS
  0
LINE
  8
102
 10
177.5
 20
137.5
 30
0.0
 11
173.452949
 21
143.5
 31
0.0
  0
LINE
  8
102
 10
217.75
 20
132.5
 30
0.0
 11
217.75
 21
137.5
 31
0.0
  0
ATTDEF
  8
110
 10
166.671848
 20
138.934423
 30
0.0
 40
2.2
  1
K1
  3
Post vnster
  2
KM1
 70
     4
  7
ROMANS
  0
LINE
  8
102
 10
177.5
 20
132.5
 30
0.0
 11
177.5
 21
137.5
 31
0.0
  0
ATTDEF
  8
110
 10
176.5
 20
143.681844
 30
0.0
 40
2.2
  1
13
  3
Uttag 1
  2
13
 70
     4
 50
90.0
  7
ROMANS
  0
LINE
  8
102
 10
217.75
 20
147.5
 30
0.0
 11
217.75
 21
155.0
 31
0.0
  0
LINE
  8
102
  6
DASHED
 10
217.5
 20
194.25
 30
0.0
 11
217.5
 21
192.5
 31
0.0
  0
LINE
  8
102
  6
DASHED
 10
217.5
 20
209.25
 30
0.0
 11
217.5
 21
214.25
 31
0.0
  0
INSERT
  8
104
  6
DASHED
  2
S71
 10
217.5
 20
214.25
 30
0.0
  0
LINE
  8
104
  6
DASHED
 10
134.0
 20
214.25
 30
0.0
 11
127.058038
 21
214.25
 31
0.0
  0
TEXT
  8
11
  6
DASHED
 10
127.5
 20
214.851312
 30
0.0
 40
3.15
  1
Y1
  7
ROMANS
  0
INSERT
  8
01
  2
S71
 10
217.75
 20
26.75
 30
0.0
  0
LINE
  8
102
 10
217.75
 20
44.25
 30
0.0
 11
217.75
 21
46.75
 31
0.0
  0
LINE
  8
102
 10
177.5
 20
104.25
 30
0.0
 11
177.5
 21
132.5
 31
0.0
  0
INSERT
  8
105
 66
     1
  2
XNC
 10
217.75
 20
46.75
 30
0.0
  0
ATTRIB
  8
110
 10
220.318221
 20
53.184423
 30
0.0
 40
2.2
  1

  2
POST
 70
     4
  7
ROMANS
  0
ATTRIB
  8
110
 10
209.421848
 20
53.184423
 30
0.0
 40
2.2
  1
KM1
  2
POST
 70
     4
  7
ROMANS
  0
ATTRIB
  8
110
 10
216.75
 20
46.75
 30
0.0
 40
2.2
  1
22
  2
UTTAG
 70
     4
 50
90.0
  7
ROMANS
  0
ATTRIB
  8
110
 10
216.75
 20
57.931844
 30
0.0
 40
2.2
  1
21
  2
UTTAG
 70
     4
 50
90.0
  7
ROMANS
  0
SEQEND
  8
105
  0
LINE
  8
102
 10
217.75
 20
61.75
 30
0.0
 11
217.75
 21
131.75
 31
0.0
  0
INSERT
  8
104
 66
     1
  2
S153
 10
135.0
 20
31.75
 30
0.0
  0
ATTRIB
  8
108
 10
134.0
 20
28.55
 30
0.0
 40
2.2
  1

  2
TEXTUV
 70
     0
 72
     2
 11
134.0
 21
28.55
 31
0.0
  0
ATTRIB
  8
108
 10
134.0
 20
32.75
 30
0.0
 40
2.2
  1

  2
TEXTV
 70
     0
 72
     2
 11
134.0
 21
32.75
 31
0.0
  0
ATTRIB
  8
108
 10
136.0
 20
28.55
 30
0.0
 40
2.2
  1
KM1
  2
TEXTUH
 70
     0
  0
ATTRIB
  8
108
 10
136.0
 20
32.75
 30
0.0
 40
2.2
  1

  2
TEXTH
 70
     0
  0
SEQEND
  8
104
  0
INSERT
  8
104
 66
     1
  2
S153
 10
136.586237
 20
26.75
 30
0.0
  0
ATTRIB
  8
108
 10
135.586237
 20
23.55
 30
0.0
 40
2.2
  1

  2
TEXTUV
 70
     0
 72
     2
 11
135.586237
 21
23.55
 31
0.0
  0
ATTRIB
  8
108
 10
135.586237
 20
27.75
 30
0.0
 40
2.2
  1

  2
TEXTV
 70
     0
 72
     2
 11
135.586237
 21
27.75
 31
0.0
  0
ATTRIB
  8
108
 10
137.586237
 20
23.55
 30
0.0
 40
2.2
  1
A2
  2
TEXTUH
 70
     0
  0
ATTRIB
  8
108
 10
137.586237
 20
27.75
 30
0.0
 40
2.2
  1

  2
TEXTH
 70
     0
  0
SEQEND
  8
104
  0
INSERT
  8
01
 66
     1
  2
XNC
 10
299.302259
 20
191.340638
 30
0.0
  0
ATTRIB
  8
110
 10
301.87048
 20
197.77506
 30
0.0
 40
2.2
  1

  2
POST
 70
     4
  7
ROMANS
  0
ATTRIB
  8
110
 10
290.974107
 20
197.77506
 30
0.0
 40
2.2
  1

  2
POST
 70
     4
  7
ROMANS
  0
ATTRIB
  8
110
 10
298.302259
 20
191.340638
 30
0.0
 40
2.2
  1
22
  2
UTTAG
 70
     4
 50
90.0
  7
ROMANS
  0
ATTRIB
  8
110
 10
298.302259
 20
202.522482
 30
0.0
 40
2.2
  1
21
  2
UTTAG
 70
     4
 50
90.0
  7
ROMANS
  0
SEQEND
  8
01
  0
LINE
  8
104
 10
298.269472
 20
198.835388
 30
0.0
 11
300.359748
 21
198.893642
 31
0.0
  0
TEXT
  8
11
 10
22.5
 20
240.0
 30
0.0
 40
3.15
  1
OPERATING DEVICES
  7
ROMANS
  0
TEXT
  8
11
 10
22.5
 20
234.9
 30
0.0
 40
3.15
  1
MANVERDON
  7
ROMANS
  0
TEXT
  8
11
 10
22.5
 20
227.5
 30
0.0
 40
2.2
  1
START AND STOP-
  7
ROMANS
  0
TEXT
  8
11
 10
22.5
 20
222.4
 30
0.0
 40
2.2
  1
PUSHBUTTONS/
  7
ROMANS
  0
TEXT
  8
11
 10
22.5
 20
217.3
 30
0.0
 40
2.2
  1
START OCH STOPPTRYCK-
  7
ROMANS
  0
TEXT
  8
11
 10
22.5
 20
212.2
 30
0.0
 40
2.2
  1
KNAPPAR
  7
ROMANS
  0
LINE
  8
104
 10
22.5
 20
265.0
 30
0.0
 11
70.0
 21
265.0
 31
0.0
  0
TEXT
  8
11
 10
80.0
 20
265.0
 30
0.0
 40
3.15
  1
External function at unenclosed starter
  7
ROMANS
  0
TEXT
  8
11
 10
80.0
 20
259.9
 30
0.0
 40
3.15
  1
or Local function at enclosed starter/
  7
ROMANS
  0
LINE
  8
103
 10
334.593384
 20
221.340638
 30
0.0
 11
334.589075
 21
231.340638
 31
0.0
  0
LINE
  8
105
 10
334.589075
 20
231.340638
 30
0.0
 11
334.589075
 21
271.419436
 31
0.0
  0
LINE
  8
104
 10
45.0
 20
27.506201
 30
0.0
 11
65.0
 21
27.506201
 31
0.0
  0
LINE
  8
104
 10
45.0
 20
65.006201
 30
0.0
 11
65.0
 21
65.006201
 31
0.0
  0
TEXT
  8
102
 10
25.0
 20
82.506201
 30
0.0
 40
2.2
  1
SIGNALLAMPOR
  7
ROMANS
  0
INSERT
  8
102
 66
     1
  2
XH1
 10
45.0
 20
37.506201
 30
0.0
  0
ATTRIB
  8
102
 10
36.671848
 20
43.940624
 30
0.0
 40
2.2
  1
H1
  2
POST
 70
     0
  7
ROMANS
  0
ATTRIB
  8
102
 10
44.0
 20
48.688045
 30
0.0
 40
2.2
  1
X1
  2
ANSL
 70
     0
 50
90.0
  7
ROMANS
  0
ATTRIB
  8
102
 10
44.0
 20
37.506201
 30
0.0
 40
2.2
  1
X2
  2
ANSL
 70
     0
 50
90.0
  7
ROMANS
  0
SEQEND
  8
102
  0
LINE
  8
102
 10
45.0
 20
27.506201
 30
0.0
 11
45.0
 21
27.506201
 31
0.0
  0
LINE
  8
102
 10
45.0
 20
65.006201
 30
0.0
 11
45.0
 21
65.006201
 31
0.0
  0
INSERT
  8
104
 66
     1
  2
S153
 10
60.0
 20
65.006201
 30
0.0
  0
ATTRIB
  8
108
 10
59.0
 20
61.806201
 30
0.0
 40
2.2
  1

  2
TEXTUV
 70
     0
 72
     2
 11
59.0
 21
61.806201
 31
0.0
  0
ATTRIB
  8
108
 10
59.0
 20
66.006201
 30
0.0
 40
2.2
  1

  2
TEXTV
 70
     0
 72
     2
 11
59.0
 21
66.006201
 31
0.0
  0
ATTRIB
  8
108
 10
61.0
 20
61.806201
 30
0.0
 40
2.2
  1
21
  2
TEXTUH
 70
     0
  0
ATTRIB
  8
108
 10
61.0
 20
66.006201
 30
0.0
 40
2.2
  1

  2
TEXTH
 70
     0
  0
SEQEND
  8
104
  0
INSERT
  8
104
 66
     1
  2
S153
 10
57.5
 20
70.006201
 30
0.0
  0
ATTRIB
  8
108
 10
56.5
 20
66.806201
 30
0.0
 40
2.2
  1

  2
TEXTUV
 70
     0
 72
     2
 11
56.5
 21
66.806201
 31
0.0
  0
ATTRIB
  8
108
 10
56.5
 20
71.006201
 30
0.0
 40
2.2
  1

  2
TEXTV
 70
     0
 72
     2
 11
56.5
 21
71.006201
 31
0.0
  0
ATTRIB
  8
108
 10
58.5
 20
66.806201
 30
0.0
 40
2.2
  1
KM2
  2
TEXTUH
 70
     0
  0
ATTRIB
  8
108
 10
58.5
 20
71.006201
 30
0.0
 40
2.2
  1

  2
TEXTH
 70
     0
  0
SEQEND
  8
104
  0
TEXT
  8
102
 10
25.0
 20
87.506201
 30
0.0
 40
2.2
  1
PILOT LAMPS
  7
ROMANS
  0
INSERT
  8
104
 66
     1
  2
S153
 10
60.0
 20
27.506201
 30
0.0
  0
ATTRIB
  8
108
 10
59.0
 20
24.306201
 30
0.0
 40
2.2
  1

  2
TEXTUV
 70
     0
 72
     2
 11
59.0
 21
24.306201
 31
0.0
  0
ATTRIB
  8
108
 10
59.0
 20
28.506201
 30
0.0
 40
2.2
  1

  2
TEXTV
 70
     0
 72
     2
 11
59.0
 21
28.506201
 31
0.0
  0
ATTRIB
  8
108
 10
61.0
 20
24.306201
 30
0.0
 40
2.2
  1
A2
  2
TEXTUH
 70
     0
  0
ATTRIB
  8
108
 10
61.0
 20
28.506201
 30
0.0
 40
2.2
  1

  2
TEXTH
 70
     0
  0
SEQEND
  8
104
  0
LINE
  8
104
 10
45.0
 20
52.506201
 30
0.0
 11
45.0
 21
65.006201
 31
0.0
  0
LINE
  8
104
 10
45.0
 20
37.506201
 30
0.0
 11
45.0
 21
27.506201
 31
0.0
  0
INSERT
  8
102
 66
     1
  2
XH1
 10
27.5
 20
37.506201
 30
0.0
  0
ATTRIB
  8
102
 10
19.171848
 20
43.940624
 30
0.0
 40
2.2
  1
H2
  2
POST
 70
     0
  7
ROMANS
  0
ATTRIB
  8
102
 10
26.5
 20
48.688045
 30
0.0
 40
2.2
  1
X1
  2
ANSL
 70
     0
 50
90.0
  7
ROMANS
  0
ATTRIB
  8
102
 10
26.5
 20
37.506201
 30
0.0
 40
2.2
  1
X2
  2
ANSL
 70
     0
 50
90.0
  7
ROMANS
  0
SEQEND
  8
102
  0
LINE
  8
104
 10
27.5
 20
52.506201
 30
0.0
 11
27.5
 21
75.0
 31
0.0
  0
LINE
  8
104
 10
27.5
 20
75.0
 30
0.0
 11
65.577742
 21
75.0
 31
0.0
  0
LINE
  8
104
 10
27.5
 20
37.506201
 30
0.0
 11
27.5
 21
27.5
 31
0.0
  0
LINE
  8
104
 10
27.5
 20
27.5
 30
0.0
 11
35.577742
 21
27.5
 31
0.0
  0
LINE
  8
104
 10
35.577742
 20
27.5
 30
0.0
 11
38.077742
 21
27.5
 31
0.0
  0
LINE
  8
104
 10
38.077742
 20
27.5
 30
0.0
 11
40.577742
 21
27.5
 31
0.0
  0
INSERT
  8
104
 66
     1
  2
S153
 10
35.0
 20
27.506201
 30
0.0
  0
ATTRIB
  8
108
 10
34.0
 20
24.306201
 30
0.0
 40
2.2
  1

  2
TEXTUV
 70
     0
 72
     2
 11
34.0
 21
24.306201
 31
0.0
  0
ATTRIB
  8
108
 10
34.0
 20
28.506201
 30
0.0
 40
2.2
  1

  2
TEXTV
 70
     0
 72
     2
 11
34.0
 21
28.506201
 31
0.0
  0
ATTRIB
  8
108
 10
36.0
 20
24.306201
 30
0.0
 40
2.2
  1
A2
  2
TEXTUH
 70
     0
  0
ATTRIB
  8
108
 10
36.0
 20
28.506201
 30
0.0
 40
2.2
  1

  2
TEXTH
 70
     0
  0
SEQEND
  8
104
  0
INSERT
  8
104
 66
     1
  2
S153
 10
58.077742
 20
80.0
 30
0.0
  0
ATTRIB
  8
108
 10
57.077742
 20
76.8
 30
0.0
 40
2.2
  1

  2
TEXTUV
 70
     0
 72
     2
 11
57.077742
 21
76.8
 31
0.0
  0
ATTRIB
  8
108
 10
57.077742
 20
81.0
 30
0.0
 40
2.2
  1

  2
TEXTV
 70
     0
 72
     2
 11
57.077742
 21
81.0
 31
0.0
  0
ATTRIB
  8
108
 10
59.077742
 20
76.8
 30
0.0
 40
2.2
  1
KM1
  2
TEXTUH
 70
     0
  0
ATTRIB
  8
108
 10
59.077742
 20
81.0
 30
0.0
 40
2.2
  1

  2
TEXTH
 70
     0
  0
SEQEND
  8
104
  0
INSERT
  8
104
 66
     1
  2
S153
 10
60.577742
 20
75.0
 30
0.0
  0
ATTRIB
  8
108
 10
59.577742
 20
71.8
 30
0.0
 40
2.2
  1

  2
TEXTUV
 70
     0
 72
     2
 11
59.577742
 21
71.8
 31
0.0
  0
ATTRIB
  8
108
 10
59.577742
 20
76.0
 30
0.0
 40
2.2
  1

  2
TEXTV
 70
     0
 72
     2
 11
59.577742
 21
76.0
 31
0.0
  0
ATTRIB
  8
108
 10
61.577742
 20
71.8
 30
0.0
 40
2.2
  1
21
  2
TEXTUH
 70
     0
  0
ATTRIB
  8
108
 10
61.577742
 20
76.0
 30
0.0
 40
2.2
  1

  2
TEXTH
 70
     0
  0
SEQEND
  8
104
  0
LINE
  8
102
 10
35.0
 20
132.5
 30
0.0
 11
35.0
 21
137.5
 31
0.0
  0
LINE
  8
104
 10
25.0
 20
140.0
 30
0.0
 11
33.313729
 21
140.0
 31
0.0
  0
LINE
  8
102
 10
25.0
 20
137.5
 30
0.0
 11
25.0
 21
142.5
 31
0.0
  0
INSERT
  8
102
  2
S138
 10
22.015229
 20
138.768811
 30
0.0
  0
LINE
  8
102
 10
25.0
 20
137.5
 30
0.0
 11
27.5
 21
137.5
 31
0.0
  0
LINE
  8
102
 10
25.0
 20
142.5
 30
0.0
 11
27.5
 21
142.5
 31
0.0
  0
LINE
  8
102
 10
35.0
 20
147.5
 30
0.0
 11
35.0
 21
142.5
 31
0.0
  0
LINE
  8
102
 10
35.0
 20
137.5
 30
0.0
 11
30.952949
 21
143.5
 31
0.0
  0
LINE
  8
102
 10
35.0
 20
147.5
 30
0.0
 11
35.0
 21
152.5
 31
0.0
  0
ATTDEF
  8
110
 10
34.0
 20
143.681844
 30
0.0
 40
2.2
  1
13
  3
Uttag 1
  2
13
 70
     4
 50
90.0
  7
ROMANS
  0
ATTDEF
  8
110
 10
34.0
 20
132.5
 30
0.0
 40
2.2
  1
14
  3
Uttag 2
  2
14
 70
     4
 50
90.0
  7
ROMANS
  0
LINE
  8
102
 10
177.5
 20
147.5
 30
0.0
 11
177.5
 21
175.0
 31
0.0
  0
LINE
  8
102
 10
177.5
 20
175.0
 30
0.0
 11
217.568176
 21
175.00062
 31
0.0
  0
LINE
  8
104
 10
35.0
 20
107.5
 30
0.0
 11
35.0
 21
102.5
 31
0.0
  0
LINE
  8
104
 10
35.0
 20
102.5
 30
0.0
 11
57.5
 21
102.5
 31
0.0
  0
LINE
  8
104
  6
CONTINUOUS
 10
177.5
 20
102.5
 30
0.0
 11
127.5
 21
102.5
 31
0.0
  0
INSERT
  8
104
  2
S71
 10
177.5
 20
102.5
 30
0.0
  0
INSERT
  8
104
 66
     1
  2
S153
 10
127.5
 20
106.75
 30
0.0
  0
ATTRIB
  8
108
 10
126.5
 20
103.55
 30
0.0
 40
2.2
  1

  2
TEXTUV
 70
     0
 72
     2
 11
126.5
 21
103.55
 31
0.0
  0
ATTRIB
  8
108
 10
126.5
 20
107.75
 30
0.0
 40
2.2
  1

  2
TEXTV
 70
     0
 72
     2
 11
126.5
 21
107.75
 31
0.0
  0
ATTRIB
  8
108
 10
128.5
 20
103.55
 30
0.0
 40
2.2
  1
KM1
  2
TEXTUH
 70
     0
  0
ATTRIB
  8
108
 10
128.5
 20
107.75
 30
0.0
 40
2.2
  1

  2
TEXTH
 70
     0
  0
SEQEND
  8
104
  0
INSERT
  8
104
 66
     1
  2
S153
 10
129.086237
 20
101.75
 30
0.0
  0
ATTRIB
  8
108
 10
128.086237
 20
98.55
 30
0.0
 40
2.2
  1

  2
TEXTUV
 70
     0
 72
     2
 11
128.086237
 21
98.55
 31
0.0
  0
ATTRIB
  8
108
 10
128.086237
 20
102.75
 30
0.0
 40
2.2
  1

  2
TEXTV
 70
     0
 72
     2
 11
128.086237
 21
102.75
 31
0.0
  0
ATTRIB
  8
108
 10
130.086237
 20
98.55
 30
0.0
 40
2.2
  1
14
  2
TEXTUH
 70
     0
  0
ATTRIB
  8
108
 10
130.086237
 20
102.75
 30
0.0
 40
2.2
  1

  2
TEXTH
 70
     0
  0
SEQEND
  8
104
  0
INSERT
  8
104
 66
     1
  2
S153
 10
50.0
 20
106.75
 30
0.0
  0
ATTRIB
  8
108
 10
49.0
 20
103.55
 30
0.0
 40
2.2
  1

  2
TEXTUV
 70
     0
 72
     2
 11
49.0
 21
103.55
 31
0.0
  0
ATTRIB
  8
108
 10
49.0
 20
107.75
 30
0.0
 40
2.2
  1

  2
TEXTV
 70
     0
 72
     2
 11
49.0
 21
107.75
 31
0.0
  0
ATTRIB
  8
108
 10
51.0
 20
103.55
 30
0.0
 40
2.2
  1
KM1
  2
TEXTUH
 70
     0
  0
ATTRIB
  8
108
 10
51.0
 20
107.75
 30
0.0
 40
2.2
  1

  2
TEXTH
 70
     0
  0
SEQEND
  8
104
  0
INSERT
  8
104
 66
     1
  2
S153
 10
51.586237
 20
101.75
 30
0.0
  0
ATTRIB
  8
108
 10
50.586237
 20
98.55
 30
0.0
 40
2.2
  1

  2
TEXTUV
 70
     0
 72
     2
 11
50.586237
 21
98.55
 31
0.0
  0
ATTRIB
  8
108
 10
50.586237
 20
102.75
 30
0.0
 40
2.2
  1

  2
TEXTV
 70
     0
 72
     2
 11
50.586237
 21
102.75
 31
0.0
  0
ATTRIB
  8
108
 10
52.586237
 20
98.55
 30
0.0
 40
2.2
  1
14
  2
TEXTUH
 70
     0
  0
ATTRIB
  8
108
 10
52.586237
 20
102.75
 30
0.0
 40
2.2
  1

  2
TEXTH
 70
     0
  0
SEQEND
  8
104
  0
LINE
  8
104
 10
35.0
 20
107.5
 30
0.0
 11
35.0
 21
132.5
 31
0.0
  0
LINE
  8
104
 10
35.0
 20
152.5
 30
0.0
 11
35.0
 21
175.0
 31
0.0
  0
LINE
  8
104
 10
35.0
 20
175.0
 30
0.0
 11
57.5
 21
175.0
 31
0.0
  0
INSERT
  8
104
 66
     1
  2
S153
 10
51.586237
 20
174.25
 30
0.0
  0
ATTRIB
  8
108
 10
50.586237
 20
171.05
 30
0.0
 40
2.2
  1

  2
TEXTUV
 70
     0
 72
     2
 11
50.586237
 21
171.05
 31
0.0
  0
ATTRIB
  8
108
 10
50.586237
 20
175.25
 30
0.0
 40
2.2
  1

  2
TEXTV
 70
     0
 72
     2
 11
50.586237
 21
175.25
 31
0.0
  0
ATTRIB
  8
108
 10
52.586237
 20
171.05
 30
0.0
 40
2.2
  1
13
  2
TEXTUH
 70
     0
  0
ATTRIB
  8
108
 10
52.586237
 20
175.25
 30
0.0
 40
2.2
  1

  2
TEXTH
 70
     0
  0
SEQEND
  8
104
  0
INSERT
  8
104
 66
     1
  2
S153
 10
50.0
 20
179.25
 30
0.0
  0
ATTRIB
  8
108
 10
49.0
 20
176.05
 30
0.0
 40
2.2
  1

  2
TEXTUV
 70
     0
 72
     2
 11
49.0
 21
176.05
 31
0.0
  0
ATTRIB
  8
108
 10
49.0
 20
180.25
 30
0.0
 40
2.2
  1

  2
TEXTV
 70
     0
 72
     2
 11
49.0
 21
180.25
 31
0.0
  0
ATTRIB
  8
108
 10
51.0
 20
176.05
 30
0.0
 40
2.2
  1
KM1
  2
TEXTUH
 70
     0
  0
ATTRIB
  8
108
 10
51.0
 20
180.25
 30
0.0
 40
2.2
  1

  2
TEXTH
 70
     0
  0
SEQEND
  8
104
  0
LINE
  8
102
 10
92.5
 20
132.5
 30
0.0
 11
92.5
 21
125.0
 31
0.0
  0
ATTDEF
  8
110
 10
90.668096
 20
143.681844
 30
0.0
 40
2.2
  1
13
  3
Uttag 1
  2
13
 70
     4
 50
90.0
  7
ROMANS
  0
ATTDEF
  8
110
 10
90.668096
 20
132.5
 30
0.0
 40
2.2
  1
14
  3
Uttag 2
  2
14
 70
     4
 50
90.0
  7
ROMANS
  0
LINE
  8
104
 10
82.5
 20
140.0
 30
0.0
 11
90.813729
 21
140.0
 31
0.0
  0
LINE
  8
102
 10
92.5
 20
137.5
 30
0.0
 11
88.452949
 21
143.5
 31
0.0
  0
ATTDEF
  8
110
 10
78.630492
 20
138.669204
 30
0.0
 40
2.2
  1
K9
  3
Post vnster
  2
II
 70
     4
  7
ROMANS
  0
LINE
  8
102
 10
82.5
 20
137.5
 30
0.0
 11
82.5
 21
142.5
 31
0.0
  0
LINE
  8
102
 10
82.5
 20
137.5
 30
0.0
 11
85.0
 21
137.5
 31
0.0
  0
LINE
  8
102
 10
82.5
 20
142.5
 30
0.0
 11
85.0
 21
142.5
 31
0.0
  0
LINE
  8
102
 10
92.5
 20
132.5
 30
0.0
 11
92.5
 21
137.5
 31
0.0
  0
LINE
  8
104
 10
92.5
 20
130.43783
 30
0.0
 11
92.5
 21
135.43783
 31
0.0
  0
LINE
  8
102
 10
92.5
 20
135.43783
 30
0.0
 11
92.5
 21
132.93783
 31
0.0
  0
LINE
  8
102
 10
92.5
 20
147.5
 30
0.0
 11
92.5
 21
142.5
 31
0.0
  0
LINE
  8
104
 10
92.5
 20
125.0
 30
0.0
 11
92.5
 21
117.5
 31
0.0
  0
LINE
  8
104
 10
92.5
 20
117.5
 30
0.0
 11
102.5
 21
117.5
 31
0.0
  0
LINE
  8
104
 10
92.5
 20
147.5
 30
0.0
 11
92.5
 21
162.5
 31
0.0
  0
LINE
  8
104
 10
92.5
 20
162.5
 30
0.0
 11
102.5
 21
162.5
 31
0.0
  0
LINE
  8
104
  6
CONTINUOUS
 10
217.75
 20
117.5
 30
0.0
 11
127.5
 21
117.5
 31
0.0
  0
INSERT
  8
104
  2
S71
 10
217.75
 20
117.5
 30
0.0
  0
LINE
  8
104
  6
CONTINUOUS
 10
217.681803
 20
162.501653
 30
0.0
 11
127.5
 21
162.501653
 31
0.0
  0
INSERT
  8
104
 66
     1
  2
S153
 10
127.5
 20
121.75
 30
0.0
  0
ATTRIB
  8
108
 10
126.5
 20
118.55
 30
0.0
 40
2.2
  1

  2
TEXTUV
 70
     0
 72
     2
 11
126.5
 21
118.55
 31
0.0
  0
ATTRIB
  8
108
 10
126.5
 20
122.75
 30
0.0
 40
2.2
  1

  2
TEXTV
 70
     0
 72
     2
 11
126.5
 21
122.75
 31
0.0
  0
ATTRIB
  8
108
 10
128.5
 20
118.55
 30
0.0
 40
2.2
  1
KM2
  2
TEXTUH
 70
     0
  0
ATTRIB
  8
108
 10
128.5
 20
122.75
 30
0.0
 40
2.2
  1

  2
TEXTH
 70
     0
  0
SEQEND
  8
104
  0
INSERT
  8
104
 66
     1
  2
S153
 10
129.086237
 20
116.75
 30
0.0
  0
ATTRIB
  8
108
 10
128.086237
 20
113.55
 30
0.0
 40
2.2
  1

  2
TEXTUV
 70
     0
 72
     2
 11
128.086237
 21
113.55
 31
0.0
  0
ATTRIB
  8
108
 10
128.086237
 20
117.75
 30
0.0
 40
2.2
  1

  2
TEXTV
 70
     0
 72
     2
 11
128.086237
 21
117.75
 31
0.0
  0
ATTRIB
  8
108
 10
130.086237
 20
113.55
 30
0.0
 40
2.2
  1
14
  2
TEXTUH
 70
     0
  0
ATTRIB
  8
108
 10
130.086237
 20
117.75
 30
0.0
 40
2.2
  1

  2
TEXTH
 70
     0
  0
SEQEND
  8
104
  0
INSERT
  8
104
 66
     1
  2
S153
 10
127.5
 20
166.75
 30
0.0
  0
ATTRIB
  8
108
 10
126.5
 20
163.55
 30
0.0
 40
2.2
  1

  2
TEXTUV
 70
     0
 72
     2
 11
126.5
 21
163.55
 31
0.0
  0
ATTRIB
  8
108
 10
126.5
 20
167.75
 30
0.0
 40
2.2
  1

  2
TEXTV
 70
     0
 72
     2
 11
126.5
 21
167.75
 31
0.0
  0
ATTRIB
  8
108
 10
128.5
 20
163.55
 30
0.0
 40
2.2
  1
KM2
  2
TEXTUH
 70
     0
  0
ATTRIB
  8
108
 10
128.5
 20
167.75
 30
0.0
 40
2.2
  1

  2
TEXTH
 70
     0
  0
SEQEND
  8
104
  0
INSERT
  8
104
 66
     1
  2
S153
 10
129.086237
 20
161.75
 30
0.0
  0
ATTRIB
  8
108
 10
128.086237
 20
158.55
 30
0.0
 40
2.2
  1

  2
TEXTUV
 70
     0
 72
     2
 11
128.086237
 21
158.55
 31
0.0
  0
ATTRIB
  8
108
 10
128.086237
 20
162.75
 30
0.0
 40
2.2
  1

  2
TEXTV
 70
     0
 72
     2
 11
128.086237
 21
162.75
 31
0.0
  0
ATTRIB
  8
108
 10
130.086237
 20
158.55
 30
0.0
 40
2.2
  1
13
  2
TEXTUH
 70
     0
  0
ATTRIB
  8
108
 10
130.086237
 20
162.75
 30
0.0
 40
2.2
  1

  2
TEXTH
 70
     0
  0
SEQEND
  8
104
  0
INSERT
  8
104
 66
     1
  2
S153
 10
97.5
 20
121.75
 30
0.0
  0
ATTRIB
  8
108
 10
96.5
 20
118.55
 30
0.0
 40
2.2
  1

  2
TEXTUV
 70
     0
 72
     2
 11
96.5
 21
118.55
 31
0.0
  0
ATTRIB
  8
108
 10
96.5
 20
122.75
 30
0.0
 40
2.2
  1

  2
TEXTV
 70
     0
 72
     2
 11
96.5
 21
122.75
 31
0.0
  0
ATTRIB
  8
108
 10
98.5
 20
118.55
 30
0.0
 40
2.2
  1
KM2
  2
TEXTUH
 70
     0
  0
ATTRIB
  8
108
 10
98.5
 20
122.75
 30
0.0
 40
2.2
  1

  2
TEXTH
 70
     0
  0
SEQEND
  8
104
  0
INSERT
  8
104
 66
     1
  2
S153
 10
99.086237
 20
116.75
 30
0.0
  0
ATTRIB
  8
108
 10
98.086237
 20
113.55
 30
0.0
 40
2.2
  1

  2
TEXTUV
 70
     0
 72
     2
 11
98.086237
 21
113.55
 31
0.0
  0
ATTRIB
  8
108
 10
98.086237
 20
117.75
 30
0.0
 40
2.2
  1

  2
TEXTV
 70
     0
 72
     2
 11
98.086237
 21
117.75
 31
0.0
  0
ATTRIB
  8
108
 10
100.086237
 20
113.55
 30
0.0
 40
2.2
  1
14
  2
TEXTUH
 70
     0
  0
ATTRIB
  8
108
 10
100.086237
 20
117.75
 30
0.0
 40
2.2
  1

  2
TEXTH
 70
     0
  0
SEQEND
  8
104
  0
INSERT
  8
104
 66
     1
  2
S153
 10
97.5
 20
166.75
 30
0.0
  0
ATTRIB
  8
108
 10
96.5
 20
163.55
 30
0.0
 40
2.2
  1

  2
TEXTUV
 70
     0
 72
     2
 11
96.5
 21
163.55
 31
0.0
  0
ATTRIB
  8
108
 10
96.5
 20
167.75
 30
0.0
 40
2.2
  1

  2
TEXTV
 70
     0
 72
     2
 11
96.5
 21
167.75
 31
0.0
  0
ATTRIB
  8
108
 10
98.5
 20
163.55
 30
0.0
 40
2.2
  1
KM2
  2
TEXTUH
 70
     0
  0
ATTRIB
  8
108
 10
98.5
 20
167.75
 30
0.0
 40
2.2
  1

  2
TEXTH
 70
     0
  0
SEQEND
  8
104
  0
INSERT
  8
104
 66
     1
  2
S153
 10
99.086237
 20
161.75
 30
0.0
  0
ATTRIB
  8
108
 10
98.086237
 20
158.55
 30
0.0
 40
2.2
  1

  2
TEXTUV
 70
     0
 72
     2
 11
98.086237
 21
158.55
 31
0.0
  0
ATTRIB
  8
108
 10
98.086237
 20
162.75
 30
0.0
 40
2.2
  1

  2
TEXTV
 70
     0
 72
     2
 11
98.086237
 21
162.75
 31
0.0
  0
ATTRIB
  8
108
 10
100.086237
 20
158.55
 30
0.0
 40
2.2
  1
13
  2
TEXTUH
 70
     0
  0
ATTRIB
  8
108
 10
100.086237
 20
162.75
 30
0.0
 40
2.2
  1

  2
TEXTH
 70
     0
  0
SEQEND
  8
104
  0
INSERT
  8
104
  2
S71
 10
217.681803
 20
162.501653
 30
0.0
  0
LINE
  8
102
  6
DASHED2
 10
217.5
 20
192.5
 30
0.0
 11
127.5
 21
192.5
 31
0.0
  0
INSERT
  8
01
  6
DASHED
 66
     1
  2
S153
 10
134.242841
 20
188.408163
 30
0.0
  0
ATTRIB
  8
108
  6
DASHED
 10
133.242841
 20
185.208163
 30
0.0
 40
2.2
  1

  2
TEXTUV
 70
     0
 72
     2
 11
133.242841
 21
185.208163
 31
0.0
  0
ATTRIB
  8
108
  6
DASHED
 10
129.785699
 20
189.408163
 30
0.0
 40
2.2
  1
96
  2
TEXTV
 70
     0
 72
     2
 11
133.242841
 21
189.408163
 31
0.0
  0
ATTRIB
  8
108
  6
DASHED
 10
135.242841
 20
185.208163
 30
0.0
 40
2.2
  1

  2
TEXTUH
 70
     0
  0
ATTRIB
  8
108
  6
DASHED
 10
135.242841
 20
189.408163
 30
0.0
 40
2.2
  1

  2
TEXTH
 70
     0
  0
SEQEND
  8
01
  6
DASHED
  0
INSERT
  8
01
  6
DASHED
 66
     1
  2
S153
 10
134.242841
 20
193.408163
 30
0.0
  0
ATTRIB
  8
108
  6
DASHED
 10
133.242841
 20
190.208163
 30
0.0
 40
2.2
  1

  2
TEXTUV
 70
     0
 72
     2
 11
133.242841
 21
190.208163
 31
0.0
  0
ATTRIB
  8
108
  6
DASHED
 10
128.633318
 20
194.408163
 30
0.0
 40
2.2
  1
FR1
  2
TEXTV
 70
     0
 72
     2
 11
133.242841
 21
194.408163
 31
0.0
  0
ATTRIB
  8
108
  6
DASHED
 10
135.242841
 20
190.208163
 30
0.0
 40
2.2
  1

  2
TEXTUH
 70
     0
  0
ATTRIB
  8
108
  6
DASHED
 10
135.242841
 20
194.408163
 30
0.0
 40
2.2
  1

  2
TEXTH
 70
     0
  0
SEQEND
  8
01
  6
DASHED
  0
LINE
  8
104
  6
CONTINUOUS
 10
177.5
 20
175.0
 30
0.0
 11
127.5
 21
175.0
 31
0.0
  0
INSERT
  8
104
 66
     1
  2
S153
 10
127.5
 20
179.25
 30
0.0
  0
ATTRIB
  8
108
 10
126.5
 20
176.05
 30
0.0
 40
2.2
  1

  2
TEXTUV
 70
     0
 72
     2
 11
126.5
 21
176.05
 31
0.0
  0
ATTRIB
  8
108
 10
126.5
 20
180.25
 30
0.0
 40
2.2
  1

  2
TEXTV
 70
     0
 72
     2
 11
126.5
 21
180.25
 31
0.0
  0
ATTRIB
  8
108
 10
128.5
 20
176.05
 30
0.0
 40
2.2
  1
KM1
  2
TEXTUH
 70
     0
  0
ATTRIB
  8
108
 10
128.5
 20
180.25
 30
0.0
 40
2.2
  1

  2
TEXTH
 70
     0
  0
SEQEND
  8
104
  0
INSERT
  8
104
 66
     1
  2
S153
 10
129.086237
 20
174.25
 30
0.0
  0
ATTRIB
  8
108
 10
128.086237
 20
171.05
 30
0.0
 40
2.2
  1

  2
TEXTUV
 70
     0
 72
     2
 11
128.086237
 21
171.05
 31
0.0
  0
ATTRIB
  8
108
 10
128.086237
 20
175.25
 30
0.0
 40
2.2
  1

  2
TEXTV
 70
     0
 72
     2
 11
128.086237
 21
175.25
 31
0.0
  0
ATTRIB
  8
108
 10
130.086237
 20
171.05
 30
0.0
 40
2.2
  1
13
  2
TEXTUH
 70
     0
  0
ATTRIB
  8
108
 10
130.086237
 20
175.25
 30
0.0
 40
2.2
  1

  2
TEXTH
 70
     0
  0
SEQEND
  8
104
  0
LINE
  8
102
 10
217.75
 20
155.0
 30
0.0
 11
217.568176
 21
175.00062
 31
0.0
  0
INSERT
  8
102
  2
S71
 10
177.5
 20
175.0
 30
0.0
  0
LINE
  8
102
 10
35.0
 20
180.0
 30
0.0
 11
39.047051
 21
186.0
 31
0.0
  0
LINE
  8
102
 10
25.0
 20
180.0
 30
0.0
 11
25.0
 21
185.0
 31
0.0
  0
ATTDEF
  8
110
 10
21.130492
 20
181.169204
 30
0.0
 40
2.2
  1
K9
  3
Post vnster
  2
O
 70
     4
  7
ROMANS
  0
LINE
  8
104
 10
25.0
 20
182.5
 30
0.0
 11
36.686271
 21
182.5
 31
0.0
  0
LINE
  8
102
 10
25.0
 20
180.0
 30
0.0
 11
27.5
 21
180.0
 31
0.0
  0
LINE
  8
102
 10
35.0
 20
185.0
 30
0.0
 11
40.0
 21
185.0
 31
0.0
  0
LINE
  8
102
 10
25.0
 20
185.0
 30
0.0
 11
27.5
 21
185.0
 31
0.0
  0
LINE
  8
102
 10
35.0
 20
190.0
 30
0.0
 11
35.0
 21
185.0
 31
0.0
  0
LINE
  8
104
 10
35.0
 20
190.0
 30
0.0
 11
35.0
 21
192.5
 31
0.0
  0
LINE
  8
102
 10
35.0
 20
177.93783
 30
0.0
 11
35.0
 21
175.43783
 31
0.0
  0
LINE
  8
102
 10
35.0
 20
180.0
 30
0.0
 11
35.0
 21
175.0
 31
0.0
  0
LINE
  8
104
 10
35.0
 20
192.5
 30
0.0
 11
55.0
 21
192.5
 31
0.0
  0
INSERT
  8
01
 66
     1
  2
S153
 10
56.049674
 20
188.408163
 30
0.0
  0
ATTRIB
  8
108
 10
55.049674
 20
185.208163
 30
0.0
 40
2.2
  1

  2
TEXTUV
 70
     0
 72
     2
 11
55.049674
 21
185.208163
 31
0.0
  0
ATTRIB
  8
108
 10
51.592531
 20
189.408163
 30
0.0
 40
2.2
  1
96
  2
TEXTV
 70
     0
 72
     2
 11
55.049674
 21
189.408163
 31
0.0
  0
ATTRIB
  8
108
 10
57.049674
 20
185.208163
 30
0.0
 40
2.2
  1

  2
TEXTUH
 70
     0
  0
ATTRIB
  8
108
 10
57.049674
 20
189.408163
 30
0.0
 40
2.2
  1

  2
TEXTH
 70
     0
  0
SEQEND
  8
01
  0
INSERT
  8
01
 66
     1
  2
S153
 10
56.049674
 20
193.408163
 30
0.0
  0
ATTRIB
  8
108
 10
55.049674
 20
190.208163
 30
0.0
 40
2.2
  1

  2
TEXTUV
 70
     0
 72
     2
 11
55.049674
 21
190.208163
 31
0.0
  0
ATTRIB
  8
108
 10
50.44015
 20
194.408163
 30
0.0
 40
2.2
  1
FR1
  2
TEXTV
 70
     0
 72
     2
 11
55.049674
 21
194.408163
 31
0.0
  0
ATTRIB
  8
108
 10
57.049674
 20
190.208163
 30
0.0
 40
2.2
  1

  2
TEXTUH
 70
     0
  0
ATTRIB
  8
108
 10
57.049674
 20
194.408163
 30
0.0
 40
2.2
  1

  2
TEXTH
 70
     0
  0
SEQEND
  8
01
  0
INSERT
  8
01
  2
S71
 10
35.0
 20
175.0
 30
0.0
  0
LINE
  8
102
 10
177.5
 20
65.0
 30
0.0
 11
127.5
 21
65.0
 31
0.0
  0
LINE
  8
102
 10
217.75
 20
75.0
 30
0.0
 11
127.5
 21
75.0
 31
0.0
  0
INSERT
  8
104
 66
     1
  2
S153
 10
127.5
 20
65.006201
 30
0.0
  0
ATTRIB
  8
108
 10
126.5
 20
61.806201
 30
0.0
 40
2.2
  1

  2
TEXTUV
 70
     0
 72
     2
 11
126.5
 21
61.806201
 31
0.0
  0
ATTRIB
  8
108
 10
126.5
 20
66.006201
 30
0.0
 40
2.2
  1

  2
TEXTV
 70
     0
 72
     2
 11
126.5
 21
66.006201
 31
0.0
  0
ATTRIB
  8
108
 10
128.5
 20
61.806201
 30
0.0
 40
2.2
  1
21
  2
TEXTUH
 70
     0
  0
ATTRIB
  8
108
 10
128.5
 20
66.006201
 30
0.0
 40
2.2
  1

  2
TEXTH
 70
     0
  0
SEQEND
  8
104
  0
INSERT
  8
104
 66
     1
  2
S153
 10
128.077742
 20
75.0
 30
0.0
  0
ATTRIB
  8
108
 10
127.077742
 20
71.8
 30
0.0
 40
2.2
  1

  2
TEXTUV
 70
     0
 72
     2
 11
127.077742
 21
71.8
 31
0.0
  0
ATTRIB
  8
108
 10
127.077742
 20
76.0
 30
0.0
 40
2.2
  1

  2
TEXTV
 70
     0
 72
     2
 11
127.077742
 21
76.0
 31
0.0
  0
ATTRIB
  8
108
 10
129.077742
 20
71.8
 30
0.0
 40
2.2
  1
21
  2
TEXTUH
 70
     0
  0
ATTRIB
  8
108
 10
129.077742
 20
76.0
 30
0.0
 40
2.2
  1

  2
TEXTH
 70
     0
  0
SEQEND
  8
104
  0
INSERT
  8
104
 66
     1
  2
S153
 10
128.077742
 20
80.0
 30
0.0
  0
ATTRIB
  8
108
 10
127.077742
 20
76.8
 30
0.0
 40
2.2
  1

  2
TEXTUV
 70
     0
 72
     2
 11
127.077742
 21
76.8
 31
0.0
  0
ATTRIB
  8
108
 10
127.077742
 20
81.0
 30
0.0
 40
2.2
  1

  2
TEXTV
 70
     0
 72
     2
 11
127.077742
 21
81.0
 31
0.0
  0
ATTRIB
  8
108
 10
129.077742
 20
76.8
 30
0.0
 40
2.2
  1
KM1
  2
TEXTUH
 70
     0
  0
ATTRIB
  8
108
 10
129.077742
 20
81.0
 30
0.0
 40
2.2
  1

  2
TEXTH
 70
     0
  0
SEQEND
  8
104
  0
INSERT
  8
104
 66
     1
  2
S153
 10
127.5
 20
70.006201
 30
0.0
  0
ATTRIB
  8
108
 10
126.5
 20
66.806201
 30
0.0
 40
2.2
  1

  2
TEXTUV
 70
     0
 72
     2
 11
126.5
 21
66.806201
 31
0.0
  0
ATTRIB
  8
108
 10
126.5
 20
71.006201
 30
0.0
 40
2.2
  1

  2
TEXTV
 70
     0
 72
     2
 11
126.5
 21
71.006201
 31
0.0
  0
ATTRIB
  8
108
 10
128.5
 20
66.806201
 30
0.0
 40
2.2
  1
KM2
  2
TEXTUH
 70
     0
  0
ATTRIB
  8
108
 10
128.5
 20
71.006201
 30
0.0
 40
2.2
  1

  2
TEXTH
 70
     0
  0
SEQEND
  8
104
  0
INSERT
  8
102
  2
S71
 10
177.5
 20
65.0
 30
0.0
  0
INSERT
  8
102
  2
S71
 10
217.75
 20
75.0
 30
0.0
  0
TEXT
  8
11
 10
80.0
 20
254.9
 30
0.0
 40
3.15
  1
Extern funktion vid okapslad starter
  7
ROMANS
  0
TEXT
  8
11
 10
80.0
 20
249.9
 30
0.0
 40
3.15
  1
eller Lokal funktion vid kapslad starter
  7
ROMANS
  0
TEXT
  8
11
 10
275.0
 20
42.4
 30
0.0
 40
3.15
  1
STOPPAS FRE REVERSERING
  7
ROMANS
  0
TEXT
  8
11
 10
275.0
 20
52.4
 30
0.0
 40
3.15
  1
TO BE STOPPED BEFORE REVERSING
  7
ROMANS
  0
INSERT
  8
104
 66
     1
  2
S153
 10
57.5
 20
31.75
 30
0.0
  0
ATTRIB
  8
108
 10
56.5
 20
28.55
 30
0.0
 40
2.2
  1

  2
TEXTUV
 70
     0
 72
     2
 11
56.5
 21
28.55
 31
0.0
  0
ATTRIB
  8
108
 10
56.5
 20
32.75
 30
0.0
 40
2.2
  1

  2
TEXTV
 70
     0
 72
     2
 11
56.5
 21
32.75
 31
0.0
  0
ATTRIB
  8
108
 10
58.5
 20
28.55
 30
0.0
 40
2.2
  1
KM1
  2
TEXTUH
 70
     0
  0
ATTRIB
  8
108
 10
58.5
 20
32.75
 30
0.0
 40
2.2
  1

  2
TEXTH
 70
     0
  0
SEQEND
  8
104
  0
INSERT
  8
104
 66
     1
  2
S153
 10
32.5
 20
31.75
 30
0.0
  0
ATTRIB
  8
108
 10
31.5
 20
28.55
 30
0.0
 40
2.2
  1

  2
TEXTUV
 70
     0
 72
     2
 11
31.5
 21
28.55
 31
0.0
  0
ATTRIB
  8
108
 10
31.5
 20
32.75
 30
0.0
 40
2.2
  1

  2
TEXTV
 70
     0
 72
     2
 11
31.5
 21
32.75
 31
0.0
  0
ATTRIB
  8
108
 10
33.5
 20
28.55
 30
0.0
 40
2.2
  1
KM2
  2
TEXTUH
 70
     0
  0
ATTRIB
  8
108
 10
33.5
 20
32.75
 30
0.0
 40
2.2
  1

  2
TEXTH
 70
     0
  0
SEQEND
  8
104
  0
ATTDEF
  8
110
 10
34.0
 20
175.0
 30
0.0
 40
2.2
  1
14
  3
Uttag 2
  2
22
 70
     4
 50
90.0
  7
ROMANS
  0
ATTDEF
  8
110
 10
34.0
 20
186.181844
 30
0.0
 40
2.2
  1
13
  3
Uttag 1
  2
21
 70
     4
 50
90.0
  7
ROMANS
  0
ATTDEF
  8
110
 10
41.130492
 20
138.669204
 30
0.0
 40
2.2
  1
K9
  3
Post vnster
  2
S1
 70
     4
  7
ROMANS
  0
ATTDEF
  8
110
 10
41.130492
 20
181.169204
 30
0.0
 40
2.2
  1
K9
  3
Post vnster
  2
S2
 70
     4
  7
ROMANS
  0
ATTDEF
  8
110
 10
96.130492
 20
138.669204
 30
0.0
 40
2.2
  1
K9
  3
Post vnster
  2
S3
 70
     4
  7
ROMANS
  0
TEXT
  8
11
 10
280.0
 20
165.0
 30
0.0
 40
3.15
  1
1)
  7
ROMANS
  0
TEXT
  8
11
 10
275.0
 20
90.0
 30
0.0
 40
3.15
  1
1) TO BE ORDERED
  7
ROMANS
  0
TEXT
  8
11
 10
275.0
 20
84.9
 30
0.0
 40
3.15
  1
   SEPARATELY /
  7
ROMANS
  0
TEXT
  8
11
 10
275.0
 20
79.8
 30
0.0
 40
3.15
  1
   BESTLLS SEPARAT
  7
ROMANS
  0
CIRCLE
  8
111
 10
339.734332
 20
108.423067
 30
0.0
 40
7.5
  0
TEXT
  8
111
 10
338.948618
 20
107.673067
 30
0.0
 40
2.15
  1
M
  0
LINE
  8
103
 10
334.742327
 20
114.020378
 30
0.0
 11
334.742327
 21
118.423067
 31
0.0
  0
LINE
  8
103
 10
339.734332
 20
118.423067
 30
0.0
 11
339.734332
 21
115.923067
 31
0.0
  0
LINE
  8
103
 10
344.734332
 20
118.423067
 30
0.0
 11
344.743298
 21
114.005205
 31
0.0
  0
TEXT
  8
108
 10
337.734332
 20
117.100935
 30
0.0
 40
2.15
  1
U1
 50
90.0
  0
TEXT
  8
108
 10
342.734332
 20
117.100935
 30
0.0
 40
2.15
  1
V1
 50
90.0
  0
TEXT
  8
108
 10
347.734332
 20
117.100935
 30
0.0
 40
2.15
  1
W1
 50
90.0
  0
TEXT
  8
11
 10
2.795599
 20
9.634951
 30
0.0
 40
2.0
  1
1
  7
ROMANS
  0
TEXT
  8
11
 10
9.27492
 20
9.634951
 30
0.0
 40
2.0
  1
Uttag manv.krets ndrad.
  7
ROMANS
  0
TEXT
  8
11
 10
76.684783
 20
9.510398
 30
0.0
 40
2.0
  1
MY
  7
ROMANS
  0
TEXT
  8
11
 10
83.662514
 20
9.385846
 30
0.0
 40
2.0
  1
99   09
  7
ROMANS
  0
TEXT
  8
11
 10
9.399522
 20
5.400157
 30
0.0
 40
2.0
  1
Uttag linjekrets ndrad.
  7
ROMANS
  0
ENDBLK
  8
0
  0
BLOCK
  8
0
  2
6648-1
 70
     2
 10
0.0
 20
0.0
 30
0.0
  3
6648-1
  0
ATTDEF
  8
110
 10
30.165737
 20
67.318096
 30
0.0
 40
2.2
  1
A1
  3
Uttag 1
  2
A1
 70
     0
  7
ROMANS
  0
ATTDEF
  8
110
 10
29.843384
 20
51.917571
 30
0.0
 40
2.2
  1
A2
  3
Uttag 2
  2
A2
 70
     0
  7
ROMANS
  0
LINE
  8
111
 10
31.343384
 20
58.917571
 30
0.0
 11
37.343384
 21
58.917571
 31
0.0
  0
LINE
  8
111
 10
37.343384
 20
61.917571
 30
0.0
 11
31.343384
 21
61.917571
 31
0.0
  0
LINE
  8
106
 10
17.093384
 20
21.340638
 30
0.0
 11
219.593384
 21
21.340638
 31
0.0
  0
LINE
  8
106
 10
219.593384
 20
98.840638
 30
0.0
 11
17.093384
 21
98.840638
 31
0.0
  0
LINE
  8
106
 10
17.093384
 20
98.840638
 30
0.0
 11
17.093384
 21
21.340638
 31
0.0
  0
ATTDEF
  8
110
 10
24.456376
 20
59.351993
 30
0.0
 40
2.2
  1
K1
  3
Post vnster
  2
KM2
 70
     0
  7
ROMANS
  0
LINE
  8
111
 10
31.343384
 20
61.917571
 30
0.0
 11
31.343384
 21
58.917571
 31
0.0
  0
POINT
  8
NOD
 10
31.343384
 20
60.417571
 30
0.0
  0
LINE
  8
3
 10
162.091743
 20
10.417571
 30
0.0
 11
157.683554
 21
10.417571
 31
0.0
  0
LINE
  8
103
 10
187.093384
 20
83.840638
 30
0.0
 11
121.395643
 21
83.840638
 31
0.0
  0
LINE
  8
103
 10
192.093384
 20
88.840638
 30
0.0
 11
116.645643
 21
88.840638
 31
0.0
  0
LINE
  8
103
 10
197.093384
 20
93.840638
 30
0.0
 11
111.395643
 21
93.840638
 31
0.0
  0
LINE
  8
104
 10
149.130402
 20
45.321843
 30
0.0
 11
160.130402
 21
45.321843
 31
0.0
  0
LINE
  8
104
 10
176.630402
 20
37.321843
 30
0.0
 11
154.130402
 21
37.321843
 31
0.0
  0
INSERT
  8
01
 66
     1
  2
XNO
 10
132.343384
 20
53.840638
 30
0.0
  0
ATTRIB
  8
110
 10
134.911605
 20
60.27506
 30
0.0
 40
2.2
  1

  2
POST
 70
     4
  7
ROMANS
  0
ATTRIB
  8
110
 10
124.015232
 20
60.27506
 30
0.0
 40
2.2
  1

  2
POST
 70
     4
  7
ROMANS
  0
ATTRIB
  8
110
 10
131.343384
 20
53.840638
 30
0.0
 40
2.2
  1
14X
  2
UTTAG
 70
     4
 50
90.0
  7
ROMANS
  0
ATTRIB
  8
110
 10
131.343384
 20
65.022482
 30
0.0
 40
2.2
  1
13X
  2
UTTAG
 70
     4
 50
90.0
  7
ROMANS
  0
SEQEND
  8
01
  0
LINE
  8
111
 10
98.145643
 20
62.840638
 30
0.0
 11
98.145643
 21
59.840638
 31
0.0
  0
LINE
  8
111
 10
104.145643
 20
59.840638
 30
0.0
 11
104.145643
 21
62.840638
 31
0.0
  0
LINE
  8
11
 10
108.895643
 20
63.840638
 30
0.0
 11
111.060233
 21
59.511458
 31
0.0
  0
LINE
  8
11
 10
113.895643
 20
63.840638
 30
0.0
 11
116.060233
 21
59.511458
 31
0.0
  0
LINE
  8
11
 10
118.895643
 20
63.840638
 30
0.0
 11
121.060233
 21
59.511458
 31
0.0
  0
INSERT
  8
01
 66
     1
  2
XNC
 10
141.645643
 20
53.840638
 30
0.0
  0
ATTRIB
  8
110
 10
144.213864
 20
60.27506
 30
0.0
 40
2.2
  1

  2
POST
 70
     4
  7
ROMANS
  0
ATTRIB
  8
110
 10
133.317491
 20
60.27506
 30
0.0
 40
2.2
  1

  2
POST
 70
     4
  7
ROMANS
  0
ATTRIB
  8
110
 10
140.645643
 20
53.840638
 30
0.0
 40
2.2
  1
22X
  2
UTTAG
 70
     4
 50
90.0
  7
ROMANS
  0
ATTRIB
  8
110
 10
140.645643
 20
65.022482
 30
0.0
 40
2.2
  1
21X
  2
UTTAG
 70
     4
 50
90.0
  7
ROMANS
  0
SEQEND
  8
01
  0
LINE
  8
111
 10
34.343384
 20
61.917571
 30
0.0
 11
34.343384
 21
67.917571
 31
0.0
  0
LINE
  8
11
 10
42.093384
 20
62.917571
 30
0.0
 11
44.257974
 21
58.588391
 31
0.0
  0
LINE
  8
11
 10
47.093384
 20
62.917571
 30
0.0
 11
49.257974
 21
58.588391
 31
0.0
  0
LINE
  8
11
 10
52.093384
 20
62.917571
 30
0.0
 11
54.257974
 21
58.588391
 31
0.0
  0
INSERT
  8
01
 66
     1
  2
XNO
 10
67.343384
 20
53.840638
 30
0.0
  0
ATTRIB
  8
110
 10
69.911605
 20
60.27506
 30
0.0
 40
2.2
  1

  2
POST
 70
     4
  7
ROMANS
  0
ATTRIB
  8
110
 10
59.015232
 20
60.27506
 30
0.0
 40
2.2
  1

  2
POST
 70
     4
  7
ROMANS
  0
ATTRIB
  8
110
 10
66.343384
 20
53.840638
 30
0.0
 40
2.2
  1
14
  2
UTTAG
 70
     4
 50
90.0
  7
ROMANS
  0
ATTRIB
  8
110
 10
66.343384
 20
65.022482
 30
0.0
 40
2.2
  1
13
  2
UTTAG
 70
     4
 50
90.0
  7
ROMANS
  0
SEQEND
  8
01
  0
ATTDEF
  8
110
 10
91.258636
 20
60.27506
 30
0.0
 40
2.2
  1
K1
  3
Post vnster
  2
KM3
 70
     0
  7
ROMANS
  0
LINE
  8
103
 10
111.395643
 20
43.840638
 30
0.0
 11
54.593384
 21
43.840638
 31
0.0
  0
LINE
  8
103
 10
116.395643
 20
38.840638
 30
0.0
 11
49.593384
 21
38.840638
 31
0.0
  0
LINE
  8
103
 10
121.395643
 20
33.840638
 30
0.0
 11
44.593384
 21
33.840638
 31
0.0
  0
LINE
  8
104
 10
53.343384
 20
60.417571
 30
0.0
 11
66.254327
 21
60.455231
 31
0.0
  0
LINE
  8
103
 10
49.593384
 20
52.917571
 30
0.0
 11
49.593384
 21
38.840638
 31
0.0
  0
LINE
  8
103
 10
44.593384
 20
52.917571
 30
0.0
 11
44.593384
 21
33.840638
 31
0.0
  0
TEXT
  8
8
 10
48.163082
 20
48.377062
 30
0.0
 40
2.15
  1
4/T2
 50
90.0
  0
LINE
  8
4
 10
37.343384
 20
60.417571
 30
0.0
 11
53.343384
 21
60.417571
 31
0.0
  0
TEXT
  8
8
 10
43.163082
 20
48.377062
 30
0.0
 40
2.15
  1
2/T1
 50
90.0
  0
LINE
  8
111
 10
34.343384
 20
52.917571
 30
0.0
 11
34.343384
 21
58.917571
 31
0.0
  0
LINE
  8
111
 10
37.343384
 20
58.917571
 30
0.0
 11
37.343384
 21
61.917571
 31
0.0
  0
POINT
  8
NOD
 10
37.343384
 20
60.417571
 30
0.0
  0
LINE
  8
3
 10
44.593384
 20
52.917571
 30
0.0
 11
44.593384
 21
57.167571
 31
0.0
  0
CIRCLE
  8
11
 10
44.593384
 20
57.917571
 30
0.0
 40
0.75
  0
LINE
  8
103
 10
54.593384
 20
52.917571
 30
0.0
 11
54.593384
 21
43.840638
 31
0.0
  0
TEXT
  8
8
 10
53.163082
 20
48.377062
 30
0.0
 40
2.15
  1
6/T3
 50
90.0
  0
LINE
  8
3
 10
54.593384
 20
52.917571
 30
0.0
 11
54.593384
 21
57.167571
 31
0.0
  0
LINE
  8
3
 10
49.593384
 20
52.917571
 30
0.0
 11
49.593384
 21
57.167571
 31
0.0
  0
CIRCLE
  8
11
 10
49.593384
 20
57.917571
 30
0.0
 40
0.75
  0
CIRCLE
  8
11
 10
54.593384
 20
57.917571
 30
0.0
 40
0.75
  0
LINE
  8
105
 10
116.395643
 20
46.340638
 30
0.0
 11
116.395643
 21
10.417571
 31
0.0
  0
LINE
  8
105
 10
121.395643
 20
41.340638
 30
0.0
 11
121.395643
 21
5.417571
 31
0.0
  0
LINE
  8
5
 10
142.091743
 20
10.417571
 30
0.0
 11
116.395643
 21
10.417571
 31
0.0
  0
LINE
  8
5
 10
142.091743
 20
5.417571
 30
0.0
 11
121.395643
 21
5.417571
 31
0.0
  0
LINE
  8
3
 10
142.091743
 20
10.417571
 30
0.0
 11
146.486172
 21
10.417571
 31
0.0
  0
LINE
  8
3
 10
142.091743
 20
5.417571
 30
0.0
 11
144.589007
 21
5.417571
 31
0.0
  0
ATTDEF
  8
8
 10
139.568946
 20
2.465631
 30
0.0
 40
2.2
  1
U1
  3
Uttag 
  2
U2
 70
     0
 72
     2
 11
143.340375
 21
2.465631
 31
0.0
  0
ATTDEF
  8
8
 10
139.77847
 20
7.465631
 30
0.0
 40
2.2
  1
V1
  3
Uttag
  2
V2
 70
     0
 72
     2
 11
143.340375
 21
7.465631
 31
0.0
  0
ATTDEF
  8
8
 10
139.359423
 20
12.465631
 30
0.0
 40
2.2
  1
W1
  3
Uttag
  2
W2
 70
     0
 72
     2
 11
143.340375
 21
12.465631
 31
0.0
  0
TEXT
  8
11
 10
151.307669
 20
4.667571
 30
0.0
 40
2.15
  1
M
  0
INSERT
  8
11
  2
SCHE70
 10
152.093384
 20
5.417571
 30
0.0
  0
LINE
  8
104
 10
120.145643
 20
61.340638
 30
0.0
 11
142.693588
 21
61.370601
 31
0.0
  0
LINE
  8
103
 10
116.395643
 20
53.840638
 30
0.0
 11
116.395643
 21
38.840638
 31
0.0
  0
LINE
  8
103
 10
121.395643
 20
53.840638
 30
0.0
 11
121.395643
 21
33.840638
 31
0.0
  0
INSERT
  8
105
  2
S71
 10
116.395643
 20
38.840638
 30
0.0
  0
INSERT
  8
105
  2
S71
 10
121.395643
 20
33.840638
 30
0.0
  0
CIRCLE
  8
11
 10
111.395643
 20
58.840638
 30
0.0
 40
0.75
  0
LINE
  8
4
 10
104.145643
 20
61.340638
 30
0.0
 11
120.145643
 21
61.340638
 31
0.0
  0
LINE
  8
103
 10
111.395643
 20
53.840638
 30
0.0
 11
111.395643
 21
43.840638
 31
0.0
  0
TEXT
  8
8
 10
110.663082
 20
48.377062
 30
0.0
 40
2.15
  1
2/T1
 50
90.0
  0
INSERT
  8
105
  2
S71
 10
111.395643
 20
43.840638
 30
0.0
  0
LINE
  8
111
 10
98.145643
 20
59.840638
 30
0.0
 11
104.145643
 21
59.840638
 31
0.0
  0
LINE
  8
111
 10
101.145643
 20
53.840638
 30
0.0
 11
101.145643
 21
59.840638
 31
0.0
  0
ATTDEF
  8
110
 10
96.645643
 20
52.840638
 30
0.0
 40
2.2
  1
A2
  3
Uttag 2
  2
A2
 70
     0
  7
ROMANS
  0
POINT
  8
NOD
 10
98.145643
 20
61.340638
 30
0.0
  0
LINE
  8
3
 10
111.395643
 20
53.840638
 30
0.0
 11
111.395643
 21
58.090638
 31
0.0
  0
POINT
  8
NOD
 10
104.145643
 20
61.340638
 30
0.0
  0
TEXT
  8
8
 10
115.663082
 20
48.377062
 30
0.0
 40
2.15
  1
4/T2
 50
90.0
  0
TEXT
  8
8
 10
120.663082
 20
48.377062
 30
0.0
 40
2.15
  1
6/T3
 50
90.0
  0
LINE
  8
3
 10
116.395643
 20
53.840638
 30
0.0
 11
116.395643
 21
58.090638
 31
0.0
  0
CIRCLE
  8
11
 10
116.395643
 20
58.840638
 30
0.0
 40
0.75
  0
LINE
  8
3
 10
121.395643
 20
53.840638
 30
0.0
 11
121.395643
 21
58.090638
 31
0.0
  0
CIRCLE
  8
11
 10
121.395643
 20
58.840638
 30
0.0
 40
0.75
  0
LINE
  8
104
 10
159.130402
 20
44.321843
 30
0.0
 11
159.130402
 21
39.821843
 31
0.0
  0
LINE
  8
102
 10
159.130402
 20
38.321843
 30
0.0
 11
159.130402
 21
42.321843
 31
0.0
  0
LINE
  8
102
 10
155.490446
 20
38.821843
 30
0.0
 11
157.990446
 21
37.321843
 31
0.0
  0
LINE
  8
102
 10
155.490446
 20
38.821843
 30
0.0
 11
155.490446
 21
37.321843
 31
0.0
  0
INSERT
  8
110
  2
S139
 10
144.503036
 20
43.972545
 30
0.0
 41
0.9
 42
0.9
 43
0.9
  0
LINE
  8
102
 10
149.130402
 20
47.321843
 30
0.0
 11
151.630402
 21
47.321843
 31
0.0
  0
LINE
  8
102
 10
149.130402
 20
42.321843
 30
0.0
 11
151.630402
 21
42.321843
 31
0.0
  0
LINE
  8
104
 10
149.130402
 20
44.321843
 30
0.0
 11
159.130402
 21
44.321843
 31
0.0
  0
LINE
  8
102
 10
149.130402
 20
42.321843
 30
0.0
 11
149.130402
 21
47.321843
 31
0.0
  0
LINE
  8
103
 10
44.593384
 20
67.917571
 30
0.0
 11
44.593384
 21
86.340638
 31
0.0
  0
LINE
  8
103
 10
54.593384
 20
67.917571
 30
0.0
 11
54.593384
 21
86.340638
 31
0.0
  0
LINE
  8
103
 10
49.593384
 20
67.917571
 30
0.0
 11
49.593384
 21
86.340638
 31
0.0
  0
TEXT
  8
8
 10
48.163082
 20
75.877062
 30
0.0
 40
2.15
  1
3/L2
 50
90.0
  0
ARC
  8
11
 10
49.593384
 20
64.417571
 30
0.0
 40
1.5
 50
90.0
 51
270.0
  0
ARC
  8
11
 10
44.593384
 20
64.417571
 30
0.0
 40
1.5
 50
90.0
 51
270.0
  0
LINE
  8
3
 10
44.593384
 20
62.917571
 30
0.0
 11
44.593384
 21
67.917571
 31
0.0
  0
TEXT
  8
8
 10
45.568967
 20
64.075072
 30
0.0
 40
2.15
  1
1
  0
TEXT
  8
8
 10
43.163082
 20
75.877062
 30
0.0
 40
2.15
  1
1/L1
 50
90.0
  0
TEXT
  8
8
 10
55.590176
 20
64.096282
 30
0.0
 40
2.15
  1
5
  0
LINE
  8
3
 10
49.593384
 20
62.917571
 30
0.0
 11
49.593384
 21
67.917571
 31
0.0
  0
TEXT
  8
8
 10
50.468165
 20
64.122674
 30
0.0
 40
2.15
  1
3
  0
ARC
  8
11
 10
54.593384
 20
64.417571
 30
0.0
 40
1.5
 50
90.0
 51
270.0
  0
LINE
  8
3
 10
54.593384
 20
62.917571
 30
0.0
 11
54.593384
 21
67.917571
 31
0.0
  0
TEXT
  8
8
 10
53.163082
 20
75.877062
 30
0.0
 40
2.15
  1
5/L3
 50
90.0
  0
LINE
  8
103
 10
44.593384
 20
86.340638
 30
0.0
 11
54.593384
 21
86.340638
 31
0.0
  0
LINE
  8
103
 10
116.395643
 20
68.840638
 30
0.0
 11
116.395643
 21
88.840638
 31
0.0
  0
LINE
  8
103
 10
111.395643
 20
68.840638
 30
0.0
 11
111.395643
 21
93.840638
 31
0.0
  0
LINE
  8
111
 10
104.145643
 20
62.840638
 30
0.0
 11
98.145643
 21
62.840638
 31
0.0
  0
LINE
  8
111
 10
101.145643
 20
62.840638
 30
0.0
 11
101.145643
 21
68.840638
 31
0.0
  0
ATTDEF
  8
110
 10
96.967996
 20
68.241163
 30
0.0
 40
2.2
  1
A1
  3
Uttag 1
  2
A1
 70
     0
  7
ROMANS
  0
LINE
  8
3
 10
111.395643
 20
63.840638
 30
0.0
 11
111.395643
 21
68.840638
 31
0.0
  0
ARC
  8
11
 10
111.395643
 20
65.340638
 30
0.0
 40
1.5
 50
90.0
 51
270.0
  0
TEXT
  8
8
 10
110.663082
 20
75.877062
 30
0.0
 40
2.15
  1
1/L1
 50
90.0
  0
LINE
  8
103
 10
121.395643
 20
68.840638
 30
0.0
 11
121.395643
 21
83.840638
 31
0.0
  0
LINE
  8
3
 10
116.395643
 20
63.840638
 30
0.0
 11
116.395643
 21
68.840638
 31
0.0
  0
ARC
  8
11
 10
116.395643
 20
65.340638
 30
0.0
 40
1.5
 50
90.0
 51
270.0
  0
LINE
  8
3
 10
121.395643
 20
63.840638
 30
0.0
 11
121.395643
 21
68.840638
 31
0.0
  0
ARC
  8
11
 10
121.395643
 20
65.340638
 30
0.0
 40
1.5
 50
90.0
 51
270.0
  0
TEXT
  8
8
 10
120.663082
 20
75.877062
 30
0.0
 40
2.15
  1
5/L3
 50
90.0
  0
TEXT
  8
8
 10
115.663082
 20
75.877062
 30
0.0
 40
2.15
  1
3/L2
 50
90.0
  0
LINE
  8
103
 10
116.645643
 20
88.840638
 30
0.0
 11
116.395643
 21
88.840638
 31
0.0
  0
INSERT
  8
01
 66
     1
  2
XNC
 10
214.145643
 20
53.840638
 30
0.0
  0
ATTRIB
  8
110
 10
216.713864
 20
60.27506
 30
0.0
 40
2.2
  1

  2
POST
 70
     4
  7
ROMANS
  0
ATTRIB
  8
110
 10
205.817491
 20
60.27506
 30
0.0
 40
2.2
  1

  2
POST
 70
     4
  7
ROMANS
  0
ATTRIB
  8
110
 10
213.145643
 20
53.840638
 30
0.0
 40
2.2
  1
22X
  2
UTTAG
 70
     4
 50
90.0
  7
ROMANS
  0
ATTRIB
  8
110
 10
213.145643
 20
65.022482
 30
0.0
 40
2.2
  1
21X
  2
UTTAG
 70
     4
 50
90.0
  7
ROMANS
  0
SEQEND
  8
01
  0
LINE
  8
111
 10
179.843384
 20
59.769775
 30
0.0
 11
179.843384
 21
62.769775
 31
0.0
  0
LINE
  8
111
 10
173.843384
 20
62.769775
 30
0.0
 11
173.843384
 21
59.769775
 31
0.0
  0
LINE
  8
106
 10
219.593384
 20
21.340638
 30
0.0
 11
219.593384
 21
98.840638
 31
0.0
  0
LINE
  8
11
 10
184.593384
 20
63.769775
 30
0.0
 11
186.757974
 21
59.440596
 31
0.0
  0
LINE
  8
11
 10
189.593384
 20
63.769775
 30
0.0
 11
191.757974
 21
59.440596
 31
0.0
  0
LINE
  8
11
 10
194.593384
 20
63.769775
 30
0.0
 11
196.757974
 21
59.440596
 31
0.0
  0
INSERT
  8
01
 66
     1
  2
XNO
 10
207.343384
 20
53.769775
 30
0.0
  0
ATTRIB
  8
110
 10
209.911605
 20
60.204198
 30
0.0
 40
2.2
  1

  2
POST
 70
     4
  7
ROMANS
  0
ATTRIB
  8
110
 10
199.015232
 20
60.204198
 30
0.0
 40
2.2
  1

  2
POST
 70
     4
  7
ROMANS
  0
ATTRIB
  8
110
 10
206.343384
 20
53.769775
 30
0.0
 40
2.2
  1
14X
  2
UTTAG
 70
     4
 50
90.0
  7
ROMANS
  0
ATTRIB
  8
110
 10
206.343384
 20
64.951619
 30
0.0
 40
2.2
  1
13X
  2
UTTAG
 70
     4
 50
90.0
  7
ROMANS
  0
SEQEND
  8
01
  0
LINE
  8
5
 10
192.541125
 20
5.417571
 30
0.0
 11
192.541125
 21
20.417571
 31
0.0
  0
LINE
  8
5
 10
197.541125
 20
10.417571
 30
0.0
 11
197.541125
 21
20.417571
 31
0.0
  0
LINE
  8
5
 10
162.091743
 20
5.417571
 30
0.0
 11
192.541125
 21
5.417571
 31
0.0
  0
LINE
  8
5
 10
162.091743
 20
10.417571
 30
0.0
 11
197.541125
 21
10.417571
 31
0.0
  0
ATTDEF
  8
8
 10
160.84311
 20
2.465631
 30
0.0
 40
2.2
  1
U2
  3
Uttag
  2
U1
 70
     0
  0
LINE
  8
3
 10
162.091743
 20
5.417571
 30
0.0
 11
159.596119
 21
5.417571
 31
0.0
  0
ATTDEF
  8
8
 10
160.84311
 20
7.465631
 30
0.0
 40
2.2
  1
V2
  3
Uttag
  2
V1
 70
     0
  0
ATTDEF
  8
8
 10
160.84311
 20
12.465631
 30
0.0
 40
2.2
  1
W2
  3
Uttag
  2
W1
 70
     0
  0
TEXT
  8
8
 10
190.663082
 20
49.229267
 30
0.0
 40
2.15
  1
4/T2
 50
90.0
  0
LINE
  8
11
 10
190.093384
 20
36.917571
 30
0.0
 11
192.093384
 21
36.917571
 31
0.0
  0
LINE
  8
11
 10
192.093384
 20
38.917571
 30
0.0
 11
190.093384
 21
38.917571
 31
0.0
  0
TEXT
  8
8
 10
190.663082
 20
26.490648
 30
0.0
 40
2.15
  1
4/T2
 50
90.0
  0
LINE
  8
11
 10
198.593384
 20
35.417571
 30
0.0
 11
183.593384
 21
35.417571
 31
0.0
  0
LINE
  8
11
 10
183.593384
 20
40.417571
 30
0.0
 11
198.593384
 21
40.417571
 31
0.0
  0
LINE
  8
4
 10
179.843384
 20
61.269775
 30
0.0
 11
195.843384
 21
61.269775
 31
0.0
  0
LINE
  8
11
 10
187.093384
 20
40.417571
 30
0.0
 11
187.093384
 21
38.917571
 31
0.0
  0
LINE
  8
104
 10
160.130402
 20
45.321843
 30
0.0
 11
160.130402
 21
38.321843
 31
0.0
  0
LINE
  8
102
 10
169.130402
 20
39.821843
 30
0.0
 11
169.130402
 21
44.821843
 31
0.0
  0
LINE
  8
102
 10
169.130402
 20
34.821843
 30
0.0
 11
171.615683
 21
40.821843
 31
0.0
  0
LINE
  8
11
 10
183.593384
 20
35.417571
 30
0.0
 11
183.593384
 21
40.417571
 31
0.0
  0
LINE
  8
102
 10
179.593384
 20
34.821843
 30
0.0
 11
175.546333
 21
40.821843
 31
0.0
  0
LINE
  8
102
 10
179.593384
 20
44.821843
 30
0.0
 11
179.593384
 21
39.821843
 31
0.0
  0
ATTDEF
  8
102
 10
168.130402
 20
29.821843
 30
0.0
 40
2.2
  1
96
  3
Anslutning
  2
96
 70
     0
 50
90.0
  7
ROMANS
  0
LINE
  8
104
 10
170.580149
 20
38.321843
 30
0.0
 11
160.130402
 21
38.321843
 31
0.0
  0
LINE
  8
102
 10
169.130402
 20
34.821843
 30
0.0
 11
169.130402
 21
29.821843
 31
0.0
  0
LINE
  8
102
 10
169.130402
 20
39.821843
 30
0.0
 11
171.630402
 21
39.821843
 31
0.0
  0
LINE
  8
105
 10
187.093384
 20
30.417571
 30
0.0
 11
187.541125
 21
20.417571
 31
0.0
  0
TEXT
  8
8
 10
185.663082
 20
26.490648
 30
0.0
 40
2.15
  1
2/T1
 50
90.0
  0
LINE
  8
104
 10
176.630402
 20
37.321843
 30
0.0
 11
183.593384
 21
37.321843
 31
0.0
  0
LINE
  8
102
 10
179.593384
 20
29.821843
 30
0.0
 11
179.593384
 21
34.821843
 31
0.0
  0
ATTDEF
  8
110
 10
178.593384
 20
29.821843
 30
0.0
 40
2.2
  1
14
  3
Uttag 2
  2
98
 70
     4
 50
90.0
  7
ROMANS
  0
LINE
  8
3
 10
187.093384
 20
35.417571
 30
0.0
 11
187.093384
 21
30.417571
 31
0.0
  0
LINE
  8
11
 10
187.093384
 20
36.917571
 30
0.0
 11
187.093384
 21
35.417571
 31
0.0
  0
LINE
  8
11
 10
185.093384
 20
38.917571
 30
0.0
 11
185.093384
 21
36.917571
 31
0.0
  0
LINE
  8
11
 10
185.093384
 20
36.917571
 30
0.0
 11
187.093384
 21
36.917571
 31
0.0
  0
LINE
  8
11
 10
187.093384
 20
38.917571
 30
0.0
 11
185.093384
 21
38.917571
 31
0.0
  0
LINE
  8
11
 10
190.093384
 20
38.917571
 30
0.0
 11
190.093384
 21
36.917571
 31
0.0
  0
ATTDEF
  8
110
 10
172.343384
 20
52.769775
 30
0.0
 40
2.2
  1
A2
  3
Uttag 2
  2
A2
 70
     0
  7
ROMANS
  0
LINE
  8
111
 10
173.843384
 20
59.769775
 30
0.0
 11
179.843384
 21
59.769775
 31
0.0
  0
ATTDEF
  8
102
 10
168.130402
 20
39.821843
 30
0.0
 40
2.2
  1
95
  3
Anslutning
  2
95
 70
     0
 50
90.0
  7
ROMANS
  0
ATTDEF
  8
110
 10
166.956376
 20
60.204198
 30
0.0
 40
2.2
  1
K1
  3
Post vnster
  2
KM1
 70
     0
  7
ROMANS
  0
POINT
  8
NOD
 10
173.843384
 20
61.269775
 30
0.0
  0
LINE
  8
103
 10
187.093384
 20
53.769775
 30
0.0
 11
187.093384
 21
45.417571
 31
0.0
  0
TEXT
  8
8
 10
185.663082
 20
49.229267
 30
0.0
 40
2.15
  1
2/T1
 50
90.0
  0
ATTDEF
  8
110
 10
178.593384
 20
41.003688
 30
0.0
 40
2.2
  1
13
  3
Uttag 1
  2
97
 70
     4
 50
90.0
  7
ROMANS
  0
LINE
  8
3
 10
187.093384
 20
45.417571
 30
0.0
 11
187.093384
 21
40.417571
 31
0.0
  0
LINE
  8
111
 10
176.843384
 20
53.769775
 30
0.0
 11
176.843384
 21
59.769775
 31
0.0
  0
POINT
  8
NOD
 10
179.843384
 20
61.269775
 30
0.0
  0
LINE
  8
3
 10
187.093384
 20
53.769775
 30
0.0
 11
187.093384
 21
58.019775
 31
0.0
  0
CIRCLE
  8
11
 10
187.093384
 20
58.769775
 30
0.0
 40
0.75
  0
LINE
  8
11
 10
192.093384
 20
40.417571
 30
0.0
 11
192.093384
 21
38.917571
 31
0.0
  0
LINE
  8
11
 10
197.093384
 20
40.417571
 30
0.0
 11
197.093384
 21
38.917571
 31
0.0
  0
LINE
  8
11
 10
198.593384
 20
35.417571
 30
0.0
 11
198.593384
 21
40.417571
 31
0.0
  0
LINE
  8
105
 10
192.093384
 20
30.417571
 30
0.0
 11
192.541125
 21
20.417571
 31
0.0
  0
LINE
  8
105
 10
197.093384
 20
30.417571
 30
0.0
 11
197.541125
 21
20.417571
 31
0.0
  0
TEXT
  8
8
 10
195.663082
 20
26.490648
 30
0.0
 40
2.15
  1
6/T3
 50
90.0
  0
LINE
  8
3
 10
197.093384
 20
35.417571
 30
0.0
 11
197.093384
 21
30.417571
 31
0.0
  0
LINE
  8
3
 10
192.093384
 20
35.417571
 30
0.0
 11
192.093384
 21
30.417571
 31
0.0
  0
LINE
  8
11
 10
195.093384
 20
36.917571
 30
0.0
 11
197.093384
 21
36.917571
 31
0.0
  0
LINE
  8
11
 10
197.093384
 20
38.917571
 30
0.0
 11
195.093384
 21
38.917571
 31
0.0
  0
LINE
  8
11
 10
195.093384
 20
38.917571
 30
0.0
 11
195.093384
 21
36.917571
 31
0.0
  0
LINE
  8
11
 10
192.093384
 20
36.917571
 30
0.0
 11
192.093384
 21
35.417571
 31
0.0
  0
LINE
  8
11
 10
197.093384
 20
36.917571
 30
0.0
 11
197.093384
 21
35.417571
 31
0.0
  0
ATTDEF
  8
9
 10
200.420328
 20
36.998214
 30
0.0
 40
2.2
  1

  3
Post
  2
FR1
 70
     0
 72
     2
 11
205.029852
 21
36.998214
 31
0.0
  0
LINE
  8
104
 10
205.612856
 20
61.335388
 30
0.0
 11
215.203132
 21
61.393642
 31
0.0
  0
LINE
  8
103
 10
192.093384
 20
53.769775
 30
0.0
 11
192.093384
 21
45.417571
 31
0.0
  0
LINE
  8
103
 10
197.093384
 20
53.769775
 30
0.0
 11
197.093384
 21
45.417571
 31
0.0
  0
TEXT
  8
8
 10
195.663082
 20
49.229267
 30
0.0
 40
2.15
  1
6/T3
 50
90.0
  0
LINE
  8
3
 10
192.093384
 20
45.417571
 30
0.0
 11
192.093384
 21
40.417571
 31
0.0
  0
LINE
  8
3
 10
197.093384
 20
45.417571
 30
0.0
 11
197.093384
 21
40.417571
 31
0.0
  0
LINE
  8
104
 10
195.843384
 20
61.269775
 30
0.0
 11
205.612856
 21
61.335388
 31
0.0
  0
LINE
  8
3
 10
197.093384
 20
53.769775
 30
0.0
 11
197.093384
 21
58.019775
 31
0.0
  0
LINE
  8
3
 10
192.093384
 20
53.769775
 30
0.0
 11
192.093384
 21
58.019775
 31
0.0
  0
CIRCLE
  8
11
 10
192.093384
 20
58.769775
 30
0.0
 40
0.75
  0
CIRCLE
  8
11
 10
197.093384
 20
58.769775
 30
0.0
 40
0.75
  0
ATTDEF
  8
9
 10
191.589676
 20
100.793209
 30
0.0
 40
2.2
  1

  3
Post
  2
L2
 70
     0
 50
90.0
 72
     2
 11
191.589676
 21
104.040828
 31
0.0
  0
TEXT
  8
8
 10
190.663082
 20
68.297893
 30
0.0
 40
2.15
  1
3/L2
 50
90.0
  0
ARC
  8
11
 10
192.093384
 20
65.269775
 30
0.0
 40
1.5
 50
90.0
 51
270.0
  0
LINE
  8
105
 10
187.093384
 20
83.840638
 30
0.0
 11
187.093384
 21
103.840638
 31
0.0
  0
ATTDEF
  8
110
 10
172.665737
 20
68.170301
 30
0.0
 40
2.2
  1
A1
  3
Uttag 1
  2
A1
 70
     0
  7
ROMANS
  0
LINE
  8
111
 10
179.843384
 20
62.769775
 30
0.0
 11
173.843384
 21
62.769775
 31
0.0
  0
LINE
  8
103
 10
187.093384
 20
68.769775
 30
0.0
 11
187.093384
 21
83.840638
 31
0.0
  0
TEXT
  8
8
 10
185.663082
 20
68.297893
 30
0.0
 40
2.15
  1
1/L1
 50
90.0
  0
LINE
  8
111
 10
176.843384
 20
62.769775
 30
0.0
 11
176.843384
 21
68.769775
 31
0.0
  0
LINE
  8
103
 10
187.093384
 20
68.769775
 30
0.0
 11
187.093384
 21
64.692843
 31
0.0
  0
LINE
  8
3
 10
187.093384
 20
63.769775
 30
0.0
 11
187.093384
 21
68.769775
 31
0.0
  0
ARC
  8
11
 10
187.093384
 20
65.269775
 30
0.0
 40
1.5
 50
90.0
 51
270.0
  0
INSERT
  8
105
  2
S71
 10
187.093384
 20
83.840638
 30
0.0
  0
ATTDEF
  8
9
 10
186.589676
 20
100.833021
 30
0.0
 40
2.2
  1

  3
Post
  2
L1
 70
     0
 50
90.0
 72
     2
 11
186.589676
 21
103.137783
 31
0.0
  0
LINE
  8
103
 10
192.093384
 20
68.769775
 30
0.0
 11
192.093384
 21
88.840638
 31
0.0
  0
LINE
  8
103
 10
197.093384
 20
68.769775
 30
0.0
 11
197.093384
 21
93.840638
 31
0.0
  0
TEXT
  8
8
 10
195.663082
 20
68.297893
 30
0.0
 40
2.15
  1
5/L3
 50
90.0
  0
LINE
  8
3
 10
197.093384
 20
63.769775
 30
0.0
 11
197.093384
 21
68.769775
 31
0.0
  0
LINE
  8
3
 10
192.093384
 20
63.769775
 30
0.0
 11
192.093384
 21
68.769775
 31
0.0
  0
ARC
  8
11
 10
197.093384
 20
65.269775
 30
0.0
 40
1.5
 50
90.0
 51
270.0
  0
LINE
  8
105
 10
202.093384
 20
93.840638
 30
0.0
 11
202.093384
 21
103.840638
 31
0.0
  0
LINE
  8
105
 10
192.093384
 20
88.840638
 30
0.0
 11
192.093384
 21
103.840638
 31
0.0
  0
LINE
  8
105
 10
197.093384
 20
93.840638
 30
0.0
 11
197.093384
 21
103.840638
 31
0.0
  0
INSERT
  8
105
  2
S71
 10
192.093384
 20
88.840638
 30
0.0
  0
INSERT
  8
105
  2
S71
 10
197.093384
 20
93.840638
 30
0.0
  0
ATTDEF
  8
9
 10
195.21299
 20
100.703052
 30
0.0
 40
2.2
  1

  3
Post
  2
L3
 70
     0
 50
90.0
 72
     2
 11
195.21299
 21
103.950671
 31
0.0
  0
ATTDEF
  8
9
 10
201.589676
 20
100.779896
 30
0.0
 40
2.2
  1

  3
Post
  2
N
 70
     0
 50
90.0
 72
     2
 11
201.589676
 21
102.246562
 31
0.0
  0
LINE
  8
3
 10
162.091743
 20
0.417571
 30
0.0
 11
157.693493
 21
0.417571
 31
0.0
  0
CIRCLE
  8
11
 10
152.093384
 20
5.417571
 30
0.0
 40
7.5
  0
LINE
  8
5
 10
142.091743
 20
0.417571
 30
0.0
 11
111.395643
 21
0.417571
 31
0.0
  0
LINE
  8
3
 10
142.091743
 20
0.417571
 30
0.0
 11
146.49197
 21
0.417571
 31
0.0
  0
LINE
  8
5
 10
187.541125
 20
0.417571
 30
0.0
 11
187.541125
 21
20.417571
 31
0.0
  0
LINE
  8
5
 10
162.091743
 20
0.417571
 30
0.0
 11
187.541125
 21
0.417571
 31
0.0
  0
LINE
  8
105
 10
111.395643
 20
56.340638
 30
0.0
 11
111.395643
 21
0.417571
 31
0.0
  0
ENDBLK
  8
0
  0
BLOCK
  8
0
  2
XNO
 70
    66
 10
0.0
 20
0.0
 30
0.0
  3
XNO
  0
LINE
  8
102
 10
0.0
 20
0.0
 30
0.0
 11
0.0
 21
5.0
 31
0.0
  0
LINE
  8
102
 10
0.0
 20
15.0
 30
0.0
 11
0.0
 21
10.0
 31
0.0
  0
LINE
  8
102
 10
0.0
 20
5.0
 30
0.0
 11
-4.047051
 21
11.0
 31
0.0
  0
ATTDEF
  8
110
 10
2.568221
 20
6.434423
 30
0.0
 40
2.2
  1

  3
Post hger
  2
POST
 70
     4
  7
ROMANS
  0
ATTDEF
  8
110
 10
-8.328152
 20
6.434423
 30
0.0
 40
2.2
  1
K1
  3
Post vnster
  2
POST
 70
     4
  7
ROMANS
  0
ATTDEF
  8
110
 10
-1.0
 20
0.0
 30
0.0
 40
2.2
  1
14
  3
Uttag 2
  2
UTTAG
 70
     4
 50
90.0
  7
ROMANS
  0
ATTDEF
  8
110
 10
-1.0
 20
11.181844
 30
0.0
 40
2.2
  1
13
  3
Uttag 1
  2
UTTAG
 70
     4
 50
90.0
  7
ROMANS
  0
ENDBLK
  8
0
  0
BLOCK
  8
0
  2
XNC
 70
    66
 10
0.0
 20
0.0
 30
0.0
  3
XNC
  0
LINE
  8
102
 10
0.0
 20
5.0
 30
0.0
 11
0.0
 21
0.0
 31
0.0
  0
LINE
  8
102
 10
0.0
 20
10.0
 30
0.0
 11
0.0
 21
15.0
 31
0.0
  0
LINE
  8
102
 10
0.0
 20
5.0
 30
0.0
 11
2.485281
 21
11.0
 31
0.0
  0
LINE
  8
102
 10
0.0
 20
10.0
 30
0.0
 11
2.5
 21
10.0
 31
0.0
  0
ATTDEF
  8
110
 10
2.568221
 20
6.434423
 30
0.0
 40
2.2
  1

  3
Post hger
  2
POST
 70
     4
  7
ROMANS
  0
ATTDEF
  8
110
 10
-8.328152
 20
6.434423
 30
0.0
 40
2.2
  1
K1
  3
Post vnster
  2
POST
 70
     4
  7
ROMANS
  0
ATTDEF
  8
110
 10
-1.0
 20
0.0
 30
0.0
 40
2.2
  1
22
  3
Uttag 2
  2
UTTAG
 70
     4
 50
90.0
  7
ROMANS
  0
ATTDEF
  8
110
 10
-1.0
 20
11.181844
 30
0.0
 40
2.2
  1
21
  3
Uttag 1
  2
UTTAG
 70
     4
 50
90.0
  7
ROMANS
  0
ENDBLK
  8
0
  0
BLOCK
  8
0
  2
SCHE70
 70
    64
 10
140.001641
 20
122.5
 30
0.0
  3
SCHE70
  0
ARC
  8
11
 10
140.001641
 20
122.5
 30
0.0
 40
5.5
 50
30.0
 51
150.0
  0
SOLID
  8
11
 10
143.051653
 20
126.728442
 30
0.0
 11
143.623749
 21
127.204135
 31
0.0
 12
144.764781
 22
125.25
 32
0.0
 13
144.764781
 23
125.25
 33
0.0
  0
ENDBLK
  8
0
  0
BLOCK
  8
0
  2
S71
 70
    64
 10
0.0
 20
0.0
 30
0.0
  3
S71
  0
POLYLINE
  8
111
 66
     1
 10
0.0
 20
0.0
 30
0.0
 70
     1
 40
0.5
 41
0.5
  0
VERTEX
  8
111
 10
-0.25
 20
0.0
 30
0.0
 42
1.0
  0
VERTEX
  8
111
 10
0.25
 20
0.0
 30
0.0
 42
1.0
  0
SEQEND
  8
111
  0
ENDBLK
  8
0
  0
BLOCK
  8
0
  2
S139
 70
    64
 10
0.0
 20
0.0
 30
0.0
  3
S139
  0
CIRCLE
  8
110
 10
-2.849249
 20
1.17817
 30
0.0
 40
1.25
  0
TEXT
  8
110
 10
-1.099249
 20
-0.07183
 30
0.0
 40
2.5
  1
/
  0
TEXT
  8
110
 10
1.650751
 20
-0.07183
 30
0.0
 40
2.5
  1
R
  0
ENDBLK
  8
0
  0
BLOCK
  8
0
  2
S65
 70
     0
 10
0.0
 20
0.0
 30
0.0
  3
S65
  0
CIRCLE
  8
111
 10
4.992005
 20
-10.0
 30
0.0
 40
7.5
  0
TEXT
  8
111
 10
4.20629
 20
-10.75
 30
0.0
 40
2.15
  1
M
  0
LINE
  8
103
 10
0.0
 20
-4.402689
 30
0.0
 11
0.0
 21
0.0
 31
0.0
  0
LINE
  8
103
 10
4.992005
 20
0.0
 30
0.0
 11
4.992005
 21
-2.5
 31
0.0
  0
LINE
  8
103
 10
9.992005
 20
0.0
 30
0.0
 11
10.000971
 21
-4.417862
 31
0.0
  0
TEXT
  8
108
 10
2.992005
 20
-1.322132
 30
0.0
 40
2.15
  1
U
 50
90.0
  0
TEXT
  8
108
 10
7.992005
 20
-1.322132
 30
0.0
 40
2.15
  1
V
 50
90.0
  0
TEXT
  8
108
 10
12.992005
 20
-1.322132
 30
0.0
 40
2.15
  1
W
 50
90.0
  0
ENDBLK
  8
0
  0
BLOCK
  8
0
  2
6648-2
 70
     2
 10
0.0
 20
0.0
 30
0.0
  3
6648-2
  0
LINE
  8
104
 10
15.0
 20
45.0
 30
0.0
 11
15.0
 21
67.5
 31
0.0
  0
LINE
  8
102
 10
31.689179
 20
52.5
 30
0.0
 11
31.689179
 21
42.5
 31
0.0
  0
LINE
  8
102
 10
26.697014
 20
52.5
 30
0.0
 11
26.697014
 21
42.5
 31
0.0
  0
LINE
  8
111
 10
28.0
 20
51.0
 30
0.0
 11
28.0
 21
49.0
 31
0.0
  0
LINE
  8
111
 10
21.5
 20
47.5
 30
0.0
 11
21.5
 21
52.5
 31
0.0
  0
LINE
  8
111
 10
23.0
 20
51.0
 30
0.0
 11
23.0
 21
49.0
 31
0.0
  0
LINE
  8
111
 10
33.0
 20
51.0
 30
0.0
 11
33.0
 21
49.0
 31
0.0
  0
LINE
  8
111
 10
36.5
 20
47.5
 30
0.0
 11
36.5
 21
52.5
 31
0.0
  0
LINE
  8
107
 10
52.5
 20
30.0
 30
0.0
 11
52.5
 21
85.0
 31
0.0
  0
LINE
  8
107
 10
2.5
 20
85.0
 30
0.0
 11
2.5
 21
30.0
 31
0.0
  0
TEXT
  8
02
 10
10.0
 20
6.75
 30
0.0
 40
2.2
  1
   MOTORSKYDDSBRYTARE
  7
ROMANS
  0
TEXT
  8
02
 10
10.0
 20
21.75
 30
0.0
 40
2.2
  1
Q1 MANUAL MOTORSTARTER
  7
ROMANS
  0
LINE
  8
107
 10
2.5
 20
30.0
 30
0.0
 11
52.5
 21
30.0
 31
0.0
  0
TEXT
  8
02
 10
10.0
 20
1.75
 30
0.0
 40
2.2
  1
   TYP MS 325
  7
ROMANS
  0
LINE
  8
104
 10
21.5
 20
50.0
 30
0.0
 11
15.0
 21
50.0
 31
0.0
  0
LINE
  8
104
 10
21.5
 20
45.0
 30
0.0
 11
15.0
 21
45.0
 31
0.0
  0
TEXT
  8
02
 10
10.0
 20
11.75
 30
0.0
 40
2.2
  1
   HANDMANVRERAD
  7
ROMANS
  0
TEXT
  8
02
 10
10.0
 20
16.75
 30
0.0
 40
2.2
  1
   TYPE MS 325 /
  7
ROMANS
  0
LINE
  8
111
 10
34.009971
 20
44.013741
 30
0.0
 11
36.045313
 21
44.823119
 31
0.0
  0
LINE
  8
111
 10
34.009971
 20
45.632497
 30
0.0
 11
36.045313
 21
44.823119
 31
0.0
  0
LINE
  8
111
 10
21.5
 20
47.5
 30
0.0
 11
36.5
 21
47.5
 31
0.0
  0
LINE
  8
111
 10
36.5
 20
42.5
 30
0.0
 11
21.5
 21
42.5
 31
0.0
  0
LINE
  8
111
 10
36.5
 20
47.5
 30
0.0
 11
21.5
 21
47.5
 31
0.0
  0
LINE
  8
111
 10
33.0
 20
49.0
 30
0.0
 11
35.0
 21
49.0
 31
0.0
  0
LINE
  8
103
 10
30.0
 20
42.5
 30
0.0
 11
30.0
 21
30.0
 31
0.0
  0
LINE
  8
103
 10
25.0
 20
42.5
 30
0.0
 11
25.0
 21
30.0
 31
0.0
  0
LINE
  8
111
 10
23.853835
 20
45.632497
 30
0.0
 11
25.889176
 21
44.823119
 31
0.0
  0
LINE
  8
111
 10
22.699285
 20
46.126074
 30
0.0
 11
22.699285
 21
43.5194
 31
0.0
  0
LINE
  8
111
 10
21.5
 20
42.5
 30
0.0
 11
21.5
 21
47.5
 31
0.0
  0
LINE
  8
111
 10
23.853835
 20
44.013741
 30
0.0
 11
25.889176
 21
44.823119
 31
0.0
  0
LINE
  8
111
 10
23.0
 20
49.0
 30
0.0
 11
25.0
 21
49.0
 31
0.0
  0
LINE
  8
111
 10
25.0
 20
49.0
 30
0.0
 11
25.0
 21
47.5
 31
0.0
  0
LINE
  8
111
 10
32.855421
 20
46.126074
 30
0.0
 11
32.855421
 21
43.5194
 31
0.0
  0
LINE
  8
111
 10
29.173716
 20
45.632497
 30
0.0
 11
31.209057
 21
44.823119
 31
0.0
  0
LINE
  8
111
 10
28.019165
 20
46.126074
 30
0.0
 11
28.019165
 21
43.5194
 31
0.0
  0
LINE
  8
111
 10
29.173716
 20
44.013741
 30
0.0
 11
31.209057
 21
44.823119
 31
0.0
  0
LINE
  8
111
 10
28.0
 20
49.0
 30
0.0
 11
30.0
 21
49.0
 31
0.0
  0
LINE
  8
111
 10
30.0
 20
49.0
 30
0.0
 11
30.0
 21
47.5
 31
0.0
  0
LINE
  8
103
 10
35.0
 20
42.5
 30
0.0
 11
35.0
 21
30.0
 31
0.0
  0
LINE
  8
111
 10
36.5
 20
42.5
 30
0.0
 11
36.5
 21
47.5
 31
0.0
  0
LINE
  8
111
 10
35.0
 20
49.0
 30
0.0
 11
35.0
 21
47.5
 31
0.0
  0
LINE
  8
107
 10
52.5
 20
85.0
 30
0.0
 11
2.5
 21
85.0
 31
0.0
  0
LINE
  8
104
 10
17.5
 20
70.0
 30
0.0
 11
48.553252
 21
70.042776
 31
0.0
  0
LINE
  8
104
 10
12.5
 20
70.0
 30
0.0
 11
5.0
 21
70.0
 31
0.0
  0
LINE
  8
102
 10
5.0
 20
70.0
 30
0.0
 11
5.0
 21
68.75
 31
0.0
  0
LINE
  8
102
 10
5.0
 20
70.0
 30
0.0
 11
5.0
 21
71.25
 31
0.0
  0
LINE
  8
102
 10
12.5
 20
70.0
 30
0.0
 11
17.5
 21
70.0
 31
0.0
  0
LINE
  8
102
 10
17.5
 20
72.5
 30
0.0
 11
12.5
 21
72.5
 31
0.0
  0
LINE
  8
102
 10
12.5
 20
67.5
 30
0.0
 11
17.5
 21
67.5
 31
0.0
  0
LINE
  8
102
 10
15.0
 20
72.5
 30
0.0
 11
15.0
 21
67.5
 31
0.0
  0
LINE
  8
102
 10
12.5
 20
72.5
 30
0.0
 11
12.5
 21
67.5
 31
0.0
  0
LINE
  8
102
 10
17.5
 20
67.5
 30
0.0
 11
17.5
 21
72.5
 31
0.0
  0
ATTDEF
  8
110
 10
6.143791
 20
73.894008
 30
0.0
 40
2.2
  1
K1
  3
Post vnster
  2
Q1
 70
     0
  7
ROMANS
  0
INSERT
  8
103
 66
     1
  2
XNC
 10
47.5
 20
62.5
 30
0.0
  0
ATTRIB
  8
110
 10
50.068221
 20
68.934423
 30
0.0
 40
2.2
  1

  2
POST
 70
     4
  7
ROMANS
  0
ATTRIB
  8
110
 10
39.171848
 20
68.934423
 30
0.0
 40
2.2
  1

  2
POST
 70
     4
  7
ROMANS
  0
ATTRIB
  8
110
 10
46.5
 20
62.5
 30
0.0
 40
2.2
  1
22
  2
UTTAG
 70
     4
 50
90.0
  7
ROMANS
  0
ATTRIB
  8
110
 10
46.5
 20
73.681844
 30
0.0
 40
2.2
  1
21
  2
UTTAG
 70
     4
 50
90.0
  7
ROMANS
  0
SEQEND
  8
103
  0
INSERT
  8
103
 66
     1
  2
XNO
 10
42.5
 20
62.5
 30
0.0
  0
ATTRIB
  8
110
 10
45.068221
 20
68.934423
 30
0.0
 40
2.2
  1

  2
POST
 70
     4
  7
ROMANS
  0
ATTRIB
  8
110
 10
34.171848
 20
68.934423
 30
0.0
 40
2.2
  1

  2
POST
 70
     4
  7
ROMANS
  0
ATTRIB
  8
110
 10
41.5
 20
62.5
 30
0.0
 40
2.2
  1
14
  2
UTTAG
 70
     4
 50
90.0
  7
ROMANS
  0
ATTRIB
  8
110
 10
41.5
 20
73.681844
 30
0.0
 40
2.2
  1
13
  2
UTTAG
 70
     4
 50
90.0
  7
ROMANS
  0
SEQEND
  8
103
  0
INSERT
  8
103
  2
XMC
 10
25.0
 20
62.5
 30
0.0
  0
LINE
  8
111
 10
21.5
 20
52.5
 30
0.0
 11
36.5
 21
52.5
 31
0.0
  0
LINE
  8
111
 10
35.0
 20
51.0
 30
0.0
 11
33.0
 21
51.0
 31
0.0
  0
LINE
  8
01
 10
30.0
 20
62.5
 30
0.0
 11
30.0
 21
57.5
 31
0.0
  0
LINE
  8
01
 10
25.0
 20
62.5
 30
0.0
 11
25.0
 21
57.5
 31
0.0
  0
LINE
  8
103
 10
25.0
 20
57.5
 30
0.0
 11
25.0
 21
52.5
 31
0.0
  0
LINE
  8
111
 10
25.0
 20
51.0
 30
0.0
 11
23.0
 21
51.0
 31
0.0
  0
LINE
  8
111
 10
25.0
 20
52.5
 30
0.0
 11
25.0
 21
51.0
 31
0.0
  0
LINE
  8
103
 10
30.0
 20
57.5
 30
0.0
 11
30.0
 21
52.5
 31
0.0
  0
LINE
  8
111
 10
30.0
 20
51.0
 30
0.0
 11
28.0
 21
51.0
 31
0.0
  0
LINE
  8
111
 10
30.0
 20
52.5
 30
0.0
 11
30.0
 21
51.0
 31
0.0
  0
LINE
  8
01
 10
35.0
 20
62.5
 30
0.0
 11
35.0
 21
57.5
 31
0.0
  0
LINE
  8
103
 10
35.0
 20
57.5
 30
0.0
 11
35.0
 21
52.5
 31
0.0
  0
LINE
  8
111
 10
35.0
 20
52.5
 30
0.0
 11
35.0
 21
51.0
 31
0.0
  0
LINE
  8
103
 10
30.0
 20
77.5
 30
0.0
 11
30.0
 21
85.0
 31
0.0
  0
LINE
  8
103
 10
25.0
 20
77.5
 30
0.0
 11
25.0
 21
85.0
 31
0.0
  0
LINE
  8
103
 10
35.0
 20
77.5
 30
0.0
 11
35.0
 21
85.0
 31
0.0
  0
ENDBLK
  8
0
  0
BLOCK
  8
0
  2
XMC
 70
    64
 10
0.0
 20
0.0
 30
0.0
  3
XMC
  0
LINE
  8
102
 10
10.0
 20
5.0
 30
0.0
 11
5.952949
 21
11.0
 31
0.0
  0
LINE
  8
103
 10
10.0
 20
15.0
 30
0.0
 11
10.0
 21
10.0
 31
0.0
  0
LINE
  8
103
 10
10.0
 20
0.0
 30
0.0
 11
10.0
 21
5.0
 31
0.0
  0
ARC
  8
102
 10
10.0
 20
11.0
 30
0.0
 40
1.0
 50
90.0
 51
270.0
  0
TEXT
  8
110
 10
9.0
 20
11.909302
 30
0.0
 40
2.2
  1
5/L3
 50
90.0
  7
ROMANS
  0
TEXT
  8
110
 10
9.0
 20
-2.764172
 30
0.0
 40
2.2
  1
6/T3
 50
90.0
  7
ROMANS
  0
LINE
  8
102
 10
5.0
 20
5.0
 30
0.0
 11
0.952949
 21
11.0
 31
0.0
  0
LINE
  8
103
 10
5.0
 20
15.0
 30
0.0
 11
5.0
 21
10.0
 31
0.0
  0
LINE
  8
103
 10
5.0
 20
0.0
 30
0.0
 11
5.0
 21
5.0
 31
0.0
  0
ARC
  8
102
 10
5.0
 20
11.0
 30
0.0
 40
1.0
 50
90.0
 51
270.0
  0
TEXT
  8
110
 10
4.0
 20
11.909302
 30
0.0
 40
2.2
  1
3/L2
 50
90.0
  7
ROMANS
  0
TEXT
  8
110
 10
4.0
 20
-2.764172
 30
0.0
 40
2.2
  1
4/T2
 50
90.0
  7
ROMANS
  0
TEXT
  8
110
 10
-1.0
 20
-2.764172
 30
0.0
 40
2.2
  1
2/T1
 50
90.0
  7
ROMANS
  0
TEXT
  8
110
 10
-1.0
 20
11.909302
 30
0.0
 40
2.2
  1
1/L1
 50
90.0
  7
ROMANS
  0
ARC
  8
102
 10
0.0
 20
11.0
 30
0.0
 40
1.0
 50
90.0
 51
270.0
  0
LINE
  8
103
 10
0.0
 20
0.0
 30
0.0
 11
0.0
 21
5.0
 31
0.0
  0
LINE
  8
103
 10
0.0
 20
15.0
 30
0.0
 11
0.0
 21
10.0
 31
0.0
  0
LINE
  8
102
 10
0.0
 20
5.0
 30
0.0
 11
-4.047051
 21
11.0
 31
0.0
  0
ENDBLK
  8
0
  0
BLOCK
  8
0
  2
6648-3
 70
     2
 10
0.0
 20
0.0
 30
0.0
  3
6648-3
  0
LINE
  8
102
 10
35.0
 20
131.75
 30
0.0
 11
120.0
 21
131.75
 31
0.0
  0
LINE
  8
102
 10
120.0
 20
104.25
 30
0.0
 11
25.0
 21
104.25
 31
0.0
  0
ATTDEF
  8
110
 10
96.5
 20
90.431844
 30
0.0
 40
2.2
  1
13
  3
Uttag 1
  2
13
 70
     4
 50
90.0
  7
ROMANS
  0
ATTDEF
  8
110
 10
96.5
 20
79.25
 30
0.0
 40
2.2
  1
14
  3
Uttag 2
  2
14
 70
     4
 50
90.0
  7
ROMANS
  0
LINE
  8
102
 10
97.5
 20
84.25
 30
0.0
 11
93.452949
 21
90.25
 31
0.0
  0
LINE
  8
102
 10
25.0
 20
109.25
 30
0.0
 11
102.5
 21
109.25
 31
0.0
  0
LINE
  8
106
 10
105.0
 20
41.75
 30
0.0
 11
32.5
 21
41.75
 31
0.0
  0
LINE
  8
106
 10
32.5
 20
71.75
 30
0.0
 11
105.0
 21
71.75
 31
0.0
  0
ATTDEF
  8
110
 10
96.5
 20
60.431844
 30
0.0
 40
2.2
  1
A1
  3
Uttag 1
  2
A1
 70
     0
 50
90.0
  7
ROMANS
  0
ATTDEF
  8
110
 10
96.5
 20
49.25
 30
0.0
 40
2.2
  1
A2
  3
Uttag 2
  2
A2
 70
     0
 50
90.0
  7
ROMANS
  0
INSERT
  8
102
 66
     1
  2
XC1
 10
97.5
 20
49.25
 30
0.0
 41
-1.0
  0
ATTRIB
  8
110
 10
107.5
 20
58.25
 30
0.0
 40
2.2
  1

  2
POST
 70
     0
  7
ROMANS
 71
     2
  0
ATTRIB
  8
110
 10
107.5
 20
55.684423
 30
0.0
 40
2.2
  1

  2
POST
 70
     0
  7
ROMANS
 71
     2
  0
ATTRIB
  8
110
 10
98.5
 20
49.25
 30
0.0
 40
2.2
  1

  2
UTTAG
 70
     0
 50
270.0
  7
ROMANS
 71
     2
  0
ATTRIB
  8
110
 10
98.5
 20
60.431844
 30
0.0
 40
2.2
  1

  2
UTTAG
 70
     0
 50
270.0
  7
ROMANS
 71
     2
  0
SEQEND
  8
102
  0
LINE
  8
102
 10
112.5
 20
96.75
 30
0.0
 11
62.5
 21
96.75
 31
0.0
  0
INSERT
  8
102
 66
     1
  2
XF31
 10
102.5
 20
111.75
 30
0.0
  0
ATTRIB
  8
102
 10
101.5
 20
121.75
 30
0.0
 40
2.2
  1
95
  2
ANSL
 70
     0
 50
90.0
  7
ROMANS
  0
ATTRIB
  8
102
 10
101.5
 20
111.75
 30
0.0
 40
2.2
  1
96
  2
ANSL
 70
     0
 50
90.0
  7
ROMANS
  0
ATTRIB
  8
102
 10
114.717518
 20
118.113341
 30
0.0
 40
2.2
  1
FR1
  2
POST
 70
     0
  7
ROMANS
  0
SEQEND
  8
102
  0
LINE
  8
102
 10
40.0
 20
1.75
 30
0.0
 11
112.5
 21
1.75
 31
0.0
  0
INSERT
  8
104
 66
     1
  2
S153
 10
7.5
 20
114.25
 30
0.0
  0
ATTRIB
  8
108
 10
6.5
 20
111.05
 30
0.0
 40
2.2
  1

  2
TEXTUV
 70
     0
 72
     2
 11
6.5
 21
111.05
 31
0.0
  0
ATTRIB
  8
108
 10
6.5
 20
115.25
 30
0.0
 40
2.2
  1

  2
TEXTV
 70
     0
 72
     2
 11
6.5
 21
115.25
 31
0.0
  0
ATTRIB
  8
108
 10
8.5
 20
111.05
 30
0.0
 40
2.2
  1
FR1
  2
TEXTUH
 70
     0
  0
ATTRIB
  8
108
 10
8.5
 20
115.25
 30
0.0
 40
2.2
  1

  2
TEXTH
 70
     0
  0
SEQEND
  8
104
  0
LINE
  8
102
 10
25.0
 20
104.25
 30
0.0
 11
25.0
 21
16.75
 31
0.0
  0
INSERT
  8
105
 66
     1
  2
XNC
 10
40.0
 20
21.75
 30
0.0
  0
ATTRIB
  8
110
 10
42.568221
 20
28.184423
 30
0.0
 40
2.2
  1

  2
POST
 70
     4
  7
ROMANS
  0
ATTRIB
  8
110
 10
31.671848
 20
28.184423
 30
0.0
 40
2.2
  1
KM3
  2
POST
 70
     4
  7
ROMANS
  0
ATTRIB
  8
110
 10
39.0
 20
21.75
 30
0.0
 40
2.2
  1
22
  2
UTTAG
 70
     4
 50
90.0
  7
ROMANS
  0
ATTRIB
  8
110
 10
39.0
 20
32.931844
 30
0.0
 40
2.2
  1
21
  2
UTTAG
 70
     4
 50
90.0
  7
ROMANS
  0
SEQEND
  8
105
  0
INSERT
  8
105
 66
     1
  2
XNC
 10
72.5
 20
21.75
 30
0.0
  0
ATTRIB
  8
110
 10
75.068221
 20
28.184423
 30
0.0
 40
2.2
  1

  2
POST
 70
     4
  7
ROMANS
  0
ATTRIB
  8
110
 10
64.171848
 20
28.184423
 30
0.0
 40
2.2
  1
KM2
  2
POST
 70
     4
  7
ROMANS
  0
ATTRIB
  8
110
 10
71.5
 20
21.75
 30
0.0
 40
2.2
  1
32X
  2
UTTAG
 70
     4
 50
90.0
  7
ROMANS
  0
ATTRIB
  8
110
 10
71.5
 20
32.931844
 30
0.0
 40
2.2
  1
31X
  2
UTTAG
 70
     4
 50
90.0
  7
ROMANS
  0
SEQEND
  8
105
  0
LINE
  8
102
 10
15.0
 20
1.75
 30
0.0
 11
40.0
 21
1.75
 31
0.0
  0
ATTDEF
  8
110
 10
29.171848
 20
10.684423
 30
0.0
 40
2.2
  1
K1
  3
Post vnster
  2
KM2
 70
     0
  7
ROMANS
  0
LINE
  8
102
 10
25.0
 20
16.75
 30
0.0
 11
7.5
 21
16.75
 31
0.0
  0
INSERT
  8
01
 66
     1
  2
S153
 10
24.5
 20
1.75
 30
0.0
  0
ATTRIB
  8
108
 10
23.5
 20
-1.45
 30
0.0
 40
2.2
  1

  2
TEXTUV
 70
     0
 72
     2
 11
23.5
 21
-1.45
 31
0.0
  0
ATTRIB
  8
108
 10
15.119048
 20
2.75
 30
0.0
 40
2.2
  1
KM1 
  2
TEXTV
 70
     0
 72
     2
 11
23.5
 21
2.75
 31
0.0
  0
ATTRIB
  8
108
 10
25.5
 20
-1.45
 30
0.0
 40
2.2
  1

  2
TEXTUH
 70
     0
  0
ATTRIB
  8
108
 10
25.5
 20
2.75
 30
0.0
 40
2.2
  1

  2
TEXTH
 70
     0
  0
SEQEND
  8
01
  0
TEXT
  8
11
 10
7.5
 20
2.351312
 30
0.0
 40
3.15
  1
N
  7
ROMANS
  0
LINE
  8
104
 10
15.0
 20
1.75
 30
0.0
 11
7.058038
 21
1.75
 31
0.0
  0
INSERT
  8
104
 66
     1
  2
S153
 10
7.5
 20
16.75
 30
0.0
  0
ATTRIB
  8
108
 10
6.5
 20
13.55
 30
0.0
 40
2.2
  1

  2
TEXTUV
 70
     0
 72
     2
 11
6.5
 21
13.55
 31
0.0
  0
ATTRIB
  8
108
 10
6.5
 20
17.75
 30
0.0
 40
2.2
  1

  2
TEXTV
 70
     0
 72
     2
 11
6.5
 21
17.75
 31
0.0
  0
ATTRIB
  8
108
 10
8.5
 20
13.55
 30
0.0
 40
2.2
  1
A1
  2
TEXTUH
 70
     0
  0
ATTRIB
  8
108
 10
8.5
 20
17.75
 30
0.0
 40
2.2
  1

  2
TEXTH
 70
     0
  0
SEQEND
  8
104
  0
INSERT
  8
104
 66
     1
  2
S153
 10
7.5
 20
21.75
 30
0.0
  0
ATTRIB
  8
108
 10
6.5
 20
18.55
 30
0.0
 40
2.2
  1

  2
TEXTUV
 70
     0
 72
     2
 11
6.5
 21
18.55
 31
0.0
  0
ATTRIB
  8
108
 10
6.5
 20
22.75
 30
0.0
 40
2.2
  1

  2
TEXTV
 70
     0
 72
     2
 11
6.5
 21
22.75
 31
0.0
  0
ATTRIB
  8
108
 10
8.5
 20
18.55
 30
0.0
 40
2.2
  1
KM1
  2
TEXTUH
 70
     0
  0
ATTRIB
  8
108
 10
8.5
 20
22.75
 30
0.0
 40
2.2
  1

  2
TEXTH
 70
     0
  0
SEQEND
  8
104
  0
ATTDEF
  8
110
 10
61.671848
 20
10.684423
 30
0.0
 40
2.2
  1
K1
  3
Post vnster
  2
KM3
 70
     0
  7
ROMANS
  0
LINE
  8
111
 10
43.0
 20
10.25
 30
0.0
 11
43.0
 21
13.25
 31
0.0
  0
LINE
  8
111
 10
37.0
 20
13.25
 30
0.0
 11
37.0
 21
10.25
 31
0.0
  0
LINE
  8
111
 10
37.0
 20
10.25
 30
0.0
 11
43.0
 21
10.25
 31
0.0
  0
INSERT
  8
102
  2
S71
 10
40.0
 20
1.75
 30
0.0
  0
ATTDEF
  8
110
 10
39.0
 20
4.25
 30
0.0
 40
2.2
  1
A2
  3
Uttag 2
  2
A2
 70
     0
 50
90.0
  7
ROMANS
  0
LINE
  8
111
 10
40.0
 20
4.25
 30
0.0
 11
40.0
 21
10.25
 31
0.0
  0
LINE
  8
102
 10
40.0
 20
4.25
 30
0.0
 11
40.0
 21
1.75
 31
0.0
  0
POINT
  8
NOD
 10
37.0
 20
11.75
 30
0.0
  0
POINT
  8
NOD
 10
43.0
 20
11.75
 30
0.0
  0
LINE
  8
111
 10
43.0
 20
13.25
 30
0.0
 11
37.0
 21
13.25
 31
0.0
  0
ATTDEF
  8
110
 10
39.0
 20
15.431844
 30
0.0
 40
2.2
  1
A1
  3
Uttag 1
  2
A1
 70
     0
 50
90.0
  7
ROMANS
  0
LINE
  8
111
 10
40.0
 20
13.25
 30
0.0
 11
40.0
 21
19.25
 31
0.0
  0
LINE
  8
102
 10
40.0
 20
21.75
 30
0.0
 11
40.0
 21
19.25
 31
0.0
  0
LINE
  8
111
 10
75.5
 20
10.25
 30
0.0
 11
75.5
 21
13.25
 31
0.0
  0
LINE
  8
111
 10
69.5
 20
13.25
 30
0.0
 11
69.5
 21
10.25
 31
0.0
  0
LINE
  8
111
 10
69.5
 20
10.25
 30
0.0
 11
75.5
 21
10.25
 31
0.0
  0
ATTDEF
  8
110
 10
71.5
 20
4.25
 30
0.0
 40
2.2
  1
A2
  3
Uttag 2
  2
A2
 70
     0
 50
90.0
  7
ROMANS
  0
POINT
  8
NOD
 10
69.5
 20
11.75
 30
0.0
  0
LINE
  8
111
 10
72.5
 20
4.25
 30
0.0
 11
72.5
 21
10.25
 31
0.0
  0
INSERT
  8
102
  2
S71
 10
72.5
 20
1.75
 30
0.0
  0
LINE
  8
102
 10
72.5
 20
4.25
 30
0.0
 11
72.5
 21
1.75
 31
0.0
  0
POINT
  8
NOD
 10
75.5
 20
11.75
 30
0.0
  0
LINE
  8
111
 10
75.5
 20
13.25
 30
0.0
 11
69.5
 21
13.25
 31
0.0
  0
ATTDEF
  8
110
 10
71.5
 20
15.431844
 30
0.0
 40
2.2
  1
A1
  3
Uttag 1
  2
A1
 70
     0
 50
90.0
  7
ROMANS
  0
LINE
  8
111
 10
72.5
 20
13.25
 30
0.0
 11
72.5
 21
19.25
 31
0.0
  0
LINE
  8
102
 10
72.5
 20
21.75
 30
0.0
 11
72.5
 21
19.25
 31
0.0
  0
LINE
  8
102
 10
62.5
 20
96.75
 30
0.0
 11
30.0
 21
96.75
 31
0.0
  0
LINE
  8
102
 10
40.0
 20
39.25
 30
0.0
 11
25.0
 21
39.25
 31
0.0
  0
LINE
  8
102
 10
25.0
 20
39.25
 30
0.0
 11
7.5
 21
39.25
 31
0.0
  0
INSERT
  8
104
 66
     1
  2
S153
 10
7.5
 20
39.25
 30
0.0
  0
ATTRIB
  8
108
 10
6.5
 20
36.05
 30
0.0
 40
2.2
  1

  2
TEXTUV
 70
     0
 72
     2
 11
6.5
 21
36.05
 31
0.0
  0
ATTRIB
  8
108
 10
6.5
 20
40.25
 30
0.0
 40
2.2
  1

  2
TEXTV
 70
     0
 72
     2
 11
6.5
 21
40.25
 31
0.0
  0
ATTRIB
  8
108
 10
8.5
 20
36.05
 30
0.0
 40
2.2
  1
21
  2
TEXTUH
 70
     0
  0
ATTRIB
  8
108
 10
8.5
 20
40.25
 30
0.0
 40
2.2
  1

  2
TEXTH
 70
     0
  0
SEQEND
  8
104
  0
INSERT
  8
104
 66
     1
  2
S153
 10
7.5
 20
44.25
 30
0.0
  0
ATTRIB
  8
108
 10
6.5
 20
41.05
 30
0.0
 40
2.2
  1

  2
TEXTUV
 70
     0
 72
     2
 11
6.5
 21
41.05
 31
0.0
  0
ATTRIB
  8
108
 10
6.5
 20
45.25
 30
0.0
 40
2.2
  1

  2
TEXTV
 70
     0
 72
     2
 11
6.5
 21
45.25
 31
0.0
  0
ATTRIB
  8
108
 10
8.5
 20
41.05
 30
0.0
 40
2.2
  1
KM3
  2
TEXTUH
 70
     0
  0
ATTRIB
  8
108
 10
8.5
 20
45.25
 30
0.0
 40
2.2
  1

  2
TEXTH
 70
     0
  0
SEQEND
  8
104
  0
LINE
  8
102
 10
30.0
 20
96.75
 30
0.0
 11
30.0
 21
74.25
 31
0.0
  0
LINE
  8
102
 10
25.0
 20
74.25
 30
0.0
 11
7.5
 21
74.25
 31
0.0
  0
INSERT
  8
104
 66
     1
  2
S153
 10
7.5
 20
74.25
 30
0.0
  0
ATTRIB
  8
108
 10
6.5
 20
71.05
 30
0.0
 40
2.2
  1

  2
TEXTUV
 70
     0
 72
     2
 11
6.5
 21
71.05
 31
0.0
  0
ATTRIB
  8
108
 10
6.5
 20
75.25
 30
0.0
 40
2.2
  1

  2
TEXTV
 70
     0
 72
     2
 11
6.5
 21
75.25
 31
0.0
  0
ATTRIB
  8
108
 10
8.5
 20
71.05
 30
0.0
 40
2.2
  1
13
  2
TEXTUH
 70
     0
  0
ATTRIB
  8
108
 10
8.5
 20
75.25
 30
0.0
 40
2.2
  1

  2
TEXTH
 70
     0
  0
SEQEND
  8
104
  0
INSERT
  8
104
 66
     1
  2
S153
 10
7.5
 20
79.25
 30
0.0
  0
ATTRIB
  8
108
 10
6.5
 20
76.05
 30
0.0
 40
2.2
  1

  2
TEXTUV
 70
     0
 72
     2
 11
6.5
 21
76.05
 31
0.0
  0
ATTRIB
  8
108
 10
6.5
 20
80.25
 30
0.0
 40
2.2
  1

  2
TEXTV
 70
     0
 72
     2
 11
6.5
 21
80.25
 31
0.0
  0
ATTRIB
  8
108
 10
8.5
 20
76.05
 30
0.0
 40
2.2
  1
KM1
  2
TEXTUH
 70
     0
  0
ATTRIB
  8
108
 10
8.5
 20
80.25
 30
0.0
 40
2.2
  1

  2
TEXTH
 70
     0
  0
SEQEND
  8
104
  0
LINE
  8
102
 10
30.0
 20
74.25
 30
0.0
 11
25.0
 21
74.25
 31
0.0
  0
LINE
  8
102
 10
7.5
 20
109.25
 30
0.0
 11
25.0
 21
109.25
 31
0.0
  0
INSERT
  8
104
 66
     1
  2
S153
 10
7.5
 20
109.25
 30
0.0
  0
ATTRIB
  8
108
 10
6.5
 20
106.05
 30
0.0
 40
2.2
  1

  2
TEXTUV
 70
     0
 72
     2
 11
6.5
 21
106.05
 31
0.0
  0
ATTRIB
  8
108
 10
6.5
 20
110.25
 30
0.0
 40
2.2
  1

  2
TEXTV
 70
     0
 72
     2
 11
6.5
 21
110.25
 31
0.0
  0
ATTRIB
  8
108
 10
8.5
 20
106.05
 30
0.0
 40
2.2
  1
96
  2
TEXTUH
 70
     0
  0
ATTRIB
  8
108
 10
8.5
 20
110.25
 30
0.0
 40
2.2
  1

  2
TEXTH
 70
     0
  0
SEQEND
  8
104
  0
LINE
  8
106
 10
32.5
 20
41.75
 30
0.0
 11
32.5
 21
71.75
 31
0.0
  0
ATTDEF
  8
110
 10
61.5
 20
65.431844
 30
0.0
 40
2.2
  1
15
  3
Uttag 1
  2
15
 70
     4
 50
90.0
  7
ROMANS
  0
LINE
  8
102
 10
62.5
 20
64.25
 30
0.0
 11
62.5
 21
86.75
 31
0.0
  0
LINE
  8
104
 10
94.5
 20
56.75
 30
0.0
 11
48.520108
 21
56.712759
 31
0.0
  0
LINE
  8
102
 10
72.5
 20
64.25
 30
0.0
 11
62.5
 21
64.25
 31
0.0
  0
ATTDEF
  8
110
 10
39.0
 20
42.931844
 30
0.0
 40
2.2
  1
15
  3
Uttag 1
  2
16
 70
     4
 50
90.0
  7
ROMANS
  0
LINE
  8
102
 10
40.0
 20
66.75
 30
0.0
 11
40.0
 21
36.75
 31
0.0
  0
INSERT
  8
104
  2
S71
 10
40.0
 20
39.25
 30
0.0
  0
LINE
  8
102
 10
47.5
 20
49.25
 30
0.0
 11
62.5
 21
49.25
 31
0.0
  0
INSERT
  8
105
 66
     1
  2
XNC1
 10
47.5
 20
49.25
 30
0.0
  0
ATTRIB
  8
102
 10
46.5
 20
60.431844
 30
0.0
 40
2.2
  1

  2
ANSL
 70
     0
 50
90.0
  7
ROMANS
  0
ATTRIB
  8
102
 10
46.5
 20
49.25
 30
0.0
 40
2.2
  1

  2
ANSL
 70
     0
 50
90.0
  7
ROMANS
  0
ATTRIB
  8
102
 10
37.5
 20
55.684423
 30
0.0
 40
2.2
  1

  2
POST
 70
     0
  7
ROMANS
  0
ATTRIB
  8
102
 10
52.5
 20
55.684423
 30
0.0
 40
2.2
  1

  2
POST
 70
     0
  7
ROMANS
  0
SEQEND
  8
105
  0
LINE
  8
102
 10
47.5
 20
66.75
 30
0.0
 11
40.0
 21
66.75
 31
0.0
  0
LINE
  8
102
 10
47.5
 20
64.25
 30
0.0
 11
47.5
 21
66.75
 31
0.0
  0
INSERT
  8
102
 66
     1
  2
XNO
 10
62.5
 20
49.25
 30
0.0
  0
ATTRIB
  8
110
 10
65.068221
 20
55.684423
 30
0.0
 40
2.2
  1

  2
POST
 70
     4
  7
ROMANS
  0
ATTRIB
  8
110
 10
54.171848
 20
55.684423
 30
0.0
 40
2.2
  1

  2
POST
 70
     4
  7
ROMANS
  0
ATTRIB
  8
110
 10
61.5
 20
49.25
 30
0.0
 40
2.2
  1

  2
UTTAG
 70
     4
 50
90.0
  7
ROMANS
  0
ATTRIB
  8
110
 10
61.5
 20
60.431844
 30
0.0
 40
2.2
  1

  2
UTTAG
 70
     4
 50
90.0
  7
ROMANS
  0
SEQEND
  8
102
  0
INSERT
  8
102
  2
S71
 10
62.5
 20
64.25
 30
0.0
  0
LINE
  8
102
 10
72.5
 20
49.25
 30
0.0
 11
72.5
 21
36.75
 31
0.0
  0
INSERT
  8
102
 66
     1
  2
XNO1
 10
72.5
 20
49.25
 30
0.0
  0
ATTRIB
  8
110
 10
77.5
 20
55.684423
 30
0.0
 40
2.2
  1

  2
POST
 70
     4
  7
ROMANS
  0
ATTRIB
  8
110
 10
61.986431
 20
55.684423
 30
0.0
 40
2.2
  1

  2
POST
 70
     4
  7
ROMANS
  0
ATTRIB
  8
110
 10
71.5
 20
49.25
 30
0.0
 40
2.2
  1

  2
UTTAG
 70
     4
 50
90.0
  7
ROMANS
  0
ATTRIB
  8
110
 10
71.5
 20
60.431844
 30
0.0
 40
2.2
  1

  2
UTTAG
 70
     4
 50
90.0
  7
ROMANS
  0
SEQEND
  8
102
  0
LINE
  8
102
 10
72.5
 20
64.25
 30
0.0
 11
72.5
 21
64.25
 31
0.0
  0
LINE
  8
102
 10
62.5
 20
86.75
 30
0.0
 11
62.5
 21
96.75
 31
0.0
  0
ATTDEF
  8
110
 10
35.068221
 20
68.184423
 30
0.0
 40
2.2
  1

  3
Post hger
  2
KT
 70
     4
  7
ROMANS
  0
INSERT
  8
106
  2
S71
 10
62.5
 20
96.75
 30
0.0
  0
ATTDEF
  8
110
 10
86.671848
 20
85.684423
 30
0.0
 40
2.2
  1
K1
  3
Post vnster
  2
KM2
 70
     4
  7
ROMANS
  0
LINE
  8
106
 10
15.0
 20
123.0
 30
0.0
 11
35.0
 21
123.0
 31
0.0
  0
LINE
  8
102
 10
7.5
 20
131.75
 30
0.0
 11
15.0
 21
131.75
 31
0.0
  0
INSERT
  8
01
 66
     1
  2
S153
 10
42.0
 20
126.75
 30
0.0
  0
ATTRIB
  8
108
 10
41.0
 20
123.55
 30
0.0
 40
2.2
  1

  2
TEXTUV
 70
     0
 72
     2
 11
41.0
 21
123.55
 31
0.0
  0
ATTRIB
  8
108
 10
37.438095
 20
127.75
 30
0.0
 40
2.2
  1
95
  2
TEXTV
 70
     0
 72
     2
 11
41.0
 21
127.75
 31
0.0
  0
ATTRIB
  8
108
 10
43.0
 20
123.55
 30
0.0
 40
2.2
  1

  2
TEXTUH
 70
     0
  0
ATTRIB
  8
108
 10
43.0
 20
127.75
 30
0.0
 40
2.2
  1

  2
TEXTH
 70
     0
  0
SEQEND
  8
01
  0
INSERT
  8
01
 66
     1
  2
S153
 10
42.0
 20
131.75
 30
0.0
  0
ATTRIB
  8
108
 10
41.0
 20
128.55
 30
0.0
 40
2.2
  1

  2
TEXTUV
 70
     0
 72
     2
 11
41.0
 21
128.55
 31
0.0
  0
ATTRIB
  8
108
 10
36.390476
 20
132.75
 30
0.0
 40
2.2
  1
FR1
  2
TEXTV
 70
     0
 72
     2
 11
41.0
 21
132.75
 31
0.0
  0
ATTRIB
  8
108
 10
43.0
 20
128.55
 30
0.0
 40
2.2
  1

  2
TEXTUH
 70
     0
  0
ATTRIB
  8
108
 10
43.0
 20
132.75
 30
0.0
 40
2.2
  1

  2
TEXTH
 70
     0
  0
SEQEND
  8
01
  0
LINE
  8
102
 10
97.5
 20
49.25
 30
0.0
 11
97.5
 21
1.75
 31
0.0
  0
LINE
  8
102
 10
112.5
 20
74.25
 30
0.0
 11
112.5
 21
19.25
 31
0.0
  0
ATTDEF
  8
110
 10
111.5
 20
15.431844
 30
0.0
 40
2.2
  1
A1
  3
Uttag 1
  2
A1
 70
     0
 50
90.0
  7
ROMANS
  0
ATTDEF
  8
110
 10
111.5
 20
4.25
 30
0.0
 40
2.2
  1
A2
  3
Uttag 2
  2
A2
 70
     0
 50
90.0
  7
ROMANS
  0
LINE
  8
111
 10
109.5
 20
10.25
 30
0.0
 11
115.5
 21
10.25
 31
0.0
  0
LINE
  8
111
 10
115.5
 20
13.25
 30
0.0
 11
109.5
 21
13.25
 31
0.0
  0
ATTDEF
  8
110
 10
101.671848
 20
10.684423
 30
0.0
 40
2.2
  1
K1
  3
Post vnster
  2
KM1
 70
     0
  7
ROMANS
  0
LINE
  8
111
 10
109.5
 20
13.25
 30
0.0
 11
109.5
 21
10.25
 31
0.0
  0
INSERT
  8
102
  2
S71
 10
97.5
 20
1.75
 30
0.0
  0
POINT
  8
NOD
 10
109.5
 20
11.75
 30
0.0
  0
LINE
  8
111
 10
115.5
 20
10.25
 30
0.0
 11
115.5
 21
13.25
 31
0.0
  0
LINE
  8
111
 10
112.5
 20
1.75
 30
0.0
 11
112.5
 21
10.25
 31
0.0
  0
POINT
  8
NOD
 10
115.5
 20
11.75
 30
0.0
  0
LINE
  8
111
 10
112.5
 20
13.25
 30
0.0
 11
112.5
 21
19.25
 31
0.0
  0
LINE
  8
102
 10
120.0
 20
24.25
 30
0.0
 11
120.0
 21
104.25
 31
0.0
  0
LINE
  8
106
 10
105.0
 20
71.75
 30
0.0
 11
105.0
 21
41.75
 31
0.0
  0
LINE
  8
102
 10
97.5
 20
79.25
 30
0.0
 11
97.5
 21
64.25
 31
0.0
  0
LINE
  8
102
 10
112.5
 20
24.25
 30
0.0
 11
120.0
 21
24.25
 31
0.0
  0
INSERT
  8
102
  2
S71
 10
112.5
 20
24.25
 30
0.0
  0
LINE
  8
102
 10
112.5
 20
26.75
 30
0.0
 11
112.5
 21
24.25
 31
0.0
  0
LINE
  8
102
 10
112.5
 20
94.25
 30
0.0
 11
112.5
 21
89.25
 31
0.0
  0
LINE
  8
102
 10
97.5
 20
94.25
 30
0.0
 11
97.5
 21
89.25
 31
0.0
  0
ATTDEF
  8
110
 10
111.5
 20
79.25
 30
0.0
 40
2.2
  1
14
  3
Uttag 2
  2
14
 70
     4
 50
90.0
  7
ROMANS
  0
LINE
  8
102
 10
112.5
 20
84.25
 30
0.0
 11
108.452949
 21
90.25
 31
0.0
  0
LINE
  8
102
 10
112.5
 20
74.25
 30
0.0
 11
97.5
 21
74.25
 31
0.0
  0
LINE
  8
102
 10
97.5
 20
79.25
 30
0.0
 11
97.5
 21
84.25
 31
0.0
  0
INSERT
  8
102
  2
S71
 10
97.5
 20
74.25
 30
0.0
  0
ATTDEF
  8
110
 10
101.671848
 20
85.684423
 30
0.0
 40
2.2
  1
K1
  3
Post vnster
  2
KM1
 70
     4
  7
ROMANS
  0
LINE
  8
102
 10
112.5
 20
79.25
 30
0.0
 11
112.5
 21
84.25
 31
0.0
  0
LINE
  8
102
 10
112.5
 20
79.25
 30
0.0
 11
112.5
 21
74.25
 31
0.0
  0
ATTDEF
  8
110
 10
111.5
 20
90.431844
 30
0.0
 40
2.2
  1
13
  3
Uttag 1
  2
13
 70
     4
 50
90.0
  7
ROMANS
  0
LINE
  8
102
 10
97.5
 20
94.25
 30
0.0
 11
97.5
 21
96.75
 31
0.0
  0
INSERT
  8
102
  2
S71
 10
97.5
 20
96.75
 30
0.0
  0
LINE
  8
102
 10
102.5
 20
111.75
 30
0.0
 11
102.5
 21
109.25
 31
0.0
  0
LINE
  8
102
 10
112.5
 20
94.25
 30
0.0
 11
112.5
 21
96.75
 31
0.0
  0
LINE
  8
102
 10
102.5
 20
126.75
 30
0.0
 11
102.5
 21
131.75
 31
0.0
  0
INSERT
  8
104
  2
S71
 10
102.5
 20
131.75
 30
0.0
  0
LINE
  8
106
 10
35.0
 20
140.5
 30
0.0
 11
15.0
 21
140.5
 31
0.0
  0
LINE
  8
104
 10
6.5
 20
131.75
 30
0.0
 11
-0.441962
 21
131.75
 31
0.0
  0
LINE
  8
106
 10
15.0
 20
140.5
 30
0.0
 11
15.0
 21
123.0
 31
0.0
  0
TEXT
  8
11
 10
0.0
 20
132.351312
 30
0.0
 40
3.15
  1
L
  7
ROMANS
  0
LINE
  8
106
 10
35.0
 20
123.0
 30
0.0
 11
35.0
 21
140.5
 31
0.0
  0
ENDBLK
  8
0
  0
BLOCK
  8
0
  2
XC1
 70
    66
 10
0.0
 20
0.0
 30
0.0
  3
XC1
  0
POINT
  8
NOD
 10
-3.0
 20
7.5
 30
0.0
  0
POINT
  8
NOD
 10
3.0
 20
7.5
 30
0.0
  0
LINE
  8
111
 10
0.0
 20
9.0
 30
0.0
 11
0.0
 21
15.0
 31
0.0
  0
LINE
  8
111
 10
0.0
 20
0.0
 30
0.0
 11
0.0
 21
6.0
 31
0.0
  0
LINE
  8
111
 10
-3.0
 20
9.0
 30
0.0
 11
-3.0
 21
6.0
 31
0.0
  0
LINE
  8
111
 10
3.0
 20
9.0
 30
0.0
 11
-3.0
 21
9.0
 31
0.0
  0
LINE
  8
111
 10
3.0
 20
6.0
 30
0.0
 11
3.0
 21
9.0
 31
0.0
  0
LINE
  8
111
 10
-3.0
 20
6.0
 30
0.0
 11
3.0
 21
6.0
 31
0.0
  0
ATTDEF
  8
110
 10
-10.0
 20
9.0
 30
0.0
 40
2.2
  1

  3
Post ver
  2
POST
 70
     0
  7
ROMANS
  0
ATTDEF
  8
110
 10
-10.0
 20
6.434423
 30
0.0
 40
2.2
  1
K1
  3
Post vnster
  2
POST
 70
     0
  7
ROMANS
  0
ATTDEF
  8
110
 10
-1.0
 20
0.0
 30
0.0
 40
2.2
  1
A2
  3
Uttag 2
  2
UTTAG
 70
     0
 50
90.0
  7
ROMANS
  0
ATTDEF
  8
110
 10
-1.0
 20
11.181844
 30
0.0
 40
2.2
  1
A1
  3
Uttag 1
  2
UTTAG
 70
     0
 50
90.0
  7
ROMANS
  0
LINE
  8
102
 10
-5.0
 20
6.0
 30
0.0
 11
-3.0
 21
9.0
 31
0.0
  0
LINE
  8
102
 10
-5.0
 20
9.0
 30
0.0
 11
-3.0
 21
6.0
 31
0.0
  0
LINE
  8
102
 10
-5.0
 20
9.0
 30
0.0
 11
-5.0
 21
6.0
 31
0.0
  0
LINE
  8
102
 10
-3.0
 20
6.0
 30
0.0
 11
-5.0
 21
6.0
 31
0.0
  0
LINE
  8
102
 10
-3.0
 20
9.0
 30
0.0
 11
-5.0
 21
9.0
 31
0.0
  0
ENDBLK
  8
0
  0
BLOCK
  8
0
  2
XF31
 70
    66
 10
0.0
 20
0.0
 30
0.0
  3
XF31
  0
ATTDEF
  8
102
 10
-1.0
 20
10.0
 30
0.0
 40
2.2
  1
95
  3
Anslutning
  2
ANSL
 70
     0
 50
90.0
  7
ROMANS
  0
ATTDEF
  8
102
 10
-1.0
 20
0.0
 30
0.0
 40
2.2
  1
96
  3
Anslutning
  2
ANSL
 70
     0
 50
90.0
  7
ROMANS
  0
ATTDEF
  8
102
 10
12.217518
 20
6.363341
 30
0.0
 40
2.2
  1
F3
  3
Post hger
  2
POST
 70
     0
  7
ROMANS
  0
INSERT
  8
110
  2
S139
 10
-24.627366
 20
14.150702
 30
0.0
 41
0.9
 42
0.9
 43
0.9
  0
LINE
  8
104
 10
-9.0
 20
15.5
 30
0.0
 11
-9.0
 21
8.5
 31
0.0
  0
LINE
  8
104
 10
-20.0
 20
15.5
 30
0.0
 11
-9.0
 21
15.5
 31
0.0
  0
LINE
  8
104
 10
-10.0
 20
14.5
 30
0.0
 11
-10.0
 21
10.0
 31
0.0
  0
LINE
  8
104
 10
-20.0
 20
14.5
 30
0.0
 11
-10.0
 21
14.5
 31
0.0
  0
LINE
  8
104
 10
1.449747
 20
8.5
 30
0.0
 11
-9.0
 21
8.5
 31
0.0
  0
LINE
  8
102
 10
-10.0
 20
8.5
 30
0.0
 11
-10.0
 21
12.5
 31
0.0
  0
LINE
  8
102
 10
-13.639956
 20
9.0
 30
0.0
 11
-11.139956
 21
7.5
 31
0.0
  0
LINE
  8
102
 10
-13.639956
 20
9.0
 30
0.0
 11
-13.639956
 21
7.5
 31
0.0
  0
LINE
  8
102
 10
-20.0
 20
12.5
 30
0.0
 11
-20.0
 21
17.5
 31
0.0
  0
LINE
  8
102
 10
-20.0
 20
17.5
 30
0.0
 11
-17.5
 21
17.5
 31
0.0
  0
LINE
  8
102
 10
-20.0
 20
12.5
 30
0.0
 11
-17.5
 21
12.5
 31
0.0
  0
LINE
  8
104
 10
7.5
 20
7.5
 30
0.0
 11
-15.0
 21
7.5
 31
0.0
  0
LINE
  8
102
 10
0.0
 20
5.0
 30
0.0
 11
0.0
 21
0.0
 31
0.0
  0
LINE
  8
102
 10
0.0
 20
10.0
 30
0.0
 11
0.0
 21
15.0
 31
0.0
  0
LINE
  8
102
 10
0.0
 20
5.0
 30
0.0
 11
2.485281
 21
11.0
 31
0.0
  0
LINE
  8
102
 10
0.0
 20
10.0
 30
0.0
 11
2.5
 21
10.0
 31
0.0
  0
LINE
  8
102
 10
10.0
 20
8.75
 30
0.0
 11
7.5
 21
8.75
 31
0.0
  0
LINE
  8
102
 10
7.5
 20
8.75
 30
0.0
 11
7.5
 21
6.25
 31
0.0
  0
LINE
  8
102
 10
7.5
 20
6.25
 30
0.0
 11
10.0
 21
6.25
 31
0.0
  0
LINE
  8
102
 10
10.0
 20
6.25
 30
0.0
 11
10.0
 21
3.75
 31
0.0
  0
LINE
  8
102
 10
10.0
 20
11.25
 30
0.0
 11
10.0
 21
8.75
 31
0.0
  0
ENDBLK
  8
0
  0
BLOCK
  8
0
  2
S153
 70
    66
 10
0.0
 20
0.0
 30
0.0
  3
S153
  0
POINT
  8
111
 10
0.0
 20
0.0
 30
0.0
  0
ATTDEF
  8
108
 10
-12.838095
 20
-3.2
 30
0.0
 40
2.2
  1

  3
4
  2
TEXTUV
 70
     0
 72
     2
 11
-1.0
 21
-3.2
 31
0.0
  0
ATTDEF
  8
108
 10
-12.52381
 20
1.0
 30
0.0
 40
2.2
  1

  3
3
  2
TEXTV
 70
     0
 72
     2
 11
-1.0
 21
1.0
 31
0.0
  0
ATTDEF
  8
108
 10
1.0
 20
-3.2
 30
0.0
 40
2.2
  1

  3
2
  2
TEXTUH
 70
     0
  0
ATTDEF
  8
108
 10
1.0
 20
1.0
 30
0.0
 40
2.2
  1

  3
1
  2
TEXTH
 70
     0
  0
ENDBLK
  8
0
  0
BLOCK
  8
0
  2
XNC1
 70
    66
 10
0.0
 20
0.0
 30
0.0
  3
XNC1
  0
ATTDEF
  8
102
 10
-1.0
 20
11.181844
 30
0.0
 40
2.2
  1
21
  3
Anslutning
  2
ANSL
 70
     0
 50
90.0
  7
ROMANS
  0
ATTDEF
  8
102
 10
-1.0
 20
0.0
 30
0.0
 40
2.2
  1
22
  3
Anslutning
  2
ANSL
 70
     0
 50
90.0
  7
ROMANS
  0
ATTDEF
  8
102
 10
-10.0
 20
6.434423
 30
0.0
 40
2.2
  1
K1
  3
Post vnster
  2
POST
 70
     0
  7
ROMANS
  0
ATTDEF
  8
102
 10
5.0
 20
6.434423
 30
0.0
 40
2.2
  1

  3
Post hger
  2
POST
 70
     0
  7
ROMANS
  0
ARC
  8
102
 10
-1.397458
 20
7.5
 30
0.0
 40
3.602542
 50
133.943963
 51
226.056037
  0
LINE
  8
102
 10
0.0
 20
10.0
 30
0.0
 11
2.5
 21
10.0
 31
0.0
  0
LINE
  8
102
 10
0.0
 20
5.0
 30
0.0
 11
2.485281
 21
11.0
 31
0.0
  0
LINE
  8
102
 10
0.0
 20
10.0
 30
0.0
 11
0.0
 21
15.0
 31
0.0
  0
LINE
  8
102
 10
0.0
 20
5.0
 30
0.0
 11
0.0
 21
0.0
 31
0.0
  0
LINE
  8
102
 10
-4.965134
 20
8.0
 30
0.0
 11
1.242641
 21
8.0
 31
0.0
  0
LINE
  8
102
 10
-4.965134
 20
7.0
 30
0.0
 11
0.828427
 21
7.0
 31
0.0
  0
ENDBLK
  8
0
  0
BLOCK
  8
0
  2
XNO1
 70
    66
 10
0.0
 20
0.0
 30
0.0
  3
XNO1
  0
LINE
  8
102
 10
0.0
 20
5.0
 30
0.0
 11
-4.047051
 21
11.0
 31
0.0
  0
LINE
  8
102
 10
0.0
 20
15.0
 30
0.0
 11
0.0
 21
10.0
 31
0.0
  0
LINE
  8
102
 10
0.0
 20
0.0
 30
0.0
 11
0.0
 21
5.0
 31
0.0
  0
ARC
  8
102
 10
-2.5
 20
7.5
 30
0.0
 40
3.602542
 50
133.943963
 51
226.056037
  0
LINE
  8
102
 10
-6.067675
 20
8.0
 30
0.0
 11
-2.023526
 21
8.0
 31
0.0
  0
LINE
  8
102
 10
-6.067675
 20
7.0
 30
0.0
 11
-1.349017
 21
7.0
 31
0.0
  0
ATTDEF
  8
110
 10
5.0
 20
6.434423
 30
0.0
 40
2.2
  1

  3
Post hger
  2
POST
 70
     4
  7
ROMANS
  0
ATTDEF
  8
110
 10
-10.513569
 20
6.434423
 30
0.0
 40
2.2
  1
K1
  3
Post vnster
  2
POST
 70
     4
  7
ROMANS
  0
ATTDEF
  8
110
 10
-1.0
 20
0.0
 30
0.0
 40
2.2
  1
14
  3
Uttag 2
  2
UTTAG
 70
     4
 50
90.0
  7
ROMANS
  0
ATTDEF
  8
110
 10
-1.0
 20
11.181844
 30
0.0
 40
2.2
  1
13
  3
Uttag 1
  2
UTTAG
 70
     4
 50
90.0
  7
ROMANS
  0
ENDBLK
  8
0
  0
BLOCK
  8
0
  2
6648-4
 70
     2
 10
0.0
 20
0.0
 30
0.0
  3
6648-4
  0
INSERT
  8
102
 66
     1
  2
XON
 10
18.973329
 20
0.43783
 30
0.0
  0
ATTRIB
  8
102
 10
21.576701
 20
6.872253
 30
0.0
 40
2.2
  1
 
  2
POST
 70
     0
  7
ROMANS
  0
ATTRIB
  8
102
 10
17.973329
 20
0.43783
 30
0.0
 40
2.2
  1

  2
ANSL
 70
     0
 50
90.0
  7
ROMANS
  0
ATTRIB
  8
102
 10
17.973329
 20
11.619675
 30
0.0
 40
2.2
  1

  2
ANSL
 70
     0
 50
90.0
  7
ROMANS
  0
SEQEND
  8
102
  0
ATTDEF
  8
110
 10
5.10382
 20
24.372253
 30
0.0
 40
2.2
  1
K9
  3
Post vnster
  2
0
 70
     4
  7
ROMANS
  0
LINE
  8
102
 10
18.973329
 20
22.93783
 30
0.0
 11
18.973329
 21
17.93783
 31
0.0
  0
LINE
  8
104
 10
18.973329
 20
12.93783
 30
0.0
 11
18.973329
 21
17.93783
 31
0.0
  0
INSERT
  8
102
  2
S71
 10
18.973329
 20
15.43783
 30
0.0
  0
LINE
  8
104
 10
8.973329
 20
25.43783
 30
0.0
 11
20.008863
 21
25.43783
 31
0.0
  0
LINE
  8
102
 10
8.973329
 20
22.93783
 30
0.0
 11
8.973329
 21
27.93783
 31
0.0
  0
LINE
  8
102
 10
8.973329
 20
22.93783
 30
0.0
 11
11.473329
 21
22.93783
 31
0.0
  0
LINE
  8
102
 10
8.973329
 20
27.93783
 30
0.0
 11
11.473329
 21
27.93783
 31
0.0
  0
LINE
  8
102
 10
18.973329
 20
22.93783
 30
0.0
 11
21.45861
 21
28.93783
 31
0.0
  0
LINE
  8
102
 10
18.973329
 20
27.93783
 30
0.0
 11
18.973329
 21
27.93783
 31
0.0
  0
LINE
  8
102
 10
18.973329
 20
27.93783
 30
0.0
 11
21.473329
 21
27.93783
 31
0.0
  0
ENDBLK
  8
0
  0
BLOCK
  8
0
  2
XON
 70
    66
 10
0.0
 20
0.0
 30
0.0
  3
XON
  0
INSERT
  8
102
  2
S138
 10
-12.984771
 20
6.268811
 30
0.0
  0
LINE
  8
102
 10
0.0
 20
5.0
 30
0.0
 11
-4.047051
 21
11.0
 31
0.0
  0
LINE
  8
102
 10
0.0
 20
15.0
 30
0.0
 11
0.0
 21
10.0
 31
0.0
  0
LINE
  8
102
 10
0.0
 20
0.0
 30
0.0
 11
0.0
 21
5.0
 31
0.0
  0
LINE
  8
102
 10
-10.0
 20
5.0
 30
0.0
 11
-10.0
 21
10.0
 31
0.0
  0
LINE
  8
102
 10
-10.0
 20
10.0
 30
0.0
 11
-7.5
 21
10.0
 31
0.0
  0
LINE
  8
102
 10
-10.0
 20
5.0
 30
0.0
 11
-7.5
 21
5.0
 31
0.0
  0
LINE
  8
104
 10
-10.0
 20
7.5
 30
0.0
 11
-1.686271
 21
7.5
 31
0.0
  0
ATTDEF
  8
102
 10
2.603373
 20
6.434423
 30
0.0
 40
2.2
  1
S1
  3
Post
  2
POST
 70
     0
  7
ROMANS
  0
ATTDEF
  8
102
 10
-1.0
 20
0.0
 30
0.0
 40
2.2
  1
08
  3
Anslutning
  2
ANSL
 70
     0
 50
90.0
  7
ROMANS
  0
ATTDEF
  8
102
 10
-1.0
 20
11.181844
 30
0.0
 40
2.2
  1
07
  3
Anslutning
  2
ANSL
 70
     0
 50
90.0
  7
ROMANS
  0
ENDBLK
  8
0
  0
BLOCK
  8
0
  2
S138
 70
    64
 10
0.0
 20
0.0
 30
0.0
  3
S138
  0
LINE
  8
110
 10
0.0
 20
0.0
 30
0.0
 11
0.0
 21
2.2
 31
0.0
  0
ENDBLK
  8
0
  0
BLOCK
  8
0
  2
LAMPA
 70
     0
 10
0.0
 20
0.0
 30
0.0
  3
LAMPA
  0
LINE
  8
104
 10
16.922258
 20
5.006201
 30
0.0
 11
36.922258
 21
5.006201
 31
0.0
  0
LINE
  8
104
 10
16.922258
 20
20.006201
 30
0.0
 11
36.922258
 21
20.006201
 31
0.0
  0
TEXT
  8
102
 10
6.922258
 20
22.506201
 30
0.0
 40
2.2
  1
SIGNALLAMPA
  7
ROMANS
  0
INSERT
  8
102
 66
     1
  2
XH1
 10
16.922258
 20
5.006201
 30
0.0
  0
ATTRIB
  8
102
 10
8.594105
 20
11.440624
 30
0.0
 40
2.2
  1

  2
POST
 70
     0
  7
ROMANS
  0
ATTRIB
  8
102
 10
15.922258
 20
16.188045
 30
0.0
 40
2.2
  1

  2
ANSL
 70
     0
 50
90.0
  7
ROMANS
  0
ATTRIB
  8
102
 10
15.922258
 20
5.006201
 30
0.0
 40
2.2
  1

  2
ANSL
 70
     0
 50
90.0
  7
ROMANS
  0
SEQEND
  8
102
  0
LINE
  8
102
 10
16.922258
 20
5.006201
 30
0.0
 11
16.922258
 21
5.006201
 31
0.0
  0
LINE
  8
102
 10
16.922258
 20
20.006201
 30
0.0
 11
16.922258
 21
20.006201
 31
0.0
  0
INSERT
  8
104
 66
     1
  2
S153
 10
31.922258
 20
20.006201
 30
0.0
  0
ATTRIB
  8
108
 10
30.922258
 20
16.806201
 30
0.0
 40
2.2
  1

  2
TEXTUV
 70
     0
 72
     2
 11
30.922258
 21
16.806201
 31
0.0
  0
ATTRIB
  8
108
 10
30.922258
 20
21.006201
 30
0.0
 40
2.2
  1

  2
TEXTV
 70
     0
 72
     2
 11
30.922258
 21
21.006201
 31
0.0
  0
ATTRIB
  8
108
 10
32.922258
 20
16.806201
 30
0.0
 40
2.2
  1
A1
  2
TEXTUH
 70
     0
  0
ATTRIB
  8
108
 10
32.922258
 20
21.006201
 30
0.0
 40
2.2
  1

  2
TEXTH
 70
     0
  0
SEQEND
  8
104
  0
INSERT
  8
104
 66
     1
  2
S153
 10
29.422258
 20
25.006201
 30
0.0
  0
ATTRIB
  8
108
 10
28.422258
 20
21.806201
 30
0.0
 40
2.2
  1

  2
TEXTUV
 70
     0
 72
     2
 11
28.422258
 21
21.806201
 31
0.0
  0
ATTRIB
  8
108
 10
28.422258
 20
26.006201
 30
0.0
 40
2.2
  1

  2
TEXTV
 70
     0
 72
     2
 11
28.422258
 21
26.006201
 31
0.0
  0
ATTRIB
  8
108
 10
30.422258
 20
21.806201
 30
0.0
 40
2.2
  1
KM1
  2
TEXTUH
 70
     0
  0
ATTRIB
  8
108
 10
30.422258
 20
26.006201
 30
0.0
 40
2.2
  1

  2
TEXTH
 70
     0
  0
SEQEND
  8
104
  0
INSERT
  8
104
 66
     1
  2
S153
 10
29.422258
 20
10.006201
 30
0.0
  0
ATTRIB
  8
108
 10
28.422258
 20
6.806201
 30
0.0
 40
2.2
  1

  2
TEXTUV
 70
     0
 72
     2
 11
28.422258
 21
6.806201
 31
0.0
  0
ATTRIB
  8
108
 10
28.422258
 20
11.006201
 30
0.0
 40
2.2
  1

  2
TEXTV
 70
     0
 72
     2
 11
28.422258
 21
11.006201
 31
0.0
  0
ATTRIB
  8
108
 10
30.422258
 20
6.806201
 30
0.0
 40
2.2
  1
KM1
  2
TEXTUH
 70
     0
  0
ATTRIB
  8
108
 10
30.422258
 20
11.006201
 30
0.0
 40
2.2
  1

  2
TEXTH
 70
     0
  0
SEQEND
  8
104
  0
TEXT
  8
102
 10
6.922258
 20
27.506201
 30
0.0
 40
2.2
  1
PILOT LAMP
  7
ROMANS
  0
INSERT
  8
104
 66
     1
  2
S153
 10
31.922258
 20
5.006201
 30
0.0
  0
ATTRIB
  8
108
 10
30.922258
 20
1.806201
 30
0.0
 40
2.2
  1

  2
TEXTUV
 70
     0
 72
     2
 11
30.922258
 21
1.806201
 31
0.0
  0
ATTRIB
  8
108
 10
30.922258
 20
6.006201
 30
0.0
 40
2.2
  1

  2
TEXTV
 70
     0
 72
     2
 11
30.922258
 21
6.006201
 31
0.0
  0
ATTRIB
  8
108
 10
32.922258
 20
1.806201
 30
0.0
 40
2.2
  1
A2
  2
TEXTUH
 70
     0
  0
ATTRIB
  8
108
 10
32.922258
 20
6.006201
 30
0.0
 40
2.2
  1

  2
TEXTH
 70
     0
  0
SEQEND
  8
104
  0
ENDBLK
  8
0
  0
BLOCK
  8
0
  2
XH1
 70
    66
 10
0.0
 20
0.0
 30
0.0
  3
XH1
  0
LINE
  8
111
 10
0.0
 20
15.0
 30
0.0
 11
0.0
 21
10.0
 31
0.0
  0
LINE
  8
111
 10
0.0
 20
0.0
 30
0.0
 11
0.0
 21
5.0
 31
0.0
  0
LINE
  8
111
 10
1.767767
 20
5.732233
 30
0.0
 11
-1.767767
 21
9.267767
 31
0.0
  0
LINE
  8
111
 10
-1.767767
 20
5.732233
 30
0.0
 11
1.767767
 21
9.267767
 31
0.0
  0
CIRCLE
  8
111
 10
0.0
 20
7.5
 30
0.0
 40
2.5
  0
ATTDEF
  8
102
 10
-8.328152
 20
6.434423
 30
0.0
 40
2.2
  1
H1
  3
Post
  2
POST
 70
     0
  7
ROMANS
  0
ATTDEF
  8
102
 10
-1.0
 20
11.181844
 30
0.0
 40
2.2
  1
X2
  3
Anslutning
  2
ANSL
 70
     0
 50
90.0
  7
ROMANS
  0
ATTDEF
  8
102
 10
-1.0
 20
0.0
 30
0.0
 40
2.2
  1
X1
  3
Anslutning
  2
ANSL
 70
     0
 50
90.0
  7
ROMANS
  0
ENDBLK
  8
0
  0
BLOCK
  8
0
  2
STKN
 70
     2
 10
0.0
 20
0.0
 30
0.0
  3
STKN
  0
LINE
  8
102
 10
15.0
 20
5.0
 30
0.0
 11
15.0
 21
0.0
 31
0.0
  0
LINE
  8
102
 10
15.0
 20
2.93783
 30
0.0
 11
15.0
 21
0.43783
 31
0.0
  0
LINE
  8
104
 10
5.0
 20
7.5
 30
0.0
 11
16.686271
 21
7.5
 31
0.0
  0
ATTDEF
  8
110
 10
1.130492
 20
6.169204
 30
0.0
 40
2.2
  1
K9
  3
Post vnster
  2
O
 70
     4
  7
ROMANS
  0
LINE
  8
102
 10
5.0
 20
5.0
 30
0.0
 11
5.0
 21
10.0
 31
0.0
  0
LINE
  8
102
 10
5.0
 20
5.0
 30
0.0
 11
7.5
 21
5.0
 31
0.0
  0
LINE
  8
102
 10
5.0
 20
10.0
 30
0.0
 11
7.5
 21
10.0
 31
0.0
  0
LINE
  8
102
 10
15.0
 20
15.0
 30
0.0
 11
15.0
 21
10.0
 31
0.0
  0
LINE
  8
102
 10
15.0
 20
10.0
 30
0.0
 11
20.0
 21
10.0
 31
0.0
  0
LINE
  8
102
 10
15.0
 20
5.0
 30
0.0
 11
19.047051
 21
11.0
 31
0.0
  0
LINE
  8
104
 10
15.0
 20
15.0
 30
0.0
 11
15.0
 21
17.5
 31
0.0
  0
ENDBLK
  8
0
  0
BLOCK
  8
0
  2
XP1
 70
    64
 10
0.0
 20
0.0
 30
0.0
  3
XP1
  0
LINE
  8
102
 10
0.0
 20
2.5
 30
0.0
 11
0.0
 21
0.75
 31
0.0
  0
CIRCLE
  8
102
 10
0.0
 20
0.0
 30
0.0
 40
0.75
  0
ENDBLK
  8
0
  0
BLOCK
  8
0
  2
XP3
 70
    64
 10
0.0
 20
0.0
 30
0.0
  3
XP3
  0
LINE
  8
102
 10
0.0
 20
-2.5
 30
0.0
 11
0.0
 21
-0.75
 31
0.0
  0
CIRCLE
  8
102
 10
0.0
 20
0.0
 30
0.0
 40
0.75
  0
LINE
  8
102
 10
0.0
 20
2.5
 30
0.0
 11
0.0
 21
0.75
 31
0.0
  0
ENDBLK
  8
0
  0
ENDSEC
  0
SECTION
  2
ENTITIES
  0
VIEWPORT
  8
0
 67
     1
 68
     1
 10
6.150838
 20
4.5
 30
0.0
 40
12.301676
 41
9.0
 69
     1
1001
ACAD
1000
MVIEW
1002
{
1070
    16
1010
0.0
1020
0.0
1030
0.0
1010
0.0
1020
0.0
1030
1.0
1040
0.0
1040
9.0
1040
6.150838
1040
4.5
1040
50.0
1040
0.0
1040
0.0
1070
     0
1070
   200
1070
     1
1070
     1
1070
     0
1070
     0
1070
     0
1070
     0
1040
0.0
1040
0.0
1040
0.0
1040
5.0
1040
5.0
1040
10.0
1040
10.0
1070
     0
1002
{
1002
}
1002
}
  0
POINT
  8
MASTERLINE_CFG
 62
     7
 10
0.0
 20
0.0
 30
0.0
1001
MASTERLINE_CFG
1000
MEKVERSION
1000
12
1000
ITEMLISTHEAD
1000
shuv6
1000
ITEMLISTROW
1000
skol6
1000
ITEMLISTTEMPLATE
1000
kol6
1000
ITEMLISTDISTHEAD
1000
7
1000
ITEMLISTDISTROW
1000
5
1000
ITEMLISTSUM
1000
0
1000
ITEMLISTSUMCOLUMNS
1000
,2,
1000
DWGNAME
1000
A3EL
1000
CFGVER
1000
12
1000
DRAWINGSCALE
1000
1
1000
MDIM_MLDIMEXO
1000
12
1000
FORMATTYPE
1000
A3L
1000
HEADNAME
1000
A3EL
1000
AUTOUPDATE_FROM_DMI
1000
1
1000
AUTOUPDATE_TO_DMI
1000
1
1000
AUTOINSERT
1000
0
1000
FRAMEEXPLODE
1000
0
1000
FORMATNAME
1000

1000
FORMSET
1000

1000
LGRAUTOLOCK
1000
1
1000
REVLISTROW
1000
o:\mek12\msc\rev1
1000
REVBLOCK
1000
revring
1000
REVRADIUS
1000
5
1000
MDIM_PARATEXT
1000
1
1000
ARROWHEAD
1000
pilhuvud
1000
TOLPREC
1000
2
1000
TOLDIMZIN
1000
8
1000
POSBLOCK
1000
pos
1000
POSRADIUS
1000
7
1000
POSSHAPE
1000
1
1000
POSENDBLOCK
1000
ARROW
1001
MASTERLINE_CFG_LAYER
1000
LAYERDESC_16
1000
Info
1000
COLOR_16
1000
7
1000
LINETYPE_16
1000
CONTINUOUS
1000
LAYER_16
1000
16
1000
LAYERDESC_15
1000
Ritram
1000
COLOR_15
1000
5
1000
LINETYPE_15
1000
CONTINUOUS
1000
LAYER_15
1000
15
1000
LAYERDESC_14
1000
Konstrunktion
1000
COLOR_14
1000
7
1000
LINETYPE_14
1000
CONTINUOUS
1000
LAYER_14
1000
14
1000
LAYERDESC_13
1000
Heldragen fin
1000
COLOR_13
1000
7
1000
LINETYPE_13
1000
CONTINUOUS
1000
LAYER_13
1000
13
1000
LAYERDESC_12
1000
Dimensionstext
1000
COLOR_12
1000
7
1000
LINETYPE_12
1000
CONTINUOUS
1000
LAYER_12
1000
12
1000
LAYERDESC_11
1000
Text
1000
COLOR_11
1000
7
1000
LINETYPE_11
1000
CONTINUOUS
1000
LAYER_11
1000
11
1000
LAYERDESC_10
1000
Snittmarkering
1000
COLOR_10
1000
1
1000
LINETYPE_10
1000
CONTINUOUS
1000
LAYER_10
1000
10
1000
LAYERDESC_9
1000
Position
1000
COLOR_9
1000
2
1000
LINETYPE_9
1000
CONTINUOUS
1000
LAYER_9
1000
09
1000
LAYERDESC_8
1000
Mttsttning
1000
COLOR_8
1000
2
1000
LINETYPE_8
1000
CONTINUOUS
1000
LAYER_8
1000
08
1000
LAYERDESC_7
1000
Dubbelpunktstreckad fin
1000
COLOR_7
1000
6
1000
LINETYPE_7
1000
PHANTOM
1000
LAYER_7
1000
07
1000
LAYERDESC_6
1000
Punktstreckad grov
1000
COLOR_6
1000
3
1000
LINETYPE_6
1000
DASHDOT
1000
LAYER_6
1000
06
1000
LAYERDESC_5
1000
Centrumlinje
1000
COLOR_5
1000
6
1000
LINETYPE_5
1000
DASHDOT
1000
LAYER_5
1000
05
1000
LAYERDESC_4
1000
Streckad fin
1000
COLOR_4
1000
4
1000
LINETYPE_4
1000
HIDDEN
1000
LAYER_4
1000
04
1000
LAYERDESC_3
1000
Streckad grov
1000
COLOR_3
1000
3
1000
LINETYPE_3
1000
HIDDEN
1000
LAYER_3
1000
03
1000
LAYERDESC_2
1000
Heldragen fin
1000
COLOR_2
1000
1
1000
LINETYPE_2
1000
CONTINUOUS
1000
LAYER_2
1000
02
1000
LAYERDESC_1
1000
Heldragen grov
1000
COLOR_1
1000
3
1000
LINETYPE_1
1000
CONTINUOUS
1000
LAYER_1
1000
01
1000
GROUPDESC_0
1000

1000
GROUP_0
1000

1000
ACTIVE_GROUP
1000

1000
LAYERMODE
1000
1
  0
INSERT
  8
01
 66
     1
  2
A3EL
 10
0.0
 20
0.0
 30
0.0
  0
ATTRIB
  8
110
 62
     3
 10
311.666667
 20
5.75
 30
0.0
 40
5.0
  1
5332 170-4
  2
DOCNO
 70
     0
 41
0.7
  7
ROMANS
 72
     4
 11
329.0
 21
8.25
 31
0.0
  0
ATTRIB
  8
110
 10
216.5
 20
17.25
 30
0.0
 40
2.5
  1
CIRCUIT DIAGRAM
  2
DOCTYPE
 70
     0
 41
0.8
  7
ROMANS
  0
ATTRIB
  8
110
 10
370.28471
 20
24.218725
 30
0.0
 40
2.5
  1
7599
  2
FILENAME
 70
     0
 41
0.8
  7
ROMANS
 72
     2
 11
377.522806
 21
24.218725
 31
0.0
  0
ATTRIB
  8
110
 10
216.5
 20
13.0
 30
0.0
 40
2.5
  1
REVERSING STARTER
  2
TITLE1
 70
     0
 41
0.8
  7
ROMANS
  0
ATTRIB
  8
110
 10
216.5
 20
8.75
 30
0.0
 40
2.5
  1
FRAM-BACKKOPPLARE
  2
TITLE2
 70
     0
 41
0.8
  7
ROMANS
  0
ATTRIB
  8
110
 10
268.635145
 20
1.521977
 30
0.0
 40
2.0
  1
SECRL/AU
  2
RESPDEPT
 70
     0
 41
0.8
  7
ROMANS
  0
ATTRIB
  8
110
 10
283.511994
 20
1.521977
 30
0.0
 40
2.0
  1
00
  2
ISSYEAR
 70
     0
 41
0.8
  7
ROMANS
 72
     1
 11
285.035804
 21
1.521977
 31
0.0
  0
ATTRIB
  8
110
 10
289.397709
 20
1.521977
 30
0.0
 40
2.0
  1
12
  2
ISSWEEK
 70
     0
 41
0.8
  7
ROMANS
 72
     1
 11
291.035804
 21
1.521977
 31
0.0
  0
ATTRIB
  8
110
 10
297.5
 20
1.5
 30
0.0
 40
2.0
  1
ISSUED
  2
STATUS
 70
     0
 41
0.8
  7
ROMANS
  0
ATTRIB
  8
110
 10
180.5
 20
15.272399
 30
0.0
 40
2.5
  1
J Wåhrenberg
  2
APPROVED
 70
     0
 41
0.8
  7
ROMANS
  0
ATTRIB
  8
110
 10
180.5
 20
8.272399
 30
0.0
 40
2.5
  1
J Wåhrenberg
  2
PREPARED
 70
     0
 41
0.8
  7
ROMANS
  0
ATTRIB
  8
110
 10
180.5
 20
1.225889
 30
0.0
 40
2.5
  1
M Ytterberg
  2
DRAWNBY
 70
     0
 41
0.8
  7
ROMANS
  0
ATTRIB
  8
110
 10
2.633082
 20
270.33846
 30
0.0
 40
2.5
  1
VNA/WEA 145-300
  2
TYPE
 70
     0
 41
0.8
  7
ROMANS
  0
ATTRIB
  8
110
 10
363.937332
 20
8.831832
 30
0.0
 40
2.5
  1
82
  2
LANG
 70
     0
 41
0.8
  7
ROMANS
 72
     4
 11
365.842094
 21
10.081832
 31
0.0
  0
ATTRIB
  8
110
 10
365.929663
 20
2.528552
 30
0.0
 40
2.5
  1

  2
REVISION
 70
     0
 41
0.8
  7
ROMANS
 72
     4
 11
365.929663
 21
2.528552
 31
0.0
  0
ATTRIB
  8
110
 10
376.690476
 20
8.772399
 30
0.0
 40
2.5
  1
1
  2
SHEET
 70
     0
 41
0.8
  7
ROMANS
 72
     1
 11
377.5
 21
8.772399
 31
0.0
  0
ATTRIB
  8
110
 10
376.261905
 20
1.247159
 30
0.0
 40
2.5
  1
-
  2
CONT
 70
     0
 41
0.8
  7
ROMANS
 72
     1
 11
377.5
 21
1.247159
 31
0.0
  0
SEQEND
  8
01
  0
INSERT
  8
01
  2
WA3SCH
 10
0.0
 20
0.0
 30
0.0
  0
INSERT
  8
01
 66
     1
  2
REV3EL
 10
132.5
 20
125.0
 30
0.0
  0
ATTRIB
  8
110
 10
136.5
 20
127.125
 30
0.0
 40
2.0
  1

  2
REVIND
 70
     0
 41
0.8
  7
ROMANS
 72
     4
 11
136.5
 21
127.125
 31
0.0
  0
ATTRIB
  8
110
 10
141.450872
 20
126.138214
 30
0.0
 40
2.0
  1

  2
REVTEXT
 70
     0
 41
0.8
  7
ROMANS
  0
ATTRIB
  8
110
 10
211.61645
 20
125.9
 30
0.0
 40
2.0
  1

  2
APPD
 70
     0
 41
0.8
  7
ROMANS
 72
     1
 11
211.61645
 21
125.9
 31
0.0
  0
ATTRIB
  8
110
 10
219.0
 20
125.9
 30
0.0
 40
2.0
  1

  2
REVYEAR
 70
     0
 41
0.8
  7
ROMANS
 72
     1
 11
219.0
 21
125.9
 31
0.0
  0
ATTRIB
  8
110
 10
226.0
 20
125.9
 30
0.0
 40
2.0
  1

  2
REVWEEK
 70
     0
 41
0.8
  7
ROMANS
 72
     1
 11
226.0
 21
125.9
 31
0.0
  0
SEQEND
  8
01
  0
POINT
  8
MASTERLINE_CFG
 62
     7
 10
412.5
 20
0.0
 30
0.0
1001
MASTERLINE_CFG
1000
MEKVERSION
1000
12
1000
ITEMLISTHEAD
1000
shuv6
1000
ITEMLISTROW
1000
skol6
1000
ITEMLISTTEMPLATE
1000
kol6
1000
ITEMLISTDISTHEAD
1000
7
1000
ITEMLISTDISTROW
1000
5
1000
ITEMLISTSUM
1000
0
1000
ITEMLISTSUMCOLUMNS
1000
,2,
1000
DWGNAME
1000
6648
1000
CFGVER
1000
12
1000
DRAWINGSCALE
1000
1
1000
MDIM_MLDIMEXO
1000
12
1000
FORMATTYPE
1000
A3L
1000
HEADNAME
1000
A3EL
1000
AUTOUPDATE_FROM_DMI
1000
1
1000
AUTOUPDATE_TO_DMI
1000
1
1000
AUTOINSERT
1000
0
1000
FRAMEEXPLODE
1000
0
1000
FORMATNAME
1000

1000
FORMSET
1000

1000
LGRAUTOLOCK
1000
1
1000
REVLISTROW
1000
o:\mek12\msc\rev1
1000
REVBLOCK
1000
revring
1000
REVRADIUS
1000
5
1000
MDIM_PARATEXT
1000
1
1000
ARROWHEAD
1000
pilhuvud
1000
TOLPREC
1000
2
1000
TOLDIMZIN
1000
8
1000
POSBLOCK
1000
pos
1000
POSRADIUS
1000
7
1000
POSSHAPE
1000
1
1000
POSENDBLOCK
1000
ARROW
1001
MASTERLINE_CFG_LAYER
1000
LAYERDESC_16
1000
Info
1000
COLOR_16
1000
7
1000
LINETYPE_16
1000
CONTINUOUS
1000
LAYER_16
1000
16
1000
LAYERDESC_15
1000
Ritram
1000
COLOR_15
1000
5
1000
LINETYPE_15
1000
CONTINUOUS
1000
LAYER_15
1000
15
1000
LAYERDESC_14
1000
Konstrunktion
1000
COLOR_14
1000
7
1000
LINETYPE_14
1000
CONTINUOUS
1000
LAYER_14
1000
14
1000
LAYERDESC_13
1000
Heldragen fin
1000
COLOR_13
1000
7
1000
LINETYPE_13
1000
CONTINUOUS
1000
LAYER_13
1000
13
1000
LAYERDESC_12
1000
Dimensionstext
1000
COLOR_12
1000
7
1000
LINETYPE_12
1000
CONTINUOUS
1000
LAYER_12
1000
12
1000
LAYERDESC_11
1000
Text
1000
COLOR_11
1000
7
1000
LINETYPE_11
1000
CONTINUOUS
1000
LAYER_11
1000
11
1000
LAYERDESC_10
1000
Snittmarkering
1000
COLOR_10
1000
1
1000
LINETYPE_10
1000
CONTINUOUS
1000
LAYER_10
1000
10
1000
LAYERDESC_9
1000
Position
1000
COLOR_9
1000
2
1000
LINETYPE_9
1000
CONTINUOUS
1000
LAYER_9
1000
09
1000
LAYERDESC_8
1000
Mttsttning
1000
COLOR_8
1000
2
1000
LINETYPE_8
1000
CONTINUOUS
1000
LAYER_8
1000
08
1000
LAYERDESC_7
1000
Dubbelpunktstreckad fin
1000
COLOR_7
1000
6
1000
LINETYPE_7
1000
PHANTOM
1000
LAYER_7
1000
07
1000
LAYERDESC_6
1000
Punktstreckad grov
1000
COLOR_6
1000
3
1000
LINETYPE_6
1000
DASHDOT
1000
LAYER_6
1000
06
1000
LAYERDESC_5
1000
Centrumlinje
1000
COLOR_5
1000
6
1000
LINETYPE_5
1000
DASHDOT
1000
LAYER_5
1000
05
1000
LAYERDESC_4
1000
Streckad fin
1000
COLOR_4
1000
4
1000
LINETYPE_4
1000
HIDDEN
1000
LAYER_4
1000
04
1000
LAYERDESC_3
1000
Streckad grov
1000
COLOR_3
1000
3
1000
LINETYPE_3
1000
HIDDEN
1000
LAYER_3
1000
03
1000
LAYERDESC_2
1000
Heldragen fin
1000
COLOR_2
1000
1
1000
LINETYPE_2
1000
CONTINUOUS
1000
LAYER_2
1000
02
1000
LAYERDESC_1
1000
Heldragen grov
1000
COLOR_1
1000
3
1000
LINETYPE_1
1000
CONTINUOUS
1000
LAYER_1
1000
01
1000
GROUPDESC_0
1000

1000
GROUP_0
1000

1000
ACTIVE_GROUP
1000

1000
LAYERMODE
1000
1
  0
LINE
  8
106
 10
100.0
 20
185.0
 30
0.0
 11
217.5
 21
185.0
 31
0.0
  0
LINE
  8
106
 10
217.5
 20
270.0
 30
0.0
 11
100.0
 21
270.0
 31
0.0
  0
LINE
  8
106
 10
100.0
 20
270.0
 30
0.0
 11
100.0
 21
185.0
 31
0.0
  0
LINE
  8
103
 10
194.540196
 20
255.0
 30
0.0
 11
131.395643
 21
255.0
 31
0.0
  0
LINE
  8
103
 10
189.593384
 20
260.0
 30
0.0
 11
126.645643
 21
260.0
 31
0.0
  0
LINE
  8
103
 10
184.589075
 20
265.0
 30
0.0
 11
121.395643
 21
265.0
 31
0.0
  0
LINE
  8
104
 10
146.630402
 20
206.481206
 30
0.0
 11
157.630402
 21
206.481206
 31
0.0
  0
LINE
  8
104
 10
174.130402
 20
198.481206
 30
0.0
 11
127.5
 21
198.481206
 31
0.0
  0
INSERT
  8
01
 66
     1
  2
XNO
 10
142.343384
 20
230.0
 30
0.0
  0
ATTRIB
  8
110
 10
144.911605
 20
236.434423
 30
0.0
 40
2.2
  1

  2
POST
 70
     4
  7
ROMANS
  0
ATTRIB
  8
110
 10
134.015232
 20
236.434423
 30
0.0
 40
2.2
  1

  2
POST
 70
     4
  7
ROMANS
  0
ATTRIB
  8
110
 10
141.343384
 20
230.0
 30
0.0
 40
2.2
  1
14X
  2
UTTAG
 70
     4
 50
90.0
  7
ROMANS
  0
ATTRIB
  8
110
 10
141.343384
 20
241.181844
 30
0.0
 40
2.2
  1
13X
  2
UTTAG
 70
     4
 50
90.0
  7
ROMANS
  0
SEQEND
  8
01
  0
LINE
  8
111
 10
108.145643
 20
239.0
 30
0.0
 11
108.145643
 21
236.0
 31
0.0
  0
LINE
  8
111
 10
114.145643
 20
236.0
 30
0.0
 11
114.145643
 21
239.0
 31
0.0
  0
LINE
  8
11
 10
118.895643
 20
240.0
 30
0.0
 11
121.060233
 21
235.67082
 31
0.0
  0
LINE
  8
11
 10
123.895643
 20
240.0
 30
0.0
 11
126.060233
 21
235.67082
 31
0.0
  0
LINE
  8
11
 10
128.895643
 20
240.0
 30
0.0
 11
131.060233
 21
235.67082
 31
0.0
  0
ATTDEF
  8
110
 10
101.258636
 20
236.434423
 30
0.0
 40
2.2
  1
K1
  3
Post vnster
  2
KM2
 70
     0
  7
ROMANS
  0
LINE
  8
105
  6
CONTINUOUS
 10
126.395643
 20
222.5
 30
0.0
 11
126.395643
 21
216.112321
 31
0.0
  0
LINE
  8
104
 10
130.145643
 20
237.5
 30
0.0
 11
150.10758
 21
237.529964
 31
0.0
  0
LINE
  8
103
 10
126.395643
 20
230.0
 30
0.0
 11
126.395643
 21
216.112321
 31
0.0
  0
LINE
  8
103
 10
131.395643
 20
230.0
 30
0.0
 11
131.395643
 21
220.961929
 31
0.0
  0
CIRCLE
  8
11
 10
121.395643
 20
235.0
 30
0.0
 40
0.75
  0
LINE
  8
4
 10
114.145643
 20
237.5
 30
0.0
 11
130.145643
 21
237.5
 31
0.0
  0
LINE
  8
103
 10
121.395643
 20
230.0
 30
0.0
 11
121.395643
 21
210.939405
 31
0.0
  0
TEXT
  8
8
 10
120.663082
 20
224.536424
 30
0.0
 40
2.15
  1
2/T1
 50
90.0
  0
LINE
  8
111
 10
108.145643
 20
236.0
 30
0.0
 11
114.145643
 21
236.0
 31
0.0
  0
LINE
  8
111
 10
111.145643
 20
230.0
 30
0.0
 11
111.145643
 21
236.0
 31
0.0
  0
ATTDEF
  8
110
 10
106.645643
 20
229.0
 30
0.0
 40
2.2
  1
A2
  3
Uttag 2
  2
A2
 70
     0
  7
ROMANS
  0
POINT
  8
NOD
 10
108.145643
 20
237.5
 30
0.0
  0
LINE
  8
3
 10
121.395643
 20
230.0
 30
0.0
 11
121.395643
 21
234.25
 31
0.0
  0
POINT
  8
NOD
 10
114.145643
 20
237.5
 30
0.0
  0
TEXT
  8
8
 10
125.663082
 20
224.536424
 30
0.0
 40
2.15
  1
4/T2
 50
90.0
  0
TEXT
  8
8
 10
130.663082
 20
224.536424
 30
0.0
 40
2.15
  1
6/T3
 50
90.0
  0
LINE
  8
3
 10
126.395643
 20
230.0
 30
0.0
 11
126.395643
 21
234.25
 31
0.0
  0
CIRCLE
  8
11
 10
126.395643
 20
235.0
 30
0.0
 40
0.75
  0
LINE
  8
3
 10
131.395643
 20
230.0
 30
0.0
 11
131.395643
 21
234.25
 31
0.0
  0
CIRCLE
  8
11
 10
131.395643
 20
235.0
 30
0.0
 40
0.75
  0
LINE
  8
104
 10
156.630402
 20
205.481206
 30
0.0
 11
156.630402
 21
200.981206
 31
0.0
  0
LINE
  8
102
 10
156.630402
 20
199.481206
 30
0.0
 11
156.630402
 21
203.481206
 31
0.0
  0
LINE
  8
102
 10
152.990446
 20
199.981206
 30
0.0
 11
155.490446
 21
198.481206
 31
0.0
  0
LINE
  8
102
 10
152.990446
 20
199.981206
 30
0.0
 11
152.990446
 21
198.481206
 31
0.0
  0
INSERT
  8
110
  2
S139
 10
142.003036
 20
205.131908
 30
0.0
 41
0.9
 42
0.9
 43
0.9
  0
LINE
  8
102
 10
146.630402
 20
208.481206
 30
0.0
 11
149.130402
 21
208.481206
 31
0.0
  0
LINE
  8
102
 10
146.630402
 20
203.481206
 30
0.0
 11
149.130402
 21
203.481206
 31
0.0
  0
LINE
  8
104
 10
146.630402
 20
205.481206
 30
0.0
 11
156.630402
 21
205.481206
 31
0.0
  0
LINE
  8
102
 10
146.630402
 20
203.481206
 30
0.0
 11
146.630402
 21
208.481206
 31
0.0
  0
LINE
  8
103
 10
126.395643
 20
245.0
 30
0.0
 11
126.395643
 21
260.0
 31
0.0
  0
LINE
  8
103
 10
121.395643
 20
245.0
 30
0.0
 11
121.395643
 21
265.0
 31
0.0
  0
LINE
  8
111
 10
114.145643
 20
239.0
 30
0.0
 11
108.145643
 21
239.0
 31
0.0
  0
LINE
  8
111
 10
111.145643
 20
239.0
 30
0.0
 11
111.145643
 21
245.0
 31
0.0
  0
ATTDEF
  8
110
 10
106.967996
 20
244.400525
 30
0.0
 40
2.2
  1
A1
  3
Uttag 1
  2
A1
 70
     0
  7
ROMANS
  0
LINE
  8
3
 10
121.395643
 20
240.0
 30
0.0
 11
121.395643
 21
245.0
 31
0.0
  0
ARC
  8
11
 10
121.395643
 20
241.5
 30
0.0
 40
1.5
 50
90.0
 51
270.0
  0
TEXT
  8
8
 10
120.663082
 20
245.48532
 30
0.0
 40
2.15
  1
1/L1
 50
90.0
  0
LINE
  8
103
 10
131.395643
 20
245.0
 30
0.0
 11
131.395643
 21
255.0
 31
0.0
  0
LINE
  8
3
 10
126.395643
 20
240.0
 30
0.0
 11
126.395643
 21
245.0
 31
0.0
  0
ARC
  8
11
 10
126.395643
 20
241.5
 30
0.0
 40
1.5
 50
90.0
 51
270.0
  0
LINE
  8
3
 10
131.395643
 20
240.0
 30
0.0
 11
131.395643
 21
245.0
 31
0.0
  0
ARC
  8
11
 10
131.395643
 20
241.5
 30
0.0
 40
1.5
 50
90.0
 51
270.0
  0
TEXT
  8
8
 10
130.663082
 20
245.48532
 30
0.0
 40
2.15
  1
5/L3
 50
90.0
  0
TEXT
  8
8
 10
125.663082
 20
245.48532
 30
0.0
 40
2.15
  1
3/L2
 50
90.0
  0
LINE
  8
103
 10
126.645643
 20
260.0
 30
0.0
 11
126.395643
 21
260.0
 31
0.0
  0
INSERT
  8
01
 66
     1
  2
XNC
 10
211.645643
 20
230.0
 30
0.0
  0
ATTRIB
  8
110
 10
214.213864
 20
236.434423
 30
0.0
 40
2.2
  1

  2
POST
 70
     4
  7
ROMANS
  0
ATTRIB
  8
110
 10
203.317491
 20
236.434423
 30
0.0
 40
2.2
  1

  2
POST
 70
     4
  7
ROMANS
  0
ATTRIB
  8
110
 10
210.645643
 20
230.0
 30
0.0
 40
2.2
  1
22X
  2
UTTAG
 70
     4
 50
90.0
  7
ROMANS
  0
ATTRIB
  8
110
 10
210.645643
 20
241.181844
 30
0.0
 40
2.2
  1
21X
  2
UTTAG
 70
     4
 50
90.0
  7
ROMANS
  0
SEQEND
  8
01
  0
LINE
  8
111
 10
177.343384
 20
235.929137
 30
0.0
 11
177.343384
 21
238.929137
 31
0.0
  0
LINE
  8
111
 10
171.343384
 20
238.929137
 30
0.0
 11
171.343384
 21
235.929137
 31
0.0
  0
LINE
  8
106
 10
217.5
 20
185.0
 30
0.0
 11
217.5
 21
270.0
 31
0.0
  0
LINE
  8
11
 10
182.093384
 20
239.929137
 30
0.0
 11
184.257974
 21
235.599958
 31
0.0
  0
LINE
  8
11
 10
187.093384
 20
239.929137
 30
0.0
 11
189.257974
 21
235.599958
 31
0.0
  0
LINE
  8
11
 10
192.093384
 20
239.929137
 30
0.0
 11
194.257974
 21
235.599958
 31
0.0
  0
LINE
  8
5
 10
189.742327
 20
180.0
 30
0.0
 11
189.742327
 21
185.0
 31
0.0
  0
TEXT
  8
8
 10
188.163082
 20
225.388629
 30
0.0
 40
2.15
  1
4/T2
 50
90.0
  0
LINE
  8
11
 10
187.593384
 20
198.076933
 30
0.0
 11
189.593384
 21
198.076933
 31
0.0
  0
LINE
  8
11
 10
189.593384
 20
200.076933
 30
0.0
 11
187.593384
 21
200.076933
 31
0.0
  0
TEXT
  8
8
 10
188.163082
 20
187.65001
 30
0.0
 40
2.15
  1
4/T2
 50
90.0
  0
LINE
  8
11
 10
196.093384
 20
196.576933
 30
0.0
 11
181.093384
 21
196.576933
 31
0.0
  0
LINE
  8
11
 10
181.093384
 20
201.576933
 30
0.0
 11
196.093384
 21
201.576933
 31
0.0
  0
LINE
  8
4
 10
177.343384
 20
237.429137
 30
0.0
 11
193.343384
 21
237.429137
 31
0.0
  0
LINE
  8
11
 10
184.593384
 20
201.576933
 30
0.0
 11
184.593384
 21
200.076933
 31
0.0
  0
LINE
  8
104
 10
157.630402
 20
206.481206
 30
0.0
 11
157.630402
 21
199.481206
 31
0.0
  0
LINE
  8
102
 10
166.630402
 20
200.981206
 30
0.0
 11
166.630402
 21
205.981206
 31
0.0
  0
LINE
  8
102
 10
166.630402
 20
195.981206
 30
0.0
 11
169.115683
 21
201.981206
 31
0.0
  0
LINE
  8
11
 10
181.093384
 20
196.576933
 30
0.0
 11
181.093384
 21
201.576933
 31
0.0
  0
LINE
  8
102
 10
177.093384
 20
195.981206
 30
0.0
 11
173.046333
 21
201.981206
 31
0.0
  0
LINE
  8
102
 10
177.093384
 20
205.981206
 30
0.0
 11
177.093384
 21
200.981206
 31
0.0
  0
ATTDEF
  8
102
 10
165.630402
 20
190.981206
 30
0.0
 40
2.2
  1
96
  3
Anslutning
  2
96
 70
     0
 50
90.0
  7
ROMANS
  0
LINE
  8
104
 10
168.080149
 20
199.481206
 30
0.0
 11
157.630402
 21
199.481206
 31
0.0
  0
LINE
  8
102
 10
166.630402
 20
195.981206
 30
0.0
 11
166.630402
 21
190.981206
 31
0.0
  0
LINE
  8
102
 10
166.630402
 20
200.981206
 30
0.0
 11
169.130402
 21
200.981206
 31
0.0
  0
TEXT
  8
8
 10
183.163082
 20
187.65001
 30
0.0
 40
2.15
  1
2/T1
 50
90.0
  0
LINE
  8
104
 10
174.130402
 20
198.481206
 30
0.0
 11
181.093384
 21
198.481206
 31
0.0
  0
LINE
  8
102
 10
177.093384
 20
190.981206
 30
0.0
 11
177.093384
 21
195.981206
 31
0.0
  0
ATTDEF
  8
110
 10
176.093384
 20
190.981206
 30
0.0
 40
2.2
  1
14
  3
Uttag 2
  2
98
 70
     4
 50
90.0
  7
ROMANS
  0
LINE
  8
3
 10
184.593384
 20
196.576933
 30
0.0
 11
184.593384
 21
191.576933
 31
0.0
  0
LINE
  8
11
 10
184.593384
 20
198.076933
 30
0.0
 11
184.593384
 21
196.576933
 31
0.0
  0
LINE
  8
11
 10
182.593384
 20
200.076933
 30
0.0
 11
182.593384
 21
198.076933
 31
0.0
  0
LINE
  8
11
 10
182.593384
 20
198.076933
 30
0.0
 11
184.593384
 21
198.076933
 31
0.0
  0
LINE
  8
11
 10
184.593384
 20
200.076933
 30
0.0
 11
182.593384
 21
200.076933
 31
0.0
  0
LINE
  8
11
 10
187.593384
 20
200.076933
 30
0.0
 11
187.593384
 21
198.076933
 31
0.0
  0
ATTDEF
  8
110
 10
169.843384
 20
228.929137
 30
0.0
 40
2.2
  1
A2
  3
Uttag 2
  2
A2
 70
     0
  7
ROMANS
  0
LINE
  8
111
 10
171.343384
 20
235.929137
 30
0.0
 11
177.343384
 21
235.929137
 31
0.0
  0
ATTDEF
  8
102
 10
165.630402
 20
200.981206
 30
0.0
 40
2.2
  1
95
  3
Anslutning
  2
95
 70
     0
 50
90.0
  7
ROMANS
  0
ATTDEF
  8
110
 10
164.456376
 20
236.36356
 30
0.0
 40
2.2
  1
K1
  3
Post vnster
  2
KM1
 70
     0
  7
ROMANS
  0
POINT
  8
NOD
 10
171.343384
 20
237.429137
 30
0.0
  0
LINE
  8
103
 10
184.593384
 20
229.929137
 30
0.0
 11
184.593384
 21
206.576933
 31
0.0
  0
TEXT
  8
8
 10
183.163082
 20
225.388629
 30
0.0
 40
2.15
  1
2/T1
 50
90.0
  0
ATTDEF
  8
110
 10
176.093384
 20
202.16305
 30
0.0
 40
2.2
  1
13
  3
Uttag 1
  2
97
 70
     4
 50
90.0
  7
ROMANS
  0
LINE
  8
3
 10
184.593384
 20
206.576933
 30
0.0
 11
184.593384
 21
201.576933
 31
0.0
  0
LINE
  8
111
 10
174.343384
 20
229.929137
 30
0.0
 11
174.343384
 21
235.929137
 31
0.0
  0
POINT
  8
NOD
 10
177.343384
 20
237.429137
 30
0.0
  0
LINE
  8
3
 10
184.593384
 20
229.929137
 30
0.0
 11
184.593384
 21
234.179137
 31
0.0
  0
CIRCLE
  8
11
 10
184.593384
 20
234.929137
 30
0.0
 40
0.75
  0
LINE
  8
11
 10
189.593384
 20
201.576933
 30
0.0
 11
189.593384
 21
200.076933
 31
0.0
  0
LINE
  8
11
 10
194.593384
 20
201.576933
 30
0.0
 11
194.593384
 21
200.076933
 31
0.0
  0
LINE
  8
11
 10
196.093384
 20
196.576933
 30
0.0
 11
196.093384
 21
201.576933
 31
0.0
  0
TEXT
  8
8
 10
193.163082
 20
187.65001
 30
0.0
 40
2.15
  1
6/T3
 50
90.0
  0
LINE
  8
3
 10
194.593384
 20
196.576933
 30
0.0
 11
194.593384
 21
191.576933
 31
0.0
  0
LINE
  8
3
 10
189.593384
 20
196.576933
 30
0.0
 11
189.593384
 21
191.576933
 31
0.0
  0
LINE
  8
11
 10
192.593384
 20
198.076933
 30
0.0
 11
194.593384
 21
198.076933
 31
0.0
  0
LINE
  8
11
 10
194.593384
 20
200.076933
 30
0.0
 11
192.593384
 21
200.076933
 31
0.0
  0
LINE
  8
11
 10
192.593384
 20
200.076933
 30
0.0
 11
192.593384
 21
198.076933
 31
0.0
  0
LINE
  8
11
 10
189.593384
 20
198.076933
 30
0.0
 11
189.593384
 21
196.576933
 31
0.0
  0
LINE
  8
11
 10
194.593384
 20
198.076933
 30
0.0
 11
194.593384
 21
196.576933
 31
0.0
  0
ATTDEF
  8
9
 10
197.920328
 20
198.157576
 30
0.0
 40
2.2
  1

  3
Post
  2
FR1
 70
     0
 72
     2
 11
202.529852
 21
198.157576
 31
0.0
  0
LINE
  8
104
 10
210.612856
 20
237.494751
 30
0.0
 11
212.703132
 21
237.553005
 31
0.0
  0
LINE
  8
103
 10
189.593384
 20
229.929137
 30
0.0
 11
189.593384
 21
206.576933
 31
0.0
  0
LINE
  8
103
 10
194.593384
 20
229.929137
 30
0.0
 11
194.593384
 21
206.576933
 31
0.0
  0
TEXT
  8
8
 10
193.163082
 20
225.388629
 30
0.0
 40
2.15
  1
6/T3
 50
90.0
  0
LINE
  8
3
 10
189.593384
 20
206.576933
 30
0.0
 11
189.593384
 21
201.576933
 31
0.0
  0
LINE
  8
3
 10
194.593384
 20
206.576933
 30
0.0
 11
194.593384
 21
201.576933
 31
0.0
  0
LINE
  8
104
 10
193.343384
 20
237.429137
 30
0.0
 11
210.612856
 21
237.494751
 31
0.0
  0
LINE
  8
3
 10
194.593384
 20
229.929137
 30
0.0
 11
194.593384
 21
234.179137
 31
0.0
  0
LINE
  8
3
 10
189.593384
 20
229.929137
 30
0.0
 11
189.593384
 21
234.179137
 31
0.0
  0
CIRCLE
  8
11
 10
189.593384
 20
234.929137
 30
0.0
 40
0.75
  0
CIRCLE
  8
11
 10
194.593384
 20
234.929137
 30
0.0
 40
0.75
  0
ATTDEF
  8
9
 10
189.089676
 20
272.364637
 30
0.0
 40
2.2
  1

  3
Post
  2
V
 70
     0
 50
90.0
 72
     2
 11
189.089676
 21
274.040828
 31
0.0
  0
TEXT
  8
8
 10
188.163082
 20
244.457255
 30
0.0
 40
2.15
  1
3/L2
 50
90.0
  0
ARC
  8
11
 10
189.593384
 20
241.429137
 30
0.0
 40
1.5
 50
90.0
 51
270.0
  0
ATTDEF
  8
110
 10
170.165737
 20
244.329663
 30
0.0
 40
2.2
  1
A1
  3
Uttag 1
  2
A1
 70
     0
  7
ROMANS
  0
LINE
  8
111
 10
177.343384
 20
238.929137
 30
0.0
 11
171.343384
 21
238.929137
 31
0.0
  0
LINE
  8
103
 10
184.593384
 20
244.929137
 30
0.0
 11
184.593384
 21
255.0
 31
0.0
  0
TEXT
  8
8
 10
183.163082
 20
244.457255
 30
0.0
 40
2.15
  1
1/L1
 50
90.0
  0
LINE
  8
111
 10
174.343384
 20
238.929137
 30
0.0
 11
174.343384
 21
244.929137
 31
0.0
  0
LINE
  8
103
 10
184.593384
 20
244.929137
 30
0.0
 11
184.593384
 21
240.852205
 31
0.0
  0
LINE
  8
3
 10
184.593384
 20
239.929137
 30
0.0
 11
184.593384
 21
244.929137
 31
0.0
  0
ARC
  8
11
 10
184.593384
 20
241.429137
 30
0.0
 40
1.5
 50
90.0
 51
270.0
  0
INSERT
  8
105
  2
S71
 10
194.540196
 20
255.0
 30
0.0
  0
ATTDEF
  8
9
 10
184.089676
 20
271.671116
 30
0.0
 40
2.2
  1

  3
Post
  2
U
 70
     0
 50
90.0
 72
     2
 11
184.089676
 21
273.137783
 31
0.0
  0
LINE
  8
103
 10
189.593384
 20
244.929137
 30
0.0
 11
189.593384
 21
260.0
 31
0.0
  0
TEXT
  8
8
 10
193.163082
 20
244.457255
 30
0.0
 40
2.15
  1
5/L3
 50
90.0
  0
LINE
  8
3
 10
194.593384
 20
239.929137
 30
0.0
 11
194.593384
 21
244.929137
 31
0.0
  0
LINE
  8
3
 10
189.593384
 20
239.929137
 30
0.0
 11
189.593384
 21
244.929137
 31
0.0
  0
ARC
  8
11
 10
194.593384
 20
241.429137
 30
0.0
 40
1.5
 50
90.0
 51
270.0
  0
LINE
  8
105
 10
199.593384
 20
265.0
 30
0.0
 11
199.593384
 21
273.840638
 31
0.0
  0
LINE
  8
105
 10
189.593384
 20
260.0
 30
0.0
 11
189.593384
 21
273.840638
 31
0.0
  0
LINE
  8
105
 10
194.540196
 20
255.0
 30
0.0
 11
194.593384
 21
273.840638
 31
0.0
  0
INSERT
  8
105
  2
S71
 10
189.593384
 20
260.0
 30
0.0
  0
INSERT
  8
105
  2
S71
 10
184.589075
 20
265.0
 30
0.0
  0
ATTDEF
  8
9
 10
192.71299
 20
271.855433
 30
0.0
 40
2.2
  1

  3
Post
  2
W
 70
     0
 50
90.0
 72
     2
 11
192.71299
 21
273.950671
 31
0.0
  0
ATTDEF
  8
9
 10
199.089676
 20
271.184657
 30
0.0
 40
2.2
  1

  3
Post
  2
PE
 70
     0
 50
90.0
 72
     2
 11
199.089676
 21
274.746562
 31
0.0
  0
LINE
  8
5
 10
184.742327
 20
180.0
 30
0.0
 11
184.742327
 21
185.0
 31
0.0
  0
LINE
  8
105
  6
CONTINUOUS
 10
121.395643
 20
232.5
 30
0.0
 11
121.395643
 21
210.939405
 31
0.0
  0
LINE
  8
103
 10
184.742327
 20
221.156392
 30
0.0
 11
131.395643
 21
220.961929
 31
0.0
  0
LINE
  8
103
 10
189.603945
 20
216.156941
 30
0.0
 11
126.395643
 21
216.112321
 31
0.0
  0
LINE
  8
103
 10
194.651592
 20
211.157197
 30
0.0
 11
121.395643
 21
210.939405
 31
0.0
  0
INSERT
  8
01
 66
     1
  2
XNO
 10
204.843384
 20
229.929137
 30
0.0
  0
ATTRIB
  8
110
 10
207.411605
 20
236.36356
 30
0.0
 40
2.2
  1

  2
POST
 70
     4
  7
ROMANS
  0
ATTRIB
  8
110
 10
196.515232
 20
236.36356
 30
0.0
 40
2.2
  1

  2
POST
 70
     4
  7
ROMANS
  0
ATTRIB
  8
110
 10
203.843384
 20
229.929137
 30
0.0
 40
2.2
  1
14X
  2
UTTAG
 70
     4
 50
90.0
  7
ROMANS
  0
ATTRIB
  8
110
 10
203.843384
 20
241.110981
 30
0.0
 40
2.2
  1
13X
  2
UTTAG
 70
     4
 50
90.0
  7
ROMANS
  0
SEQEND
  8
01
  0
LINE
  8
105
 10
184.593384
 20
191.576933
 30
0.0
 11
184.742327
 21
185.0
 31
0.0
  0
LINE
  8
105
 10
189.742327
 20
185.0
 30
0.0
 11
189.593384
 21
191.576933
 31
0.0
  0
INSERT
  8
105
  2
S71
 10
184.631543
 20
221.156065
 30
0.0
  0
INSERT
  8
105
  2
S71
 10
189.603945
 20
216.156941
 30
0.0
  0
INSERT
  8
105
  2
S71
 10
194.651592
 20
211.157197
 30
0.0
  0
ATTDEF
  8
110
 10
119.623786
 20
106.181844
 30
0.0
 40
2.2
  1
13
  3
Uttag 1
  2
13X
 70
     4
 50
90.0
  7
ROMANS
  0
ATTDEF
  8
110
 10
119.623786
 20
95.0
 30
0.0
 40
2.2
  1
14
  3
Uttag 2
  2
14X
 70
     4
 50
90.0
  7
ROMANS
  0
LINE
  8
102
 10
120.623786
 20
100.0
 30
0.0
 11
116.576735
 21
106.0
 31
0.0
  0
INSERT
  8
105
 66
     1
  2
XNC
 10
92.941962
 20
46.75
 30
0.0
  0
ATTRIB
  8
110
 10
95.510183
 20
53.184423
 30
0.0
 40
2.2
  1

  2
POST
 70
     4
  7
ROMANS
  0
ATTRIB
  8
110
 10
84.61381
 20
53.184423
 30
0.0
 40
2.2
  1
KM2
  2
POST
 70
     4
  7
ROMANS
  0
ATTRIB
  8
110
 10
91.941962
 20
46.75
 30
0.0
 40
2.2
  1
22X
  2
UTTAG
 70
     4
 50
90.0
  7
ROMANS
  0
ATTRIB
  8
110
 10
91.941962
 20
57.931844
 30
0.0
 40
2.2
  1
21X
  2
UTTAG
 70
     4
 50
90.0
  7
ROMANS
  0
SEQEND
  8
105
  0
ATTDEF
  8
110
 10
82.11381
 20
35.684423
 30
0.0
 40
2.2
  1
K1
  3
Post vnster
  2
KM1
 70
     0
  7
ROMANS
  0
LINE
  8
111
 10
95.941962
 20
35.25
 30
0.0
 11
95.941962
 21
38.25
 31
0.0
  0
LINE
  8
111
 10
89.941962
 20
38.25
 30
0.0
 11
89.941962
 21
35.25
 31
0.0
  0
LINE
  8
111
 10
89.941962
 20
35.25
 30
0.0
 11
95.941962
 21
35.25
 31
0.0
  0
ATTDEF
  8
110
 10
91.941962
 20
29.25
 30
0.0
 40
2.2
  1
A2
  3
Uttag 2
  2
A2
 70
     0
 50
90.0
  7
ROMANS
  0
POINT
  8
NOD
 10
89.941962
 20
36.75
 30
0.0
  0
LINE
  8
111
 10
92.941962
 20
29.25
 30
0.0
 11
92.941962
 21
35.25
 31
0.0
  0
INSERT
  8
102
  2
S71
 10
92.941962
 20
27.5
 30
0.0
  0
LINE
  8
102
 10
92.941962
 20
29.25
 30
0.0
 11
92.941962
 21
27.5
 31
0.0
  0
POINT
  8
NOD
 10
95.941962
 20
36.75
 30
0.0
  0
LINE
  8
111
 10
95.941962
 20
38.25
 30
0.0
 11
89.941962
 21
38.25
 31
0.0
  0
ATTDEF
  8
110
 10
91.941962
 20
40.431844
 30
0.0
 40
2.2
  1
A1
  3
Uttag 1
  2
A1
 70
     0
 50
90.0
  7
ROMANS
  0
LINE
  8
111
 10
92.941962
 20
38.25
 30
0.0
 11
92.941962
 21
44.25
 31
0.0
  0
LINE
  8
102
 10
92.941962
 20
46.75
 30
0.0
 11
92.941962
 21
44.25
 31
0.0
  0
LINE
  8
102
 10
92.941962
 20
76.75
 30
0.0
 11
92.941962
 21
72.5
 31
0.0
  0
ATTDEF
  8
110
 10
109.795634
 20
101.434423
 30
0.0
 40
2.2
  1
K1
  3
Post vnster
  2
KM2
 70
     4
  7
ROMANS
  0
ATTDEF
  8
110
 10
119.623786
 20
40.431844
 30
0.0
 40
2.2
  1
A1
  3
Uttag 1
  2
A1
 70
     0
 50
90.0
  7
ROMANS
  0
ATTDEF
  8
110
 10
119.623786
 20
29.25
 30
0.0
 40
2.2
  1
A2
  3
Uttag 2
  2
A2
 70
     0
 50
90.0
  7
ROMANS
  0
LINE
  8
111
 10
117.623786
 20
35.25
 30
0.0
 11
123.623786
 21
35.25
 31
0.0
  0
LINE
  8
111
 10
123.623786
 20
38.25
 30
0.0
 11
117.623786
 21
38.25
 31
0.0
  0
ATTDEF
  8
110
 10
109.795634
 20
35.684423
 30
0.0
 40
2.2
  1
K1
  3
Post vnster
  2
KM2
 70
     0
  7
ROMANS
  0
LINE
  8
111
 10
117.623786
 20
38.25
 30
0.0
 11
117.623786
 21
35.25
 31
0.0
  0
POINT
  8
NOD
 10
117.623786
 20
36.75
 30
0.0
  0
LINE
  8
111
 10
123.623786
 20
35.25
 30
0.0
 11
123.623786
 21
38.25
 31
0.0
  0
LINE
  8
111
 10
120.623786
 20
27.5
 30
0.0
 11
120.623786
 21
35.25
 31
0.0
  0
POINT
  8
NOD
 10
123.623786
 20
36.75
 30
0.0
  0
LINE
  8
111
 10
120.623786
 20
38.25
 30
0.0
 11
120.623786
 21
44.25
 31
0.0
  0
LINE
  8
102
 10
120.623786
 20
95.0
 30
0.0
 11
120.623786
 21
94.25
 31
0.0
  0
LINE
  8
102
 10
92.941962
 20
110.0
 30
0.0
 11
92.941962
 21
105.0
 31
0.0
  0
LINE
  8
102
 10
120.623786
 20
110.0
 30
0.0
 11
120.623786
 21
105.0
 31
0.0
  0
ATTDEF
  8
110
 10
91.941962
 20
95.0
 30
0.0
 40
2.2
  1
14
  3
Uttag 2
  2
14X
 70
     4
 50
90.0
  7
ROMANS
  0
LINE
  8
102
 10
92.941962
 20
100.0
 30
0.0
 11
88.894911
 21
106.0
 31
0.0
  0
LINE
  8
102
 10
120.623786
 20
95.0
 30
0.0
 11
120.623786
 21
100.0
 31
0.0
  0
ATTDEF
  8
110
 10
82.11381
 20
101.434423
 30
0.0
 40
2.2
  1
K1
  3
Post vnster
  2
KM1
 70
     4
  7
ROMANS
  0
LINE
  8
102
 10
92.941962
 20
95.0
 30
0.0
 11
92.941962
 21
100.0
 31
0.0
  0
ATTDEF
  8
110
 10
91.941962
 20
106.181844
 30
0.0
 40
2.2
  1
13
  3
Uttag 1
  2
13X
 70
     4
 50
90.0
  7
ROMANS
  0
LINE
  8
102
 10
120.623786
 20
110.0
 30
0.0
 11
120.623786
 21
109.99938
 31
0.0
  0
LINE
  8
102
  6
DASHED
 10
120.441962
 20
156.75
 30
0.0
 11
120.441962
 21
155.0
 31
0.0
  0
LINE
  8
102
  6
DASHED
 10
120.441962
 20
171.75
 30
0.0
 11
120.441962
 21
177.5
 31
0.0
  0
INSERT
  8
104
  6
DASHED
  2
S71
 10
120.441962
 20
177.5
 30
0.0
  0
INSERT
  8
01
  2
S71
 10
120.623786
 20
27.5
 30
0.0
  0
LINE
  8
102
 10
120.623786
 20
44.25
 30
0.0
 11
120.623786
 21
46.75
 31
0.0
  0
LINE
  8
102
 10
92.941962
 20
76.75
 30
0.0
 11
92.941962
 21
95.0
 31
0.0
  0
INSERT
  8
105
 66
     1
  2
XNC
 10
120.623786
 20
46.75
 30
0.0
  0
ATTRIB
  8
110
 10
123.192007
 20
53.184423
 30
0.0
 40
2.2
  1

  2
POST
 70
     4
  7
ROMANS
  0
ATTRIB
  8
110
 10
112.295634
 20
53.184423
 30
0.0
 40
2.2
  1
KM1
  2
POST
 70
     4
  7
ROMANS
  0
ATTRIB
  8
110
 10
119.623786
 20
46.75
 30
0.0
 40
2.2
  1
22X
  2
UTTAG
 70
     4
 50
90.0
  7
ROMANS
  0
ATTRIB
  8
110
 10
119.623786
 20
57.931844
 30
0.0
 40
2.2
  1
21X
  2
UTTAG
 70
     4
 50
90.0
  7
ROMANS
  0
SEQEND
  8
105
  0
LINE
  8
102
 10
120.623786
 20
61.75
 30
0.0
 11
120.623786
 21
72.5
 31
0.0
  0
INSERT
  8
01
 66
     1
  2
XNC
 10
149.302259
 20
230.0
 30
0.0
  0
ATTRIB
  8
110
 10
151.87048
 20
236.434423
 30
0.0
 40
2.2
  1

  2
POST
 70
     4
  7
ROMANS
  0
ATTRIB
  8
110
 10
140.974107
 20
236.434423
 30
0.0
 40
2.2
  1

  2
POST
 70
     4
  7
ROMANS
  0
ATTRIB
  8
110
 10
148.302259
 20
230.0
 30
0.0
 40
2.2
  1
22X
  2
UTTAG
 70
     4
 50
90.0
  7
ROMANS
  0
ATTRIB
  8
110
 10
148.302259
 20
241.181844
 30
0.0
 40
2.2
  1
21X
  2
UTTAG
 70
     4
 50
90.0
  7
ROMANS
  0
SEQEND
  8
01
  0
LINE
  8
104
 10
148.269472
 20
237.494751
 30
0.0
 11
150.359748
 21
237.553005
 31
0.0
  0
TEXT
  8
11
 10
2.5
 20
182.5
 30
0.0
 40
2.2
  1
Remote control/Fernbetätigung/Commande á distance
  7
ROMANS
  0
TEXT
  8
11
 10
18.519531
 20
171.790426
 30
0.0
 40
2.2
  1
Us
  7
ROMANS
  0
TEXT
  8
11
 10
17.5
 20
32.2
 30
0.0
 40
2.2
  1
N
  7
ROMANS
  0
LINE
  8
103
 10
184.593384
 20
255.0
 30
0.0
 11
184.589075
 21
265.0
 31
0.0
  0
LINE
  8
105
 10
184.589075
 20
265.0
 30
0.0
 11
184.589075
 21
273.919436
 31
0.0
  0
TEXT
  8
102
 10
137.5
 20
90.006201
 30
0.0
 40
2.2
  1
SIGNALLAMPOR
  7
ROMANS
  0
INSERT
  8
102
 66
     1
  2
XH1
 10
172.565442
 20
37.506201
 30
0.0
  0
ATTRIB
  8
102
 10
164.23729
 20
43.940624
 30
0.0
 40
2.2
  1
H2
  2
POST
 70
     0
  7
ROMANS
  0
ATTRIB
  8
102
 10
171.565442
 20
48.688045
 30
0.0
 40
2.2
  1
X1
  2
ANSL
 70
     0
 50
90.0
  7
ROMANS
  0
ATTRIB
  8
102
 10
171.565442
 20
37.506201
 30
0.0
 40
2.2
  1
X2
  2
ANSL
 70
     0
 50
90.0
  7
ROMANS
  0
SEQEND
  8
102
  0
LINE
  8
102
 10
172.565442
 20
27.506201
 30
0.0
 11
172.565442
 21
27.506201
 31
0.0
  0
LINE
  8
102
 10
172.565442
 20
72.506201
 30
0.0
 11
172.565442
 21
72.506201
 31
0.0
  0
INSERT
  8
104
 66
     1
  2
S153
 10
137.565442
 20
70.006201
 30
0.0
  0
ATTRIB
  8
108
 10
136.565442
 20
66.806201
 30
0.0
 40
2.2
  1

  2
TEXTUV
 70
     0
 72
     2
 11
136.565442
 21
66.806201
 31
0.0
  0
ATTRIB
  8
108
 10
136.565442
 20
71.006201
 30
0.0
 40
2.2
  1

  2
TEXTV
 70
     0
 72
     2
 11
136.565442
 21
71.006201
 31
0.0
  0
ATTRIB
  8
108
 10
138.565442
 20
66.806201
 30
0.0
 40
2.2
  1
26
  2
TEXTUH
 70
     0
  0
ATTRIB
  8
108
 10
138.565442
 20
71.006201
 30
0.0
 40
2.2
  1

  2
TEXTH
 70
     0
  0
SEQEND
  8
104
  0
INSERT
  8
104
 66
     1
  2
S153
 10
137.565442
 20
75.006201
 30
0.0
  0
ATTRIB
  8
108
 10
136.565442
 20
71.806201
 30
0.0
 40
2.2
  1

  2
TEXTUV
 70
     0
 72
     2
 11
136.565442
 21
71.806201
 31
0.0
  0
ATTRIB
  8
108
 10
136.565442
 20
76.006201
 30
0.0
 40
2.2
  1

  2
TEXTV
 70
     0
 72
     2
 11
136.565442
 21
76.006201
 31
0.0
  0
ATTRIB
  8
108
 10
138.565442
 20
71.806201
 30
0.0
 40
2.2
  1
X1
  2
TEXTUH
 70
     0
  0
ATTRIB
  8
108
 10
138.565442
 20
76.006201
 30
0.0
 40
2.2
  1

  2
TEXTH
 70
     0
  0
SEQEND
  8
104
  0
TEXT
  8
102
 10
137.5
 20
95.006201
 30
0.0
 40
2.2
  1
PILOT LAMPS
  7
ROMANS
  0
INSERT
  8
104
 66
     1
  2
S153
 10
137.565442
 20
27.506201
 30
0.0
  0
ATTRIB
  8
108
 10
136.565442
 20
24.306201
 30
0.0
 40
2.2
  1

  2
TEXTUV
 70
     0
 72
     2
 11
136.565442
 21
24.306201
 31
0.0
  0
ATTRIB
  8
108
 10
136.565442
 20
28.506201
 30
0.0
 40
2.2
  1

  2
TEXTV
 70
     0
 72
     2
 11
136.565442
 21
28.506201
 31
0.0
  0
ATTRIB
  8
108
 10
138.565442
 20
24.306201
 30
0.0
 40
2.2
  1
12
  2
TEXTUH
 70
     0
  0
ATTRIB
  8
108
 10
138.565442
 20
28.506201
 30
0.0
 40
2.2
  1

  2
TEXTH
 70
     0
  0
SEQEND
  8
104
  0
INSERT
  8
102
 66
     1
  2
XH1
 10
155.0
 20
37.5
 30
0.0
  0
ATTRIB
  8
102
 10
146.671848
 20
43.934423
 30
0.0
 40
2.2
  1
H1
  2
POST
 70
     0
  7
ROMANS
  0
ATTRIB
  8
102
 10
154.0
 20
48.681844
 30
0.0
 40
2.2
  1
X1
  2
ANSL
 70
     0
 50
90.0
  7
ROMANS
  0
ATTRIB
  8
102
 10
154.0
 20
37.5
 30
0.0
 40
2.2
  1
X2
  2
ANSL
 70
     0
 50
90.0
  7
ROMANS
  0
SEQEND
  8
102
  0
LINE
  8
102
 10
20.0
 20
95.0
 30
0.0
 11
20.0
 21
100.0
 31
0.0
  0
LINE
  8
104
 10
10.0
 20
102.5
 30
0.0
 11
18.313729
 21
102.5
 31
0.0
  0
LINE
  8
102
 10
10.0
 20
100.0
 30
0.0
 11
10.0
 21
105.0
 31
0.0
  0
INSERT
  8
102
  2
S138
 10
7.015229
 20
101.268811
 30
0.0
  0
LINE
  8
102
 10
10.0
 20
100.0
 30
0.0
 11
12.5
 21
100.0
 31
0.0
  0
LINE
  8
102
 10
10.0
 20
105.0
 30
0.0
 11
12.5
 21
105.0
 31
0.0
  0
LINE
  8
102
 10
20.0
 20
110.0
 30
0.0
 11
20.0
 21
105.0
 31
0.0
  0
LINE
  8
102
 10
20.0
 20
100.0
 30
0.0
 11
15.952949
 21
106.0
 31
0.0
  0
LINE
  8
102
 10
20.0
 20
110.0
 30
0.0
 11
20.0
 21
115.0
 31
0.0
  0
LINE
  8
102
 10
92.941962
 20
110.0
 30
0.0
 11
92.941962
 21
129.99938
 31
0.0
  0
LINE
  8
102
 10
92.941962
 20
129.99938
 30
0.0
 11
120.441962
 21
130.0
 31
0.0
  0
INSERT
  8
104
  2
S71
 10
92.941962
 20
75.0
 30
0.0
  0
LINE
  8
104
 10
37.5
 20
105.0
 30
0.0
 11
45.813729
 21
105.0
 31
0.0
  0
LINE
  8
102
 10
47.5
 20
102.5
 30
0.0
 11
43.452949
 21
108.5
 31
0.0
  0
ATTDEF
  8
110
 10
33.630492
 20
103.669204
 30
0.0
 40
2.2
  1
K9
  3
Post vnster
  2
II
 70
     4
  7
ROMANS
  0
LINE
  8
102
 10
37.5
 20
102.5
 30
0.0
 11
37.5
 21
107.5
 31
0.0
  0
LINE
  8
102
 10
37.5
 20
102.5
 30
0.0
 11
40.0
 21
102.5
 31
0.0
  0
LINE
  8
102
 10
37.5
 20
107.5
 30
0.0
 11
40.0
 21
107.5
 31
0.0
  0
LINE
  8
102
 10
47.5
 20
97.5
 30
0.0
 11
47.5
 21
102.5
 31
0.0
  0
LINE
  8
104
 10
47.5
 20
95.43783
 30
0.0
 11
47.5
 21
100.43783
 31
0.0
  0
LINE
  8
102
 10
47.5
 20
100.43783
 30
0.0
 11
47.5
 21
97.93783
 31
0.0
  0
LINE
  8
102
 10
47.5
 20
112.5
 30
0.0
 11
47.5
 21
107.5
 31
0.0
  0
INSERT
  8
104
  2
S71
 10
120.623786
 20
90.0
 30
0.0
  0
INSERT
  8
104
  2
S71
 10
120.555589
 20
117.501033
 30
0.0
  0
INSERT
  8
01
  6
DASHED
 66
     1
  2
S153
 10
79.684803
 20
150.908163
 30
0.0
  0
ATTRIB
  8
108
  6
DASHED
 10
78.684803
 20
147.708163
 30
0.0
 40
2.2
  1

  2
TEXTUV
 70
     0
 72
     2
 11
78.684803
 21
147.708163
 31
0.0
  0
ATTRIB
  8
108
  6
DASHED
 10
76.065756
 20
151.908163
 30
0.0
 40
2.2
  1
21
  2
TEXTV
 70
     0
 72
     2
 11
78.684803
 21
151.908163
 31
0.0
  0
ATTRIB
  8
108
  6
DASHED
 10
80.684803
 20
147.708163
 30
0.0
 40
2.2
  1

  2
TEXTUH
 70
     0
  0
ATTRIB
  8
108
  6
DASHED
 10
80.684803
 20
151.908163
 30
0.0
 40
2.2
  1

  2
TEXTH
 70
     0
  0
SEQEND
  8
01
  6
DASHED
  0
INSERT
  8
01
  6
DASHED
 66
     1
  2
S153
 10
79.684803
 20
155.908163
 30
0.0
  0
ATTRIB
  8
108
  6
DASHED
 10
78.684803
 20
152.708163
 30
0.0
 40
2.2
  1

  2
TEXTUV
 70
     0
 72
     2
 11
78.684803
 21
152.708163
 31
0.0
  0
ATTRIB
  8
108
  6
DASHED
 10
76.065756
 20
156.908163
 30
0.0
 40
2.2
  1
X1
  2
TEXTV
 70
     0
 72
     2
 11
78.684803
 21
156.908163
 31
0.0
  0
ATTRIB
  8
108
  6
DASHED
 10
80.684803
 20
152.708163
 30
0.0
 40
2.2
  1

  2
TEXTUH
 70
     0
  0
ATTRIB
  8
108
  6
DASHED
 10
80.684803
 20
156.908163
 30
0.0
 40
2.2
  1

  2
TEXTH
 70
     0
  0
SEQEND
  8
01
  6
DASHED
  0
LINE
  8
102
 10
120.623786
 20
109.99938
 30
0.0
 11
120.441962
 21
130.0
 31
0.0
  0
INSERT
  8
102
  2
S71
 10
92.941962
 20
129.99938
 30
0.0
  0
LINE
  8
102
 10
20.0
 20
137.5
 30
0.0
 11
24.047051
 21
143.5
 31
0.0
  0
LINE
  8
102
 10
10.0
 20
137.5
 30
0.0
 11
10.0
 21
142.5
 31
0.0
  0
ATTDEF
  8
110
 10
6.130492
 20
138.669204
 30
0.0
 40
2.2
  1
K9
  3
Post vnster
  2
O
 70
     4
  7
ROMANS
  0
LINE
  8
104
 10
10.0
 20
140.0
 30
0.0
 11
21.686271
 21
140.0
 31
0.0
  0
LINE
  8
102
 10
10.0
 20
137.5
 30
0.0
 11
12.5
 21
137.5
 31
0.0
  0
LINE
  8
102
 10
20.0
 20
142.5
 30
0.0
 11
25.0
 21
142.5
 31
0.0
  0
LINE
  8
102
 10
10.0
 20
142.5
 30
0.0
 11
12.5
 21
142.5
 31
0.0
  0
LINE
  8
102
 10
20.0
 20
147.5
 30
0.0
 11
20.0
 21
142.5
 31
0.0
  0
LINE
  8
102
 10
20.0
 20
132.93783
 30
0.0
 11
20.0
 21
130.43783
 31
0.0
  0
LINE
  8
102
 10
20.0
 20
137.5
 30
0.0
 11
20.0
 21
130.0
 31
0.0
  0
INSERT
  8
01
 66
     1
  2
S153
 10
61.049674
 20
150.908163
 30
0.0
  0
ATTRIB
  8
108
 10
60.049674
 20
147.708163
 30
0.0
 40
2.2
  1

  2
TEXTUV
 70
     0
 72
     2
 11
60.049674
 21
147.708163
 31
0.0
  0
ATTRIB
  8
108
 10
57.430626
 20
151.908163
 30
0.0
 40
2.2
  1
21
  2
TEXTV
 70
     0
 72
     2
 11
60.049674
 21
151.908163
 31
0.0
  0
ATTRIB
  8
108
 10
62.049674
 20
147.708163
 30
0.0
 40
2.2
  1

  2
TEXTUH
 70
     0
  0
ATTRIB
  8
108
 10
62.049674
 20
151.908163
 30
0.0
 40
2.2
  1

  2
TEXTH
 70
     0
  0
SEQEND
  8
01
  0
INSERT
  8
01
 66
     1
  2
S153
 10
61.049674
 20
155.908163
 30
0.0
  0
ATTRIB
  8
108
 10
60.049674
 20
152.708163
 30
0.0
 40
2.2
  1

  2
TEXTUV
 70
     0
 72
     2
 11
60.049674
 21
152.708163
 31
0.0
  0
ATTRIB
  8
108
 10
57.430626
 20
156.908163
 30
0.0
 40
2.2
  1
X1
  2
TEXTV
 70
     0
 72
     2
 11
60.049674
 21
156.908163
 31
0.0
  0
ATTRIB
  8
108
 10
62.049674
 20
152.708163
 30
0.0
 40
2.2
  1

  2
TEXTUH
 70
     0
  0
ATTRIB
  8
108
 10
62.049674
 20
156.908163
 30
0.0
 40
2.2
  1

  2
TEXTH
 70
     0
  0
SEQEND
  8
01
  0
INSERT
  8
01
  2
S71
 10
20.0
 20
130.0
 30
0.0
  0
TEXT
  8
11
 10
5.0
 20
219.9
 30
0.0
 40
3.15
  1
STOPPAS FÖRE REVERSERING
  7
ROMANS
  0
TEXT
  8
11
 10
5.0
 20
224.9
 30
0.0
 40
3.15
  1
TO BE STOPPED BEFORE REVERSING/
  7
ROMANS
  0
INSERT
  8
104
 66
     1
  2
S153
 10
137.565442
 20
31.75
 30
0.0
  0
ATTRIB
  8
108
 10
136.565442
 20
28.55
 30
0.0
 40
2.2
  1

  2
TEXTUV
 70
     0
 72
     2
 11
136.565442
 21
28.55
 31
0.0
  0
ATTRIB
  8
108
 10
136.565442
 20
32.75
 30
0.0
 40
2.2
  1

  2
TEXTV
 70
     0
 72
     2
 11
136.565442
 21
32.75
 31
0.0
  0
ATTRIB
  8
108
 10
138.565442
 20
28.55
 30
0.0
 40
2.2
  1
X1
  2
TEXTUH
 70
     0
  0
ATTRIB
  8
108
 10
138.565442
 20
32.75
 30
0.0
 40
2.2
  1

  2
TEXTH
 70
     0
  0
SEQEND
  8
104
  0
LINE
  8
102
 10
130.360044
 20
199.981206
 30
0.0
 11
132.860044
 21
198.481206
 31
0.0
  0
LINE
  8
102
 10
130.360044
 20
199.981206
 30
0.0
 11
130.360044
 21
198.481206
 31
0.0
  0
LINE
  8
104
 10
124.0
 20
205.481206
 30
0.0
 11
134.0
 21
205.481206
 31
0.0
  0
LINE
  8
102
 10
124.0
 20
203.481206
 30
0.0
 11
124.0
 21
208.481206
 31
0.0
  0
LINE
  8
102
 10
124.0
 20
203.481206
 30
0.0
 11
126.5
 21
203.481206
 31
0.0
  0
LINE
  8
102
 10
124.0
 20
208.481206
 30
0.0
 11
126.5
 21
208.481206
 31
0.0
  0
LINE
  8
104
 10
134.0
 20
205.481206
 30
0.0
 11
134.0
 21
200.981206
 31
0.0
  0
LINE
  8
102
 10
134.0
 20
199.481206
 30
0.0
 11
134.0
 21
203.481206
 31
0.0
  0
TEXT
  8
110
 10
120.85831
 20
205.067261
 30
0.0
 40
2.25
  1
R
  0
LINE
  8
103
 10
194.540196
 20
255.0
 30
0.0
 11
194.593384
 21
244.929137
 31
0.0
  0
ATTDEF
  8
102
 10
119.441962
 20
166.75
 30
0.0
 40
2.2
  1
95
  3
Anslutning
  2
95
 70
     0
 50
90.0
  7
ROMANS
  0
ATTDEF
  8
102
 10
119.441962
 20
156.75
 30
0.0
 40
2.2
  1
96
  3
Anslutning
  2
96
 70
     0
 50
90.0
  7
ROMANS
  0
ATTDEF
  8
102
 10
132.65948
 20
163.113341
 30
0.0
 40
2.2
  1
F3
  3
Post hger
  2
FR1
 70
     0
  7
ROMANS
  0
INSERT
  8
110
  2
S139
 10
95.814596
 20
170.900702
 30
0.0
 41
0.9
 42
0.9
 43
0.9
  0
LINE
  8
104
 10
111.441962
 20
172.25
 30
0.0
 11
111.441962
 21
165.25
 31
0.0
  0
LINE
  8
104
 10
100.441962
 20
172.25
 30
0.0
 11
111.441962
 21
172.25
 31
0.0
  0
LINE
  8
104
 10
110.441962
 20
171.25
 30
0.0
 11
110.441962
 21
166.75
 31
0.0
  0
LINE
  8
104
 10
100.441962
 20
171.25
 30
0.0
 11
110.441962
 21
171.25
 31
0.0
  0
LINE
  8
104
 10
121.891709
 20
165.25
 30
0.0
 11
111.441962
 21
165.25
 31
0.0
  0
LINE
  8
102
 10
110.441962
 20
165.25
 30
0.0
 11
110.441962
 21
169.25
 31
0.0
  0
LINE
  8
102
 10
106.802006
 20
165.75
 30
0.0
 11
109.302006
 21
164.25
 31
0.0
  0
LINE
  8
102
 10
106.802006
 20
165.75
 30
0.0
 11
106.802006
 21
164.25
 31
0.0
  0
LINE
  8
102
 10
100.441962
 20
169.25
 30
0.0
 11
100.441962
 21
174.25
 31
0.0
  0
LINE
  8
102
 10
100.441962
 20
174.25
 30
0.0
 11
102.941962
 21
174.25
 31
0.0
  0
LINE
  8
102
 10
100.441962
 20
169.25
 30
0.0
 11
102.941962
 21
169.25
 31
0.0
  0
LINE
  8
104
 10
127.941962
 20
164.25
 30
0.0
 11
82.941962
 21
164.25
 31
0.0
  0
LINE
  8
102
 10
120.441962
 20
161.75
 30
0.0
 11
120.441962
 21
156.75
 31
0.0
  0
LINE
  8
102
 10
120.441962
 20
166.75
 30
0.0
 11
120.441962
 21
171.75
 31
0.0
  0
LINE
  8
102
 10
120.441962
 20
161.75
 30
0.0
 11
122.927243
 21
167.75
 31
0.0
  0
LINE
  8
102
 10
120.441962
 20
166.75
 30
0.0
 11
122.941962
 21
166.75
 31
0.0
  0
LINE
  8
102
 10
130.441962
 20
165.5
 30
0.0
 11
127.941962
 21
165.5
 31
0.0
  0
LINE
  8
102
 10
127.941962
 20
165.5
 30
0.0
 11
127.941962
 21
163.0
 31
0.0
  0
LINE
  8
102
 10
127.941962
 20
163.0
 30
0.0
 11
130.441962
 21
163.0
 31
0.0
  0
LINE
  8
102
 10
130.441962
 20
163.0
 30
0.0
 11
130.441962
 21
160.5
 31
0.0
  0
LINE
  8
102
 10
130.441962
 20
168.0
 30
0.0
 11
130.441962
 21
165.5
 31
0.0
  0
LINE
  8
102
 10
89.441962
 20
165.25
 30
0.0
 11
89.441962
 21
169.25
 31
0.0
  0
LINE
  8
104
 10
89.441962
 20
171.25
 30
0.0
 11
89.441962
 21
166.75
 31
0.0
  0
LINE
  8
102
 10
85.802006
 20
165.75
 30
0.0
 11
85.802006
 21
164.25
 31
0.0
  0
LINE
  8
102
 10
85.802006
 20
165.75
 30
0.0
 11
88.302006
 21
164.25
 31
0.0
  0
LINE
  8
102
 10
79.441962
 20
169.25
 30
0.0
 11
79.441962
 21
174.25
 31
0.0
  0
LINE
  8
104
 10
79.441962
 20
171.25
 30
0.0
 11
89.441962
 21
171.25
 31
0.0
  0
LINE
  8
102
 10
79.441962
 20
169.25
 30
0.0
 11
81.941962
 21
169.25
 31
0.0
  0
LINE
  8
102
 10
79.441962
 20
174.25
 30
0.0
 11
81.941962
 21
174.25
 31
0.0
  0
TEXT
  8
110
 10
76.300272
 20
170.836055
 30
0.0
 40
2.25
  1
R
  0
LINE
  8
102
 10
42.5
 20
177.5
 30
0.0
 11
42.5
 21
172.5
 31
0.0
  0
LINE
  8
104
 10
42.5
 20
172.5
 30
0.0
 11
25.0
 21
172.5
 31
0.0
  0
LINE
  8
106
 10
5.0
 20
150.0
 30
0.0
 11
5.0
 21
80.0
 31
0.0
  0
LINE
  8
106
 10
5.0
 20
80.0
 30
0.0
 11
55.0
 21
80.0
 31
0.0
  0
LINE
  8
106
 10
55.0
 20
80.0
 30
0.0
 11
55.0
 21
150.0
 31
0.0
  0
LINE
  8
106
 10
55.0
 20
150.0
 30
0.0
 11
5.0
 21
150.0
 31
0.0
  0
TEXT
  8
11
 10
16.461493
 20
36.790426
 30
0.0
 40
2.2
  1
Us
  7
ROMANS
  0
LINE
  8
102
 10
42.5
 20
27.5
 30
0.0
 11
42.5
 21
37.5
 31
0.0
  0
LINE
  8
104
 10
42.5
 20
37.5
 30
0.0
 11
22.5
 21
37.5
 31
0.0
  0
LINE
  8
104
 10
42.5
 20
32.5
 30
0.0
 11
22.5
 21
32.5
 31
0.0
  0
LINE
  8
102
 10
125.0
 20
27.5
 30
0.0
 11
12.5
 21
27.5
 31
0.0
  0
TEXT
  8
102
 10
332.5
 20
82.506201
 30
0.0
 40
2.2
  1
PILOT LAMPS
  7
ROMANS
  0
TEXT
  8
102
 10
332.5
 20
77.506201
 30
0.0
 40
2.2
  1
SIGNALLAMPOR
  7
ROMANS
  0
LINE
  8
102
 10
335.217579
 20
67.5
 30
0.0
 11
292.941962
 21
67.5
 31
0.0
  0
LINE
  8
102
 10
335.217579
 20
27.5
 30
0.0
 11
325.0
 21
27.5
 31
0.0
  0
INSERT
  8
105
 66
     1
  2
XNC
 10
292.941962
 20
46.75
 30
0.0
  0
ATTRIB
  8
110
 10
295.510183
 20
53.184423
 30
0.0
 40
2.2
  1

  2
POST
 70
     4
  7
ROMANS
  0
ATTRIB
  8
110
 10
284.61381
 20
53.184423
 30
0.0
 40
2.2
  1
KM2
  2
POST
 70
     4
  7
ROMANS
  0
ATTRIB
  8
110
 10
291.941962
 20
46.75
 30
0.0
 40
2.2
  1
22X
  2
UTTAG
 70
     4
 50
90.0
  7
ROMANS
  0
ATTRIB
  8
110
 10
291.941962
 20
57.931844
 30
0.0
 40
2.2
  1
21X
  2
UTTAG
 70
     4
 50
90.0
  7
ROMANS
  0
SEQEND
  8
105
  0
INSERT
  8
105
 66
     1
  2
XNC
 10
320.623786
 20
46.75
 30
0.0
  0
ATTRIB
  8
110
 10
323.192007
 20
53.184423
 30
0.0
 40
2.2
  1

  2
POST
 70
     4
  7
ROMANS
  0
ATTRIB
  8
110
 10
312.295634
 20
53.184423
 30
0.0
 40
2.2
  1
KM1
  2
POST
 70
     4
  7
ROMANS
  0
ATTRIB
  8
110
 10
319.623786
 20
46.75
 30
0.0
 40
2.2
  1
22X
  2
UTTAG
 70
     4
 50
90.0
  7
ROMANS
  0
ATTRIB
  8
110
 10
319.623786
 20
57.931844
 30
0.0
 40
2.2
  1
21X
  2
UTTAG
 70
     4
 50
90.0
  7
ROMANS
  0
SEQEND
  8
105
  0
TEXT
  8
11
 10
232.5
 20
32.2
 30
0.0
 40
2.2
  1
N
  7
ROMANS
  0
TEXT
  8
11
 10
231.461493
 20
36.790426
 30
0.0
 40
2.2
  1
Us
  7
ROMANS
  0
LINE
  8
102
 10
325.0
 20
27.5
 30
0.0
 11
227.5
 21
27.5
 31
0.0
  0
LINE
  8
102
 10
257.5
 20
27.5
 30
0.0
 11
257.5
 21
37.5
 31
0.0
  0
LINE
  8
104
 10
257.5
 20
32.5
 30
0.0
 11
237.5
 21
32.5
 31
0.0
  0
LINE
  8
104
 10
257.5
 20
37.5
 30
0.0
 11
237.5
 21
37.5
 31
0.0
  0
LINE
  8
111
 10
295.941962
 20
35.25
 30
0.0
 11
295.941962
 21
38.25
 31
0.0
  0
LINE
  8
111
 10
289.941962
 20
38.25
 30
0.0
 11
289.941962
 21
35.25
 31
0.0
  0
ATTDEF
  8
110
 10
282.11381
 20
35.684423
 30
0.0
 40
2.2
  1
K1
  3
Post vnster
  2
KM1
 70
     0
  7
ROMANS
  0
LINE
  8
111
 10
289.941962
 20
35.25
 30
0.0
 11
295.941962
 21
35.25
 31
0.0
  0
ATTDEF
  8
110
 10
291.941962
 20
29.25
 30
0.0
 40
2.2
  1
A2
  3
Uttag 2
  2
A2
 70
     0
 50
90.0
  7
ROMANS
  0
POINT
  8
NOD
 10
289.941962
 20
36.75
 30
0.0
  0
LINE
  8
111
 10
292.941962
 20
29.25
 30
0.0
 11
292.941962
 21
35.25
 31
0.0
  0
INSERT
  8
102
  2
S71
 10
292.941962
 20
27.5
 30
0.0
  0
LINE
  8
102
 10
292.941962
 20
29.25
 30
0.0
 11
292.941962
 21
27.5
 31
0.0
  0
POINT
  8
NOD
 10
295.941962
 20
36.75
 30
0.0
  0
LINE
  8
111
 10
295.941962
 20
38.25
 30
0.0
 11
289.941962
 21
38.25
 31
0.0
  0
ATTDEF
  8
110
 10
291.941962
 20
40.431844
 30
0.0
 40
2.2
  1
A1
  3
Uttag 1
  2
A1
 70
     0
 50
90.0
  7
ROMANS
  0
LINE
  8
111
 10
292.941962
 20
38.25
 30
0.0
 11
292.941962
 21
44.25
 31
0.0
  0
LINE
  8
102
 10
292.941962
 20
46.75
 30
0.0
 11
292.941962
 21
44.25
 31
0.0
  0
LINE
  8
111
 10
317.623786
 20
38.25
 30
0.0
 11
317.623786
 21
35.25
 31
0.0
  0
LINE
  8
111
 10
323.623786
 20
35.25
 30
0.0
 11
323.623786
 21
38.25
 31
0.0
  0
ATTDEF
  8
110
 10
309.795634
 20
35.684423
 30
0.0
 40
2.2
  1
K1
  3
Post vnster
  2
KM2
 70
     0
  7
ROMANS
  0
LINE
  8
111
 10
317.623786
 20
35.25
 30
0.0
 11
323.623786
 21
35.25
 31
0.0
  0
LINE
  8
111
 10
320.623786
 20
27.5
 30
0.0
 11
320.623786
 21
35.25
 31
0.0
  0
ATTDEF
  8
110
 10
319.623786
 20
29.25
 30
0.0
 40
2.2
  1
A2
  3
Uttag 2
  2
A2
 70
     0
 50
90.0
  7
ROMANS
  0
INSERT
  8
01
  2
S71
 10
320.623786
 20
27.5
 30
0.0
  0
POINT
  8
NOD
 10
317.623786
 20
36.75
 30
0.0
  0
POINT
  8
NOD
 10
323.623786
 20
36.75
 30
0.0
  0
LINE
  8
111
 10
323.623786
 20
38.25
 30
0.0
 11
317.623786
 21
38.25
 31
0.0
  0
ATTDEF
  8
110
 10
319.623786
 20
40.431844
 30
0.0
 40
2.2
  1
A1
  3
Uttag 1
  2
A1
 70
     0
 50
90.0
  7
ROMANS
  0
LINE
  8
111
 10
320.623786
 20
38.25
 30
0.0
 11
320.623786
 21
44.25
 31
0.0
  0
LINE
  8
102
 10
320.623786
 20
44.25
 30
0.0
 11
320.623786
 21
46.75
 31
0.0
  0
LINE
  8
102
 10
235.0
 20
100.0
 30
0.0
 11
237.5
 21
100.0
 31
0.0
  0
LINE
  8
104
 10
235.0
 20
102.5
 30
0.0
 11
243.313729
 21
102.5
 31
0.0
  0
LINE
  8
102
 10
235.0
 20
105.0
 30
0.0
 11
237.5
 21
105.0
 31
0.0
  0
LINE
  8
102
 10
235.0
 20
100.0
 30
0.0
 11
235.0
 21
105.0
 31
0.0
  0
INSERT
  8
102
  2
S138
 10
232.015229
 20
101.268811
 30
0.0
  0
LINE
  8
102
 10
272.5
 20
95.0
 30
0.0
 11
272.5
 21
87.5
 31
0.0
  0
LINE
  8
104
 10
272.5
 20
92.93783
 30
0.0
 11
272.5
 21
97.93783
 31
0.0
  0
LINE
  8
102
 10
245.0
 20
95.0
 30
0.0
 11
245.0
 21
70.0
 31
0.0
  0
LINE
  8
102
 10
292.941962
 20
71.75
 30
0.0
 11
292.941962
 21
95.0
 31
0.0
  0
LINE
  8
102
 10
320.623786
 20
61.75
 30
0.0
 11
320.623786
 21
94.25
 31
0.0
  0
LINE
  8
102
 10
245.0
 20
70.0
 30
0.0
 11
292.941962
 21
70.0
 31
0.0
  0
LINE
  8
102
 10
272.5
 20
87.5
 30
0.0
 11
272.5
 21
80.0
 31
0.0
  0
LINE
  8
102
 10
272.5
 20
80.0
 30
0.0
 11
320.623786
 21
80.0
 31
0.0
  0
INSERT
  8
104
  2
S71
 10
292.941962
 20
70.0
 30
0.0
  0
LINE
  8
102
 10
292.941962
 20
71.75
 30
0.0
 11
292.941962
 21
61.75
 31
0.0
  0
INSERT
  8
104
  2
S71
 10
320.623786
 20
80.0
 30
0.0
  0
LINE
  8
102
 10
272.5
 20
117.5
 30
0.0
 11
272.5
 21
110.0
 31
0.0
  0
LINE
  8
102
 10
245.0
 20
130.0
 30
0.0
 11
245.0
 21
115.0
 31
0.0
  0
LINE
  8
104
 10
262.5
 20
102.5
 30
0.0
 11
270.813729
 21
102.5
 31
0.0
  0
LINE
  8
102
 10
262.5
 20
100.0
 30
0.0
 11
262.5
 21
105.0
 31
0.0
  0
LINE
  8
102
 10
245.0
 20
100.0
 30
0.0
 11
240.952949
 21
106.0
 31
0.0
  0
ATTDEF
  8
110
 10
248.630492
 20
101.169204
 30
0.0
 40
2.2
  1
K9
  3
Post vnster
  2
S1
 70
     4
  7
ROMANS
  0
ATTDEF
  8
110
 10
244.0
 20
95.0
 30
0.0
 40
2.2
  1
14
  3
Uttag 2
  2
14
 70
     4
 50
90.0
  7
ROMANS
  0
LINE
  8
102
 10
245.0
 20
95.0
 30
0.0
 11
245.0
 21
100.0
 31
0.0
  0
ATTDEF
  8
110
 10
258.630492
 20
101.169204
 30
0.0
 40
2.2
  1
K9
  3
Post vnster
  2
II
 70
     4
  7
ROMANS
  0
LINE
  8
102
 10
262.5
 20
100.0
 30
0.0
 11
265.0
 21
100.0
 31
0.0
  0
LINE
  8
102
 10
245.0
 20
110.0
 30
0.0
 11
245.0
 21
105.0
 31
0.0
  0
ATTDEF
  8
110
 10
244.0
 20
106.181844
 30
0.0
 40
2.2
  1
13
  3
Uttag 1
  2
13
 70
     4
 50
90.0
  7
ROMANS
  0
LINE
  8
102
 10
245.0
 20
110.0
 30
0.0
 11
245.0
 21
115.0
 31
0.0
  0
LINE
  8
102
 10
262.5
 20
105.0
 30
0.0
 11
265.0
 21
105.0
 31
0.0
  0
LINE
  8
102
 10
272.5
 20
100.0
 30
0.0
 11
268.452949
 21
106.0
 31
0.0
  0
LINE
  8
102
 10
272.5
 20
95.0
 30
0.0
 11
272.5
 21
100.0
 31
0.0
  0
ATTDEF
  8
110
 10
270.668096
 20
95.0
 30
0.0
 40
2.2
  1
14
  3
Uttag 2
  2
14
 70
     4
 50
90.0
  7
ROMANS
  0
LINE
  8
102
 10
272.5
 20
97.93783
 30
0.0
 11
272.5
 21
95.43783
 31
0.0
  0
ATTDEF
  8
110
 10
274.801867
 20
101.169204
 30
0.0
 40
2.2
  1
K9
  3
Post vnster
  2
S3
 70
     4
  7
ROMANS
  0
LINE
  8
102
 10
272.5
 20
110.0
 30
0.0
 11
272.5
 21
105.0
 31
0.0
  0
ATTDEF
  8
110
 10
270.668096
 20
106.181844
 30
0.0
 40
2.2
  1
13
  3
Uttag 1
  2
13
 70
     4
 50
90.0
  7
ROMANS
  0
LINE
  8
102
 10
292.691962
 20
129.99938
 30
0.0
 11
245.0
 21
130.0
 31
0.0
  0
INSERT
  8
01
  2
S71
 10
245.0
 20
130.0
 30
0.0
  0
LINE
  8
102
 10
320.555589
 20
117.501033
 30
0.0
 11
272.5
 21
117.5
 31
0.0
  0
LINE
  8
102
 10
320.623786
 20
109.99938
 30
0.0
 11
320.441962
 21
130.0
 31
0.0
  0
LINE
  8
102
 10
292.941962
 20
110.0
 30
0.0
 11
292.941962
 21
129.99938
 31
0.0
  0
LINE
  8
102
 10
292.941962
 20
100.0
 30
0.0
 11
288.894911
 21
106.0
 31
0.0
  0
ATTDEF
  8
110
 10
291.941962
 20
95.0
 30
0.0
 40
2.2
  1
14
  3
Uttag 2
  2
14X
 70
     4
 50
90.0
  7
ROMANS
  0
ATTDEF
  8
110
 10
282.11381
 20
101.434423
 30
0.0
 40
2.2
  1
K1
  3
Post vnster
  2
KM1
 70
     4
  7
ROMANS
  0
LINE
  8
102
 10
292.941962
 20
95.0
 30
0.0
 11
292.941962
 21
100.0
 31
0.0
  0
ATTDEF
  8
110
 10
291.941962
 20
106.181844
 30
0.0
 40
2.2
  1
13
  3
Uttag 1
  2
13X
 70
     4
 50
90.0
  7
ROMANS
  0
LINE
  8
102
 10
292.941962
 20
110.0
 30
0.0
 11
292.941962
 21
105.0
 31
0.0
  0
LINE
  8
102
 10
320.623786
 20
100.0
 30
0.0
 11
316.576735
 21
106.0
 31
0.0
  0
LINE
  8
102
 10
320.623786
 20
95.0
 30
0.0
 11
320.623786
 21
100.0
 31
0.0
  0
ATTDEF
  8
110
 10
319.623786
 20
95.0
 30
0.0
 40
2.2
  1
14
  3
Uttag 2
  2
14X
 70
     4
 50
90.0
  7
ROMANS
  0
LINE
  8
102
 10
320.623786
 20
95.0
 30
0.0
 11
320.623786
 21
94.25
 31
0.0
  0
ATTDEF
  8
110
 10
309.795634
 20
101.434423
 30
0.0
 40
2.2
  1
K1
  3
Post vnster
  2
KM2
 70
     4
  7
ROMANS
  0
LINE
  8
102
 10
320.623786
 20
110.0
 30
0.0
 11
320.623786
 21
105.0
 31
0.0
  0
ATTDEF
  8
110
 10
319.623786
 20
106.181844
 30
0.0
 40
2.2
  1
13
  3
Uttag 1
  2
13X
 70
     4
 50
90.0
  7
ROMANS
  0
LINE
  8
102
 10
320.623786
 20
110.0
 30
0.0
 11
320.623786
 21
109.99938
 31
0.0
  0
LINE
  8
102
 10
292.941962
 20
129.99938
 30
0.0
 11
320.441962
 21
130.0
 31
0.0
  0
INSERT
  8
102
  2
S71
 10
292.941962
 20
129.99938
 30
0.0
  0
INSERT
  8
104
  2
S71
 10
320.555589
 20
117.501033
 30
0.0
  0
INSERT
  8
102
 66
     1
  2
XH1
 10
352.717579
 20
37.506201
 30
0.0
  0
ATTRIB
  8
102
 10
344.389427
 20
43.940624
 30
0.0
 40
2.2
  1
H2
  2
POST
 70
     0
  7
ROMANS
  0
ATTRIB
  8
102
 10
351.717579
 20
48.688045
 30
0.0
 40
2.2
  1
X1
  2
ANSL
 70
     0
 50
90.0
  7
ROMANS
  0
ATTRIB
  8
102
 10
351.717579
 20
37.506201
 30
0.0
 40
2.2
  1
X2
  2
ANSL
 70
     0
 50
90.0
  7
ROMANS
  0
SEQEND
  8
102
  0
INSERT
  8
102
 66
     1
  2
XH1
 10
335.217579
 20
37.506201
 30
0.0
  0
ATTRIB
  8
102
 10
326.889427
 20
43.940624
 30
0.0
 40
2.2
  1
H1
  2
POST
 70
     0
  7
ROMANS
  0
ATTRIB
  8
102
 10
334.217579
 20
48.688045
 30
0.0
 40
2.2
  1
X1
  2
ANSL
 70
     0
 50
90.0
  7
ROMANS
  0
ATTRIB
  8
102
 10
334.217579
 20
37.506201
 30
0.0
 40
2.2
  1
X2
  2
ANSL
 70
     0
 50
90.0
  7
ROMANS
  0
SEQEND
  8
102
  0
LINE
  8
102
 10
352.717579
 20
37.506201
 30
0.0
 11
352.652137
 21
27.5
 31
0.0
  0
LINE
  8
102
 10
335.217579
 20
37.506201
 30
0.0
 11
335.217579
 21
27.5
 31
0.0
  0
LINE
  8
102
 10
352.652137
 20
27.5
 30
0.0
 11
335.217579
 21
27.5
 31
0.0
  0
LINE
  8
104
 10
343.295321
 20
27.5
 30
0.0
 11
345.795321
 21
27.5
 31
0.0
  0
LINE
  8
102
 10
352.717579
 20
27.506201
 30
0.0
 11
352.717579
 21
27.506201
 31
0.0
  0
LINE
  8
102
 10
352.717579
 20
52.506201
 30
0.0
 11
352.652137
 21
72.5
 31
0.0
  0
LINE
  8
102
 10
335.217579
 20
52.506201
 30
0.0
 11
335.217579
 21
67.5
 31
0.0
  0
LINE
  8
102
 10
352.652137
 20
72.5
 30
0.0
 11
320.623786
 21
72.5
 31
0.0
  0
LINE
  8
102
 10
352.717579
 20
65.006201
 30
0.0
 11
352.717579
 21
65.006201
 31
0.0
  0
LINE
  8
104
 10
252.941962
 20
172.5
 30
0.0
 11
235.441962
 21
172.5
 31
0.0
  0
TEXT
  8
11
 10
228.961493
 20
171.790426
 30
0.0
 40
2.2
  1
Us
  7
ROMANS
  0
LINE
  8
102
 10
320.441962
 20
155.0
 30
0.0
 11
245.0
 21
155.0
 31
0.0
  0
LINE
  8
102
 10
245.0
 20
130.0
 30
0.0
 11
245.0
 21
155.0
 31
0.0
  0
LINE
  8
102
 10
252.941962
 20
177.5
 30
0.0
 11
252.941962
 21
172.5
 31
0.0
  0
LINE
  8
102
 10
330.441962
 20
163.0
 30
0.0
 11
330.441962
 21
160.5
 31
0.0
  0
LINE
  8
102
 10
320.441962
 20
161.75
 30
0.0
 11
320.441962
 21
156.75
 31
0.0
  0
ATTDEF
  8
102
 10
319.441962
 20
156.75
 30
0.0
 40
2.2
  1
96
  3
Anslutning
  2
96
 70
     0
 50
90.0
  7
ROMANS
  0
LINE
  8
102
  6
DASHED
 10
320.441962
 20
156.75
 30
0.0
 11
320.441962
 21
155.0
 31
0.0
  0
LINE
  8
104
 10
327.941962
 20
164.25
 30
0.0
 11
305.0
 21
164.25
 31
0.0
  0
LINE
  8
104
 10
300.441962
 20
171.25
 30
0.0
 11
310.441962
 21
171.25
 31
0.0
  0
LINE
  8
104
 10
300.441962
 20
172.25
 30
0.0
 11
311.441962
 21
172.25
 31
0.0
  0
INSERT
  8
110
  2
S139
 10
295.814596
 20
170.900702
 30
0.0
 41
0.9
 42
0.9
 43
0.9
  0
LINE
  8
102
 10
300.441962
 20
169.25
 30
0.0
 11
300.441962
 21
174.25
 31
0.0
  0
LINE
  8
102
 10
300.441962
 20
169.25
 30
0.0
 11
302.941962
 21
169.25
 31
0.0
  0
LINE
  8
102
 10
300.441962
 20
174.25
 30
0.0
 11
302.941962
 21
174.25
 31
0.0
  0
LINE
  8
104
 10
311.441962
 20
172.25
 30
0.0
 11
311.441962
 21
165.25
 31
0.0
  0
LINE
  8
102
  6
DASHED
 10
320.441962
 20
171.75
 30
0.0
 11
320.441962
 21
177.5
 31
0.0
  0
LINE
  8
102
 10
320.441962
 20
166.75
 30
0.0
 11
322.941962
 21
166.75
 31
0.0
  0
LINE
  8
102
 10
320.441962
 20
161.75
 30
0.0
 11
322.927243
 21
167.75
 31
0.0
  0
LINE
  8
102
 10
310.441962
 20
165.25
 30
0.0
 11
310.441962
 21
169.25
 31
0.0
  0
LINE
  8
104
 10
321.891709
 20
165.25
 30
0.0
 11
311.441962
 21
165.25
 31
0.0
  0
LINE
  8
102
 10
306.802006
 20
165.75
 30
0.0
 11
306.802006
 21
164.25
 31
0.0
  0
LINE
  8
102
 10
306.802006
 20
165.75
 30
0.0
 11
309.302006
 21
164.25
 31
0.0
  0
LINE
  8
104
 10
310.441962
 20
171.25
 30
0.0
 11
310.441962
 21
166.75
 31
0.0
  0
ATTDEF
  8
102
 10
319.441962
 20
166.75
 30
0.0
 40
2.2
  1
95
  3
Anslutning
  2
95
 70
     0
 50
90.0
  7
ROMANS
  0
LINE
  8
102
 10
320.441962
 20
166.75
 30
0.0
 11
320.441962
 21
171.75
 31
0.0
  0
LINE
  8
102
 10
330.441962
 20
168.0
 30
0.0
 11
330.441962
 21
165.5
 31
0.0
  0
LINE
  8
102
 10
330.441962
 20
165.5
 30
0.0
 11
327.941962
 21
165.5
 31
0.0
  0
LINE
  8
102
 10
327.941962
 20
163.0
 30
0.0
 11
330.441962
 21
163.0
 31
0.0
  0
LINE
  8
102
 10
327.941962
 20
165.5
 30
0.0
 11
327.941962
 21
163.0
 31
0.0
  0
ATTDEF
  8
102
 10
332.65948
 20
163.113341
 30
0.0
 40
2.2
  1
F3
  3
Post hger
  2
FR1
 70
     0
  7
ROMANS
  0
INSERT
  8
104
  6
DASHED
  2
S71
 10
320.441962
 20
177.5
 30
0.0
  0
TEXT
  8
11
 10
250.0
 20
182.5
 30
0.0
 40
2.2
  1
Local control/Betätigung innerhalb/Commande locale
  7
ROMANS
  0
INSERT
  8
104
  2
S71
 10
292.941962
 20
67.5
 30
0.0
  0
INSERT
  8
104
  2
S71
 10
320.623786
 20
72.5
 30
0.0
  0
INSERT
  8
01
  2
S71
 10
335.217579
 20
27.5
 30
0.0
  0
LINE
  8
5
 10
194.742327
 20
180.0
 30
0.0
 11
194.742327
 21
185.0
 31
0.0
  0
LINE
  8
105
 10
194.742327
 20
185.0
 30
0.0
 11
194.593384
 21
191.576933
 31
0.0
  0
LINE
  8
102
 10
12.5
 20
177.5
 30
0.0
 11
140.0
 21
177.5
 31
0.0
  0
LINE
  8
102
 10
225.0
 20
177.5
 30
0.0
 11
352.5
 21
177.5
 31
0.0
  0
TEXT
  8
11
 10
2.5
 20
264.923
 30
0.0
 40
2.4255
  1
DAR 145-300
  7
ROMANS
  0
INSERT
  8
102
  2
XP1
 10
10.0
 20
177.5
 30
0.0
 50
270.0
  0
INSERT
  8
01
 66
     1
  2
S153
 10
16.049674
 20
178.408163
 30
0.0
  0
ATTRIB
  8
108
 10
15.049674
 20
175.208163
 30
0.0
 40
2.2
  1

  2
TEXTUV
 70
     0
 72
     2
 11
15.049674
 21
175.208163
 31
0.0
  0
ATTRIB
  8
108
 10
12.430626
 20
179.408163
 30
0.0
 40
2.2
  1
X1
  2
TEXTV
 70
     0
 72
     2
 11
15.049674
 21
179.408163
 31
0.0
  0
ATTRIB
  8
108
 10
17.049674
 20
175.208163
 30
0.0
 40
2.2
  1

  2
TEXTUH
 70
     0
  0
ATTRIB
  8
108
 10
17.049674
 20
179.408163
 30
0.0
 40
2.2
  1

  2
TEXTH
 70
     0
  0
SEQEND
  8
01
  0
INSERT
  8
01
 66
     1
  2
S153
 10
16.049674
 20
173.408163
 30
0.0
  0
ATTRIB
  8
108
 10
15.049674
 20
170.208163
 30
0.0
 40
2.2
  1

  2
TEXTUV
 70
     0
 72
     2
 11
15.049674
 21
170.208163
 31
0.0
  0
ATTRIB
  8
108
 10
12.849674
 20
174.408163
 30
0.0
 40
2.2
  1
11
  2
TEXTV
 70
     0
 72
     2
 11
15.049674
 21
174.408163
 31
0.0
  0
ATTRIB
  8
108
 10
17.049674
 20
170.208163
 30
0.0
 40
2.2
  1

  2
TEXTUH
 70
     0
  0
ATTRIB
  8
108
 10
17.049674
 20
174.408163
 30
0.0
 40
2.2
  1

  2
TEXTH
 70
     0
  0
SEQEND
  8
01
  0
INSERT
  8
102
  2
XP1
 10
72.941962
 20
155.0
 30
0.0
 50
270.0
  0
INSERT
  8
102
  2
XP1
 10
65.0
 20
155.0
 30
0.0
 50
90.0
  0
LINE
  8
102
 10
75.441962
 20
155.0
 30
0.0
 11
120.441962
 21
155.0
 31
0.0
  0
LINE
  8
104
 10
20.0
 20
147.5
 30
0.0
 11
20.0
 21
155.0
 31
0.0
  0
LINE
  8
104
 10
20.0
 20
155.0
 30
0.0
 11
62.5
 21
155.0
 31
0.0
  0
LINE
  8
104
 10
20.0
 20
130.0
 30
0.0
 11
20.0
 21
115.0
 31
0.0
  0
LINE
  8
104
 10
20.0
 20
95.0
 30
0.0
 11
20.0
 21
75.0
 31
0.0
  0
LINE
  8
104
 10
20.0
 20
75.0
 30
0.0
 11
62.5
 21
75.0
 31
0.0
  0
LINE
  8
104
 10
62.5
 20
130.0
 30
0.0
 11
47.5
 21
130.0
 31
0.0
  0
LINE
  8
104
 10
47.5
 20
97.5
 30
0.0
 11
47.5
 21
90.0
 31
0.0
  0
LINE
  8
104
 10
47.5
 20
90.0
 30
0.0
 11
62.5
 21
90.0
 31
0.0
  0
LINE
  8
104
 10
47.5
 20
130.0
 30
0.0
 11
20.0
 21
130.0
 31
0.0
  0
LINE
  8
104
 10
47.5
 20
112.5
 30
0.0
 11
47.5
 21
117.5
 31
0.0
  0
LINE
  8
104
 10
47.5
 20
117.5
 30
0.0
 11
62.5
 21
117.5
 31
0.0
  0
INSERT
  8
01
 66
     1
  2
S153
 10
61.049674
 20
125.908163
 30
0.0
  0
ATTRIB
  8
108
 10
60.049674
 20
122.708163
 30
0.0
 40
2.2
  1

  2
TEXTUV
 70
     0
 72
     2
 11
60.049674
 21
122.708163
 31
0.0
  0
ATTRIB
  8
108
 10
56.487769
 20
126.908163
 30
0.0
 40
2.2
  1
22
  2
TEXTV
 70
     0
 72
     2
 11
60.049674
 21
126.908163
 31
0.0
  0
ATTRIB
  8
108
 10
62.049674
 20
122.708163
 30
0.0
 40
2.2
  1

  2
TEXTUH
 70
     0
  0
ATTRIB
  8
108
 10
62.049674
 20
126.908163
 30
0.0
 40
2.2
  1

  2
TEXTH
 70
     0
  0
SEQEND
  8
01
  0
INSERT
  8
01
 66
     1
  2
S153
 10
61.049674
 20
130.908163
 30
0.0
  0
ATTRIB
  8
108
 10
60.049674
 20
127.708163
 30
0.0
 40
2.2
  1

  2
TEXTUV
 70
     0
 72
     2
 11
60.049674
 21
127.708163
 31
0.0
  0
ATTRIB
  8
108
 10
57.430626
 20
131.908163
 30
0.0
 40
2.2
  1
X1
  2
TEXTV
 70
     0
 72
     2
 11
60.049674
 21
131.908163
 31
0.0
  0
ATTRIB
  8
108
 10
62.049674
 20
127.708163
 30
0.0
 40
2.2
  1

  2
TEXTUH
 70
     0
  0
ATTRIB
  8
108
 10
62.049674
 20
131.908163
 30
0.0
 40
2.2
  1

  2
TEXTH
 70
     0
  0
SEQEND
  8
01
  0
INSERT
  8
102
  2
XP1
 10
65.0
 20
130.0
 30
0.0
 50
90.0
  0
INSERT
  8
01
 66
     1
  2
S153
 10
61.049674
 20
113.408163
 30
0.0
  0
ATTRIB
  8
108
 10
60.049674
 20
110.208163
 30
0.0
 40
2.2
  1

  2
TEXTUV
 70
     0
 72
     2
 11
60.049674
 21
110.208163
 31
0.0
  0
ATTRIB
  8
108
 10
56.487769
 20
114.408163
 30
0.0
 40
2.2
  1
23
  2
TEXTV
 70
     0
 72
     2
 11
60.049674
 21
114.408163
 31
0.0
  0
ATTRIB
  8
108
 10
62.049674
 20
110.208163
 30
0.0
 40
2.2
  1

  2
TEXTUH
 70
     0
  0
ATTRIB
  8
108
 10
62.049674
 20
114.408163
 30
0.0
 40
2.2
  1

  2
TEXTH
 70
     0
  0
SEQEND
  8
01
  0
INSERT
  8
01
 66
     1
  2
S153
 10
61.049674
 20
118.408163
 30
0.0
  0
ATTRIB
  8
108
 10
60.049674
 20
115.208163
 30
0.0
 40
2.2
  1

  2
TEXTUV
 70
     0
 72
     2
 11
60.049674
 21
115.208163
 31
0.0
  0
ATTRIB
  8
108
 10
57.430626
 20
119.408163
 30
0.0
 40
2.2
  1
X1
  2
TEXTV
 70
     0
 72
     2
 11
60.049674
 21
119.408163
 31
0.0
  0
ATTRIB
  8
108
 10
62.049674
 20
115.208163
 30
0.0
 40
2.2
  1

  2
TEXTUH
 70
     0
  0
ATTRIB
  8
108
 10
62.049674
 20
119.408163
 30
0.0
 40
2.2
  1

  2
TEXTH
 70
     0
  0
SEQEND
  8
01
  0
INSERT
  8
102
  2
XP1
 10
65.0
 20
117.5
 30
0.0
 50
90.0
  0
INSERT
  8
01
 66
     1
  2
S153
 10
61.049674
 20
85.908163
 30
0.0
  0
ATTRIB
  8
108
 10
60.049674
 20
82.708163
 30
0.0
 40
2.2
  1

  2
TEXTUV
 70
     0
 72
     2
 11
60.049674
 21
82.708163
 31
0.0
  0
ATTRIB
  8
108
 10
56.487769
 20
86.908163
 30
0.0
 40
2.2
  1
27
  2
TEXTV
 70
     0
 72
     2
 11
60.049674
 21
86.908163
 31
0.0
  0
ATTRIB
  8
108
 10
62.049674
 20
82.708163
 30
0.0
 40
2.2
  1

  2
TEXTUH
 70
     0
  0
ATTRIB
  8
108
 10
62.049674
 20
86.908163
 30
0.0
 40
2.2
  1

  2
TEXTH
 70
     0
  0
SEQEND
  8
01
  0
INSERT
  8
01
 66
     1
  2
S153
 10
61.049674
 20
90.908163
 30
0.0
  0
ATTRIB
  8
108
 10
60.049674
 20
87.708163
 30
0.0
 40
2.2
  1

  2
TEXTUV
 70
     0
 72
     2
 11
60.049674
 21
87.708163
 31
0.0
  0
ATTRIB
  8
108
 10
57.430626
 20
91.908163
 30
0.0
 40
2.2
  1
X1
  2
TEXTV
 70
     0
 72
     2
 11
60.049674
 21
91.908163
 31
0.0
  0
ATTRIB
  8
108
 10
62.049674
 20
87.708163
 30
0.0
 40
2.2
  1

  2
TEXTUH
 70
     0
  0
ATTRIB
  8
108
 10
62.049674
 20
91.908163
 30
0.0
 40
2.2
  1

  2
TEXTH
 70
     0
  0
SEQEND
  8
01
  0
INSERT
  8
102
  2
XP1
 10
65.0
 20
90.0
 30
0.0
 50
90.0
  0
INSERT
  8
01
 66
     1
  2
S153
 10
61.049674
 20
75.908163
 30
0.0
  0
ATTRIB
  8
108
 10
60.049674
 20
72.708163
 30
0.0
 40
2.2
  1

  2
TEXTUV
 70
     0
 72
     2
 11
60.049674
 21
72.708163
 31
0.0
  0
ATTRIB
  8
108
 10
57.430626
 20
76.908163
 30
0.0
 40
2.2
  1
X1
  2
TEXTV
 70
     0
 72
     2
 11
60.049674
 21
76.908163
 31
0.0
  0
ATTRIB
  8
108
 10
62.049674
 20
72.708163
 30
0.0
 40
2.2
  1

  2
TEXTUH
 70
     0
  0
ATTRIB
  8
108
 10
62.049674
 20
76.908163
 30
0.0
 40
2.2
  1

  2
TEXTH
 70
     0
  0
SEQEND
  8
01
  0
INSERT
  8
01
 66
     1
  2
S153
 10
61.049674
 20
70.908163
 30
0.0
  0
ATTRIB
  8
108
 10
60.049674
 20
67.708163
 30
0.0
 40
2.2
  1

  2
TEXTUV
 70
     0
 72
     2
 11
60.049674
 21
67.708163
 31
0.0
  0
ATTRIB
  8
108
 10
56.487769
 20
71.908163
 30
0.0
 40
2.2
  1
28
  2
TEXTV
 70
     0
 72
     2
 11
60.049674
 21
71.908163
 31
0.0
  0
ATTRIB
  8
108
 10
62.049674
 20
67.708163
 30
0.0
 40
2.2
  1

  2
TEXTUH
 70
     0
  0
ATTRIB
  8
108
 10
62.049674
 20
71.908163
 30
0.0
 40
2.2
  1

  2
TEXTH
 70
     0
  0
SEQEND
  8
01
  0
INSERT
  8
102
  2
XP1
 10
65.0
 20
75.0
 30
0.0
 50
90.0
  0
INSERT
  8
01
  6
DASHED
 66
     1
  2
S153
 10
79.242841
 20
125.907544
 30
0.0
  0
ATTRIB
  8
108
  6
DASHED
 10
78.242841
 20
122.707544
 30
0.0
 40
2.2
  1

  2
TEXTUV
 70
     0
 72
     2
 11
78.242841
 21
122.707544
 31
0.0
  0
ATTRIB
  8
108
  6
DASHED
 10
74.680937
 20
126.907544
 30
0.0
 40
2.2
  1
22
  2
TEXTV
 70
     0
 72
     2
 11
78.242841
 21
126.907544
 31
0.0
  0
ATTRIB
  8
108
  6
DASHED
 10
80.242841
 20
122.707544
 30
0.0
 40
2.2
  1

  2
TEXTUH
 70
     0
  0
ATTRIB
  8
108
  6
DASHED
 10
80.242841
 20
126.907544
 30
0.0
 40
2.2
  1

  2
TEXTH
 70
     0
  0
SEQEND
  8
01
  6
DASHED
  0
INSERT
  8
01
  6
DASHED
 66
     1
  2
S153
 10
79.242841
 20
130.907544
 30
0.0
  0
ATTRIB
  8
108
  6
DASHED
 10
78.242841
 20
127.707544
 30
0.0
 40
2.2
  1

  2
TEXTUV
 70
     0
 72
     2
 11
78.242841
 21
127.707544
 31
0.0
  0
ATTRIB
  8
108
  6
DASHED
 10
75.623794
 20
131.907544
 30
0.0
 40
2.2
  1
X1
  2
TEXTV
 70
     0
 72
     2
 11
78.242841
 21
131.907544
 31
0.0
  0
ATTRIB
  8
108
  6
DASHED
 10
80.242841
 20
127.707544
 30
0.0
 40
2.2
  1

  2
TEXTUH
 70
     0
  0
ATTRIB
  8
108
  6
DASHED
 10
80.242841
 20
131.907544
 30
0.0
 40
2.2
  1

  2
TEXTH
 70
     0
  0
SEQEND
  8
01
  6
DASHED
  0
INSERT
  8
102
  2
XP1
 10
72.5
 20
129.99938
 30
0.0
 50
270.0
  0
INSERT
  8
01
  6
DASHED
 66
     1
  2
S153
 10
79.242841
 20
118.409196
 30
0.0
  0
ATTRIB
  8
108
  6
DASHED
 10
78.242841
 20
115.209196
 30
0.0
 40
2.2
  1

  2
TEXTUV
 70
     0
 72
     2
 11
78.242841
 21
115.209196
 31
0.0
  0
ATTRIB
  8
108
  6
DASHED
 10
75.623794
 20
119.409196
 30
0.0
 40
2.2
  1
X1
  2
TEXTV
 70
     0
 72
     2
 11
78.242841
 21
119.409196
 31
0.0
  0
ATTRIB
  8
108
  6
DASHED
 10
80.242841
 20
115.209196
 30
0.0
 40
2.2
  1

  2
TEXTUH
 70
     0
  0
ATTRIB
  8
108
  6
DASHED
 10
80.242841
 20
119.409196
 30
0.0
 40
2.2
  1

  2
TEXTH
 70
     0
  0
SEQEND
  8
01
  6
DASHED
  0
INSERT
  8
01
  6
DASHED
 66
     1
  2
S153
 10
79.242841
 20
113.409196
 30
0.0
  0
ATTRIB
  8
108
  6
DASHED
 10
78.242841
 20
110.209196
 30
0.0
 40
2.2
  1

  2
TEXTUV
 70
     0
 72
     2
 11
78.242841
 21
110.209196
 31
0.0
  0
ATTRIB
  8
108
  6
DASHED
 10
74.680937
 20
114.409196
 30
0.0
 40
2.2
  1
23
  2
TEXTV
 70
     0
 72
     2
 11
78.242841
 21
114.409196
 31
0.0
  0
ATTRIB
  8
108
  6
DASHED
 10
80.242841
 20
110.209196
 30
0.0
 40
2.2
  1

  2
TEXTUH
 70
     0
  0
ATTRIB
  8
108
  6
DASHED
 10
80.242841
 20
114.409196
 30
0.0
 40
2.2
  1

  2
TEXTH
 70
     0
  0
SEQEND
  8
01
  6
DASHED
  0
INSERT
  8
102
  2
XP1
 10
72.5
 20
117.501033
 30
0.0
 50
270.0
  0
INSERT
  8
01
  6
DASHED
 66
     1
  2
S153
 10
79.242841
 20
85.908163
 30
0.0
  0
ATTRIB
  8
108
  6
DASHED
 10
78.242841
 20
82.708163
 30
0.0
 40
2.2
  1

  2
TEXTUV
 70
     0
 72
     2
 11
78.242841
 21
82.708163
 31
0.0
  0
ATTRIB
  8
108
  6
DASHED
 10
74.680937
 20
86.908163
 30
0.0
 40
2.2
  1
27
  2
TEXTV
 70
     0
 72
     2
 11
78.242841
 21
86.908163
 31
0.0
  0
ATTRIB
  8
108
  6
DASHED
 10
80.242841
 20
82.708163
 30
0.0
 40
2.2
  1

  2
TEXTUH
 70
     0
  0
ATTRIB
  8
108
  6
DASHED
 10
80.242841
 20
86.908163
 30
0.0
 40
2.2
  1

  2
TEXTH
 70
     0
  0
SEQEND
  8
01
  6
DASHED
  0
INSERT
  8
01
  6
DASHED
 66
     1
  2
S153
 10
79.242841
 20
90.908163
 30
0.0
  0
ATTRIB
  8
108
  6
DASHED
 10
78.242841
 20
87.708163
 30
0.0
 40
2.2
  1

  2
TEXTUV
 70
     0
 72
     2
 11
78.242841
 21
87.708163
 31
0.0
  0
ATTRIB
  8
108
  6
DASHED
 10
75.623794
 20
91.908163
 30
0.0
 40
2.2
  1
X1
  2
TEXTV
 70
     0
 72
     2
 11
78.242841
 21
91.908163
 31
0.0
  0
ATTRIB
  8
108
  6
DASHED
 10
80.242841
 20
87.708163
 30
0.0
 40
2.2
  1

  2
TEXTUH
 70
     0
  0
ATTRIB
  8
108
  6
DASHED
 10
80.242841
 20
91.908163
 30
0.0
 40
2.2
  1

  2
TEXTH
 70
     0
  0
SEQEND
  8
01
  6
DASHED
  0
INSERT
  8
102
  2
XP1
 10
72.5
 20
90.0
 30
0.0
 50
270.0
  0
INSERT
  8
01
  6
DASHED
 66
     1
  2
S153
 10
79.242841
 20
75.908163
 30
0.0
  0
ATTRIB
  8
108
  6
DASHED
 10
78.242841
 20
72.708163
 30
0.0
 40
2.2
  1

  2
TEXTUV
 70
     0
 72
     2
 11
78.242841
 21
72.708163
 31
0.0
  0
ATTRIB
  8
108
  6
DASHED
 10
75.623794
 20
76.908163
 30
0.0
 40
2.2
  1
X1
  2
TEXTV
 70
     0
 72
     2
 11
78.242841
 21
76.908163
 31
0.0
  0
ATTRIB
  8
108
  6
DASHED
 10
80.242841
 20
72.708163
 30
0.0
 40
2.2
  1

  2
TEXTUH
 70
     0
  0
ATTRIB
  8
108
  6
DASHED
 10
80.242841
 20
76.908163
 30
0.0
 40
2.2
  1

  2
TEXTH
 70
     0
  0
SEQEND
  8
01
  6
DASHED
  0
INSERT
  8
01
  6
DASHED
 66
     1
  2
S153
 10
79.242841
 20
70.908163
 30
0.0
  0
ATTRIB
  8
108
  6
DASHED
 10
78.242841
 20
67.708163
 30
0.0
 40
2.2
  1

  2
TEXTUV
 70
     0
 72
     2
 11
78.242841
 21
67.708163
 31
0.0
  0
ATTRIB
  8
108
  6
DASHED
 10
74.680937
 20
71.908163
 30
0.0
 40
2.2
  1
28
  2
TEXTV
 70
     0
 72
     2
 11
78.242841
 21
71.908163
 31
0.0
  0
ATTRIB
  8
108
  6
DASHED
 10
80.242841
 20
67.708163
 30
0.0
 40
2.2
  1

  2
TEXTUH
 70
     0
  0
ATTRIB
  8
108
  6
DASHED
 10
80.242841
 20
71.908163
 30
0.0
 40
2.2
  1

  2
TEXTH
 70
     0
  0
SEQEND
  8
01
  6
DASHED
  0
INSERT
  8
102
  2
XP1
 10
72.5
 20
75.0
 30
0.0
 50
270.0
  0
LINE
  8
102
 10
75.0
 20
129.99938
 30
0.0
 11
92.691962
 21
129.99938
 31
0.0
  0
LINE
  8
102
 10
75.0
 20
117.501033
 30
0.0
 11
120.805589
 21
117.501033
 31
0.0
  0
LINE
  8
102
 10
75.0
 20
90.0
 30
0.0
 11
120.873786
 21
90.0
 31
0.0
  0
LINE
  8
102
 10
75.0
 20
75.0
 30
0.0
 11
92.691962
 21
75.0
 31
0.0
  0
INSERT
  8
01
 66
     1
  2
S153
 10
16.049674
 20
23.408163
 30
0.0
  0
ATTRIB
  8
108
 10
15.049674
 20
20.208163
 30
0.0
 40
2.2
  1

  2
TEXTUV
 70
     0
 72
     2
 11
15.049674
 21
20.208163
 31
0.0
  0
ATTRIB
  8
108
 10
11.906817
 20
24.408163
 30
0.0
 40
2.2
  1
12
  2
TEXTV
 70
     0
 72
     2
 11
15.049674
 21
24.408163
 31
0.0
  0
ATTRIB
  8
108
 10
17.049674
 20
20.208163
 30
0.0
 40
2.2
  1

  2
TEXTUH
 70
     0
  0
ATTRIB
  8
108
 10
17.049674
 20
24.408163
 30
0.0
 40
2.2
  1

  2
TEXTH
 70
     0
  0
SEQEND
  8
01
  0
INSERT
  8
01
 66
     1
  2
S153
 10
16.049674
 20
28.408163
 30
0.0
  0
ATTRIB
  8
108
 10
15.049674
 20
25.208163
 30
0.0
 40
2.2
  1

  2
TEXTUV
 70
     0
 72
     2
 11
15.049674
 21
25.208163
 31
0.0
  0
ATTRIB
  8
108
 10
12.430626
 20
29.408163
 30
0.0
 40
2.2
  1
X1
  2
TEXTV
 70
     0
 72
     2
 11
15.049674
 21
29.408163
 31
0.0
  0
ATTRIB
  8
108
 10
17.049674
 20
25.208163
 30
0.0
 40
2.2
  1

  2
TEXTUH
 70
     0
  0
ATTRIB
  8
108
 10
17.049674
 20
29.408163
 30
0.0
 40
2.2
  1

  2
TEXTH
 70
     0
  0
SEQEND
  8
01
  0
INSERT
  8
102
  2
XP1
 10
10.0
 20
27.5
 30
0.0
 50
270.0
  0
LINE
  8
104
 10
137.5
 20
70.0
 30
0.0
 11
155.0
 21
70.0
 31
0.0
  0
LINE
  8
104
 10
155.0
 20
70.0
 30
0.0
 11
155.0
 21
52.5
 31
0.0
  0
LINE
  8
104
 10
155.0
 20
37.5
 30
0.0
 11
155.0
 21
27.5
 31
0.0
  0
LINE
  8
104
 10
155.0
 20
27.5
 30
0.0
 11
137.5
 21
27.5
 31
0.0
  0
LINE
  8
104
 10
172.5
 20
75.0
 30
0.0
 11
172.565442
 21
52.506201
 31
0.0
  0
LINE
  8
104
 10
172.565442
 20
37.506201
 30
0.0
 11
172.565442
 21
27.5
 31
0.0
  0
LINE
  8
104
 10
172.565442
 20
27.5
 30
0.0
 11
162.5
 21
27.5
 31
0.0
  0
LINE
  8
104
 10
162.5
 20
75.0
 30
0.0
 11
172.5
 21
75.0
 31
0.0
  0
INSERT
  8
104
  2
XP3
 10
92.941962
 20
70.0
 30
0.0
  0
INSERT
  8
104
  2
XP3
 10
120.623786
 20
75.0
 30
0.0
  0
LINE
  8
102
 10
92.941962
 20
67.5
 30
0.0
 11
92.941962
 21
61.75
 31
0.0
  0
LINE
  8
102
 10
120.623786
 20
77.5
 30
0.0
 11
120.623786
 21
94.25
 31
0.0
  0
INSERT
  8
102
  2
XP1
 10
135.0
 20
70.0
 30
0.0
 50
270.0
  0
INSERT
  8
102
  2
XP1
 10
135.0
 20
27.5
 30
0.0
 50
270.0
  0
INSERT
  8
104
 66
     1
  2
S153
 10
162.565442
 20
31.75
 30
0.0
  0
ATTRIB
  8
108
 10
161.565442
 20
28.55
 30
0.0
 40
2.2
  1

  2
TEXTUV
 70
     0
 72
     2
 11
161.565442
 21
28.55
 31
0.0
  0
ATTRIB
  8
108
 10
161.565442
 20
32.75
 30
0.0
 40
2.2
  1

  2
TEXTV
 70
     0
 72
     2
 11
161.565442
 21
32.75
 31
0.0
  0
ATTRIB
  8
108
 10
163.565442
 20
28.55
 30
0.0
 40
2.2
  1
X1
  2
TEXTUH
 70
     0
  0
ATTRIB
  8
108
 10
163.565442
 20
32.75
 30
0.0
 40
2.2
  1

  2
TEXTH
 70
     0
  0
SEQEND
  8
104
  0
INSERT
  8
104
 66
     1
  2
S153
 10
162.565442
 20
27.506201
 30
0.0
  0
ATTRIB
  8
108
 10
161.565442
 20
24.306201
 30
0.0
 40
2.2
  1

  2
TEXTUV
 70
     0
 72
     2
 11
161.565442
 21
24.306201
 31
0.0
  0
ATTRIB
  8
108
 10
161.565442
 20
28.506201
 30
0.0
 40
2.2
  1

  2
TEXTV
 70
     0
 72
     2
 11
161.565442
 21
28.506201
 31
0.0
  0
ATTRIB
  8
108
 10
163.565442
 20
24.306201
 30
0.0
 40
2.2
  1
12
  2
TEXTUH
 70
     0
  0
ATTRIB
  8
108
 10
163.565442
 20
28.506201
 30
0.0
 40
2.2
  1

  2
TEXTH
 70
     0
  0
SEQEND
  8
104
  0
INSERT
  8
102
  2
XP1
 10
160.0
 20
27.5
 30
0.0
 50
270.0
  0
INSERT
  8
01
 66
     1
  2
S153
 10
228.549674
 20
173.408163
 30
0.0
  0
ATTRIB
  8
108
 10
227.549674
 20
170.208163
 30
0.0
 40
2.2
  1

  2
TEXTUV
 70
     0
 72
     2
 11
227.549674
 21
170.208163
 31
0.0
  0
ATTRIB
  8
108
 10
225.349674
 20
174.408163
 30
0.0
 40
2.2
  1
11
  2
TEXTV
 70
     0
 72
     2
 11
227.549674
 21
174.408163
 31
0.0
  0
ATTRIB
  8
108
 10
229.549674
 20
170.208163
 30
0.0
 40
2.2
  1

  2
TEXTUH
 70
     0
  0
ATTRIB
  8
108
 10
229.549674
 20
174.408163
 30
0.0
 40
2.2
  1

  2
TEXTH
 70
     0
  0
SEQEND
  8
01
  0
INSERT
  8
01
 66
     1
  2
S153
 10
228.549674
 20
178.408163
 30
0.0
  0
ATTRIB
  8
108
 10
227.549674
 20
175.208163
 30
0.0
 40
2.2
  1

  2
TEXTUV
 70
     0
 72
     2
 11
227.549674
 21
175.208163
 31
0.0
  0
ATTRIB
  8
108
 10
224.930626
 20
179.408163
 30
0.0
 40
2.2
  1
X1
  2
TEXTV
 70
     0
 72
     2
 11
227.549674
 21
179.408163
 31
0.0
  0
ATTRIB
  8
108
 10
229.549674
 20
175.208163
 30
0.0
 40
2.2
  1

  2
TEXTUH
 70
     0
  0
ATTRIB
  8
108
 10
229.549674
 20
179.408163
 30
0.0
 40
2.2
  1

  2
TEXTH
 70
     0
  0
SEQEND
  8
01
  0
INSERT
  8
102
  2
XP1
 10
222.5
 20
177.5
 30
0.0
 50
270.0
  0
INSERT
  8
01
 66
     1
  2
S153
 10
231.049674
 20
23.408163
 30
0.0
  0
ATTRIB
  8
108
 10
230.049674
 20
20.208163
 30
0.0
 40
2.2
  1

  2
TEXTUV
 70
     0
 72
     2
 11
230.049674
 21
20.208163
 31
0.0
  0
ATTRIB
  8
108
 10
226.906817
 20
24.408163
 30
0.0
 40
2.2
  1
12
  2
TEXTV
 70
     0
 72
     2
 11
230.049674
 21
24.408163
 31
0.0
  0
ATTRIB
  8
108
 10
232.049674
 20
20.208163
 30
0.0
 40
2.2
  1

  2
TEXTUH
 70
     0
  0
ATTRIB
  8
108
 10
232.049674
 20
24.408163
 30
0.0
 40
2.2
  1

  2
TEXTH
 70
     0
  0
SEQEND
  8
01
  0
INSERT
  8
01
 66
     1
  2
S153
 10
231.049674
 20
28.408163
 30
0.0
  0
ATTRIB
  8
108
 10
230.049674
 20
25.208163
 30
0.0
 40
2.2
  1

  2
TEXTUV
 70
     0
 72
     2
 11
230.049674
 21
25.208163
 31
0.0
  0
ATTRIB
  8
108
 10
227.430626
 20
29.408163
 30
0.0
 40
2.2
  1
X1
  2
TEXTV
 70
     0
 72
     2
 11
230.049674
 21
29.408163
 31
0.0
  0
ATTRIB
  8
108
 10
232.049674
 20
25.208163
 30
0.0
 40
2.2
  1

  2
TEXTUH
 70
     0
  0
ATTRIB
  8
108
 10
232.049674
 20
29.408163
 30
0.0
 40
2.2
  1

  2
TEXTH
 70
     0
  0
SEQEND
  8
01
  0
INSERT
  8
102
  2
XP1
 10
225.0
 20
27.5
 30
0.0
 50
270.0
  0
INSERT
  8
104
 66
     1
  2
S153
 10
95.065442
 20
72.506201
 30
0.0
  0
ATTRIB
  8
108
 10
94.065442
 20
69.306201
 30
0.0
 40
2.2
  1

  2
TEXTUV
 70
     0
 72
     2
 11
94.065442
 21
69.306201
 31
0.0
  0
ATTRIB
  8
108
 10
94.065442
 20
73.506201
 30
0.0
 40
2.2
  1

  2
TEXTV
 70
     0
 72
     2
 11
94.065442
 21
73.506201
 31
0.0
  0
ATTRIB
  8
108
 10
96.065442
 20
69.306201
 30
0.0
 40
2.2
  1
X1:26
  2
TEXTUH
 70
     0
  0
ATTRIB
  8
108
 10
96.065442
 20
73.506201
 30
0.0
 40
2.2
  1

  2
TEXTH
 70
     0
  0
SEQEND
  8
104
  0
INSERT
  8
102
  2
XP1
 10
160.0
 20
75.0
 30
0.0
 50
270.0
  0
INSERT
  8
104
 66
     1
  2
S153
 10
162.565442
 20
75.006201
 30
0.0
  0
ATTRIB
  8
108
 10
161.565442
 20
71.806201
 30
0.0
 40
2.2
  1

  2
TEXTUV
 70
     0
 72
     2
 11
161.565442
 21
71.806201
 31
0.0
  0
ATTRIB
  8
108
 10
161.565442
 20
76.006201
 30
0.0
 40
2.2
  1

  2
TEXTV
 70
     0
 72
     2
 11
161.565442
 21
76.006201
 31
0.0
  0
ATTRIB
  8
108
 10
163.565442
 20
71.806201
 30
0.0
 40
2.2
  1
67
  2
TEXTUH
 70
     0
  0
ATTRIB
  8
108
 10
163.565442
 20
76.006201
 30
0.0
 40
2.2
  1

  2
TEXTH
 70
     0
  0
SEQEND
  8
104
  0
INSERT
  8
104
 66
     1
  2
S153
 10
162.565442
 20
79.25
 30
0.0
  0
ATTRIB
  8
108
 10
161.565442
 20
76.05
 30
0.0
 40
2.2
  1

  2
TEXTUV
 70
     0
 72
     2
 11
161.565442
 21
76.05
 31
0.0
  0
ATTRIB
  8
108
 10
161.565442
 20
80.25
 30
0.0
 40
2.2
  1

  2
TEXTV
 70
     0
 72
     2
 11
161.565442
 21
80.25
 31
0.0
  0
ATTRIB
  8
108
 10
163.565442
 20
76.05
 30
0.0
 40
2.2
  1
X1
  2
TEXTUH
 70
     0
  0
ATTRIB
  8
108
 10
163.565442
 20
80.25
 30
0.0
 40
2.2
  1

  2
TEXTH
 70
     0
  0
SEQEND
  8
104
  0
INSERT
  8
104
 66
     1
  2
S153
 10
122.565442
 20
77.506201
 30
0.0
  0
ATTRIB
  8
108
 10
121.565442
 20
74.306201
 30
0.0
 40
2.2
  1

  2
TEXTUV
 70
     0
 72
     2
 11
121.565442
 21
74.306201
 31
0.0
  0
ATTRIB
  8
108
 10
121.565442
 20
78.506201
 30
0.0
 40
2.2
  1

  2
TEXTV
 70
     0
 72
     2
 11
121.565442
 21
78.506201
 31
0.0
  0
ATTRIB
  8
108
 10
123.565442
 20
74.306201
 30
0.0
 40
2.2
  1
X1:67
  2
TEXTUH
 70
     0
  0
ATTRIB
  8
108
 10
123.565442
 20
78.506201
 30
0.0
 40
2.2
  1

  2
TEXTH
 70
     0
  0
SEQEND
  8
104
  0
TEXT
  8
102
 10
2.5
 20
5.0
 30
0.0
 40
2.205
  1
1
  7
ROMANS
  0
TEXT
  8
102
 10
9.47754
 20
5.0
 30
0.0
 40
2.205
  1
Kretsschema omritat.
  7
ROMANS
  0
TEXT
  8
102
 10
76.513673
 20
5.0
 30
0.0
 40
2.205
  1
MY
  7
ROMANS
  0
TEXT
  8
102
 10
84.013673
 20
5.0
 30
0.0
 40
2.205
  1
00
  7
ROMANS
  0
TEXT
  8
102
 10
91.513673
 20
5.0
 30
0.0
 40
2.205
  1
27
  7
ROMANS
  0
TEXT
  8
102
 10
2.5
 20
9.209353
 30
0.0
 40
2.205
  1
2
  7
ROMANS
  0
TEXT
  8
102
 10
9.47754
 20
9.209353
 30
0.0
 40
2.205
  1
Kretsschema omritat. S2 borttagen.
  7
ROMANS
  0
TEXT
  8
102
 10
76.513673
 20
9.209353
 30
0.0
 40
2.205
  1
MY
  7
ROMANS
  0
TEXT
  8
102
 10
84.013673
 20
9.209353
 30
0.0
 40
2.205
  1
01
  7
ROMANS
  0
TEXT
  8
102
 10
91.513673
 20
9.209353
 30
0.0
 40
2.205
  1
10
  7
ROMANS
  0
ENDSEC
  0
EOF
