  0
SECTION
  2
HEADER
  9
$ACADVER
  1
AC1009
  9
$DWGCODEPAGE
  3
iso8859-1
  9
$INSBASE
 10
0.0
 20
0.0
 30
0.0
  9
$EXTMIN
 10
1.0E20
 20
1.0E20
  9
$EXTMAX
 10
-1.0E20
 20
-1.0E20
  9
$LIMMIN
 10
0.0
 20
0.0
  9
$LIMMAX
 10
12.0
 20
9.0
  9
$ORTHOMODE
 70
     0
  9
$REGENMODE
 70
     1
  9
$FILLMODE
 70
     1
  9
$QTEXTMODE
 70
     0
  9
$MIRRTEXT
 70
     1
  9
$DRAGMODE
 70
     2
  9
$LTSCALE
 40
15.0
  9
$OSMODE
 70
     0
  9
$ATTMODE
 70
     1
  9
$TEXTSIZE
 40
0.2
  9
$TRACEWID
 40
0.05
  9
$TEXTSTYLE
  7
STANDARD
  9
$CLAYER
  8
0
  9
$CELTYPE
  6
DASHED
  9
$CECOLOR
 62
   256
  9
$DIMSCALE
 40
1.0
  9
$DIMASZ
 40
0.18
  9
$DIMEXO
 40
0.0625
  9
$DIMDLI
 40
0.38
  9
$DIMRND
 40
0.0
  9
$DIMDLE
 40
0.0
  9
$DIMEXE
 40
0.18
  9
$DIMTP
 40
0.0
  9
$DIMTM
 40
0.0
  9
$DIMTXT
 40
0.18
  9
$DIMCEN
 40
0.09
  9
$DIMTSZ
 40
0.0
  9
$DIMTOL
 70
     0
  9
$DIMLIM
 70
     0
  9
$DIMTIH
 70
     1
  9
$DIMTOH
 70
     1
  9
$DIMSE1
 70
     0
  9
$DIMSE2
 70
     0
  9
$DIMTAD
 70
     0
  9
$DIMZIN
 70
     0
  9
$DIMBLK
  1

  9
$DIMASO
 70
     1
  9
$DIMSHO
 70
     1
  9
$DIMPOST
  1

  9
$DIMAPOST
  1

  9
$DIMALT
 70
     0
  9
$DIMALTD
 70
     2
  9
$DIMALTF
 40
25.4
  9
$DIMLFAC
 40
1.0
  9
$DIMTOFL
 70
     0
  9
$DIMTVP
 40
0.0
  9
$DIMTIX
 70
     0
  9
$DIMSOXD
 70
     0
  9
$DIMSAH
 70
     0
  9
$DIMBLK1
  1

  9
$DIMBLK2
  1

  9
$DIMSTYLE
  2
STANDARD
  9
$DIMCLRD
 70
     0
  9
$DIMCLRE
 70
     0
  9
$DIMCLRT
 70
     0
  9
$DIMTFAC
 40
1.0
  9
$DIMGAP
 40
0.09
  9
$LUNITS
 70
     2
  9
$LUPREC
 70
     4
  9
$AXISMODE
 70
     0
  9
$AXISUNIT
 10
0.0
 20
0.0
  9
$SKETCHINC
 40
0.1
  9
$FILLETRAD
 40
0.0
  9
$AUNITS
 70
     0
  9
$AUPREC
 70
     0
  9
$MENU
  1
acad
  9
$ELEVATION
 40
0.0
  9
$PELEVATION
 40
0.0
  9
$THICKNESS
 40
0.0
  9
$LIMCHECK
 70
     0
  9
$BLIPMODE
 70
     1
  9
$CHAMFERA
 40
0.0
  9
$CHAMFERB
 40
0.0
  9
$SKPOLY
 70
     0
  9
$TDCREATE
 40
0.000000000
  9
$TDUPDATE
 40
0.000000000
  9
$TDINDWG
 40
0.0
  9
$TDUSRTIMER
 40
0.0
  9
$USRTIMER
 70
     1
  9
$ANGBASE
 50
0.0
  9
$ANGDIR
 70
     0
  9
$PDMODE
 70
     0
  9
$PDSIZE
 40
0.0
  9
$PLINEWID
 40
0.0
  9
$COORDS
 70
     1
  9
$SPLFRAME
 70
     0
  9
$SPLINETYPE
 70
     6
  9
$SPLINESEGS
 70
     8
  9
$ATTDIA
 70
     0
  9
$ATTREQ
 70
     1
  9
$HANDLING
 70
     1
  9
$HANDSEED
  5
   48B
  9
$SURFTAB1
 70
     6
  9
$SURFTAB2
 70
     6
  9
$SURFTYPE
 70
     6
  9
$SURFU
 70
     6
  9
$SURFV
 70
     6
  9
$UCSNAME
  2

  9
$UCSORG
 10
0.0
 20
0.0
 30
0.0
  9
$UCSXDIR
 10
1.0
 20
0.0
 30
0.0
  9
$UCSYDIR
 10
0.0
 20
1.0
 30
0.0
  9
$PUCSNAME
  2

  9
$PUCSORG
 10
0.0
 20
0.0
 30
0.0
  9
$PUCSXDIR
 10
1.0
 20
0.0
 30
0.0
  9
$PUCSYDIR
 10
0.0
 20
1.0
 30
0.0
  9
$USERI1
 70
     0
  9
$USERI2
 70
     0
  9
$USERI3
 70
     0
  9
$USERI4
 70
     0
  9
$USERI5
 70
     0
  9
$USERR1
 40
0.0
  9
$USERR2
 40
0.0
  9
$USERR3
 40
0.0
  9
$USERR4
 40
0.0
  9
$USERR5
 40
0.0
  9
$WORLDVIEW
 70
     1
  9
$SHADEDGE
 70
     3
  9
$SHADEDIF
 70
    70
  9
$TILEMODE
 70
     1
  9
$MAXACTVP
 70
    16
  9
$PINSBASE
 10
0.0
 20
0.0
 30
0.0
  9
$PLIMCHECK
 70
     0
  9
$PEXTMIN
 10
1.0E20
 20
1.0E20
 30
1.0E20
  9
$PEXTMAX
 10
-1.0E20
 20
-1.0E20
 30
-1.0E20
  9
$PLIMMIN
 10
0.0
 20
0.0
  9
$PLIMMAX
 10
12.0
 20
9.0
  9
$UNITMODE
 70
     0
  9
$VISRETAIN
 70
     0
  0
ENDSEC
  0
SECTION
  2
TABLES
  0
TABLE
  2
VPORT
 70
     1
  0
VPORT
  2
*ACTIVE
 70
     0
 10
0.0
 20
0.0
 11
1.0
 21
1.0
 12
6.801242
 22
4.5
 13
0.0
 23
0.0
 14
1.0
 24
1.0
 15
0.0
 25
0.0
 16
0.0
 26
0.0
 36
1.0
 17
0.0
 27
0.0
 37
0.0
 40
9.0
 41
1.511387
 42
50.0
 43
0.0
 44
0.0
 50
0.0
 51
0.0
 71
     0
 72
   100
 73
     1
 74
     1
 75
     0
 76
     0
 77
     0
 78
     0
  0
ENDTAB
  0
TABLE
  2
LTYPE
 70
    41
  0
LTYPE
  2
BYBLOCK
 70
     0
  3

 72
    65
 73
     0
 40
0.0
  0
LTYPE
  2
BYLAYER
 70
     0
  3

 72
    65
 73
     0
 40
0.0
  0
LTYPE
  2
CONTINUOUS
 70
     0
  3
Solid line
 72
    65
 73
     0
 40
0.0
  0
LTYPE
  2
BORDER
 70
    64
  3
__ __ . __ __ . __ __ . __ __ . __ __ . __ __ .
 72
    65
 73
     6
 40
1.75
 49
0.5
 49
-0.25
 49
0.5
 49
-0.25
 49
0.0
 49
-0.25
  0
LTYPE
  2
BORDER2
 70
    64
  3
__.__.__.__.__.__.__.__.__.__.__.__.__.__.__.__
 72
    65
 73
     6
 40
0.875
 49
0.25
 49
-0.125
 49
0.25
 49
-0.125
 49
0.0
 49
-0.125
  0
LTYPE
  2
BORDERX2
 70
    64
  3
____  ____  .  ____  ____  .  ____  ____  .  __
 72
    65
 73
     6
 40
3.5
 49
1.0
 49
-0.5
 49
1.0
 49
-0.5
 49
0.0
 49
-0.5
  0
LTYPE
  2
CENTER
 70
    64
  3
____ _ ____ _ ____ _ ____ _ ____ _ ____ _ ____
 72
    65
 73
     4
 40
2.0
 49
1.25
 49
-0.25
 49
0.25
 49
-0.25
  0
LTYPE
  2
CENTER2
 70
    64
  3
___ _ ___ _ ___ _ ___ _ ___ _ ___ _ ___ _ ___ _
 72
    65
 73
     4
 40
1.125
 49
0.75
 49
-0.125
 49
0.125
 49
-0.125
  0
LTYPE
  2
CENTERX2
 70
    64
  3
________  __  ________  __  ________  __  _____
 72
    65
 73
     4
 40
4.0
 49
2.5
 49
-0.5
 49
0.5
 49
-0.5
  0
LTYPE
  2
DASHDOT
 70
    64
  3
__ . __ . __ . __ . __ . __ . __ . __ . __ . __
 72
    65
 73
     4
 40
1.0
 49
0.5
 49
-0.25
 49
0.0
 49
-0.25
  0
LTYPE
  2
DASHDOT2
 70
    64
  3
_._._._._._._._._._._._._._._._._._._._._._._._
 72
    65
 73
     4
 40
0.5
 49
0.25
 49
-0.125
 49
0.0
 49
-0.125
  0
LTYPE
  2
DASHDOTX2
 70
    64
  3
____  .  ____  .  ____  .  ____  .  ____  .  __
 72
    65
 73
     4
 40
2.0
 49
1.0
 49
-0.5
 49
0.0
 49
-0.5
  0
LTYPE
  2
DASHED
 70
    64
  3
__ __ __ __ __ __ __ __ __ __ __ __ __ __ __ __
 72
    65
 73
     2
 40
0.75
 49
0.5
 49
-0.25
  0
LTYPE
  2
DASHED2
 70
    64
  3
_ _ _ _ _ _ _ _ _ _ _ _ _ _ _ _ _ _ _ _ _ _ _ _
 72
    65
 73
     2
 40
0.375
 49
0.25
 49
-0.125
  0
LTYPE
  2
DASHEDX2
 70
    64
  3
____  ____  ____  ____  ____  ____  ____  ____
 72
    65
 73
     2
 40
1.5
 49
1.0
 49
-0.5
  0
LTYPE
  2
DIVIDE
 70
    64
  3
____ . . ____ . . ____ . . ____ . . ____ . . __
 72
    65
 73
     6
 40
1.25
 49
0.5
 49
-0.25
 49
0.0
 49
-0.25
 49
0.0
 49
-0.25
  0
LTYPE
  2
DIVIDE2
 70
    64
  3
__..__..__..__..__..__..__..__..__..__..__..__.
 72
    65
 73
     6
 40
0.625
 49
0.25
 49
-0.125
 49
0.0
 49
-0.125
 49
0.0
 49
-0.125
  0
LTYPE
  2
DIVIDEX2
 70
    64
  3
________  .  .  ________  .  .  ________  .  .
 72
    65
 73
     6
 40
2.5
 49
1.0
 49
-0.5
 49
0.0
 49
-0.5
 49
0.0
 49
-0.5
  0
LTYPE
  2
DOT
 70
    64
  3
. . . . . . . . . . . . . . . . . . . . . . . .
 72
    65
 73
     2
 40
0.25
 49
0.0
 49
-0.25
  0
LTYPE
  2
DOT2
 70
    64
  3
...............................................
 72
    65
 73
     2
 40
0.125
 49
0.0
 49
-0.125
  0
LTYPE
  2
DOTX2
 70
    64
  3
.  .  .  .  .  .  .  .  .  .  .  .  .  .  .  .
 72
    65
 73
     2
 40
0.5
 49
0.0
 49
-0.5
  0
LTYPE
  2
HIDDEN
 70
    64
  3
__ __ __ __ __ __ __ __ __ __ __ __ __ __ __ __
 72
    65
 73
     2
 40
0.375
 49
0.25
 49
-0.125
  0
LTYPE
  2
HIDDEN2
 70
    64
  3
_ _ _ _ _ _ _ _ _ _ _ _ _ _ _ _ _ _ _ _ _ _ _ _
 72
    65
 73
     2
 40
0.1875
 49
0.125
 49
-0.0625
  0
LTYPE
  2
HIDDENX2
 70
    64
  3
____ ____ ____ ____ ____ ____ ____ ____ ____ __
 72
    65
 73
     2
 40
0.75
 49
0.5
 49
-0.25
  0
LTYPE
  2
PHANTOM
 70
    64
  3
______  __  __  ______  __  __  ______  __  __
 72
    65
 73
     6
 40
2.5
 49
1.25
 49
-0.25
 49
0.25
 49
-0.25
 49
0.25
 49
-0.25
  0
LTYPE
  2
PHANTOM2
 70
    64
  3
___ _ _ ___ _ _ ___ _ _ ___ _ _ ___ _ _ ___ _ _
 72
    65
 73
     6
 40
1.25
 49
0.625
 49
-0.125
 49
0.125
 49
-0.125
 49
0.125
 49
-0.125
  0
LTYPE
  2
PHANTOMX2
 70
    64
  3
____________    ____    ____    ____________
 72
    65
 73
     6
 40
5.0
 49
2.5
 49
-0.5
 49
0.5
 49
-0.5
 49
0.5
 49
-0.5
  0
LTYPE
  2
ACAD_ISO02W100
 70
    64
  3
__ __ __ __ __ __ __ __ __ __ __ __ __ __ __ __
 72
    65
 73
     2
 40
15.0
 49
12.0
 49
-3.0
  0
LTYPE
  2
ACAD_ISO03W100
 70
    64
  3
__    __    __    __    __    __    __    __
 72
    65
 73
     2
 40
30.0
 49
12.0
 49
-18.0
  0
LTYPE
  2
ACAD_ISO04W100
 70
    64
  3
____ . ____ . ____ . ____ . ____ . ____ . ____
 72
    65
 73
     4
 40
30.5
 49
24.0
 49
-3.0
 49
0.5
 49
-3.0
  0
LTYPE
  2
ACAD_ISO05W100
 70
    64
  3
____ .. ____ .. ____ .. ____ .. ____ .. ____ ..
 72
    65
 73
     6
 40
34.0
 49
24.0
 49
-3.0
 49
0.5
 49
-3.0
 49
0.5
 49
-3.0
  0
LTYPE
  2
ACAD_ISO06W100
 70
    64
  3
____ ... ____ ... ____ ... ____ ... ____ ... __
 72
    65
 73
     8
 40
37.5
 49
24.0
 49
-3.0
 49
0.5
 49
-3.0
 49
0.5
 49
-3.0
 49
0.5
 49
-3.0
  0
LTYPE
  2
ACAD_ISO07W100
 70
    64
  3
. . . . . . . . . . . . . . . . . . . . . . . .
 72
    65
 73
     2
 40
3.5
 49
0.5
 49
-3.0
  0
LTYPE
  2
ACAD_ISO08W100
 70
    64
  3
____ __ ____ __ ____ __ ____ ____ __ __ ____ __
 72
    65
 73
     4
 40
36.0
 49
24.0
 49
-3.0
 49
6.0
 49
-3.0
  0
LTYPE
  2
ACAD_ISO09W100
 70
    64
  3
____ __ __ ____ __ __ ____ __ __ ____ __ __ ___
 72
    65
 73
     6
 40
45.0
 49
24.0
 49
-3.0
 49
6.0
 49
-3.0
 49
6.0
 49
-3.0
  0
LTYPE
  2
ACAD_ISO10W100
 70
    64
  3
__ . __ . __ . __ . __ . __ . __ . __ . __ . __
 72
    65
 73
     4
 40
18.5
 49
12.0
 49
-3.0
 49
0.5
 49
-3.0
  0
LTYPE
  2
ACAD_ISO11W100
 70
    64
  3
__ __ . __ __ . __ __ . __ __ . __ __ . __ __ .
 72
    65
 73
     6
 40
33.5
 49
12.0
 49
-3.0
 49
12.0
 49
-3.0
 49
0.5
 49
-3.0
  0
LTYPE
  2
ACAD_ISO12W100
 70
    64
  3
__ . . __ . . __ . . __ . . __ . . __ . . __ .
 72
    65
 73
     6
 40
22.0
 49
12.0
 49
-3.0
 49
0.5
 49
-3.0
 49
0.5
 49
-3.0
  0
LTYPE
  2
ACAD_ISO13W100
 70
    64
  3
__ __ . . __ __ . . __ __ . . __ __ . . __ __ .
 72
    65
 73
     8
 40
37.0
 49
12.0
 49
-3.0
 49
12.0
 49
-3.0
 49
0.5
 49
-3.0
 49
0.5
 49
-3.0
  0
LTYPE
  2
ACAD_ISO14W100
 70
    64
  3
__ . . . __ . . . __ . . . __ . . . __ . . . __
 72
    65
 73
     8
 40
25.5
 49
12.0
 49
-3.0
 49
0.5
 49
-3.0
 49
0.5
 49
-3.0
 49
0.5
 49
-3.0
  0
LTYPE
  2
ACAD_ISO15W100
 70
    64
  3
__ __ . . . __ __ . . . __ __ . . . __ __ . . .
 72
    65
 73
    10
 40
40.5
 49
12.0
 49
-3.0
 49
12.0
 49
-3.0
 49
0.5
 49
-3.0
 49
0.5
 49
-3.0
 49
0.5
 49
-3.0
  0
ENDTAB
  0
TABLE
  2
STYLE
 70
     4
  0
STYLE
  2
STANDARD
 70
    64
 40
0.0
 41
1.0
 50
0.0
 71
     0
 42
0.2
  3
txt
  4

  0
STYLE
  2
TOLERANCE
 70
    64
 40
0.0
 41
1.0
 50
0.0
 71
     0
 42
0.2
  3
../igesfont/iges1003.shx
  4

  0
STYLE
  2
ROMANS
 70
    64
 40
0.0
 41
1.0
 50
0.0
 71
     0
 42
0.2
  3
romans.shx
  4

  0
STYLE
  2
ROMANC
 70
    64
 40
0.0
 41
1.0
 50
0.0
 71
     0
 42
0.2
  3
romanc.shx
  4

  0
ENDTAB
  0
TABLE
  2
DIMSTYLE
 70
     2
  0
DIMSTYLE
  2
UNNAMED
 70
     0
  3

  4

  5

  6

  7

 40
1.0
 41
0.18
 42
0.0625
 43
0.38
 44
0.18
 45
0.0
 46
0.0
 47
0.0
 48
0.0
140
0.18
141
0.09
142
0.0
143
25.4
144
1.0
145
0.0
146
1.0
147
0.09
 71
     0
 72
     0
 73
     1
 74
     1
 75
     0
 76
     0
 77
     0
 78
     0
170
     0
171
     2
172
     0
173
     0
174
     0
175
     0
176
     0
177
     0
178
     0
  0
DIMSTYLE
  2
STANDARD
 70
     0
  3

  4

  5

  6

  7

 40
1.0
 41
0.18
 42
0.0625
 43
0.38
 44
0.18
 45
0.0
 46
0.0
 47
0.0
 48
0.0
140
0.18
141
0.09
142
0.0
143
25.4
144
1.0
145
0.0
146
1.0
147
0.09
 71
     0
 72
     0
 73
     1
 74
     1
 75
     0
 76
     0
 77
     0
 78
     0
170
     0
171
     2
172
     0
173
     0
174
     0
175
     0
176
     0
177
     0
178
     0
  0
ENDTAB
  0
TABLE
  2
LAYER
 70
     2
  0
LAYER
  2
0
 70
     0
 62
     7
  6
CONTINUOUS
  0
LAYER
  2
255
 70
     0
 62
     7
  6
CONTINUOUS
  0
ENDTAB
  0
ENDSEC
  0
SECTION
  2
BLOCKS
  0
BLOCK
  5
     B
  8
0
  6
CONTINUOUS
 62
     7
  2
*UDIM542
 70
    65
 10
0.0
 20
0.0
 30
0.0
  3
*UDIM542
  0
TEXT
  5
     C
  8
0
  6
CONTINUOUS
 62
     7
 10
-517.240743649196
 20
-80.0311959005688
 30
0.0
 40
3.00000002980232
  1
52,25
 50
449.999999896069
 41
0.933333333333333
 72
     1
 11
-518.740743651986
 21
-73.3311958312988
 31
0.0
 73
     2
  0
LINE
  5
     D
  8
0
  6
CONTINUOUS
 62
     7
 10
-529.038961168616
 20
-82.9311981201172
 30
0.0
 11
-514.240743637085
 21
-82.9311981201172
 31
0.0
  0
LINE
  5
     E
  8
0
  6
CONTINUOUS
 62
     7
 10
-516.240743637085
 20
-66.6311957647403
 30
0.0
 11
-516.240743637085
 21
-95.9936981201172
 31
0.0
  0
LINE
  5
     F
  8
0
  6
CONTINUOUS
 62
     7
 10
-515.719799207133
 20
-85.8856213973242
 30
0.0
 11
-516.240743637085
 21
-82.9311981201172
 31
0.0
  0
LINE
  5
    10
  8
0
  6
CONTINUOUS
 62
     7
 10
-516.240743637085
 20
-82.9311981201172
 30
0.0
 11
-516.761688067037
 21
-85.8856213973242
 31
0.0
  0
LINE
  5
    11
  8
0
  6
CONTINUOUS
 62
     7
 10
-516.761688067037
 20
-93.0392748429102
 30
0.0
 11
-516.240743637085
 21
-95.9936981201172
 31
0.0
  0
LINE
  5
    12
  8
0
  6
CONTINUOUS
 62
     7
 10
-516.240743637085
 20
-95.9936981201172
 30
0.0
 11
-515.719799207133
 21
-93.0392748429102
 31
0.0
  0
ENDBLK
  5
    13
  8
0
  6
CONTINUOUS
 62
     7
  0
BLOCK
  5
    14
  8
0
  6
CONTINUOUS
 62
     7
  2
*UDIM543
 70
    65
 10
0.0
 20
0.0
 30
0.0
  3
*UDIM543
  0
TEXT
  5
    15
  8
0
  6
CONTINUOUS
 62
     7
 10
-596.268750900649
 20
-127.660485198509
 30
0.0
 40
3.00000002980232
  1
5
 50
392.704034205866
 41
0.933333333333334
 72
     1
 11
-596.153580239016
 21
-125.803946540834
 31
0.0
 73
     2
  0
TEXT
  5
    16
  8
0
  6
CONTINUOUS
 62
     7
 10
-598.919390041469
 20
-129.362428854373
 30
0.0
 40
3.00000002980232
  1
Ø
 50
392.704034205866
 41
0.933333333333334
 72
     1
 11
-598.804219379837
 21
-127.505890196698
 31
0.0
 73
     2
  0
TEXT
  5
    17
  8
0
  6
CONTINUOUS
 62
     7
 10
-593.954700841423
 20
-126.174661349876
 30
0.0
 40
3.00000002980232
  1
 (M4)
 50
392.704034205866
 41
0.933333333333333
 72
     1
 11
-589.12728278091
 21
-121.292445069781
 31
0.0
 73
     2
  0
LINE
  5
    18
  8
0
  6
CONTINUOUS
 62
     7
 10
-563.165241646585
 20
-107.593510887876
 30
0.0
 11
-598.379090466525
 21
-130.203901595045
 31
0.0
  0
LINE
  5
    19
  8
0
  6
CONTINUOUS
 62
     7
 10
-560.960641047347
 20
-105.558876719815
 30
0.0
 11
-563.165241646585
 21
-107.593510887876
 31
0.0
  0
LINE
  5
    1A
  8
0
  6
CONTINUOUS
 62
     7
 10
-563.165241646585
 20
-107.593510887876
 30
0.0
 11
-560.397708942701
 21
-106.435597794017
 31
0.0
  0
LINE
  5
    1B
  8
0
  6
CONTINUOUS
 62
     7
 10
-566.421683171403
 20
-110.303519520419
 30
0.0
 11
-564.217082572165
 21
-108.268885352359
 31
0.0
  0
LINE
  5
    1C
  8
0
  6
CONTINUOUS
 62
     7
 10
-564.217082572165
 20
-108.268885352359
 30
0.0
 11
-566.984615276049
 21
-109.426798446217
 31
0.0
  0
ENDBLK
  5
    1D
  8
0
  6
CONTINUOUS
 62
     7
  0
BLOCK
  5
    1E
  8
0
  6
CONTINUOUS
 62
     7
  2
*UDIM544
 70
    65
 10
0.0
 20
0.0
 30
0.0
  3
*UDIM544
  0
TEXT
  5
    1F
  8
0
  6
CONTINUOUS
 62
     7
 10
-534.466161755454
 20
-129.965270991571
 30
0.0
 40
3.00000002980232
  1
25
 50
359.999999896069
 41
0.933333333333333
 72
     1
 11
-531.966161727905
 21
-128.465270981193
 31
0.0
 73
     2
  0
LINE
  5
    20
  8
0
  6
CONTINUOUS
 62
     7
 10
-537.441162109375
 20
-113.7209037243
 30
0.0
 11
-537.441162109375
 21
-132.965270996094
 31
0.0
  0
LINE
  5
    21
  8
0
  6
CONTINUOUS
 62
     7
 10
-543.691162109375
 20
-128.009111771886
 30
0.0
 11
-543.691162109375
 21
-132.965270996094
 31
0.0
  0
LINE
  5
    22
  8
0
  6
CONTINUOUS
 62
     7
 10
-529.46616170307
 20
-130.965270996094
 30
0.0
 11
-543.691162109375
 21
-130.965270996094
 31
0.0
  0
LINE
  5
    23
  8
0
  6
CONTINUOUS
 62
     7
 10
-540.395585386582
 20
-131.486215426045
 30
0.0
 11
-537.441162109375
 21
-130.965270996094
 31
0.0
  0
LINE
  5
    24
  8
0
  6
CONTINUOUS
 62
     7
 10
-537.441162109375
 20
-130.965270996094
 30
0.0
 11
-540.395585386582
 21
-130.444326566142
 31
0.0
  0
LINE
  5
    25
  8
0
  6
CONTINUOUS
 62
     7
 10
-540.736738832168
 20
-130.444326566142
 30
0.0
 11
-543.691162109375
 21
-130.965270996094
 31
0.0
  0
LINE
  5
    26
  8
0
  6
CONTINUOUS
 62
     7
 10
-543.691162109375
 20
-130.965270996094
 30
0.0
 11
-540.736738832168
 21
-131.486215426045
 31
0.0
  0
ENDBLK
  5
    27
  8
0
  6
CONTINUOUS
 62
     7
  0
BLOCK
  5
    28
  8
0
  6
CONTINUOUS
 62
     7
  2
*UDIM545
 70
    65
 10
0.0
 20
0.0
 30
0.0
  3
*UDIM545
  0
TEXT
  5
    29
  8
0
  6
CONTINUOUS
 62
     7
 10
-556.466162142884
 20
-129.965270991571
 30
0.0
 40
3.00000002980232
  1
80
 50
359.999999896069
 41
0.933333333333333
 72
     1
 11
-553.966162115336
 21
-128.465270981193
 31
0.0
 73
     2
  0
LINE
  5
    2A
  8
0
  6
CONTINUOUS
 62
     7
 10
-563.691162109375
 20
-113.869231927827
 30
0.0
 11
-563.691162109375
 21
-132.965270996094
 31
0.0
  0
LINE
  5
    2B
  8
0
  6
CONTINUOUS
 62
     7
 10
-543.691162109375
 20
-130.965270996094
 30
0.0
 11
-563.691162109375
 21
-130.965270996094
 31
0.0
  0
LINE
  5
    2C
  8
0
  6
CONTINUOUS
 62
     7
 10
-546.645585386582
 20
-131.486215426045
 30
0.0
 11
-543.691162109375
 21
-130.965270996094
 31
0.0
  0
LINE
  5
    2D
  8
0
  6
CONTINUOUS
 62
     7
 10
-543.691162109375
 20
-130.965270996094
 30
0.0
 11
-546.645585386582
 21
-130.444326566142
 31
0.0
  0
LINE
  5
    2E
  8
0
  6
CONTINUOUS
 62
     7
 10
-560.736738832168
 20
-130.444326566142
 30
0.0
 11
-563.691162109375
 21
-130.965270996094
 31
0.0
  0
LINE
  5
    2F
  8
0
  6
CONTINUOUS
 62
     7
 10
-563.691162109375
 20
-130.965270996094
 30
0.0
 11
-560.736738832168
 21
-131.486215426045
 31
0.0
  0
ENDBLK
  5
    30
  8
0
  6
CONTINUOUS
 62
     7
  0
BLOCK
  5
    31
  8
0
  6
CONTINUOUS
 62
     7
  2
*UDIM546
 70
    65
 10
0.0
 20
0.0
 30
0.0
  3
*UDIM546
  0
TEXT
  5
    32
  8
0
  6
CONTINUOUS
 62
     7
 10
-580.858325965302
 20
-99.6062015022525
 30
0.0
 40
3.00000002980232
  1
100
 50
449.999999896069
 41
0.933333333333333
 72
     1
 11
-582.358325973153
 21
-95.706201460798
 31
0.0
 73
     2
  0
LINE
  5
    33
  8
0
  6
CONTINUOUS
 62
     7
 10
-563.522837741016
 20
-82.9311972179724
 30
0.0
 11
-581.858325958251
 21
-82.931180676708
 31
0.0
  0
LINE
  5
    34
  8
0
  6
CONTINUOUS
 62
     7
 10
-563.967822351597
 20
-107.931197185935
 30
0.0
 11
-581.858325958251
 21
-107.931180472945
 31
0.0
  0
LINE
  5
    35
  8
0
  6
CONTINUOUS
 62
     7
 10
-579.858325958252
 20
-82.9311824809975
 30
0.0
 11
-579.858325958252
 21
-107.93118234131
 31
0.0
  0
LINE
  5
    36
  8
0
  6
CONTINUOUS
 62
     7
 10
-579.3373815283
 20
-85.8856057582045
 30
0.0
 11
-579.858325958252
 21
-82.9311824809975
 31
0.0
  0
LINE
  5
    37
  8
0
  6
CONTINUOUS
 62
     7
 10
-579.858325958252
 20
-82.9311824809975
 30
0.0
 11
-580.379270388204
 21
-85.8856057582045
 31
0.0
  0
LINE
  5
    38
  8
0
  6
CONTINUOUS
 62
     7
 10
-580.379270388204
 20
-104.976759064103
 30
0.0
 11
-579.858325958252
 21
-107.93118234131
 31
0.0
  0
LINE
  5
    39
  8
0
  6
CONTINUOUS
 62
     7
 10
-579.858325958252
 20
-107.93118234131
 30
0.0
 11
-579.3373815283
 21
-104.976759064103
 31
0.0
  0
ENDBLK
  5
    3A
  8
0
  6
CONTINUOUS
 62
     7
  0
BLOCK
  5
    3B
  8
0
  6
CONTINUOUS
 62
     7
  2
*HATCH319
 70
    65
 10
0.0
 20
0.0
 30
0.0
  3
*HATCH319
  0
LINE
  5
    3C
  8
0
  6
CONTINUOUS
 62
    52
 10
186.918792724609
 20
-4.00005149841309
 30
0.0
 11
184.918792724609
 21
-6.00005149841309
 31
0.0
  0
LINE
  5
    3D
  8
0
  6
CONTINUOUS
 62
    52
 10
191.161437988281
 20
-4.00005149841309
 30
0.0
 11
189.161437988281
 21
-6.00005149841309
 31
0.0
  0
LINE
  5
    3E
  8
0
  6
CONTINUOUS
 62
    52
 10
195.404083251953
 20
-4.00005149841309
 30
0.0
 11
193.404083251953
 21
-6.00005149841309
 31
0.0
  0
LINE
  5
    3F
  8
0
  6
CONTINUOUS
 62
    52
 10
199.646728515625
 20
-4.00005149841309
 30
0.0
 11
197.646728515625
 21
-6.00005149841309
 31
0.0
  0
LINE
  5
    40
  8
0
  6
CONTINUOUS
 62
    52
 10
203.889373779297
 20
-4.00005149841309
 30
0.0
 11
201.889373779297
 21
-6.00005149841309
 31
0.0
  0
LINE
  5
    41
  8
0
  6
CONTINUOUS
 62
    52
 10
208.132019042969
 20
-4.00005149841309
 30
0.0
 11
206.132019042969
 21
-6.00005149841309
 31
0.0
  0
LINE
  5
    42
  8
0
  6
CONTINUOUS
 62
    52
 10
212.374664306641
 20
-4.00005149841309
 30
0.0
 11
210.374664306641
 21
-6.00005149841309
 31
0.0
  0
LINE
  5
    43
  8
0
  6
CONTINUOUS
 62
    52
 10
216.617309570313
 20
-4.00005149841309
 30
0.0
 11
214.617309570313
 21
-6.00005149841309
 31
0.0
  0
LINE
  5
    44
  8
0
  6
CONTINUOUS
 62
    52
 10
220.859954833984
 20
-4.00005149841309
 30
0.0
 11
218.859954833984
 21
-6.00005149841309
 31
0.0
  0
LINE
  5
    45
  8
0
  6
CONTINUOUS
 62
    52
 10
225.102600097656
 20
-4.00005149841309
 30
0.0
 11
223.102600097656
 21
-6.00005149841309
 31
0.0
  0
LINE
  5
    46
  8
0
  6
CONTINUOUS
 62
    52
 10
229.345245361328
 20
-4.00005149841309
 30
0.0
 11
227.345245361328
 21
-6.00005149841309
 31
0.0
  0
ENDBLK
  5
    47
  8
0
  6
CONTINUOUS
 62
     7
  0
BLOCK
  5
    48
  8
0
  6
CONTINUOUS
 62
     7
  2
*HATCH320
 70
    65
 10
0.0
 20
0.0
 30
0.0
  3
*HATCH320
  0
LINE
  5
    49
  8
0
  6
CONTINUOUS
 62
    52
 10
169.948226928711
 20
-4.00005149841309
 30
0.0
 11
167.948226928711
 21
-6.00005149841309
 31
0.0
  0
LINE
  5
    4A
  8
0
  6
CONTINUOUS
 62
    52
 10
174.190872192383
 20
-4.00005149841309
 30
0.0
 11
172.190872192383
 21
-6.00005149841309
 31
0.0
  0
LINE
  5
    4B
  8
0
  6
CONTINUOUS
 62
    52
 10
177.480621337891
 20
-4.95293474197388
 30
0.0
 11
176.433502197266
 21
-6.00005149841309
 31
0.0
  0
ENDBLK
  5
    4C
  8
0
  6
CONTINUOUS
 62
     7
  0
BLOCK
  5
    4D
  8
0
  6
CONTINUOUS
 62
     7
  2
*HATCH321
 70
    65
 10
0.0
 20
0.0
 30
0.0
  3
*HATCH321
  0
LINE
  5
    4E
  8
0
  6
CONTINUOUS
 62
    52
 10
44.7903175354004
 20
-4.00005149841309
 30
0.0
 11
42.7903175354004
 21
-6.00005149841309
 31
0.0
  0
LINE
  5
    4F
  8
0
  6
CONTINUOUS
 62
    52
 10
49.0329551696777
 20
-4.00005149841309
 30
0.0
 11
47.0329551696777
 21
-6.00005149841309
 31
0.0
  0
LINE
  5
    50
  8
0
  6
CONTINUOUS
 62
    52
 10
53.2755928039551
 20
-4.00005149841309
 30
0.0
 11
51.2755928039551
 21
-6.00005149841309
 31
0.0
  0
ENDBLK
  5
    51
  8
0
  6
CONTINUOUS
 62
     7
  0
BLOCK
  5
    52
  8
0
  6
CONTINUOUS
 62
     7
  2
*HATCH322
 70
    65
 10
0.0
 20
0.0
 30
0.0
  3
*HATCH322
  0
LINE
  5
    53
  8
0
  6
CONTINUOUS
 62
    52
 10
4.4852294921875
 20
-4.00005149841309
 30
0.0
 11
2.48522973060608
 21
-6.00005149841309
 31
0.0
  0
LINE
  5
    54
  8
0
  6
CONTINUOUS
 62
    52
 10
8.72786998748779
 20
-4.00005149841309
 30
0.0
 11
6.72787094116211
 21
-6.00005149841309
 31
0.0
  0
LINE
  5
    55
  8
0
  6
CONTINUOUS
 62
    52
 10
12.9705104827881
 20
-4.00005149841309
 30
0.0
 11
10.9705123901367
 21
-6.00005149841309
 31
0.0
  0
LINE
  5
    56
  8
0
  6
CONTINUOUS
 62
    52
 10
17.2131519317627
 20
-4.00005149841309
 30
0.0
 11
15.2131538391113
 21
-6.00005149841309
 31
0.0
  0
LINE
  5
    57
  8
0
  6
CONTINUOUS
 62
    52
 10
21.4557933807373
 20
-4.00005149841309
 30
0.0
 11
19.4557952880859
 21
-6.00005149841309
 31
0.0
  0
LINE
  5
    58
  8
0
  6
CONTINUOUS
 62
    52
 10
25.6984348297119
 20
-4.00005149841309
 30
0.0
 11
23.6984367370605
 21
-6.00005149841309
 31
0.0
  0
LINE
  5
    59
  8
0
  6
CONTINUOUS
 62
    52
 10
29.9410762786865
 20
-4.00005149841309
 30
0.0
 11
27.9410781860352
 21
-6.00005149841309
 31
0.0
  0
LINE
  5
    5A
  8
0
  6
CONTINUOUS
 62
    52
 10
34.1837158203125
 20
-4.00005149841309
 30
0.0
 11
32.1837196350098
 21
-6.00005149841309
 31
0.0
  0
ENDBLK
  5
    5B
  8
0
  6
CONTINUOUS
 62
     7
  0
BLOCK
  5
    5C
  8
0
  6
CONTINUOUS
 62
     7
  2
*UDIM547
 70
    65
 10
0.0
 20
0.0
 30
0.0
  3
*UDIM547
  0
TEXT
  5
    5D
  8
0
  6
CONTINUOUS
 62
     7
 10
-387.702366936566
 20
-55.1576728810879
 30
0.0
 40
3.00000002980232
  1
2
 50
359.999999948034
 41
0.933333333333334
 72
     1
 11
-386.602366924286
 21
-53.6576728671789
 31
0.0
 73
     2
  0
LINE
  5
    5E
  8
0
  6
CONTINUOUS
 62
     7
 10
-390.702366828918
 20
-29.384202363044
 30
0.0
 11
-390.702366828918
 21
-58.1576728820801
 31
0.0
  0
LINE
  5
    5F
  8
0
  6
CONTINUOUS
 62
     7
 10
-391.702366828918
 20
-29.0215650004066
 30
0.0
 11
-391.702366828918
 21
-58.1576728820801
 31
0.0
  0
LINE
  5
    60
  8
0
  6
CONTINUOUS
 62
     7
 10
-385.502366913358
 20
-56.1576728820801
 30
0.0
 11
-391.702366828918
 21
-56.1576728820801
 31
0.0
  0
LINE
  5
    61
  8
0
  6
CONTINUOUS
 62
     7
 10
-387.747943551712
 20
-55.6367284521284
 30
0.0
 11
-390.702366828918
 21
-56.1576728820801
 31
0.0
  0
LINE
  5
    62
  8
0
  6
CONTINUOUS
 62
     7
 10
-390.702366828918
 20
-56.1576728820801
 30
0.0
 11
-387.747943551712
 21
-56.6786173120317
 31
0.0
  0
LINE
  5
    63
  8
0
  6
CONTINUOUS
 62
     7
 10
-394.656790106125
 20
-56.6786173120318
 30
0.0
 11
-391.702366828918
 21
-56.1576728820801
 31
0.0
  0
LINE
  5
    64
  8
0
  6
CONTINUOUS
 62
     7
 10
-391.702366828918
 20
-56.1576728820801
 30
0.0
 11
-394.656790106125
 21
-55.6367284521284
 31
0.0
  0
ENDBLK
  5
    65
  8
0
  6
CONTINUOUS
 62
     7
  0
BLOCK
  5
    66
  8
0
  6
CONTINUOUS
 62
     7
  2
*UDIM548
 70
    65
 10
0.0
 20
0.0
 30
0.0
  3
*UDIM548
  0
TEXT
  5
    67
  8
0
  6
CONTINUOUS
 62
     7
 10
-437.802373578511
 20
-55.157672876037
 30
0.0
 40
3.00000002980232
  1
156,5
 50
359.999999948034
 41
0.933333333333333
 72
     1
 11
-431.102373510599
 21
-53.6576728671789
 31
0.0
 73
     2
  0
LINE
  5
    68
  8
0
  6
CONTINUOUS
 62
     7
 10
-469.952384948731
 20
-33.0244500030197
 30
0.0
 11
-469.952384948731
 21
-58.1576728820801
 31
0.0
  0
LINE
  5
    69
  8
0
  6
CONTINUOUS
 62
     7
 10
-391.702366828918
 20
-56.1576728820801
 30
0.0
 11
-469.952384948731
 21
-56.1576728820801
 31
0.0
  0
LINE
  5
    6A
  8
0
  6
CONTINUOUS
 62
     7
 10
-394.656790106125
 20
-56.6786173120317
 30
0.0
 11
-391.702366828918
 21
-56.1576728820801
 31
0.0
  0
LINE
  5
    6B
  8
0
  6
CONTINUOUS
 62
     7
 10
-391.702366828918
 20
-56.1576728820801
 30
0.0
 11
-394.656790106125
 21
-55.6367284521284
 31
0.0
  0
LINE
  5
    6C
  8
0
  6
CONTINUOUS
 62
     7
 10
-466.997961671524
 20
-55.6367284521284
 30
0.0
 11
-469.952384948731
 21
-56.1576728820801
 31
0.0
  0
LINE
  5
    6D
  8
0
  6
CONTINUOUS
 62
     7
 10
-469.952384948731
 20
-56.1576728820801
 30
0.0
 11
-466.997961671524
 21
-56.6786173120317
 31
0.0
  0
ENDBLK
  5
    6E
  8
0
  6
CONTINUOUS
 62
     7
  0
BLOCK
  5
    6F
  8
0
  6
CONTINUOUS
 62
     7
  2
*UDIM549
 70
    65
 10
0.0
 20
0.0
 30
0.0
  3
*UDIM549
  0
TEXT
  5
    70
  8
0
  6
CONTINUOUS
 62
     7
 10
-430.791108769802
 20
-66.3545303284296
 30
0.0
 40
3.00000002980232
  1
184,5
 50
359.999999948034
 41
0.933333333333333
 72
     1
 11
-424.091108701891
 21
-64.8545303195715
 31
0.0
 73
     2
  0
LINE
  5
    71
  8
0
  6
CONTINUOUS
 62
     7
 10
-377.679828640797
 20
20.6920471303603
 30
0.0
 11
-377.679857820579
 21
-69.3545303344725
 31
0.0
  0
LINE
  5
    72
  8
0
  6
CONTINUOUS
 62
     7
 10
-469.952385544456
 20
-33.0244500030196
 30
0.0
 11
-469.952407187204
 21
-69.3545303344723
 31
0.0
  0
LINE
  5
    73
  8
0
  6
CONTINUOUS
 62
     7
 10
-377.679857172475
 20
-67.3545303344727
 30
0.0
 11
-469.952405995753
 21
-67.3545303344727
 31
0.0
  0
LINE
  5
    74
  8
0
  6
CONTINUOUS
 62
     7
 10
-380.634280449682
 20
-67.8754747644243
 30
0.0
 11
-377.679857172475
 21
-67.3545303344727
 31
0.0
  0
LINE
  5
    75
  8
0
  6
CONTINUOUS
 62
     7
 10
-377.679857172475
 20
-67.3545303344727
 30
0.0
 11
-380.634280449682
 21
-66.833585904521
 31
0.0
  0
LINE
  5
    76
  8
0
  6
CONTINUOUS
 62
     7
 10
-466.997982718546
 20
-66.833585904521
 30
0.0
 11
-469.952405995753
 21
-67.3545303344727
 31
0.0
  0
LINE
  5
    77
  8
0
  6
CONTINUOUS
 62
     7
 10
-469.952405995753
 20
-67.3545303344727
 30
0.0
 11
-466.997982718546
 21
-67.8754747644243
 31
0.0
  0
ENDBLK
  5
    78
  8
0
  6
CONTINUOUS
 62
     7
  0
BLOCK
  5
    79
  8
0
  6
CONTINUOUS
 62
     7
  2
*UDIM550
 70
    65
 10
0.0
 20
0.0
 30
0.0
  3
*UDIM550
  0
TEXT
  5
    7A
  8
0
  6
CONTINUOUS
 62
     7
 10
-435.877037864652
 20
-44.3947448695293
 30
0.0
 40
3.00000002980232
  1
153
 50
359.999999948034
 41
0.933333333333333
 72
     1
 11
-431.977037824556
 21
-42.8947448581457
 31
0.0
 73
     2
  0
LINE
  5
    7B
  8
0
  6
CONTINUOUS
 62
     7
 10
-393.451707183818
 20
-0.432952867812148
 30
0.0
 11
-393.451721925898
 21
-47.3947448730468
 31
0.0
  0
LINE
  5
    7C
  8
0
  6
CONTINUOUS
 62
     7
 10
-469.952386007307
 20
-33.0244500030192
 30
0.0
 11
-469.952401219368
 21
-47.3947448730458
 31
0.0
  0
LINE
  5
    7D
  8
0
  6
CONTINUOUS
 62
     7
 10
-393.451721298065
 20
-45.3947448730469
 30
0.0
 11
-469.952399102215
 21
-45.3947448730469
 31
0.0
  0
LINE
  5
    7E
  8
0
  6
CONTINUOUS
 62
     7
 10
-396.406144575272
 20
-45.9156893029985
 30
0.0
 11
-393.451721298065
 21
-45.3947448730469
 31
0.0
  0
LINE
  5
    7F
  8
0
  6
CONTINUOUS
 62
     7
 10
-393.451721298065
 20
-45.3947448730469
 30
0.0
 11
-396.406144575272
 21
-44.8738004430952
 31
0.0
  0
LINE
  5
    80
  8
0
  6
CONTINUOUS
 62
     7
 10
-466.997975825008
 20
-44.8738004430952
 30
0.0
 11
-469.952399102215
 21
-45.3947448730469
 31
0.0
  0
LINE
  5
    81
  8
0
  6
CONTINUOUS
 62
     7
 10
-469.952399102215
 20
-45.3947448730469
 30
0.0
 11
-466.997975825008
 21
-45.9156893029985
 31
0.0
  0
ENDBLK
  5
    82
  8
0
  6
CONTINUOUS
 62
     7
  0
BLOCK
  5
    83
  8
0
  6
CONTINUOUS
 62
     7
  2
*UDIM551
 70
    65
 10
0.0
 20
0.0
 30
0.0
  3
*UDIM551
  0
TEXT
  5
    84
  8
0
  6
CONTINUOUS
 62
     7
 10
-448.952362259053
 20
101.342559815445
 30
0.0
 40
3.00000002980232
  1
5
 50
359.999999948034
 41
0.933333333333334
 72
     1
 11
-447.852362246773
 21
102.842559829354
 31
0.0
 73
     2
  0
LINE
  5
    85
  8
0
  6
CONTINUOUS
 62
     7
 10
-451.95236174663
 20
86.4420547709745
 30
0.0
 11
-451.9523567552
 21
102.342559814453
 31
0.0
  0
LINE
  5
    86
  8
0
  6
CONTINUOUS
 62
     7
 10
-454.45236174663
 20
86.4420619235319
 30
0.0
 11
-454.452356755202
 21
102.342559814453
 31
0.0
  0
LINE
  5
    87
  8
0
  6
CONTINUOUS
 62
     7
 10
-446.752362235846
 20
100.342559814453
 30
0.0
 11
-454.452357383035
 21
100.342559814453
 31
0.0
  0
LINE
  5
    88
  8
0
  6
CONTINUOUS
 62
     7
 10
-448.997934105826
 20
100.863504244405
 30
0.0
 11
-451.952357383033
 21
100.342559814453
 31
0.0
  0
LINE
  5
    89
  8
0
  6
CONTINUOUS
 62
     7
 10
-451.952357383033
 20
100.342559814453
 30
0.0
 11
-448.997934105826
 21
99.8216153845015
 31
0.0
  0
LINE
  5
    8A
  8
0
  6
CONTINUOUS
 62
     7
 10
-457.406780660242
 20
99.8216153845015
 30
0.0
 11
-454.452357383035
 21
100.342559814453
 31
0.0
  0
LINE
  5
    8B
  8
0
  6
CONTINUOUS
 62
     7
 10
-454.452357383035
 20
100.342559814453
 30
0.0
 11
-457.406780660242
 21
100.863504244405
 31
0.0
  0
ENDBLK
  5
    8C
  8
0
  6
CONTINUOUS
 62
     7
  0
BLOCK
  5
    8D
  8
0
  6
CONTINUOUS
 62
     7
  2
*UDIM552
 70
    65
 10
0.0
 20
0.0
 30
0.0
  3
*UDIM552
  0
TEXT
  5
    8E
  8
0
  6
CONTINUOUS
 62
     7
 10
-464.977369725113
 20
101.342559816708
 30
0.0
 40
3.00000002980232
  1
31
 50
359.999999948034
 41
0.933333333333333
 72
     1
 11
-462.477369698925
 21
102.842559829354
 31
0.0
 73
     2
  0
LINE
  5
    8F
  8
0
  6
CONTINUOUS
 62
     7
 10
-469.952384634814
 20
87.7811826517541
 30
0.0
 11
-469.952380063758
 21
102.342559814453
 31
0.0
  0
LINE
  5
    90
  8
0
  6
CONTINUOUS
 62
     7
 10
-454.452357383035
 20
100.342559814453
 30
0.0
 11
-469.952380691591
 21
100.342559814453
 31
0.0
  0
LINE
  5
    91
  8
0
  6
CONTINUOUS
 62
     7
 10
-457.406780660242
 20
99.8216153845015
 30
0.0
 11
-454.452357383035
 21
100.342559814453
 31
0.0
  0
LINE
  5
    92
  8
0
  6
CONTINUOUS
 62
     7
 10
-454.452357383035
 20
100.342559814453
 30
0.0
 11
-457.406780660242
 21
100.863504244405
 31
0.0
  0
LINE
  5
    93
  8
0
  6
CONTINUOUS
 62
     7
 10
-466.997957414384
 20
100.863504244405
 30
0.0
 11
-469.952380691591
 21
100.342559814453
 31
0.0
  0
LINE
  5
    94
  8
0
  6
CONTINUOUS
 62
     7
 10
-469.952380691591
 20
100.342559814453
 30
0.0
 11
-466.997957414384
 21
99.8216153845015
 31
0.0
  0
ENDBLK
  5
    95
  8
0
  6
CONTINUOUS
 62
     7
  0
BLOCK
  5
    96
  8
0
  6
CONTINUOUS
 62
     7
  2
*UDIM553
 70
    65
 10
0.0
 20
0.0
 30
0.0
  3
*UDIM553
  0
TEXT
  5
    97
  8
0
  6
CONTINUOUS
 62
     7
 10
-477.202384957236
 20
101.342559815445
 30
0.0
 40
3.00000002980232
  1
3
 50
359.999999948034
 41
0.933333333333334
 72
     1
 11
-476.102384944956
 21
102.842559829354
 31
0.0
 73
     2
  0
TEXT
  5
    98
  8
0
  6
CONTINUOUS
 62
     7
 10
-479.952384991012
 20
101.342559815445
 30
0.0
 40
3.00000002980232
  1
_
 50
359.999999948034
 41
0.933333333333334
 72
     1
 11
-478.852384978732
 21
102.842559829354
 31
0.0
 73
     2
  0
LINE
  5
    99
  8
0
  6
CONTINUOUS
 62
     7
 10
-471.452381748238
 20
88.3078422719401
 30
0.0
 11
-471.452336830234
 21
102.342559814443
 31
0.0
  0
LINE
  5
    9A
  8
0
  6
CONTINUOUS
 62
     7
 10
-469.952380691591
 20
100.342559814453
 30
0.0
 11
-479.952384989659
 21
100.342559814453
 31
0.0
  0
LINE
  5
    9B
  8
0
  6
CONTINUOUS
 62
     7
 10
-466.997957414384
 20
100.863504244405
 30
0.0
 11
-469.952380691591
 21
100.342559814453
 31
0.0
  0
LINE
  5
    9C
  8
0
  6
CONTINUOUS
 62
     7
 10
-469.952380691591
 20
100.342559814453
 30
0.0
 11
-466.997957414384
 21
99.8216153845015
 31
0.0
  0
LINE
  5
    9D
  8
0
  6
CONTINUOUS
 62
     7
 10
-474.406766508425
 20
99.8216153845015
 30
0.0
 11
-471.452343231218
 21
100.342559814453
 31
0.0
  0
LINE
  5
    9E
  8
0
  6
CONTINUOUS
 62
     7
 10
-471.452343231218
 20
100.342559814453
 30
0.0
 11
-474.406766508425
 21
100.863504244405
 31
0.0
  0
ENDBLK
  5
    9F
  8
0
  6
CONTINUOUS
 62
     7
  0
BLOCK
  5
    A0
  8
0
  6
CONTINUOUS
 62
     7
  2
*UDIM554
 70
    65
 10
0.0
 20
0.0
 30
0.0
  3
*UDIM554
  0
TEXT
  5
    A1
  8
0
  6
CONTINUOUS
 62
     7
 10
-368.976476672844
 20
18.4136534407938
 30
0.0
 40
3.00000002980232
  1
105
 50
89.9999999480344
 41
0.933333333333333
 72
     1
 11
-370.476476684213
 21
22.3136534808954
 31
0.0
 73
     2
  0
LINE
  5
    A2
  8
0
  6
CONTINUOUS
 62
     7
 10
-390.702366828918
 20
0.567047131540313
 30
0.0
 11
-365.976476669312
 21
0.567047131540313
 31
0.0
  0
LINE
  5
    A3
  8
0
  6
CONTINUOUS
 62
     7
 10
-390.702366828918
 20
53.0670471303603
 30
0.0
 11
-365.976476669312
 21
53.0670471303603
 31
0.0
  0
LINE
  5
    A4
  8
0
  6
CONTINUOUS
 62
     7
 10
-367.976476669312
 20
0.567047131540313
 30
0.0
 11
-367.976476669312
 21
53.0670471303603
 31
0.0
  0
LINE
  5
    A5
  8
0
  6
CONTINUOUS
 62
     7
 10
-368.497421099263
 20
3.52147040874728
 30
0.0
 11
-367.976476669312
 21
0.567047131540313
 31
0.0
  0
LINE
  5
    A6
  8
0
  6
CONTINUOUS
 62
     7
 10
-367.976476669312
 20
0.567047131540313
 30
0.0
 11
-367.45553223936
 21
3.52147040874728
 31
0.0
  0
LINE
  5
    A7
  8
0
  6
CONTINUOUS
 62
     7
 10
-367.45553223936
 20
50.1126238531533
 30
0.0
 11
-367.976476669312
 21
53.0670471303603
 31
0.0
  0
LINE
  5
    A8
  8
0
  6
CONTINUOUS
 62
     7
 10
-367.976476669312
 20
53.0670471303603
 30
0.0
 11
-368.497421099263
 21
50.1126238531533
 31
0.0
  0
ENDBLK
  5
    A9
  8
0
  6
CONTINUOUS
 62
     7
  0
BLOCK
  5
    AA
  8
0
  6
CONTINUOUS
 62
     7
  2
MOSTRINA
 70
    64
 10
0.0
 20
0.0
 30
0.0
  3
MOSTRINA
  0
LINE
  5
    AB
  8
0
  6
CONTINUOUS
 62
     3
 10
173.338256835938
 20
30.7306251525879
 30
0.0
 11
173.338256835938
 21
189.230621337891
 31
0.0
  0
LINE
  5
    AC
  8
0
  6
CONTINUOUS
 62
     3
 10
57.5882568359375
 20
29.4806251525879
 30
0.0
 11
172.088256835938
 21
29.4806251525879
 31
0.0
  0
LINE
  5
    AD
  8
0
  6
CONTINUOUS
 62
     3
 10
56.3382568359375
 20
30.7306251525879
 30
0.0
 11
56.3382568359375
 21
189.230621337891
 31
0.0
  0
LINE
  5
    AE
  8
0
  6
CONTINUOUS
 62
     3
 10
57.5882568359375
 20
190.480621337891
 30
0.0
 11
172.088256835938
 21
190.480621337891
 31
0.0
  0
LINE
  5
    AF
  8
0
  6
CONTINUOUS
 62
     3
 10
167.838256835938
 20
56.9806251525879
 30
0.0
 11
167.838256835938
 21
162.980625152588
 31
0.0
  0
LINE
  5
    B0
  8
0
  6
CONTINUOUS
 62
     3
 10
61.8382568359375
 20
56.9806251525879
 30
0.0
 11
167.838256835938
 21
56.9806251525879
 31
0.0
  0
LINE
  5
    B1
  8
0
  6
CONTINUOUS
 62
     3
 10
61.8382568359375
 20
56.9806251525879
 30
0.0
 11
61.8382568359375
 21
162.980625152588
 31
0.0
  0
LINE
  5
    B2
  8
0
  6
CONTINUOUS
 62
     3
 10
61.8382568359375
 20
162.980621337891
 30
0.0
 11
167.838256835938
 21
162.980621337891
 31
0.0
  0
LINE
  5
    B3
  8
0
  6
CONTINUOUS
 62
     3
 10
168.838256835938
 20
48.4806251525879
 30
0.0
 11
168.838256835938
 21
49.4806251525879
 31
0.0
  0
LINE
  5
    B4
  8
0
  6
CONTINUOUS
 62
     3
 10
61.8382568359375
 20
50.4806251525879
 30
0.0
 11
167.838256835938
 21
50.4806251525879
 31
0.0
  0
LINE
  5
    B5
  8
0
  6
CONTINUOUS
 62
     3
 10
60.8382568359375
 20
48.4806251525879
 30
0.0
 11
60.8382568359375
 21
49.4806251525879
 31
0.0
  0
LINE
  5
    B6
  8
0
  6
CONTINUOUS
 62
     3
 10
61.8382568359375
 20
49.4806251525879
 30
0.0
 11
167.838256835938
 21
49.4806251525879
 31
0.0
  0
LINE
  5
    B7
  8
0
  6
CONTINUOUS
 62
     3
 10
60.8382568359375
 20
29.4806251525879
 30
0.0
 11
60.8382568359375
 21
48.4806251525879
 31
0.0
  0
LINE
  5
    B8
  8
0
  6
CONTINUOUS
 62
     3
 10
60.8382568359375
 20
49.4806213378906
 30
0.0
 11
60.8382568359375
 21
190.480621337891
 31
0.0
  0
LINE
  5
    B9
  8
0
  6
CONTINUOUS
 62
     3
 10
61.8382568359375
 20
29.4806251525879
 30
0.0
 11
61.8382568359375
 21
49.4806251525879
 31
0.0
  0
LINE
  5
    BA
  8
0
  6
CONTINUOUS
 62
     3
 10
61.8382568359375
 20
162.980621337891
 30
0.0
 11
61.8382568359375
 21
169.480621337891
 31
0.0
  0
LINE
  5
    BB
  8
0
  6
CONTINUOUS
 62
     3
 10
61.8382568359375
 20
50.4806251525879
 30
0.0
 11
61.8382568359375
 21
56.9806251525879
 31
0.0
  0
LINE
  5
    BC
  8
0
  6
CONTINUOUS
 62
     3
 10
168.838256835938
 20
29.4806251525879
 30
0.0
 11
168.838256835938
 21
48.4806251525879
 31
0.0
  0
LINE
  5
    BD
  8
0
  6
CONTINUOUS
 62
     3
 10
168.838256835938
 20
49.4806251525879
 30
0.0
 11
168.838256835938
 21
190.480621337891
 31
0.0
  0
LINE
  5
    BE
  8
0
  6
CONTINUOUS
 62
     3
 10
167.838256835938
 20
50.4806251525879
 30
0.0
 11
167.838256835938
 21
56.9806251525879
 31
0.0
  0
LINE
  5
    BF
  8
0
  6
CONTINUOUS
 62
     3
 10
167.838256835938
 20
162.980621337891
 30
0.0
 11
167.838256835938
 21
169.480621337891
 31
0.0
  0
LINE
  5
    C0
  8
0
  6
CONTINUOUS
 62
     3
 10
167.838256835938
 20
29.4806251525879
 30
0.0
 11
167.838256835938
 21
49.4806251525879
 31
0.0
  0
LINE
  5
    C1
  8
0
  6
CONTINUOUS
 62
     3
 10
60.8382568359375
 20
170.480621337891
 30
0.0
 11
168.838256835938
 21
170.480621337891
 31
0.0
  0
LINE
  5
    C2
  8
0
  6
CONTINUOUS
 62
     3
 10
61.8382568359375
 20
169.480621337891
 30
0.0
 11
167.838256835938
 21
169.480621337891
 31
0.0
  0
ARC
  5
    C3
  8
0
  6
CONTINUOUS
 62
     3
 10
57.5882568359375
 20
30.7306251525879
 30
0.0
 40
1.25
 50
180.0
 51
270.0
  0
ARC
  5
    C4
  8
0
  6
CONTINUOUS
 62
     3
 10
172.088256835938
 20
30.7306251525879
 30
0.0
 40
1.25
 50
270.0
 51
360.0
  0
ARC
  5
    C5
  8
0
  6
CONTINUOUS
 62
     3
 10
172.088256835938
 20
189.230621337891
 30
0.0
 40
1.25
 50
0.0
 51
90.0
  0
ARC
  5
    C6
  8
0
  6
CONTINUOUS
 62
     3
 10
57.5882568359375
 20
189.230621337891
 30
0.0
 40
1.25
 50
90.0
 51
180.0
  0
LINE
  5
    C7
  8
0
  6
DOT
 62
     3
 10
60.3382577409677
 20
179.7306252571
 30
0.0
 11
60.8382568359375
 21
179.7306252571
 31
0.0
  0
LINE
  5
    C8
  8
0
  6
DOT
 62
     3
 10
60.3382577409676
 20
181.2306252571
 30
0.0
 11
60.8382568359375
 21
181.2306252571
 31
0.0
  0
LINE
  5
    C9
  8
0
  6
CONTINUOUS
 62
     3
 10
168.338257745313
 20
179.730625257273
 30
0.0
 11
168.838256835938
 21
179.730625257273
 31
0.0
  0
LINE
  5
    CA
  8
0
  6
CONTINUOUS
 62
     3
 10
168.338257745314
 20
181.230625257273
 30
0.0
 11
168.838256835938
 21
181.230625257273
 31
0.0
  0
ARC
  5
    CB
  8
0
  6
DOT
 62
     3
 10
60.3382577401871
 20
180.480625257147
 30
0.0
 40
0.749999999345164
 50
90.0
 51
270.0
  0
ARC
  5
    CC
  8
0
  6
CONTINUOUS
 62
     3
 10
61.338257740822
 20
180.480625256974
 30
0.0
 40
0.750000000009701
 50
270.0
 51
450.0
  0
LINE
  5
    CD
  8
0
  6
CONTINUOUS
 62
     3
 10
60.8382568359375
 20
181.2306252571
 30
0.0
 11
61.3382577409688
 21
181.2306252571
 31
0.0
  0
LINE
  5
    CE
  8
0
  6
CONTINUOUS
 62
     3
 10
60.8382568359375
 20
179.7306252571
 30
0.0
 11
61.3382577409689
 21
179.7306252571
 31
0.0
  0
ARC
  5
    CF
  8
0
  6
CONTINUOUS
 62
     3
 10
168.338257745503
 20
180.480625256952
 30
0.0
 40
0.750000000048506
 50
90.0000000038822
 51
269.999999996024
  0
ARC
  5
    D0
  8
0
  6
DOT
 62
     3
 10
169.338257745421
 20
180.480625256965
 30
0.0
 40
0.750000000029104
 50
270.000000002449
 51
449.999999997486
  0
LINE
  5
    D1
  8
0
  6
DOT
 62
     3
 10
168.838256835938
 20
181.230625257273
 30
0.0
 11
169.338257745315
 21
181.230625257273
 31
0.0
  0
LINE
  5
    D2
  8
0
  6
DOT
 62
     3
 10
168.838256835938
 20
179.730625257273
 30
0.0
 11
169.338257745315
 21
179.730625257273
 31
0.0
  0
POINT
  5
    D3
  8
0
  6
CONTINUOUS
 62
     3
 10
114.838256835938
 20
109.980621337891
 30
0.0
  0
ENDBLK
  5
    D4
  8
0
  6
CONTINUOUS
 62
     7
  0
BLOCK
  5
    D5
  8
0
  6
CONTINUOUS
 62
     7
  2
*UDIM555
 70
    65
 10
0.0
 20
0.0
 30
0.0
  3
*UDIM555
  0
TEXT
  5
    D6
  8
0
  6
CONTINUOUS
 62
     7
 10
-505.117118838982
 20
22.6420470730766
 30
0.0
 40
3.00000002980232
  1
161
 50
89.9999999480344
 41
0.933333333333333
 72
     1
 11
-506.61711885035
 21
26.5420471131782
 31
0.0
 73
     2
  0
LINE
  5
    D7
  8
0
  6
CONTINUOUS
 62
     7
 10
-514.066226315336
 20
-13.4329547882099
 30
0.0
 11
-502.117118835449
 21
-13.4329547882099
 31
0.0
  0
LINE
  5
    D8
  8
0
  6
CONTINUOUS
 62
     7
 10
-514.066226315336
 20
67.0670433044414
 30
0.0
 11
-502.117118835449
 21
67.0670433044414
 31
0.0
  0
LINE
  5
    D9
  8
0
  6
CONTINUOUS
 62
     7
 10
-504.117118835449
 20
-13.4329547882099
 30
0.0
 11
-504.117118835449
 21
67.0670433044414
 31
0.0
  0
LINE
  5
    DA
  8
0
  6
CONTINUOUS
 62
     7
 10
-504.638063265401
 20
-10.478531511003
 30
0.0
 11
-504.117118835449
 21
-13.4329547882099
 31
0.0
  0
LINE
  5
    DB
  8
0
  6
CONTINUOUS
 62
     7
 10
-504.117118835449
 20
-13.4329547882099
 30
0.0
 11
-503.596174405498
 21
-10.478531511003
 31
0.0
  0
LINE
  5
    DC
  8
0
  6
CONTINUOUS
 62
     7
 10
-503.596174405498
 20
64.1126200272345
 30
0.0
 11
-504.117118835449
 21
67.0670433044414
 31
0.0
  0
LINE
  5
    DD
  8
0
  6
CONTINUOUS
 62
     7
 10
-504.117118835449
 20
67.0670433044414
 30
0.0
 11
-504.638063265401
 21
64.1126200272345
 31
0.0
  0
ENDBLK
  5
    DE
  8
0
  6
CONTINUOUS
 62
     7
  0
BLOCK
  5
    DF
  8
0
  6
CONTINUOUS
 62
     7
  2
*UDIM556
 70
    65
 10
0.0
 20
0.0
 30
0.0
  3
*UDIM556
  0
TEXT
  5
    E0
  8
0
  6
CONTINUOUS
 62
     7
 10
-547.866223172544
 20
113.057724002541
 30
0.0
 40
3.00000002980232
  1
117
 50
359.999999948034
 41
0.933333333333333
 72
     1
 11
-543.966223132448
 21
114.557724013925
 31
0.0
 73
     2
  0
LINE
  5
    E1
  8
0
  6
CONTINUOUS
 62
     7
 10
-514.441226315336
 20
67.4420433044414
 30
0.0
 11
-514.441226315336
 21
114.057723999023
 31
0.0
  0
LINE
  5
    E2
  8
0
  6
CONTINUOUS
 62
     7
 10
-572.941226315336
 20
67.4420433044414
 30
0.0
 11
-572.941226315336
 21
114.057723999023
 31
0.0
  0
LINE
  5
    E3
  8
0
  6
CONTINUOUS
 62
     7
 10
-514.441226315336
 20
112.057723999023
 30
0.0
 11
-572.941226315336
 21
112.057723999023
 31
0.0
  0
LINE
  5
    E4
  8
0
  6
CONTINUOUS
 62
     7
 10
-517.395649592543
 20
111.536779569072
 30
0.0
 11
-514.441226315336
 21
112.057723999023
 31
0.0
  0
LINE
  5
    E5
  8
0
  6
CONTINUOUS
 62
     7
 10
-514.441226315336
 20
112.057723999023
 30
0.0
 11
-517.395649592543
 21
112.578668428975
 31
0.0
  0
LINE
  5
    E6
  8
0
  6
CONTINUOUS
 62
     7
 10
-569.986803038129
 20
112.578668428975
 30
0.0
 11
-572.941226315336
 21
112.057723999023
 31
0.0
  0
LINE
  5
    E7
  8
0
  6
CONTINUOUS
 62
     7
 10
-572.941226315336
 20
112.057723999023
 30
0.0
 11
-569.986803038129
 21
111.536779569072
 31
0.0
  0
ENDBLK
  5
    E8
  8
0
  6
CONTINUOUS
 62
     7
  0
BLOCK
  5
    E9
  8
0
  6
CONTINUOUS
 62
     7
  2
*UDIM557
 70
    65
 10
0.0
 20
0.0
 30
0.0
  3
*UDIM557
  0
TEXT
  5
    EA
  8
0
  6
CONTINUOUS
 62
     7
 10
-611.799330718701
 20
45.2545394158474
 30
0.0
 40
3.00000002980232
  1
107,25
 50
89.9999999480344
 41
0.933333333333333
 72
     1
 11
-613.299330726266
 21
53.3545394976722
 31
0.0
 73
     2
  0
LINE
  5
    EB
  8
0
  6
CONTINUOUS
 62
     7
 10
-597.218321387159
 20
26.8170433044414
 30
0.0
 11
-612.799330711365
 21
26.8170433044414
 31
0.0
  0
LINE
  5
    EC
  8
0
  6
CONTINUOUS
 62
     7
 10
-582.741200954652
 20
80.4420333782427
 30
0.0
 11
-612.799330711365
 21
80.4420333782427
 31
0.0
  0
LINE
  5
    ED
  8
0
  6
CONTINUOUS
 62
     7
 10
-610.799330711365
 20
26.8170433044414
 30
0.0
 11
-610.799330711365
 21
80.4420333782427
 31
0.0
  0
LINE
  5
    EE
  8
0
  6
CONTINUOUS
 62
     7
 10
-611.320275141316
 20
29.7714665816484
 30
0.0
 11
-610.799330711365
 21
26.8170433044414
 31
0.0
  0
LINE
  5
    EF
  8
0
  6
CONTINUOUS
 62
     7
 10
-610.799330711365
 20
26.8170433044414
 30
0.0
 11
-610.278386281413
 21
29.7714665816484
 31
0.0
  0
LINE
  5
    F0
  8
0
  6
CONTINUOUS
 62
     7
 10
-610.278386281413
 20
77.4876101010358
 30
0.0
 11
-610.799330711365
 21
80.4420333782427
 31
0.0
  0
LINE
  5
    F1
  8
0
  6
CONTINUOUS
 62
     7
 10
-610.799330711365
 20
80.4420333782427
 30
0.0
 11
-611.320275141316
 21
77.4876101010358
 31
0.0
  0
ENDBLK
  5
    F2
  8
0
  6
CONTINUOUS
 62
     7
  0
BLOCK
  5
    F3
  8
0
  6
CONTINUOUS
 62
     7
  2
*UDIM558
 70
    65
 10
0.0
 20
0.0
 30
0.0
  3
*UDIM558
  0
TEXT
  5
    F4
  8
0
  6
CONTINUOUS
 62
     7
 10
-596.702915197719
 20
42.27953941587
 30
0.0
 40
3.00000002980232
  1
89,75
 50
89.9999999480344
 41
0.933333333333333
 72
     1
 11
-598.202915206552
 21
48.9795394837871
 31
0.0
 73
     2
  0
LINE
  5
    F5
  8
0
  6
CONTINUOUS
 62
     7
 10
-587.816234943014
 20
71.692039489751
 30
0.0
 11
-597.70291519165
 21
71.692039489751
 31
0.0
  0
LINE
  5
    F6
  8
0
  6
CONTINUOUS
 62
     7
 10
-595.70291519165
 20
26.8170433044414
 30
0.0
 11
-595.70291519165
 21
71.692039489751
 31
0.0
  0
LINE
  5
    F7
  8
0
  6
CONTINUOUS
 62
     7
 10
-596.223859621602
 20
29.7714665816484
 30
0.0
 11
-595.70291519165
 21
26.8170433044414
 31
0.0
  0
LINE
  5
    F8
  8
0
  6
CONTINUOUS
 62
     7
 10
-595.70291519165
 20
26.8170433044414
 30
0.0
 11
-595.181970761699
 21
29.7714665816484
 31
0.0
  0
LINE
  5
    F9
  8
0
  6
CONTINUOUS
 62
     7
 10
-595.181970761699
 20
68.737616212544
 30
0.0
 11
-595.70291519165
 21
71.692039489751
 31
0.0
  0
LINE
  5
    FA
  8
0
  6
CONTINUOUS
 62
     7
 10
-595.70291519165
 20
71.692039489751
 30
0.0
 11
-596.223859621602
 21
68.737616212544
 31
0.0
  0
ENDBLK
  5
    FB
  8
0
  6
CONTINUOUS
 62
     7
  0
BLOCK
  5
    FC
  8
0
  6
CONTINUOUS
 62
     7
  2
*UDIM559
 70
    65
 10
0.0
 20
0.0
 30
0.0
  3
*UDIM559
  0
TEXT
  5
    FD
  8
0
  6
CONTINUOUS
 62
     7
 10
-547.866234638933
 20
97.0773925816426
 30
0.0
 40
3.00000002980232
  1
105
 50
359.999999948034
 41
0.933333333333333
 72
     1
 11
-543.966234598837
 21
98.5773925930262
 31
0.0
 73
     2
  0
LINE
  5
    FE
  8
0
  6
CONTINUOUS
 62
     7
 10
-517.441234943014
 20
53.8170433044414
 30
0.0
 11
-517.441234943014
 21
98.077392578125
 31
0.0
  0
LINE
  5
    FF
  8
0
  6
CONTINUOUS
 62
     7
 10
-569.941226315322
 20
53.8170433044414
 30
0.0
 11
-569.941226315322
 21
98.077392578125
 31
0.0
  0
LINE
  5
   100
  8
0
  6
CONTINUOUS
 62
     7
 10
-517.441234943014
 20
96.077392578125
 30
0.0
 11
-569.941226315322
 21
96.077392578125
 31
0.0
  0
LINE
  5
   101
  8
0
  6
CONTINUOUS
 62
     7
 10
-520.395658220221
 20
95.5564481481733
 30
0.0
 11
-517.441234943014
 21
96.077392578125
 31
0.0
  0
LINE
  5
   102
  8
0
  6
CONTINUOUS
 62
     7
 10
-517.441234943014
 20
96.077392578125
 30
0.0
 11
-520.395658220221
 21
96.5983370080767
 31
0.0
  0
LINE
  5
   103
  8
0
  6
CONTINUOUS
 62
     7
 10
-566.986803038115
 20
96.5983370080767
 30
0.0
 11
-569.941226315322
 21
96.077392578125
 31
0.0
  0
LINE
  5
   104
  8
0
  6
CONTINUOUS
 62
     7
 10
-569.941226315322
 20
96.077392578125
 30
0.0
 11
-566.986803038115
 21
95.5564481481733
 31
0.0
  0
ENDBLK
  5
   105
  8
0
  6
CONTINUOUS
 62
     7
  0
BLOCK
  5
   106
  8
0
  6
CONTINUOUS
 62
     7
  2
*UDIM560
 70
    65
 10
0.0
 20
0.0
 30
0.0
  3
*UDIM560
  0
TEXT
  5
   107
  8
0
  6
CONTINUOUS
 62
     7
 10
-508.230586282884
 20
-36.6266991997577
 30
0.0
 40
3.00000002980232
  1
8,2
 50
323.451866541471
 41
0.933333333333333
 72
     1
 11
-504.204247604449
 21
-37.7441056582328
 31
0.0
 73
     2
  0
TEXT
  5
   108
  8
0
  6
CONTINUOUS
 62
     7
 10
-510.761160446946
 20
-34.7508808549364
 30
0.0
 40
3.00000002980232
  1
Ø
 50
323.451866541471
 41
0.933333333333334
 72
     1
 11
-508.984221037865
 21
-34.2008932139858
 31
0.0
 73
     2
  0
LINE
  5
   109
  8
0
  6
CONTINUOUS
 62
     7
 10
-502.559900486799
 20
-42.0749396348908
 30
0.0
 11
-527.838082889785
 21
-23.3371847695429
 31
0.0
  0
LINE
  5
   10A
  8
0
  6
CONTINUOUS
 62
     7
 10
-521.860644946107
 20
-27.1195725548997
 30
0.0
 11
-524.544322502707
 21
-25.7787240279582
 31
0.0
  0
LINE
  5
   10B
  8
0
  6
CONTINUOUS
 62
     7
 10
-524.544322502707
 20
-25.7787240279582
 30
0.0
 11
-522.481087559638
 21
-27.9565811329353
 31
0.0
  0
LINE
  5
   10C
  8
0
  6
CONTINUOUS
 62
     7
 10
-530.521760446385
 20
-21.9963362426015
 30
0.0
 11
-527.838082889785
 21
-23.3371847695429
 31
0.0
  0
LINE
  5
   10D
  8
0
  6
CONTINUOUS
 62
     7
 10
-527.838082889785
 20
-23.3371847695429
 30
0.0
 11
-529.901317832854
 21
-21.1593276645658
 31
0.0
  0
ENDBLK
  5
   10E
  8
0
  6
CONTINUOUS
 62
     7
  0
BLOCK
  5
   10F
  8
0
  6
CONTINUOUS
 62
     7
  2
*UDIM561
 70
    65
 10
0.0
 20
0.0
 30
0.0
  3
*UDIM561
  0
TEXT
  5
   110
  8
0
  6
CONTINUOUS
 62
     7
 10
-553.216231035925
 20
-38.0402564979893
 30
0.0
 40
3.00000002980232
  1
20
 50
359.999999948034
 41
0.933333333333333
 72
     1
 11
-550.716231009736
 21
-36.540256485343
 31
0.0
 73
     2
  0
LINE
  5
   111
  8
0
  6
CONTINUOUS
 62
     7
 10
-556.191231148266
 20
-20.5579681396484
 30
0.0
 11
-556.191238815606
 21
-41.040256500244
 31
0.0
  0
LINE
  5
   112
  8
0
  6
CONTINUOUS
 62
     7
 10
-566.191231148266
 20
-20.5579681396484
 30
0.0
 11
-566.191238815606
 21
-41.040256500244
 31
0.0
  0
LINE
  5
   113
  8
0
  6
CONTINUOUS
 62
     7
 10
-548.216230984901
 20
-39.0402565002441
 30
0.0
 11
-566.191238066926
 21
-39.0402565002441
 31
0.0
  0
LINE
  5
   114
  8
0
  6
CONTINUOUS
 62
     7
 10
-559.145661344133
 20
-39.5612009301958
 30
0.0
 11
-556.191238066926
 21
-39.0402565002441
 31
0.0
  0
LINE
  5
   115
  8
0
  6
CONTINUOUS
 62
     7
 10
-556.191238066926
 20
-39.0402565002441
 30
0.0
 11
-559.145661344133
 21
-38.5193120702925
 31
0.0
  0
LINE
  5
   116
  8
0
  6
CONTINUOUS
 62
     7
 10
-563.236814789719
 20
-38.5193120702925
 30
0.0
 11
-566.191238066926
 21
-39.0402565002441
 31
0.0
  0
LINE
  5
   117
  8
0
  6
CONTINUOUS
 62
     7
 10
-566.191238066926
 20
-39.0402565002441
 30
0.0
 11
-563.236814789719
 21
-39.5612009301958
 31
0.0
  0
ENDBLK
  5
   118
  8
0
  6
CONTINUOUS
 62
     7
  0
BLOCK
  5
   119
  8
0
  6
CONTINUOUS
 62
     7
  2
*UDIM562
 70
    65
 10
0.0
 20
0.0
 30
0.0
  3
*UDIM562
  0
TEXT
  5
   11A
  8
0
  6
CONTINUOUS
 62
     7
 10
-536.141230835706
 20
-53.2065315198779
 30
0.0
 40
3.00000002980232
  1
52,5
 50
359.999999948034
 41
0.933333333333333
 72
     1
 11
-530.841230781702
 21
-51.706531509757
 31
0.0
 73
     2
  0
LINE
  5
   11B
  8
0
  6
CONTINUOUS
 62
     7
 10
-517.441235325777
 20
32.567035675047
 30
0.0
 11
-517.441269305003
 21
-56.2065315246581
 31
0.0
  0
LINE
  5
   11C
  8
0
  6
CONTINUOUS
 62
     7
 10
-543.691226629252
 20
-53.8275050005678
 30
0.0
 11
-543.691227376068
 21
-56.2065315246581
 31
0.0
  0
LINE
  5
   11D
  8
0
  6
CONTINUOUS
 62
     7
 10
-517.441268539477
 20
-54.2065315246582
 30
0.0
 11
-543.691226748235
 21
-54.2065315246582
 31
0.0
  0
LINE
  5
   11E
  8
0
  6
CONTINUOUS
 62
     7
 10
-520.395691816684
 20
-54.7274759546099
 30
0.0
 11
-517.441268539477
 21
-54.2065315246582
 31
0.0
  0
LINE
  5
   11F
  8
0
  6
CONTINUOUS
 62
     7
 10
-517.441268539477
 20
-54.2065315246582
 30
0.0
 11
-520.395691816684
 21
-53.6855870947065
 31
0.0
  0
LINE
  5
   120
  8
0
  6
CONTINUOUS
 62
     7
 10
-540.736803471028
 20
-53.6855870947065
 30
0.0
 11
-543.691226748235
 21
-54.2065315246582
 31
0.0
  0
LINE
  5
   121
  8
0
  6
CONTINUOUS
 62
     7
 10
-543.691226748235
 20
-54.2065315246582
 30
0.0
 11
-540.736803471028
 21
-54.7274759546099
 31
0.0
  0
ENDBLK
  5
   122
  8
0
  6
CONTINUOUS
 62
     7
  0
BLOCK
  5
   123
  8
0
  6
CONTINUOUS
 62
     7
  2
*UDIM563
 70
    65
 10
0.0
 20
0.0
 30
0.0
  3
*UDIM563
  0
TEXT
  5
   124
  8
0
  6
CONTINUOUS
 62
     7
 10
-556.616238440497
 20
105.555938724221
 30
0.0
 40
3.00000002980232
  1
140
 50
359.999999948034
 41
0.933333333333333
 72
     1
 11
-552.716238400401
 21
107.055938735604
 31
0.0
 73
     2
  0
LINE
  5
   125
  8
0
  6
CONTINUOUS
 62
     7
 10
-517.441234629112
 20
72.0670394897509
 30
0.0
 11
-517.441223802478
 21
106.555938720703
 31
0.0
  0
LINE
  5
   126
  8
0
  6
CONTINUOUS
 62
     7
 10
-587.441234503724
 20
72.0670394897509
 30
0.0
 11
-587.441219353085
 21
106.555938720703
 31
0.0
  0
LINE
  5
   127
  8
0
  6
CONTINUOUS
 62
     7
 10
-517.441224430311
 20
104.555938720703
 30
0.0
 11
-587.441220231666
 21
104.555938720703
 31
0.0
  0
LINE
  5
   128
  8
0
  6
CONTINUOUS
 62
     7
 10
-520.395647707518
 20
104.034994290751
 30
0.0
 11
-517.441224430311
 21
104.555938720703
 31
0.0
  0
LINE
  5
   129
  8
0
  6
CONTINUOUS
 62
     7
 10
-517.441224430311
 20
104.555938720703
 30
0.0
 11
-520.395647707518
 21
105.076883150655
 31
0.0
  0
LINE
  5
   12A
  8
0
  6
CONTINUOUS
 62
     7
 10
-584.486796954459
 20
105.076883150655
 30
0.0
 11
-587.441220231666
 21
104.555938720703
 31
0.0
  0
LINE
  5
   12B
  8
0
  6
CONTINUOUS
 62
     7
 10
-587.441220231666
 20
104.555938720703
 30
0.0
 11
-584.486796954459
 21
104.034994290751
 31
0.0
  0
ENDBLK
  5
   12C
  8
0
  6
CONTINUOUS
 62
     7
  0
BLOCK
  5
   12D
  8
0
  6
CONTINUOUS
 62
     7
  2
*UDIM564
 70
    65
 10
0.0
 20
0.0
 30
0.0
  3
*UDIM564
  0
TEXT
  5
   12E
  8
0
  6
CONTINUOUS
 62
     7
 10
-537.716207900533
 20
-45.6233940101963
 30
0.0
 40
3.00000002980232
  1
35
 50
359.999999948034
 41
0.933333333333333
 72
     1
 11
-535.216207874345
 21
-44.12339399755
 31
0.0
 73
     2
  0
LINE
  5
   12F
  8
0
  6
CONTINUOUS
 62
     7
 10
-526.191203110864
 20
-28.6079526571567
 30
0.0
 11
-526.191211409632
 21
-48.623394012451
 31
0.0
  0
LINE
  5
   130
  8
0
  6
CONTINUOUS
 62
     7
 10
-543.691203110864
 20
-28.6079526571567
 30
0.0
 11
-543.691211409632
 21
-48.623394012451
 31
0.0
  0
LINE
  5
   131
  8
0
  6
CONTINUOUS
 62
     7
 10
-526.191210580396
 20
-46.6233940124512
 30
0.0
 11
-543.691210580396
 21
-46.6233940124512
 31
0.0
  0
LINE
  5
   132
  8
0
  6
CONTINUOUS
 62
     7
 10
-529.145633857603
 20
-47.1443384424028
 30
0.0
 11
-526.191210580396
 21
-46.6233940124512
 31
0.0
  0
LINE
  5
   133
  8
0
  6
CONTINUOUS
 62
     7
 10
-526.191210580396
 20
-46.6233940124512
 30
0.0
 11
-529.145633857603
 21
-46.1024495824995
 31
0.0
  0
LINE
  5
   134
  8
0
  6
CONTINUOUS
 62
     7
 10
-540.736787303189
 20
-46.1024495824995
 30
0.0
 11
-543.691210580396
 21
-46.6233940124512
 31
0.0
  0
LINE
  5
   135
  8
0
  6
CONTINUOUS
 62
     7
 10
-543.691210580396
 20
-46.6233940124512
 30
0.0
 11
-540.736787303189
 21
-47.1443384424028
 31
0.0
  0
ENDBLK
  5
   136
  8
0
  6
CONTINUOUS
 62
     7
  0
BLOCK
  5
   137
  8
0
  6
CONTINUOUS
 62
     7
  2
*UDIM565
 70
    65
 10
0.0
 20
0.0
 30
0.0
  3
*UDIM565
  0
TEXT
  5
   138
  8
0
  6
CONTINUOUS
 62
     7
 10
-555.216204098723
 20
-45.6233940101963
 30
0.0
 40
3.00000002980232
  1
35
 50
359.999999948034
 41
0.933333333333333
 72
     1
 11
-552.716204072535
 21
-44.12339399755
 31
0.0
 73
     2
  0
LINE
  5
   139
  8
0
  6
CONTINUOUS
 62
     7
 10
-561.19120324387
 20
-28.6079526571566
 30
0.0
 11
-561.191214204815
 21
-48.6233940124509
 31
0.0
  0
LINE
  5
   13A
  8
0
  6
CONTINUOUS
 62
     7
 10
-543.691210580396
 20
-46.6233940124512
 30
0.0
 11
-561.191213109566
 21
-46.6233940124512
 31
0.0
  0
LINE
  5
   13B
  8
0
  6
CONTINUOUS
 62
     7
 10
-546.645633857603
 20
-47.1443384424028
 30
0.0
 11
-543.691210580396
 21
-46.6233940124512
 31
0.0
  0
LINE
  5
   13C
  8
0
  6
CONTINUOUS
 62
     7
 10
-543.691210580396
 20
-46.6233940124512
 30
0.0
 11
-546.645633857603
 21
-46.1024495824995
 31
0.0
  0
LINE
  5
   13D
  8
0
  6
CONTINUOUS
 62
     7
 10
-558.236789832359
 20
-46.1024495824995
 30
0.0
 11
-561.191213109566
 21
-46.6233940124512
 31
0.0
  0
LINE
  5
   13E
  8
0
  6
CONTINUOUS
 62
     7
 10
-561.191213109566
 20
-46.6233940124512
 30
0.0
 11
-558.236789832359
 21
-47.1443384424028
 31
0.0
  0
ENDBLK
  5
   13F
  8
0
  6
CONTINUOUS
 62
     7
  0
BLOCK
  5
   140
  8
0
  6
CONTINUOUS
 62
     7
  2
*UDIM566
 70
    65
 10
0.0
 20
0.0
 30
0.0
  3
*UDIM566
  0
TEXT
  5
   141
  8
0
  6
CONTINUOUS
 62
     7
 10
-572.716196482216
 20
-45.6233940101963
 30
0.0
 40
3.00000002980232
  1
35
 50
359.999999948034
 41
0.933333333333333
 72
     1
 11
-570.216196456028
 21
-44.12339399755
 31
0.0
 73
     2
  0
LINE
  5
   142
  8
0
  6
CONTINUOUS
 62
     7
 10
-578.69120324387
 20
-28.6079526571566
 30
0.0
 11
-578.691214204815
 21
-48.6233940124509
 31
0.0
  0
LINE
  5
   143
  8
0
  6
CONTINUOUS
 62
     7
 10
-561.191213109566
 20
-46.6233940124512
 30
0.0
 11
-578.691213109566
 21
-46.6233940124512
 31
0.0
  0
LINE
  5
   144
  8
0
  6
CONTINUOUS
 62
     7
 10
-564.145636386773
 20
-47.1443384424028
 30
0.0
 11
-561.191213109566
 21
-46.6233940124512
 31
0.0
  0
LINE
  5
   145
  8
0
  6
CONTINUOUS
 62
     7
 10
-561.191213109566
 20
-46.6233940124512
 30
0.0
 11
-564.145636386773
 21
-46.1024495824995
 31
0.0
  0
LINE
  5
   146
  8
0
  6
CONTINUOUS
 62
     7
 10
-575.736789832359
 20
-46.1024495824995
 30
0.0
 11
-578.691213109566
 21
-46.6233940124512
 31
0.0
  0
LINE
  5
   147
  8
0
  6
CONTINUOUS
 62
     7
 10
-578.691213109566
 20
-46.6233940124512
 30
0.0
 11
-575.736789832359
 21
-47.1443384424028
 31
0.0
  0
ENDBLK
  5
   148
  8
0
  6
CONTINUOUS
 62
     7
  0
BLOCK
  5
   149
  8
0
  6
CONTINUOUS
 62
     7
  2
*UDIM567
 70
    65
 10
0.0
 20
0.0
 30
0.0
  3
*UDIM567
  0
TEXT
  5
   14A
  8
0
  6
CONTINUOUS
 62
     7
 10
-618.100587847113
 20
-30.162252853659
 30
0.0
 40
3.00000002980232
  1
10
 50
89.9999999480344
 41
0.933333333333333
 72
     1
 11
-619.60058785975
 21
-27.6622528274652
 31
0.0
 73
     2
  0
LINE
  5
   14B
  8
0
  6
CONTINUOUS
 62
     7
 10
-531.566230773926
 20
-29.5579676628113
 30
0.0
 11
-619.100587844849
 21
-29.5579676628113
 31
0.0
  0
LINE
  5
   14C
  8
0
  6
CONTINUOUS
 62
     7
 10
-530.241200954652
 20
-24.5579543987506
 30
0.0
 11
-619.100587844849
 21
-24.5579543987506
 31
0.0
  0
LINE
  5
   14D
  8
0
  6
CONTINUOUS
 62
     7
 10
-617.100587844849
 20
-30.1622528523005
 30
0.0
 11
-617.100587844849
 21
-24.5579543987506
 31
0.0
  0
LINE
  5
   14E
  8
0
  6
CONTINUOUS
 62
     7
 10
-616.579643414897
 20
-32.5123909400182
 30
0.0
 11
-617.100587844849
 21
-29.5579676628113
 31
0.0
  0
LINE
  5
   14F
  8
0
  6
CONTINUOUS
 62
     7
 10
-617.100587844849
 20
-29.5579676628113
 30
0.0
 11
-617.6215322748
 21
-32.5123909400182
 31
0.0
  0
LINE
  5
   150
  8
0
  6
CONTINUOUS
 62
     7
 10
-617.6215322748
 20
-21.6035311215436
 30
0.0
 11
-617.100587844849
 21
-24.5579543987506
 31
0.0
  0
LINE
  5
   151
  8
0
  6
CONTINUOUS
 62
     7
 10
-617.100587844849
 20
-24.5579543987506
 30
0.0
 11
-616.579643414897
 21
-21.6035311215436
 31
0.0
  0
ENDBLK
  5
   152
  8
0
  6
CONTINUOUS
 62
     7
  0
BLOCK
  5
   153
  8
0
  6
CONTINUOUS
 62
     7
  2
*UDIM568
 70
    65
 10
0.0
 20
0.0
 30
0.0
  3
*UDIM568
  0
TEXT
  5
   154
  8
0
  6
CONTINUOUS
 62
     7
 10
-618.100587848381
 20
23.7670356289868
 30
0.0
 40
3.00000002980232
  1
210
 50
89.9999999480344
 41
0.933333333333333
 72
     1
 11
-619.60058785975
 21
27.6670356690884
 31
0.0
 73
     2
  0
LINE
  5
   155
  8
0
  6
CONTINUOUS
 62
     7
 10
-530.241200954652
 20
80.4420333782427
 30
0.0
 11
-619.100587844849
 21
80.4420333782427
 31
0.0
  0
LINE
  5
   156
  8
0
  6
CONTINUOUS
 62
     7
 10
-617.100587844849
 20
-24.5579543987506
 30
0.0
 11
-617.100587844849
 21
80.4420333782427
 31
0.0
  0
LINE
  5
   157
  8
0
  6
CONTINUOUS
 62
     7
 10
-617.6215322748
 20
-21.6035311215436
 30
0.0
 11
-617.100587844849
 21
-24.5579543987506
 31
0.0
  0
LINE
  5
   158
  8
0
  6
CONTINUOUS
 62
     7
 10
-617.100587844849
 20
-24.5579543987506
 30
0.0
 11
-616.579643414897
 21
-21.6035311215436
 31
0.0
  0
LINE
  5
   159
  8
0
  6
CONTINUOUS
 62
     7
 10
-616.579643414897
 20
77.4876101010358
 30
0.0
 11
-617.100587844849
 21
80.4420333782427
 31
0.0
  0
LINE
  5
   15A
  8
0
  6
CONTINUOUS
 62
     7
 10
-617.100587844849
 20
80.4420333782427
 30
0.0
 11
-617.6215322748
 21
77.4876101010358
 31
0.0
  0
ENDBLK
  5
   15B
  8
0
  6
CONTINUOUS
 62
     7
  0
BLOCK
  5
   15C
  8
0
  6
CONTINUOUS
 62
     7
  2
*UDIM569
 70
    65
 10
0.0
 20
0.0
 30
0.0
  3
*UDIM569
  0
TEXT
  5
   15D
  8
0
  6
CONTINUOUS
 62
     7
 10
-618.100587847113
 20
80.0412689026317
 30
0.0
 40
3.00000002980232
  1
10
 50
89.9999999480344
 41
0.933333333333333
 72
     1
 11
-619.60058785975
 21
82.5412689288255
 31
0.0
 73
     2
  0
LINE
  5
   15E
  8
0
  6
CONTINUOUS
 62
     7
 10
-531.566230773926
 20
85.4420466423035
 30
0.0
 11
-619.100587844849
 21
85.4420466423035
 31
0.0
  0
LINE
  5
   15F
  8
0
  6
CONTINUOUS
 62
     7
 10
-617.100587844849
 20
80.0412689039902
 30
0.0
 11
-617.100587844849
 21
85.4420466423035
 31
0.0
  0
LINE
  5
   160
  8
0
  6
CONTINUOUS
 62
     7
 10
-616.579643414897
 20
77.4876101010358
 30
0.0
 11
-617.100587844849
 21
80.4420333782427
 31
0.0
  0
LINE
  5
   161
  8
0
  6
CONTINUOUS
 62
     7
 10
-617.100587844849
 20
80.4420333782427
 30
0.0
 11
-617.6215322748
 21
77.4876101010358
 31
0.0
  0
LINE
  5
   162
  8
0
  6
CONTINUOUS
 62
     7
 10
-617.6215322748
 20
88.3964699195104
 30
0.0
 11
-617.100587844849
 21
85.4420466423035
 31
0.0
  0
LINE
  5
   163
  8
0
  6
CONTINUOUS
 62
     7
 10
-617.100587844849
 20
85.4420466423035
 30
0.0
 11
-616.579643414897
 21
88.3964699195104
 31
0.0
  0
ENDBLK
  5
   164
  8
0
  6
CONTINUOUS
 62
     7
  0
BLOCK
  5
   165
  8
0
  6
CONTINUOUS
 62
     7
  2
*UDIM570
 70
    65
 10
0.0
 20
0.0
 30
0.0
  3
*UDIM570
  0
TEXT
  5
   166
  8
0
  6
CONTINUOUS
 62
     7
 10
-603.984585288719
 20
23.767039443684
 30
0.0
 40
3.00000002980232
  1
175
 50
89.9999999480344
 41
0.933333333333333
 72
     1
 11
-605.484585300088
 21
27.6670394837856
 31
0.0
 73
     2
  0
LINE
  5
   167
  8
0
  6
CONTINUOUS
 62
     7
 10
-587.816234943014
 20
-15.8079605102588
 30
0.0
 11
-604.984585285187
 21
-15.8079605102588
 31
0.0
  0
LINE
  5
   168
  8
0
  6
CONTINUOUS
 62
     7
 10
-587.816234943014
 20
71.692039489751
 30
0.0
 11
-604.984585285187
 21
71.692039489751
 31
0.0
  0
LINE
  5
   169
  8
0
  6
CONTINUOUS
 62
     7
 10
-602.984585285187
 20
-15.8079605102588
 30
0.0
 11
-602.984585285187
 21
71.692039489751
 31
0.0
  0
LINE
  5
   16A
  8
0
  6
CONTINUOUS
 62
     7
 10
-603.505529715139
 20
-12.8535372330519
 30
0.0
 11
-602.984585285187
 21
-15.8079605102588
 31
0.0
  0
LINE
  5
   16B
  8
0
  6
CONTINUOUS
 62
     7
 10
-602.984585285187
 20
-15.8079605102588
 30
0.0
 11
-602.463640855235
 21
-12.8535372330519
 31
0.0
  0
LINE
  5
   16C
  8
0
  6
CONTINUOUS
 62
     7
 10
-602.463640855235
 20
68.737616212544
 30
0.0
 11
-602.984585285187
 21
71.692039489751
 31
0.0
  0
LINE
  5
   16D
  8
0
  6
CONTINUOUS
 62
     7
 10
-602.984585285187
 20
71.692039489751
 30
0.0
 11
-603.505529715139
 21
68.737616212544
 31
0.0
  0
ENDBLK
  5
   16E
  8
0
  6
CONTINUOUS
 62
     7
  0
BLOCK
  5
   16F
  8
0
  6
CONTINUOUS
 62
     7
  2
*UDIM571
 70
    65
 10
0.0
 20
0.0
 30
0.0
  3
*UDIM571
  0
TEXT
  5
   170
  8
0
  6
CONTINUOUS
 62
     7
 10
-319.764389352146
 20
29.4459780605301
 30
0.0
 40
3.00000002980232
  1
7
 50
397.208926617964
 41
0.933333333333334
 72
     1
 11
-319.795394877702
 21
31.3058271743372
 31
0.0
 73
     2
  0
TEXT
  5
   171
  8
0
  6
CONTINUOUS
 62
     7
 10
-322.273161849236
 20
27.5410999488317
 30
0.0
 40
3.00000002980232
  1
Ø
 50
397.208926617964
 41
0.933333333333334
 72
     1
 11
-322.304167374793
 21
29.4009490626388
 31
0.0
 73
     2
  0
LINE
  5
   172
  8
0
  6
CONTINUOUS
 62
     7
 10
-303.440142678787
 20
40.5851707099684
 30
0.0
 11
-321.66843863603
 21
26.7446642380656
 31
0.0
  0
LINE
  5
   173
  8
0
  6
CONTINUOUS
 62
     7
 10
-301.402161662803
 20
42.7866777797934
 30
0.0
 11
-303.440142678787
 21
40.5851707099684
 31
0.0
  0
LINE
  5
   174
  8
0
  6
CONTINUOUS
 62
     7
 10
-303.440142678787
 20
40.5851707099684
 30
0.0
 11
-300.772107288901
 21
41.9568802850292
 31
0.0
  0
LINE
  5
   175
  8
0
  6
CONTINUOUS
 62
     7
 10
-306.871886188759
 20
37.3253980258707
 30
0.0
 11
-304.833905172775
 21
39.5269050956957
 31
0.0
  0
LINE
  5
   176
  8
0
  6
CONTINUOUS
 62
     7
 10
-304.833905172775
 20
39.5269050956957
 30
0.0
 11
-307.501940562662
 21
38.1551955206348
 31
0.0
  0
ENDBLK
  5
   177
  8
0
  6
CONTINUOUS
 62
     7
  0
BLOCK
  5
   178
  8
0
  6
CONTINUOUS
 62
     7
  2
*UDIM572
 70
    65
 10
0.0
 20
0.0
 30
0.0
  3
*UDIM572
  0
TEXT
  5
   179
  8
0
  6
CONTINUOUS
 62
     7
 10
-298.312023974559
 20
91.7800102339806
 30
0.0
 40
3.00000002980232
  1
112
 50
359.999999844103
 41
0.933333333333333
 72
     1
 11
-294.412023931742
 21
93.2800102382898
 31
0.0
 73
     2
  0
LINE
  5
   17A
  8
0
  6
CONTINUOUS
 62
     7
 10
-308.137023925781
 20
72.806037902832
 30
0.0
 11
-308.137023925781
 21
92.7800102233887
 31
0.0
  0
LINE
  5
   17B
  8
0
  6
CONTINUOUS
 62
     7
 10
-280.137023925781
 20
72.806037902832
 30
0.0
 11
-280.137023925781
 21
92.7800102233887
 31
0.0
  0
LINE
  5
   17C
  8
0
  6
CONTINUOUS
 62
     7
 10
-308.137023925781
 20
90.7800102233887
 30
0.0
 11
-280.137023925781
 21
90.7800102233887
 31
0.0
  0
LINE
  5
   17D
  8
0
  6
CONTINUOUS
 62
     7
 10
-305.182600648574
 20
91.3009546533404
 30
0.0
 11
-308.137023925781
 21
90.7800102233887
 31
0.0
  0
LINE
  5
   17E
  8
0
  6
CONTINUOUS
 62
     7
 10
-308.137023925781
 20
90.7800102233887
 30
0.0
 11
-305.182600648574
 21
90.259065793437
 31
0.0
  0
LINE
  5
   17F
  8
0
  6
CONTINUOUS
 62
     7
 10
-283.091447202988
 20
90.259065793437
 30
0.0
 11
-280.137023925781
 21
90.7800102233887
 31
0.0
  0
LINE
  5
   180
  8
0
  6
CONTINUOUS
 62
     7
 10
-280.137023925781
 20
90.7800102233887
 30
0.0
 11
-283.091447202988
 21
91.3009546533404
 31
0.0
  0
ENDBLK
  5
   181
  8
0
  6
CONTINUOUS
 62
     7
  0
BLOCK
  5
   182
  8
0
  6
CONTINUOUS
 62
     7
  2
*UDIM573
 70
    65
 10
0.0
 20
0.0
 30
0.0
  3
*UDIM573
  0
TEXT
  5
   183
  8
0
  6
CONTINUOUS
 62
     7
 10
-296.912023960651
 20
85.1218395301052
 30
0.0
 40
3.00000002980232
  1
80
 50
359.999999844103
 41
0.933333333333333
 72
     1
 11
-294.412023931742
 21
86.6218395382166
 31
0.0
 73
     2
  0
LINE
  5
   184
  8
0
  6
CONTINUOUS
 62
     7
 10
-304.137023925781
 20
78.181037902832
 30
0.0
 11
-304.137023925781
 21
86.1218395233154
 31
0.0
  0
LINE
  5
   185
  8
0
  6
CONTINUOUS
 62
     7
 10
-284.137023925781
 20
78.181037902832
 30
0.0
 11
-284.137023925781
 21
86.1218395233154
 31
0.0
  0
LINE
  5
   186
  8
0
  6
CONTINUOUS
 62
     7
 10
-304.137023925781
 20
84.1218395233154
 30
0.0
 11
-284.137023925781
 21
84.1218395233154
 31
0.0
  0
LINE
  5
   187
  8
0
  6
CONTINUOUS
 62
     7
 10
-301.182600648574
 20
84.6427839532671
 30
0.0
 11
-304.137023925781
 21
84.1218395233154
 31
0.0
  0
LINE
  5
   188
  8
0
  6
CONTINUOUS
 62
     7
 10
-304.137023925781
 20
84.1218395233154
 30
0.0
 11
-301.182600648574
 21
83.6008950933638
 31
0.0
  0
LINE
  5
   189
  8
0
  6
CONTINUOUS
 62
     7
 10
-287.091447202988
 20
83.6008950933638
 30
0.0
 11
-284.137023925781
 21
84.1218395233154
 31
0.0
  0
LINE
  5
   18A
  8
0
  6
CONTINUOUS
 62
     7
 10
-284.137023925781
 20
84.1218395233154
 30
0.0
 11
-287.091447202988
 21
84.6427839532671
 31
0.0
  0
ENDBLK
  5
   18B
  8
0
  6
CONTINUOUS
 62
     7
  0
BLOCK
  5
   18C
  8
0
  6
CONTINUOUS
 62
     7
  2
*UDIM574
 70
    65
 10
0.0
 20
0.0
 30
0.0
  3
*UDIM574
  0
TEXT
  5
   18D
  8
0
  6
CONTINUOUS
 62
     7
 10
-331.261741648771
 20
53.6310378540566
 30
0.0
 40
3.00000002980232
  1
142
 50
449.999999844103
 41
0.933333333333333
 72
     1
 11
-332.761741653085
 21
57.5310378968716
 31
0.0
 73
     2
  0
LINE
  5
   18E
  8
0
  6
CONTINUOUS
 62
     7
 10
-306.762023925781
 20
75.556037902832
 30
0.0
 11
-332.261741638184
 21
75.556037902832
 31
0.0
  0
LINE
  5
   18F
  8
0
  6
CONTINUOUS
 62
     7
 10
-306.762023925781
 20
40.056037902832
 30
0.0
 11
-332.261741638184
 21
40.056037902832
 31
0.0
  0
LINE
  5
   190
  8
0
  6
CONTINUOUS
 62
     7
 10
-330.261741638184
 20
75.556037902832
 30
0.0
 11
-330.261741638184
 21
40.056037902832
 31
0.0
  0
LINE
  5
   191
  8
0
  6
CONTINUOUS
 62
     7
 10
-329.740797208232
 20
72.6016146256251
 30
0.0
 11
-330.261741638184
 21
75.556037902832
 31
0.0
  0
LINE
  5
   192
  8
0
  6
CONTINUOUS
 62
     7
 10
-330.261741638184
 20
75.556037902832
 30
0.0
 11
-330.782686068135
 21
72.6016146256251
 31
0.0
  0
LINE
  5
   193
  8
0
  6
CONTINUOUS
 62
     7
 10
-330.782686068135
 20
43.010461180039
 30
0.0
 11
-330.261741638184
 21
40.056037902832
 31
0.0
  0
LINE
  5
   194
  8
0
  6
CONTINUOUS
 62
     7
 10
-330.261741638184
 20
40.056037902832
 30
0.0
 11
-329.740797208232
 21
43.010461180039
 31
0.0
  0
ENDBLK
  5
   195
  8
0
  6
CONTINUOUS
 62
     7
  0
BLOCK
  5
   196
  8
0
  6
CONTINUOUS
 62
     7
  2
*UDIM575
 70
    65
 10
0.0
 20
0.0
 30
0.0
  3
*UDIM575
  0
TEXT
  5
   197
  8
0
  6
CONTINUOUS
 62
     7
 10
-322.649087916471
 20
53.6310378540566
 30
0.0
 40
3.00000002980232
  1
112
 50
449.999999844103
 41
0.933333333333333
 72
     1
 11
-324.149087920785
 21
57.5310378968716
 31
0.0
 73
     2
  0
LINE
  5
   198
  8
0
  6
CONTINUOUS
 62
     7
 10
-309.137023925781
 20
71.806037902832
 30
0.0
 11
-323.649087905884
 21
71.806037902832
 31
0.0
  0
LINE
  5
   199
  8
0
  6
CONTINUOUS
 62
     7
 10
-309.137023925781
 20
43.806037902832
 30
0.0
 11
-323.649087905884
 21
43.806037902832
 31
0.0
  0
LINE
  5
   19A
  8
0
  6
CONTINUOUS
 62
     7
 10
-321.649087905884
 20
71.806037902832
 30
0.0
 11
-321.649087905884
 21
43.806037902832
 31
0.0
  0
LINE
  5
   19B
  8
0
  6
CONTINUOUS
 62
     7
 10
-321.128143475932
 20
68.8516146256251
 30
0.0
 11
-321.649087905884
 21
71.806037902832
 31
0.0
  0
LINE
  5
   19C
  8
0
  6
CONTINUOUS
 62
     7
 10
-321.649087905884
 20
71.806037902832
 30
0.0
 11
-322.170032335835
 21
68.8516146256251
 31
0.0
  0
LINE
  5
   19D
  8
0
  6
CONTINUOUS
 62
     7
 10
-322.170032335835
 20
46.760461180039
 30
0.0
 11
-321.649087905884
 21
43.806037902832
 31
0.0
  0
LINE
  5
   19E
  8
0
  6
CONTINUOUS
 62
     7
 10
-321.649087905884
 20
43.806037902832
 30
0.0
 11
-321.128143475932
 21
46.760461180039
 31
0.0
  0
ENDBLK
  5
   19F
  8
0
  6
CONTINUOUS
 62
     7
  0
BLOCK
  5
   1A0
  8
0
  6
CONTINUOUS
 62
     7
  2
*UDIM576
 70
    65
 10
0.0
 20
0.0
 30
0.0
  3
*UDIM576
  0
TEXT
  5
   1A1
  8
0
  6
CONTINUOUS
 62
     7
 10
-319.764389352146
 20
29.4459780605301
 30
0.0
 40
3.00000002980232
  1
7
 50
397.208926617964
 41
0.933333333333334
 72
     1
 11
-319.795394877702
 21
31.3058271743372
 31
0.0
 73
     2
  0
TEXT
  5
   1A2
  8
0
  6
CONTINUOUS
 62
     7
 10
-322.273161849236
 20
27.5410999488317
 30
0.0
 40
3.00000002980232
  1
Ø
 50
397.208926617964
 41
0.933333333333334
 72
     1
 11
-322.304167374793
 21
29.4009490626388
 31
0.0
 73
     2
  0
LINE
  5
   1A3
  8
0
  6
CONTINUOUS
 62
     7
 10
-303.440142678787
 20
40.5851707099684
 30
0.0
 11
-321.66843863603
 21
26.7446642380656
 31
0.0
  0
LINE
  5
   1A4
  8
0
  6
CONTINUOUS
 62
     7
 10
-301.402161662803
 20
42.7866777797934
 30
0.0
 11
-303.440142678787
 21
40.5851707099684
 31
0.0
  0
LINE
  5
   1A5
  8
0
  6
CONTINUOUS
 62
     7
 10
-303.440142678787
 20
40.5851707099684
 30
0.0
 11
-300.772107288901
 21
41.9568802850292
 31
0.0
  0
LINE
  5
   1A6
  8
0
  6
CONTINUOUS
 62
     7
 10
-306.871886188759
 20
37.3253980258707
 30
0.0
 11
-304.833905172775
 21
39.5269050956957
 31
0.0
  0
LINE
  5
   1A7
  8
0
  6
CONTINUOUS
 62
     7
 10
-304.833905172775
 20
39.5269050956957
 30
0.0
 11
-307.501940562662
 21
38.1551955206348
 31
0.0
  0
ENDBLK
  5
   1A8
  8
0
  6
CONTINUOUS
 62
     7
  0
BLOCK
  5
   1A9
  8
0
  6
CONTINUOUS
 62
     7
  2
*UDIM577
 70
    65
 10
0.0
 20
0.0
 30
0.0
  3
*UDIM577
  0
TEXT
  5
   1AA
  8
0
  6
CONTINUOUS
 62
     7
 10
-298.312023974559
 20
91.7800102339806
 30
0.0
 40
3.00000002980232
  1
112
 50
359.999999844103
 41
0.933333333333333
 72
     1
 11
-294.412023931742
 21
93.2800102382898
 31
0.0
 73
     2
  0
LINE
  5
   1AB
  8
0
  6
CONTINUOUS
 62
     7
 10
-308.137023925781
 20
72.806037902832
 30
0.0
 11
-308.137023925781
 21
92.7800102233887
 31
0.0
  0
LINE
  5
   1AC
  8
0
  6
CONTINUOUS
 62
     7
 10
-280.137023925781
 20
72.806037902832
 30
0.0
 11
-280.137023925781
 21
92.7800102233887
 31
0.0
  0
LINE
  5
   1AD
  8
0
  6
CONTINUOUS
 62
     7
 10
-308.137023925781
 20
90.7800102233887
 30
0.0
 11
-280.137023925781
 21
90.7800102233887
 31
0.0
  0
LINE
  5
   1AE
  8
0
  6
CONTINUOUS
 62
     7
 10
-305.182600648574
 20
91.3009546533404
 30
0.0
 11
-308.137023925781
 21
90.7800102233887
 31
0.0
  0
LINE
  5
   1AF
  8
0
  6
CONTINUOUS
 62
     7
 10
-308.137023925781
 20
90.7800102233887
 30
0.0
 11
-305.182600648574
 21
90.259065793437
 31
0.0
  0
LINE
  5
   1B0
  8
0
  6
CONTINUOUS
 62
     7
 10
-283.091447202988
 20
90.259065793437
 30
0.0
 11
-280.137023925781
 21
90.7800102233887
 31
0.0
  0
LINE
  5
   1B1
  8
0
  6
CONTINUOUS
 62
     7
 10
-280.137023925781
 20
90.7800102233887
 30
0.0
 11
-283.091447202988
 21
91.3009546533404
 31
0.0
  0
ENDBLK
  5
   1B2
  8
0
  6
CONTINUOUS
 62
     7
  0
BLOCK
  5
   1B3
  8
0
  6
CONTINUOUS
 62
     7
  2
*UDIM578
 70
    65
 10
0.0
 20
0.0
 30
0.0
  3
*UDIM578
  0
TEXT
  5
   1B4
  8
0
  6
CONTINUOUS
 62
     7
 10
-296.912023960651
 20
85.1218395301052
 30
0.0
 40
3.00000002980232
  1
80
 50
359.999999844103
 41
0.933333333333333
 72
     1
 11
-294.412023931742
 21
86.6218395382166
 31
0.0
 73
     2
  0
LINE
  5
   1B5
  8
0
  6
CONTINUOUS
 62
     7
 10
-304.137023925781
 20
78.181037902832
 30
0.0
 11
-304.137023925781
 21
86.1218395233154
 31
0.0
  0
LINE
  5
   1B6
  8
0
  6
CONTINUOUS
 62
     7
 10
-284.137023925781
 20
78.181037902832
 30
0.0
 11
-284.137023925781
 21
86.1218395233154
 31
0.0
  0
LINE
  5
   1B7
  8
0
  6
CONTINUOUS
 62
     7
 10
-304.137023925781
 20
84.1218395233154
 30
0.0
 11
-284.137023925781
 21
84.1218395233154
 31
0.0
  0
LINE
  5
   1B8
  8
0
  6
CONTINUOUS
 62
     7
 10
-301.182600648574
 20
84.6427839532671
 30
0.0
 11
-304.137023925781
 21
84.1218395233154
 31
0.0
  0
LINE
  5
   1B9
  8
0
  6
CONTINUOUS
 62
     7
 10
-304.137023925781
 20
84.1218395233154
 30
0.0
 11
-301.182600648574
 21
83.6008950933638
 31
0.0
  0
LINE
  5
   1BA
  8
0
  6
CONTINUOUS
 62
     7
 10
-287.091447202988
 20
83.6008950933638
 30
0.0
 11
-284.137023925781
 21
84.1218395233154
 31
0.0
  0
LINE
  5
   1BB
  8
0
  6
CONTINUOUS
 62
     7
 10
-284.137023925781
 20
84.1218395233154
 30
0.0
 11
-287.091447202988
 21
84.6427839532671
 31
0.0
  0
ENDBLK
  5
   1BC
  8
0
  6
CONTINUOUS
 62
     7
  0
BLOCK
  5
   1BD
  8
0
  6
CONTINUOUS
 62
     7
  2
*UDIM579
 70
    65
 10
0.0
 20
0.0
 30
0.0
  3
*UDIM579
  0
TEXT
  5
   1BE
  8
0
  6
CONTINUOUS
 62
     7
 10
-322.649087916471
 20
53.6310378540566
 30
0.0
 40
3.00000002980232
  1
112
 50
449.999999844103
 41
0.933333333333333
 72
     1
 11
-324.149087920785
 21
57.5310378968716
 31
0.0
 73
     2
  0
LINE
  5
   1BF
  8
0
  6
CONTINUOUS
 62
     7
 10
-309.137023925781
 20
71.806037902832
 30
0.0
 11
-323.649087905884
 21
71.806037902832
 31
0.0
  0
LINE
  5
   1C0
  8
0
  6
CONTINUOUS
 62
     7
 10
-309.137023925781
 20
43.806037902832
 30
0.0
 11
-323.649087905884
 21
43.806037902832
 31
0.0
  0
LINE
  5
   1C1
  8
0
  6
CONTINUOUS
 62
     7
 10
-321.649087905884
 20
71.806037902832
 30
0.0
 11
-321.649087905884
 21
43.806037902832
 31
0.0
  0
LINE
  5
   1C2
  8
0
  6
CONTINUOUS
 62
     7
 10
-321.128143475932
 20
68.8516146256251
 30
0.0
 11
-321.649087905884
 21
71.806037902832
 31
0.0
  0
LINE
  5
   1C3
  8
0
  6
CONTINUOUS
 62
     7
 10
-321.649087905884
 20
71.806037902832
 30
0.0
 11
-322.170032335835
 21
68.8516146256251
 31
0.0
  0
LINE
  5
   1C4
  8
0
  6
CONTINUOUS
 62
     7
 10
-322.170032335835
 20
46.760461180039
 30
0.0
 11
-321.649087905884
 21
43.806037902832
 31
0.0
  0
LINE
  5
   1C5
  8
0
  6
CONTINUOUS
 62
     7
 10
-321.649087905884
 20
43.806037902832
 30
0.0
 11
-321.128143475932
 21
46.760461180039
 31
0.0
  0
ENDBLK
  5
   1C6
  8
0
  6
CONTINUOUS
 62
     7
  0
ENDSEC
  0
SECTION
  2
ENTITIES
  0
LINE
  5
   1C7
  8
0
  6
DASHDOT
 62
     7
 10
-543.691162109375
 20
-66.2884545966279
 30
0.0
 11
-543.691162109375
 21
-127.009111771886
 31
0.0
  0
LINE
  5
   1C8
  8
0
  6
CONTINUOUS
 62
     3
 10
-526.816162109375
 20
-69.0385348212888
 30
0.0
 11
-526.816162109375
 21
-120.306198120117
 31
0.0
  0
LINE
  5
   1C9
  8
0
  6
CONTINUOUS
 62
     3
 10
-526.816162109375
 20
-120.306198120117
 30
0.0
 11
-568.691162109375
 21
-120.306198120117
 31
0.0
  0
LINE
  5
   1CA
  8
0
  6
CONTINUOUS
 62
     3
 10
-568.691162109375
 20
-69.0385348212888
 30
0.0
 11
-568.691162109375
 21
-120.306198120117
 31
0.0
  0
LINE
  5
   1CB
  8
0
  6
CONTINUOUS
 62
     3
 10
-526.816162109375
 20
-69.0385348212888
 30
0.0
 11
-568.691162109375
 21
-69.0385348212888
 31
0.0
  0
CIRCLE
  5
   1CC
  8
0
  6
CONTINUOUS
 62
     7
 10
-560.537978621352
 20
-73.9843303682192
 30
0.0
 40
0.05
  0
LINE
  5
   1CD
  8
0
  6
DASHDOT
 62
     7
 10
-537.441162109375
 20
-78.9020733201572
 30
0.0
 11
-537.441162109375
 21
-112.7209037243
 31
0.0
  0
LINE
  5
   1CE
  8
0
  6
DASHDOT
 62
     7
 10
-563.691162109375
 20
-78.6054169131033
 30
0.0
 11
-563.691162109375
 21
-112.869231927827
 31
0.0
  0
LINE
  5
   1CF
  8
0
  6
DASHDOT
 62
     7
 10
-530.038961168616
 20
-82.9311981201172
 30
0.0
 11
-562.522837741017
 21
-82.9311981201172
 31
0.0
  0
LINE
  5
   1D0
  8
0
  6
DASHDOT
 62
     7
 10
-529.593976558035
 20
-107.931198120117
 30
0.0
 11
-562.967822351597
 21
-107.931198120117
 31
0.0
  0
CIRCLE
  5
   1D1
  8
0
  6
CONTINUOUS
 62
     7
 10
-563.691162109375
 20
-82.9311981201172
 30
0.0
 40
0.625
  0
CIRCLE
  5
   1D2
  8
0
  6
CONTINUOUS
 62
     7
 10
-537.441162109375
 20
-82.9311981201172
 30
0.0
 40
0.625
  0
CIRCLE
  5
   1D3
  8
0
  6
CONTINUOUS
 62
     7
 10
-563.691162109375
 20
-107.931198120117
 30
0.0
 40
0.625
  0
CIRCLE
  5
   1D4
  8
0
  6
CONTINUOUS
 62
     7
 10
-537.441162109375
 20
-107.931198120117
 30
0.0
 40
0.625
  0
LINE
  5
   1D5
  8
0
  6
DASHDOT
 62
     7
 10
-513.254539162555
 20
-95.9936981201172
 30
0.0
 11
-570.730650415152
 21
-95.9936981201172
 31
0.0
  0
INSERT
  5
   1D6
  8
0
  6
CONTINUOUS
 62
     7
  2
*UDIM542
 10
0.0
 20
0.0
 30
0.0
  0
INSERT
  5
   1D7
  8
0
  6
CONTINUOUS
 62
     7
  2
*UDIM543
 10
0.0
 20
0.0
 30
0.0
  0
INSERT
  5
   1D8
  8
0
  6
CONTINUOUS
 62
     7
  2
*UDIM544
 10
0.0
 20
0.0
 30
0.0
  0
INSERT
  5
   1D9
  8
0
  6
CONTINUOUS
 62
     7
  2
*UDIM545
 10
0.0
 20
0.0
 30
0.0
  0
INSERT
  5
   1DA
  8
0
  6
CONTINUOUS
 62
     7
  2
*UDIM546
 10
0.0
 20
0.0
 30
0.0
  0
TEXT
  5
   1DB
  8
0
  6
CONTINUOUS
 62
     7
 10
-544.575124981733
 20
-148.140041379131
 30
0.0
 40
3.00000002980232
  1
Y
 50
359.999999896069
 41
0.916666604744064
 72
     2
 11
-542.375125112863
 21
-148.14004138311
 31
0.0
  0
TEXT
  5
   1DC
  8
0
  6
CONTINUOUS
 62
     7
 10
-545.069795134397
 20
-66.9956608096729
 30
0.0
 40
3.00000002980232
  1
Y
 50
359.999999896069
 41
0.916666604744064
 72
     2
 11
-542.869795265527
 21
-66.9956608136525
 31
0.0
  0
TEXT
  5
   1DD
  8
0
  6
CONTINUOUS
 62
     7
 10
-588.551311495633
 20
-98.7234320918689
 30
0.0
 40
3.00000002980232
  1
X
 50
359.999999896069
 41
0.916666604744064
 72
     2
 11
-586.351311626764
 21
-98.7234320958485
 31
0.0
  0
TEXT
  5
   1DE
  8
0
  6
CONTINUOUS
 62
     7
 10
-509.940536501737
 20
-97.8421454707752
 30
0.0
 40
3.00000002980232
  1
X
 50
359.999999896069
 41
0.916666604744064
 72
     2
 11
-507.740536632867
 21
-97.8421454747548
 31
0.0
  0
LINE
  5
   1DF
  8
0
  6
CONTINUOUS
 62
     7
 10
-408.202362060547
 20
-13.1579456217149
 30
0.0
 11
-444.202362060547
 21
-13.1579456217149
 31
0.0
  0
LINE
  5
   1E0
  8
0
  6
CONTINUOUS
 62
     7
 10
-444.202362060547
 20
-15.807946660613
 30
0.0
 11
-444.202362060547
 21
5.58916332473896
 31
0.0
  0
LINE
  5
   1E1
  8
0
  6
CONTINUOUS
 62
     7
 10
-444.202362060547
 20
5.58914948631734
 30
0.0
 11
-444.202362060547
 21
71.6920471303603
 31
0.0
  0
LINE
  5
   1E2
  8
0
  6
CONTINUOUS
 62
     7
 10
-445.202362060547
 20
65.1068496816298
 30
0.0
 11
-445.202362060547
 21
65.1920318715712
 31
0.0
  0
LINE
  5
   1E3
  8
0
  6
CONTINUOUS
 62
     7
 10
-409.952363821024
 20
34.9420341048168
 30
0.0
 11
-409.952373504513
 21
39.0670459582392
 31
0.0
  0
LINE
  5
   1E4
  8
0
  6
CONTINUOUS
 62
     7
 10
-408.702391671715
 20
62.1920436463226
 30
0.0
 11
-408.34883027929
 21
62.3384898517358
 31
0.0
  0
LINE
  5
   1E5
  8
0
  6
CONTINUOUS
 62
     7
 10
-408.348823907733
 20
62.3384792886966
 30
0.0
 11
-408.202377690855
 21
62.6920330379215
 31
0.0
  0
LINE
  5
   1E6
  8
0
  6
CONTINUOUS
 62
     7
 10
-409.952370234842
 20
58.6920465878157
 30
0.0
 11
-409.952362605448
 21
62.1920465880958
 31
0.0
  0
LINE
  5
   1E7
  8
0
  6
CONTINUOUS
 62
     7
 10
-408.702377319336
 20
62.1920471303603
 30
0.0
 11
-409.952362060547
 21
62.1920471303603
 31
0.0
  0
LINE
  5
   1E8
  8
0
  6
CONTINUOUS
 62
     7
 10
-409.952369689941
 20
39.0670471303603
 30
0.0
 11
-409.952369689941
 21
58.6920471303603
 31
0.0
  0
LINE
  5
   1E9
  8
0
  6
CONTINUOUS
 62
     7
 10
-412.202362060547
 20
13.6920471303603
 30
0.0
 11
-412.202362060547
 21
33.9420471303603
 31
0.0
  0
LINE
  5
   1EA
  8
0
  6
CONTINUOUS
 62
     7
 10
-412.202347079442
 20
33.9420746689327
 30
0.0
 11
-412.068374922178
 21
34.4420746552389
 31
0.0
  0
LINE
  5
   1EB
  8
0
  6
CONTINUOUS
 62
     7
 10
-412.068357888432
 20
34.4420936827762
 30
0.0
 11
-411.702337704425
 21
34.8081214875976
 31
0.0
  0
LINE
  5
   1EC
  8
0
  6
CONTINUOUS
 62
     7
 10
-411.702389453047
 20
34.8080619476113
 30
0.0
 11
-411.202381850468
 21
34.9420341048168
 31
0.0
  0
LINE
  5
   1ED
  8
0
  6
CONTINUOUS
 62
     7
 10
-408.202362060547
 20
13.6920471303603
 30
0.0
 11
-412.202362060547
 21
13.6920471303603
 31
0.0
  0
LINE
  5
   1EE
  8
0
  6
CONTINUOUS
 62
     7
 10
-408.20238340412
 20
6.1920407543794
 30
0.0
 11
-408.70242153063
 21
6.69204073653608
 31
0.0
  0
LINE
  5
   1EF
  8
0
  6
CONTINUOUS
 62
     7
 10
-408.702409769773
 20
12.1920524334799
 30
0.0
 11
-408.202364014363
 21
12.6920524153258
 31
0.0
  0
LINE
  5
   1F0
  8
0
  6
CONTINUOUS
 62
     7
 10
-408.702416074325
 20
12.1920323577741
 30
0.0
 11
-440.086319577743
 21
12.1920323577741
 31
0.0
  0
LINE
  5
   1F1
  8
0
  6
CONTINUOUS
 62
     7
 10
-408.702408790588
 20
6.69204713036032
 30
0.0
 11
-440.086342811585
 21
6.69204713036032
 31
0.0
  0
LINE
  5
   1F2
  8
0
  6
CONTINUOUS
 62
     7
 10
-440.086321812304
 20
12.1920251794353
 30
0.0
 11
-441.952364320609
 21
12.6920328080166
 31
0.0
  0
LINE
  5
   1F3
  8
0
  6
CONTINUOUS
 62
     7
 10
-441.952348148867
 20
12.6920274167071
 30
0.0
 11
-443.702364342682
 21
13.1609452088353
 31
0.0
  0
LINE
  5
   1F4
  8
0
  6
CONTINUOUS
 62
     7
 10
-444.202361504869
 20
5.58916506702635
 30
0.0
 11
-440.086341802875
 21
6.69204743529641
 31
0.0
  0
LINE
  5
   1F5
  8
0
  6
CONTINUOUS
 62
     7
 10
-444.202355560045
 20
14.3391989274374
 30
0.0
 11
-443.702357017216
 21
14.473171084706
 31
0.0
  0
LINE
  5
   1F6
  8
0
  6
CONTINUOUS
 62
     7
 10
-442.202362537384
 20
2.44203950096578
 30
0.0
 11
-444.202362060547
 21
2.44203950096578
 31
0.0
  0
LINE
  5
   1F7
  8
0
  6
CONTINUOUS
 62
     7
 10
-442.202362537384
 20
-13.1579456217149
 30
0.0
 11
-442.202362537384
 21
2.44203950096578
 31
0.0
  0
LINE
  5
   1F8
  8
0
  6
CONTINUOUS
 62
     7
 10
-443.702362060547
 20
5.72312928368062
 30
0.0
 11
-443.702362060547
 21
27.9420395009658
 31
0.0
  0
LINE
  5
   1F9
  8
0
  6
CONTINUOUS
 62
     7
 10
-441.952362060547
 20
12.6920471303603
 30
0.0
 11
-441.952362060547
 21
25.1920471303603
 31
0.0
  0
LINE
  5
   1FA
  8
0
  6
CONTINUOUS
 62
     7
 10
-442.702363014221
 20
27.9420395009658
 30
0.0
 11
-444.202362537384
 21
27.9420395009658
 31
0.0
  0
LINE
  5
   1FB
  8
0
  6
CONTINUOUS
 62
     7
 10
-442.32735692958
 20
27.8415554264597
 30
0.0
 11
-442.702357863076
 21
27.9420345444029
 31
0.0
  0
LINE
  5
   1FC
  8
0
  6
CONTINUOUS
 62
     7
 10
-442.32735692958
 20
27.8415554264597
 30
0.0
 11
-442.702357863076
 21
27.9420345444029
 31
0.0
  0
LINE
  5
   1FD
  8
0
  6
CONTINUOUS
 62
     7
 10
-442.052841481789
 20
27.5670320417338
 30
0.0
 11
-442.327360443632
 21
27.8415529010814
 31
0.0
  0
LINE
  5
   1FE
  8
0
  6
CONTINUOUS
 62
     7
 10
-441.952369556632
 20
27.1920254443008
 30
0.0
 11
-442.052850109272
 21
27.5670254431095
 31
0.0
  0
LINE
  5
   1FF
  8
0
  6
CONTINUOUS
 62
     7
 10
-441.952353000641
 20
25.1920402758313
 30
0.0
 11
-441.952353000641
 21
27.1920326464367
 31
0.0
  0
LINE
  5
   200
  8
0
  6
CONTINUOUS
 62
     7
 10
-442.052839164371
 20
24.8170363272612
 30
0.0
 11
-442.005227934841
 21
24.9947249232038
 31
0.0
  0
LINE
  5
   201
  8
0
  6
CONTINUOUS
 62
     7
 10
-442.005228852
 20
24.994720080262
 30
0.0
 11
-441.952359533338
 21
25.1920391077647
 31
0.0
  0
LINE
  5
   202
  8
0
  6
CONTINUOUS
 62
     7
 10
-442.327362215038
 20
24.5425006209581
 30
0.0
 11
-442.052842789985
 21
24.817021480711
 31
0.0
  0
LINE
  5
   203
  8
0
  6
CONTINUOUS
 62
     7
 10
-442.702368486678
 20
24.4420291123455
 30
0.0
 11
-442.327368491855
 21
24.5425082225796
 31
0.0
  0
LINE
  5
   204
  8
0
  6
CONTINUOUS
 62
     7
 10
-442.702362537384
 20
24.4420395009658
 30
0.0
 11
-443.702362060547
 21
24.4420395009658
 31
0.0
  0
LINE
  5
   205
  8
0
  6
CONTINUOUS
 62
     7
 10
-444.202362060547
 20
-9.30796002219706
 30
0.0
 11
-445.202362060547
 21
-9.30796002219706
 31
0.0
  0
LINE
  5
   206
  8
0
  6
CONTINUOUS
 62
     7
 10
-444.202362060547
 20
65.1920318715712
 30
0.0
 11
-445.202362060547
 21
65.1920318715712
 31
0.0
  0
LINE
  5
   207
  8
0
  6
CONTINUOUS
 62
     7
 10
-444.202362060547
 20
60.2578582875869
 30
0.0
 11
-445.202362060547
 21
60.2578582875869
 31
0.0
  0
LINE
  5
   208
  8
0
  6
CONTINUOUS
 62
     7
 10
-440.552855387393
 20
6.56704146275394
 30
0.0
 11
-441.952373825179
 21
6.94204143373491
 31
0.0
  0
LINE
  5
   209
  8
0
  6
CONTINUOUS
 62
     7
 10
-441.952378749848
 20
6.94204620053277
 30
0.0
 11
-441.952378749848
 21
11.9420462005328
 31
0.0
  0
LINE
  5
   20A
  8
0
  6
CONTINUOUS
 62
     7
 10
-441.952378603581
 20
11.9420395134065
 30
0.0
 11
-440.552848248042
 21
12.3170395100578
 31
0.0
  0
LINE
  5
   20B
  8
0
  6
CONTINUOUS
 62
     7
 10
-444.202362060547
 20
-4.30796049903422
 30
0.0
 11
-445.202362060547
 21
-4.30796049903422
 31
0.0
  0
LINE
  5
   20C
  8
0
  6
CONTINUOUS
 62
     7
 10
-442.052837470659
 20
24.5523901984457
 30
0.0
 11
-441.95235740113
 21
24.9947272198322
 31
0.0
  0
LINE
  5
   20D
  8
0
  6
CONTINUOUS
 62
     7
 10
-441.952363014221
 20
24.9947280995986
 30
0.0
 11
-442.0052318573
 21
24.9947280995986
 31
0.0
  0
LINE
  5
   20E
  8
0
  6
CONTINUOUS
 62
     7
 10
-442.01935044866
 20
17.9420343484255
 30
0.0
 11
-441.952364369556
 21
17.9917627400054
 31
0.0
  0
LINE
  5
   20F
  8
0
  6
CONTINUOUS
 62
     7
 10
-442.019345994528
 20
17.9420167916257
 30
0.0
 11
-442.052840464596
 21
17.9668809865226
 31
0.0
  0
LINE
  5
   210
  8
0
  6
CONTINUOUS
 62
     7
 10
-441.952362537384
 20
22.9420471303603
 30
0.0
 11
-442.052843093872
 21
22.9420471303603
 31
0.0
  0
LINE
  5
   211
  8
0
  6
CONTINUOUS
 62
     7
 10
-442.052845827316
 20
19.9171538150493
 30
0.0
 11
-442.019351357247
 21
19.9420180099462
 31
0.0
  0
LINE
  5
   212
  8
0
  6
CONTINUOUS
 62
     7
 10
-441.952360437598
 20
19.892302474762
 30
0.0
 11
-442.019346516703
 21
19.9420308663419
 31
0.0
  0
LINE
  5
   213
  8
0
  6
CONTINUOUS
 62
     7
 10
-441.998259052567
 20
23.8030831962797
 30
0.0
 11
-442.052845922098
 21
24.1079690570507
 31
0.0
  0
LINE
  5
   214
  8
0
  6
CONTINUOUS
 62
     7
 10
-441.952362937523
 20
22.9420485550202
 30
0.0
 11
-441.998256605616
 21
23.8030867301904
 31
0.0
  0
LINE
  5
   215
  8
0
  6
CONTINUOUS
 62
     7
 10
-442.052845268958
 20
17.9668957438887
 30
0.0
 11
-442.310525202451
 21
18.0181500107431
 31
0.0
  0
LINE
  5
   216
  8
0
  6
CONTINUOUS
 62
     7
 10
-442.310523819367
 20
18.0181530288094
 30
0.0
 11
-442.327363323504
 21
18.029406385
 31
0.0
  0
LINE
  5
   217
  8
0
  6
CONTINUOUS
 62
     7
 10
-442.327370735062
 20
19.8546600039066
 30
0.0
 11
-442.310530277831
 21
19.8659133603294
 31
0.0
  0
LINE
  5
   218
  8
0
  6
CONTINUOUS
 62
     7
 10
-442.310526980706
 20
19.8659109644066
 30
0.0
 11
-442.052848000313
 21
19.9171652232847
 31
0.0
  0
LINE
  5
   219
  8
0
  6
CONTINUOUS
 62
     7
 10
-442.052843093872
 20
22.9420471303603
 30
0.0
 11
-442.327362537384
 21
22.9420471303603
 31
0.0
  0
LINE
  5
   21A
  8
0
  6
CONTINUOUS
 62
     7
 10
-442.327364780453
 20
18.0293994883937
 30
0.0
 11
-442.70236477175
 21
18.0965381447994
 31
0.0
  0
LINE
  5
   21B
  8
0
  6
CONTINUOUS
 62
     7
 10
-442.702365352038
 20
19.7875229685765
 30
0.0
 11
-442.327365360741
 21
19.8546616249822
 31
0.0
  0
LINE
  5
   21C
  8
0
  6
CONTINUOUS
 62
     7
 10
-442.327362537384
 20
22.9420471303603
 30
0.0
 11
-442.702362537384
 21
22.9420471303603
 31
0.0
  0
LINE
  5
   21D
  8
0
  6
CONTINUOUS
 62
     7
 10
-442.702362537384
 20
19.7875290029189
 30
0.0
 11
-443.702362060547
 21
19.7875290029189
 31
0.0
  0
LINE
  5
   21E
  8
0
  6
CONTINUOUS
 62
     7
 10
-442.702362537384
 20
22.9420471303603
 30
0.0
 11
-443.702362060547
 21
22.9420471303603
 31
0.0
  0
LINE
  5
   21F
  8
0
  6
CONTINUOUS
 62
     7
 10
-442.702362537384
 20
18.0965499990127
 30
0.0
 11
-443.702362060547
 21
18.0965499990127
 31
0.0
  0
LINE
  5
   220
  8
0
  6
CONTINUOUS
 62
     7
 10
-397.10236358583
 20
69.0420532338759
 30
0.0
 11
-444.202362060547
 21
69.0420532338759
 31
0.0
  0
LINE
  5
   221
  8
0
  6
CONTINUOUS
 62
     7
 10
-397.10236358583
 20
-13.1579456217149
 30
0.0
 11
-408.202362059951
 21
-13.1579456217149
 31
0.0
  0
LINE
  5
   222
  8
0
  6
CONTINUOUS
 62
     3
 10
-408.202362059951
 20
-13.1579456217149
 30
0.0
 11
-408.202362059951
 21
6.56704713036031
 31
0.0
  0
LINE
  5
   223
  8
0
  6
CONTINUOUS
 62
     3
 10
-408.202362059949
 20
12.3170395009658
 30
0.0
 11
-408.202362059949
 21
13.6920776479384
 31
0.0
  0
LINE
  5
   224
  8
0
  6
CONTINUOUS
 62
     3
 10
-408.202362060547
 20
62.6920707729626
 30
0.0
 11
-408.202362060547
 21
69.0420532338759
 31
0.0
  0
LINE
  5
   225
  8
0
  6
CONTINUOUS
 62
     3
 10
-393.452362059951
 20
34.4164810292861
 30
0.0
 11
-393.452362059951
 21
39.1918869130752
 31
0.0
  0
LINE
  5
   226
  8
0
  6
CONTINUOUS
 62
     3
 10
-393.452366236211
 20
5.69189890983033
 30
0.0
 11
-393.452389124394
 21
8.96725854048331
 31
0.0
  0
LINE
  5
   227
  8
0
  6
CONTINUOUS
 62
     7
 10
-397.10236358583
 20
-13.1579437143662
 30
0.0
 11
-397.10236358583
 21
-2.18294397322035
 31
0.0
  0
LINE
  5
   228
  8
0
  6
CONTINUOUS
 62
     3
 10
-397.102365115236
 20
12.3170471303603
 30
0.0
 11
-408.202363589357
 21
12.3170471303603
 31
0.0
  0
LINE
  5
   229
  8
0
  6
CONTINUOUS
 62
     3
 10
-397.102364770032
 20
6.56704713036031
 30
0.0
 11
-408.202363244153
 21
6.56704713036031
 31
0.0
  0
LINE
  5
   22A
  8
0
  6
CONTINUOUS
 62
     1
 10
-394.452362536788
 20
58.3170471303603
 30
0.0
 11
-397.10236358583
 21
58.3170471303603
 31
0.0
  0
LINE
  5
   22B
  8
0
  6
CONTINUOUS
 62
     1
 10
-395.702362059951
 20
-2.182944763408
 30
0.0
 11
-395.952362059951
 21
-2.182944763408
 31
0.0
  0
LINE
  5
   22C
  8
0
  6
CONTINUOUS
 62
     1
 10
-394.452362536788
 20
-2.18293113948532
 30
0.0
 11
-397.10236358583
 21
-2.18293113948532
 31
0.0
  0
LINE
  5
   22D
  8
0
  6
CONTINUOUS
 62
     2
 10
-393.451706869901
 20
0.567047132187803
 30
0.0
 11
-393.451706869901
 21
53.0670471321878
 31
0.0
  0
LINE
  5
   22E
  8
0
  6
CONTINUOUS
 62
     2
 10
-391.702366828918
 20
53.0670471303603
 30
0.0
 11
-394.452362536788
 21
53.0670471303603
 31
0.0
  0
LINE
  5
   22F
  8
0
  6
CONTINUOUS
 62
     2
 10
-391.702366828918
 20
0.567047131540313
 30
0.0
 11
-394.452362536788
 21
0.567047131540313
 31
0.0
  0
LINE
  5
   230
  8
0
  6
CONTINUOUS
 62
     7
 10
-409.952365875119
 20
34.9420341048168
 30
0.0
 11
-411.202381850468
 21
34.9420341048168
 31
0.0
  0
LINE
  5
   231
  8
0
  6
CONTINUOUS
 62
     7
 10
-394.452362536788
 20
53.0670471303603
 30
0.0
 11
-394.452362536788
 21
58.3170471303603
 31
0.0
  0
LINE
  5
   232
  8
0
  6
CONTINUOUS
 62
     7
 10
-394.452362536788
 20
-2.18294469528844
 30
0.0
 11
-394.452362536788
 21
0.567047131540313
 31
0.0
  0
LINE
  5
   233
  8
0
  6
CONTINUOUS
 62
     7
 10
-397.10236358583
 20
58.3170471303603
 30
0.0
 11
-397.10236358583
 21
69.0420532338759
 31
0.0
  0
LINE
  5
   234
  8
0
  6
CONTINUOUS
 62
     3
 10
-397.10236358583
 20
-2.18294397322035
 30
0.0
 11
-397.10236358583
 21
58.3170471303603
 31
0.0
  0
ARC
  5
   235
  8
0
  6
CONTINUOUS
 62
     7
 10
-378.614342155874
 20
15.7951063050743
 30
0.0
 40
0.499999897877905
 50
348.623601716676
 51
436.688817054576
  0
ARC
  5
   236
  8
0
  6
CONTINUOUS
 62
     7
 10
-379.212712884421
 20
12.8211970250254
 30
0.0
 40
0.50000037262337
 50
260.594020543651
 51
348.623601716676
  0
LINE
  5
   237
  8
0
  6
DASHDOT
 62
     7
 10
-371.214048318941
 20
12.7407793285435
 30
0.0
 11
-396.27239404793
 21
17.7826870985837
 31
0.0
  0
LINE
  5
   238
  8
0
  6
CONTINUOUS
 62
     7
 10
-378.49922242426
 20
16.2816728317296
 30
0.0
 11
-388.951802523427
 21
18.7547122821754
 31
0.0
  0
LINE
  5
   239
  8
0
  6
CONTINUOUS
 62
     7
 10
-378.722536390745
 20
12.7225702162611
 30
0.0
 11
-378.12416582649
 21
15.6964795293669
 31
0.0
  0
LINE
  5
   23A
  8
0
  6
CONTINUOUS
 62
     7
 10
-379.294427378961
 20
12.3279192617249
 30
0.0
 11
-388.951777459756
 21
13.9277186833745
 31
0.0
  0
ARC
  5
   23B
  8
0
  6
DASHDOT
 62
     7
 10
-415.701963116499
 20
21.6920471303603
 30
0.0
 40
38.0221347997541
 50
337.492314704898
 51
359.999999948034
  0
LINE
  5
   23C
  8
0
  6
DASHDOT
 62
     7
 10
-377.679828316745
 20
21.6920471303603
 30
0.0
 11
-377.679828316745
 21
24.567146947729
 31
0.0
  0
LINE
  5
   23D
  8
0
  6
CONTINUOUS
 62
     7
 10
-445.202362060547
 20
60.2578582875869
 30
0.0
 11
-445.202362060547
 21
65.1920318715712
 31
0.0
  0
LINE
  5
   23E
  8
0
  6
CONTINUOUS
 62
     7
 10
-445.202362060547
 20
-9.30796002219706
 30
0.0
 11
-445.202362060547
 21
-4.30796049903422
 31
0.0
  0
LINE
  5
   23F
  8
0
  6
CONTINUOUS
 62
   210
 10
-468.952373957814
 20
12.9420270923502
 30
0.0
 11
-466.952373957815
 21
12.9420347217447
 31
0.0
  0
LINE
  5
   240
  8
0
  6
CONTINUOUS
 62
   210
 10
-468.952375865163
 20
9.44202709231745
 30
0.0
 11
-466.952375865163
 21
9.44203472171198
 31
0.0
  0
LINE
  5
   241
  8
0
  6
CONTINUOUS
 62
     3
 10
-469.202377319336
 20
-14.0579605102539
 30
0.0
 11
-469.202377319336
 21
-1.55796051025391
 31
0.0
  0
LINE
  5
   242
  8
0
  6
CONTINUOUS
 62
     3
 10
-469.202384948731
 20
57.4420394897461
 30
0.0
 11
-469.202384948731
 21
69.9420394897461
 31
0.0
  0
LINE
  5
   243
  8
0
  6
CONTINUOUS
 62
     3
 10
-445.202362060547
 20
-13.157958984375
 30
0.0
 11
-463.702384948731
 21
-13.157958984375
 31
0.0
  0
LINE
  5
   244
  8
0
  6
CONTINUOUS
 62
   210
 10
-445.202362060547
 20
-14.5579605102539
 30
0.0
 11
-463.702384948731
 21
-14.5579605102539
 31
0.0
  0
LINE
  5
   245
  8
0
  6
CONTINUOUS
 62
   210
 10
-445.202362060547
 20
70.4420394897461
 30
0.0
 11
-463.702384948731
 21
70.4420394897461
 31
0.0
  0
LINE
  5
   246
  8
0
  6
CONTINUOUS
 62
     3
 10
-445.202362060547
 20
69.0420455932617
 30
0.0
 11
-463.702384948731
 21
69.0420455932617
 31
0.0
  0
LINE
  5
   247
  8
0
  6
CONTINUOUS
 62
   210
 10
-445.202362060547
 20
-14.5579605102539
 30
0.0
 11
-445.202362060547
 21
70.4420394897461
 31
0.0
  0
LINE
  5
   248
  8
0
  6
CONTINUOUS
 62
   210
 10
-466.952377344446
 20
7.94201633666707
 30
0.0
 11
-466.952377662342
 21
9.44203472170512
 31
0.0
  0
LINE
  5
   249
  8
0
  6
CONTINUOUS
 62
   210
 10
-463.702379480242
 20
-14.5579629194517
 30
0.0
 11
-463.702379279467
 21
-14.0579605102539
 31
0.0
  0
LINE
  5
   24A
  8
0
  6
CONTINUOUS
 62
     3
 10
-463.702384948731
 20
43.9420394897461
 30
0.0
 11
-466.952384948731
 21
43.9420394897461
 31
0.0
  0
LINE
  5
   24B
  8
0
  6
CONTINUOUS
 62
     3
 10
-463.702384948731
 20
43.9420394897461
 30
0.0
 11
-463.702384948731
 21
47.9420394897461
 31
0.0
  0
LINE
  5
   24C
  8
0
  6
CONTINUOUS
 62
     3
 10
-463.702377319336
 20
4.44200897216797
 30
0.0
 11
-466.952377319336
 21
4.44200897216797
 31
0.0
  0
LINE
  5
   24D
  8
0
  6
CONTINUOUS
 62
   210
 10
-466.952377319336
 20
6.19203948974609
 30
0.0
 11
-466.952377319336
 21
7.9420166015625
 31
0.0
  0
LINE
  5
   24E
  8
0
  6
CONTINUOUS
 62
     3
 10
-445.702339937661
 20
12.1920276417012
 30
0.0
 11
-466.952370455239
 21
12.1920352710953
 31
0.0
  0
LINE
  5
   24F
  8
0
  6
CONTINUOUS
 62
     3
 10
-445.702342288412
 20
12.1920266585864
 30
0.0
 11
-445.202357562597
 21
12.6920342699637
 31
0.0
  0
LINE
  5
   250
  8
0
  6
CONTINUOUS
 62
     3
 10
-445.702346801758
 20
6.69204711914063
 30
0.0
 11
-466.952377319336
 21
6.69204711914063
 31
0.0
  0
LINE
  5
   251
  8
0
  6
CONTINUOUS
 62
     3
 10
-445.202353215964
 20
6.19203256359413
 30
0.0
 11
-445.702337941779
 21
6.69204017497137
 31
0.0
  0
LINE
  5
   252
  8
0
  6
CONTINUOUS
 62
   210
 10
-469.952382755603
 20
-0.307962564300137
 30
0.0
 11
-469.952375126209
 21
6.19203743569986
 31
0.0
  0
LINE
  5
   253
  8
0
  6
CONTINUOUS
 62
   210
 10
-469.952377165055
 20
49.69203391455
 30
0.0
 11
-469.952384794449
 21
56.19203391455
 31
0.0
  0
LINE
  5
   254
  8
0
  6
CONTINUOUS
 62
     3
 10
-466.952377319336
 20
43.9420394897461
 30
0.0
 11
-466.952377319336
 21
45.9420394897461
 31
0.0
  0
LINE
  5
   255
  8
0
  6
CONTINUOUS
 62
   210
 10
-445.202354431152
 20
56.4420394897461
 30
0.0
 11
-445.202354431152
 21
56.9420394897461
 31
0.0
  0
LINE
  5
   256
  8
0
  6
CONTINUOUS
 62
   210
 10
-445.202354431152
 20
56.4420394897461
 30
0.0
 11
-445.202354431152
 21
56.9420394897461
 31
0.0
  0
LINE
  5
   257
  8
0
  6
CONTINUOUS
 62
   210
 10
-445.202354431152
 20
56.4420394897461
 30
0.0
 11
-445.202354431152
 21
56.9420394897461
 31
0.0
  0
LINE
  5
   258
  8
0
  6
CONTINUOUS
 62
   210
 10
-445.202354431152
 20
-1.05796051025391
 30
0.0
 11
-445.202354431152
 21
-0.557960510253906
 31
0.0
  0
LINE
  5
   259
  8
0
  6
CONTINUOUS
 62
     2
 10
-468.952377319336
 20
56.4420394897461
 30
0.0
 11
-469.702377319336
 21
56.4420394897461
 31
0.0
  0
LINE
  5
   25A
  8
0
  6
CONTINUOUS
 62
     2
 10
-468.952377319336
 20
-0.557960510253906
 30
0.0
 11
-469.702377319336
 21
-0.557960510253906
 31
0.0
  0
LINE
  5
   25B
  8
0
  6
CONTINUOUS
 62
     2
 10
-468.952377319336
 20
56.1920394897461
 30
0.0
 11
-468.952377319336
 21
56.4420394897461
 31
0.0
  0
LINE
  5
   25C
  8
0
  6
CONTINUOUS
 62
     2
 10
-468.952377319336
 20
6.19209289550781
 30
0.0
 11
-468.952377319336
 21
49.6920394897461
 31
0.0
  0
LINE
  5
   25D
  8
0
  6
CONTINUOUS
 62
     2
 10
-468.952377319336
 20
-0.557960510253906
 30
0.0
 11
-468.952377319336
 21
-0.30792236328125
 31
0.0
  0
LINE
  5
   25E
  8
0
  6
CONTINUOUS
 62
     2
 10
-469.702377319336
 20
-0.557960510253906
 30
0.0
 11
-469.702377319336
 21
-0.307968139648438
 31
0.0
  0
LINE
  5
   25F
  8
0
  6
CONTINUOUS
 62
     2
 10
-469.702377319336
 20
6.19203186035156
 30
0.0
 11
-469.702377319336
 21
49.6920013427734
 31
0.0
  0
LINE
  5
   260
  8
0
  6
CONTINUOUS
 62
     2
 10
-469.702377319336
 20
56.1920013427734
 30
0.0
 11
-469.702377319336
 21
56.4420394897461
 31
0.0
  0
LINE
  5
   261
  8
0
  6
CONTINUOUS
 62
   130
 10
-469.702257288032
 20
-14.3079863324154
 30
0.0
 11
-469.702287805609
 21
-1.30798633241536
 31
0.0
  0
LINE
  5
   262
  8
0
  6
CONTINUOUS
 62
   130
 10
-465.702281892482
 20
-1.5579605137948
 30
0.0
 11
-465.702289521877
 21
-0.807968143189328
 31
0.0
  0
LINE
  5
   263
  8
0
  6
CONTINUOUS
 62
   130
 10
-465.702262878418
 20
-14.8079681396484
 30
0.0
 11
-465.702262878418
 21
-14.0579452514648
 31
0.0
  0
LINE
  5
   264
  8
0
  6
CONTINUOUS
 62
     3
 10
-469.702377319336
 20
57.1920394897461
 30
0.0
 11
-469.702377319336
 21
70.1920394897461
 31
0.0
  0
LINE
  5
   265
  8
0
  6
CONTINUOUS
 62
     3
 10
-465.702369689941
 20
69.9420394897461
 30
0.0
 11
-465.702369689941
 21
70.6920394897461
 31
0.0
  0
LINE
  5
   266
  8
0
  6
CONTINUOUS
 62
     3
 10
-465.702369689941
 20
56.6920394897461
 30
0.0
 11
-465.702369689941
 21
57.4420547485352
 31
0.0
  0
LINE
  5
   267
  8
0
  6
CONTINUOUS
 62
     3
 10
-451.952362060547
 20
-19.5579681396484
 30
0.0
 11
-454.452362060547
 21
-19.5579681396484
 31
0.0
  0
LINE
  5
   268
  8
0
  6
CONTINUOUS
 62
     3
 10
-451.952362060547
 20
-29.5579676628113
 30
0.0
 11
-454.452362060547
 21
-29.5579676628113
 31
0.0
  0
LINE
  5
   269
  8
0
  6
CONTINUOUS
 62
     3
 10
-451.952362060547
 20
-29.5579605102539
 30
0.0
 11
-451.952362060547
 21
-14.5579452514648
 31
0.0
  0
LINE
  5
   26A
  8
0
  6
CONTINUOUS
 62
     3
 10
-454.452362060547
 20
-29.5579676628113
 30
0.0
 11
-454.452362060547
 21
-14.5579829216003
 31
0.0
  0
LINE
  5
   26B
  8
0
  6
CONTINUOUS
 62
   210
 10
-463.702377319336
 20
-1.55796051025391
 30
0.0
 11
-464.202362060547
 21
-1.55796051025391
 31
0.0
  0
LINE
  5
   26C
  8
0
  6
CONTINUOUS
 62
   210
 10
-464.202362060547
 20
-1.55796051025391
 30
0.0
 11
-465.702281892482
 21
-1.55796051025391
 31
0.0
  0
LINE
  5
   26D
  8
0
  6
CONTINUOUS
 62
   210
 10
-463.702377319336
 20
-14.0579605102539
 30
0.0
 11
-465.702262878418
 21
-14.0579605102539
 31
0.0
  0
LINE
  5
   26E
  8
0
  6
CONTINUOUS
 62
   210
 10
-464.202362060547
 20
57.4420394897461
 30
0.0
 11
-465.702369689941
 21
57.4420394897461
 31
0.0
  0
LINE
  5
   26F
  8
0
  6
CONTINUOUS
 62
   210
 10
-463.702384948731
 20
57.4420394897461
 30
0.0
 11
-464.202362060547
 21
57.4420394897461
 31
0.0
  0
LINE
  5
   270
  8
0
  6
CONTINUOUS
 62
   210
 10
-463.702384948731
 20
69.9420394897461
 30
0.0
 11
-465.702369689941
 21
69.9420394897461
 31
0.0
  0
LINE
  5
   271
  8
0
  6
CONTINUOUS
 62
   210
 10
-463.702384948731
 20
-0.307960510253906
 30
0.0
 11
-469.952384948731
 21
-0.307960510253906
 31
0.0
  0
LINE
  5
   272
  8
0
  6
CONTINUOUS
 62
   210
 10
-466.952377319336
 20
6.19203948974609
 30
0.0
 11
-469.952377319336
 21
6.19203948974609
 31
0.0
  0
LINE
  5
   273
  8
0
  6
CONTINUOUS
 62
   210
 10
-463.702384948731
 20
56.1920394897461
 30
0.0
 11
-469.952384948731
 21
56.1920394897461
 31
0.0
  0
LINE
  5
   274
  8
0
  6
CONTINUOUS
 62
   210
 10
-463.702377319336
 20
49.6920394897461
 30
0.0
 11
-469.952377319336
 21
49.6920394897461
 31
0.0
  0
LINE
  5
   275
  8
0
  6
CONTINUOUS
 62
   210
 10
-463.702453613281
 20
47.9420394897461
 30
0.0
 11
-468.952377319336
 21
47.9420394897461
 31
0.0
  0
LINE
  5
   276
  8
0
  6
CONTINUOUS
 62
     3
 10
-463.702415466309
 20
45.9420394897461
 30
0.0
 11
-466.952377319336
 21
45.9420394897461
 31
0.0
  0
LINE
  5
   277
  8
0
  6
CONTINUOUS
 62
   210
 10
-466.952377319336
 20
43.9420394897461
 30
0.0
 11
-468.952377319336
 21
43.9420394897461
 31
0.0
  0
LINE
  5
   278
  8
0
  6
CONTINUOUS
 62
   130
 10
-469.202263209048
 20
-14.807976159797
 30
0.0
 11
-469.702263191905
 21
-14.3079838054616
 31
0.0
  0
LINE
  5
   279
  8
0
  6
CONTINUOUS
 62
   130
 10
-469.702313056536
 20
-1.30798462329506
 30
0.0
 11
-469.202320702227
 21
-0.807977011831841
 31
0.0
  0
LINE
  5
   27A
  8
0
  6
CONTINUOUS
 62
   130
 10
-469.202261502221
 20
-14.8079801283697
 30
0.0
 11
-465.702261502221
 21
-14.8079724989756
 31
0.0
  0
LINE
  5
   27B
  8
0
  6
CONTINUOUS
 62
   130
 10
-469.202299649042
 20
-0.807980128007586
 30
0.0
 11
-465.702292019648
 21
-0.807972498615978
 31
0.0
  0
LINE
  5
   27C
  8
0
  6
CONTINUOUS
 62
     3
 10
-469.702385605987
 20
70.1920574351966
 30
0.0
 11
-469.202385623102
 21
70.6920574180823
 31
0.0
  0
LINE
  5
   27D
  8
0
  6
CONTINUOUS
 62
     3
 10
-469.202407282654
 20
56.6920706045474
 30
0.0
 11
-469.70240726554
 21
57.1920705874331
 31
0.0
  0
LINE
  5
   27E
  8
0
  6
CONTINUOUS
 62
     3
 10
-465.702369689941
 20
70.6920394897461
 30
0.0
 11
-469.202377319336
 21
70.6920394897461
 31
0.0
  0
LINE
  5
   27F
  8
0
  6
CONTINUOUS
 62
     3
 10
-465.702369689941
 20
56.6920394897461
 30
0.0
 11
-469.202377319336
 21
56.6920394897461
 31
0.0
  0
LINE
  5
   280
  8
0
  6
CONTINUOUS
 62
     7
 10
-451.952362060547
 20
70.4420395121855
 30
0.0
 11
-451.952362060547
 21
85.4420547709745
 31
0.0
  0
LINE
  5
   281
  8
0
  6
CONTINUOUS
 62
     7
 10
-454.452362060547
 20
70.442077182321
 30
0.0
 11
-454.452362060547
 21
85.4420619235319
 31
0.0
  0
LINE
  5
   282
  8
0
  6
CONTINUOUS
 62
     7
 10
-451.952362060547
 20
85.4420619235319
 30
0.0
 11
-454.452362060547
 21
85.4420619235319
 31
0.0
  0
LINE
  5
   283
  8
0
  6
CONTINUOUS
 62
     7
 10
-451.952362060547
 20
75.4420624003691
 30
0.0
 11
-454.452362060547
 21
75.4420624003691
 31
0.0
  0
LINE
  5
   284
  8
0
  6
DASHDOT
 62
     7
 10
-447.200529951472
 20
80.4420619235319
 30
0.0
 11
-458.355589676431
 21
80.4420619235319
 31
0.0
  0
LINE
  5
   285
  8
0
  6
DASHDOT
 62
     7
 10
-457.329837058044
 20
52.9420471303603
 30
0.0
 11
-477.703180632159
 21
52.9420471303603
 31
0.0
  0
LINE
  5
   286
  8
0
  6
DASHDOT
 62
     7
 10
-447.200529951472
 20
-24.5579676628113
 30
0.0
 11
-458.355589676431
 21
-24.5579676628113
 31
0.0
  0
LINE
  5
   287
  8
0
  6
DASHDOT
 62
     7
 10
-457.329837058044
 20
2.94204713036031
 30
0.0
 11
-478.030008837776
 21
2.94204713036031
 31
0.0
  0
LINE
  5
   288
  8
0
  6
CONTINUOUS
 62
     3
 10
-465.702369689941
 20
69.9420394897461
 30
0.0
 11
-469.202384948731
 21
69.9420394897461
 31
0.0
  0
LINE
  5
   289
  8
0
  6
CONTINUOUS
 62
     3
 10
-465.702369689941
 20
57.4420394897461
 30
0.0
 11
-469.202384948731
 21
57.4420394897461
 31
0.0
  0
LINE
  5
   28A
  8
0
  6
CONTINUOUS
 62
   210
 10
-463.702384948731
 20
69.9420394897461
 30
0.0
 11
-463.702384948731
 21
70.4420394897461
 31
0.0
  0
LINE
  5
   28B
  8
0
  6
CONTINUOUS
 62
     3
 10
-463.702384948731
 20
57.4420394897461
 30
0.0
 11
-463.702384948731
 21
69.9420394897461
 31
0.0
  0
LINE
  5
   28C
  8
0
  6
CONTINUOUS
 62
   210
 10
-463.702384948731
 20
56.1920394897461
 30
0.0
 11
-463.702384948731
 21
57.4420394897461
 31
0.0
  0
LINE
  5
   28D
  8
0
  6
CONTINUOUS
 62
     3
 10
-463.702384948731
 20
49.6920394897461
 30
0.0
 11
-463.702384948731
 21
56.1920394897461
 31
0.0
  0
LINE
  5
   28E
  8
0
  6
CONTINUOUS
 62
   210
 10
-463.702384948731
 20
47.9420394897461
 30
0.0
 11
-463.702384948731
 21
49.6920394897461
 31
0.0
  0
LINE
  5
   28F
  8
0
  6
CONTINUOUS
 62
   210
 10
-466.952378404088
 20
12.9420347217278
 30
0.0
 11
-466.95238497384
 21
43.9420315954561
 31
0.0
  0
LINE
  5
   290
  8
0
  6
CONTINUOUS
 62
     3
 10
-466.952377662342
 20
9.44203472170512
 30
0.0
 11
-466.952378404088
 21
12.9420347217278
 31
0.0
  0
LINE
  5
   291
  8
0
  6
CONTINUOUS
 62
     3
 10
-463.702373758177
 20
-0.307960510253906
 30
0.0
 11
-463.702371850848
 21
4.44197604539205
 31
0.0
  0
LINE
  5
   292
  8
0
  6
CONTINUOUS
 62
   210
 10
-463.702374260113
 20
-1.55796051025391
 30
0.0
 11
-463.702373758177
 21
-0.307960510253906
 31
0.0
  0
LINE
  5
   293
  8
0
  6
CONTINUOUS
 62
     3
 10
-463.702379279467
 20
-14.0579605102539
 30
0.0
 11
-463.702374260113
 21
-1.55796051025391
 31
0.0
  0
LINE
  5
   294
  8
0
  6
CONTINUOUS
 62
     3
 10
-465.702262878418
 20
-14.0579605102539
 30
0.0
 11
-469.202377319336
 21
-14.0579605102539
 31
0.0
  0
LINE
  5
   295
  8
0
  6
CONTINUOUS
 62
     3
 10
-465.702281892482
 20
-1.55796051025391
 30
0.0
 11
-469.202377319336
 21
-1.55796051025391
 31
0.0
  0
LINE
  5
   296
  8
0
  6
DASHDOT
 62
     7
 10
-469.952384948731
 20
56.1920394897461
 30
0.0
 11
-469.952384948731
 21
86.7811826517542
 31
0.0
  0
LINE
  5
   297
  8
0
  6
CONTINUOUS
 62
     7
 10
-469.952377319336
 20
6.19203948974609
 30
0.0
 11
-469.952377319336
 21
49.6920394897461
 31
0.0
  0
LINE
  5
   298
  8
0
  6
DASHDOT
 62
     7
 10
-469.952384948731
 20
-32.0244500030197
 30
0.0
 11
-469.952384948731
 21
-0.307960510253913
 31
0.0
  0
LINE
  5
   299
  8
0
  6
DASHDOT
 62
     7
 10
-471.452384948731
 20
-32.5511096232108
 30
0.0
 11
-471.452384948731
 21
87.3078422719452
 31
0.0
  0
LINE
  5
   29A
  8
0
  6
CONTINUOUS
 62
     3
 10
-474.304085134763
 20
-33.604428863593
 30
0.0
 11
-466.843073848722
 21
-30.8833541592724
 31
0.0
  0
LINE
  5
   29B
  8
0
  6
CONTINUOUS
 62
     3
 10
-467.457510072278
 20
83.4017834221947
 30
0.0
 11
-474.523526643176
 21
88.9317094342011
 31
0.0
  0
LINE
  5
   29C
  8
0
  6
CONTINUOUS
 62
     1
 10
-391.702366828918
 20
-0.68617057800293
 30
0.0
 11
-391.702366828918
 21
0.31382942199707
 31
0.0
  0
LINE
  5
   29D
  8
0
  6
CONTINUOUS
 62
     1
 10
-390.702366828918
 20
-0.68617057800293
 30
0.0
 11
-391.702366828918
 21
-0.68617057800293
 31
0.0
  0
LINE
  5
   29E
  8
0
  6
CONTINUOUS
 62
     1
 10
-391.702366828918
 20
53.3138275146484
 30
0.0
 11
-391.702366828918
 21
54.3138275146484
 31
0.0
  0
LINE
  5
   29F
  8
0
  6
CONTINUOUS
 62
     1
 10
-390.702366828918
 20
54.3138275146484
 30
0.0
 11
-391.702366828918
 21
54.3138275146484
 31
0.0
  0
LINE
  5
   2A0
  8
0
  6
CONTINUOUS
 62
     1
 10
-391.702366828918
 20
0.31382942199707
 30
0.0
 11
-391.702366828918
 21
53.3138294219971
 31
0.0
  0
LINE
  5
   2A1
  8
0
  6
CONTINUOUS
 62
     1
 10
-393.952366739512
 20
61.1025009155273
 30
0.0
 11
-393.952366739512
 21
63.5251541137695
 31
0.0
  0
LINE
  5
   2A2
  8
0
  6
CONTINUOUS
 62
     1
 10
-393.952366739512
 20
-9.89749526977539
 30
0.0
 11
-393.952366739512
 21
-7.47484588623047
 31
0.0
  0
LINE
  5
   2A3
  8
0
  6
CONTINUOUS
 62
     1
 10
-390.702366828918
 20
-13.9361705780029
 30
0.0
 11
-390.702366828918
 21
67.5638294219971
 31
0.0
  0
LINE
  5
   2A4
  8
0
  6
CONTINUOUS
 62
     1
 10
-388.952366828918
 20
-13.9361705780029
 30
0.0
 11
-390.702366828918
 21
-13.9361705780029
 31
0.0
  0
LINE
  5
   2A5
  8
0
  6
CONTINUOUS
 62
     1
 10
-388.952366828918
 20
-13.9361724853516
 30
0.0
 11
-388.952366828918
 21
67.5638275146484
 31
0.0
  0
LINE
  5
   2A6
  8
0
  6
CONTINUOUS
 62
     1
 10
-388.952366828918
 20
67.5638275146484
 30
0.0
 11
-389.452366828918
 21
67.5638275146484
 31
0.0
  0
LINE
  5
   2A7
  8
0
  6
CONTINUOUS
 62
     1
 10
-389.952366828919
 20
67.5638275146484
 30
0.0
 11
-390.702366828918
 21
67.5638275146484
 31
0.0
  0
LINE
  5
   2A8
  8
0
  6
CONTINUOUS
 62
     1
 10
-390.702366828918
 20
60.8138275146484
 30
0.0
 11
-393.452368337826
 21
60.8138275146484
 31
0.0
  0
LINE
  5
   2A9
  8
0
  6
CONTINUOUS
 62
     1
 10
-390.702366828918
 20
63.8138275146484
 30
0.0
 11
-393.452365101248
 21
63.8138275146484
 31
0.0
  0
LINE
  5
   2AA
  8
0
  6
CONTINUOUS
 62
     1
 10
-393.452366746362
 20
60.8138275146484
 30
0.0
 11
-393.452366746362
 21
60.9280090332031
 31
0.0
  0
LINE
  5
   2AB
  8
0
  6
CONTINUOUS
 62
     1
 10
-393.4523663485
 20
60.8138263661177
 30
0.0
 11
-393.952366364964
 21
61.1024997706159
 31
0.0
  0
LINE
  5
   2AC
  8
0
  6
CONTINUOUS
 62
     1
 10
-393.452366746362
 20
60.9280090332031
 30
0.0
 11
-393.452366746362
 21
61.2531661987305
 31
0.0
  0
LINE
  5
   2AD
  8
0
  6
CONTINUOUS
 62
     1
 10
-393.452366746362
 20
61.2531661987305
 30
0.0
 11
-393.452366746362
 21
61.7398071289063
 31
0.0
  0
LINE
  5
   2AE
  8
0
  6
CONTINUOUS
 62
     1
 10
-393.452366746362
 20
61.7398071289063
 30
0.0
 11
-393.452366746362
 21
62.3138275146484
 31
0.0
  0
LINE
  5
   2AF
  8
0
  6
CONTINUOUS
 62
     1
 10
-393.452366746362
 20
62.3138275146484
 30
0.0
 11
-393.452366746362
 21
62.8878555297852
 31
0.0
  0
LINE
  5
   2B0
  8
0
  6
CONTINUOUS
 62
     1
 10
-393.452366746362
 20
62.8878555297852
 30
0.0
 11
-393.452366746362
 21
63.3744888305664
 31
0.0
  0
LINE
  5
   2B1
  8
0
  6
CONTINUOUS
 62
     1
 10
-393.452366746362
 20
63.3744888305664
 30
0.0
 11
-393.452366746362
 21
63.6996459960938
 31
0.0
  0
LINE
  5
   2B2
  8
0
  6
CONTINUOUS
 62
     1
 10
-393.452366746362
 20
63.6996459960938
 30
0.0
 11
-393.452366746362
 21
63.8138275146484
 31
0.0
  0
LINE
  5
   2B3
  8
0
  6
CONTINUOUS
 62
     1
 10
-393.952367174101
 20
63.5251529229005
 30
0.0
 11
-393.452367157637
 21
63.8138263273987
 31
0.0
  0
LINE
  5
   2B4
  8
0
  6
CONTINUOUS
 62
     1
 10
-390.702366828918
 20
-7.18617057800293
 30
0.0
 11
-393.452365743806
 21
-7.18617057800293
 31
0.0
  0
LINE
  5
   2B5
  8
0
  6
CONTINUOUS
 62
     1
 10
-390.702366828918
 20
-10.1861705780029
 30
0.0
 11
-393.452367585587
 21
-10.1861705780029
 31
0.0
  0
LINE
  5
   2B6
  8
0
  6
CONTINUOUS
 62
     1
 10
-393.952367000586
 20
-7.47484658635633
 30
0.0
 11
-393.452366984122
 21
-7.18617129409979
 31
0.0
  0
LINE
  5
   2B7
  8
0
  6
CONTINUOUS
 62
     1
 10
-393.452366729704
 20
-7.30035209655762
 30
0.0
 11
-393.452366729704
 21
-7.18617057800294
 31
0.0
  0
LINE
  5
   2B8
  8
0
  6
CONTINUOUS
 62
     1
 10
-393.452366729716
 20
-7.6255111694336
 30
0.0
 11
-393.452366729716
 21
-7.30035209655762
 31
0.0
  0
LINE
  5
   2B9
  8
0
  6
CONTINUOUS
 62
     1
 10
-393.452366729702
 20
-8.11214447021485
 30
0.0
 11
-393.452366729702
 21
-7.6255111694336
 31
0.0
  0
LINE
  5
   2BA
  8
0
  6
CONTINUOUS
 62
     1
 10
-393.452366729737
 20
-8.68617057800294
 30
0.0
 11
-393.452366729737
 21
-8.11214447021485
 31
0.0
  0
LINE
  5
   2BB
  8
0
  6
CONTINUOUS
 62
     1
 10
-393.452366729675
 20
-9.26019477844239
 30
0.0
 11
-393.452366729675
 21
-8.68617057800294
 31
0.0
  0
LINE
  5
   2BC
  8
0
  6
CONTINUOUS
 62
     1
 10
-393.452366729702
 20
-9.74682998657227
 30
0.0
 11
-393.452366729702
 21
-9.26019477844239
 31
0.0
  0
LINE
  5
   2BD
  8
0
  6
CONTINUOUS
 62
     1
 10
-393.452366729715
 20
-10.0719890594482
 30
0.0
 11
-393.452366729715
 21
-9.74682998657227
 31
0.0
  0
LINE
  5
   2BE
  8
0
  6
CONTINUOUS
 62
     1
 10
-393.452366522542
 20
-10.1861711917525
 30
0.0
 11
-393.952366539006
 21
-9.89749589949592
 31
0.0
  0
LINE
  5
   2BF
  8
0
  6
CONTINUOUS
 62
     1
 10
-393.452366729704
 20
-10.1861705780029
 30
0.0
 11
-393.452366729704
 21
-10.0719890594482
 31
0.0
  0
LINE
  5
   2C0
  8
0
  6
CONTINUOUS
 62
     1
 10
-389.452366828918
 20
67.5638275146484
 30
0.0
 11
-389.952366828919
 21
67.5638275146484
 31
0.0
  0
LINE
  5
   2C1
  8
0
  6
CONTINUOUS
 62
     7
 10
-391.702366828918
 20
-28.0215650004066
 30
0.0
 11
-391.702366828918
 21
-10.1861705780029
 31
0.0
  0
LINE
  5
   2C2
  8
0
  6
CONTINUOUS
 62
     7
 10
-390.702366828918
 20
-28.384202363044
 30
0.0
 11
-390.702366828918
 21
-13.9361705780029
 31
0.0
  0
LINE
  5
   2C3
  8
0
  6
CONTINUOUS
 62
     7
 10
-391.702366828918
 20
54.3138275146484
 30
0.0
 11
-391.702366828918
 21
60.8138275146484
 31
0.0
  0
LINE
  5
   2C4
  8
0
  6
CONTINUOUS
 62
     3
 10
-387.452887291579
 20
85.6984856138226
 30
0.0
 11
-394.52873602082
 21
87.6970077739901
 31
0.0
  0
LINE
  5
   2C5
  8
0
  6
CONTINUOUS
 62
     3
 10
-387.587922572671
 20
-29.5136162142106
 30
0.0
 11
-394.960848920316
 21
-26.8399176485811
 31
0.0
  0
LINE
  5
   2C6
  8
0
  6
CONTINUOUS
 62
     7
 10
-390.702366828918
 20
64.0638275146484
 30
0.0
 11
-391.702366828918
 21
64.0638275146484
 31
0.0
  0
LINE
  5
   2C7
  8
0
  6
CONTINUOUS
 62
     7
 10
-390.702366828918
 20
60.5638275146484
 30
0.0
 11
-391.702366828918
 21
60.5638275146484
 31
0.0
  0
LINE
  5
   2C8
  8
0
  6
CONTINUOUS
 62
     7
 10
-390.702366828918
 20
54.8138275146484
 30
0.0
 11
-391.702366828918
 21
54.8138275146484
 31
0.0
  0
LINE
  5
   2C9
  8
0
  6
CONTINUOUS
 62
     7
 10
-390.702366828918
 20
-1.18617057800293
 30
0.0
 11
-391.702366828918
 21
-1.18617057800293
 31
0.0
  0
LINE
  5
   2CA
  8
0
  6
CONTINUOUS
 62
     7
 10
-390.702366828918
 20
-6.93617057800293
 30
0.0
 11
-391.702366828918
 21
-6.93617057800293
 31
0.0
  0
LINE
  5
   2CB
  8
0
  6
CONTINUOUS
 62
     7
 10
-390.702366828918
 20
-10.4361705780029
 30
0.0
 11
-391.702366828918
 21
-10.4361705780029
 31
0.0
  0
LINE
  5
   2CC
  8
0
  6
CONTINUOUS
 62
     7
 10
-391.702366828918
 20
-7.18617057800293
 30
0.0
 11
-391.702366828918
 21
-0.68617057800293
 31
0.0
  0
LINE
  5
   2CD
  8
0
  6
CONTINUOUS
 62
     7
 10
-391.702366828918
 20
63.8138275146484
 30
0.0
 11
-391.702366828918
 21
86.8987202923078
 31
0.0
  0
LINE
  5
   2CE
  8
0
  6
CONTINUOUS
 62
     7
 10
-390.702366828918
 20
67.563829421997
 30
0.0
 11
-390.702366828918
 21
86.6162775442162
 31
0.0
  0
INSERT
  5
   2CF
  8
0
  6
CONTINUOUS
 62
     7
  2
*HATCH319
 10
-393.702392578125
 20
-28.1764831542969
 30
0.0
 41
0.5
 42
0.5
 50
89.9999999480344
 43
0.5
  0
INSERT
  5
   2D0
  8
0
  6
CONTINUOUS
 62
     7
  2
*HATCH320
 10
-393.702392578125
 20
-28.1764831542969
 30
0.0
 41
0.5
 42
0.5
 50
89.9999999480344
 43
0.5
  0
INSERT
  5
   2D1
  8
0
  6
CONTINUOUS
 62
     7
  2
*HATCH321
 10
-393.702392578125
 20
-28.1764831542969
 30
0.0
 41
0.5
 42
0.5
 50
89.9999999480344
 43
0.5
  0
INSERT
  5
   2D2
  8
0
  6
CONTINUOUS
 62
     7
  2
*HATCH322
 10
-393.702392578125
 20
-28.1764831542969
 30
0.0
 41
0.5
 42
0.5
 50
89.9999999480344
 43
0.5
  0
LINE
  5
   2D3
  8
0
  6
CONTINUOUS
 62
     7
 10
-394.952362536788
 20
71.6920471303603
 30
0.0
 11
-444.202362060547
 21
71.6920471303603
 31
0.0
  0
LINE
  5
   2D4
  8
0
  6
CONTINUOUS
 62
     7
 10
-394.952362536788
 20
-15.807946660613
 30
0.0
 11
-444.202362060547
 21
-15.807946660613
 31
0.0
  0
LINE
  5
   2D5
  8
0
  6
CONTINUOUS
 62
     7
 10
-394.452362536788
 20
-15.307946660613
 30
0.0
 11
-394.452362536788
 21
-2.68293113948532
 31
0.0
  0
LINE
  5
   2D6
  8
0
  6
CONTINUOUS
 62
     7
 10
-394.452362536788
 20
58.8170471303603
 30
0.0
 11
-394.452362536788
 21
71.1920471303603
 31
0.0
  0
LINE
  5
   2D7
  8
0
  6
CONTINUOUS
 62
     7
 10
-394.952362536788
 20
58.3170471303603
 30
0.0
 11
-394.952362536788
 21
58.8170471303603
 31
0.0
  0
LINE
  5
   2D8
  8
0
  6
CONTINUOUS
 62
     7
 10
-394.452362536788
 20
58.8170471303603
 30
0.0
 11
-394.952362536788
 21
58.8170471303603
 31
0.0
  0
LINE
  5
   2D9
  8
0
  6
CONTINUOUS
 62
     7
 10
-394.452362536788
 20
-2.68293113948532
 30
0.0
 11
-394.952362536788
 21
-2.68293113948532
 31
0.0
  0
LINE
  5
   2DA
  8
0
  6
CONTINUOUS
 62
     7
 10
-394.952362536788
 20
-2.68293113948532
 30
0.0
 11
-394.952362536788
 21
-2.18293113948532
 31
0.0
  0
ARC
  5
   2DB
  8
0
  6
CONTINUOUS
 62
     7
 10
-394.952362536788
 20
-15.307946660613
 30
0.0
 40
0.5
 50
269.999999948034
 51
359.999999948034
  0
ARC
  5
   2DC
  8
0
  6
CONTINUOUS
 62
     7
 10
-394.952362536788
 20
71.1920471303603
 30
0.0
 40
0.5
 50
359.999999948034
 51
449.999999948034
  0
LINE
  5
   2DD
  8
0
  6
DASHDOT
 62
     7
 10
-366.130990283693
 20
26.8170471303603
 30
0.0
 11
-480.202034340408
 21
26.8170471303603
 31
0.0
  0
LINE
  5
   2DE
  8
0
  6
CONTINUOUS
 62
     7
 10
-473.05238494873
 20
50.9920471303603
 30
0.0
 11
-473.05238494873
 21
54.8920471303603
 31
0.0
  0
LINE
  5
   2DF
  8
0
  6
CONTINUOUS
 62
     7
 10
-474.65238494873
 20
51.9420471303603
 30
0.0
 11
-474.65238494873
 21
53.9420471303603
 31
0.0
  0
LINE
  5
   2E0
  8
0
  6
CONTINUOUS
 62
     7
 10
-471.452384948731
 20
54.8920471303603
 30
0.0
 11
-473.05238494873
 21
54.8920471303603
 31
0.0
  0
LINE
  5
   2E1
  8
0
  6
CONTINUOUS
 62
     7
 10
-471.452384948731
 20
50.9920471303603
 30
0.0
 11
-473.05238494873
 21
50.9920471303603
 31
0.0
  0
LINE
  5
   2E2
  8
0
  6
CONTINUOUS
 62
     7
 10
-471.452384948731
 20
53.9420471303603
 30
0.0
 11
-474.65238494873
 21
53.9420471303603
 31
0.0
  0
LINE
  5
   2E3
  8
0
  6
CONTINUOUS
 62
     7
 10
-471.452384948731
 20
51.9420471303603
 30
0.0
 11
-474.65238494873
 21
51.9420471303603
 31
0.0
  0
LINE
  5
   2E4
  8
0
  6
CONTINUOUS
 62
     7
 10
-471.452384948731
 20
4.89204713036031
 30
0.0
 11
-473.05238494873
 21
4.89204713036031
 31
0.0
  0
LINE
  5
   2E5
  8
0
  6
CONTINUOUS
 62
     7
 10
-471.452384948731
 20
3.94204713036031
 30
0.0
 11
-474.65238494873
 21
3.94204713036031
 31
0.0
  0
LINE
  5
   2E6
  8
0
  6
CONTINUOUS
 62
     7
 10
-471.452384948731
 20
1.94204713036031
 30
0.0
 11
-474.65238494873
 21
1.94204713036031
 31
0.0
  0
LINE
  5
   2E7
  8
0
  6
CONTINUOUS
 62
     7
 10
-471.452384948731
 20
0.992047130360305
 30
0.0
 11
-473.05238494873
 21
0.992047130360305
 31
0.0
  0
LINE
  5
   2E8
  8
0
  6
CONTINUOUS
 62
     7
 10
-473.05238494873
 20
0.992047130360305
 30
0.0
 11
-473.05238494873
 21
4.89204713036031
 31
0.0
  0
LINE
  5
   2E9
  8
0
  6
CONTINUOUS
 62
     7
 10
-474.65238494873
 20
1.94204713036031
 30
0.0
 11
-474.65238494873
 21
3.94204713036031
 31
0.0
  0
TEXT
  5
   2EA
  8
0
  6
CONTINUOUS
 62
     1
 10
-401.126524297305
 20
-138.4723053391
 30
0.0
 40
2.00000008940697
  1
M 3076 95-01-16
 50
359.999999948034
 41
0.749999861419206
 72
     1
 11
-390.026525855064
 21
-137.472305304408
 31
0.0
 73
     2
  0
TEXT
  5
   2EB
  8
0
  6
CONTINUOUS
 62
     7
 10
-362.822414412889
 20
12.3315143715664
 30
0.0
 40
3.00000002980232
  1
=          =
 50
89.9999999480344
 41
0.916666604744064
 72
     2
 11
-362.822414383498
 21
44.781512497497
 31
0.0
  0
INSERT
  5
   2EC
  8
0
  6
CONTINUOUS
 62
     7
  2
*UDIM547
 10
0.0
 20
0.0
 30
0.0
  0
INSERT
  5
   2ED
  8
0
  6
CONTINUOUS
 62
     7
  2
*UDIM548
 10
0.0
 20
0.0
 30
0.0
  0
INSERT
  5
   2EE
  8
0
  6
CONTINUOUS
 62
     7
  2
*UDIM549
 10
0.0
 20
0.0
 30
0.0
  0
INSERT
  5
   2EF
  8
0
  6
CONTINUOUS
 62
     7
  2
*UDIM550
 10
0.0
 20
0.0
 30
0.0
  0
INSERT
  5
   2F0
  8
0
  6
CONTINUOUS
 62
     7
  2
*UDIM551
 10
0.0
 20
0.0
 30
0.0
  0
INSERT
  5
   2F1
  8
0
  6
CONTINUOUS
 62
     7
  2
*UDIM552
 10
0.0
 20
0.0
 30
0.0
  0
INSERT
  5
   2F2
  8
0
  6
CONTINUOUS
 62
     7
  2
*UDIM553
 10
0.0
 20
0.0
 30
0.0
  0
TEXT
  5
   2F3
  8
0
  6
CONTINUOUS
 62
     7
 10
-363.560667355227
 20
25.6463180831983
 30
0.0
 40
3.00000002980232
  1
X
 50
359.999999948034
 41
0.916666604744064
 72
     2
 11
-361.360667486357
 21
25.646318081214
 31
0.0
  0
TEXT
  5
   2F4
  8
0
  6
CONTINUOUS
 62
     7
 10
-499.080999691652
 20
26.4104019455029
 30
0.0
 40
3.00000002980232
  1
X
 50
359.999999948034
 41
0.916666604744064
 72
     2
 11
-496.880999822783
 21
26.4104019435187
 31
0.0
  0
INSERT
  5
   2F5
  8
0
  6
CONTINUOUS
 62
     7
  2
*UDIM554
 10
0.0
 20
0.0
 30
0.0
  0
TEXT
  5
   2F6
  8
0
  6
CONTINUOUS
 62
     1
 10
-305.695556555006
 20
-149.3604119567
 30
0.0
 40
4.00000017881393
  1
601812/191
 50
359.999999948034
 41
0.937499973922969
 72
     2
 11
-268.945555955234
 21
-149.360411989847
 31
0.0
  0
TEXT
  5
   2F7
  8
0
  6
CONTINUOUS
 62
     1
 10
-294.609863217036
 20
-140.378829814096
 30
0.0
 40
3.00000002980232
  1
 S3
 50
359.999999948034
 41
0.916666604744064
 72
     2
 11
-286.909863665064
 21
-140.378829821041
 31
0.0
  0
TEXT
  5
   2F8
  8
0
  6
CONTINUOUS
 62
     1
 10
-316.144283072064
 20
-122.068557764271
 30
0.0
 40
2.00000008940697
  1
4POLE LOW VOLTAGE M.C.C.B SERIES ISOMAX
 50
359.999999948034
 41
0.749999861419206
 72
     1
 11
-287.0442871511
 21
-121.068557745815
 31
0.0
 73
     2
  0
TEXT
  5
   2F9
  8
0
  6
CONTINUOUS
 62
     1
 10
-310.144283781356
 20
-125.068557769683
 30
0.0
 40
2.00000008940697
  1
PLUG-IN VERSION FRONT TERMINALS
 50
359.999999948034
 41
0.749999861419206
 72
     1
 11
-287.044287019966
 21
-124.068557745815
 31
0.0
 73
     2
  0
TEXT
  5
   2FA
  8
0
  6
CONTINUOUS
 62
     1
 10
-312.941891439418
 20
-130.138824493992
 30
0.0
 40
2.00000008940697
  1
INTERR.AUTOMATICO SERIE ISOMAX
 50
359.999999948034
 41
0.749999861419206
 72
     1
 11
-290.591894572975
 21
-129.138824469447
 31
0.0
 73
     2
  0
TEXT
  5
   2FB
  8
0
  6
CONTINUOUS
 62
     1
 10
-324.191889732486
 20
-133.138824483845
 30
0.0
 40
2.00000008940697
  1
TETRAP.ESECUZIONE RIMOVIBILE TERMIN.ANTERIORI
 50
359.999999948034
 41
0.749999861419206
 72
     1
 11
-290.591894441841
 21
-132.138824469447
 31
0.0
 73
     2
  0
LINE
  5
   2FC
  8
0
  6
CONTINUOUS
 62
     7
 10
-587.441246607002
 20
-13.1579605340957
 30
0.0
 11
-587.441246607002
 21
69.0420379638673
 31
0.0
  0
LINE
  5
   2FD
  8
0
  6
CONTINUOUS
 62
     3
 10
-517.69123394473
 20
53.0670433044414
 30
0.0
 11
-569.691226315336
 21
53.0670433044414
 31
0.0
  0
LINE
  5
   2FE
  8
0
  6
CONTINUOUS
 62
     3
 10
-517.69123394473
 20
0.567050933836232
 30
0.0
 11
-524.441233914928
 21
0.567050933836232
 31
0.0
  0
LINE
  5
   2FF
  8
0
  6
CONTINUOUS
 62
     3
 10
-530.19123394473
 20
0.567050933835738
 30
0.0
 11
-542.466586893096
 21
0.567050933835738
 31
0.0
  0
LINE
  5
   300
  8
0
  6
CONTINUOUS
 62
     3
 10
-562.941226315336
 20
0.567050933822447
 30
0.0
 11
-569.691226315336
 21
0.567050933822447
 31
0.0
  0
LINE
  5
   301
  8
0
  6
CONTINUOUS
 62
     3
 10
-557.191226315336
 20
0.567050933834487
 30
0.0
 11
-562.941226315336
 21
0.567050933834487
 31
0.0
  0
LINE
  5
   302
  8
0
  6
CONTINUOUS
 62
     3
 10
-524.44123394473
 20
0.567050933836249
 30
0.0
 11
-530.19123394473
 21
0.567050933836249
 31
0.0
  0
LINE
  5
   303
  8
0
  6
DASHDOT
 62
     7
 10
-543.691226315336
 20
-52.8275050005679
 30
0.0
 11
-543.691226315336
 21
109.451283079675
 31
0.0
  0
ARC
  5
   304
  8
0
  6
CONTINUOUS
 62
     3
 10
-569.691226315336
 20
0.817050933822447
 30
0.0
 40
0.25
 50
179.999999948034
 51
269.999999948034
  0
ARC
  5
   305
  8
0
  6
CONTINUOUS
 62
     3
 10
-569.691226315336
 20
52.8170433044414
 30
0.0
 40
0.25
 50
449.999999948034
 51
539.999999948034
  0
ARC
  5
   306
  8
0
  6
CONTINUOUS
 62
     3
 10
-517.69123394473
 20
52.8170433044414
 30
0.0
 40
0.25
 50
359.999999948034
 51
449.999999948034
  0
ARC
  5
   307
  8
0
  6
CONTINUOUS
 62
     3
 10
-517.69123394473
 20
0.817050933836232
 30
0.0
 40
0.25
 50
269.999999948034
 51
359.999999948034
  0
LINE
  5
   308
  8
0
  6
CONTINUOUS
 62
     3
 10
-544.915951441243
 20
0.567050933835738
 30
0.0
 11
-557.191226315336
 21
0.567050933835738
 31
0.0
  0
LINE
  5
   309
  8
0
  6
CONTINUOUS
 62
     7
 10
-557.44123394473
 20
0.567043304441427
 30
0.0
 11
-562.441226315336
 21
0.567043304441427
 31
0.0
  0
LINE
  5
   30A
  8
0
  6
CONTINUOUS
 62
     7
 10
-524.941241574125
 20
0.567043304441427
 30
0.0
 11
-529.941241574125
 21
0.567043304441427
 31
0.0
  0
LINE
  5
   30B
  8
0
  6
CONTINUOUS
 62
     7
 10
-569.941226315336
 20
0.81704330444143
 30
0.0
 11
-569.941226315336
 21
9.8170356750469
 31
0.0
  0
LINE
  5
   30C
  8
0
  6
CONTINUOUS
 62
     7
 10
-517.691226315336
 20
53.0670433044414
 30
0.0
 11
-569.691226315322
 21
53.0670433044414
 31
0.0
  0
LINE
  5
   30D
  8
0
  6
CONTINUOUS
 62
     7
 10
-562.441226315336
 20
0.567043304441427
 30
0.0
 11
-569.691226315336
 21
0.567043304441427
 31
0.0
  0
LINE
  5
   30E
  8
0
  6
CONTINUOUS
 62
     7
 10
-529.941241574125
 20
0.567043304441427
 30
0.0
 11
-557.44123394473
 21
0.567043304441427
 31
0.0
  0
LINE
  5
   30F
  8
0
  6
CONTINUOUS
 62
     7
 10
-517.691226315336
 20
0.567043304441427
 30
0.0
 11
-524.941241574125
 21
0.567043304441427
 31
0.0
  0
LINE
  5
   310
  8
0
  6
CONTINUOUS
 62
     7
 10
-538.316226315336
 20
11.6920356750469
 30
0.0
 11
-538.316226315336
 21
31.6920280456524
 31
0.0
  0
LINE
  5
   311
  8
0
  6
CONTINUOUS
 62
     7
 10
-549.066226315336
 20
11.6920356750469
 30
0.0
 11
-549.066226315336
 21
31.6920280456524
 31
0.0
  0
LINE
  5
   312
  8
0
  6
CONTINUOUS
 62
     7
 10
-517.441226315336
 20
47.0670280456524
 30
0.0
 11
-569.941226315336
 21
47.0670280456524
 31
0.0
  0
LINE
  5
   313
  8
0
  6
CONTINUOUS
 62
     7
 10
-517.441226315336
 20
52.0670280456524
 30
0.0
 11
-569.941226315336
 21
52.0670280456524
 31
0.0
  0
LINE
  5
   314
  8
0
  6
CONTINUOUS
 62
     7
 10
-538.316226315336
 20
31.5597953796367
 30
0.0
 11
-549.066226315336
 21
31.5597953796367
 31
0.0
  0
LINE
  5
   315
  8
0
  6
CONTINUOUS
 62
     7
 10
-538.316226315336
 20
31.6920280456524
 30
0.0
 11
-549.066226315336
 21
31.6920280456524
 31
0.0
  0
LINE
  5
   316
  8
0
  6
CONTINUOUS
 62
     7
 10
-538.316226315336
 20
11.6920356750469
 30
0.0
 11
-549.066226315336
 21
11.6920356750469
 31
0.0
  0
LINE
  5
   317
  8
0
  6
CONTINUOUS
 62
     7
 10
-538.316226315336
 20
11.8242835998516
 30
0.0
 11
-549.066226315336
 21
11.8242835998516
 31
0.0
  0
LINE
  5
   318
  8
0
  6
CONTINUOUS
 62
     7
 10
-517.44123394473
 20
10.3170356750469
 30
0.0
 11
-517.44123394473
 21
16.3170316984276
 31
0.0
  0
LINE
  5
   319
  8
0
  6
CONTINUOUS
 62
     7
 10
-517.44123394473
 20
16.8170316984277
 30
0.0
 11
-517.44123394473
 21
26.5670356750469
 31
0.0
  0
LINE
  5
   31A
  8
0
  6
CONTINUOUS
 62
     7
 10
-517.44123394473
 20
27.0670356750469
 30
0.0
 11
-517.44123394473
 21
33.0670356750469
 31
0.0
  0
LINE
  5
   31B
  8
0
  6
CONTINUOUS
 62
     7
 10
-569.941226315338
 20
10.3170356750469
 30
0.0
 11
-569.941226315338
 21
16.317035675048
 31
0.0
  0
LINE
  5
   31C
  8
0
  6
CONTINUOUS
 62
     7
 10
-569.941226315347
 20
16.817035675048
 30
0.0
 11
-569.941226315347
 21
26.5670356750469
 31
0.0
  0
LINE
  5
   31D
  8
0
  6
CONTINUOUS
 62
     7
 10
-569.941226315333
 20
27.0670356750469
 30
0.0
 11
-569.941226315333
 21
33.0670356750469
 31
0.0
  0
LINE
  5
   31E
  8
0
  6
CONTINUOUS
 62
     7
 10
-569.941226315322
 20
33.5670356750469
 30
0.0
 11
-569.941226315322
 21
52.8170433044414
 31
0.0
  0
LINE
  5
   31F
  8
0
  6
CONTINUOUS
 62
     7
 10
-549.066230302197
 20
16.317045292759
 30
0.0
 11
-569.441226345138
 21
16.317045292759
 31
0.0
  0
LINE
  5
   320
  8
0
  6
CONTINUOUS
 62
     7
 10
-517.44123394473
 20
16.3170413161359
 30
0.0
 11
-517.94123394473
 21
16.3170413161359
 31
0.0
  0
LINE
  5
   321
  8
0
  6
CONTINUOUS
 62
     7
 10
-549.066240081742
 20
16.817045292762
 30
0.0
 11
-569.441226345138
 21
16.817045292762
 31
0.0
  0
LINE
  5
   322
  8
0
  6
CONTINUOUS
 62
     7
 10
-517.44123394473
 20
16.8170413161358
 30
0.0
 11
-517.94123394473
 21
16.8170413161358
 31
0.0
  0
LINE
  5
   323
  8
0
  6
CONTINUOUS
 62
     7
 10
-569.441226345138
 20
16.3170356750469
 30
0.0
 11
-569.441226345138
 21
16.8170356750469
 31
0.0
  0
LINE
  5
   324
  8
0
  6
CONTINUOUS
 62
     7
 10
-517.94123394473
 20
16.3170356750469
 30
0.0
 11
-517.94123394473
 21
16.8170356750469
 31
0.0
  0
LINE
  5
   325
  8
0
  6
CONTINUOUS
 62
     7
 10
-517.441226315336
 20
9.8170356750469
 30
0.0
 11
-517.94123394473
 21
9.8170356750469
 31
0.0
  0
LINE
  5
   326
  8
0
  6
CONTINUOUS
 62
     7
 10
-517.44123394473
 20
10.3170356750469
 30
0.0
 11
-517.94123394473
 21
10.3170356750469
 31
0.0
  0
LINE
  5
   327
  8
0
  6
CONTINUOUS
 62
     7
 10
-569.441226345138
 20
9.8170356750469
 30
0.0
 11
-569.441226345138
 21
10.3170356750469
 31
0.0
  0
LINE
  5
   328
  8
0
  6
CONTINUOUS
 62
     7
 10
-517.94123394473
 20
9.8170356750469
 30
0.0
 11
-517.94123394473
 21
10.3170356750469
 31
0.0
  0
LINE
  5
   329
  8
0
  6
CONTINUOUS
 62
     7
 10
-517.44123394473
 20
33.0670356750469
 30
0.0
 11
-517.94123394473
 21
33.0670356750469
 31
0.0
  0
LINE
  5
   32A
  8
0
  6
CONTINUOUS
 62
     7
 10
-517.44123394473
 20
33.5670356750469
 30
0.0
 11
-517.94123394473
 21
33.5670356750469
 31
0.0
  0
LINE
  5
   32B
  8
0
  6
CONTINUOUS
 62
     7
 10
-569.441226345138
 20
33.0670356750469
 30
0.0
 11
-569.441226345138
 21
33.5670356750469
 31
0.0
  0
LINE
  5
   32C
  8
0
  6
CONTINUOUS
 62
     7
 10
-517.94123394473
 20
33.0670356750469
 30
0.0
 11
-517.94123394473
 21
33.5670356750469
 31
0.0
  0
LINE
  5
   32D
  8
0
  6
CONTINUOUS
 62
     7
 10
-549.066230279045
 20
26.5670356750469
 30
0.0
 11
-569.441226345138
 21
26.5670356750469
 31
0.0
  0
LINE
  5
   32E
  8
0
  6
CONTINUOUS
 62
     7
 10
-517.44123394473
 20
26.5670356750469
 30
0.0
 11
-517.94123394473
 21
26.5670356750469
 31
0.0
  0
LINE
  5
   32F
  8
0
  6
CONTINUOUS
 62
     7
 10
-549.066226315336
 20
27.0670356750469
 30
0.0
 11
-569.441226345138
 21
27.0670356750469
 31
0.0
  0
LINE
  5
   330
  8
0
  6
CONTINUOUS
 62
     7
 10
-517.44123394473
 20
27.0670356750469
 30
0.0
 11
-517.94123394473
 21
27.0670356750469
 31
0.0
  0
LINE
  5
   331
  8
0
  6
CONTINUOUS
 62
     7
 10
-569.441226345138
 20
26.5670356750469
 30
0.0
 11
-569.441226345138
 21
27.0670356750469
 31
0.0
  0
LINE
  5
   332
  8
0
  6
CONTINUOUS
 62
     7
 10
-517.94123394473
 20
26.5670356750469
 30
0.0
 11
-517.94123394473
 21
27.0670356750469
 31
0.0
  0
ARC
  5
   333
  8
0
  6
CONTINUOUS
 62
     7
 10
-569.691226315336
 20
0.817043304441423
 30
0.0
 40
0.25
 50
179.999999948034
 51
269.999999948034
  0
ARC
  5
   334
  8
0
  6
CONTINUOUS
 62
     7
 10
-517.691226315336
 20
0.817043304441434
 30
0.0
 40
0.25
 50
269.999999948034
 51
359.999999948034
  0
ARC
  5
   335
  8
0
  6
CONTINUOUS
 62
     7
 10
-517.691226315336
 20
52.8170433044414
 30
0.0
 40
0.25
 50
359.999999948034
 51
449.999999948034
  0
ARC
  5
   336
  8
0
  6
CONTINUOUS
 62
     7
 10
-569.691226315322
 20
52.8170433044414
 30
0.0
 40
0.25
 50
449.999999948034
 51
539.999999948034
  0
LINE
  5
   337
  8
0
  6
CONTINUOUS
 62
     7
 10
-554.941226315336
 20
32.3170356750469
 30
0.0
 11
-555.691226315336
 21
32.3170356750469
 31
0.0
  0
LINE
  5
   338
  8
0
  6
CONTINUOUS
 62
     7
 10
-554.941226315336
 20
27.8170356750469
 30
0.0
 11
-555.691226315336
 21
27.8170356750469
 31
0.0
  0
CIRCLE
  5
   339
  8
0
  6
CONTINUOUS
 62
     7
 10
-555.316226315336
 20
13.3170356750469
 30
0.0
 40
2.25
  0
CIRCLE
  5
   33A
  8
0
  6
CONTINUOUS
 62
     7
 10
-555.316226315336
 20
13.3170356750469
 30
0.0
 40
1.5
  0
LINE
  5
   33B
  8
0
  6
CONTINUOUS
 62
     7
 10
-555.691226315336
 20
27.8170356750469
 30
0.0
 11
-555.691226315336
 21
32.3170356750469
 31
0.0
  0
LINE
  5
   33C
  8
0
  6
CONTINUOUS
 62
     7
 10
-554.941226315336
 20
27.8170356750469
 30
0.0
 11
-554.941226315336
 21
32.3170356750469
 31
0.0
  0
LINE
  5
   33D
  8
0
  6
CONTINUOUS
 62
     7
 10
-550.441226315336
 20
10.3170356750469
 30
0.0
 11
-550.441226315336
 21
16.3170428196297
 31
0.0
  0
LINE
  5
   33E
  8
0
  6
CONTINUOUS
 62
     7
 10
-536.941226315336
 20
10.3170356750469
 30
0.0
 11
-536.941226315336
 21
16.3170388430065
 31
0.0
  0
LINE
  5
   33F
  8
0
  6
CONTINUOUS
 62
     7
 10
-536.941226315336
 20
27.0670356750469
 30
0.0
 11
-536.941226315336
 21
33.0670356750469
 31
0.0
  0
LINE
  5
   340
  8
0
  6
CONTINUOUS
 62
     7
 10
-550.441226315336
 20
27.0670356750469
 30
0.0
 11
-550.441226315336
 21
33.0670356750469
 31
0.0
  0
LINE
  5
   341
  8
0
  6
CONTINUOUS
 62
     7
 10
-530.916231198148
 20
15.2420356750469
 30
0.0
 11
-531.141231198148
 21
15.2420356750469
 31
0.0
  0
LINE
  5
   342
  8
0
  6
CONTINUOUS
 62
     7
 10
-531.391231198148
 20
11.3920356750469
 30
0.0
 11
-531.791231198148
 21
11.3920356750469
 31
0.0
  0
LINE
  5
   343
  8
0
  6
CONTINUOUS
 62
     7
 10
-534.991231198148
 20
12.6920356750469
 30
0.0
 11
-534.991231198148
 21
12.9420356750469
 31
0.0
  0
LINE
  5
   344
  8
0
  6
CONTINUOUS
 62
     7
 10
-532.391231198148
 20
12.6920356750469
 30
0.0
 11
-532.391231198148
 21
12.9420356750469
 31
0.0
  0
ARC
  5
   345
  8
0
  6
CONTINUOUS
 62
     7
 10
-533.691231198148
 20
12.9420356750469
 30
0.0
 40
1.3
 50
359.999999948034
 51
539.999999948034
  0
ARC
  5
   346
  8
0
  6
CONTINUOUS
 62
     7
 10
-533.691231198148
 20
12.6920356750469
 30
0.0
 40
1.3
 50
179.999999948034
 51
359.999999948034
  0
ARC
  5
   347
  8
0
  6
CONTINUOUS
 62
     7
 10
-533.691231198148
 20
12.9420356750469
 30
0.0
 40
0.900000000000001
 50
359.999999948034
 51
539.999999948034
  0
ARC
  5
   348
  8
0
  6
CONTINUOUS
 62
     7
 10
-533.691231198148
 20
12.6920356750469
 30
0.0
 40
0.899999999999999
 50
179.999999948034
 51
359.999999948034
  0
LINE
  5
   349
  8
0
  6
CONTINUOUS
 62
     7
 10
-534.591231198148
 20
12.6920356750469
 30
0.0
 11
-534.591231198148
 21
12.9420356750469
 31
0.0
  0
LINE
  5
   34A
  8
0
  6
CONTINUOUS
 62
     7
 10
-532.791231198148
 20
12.6920356750469
 30
0.0
 11
-532.791231198148
 21
12.9420356750469
 31
0.0
  0
LINE
  5
   34B
  8
0
  6
CONTINUOUS
 62
     7
 10
-532.266231198148
 20
13.6420356750469
 30
0.0
 11
-532.266231198148
 21
14.0420356750469
 31
0.0
  0
LINE
  5
   34C
  8
0
  6
CONTINUOUS
 62
     7
 10
-531.791231198148
 20
13.6420356750469
 30
0.0
 11
-532.266231198148
 21
13.6420356750469
 31
0.0
  0
LINE
  5
   34D
  8
0
  6
CONTINUOUS
 62
     7
 10
-530.916231198148
 20
13.6420356750469
 30
0.0
 11
-530.916231198148
 21
14.0420356750469
 31
0.0
  0
LINE
  5
   34E
  8
0
  6
CONTINUOUS
 62
     7
 10
-531.791231198148
 20
14.0420356750469
 30
0.0
 11
-532.266231198148
 21
14.0420356750469
 31
0.0
  0
LINE
  5
   34F
  8
0
  6
CONTINUOUS
 62
     7
 10
-531.791231198148
 20
11.3920356750469
 30
0.0
 11
-531.791231198148
 21
13.6420356750469
 31
0.0
  0
LINE
  5
   350
  8
0
  6
CONTINUOUS
 62
     7
 10
-531.391231198148
 20
11.3920356750469
 30
0.0
 11
-531.391231198148
 21
13.6420356750469
 31
0.0
  0
LINE
  5
   351
  8
0
  6
CONTINUOUS
 62
     7
 10
-530.916231198148
 20
13.6420356750469
 30
0.0
 11
-531.391231198148
 21
13.6420356750469
 31
0.0
  0
LINE
  5
   352
  8
0
  6
CONTINUOUS
 62
     7
 10
-530.916231198148
 20
14.0420356750469
 30
0.0
 11
-531.391231198148
 21
14.0420356750469
 31
0.0
  0
LINE
  5
   353
  8
0
  6
CONTINUOUS
 62
     7
 10
-531.791231198148
 20
14.0420356750469
 30
0.0
 11
-531.791231198148
 21
14.5920356750469
 31
0.0
  0
LINE
  5
   354
  8
0
  6
CONTINUOUS
 62
     7
 10
-531.391231198148
 20
14.0420356750469
 30
0.0
 11
-531.391231198148
 21
14.5920356750469
 31
0.0
  0
ARC
  5
   355
  8
0
  6
CONTINUOUS
 62
     7
 10
-531.141231198148
 20
14.5920356750469
 30
0.0
 40
0.65
 50
449.999999948034
 51
539.999999948034
  0
ARC
  5
   356
  8
0
  6
CONTINUOUS
 62
     7
 10
-531.141231198148
 20
14.5920356750469
 30
0.0
 40
0.25
 50
449.999999948034
 51
539.999999948034
  0
LINE
  5
   357
  8
0
  6
CONTINUOUS
 62
     7
 10
-530.916231198148
 20
14.8420356750469
 30
0.0
 11
-530.916231198148
 21
15.2420356750469
 31
0.0
  0
LINE
  5
   358
  8
0
  6
CONTINUOUS
 62
     7
 10
-530.916231198148
 20
14.8420356750469
 30
0.0
 11
-531.141231198148
 21
14.8420356750469
 31
0.0
  0
LINE
  5
   359
  8
0
  6
CONTINUOUS
 62
     7
 10
-529.316231198148
 20
15.2420356750469
 30
0.0
 11
-529.541231198148
 21
15.2420356750469
 31
0.0
  0
LINE
  5
   35A
  8
0
  6
CONTINUOUS
 62
     7
 10
-529.791231198148
 20
11.3920356750469
 30
0.0
 11
-530.191231198148
 21
11.3920356750469
 31
0.0
  0
LINE
  5
   35B
  8
0
  6
CONTINUOUS
 62
     7
 10
-530.666231198148
 20
13.6420356750469
 30
0.0
 11
-530.666231198148
 21
14.0420356750469
 31
0.0
  0
LINE
  5
   35C
  8
0
  6
CONTINUOUS
 62
     7
 10
-530.191231198148
 20
13.6420356750469
 30
0.0
 11
-530.666231198148
 21
13.6420356750469
 31
0.0
  0
LINE
  5
   35D
  8
0
  6
CONTINUOUS
 62
     7
 10
-529.316231198148
 20
13.6420356750469
 30
0.0
 11
-529.316231198148
 21
14.0420356750469
 31
0.0
  0
LINE
  5
   35E
  8
0
  6
CONTINUOUS
 62
     7
 10
-530.191231198148
 20
14.0420356750469
 30
0.0
 11
-530.666231198148
 21
14.0420356750469
 31
0.0
  0
LINE
  5
   35F
  8
0
  6
CONTINUOUS
 62
     7
 10
-530.191231198148
 20
11.3920356750469
 30
0.0
 11
-530.191231198148
 21
13.6420356750469
 31
0.0
  0
LINE
  5
   360
  8
0
  6
CONTINUOUS
 62
     7
 10
-529.791231198148
 20
11.3920356750469
 30
0.0
 11
-529.791231198148
 21
13.6420356750469
 31
0.0
  0
LINE
  5
   361
  8
0
  6
CONTINUOUS
 62
     7
 10
-529.316231198148
 20
13.6420356750469
 30
0.0
 11
-529.791231198148
 21
13.6420356750469
 31
0.0
  0
LINE
  5
   362
  8
0
  6
CONTINUOUS
 62
     7
 10
-529.316231198148
 20
14.0420356750469
 30
0.0
 11
-529.791231198148
 21
14.0420356750469
 31
0.0
  0
LINE
  5
   363
  8
0
  6
CONTINUOUS
 62
     7
 10
-530.191231198148
 20
14.0420356750469
 30
0.0
 11
-530.191231198148
 21
14.5920356750469
 31
0.0
  0
LINE
  5
   364
  8
0
  6
CONTINUOUS
 62
     7
 10
-529.791231198148
 20
14.0420356750469
 30
0.0
 11
-529.791231198148
 21
14.5920356750469
 31
0.0
  0
ARC
  5
   365
  8
0
  6
CONTINUOUS
 62
     7
 10
-529.541231198148
 20
14.5920356750469
 30
0.0
 40
0.65
 50
449.999999948034
 51
539.999999948034
  0
ARC
  5
   366
  8
0
  6
CONTINUOUS
 62
     7
 10
-529.541231198148
 20
14.5920356750469
 30
0.0
 40
0.25
 50
449.999999948034
 51
539.999999948034
  0
LINE
  5
   367
  8
0
  6
CONTINUOUS
 62
     7
 10
-529.316231198148
 20
14.8420356750469
 30
0.0
 11
-529.316231198148
 21
15.2420356750469
 31
0.0
  0
LINE
  5
   368
  8
0
  6
CONTINUOUS
 62
     7
 10
-529.316231198148
 20
14.8420356750469
 30
0.0
 11
-529.541231198148
 21
14.8420356750469
 31
0.0
  0
LINE
  5
   369
  8
0
  6
CONTINUOUS
 62
     7
 10
-531.591231198148
 20
28.6420356750469
 30
0.0
 11
-531.991231198148
 21
28.6420356750469
 31
0.0
  0
ARC
  5
   36A
  8
0
  6
CONTINUOUS
 62
     7
 10
-533.691231198148
 20
30.1920356750469
 30
0.0
 40
1.3
 50
359.999999948034
 51
539.999999948034
  0
ARC
  5
   36B
  8
0
  6
CONTINUOUS
 62
     7
 10
-533.691231198148
 20
30.1920356750469
 30
0.0
 40
0.900000000000001
 50
359.999999948034
 51
539.999999948034
  0
ARC
  5
   36C
  8
0
  6
CONTINUOUS
 62
     7
 10
-533.691231198148
 20
29.9420356750469
 30
0.0
 40
1.3
 50
179.999999948034
 51
359.999999948034
  0
ARC
  5
   36D
  8
0
  6
CONTINUOUS
 62
     7
 10
-533.691231198148
 20
29.9420356750469
 30
0.0
 40
0.899999999999999
 50
179.999999948034
 51
359.999999948034
  0
LINE
  5
   36E
  8
0
  6
CONTINUOUS
 62
     7
 10
-532.791231198148
 20
29.9420356750469
 30
0.0
 11
-532.791231198148
 21
30.1920356750469
 31
0.0
  0
LINE
  5
   36F
  8
0
  6
CONTINUOUS
 62
     7
 10
-532.391231198148
 20
29.9420356750469
 30
0.0
 11
-532.391231198148
 21
30.1920356750469
 31
0.0
  0
LINE
  5
   370
  8
0
  6
CONTINUOUS
 62
     7
 10
-534.591231198148
 20
29.9420356750469
 30
0.0
 11
-534.591231198148
 21
30.1920356750469
 31
0.0
  0
LINE
  5
   371
  8
0
  6
CONTINUOUS
 62
     7
 10
-534.991231198148
 20
29.9420356750469
 30
0.0
 11
-534.991231198148
 21
30.1920356750469
 31
0.0
  0
LINE
  5
   372
  8
0
  6
CONTINUOUS
 62
     7
 10
-531.991231198148
 20
28.6420356750469
 30
0.0
 11
-531.991231198148
 21
31.4920356750469
 31
0.0
  0
LINE
  5
   373
  8
0
  6
CONTINUOUS
 62
     7
 10
-531.591231198148
 20
28.6420356750469
 30
0.0
 11
-531.591231198148
 21
30.3920356750469
 31
0.0
  0
LINE
  5
   374
  8
0
  6
CONTINUOUS
 62
     7
 10
-530.191231198148
 20
28.6420356750469
 30
0.0
 11
-530.191231198148
 21
30.3920356750469
 31
0.0
  0
LINE
  5
   375
  8
0
  6
CONTINUOUS
 62
     7
 10
-529.791231198148
 20
28.6420356750469
 30
0.0
 11
-529.791231198148
 21
30.4920356750469
 31
0.0
  0
LINE
  5
   376
  8
0
  6
CONTINUOUS
 62
     7
 10
-531.591231198148
 20
31.4920356750469
 30
0.0
 11
-531.991231198148
 21
31.4920356750469
 31
0.0
  0
ARC
  5
   377
  8
0
  6
CONTINUOUS
 62
     7
 10
-530.891231198148
 20
30.3920356750469
 30
0.0
 40
0.699999999999999
 50
359.999999948034
 51
539.999999948034
  0
LINE
  5
   378
  8
0
  6
CONTINUOUS
 62
     7
 10
-531.591231198148
 20
31.0920356750469
 30
0.0
 11
-531.591231198148
 21
31.4920356750469
 31
0.0
  0
ARC
  5
   379
  8
0
  6
CONTINUOUS
 62
     7
 10
-530.791231198148
 20
30.4920356750469
 30
0.0
 40
1.0
 50
359.999999948034
 51
503.13010230219
  0
LINE
  5
   37A
  8
0
  6
CONTINUOUS
 62
     7
 10
-529.791231198148
 20
28.6420356750469
 30
0.0
 11
-530.191231198148
 21
28.6420356750469
 31
0.0
  0
LINE
  5
   37B
  8
0
  6
CONTINUOUS
 62
     7
 10
-569.441226345138
 20
33.5670356750469
 30
0.0
 11
-569.941226315322
 21
33.5670356750469
 31
0.0
  0
LINE
  5
   37C
  8
0
  6
CONTINUOUS
 62
     7
 10
-569.441226345138
 20
33.0670356750469
 30
0.0
 11
-569.941226315333
 21
33.0670356750469
 31
0.0
  0
LINE
  5
   37D
  8
0
  6
CONTINUOUS
 62
     7
 10
-569.441226345138
 20
27.0670356750469
 30
0.0
 11
-569.941226315333
 21
27.0670356750469
 31
0.0
  0
LINE
  5
   37E
  8
0
  6
CONTINUOUS
 62
     7
 10
-569.441226345138
 20
26.5670356750469
 30
0.0
 11
-569.941226315347
 21
26.5670356750469
 31
0.0
  0
LINE
  5
   37F
  8
0
  6
CONTINUOUS
 62
     7
 10
-569.441226345138
 20
16.817045292762
 30
0.0
 11
-569.941226315347
 21
16.817045292762
 31
0.0
  0
LINE
  5
   380
  8
0
  6
CONTINUOUS
 62
     7
 10
-569.441226345138
 20
16.317045292759
 30
0.0
 11
-569.941226315338
 21
16.317045292759
 31
0.0
  0
LINE
  5
   381
  8
0
  6
CONTINUOUS
 62
     7
 10
-569.441226345138
 20
10.3170356750469
 30
0.0
 11
-569.941226315338
 21
10.3170356750469
 31
0.0
  0
LINE
  5
   382
  8
0
  6
CONTINUOUS
 62
     7
 10
-569.441226345138
 20
9.8170356750469
 30
0.0
 11
-569.941226315336
 21
9.8170356750469
 31
0.0
  0
LINE
  5
   383
  8
0
  6
CONTINUOUS
 62
     7
 10
-517.94123394473
 20
33.5670356750469
 30
0.0
 11
-569.441226345138
 21
33.5670356750469
 31
0.0
  0
LINE
  5
   384
  8
0
  6
CONTINUOUS
 62
     7
 10
-517.94123394473
 20
33.0670356750469
 30
0.0
 11
-569.441226345138
 21
33.0670356750469
 31
0.0
  0
LINE
  5
   385
  8
0
  6
CONTINUOUS
 62
     7
 10
-517.94123394473
 20
27.0670356750469
 30
0.0
 11
-538.316226315336
 21
27.0670356750469
 31
0.0
  0
LINE
  5
   386
  8
0
  6
CONTINUOUS
 62
     7
 10
-517.94123394473
 20
26.5670356750469
 30
0.0
 11
-538.316226315336
 21
26.5670356750469
 31
0.0
  0
LINE
  5
   387
  8
0
  6
CONTINUOUS
 62
     7
 10
-517.94123394473
 20
16.8170413161358
 30
0.0
 11
-538.316227807715
 21
16.8170413161358
 31
0.0
  0
LINE
  5
   388
  8
0
  6
CONTINUOUS
 62
     7
 10
-517.94123394473
 20
16.3170413161359
 30
0.0
 11
-538.316227990909
 21
16.3170413161359
 31
0.0
  0
LINE
  5
   389
  8
0
  6
CONTINUOUS
 62
     7
 10
-517.94123394473
 20
10.3170356750469
 30
0.0
 11
-569.441226345138
 21
10.3170356750469
 31
0.0
  0
LINE
  5
   38A
  8
0
  6
CONTINUOUS
 62
     7
 10
-517.94123394473
 20
9.8170356750469
 30
0.0
 11
-569.441226345138
 21
9.8170356750469
 31
0.0
  0
LINE
  5
   38B
  8
0
  6
CONTINUOUS
 62
     7
 10
-538.316226315336
 20
18.7546960297566
 30
0.0
 11
-549.066226315336
 21
18.7546960297566
 31
0.0
  0
LINE
  5
   38C
  8
0
  6
CONTINUOUS
 62
     7
 10
-538.316226315336
 20
15.6964632769481
 30
0.0
 11
-549.066226315336
 21
15.6964632769481
 31
0.0
  0
LINE
  5
   38D
  8
0
  6
CONTINUOUS
 62
     7
 10
-538.316226315336
 20
12.7225539638423
 30
0.0
 11
-549.066226315336
 21
12.7225539638423
 31
0.0
  0
LINE
  5
   38E
  8
0
  6
CONTINUOUS
 62
     7
 10
-538.316226315336
 20
12.3211803999831
 30
0.0
 11
-549.066226315336
 21
12.3211803999831
 31
0.0
  0
LINE
  5
   38F
  8
0
  6
CONTINUOUS
 62
     7
 10
-572.941226315336
 20
53.0670433044414
 30
0.0
 11
-587.441246607002
 21
53.0670433044414
 31
0.0
  0
LINE
  5
   390
  8
0
  6
CONTINUOUS
 62
     7
 10
-572.941226315336
 20
0.567043304441423
 30
0.0
 11
-587.441246607002
 21
0.567043304441423
 31
0.0
  0
LINE
  5
   391
  8
0
  6
CONTINUOUS
 62
     3
 10
-531.191230773926
 20
-19.5579681396484
 30
0.0
 11
-531.191230773926
 21
-15.8079605102588
 31
0.0
  0
LINE
  5
   392
  8
0
  6
CONTINUOUS
 62
     3
 10
-530.566230773926
 20
-19.5579681396484
 30
0.0
 11
-531.191230773926
 21
-19.5579681396484
 31
0.0
  0
LINE
  5
   393
  8
0
  6
CONTINUOUS
 62
     3
 10
-530.566230773926
 20
-29.5579676628113
 30
0.0
 11
-530.566230773926
 21
-19.5579752922058
 31
0.0
  0
LINE
  5
   394
  8
0
  6
CONTINUOUS
 62
     3
 10
-521.816230773926
 20
-29.5579676628113
 30
0.0
 11
-530.566230773926
 21
-29.5579676628113
 31
0.0
  0
LINE
  5
   395
  8
0
  6
CONTINUOUS
 62
     3
 10
-521.816230773926
 20
-29.5579676628113
 30
0.0
 11
-521.816230773926
 21
-19.5579752922058
 31
0.0
  0
LINE
  5
   396
  8
0
  6
CONTINUOUS
 62
     3
 10
-521.191230773926
 20
-19.5579681396484
 30
0.0
 11
-521.816230773926
 21
-19.5579681396484
 31
0.0
  0
LINE
  5
   397
  8
0
  6
CONTINUOUS
 62
     3
 10
-521.191230773926
 20
-19.5579681396484
 30
0.0
 11
-521.191230773926
 21
-15.8079605102588
 31
0.0
  0
LINE
  5
   398
  8
0
  6
CONTINUOUS
 62
     7
 10
-548.691230773926
 20
-19.5579681396484
 30
0.0
 11
-548.691230773926
 21
-15.8079605102588
 31
0.0
  0
LINE
  5
   399
  8
0
  6
CONTINUOUS
 62
     7
 10
-538.691230773926
 20
-19.5579681396484
 30
0.0
 11
-538.691230773926
 21
-15.8079605102588
 31
0.0
  0
LINE
  5
   39A
  8
0
  6
CONTINUOUS
 62
     7
 10
-539.316230773926
 20
-29.5579676628113
 30
0.0
 11
-539.316230773926
 21
-19.5579752922058
 31
0.0
  0
LINE
  5
   39B
  8
0
  6
CONTINUOUS
 62
     7
 10
-548.066230773926
 20
-29.5579676628113
 30
0.0
 11
-548.066230773926
 21
-19.5579752922058
 31
0.0
  0
LINE
  5
   39C
  8
0
  6
CONTINUOUS
 62
     7
 10
-539.316230773926
 20
-29.5579676628113
 30
0.0
 11
-548.066230773926
 21
-29.5579676628113
 31
0.0
  0
CIRCLE
  5
   39D
  8
0
  6
CONTINUOUS
 62
     3
 10
-526.191202696246
 20
-24.5579543987506
 30
0.0
 40
2.04999825840616
  0
CIRCLE
  5
   39E
  8
0
  6
CONTINUOUS
 62
     3
 10
-543.691202696246
 20
-24.5579543987506
 30
0.0
 40
2.04999825840616
  0
LINE
  5
   39F
  8
0
  6
CONTINUOUS
 62
     3
 10
-548.066230773926
 20
-19.5579681396484
 30
0.0
 11
-548.691230773926
 21
-19.5579681396484
 31
0.0
  0
LINE
  5
   3A0
  8
0
  6
CONTINUOUS
 62
     3
 10
-538.691230773926
 20
-19.5579681396484
 30
0.0
 11
-539.316230773926
 21
-19.5579681396484
 31
0.0
  0
CIRCLE
  5
   3A1
  8
0
  6
CONTINUOUS
 62
     3
 10
-561.191202696246
 20
-24.5579543987506
 30
0.0
 40
2.04999825840616
  0
LINE
  5
   3A2
  8
0
  6
CONTINUOUS
 62
     3
 10
-565.566230773926
 20
-29.5579676628113
 30
0.0
 11
-565.566230773926
 21
-19.5579752922058
 31
0.0
  0
LINE
  5
   3A3
  8
0
  6
CONTINUOUS
 62
     3
 10
-556.816230773926
 20
-29.5579676628113
 30
0.0
 11
-556.816230773926
 21
-19.5579752922058
 31
0.0
  0
LINE
  5
   3A4
  8
0
  6
CONTINUOUS
 62
     3
 10
-566.191230773926
 20
-19.5579681396484
 30
0.0
 11
-566.191230773926
 21
-15.8079605102588
 31
0.0
  0
LINE
  5
   3A5
  8
0
  6
CONTINUOUS
 62
     3
 10
-556.191230773926
 20
-19.5579681396484
 30
0.0
 11
-556.191230773926
 21
-15.8079605102588
 31
0.0
  0
LINE
  5
   3A6
  8
0
  6
CONTINUOUS
 62
     3
 10
-556.816230773926
 20
-29.5579676628113
 30
0.0
 11
-565.566230773926
 21
-29.5579676628113
 31
0.0
  0
LINE
  5
   3A7
  8
0
  6
CONTINUOUS
 62
     3
 10
-565.566230773926
 20
-19.5579681396484
 30
0.0
 11
-566.191230773926
 21
-19.5579681396484
 31
0.0
  0
LINE
  5
   3A8
  8
0
  6
CONTINUOUS
 62
     3
 10
-556.191230773926
 20
-19.5579681396484
 30
0.0
 11
-556.816230773926
 21
-19.5579681396484
 31
0.0
  0
LINE
  5
   3A9
  8
0
  6
CONTINUOUS
 62
     3
 10
-583.691230773926
 20
-19.5579681396484
 30
0.0
 11
-583.691230773926
 21
-15.8079605102588
 31
0.0
  0
LINE
  5
   3AA
  8
0
  6
CONTINUOUS
 62
     3
 10
-573.691230773926
 20
-19.5579681396484
 30
0.0
 11
-573.691230773926
 21
-15.8079605102588
 31
0.0
  0
LINE
  5
   3AB
  8
0
  6
CONTINUOUS
 62
     3
 10
-574.316230773926
 20
-29.5579676628113
 30
0.0
 11
-574.316230773926
 21
-19.5579752922058
 31
0.0
  0
LINE
  5
   3AC
  8
0
  6
CONTINUOUS
 62
     3
 10
-583.066230773926
 20
-29.5579676628113
 30
0.0
 11
-583.066230773926
 21
-19.5579752922058
 31
0.0
  0
CIRCLE
  5
   3AD
  8
0
  6
CONTINUOUS
 62
     3
 10
-578.691202696246
 20
-24.5579543987506
 30
0.0
 40
2.04999825840616
  0
LINE
  5
   3AE
  8
0
  6
CONTINUOUS
 62
     3
 10
-574.316230773926
 20
-29.5579676628113
 30
0.0
 11
-583.066230773926
 21
-29.5579676628113
 31
0.0
  0
LINE
  5
   3AF
  8
0
  6
CONTINUOUS
 62
     3
 10
-583.066230773926
 20
-19.5579681396484
 30
0.0
 11
-583.691230773926
 21
-19.5579681396484
 31
0.0
  0
LINE
  5
   3B0
  8
0
  6
CONTINUOUS
 62
     3
 10
-573.691230773926
 20
-19.5579681396484
 30
0.0
 11
-574.316230773926
 21
-19.5579681396484
 31
0.0
  0
CIRCLE
  5
   3B1
  8
0
  6
CONTINUOUS
 62
     3
 10
-578.691202696246
 20
80.4420333782427
 30
0.0
 40
2.04999825840616
  0
CIRCLE
  5
   3B2
  8
0
  6
CONTINUOUS
 62
     3
 10
-561.191202696246
 20
80.4420333782427
 30
0.0
 40
2.04999825840616
  0
CIRCLE
  5
   3B3
  8
0
  6
CONTINUOUS
 62
     3
 10
-543.691202696246
 20
80.4420333782427
 30
0.0
 40
2.04999825840616
  0
CIRCLE
  5
   3B4
  8
0
  6
CONTINUOUS
 62
     3
 10
-526.191202696246
 20
80.4420333782427
 30
0.0
 40
2.04999825840616
  0
LINE
  5
   3B5
  8
0
  6
CONTINUOUS
 62
     3
 10
-521.816230773926
 20
85.4420466423035
 30
0.0
 11
-530.566230773926
 21
85.4420466423035
 31
0.0
  0
LINE
  5
   3B6
  8
0
  6
CONTINUOUS
 62
     3
 10
-539.316230773926
 20
85.4420466423035
 30
0.0
 11
-548.066230773926
 21
85.4420466423035
 31
0.0
  0
LINE
  5
   3B7
  8
0
  6
CONTINUOUS
 62
     3
 10
-556.816230773926
 20
85.4420466423035
 30
0.0
 11
-565.566230773926
 21
85.4420466423035
 31
0.0
  0
LINE
  5
   3B8
  8
0
  6
CONTINUOUS
 62
     3
 10
-574.316230773926
 20
85.4420466423035
 30
0.0
 11
-583.066230773926
 21
85.4420466423035
 31
0.0
  0
LINE
  5
   3B9
  8
0
  6
CONTINUOUS
 62
     3
 10
-583.066230773926
 20
75.442054271698
 30
0.0
 11
-583.066230773926
 21
85.4420466423035
 31
0.0
  0
LINE
  5
   3BA
  8
0
  6
CONTINUOUS
 62
     3
 10
-574.316230773926
 20
75.442054271698
 30
0.0
 11
-574.316230773926
 21
85.4420466423035
 31
0.0
  0
LINE
  5
   3BB
  8
0
  6
CONTINUOUS
 62
     3
 10
-565.566230773926
 20
75.442054271698
 30
0.0
 11
-565.566230773926
 21
85.4420466423035
 31
0.0
  0
LINE
  5
   3BC
  8
0
  6
CONTINUOUS
 62
     3
 10
-556.816230773926
 20
75.442054271698
 30
0.0
 11
-556.816230773926
 21
85.4420466423035
 31
0.0
  0
LINE
  5
   3BD
  8
0
  6
CONTINUOUS
 62
     3
 10
-548.066230773926
 20
75.442054271698
 30
0.0
 11
-548.066230773926
 21
85.4420466423035
 31
0.0
  0
LINE
  5
   3BE
  8
0
  6
CONTINUOUS
 62
     3
 10
-539.316230773926
 20
75.442054271698
 30
0.0
 11
-539.316230773926
 21
85.4420466423035
 31
0.0
  0
LINE
  5
   3BF
  8
0
  6
CONTINUOUS
 62
     3
 10
-530.566230773926
 20
75.442054271698
 30
0.0
 11
-530.566230773926
 21
85.4420466423035
 31
0.0
  0
LINE
  5
   3C0
  8
0
  6
CONTINUOUS
 62
     3
 10
-521.816230773926
 20
75.442054271698
 30
0.0
 11
-521.816230773926
 21
85.4420466423035
 31
0.0
  0
LINE
  5
   3C1
  8
0
  6
CONTINUOUS
 62
     3
 10
-521.191230773926
 20
71.692039489751
 30
0.0
 11
-521.191230773926
 21
75.4420471191406
 31
0.0
  0
LINE
  5
   3C2
  8
0
  6
CONTINUOUS
 62
     3
 10
-531.191230773926
 20
71.692039489751
 30
0.0
 11
-531.191230773926
 21
75.4420471191406
 31
0.0
  0
LINE
  5
   3C3
  8
0
  6
CONTINUOUS
 62
     3
 10
-538.691230773926
 20
71.692039489751
 30
0.0
 11
-538.691230773926
 21
75.4420471191406
 31
0.0
  0
LINE
  5
   3C4
  8
0
  6
CONTINUOUS
 62
     3
 10
-548.691230773926
 20
71.692039489751
 30
0.0
 11
-548.691230773926
 21
75.4420471191406
 31
0.0
  0
LINE
  5
   3C5
  8
0
  6
CONTINUOUS
 62
     3
 10
-556.191230773926
 20
71.692039489751
 30
0.0
 11
-556.191230773926
 21
75.4420471191406
 31
0.0
  0
LINE
  5
   3C6
  8
0
  6
CONTINUOUS
 62
     3
 10
-566.191230773926
 20
71.692039489751
 30
0.0
 11
-566.191230773926
 21
75.4420471191406
 31
0.0
  0
LINE
  5
   3C7
  8
0
  6
CONTINUOUS
 62
     3
 10
-573.691230773926
 20
71.692039489751
 30
0.0
 11
-573.691230773926
 21
75.4420471191406
 31
0.0
  0
LINE
  5
   3C8
  8
0
  6
CONTINUOUS
 62
     3
 10
-583.691230773926
 20
71.692039489751
 30
0.0
 11
-583.691230773926
 21
75.4420471191406
 31
0.0
  0
LINE
  5
   3C9
  8
0
  6
CONTINUOUS
 62
     3
 10
-583.066230773926
 20
75.4420471191406
 30
0.0
 11
-583.691230773926
 21
75.4420471191406
 31
0.0
  0
LINE
  5
   3CA
  8
0
  6
CONTINUOUS
 62
     3
 10
-573.691230773926
 20
75.4420471191406
 30
0.0
 11
-574.316230773926
 21
75.4420471191406
 31
0.0
  0
LINE
  5
   3CB
  8
0
  6
CONTINUOUS
 62
     3
 10
-565.566230773926
 20
75.4420471191406
 30
0.0
 11
-566.191230773926
 21
75.4420471191406
 31
0.0
  0
LINE
  5
   3CC
  8
0
  6
CONTINUOUS
 62
     3
 10
-556.191230773926
 20
75.4420471191406
 30
0.0
 11
-556.816230773926
 21
75.4420471191406
 31
0.0
  0
LINE
  5
   3CD
  8
0
  6
CONTINUOUS
 62
     3
 10
-548.066230773926
 20
75.4420471191406
 30
0.0
 11
-548.691230773926
 21
75.4420471191406
 31
0.0
  0
LINE
  5
   3CE
  8
0
  6
CONTINUOUS
 62
     3
 10
-538.691230773926
 20
75.4420471191406
 30
0.0
 11
-539.316230773926
 21
75.4420471191406
 31
0.0
  0
LINE
  5
   3CF
  8
0
  6
CONTINUOUS
 62
     3
 10
-530.566230773926
 20
75.4420471191406
 30
0.0
 11
-531.191230773926
 21
75.4420471191406
 31
0.0
  0
LINE
  5
   3D0
  8
0
  6
CONTINUOUS
 62
     3
 10
-521.191230773926
 20
75.4420471191406
 30
0.0
 11
-521.816230773926
 21
75.4420471191406
 31
0.0
  0
LINE
  5
   3D1
  8
0
  6
CONTINUOUS
 62
     3
 10
-517.441234943014
 20
33.5670356750469
 30
0.0
 11
-517.441234943014
 21
52.8170433044414
 31
0.0
  0
LINE
  5
   3D2
  8
0
  6
CONTINUOUS
 62
     7
 10
-518.066242887009
 20
71.692039489751
 30
0.0
 11
-586.816234943014
 21
71.692039489751
 31
0.0
  0
LINE
  5
   3D3
  8
0
  6
CONTINUOUS
 62
     7
 10
-572.941226315336
 20
57.1920471191505
 30
0.0
 11
-586.941234943014
 21
57.1920471191505
 31
0.0
  0
LINE
  5
   3D4
  8
0
  6
CONTINUOUS
 62
     7
 10
-517.441234943028
 20
67.0670433044414
 30
0.0
 11
-517.441234943028
 21
71.067039489751
 31
0.0
  0
LINE
  5
   3D5
  8
0
  6
CONTINUOUS
 62
     7
 10
-587.441234943014
 20
57.6920471191456
 30
0.0
 11
-587.441234943014
 21
71.067039489751
 31
0.0
  0
LINE
  5
   3D6
  8
0
  6
CONTINUOUS
 62
     7
 10
-586.941234943014
 20
57.1920471191506
 30
0.0
 11
-586.941234943014
 21
57.6920471191506
 31
0.0
  0
LINE
  5
   3D7
  8
0
  6
CONTINUOUS
 62
     7
 10
-587.316234972816
 20
57.6920471191455
 30
0.0
 11
-587.441234943014
 21
57.6920471191455
 31
0.0
  0
LINE
  5
   3D8
  8
0
  6
CONTINUOUS
 62
     7
 10
-585.416234847647
 20
-15.8079605102588
 30
0.0
 11
-585.416234847647
 21
71.692039489751
 31
0.0
  0
LINE
  5
   3D9
  8
0
  6
CONTINUOUS
 62
     7
 10
-581.816234943014
 20
-15.8079605102588
 30
0.0
 11
-581.816234943014
 21
71.692039489751
 31
0.0
  0
LINE
  5
   3DA
  8
0
  6
CONTINUOUS
 62
     7
 10
-578.216236468893
 20
-15.8079605102588
 30
0.0
 11
-578.216236468893
 21
71.692039489751
 31
0.0
  0
LINE
  5
   3DB
  8
0
  6
CONTINUOUS
 62
     7
 10
-572.816234943014
 20
66.8170318005951
 30
0.0
 11
-572.816234943014
 21
71.692039489751
 31
0.0
  0
LINE
  5
   3DC
  8
0
  6
CONTINUOUS
 62
     7
 10
-571.016239520651
 20
67.0670433044414
 30
0.0
 11
-571.016239520651
 21
71.692039489751
 31
0.0
  0
LINE
  5
   3DD
  8
0
  6
CONTINUOUS
 62
     7
 10
-569.216236468893
 20
67.0670433044414
 30
0.0
 11
-569.216236468893
 21
71.692039489751
 31
0.0
  0
LINE
  5
   3DE
  8
0
  6
CONTINUOUS
 62
     7
 10
-567.41624104653
 20
67.0670433044414
 30
0.0
 11
-567.41624104653
 21
71.692039489751
 31
0.0
  0
LINE
  5
   3DF
  8
0
  6
CONTINUOUS
 62
     7
 10
-565.616237994772
 20
67.0670433044414
 30
0.0
 11
-565.616237994772
 21
71.692039489751
 31
0.0
  0
LINE
  5
   3E0
  8
0
  6
CONTINUOUS
 62
     7
 10
-563.816234943014
 20
67.0670433044414
 30
0.0
 11
-563.816234943014
 21
71.692039489751
 31
0.0
  0
LINE
  5
   3E1
  8
0
  6
CONTINUOUS
 62
     7
 10
-562.016239520651
 20
67.0670433044414
 30
0.0
 11
-562.016239520651
 21
71.692039489751
 31
0.0
  0
LINE
  5
   3E2
  8
0
  6
CONTINUOUS
 62
     7
 10
-560.216236468893
 20
67.0670433044414
 30
0.0
 11
-560.216236468893
 21
71.692039489751
 31
0.0
  0
LINE
  5
   3E3
  8
0
  6
CONTINUOUS
 62
     7
 10
-558.41624104653
 20
67.0670433044414
 30
0.0
 11
-558.41624104653
 21
71.692039489751
 31
0.0
  0
LINE
  5
   3E4
  8
0
  6
CONTINUOUS
 62
     7
 10
-556.616237994772
 20
67.0670433044414
 30
0.0
 11
-556.616237994772
 21
71.692039489751
 31
0.0
  0
LINE
  5
   3E5
  8
0
  6
CONTINUOUS
 62
     7
 10
-554.816234943014
 20
67.0670433044414
 30
0.0
 11
-554.816234943014
 21
71.692039489751
 31
0.0
  0
LINE
  5
   3E6
  8
0
  6
CONTINUOUS
 62
     7
 10
-553.016239520651
 20
67.0670433044414
 30
0.0
 11
-553.016239520651
 21
71.692039489751
 31
0.0
  0
LINE
  5
   3E7
  8
0
  6
CONTINUOUS
 62
     7
 10
-551.216236468893
 20
67.0670433044414
 30
0.0
 11
-551.216236468893
 21
71.692039489751
 31
0.0
  0
LINE
  5
   3E8
  8
0
  6
CONTINUOUS
 62
     7
 10
-549.41624104653
 20
67.0670433044414
 30
0.0
 11
-549.41624104653
 21
71.692039489751
 31
0.0
  0
LINE
  5
   3E9
  8
0
  6
CONTINUOUS
 62
     7
 10
-547.616237994772
 20
67.0670433044414
 30
0.0
 11
-547.616237994772
 21
71.692039489751
 31
0.0
  0
LINE
  5
   3EA
  8
0
  6
CONTINUOUS
 62
     7
 10
-545.816234943014
 20
67.0670433044414
 30
0.0
 11
-545.816234943014
 21
71.692039489751
 31
0.0
  0
LINE
  5
   3EB
  8
0
  6
CONTINUOUS
 62
     7
 10
-544.016239520651
 20
67.0670433044414
 30
0.0
 11
-544.016239520651
 21
71.692039489751
 31
0.0
  0
LINE
  5
   3EC
  8
0
  6
CONTINUOUS
 62
     7
 10
-542.216236468893
 20
67.0670433044414
 30
0.0
 11
-542.216236468893
 21
71.692039489751
 31
0.0
  0
LINE
  5
   3ED
  8
0
  6
CONTINUOUS
 62
     7
 10
-540.41624104653
 20
67.0670433044414
 30
0.0
 11
-540.41624104653
 21
71.692039489751
 31
0.0
  0
LINE
  5
   3EE
  8
0
  6
CONTINUOUS
 62
     7
 10
-538.616237994772
 20
67.0670433044414
 30
0.0
 11
-538.616237994772
 21
71.692039489751
 31
0.0
  0
LINE
  5
   3EF
  8
0
  6
CONTINUOUS
 62
     7
 10
-536.816234943014
 20
67.0670433044414
 30
0.0
 11
-536.816234943014
 21
71.692039489751
 31
0.0
  0
LINE
  5
   3F0
  8
0
  6
CONTINUOUS
 62
     7
 10
-535.016239520651
 20
67.0670433044414
 30
0.0
 11
-535.016239520651
 21
71.692039489751
 31
0.0
  0
LINE
  5
   3F1
  8
0
  6
CONTINUOUS
 62
     7
 10
-533.216236468893
 20
67.0670433044414
 30
0.0
 11
-533.216236468893
 21
71.692039489751
 31
0.0
  0
LINE
  5
   3F2
  8
0
  6
CONTINUOUS
 62
     7
 10
-531.41624104653
 20
67.0670433044414
 30
0.0
 11
-531.41624104653
 21
71.692039489751
 31
0.0
  0
LINE
  5
   3F3
  8
0
  6
CONTINUOUS
 62
     7
 10
-529.616237994772
 20
67.0670433044414
 30
0.0
 11
-529.616237994772
 21
71.692039489751
 31
0.0
  0
LINE
  5
   3F4
  8
0
  6
CONTINUOUS
 62
     7
 10
-527.816234943014
 20
67.0670433044414
 30
0.0
 11
-527.816234943014
 21
71.692039489751
 31
0.0
  0
LINE
  5
   3F5
  8
0
  6
CONTINUOUS
 62
     7
 10
-526.016239520651
 20
67.0670433044414
 30
0.0
 11
-526.016239520651
 21
71.692039489751
 31
0.0
  0
LINE
  5
   3F6
  8
0
  6
CONTINUOUS
 62
     7
 10
-524.216236468893
 20
67.0670433044414
 30
0.0
 11
-524.216236468893
 21
71.692039489751
 31
0.0
  0
LINE
  5
   3F7
  8
0
  6
CONTINUOUS
 62
     7
 10
-522.41624104653
 20
67.0670433044414
 30
0.0
 11
-522.41624104653
 21
71.692039489751
 31
0.0
  0
LINE
  5
   3F8
  8
0
  6
CONTINUOUS
 62
     7
 10
-520.616237994772
 20
67.0670433044414
 30
0.0
 11
-520.616237994772
 21
71.692039489751
 31
0.0
  0
LINE
  5
   3F9
  8
0
  6
CONTINUOUS
 62
     7
 10
-518.816234943014
 20
67.0670433044414
 30
0.0
 11
-518.816234943014
 21
71.692039489751
 31
0.0
  0
ARC
  5
   3FA
  8
0
  6
CONTINUOUS
 62
     7
 10
-586.816234943014
 20
71.067039489751
 30
0.0
 40
0.625
 50
89.9999999480344
 51
179.999999948034
  0
ARC
  5
   3FB
  8
0
  6
CONTINUOUS
 62
     7
 10
-518.066242887009
 20
71.067039489751
 30
0.0
 40
0.625
 50
360.000036000188
 51
449.999999948034
  0
LINE
  5
   3FC
  8
0
  6
CONTINUOUS
 62
     7
 10
-518.066242887009
 20
-15.8079605102588
 30
0.0
 11
-586.816234943014
 21
-15.8079605102588
 31
0.0
  0
LINE
  5
   3FD
  8
0
  6
CONTINUOUS
 62
     7
 10
-572.941226315336
 20
-1.30796813965836
 30
0.0
 11
-586.941234943014
 21
-1.30796813965836
 31
0.0
  0
LINE
  5
   3FE
  8
0
  6
CONTINUOUS
 62
     7
 10
-517.441234943028
 20
-15.1829605102588
 30
0.0
 11
-517.441234943028
 21
-13.4329547882099
 31
0.0
  0
LINE
  5
   3FF
  8
0
  6
CONTINUOUS
 62
     7
 10
-587.441234943014
 20
-15.1829605102588
 30
0.0
 11
-587.441234943014
 21
-1.80796813965338
 31
0.0
  0
LINE
  5
   400
  8
0
  6
CONTINUOUS
 62
     7
 10
-572.941226315336
 20
-1.80796813965337
 30
0.0
 11
-587.316234943014
 21
-1.80796813965337
 31
0.0
  0
LINE
  5
   401
  8
0
  6
CONTINUOUS
 62
     7
 10
-586.941234943014
 20
-1.80796813965838
 30
0.0
 11
-586.941234943014
 21
-1.30796813965838
 31
0.0
  0
LINE
  5
   402
  8
0
  6
CONTINUOUS
 62
     7
 10
-587.316234972816
 20
-1.80796813965337
 30
0.0
 11
-587.441234943014
 21
-1.80796813965337
 31
0.0
  0
LINE
  5
   403
  8
0
  6
CONTINUOUS
 62
     7
 10
-583.616234656912
 20
-15.8079605102588
 30
0.0
 11
-583.616234656912
 21
71.692039489751
 31
0.0
  0
LINE
  5
   404
  8
0
  6
CONTINUOUS
 62
     7
 10
-580.016234752279
 20
-15.8079605102588
 30
0.0
 11
-580.016234752279
 21
71.692039489751
 31
0.0
  0
LINE
  5
   405
  8
0
  6
CONTINUOUS
 62
     7
 10
-576.41624104653
 20
-15.8079605102588
 30
0.0
 11
-576.41624104653
 21
71.692039489751
 31
0.0
  0
LINE
  5
   406
  8
0
  6
CONTINUOUS
 62
     7
 10
-574.616237994772
 20
-15.8079605102588
 30
0.0
 11
-574.616237994772
 21
71.692039489751
 31
0.0
  0
LINE
  5
   407
  8
0
  6
CONTINUOUS
 62
     7
 10
-569.216236468893
 20
-15.8079605102588
 30
0.0
 11
-569.216236468893
 21
-13.4329547882099
 31
0.0
  0
LINE
  5
   408
  8
0
  6
CONTINUOUS
 62
     7
 10
-567.41624104653
 20
-15.8079605102588
 30
0.0
 11
-567.41624104653
 21
-13.4329547882099
 31
0.0
  0
LINE
  5
   409
  8
0
  6
CONTINUOUS
 62
     7
 10
-565.616237994772
 20
-15.8079605102588
 30
0.0
 11
-565.616237994772
 21
-13.4329547882099
 31
0.0
  0
LINE
  5
   40A
  8
0
  6
CONTINUOUS
 62
     7
 10
-563.816234943014
 20
-15.8079605102588
 30
0.0
 11
-563.816234943014
 21
-13.4329547882099
 31
0.0
  0
LINE
  5
   40B
  8
0
  6
CONTINUOUS
 62
     7
 10
-562.016239520651
 20
-15.8079605102588
 30
0.0
 11
-562.016239520651
 21
-13.4329547882099
 31
0.0
  0
LINE
  5
   40C
  8
0
  6
CONTINUOUS
 62
     7
 10
-560.216236468893
 20
-15.8079605102588
 30
0.0
 11
-560.216236468893
 21
-13.4329547882099
 31
0.0
  0
LINE
  5
   40D
  8
0
  6
CONTINUOUS
 62
     7
 10
-558.41624104653
 20
-15.8079605102588
 30
0.0
 11
-558.41624104653
 21
-13.4329547882099
 31
0.0
  0
LINE
  5
   40E
  8
0
  6
CONTINUOUS
 62
     7
 10
-556.616237994772
 20
-15.8079605102588
 30
0.0
 11
-556.616237994772
 21
-13.4329547882099
 31
0.0
  0
LINE
  5
   40F
  8
0
  6
CONTINUOUS
 62
     7
 10
-554.816234943014
 20
-15.8079605102588
 30
0.0
 11
-554.816234943014
 21
-13.4329547882099
 31
0.0
  0
LINE
  5
   410
  8
0
  6
CONTINUOUS
 62
     7
 10
-553.016239520651
 20
-15.8079605102588
 30
0.0
 11
-553.016239520651
 21
-13.4329547882099
 31
0.0
  0
LINE
  5
   411
  8
0
  6
CONTINUOUS
 62
     7
 10
-551.216236468893
 20
-15.8079605102588
 30
0.0
 11
-551.216236468893
 21
-13.4329547882099
 31
0.0
  0
LINE
  5
   412
  8
0
  6
CONTINUOUS
 62
     7
 10
-549.41624104653
 20
-15.8079605102588
 30
0.0
 11
-549.41624104653
 21
-13.4329547882099
 31
0.0
  0
LINE
  5
   413
  8
0
  6
CONTINUOUS
 62
     7
 10
-547.616237994772
 20
-15.8079605102588
 30
0.0
 11
-547.616237994772
 21
-13.4329547882099
 31
0.0
  0
LINE
  5
   414
  8
0
  6
CONTINUOUS
 62
     7
 10
-545.816234943014
 20
-15.8079605102588
 30
0.0
 11
-545.816234943014
 21
-13.4329547882099
 31
0.0
  0
LINE
  5
   415
  8
0
  6
CONTINUOUS
 62
     7
 10
-544.016239520651
 20
-15.8079605102588
 30
0.0
 11
-544.016239520651
 21
-13.4329547882099
 31
0.0
  0
LINE
  5
   416
  8
0
  6
CONTINUOUS
 62
     7
 10
-542.216236468893
 20
-15.8079605102588
 30
0.0
 11
-542.216236468893
 21
-13.4329547882099
 31
0.0
  0
LINE
  5
   417
  8
0
  6
CONTINUOUS
 62
     7
 10
-540.41624104653
 20
-15.8079605102588
 30
0.0
 11
-540.41624104653
 21
-13.4329547882099
 31
0.0
  0
LINE
  5
   418
  8
0
  6
CONTINUOUS
 62
     7
 10
-538.616237994772
 20
-15.8079605102588
 30
0.0
 11
-538.616237994772
 21
-13.4329547882099
 31
0.0
  0
LINE
  5
   419
  8
0
  6
CONTINUOUS
 62
     7
 10
-536.816234943014
 20
-15.8079605102588
 30
0.0
 11
-536.816234943014
 21
-13.4329547882099
 31
0.0
  0
LINE
  5
   41A
  8
0
  6
CONTINUOUS
 62
     7
 10
-535.016239520651
 20
-15.8079605102588
 30
0.0
 11
-535.016239520651
 21
-13.4329547882099
 31
0.0
  0
LINE
  5
   41B
  8
0
  6
CONTINUOUS
 62
     7
 10
-533.216236468893
 20
-15.8079605102588
 30
0.0
 11
-533.216236468893
 21
-13.4329547882099
 31
0.0
  0
LINE
  5
   41C
  8
0
  6
CONTINUOUS
 62
     7
 10
-531.41624104653
 20
-15.8079605102588
 30
0.0
 11
-531.41624104653
 21
-13.4329547882099
 31
0.0
  0
LINE
  5
   41D
  8
0
  6
CONTINUOUS
 62
     7
 10
-529.616237994772
 20
-15.8079605102588
 30
0.0
 11
-529.616237994772
 21
-13.4329547882099
 31
0.0
  0
LINE
  5
   41E
  8
0
  6
CONTINUOUS
 62
     7
 10
-527.816234943014
 20
-15.8079605102588
 30
0.0
 11
-527.816234943014
 21
-13.4329547882099
 31
0.0
  0
LINE
  5
   41F
  8
0
  6
CONTINUOUS
 62
     7
 10
-526.016239520651
 20
-15.8079605102588
 30
0.0
 11
-526.016239520651
 21
-13.4329547882099
 31
0.0
  0
LINE
  5
   420
  8
0
  6
CONTINUOUS
 62
     7
 10
-524.216236468893
 20
-15.8079605102588
 30
0.0
 11
-524.216236468893
 21
-13.4329547882099
 31
0.0
  0
LINE
  5
   421
  8
0
  6
CONTINUOUS
 62
     7
 10
-522.41624104653
 20
-15.8079605102588
 30
0.0
 11
-522.41624104653
 21
-13.4329547882099
 31
0.0
  0
LINE
  5
   422
  8
0
  6
CONTINUOUS
 62
     7
 10
-520.616237994772
 20
-15.8079605102588
 30
0.0
 11
-520.616237994772
 21
-13.4329547882099
 31
0.0
  0
LINE
  5
   423
  8
0
  6
CONTINUOUS
 62
     7
 10
-518.816234943014
 20
-15.8079605102588
 30
0.0
 11
-518.816234943014
 21
-13.4329547882099
 31
0.0
  0
ARC
  5
   424
  8
0
  6
CONTINUOUS
 62
     7
 10
-586.816234943014
 20
-15.1829605102588
 30
0.0
 40
0.625
 50
179.999999948034
 51
269.999999948034
  0
ARC
  5
   425
  8
0
  6
CONTINUOUS
 62
     7
 10
-518.066242887009
 20
-15.1829605102588
 30
0.0
 40
0.625
 50
269.999999948034
 51
359.99996389588
  0
LINE
  5
   426
  8
0
  6
DASHDOT
 62
     7
 10
-578.691202696246
 20
-27.6079526571567
 30
0.0
 11
-578.691202696246
 21
-21.5079561403444
 31
0.0
  0
LINE
  5
   427
  8
0
  6
DASHDOT
 62
     7
 10
-575.64120443784
 20
-24.5579543987506
 30
0.0
 11
-581.741200954652
 21
-24.5579543987506
 31
0.0
  0
LINE
  5
   428
  8
0
  6
DASHDOT
 62
     7
 10
-561.191202696246
 20
-27.6079526571567
 30
0.0
 11
-561.191202696246
 21
-21.5079561403444
 31
0.0
  0
LINE
  5
   429
  8
0
  6
DASHDOT
 62
     7
 10
-558.14120443784
 20
-24.5579543987506
 30
0.0
 11
-564.241200954652
 21
-24.5579543987506
 31
0.0
  0
LINE
  5
   42A
  8
0
  6
DASHDOT
 62
     7
 10
-543.691202696246
 20
-27.6079526571567
 30
0.0
 11
-543.691202696246
 21
-21.5079561403444
 31
0.0
  0
LINE
  5
   42B
  8
0
  6
DASHDOT
 62
     7
 10
-540.64120443784
 20
-24.5579543987506
 30
0.0
 11
-546.741200954652
 21
-24.5579543987506
 31
0.0
  0
LINE
  5
   42C
  8
0
  6
DASHDOT
 62
     7
 10
-526.191202696246
 20
-27.6079526571567
 30
0.0
 11
-526.191202696246
 21
-21.5079561403444
 31
0.0
  0
LINE
  5
   42D
  8
0
  6
DASHDOT
 62
     7
 10
-523.14120443784
 20
-24.5579543987506
 30
0.0
 11
-529.241200954652
 21
-24.5579543987506
 31
0.0
  0
LINE
  5
   42E
  8
0
  6
DASHDOT
 62
     7
 10
-526.191202696246
 20
77.3920351198366
 30
0.0
 11
-526.191202696246
 21
83.4920316366489
 31
0.0
  0
LINE
  5
   42F
  8
0
  6
DASHDOT
 62
     7
 10
-523.14120443784
 20
80.4420333782427
 30
0.0
 11
-529.241200954652
 21
80.4420333782427
 31
0.0
  0
LINE
  5
   430
  8
0
  6
DASHDOT
 62
     7
 10
-543.691202696246
 20
77.3920351198366
 30
0.0
 11
-543.691202696246
 21
83.4920316366489
 31
0.0
  0
LINE
  5
   431
  8
0
  6
DASHDOT
 62
     7
 10
-540.64120443784
 20
80.4420333782427
 30
0.0
 11
-546.741200954652
 21
80.4420333782427
 31
0.0
  0
LINE
  5
   432
  8
0
  6
DASHDOT
 62
     7
 10
-561.191202696246
 20
77.3920351198366
 30
0.0
 11
-561.191202696246
 21
83.4920316366489
 31
0.0
  0
LINE
  5
   433
  8
0
  6
DASHDOT
 62
     7
 10
-558.14120443784
 20
80.4420333782427
 30
0.0
 11
-564.241200954652
 21
80.4420333782427
 31
0.0
  0
LINE
  5
   434
  8
0
  6
DASHDOT
 62
     7
 10
-578.691202696246
 20
77.3920351198366
 30
0.0
 11
-578.691202696246
 21
83.4920316366489
 31
0.0
  0
LINE
  5
   435
  8
0
  6
DASHDOT
 62
     7
 10
-575.64120443784
 20
80.4420333782427
 30
0.0
 11
-581.741200954652
 21
80.4420333782427
 31
0.0
  0
LINE
  5
   436
  8
0
  6
DASHDOT
 62
     7
 10
-508.848646920166
 20
26.8170433044414
 30
0.0
 11
-596.218321387159
 21
26.8170433044414
 31
0.0
  0
LINE
  5
   437
  8
0
  6
CONTINUOUS
 62
     7
 10
-572.816234943014
 20
-15.8079605102588
 30
0.0
 11
-572.816234943014
 21
-13.1829432843628
 31
0.0
  0
LINE
  5
   438
  8
0
  6
CONTINUOUS
 62
     7
 10
-571.016239520651
 20
-15.8079605102588
 30
0.0
 11
-571.016239520651
 21
-13.4329547882099
 31
0.0
  0
INSERT
  5
   439
  8
255
  6
CONTINUOUS
 62
     7
  2
MOSTRINA
 10
-601.110354733304
 20
-28.1732673645039
 30
0.0
 41
0.5
 42
0.5
 50
3.50835464724173E-15
 43
0.5
  0
TEXT
  5
   43A
  8
0
  6
CONTINUOUS
 62
     7
 10
-501.26300811747
 20
10.2489290295863
 30
0.0
 40
3.00000002980232
  1
=          =
 50
89.9999999480344
 41
0.916666604744064
 72
     1
 11
-502.763008117676
 21
26.4739280939102
 31
0.0
 73
     2
  0
INSERT
  5
   43B
  8
0
  6
CONTINUOUS
 62
     7
  2
*UDIM555
 10
0.0
 20
0.0
 30
0.0
  0
INSERT
  5
   43C
  8
0
  6
CONTINUOUS
 62
     7
  2
*UDIM556
 10
0.0
 20
0.0
 30
0.0
  0
INSERT
  5
   43D
  8
0
  6
CONTINUOUS
 62
     7
  2
*UDIM557
 10
0.0
 20
0.0
 30
0.0
  0
INSERT
  5
   43E
  8
0
  6
CONTINUOUS
 62
     7
  2
*UDIM558
 10
0.0
 20
0.0
 30
0.0
  0
TEXT
  5
   43F
  8
0
  6
CONTINUOUS
 62
     7
 10
-560.146024625361
 20
93.3198936311934
 30
0.0
 40
3.00000002980232
  1
=          =
 50
359.999999948034
 41
0.916666604744064
 72
     2
 11
-527.69602649943
 21
93.3198936019252
 31
0.0
  0
INSERT
  5
   440
  8
0
  6
CONTINUOUS
 62
     7
  2
*UDIM559
 10
0.0
 20
0.0
 30
0.0
  0
INSERT
  5
   441
  8
0
  6
CONTINUOUS
 62
     7
  2
*UDIM560
 10
0.0
 20
0.0
 30
0.0
  0
INSERT
  5
   442
  8
0
  6
CONTINUOUS
 62
     7
  2
*UDIM561
 10
0.0
 20
0.0
 30
0.0
  0
INSERT
  5
   443
  8
0
  6
CONTINUOUS
 62
     7
  2
*UDIM562
 10
0.0
 20
0.0
 30
0.0
  0
INSERT
  5
   444
  8
0
  6
CONTINUOUS
 62
     7
  2
*UDIM563
 10
0.0
 20
0.0
 30
0.0
  0
INSERT
  5
   445
  8
0
  6
CONTINUOUS
 62
     7
  2
*UDIM564
 10
0.0
 20
0.0
 30
0.0
  0
INSERT
  5
   446
  8
0
  6
CONTINUOUS
 62
     7
  2
*UDIM565
 10
0.0
 20
0.0
 30
0.0
  0
INSERT
  5
   447
  8
0
  6
CONTINUOUS
 62
     7
  2
*UDIM566
 10
0.0
 20
0.0
 30
0.0
  0
INSERT
  5
   448
  8
0
  6
CONTINUOUS
 62
     7
  2
*UDIM567
 10
0.0
 20
0.0
 30
0.0
  0
INSERT
  5
   449
  8
0
  6
CONTINUOUS
 62
     7
  2
*UDIM568
 10
0.0
 20
0.0
 30
0.0
  0
INSERT
  5
   44A
  8
0
  6
CONTINUOUS
 62
     7
  2
*UDIM569
 10
0.0
 20
0.0
 30
0.0
  0
INSERT
  5
   44B
  8
0
  6
CONTINUOUS
 62
     7
  2
*UDIM570
 10
0.0
 20
0.0
 30
0.0
  0
TEXT
  5
   44C
  8
0
  6
CONTINUOUS
 62
     7
 10
-544.10508187549
 20
120.520890837105
 30
0.0
 40
3.00000002980232
  1
Y
 50
359.999999948034
 41
0.916666604744064
 72
     2
 11
-541.90508200662
 21
120.52089083512
 31
0.0
  0
TEXT
  5
   44D
  8
0
  6
CONTINUOUS
 62
     7
 10
-628.951490719484
 20
26.2153259567334
 30
0.0
 40
3.00000002980232
  1
X
 50
359.999999948034
 41
0.916666604744064
 72
     2
 11
-626.751490850615
 21
26.2153259547491
 31
0.0
  0
LINE
  5
   44E
  8
0
  6
CONTINUOUS
 62
     7
 10
-308.137023925781
 20
43.806037902832
 30
0.0
 11
-280.137023925781
 21
43.806037902832
 31
0.0
  0
LINE
  5
   44F
  8
0
  6
CONTINUOUS
 62
     7
 10
-308.137023925781
 20
71.806037902832
 30
0.0
 11
-280.137023925781
 21
71.806037902832
 31
0.0
  0
LINE
  5
   450
  8
0
  6
CONTINUOUS
 62
     7
 10
-308.137023925781
 20
71.806037902832
 30
0.0
 11
-308.137023925781
 21
43.806037902832
 31
0.0
  0
LINE
  5
   451
  8
0
  6
CONTINUOUS
 62
     7
 10
-280.137023925781
 20
71.806037902832
 30
0.0
 11
-280.137023925781
 21
43.806037902832
 31
0.0
  0
LINE
  5
   452
  8
0
  6
DASHDOT
 62
     7
 10
-294.137023925781
 20
90.2775055715855
 30
0.0
 11
-294.137023925781
 21
33.4342847910887
 31
0.0
  0
CIRCLE
  5
   453
  8
0
  6
CONTINUOUS
 62
     7
 10
-304.137023925781
 20
75.556037902832
 30
0.0
 40
0.875
  0
CIRCLE
  5
   454
  8
0
  6
CONTINUOUS
 62
     7
 10
-284.137023925781
 20
75.556037902832
 30
0.0
 40
0.875
  0
CIRCLE
  5
   455
  8
0
  6
CONTINUOUS
 62
     7
 10
-284.137023925781
 20
40.056037902832
 30
0.0
 40
0.875
  0
CIRCLE
  5
   456
  8
0
  6
CONTINUOUS
 62
     7
 10
-304.137023925781
 20
40.056037902832
 30
0.0
 40
0.875
  0
LINE
  5
   457
  8
0
  6
CONTINUOUS
 62
     3
 10
-312.101519595196
 20
77.9058382001233
 30
0.0
 11
-276.29815032521
 21
77.9058382001233
 31
0.0
  0
LINE
  5
   458
  8
0
  6
CONTINUOUS
 62
     3
 10
-312.101519595196
 20
36.7005570753681
 30
0.0
 11
-276.29815032521
 21
36.7005570753681
 31
0.0
  0
LINE
  5
   459
  8
0
  6
CONTINUOUS
 62
     3
 10
-276.29815032521
 20
77.9058382001233
 30
0.0
 11
-276.29815032521
 21
36.7005570753681
 31
0.0
  0
LINE
  5
   45A
  8
0
  6
CONTINUOUS
 62
     3
 10
-312.101519595196
 20
77.9058382001233
 30
0.0
 11
-312.101519595196
 21
36.7005570753681
 31
0.0
  0
LINE
  5
   45B
  8
0
  6
DASHDOT
 62
     7
 10
-284.137023925781
 20
77.181037902832
 30
0.0
 11
-284.137023925781
 21
73.931037902832
 31
0.0
  0
LINE
  5
   45C
  8
0
  6
DASHDOT
 62
     7
 10
-285.762023925781
 20
75.556037902832
 30
0.0
 11
-282.512023925781
 21
75.556037902832
 31
0.0
  0
LINE
  5
   45D
  8
0
  6
DASHDOT
 62
     7
 10
-304.137023925781
 20
77.181037902832
 30
0.0
 11
-304.137023925781
 21
73.931037902832
 31
0.0
  0
LINE
  5
   45E
  8
0
  6
DASHDOT
 62
     7
 10
-305.762023925781
 20
75.556037902832
 30
0.0
 11
-302.512023925781
 21
75.556037902832
 31
0.0
  0
LINE
  5
   45F
  8
0
  6
DASHDOT
 62
     7
 10
-304.137023925781
 20
41.681037902832
 30
0.0
 11
-304.137023925781
 21
38.431037902832
 31
0.0
  0
LINE
  5
   460
  8
0
  6
DASHDOT
 62
     7
 10
-305.762023925781
 20
40.056037902832
 30
0.0
 11
-302.512023925781
 21
40.056037902832
 31
0.0
  0
LINE
  5
   461
  8
0
  6
DASHDOT
 62
     7
 10
-284.137023925781
 20
41.681037902832
 30
0.0
 11
-284.137023925781
 21
38.431037902832
 31
0.0
  0
LINE
  5
   462
  8
0
  6
DASHDOT
 62
     7
 10
-285.762023925781
 20
40.056037902832
 30
0.0
 11
-282.512023925781
 21
40.056037902832
 31
0.0
  0
LINE
  5
   463
  8
0
  6
CONTINUOUS
 62
     7
 10
-308.137023925781
 20
43.806037902832
 30
0.0
 11
-280.137023925781
 21
43.806037902832
 31
0.0
  0
LINE
  5
   464
  8
0
  6
CONTINUOUS
 62
     7
 10
-308.137023925781
 20
71.806037902832
 30
0.0
 11
-280.137023925781
 21
71.806037902832
 31
0.0
  0
LINE
  5
   465
  8
0
  6
CONTINUOUS
 62
     7
 10
-308.137023925781
 20
71.806037902832
 30
0.0
 11
-308.137023925781
 21
43.806037902832
 31
0.0
  0
LINE
  5
   466
  8
0
  6
CONTINUOUS
 62
     7
 10
-280.137023925781
 20
71.806037902832
 30
0.0
 11
-280.137023925781
 21
43.806037902832
 31
0.0
  0
LINE
  5
   467
  8
0
  6
DASHDOT
 62
     7
 10
-294.137023925781
 20
90.2775055715855
 30
0.0
 11
-294.137023925781
 21
33.4342847910887
 31
0.0
  0
CIRCLE
  5
   468
  8
0
  6
CONTINUOUS
 62
     7
 10
-304.137023925781
 20
75.556037902832
 30
0.0
 40
0.875
  0
CIRCLE
  5
   469
  8
0
  6
CONTINUOUS
 62
     7
 10
-284.137023925781
 20
75.556037902832
 30
0.0
 40
0.875
  0
CIRCLE
  5
   46A
  8
0
  6
CONTINUOUS
 62
     7
 10
-284.137023925781
 20
40.056037902832
 30
0.0
 40
0.875
  0
CIRCLE
  5
   46B
  8
0
  6
CONTINUOUS
 62
     7
 10
-304.137023925781
 20
40.056037902832
 30
0.0
 40
0.875
  0
LINE
  5
   46C
  8
0
  6
CONTINUOUS
 62
     3
 10
-312.101519595196
 20
77.9058382001233
 30
0.0
 11
-276.29815032521
 21
77.9058382001233
 31
0.0
  0
LINE
  5
   46D
  8
0
  6
CONTINUOUS
 62
     3
 10
-312.101519595196
 20
36.7005570753681
 30
0.0
 11
-276.29815032521
 21
36.7005570753681
 31
0.0
  0
LINE
  5
   46E
  8
0
  6
CONTINUOUS
 62
     3
 10
-276.29815032521
 20
77.9058382001233
 30
0.0
 11
-276.29815032521
 21
36.7005570753681
 31
0.0
  0
LINE
  5
   46F
  8
0
  6
CONTINUOUS
 62
     3
 10
-312.101519595196
 20
77.9058382001233
 30
0.0
 11
-312.101519595196
 21
36.7005570753681
 31
0.0
  0
LINE
  5
   470
  8
0
  6
DASHDOT
 62
     7
 10
-284.137023925781
 20
77.181037902832
 30
0.0
 11
-284.137023925781
 21
73.931037902832
 31
0.0
  0
LINE
  5
   471
  8
0
  6
DASHDOT
 62
     7
 10
-285.762023925781
 20
75.556037902832
 30
0.0
 11
-282.512023925781
 21
75.556037902832
 31
0.0
  0
LINE
  5
   472
  8
0
  6
DASHDOT
 62
     7
 10
-304.137023925781
 20
77.181037902832
 30
0.0
 11
-304.137023925781
 21
73.931037902832
 31
0.0
  0
LINE
  5
   473
  8
0
  6
DASHDOT
 62
     7
 10
-305.762023925781
 20
75.556037902832
 30
0.0
 11
-302.512023925781
 21
75.556037902832
 31
0.0
  0
LINE
  5
   474
  8
0
  6
DASHDOT
 62
     7
 10
-304.137023925781
 20
41.681037902832
 30
0.0
 11
-304.137023925781
 21
38.431037902832
 31
0.0
  0
LINE
  5
   475
  8
0
  6
DASHDOT
 62
     7
 10
-305.762023925781
 20
40.056037902832
 30
0.0
 11
-302.512023925781
 21
40.056037902832
 31
0.0
  0
LINE
  5
   476
  8
0
  6
DASHDOT
 62
     7
 10
-284.137023925781
 20
41.681037902832
 30
0.0
 11
-284.137023925781
 21
38.431037902832
 31
0.0
  0
LINE
  5
   477
  8
0
  6
DASHDOT
 62
     7
 10
-285.762023925781
 20
40.056037902832
 30
0.0
 11
-282.512023925781
 21
40.056037902832
 31
0.0
  0
LINE
  5
   478
  8
0
  6
DASHDOT
 62
     7
 10
-318.825344605051
 20
57.806037902832
 30
0.0
 11
-269.335795977134
 21
57.806037902832
 31
0.0
  0
TEXT
  5
   479
  8
0
  6
CONTINUOUS
 62
     7
 10
-300.662166806164
 20
81.0622631941579
 30
0.0
 40
3.00000002980232
  1
=   =
 50
359.999999844103
 41
0.916666604744064
 72
     2
 11
-287.462167571091
 21
81.0622631583083
 31
0.0
  0
TEXT
  5
   47A
  8
0
  6
CONTINUOUS
 62
     7
 10
-304.094358338021
 20
86.9210544327387
 30
0.0
 40
3.00000002980232
  1
=     =
 50
359.999999844103
 41
0.916666604744064
 72
     2
 11
-285.394359419845
 21
86.9210543819516
 31
0.0
  0
TEXT
  5
   47B
  8
0
  6
CONTINUOUS
 62
     7
 10
-317.72251408972
 20
47.8890221763701
 30
0.0
 40
3.00000002980232
  1
=     =
 50
449.999999844103
 41
0.916666604744064
 72
     2
 11
-317.722514038956
 21
66.5890210945458
 31
0.0
  0
TEXT
  5
   47C
  8
0
  6
CONTINUOUS
 62
     7
 10
-326.751946386473
 20
48.9918530632109
 30
0.0
 40
3.00000002980232
  1
=     =
 50
449.999999844103
 41
0.916666604744064
 72
     2
 11
-326.751946335709
 21
67.6918519813866
 31
0.0
  0
INSERT
  5
   47D
  8
0
  6
CONTINUOUS
 62
     7
  2
*UDIM571
 10
0.0
 20
0.0
 30
0.0
  0
INSERT
  5
   47E
  8
0
  6
CONTINUOUS
 62
     7
  2
*UDIM572
 10
0.0
 20
0.0
 30
0.0
  0
INSERT
  5
   47F
  8
0
  6
CONTINUOUS
 62
     7
  2
*UDIM573
 10
0.0
 20
0.0
 30
0.0
  0
INSERT
  5
   480
  8
0
  6
CONTINUOUS
 62
     7
  2
*UDIM574
 10
0.0
 20
0.0
 30
0.0
  0
INSERT
  5
   481
  8
0
  6
CONTINUOUS
 62
     7
  2
*UDIM575
 10
0.0
 20
0.0
 30
0.0
  0
TEXT
  5
   482
  8
0
  6
CONTINUOUS
 62
     7
 10
-294.250238309406
 20
27.4737624430707
 30
0.0
 40
3.00000002980232
  1
Y
 50
359.999999844103
 41
0.916666604744064
 72
     2
 11
-292.050238440536
 21
27.4737624370958
 31
0.0
  0
TEXT
  5
   483
  8
0
  6
CONTINUOUS
 62
     7
 10
-338.343559155964
 20
56.8610275292447
 30
0.0
 40
3.00000002980232
  1
X
 50
359.999999844103
 41
0.916666604744064
 72
     2
 11
-336.143559287094
 21
56.8610275232698
 31
0.0
  0
INSERT
  5
   484
  8
0
  6
CONTINUOUS
 62
     7
  2
*UDIM576
 10
0.0
 20
0.0
 30
0.0
  0
INSERT
  5
   485
  8
0
  6
CONTINUOUS
 62
     7
  2
*UDIM577
 10
0.0
 20
0.0
 30
0.0
  0
INSERT
  5
   486
  8
0
  6
CONTINUOUS
 62
     7
  2
*UDIM578
 10
0.0
 20
0.0
 30
0.0
  0
INSERT
  5
   487
  8
0
  6
CONTINUOUS
 62
     7
  2
*UDIM579
 10
0.0
 20
0.0
 30
0.0
  0
TEXT
  5
   488
  8
0
  6
CONTINUOUS
 62
     7
 10
-295.379515300297
 20
98.8200644755414
 30
0.0
 40
3.00000002980232
  1
Y
 50
359.999999844103
 41
0.916666604744064
 72
     2
 11
-293.179515431427
 21
98.8200644695665
 31
0.0
  0
TEXT
  5
   489
  8
0
  6
CONTINUOUS
 62
     7
 10
-268.570522199177
 20
56.1107088828138
 30
0.0
 40
3.00000002980232
  1
X
 50
359.999999844103
 41
0.916666604744064
 72
     2
 11
-266.370522330307
 21
56.1107088768388
 31
0.0
  0
TEXT
  5
   48A
  8
0
  6
CONTINUOUS
 62
     7
 10
-338.343559155964
 20
56.8610275292447
 30
0.0
 40
3.00000002980232
  1
X
 50
359.999999844103
 41
0.916666604744064
 72
     2
 11
-336.143559287094
 21
56.8610275232698
 31
0.0
  0
ENDSEC
  0
EOF
