  0
SECTION
  2
HEADER
  9
$ACADVER
  1
AC1009
  9
$INSBASE
 10
0.0
 20
0.0
 30
0.0
  9
$EXTMIN
 10
128.6071
 20
152.1443
 30
0.0
  9
$EXTMAX
 10
2403.582
 20
1619.781
 30
0.0
  9
$LIMMIN
 10
0.0
 20
0.0
  9
$LIMMAX
 10
12.0
 20
9.0
  9
$ORTHOMODE
 70
     0
  9
$REGENMODE
 70
     1
  9
$FILLMODE
 70
     1
  9
$QTEXTMODE
 70
     0
  9
$MIRRTEXT
 70
     1
  9
$DRAGMODE
 70
     2
  9
$LTSCALE
 40
20.0
  9
$OSMODE
 70
  1023
  9
$ATTMODE
 70
     1
  9
$TEXTSIZE
 40
0.2
  9
$TRACEWID
 40
0.05
  9
$TEXTSTYLE
  7
STANDARD
  9
$CLAYER
  8
0
  9
$CELTYPE
  6
CONTINUOUS
  9
$CECOLOR
 62
   256
  9
$DIMSCALE
 40
1.0
  9
$DIMASZ
 40
10.0
  9
$DIMEXO
 40
0.0625
  9
$DIMDLI
 40
0.38
  9
$DIMRND
 40
0.0
  9
$DIMDLE
 40
0.0
  9
$DIMEXE
 40
0.18
  9
$DIMTP
 40
0.0
  9
$DIMTM
 40
0.0
  9
$DIMTXT
 40
10.0
  9
$DIMCEN
 40
0.09
  9
$DIMTSZ
 40
0.0
  9
$DIMTOL
 70
     0
  9
$DIMLIM
 70
     0
  9
$DIMTIH
 70
     1
  9
$DIMTOH
 70
     1
  9
$DIMSE1
 70
     0
  9
$DIMSE2
 70
     0
  9
$DIMTAD
 70
     0
  9
$DIMZIN
 70
     0
  9
$DIMBLK
  1

  9
$DIMASO
 70
     1
  9
$DIMSHO
 70
     1
  9
$DIMPOST
  1

  9
$DIMAPOST
  1

  9
$DIMALT
 70
     0
  9
$DIMALTD
 70
     2
  9
$DIMALTF
 40
25.4
  9
$DIMLFAC
 40
1.0
  9
$DIMTOFL
 70
     0
  9
$DIMTVP
 40
0.0
  9
$DIMTIX
 70
     0
  9
$DIMSOXD
 70
     0
  9
$DIMSAH
 70
     0
  9
$DIMBLK1
  1

  9
$DIMBLK2
  1

  9
$DIMSTYLE
  2
STANDARD
  9
$DIMCLRD
 70
     1
  9
$DIMCLRE
 70
     1
  9
$DIMCLRT
 70
     1
  9
$DIMTFAC
 40
1.0
  9
$DIMGAP
 40
10.0
  9
$LUNITS
 70
     2
  9
$LUPREC
 70
     4
  9
$SKETCHINC
 40
0.1
  9
$FILLETRAD
 40
0.0
  9
$AUNITS
 70
     0
  9
$AUPREC
 70
     0
  9
$MENU
  1
acad
  9
$ELEVATION
 40
0.0
  9
$PELEVATION
 40
0.0
  9
$THICKNESS
 40
0.0
  9
$LIMCHECK
 70
     0
  9
$BLIPMODE
 70
     0
  9
$CHAMFERA
 40
0.0
  9
$CHAMFERB
 40
0.0
  9
$SKPOLY
 70
     0
  9
$TDCREATE
 40
2452054.558737
  9
$TDUPDATE
 40
2452058.374434
  9
$TDINDWG
 40
0.009257
  9
$TDUSRTIMER
 40
0.009257
  9
$USRTIMER
 70
     1
  9
$ANGBASE
 50
0.0
  9
$ANGDIR
 70
     0
  9
$PDMODE
 70
     0
  9
$PDSIZE
 40
0.0
  9
$PLINEWID
 40
0.0
  9
$COORDS
 70
     1
  9
$SPLFRAME
 70
     0
  9
$SPLINETYPE
 70
     6
  9
$SPLINESEGS
 70
     8
  9
$ATTDIA
 70
     0
  9
$ATTREQ
 70
     1
  9
$HANDLING
 70
     1
  9
$HANDSEED
  5
69E
  9
$SURFTAB1
 70
     6
  9
$SURFTAB2
 70
     6
  9
$SURFTYPE
 70
     6
  9
$SURFU
 70
     6
  9
$SURFV
 70
     6
  9
$UCSNAME
  2

  9
$UCSORG
 10
0.0
 20
0.0
 30
0.0
  9
$UCSXDIR
 10
1.0
 20
0.0
 30
0.0
  9
$UCSYDIR
 10
0.0
 20
1.0
 30
0.0
  9
$PUCSNAME
  2

  9
$PUCSORG
 10
0.0
 20
0.0
 30
0.0
  9
$PUCSXDIR
 10
1.0
 20
0.0
 30
0.0
  9
$PUCSYDIR
 10
0.0
 20
1.0
 30
0.0
  9
$USERI1
 70
     0
  9
$USERI2
 70
     0
  9
$USERI3
 70
     0
  9
$USERI4
 70
     0
  9
$USERI5
 70
     0
  9
$USERR1
 40
0.0
  9
$USERR2
 40
0.0
  9
$USERR3
 40
0.0
  9
$USERR4
 40
0.0
  9
$USERR5
 40
0.0
  9
$WORLDVIEW
 70
     1
  9
$SHADEDGE
 70
     3
  9
$SHADEDIF
 70
    70
  9
$TILEMODE
 70
     1
  9
$MAXACTVP
 70
    48
  9
$PLIMCHECK
 70
     0
  9
$PEXTMIN
 10
1.000000E+020
 20
1.000000E+020
 30
1.000000E+020
  9
$PEXTMAX
 10
-1.000000E+020
 20
-1.000000E+020
 30
-1.000000E+020
  9
$PLIMMIN
 10
0.0
 20
0.0
  9
$PLIMMAX
 10
12.0
 20
9.0
  9
$UNITMODE
 70
     0
  9
$VISRETAIN
 70
     1
  9
$PLINEGEN
 70
     0
  9
$PSLTSCALE
 70
     1
  0
ENDSEC
  0
SECTION
  2
TABLES
  0
TABLE
  2
VPORT
 70
     2
  0
VPORT
  2
*ACTIVE
 70
     0
 10
0.0
 20
0.0
 11
1.0
 21
1.0
 12
1266.09455
 22
949.226564
 13
0.0
 23
0.0
 14
1.0
 24
1.0
 15
0.0
 25
0.0
 16
0.0
 26
0.0
 36
1.0
 17
0.0
 27
0.0
 37
0.0
 40
1604.439698
 41
1.679787
 42
50.0
 43
0.0
 44
0.0
 50
0.0
 51
0.0
 71
     0
 72
   100
 73
     1
 74
     1
 75
     0
 76
     0
 77
     0
 78
     0
  0
ENDTAB
  0
TABLE
  2
LTYPE
 70
     3
  0
LTYPE
  2
CONTINUOUS
 70
     0
  3
Solid line
 72
    65
 73
     0
 40
0.0
  0
LTYPE
  2
CENTER
 70
     0
  3
____ _ ____ _ ____ _ ____ _ ____ _ ____
 72
    65
 73
     4
 40
2.0
 49
1.25
 49
-0.25
 49
0.25
 49
-0.25
  0
LTYPE
  2
DASHED
 70
     0
  3
_ _ _ _ _ _ _ _ _ _ _ _ _ _ _ _ _ _ _ _ _
 72
    65
 73
     2
 40
0.75
 49
0.5
 49
-0.25
  0
ENDTAB
  0
TABLE
  2
LAYER
 70
     5
  0
LAYER
  2
0
 70
     0
 62
     7
  6
CONTINUOUS
  0
LAYER
  2
5
 70
     0
 62
     7
  6
CONTINUOUS
  0
LAYER
  2
6
 70
     0
 62
     5
  6
CENTER
  0
LAYER
  2
7
 70
     0
 62
     3
  6
DASHED
  0
LAYER
  2
BYLAYER
 70
     0
 62
     7
  6
CONTINUOUS
  0
ENDTAB
  0
TABLE
  2
STYLE
 70
     1
  0
STYLE
  2
STANDARD
 70
     0
 40
0.0
 41
1.0
 50
0.0
 71
     0
 42
0.2
  3
txt
  4

  0
ENDTAB
  0
TABLE
  2
VIEW
 70
     0
  0
ENDTAB
  0
TABLE
  2
UCS
 70
     0
  0
ENDTAB
  0
TABLE
  2
APPID
 70
     1
  0
APPID
  2
ACAD
 70
     0
  0
ENDTAB
  0
TABLE
  2
DIMSTYLE
 70
     1
  0
DIMSTYLE
  2
STANDARD
 70
     0
  3

  4

  5

  6

  7

 40
1.0
 41
0.18
 42
0.0625
 43
0.38
 44
0.18
 45
0.0
 46
0.0
 47
0.0
 48
0.0
140
0.18
141
0.09
142
0.0
143
25.4
144
1.0
145
0.0
146
1.0
147
0.09
 71
     0
 72
     0
 73
     1
 74
     1
 75
     0
 76
     0
 77
     0
 78
     0
170
     0
171
     2
172
     0
173
     0
174
     0
175
     0
176
     0
177
     0
178
     0
  0
ENDTAB
  0
ENDSEC
  0
SECTION
  2
BLOCKS
  0
BLOCK
  8
0
  2
$MODEL_SPACE
 70
     0
 10
0.0
 20
0.0
 30
0.0
  3
$MODEL_SPACE
  1

  0
ENDBLK
  5
1A
  8
0
  0
BLOCK
 67
     1
  8
0
  2
$PAPER_SPACE
 70
     0
 10
0.0
 20
0.0
 30
0.0
  3
$PAPER_SPACE
  1

  0
ENDBLK
  5
17
 67
     1
  8
0
  0
BLOCK
  8
0
  2
A$C05293501
 70
     0
 10
0.0
 20
0.0
 30
0.0
  3
A$C05293501
  1

  0
LINE
  5
65B
  8
5
  6
CONTINUOUS
 10
60.4918
 20
70.750001
 30
0.0
 11
60.4918
 21
0.000001
 31
0.0
  0
LINE
  5
65C
  8
5
  6
CENTER
 10
60.4918
 20
70.750001
 30
0.0
 11
60.4918
 21
0.000001
 31
0.0
  0
LINE
  5
65D
  8
5
  6
CONTINUOUS
 10
50.4918
 20
70.750001
 30
0.0
 11
50.4918
 21
0.000001
 31
0.0
  0
LINE
  5
65E
  8
5
  6
CENTER
 10
50.4918
 20
70.750001
 30
0.0
 11
50.4918
 21
0.000001
 31
0.0
  0
LINE
  5
65F
  8
5
  6
CONTINUOUS
 10
40.4918
 20
70.750001
 30
0.0
 11
40.4918
 21
0.000001
 31
0.0
  0
LINE
  5
660
  8
5
  6
CENTER
 10
40.4918
 20
70.750001
 30
0.0
 11
40.4918
 21
0.000001
 31
0.0
  0
LINE
  5
661
  8
5
  6
CONTINUOUS
 10
30.4918
 20
70.750001
 30
0.0
 11
30.4918
 21
0.000001
 31
0.0
  0
LINE
  5
662
  8
5
  6
CENTER
 10
30.4918
 20
70.750001
 30
0.0
 11
30.4918
 21
0.000001
 31
0.0
  0
LINE
  5
663
  8
5
  6
CONTINUOUS
 10
20.4918
 20
70.750001
 30
0.0
 11
20.4918
 21
13.187001
 31
0.0
  0
LINE
  5
664
  8
5
  6
CENTER
 10
20.4918
 20
70.750001
 30
0.0
 11
20.4918
 21
12.818001
 31
0.0
  0
LINE
  5
665
  8
5
  6
CONTINUOUS
 10
10.4918
 20
70.750001
 30
0.0
 11
10.4918
 21
35.248001
 31
0.0
  0
LINE
  5
666
  8
5
  6
CENTER
 10
10.4918
 20
70.750001
 30
0.0
 11
10.4918
 21
35.248001
 31
0.0
  0
LINE
  5
667
  8
5
  6
CONTINUOUS
 10
0.7536
 20
40.776001
 30
0.0
 11
70.6364
 21
40.776001
 31
0.0
  0
LINE
  5
668
  8
5
  6
CONTINUOUS
 10
0.0
 20
40.776001
 30
0.0
 11
70.6364
 21
40.776001
 31
0.0
  0
LINE
  5
669
  8
5
  6
CONTINUOUS
 10
10.8588
 20
30.776001
 30
0.0
 11
70.6364
 21
30.776001
 31
0.0
  0
LINE
  5
66A
  8
5
  6
CONTINUOUS
 10
6.8688
 20
30.776001
 30
0.0
 11
70.6364
 21
30.776001
 31
0.0
  0
LINE
  5
66B
  8
5
  6
CONTINUOUS
 10
10.4918
 20
20.776001
 30
0.0
 11
70.6364
 21
20.776001
 31
0.0
  0
LINE
  5
66C
  8
5
  6
CONTINUOUS
 10
10.4918
 20
20.776001
 30
0.0
 11
70.6364
 21
20.776001
 31
0.0
  0
LINE
  5
66D
  8
5
  6
CONTINUOUS
 10
23.4865
 20
10.776001
 30
0.0
 11
70.6364
 21
10.776001
 31
0.0
  0
LINE
  5
66E
  8
5
  6
CONTINUOUS
 10
22.9952
 20
10.776001
 30
0.0
 11
70.6364
 21
10.776001
 31
0.0
  0
LINE
  5
66F
  8
5
  6
CONTINUOUS
 10
1.2561
 20
60.776001
 30
0.0
 11
70.6364
 21
60.776001
 31
0.0
  0
LINE
  5
670
  8
5
  6
CONTINUOUS
 10
1.2561
 20
60.776001
 30
0.0
 11
70.6364
 21
60.776001
 31
0.0
  0
LINE
  5
671
  8
5
  6
CONTINUOUS
 10
0.2512
 20
50.776001
 30
0.0
 11
70.6364
 21
50.776001
 31
0.0
  0
LINE
  5
672
  8
5
  6
CONTINUOUS
 10
0.2512
 20
50.776001
 30
0.0
 11
70.6364
 21
50.776001
 31
0.0
  0
ENDBLK
  5
674
  8
0
  0
BLOCK
  8
0
  2
A$C27E33DB7
 70
     0
 10
0.0
 20
0.0
 30
0.0
  3
A$C27E33DB7
  1

  0
INSERT
  5
676
  8
0
  6
CONTINUOUS
  2
A$C05293501
 10
0.0
 20
-0.000001
 30
0.0
  0
ENDBLK
  5
678
  8
0
  0
ENDSEC
  0
SECTION
  2
ENTITIES
  0
LINE
  5
25
  8
5
  6
CONTINUOUS
 10
1404.019
 20
1074.181
 30
0.0
 11
968.0193
 21
1074.181
 31
0.0
  0
LINE
  5
26
  8
5
  6
CONTINUOUS
 10
977.3338
 20
1414.198
 30
0.0
 11
979.3796
 21
1472.781
 31
0.0
  0
LINE
  5
27
  8
5
  6
CONTINUOUS
 10
1404.032
 20
1463.682
 30
0.0
 11
1406.239
 21
1446.456
 31
0.0
  0
LINE
  5
28
  8
5
  6
CONTINUOUS
 10
1408.464
 20
1429.081
 30
0.0
 11
1406.239
 21
1446.456
 31
0.0
  0
LINE
  5
29
  8
5
  6
CONTINUOUS
 10
1404.019
 20
1463.781
 30
0.0
 11
1404.032
 21
1463.682
 31
0.0
  0
LINE
  5
2A
  8
5
  6
CONTINUOUS
 10
1410.0
 20
1417.094
 30
0.0
 11
1408.464
 21
1429.081
 31
0.0
  0
LINE
  5
2B
  8
5
  6
CONTINUOUS
 10
1257.539
 20
1446.432
 30
0.0
 11
1278.897
 21
1463.682
 31
0.0
  0
LINE
  5
2C
  8
5
  6
CONTINUOUS
 10
1278.897
 20
1463.682
 30
0.0
 11
1279.019
 21
1463.781
 31
0.0
  0
LINE
  5
2D
  8
5
  6
CONTINUOUS
 10
1253.019
 20
1442.781
 30
0.0
 11
1257.539
 21
1446.432
 31
0.0
  0
LINE
  5
2E
  8
5
  6
CONTINUOUS
 10
1279.019
 20
1463.781
 30
0.0
 11
1404.019
 21
1463.781
 31
0.0
  0
LINE
  5
2F
  8
5
  6
CONTINUOUS
 10
1406.235
 20
1091.581
 30
0.0
 11
1406.242
 21
1091.53
 31
0.0
  0
LINE
  5
30
  8
5
  6
CONTINUOUS
 10
1406.242
 20
1356.032
 30
0.0
 11
1406.235
 21
1355.981
 31
0.0
  0
LINE
  5
31
  8
5
  6
CONTINUOUS
 10
965.7967
 20
1091.53
 30
0.0
 11
965.8033
 21
1091.581
 31
0.0
  0
LINE
  5
32
  8
5
  6
CONTINUOUS
 10
965.8031
 20
1355.981
 30
0.0
 11
965.7967
 21
1356.032
 31
0.0
  0
LINE
  5
33
  8
5
  6
CONTINUOUS
 10
1253.019
 20
1429.281
 30
0.0
 11
1253.019
 21
1383.721
 31
0.0
  0
LINE
  5
34
  8
5
  6
CONTINUOUS
 10
1253.019
 20
1429.281
 30
0.0
 11
1253.019
 21
1442.781
 31
0.0
  0
LINE
  5
35
  8
5
  6
CONTINUOUS
 10
968.0193
 20
1373.381
 30
0.0
 11
1404.019
 21
1373.381
 31
0.0
  0
LINE
  5
36
  8
5
  6
CONTINUOUS
 10
1406.248
 20
1355.981
 30
0.0
 11
1408.49
 21
1338.481
 31
0.0
  0
LINE
  5
37
  8
5
  6
CONTINUOUS
 10
1408.49
 20
1338.481
 30
0.0
 11
1410.0
 21
1326.694
 31
0.0
  0
LINE
  5
38
  8
5
  6
CONTINUOUS
 10
1404.019
 20
1373.381
 30
0.0
 11
1406.242
 21
1356.032
 31
0.0
  0
LINE
  5
39
  8
5
  6
CONTINUOUS
 10
1408.49
 20
1109.081
 30
0.0
 11
1410.0
 21
1120.868
 31
0.0
  0
LINE
  5
3A
  8
5
  6
CONTINUOUS
 10
1406.242
 20
1091.53
 30
0.0
 11
1404.019
 21
1074.181
 31
0.0
  0
LINE
  5
3B
  8
5
  6
CONTINUOUS
 10
1406.248
 20
1091.581
 30
0.0
 11
1408.49
 21
1109.081
 31
0.0
  0
LINE
  5
3C
  8
5
  6
CONTINUOUS
 10
965.7903
 20
1355.981
 30
0.0
 11
963.5485
 21
1338.481
 31
0.0
  0
LINE
  5
3D
  8
5
  6
CONTINUOUS
 10
963.5485
 20
1338.481
 30
0.0
 11
962.0385
 21
1326.694
 31
0.0
  0
LINE
  5
3E
  8
5
  6
CONTINUOUS
 10
965.7967
 20
1356.032
 30
0.0
 11
968.0193
 21
1373.381
 31
0.0
  0
LINE
  5
3F
  8
5
  6
CONTINUOUS
 10
963.5485
 20
1109.081
 30
0.0
 11
962.0385
 21
1120.868
 31
0.0
  0
LINE
  5
40
  8
5
  6
CONTINUOUS
 10
968.0193
 20
1074.181
 30
0.0
 11
965.7967
 21
1091.53
 31
0.0
  0
LINE
  5
41
  8
5
  6
CONTINUOUS
 10
965.7903
 20
1091.581
 30
0.0
 11
963.5485
 21
1109.081
 31
0.0
  0
LINE
  5
42
  8
5
  6
CONTINUOUS
 10
1540.519
 20
1102.728
 30
0.0
 11
1540.519
 21
1344.834
 31
0.0
  0
LINE
  5
43
  8
5
  6
CONTINUOUS
 10
1540.519
 20
1102.728
 30
0.0
 11
1540.519
 21
991.2809
 31
0.0
  0
LINE
  5
44
  8
5
  6
CONTINUOUS
 10
1540.519
 20
1456.281
 30
0.0
 11
1540.519
 21
1344.834
 31
0.0
  0
LINE
  5
45
  8
5
  6
CONTINUOUS
 10
1613.519
 20
1363.781
 30
0.0
 11
1613.519
 21
1083.781
 31
0.0
  0
LINE
  5
46
  8
5
  6
CONTINUOUS
 10
1472.019
 20
988.2809
 30
0.0
 11
1421.019
 21
988.2809
 31
0.0
  0
LINE
  5
47
  8
5
  6
CONTINUOUS
 10
1472.019
 20
1459.281
 30
0.0
 11
1411.519
 21
1459.281
 31
0.0
  0
LINE
  5
48
  8
5
  6
CONTINUOUS
 10
1472.019
 20
1456.281
 30
0.0
 11
1540.519
 21
1456.281
 31
0.0
  0
LINE
  5
49
  8
5
  6
CONTINUOUS
 10
1472.019
 20
991.2809
 30
0.0
 11
1540.519
 21
991.2809
 31
0.0
  0
LINE
  5
4A
  8
5
  6
CONTINUOUS
 10
1472.019
 20
1101.485
 30
0.0
 11
1472.019
 21
988.2809
 31
0.0
  0
LINE
  5
4B
  8
5
  6
CONTINUOUS
 10
1472.019
 20
1459.281
 30
0.0
 11
1472.019
 21
1346.077
 31
0.0
  0
LINE
  5
4C
  8
5
  6
CONTINUOUS
 10
1472.019
 20
1101.485
 30
0.0
 11
1472.019
 21
1346.077
 31
0.0
  0
LINE
  5
4D
  8
5
  6
CONTINUOUS
 10
1411.519
 20
1346.077
 30
0.0
 11
1411.519
 21
1101.485
 31
0.0
  0
LINE
  5
4E
  8
5
  6
CONTINUOUS
 10
1411.519
 20
1346.077
 30
0.0
 11
1411.519
 21
1459.281
 31
0.0
  0
LINE
  5
4F
  8
5
  6
CONTINUOUS
 10
1411.519
 20
1003.781
 30
0.0
 11
1411.519
 21
1101.485
 31
0.0
  0
LINE
  5
50
  8
5
  6
CONTINUOUS
 10
1219.659
 20
1472.781
 30
0.0
 11
1221.705
 21
1414.198
 31
0.0
  0
LINE
  5
51
  8
5
  6
CONTINUOUS
 10
993.388
 20
1472.781
 30
0.0
 11
991.0322
 21
1405.318
 31
0.0
  0
LINE
  5
52
  8
5
  6
CONTINUOUS
 10
1404.032
 20
1463.682
 30
0.0
 11
1278.897
 21
1463.682
 31
0.0
  0
LINE
  5
53
  8
5
  6
CONTINUOUS
 10
1257.539
 20
1446.432
 30
0.0
 11
1406.235
 21
1446.432
 31
0.0
  0
LINE
  5
54
  8
5
  6
CONTINUOUS
 10
1406.239
 20
1446.456
 30
0.0
 11
1406.235
 21
1446.432
 31
0.0
  0
LINE
  5
55
  8
5
  6
CONTINUOUS
 10
1404.019
 20
1429.281
 30
0.0
 11
1383.799
 21
1429.281
 31
0.0
  0
LINE
  5
56
  8
5
  6
CONTINUOUS
 10
1289.239
 20
1429.281
 30
0.0
 11
1253.019
 21
1429.281
 31
0.0
  0
LINE
  5
57
  8
5
  6
CONTINUOUS
 10
1406.235
 20
1446.432
 30
0.0
 11
1404.019
 21
1429.281
 31
0.0
  0
LINE
  5
58
  8
5
  6
CONTINUOUS
 10
1406.235
 20
1091.581
 30
0.0
 11
965.8033
 21
1091.581
 31
0.0
  0
LINE
  5
59
  8
5
  6
CONTINUOUS
 10
1404.019
 20
1108.681
 30
0.0
 11
1406.235
 21
1091.581
 31
0.0
  0
LINE
  5
5A
  8
5
  6
CONTINUOUS
 10
968.0193
 20
1108.681
 30
0.0
 11
1404.019
 21
1108.681
 31
0.0
  0
LINE
  5
5B
  8
5
  6
CONTINUOUS
 10
965.8033
 20
1091.581
 30
0.0
 11
968.0193
 21
1108.681
 31
0.0
  0
LINE
  5
5C
  8
5
  6
CONTINUOUS
 10
1406.235
 20
1355.981
 30
0.0
 11
965.8031
 21
1355.981
 31
0.0
  0
LINE
  5
5D
  8
5
  6
CONTINUOUS
 10
968.0193
 20
1338.481
 30
0.0
 11
965.8031
 21
1355.981
 31
0.0
  0
LINE
  5
5E
  8
5
  6
CONTINUOUS
 10
1404.019
 20
1338.481
 30
0.0
 11
968.0193
 21
1338.481
 31
0.0
  0
LINE
  5
5F
  8
5
  6
CONTINUOUS
 10
1406.235
 20
1355.981
 30
0.0
 11
1404.019
 21
1338.481
 31
0.0
  0
LINE
  5
60
  8
5
  6
CONTINUOUS
 10
1404.019
 20
1338.481
 30
0.0
 11
1408.49
 21
1338.481
 31
0.0
  0
LINE
  5
62
  8
5
  6
CONTINUOUS
 10
1404.019
 20
1108.681
 30
0.0
 11
1404.019
 21
1109.081
 31
0.0
  0
LINE
  5
63
  8
5
  6
CONTINUOUS
 10
1406.709
 20
1223.781
 30
0.0
 11
1404.019
 21
1223.781
 31
0.0
  0
LINE
  5
64
  8
5
  6
CONTINUOUS
 10
1404.019
 20
1206.481
 30
0.0
 11
1404.019
 21
1223.781
 31
0.0
  0
LINE
  5
65
  8
5
  6
CONTINUOUS
 10
1404.019
 20
1206.481
 30
0.0
 11
1406.797
 21
1206.481
 31
0.0
  0
LINE
  5
66
  8
5
  6
CONTINUOUS
 10
1407.06
 20
1258.281
 30
0.0
 11
1404.019
 21
1258.281
 31
0.0
  0
LINE
  5
67
  8
5
  6
CONTINUOUS
 10
1404.019
 20
1241.081
 30
0.0
 11
1404.019
 21
1258.281
 31
0.0
  0
LINE
  5
68
  8
5
  6
CONTINUOUS
 10
1404.019
 20
1241.081
 30
0.0
 11
1406.797
 21
1241.081
 31
0.0
  0
LINE
  5
69
  8
5
  6
CONTINUOUS
 10
1407.95
 20
1288.181
 30
0.0
 11
1404.019
 21
1288.181
 31
0.0
  0
LINE
  5
6A
  8
5
  6
CONTINUOUS
 10
1404.019
 20
1273.281
 30
0.0
 11
1404.019
 21
1288.181
 31
0.0
  0
LINE
  5
6B
  8
5
  6
CONTINUOUS
 10
1404.019
 20
1273.281
 30
0.0
 11
1407.435
 21
1273.281
 31
0.0
  0
LINE
  5
6C
  8
5
  6
CONTINUOUS
 10
1409.573
 20
1320.181
 30
0.0
 11
1404.019
 21
1320.181
 31
0.0
  0
LINE
  5
6D
  8
5
  6
CONTINUOUS
 10
1404.019
 20
1303.181
 30
0.0
 11
1404.019
 21
1320.181
 31
0.0
  0
LINE
  5
6E
  8
5
  6
CONTINUOUS
 10
1404.019
 20
1303.181
 30
0.0
 11
1408.618
 21
1303.181
 31
0.0
  0
LINE
  5
6F
  8
5
  6
CONTINUOUS
 10
1407.06
 20
1189.281
 30
0.0
 11
1404.019
 21
1189.281
 31
0.0
  0
LINE
  5
70
  8
5
  6
CONTINUOUS
 10
1404.019
 20
1174.381
 30
0.0
 11
1404.019
 21
1189.281
 31
0.0
  0
LINE
  5
71
  8
5
  6
CONTINUOUS
 10
1404.019
 20
1174.381
 30
0.0
 11
1407.432
 21
1174.381
 31
0.0
  0
LINE
  5
72
  8
5
  6
CONTINUOUS
 10
1407.95
 20
1159.381
 30
0.0
 11
1404.019
 21
1159.381
 31
0.0
  0
LINE
  5
73
  8
5
  6
CONTINUOUS
 10
1404.019
 20
1144.381
 30
0.0
 11
1404.019
 21
1159.381
 31
0.0
  0
LINE
  5
74
  8
5
  6
CONTINUOUS
 10
1404.019
 20
1144.381
 30
0.0
 11
1408.618
 21
1144.381
 31
0.0
  0
LINE
  5
75
  8
5
  6
CONTINUOUS
 10
1409.573
 20
1127.381
 30
0.0
 11
1404.019
 21
1127.381
 31
0.0
  0
LINE
  5
76
  8
5
  6
CONTINUOUS
 10
1404.019
 20
1109.081
 30
0.0
 11
1404.019
 21
1127.381
 31
0.0
  0
LINE
  5
77
  8
5
  6
CONTINUOUS
 10
1404.019
 20
1189.281
 30
0.0
 11
1404.019
 21
1206.481
 31
0.0
  0
LINE
  5
78
  8
5
  6
CONTINUOUS
 10
1404.019
 20
1223.781
 30
0.0
 11
1404.019
 21
1241.081
 31
0.0
  0
LINE
  5
79
  8
5
  6
CONTINUOUS
 10
1404.019
 20
1258.281
 30
0.0
 11
1404.019
 21
1273.281
 31
0.0
  0
LINE
  5
7A
  8
5
  6
CONTINUOUS
 10
1404.019
 20
1288.181
 30
0.0
 11
1404.019
 21
1303.181
 31
0.0
  0
LINE
  5
7B
  8
5
  6
CONTINUOUS
 10
1404.019
 20
1320.181
 30
0.0
 11
1404.019
 21
1338.481
 31
0.0
  0
LINE
  5
7C
  8
5
  6
CONTINUOUS
 10
1404.019
 20
1159.381
 30
0.0
 11
1404.019
 21
1174.381
 31
0.0
  0
LINE
  5
7D
  8
5
  6
CONTINUOUS
 10
1404.019
 20
1127.381
 30
0.0
 11
1404.019
 21
1144.381
 31
0.0
  0
LINE
  5
7E
  8
5
  6
CONTINUOUS
 10
963.5485
 20
1338.481
 30
0.0
 11
968.0193
 21
1338.481
 31
0.0
  0
LINE
  5
7F
  8
5
  6
CONTINUOUS
 10
968.0193
 20
1109.081
 30
0.0
 11
963.5484
 21
1109.081
 31
0.0
  0
LINE
  5
80
  8
5
  6
CONTINUOUS
 10
968.0193
 20
1109.081
 30
0.0
 11
968.0193
 21
1108.681
 31
0.0
  0
LINE
  5
81
  8
5
  6
CONTINUOUS
 10
965.2413
 20
1206.481
 30
0.0
 11
968.0193
 21
1206.481
 31
0.0
  0
LINE
  5
82
  8
5
  6
CONTINUOUS
 10
968.0193
 20
1223.781
 30
0.0
 11
968.0193
 21
1206.481
 31
0.0
  0
LINE
  5
83
  8
5
  6
CONTINUOUS
 10
968.0193
 20
1223.781
 30
0.0
 11
965.3292
 21
1223.781
 31
0.0
  0
LINE
  5
84
  8
5
  6
CONTINUOUS
 10
965.2413
 20
1241.081
 30
0.0
 11
968.0193
 21
1241.081
 31
0.0
  0
LINE
  5
85
  8
5
  6
CONTINUOUS
 10
968.0193
 20
1258.281
 30
0.0
 11
968.0193
 21
1241.081
 31
0.0
  0
LINE
  5
86
  8
5
  6
CONTINUOUS
 10
968.0193
 20
1258.281
 30
0.0
 11
964.9788
 21
1258.281
 31
0.0
  0
LINE
  5
87
  8
5
  6
CONTINUOUS
 10
964.6031
 20
1273.281
 30
0.0
 11
968.0193
 21
1273.281
 31
0.0
  0
LINE
  5
88
  8
5
  6
CONTINUOUS
 10
968.0193
 20
1288.181
 30
0.0
 11
968.0193
 21
1273.281
 31
0.0
  0
LINE
  5
89
  8
5
  6
CONTINUOUS
 10
968.0193
 20
1288.181
 30
0.0
 11
964.0886
 21
1288.181
 31
0.0
  0
LINE
  5
8A
  8
5
  6
CONTINUOUS
 10
963.4202
 20
1303.181
 30
0.0
 11
968.0193
 21
1303.181
 31
0.0
  0
LINE
  5
8B
  8
5
  6
CONTINUOUS
 10
968.0193
 20
1320.181
 30
0.0
 11
968.0193
 21
1303.181
 31
0.0
  0
LINE
  5
8C
  8
5
  6
CONTINUOUS
 10
968.0193
 20
1320.181
 30
0.0
 11
962.4649
 21
1320.181
 31
0.0
  0
LINE
  5
8D
  8
5
  6
CONTINUOUS
 10
964.606
 20
1174.381
 30
0.0
 11
968.0193
 21
1174.381
 31
0.0
  0
LINE
  5
8E
  8
5
  6
CONTINUOUS
 10
968.0193
 20
1189.281
 30
0.0
 11
968.0193
 21
1174.381
 31
0.0
  0
LINE
  5
8F
  8
5
  6
CONTINUOUS
 10
968.0193
 20
1189.281
 30
0.0
 11
964.9788
 21
1189.281
 31
0.0
  0
LINE
  5
90
  8
5
  6
CONTINUOUS
 10
963.4202
 20
1144.381
 30
0.0
 11
968.0193
 21
1144.381
 31
0.0
  0
LINE
  5
91
  8
5
  6
CONTINUOUS
 10
968.0193
 20
1159.381
 30
0.0
 11
968.0193
 21
1144.381
 31
0.0
  0
LINE
  5
92
  8
5
  6
CONTINUOUS
 10
968.0193
 20
1159.381
 30
0.0
 11
964.0886
 21
1159.381
 31
0.0
  0
LINE
  5
93
  8
5
  6
CONTINUOUS
 10
968.0193
 20
1127.381
 30
0.0
 11
968.0193
 21
1109.081
 31
0.0
  0
LINE
  5
94
  8
5
  6
CONTINUOUS
 10
968.0193
 20
1127.381
 30
0.0
 11
962.4649
 21
1127.381
 31
0.0
  0
LINE
  5
95
  8
5
  6
CONTINUOUS
 10
968.0193
 20
1206.481
 30
0.0
 11
968.0193
 21
1189.281
 31
0.0
  0
LINE
  5
96
  8
5
  6
CONTINUOUS
 10
968.0193
 20
1241.081
 30
0.0
 11
968.0193
 21
1223.781
 31
0.0
  0
LINE
  5
97
  8
5
  6
CONTINUOUS
 10
968.0193
 20
1273.281
 30
0.0
 11
968.0193
 21
1258.281
 31
0.0
  0
LINE
  5
98
  8
5
  6
CONTINUOUS
 10
968.0193
 20
1303.181
 30
0.0
 11
968.0193
 21
1288.181
 31
0.0
  0
LINE
  5
99
  8
5
  6
CONTINUOUS
 10
968.0193
 20
1338.481
 30
0.0
 11
968.0193
 21
1320.181
 31
0.0
  0
LINE
  5
9A
  8
5
  6
CONTINUOUS
 10
968.0193
 20
1174.381
 30
0.0
 11
968.0193
 21
1159.381
 31
0.0
  0
LINE
  5
9B
  8
5
  6
CONTINUOUS
 10
968.0193
 20
1144.381
 30
0.0
 11
968.0193
 21
1127.381
 31
0.0
  0
LINE
  5
9C
  8
5
  6
CONTINUOUS
 10
1404.019
 20
1127.381
 30
0.0
 11
968.0193
 21
1127.381
 31
0.0
  0
LINE
  5
9E
  8
5
  6
CONTINUOUS
 10
1404.019
 20
1159.381
 30
0.0
 11
968.0193
 21
1159.381
 31
0.0
  0
LINE
  5
9F
  8
5
  6
CONTINUOUS
 10
968.0193
 20
1144.381
 30
0.0
 11
1404.019
 21
1144.381
 31
0.0
  0
LINE
  5
A0
  8
5
  6
CONTINUOUS
 10
1404.019
 20
1189.281
 30
0.0
 11
968.0193
 21
1189.281
 31
0.0
  0
LINE
  5
A1
  8
5
  6
CONTINUOUS
 10
968.0193
 20
1174.381
 30
0.0
 11
1404.019
 21
1174.381
 31
0.0
  0
LINE
  5
A2
  8
5
  6
CONTINUOUS
 10
1404.019
 20
1320.181
 30
0.0
 11
968.0193
 21
1320.181
 31
0.0
  0
LINE
  5
A3
  8
5
  6
CONTINUOUS
 10
968.0193
 20
1303.181
 30
0.0
 11
1404.019
 21
1303.181
 31
0.0
  0
LINE
  5
A4
  8
5
  6
CONTINUOUS
 10
1404.019
 20
1288.181
 30
0.0
 11
968.0193
 21
1288.181
 31
0.0
  0
LINE
  5
A5
  8
5
  6
CONTINUOUS
 10
968.0193
 20
1273.281
 30
0.0
 11
1404.019
 21
1273.281
 31
0.0
  0
LINE
  5
A6
  8
5
  6
CONTINUOUS
 10
1404.019
 20
1258.281
 30
0.0
 11
968.0193
 21
1258.281
 31
0.0
  0
LINE
  5
A7
  8
5
  6
CONTINUOUS
 10
968.0193
 20
1241.081
 30
0.0
 11
1404.019
 21
1241.081
 31
0.0
  0
LINE
  5
A9
  8
5
  6
CONTINUOUS
 10
968.0193
 20
1206.481
 30
0.0
 11
1404.019
 21
1206.481
 31
0.0
  0
LINE
  5
AA
  8
5
  6
CONTINUOUS
 10
1408.464
 20
1410.219
 30
0.0
 11
1408.464
 21
1429.081
 31
0.0
  0
LINE
  5
AB
  8
5
  6
CONTINUOUS
 10
1406.235
 20
1446.432
 30
0.0
 11
1406.235
 21
1398.302
 31
0.0
  0
LINE
  5
AC
  8
5
  6
CONTINUOUS
 10
1404.019
 20
1383.721
 30
0.0
 11
1404.019
 21
1429.281
 31
0.0
  0
LINE
  5
AD
  8
5
  6
CONTINUOUS
 10
1307.019
 20
1427.074
 30
0.0
 11
1289.903
 21
1412.974
 31
0.0
  0
LINE
  5
AE
  8
5
  6
CONTINUOUS
 10
1307.019
 20
1444.752
 30
0.0
 11
1307.019
 21
1427.074
 31
0.0
  0
LINE
  5
AF
  8
5
  6
CONTINUOUS
 10
1289.903
 20
1435.052
 30
0.0
 11
1307.019
 21
1444.752
 31
0.0
  0
LINE
  5
B0
  8
5
  6
CONTINUOUS
 10
1289.903
 20
1412.974
 30
0.0
 11
1289.903
 21
1435.052
 31
0.0
  0
LINE
  5
B1
  8
5
  6
CONTINUOUS
 10
1366.019
 20
1444.752
 30
0.0
 11
1383.135
 21
1435.052
 31
0.0
  0
LINE
  5
B2
  8
5
  6
CONTINUOUS
 10
1366.019
 20
1427.074
 30
0.0
 11
1366.019
 21
1444.752
 31
0.0
  0
LINE
  5
B3
  8
5
  6
CONTINUOUS
 10
1383.135
 20
1412.974
 30
0.0
 11
1366.019
 21
1427.074
 31
0.0
  0
LINE
  5
B4
  8
5
  6
CONTINUOUS
 10
1383.135
 20
1435.052
 30
0.0
 11
1383.135
 21
1412.974
 31
0.0
  0
LINE
  5
B5
  8
5
  6
CONTINUOUS
 10
1318.519
 20
1393.505
 30
0.0
 11
1326.519
 21
1400.572
 31
0.0
  0
LINE
  5
B6
  8
5
  6
CONTINUOUS
 10
1346.519
 20
1400.572
 30
0.0
 11
1354.519
 21
1393.505
 31
0.0
  0
LINE
  5
B7
  8
5
  6
CONTINUOUS
 10
1326.519
 20
1400.572
 30
0.0
 11
1346.519
 21
1400.572
 31
0.0
  0
LINE
  5
B8
  8
5
  6
CONTINUOUS
 10
1366.019
 20
1427.074
 30
0.0
 11
1307.019
 21
1427.074
 31
0.0
  0
LINE
  5
B9
  8
5
  6
CONTINUOUS
 10
1307.019
 20
1444.752
 30
0.0
 11
1366.019
 21
1444.752
 31
0.0
  0
LINE
  5
BA
  8
5
  6
CONTINUOUS
 10
1318.519
 20
1383.721
 30
0.0
 11
1354.519
 21
1383.721
 31
0.0
  0
LINE
  5
BB
  8
5
  6
CONTINUOUS
 10
1253.019
 20
1383.721
 30
0.0
 11
1285.347
 21
1383.721
 31
0.0
  0
LINE
  5
BC
  8
5
  6
CONTINUOUS
 10
1208.006
 20
1405.318
 30
0.0
 11
991.0322
 21
1405.318
 31
0.0
  0
LINE
  5
BD
  8
5
  6
CONTINUOUS
 10
1387.692
 20
1383.721
 30
0.0
 11
1404.019
 21
1383.721
 31
0.0
  0
LINE
  5
BE
  8
5
  6
CONTINUOUS
 10
1386.675
 20
1404.291
 30
0.0
 11
1387.692
 21
1383.721
 31
0.0
  0
LINE
  5
BF
  8
5
  6
CONTINUOUS
 10
1285.347
 20
1383.721
 30
0.0
 11
1286.364
 21
1404.291
 31
0.0
  0
LINE
  5
C0
  8
5
  6
CONTINUOUS
 10
1289.903
 20
1412.974
 30
0.0
 11
1286.769
 21
1373.381
 31
0.0
  0
LINE
  5
C1
  8
5
  6
CONTINUOUS
 10
1286.364
 20
1404.291
 30
0.0
 11
1289.903
 21
1435.052
 31
0.0
  0
LINE
  5
C2
  8
5
  6
CONTINUOUS
 10
1386.675
 20
1404.291
 30
0.0
 11
1383.135
 21
1435.052
 31
0.0
  0
LINE
  5
C3
  8
5
  6
CONTINUOUS
 10
1383.135
 20
1412.974
 30
0.0
 11
1386.269
 21
1373.381
 31
0.0
  0
LINE
  5
C4
  8
5
  6
CONTINUOUS
 10
1318.519
 20
1373.381
 30
0.0
 11
1318.519
 21
1393.505
 31
0.0
  0
LINE
  5
C5
  8
5
  6
CONTINUOUS
 10
1354.519
 20
1393.505
 30
0.0
 11
1354.519
 21
1373.381
 31
0.0
  0
LINE
  5
C6
  8
5
  6
CONTINUOUS
 10
1604.519
 20
1083.781
 30
0.0
 11
1540.519
 21
1000.281
 31
0.0
  0
LINE
  5
C7
  8
5
  6
CONTINUOUS
 10
1604.519
 20
1363.781
 30
0.0
 11
1540.519
 21
1447.281
 31
0.0
  0
LINE
  5
C8
  8
5
  6
CONTINUOUS
 10
1604.519
 20
1363.781
 30
0.0
 11
1604.519
 21
1083.781
 31
0.0
  0
LINE
  5
C9
  8
5
  6
CONTINUOUS
 10
1613.519
 20
1083.781
 30
0.0
 11
1604.519
 21
1083.781
 31
0.0
  0
LINE
  5
CA
  8
5
  6
CONTINUOUS
 10
1613.519
 20
1363.781
 30
0.0
 11
1604.519
 21
1363.781
 31
0.0
  0
LINE
  5
CB
  8
5
  6
CONTINUOUS
 10
1411.519
 20
1101.485
 30
0.0
 11
1472.019
 21
1101.485
 31
0.0
  0
LINE
  5
CC
  8
5
  6
CONTINUOUS
 10
1472.019
 20
1346.077
 30
0.0
 11
1411.519
 21
1346.077
 31
0.0
  0
LINE
  5
CD
  8
5
  6
CONTINUOUS
 10
1540.519
 20
1344.834
 30
0.0
 11
1472.019
 21
1344.834
 31
0.0
  0
LINE
  5
CE
  8
5
  6
CONTINUOUS
 10
1472.019
 20
1102.727
 30
0.0
 11
1540.519
 21
1102.728
 31
0.0
  0
LINE
  5
CF
  8
5
  6
CONTINUOUS
 10
1208.006
 20
1405.318
 30
0.0
 11
1205.65
 21
1472.781
 31
0.0
  0
LINE
  5
D0
  8
5
  6
CONTINUOUS
 10
1401.019
 20
1003.781
 30
0.0
 11
1401.019
 21
1050.048
 31
0.0
  0
LINE
  5
D1
  8
5
  6
CONTINUOUS
 10
1317.519
 20
1074.181
 30
0.0
 11
1317.519
 21
1003.781
 31
0.0
  0
LINE
  5
D2
  8
5
  6
CONTINUOUS
 10
1077.519
 20
1003.781
 30
0.0
 11
1077.519
 21
1074.181
 31
0.0
  0
LINE
  5
D3
  8
5
  6
CONTINUOUS
 10
994.0192
 20
1050.048
 30
0.0
 11
994.0192
 21
1003.781
 31
0.0
  0
LINE
  5
D4
  8
5
  6
CONTINUOUS
 10
1401.019
 20
1007.199
 30
0.0
 11
1401.019
 21
1007.199
 31
0.0
  0
LINE
  5
D5
  8
5
  6
CONTINUOUS
 10
1401.019
 20
1007.199
 30
0.0
 11
1401.019
 21
1007.199
 31
0.0
  0
LINE
  5
D7
  8
5
  6
CONTINUOUS
 10
968.0193
 20
983.7809
 30
0.0
 11
965.6493
 21
1002.281
 31
0.0
  0
LINE
  5
D8
  8
5
  6
CONTINUOUS
 10
965.6493
 20
1002.281
 30
0.0
 11
963.5197
 21
1018.905
 31
0.0
  0
LINE
  5
D9
  8
5
  6
CONTINUOUS
 10
968.0193
 20
983.7809
 30
0.0
 11
974.0192
 21
983.7809
 31
0.0
  0
LINE
  5
DA
  8
5
  6
CONTINUOUS
 10
892.5192
 20
1288.781
 30
0.0
 11
892.5192
 21
1158.781
 31
0.0
  0
LINE
  5
DB
  8
5
  6
CONTINUOUS
 10
901.8192
 20
1130.281
 30
0.0
 11
896.5193
 21
1130.281
 31
0.0
  0
LINE
  5
DC
  8
5
  6
CONTINUOUS
 10
896.5193
 20
1158.022
 30
0.0
 11
896.5193
 21
1130.281
 31
0.0
  0
LINE
  5
DD
  8
5
  6
CONTINUOUS
 10
911.8192
 20
1035.444
 30
0.0
 11
911.8192
 21
1412.118
 31
0.0
  0
CIRCLE
  5
DE
  8
5
  6
CONTINUOUS
 10
906.2192
 20
1125.181
 30
0.0
 40
1.5
  0
LINE
  5
DF
  8
5
  6
CONTINUOUS
 10
901.8193
 20
1399.431
 30
0.0
 11
901.8193
 21
1049.162
 31
0.0
  0
LINE
  5
E0
  8
5
  6
CONTINUOUS
 10
906.7409
 20
1123.781
 30
0.0
 11
906.62
 21
1123.781
 31
0.0
  0
LINE
  5
E1
  8
5
  6
CONTINUOUS
 10
910.0192
 20
1049.162
 30
0.0
 11
910.0192
 21
1048.131
 31
0.0
  0
LINE
  5
E2
  8
5
  6
CONTINUOUS
 10
1307.019
 20
973.7809
 30
0.0
 11
1307.019
 21
983.7809
 31
0.0
  0
LINE
  5
E3
  8
5
  6
CONTINUOUS
 10
1307.019
 20
983.7809
 30
0.0
 11
1088.019
 21
983.7809
 31
0.0
  0
LINE
  5
E4
  8
5
  6
CONTINUOUS
 10
1088.019
 20
983.7809
 30
0.0
 11
1088.019
 21
973.7809
 31
0.0
  0
LINE
  5
E5
  8
5
  6
CONTINUOUS
 10
1421.019
 20
1003.781
 30
0.0
 11
1421.019
 21
973.7809
 31
0.0
  0
LINE
  5
E6
  8
5
  6
CONTINUOUS
 10
974.0192
 20
973.7809
 30
0.0
 11
974.0192
 21
1003.781
 31
0.0
  0
LINE
  5
E7
  8
5
  6
CONTINUOUS
 10
1421.019
 20
973.7809
 30
0.0
 11
1307.019
 21
973.7809
 31
0.0
  0
LINE
  5
E8
  8
5
  6
CONTINUOUS
 10
1088.019
 20
973.7809
 30
0.0
 11
974.0192
 21
973.7809
 31
0.0
  0
LINE
  5
E9
  8
5
  6
CONTINUOUS
 10
1421.019
 20
1003.781
 30
0.0
 11
1317.519
 21
1003.781
 31
0.0
  0
LINE
  5
EA
  8
5
  6
CONTINUOUS
 10
1077.519
 20
1003.781
 30
0.0
 11
974.0192
 21
1003.781
 31
0.0
  0
LINE
  5
EB
  8
5
  6
CONTINUOUS
 10
940.0192
 20
1543.281
 30
0.0
 11
985.5192
 21
1543.281
 31
0.0
  0
LINE
  5
EC
  8
5
  6
CONTINUOUS
 10
1213.519
 20
1543.281
 30
0.0
 11
1259.019
 21
1543.281
 31
0.0
  0
LINE
  5
ED
  8
5
  6
CONTINUOUS
 10
1213.019
 20
1546.281
 30
0.0
 11
1213.019
 21
1599.481
 31
0.0
  0
LINE
  5
EE
  8
5
  6
CONTINUOUS
 10
986.0192
 20
1599.481
 30
0.0
 11
986.0192
 21
1546.281
 31
0.0
  0
LINE
  5
EF
  8
5
  6
CONTINUOUS
 10
944.5192
 20
1521.281
 30
0.0
 11
944.5192
 21
1543.281
 31
0.0
  0
LINE
  5
F0
  8
5
  6
CONTINUOUS
 10
1254.519
 20
1521.281
 30
0.0
 11
1254.519
 21
1543.281
 31
0.0
  0
LINE
  5
F1
  8
5
  6
CONTINUOUS
 10
1213.519
 20
1498.281
 30
0.0
 11
1213.519
 21
1546.281
 31
0.0
  0
LINE
  5
F2
  8
5
  6
CONTINUOUS
 10
985.5192
 20
1546.281
 30
0.0
 11
985.5192
 21
1498.281
 31
0.0
  0
LINE
  5
F4
  8
5
  6
CONTINUOUS
 10
986.0192
 20
1599.481
 30
0.0
 11
1213.019
 21
1599.481
 31
0.0
  0
LINE
  5
F5
  8
5
  6
CONTINUOUS
 10
986.0192
 20
1564.581
 30
0.0
 11
940.0192
 21
1564.581
 31
0.0
  0
LINE
  5
F6
  8
5
  6
CONTINUOUS
 10
1259.019
 20
1564.581
 30
0.0
 11
1213.019
 21
1564.581
 31
0.0
  0
LINE
  5
F7
  8
5
  6
CONTINUOUS
 10
940.0192
 20
1564.581
 30
0.0
 11
989.5192
 21
1615.581
 31
0.0
  0
LINE
  5
F8
  8
5
  6
CONTINUOUS
 10
1209.519
 20
1615.581
 30
0.0
 11
1259.019
 21
1564.581
 31
0.0
  0
LINE
  5
F9
  8
5
  6
CONTINUOUS
 10
940.0192
 20
1564.581
 30
0.0
 11
940.0192
 21
1543.281
 31
0.0
  0
LINE
  5
FA
  8
5
  6
CONTINUOUS
 10
1259.019
 20
1543.281
 30
0.0
 11
1259.019
 21
1564.581
 31
0.0
  0
LINE
  5
FB
  8
5
  6
CONTINUOUS
 10
1141.281
 20
1619.781
 30
0.0
 11
1155.059
 21
1619.781
 31
0.0
  0
LINE
  5
FC
  8
5
  6
CONTINUOUS
 10
1157.159
 20
1619.781
 30
0.0
 11
1161.961
 21
1619.781
 31
0.0
  0
LINE
  5
FD
  8
5
  6
CONTINUOUS
 10
1161.961
 20
1619.781
 30
0.0
 11
1176.789
 21
1619.781
 31
0.0
  0
LINE
  5
FE
  8
5
  6
CONTINUOUS
 10
1111.513
 20
1619.781
 30
0.0
 11
1116.316
 21
1619.781
 31
0.0
  0
LINE
  5
FF
  8
5
  6
CONTINUOUS
 10
1116.316
 20
1619.781
 30
0.0
 11
1131.144
 21
1619.781
 31
0.0
  0
LINE
  5
100
  8
5
  6
CONTINUOUS
 10
1095.635
 20
1619.781
 30
0.0
 11
1109.414
 21
1619.781
 31
0.0
  0
LINE
  5
101
  8
5
  6
CONTINUOUS
 10
1060.613
 20
1619.781
 30
0.0
 11
1060.613
 21
1619.781
 31
0.0
  0
LINE
  5
102
  8
5
  6
CONTINUOUS
 10
1060.613
 20
1619.781
 30
0.0
 11
1072.007
 21
1619.781
 31
0.0
  0
LINE
  5
103
  8
5
  6
CONTINUOUS
 10
1072.007
 20
1619.781
 30
0.0
 11
1075.847
 21
1619.781
 31
0.0
  0
LINE
  5
104
  8
5
  6
CONTINUOUS
 10
1075.847
 20
1619.781
 30
0.0
 11
1085.347
 21
1619.781
 31
0.0
  0
LINE
  5
105
  8
5
  6
CONTINUOUS
 10
1034.516
 20
1619.781
 30
0.0
 11
1043.379
 21
1619.781
 31
0.0
  0
LINE
  5
106
  8
5
  6
CONTINUOUS
 10
1043.379
 20
1619.781
 30
0.0
 11
1047.069
 21
1619.781
 31
0.0
  0
LINE
  5
107
  8
5
  6
CONTINUOUS
 10
1047.069
 20
1619.781
 30
0.0
 11
1058.514
 21
1619.781
 31
0.0
  0
LINE
  5
108
  8
5
  6
CONTINUOUS
 10
1155.059
 20
1615.581
 30
0.0
 11
1155.059
 21
1619.781
 31
0.0
  0
LINE
  5
109
  8
5
  6
CONTINUOUS
 10
1141.281
 20
1615.581
 30
0.0
 11
1141.281
 21
1619.781
 31
0.0
  0
LINE
  5
10A
  8
5
  6
CONTINUOUS
 10
1157.159
 20
1615.581
 30
0.0
 11
1157.159
 21
1619.781
 31
0.0
  0
LINE
  5
10B
  8
5
  6
CONTINUOUS
 10
1111.514
 20
1615.581
 30
0.0
 11
1111.513
 21
1619.781
 31
0.0
  0
LINE
  5
10C
  8
5
  6
CONTINUOUS
 10
1109.414
 20
1615.581
 30
0.0
 11
1109.414
 21
1619.781
 31
0.0
  0
LINE
  5
10D
  8
5
  6
CONTINUOUS
 10
1095.635
 20
1615.581
 30
0.0
 11
1095.635
 21
1619.781
 31
0.0
  0
LINE
  5
10E
  8
5
  6
CONTINUOUS
 10
1060.614
 20
1615.581
 30
0.0
 11
1060.613
 21
1619.781
 31
0.0
  0
LINE
  5
10F
  8
5
  6
CONTINUOUS
 10
1058.514
 20
1619.781
 30
0.0
 11
1058.514
 21
1615.581
 31
0.0
  0
LINE
  5
110
  8
5
  6
CONTINUOUS
 10
989.5192
 20
1615.581
 30
0.0
 11
1209.519
 21
1615.581
 31
0.0
  0
LINE
  5
111
  8
5
  6
CONTINUOUS
 10
951.5192
 20
1496.781
 30
0.0
 11
951.5192
 21
1521.281
 31
0.0
  0
LINE
  5
112
  8
5
  6
CONTINUOUS
 10
1247.519
 20
1496.781
 30
0.0
 11
1247.519
 21
1521.281
 31
0.0
  0
LINE
  5
113
  8
5
  6
CONTINUOUS
 10
1247.519
 20
1496.781
 30
0.0
 11
1223.519
 21
1472.781
 31
0.0
  0
LINE
  5
114
  8
5
  6
CONTINUOUS
 10
951.5192
 20
1496.781
 30
0.0
 11
975.5192
 21
1472.781
 31
0.0
  0
LINE
  5
115
  8
5
  6
CONTINUOUS
 10
985.5192
 20
1521.281
 30
0.0
 11
944.5192
 21
1521.281
 31
0.0
  0
LINE
  5
116
  8
5
  6
CONTINUOUS
 10
1254.519
 20
1521.281
 30
0.0
 11
1213.519
 21
1521.281
 31
0.0
  0
LINE
  5
117
  8
5
  6
CONTINUOUS
 10
985.5192
 20
1498.281
 30
0.0
 11
1213.519
 21
1498.281
 31
0.0
  0
LINE
  5
118
  8
5
  6
CONTINUOUS
 10
1223.519
 20
1472.781
 30
0.0
 11
975.5192
 21
1472.781
 31
0.0
  0
LINE
  5
119
  8
5
  6
CONTINUOUS
 10
965.6494
 20
1025.981
 30
0.0
 11
965.6494
 21
1002.281
 31
0.0
  0
LINE
  5
11A
  8
5
  6
CONTINUOUS
 10
968.0193
 20
1035.885
 30
0.0
 11
968.0193
 21
983.7809
 31
0.0
  0
LINE
  5
11B
  8
5
  6
CONTINUOUS
 10
954.0191
 20
1442.781
 30
0.0
 11
925.8192
 21
1431.387
 31
0.0
  0
LINE
  5
11C
  8
5
  6
CONTINUOUS
 10
925.8192
 20
1431.387
 30
0.0
 11
925.8192
 21
1016.174
 31
0.0
  0
LINE
  5
11D
  8
5
  6
CONTINUOUS
 10
925.8192
 20
1016.174
 30
0.0
 11
954.0191
 21
1004.781
 31
0.0
  0
LINE
  5
11E
  8
5
  6
CONTINUOUS
 10
954.0191
 20
1223.781
 30
0.0
 11
954.0191
 21
1004.781
 31
0.0
  0
LINE
  5
11F
  8
5
  6
CONTINUOUS
 10
954.0191
 20
1442.781
 30
0.0
 11
954.0191
 21
1223.781
 31
0.0
  0
LINE
  5
120
  8
5
  6
CONTINUOUS
 10
994.0192
 20
1050.048
 30
0.0
 11
1077.519
 21
1050.048
 31
0.0
  0
LINE
  5
121
  8
5
  6
CONTINUOUS
 10
1317.519
 20
1050.048
 30
0.0
 11
1401.019
 21
1050.048
 31
0.0
  0
LINE
  5
122
  8
5
  6
CONTINUOUS
 10
968.0193
 20
1035.885
 30
0.0
 11
994.0192
 21
1035.885
 31
0.0
  0
LINE
  5
123
  8
5
  6
CONTINUOUS
 10
1077.519
 20
1003.781
 30
0.0
 11
1317.519
 21
1003.781
 31
0.0
  0
LINE
  5
124
  8
5
  6
CONTINUOUS
 10
900.2216
 20
1152.367
 30
0.0
 11
901.8192
 21
1152.307
 31
0.0
  0
LINE
  5
125
  8
5
  6
CONTINUOUS
 10
900.2216
 20
1299.781
 30
0.0
 11
900.2216
 21
1152.367
 31
0.0
  0
LINE
  5
126
  8
5
  6
CONTINUOUS
 10
901.8192
 20
1299.837
 30
0.0
 11
900.2216
 21
1299.781
 31
0.0
  0
LINE
  5
127
  8
5
  6
CONTINUOUS
 10
892.5192
 20
1158.781
 30
0.0
 11
896.5193
 21
1153.068
 31
0.0
  0
LINE
  5
128
  8
5
  6
CONTINUOUS
 10
900.2216
 20
1299.781
 30
0.0
 11
892.5192
 21
1288.781
 31
0.0
  0
LINE
  5
129
  8
5
  6
CONTINUOUS
 10
925.8192
 20
1431.387
 30
0.0
 11
911.8192
 21
1412.118
 31
0.0
  0
LINE
  5
12A
  8
5
  6
CONTINUOUS
 10
911.8192
 20
1035.444
 30
0.0
 11
925.8192
 21
1016.174
 31
0.0
  0
LINE
  5
12B
  8
5
  6
CONTINUOUS
 10
911.8192
 20
1399.431
 30
0.0
 11
901.8193
 21
1399.431
 31
0.0
  0
LINE
  5
12C
  8
5
  6
CONTINUOUS
 10
910.0193
 20
1048.131
 30
0.0
 11
911.8192
 21
1048.131
 31
0.0
  0
LINE
  5
12D
  8
5
  6
CONTINUOUS
 10
901.8193
 20
1049.162
 30
0.0
 11
910.0192
 21
1049.162
 31
0.0
  0
LINE
  5
12E
  8
5
  6
CONTINUOUS
 10
859.5192
 20
1260.281
 30
0.0
 11
859.5192
 21
1255.01
 31
0.0
  0
LINE
  5
12F
  8
5
  6
CONTINUOUS
 10
757.5192
 20
1260.281
 30
0.0
 11
757.5192
 21
1255.01
 31
0.0
  0
LINE
  5
130
  8
5
  6
CONTINUOUS
 10
954.0191
 20
1004.781
 30
0.0
 11
965.3283
 21
1004.781
 31
0.0
  0
LINE
  5
132
  8
5
  6
CONTINUOUS
 10
1411.519
 20
1442.781
 30
0.0
 11
1406.709
 21
1442.781
 31
0.0
  0
LINE
  5
133
  8
5
  6
CONTINUOUS
 10
978.3301
 20
1442.781
 30
0.0
 11
954.0191
 21
1442.781
 31
0.0
  0
LINE
  5
134
  8
5
  6
CONTINUOUS
 10
1253.019
 20
1442.781
 30
0.0
 11
1220.708
 21
1442.781
 31
0.0
  0
LINE
  5
135
  8
5
  6
CONTINUOUS
 10
1209.519
 20
1599.481
 30
0.0
 11
1209.519
 21
1615.581
 31
0.0
  0
LINE
  5
136
  8
5
  6
CONTINUOUS
 10
989.5192
 20
1615.581
 30
0.0
 11
989.5193
 21
1599.481
 31
0.0
  0
LINE
  5
137
  8
5
  6
CONTINUOUS
 10
1176.789
 20
1615.581
 30
0.0
 11
1176.789
 21
1619.781
 31
0.0
  0
LINE
  5
138
  8
5
  6
CONTINUOUS
 10
1161.961
 20
1615.581
 30
0.0
 11
1161.961
 21
1619.781
 31
0.0
  0
LINE
  5
139
  8
5
  6
CONTINUOUS
 10
1131.144
 20
1615.581
 30
0.0
 11
1131.144
 21
1619.781
 31
0.0
  0
LINE
  5
13A
  8
5
  6
CONTINUOUS
 10
1116.316
 20
1615.581
 30
0.0
 11
1116.316
 21
1619.781
 31
0.0
  0
LINE
  5
13B
  8
5
  6
CONTINUOUS
 10
1085.347
 20
1615.581
 30
0.0
 11
1085.347
 21
1619.781
 31
0.0
  0
LINE
  5
13C
  8
5
  6
CONTINUOUS
 10
1075.847
 20
1615.581
 30
0.0
 11
1075.847
 21
1619.781
 31
0.0
  0
LINE
  5
13D
  8
5
  6
CONTINUOUS
 10
1072.007
 20
1615.581
 30
0.0
 11
1072.007
 21
1619.781
 31
0.0
  0
LINE
  5
13E
  8
5
  6
CONTINUOUS
 10
1047.07
 20
1615.581
 30
0.0
 11
1047.069
 21
1619.781
 31
0.0
  0
LINE
  5
13F
  8
5
  6
CONTINUOUS
 10
1043.379
 20
1615.581
 30
0.0
 11
1043.379
 21
1619.781
 31
0.0
  0
LINE
  5
140
  8
5
  6
CONTINUOUS
 10
1034.516
 20
1615.581
 30
0.0
 11
1034.516
 21
1619.781
 31
0.0
  0
LINE
  5
141
  8
5
  6
CONTINUOUS
 10
951.5192
 20
1496.781
 30
0.0
 11
1247.519
 21
1496.781
 31
0.0
  0
LINE
  5
142
  8
5
  6
CONTINUOUS
 10
544.9955
 20
1416.188
 30
0.0
 11
570.028
 21
1435.052
 31
0.0
  0
LINE
  5
143
  8
5
  6
CONTINUOUS
 10
570.028
 20
1435.052
 30
0.0
 11
582.9003
 21
1444.752
 31
0.0
  0
LINE
  5
144
  8
5
  6
CONTINUOUS
 10
600.578
 20
1427.074
 30
0.0
 11
592.1058
 21
1412.974
 31
0.0
  0
LINE
  5
145
  8
5
  6
CONTINUOUS
 10
592.1058
 20
1412.974
 30
0.0
 11
575.6301
 21
1385.554
 31
0.0
  0
LINE
  5
146
  8
5
  6
CONTINUOUS
 10
582.9003
 20
1444.752
 30
0.0
 11
600.578
 21
1427.074
 31
0.0
  0
LINE
  5
147
  8
5
  6
CONTINUOUS
 10
498.9462
 20
1459.281
 30
0.0
 11
494.4071
 21
1463.781
 31
0.0
  0
LINE
  5
148
  8
5
  6
CONTINUOUS
 10
264.7071
 20
1463.682
 30
0.0
 11
260.2679
 21
1459.281
 31
0.0
  0
LINE
  5
149
  8
5
  6
CONTINUOUS
 10
264.8071
 20
1463.781
 30
0.0
 11
264.7071
 21
1463.682
 31
0.0
  0
LINE
  5
14A
  8
5
  6
CONTINUOUS
 10
475.9071
 20
1463.781
 30
0.0
 11
494.2071
 21
1463.781
 31
0.0
  0
LINE
  5
14B
  8
5
  6
CONTINUOUS
 10
443.9071
 20
1463.781
 30
0.0
 11
458.9071
 21
1463.781
 31
0.0
  0
LINE
  5
14C
  8
5
  6
CONTINUOUS
 10
414.0071
 20
1463.781
 30
0.0
 11
428.9071
 21
1463.781
 31
0.0
  0
LINE
  5
14D
  8
5
  6
CONTINUOUS
 10
379.5071
 20
1463.781
 30
0.0
 11
396.8071
 21
1463.781
 31
0.0
  0
LINE
  5
14E
  8
5
  6
CONTINUOUS
 10
345.0071
 20
1463.781
 30
0.0
 11
362.2071
 21
1463.781
 31
0.0
  0
LINE
  5
14F
  8
5
  6
CONTINUOUS
 10
315.1071
 20
1463.781
 30
0.0
 11
330.1071
 21
1463.781
 31
0.0
  0
LINE
  5
150
  8
5
  6
CONTINUOUS
 10
283.1071
 20
1463.781
 30
0.0
 11
300.1071
 21
1463.781
 31
0.0
  0
LINE
  5
151
  8
5
  6
CONTINUOUS
 10
494.2071
 20
1463.781
 30
0.0
 11
494.4071
 21
1463.781
 31
0.0
  0
LINE
  5
152
  8
5
  6
CONTINUOUS
 10
458.9071
 20
1463.781
 30
0.0
 11
475.9071
 21
1463.781
 31
0.0
  0
LINE
  5
153
  8
5
  6
CONTINUOUS
 10
428.9071
 20
1463.781
 30
0.0
 11
443.9071
 21
1463.781
 31
0.0
  0
LINE
  5
154
  8
5
  6
CONTINUOUS
 10
396.8071
 20
1463.781
 30
0.0
 11
414.0071
 21
1463.781
 31
0.0
  0
LINE
  5
155
  8
5
  6
CONTINUOUS
 10
362.2071
 20
1463.781
 30
0.0
 11
379.5071
 21
1463.781
 31
0.0
  0
LINE
  5
156
  8
5
  6
CONTINUOUS
 10
330.1071
 20
1463.781
 30
0.0
 11
345.0071
 21
1463.781
 31
0.0
  0
LINE
  5
157
  8
5
  6
CONTINUOUS
 10
300.1071
 20
1463.781
 30
0.0
 11
315.1071
 21
1463.781
 31
0.0
  0
LINE
  5
158
  8
5
  6
CONTINUOUS
 10
264.8071
 20
1463.781
 30
0.0
 11
283.1071
 21
1463.781
 31
0.0
  0
LINE
  5
159
  8
5
  6
CONTINUOUS
 10
615.1071
 20
1104.529
 30
0.0
 11
619.6071
 21
1109.081
 31
0.0
  0
LINE
  5
15A
  8
5
  6
CONTINUOUS
 10
619.6071
 20
1338.481
 30
0.0
 11
615.1071
 21
1343.033
 31
0.0
  0
LINE
  5
15B
  8
5
  6
CONTINUOUS
 10
139.6071
 20
1108.681
 30
0.0
 11
144.1071
 21
1104.232
 31
0.0
  0
LINE
  5
15C
  8
5
  6
CONTINUOUS
 10
144.1071
 20
1343.033
 30
0.0
 11
139.6071
 21
1338.481
 31
0.0
  0
LINE
  5
15D
  8
5
  6
CONTINUOUS
 10
619.6071
 20
1223.781
 30
0.0
 11
619.6071
 21
1206.481
 31
0.0
  0
LINE
  5
15E
  8
5
  6
CONTINUOUS
 10
619.6071
 20
1258.281
 30
0.0
 11
619.6071
 21
1241.081
 31
0.0
  0
LINE
  5
15F
  8
5
  6
CONTINUOUS
 10
619.6071
 20
1288.181
 30
0.0
 11
619.6071
 21
1273.281
 31
0.0
  0
LINE
  5
160
  8
5
  6
CONTINUOUS
 10
619.6071
 20
1320.181
 30
0.0
 11
619.6071
 21
1303.181
 31
0.0
  0
LINE
  5
161
  8
5
  6
CONTINUOUS
 10
619.6071
 20
1189.281
 30
0.0
 11
619.6071
 21
1174.381
 31
0.0
  0
LINE
  5
162
  8
5
  6
CONTINUOUS
 10
619.6071
 20
1159.381
 30
0.0
 11
619.6071
 21
1144.381
 31
0.0
  0
LINE
  5
163
  8
5
  6
CONTINUOUS
 10
619.6071
 20
1127.381
 30
0.0
 11
619.6071
 21
1109.081
 31
0.0
  0
LINE
  5
164
  8
5
  6
CONTINUOUS
 10
619.6071
 20
1206.481
 30
0.0
 11
619.6071
 21
1189.281
 31
0.0
  0
LINE
  5
165
  8
5
  6
CONTINUOUS
 10
619.6071
 20
1241.081
 30
0.0
 11
619.6071
 21
1223.781
 31
0.0
  0
LINE
  5
166
  8
5
  6
CONTINUOUS
 10
619.6071
 20
1273.281
 30
0.0
 11
619.6071
 21
1258.281
 31
0.0
  0
LINE
  5
167
  8
5
  6
CONTINUOUS
 10
619.6071
 20
1303.181
 30
0.0
 11
619.6071
 21
1288.181
 31
0.0
  0
LINE
  5
168
  8
5
  6
CONTINUOUS
 10
619.6071
 20
1338.481
 30
0.0
 11
619.6071
 21
1320.181
 31
0.0
  0
LINE
  5
169
  8
5
  6
CONTINUOUS
 10
619.6071
 20
1174.381
 30
0.0
 11
619.6071
 21
1159.381
 31
0.0
  0
LINE
  5
16A
  8
5
  6
CONTINUOUS
 10
619.6071
 20
1144.381
 30
0.0
 11
619.6071
 21
1127.381
 31
0.0
  0
LINE
  5
16B
  8
5
  6
CONTINUOUS
 10
139.6071
 20
1109.081
 30
0.0
 11
139.6071
 21
1127.381
 31
0.0
  0
LINE
  5
16C
  8
5
  6
CONTINUOUS
 10
139.6071
 20
1144.381
 30
0.0
 11
139.6071
 21
1159.381
 31
0.0
  0
LINE
  5
16D
  8
5
  6
CONTINUOUS
 10
139.6071
 20
1174.381
 30
0.0
 11
139.6071
 21
1189.281
 31
0.0
  0
LINE
  5
16E
  8
5
  6
CONTINUOUS
 10
139.6071
 20
1303.181
 30
0.0
 11
139.6071
 21
1320.181
 31
0.0
  0
LINE
  5
16F
  8
5
  6
CONTINUOUS
 10
139.6071
 20
1273.281
 30
0.0
 11
139.6071
 21
1288.181
 31
0.0
  0
LINE
  5
170
  8
5
  6
CONTINUOUS
 10
139.6071
 20
1241.081
 30
0.0
 11
139.6071
 21
1258.281
 31
0.0
  0
LINE
  5
171
  8
5
  6
CONTINUOUS
 10
139.6071
 20
1206.481
 30
0.0
 11
139.6071
 21
1223.781
 31
0.0
  0
LINE
  5
172
  8
5
  6
CONTINUOUS
 10
139.6071
 20
1127.381
 30
0.0
 11
139.6071
 21
1144.381
 31
0.0
  0
LINE
  5
173
  8
5
  6
CONTINUOUS
 10
139.6071
 20
1108.681
 30
0.0
 11
139.6071
 21
1109.081
 31
0.0
  0
LINE
  5
174
  8
5
  6
CONTINUOUS
 10
139.6071
 20
1159.381
 30
0.0
 11
139.6071
 21
1174.381
 31
0.0
  0
LINE
  5
175
  8
5
  6
CONTINUOUS
 10
139.6071
 20
1189.281
 30
0.0
 11
139.6071
 21
1206.481
 31
0.0
  0
LINE
  5
176
  8
5
  6
CONTINUOUS
 10
139.6071
 20
1320.181
 30
0.0
 11
139.6071
 21
1338.481
 31
0.0
  0
LINE
  5
177
  8
5
  6
CONTINUOUS
 10
139.6071
 20
1288.181
 30
0.0
 11
139.6071
 21
1303.181
 31
0.0
  0
LINE
  5
178
  8
5
  6
CONTINUOUS
 10
139.6071
 20
1258.281
 30
0.0
 11
139.6071
 21
1273.281
 31
0.0
  0
LINE
  5
179
  8
5
  6
CONTINUOUS
 10
139.6071
 20
1223.781
 30
0.0
 11
139.6071
 21
1241.081
 31
0.0
  0
LINE
  5
17A
  8
5
  6
CONTINUOUS
 10
158.6362
 20
1427.074
 30
0.0
 11
176.3139
 21
1444.752
 31
0.0
  0
LINE
  5
17B
  8
5
  6
CONTINUOUS
 10
167.1084
 20
1412.974
 30
0.0
 11
183.5841
 21
1385.554
 31
0.0
  0
LINE
  5
17C
  8
5
  6
CONTINUOUS
 10
167.1084
 20
1412.974
 30
0.0
 11
158.6362
 21
1427.074
 31
0.0
  0
LINE
  5
17D
  8
5
  6
CONTINUOUS
 10
176.3139
 20
1444.752
 30
0.0
 11
189.1862
 21
1435.052
 31
0.0
  0
LINE
  5
17E
  8
5
  6
CONTINUOUS
 10
214.2186
 20
1416.188
 30
0.0
 11
189.1862
 21
1435.052
 31
0.0
  0
CIRCLE
  5
17F
  8
5
  6
CONTINUOUS
 10
379.6071
 20
1223.781
 30
0.0
 40
140.0
  0
LINE
  5
180
  8
5
  6
CONTINUOUS
 10
144.1071
 20
1101.485
 30
0.0
 11
257.3111
 21
988.2809
 31
0.0
  0
LINE
  5
181
  8
5
  6
CONTINUOUS
 10
257.3111
 20
988.2809
 30
0.0
 11
501.9031
 21
988.2809
 31
0.0
  0
LINE
  5
182
  8
5
  6
CONTINUOUS
 10
501.9031
 20
988.2809
 30
0.0
 11
615.1071
 21
1101.485
 31
0.0
  0
LINE
  5
183
  8
5
  6
CONTINUOUS
 10
615.1071
 20
1101.485
 30
0.0
 11
615.1071
 21
1346.077
 31
0.0
  0
LINE
  5
184
  8
5
  6
CONTINUOUS
 10
615.1071
 20
1346.077
 30
0.0
 11
501.9031
 21
1459.281
 31
0.0
  0
LINE
  5
185
  8
5
  6
CONTINUOUS
 10
501.9031
 20
1459.281
 30
0.0
 11
257.3111
 21
1459.281
 31
0.0
  0
LINE
  5
186
  8
5
  6
CONTINUOUS
 10
257.3111
 20
1459.281
 30
0.0
 11
144.1071
 21
1346.077
 31
0.0
  0
LINE
  5
187
  8
5
  6
CONTINUOUS
 10
144.1071
 20
1101.485
 30
0.0
 11
144.1071
 21
1346.077
 31
0.0
  0
LINE
  5
188
  8
5
  6
CONTINUOUS
 10
258.5538
 20
1456.281
 30
0.0
 11
147.1071
 21
1344.834
 31
0.0
  0
LINE
  5
189
  8
5
  6
CONTINUOUS
 10
500.6605
 20
1456.281
 30
0.0
 11
258.5538
 21
1456.281
 31
0.0
  0
LINE
  5
18A
  8
5
  6
CONTINUOUS
 10
612.1071
 20
1344.834
 30
0.0
 11
500.6605
 21
1456.281
 31
0.0
  0
LINE
  5
18B
  8
5
  6
CONTINUOUS
 10
612.1071
 20
1102.727
 30
0.0
 11
612.1071
 21
1344.834
 31
0.0
  0
LINE
  5
18C
  8
5
  6
CONTINUOUS
 10
500.6605
 20
991.2809
 30
0.0
 11
612.1071
 21
1102.727
 31
0.0
  0
LINE
  5
18D
  8
5
  6
CONTINUOUS
 10
258.5538
 20
991.2809
 30
0.0
 11
500.6605
 21
991.2809
 31
0.0
  0
LINE
  5
18E
  8
5
  6
CONTINUOUS
 10
147.1071
 20
1102.727
 30
0.0
 11
258.5538
 21
991.2809
 31
0.0
  0
LINE
  5
18F
  8
5
  6
CONTINUOUS
 10
147.1071
 20
1102.727
 30
0.0
 11
147.1071
 21
1344.834
 31
0.0
  0
LINE
  5
190
  8
5
  6
CONTINUOUS
 10
258.996
 20
1459.281
 30
0.0
 11
259.4674
 21
1472.781
 31
0.0
  0
LINE
  5
191
  8
5
  6
CONTINUOUS
 10
499.7468
 20
1472.781
 30
0.0
 11
500.2182
 21
1459.281
 31
0.0
  0
LINE
  5
192
  8
5
  6
CONTINUOUS
 10
592.1058
 20
1412.974
 30
0.0
 11
570.028
 21
1435.052
 31
0.0
  0
LINE
  5
193
  8
5
  6
CONTINUOUS
 10
264.7071
 20
1459.281
 30
0.0
 11
264.7071
 21
1463.682
 31
0.0
  0
LINE
  5
194
  8
5
  6
CONTINUOUS
 10
494.2071
 20
1463.781
 30
0.0
 11
494.2071
 21
1459.281
 31
0.0
  0
LINE
  5
195
  8
5
  6
CONTINUOUS
 10
300.1071
 20
1459.281
 30
0.0
 11
300.1071
 21
1463.781
 31
0.0
  0
LINE
  5
196
  8
5
  6
CONTINUOUS
 10
283.107
 20
1463.781
 30
0.0
 11
283.1071
 21
1459.281
 31
0.0
  0
LINE
  5
197
  8
5
  6
CONTINUOUS
 10
330.1071
 20
1459.281
 30
0.0
 11
330.107
 21
1463.781
 31
0.0
  0
LINE
  5
198
  8
5
  6
CONTINUOUS
 10
315.1071
 20
1463.781
 30
0.0
 11
315.1071
 21
1459.281
 31
0.0
  0
LINE
  5
199
  8
5
  6
CONTINUOUS
 10
362.2071
 20
1459.281
 30
0.0
 11
362.2071
 21
1463.781
 31
0.0
  0
LINE
  5
19A
  8
5
  6
CONTINUOUS
 10
345.0071
 20
1463.781
 30
0.0
 11
345.0071
 21
1459.281
 31
0.0
  0
LINE
  5
19B
  8
5
  6
CONTINUOUS
 10
396.8071
 20
1459.281
 30
0.0
 11
396.8071
 21
1463.781
 31
0.0
  0
LINE
  5
19C
  8
5
  6
CONTINUOUS
 10
379.507
 20
1463.781
 30
0.0
 11
379.5071
 21
1459.281
 31
0.0
  0
LINE
  5
19D
  8
5
  6
CONTINUOUS
 10
428.9071
 20
1459.281
 30
0.0
 11
428.9071
 21
1463.781
 31
0.0
  0
LINE
  5
19E
  8
5
  6
CONTINUOUS
 10
414.0071
 20
1463.781
 30
0.0
 11
414.0071
 21
1459.281
 31
0.0
  0
LINE
  5
19F
  8
5
  6
CONTINUOUS
 10
458.9071
 20
1459.281
 30
0.0
 11
458.9071
 21
1463.781
 31
0.0
  0
LINE
  5
1A0
  8
5
  6
CONTINUOUS
 10
443.9071
 20
1463.781
 30
0.0
 11
443.9071
 21
1459.281
 31
0.0
  0
LINE
  5
1A1
  8
5
  6
CONTINUOUS
 10
475.9071
 20
1463.781
 30
0.0
 11
475.9071
 21
1459.281
 31
0.0
  0
LINE
  5
1A2
  8
5
  6
CONTINUOUS
 10
615.1071
 20
1338.481
 30
0.0
 11
619.6071
 21
1338.481
 31
0.0
  0
LINE
  5
1A3
  8
5
  6
CONTINUOUS
 10
619.6071
 20
1109.081
 30
0.0
 11
615.1071
 21
1109.081
 31
0.0
  0
LINE
  5
1A4
  8
5
  6
CONTINUOUS
 10
615.1071
 20
1206.481
 30
0.0
 11
619.6071
 21
1206.481
 31
0.0
  0
LINE
  5
1A5
  8
5
  6
CONTINUOUS
 10
619.6071
 20
1223.781
 30
0.0
 11
615.1071
 21
1223.781
 31
0.0
  0
LINE
  5
1A6
  8
5
  6
CONTINUOUS
 10
615.1071
 20
1241.081
 30
0.0
 11
619.6071
 21
1241.081
 31
0.0
  0
LINE
  5
1A7
  8
5
  6
CONTINUOUS
 10
619.6071
 20
1258.281
 30
0.0
 11
615.1071
 21
1258.281
 31
0.0
  0
LINE
  5
1A8
  8
5
  6
CONTINUOUS
 10
615.1071
 20
1273.281
 30
0.0
 11
619.6071
 21
1273.281
 31
0.0
  0
LINE
  5
1A9
  8
5
  6
CONTINUOUS
 10
619.6071
 20
1288.181
 30
0.0
 11
615.1071
 21
1288.181
 31
0.0
  0
LINE
  5
1AA
  8
5
  6
CONTINUOUS
 10
615.1071
 20
1303.181
 30
0.0
 11
619.6071
 21
1303.181
 31
0.0
  0
LINE
  5
1AB
  8
5
  6
CONTINUOUS
 10
619.6071
 20
1320.181
 30
0.0
 11
615.1071
 21
1320.181
 31
0.0
  0
LINE
  5
1AC
  8
5
  6
CONTINUOUS
 10
615.1071
 20
1174.381
 30
0.0
 11
619.6071
 21
1174.381
 31
0.0
  0
LINE
  5
1AD
  8
5
  6
CONTINUOUS
 10
619.6071
 20
1189.281
 30
0.0
 11
615.1071
 21
1189.281
 31
0.0
  0
LINE
  5
1AE
  8
5
  6
CONTINUOUS
 10
615.1071
 20
1144.381
 30
0.0
 11
619.6071
 21
1144.381
 31
0.0
  0
LINE
  5
1AF
  8
5
  6
CONTINUOUS
 10
619.6071
 20
1159.381
 30
0.0
 11
615.1071
 21
1159.381
 31
0.0
  0
LINE
  5
1B0
  8
5
  6
CONTINUOUS
 10
619.6071
 20
1127.381
 30
0.0
 11
615.1071
 21
1127.381
 31
0.0
  0
LINE
  5
1B1
  8
5
  6
CONTINUOUS
 10
139.607
 20
1338.481
 30
0.0
 11
144.1071
 21
1338.481
 31
0.0
  0
LINE
  5
1B2
  8
5
  6
CONTINUOUS
 10
144.1071
 20
1109.081
 30
0.0
 11
139.607
 21
1109.081
 31
0.0
  0
LINE
  5
1B3
  8
5
  6
CONTINUOUS
 10
144.1071
 20
1223.781
 30
0.0
 11
139.607
 21
1223.781
 31
0.0
  0
LINE
  5
1B4
  8
5
  6
CONTINUOUS
 10
139.607
 20
1206.481
 30
0.0
 11
144.1071
 21
1206.481
 31
0.0
  0
LINE
  5
1B5
  8
5
  6
CONTINUOUS
 10
144.1071
 20
1258.281
 30
0.0
 11
139.607
 21
1258.281
 31
0.0
  0
LINE
  5
1B6
  8
5
  6
CONTINUOUS
 10
139.607
 20
1241.081
 30
0.0
 11
144.1071
 21
1241.081
 31
0.0
  0
LINE
  5
1B7
  8
5
  6
CONTINUOUS
 10
144.1071
 20
1288.181
 30
0.0
 11
139.607
 21
1288.181
 31
0.0
  0
LINE
  5
1B8
  8
5
  6
CONTINUOUS
 10
139.607
 20
1273.281
 30
0.0
 11
144.1071
 21
1273.281
 31
0.0
  0
LINE
  5
1B9
  8
5
  6
CONTINUOUS
 10
144.1071
 20
1320.181
 30
0.0
 11
139.607
 21
1320.181
 31
0.0
  0
LINE
  5
1BA
  8
5
  6
CONTINUOUS
 10
139.607
 20
1303.181
 30
0.0
 11
144.1071
 21
1303.181
 31
0.0
  0
LINE
  5
1BB
  8
5
  6
CONTINUOUS
 10
144.1071
 20
1189.281
 30
0.0
 11
139.607
 21
1189.281
 31
0.0
  0
LINE
  5
1BC
  8
5
  6
CONTINUOUS
 10
139.607
 20
1174.381
 30
0.0
 11
144.1071
 21
1174.381
 31
0.0
  0
LINE
  5
1BD
  8
5
  6
CONTINUOUS
 10
144.1071
 20
1159.381
 30
0.0
 11
139.607
 21
1159.381
 31
0.0
  0
LINE
  5
1BE
  8
5
  6
CONTINUOUS
 10
139.607
 20
1144.381
 30
0.0
 11
144.1071
 21
1144.381
 31
0.0
  0
LINE
  5
1BF
  8
5
  6
CONTINUOUS
 10
144.1071
 20
1127.381
 30
0.0
 11
139.607
 21
1127.381
 31
0.0
  0
LINE
  5
1C0
  8
5
  6
CONTINUOUS
 10
189.1862
 20
1435.052
 30
0.0
 11
167.1084
 21
1412.974
 31
0.0
  0
CIRCLE
  5
1C1
  8
5
  6
CONTINUOUS
 10
379.6071
 20
1223.781
 30
0.0
 40
223.5
  0
LINE
  5
1C2
  8
5
  6
CONTINUOUS
 10
273.4759
 20
1472.781
 30
0.0
 11
273.1616
 21
1463.781
 31
0.0
  0
LINE
  5
1C3
  8
5
  6
CONTINUOUS
 10
486.0525
 20
1463.781
 30
0.0
 11
485.7383
 21
1472.781
 31
0.0
  0
LINE
  5
1C4
  8
5
  6
CONTINUOUS
 10
200.5084
 20
1426.52
 30
0.0
 11
200.5084
 21
1426.52
 31
0.0
  0
LINE
  5
1C5
  8
5
  6
CONTINUOUS
 10
213.8763
 20
1003.781
 30
0.0
 11
225.3808
 21
1020.211
 31
0.0
  0
LINE
  5
1C6
  8
5
  6
CONTINUOUS
 10
545.3379
 20
1003.781
 30
0.0
 11
533.8333
 21
1020.211
 31
0.0
  0
LINE
  5
1C7
  8
5
  6
CONTINUOUS
 10
492.1071
 20
988.2809
 30
0.0
 11
492.1071
 21
983.7809
 31
0.0
  0
LINE
  5
1C8
  8
5
  6
CONTINUOUS
 10
267.1071
 20
983.7809
 30
0.0
 11
267.1071
 21
988.2809
 31
0.0
  0
LINE
  5
1C9
  8
5
  6
CONTINUOUS
 10
226.6071
 20
983.7809
 30
0.0
 11
241.1054
 21
1004.487
 31
0.0
  0
LINE
  5
1CA
  8
5
  6
CONTINUOUS
 10
181.1102
 20
1064.482
 30
0.0
 11
138.6071
 21
1003.781
 31
0.0
  0
LINE
  5
1CB
  8
5
  6
CONTINUOUS
 10
532.6071
 20
983.7809
 30
0.0
 11
518.1088
 21
1004.487
 31
0.0
  0
LINE
  5
1CC
  8
5
  6
CONTINUOUS
 10
620.6071
 20
1003.781
 30
0.0
 11
578.1039
 21
1064.482
 31
0.0
  0
LINE
  5
1CD
  8
5
  6
CONTINUOUS
 10
285.6071
 20
983.7809
 30
0.0
 11
267.1071
 21
983.7809
 31
0.0
  0
LINE
  5
1CE
  8
5
  6
CONTINUOUS
 10
473.6071
 20
983.7809
 30
0.0
 11
456.6071
 21
983.7809
 31
0.0
  0
LINE
  5
1CF
  8
5
  6
CONTINUOUS
 10
439.6071
 20
983.7809
 30
0.0
 11
424.6071
 21
983.7809
 31
0.0
  0
LINE
  5
1D0
  8
5
  6
CONTINUOUS
 10
409.6071
 20
983.7809
 30
0.0
 11
394.6071
 21
983.7809
 31
0.0
  0
LINE
  5
1D1
  8
5
  6
CONTINUOUS
 10
319.6071
 20
983.7809
 30
0.0
 11
302.6071
 21
983.7809
 31
0.0
  0
LINE
  5
1D2
  8
5
  6
CONTINUOUS
 10
349.6071
 20
983.7809
 30
0.0
 11
334.6071
 21
983.7809
 31
0.0
  0
LINE
  5
1D3
  8
5
  6
CONTINUOUS
 10
379.6071
 20
983.7809
 30
0.0
 11
364.6071
 21
983.7809
 31
0.0
  0
LINE
  5
1D4
  8
5
  6
CONTINUOUS
 10
302.6071
 20
983.7809
 30
0.0
 11
285.6071
 21
983.7809
 31
0.0
  0
LINE
  5
1D5
  8
5
  6
CONTINUOUS
 10
492.1071
 20
983.7809
 30
0.0
 11
473.6071
 21
983.7809
 31
0.0
  0
LINE
  5
1D6
  8
5
  6
CONTINUOUS
 10
456.6071
 20
983.7809
 30
0.0
 11
439.6071
 21
983.7809
 31
0.0
  0
LINE
  5
1D7
  8
5
  6
CONTINUOUS
 10
424.6071
 20
983.7809
 30
0.0
 11
409.6071
 21
983.7809
 31
0.0
  0
LINE
  5
1D8
  8
5
  6
CONTINUOUS
 10
394.6071
 20
983.7809
 30
0.0
 11
379.6071
 21
983.7809
 31
0.0
  0
LINE
  5
1D9
  8
5
  6
CONTINUOUS
 10
334.6071
 20
983.7809
 30
0.0
 11
319.6071
 21
983.7809
 31
0.0
  0
LINE
  5
1DA
  8
5
  6
CONTINUOUS
 10
364.6071
 20
983.7809
 30
0.0
 11
349.6071
 21
983.7809
 31
0.0
  0
LINE
  5
1DB
  8
5
  6
CONTINUOUS
 10
128.6071
 20
1126.681
 30
0.0
 11
128.6071
 21
1123.681
 31
0.0
  0
LINE
  5
1DC
  8
5
  6
CONTINUOUS
 10
226.6071
 20
973.7809
 30
0.0
 11
226.6071
 21
1003.781
 31
0.0
  0
LINE
  5
1DD
  8
5
  6
CONTINUOUS
 10
138.6071
 20
1003.781
 30
0.0
 11
138.6071
 21
973.7809
 31
0.0
  0
LINE
  5
1DE
  8
5
  6
CONTINUOUS
 10
138.6071
 20
973.7809
 30
0.0
 11
226.6071
 21
973.7809
 31
0.0
  0
LINE
  5
1DF
  8
5
  6
CONTINUOUS
 10
226.6071
 20
1003.781
 30
0.0
 11
138.6071
 21
1003.781
 31
0.0
  0
LINE
  5
1E0
  8
5
  6
CONTINUOUS
 10
532.6071
 20
973.7809
 30
0.0
 11
532.6071
 21
1003.781
 31
0.0
  0
LINE
  5
1E1
  8
5
  6
CONTINUOUS
 10
620.6071
 20
1003.781
 30
0.0
 11
620.6071
 21
973.7809
 31
0.0
  0
LINE
  5
1E2
  8
5
  6
CONTINUOUS
 10
620.6071
 20
973.7809
 30
0.0
 11
532.6071
 21
973.7809
 31
0.0
  0
LINE
  5
1E3
  8
5
  6
CONTINUOUS
 10
532.6071
 20
1003.781
 30
0.0
 11
620.6071
 21
1003.781
 31
0.0
  0
LINE
  5
1E4
  8
5
  6
CONTINUOUS
 10
539.1071
 20
1543.281
 30
0.0
 11
217.1071
 21
1543.281
 31
0.0
  0
LINE
  5
1E5
  8
5
  6
CONTINUOUS
 10
217.1071
 20
1543.281
 30
0.0
 11
217.1071
 21
1564.581
 31
0.0
  0
LINE
  5
1E6
  8
5
  6
CONTINUOUS
 10
188.1071
 20
1546.281
 30
0.0
 11
188.1071
 21
1599.481
 31
0.0
  0
LINE
  5
1E7
  8
5
  6
CONTINUOUS
 10
534.6071
 20
1543.281
 30
0.0
 11
534.6071
 21
1521.281
 31
0.0
  0
LINE
  5
1E8
  8
5
  6
CONTINUOUS
 10
222.1071
 20
1521.281
 30
0.0
 11
222.1071
 21
1543.281
 31
0.0
  0
LINE
  5
1E9
  8
5
  6
CONTINUOUS
 10
187.1071
 20
1546.281
 30
0.0
 11
217.1071
 21
1546.281
 31
0.0
  0
LINE
  5
1EA
  8
5
  6
CONTINUOUS
 10
188.1071
 20
1599.481
 30
0.0
 11
254.4755
 21
1599.481
 31
0.0
  0
LINE
  5
1EB
  8
5
  6
CONTINUOUS
 10
250.978
 20
1599.481
 30
0.0
 11
266.607
 21
1615.581
 31
0.0
  0
LINE
  5
1EC
  8
5
  6
CONTINUOUS
 10
266.6071
 20
1564.581
 30
0.0
 11
217.1071
 21
1564.581
 31
0.0
  0
LINE
  5
1ED
  8
5
  6
CONTINUOUS
 10
489.6105
 20
1615.577
 30
0.0
 11
539.107
 21
1564.581
 31
0.0
  0
LINE
  5
1EE
  8
5
  6
CONTINUOUS
 10
489.6145
 20
1615.581
 30
0.0
 11
489.6105
 21
1615.577
 31
0.0
  0
LINE
  5
1EF
  8
5
  6
CONTINUOUS
 10
539.107
 20
1564.581
 30
0.0
 11
489.6071
 21
1564.581
 31
0.0
  0
LINE
  5
1F0
  8
5
  6
CONTINUOUS
 10
539.107
 20
1564.581
 30
0.0
 11
539.1071
 21
1543.281
 31
0.0
  0
LINE
  5
1F1
  8
5
  6
CONTINUOUS
 10
351.6038
 20
1619.781
 30
0.0
 11
366.4329
 21
1619.781
 31
0.0
  0
LINE
  5
1F2
  8
5
  6
CONTINUOUS
 10
366.4329
 20
1619.781
 30
0.0
 11
377.6705
 21
1619.781
 31
0.0
  0
LINE
  5
1F3
  8
5
  6
CONTINUOUS
 10
379.7704
 20
1619.781
 30
0.0
 11
382.3251
 21
1619.781
 31
0.0
  0
LINE
  5
1F4
  8
5
  6
CONTINUOUS
 10
382.3251
 20
1619.781
 30
0.0
 11
394.2284
 21
1619.781
 31
0.0
  0
LINE
  5
1F5
  8
5
  6
CONTINUOUS
 10
394.2284
 20
1619.781
 30
0.0
 11
404.6675
 21
1619.781
 31
0.0
  0
LINE
  5
1F6
  8
5
  6
CONTINUOUS
 10
379.7704
 20
1619.781
 30
0.0
 11
379.7704
 21
1619.781
 31
0.0
  0
LINE
  5
1F7
  8
5
  6
CONTINUOUS
 10
351.6038
 20
1619.781
 30
0.0
 11
351.6038
 21
1619.781
 31
0.0
  0
LINE
  5
1F8
  8
5
  6
CONTINUOUS
 10
379.7704
 20
1619.781
 30
0.0
 11
379.7704
 21
1619.781
 31
0.0
  0
LINE
  5
1F9
  8
5
  6
CONTINUOUS
 10
351.6038
 20
1619.781
 30
0.0
 11
351.6038
 21
1619.781
 31
0.0
  0
LINE
  5
1FA
  8
5
  6
CONTINUOUS
 10
377.6705
 20
1615.581
 30
0.0
 11
377.6705
 21
1619.781
 31
0.0
  0
LINE
  5
1FB
  8
5
  6
CONTINUOUS
 10
351.6039
 20
1615.581
 30
0.0
 11
351.6038
 21
1619.781
 31
0.0
  0
LINE
  5
1FC
  8
5
  6
CONTINUOUS
 10
404.6675
 20
1615.581
 30
0.0
 11
404.6675
 21
1619.781
 31
0.0
  0
LINE
  5
1FD
  8
5
  6
CONTINUOUS
 10
379.7704
 20
1615.581
 30
0.0
 11
379.7704
 21
1619.781
 31
0.0
  0
LINE
  5
1FE
  8
5
  6
CONTINUOUS
 10
266.607
 20
1615.581
 30
0.0
 11
489.6105
 21
1615.577
 31
0.0
  0
LINE
  5
1FF
  8
5
  6
CONTINUOUS
 10
527.6071
 20
1521.281
 30
0.0
 11
527.6071
 21
1496.781
 31
0.0
  0
LINE
  5
200
  8
5
  6
CONTINUOUS
 10
527.6071
 20
1496.781
 30
0.0
 11
503.6071
 21
1472.781
 31
0.0
  0
LINE
  5
201
  8
5
  6
CONTINUOUS
 10
231.6071
 20
1496.781
 30
0.0
 11
255.6071
 21
1472.781
 31
0.0
  0
LINE
  5
202
  8
5
  6
CONTINUOUS
 10
187.1071
 20
1498.281
 30
0.0
 11
187.1071
 21
1546.281
 31
0.0
  0
LINE
  5
203
  8
5
  6
CONTINUOUS
 10
534.6071
 20
1521.281
 30
0.0
 11
222.1071
 21
1521.281
 31
0.0
  0
LINE
  5
204
  8
5
  6
CONTINUOUS
 10
231.6071
 20
1496.781
 30
0.0
 11
231.6071
 21
1521.281
 31
0.0
  0
LINE
  5
205
  8
5
  6
CONTINUOUS
 10
231.6071
 20
1498.281
 30
0.0
 11
187.1071
 21
1498.281
 31
0.0
  0
LINE
  5
206
  8
5
  6
CONTINUOUS
 10
503.6071
 20
1472.781
 30
0.0
 11
255.6071
 21
1472.781
 31
0.0
  0
LINE
  5
207
  8
5
  6
CONTINUOUS
 10
492.107
 20
983.7808
 30
0.0
 11
487.6071
 21
988.2809
 31
0.0
  0
LINE
  5
208
  8
5
  6
CONTINUOUS
 10
267.1071
 20
983.7808
 30
0.0
 11
271.6071
 21
988.2809
 31
0.0
  0
LINE
  5
209
  8
5
  6
CONTINUOUS
 10
285.6071
 20
983.7808
 30
0.0
 11
285.6071
 21
988.2809
 31
0.0
  0
LINE
  5
20A
  8
5
  6
CONTINUOUS
 10
473.6071
 20
988.2809
 30
0.0
 11
473.607
 21
983.7808
 31
0.0
  0
LINE
  5
20B
  8
5
  6
CONTINUOUS
 10
364.6071
 20
988.2809
 30
0.0
 11
364.6071
 21
983.7808
 31
0.0
  0
LINE
  5
20C
  8
5
  6
CONTINUOUS
 10
379.6071
 20
983.7808
 30
0.0
 11
379.6071
 21
988.2809
 31
0.0
  0
LINE
  5
20D
  8
5
  6
CONTINUOUS
 10
334.6071
 20
988.2809
 30
0.0
 11
334.6071
 21
983.7808
 31
0.0
  0
LINE
  5
20E
  8
5
  6
CONTINUOUS
 10
349.607
 20
983.7808
 30
0.0
 11
349.6071
 21
988.2809
 31
0.0
  0
LINE
  5
20F
  8
5
  6
CONTINUOUS
 10
302.6071
 20
988.2809
 30
0.0
 11
302.607
 21
983.7808
 31
0.0
  0
LINE
  5
210
  8
5
  6
CONTINUOUS
 10
319.6071
 20
983.7808
 30
0.0
 11
319.6071
 21
988.2809
 31
0.0
  0
LINE
  5
211
  8
5
  6
CONTINUOUS
 10
394.6071
 20
988.2809
 30
0.0
 11
394.607
 21
983.7808
 31
0.0
  0
LINE
  5
212
  8
5
  6
CONTINUOUS
 10
409.6071
 20
983.7808
 30
0.0
 11
409.6071
 21
988.2809
 31
0.0
  0
LINE
  5
213
  8
5
  6
CONTINUOUS
 10
424.6071
 20
988.2809
 30
0.0
 11
424.6071
 21
983.7808
 31
0.0
  0
LINE
  5
214
  8
5
  6
CONTINUOUS
 10
439.6072
 20
983.7808
 30
0.0
 11
439.6071
 21
988.2809
 31
0.0
  0
LINE
  5
215
  8
5
  6
CONTINUOUS
 10
456.6071
 20
988.2809
 30
0.0
 11
456.6071
 21
983.7808
 31
0.0
  0
LINE
  5
216
  8
5
  6
CONTINUOUS
 10
128.6071
 20
1123.681
 30
0.0
 11
139.6071
 21
1123.681
 31
0.0
  0
LINE
  5
217
  8
5
  6
CONTINUOUS
 10
139.6071
 20
1126.681
 30
0.0
 11
128.6071
 21
1126.681
 31
0.0
  0
LINE
  5
218
  8
5
  6
CONTINUOUS
 10
254.4755
 20
1599.481
 30
0.0
 11
220.6071
 21
1564.581
 31
0.0
  0
LINE
  5
219
  8
5
  6
CONTINUOUS
 10
266.607
 20
1615.581
 30
0.0
 11
266.6071
 21
1564.581
 31
0.0
  0
LINE
  5
21A
  8
5
  6
CONTINUOUS
 10
489.6071
 20
1564.581
 30
0.0
 11
266.6071
 21
1564.581
 31
0.0
  0
LINE
  5
21B
  8
5
  6
CONTINUOUS
 10
489.6071
 20
1564.581
 30
0.0
 11
489.6105
 21
1615.577
 31
0.0
  0
LINE
  5
21C
  8
5
  6
CONTINUOUS
 10
366.4329
 20
1615.581
 30
0.0
 11
366.4329
 21
1619.781
 31
0.0
  0
LINE
  5
21D
  8
5
  6
CONTINUOUS
 10
394.2283
 20
1615.581
 30
0.0
 11
394.2284
 21
1619.781
 31
0.0
  0
LINE
  5
21E
  8
5
  6
CONTINUOUS
 10
382.3251
 20
1615.581
 30
0.0
 11
382.3251
 21
1619.781
 31
0.0
  0
LINE
  5
21F
  8
5
  6
CONTINUOUS
 10
231.6071
 20
1496.781
 30
0.0
 11
527.6071
 21
1496.781
 31
0.0
  0
LINE
  5
220
  8
5
  6
CONTINUOUS
 10
1410.0
 20
506.0573
 30
0.0
 11
1408.503
 21
517.7443
 31
0.0
  0
LINE
  5
221
  8
5
  6
CONTINUOUS
 10
1404.032
 20
552.6443
 30
0.0
 11
1406.239
 21
535.4197
 31
0.0
  0
LINE
  5
222
  8
5
  6
CONTINUOUS
 10
1406.261
 20
535.2443
 30
0.0
 11
1406.239
 21
535.4197
 31
0.0
  0
LINE
  5
223
  8
5
  6
CONTINUOUS
 10
1408.503
 20
517.7443
 30
0.0
 11
1406.261
 21
535.2443
 31
0.0
  0
LINE
  5
224
  8
5
  6
CONTINUOUS
 10
1404.019
 20
552.7443
 30
0.0
 11
1404.032
 21
552.6443
 31
0.0
  0
LINE
  5
225
  8
5
  6
CONTINUOUS
 10
1406.248
 20
625.7443
 30
0.0
 11
1408.49
 21
608.2443
 31
0.0
  0
LINE
  5
226
  8
5
  6
CONTINUOUS
 10
1404.019
 20
643.1443
 30
0.0
 11
1406.235
 21
625.8449
 31
0.0
  0
LINE
  5
227
  8
5
  6
CONTINUOUS
 10
1406.235
 20
625.8449
 30
0.0
 11
1406.242
 21
625.7949
 31
0.0
  0
LINE
  5
228
  8
5
  6
CONTINUOUS
 10
1406.242
 20
625.7949
 30
0.0
 11
1406.248
 21
625.7443
 31
0.0
  0
LINE
  5
229
  8
5
  6
CONTINUOUS
 10
1408.49
 20
608.2443
 30
0.0
 11
1410.0
 21
596.4573
 31
0.0
  0
LINE
  5
22A
  8
5
  6
CONTINUOUS
 10
1406.235
 20
180.4438
 30
0.0
 11
1404.019
 21
163.1443
 31
0.0
  0
LINE
  5
22B
  8
5
  6
CONTINUOUS
 10
1406.248
 20
180.5443
 30
0.0
 11
1408.49
 21
198.0443
 31
0.0
  0
LINE
  5
22C
  8
5
  6
CONTINUOUS
 10
1406.242
 20
180.4938
 30
0.0
 11
1406.248
 21
180.5443
 31
0.0
  0
LINE
  5
22D
  8
5
  6
CONTINUOUS
 10
1406.242
 20
180.4938
 30
0.0
 11
1406.235
 21
180.4438
 31
0.0
  0
LINE
  5
22E
  8
5
  6
CONTINUOUS
 10
1408.49
 20
198.0443
 30
0.0
 11
1410.0
 21
209.8314
 31
0.0
  0
LINE
  5
22F
  8
5
  6
CONTINUOUS
 10
965.8032
 20
625.8449
 30
0.0
 11
968.0193
 21
643.1443
 31
0.0
  0
LINE
  5
230
  8
5
  6
CONTINUOUS
 10
965.7903
 20
625.7443
 30
0.0
 11
963.5485
 21
608.2443
 31
0.0
  0
LINE
  5
231
  8
5
  6
CONTINUOUS
 10
965.7968
 20
625.7949
 30
0.0
 11
965.7903
 21
625.7443
 31
0.0
  0
LINE
  5
232
  8
5
  6
CONTINUOUS
 10
965.7968
 20
625.7949
 30
0.0
 11
965.8032
 21
625.8449
 31
0.0
  0
LINE
  5
233
  8
5
  6
CONTINUOUS
 10
963.5485
 20
608.2443
 30
0.0
 11
962.0385
 21
596.4573
 31
0.0
  0
LINE
  5
234
  8
5
  6
CONTINUOUS
 10
965.7903
 20
180.5443
 30
0.0
 11
963.5485
 21
198.0443
 31
0.0
  0
LINE
  5
235
  8
5
  6
CONTINUOUS
 10
968.0193
 20
163.1443
 30
0.0
 11
965.8032
 21
180.4438
 31
0.0
  0
LINE
  5
236
  8
5
  6
CONTINUOUS
 10
965.8032
 20
180.4438
 30
0.0
 11
965.7968
 21
180.4938
 31
0.0
  0
LINE
  5
237
  8
5
  6
CONTINUOUS
 10
965.7968
 20
180.4938
 30
0.0
 11
965.7903
 21
180.5443
 31
0.0
  0
LINE
  5
238
  8
5
  6
CONTINUOUS
 10
963.5485
 20
198.0443
 30
0.0
 11
962.0385
 21
209.8314
 31
0.0
  0
LINE
  5
239
  8
5
  6
CONTINUOUS
 10
968.0193
 20
643.1443
 30
0.0
 11
1404.019
 21
643.1443
 31
0.0
  0
LINE
  5
23A
  8
5
  6
CONTINUOUS
 10
1404.019
 20
163.1443
 30
0.0
 11
968.0193
 21
163.1443
 31
0.0
  0
LINE
  5
23B
  8
5
  6
CONTINUOUS
 10
1259.019
 20
552.7442
 30
0.0
 11
1404.019
 21
552.7443
 31
0.0
  0
LINE
  5
23C
  8
5
  6
CONTINUOUS
 10
1408.464
 20
288.2443
 30
0.0
 11
1406.239
 21
270.869
 31
0.0
  0
LINE
  5
23D
  8
5
  6
CONTINUOUS
 10
1406.239
 20
270.869
 30
0.0
 11
1406.235
 21
270.8443
 31
0.0
  0
LINE
  5
23E
  8
5
  6
CONTINUOUS
 10
1410.0
 20
300.2314
 30
0.0
 11
1408.464
 21
288.2443
 31
0.0
  0
LINE
  5
23F
  8
5
  6
CONTINUOUS
 10
1406.235
 20
270.8443
 30
0.0
 11
1404.019
 21
253.5443
 31
0.0
  0
LINE
  5
240
  8
5
  6
CONTINUOUS
 10
1404.019
 20
253.5443
 30
0.0
 11
1259.019
 21
253.5444
 31
0.0
  0
LINE
  5
241
  8
5
  6
CONTINUOUS
 10
1540.519
 20
635.6444
 30
0.0
 11
1540.519
 21
524.1978
 31
0.0
  0
LINE
  5
242
  8
5
  6
CONTINUOUS
 10
1540.519
 20
524.1978
 30
0.0
 11
1540.519
 21
282.091
 31
0.0
  0
LINE
  5
243
  8
5
  6
CONTINUOUS
 10
1540.519
 20
282.091
 30
0.0
 11
1540.519
 21
170.6444
 31
0.0
  0
LINE
  5
244
  8
5
  6
CONTINUOUS
 10
1613.519
 20
543.1443
 30
0.0
 11
1613.519
 21
263.1443
 31
0.0
  0
LINE
  5
245
  8
5
  6
CONTINUOUS
 10
1472.019
 20
638.6444
 30
0.0
 11
1411.519
 21
638.6444
 31
0.0
  0
LINE
  5
246
  8
5
  6
CONTINUOUS
 10
1472.019
 20
167.6444
 30
0.0
 11
1411.519
 21
167.6444
 31
0.0
  0
LINE
  5
247
  8
5
  6
CONTINUOUS
 10
1472.019
 20
635.6444
 30
0.0
 11
1540.519
 21
635.6444
 31
0.0
  0
LINE
  5
248
  8
5
  6
CONTINUOUS
 10
1540.519
 20
170.6444
 30
0.0
 11
1472.019
 21
170.6444
 31
0.0
  0
LINE
  5
249
  8
5
  6
CONTINUOUS
 10
1472.019
 20
638.6444
 30
0.0
 11
1472.019
 21
525.4404
 31
0.0
  0
LINE
  5
24A
  8
5
  6
CONTINUOUS
 10
1472.019
 20
525.4404
 30
0.0
 11
1472.019
 21
280.8483
 31
0.0
  0
LINE
  5
24B
  8
5
  6
CONTINUOUS
 10
1472.019
 20
280.8483
 30
0.0
 11
1472.019
 21
167.6444
 31
0.0
  0
LINE
  5
24C
  8
5
  6
CONTINUOUS
 10
1411.519
 20
167.6444
 30
0.0
 11
1411.519
 21
280.8483
 31
0.0
  0
LINE
  5
24D
  8
5
  6
CONTINUOUS
 10
1411.519
 20
280.8483
 30
0.0
 11
1411.519
 21
525.4404
 31
0.0
  0
LINE
  5
24E
  8
5
  6
CONTINUOUS
 10
1411.519
 20
525.4404
 30
0.0
 11
1411.519
 21
638.6444
 31
0.0
  0
LINE
  5
24F
  8
5
  6
CONTINUOUS
 10
1079.816
 20
562.6443
 30
0.0
 11
1077.135
 21
593.5653
 31
0.0
  0
LINE
  5
250
  8
5
  6
CONTINUOUS
 10
1077.135
 20
593.5653
 30
0.0
 11
1060.019
 21
606.4376
 31
0.0
  0
LINE
  5
251
  8
5
  6
CONTINUOUS
 10
1060.019
 20
606.4376
 30
0.0
 11
1001.019
 21
606.4376
 31
0.0
  0
LINE
  5
252
  8
5
  6
CONTINUOUS
 10
1001.019
 20
606.4376
 30
0.0
 11
983.9031
 21
593.5653
 31
0.0
  0
LINE
  5
253
  8
5
  6
CONTINUOUS
 10
981.2221
 20
562.6443
 30
0.0
 11
983.9031
 21
593.5653
 31
0.0
  0
LINE
  5
254
  8
5
  6
CONTINUOUS
 10
1012.519
 20
562.6444
 30
0.0
 11
1012.519
 21
575.7911
 31
0.0
  0
LINE
  5
255
  8
5
  6
CONTINUOUS
 10
1012.519
 20
575.7911
 30
0.0
 11
1020.519
 21
582.2431
 31
0.0
  0
LINE
  5
256
  8
5
  6
CONTINUOUS
 10
1020.519
 20
582.2431
 30
0.0
 11
1040.519
 21
582.2431
 31
0.0
  0
LINE
  5
257
  8
5
  6
CONTINUOUS
 10
1040.519
 20
582.2431
 30
0.0
 11
1048.519
 21
575.7912
 31
0.0
  0
LINE
  5
258
  8
5
  6
CONTINUOUS
 10
1048.519
 20
575.7912
 30
0.0
 11
1048.519
 21
562.6444
 31
0.0
  0
LINE
  5
259
  8
5
  6
CONTINUOUS
 10
983.9031
 20
615.643
 30
0.0
 11
980.7691
 21
591.8531
 31
0.0
  0
LINE
  5
25A
  8
5
  6
CONTINUOUS
 10
983.9031
 20
615.643
 30
0.0
 11
1001.019
 21
624.1152
 31
0.0
  0
LINE
  5
25B
  8
5
  6
CONTINUOUS
 10
1001.019
 20
624.1152
 30
0.0
 11
1060.019
 21
624.1152
 31
0.0
  0
LINE
  5
25C
  8
5
  6
CONTINUOUS
 10
1060.019
 20
624.1152
 30
0.0
 11
1077.135
 21
615.643
 31
0.0
  0
LINE
  5
25D
  8
5
  6
CONTINUOUS
 10
1077.135
 20
615.643
 30
0.0
 11
1080.269
 21
591.8531
 31
0.0
  0
LINE
  5
25E
  8
5
  6
CONTINUOUS
 10
983.9031
 20
593.5653
 30
0.0
 11
983.9031
 21
615.643
 31
0.0
  0
LINE
  5
25F
  8
5
  6
CONTINUOUS
 10
979.3466
 20
563.0845
 30
0.0
 11
980.7691
 21
591.8531
 31
0.0
  0
LINE
  5
260
  8
5
  6
CONTINUOUS
 10
1080.269
 20
591.8531
 30
0.0
 11
1081.692
 21
563.0845
 31
0.0
  0
LINE
  5
261
  8
5
  6
CONTINUOUS
 10
1077.135
 20
615.643
 30
0.0
 11
1077.135
 21
593.5653
 31
0.0
  0
LINE
  5
262
  8
5
  6
CONTINUOUS
 10
1060.019
 20
606.4376
 30
0.0
 11
1060.019
 21
624.1152
 31
0.0
  0
LINE
  5
263
  8
5
  6
CONTINUOUS
 10
1001.019
 20
624.1152
 30
0.0
 11
1001.019
 21
606.4376
 31
0.0
  0
LINE
  5
264
  8
5
  6
CONTINUOUS
 10
1259.019
 20
535.2443
 30
0.0
 11
1406.216
 21
535.2444
 31
0.0
  0
LINE
  5
265
  8
5
  6
CONTINUOUS
 10
1406.239
 20
535.4197
 30
0.0
 11
1406.216
 21
535.2444
 31
0.0
  0
LINE
  5
266
  8
5
  6
CONTINUOUS
 10
1404.032
 20
552.6443
 30
0.0
 11
1259.019
 21
552.6443
 31
0.0
  0
LINE
  5
267
  8
5
  6
CONTINUOUS
 10
1279.019
 20
517.9444
 30
0.0
 11
1259.019
 21
534.2387
 31
0.0
  0
LINE
  5
268
  8
5
  6
CONTINUOUS
 10
1404.019
 20
517.9444
 30
0.0
 11
1279.019
 21
517.9444
 31
0.0
  0
LINE
  5
269
  8
5
  6
CONTINUOUS
 10
1406.216
 20
535.2444
 30
0.0
 11
1404.019
 21
517.9444
 31
0.0
  0
LINE
  5
26A
  8
5
  6
CONTINUOUS
 10
1404.032
 20
288.2444
 30
0.0
 11
1278.897
 21
288.2444
 31
0.0
  0
LINE
  5
26B
  8
5
  6
CONTINUOUS
 10
1259.019
 20
272.05
 30
0.0
 11
1278.897
 21
288.2444
 31
0.0
  0
LINE
  5
26C
  8
5
  6
CONTINUOUS
 10
1259.019
 20
270.8443
 30
0.0
 11
1406.236
 21
270.8444
 31
0.0
  0
LINE
  5
26D
  8
5
  6
CONTINUOUS
 10
1404.032
 20
288.2444
 30
0.0
 11
1406.239
 21
270.869
 31
0.0
  0
LINE
  5
26E
  8
5
  6
CONTINUOUS
 10
1404.019
 20
288.3444
 30
0.0
 11
1404.032
 21
288.2444
 31
0.0
  0
LINE
  5
26F
  8
5
  6
CONTINUOUS
 10
1279.019
 20
288.3444
 30
0.0
 11
1404.019
 21
288.3444
 31
0.0
  0
LINE
  5
270
  8
5
  6
CONTINUOUS
 10
1278.897
 20
288.2444
 30
0.0
 11
1279.019
 21
288.3444
 31
0.0
  0
LINE
  5
271
  8
5
  6
CONTINUOUS
 10
1406.216
 20
535.2444
 30
0.0
 11
1406.261
 21
535.2443
 31
0.0
  0
LINE
  5
272
  8
5
  6
CONTINUOUS
 10
1408.465
 20
288.2444
 30
0.0
 11
1404.032
 21
288.2444
 31
0.0
  0
LINE
  5
273
  8
5
  6
CONTINUOUS
 10
1404.019
 20
517.7443
 30
0.0
 11
1408.503
 21
517.7443
 31
0.0
  0
LINE
  5
274
  8
5
  6
CONTINUOUS
 10
1404.019
 20
517.7443
 30
0.0
 11
1404.019
 21
517.9444
 31
0.0
  0
LINE
  5
275
  8
5
  6
CONTINUOUS
 10
1408.623
 20
323.6444
 30
0.0
 11
1404.019
 21
323.6444
 31
0.0
  0
LINE
  5
276
  8
5
  6
CONTINUOUS
 10
1404.019
 20
306.6444
 30
0.0
 11
1404.019
 21
323.6444
 31
0.0
  0
LINE
  5
277
  8
5
  6
CONTINUOUS
 10
1404.019
 20
306.6444
 30
0.0
 11
1409.58
 21
306.6444
 31
0.0
  0
LINE
  5
278
  8
5
  6
CONTINUOUS
 10
1407.435
 20
353.6444
 30
0.0
 11
1404.019
 21
353.6444
 31
0.0
  0
LINE
  5
279
  8
5
  6
CONTINUOUS
 10
1404.019
 20
338.6443
 30
0.0
 11
1404.019
 21
353.6444
 31
0.0
  0
LINE
  5
27A
  8
5
  6
CONTINUOUS
 10
1404.019
 20
338.6443
 30
0.0
 11
1407.954
 21
338.6443
 31
0.0
  0
LINE
  5
27B
  8
5
  6
CONTINUOUS
 10
1406.798
 20
385.7443
 30
0.0
 11
1404.019
 21
385.7443
 31
0.0
  0
LINE
  5
27C
  8
5
  6
CONTINUOUS
 10
1404.019
 20
368.5445
 30
0.0
 11
1404.019
 21
385.7443
 31
0.0
  0
LINE
  5
27D
  8
5
  6
CONTINUOUS
 10
1404.019
 20
368.5445
 30
0.0
 11
1407.062
 21
368.5445
 31
0.0
  0
LINE
  5
27E
  8
5
  6
CONTINUOUS
 10
1406.796
 20
420.3444
 30
0.0
 11
1404.019
 21
420.3444
 31
0.0
  0
LINE
  5
27F
  8
5
  6
CONTINUOUS
 10
1404.019
 20
403.0443
 30
0.0
 11
1404.019
 21
420.3444
 31
0.0
  0
LINE
  5
280
  8
5
  6
CONTINUOUS
 10
1404.019
 20
403.0443
 30
0.0
 11
1406.71
 21
403.0443
 31
0.0
  0
LINE
  5
281
  8
5
  6
CONTINUOUS
 10
1407.43
 20
452.4444
 30
0.0
 11
1404.019
 21
452.4444
 31
0.0
  0
LINE
  5
282
  8
5
  6
CONTINUOUS
 10
1404.019
 20
437.5443
 30
0.0
 11
1404.019
 21
452.4444
 31
0.0
  0
LINE
  5
283
  8
5
  6
CONTINUOUS
 10
1404.019
 20
437.5443
 30
0.0
 11
1407.058
 21
437.5443
 31
0.0
  0
LINE
  5
284
  8
5
  6
CONTINUOUS
 10
1408.613
 20
482.4444
 30
0.0
 11
1404.019
 21
482.4444
 31
0.0
  0
LINE
  5
285
  8
5
  6
CONTINUOUS
 10
1404.019
 20
467.4443
 30
0.0
 11
1404.019
 21
482.4444
 31
0.0
  0
LINE
  5
286
  8
5
  6
CONTINUOUS
 10
1404.019
 20
467.4443
 30
0.0
 11
1407.946
 21
467.4443
 31
0.0
  0
LINE
  5
287
  8
5
  6
CONTINUOUS
 10
1404.019
 20
499.4443
 30
0.0
 11
1404.019
 21
517.7443
 31
0.0
  0
LINE
  5
288
  8
5
  6
CONTINUOUS
 10
1404.019
 20
499.4443
 30
0.0
 11
1409.567
 21
499.4443
 31
0.0
  0
LINE
  5
289
  8
5
  6
CONTINUOUS
 10
1404.019
 20
288.3444
 30
0.0
 11
1404.019
 21
306.6444
 31
0.0
  0
LINE
  5
28A
  8
5
  6
CONTINUOUS
 10
1404.019
 20
323.6444
 30
0.0
 11
1404.019
 21
338.6443
 31
0.0
  0
LINE
  5
28B
  8
5
  6
CONTINUOUS
 10
1404.019
 20
353.6444
 30
0.0
 11
1404.019
 21
368.5445
 31
0.0
  0
LINE
  5
28C
  8
5
  6
CONTINUOUS
 10
1404.019
 20
385.7443
 30
0.0
 11
1404.019
 21
403.0443
 31
0.0
  0
LINE
  5
28D
  8
5
  6
CONTINUOUS
 10
1404.019
 20
420.3444
 30
0.0
 11
1404.019
 21
437.5443
 31
0.0
  0
LINE
  5
28E
  8
5
  6
CONTINUOUS
 10
1404.019
 20
452.4444
 30
0.0
 11
1404.019
 21
467.4443
 31
0.0
  0
LINE
  5
28F
  8
5
  6
CONTINUOUS
 10
1404.019
 20
482.4444
 30
0.0
 11
1404.019
 21
499.4443
 31
0.0
  0
LINE
  5
290
  8
5
  6
CONTINUOUS
 10
1259.019
 20
306.6443
 30
0.0
 11
1279.019
 21
306.6444
 31
0.0
  0
LINE
  5
291
  8
5
  6
CONTINUOUS
 10
1279.019
 20
323.6444
 30
0.0
 11
1279.019
 21
306.6444
 31
0.0
  0
LINE
  5
292
  8
5
  6
CONTINUOUS
 10
1279.019
 20
323.6444
 30
0.0
 11
1259.019
 21
323.6443
 31
0.0
  0
LINE
  5
293
  8
5
  6
CONTINUOUS
 10
1259.019
 20
338.6443
 30
0.0
 11
1279.019
 21
338.6443
 31
0.0
  0
LINE
  5
294
  8
5
  6
CONTINUOUS
 10
1279.019
 20
353.6444
 30
0.0
 11
1279.019
 21
338.6443
 31
0.0
  0
LINE
  5
295
  8
5
  6
CONTINUOUS
 10
1279.019
 20
353.6444
 30
0.0
 11
1259.019
 21
353.6443
 31
0.0
  0
LINE
  5
296
  8
5
  6
CONTINUOUS
 10
1259.019
 20
368.5443
 30
0.0
 11
1279.019
 21
368.5445
 31
0.0
  0
LINE
  5
297
  8
5
  6
CONTINUOUS
 10
1279.019
 20
385.7443
 30
0.0
 11
1279.019
 21
368.5445
 31
0.0
  0
LINE
  5
298
  8
5
  6
CONTINUOUS
 10
1279.019
 20
385.7443
 30
0.0
 11
1259.019
 21
385.7443
 31
0.0
  0
LINE
  5
299
  8
5
  6
CONTINUOUS
 10
1279.019
 20
452.4444
 30
0.0
 11
1259.019
 21
452.4443
 31
0.0
  0
LINE
  5
29A
  8
5
  6
CONTINUOUS
 10
1259.019
 20
437.5443
 30
0.0
 11
1279.019
 21
437.5443
 31
0.0
  0
LINE
  5
29B
  8
5
  6
CONTINUOUS
 10
1279.019
 20
452.4444
 30
0.0
 11
1279.019
 21
437.5443
 31
0.0
  0
LINE
  5
29C
  8
5
  6
CONTINUOUS
 10
1279.019
 20
482.4444
 30
0.0
 11
1259.019
 21
482.4443
 31
0.0
  0
LINE
  5
29D
  8
5
  6
CONTINUOUS
 10
1259.019
 20
467.4443
 30
0.0
 11
1279.019
 21
467.4443
 31
0.0
  0
LINE
  5
29E
  8
5
  6
CONTINUOUS
 10
1279.019
 20
482.4444
 30
0.0
 11
1279.019
 21
467.4443
 31
0.0
  0
LINE
  5
29F
  8
5
  6
CONTINUOUS
 10
1279.019
 20
517.7443
 30
0.0
 11
1259.019
 21
517.7443
 31
0.0
  0
LINE
  5
2A0
  8
5
  6
CONTINUOUS
 10
1259.019
 20
499.4443
 30
0.0
 11
1279.019
 21
499.4443
 31
0.0
  0
LINE
  5
2A1
  8
5
  6
CONTINUOUS
 10
1279.019
 20
517.7443
 30
0.0
 11
1279.019
 21
499.4443
 31
0.0
  0
LINE
  5
2A2
  8
5
  6
CONTINUOUS
 10
1278.897
 20
288.2444
 30
0.0
 11
1259.019
 21
288.2443
 31
0.0
  0
LINE
  5
2A3
  8
5
  6
CONTINUOUS
 10
1279.019
 20
306.6444
 30
0.0
 11
1279.019
 21
288.3444
 31
0.0
  0
LINE
  5
2A4
  8
5
  6
CONTINUOUS
 10
1279.019
 20
338.6443
 30
0.0
 11
1279.019
 21
323.6444
 31
0.0
  0
LINE
  5
2A5
  8
5
  6
CONTINUOUS
 10
1279.019
 20
368.5445
 30
0.0
 11
1279.019
 21
353.6444
 31
0.0
  0
LINE
  5
2A6
  8
5
  6
CONTINUOUS
 10
1279.019
 20
403.0443
 30
0.0
 11
1279.019
 21
385.7443
 31
0.0
  0
LINE
  5
2A7
  8
5
  6
CONTINUOUS
 10
1279.019
 20
403.0443
 30
0.0
 11
1259.019
 21
403.0443
 31
0.0
  0
LINE
  5
2A8
  8
5
  6
CONTINUOUS
 10
1259.019
 20
420.3443
 30
0.0
 11
1279.019
 21
420.3444
 31
0.0
  0
LINE
  5
2A9
  8
5
  6
CONTINUOUS
 10
1279.019
 20
437.5443
 30
0.0
 11
1279.019
 21
420.3444
 31
0.0
  0
LINE
  5
2AA
  8
5
  6
CONTINUOUS
 10
1279.019
 20
467.4443
 30
0.0
 11
1279.019
 21
452.4444
 31
0.0
  0
LINE
  5
2AB
  8
5
  6
CONTINUOUS
 10
1279.019
 20
499.4443
 30
0.0
 11
1279.019
 21
482.4444
 31
0.0
  0
LINE
  5
2AC
  8
5
  6
CONTINUOUS
 10
1279.019
 20
517.9444
 30
0.0
 11
1279.019
 21
517.7443
 31
0.0
  0
LINE
  5
2AD
  8
5
  6
CONTINUOUS
 10
1279.019
 20
420.3444
 30
0.0
 11
1279.019
 21
403.0443
 31
0.0
  0
LINE
  5
2AE
  8
5
  6
CONTINUOUS
 10
1404.019
 20
517.7443
 30
0.0
 11
1279.019
 21
517.7443
 31
0.0
  0
LINE
  5
2AF
  8
5
  6
CONTINUOUS
 10
1279.019
 20
499.4443
 30
0.0
 11
1404.019
 21
499.4443
 31
0.0
  0
LINE
  5
2B0
  8
5
  6
CONTINUOUS
 10
1279.019
 20
467.4443
 30
0.0
 11
1404.019
 21
467.4443
 31
0.0
  0
LINE
  5
2B1
  8
5
  6
CONTINUOUS
 10
1404.019
 20
482.4444
 30
0.0
 11
1279.019
 21
482.4444
 31
0.0
  0
LINE
  5
2B2
  8
5
  6
CONTINUOUS
 10
1279.019
 20
437.5443
 30
0.0
 11
1404.019
 21
437.5443
 31
0.0
  0
LINE
  5
2B3
  8
5
  6
CONTINUOUS
 10
1404.019
 20
452.4444
 30
0.0
 11
1279.019
 21
452.4444
 31
0.0
  0
LINE
  5
2B4
  8
5
  6
CONTINUOUS
 10
1279.019
 20
403.0443
 30
0.0
 11
1404.019
 21
403.0443
 31
0.0
  0
LINE
  5
2B5
  8
5
  6
CONTINUOUS
 10
1404.019
 20
420.3444
 30
0.0
 11
1279.019
 21
420.3444
 31
0.0
  0
LINE
  5
2B6
  8
5
  6
CONTINUOUS
 10
1404.019
 20
385.7443
 30
0.0
 11
1279.019
 21
385.7443
 31
0.0
  0
LINE
  5
2B7
  8
5
  6
CONTINUOUS
 10
1279.019
 20
368.5445
 30
0.0
 11
1404.019
 21
368.5445
 31
0.0
  0
LINE
  5
2B8
  8
5
  6
CONTINUOUS
 10
1404.019
 20
353.6444
 30
0.0
 11
1279.019
 21
353.6444
 31
0.0
  0
LINE
  5
2B9
  8
5
  6
CONTINUOUS
 10
1279.019
 20
338.6443
 30
0.0
 11
1404.019
 21
338.6443
 31
0.0
  0
LINE
  5
2BA
  8
5
  6
CONTINUOUS
 10
1404.019
 20
323.6444
 30
0.0
 11
1279.019
 21
323.6444
 31
0.0
  0
LINE
  5
2BB
  8
5
  6
CONTINUOUS
 10
1279.019
 20
306.6444
 30
0.0
 11
1404.019
 21
306.6444
 31
0.0
  0
LINE
  5
2BC
  8
5
  6
CONTINUOUS
 10
965.8032
 20
625.8449
 30
0.0
 11
1406.235
 21
625.8449
 31
0.0
  0
LINE
  5
2BD
  8
5
  6
CONTINUOUS
 10
968.0193
 20
608.6444
 30
0.0
 11
965.7968
 21
625.7949
 31
0.0
  0
LINE
  5
2BE
  8
5
  6
CONTINUOUS
 10
1404.019
 20
608.6444
 30
0.0
 11
1078.057
 21
608.6443
 31
0.0
  0
LINE
  5
2BF
  8
5
  6
CONTINUOUS
 10
982.9812
 20
608.6443
 30
0.0
 11
968.0193
 21
608.6444
 31
0.0
  0
LINE
  5
2C0
  8
5
  6
CONTINUOUS
 10
1406.242
 20
625.7949
 30
0.0
 11
1404.019
 21
608.6444
 31
0.0
  0
LINE
  5
2C1
  8
5
  6
CONTINUOUS
 10
1406.235
 20
180.4438
 30
0.0
 11
965.8032
 21
180.4438
 31
0.0
  0
LINE
  5
2C2
  8
5
  6
CONTINUOUS
 10
1404.019
 20
197.6443
 30
0.0
 11
1406.242
 21
180.4938
 31
0.0
  0
LINE
  5
2C3
  8
5
  6
CONTINUOUS
 10
968.0193
 20
197.6443
 30
0.0
 11
1288.981
 21
197.6443
 31
0.0
  0
LINE
  5
2C4
  8
5
  6
CONTINUOUS
 10
1384.057
 20
197.6443
 30
0.0
 11
1404.019
 21
197.6443
 31
0.0
  0
LINE
  5
2C5
  8
5
  6
CONTINUOUS
 10
965.7968
 20
180.4938
 30
0.0
 11
968.0193
 21
197.6443
 31
0.0
  0
LINE
  5
2C6
  8
5
  6
CONTINUOUS
 10
1286.769
 20
214.4355
 30
0.0
 11
1285.347
 21
243.2042
 31
0.0
  0
LINE
  5
2C7
  8
5
  6
CONTINUOUS
 10
1285.347
 20
243.2042
 30
0.0
 11
1259.019
 21
243.2042
 31
0.0
  0
LINE
  5
2C8
  8
5
  6
CONTINUOUS
 10
968.0193
 20
240.6443
 30
0.0
 11
968.0193
 21
197.6443
 31
0.0
  0
LINE
  5
2C9
  8
5
  6
CONTINUOUS
 10
1404.019
 20
197.6443
 30
0.0
 11
1404.019
 21
243.2042
 31
0.0
  0
LINE
  5
2CA
  8
5
  6
CONTINUOUS
 10
1404.019
 20
243.2042
 30
0.0
 11
1387.692
 21
243.2042
 31
0.0
  0
LINE
  5
2CB
  8
5
  6
CONTINUOUS
 10
1387.692
 20
243.2042
 30
0.0
 11
1386.269
 21
214.4355
 31
0.0
  0
LINE
  5
2CC
  8
5
  6
CONTINUOUS
 10
1354.519
 20
243.2042
 30
0.0
 11
1318.519
 21
243.2042
 31
0.0
  0
LINE
  5
2CD
  8
5
  6
CONTINUOUS
 10
1081.692
 20
563.0845
 30
0.0
 11
1404.019
 21
563.0845
 31
0.0
  0
LINE
  5
2CE
  8
5
  6
CONTINUOUS
 10
1404.019
 20
563.0845
 30
0.0
 11
1404.019
 21
608.6444
 31
0.0
  0
LINE
  5
2CF
  8
5
  6
CONTINUOUS
 10
968.0193
 20
608.6444
 30
0.0
 11
968.0193
 21
563.0845
 31
0.0
  0
LINE
  5
2D0
  8
5
  6
CONTINUOUS
 10
968.0193
 20
563.0845
 30
0.0
 11
979.3466
 21
563.0845
 31
0.0
  0
LINE
  5
2D1
  8
5
  6
CONTINUOUS
 10
1012.519
 20
563.0845
 30
0.0
 11
1048.519
 21
563.0845
 31
0.0
  0
LINE
  5
2D2
  8
5
  6
CONTINUOUS
 10
1406.248
 20
228.5471
 30
0.0
 11
1406.248
 21
180.5443
 31
0.0
  0
LINE
  5
2D3
  8
5
  6
CONTINUOUS
 10
1408.49
 20
198.0443
 30
0.0
 11
1408.49
 21
216.5836
 31
0.0
  0
LINE
  5
2D4
  8
5
  6
CONTINUOUS
 10
1408.49
 20
589.7051
 30
0.0
 11
1408.49
 21
608.2443
 31
0.0
  0
LINE
  5
2D5
  8
5
  6
CONTINUOUS
 10
1406.248
 20
625.7443
 30
0.0
 11
1406.248
 21
577.7415
 31
0.0
  0
LINE
  5
2D6
  8
5
  6
CONTINUOUS
 10
963.5486
 20
216.5836
 30
0.0
 11
963.5486
 21
198.0443
 31
0.0
  0
LINE
  5
2D7
  8
5
  6
CONTINUOUS
 10
965.7903
 20
180.5443
 30
0.0
 11
965.7903
 21
228.5471
 31
0.0
  0
LINE
  5
2D8
  8
5
  6
CONTINUOUS
 10
965.7903
 20
577.7415
 30
0.0
 11
965.7903
 21
625.7443
 31
0.0
  0
LINE
  5
2D9
  8
5
  6
CONTINUOUS
 10
963.5485
 20
608.2443
 30
0.0
 11
963.5486
 21
589.7051
 31
0.0
  0
LINE
  5
2DA
  8
5
  6
CONTINUOUS
 10
1307.019
 20
182.1735
 30
0.0
 11
1289.903
 21
190.6457
 31
0.0
  0
LINE
  5
2DB
  8
5
  6
CONTINUOUS
 10
1307.019
 20
199.8511
 30
0.0
 11
1307.019
 21
182.1735
 31
0.0
  0
LINE
  5
2DC
  8
5
  6
CONTINUOUS
 10
1289.903
 20
212.7234
 30
0.0
 11
1307.019
 21
199.8511
 31
0.0
  0
LINE
  5
2DD
  8
5
  6
CONTINUOUS
 10
1289.903
 20
190.6457
 30
0.0
 11
1289.903
 21
212.7234
 31
0.0
  0
LINE
  5
2DE
  8
5
  6
CONTINUOUS
 10
1366.019
 20
199.8511
 30
0.0
 11
1383.135
 21
212.7234
 31
0.0
  0
LINE
  5
2DF
  8
5
  6
CONTINUOUS
 10
1366.019
 20
182.1735
 30
0.0
 11
1366.019
 21
199.8511
 31
0.0
  0
LINE
  5
2E0
  8
5
  6
CONTINUOUS
 10
1383.135
 20
190.6457
 30
0.0
 11
1366.019
 21
182.1735
 31
0.0
  0
LINE
  5
2E1
  8
5
  6
CONTINUOUS
 10
1383.135
 20
212.7234
 30
0.0
 11
1383.135
 21
190.6457
 31
0.0
  0
LINE
  5
2E2
  8
5
  6
CONTINUOUS
 10
1326.519
 20
224.0456
 30
0.0
 11
1318.519
 21
230.4975
 31
0.0
  0
LINE
  5
2E3
  8
5
  6
CONTINUOUS
 10
1354.519
 20
230.4975
 30
0.0
 11
1346.519
 21
224.0456
 31
0.0
  0
LINE
  5
2E4
  8
5
  6
CONTINUOUS
 10
1346.519
 20
224.0456
 30
0.0
 11
1326.519
 21
224.0456
 31
0.0
  0
LINE
  5
2E5
  8
5
  6
CONTINUOUS
 10
1366.019
 20
182.1735
 30
0.0
 11
1307.019
 21
182.1735
 31
0.0
  0
LINE
  5
2E6
  8
5
  6
CONTINUOUS
 10
1307.019
 20
199.8511
 30
0.0
 11
1366.019
 21
199.8511
 31
0.0
  0
LINE
  5
2E7
  8
5
  6
CONTINUOUS
 10
1289.903
 20
190.6457
 30
0.0
 11
1286.769
 21
214.4355
 31
0.0
  0
LINE
  5
2E8
  8
5
  6
CONTINUOUS
 10
1286.364
 20
253.5444
 30
0.0
 11
1289.903
 21
212.7234
 31
0.0
  0
LINE
  5
2E9
  8
5
  6
CONTINUOUS
 10
1386.675
 20
253.5444
 30
0.0
 11
1383.135
 21
212.7234
 31
0.0
  0
LINE
  5
2EA
  8
5
  6
CONTINUOUS
 10
1383.135
 20
190.6457
 30
0.0
 11
1386.269
 21
214.4355
 31
0.0
  0
LINE
  5
2EB
  8
5
  6
CONTINUOUS
 10
1354.519
 20
253.5443
 30
0.0
 11
1354.519
 21
230.4975
 31
0.0
  0
LINE
  5
2EC
  8
5
  6
CONTINUOUS
 10
1318.519
 20
230.4975
 30
0.0
 11
1318.519
 21
253.5443
 31
0.0
  0
LINE
  5
2ED
  8
5
  6
CONTINUOUS
 10
1604.519
 20
543.1443
 30
0.0
 11
1540.519
 21
626.6444
 31
0.0
  0
LINE
  5
2EE
  8
5
  6
CONTINUOUS
 10
1604.519
 20
543.1443
 30
0.0
 11
1604.519
 21
263.1444
 31
0.0
  0
LINE
  5
2EF
  8
5
  6
CONTINUOUS
 10
1540.519
 20
179.6443
 30
0.0
 11
1604.519
 21
263.1444
 31
0.0
  0
LINE
  5
2F0
  8
5
  6
CONTINUOUS
 10
1613.519
 20
543.1443
 30
0.0
 11
1604.519
 21
543.1443
 31
0.0
  0
LINE
  5
2F1
  8
5
  6
CONTINUOUS
 10
1604.519
 20
263.1444
 30
0.0
 11
1613.519
 21
263.1444
 31
0.0
  0
LINE
  5
2F2
  8
5
  6
CONTINUOUS
 10
1472.019
 20
525.4404
 30
0.0
 11
1411.519
 21
525.4404
 31
0.0
  0
LINE
  5
2F3
  8
5
  6
CONTINUOUS
 10
1472.019
 20
280.8483
 30
0.0
 11
1411.519
 21
280.8483
 31
0.0
  0
LINE
  5
2F4
  8
5
  6
CONTINUOUS
 10
1472.019
 20
282.0909
 30
0.0
 11
1540.519
 21
282.091
 31
0.0
  0
LINE
  5
2F5
  8
5
  6
CONTINUOUS
 10
1472.019
 20
524.1977
 30
0.0
 11
1540.519
 21
524.1978
 31
0.0
  0
LINE
  5
2F6
  8
5
  6
CONTINUOUS
 10
1317.519
 20
644.1443
 30
0.0
 11
1317.519
 21
643.1443
 31
0.0
  0
LINE
  5
2F7
  8
5
  6
CONTINUOUS
 10
1317.519
 20
163.1443
 30
0.0
 11
1317.519
 21
162.1443
 31
0.0
  0
LINE
  5
2F8
  8
5
  6
CONTINUOUS
 10
1077.519
 20
643.1443
 30
0.0
 11
1077.519
 21
644.1443
 31
0.0
  0
LINE
  5
2F9
  8
5
  6
CONTINUOUS
 10
1077.519
 20
162.1443
 30
0.0
 11
1077.519
 21
163.1443
 31
0.0
  0
LINE
  5
2FA
  8
5
  6
CONTINUOUS
 10
892.5193
 20
403.1443
 30
0.0
 11
892.5193
 21
338.1443
 31
0.0
  0
LINE
  5
2FB
  8
5
  6
CONTINUOUS
 10
892.5193
 20
468.1443
 30
0.0
 11
892.5193
 21
403.1443
 31
0.0
  0
LINE
  5
2FC
  8
5
  6
CONTINUOUS
 10
911.8193
 20
403.1443
 30
0.0
 11
911.8193
 21
591.4815
 31
0.0
  0
LINE
  5
2FD
  8
5
  6
CONTINUOUS
 10
911.8193
 20
214.8072
 30
0.0
 11
911.8193
 21
403.1443
 31
0.0
  0
LINE
  5
2FE
  8
5
  6
CONTINUOUS
 10
904.7193
 20
152.1443
 30
0.0
 11
907.7193
 21
152.1443
 31
0.0
  0
LINE
  5
2FF
  8
5
  6
CONTINUOUS
 10
901.8193
 20
578.7943
 30
0.0
 11
901.8193
 21
403.1443
 31
0.0
  0
LINE
  5
300
  8
5
  6
CONTINUOUS
 10
901.8193
 20
403.1443
 30
0.0
 11
901.8192
 21
227.4943
 31
0.0
  0
LINE
  5
301
  8
5
  6
CONTINUOUS
 10
1421.019
 20
167.6444
 30
0.0
 11
1421.019
 21
162.1443
 31
0.0
  0
LINE
  5
302
  8
5
  6
CONTINUOUS
 10
974.0193
 20
162.1443
 30
0.0
 11
974.0193
 21
163.1443
 31
0.0
  0
LINE
  5
303
  8
5
  6
CONTINUOUS
 10
1077.519
 20
162.1443
 30
0.0
 11
974.0193
 21
162.1443
 31
0.0
  0
LINE
  5
304
  8
5
  6
CONTINUOUS
 10
1077.519
 20
162.1443
 30
0.0
 11
1317.519
 21
162.1443
 31
0.0
  0
LINE
  5
305
  8
5
  6
CONTINUOUS
 10
1421.019
 20
162.1443
 30
0.0
 11
1317.519
 21
162.1443
 31
0.0
  0
LINE
  5
306
  8
5
  6
CONTINUOUS
 10
1421.019
 20
638.6444
 30
0.0
 11
1421.019
 21
644.1443
 31
0.0
  0
LINE
  5
307
  8
5
  6
CONTINUOUS
 10
974.0193
 20
644.1443
 30
0.0
 11
974.0193
 21
643.1443
 31
0.0
  0
LINE
  5
308
  8
5
  6
CONTINUOUS
 10
1077.519
 20
644.1443
 30
0.0
 11
974.0193
 21
644.1443
 31
0.0
  0
LINE
  5
309
  8
5
  6
CONTINUOUS
 10
1077.519
 20
644.1443
 30
0.0
 11
1317.519
 21
644.1443
 31
0.0
  0
LINE
  5
30A
  8
5
  6
CONTINUOUS
 10
1421.019
 20
644.1443
 30
0.0
 11
1317.519
 21
644.1443
 31
0.0
  0
LINE
  5
30B
  8
5
  6
CONTINUOUS
 10
1213.019
 20
211.6443
 30
0.0
 11
1213.019
 21
278.0127
 31
0.0
  0
LINE
  5
30C
  8
5
  6
CONTINUOUS
 10
986.0193
 20
278.0127
 30
0.0
 11
986.0193
 21
211.6443
 31
0.0
  0
LINE
  5
30D
  8
5
  6
CONTINUOUS
 10
986.0193
 20
240.6443
 30
0.0
 11
940.0193
 21
240.6443
 31
0.0
  0
LINE
  5
30E
  8
5
  6
CONTINUOUS
 10
1259.019
 20
240.6443
 30
0.0
 11
1213.019
 21
240.6443
 31
0.0
  0
LINE
  5
30F
  8
5
  6
CONTINUOUS
 10
986.0193
 20
211.6443
 30
0.0
 11
1213.019
 21
211.6443
 31
0.0
  0
LINE
  5
310
  8
5
  6
CONTINUOUS
 10
1213.519
 20
210.6443
 30
0.0
 11
1213.519
 21
240.6443
 31
0.0
  0
LINE
  5
311
  8
5
  6
CONTINUOUS
 10
985.5193
 20
240.6443
 30
0.0
 11
985.5193
 21
210.6443
 31
0.0
  0
LINE
  5
312
  8
5
  6
CONTINUOUS
 10
940.0193
 20
240.6443
 30
0.0
 11
940.0193
 21
290.1443
 31
0.0
  0
LINE
  5
313
  8
5
  6
CONTINUOUS
 10
940.0193
 20
290.1443
 30
0.0
 11
940.0193
 21
513.1443
 31
0.0
  0
LINE
  5
314
  8
5
  6
CONTINUOUS
 10
940.0193
 20
513.1443
 30
0.0
 11
940.0193
 21
562.6443
 31
0.0
  0
LINE
  5
315
  8
5
  6
CONTINUOUS
 10
940.0193
 20
562.6443
 30
0.0
 11
989.5193
 21
562.6443
 31
0.0
  0
LINE
  5
316
  8
5
  6
CONTINUOUS
 10
989.5193
 20
562.6443
 30
0.0
 11
1209.519
 21
562.6443
 31
0.0
  0
LINE
  5
317
  8
5
  6
CONTINUOUS
 10
1209.519
 20
562.6443
 30
0.0
 11
1259.019
 21
562.6443
 31
0.0
  0
LINE
  5
318
  8
5
  6
CONTINUOUS
 10
1259.019
 20
290.1443
 30
0.0
 11
1259.019
 21
240.6443
 31
0.0
  0
LINE
  5
319
  8
5
  6
CONTINUOUS
 10
1259.019
 20
562.6443
 30
0.0
 11
1259.019
 21
513.1443
 31
0.0
  0
LINE
  5
31A
  8
5
  6
CONTINUOUS
 10
1259.019
 20
513.1443
 30
0.0
 11
1259.019
 21
290.1443
 31
0.0
  0
LINE
  5
31B
  8
5
  6
CONTINUOUS
 10
1155.059
 20
375.141
 30
0.0
 11
1155.058
 21
401.2072
 31
0.0
  0
LINE
  5
31C
  8
5
  6
CONTINUOUS
 10
1141.281
 20
375.1404
 30
0.0
 11
1155.059
 21
375.141
 31
0.0
  0
LINE
  5
31D
  8
5
  6
CONTINUOUS
 10
1141.28
 20
401.2067
 30
0.0
 11
1141.281
 21
375.1404
 31
0.0
  0
LINE
  5
31E
  8
5
  6
CONTINUOUS
 10
1141.28
 20
401.2067
 30
0.0
 11
1155.058
 21
401.2072
 31
0.0
  0
LINE
  5
31F
  8
5
  6
CONTINUOUS
 10
1171.735
 20
401.2078
 30
0.0
 11
1157.158
 21
401.2074
 31
0.0
  0
ARC
  5
320
  8
5
  6
CONTINUOUS
 10
1159.975
 20
389.1638
 30
0.0
 40
16.83332
 50
2.745839
 51
45.68321
  0
ARC
  5
321
  8
5
  6
CONTINUOUS
 10
1161.961
 20
389.9697
 30
0.0
 40
14.82849
 50
270.0019
 51
0.0019
  0
LINE
  5
322
  8
5
  6
CONTINUOUS
 10
1157.159
 20
375.141
 30
0.0
 11
1161.961
 21
375.1412
 31
0.0
  0
LINE
  5
323
  8
5
  6
CONTINUOUS
 10
1157.158
 20
401.2074
 30
0.0
 11
1157.159
 21
375.141
 31
0.0
  0
LINE
  5
324
  8
5
  6
CONTINUOUS
 10
1157.157
 20
428.2045
 30
0.0
 11
1157.158
 21
403.3073
 31
0.0
  0
LINE
  5
325
  8
5
  6
CONTINUOUS
 10
1161.959
 20
428.2048
 30
0.0
 11
1157.157
 21
428.2045
 31
0.0
  0
ARC
  5
326
  8
5
  6
CONTINUOUS
 10
1161.96
 20
417.7653
 30
0.0
 40
10.43949
 50
0.001947
 51
90.00195
  0
ARC
  5
327
  8
5
  6
CONTINUOUS
 10
1158.929
 20
419.0135
 30
0.0
 40
13.5281
 50
283.5581
 51
354.7072
  0
ARC
  5
328
  8
5
  6
CONTINUOUS
 10
1159.975
 20
389.1638
 30
0.0
 40
16.83332
 50
57.16491
 51
82.74766
  0
LINE
  5
329
  8
5
  6
CONTINUOUS
 10
1157.158
 20
403.3073
 30
0.0
 11
1169.103
 21
403.3077
 31
0.0
  0
LINE
  5
32A
  8
5
  6
CONTINUOUS
 10
1141.279
 20
428.2041
 30
0.0
 11
1141.28
 21
403.3069
 31
0.0
  0
LINE
  5
32B
  8
5
  6
CONTINUOUS
 10
1155.057
 20
428.2045
 30
0.0
 11
1141.279
 21
428.2041
 31
0.0
  0
LINE
  5
32C
  8
5
  6
CONTINUOUS
 10
1155.058
 20
403.3073
 30
0.0
 11
1155.057
 21
428.2045
 31
0.0
  0
LINE
  5
32D
  8
5
  6
CONTINUOUS
 10
1141.28
 20
403.3069
 30
0.0
 11
1155.058
 21
403.3073
 31
0.0
  0
LINE
  5
32E
  8
5
  6
CONTINUOUS
 10
1111.512
 20
428.203
 30
0.0
 11
1111.513
 21
403.3058
 31
0.0
  0
LINE
  5
32F
  8
5
  6
CONTINUOUS
 10
1116.314
 20
428.2032
 30
0.0
 11
1111.512
 21
428.203
 31
0.0
  0
ARC
  5
330
  8
5
  6
CONTINUOUS
 10
1116.314
 20
417.7637
 30
0.0
 40
10.43949
 50
0.001947
 51
90.00195
  0
ARC
  5
331
  8
5
  6
CONTINUOUS
 10
1113.283
 20
419.012
 30
0.0
 40
13.5281
 50
283.5581
 51
354.7072
  0
ARC
  5
332
  8
5
  6
CONTINUOUS
 10
1114.33
 20
389.1622
 30
0.0
 40
16.83332
 50
57.16493
 51
82.74766
  0
LINE
  5
333
  8
5
  6
CONTINUOUS
 10
1111.513
 20
403.3058
 30
0.0
 11
1123.457
 21
403.3062
 31
0.0
  0
ARC
  5
334
  8
5
  6
CONTINUOUS
 10
1114.33
 20
389.1622
 30
0.0
 40
16.83332
 50
2.745839
 51
45.68318
  0
ARC
  5
335
  8
5
  6
CONTINUOUS
 10
1116.315
 20
389.9681
 30
0.0
 40
14.82849
 50
270.0019
 51
0.0019
  0
LINE
  5
336
  8
5
  6
CONTINUOUS
 10
1111.514
 20
375.1395
 30
0.0
 11
1116.316
 21
375.1396
 31
0.0
  0
LINE
  5
337
  8
5
  6
CONTINUOUS
 10
1111.513
 20
401.2056
 30
0.0
 11
1111.514
 21
375.1395
 31
0.0
  0
LINE
  5
338
  8
5
  6
CONTINUOUS
 10
1126.09
 20
401.2062
 30
0.0
 11
1111.513
 21
401.2056
 31
0.0
  0
LINE
  5
339
  8
5
  6
CONTINUOUS
 10
1109.414
 20
375.1395
 30
0.0
 11
1109.413
 21
401.2056
 31
0.0
  0
LINE
  5
33A
  8
5
  6
CONTINUOUS
 10
1095.635
 20
375.1388
 30
0.0
 11
1109.414
 21
375.1395
 31
0.0
  0
LINE
  5
33B
  8
5
  6
CONTINUOUS
 10
1095.634
 20
401.2052
 30
0.0
 11
1095.635
 21
375.1388
 31
0.0
  0
LINE
  5
33C
  8
5
  6
CONTINUOUS
 10
1109.413
 20
401.2056
 30
0.0
 11
1095.634
 21
401.2052
 31
0.0
  0
LINE
  5
33D
  8
5
  6
CONTINUOUS
 10
1109.413
 20
403.3058
 30
0.0
 11
1109.412
 21
428.203
 31
0.0
  0
LINE
  5
33E
  8
5
  6
CONTINUOUS
 10
1095.634
 20
403.3051
 30
0.0
 11
1109.413
 21
403.3058
 31
0.0
  0
LINE
  5
33F
  8
5
  6
CONTINUOUS
 10
1095.633
 20
428.2025
 30
0.0
 11
1095.634
 21
403.3052
 31
0.0
  0
LINE
  5
340
  8
5
  6
CONTINUOUS
 10
1109.412
 20
428.203
 30
0.0
 11
1095.633
 21
428.2025
 31
0.0
  0
LINE
  5
341
  8
5
  6
CONTINUOUS
 10
1085.347
 20
375.1386
 30
0.0
 11
1076.042
 21
401.2045
 31
0.0
  0
LINE
  5
342
  8
5
  6
CONTINUOUS
 10
1075.847
 20
375.1383
 30
0.0
 11
1085.347
 21
375.1386
 31
0.0
  0
LINE
  5
343
  8
5
  6
CONTINUOUS
 10
1072.007
 20
385.8955
 30
0.0
 11
1075.847
 21
375.1383
 31
0.0
  0
LINE
  5
344
  8
5
  6
CONTINUOUS
 10
1060.613
 20
385.8952
 30
0.0
 11
1072.007
 21
385.8955
 31
0.0
  0
LINE
  5
345
  8
5
  6
CONTINUOUS
 10
1060.613
 20
401.2041
 30
0.0
 11
1060.613
 21
385.8952
 31
0.0
  0
LINE
  5
346
  8
5
  6
CONTINUOUS
 10
1076.042
 20
401.2045
 30
0.0
 11
1060.613
 21
401.2041
 31
0.0
  0
LINE
  5
347
  8
5
  6
CONTINUOUS
 10
1060.612
 20
428.2012
 30
0.0
 11
1060.613
 21
403.304
 31
0.0
  0
LINE
  5
348
  8
5
  6
CONTINUOUS
 10
1066.405
 20
428.2015
 30
0.0
 11
1060.612
 21
428.2012
 31
0.0
  0
LINE
  5
349
  8
5
  6
CONTINUOUS
 10
1075.293
 20
403.3045
 30
0.0
 11
1066.405
 21
428.2015
 31
0.0
  0
LINE
  5
34A
  8
5
  6
CONTINUOUS
 10
1060.613
 20
403.304
 30
0.0
 11
1075.293
 21
403.3045
 31
0.0
  0
LINE
  5
34B
  8
5
  6
CONTINUOUS
 10
1047.07
 20
385.8945
 30
0.0
 11
1058.514
 21
385.895
 31
0.0
  0
LINE
  5
34C
  8
5
  6
CONTINUOUS
 10
1043.379
 20
375.1372
 30
0.0
 11
1047.07
 21
385.8945
 31
0.0
  0
LINE
  5
34D
  8
5
  6
CONTINUOUS
 10
1034.516
 20
375.1369
 30
0.0
 11
1043.379
 21
375.1372
 31
0.0
  0
LINE
  5
34E
  8
5
  6
CONTINUOUS
 10
1043.458
 20
401.2034
 30
0.0
 11
1034.516
 21
375.1369
 31
0.0
  0
LINE
  5
34F
  8
5
  6
CONTINUOUS
 10
1058.513
 20
401.2039
 30
0.0
 11
1043.458
 21
401.2034
 31
0.0
  0
LINE
  5
350
  8
5
  6
CONTINUOUS
 10
1058.514
 20
385.895
 30
0.0
 11
1058.513
 21
401.2039
 31
0.0
  0
LINE
  5
351
  8
5
  6
CONTINUOUS
 10
1058.512
 20
428.2012
 30
0.0
 11
1052.719
 21
428.201
 31
0.0
  0
LINE
  5
352
  8
5
  6
CONTINUOUS
 10
1058.513
 20
403.304
 30
0.0
 11
1058.512
 21
428.2012
 31
0.0
  0
LINE
  5
353
  8
5
  6
CONTINUOUS
 10
1044.179
 20
403.3036
 30
0.0
 11
1058.513
 21
403.304
 31
0.0
  0
LINE
  5
354
  8
5
  6
CONTINUOUS
 10
1052.719
 20
428.201
 30
0.0
 11
1044.179
 21
403.3036
 31
0.0
  0
LINE
  5
355
  8
5
  6
CONTINUOUS
 10
985.5193
 20
210.6443
 30
0.0
 11
1213.519
 21
210.6443
 31
0.0
  0
LINE
  5
356
  8
5
  6
CONTINUOUS
 10
925.8193
 20
195.5378
 30
0.0
 11
954.0192
 21
184.1443
 31
0.0
  0
LINE
  5
357
  8
5
  6
CONTINUOUS
 10
954.0192
 20
622.1444
 30
0.0
 11
954.0193
 21
562.6443
 31
0.0
  0
LINE
  5
358
  8
5
  6
CONTINUOUS
 10
954.0193
 20
240.6443
 30
0.0
 11
954.0192
 21
184.1443
 31
0.0
  0
LINE
  5
359
  8
5
  6
CONTINUOUS
 10
954.0192
 20
622.1444
 30
0.0
 11
925.8193
 21
610.7509
 31
0.0
  0
LINE
  5
35A
  8
5
  6
CONTINUOUS
 10
900.2216
 20
479.1443
 30
0.0
 11
900.2216
 21
327.1443
 31
0.0
  0
LINE
  5
35B
  8
5
  6
CONTINUOUS
 10
757.5192
 20
1260.281
 30
0.0
 11
748.5192
 21
1260.281
 31
0.0
  0
LINE
  5
35C
  8
5
  6
CONTINUOUS
 10
900.2216
 20
327.1443
 30
0.0
 11
901.8193
 21
327.0886
 31
0.0
  0
LINE
  5
35D
  8
5
  6
CONTINUOUS
 10
892.5193
 20
338.1443
 30
0.0
 11
900.2216
 21
327.1443
 31
0.0
  0
LINE
  5
35E
  8
5
  6
CONTINUOUS
 10
900.2216
 20
479.1443
 30
0.0
 11
892.5193
 21
468.1443
 31
0.0
  0
LINE
  5
35F
  8
5
  6
CONTINUOUS
 10
911.8193
 20
214.8072
 30
0.0
 11
925.8193
 21
195.5378
 31
0.0
  0
LINE
  5
360
  8
5
  6
CONTINUOUS
 10
925.8193
 20
610.7509
 30
0.0
 11
911.8193
 21
591.4815
 31
0.0
  0
LINE
  5
361
  8
5
  6
CONTINUOUS
 10
907.7193
 20
152.1443
 30
0.0
 11
907.7193
 21
227.4943
 31
0.0
  0
LINE
  5
362
  8
5
  6
CONTINUOUS
 10
904.7193
 20
152.1443
 30
0.0
 11
904.7193
 21
227.4943
 31
0.0
  0
LINE
  5
363
  8
5
  6
CONTINUOUS
 10
911.8192
 20
578.7943
 30
0.0
 11
901.8193
 21
578.7943
 31
0.0
  0
LINE
  5
364
  8
5
  6
CONTINUOUS
 10
901.8192
 20
227.4943
 30
0.0
 11
911.8192
 21
227.4943
 31
0.0
  0
LINE
  5
365
  8
5
  6
CONTINUOUS
 10
954.0192
 20
184.1443
 30
0.0
 11
965.3291
 21
184.1443
 31
0.0
  0
LINE
  5
366
  8
5
  6
CONTINUOUS
 10
965.3291
 20
622.1443
 30
0.0
 11
954.0192
 21
622.1444
 31
0.0
  0
LINE
  5
367
  8
5
  6
CONTINUOUS
 10
1411.519
 20
622.1444
 30
0.0
 11
1406.709
 21
622.1443
 31
0.0
  0
LINE
  5
368
  8
5
  6
CONTINUOUS
 10
859.5193
 20
1260.281
 30
0.0
 11
757.5192
 21
1260.281
 31
0.0
  0
LINE
  5
369
  8
5
  6
CONTINUOUS
 10
1209.519
 20
274.5152
 30
0.0
 11
1213.019
 21
278.0127
 31
0.0
  0
LINE
  5
36A
  8
5
  6
CONTINUOUS
 10
989.5193
 20
274.5152
 30
0.0
 11
1209.519
 21
274.5152
 31
0.0
  0
LINE
  5
36B
  8
5
  6
CONTINUOUS
 10
986.0193
 20
278.0127
 30
0.0
 11
989.5193
 21
274.5152
 31
0.0
  0
LINE
  5
36C
  8
5
  6
CONTINUOUS
 10
1209.519
 20
274.5152
 30
0.0
 11
1209.519
 21
290.1369
 31
0.0
  0
LINE
  5
36D
  8
5
  6
CONTINUOUS
 10
989.5193
 20
290.1369
 30
0.0
 11
1209.519
 21
290.1369
 31
0.0
  0
LINE
  5
36E
  8
5
  6
CONTINUOUS
 10
989.5193
 20
290.1369
 30
0.0
 11
989.5193
 21
274.5152
 31
0.0
  0
LINE
  5
36F
  8
5
  6
CONTINUOUS
 10
940.0193
 20
290.1443
 30
0.0
 11
989.5193
 21
290.1369
 31
0.0
  0
LINE
  5
370
  8
5
  6
CONTINUOUS
 10
940.0193
 20
290.1443
 30
0.0
 11
986.0193
 21
244.1444
 31
0.0
  0
LINE
  5
371
  8
5
  6
CONTINUOUS
 10
1213.019
 20
244.1444
 30
0.0
 11
1259.019
 21
290.1443
 31
0.0
  0
LINE
  5
372
  8
5
  6
CONTINUOUS
 10
1209.519
 20
290.1369
 30
0.0
 11
1259.019
 21
290.1443
 31
0.0
  0
LINE
  5
373
  8
5
  6
CONTINUOUS
 10
989.5118
 20
513.1442
 30
0.0
 11
940.0193
 21
513.1443
 31
0.0
  0
LINE
  5
374
  8
5
  6
CONTINUOUS
 10
989.5118
 20
513.1442
 30
0.0
 11
989.5193
 21
290.1369
 31
0.0
  0
LINE
  5
375
  8
5
  6
CONTINUOUS
 10
1209.519
 20
513.1517
 30
0.0
 11
1209.519
 21
562.6443
 31
0.0
  0
LINE
  5
376
  8
5
  6
CONTINUOUS
 10
989.5193
 20
562.6443
 30
0.0
 11
989.5118
 21
513.1442
 31
0.0
  0
LINE
  5
377
  8
5
  6
CONTINUOUS
 10
1209.519
 20
513.1517
 30
0.0
 11
989.5118
 21
513.1442
 31
0.0
  0
LINE
  5
378
  8
5
  6
CONTINUOUS
 10
989.5193
 20
562.6443
 30
0.0
 11
940.0193
 21
513.1443
 31
0.0
  0
LINE
  5
379
  8
5
  6
CONTINUOUS
 10
1259.019
 20
513.1443
 30
0.0
 11
1209.519
 21
513.1517
 31
0.0
  0
LINE
  5
37A
  8
5
  6
CONTINUOUS
 10
1209.519
 20
290.1369
 30
0.0
 11
1209.519
 21
513.1517
 31
0.0
  0
LINE
  5
37B
  8
5
  6
CONTINUOUS
 10
1259.019
 20
513.1443
 30
0.0
 11
1209.519
 21
562.6443
 31
0.0
  0
LINE
  5
37C
  8
5
  6
CONTINUOUS
 10
1889.969
 20
1444.752
 30
0.0
 11
1902.841
 21
1435.052
 31
0.0
  0
LINE
  5
37D
  8
5
  6
CONTINUOUS
 10
1880.763
 20
1412.974
 30
0.0
 11
1904.553
 21
1373.381
 31
0.0
  0
LINE
  5
37E
  8
5
  6
CONTINUOUS
 10
1880.763
 20
1412.974
 30
0.0
 11
1872.291
 21
1427.074
 31
0.0
  0
LINE
  5
37F
  8
5
  6
CONTINUOUS
 10
1872.291
 20
1427.074
 30
0.0
 11
1889.969
 21
1444.752
 31
0.0
  0
LINE
  5
380
  8
5
  6
CONTINUOUS
 10
1853.262
 20
1320.181
 30
0.0
 11
1853.262
 21
1338.481
 31
0.0
  0
LINE
  5
381
  8
5
  6
CONTINUOUS
 10
1853.262
 20
1127.381
 30
0.0
 11
1853.262
 21
1144.381
 31
0.0
  0
LINE
  5
382
  8
5
  6
CONTINUOUS
 10
2333.262
 20
1127.381
 30
0.0
 11
2333.262
 21
1126.681
 31
0.0
  0
LINE
  5
383
  8
5
  6
CONTINUOUS
 10
2333.262
 20
1320.181
 30
0.0
 11
2333.262
 21
1303.181
 31
0.0
  0
LINE
  5
384
  8
5
  6
CONTINUOUS
 10
2296.555
 20
1444.752
 30
0.0
 11
2314.233
 21
1427.074
 31
0.0
  0
LINE
  5
385
  8
5
  6
CONTINUOUS
 10
2314.233
 20
1427.074
 30
0.0
 11
2305.761
 21
1412.974
 31
0.0
  0
LINE
  5
386
  8
5
  6
CONTINUOUS
 10
2305.761
 20
1412.974
 30
0.0
 11
2281.971
 21
1373.381
 31
0.0
  0
LINE
  5
387
  8
5
  6
CONTINUOUS
 10
2283.683
 20
1435.052
 30
0.0
 11
2296.555
 21
1444.752
 31
0.0
  0
LINE
  5
388
  8
5
  6
CONTINUOUS
 10
2213.402
 20
1472.781
 30
0.0
 11
2215.757
 21
1405.318
 31
0.0
  0
LINE
  5
389
  8
5
  6
CONTINUOUS
 10
1902.841
 20
1435.052
 30
0.0
 11
1880.763
 21
1412.974
 31
0.0
  0
LINE
  5
38A
  8
5
  6
CONTINUOUS
 10
2333.262
 20
1320.181
 30
0.0
 11
2289.904
 21
1320.181
 31
0.0
  0
LINE
  5
38B
  8
5
  6
CONTINUOUS
 10
2333.262
 20
1127.381
 30
0.0
 11
2289.904
 21
1127.381
 31
0.0
  0
LINE
  5
38C
  8
5
  6
CONTINUOUS
 10
2305.761
 20
1412.974
 30
0.0
 11
2283.683
 21
1435.052
 31
0.0
  0
LINE
  5
38D
  8
5
  6
CONTINUOUS
 10
1956.364
 20
1394.719
 30
0.0
 11
1902.841
 21
1435.052
 31
0.0
  0
LINE
  5
38E
  8
5
  6
CONTINUOUS
 10
1853.262
 20
1303.181
 30
0.0
 11
1853.262
 21
1320.181
 31
0.0
  0
LINE
  5
38F
  8
5
  6
CONTINUOUS
 10
1853.262
 20
1109.081
 30
0.0
 11
1853.262
 21
1127.381
 31
0.0
  0
LINE
  5
390
  8
5
  6
CONTINUOUS
 10
2333.262
 20
1144.381
 30
0.0
 11
2333.262
 21
1127.381
 31
0.0
  0
LINE
  5
391
  8
5
  6
CONTINUOUS
 10
2333.262
 20
1338.481
 30
0.0
 11
2333.262
 21
1320.181
 31
0.0
  0
LINE
  5
392
  8
5
  6
CONTINUOUS
 10
2242.862
 20
1404.291
 30
0.0
 11
2283.683
 21
1435.052
 31
0.0
  0
LINE
  5
393
  8
5
  6
CONTINUOUS
 10
1970.766
 20
1405.318
 30
0.0
 11
1973.122
 21
1472.781
 31
0.0
  0
LINE
  5
394
  8
5
  6
CONTINUOUS
 10
1896.62
 20
1320.181
 30
0.0
 11
1853.262
 21
1320.181
 31
0.0
  0
LINE
  5
395
  8
5
  6
CONTINUOUS
 10
1896.62
 20
1127.381
 30
0.0
 11
1853.262
 21
1127.381
 31
0.0
  0
LINE
  5
396
  8
5
  6
CONTINUOUS
 10
2226.596
 20
1050.048
 30
0.0
 11
2258.993
 21
1003.781
 31
0.0
  0
LINE
  5
397
  8
5
  6
CONTINUOUS
 10
1959.928
 20
1050.048
 30
0.0
 11
1927.531
 21
1003.781
 31
0.0
  0
LINE
  5
398
  8
5
  6
CONTINUOUS
 10
1980.762
 20
983.7809
 30
0.0
 11
1980.762
 21
1035.885
 31
0.0
  0
LINE
  5
399
  8
5
  6
CONTINUOUS
 10
2205.762
 20
1035.885
 30
0.0
 11
2205.762
 21
983.7809
 31
0.0
  0
LINE
  5
39A
  8
5
  6
CONTINUOUS
 10
2208.577
 20
1037.6
 30
0.0
 11
2246.262
 21
983.7809
 31
0.0
  0
LINE
  5
39B
  8
5
  6
CONTINUOUS
 10
2334.262
 20
1003.781
 30
0.0
 11
2284.967
 21
1074.181
 31
0.0
  0
LINE
  5
39C
  8
5
  6
CONTINUOUS
 10
1977.946
 20
1037.6
 30
0.0
 11
1940.262
 21
983.7809
 31
0.0
  0
LINE
  5
39D
  8
5
  6
CONTINUOUS
 10
1901.557
 20
1074.181
 30
0.0
 11
1852.262
 21
1003.781
 31
0.0
  0
LINE
  5
39E
  8
5
  6
CONTINUOUS
 10
2298.362
 20
1074.181
 30
0.0
 11
2253.202
 21
1074.181
 31
0.0
  0
LINE
  5
39F
  8
5
  6
CONTINUOUS
 10
1933.322
 20
1074.181
 30
0.0
 11
1887.762
 21
1074.181
 31
0.0
  0
LINE
  5
3A0
  8
5
  6
CONTINUOUS
 10
2205.762
 20
983.7809
 30
0.0
 11
2187.262
 21
983.7809
 31
0.0
  0
LINE
  5
3A1
  8
5
  6
CONTINUOUS
 10
2016.262
 20
983.7809
 30
0.0
 11
1999.262
 21
983.7809
 31
0.0
  0
LINE
  5
3A2
  8
5
  6
CONTINUOUS
 10
2048.262
 20
983.7809
 30
0.0
 11
2033.262
 21
983.7809
 31
0.0
  0
LINE
  5
3A3
  8
5
  6
CONTINUOUS
 10
2078.262
 20
983.7809
 30
0.0
 11
2063.262
 21
983.7809
 31
0.0
  0
LINE
  5
3A4
  8
5
  6
CONTINUOUS
 10
2170.262
 20
983.7809
 30
0.0
 11
2153.262
 21
983.7809
 31
0.0
  0
LINE
  5
3A5
  8
5
  6
CONTINUOUS
 10
2138.262
 20
983.7809
 30
0.0
 11
2123.262
 21
983.7809
 31
0.0
  0
LINE
  5
3A6
  8
5
  6
CONTINUOUS
 10
2108.262
 20
983.7809
 30
0.0
 11
2093.262
 21
983.7809
 31
0.0
  0
LINE
  5
3A7
  8
5
  6
CONTINUOUS
 10
2187.262
 20
983.7809
 30
0.0
 11
2170.262
 21
983.7809
 31
0.0
  0
LINE
  5
3A8
  8
5
  6
CONTINUOUS
 10
1999.262
 20
983.7809
 30
0.0
 11
1980.762
 21
983.7809
 31
0.0
  0
LINE
  5
3A9
  8
5
  6
CONTINUOUS
 10
2033.262
 20
983.7809
 30
0.0
 11
2016.262
 21
983.7809
 31
0.0
  0
LINE
  5
3AA
  8
5
  6
CONTINUOUS
 10
2063.262
 20
983.7809
 30
0.0
 11
2048.262
 21
983.7809
 31
0.0
  0
LINE
  5
3AB
  8
5
  6
CONTINUOUS
 10
2093.262
 20
983.7809
 30
0.0
 11
2078.262
 21
983.7809
 31
0.0
  0
LINE
  5
3AC
  8
5
  6
CONTINUOUS
 10
2153.262
 20
983.7809
 30
0.0
 11
2138.262
 21
983.7809
 31
0.0
  0
LINE
  5
3AD
  8
5
  6
CONTINUOUS
 10
2123.262
 20
983.7809
 30
0.0
 11
2108.262
 21
983.7809
 31
0.0
  0
LINE
  5
3AE
  8
5
  6
CONTINUOUS
 10
2119.262
 20
1130.281
 30
0.0
 11
2067.262
 21
1130.281
 31
0.0
  0
LINE
  5
3AF
  8
5
  6
CONTINUOUS
 10
1955.096
 20
1130.281
 30
0.0
 11
2067.262
 21
1130.281
 31
0.0
  0
LINE
  5
3B0
  8
5
  6
CONTINUOUS
 10
2119.262
 20
1130.281
 30
0.0
 11
2231.428
 21
1130.281
 31
0.0
  0
LINE
  5
3B1
  8
5
  6
CONTINUOUS
 10
2119.262
 20
1158.022
 30
0.0
 11
2119.262
 21
1130.281
 31
0.0
  0
LINE
  5
3B2
  8
5
  6
CONTINUOUS
 10
2067.262
 20
1158.022
 30
0.0
 11
2067.262
 21
1130.281
 31
0.0
  0
LINE
  5
3B3
  8
5
  6
CONTINUOUS
 10
2344.262
 20
1125.181
 30
0.0
 11
2344.262
 21
1126.681
 31
0.0
  0
LINE
  5
3B4
  8
5
  6
CONTINUOUS
 10
2344.262
 20
1123.681
 30
0.0
 11
2344.262
 21
1125.181
 31
0.0
  0
LINE
  5
3B5
  8
5
  6
CONTINUOUS
 10
2074.262
 20
1108.281
 30
0.0
 11
2112.262
 21
1108.281
 31
0.0
  0
LINE
  5
3B6
  8
5
  6
CONTINUOUS
 10
2112.262
 20
1108.281
 30
0.0
 11
2129.262
 21
1108.281
 31
0.0
  0
LINE
  5
3B7
  8
5
  6
CONTINUOUS
 10
2129.262
 20
1108.281
 30
0.0
 11
2146.262
 21
1108.281
 31
0.0
  0
LINE
  5
3B8
  8
5
  6
CONTINUOUS
 10
2146.262
 20
1108.281
 30
0.0
 11
2213.644
 21
1108.281
 31
0.0
  0
LINE
  5
3B9
  8
5
  6
CONTINUOUS
 10
1972.88
 20
1108.281
 30
0.0
 11
2040.262
 21
1108.281
 31
0.0
  0
LINE
  5
3BA
  8
5
  6
CONTINUOUS
 10
2040.262
 20
1108.281
 30
0.0
 11
2057.262
 21
1108.281
 31
0.0
  0
LINE
  5
3BB
  8
5
  6
CONTINUOUS
 10
2057.262
 20
1108.281
 30
0.0
 11
2074.262
 21
1108.281
 31
0.0
  0
LINE
  5
3BC
  8
5
  6
CONTINUOUS
 10
2093.262
 20
1126.681
 30
0.0
 11
2093.262
 21
1125.181
 31
0.0
  0
LINE
  5
3BD
  8
5
  6
CONTINUOUS
 10
2093.262
 20
1125.181
 30
0.0
 11
2093.262
 21
1123.781
 31
0.0
  0
ARC
  5
3BE
  8
5
  6
CONTINUOUS
 10
2093.262
 20
1223.781
 30
0.0
 40
175.65
 50
90.0
 51
263.7902
  0
ARC
  5
3BF
  8
5
  6
CONTINUOUS
 10
2093.262
 20
1223.781
 30
0.0
 40
175.65
 50
276.2098
 51
90.0
  0
ARC
  5
3C0
  8
5
  6
CONTINUOUS
 10
2093.262
 20
1223.781
 30
0.0
 40
175.65
 50
263.7902
 51
276.2098
  0
LINE
  5
3C1
  8
5
  6
CONTINUOUS
 10
2093.262
 20
1123.781
 30
0.0
 11
2112.262
 21
1123.781
 31
0.0
  0
LINE
  5
3C2
  8
5
  6
CONTINUOUS
 10
2074.262
 20
1058.037
 30
0.0
 11
2074.262
 21
1108.281
 31
0.0
  0
LINE
  5
3C3
  8
5
  6
CONTINUOUS
 10
2074.262
 20
1049.162
 30
0.0
 11
2074.262
 21
1054.846
 31
0.0
  0
LINE
  5
3C4
  8
5
  6
CONTINUOUS
 10
2074.262
 20
1054.846
 30
0.0
 11
2074.262
 21
1058.037
 31
0.0
  0
LINE
  5
3C5
  8
5
  6
CONTINUOUS
 10
2112.262
 20
1108.281
 30
0.0
 11
2112.262
 21
1058.037
 31
0.0
  0
LINE
  5
3C6
  8
5
  6
CONTINUOUS
 10
2112.262
 20
1058.037
 30
0.0
 11
2112.262
 21
1054.846
 31
0.0
  0
LINE
  5
3C7
  8
5
  6
CONTINUOUS
 10
2112.262
 20
1054.846
 30
0.0
 11
2112.262
 21
1049.162
 31
0.0
  0
LINE
  5
3C8
  8
5
  6
CONTINUOUS
 10
2112.262
 20
1123.781
 30
0.0
 11
2112.262
 21
1123.681
 31
0.0
  0
LINE
  5
3C9
  8
5
  6
CONTINUOUS
 10
2102.262
 20
1260.281
 30
0.0
 11
2102.262
 21
1255.01
 31
0.0
  0
LINE
  5
3CA
  8
5
  6
CONTINUOUS
 10
2084.262
 20
1260.281
 30
0.0
 11
2084.262
 21
1255.01
 31
0.0
  0
LINE
  5
3CB
  8
5
  6
CONTINUOUS
 10
2246.262
 20
1003.781
 30
0.0
 11
2246.262
 21
973.7809
 31
0.0
  0
LINE
  5
3CC
  8
5
  6
CONTINUOUS
 10
2334.262
 20
973.7809
 30
0.0
 11
2334.262
 21
1003.781
 31
0.0
  0
LINE
  5
3CD
  8
5
  6
CONTINUOUS
 10
2334.262
 20
973.7809
 30
0.0
 11
2246.262
 21
973.7809
 31
0.0
  0
LINE
  5
3CE
  8
5
  6
CONTINUOUS
 10
2334.262
 20
1003.781
 30
0.0
 11
2246.262
 21
1003.781
 31
0.0
  0
LINE
  5
3CF
  8
5
  6
CONTINUOUS
 10
1940.262
 20
1003.781
 30
0.0
 11
1940.262
 21
973.7809
 31
0.0
  0
LINE
  5
3D0
  8
5
  6
CONTINUOUS
 10
1852.262
 20
973.7809
 30
0.0
 11
1852.262
 21
1003.781
 31
0.0
  0
LINE
  5
3D1
  8
5
  6
CONTINUOUS
 10
1852.262
 20
973.7809
 30
0.0
 11
1940.262
 21
973.7809
 31
0.0
  0
LINE
  5
3D2
  8
5
  6
CONTINUOUS
 10
1852.262
 20
1003.781
 30
0.0
 11
1940.262
 21
1003.781
 31
0.0
  0
LINE
  5
3D3
  8
5
  6
CONTINUOUS
 10
1957.279
 20
1442.781
 30
0.0
 11
1943.762
 21
1429.38
 31
0.0
  0
LINE
  5
3D4
  8
5
  6
CONTINUOUS
 10
1961.162
 20
1446.63
 30
0.0
 11
1957.279
 21
1442.781
 31
0.0
  0
LINE
  5
3D5
  8
5
  6
CONTINUOUS
 10
1972.605
 20
1457.975
 30
0.0
 11
1961.162
 21
1446.63
 31
0.0
  0
LINE
  5
3D6
  8
5
  6
CONTINUOUS
 10
1943.762
 20
1429.38
 30
0.0
 11
1943.662
 21
1429.281
 31
0.0
  0
LINE
  5
3D7
  8
5
  6
CONTINUOUS
 10
2225.562
 20
1446.432
 30
0.0
 11
2213.919
 21
1457.975
 31
0.0
  0
LINE
  5
3D8
  8
5
  6
CONTINUOUS
 10
2229.245
 20
1442.781
 30
0.0
 11
2225.562
 21
1446.432
 31
0.0
  0
LINE
  5
3D9
  8
5
  6
CONTINUOUS
 10
2242.862
 20
1429.281
 30
0.0
 11
2229.245
 21
1442.781
 31
0.0
  0
LINE
  5
3DA
  8
5
  6
CONTINUOUS
 10
1870.611
 20
1091.53
 30
0.0
 11
1887.762
 21
1074.181
 31
0.0
  0
LINE
  5
3DB
  8
5
  6
CONTINUOUS
 10
1870.561
 20
1091.581
 30
0.0
 11
1870.611
 21
1091.53
 31
0.0
  0
LINE
  5
3DC
  8
5
  6
CONTINUOUS
 10
1853.262
 20
1109.081
 30
0.0
 11
1870.561
 21
1091.581
 31
0.0
  0
LINE
  5
3DD
  8
5
  6
CONTINUOUS
 10
1870.561
 20
1355.981
 30
0.0
 11
1853.262
 21
1338.481
 31
0.0
  0
LINE
  5
3DE
  8
5
  6
CONTINUOUS
 10
1870.611
 20
1356.031
 30
0.0
 11
1870.561
 21
1355.981
 31
0.0
  0
LINE
  5
3DF
  8
5
  6
CONTINUOUS
 10
1887.762
 20
1373.381
 30
0.0
 11
1870.611
 21
1356.031
 31
0.0
  0
LINE
  5
3E0
  8
5
  6
CONTINUOUS
 10
2315.913
 20
1091.53
 30
0.0
 11
2315.964
 21
1091.581
 31
0.0
  0
LINE
  5
3E1
  8
5
  6
CONTINUOUS
 10
2298.362
 20
1074.181
 30
0.0
 11
2315.913
 21
1091.53
 31
0.0
  0
LINE
  5
3E2
  8
5
  6
CONTINUOUS
 10
2315.964
 20
1091.581
 30
0.0
 11
2333.262
 21
1108.681
 31
0.0
  0
LINE
  5
3E3
  8
5
  6
CONTINUOUS
 10
2333.262
 20
1338.481
 30
0.0
 11
2315.963
 21
1355.981
 31
0.0
  0
LINE
  5
3E4
  8
5
  6
CONTINUOUS
 10
2315.913
 20
1356.031
 30
0.0
 11
2298.762
 21
1373.381
 31
0.0
  0
LINE
  5
3E5
  8
5
  6
CONTINUOUS
 10
2315.963
 20
1355.981
 30
0.0
 11
2315.913
 21
1356.031
 31
0.0
  0
LINE
  5
3E6
  8
5
  6
CONTINUOUS
 10
1853.262
 20
1206.481
 30
0.0
 11
1853.262
 21
1223.781
 31
0.0
  0
LINE
  5
3E7
  8
5
  6
CONTINUOUS
 10
1853.262
 20
1241.081
 30
0.0
 11
1853.262
 21
1258.281
 31
0.0
  0
LINE
  5
3E8
  8
5
  6
CONTINUOUS
 10
1853.262
 20
1273.281
 30
0.0
 11
1853.262
 21
1288.181
 31
0.0
  0
LINE
  5
3E9
  8
5
  6
CONTINUOUS
 10
1853.262
 20
1174.381
 30
0.0
 11
1853.262
 21
1189.281
 31
0.0
  0
LINE
  5
3EA
  8
5
  6
CONTINUOUS
 10
1853.262
 20
1144.381
 30
0.0
 11
1853.262
 21
1159.381
 31
0.0
  0
LINE
  5
3EB
  8
5
  6
CONTINUOUS
 10
1853.262
 20
1189.281
 30
0.0
 11
1853.262
 21
1206.481
 31
0.0
  0
LINE
  5
3EC
  8
5
  6
CONTINUOUS
 10
1853.262
 20
1223.781
 30
0.0
 11
1853.262
 21
1241.081
 31
0.0
  0
LINE
  5
3ED
  8
5
  6
CONTINUOUS
 10
1853.262
 20
1258.281
 30
0.0
 11
1853.262
 21
1273.281
 31
0.0
  0
LINE
  5
3EE
  8
5
  6
CONTINUOUS
 10
1853.262
 20
1288.181
 30
0.0
 11
1853.262
 21
1303.181
 31
0.0
  0
LINE
  5
3EF
  8
5
  6
CONTINUOUS
 10
1853.262
 20
1159.381
 30
0.0
 11
1853.262
 21
1174.381
 31
0.0
  0
LINE
  5
3F0
  8
5
  6
CONTINUOUS
 10
2333.262
 20
1123.681
 30
0.0
 11
2333.262
 21
1109.081
 31
0.0
  0
LINE
  5
3F1
  8
5
  6
CONTINUOUS
 10
2333.262
 20
1159.381
 30
0.0
 11
2333.262
 21
1144.381
 31
0.0
  0
LINE
  5
3F2
  8
5
  6
CONTINUOUS
 10
2333.262
 20
1189.281
 30
0.0
 11
2333.262
 21
1174.381
 31
0.0
  0
LINE
  5
3F3
  8
5
  6
CONTINUOUS
 10
2333.262
 20
1288.181
 30
0.0
 11
2333.262
 21
1273.281
 31
0.0
  0
LINE
  5
3F4
  8
5
  6
CONTINUOUS
 10
2333.262
 20
1258.281
 30
0.0
 11
2333.262
 21
1241.081
 31
0.0
  0
LINE
  5
3F5
  8
5
  6
CONTINUOUS
 10
2333.262
 20
1223.781
 30
0.0
 11
2333.262
 21
1206.481
 31
0.0
  0
LINE
  5
3F6
  8
5
  6
CONTINUOUS
 10
2333.262
 20
1109.081
 30
0.0
 11
2333.262
 21
1108.681
 31
0.0
  0
LINE
  5
3F7
  8
5
  6
CONTINUOUS
 10
2333.262
 20
1174.381
 30
0.0
 11
2333.262
 21
1159.381
 31
0.0
  0
LINE
  5
3F8
  8
5
  6
CONTINUOUS
 10
2333.262
 20
1206.481
 30
0.0
 11
2333.262
 21
1189.281
 31
0.0
  0
LINE
  5
3F9
  8
5
  6
CONTINUOUS
 10
2333.262
 20
1303.181
 30
0.0
 11
2333.262
 21
1288.181
 31
0.0
  0
LINE
  5
3FA
  8
5
  6
CONTINUOUS
 10
2333.262
 20
1273.281
 30
0.0
 11
2333.262
 21
1258.281
 31
0.0
  0
LINE
  5
3FB
  8
5
  6
CONTINUOUS
 10
2333.262
 20
1241.081
 30
0.0
 11
2333.262
 21
1223.781
 31
0.0
  0
LINE
  5
3FC
  8
5
  6
CONTINUOUS
 10
1943.662
 20
1429.281
 30
0.0
 11
1943.662
 21
1404.291
 31
0.0
  0
LINE
  5
3FD
  8
5
  6
CONTINUOUS
 10
2253.202
 20
1373.381
 30
0.0
 11
2298.762
 21
1373.381
 31
0.0
  0
LINE
  5
3FE
  8
5
  6
CONTINUOUS
 10
1887.762
 20
1373.381
 30
0.0
 11
1933.322
 21
1373.381
 31
0.0
  0
LINE
  5
3FF
  8
5
  6
CONTINUOUS
 10
2272.361
 20
1426.52
 30
0.0
 11
2272.361
 21
1426.52
 31
0.0
  0
ARC
  5
400
  8
5
  6
CONTINUOUS
 10
2093.262
 20
1223.781
 30
0.0
 40
219.0
 50
333.6803
 51
0.0
  0
ARC
  5
401
  8
5
  6
CONTINUOUS
 10
2093.262
 20
1223.781
 30
0.0
 40
219.0
 50
90.0
 51
332.8013
  0
ARC
  5
402
  8
5
  6
CONTINUOUS
 10
2093.262
 20
1223.781
 30
0.0
 40
219.0
 50
0.0
 51
90.0
  0
LINE
  5
403
  8
5
  6
CONTINUOUS
 10
2242.862
 20
1429.281
 30
0.0
 11
2242.862
 21
1383.721
 31
0.0
  0
LINE
  5
404
  8
5
  6
CONTINUOUS
 10
2215.558
 20
988.2809
 30
0.0
 11
2231.764
 21
1004.487
 31
0.0
  0
LINE
  5
405
  8
5
  6
CONTINUOUS
 10
2291.759
 20
1064.482
 30
0.0
 11
2328.762
 21
1101.485
 31
0.0
  0
LINE
  5
406
  8
5
  6
CONTINUOUS
 10
1970.966
 20
988.2809
 30
0.0
 11
1980.762
 21
988.2809
 31
0.0
  0
LINE
  5
407
  8
5
  6
CONTINUOUS
 10
2205.762
 20
988.2809
 30
0.0
 11
2215.558
 21
988.2809
 31
0.0
  0
LINE
  5
408
  8
5
  6
CONTINUOUS
 10
1857.762
 20
1101.485
 30
0.0
 11
1894.765
 21
1064.482
 31
0.0
  0
LINE
  5
409
  8
5
  6
CONTINUOUS
 10
1954.76
 20
1004.487
 30
0.0
 11
1970.966
 21
988.2809
 31
0.0
  0
LINE
  5
40A
  8
5
  6
CONTINUOUS
 10
1857.762
 20
1346.077
 30
0.0
 11
1857.762
 21
1343.033
 31
0.0
  0
LINE
  5
40B
  8
5
  6
CONTINUOUS
 10
1857.762
 20
1104.529
 30
0.0
 11
1857.762
 21
1101.485
 31
0.0
  0
LINE
  5
40C
  8
5
  6
CONTINUOUS
 10
1970.966
 20
1459.281
 30
0.0
 11
1927.873
 21
1416.189
 31
0.0
  0
LINE
  5
40D
  8
5
  6
CONTINUOUS
 10
1897.239
 20
1385.554
 30
0.0
 11
1857.762
 21
1346.077
 31
0.0
  0
LINE
  5
40E
  8
5
  6
CONTINUOUS
 10
2215.558
 20
1459.281
 30
0.0
 11
2213.873
 21
1459.281
 31
0.0
  0
LINE
  5
40F
  8
5
  6
CONTINUOUS
 10
1972.651
 20
1459.281
 30
0.0
 11
1970.966
 21
1459.281
 31
0.0
  0
LINE
  5
410
  8
5
  6
CONTINUOUS
 10
2328.762
 20
1346.077
 30
0.0
 11
2289.285
 21
1385.554
 31
0.0
  0
LINE
  5
411
  8
5
  6
CONTINUOUS
 10
2258.65
 20
1416.188
 30
0.0
 11
2215.558
 21
1459.281
 31
0.0
  0
LINE
  5
412
  8
5
  6
CONTINUOUS
 10
2328.762
 20
1346.077
 30
0.0
 11
2328.762
 21
1343.033
 31
0.0
  0
LINE
  5
413
  8
5
  6
CONTINUOUS
 10
2328.762
 20
1104.232
 30
0.0
 11
2328.762
 21
1101.485
 31
0.0
  0
LINE
  5
414
  8
5
  6
CONTINUOUS
 10
2255.762
 20
1543.281
 30
0.0
 11
1933.762
 21
1543.281
 31
0.0
  0
LINE
  5
415
  8
5
  6
CONTINUOUS
 10
2255.762
 20
1564.581
 30
0.0
 11
2255.762
 21
1543.281
 31
0.0
  0
LINE
  5
416
  8
5
  6
CONTINUOUS
 10
2284.762
 20
1599.481
 30
0.0
 11
2284.762
 21
1546.281
 31
0.0
  0
LINE
  5
417
  8
5
  6
CONTINUOUS
 10
1938.262
 20
1521.281
 30
0.0
 11
1938.262
 21
1543.281
 31
0.0
  0
LINE
  5
418
  8
5
  6
CONTINUOUS
 10
2250.762
 20
1521.281
 30
0.0
 11
2250.762
 21
1543.281
 31
0.0
  0
LINE
  5
419
  8
5
  6
CONTINUOUS
 10
2255.762
 20
1546.281
 30
0.0
 11
2285.762
 21
1546.281
 31
0.0
  0
LINE
  5
41A
  8
5
  6
CONTINUOUS
 10
2218.394
 20
1599.481
 30
0.0
 11
2284.762
 21
1599.481
 31
0.0
  0
LINE
  5
41B
  8
5
  6
CONTINUOUS
 10
2206.269
 20
1615.581
 30
0.0
 11
2221.891
 21
1599.481
 31
0.0
  0
LINE
  5
41C
  8
5
  6
CONTINUOUS
 10
2255.762
 20
1564.581
 30
0.0
 11
2206.262
 21
1564.581
 31
0.0
  0
LINE
  5
41D
  8
5
  6
CONTINUOUS
 10
1933.762
 20
1564.581
 30
0.0
 11
1983.262
 21
1615.581
 31
0.0
  0
LINE
  5
41E
  8
5
  6
CONTINUOUS
 10
1983.262
 20
1564.581
 30
0.0
 11
1933.762
 21
1564.581
 31
0.0
  0
LINE
  5
41F
  8
5
  6
CONTINUOUS
 10
1933.762
 20
1564.581
 30
0.0
 11
1933.762
 21
1543.281
 31
0.0
  0
LINE
  5
420
  8
5
  6
CONTINUOUS
 10
2068.202
 20
1619.781
 30
0.0
 11
2068.202
 21
1619.781
 31
0.0
  0
LINE
  5
421
  8
5
  6
CONTINUOUS
 10
2095.201
 20
1619.781
 30
0.0
 11
2095.201
 21
1619.781
 31
0.0
  0
LINE
  5
422
  8
5
  6
CONTINUOUS
 10
2068.202
 20
1619.781
 30
0.0
 11
2068.202
 21
1619.781
 31
0.0
  0
LINE
  5
423
  8
5
  6
CONTINUOUS
 10
2095.201
 20
1619.781
 30
0.0
 11
2121.27
 21
1619.781
 31
0.0
  0
LINE
  5
424
  8
5
  6
CONTINUOUS
 10
2068.202
 20
1619.781
 30
0.0
 11
2093.103
 21
1619.781
 31
0.0
  0
LINE
  5
425
  8
5
  6
CONTINUOUS
 10
2121.269
 20
1615.581
 30
0.0
 11
2121.27
 21
1619.781
 31
0.0
  0
LINE
  5
426
  8
5
  6
CONTINUOUS
 10
2095.203
 20
1615.581
 30
0.0
 11
2095.201
 21
1619.781
 31
0.0
  0
LINE
  5
427
  8
5
  6
CONTINUOUS
 10
2068.202
 20
1619.781
 30
0.0
 11
2068.205
 21
1615.581
 31
0.0
  0
LINE
  5
428
  8
5
  6
CONTINUOUS
 10
2093.103
 20
1615.581
 30
0.0
 11
2093.103
 21
1619.781
 31
0.0
  0
LINE
  5
429
  8
5
  6
CONTINUOUS
 10
1983.262
 20
1615.581
 30
0.0
 11
1983.255
 21
1615.581
 31
0.0
  0
LINE
  5
42A
  8
5
  6
CONTINUOUS
 10
1983.262
 20
1615.581
 30
0.0
 11
2206.269
 21
1615.581
 31
0.0
  0
LINE
  5
42B
  8
5
  6
CONTINUOUS
 10
1945.262
 20
1496.781
 30
0.0
 11
1945.262
 21
1521.281
 31
0.0
  0
LINE
  5
42C
  8
5
  6
CONTINUOUS
 10
1969.262
 20
1472.781
 30
0.0
 11
1945.262
 21
1496.781
 31
0.0
  0
LINE
  5
42D
  8
5
  6
CONTINUOUS
 10
2241.262
 20
1496.781
 30
0.0
 11
2217.262
 21
1472.781
 31
0.0
  0
LINE
  5
42E
  8
5
  6
CONTINUOUS
 10
2285.762
 20
1546.281
 30
0.0
 11
2285.762
 21
1498.281
 31
0.0
  0
LINE
  5
42F
  8
5
  6
CONTINUOUS
 10
2250.762
 20
1521.281
 30
0.0
 11
1938.262
 21
1521.281
 31
0.0
  0
LINE
  5
430
  8
5
  6
CONTINUOUS
 10
2241.262
 20
1496.781
 30
0.0
 11
2241.262
 21
1521.281
 31
0.0
  0
LINE
  5
431
  8
5
  6
CONTINUOUS
 10
2241.262
 20
1498.281
 30
0.0
 11
2285.762
 21
1498.281
 31
0.0
  0
LINE
  5
432
  8
5
  6
CONTINUOUS
 10
2217.262
 20
1472.781
 30
0.0
 11
1969.262
 21
1472.781
 31
0.0
  0
LINE
  5
433
  8
5
  6
CONTINUOUS
 10
2187.262
 20
1025.98
 30
0.0
 11
2187.262
 21
1002.281
 31
0.0
  0
LINE
  5
436
  8
5
  6
CONTINUOUS
 10
1999.262
 20
1025.98
 30
0.0
 11
1999.262
 21
1002.281
 31
0.0
  0
ARC
  5
439
  8
5
  6
CONTINUOUS
 10
2093.262
 20
1223.781
 30
0.0
 40
207.6065
 50
332.1141
 51
90.0
  0
ARC
  5
43A
  8
5
  6
CONTINUOUS
 10
2093.262
 20
1223.781
 30
0.0
 40
207.6065
 50
90.0
 51
331.1733
  0
LINE
  5
43B
  8
5
  6
CONTINUOUS
 10
2187.262
 20
1002.281
 30
0.0
 11
2187.262
 21
983.7809
 31
0.0
  0
LINE
  5
43C
  8
5
  6
CONTINUOUS
 10
1999.262
 20
983.7809
 30
0.0
 11
1999.262
 21
1002.281
 31
0.0
  0
LINE
  5
43D
  8
5
  6
CONTINUOUS
 10
2093.262
 20
1004.781
 30
0.0
 11
2093.262
 21
983.7809
 31
0.0
  0
LINE
  5
43E
  8
5
  6
CONTINUOUS
 10
2108.262
 20
983.7809
 30
0.0
 11
2108.262
 21
1005.295
 31
0.0
  0
LINE
  5
43F
  8
5
  6
CONTINUOUS
 10
2123.262
 20
1006.846
 30
0.0
 11
2123.262
 21
983.7809
 31
0.0
  0
LINE
  5
440
  8
5
  6
CONTINUOUS
 10
2138.262
 20
983.7809
 30
0.0
 11
2138.262
 21
1009.454
 31
0.0
  0
LINE
  5
441
  8
5
  6
CONTINUOUS
 10
2153.262
 20
1013.16
 30
0.0
 11
2153.262
 21
983.7809
 31
0.0
  0
LINE
  5
442
  8
5
  6
CONTINUOUS
 10
2170.262
 20
983.7809
 30
0.0
 11
2170.262
 21
1018.764
 31
0.0
  0
LINE
  5
443
  8
5
  6
CONTINUOUS
 10
2063.262
 20
1006.846
 30
0.0
 11
2063.262
 21
983.7809
 31
0.0
  0
LINE
  5
444
  8
5
  6
CONTINUOUS
 10
2078.262
 20
983.7809
 30
0.0
 11
2078.262
 21
1005.295
 31
0.0
  0
LINE
  5
445
  8
5
  6
CONTINUOUS
 10
2033.262
 20
1013.16
 30
0.0
 11
2033.262
 21
983.7809
 31
0.0
  0
LINE
  5
446
  8
5
  6
CONTINUOUS
 10
2048.262
 20
983.7809
 30
0.0
 11
2048.262
 21
1009.454
 31
0.0
  0
LINE
  5
447
  8
5
  6
CONTINUOUS
 10
2016.262
 20
983.7809
 30
0.0
 11
2016.262
 21
1018.764
 31
0.0
  0
CIRCLE
  5
448
  8
5
  6
CONTINUOUS
 10
2093.262
 20
1223.781
 30
0.0
 40
65.0
  0
ARC
  5
449
  8
5
  6
CONTINUOUS
 10
2093.262
 20
1223.781
 30
0.0
 40
70.71258
 50
248.427
 51
291.573
  0
ARC
  5
44A
  8
5
  6
CONTINUOUS
 10
2093.262
 20
1223.781
 30
0.0
 40
76.0
 50
290.0052
 51
249.9948
  0
ARC
  5
44B
  8
5
  6
CONTINUOUS
 10
2093.262
 20
1223.781
 30
0.0
 40
76.28278
 50
51.25989
 51
128.7401
  0
ARC
  5
44C
  8
5
  6
CONTINUOUS
 10
2093.262
 20
1223.781
 30
0.0
 40
76.28278
 50
128.7401
 51
146.1419
  0
ARC
  5
44D
  8
5
  6
CONTINUOUS
 10
2093.262
 20
1223.781
 30
0.0
 40
76.28278
 50
146.1419
 51
160.4711
  0
ARC
  5
44E
  8
5
  6
CONTINUOUS
 10
2093.262
 20
1223.781
 30
0.0
 40
76.28278
 50
160.4711
 51
173.6024
  0
ARC
  5
44F
  8
5
  6
CONTINUOUS
 10
2093.262
 20
1223.781
 30
0.0
 40
76.28278
 50
173.6024
 51
186.3976
  0
ARC
  5
450
  8
5
  6
CONTINUOUS
 10
2093.262
 20
1223.781
 30
0.0
 40
76.28278
 50
186.3976
 51
199.5289
  0
ARC
  5
451
  8
5
  6
CONTINUOUS
 10
2093.262
 20
1223.781
 30
0.0
 40
76.28278
 50
199.5289
 51
213.8581
  0
ARC
  5
452
  8
5
  6
CONTINUOUS
 10
2093.262
 20
1223.781
 30
0.0
 40
76.28278
 50
213.8581
 51
231.2599
  0
ARC
  5
453
  8
5
  6
CONTINUOUS
 10
2093.262
 20
1223.781
 30
0.0
 40
76.28278
 50
231.2599
 51
250.0721
  0
ARC
  5
454
  8
5
  6
CONTINUOUS
 10
2093.262
 20
1223.781
 30
0.0
 40
76.28278
 50
289.9279
 51
308.7401
  0
ARC
  5
455
  8
5
  6
CONTINUOUS
 10
2093.262
 20
1223.781
 30
0.0
 40
76.28278
 50
308.7401
 51
326.1419
  0
ARC
  5
456
  8
5
  6
CONTINUOUS
 10
2093.262
 20
1223.781
 30
0.0
 40
76.28278
 50
326.1419
 51
340.4711
  0
ARC
  5
457
  8
5
  6
CONTINUOUS
 10
2093.262
 20
1223.781
 30
0.0
 40
76.28278
 50
340.4711
 51
353.6024
  0
ARC
  5
458
  8
5
  6
CONTINUOUS
 10
2093.262
 20
1223.781
 30
0.0
 40
76.28278
 50
353.6024
 51
6.3976
  0
ARC
  5
459
  8
5
  6
CONTINUOUS
 10
2093.262
 20
1223.781
 30
0.0
 40
76.28278
 50
6.397612
 51
19.52891
  0
ARC
  5
45A
  8
5
  6
CONTINUOUS
 10
2093.262
 20
1223.781
 30
0.0
 40
76.28278
 50
19.52891
 51
33.85807
  0
ARC
  5
45B
  8
5
  6
CONTINUOUS
 10
2093.262
 20
1223.781
 30
0.0
 40
76.28278
 50
33.85807
 51
51.25989
  0
ARC
  5
45C
  8
5
  6
CONTINUOUS
 10
2093.262
 20
1223.781
 30
0.0
 40
163.0742
 50
323.4564
 51
325.0152
  0
ARC
  5
45D
  8
5
  6
CONTINUOUS
 10
2093.262
 20
1223.781
 30
0.0
 40
163.0742
 50
314.9059
 51
322.133
  0
ARC
  5
45E
  8
5
  6
CONTINUOUS
 10
2093.262
 20
1223.781
 30
0.0
 40
163.0742
 50
214.9848
 51
225.0941
  0
ARC
  5
45F
  8
5
  6
CONTINUOUS
 10
2093.262
 20
1223.781
 30
0.0
 40
166.8297
 50
159.1053
 51
165.2412
  0
LINE
  5
460
  8
5
  6
CONTINUOUS
 10
1931.936
 20
1266.281
 30
0.0
 11
2029.915
 21
1266.281
 31
0.0
  0
LINE
  5
461
  8
5
  6
CONTINUOUS
 10
2045.525
 20
1283.281
 30
0.0
 11
1937.403
 21
1283.281
 31
0.0
  0
ARC
  5
462
  8
5
  6
CONTINUOUS
 10
2093.262
 20
1223.781
 30
0.0
 40
166.8297
 50
14.75882
 51
20.89467
  0
LINE
  5
463
  8
5
  6
CONTINUOUS
 10
2249.121
 20
1283.281
 30
0.0
 11
2140.999
 21
1283.281
 31
0.0
  0
LINE
  5
464
  8
5
  6
CONTINUOUS
 10
2156.609
 20
1266.281
 30
0.0
 11
2254.588
 21
1266.281
 31
0.0
  0
ARC
  5
465
  8
5
  6
CONTINUOUS
 10
2093.262
 20
1223.781
 30
0.0
 40
166.8297
 50
171.2078
 51
177.0795
  0
LINE
  5
466
  8
5
  6
CONTINUOUS
 10
1926.649
 20
1232.281
 30
0.0
 11
2017.454
 21
1232.281
 31
0.0
  0
LINE
  5
467
  8
5
  6
CONTINUOUS
 10
2021.368
 20
1249.281
 30
0.0
 11
1928.393
 21
1249.281
 31
0.0
  0
ARC
  5
468
  8
5
  6
CONTINUOUS
 10
2093.262
 20
1223.781
 30
0.0
 40
166.8297
 50
2.920493
 51
8.79215
  0
LINE
  5
469
  8
5
  6
CONTINUOUS
 10
2258.131
 20
1249.281
 30
0.0
 11
2165.156
 21
1249.281
 31
0.0
  0
LINE
  5
46A
  8
5
  6
CONTINUOUS
 10
2169.07
 20
1232.281
 30
0.0
 11
2259.875
 21
1232.281
 31
0.0
  0
ARC
  5
46B
  8
5
  6
CONTINUOUS
 10
2093.262
 20
1223.781
 30
0.0
 40
166.8297
 50
182.9205
 51
188.7922
  0
LINE
  5
46C
  8
5
  6
CONTINUOUS
 10
1928.393
 20
1198.281
 30
0.0
 11
2021.368
 21
1198.281
 31
0.0
  0
LINE
  5
46D
  8
5
  6
CONTINUOUS
 10
2017.454
 20
1215.281
 30
0.0
 11
1926.649
 21
1215.281
 31
0.0
  0
ARC
  5
46E
  8
5
  6
CONTINUOUS
 10
2093.262
 20
1223.781
 30
0.0
 40
166.8297
 50
351.2078
 51
357.0795
  0
LINE
  5
46F
  8
5
  6
CONTINUOUS
 10
2259.875
 20
1215.281
 30
0.0
 11
2169.07
 21
1215.281
 31
0.0
  0
LINE
  5
470
  8
5
  6
CONTINUOUS
 10
2165.156
 20
1198.281
 30
0.0
 11
2258.131
 21
1198.281
 31
0.0
  0
ARC
  5
471
  8
5
  6
CONTINUOUS
 10
2093.262
 20
1223.781
 30
0.0
 40
166.8297
 50
194.7588
 51
200.8947
  0
LINE
  5
472
  8
5
  6
CONTINUOUS
 10
1937.403
 20
1164.281
 30
0.0
 11
2045.525
 21
1164.281
 31
0.0
  0
LINE
  5
473
  8
5
  6
CONTINUOUS
 10
2029.915
 20
1181.281
 30
0.0
 11
1931.936
 21
1181.281
 31
0.0
  0
ARC
  5
474
  8
5
  6
CONTINUOUS
 10
2093.262
 20
1223.781
 30
0.0
 40
166.8297
 50
339.1053
 51
345.2412
  0
LINE
  5
475
  8
5
  6
CONTINUOUS
 10
2254.588
 20
1181.281
 30
0.0
 11
2156.609
 21
1181.281
 31
0.0
  0
LINE
  5
476
  8
5
  6
CONTINUOUS
 10
2140.999
 20
1164.281
 30
0.0
 11
2249.121
 21
1164.281
 31
0.0
  0
ARC
  5
477
  8
5
  6
CONTINUOUS
 10
2093.262
 20
1223.781
 30
0.0
 40
166.8297
 50
152.7063
 51
159.1053
  0
ARC
  5
478
  8
5
  6
CONTINUOUS
 10
2093.262
 20
1223.781
 30
0.0
 40
166.8297
 50
20.89467
 51
27.29367
  0
LINE
  5
479
  8
5
  6
CONTINUOUS
 10
2241.518
 20
1300.281
 30
0.0
 11
1945.006
 21
1300.281
 31
0.0
  0
ARC
  5
47A
  8
5
  6
CONTINUOUS
 10
2093.262
 20
1223.781
 30
0.0
 40
166.8297
 50
165.2412
 51
171.2078
  0
ARC
  5
47B
  8
5
  6
CONTINUOUS
 10
2093.262
 20
1223.781
 30
0.0
 40
166.8297
 50
8.79215
 51
14.75882
  0
ARC
  5
47C
  8
5
  6
CONTINUOUS
 10
2093.262
 20
1223.781
 30
0.0
 40
166.8297
 50
177.0795
 51
182.9205
  0
ARC
  5
47D
  8
5
  6
CONTINUOUS
 10
2093.262
 20
1223.781
 30
0.0
 40
166.8297
 50
357.0795
 51
2.9205
  0
ARC
  5
47E
  8
5
  6
CONTINUOUS
 10
2093.262
 20
1223.781
 30
0.0
 40
166.8297
 50
188.7922
 51
194.7588
  0
ARC
  5
47F
  8
5
  6
CONTINUOUS
 10
2093.262
 20
1223.781
 30
0.0
 40
166.8297
 50
345.2412
 51
351.2078
  0
ARC
  5
480
  8
5
  6
CONTINUOUS
 10
2093.262
 20
1223.781
 30
0.0
 40
166.8297
 50
145.913
 51
152.7063
  0
ARC
  5
481
  8
5
  6
CONTINUOUS
 10
2093.262
 20
1223.781
 30
0.0
 40
166.8297
 50
27.29367
 51
34.08704
  0
LINE
  5
482
  8
5
  6
CONTINUOUS
 10
2231.428
 20
1317.281
 30
0.0
 11
2188.762
 21
1317.281
 31
0.0
  0
LINE
  5
483
  8
5
  6
CONTINUOUS
 10
2188.762
 20
1317.281
 30
0.0
 11
2171.762
 21
1317.281
 31
0.0
  0
LINE
  5
484
  8
5
  6
CONTINUOUS
 10
2171.762
 20
1317.281
 30
0.0
 11
2154.762
 21
1317.281
 31
0.0
  0
LINE
  5
485
  8
5
  6
CONTINUOUS
 10
2154.762
 20
1317.281
 30
0.0
 11
2137.762
 21
1317.281
 31
0.0
  0
LINE
  5
486
  8
5
  6
CONTINUOUS
 10
2137.762
 20
1317.281
 30
0.0
 11
2120.762
 21
1317.281
 31
0.0
  0
LINE
  5
487
  8
5
  6
CONTINUOUS
 10
2120.762
 20
1317.281
 30
0.0
 11
2103.762
 21
1317.281
 31
0.0
  0
LINE
  5
488
  8
5
  6
CONTINUOUS
 10
2103.762
 20
1317.281
 30
0.0
 11
2082.762
 21
1317.281
 31
0.0
  0
LINE
  5
489
  8
5
  6
CONTINUOUS
 10
2082.762
 20
1317.281
 30
0.0
 11
2065.762
 21
1317.281
 31
0.0
  0
LINE
  5
48A
  8
5
  6
CONTINUOUS
 10
2065.762
 20
1317.281
 30
0.0
 11
2048.762
 21
1317.281
 31
0.0
  0
LINE
  5
48B
  8
5
  6
CONTINUOUS
 10
2048.762
 20
1317.281
 30
0.0
 11
2031.762
 21
1317.281
 31
0.0
  0
LINE
  5
48C
  8
5
  6
CONTINUOUS
 10
2031.762
 20
1317.281
 30
0.0
 11
2014.762
 21
1317.281
 31
0.0
  0
LINE
  5
48D
  8
5
  6
CONTINUOUS
 10
2014.762
 20
1317.281
 30
0.0
 11
1997.762
 21
1317.281
 31
0.0
  0
LINE
  5
48E
  8
5
  6
CONTINUOUS
 10
1997.762
 20
1317.281
 30
0.0
 11
1955.096
 21
1317.281
 31
0.0
  0
ARC
  5
48F
  8
5
  6
CONTINUOUS
 10
2093.262
 20
1223.781
 30
0.0
 40
166.8297
 50
124.9205
 51
145.913
  0
LINE
  5
490
  8
5
  6
CONTINUOUS
 10
1997.762
 20
1317.281
 30
0.0
 11
1997.762
 21
1360.572
 31
0.0
  0
ARC
  5
491
  8
5
  6
CONTINUOUS
 10
2093.262
 20
1223.781
 30
0.0
 40
166.8297
 50
34.08704
 51
55.07946
  0
LINE
  5
492
  8
5
  6
CONTINUOUS
 10
2188.762
 20
1360.572
 30
0.0
 11
2188.762
 21
1317.281
 31
0.0
  0
ARC
  5
493
  8
5
  6
CONTINUOUS
 10
2093.262
 20
1223.781
 30
0.0
 40
166.8297
 50
61.93067
 51
68.36828
  0
LINE
  5
494
  8
5
  6
CONTINUOUS
 10
2154.762
 20
1378.861
 30
0.0
 11
2154.762
 21
1317.281
 31
0.0
  0
LINE
  5
495
  8
5
  6
CONTINUOUS
 10
2171.762
 20
1317.281
 30
0.0
 11
2171.762
 21
1370.988
 31
0.0
  0
ARC
  5
496
  8
5
  6
CONTINUOUS
 10
2093.262
 20
1223.781
 30
0.0
 40
166.8297
 50
74.52969
 51
80.51213
  0
LINE
  5
497
  8
5
  6
CONTINUOUS
 10
2120.762
 20
1388.329
 30
0.0
 11
2120.762
 21
1317.281
 31
0.0
  0
LINE
  5
498
  8
5
  6
CONTINUOUS
 10
2137.762
 20
1317.281
 30
0.0
 11
2137.762
 21
1384.566
 31
0.0
  0
ARC
  5
499
  8
5
  6
CONTINUOUS
 10
2093.262
 20
1223.781
 30
0.0
 40
166.8297
 50
86.39151
 51
93.60849
  0
LINE
  5
49A
  8
5
  6
CONTINUOUS
 10
2082.762
 20
1390.28
 30
0.0
 11
2082.762
 21
1317.281
 31
0.0
  0
LINE
  5
49B
  8
5
  6
CONTINUOUS
 10
2103.762
 20
1317.281
 30
0.0
 11
2103.762
 21
1390.28
 31
0.0
  0
ARC
  5
49C
  8
5
  6
CONTINUOUS
 10
2093.262
 20
1223.781
 30
0.0
 40
166.8297
 50
99.48787
 51
105.4703
  0
LINE
  5
49D
  8
5
  6
CONTINUOUS
 10
2048.762
 20
1384.566
 30
0.0
 11
2048.762
 21
1317.281
 31
0.0
  0
LINE
  5
49E
  8
5
  6
CONTINUOUS
 10
2065.762
 20
1317.281
 30
0.0
 11
2065.762
 21
1388.328
 31
0.0
  0
ARC
  5
49F
  8
5
  6
CONTINUOUS
 10
2093.262
 20
1223.781
 30
0.0
 40
166.8297
 50
111.6317
 51
118.0693
  0
LINE
  5
4A0
  8
5
  6
CONTINUOUS
 10
2014.762
 20
1370.988
 30
0.0
 11
2014.762
 21
1317.281
 31
0.0
  0
LINE
  5
4A1
  8
5
  6
CONTINUOUS
 10
2031.762
 20
1317.281
 30
0.0
 11
2031.762
 21
1378.861
 31
0.0
  0
ARC
  5
4A2
  8
5
  6
CONTINUOUS
 10
2093.262
 20
1223.781
 30
0.0
 40
166.8297
 50
118.0693
 51
124.9205
  0
ARC
  5
4A3
  8
5
  6
CONTINUOUS
 10
2093.262
 20
1223.781
 30
0.0
 40
166.8297
 50
55.07946
 51
61.93067
  0
ARC
  5
4A4
  8
5
  6
CONTINUOUS
 10
2093.262
 20
1223.781
 30
0.0
 40
166.8297
 50
68.36828
 51
74.52969
  0
ARC
  5
4A5
  8
5
  6
CONTINUOUS
 10
2093.262
 20
1223.781
 30
0.0
 40
166.8297
 50
80.51213
 51
86.39151
  0
ARC
  5
4A6
  8
5
  6
CONTINUOUS
 10
2093.262
 20
1223.781
 30
0.0
 40
166.8297
 50
93.60849
 51
99.48787
  0
ARC
  5
4A7
  8
5
  6
CONTINUOUS
 10
2093.262
 20
1223.781
 30
0.0
 40
166.8297
 50
105.4703
 51
111.6317
  0
LINE
  5
4A8
  8
5
  6
CONTINUOUS
 10
2067.262
 20
1147.281
 30
0.0
 11
1945.006
 21
1147.281
 31
0.0
  0
ARC
  5
4A9
  8
5
  6
CONTINUOUS
 10
2093.262
 20
1223.781
 30
0.0
 40
166.8297
 50
207.2937
 51
214.087
  0
ARC
  5
4AA
  8
5
  6
CONTINUOUS
 10
2093.262
 20
1223.781
 30
0.0
 40
166.8297
 50
325.913
 51
332.7063
  0
LINE
  5
4AB
  8
5
  6
CONTINUOUS
 10
2241.518
 20
1147.281
 30
0.0
 11
2119.262
 21
1147.281
 31
0.0
  0
ARC
  5
4AC
  8
5
  6
CONTINUOUS
 10
2093.262
 20
1223.781
 30
0.0
 40
166.8297
 50
200.8947
 51
207.2937
  0
ARC
  5
4AD
  8
5
  6
CONTINUOUS
 10
2093.262
 20
1223.781
 30
0.0
 40
166.8297
 50
332.7063
 51
339.1053
  0
ARC
  5
4AE
  8
5
  6
CONTINUOUS
 10
2093.262
 20
1223.781
 30
0.0
 40
166.8297
 50
251.4768
 51
257.5382
  0
LINE
  5
4AF
  8
5
  6
CONTINUOUS
 10
2057.262
 20
1060.882
 30
0.0
 11
2057.262
 21
1108.281
 31
0.0
  0
LINE
  5
4B0
  8
5
  6
CONTINUOUS
 10
2040.262
 20
1108.281
 30
0.0
 11
2040.262
 21
1065.594
 31
0.0
  0
ARC
  5
4B1
  8
5
  6
CONTINUOUS
 10
2093.262
 20
1223.781
 30
0.0
 40
166.8297
 50
282.4618
 51
288.5232
  0
LINE
  5
4B2
  8
5
  6
CONTINUOUS
 10
2146.262
 20
1065.594
 30
0.0
 11
2146.262
 21
1108.281
 31
0.0
  0
LINE
  5
4B3
  8
5
  6
CONTINUOUS
 10
2129.262
 20
1108.281
 30
0.0
 11
2129.262
 21
1060.882
 31
0.0
  0
ARC
  5
4B4
  8
5
  6
CONTINUOUS
 10
2093.262
 20
1223.781
 30
0.0
 40
166.8297
 50
223.8142
 51
251.4768
  0
ARC
  5
4B5
  8
5
  6
CONTINUOUS
 10
2093.262
 20
1223.781
 30
0.0
 40
166.8297
 50
288.5232
 51
316.1858
  0
ARC
  5
4B6
  8
5
  6
CONTINUOUS
 10
2093.262
 20
1223.781
 30
0.0
 40
166.8297
 50
257.5382
 51
263.4605
  0
ARC
  5
4B7
  8
5
  6
CONTINUOUS
 10
2093.262
 20
1223.781
 30
0.0
 40
166.8297
 50
276.5395
 51
282.4618
  0
ARC
  5
4B8
  8
5
  6
CONTINUOUS
 10
2093.262
 20
1223.781
 30
0.0
 40
188.3371
 50
90.0
 51
327.8936
  0
ARC
  5
4B9
  8
5
  6
CONTINUOUS
 10
2093.262
 20
1223.781
 30
0.0
 40
188.3371
 50
328.9648
 51
90.0
  0
LINE
  5
4BA
  8
5
  6
CONTINUOUS
 10
2237.598
 20
1123.681
 30
0.0
 11
2344.262
 21
1123.681
 31
0.0
  0
LINE
  5
4BB
  8
5
  6
CONTINUOUS
 10
2344.262
 20
1126.681
 30
0.0
 11
2239.633
 21
1126.681
 31
0.0
  0
LINE
  5
4BC
  8
5
  6
CONTINUOUS
 10
2112.262
 20
1123.681
 30
0.0
 11
2228.003
 21
1123.681
 31
0.0
  0
LINE
  5
4BD
  8
5
  6
CONTINUOUS
 10
2230.18
 20
1126.681
 30
0.0
 11
2093.262
 21
1126.681
 31
0.0
  0
ARC
  5
4BE
  8
5
  6
CONTINUOUS
 10
2093.262
 20
1223.781
 30
0.0
 40
170.0
 50
276.4171
 51
263.5829
  0
LINE
  5
4BF
  8
5
  6
CONTINUOUS
 10
1961.162
 20
1442.781
 30
0.0
 11
1961.162
 21
1446.63
 31
0.0
  0
LINE
  5
4C0
  8
5
  6
CONTINUOUS
 10
1961.162
 20
1442.781
 30
0.0
 11
1957.279
 21
1442.781
 31
0.0
  0
LINE
  5
4C1
  8
5
  6
CONTINUOUS
 10
2225.562
 20
1442.781
 30
0.0
 11
2214.449
 21
1442.781
 31
0.0
  0
LINE
  5
4C2
  8
5
  6
CONTINUOUS
 10
2225.562
 20
1442.781
 30
0.0
 11
2225.562
 21
1446.432
 31
0.0
  0
LINE
  5
4C3
  8
5
  6
CONTINUOUS
 10
1972.075
 20
1442.781
 30
0.0
 11
1961.162
 21
1442.781
 31
0.0
  0
LINE
  5
4C4
  8
5
  6
CONTINUOUS
 10
2229.245
 20
1442.781
 30
0.0
 11
2225.562
 21
1442.781
 31
0.0
  0
LINE
  5
4C5
  8
5
  6
CONTINUOUS
 10
1870.662
 20
1355.981
 30
0.0
 11
1870.561
 21
1355.981
 31
0.0
  0
LINE
  5
4C6
  8
5
  6
CONTINUOUS
 10
1853.262
 20
1338.481
 30
0.0
 11
1888.162
 21
1338.481
 31
0.0
  0
LINE
  5
4C8
  8
5
  6
CONTINUOUS
 10
1870.662
 20
1091.581
 30
0.0
 11
1870.561
 21
1091.581
 31
0.0
  0
LINE
  5
4C9
  8
5
  6
CONTINUOUS
 10
1870.662
 20
1091.581
 30
0.0
 11
1870.611
 21
1091.53
 31
0.0
  0
LINE
  5
4CA
  8
5
  6
CONTINUOUS
 10
1870.611
 20
1356.031
 30
0.0
 11
1870.662
 21
1355.981
 31
0.0
  0
LINE
  5
4CB
  8
5
  6
CONTINUOUS
 10
1888.162
 20
1109.081
 30
0.0
 11
1853.262
 21
1109.081
 31
0.0
  0
LINE
  5
4CD
  8
5
  6
CONTINUOUS
 10
1874.262
 20
1223.781
 30
0.0
 11
1853.262
 21
1223.781
 31
0.0
  0
LINE
  5
4CE
  8
5
  6
CONTINUOUS
 10
1853.262
 20
1206.481
 30
0.0
 11
1874.946
 21
1206.481
 31
0.0
  0
LINE
  5
4CF
  8
5
  6
CONTINUOUS
 10
1876.997
 20
1258.281
 30
0.0
 11
1853.262
 21
1258.281
 31
0.0
  0
LINE
  5
4D0
  8
5
  6
CONTINUOUS
 10
1853.262
 20
1241.081
 30
0.0
 11
1874.946
 21
1241.081
 31
0.0
  0
LINE
  5
4D1
  8
5
  6
CONTINUOUS
 10
1883.945
 20
1288.181
 30
0.0
 11
1853.262
 21
1288.181
 31
0.0
  0
LINE
  5
4D2
  8
5
  6
CONTINUOUS
 10
1853.262
 20
1273.281
 30
0.0
 11
1879.929
 21
1273.281
 31
0.0
  0
LINE
  5
4D3
  8
5
  6
CONTINUOUS
 10
1853.262
 20
1303.181
 30
0.0
 11
1889.162
 21
1303.181
 31
0.0
  0
LINE
  5
4D4
  8
5
  6
CONTINUOUS
 10
1876.997
 20
1189.281
 30
0.0
 11
1853.262
 21
1189.281
 31
0.0
  0
LINE
  5
4D5
  8
5
  6
CONTINUOUS
 10
1853.262
 20
1174.381
 30
0.0
 11
1879.906
 21
1174.381
 31
0.0
  0
LINE
  5
4D6
  8
5
  6
CONTINUOUS
 10
1883.945
 20
1159.381
 30
0.0
 11
1853.262
 21
1159.381
 31
0.0
  0
LINE
  5
4D7
  8
5
  6
CONTINUOUS
 10
1853.262
 20
1144.381
 30
0.0
 11
1889.162
 21
1144.381
 31
0.0
  0
LINE
  5
4DA
  8
5
  6
CONTINUOUS
 10
2315.963
 20
1355.981
 30
0.0
 11
2315.862
 21
1355.981
 31
0.0
  0
LINE
  5
4DC
  8
5
  6
CONTINUOUS
 10
2298.362
 20
1338.481
 30
0.0
 11
2333.262
 21
1338.481
 31
0.0
  0
LINE
  5
4DD
  8
5
  6
CONTINUOUS
 10
2315.964
 20
1091.581
 30
0.0
 11
2315.862
 21
1091.581
 31
0.0
  0
LINE
  5
4DE
  8
5
  6
CONTINUOUS
 10
2315.913
 20
1091.53
 30
0.0
 11
2315.862
 21
1091.581
 31
0.0
  0
LINE
  5
4DF
  8
5
  6
CONTINUOUS
 10
2315.913
 20
1356.031
 30
0.0
 11
2315.862
 21
1355.981
 31
0.0
  0
LINE
  5
4E0
  8
5
  6
CONTINUOUS
 10
2333.262
 20
1109.081
 30
0.0
 11
2298.362
 21
1109.081
 31
0.0
  0
LINE
  5
4E2
  8
5
  6
CONTINUOUS
 10
2311.578
 20
1206.481
 30
0.0
 11
2333.262
 21
1206.481
 31
0.0
  0
LINE
  5
4E3
  8
5
  6
CONTINUOUS
 10
2333.262
 20
1223.781
 30
0.0
 11
2312.262
 21
1223.781
 31
0.0
  0
LINE
  5
4E4
  8
5
  6
CONTINUOUS
 10
2311.578
 20
1241.081
 30
0.0
 11
2333.262
 21
1241.081
 31
0.0
  0
LINE
  5
4E5
  8
5
  6
CONTINUOUS
 10
2333.262
 20
1258.281
 30
0.0
 11
2309.527
 21
1258.281
 31
0.0
  0
LINE
  5
4E6
  8
5
  6
CONTINUOUS
 10
2306.594
 20
1273.281
 30
0.0
 11
2333.262
 21
1273.281
 31
0.0
  0
LINE
  5
4E7
  8
5
  6
CONTINUOUS
 10
2333.262
 20
1288.181
 30
0.0
 11
2302.579
 21
1288.181
 31
0.0
  0
LINE
  5
4E8
  8
5
  6
CONTINUOUS
 10
2297.362
 20
1303.181
 30
0.0
 11
2333.262
 21
1303.181
 31
0.0
  0
LINE
  5
4E9
  8
5
  6
CONTINUOUS
 10
2306.618
 20
1174.381
 30
0.0
 11
2333.262
 21
1174.381
 31
0.0
  0
LINE
  5
4EA
  8
5
  6
CONTINUOUS
 10
2333.262
 20
1189.281
 30
0.0
 11
2309.527
 21
1189.281
 31
0.0
  0
LINE
  5
4EB
  8
5
  6
CONTINUOUS
 10
2297.362
 20
1144.381
 30
0.0
 11
2333.262
 21
1144.381
 31
0.0
  0
LINE
  5
4EC
  8
5
  6
CONTINUOUS
 10
2333.262
 20
1159.381
 30
0.0
 11
2302.579
 21
1159.381
 31
0.0
  0
LINE
  5
4EF
  8
5
  6
CONTINUOUS
 10
1961.162
 20
1398.454
 30
0.0
 11
1961.162
 21
1442.781
 31
0.0
  0
LINE
  5
4F0
  8
5
  6
CONTINUOUS
 10
1943.762
 20
1429.38
 30
0.0
 11
1943.762
 21
1404.216
 31
0.0
  0
LINE
  5
4F1
  8
5
  6
CONTINUOUS
 10
2225.562
 20
1398.302
 30
0.0
 11
2225.562
 21
1442.781
 31
0.0
  0
LINE
  5
4F2
  8
5
  6
CONTINUOUS
 10
2279.823
 20
1338.481
 30
0.0
 11
2298.362
 21
1338.481
 31
0.0
  0
LINE
  5
4F3
  8
5
  6
CONTINUOUS
 10
2315.862
 20
1355.981
 30
0.0
 11
2267.859
 21
1355.981
 31
0.0
  0
LINE
  5
4F4
  8
5
  6
CONTINUOUS
 10
1918.665
 20
1355.981
 30
0.0
 11
1870.662
 21
1355.981
 31
0.0
  0
LINE
  5
4F5
  8
5
  6
CONTINUOUS
 10
1888.162
 20
1338.481
 30
0.0
 11
1906.701
 21
1338.481
 31
0.0
  0
LINE
  5
4F6
  8
5
  6
CONTINUOUS
 10
1888.162
 20
1109.081
 30
0.0
 11
1906.701
 21
1109.081
 31
0.0
  0
LINE
  5
4F7
  8
5
  6
CONTINUOUS
 10
2279.823
 20
1109.081
 30
0.0
 11
2298.362
 21
1109.081
 31
0.0
  0
LINE
  5
4F8
  8
5
  6
CONTINUOUS
 10
1918.665
 20
1091.581
 30
0.0
 11
1870.662
 21
1091.581
 31
0.0
  0
LINE
  5
4F9
  8
5
  6
CONTINUOUS
 10
2315.862
 20
1091.581
 30
0.0
 11
2267.859
 21
1091.581
 31
0.0
  0
LINE
  5
4FA
  8
5
  6
CONTINUOUS
 10
2252.262
 20
1564.581
 30
0.0
 11
2218.394
 21
1599.481
 31
0.0
  0
LINE
  5
4FB
  8
5
  6
CONTINUOUS
 10
2206.262
 20
1564.581
 30
0.0
 11
2206.269
 21
1615.581
 31
0.0
  0
LINE
  5
4FC
  8
5
  6
CONTINUOUS
 10
1983.255
 20
1615.581
 30
0.0
 11
1983.262
 21
1564.581
 31
0.0
  0
LINE
  5
4FD
  8
5
  6
CONTINUOUS
 10
2206.262
 20
1564.581
 30
0.0
 11
1983.262
 21
1564.581
 31
0.0
  0
LINE
  5
4FE
  8
5
  6
CONTINUOUS
 10
1945.262
 20
1496.781
 30
0.0
 11
2241.262
 21
1496.781
 31
0.0
  0
LINE
  5
4FF
  8
5
  6
CONTINUOUS
 10
1987.131
 20
1472.781
 30
0.0
 11
1985.085
 21
1414.198
 31
0.0
  0
LINE
  5
500
  8
5
  6
CONTINUOUS
 10
2201.439
 20
1414.198
 30
0.0
 11
2199.393
 21
1472.781
 31
0.0
  0
LINE
  5
501
  8
5
  6
CONTINUOUS
 10
868.5192
 20
1260.281
 30
0.0
 11
859.5193
 21
1260.281
 31
0.0
  0
LINE
  5
502
  8
5
  6
CONTINUOUS
 10
738.5192
 20
1191.281
 30
0.0
 11
738.5192
 21
1256.281
 31
0.0
  0
LINE
  5
503
  8
5
  6
CONTINUOUS
 10
878.5192
 20
1223.781
 30
0.0
 11
878.5192
 21
1261.281
 31
0.0
  0
LINE
  5
504
  8
5
  6
CONTINUOUS
 10
878.5192
 20
1186.281
 30
0.0
 11
878.5192
 21
1223.781
 31
0.0
  0
LINE
  5
505
  8
5
  6
CONTINUOUS
 10
748.5194
 20
1256.281
 30
0.0
 11
738.5193
 21
1256.281
 31
0.0
  0
LINE
  5
506
  8
5
  6
CONTINUOUS
 10
878.5192
 20
1256.281
 30
0.0
 11
868.5191
 21
1256.281
 31
0.0
  0
LINE
  5
507
  8
5
  6
CONTINUOUS
 10
738.5193
 20
1191.281
 30
0.0
 11
878.5192
 21
1191.281
 31
0.0
  0
LINE
  5
508
  8
5
  6
CONTINUOUS
 10
757.5192
 20
1255.01
 30
0.0
 11
859.5192
 21
1255.01
 31
0.0
  0
LINE
  5
509
  8
5
  6
CONTINUOUS
 10
892.5193
 20
1261.281
 30
0.0
 11
878.5192
 21
1261.281
 31
0.0
  0
LINE
  5
50A
  8
5
  6
CONTINUOUS
 10
878.5192
 20
1186.281
 30
0.0
 11
892.5193
 21
1186.281
 31
0.0
  0
LINE
  5
50B
  8
5
  6
CONTINUOUS
 10
868.5193
 20
1256.281
 30
0.0
 11
868.5193
 21
1260.281
 31
0.0
  0
LINE
  5
50C
  8
5
  6
CONTINUOUS
 10
748.5192
 20
1260.281
 30
0.0
 11
748.5192
 21
1256.282
 31
0.0
  0
LINE
  5
50D
  8
5
  6
CONTINUOUS
 10
738.5193
 20
370.6444
 30
0.0
 11
738.5193
 21
435.6444
 31
0.0
  0
ARC
  5
50E
  8
5
  6
CONTINUOUS
 10
859.5193
 20
403.1444
 30
0.0
 40
9.0
 50
270.0
 51
90.0
  0
LINE
  5
50F
  8
5
  6
CONTINUOUS
 10
859.5193
 20
394.1443
 30
0.0
 11
757.5194
 21
394.1443
 31
0.0
  0
ARC
  5
510
  8
5
  6
CONTINUOUS
 10
757.5193
 20
403.1444
 30
0.0
 40
9.0
 50
90.0
 51
270.0
  0
LINE
  5
511
  8
5
  6
CONTINUOUS
 10
757.5194
 20
412.1443
 30
0.0
 11
859.5193
 21
412.1444
 31
0.0
  0
LINE
  5
512
  8
5
  6
CONTINUOUS
 10
878.5193
 20
365.6444
 30
0.0
 11
878.5193
 21
440.6444
 31
0.0
  0
LINE
  5
513
  8
5
  6
CONTINUOUS
 10
738.5194
 20
370.6443
 30
0.0
 11
878.5193
 21
370.6443
 31
0.0
  0
LINE
  5
514
  8
5
  6
CONTINUOUS
 10
878.5193
 20
435.6443
 30
0.0
 11
738.5194
 21
435.6443
 31
0.0
  0
LINE
  5
515
  8
5
  6
CONTINUOUS
 10
892.5192
 20
440.6444
 30
0.0
 11
878.5193
 21
440.6444
 31
0.0
  0
LINE
  5
516
  8
5
  6
CONTINUOUS
 10
878.5193
 20
365.6444
 30
0.0
 11
892.5192
 21
365.6445
 31
0.0
  0
LINE
  5
517
  8
5
  6
CONTINUOUS
 10
2102.262
 20
1260.281
 30
0.0
 11
2084.262
 21
1260.281
 31
0.0
  0
CIRCLE
  5
518
  8
5
  6
CONTINUOUS
 10
2093.262
 20
1223.781
 30
0.0
 40
32.5
  0
ARC
  5
519
  8
5
  6
CONTINUOUS
 10
2093.262
 20
1223.781
 30
0.0
 40
37.49995
 50
0.000002
 51
101.3752
  0
ARC
  5
51A
  8
5
  6
CONTINUOUS
 10
2093.262
 20
1223.781
 30
0.0
 40
37.50001
 50
103.8866
 51
0.0
  0
LINE
  5
51B
  8
5
  6
CENTER
 10
901.8193
 20
479.2001
 30
0.0
 11
900.2216
 21
479.1443
 31
0.0
  0
LINE
  5
51C
  8
5
  6
CONTINUOUS
 10
1406.71
 20
184.1443
 30
0.0
 11
1411.519
 21
184.1443
 31
0.0
  0
LINE
  5
51D
  8
7
  6
DASHED
 10
1345.519
 20
1003.781
 30
0.0
 11
1345.519
 21
973.7809
 31
0.0
  0
LINE
  5
51E
  8
7
  6
DASHED
 10
1383.519
 20
1003.781
 30
0.0
 11
1383.519
 21
973.7809
 31
0.0
  0
LINE
  5
51F
  8
7
  6
DASHED
 10
1407.519
 20
1003.781
 30
0.0
 11
1407.519
 21
973.7809
 31
0.0
  0
LINE
  5
520
  8
7
  6
DASHED
 10
1369.519
 20
1003.781
 30
0.0
 11
1369.519
 21
973.7809
 31
0.0
  0
LINE
  5
521
  8
7
  6
DASHED
 10
1034.519
 20
1003.781
 30
0.0
 11
1034.519
 21
973.7809
 31
0.0
  0
LINE
  5
522
  8
7
  6
DASHED
 10
1058.519
 20
1003.781
 30
0.0
 11
1058.519
 21
973.7809
 31
0.0
  0
LINE
  5
523
  8
7
  6
DASHED
 10
1902.262
 20
1003.781
 30
0.0
 11
1902.262
 21
973.7809
 31
0.0
  0
LINE
  5
524
  8
7
  6
DASHED
 10
1878.262
 20
1003.781
 30
0.0
 11
1878.262
 21
973.7809
 31
0.0
  0
LINE
  5
525
  8
7
  6
DASHED
 10
2284.262
 20
1003.781
 30
0.0
 11
2284.262
 21
973.7809
 31
0.0
  0
LINE
  5
526
  8
7
  6
DASHED
 10
2308.262
 20
1003.781
 30
0.0
 11
2308.262
 21
973.7809
 31
0.0
  0
LINE
  5
527
  8
7
  6
DASHED
 10
594.607
 20
1003.781
 30
0.0
 11
594.607
 21
973.7809
 31
0.0
  0
LINE
  5
528
  8
7
  6
DASHED
 10
570.6071
 20
1003.781
 30
0.0
 11
570.6071
 21
973.7809
 31
0.0
  0
LINE
  5
529
  8
7
  6
DASHED
 10
188.607
 20
1003.781
 30
0.0
 11
188.607
 21
973.7809
 31
0.0
  0
LINE
  5
52A
  8
7
  6
DASHED
 10
164.6071
 20
1003.781
 30
0.0
 11
164.6071
 21
973.7809
 31
0.0
  0
LINE
  5
52B
  8
6
  6
CENTER
 10
2296.262
 20
1011.281
 30
0.0
 11
2296.262
 21
966.2809
 31
0.0
  0
LINE
  5
52C
  8
6
  6
CENTER
 10
1890.262
 20
1011.281
 30
0.0
 11
1890.262
 21
966.2809
 31
0.0
  0
LINE
  5
52D
  8
6
  6
CENTER
 10
2093.262
 20
999.7809
 30
0.0
 11
2093.262
 21
1447.781
 31
0.0
  0
LINE
  5
52E
  8
6
  6
CENTER
 10
1869.262
 20
1223.781
 30
0.0
 11
2317.262
 21
1223.781
 31
0.0
  0
LINE
  5
52F
  8
6
  6
CENTER
 10
1638.519
 20
1223.781
 30
0.0
 11
713.5192
 21
1223.781
 31
0.0
  0
LINE
  5
530
  8
6
  6
CENTER
 10
1395.519
 20
1011.281
 30
0.0
 11
1395.519
 21
966.2809
 31
0.0
  0
LINE
  5
531
  8
6
  6
CENTER
 10
1357.519
 20
1011.281
 30
0.0
 11
1357.519
 21
966.2809
 31
0.0
  0
LINE
  5
532
  8
6
  6
CENTER
 10
1046.519
 20
1011.281
 30
0.0
 11
1046.519
 21
966.2809
 31
0.0
  0
LINE
  5
533
  8
6
  6
CENTER
 10
379.6071
 20
995.2809
 30
0.0
 11
379.6071
 21
1452.281
 31
0.0
  0
LINE
  5
534
  8
6
  6
CENTER
 10
151.1071
 20
1223.781
 30
0.0
 11
608.1071
 21
1223.781
 31
0.0
  0
LINE
  5
535
  8
6
  6
CENTER
 10
582.607
 20
1011.281
 30
0.0
 11
582.607
 21
966.2809
 31
0.0
  0
LINE
  5
536
  8
6
  6
CENTER
 10
176.607
 20
1011.281
 30
0.0
 11
176.607
 21
966.2809
 31
0.0
  0
LINE
  5
537
  8
5
  6
CONTINUOUS
 10
2386.262
 20
1546.281
 30
0.0
 11
2386.262
 21
1426.281
 31
0.0
  0
LINE
  5
538
  8
5
  6
CONTINUOUS
 10
2386.262
 20
1526.281
 30
0.0
 11
2403.582
 21
1536.281
 31
0.0
  0
LINE
  5
539
  8
5
  6
CONTINUOUS
 10
2386.262
 20
1506.281
 30
0.0
 11
2403.582
 21
1516.281
 31
0.0
  0
LINE
  5
53A
  8
5
  6
CONTINUOUS
 10
2386.262
 20
1486.281
 30
0.0
 11
2403.582
 21
1496.281
 31
0.0
  0
LINE
  5
53B
  8
5
  6
CONTINUOUS
 10
2386.262
 20
1466.281
 30
0.0
 11
2403.582
 21
1476.281
 31
0.0
  0
LINE
  5
53C
  8
5
  6
CONTINUOUS
 10
2386.262
 20
1446.281
 30
0.0
 11
2403.582
 21
1456.281
 31
0.0
  0
LINE
  5
53D
  8
5
  6
CONTINUOUS
 10
1703.519
 20
1402.679
 30
0.0
 11
1703.519
 21
1282.679
 31
0.0
  0
LINE
  5
53E
  8
5
  6
CONTINUOUS
 10
1703.519
 20
1382.679
 30
0.0
 11
1720.997
 21
1392.401
 31
0.0
  0
LINE
  5
53F
  8
5
  6
CONTINUOUS
 10
1703.519
 20
1362.679
 30
0.0
 11
1720.997
 21
1372.401
 31
0.0
  0
LINE
  5
540
  8
5
  6
CONTINUOUS
 10
1703.519
 20
1342.679
 30
0.0
 11
1720.997
 21
1352.401
 31
0.0
  0
LINE
  5
541
  8
5
  6
CONTINUOUS
 10
1703.519
 20
1322.679
 30
0.0
 11
1720.997
 21
1332.401
 31
0.0
  0
LINE
  5
542
  8
5
  6
CONTINUOUS
 10
1703.519
 20
1302.679
 30
0.0
 11
1720.997
 21
1312.401
 31
0.0
  0
LINE
  5
543
  8
6
  6
CENTER
 10
713.5193
 20
403.1443
 30
0.0
 11
989.515499
 21
403.1443
 31
0.0
  0
LINE
  5
56A
  8
6
  6
CENTER
 10
1209.519
 20
403.1443
 30
0.0
 11
1638.519
 21
403.1443
 31
0.0
  0
ARC
  5
56B
  8
5
  6
CONTINUOUS
 10
1107.255821
 20
1568.257287
 30
0.0
 40
10.43949
 50
0.001947
 51
90.00195
  0
ARC
  5
56C
  8
5
  6
CONTINUOUS
 10
1152.901821
 20
1568.258887
 30
0.0
 40
10.43949
 50
0.001947
 51
90.00195
  0
LINE
  5
56D
  8
5
  6
CONTINUOUS
 10
1100.353821
 20
1578.696587
 30
0.0
 11
1086.574821
 21
1578.696087
 31
0.0
  0
LINE
  5
56E
  8
5
  6
CONTINUOUS
 10
1086.575821
 20
1553.798687
 30
0.0
 11
1100.354821
 21
1553.799387
 31
0.0
  0
LINE
  5
56F
  8
5
  6
CONTINUOUS
 10
1100.354821
 20
1551.699187
 30
0.0
 11
1086.575821
 21
1551.698787
 31
0.0
  0
LINE
  5
570
  8
5
  6
CONTINUOUS
 10
1086.576821
 20
1525.632387
 30
0.0
 11
1100.355821
 21
1525.633087
 31
0.0
  0
LINE
  5
571
  8
5
  6
CONTINUOUS
 10
1051.554821
 20
1553.797587
 30
0.0
 11
1066.234821
 21
1553.798087
 31
0.0
  0
LINE
  5
572
  8
5
  6
CONTINUOUS
 10
1057.346821
 20
1578.695087
 30
0.0
 11
1051.553821
 21
1578.694787
 31
0.0
  0
LINE
  5
573
  8
5
  6
CONTINUOUS
 10
1066.983821
 20
1551.698087
 30
0.0
 11
1051.554821
 21
1551.697687
 31
0.0
  0
LINE
  5
574
  8
5
  6
CONTINUOUS
 10
1051.554821
 20
1536.388787
 30
0.0
 11
1062.948821
 21
1536.389087
 31
0.0
  0
LINE
  5
575
  8
5
  6
CONTINUOUS
 10
1049.455821
 20
1536.388587
 30
0.0
 11
1049.454821
 21
1551.697487
 31
0.0
  0
LINE
  5
576
  8
5
  6
CONTINUOUS
 10
1034.399821
 20
1551.696987
 30
0.0
 11
1025.457821
 21
1525.630487
 31
0.0
  0
LINE
  5
577
  8
5
  6
CONTINUOUS
 10
1051.554821
 20
1551.697687
 30
0.0
 11
1051.554821
 21
1536.388787
 31
0.0
  0
LINE
  5
578
  8
5
  6
CONTINUOUS
 10
1025.457821
 20
1525.630487
 30
0.0
 11
1034.320821
 21
1525.630787
 31
0.0
  0
LINE
  5
579
  8
5
  6
CONTINUOUS
 10
1034.320821
 20
1525.630787
 30
0.0
 11
1038.011821
 21
1536.388087
 31
0.0
  0
LINE
  5
57A
  8
5
  6
CONTINUOUS
 10
1038.011821
 20
1536.388087
 30
0.0
 11
1049.455821
 21
1536.388587
 31
0.0
  0
LINE
  5
57B
  8
5
  6
CONTINUOUS
 10
1043.660821
 20
1578.694587
 30
0.0
 11
1035.120821
 21
1553.797187
 31
0.0
  0
LINE
  5
57C
  8
5
  6
CONTINUOUS
 10
1035.120821
 20
1553.797187
 30
0.0
 11
1049.454821
 21
1553.797587
 31
0.0
  0
LINE
  5
57D
  8
5
  6
CONTINUOUS
 10
1049.454821
 20
1553.797587
 30
0.0
 11
1049.453821
 21
1578.694787
 31
0.0
  0
LINE
  5
57E
  8
5
  6
CONTINUOUS
 10
1049.453821
 20
1578.694787
 30
0.0
 11
1043.660821
 21
1578.694587
 31
0.0
  0
LINE
  5
57F
  8
5
  6
CONTINUOUS
 10
1049.454821
 20
1551.697487
 30
0.0
 11
1034.399821
 21
1551.696987
 31
0.0
  0
LINE
  5
580
  8
5
  6
CONTINUOUS
 10
1051.553821
 20
1578.694787
 30
0.0
 11
1051.554821
 21
1553.797587
 31
0.0
  0
LINE
  5
581
  8
5
  6
CONTINUOUS
 10
1076.288821
 20
1525.632187
 30
0.0
 11
1066.983821
 21
1551.698087
 31
0.0
  0
LINE
  5
582
  8
5
  6
CONTINUOUS
 10
1086.575821
 20
1551.698787
 30
0.0
 11
1086.576821
 21
1525.632387
 31
0.0
  0
LINE
  5
583
  8
5
  6
CONTINUOUS
 10
1066.788821
 20
1525.631887
 30
0.0
 11
1076.288821
 21
1525.632187
 31
0.0
  0
LINE
  5
584
  8
5
  6
CONTINUOUS
 10
1062.948821
 20
1536.389087
 30
0.0
 11
1066.788821
 21
1525.631887
 31
0.0
  0
LINE
  5
585
  8
5
  6
CONTINUOUS
 10
1066.234821
 20
1553.798087
 30
0.0
 11
1057.346821
 21
1578.695087
 31
0.0
  0
LINE
  5
586
  8
5
  6
CONTINUOUS
 10
1086.574821
 20
1578.696087
 30
0.0
 11
1086.575821
 21
1553.798787
 31
0.0
  0
LINE
  5
587
  8
5
  6
CONTINUOUS
 10
1132.221821
 20
1553.800487
 30
0.0
 11
1145.999821
 21
1553.800887
 31
0.0
  0
LINE
  5
588
  8
5
  6
CONTINUOUS
 10
1145.998821
 20
1578.698087
 30
0.0
 11
1132.220821
 21
1578.697687
 31
0.0
  0
LINE
  5
589
  8
5
  6
CONTINUOUS
 10
1132.221821
 20
1551.700287
 30
0.0
 11
1145.999821
 21
1551.700787
 31
0.0
  0
LINE
  5
58A
  8
5
  6
CONTINUOUS
 10
1132.222821
 20
1525.633987
 30
0.0
 11
1146.000821
 21
1525.634587
 31
0.0
  0
LINE
  5
58B
  8
5
  6
CONTINUOUS
 10
1100.355821
 20
1525.633087
 30
0.0
 11
1100.354821
 21
1551.699187
 31
0.0
  0
LINE
  5
58C
  8
5
  6
CONTINUOUS
 10
1102.454821
 20
1551.699187
 30
0.0
 11
1102.455821
 21
1525.633087
 31
0.0
  0
ARC
  5
58D
  8
5
  6
CONTINUOUS
 10
1105.271821
 20
1539.655787
 30
0.0
 40
16.83332
 50
2.745839
 51
45.68318
  0
LINE
  5
58E
  8
5
  6
CONTINUOUS
 10
1132.221821
 20
1551.700287
 30
0.0
 11
1132.222821
 21
1525.633987
 31
0.0
  0
ARC
  5
58F
  8
5
  6
CONTINUOUS
 10
1107.256821
 20
1540.461687
 30
0.0
 40
14.82849
 50
270.0019
 51
0.0019
  0
LINE
  5
590
  8
5
  6
CONTINUOUS
 10
1102.455821
 20
1525.633087
 30
0.0
 11
1107.257821
 21
1525.633187
 31
0.0
  0
LINE
  5
591
  8
5
  6
CONTINUOUS
 10
1100.354821
 20
1553.799387
 30
0.0
 11
1100.353821
 21
1578.696587
 31
0.0
  0
LINE
  5
592
  8
5
  6
CONTINUOUS
 10
1117.031821
 20
1551.699787
 30
0.0
 11
1102.454821
 21
1551.699187
 31
0.0
  0
LINE
  5
593
  8
5
  6
CONTINUOUS
 10
1102.454821
 20
1553.799387
 30
0.0
 11
1114.398821
 21
1553.799787
 31
0.0
  0
ARC
  5
594
  8
5
  6
CONTINUOUS
 10
1105.271821
 20
1539.655787
 30
0.0
 40
16.83332
 50
57.16493
 51
82.74766
  0
ARC
  5
595
  8
5
  6
CONTINUOUS
 10
1104.224821
 20
1569.505587
 30
0.0
 40
13.5281
 50
283.5581
 51
354.7072
  0
LINE
  5
596
  8
5
  6
CONTINUOUS
 10
1107.255821
 20
1578.696787
 30
0.0
 11
1102.453821
 21
1578.696587
 31
0.0
  0
LINE
  5
597
  8
5
  6
CONTINUOUS
 10
1102.453821
 20
1578.696587
 30
0.0
 11
1102.454821
 21
1553.799387
 31
0.0
  0
LINE
  5
598
  8
5
  6
CONTINUOUS
 10
1132.220821
 20
1578.697687
 30
0.0
 11
1132.221821
 21
1553.800487
 31
0.0
  0
LINE
  5
599
  8
5
  6
CONTINUOUS
 10
1148.099821
 20
1551.700987
 30
0.0
 11
1148.100821
 21
1525.634587
 31
0.0
  0
ARC
  5
59A
  8
5
  6
CONTINUOUS
 10
1150.916821
 20
1539.657387
 30
0.0
 40
16.83332
 50
2.745839
 51
45.68321
  0
LINE
  5
59B
  8
5
  6
CONTINUOUS
 10
1146.000821
 20
1525.634587
 30
0.0
 11
1145.999821
 21
1551.700787
 31
0.0
  0
ARC
  5
59C
  8
5
  6
CONTINUOUS
 10
1152.902821
 20
1540.463287
 30
0.0
 40
14.82849
 50
270.0019
 51
0.0019
  0
LINE
  5
59D
  8
5
  6
CONTINUOUS
 10
1148.100821
 20
1525.634587
 30
0.0
 11
1152.902821
 21
1525.634787
 31
0.0
  0
LINE
  5
59E
  8
5
  6
CONTINUOUS
 10
1145.999821
 20
1553.800887
 30
0.0
 11
1145.998821
 21
1578.698087
 31
0.0
  0
LINE
  5
59F
  8
5
  6
CONTINUOUS
 10
1148.099821
 20
1553.800887
 30
0.0
 11
1160.044821
 21
1553.801287
 31
0.0
  0
ARC
  5
5A0
  8
5
  6
CONTINUOUS
 10
1150.916821
 20
1539.657387
 30
0.0
 40
16.83332
 50
57.16491
 51
82.74766
  0
ARC
  5
5A1
  8
5
  6
CONTINUOUS
 10
1149.870821
 20
1569.507087
 30
0.0
 40
13.5281
 50
283.5581
 51
354.7072
  0
LINE
  5
5A2
  8
5
  6
CONTINUOUS
 10
1152.900821
 20
1578.698387
 30
0.0
 11
1148.098821
 21
1578.698087
 31
0.0
  0
LINE
  5
5A3
  8
5
  6
CONTINUOUS
 10
1148.098821
 20
1578.698087
 30
0.0
 11
1148.099821
 21
1553.800887
 31
0.0
  0
LINE
  5
5A4
  8
5
  6
CONTINUOUS
 10
1162.676821
 20
1551.701387
 30
0.0
 11
1148.099821
 21
1551.700987
 31
0.0
  0
LINE
  5
5DF
  8
5
  6
CONTINUOUS
 10
405.424666
 20
1242.747753
 30
0.0
 11
413.435466
 21
1242.748103
 31
0.0
  0
LINE
  5
5E0
  8
5
  6
CONTINUOUS
 10
403.400966
 20
1254.934123
 30
0.0
 11
413.434766
 21
1254.934403
 31
0.0
  0
LINE
  5
5E1
  8
5
  6
CONTINUOUS
 10
413.434766
 20
1253.464333
 30
0.0
 11
402.896266
 21
1253.463983
 31
0.0
  0
LINE
  5
5E2
  8
5
  6
CONTINUOUS
 10
409.378966
 20
1272.362303
 30
0.0
 11
403.400966
 21
1254.934123
 31
0.0
  0
LINE
  5
5E3
  8
5
  6
CONTINUOUS
 10
402.896266
 20
1253.463983
 30
0.0
 11
396.636866
 21
1235.217433
 31
0.0
  0
LINE
  5
5E4
  8
5
  6
CONTINUOUS
 10
396.636866
 20
1235.217433
 30
0.0
 11
402.840966
 21
1235.217643
 31
0.0
  0
LINE
  5
5E5
  8
5
  6
CONTINUOUS
 10
402.840966
 20
1235.217643
 30
0.0
 11
405.424666
 21
1242.747753
 31
0.0
  0
ARC
  5
5E6
  8
5
  6
CONTINUOUS
 10
453.895466
 20
1265.056193
 30
0.0
 40
7.307643
 50
0.001947
 51
90.00195
  0
LINE
  5
5E7
  8
5
  6
CONTINUOUS
 10
460.738666
 20
1253.465943
 30
0.0
 11
450.534766
 21
1253.465523
 31
0.0
  0
LINE
  5
5E8
  8
5
  6
CONTINUOUS
 10
450.534766
 20
1254.935663
 30
0.0
 11
458.895566
 21
1254.935943
 31
0.0
  0
ARC
  5
5E9
  8
5
  6
CONTINUOUS
 10
452.506666
 20
1245.035143
 30
0.0
 40
11.783324
 50
57.16493
 51
82.74766
  0
ARC
  5
5EA
  8
5
  6
CONTINUOUS
 10
451.773766
 20
1265.930003
 30
0.0
 40
9.46967
 50
283.5581
 51
354.7072
  0
ARC
  5
5EB
  8
5
  6
CONTINUOUS
 10
453.896166
 20
1245.599273
 30
0.0
 40
10.379943
 50
270.0019
 51
0.0019
  0
LINE
  5
5EC
  8
5
  6
CONTINUOUS
 10
439.418766
 20
1272.363353
 30
0.0
 11
439.419466
 21
1254.935243
 31
0.0
  0
LINE
  5
5ED
  8
5
  6
CONTINUOUS
 10
449.064766
 20
1254.935663
 30
0.0
 11
449.064066
 21
1272.363703
 31
0.0
  0
LINE
  5
5EE
  8
5
  6
CONTINUOUS
 10
450.534066
 20
1272.363703
 30
0.0
 11
450.534766
 21
1254.935663
 31
0.0
  0
LINE
  5
5EF
  8
5
  6
CONTINUOUS
 10
413.434766
 20
1254.934403
 30
0.0
 11
413.434066
 21
1272.362443
 31
0.0
  0
LINE
  5
5F0
  8
5
  6
CONTINUOUS
 10
414.904066
 20
1272.362443
 30
0.0
 11
414.904766
 21
1254.934403
 31
0.0
  0
LINE
  5
5F1
  8
5
  6
CONTINUOUS
 10
425.180766
 20
1254.934753
 30
0.0
 11
418.959166
 21
1272.362653
 31
0.0
  0
LINE
  5
5F2
  8
5
  6
CONTINUOUS
 10
432.218566
 20
1235.218623
 30
0.0
 11
425.705066
 21
1253.464753
 31
0.0
  0
LINE
  5
5F3
  8
5
  6
CONTINUOUS
 10
425.568566
 20
1235.218413
 30
0.0
 11
432.218566
 21
1235.218623
 31
0.0
  0
LINE
  5
5F4
  8
5
  6
CONTINUOUS
 10
414.904766
 20
1254.934403
 30
0.0
 11
425.180766
 21
1254.934753
 31
0.0
  0
LINE
  5
5F5
  8
5
  6
CONTINUOUS
 10
414.904766
 20
1242.748243
 30
0.0
 11
422.880566
 21
1242.748453
 31
0.0
  0
LINE
  5
5F6
  8
5
  6
CONTINUOUS
 10
413.435466
 20
1242.748103
 30
0.0
 11
413.434766
 21
1253.464333
 31
0.0
  0
LINE
  5
5F7
  8
5
  6
CONTINUOUS
 10
414.904766
 20
1253.464473
 30
0.0
 11
414.904766
 21
1242.748243
 31
0.0
  0
LINE
  5
5F8
  8
5
  6
CONTINUOUS
 10
425.705066
 20
1253.464753
 30
0.0
 11
414.904766
 21
1253.464473
 31
0.0
  0
LINE
  5
5F9
  8
5
  6
CONTINUOUS
 10
422.880566
 20
1242.748453
 30
0.0
 11
425.568566
 21
1235.218413
 31
0.0
  0
LINE
  5
5FA
  8
5
  6
CONTINUOUS
 10
449.065466
 20
1235.219253
 30
0.0
 11
449.064766
 21
1253.465523
 31
0.0
  0
LINE
  5
5FB
  8
5
  6
CONTINUOUS
 10
450.534766
 20
1253.465523
 30
0.0
 11
450.535466
 21
1235.219253
 31
0.0
  0
LINE
  5
5FC
  8
5
  6
CONTINUOUS
 10
450.535466
 20
1235.219253
 30
0.0
 11
453.896866
 21
1235.219323
 31
0.0
  0
LINE
  5
5FD
  8
5
  6
CONTINUOUS
 10
439.419466
 20
1253.465243
 30
0.0
 11
439.420166
 21
1235.218763
 31
0.0
  0
LINE
  5
5FE
  8
5
  6
CONTINUOUS
 10
439.419466
 20
1254.935173
 30
0.0
 11
449.064766
 21
1254.935663
 31
0.0
  0
LINE
  5
5FF
  8
5
  6
CONTINUOUS
 10
449.064766
 20
1253.465523
 30
0.0
 11
439.419466
 21
1253.465243
 31
0.0
  0
LINE
  5
600
  8
5
  6
CONTINUOUS
 10
439.420166
 20
1235.218763
 30
0.0
 11
449.065466
 21
1235.219253
 31
0.0
  0
LINE
  5
601
  8
5
  6
CONTINUOUS
 10
418.959166
 20
1272.362653
 30
0.0
 11
414.904066
 21
1272.362443
 31
0.0
  0
LINE
  5
602
  8
5
  6
CONTINUOUS
 10
413.434066
 20
1272.362443
 30
0.0
 11
409.378966
 21
1272.362303
 31
0.0
  0
LINE
  5
603
  8
5
  6
CONTINUOUS
 10
453.895466
 20
1272.363843
 30
0.0
 11
450.534066
 21
1272.363703
 31
0.0
  0
LINE
  5
604
  8
5
  6
CONTINUOUS
 10
449.064066
 20
1272.363703
 30
0.0
 11
439.418766
 21
1272.363353
 31
0.0
  0
LINE
  5
605
  8
5
  6
CONTINUOUS
 10
471.370966
 20
1272.364473
 30
0.0
 11
471.371666
 21
1254.936433
 31
0.0
  0
LINE
  5
606
  8
5
  6
CONTINUOUS
 10
481.016266
 20
1254.936713
 30
0.0
 11
481.015566
 21
1272.364753
 31
0.0
  0
LINE
  5
607
  8
5
  6
CONTINUOUS
 10
482.485566
 20
1272.364753
 30
0.0
 11
482.486266
 21
1254.936713
 31
0.0
  0
ARC
  5
608
  8
5
  6
CONTINUOUS
 10
483.725966
 20
1265.931053
 30
0.0
 40
9.46967
 50
283.5581
 51
354.7072
  0
LINE
  5
609
  8
5
  6
CONTINUOUS
 10
471.371666
 20
1254.936433
 30
0.0
 11
481.016266
 21
1254.936713
 31
0.0
  0
LINE
  5
60A
  8
5
  6
CONTINUOUS
 10
471.371666
 20
1253.466293
 30
0.0
 11
481.016266
 21
1253.466643
 31
0.0
  0
LINE
  5
60B
  8
5
  6
CONTINUOUS
 10
471.372366
 20
1235.219883
 30
0.0
 11
481.016966
 21
1235.220303
 31
0.0
  0
ARC
  5
60C
  8
5
  6
CONTINUOUS
 10
452.506666
 20
1245.035143
 30
0.0
 40
11.783324
 50
2.745839
 51
45.68318
  0
LINE
  5
60D
  8
5
  6
CONTINUOUS
 10
471.371666
 20
1253.466293
 30
0.0
 11
471.372366
 21
1235.219883
 31
0.0
  0
ARC
  5
60E
  8
5
  6
CONTINUOUS
 10
484.458166
 20
1245.036263
 30
0.0
 40
11.783324
 50
2.745839
 51
45.68321
  0
LINE
  5
60F
  8
5
  6
CONTINUOUS
 10
482.486266
 20
1253.466783
 30
0.0
 11
482.486966
 21
1235.220303
 31
0.0
  0
LINE
  5
610
  8
5
  6
CONTINUOUS
 10
481.016966
 20
1235.220303
 30
0.0
 11
481.016266
 21
1253.466643
 31
0.0
  0
LINE
  5
611
  8
5
  6
CONTINUOUS
 10
482.486966
 20
1235.220303
 30
0.0
 11
485.848366
 21
1235.220443
 31
0.0
  0
LINE
  5
612
  8
5
  6
CONTINUOUS
 10
482.486266
 20
1254.936713
 30
0.0
 11
490.847766
 21
1254.936993
 31
0.0
  0
ARC
  5
613
  8
5
  6
CONTINUOUS
 10
484.458166
 20
1245.036263
 30
0.0
 40
11.783324
 50
57.16491
 51
82.74766
  0
ARC
  5
614
  8
5
  6
CONTINUOUS
 10
485.848366
 20
1245.600393
 30
0.0
 40
10.379943
 50
270.0019
 51
0.0019
  0
LINE
  5
615
  8
5
  6
CONTINUOUS
 10
492.690166
 20
1253.467063
 30
0.0
 11
482.486266
 21
1253.466783
 31
0.0
  0
LINE
  5
616
  8
5
  6
CONTINUOUS
 10
481.015566
 20
1272.364753
 30
0.0
 11
471.370966
 21
1272.364473
 31
0.0
  0
LINE
  5
617
  8
5
  6
CONTINUOUS
 10
485.846966
 20
1272.364963
 30
0.0
 11
482.485566
 21
1272.364753
 31
0.0
  0
ARC
  5
618
  8
5
  6
CONTINUOUS
 10
485.847666
 20
1265.057313
 30
0.0
 40
7.307643
 50
0.001947
 51
90.00195
  0
LINE
  5
619
  8
5
  6
CONTINUOUS
 10
2059.713608
 20
1579.083845
 30
0.0
 11
2067.724408
 21
1579.084195
 31
0.0
  0
LINE
  5
61A
  8
5
  6
CONTINUOUS
 10
2057.689908
 20
1591.270215
 30
0.0
 11
2067.723708
 21
1591.270495
 31
0.0
  0
LINE
  5
61B
  8
5
  6
CONTINUOUS
 10
2067.723708
 20
1589.800425
 30
0.0
 11
2057.185208
 21
1589.800075
 31
0.0
  0
LINE
  5
61C
  8
5
  6
CONTINUOUS
 10
2063.667908
 20
1608.698395
 30
0.0
 11
2057.689908
 21
1591.270215
 31
0.0
  0
LINE
  5
61D
  8
5
  6
CONTINUOUS
 10
2057.185208
 20
1589.800075
 30
0.0
 11
2050.925808
 21
1571.553525
 31
0.0
  0
LINE
  5
61E
  8
5
  6
CONTINUOUS
 10
2050.925808
 20
1571.553525
 30
0.0
 11
2057.129908
 21
1571.553735
 31
0.0
  0
LINE
  5
61F
  8
5
  6
CONTINUOUS
 10
2057.129908
 20
1571.553735
 30
0.0
 11
2059.713608
 21
1579.083845
 31
0.0
  0
ARC
  5
620
  8
5
  6
CONTINUOUS
 10
2108.184408
 20
1601.392285
 30
0.0
 40
7.307643
 50
0.001947
 51
90.00195
  0
LINE
  5
621
  8
5
  6
CONTINUOUS
 10
2115.027608
 20
1589.802035
 30
0.0
 11
2104.823708
 21
1589.801615
 31
0.0
  0
LINE
  5
622
  8
5
  6
CONTINUOUS
 10
2104.823708
 20
1591.271755
 30
0.0
 11
2113.184508
 21
1591.272035
 31
0.0
  0
ARC
  5
623
  8
5
  6
CONTINUOUS
 10
2106.795608
 20
1581.371235
 30
0.0
 40
11.783324
 50
57.16493
 51
82.74766
  0
ARC
  5
624
  8
5
  6
CONTINUOUS
 10
2106.062708
 20
1602.266095
 30
0.0
 40
9.46967
 50
283.5581
 51
354.7072
  0
ARC
  5
625
  8
5
  6
CONTINUOUS
 10
2108.185108
 20
1581.935365
 30
0.0
 40
10.379943
 50
270.0019
 51
0.0019
  0
LINE
  5
626
  8
5
  6
CONTINUOUS
 10
2093.707708
 20
1608.699445
 30
0.0
 11
2093.708408
 21
1591.271335
 31
0.0
  0
LINE
  5
627
  8
5
  6
CONTINUOUS
 10
2103.353708
 20
1591.271755
 30
0.0
 11
2103.353008
 21
1608.699795
 31
0.0
  0
LINE
  5
628
  8
5
  6
CONTINUOUS
 10
2104.823008
 20
1608.699795
 30
0.0
 11
2104.823708
 21
1591.271755
 31
0.0
  0
LINE
  5
629
  8
5
  6
CONTINUOUS
 10
2067.723708
 20
1591.270495
 30
0.0
 11
2067.723008
 21
1608.698535
 31
0.0
  0
LINE
  5
62A
  8
5
  6
CONTINUOUS
 10
2069.193008
 20
1608.698535
 30
0.0
 11
2069.193708
 21
1591.270495
 31
0.0
  0
LINE
  5
62B
  8
5
  6
CONTINUOUS
 10
2079.469708
 20
1591.270845
 30
0.0
 11
2073.248108
 21
1608.698745
 31
0.0
  0
LINE
  5
62C
  8
5
  6
CONTINUOUS
 10
2086.507508
 20
1571.554715
 30
0.0
 11
2079.994008
 21
1589.800845
 31
0.0
  0
LINE
  5
62D
  8
5
  6
CONTINUOUS
 10
2079.857508
 20
1571.554505
 30
0.0
 11
2086.507508
 21
1571.554715
 31
0.0
  0
LINE
  5
62E
  8
5
  6
CONTINUOUS
 10
2069.193708
 20
1591.270495
 30
0.0
 11
2079.469708
 21
1591.270845
 31
0.0
  0
LINE
  5
62F
  8
5
  6
CONTINUOUS
 10
2069.193708
 20
1579.084335
 30
0.0
 11
2077.169508
 21
1579.084545
 31
0.0
  0
LINE
  5
630
  8
5
  6
CONTINUOUS
 10
2067.724408
 20
1579.084195
 30
0.0
 11
2067.723708
 21
1589.800425
 31
0.0
  0
LINE
  5
631
  8
5
  6
CONTINUOUS
 10
2069.193708
 20
1589.800565
 30
0.0
 11
2069.193708
 21
1579.084335
 31
0.0
  0
LINE
  5
632
  8
5
  6
CONTINUOUS
 10
2079.994008
 20
1589.800845
 30
0.0
 11
2069.193708
 21
1589.800565
 31
0.0
  0
LINE
  5
633
  8
5
  6
CONTINUOUS
 10
2077.169508
 20
1579.084545
 30
0.0
 11
2079.857508
 21
1571.554505
 31
0.0
  0
LINE
  5
634
  8
5
  6
CONTINUOUS
 10
2103.354408
 20
1571.555345
 30
0.0
 11
2103.353708
 21
1589.801615
 31
0.0
  0
LINE
  5
635
  8
5
  6
CONTINUOUS
 10
2104.823708
 20
1589.801615
 30
0.0
 11
2104.824408
 21
1571.555345
 31
0.0
  0
LINE
  5
636
  8
5
  6
CONTINUOUS
 10
2104.824408
 20
1571.555345
 30
0.0
 11
2108.185808
 21
1571.555415
 31
0.0
  0
LINE
  5
637
  8
5
  6
CONTINUOUS
 10
2093.708408
 20
1589.801335
 30
0.0
 11
2093.709108
 21
1571.554855
 31
0.0
  0
LINE
  5
638
  8
5
  6
CONTINUOUS
 10
2093.708408
 20
1591.271265
 30
0.0
 11
2103.353708
 21
1591.271755
 31
0.0
  0
LINE
  5
639
  8
5
  6
CONTINUOUS
 10
2103.353708
 20
1589.801615
 30
0.0
 11
2093.708408
 21
1589.801335
 31
0.0
  0
LINE
  5
63A
  8
5
  6
CONTINUOUS
 10
2093.709108
 20
1571.554855
 30
0.0
 11
2103.354408
 21
1571.555345
 31
0.0
  0
LINE
  5
63B
  8
5
  6
CONTINUOUS
 10
2073.248108
 20
1608.698745
 30
0.0
 11
2069.193008
 21
1608.698535
 31
0.0
  0
LINE
  5
63C
  8
5
  6
CONTINUOUS
 10
2067.723008
 20
1608.698535
 30
0.0
 11
2063.667908
 21
1608.698395
 31
0.0
  0
LINE
  5
63D
  8
5
  6
CONTINUOUS
 10
2108.184408
 20
1608.699935
 30
0.0
 11
2104.823008
 21
1608.699795
 31
0.0
  0
LINE
  5
63E
  8
5
  6
CONTINUOUS
 10
2103.353008
 20
1608.699795
 30
0.0
 11
2093.707708
 21
1608.699445
 31
0.0
  0
LINE
  5
63F
  8
5
  6
CONTINUOUS
 10
2125.659908
 20
1608.700565
 30
0.0
 11
2125.660608
 21
1591.272525
 31
0.0
  0
LINE
  5
640
  8
5
  6
CONTINUOUS
 10
2135.305208
 20
1591.272805
 30
0.0
 11
2135.304508
 21
1608.700845
 31
0.0
  0
LINE
  5
641
  8
5
  6
CONTINUOUS
 10
2136.774508
 20
1608.700845
 30
0.0
 11
2136.775208
 21
1591.272805
 31
0.0
  0
ARC
  5
642
  8
5
  6
CONTINUOUS
 10
2138.014908
 20
1602.267145
 30
0.0
 40
9.46967
 50
283.5581
 51
354.7072
  0
LINE
  5
643
  8
5
  6
CONTINUOUS
 10
2125.660608
 20
1591.272525
 30
0.0
 11
2135.305208
 21
1591.272805
 31
0.0
  0
LINE
  5
644
  8
5
  6
CONTINUOUS
 10
2125.660608
 20
1589.802385
 30
0.0
 11
2135.305208
 21
1589.802735
 31
0.0
  0
LINE
  5
645
  8
5
  6
CONTINUOUS
 10
2125.661308
 20
1571.555975
 30
0.0
 11
2135.305908
 21
1571.556395
 31
0.0
  0
ARC
  5
646
  8
5
  6
CONTINUOUS
 10
2106.795608
 20
1581.371235
 30
0.0
 40
11.783324
 50
2.745839
 51
45.68318
  0
LINE
  5
647
  8
5
  6
CONTINUOUS
 10
2125.660608
 20
1589.802385
 30
0.0
 11
2125.661308
 21
1571.555975
 31
0.0
  0
ARC
  5
648
  8
5
  6
CONTINUOUS
 10
2138.747108
 20
1581.372355
 30
0.0
 40
11.783324
 50
2.745839
 51
45.68321
  0
LINE
  5
649
  8
5
  6
CONTINUOUS
 10
2136.775208
 20
1589.802875
 30
0.0
 11
2136.775908
 21
1571.556395
 31
0.0
  0
LINE
  5
64A
  8
5
  6
CONTINUOUS
 10
2135.305908
 20
1571.556395
 30
0.0
 11
2135.305208
 21
1589.802735
 31
0.0
  0
LINE
  5
64B
  8
5
  6
CONTINUOUS
 10
2136.775908
 20
1571.556395
 30
0.0
 11
2140.137308
 21
1571.556535
 31
0.0
  0
LINE
  5
64C
  8
5
  6
CONTINUOUS
 10
2136.775208
 20
1591.272805
 30
0.0
 11
2145.136708
 21
1591.273085
 31
0.0
  0
ARC
  5
64D
  8
5
  6
CONTINUOUS
 10
2138.747108
 20
1581.372355
 30
0.0
 40
11.783324
 50
57.16491
 51
82.74766
  0
ARC
  5
64E
  8
5
  6
CONTINUOUS
 10
2140.137308
 20
1581.936485
 30
0.0
 40
10.379943
 50
270.0019
 51
0.0019
  0
LINE
  5
64F
  8
5
  6
CONTINUOUS
 10
2146.979108
 20
1589.803155
 30
0.0
 11
2136.775208
 21
1589.802875
 31
0.0
  0
LINE
  5
650
  8
5
  6
CONTINUOUS
 10
2135.304508
 20
1608.700845
 30
0.0
 11
2125.659908
 21
1608.700565
 31
0.0
  0
LINE
  5
651
  8
5
  6
CONTINUOUS
 10
2140.135908
 20
1608.701055
 30
0.0
 11
2136.774508
 21
1608.700845
 31
0.0
  0
ARC
  5
652
  8
5
  6
CONTINUOUS
 10
2140.136608
 20
1601.393405
 30
0.0
 40
7.307643
 50
0.001947
 51
90.00195
  0
LINE
  5
653
  8
0
  6
CONTINUOUS
 10
748.5194
 20
1256.281
 30
0.0
 11
757.5192
 21
1255.01
 31
0.0
  0
LINE
  5
654
  8
0
  6
CONTINUOUS
 10
868.5191
 20
1256.281
 30
0.0
 11
859.5192
 21
1255.01
 31
0.0
  0
INSERT
  5
679
  8
0
  6
CONTINUOUS
  2
A$C27E33DB7
 10
291.062343
 20
1135.590317
 30
0.0
  0
ENDSEC
  0
EOF
