999
DXF file: C:\Data\proe_work\test3polig.dxf
999
Pro/ENGINEER 2001200 by Parametric Technology Corporation
0
SECTION
2
HEADER
9
$ACADVER
1
AC1014
9
$EXTMAX
10
841.0000000000
20
594.0000000000
9
$EXTMIN
10
0.0000000000
20
0.0000000000
9
$LIMMIN
10
0.0000000000
20
0.0000000000
9
$LIMMAX
10
841.0000000000
20
594.0000000000
9
$VIEWCTR
10
420.5000000000
20
297.0000000000
9
$VIEWSIZE
40
594.0000000000
9
$CLAYER
8
0
9
$LTSCALE
40
46.2550000000
9
$CELTYPE
6
BYLAYER
9
$DIMSCALE
40
1
9
$DIMASZ
40
3.5000000000
9
$DIMEXO
40
5.2562500000
9
$DIMDLI
40
31.9580000000
9
$DIMEXE
40
15.1380000000
9
$DIMCEN
40
7.5690000000
9
$DIMLFAC
40
1.0000000000
9
$DIMTXT
40
3.5000000000
9
$DIMTOL
70
1
9
$DIMTFAC
40
0.6000000000
9
$DIMTP
40
0.0100000000
9
$DIMTM
40
0.0100000000
0
ENDSEC
0
SECTION
2
CLASSES
0
ENDSEC
0
SECTION
2
TABLES
0
TABLE
2
VPORT
5
1F4
100
AcDbSymbolTable
70
2
0
VPORT
5
1F5
100
AcDbSymbolTableRecord
100
AcDbViewportTableRecord
2
*ACTIVE
70
0
10
0.0
20
0.0
11
1.0
21
1.0
12
420.5000000000
22
297.0000000000
13
0.0
23
0.0
14
1.0
24
1.0
15
0.0
25
0.0
16
0.0
26
0.0
36
1.0
17
0.0
27
0.0
37
0.0
40
594.0000000000
41
1.4158249158
42
50.0
43
0.0
44
0.0
50
0.0
51
0.0
71
0
72
100
73
1
74
1
75
0
76
0
77
0
78
0
0
ENDTAB
0
TABLE
2
LTYPE
5
1F6
100
AcDbSymbolTable
70
6
0
LTYPE
5
1F7
100
AcDbSymbolTableRecord
100
AcDbLinetypeTableRecord
2
BYBLOCK
70
0
3

72
65
73
0
40
0.0
0
LTYPE
5
1F8
100
AcDbSymbolTableRecord
100
AcDbLinetypeTableRecord
2
BYLAYER
70
0
3

72
65
73
0
40
0.0
0
LTYPE
5
1F9
100
AcDbSymbolTableRecord
100
AcDbLinetypeTableRecord
2
CONTINUOUS
70
64
3
Solid line
72
65
73
0
40
0
0
LTYPE
5
1FA
100
AcDbSymbolTableRecord
100
AcDbLinetypeTableRecord
2
CENTER
70
64
3
____ _ ____ _ ____ _ ____ _ ____ _ ____ _ ____
72
65
73
4
40
0.6
49
0.375
74
0
49
-0.075
74
0
49
0.075
74
0
49
-0.075
74
0
0
LTYPE
5
1FB
100
AcDbSymbolTableRecord
100
AcDbLinetypeTableRecord
2
HIDDEN
70
64
3
- - - - - - - - - - - - - - - - - - - -
72
65
73
2
40
0.2
49
0.1
74
0
49
-0.1
74
0
0
LTYPE
5
1FC
100
AcDbSymbolTableRecord
100
AcDbLinetypeTableRecord
2
PHANTOM
70
64
3
_____ _ _ _____ _ _ _____ _ _ _____
72
65
73
6
40
0.8
49
0.45
74
0
49
-0.05
74
0
49
0.1
74
0
49
-0.05
74
0
49
0.1
74
0
49
-0.05
74
0
0
LTYPE
5
1FD
100
AcDbSymbolTableRecord
100
AcDbLinetypeTableRecord
2
DOT
70
64
3
. . . . . . . . . . . . . . . . . . . .
72
65
73
2
40
0.2
49
0.1
74
0
49
-0.1
74
0
0
LTYPE
5
1FE
100
AcDbSymbolTableRecord
100
AcDbLinetypeTableRecord
2
DASHED
70
64
3
- - - - - - - - - - - - - - - - - - - -
72
65
73
2
40
0.2
49
0.1
74
0
49
-0.1
74
0
0
ENDTAB
0
TABLE
2
LAYER
5
1FF
100
AcDbSymbolTable
70
36
0
LAYER
5
200
100
AcDbSymbolTableRecord
100
AcDbLayerTableRecord
2
0
70
0
62
7
6
CONTINUOUS
0
LAYER
5
201
100
AcDbSymbolTableRecord
100
AcDbLayerTableRecord
2
DEFAULT_1
70
0
62
7
6
CENTER
0
LAYER
5
202
100
AcDbSymbolTableRecord
100
AcDbLayerTableRecord
2
DEFAULT_2
70
0
62
8
6
HIDDEN
0
LAYER
5
203
100
AcDbSymbolTableRecord
100
AcDbLayerTableRecord
2
DEFAULT_3
70
0
62
7
6
PHANTOM
0
ENDTAB
0
TABLE
2
STYLE
5
204
100
AcDbSymbolTable
70
1
0
STYLE
5
205
100
AcDbSymbolTableRecord
100
AcDbTextStyleTableRecord
2
STANDARD
70
0
40
0.0
41
1.0
50
0.0
71
0
42
0.0
3
txt
4

0
ENDTAB
0
TABLE
2
VIEW
5
206
100
AcDbSymbolTable
70
0
0
ENDTAB
0
TABLE
2
UCS
5
207
100
AcDbSymbolTable
70
0
0
ENDTAB
0
TABLE
2
APPID
5
208
100
AcDbSymbolTable
70
1
0
APPID
5
209
100
AcDbSymbolTableRecord
100
AcDbRegAppTableRecord
2
ACAD
70
0
0
ENDTAB
0
TABLE
2
DIMSTYLE
5
20A
100
AcDbSymbolTable
70
1
0
DIMSTYLE
105
20B
100
AcDbSymbolTableRecord
100
AcDbDimStyleTableRecord
2
STANDARD
70
0
3

4

5

6

7

40
1.0
41
0.18
42
0.0625
43
0.38
44
0.18
45
0.0
46
0.0
47
0.0100000000
48
0.0100000000
140
3.5000000000
141
0.09
142
0.0
143
25.4
144
1.0000000000
145
0.0
146
0.6000000000
147
0.09
71
1
72
0
73
1
74
1
75
0
76
0
77
0
78
0
170
0
171
2
172
0
173
0
174
0
175
0
176
0
177
0
178
0
270
2
271
2
272
4
273
2
274
2
340
205
275
0
280
0
281
0
282
0
283
1
284
0
285
0
286
0
287
3
288
0
0
ENDTAB
0
TABLE
2
BLOCK_RECORD
5
20C
100
AcDbSymbolTable
70
0
0
BLOCK_RECORD
5
20D
100
AcDbSymbolTableRecord
100
AcDbBlockTableRecord
2
*MODEL_SPACE
0
BLOCK_RECORD
5
20E
100
AcDbSymbolTableRecord
100
AcDbBlockTableRecord
2
*PAPER_SPACE
0
ENDTAB
0
ENDSEC
0
SECTION
2
BLOCKS
0
BLOCK
5
20F
100
AcDbEntity
8
0
100
AcDbBlockBegin
2
*MODEL_SPACE
70
0
10
0.0000000000
20
0.0000000000
3
*MODEL_SPACE
1

3
*MODEL_SPACE
1

0
ENDBLK
5
210
100
AcDbEntity
8
0
100
AcDbBlockEnd
0
BLOCK
5
211
100
AcDbEntity
8
0
100
AcDbBlockBegin
2
*PAPER_SPACE
70
0
10
0.0000000000
20
0.0000000000
3
*PAPER_SPACE
1

3
*PAPER_SPACE
1

0
ENDBLK
5
212
100
AcDbEntity
8
0
100
AcDbBlockEnd
0
ENDSEC
0
SECTION
2
ENTITIES
0
LINE
5
213
100
AcDbEntity
8
0
100
AcDbLine
62
7
6
CONTINUOUS
10
385.7408916382
20
236.0472482935
11
386.7408916382
21
236.0472482935
0
LINE
5
214
100
AcDbEntity
8
0
100
AcDbLine
62
7
6
CONTINUOUS
10
395.2408916382
20
236.0472482935
11
396.2408916382
21
236.0472482935
0
LINE
5
215
100
AcDbEntity
8
0
100
AcDbLine
62
7
6
CONTINUOUS
10
403.1408916382
20
236.0472482935
11
404.1408916382
21
236.0472482935
0
LINE
5
216
100
AcDbEntity
8
0
100
AcDbLine
62
7
6
CONTINUOUS
10
412.6408916382
20
236.0472482935
11
413.6408916382
21
236.0472482935
0
LINE
5
217
100
AcDbEntity
8
0
100
AcDbLine
62
7
6
CONTINUOUS
10
420.5408916382
20
236.0472482935
11
421.5408916382
21
236.0472482935
0
LINE
5
218
100
AcDbEntity
8
0
100
AcDbLine
62
7
6
CONTINUOUS
10
430.0408916382
20
236.0472482935
11
431.0408916382
21
236.0472482935
0
LINE
5
219
100
AcDbEntity
8
0
100
AcDbLine
62
7
6
CONTINUOUS
10
386.7408916382
20
236.5472482935
11
395.2408916382
21
236.5472482935
0
LINE
5
21A
100
AcDbEntity
8
0
100
AcDbLine
62
7
6
CONTINUOUS
10
404.1408916382
20
236.5472482935
11
412.6408916382
21
236.5472482935
0
LINE
5
21B
100
AcDbEntity
8
0
100
AcDbLine
62
7
6
CONTINUOUS
10
421.5408916382
20
236.5472482935
11
430.0408916382
21
236.5472482935
0
LINE
5
21C
100
AcDbEntity
8
0
100
AcDbLine
62
7
6
CONTINUOUS
10
382.2908916382
20
237.5472482935
11
385.7408916382
21
237.5472482935
0
LINE
5
21D
100
AcDbEntity
8
0
100
AcDbLine
62
7
6
CONTINUOUS
10
396.2408916382
20
237.5472482935
11
403.1408916382
21
237.5472482935
0
LINE
5
21E
100
AcDbEntity
8
0
100
AcDbLine
62
7
6
CONTINUOUS
10
413.6408916382
20
237.5472482935
11
420.5408916382
21
237.5472482935
0
LINE
5
21F
100
AcDbEntity
8
0
100
AcDbLine
62
7
6
CONTINUOUS
10
431.0408916382
20
237.5472482935
11
434.4908916382
21
237.5472482935
0
LINE
5
220
100
AcDbEntity
8
0
100
AcDbLine
62
7
6
CONTINUOUS
10
382.2908916382
20
237.5472482935
11
382.2908916382
21
322.5472482935
0
LINE
5
221
100
AcDbEntity
8
0
100
AcDbLine
62
7
6
CONTINUOUS
10
382.2908916382
20
256.0472482935
11
434.4908916382
21
256.0472482935
0
LINE
5
222
100
AcDbEntity
8
0
100
AcDbLine
62
7
6
CONTINUOUS
10
385.7408916382
20
324.0472482935
11
385.7408916382
21
322.5472482935
0
LINE
5
223
100
AcDbEntity
8
0
100
AcDbLine
62
7
6
CONTINUOUS
10
385.7408916382
20
237.5472482935
11
385.7408916382
21
236.0472482935
0
LINE
5
224
100
AcDbEntity
8
0
100
AcDbLine
62
7
6
CONTINUOUS
10
385.7408916382
20
273.7398698030
11
385.7408916382
21
286.3546267840
0
LINE
5
225
100
AcDbEntity
8
0
100
AcDbLine
62
7
6
CONTINUOUS
10
386.7408916382
20
236.0472482935
11
386.7408916382
21
236.5472482935
0
LINE
5
226
100
AcDbEntity
8
0
100
AcDbLine
62
7
6
CONTINUOUS
10
395.2408916382
20
236.5472482935
11
395.2408916382
21
236.0472482935
0
LINE
5
227
100
AcDbEntity
8
0
100
AcDbLine
62
7
6
CONTINUOUS
10
396.2408916382
20
286.3546267840
11
396.2408916382
21
273.7398698030
0
LINE
5
228
100
AcDbEntity
8
0
100
AcDbLine
62
7
6
CONTINUOUS
10
396.2408916382
20
236.0472482935
11
396.2408916382
21
237.5472482935
0
LINE
5
229
100
AcDbEntity
8
0
100
AcDbLine
62
7
6
CONTINUOUS
10
396.2408916382
20
322.5472482935
11
396.2408916382
21
324.0472482935
0
LINE
5
22A
100
AcDbEntity
8
0
100
AcDbLine
62
7
6
CONTINUOUS
10
434.4908916382
20
268.1664571859
11
382.2908916382
21
268.1664571859
0
LINE
5
22B
100
AcDbEntity
8
0
100
AcDbLine
62
7
6
CONTINUOUS
10
399.6908916382
20
237.5472482935
11
399.6908916382
21
322.5472482935
0
LINE
5
22C
100
AcDbEntity
8
0
100
AcDbLine
6
CONTINUOUS
10
434.4908916382
20
271.2149446231
11
382.2908916382
21
271.2149446231
0
LINE
5
22D
100
AcDbEntity
8
0
100
AcDbLine
62
7
6
CONTINUOUS
10
403.1408916382
20
324.0472482935
11
403.1408916382
21
322.5472482935
0
LINE
5
22E
100
AcDbEntity
8
0
100
AcDbLine
62
7
6
CONTINUOUS
10
403.1408916382
20
237.5472482935
11
403.1408916382
21
236.0472482935
0
LINE
5
22F
100
AcDbEntity
8
0
100
AcDbLine
62
7
6
CONTINUOUS
10
403.1408916382
20
273.7398698030
11
403.1408916382
21
286.3546267840
0
LINE
5
230
100
AcDbEntity
8
0
100
AcDbLine
62
7
6
CONTINUOUS
10
404.1408916382
20
236.0472482935
11
404.1408916382
21
236.5472482935
0
LINE
5
231
100
AcDbEntity
8
0
100
AcDbLine
62
7
6
CONTINUOUS
10
385.7408916382
20
273.7398698030
11
396.2408916382
21
273.7398698030
0
LINE
5
232
100
AcDbEntity
8
0
100
AcDbLine
62
7
6
CONTINUOUS
10
403.1408916382
20
273.7398698030
11
413.6408916382
21
273.7398698030
0
LINE
5
233
100
AcDbEntity
8
0
100
AcDbLine
62
7
6
CONTINUOUS
10
420.5408916382
20
273.7398698030
11
431.0408916382
21
273.7398698030
0
LINE
5
234
100
AcDbEntity
8
0
100
AcDbLine
62
7
6
CONTINUOUS
10
385.7408916382
20
274.3472482935
11
396.2408916382
21
274.3472482935
0
LINE
5
235
100
AcDbEntity
8
0
100
AcDbLine
62
7
6
CONTINUOUS
10
403.1408916382
20
274.3472482935
11
413.6408916382
21
274.3472482935
0
LINE
5
236
100
AcDbEntity
8
0
100
AcDbLine
62
7
6
CONTINUOUS
10
420.5408916382
20
274.3472482935
11
431.0408916382
21
274.3472482935
0
LINE
5
237
100
AcDbEntity
8
0
100
AcDbLine
62
7
6
CONTINUOUS
10
412.6408916382
20
236.5472482935
11
412.6408916382
21
236.0472482935
0
LINE
5
238
100
AcDbEntity
8
0
100
AcDbLine
62
7
6
CONTINUOUS
10
413.6408916382
20
286.3546267840
11
413.6408916382
21
273.7398698030
0
LINE
5
239
100
AcDbEntity
8
0
100
AcDbLine
62
7
6
CONTINUOUS
10
413.6408916382
20
236.0472482935
11
413.6408916382
21
237.5472482935
0
LINE
5
23A
100
AcDbEntity
8
0
100
AcDbLine
62
7
6
CONTINUOUS
10
413.6408916382
20
322.5472482935
11
413.6408916382
21
324.0472482935
0
LINE
5
23B
100
AcDbEntity
8
0
100
AcDbLine
62
7
6
CONTINUOUS
10
431.0408916382
20
285.7472482935
11
420.5408916382
21
285.7472482935
0
LINE
5
23C
100
AcDbEntity
8
0
100
AcDbLine
62
7
6
CONTINUOUS
10
413.6408916382
20
285.7472482935
11
403.1408916382
21
285.7472482935
0
LINE
5
23D
100
AcDbEntity
8
0
100
AcDbLine
62
7
6
CONTINUOUS
10
396.2408916382
20
285.7472482935
11
385.7408916382
21
285.7472482935
0
LINE
5
23E
100
AcDbEntity
8
0
100
AcDbLine
62
7
6
CONTINUOUS
10
385.7408916382
20
286.3546267840
11
396.2408916382
21
286.3546267840
0
LINE
5
23F
100
AcDbEntity
8
0
100
AcDbLine
62
7
6
CONTINUOUS
10
403.1408916382
20
286.3546267840
11
413.6408916382
21
286.3546267840
0
LINE
5
240
100
AcDbEntity
8
0
100
AcDbLine
62
7
6
CONTINUOUS
10
420.5408916382
20
286.3546267840
11
431.0408916382
21
286.3546267840
0
LINE
5
241
100
AcDbEntity
8
0
100
AcDbLine
62
7
6
CONTINUOUS
10
417.0908916382
20
237.5472482935
11
417.0908916382
21
322.5472482935
0
LINE
5
242
100
AcDbEntity
8
0
100
AcDbLine
6
CONTINUOUS
10
434.4908916382
20
288.8795519639
11
382.2908916382
21
288.8795519639
0
LINE
5
243
100
AcDbEntity
8
0
100
AcDbLine
62
7
6
CONTINUOUS
10
420.5408916382
20
324.0472482935
11
420.5408916382
21
322.5472482935
0
LINE
5
244
100
AcDbEntity
8
0
100
AcDbLine
62
7
6
CONTINUOUS
10
420.5408916382
20
237.5472482935
11
420.5408916382
21
236.0472482935
0
LINE
5
245
100
AcDbEntity
8
0
100
AcDbLine
62
7
6
CONTINUOUS
10
420.5408916382
20
273.7398698030
11
420.5408916382
21
286.3546267840
0
LINE
5
246
100
AcDbEntity
8
0
100
AcDbLine
62
7
6
CONTINUOUS
10
421.5408916382
20
236.0472482935
11
421.5408916382
21
236.5472482935
0
LINE
5
247
100
AcDbEntity
8
0
100
AcDbLine
62
7
6
CONTINUOUS
10
434.4908916382
20
291.9280394011
11
382.2908916382
21
291.9280394011
0
LINE
5
248
100
AcDbEntity
8
0
100
AcDbLine
62
7
6
CONTINUOUS
10
430.0408916382
20
236.5472482935
11
430.0408916382
21
236.0472482935
0
LINE
5
249
100
AcDbEntity
8
0
100
AcDbLine
62
7
6
CONTINUOUS
10
431.0408916382
20
286.3546267840
11
431.0408916382
21
273.7398698030
0
LINE
5
24A
100
AcDbEntity
8
0
100
AcDbLine
62
7
6
CONTINUOUS
10
431.0408916382
20
236.0472482935
11
431.0408916382
21
237.5472482935
0
LINE
5
24B
100
AcDbEntity
8
0
100
AcDbLine
62
7
6
CONTINUOUS
10
431.0408916382
20
322.5472482935
11
431.0408916382
21
324.0472482935
0
LINE
5
24C
100
AcDbEntity
8
0
100
AcDbLine
62
7
6
CONTINUOUS
10
382.2908916382
20
304.0472482935
11
434.4908916382
21
304.0472482935
0
LINE
5
24D
100
AcDbEntity
8
0
100
AcDbLine
62
7
6
CONTINUOUS
10
434.4908916382
20
237.5472482935
11
434.4908916382
21
322.5472482935
0
LINE
5
24E
100
AcDbEntity
8
0
100
AcDbLine
62
7
6
CONTINUOUS
10
434.4908916382
20
322.5472482935
11
431.0408916382
21
322.5472482935
0
LINE
5
24F
100
AcDbEntity
8
0
100
AcDbLine
62
7
6
CONTINUOUS
10
420.5408916382
20
322.5472482935
11
413.6408916382
21
322.5472482935
0
LINE
5
250
100
AcDbEntity
8
0
100
AcDbLine
62
7
6
CONTINUOUS
10
403.1408916382
20
322.5472482935
11
396.2408916382
21
322.5472482935
0
LINE
5
251
100
AcDbEntity
8
0
100
AcDbLine
62
7
6
CONTINUOUS
10
385.7408916382
20
322.5472482935
11
382.2908916382
21
322.5472482935
0
LINE
5
252
100
AcDbEntity
8
0
100
AcDbLine
62
7
6
CONTINUOUS
10
431.0408916382
20
324.0472482935
11
420.5408916382
21
324.0472482935
0
LINE
5
253
100
AcDbEntity
8
0
100
AcDbLine
62
7
6
CONTINUOUS
10
413.6408916382
20
324.0472482935
11
403.1408916382
21
324.0472482935
0
LINE
5
254
100
AcDbEntity
8
0
100
AcDbLine
62
7
6
CONTINUOUS
10
396.2408916382
20
324.0472482935
11
385.7408916382
21
324.0472482935
0
CIRCLE
5
255
100
AcDbEntity
8
0
100
AcDbCircle
62
7
6
CONTINUOUS
10
390.9908916382
20
245.5472482935
40
3.7500000000
0
CIRCLE
5
256
100
AcDbEntity
8
0
100
AcDbCircle
62
7
6
CONTINUOUS
10
390.9908916382
20
314.5472482935
40
3.7500000000
0
CIRCLE
5
257
100
AcDbEntity
8
0
100
AcDbCircle
62
7
6
CONTINUOUS
10
408.3908916382
20
245.5472482935
40
3.7500000000
0
CIRCLE
5
258
100
AcDbEntity
8
0
100
AcDbCircle
62
7
6
CONTINUOUS
10
408.3908916382
20
314.5472482935
40
3.7500000000
0
CIRCLE
5
259
100
AcDbEntity
8
0
100
AcDbCircle
62
7
6
CONTINUOUS
10
425.7908916382
20
245.5472482935
40
3.7500000000
0
CIRCLE
5
25A
100
AcDbEntity
8
0
100
AcDbCircle
62
7
6
CONTINUOUS
10
425.7908916382
20
314.5472482935
40
3.7500000000
0
ENDSEC
0
SECTION
2
OBJECTS
0
DICTIONARY
5
25B
100
AcDbDictionary
3
ACAD_GROUP
350
25C
3
ACAD_MLINESTYLE
350
25D
0
DICTIONARY
5
25C
102
{ACAD_REACTORS
330
25B
102
}
100
AcDbDictionary
0
DICTIONARY
5
25D
102
{ACAD_REACTORS
330
25B
102
}
100
AcDbDictionary
3
STANDARD
350
25E
0
MLINESTYLE
5
25E
102
{ACAD_REACTORS
330
25D
102
}
100
AcDbMlineStyle
2
STANDARD
70
0
3

62
256
51
90.0
52
90.0
71
2
49
0.5
62
256
6
BYLAYER
49
-0.5
62
256
6
BYLAYER
0
ENDSEC
0
EOF
