  0
SECTION
  2
HEADER
  9
$ACADVER
  1
AC1009
  9
$DWGCODEPAGE
  3
iso8859-1
  9
$INSBASE
 10
0.0
 20
0.0
 30
0.0
  9
$EXTMIN
 10
1.0E20
 20
1.0E20
  9
$EXTMAX
 10
-1.0E20
 20
-1.0E20
  9
$LIMMIN
 10
0.0
 20
0.0
  9
$LIMMAX
 10
12.0
 20
9.0
  9
$ORTHOMODE
 70
     0
  9
$REGENMODE
 70
     1
  9
$FILLMODE
 70
     1
  9
$QTEXTMODE
 70
     0
  9
$MIRRTEXT
 70
     1
  9
$DRAGMODE
 70
     2
  9
$LTSCALE
 40
15.0
  9
$OSMODE
 70
     0
  9
$ATTMODE
 70
     1
  9
$TEXTSIZE
 40
0.2
  9
$TRACEWID
 40
0.05
  9
$TEXTSTYLE
  7
STANDARD
  9
$CLAYER
  8
0
  9
$CELTYPE
  6
DASHED
  9
$CECOLOR
 62
   256
  9
$DIMSCALE
 40
1.0
  9
$DIMASZ
 40
0.18
  9
$DIMEXO
 40
0.0625
  9
$DIMDLI
 40
0.38
  9
$DIMRND
 40
0.0
  9
$DIMDLE
 40
0.0
  9
$DIMEXE
 40
0.18
  9
$DIMTP
 40
0.0
  9
$DIMTM
 40
0.0
  9
$DIMTXT
 40
0.18
  9
$DIMCEN
 40
0.09
  9
$DIMTSZ
 40
0.0
  9
$DIMTOL
 70
     0
  9
$DIMLIM
 70
     0
  9
$DIMTIH
 70
     1
  9
$DIMTOH
 70
     1
  9
$DIMSE1
 70
     0
  9
$DIMSE2
 70
     0
  9
$DIMTAD
 70
     0
  9
$DIMZIN
 70
     0
  9
$DIMBLK
  1

  9
$DIMASO
 70
     1
  9
$DIMSHO
 70
     1
  9
$DIMPOST
  1

  9
$DIMAPOST
  1

  9
$DIMALT
 70
     0
  9
$DIMALTD
 70
     2
  9
$DIMALTF
 40
25.4
  9
$DIMLFAC
 40
1.0
  9
$DIMTOFL
 70
     0
  9
$DIMTVP
 40
0.0
  9
$DIMTIX
 70
     0
  9
$DIMSOXD
 70
     0
  9
$DIMSAH
 70
     0
  9
$DIMBLK1
  1

  9
$DIMBLK2
  1

  9
$DIMSTYLE
  2
STANDARD
  9
$DIMCLRD
 70
     0
  9
$DIMCLRE
 70
     0
  9
$DIMCLRT
 70
     0
  9
$DIMTFAC
 40
1.0
  9
$DIMGAP
 40
0.09
  9
$LUNITS
 70
     2
  9
$LUPREC
 70
     4
  9
$AXISMODE
 70
     0
  9
$AXISUNIT
 10
0.0
 20
0.0
  9
$SKETCHINC
 40
0.1
  9
$FILLETRAD
 40
0.0
  9
$AUNITS
 70
     0
  9
$AUPREC
 70
     0
  9
$MENU
  1
acad
  9
$ELEVATION
 40
0.0
  9
$PELEVATION
 40
0.0
  9
$THICKNESS
 40
0.0
  9
$LIMCHECK
 70
     0
  9
$BLIPMODE
 70
     1
  9
$CHAMFERA
 40
0.0
  9
$CHAMFERB
 40
0.0
  9
$SKPOLY
 70
     0
  9
$TDCREATE
 40
0.000000000
  9
$TDUPDATE
 40
0.000000000
  9
$TDINDWG
 40
0.0
  9
$TDUSRTIMER
 40
0.0
  9
$USRTIMER
 70
     1
  9
$ANGBASE
 50
0.0
  9
$ANGDIR
 70
     0
  9
$PDMODE
 70
     0
  9
$PDSIZE
 40
0.0
  9
$PLINEWID
 40
0.0
  9
$COORDS
 70
     1
  9
$SPLFRAME
 70
     0
  9
$SPLINETYPE
 70
     6
  9
$SPLINESEGS
 70
     8
  9
$ATTDIA
 70
     0
  9
$ATTREQ
 70
     1
  9
$HANDLING
 70
     1
  9
$HANDSEED
  5
   6F2
  9
$SURFTAB1
 70
     6
  9
$SURFTAB2
 70
     6
  9
$SURFTYPE
 70
     6
  9
$SURFU
 70
     6
  9
$SURFV
 70
     6
  9
$UCSNAME
  2

  9
$UCSORG
 10
0.0
 20
0.0
 30
0.0
  9
$UCSXDIR
 10
1.0
 20
0.0
 30
0.0
  9
$UCSYDIR
 10
0.0
 20
1.0
 30
0.0
  9
$PUCSNAME
  2

  9
$PUCSORG
 10
0.0
 20
0.0
 30
0.0
  9
$PUCSXDIR
 10
1.0
 20
0.0
 30
0.0
  9
$PUCSYDIR
 10
0.0
 20
1.0
 30
0.0
  9
$USERI1
 70
     0
  9
$USERI2
 70
     0
  9
$USERI3
 70
     0
  9
$USERI4
 70
     0
  9
$USERI5
 70
     0
  9
$USERR1
 40
0.0
  9
$USERR2
 40
0.0
  9
$USERR3
 40
0.0
  9
$USERR4
 40
0.0
  9
$USERR5
 40
0.0
  9
$WORLDVIEW
 70
     1
  9
$SHADEDGE
 70
     3
  9
$SHADEDIF
 70
    70
  9
$TILEMODE
 70
     1
  9
$MAXACTVP
 70
    16
  9
$PINSBASE
 10
0.0
 20
0.0
 30
0.0
  9
$PLIMCHECK
 70
     0
  9
$PEXTMIN
 10
1.0E20
 20
1.0E20
 30
1.0E20
  9
$PEXTMAX
 10
-1.0E20
 20
-1.0E20
 30
-1.0E20
  9
$PLIMMIN
 10
0.0
 20
0.0
  9
$PLIMMAX
 10
12.0
 20
9.0
  9
$UNITMODE
 70
     0
  9
$VISRETAIN
 70
     0
  0
ENDSEC
  0
SECTION
  2
TABLES
  0
TABLE
  2
VPORT
 70
     1
  0
VPORT
  2
*ACTIVE
 70
     0
 10
0.0
 20
0.0
 11
1.0
 21
1.0
 12
6.801242
 22
4.5
 13
0.0
 23
0.0
 14
1.0
 24
1.0
 15
0.0
 25
0.0
 16
0.0
 26
0.0
 36
1.0
 17
0.0
 27
0.0
 37
0.0
 40
9.0
 41
1.511387
 42
50.0
 43
0.0
 44
0.0
 50
0.0
 51
0.0
 71
     0
 72
   100
 73
     1
 74
     1
 75
     0
 76
     0
 77
     0
 78
     0
  0
ENDTAB
  0
TABLE
  2
LTYPE
 70
    41
  0
LTYPE
  2
BYBLOCK
 70
     0
  3

 72
    65
 73
     0
 40
0.0
  0
LTYPE
  2
BYLAYER
 70
     0
  3

 72
    65
 73
     0
 40
0.0
  0
LTYPE
  2
CONTINUOUS
 70
     0
  3
Solid line
 72
    65
 73
     0
 40
0.0
  0
LTYPE
  2
BORDER
 70
    64
  3
__ __ . __ __ . __ __ . __ __ . __ __ . __ __ .
 72
    65
 73
     6
 40
1.75
 49
0.5
 49
-0.25
 49
0.5
 49
-0.25
 49
0.0
 49
-0.25
  0
LTYPE
  2
BORDER2
 70
    64
  3
__.__.__.__.__.__.__.__.__.__.__.__.__.__.__.__
 72
    65
 73
     6
 40
0.875
 49
0.25
 49
-0.125
 49
0.25
 49
-0.125
 49
0.0
 49
-0.125
  0
LTYPE
  2
BORDERX2
 70
    64
  3
____  ____  .  ____  ____  .  ____  ____  .  __
 72
    65
 73
     6
 40
3.5
 49
1.0
 49
-0.5
 49
1.0
 49
-0.5
 49
0.0
 49
-0.5
  0
LTYPE
  2
CENTER
 70
    64
  3
____ _ ____ _ ____ _ ____ _ ____ _ ____ _ ____
 72
    65
 73
     4
 40
2.0
 49
1.25
 49
-0.25
 49
0.25
 49
-0.25
  0
LTYPE
  2
CENTER2
 70
    64
  3
___ _ ___ _ ___ _ ___ _ ___ _ ___ _ ___ _ ___ _
 72
    65
 73
     4
 40
1.125
 49
0.75
 49
-0.125
 49
0.125
 49
-0.125
  0
LTYPE
  2
CENTERX2
 70
    64
  3
________  __  ________  __  ________  __  _____
 72
    65
 73
     4
 40
4.0
 49
2.5
 49
-0.5
 49
0.5
 49
-0.5
  0
LTYPE
  2
DASHDOT
 70
    64
  3
__ . __ . __ . __ . __ . __ . __ . __ . __ . __
 72
    65
 73
     4
 40
1.0
 49
0.5
 49
-0.25
 49
0.0
 49
-0.25
  0
LTYPE
  2
DASHDOT2
 70
    64
  3
_._._._._._._._._._._._._._._._._._._._._._._._
 72
    65
 73
     4
 40
0.5
 49
0.25
 49
-0.125
 49
0.0
 49
-0.125
  0
LTYPE
  2
DASHDOTX2
 70
    64
  3
____  .  ____  .  ____  .  ____  .  ____  .  __
 72
    65
 73
     4
 40
2.0
 49
1.0
 49
-0.5
 49
0.0
 49
-0.5
  0
LTYPE
  2
DASHED
 70
    64
  3
__ __ __ __ __ __ __ __ __ __ __ __ __ __ __ __
 72
    65
 73
     2
 40
0.75
 49
0.5
 49
-0.25
  0
LTYPE
  2
DASHED2
 70
    64
  3
_ _ _ _ _ _ _ _ _ _ _ _ _ _ _ _ _ _ _ _ _ _ _ _
 72
    65
 73
     2
 40
0.375
 49
0.25
 49
-0.125
  0
LTYPE
  2
DASHEDX2
 70
    64
  3
____  ____  ____  ____  ____  ____  ____  ____
 72
    65
 73
     2
 40
1.5
 49
1.0
 49
-0.5
  0
LTYPE
  2
DIVIDE
 70
    64
  3
____ . . ____ . . ____ . . ____ . . ____ . . __
 72
    65
 73
     6
 40
1.25
 49
0.5
 49
-0.25
 49
0.0
 49
-0.25
 49
0.0
 49
-0.25
  0
LTYPE
  2
DIVIDE2
 70
    64
  3
__..__..__..__..__..__..__..__..__..__..__..__.
 72
    65
 73
     6
 40
0.625
 49
0.25
 49
-0.125
 49
0.0
 49
-0.125
 49
0.0
 49
-0.125
  0
LTYPE
  2
DIVIDEX2
 70
    64
  3
________  .  .  ________  .  .  ________  .  .
 72
    65
 73
     6
 40
2.5
 49
1.0
 49
-0.5
 49
0.0
 49
-0.5
 49
0.0
 49
-0.5
  0
LTYPE
  2
DOT
 70
    64
  3
. . . . . . . . . . . . . . . . . . . . . . . .
 72
    65
 73
     2
 40
0.25
 49
0.0
 49
-0.25
  0
LTYPE
  2
DOT2
 70
    64
  3
...............................................
 72
    65
 73
     2
 40
0.125
 49
0.0
 49
-0.125
  0
LTYPE
  2
DOTX2
 70
    64
  3
.  .  .  .  .  .  .  .  .  .  .  .  .  .  .  .
 72
    65
 73
     2
 40
0.5
 49
0.0
 49
-0.5
  0
LTYPE
  2
HIDDEN
 70
    64
  3
__ __ __ __ __ __ __ __ __ __ __ __ __ __ __ __
 72
    65
 73
     2
 40
0.375
 49
0.25
 49
-0.125
  0
LTYPE
  2
HIDDEN2
 70
    64
  3
_ _ _ _ _ _ _ _ _ _ _ _ _ _ _ _ _ _ _ _ _ _ _ _
 72
    65
 73
     2
 40
0.1875
 49
0.125
 49
-0.0625
  0
LTYPE
  2
HIDDENX2
 70
    64
  3
____ ____ ____ ____ ____ ____ ____ ____ ____ __
 72
    65
 73
     2
 40
0.75
 49
0.5
 49
-0.25
  0
LTYPE
  2
PHANTOM
 70
    64
  3
______  __  __  ______  __  __  ______  __  __
 72
    65
 73
     6
 40
2.5
 49
1.25
 49
-0.25
 49
0.25
 49
-0.25
 49
0.25
 49
-0.25
  0
LTYPE
  2
PHANTOM2
 70
    64
  3
___ _ _ ___ _ _ ___ _ _ ___ _ _ ___ _ _ ___ _ _
 72
    65
 73
     6
 40
1.25
 49
0.625
 49
-0.125
 49
0.125
 49
-0.125
 49
0.125
 49
-0.125
  0
LTYPE
  2
PHANTOMX2
 70
    64
  3
____________    ____    ____    ____________
 72
    65
 73
     6
 40
5.0
 49
2.5
 49
-0.5
 49
0.5
 49
-0.5
 49
0.5
 49
-0.5
  0
LTYPE
  2
ACAD_ISO02W100
 70
    64
  3
__ __ __ __ __ __ __ __ __ __ __ __ __ __ __ __
 72
    65
 73
     2
 40
15.0
 49
12.0
 49
-3.0
  0
LTYPE
  2
ACAD_ISO03W100
 70
    64
  3
__    __    __    __    __    __    __    __
 72
    65
 73
     2
 40
30.0
 49
12.0
 49
-18.0
  0
LTYPE
  2
ACAD_ISO04W100
 70
    64
  3
____ . ____ . ____ . ____ . ____ . ____ . ____
 72
    65
 73
     4
 40
30.5
 49
24.0
 49
-3.0
 49
0.5
 49
-3.0
  0
LTYPE
  2
ACAD_ISO05W100
 70
    64
  3
____ .. ____ .. ____ .. ____ .. ____ .. ____ ..
 72
    65
 73
     6
 40
34.0
 49
24.0
 49
-3.0
 49
0.5
 49
-3.0
 49
0.5
 49
-3.0
  0
LTYPE
  2
ACAD_ISO06W100
 70
    64
  3
____ ... ____ ... ____ ... ____ ... ____ ... __
 72
    65
 73
     8
 40
37.5
 49
24.0
 49
-3.0
 49
0.5
 49
-3.0
 49
0.5
 49
-3.0
 49
0.5
 49
-3.0
  0
LTYPE
  2
ACAD_ISO07W100
 70
    64
  3
. . . . . . . . . . . . . . . . . . . . . . . .
 72
    65
 73
     2
 40
3.5
 49
0.5
 49
-3.0
  0
LTYPE
  2
ACAD_ISO08W100
 70
    64
  3
____ __ ____ __ ____ __ ____ ____ __ __ ____ __
 72
    65
 73
     4
 40
36.0
 49
24.0
 49
-3.0
 49
6.0
 49
-3.0
  0
LTYPE
  2
ACAD_ISO09W100
 70
    64
  3
____ __ __ ____ __ __ ____ __ __ ____ __ __ ___
 72
    65
 73
     6
 40
45.0
 49
24.0
 49
-3.0
 49
6.0
 49
-3.0
 49
6.0
 49
-3.0
  0
LTYPE
  2
ACAD_ISO10W100
 70
    64
  3
__ . __ . __ . __ . __ . __ . __ . __ . __ . __
 72
    65
 73
     4
 40
18.5
 49
12.0
 49
-3.0
 49
0.5
 49
-3.0
  0
LTYPE
  2
ACAD_ISO11W100
 70
    64
  3
__ __ . __ __ . __ __ . __ __ . __ __ . __ __ .
 72
    65
 73
     6
 40
33.5
 49
12.0
 49
-3.0
 49
12.0
 49
-3.0
 49
0.5
 49
-3.0
  0
LTYPE
  2
ACAD_ISO12W100
 70
    64
  3
__ . . __ . . __ . . __ . . __ . . __ . . __ .
 72
    65
 73
     6
 40
22.0
 49
12.0
 49
-3.0
 49
0.5
 49
-3.0
 49
0.5
 49
-3.0
  0
LTYPE
  2
ACAD_ISO13W100
 70
    64
  3
__ __ . . __ __ . . __ __ . . __ __ . . __ __ .
 72
    65
 73
     8
 40
37.0
 49
12.0
 49
-3.0
 49
12.0
 49
-3.0
 49
0.5
 49
-3.0
 49
0.5
 49
-3.0
  0
LTYPE
  2
ACAD_ISO14W100
 70
    64
  3
__ . . . __ . . . __ . . . __ . . . __ . . . __
 72
    65
 73
     8
 40
25.5
 49
12.0
 49
-3.0
 49
0.5
 49
-3.0
 49
0.5
 49
-3.0
 49
0.5
 49
-3.0
  0
LTYPE
  2
ACAD_ISO15W100
 70
    64
  3
__ __ . . . __ __ . . . __ __ . . . __ __ . . .
 72
    65
 73
    10
 40
40.5
 49
12.0
 49
-3.0
 49
12.0
 49
-3.0
 49
0.5
 49
-3.0
 49
0.5
 49
-3.0
 49
0.5
 49
-3.0
  0
ENDTAB
  0
TABLE
  2
STYLE
 70
     4
  0
STYLE
  2
STANDARD
 70
    64
 40
0.0
 41
1.0
 50
0.0
 71
     0
 42
0.2
  3
txt
  4

  0
STYLE
  2
TOLERANCE
 70
    64
 40
0.0
 41
1.0
 50
0.0
 71
     0
 42
0.2
  3
../igesfont/iges1003.shx
  4

  0
STYLE
  2
ROMANS
 70
    64
 40
0.0
 41
1.0
 50
0.0
 71
     0
 42
0.2
  3
romans.shx
  4

  0
STYLE
  2
ROMANC
 70
    64
 40
0.0
 41
1.0
 50
0.0
 71
     0
 42
0.2
  3
romanc.shx
  4

  0
ENDTAB
  0
TABLE
  2
DIMSTYLE
 70
     2
  0
DIMSTYLE
  2
UNNAMED
 70
     0
  3

  4

  5

  6

  7

 40
1.0
 41
0.18
 42
0.0625
 43
0.38
 44
0.18
 45
0.0
 46
0.0
 47
0.0
 48
0.0
140
0.18
141
0.09
142
0.0
143
25.4
144
1.0
145
0.0
146
1.0
147
0.09
 71
     0
 72
     0
 73
     1
 74
     1
 75
     0
 76
     0
 77
     0
 78
     0
170
     0
171
     2
172
     0
173
     0
174
     0
175
     0
176
     0
177
     0
178
     0
  0
DIMSTYLE
  2
STANDARD
 70
     0
  3

  4

  5

  6

  7

 40
1.0
 41
0.18
 42
0.0625
 43
0.38
 44
0.18
 45
0.0
 46
0.0
 47
0.0
 48
0.0
140
0.18
141
0.09
142
0.0
143
25.4
144
1.0
145
0.0
146
1.0
147
0.09
 71
     0
 72
     0
 73
     1
 74
     1
 75
     0
 76
     0
 77
     0
 78
     0
170
     0
171
     2
172
     0
173
     0
174
     0
175
     0
176
     0
177
     0
178
     0
  0
ENDTAB
  0
TABLE
  2
LAYER
 70
     1
  0
LAYER
  2
0
 70
     0
 62
     7
  6
CONTINUOUS
  0
ENDTAB
  0
ENDSEC
  0
SECTION
  2
BLOCKS
  0
BLOCK
  5
     B
  8
0
  6
CONTINUOUS
 62
     7
  2
*UDIM528
 70
    65
 10
0.0
 20
0.0
 30
0.0
  3
*UDIM528
  0
TEXT
  5
     C
  8
0
  6
CONTINUOUS
 62
     7
 10
247.839450506457
 20
-114.847412098783
 30
0.0
 40
3.00000002980232
  1
147
 50
359.999999844103
 41
0.933333333333333
 72
     1
 11
251.739450549274
 21
-113.347412094474
 31
0.0
 73
     2
  0
LINE
  5
     D
  8
0
  6
CONTINUOUS
 62
     7
 10
233.639449180295
 20
-101.667449951171
 30
0.0
 11
233.639434732447
 21
-117.847412109374
 31
0.0
  0
LINE
  5
     E
  8
0
  6
CONTINUOUS
 62
     7
 10
270.389449180295
 20
-101.667449951171
 30
0.0
 11
270.389434732447
 21
-117.847412109374
 31
0.0
  0
LINE
  5
     F
  8
0
  6
CONTINUOUS
 62
     7
 10
233.639436518341
 20
-115.847412109375
 30
0.0
 11
270.389436518341
 21
-115.847412109375
 31
0.0
  0
LINE
  5
    10
  8
0
  6
CONTINUOUS
 62
     7
 10
236.593859795548
 20
-115.326467679423
 30
0.0
 11
233.639436518341
 21
-115.847412109375
 31
0.0
  0
LINE
  5
    11
  8
0
  6
CONTINUOUS
 62
     7
 10
233.639436518341
 20
-115.847412109375
 30
0.0
 11
236.593859795548
 21
-116.368356539327
 31
0.0
  0
LINE
  5
    12
  8
0
  6
CONTINUOUS
 62
     7
 10
267.435013241134
 20
-116.368356539327
 30
0.0
 11
270.389436518341
 21
-115.847412109375
 31
0.0
  0
LINE
  5
    13
  8
0
  6
CONTINUOUS
 62
     7
 10
270.389436518341
 20
-115.847412109375
 30
0.0
 11
267.435013241134
 21
-115.326467679423
 31
0.0
  0
ENDBLK
  5
    14
  8
0
  6
CONTINUOUS
 62
     7
  0
BLOCK
  5
    15
  8
0
  6
CONTINUOUS
 62
     7
  2
*UDIM529
 70
    65
 10
0.0
 20
0.0
 30
0.0
  3
*UDIM529
  0
TEXT
  5
    16
  8
0
  6
CONTINUOUS
 62
     7
 10
247.839450505105
 20
-59.6094245804725
 30
0.0
 40
3.00000002980232
  1
115
 50
359.999999844103
 41
0.933333333333333
 72
     1
 11
251.739450547922
 21
-58.1094245761633
 31
0.0
 73
     2
  0
LINE
  5
    17
  8
0
  6
CONTINUOUS
 62
     7
 10
237.639450387159
 20
-65.7924499511719
 30
0.0
 11
237.639452642029
 21
-58.6094245910646
 31
0.0
  0
LINE
  5
    18
  8
0
  6
CONTINUOUS
 62
     7
 10
266.389450387159
 20
-65.7924499511719
 30
0.0
 11
266.389452642029
 21
-58.6094245910646
 31
0.0
  0
LINE
  5
    19
  8
0
  6
CONTINUOUS
 62
     7
 10
237.639452014196
 20
-60.6094245910645
 30
0.0
 11
266.389452014196
 21
-60.6094245910645
 31
0.0
  0
LINE
  5
    1A
  8
0
  6
CONTINUOUS
 62
     7
 10
240.593875291403
 20
-60.0884801611128
 30
0.0
 11
237.639452014196
 21
-60.6094245910645
 31
0.0
  0
LINE
  5
    1B
  8
0
  6
CONTINUOUS
 62
     7
 10
237.639452014196
 20
-60.6094245910645
 30
0.0
 11
240.593875291403
 21
-61.1303690210161
 31
0.0
  0
LINE
  5
    1C
  8
0
  6
CONTINUOUS
 62
     7
 10
263.435028736989
 20
-61.1303690210161
 30
0.0
 11
266.389452014196
 21
-60.6094245910645
 31
0.0
  0
LINE
  5
    1D
  8
0
  6
CONTINUOUS
 62
     7
 10
266.389452014196
 20
-60.6094245910645
 30
0.0
 11
263.435028736989
 21
-60.0884801611128
 31
0.0
  0
ENDBLK
  5
    1E
  8
0
  6
CONTINUOUS
 62
     7
  0
BLOCK
  5
    1F
  8
0
  6
CONTINUOUS
 62
     7
  2
*UDIM530
 70
    65
 10
0.0
 20
0.0
 30
0.0
  3
*UDIM530
  0
TEXT
  5
    20
  8
0
  6
CONTINUOUS
 62
     7
 10
212.525627125643
 20
-90.8424499999473
 30
0.0
 40
3.00000002980232
  1
142
 50
449.999999844103
 41
0.933333333333333
 72
     1
 11
211.025627121329
 21
-86.9424499571323
 31
0.0
 73
     2
  0
LINE
  5
    21
  8
0
  6
CONTINUOUS
 62
     7
 10
234.514450073242
 20
-68.9174499511719
 30
0.0
 11
211.525627136231
 21
-68.9174499511719
 31
0.0
  0
LINE
  5
    22
  8
0
  6
CONTINUOUS
 62
     7
 10
234.514450073242
 20
-104.417449951172
 30
0.0
 11
211.525627136231
 21
-104.417449951172
 31
0.0
  0
LINE
  5
    23
  8
0
  6
CONTINUOUS
 62
     7
 10
213.52562713623
 20
-68.9174499511719
 30
0.0
 11
213.52562713623
 21
-104.417449951172
 31
0.0
  0
LINE
  5
    24
  8
0
  6
CONTINUOUS
 62
     7
 10
214.046571566182
 20
-71.8718732283788
 30
0.0
 11
213.52562713623
 21
-68.9174499511719
 31
0.0
  0
LINE
  5
    25
  8
0
  6
CONTINUOUS
 62
     7
 10
213.52562713623
 20
-68.9174499511719
 30
0.0
 11
213.004682706279
 21
-71.8718732283788
 31
0.0
  0
LINE
  5
    26
  8
0
  6
CONTINUOUS
 62
     7
 10
213.004682706279
 20
-101.463026673965
 30
0.0
 11
213.52562713623
 21
-104.417449951172
 31
0.0
  0
LINE
  5
    27
  8
0
  6
CONTINUOUS
 62
     7
 10
213.52562713623
 20
-104.417449951172
 30
0.0
 11
214.046571566182
 21
-101.463026673965
 31
0.0
  0
ENDBLK
  5
    28
  8
0
  6
CONTINUOUS
 62
     7
  0
BLOCK
  5
    29
  8
0
  6
CONTINUOUS
 62
     7
  2
*UDIM531
 70
    65
 10
0.0
 20
0.0
 30
0.0
  3
*UDIM531
  0
TEXT
  5
    2A
  8
0
  6
CONTINUOUS
 62
     7
 10
220.651153553866
 20
-90.8424499999473
 30
0.0
 40
3.00000002980232
  1
112
 50
449.999999844103
 41
0.933333333333333
 72
     1
 11
219.151153549552
 21
-86.9424499571323
 31
0.0
 73
     2
  0
LINE
  5
    2B
  8
0
  6
CONTINUOUS
 62
     7
 10
232.639450073242
 20
-72.6674499511719
 30
0.0
 11
219.651153564453
 21
-72.6674499511719
 31
0.0
  0
LINE
  5
    2C
  8
0
  6
CONTINUOUS
 62
     7
 10
232.639450073242
 20
-100.667449951172
 30
0.0
 11
219.651153564453
 21
-100.667449951172
 31
0.0
  0
LINE
  5
    2D
  8
0
  6
CONTINUOUS
 62
     7
 10
221.651153564453
 20
-72.6674499511719
 30
0.0
 11
221.651153564453
 21
-100.667449951172
 31
0.0
  0
LINE
  5
    2E
  8
0
  6
CONTINUOUS
 62
     7
 10
222.172097994405
 20
-75.6218732283788
 30
0.0
 11
221.651153564453
 21
-72.6674499511719
 31
0.0
  0
LINE
  5
    2F
  8
0
  6
CONTINUOUS
 62
     7
 10
221.651153564453
 20
-72.6674499511719
 30
0.0
 11
221.130209134501
 21
-75.6218732283788
 31
0.0
  0
LINE
  5
    30
  8
0
  6
CONTINUOUS
 62
     7
 10
221.130209134501
 20
-97.7130266739649
 30
0.0
 11
221.651153564453
 21
-100.667449951172
 31
0.0
  0
LINE
  5
    31
  8
0
  6
CONTINUOUS
 62
     7
 10
221.651153564453
 20
-100.667449951172
 30
0.0
 11
222.172097994405
 21
-97.7130266739649
 31
0.0
  0
ENDBLK
  5
    32
  8
0
  6
CONTINUOUS
 62
     7
  0
BLOCK
  5
    33
  8
0
  6
CONTINUOUS
 62
     7
  2
*UDIM532
 70
    65
 10
0.0
 20
0.0
 30
0.0
  3
*UDIM532
  0
TEXT
  5
    34
  8
0
  6
CONTINUOUS
 62
     7
 10
278.304203533209
 20
-55.6463222629151
 30
0.0
 40
3.00000002980232
  1
7
 50
404.868411918951
 41
0.933333333333334
 72
     1
 11
278.025583891139
 21
-53.8071998733508
 31
0.0
 73
     2
  0
TEXT
  5
    35
  8
0
  6
CONTINUOUS
 62
     7
 10
276.071707533884
 20
-57.8685872506205
 30
0.0
 40
3.00000002980232
  1
Ø
 50
404.868411918951
 41
0.933333333333334
 72
     1
 11
275.793087891814
 21
-56.0294648610562
 31
0.0
 73
     2
  0
LINE
  5
    36
  8
0
  6
CONTINUOUS
 62
     7
 10
280.568888050112
 20
-54.8029930514231
 30
0.0
 11
265.769312297608
 21
-69.5347457791433
 31
0.0
  0
LINE
  5
    37
  8
0
  6
CONTINUOUS
 62
     7
 10
268.735956598815
 20
-65.846656428228
 30
0.0
 11
267.009587848877
 21
-68.3001541232005
 31
0.0
  0
LINE
  5
    38
  8
0
  6
CONTINUOUS
 62
     7
 10
267.009587848877
 20
-68.3001541232005
 30
0.0
 11
269.470989337591
 21
-66.5850731597011
 31
0.0
  0
LINE
  5
    39
  8
0
  6
CONTINUOUS
 62
     7
 10
264.042943547669
 20
-71.9882434741158
 30
0.0
 11
265.769312297608
 21
-69.5347457791433
 31
0.0
  0
LINE
  5
    3A
  8
0
  6
CONTINUOUS
 62
     7
 10
265.769312297608
 20
-69.5347457791433
 30
0.0
 11
263.307910808894
 21
-71.2498267426427
 31
0.0
  0
ENDBLK
  5
    3B
  8
0
  6
CONTINUOUS
 62
     7
  0
BLOCK
  5
    3C
  8
0
  6
CONTINUOUS
 62
     7
  2
*UDIM533
 70
    65
 10
0.0
 20
0.0
 30
0.0
  3
*UDIM533
  0
TEXT
  5
    3D
  8
0
  6
CONTINUOUS
 62
     7
 10
55.2574781530789
 20
93.6268405263011
 30
0.0
 40
2.99999994039535
  1
217
 50
89.9999999480344
 41
0.933333333333333
 72
     1
 11
53.7574781864135
 21
97.5268404501736
 31
0.0
 73
     2
  0
LINE
  5
    3E
  8
0
  6
CONTINUOUS
 62
     7
 10
60.2574294226712
 20
130.076790055343
 30
0.0
 11
54.2574294226779
 21
130.076781072113
 31
0.0
  0
LINE
  5
    3F
  8
0
  6
CONTINUOUS
 62
     7
 10
56.2575268905411
 20
64.9769043198495
 30
0.0
 11
56.2574294226757
 21
130.076784066523
 31
0.0
  0
LINE
  5
    40
  8
0
  6
CONTINUOUS
 62
     7
 10
55.4810653955565
 20
67.8746806305412
 30
0.0
 11
56.2575268905411
 21
64.9769043198495
 31
0.0
  0
LINE
  5
    41
  8
0
  6
CONTINUOUS
 62
     7
 10
56.2575268905411
 20
64.9769043198495
 30
0.0
 11
57.0339797083918
 21
67.8746829555723
 31
0.0
  0
LINE
  5
    42
  8
0
  6
CONTINUOUS
 62
     7
 10
57.0338909176603
 20
127.179007755831
 30
0.0
 11
56.2574294226757
 21
130.076784066523
 31
0.0
  0
LINE
  5
    43
  8
0
  6
CONTINUOUS
 62
     7
 10
56.2574294226757
 20
130.076784066523
 30
0.0
 11
55.4809766048249
 21
127.1790054308
 31
0.0
  0
ENDBLK
  5
    44
  8
0
  6
CONTINUOUS
 62
     7
  0
BLOCK
  5
    45
  8
0
  6
CONTINUOUS
 62
     7
  2
*UDIM534
 70
    65
 10
0.0
 20
0.0
 30
0.0
  3
*UDIM534
  0
TEXT
  5
    46
  8
0
  6
CONTINUOUS
 62
     7
 10
79.3076014100214
 20
-29.1635497917734
 30
0.0
 40
2.99999994039535
  1
70
 50
359.999999948034
 41
0.933333333333333
 72
     1
 11
81.8076013617038
 21
-27.6635498238306
 31
0.0
 73
     2
  0
LINE
  5
    47
  8
0
  6
CONTINUOUS
 62
     7
 10
71.3076123010247
 20
1.73726110266575
 30
0.0
 11
71.3077138140459
 21
-32.1635812350167
 31
0.0
  0
LINE
  5
    48
  8
0
  6
CONTINUOUS
 62
     7
 10
92.3074141882577
 20
1.79001302117315
 30
0.0
 11
92.3075158590514
 21
-32.1635183529995
 31
0.0
  0
LINE
  5
    49
  8
0
  6
CONTINUOUS
 62
     7
 10
71.3077078252259
 20
-30.1635812350257
 30
0.0
 11
92.3075098702314
 21
-30.1635183530085
 31
0.0
  0
LINE
  5
    4A
  8
0
  6
CONTINUOUS
 62
     7
 10
74.2054829733924
 20
-29.3871154014768
 30
0.0
 11
71.3077078252259
 21
-30.1635812350257
 31
0.0
  0
LINE
  5
    4B
  8
0
  6
CONTINUOUS
 62
     7
 10
71.3077078252259
 20
-30.1635812350257
 30
0.0
 11
74.2054876234545
 21
-30.9400297143069
 31
0.0
  0
LINE
  5
    4C
  8
0
  6
CONTINUOUS
 62
     7
 10
89.409734722065
 20
-30.9399841865574
 30
0.0
 11
92.3075098702314
 21
-30.1635183530085
 31
0.0
  0
LINE
  5
    4D
  8
0
  6
CONTINUOUS
 62
     7
 10
92.3075098702314
 20
-30.1635183530085
 30
0.0
 11
89.4097300720028
 21
-29.3870698737272
 31
0.0
  0
ENDBLK
  5
    4E
  8
0
  6
CONTINUOUS
 62
     7
  0
BLOCK
  5
    4F
  8
0
  6
CONTINUOUS
 62
     7
  2
*UDIM535
 70
    65
 10
0.0
 20
0.0
 30
0.0
  3
*UDIM535
  0
TEXT
  5
    50
  8
0
  6
CONTINUOUS
 62
     7
 10
100.213003485584
 20
-29.163551909138
 30
0.0
 40
2.99999994039535
  1
70
 50
359.999999948034
 41
0.933333333333333
 72
     1
 11
102.713003437266
 21
-27.6635519411952
 31
0.0
 73
     2
  0
LINE
  5
    51
  8
0
  6
CONTINUOUS
 62
     7
 10
113.307610975356
 20
1.73738686788619
 30
0.0
 11
113.307610975356
 21
-32.1635519113929
 31
0.0
  0
LINE
  5
    52
  8
0
  6
CONTINUOUS
 62
     7
 10
92.3074111938477
 20
1.79001302116867
 30
0.0
 11
92.3074111938477
 21
-32.1635519113929
 31
0.0
  0
LINE
  5
    53
  8
0
  6
CONTINUOUS
 62
     7
 10
113.307610975356
 20
-30.1635519113929
 30
0.0
 11
92.3074111938477
 21
-30.1635519113929
 31
0.0
  0
LINE
  5
    54
  8
0
  6
CONTINUOUS
 62
     7
 10
110.409833502146
 20
-30.9400090678114
 30
0.0
 11
113.307610975356
 21
-30.1635519113929
 31
0.0
  0
LINE
  5
    55
  8
0
  6
CONTINUOUS
 62
     7
 10
113.307610975356
 20
-30.1635519113929
 30
0.0
 11
110.409833502146
 21
-29.3870947549743
 31
0.0
  0
LINE
  5
    56
  8
0
  6
CONTINUOUS
 62
     7
 10
95.2051886670582
 20
-29.3870947549743
 30
0.0
 11
92.3074111938477
 21
-30.1635519113929
 31
0.0
  0
LINE
  5
    57
  8
0
  6
CONTINUOUS
 62
     7
 10
92.3074111938477
 20
-30.1635519113929
 30
0.0
 11
95.2051886670582
 21
-30.9400090678114
 31
0.0
  0
ENDBLK
  5
    58
  8
0
  6
CONTINUOUS
 62
     7
  0
BLOCK
  5
    59
  8
0
  6
CONTINUOUS
 62
     7
  2
*UDIM536
 70
    65
 10
0.0
 20
0.0
 30
0.0
  3
*UDIM536
  0
TEXT
  5
    5A
  8
0
  6
CONTINUOUS
 62
     7
 10
88.4071985654664
 20
35.5770257478318
 30
0.0
 40
2.99999994039535
  1
140
 50
359.999999948034
 41
0.933333333333333
 72
     1
 11
92.3071984893332
 21
37.0770257145118
 31
0.0
 73
     2
  0
LINE
  5
    5B
  8
0
  6
CONTINUOUS
 62
     7
 10
113.30741528476
 20
48.8269179405104
 30
0.0
 11
113.307150798601
 21
32.576683951918
 31
0.0
  0
LINE
  5
    5C
  8
0
  6
CONTINUOUS
 62
     7
 10
71.3073641725668
 20
48.8269179405104
 30
0.0
 11
71.3070996975336
 21
32.5773675379024
 31
0.0
  0
LINE
  5
    5D
  8
0
  6
CONTINUOUS
 62
     7
 10
113.307183350275
 20
34.5766839516531
 30
0.0
 11
71.3071322492075
 21
34.5773675376375
 31
0.0
  0
LINE
  5
    5E
  8
0
  6
CONTINUOUS
 62
     7
 10
110.409393239958
 20
33.8002739590911
 30
0.0
 11
113.307183350275
 21
34.5766839516531
 31
0.0
  0
LINE
  5
    5F
  8
0
  6
CONTINUOUS
 62
     7
 10
113.307183350275
 20
34.5766839516531
 30
0.0
 11
110.409418514938
 21
35.3531882717225
 31
0.0
  0
LINE
  5
    60
  8
0
  6
CONTINUOUS
 62
     7
 10
74.2049223595243
 20
35.3537775301995
 30
0.0
 11
71.3071322492075
 21
34.5773675376375
 31
0.0
  0
LINE
  5
    61
  8
0
  6
CONTINUOUS
 62
     7
 10
71.3071322492075
 20
34.5773675376375
 30
0.0
 11
74.2048970845442
 21
33.8008632175681
 31
0.0
  0
ENDBLK
  5
    62
  8
0
  6
CONTINUOUS
 62
     7
  0
BLOCK
  5
    63
  8
0
  6
CONTINUOUS
 62
     7
  2
*UDIM537
 70
    65
 10
0.0
 20
0.0
 30
0.0
  3
*UDIM537
  0
TEXT
  5
    64
  8
0
  6
CONTINUOUS
 62
     7
 10
130.630905147219
 20
61.076905171704
 30
0.0
 40
2.99999994039535
  1
161
 50
89.9999999480344
 41
0.933333333333333
 72
     1
 11
129.130905180553
 21
64.9769050955765
 31
0.0
 73
     2
  0
LINE
  5
    65
  8
0
  6
CONTINUOUS
 62
     7
 10
115.732412084937
 20
40.8269047081464
 30
0.0
 11
133.630905150751
 21
40.8269047081464
 31
0.0
  0
LINE
  5
    66
  8
0
  6
CONTINUOUS
 62
     7
 10
115.732412084937
 20
89.1269054830067
 30
0.0
 11
133.630905150751
 21
89.1269054830067
 31
0.0
  0
LINE
  5
    67
  8
0
  6
CONTINUOUS
 62
     7
 10
131.630905150751
 20
40.8269047081464
 30
0.0
 11
131.630905150751
 21
89.1269054830067
 31
0.0
  0
LINE
  5
    68
  8
0
  6
CONTINUOUS
 62
     7
 10
130.854447994333
 20
43.7246821813569
 30
0.0
 11
131.630905150751
 21
40.8269047081464
 31
0.0
  0
LINE
  5
    69
  8
0
  6
CONTINUOUS
 62
     7
 10
131.630905150751
 20
40.8269047081464
 30
0.0
 11
132.40736230717
 21
43.7246821813569
 31
0.0
  0
LINE
  5
    6A
  8
0
  6
CONTINUOUS
 62
     7
 10
132.40736230717
 20
86.2291280097962
 30
0.0
 11
131.630905150751
 21
89.1269054830067
 31
0.0
  0
LINE
  5
    6B
  8
0
  6
CONTINUOUS
 62
     7
 10
131.630905150751
 20
89.1269054830067
 30
0.0
 11
130.854447994333
 21
86.2291280097962
 31
0.0
  0
ENDBLK
  5
    6C
  8
0
  6
CONTINUOUS
 62
     7
  0
BLOCK
  5
    6D
  8
0
  6
CONTINUOUS
 62
     7
  2
*UDIM538
 70
    65
 10
0.0
 20
0.0
 30
0.0
  3
*UDIM538
  0
TEXT
  5
    6E
  8
0
  6
CONTINUOUS
 62
     7
 10
88.4074112699808
 20
96.4787503675786
 30
0.0
 40
2.99999994039535
  1
152
 50
359.999999948034
 41
0.933333333333333
 72
     1
 11
92.3074111938477
 21
97.9787503342587
 31
0.0
 73
     2
  0
LINE
  5
    6F
  8
0
  6
CONTINUOUS
 62
     7
 10
115.107412099838
 20
89.7519054681055
 30
0.0
 11
115.107412099838
 21
97.478750364061
 31
0.0
  0
LINE
  5
    70
  8
0
  6
CONTINUOUS
 62
     7
 10
69.5074102878571
 20
89.7519054681055
 30
0.0
 11
69.5074102878571
 21
97.478750364061
 31
0.0
  0
LINE
  5
    71
  8
0
  6
CONTINUOUS
 62
     7
 10
115.107412099838
 20
95.478750364061
 30
0.0
 11
69.5074102878571
 21
95.478750364061
 31
0.0
  0
LINE
  5
    72
  8
0
  6
CONTINUOUS
 62
     7
 10
112.209634626628
 20
94.7022932076425
 30
0.0
 11
115.107412099838
 21
95.478750364061
 31
0.0
  0
LINE
  5
    73
  8
0
  6
CONTINUOUS
 62
     7
 10
115.107412099838
 20
95.478750364061
 30
0.0
 11
112.209634626628
 21
96.2552075204796
 31
0.0
  0
LINE
  5
    74
  8
0
  6
CONTINUOUS
 62
     7
 10
72.4051877610676
 20
96.2552075204796
 30
0.0
 11
69.5074102878571
 21
95.478750364061
 31
0.0
  0
LINE
  5
    75
  8
0
  6
CONTINUOUS
 62
     7
 10
69.5074102878571
 20
95.478750364061
 30
0.0
 11
72.4051877610676
 21
94.7022932076425
 31
0.0
  0
ENDBLK
  5
    76
  8
0
  6
CONTINUOUS
 62
     7
  0
BLOCK
  5
    77
  8
0
  6
CONTINUOUS
 62
     7
  2
*UDIM539
 70
    65
 10
0.0
 20
0.0
 30
0.0
  3
*UDIM539
  0
TEXT
  5
    78
  8
0
  6
CONTINUOUS
 62
     7
 10
93.4465822745438
 20
141.276637998157
 30
0.0
 40
2.99999994039535
  1
23
 50
359.999999948034
 41
0.933333333333333
 72
     1
 11
95.9465822262261
 21
142.776637966099
 31
0.0
 73
     2
  0
LINE
  5
    79
  8
0
  6
CONTINUOUS
 62
     7
 10
99.2073020631083
 20
151.126807851095
 30
0.0
 11
99.2073020631083
 21
138.276637995902
 31
0.0
  0
LINE
  5
    7A
  8
0
  6
CONTINUOUS
 62
     7
 10
104.207302063108
 20
140.276637995902
 30
0.0
 11
87.3074111938477
 21
140.276637995902
 31
0.0
  0
LINE
  5
    7B
  8
0
  6
CONTINUOUS
 62
     7
 10
102.105079536319
 20
141.05309515232
 30
0.0
 11
99.2073020631083
 21
140.276637995902
 31
0.0
  0
LINE
  5
    7C
  8
0
  6
CONTINUOUS
 62
     7
 10
99.2073020631083
 20
140.276637995902
 30
0.0
 11
102.105079536319
 21
139.500180839483
 31
0.0
  0
LINE
  5
    7D
  8
0
  6
CONTINUOUS
 62
     7
 10
89.4096337206371
 20
139.500180839483
 30
0.0
 11
92.3074111938477
 21
140.276637995902
 31
0.0
  0
LINE
  5
    7E
  8
0
  6
CONTINUOUS
 62
     7
 10
92.3074111938477
 20
140.276637995902
 30
0.0
 11
89.4096337206371
 21
141.05309515232
 31
0.0
  0
ENDBLK
  5
    7F
  8
0
  6
CONTINUOUS
 62
     7
  0
BLOCK
  5
    80
  8
0
  6
CONTINUOUS
 62
     7
  2
*UDIM540
 70
    65
 10
0.0
 20
0.0
 30
0.0
  3
*UDIM540
  0
TEXT
  5
    81
  8
0
  6
CONTINUOUS
 62
     7
 10
78.9438147753455
 20
175.49807287972
 30
0.0
 40
2.99999994039535
  1
22,5
 50
359.999999948034
 41
0.933333333333333
 72
     1
 11
84.2438146713968
 21
176.998072845138
 31
0.0
 73
     2
  0
LINE
  5
    82
  8
0
  6
CONTINUOUS
 62
     7
 10
99.2073020631083
 20
158.226808053252
 30
0.0
 11
99.2073020631083
 21
176.49807287494
 31
0.0
  0
LINE
  5
    83
  8
0
  6
CONTINUOUS
 62
     7
 10
92.4572851403522
 20
158.226786304377
 30
0.0
 11
92.4572851403522
 21
176.49807287494
 31
0.0
  0
LINE
  5
    84
  8
0
  6
CONTINUOUS
 62
     7
 10
99.2073020631083
 20
174.49807287494
 30
0.0
 11
78.9438147766984
 21
174.49807287494
 31
0.0
  0
LINE
  5
    85
  8
0
  6
CONTINUOUS
 62
     7
 10
102.105079536319
 20
175.274530031359
 30
0.0
 11
99.2073020631083
 21
174.49807287494
 31
0.0
  0
LINE
  5
    86
  8
0
  6
CONTINUOUS
 62
     7
 10
99.2073020631083
 20
174.49807287494
 30
0.0
 11
102.105079536319
 21
173.721615718522
 31
0.0
  0
LINE
  5
    87
  8
0
  6
CONTINUOUS
 62
     7
 10
89.5595076671416
 20
173.721615718522
 30
0.0
 11
92.4572851403522
 21
174.49807287494
 31
0.0
  0
LINE
  5
    88
  8
0
  6
CONTINUOUS
 62
     7
 10
92.4572851403522
 20
174.49807287494
 30
0.0
 11
89.5595076671416
 21
175.274530031359
 31
0.0
  0
ENDBLK
  5
    89
  8
0
  6
CONTINUOUS
 62
     7
  0
BLOCK
  5
    8A
  8
0
  6
CONTINUOUS
 62
     7
  2
*UDIM541
 70
    65
 10
0.0
 20
0.0
 30
0.0
  3
*UDIM541
  0
TEXT
  5
    8B
  8
0
  6
CONTINUOUS
 62
     7
 10
108.866051534679
 20
175.49807287972
 30
0.0
 40
2.99999994039535
  1
22,5
 50
359.999999948034
 41
0.933333333333333
 72
     1
 11
114.166051430731
 21
176.998072845138
 31
0.0
 73
     2
  0
LINE
  5
    8C
  8
0
  6
CONTINUOUS
 62
     7
 10
105.957311779615
 20
158.226817208555
 30
0.0
 11
105.957311779615
 21
176.49807287494
 31
0.0
  0
LINE
  5
    8D
  8
0
  6
CONTINUOUS
 62
     7
 10
119.466051325429
 20
174.49807287494
 30
0.0
 11
99.2073020631083
 21
174.49807287494
 31
0.0
  0
LINE
  5
    8E
  8
0
  6
CONTINUOUS
 62
     7
 10
108.855089252826
 20
175.274530031359
 30
0.0
 11
105.957311779615
 21
174.49807287494
 31
0.0
  0
LINE
  5
    8F
  8
0
  6
CONTINUOUS
 62
     7
 10
105.957311779615
 20
174.49807287494
 30
0.0
 11
108.855089252826
 21
173.721615718522
 31
0.0
  0
CIRCLE
  5
    90
  8
0
  6
CONTINUOUS
 62
     7
 10
99.2073020631083
 20
174.49807287494
 30
0.0
 40
0.5
  0
ENDBLK
  5
    91
  8
0
  6
CONTINUOUS
 62
     7
  0
BLOCK
  5
    92
  8
0
  6
CONTINUOUS
 62
     7
  2
*UDIM542
 70
    65
 10
0.0
 20
0.0
 30
0.0
  3
*UDIM542
  0
TEXT
  5
    93
  8
0
  6
CONTINUOUS
 62
     7
 10
128.111272929402
 20
167.904765190425
 30
0.0
 40
2.99999994039535
  1
90
 50
359.999999948034
 41
0.933333333333333
 72
     1
 11
130.611272881084
 21
169.404765158368
 31
0.0
 73
     2
  0
LINE
  5
    94
  8
0
  6
CONTINUOUS
 62
     7
 10
120.507279908953
 20
161.676817348303
 30
0.0
 11
120.507265866456
 21
168.904745557996
 31
0.0
  0
LINE
  5
    95
  8
0
  6
CONTINUOUS
 62
     7
 10
147.50742871931
 20
161.676844811434
 30
0.0
 11
147.507414676765
 21
168.904798014174
 31
0.0
  0
LINE
  5
    96
  8
0
  6
CONTINUOUS
 62
     7
 10
120.507269752078
 20
166.904745558
 30
0.0
 11
147.507418562386
 21
166.904798014178
 31
0.0
  0
LINE
  5
    97
  8
0
  6
CONTINUOUS
 62
     7
 10
123.405045716773
 20
167.68120834425
 30
0.0
 11
120.507269752078
 21
166.904745558
 31
0.0
  0
LINE
  5
    98
  8
0
  6
CONTINUOUS
 62
     7
 10
120.507269752078
 20
166.904745558
 30
0.0
 11
123.405048733792
 21
166.128294031416
 31
0.0
  0
LINE
  5
    99
  8
0
  6
CONTINUOUS
 62
     7
 10
144.609642597691
 20
166.128335227928
 30
0.0
 11
147.507418562386
 21
166.904798014178
 31
0.0
  0
LINE
  5
    9A
  8
0
  6
CONTINUOUS
 62
     7
 10
147.507418562386
 20
166.904798014178
 30
0.0
 11
144.609639580672
 21
167.681249540762
 31
0.0
  0
ENDBLK
  5
    9B
  8
0
  6
CONTINUOUS
 62
     7
  0
BLOCK
  5
    9C
  8
0
  6
CONTINUOUS
 62
     7
  2
*UDIM543
 70
    65
 10
0.0
 20
0.0
 30
0.0
  3
*UDIM543
  0
TEXT
  5
    9D
  8
0
  6
CONTINUOUS
 62
     7
 10
138.257368604883
 20
183.553193231032
 30
0.0
 40
2.99999994039535
  1
45
 50
359.999999948034
 41
0.933333333333333
 72
     1
 11
140.757368556565
 21
185.053193198975
 31
0.0
 73
     2
  0
LINE
  5
    9E
  8
0
  6
CONTINUOUS
 62
     7
 10
147.507430662121
 20
161.676844811436
 30
0.0
 11
147.507430662121
 21
184.553193228777
 31
0.0
  0
LINE
  5
    9F
  8
0
  6
CONTINUOUS
 62
     7
 10
134.00730645101
 20
158.226853829623
 30
0.0
 11
134.00730645101
 21
184.553193228777
 31
0.0
  0
LINE
  5
    A0
  8
0
  6
CONTINUOUS
 62
     7
 10
152.507430662121
 20
182.553193228777
 30
0.0
 11
134.00730645101
 21
182.553193228777
 31
0.0
  0
LINE
  5
    A1
  8
0
  6
CONTINUOUS
 62
     7
 10
150.405208135331
 20
183.329650385195
 30
0.0
 11
147.507430662121
 21
182.553193228777
 31
0.0
  0
LINE
  5
    A2
  8
0
  6
CONTINUOUS
 62
     7
 10
147.507430662121
 20
182.553193228777
 30
0.0
 11
150.405208135331
 21
181.776736072358
 31
0.0
  0
LINE
  5
    A3
  8
0
  6
CONTINUOUS
 62
     7
 10
131.109528977799
 20
181.776736072358
 30
0.0
 11
134.00730645101
 21
182.553193228777
 31
0.0
  0
LINE
  5
    A4
  8
0
  6
CONTINUOUS
 62
     7
 10
134.00730645101
 20
182.553193228777
 30
0.0
 11
131.109528977799
 21
183.329650385195
 31
0.0
  0
ENDBLK
  5
    A5
  8
0
  6
CONTINUOUS
 62
     7
  0
BLOCK
  5
    A6
  8
0
  6
CONTINUOUS
 62
     7
  2
*UDIM544
 70
    65
 10
0.0
 20
0.0
 30
0.0
  3
*UDIM544
  0
TEXT
  5
    A7
  8
0
  6
CONTINUOUS
 62
     7
 10
112.707304333192
 20
183.553193232294
 30
0.0
 40
2.99999994039535
  1
116
 50
359.999999948034
 41
0.933333333333333
 72
     1
 11
116.607304257059
 21
185.053193198975
 31
0.0
 73
     2
  0
LINE
  5
    A8
  8
0
  6
CONTINUOUS
 62
     7
 10
99.2073020631083
 20
158.226808053252
 30
0.0
 11
99.2073020631083
 21
184.553193228777
 31
0.0
  0
LINE
  5
    A9
  8
0
  6
CONTINUOUS
 62
     7
 10
134.00730645101
 20
182.553193228777
 30
0.0
 11
99.2073020631083
 21
182.553193228777
 31
0.0
  0
LINE
  5
    AA
  8
0
  6
CONTINUOUS
 62
     7
 10
131.109528977799
 20
181.776736072358
 30
0.0
 11
134.00730645101
 21
182.553193228777
 31
0.0
  0
LINE
  5
    AB
  8
0
  6
CONTINUOUS
 62
     7
 10
134.00730645101
 20
182.553193228777
 30
0.0
 11
131.109528977799
 21
183.329650385195
 31
0.0
  0
LINE
  5
    AC
  8
0
  6
CONTINUOUS
 62
     7
 10
102.105079536319
 20
183.329650385195
 30
0.0
 11
99.2073020631083
 21
182.553193228777
 31
0.0
  0
LINE
  5
    AD
  8
0
  6
CONTINUOUS
 62
     7
 10
99.2073020631083
 20
182.553193228777
 30
0.0
 11
102.105079536319
 21
181.776736072358
 31
0.0
  0
ENDBLK
  5
    AE
  8
0
  6
CONTINUOUS
 62
     7
  0
BLOCK
  5
    AF
  8
0
  6
CONTINUOUS
 62
     7
  2
*UDIM545
 70
    65
 10
0.0
 20
0.0
 30
0.0
  3
*UDIM545
  0
TEXT
  5
    B0
  8
0
  6
CONTINUOUS
 62
     7
 10
77.9073538614697
 20
183.553193232294
 30
0.0
 40
2.99999994039535
  1
116
 50
359.999999948034
 41
0.933333333333333
 72
     1
 11
81.8073537853366
 21
185.053193198975
 31
0.0
 73
     2
  0
LINE
  5
    B1
  8
0
  6
CONTINUOUS
 62
     7
 10
64.4074055075649
 20
158.226780587429
 30
0.0
 11
64.4074055075649
 21
184.553193228777
 31
0.0
  0
LINE
  5
    B2
  8
0
  6
CONTINUOUS
 62
     7
 10
99.2073020631083
 20
182.553193228777
 30
0.0
 11
64.4074055075649
 21
182.553193228777
 31
0.0
  0
LINE
  5
    B3
  8
0
  6
CONTINUOUS
 62
     7
 10
96.3095245898977
 20
181.776736072358
 30
0.0
 11
99.2073020631083
 21
182.553193228777
 31
0.0
  0
LINE
  5
    B4
  8
0
  6
CONTINUOUS
 62
     7
 10
99.2073020631083
 20
182.553193228777
 30
0.0
 11
96.3095245898977
 21
183.329650385195
 31
0.0
  0
LINE
  5
    B5
  8
0
  6
CONTINUOUS
 62
     7
 10
67.3051829807754
 20
183.329650385195
 30
0.0
 11
64.4074055075649
 21
182.553193228777
 31
0.0
  0
LINE
  5
    B6
  8
0
  6
CONTINUOUS
 62
     7
 10
64.4074055075649
 20
182.553193228777
 30
0.0
 11
67.3051829807754
 21
181.776736072358
 31
0.0
  0
ENDBLK
  5
    B7
  8
0
  6
CONTINUOUS
 62
     7
  0
BLOCK
  5
    B8
  8
0
  6
CONTINUOUS
 62
     7
  2
*UDIM546
 70
    65
 10
0.0
 20
0.0
 30
0.0
  3
*UDIM546
  0
TEXT
  5
    B9
  8
0
  6
CONTINUOUS
 62
     7
 10
55.1574266943215
 20
183.553193231032
 30
0.0
 40
2.99999994039535
  1
45
 50
359.999999948034
 41
0.933333333333333
 72
     1
 11
57.6574266460039
 21
185.053193198975
 31
0.0
 73
     2
  0
LINE
  5
    BA
  8
0
  6
CONTINUOUS
 62
     7
 10
50.9074477844429
 20
161.676771569246
 30
0.0
 11
50.9074477844429
 21
184.553193228777
 31
0.0
  0
LINE
  5
    BB
  8
0
  6
CONTINUOUS
 62
     7
 10
64.4074055075649
 20
182.553193228777
 30
0.0
 11
45.9074477844429
 21
182.553193228777
 31
0.0
  0
LINE
  5
    BC
  8
0
  6
CONTINUOUS
 62
     7
 10
67.3051829807754
 20
183.329650385195
 30
0.0
 11
64.4074055075649
 21
182.553193228777
 31
0.0
  0
LINE
  5
    BD
  8
0
  6
CONTINUOUS
 62
     7
 10
64.4074055075649
 20
182.553193228777
 30
0.0
 11
67.3051829807754
 21
181.776736072358
 31
0.0
  0
LINE
  5
    BE
  8
0
  6
CONTINUOUS
 62
     7
 10
48.0096703112324
 20
181.776736072358
 30
0.0
 11
50.9074477844429
 21
182.553193228777
 31
0.0
  0
LINE
  5
    BF
  8
0
  6
CONTINUOUS
 62
     7
 10
50.9074477844429
 20
182.553193228777
 30
0.0
 11
48.0096703112324
 21
183.329650385195
 31
0.0
  0
ENDBLK
  5
    C0
  8
0
  6
CONTINUOUS
 62
     7
  0
BLOCK
  5
    C1
  8
0
  6
CONTINUOUS
 62
     7
  2
*UDIM547
 70
    65
 10
0.0
 20
0.0
 30
0.0
  3
*UDIM547
  0
TEXT
  5
    C2
  8
0
  6
CONTINUOUS
 62
     7
 10
41.7099947713632
 20
141.476788656065
 30
0.0
 40
2.99999994039535
  1
102
 50
89.9999999480344
 41
0.933333333333333
 72
     1
 11
40.2099948046978
 21
145.376788579938
 31
0.0
 73
     2
  0
LINE
  5
    C3
  8
0
  6
CONTINUOUS
 62
     7
 10
60.2574294226701
 20
130.076791552548
 30
0.0
 11
40.7099947748955
 21
130.076791552548
 31
0.0
  0
LINE
  5
    C4
  8
0
  6
CONTINUOUS
 62
     7
 10
49.9073775053012
 20
160.676785607328
 30
0.0
 11
40.7099947748955
 21
160.676785607328
 31
0.0
  0
LINE
  5
    C5
  8
0
  6
CONTINUOUS
 62
     7
 10
42.7099947748955
 20
130.076791552548
 30
0.0
 11
42.7099947748955
 21
160.676785607328
 31
0.0
  0
LINE
  5
    C6
  8
0
  6
CONTINUOUS
 62
     7
 10
41.9335376184769
 20
132.974569025758
 30
0.0
 11
42.7099947748955
 21
130.076791552548
 31
0.0
  0
LINE
  5
    C7
  8
0
  6
CONTINUOUS
 62
     7
 10
42.7099947748955
 20
130.076791552548
 30
0.0
 11
43.486451931314
 21
132.974569025758
 31
0.0
  0
LINE
  5
    C8
  8
0
  6
CONTINUOUS
 62
     7
 10
43.486451931314
 20
157.779008134118
 30
0.0
 11
42.7099947748955
 21
160.676785607328
 31
0.0
  0
LINE
  5
    C9
  8
0
  6
CONTINUOUS
 62
     7
 10
42.7099947748955
 20
160.676785607328
 30
0.0
 11
41.9335376184769
 21
157.779008134118
 31
0.0
  0
ENDBLK
  5
    CA
  8
0
  6
CONTINUOUS
 62
     7
  0
BLOCK
  5
    CB
  8
0
  6
CONTINUOUS
 62
     7
  2
*UDIM548
 70
    65
 10
0.0
 20
0.0
 30
0.0
  3
*UDIM548
  0
TEXT
  5
    CC
  8
0
  6
CONTINUOUS
 62
     7
 10
41.7099947713632
 20
65.2768584947478
 30
0.0
 40
2.99999994039535
  1
406
 50
89.9999999480344
 41
0.933333333333333
 72
     1
 11
40.2099948046978
 21
69.1768584186203
 31
0.0
 73
     2
  0
LINE
  5
    CD
  8
0
  6
CONTINUOUS
 62
     7
 10
59.8074242446266
 20
8.276925284693
 30
0.0
 11
40.7099947748955
 21
8.276925284693
 31
0.0
  0
LINE
  5
    CE
  8
0
  6
CONTINUOUS
 62
     7
 10
42.7099947748955
 20
8.276925284693
 30
0.0
 11
42.7099947748955
 21
130.076791552548
 31
0.0
  0
LINE
  5
    CF
  8
0
  6
CONTINUOUS
 62
     7
 10
41.9335376184769
 20
11.1747027579035
 30
0.0
 11
42.7099947748955
 21
8.276925284693
 31
0.0
  0
LINE
  5
    D0
  8
0
  6
CONTINUOUS
 62
     7
 10
42.7099947748955
 20
8.276925284693
 30
0.0
 11
43.486451931314
 21
11.1747027579035
 31
0.0
  0
LINE
  5
    D1
  8
0
  6
CONTINUOUS
 62
     7
 10
43.486451931314
 20
127.179014079337
 30
0.0
 11
42.7099947748955
 21
130.076791552548
 31
0.0
  0
LINE
  5
    D2
  8
0
  6
CONTINUOUS
 62
     7
 10
42.7099947748955
 20
130.076791552548
 30
0.0
 11
41.9335376184769
 21
127.179014079337
 31
0.0
  0
ENDBLK
  5
    D3
  8
0
  6
CONTINUOUS
 62
     7
  0
BLOCK
  5
    D4
  8
0
  6
CONTINUOUS
 62
     7
  2
*UDIM549
 70
    65
 10
0.0
 20
0.0
 30
0.0
  3
*UDIM549
  0
TEXT
  5
    D5
  8
0
  6
CONTINUOUS
 62
     7
 10
41.7099947713632
 20
-10.9230484224507
 30
0.0
 40
2.99999994039535
  1
102
 50
89.9999999480344
 41
0.933333333333333
 72
     1
 11
40.2099948046978
 21
-7.02304849857821
 31
0.0
 73
     2
  0
LINE
  5
    D6
  8
0
  6
CONTINUOUS
 62
     7
 10
49.9073439452698
 20
-22.3230222818494
 30
0.0
 11
40.7099947748955
 21
-22.3230222818494
 31
0.0
  0
LINE
  5
    D7
  8
0
  6
CONTINUOUS
 62
     7
 10
42.7099947748955
 20
-22.3230222818494
 30
0.0
 11
42.7099947748955
 21
8.276925284693
 31
0.0
  0
LINE
  5
    D8
  8
0
  6
CONTINUOUS
 62
     7
 10
41.9335376184769
 20
-19.4252448086389
 30
0.0
 11
42.7099947748955
 21
-22.3230222818494
 31
0.0
  0
LINE
  5
    D9
  8
0
  6
CONTINUOUS
 62
     7
 10
42.7099947748955
 20
-22.3230222818494
 30
0.0
 11
43.486451931314
 21
-19.4252448086389
 31
0.0
  0
LINE
  5
    DA
  8
0
  6
CONTINUOUS
 62
     7
 10
43.486451931314
 20
5.37914781148246
 30
0.0
 11
42.7099947748955
 21
8.276925284693
 31
0.0
  0
LINE
  5
    DB
  8
0
  6
CONTINUOUS
 62
     7
 10
42.7099947748955
 20
8.276925284693
 30
0.0
 11
41.9335376184769
 21
5.37914781148246
 31
0.0
  0
ENDBLK
  5
    DC
  8
0
  6
CONTINUOUS
 62
     7
  0
BLOCK
  5
    DD
  8
0
  6
CONTINUOUS
 62
     7
  2
*UDIM550
 70
    65
 10
0.0
 20
0.0
 30
0.0
  3
*UDIM550
  0
TEXT
  5
    DE
  8
0
  6
CONTINUOUS
 62
     7
 10
53.3574192828367
 20
-38.4756814901657
 30
0.0
 40
2.99999994039535
  1
33
 50
359.999999948034
 41
0.933333333333333
 72
     1
 11
55.8574192345191
 21
-36.9756815222229
 31
0.0
 73
     2
  0
LINE
  5
    DF
  8
0
  6
CONTINUOUS
 62
     7
 10
60.8074242446266
 20
7.27692528469299
 30
0.0
 11
60.8074242446266
 21
-41.4756814924206
 31
0.0
  0
LINE
  5
    E0
  8
0
  6
CONTINUOUS
 62
     7
 10
50.9074142244116
 20
-23.3230082437671
 30
0.0
 11
50.9074142244116
 21
-41.4756814924206
 31
0.0
  0
LINE
  5
    E1
  8
0
  6
CONTINUOUS
 62
     7
 10
60.8074242446266
 20
-39.4756814924206
 30
0.0
 11
45.9074142244115
 21
-39.4756814924206
 31
0.0
  0
LINE
  5
    E2
  8
0
  6
CONTINUOUS
 62
     7
 10
63.7052017178371
 20
-38.699224336002
 30
0.0
 11
60.8074242446266
 21
-39.4756814924206
 31
0.0
  0
LINE
  5
    E3
  8
0
  6
CONTINUOUS
 62
     7
 10
60.8074242446266
 20
-39.4756814924206
 30
0.0
 11
63.7052017178371
 21
-40.2521386488391
 31
0.0
  0
LINE
  5
    E4
  8
0
  6
CONTINUOUS
 62
     7
 10
48.009636751201
 20
-40.2521386488391
 30
0.0
 11
50.9074142244116
 21
-39.4756814924206
 31
0.0
  0
LINE
  5
    E5
  8
0
  6
CONTINUOUS
 62
     7
 10
50.9074142244116
 20
-39.4756814924206
 30
0.0
 11
48.009636751201
 21
-38.699224336002
 31
0.0
  0
ENDBLK
  5
    E6
  8
0
  6
CONTINUOUS
 62
     7
  0
BLOCK
  5
    E7
  8
0
  6
CONTINUOUS
 62
     7
  2
*UDIM551
 70
    65
 10
0.0
 20
0.0
 30
0.0
  3
*UDIM551
  0
TEXT
  5
    E8
  8
0
  6
CONTINUOUS
 62
     7
 10
88.4074112699808
 20
-38.475681488903
 30
0.0
 40
2.99999994039535
  1
210
 50
359.999999948034
 41
0.933333333333333
 72
     1
 11
92.3074111938477
 21
-36.9756815222229
 31
0.0
 73
     2
  0
LINE
  5
    E9
  8
0
  6
CONTINUOUS
 62
     7
 10
123.807398143069
 20
7.27692528469299
 30
0.0
 11
123.807398143069
 21
-41.4756814924206
 31
0.0
  0
LINE
  5
    EA
  8
0
  6
CONTINUOUS
 62
     7
 10
123.807398143069
 20
-39.4756814924206
 30
0.0
 11
60.8074242446266
 21
-39.4756814924206
 31
0.0
  0
LINE
  5
    EB
  8
0
  6
CONTINUOUS
 62
     7
 10
120.909620669858
 20
-40.2521386488391
 30
0.0
 11
123.807398143069
 21
-39.4756814924206
 31
0.0
  0
LINE
  5
    EC
  8
0
  6
CONTINUOUS
 62
     7
 10
123.807398143069
 20
-39.4756814924206
 30
0.0
 11
120.909620669858
 21
-38.699224336002
 31
0.0
  0
LINE
  5
    ED
  8
0
  6
CONTINUOUS
 62
     7
 10
63.7052017178371
 20
-38.699224336002
 30
0.0
 11
60.8074242446266
 21
-39.4756814924206
 31
0.0
  0
LINE
  5
    EE
  8
0
  6
CONTINUOUS
 62
     7
 10
60.8074242446266
 20
-39.4756814924206
 30
0.0
 11
63.7052017178371
 21
-40.2521386488391
 31
0.0
  0
ENDBLK
  5
    EF
  8
0
  6
CONTINUOUS
 62
     7
  0
BLOCK
  5
    F0
  8
0
  6
CONTINUOUS
 62
     7
  2
*UDIM552
 70
    65
 10
0.0
 20
0.0
 30
0.0
  3
*UDIM552
  0
TEXT
  5
    F1
  8
0
  6
CONTINUOUS
 62
     7
 10
133.157397670897
 20
-38.4756814901657
 30
0.0
 40
2.99999994039535
  1
79
 50
359.999999948034
 41
0.933333333333333
 72
     1
 11
135.657397622579
 21
-36.9756815222229
 31
0.0
 73
     2
  0
LINE
  5
    F2
  8
0
  6
CONTINUOUS
 62
     7
 10
147.507397102089
 20
-23.3230814859575
 30
0.0
 11
147.507397102089
 21
-41.4756814924206
 31
0.0
  0
LINE
  5
    F3
  8
0
  6
CONTINUOUS
 62
     7
 10
147.507397102089
 20
-39.4756814924206
 30
0.0
 11
123.807398143069
 21
-39.4756814924206
 31
0.0
  0
LINE
  5
    F4
  8
0
  6
CONTINUOUS
 62
     7
 10
144.609619628879
 20
-40.2521386488391
 30
0.0
 11
147.507397102089
 21
-39.4756814924206
 31
0.0
  0
LINE
  5
    F5
  8
0
  6
CONTINUOUS
 62
     7
 10
147.507397102089
 20
-39.4756814924206
 30
0.0
 11
144.609619628879
 21
-38.699224336002
 31
0.0
  0
LINE
  5
    F6
  8
0
  6
CONTINUOUS
 62
     7
 10
126.705175616279
 20
-38.699224336002
 30
0.0
 11
123.807398143069
 21
-39.4756814924206
 31
0.0
  0
LINE
  5
    F7
  8
0
  6
CONTINUOUS
 62
     7
 10
123.807398143069
 20
-39.4756814924206
 30
0.0
 11
126.705175616279
 21
-40.2521386488391
 31
0.0
  0
ENDBLK
  5
    F8
  8
0
  6
CONTINUOUS
 62
     7
  0
BLOCK
  5
    F9
  8
0
  6
CONTINUOUS
 62
     7
  2
*UDIM553
 70
    65
 10
0.0
 20
0.0
 30
0.0
  3
*UDIM553
  0
TEXT
  5
    FA
  8
0
  6
CONTINUOUS
 62
     7
 10
159.535483783303
 20
105.926885603638
 30
0.0
 40
2.99999994039535
  1
299
 50
89.9999999480344
 41
0.933333333333333
 72
     1
 11
158.035483816637
 21
109.82688552751
 31
0.0
 73
     2
  0
LINE
  5
    FB
  8
0
  6
CONTINUOUS
 62
     7
 10
145.161130639821
 20
64.9769050955765
 30
0.0
 11
162.535483786835
 21
64.9769050955765
 31
0.0
  0
LINE
  5
    FC
  8
0
  6
CONTINUOUS
 62
     7
 10
144.307287662529
 20
154.676865959444
 30
0.0
 11
162.535483786835
 21
154.676865959444
 31
0.0
  0
LINE
  5
    FD
  8
0
  6
CONTINUOUS
 62
     7
 10
160.535483786835
 20
64.9769050955765
 30
0.0
 11
160.535483786835
 21
154.676865959444
 31
0.0
  0
LINE
  5
    FE
  8
0
  6
CONTINUOUS
 62
     7
 10
159.759026630416
 20
67.8746825687871
 30
0.0
 11
160.535483786835
 21
64.9769050955765
 31
0.0
  0
LINE
  5
    FF
  8
0
  6
CONTINUOUS
 62
     7
 10
160.535483786835
 20
64.9769050955765
 30
0.0
 11
161.311940943253
 21
67.8746825687871
 31
0.0
  0
LINE
  5
   100
  8
0
  6
CONTINUOUS
 62
     7
 10
161.311940943253
 20
151.779088486233
 30
0.0
 11
160.535483786835
 21
154.676865959444
 31
0.0
  0
LINE
  5
   101
  8
0
  6
CONTINUOUS
 62
     7
 10
160.535483786835
 20
154.676865959444
 30
0.0
 11
159.759026630416
 21
151.779088486233
 31
0.0
  0
ENDBLK
  5
   102
  8
0
  6
CONTINUOUS
 62
     7
  0
BLOCK
  5
   103
  8
0
  6
CONTINUOUS
 62
     7
  2
*UDIM554
 70
    65
 10
0.0
 20
0.0
 30
0.0
  3
*UDIM554
  0
TEXT
  5
   104
  8
0
  6
CONTINUOUS
 62
     7
 10
167.410971099137
 20
165.846902731353
 30
0.0
 40
2.99999994039535
  1
20
 50
89.9999999480344
 41
0.933333333333333
 72
     1
 11
165.910971131204
 21
168.346902683041
 31
0.0
 73
     2
  0
LINE
  5
   105
  8
0
  6
CONTINUOUS
 62
     7
 10
144.307287662528
 20
154.676866976695
 30
0.0
 11
170.410985007236
 21
154.676893530706
 31
0.0
  0
LINE
  5
   106
  8
0
  6
CONTINUOUS
 62
     7
 10
148.507326313376
 20
160.676845828687
 30
0.0
 11
170.410978903756
 21
160.676868110199
 31
0.0
  0
LINE
  5
   107
  8
0
  6
CONTINUOUS
 62
     7
 10
168.410985007238
 20
154.676891496204
 30
0.0
 11
168.410968558272
 21
170.846905176497
 31
0.0
  0
LINE
  5
   108
  8
0
  6
CONTINUOUS
 62
     7
 10
169.187445111424
 20
151.779114812847
 30
0.0
 11
168.410985007238
 21
154.676891496204
 31
0.0
  0
LINE
  5
   109
  8
0
  6
CONTINUOUS
 62
     7
 10
168.410985007238
 20
154.676891496204
 30
0.0
 11
167.634530798588
 21
151.779113233143
 31
0.0
  0
LINE
  5
   10A
  8
0
  6
CONTINUOUS
 62
     7
 10
167.634518799571
 20
163.574642759054
 30
0.0
 11
168.410978903757
 21
160.676866075697
 31
0.0
  0
LINE
  5
   10B
  8
0
  6
CONTINUOUS
 62
     7
 10
168.410978903757
 20
160.676866075697
 30
0.0
 11
169.187433112407
 21
163.574644338758
 31
0.0
  0
ENDBLK
  5
   10C
  8
0
  6
CONTINUOUS
 62
     7
  0
BLOCK
  5
   10D
  8
0
  6
CONTINUOUS
 62
     7
  2
*UDIM555
 70
    65
 10
0.0
 20
0.0
 30
0.0
  3
*UDIM555
  0
TEXT
  5
   10E
  8
0
  6
CONTINUOUS
 62
     7
 10
167.411071978648
 20
65.2769047326051
 30
0.0
 40
2.99999994039535
  1
570
 50
89.9999999480344
 41
0.933333333333333
 72
     1
 11
165.911072011983
 21
69.1769046564776
 31
0.0
 73
     2
  0
LINE
  5
   10F
  8
0
  6
CONTINUOUS
 62
     7
 10
144.307254102497
 20
-16.3231016167141
 30
0.0
 11
170.411158957118
 21
-16.323075062492
 31
0.0
  0
LINE
  5
   110
  8
0
  6
CONTINUOUS
 62
     7
 10
168.41115895712
 20
-16.3230770969939
 30
0.0
 11
168.410985007238
 21
154.676891496204
 31
0.0
  0
LINE
  5
   111
  8
0
  6
CONTINUOUS
 62
     7
 10
167.634698852935
 20
-13.4253004136367
 30
0.0
 11
168.41115895712
 21
-16.3230770969939
 31
0.0
  0
LINE
  5
   112
  8
0
  6
CONTINUOUS
 62
     7
 10
168.41115895712
 20
-16.3230770969939
 30
0.0
 11
169.187613165771
 21
-13.4252988339331
 31
0.0
  0
LINE
  5
   113
  8
0
  6
CONTINUOUS
 62
     7
 10
169.187445111423
 20
151.779114812847
 30
0.0
 11
168.410985007238
 21
154.676891496204
 31
0.0
  0
LINE
  5
   114
  8
0
  6
CONTINUOUS
 62
     7
 10
168.410985007238
 20
154.676891496204
 30
0.0
 11
167.634530798587
 21
151.779113233143
 31
0.0
  0
ENDBLK
  5
   115
  8
0
  6
CONTINUOUS
 62
     7
  0
BLOCK
  5
   116
  8
0
  6
CONTINUOUS
 62
     7
  2
*UDIM556
 70
    65
 10
0.0
 20
0.0
 30
0.0
  3
*UDIM556
  0
TEXT
  5
   117
  8
0
  6
CONTINUOUS
 62
     7
 10
167.411174237732
 20
-33.846781501207
 30
0.0
 40
2.99999994039535
  1
20
 50
89.9999999480344
 41
0.933333333333333
 72
     1
 11
165.911174269799
 21
-31.346781549519
 31
0.0
 73
     2
  0
LINE
  5
   118
  8
0
  6
CONTINUOUS
 62
     7
 10
148.507292818753
 20
-22.3230804687066
 30
0.0
 11
170.411165060608
 21
-22.3230581869717
 31
0.0
  0
LINE
  5
   119
  8
0
  6
CONTINUOUS
 62
     7
 10
168.411176783123
 20
-33.8467789567198
 30
0.0
 11
168.41115895712
 21
-16.3230770969939
 31
0.0
  0
LINE
  5
   11A
  8
0
  6
CONTINUOUS
 62
     7
 10
169.187625164794
 20
-25.2208369048309
 30
0.0
 11
168.411165060609
 21
-22.3230602214736
 31
0.0
  0
LINE
  5
   11B
  8
0
  6
CONTINUOUS
 62
     7
 10
168.411165060609
 20
-22.3230602214736
 30
0.0
 11
167.634710851957
 21
-25.2208384845344
 31
0.0
  0
LINE
  5
   11C
  8
0
  6
CONTINUOUS
 62
     7
 10
167.634698852935
 20
-13.4253004136367
 30
0.0
 11
168.41115895712
 21
-16.3230770969939
 31
0.0
  0
LINE
  5
   11D
  8
0
  6
CONTINUOUS
 62
     7
 10
168.41115895712
 20
-16.3230770969939
 30
0.0
 11
169.187613165771
 21
-13.4252988339331
 31
0.0
  0
ENDBLK
  5
   11E
  8
0
  6
CONTINUOUS
 62
     7
  0
BLOCK
  5
   11F
  8
0
  6
CONTINUOUS
 62
     1
  2
*HATCH113
 70
    65
 10
0.0
 20
0.0
 30
0.0
  3
*HATCH113
  0
LINE
  5
   120
  8
0
  6
CONTINUOUS
 62
     3
 10
4.41387701034546
 20
206.999954223633
 30
0.0
 11
1.50000178813934
 21
204.08610534668
 31
0.0
  0
LINE
  5
   121
  8
0
  6
CONTINUOUS
 62
     3
 10
7.59585857391357
 20
206.999954223633
 30
0.0
 11
1.50000178813934
 21
200.904144287109
 31
0.0
  0
LINE
  5
   122
  8
0
  6
CONTINUOUS
 62
     3
 10
9.0
 20
205.222122192383
 30
0.0
 11
2.37348818778992
 21
198.595611572266
 31
0.0
  0
LINE
  5
   123
  8
0
  6
CONTINUOUS
 62
     3
 10
9.0
 20
202.040161132813
 30
0.0
 11
5.55546903610229
 21
198.595611572266
 31
0.0
  0
LINE
  5
   124
  8
0
  6
CONTINUOUS
 62
     3
 10
9.0
 20
198.858200073242
 30
0.0
 11
8.73744964599609
 21
198.595611572266
 31
0.0
  0
ENDBLK
  5
   125
  8
0
  6
CONTINUOUS
 62
     1
  0
BLOCK
  5
   126
  8
0
  6
CONTINUOUS
 62
     7
  2
*HATCH114
 70
    65
 10
0.0
 20
0.0
 30
0.0
  3
*HATCH114
  0
LINE
  5
   127
  8
0
  6
CONTINUOUS
 62
     3
 10
36.3696670532227
 20
213.499908447266
 30
0.0
 11
33.75
 21
210.880249023438
 31
0.0
  0
LINE
  5
   128
  8
0
  6
CONTINUOUS
 62
     3
 10
39.5516395568848
 20
213.499908447266
 30
0.0
 11
33.75
 21
207.698287963867
 31
0.0
  0
LINE
  5
   129
  8
0
  6
CONTINUOUS
 62
     3
 10
42.7336120605469
 20
213.499893188477
 30
0.0
 11
36.7336959838867
 21
207.499969482422
 31
0.0
  0
LINE
  5
   12A
  8
0
  6
CONTINUOUS
 62
     3
 10
45.915584564209
 20
213.499893188477
 30
0.0
 11
39.9156799316406
 21
207.499969482422
 31
0.0
  0
LINE
  5
   12B
  8
0
  6
CONTINUOUS
 62
     3
 10
49.0975570678711
 20
213.499893188477
 30
0.0
 11
43.0976638793945
 21
207.499969482422
 31
0.0
  0
ENDBLK
  5
   12C
  8
0
  6
CONTINUOUS
 62
     7
  0
BLOCK
  5
   12D
  8
0
  6
CONTINUOUS
 62
     7
  2
*HATCH115
 70
    65
 10
0.0
 20
0.0
 30
0.0
  3
*HATCH115
  0
LINE
  5
   12E
  8
0
  6
CONTINUOUS
 62
    52
 10
148.5
 20
226.988845825195
 30
0.0
 11
146.5
 21
224.988845825195
 31
0.0
  0
LINE
  5
   12F
  8
0
  6
CONTINUOUS
 62
    52
 10
148.5
 20
220.624877929688
 30
0.0
 11
146.5
 21
218.624877929688
 31
0.0
  0
LINE
  5
   130
  8
0
  6
CONTINUOUS
 62
    52
 10
148.5
 20
214.26091003418
 30
0.0
 11
146.5
 21
212.26091003418
 31
0.0
  0
LINE
  5
   131
  8
0
  6
CONTINUOUS
 62
    52
 10
148.5
 20
207.896942138672
 30
0.0
 11
146.5
 21
205.896942138672
 31
0.0
  0
LINE
  5
   132
  8
0
  6
CONTINUOUS
 62
    52
 10
148.5
 20
201.532974243164
 30
0.0
 11
146.5
 21
199.532974243164
 31
0.0
  0
LINE
  5
   133
  8
0
  6
CONTINUOUS
 62
    52
 10
148.5
 20
195.169006347656
 30
0.0
 11
146.5
 21
193.169006347656
 31
0.0
  0
LINE
  5
   134
  8
0
  6
CONTINUOUS
 62
    52
 10
148.5
 20
188.805038452148
 30
0.0
 11
146.5
 21
186.805038452148
 31
0.0
  0
LINE
  5
   135
  8
0
  6
CONTINUOUS
 62
    52
 10
148.5
 20
182.441070556641
 30
0.0
 11
146.5
 21
180.441070556641
 31
0.0
  0
LINE
  5
   136
  8
0
  6
CONTINUOUS
 62
    52
 10
148.5
 20
176.077102661133
 30
0.0
 11
146.5
 21
174.077102661133
 31
0.0
  0
LINE
  5
   137
  8
0
  6
CONTINUOUS
 62
    52
 10
148.5
 20
169.713134765625
 30
0.0
 11
146.5
 21
167.713134765625
 31
0.0
  0
LINE
  5
   138
  8
0
  6
CONTINUOUS
 62
    52
 10
148.5
 20
163.349166870117
 30
0.0
 11
146.5
 21
161.349166870117
 31
0.0
  0
LINE
  5
   139
  8
0
  6
CONTINUOUS
 62
    52
 10
148.5
 20
156.985198974609
 30
0.0
 11
146.5
 21
154.985198974609
 31
0.0
  0
LINE
  5
   13A
  8
0
  6
CONTINUOUS
 62
    52
 10
148.5
 20
150.621307373047
 30
0.0
 11
147.62858581543
 21
149.749893188477
 31
0.0
  0
ENDBLK
  5
   13B
  8
0
  6
CONTINUOUS
 62
     7
  0
BLOCK
  5
   13C
  8
0
  6
CONTINUOUS
 62
     7
  2
*HATCH116
 70
    65
 10
0.0
 20
0.0
 30
0.0
  3
*HATCH116
  0
LINE
  5
   13D
  8
0
  6
CONTINUOUS
 62
    52
 10
148.5
 20
140.014709472656
 30
0.0
 11
146.5
 21
138.014709472656
 31
0.0
  0
LINE
  5
   13E
  8
0
  6
CONTINUOUS
 62
    52
 10
148.5
 20
133.650741577148
 30
0.0
 11
146.5
 21
131.650741577148
 31
0.0
  0
ENDBLK
  5
   13F
  8
0
  6
CONTINUOUS
 62
     7
  0
BLOCK
  5
   140
  8
0
  6
CONTINUOUS
 62
     7
  2
*HATCH117
 70
    65
 10
0.0
 20
0.0
 30
0.0
  3
*HATCH117
  0
LINE
  5
   141
  8
0
  6
CONTINUOUS
 62
    52
 10
148.5
 20
16.9781322479248
 30
0.0
 11
146.5
 21
14.9781322479248
 31
0.0
  0
LINE
  5
   142
  8
0
  6
CONTINUOUS
 62
    52
 10
148.5
 20
10.6141700744629
 30
0.0
 11
146.5
 21
8.61417007446289
 31
0.0
  0
ENDBLK
  5
   143
  8
0
  6
CONTINUOUS
 62
     7
  0
BLOCK
  5
   144
  8
0
  6
CONTINUOUS
 62
     7
  2
*HATCH118
 70
    65
 10
0.0
 20
0.0
 30
0.0
  3
*HATCH118
  0
LINE
  5
   145
  8
0
  6
CONTINUOUS
 62
    52
 10
148.5
 20
-2.11374998092651
 30
0.0
 11
146.5
 21
-4.11374950408936
 31
0.0
  0
LINE
  5
   146
  8
0
  6
CONTINUOUS
 62
    52
 10
148.5
 20
-8.47771072387695
 30
0.0
 11
146.5
 21
-10.477710723877
 31
0.0
  0
LINE
  5
   147
  8
0
  6
CONTINUOUS
 62
    52
 10
148.5
 20
-14.8416728973389
 30
0.0
 11
146.5
 21
-16.8416728973389
 31
0.0
  0
LINE
  5
   148
  8
0
  6
CONTINUOUS
 62
    52
 10
148.5
 20
-21.2056350708008
 30
0.0
 11
146.5
 21
-23.2056350708008
 31
0.0
  0
LINE
  5
   149
  8
0
  6
CONTINUOUS
 62
    52
 10
148.5
 20
-27.5695972442627
 30
0.0
 11
146.5
 21
-29.5695972442627
 31
0.0
  0
LINE
  5
   14A
  8
0
  6
CONTINUOUS
 62
    52
 10
148.5
 20
-33.9335594177246
 30
0.0
 11
146.5
 21
-35.9335556030273
 31
0.0
  0
LINE
  5
   14B
  8
0
  6
CONTINUOUS
 62
    52
 10
148.5
 20
-40.2975158691406
 30
0.0
 11
146.5
 21
-42.2975120544434
 31
0.0
  0
LINE
  5
   14C
  8
0
  6
CONTINUOUS
 62
    52
 10
148.5
 20
-46.6614723205566
 30
0.0
 11
146.5
 21
-48.6614685058594
 31
0.0
  0
LINE
  5
   14D
  8
0
  6
CONTINUOUS
 62
    52
 10
148.5
 20
-53.0254287719727
 30
0.0
 11
146.5
 21
-55.0254249572754
 31
0.0
  0
LINE
  5
   14E
  8
0
  6
CONTINUOUS
 62
    52
 10
148.5
 20
-59.3893852233887
 30
0.0
 11
146.5
 21
-61.3893814086914
 31
0.0
  0
LINE
  5
   14F
  8
0
  6
CONTINUOUS
 62
    52
 10
148.5
 20
-65.7533416748047
 30
0.0
 11
146.5
 21
-67.7533416748047
 31
0.0
  0
LINE
  5
   150
  8
0
  6
CONTINUOUS
 62
    52
 10
148.5
 20
-72.1173095703125
 30
0.0
 11
146.5
 21
-74.1173095703125
 31
0.0
  0
LINE
  5
   151
  8
0
  6
CONTINUOUS
 62
    52
 10
148.5
 20
-78.4812774658203
 30
0.0
 11
146.5
 21
-80.4812774658203
 31
0.0
  0
LINE
  5
   152
  8
0
  6
CONTINUOUS
 62
    52
 10
148.5
 20
-84.8452453613281
 30
0.0
 11
146.5
 21
-86.8452453613281
 31
0.0
  0
LINE
  5
   153
  8
0
  6
CONTINUOUS
 62
    52
 10
148.5
 20
-91.2092132568359
 30
0.0
 11
146.5
 21
-93.2092132568359
 31
0.0
  0
LINE
  5
   154
  8
0
  6
CONTINUOUS
 62
    52
 10
148.5
 20
-97.5731811523438
 30
0.0
 11
146.5
 21
-99.5731811523438
 31
0.0
  0
ENDBLK
  5
   155
  8
0
  6
CONTINUOUS
 62
     7
  0
BLOCK
  5
   156
  8
0
  6
CONTINUOUS
 62
     7
  2
*UDIM557
 70
    65
 10
0.0
 20
0.0
 30
0.0
  3
*UDIM557
  0
TEXT
  5
   157
  8
0
  6
CONTINUOUS
 62
     7
 10
226.243404584132
 20
181.027577508742
 30
0.0
 40
2.99999994039535
  1
138,5
 41
0.933333333333333
 72
     1
 11
232.943404451015
 21
182.527577478939
 31
0.0
 73
     2
  0
LINE
  5
   158
  8
0
  6
CONTINUOUS
 62
     7
 10
212.168334960938
 20
136.397996951397
 30
0.0
 11
212.168334960938
 21
182.027577508742
 31
0.0
  0
LINE
  5
   159
  8
0
  6
CONTINUOUS
 62
     7
 10
253.718473941093
 20
130.70138886871
 30
0.0
 11
253.718473941093
 21
182.027577508742
 31
0.0
  0
LINE
  5
   15A
  8
0
  6
CONTINUOUS
 62
     7
 10
212.168334960938
 20
180.027577508742
 30
0.0
 11
253.718473941093
 21
180.027577508742
 31
0.0
  0
LINE
  5
   15B
  8
0
  6
CONTINUOUS
 62
     7
 10
215.066112434148
 20
180.80403466516
 30
0.0
 11
212.168334960938
 21
180.027577508742
 31
0.0
  0
LINE
  5
   15C
  8
0
  6
CONTINUOUS
 62
     7
 10
212.168334960938
 20
180.027577508742
 30
0.0
 11
215.066112434148
 21
179.251120352323
 31
0.0
  0
LINE
  5
   15D
  8
0
  6
CONTINUOUS
 62
     7
 10
250.820696467883
 20
179.251120352323
 30
0.0
 11
253.718473941093
 21
180.027577508742
 31
0.0
  0
LINE
  5
   15E
  8
0
  6
CONTINUOUS
 62
     7
 10
253.718473941093
 20
180.027577508742
 30
0.0
 11
250.820696467883
 21
180.80403466516
 31
0.0
  0
ENDBLK
  5
   15F
  8
0
  6
CONTINUOUS
 62
     7
  0
BLOCK
  5
   160
  8
0
  6
CONTINUOUS
 62
     7
  2
*UDIM558
 70
    65
 10
0.0
 20
0.0
 30
0.0
  3
*UDIM558
  0
TEXT
  5
   161
  8
0
  6
CONTINUOUS
 62
     7
 10
227.443335967263
 20
186.532306929464
 30
0.0
 40
2.99999994039535
  1
146,5
 41
0.933333333333333
 72
     1
 11
234.143335834146
 21
188.032306899662
 31
0.0
 73
     2
  0
LINE
  5
   162
  8
0
  6
CONTINUOUS
 62
     7
 10
212.168334960938
 20
136.397996951397
 30
0.0
 11
212.168334960938
 21
187.532306929464
 31
0.0
  0
LINE
  5
   163
  8
0
  6
CONTINUOUS
 62
     7
 10
256.118336707354
 20
114.794053557219
 30
0.0
 11
256.118336707354
 21
187.532306929464
 31
0.0
  0
LINE
  5
   164
  8
0
  6
CONTINUOUS
 62
     7
 10
212.168334960938
 20
185.532306929464
 30
0.0
 11
256.118336707354
 21
185.532306929464
 31
0.0
  0
LINE
  5
   165
  8
0
  6
CONTINUOUS
 62
     7
 10
215.066112434148
 20
186.308764085883
 30
0.0
 11
212.168334960938
 21
185.532306929464
 31
0.0
  0
LINE
  5
   166
  8
0
  6
CONTINUOUS
 62
     7
 10
212.168334960938
 20
185.532306929464
 30
0.0
 11
215.066112434148
 21
184.755849773046
 31
0.0
  0
LINE
  5
   167
  8
0
  6
CONTINUOUS
 62
     7
 10
253.220559234143
 20
184.755849773046
 30
0.0
 11
256.118336707354
 21
185.532306929464
 31
0.0
  0
LINE
  5
   168
  8
0
  6
CONTINUOUS
 62
     7
 10
256.118336707354
 20
185.532306929464
 30
0.0
 11
253.220559234143
 21
186.308764085883
 31
0.0
  0
ENDBLK
  5
   169
  8
0
  6
CONTINUOUS
 62
     7
  0
BLOCK
  5
   16A
  8
0
  6
CONTINUOUS
 62
     7
  2
*UDIM559
 70
    65
 10
0.0
 20
0.0
 30
0.0
  3
*UDIM559
  0
TEXT
  5
   16B
  8
0
  6
CONTINUOUS
 62
     7
 10
262.084058903286
 20
186.532306929464
 30
0.0
 40
2.99999994039535
  1
2
 41
0.933333333333333
 72
     1
 11
263.184058881431
 21
188.032306899662
 31
0.0
 73
     2
  0
LINE
  5
   16C
  8
0
  6
CONTINUOUS
 62
     7
 10
256.718336731196
 20
114.41155354202
 30
0.0
 11
256.718336731196
 21
187.532306929464
 31
0.0
  0
LINE
  5
   16D
  8
0
  6
CONTINUOUS
 62
     7
 10
256.118336707354
 20
185.532306929464
 30
0.0
 11
264.284058859576
 21
185.532306929464
 31
0.0
  0
LINE
  5
   16E
  8
0
  6
CONTINUOUS
 62
     7
 10
253.220559234143
 20
184.755849773046
 30
0.0
 11
256.118336707354
 21
185.532306929464
 31
0.0
  0
LINE
  5
   16F
  8
0
  6
CONTINUOUS
 62
     7
 10
256.118336707354
 20
185.532306929464
 30
0.0
 11
253.220559234143
 21
186.308764085883
 31
0.0
  0
LINE
  5
   170
  8
0
  6
CONTINUOUS
 62
     7
 10
259.616114204406
 20
186.308764085883
 30
0.0
 11
256.718336731196
 21
185.532306929464
 31
0.0
  0
LINE
  5
   171
  8
0
  6
CONTINUOUS
 62
     7
 10
256.718336731196
 20
185.532306929464
 30
0.0
 11
259.616114204406
 21
184.755849773046
 31
0.0
  0
ENDBLK
  5
   172
  8
0
  6
CONTINUOUS
 62
     7
  0
BLOCK
  5
   173
  8
0
  6
CONTINUOUS
 62
     7
  2
*UDIM560
 70
    65
 10
0.0
 20
0.0
 30
0.0
  3
*UDIM560
  0
TEXT
  5
   174
  8
0
  6
CONTINUOUS
 62
     7
 10
202.444291366178
 20
-37.503399752225
 30
0.0
 40
2.99999994039535
  1
3
 41
0.933333333333333
 72
     1
 11
203.544291344323
 21
-36.0033997820273
 31
0.0
 73
     2
  0
TEXT
  5
   175
  8
0
  6
CONTINUOUS
 62
     7
 10
198.877624658715
 20
-37.7533998098428
 30
0.0
 40
3.500000055631
  1
_
 41
0.933333333333333
 72
     1
 11
200.160958012447
 21
-36.0033997820273
 31
0.0
 73
     2
  0
LINE
  5
   176
  8
0
  6
CONTINUOUS
 62
     7
 10
211.268334925175
 20
1.23373689404031
 30
0.0
 11
211.268334925175
 21
-40.503399752225
 31
0.0
  0
LINE
  5
   177
  8
0
  6
CONTINUOUS
 62
     7
 10
212.168334960938
 20
1.23373689404031
 30
0.0
 11
212.168334960938
 21
-40.503399752225
 31
0.0
  0
LINE
  5
   178
  8
0
  6
CONTINUOUS
 62
     7
 10
198.877624658715
 20
-38.503399752225
 30
0.0
 11
212.168334960938
 21
-38.503399752225
 31
0.0
  0
LINE
  5
   179
  8
0
  6
CONTINUOUS
 62
     7
 10
208.370557451964
 20
-39.2798569086435
 30
0.0
 11
211.268334925175
 21
-38.503399752225
 31
0.0
  0
LINE
  5
   17A
  8
0
  6
CONTINUOUS
 62
     7
 10
211.268334925175
 20
-38.503399752225
 30
0.0
 11
208.370557451964
 21
-37.7269425958064
 31
0.0
  0
LINE
  5
   17B
  8
0
  6
CONTINUOUS
 62
     7
 10
215.066112434148
 20
-37.7269425958064
 30
0.0
 11
212.168334960938
 21
-38.503399752225
 31
0.0
  0
LINE
  5
   17C
  8
0
  6
CONTINUOUS
 62
     7
 10
212.168334960938
 20
-38.503399752225
 30
0.0
 11
215.066112434148
 21
-39.2798569086435
 31
0.0
  0
ENDBLK
  5
   17D
  8
0
  6
CONTINUOUS
 62
     7
  0
BLOCK
  5
   17E
  8
0
  6
CONTINUOUS
 62
     7
  2
*UDIM561
 70
    65
 10
0.0
 20
0.0
 30
0.0
  3
*UDIM561
  0
TEXT
  5
   17F
  8
0
  6
CONTINUOUS
 62
     7
 10
226.543333642681
 20
-37.503399752225
 30
0.0
 40
2.99999994039535
  1
140,5
 41
0.933333333333333
 72
     1
 11
233.243333509564
 21
-36.0033997820273
 31
0.0
 73
     2
  0
LINE
  5
   180
  8
0
  6
CONTINUOUS
 62
     7
 10
254.318332058191
 20
48.3014909595249
 30
0.0
 11
254.318332058191
 21
-40.503399752225
 31
0.0
  0
LINE
  5
   181
  8
0
  6
CONTINUOUS
 62
     7
 10
212.168334960938
 20
-38.503399752225
 30
0.0
 11
254.318332058191
 21
-38.503399752225
 31
0.0
  0
LINE
  5
   182
  8
0
  6
CONTINUOUS
 62
     7
 10
215.066112434148
 20
-37.7269425958064
 30
0.0
 11
212.168334960938
 21
-38.503399752225
 31
0.0
  0
LINE
  5
   183
  8
0
  6
CONTINUOUS
 62
     7
 10
212.168334960938
 20
-38.503399752225
 30
0.0
 11
215.066112434148
 21
-39.2798569086435
 31
0.0
  0
LINE
  5
   184
  8
0
  6
CONTINUOUS
 62
     7
 10
251.420554584981
 20
-39.2798569086435
 30
0.0
 11
254.318332058191
 21
-38.503399752225
 31
0.0
  0
LINE
  5
   185
  8
0
  6
CONTINUOUS
 62
     7
 10
254.318332058191
 20
-38.503399752225
 30
0.0
 11
251.420554584981
 21
-37.7269425958064
 31
0.0
  0
ENDBLK
  5
   186
  8
0
  6
CONTINUOUS
 62
     7
  0
BLOCK
  5
   187
  8
0
  6
CONTINUOUS
 62
     7
  2
*UDIM562
 70
    65
 10
0.0
 20
0.0
 30
0.0
  3
*UDIM562
  0
TEXT
  5
   188
  8
0
  6
CONTINUOUS
 62
     7
 10
237.6438394523
 20
-44.3766061398016
 30
0.0
 40
2.99999994039535
  1
214,5
 41
0.933333333333333
 72
     1
 11
244.343839319183
 21
-42.8766061696039
 31
0.0
 73
     2
  0
LINE
  5
   189
  8
0
  6
CONTINUOUS
 62
     7
 10
212.168334960938
 20
1.23373689404031
 30
0.0
 11
212.168334960938
 21
-47.3766061398016
 31
0.0
  0
LINE
  5
   18A
  8
0
  6
CONTINUOUS
 62
     7
 10
276.519343677428
 20
60.5377161060357
 30
0.0
 11
276.519343677428
 21
-47.3766061398016
 31
0.0
  0
LINE
  5
   18B
  8
0
  6
CONTINUOUS
 62
     7
 10
212.168334960938
 20
-45.3766061398016
 30
0.0
 11
276.519343677428
 21
-45.3766061398016
 31
0.0
  0
LINE
  5
   18C
  8
0
  6
CONTINUOUS
 62
     7
 10
215.066112434148
 20
-44.600148983383
 30
0.0
 11
212.168334960938
 21
-45.3766061398016
 31
0.0
  0
LINE
  5
   18D
  8
0
  6
CONTINUOUS
 62
     7
 10
212.168334960938
 20
-45.3766061398016
 30
0.0
 11
215.066112434148
 21
-46.1530632962201
 31
0.0
  0
LINE
  5
   18E
  8
0
  6
CONTINUOUS
 62
     7
 10
273.621566204217
 20
-46.1530632962201
 30
0.0
 11
276.519343677428
 21
-45.3766061398016
 31
0.0
  0
LINE
  5
   18F
  8
0
  6
CONTINUOUS
 62
     7
 10
276.519343677428
 20
-45.3766061398016
 30
0.0
 11
273.621566204217
 21
-44.600148983383
 31
0.0
  0
ENDBLK
  5
   190
  8
0
  6
CONTINUOUS
 62
     7
  0
BLOCK
  5
   191
  8
0
  6
CONTINUOUS
 62
     7
  2
*UDIM563
 70
    65
 10
0.0
 20
0.0
 30
0.0
  3
*UDIM563
  0
TEXT
  5
   192
  8
0
  6
CONTINUOUS
 62
     7
 10
286.101379973222
 20
61.076403964424
 30
0.0
 40
2.99999994039535
  1
105
 50
90.0
 41
0.933333333333333
 72
     1
 11
284.601380003019
 21
64.9764038869361
 31
0.0
 73
     2
  0
LINE
  5
   193
  8
0
  6
CONTINUOUS
 62
     7
 10
255.318332058187
 20
49.2264878961134
 30
0.0
 11
289.101336277526
 21
49.2263941709449
 31
0.0
  0
LINE
  5
   194
  8
0
  6
CONTINUOUS
 62
     7
 10
257.11833670735
 20
80.7264773655722
 30
0.0
 11
289.101423668874
 21
80.7263886339664
 31
0.0
  0
LINE
  5
   195
  8
0
  6
CONTINUOUS
 62
     7
 10
287.101336277533
 20
49.2263997196029
 30
0.0
 11
287.101423668882
 21
80.7263941826244
 31
0.0
  0
LINE
  5
   196
  8
0
  6
CONTINUOUS
 62
     7
 10
286.324887160506
 20
52.1241793469499
 30
0.0
 11
287.101336277533
 21
49.2263997196029
 31
0.0
  0
LINE
  5
   197
  8
0
  6
CONTINUOUS
 62
     7
 10
287.101336277533
 20
49.2263997196029
 30
0.0
 11
287.877801473337
 21
52.1241750386547
 31
0.0
  0
LINE
  5
   198
  8
0
  6
CONTINUOUS
 62
     7
 10
287.877872785909
 20
77.8286145552774
 30
0.0
 11
287.101423668882
 21
80.7263941826244
 31
0.0
  0
LINE
  5
   199
  8
0
  6
CONTINUOUS
 62
     7
 10
287.101423668882
 20
80.7263941826244
 30
0.0
 11
286.324958473078
 21
77.8286188635726
 31
0.0
  0
ENDBLK
  5
   19A
  8
0
  6
CONTINUOUS
 62
     7
  0
BLOCK
  5
   19B
  8
0
  6
CONTINUOUS
 62
     2
  2
*HATCH119
 70
    65
 10
0.0
 20
0.0
 30
0.0
  3
*HATCH119
  0
LINE
  5
   19C
  8
0
  6
CONTINUOUS
 62
   210
 10
7.01461982727051
 20
272.999816894531
 30
0.0
 11
9.76456928253174
 21
270.249877929688
 31
0.0
  0
LINE
  5
   19D
  8
0
  6
CONTINUOUS
 62
   210
 10
13.378662109375
 20
272.999725341797
 30
0.0
 11
16.1285266876221
 21
270.249877929688
 31
0.0
  0
ENDBLK
  5
   19E
  8
0
  6
CONTINUOUS
 62
     2
  0
BLOCK
  5
   19F
  8
0
  6
CONTINUOUS
 62
     2
  2
*HATCH120
 70
    65
 10
0.0
 20
0.0
 30
0.0
  3
*HATCH120
  0
LINE
  5
   1A0
  8
0
  6
CONTINUOUS
 62
   210
 10
5.53664445877075
 20
261.749877929688
 30
0.0
 11
8.28664112091064
 21
258.999877929688
 31
0.0
  0
LINE
  5
   1A1
  8
0
  6
CONTINUOUS
 62
   210
 10
11.9006013870239
 20
261.749877929688
 30
0.0
 11
14.6505975723267
 21
258.999877929688
 31
0.0
  0
LINE
  5
   1A2
  8
0
  6
CONTINUOUS
 62
   210
 10
18.2645587921143
 20
261.749877929688
 30
0.0
 11
19.4999923706055
 21
260.514434814453
 31
0.0
  0
ENDBLK
  5
   1A3
  8
0
  6
CONTINUOUS
 62
     2
  0
BLOCK
  5
   1A4
  8
0
  6
CONTINUOUS
 62
     7
  2
*HATCH121
 70
    65
 10
0.0
 20
0.0
 30
0.0
  3
*HATCH121
  0
LINE
  5
   1A5
  8
0
  6
CONTINUOUS
 62
     7
 10
3.49999189376831
 20
270.786346435547
 30
0.0
 11
1.99999177455902
 21
269.286346435547
 31
0.0
  0
LINE
  5
   1A6
  8
0
  6
CONTINUOUS
 62
     7
 10
18.1985626220703
 20
276.999633789063
 30
0.0
 11
14.8988075256348
 21
273.699890136719
 31
0.0
  0
LINE
  5
   1A7
  8
0
  6
CONTINUOUS
 62
     7
 10
7.9840874671936
 20
258.299865722656
 30
0.0
 11
1.99999177455902
 21
252.315765380859
 31
0.0
  0
LINE
  5
   1A8
  8
0
  6
CONTINUOUS
 62
     7
 10
5.99999189376831
 20
247.830505371094
 30
0.0
 11
1.99999177455902
 21
243.830505371094
 31
0.0
  0
LINE
  5
   1A9
  8
0
  6
CONTINUOUS
 62
     7
 10
19.4999961853027
 20
252.845230102539
 30
0.0
 11
15.8715810775757
 21
249.216812133789
 31
0.0
  0
LINE
  5
   1AA
  8
0
  6
CONTINUOUS
 62
     7
 10
16.8971538543701
 20
245.999740600586
 30
0.0
 11
12.8971529006958
 21
241.999740600586
 31
0.0
  0
LINE
  5
   1AB
  8
0
  6
CONTINUOUS
 62
     7
 10
18.9999923706055
 20
243.859939575195
 30
0.0
 11
17.1397933959961
 21
241.999740600586
 31
0.0
  0
LINE
  5
   1AC
  8
0
  6
CONTINUOUS
 62
     7
 10
18.88063621521
 20
239.497940063477
 30
0.0
 11
14.882571220398
 21
235.499877929688
 31
0.0
  0
LINE
  5
   1AD
  8
0
  6
CONTINUOUS
 62
     7
 10
5.36785221099854
 20
217.499877929688
 30
0.0
 11
3.36785173416138
 21
215.499877929688
 31
0.0
  0
LINE
  5
   1AE
  8
0
  6
CONTINUOUS
 62
     7
 10
8.99999141693115
 20
212.646743774414
 30
0.0
 11
5.99993562698364
 21
209.646682739258
 31
0.0
  0
ENDBLK
  5
   1AF
  8
0
  6
CONTINUOUS
 62
     7
  0
BLOCK
  5
   1B0
  8
0
  6
CONTINUOUS
 62
     7
  2
*HATCH122
 70
    65
 10
0.0
 20
0.0
 30
0.0
  3
*HATCH122
  0
LINE
  5
   1B1
  8
0
  6
CONTINUOUS
 62
    92
 10
19.4999923706055
 20
243.543869018555
 30
0.0
 11
30.0439701080322
 21
232.999877929688
 31
0.0
  0
LINE
  5
   1B2
  8
0
  6
CONTINUOUS
 62
    92
 10
27.0219039916992
 20
248.749877929688
 30
0.0
 11
33.4999885559082
 21
242.271789550781
 31
0.0
  0
ENDBLK
  5
   1B3
  8
0
  6
CONTINUOUS
 62
     7
  0
BLOCK
  5
   1B4
  8
0
  6
CONTINUOUS
 62
     7
  2
*HATCH123
 70
    65
 10
0.0
 20
0.0
 30
0.0
  3
*HATCH123
  0
LINE
  5
   1B5
  8
0
  6
CONTINUOUS
 62
    92
 10
19.4999961853027
 20
264.757080078125
 30
0.0
 11
28.0071887969971
 21
256.249877929688
 31
0.0
  0
LINE
  5
   1B6
  8
0
  6
CONTINUOUS
 62
    92
 10
19.4999980926514
 20
277.485015869141
 30
0.0
 11
33.4999847412109
 21
263.485015869141
 31
0.0
  0
LINE
  5
   1B7
  8
0
  6
CONTINUOUS
 62
    92
 10
29.7130470275879
 20
279.999877929688
 30
0.0
 11
33.4999847412109
 21
276.212951660156
 31
0.0
  0
ENDBLK
  5
   1B8
  8
0
  6
CONTINUOUS
 62
     7
  0
BLOCK
  5
   1B9
  8
0
  6
CONTINUOUS
 62
     2
  2
*HATCH124
 70
    65
 10
0.0
 20
0.0
 30
0.0
  3
*HATCH124
  0
LINE
  5
   1BA
  8
0
  6
CONTINUOUS
 62
    92
 10
46.0519142150879
 20
220.00016784668
 30
0.0
 11
40.5518646240234
 21
214.500122070313
 31
0.0
  0
ENDBLK
  5
   1BB
  8
0
  6
CONTINUOUS
 62
     2
  0
BLOCK
  5
   1BC
  8
0
  6
CONTINUOUS
 62
     2
  2
*HATCH125
 70
    65
 10
0.0
 20
0.0
 30
0.0
  3
*HATCH125
  0
LINE
  5
   1BD
  8
0
  6
CONTINUOUS
 62
    92
 10
62.5147399902344
 20
359.499572753906
 30
0.0
 11
50.0000152587891
 21
346.984832763672
 31
0.0
  0
LINE
  5
   1BE
  8
0
  6
CONTINUOUS
 62
    92
 10
64.9999923706055
 20
349.256896972656
 30
0.0
 11
50.0000152587891
 21
334.256927490234
 31
0.0
  0
LINE
  5
   1BF
  8
0
  6
CONTINUOUS
 62
    92
 10
64.9999923706055
 20
336.528961181641
 30
0.0
 11
50.0000152587891
 21
321.528991699219
 31
0.0
  0
LINE
  5
   1C0
  8
0
  6
CONTINUOUS
 62
    92
 10
64.9999923706055
 20
323.801025390625
 30
0.0
 11
50.0000152587891
 21
308.801055908203
 31
0.0
  0
LINE
  5
   1C1
  8
0
  6
CONTINUOUS
 62
    92
 10
64.9999923706055
 20
311.073089599609
 30
0.0
 11
50.0000152587891
 21
296.073120117188
 31
0.0
  0
LINE
  5
   1C2
  8
0
  6
CONTINUOUS
 62
    92
 10
64.9999923706055
 20
298.345153808594
 30
0.0
 11
50.0000152587891
 21
283.345184326172
 31
0.0
  0
LINE
  5
   1C3
  8
0
  6
CONTINUOUS
 62
    92
 10
65.0
 20
285.617309570313
 30
0.0
 11
33.5871887207031
 21
254.204498291016
 31
0.0
  0
LINE
  5
   1C4
  8
0
  6
CONTINUOUS
 62
    92
 10
63.2408714294434
 20
271.130249023438
 30
0.0
 11
33.4999694824219
 21
241.389358520508
 31
0.0
  0
LINE
  5
   1C5
  8
0
  6
CONTINUOUS
 62
    92
 10
48.4999198913574
 20
243.661376953125
 30
0.0
 11
37.8386726379395
 21
233.000137329102
 31
0.0
  0
ENDBLK
  5
   1C6
  8
0
  6
CONTINUOUS
 62
     2
  0
BLOCK
  5
   1C7
  8
0
  6
CONTINUOUS
 62
     2
  2
*HATCH126
 70
    65
 10
0.0
 20
0.0
 30
0.0
  3
*HATCH126
  0
LINE
  5
   1C8
  8
0
  6
CONTINUOUS
 62
    92
 10
59.3161964416504
 20
385.99951171875
 30
0.0
 11
50.0000152587891
 21
376.683319091797
 31
0.0
  0
LINE
  5
   1C9
  8
0
  6
CONTINUOUS
 62
    92
 10
64.9999923706055
 20
378.955383300781
 30
0.0
 11
58.5441360473633
 21
372.499542236328
 31
0.0
  0
ENDBLK
  5
   1CA
  8
0
  6
CONTINUOUS
 62
     2
  0
BLOCK
  5
   1CB
  8
0
  6
CONTINUOUS
 62
     7
  2
*HATCH127
 70
    65
 10
0.0
 20
0.0
 30
0.0
  3
*HATCH127
  0
LINE
  5
   1CC
  8
0
  6
CONTINUOUS
 62
   210
 10
5.40803098678589
 20
221.573379516602
 30
0.0
 11
8.48151397705078
 21
218.499893188477
 31
0.0
  0
LINE
  5
   1CD
  8
0
  6
CONTINUOUS
 62
   210
 10
10.7238874435425
 20
220.50016784668
 30
0.0
 11
12.7241525650024
 21
218.499893188477
 31
0.0
  0
LINE
  5
   1CE
  8
0
  6
CONTINUOUS
 62
   210
 10
17.0878448486328
 20
220.50016784668
 30
0.0
 11
19.0881099700928
 21
218.499893188477
 31
0.0
  0
ENDBLK
  5
   1CF
  8
0
  6
CONTINUOUS
 62
     7
  0
BLOCK
  5
   1D0
  8
0
  6
CONTINUOUS
 62
     7
  2
*HATCH128
 70
    65
 10
0.0
 20
0.0
 30
0.0
  3
*HATCH128
  0
LINE
  5
   1D1
  8
0
  6
CONTINUOUS
 62
   210
 10
5.20944833755493
 20
234.499893188477
 30
0.0
 11
8.28296184539795
 21
231.426376342773
 31
0.0
  0
LINE
  5
   1D2
  8
0
  6
CONTINUOUS
 62
   210
 10
11.5734052658081
 20
234.499893188477
 30
0.0
 11
13.5731353759766
 21
232.50016784668
 31
0.0
  0
LINE
  5
   1D3
  8
0
  6
CONTINUOUS
 62
   210
 10
17.9373626708984
 20
234.499893188477
 30
0.0
 11
19.4999523162842
 21
232.937301635742
 31
0.0
  0
ENDBLK
  5
   1D4
  8
0
  6
CONTINUOUS
 62
     7
  0
BLOCK
  5
   1D5
  8
0
  6
CONTINUOUS
 62
     7
  2
*HATCH129
 70
    65
 10
0.0
 20
0.0
 30
0.0
  3
*HATCH129
  0
LINE
  5
   1D6
  8
0
  6
CONTINUOUS
 62
    92
 10
11.396782875061
 20
204.978012084961
 30
0.0
 11
17.7791748046875
 21
198.595611572266
 31
0.0
  0
LINE
  5
   1D7
  8
0
  6
CONTINUOUS
 62
    92
 10
17.5513648986816
 20
211.551361083984
 30
0.0
 11
27.4508819580078
 21
201.651824951172
 31
0.0
  0
LINE
  5
   1D8
  8
0
  6
CONTINUOUS
 62
    92
 10
21.8307647705078
 20
219.999877929688
 30
0.0
 11
32.7685394287109
 21
209.062088012695
 31
0.0
  0
ENDBLK
  5
   1D9
  8
0
  6
CONTINUOUS
 62
     7
  0
BLOCK
  5
   1DA
  8
0
  6
CONTINUOUS
 62
     7
  2
*UDIM564
 70
    65
 10
0.0
 20
0.0
 30
0.0
  3
*UDIM564
  0
TEXT
  5
   1DB
  8
0
  6
CONTINUOUS
 62
     7
 10
217.16833759745
 20
171.262763881326
 30
0.0
 40
2.99999994039535
  1
50
 41
0.933333333333333
 72
     1
 11
219.668337547779
 21
172.762763851524
 31
0.0
 73
     2
  0
LINE
  5
   1DC
  8
0
  6
CONTINUOUS
 62
     7
 10
212.168334960938
 20
136.397996951397
 30
0.0
 11
212.168334960938
 21
172.262763881326
 31
0.0
  0
LINE
  5
   1DD
  8
0
  6
CONTINUOUS
 62
     7
 10
227.168340134621
 20
161.676353478426
 30
0.0
 11
227.168340134621
 21
172.262763881326
 31
0.0
  0
LINE
  5
   1DE
  8
0
  6
CONTINUOUS
 62
     7
 10
212.168334960938
 20
170.262763881326
 30
0.0
 11
227.168340134621
 21
170.262763881326
 31
0.0
  0
LINE
  5
   1DF
  8
0
  6
CONTINUOUS
 62
     7
 10
215.066112434148
 20
171.039221037745
 30
0.0
 11
212.168334960938
 21
170.262763881326
 31
0.0
  0
LINE
  5
   1E0
  8
0
  6
CONTINUOUS
 62
     7
 10
212.168334960938
 20
170.262763881326
 30
0.0
 11
215.066112434148
 21
169.486306724908
 31
0.0
  0
LINE
  5
   1E1
  8
0
  6
CONTINUOUS
 62
     7
 10
224.27056266141
 20
169.486306724908
 30
0.0
 11
227.168340134621
 21
170.262763881326
 31
0.0
  0
LINE
  5
   1E2
  8
0
  6
CONTINUOUS
 62
     7
 10
227.168340134621
 20
170.262763881326
 30
0.0
 11
224.27056266141
 21
171.039221037745
 31
0.0
  0
ENDBLK
  5
   1E3
  8
0
  6
CONTINUOUS
 62
     7
  0
BLOCK
  5
   1E4
  8
0
  6
CONTINUOUS
 62
     7
  2
*UDIM565
 70
    65
 10
0.0
 20
0.0
 30
0.0
  3
*UDIM565
  0
TEXT
  5
   1E5
  8
0
  6
CONTINUOUS
 62
     7
 10
237.936589841773
 20
171.262763881326
 30
0.0
 40
2.99999994039535
  1
15
 41
0.933333333333333
 72
     1
 11
240.436589792103
 21
172.762763851524
 31
0.0
 73
     2
  0
LINE
  5
   1E6
  8
0
  6
CONTINUOUS
 62
     7
 10
231.668333446979
 20
161.676353478426
 30
0.0
 11
231.668333446979
 21
172.262763881326
 31
0.0
  0
LINE
  5
   1E7
  8
0
  6
CONTINUOUS
 62
     7
 10
227.168340134621
 20
170.262763881326
 30
0.0
 11
242.936589742432
 21
170.262763881326
 31
0.0
  0
LINE
  5
   1E8
  8
0
  6
CONTINUOUS
 62
     7
 10
224.27056266141
 20
169.486306724908
 30
0.0
 11
227.168340134621
 21
170.262763881326
 31
0.0
  0
LINE
  5
   1E9
  8
0
  6
CONTINUOUS
 62
     7
 10
227.168340134621
 20
170.262763881326
 30
0.0
 11
224.27056266141
 21
171.039221037745
 31
0.0
  0
LINE
  5
   1EA
  8
0
  6
CONTINUOUS
 62
     7
 10
234.56611092019
 20
171.039221037745
 30
0.0
 11
231.668333446979
 21
170.262763881326
 31
0.0
  0
LINE
  5
   1EB
  8
0
  6
CONTINUOUS
 62
     7
 10
231.668333446979
 20
170.262763881326
 30
0.0
 11
234.56611092019
 21
169.486306724908
 31
0.0
  0
ENDBLK
  5
   1EC
  8
0
  6
CONTINUOUS
 62
     7
  0
BLOCK
  5
   1ED
  8
0
  6
CONTINUOUS
 62
     7
  2
*UDIM566
 70
    65
 10
0.0
 20
0.0
 30
0.0
  3
*UDIM566
  0
TEXT
  5
   1EE
  8
0
  6
CONTINUOUS
 62
     7
 10
238.542950359764
 20
145.077004629904
 30
0.0
 40
2.99999994039535
  1
13
 50
90.0
 41
0.933333333333333
 72
     1
 11
237.042950389563
 21
147.577004580231
 31
0.0
 73
     2
  0
TEXT
  5
   1EF
  8
0
  6
CONTINUOUS
 62
     7
 10
238.542950359763
 20
141.077004689508
 30
0.0
 40
2.99999994039535
  1
Ø
 50
90.0
 41
1.2
 72
     1
 11
237.042950389563
 21
142.577004659704
 31
0.0
 73
     2
  0
LINE
  5
   1F0
  8
0
  6
CONTINUOUS
 62
     7
 10
232.668328115868
 20
152.726375482486
 30
0.0
 11
241.542950359761
 21
152.726375482486
 31
0.0
  0
LINE
  5
   1F1
  8
0
  6
CONTINUOUS
 62
     7
 10
232.668327584998
 20
156.626363403604
 30
0.0
 11
241.542950359761
 21
156.626363403604
 31
0.0
  0
LINE
  5
   1F2
  8
0
  6
CONTINUOUS
 62
     7
 10
239.542950359761
 20
141.077004689506
 30
0.0
 11
239.542950359761
 21
161.626363403604
 31
0.0
  0
LINE
  5
   1F3
  8
0
  6
CONTINUOUS
 62
     7
 10
240.319407516179
 20
149.828598009276
 30
0.0
 11
239.542950359761
 21
152.726375482486
 31
0.0
  0
LINE
  5
   1F4
  8
0
  6
CONTINUOUS
 62
     7
 10
239.542950359761
 20
152.726375482486
 30
0.0
 11
238.766493203342
 21
149.828598009276
 31
0.0
  0
LINE
  5
   1F5
  8
0
  6
CONTINUOUS
 62
     7
 10
238.766493203342
 20
159.524140876815
 30
0.0
 11
239.542950359761
 21
156.626363403604
 31
0.0
  0
LINE
  5
   1F6
  8
0
  6
CONTINUOUS
 62
     7
 10
239.542950359761
 20
156.626363403604
 30
0.0
 11
240.319407516179
 21
159.524140876815
 31
0.0
  0
ENDBLK
  5
   1F7
  8
0
  6
CONTINUOUS
 62
     7
  0
BLOCK
  5
   1F8
  8
0
  6
CONTINUOUS
 62
     2
  2
*HATCH130
 70
    65
 10
0.0
 20
0.0
 30
0.0
  3
*HATCH130
  0
LINE
  5
   1F9
  8
0
  6
CONTINUOUS
 62
   210
 10
6.4272985458374
 20
-108.250747680664
 30
0.0
 11
9.17721939086914
 21
-111.000671386719
 31
0.0
  0
LINE
  5
   1FA
  8
0
  6
CONTINUOUS
 62
   210
 10
12.7912549972534
 20
-108.250747680664
 30
0.0
 11
15.5410900115967
 21
-111.000579833984
 31
0.0
  0
LINE
  5
   1FB
  8
0
  6
CONTINUOUS
 62
   210
 10
19.1552124023438
 20
-108.250747680664
 30
0.0
 11
19.4999923706055
 21
-108.595527648926
 31
0.0
  0
ENDBLK
  5
   1FC
  8
0
  6
CONTINUOUS
 62
     2
  0
BLOCK
  5
   1FD
  8
0
  6
CONTINUOUS
 62
     2
  2
*HATCH131
 70
    65
 10
0.0
 20
0.0
 30
0.0
  3
*HATCH131
  0
LINE
  5
   1FE
  8
0
  6
CONTINUOUS
 62
   210
 10
5.78390789031982
 20
-97.0007476806641
 30
0.0
 11
8.53390407562256
 21
-99.7507476806641
 31
0.0
  0
LINE
  5
   1FF
  8
0
  6
CONTINUOUS
 62
   210
 10
12.1478643417358
 20
-97.0007476806641
 30
0.0
 11
14.8978605270386
 21
-99.7507476806641
 31
0.0
  0
LINE
  5
   200
  8
0
  6
CONTINUOUS
 62
   210
 10
18.5118217468262
 20
-97.0007476806641
 30
0.0
 11
19.4999923706055
 21
-97.9889144897461
 31
0.0
  0
ENDBLK
  5
   201
  8
0
  6
CONTINUOUS
 62
     2
  0
BLOCK
  5
   202
  8
0
  6
CONTINUOUS
 62
     7
  2
*HATCH132
 70
    65
 10
0.0
 20
0.0
 30
0.0
  3
*HATCH132
  0
LINE
  5
   203
  8
0
  6
CONTINUOUS
 62
     7
 10
5.89622116088867
 20
-53.5007476806641
 30
0.0
 11
3.89622116088867
 21
-55.5007476806641
 31
0.0
  0
LINE
  5
   204
  8
0
  6
CONTINUOUS
 62
     7
 10
3.49999189376831
 20
-60.1396179199219
 30
0.0
 11
1.99999177455902
 21
-61.6396179199219
 31
0.0
  0
LINE
  5
   205
  8
0
  6
CONTINUOUS
 62
     7
 10
18.6241455078125
 20
-53.5007476806641
 30
0.0
 11
16.6241436004639
 21
-55.5007476806641
 31
0.0
  0
LINE
  5
   206
  8
0
  6
CONTINUOUS
 62
     7
 10
7.10942411422729
 20
-73.5007476806641
 30
0.0
 11
1.99999177455902
 21
-78.6101760864258
 31
0.0
  0
LINE
  5
   207
  8
0
  6
CONTINUOUS
 62
     7
 10
15.594705581665
 20
-73.5007476806641
 30
0.0
 11
11.6076183319092
 21
-77.4878311157227
 31
0.0
  0
LINE
  5
   208
  8
0
  6
CONTINUOUS
 62
     7
 10
13.3374834060669
 20
-80.0006103515625
 30
0.0
 11
9.33748340606689
 21
-84.0006103515625
 31
0.0
  0
LINE
  5
   209
  8
0
  6
CONTINUOUS
 62
     7
 10
10.3630619049072
 20
-87.2176742553711
 30
0.0
 11
1.99999177455902
 21
-95.5807418823242
 31
0.0
  0
LINE
  5
   20A
  8
0
  6
CONTINUOUS
 62
     7
 10
3.49999189376831
 20
-98.3233795166016
 30
0.0
 11
1.99999177455902
 21
-99.8233795166016
 31
0.0
  0
LINE
  5
   20B
  8
0
  6
CONTINUOUS
 62
     7
 10
19.4999961853027
 20
-90.8086624145508
 30
0.0
 11
14.0079078674316
 21
-96.3007431030274
 31
0.0
  0
LINE
  5
   20C
  8
0
  6
CONTINUOUS
 62
     7
 10
3.49999189376831
 20
-111.051300048828
 30
0.0
 11
1.99999177455902
 21
-112.551300048828
 31
0.0
  0
LINE
  5
   20D
  8
0
  6
CONTINUOUS
 62
     7
 10
15.5784702301025
 20
-111.700744628906
 30
0.0
 11
12.2787141799927
 21
-115.000503540039
 31
0.0
  0
ENDBLK
  5
   20E
  8
0
  6
CONTINUOUS
 62
     7
  0
BLOCK
  5
   20F
  8
0
  6
CONTINUOUS
 62
     7
  2
*HATCH133
 70
    65
 10
0.0
 20
0.0
 30
0.0
  3
*HATCH133
  0
LINE
  5
   210
  8
0
  6
CONTINUOUS
 62
    92
 10
19.4999942779541
 20
-74.6543807983398
 30
0.0
 11
31.5963439941406
 21
-86.7507476806641
 31
0.0
  0
LINE
  5
   211
  8
0
  6
CONTINUOUS
 62
    92
 10
28.574275970459
 20
-71.0007476806641
 30
0.0
 11
33.4999847412109
 21
-75.9264678955078
 31
0.0
  0
ENDBLK
  5
   212
  8
0
  6
CONTINUOUS
 62
     7
  0
BLOCK
  5
   213
  8
0
  6
CONTINUOUS
 62
     7
  2
*HATCH134
 70
    65
 10
0.0
 20
0.0
 30
0.0
  3
*HATCH134
  0
LINE
  5
   214
  8
0
  6
CONTINUOUS
 62
    92
 10
19.5
 20
-108.595527648926
 30
0.0
 11
28.9051990509033
 21
-118.000747680664
 31
0.0
  0
LINE
  5
   215
  8
0
  6
CONTINUOUS
 62
    92
 10
19.4999961853027
 20
-95.8675994873047
 30
0.0
 11
33.4999847412109
 21
-109.867607116699
 31
0.0
  0
LINE
  5
   216
  8
0
  6
CONTINUOUS
 62
    92
 10
30.6110572814941
 20
-94.2507476806641
 30
0.0
 11
33.4999847412109
 21
-97.1396713256836
 31
0.0
  0
ENDBLK
  5
   217
  8
0
  6
CONTINUOUS
 62
     7
  0
BLOCK
  5
   218
  8
0
  6
CONTINUOUS
 62
     2
  2
*HATCH135
 70
    65
 10
0.0
 20
0.0
 30
0.0
  3
*HATCH135
  0
LINE
  5
   219
  8
0
  6
CONTINUOUS
 62
    92
 10
45.0797462463379
 20
-52.5009918212891
 30
0.0
 11
39.5796928405762
 21
-58.0010414123535
 31
0.0
  0
ENDBLK
  5
   21A
  8
0
  6
CONTINUOUS
 62
     2
  0
BLOCK
  5
   21B
  8
0
  6
CONTINUOUS
 62
     2
  2
*HATCH136
 70
    65
 10
0.0
 20
0.0
 30
0.0
  3
*HATCH136
  0
LINE
  5
   21C
  8
0
  6
CONTINUOUS
 62
    92
 10
43.5502967834473
 20
-71.0009994506836
 30
0.0
 11
33.4999694824219
 21
-81.0513305664063
 31
0.0
  0
LINE
  5
   21D
  8
0
  6
CONTINUOUS
 62
    92
 10
48.499885559082
 20
-78.7793350219727
 30
0.0
 11
33.763256072998
 21
-93.5159606933594
 31
0.0
  0
LINE
  5
   21E
  8
0
  6
CONTINUOUS
 62
    92
 10
48.6067657470703
 20
-91.4003753662109
 30
0.0
 11
37.5498809814453
 21
-102.457260131836
 31
0.0
  0
LINE
  5
   21F
  8
0
  6
CONTINUOUS
 62
    92
 10
54.3670196533203
 20
-98.3680419921875
 30
0.0
 11
43.7604179382324
 21
-108.974647521973
 31
0.0
  0
LINE
  5
   220
  8
0
  6
CONTINUOUS
 62
    92
 10
60.6328201293945
 20
-104.83016204834
 30
0.0
 11
49.7457695007324
 21
-115.717216491699
 31
0.0
  0
LINE
  5
   221
  8
0
  6
CONTINUOUS
 62
    92
 10
64.6404724121094
 20
-113.550437927246
 30
0.0
 11
50.0000152587891
 21
-128.190887451172
 31
0.0
  0
LINE
  5
   222
  8
0
  6
CONTINUOUS
 62
    92
 10
65.0
 20
-125.918823242188
 30
0.0
 11
50.0000152587891
 21
-140.918823242188
 31
0.0
  0
LINE
  5
   223
  8
0
  6
CONTINUOUS
 62
    92
 10
65.0
 20
-138.646759033203
 30
0.0
 11
50.0000152587891
 21
-153.646759033203
 31
0.0
  0
LINE
  5
   224
  8
0
  6
CONTINUOUS
 62
    92
 10
65.0
 20
-151.374694824219
 30
0.0
 11
50.0000152587891
 21
-166.374694824219
 31
0.0
  0
LINE
  5
   225
  8
0
  6
CONTINUOUS
 62
    92
 10
65.0
 20
-164.102630615234
 30
0.0
 11
50.0000152587891
 21
-179.102630615234
 31
0.0
  0
LINE
  5
   226
  8
0
  6
CONTINUOUS
 62
    92
 10
65.0
 20
-176.83056640625
 30
0.0
 11
50.0000152587891
 21
-191.83056640625
 31
0.0
  0
LINE
  5
   227
  8
0
  6
CONTINUOUS
 62
    92
 10
64.9999923706055
 20
-189.558441162109
 30
0.0
 11
57.0579948425293
 21
-197.500442504883
 31
0.0
  0
ENDBLK
  5
   228
  8
0
  6
CONTINUOUS
 62
     2
  0
BLOCK
  5
   229
  8
0
  6
CONTINUOUS
 62
     2
  2
*HATCH137
 70
    65
 10
0.0
 20
0.0
 30
0.0
  3
*HATCH137
  0
LINE
  5
   22A
  8
0
  6
CONTINUOUS
 62
    92
 10
61.0285987854004
 20
-210.500396728516
 30
0.0
 11
50.0000152587891
 21
-221.528991699219
 31
0.0
  0
LINE
  5
   22B
  8
0
  6
CONTINUOUS
 62
    92
 10
64.9999923706055
 20
-219.256942749023
 30
0.0
 11
60.2565422058106
 21
-224.000381469727
 31
0.0
  0
ENDBLK
  5
   22C
  8
0
  6
CONTINUOUS
 62
     2
  0
BLOCK
  5
   22D
  8
0
  6
CONTINUOUS
 62
     7
  2
*HATCH138
 70
    65
 10
0.0
 20
0.0
 30
0.0
  3
*HATCH138
  0
LINE
  5
   22E
  8
0
  6
CONTINUOUS
 62
   210
 10
5.58903503417969
 20
-56.5007629394531
 30
0.0
 11
8.66251850128174
 21
-59.5742492675781
 31
0.0
  0
LINE
  5
   22F
  8
0
  6
CONTINUOUS
 62
   210
 10
11.9529914855957
 20
-56.5007629394531
 30
0.0
 11
13.9532566070557
 21
-58.5010299682617
 31
0.0
  0
LINE
  5
   230
  8
0
  6
CONTINUOUS
 62
   210
 10
18.3169498443604
 20
-56.5007629394531
 30
0.0
 11
19.4999523162842
 21
-57.683765411377
 31
0.0
  0
ENDBLK
  5
   231
  8
0
  6
CONTINUOUS
 62
     7
  0
BLOCK
  5
   232
  8
0
  6
CONTINUOUS
 62
     7
  2
*HATCH139
 70
    65
 10
0.0
 20
0.0
 30
0.0
  3
*HATCH139
  0
LINE
  5
   233
  8
0
  6
CONTINUOUS
 62
   210
 10
5.78758716583252
 20
-69.42724609375
 30
0.0
 11
8.8611011505127
 21
-72.5007629394531
 31
0.0
  0
LINE
  5
   234
  8
0
  6
CONTINUOUS
 62
   210
 10
13.2253274917603
 20
-70.5010299682617
 30
0.0
 11
15.2250576019287
 21
-72.5007629394531
 31
0.0
  0
ENDBLK
  5
   235
  8
0
  6
CONTINUOUS
 62
     7
  0
BLOCK
  5
   236
  8
0
  6
CONTINUOUS
 62
     7
  2
*HATCH140
 70
    65
 10
0.0
 20
0.0
 30
0.0
  3
*HATCH140
  0
LINE
  5
   237
  8
0
  6
CONTINUOUS
 62
    92
 10
19.4999523162842
 20
-49.1984786987305
 30
0.0
 11
28.3022079467773
 21
-58.0007476806641
 31
0.0
  0
LINE
  5
   238
  8
0
  6
CONTINUOUS
 62
    92
 10
24.0918827056885
 20
-41.0624847412109
 30
0.0
 11
33.5000038146973
 21
-50.4706153869629
 31
0.0
  0
ENDBLK
  5
   239
  8
0
  6
CONTINUOUS
 62
     7
  0
BLOCK
  5
   23A
  8
0
  6
CONTINUOUS
 62
     7
  2
*UDIM567
 70
    65
 10
0.0
 20
0.0
 30
0.0
  3
*UDIM567
  0
TEXT
  5
   23B
  8
0
  6
CONTINUOUS
 62
     7
 10
217.16833759745
 20
-29.4522664521228
 30
0.0
 40
2.99999994039535
  1
50
 41
0.933333333333333
 72
     1
 11
219.668337547779
 21
-27.9522664819252
 31
0.0
 73
     2
  0
LINE
  5
   23C
  8
0
  6
CONTINUOUS
 62
     7
 10
212.168334960938
 20
1.23373689404031
 30
0.0
 11
212.168334960938
 21
-32.4522664521228
 31
0.0
  0
LINE
  5
   23D
  8
0
  6
CONTINUOUS
 62
     7
 10
227.168340134621
 20
-23.3236213872649
 30
0.0
 11
227.168340134621
 21
-32.4522664521228
 31
0.0
  0
LINE
  5
   23E
  8
0
  6
CONTINUOUS
 62
     7
 10
212.168334960938
 20
-30.4522664521228
 30
0.0
 11
227.168340134621
 21
-30.4522664521228
 31
0.0
  0
LINE
  5
   23F
  8
0
  6
CONTINUOUS
 62
     7
 10
215.066112434148
 20
-29.6758092957043
 30
0.0
 11
212.168334960938
 21
-30.4522664521228
 31
0.0
  0
LINE
  5
   240
  8
0
  6
CONTINUOUS
 62
     7
 10
212.168334960938
 20
-30.4522664521228
 30
0.0
 11
215.066112434148
 21
-31.2287236085414
 31
0.0
  0
LINE
  5
   241
  8
0
  6
CONTINUOUS
 62
     7
 10
224.27056266141
 20
-31.2287236085414
 30
0.0
 11
227.168340134621
 21
-30.4522664521228
 31
0.0
  0
LINE
  5
   242
  8
0
  6
CONTINUOUS
 62
     7
 10
227.168340134621
 20
-30.4522664521228
 30
0.0
 11
224.27056266141
 21
-29.6758092957043
 31
0.0
  0
ENDBLK
  5
   243
  8
0
  6
CONTINUOUS
 62
     7
  0
BLOCK
  5
   244
  8
0
  6
CONTINUOUS
 62
     7
  2
*UDIM568
 70
    65
 10
0.0
 20
0.0
 30
0.0
  3
*UDIM568
  0
TEXT
  5
   245
  8
0
  6
CONTINUOUS
 62
     7
 10
236.601811575233
 20
-29.4522664521229
 30
0.0
 40
2.99999994039535
  1
15
 41
0.933333333333333
 72
     1
 11
239.101811525562
 21
-27.9522664819252
 31
0.0
 73
     2
  0
LINE
  5
   246
  8
0
  6
CONTINUOUS
 62
     7
 10
231.668333446979
 20
-23.3236213872649
 30
0.0
 11
231.668333446979
 21
-32.4522664521229
 31
0.0
  0
LINE
  5
   247
  8
0
  6
CONTINUOUS
 62
     7
 10
227.168340134621
 20
-30.4522664521228
 30
0.0
 11
241.601811475892
 21
-30.4522664521229
 31
0.0
  0
LINE
  5
   248
  8
0
  6
CONTINUOUS
 62
     7
 10
224.27056266141
 20
-31.2287236085414
 30
0.0
 11
227.168340134621
 21
-30.4522664521228
 31
0.0
  0
LINE
  5
   249
  8
0
  6
CONTINUOUS
 62
     7
 10
227.168340134621
 20
-30.4522664521228
 30
0.0
 11
224.27056266141
 21
-29.6758092957043
 31
0.0
  0
LINE
  5
   24A
  8
0
  6
CONTINUOUS
 62
     7
 10
234.56611092019
 20
-29.6758092957043
 30
0.0
 11
231.668333446979
 21
-30.4522664521228
 31
0.0
  0
LINE
  5
   24B
  8
0
  6
CONTINUOUS
 62
     7
 10
231.668333446979
 20
-30.4522664521228
 30
0.0
 11
234.56611092019
 21
-31.2287236085414
 31
0.0
  0
ENDBLK
  5
   24C
  8
0
  6
CONTINUOUS
 62
     7
  0
BLOCK
  5
   24D
  8
0
  6
CONTINUOUS
 62
     7
  2
*UDIM569
 70
    65
 10
0.0
 20
0.0
 30
0.0
  3
*UDIM569
  0
TEXT
  5
   24E
  8
0
  6
CONTINUOUS
 62
     7
 10
89.8074111414638
 20
-72.6106711334405
 30
0.0
 40
3.00000005960463
  1
70
 50
359.999999896069
 41
0.933333333333334
 72
     1
 11
92.3074111938477
 21
-71.1106711081605
 31
0.0
 73
     2
  0
TEXT
  5
   24F
  8
0
  6
CONTINUOUS
 62
     7
 10
87.7574110279614
 20
-78.110671254902
 30
0.0
 40
3.50000012516973
  1
= =
 50
359.999999896069
 41
0.933333333333333
 72
     1
 11
92.3074111938477
 21
-76.3606712005477
 31
0.0
 73
     2
  0
LINE
  5
   250
  8
0
  6
CONTINUOUS
 62
     7
 10
104.307410776615
 20
-73.6106711379628
 30
0.0
 11
80.3074116110802
 21
-73.6106711379628
 31
0.0
  0
LINE
  5
   251
  8
0
  6
CONTINUOUS
 62
     7
 10
102.205188249826
 20
-72.8342139815443
 30
0.0
 11
99.3074107766152
 21
-73.6106711379628
 31
0.0
  0
LINE
  5
   252
  8
0
  6
CONTINUOUS
 62
     7
 10
99.3074107766152
 20
-73.6106711379628
 30
0.0
 11
102.205188249826
 21
-74.3871282943813
 31
0.0
  0
LINE
  5
   253
  8
0
  6
CONTINUOUS
 62
     7
 10
82.4096341378696
 20
-74.3871282943813
 30
0.0
 11
85.3074116110802
 21
-73.6106711379628
 31
0.0
  0
LINE
  5
   254
  8
0
  6
CONTINUOUS
 62
     7
 10
85.3074116110802
 20
-73.6106711379628
 30
0.0
 11
82.4096341378696
 21
-72.8342139815443
 31
0.0
  0
ENDBLK
  5
   255
  8
0
  6
CONTINUOUS
 62
     7
  0
BLOCK
  5
   256
  8
0
  6
CONTINUOUS
 62
     7
  2
*UDIM570
 70
    65
 10
0.0
 20
0.0
 30
0.0
  3
*UDIM570
  0
TEXT
  5
   257
  8
0
  6
CONTINUOUS
 62
     7
 10
74.4239819387663
 20
-77.8385701211461
 30
0.0
 40
3.00000005960463
  1
203
 50
449.999999896069
 41
0.933333333333334
 72
     1
 11
72.9239819160139
 21
-73.9385700409485
 31
0.0
 73
     2
  0
LINE
  5
   258
  8
0
  6
CONTINUOUS
 62
     7
 10
77.9834643907239
 20
-59.0026002659402
 30
0.0
 11
73.4239819458162
 21
-59.0026002659402
 31
0.0
  0
LINE
  5
   259
  8
0
  6
CONTINUOUS
 62
     7
 10
75.4239819458162
 20
-59.0026002659402
 30
0.0
 11
75.4239819458162
 21
-86.6674499511719
 31
0.0
  0
LINE
  5
   25A
  8
0
  6
CONTINUOUS
 62
     7
 10
76.2004391022347
 20
-61.9003777391507
 30
0.0
 11
75.4239819458162
 21
-59.0026002659402
 31
0.0
  0
LINE
  5
   25B
  8
0
  6
CONTINUOUS
 62
     7
 10
75.4239819458162
 20
-59.0026002659402
 30
0.0
 11
74.6475247893976
 21
-61.9003777391507
 31
0.0
  0
LINE
  5
   25C
  8
0
  6
CONTINUOUS
 62
     7
 10
74.6475247893976
 20
-83.7696724779613
 30
0.0
 11
75.4239819458162
 21
-86.6674499511719
 31
0.0
  0
LINE
  5
   25D
  8
0
  6
CONTINUOUS
 62
     7
 10
75.4239819458162
 20
-86.6674499511719
 30
0.0
 11
76.2004391022347
 21
-83.7696724779613
 31
0.0
  0
ENDBLK
  5
   25E
  8
0
  6
CONTINUOUS
 62
     7
  0
BLOCK
  5
   25F
  8
0
  6
CONTINUOUS
 62
     7
  2
*UDIM571
 70
    65
 10
0.0
 20
0.0
 30
0.0
  3
*UDIM571
  0
TEXT
  5
   260
  8
0
  6
CONTINUOUS
 62
     7
 10
65.9564752096579
 20
-89.9264180929336
 30
0.0
 40
3.00000005960463
  1
378
 50
449.999999896069
 41
0.933333333333334
 72
     1
 11
64.4564751869054
 21
-86.0264180127361
 31
0.0
 73
     2
  0
LINE
  5
   261
  8
0
  6
CONTINUOUS
 62
     7
 10
77.9834643907239
 20
-59.0026002659402
 30
0.0
 11
64.9564752167077
 21
-59.0026002659402
 31
0.0
  0
LINE
  5
   262
  8
0
  6
CONTINUOUS
 62
     7
 10
76.3097310961605
 20
-113.050235759532
 30
0.0
 11
64.9564752167077
 21
-113.050235759532
 31
0.0
  0
LINE
  5
   263
  8
0
  6
CONTINUOUS
 62
     7
 10
66.9564752167077
 20
-59.0026002659402
 30
0.0
 11
66.9564752167077
 21
-113.050235759532
 31
0.0
  0
LINE
  5
   264
  8
0
  6
CONTINUOUS
 62
     7
 10
67.7329323731263
 20
-61.9003777391507
 30
0.0
 11
66.9564752167077
 21
-59.0026002659402
 31
0.0
  0
LINE
  5
   265
  8
0
  6
CONTINUOUS
 62
     7
 10
66.9564752167077
 20
-59.0026002659402
 30
0.0
 11
66.1800180602892
 21
-61.9003777391507
 31
0.0
  0
LINE
  5
   266
  8
0
  6
CONTINUOUS
 62
     7
 10
66.1800180602892
 20
-110.152458286322
 30
0.0
 11
66.9564752167077
 21
-113.050235759532
 31
0.0
  0
LINE
  5
   267
  8
0
  6
CONTINUOUS
 62
     7
 10
66.9564752167077
 20
-113.050235759532
 30
0.0
 11
67.7329323731263
 21
-110.152458286322
 31
0.0
  0
ENDBLK
  5
   268
  8
0
  6
CONTINUOUS
 62
     7
  0
ENDSEC
  0
SECTION
  2
ENTITIES
  0
LINE
  5
   269
  8
0
  6
CONTINUOUS
 62
     7
 10
233.639450073242
 20
-100.667449951172
 30
0.0
 11
270.389450073242
 21
-100.667449951172
 31
0.0
  0
LINE
  5
   26A
  8
0
  6
CONTINUOUS
 62
     7
 10
233.639450073242
 20
-72.6674499511719
 30
0.0
 11
270.389450073242
 21
-72.6674499511719
 31
0.0
  0
LINE
  5
   26B
  8
0
  6
CONTINUOUS
 62
     7
 10
233.639450073242
 20
-72.6674499511719
 30
0.0
 11
233.639450073242
 21
-100.667449951172
 31
0.0
  0
LINE
  5
   26C
  8
0
  6
CONTINUOUS
 62
     7
 10
270.389450073242
 20
-72.6674499511719
 30
0.0
 11
270.389450073242
 21
-100.667449951172
 31
0.0
  0
LINE
  5
   26D
  8
0
  6
DASHDOT
 62
     2
 10
252.014450073242
 20
-62.559000723583
 30
0.0
 11
252.014450073242
 21
-112.505282609889
 31
0.0
  0
CIRCLE
  5
   26E
  8
0
  6
CONTINUOUS
 62
     7
 10
237.639450073242
 20
-68.9174499511719
 30
0.0
 40
0.875
  0
CIRCLE
  5
   26F
  8
0
  6
CONTINUOUS
 62
     7
 10
266.389450073242
 20
-68.9174499511719
 30
0.0
 40
0.875
  0
CIRCLE
  5
   270
  8
0
  6
CONTINUOUS
 62
     7
 10
266.389450073242
 20
-104.417449951172
 30
0.0
 40
0.875
  0
CIRCLE
  5
   271
  8
0
  6
CONTINUOUS
 62
     7
 10
237.639450073242
 20
-104.417449951172
 30
0.0
 40
0.875
  0
LINE
  5
   272
  8
0
  6
DASHDOT
 62
     7
 10
266.389450073242
 20
-66.7924499511719
 30
0.0
 11
266.389450073242
 21
-71.0424499511719
 31
0.0
  0
LINE
  5
   273
  8
0
  6
DASHDOT
 62
     7
 10
264.264450073242
 20
-68.9174499511719
 30
0.0
 11
268.514450073242
 21
-68.9174499511719
 31
0.0
  0
LINE
  5
   274
  8
0
  6
DASHDOT
 62
     7
 10
237.639450073242
 20
-66.7924499511719
 30
0.0
 11
237.639450073242
 21
-71.0424499511719
 31
0.0
  0
LINE
  5
   275
  8
0
  6
DASHDOT
 62
     7
 10
235.514450073242
 20
-68.9174499511719
 30
0.0
 11
239.764450073242
 21
-68.9174499511719
 31
0.0
  0
LINE
  5
   276
  8
0
  6
DASHDOT
 62
     7
 10
237.639450073242
 20
-102.292449951172
 30
0.0
 11
237.639450073242
 21
-106.542449951172
 31
0.0
  0
LINE
  5
   277
  8
0
  6
DASHDOT
 62
     7
 10
235.514450073242
 20
-104.417449951172
 30
0.0
 11
239.764450073242
 21
-104.417449951172
 31
0.0
  0
LINE
  5
   278
  8
0
  6
DASHDOT
 62
     7
 10
266.389450073242
 20
-102.292449951172
 30
0.0
 11
266.389450073242
 21
-106.542449951172
 31
0.0
  0
LINE
  5
   279
  8
0
  6
DASHDOT
 62
     7
 10
264.264450073242
 20
-104.417449951172
 30
0.0
 11
268.514450073242
 21
-104.417449951172
 31
0.0
  0
LINE
  5
   27A
  8
0
  6
CONTINUOUS
 62
     7
 10
230.914551081858
 20
-65.8082941548483
 30
0.0
 11
272.876854822769
 21
-65.8082941548483
 31
0.0
  0
LINE
  5
   27B
  8
0
  6
CONTINUOUS
 62
     7
 10
230.914551081858
 20
-108.141945716476
 30
0.0
 11
272.876854822769
 21
-108.141945716476
 31
0.0
  0
LINE
  5
   27C
  8
0
  6
CONTINUOUS
 62
     7
 10
272.876854822769
 20
-65.8082941548483
 30
0.0
 11
272.876854822769
 21
-108.141945716476
 31
0.0
  0
LINE
  5
   27D
  8
0
  6
CONTINUOUS
 62
     7
 10
230.914551081858
 20
-65.8082941548483
 30
0.0
 11
230.914551081858
 21
-108.141945716476
 31
0.0
  0
LINE
  5
   27E
  8
0
  6
DASHDOT
 62
     2
 10
223.113745038158
 20
-86.6674499511719
 30
0.0
 11
281.780019878576
 21
-86.6674499511719
 31
0.0
  0
TEXT
  5
   27F
  8
0
  6
CONTINUOUS
 62
     1
 10
221.524982738759
 20
-177.398010219578
 30
0.0
 40
2.00000008940697
  1
3POLE LOW VOLTAGE M.C.C.B SERIES ISOMAX
 50
359.999999844103
 41
0.749999861419206
 72
     1
 11
250.624978661537
 21
-176.398010253906
 31
0.0
 73
     2
  0
TEXT
  5
   280
  8
0
  6
CONTINUOUS
 62
     1
 10
220.774982843812
 20
-180.398010217541
 30
0.0
 40
2.00000008940697
  1
FIXED VERS.SPREADED EXTENDED FRONT TERM.
 50
359.999999844103
 41
0.749999861419206
 72
     1
 11
250.624978661537
 21
-179.398010253906
 31
0.0
 73
     2
  0
TEXT
  5
   281
  8
0
  6
CONTINUOUS
 62
     1
 10
224.727374371406
 20
-185.468276961543
 30
0.0
 40
2.00000008940697
  1
INTERR.AUTOMATICO SERIE ISOMAX
 50
359.999999844103
 41
0.749999861419206
 72
     1
 11
247.077371239662
 21
-184.468276977539
 31
0.0
 73
     2
  0
TEXT
  5
   282
  8
0
  6
CONTINUOUS
 62
     1
 10
212.727376052257
 20
-188.468276928952
 30
0.0
 40
2.00000008940697
  1
TRIPOL.ESECUZIONE FISSA TERM.ANT.PROL.DIVARIC.
 50
359.999999844103
 41
0.749999861419206
 72
     1
 11
247.077371239662
 21
-187.468276977539
 31
0.0
 73
     2
  0
TEXT
  5
   283
  8
0
  6
CONTINUOUS
 62
     1
 10
233.059402461747
 20
-195.708282475112
 30
0.0
 40
3.00000002980232
  1
     S7
 50
359.999999844103
 41
0.916666604744064
 72
     2
 11
251.759401379922
 21
-195.708282525899
 31
0.0
  0
TEXT
  5
   284
  8
0
  6
CONTINUOUS
 62
     1
 10
231.973709101014
 20
-204.689865241214
 30
0.0
 40
4.00000017881393
  1
601840/451
 50
359.999999844103
 41
0.937499973922969
 72
     2
 11
268.723709700785
 21
-204.689865341023
 31
0.0
  0
TEXT
  5
   285
  8
0
  6
CONTINUOUS
 62
     1
 10
162.305714975711
 20
-193.704193131828
 30
0.0
 40
2.00000008940697
  1
N0022 99-11-11
 50
359.999999844103
 41
0.749999861419206
 72
     1
 11
172.655713524818
 21
-192.704193115234
 31
0.0
 73
     2
  0
TEXT
  5
   286
  8
0
  6
CONTINUOUS
 62
     7
 10
226.363963501118
 20
-98.7268749630379
 30
0.0
 40
3.00000002980232
  1
=      =
 50
449.999999844103
 41
0.916666604744064
 72
     2
 11
226.363963559347
 21
-77.2768762033112
 31
0.0
  0
TEXT
  5
   287
  8
0
  6
CONTINUOUS
 62
     7
 10
217.425887481831
 20
-98.7268749630379
 30
0.0
 40
3.00000002980232
  1
=      =
 50
449.999999844103
 41
0.916666604744064
 72
     2
 11
217.42588754006
 21
-77.2768762033112
 31
0.0
  0
TEXT
  5
   288
  8
0
  6
CONTINUOUS
 62
     7
 10
251.373790432907
 20
-121.881816343064
 30
0.0
 40
3.00000002980232
  1
Y
 50
359.999999844103
 41
0.916666604744064
 72
     2
 11
253.573790301777
 21
-121.881816349039
 31
0.0
  0
TEXT
  5
   289
  8
0
  6
CONTINUOUS
 62
     7
 10
250.631094862915
 20
-53.5538172280739
 30
0.0
 40
3.00000002980232
  1
Y
 50
359.999999844103
 41
0.916666604744064
 72
     2
 11
252.831094731785
 21
-53.5538172340488
 31
0.0
  0
TEXT
  5
   28A
  8
0
  6
CONTINUOUS
 62
     7
 10
205.698010136582
 20
-88.8318585312317
 30
0.0
 40
3.00000002980232
  1
X
 50
359.999999844103
 41
0.916666604744064
 72
     2
 11
207.898010005451
 21
-88.8318585372066
 31
0.0
  0
TEXT
  5
   28B
  8
0
  6
CONTINUOUS
 62
     7
 10
283.417801548935
 20
-88.1026038682411
 30
0.0
 40
3.00000002980232
  1
X
 50
359.999999844103
 41
0.916666604744064
 72
     2
 11
285.617801417805
 21
-88.1026038742161
 31
0.0
  0
TEXT
  5
   28C
  8
0
  6
CONTINUOUS
 62
     7
 10
242.150182571409
 20
-119.282375581855
 30
0.0
 40
3.00000002980232
  1
=      =
 50
359.999999844103
 41
0.916666604744064
 72
     2
 11
263.600181331136
 21
-119.28237564011
 31
0.0
  0
TEXT
  5
   28D
  8
0
  6
CONTINUOUS
 62
     7
 10
241.407483901975
 20
-63.6730425435247
 30
0.0
 40
3.00000002980232
  1
=      =
 50
359.999999844103
 41
0.916666604744064
 72
     2
 11
262.857482661702
 21
-63.6730426017804
 31
0.0
  0
INSERT
  5
   28E
  8
0
  6
CONTINUOUS
 62
     7
  2
*UDIM528
 10
0.0
 20
0.0
 30
0.0
  0
INSERT
  5
   28F
  8
0
  6
CONTINUOUS
 62
     7
  2
*UDIM529
 10
0.0
 20
0.0
 30
0.0
  0
INSERT
  5
   290
  8
0
  6
CONTINUOUS
 62
     7
  2
*UDIM530
 10
0.0
 20
0.0
 30
0.0
  0
INSERT
  5
   291
  8
0
  6
CONTINUOUS
 62
     7
  2
*UDIM531
 10
0.0
 20
0.0
 30
0.0
  0
INSERT
  5
   292
  8
0
  6
CONTINUOUS
 62
     7
  2
*UDIM532
 10
0.0
 20
0.0
 30
0.0
  0
LINE
  5
   293
  8
0
  6
CONTINUOUS
 62
   130
 10
71.6074286818512
 20
51.2519320160154
 30
0.0
 11
71.6074286818512
 21
51.5519320279363
 31
0.0
  0
LINE
  5
   294
  8
0
  6
CONTINUOUS
 62
   130
 10
71.417172919105
 20
51.2519320160154
 30
0.0
 11
71.3074012041088
 21
51.2519320160154
 31
0.0
  0
LINE
  5
   295
  8
0
  6
CONTINUOUS
 62
   130
 10
71.6074286818512
 20
51.2519320160154
 30
0.0
 11
71.4171729369864
 21
51.2519320160154
 31
0.0
  0
LINE
  5
   296
  8
0
  6
CONTINUOUS
 62
   130
 10
71.6074286818512
 20
51.5519320279363
 30
0.0
 11
71.3074012041088
 21
51.5519320279363
 31
0.0
  0
LINE
  5
   297
  8
0
  6
CONTINUOUS
 62
   130
 10
113.007393705844
 20
51.2519274383785
 30
0.0
 11
113.007393705844
 21
51.5519274502994
 31
0.0
  0
LINE
  5
   298
  8
0
  6
CONTINUOUS
 62
   130
 10
113.307421183586
 20
51.2519274383785
 30
0.0
 11
113.007393705844
 21
51.2519274383785
 31
0.0
  0
LINE
  5
   299
  8
0
  6
CONTINUOUS
 62
   130
 10
113.307421183586
 20
51.5519274502994
 30
0.0
 11
113.197640295435
 21
51.5519274502994
 31
0.0
  0
LINE
  5
   29A
  8
0
  6
CONTINUOUS
 62
   130
 10
113.197640295435
 20
51.5519274502994
 30
0.0
 11
113.007393705844
 21
51.5519274502994
 31
0.0
  0
LINE
  5
   29B
  8
0
  6
CONTINUOUS
 62
     1
 10
113.007394344392
 20
50.6519251257184
 30
0.0
 11
98.6074114441872
 21
50.6519267179392
 31
0.0
  0
LINE
  5
   29C
  8
0
  6
CONTINUOUS
 62
   130
 10
71.6074286818512
 20
56.9519322425131
 30
0.0
 11
71.6074286818512
 21
57.251932254434
 31
0.0
  0
LINE
  5
   29D
  8
0
  6
CONTINUOUS
 62
   130
 10
71.417172919105
 20
56.9519322425131
 30
0.0
 11
71.3074012041088
 21
56.9519322425131
 31
0.0
  0
LINE
  5
   29E
  8
0
  6
CONTINUOUS
 62
   130
 10
71.6074286818512
 20
56.9519322425131
 30
0.0
 11
71.4171729369864
 21
56.9519322425131
 31
0.0
  0
LINE
  5
   29F
  8
0
  6
CONTINUOUS
 62
   130
 10
71.6074286818512
 20
57.251932254434
 30
0.0
 11
71.3074012041088
 21
57.251932254434
 31
0.0
  0
LINE
  5
   2A0
  8
0
  6
CONTINUOUS
 62
   130
 10
113.007393705844
 20
56.9519230872393
 30
0.0
 11
113.007393705844
 21
57.2519230991602
 31
0.0
  0
LINE
  5
   2A1
  8
0
  6
CONTINUOUS
 62
   130
 10
113.307412028313
 20
56.9519230872393
 30
0.0
 11
113.007393705844
 21
56.9519230872393
 31
0.0
  0
LINE
  5
   2A2
  8
0
  6
CONTINUOUS
 62
   130
 10
113.307412028313
 20
57.2519230991602
 30
0.0
 11
113.007393705844
 21
57.2519230991602
 31
0.0
  0
LINE
  5
   2A3
  8
0
  6
CONTINUOUS
 62
     1
 10
113.007393705844
 20
56.3519230633974
 30
0.0
 11
98.6074114441872
 21
56.3519230633974
 31
0.0
  0
LINE
  5
   2A4
  8
0
  6
CONTINUOUS
 62
     1
 10
86.0074182391208
 20
56.3519224911942
 30
0.0
 11
71.6074313998269
 21
56.3519316464677
 31
0.0
  0
LINE
  5
   2A5
  8
0
  6
CONTINUOUS
 62
   130
 10
71.6074195265774
 20
70.3019236177206
 30
0.0
 11
71.6074195265774
 21
70.6019236296415
 31
0.0
  0
LINE
  5
   2A6
  8
0
  6
CONTINUOUS
 62
   130
 10
71.417172919105
 20
70.3019236177206
 30
0.0
 11
71.3074103593826
 21
70.3019236177206
 31
0.0
  0
LINE
  5
   2A7
  8
0
  6
CONTINUOUS
 62
   130
 10
71.6074195265774
 20
70.3019236177206
 30
0.0
 11
71.4171775146233
 21
70.3019236177206
 31
0.0
  0
LINE
  5
   2A8
  8
0
  6
CONTINUOUS
 62
   130
 10
71.6074195265774
 20
70.6019236296415
 30
0.0
 11
71.4171775146233
 21
70.6019236296415
 31
0.0
  0
LINE
  5
   2A9
  8
0
  6
CONTINUOUS
 62
   130
 10
71.4171775146233
 20
70.6019236296415
 30
0.0
 11
71.3074103593826
 21
70.6019236296415
 31
0.0
  0
LINE
  5
   2AA
  8
0
  6
CONTINUOUS
 62
   130
 10
113.007402861118
 20
70.3019327729944
 30
0.0
 11
113.007402861118
 21
70.6019327849153
 31
0.0
  0
LINE
  5
   2AB
  8
0
  6
CONTINUOUS
 62
   130
 10
113.197635717798
 20
70.3019327729944
 30
0.0
 11
113.007402861118
 21
70.3019327729944
 31
0.0
  0
LINE
  5
   2AC
  8
0
  6
CONTINUOUS
 62
   130
 10
113.307412010431
 20
70.3019327729944
 30
0.0
 11
113.197635717798
 21
70.3019327729944
 31
0.0
  0
LINE
  5
   2AD
  8
0
  6
CONTINUOUS
 62
   130
 10
113.307412028313
 20
70.6019327849153
 30
0.0
 11
113.197640313317
 21
70.6019327849153
 31
0.0
  0
LINE
  5
   2AE
  8
0
  6
CONTINUOUS
 62
   130
 10
113.197635717798
 20
70.6019327849153
 30
0.0
 11
113.007402861118
 21
70.6019327849153
 31
0.0
  0
LINE
  5
   2AF
  8
0
  6
CONTINUOUS
 62
     1
 10
113.007402861118
 20
69.7019327491526
 30
0.0
 11
98.6074114441872
 21
69.7019327491526
 31
0.0
  0
LINE
  5
   2B0
  8
0
  6
CONTINUOUS
 62
     1
 10
71.6074220538039
 20
69.701919588455
 30
0.0
 11
86.0074180483716
 21
69.7019287437286
 31
0.0
  0
LINE
  5
   2B1
  8
0
  6
CONTINUOUS
 62
   130
 10
71.6074195265774
 20
76.0019238442183
 30
0.0
 11
71.6074195265774
 21
76.3019238561392
 31
0.0
  0
LINE
  5
   2B2
  8
0
  6
CONTINUOUS
 62
   130
 10
71.6074195265774
 20
76.0019238442183
 30
0.0
 11
71.3074012041088
 21
76.0019238442183
 31
0.0
  0
LINE
  5
   2B3
  8
0
  6
CONTINUOUS
 62
   130
 10
71.6074195265774
 20
76.3019238561392
 30
0.0
 11
71.3074012041088
 21
76.3019238561392
 31
0.0
  0
LINE
  5
   2B4
  8
0
  6
CONTINUOUS
 62
   130
 10
113.007402861118
 20
76.0019329994921
 30
0.0
 11
113.007402861118
 21
76.301933011413
 31
0.0
  0
LINE
  5
   2B5
  8
0
  6
CONTINUOUS
 62
   130
 10
113.197644873072
 20
76.0019329994921
 30
0.0
 11
113.007402861118
 21
76.0019329994921
 31
0.0
  0
LINE
  5
   2B6
  8
0
  6
CONTINUOUS
 62
   130
 10
113.307412028313
 20
76.0019329994921
 30
0.0
 11
113.197644873072
 21
76.0019329994921
 31
0.0
  0
LINE
  5
   2B7
  8
0
  6
CONTINUOUS
 62
   130
 10
113.307412028313
 20
76.301933011413
 30
0.0
 11
113.007402861118
 21
76.301933011413
 31
0.0
  0
LINE
  5
   2B8
  8
0
  6
CONTINUOUS
 62
     1
 10
71.6074219314907
 20
75.4019238203773
 30
0.0
 11
113.007400688394
 21
75.4019329756509
 31
0.0
  0
LINE
  5
   2B9
  8
0
  6
CONTINUOUS
 62
     1
 10
61.746909450074
 20
42.0269230595149
 30
0.0
 11
61.1824318885812
 21
42.0269250622308
 31
0.0
  0
LINE
  5
   2BA
  8
0
  6
CONTINUOUS
 62
     1
 10
122.867912937621
 20
42.0269230595149
 30
0.0
 11
123.432390499114
 21
42.0269250622308
 31
0.0
  0
LINE
  5
   2BB
  8
0
  6
CONTINUOUS
 62
     1
 10
123.807411770501
 20
105.176925003529
 30
0.0
 11
60.8074106171948
 21
105.176925003529
 31
0.0
  0
LINE
  5
   2BC
  8
0
  6
CONTINUOUS
 62
     1
 10
122.867911980967
 20
42.0269227802754
 30
0.0
 11
115.107412099838
 21
42.0269227802754
 31
0.0
  0
LINE
  5
   2BD
  8
0
  6
CONTINUOUS
 62
     1
 10
123.732403287291
 20
42.3269227921963
 30
0.0
 11
115.107412099838
 21
42.3269227921963
 31
0.0
  0
LINE
  5
   2BE
  8
0
  6
CONTINUOUS
 62
     1
 10
69.5074102878571
 20
80.7269057214253
 30
0.0
 11
60.8074140556981
 21
80.7269057214253
 31
0.0
  0
LINE
  5
   2BF
  8
0
  6
CONTINUOUS
 62
     1
 10
123.732403287291
 20
80.7269057214253
 30
0.0
 11
115.107412099838
 21
80.7269057214253
 31
0.0
  0
LINE
  5
   2C0
  8
0
  6
CONTINUOUS
 62
     1
 10
123.732403287291
 20
49.2269179165361
 30
0.0
 11
115.107412099838
 21
49.2269179165361
 31
0.0
  0
LINE
  5
   2C1
  8
0
  6
CONTINUOUS
 62
     1
 10
69.5074102878571
 20
49.2269179165361
 30
0.0
 11
60.8824099451304
 21
49.2269179165361
 31
0.0
  0
LINE
  5
   2C2
  8
0
  6
CONTINUOUS
 62
     1
 10
61.4524172919992
 20
80.7269057214253
 30
0.0
 11
61.4524172919992
 21
105.176920425892
 31
0.0
  0
LINE
  5
   2C3
  8
0
  6
CONTINUOUS
 62
     1
 10
62.5324283212431
 20
80.7269057214253
 30
0.0
 11
62.5324283212431
 21
105.176920425892
 31
0.0
  0
LINE
  5
   2C4
  8
0
  6
CONTINUOUS
 62
     1
 10
63.6124210399394
 20
80.7269057214253
 30
0.0
 11
63.6124210399394
 21
105.176920425892
 31
0.0
  0
LINE
  5
   2C5
  8
0
  6
CONTINUOUS
 62
     1
 10
64.6924137586357
 20
80.7269057214253
 30
0.0
 11
64.6924137586357
 21
105.176920425892
 31
0.0
  0
LINE
  5
   2C6
  8
0
  6
CONTINUOUS
 62
     1
 10
65.7724247878796
 20
80.7269057214253
 30
0.0
 11
65.7724247878796
 21
105.176920425892
 31
0.0
  0
LINE
  5
   2C7
  8
0
  6
CONTINUOUS
 62
     1
 10
66.8524175065759
 20
80.7269057214253
 30
0.0
 11
66.8524175065759
 21
105.176920425892
 31
0.0
  0
LINE
  5
   2C8
  8
0
  6
CONTINUOUS
 62
     1
 10
67.9324285358198
 20
80.7269057214253
 30
0.0
 11
67.9324285358198
 21
105.176920425892
 31
0.0
  0
LINE
  5
   2C9
  8
0
  6
CONTINUOUS
 62
     1
 10
69.0124212545161
 20
80.7269057214253
 30
0.0
 11
69.0124212545161
 21
105.176920425892
 31
0.0
  0
LINE
  5
   2CA
  8
0
  6
CONTINUOUS
 62
     1
 10
70.0924139732124
 20
89.1269054830067
 30
0.0
 11
70.0924139732124
 21
105.176920425892
 31
0.0
  0
LINE
  5
   2CB
  8
0
  6
CONTINUOUS
 62
     1
 10
71.1724250024563
 20
89.1269054830067
 30
0.0
 11
71.1724250024563
 21
105.176920425892
 31
0.0
  0
LINE
  5
   2CC
  8
0
  6
CONTINUOUS
 62
     1
 10
61.4524172919992
 20
49.2269273579122
 30
0.0
 11
61.4524172919992
 21
80.7269057214253
 31
0.0
  0
LINE
  5
   2CD
  8
0
  6
CONTINUOUS
 62
     1
 10
62.5324283212431
 20
49.2269273579122
 30
0.0
 11
62.5324283212431
 21
80.7269057214253
 31
0.0
  0
LINE
  5
   2CE
  8
0
  6
CONTINUOUS
 62
     1
 10
63.6124210399394
 20
49.2269273579122
 30
0.0
 11
63.6124210399394
 21
80.7269057214253
 31
0.0
  0
LINE
  5
   2CF
  8
0
  6
CONTINUOUS
 62
     1
 10
64.6924137586357
 20
49.2269273579122
 30
0.0
 11
64.6924137586357
 21
80.7269057214253
 31
0.0
  0
LINE
  5
   2D0
  8
0
  6
CONTINUOUS
 62
     1
 10
65.7724247878796
 20
49.2269273579122
 30
0.0
 11
65.7724247878796
 21
80.7269057214253
 31
0.0
  0
LINE
  5
   2D1
  8
0
  6
CONTINUOUS
 62
     1
 10
66.8524175065759
 20
49.2269273579122
 30
0.0
 11
66.8524175065759
 21
80.7269057214253
 31
0.0
  0
LINE
  5
   2D2
  8
0
  6
CONTINUOUS
 62
     1
 10
67.9324285358198
 20
49.2269273579122
 30
0.0
 11
67.9324285358198
 21
80.7269057214253
 31
0.0
  0
LINE
  5
   2D3
  8
0
  6
CONTINUOUS
 62
     1
 10
69.0124212545161
 20
49.2269273579122
 30
0.0
 11
69.0124212545161
 21
80.7269057214253
 31
0.0
  0
LINE
  5
   2D4
  8
0
  6
CONTINUOUS
 62
     1
 10
71.1724250024563
 20
49.2269273579122
 30
0.0
 11
71.1724250024563
 21
80.7269057214253
 31
0.0
  0
LINE
  5
   2D5
  8
0
  6
CONTINUOUS
 62
     2
 10
61.4524172919992
 20
8.276925284693
 30
0.0
 11
61.4524172919992
 21
29.7269261370394
 31
0.0
  0
LINE
  5
   2D6
  8
0
  6
CONTINUOUS
 62
     2
 10
62.5324283212431
 20
8.276925284693
 30
0.0
 11
62.5324283212431
 21
29.7269261370394
 31
0.0
  0
LINE
  5
   2D7
  8
0
  6
CONTINUOUS
 62
     2
 10
63.6124210399394
 20
8.276925284693
 30
0.0
 11
63.6124210399394
 21
29.7269261370394
 31
0.0
  0
LINE
  5
   2D8
  8
0
  6
CONTINUOUS
 62
     2
 10
64.6924137586357
 20
8.276925284693
 30
0.0
 11
64.6924137586357
 21
29.7269261370394
 31
0.0
  0
LINE
  5
   2D9
  8
0
  6
CONTINUOUS
 62
     2
 10
65.7724247878796
 20
8.276925284693
 30
0.0
 11
65.7724247878796
 21
29.7269261370394
 31
0.0
  0
LINE
  5
   2DA
  8
0
  6
CONTINUOUS
 62
     2
 10
66.8524175065759
 20
8.276925284693
 30
0.0
 11
66.8524175065759
 21
29.7269261370394
 31
0.0
  0
LINE
  5
   2DB
  8
0
  6
CONTINUOUS
 62
     2
 10
67.9324285358198
 20
8.276925284693
 30
0.0
 11
67.9324285358198
 21
29.7269261370394
 31
0.0
  0
LINE
  5
   2DC
  8
0
  6
CONTINUOUS
 62
     2
 10
69.0124212545161
 20
8.276925284693
 30
0.0
 11
69.0124212545161
 21
29.7269261370394
 31
0.0
  0
LINE
  5
   2DD
  8
0
  6
CONTINUOUS
 62
     2
 10
70.0924139732124
 20
8.276925284693
 30
0.0
 11
70.0924139732124
 21
29.7269261370394
 31
0.0
  0
LINE
  5
   2DE
  8
0
  6
CONTINUOUS
 62
     2
 10
71.1724250024563
 20
30.1769243121148
 30
0.0
 11
71.1724250024563
 21
40.8269047081464
 31
0.0
  0
LINE
  5
   2DF
  8
0
  6
CONTINUOUS
 62
     1
 10
123.162405095696
 20
80.7269057214253
 30
0.0
 11
123.162405095696
 21
105.176920425892
 31
0.0
  0
LINE
  5
   2E0
  8
0
  6
CONTINUOUS
 62
     1
 10
122.082394066452
 20
80.7269057214253
 30
0.0
 11
122.082394066452
 21
105.176920425892
 31
0.0
  0
LINE
  5
   2E1
  8
0
  6
CONTINUOUS
 62
     1
 10
121.002401347756
 20
80.7269057214253
 30
0.0
 11
121.002401347756
 21
105.176920425892
 31
0.0
  0
LINE
  5
   2E2
  8
0
  6
CONTINUOUS
 62
     1
 10
119.92240862906
 20
80.7269057214253
 30
0.0
 11
119.92240862906
 21
105.176920425892
 31
0.0
  0
LINE
  5
   2E3
  8
0
  6
CONTINUOUS
 62
     1
 10
118.842397599816
 20
80.7269057214253
 30
0.0
 11
118.842397599816
 21
105.176920425892
 31
0.0
  0
LINE
  5
   2E4
  8
0
  6
CONTINUOUS
 62
     1
 10
117.762404881119
 20
80.7269057214253
 30
0.0
 11
117.762404881119
 21
105.176920425892
 31
0.0
  0
LINE
  5
   2E5
  8
0
  6
CONTINUOUS
 62
     1
 10
116.682393851876
 20
80.7269057214253
 30
0.0
 11
116.682393851876
 21
105.176920425892
 31
0.0
  0
LINE
  5
   2E6
  8
0
  6
CONTINUOUS
 62
     1
 10
115.602401133179
 20
80.7269057214253
 30
0.0
 11
115.602401133179
 21
105.176920425892
 31
0.0
  0
LINE
  5
   2E7
  8
0
  6
CONTINUOUS
 62
     1
 10
114.522408414483
 20
89.1269054830067
 30
0.0
 11
114.522408414483
 21
105.176920425892
 31
0.0
  0
LINE
  5
   2E8
  8
0
  6
CONTINUOUS
 62
     1
 10
113.442397385239
 20
89.1269054830067
 30
0.0
 11
113.442397385239
 21
105.176920425892
 31
0.0
  0
LINE
  5
   2E9
  8
0
  6
CONTINUOUS
 62
     1
 10
123.162405095696
 20
49.2269202053546
 30
0.0
 11
123.162405095696
 21
80.7268985688676
 31
0.0
  0
LINE
  5
   2EA
  8
0
  6
CONTINUOUS
 62
     1
 10
122.082394066452
 20
49.2269202053546
 30
0.0
 11
122.082394066452
 21
80.7268985688676
 31
0.0
  0
LINE
  5
   2EB
  8
0
  6
CONTINUOUS
 62
     1
 10
121.002401347756
 20
49.2269202053546
 30
0.0
 11
121.002401347756
 21
80.7268985688676
 31
0.0
  0
LINE
  5
   2EC
  8
0
  6
CONTINUOUS
 62
     1
 10
119.92240862906
 20
49.2269202053546
 30
0.0
 11
119.92240862906
 21
80.7268985688676
 31
0.0
  0
LINE
  5
   2ED
  8
0
  6
CONTINUOUS
 62
     1
 10
118.842397599816
 20
49.2269202053546
 30
0.0
 11
118.842397599816
 21
80.7268985688676
 31
0.0
  0
LINE
  5
   2EE
  8
0
  6
CONTINUOUS
 62
     1
 10
117.762404881119
 20
49.2269202053546
 30
0.0
 11
117.762404881119
 21
80.7268985688676
 31
0.0
  0
LINE
  5
   2EF
  8
0
  6
CONTINUOUS
 62
     1
 10
116.682393851876
 20
49.2269202053546
 30
0.0
 11
116.682393851876
 21
80.7268985688676
 31
0.0
  0
LINE
  5
   2F0
  8
0
  6
CONTINUOUS
 62
     1
 10
115.602401133179
 20
49.2269202053546
 30
0.0
 11
115.602401133179
 21
80.7268985688676
 31
0.0
  0
LINE
  5
   2F1
  8
0
  6
CONTINUOUS
 62
     1
 10
113.442397385239
 20
49.2269202053546
 30
0.0
 11
113.442397385239
 21
80.7268985688676
 31
0.0
  0
LINE
  5
   2F2
  8
0
  6
CONTINUOUS
 62
     1
 10
123.162405095696
 20
42.3269227921963
 30
0.0
 11
123.162405095696
 21
49.2269184887408
 31
0.0
  0
LINE
  5
   2F3
  8
0
  6
CONTINUOUS
 62
     1
 10
122.082394066452
 20
42.3269227921963
 30
0.0
 11
122.082394066452
 21
49.2269184887408
 31
0.0
  0
LINE
  5
   2F4
  8
0
  6
CONTINUOUS
 62
     1
 10
121.002401347756
 20
42.3269227921963
 30
0.0
 11
121.002401347756
 21
49.2269184887408
 31
0.0
  0
LINE
  5
   2F5
  8
0
  6
CONTINUOUS
 62
     1
 10
119.92240862906
 20
42.3269227921963
 30
0.0
 11
119.92240862906
 21
49.2269184887408
 31
0.0
  0
LINE
  5
   2F6
  8
0
  6
CONTINUOUS
 62
     1
 10
118.842397599816
 20
42.3269227921963
 30
0.0
 11
118.842397599816
 21
49.2269184887408
 31
0.0
  0
LINE
  5
   2F7
  8
0
  6
CONTINUOUS
 62
     1
 10
117.762404881119
 20
42.3269227921963
 30
0.0
 11
117.762404881119
 21
49.2269184887408
 31
0.0
  0
LINE
  5
   2F8
  8
0
  6
CONTINUOUS
 62
     1
 10
116.682393851876
 20
42.3269227921963
 30
0.0
 11
116.682393851876
 21
49.2269184887408
 31
0.0
  0
LINE
  5
   2F9
  8
0
  6
CONTINUOUS
 62
     1
 10
115.602401133179
 20
42.3269227921963
 30
0.0
 11
115.602401133179
 21
49.2269184887408
 31
0.0
  0
LINE
  5
   2FA
  8
0
  6
CONTINUOUS
 62
     1
 10
113.442397385239
 20
42.3269227921963
 30
0.0
 11
113.442397385239
 21
49.2269184887408
 31
0.0
  0
LINE
  5
   2FB
  8
0
  6
CONTINUOUS
 62
     1
 10
112.857408091034
 20
89.1269054830067
 30
0.0
 11
112.857402286706
 21
103.676923986511
 31
0.0
  0
LINE
  5
   2FC
  8
0
  6
CONTINUOUS
 62
     1
 10
71.7574201907746
 20
89.1269054830067
 30
0.0
 11
71.7574143864474
 21
103.676921323716
 31
0.0
  0
LINE
  5
   2FD
  8
0
  6
CONTINUOUS
 62
     1
 10
112.857402855158
 20
103.676924943924
 30
0.0
 11
71.7574149549009
 21
103.676924943924
 31
0.0
  0
LINE
  5
   2FE
  8
0
  6
CONTINUOUS
 62
     1
 10
123.432394120096
 20
42.0269247829915
 30
0.0
 11
123.432394120096
 21
42.3269227921963
 31
0.0
  0
LINE
  5
   2FF
  8
0
  6
CONTINUOUS
 62
     1
 10
61.1824282675989
 20
42.0269247829915
 30
0.0
 11
61.1824282675989
 21
42.3269227921963
 31
0.0
  0
LINE
  5
   300
  8
0
  6
CONTINUOUS
 62
     1
 10
92.7724958532188
 20
8.276925284693
 30
0.0
 11
92.7724824993762
 21
29.7269261370394
 31
0.0
  0
LINE
  5
   301
  8
0
  6
CONTINUOUS
 62
     1
 10
93.8524944362496
 20
8.276925284693
 30
0.0
 11
93.8524813343663
 21
29.7269261370394
 31
0.0
  0
LINE
  5
   302
  8
0
  6
CONTINUOUS
 62
     1
 10
95.08249588779
 20
8.27692528469301
 30
0.0
 11
95.0824825339474
 21
29.7269261370394
 31
0.0
  0
LINE
  5
   303
  8
0
  6
CONTINUOUS
 62
     1
 10
96.1624957590442
 20
8.27692528469301
 30
0.0
 11
96.1624824052015
 21
29.7269261370394
 31
0.0
  0
LINE
  5
   304
  8
0
  6
CONTINUOUS
 62
     1
 10
97.2424814644191
 20
8.27692528469301
 30
0.0
 11
97.2424693703728
 21
29.7269261370394
 31
0.0
  0
LINE
  5
   305
  8
0
  6
CONTINUOUS
 62
     1
 10
98.3224833383894
 20
8.27692528469301
 30
0.0
 11
98.322471244343
 21
29.7269261370394
 31
0.0
  0
LINE
  5
   306
  8
0
  6
CONTINUOUS
 62
     1
 10
99.4025012462973
 20
8.27692528469301
 30
0.0
 11
99.4024851209029
 21
29.7269261370394
 31
0.0
  0
LINE
  5
   307
  8
0
  6
CONTINUOUS
 62
     1
 10
100.482482508693
 20
8.276925284693
 30
0.0
 11
100.482470414647
 21
29.7269261370394
 31
0.0
  0
LINE
  5
   308
  8
0
  6
CONTINUOUS
 62
     1
 10
103.722317149341
 20
105.626950015666
 30
0.0
 11
103.722287335607
 21
115.583413623415
 31
0.0
  0
LINE
  5
   309
  8
0
  6
CONTINUOUS
 62
     1
 10
104.802369356153
 20
105.626943856373
 30
0.0
 11
104.802314523882
 21
130.076783371881
 31
0.0
  0
LINE
  5
   30A
  8
0
  6
CONTINUOUS
 62
     1
 10
105.882371230121
 20
105.626946278432
 30
0.0
 11
105.882316397848
 21
130.076786605849
 31
0.0
  0
LINE
  5
   30B
  8
0
  6
CONTINUOUS
 62
     1
 10
106.962373104088
 20
105.626948700491
 30
0.0
 11
106.962318271813
 21
130.076789839818
 31
0.0
  0
LINE
  5
   30C
  8
0
  6
CONTINUOUS
 62
     1
 10
108.042338367538
 20
105.62695703702
 30
0.0
 11
108.042274344989
 21
130.076793073649
 31
0.0
  0
LINE
  5
   30D
  8
0
  6
CONTINUOUS
 62
     1
 10
109.122367696749
 20
105.626953544589
 30
0.0
 11
109.122312864471
 21
130.076796307727
 31
0.0
  0
LINE
  5
   30E
  8
0
  6
CONTINUOUS
 62
     1
 10
110.202369570716
 20
105.626955966648
 30
0.0
 11
110.202314738436
 21
130.076799541696
 31
0.0
  0
LINE
  5
   30F
  8
0
  6
CONTINUOUS
 62
     1
 10
111.282371444684
 20
105.626958388707
 30
0.0
 11
111.282316612402
 21
130.076802775664
 31
0.0
  0
LINE
  5
   310
  8
0
  6
CONTINUOUS
 62
     1
 10
112.362364163377
 20
105.626960810745
 30
0.0
 11
112.362309331094
 21
130.076806009605
 31
0.0
  0
LINE
  5
   311
  8
0
  6
CONTINUOUS
 62
     1
 10
123.807411833785
 20
105.626920443773
 30
0.0
 11
92.3074111938477
 21
105.626920443773
 31
0.0
  0
LINE
  5
   312
  8
0
  6
CONTINUOUS
 62
     1
 10
91.6923235252047
 20
8.27692528469299
 30
0.0
 11
91.6923366270881
 21
29.7269261370394
 31
0.0
  0
LINE
  5
   313
  8
0
  6
CONTINUOUS
 62
     1
 10
90.6123187871594
 20
8.27692528469299
 30
0.0
 11
90.6123328968798
 21
29.7269261370394
 31
0.0
  0
LINE
  5
   314
  8
0
  6
CONTINUOUS
 62
     1
 10
89.5323219222684
 20
8.27692528469301
 30
0.0
 11
89.532335276111
 21
29.7269261370394
 31
0.0
  0
LINE
  5
   315
  8
0
  6
CONTINUOUS
 62
     1
 10
88.4523220510143
 20
8.27692528469301
 30
0.0
 11
88.4523354048569
 21
29.7269261370394
 31
0.0
  0
LINE
  5
   316
  8
0
  6
CONTINUOUS
 62
     1
 10
87.3723363457017
 20
8.27692528469301
 30
0.0
 11
87.3723484397115
 21
29.7269261370394
 31
0.0
  0
LINE
  5
   317
  8
0
  6
CONTINUOUS
 62
     1
 10
86.2923344717314
 20
8.27692528469301
 30
0.0
 11
86.2923465657412
 21
29.7269261370394
 31
0.0
  0
LINE
  5
   318
  8
0
  6
CONTINUOUS
 62
     1
 10
85.2123165638423
 20
8.27692528469301
 30
0.0
 11
85.2123326891891
 21
29.7269261370394
 31
0.0
  0
LINE
  5
   319
  8
0
  6
CONTINUOUS
 62
     1
 10
84.1323353014278
 20
8.27692528469301
 30
0.0
 11
84.1323473954376
 21
29.7269261370394
 31
0.0
  0
LINE
  5
   31A
  8
0
  6
CONTINUOUS
 62
     1
 10
83.0523861068477
 20
8.276925284693
 30
0.0
 11
83.0523861068477
 21
21.2531284882245
 31
0.0
  0
LINE
  5
   31B
  8
0
  6
CONTINUOUS
 62
     1
 10
83.0523877801579
 20
117.071822329134
 30
0.0
 11
83.0524062228018
 21
130.076779508585
 31
0.0
  0
LINE
  5
   31C
  8
0
  6
CONTINUOUS
 62
     1
 10
82.1223893676765
 20
117.877644343524
 30
0.0
 11
82.12240781902
 21
130.076779508585
 31
0.0
  0
LINE
  5
   31D
  8
0
  6
CONTINUOUS
 62
     1
 10
81.9723979657883
 20
8.276925284693
 30
0.0
 11
81.9723979657883
 21
20.436299097027
 31
0.0
  0
LINE
  5
   31E
  8
0
  6
CONTINUOUS
 62
     1
 10
81.0423992028789
 20
117.684277171192
 30
0.0
 11
81.0424176520146
 21
130.076779508585
 31
0.0
  0
LINE
  5
   31F
  8
0
  6
CONTINUOUS
 62
     1
 10
80.8923960918182
 20
8.276925284693
 30
0.0
 11
80.8923960918182
 21
20.7834036915372
 31
0.0
  0
LINE
  5
   320
  8
0
  6
CONTINUOUS
 62
     1
 10
79.8123255045295
 20
8.27692528469301
 30
0.0
 11
79.8123416298812
 21
29.7269261370394
 31
0.0
  0
LINE
  5
   321
  8
0
  6
CONTINUOUS
 62
     1
 10
78.7323236305591
 20
8.27692528469301
 30
0.0
 11
78.7323397559108
 21
29.7269261370394
 31
0.0
  0
LINE
  5
   322
  8
0
  6
CONTINUOUS
 62
     1
 10
77.6523217565887
 20
8.27692528469301
 30
0.0
 11
77.6523378819404
 21
29.7269261370394
 31
0.0
  0
LINE
  5
   323
  8
0
  6
CONTINUOUS
 62
     1
 10
76.5723198826183
 20
8.27692528469301
 30
0.0
 11
76.57233600797
 21
29.7269261370394
 31
0.0
  0
LINE
  5
   324
  8
0
  6
CONTINUOUS
 62
     1
 10
75.4923271639217
 20
8.27692528469301
 30
0.0
 11
75.4923432892734
 21
29.7269261370394
 31
0.0
  0
LINE
  5
   325
  8
0
  6
CONTINUOUS
 62
     1
 10
74.4123252899513
 20
8.27692528469301
 30
0.0
 11
74.4123414153029
 21
29.7269261370394
 31
0.0
  0
LINE
  5
   326
  8
0
  6
CONTINUOUS
 62
     1
 10
73.3323234159746
 20
8.27692528469301
 30
0.0
 11
73.33233954133
 21
29.7269261370394
 31
0.0
  0
LINE
  5
   327
  8
0
  6
CONTINUOUS
 62
     1
 10
72.2523215420042
 20
8.27692528469301
 30
0.0
 11
72.2523376673595
 21
29.7269261370394
 31
0.0
  0
LINE
  5
   328
  8
0
  6
CONTINUOUS
 62
     1
 10
71.1723975366349
 20
105.626938754321
 30
0.0
 11
71.1723975366349
 21
130.076779508585
 31
0.0
  0
LINE
  5
   329
  8
0
  6
CONTINUOUS
 62
     1
 10
70.0924001869527
 20
105.62687386237
 30
0.0
 11
70.0924093772418
 21
130.076779508585
 31
0.0
  0
LINE
  5
   32A
  8
0
  6
CONTINUOUS
 62
     1
 10
69.0123982596371
 20
105.626883024535
 30
0.0
 11
69.0124166402083
 21
130.076779508585
 31
0.0
  0
LINE
  5
   32B
  8
0
  6
CONTINUOUS
 62
     1
 10
67.9324010699984
 20
105.626938754321
 30
0.0
 11
67.9324010699984
 21
130.076779508585
 31
0.0
  0
LINE
  5
   32C
  8
0
  6
CONTINUOUS
 62
     1
 10
66.8524037203164
 20
105.626875080228
 30
0.0
 11
66.852412910605
 21
130.076779508585
 31
0.0
  0
LINE
  5
   32D
  8
0
  6
CONTINUOUS
 62
     1
 10
65.7723973220582
 20
105.626938754321
 30
0.0
 11
65.7723973220582
 21
130.076779508585
 31
0.0
  0
LINE
  5
   32E
  8
0
  6
CONTINUOUS
 62
     1
 10
64.6923999723764
 20
105.626875892135
 30
0.0
 11
64.6924091626892
 21
130.076844648419
 31
0.0
  0
LINE
  5
   32F
  8
0
  6
CONTINUOUS
 62
     1
 10
63.6124072536801
 20
105.626876298086
 30
0.0
 11
63.6124164439958
 21
130.076852750775
 31
0.0
  0
LINE
  5
   330
  8
0
  6
CONTINUOUS
 62
     1
 10
62.5324008554217
 20
105.626938754321
 30
0.0
 11
62.5324008554217
 21
130.076833727328
 31
0.0
  0
LINE
  5
   331
  8
0
  6
CONTINUOUS
 62
     1
 10
61.4524035057504
 20
105.62688626527
 30
0.0
 11
61.4524126960408
 21
130.076787872099
 31
0.0
  0
LINE
  5
   332
  8
0
  6
CONTINUOUS
 62
     1
 10
92.3074093431728
 20
105.626920443791
 30
0.0
 11
60.8074105539069
 21
105.626943409314
 31
0.0
  0
LINE
  5
   333
  8
0
  6
CONTINUOUS
 62
     3
 10
123.807412445545
 20
107.126920503378
 30
0.0
 11
123.807412445545
 21
129.626852732894
 31
0.0
  0
LINE
  5
   334
  8
0
  6
CONTINUOUS
 62
     3
 10
123.582395990564
 20
130.01651242377
 30
0.0
 11
123.357045915402
 21
130.076884528404
 31
0.0
  0
LINE
  5
   335
  8
0
  6
CONTINUOUS
 62
     3
 10
123.747078865648
 20
129.851813300989
 30
0.0
 11
123.582370914093
 21
130.016534984236
 31
0.0
  0
LINE
  5
   336
  8
0
  6
CONTINUOUS
 62
     3
 10
123.807425179794
 20
129.626798339016
 30
0.0
 11
123.747133129481
 21
129.851798346307
 31
0.0
  0
LINE
  5
   337
  8
0
  6
CONTINUOUS
 62
     3
 10
60.8074099421501
 20
107.126920503378
 30
0.0
 11
60.8074099421501
 21
129.626852732894
 31
0.0
  0
LINE
  5
   338
  8
0
  6
CONTINUOUS
 62
     3
 10
61.0324294197833
 20
130.01651323355
 30
0.0
 11
61.2574294226701
 21
130.076791552548
 31
0.0
  0
LINE
  5
   339
  8
0
  6
CONTINUOUS
 62
     3
 10
60.8677435220475
 20
129.851813300989
 30
0.0
 11
61.0324514736024
 21
130.016534984236
 31
0.0
  0
LINE
  5
   33A
  8
0
  6
CONTINUOUS
 62
     3
 10
60.8073972079018
 20
129.626798339016
 30
0.0
 11
60.8676892582139
 21
129.851798346307
 31
0.0
  0
LINE
  5
   33B
  8
0
  6
CONTINUOUS
 62
     3
 10
123.807401222953
 20
30.1769243121148
 30
0.0
 11
123.807412044736
 21
107.126916073409
 31
0.0
  0
LINE
  5
   33C
  8
0
  6
CONTINUOUS
 62
     3
 10
60.8074211647428
 20
30.1769243121148
 30
0.0
 11
60.8074103429598
 21
107.126916073409
 31
0.0
  0
LINE
  5
   33D
  8
0
  6
CONTINUOUS
 62
   130
 10
113.307431560597
 20
49.826917940378
 30
0.0
 11
71.3073804484038
 21
49.826917940378
 31
0.0
  0
LINE
  5
   33E
  8
0
  6
CONTINUOUS
 62
     1
 10
112.932476100328
 20
77.1269055783741
 30
0.0
 11
71.6823279768196
 21
77.1269055783741
 31
0.0
  0
LINE
  5
   33F
  8
0
  6
CONTINUOUS
 62
   130
 10
112.932476100328
 20
80.7269057214253
 30
0.0
 11
71.6823279768196
 21
80.7269057214253
 31
0.0
  0
LINE
  5
   340
  8
0
  6
CONTINUOUS
 62
   130
 10
113.307412028313
 20
77.726905602216
 30
0.0
 11
113.307412028313
 21
80.7269057214253
 31
0.0
  0
LINE
  5
   341
  8
0
  6
CONTINUOUS
 62
   130
 10
71.3074103593826
 20
77.726905602216
 30
0.0
 11
71.3074103593826
 21
80.7269057214253
 31
0.0
  0
LINE
  5
   342
  8
0
  6
CONTINUOUS
 62
   130
 10
98.6074114441872
 20
74.9703167475618
 30
0.0
 11
86.0074109435081
 21
74.9703167475618
 31
0.0
  0
LINE
  5
   343
  8
0
  6
CONTINUOUS
 62
   130
 10
98.6074114441872
 20
75.1769055008881
 30
0.0
 11
86.0074109435081
 21
75.1769055008881
 31
0.0
  0
LINE
  5
   344
  8
0
  6
CONTINUOUS
 62
   130
 10
86.0074178473445
 20
70.6019310589206
 30
0.0
 11
86.0074132697114
 21
75.1769037748933
 31
0.0
  0
LINE
  5
   345
  8
0
  6
CONTINUOUS
 62
   130
 10
86.007415521145
 20
57.9290665332089
 30
0.0
 11
86.007415521145
 21
70.3019327729944
 31
0.0
  0
LINE
  5
   346
  8
0
  6
CONTINUOUS
 62
   130
 10
86.007415521145
 20
54.1769183993338
 30
0.0
 11
86.007415521145
 21
56.9519230872393
 31
0.0
  0
LINE
  5
   347
  8
0
  6
CONTINUOUS
 62
   130
 10
86.007414758108
 20
52.3769114613438
 30
0.0
 11
86.007419335744
 21
54.1769161105063
 31
0.0
  0
LINE
  5
   348
  8
0
  6
CONTINUOUS
 62
   130
 10
98.6074114441872
 20
52.3769137501713
 30
0.0
 11
98.6074114441872
 21
54.1769183993338
 31
0.0
  0
LINE
  5
   349
  8
0
  6
CONTINUOUS
 62
   130
 10
98.6074114441872
 20
54.1769183993338
 30
0.0
 11
98.6074114441872
 21
56.9519230872393
 31
0.0
  0
LINE
  5
   34A
  8
0
  6
CONTINUOUS
 62
   130
 10
98.6074114441872
 20
57.9290665332089
 30
0.0
 11
98.6074114441872
 21
70.3019327729944
 31
0.0
  0
LINE
  5
   34B
  8
0
  6
CONTINUOUS
 62
   130
 10
98.6074114441872
 20
70.6019327849153
 30
0.0
 11
98.6074114441872
 21
75.1769055008881
 31
0.0
  0
LINE
  5
   34C
  8
0
  6
CONTINUOUS
 62
     1
 10
71.6823279768196
 20
77.1269055783741
 30
0.0
 11
71.4171729369864
 21
77.1269055783741
 31
0.0
  0
LINE
  5
   34D
  8
0
  6
CONTINUOUS
 62
   130
 10
71.6823279768196
 20
49.826917940378
 30
0.0
 11
71.6074195265774
 21
49.826917940378
 31
0.0
  0
LINE
  5
   34E
  8
0
  6
CONTINUOUS
 62
   130
 10
71.6823319895235
 20
80.7269037737875
 30
0.0
 11
71.4171769497675
 21
80.7269129290604
 31
0.0
  0
LINE
  5
   34F
  8
0
  6
CONTINUOUS
 62
   130
 10
71.3073804484038
 20
49.826917940378
 30
0.0
 11
71.3074036416757
 21
51.2519304874769
 31
0.0
  0
LINE
  5
   350
  8
0
  6
CONTINUOUS
 62
   130
 10
71.3074012041088
 20
51.5519320279363
 30
0.0
 11
71.3074012041088
 21
56.9519322425131
 31
0.0
  0
LINE
  5
   351
  8
0
  6
CONTINUOUS
 62
   130
 10
71.307404887269
 20
57.25192867653
 30
0.0
 11
71.3074140425423
 21
70.3019200398166
 31
0.0
  0
LINE
  5
   352
  8
0
  6
CONTINUOUS
 62
   130
 10
71.3074135382755
 20
70.601920069337
 30
0.0
 11
71.3074043830023
 21
76.0019202839137
 31
0.0
  0
LINE
  5
   353
  8
0
  6
CONTINUOUS
 62
     1
 10
71.417172919105
 20
77.1269055783741
 30
0.0
 11
71.3073737382874
 21
77.1269055783741
 31
0.0
  0
LINE
  5
   354
  8
0
  6
CONTINUOUS
 62
   130
 10
71.3074021563562
 20
76.3019219348279
 30
0.0
 11
71.3073746905363
 21
77.7269036809047
 31
0.0
  0
LINE
  5
   355
  8
0
  6
CONTINUOUS
 62
   130
 10
71.3073777996876
 20
80.7269034769123
 30
0.0
 11
71.4171769804945
 21
80.7269126321854
 31
0.0
  0
LINE
  5
   356
  8
0
  6
CONTINUOUS
 62
   130
 10
112.932472171275
 20
80.7269037239333
 30
0.0
 11
113.197645521687
 21
80.7269128792055
 31
0.0
  0
LINE
  5
   357
  8
0
  6
CONTINUOUS
 62
     1
 10
112.932475040347
 20
77.1269035791931
 30
0.0
 11
113.197648390728
 21
77.1269127344654
 31
0.0
  0
LINE
  5
   358
  8
0
  6
CONTINUOUS
 62
   130
 10
113.007402861118
 20
49.826917940378
 30
0.0
 11
112.932476100328
 21
49.826917940378
 31
0.0
  0
LINE
  5
   359
  8
0
  6
CONTINUOUS
 62
   130
 10
113.307431560597
 20
49.826917940378
 30
0.0
 11
113.307419963963
 21
51.251924385625
 31
0.0
  0
LINE
  5
   35A
  8
0
  6
CONTINUOUS
 62
   130
 10
113.307420039197
 20
51.5519264330948
 30
0.0
 11
113.307410883926
 21
56.9519220700346
 31
0.0
  0
LINE
  5
   35B
  8
0
  6
CONTINUOUS
 62
   130
 10
113.307412028313
 20
57.2519230991602
 30
0.0
 11
113.307412028313
 21
70.3019327729944
 31
0.0
  0
LINE
  5
   35C
  8
0
  6
CONTINUOUS
 62
   130
 10
113.307412028313
 20
70.6019327849153
 30
0.0
 11
113.307412028313
 21
76.0019329994921
 31
0.0
  0
LINE
  5
   35D
  8
0
  6
CONTINUOUS
 62
   130
 10
113.30741107983
 20
76.3019310878335
 30
0.0
 11
113.30743854564
 21
77.7269036786365
 31
0.0
  0
LINE
  5
   35E
  8
0
  6
CONTINUOUS
 62
   130
 10
113.307437280799
 20
77.7269032021354
 30
0.0
 11
113.197647237387
 21
77.7269123574087
 31
0.0
  0
LINE
  5
   35F
  8
0
  6
CONTINUOUS
 62
   130
 10
113.307435677572
 20
80.726903331909
 30
0.0
 11
113.19764563416
 21
80.7269124871822
 31
0.0
  0
LINE
  5
   360
  8
0
  6
CONTINUOUS
 62
   130
 10
98.6074068665503
 20
56.9519230872393
 30
0.0
 11
98.6074068665503
 21
57.2519230991602
 31
0.0
  0
LINE
  5
   361
  8
0
  6
CONTINUOUS
 62
   130
 10
86.0074109435081
 20
56.9519230872393
 30
0.0
 11
86.0074109435081
 21
57.2519230991602
 31
0.0
  0
LINE
  5
   362
  8
0
  6
CONTINUOUS
 62
   130
 10
98.6074068665503
 20
70.3019327729944
 30
0.0
 11
98.6074068665503
 21
70.6019327849153
 31
0.0
  0
LINE
  5
   363
  8
0
  6
CONTINUOUS
 62
   130
 10
86.007415521145
 20
70.3019327729944
 30
0.0
 11
86.007415521145
 21
70.6019327849153
 31
0.0
  0
LINE
  5
   364
  8
0
  6
CONTINUOUS
 62
   210
 10
98.6074114441872
 20
55.2473368504361
 30
0.0
 11
86.007415521145
 21
55.2473368504361
 31
0.0
  0
LINE
  5
   365
  8
0
  6
CONTINUOUS
 62
   210
 10
98.6074114441872
 20
57.3290665093671
 30
0.0
 11
86.007415521145
 21
57.3290665093671
 31
0.0
  0
LINE
  5
   366
  8
0
  6
CONTINUOUS
 62
   210
 10
98.6074114441872
 20
52.5730432146452
 30
0.0
 11
86.007415521145
 21
52.5730432146452
 31
0.0
  0
LINE
  5
   367
  8
0
  6
CONTINUOUS
 62
   210
 10
98.6074114441872
 20
50.2438542070031
 30
0.0
 11
86.007415521145
 21
50.2438542070031
 31
0.0
  0
LINE
  5
   368
  8
0
  6
CONTINUOUS
 62
   210
 10
86.007415521145
 20
50.2438542070031
 30
0.0
 11
86.007415521145
 21
57.3290665093671
 31
0.0
  0
LINE
  5
   369
  8
0
  6
CONTINUOUS
 62
   210
 10
98.6074114441872
 20
50.2438542070031
 30
0.0
 11
98.6074114441872
 21
57.3290665093671
 31
0.0
  0
LINE
  5
   36A
  8
0
  6
CONTINUOUS
 62
     1
 10
86.007415521145
 20
50.6519281111337
 30
0.0
 11
71.6074293203993
 21
50.6519297033549
 31
0.0
  0
CIRCLE
  5
   36B
  8
0
  6
CONTINUOUS
 62
     1
 10
81.8074396715399
 20
116.576919288972
 30
0.0
 40
1.35059393238156
  0
LINE
  5
   36C
  8
0
  6
DASHDOT
 62
     7
 10
81.8074396715399
 20
113.840522889047
 30
0.0
 11
81.8074396715399
 21
119.324460061241
 31
0.0
  0
LINE
  5
   36D
  8
0
  6
DASHDOT
 62
     7
 10
84.0510243230852
 20
116.576919288972
 30
0.0
 11
79.9063985394799
 21
116.576919288972
 31
0.0
  0
LINE
  5
   36E
  8
0
  6
CONTINUOUS
 62
     1
 10
123.807398143069
 20
8.276925284693
 30
0.0
 11
60.8074242446266
 21
8.276925284693
 31
0.0
  0
LINE
  5
   36F
  8
0
  6
CONTINUOUS
 62
     1
 10
123.807401159668
 20
29.7269261370394
 30
0.0
 11
60.8074212280278
 21
29.7269261370394
 31
0.0
  0
LINE
  5
   370
  8
0
  6
CONTINUOUS
 62
     1
 10
123.507401189937
 20
30.0269261489603
 30
0.0
 11
61.1074211977585
 21
30.0269261489603
 31
0.0
  0
LINE
  5
   371
  8
0
  6
CONTINUOUS
 62
     1
 10
123.807401222953
 20
30.1769243121148
 30
0.0
 11
60.8074211647428
 21
30.1769243121148
 31
0.0
  0
LINE
  5
   372
  8
0
  6
CONTINUOUS
 62
     1
 10
123.80740286837
 20
41.876924777031
 30
0.0
 11
115.107412099838
 21
41.876924777031
 31
0.0
  0
LINE
  5
   373
  8
0
  6
CONTINUOUS
 62
     1
 10
123.807398143069
 20
8.27692528469299
 30
0.0
 11
123.807401159668
 21
29.7269261370394
 31
0.0
  0
LINE
  5
   374
  8
0
  6
CONTINUOUS
 62
     1
 10
60.8074242446266
 20
8.27692528469299
 30
0.0
 11
60.8074212280278
 21
29.7269261370394
 31
0.0
  0
LINE
  5
   375
  8
0
  6
CONTINUOUS
 62
     1
 10
61.1074212399487
 20
29.7269261370394
 30
0.0
 11
61.1074211977585
 21
30.0269261489603
 31
0.0
  0
LINE
  5
   376
  8
0
  6
CONTINUOUS
 62
     1
 10
123.507401147747
 20
29.7269261370394
 30
0.0
 11
123.507401189937
 21
30.0269261489604
 31
0.0
  0
LINE
  5
   377
  8
0
  6
CONTINUOUS
 62
     1
 10
71.3074103593826
 20
30.1769243121148
 30
0.0
 11
71.3074103593826
 21
40.8269047081464
 31
0.0
  0
LINE
  5
   378
  8
0
  6
CONTINUOUS
 62
     1
 10
113.307412028313
 20
30.1769243121148
 30
0.0
 11
113.307412028313
 21
40.8269047081464
 31
0.0
  0
LINE
  5
   379
  8
0
  6
CONTINUOUS
 62
     2
 10
61.4524172919992
 20
30.1769243121148
 30
0.0
 11
61.4524172919992
 21
41.876924777031
 31
0.0
  0
LINE
  5
   37A
  8
0
  6
CONTINUOUS
 62
     2
 10
62.5324283212431
 20
30.1769243121148
 30
0.0
 11
62.5324283212431
 21
41.876924777031
 31
0.0
  0
LINE
  5
   37B
  8
0
  6
CONTINUOUS
 62
     2
 10
63.6124210399394
 20
30.1769243121148
 30
0.0
 11
63.6124210399394
 21
41.876924777031
 31
0.0
  0
LINE
  5
   37C
  8
0
  6
CONTINUOUS
 62
     2
 10
64.6924137586357
 20
30.1769243121148
 30
0.0
 11
64.6924137586357
 21
41.876924777031
 31
0.0
  0
LINE
  5
   37D
  8
0
  6
CONTINUOUS
 62
     2
 10
65.7724247878796
 20
30.1769243121148
 30
0.0
 11
65.7724247878796
 21
41.876924777031
 31
0.0
  0
LINE
  5
   37E
  8
0
  6
CONTINUOUS
 62
     2
 10
66.8524175065759
 20
30.1769243121148
 30
0.0
 11
66.8524175065759
 21
41.876924777031
 31
0.0
  0
LINE
  5
   37F
  8
0
  6
CONTINUOUS
 62
     2
 10
67.9324285358198
 20
30.1769243121148
 30
0.0
 11
67.9324285358198
 21
41.876924777031
 31
0.0
  0
LINE
  5
   380
  8
0
  6
CONTINUOUS
 62
     2
 10
69.0124212545161
 20
30.1769243121148
 30
0.0
 11
69.0124212545161
 21
41.876924777031
 31
0.0
  0
LINE
  5
   381
  8
0
  6
CONTINUOUS
 62
     2
 10
70.0924139732124
 20
30.1769243121148
 30
0.0
 11
70.0924139732124
 21
40.8269047081464
 31
0.0
  0
LINE
  5
   382
  8
0
  6
CONTINUOUS
 62
     1
 10
71.1724250024563
 20
42.3269227921963
 30
0.0
 11
71.1724250024563
 21
49.2269184887408
 31
0.0
  0
LINE
  5
   383
  8
0
  6
CONTINUOUS
 62
     1
 10
61.4524172919992
 20
42.3269227921963
 30
0.0
 11
61.4524172919992
 21
49.2269184887408
 31
0.0
  0
LINE
  5
   384
  8
0
  6
CONTINUOUS
 62
     1
 10
62.5324283212431
 20
42.3269227921963
 30
0.0
 11
62.5324283212431
 21
49.2269184887408
 31
0.0
  0
LINE
  5
   385
  8
0
  6
CONTINUOUS
 62
     1
 10
63.6124210399394
 20
42.3269227921963
 30
0.0
 11
63.6124210399394
 21
49.2269184887408
 31
0.0
  0
LINE
  5
   386
  8
0
  6
CONTINUOUS
 62
     1
 10
64.6924137586357
 20
42.3269227921963
 30
0.0
 11
64.6924137586357
 21
49.2269184887408
 31
0.0
  0
LINE
  5
   387
  8
0
  6
CONTINUOUS
 62
     1
 10
65.7724247878796
 20
42.3269227921963
 30
0.0
 11
65.7724247878796
 21
49.2269184887408
 31
0.0
  0
LINE
  5
   388
  8
0
  6
CONTINUOUS
 62
     1
 10
66.8524175065759
 20
42.3269227921963
 30
0.0
 11
66.8524175065759
 21
49.2269184887408
 31
0.0
  0
LINE
  5
   389
  8
0
  6
CONTINUOUS
 62
     1
 10
67.9324285358198
 20
42.3269227921963
 30
0.0
 11
67.9324285358198
 21
49.2269184887408
 31
0.0
  0
LINE
  5
   38A
  8
0
  6
CONTINUOUS
 62
     1
 10
69.0124212545161
 20
42.3269227921963
 30
0.0
 11
69.0124212545161
 21
49.2269184887408
 31
0.0
  0
LINE
  5
   38B
  8
0
  6
CONTINUOUS
 62
     2
 10
71.1724140161277
 20
8.276925284693
 30
0.0
 11
71.1724140161277
 21
29.7269261370394
 31
0.0
  0
LINE
  5
   38C
  8
0
  6
CONTINUOUS
 62
     1
 10
123.162405095696
 20
8.276925284693
 30
0.0
 11
123.162405095696
 21
29.7269261370394
 31
0.0
  0
LINE
  5
   38D
  8
0
  6
CONTINUOUS
 62
     1
 10
122.082394066452
 20
8.276925284693
 30
0.0
 11
122.082394066452
 21
29.7269261370394
 31
0.0
  0
LINE
  5
   38E
  8
0
  6
CONTINUOUS
 62
     1
 10
121.002401347756
 20
8.276925284693
 30
0.0
 11
121.002401347756
 21
29.7269261370394
 31
0.0
  0
LINE
  5
   38F
  8
0
  6
CONTINUOUS
 62
     1
 10
119.92240862906
 20
8.276925284693
 30
0.0
 11
119.92240862906
 21
29.7269261370394
 31
0.0
  0
LINE
  5
   390
  8
0
  6
CONTINUOUS
 62
     1
 10
118.842397599816
 20
8.276925284693
 30
0.0
 11
118.842397599816
 21
29.7269261370394
 31
0.0
  0
LINE
  5
   391
  8
0
  6
CONTINUOUS
 62
     1
 10
117.762404881119
 20
8.276925284693
 30
0.0
 11
117.762404881119
 21
29.7269261370394
 31
0.0
  0
LINE
  5
   392
  8
0
  6
CONTINUOUS
 62
     1
 10
116.682393851876
 20
8.276925284693
 30
0.0
 11
116.682393851876
 21
29.7269261370394
 31
0.0
  0
LINE
  5
   393
  8
0
  6
CONTINUOUS
 62
     1
 10
115.602401133179
 20
8.276925284693
 30
0.0
 11
115.602401133179
 21
29.7269261370394
 31
0.0
  0
LINE
  5
   394
  8
0
  6
CONTINUOUS
 62
     1
 10
114.522408414483
 20
8.276925284693
 30
0.0
 11
114.522408414483
 21
29.7269261370394
 31
0.0
  0
LINE
  5
   395
  8
0
  6
CONTINUOUS
 62
     1
 10
113.442397385239
 20
8.276925284693
 30
0.0
 11
113.442397385239
 21
29.7269261370394
 31
0.0
  0
LINE
  5
   396
  8
0
  6
CONTINUOUS
 62
     1
 10
123.162295949073
 20
105.627008226931
 30
0.0
 11
123.162222736257
 21
130.076838348974
 31
0.0
  0
LINE
  5
   397
  8
0
  6
CONTINUOUS
 62
     1
 10
122.082284919834
 20
105.627004992936
 30
0.0
 11
122.082211707018
 21
130.076835114978
 31
0.0
  0
LINE
  5
   398
  8
0
  6
CONTINUOUS
 62
     1
 10
121.002292201143
 20
105.627001758995
 30
0.0
 11
121.002218988327
 21
130.076831881037
 31
0.0
  0
LINE
  5
   399
  8
0
  6
CONTINUOUS
 62
     1
 10
119.922299482451
 20
105.626998525054
 30
0.0
 11
119.922226269635
 21
130.076828647096
 31
0.0
  0
LINE
  5
   39A
  8
0
  6
CONTINUOUS
 62
     1
 10
118.842288453212
 20
105.626995291058
 30
0.0
 11
118.842215240396
 21
130.0768254131
 31
0.0
  0
LINE
  5
   39B
  8
0
  6
CONTINUOUS
 62
     1
 10
117.762295734521
 20
105.626992057117
 30
0.0
 11
117.762222521705
 21
130.076822179159
 31
0.0
  0
LINE
  5
   39C
  8
0
  6
CONTINUOUS
 62
     1
 10
116.682284705282
 20
105.626988823121
 30
0.0
 11
116.682211492466
 21
130.076818945163
 31
0.0
  0
LINE
  5
   39D
  8
0
  6
CONTINUOUS
 62
     1
 10
115.60229198659
 20
105.626985589181
 30
0.0
 11
115.602218773774
 21
130.076815711222
 31
0.0
  0
LINE
  5
   39E
  8
0
  6
CONTINUOUS
 62
     1
 10
114.522299267899
 20
105.62698235524
 30
0.0
 11
114.522226055083
 21
130.076812477281
 31
0.0
  0
LINE
  5
   39F
  8
0
  6
CONTINUOUS
 62
     1
 10
113.442299224988
 20
105.626979121277
 30
0.0
 11
113.442226012172
 21
130.076809243318
 31
0.0
  0
CIRCLE
  5
   3A0
  8
0
  6
CONTINUOUS
 62
     1
 10
81.8074396715399
 20
21.7767813726817
 30
0.0
 40
1.35059393238156
  0
LINE
  5
   3A1
  8
0
  6
DASHDOT
 62
     1
 10
81.8074396715399
 20
17.4261873210909
 30
0.0
 11
81.8074396715399
 21
29.7269261370394
 31
0.0
  0
LINE
  5
   3A2
  8
0
  6
DASHDOT
 62
     1
 10
86.1580337231308
 20
21.7767813726817
 30
0.0
 11
77.4568456199491
 21
21.7767813726817
 31
0.0
  0
LINE
  5
   3A3
  8
0
  6
CONTINUOUS
 62
     1
 10
92.7724352473232
 20
105.626920443773
 30
0.0
 11
92.7724200258986
 21
130.076779508585
 31
0.0
  0
LINE
  5
   3A4
  8
0
  6
CONTINUOUS
 62
     1
 10
93.8524349738612
 20
105.626920443773
 30
0.0
 11
93.8524200396333
 21
130.076779508585
 31
0.0
  0
LINE
  5
   3A5
  8
0
  6
CONTINUOUS
 62
     1
 10
95.0824352818943
 20
105.626920443773
 30
0.0
 11
95.0824200604698
 21
130.076779508585
 31
0.0
  0
LINE
  5
   3A6
  8
0
  6
CONTINUOUS
 62
     1
 10
96.1624351531485
 20
105.626920443773
 30
0.0
 11
96.1624199317239
 21
130.076779508585
 31
0.0
  0
LINE
  5
   3A7
  8
0
  6
CONTINUOUS
 62
     1
 10
97.2424265760598
 20
105.626920443773
 30
0.0
 11
97.2424127906184
 21
130.076779508585
 31
0.0
  0
LINE
  5
   3A8
  8
0
  6
CONTINUOUS
 62
     1
 10
98.32242845003
 20
105.626920443773
 30
0.0
 11
98.3224146645887
 21
130.076779508585
 31
0.0
  0
LINE
  5
   3A9
  8
0
  6
CONTINUOUS
 62
     1
 10
99.4024280618218
 20
105.626920443773
 30
0.0
 11
99.4024096812342
 21
130.076779508585
 31
0.0
  0
LINE
  5
   3AA
  8
0
  6
CONTINUOUS
 62
     1
 10
100.482427620334
 20
105.626920443773
 30
0.0
 11
100.482413834892
 21
130.076779508585
 31
0.0
  0
LINE
  5
   3AB
  8
0
  6
CONTINUOUS
 62
     1
 10
91.6923829875932
 20
105.626920443773
 30
0.0
 11
91.6923979218211
 21
130.076779508585
 31
0.0
  0
LINE
  5
   3AC
  8
0
  6
CONTINUOUS
 62
     1
 10
90.6123828235769
 20
105.626920443773
 30
0.0
 11
90.6123989065913
 21
130.076779508585
 31
0.0
  0
LINE
  5
   3AD
  8
0
  6
CONTINUOUS
 62
     1
 10
89.5323825281641
 20
105.626920443773
 30
0.0
 11
89.5323977495887
 21
130.076779508585
 31
0.0
  0
LINE
  5
   3AE
  8
0
  6
CONTINUOUS
 62
     1
 10
88.4523826569099
 20
105.626920443773
 30
0.0
 11
88.4523978783345
 21
130.076779508585
 31
0.0
  0
LINE
  5
   3AF
  8
0
  6
CONTINUOUS
 62
     1
 10
87.3723912338951
 20
105.626920443773
 30
0.0
 11
87.3724050192948
 21
130.076779508585
 31
0.0
  0
LINE
  5
   3B0
  8
0
  6
CONTINUOUS
 62
     1
 10
86.2923893599248
 20
105.626920443773
 30
0.0
 11
86.2924031453245
 21
130.076779508585
 31
0.0
  0
LINE
  5
   3B1
  8
0
  6
CONTINUOUS
 62
     1
 10
85.212389748102
 20
105.626920443773
 30
0.0
 11
85.2124081286353
 21
130.076779508585
 31
0.0
  0
LINE
  5
   3B2
  8
0
  6
CONTINUOUS
 62
     1
 10
84.1323901896211
 20
105.626920443773
 30
0.0
 11
84.1324039750208
 21
130.076779508585
 31
0.0
  0
LINE
  5
   3B3
  8
0
  6
CONTINUOUS
 62
     1
 10
83.0523861068477
 20
105.626920443773
 30
0.0
 11
83.0523861068477
 21
116.081982199552
 31
0.0
  0
LINE
  5
   3B4
  8
0
  6
CONTINUOUS
 62
     1
 10
81.9723979657883
 20
105.626920443773
 30
0.0
 11
81.9723979657883
 21
115.252459461512
 31
0.0
  0
LINE
  5
   3B5
  8
0
  6
CONTINUOUS
 62
     1
 10
80.8923960918182
 20
105.626920443773
 30
0.0
 11
80.8923960918182
 21
115.605441042921
 31
0.0
  0
LINE
  5
   3B6
  8
0
  6
CONTINUOUS
 62
     1
 10
79.8123986888113
 20
105.626920443773
 30
0.0
 11
79.8124170693503
 21
130.076779508585
 31
0.0
  0
LINE
  5
   3B7
  8
0
  6
CONTINUOUS
 62
     1
 10
78.7323968148409
 20
105.626920443773
 30
0.0
 11
78.7324151953798
 21
130.076779508585
 31
0.0
  0
LINE
  5
   3B8
  8
0
  6
CONTINUOUS
 62
     1
 10
77.6523949408705
 20
105.626920443773
 30
0.0
 11
77.6524133214094
 21
130.076779508585
 31
0.0
  0
LINE
  5
   3B9
  8
0
  6
CONTINUOUS
 62
     1
 10
76.5723930669001
 20
105.626920443773
 30
0.0
 11
76.572411447439
 21
130.076779508585
 31
0.0
  0
LINE
  5
   3BA
  8
0
  6
CONTINUOUS
 62
     1
 10
75.4924003482035
 20
105.626920443773
 30
0.0
 11
75.4924187287424
 21
130.076779508585
 31
0.0
  0
LINE
  5
   3BB
  8
0
  6
CONTINUOUS
 62
     1
 10
74.4123984742331
 20
105.626920443773
 30
0.0
 11
74.412416854772
 21
130.076779508585
 31
0.0
  0
LINE
  5
   3BC
  8
0
  6
CONTINUOUS
 62
     1
 10
73.332396600273
 20
105.626920443773
 30
0.0
 11
73.3324149808161
 21
130.076779508585
 31
0.0
  0
LINE
  5
   3BD
  8
0
  6
CONTINUOUS
 62
     1
 10
72.2523947263026
 20
105.626920443773
 30
0.0
 11
72.2524131068457
 21
130.076779508585
 31
0.0
  0
LINE
  5
   3BE
  8
0
  6
CONTINUOUS
 62
     1
 10
83.0523861068477
 20
22.3004342571389
 30
0.0
 11
83.0523861068477
 21
29.7269261370394
 31
0.0
  0
LINE
  5
   3BF
  8
0
  6
CONTINUOUS
 62
     1
 10
81.9723979657883
 20
23.1172636483365
 30
0.0
 11
81.9723979657883
 21
29.7269261370394
 31
0.0
  0
LINE
  5
   3C0
  8
0
  6
CONTINUOUS
 62
     1
 10
80.8923960918182
 20
22.7701590538262
 30
0.0
 11
80.8923960918182
 21
29.7269261370394
 31
0.0
  0
LINE
  5
   3C1
  8
0
  6
DASHDOT
 62
     7
 10
92.3074111938477
 20
2.79001302116867
 30
0.0
 11
92.3074111938477
 21
183.881134119049
 31
0.0
  0
LINE
  5
   3C2
  8
0
  6
DASHDOT
 62
     7
 10
113.307412028313
 20
97.2267812464015
 30
0.0
 11
113.307412028313
 21
135.616347256462
 31
0.0
  0
LINE
  5
   3C3
  8
0
  6
DASHDOT
 62
     7
 10
71.3074103593826
 20
97.2267812464015
 30
0.0
 11
71.3074103593826
 21
135.616347256462
 31
0.0
  0
LINE
  5
   3C4
  8
0
  6
CONTINUOUS
 62
     5
 10
61.2574294226701
 20
130.076791552548
 30
0.0
 11
123.357045915402
 21
130.076884528404
 31
0.0
  0
LINE
  5
   3C5
  8
0
  6
CONTINUOUS
 62
     1
 10
101.562427663249
 20
105.626921052704
 30
0.0
 11
101.562421784595
 21
116.053300869629
 31
0.0
  0
LINE
  5
   3C6
  8
0
  6
CONTINUOUS
 62
     1
 10
102.642427706164
 20
105.626921661635
 30
0.0
 11
102.642422288079
 21
115.236437275905
 31
0.0
  0
LINE
  5
   3C7
  8
0
  6
DASHDOT
 62
     7
 10
144.161130639821
 20
64.9769050955765
 30
0.0
 11
56.7756436709081
 21
64.9769050955765
 31
0.0
  0
CIRCLE
  5
   3C8
  8
0
  6
CONTINUOUS
 62
     1
 10
102.807382716155
 20
116.576919288972
 30
0.0
 40
1.35059393238156
  0
LINE
  5
   3C9
  8
0
  6
DASHDOT
 62
     7
 10
102.807382716155
 20
113.460448035529
 30
0.0
 11
102.807382716155
 21
119.813127730051
 31
0.0
  0
LINE
  5
   3CA
  8
0
  6
DASHDOT
 62
     7
 10
105.335216120115
 20
116.576919288972
 30
0.0
 11
100.050365775954
 21
116.576919288972
 31
0.0
  0
LINE
  5
   3CB
  8
0
  6
CONTINUOUS
 62
     1
 10
103.722281385664
 20
117.570430433709
 30
0.0
 11
103.722243936525
 21
130.076780137707
 31
0.0
  0
LINE
  5
   3CC
  8
0
  6
CONTINUOUS
 62
     1
 10
102.642420776485
 20
117.917401116019
 30
0.0
 11
102.642413920739
 21
130.076751783782
 31
0.0
  0
LINE
  5
   3CD
  8
0
  6
CONTINUOUS
 62
     1
 10
101.562421194138
 20
117.100536304434
 30
0.0
 11
101.562413877767
 21
130.076851897372
 31
0.0
  0
LINE
  5
   3CE
  8
0
  6
CONTINUOUS
 62
     1
 10
69.5074102878571
 20
42.3269227921963
 30
0.0
 11
60.8824191004042
 21
42.3269227921963
 31
0.0
  0
LINE
  5
   3CF
  8
0
  6
CONTINUOUS
 62
     1
 10
69.5074102878571
 20
41.876924777031
 30
0.0
 11
60.8074195193252
 21
41.876924777031
 31
0.0
  0
LINE
  5
   3D0
  8
0
  6
CONTINUOUS
 62
     1
 10
69.5074102878571
 20
42.0269227802754
 30
0.0
 11
61.7469149843655
 21
42.0269227802754
 31
0.0
  0
LINE
  5
   3D1
  8
0
  6
CONTINUOUS
 62
     1
 10
123.162405095696
 20
30.1769243121148
 30
0.0
 11
123.162405095696
 21
41.876924777031
 31
0.0
  0
LINE
  5
   3D2
  8
0
  6
CONTINUOUS
 62
     1
 10
122.082394066452
 20
30.1769243121148
 30
0.0
 11
122.082394066452
 21
41.876924777031
 31
0.0
  0
LINE
  5
   3D3
  8
0
  6
CONTINUOUS
 62
     1
 10
121.002401347756
 20
30.1769243121148
 30
0.0
 11
121.002401347756
 21
41.876924777031
 31
0.0
  0
LINE
  5
   3D4
  8
0
  6
CONTINUOUS
 62
     1
 10
119.92240862906
 20
30.1769243121148
 30
0.0
 11
119.92240862906
 21
41.876924777031
 31
0.0
  0
LINE
  5
   3D5
  8
0
  6
CONTINUOUS
 62
     1
 10
118.842397599816
 20
30.1769243121148
 30
0.0
 11
118.842397599816
 21
41.876924777031
 31
0.0
  0
LINE
  5
   3D6
  8
0
  6
CONTINUOUS
 62
     1
 10
117.762404881119
 20
30.1769243121148
 30
0.0
 11
117.762404881119
 21
41.876924777031
 31
0.0
  0
LINE
  5
   3D7
  8
0
  6
CONTINUOUS
 62
     1
 10
116.682393851876
 20
30.1769243121148
 30
0.0
 11
116.682393851876
 21
41.876924777031
 31
0.0
  0
LINE
  5
   3D8
  8
0
  6
CONTINUOUS
 62
     1
 10
115.602401133179
 20
30.1769243121148
 30
0.0
 11
115.602401133179
 21
41.876924777031
 31
0.0
  0
LINE
  5
   3D9
  8
0
  6
CONTINUOUS
 62
     1
 10
114.522408414483
 20
30.1769243121148
 30
0.0
 11
114.522408414483
 21
40.8269047081464
 31
0.0
  0
LINE
  5
   3DA
  8
0
  6
CONTINUOUS
 62
     1
 10
113.442397385239
 20
30.1769243121148
 30
0.0
 11
113.442397385239
 21
40.8269047081464
 31
0.0
  0
LINE
  5
   3DB
  8
0
  6
DASHDOT
 62
     7
 10
71.3076093066147
 20
2.73726110266126
 30
0.0
 11
71.3074943525144
 21
41.1268271125492
 31
0.0
  0
LINE
  5
   3DC
  8
0
  6
DASHDOT
 62
     7
 10
113.307610975356
 20
2.73738686788619
 30
0.0
 11
113.307496021256
 21
41.1269528777741
 31
0.0
  0
INSERT
  5
   3DD
  8
0
  6
CONTINUOUS
 62
     7
  2
*UDIM533
 10
0.0
 20
0.0
 30
0.0
  0
TEXT
  5
   3DE
  8
0
  6
CONTINUOUS
 62
     7
 10
91.1836638077909
 20
186.474167992982
 30
0.0
 40
2.99999994039535
  1
Y
 50
359.999999948034
 41
0.916666655739148
 72
     2
 11
93.3836637640808
 21
186.474167990998
 31
0.0
  0
INSERT
  5
   3DF
  8
0
  6
CONTINUOUS
 62
     7
  2
*UDIM534
 10
0.0
 20
0.0
 30
0.0
  0
INSERT
  5
   3E0
  8
0
  6
CONTINUOUS
 62
     7
  2
*UDIM535
 10
0.0
 20
0.0
 30
0.0
  0
INSERT
  5
   3E1
  8
0
  6
CONTINUOUS
 62
     7
  2
*UDIM536
 10
0.0
 20
0.0
 30
0.0
  0
INSERT
  5
   3E2
  8
0
  6
CONTINUOUS
 62
     7
  2
*UDIM537
 10
0.0
 20
0.0
 30
0.0
  0
LINE
  5
   3E3
  8
0
  6
CONTINUOUS
 62
     1
 10
101.562467802437
 20
8.276925284693
 30
0.0
 11
101.56245570839
 21
29.7269261370394
 31
0.0
  0
LINE
  5
   3E4
  8
0
  6
CONTINUOUS
 62
     1
 10
102.642453096181
 20
8.276925284693
 30
0.0
 11
102.642441002134
 21
29.7269261370394
 31
0.0
  0
LINE
  5
   3E5
  8
0
  6
CONTINUOUS
 62
     1
 10
103.722438389924
 20
8.276925284693
 30
0.0
 11
103.722426295878
 21
29.7269261370394
 31
0.0
  0
LINE
  5
   3E6
  8
0
  6
CONTINUOUS
 62
     1
 10
104.802423683668
 20
8.276925284693
 30
0.0
 11
104.802411589622
 21
29.7269261370394
 31
0.0
  0
LINE
  5
   3E7
  8
0
  6
CONTINUOUS
 62
     1
 10
105.882408977412
 20
8.276925284693
 30
0.0
 11
105.882396883366
 21
29.7269261370394
 31
0.0
  0
LINE
  5
   3E8
  8
0
  6
CONTINUOUS
 62
     1
 10
106.962394271156
 20
8.276925284693
 30
0.0
 11
106.962382177109
 21
29.7269261370394
 31
0.0
  0
LINE
  5
   3E9
  8
0
  6
CONTINUOUS
 62
     1
 10
108.042379564899
 20
8.276925284693
 30
0.0
 11
108.042367470853
 21
29.7269261370394
 31
0.0
  0
LINE
  5
   3EA
  8
0
  6
CONTINUOUS
 62
     1
 10
109.122364858643
 20
8.276925284693
 30
0.0
 11
109.122352764597
 21
29.7269261370394
 31
0.0
  0
LINE
  5
   3EB
  8
0
  6
CONTINUOUS
 62
     1
 10
110.202350152387
 20
8.276925284693
 30
0.0
 11
110.202338058341
 21
29.7269261370394
 31
0.0
  0
LINE
  5
   3EC
  8
0
  6
CONTINUOUS
 62
     1
 10
111.282335446131
 20
8.276925284693
 30
0.0
 11
111.282323352084
 21
29.7269261370394
 31
0.0
  0
LINE
  5
   3ED
  8
0
  6
CONTINUOUS
 62
     1
 10
112.362320739875
 20
8.276925284693
 30
0.0
 11
112.362308645828
 21
29.7269261370394
 31
0.0
  0
INSERT
  5
   3EE
  8
0
  6
CONTINUOUS
 62
     7
  2
*UDIM538
 10
0.0
 20
0.0
 30
0.0
  0
LINE
  5
   3EF
  8
0
  6
CONTINUOUS
 62
    50
 10
77.9074214363807
 20
130.076816481009
 30
0.0
 11
77.9074214363807
 21
160.67678072452
 31
0.0
  0
LINE
  5
   3F0
  8
0
  6
CONTINUOUS
 62
    50
 10
77.907379722594
 20
160.676785607328
 30
0.0
 11
50.9073775053012
 21
160.676785607328
 31
0.0
  0
LINE
  5
   3F1
  8
0
  6
CONTINUOUS
 62
    50
 10
50.9074477844429
 20
152.547922979633
 30
0.0
 11
50.9074477844429
 21
160.676771569246
 31
0.0
  0
LINE
  5
   3F2
  8
0
  6
CONTINUOUS
 62
    50
 10
50.9546965379432
 20
152.017411483943
 30
0.0
 11
50.9073820829381
 21
152.547922979633
 31
0.0
  0
LINE
  5
   3F3
  8
0
  6
CONTINUOUS
 62
    50
 10
52.4581847568662
 20
149.921183373303
 30
0.0
 11
52.0165251934177
 21
150.218857945678
 31
0.0
  0
LINE
  5
   3F4
  8
0
  6
CONTINUOUS
 62
    50
 10
51.0950468853171
 20
151.503617518214
 30
0.0
 11
50.9546965379432
 21
152.017411483943
 31
0.0
  0
LINE
  5
   3F5
  8
0
  6
CONTINUOUS
 62
    50
 10
52.0165251934177
 20
150.218857945678
 30
0.0
 11
51.6344618847789
 21
150.589948658666
 31
0.0
  0
LINE
  5
   3F6
  8
0
  6
CONTINUOUS
 62
    50
 10
51.6344618847788
 20
150.589948658666
 30
0.0
 11
51.3240385936351
 21
151.022745917075
 31
0.0
  0
LINE
  5
   3F7
  8
0
  6
CONTINUOUS
 62
    50
 10
51.3240385936351
 20
151.022745917075
 30
0.0
 11
51.0950468853171
 21
151.503617518214
 31
0.0
  0
LINE
  5
   3F8
  8
0
  6
CONTINUOUS
 62
    50
 10
58.8079027215835
 20
146.417890387414
 30
0.0
 11
52.4581847568661
 21
149.921183373302
 31
0.0
  0
LINE
  5
   3F9
  8
0
  6
CONTINUOUS
 62
    50
 10
59.7051447311138
 20
145.660401343643
 30
0.0
 11
59.2939470524207
 21
146.083475701274
 31
0.0
  0
LINE
  5
   3FA
  8
0
  6
CONTINUOUS
 62
    50
 10
60.0255930470698
 20
145.165027788802
 30
0.0
 11
59.7051447311137
 21
145.660401343643
 31
0.0
  0
LINE
  5
   3FB
  8
0
  6
CONTINUOUS
 62
    50
 10
59.2939470524207
 20
146.083475701274
 30
0.0
 11
58.8079027215836
 21
146.417890387414
 31
0.0
  0
LINE
  5
   3FC
  8
0
  6
CONTINUOUS
 62
    50
 10
64.707419252396
 20
136.076779747003
 30
0.0
 11
60.0255930470698
 21
145.165027788802
 31
0.0
  0
LINE
  5
   3FD
  8
0
  6
CONTINUOUS
 62
    50
 10
64.707419252396
 20
130.0767967179
 30
0.0
 11
64.707419252396
 21
136.076779747003
 31
0.0
  0
LINE
  5
   3FE
  8
0
  6
CONTINUOUS
 62
    50
 10
106.707437287185
 20
130.076859600537
 30
0.0
 11
106.707437287185
 21
131.126999276879
 31
0.0
  0
LINE
  5
   3FF
  8
0
  6
CONTINUOUS
 62
    50
 10
106.707351112363
 20
131.126999276879
 30
0.0
 11
106.762116815833
 21
132.272479669076
 31
0.0
  0
LINE
  5
   400
  8
0
  6
CONTINUOUS
 62
    50
 10
110.881905340135
 20
140.224420903027
 30
0.0
 11
111.786050426111
 21
140.929871370512
 31
0.0
  0
LINE
  5
   401
  8
0
  6
CONTINUOUS
 62
    50
 10
110.04922861027
 20
139.435886325795
 30
0.0
 11
110.881905340135
 21
140.224420903027
 31
0.0
  0
LINE
  5
   402
  8
0
  6
CONTINUOUS
 62
    50
 10
109.295624835818
 20
138.571472839298
 30
0.0
 11
110.04922861027
 21
139.435886325795
 31
0.0
  0
LINE
  5
   403
  8
0
  6
CONTINUOUS
 62
    50
 10
108.627977638267
 20
137.639063134278
 30
0.0
 11
109.295624835818
 21
138.571472839298
 31
0.0
  0
LINE
  5
   404
  8
0
  6
CONTINUOUS
 62
    50
 10
108.052383285561
 20
136.647180770646
 30
0.0
 11
108.627977638267
 21
137.639063134278
 31
0.0
  0
LINE
  5
   405
  8
0
  6
CONTINUOUS
 62
    50
 10
107.57409919368
 20
135.604889469463
 30
0.0
 11
108.052383285561
 21
136.647180770646
 31
0.0
  0
LINE
  5
   406
  8
0
  6
CONTINUOUS
 62
    50
 10
107.197493572636
 20
134.521692404936
 30
0.0
 11
107.57409919368
 21
135.604889469463
 31
0.0
  0
LINE
  5
   407
  8
0
  6
CONTINUOUS
 62
    50
 10
106.92600651656
 20
133.407504738592
 30
0.0
 11
107.197493572636
 21
134.521692404936
 31
0.0
  0
LINE
  5
   408
  8
0
  6
CONTINUOUS
 62
    50
 10
106.762116815833
 20
132.272479669076
 30
0.0
 11
106.92600651656
 21
133.407504738592
 31
0.0
  0
LINE
  5
   409
  8
0
  6
CONTINUOUS
 62
    50
 10
111.786050426111
 20
140.929871370512
 30
0.0
 11
112.753408100049
 21
141.545792415494
 31
0.0
  0
LINE
  5
   40A
  8
0
  6
CONTINUOUS
 62
    50
 10
112.753408100049
 20
141.545792415494
 30
0.0
 11
118.995785057083
 21
145.113053299432
 31
0.0
  0
LINE
  5
   40B
  8
0
  6
CONTINUOUS
 62
    50
 10
118.995785057083
 20
145.113053299432
 30
0.0
 11
119.427174692144
 21
145.412513150199
 31
0.0
  0
LINE
  5
   40C
  8
0
  6
CONTINUOUS
 62
    50
 10
119.427174692144
 20
145.412513150199
 30
0.0
 11
119.799737115396
 21
145.782615093616
 31
0.0
  0
LINE
  5
   40D
  8
0
  6
CONTINUOUS
 62
    50
 10
119.799737115396
 20
145.782615093616
 30
0.0
 11
120.102055700407
 21
146.212006590171
 31
0.0
  0
LINE
  5
   40E
  8
0
  6
CONTINUOUS
 62
    50
 10
120.102055700407
 20
146.212006590171
 30
0.0
 11
120.324867598909
 21
146.68753151141
 31
0.0
  0
LINE
  5
   40F
  8
0
  6
CONTINUOUS
 62
    50
 10
120.324867598909
 20
146.68753151141
 30
0.0
 11
120.461345265465
 21
147.19463297199
 31
0.0
  0
LINE
  5
   410
  8
0
  6
CONTINUOUS
 62
    50
 10
120.461345265465
 20
147.19463297199
 30
0.0
 11
120.507307028766
 21
147.717756161723
 31
0.0
  0
LINE
  5
   411
  8
0
  6
CONTINUOUS
 62
    50
 10
120.507307028766
 20
147.717756164004
 30
0.0
 11
120.507281851763
 21
160.676817348305
 31
0.0
  0
LINE
  5
   412
  8
0
  6
CONTINUOUS
 62
    50
 10
120.507281752942
 20
160.676817345615
 30
0.0
 11
147.507326313376
 21
160.676844811436
 31
0.0
  0
LINE
  5
   413
  8
0
  6
CONTINUOUS
 62
    50
 10
147.507430662121
 20
149.716865127879
 30
0.0
 11
147.507430662121
 21
160.676844811436
 31
0.0
  0
LINE
  5
   414
  8
0
  6
CONTINUOUS
 62
    50
 10
146.52350068951
 20
147.495392871637
 30
0.0
 11
146.864269135668
 21
147.860871401785
 31
0.0
  0
LINE
  5
   415
  8
0
  6
CONTINUOUS
 62
    50
 10
147.465683649312
 20
149.218900630553
 30
0.0
 11
147.507335567471
 21
149.716865127879
 31
0.0
  0
LINE
  5
   416
  8
0
  6
CONTINUOUS
 62
    50
 10
147.341986744983
 20
148.734751441392
 30
0.0
 11
147.465683649312
 21
149.218900630553
 31
0.0
  0
LINE
  5
   417
  8
0
  6
CONTINUOUS
 62
    50
 10
147.1396460387
 20
148.277848347065
 30
0.0
 11
147.341986744983
 21
148.734751441392
 31
0.0
  0
LINE
  5
   418
  8
0
  6
CONTINUOUS
 62
    50
 10
146.864269135668
 20
147.860871401785
 30
0.0
 11
147.1396460387
 21
148.277848347065
 31
0.0
  0
LINE
  5
   419
  8
0
  6
CONTINUOUS
 62
    50
 10
146.126793520426
 20
147.191538489446
 30
0.0
 11
146.52350068951
 21
147.495392871637
 31
0.0
  0
LINE
  5
   41A
  8
0
  6
CONTINUOUS
 62
    50
 10
119.907323026654
 20
130.376907694339
 30
0.0
 11
146.126793520426
 21
147.191538489446
 31
0.0
  0
LINE
  5
   41B
  8
0
  6
CONTINUOUS
 62
    50
 10
119.907323026654
 20
130.076879363472
 30
0.0
 11
119.907323026654
 21
130.376907694339
 31
0.0
  0
LINE
  5
   41C
  8
0
  6
CONTINUOUS
 62
    50
 10
85.7074444916334
 20
130.076828159242
 30
0.0
 11
85.7074444916334
 21
160.67678072452
 31
0.0
  0
LINE
  5
   41D
  8
0
  6
CONTINUOUS
 62
    50
 10
85.7073215638087
 20
160.67678072452
 30
0.0
 11
112.707322636692
 21
160.676808190341
 31
0.0
  0
LINE
  5
   41E
  8
0
  6
CONTINUOUS
 62
    50
 10
112.707331895825
 20
152.547959599138
 30
0.0
 11
112.707322740551
 21
160.676808189193
 31
0.0
  0
LINE
  5
   41F
  8
0
  6
CONTINUOUS
 62
    50
 10
112.660015152002
 20
152.017448105038
 30
0.0
 11
112.707331895825
 21
152.547959600728
 31
0.0
  0
LINE
  5
   420
  8
0
  6
CONTINUOUS
 62
    50
 10
111.156528077488
 20
149.921219994398
 30
0.0
 11
111.598191074164
 21
150.218894566773
 31
0.0
  0
LINE
  5
   421
  8
0
  6
CONTINUOUS
 62
    50
 10
112.519667093446
 20
151.503663294583
 30
0.0
 11
112.660015152002
 21
152.017448105038
 31
0.0
  0
LINE
  5
   422
  8
0
  6
CONTINUOUS
 62
    50
 10
111.598191074164
 20
150.218894566773
 30
0.0
 11
111.980254382803
 21
150.589985279761
 31
0.0
  0
LINE
  5
   423
  8
0
  6
CONTINUOUS
 62
    50
 10
111.980254382803
 20
150.589985279761
 30
0.0
 11
112.29067309631
 21
151.02278253817
 31
0.0
  0
LINE
  5
   424
  8
0
  6
CONTINUOUS
 62
    50
 10
112.29067309631
 20
151.02278253817
 30
0.0
 11
112.519667093446
 21
151.503663294583
 31
0.0
  0
LINE
  5
   425
  8
0
  6
CONTINUOUS
 62
    50
 10
104.806818123635
 20
146.41792700851
 30
0.0
 11
111.156528077488
 21
149.921219994398
 31
0.0
  0
LINE
  5
   426
  8
0
  6
CONTINUOUS
 62
    50
 10
103.909574969696
 20
145.660428809464
 30
0.0
 11
104.320772648389
 21
146.083503167096
 31
0.0
  0
LINE
  5
   427
  8
0
  6
CONTINUOUS
 62
    50
 10
103.589127798149
 20
145.165055254623
 30
0.0
 11
103.909574969696
 21
145.660428809464
 31
0.0
  0
LINE
  5
   428
  8
0
  6
CONTINUOUS
 62
    50
 10
104.320772648389
 20
146.083503167096
 30
0.0
 11
104.806818123635
 21
146.41792700851
 31
0.0
  0
LINE
  5
   429
  8
0
  6
CONTINUOUS
 62
    50
 10
98.9073136091193
 20
136.076807212825
 30
0.0
 11
103.589127798149
 21
145.165055254623
 31
0.0
  0
LINE
  5
   42A
  8
0
  6
CONTINUOUS
 62
    50
 10
98.9073213431215
 20
130.076847922164
 30
0.0
 11
98.9073136091194
 21
136.076807212132
 31
0.0
  0
CIRCLE
  5
   42B
  8
0
  6
CONTINUOUS
 62
    50
 10
140.75729979235
 20
154.676865959444
 30
0.0
 40
1.949987846337
  0
CIRCLE
  5
   42C
  8
0
  6
CONTINUOUS
 62
    50
 10
134.00730645101
 20
154.676865959438
 30
0.0
 40
1.94998784634372
  0
CIRCLE
  5
   42D
  8
0
  6
CONTINUOUS
 62
    50
 10
127.257333321297
 20
154.676796666652
 30
0.0
 40
1.95004798409219
  0
CIRCLE
  5
   42E
  8
0
  6
CONTINUOUS
 62
    50
 10
105.957311779615
 20
154.676867483992
 30
0.0
 40
1.94994970072147
  0
CIRCLE
  5
   42F
  8
0
  6
CONTINUOUS
 62
    50
 10
99.2073020631083
 20
154.676807952174
 30
0.0
 40
1.95000007723619
  0
CIRCLE
  5
   430
  8
0
  6
CONTINUOUS
 62
    50
 10
92.4572851403522
 20
154.676796007123
 30
0.0
 40
1.94999027341147
  0
CIRCLE
  5
   431
  8
0
  6
CONTINUOUS
 62
    50
 10
71.1574069919917
 20
154.676781419608
 30
0.0
 40
1.94999914398019
  0
CIRCLE
  5
   432
  8
0
  6
CONTINUOUS
 62
    50
 10
64.4074055075649
 20
154.676775305307
 30
0.0
 40
1.95000525827998
  0
CIRCLE
  5
   433
  8
0
  6
CONTINUOUS
 62
    50
 10
57.6574065882098
 20
154.676778885656
 30
0.0
 40
1.94999847704217
  0
LINE
  5
   434
  8
0
  6
DASHDOT
 62
     7
 10
57.6574065882098
 20
152.126780384772
 30
0.0
 11
57.6574065882098
 21
157.22677738654
 31
0.0
  0
LINE
  5
   435
  8
0
  6
DASHDOT
 62
     7
 10
60.2074050890939
 20
154.676778885656
 30
0.0
 11
55.1074080873258
 21
154.676778885656
 31
0.0
  0
LINE
  5
   436
  8
0
  6
DASHDOT
 62
     7
 10
64.4074055075649
 20
152.126770023185
 30
0.0
 11
64.4074055075649
 21
157.226780587429
 31
0.0
  0
LINE
  5
   437
  8
0
  6
DASHDOT
 62
     7
 10
66.9574107896868
 20
154.676775305307
 30
0.0
 11
61.8574002254431
 21
154.676775305307
 31
0.0
  0
LINE
  5
   438
  8
0
  6
DASHDOT
 62
     7
 10
71.1574069919917
 20
152.126782251786
 30
0.0
 11
71.1574069919917
 21
157.22678058743
 31
0.0
  0
LINE
  5
   439
  8
0
  6
DASHDOT
 62
     7
 10
73.7074061598137
 20
154.676781419608
 30
0.0
 11
68.6074078241696
 21
154.676781419608
 31
0.0
  0
LINE
  5
   43A
  8
0
  6
DASHDOT
 62
     7
 10
92.4572851403522
 20
152.12680570987
 30
0.0
 11
92.4572851403522
 21
157.226786304377
 31
0.0
  0
LINE
  5
   43B
  8
0
  6
DASHDOT
 62
     7
 10
95.0072754376055
 20
154.676796007123
 30
0.0
 11
89.9072948430988
 21
154.676796007123
 31
0.0
  0
LINE
  5
   43C
  8
0
  6
DASHDOT
 62
     7
 10
99.2073020631083
 20
152.126807851095
 30
0.0
 11
99.2073020631083
 21
157.226808053252
 31
0.0
  0
LINE
  5
   43D
  8
0
  6
DASHDOT
 62
     7
 10
101.757302164186
 20
154.676807952174
 30
0.0
 11
96.6573019620302
 21
154.676807952174
 31
0.0
  0
LINE
  5
   43E
  8
0
  6
DASHDOT
 62
     7
 10
105.957311779615
 20
152.126917759428
 30
0.0
 11
105.957311779615
 21
157.226817208555
 31
0.0
  0
LINE
  5
   43F
  8
0
  6
DASHDOT
 62
     7
 10
108.507261504179
 20
154.676867483992
 30
0.0
 11
103.407362055052
 21
154.676867483992
 31
0.0
  0
LINE
  5
   440
  8
0
  6
DASHDOT
 62
     7
 10
127.257333321297
 20
152.126748658717
 30
0.0
 11
127.257333321297
 21
157.226844674586
 31
0.0
  0
LINE
  5
   441
  8
0
  6
DASHDOT
 62
     7
 10
129.807381329231
 20
154.676796666652
 30
0.0
 11
124.707285313363
 21
154.676796666652
 31
0.0
  0
LINE
  5
   442
  8
0
  6
DASHDOT
 62
     7
 10
134.00730645101
 20
152.126878089252
 30
0.0
 11
134.00730645101
 21
157.226853829623
 31
0.0
  0
LINE
  5
   443
  8
0
  6
DASHDOT
 62
     7
 10
136.557294321195
 20
154.676865959438
 30
0.0
 11
131.457318580824
 21
154.676865959438
 31
0.0
  0
LINE
  5
   444
  8
0
  6
DASHDOT
 62
     7
 10
140.75729979235
 20
152.126878089265
 30
0.0
 11
140.75729979235
 21
157.226853829623
 31
0.0
  0
LINE
  5
   445
  8
0
  6
DASHDOT
 62
     7
 10
143.307287662529
 20
154.676865959444
 30
0.0
 11
138.207311922171
 21
154.676865959444
 31
0.0
  0
LINE
  5
   446
  8
0
  6
CONTINUOUS
 62
    50
 10
77.9073878763494
 20
-22.3230173990408
 30
0.0
 11
77.9073878763494
 21
8.27692528469301
 31
0.0
  0
LINE
  5
   447
  8
0
  6
CONTINUOUS
 62
    50
 10
77.9073461625627
 20
-22.3230222818494
 30
0.0
 11
50.9073439452698
 21
-22.3230222818494
 31
0.0
  0
LINE
  5
   448
  8
0
  6
CONTINUOUS
 62
    50
 10
50.9074142244116
 20
-22.3230082437671
 30
0.0
 11
50.9074142244116
 21
-14.1941596541541
 31
0.0
  0
LINE
  5
   449
  8
0
  6
CONTINUOUS
 62
    50
 10
50.9073485229067
 20
-14.1941596541541
 30
0.0
 11
50.9546629779118
 21
-13.6636481584641
 31
0.0
  0
LINE
  5
   44A
  8
0
  6
CONTINUOUS
 62
    50
 10
52.0164916333864
 20
-11.8650946201991
 30
0.0
 11
52.4581511968348
 21
-11.5674200478237
 31
0.0
  0
LINE
  5
   44B
  8
0
  6
CONTINUOUS
 62
    50
 10
50.9546629779118
 20
-13.663648158464
 30
0.0
 11
51.0950133252857
 21
-13.1498541927352
 31
0.0
  0
LINE
  5
   44C
  8
0
  6
CONTINUOUS
 62
    50
 10
51.6344283247475
 20
-12.2361853331871
 30
0.0
 11
52.0164916333864
 21
-11.8650946201991
 31
0.0
  0
LINE
  5
   44D
  8
0
  6
CONTINUOUS
 62
    50
 10
51.3240050336038
 20
-12.6689825915959
 30
0.0
 11
51.6344283247475
 21
-12.2361853331871
 31
0.0
  0
LINE
  5
   44E
  8
0
  6
CONTINUOUS
 62
    50
 10
51.0950133252857
 20
-13.1498541927352
 30
0.0
 11
51.3240050336038
 21
-12.6689825915958
 31
0.0
  0
LINE
  5
   44F
  8
0
  6
CONTINUOUS
 62
    50
 10
52.4581511968348
 20
-11.5674200478237
 30
0.0
 11
58.8078691615522
 21
-8.0641270619357
 31
0.0
  0
LINE
  5
   450
  8
0
  6
CONTINUOUS
 62
    50
 10
59.2939134923893
 20
-7.72971237579566
 30
0.0
 11
59.7051111710824
 21
-7.30663801816388
 31
0.0
  0
LINE
  5
   451
  8
0
  6
CONTINUOUS
 62
    50
 10
59.7051111710824
 20
-7.30663801816387
 30
0.0
 11
60.0255594870385
 21
-6.81126446332325
 31
0.0
  0
LINE
  5
   452
  8
0
  6
CONTINUOUS
 62
    50
 10
58.8078691615522
 20
-8.06412706193568
 30
0.0
 11
59.2939134923893
 21
-7.72971237579566
 31
0.0
  0
LINE
  5
   453
  8
0
  6
CONTINUOUS
 62
    50
 10
60.0255594870385
 20
-6.81126446332325
 30
0.0
 11
64.7073856923646
 21
2.27698357847529
 31
0.0
  0
LINE
  5
   454
  8
0
  6
CONTINUOUS
 62
    50
 10
64.7073856923647
 20
2.27698357847532
 30
0.0
 11
64.7073856923647
 21
8.27692528469301
 31
0.0
  0
LINE
  5
   455
  8
0
  6
CONTINUOUS
 62
    50
 10
106.707403727153
 20
7.22676404859943
 30
0.0
 11
106.707403727153
 21
8.27692528469301
 31
0.0
  0
LINE
  5
   456
  8
0
  6
CONTINUOUS
 62
    50
 10
106.762083255802
 20
6.08128365640242
 30
0.0
 11
106.707317552332
 21
7.22676404859942
 31
0.0
  0
LINE
  5
   457
  8
0
  6
CONTINUOUS
 62
    50
 10
111.78601686608
 20
-2.57610804503334
 30
0.0
 11
110.881871780103
 21
-1.8706575775481
 31
0.0
  0
LINE
  5
   458
  8
0
  6
CONTINUOUS
 62
    50
 10
110.881871780104
 20
-1.87065757754807
 30
0.0
 11
110.049195050239
 21
-1.08212300031607
 31
0.0
  0
LINE
  5
   459
  8
0
  6
CONTINUOUS
 62
    50
 10
110.049195050239
 20
-1.08212300031609
 30
0.0
 11
109.295591275786
 21
-0.217709513818946
 31
0.0
  0
LINE
  5
   45A
  8
0
  6
CONTINUOUS
 62
    50
 10
109.295591275786
 20
-0.217709513818932
 30
0.0
 11
108.627944078236
 21
0.71470019120045
 31
0.0
  0
LINE
  5
   45B
  8
0
  6
CONTINUOUS
 62
    50
 10
108.627944078236
 20
0.714700191200436
 30
0.0
 11
108.05234972553
 21
1.70658255483305
 31
0.0
  0
LINE
  5
   45C
  8
0
  6
CONTINUOUS
 62
    50
 10
108.05234972553
 20
1.70658255483306
 30
0.0
 11
107.574065633648
 21
2.74887385601561
 31
0.0
  0
LINE
  5
   45D
  8
0
  6
CONTINUOUS
 62
    50
 10
107.574065633648
 20
2.74887385601561
 30
0.0
 11
107.197460012604
 21
3.83207092054238
 31
0.0
  0
LINE
  5
   45E
  8
0
  6
CONTINUOUS
 62
    50
 10
107.197460012604
 20
3.83207092054236
 30
0.0
 11
106.925972956528
 21
4.94625858688649
 31
0.0
  0
LINE
  5
   45F
  8
0
  6
CONTINUOUS
 62
    50
 10
106.925972956528
 20
4.9462585868865
 30
0.0
 11
106.762083255802
 21
6.08128365640242
 31
0.0
  0
LINE
  5
   460
  8
0
  6
CONTINUOUS
 62
    50
 10
112.753374540017
 20
-3.19202909001559
 30
0.0
 11
111.78601686608
 21
-2.57610804503328
 31
0.0
  0
LINE
  5
   461
  8
0
  6
CONTINUOUS
 62
    50
 10
118.995751497051
 20
-6.7592899739533
 30
0.0
 11
112.753374540017
 21
-3.19202909001558
 31
0.0
  0
LINE
  5
   462
  8
0
  6
CONTINUOUS
 62
    50
 10
119.427141132113
 20
-7.05874982471995
 30
0.0
 11
118.995751497051
 21
-6.7592899739533
 31
0.0
  0
LINE
  5
   463
  8
0
  6
CONTINUOUS
 62
    50
 10
119.799703555365
 20
-7.42885176813744
 30
0.0
 11
119.427141132113
 21
-7.05874982471997
 31
0.0
  0
LINE
  5
   464
  8
0
  6
CONTINUOUS
 62
    50
 10
120.102022140376
 20
-7.85824326469209
 30
0.0
 11
119.799703555365
 21
-7.42885176813742
 31
0.0
  0
LINE
  5
   465
  8
0
  6
CONTINUOUS
 62
    50
 10
120.324834038878
 20
-8.33376818593148
 30
0.0
 11
120.102022140376
 21
-7.85824326469206
 31
0.0
  0
LINE
  5
   466
  8
0
  6
CONTINUOUS
 62
    50
 10
120.461311705434
 20
-8.84086964651156
 30
0.0
 11
120.324834038878
 21
-8.33376818593148
 31
0.0
  0
LINE
  5
   467
  8
0
  6
CONTINUOUS
 62
    50
 10
120.507273468735
 20
-9.36399283624395
 30
0.0
 11
120.461311705434
 21
-8.84086964651159
 31
0.0
  0
LINE
  5
   468
  8
0
  6
CONTINUOUS
 62
    50
 10
120.507248291732
 20
-22.3230540228257
 30
0.0
 11
120.507273468735
 21
-9.36399283852516
 31
0.0
  0
LINE
  5
   469
  8
0
  6
CONTINUOUS
 62
    50
 10
147.507292818754
 20
-22.3230814859575
 30
0.0
 11
120.507248258319
 21
-22.3230540201361
 31
0.0
  0
LINE
  5
   46A
  8
0
  6
CONTINUOUS
 62
    50
 10
147.507397102089
 20
-22.3230814859575
 30
0.0
 11
147.507397102089
 21
-11.3631018024001
 31
0.0
  0
LINE
  5
   46B
  8
0
  6
CONTINUOUS
 62
    50
 10
146.864235575637
 20
-9.50710807630586
 30
0.0
 11
146.523467129479
 21
-9.14162954615805
 31
0.0
  0
LINE
  5
   46C
  8
0
  6
CONTINUOUS
 62
    50
 10
147.50730200744
 20
-11.3631018024001
 30
0.0
 11
147.465650089281
 21
-10.8651373050738
 31
0.0
  0
LINE
  5
   46D
  8
0
  6
CONTINUOUS
 62
    50
 10
147.465650089281
 20
-10.8651373050738
 30
0.0
 11
147.341953184952
 21
-10.3809881159135
 31
0.0
  0
LINE
  5
   46E
  8
0
  6
CONTINUOUS
 62
    50
 10
147.341953184952
 20
-10.3809881159135
 30
0.0
 11
147.139612478669
 21
-9.92408502158595
 31
0.0
  0
LINE
  5
   46F
  8
0
  6
CONTINUOUS
 62
    50
 10
147.139612478669
 20
-9.92408502158595
 30
0.0
 11
146.864235575637
 21
-9.50710807630586
 31
0.0
  0
LINE
  5
   470
  8
0
  6
CONTINUOUS
 62
    50
 10
146.523467129479
 20
-9.14162954615802
 30
0.0
 11
146.126759960395
 21
-8.83777516396674
 31
0.0
  0
LINE
  5
   471
  8
0
  6
CONTINUOUS
 62
    50
 10
146.126759960395
 20
-8.83777516396675
 30
0.0
 11
119.907289466622
 21
7.97685563113974
 31
0.0
  0
LINE
  5
   472
  8
0
  6
CONTINUOUS
 62
    50
 10
119.907289466622
 20
7.97685563113976
 30
0.0
 11
119.907289466622
 21
8.27692528469301
 31
0.0
  0
LINE
  5
   473
  8
0
  6
CONTINUOUS
 62
    50
 10
85.707410931602
 20
-22.3230173990409
 30
0.0
 11
85.707410931602
 21
8.27692528469301
 31
0.0
  0
LINE
  5
   474
  8
0
  6
CONTINUOUS
 62
    50
 10
112.707289142283
 20
-22.3230448648623
 30
0.0
 11
85.7072880693994
 21
-22.3230173990409
 31
0.0
  0
LINE
  5
   475
  8
0
  6
CONTINUOUS
 62
    50
 10
112.70728918052
 20
-22.3230448637139
 30
0.0
 11
112.707298335794
 21
-14.194196273659
 31
0.0
  0
LINE
  5
   476
  8
0
  6
CONTINUOUS
 62
    50
 10
112.707298335794
 20
-14.1941962752492
 30
0.0
 11
112.65998159197
 21
-13.6636847795592
 31
0.0
  0
LINE
  5
   477
  8
0
  6
CONTINUOUS
 62
    50
 10
111.598157514133
 20
-11.8651312412943
 30
0.0
 11
111.156494517456
 21
-11.5674566689189
 31
0.0
  0
LINE
  5
   478
  8
0
  6
CONTINUOUS
 62
    50
 10
112.65998159197
 20
-13.6636847795593
 30
0.0
 11
112.519633533415
 21
-13.1498999691042
 31
0.0
  0
LINE
  5
   479
  8
0
  6
CONTINUOUS
 62
    50
 10
111.980220822771
 20
-12.2362219542823
 30
0.0
 11
111.598157514133
 21
-11.8651312412943
 31
0.0
  0
LINE
  5
   47A
  8
0
  6
CONTINUOUS
 62
    50
 10
112.290639536278
 20
-12.6690192126911
 30
0.0
 11
111.980220822771
 21
-12.2362219542823
 31
0.0
  0
LINE
  5
   47B
  8
0
  6
CONTINUOUS
 62
    50
 10
112.519633533415
 20
-13.1498999691042
 30
0.0
 11
112.290639536278
 21
-12.6690192126911
 31
0.0
  0
LINE
  5
   47C
  8
0
  6
CONTINUOUS
 62
    50
 10
111.156494517456
 20
-11.5674566689189
 30
0.0
 11
104.806784563604
 21
-8.06416368303087
 31
0.0
  0
LINE
  5
   47D
  8
0
  6
CONTINUOUS
 62
    50
 10
104.320739088357
 20
-7.72973984161711
 30
0.0
 11
103.909541409664
 21
-7.30666548398533
 31
0.0
  0
LINE
  5
   47E
  8
0
  6
CONTINUOUS
 62
    50
 10
103.909541409664
 20
-7.3066654839853
 30
0.0
 11
103.589094238117
 21
-6.81129192914467
 31
0.0
  0
LINE
  5
   47F
  8
0
  6
CONTINUOUS
 62
    50
 10
104.806784563604
 20
-8.06416368303091
 30
0.0
 11
104.320739088357
 21
-7.72973984161709
 31
0.0
  0
LINE
  5
   480
  8
0
  6
CONTINUOUS
 62
    50
 10
103.589094238117
 20
-6.81129192914469
 30
0.0
 11
98.907280049088
 21
2.27695611265388
 31
0.0
  0
LINE
  5
   481
  8
0
  6
CONTINUOUS
 62
    50
 10
98.907280049088
 20
2.27695611334682
 30
0.0
 11
98.9072877831028
 21
8.27692528469299
 31
0.0
  0
CIRCLE
  5
   482
  8
0
  6
CONTINUOUS
 62
    50
 10
140.757266232318
 20
-16.323102633965
 30
0.0
 40
1.949987846337
  0
CIRCLE
  5
   483
  8
0
  6
CONTINUOUS
 62
    50
 10
134.007272890978
 20
-16.3231026339588
 30
0.0
 40
1.94998784634372
  0
CIRCLE
  5
   484
  8
0
  6
CONTINUOUS
 62
    50
 10
127.257299761266
 20
-16.3230333411727
 30
0.0
 40
1.95004798409219
  0
CIRCLE
  5
   485
  8
0
  6
CONTINUOUS
 62
    50
 10
105.957278219584
 20
-16.323104158513
 30
0.0
 40
1.94994970072147
  0
CIRCLE
  5
   486
  8
0
  6
CONTINUOUS
 62
    50
 10
99.2072685030769
 20
-16.3230446266947
 30
0.0
 40
1.95000007723619
  0
CIRCLE
  5
   487
  8
0
  6
CONTINUOUS
 62
    50
 10
92.4572515803208
 20
-16.3230326816445
 30
0.0
 40
1.94999027341147
  0
CIRCLE
  5
   488
  8
0
  6
CONTINUOUS
 62
    50
 10
71.1573734319603
 20
-16.3230180941288
 30
0.0
 40
1.94999914398019
  0
CIRCLE
  5
   489
  8
0
  6
CONTINUOUS
 62
    50
 10
64.4073719475336
 20
-16.323011979828
 30
0.0
 40
1.95000525827998
  0
CIRCLE
  5
   48A
  8
0
  6
CONTINUOUS
 62
    50
 10
57.6573730281785
 20
-16.3230155601774
 30
0.0
 40
1.94999847704217
  0
LINE
  5
   48B
  8
0
  6
DASHDOT
 62
     7
 10
57.6573730281785
 20
-18.8730140610614
 30
0.0
 11
57.6573730281785
 21
-13.7730170592934
 31
0.0
  0
LINE
  5
   48C
  8
0
  6
DASHDOT
 62
     7
 10
60.2073715290625
 20
-16.3230155601774
 30
0.0
 11
55.1073745272945
 21
-16.3230155601774
 31
0.0
  0
LINE
  5
   48D
  8
0
  6
DASHDOT
 62
     7
 10
64.4073719475336
 20
-18.8730172619499
 30
0.0
 11
64.4073719475336
 21
-13.7730066977062
 31
0.0
  0
LINE
  5
   48E
  8
0
  6
DASHDOT
 62
     7
 10
66.9573772296554
 20
-16.323011979828
 30
0.0
 11
61.8573666654117
 21
-16.323011979828
 31
0.0
  0
LINE
  5
   48F
  8
0
  6
DASHDOT
 62
     7
 10
71.1573734319603
 20
-18.8730172619509
 30
0.0
 11
71.1573734319603
 21
-13.7730189263068
 31
0.0
  0
LINE
  5
   490
  8
0
  6
DASHDOT
 62
     7
 10
73.7073725997824
 20
-16.3230180941288
 30
0.0
 11
68.6073742641383
 21
-16.3230180941288
 31
0.0
  0
LINE
  5
   491
  8
0
  6
DASHDOT
 62
     7
 10
92.4572515803208
 20
-18.8730229788978
 30
0.0
 11
92.4572515803208
 21
-13.7730423843912
 31
0.0
  0
LINE
  5
   492
  8
0
  6
DASHDOT
 62
     7
 10
95.0072418775741
 20
-16.3230326816445
 30
0.0
 11
89.9072612830675
 21
-16.3230326816445
 31
0.0
  0
LINE
  5
   493
  8
0
  6
DASHDOT
 62
     7
 10
99.2072685030769
 20
-18.8730447277728
 30
0.0
 11
99.2072685030769
 21
-13.7730445256167
 31
0.0
  0
LINE
  5
   494
  8
0
  6
DASHDOT
 62
     7
 10
101.757268604155
 20
-16.3230446266947
 30
0.0
 11
96.6572684019989
 21
-16.3230446266947
 31
0.0
  0
LINE
  5
   495
  8
0
  6
DASHDOT
 62
     7
 10
105.957278219584
 20
-18.8730538830763
 30
0.0
 11
105.957278219584
 21
-13.7731544339497
 31
0.0
  0
LINE
  5
   496
  8
0
  6
DASHDOT
 62
     7
 10
108.507227944147
 20
-16.323104158513
 30
0.0
 11
103.407328495021
 21
-16.323104158513
 31
0.0
  0
LINE
  5
   497
  8
0
  6
DASHDOT
 62
     7
 10
127.257299761266
 20
-18.8730813491068
 30
0.0
 11
127.257299761266
 21
-13.7729853332387
 31
0.0
  0
LINE
  5
   498
  8
0
  6
DASHDOT
 62
     7
 10
129.8073477692
 20
-16.3230333411727
 30
0.0
 11
124.707251753332
 21
-16.3230333411727
 31
0.0
  0
LINE
  5
   499
  8
0
  6
DASHDOT
 62
     7
 10
134.007272890978
 20
-18.8730905041444
 30
0.0
 11
134.007272890978
 21
-13.7731147637732
 31
0.0
  0
LINE
  5
   49A
  8
0
  6
DASHDOT
 62
     7
 10
136.557260761164
 20
-16.3231026339588
 30
0.0
 11
131.457285020793
 21
-16.3231026339588
 31
0.0
  0
LINE
  5
   49B
  8
0
  6
DASHDOT
 62
     7
 10
140.757266232318
 20
-18.8730905041439
 30
0.0
 11
140.757266232318
 21
-13.7731147637862
 31
0.0
  0
LINE
  5
   49C
  8
0
  6
DASHDOT
 62
     7
 10
143.307254102497
 20
-16.323102633965
 30
0.0
 11
138.20727836214
 21
-16.323102633965
 31
0.0
  0
INSERT
  5
   49D
  8
0
  6
CONTINUOUS
 62
     7
  2
*UDIM539
 10
0.0
 20
0.0
 30
0.0
  0
INSERT
  5
   49E
  8
0
  6
CONTINUOUS
 62
     7
  2
*UDIM540
 10
0.0
 20
0.0
 30
0.0
  0
INSERT
  5
   49F
  8
0
  6
CONTINUOUS
 62
     7
  2
*UDIM541
 10
0.0
 20
0.0
 30
0.0
  0
INSERT
  5
   4A0
  8
0
  6
CONTINUOUS
 62
     7
  2
*UDIM542
 10
0.0
 20
0.0
 30
0.0
  0
INSERT
  5
   4A1
  8
0
  6
CONTINUOUS
 62
     7
  2
*UDIM543
 10
0.0
 20
0.0
 30
0.0
  0
INSERT
  5
   4A2
  8
0
  6
CONTINUOUS
 62
     7
  2
*UDIM544
 10
0.0
 20
0.0
 30
0.0
  0
INSERT
  5
   4A3
  8
0
  6
CONTINUOUS
 62
     7
  2
*UDIM545
 10
0.0
 20
0.0
 30
0.0
  0
INSERT
  5
   4A4
  8
0
  6
CONTINUOUS
 62
     7
  2
*UDIM546
 10
0.0
 20
0.0
 30
0.0
  0
INSERT
  5
   4A5
  8
0
  6
CONTINUOUS
 62
     7
  2
*UDIM547
 10
0.0
 20
0.0
 30
0.0
  0
INSERT
  5
   4A6
  8
0
  6
CONTINUOUS
 62
     7
  2
*UDIM548
 10
0.0
 20
0.0
 30
0.0
  0
INSERT
  5
   4A7
  8
0
  6
CONTINUOUS
 62
     7
  2
*UDIM549
 10
0.0
 20
0.0
 30
0.0
  0
INSERT
  5
   4A8
  8
0
  6
CONTINUOUS
 62
     7
  2
*UDIM550
 10
0.0
 20
0.0
 30
0.0
  0
INSERT
  5
   4A9
  8
0
  6
CONTINUOUS
 62
     7
  2
*UDIM551
 10
0.0
 20
0.0
 30
0.0
  0
INSERT
  5
   4AA
  8
0
  6
CONTINUOUS
 62
     7
  2
*UDIM552
 10
0.0
 20
0.0
 30
0.0
  0
INSERT
  5
   4AB
  8
0
  6
CONTINUOUS
 62
     7
  2
*UDIM553
 10
0.0
 20
0.0
 30
0.0
  0
INSERT
  5
   4AC
  8
0
  6
CONTINUOUS
 62
     7
  2
*UDIM554
 10
0.0
 20
0.0
 30
0.0
  0
INSERT
  5
   4AD
  8
0
  6
CONTINUOUS
 62
     7
  2
*UDIM555
 10
0.0
 20
0.0
 30
0.0
  0
INSERT
  5
   4AE
  8
0
  6
CONTINUOUS
 62
     7
  2
*UDIM556
 10
0.0
 20
0.0
 30
0.0
  0
LINE
  5
   4AF
  8
0
  6
CONTINUOUS
 62
     3
 10
115.107412099838
 20
41.2019047230475
 30
0.0
 11
115.107412099838
 21
88.7519054681055
 31
0.0
  0
LINE
  5
   4B0
  8
0
  6
CONTINUOUS
 62
     3
 10
114.732412084937
 20
40.8269047081464
 30
0.0
 11
69.8824103027582
 21
40.8269047081464
 31
0.0
  0
LINE
  5
   4B1
  8
0
  6
CONTINUOUS
 62
     3
 10
69.5074102878571
 20
41.2019047230475
 30
0.0
 11
69.5074102878571
 21
88.7519054681055
 31
0.0
  0
LINE
  5
   4B2
  8
0
  6
CONTINUOUS
 62
     3
 10
114.732412084937
 20
89.1269054830067
 30
0.0
 11
69.8824103027582
 21
89.1269054830067
 31
0.0
  0
LINE
  5
   4B3
  8
0
  6
CONTINUOUS
 62
     3
 10
113.457412034273
 20
49.0769050359719
 30
0.0
 11
113.457412034273
 21
80.8769062995904
 31
0.0
  0
LINE
  5
   4B4
  8
0
  6
CONTINUOUS
 62
     3
 10
113.457412034273
 20
49.0769050359719
 30
0.0
 11
71.1574103534222
 21
49.0769050359719
 31
0.0
  0
LINE
  5
   4B5
  8
0
  6
CONTINUOUS
 62
     3
 10
71.1574103534222
 20
49.0769050359719
 30
0.0
 11
71.1574103534222
 21
80.8769062995904
 31
0.0
  0
LINE
  5
   4B6
  8
0
  6
CONTINUOUS
 62
     3
 10
113.457412034273
 20
80.8769051551811
 30
0.0
 11
71.1574103534222
 21
80.8769051551811
 31
0.0
  0
LINE
  5
   4B7
  8
0
  6
CONTINUOUS
 62
     3
 10
113.757412046194
 20
46.526904934644
 30
0.0
 11
113.757412046194
 21
46.8269049465649
 31
0.0
  0
LINE
  5
   4B8
  8
0
  6
CONTINUOUS
 62
     3
 10
113.457412034273
 20
47.1269049584859
 30
0.0
 11
71.1574103534222
 21
47.1269049584859
 31
0.0
  0
LINE
  5
   4B9
  8
0
  6
CONTINUOUS
 62
     3
 10
70.8574103415012
 20
46.526904934644
 30
0.0
 11
70.8574103415012
 21
46.8269049465649
 31
0.0
  0
LINE
  5
   4BA
  8
0
  6
CONTINUOUS
 62
     3
 10
113.457412034273
 20
46.8269049465649
 30
0.0
 11
71.1574103534222
 21
46.8269049465649
 31
0.0
  0
LINE
  5
   4BB
  8
0
  6
CONTINUOUS
 62
     3
 10
70.8574103415012
 20
40.8269047081463
 30
0.0
 11
70.8574103415012
 21
46.526904934644
 31
0.0
  0
LINE
  5
   4BC
  8
0
  6
CONTINUOUS
 62
     3
 10
70.8574103415012
 20
46.8269038021557
 30
0.0
 11
70.8574103415012
 21
89.1269054830067
 31
0.0
  0
LINE
  5
   4BD
  8
0
  6
CONTINUOUS
 62
     3
 10
71.1574103534222
 20
40.8269047081463
 30
0.0
 11
71.1574103534222
 21
46.8269049465649
 31
0.0
  0
LINE
  5
   4BE
  8
0
  6
CONTINUOUS
 62
     3
 10
71.1574103534222
 20
80.8769051551811
 30
0.0
 11
71.1574103534222
 21
82.8269052326672
 31
0.0
  0
LINE
  5
   4BF
  8
0
  6
CONTINUOUS
 62
     3
 10
71.1574103534222
 20
47.1269049584859
 30
0.0
 11
71.1574103534222
 21
49.0769050359719
 31
0.0
  0
LINE
  5
   4C0
  8
0
  6
CONTINUOUS
 62
     3
 10
113.757412046194
 20
40.8269047081463
 30
0.0
 11
113.757412046194
 21
46.526904934644
 31
0.0
  0
LINE
  5
   4C1
  8
0
  6
CONTINUOUS
 62
     3
 10
113.757412046194
 20
46.8269049465649
 30
0.0
 11
113.757412046194
 21
89.1269054830067
 31
0.0
  0
LINE
  5
   4C2
  8
0
  6
CONTINUOUS
 62
     3
 10
113.457412034273
 20
47.1269049584859
 30
0.0
 11
113.457412034273
 21
49.0769050359719
 31
0.0
  0
LINE
  5
   4C3
  8
0
  6
CONTINUOUS
 62
     3
 10
113.457412034273
 20
80.8769051551811
 30
0.0
 11
113.457412034273
 21
82.8269052326672
 31
0.0
  0
LINE
  5
   4C4
  8
0
  6
CONTINUOUS
 62
     3
 10
113.457412034273
 20
40.8269047081463
 30
0.0
 11
113.457412034273
 21
46.8269049465649
 31
0.0
  0
LINE
  5
   4C5
  8
0
  6
CONTINUOUS
 62
     3
 10
113.757412046194
 20
83.1269052445881
 30
0.0
 11
70.8574103415012
 21
83.1269052445881
 31
0.0
  0
LINE
  5
   4C6
  8
0
  6
CONTINUOUS
 62
     3
 10
113.457412034273
 20
82.8269052326672
 30
0.0
 11
71.1574103534222
 21
82.8269052326672
 31
0.0
  0
ARC
  5
   4C7
  8
0
  6
CONTINUOUS
 62
     3
 10
69.8824103027582
 20
41.2019047230475
 30
0.0
 40
0.375000014901161
 50
179.999999948034
 51
269.999999948034
  0
ARC
  5
   4C8
  8
0
  6
CONTINUOUS
 62
     3
 10
114.732412084937
 20
41.2019047230475
 30
0.0
 40
0.375000014901161
 50
269.999999948034
 51
359.999999948034
  0
ARC
  5
   4C9
  8
0
  6
CONTINUOUS
 62
     3
 10
114.732412084937
 20
88.7519054681055
 30
0.0
 40
0.375000014901161
 50
359.999999948034
 51
449.999999948034
  0
ARC
  5
   4CA
  8
0
  6
CONTINUOUS
 62
     3
 10
69.8824103027582
 20
88.7519054681055
 30
0.0
 40
0.375000014901161
 50
89.9999999480344
 51
179.999999948034
  0
LINE
  5
   4CB
  8
0
  6
DOT
 62
     3
 10
70.8574103415012
 20
85.9019065306197
 30
0.0
 11
70.7074106070498
 21
85.9019065306197
 31
0.0
  0
LINE
  5
   4CC
  8
0
  6
DOT
 62
     3
 10
70.8574103415012
 20
86.3519065485009
 30
0.0
 11
70.7074106070498
 21
86.3519065485009
 31
0.0
  0
LINE
  5
   4CD
  8
0
  6
CONTINUOUS
 62
     3
 10
113.757412046194
 20
85.9019065306715
 30
0.0
 11
113.607412313046
 21
85.9019065306715
 31
0.0
  0
LINE
  5
   4CE
  8
0
  6
CONTINUOUS
 62
     3
 10
113.757412046194
 20
86.3519065485527
 30
0.0
 11
113.607412313046
 21
86.3519065485527
 31
0.0
  0
ARC
  5
   4CF
  8
0
  6
DOT
 62
     3
 10
70.7074106068157
 20
86.1269065395742
 30
0.0
 40
0.225000008744246
 50
89.9999999480344
 51
269.999999948034
  0
ARC
  5
   4D0
  8
0
  6
CONTINUOUS
 62
     3
 10
71.0074106189271
 20
86.1269065395224
 30
0.0
 40
0.225000008943607
 50
269.999999948034
 51
449.999999948034
  0
LINE
  5
   4D1
  8
0
  6
CONTINUOUS
 62
     3
 10
71.0074106189711
 20
86.3519065485009
 30
0.0
 11
70.8574103415012
 21
86.3519065485009
 31
0.0
  0
LINE
  5
   4D2
  8
0
  6
CONTINUOUS
 62
     3
 10
71.0074106189711
 20
85.9019065306197
 30
0.0
 11
70.8574103415012
 21
85.9019065306197
 31
0.0
  0
ARC
  5
   4D3
  8
0
  6
CONTINUOUS
 62
     3
 10
113.607412313103
 20
86.1269065395159
 30
0.0
 40
0.225000008955249
 50
89.9999999519166
 51
269.999999944059
  0
ARC
  5
   4D4
  8
0
  6
DOT
 62
     3
 10
113.907412325
 20
86.1269065395198
 30
0.0
 40
0.225000008949428
 50
269.999999950484
 51
449.99999994552
  0
LINE
  5
   4D5
  8
0
  6
DOT
 62
     3
 10
113.907412324968
 20
86.3519065485527
 30
0.0
 11
113.757412046194
 21
86.3519065485527
 31
0.0
  0
LINE
  5
   4D6
  8
0
  6
DOT
 62
     3
 10
113.907412324968
 20
85.9019065306715
 30
0.0
 11
113.757412046194
 21
85.9019065306715
 31
0.0
  0
POINT
  5
   4D7
  8
0
  6
CONTINUOUS
 62
     7
 10
92.3074111938477
 20
64.9769050955765
 30
0.0
  0
TEXT
  5
   4D8
  8
0
  6
CONTINUOUS
 62
     7
 10
135.105683974577
 20
53.9008638442457
 30
0.0
 40
2.99999994039535
  1
=      =
 50
89.9999999480344
 41
0.91666667064031
 72
     1
 11
133.605684014093
 21
64.6258636742409
 31
0.0
 73
     2
  0
TEXT
  5
   4D9
  8
0
  6
CONTINUOUS
 62
     7
 10
32.6523041292311
 20
64.0404815710925
 30
0.0
 40
2.99999994039535
  1
X
 50
359.999999948034
 41
0.916666655739148
 72
     2
 11
34.852304085521
 21
64.0404815691082
 31
0.0
  0
LINE
  5
   4DA
  8
0
  6
CONTINUOUS
 62
     3
 10
212.168334960938
 20
124.076425266263
 30
0.0
 11
212.168334960938
 21
127.676425409314
 31
0.0
  0
LINE
  5
   4DB
  8
0
  6
CONTINUOUS
 62
   130
 10
240.968318423205
 20
107.126476023809
 30
0.0
 11
240.968332156126
 21
130.076424734117
 31
0.0
  0
LINE
  5
   4DC
  8
0
  6
CONTINUOUS
 62
     3
 10
213.518329221807
 20
72.7764932742499
 30
0.0
 11
213.743329514492
 21
72.8367807427848
 31
0.0
  0
LINE
  5
   4DD
  8
0
  6
CONTINUOUS
 62
   130
 10
212.168334960938
 20
44.8764833856355
 30
0.0
 11
242.168317842488
 21
44.8764953613308
 31
0.0
  0
LINE
  5
   4DE
  8
0
  6
CONTINUOUS
 62
   130
 10
242.168308687313
 20
76.3765103461405
 30
0.0
 11
242.168313264949
 21
74.8765102865358
 31
0.0
  0
LINE
  5
   4DF
  8
0
  6
CONTINUOUS
 62
   130
 10
242.168308687211
 20
70.9765199706373
 30
0.0
 11
242.168313264847
 21
44.8764914676951
 31
0.0
  0
LINE
  5
   4E0
  8
0
  6
CONTINUOUS
 62
     3
 10
212.618336981535
 20
75.2382397318579
 30
0.0
 11
212.618336981535
 21
107.126488679647
 31
0.0
  0
LINE
  5
   4E1
  8
0
  6
CONTINUOUS
 62
     3
 10
212.618335264921
 20
58.3764958977699
 30
0.0
 11
212.618335264921
 21
70.6147898411073
 31
0.0
  0
LINE
  5
   4E2
  8
0
  6
CONTINUOUS
 62
     3
 10
212.61833640933
 20
45.6264936745166
 30
0.0
 11
212.61833640933
 21
53.8764940023422
 31
0.0
  0
LINE
  5
   4E3
  8
0
  6
CONTINUOUS
 62
     3
 10
212.61833640933
 20
45.6264939606189
 30
0.0
 11
212.918334418535
 21
45.6264939606189
 31
0.0
  0
LINE
  5
   4E4
  8
0
  6
CONTINUOUS
 62
     3
 10
212.918334704638
 20
44.8764836850266
 30
0.0
 11
212.918334704638
 21
45.6264948728189
 31
0.0
  0
LINE
  5
   4E5
  8
0
  6
CONTINUOUS
 62
     3
 10
212.918334704638
 20
70.6951685674458
 30
0.0
 11
212.918334704638
 21
72.7764918923376
 31
0.0
  0
LINE
  5
   4E6
  8
0
  6
CONTINUOUS
 62
     3
 10
212.918334704638
 20
74.7264965474606
 30
0.0
 11
212.918334704638
 21
75.1578381173349
 31
0.0
  0
LINE
  5
   4E7
  8
0
  6
CONTINUOUS
 62
     3
 10
212.168334960938
 20
58.3764958977699
 30
0.0
 11
212.618335837126
 21
58.3764958977699
 31
0.0
  0
LINE
  5
   4E8
  8
0
  6
CONTINUOUS
 62
     3
 10
212.168334960938
 20
53.876495718956
 30
0.0
 11
212.618335551024
 21
53.876495718956
 31
0.0
  0
LINE
  5
   4E9
  8
0
  6
CONTINUOUS
 62
     3
 10
212.168334960938
 20
53.876495718956
 30
0.0
 11
212.168334960938
 21
58.3764958977699
 31
0.0
  0
LINE
  5
   4EA
  8
0
  6
CONTINUOUS
 62
     3
 10
213.518329221807
 20
72.7764932742499
 30
0.0
 11
213.743329514492
 21
72.8367807427848
 31
0.0
  0
LINE
  5
   4EB
  8
0
  6
CONTINUOUS
 62
     3
 10
213.743332088981
 20
72.8367732947964
 30
0.0
 11
213.908043472632
 21
73.0014858169501
 31
0.0
  0
LINE
  5
   4EC
  8
0
  6
CONTINUOUS
 62
     3
 10
213.90804663636
 20
73.0014882906197
 30
0.0
 11
213.968320665792
 21
73.2264745592947
 31
0.0
  0
LINE
  5
   4ED
  8
0
  6
CONTINUOUS
 62
     3
 10
213.968304419516
 20
73.2264964878601
 30
0.0
 11
213.968304419516
 21
74.2764965295835
 31
0.0
  0
LINE
  5
   4EE
  8
0
  6
CONTINUOUS
 62
     3
 10
213.908040101214
 20
74.5014896013684
 30
0.0
 11
213.968318702517
 21
74.2764895988123
 31
0.0
  0
LINE
  5
   4EF
  8
0
  6
CONTINUOUS
 62
     3
 10
213.743328236871
 20
74.6661998519114
 30
0.0
 11
213.908039622814
 21
74.5014919091974
 31
0.0
  0
LINE
  5
   4F0
  8
0
  6
CONTINUOUS
 62
     3
 10
213.518330212957
 20
74.7264900857242
 30
0.0
 11
213.743330220248
 21
74.666198035412
 31
0.0
  0
LINE
  5
   4F1
  8
0
  6
CONTINUOUS
 62
     3
 10
212.918334704638
 20
74.7264965474606
 30
0.0
 11
213.518330436945
 21
74.7264965474606
 31
0.0
  0
LINE
  5
   4F2
  8
0
  6
CONTINUOUS
 62
     3
 10
212.918334704638
 20
72.7764964699745
 30
0.0
 11
213.518330436945
 21
72.7764964699745
 31
0.0
  0
LINE
  5
   4F3
  8
0
  6
CONTINUOUS
 62
   130
 10
240.968317906446
 20
76.3764831704083
 30
0.0
 11
240.968322484082
 21
107.126484392304
 31
0.0
  0
LINE
  5
   4F4
  8
0
  6
CONTINUOUS
 62
   130
 10
240.968317794799
 20
76.3764874577519
 30
0.0
 11
242.168308687209
 21
76.3764874577519
 31
0.0
  0
LINE
  5
   4F5
  8
0
  6
CONTINUOUS
 62
   130
 10
240.968311098905
 20
91.0549747736034
 30
0.0
 11
241.118315677967
 21
91.0951664223291
 31
0.0
  0
LINE
  5
   4F6
  8
0
  6
CONTINUOUS
 62
   130
 10
240.968307567468
 20
88.6980568792608
 30
0.0
 11
241.11831672763
 21
88.6578606578947
 31
0.0
  0
LINE
  5
   4F7
  8
0
  6
CONTINUOUS
 62
   130
 10
212.918334185025
 20
45.6264939080267
 30
0.0
 11
233.318334995648
 21
45.6264924775161
 31
0.0
  0
LINE
  5
   4F8
  8
0
  6
CONTINUOUS
 62
   130
 10
233.318335801363
 20
44.8764969760265
 30
0.0
 11
233.318335801363
 21
45.626492428192
 31
0.0
  0
LINE
  5
   4F9
  8
0
  6
CONTINUOUS
 62
   130
 10
215.087926020489
 20
74.5765128558432
 30
0.0
 11
241.868310385427
 21
74.5764945452961
 31
0.0
  0
LINE
  5
   4FA
  8
0
  6
CONTINUOUS
 62
   130
 10
215.087923478078
 20
71.2765127247139
 30
0.0
 11
241.868307843016
 21
71.2764944141669
 31
0.0
  0
LINE
  5
   4FB
  8
0
  6
CONTINUOUS
 62
     3
 10
212.618337674558
 20
75.2382362848156
 30
0.0
 11
212.918334704638
 21
75.1578522851764
 31
0.0
  0
LINE
  5
   4FC
  8
0
  6
CONTINUOUS
 62
     3
 10
212.6183315204
 20
70.6147860292689
 30
0.0
 11
212.918334704638
 21
70.6951717334477
 31
0.0
  0
LINE
  5
   4FD
  8
0
  6
CONTINUOUS
 62
   130
 10
241.868331130681
 20
74.5765109269976
 30
0.0
 11
242.168321978089
 21
74.876506351447
 31
0.0
  0
LINE
  5
   4FE
  8
0
  6
CONTINUOUS
 62
   130
 10
241.86831030382
 20
71.2764986041144
 30
0.0
 11
242.168310305472
 21
70.9764986024621
 31
0.0
  0
LINE
  5
   4FF
  8
0
  6
CONTINUOUS
 62
   130
 10
241.11839104295
 20
105.326506918669
 30
0.0
 11
241.11839104295
 21
130.076424348481
 31
0.0
  0
LINE
  5
   500
  8
0
  6
CONTINUOUS
 62
     2
 10
253.418409842256
 20
105.626493197679
 30
0.0
 11
253.568277096746
 21
105.626493197679
 31
0.0
  0
LINE
  5
   501
  8
0
  6
CONTINUOUS
 62
     2
 10
249.818400543931
 20
130.076425504682
 30
0.0
 11
250.718409734967
 21
130.076425504682
 31
0.0
  0
LINE
  5
   502
  8
0
  6
CONTINUOUS
 62
     2
 10
253.718473941093
 20
105.626484042423
 30
0.0
 11
253.718473941093
 21
129.70138886871
 31
0.0
  0
LINE
  5
   503
  8
0
  6
CONTINUOUS
 62
     2
 10
252.818336576223
 20
105.326502204727
 30
0.0
 11
253.41840554688
 21
105.326520514951
 31
0.0
  0
LINE
  5
   504
  8
0
  6
CONTINUOUS
 62
   130
 10
251.828326466083
 20
105.326506918669
 30
0.0
 11
252.818336576223
 21
105.326506918669
 31
0.0
  0
LINE
  5
   505
  8
0
  6
CONTINUOUS
 62
     2
 10
250.718409734967
 20
130.076425504682
 30
0.0
 11
252.968354892731
 21
130.076425504682
 31
0.0
  0
LINE
  5
   506
  8
0
  6
CONTINUOUS
 62
     2
 10
241.418409365419
 20
130.076425504682
 30
0.0
 11
249.818400543931
 21
130.076425504682
 31
0.0
  0
LINE
  5
   507
  8
0
  6
CONTINUOUS
 62
     2
 10
253.418409842256
 20
105.626516085864
 30
0.0
 11
253.718428164724
 21
105.626516085864
 31
0.0
  0
LINE
  5
   508
  8
0
  6
CONTINUOUS
 62
     2
 10
253.418409842256
 20
105.32652065158
 30
0.0
 11
253.418409842256
 21
105.626516085864
 31
0.0
  0
LINE
  5
   509
  8
0
  6
CONTINUOUS
 62
     2
 10
253.343366368519
 20
130.076321066606
 30
0.0
 11
253.608530561951
 21
129.966457791927
 31
0.0
  0
LINE
  5
   50A
  8
0
  6
CONTINUOUS
 62
     2
 10
253.608587431942
 20
129.966519221844
 30
0.0
 11
253.718423251028
 21
129.701382504189
 31
0.0
  0
LINE
  5
   50B
  8
0
  6
CONTINUOUS
 62
   130
 10
241.418409365419
 20
105.626520663501
 30
0.0
 11
241.418409365419
 21
130.076423577465
 31
0.0
  0
LINE
  5
   50C
  8
0
  6
CONTINUOUS
 62
   130
 10
241.418405073895
 20
105.626518660763
 30
0.0
 11
253.418405550732
 21
105.626514083127
 31
0.0
  0
LINE
  5
   50D
  8
0
  6
CONTINUOUS
 62
     2
 10
253.418332022428
 20
42.0264975368978
 30
0.0
 11
253.418332022428
 21
42.3264955461025
 31
0.0
  0
LINE
  5
   50E
  8
0
  6
CONTINUOUS
 62
     2
 10
252.218331974745
 20
42.3264926850795
 30
0.0
 11
252.218331974745
 21
105.176490604877
 31
0.0
  0
LINE
  5
   50F
  8
0
  6
CONTINUOUS
 62
   130
 10
251.918327591782
 20
105.176495489002
 30
0.0
 11
251.918332169415
 21
42.0264975572829
 31
0.0
  0
LINE
  5
   510
  8
0
  6
CONTINUOUS
 62
   130
 10
251.918327385187
 20
105.176497757435
 30
0.0
 11
252.218327582838
 21
105.176497757435
 31
0.0
  0
LINE
  5
   511
  8
0
  6
CONTINUOUS
 62
   130
 10
251.918331962824
 20
42.0264975368978
 30
0.0
 11
252.518336564302
 21
42.0264975368978
 31
0.0
  0
LINE
  5
   512
  8
0
  6
CONTINUOUS
 62
     2
 10
252.218327582838
 20
105.176497757435
 30
0.0
 11
253.718332034349
 21
105.176497757435
 31
0.0
  0
LINE
  5
   513
  8
0
  6
CONTINUOUS
 62
     2
 10
253.718332034349
 20
42.3264955461025
 30
0.0
 11
253.718332034349
 21
49.2264866650101
 31
0.0
  0
LINE
  5
   514
  8
0
  6
CONTINUOUS
 62
     2
 10
253.718332034349
 20
80.7264784753315
 30
0.0
 11
253.718332034349
 21
105.176493179798
 31
0.0
  0
LINE
  5
   515
  8
0
  6
CONTINUOUS
 62
     2
 10
254.243328935244
 20
80.7264714553193
 30
0.0
 11
254.318324358579
 21
80.6514714549756
 31
0.0
  0
LINE
  5
   516
  8
0
  6
CONTINUOUS
 62
     2
 10
254.24332222199
 20
49.22648801818
 30
0.0
 11
254.318322222403
 21
49.3014883030846
 31
0.0
  0
LINE
  5
   517
  8
0
  6
CONTINUOUS
 62
     2
 10
254.318332058191
 20
49.3014909595249
 30
0.0
 11
254.318332058191
 21
80.6514738947144
 31
0.0
  0
LINE
  5
   518
  8
0
  6
CONTINUOUS
 62
     2
 10
252.218331974745
 20
42.3264955461025
 30
0.0
 11
253.418332022428
 21
42.3264955461025
 31
0.0
  0
LINE
  5
   519
  8
0
  6
CONTINUOUS
 62
   130
 10
242.168317842483
 20
70.9764735102644
 30
0.0
 11
242.168317842483
 21
74.8764645099627
 31
0.0
  0
LINE
  5
   51A
  8
0
  6
CONTINUOUS
 62
   130
 10
242.168317842483
 20
76.3764599919305
 30
0.0
 11
242.168317842483
 21
76.6764645814883
 31
0.0
  0
LINE
  5
   51B
  8
0
  6
CONTINUOUS
 62
   130
 10
242.168317842483
 20
44.8764953613284
 30
0.0
 11
251.918331962824
 21
44.8764953613284
 31
0.0
  0
LINE
  5
   51C
  8
0
  6
CONTINUOUS
 62
     7
 10
252.818336576223
 20
105.176497757435
 30
0.0
 11
252.818336576223
 21
105.326493185758
 31
0.0
  0
LINE
  5
   51D
  8
0
  6
CONTINUOUS
 62
   130
 10
241.11831780076
 20
76.6764966249466
 30
0.0
 11
241.11831780076
 21
105.326497763395
 31
0.0
  0
LINE
  5
   51E
  8
0
  6
CONTINUOUS
 62
   130
 10
241.11831780076
 20
76.6764966249466
 30
0.0
 11
242.168317842483
 21
76.6764966249466
 31
0.0
  0
LINE
  5
   51F
  8
0
  6
CONTINUOUS
 62
   130
 10
241.11831780076
 20
105.326497763395
 30
0.0
 11
242.168317842483
 21
105.326497763395
 31
0.0
  0
LINE
  5
   520
  8
0
  6
CONTINUOUS
 62
   130
 10
242.168314444762
 20
105.32649728008
 30
0.0
 11
251.828327645999
 21
105.326492702443
 31
0.0
  0
LINE
  5
   521
  8
0
  6
CONTINUOUS
 62
   130
 10
251.82833104372
 20
91.6015017956497
 30
0.0
 11
251.82833104372
 21
105.326493185758
 31
0.0
  0
LINE
  5
   522
  8
0
  6
CONTINUOUS
 62
   130
 10
251.82831731081
 20
44.8764919308858
 30
0.0
 11
251.82833104372
 21
88.1514982281167
 31
0.0
  0
LINE
  5
   523
  8
0
  6
CONTINUOUS
 62
   130
 10
251.828326466083
 20
97.5264974534512
 30
0.0
 11
251.918327385187
 21
97.5264974534512
 31
0.0
  0
LINE
  5
   524
  8
0
  6
CONTINUOUS
 62
   130
 10
251.828326466083
 20
96.3264974057675
 30
0.0
 11
251.918327385187
 21
96.3264974057675
 31
0.0
  0
LINE
  5
   525
  8
0
  6
CONTINUOUS
 62
   130
 10
242.168317842483
 20
45.6264953911305
 30
0.0
 11
251.82833104372
 21
45.6264953911305
 31
0.0
  0
LINE
  5
   526
  8
0
  6
CONTINUOUS
 62
   130
 10
250.418318170308
 20
91.6015017956497
 30
0.0
 11
251.918331962824
 21
91.6015017956497
 31
0.0
  0
LINE
  5
   527
  8
0
  6
CONTINUOUS
 62
   130
 10
250.418318170308
 20
88.151501658559
 30
0.0
 11
250.418318170308
 21
91.6015017956497
 31
0.0
  0
LINE
  5
   528
  8
0
  6
CONTINUOUS
 62
   130
 10
250.418318170308
 20
88.151501658559
 30
0.0
 11
251.918327385187
 21
88.151501658559
 31
0.0
  0
LINE
  5
   529
  8
0
  6
CONTINUOUS
 62
   130
 10
254.318332058191
 20
49.2264906704424
 30
0.0
 11
254.318332058191
 21
49.3014906734226
 31
0.0
  0
LINE
  5
   52A
  8
0
  6
CONTINUOUS
 62
   130
 10
254.318331601382
 20
80.6514609234115
 30
0.0
 11
254.318336179019
 21
80.7264792369394
 31
0.0
  0
LINE
  5
   52B
  8
0
  6
CONTINUOUS
 62
   130
 10
254.318332058191
 20
49.2264906704424
 30
0.0
 11
256.118336707354
 21
49.2264906704424
 31
0.0
  0
LINE
  5
   52C
  8
0
  6
CONTINUOUS
 62
   130
 10
257.768336772919
 20
50.9515047580007
 30
0.0
 11
257.768336772919
 21
53.5764911293982
 31
0.0
  0
LINE
  5
   52D
  8
0
  6
CONTINUOUS
 62
   130
 10
257.768336772919
 20
80.1264784514897
 30
0.0
 11
257.768336772919
 21
80.5764784693711
 31
0.0
  0
LINE
  5
   52E
  8
0
  6
CONTINUOUS
 62
   130
 10
254.318335387807
 20
80.7264851336971
 30
0.0
 11
256.118336707354
 21
80.7264801399012
 31
0.0
  0
LINE
  5
   52F
  8
0
  6
CONTINUOUS
 62
   130
 10
254.243327477574
 20
49.2264906704424
 30
0.0
 11
254.318332058191
 21
49.2264906704424
 31
0.0
  0
LINE
  5
   530
  8
0
  6
CONTINUOUS
 62
     3
 10
212.168334960938
 20
124.076425266263
 30
0.0
 11
212.618334978819
 21
124.076425266263
 31
0.0
  0
LINE
  5
   531
  8
0
  6
CONTINUOUS
 62
     3
 10
212.168334960938
 20
127.676425409314
 30
0.0
 11
212.618334978819
 21
127.676425409314
 31
0.0
  0
LINE
  5
   532
  8
0
  6
CONTINUOUS
 62
   130
 10
213.968313629583
 20
71.426508788115
 30
0.0
 11
214.808023585663
 21
71.2015042367526
 31
0.0
  0
LINE
  5
   533
  8
0
  6
CONTINUOUS
 62
   130
 10
213.968307711623
 20
71.4265118670994
 30
0.0
 11
213.968319727919
 21
73.2264936280773
 31
0.0
  0
LINE
  5
   534
  8
0
  6
CONTINUOUS
 62
   130
 10
213.968310664332
 20
74.4265126656813
 30
0.0
 11
213.96832039181
 21
74.2764943491733
 31
0.0
  0
LINE
  5
   535
  8
0
  6
CONTINUOUS
 62
   130
 10
213.968302751777
 20
74.4265021205078
 30
0.0
 11
214.808014435066
 21
74.6514975077419
 31
0.0
  0
LINE
  5
   536
  8
0
  6
CONTINUOUS
 62
     2
 10
252.968354892731
 20
130.076425504682
 30
0.0
 11
253.343409839275
 21
130.076425504682
 31
0.0
  0
LINE
  5
   537
  8
0
  6
CONTINUOUS
 62
     2
 10
253.418332022428
 20
42.3264955461025
 30
0.0
 11
253.718332034349
 21
42.3264955461025
 31
0.0
  0
LINE
  5
   538
  8
0
  6
CONTINUOUS
 62
     2
 10
253.718332034349
 20
80.7264784753315
 30
0.0
 11
254.243336632848
 21
80.7264784753315
 31
0.0
  0
LINE
  5
   539
  8
0
  6
CONTINUOUS
 62
     2
 10
253.718332034349
 20
49.2264906704424
 30
0.0
 11
254.243332055211
 21
49.2264906704424
 31
0.0
  0
LINE
  5
   53A
  8
0
  6
CONTINUOUS
 62
   210
 10
274.552575190079
 20
48.7549851803522
 30
0.0
 11
275.220460722721
 21
51.0841741879943
 31
0.0
  0
LINE
  5
   53B
  8
0
  6
CONTINUOUS
 62
   210
 10
257.768336772919
 20
52.9556058061387
 30
0.0
 11
267.036840867172
 21
50.2979114371348
 31
0.0
  0
LINE
  5
   53C
  8
0
  6
CONTINUOUS
 62
   210
 10
267.036688219464
 20
50.2979488021001
 30
0.0
 11
274.192832188118
 21
48.5462744689101
 31
0.0
  0
LINE
  5
   53D
  8
0
  6
CONTINUOUS
 62
   210
 10
274.192848060554
 20
48.5462696793761
 30
0.0
 11
274.414731404812
 21
48.5781790912924
 31
0.0
  0
LINE
  5
   53E
  8
0
  6
CONTINUOUS
 62
   210
 10
274.414742634634
 20
48.5781789352223
 30
0.0
 11
274.552572421195
 21
48.7549802220812
 31
0.0
  0
LINE
  5
   53F
  8
0
  6
CONTINUOUS
 62
   210
 10
275.197259223689
 20
51.3071344841437
 30
0.0
 11
275.220452388211
 21
51.0841678079835
 31
0.0
  0
LINE
  5
   540
  8
0
  6
CONTINUOUS
 62
   210
 10
275.026001763361
 20
51.4517821356252
 30
0.0
 11
275.197260138971
 21
51.3071376057683
 31
0.0
  0
LINE
  5
   541
  8
0
  6
CONTINUOUS
 62
   210
 10
268.028981740212
 20
53.7584777912144
 30
0.0
 11
275.025977423818
 21
51.4517898887384
 31
0.0
  0
LINE
  5
   542
  8
0
  6
CONTINUOUS
 62
   210
 10
257.768336772919
 20
56.7006668435081
 30
0.0
 11
268.029064376357
 21
53.7584505486943
 31
0.0
  0
LINE
  5
   543
  8
0
  6
CONTINUOUS
 62
   130
 10
267.036716969171
 20
50.2979452201861
 30
0.0
 11
268.029012632876
 21
53.7584697783666
 31
0.0
  0
LINE
  5
   544
  8
0
  6
CONTINUOUS
 62
     5
 10
212.618334978819
 20
8.27648211091478
 30
0.0
 11
227.168340134621
 21
8.27648791913236
 31
0.0
  0
LINE
  5
   545
  8
0
  6
CONTINUOUS
 62
     5
 10
212.168334960938
 20
23.1264825213664
 30
0.0
 11
212.618334978819
 21
23.1264827010019
 31
0.0
  0
LINE
  5
   546
  8
0
  6
CONTINUOUS
 62
     5
 10
212.168334960938
 20
10.6764820266469
 30
0.0
 11
212.168334960938
 21
14.2764821696983
 31
0.0
  0
LINE
  5
   547
  8
0
  6
CONTINUOUS
 62
     5
 10
212.168334960938
 20
23.1264825213664
 30
0.0
 11
212.168334960938
 21
44.8764953613281
 31
0.0
  0
LINE
  5
   548
  8
0
  6
CONTINUOUS
 62
     5
 10
212.618334978819
 20
8.27648211091477
 30
0.0
 11
212.618334978819
 21
23.1264827010019
 31
0.0
  0
LINE
  5
   549
  8
0
  6
CONTINUOUS
 62
     5
 10
212.168334960938
 20
14.2764821696983
 30
0.0
 11
212.618332583678
 21
14.2764823493329
 31
0.0
  0
LINE
  5
   54A
  8
0
  6
CONTINUOUS
 62
     5
 10
212.168334960938
 20
10.6764820266469
 30
0.0
 11
212.618334020763
 21
10.676482206282
 31
0.0
  0
LINE
  5
   54B
  8
0
  6
CONTINUOUS
 62
     5
 10
252.518336564302
 20
30.0264989028666
 30
0.0
 11
252.518336564302
 21
30.1764970660211
 31
0.0
  0
LINE
  5
   54C
  8
0
  6
CONTINUOUS
 62
     1
 10
253.718336611986
 20
8.27649803859924
 30
0.0
 11
253.718336611986
 21
29.7264988909457
 31
0.0
  0
LINE
  5
   54D
  8
0
  6
CONTINUOUS
 62
     1
 10
252.518336564302
 20
8.27649803859924
 30
0.0
 11
253.718336611986
 21
8.27649803859924
 31
0.0
  0
LINE
  5
   54E
  8
0
  6
CONTINUOUS
 62
   130
 10
242.318336158991
 20
30.0264989028666
 30
0.0
 11
252.518336564302
 21
30.0264989028666
 31
0.0
  0
LINE
  5
   54F
  8
0
  6
CONTINUOUS
 62
     1
 10
253.718336611986
 20
30.1764970660211
 30
0.0
 11
253.718336611986
 21
41.8764975309373
 31
0.0
  0
LINE
  5
   550
  8
0
  6
CONTINUOUS
 62
   130
 10
242.318336158991
 20
8.27649396686035
 30
0.0
 11
242.318336158991
 21
30.0264989028666
 31
0.0
  0
LINE
  5
   551
  8
0
  6
CONTINUOUS
 62
   130
 10
242.318336158991
 20
29.7264988909457
 30
0.0
 11
253.718336611986
 21
29.7264988909457
 31
0.0
  0
LINE
  5
   552
  8
0
  6
CONTINUOUS
 62
     1
 10
253.418336600065
 20
29.7264988909457
 30
0.0
 11
253.418336600065
 21
30.0264989028666
 31
0.0
  0
LINE
  5
   553
  8
0
  6
CONTINUOUS
 62
   130
 10
251.918331962824
 20
41.8764975309373
 30
0.0
 11
252.218331974745
 21
41.8764975309373
 31
0.0
  0
LINE
  5
   554
  8
0
  6
CONTINUOUS
 62
   130
 10
251.918331962824
 20
30.1764970660211
 30
0.0
 11
252.218331974745
 21
30.1764970660211
 31
0.0
  0
LINE
  5
   555
  8
0
  6
CONTINUOUS
 62
   130
 10
251.918331962824
 20
30.1764970660211
 30
0.0
 11
251.918331962824
 21
41.8764975309373
 31
0.0
  0
LINE
  5
   556
  8
0
  6
CONTINUOUS
 62
     1
 10
252.218331974745
 20
30.1764970660211
 30
0.0
 11
252.218331974745
 21
41.8764975309373
 31
0.0
  0
LINE
  5
   557
  8
0
  6
CONTINUOUS
 62
     5
 10
252.518336564302
 20
41.8764975309373
 30
0.0
 11
252.518336564302
 21
42.0264975368978
 31
0.0
  0
LINE
  5
   558
  8
0
  6
CONTINUOUS
 62
   130
 10
242.468336164951
 20
8.27649396686035
 30
0.0
 11
242.468336164951
 21
29.7264988909457
 31
0.0
  0
LINE
  5
   559
  8
0
  6
CONTINUOUS
 62
     1
 10
222.218326205015
 20
108.926472079212
 30
0.0
 11
227.022210172163
 21
108.926459733724
 31
0.0
  0
LINE
  5
   55A
  8
0
  6
CONTINUOUS
 62
     1
 10
221.804770628009
 20
107.126489706003
 30
0.0
 11
225.254558114114
 21
107.126491083124
 31
0.0
  0
LINE
  5
   55B
  8
0
  6
CONTINUOUS
 62
     1
 10
212.618335517365
 20
106.976486032908
 30
0.0
 11
216.072741872689
 21
106.976487411873
 31
0.0
  0
LINE
  5
   55C
  8
0
  6
CONTINUOUS
 62
     1
 10
222.293335363269
 20
107.126489901033
 30
0.0
 11
222.293335363269
 21
108.926471886446
 31
0.0
  0
LINE
  5
   55D
  8
0
  6
CONTINUOUS
 62
     1
 10
214.868335068226
 20
104.455181449564
 30
0.0
 11
214.868335068226
 21
106.976486931086
 31
0.0
  0
LINE
  5
   55E
  8
0
  6
CONTINUOUS
 62
     1
 10
211.762831634732
 20
104.455181449564
 30
0.0
 11
222.631209107522
 21
104.455181449564
 31
0.0
  0
INSERT
  5
   55F
  8
0
  6
CONTINUOUS
 62
     1
  2
*HATCH113
 10
212.168334960938
 20
44.8764953613281
 30
0.0
 41
0.300000011920929
 42
0.300000011920929
 43
0.300000011920929
  0
LINE
  5
   560
  8
0
  6
DASHDOT
 62
     7
 10
212.168334960938
 20
2.23373689404031
 30
0.0
 11
212.168334960938
 21
135.397996951397
 31
0.0
  0
LINE
  5
   561
  8
0
  6
DASHDOT
 62
     7
 10
211.268334925175
 20
2.23373689404031
 30
0.0
 11
211.268334925175
 21
135.574671280264
 31
0.0
  0
LINE
  5
   562
  8
0
  6
CONTINUOUS
 62
     1
 10
252.518336564302
 20
30.0264989028666
 30
0.0
 11
253.418336600065
 21
30.0264989028666
 31
0.0
  0
LINE
  5
   563
  8
0
  6
CONTINUOUS
 62
     2
 10
252.518336564302
 20
42.0264975368978
 30
0.0
 11
253.418332022428
 21
42.0264975368978
 31
0.0
  0
LINE
  5
   564
  8
0
  6
CONTINUOUS
 62
     1
 10
252.218331974745
 20
41.8764975309373
 30
0.0
 11
253.718336611986
 21
41.8764975309373
 31
0.0
  0
LINE
  5
   565
  8
0
  6
CONTINUOUS
 62
     1
 10
252.218331974745
 20
30.1764970660211
 30
0.0
 11
253.718336611986
 21
30.1764970660211
 31
0.0
  0
LINE
  5
   566
  8
0
  6
CONTINUOUS
 62
   130
 10
212.918334704638
 20
75.1578522851764
 30
0.0
 11
215.087927152381
 21
74.576511468267
 31
0.0
  0
LINE
  5
   567
  8
0
  6
CONTINUOUS
 62
   130
 10
212.918334704638
 20
70.6951717334477
 30
0.0
 11
215.087919063748
 21
71.2765107846507
 31
0.0
  0
LINE
  5
   568
  8
0
  6
CONTINUOUS
 62
     5
 10
231.66833195961
 20
8.27648971548442
 30
0.0
 11
252.518336564302
 21
8.27649803859924
 31
0.0
  0
LINE
  5
   569
  8
0
  6
CONTINUOUS
 62
     3
 10
212.618334493611
 20
130.076497590701
 30
0.0
 11
227.168340134621
 21
130.07646019868
 31
0.0
  0
LINE
  5
   56A
  8
0
  6
CONTINUOUS
 62
     1
 10
209.972751788061
 20
32.5577491064093
 30
0.0
 11
223.946964097886
 21
32.5577491064093
 31
0.0
  0
ARC
  5
   56B
  8
0
  6
CONTINUOUS
 62
   130
 10
234.369342002537
 20
61.5377161060357
 30
0.0
 40
42.1500016748905
 50
333.054582767096
 51
360.0
  0
LINE
  5
   56C
  8
0
  6
CONTINUOUS
 62
   130
 10
276.519343677428
 20
61.5377161060357
 30
0.0
 11
276.519343677428
 21
66.5144630984367
 31
0.0
  0
LINE
  5
   56D
  8
0
  6
CONTINUOUS
 62
     1
 10
209.921060757003
 20
135.839147669155
 30
0.0
 11
213.404852356156
 21
135.155262648896
 31
0.0
  0
LINE
  5
   56E
  8
0
  6
CONTINUOUS
 62
     1
 10
210.452251576136
 20
2.23373689404031
 30
0.0
 11
213.075110857486
 21
2.23373689404031
 31
0.0
  0
LINE
  5
   56F
  8
0
  6
DASHDOT
 62
     2
 10
192.760025943286
 20
64.9766552907911
 30
0.0
 11
282.780469939794
 21
64.9764055444623
 31
0.0
  0
LINE
  5
   570
  8
0
  6
CONTINUOUS
 62
     1
 10
232.028326594829
 20
5.91104851393993
 30
0.0
 11
232.028326594829
 21
24.3285568076929
 31
0.0
  0
LINE
  5
   571
  8
0
  6
CONTINUOUS
 62
     1
 10
223.946964097886
 20
32.5577491064093
 30
0.0
 11
232.028326594829
 21
24.3285568076929
 31
0.0
  0
LINE
  5
   572
  8
0
  6
CONTINUOUS
 62
     1
 10
222.631209107522
 20
104.455181449564
 30
0.0
 11
232.028557103767
 21
114.024333769443
 31
0.0
  0
LINE
  5
   573
  8
0
  6
CONTINUOUS
 62
     1
 10
232.028557103767
 20
114.024333768599
 30
0.0
 11
232.028651765978
 21
132.441842061964
 31
0.0
  0
INSERT
  5
   574
  8
0
  6
CONTINUOUS
 62
     7
  2
*HATCH114
 10
212.168334960938
 20
44.8764953613281
 30
0.0
 41
0.300000011920929
 42
0.300000011920929
 43
0.300000011920929
  0
LINE
  5
   575
  8
0
  6
CONTINUOUS
 62
     3
 10
231.668331959059
 20
130.076448634163
 30
0.0
 11
241.418409365419
 21
130.076423577465
 31
0.0
  0
LINE
  5
   576
  8
0
  6
CONTINUOUS
 62
   130
 10
250.568336161448
 20
130.226425510642
 30
0.0
 11
250.568336161448
 21
131.801401095355
 31
0.0
  0
ARC
  5
   577
  8
0
  6
CONTINUOUS
 62
   130
 10
250.193336146547
 20
131.801401095355
 30
0.0
 40
0.375000014901161
 50
0.0
 51
89.999852755729
  0
ARC
  5
   578
  8
0
  6
CONTINUOUS
 62
   130
 10
250.418336155488
 20
130.226425510642
 30
0.0
 40
0.150000005960464
 50
270.0
 51
360.0
  0
LINE
  5
   579
  8
0
  6
CONTINUOUS
 62
     3
 10
212.618337839842
 20
107.126493257284
 30
0.0
 11
212.618337839842
 21
130.076497573871
 31
0.0
  0
LINE
  5
   57A
  8
0
  6
CONTINUOUS
 62
     1
 10
256.118336707354
 20
50.9514651493953
 30
0.0
 11
256.118336707354
 21
51.5514651732371
 31
0.0
  0
LINE
  5
   57B
  8
0
  6
CONTINUOUS
 62
     1
 10
256.118336707354
 20
50.9514651493953
 30
0.0
 11
256.718336731196
 21
50.9514651493953
 31
0.0
  0
LINE
  5
   57C
  8
0
  6
CONTINUOUS
 62
     1
 10
256.118336707354
 20
83.3514652924464
 30
0.0
 11
256.118336707354
 21
83.9514653162882
 31
0.0
  0
LINE
  5
   57D
  8
0
  6
CONTINUOUS
 62
     1
 10
256.118336707354
 20
83.9514653162882
 30
0.0
 11
256.718336731196
 21
83.9514653162882
 31
0.0
  0
LINE
  5
   57E
  8
0
  6
CONTINUOUS
 62
     1
 10
256.118336707354
 20
51.5514651732371
 30
0.0
 11
256.118336707354
 21
83.3514664368556
 31
0.0
  0
LINE
  5
   57F
  8
0
  6
CONTINUOUS
 62
     1
 10
254.768336653709
 20
88.0246695186702
 30
0.0
 11
254.768336653709
 21
89.478261495376
 31
0.0
  0
LINE
  5
   580
  8
0
  6
CONTINUOUS
 62
     1
 10
254.768336653709
 20
45.4246701147167
 30
0.0
 11
254.768336653709
 21
46.8782598026041
 31
0.0
  0
LINE
  5
   581
  8
0
  6
CONTINUOUS
 62
     1
 10
256.718336731196
 20
43.3014637010023
 30
0.0
 11
256.718336731196
 21
91.6014656202719
 31
0.0
  0
LINE
  5
   582
  8
0
  6
CONTINUOUS
 62
     1
 10
256.718336731196
 20
43.3014648454116
 30
0.0
 11
257.768336772919
 21
43.3014648454116
 31
0.0
  0
LINE
  5
   583
  8
0
  6
CONTINUOUS
 62
     1
 10
257.768336772919
 20
43.3014648454116
 30
0.0
 11
257.768336772919
 21
91.6014667646811
 31
0.0
  0
LINE
  5
   584
  8
0
  6
CONTINUOUS
 62
     1
 10
256.718336731196
 20
91.6014656202719
 30
0.0
 11
257.168336749077
 21
91.6014656202719
 31
0.0
  0
LINE
  5
   585
  8
0
  6
CONTINUOUS
 62
     1
 10
257.468336760998
 20
91.6014656202719
 30
0.0
 11
257.768336772919
 21
91.6014656202719
 31
0.0
  0
LINE
  5
   586
  8
0
  6
CONTINUOUS
 62
     1
 10
254.76833671432
 20
88.0246688715777
 30
0.0
 11
255.068336736119
 21
87.8514648219963
 31
0.0
  0
LINE
  5
   587
  8
0
  6
CONTINUOUS
 62
     1
 10
254.768336228837
 20
89.4782607410002
 30
0.0
 11
255.068336250636
 21
89.6514647905816
 31
0.0
  0
LINE
  5
   588
  8
0
  6
CONTINUOUS
 62
     1
 10
255.06833666563
 20
87.8514654712603
 30
0.0
 11
255.06833666563
 21
87.8740332211805
 31
0.0
  0
LINE
  5
   589
  8
0
  6
CONTINUOUS
 62
     1
 10
255.06833666563
 20
87.8514654712603
 30
0.0
 11
256.718336731196
 21
87.8514654712603
 31
0.0
  0
LINE
  5
   58A
  8
0
  6
CONTINUOUS
 62
     1
 10
255.06833666563
 20
87.8740332211805
 30
0.0
 11
255.06833666563
 21
87.9405966393528
 31
0.0
  0
LINE
  5
   58B
  8
0
  6
CONTINUOUS
 62
     1
 10
255.06833666563
 20
87.9405966393528
 30
0.0
 11
255.06833666563
 21
88.0478186284767
 31
0.0
  0
LINE
  5
   58C
  8
0
  6
CONTINUOUS
 62
     1
 10
255.06833666563
 20
88.0478186284767
 30
0.0
 11
255.06833666563
 21
88.1903250428308
 31
0.0
  0
LINE
  5
   58D
  8
0
  6
CONTINUOUS
 62
     1
 10
255.06833666563
 20
88.1903250428308
 30
0.0
 11
255.06833666563
 21
88.3609701912132
 31
0.0
  0
LINE
  5
   58E
  8
0
  6
CONTINUOUS
 62
     1
 10
255.06833666563
 20
88.3609701912132
 30
0.0
 11
255.06833666563
 21
88.5511984702566
 31
0.0
  0
LINE
  5
   58F
  8
0
  6
CONTINUOUS
 62
     1
 10
255.06833666563
 20
88.5511984702566
 30
0.0
 11
255.06833666563
 21
88.7514655070231
 31
0.0
  0
LINE
  5
   590
  8
0
  6
CONTINUOUS
 62
     1
 10
255.06833666563
 20
88.7514655070231
 30
0.0
 11
255.06833666563
 21
88.9517371214265
 31
0.0
  0
LINE
  5
   591
  8
0
  6
CONTINUOUS
 62
     1
 10
255.06833666563
 20
88.9517371214265
 30
0.0
 11
255.06833666563
 21
89.141960822833
 31
0.0
  0
LINE
  5
   592
  8
0
  6
CONTINUOUS
 62
     1
 10
255.06833666563
 20
89.141960822833
 30
0.0
 11
255.06833666563
 21
89.3126059712153
 31
0.0
  0
LINE
  5
   593
  8
0
  6
CONTINUOUS
 62
     1
 10
255.06833666563
 20
89.3126059712153
 30
0.0
 11
255.06833666563
 21
89.4551169632063
 31
0.0
  0
LINE
  5
   594
  8
0
  6
CONTINUOUS
 62
     1
 10
255.06833666563
 20
89.4551169632063
 30
0.0
 11
255.06833666563
 21
89.5623389523302
 31
0.0
  0
LINE
  5
   595
  8
0
  6
CONTINUOUS
 62
     1
 10
255.06833666563
 20
89.5623389523302
 30
0.0
 11
255.06833666563
 21
89.6289023705026
 31
0.0
  0
LINE
  5
   596
  8
0
  6
CONTINUOUS
 62
     1
 10
255.06833666563
 20
89.6514655427859
 30
0.0
 11
256.718336731196
 21
89.6514655427859
 31
0.0
  0
LINE
  5
   597
  8
0
  6
CONTINUOUS
 62
     1
 10
255.06833666563
 20
89.6289023705026
 30
0.0
 11
255.06833666563
 21
89.6514655427859
 31
0.0
  0
LINE
  5
   598
  8
0
  6
CONTINUOUS
 62
     1
 10
254.768336310479
 20
45.424669857556
 30
0.0
 11
255.068336332279
 21
45.2514646753195
 31
0.0
  0
LINE
  5
   599
  8
0
  6
CONTINUOUS
 62
     1
 10
254.768336034076
 20
46.8782592618569
 30
0.0
 11
255.068336055876
 21
47.0514644440934
 31
0.0
  0
LINE
  5
   59A
  8
0
  6
CONTINUOUS
 62
     1
 10
255.06833666563
 20
45.2514649228976
 30
0.0
 11
256.718336731196
 21
45.2514649228976
 31
0.0
  0
LINE
  5
   59B
  8
0
  6
CONTINUOUS
 62
     1
 10
255.06833666563
 20
45.3405926577625
 30
0.0
 11
255.06833666563
 21
45.4478169357048
 31
0.0
  0
LINE
  5
   59C
  8
0
  6
CONTINUOUS
 62
     1
 10
255.06833666563
 20
45.4478169357048
 30
0.0
 11
255.06833666563
 21
45.5903244944682
 31
0.0
  0
LINE
  5
   59D
  8
0
  6
CONTINUOUS
 62
     1
 10
255.06833666563
 20
45.5903244944682
 30
0.0
 11
255.06833666563
 21
45.7609696428505
 31
0.0
  0
LINE
  5
   59E
  8
0
  6
CONTINUOUS
 62
     1
 10
255.06833666563
 20
45.7609696428505
 30
0.0
 11
255.06833666563
 21
45.9511956330755
 31
0.0
  0
LINE
  5
   59F
  8
0
  6
CONTINUOUS
 62
     1
 10
255.06833666563
 20
45.9511956330755
 30
0.0
 11
255.06833666563
 21
46.1514649586604
 31
0.0
  0
LINE
  5
   5A0
  8
0
  6
CONTINUOUS
 62
     1
 10
255.06833666563
 20
46.1514649586604
 30
0.0
 11
255.06833666563
 21
46.3517342842453
 31
0.0
  0
LINE
  5
   5A1
  8
0
  6
CONTINUOUS
 62
     1
 10
255.06833666563
 20
46.3517342842453
 30
0.0
 11
255.06833666563
 21
46.5419602744703
 31
0.0
  0
LINE
  5
   5A2
  8
0
  6
CONTINUOUS
 62
     1
 10
255.06833666563
 20
46.5419602744703
 30
0.0
 11
255.06833666563
 21
46.7126054228526
 31
0.0
  0
LINE
  5
   5A3
  8
0
  6
CONTINUOUS
 62
     1
 10
255.06833666563
 20
46.7126054228526
 30
0.0
 11
255.06833666563
 21
46.855112981616
 31
0.0
  0
LINE
  5
   5A4
  8
0
  6
CONTINUOUS
 62
     1
 10
255.06833666563
 20
46.855112981616
 30
0.0
 11
255.06833666563
 21
46.9623372595583
 31
0.0
  0
LINE
  5
   5A5
  8
0
  6
CONTINUOUS
 62
     1
 10
255.06833666563
 20
46.9623372595583
 30
0.0
 11
255.06833666563
 21
47.0289006777307
 31
0.0
  0
LINE
  5
   5A6
  8
0
  6
CONTINUOUS
 62
     1
 10
255.06833666563
 20
47.0514649944232
 30
0.0
 11
256.718336731196
 21
47.0514649944232
 31
0.0
  0
LINE
  5
   5A7
  8
0
  6
CONTINUOUS
 62
     1
 10
257.168336749077
 20
91.6014656202719
 30
0.0
 11
257.468336760998
 21
91.6014656202719
 31
0.0
  0
LINE
  5
   5A8
  8
0
  6
CONTINUOUS
 62
     7
 10
256.718336731196
 20
91.6014656202719
 30
0.0
 11
256.718336731196
 21
113.41155354202
 31
0.0
  0
LINE
  5
   5A9
  8
0
  6
CONTINUOUS
 62
     7
 10
256.118336707354
 20
83.9514653162882
 30
0.0
 11
256.118336707354
 21
87.8514654712603
 31
0.0
  0
LINE
  5
   5AA
  8
0
  6
CONTINUOUS
 62
     7
 10
256.718336731196
 20
14.3672609119706
 30
0.0
 11
256.718336731196
 21
43.3014648454116
 31
0.0
  0
LINE
  5
   5AB
  8
0
  6
CONTINUOUS
 62
     7
 10
256.118336707354
 20
14.1928423003886
 30
0.0
 11
256.118336707354
 21
45.2514649228976
 31
0.0
  0
LINE
  5
   5AC
  8
0
  6
CONTINUOUS
 62
     7
 10
254.023362022769
 20
13.5838380316141
 30
0.0
 11
258.813749100359
 21
14.9763924146343
 31
0.0
  0
LINE
  5
   5AD
  8
0
  6
CONTINUOUS
 62
     7
 10
254.636085951298
 20
114.738988414205
 30
0.0
 11
259.092259976963
 21
111.898177472844
 31
0.0
  0
LINE
  5
   5AE
  8
0
  6
CONTINUOUS
 62
     7
 10
256.118336707354
 20
89.8014655487463
 30
0.0
 11
256.718336731196
 21
89.8014655487463
 31
0.0
  0
LINE
  5
   5AF
  8
0
  6
CONTINUOUS
 62
     7
 10
256.118336707354
 20
87.7014654652998
 30
0.0
 11
256.718336731196
 21
87.7014654652998
 31
0.0
  0
LINE
  5
   5B0
  8
0
  6
CONTINUOUS
 62
     7
 10
256.118336707354
 20
47.2014650003837
 30
0.0
 11
256.718336731196
 21
47.2014650003837
 31
0.0
  0
LINE
  5
   5B1
  8
0
  6
CONTINUOUS
 62
     7
 10
256.118336707354
 20
45.1014649169371
 30
0.0
 11
256.718336731196
 21
45.1014649169371
 31
0.0
  0
LINE
  5
   5B2
  8
0
  6
CONTINUOUS
 62
     7
 10
256.118336707354
 20
50.6514651374743
 30
0.0
 11
256.718336731196
 21
50.6514651374743
 31
0.0
  0
LINE
  5
   5B3
  8
0
  6
CONTINUOUS
 62
     7
 10
256.118336707354
 20
84.2514653282092
 30
0.0
 11
256.718336731196
 21
84.2514653282092
 31
0.0
  0
LINE
  5
   5B4
  8
0
  6
CONTINUOUS
 62
     7
 10
256.118336707354
 20
89.6514655427859
 30
0.0
 11
256.118336707354
 21
113.794053557219
 31
0.0
  0
LINE
  5
   5B5
  8
0
  6
CONTINUOUS
 62
     7
 10
256.118336707354
 20
47.0514649944232
 30
0.0
 11
256.118336707354
 21
50.9514651493953
 31
0.0
  0
INSERT
  5
   5B6
  8
0
  6
CONTINUOUS
 62
     7
  2
*HATCH115
 10
212.168334960938
 20
44.8764953613281
 30
0.0
 41
0.300000011920929
 42
0.300000011920929
 43
0.300000011920929
  0
INSERT
  5
   5B7
  8
0
  6
CONTINUOUS
 62
     7
  2
*HATCH116
 10
212.168334960938
 20
44.8764953613281
 30
0.0
 41
0.300000011920929
 42
0.300000011920929
 43
0.300000011920929
  0
INSERT
  5
   5B8
  8
0
  6
CONTINUOUS
 62
     7
  2
*HATCH117
 10
212.168334960938
 20
44.8764953613281
 30
0.0
 41
0.300000011920929
 42
0.300000011920929
 43
0.300000011920929
  0
INSERT
  5
   5B9
  8
0
  6
CONTINUOUS
 62
     7
  2
*HATCH118
 10
212.168334960938
 20
44.8764953613281
 30
0.0
 41
0.300000011920929
 42
0.300000011920929
 43
0.300000011920929
  0
LINE
  5
   5BA
  8
0
  6
DASHDOT
 62
     7
 10
206.337994292252
 20
12.4766155346751
 30
0.0
 11
214.149258040208
 21
12.4765938636595
 31
0.0
  0
LINE
  5
   5BB
  8
0
  6
CONTINUOUS
 62
     7
 10
210.068334877491
 20
11.2766051377946
 30
0.0
 11
210.068334877491
 21
13.6766052331713
 31
0.0
  0
LINE
  5
   5BC
  8
0
  6
CONTINUOUS
 62
     7
 10
208.868334829807
 20
11.7266084848727
 30
0.0
 11
208.868334829807
 21
13.2266085444831
 31
0.0
  0
LINE
  5
   5BD
  8
0
  6
CONTINUOUS
 62
     7
 10
210.068334877491
 20
13.6766052331713
 30
0.0
 11
211.268334925175
 21
13.6766019039764
 31
0.0
  0
LINE
  5
   5BE
  8
0
  6
CONTINUOUS
 62
     7
 10
210.068334877491
 20
11.2766051377946
 30
0.0
 11
211.268334925175
 21
11.2766018085997
 31
0.0
  0
LINE
  5
   5BF
  8
0
  6
CONTINUOUS
 62
     7
 10
208.868334829807
 20
13.2266085444831
 30
0.0
 11
211.268334925175
 21
13.2266018860932
 31
0.0
  0
LINE
  5
   5C0
  8
0
  6
CONTINUOUS
 62
     7
 10
208.868334829807
 20
11.7266084848727
 30
0.0
 11
211.268334925175
 21
11.7266018264828
 31
0.0
  0
LINE
  5
   5C1
  8
0
  6
CONTINUOUS
 62
     7
 10
210.068334877491
 20
127.076609739719
 30
0.0
 11
211.268334925175
 21
127.076606410524
 31
0.0
  0
LINE
  5
   5C2
  8
0
  6
CONTINUOUS
 62
     7
 10
208.868334829807
 20
126.626613051031
 30
0.0
 11
211.268334925175
 21
126.626606392641
 31
0.0
  0
LINE
  5
   5C3
  8
0
  6
DASHDOT
 62
     7
 10
206.337994292252
 20
125.876620041223
 30
0.0
 11
214.149258040208
 21
125.876598370207
 31
0.0
  0
LINE
  5
   5C4
  8
0
  6
CONTINUOUS
 62
     7
 10
208.868334829807
 20
125.12661299142
 30
0.0
 11
211.268334925175
 21
125.12660633303
 31
0.0
  0
LINE
  5
   5C5
  8
0
  6
CONTINUOUS
 62
     7
 10
210.068334877491
 20
124.676609644342
 30
0.0
 11
211.268334925175
 21
124.676606315147
 31
0.0
  0
LINE
  5
   5C6
  8
0
  6
CONTINUOUS
 62
     7
 10
210.068334877491
 20
124.676609644342
 30
0.0
 11
210.068334877491
 21
127.076609739719
 31
0.0
  0
LINE
  5
   5C7
  8
0
  6
CONTINUOUS
 62
     7
 10
208.868334829807
 20
125.12661299142
 30
0.0
 11
208.868334829807
 21
126.626613051031
 31
0.0
  0
TEXT
  5
   5C8
  8
0
  6
CONTINUOUS
 62
     7
 10
268.419482560211
 20
63.840657439347
 30
0.0
 40
2.99999994039535
  1
X
 41
0.916666655739148
 72
     2
 11
270.619482516501
 21
63.840657439347
 31
0.0
  0
INSERT
  5
   5C9
  8
0
  6
CONTINUOUS
 62
     7
  2
*UDIM557
 10
0.0
 20
0.0
 30
0.0
  0
INSERT
  5
   5CA
  8
0
  6
CONTINUOUS
 62
     7
  2
*UDIM558
 10
0.0
 20
0.0
 30
0.0
  0
INSERT
  5
   5CB
  8
0
  6
CONTINUOUS
 62
     7
  2
*UDIM559
 10
0.0
 20
0.0
 30
0.0
  0
INSERT
  5
   5CC
  8
0
  6
CONTINUOUS
 62
     7
  2
*UDIM560
 10
0.0
 20
0.0
 30
0.0
  0
INSERT
  5
   5CD
  8
0
  6
CONTINUOUS
 62
     7
  2
*UDIM561
 10
0.0
 20
0.0
 30
0.0
  0
INSERT
  5
   5CE
  8
0
  6
CONTINUOUS
 62
     7
  2
*UDIM562
 10
0.0
 20
0.0
 30
0.0
  0
INSERT
  5
   5CF
  8
0
  6
CONTINUOUS
 62
     7
  2
*UDIM563
 10
0.0
 20
0.0
 30
0.0
  0
POINT
  5
   5D0
  8
0
  6
CONTINUOUS
 62
     7
 10
212.618337839842
 20
130.076497590692
 30
0.0
  0
LINE
  5
   5D1
  8
0
  6
CONTINUOUS
 62
     7
 10
219.486725832841
 20
104.455181449564
 30
0.0
 11
220.988189161791
 21
105.956626933111
 31
0.0
  0
LINE
  5
   5D2
  8
0
  6
CONTINUOUS
 62
     7
 10
220.988192095216
 20
105.956633619165
 30
0.0
 11
221.416199444691
 21
106.457784159134
 31
0.0
  0
LINE
  5
   5D3
  8
0
  6
CONTINUOUS
 62
     7
 10
221.416200546455
 20
106.457787526656
 30
0.0
 11
221.760557875222
 21
107.019729082147
 31
0.0
  0
LINE
  5
   5D4
  8
0
  6
CONTINUOUS
 62
     7
 10
221.76055754197
 20
107.019729155041
 30
0.0
 11
222.012768735061
 21
107.62861437778
 31
0.0
  0
LINE
  5
   5D5
  8
0
  6
CONTINUOUS
 62
     7
 10
222.012767509342
 20
107.628610115224
 30
0.0
 11
222.166621886606
 21
108.269460982132
 31
0.0
  0
LINE
  5
   5D6
  8
0
  6
CONTINUOUS
 62
     7
 10
222.166622087028
 20
108.269462993168
 30
0.0
 11
222.218333362256
 21
108.926486644357
 31
0.0
  0
LINE
  5
   5D7
  8
0
  6
CONTINUOUS
 62
     7
 10
222.218340419789
 20
120.618787301715
 30
0.0
 11
222.218340419789
 21
128.876462078094
 31
0.0
  0
LINE
  5
   5D8
  8
0
  6
CONTINUOUS
 62
     7
 10
218.018335193396
 20
128.876462078093
 30
0.0
 11
222.218330782652
 21
128.876462078093
 31
0.0
  0
LINE
  5
   5D9
  8
0
  6
CONTINUOUS
 62
     7
 10
218.018320737686
 20
122.576461827754
 30
0.0
 11
218.018320737686
 21
128.876462078096
 31
0.0
  0
LINE
  5
   5DA
  8
0
  6
CONTINUOUS
 62
     7
 10
216.0985029544
 20
107.006662260609
 30
0.0
 11
218.018332624226
 21
108.926491121287
 31
0.0
  0
LINE
  5
   5DB
  8
0
  6
CONTINUOUS
 62
     7
 10
215.670467707381
 20
106.505504522906
 30
0.0
 11
216.098501944862
 21
107.00665964602
 31
0.0
  0
LINE
  5
   5DC
  8
0
  6
CONTINUOUS
 62
     7
 10
215.3261095977
 20
105.943566749927
 30
0.0
 11
215.670467493406
 21
106.505503724105
 31
0.0
  0
LINE
  5
   5DD
  8
0
  6
CONTINUOUS
 62
     7
 10
215.073899733105
 20
105.334682604642
 30
0.0
 11
215.326110930539
 21
105.943572393965
 31
0.0
  0
LINE
  5
   5DE
  8
0
  6
CONTINUOUS
 62
     7
 10
214.920043725577
 20
104.693827364968
 30
0.0
 11
215.073898098782
 21
105.334673644838
 31
0.0
  0
LINE
  5
   5DF
  8
0
  6
CONTINUOUS
 62
     7
 10
214.901262191936
 20
104.455181449564
 30
0.0
 11
214.920044168719
 21
104.693828962538
 31
0.0
  0
LINE
  5
   5E0
  8
0
  6
CONTINUOUS
 62
     7
 10
222.293326207995
 20
121.55093243665
 30
0.0
 11
222.293326207995
 21
130.076498746872
 31
0.0
  0
LINE
  5
   5E1
  8
0
  6
CONTINUOUS
 62
     7
 10
217.943335190415
 20
126.776461994647
 30
0.0
 11
217.943335190415
 21
130.076498746872
 31
0.0
  0
LINE
  5
   5E2
  8
0
  6
CONTINUOUS
 62
     7
 10
218.018332766901
 20
114.776461517809
 30
0.0
 11
222.218332400315
 21
114.776461517809
 31
0.0
  0
LINE
  5
   5E3
  8
0
  6
CONTINUOUS
 62
     7
 10
218.018332766901
 20
110.876461362837
 30
0.0
 11
222.218332400315
 21
110.876461362837
 31
0.0
  0
LINE
  5
   5E4
  8
0
  6
CONTINUOUS
 62
     7
 10
222.218340419789
 20
108.926484173537
 30
0.0
 11
222.218340419789
 21
109.076461291312
 31
0.0
  0
LINE
  5
   5E5
  8
0
  6
CONTINUOUS
 62
     7
 10
213.218332550352
 20
114.304410749052
 30
0.0
 11
215.078275656662
 21
114.304410749052
 31
0.0
  0
LINE
  5
   5E6
  8
0
  6
CONTINUOUS
 62
     7
 10
213.218332550352
 20
111.348512131595
 30
0.0
 11
215.078275656662
 21
111.348512131595
 31
0.0
  0
LINE
  5
   5E7
  8
0
  6
CONTINUOUS
 62
     7
 10
217.943335190415
 20
108.851493719085
 30
0.0
 11
217.943335190415
 21
110.426465922593
 31
0.0
  0
LINE
  5
   5E8
  8
0
  6
CONTINUOUS
 62
     7
 10
218.018320737686
 20
121.526697150784
 30
0.0
 11
218.018320737686
 21
122.576461827754
 31
0.0
  0
LINE
  5
   5E9
  8
0
  6
CONTINUOUS
 62
     7
 10
218.018320737686
 20
119.726231113803
 30
0.0
 11
218.018320737686
 21
121.526697150784
 31
0.0
  0
LINE
  5
   5EA
  8
0
  6
CONTINUOUS
 62
     7
 10
218.018320737686
 20
114.62654637944
 30
0.0
 11
218.018320737686
 21
119.726231113803
 31
0.0
  0
LINE
  5
   5EB
  8
0
  6
CONTINUOUS
 62
     7
 10
212.768332532471
 20
109.526461309193
 30
0.0
 11
213.968332866257
 21
109.526461309193
 31
0.0
  0
LINE
  5
   5EC
  8
0
  6
CONTINUOUS
 62
     7
 10
214.868332615917
 20
109.526461309193
 30
0.0
 11
217.868339601582
 21
109.526461309193
 31
0.0
  0
LINE
  5
   5ED
  8
0
  6
CONTINUOUS
 62
     7
 10
212.768332532471
 20
127.97638880014
 30
0.0
 11
217.868332735126
 21
127.97638880014
 31
0.0
  0
LINE
  5
   5EE
  8
0
  6
CONTINUOUS
 62
     7
 10
212.768332532471
 20
109.526461309193
 30
0.0
 11
212.768332532471
 21
127.97638880014
 31
0.0
  0
LINE
  5
   5EF
  8
0
  6
CONTINUOUS
 62
     7
 10
217.868372360563
 20
126.776397907749
 30
0.0
 11
217.868372360563
 21
127.976388800159
 31
0.0
  0
LINE
  5
   5F0
  8
0
  6
CONTINUOUS
 62
     7
 10
217.868335023945
 20
121.628950498599
 30
0.0
 11
217.868335023945
 21
122.576397740837
 31
0.0
  0
LINE
  5
   5F1
  8
0
  6
CONTINUOUS
 62
     7
 10
217.868364158665
 20
115.226466113338
 30
0.0
 11
217.868364158665
 21
116.725935167062
 31
0.0
  0
LINE
  5
   5F2
  8
0
  6
CONTINUOUS
 62
     7
 10
217.868380704737
 20
109.52646130922
 30
0.0
 11
217.868380704737
 21
110.426465922619
 31
0.0
  0
LINE
  5
   5F3
  8
0
  6
CONTINUOUS
 62
     7
 10
213.968309459512
 20
107.126461213834
 30
0.0
 11
213.968309459512
 21
109.526461309201
 31
0.0
  0
LINE
  5
   5F4
  8
0
  6
CONTINUOUS
 62
     7
 10
214.868331838421
 20
107.126459245912
 30
0.0
 11
217.868338838263
 21
109.526459395731
 31
0.0
  0
LINE
  5
   5F5
  8
0
  6
CONTINUOUS
 62
     7
 10
213.968331721847
 20
107.126461213826
 30
0.0
 11
214.868332615917
 21
107.126461213826
 31
0.0
  0
LINE
  5
   5F6
  8
0
  6
CONTINUOUS
 62
     7
 10
214.868332615917
 20
107.126461213826
 30
0.0
 11
214.868332615917
 21
109.526461309193
 31
0.0
  0
LINE
  5
   5F7
  8
0
  6
CONTINUOUS
 62
     7
 10
213.218332550352
 20
110.126461333035
 30
0.0
 11
213.218332550352
 21
115.526461547612
 31
0.0
  0
LINE
  5
   5F8
  8
0
  6
CONTINUOUS
 62
     7
 10
213.218332550352
 20
122.366461819409
 30
0.0
 11
213.218332550352
 21
126.986462002991
 31
0.0
  0
LINE
  5
   5F9
  8
0
  6
CONTINUOUS
 62
     7
 10
213.968332580154
 20
118.676420474049
 30
0.0
 11
213.968332580154
 21
119.641537394724
 31
0.0
  0
LINE
  5
   5FA
  8
0
  6
CONTINUOUS
 62
     7
 10
213.968332580154
 20
116.720052903635
 30
0.0
 11
213.968332580154
 21
117.476420426366
 31
0.0
  0
LINE
  5
   5FB
  8
0
  6
CONTINUOUS
 62
     3
 10
217.868332735126
 20
119.623973001936
 30
0.0
 11
217.868332735126
 21
119.641541972361
 31
0.0
  0
LINE
  5
   5FC
  8
0
  6
CONTINUOUS
 62
     7
 10
213.968332580154
 20
118.676420474049
 30
0.0
 11
217.868332735126
 21
118.676420474049
 31
0.0
  0
LINE
  5
   5FD
  8
0
  6
CONTINUOUS
 62
     7
 10
213.968332580154
 20
117.476420426366
 30
0.0
 11
217.868332735126
 21
117.476420426366
 31
0.0
  0
LINE
  5
   5FE
  8
0
  6
CONTINUOUS
 62
     7
 10
217.868332735126
 20
116.725935167052
 30
0.0
 11
217.868332735126
 21
119.623973001936
 31
0.0
  0
LINE
  5
   5FF
  8
0
  6
CONTINUOUS
 62
     7
 10
213.218332550352
 20
115.226466113328
 30
0.0
 11
218.018332741087
 21
115.226466113328
 31
0.0
  0
LINE
  5
   600
  8
0
  6
CONTINUOUS
 62
     7
 10
213.218332550352
 20
110.426465922593
 30
0.0
 11
218.018332741087
 21
110.426465922593
 31
0.0
  0
LINE
  5
   601
  8
0
  6
CONTINUOUS
 62
     7
 10
217.868333879536
 20
115.976461565493
 30
0.0
 11
218.018332741087
 21
115.976461565493
 31
0.0
  0
LINE
  5
   602
  8
0
  6
CONTINUOUS
 62
     7
 10
213.968332580154
 20
116.725935167052
 30
0.0
 11
217.868332735126
 21
116.725935167052
 31
0.0
  0
LINE
  5
   603
  8
0
  6
CONTINUOUS
 62
     7
 10
213.218332550352
 20
110.126461333035
 30
0.0
 11
217.868335596149
 21
110.126461333035
 31
0.0
  0
LINE
  5
   604
  8
0
  6
CONTINUOUS
 62
     7
 10
213.218332550352
 20
115.526461547612
 30
0.0
 11
217.86833445174
 21
115.526461547612
 31
0.0
  0
LINE
  5
   605
  8
0
  6
CONTINUOUS
 62
     7
 10
213.968332580154
 20
119.641541972361
 30
0.0
 11
217.868332735126
 21
119.641541972361
 31
0.0
  0
LINE
  5
   606
  8
0
  6
CONTINUOUS
 62
     7
 10
217.868333070658
 20
119.623973764874
 30
0.0
 11
218.018333618328
 21
119.72397749692
 31
0.0
  0
LINE
  5
   607
  8
0
  6
CONTINUOUS
 62
     7
 10
217.868332538766
 20
121.628951239445
 30
0.0
 11
218.018333928948
 21
121.528946945705
 31
0.0
  0
LINE
  5
   608
  8
0
  6
CONTINUOUS
 62
     7
 10
213.218332550352
 20
111.026461368798
 30
0.0
 11
215.078275656662
 21
111.026461368798
 31
0.0
  0
LINE
  5
   609
  8
0
  6
CONTINUOUS
 62
     7
 10
213.218332550352
 20
114.626461511849
 30
0.0
 11
215.078275656662
 21
114.626461511849
 31
0.0
  0
LINE
  5
   60A
  8
0
  6
CONTINUOUS
 62
     7
 10
217.868332735126
 20
118.076466226577
 30
0.0
 11
218.018332741087
 21
118.076466226577
 31
0.0
  0
LINE
  5
   60B
  8
0
  6
DASHDOT
 62
     7
 10
211.338718147364
 20
124.6764619112
 30
0.0
 11
218.893801694001
 21
124.6764619112
 31
0.0
  0
LINE
  5
   60C
  8
0
  6
CONTINUOUS
 62
     7
 10
213.218332550352
 20
126.986462002991
 30
0.0
 11
217.868333207165
 21
126.986462002991
 31
0.0
  0
LINE
  5
   60D
  8
0
  6
CONTINUOUS
 62
     7
 10
213.218332550352
 20
122.366461819409
 30
0.0
 11
217.868333207165
 21
122.366461819409
 31
0.0
  0
LINE
  5
   60E
  8
0
  6
CONTINUOUS
 62
     7
 10
213.218332550352
 20
126.776461994647
 30
0.0
 11
218.018332741087
 21
126.776461994647
 31
0.0
  0
LINE
  5
   60F
  8
0
  6
CONTINUOUS
 62
     7
 10
213.218332550352
 20
122.576461827754
 30
0.0
 11
218.018332741087
 21
122.576461827754
 31
0.0
  0
LINE
  5
   610
  8
0
  6
CONTINUOUS
 62
     7
 10
213.218332550352
 20
126.176461970805
 30
0.0
 11
218.018332741087
 21
126.176461970805
 31
0.0
  0
LINE
  5
   611
  8
0
  6
CONTINUOUS
 62
     7
 10
213.218332550352
 20
123.176461851595
 30
0.0
 11
218.018332741087
 21
123.176461851595
 31
0.0
  0
LINE
  5
   612
  8
0
  6
CONTINUOUS
 62
     7
 10
213.218332550352
 20
125.951461961864
 30
0.0
 11
218.018332741087
 21
125.951461961864
 31
0.0
  0
LINE
  5
   613
  8
0
  6
CONTINUOUS
 62
     7
 10
213.218332550352
 20
123.401461860536
 30
0.0
 11
218.018332741087
 21
123.401461860536
 31
0.0
  0
INSERT
  5
   614
  8
0
  6
CONTINUOUS
 62
     2
  2
*HATCH119
 10
212.168334960938
 20
44.8764953613281
 30
0.0
 41
0.300000011920929
 42
0.300000011920929
 43
0.300000011920929
  0
INSERT
  5
   615
  8
0
  6
CONTINUOUS
 62
     2
  2
*HATCH120
 10
212.168334960938
 20
44.8764953613281
 30
0.0
 41
0.300000011920929
 42
0.300000011920929
 43
0.300000011920929
  0
INSERT
  5
   616
  8
0
  6
CONTINUOUS
 62
     7
  2
*HATCH121
 10
212.168334960938
 20
44.8764953613281
 30
0.0
 41
0.300000011920929
 42
0.300000011920929
 43
0.300000011920929
  0
LINE
  5
   617
  8
0
  6
DASHDOT
 62
     7
 10
217.619680844866
 20
120.626461750267
 30
0.0
 11
223.00867473339
 21
120.626461750267
 31
0.0
  0
LINE
  5
   618
  8
0
  6
CONTINUOUS
 62
     7
 10
218.018335193396
 20
121.751461794971
 30
0.0
 11
222.218330782652
 21
121.751461794971
 31
0.0
  0
LINE
  5
   619
  8
0
  6
CONTINUOUS
 62
     7
 10
218.018335193396
 20
119.501461705564
 30
0.0
 11
222.218330782652
 21
119.501461705564
 31
0.0
  0
INSERT
  5
   61A
  8
0
  6
CONTINUOUS
 62
     7
  2
*HATCH122
 10
212.168334960938
 20
44.8764953613281
 30
0.0
 41
0.300000011920929
 42
0.300000011920929
 43
0.300000011920929
  0
INSERT
  5
   61B
  8
0
  6
CONTINUOUS
 62
     7
  2
*HATCH123
 10
212.168334960938
 20
44.8764953613281
 30
0.0
 41
0.300000011920929
 42
0.300000011920929
 43
0.300000011920929
  0
LINE
  5
   61C
  8
0
  6
CONTINUOUS
 62
     2
 10
227.168340134621
 20
160.676353478426
 30
0.0
 11
231.668333446979
 21
160.676353478426
 31
0.0
  0
LINE
  5
   61D
  8
0
  6
CONTINUOUS
 62
     2
 10
222.21833307147
 20
109.226534539463
 30
0.0
 11
226.718329817056
 21
109.226534539463
 31
0.0
  0
LINE
  5
   61E
  8
0
  6
CONTINUOUS
 62
     2
 10
222.218321627378
 20
118.826534920977
 30
0.0
 11
222.218326634154
 21
114.626546378778
 31
0.0
  0
LINE
  5
   61F
  8
0
  6
CONTINUOUS
 62
     2
 10
222.218321627378
 20
118.826534920877
 30
0.0
 11
222.218325060599
 21
120.605222793916
 31
0.0
  0
LINE
  5
   620
  8
0
  6
CONTINUOUS
 62
     2
 10
231.668331158161
 20
130.376434675944
 30
0.0
 11
231.668335735755
 21
128.661841864399
 31
0.0
  0
LINE
  5
   621
  8
0
  6
CONTINUOUS
 62
     2
 10
231.668342796487
 20
130.376432017519
 30
0.0
 11
231.668342796487
 21
147.191035346804
 31
0.0
  0
LINE
  5
   622
  8
0
  6
CONTINUOUS
 62
     2
 10
231.668328869343
 20
147.494883228079
 30
0.0
 11
231.668328869343
 21
147.860361758227
 31
0.0
  0
LINE
  5
   623
  8
0
  6
CONTINUOUS
 62
     2
 10
231.668328869343
 20
147.860361758227
 30
0.0
 11
231.668328869343
 21
148.277338703507
 31
0.0
  0
LINE
  5
   624
  8
0
  6
CONTINUOUS
 62
     2
 10
231.668328869343
 20
147.191038001161
 30
0.0
 11
231.668328869343
 21
147.494883228079
 31
0.0
  0
LINE
  5
   625
  8
0
  6
CONTINUOUS
 62
     2
 10
231.668328869343
 20
149.218390988504
 30
0.0
 11
231.668333446979
 21
149.716355485831
 31
0.0
  0
LINE
  5
   626
  8
0
  6
CONTINUOUS
 62
     2
 10
231.668328869343
 20
148.734241797834
 30
0.0
 11
231.668328869343
 21
149.218390986995
 31
0.0
  0
LINE
  5
   627
  8
0
  6
CONTINUOUS
 62
     2
 10
231.668328869343
 20
148.277338703507
 30
0.0
 11
231.668328869343
 21
148.734241797834
 31
0.0
  0
LINE
  5
   628
  8
0
  6
CONTINUOUS
 62
     2
 10
231.668333446979
 20
149.716355484321
 30
0.0
 11
231.668333446979
 21
160.676353478426
 31
0.0
  0
LINE
  5
   629
  8
0
  6
CONTINUOUS
 62
     2
 10
227.168340134621
 20
128.661829272865
 30
0.0
 11
227.168340134621
 21
130.376434671876
 31
0.0
  0
LINE
  5
   62A
  8
0
  6
CONTINUOUS
 62
     2
 10
227.168340134621
 20
130.376434671876
 30
0.0
 11
227.168340134621
 21
147.191028845888
 31
0.0
  0
LINE
  5
   62B
  8
0
  6
CONTINUOUS
 62
     2
 10
227.168340134621
 20
149.218390986995
 30
0.0
 11
227.168340134621
 21
149.716355484321
 31
0.0
  0
LINE
  5
   62C
  8
0
  6
CONTINUOUS
 62
     2
 10
227.168340134621
 20
148.277338703507
 30
0.0
 11
227.168340134621
 21
148.734241797834
 31
0.0
  0
LINE
  5
   62D
  8
0
  6
CONTINUOUS
 62
     2
 10
227.168340134621
 20
147.191028845888
 30
0.0
 11
227.168340134621
 21
147.494883228079
 31
0.0
  0
LINE
  5
   62E
  8
0
  6
CONTINUOUS
 62
     2
 10
227.168340134621
 20
147.494883228079
 30
0.0
 11
227.168340134621
 21
147.860361758227
 31
0.0
  0
LINE
  5
   62F
  8
0
  6
CONTINUOUS
 62
     2
 10
227.168340134621
 20
147.860361758227
 30
0.0
 11
227.168340134621
 21
148.277338703507
 31
0.0
  0
LINE
  5
   630
  8
0
  6
CONTINUOUS
 62
     2
 10
227.168340134621
 20
148.734241797834
 30
0.0
 11
227.168340134621
 21
149.218390986995
 31
0.0
  0
LINE
  5
   631
  8
0
  6
CONTINUOUS
 62
     2
 10
227.168340134621
 20
149.716355484321
 30
0.0
 11
227.168340134621
 21
160.676353478426
 31
0.0
  0
LINE
  5
   632
  8
0
  6
CONTINUOUS
 62
     2
 10
223.975683561574
 20
124.847851187153
 30
0.0
 11
226.729000509374
 21
127.60116927937
 31
0.0
  0
LINE
  5
   633
  8
0
  6
CONTINUOUS
 62
     2
 10
226.718276119194
 20
109.226546680902
 30
0.0
 11
226.718276119194
 21
118.826547062375
 31
0.0
  0
LINE
  5
   634
  8
0
  6
CONTINUOUS
 62
     2
 10
226.718337827921
 20
118.826534911784
 30
0.0
 11
226.718340116743
 21
120.605229156409
 31
0.0
  0
LINE
  5
   635
  8
0
  6
CONTINUOUS
 62
     2
 10
227.157679741989
 20
121.66588723005
 30
0.0
 11
229.910977234791
 21
124.41918586726
 31
0.0
  0
ARC
  5
   636
  8
0
  6
CONTINUOUS
 62
     2
 10
225.668335497358
 20
128.661825841241
 30
0.0
 40
6.00000023841858
 50
315.000011907489
 51
360.0
  0
ARC
  5
   637
  8
0
  6
CONTINUOUS
 62
     2
 10
225.668340075016
 20
128.661829272865
 30
0.0
 40
1.50000005960464
 50
315.000011907489
 51
360.0
  0
ARC
  5
   638
  8
0
  6
CONTINUOUS
 62
     2
 10
228.218340176347
 20
120.605227236555
 30
0.0
 40
1.50000005960464
 50
135.000011907489
 51
179.999926271834
  0
ARC
  5
   639
  8
0
  6
CONTINUOUS
 62
     2
 10
228.218325299007
 20
120.605211213173
 30
0.0
 40
6.00000023841858
 50
135.000011907489
 51
179.999889407752
  0
LINE
  5
   63A
  8
0
  6
CONTINUOUS
 62
     2
 10
227.168340134621
 20
156.626363403604
 30
0.0
 11
231.668327584998
 21
156.626363403604
 31
0.0
  0
LINE
  5
   63B
  8
0
  6
DASHDOT
 62
     2
 10
225.830708135603
 20
154.676369443045
 30
0.0
 11
233.078476744005
 21
154.676369443045
 31
0.0
  0
LINE
  5
   63C
  8
0
  6
CONTINUOUS
 62
     2
 10
227.168340134621
 20
152.726375482486
 30
0.0
 11
231.668328115868
 21
152.726375482486
 31
0.0
  0
LINE
  5
   63D
  8
0
  6
CONTINUOUS
 62
     2
 10
222.218326455351
 20
114.776540268475
 30
0.0
 11
226.718334448339
 21
114.776540268475
 31
0.0
  0
LINE
  5
   63E
  8
0
  6
DASHDOT
 62
     2
 10
212.104032300197
 20
112.826546307914
 30
0.0
 11
231.727337468289
 21
112.826546307914
 31
0.0
  0
LINE
  5
   63F
  8
0
  6
CONTINUOUS
 62
     2
 10
222.218331104498
 20
110.876552347354
 30
0.0
 11
226.718331193936
 21
110.876552347354
 31
0.0
  0
INSERT
  5
   640
  8
0
  6
CONTINUOUS
 62
     2
  2
*HATCH124
 10
212.168334960938
 20
44.8764953613281
 30
0.0
 41
0.300000011920929
 42
0.300000011920929
 43
0.300000011920929
  0
INSERT
  5
   641
  8
0
  6
CONTINUOUS
 62
     2
  2
*HATCH125
 10
212.168334960938
 20
44.8764953613281
 30
0.0
 41
0.300000011920929
 42
0.300000011920929
 43
0.300000011920929
  0
INSERT
  5
   642
  8
0
  6
CONTINUOUS
 62
     2
  2
*HATCH126
 10
212.168334960938
 20
44.8764953613281
 30
0.0
 41
0.300000011920929
 42
0.300000011920929
 43
0.300000011920929
  0
LINE
  5
   643
  8
0
  6
CONTINUOUS
 62
     7
 10
227.078276133499
 20
109.226534539463
 30
0.0
 11
227.078276133499
 21
116.426546450966
 31
0.0
  0
LINE
  5
   644
  8
0
  6
CONTINUOUS
 62
     7
 10
226.718276119194
 20
116.426546450966
 30
0.0
 11
227.078276133499
 21
116.426546450966
 31
0.0
  0
LINE
  5
   645
  8
0
  6
CONTINUOUS
 62
     7
 10
226.718276119194
 20
109.226546164863
 30
0.0
 11
227.078276133499
 21
109.226546164863
 31
0.0
  0
LINE
  5
   646
  8
0
  6
CONTINUOUS
 62
     7
 10
222.218340419789
 20
108.926482949751
 30
0.0
 11
222.218340419789
 21
109.226534539463
 31
0.0
  0
LINE
  5
   647
  8
0
  6
CONTINUOUS
 62
     1
 10
230.67827627655
 20
112.649366819681
 30
0.0
 11
230.67827627655
 21
115.526546415203
 31
0.0
  0
LINE
  5
   648
  8
0
  6
CONTINUOUS
 62
     1
 10
227.078276133499
 20
110.126546200626
 30
0.0
 11
227.078276133499
 21
115.526546415203
 31
0.0
  0
LINE
  5
   649
  8
0
  6
CONTINUOUS
 62
     1
 10
225.503276070914
 20
111.026546236389
 30
0.0
 11
225.503276070914
 21
114.62654637944
 31
0.0
  0
LINE
  5
   64A
  8
0
  6
CONTINUOUS
 62
     1
 10
215.078275656662
 20
111.026546236389
 30
0.0
 11
215.078275656662
 21
114.62654637944
 31
0.0
  0
LINE
  5
   64B
  8
0
  6
CONTINUOUS
 62
     1
 10
215.078275656662
 20
114.62654637944
 30
0.0
 11
227.078276133499
 21
114.62654637944
 31
0.0
  0
LINE
  5
   64C
  8
0
  6
CONTINUOUS
 62
     1
 10
215.078275656662
 20
111.026546236389
 30
0.0
 11
227.078276133499
 21
111.026546236389
 31
0.0
  0
LINE
  5
   64D
  8
0
  6
CONTINUOUS
 62
     1
 10
227.078276133499
 20
115.526546415203
 30
0.0
 11
230.678276276551
 21
115.526546415203
 31
0.0
  0
LINE
  5
   64E
  8
0
  6
CONTINUOUS
 62
     1
 10
227.078276133499
 20
110.126546200626
 30
0.0
 11
228.200750316376
 21
110.126546200626
 31
0.0
  0
LINE
  5
   64F
  8
0
  6
CONTINUOUS
 62
     7
 10
215.078275656662
 20
114.304495616643
 30
0.0
 11
225.503276070914
 21
114.304495616643
 31
0.0
  0
LINE
  5
   650
  8
0
  6
CONTINUOUS
 62
     7
 10
215.078275656662
 20
111.348596999186
 30
0.0
 11
225.503276070914
 21
111.348596999186
 31
0.0
  0
LINE
  5
   651
  8
0
  6
CONTINUOUS
 62
     7
 10
218.018320737686
 20
108.92649025723
 30
0.0
 11
218.018320737686
 21
111.026546236389
 31
0.0
  0
LINE
  5
   652
  8
0
  6
CONTINUOUS
 62
     2
 10
222.218330925689
 20
111.026546235727
 30
0.0
 11
222.21833307147
 21
109.226534539507
 31
0.0
  0
INSERT
  5
   653
  8
0
  6
CONTINUOUS
 62
     7
  2
*HATCH127
 10
212.168334960938
 20
44.8764953613281
 30
0.0
 41
0.300000011920929
 42
0.300000011920929
 43
0.300000011920929
  0
INSERT
  5
   654
  8
0
  6
CONTINUOUS
 62
     7
  2
*HATCH128
 10
212.168334960938
 20
44.8764953613281
 30
0.0
 41
0.300000011920929
 42
0.300000011920929
 43
0.300000011920929
  0
POINT
  5
   655
  8
0
  6
CONTINUOUS
 62
     7
 10
212.618334978819
 20
130.076498746872
 30
0.0
  0
INSERT
  5
   656
  8
0
  6
CONTINUOUS
 62
     7
  2
*HATCH129
 10
212.168334960938
 20
44.8764953613281
 30
0.0
 41
0.300000011920929
 42
0.300000011920929
 43
0.300000011920929
  0
INSERT
  5
   657
  8
0
  6
CONTINUOUS
 62
     7
  2
*UDIM564
 10
0.0
 20
0.0
 30
0.0
  0
INSERT
  5
   658
  8
0
  6
CONTINUOUS
 62
     7
  2
*UDIM565
 10
0.0
 20
0.0
 30
0.0
  0
INSERT
  5
   659
  8
0
  6
CONTINUOUS
 62
     7
  2
*UDIM566
 10
0.0
 20
0.0
 30
0.0
  0
LINE
  5
   65A
  8
0
  6
CONTINUOUS
 62
     7
 10
222.218340419789
 20
9.47627001306684
 30
0.0
 11
222.218340419789
 21
17.7339447894458
 31
0.0
  0
LINE
  5
   65B
  8
0
  6
CONTINUOUS
 62
     7
 10
218.018335193396
 20
9.47627001306795
 30
0.0
 11
222.218330782652
 21
9.47627001306795
 31
0.0
  0
LINE
  5
   65C
  8
0
  6
CONTINUOUS
 62
     7
 10
218.018320737686
 20
9.47627001306546
 30
0.0
 11
218.018320737686
 21
15.7762702634074
 31
0.0
  0
LINE
  5
   65D
  8
0
  6
CONTINUOUS
 62
     7
 10
222.293326207995
 20
8.27623334428903
 30
0.0
 11
222.293326207995
 21
16.8017996545105
 31
0.0
  0
LINE
  5
   65E
  8
0
  6
CONTINUOUS
 62
     7
 10
217.943335190415
 20
8.27623334428903
 30
0.0
 11
217.943335190415
 21
11.5762700965144
 31
0.0
  0
LINE
  5
   65F
  8
0
  6
CONTINUOUS
 62
     7
 10
218.018332766901
 20
23.5762705733516
 30
0.0
 11
222.218332400315
 21
23.5762705733516
 31
0.0
  0
LINE
  5
   660
  8
0
  6
CONTINUOUS
 62
     7
 10
218.018332766901
 20
27.4762707283237
 30
0.0
 11
222.218332400315
 21
27.4762707283237
 31
0.0
  0
LINE
  5
   661
  8
0
  6
CONTINUOUS
 62
     7
 10
222.218340419789
 20
29.2762707998492
 30
0.0
 11
222.218340419789
 21
29.4262479176241
 31
0.0
  0
LINE
  5
   662
  8
0
  6
CONTINUOUS
 62
     7
 10
213.218332550352
 20
24.0483213421092
 30
0.0
 11
215.078275656662
 21
24.0483213421092
 31
0.0
  0
LINE
  5
   663
  8
0
  6
CONTINUOUS
 62
     7
 10
213.218332550352
 20
27.0042199595661
 30
0.0
 11
215.078275656662
 21
27.0042199595661
 31
0.0
  0
LINE
  5
   664
  8
0
  6
CONTINUOUS
 62
     7
 10
217.943335190415
 20
27.9262661685682
 30
0.0
 11
217.943335190415
 21
32.5577491064093
 31
0.0
  0
LINE
  5
   665
  8
0
  6
CONTINUOUS
 62
     7
 10
218.018320737686
 20
15.7762702634074
 30
0.0
 11
218.018320737686
 21
16.8260349403769
 31
0.0
  0
LINE
  5
   666
  8
0
  6
CONTINUOUS
 62
     7
 10
218.018320737686
 20
16.8260349403769
 30
0.0
 11
218.018320737686
 21
18.6265009773578
 31
0.0
  0
LINE
  5
   667
  8
0
  6
CONTINUOUS
 62
     7
 10
218.018320737686
 20
18.6265009773578
 30
0.0
 11
218.018320737686
 21
23.726185711721
 31
0.0
  0
LINE
  5
   668
  8
0
  6
CONTINUOUS
 62
     7
 10
212.768332532471
 20
28.8262707819679
 30
0.0
 11
213.968332866257
 21
28.8262707819679
 31
0.0
  0
LINE
  5
   669
  8
0
  6
CONTINUOUS
 62
     7
 10
214.868332615917
 20
28.8262707819679
 30
0.0
 11
217.868339601582
 21
28.8262707819679
 31
0.0
  0
LINE
  5
   66A
  8
0
  6
CONTINUOUS
 62
     7
 10
212.768332532471
 20
10.3763432910211
 30
0.0
 11
217.868332735126
 21
10.3763432910211
 31
0.0
  0
LINE
  5
   66B
  8
0
  6
CONTINUOUS
 62
     7
 10
212.768332532471
 20
10.3763432910211
 30
0.0
 11
212.768332532471
 21
28.8262707819679
 31
0.0
  0
LINE
  5
   66C
  8
0
  6
CONTINUOUS
 62
     7
 10
217.868372360563
 20
10.3763432910023
 30
0.0
 11
217.868372360563
 21
11.5763341834122
 31
0.0
  0
LINE
  5
   66D
  8
0
  6
CONTINUOUS
 62
     7
 10
217.868335023945
 20
15.7763343503241
 30
0.0
 11
217.868335023945
 21
16.7237815925621
 31
0.0
  0
LINE
  5
   66E
  8
0
  6
CONTINUOUS
 62
     7
 10
217.868364158665
 20
21.6267969240987
 30
0.0
 11
217.868364158665
 21
23.1262659778229
 31
0.0
  0
LINE
  5
   66F
  8
0
  6
CONTINUOUS
 62
     7
 10
217.868380704737
 20
27.9262661685417
 30
0.0
 11
217.868380704737
 21
28.8262707819414
 31
0.0
  0
LINE
  5
   670
  8
0
  6
CONTINUOUS
 62
     7
 10
213.968309459512
 20
28.8262707819596
 30
0.0
 11
213.968309459512
 21
31.226270877327
 31
0.0
  0
LINE
  5
   671
  8
0
  6
CONTINUOUS
 62
     7
 10
214.868331838421
 20
31.2262728452488
 30
0.0
 11
217.868338838263
 21
28.8262726954302
 31
0.0
  0
LINE
  5
   672
  8
0
  6
CONTINUOUS
 62
     7
 10
213.968331721847
 20
31.2262708773353
 30
0.0
 11
214.868332615917
 21
31.2262708773353
 31
0.0
  0
LINE
  5
   673
  8
0
  6
CONTINUOUS
 62
     7
 10
214.868332615917
 20
28.8262707819679
 30
0.0
 11
214.868332615917
 21
31.2262708773353
 31
0.0
  0
LINE
  5
   674
  8
0
  6
CONTINUOUS
 62
     7
 10
213.218332550352
 20
22.8262705435493
 30
0.0
 11
213.218332550352
 21
28.226270758126
 31
0.0
  0
LINE
  5
   675
  8
0
  6
CONTINUOUS
 62
     7
 10
213.218332550352
 20
11.3662700881698
 30
0.0
 11
213.218332550352
 21
15.9862702717521
 31
0.0
  0
LINE
  5
   676
  8
0
  6
CONTINUOUS
 62
     7
 10
213.968332580154
 20
18.7111946964371
 30
0.0
 11
213.968332580154
 21
19.6763116171116
 31
0.0
  0
LINE
  5
   677
  8
0
  6
CONTINUOUS
 62
     7
 10
213.968332580154
 20
20.8763116647954
 30
0.0
 11
213.968332580154
 21
21.6326791875265
 31
0.0
  0
LINE
  5
   678
  8
0
  6
CONTINUOUS
 62
     3
 10
217.868332735126
 20
18.7111901188002
 30
0.0
 11
217.868332735126
 21
18.7287590892249
 31
0.0
  0
LINE
  5
   679
  8
0
  6
CONTINUOUS
 62
     7
 10
213.968332580154
 20
19.6763116171116
 30
0.0
 11
217.868332735126
 21
19.6763116171116
 31
0.0
  0
LINE
  5
   67A
  8
0
  6
CONTINUOUS
 62
     7
 10
213.968332580154
 20
20.8763116647954
 30
0.0
 11
217.868332735126
 21
20.8763116647954
 31
0.0
  0
LINE
  5
   67B
  8
0
  6
CONTINUOUS
 62
     7
 10
217.868332735126
 20
18.7287590892249
 30
0.0
 11
217.868332735126
 21
21.6267969241091
 31
0.0
  0
LINE
  5
   67C
  8
0
  6
CONTINUOUS
 62
     7
 10
213.218332550352
 20
23.1262659778333
 30
0.0
 11
218.018332741087
 21
23.1262659778333
 31
0.0
  0
LINE
  5
   67D
  8
0
  6
CONTINUOUS
 62
     7
 10
213.218332550352
 20
27.9262661685682
 30
0.0
 11
218.018332741087
 21
27.9262661685682
 31
0.0
  0
LINE
  5
   67E
  8
0
  6
CONTINUOUS
 62
     7
 10
217.868333879536
 20
22.3762705256679
 30
0.0
 11
218.018332741087
 21
22.3762705256679
 31
0.0
  0
LINE
  5
   67F
  8
0
  6
CONTINUOUS
 62
     7
 10
213.968332580154
 20
21.6267969241091
 30
0.0
 11
217.868332735126
 21
21.6267969241091
 31
0.0
  0
LINE
  5
   680
  8
0
  6
CONTINUOUS
 62
     7
 10
213.218332550352
 20
28.226270758126
 30
0.0
 11
217.868335596149
 21
28.226270758126
 31
0.0
  0
LINE
  5
   681
  8
0
  6
CONTINUOUS
 62
     7
 10
213.218332550352
 20
22.8262705435493
 30
0.0
 11
217.86833445174
 21
22.8262705435493
 31
0.0
  0
LINE
  5
   682
  8
0
  6
CONTINUOUS
 62
     7
 10
213.968332580154
 20
18.7111901188002
 30
0.0
 11
217.868332735126
 21
18.7111901188002
 31
0.0
  0
LINE
  5
   683
  8
0
  6
CONTINUOUS
 62
     7
 10
217.868333070658
 20
18.7287583262872
 30
0.0
 11
218.018333618328
 21
18.6287545942409
 31
0.0
  0
LINE
  5
   684
  8
0
  6
CONTINUOUS
 62
     7
 10
217.868332538766
 20
16.7237808517156
 30
0.0
 11
218.018333928948
 21
16.8237851454558
 31
0.0
  0
LINE
  5
   685
  8
0
  6
CONTINUOUS
 62
     7
 10
213.218332550352
 20
27.3262707223632
 30
0.0
 11
215.078275656662
 21
27.3262707223632
 31
0.0
  0
LINE
  5
   686
  8
0
  6
CONTINUOUS
 62
     7
 10
213.218332550352
 20
23.7262705793121
 30
0.0
 11
215.078275656662
 21
23.7262705793121
 31
0.0
  0
LINE
  5
   687
  8
0
  6
CONTINUOUS
 62
     7
 10
217.868332735126
 20
20.2762658645845
 30
0.0
 11
218.018332741087
 21
20.2762658645845
 31
0.0
  0
LINE
  5
   688
  8
0
  6
DASHDOT
 62
     7
 10
211.338718147364
 20
13.676270179961
 30
0.0
 11
218.893801694001
 21
13.676270179961
 31
0.0
  0
LINE
  5
   689
  8
0
  6
CONTINUOUS
 62
     7
 10
213.218332550352
 20
11.3662700881698
 30
0.0
 11
217.868333207165
 21
11.3662700881698
 31
0.0
  0
LINE
  5
   68A
  8
0
  6
CONTINUOUS
 62
     7
 10
213.218332550352
 20
15.9862702717521
 30
0.0
 11
217.868333207165
 21
15.9862702717521
 31
0.0
  0
LINE
  5
   68B
  8
0
  6
CONTINUOUS
 62
     7
 10
213.218332550352
 20
11.5762700965144
 30
0.0
 11
218.018332741087
 21
11.5762700965144
 31
0.0
  0
LINE
  5
   68C
  8
0
  6
CONTINUOUS
 62
     7
 10
213.218332550352
 20
15.7762702634075
 30
0.0
 11
218.018332741087
 21
15.7762702634075
 31
0.0
  0
LINE
  5
   68D
  8
0
  6
CONTINUOUS
 62
     7
 10
213.218332550352
 20
12.1762701203563
 30
0.0
 11
218.018332741087
 21
12.1762701203563
 31
0.0
  0
LINE
  5
   68E
  8
0
  6
CONTINUOUS
 62
     7
 10
213.218332550352
 20
15.1762702395656
 30
0.0
 11
218.018332741087
 21
15.1762702395656
 31
0.0
  0
LINE
  5
   68F
  8
0
  6
CONTINUOUS
 62
     7
 10
213.218332550352
 20
12.401270129297
 30
0.0
 11
218.018332741087
 21
12.401270129297
 31
0.0
  0
LINE
  5
   690
  8
0
  6
CONTINUOUS
 62
     7
 10
213.218332550352
 20
14.9512702306249
 30
0.0
 11
218.018332741087
 21
14.9512702306249
 31
0.0
  0
INSERT
  5
   691
  8
0
  6
CONTINUOUS
 62
     2
  2
*HATCH130
 10
212.168334960938
 20
44.8764953613281
 30
0.0
 41
0.300000011920929
 42
0.300000011920929
 43
0.300000011920929
  0
INSERT
  5
   692
  8
0
  6
CONTINUOUS
 62
     2
  2
*HATCH131
 10
212.168334960938
 20
44.8764953613281
 30
0.0
 41
0.300000011920929
 42
0.300000011920929
 43
0.300000011920929
  0
INSERT
  5
   693
  8
0
  6
CONTINUOUS
 62
     7
  2
*HATCH132
 10
212.168334960938
 20
44.8764953613281
 30
0.0
 41
0.300000011920929
 42
0.300000011920929
 43
0.300000011920929
  0
LINE
  5
   694
  8
0
  6
DASHDOT
 62
     7
 10
217.619680844866
 20
17.7262703408935
 30
0.0
 11
223.00867473339
 21
17.7262703408935
 31
0.0
  0
LINE
  5
   695
  8
0
  6
CONTINUOUS
 62
     7
 10
218.018335193396
 20
16.60127029619
 30
0.0
 11
222.218330782652
 21
16.60127029619
 31
0.0
  0
LINE
  5
   696
  8
0
  6
CONTINUOUS
 62
     7
 10
218.018335193396
 20
18.851270385597
 30
0.0
 11
222.218330782652
 21
18.851270385597
 31
0.0
  0
INSERT
  5
   697
  8
0
  6
CONTINUOUS
 62
     7
  2
*HATCH133
 10
212.168334960938
 20
44.8764953613281
 30
0.0
 41
0.300000011920929
 42
0.300000011920929
 43
0.300000011920929
  0
INSERT
  5
   698
  8
0
  6
CONTINUOUS
 62
     7
  2
*HATCH134
 10
212.168334960938
 20
44.8764953613281
 30
0.0
 41
0.300000011920929
 42
0.300000011920929
 43
0.300000011920929
  0
LINE
  5
   699
  8
0
  6
CONTINUOUS
 62
     2
 10
227.168340134621
 20
-22.3236213872649
 30
0.0
 11
231.668333446979
 21
-22.3236213872649
 31
0.0
  0
LINE
  5
   69A
  8
0
  6
CONTINUOUS
 62
     2
 10
222.21833307147
 20
29.1261975516984
 30
0.0
 11
226.718329817056
 21
29.1261975516984
 31
0.0
  0
LINE
  5
   69B
  8
0
  6
CONTINUOUS
 62
     2
 10
222.218321627378
 20
19.5261971714097
 30
0.0
 11
222.218326634154
 21
23.7261857131769
 31
0.0
  0
LINE
  5
   69C
  8
0
  6
CONTINUOUS
 62
     2
 10
222.218321627378
 20
19.5261971706422
 30
0.0
 11
222.218325060599
 21
17.7475092974902
 31
0.0
  0
LINE
  5
   69D
  8
0
  6
CONTINUOUS
 62
     2
 10
231.668331158161
 20
7.97629741606999
 30
0.0
 11
231.668335735755
 21
9.6908902275369
 31
0.0
  0
LINE
  5
   69E
  8
0
  6
CONTINUOUS
 62
     2
 10
231.668342796487
 20
-8.83830325564329
 30
0.0
 11
231.668342796487
 21
7.97630007364196
 31
0.0
  0
LINE
  5
   69F
  8
0
  6
CONTINUOUS
 62
     2
 10
231.668328869343
 20
-9.50762966706567
 30
0.0
 11
231.668328869343
 21
-9.14215113691786
 31
0.0
  0
LINE
  5
   6A0
  8
0
  6
CONTINUOUS
 62
     2
 10
231.668328869343
 20
-9.92460661234578
 30
0.0
 11
231.668328869343
 21
-9.50762966706567
 31
0.0
  0
LINE
  5
   6A1
  8
0
  6
CONTINUOUS
 62
     2
 10
231.668328869343
 20
-9.14215113691786
 30
0.0
 11
231.668328869343
 21
-8.83830591000039
 31
0.0
  0
LINE
  5
   6A2
  8
0
  6
CONTINUOUS
 62
     2
 10
231.668328869343
 20
-10.8656588970028
 30
0.0
 11
231.668333446979
 21
-11.3636233943358
 31
0.0
  0
LINE
  5
   6A3
  8
0
  6
CONTINUOUS
 62
     2
 10
231.668328869343
 20
-10.8656588958336
 30
0.0
 11
231.668328869343
 21
-10.3815097066734
 31
0.0
  0
LINE
  5
   6A4
  8
0
  6
CONTINUOUS
 62
     2
 10
231.668328869343
 20
-10.3815097066734
 30
0.0
 11
231.668328869343
 21
-9.92460661234578
 31
0.0
  0
LINE
  5
   6A5
  8
0
  6
CONTINUOUS
 62
     2
 10
231.668333446979
 20
-22.3236213872649
 30
0.0
 11
231.668333446979
 21
-11.36362339316
 31
0.0
  0
LINE
  5
   6A6
  8
0
  6
CONTINUOUS
 62
     2
 10
227.168340134621
 20
7.97629741928471
 30
0.0
 11
227.168340134621
 21
9.6909028182958
 31
0.0
  0
LINE
  5
   6A7
  8
0
  6
CONTINUOUS
 62
     2
 10
227.168340134621
 20
-8.83829675472658
 30
0.0
 11
227.168340134621
 21
7.97629741928471
 31
0.0
  0
LINE
  5
   6A8
  8
0
  6
CONTINUOUS
 62
     2
 10
227.168340134621
 20
-11.36362339316
 30
0.0
 11
227.168340134621
 21
-10.8656588958336
 31
0.0
  0
LINE
  5
   6A9
  8
0
  6
CONTINUOUS
 62
     2
 10
227.168340134621
 20
-10.3815097066734
 30
0.0
 11
227.168340134621
 21
-9.92460661234578
 31
0.0
  0
LINE
  5
   6AA
  8
0
  6
CONTINUOUS
 62
     2
 10
227.168340134621
 20
-9.14215113691786
 30
0.0
 11
227.168340134621
 21
-8.83829675472658
 31
0.0
  0
LINE
  5
   6AB
  8
0
  6
CONTINUOUS
 62
     2
 10
227.168340134621
 20
-9.50762966706567
 30
0.0
 11
227.168340134621
 21
-9.14215113691786
 31
0.0
  0
LINE
  5
   6AC
  8
0
  6
CONTINUOUS
 62
     2
 10
227.168340134621
 20
-9.92460661234578
 30
0.0
 11
227.168340134621
 21
-9.50762966706567
 31
0.0
  0
LINE
  5
   6AD
  8
0
  6
CONTINUOUS
 62
     2
 10
227.168340134621
 20
-10.8656588958336
 30
0.0
 11
227.168340134621
 21
-10.3815097066734
 31
0.0
  0
LINE
  5
   6AE
  8
0
  6
CONTINUOUS
 62
     2
 10
227.168340134621
 20
-22.3236213872649
 30
0.0
 11
227.168340134621
 21
-11.36362339316
 31
0.0
  0
LINE
  5
   6AF
  8
0
  6
CONTINUOUS
 62
     2
 10
223.975683561574
 20
13.5048809040075
 30
0.0
 11
226.729000509374
 21
10.7515628117908
 31
0.0
  0
LINE
  5
   6B0
  8
0
  6
CONTINUOUS
 62
     2
 10
226.718276119194
 20
19.5261850287859
 30
0.0
 11
226.718276119194
 21
29.1261854102589
 31
0.0
  0
LINE
  5
   6B1
  8
0
  6
CONTINUOUS
 62
     2
 10
226.718337827921
 20
19.5261971788812
 30
0.0
 11
226.718340116743
 21
17.747502934086
 31
0.0
  0
LINE
  5
   6B2
  8
0
  6
CONTINUOUS
 62
     2
 10
227.157679741989
 20
16.6868448611107
 30
0.0
 11
229.910977234791
 21
13.9335462239006
 31
0.0
  0
ARC
  5
   6B3
  8
0
  6
CONTINUOUS
 62
     2
 10
225.668335497358
 20
9.69090624992042
 30
0.0
 40
6.00000023841858
 50
7.01670929853487E-15
 51
44.9999880925105
  0
ARC
  5
   6B4
  8
0
  6
CONTINUOUS
 62
     2
 10
225.668340075016
 20
9.6909028182958
 30
0.0
 40
1.50000005960464
 50
7.01670929853487E-15
 51
44.9999880925105
  0
ARC
  5
   6B5
  8
0
  6
CONTINUOUS
 62
     2
 10
228.218340176347
 20
17.7475048546058
 30
0.0
 40
1.50000005960464
 50
180.000073728166
 51
224.999988092511
  0
ARC
  5
   6B6
  8
0
  6
CONTINUOUS
 62
     2
 10
228.218325299007
 20
17.7475208779877
 30
0.0
 40
6.00000023841858
 50
180.000110592248
 51
224.999988092511
  0
LINE
  5
   6B7
  8
0
  6
CONTINUOUS
 62
     2
 10
227.168340134621
 20
-18.273631312443
 30
0.0
 11
231.668327584998
 21
-18.273631312443
 31
0.0
  0
LINE
  5
   6B8
  8
0
  6
DASHDOT
 62
     2
 10
225.830708135603
 20
-16.3236373518843
 30
0.0
 11
233.078476744005
 21
-16.3236373518843
 31
0.0
  0
LINE
  5
   6B9
  8
0
  6
CONTINUOUS
 62
     2
 10
227.168340134621
 20
-14.3736433913255
 30
0.0
 11
231.668328115868
 21
-14.3736433913255
 31
0.0
  0
LINE
  5
   6BA
  8
0
  6
CONTINUOUS
 62
     2
 10
222.218326455351
 20
23.5761918226861
 30
0.0
 11
226.718334448339
 21
23.5761918226861
 31
0.0
  0
LINE
  5
   6BB
  8
0
  6
DASHDOT
 62
     2
 10
212.104032300197
 20
25.5261857832466
 30
0.0
 11
231.727337468289
 21
25.5261857832466
 31
0.0
  0
LINE
  5
   6BC
  8
0
  6
CONTINUOUS
 62
     2
 10
222.218331104499
 20
27.476179743807
 30
0.0
 11
226.718331193936
 21
27.476179743807
 31
0.0
  0
INSERT
  5
   6BD
  8
0
  6
CONTINUOUS
 62
     2
  2
*HATCH135
 10
212.168334960938
 20
44.8764953613281
 30
0.0
 41
0.300000011920929
 42
0.300000011920929
 43
0.300000011920929
  0
INSERT
  5
   6BE
  8
0
  6
CONTINUOUS
 62
     2
  2
*HATCH136
 10
212.168334960938
 20
44.8764953613281
 30
0.0
 41
0.300000011920929
 42
0.300000011920929
 43
0.300000011920929
  0
INSERT
  5
   6BF
  8
0
  6
CONTINUOUS
 62
     2
  2
*HATCH137
 10
212.168334960938
 20
44.8764953613281
 30
0.0
 41
0.300000011920929
 42
0.300000011920929
 43
0.300000011920929
  0
LINE
  5
   6C0
  8
0
  6
CONTINUOUS
 62
     7
 10
227.078276133499
 20
21.9261856401954
 30
0.0
 11
227.078276133499
 21
29.1261975516984
 31
0.0
  0
LINE
  5
   6C1
  8
0
  6
CONTINUOUS
 62
     7
 10
226.718276119194
 20
21.9261856401954
 30
0.0
 11
227.078276133499
 21
21.9261856401954
 31
0.0
  0
LINE
  5
   6C2
  8
0
  6
CONTINUOUS
 62
     7
 10
226.718276119194
 20
29.1261859262977
 30
0.0
 11
227.078276133499
 21
29.1261859262977
 31
0.0
  0
LINE
  5
   6C3
  8
0
  6
CONTINUOUS
 62
     7
 10
222.218340419789
 20
29.1261975516984
 30
0.0
 11
222.218340419789
 21
32.5577491064093
 31
0.0
  0
LINE
  5
   6C4
  8
0
  6
CONTINUOUS
 62
     1
 10
230.67827627655
 20
22.8261856759582
 30
0.0
 11
230.67827627655
 21
25.7033031683792
 31
0.0
  0
LINE
  5
   6C5
  8
0
  6
CONTINUOUS
 62
     1
 10
227.078276133499
 20
22.8261856759582
 30
0.0
 11
227.078276133499
 21
28.2261858905349
 31
0.0
  0
LINE
  5
   6C6
  8
0
  6
CONTINUOUS
 62
     1
 10
225.503276070914
 20
23.726185711721
 30
0.0
 11
225.503276070914
 21
27.3261858547721
 31
0.0
  0
LINE
  5
   6C7
  8
0
  6
CONTINUOUS
 62
     1
 10
215.078275656662
 20
23.726185711721
 30
0.0
 11
215.078275656662
 21
27.3261858547721
 31
0.0
  0
LINE
  5
   6C8
  8
0
  6
CONTINUOUS
 62
     1
 10
215.078275656662
 20
23.726185711721
 30
0.0
 11
227.078276133499
 21
23.726185711721
 31
0.0
  0
LINE
  5
   6C9
  8
0
  6
CONTINUOUS
 62
     1
 10
215.078275656662
 20
27.3261858547721
 30
0.0
 11
227.078276133499
 21
27.3261858547721
 31
0.0
  0
LINE
  5
   6CA
  8
0
  6
CONTINUOUS
 62
     1
 10
227.078276133499
 20
22.8261856759582
 30
0.0
 11
230.678276276551
 21
22.8261856759582
 31
0.0
  0
LINE
  5
   6CB
  8
0
  6
CONTINUOUS
 62
     1
 10
227.078276133499
 20
28.2261858905349
 30
0.0
 11
228.200714800901
 21
28.2261858905349
 31
0.0
  0
LINE
  5
   6CC
  8
0
  6
CONTINUOUS
 62
     7
 10
215.078275656662
 20
24.0482364745181
 30
0.0
 11
225.503276070914
 21
24.0482364745181
 31
0.0
  0
LINE
  5
   6CD
  8
0
  6
CONTINUOUS
 62
     7
 10
215.078275656662
 20
27.004135091975
 30
0.0
 11
225.503276070914
 21
27.004135091975
 31
0.0
  0
LINE
  5
   6CE
  8
0
  6
CONTINUOUS
 62
     7
 10
218.018320737686
 20
27.3261858547721
 30
0.0
 11
218.018320737686
 21
32.5577491064093
 31
0.0
  0
LINE
  5
   6CF
  8
0
  6
CONTINUOUS
 62
     2
 10
222.218330925689
 20
27.3261858558582
 30
0.0
 11
222.21833307147
 21
29.1261975518932
 31
0.0
  0
INSERT
  5
   6D0
  8
0
  6
CONTINUOUS
 62
     7
  2
*HATCH138
 10
212.168334960938
 20
44.8764953613281
 30
0.0
 41
0.300000011920929
 42
0.300000011920929
 43
0.300000011920929
  0
INSERT
  5
   6D1
  8
0
  6
CONTINUOUS
 62
     7
  2
*HATCH139
 10
212.168334960938
 20
44.8764953613281
 30
0.0
 41
0.300000011920929
 42
0.300000011920929
 43
0.300000011920929
  0
INSERT
  5
   6D2
  8
0
  6
CONTINUOUS
 62
     7
  2
*HATCH140
 10
212.168334960938
 20
44.8764953613281
 30
0.0
 41
0.300000011920929
 42
0.300000011920929
 43
0.300000011920929
  0
INSERT
  5
   6D3
  8
0
  6
CONTINUOUS
 62
     7
  2
*UDIM567
 10
0.0
 20
0.0
 30
0.0
  0
INSERT
  5
   6D4
  8
0
  6
CONTINUOUS
 62
     7
  2
*UDIM568
 10
0.0
 20
0.0
 30
0.0
  0
TEXT
  5
   6D5
  8
0
  6
CONTINUOUS
 62
     7
 10
292.24989082008
 20
50.4710193870275
 30
0.0
 40
2.99999994039535
  1
=       =
 50
90.0
 41
0.916666655739148
 72
     2
 11
292.24989082005
 21
74.6710186439562
 31
0.0
  0
TEXT
  5
   6D6
  8
0
  6
CONTINUOUS
 62
     7
 10
189.456304229815
 20
63.4361077761467
 30
0.0
 40
2.99999994039535
  1
X
 41
0.916666655739148
 72
     2
 11
191.656304186105
 21
63.4361077761467
 31
0.0
  0
LINE
  5
   6D7
  8
0
  6
DASHDOT
 62
     7
 10
108.248437450211
 20
-59.0026002659402
 30
0.0
 11
78.9834643907239
 21
-59.0026002659402
 31
0.0
  0
LINE
  5
   6D8
  8
0
  6
DASHDOT
 62
     7
 10
111.240869704128
 20
-113.050235759532
 30
0.0
 11
77.3097310961605
 21
-113.050235759532
 31
0.0
  0
LINE
  5
   6D9
  8
0
  6
DASHDOT
 62
     7
 10
85.3074116110802
 20
-54.0521149539798
 30
0.0
 11
85.3074116110802
 21
-120.741744394042
 31
0.0
  0
LINE
  5
   6DA
  8
0
  6
DASHDOT
 62
     7
 10
99.3074107766152
 20
-52.8138459723341
 30
0.0
 11
99.3074107766152
 21
-121.449326669268
 31
0.0
  0
LINE
  5
   6DB
  8
0
  6
CONTINUOUS
 62
     1
 10
103.307410538197
 20
-55.0026005043587
 30
0.0
 11
103.307410538197
 21
-85.6674500107765
 31
0.0
  0
LINE
  5
   6DC
  8
0
  6
CONTINUOUS
 62
     1
 10
103.307410538197
 20
-55.0026005043587
 30
0.0
 11
81.3074118494987
 21
-55.0026005043587
 31
0.0
  0
LINE
  5
   6DD
  8
0
  6
CONTINUOUS
 62
     1
 10
81.3074118494987
 20
-55.0026005043587
 30
0.0
 11
81.3074118494987
 21
-85.6674500107765
 31
0.0
  0
LINE
  5
   6DE
  8
0
  6
CONTINUOUS
 62
     1
 10
103.307410538197
 20
-117.050235521113
 30
0.0
 11
81.3074118494987
 21
-117.050235521113
 31
0.0
  0
LINE
  5
   6DF
  8
0
  6
DASHDOT
 62
     7
 10
111.059579233374
 20
-86.6674499511719
 30
0.0
 11
70.623678116012
 21
-86.6674499511719
 31
0.0
  0
LINE
  5
   6E0
  8
0
  6
DASHDOT
 62
     7
 10
92.3074111938477
 20
-51.5755769906884
 30
0.0
 11
92.3074111938477
 21
-67.4384566657197
 31
0.0
  0
CIRCLE
  5
   6E1
  8
0
  6
CONTINUOUS
 62
     7
 10
85.3074116110802
 20
-59.0026002659402
 30
0.0
 40
0.549999967217445
  0
CIRCLE
  5
   6E2
  8
0
  6
CONTINUOUS
 62
     7
 10
99.3074107766152
 20
-59.0026002659402
 30
0.0
 40
0.549999967217445
  0
CIRCLE
  5
   6E3
  8
0
  6
CONTINUOUS
 62
     7
 10
85.3074116110802
 20
-113.050235759532
 30
0.0
 40
0.549999967217445
  0
LINE
  5
   6E4
  8
0
  6
CONTINUOUS
 62
     1
 10
81.3074118494987
 20
-87.6674498915672
 30
0.0
 11
81.3074118494987
 21
-117.050235521113
 31
0.0
  0
LINE
  5
   6E5
  8
0
  6
CONTINUOUS
 62
     1
 10
103.307410538197
 20
-87.6674498915672
 30
0.0
 11
103.307410538197
 21
-117.050235521113
 31
0.0
  0
CIRCLE
  5
   6E6
  8
0
  6
CONTINUOUS
 62
     7
 10
101.198607684818
 20
-60.0948840453795
 30
0.0
 40
9.99999940395355E-2
  0
LINE
  5
   6E7
  8
0
  6
CONTINUOUS
 62
     1
 10
106.340104589825
 20
-85.6674500107765
 30
0.0
 11
78.7443958560067
 21
-85.6674500107765
 31
0.0
  0
LINE
  5
   6E8
  8
0
  6
CONTINUOUS
 62
     1
 10
105.809417883406
 20
-87.6674498915672
 30
0.0
 11
78.3906047183936
 21
-87.6674498915672
 31
0.0
  0
CIRCLE
  5
   6E9
  8
0
  6
CONTINUOUS
 62
     7
 10
99.3074107766152
 20
-113.050235759532
 30
0.0
 40
0.549999967217445
  0
INSERT
  5
   6EA
  8
0
  6
CONTINUOUS
 62
     7
  2
*UDIM569
 10
0.0
 20
0.0
 30
0.0
  0
LINE
  5
   6EB
  8
0
  6
DASHDOT
 62
     7
 10
92.3074111938477
 20
-79.532139397271
 30
0.0
 11
92.3074111938477
 21
-120.21897510837
 31
0.0
  0
INSERT
  5
   6EC
  8
0
  6
CONTINUOUS
 62
     7
  2
*UDIM570
 10
0.0
 20
0.0
 30
0.0
  0
INSERT
  5
   6ED
  8
0
  6
CONTINUOUS
 62
     7
  2
*UDIM571
 10
0.0
 20
0.0
 30
0.0
  0
TEXT
  5
   6EE
  8
0
  6
CONTINUOUS
 62
     7
 10
91.1754427603749
 20
-125.143070452869
 30
0.0
 40
3.00000005960463
  1
Y
 50
359.999999896069
 41
0.916666581564485
 72
     2
 11
93.375442581561
 21
-125.143070456848
 31
0.0
  0
TEXT
  5
   6EF
  8
0
  6
CONTINUOUS
 62
     7
 10
90.9721846395554
 20
-51.2651573758668
 30
0.0
 40
3.00000005960463
  1
Y
 50
359.999999896069
 41
0.916666581564485
 72
     2
 11
93.1721844607415
 21
-51.2651573798465
 31
0.0
  0
TEXT
  5
   6F0
  8
0
  6
CONTINUOUS
 62
     7
 10
116.627343823585
 20
-89.4969899140046
 30
0.0
 40
3.00000005960463
  1
X
 50
359.999999896069
 41
0.916666581564485
 72
     2
 11
118.827343644771
 21
-89.4969899179842
 31
0.0
  0
TEXT
  5
   6F1
  8
0
  6
CONTINUOUS
 62
     7
 10
58.959033662251
 20
-88.0575193033545
 30
0.0
 40
3.00000005960463
  1
X
 50
359.999999896069
 41
0.916666581564485
 72
     2
 11
61.1590334834371
 21
-88.0575193073341
 31
0.0
  0
ENDSEC
  0
EOF
