  0
SECTION
  2
HEADER
  9
$ACADVER
  1
AC1009
  9
$DWGCODEPAGE
  3
iso8859-1
  9
$INSBASE
 10
0.0
 20
0.0
 30
0.0
  9
$EXTMIN
 10
1.0E20
 20
1.0E20
  9
$EXTMAX
 10
-1.0E20
 20
-1.0E20
  9
$LIMMIN
 10
0.0
 20
0.0
  9
$LIMMAX
 10
12.0
 20
9.0
  9
$ORTHOMODE
 70
     0
  9
$REGENMODE
 70
     1
  9
$FILLMODE
 70
     1
  9
$QTEXTMODE
 70
     0
  9
$MIRRTEXT
 70
     1
  9
$DRAGMODE
 70
     2
  9
$LTSCALE
 40
15.0
  9
$OSMODE
 70
     0
  9
$ATTMODE
 70
     1
  9
$TEXTSIZE
 40
0.2
  9
$TRACEWID
 40
0.05
  9
$TEXTSTYLE
  7
STANDARD
  9
$CLAYER
  8
0
  9
$CELTYPE
  6
DASHED
  9
$CECOLOR
 62
   256
  9
$DIMSCALE
 40
1.0
  9
$DIMASZ
 40
0.18
  9
$DIMEXO
 40
0.0625
  9
$DIMDLI
 40
0.38
  9
$DIMRND
 40
0.0
  9
$DIMDLE
 40
0.0
  9
$DIMEXE
 40
0.18
  9
$DIMTP
 40
0.0
  9
$DIMTM
 40
0.0
  9
$DIMTXT
 40
0.18
  9
$DIMCEN
 40
0.09
  9
$DIMTSZ
 40
0.0
  9
$DIMTOL
 70
     0
  9
$DIMLIM
 70
     0
  9
$DIMTIH
 70
     1
  9
$DIMTOH
 70
     1
  9
$DIMSE1
 70
     0
  9
$DIMSE2
 70
     0
  9
$DIMTAD
 70
     0
  9
$DIMZIN
 70
     0
  9
$DIMBLK
  1

  9
$DIMASO
 70
     1
  9
$DIMSHO
 70
     1
  9
$DIMPOST
  1

  9
$DIMAPOST
  1

  9
$DIMALT
 70
     0
  9
$DIMALTD
 70
     2
  9
$DIMALTF
 40
25.4
  9
$DIMLFAC
 40
1.0
  9
$DIMTOFL
 70
     0
  9
$DIMTVP
 40
0.0
  9
$DIMTIX
 70
     0
  9
$DIMSOXD
 70
     0
  9
$DIMSAH
 70
     0
  9
$DIMBLK1
  1

  9
$DIMBLK2
  1

  9
$DIMSTYLE
  2
STANDARD
  9
$DIMCLRD
 70
     0
  9
$DIMCLRE
 70
     0
  9
$DIMCLRT
 70
     0
  9
$DIMTFAC
 40
1.0
  9
$DIMGAP
 40
0.09
  9
$LUNITS
 70
     2
  9
$LUPREC
 70
     4
  9
$AXISMODE
 70
     0
  9
$AXISUNIT
 10
0.0
 20
0.0
  9
$SKETCHINC
 40
0.1
  9
$FILLETRAD
 40
0.0
  9
$AUNITS
 70
     0
  9
$AUPREC
 70
     0
  9
$MENU
  1
acad
  9
$ELEVATION
 40
0.0
  9
$PELEVATION
 40
0.0
  9
$THICKNESS
 40
0.0
  9
$LIMCHECK
 70
     0
  9
$BLIPMODE
 70
     1
  9
$CHAMFERA
 40
0.0
  9
$CHAMFERB
 40
0.0
  9
$SKPOLY
 70
     0
  9
$TDCREATE
 40
0.000000000
  9
$TDUPDATE
 40
0.000000000
  9
$TDINDWG
 40
0.0
  9
$TDUSRTIMER
 40
0.0
  9
$USRTIMER
 70
     1
  9
$ANGBASE
 50
0.0
  9
$ANGDIR
 70
     0
  9
$PDMODE
 70
     0
  9
$PDSIZE
 40
0.0
  9
$PLINEWID
 40
0.0
  9
$COORDS
 70
     1
  9
$SPLFRAME
 70
     0
  9
$SPLINETYPE
 70
     6
  9
$SPLINESEGS
 70
     8
  9
$ATTDIA
 70
     0
  9
$ATTREQ
 70
     1
  9
$HANDLING
 70
     1
  9
$HANDSEED
  5
   925
  9
$SURFTAB1
 70
     6
  9
$SURFTAB2
 70
     6
  9
$SURFTYPE
 70
     6
  9
$SURFU
 70
     6
  9
$SURFV
 70
     6
  9
$UCSNAME
  2

  9
$UCSORG
 10
0.0
 20
0.0
 30
0.0
  9
$UCSXDIR
 10
1.0
 20
0.0
 30
0.0
  9
$UCSYDIR
 10
0.0
 20
1.0
 30
0.0
  9
$PUCSNAME
  2

  9
$PUCSORG
 10
0.0
 20
0.0
 30
0.0
  9
$PUCSXDIR
 10
1.0
 20
0.0
 30
0.0
  9
$PUCSYDIR
 10
0.0
 20
1.0
 30
0.0
  9
$USERI1
 70
     0
  9
$USERI2
 70
     0
  9
$USERI3
 70
     0
  9
$USERI4
 70
     0
  9
$USERI5
 70
     0
  9
$USERR1
 40
0.0
  9
$USERR2
 40
0.0
  9
$USERR3
 40
0.0
  9
$USERR4
 40
0.0
  9
$USERR5
 40
0.0
  9
$WORLDVIEW
 70
     1
  9
$SHADEDGE
 70
     3
  9
$SHADEDIF
 70
    70
  9
$TILEMODE
 70
     1
  9
$MAXACTVP
 70
    16
  9
$PINSBASE
 10
0.0
 20
0.0
 30
0.0
  9
$PLIMCHECK
 70
     0
  9
$PEXTMIN
 10
1.0E20
 20
1.0E20
 30
1.0E20
  9
$PEXTMAX
 10
-1.0E20
 20
-1.0E20
 30
-1.0E20
  9
$PLIMMIN
 10
0.0
 20
0.0
  9
$PLIMMAX
 10
12.0
 20
9.0
  9
$UNITMODE
 70
     0
  9
$VISRETAIN
 70
     0
  0
ENDSEC
  0
SECTION
  2
TABLES
  0
TABLE
  2
VPORT
 70
     1
  0
VPORT
  2
*ACTIVE
 70
     0
 10
0.0
 20
0.0
 11
1.0
 21
1.0
 12
6.801242
 22
4.5
 13
0.0
 23
0.0
 14
1.0
 24
1.0
 15
0.0
 25
0.0
 16
0.0
 26
0.0
 36
1.0
 17
0.0
 27
0.0
 37
0.0
 40
9.0
 41
1.511387
 42
50.0
 43
0.0
 44
0.0
 50
0.0
 51
0.0
 71
     0
 72
   100
 73
     1
 74
     1
 75
     0
 76
     0
 77
     0
 78
     0
  0
ENDTAB
  0
TABLE
  2
LTYPE
 70
    41
  0
LTYPE
  2
BYBLOCK
 70
     0
  3

 72
    65
 73
     0
 40
0.0
  0
LTYPE
  2
BYLAYER
 70
     0
  3

 72
    65
 73
     0
 40
0.0
  0
LTYPE
  2
CONTINUOUS
 70
     0
  3
Solid line
 72
    65
 73
     0
 40
0.0
  0
LTYPE
  2
BORDER
 70
    64
  3
__ __ . __ __ . __ __ . __ __ . __ __ . __ __ .
 72
    65
 73
     6
 40
1.75
 49
0.5
 49
-0.25
 49
0.5
 49
-0.25
 49
0.0
 49
-0.25
  0
LTYPE
  2
BORDER2
 70
    64
  3
__.__.__.__.__.__.__.__.__.__.__.__.__.__.__.__
 72
    65
 73
     6
 40
0.875
 49
0.25
 49
-0.125
 49
0.25
 49
-0.125
 49
0.0
 49
-0.125
  0
LTYPE
  2
BORDERX2
 70
    64
  3
____  ____  .  ____  ____  .  ____  ____  .  __
 72
    65
 73
     6
 40
3.5
 49
1.0
 49
-0.5
 49
1.0
 49
-0.5
 49
0.0
 49
-0.5
  0
LTYPE
  2
CENTER
 70
    64
  3
____ _ ____ _ ____ _ ____ _ ____ _ ____ _ ____
 72
    65
 73
     4
 40
2.0
 49
1.25
 49
-0.25
 49
0.25
 49
-0.25
  0
LTYPE
  2
CENTER2
 70
    64
  3
___ _ ___ _ ___ _ ___ _ ___ _ ___ _ ___ _ ___ _
 72
    65
 73
     4
 40
1.125
 49
0.75
 49
-0.125
 49
0.125
 49
-0.125
  0
LTYPE
  2
CENTERX2
 70
    64
  3
________  __  ________  __  ________  __  _____
 72
    65
 73
     4
 40
4.0
 49
2.5
 49
-0.5
 49
0.5
 49
-0.5
  0
LTYPE
  2
DASHDOT
 70
    64
  3
__ . __ . __ . __ . __ . __ . __ . __ . __ . __
 72
    65
 73
     4
 40
1.0
 49
0.5
 49
-0.25
 49
0.0
 49
-0.25
  0
LTYPE
  2
DASHDOT2
 70
    64
  3
_._._._._._._._._._._._._._._._._._._._._._._._
 72
    65
 73
     4
 40
0.5
 49
0.25
 49
-0.125
 49
0.0
 49
-0.125
  0
LTYPE
  2
DASHDOTX2
 70
    64
  3
____  .  ____  .  ____  .  ____  .  ____  .  __
 72
    65
 73
     4
 40
2.0
 49
1.0
 49
-0.5
 49
0.0
 49
-0.5
  0
LTYPE
  2
DASHED
 70
    64
  3
__ __ __ __ __ __ __ __ __ __ __ __ __ __ __ __
 72
    65
 73
     2
 40
0.75
 49
0.5
 49
-0.25
  0
LTYPE
  2
DASHED2
 70
    64
  3
_ _ _ _ _ _ _ _ _ _ _ _ _ _ _ _ _ _ _ _ _ _ _ _
 72
    65
 73
     2
 40
0.375
 49
0.25
 49
-0.125
  0
LTYPE
  2
DASHEDX2
 70
    64
  3
____  ____  ____  ____  ____  ____  ____  ____
 72
    65
 73
     2
 40
1.5
 49
1.0
 49
-0.5
  0
LTYPE
  2
DIVIDE
 70
    64
  3
____ . . ____ . . ____ . . ____ . . ____ . . __
 72
    65
 73
     6
 40
1.25
 49
0.5
 49
-0.25
 49
0.0
 49
-0.25
 49
0.0
 49
-0.25
  0
LTYPE
  2
DIVIDE2
 70
    64
  3
__..__..__..__..__..__..__..__..__..__..__..__.
 72
    65
 73
     6
 40
0.625
 49
0.25
 49
-0.125
 49
0.0
 49
-0.125
 49
0.0
 49
-0.125
  0
LTYPE
  2
DIVIDEX2
 70
    64
  3
________  .  .  ________  .  .  ________  .  .
 72
    65
 73
     6
 40
2.5
 49
1.0
 49
-0.5
 49
0.0
 49
-0.5
 49
0.0
 49
-0.5
  0
LTYPE
  2
DOT
 70
    64
  3
. . . . . . . . . . . . . . . . . . . . . . . .
 72
    65
 73
     2
 40
0.25
 49
0.0
 49
-0.25
  0
LTYPE
  2
DOT2
 70
    64
  3
...............................................
 72
    65
 73
     2
 40
0.125
 49
0.0
 49
-0.125
  0
LTYPE
  2
DOTX2
 70
    64
  3
.  .  .  .  .  .  .  .  .  .  .  .  .  .  .  .
 72
    65
 73
     2
 40
0.5
 49
0.0
 49
-0.5
  0
LTYPE
  2
HIDDEN
 70
    64
  3
__ __ __ __ __ __ __ __ __ __ __ __ __ __ __ __
 72
    65
 73
     2
 40
0.375
 49
0.25
 49
-0.125
  0
LTYPE
  2
HIDDEN2
 70
    64
  3
_ _ _ _ _ _ _ _ _ _ _ _ _ _ _ _ _ _ _ _ _ _ _ _
 72
    65
 73
     2
 40
0.1875
 49
0.125
 49
-0.0625
  0
LTYPE
  2
HIDDENX2
 70
    64
  3
____ ____ ____ ____ ____ ____ ____ ____ ____ __
 72
    65
 73
     2
 40
0.75
 49
0.5
 49
-0.25
  0
LTYPE
  2
PHANTOM
 70
    64
  3
______  __  __  ______  __  __  ______  __  __
 72
    65
 73
     6
 40
2.5
 49
1.25
 49
-0.25
 49
0.25
 49
-0.25
 49
0.25
 49
-0.25
  0
LTYPE
  2
PHANTOM2
 70
    64
  3
___ _ _ ___ _ _ ___ _ _ ___ _ _ ___ _ _ ___ _ _
 72
    65
 73
     6
 40
1.25
 49
0.625
 49
-0.125
 49
0.125
 49
-0.125
 49
0.125
 49
-0.125
  0
LTYPE
  2
PHANTOMX2
 70
    64
  3
____________    ____    ____    ____________
 72
    65
 73
     6
 40
5.0
 49
2.5
 49
-0.5
 49
0.5
 49
-0.5
 49
0.5
 49
-0.5
  0
LTYPE
  2
ACAD_ISO02W100
 70
    64
  3
__ __ __ __ __ __ __ __ __ __ __ __ __ __ __ __
 72
    65
 73
     2
 40
15.0
 49
12.0
 49
-3.0
  0
LTYPE
  2
ACAD_ISO03W100
 70
    64
  3
__    __    __    __    __    __    __    __
 72
    65
 73
     2
 40
30.0
 49
12.0
 49
-18.0
  0
LTYPE
  2
ACAD_ISO04W100
 70
    64
  3
____ . ____ . ____ . ____ . ____ . ____ . ____
 72
    65
 73
     4
 40
30.5
 49
24.0
 49
-3.0
 49
0.5
 49
-3.0
  0
LTYPE
  2
ACAD_ISO05W100
 70
    64
  3
____ .. ____ .. ____ .. ____ .. ____ .. ____ ..
 72
    65
 73
     6
 40
34.0
 49
24.0
 49
-3.0
 49
0.5
 49
-3.0
 49
0.5
 49
-3.0
  0
LTYPE
  2
ACAD_ISO06W100
 70
    64
  3
____ ... ____ ... ____ ... ____ ... ____ ... __
 72
    65
 73
     8
 40
37.5
 49
24.0
 49
-3.0
 49
0.5
 49
-3.0
 49
0.5
 49
-3.0
 49
0.5
 49
-3.0
  0
LTYPE
  2
ACAD_ISO07W100
 70
    64
  3
. . . . . . . . . . . . . . . . . . . . . . . .
 72
    65
 73
     2
 40
3.5
 49
0.5
 49
-3.0
  0
LTYPE
  2
ACAD_ISO08W100
 70
    64
  3
____ __ ____ __ ____ __ ____ ____ __ __ ____ __
 72
    65
 73
     4
 40
36.0
 49
24.0
 49
-3.0
 49
6.0
 49
-3.0
  0
LTYPE
  2
ACAD_ISO09W100
 70
    64
  3
____ __ __ ____ __ __ ____ __ __ ____ __ __ ___
 72
    65
 73
     6
 40
45.0
 49
24.0
 49
-3.0
 49
6.0
 49
-3.0
 49
6.0
 49
-3.0
  0
LTYPE
  2
ACAD_ISO10W100
 70
    64
  3
__ . __ . __ . __ . __ . __ . __ . __ . __ . __
 72
    65
 73
     4
 40
18.5
 49
12.0
 49
-3.0
 49
0.5
 49
-3.0
  0
LTYPE
  2
ACAD_ISO11W100
 70
    64
  3
__ __ . __ __ . __ __ . __ __ . __ __ . __ __ .
 72
    65
 73
     6
 40
33.5
 49
12.0
 49
-3.0
 49
12.0
 49
-3.0
 49
0.5
 49
-3.0
  0
LTYPE
  2
ACAD_ISO12W100
 70
    64
  3
__ . . __ . . __ . . __ . . __ . . __ . . __ .
 72
    65
 73
     6
 40
22.0
 49
12.0
 49
-3.0
 49
0.5
 49
-3.0
 49
0.5
 49
-3.0
  0
LTYPE
  2
ACAD_ISO13W100
 70
    64
  3
__ __ . . __ __ . . __ __ . . __ __ . . __ __ .
 72
    65
 73
     8
 40
37.0
 49
12.0
 49
-3.0
 49
12.0
 49
-3.0
 49
0.5
 49
-3.0
 49
0.5
 49
-3.0
  0
LTYPE
  2
ACAD_ISO14W100
 70
    64
  3
__ . . . __ . . . __ . . . __ . . . __ . . . __
 72
    65
 73
     8
 40
25.5
 49
12.0
 49
-3.0
 49
0.5
 49
-3.0
 49
0.5
 49
-3.0
 49
0.5
 49
-3.0
  0
LTYPE
  2
ACAD_ISO15W100
 70
    64
  3
__ __ . . . __ __ . . . __ __ . . . __ __ . . .
 72
    65
 73
    10
 40
40.5
 49
12.0
 49
-3.0
 49
12.0
 49
-3.0
 49
0.5
 49
-3.0
 49
0.5
 49
-3.0
 49
0.5
 49
-3.0
  0
ENDTAB
  0
TABLE
  2
STYLE
 70
     4
  0
STYLE
  2
STANDARD
 70
    64
 40
0.0
 41
1.0
 50
0.0
 71
     0
 42
0.2
  3
txt
  4

  0
STYLE
  2
TOLERANCE
 70
    64
 40
0.0
 41
1.0
 50
0.0
 71
     0
 42
0.2
  3
../igesfont/iges1003.shx
  4

  0
STYLE
  2
ROMANS
 70
    64
 40
0.0
 41
1.0
 50
0.0
 71
     0
 42
0.2
  3
romans.shx
  4

  0
STYLE
  2
ROMANC
 70
    64
 40
0.0
 41
1.0
 50
0.0
 71
     0
 42
0.2
  3
romanc.shx
  4

  0
ENDTAB
  0
TABLE
  2
DIMSTYLE
 70
     2
  0
DIMSTYLE
  2
UNNAMED
 70
     0
  3

  4

  5

  6

  7

 40
1.0
 41
0.18
 42
0.0625
 43
0.38
 44
0.18
 45
0.0
 46
0.0
 47
0.0
 48
0.0
140
0.18
141
0.09
142
0.0
143
25.4
144
1.0
145
0.0
146
1.0
147
0.09
 71
     0
 72
     0
 73
     1
 74
     1
 75
     0
 76
     0
 77
     0
 78
     0
170
     0
171
     2
172
     0
173
     0
174
     0
175
     0
176
     0
177
     0
178
     0
  0
DIMSTYLE
  2
STANDARD
 70
     0
  3

  4

  5

  6

  7

 40
1.0
 41
0.18
 42
0.0625
 43
0.38
 44
0.18
 45
0.0
 46
0.0
 47
0.0
 48
0.0
140
0.18
141
0.09
142
0.0
143
25.4
144
1.0
145
0.0
146
1.0
147
0.09
 71
     0
 72
     0
 73
     1
 74
     1
 75
     0
 76
     0
 77
     0
 78
     0
170
     0
171
     2
172
     0
173
     0
174
     0
175
     0
176
     0
177
     0
178
     0
  0
ENDTAB
  0
TABLE
  2
LAYER
 70
     2
  0
LAYER
  2
0
 70
     0
 62
     7
  6
CONTINUOUS
  0
LAYER
  2
255
 70
     0
 62
     7
  6
CONTINUOUS
  0
ENDTAB
  0
ENDSEC
  0
SECTION
  2
BLOCKS
  0
BLOCK
  5
     B
  8
0
  6
CONTINUOUS
 62
     7
  2
*UDIM1545
 70
    65
 10
0.0
 20
0.0
 30
0.0
  3
*UDIM1545
  0
TEXT
  5
     C
  8
0
  6
CONTINUOUS
 62
     7
 10
-673.505244752975
 20
-116.562360973594
 30
0.0
 40
2.99999994933605
  1
105,25
 50
449.999999896069
 41
0.933333333333333
 72
     1
 11
-675.005244713001
 21
-108.462361107675
 31
0.0
 73
     2
  0
LINE
  5
     D
  8
0
  6
CONTINUOUS
 62
     7
 10
-666.828008457325
 20
-97.5685207992792
 30
0.0
 11
-674.505244738332
 21
-97.5685207992792
 31
0.0
  0
LINE
  5
     E
  8
0
  6
CONTINUOUS
 62
     7
 10
-671.550019890137
 20
-118.618521112949
 30
0.0
 11
-674.505244738332
 21
-118.618521112949
 31
0.0
  0
LINE
  5
     F
  8
0
  6
CONTINUOUS
 62
     7
 10
-672.505244738332
 20
-97.5685207992792
 30
0.0
 11
-672.505244738332
 21
-118.618521112949
 31
0.0
  0
LINE
  5
    10
  8
0
  6
CONTINUOUS
 62
     7
 10
-671.984300308381
 20
-100.522944076486
 30
0.0
 11
-672.505244738332
 21
-97.5685207992792
 31
0.0
  0
LINE
  5
    11
  8
0
  6
CONTINUOUS
 62
     7
 10
-672.505244738332
 20
-97.5685207992792
 30
0.0
 11
-673.026189168284
 21
-100.522944076486
 31
0.0
  0
LINE
  5
    12
  8
0
  6
CONTINUOUS
 62
     7
 10
-673.026189168284
 20
-115.664097835742
 30
0.0
 11
-672.505244738332
 21
-118.618521112949
 31
0.0
  0
LINE
  5
    13
  8
0
  6
CONTINUOUS
 62
     7
 10
-672.505244738332
 20
-118.618521112949
 30
0.0
 11
-671.984300308381
 21
-115.664097835742
 31
0.0
  0
ENDBLK
  5
    14
  8
0
  6
CONTINUOUS
 62
     7
  0
BLOCK
  5
    15
  8
0
  6
CONTINUOUS
 62
     7
  2
*UDIM1546
 70
    65
 10
0.0
 20
0.0
 30
0.0
  3
*UDIM1546
  0
TEXT
  5
    16
  8
0
  6
CONTINUOUS
 62
     7
 10
-638.376211121547
 20
-108.447067106742
 30
0.0
 40
2.99999994933605
  1
43,75
 50
359.999999896069
 41
0.933333333333333
 72
     1
 11
-631.676211231983
 21
-106.947067144193
 31
0.0
 73
     2
  0
LINE
  5
    17
  8
0
  6
CONTINUOUS
 62
     7
 10
-624.976211345133
 20
-109.447067118861
 30
0.0
 11
-657.248779362068
 21
-109.447067118861
 31
0.0
  0
LINE
  5
    18
  8
0
  6
CONTINUOUS
 62
     7
 10
-651.453202508889
 20
-109.968011548813
 30
0.0
 11
-648.498779231683
 21
-109.447067118861
 31
0.0
  0
LINE
  5
    19
  8
0
  6
CONTINUOUS
 62
     7
 10
-648.498779231683
 20
-109.447067118861
 30
0.0
 11
-651.453202508889
 21
-108.92612268891
 31
0.0
  0
LINE
  5
    1A
  8
0
  6
CONTINUOUS
 62
     7
 10
-654.294356084861
 20
-108.92612268891
 30
0.0
 11
-657.248779362068
 21
-109.447067118861
 31
0.0
  0
LINE
  5
    1B
  8
0
  6
CONTINUOUS
 62
     7
 10
-657.248779362068
 20
-109.447067118861
 30
0.0
 11
-654.294356084861
 21
-109.968011548813
 31
0.0
  0
ENDBLK
  5
    1C
  8
0
  6
CONTINUOUS
 62
     7
  0
BLOCK
  5
    1D
  8
0
  6
CONTINUOUS
 62
     7
  2
*UDIM1547
 70
    65
 10
0.0
 20
0.0
 30
0.0
  3
*UDIM1547
  0
TEXT
  5
    1E
  8
0
  6
CONTINUOUS
 62
     7
 10
-640.770911353514
 20
-90.7126972878308
 30
0.0
 40
2.99999994933605
  1
5,5
 50
396.023130972505
 41
0.933333333333333
 72
     1
 11
-638.498838545259
 21
-87.205891823557
 31
0.0
 73
     2
  0
TEXT
  5
    1F
  8
0
  6
CONTINUOUS
 62
     7
 10
-643.318567150526
 20
-92.5652494816384
 30
0.0
 40
2.99999994933605
  1
Ø
 50
396.023130972505
 41
0.933333333333333
 72
     1
 11
-643.31107727561
 21
-90.7051570686361
 31
0.0
 73
     2
  0
TEXT
  5
    20
  8
0
  6
CONTINUOUS
 62
     7
 10
-634.017601529156
 20
-85.8019636954361
 30
0.0
 40
2.99999994933605
  1
 - M5
 50
396.023130972505
 41
0.933333333333333
 72
     1
 11
-629.480945787562
 21
-80.6484451798907
 31
0.0
 73
     2
  0
LINE
  5
    21
  8
0
  6
CONTINUOUS
 62
     7
 10
-622.591842823404
 20
-78.7300451417436
 30
0.0
 11
-648.943608035716
 21
-97.8919823025803
 31
0.0
  0
LINE
  5
    22
  8
0
  6
CONTINUOUS
 62
     7
 10
-645.97084663222
 20
-95.0861988147367
 30
0.0
 11
-648.053950427649
 21
-97.2450592959781
 31
0.0
  0
LINE
  5
    23
  8
0
  6
CONTINUOUS
 62
     7
 10
-648.053950427649
 20
-97.2450592959781
 30
0.0
 11
-645.358099483356
 21
-95.928857303064
 31
0.0
  0
LINE
  5
    24
  8
0
  6
CONTINUOUS
 62
     7
 10
-651.026711831145
 20
-100.050842783822
 30
0.0
 11
-648.943608035716
 21
-97.8919823025803
 31
0.0
  0
LINE
  5
    25
  8
0
  6
CONTINUOUS
 62
     7
 10
-648.943608035716
 20
-97.8919823025803
 30
0.0
 11
-651.639458980009
 21
-99.2081842954945
 31
0.0
  0
ENDBLK
  5
    26
  8
0
  6
CONTINUOUS
 62
     7
  0
BLOCK
  5
    27
  8
0
  6
CONTINUOUS
 62
     7
  2
*UDIM1548
 70
    65
 10
0.0
 20
0.0
 30
0.0
  3
*UDIM1548
  0
TEXT
  5
    28
  8
0
  6
CONTINUOUS
 62
     7
 10
-679.485931785185
 20
-123.143520731408
 30
0.0
 40
2.99999994933605
  1
214
 50
449.999999896069
 41
0.933333333333333
 72
     1
 11
-680.985931752803
 21
-119.243520794559
 31
0.0
 73
     2
  0
LINE
  5
    29
  8
0
  6
CONTINUOUS
 62
     7
 10
-666.828008457325
 20
-97.5685197541549
 30
0.0
 11
-680.485931778134
 21
-97.5685054799276
 31
0.0
  0
LINE
  5
    2A
  8
0
  6
CONTINUOUS
 62
     7
 10
-669.327384161676
 20
-140.36852005557
 30
0.0
 11
-680.485931778133
 21
-140.368504640276
 31
0.0
  0
LINE
  5
    2B
  8
0
  6
CONTINUOUS
 62
     7
 10
-678.485931778135
 20
-97.5685075701761
 30
0.0
 11
-678.485931778135
 21
-140.368507403233
 31
0.0
  0
LINE
  5
    2C
  8
0
  6
CONTINUOUS
 62
     7
 10
-677.964987348184
 20
-100.522930847383
 30
0.0
 11
-678.485931778135
 21
-97.5685075701761
 31
0.0
  0
LINE
  5
    2D
  8
0
  6
CONTINUOUS
 62
     7
 10
-678.485931778135
 20
-97.5685075701761
 30
0.0
 11
-679.006876208087
 21
-100.522930847383
 31
0.0
  0
LINE
  5
    2E
  8
0
  6
CONTINUOUS
 62
     7
 10
-679.006876208087
 20
-137.414084126026
 30
0.0
 11
-678.485931778135
 21
-140.368507403233
 31
0.0
  0
LINE
  5
    2F
  8
0
  6
CONTINUOUS
 62
     7
 10
-678.485931778135
 20
-140.368507403233
 30
0.0
 11
-677.964987348184
 21
-137.414084126026
 31
0.0
  0
ENDBLK
  5
    30
  8
0
  6
CONTINUOUS
 62
     7
  0
BLOCK
  5
    31
  8
0
  6
CONTINUOUS
 62
     7
  2
*HATCH1079
 70
    65
 10
0.0
 20
0.0
 30
0.0
  3
*HATCH1079
  0
LINE
  5
    32
  8
0
  6
CONTINUOUS
 62
   210
 10
222.237121582031
 20
-22.8331680297852
 30
0.0
 11
224.403930664063
 21
-24.9999752044678
 31
0.0
  0
LINE
  5
    33
  8
0
  6
CONTINUOUS
 62
   210
 10
223.646575927734
 20
-19.9999771118164
 30
0.0
 11
227.237075805664
 21
-23.5904788970947
 31
0.0
  0
ENDBLK
  5
    34
  8
0
  6
CONTINUOUS
 62
     7
  0
BLOCK
  5
    35
  8
0
  6
CONTINUOUS
 62
     7
  2
*HATCH1080
 70
    65
 10
0.0
 20
0.0
 30
0.0
  3
*HATCH1080
  0
LINE
  5
    36
  8
0
  6
CONTINUOUS
 62
   210
 10
204.102630615234
 20
-24.9999752044678
 30
0.0
 11
201.237121582031
 21
-27.8654766082764
 31
0.0
  0
LINE
  5
    37
  8
0
  6
CONTINUOUS
 62
   210
 10
205.237121582031
 20
-28.108118057251
 30
0.0
 11
201.237121582031
 21
-32.1081161499023
 31
0.0
  0
LINE
  5
    38
  8
0
  6
CONTINUOUS
 62
   210
 10
205.237121582031
 20
-32.350757598877
 30
0.0
 11
201.237121582031
 21
-36.3507537841797
 31
0.0
  0
LINE
  5
    39
  8
0
  6
CONTINUOUS
 62
   210
 10
205.237121582031
 20
-36.5933952331543
 30
0.0
 11
203.887817382813
 21
-37.9427146911621
 31
0.0
  0
ENDBLK
  5
    3A
  8
0
  6
CONTINUOUS
 62
     7
  0
BLOCK
  5
    3B
  8
0
  6
CONTINUOUS
 62
     7
  2
*HATCH1081
 70
    65
 10
0.0
 20
0.0
 30
0.0
  3
*HATCH1081
  0
LINE
  5
    3C
  8
0
  6
CONTINUOUS
 62
   210
 10
196.745849609375
 20
-22.797721862793
 30
0.0
 11
198.948104858398
 21
-24.9999752044678
 31
0.0
  0
LINE
  5
    3D
  8
0
  6
CONTINUOUS
 62
   210
 10
198.19075012207
 20
-19.9999771118164
 30
0.0
 11
203.190734863281
 21
-24.9999752044678
 31
0.0
  0
LINE
  5
    3E
  8
0
  6
CONTINUOUS
 62
   210
 10
202.433395385742
 20
-19.9999771118164
 30
0.0
 11
207.433380126953
 21
-24.9999752044678
 31
0.0
  0
LINE
  5
    3F
  8
0
  6
CONTINUOUS
 62
   210
 10
206.676040649414
 20
-19.9999771118164
 30
0.0
 11
211.676025390625
 21
-24.9999752044678
 31
0.0
  0
LINE
  5
    40
  8
0
  6
CONTINUOUS
 62
   210
 10
210.918670654297
 20
-19.9999771118164
 30
0.0
 11
212.237121582031
 21
-21.3184394836426
 31
0.0
  0
ENDBLK
  5
    41
  8
0
  6
CONTINUOUS
 62
     7
  0
BLOCK
  5
    42
  8
0
  6
CONTINUOUS
 62
     7
  2
*HATCH1082
 70
    65
 10
0.0
 20
0.0
 30
0.0
  3
*HATCH1082
  0
LINE
  5
    43
  8
0
  6
CONTINUOUS
 62
   210
 10
198.4345703125
 20
-13.6974716186523
 30
0.0
 11
196.745849609375
 21
-15.3861865997314
 31
0.0
  0
LINE
  5
    44
  8
0
  6
CONTINUOUS
 62
   210
 10
199.737075805664
 20
-16.6376056671143
 30
0.0
 11
196.745849609375
 21
-19.6288280487061
 31
0.0
  0
ENDBLK
  5
    45
  8
0
  6
CONTINUOUS
 62
     7
  0
BLOCK
  5
    46
  8
0
  6
CONTINUOUS
 62
     7
  2
*HATCH1083
 70
    65
 10
0.0
 20
0.0
 30
0.0
  3
*HATCH1083
  0
LINE
  5
    47
  8
0
  6
CONTINUOUS
 62
   210
 10
-10.7629241943359
 20
-21.0568885803223
 30
0.0
 11
-6.81984090805054
 21
-24.9999752044678
 31
0.0
  0
LINE
  5
    48
  8
0
  6
CONTINUOUS
 62
   210
 10
-7.57719612121582
 20
-19.9999771118164
 30
0.0
 11
-5.86297512054443
 21
-21.7141990661621
 31
0.0
  0
ENDBLK
  5
    49
  8
0
  6
CONTINUOUS
 62
     7
  0
BLOCK
  5
    4A
  8
0
  6
CONTINUOUS
 62
     7
  2
*HATCH1084
 70
    65
 10
0.0
 20
0.0
 30
0.0
  3
*HATCH1084
  0
LINE
  5
    4B
  8
0
  6
CONTINUOUS
 62
   210
 10
4.3370246887207
 20
-21.3076019287109
 30
0.0
 11
8.02939128875732
 21
-24.9999752044678
 31
0.0
  0
LINE
  5
    4C
  8
0
  6
CONTINUOUS
 62
   210
 10
7.27203750610352
 20
-19.9999771118164
 30
0.0
 11
12.2720289230347
 21
-24.9999752044678
 31
0.0
  0
LINE
  5
    4D
  8
0
  6
CONTINUOUS
 62
   210
 10
11.5146751403809
 20
-19.9999771118164
 30
0.0
 11
16.5146675109863
 21
-24.9999752044678
 31
0.0
  0
LINE
  5
    4E
  8
0
  6
CONTINUOUS
 62
   210
 10
15.7573137283325
 20
-19.9999771118164
 30
0.0
 11
19.7282981872559
 21
-23.9709663391113
 31
0.0
  0
ENDBLK
  5
    4F
  8
0
  6
CONTINUOUS
 62
     7
  0
BLOCK
  5
    50
  8
0
  6
CONTINUOUS
 62
     7
  2
*HATCH1085
 70
    65
 10
0.0
 20
0.0
 30
0.0
  3
*HATCH1085
  0
LINE
  5
    51
  8
0
  6
CONTINUOUS
 62
   210
 10
14.9705638885498
 20
-1.99999904632568
 30
0.0
 11
14.237024307251
 21
-2.73353862762451
 31
0.0
  0
LINE
  5
    52
  8
0
  6
CONTINUOUS
 62
   210
 10
18.237024307251
 20
-2.97617936134338
 30
0.0
 11
14.237024307251
 21
-6.9761791229248
 31
0.0
  0
LINE
  5
    53
  8
0
  6
CONTINUOUS
 62
   210
 10
18.237024307251
 20
-7.21882009506226
 30
0.0
 11
14.237024307251
 21
-11.2188205718994
 31
0.0
  0
LINE
  5
    54
  8
0
  6
CONTINUOUS
 62
   210
 10
18.237024307251
 20
-11.4614601135254
 30
0.0
 11
14.237024307251
 21
-15.461462020874
 31
0.0
  0
LINE
  5
    55
  8
0
  6
CONTINUOUS
 62
   210
 10
18.237024307251
 20
-15.7041015625
 30
0.0
 11
14.237024307251
 21
-19.7041034698486
 31
0.0
  0
LINE
  5
    56
  8
0
  6
CONTINUOUS
 62
   210
 10
18.237024307251
 20
-19.946741104126
 30
0.0
 11
18.1837902069092
 21
-19.9999771118164
 31
0.0
  0
ENDBLK
  5
    57
  8
0
  6
CONTINUOUS
 62
     7
  0
BLOCK
  5
    58
  8
0
  6
CONTINUOUS
 62
     7
  2
*HATCH1086
 70
    65
 10
0.0
 20
0.0
 30
0.0
  3
*HATCH1086
  0
LINE
  5
    59
  8
0
  6
CONTINUOUS
 62
   210
 10
15.237024307251
 20
-25.0680618286133
 30
0.0
 11
11.237024307251
 21
-29.0680618286133
 31
0.0
  0
LINE
  5
    5A
  8
0
  6
CONTINUOUS
 62
   210
 10
15.237024307251
 20
-29.3107032775879
 30
0.0
 11
11.237024307251
 21
-33.3107032775879
 31
0.0
  0
LINE
  5
    5B
  8
0
  6
CONTINUOUS
 62
   210
 10
15.237024307251
 20
-33.5533447265625
 30
0.0
 11
11.237024307251
 21
-37.5533409118652
 31
0.0
  0
LINE
  5
    5C
  8
0
  6
CONTINUOUS
 62
   210
 10
15.237024307251
 20
-37.7959823608398
 30
0.0
 11
11.7791585922241
 21
-41.253849029541
 31
0.0
  0
ENDBLK
  5
    5D
  8
0
  6
CONTINUOUS
 62
     7
  0
BLOCK
  5
    5E
  8
0
  6
CONTINUOUS
 62
     7
  2
*HATCH1087
 70
    65
 10
0.0
 20
0.0
 30
0.0
  3
*HATCH1087
  0
LINE
  5
    5F
  8
0
  6
CONTINUOUS
 62
    52
 10
187.863540649414
 20
-106.999984741211
 30
0.0
 11
185.863540649414
 21
-108.999984741211
 31
0.0
  0
LINE
  5
    60
  8
0
  6
CONTINUOUS
 62
    52
 10
192.106185913086
 20
-106.999984741211
 30
0.0
 11
190.106185913086
 21
-108.999984741211
 31
0.0
  0
LINE
  5
    61
  8
0
  6
CONTINUOUS
 62
    52
 10
196.348831176758
 20
-106.999984741211
 30
0.0
 11
194.348831176758
 21
-108.999984741211
 31
0.0
  0
LINE
  5
    62
  8
0
  6
CONTINUOUS
 62
    52
 10
200.59147644043
 20
-106.999984741211
 30
0.0
 11
198.59147644043
 21
-108.999984741211
 31
0.0
  0
LINE
  5
    63
  8
0
  6
CONTINUOUS
 62
    52
 10
204.834121704102
 20
-106.999984741211
 30
0.0
 11
202.834121704102
 21
-108.999984741211
 31
0.0
  0
LINE
  5
    64
  8
0
  6
CONTINUOUS
 62
    52
 10
209.076766967773
 20
-106.999984741211
 30
0.0
 11
207.076766967773
 21
-108.999984741211
 31
0.0
  0
LINE
  5
    65
  8
0
  6
CONTINUOUS
 62
    52
 10
213.319412231445
 20
-106.999984741211
 30
0.0
 11
211.319412231445
 21
-108.999984741211
 31
0.0
  0
LINE
  5
    66
  8
0
  6
CONTINUOUS
 62
    52
 10
217.562057495117
 20
-106.999984741211
 30
0.0
 11
215.562057495117
 21
-108.999984741211
 31
0.0
  0
LINE
  5
    67
  8
0
  6
CONTINUOUS
 62
    52
 10
221.804702758789
 20
-106.999984741211
 30
0.0
 11
219.804702758789
 21
-108.999984741211
 31
0.0
  0
LINE
  5
    68
  8
0
  6
CONTINUOUS
 62
    52
 10
226.047348022461
 20
-106.999984741211
 30
0.0
 11
224.047348022461
 21
-108.999984741211
 31
0.0
  0
LINE
  5
    69
  8
0
  6
CONTINUOUS
 62
    52
 10
230.289993286133
 20
-106.999984741211
 30
0.0
 11
228.289993286133
 21
-108.999984741211
 31
0.0
  0
LINE
  5
    6A
  8
0
  6
CONTINUOUS
 62
    52
 10
234.532638549805
 20
-106.999984741211
 30
0.0
 11
232.532638549805
 21
-108.999984741211
 31
0.0
  0
LINE
  5
    6B
  8
0
  6
CONTINUOUS
 62
    52
 10
238.775283813477
 20
-106.999984741211
 30
0.0
 11
236.775283813477
 21
-108.999984741211
 31
0.0
  0
LINE
  5
    6C
  8
0
  6
CONTINUOUS
 62
    52
 10
243.017929077148
 20
-106.999984741211
 30
0.0
 11
241.017929077148
 21
-108.999984741211
 31
0.0
  0
LINE
  5
    6D
  8
0
  6
CONTINUOUS
 62
    52
 10
247.26057434082
 20
-106.999984741211
 30
0.0
 11
245.26057434082
 21
-108.999984741211
 31
0.0
  0
LINE
  5
    6E
  8
0
  6
CONTINUOUS
 62
    52
 10
251.503219604492
 20
-106.999984741211
 30
0.0
 11
249.503219604492
 21
-108.999984741211
 31
0.0
  0
LINE
  5
    6F
  8
0
  6
CONTINUOUS
 62
    52
 10
255.745864868164
 20
-106.999984741211
 30
0.0
 11
253.745864868164
 21
-108.999984741211
 31
0.0
  0
LINE
  5
    70
  8
0
  6
CONTINUOUS
 62
    52
 10
259.281341552734
 20
-107.707077026367
 30
0.0
 11
257.988433837891
 21
-108.999984741211
 31
0.0
  0
ENDBLK
  5
    71
  8
0
  6
CONTINUOUS
 62
     7
  0
BLOCK
  5
    72
  8
0
  6
CONTINUOUS
 62
     7
  2
*HATCH1088
 70
    65
 10
0.0
 20
0.0
 30
0.0
  3
*HATCH1088
  0
LINE
  5
    73
  8
0
  6
CONTINUOUS
 62
    52
 10
168.771667480469
 20
-106.999984741211
 30
0.0
 11
166.771667480469
 21
-108.999984741211
 31
0.0
  0
LINE
  5
    74
  8
0
  6
CONTINUOUS
 62
    52
 10
173.014312744141
 20
-106.999984741211
 30
0.0
 11
171.014312744141
 21
-108.999984741211
 31
0.0
  0
LINE
  5
    75
  8
0
  6
CONTINUOUS
 62
    52
 10
177.256958007812
 20
-106.999984741211
 30
0.0
 11
175.256958007813
 21
-108.999984741211
 31
0.0
  0
ENDBLK
  5
    76
  8
0
  6
CONTINUOUS
 62
     7
  0
BLOCK
  5
    77
  8
0
  6
CONTINUOUS
 62
     7
  2
*HATCH1089
 70
    65
 10
0.0
 20
0.0
 30
0.0
  3
*HATCH1089
  0
LINE
  5
    78
  8
0
  6
CONTINUOUS
 62
    52
 10
45.7350769042969
 20
-106.999984741211
 30
0.0
 11
43.7350769042969
 21
-108.999984741211
 31
0.0
  0
LINE
  5
    79
  8
0
  6
CONTINUOUS
 62
    52
 10
49.9777145385742
 20
-106.999984741211
 30
0.0
 11
47.9777145385742
 21
-108.999984741211
 31
0.0
  0
LINE
  5
    7A
  8
0
  6
CONTINUOUS
 62
    52
 10
53.9806251525879
 20
-107.239715576172
 30
0.0
 11
52.2203598022461
 21
-108.999984741211
 31
0.0
  0
ENDBLK
  5
    7B
  8
0
  6
CONTINUOUS
 62
     7
  0
BLOCK
  5
    7C
  8
0
  6
CONTINUOUS
 62
     7
  2
*HATCH1090
 70
    65
 10
0.0
 20
0.0
 30
0.0
  3
*HATCH1090
  0
LINE
  5
    7D
  8
0
  6
CONTINUOUS
 62
    52
 10
-41.2390594482422
 20
-106.999984741211
 30
0.0
 11
-43.2390594482422
 21
-108.999984741211
 31
0.0
  0
LINE
  5
    7E
  8
0
  6
CONTINUOUS
 62
    52
 10
-36.9964218139648
 20
-106.999984741211
 30
0.0
 11
-38.9964218139648
 21
-108.999984741211
 31
0.0
  0
LINE
  5
    7F
  8
0
  6
CONTINUOUS
 62
    52
 10
-32.7537841796875
 20
-106.999984741211
 30
0.0
 11
-34.7537841796875
 21
-108.999984741211
 31
0.0
  0
LINE
  5
    80
  8
0
  6
CONTINUOUS
 62
    52
 10
-28.5111427307129
 20
-106.999984741211
 30
0.0
 11
-30.5111446380615
 21
-108.999984741211
 31
0.0
  0
LINE
  5
    81
  8
0
  6
CONTINUOUS
 62
    52
 10
-24.2685012817383
 20
-106.999984741211
 30
0.0
 11
-26.2685031890869
 21
-108.999984741211
 31
0.0
  0
LINE
  5
    82
  8
0
  6
CONTINUOUS
 62
    52
 10
-20.0258598327637
 20
-106.999984741211
 30
0.0
 11
-22.0258617401123
 21
-108.999984741211
 31
0.0
  0
LINE
  5
    83
  8
0
  6
CONTINUOUS
 62
    52
 10
-15.7832183837891
 20
-106.999984741211
 30
0.0
 11
-17.7832202911377
 21
-108.999984741211
 31
0.0
  0
LINE
  5
    84
  8
0
  6
CONTINUOUS
 62
    52
 10
-11.5405769348145
 20
-106.999984741211
 30
0.0
 11
-13.5405788421631
 21
-108.999984741211
 31
0.0
  0
LINE
  5
    85
  8
0
  6
CONTINUOUS
 62
    52
 10
-7.297935962677
 20
-106.999984741211
 30
0.0
 11
-9.29793739318848
 21
-108.999984741211
 31
0.0
  0
LINE
  5
    86
  8
0
  6
CONTINUOUS
 62
    52
 10
-3.05529546737671
 20
-106.999984741211
 30
0.0
 11
-5.05529689788818
 21
-108.999984741211
 31
0.0
  0
LINE
  5
    87
  8
0
  6
CONTINUOUS
 62
    52
 10
1.18734502792358
 20
-106.999984741211
 30
0.0
 11
-0.812656402587891
 21
-108.999984741211
 31
0.0
  0
LINE
  5
    88
  8
0
  6
CONTINUOUS
 62
    52
 10
5.42998552322388
 20
-106.999984741211
 30
0.0
 11
3.4299840927124
 21
-108.999984741211
 31
0.0
  0
LINE
  5
    89
  8
0
  6
CONTINUOUS
 62
    52
 10
9.67262649536133
 20
-106.999984741211
 30
0.0
 11
7.6726245880127
 21
-108.999984741211
 31
0.0
  0
LINE
  5
    8A
  8
0
  6
CONTINUOUS
 62
    52
 10
13.9152679443359
 20
-106.999984741211
 30
0.0
 11
11.9152660369873
 21
-108.999984741211
 31
0.0
  0
LINE
  5
    8B
  8
0
  6
CONTINUOUS
 62
    52
 10
18.1579093933105
 20
-106.999984741211
 30
0.0
 11
16.1579074859619
 21
-108.999984741211
 31
0.0
  0
LINE
  5
    8C
  8
0
  6
CONTINUOUS
 62
    52
 10
22.4005508422852
 20
-106.999984741211
 30
0.0
 11
20.4005489349365
 21
-108.999984741211
 31
0.0
  0
LINE
  5
    8D
  8
0
  6
CONTINUOUS
 62
    52
 10
26.6431922912598
 20
-106.999984741211
 30
0.0
 11
24.6431903839111
 21
-108.999984741211
 31
0.0
  0
LINE
  5
    8E
  8
0
  6
CONTINUOUS
 62
    52
 10
30.8858337402344
 20
-106.999984741211
 30
0.0
 11
28.8858318328857
 21
-108.999984741211
 31
0.0
  0
LINE
  5
    8F
  8
0
  6
CONTINUOUS
 62
    52
 10
35.1284713745117
 20
-106.999984741211
 30
0.0
 11
33.1284713745117
 21
-108.999984741211
 31
0.0
  0
ENDBLK
  5
    90
  8
0
  6
CONTINUOUS
 62
     7
  0
BLOCK
  5
    91
  8
0
  6
CONTINUOUS
 62
   212
  2
*HATCH1091
 70
    65
 10
0.0
 20
0.0
 30
0.0
  3
*HATCH1091
  0
LINE
  5
    92
  8
0
  6
CONTINUOUS
 62
     3
 10
25.5903835296631
 20
229.237121582031
 30
0.0
 11
24.9999752044678
 21
228.646713256836
 31
0.0
  0
LINE
  5
    93
  8
0
  6
CONTINUOUS
 62
     3
 10
26.6510429382324
 20
229.237121582031
 30
0.0
 11
24.9999752044678
 21
227.586059570313
 31
0.0
  0
LINE
  5
    94
  8
0
  6
CONTINUOUS
 62
     3
 10
27.7117023468018
 20
229.237121582031
 30
0.0
 11
24.9999752044678
 21
226.525405883789
 31
0.0
  0
LINE
  5
    95
  8
0
  6
CONTINUOUS
 62
     3
 10
27.9999752044678
 20
228.464736938477
 30
0.0
 11
24.9999752044678
 21
225.464736938477
 31
0.0
  0
LINE
  5
    96
  8
0
  6
CONTINUOUS
 62
     3
 10
27.9999752044678
 20
227.404083251953
 30
0.0
 11
24.9999752044678
 21
224.404083251953
 31
0.0
  0
LINE
  5
    97
  8
0
  6
CONTINUOUS
 62
     3
 10
27.9999752044678
 20
226.34342956543
 30
0.0
 11
24.9999752044678
 21
223.34342956543
 31
0.0
  0
LINE
  5
    98
  8
0
  6
CONTINUOUS
 62
     3
 10
27.9999752044678
 20
225.282760620117
 30
0.0
 11
25.0860538482666
 21
222.368835449219
 31
0.0
  0
LINE
  5
    99
  8
0
  6
CONTINUOUS
 62
     3
 10
27.9999752044678
 20
224.222091674805
 30
0.0
 11
25.3022117614746
 21
221.524337768555
 31
0.0
  0
LINE
  5
    9A
  8
0
  6
CONTINUOUS
 62
     3
 10
27.9999752044678
 20
223.161437988281
 30
0.0
 11
25.809118270874
 21
220.970581054687
 31
0.0
  0
LINE
  5
    9B
  8
0
  6
CONTINUOUS
 62
     3
 10
28.0257816314697
 20
222.126586914063
 30
0.0
 11
26.4221134185791
 21
220.522918701172
 31
0.0
  0
LINE
  5
    9C
  8
0
  6
CONTINUOUS
 62
     3
 10
28.8005409240723
 20
221.840682983398
 30
0.0
 11
27.2074432373047
 21
220.247589111328
 31
0.0
  0
LINE
  5
    9D
  8
0
  6
CONTINUOUS
 62
     3
 10
29.5403881072998
 20
221.519866943359
 30
0.0
 11
28.0305690765381
 21
220.010055541992
 31
0.0
  0
LINE
  5
    9E
  8
0
  6
CONTINUOUS
 62
     3
 10
30.1387367248535
 20
221.057556152344
 30
0.0
 11
28.7168731689453
 21
219.635696411133
 31
0.0
  0
LINE
  5
    9F
  8
0
  6
CONTINUOUS
 62
     3
 10
30.7056198120117
 20
220.563781738281
 30
0.0
 11
29.2867774963379
 21
219.144943237305
 31
0.0
  0
LINE
  5
    A0
  8
0
  6
CONTINUOUS
 62
     3
 10
31.1412200927734
 20
219.938720703125
 30
0.0
 11
29.6926612854004
 21
218.490173339844
 31
0.0
  0
LINE
  5
    A1
  8
0
  6
CONTINUOUS
 62
     3
 10
31.539701461792
 20
219.27653503418
 30
0.0
 11
29.921215057373
 21
217.658050537109
 31
0.0
  0
LINE
  5
    A2
  8
0
  6
CONTINUOUS
 62
     3
 10
31.7932090759277
 20
218.469390869141
 30
0.0
 11
29.8708515167236
 21
216.547027587891
 31
0.0
  0
LINE
  5
    A3
  8
0
  6
CONTINUOUS
 62
     3
 10
27.6921787261963
 20
214.368362426758
 30
0.0
 11
24.9999752044678
 21
211.676162719727
 31
0.0
  0
LINE
  5
    A4
  8
0
  6
CONTINUOUS
 62
     3
 10
31.9422054290771
 20
217.557723999023
 30
0.0
 11
24.9999752044678
 21
210.615493774414
 31
0.0
  0
LINE
  5
    A5
  8
0
  6
CONTINUOUS
 62
     3
 10
31.9422054290771
 20
216.4970703125
 30
0.0
 11
24.9999752044678
 21
209.554840087891
 31
0.0
  0
LINE
  5
    A6
  8
0
  6
CONTINUOUS
 62
     3
 10
31.3708839416504
 20
214.865081787109
 30
0.0
 11
29.337532043457
 21
212.831726074219
 31
0.0
  0
LINE
  5
    A7
  8
0
  6
CONTINUOUS
 62
     3
 10
27.9999752044678
 20
211.494171142578
 30
0.0
 11
24.9999752044678
 21
208.494171142578
 31
0.0
  0
LINE
  5
    A8
  8
0
  6
CONTINUOUS
 62
     3
 10
27.9999752044678
 20
210.433517456055
 30
0.0
 11
24.9999752044678
 21
207.433517456055
 31
0.0
  0
LINE
  5
    A9
  8
0
  6
CONTINUOUS
 62
     3
 10
27.9999752044678
 20
209.372863769531
 30
0.0
 11
24.9999752044678
 21
206.372863769531
 31
0.0
  0
LINE
  5
    AA
  8
0
  6
CONTINUOUS
 62
     3
 10
27.9999752044678
 20
208.312210083008
 30
0.0
 11
24.9999752044678
 21
205.312210083008
 31
0.0
  0
LINE
  5
    AB
  8
0
  6
CONTINUOUS
 62
     3
 10
27.9999752044678
 20
207.251541137695
 30
0.0
 11
25.9855670928955
 21
205.237121582031
 31
0.0
  0
LINE
  5
    AC
  8
0
  6
CONTINUOUS
 62
     3
 10
27.9999752044678
 20
206.190887451172
 30
0.0
 11
27.0462265014648
 21
205.237121582031
 31
0.0
  0
ENDBLK
  5
    AD
  8
0
  6
CONTINUOUS
 62
   212
  0
BLOCK
  5
    AE
  8
0
  6
CONTINUOUS
 62
     1
  2
*HATCH1092
 70
    65
 10
0.0
 20
0.0
 30
0.0
  3
*HATCH1092
  0
LINE
  5
    AF
  8
0
  6
CONTINUOUS
 62
     3
 10
63.7741508483887
 20
229.237121582031
 30
0.0
 11
62.9999732971191
 21
228.462951660156
 31
0.0
  0
LINE
  5
    B0
  8
0
  6
CONTINUOUS
 62
     3
 10
64.8348083496094
 20
229.237121582031
 30
0.0
 11
62.9999732971191
 21
227.402297973633
 31
0.0
  0
LINE
  5
    B1
  8
0
  6
CONTINUOUS
 62
     3
 10
65.8954696655274
 20
229.237121582031
 30
0.0
 11
62.9999732971191
 21
226.341644287109
 31
0.0
  0
LINE
  5
    B2
  8
0
  6
CONTINUOUS
 62
     3
 10
66.9561309814453
 20
229.237121582031
 30
0.0
 11
62.9999732971191
 21
225.280990600586
 31
0.0
  0
LINE
  5
    B3
  8
0
  6
CONTINUOUS
 62
     3
 10
66.9999771118164
 20
228.220306396484
 30
0.0
 11
64.0167922973633
 21
225.237121582031
 31
0.0
  0
LINE
  5
    B4
  8
0
  6
CONTINUOUS
 62
     3
 10
66.9999771118164
 20
227.159652709961
 30
0.0
 11
65.0774536132813
 21
225.237121582031
 31
0.0
  0
LINE
  5
    B5
  8
0
  6
CONTINUOUS
 62
     3
 10
66.9999771118164
 20
226.098999023438
 30
0.0
 11
66.1381149291992
 21
225.237121582031
 31
0.0
  0
ENDBLK
  5
    B6
  8
0
  6
CONTINUOUS
 62
     1
  0
BLOCK
  5
    B7
  8
0
  6
CONTINUOUS
 62
     1
  2
*HATCH1093
 70
    65
 10
0.0
 20
0.0
 30
0.0
  3
*HATCH1093
  0
LINE
  5
    B8
  8
0
  6
CONTINUOUS
 62
     3
 10
63.9266929626465
 20
209.237121582031
 30
0.0
 11
62.9999732971191
 21
208.310409545898
 31
0.0
  0
LINE
  5
    B9
  8
0
  6
CONTINUOUS
 62
     3
 10
64.9873504638672
 20
209.237121582031
 30
0.0
 11
62.9999732971191
 21
207.249755859375
 31
0.0
  0
LINE
  5
    BA
  8
0
  6
CONTINUOUS
 62
     3
 10
66.0480117797852
 20
209.237121582031
 30
0.0
 11
62.9999732971191
 21
206.189102172852
 31
0.0
  0
LINE
  5
    BB
  8
0
  6
CONTINUOUS
 62
     3
 10
66.9999771118164
 20
209.128433227539
 30
0.0
 11
63.1086730957031
 21
205.237121582031
 31
0.0
  0
LINE
  5
    BC
  8
0
  6
CONTINUOUS
 62
     3
 10
66.9999771118164
 20
208.067779541016
 30
0.0
 11
64.1693344116211
 21
205.237121582031
 31
0.0
  0
LINE
  5
    BD
  8
0
  6
CONTINUOUS
 62
     3
 10
66.9999771118164
 20
207.007125854492
 30
0.0
 11
65.2299957275391
 21
205.237121582031
 31
0.0
  0
LINE
  5
    BE
  8
0
  6
CONTINUOUS
 62
     3
 10
66.9999771118164
 20
205.946472167969
 30
0.0
 11
66.290657043457
 21
205.237121582031
 31
0.0
  0
ENDBLK
  5
    BF
  8
0
  6
CONTINUOUS
 62
     1
  0
BLOCK
  5
    C0
  8
0
  6
CONTINUOUS
 62
     7
  2
140422
 70
    64
 10
0.0
 20
0.0
 30
0.0
  3
140422
  0
LINE
  5
    C1
  8
0
  6
CONTINUOUS
 62
     2
 10
57.9999747555458
 20
225.237126966153
 30
0.0
 11
86.4999747555458
 21
225.237126966153
 31
0.0
  0
LINE
  5
    C2
  8
0
  6
CONTINUOUS
 62
     2
 10
57.9999747555457
 20
209.237126966153
 30
0.0
 11
86.4999747555458
 21
209.237126966153
 31
0.0
  0
LINE
  5
    C3
  8
0
  6
DASHDOT
 62
     2
 10
52.9999747555458
 20
213.237126966153
 30
0.0
 11
52.9999747555458
 21
221.237126966153
 31
0.0
  0
LINE
  5
    C4
  8
0
  6
CONTINUOUS
 62
     2
 10
87.4999747555458
 20
210.237126966153
 30
0.0
 11
87.4999747555458
 21
224.237126966153
 31
0.0
  0
LINE
  5
    C5
  8
0
  6
CONTINUOUS
 62
     2
 10
56.9999747555458
 20
210.237126966153
 30
0.0
 11
56.9999747555458
 21
224.237126966153
 31
0.0
  0
LINE
  5
    C6
  8
0
  6
DASHDOT
 62
     2
 10
52.9999747555458
 20
221.237126966153
 30
0.0
 11
56.9999747555458
 21
221.237126966153
 31
0.0
  0
LINE
  5
    C7
  8
0
  6
DASHDOT
 62
     2
 10
52.9999747555458
 20
213.237126966153
 30
0.0
 11
56.9999747555458
 21
213.237126966153
 31
0.0
  0
LINE
  5
    C8
  8
0
  6
CONTINUOUS
 62
     2
 10
56.9999747555458
 20
224.237126966153
 30
0.0
 11
57.9999747555457
 21
225.237126966153
 31
0.0
  0
LINE
  5
    C9
  8
0
  6
CONTINUOUS
 62
     2
 10
56.9999747555458
 20
210.237126966153
 30
0.0
 11
57.9999747555458
 21
209.237126966153
 31
0.0
  0
LINE
  5
    CA
  8
0
  6
CONTINUOUS
 62
     2
 10
86.4999747555458
 20
209.237126966153
 30
0.0
 11
87.4999747555457
 21
210.237126966153
 31
0.0
  0
LINE
  5
    CB
  8
0
  6
CONTINUOUS
 62
     2
 10
86.4999747555458
 20
225.237126966153
 30
0.0
 11
87.4999747555458
 21
224.237126966153
 31
0.0
  0
LINE
  5
    CC
  8
0
  6
CONTINUOUS
 62
     2
 10
57.9999747555457
 20
224.237126966153
 30
0.0
 11
86.4999747555458
 21
224.237126966153
 31
0.0
  0
LINE
  5
    CD
  8
0
  6
CONTINUOUS
 62
     2
 10
57.9999747555457
 20
210.237126966153
 30
0.0
 11
86.4999747555458
 21
210.237126966153
 31
0.0
  0
LINE
  5
    CE
  8
0
  6
CONTINUOUS
 62
     2
 10
86.4999747555458
 20
209.237126966153
 30
0.0
 11
86.4999747555458
 21
225.237126966153
 31
0.0
  0
LINE
  5
    CF
  8
0
  6
CONTINUOUS
 62
     2
 10
57.9999747555457
 20
209.237126966153
 30
0.0
 11
57.9999747555457
 21
225.237126966153
 31
0.0
  0
LINE
  5
    D0
  8
0
  6
CONTINUOUS
 62
    98
 10
50.4999747555458
 20
206.487126966153
 30
0.0
 11
50.4999747555458
 21
227.987126966153
 31
0.0
  0
LINE
  5
    D1
  8
0
  6
CONTINUOUS
 62
    98
 10
56.9999747555458
 20
211.737126966153
 30
0.0
 11
56.9999747555458
 21
222.737126966153
 31
0.0
  0
LINE
  5
    D2
  8
0
  6
DASHDOT
 62
     2
 10
43.1520345016092
 20
217.237126966153
 30
0.0
 11
93.2587203771848
 21
217.237126966153
 31
0.0
  0
LINE
  5
    D3
  8
0
  6
CONTINUOUS
 62
    98
 10
50.4999747555458
 20
227.987126966153
 30
0.0
 11
54.6132224813819
 21
227.987126966153
 31
0.0
  0
LINE
  5
    D4
  8
0
  6
CONTINUOUS
 62
    98
 10
50.4999747555458
 20
206.487126966153
 30
0.0
 11
54.6132224813819
 21
206.487126966153
 31
0.0
  0
POINT
  5
    D5
  8
0
  6
CONTINUOUS
 62
    98
 10
52.9999747555458
 20
217.237126966153
 30
0.0
  0
LINE
  5
    D6
  8
0
  6
CONTINUOUS
 62
    98
 10
52.9999747555458
 20
206.487126966153
 30
0.0
 11
52.9999747555458
 21
227.987126966153
 31
0.0
  0
LINE
  5
    D7
  8
0
  6
CONTINUOUS
 62
    98
 10
54.6132224813819
 20
222.737126966153
 30
0.0
 11
56.9999747555458
 21
222.737126966153
 31
0.0
  0
LINE
  5
    D8
  8
0
  6
CONTINUOUS
 62
    98
 10
54.6132224813819
 20
211.737126966153
 30
0.0
 11
56.9999747555458
 21
211.737126966153
 31
0.0
  0
LINE
  5
    D9
  8
0
  6
CONTINUOUS
 62
    98
 10
54.6132224813819
 20
206.487126966153
 30
0.0
 11
54.6132224813819
 21
208.119092977403
 31
0.0
  0
ARC
  5
    DA
  8
0
  6
CONTINUOUS
 62
    98
 10
55.6132224813819
 20
225.237126966153
 30
0.0
 40
1.50000000000001
 50
131.810314895777
 51
228.189685104223
  0
LINE
  5
    DB
  8
0
  6
CONTINUOUS
 62
    98
 10
54.6132224813819
 20
226.355160954903
 30
0.0
 11
54.6132224813819
 21
227.987126966153
 31
0.0
  0
ARC
  5
    DC
  8
0
  6
CONTINUOUS
 62
    98
 10
55.6132224813819
 20
209.237126966153
 30
0.0
 40
1.50000000000001
 50
131.810314895756
 51
228.189685104244
  0
LINE
  5
    DD
  8
0
  6
CONTINUOUS
 62
    98
 10
54.6132224813819
 20
210.355160954904
 30
0.0
 11
54.6132224813819
 21
224.119092977403
 31
0.0
  0
ENDBLK
  5
    DE
  8
0
  6
CONTINUOUS
 62
     7
  0
BLOCK
  5
    DF
  8
0
  6
CONTINUOUS
 62
     0
  2
*HATCH1094
 70
    65
 10
0.0
 20
0.0
 30
0.0
  3
*HATCH1094
  0
LINE
  5
    E0
  8
0
  6
CONTINUOUS
 62
     3
 10
32.3724822998047
 20
265.717712402344
 30
0.0
 11
30.0925788879395
 21
263.437805175781
 31
0.0
  0
LINE
  5
    E1
  8
0
  6
CONTINUOUS
 62
     3
 10
33.7631607055664
 20
266.047729492188
 30
0.0
 11
30.4987564086914
 21
262.783325195313
 31
0.0
  0
LINE
  5
    E2
  8
0
  6
CONTINUOUS
 62
     3
 10
34.9620780944824
 20
266.185974121094
 30
0.0
 11
31.0933647155762
 21
262.317260742188
 31
0.0
  0
LINE
  5
    E3
  8
0
  6
CONTINUOUS
 62
     3
 10
36.0633277893066
 20
266.2265625
 30
0.0
 11
31.7850952148438
 21
261.948333740234
 31
0.0
  0
LINE
  5
    E4
  8
0
  6
CONTINUOUS
 62
     3
 10
37.0677185058594
 20
266.170288085938
 30
0.0
 11
32.5846748352051
 21
261.687255859375
 31
0.0
  0
LINE
  5
    E5
  8
0
  6
CONTINUOUS
 62
     3
 10
38.0029525756836
 20
266.044891357422
 30
0.0
 11
33.4413261413574
 21
261.483245849609
 31
0.0
  0
LINE
  5
    E6
  8
0
  6
CONTINUOUS
 62
     3
 10
38.894229888916
 20
265.87548828125
 30
0.0
 11
34.3430480957031
 21
261.324310302734
 31
0.0
  0
LINE
  5
    E7
  8
0
  6
CONTINUOUS
 62
     3
 10
39.6938095092773
 20
265.614410400391
 30
0.0
 11
35.3461494445801
 21
261.266754150391
 31
0.0
  0
LINE
  5
    E8
  8
0
  6
CONTINUOUS
 62
     3
 10
40.4253005981445
 20
265.285247802734
 30
0.0
 11
36.4069862365723
 21
261.266937255859
 31
0.0
  0
LINE
  5
    E9
  8
0
  6
CONTINUOUS
 62
     3
 10
41.0738410949707
 20
264.873138427734
 30
0.0
 11
37.5503082275391
 21
261.349578857422
 31
0.0
  0
LINE
  5
    EA
  8
0
  6
CONTINUOUS
 62
     3
 10
41.5724143981934
 20
264.31103515625
 30
0.0
 11
38.8436012268066
 21
261.582214355469
 31
0.0
  0
LINE
  5
    EB
  8
0
  6
CONTINUOUS
 62
     3
 10
41.6114654541016
 20
263.289428710938
 30
0.0
 11
40.6177940368652
 21
262.295745849609
 31
0.0
  0
ENDBLK
  5
    EC
  8
0
  6
CONTINUOUS
 62
     0
  0
BLOCK
  5
    ED
  8
0
  6
CONTINUOUS
 62
     0
  2
CAVO
 70
    64
 10
0.0
 20
0.0
 30
0.0
  3
CAVO
  0
LINE
  5
    EE
  8
0
  6
CONTINUOUS
 62
     0
 10
32.9999747555458
 20
206.237126966153
 30
0.0
 11
50.4999747555458
 21
206.237126966153
 31
0.0
  0
LINE
  5
    EF
  8
0
  6
CONTINUOUS
 62
     0
 10
32.9999747555458
 20
206.237126966153
 30
0.0
 11
32.9999747555458
 21
233.237126966153
 31
0.0
  0
LINE
  5
    F0
  8
0
  6
CONTINUOUS
 62
     0
 10
50.4999747555458
 20
206.237126966153
 30
0.0
 11
50.4999747555458
 21
233.237126966153
 31
0.0
  0
LINE
  5
    F1
  8
0
  6
CONTINUOUS
 62
     0
 10
29.9999747555458
 20
233.237126966153
 30
0.0
 11
29.9999747555458
 21
263.737126966153
 31
0.0
  0
LINE
  5
    F2
  8
0
  6
CONTINUOUS
 62
     0
 10
53.4999747555458
 20
233.237126966153
 30
0.0
 11
53.4999747555458
 21
263.737126966153
 31
0.0
  0
LINE
  5
    F3
  8
0
  6
CONTINUOUS
 62
     0
 10
29.9999747555458
 20
233.237126966153
 30
0.0
 11
53.4999747555458
 21
233.237126966153
 31
0.0
  0
LINE
  5
    F4
  8
0
  6
DASHDOT
 62
     0
 10
41.7499747555458
 20
203.352101826322
 30
0.0
 11
41.7499747555458
 21
270.100547484134
 31
0.0
  0
LINE
  5
    F5
  8
0
  6
CONTINUOUS
 62
     0
 10
41.7499747555457
 20
206.237126966153
 30
0.0
 11
46.5108032346743
 21
233.237126966153
 31
0.0
  0
LINE
  5
    F6
  8
0
  6
CONTINUOUS
 62
     0
 10
40.2268348377171
 20
206.237126966153
 30
0.0
 11
44.9876633168457
 21
233.237126966153
 31
0.0
  0
LINE
  5
    F7
  8
0
  6
CONTINUOUS
 62
     0
 10
38.7036949198885
 20
206.237126966154
 30
0.0
 11
43.4645233990171
 21
233.237126966153
 31
0.0
  0
LINE
  5
    F8
  8
0
  6
CONTINUOUS
 62
     0
 10
37.1805550020599
 20
206.237126966153
 30
0.0
 11
41.9413834811884
 21
233.237126966153
 31
0.0
  0
LINE
  5
    F9
  8
0
  6
CONTINUOUS
 62
     0
 10
35.6574150842313
 20
206.237126966154
 30
0.0
 11
40.4182435633598
 21
233.237126966153
 31
0.0
  0
LINE
  5
    FA
  8
0
  6
CONTINUOUS
 62
     0
 10
34.1342751664027
 20
206.237126966154
 30
0.0
 11
38.8951036455312
 21
233.237126966153
 31
0.0
  0
LINE
  5
    FB
  8
0
  6
CONTINUOUS
 62
     0
 10
32.9999747555458
 20
208.442345392791
 30
0.0
 11
37.3719637277026
 21
233.237126966153
 31
0.0
  0
LINE
  5
    FC
  8
0
  6
CONTINUOUS
 62
     0
 10
32.9999747555458
 20
217.080501117507
 30
0.0
 11
35.848823809874
 21
233.237126966153
 31
0.0
  0
LINE
  5
    FD
  8
0
  6
CONTINUOUS
 62
     0
 10
32.9999747555458
 20
225.718656842222
 30
0.0
 11
34.3256838920454
 21
233.237126966154
 31
0.0
  0
LINE
  5
    FE
  8
0
  6
CONTINUOUS
 62
     0
 10
43.2731146733744
 20
206.237126966154
 30
0.0
 11
48.0339431525029
 21
233.237126966153
 31
0.0
  0
LINE
  5
    FF
  8
0
  6
CONTINUOUS
 62
     0
 10
44.796254591203
 20
206.237126966153
 30
0.0
 11
49.5570830703315
 21
233.237126966153
 31
0.0
  0
LINE
  5
   100
  8
0
  6
CONTINUOUS
 62
     0
 10
46.3193945090316
 20
206.237126966153
 30
0.0
 11
50.4999747555458
 21
229.946375713662
 31
0.0
  0
LINE
  5
   101
  8
0
  6
CONTINUOUS
 62
     0
 10
47.8425344268602
 20
206.237126966153
 30
0.0
 11
50.4999747555458
 21
221.308219988946
 31
0.0
  0
LINE
  5
   102
  8
0
  6
CONTINUOUS
 62
     0
 10
49.3656743446889
 20
206.237126966154
 30
0.0
 11
50.4999747555457
 21
212.670064264231
 31
0.0
  0
POLYLINE
  5
   103
  8
0
  6
CONTINUOUS
 62
     0
 66
     1
 10
0.0
 20
0.0
 30
0.0
 70
     1
  0
VERTEX
  5
   104
  8
0
  6
CONTINUOUS
 62
     0
 10
29.9999747555458
 20
263.737126966139
 30
0.0
 40
0.0
 41
0.0
  0
VERTEX
  5
   105
  8
0
  6
CONTINUOUS
 62
     0
 10
30.0017441957057
 20
263.675773894831
 30
0.0
 40
0.0
 41
0.0
  0
VERTEX
  5
   106
  8
0
  6
CONTINUOUS
 62
     0
 10
30.0070514503407
 20
263.61445778032
 30
0.0
 40
0.0
 41
0.0
  0
VERTEX
  5
   107
  8
0
  6
CONTINUOUS
 62
     0
 10
30.0158933225589
 20
263.55321555714
 30
0.0
 40
0.0
 41
0.0
  0
VERTEX
  5
   108
  8
0
  6
CONTINUOUS
 62
     0
 10
30.0282644863472
 20
263.492084115315
 30
0.0
 40
0.0
 41
0.0
  0
VERTEX
  5
   109
  8
0
  6
CONTINUOUS
 62
     0
 10
30.0441574897791
 20
263.431100278141
 30
0.0
 40
0.0
 41
0.0
  0
VERTEX
  5
   10A
  8
0
  6
CONTINUOUS
 62
     0
 10
30.0635627595036
 20
263.37030078
 30
0.0
 40
0.0
 41
0.0
  0
VERTEX
  5
   10B
  8
0
  6
CONTINUOUS
 62
     0
 10
30.0864686065118
 20
263.309722244238
 30
0.0
 40
0.0
 41
0.0
  0
VERTEX
  5
   10C
  8
0
  6
CONTINUOUS
 62
     0
 10
30.112861233178
 20
263.249401161099
 30
0.0
 40
0.0
 41
0.0
  0
VERTEX
  5
   10D
  8
0
  6
CONTINUOUS
 62
     0
 10
30.1427247415708
 20
263.189373865747
 30
0.0
 40
0.0
 41
0.0
  0
VERTEX
  5
   10E
  8
0
  6
CONTINUOUS
 62
     0
 10
30.1760411430293
 20
263.129676516381
 30
0.0
 40
0.0
 41
0.0
  0
VERTEX
  5
   10F
  8
0
  6
CONTINUOUS
 62
     0
 10
30.2127903689992
 20
263.070345072452
 30
0.0
 40
0.0
 41
0.0
  0
VERTEX
  5
   110
  8
0
  6
CONTINUOUS
 62
     0
 10
30.2529502831208
 20
263.011415273003
 30
0.0
 40
0.0
 41
0.0
  0
VERTEX
  5
   111
  8
0
  6
CONTINUOUS
 62
     0
 10
30.2964966945636
 20
262.952922615142
 30
0.0
 40
0.0
 41
0.0
  0
VERTEX
  5
   112
  8
0
  6
CONTINUOUS
 62
     0
 10
30.3434033725976
 20
262.894902332659
 30
0.0
 40
0.0
 41
0.0
  0
VERTEX
  5
   113
  8
0
  6
CONTINUOUS
 62
     0
 10
30.3936420623939
 20
262.837389374802
 30
0.0
 40
0.0
 41
0.0
  0
VERTEX
  5
   114
  8
0
  6
CONTINUOUS
 62
     0
 10
30.4471825020443
 20
262.780418385227
 30
0.0
 40
0.0
 41
0.0
  0
VERTEX
  5
   115
  8
0
  6
CONTINUOUS
 62
     0
 10
30.5039924407901
 20
262.724023681127
 30
0.0
 40
0.0
 41
0.0
  0
VERTEX
  5
   116
  8
0
  6
CONTINUOUS
 62
     0
 10
30.5640376584482
 20
262.668239232564
 30
0.0
 40
0.0
 41
0.0
  0
VERTEX
  5
   117
  8
0
  6
CONTINUOUS
 62
     0
 10
30.6272819860249
 20
262.613098642004
 30
0.0
 40
0.0
 41
0.0
  0
VERTEX
  5
   118
  8
0
  6
CONTINUOUS
 62
     0
 10
30.6936873275021
 20
262.558635124075
 30
0.0
 40
0.0
 41
0.0
  0
VERTEX
  5
   119
  8
0
  6
CONTINUOUS
 62
     0
 10
30.7632136827852
 20
262.504881485566
 30
0.0
 40
0.0
 41
0.0
  0
VERTEX
  5
   11A
  8
0
  6
CONTINUOUS
 62
     0
 10
30.8358191717974
 20
262.451870105658
 30
0.0
 40
0.0
 41
0.0
  0
VERTEX
  5
   11B
  8
0
  6
CONTINUOUS
 62
     0
 10
30.9114600597071
 20
262.399632916423
 30
0.0
 40
0.0
 41
0.0
  0
VERTEX
  5
   11C
  8
0
  6
CONTINUOUS
 62
     0
 10
30.9900907832718
 20
262.348201383592
 30
0.0
 40
0.0
 41
0.0
  0
VERTEX
  5
   11D
  8
0
  6
CONTINUOUS
 62
     0
 10
31.0716639782838
 20
262.297606487597
 30
0.0
 40
0.0
 41
0.0
  0
VERTEX
  5
   11E
  8
0
  6
CONTINUOUS
 62
     0
 10
31.1561305081007
 20
262.24787870491
 30
0.0
 40
0.0
 41
0.0
  0
VERTEX
  5
   11F
  8
0
  6
CONTINUOUS
 62
     0
 10
31.2434394932433
 20
262.19904798969
 30
0.0
 40
0.0
 41
0.0
  0
VERTEX
  5
   120
  8
0
  6
CONTINUOUS
 62
     0
 10
31.3335383420437
 20
262.151143755733
 30
0.0
 40
0.0
 41
0.0
  0
VERTEX
  5
   121
  8
0
  6
CONTINUOUS
 62
     0
 10
31.4263727823243
 20
262.104194858758
 30
0.0
 40
0.0
 41
0.0
  0
VERTEX
  5
   122
  8
0
  6
CONTINUOUS
 62
     0
 10
31.5218868940896
 20
262.058229579025
 30
0.0
 40
0.0
 41
0.0
  0
VERTEX
  5
   123
  8
0
  6
CONTINUOUS
 62
     0
 10
31.6200231432102
 20
262.0132756043
 30
0.0
 40
0.0
 41
0.0
  0
VERTEX
  5
   124
  8
0
  6
CONTINUOUS
 62
     0
 10
31.82392405522
 20
261.926509258765
 30
0.0
 40
0.0
 41
0.0
  0
VERTEX
  5
   125
  8
0
  6
CONTINUOUS
 62
     0
 10
32.0375843031971
 20
261.844104849878
 30
0.0
 40
0.0
 41
0.0
  0
VERTEX
  5
   126
  8
0
  6
CONTINUOUS
 62
     0
 10
32.2604891608895
 20
261.766260897078
 30
0.0
 40
0.0
 41
0.0
  0
VERTEX
  5
   127
  8
0
  6
CONTINUOUS
 62
     0
 10
32.492101630971
 20
261.693164933266
 30
0.0
 40
0.0
 41
0.0
  0
VERTEX
  5
   128
  8
0
  6
CONTINUOUS
 62
     0
 10
32.7318637387144
 20
261.624993053021
 30
0.0
 40
0.0
 41
0.0
  0
VERTEX
  5
   129
  8
0
  6
CONTINUOUS
 62
     0
 10
32.9791978762012
 20
261.561909488374
 30
0.0
 40
0.0
 41
0.0
  0
VERTEX
  5
   12A
  8
0
  6
CONTINUOUS
 62
     0
 10
33.2335081938305
 20
261.504066213158
 30
0.0
 40
0.0
 41
0.0
  0
VERTEX
  5
   12B
  8
0
  6
CONTINUOUS
 62
     0
 10
33.3630885816485
 20
261.477153733339
 30
0.0
 40
0.0
 41
0.0
  0
VERTEX
  5
   12C
  8
0
  6
CONTINUOUS
 62
     0
 10
33.6267095904067
 20
261.42742813487
 30
0.0
 40
0.0
 41
0.0
  0
VERTEX
  5
   12D
  8
0
  6
CONTINUOUS
 62
     0
 10
33.8957468668724
 20
261.383266803191
 30
0.0
 40
0.0
 41
0.0
  0
VERTEX
  5
   12E
  8
0
  6
CONTINUOUS
 62
     0
 10
34.1695522766818
 20
261.344776126819
 30
0.0
 40
0.0
 41
0.0
  0
VERTEX
  5
   12F
  8
0
  6
CONTINUOUS
 62
     0
 10
34.4474661986202
 20
261.312048833163
 30
0.0
 40
0.0
 41
0.0
  0
VERTEX
  5
   130
  8
0
  6
CONTINUOUS
 62
     0
 10
34.7288191137072
 20
261.285163765142
 30
0.0
 40
0.0
 41
0.0
  0
VERTEX
  5
   131
  8
0
  6
CONTINUOUS
 62
     0
 10
35.0129332181267
 20
261.264185691239
 30
0.0
 40
0.0
 41
0.0
  0
VERTEX
  5
   132
  8
0
  6
CONTINUOUS
 62
     0
 10
35.2991240561158
 20
261.249165149471
 30
0.0
 40
0.0
 41
0.0
  0
VERTEX
  5
   133
  8
0
  6
CONTINUOUS
 62
     0
 10
35.5867021688784
 20
261.24013832564
 30
0.0
 40
0.0
 41
0.0
  0
VERTEX
  5
   134
  8
0
  6
CONTINUOUS
 62
     0
 10
35.874974755552
 20
261.237126966153
 30
0.0
 40
0.0
 41
0.0
  0
VERTEX
  5
   135
  8
0
  6
CONTINUOUS
 62
     0
 10
36.1632473422256
 20
261.240138325641
 30
0.0
 40
0.0
 41
0.0
  0
VERTEX
  5
   136
  8
0
  6
CONTINUOUS
 62
     0
 10
36.4508254549882
 20
261.249165149474
 30
0.0
 40
0.0
 41
0.0
  0
VERTEX
  5
   137
  8
0
  6
CONTINUOUS
 62
     0
 10
36.7370162929772
 20
261.264185691244
 30
0.0
 40
0.0
 41
0.0
  0
VERTEX
  5
   138
  8
0
  6
CONTINUOUS
 62
     0
 10
37.0211303973967
 20
261.285163765148
 30
0.0
 40
0.0
 41
0.0
  0
VERTEX
  5
   139
  8
0
  6
CONTINUOUS
 62
     0
 10
37.3024833124835
 20
261.312048833171
 30
0.0
 40
0.0
 41
0.0
  0
VERTEX
  5
   13A
  8
0
  6
CONTINUOUS
 62
     0
 10
37.5803972344217
 20
261.344776126827
 30
0.0
 40
0.0
 41
0.0
  0
VERTEX
  5
   13B
  8
0
  6
CONTINUOUS
 62
     0
 10
37.854202644231
 20
261.383266803201
 30
0.0
 40
0.0
 41
0.0
  0
VERTEX
  5
   13C
  8
0
  6
CONTINUOUS
 62
     0
 10
38.1232399206965
 20
261.427428134881
 30
0.0
 40
0.0
 41
0.0
  0
VERTEX
  5
   13D
  8
0
  6
CONTINUOUS
 62
     0
 10
38.3868609294543
 20
261.477153733351
 30
0.0
 40
0.0
 41
0.0
  0
VERTEX
  5
   13E
  8
0
  6
CONTINUOUS
 62
     0
 10
38.644430584404
 20
261.532323805289
 30
0.0
 40
0.0
 41
0.0
  0
VERTEX
  5
   13F
  8
0
  6
CONTINUOUS
 62
     0
 10
38.8953283776863
 20
261.59280544116
 30
0.0
 40
0.0
 41
0.0
  0
VERTEX
  5
   140
  8
0
  6
CONTINUOUS
 62
     0
 10
39.1389498745411
 20
261.658452935405
 30
0.0
 40
0.0
 41
0.0
  0
VERTEX
  5
   141
  8
0
  6
CONTINUOUS
 62
     0
 10
39.3747081694438
 20
261.729108137461
 30
0.0
 40
0.0
 41
0.0
  0
VERTEX
  5
   142
  8
0
  6
CONTINUOUS
 62
     0
 10
39.602035300012
 20
261.804600832756
 30
0.0
 40
0.0
 41
0.0
  0
VERTEX
  5
   143
  8
0
  6
CONTINUOUS
 62
     0
 10
39.8203836152766
 20
261.884749152776
 30
0.0
 40
0.0
 41
0.0
  0
VERTEX
  5
   144
  8
0
  6
CONTINUOUS
 62
     0
 10
40.0292270950212
 20
261.969360013197
 30
0.0
 40
0.0
 41
0.0
  0
VERTEX
  5
   145
  8
0
  6
CONTINUOUS
 62
     0
 10
40.12992636789
 20
262.013275604321
 30
0.0
 40
0.0
 41
0.0
  0
VERTEX
  5
   146
  8
0
  6
CONTINUOUS
 62
     0
 10
40.2280626170104
 20
262.058229579047
 30
0.0
 40
0.0
 41
0.0
  0
VERTEX
  5
   147
  8
0
  6
CONTINUOUS
 62
     0
 10
40.3235767287754
 20
262.10419485878
 30
0.0
 40
0.0
 41
0.0
  0
VERTEX
  5
   148
  8
0
  6
CONTINUOUS
 62
     0
 10
40.4164111690558
 20
262.151143755756
 30
0.0
 40
0.0
 41
0.0
  0
VERTEX
  5
   149
  8
0
  6
CONTINUOUS
 62
     0
 10
40.5065100178559
 20
262.199047989713
 30
0.0
 40
0.0
 41
0.0
  0
VERTEX
  5
   14A
  8
0
  6
CONTINUOUS
 62
     0
 10
40.5938190029983
 20
262.247878704934
 30
0.0
 40
0.0
 41
0.0
  0
VERTEX
  5
   14B
  8
0
  6
CONTINUOUS
 62
     0
 10
40.6782855328149
 20
262.297606487621
 30
0.0
 40
0.0
 41
0.0
  0
VERTEX
  5
   14C
  8
0
  6
CONTINUOUS
 62
     0
 10
40.7598587278267
 20
262.348201383617
 30
0.0
 40
0.0
 41
0.0
  0
VERTEX
  5
   14D
  8
0
  6
CONTINUOUS
 62
     0
 10
40.8384894513911
 20
262.399632916448
 30
0.0
 40
0.0
 41
0.0
  0
VERTEX
  5
   14E
  8
0
  6
CONTINUOUS
 62
     0
 10
40.9141303393006
 20
262.451870105683
 30
0.0
 40
0.0
 41
0.0
  0
VERTEX
  5
   14F
  8
0
  6
CONTINUOUS
 62
     0
 10
40.9867358283125
 20
262.504881485592
 30
0.0
 40
0.0
 41
0.0
  0
VERTEX
  5
   150
  8
0
  6
CONTINUOUS
 62
     0
 10
41.0562621835953
 20
262.558635124101
 30
0.0
 40
0.0
 41
0.0
  0
VERTEX
  5
   151
  8
0
  6
CONTINUOUS
 62
     0
 10
41.1226675250722
 20
262.61309864203
 30
0.0
 40
0.0
 41
0.0
  0
VERTEX
  5
   152
  8
0
  6
CONTINUOUS
 62
     0
 10
41.1859118526487
 20
262.668239232591
 30
0.0
 40
0.0
 41
0.0
  0
VERTEX
  5
   153
  8
0
  6
CONTINUOUS
 62
     0
 10
41.2459570703065
 20
262.724023681154
 30
0.0
 40
0.0
 41
0.0
  0
VERTEX
  5
   154
  8
0
  6
CONTINUOUS
 62
     0
 10
41.302767009052
 20
262.780418385254
 30
0.0
 40
0.0
 41
0.0
  0
VERTEX
  5
   155
  8
0
  6
CONTINUOUS
 62
     0
 10
41.3563074487021
 20
262.83738937483
 30
0.0
 40
0.0
 41
0.0
  0
VERTEX
  5
   156
  8
0
  6
CONTINUOUS
 62
     0
 10
41.4065461384981
 20
262.894902332687
 30
0.0
 40
0.0
 41
0.0
  0
VERTEX
  5
   157
  8
0
  6
CONTINUOUS
 62
     0
 10
41.4534528165318
 20
262.95292261517
 30
0.0
 40
0.0
 41
0.0
  0
VERTEX
  5
   158
  8
0
  6
CONTINUOUS
 62
     0
 10
41.4969992279743
 20
263.011415273031
 30
0.0
 40
0.0
 41
0.0
  0
VERTEX
  5
   159
  8
0
  6
CONTINUOUS
 62
     0
 10
41.5371591420956
 20
263.07034507248
 30
0.0
 40
0.0
 41
0.0
  0
VERTEX
  5
   15A
  8
0
  6
CONTINUOUS
 62
     0
 10
41.5739083680652
 20
263.12967651641
 30
0.0
 40
0.0
 41
0.0
  0
VERTEX
  5
   15B
  8
0
  6
CONTINUOUS
 62
     0
 10
41.6072247695235
 20
263.189373865776
 30
0.0
 40
0.0
 41
0.0
  0
VERTEX
  5
   15C
  8
0
  6
CONTINUOUS
 62
     0
 10
41.637088277916
 20
263.249401161128
 30
0.0
 40
0.0
 41
0.0
  0
VERTEX
  5
   15D
  8
0
  6
CONTINUOUS
 62
     0
 10
41.6634809045819
 20
263.309722244267
 30
0.0
 40
0.0
 41
0.0
  0
VERTEX
  5
   15E
  8
0
  6
CONTINUOUS
 62
     0
 10
41.6863867515898
 20
263.37030078003
 30
0.0
 40
0.0
 41
0.0
  0
VERTEX
  5
   15F
  8
0
  6
CONTINUOUS
 62
     0
 10
41.7057920213139
 20
263.43110027817
 30
0.0
 40
0.0
 41
0.0
  0
VERTEX
  5
   160
  8
0
  6
CONTINUOUS
 62
     0
 10
41.7216850247455
 20
263.492084115344
 30
0.0
 40
0.0
 41
0.0
  0
VERTEX
  5
   161
  8
0
  6
CONTINUOUS
 62
     0
 10
41.7340561885335
 20
263.553215557169
 30
0.0
 40
0.0
 41
0.0
  0
VERTEX
  5
   162
  8
0
  6
CONTINUOUS
 62
     0
 10
41.7428980607514
 20
263.61445778035
 30
0.0
 40
0.0
 41
0.0
  0
VERTEX
  5
   163
  8
0
  6
CONTINUOUS
 62
     0
 10
41.7482053153861
 20
263.675773894861
 30
0.0
 40
0.0
 41
0.0
  0
VERTEX
  5
   164
  8
0
  6
CONTINUOUS
 62
     0
 10
41.7499747555458
 20
263.737126966168
 30
0.0
 40
0.0
 41
0.0
  0
VERTEX
  5
   165
  8
0
  6
CONTINUOUS
 62
     0
 10
41.7482053153858
 20
263.798480037475
 30
0.0
 40
0.0
 41
0.0
  0
VERTEX
  5
   166
  8
0
  6
CONTINUOUS
 62
     0
 10
41.7428980607508
 20
263.859796151987
 30
0.0
 40
0.0
 41
0.0
  0
VERTEX
  5
   167
  8
0
  6
CONTINUOUS
 62
     0
 10
41.7340561885326
 20
263.921038375167
 30
0.0
 40
0.0
 41
0.0
  0
VERTEX
  5
   168
  8
0
  6
CONTINUOUS
 62
     0
 10
41.7216850247443
 20
263.982169816992
 30
0.0
 40
0.0
 41
0.0
  0
VERTEX
  5
   169
  8
0
  6
CONTINUOUS
 62
     0
 10
41.7057920213124
 20
264.043153654166
 30
0.0
 40
0.0
 41
0.0
  0
VERTEX
  5
   16A
  8
0
  6
CONTINUOUS
 62
     0
 10
41.6863867515879
 20
264.103953152306
 30
0.0
 40
0.0
 41
0.0
  0
VERTEX
  5
   16B
  8
0
  6
CONTINUOUS
 62
     0
 10
41.6634809045797
 20
264.164531688069
 30
0.0
 40
0.0
 41
0.0
  0
VERTEX
  5
   16C
  8
0
  6
CONTINUOUS
 62
     0
 10
41.6370882779135
 20
264.224852771208
 30
0.0
 40
0.0
 41
0.0
  0
VERTEX
  5
   16D
  8
0
  6
CONTINUOUS
 62
     0
 10
41.6072247695207
 20
264.28488006656
 30
0.0
 40
0.0
 41
0.0
  0
VERTEX
  5
   16E
  8
0
  6
CONTINUOUS
 62
     0
 10
41.5739083680622
 20
264.344577415926
 30
0.0
 40
0.0
 41
0.0
  0
VERTEX
  5
   16F
  8
0
  6
CONTINUOUS
 62
     0
 10
41.5371591420923
 20
264.403908859855
 30
0.0
 40
0.0
 41
0.0
  0
VERTEX
  5
   170
  8
0
  6
CONTINUOUS
 62
     0
 10
41.4969992279707
 20
264.462838659304
 30
0.0
 40
0.0
 41
0.0
  0
VERTEX
  5
   171
  8
0
  6
CONTINUOUS
 62
     0
 10
41.4534528165279
 20
264.521331317165
 30
0.0
 40
0.0
 41
0.0
  0
VERTEX
  5
   172
  8
0
  6
CONTINUOUS
 62
     0
 10
41.4065461384939
 20
264.579351599648
 30
0.0
 40
0.0
 41
0.0
  0
VERTEX
  5
   173
  8
0
  6
CONTINUOUS
 62
     0
 10
41.3563074486976
 20
264.636864557505
 30
0.0
 40
0.0
 41
0.0
  0
VERTEX
  5
   174
  8
0
  6
CONTINUOUS
 62
     0
 10
41.3027670090472
 20
264.69383554708
 30
0.0
 40
0.0
 41
0.0
  0
VERTEX
  5
   175
  8
0
  6
CONTINUOUS
 62
     0
 10
41.2459570703014
 20
264.750230251179
 30
0.0
 40
0.0
 41
0.0
  0
VERTEX
  5
   176
  8
0
  6
CONTINUOUS
 62
     0
 10
41.1859118526433
 20
264.806014699742
 30
0.0
 40
0.0
 41
0.0
  0
VERTEX
  5
   177
  8
0
  6
CONTINUOUS
 62
     0
 10
41.1226675250666
 20
264.861155290303
 30
0.0
 40
0.0
 41
0.0
  0
VERTEX
  5
   178
  8
0
  6
CONTINUOUS
 62
     0
 10
41.0562621835894
 20
264.915618808231
 30
0.0
 40
0.0
 41
0.0
  0
VERTEX
  5
   179
  8
0
  6
CONTINUOUS
 62
     0
 10
40.9867358283063
 20
264.969372446741
 30
0.0
 40
0.0
 41
0.0
  0
VERTEX
  5
   17A
  8
0
  6
CONTINUOUS
 62
     0
 10
40.9141303392941
 20
265.022383826649
 30
0.0
 40
0.0
 41
0.0
  0
VERTEX
  5
   17B
  8
0
  6
CONTINUOUS
 62
     0
 10
40.8384894513844
 20
265.074621015884
 30
0.0
 40
0.0
 41
0.0
  0
VERTEX
  5
   17C
  8
0
  6
CONTINUOUS
 62
     0
 10
40.7598587278197
 20
265.126052548715
 30
0.0
 40
0.0
 41
0.0
  0
VERTEX
  5
   17D
  8
0
  6
CONTINUOUS
 62
     0
 10
40.6782855328077
 20
265.17664744471
 30
0.0
 40
0.0
 41
0.0
  0
VERTEX
  5
   17E
  8
0
  6
CONTINUOUS
 62
     0
 10
40.5938190029908
 20
265.226375227396
 30
0.0
 40
0.0
 41
0.0
  0
VERTEX
  5
   17F
  8
0
  6
CONTINUOUS
 62
     0
 10
40.5065100178482
 20
265.275205942617
 30
0.0
 40
0.0
 41
0.0
  0
VERTEX
  5
   180
  8
0
  6
CONTINUOUS
 62
     0
 10
40.4164111690478
 20
265.323110176574
 30
0.0
 40
0.0
 41
0.0
  0
VERTEX
  5
   181
  8
0
  6
CONTINUOUS
 62
     0
 10
40.3235767287672
 20
265.370059073549
 30
0.0
 40
0.0
 41
0.0
  0
VERTEX
  5
   182
  8
0
  6
CONTINUOUS
 62
     0
 10
40.2280626170019
 20
265.416024353282
 30
0.0
 40
0.0
 41
0.0
  0
VERTEX
  5
   183
  8
0
  6
CONTINUOUS
 62
     0
 10
40.1299263678813
 20
265.460978328007
 30
0.0
 40
0.0
 41
0.0
  0
VERTEX
  5
   184
  8
0
  6
CONTINUOUS
 62
     0
 10
39.9260254558715
 20
265.547744673542
 30
0.0
 40
0.0
 41
0.0
  0
VERTEX
  5
   185
  8
0
  6
CONTINUOUS
 62
     0
 10
39.7123652078944
 20
265.630149082429
 30
0.0
 40
0.0
 41
0.0
  0
VERTEX
  5
   186
  8
0
  6
CONTINUOUS
 62
     0
 10
39.489460350202
 20
265.707993035229
 30
0.0
 40
0.0
 41
0.0
  0
VERTEX
  5
   187
  8
0
  6
CONTINUOUS
 62
     0
 10
39.2578478801205
 20
265.781088999041
 30
0.0
 40
0.0
 41
0.0
  0
VERTEX
  5
   188
  8
0
  6
CONTINUOUS
 62
     0
 10
39.0180857723771
 20
265.849260879286
 30
0.0
 40
0.0
 41
0.0
  0
VERTEX
  5
   189
  8
0
  6
CONTINUOUS
 62
     0
 10
38.7707516348903
 20
265.912344443932
 30
0.0
 40
0.0
 41
0.0
  0
VERTEX
  5
   18A
  8
0
  6
CONTINUOUS
 62
     0
 10
38.516441317261
 20
265.970187719149
 30
0.0
 40
0.0
 41
0.0
  0
VERTEX
  5
   18B
  8
0
  6
CONTINUOUS
 62
     0
 10
38.386860929443
 20
265.997100198968
 30
0.0
 40
0.0
 41
0.0
  0
VERTEX
  5
   18C
  8
0
  6
CONTINUOUS
 62
     0
 10
38.1232399206849
 20
266.046825797437
 30
0.0
 40
0.0
 41
0.0
  0
VERTEX
  5
   18D
  8
0
  6
CONTINUOUS
 62
     0
 10
37.8542026442191
 20
266.090987129116
 30
0.0
 40
0.0
 41
0.0
  0
VERTEX
  5
   18E
  8
0
  6
CONTINUOUS
 62
     0
 10
37.5803972344097
 20
266.129477805488
 30
0.0
 40
0.0
 41
0.0
  0
VERTEX
  5
   18F
  8
0
  6
CONTINUOUS
 62
     0
 10
37.3024833124713
 20
266.162205099143
 30
0.0
 40
0.0
 41
0.0
  0
VERTEX
  5
   190
  8
0
  6
CONTINUOUS
 62
     0
 10
37.0211303973843
 20
266.189090167164
 30
0.0
 40
0.0
 41
0.0
  0
VERTEX
  5
   191
  8
0
  6
CONTINUOUS
 62
     0
 10
36.7370162929648
 20
266.210068241067
 30
0.0
 40
0.0
 41
0.0
  0
VERTEX
  5
   192
  8
0
  6
CONTINUOUS
 62
     0
 10
36.4508254549757
 20
266.225088782835
 30
0.0
 40
0.0
 41
0.0
  0
VERTEX
  5
   193
  8
0
  6
CONTINUOUS
 62
     0
 10
36.1632473422131
 20
266.234115606667
 30
0.0
 40
0.0
 41
0.0
  0
VERTEX
  5
   194
  8
0
  6
CONTINUOUS
 62
     0
 10
35.8749747555395
 20
266.237126966153
 30
0.0
 40
0.0
 41
0.0
  0
VERTEX
  5
   195
  8
0
  6
CONTINUOUS
 62
     0
 10
35.5867021688659
 20
266.234115606666
 30
0.0
 40
0.0
 41
0.0
  0
VERTEX
  5
   196
  8
0
  6
CONTINUOUS
 62
     0
 10
35.2991240561033
 20
266.225088782832
 30
0.0
 40
0.0
 41
0.0
  0
VERTEX
  5
   197
  8
0
  6
CONTINUOUS
 62
     0
 10
35.0129332181143
 20
266.210068241063
 30
0.0
 40
0.0
 41
0.0
  0
VERTEX
  5
   198
  8
0
  6
CONTINUOUS
 62
     0
 10
34.7288191136948
 20
266.189090167159
 30
0.0
 40
0.0
 41
0.0
  0
VERTEX
  5
   199
  8
0
  6
CONTINUOUS
 62
     0
 10
34.447466198608
 20
266.162205099136
 30
0.0
 40
0.0
 41
0.0
  0
VERTEX
  5
   19A
  8
0
  6
CONTINUOUS
 62
     0
 10
34.1695522766698
 20
266.12947780548
 30
0.0
 40
0.0
 41
0.0
  0
VERTEX
  5
   19B
  8
0
  6
CONTINUOUS
 62
     0
 10
33.8957468668605
 20
266.090987129106
 30
0.0
 40
0.0
 41
0.0
  0
VERTEX
  5
   19C
  8
0
  6
CONTINUOUS
 62
     0
 10
33.626709590395
 20
266.046825797426
 30
0.0
 40
0.0
 41
0.0
  0
VERTEX
  5
   19D
  8
0
  6
CONTINUOUS
 62
     0
 10
33.3630885816372
 20
265.997100198956
 30
0.0
 40
0.0
 41
0.0
  0
VERTEX
  5
   19E
  8
0
  6
CONTINUOUS
 62
     0
 10
33.1055189266875
 20
265.941930127017
 30
0.0
 40
0.0
 41
0.0
  0
VERTEX
  5
   19F
  8
0
  6
CONTINUOUS
 62
     0
 10
32.8546211334052
 20
265.881448491146
 30
0.0
 40
0.0
 41
0.0
  0
VERTEX
  5
   1A0
  8
0
  6
CONTINUOUS
 62
     0
 10
32.6109996365504
 20
265.815800996902
 30
0.0
 40
0.0
 41
0.0
  0
VERTEX
  5
   1A1
  8
0
  6
CONTINUOUS
 62
     0
 10
32.3752413416477
 20
265.745145794846
 30
0.0
 40
0.0
 41
0.0
  0
VERTEX
  5
   1A2
  8
0
  6
CONTINUOUS
 62
     0
 10
32.1479142110795
 20
265.669653099551
 30
0.0
 40
0.0
 41
0.0
  0
VERTEX
  5
   1A3
  8
0
  6
CONTINUOUS
 62
     0
 10
31.9295658958149
 20
265.589504779531
 30
0.0
 40
0.0
 41
0.0
  0
VERTEX
  5
   1A4
  8
0
  6
CONTINUOUS
 62
     0
 10
31.7207224160703
 20
265.504893919109
 30
0.0
 40
0.0
 41
0.0
  0
VERTEX
  5
   1A5
  8
0
  6
CONTINUOUS
 62
     0
 10
31.6200231432015
 20
265.460978327985
 30
0.0
 40
0.0
 41
0.0
  0
VERTEX
  5
   1A6
  8
0
  6
CONTINUOUS
 62
     0
 10
31.5218868940811
 20
265.41602435326
 30
0.0
 40
0.0
 41
0.0
  0
VERTEX
  5
   1A7
  8
0
  6
CONTINUOUS
 62
     0
 10
31.4263727823161
 20
265.370059073527
 30
0.0
 40
0.0
 41
0.0
  0
VERTEX
  5
   1A8
  8
0
  6
CONTINUOUS
 62
     0
 10
31.3335383420357
 20
265.323110176551
 30
0.0
 40
0.0
 41
0.0
  0
VERTEX
  5
   1A9
  8
0
  6
CONTINUOUS
 62
     0
 10
31.2434394932356
 20
265.275205942593
 30
0.0
 40
0.0
 41
0.0
  0
VERTEX
  5
   1AA
  8
0
  6
CONTINUOUS
 62
     0
 10
31.1561305080932
 20
265.226375227373
 30
0.0
 40
0.0
 41
0.0
  0
VERTEX
  5
   1AB
  8
0
  6
CONTINUOUS
 62
     0
 10
31.0716639782766
 20
265.176647444686
 30
0.0
 40
0.0
 41
0.0
  0
VERTEX
  5
   1AC
  8
0
  6
CONTINUOUS
 62
     0
 10
30.9900907832648
 20
265.12605254869
 30
0.0
 40
0.0
 41
0.0
  0
VERTEX
  5
   1AD
  8
0
  6
CONTINUOUS
 62
     0
 10
30.9114600597004
 20
265.074621015859
 30
0.0
 40
0.0
 41
0.0
  0
VERTEX
  5
   1AE
  8
0
  6
CONTINUOUS
 62
     0
 10
30.8358191717909
 20
265.022383826624
 30
0.0
 40
0.0
 41
0.0
  0
VERTEX
  5
   1AF
  8
0
  6
CONTINUOUS
 62
     0
 10
30.763213682779
 20
264.969372446715
 30
0.0
 40
0.0
 41
0.0
  0
VERTEX
  5
   1B0
  8
0
  6
CONTINUOUS
 62
     0
 10
30.6936873274962
 20
264.915618808205
 30
0.0
 40
0.0
 41
0.0
  0
VERTEX
  5
   1B1
  8
0
  6
CONTINUOUS
 62
     0
 10
30.6272819860193
 20
264.861155290277
 30
0.0
 40
0.0
 41
0.0
  0
VERTEX
  5
   1B2
  8
0
  6
CONTINUOUS
 62
     0
 10
30.5640376584428
 20
264.806014699716
 30
0.0
 40
0.0
 41
0.0
  0
VERTEX
  5
   1B3
  8
0
  6
CONTINUOUS
 62
     0
 10
30.503992440785
 20
264.750230251152
 30
0.0
 40
0.0
 41
0.0
  0
VERTEX
  5
   1B4
  8
0
  6
CONTINUOUS
 62
     0
 10
30.4471825020395
 20
264.693835547052
 30
0.0
 40
0.0
 41
0.0
  0
VERTEX
  5
   1B5
  8
0
  6
CONTINUOUS
 62
     0
 10
30.3936420623894
 20
264.636864557477
 30
0.0
 40
0.0
 41
0.0
  0
VERTEX
  5
   1B6
  8
0
  6
CONTINUOUS
 62
     0
 10
30.3434033725934
 20
264.57935159962
 30
0.0
 40
0.0
 41
0.0
  0
VERTEX
  5
   1B7
  8
0
  6
CONTINUOUS
 62
     0
 10
30.2964966945597
 20
264.521331317137
 30
0.0
 40
0.0
 41
0.0
  0
VERTEX
  5
   1B8
  8
0
  6
CONTINUOUS
 62
     0
 10
30.2529502831172
 20
264.462838659275
 30
0.0
 40
0.0
 41
0.0
  0
VERTEX
  5
   1B9
  8
0
  6
CONTINUOUS
 62
     0
 10
30.2127903689959
 20
264.403908859826
 30
0.0
 40
0.0
 41
0.0
  0
VERTEX
  5
   1BA
  8
0
  6
CONTINUOUS
 62
     0
 10
30.1760411430263
 20
264.344577415897
 30
0.0
 40
0.0
 41
0.0
  0
VERTEX
  5
   1BB
  8
0
  6
CONTINUOUS
 62
     0
 10
30.142724741568
 20
264.284880066531
 30
0.0
 40
0.0
 41
0.0
  0
VERTEX
  5
   1BC
  8
0
  6
CONTINUOUS
 62
     0
 10
30.1128612331755
 20
264.224852771179
 30
0.0
 40
0.0
 41
0.0
  0
VERTEX
  5
   1BD
  8
0
  6
CONTINUOUS
 62
     0
 10
30.0864686065096
 20
264.16453168804
 30
0.0
 40
0.0
 41
0.0
  0
VERTEX
  5
   1BE
  8
0
  6
CONTINUOUS
 62
     0
 10
30.0635627595017
 20
264.103953152277
 30
0.0
 40
0.0
 41
0.0
  0
VERTEX
  5
   1BF
  8
0
  6
CONTINUOUS
 62
     0
 10
30.0441574897776
 20
264.043153654137
 30
0.0
 40
0.0
 41
0.0
  0
VERTEX
  5
   1C0
  8
0
  6
CONTINUOUS
 62
     0
 10
30.028264486346
 20
263.982169816963
 30
0.0
 40
0.0
 41
0.0
  0
VERTEX
  5
   1C1
  8
0
  6
CONTINUOUS
 62
     0
 10
30.015893322558
 20
263.921038375138
 30
0.0
 40
0.0
 41
0.0
  0
VERTEX
  5
   1C2
  8
0
  6
CONTINUOUS
 62
     0
 10
30.0070514503401
 20
263.859796151957
 30
0.0
 40
0.0
 41
0.0
  0
VERTEX
  5
   1C3
  8
0
  6
CONTINUOUS
 62
     0
 10
30.0017441957054
 20
263.798480037446
 30
0.0
 40
0.0
 41
0.0
  0
VERTEX
  5
   1C4
  8
0
  6
CONTINUOUS
 62
     0
 10
29.9999747555458
 20
263.737126966139
 30
0.0
 40
0.0
 41
0.0
  0
SEQEND
  5
   1C5
  8
0
  6
CONTINUOUS
 62
     0
  0
POLYLINE
  5
   1C6
  8
0
  6
CONTINUOUS
 62
     0
 66
     1
 10
0.0
 20
0.0
 30
0.0
  0
VERTEX
  5
   1C7
  8
0
  6
CONTINUOUS
 62
     0
 10
53.4999747555458
 20
263.737126966174
 30
0.0
 40
0.0
 41
0.0
  0
VERTEX
  5
   1C8
  8
0
  6
CONTINUOUS
 62
     0
 10
53.4982053153854
 20
263.798480037482
 30
0.0
 40
0.0
 41
0.0
  0
VERTEX
  5
   1C9
  8
0
  6
CONTINUOUS
 62
     0
 10
53.4928980607501
 20
263.859796151993
 30
0.0
 40
0.0
 41
0.0
  0
VERTEX
  5
   1CA
  8
0
  6
CONTINUOUS
 62
     0
 10
53.4840561885315
 20
263.921038375174
 30
0.0
 40
0.0
 41
0.0
  0
VERTEX
  5
   1CB
  8
0
  6
CONTINUOUS
 62
     0
 10
53.4716850247428
 20
263.982169816998
 30
0.0
 40
0.0
 41
0.0
  0
VERTEX
  5
   1CC
  8
0
  6
CONTINUOUS
 62
     0
 10
53.4557920213105
 20
264.043153654173
 30
0.0
 40
0.0
 41
0.0
  0
VERTEX
  5
   1CD
  8
0
  6
CONTINUOUS
 62
     0
 10
53.4363867515857
 20
264.103953152313
 30
0.0
 40
0.0
 41
0.0
  0
VERTEX
  5
   1CE
  8
0
  6
CONTINUOUS
 62
     0
 10
53.413480904577
 20
264.164531688075
 30
0.0
 40
0.0
 41
0.0
  0
VERTEX
  5
   1CF
  8
0
  6
CONTINUOUS
 62
     0
 10
53.3870882779105
 20
264.224852771215
 30
0.0
 40
0.0
 41
0.0
  0
VERTEX
  5
   1D0
  8
0
  6
CONTINUOUS
 62
     0
 10
53.3572247695173
 20
264.284880066567
 30
0.0
 40
0.0
 41
0.0
  0
VERTEX
  5
   1D1
  8
0
  6
CONTINUOUS
 62
     0
 10
53.3239083680583
 20
264.344577415932
 30
0.0
 40
0.0
 41
0.0
  0
VERTEX
  5
   1D2
  8
0
  6
CONTINUOUS
 62
     0
 10
53.287159142088
 20
264.403908859861
 30
0.0
 40
0.0
 41
0.0
  0
VERTEX
  5
   1D3
  8
0
  6
CONTINUOUS
 62
     0
 10
53.246999227966
 20
264.46283865931
 30
0.0
 40
0.0
 41
0.0
  0
VERTEX
  5
   1D4
  8
0
  6
CONTINUOUS
 62
     0
 10
53.2034528165228
 20
264.521331317171
 30
0.0
 40
0.0
 41
0.0
  0
VERTEX
  5
   1D5
  8
0
  6
CONTINUOUS
 62
     0
 10
53.1565461384884
 20
264.579351599654
 30
0.0
 40
0.0
 41
0.0
  0
VERTEX
  5
   1D6
  8
0
  6
CONTINUOUS
 62
     0
 10
53.1063074486917
 20
264.636864557511
 30
0.0
 40
0.0
 41
0.0
  0
VERTEX
  5
   1D7
  8
0
  6
CONTINUOUS
 62
     0
 10
53.0527670090408
 20
264.693835547086
 30
0.0
 40
0.0
 41
0.0
  0
VERTEX
  5
   1D8
  8
0
  6
CONTINUOUS
 62
     0
 10
52.9959570702947
 20
264.750230251186
 30
0.0
 40
0.0
 41
0.0
  0
VERTEX
  5
   1D9
  8
0
  6
CONTINUOUS
 62
     0
 10
52.9359118526361
 20
264.806014699749
 30
0.0
 40
0.0
 41
0.0
  0
VERTEX
  5
   1DA
  8
0
  6
CONTINUOUS
 62
     0
 10
52.872667525059
 20
264.86115529031
 30
0.0
 40
0.0
 41
0.0
  0
VERTEX
  5
   1DB
  8
0
  6
CONTINUOUS
 62
     0
 10
52.8062621835813
 20
264.915618808238
 30
0.0
 40
0.0
 41
0.0
  0
VERTEX
  5
   1DC
  8
0
  6
CONTINUOUS
 62
     0
 10
52.7367358282979
 20
264.969372446747
 30
0.0
 40
0.0
 41
0.0
  0
VERTEX
  5
   1DD
  8
0
  6
CONTINUOUS
 62
     0
 10
52.6641303392852
 20
265.022383826655
 30
0.0
 40
0.0
 41
0.0
  0
VERTEX
  5
   1DE
  8
0
  6
CONTINUOUS
 62
     0
 10
52.5884894513751
 20
265.07462101589
 30
0.0
 40
0.0
 41
0.0
  0
VERTEX
  5
   1DF
  8
0
  6
CONTINUOUS
 62
     0
 10
52.50985872781
 20
265.126052548721
 30
0.0
 40
0.0
 41
0.0
  0
VERTEX
  5
   1E0
  8
0
  6
CONTINUOUS
 62
     0
 10
52.4282855327975
 20
265.176647444716
 30
0.0
 40
0.0
 41
0.0
  0
VERTEX
  5
   1E1
  8
0
  6
CONTINUOUS
 62
     0
 10
52.3438190029802
 20
265.226375227402
 30
0.0
 40
0.0
 41
0.0
  0
VERTEX
  5
   1E2
  8
0
  6
CONTINUOUS
 62
     0
 10
52.2565100178372
 20
265.275205942623
 30
0.0
 40
0.0
 41
0.0
  0
VERTEX
  5
   1E3
  8
0
  6
CONTINUOUS
 62
     0
 10
52.1664111690364
 20
265.32311017658
 30
0.0
 40
0.0
 41
0.0
  0
VERTEX
  5
   1E4
  8
0
  6
CONTINUOUS
 62
     0
 10
52.0735767287554
 20
265.370059073555
 30
0.0
 40
0.0
 41
0.0
  0
VERTEX
  5
   1E5
  8
0
  6
CONTINUOUS
 62
     0
 10
51.9780626169897
 20
265.416024353288
 30
0.0
 40
0.0
 41
0.0
  0
VERTEX
  5
   1E6
  8
0
  6
CONTINUOUS
 62
     0
 10
51.8799263678686
 20
265.460978328012
 30
0.0
 40
0.0
 41
0.0
  0
VERTEX
  5
   1E7
  8
0
  6
CONTINUOUS
 62
     0
 10
51.676025455858
 20
265.547744673548
 30
0.0
 40
0.0
 41
0.0
  0
VERTEX
  5
   1E8
  8
0
  6
CONTINUOUS
 62
     0
 10
51.4623652078802
 20
265.630149082434
 30
0.0
 40
0.0
 41
0.0
  0
VERTEX
  5
   1E9
  8
0
  6
CONTINUOUS
 62
     0
 10
51.239460350187
 20
265.707993035234
 30
0.0
 40
0.0
 41
0.0
  0
VERTEX
  5
   1EA
  8
0
  6
CONTINUOUS
 62
     0
 10
51.0078478801047
 20
265.781088999046
 30
0.0
 40
0.0
 41
0.0
  0
VERTEX
  5
   1EB
  8
0
  6
CONTINUOUS
 62
     0
 10
50.7680857723607
 20
265.84926087929
 30
0.0
 40
0.0
 41
0.0
  0
VERTEX
  5
   1EC
  8
0
  6
CONTINUOUS
 62
     0
 10
50.5207516348731
 20
265.912344443937
 30
0.0
 40
0.0
 41
0.0
  0
VERTEX
  5
   1ED
  8
0
  6
CONTINUOUS
 62
     0
 10
50.2664413172431
 20
265.970187719153
 30
0.0
 40
0.0
 41
0.0
  0
VERTEX
  5
   1EE
  8
0
  6
CONTINUOUS
 62
     0
 10
50.1368609294248
 20
265.997100198972
 30
0.0
 40
0.0
 41
0.0
  0
VERTEX
  5
   1EF
  8
0
  6
CONTINUOUS
 62
     0
 10
49.8732399206661
 20
266.046825797441
 30
0.0
 40
0.0
 41
0.0
  0
VERTEX
  5
   1F0
  8
0
  6
CONTINUOUS
 62
     0
 10
49.6042026441998
 20
266.090987129119
 30
0.0
 40
0.0
 41
0.0
  0
VERTEX
  5
   1F1
  8
0
  6
CONTINUOUS
 62
     0
 10
49.3303972343898
 20
266.129477805491
 30
0.0
 40
0.0
 41
0.0
  0
VERTEX
  5
   1F2
  8
0
  6
CONTINUOUS
 62
     0
 10
49.052483312451
 20
266.162205099145
 30
0.0
 40
0.0
 41
0.0
  0
VERTEX
  5
   1F3
  8
0
  6
CONTINUOUS
 62
     0
 10
48.7711303973635
 20
266.189090167166
 30
0.0
 40
0.0
 41
0.0
  0
VERTEX
  5
   1F4
  8
0
  6
CONTINUOUS
 62
     0
 10
48.4870162929436
 20
266.210068241069
 30
0.0
 40
0.0
 41
0.0
  0
VERTEX
  5
   1F5
  8
0
  6
CONTINUOUS
 62
     0
 10
48.2008254549541
 20
266.225088782836
 30
0.0
 40
0.0
 41
0.0
  0
VERTEX
  5
   1F6
  8
0
  6
CONTINUOUS
 62
     0
 10
47.9132473421912
 20
266.234115606668
 30
0.0
 40
0.0
 41
0.0
  0
VERTEX
  5
   1F7
  8
0
  6
CONTINUOUS
 62
     0
 10
47.6249747555173
 20
266.237126966153
 30
0.0
 40
0.0
 41
0.0
  0
VERTEX
  5
   1F8
  8
0
  6
CONTINUOUS
 62
     0
 10
47.3367021688435
 20
266.234115606665
 30
0.0
 40
0.0
 41
0.0
  0
VERTEX
  5
   1F9
  8
0
  6
CONTINUOUS
 62
     0
 10
47.0491240560808
 20
266.225088782831
 30
0.0
 40
0.0
 41
0.0
  0
VERTEX
  5
   1FA
  8
0
  6
CONTINUOUS
 62
     0
 10
46.7629332180917
 20
266.210068241062
 30
0.0
 40
0.0
 41
0.0
  0
VERTEX
  5
   1FB
  8
0
  6
CONTINUOUS
 62
     0
 10
46.4788191136722
 20
266.189090167157
 30
0.0
 40
0.0
 41
0.0
  0
VERTEX
  5
   1FC
  8
0
  6
CONTINUOUS
 62
     0
 10
46.1974661985854
 20
266.162205099134
 30
0.0
 40
0.0
 41
0.0
  0
VERTEX
  5
   1FD
  8
0
  6
CONTINUOUS
 62
     0
 10
45.9195522766473
 20
266.129477805477
 30
0.0
 40
0.0
 41
0.0
  0
VERTEX
  5
   1FE
  8
0
  6
CONTINUOUS
 62
     0
 10
45.6457468668382
 20
266.090987129103
 30
0.0
 40
0.0
 41
0.0
  0
VERTEX
  5
   1FF
  8
0
  6
CONTINUOUS
 62
     0
 10
45.3767095903729
 20
266.046825797422
 30
0.0
 40
0.0
 41
0.0
  0
VERTEX
  5
   200
  8
0
  6
CONTINUOUS
 62
     0
 10
45.1130885816153
 20
265.997100198951
 30
0.0
 40
0.0
 41
0.0
  0
VERTEX
  5
   201
  8
0
  6
CONTINUOUS
 62
     0
 10
44.8555189266659
 20
265.941930127012
 30
0.0
 40
0.0
 41
0.0
  0
VERTEX
  5
   202
  8
0
  6
CONTINUOUS
 62
     0
 10
44.604621133384
 20
265.881448491141
 30
0.0
 40
0.0
 41
0.0
  0
VERTEX
  5
   203
  8
0
  6
CONTINUOUS
 62
     0
 10
44.3609996365297
 20
265.815800996896
 30
0.0
 40
0.0
 41
0.0
  0
VERTEX
  5
   204
  8
0
  6
CONTINUOUS
 62
     0
 10
44.1252413416275
 20
265.74514579484
 30
0.0
 40
0.0
 41
0.0
  0
VERTEX
  5
   205
  8
0
  6
CONTINUOUS
 62
     0
 10
43.8979142110599
 20
265.669653099544
 30
0.0
 40
0.0
 41
0.0
  0
VERTEX
  5
   206
  8
0
  6
CONTINUOUS
 62
     0
 10
43.6795658957959
 20
265.589504779524
 30
0.0
 40
0.0
 41
0.0
  0
VERTEX
  5
   207
  8
0
  6
CONTINUOUS
 62
     0
 10
43.4707224160521
 20
265.504893919102
 30
0.0
 40
0.0
 41
0.0
  0
VERTEX
  5
   208
  8
0
  6
CONTINUOUS
 62
     0
 10
43.3700231431837
 20
265.460978327977
 30
0.0
 40
0.0
 41
0.0
  0
VERTEX
  5
   209
  8
0
  6
CONTINUOUS
 62
     0
 10
43.2718868940637
 20
265.416024353252
 30
0.0
 40
0.0
 41
0.0
  0
VERTEX
  5
   20A
  8
0
  6
CONTINUOUS
 62
     0
 10
43.1763727822989
 20
265.370059073518
 30
0.0
 40
0.0
 41
0.0
  0
VERTEX
  5
   20B
  8
0
  6
CONTINUOUS
 62
     0
 10
43.083538342019
 20
265.323110176542
 30
0.0
 40
0.0
 41
0.0
  0
VERTEX
  5
   20C
  8
0
  6
CONTINUOUS
 62
     0
 10
42.9934394932193
 20
265.275205942584
 30
0.0
 40
0.0
 41
0.0
  0
VERTEX
  5
   20D
  8
0
  6
CONTINUOUS
 62
     0
 10
42.9061305080774
 20
265.226375227364
 30
0.0
 40
0.0
 41
0.0
  0
VERTEX
  5
   20E
  8
0
  6
CONTINUOUS
 62
     0
 10
42.8216639782612
 20
265.176647444677
 30
0.0
 40
0.0
 41
0.0
  0
VERTEX
  5
   20F
  8
0
  6
CONTINUOUS
 62
     0
 10
42.7400907832499
 20
265.126052548681
 30
0.0
 40
0.0
 41
0.0
  0
VERTEX
  5
   210
  8
0
  6
CONTINUOUS
 62
     0
 10
42.661460059686
 20
265.074621015849
 30
0.0
 40
0.0
 41
0.0
  0
VERTEX
  5
   211
  8
0
  6
CONTINUOUS
 62
     0
 10
42.585819171777
 20
265.022383826614
 30
0.0
 40
0.0
 41
0.0
  0
VERTEX
  5
   212
  8
0
  6
CONTINUOUS
 62
     0
 10
42.5132136827656
 20
264.969372446705
 30
0.0
 40
0.0
 41
0.0
  0
VERTEX
  5
   213
  8
0
  6
CONTINUOUS
 62
     0
 10
42.4436873274834
 20
264.915618808195
 30
0.0
 40
0.0
 41
0.0
  0
VERTEX
  5
   214
  8
0
  6
CONTINUOUS
 62
     0
 10
42.377281986007
 20
264.861155290266
 30
0.0
 40
0.0
 41
0.0
  0
VERTEX
  5
   215
  8
0
  6
CONTINUOUS
 62
     0
 10
42.3140376584311
 20
264.806014699705
 30
0.0
 40
0.0
 41
0.0
  0
VERTEX
  5
   216
  8
0
  6
CONTINUOUS
 62
     0
 10
42.2539924407738
 20
264.750230251142
 30
0.0
 40
0.0
 41
0.0
  0
VERTEX
  5
   217
  8
0
  6
CONTINUOUS
 62
     0
 10
42.1971825020289
 20
264.693835547042
 30
0.0
 40
0.0
 41
0.0
  0
VERTEX
  5
   218
  8
0
  6
CONTINUOUS
 62
     0
 10
42.1436420623794
 20
264.636864557466
 30
0.0
 40
0.0
 41
0.0
  0
VERTEX
  5
   219
  8
0
  6
CONTINUOUS
 62
     0
 10
42.093403372584
 20
264.579351599609
 30
0.0
 40
0.0
 41
0.0
  0
VERTEX
  5
   21A
  8
0
  6
CONTINUOUS
 62
     0
 10
42.0464966945509
 20
264.521331317125
 30
0.0
 40
0.0
 41
0.0
  0
VERTEX
  5
   21B
  8
0
  6
CONTINUOUS
 62
     0
 10
42.002950283109
 20
264.462838659264
 30
0.0
 40
0.0
 41
0.0
  0
VERTEX
  5
   21C
  8
0
  6
CONTINUOUS
 62
     0
 10
41.9627903689883
 20
264.403908859815
 30
0.0
 40
0.0
 41
0.0
  0
VERTEX
  5
   21D
  8
0
  6
CONTINUOUS
 62
     0
 10
41.9260411430194
 20
264.344577415886
 30
0.0
 40
0.0
 41
0.0
  0
VERTEX
  5
   21E
  8
0
  6
CONTINUOUS
 62
     0
 10
41.8927247415618
 20
264.284880066519
 30
0.0
 40
0.0
 41
0.0
  0
VERTEX
  5
   21F
  8
0
  6
CONTINUOUS
 62
     0
 10
41.86286123317
 20
264.224852771167
 30
0.0
 40
0.0
 41
0.0
  0
VERTEX
  5
   220
  8
0
  6
CONTINUOUS
 62
     0
 10
41.8364686065047
 20
264.164531688028
 30
0.0
 40
0.0
 41
0.0
  0
VERTEX
  5
   221
  8
0
  6
CONTINUOUS
 62
     0
 10
41.8135627594975
 20
264.103953152265
 30
0.0
 40
0.0
 41
0.0
  0
VERTEX
  5
   222
  8
0
  6
CONTINUOUS
 62
     0
 10
41.794157489774
 20
264.043153654125
 30
0.0
 40
0.0
 41
0.0
  0
VERTEX
  5
   223
  8
0
  6
CONTINUOUS
 62
     0
 10
41.7782644863431
 20
263.98216981695
 30
0.0
 40
0.0
 41
0.0
  0
VERTEX
  5
   224
  8
0
  6
CONTINUOUS
 62
     0
 10
41.7658933225558
 20
263.921038375125
 30
0.0
 40
0.0
 41
0.0
  0
VERTEX
  5
   225
  8
0
  6
CONTINUOUS
 62
     0
 10
41.7570514503386
 20
263.859796151945
 30
0.0
 40
0.0
 41
0.0
  0
VERTEX
  5
   226
  8
0
  6
CONTINUOUS
 62
     0
 10
41.7517441957047
 20
263.798480037433
 30
0.0
 40
0.0
 41
0.0
  0
VERTEX
  5
   227
  8
0
  6
CONTINUOUS
 62
     0
 10
41.7499747555458
 20
263.737126966126
 30
0.0
 40
0.0
 41
0.0
  0
SEQEND
  5
   228
  8
0
  6
CONTINUOUS
 62
     0
  0
INSERT
  5
   229
  8
0
  6
CONTINUOUS
 62
     0
  2
*HATCH1094
 10
0.0
 20
0.0
 30
0.0
  0
ENDBLK
  5
   22A
  8
0
  6
CONTINUOUS
 62
     0
  0
BLOCK
  5
   22B
  8
0
  6
CONTINUOUS
 62
     7
  2
159486
 70
    64
 10
0.0
 20
0.0
 30
0.0
  3
159486
  0
LINE
  5
   22C
  8
0
  6
DASHDOT
 62
   212
 10
16.8833808338534
 20
217.237126966153
 30
0.0
 11
51.6170200640336
 21
217.237126966153
 31
0.0
  0
LINE
  5
   22D
  8
0
  6
CONTINUOUS
 62
   212
 10
24.9999747555458
 20
205.237126966153
 30
0.0
 11
24.9999747555458
 21
229.237126966153
 31
0.0
  0
LINE
  5
   22E
  8
0
  6
CONTINUOUS
 62
   212
 10
27.9999747555458
 20
222.13610645172
 30
0.0
 11
27.9999747555458
 21
229.237126966153
 31
0.0
  0
LINE
  5
   22F
  8
0
  6
CONTINUOUS
 62
   212
 10
24.9999747555458
 20
229.237126966153
 30
0.0
 11
32.9999747555458
 21
229.237126966153
 31
0.0
  0
LINE
  5
   230
  8
0
  6
CONTINUOUS
 62
   212
 10
24.9999747555458
 20
205.237126966153
 30
0.0
 11
27.9999747555458
 21
205.237126966153
 31
0.0
  0
LINE
  5
   231
  8
0
  6
CONTINUOUS
 62
   212
 10
69.9999747555458
 20
207.237126966153
 30
0.0
 11
69.9999747555458
 21
209.237126966153
 31
0.0
  0
ARC
  5
   232
  8
0
  6
CONTINUOUS
 62
   212
 10
67.9999747555458
 20
227.237126966153
 30
0.0
 40
2.0
 50
0.0
 51
90.0
  0
ARC
  5
   233
  8
0
  6
CONTINUOUS
 62
   212
 10
67.9999747555458
 20
207.237126966153
 30
0.0
 40
2.0
 50
270.0
 51
360.0
  0
ARC
  5
   234
  8
0
  6
CONTINUOUS
 62
   212
 10
26.9999747555457
 20
217.237126966153
 30
0.0
 40
5.00000000000001
 50
281.536959032815
 51
438.463040967185
  0
ARC
  5
   235
  8
0
  6
CONTINUOUS
 62
   212
 10
26.9999747555457
 20
217.237126966153
 30
0.0
 40
3.00000000000001
 50
0.0
 51
84.7840914295458
  0
LINE
  5
   236
  8
0
  6
CONTINUOUS
 62
   212
 10
27.9999747555458
 20
205.237126966153
 30
0.0
 11
27.9999747555458
 21
212.338147480587
 31
0.0
  0
ARC
  5
   237
  8
0
  6
CONTINUOUS
 62
   212
 10
26.9999747555457
 20
217.237126966153
 30
0.0
 40
3.00000000000001
 50
275.215908570454
 51
360.0
  0
ARC
  5
   238
  8
0
  6
CONTINUOUS
 62
   212
 10
27.4999747555458
 20
222.714352541205
 30
0.0
 40
2.5
 50
180.0
 51
264.784091429546
  0
ARC
  5
   239
  8
0
  6
CONTINUOUS
 62
   212
 10
27.4999747555458
 20
211.759901391102
 30
0.0
 40
2.5
 50
95.2159085704542
 51
180.0
  0
LINE
  5
   23A
  8
0
  6
CONTINUOUS
 62
   212
 10
66.9999747555458
 20
205.237126966153
 30
0.0
 11
66.9999747555458
 21
209.237126966153
 31
0.0
  0
LINE
  5
   23B
  8
0
  6
CONTINUOUS
 62
   212
 10
62.9999747555458
 20
205.237126966153
 30
0.0
 11
62.9999747555458
 21
209.237126966153
 31
0.0
  0
LINE
  5
   23C
  8
0
  6
CONTINUOUS
 62
   212
 10
62.9999747555458
 20
224.237126966153
 30
0.0
 11
66.9999747555458
 21
224.237126966153
 31
0.0
  0
LINE
  5
   23D
  8
0
  6
CONTINUOUS
 62
   212
 10
62.9999747555458
 20
210.237126966153
 30
0.0
 11
66.9999747555458
 21
210.237126966153
 31
0.0
  0
INSERT
  5
   23E
  8
0
  6
CONTINUOUS
 62
   212
  2
*HATCH1091
 10
0.0
 20
0.0
 30
0.0
  0
INSERT
  5
   23F
  8
0
  6
CONTINUOUS
 62
     1
  2
*HATCH1092
 10
0.0
 20
0.0
 30
0.0
  0
INSERT
  5
   240
  8
0
  6
CONTINUOUS
 62
     1
  2
*HATCH1093
 10
0.0
 20
0.0
 30
0.0
  0
INSERT
  5
   241
  8
255
  6
CONTINUOUS
 62
     7
  2
140422
 10
0.0
 20
0.0
 30
0.0
  0
LINE
  5
   242
  8
0
  6
DOT
 62
   212
 10
32.9999747555458
 20
229.237126966153
 30
0.0
 11
50.4999747555458
 21
229.237126966153
 31
0.0
  0
LINE
  5
   243
  8
0
  6
CONTINUOUS
 62
   212
 10
50.4999747555458
 20
229.237126966153
 30
0.0
 11
67.9999747555458
 21
229.237126966153
 31
0.0
  0
LINE
  5
   244
  8
0
  6
CONTINUOUS
 62
   212
 10
32.9999747555458
 20
205.237126966153
 30
0.0
 11
67.9999747555458
 21
205.237126966153
 31
0.0
  0
LINE
  5
   245
  8
0
  6
DOT
 62
   212
 10
27.9999747555458
 20
205.237126966153
 30
0.0
 11
32.9999747555458
 21
205.237126966153
 31
0.0
  0
LINE
  5
   246
  8
0
  6
CONTINUOUS
 62
   212
 10
62.9999747555458
 20
225.237126966153
 30
0.0
 11
62.9999747555458
 21
229.237126966153
 31
0.0
  0
LINE
  5
   247
  8
0
  6
DOT
 62
   212
 10
62.9999747555458
 20
209.237126966153
 30
0.0
 11
62.9999747555458
 21
225.237126966153
 31
0.0
  0
LINE
  5
   248
  8
0
  6
DOT
 62
   212
 10
66.9999747555458
 20
209.237126966153
 30
0.0
 11
66.9999747555458
 21
225.237126966153
 31
0.0
  0
LINE
  5
   249
  8
0
  6
CONTINUOUS
 62
   212
 10
66.9999747555458
 20
225.237126966153
 30
0.0
 11
66.9999747555458
 21
229.237126966153
 31
0.0
  0
INSERT
  5
   24A
  8
255
  6
CONTINUOUS
 62
   218
  2
CAVO
 10
0.0
 20
0.0
 30
0.0
  0
LINE
  5
   24B
  8
0
  6
CONTINUOUS
 62
   212
 10
69.9999747555458
 20
225.237126966153
 30
0.0
 11
69.9999747555458
 21
227.237126966153
 31
0.0
  0
LINE
  5
   24C
  8
0
  6
DOT
 62
   212
 10
69.9999747555458
 20
209.237126966153
 30
0.0
 11
69.9999747555458
 21
225.237126966153
 31
0.0
  0
ENDBLK
  5
   24D
  8
0
  6
CONTINUOUS
 62
     7
  0
BLOCK
  5
   24E
  8
0
  6
CONTINUOUS
 62
     0
  2
*HATCH1095
 70
    65
 10
0.0
 20
0.0
 30
0.0
  3
*HATCH1095
  0
LINE
  5
   24F
  8
0
  6
CONTINUOUS
 62
    52
 10
0.393398702144623
 20
11.0
 30
0.0
 11
-6.53286124910259E-16
 21
10.6066017150879
 31
0.0
  0
LINE
  5
   250
  8
0
  6
CONTINUOUS
 62
    52
 10
2.51471900939941
 20
11.0
 30
0.0
 11
-4.06108014267163E-16
 21
8.48528099060059
 31
0.0
  0
LINE
  5
   251
  8
0
  6
CONTINUOUS
 62
    52
 10
4.63603925704956
 20
11.0
 30
0.0
 11
-1.58929903624068E-16
 21
6.36396074295044
 31
0.0
  0
LINE
  5
   252
  8
0
  6
CONTINUOUS
 62
    52
 10
6.75735998153687
 20
11.0
 30
0.0
 11
0.757359504699707
 21
5.0
 31
0.0
  0
LINE
  5
   253
  8
0
  6
CONTINUOUS
 62
    52
 10
8.87868022918701
 20
11.0
 30
0.0
 11
2.87867975234985
 21
5.0
 31
0.0
  0
LINE
  5
   254
  8
0
  6
CONTINUOUS
 62
    52
 10
11.0
 20
11.0
 30
0.0
 11
5.0
 21
5.0
 31
0.0
  0
LINE
  5
   255
  8
0
  6
CONTINUOUS
 62
    52
 10
13.1213207244873
 20
11.0
 30
0.0
 11
7.12132024765015
 21
5.0
 31
0.0
  0
LINE
  5
   256
  8
0
  6
CONTINUOUS
 62
    52
 10
15.2426414489746
 20
11.0
 30
0.0
 11
9.24264049530029
 21
5.0
 31
0.0
  0
LINE
  5
   257
  8
0
  6
CONTINUOUS
 62
    52
 10
17.3639621734619
 20
11.0
 30
0.0
 11
11.3639602661133
 21
5.0
 31
0.0
  0
LINE
  5
   258
  8
0
  6
CONTINUOUS
 62
    52
 10
19.4852828979492
 20
11.0
 30
0.0
 11
13.4852809906006
 21
5.0
 31
0.0
  0
LINE
  5
   259
  8
0
  6
CONTINUOUS
 62
    52
 10
20.0
 20
9.39339733123779
 30
0.0
 11
15.6066026687622
 21
5.0
 31
0.0
  0
LINE
  5
   25A
  8
0
  6
CONTINUOUS
 62
    52
 10
20.0
 20
7.27207708358765
 30
0.0
 11
17.7279224395752
 21
5.0
 31
0.0
  0
LINE
  5
   25B
  8
0
  6
CONTINUOUS
 62
    52
 10
20.0
 20
5.1507568359375
 30
0.0
 11
19.8492431640625
 21
5.0
 31
0.0
  0
ENDBLK
  5
   25C
  8
0
  6
CONTINUOUS
 62
     0
  0
BLOCK
  5
   25D
  8
0
  6
CONTINUOUS
 62
     0
  2
*HATCH1096
 70
    65
 10
0.0
 20
0.0
 30
0.0
  3
*HATCH1096
  0
LINE
  5
   25E
  8
0
  6
CONTINUOUS
 62
    52
 10
1.36396086215973
 20
-5.0
 30
0.0
 11
-1.00376785763979E-16
 21
-6.36396074295044
 31
0.0
  0
LINE
  5
   25F
  8
0
  6
CONTINUOUS
 62
    52
 10
3.48528099060059
 20
-5.0
 30
0.0
 11
-2.56489279134466E-16
 21
-8.48528099060059
 31
0.0
  0
LINE
  5
   260
  8
0
  6
CONTINUOUS
 62
    52
 10
5.60660171508789
 20
-5.0
 30
0.0
 11
-4.12601765887509E-16
 21
-10.6066017150879
 31
0.0
  0
LINE
  5
   261
  8
0
  6
CONTINUOUS
 62
    52
 10
-3.89339900016785
 20
-14.5
 30
0.0
 11
-5.0
 21
-15.6066007614136
 31
0.0
  0
LINE
  5
   262
  8
0
  6
CONTINUOUS
 62
    52
 10
7.72792196273804
 20
-5.0
 30
0.0
 11
-5.68714279110331E-16
 21
-12.7279214859009
 31
0.0
  0
LINE
  5
   263
  8
0
  6
CONTINUOUS
 62
    52
 10
-1.77207851409912
 20
-14.5
 30
0.0
 11
-3.7720787525177
 21
-16.5
 31
0.0
  0
LINE
  5
   264
  8
0
  6
CONTINUOUS
 62
    52
 10
9.84924221038818
 20
-5.0
 30
0.0
 11
-1.65075826644897
 21
-16.5
 31
0.0
  0
LINE
  5
   265
  8
0
  6
CONTINUOUS
 62
    52
 10
11.9705619812012
 20
-5.0
 30
0.0
 11
0.470561981201172
 21
-16.5
 31
0.0
  0
LINE
  5
   266
  8
0
  6
CONTINUOUS
 62
    52
 10
14.0918827056885
 20
-5.0
 30
0.0
 11
2.59188222885132
 21
-16.5
 31
0.0
  0
LINE
  5
   267
  8
0
  6
CONTINUOUS
 62
    52
 10
16.2132034301758
 20
-5.0
 30
0.0
 11
4.71320247650146
 21
-16.5
 31
0.0
  0
LINE
  5
   268
  8
0
  6
CONTINUOUS
 62
    52
 10
18.3345241546631
 20
-5.0
 30
0.0
 11
6.83452272415161
 21
-16.5
 31
0.0
  0
LINE
  5
   269
  8
0
  6
CONTINUOUS
 62
    52
 10
20.0
 20
-5.45584487915039
 30
0.0
 11
8.95584392547607
 21
-16.5
 31
0.0
  0
LINE
  5
   26A
  8
0
  6
CONTINUOUS
 62
    52
 10
20.0
 20
-7.57716512680054
 30
0.0
 11
11.0771636962891
 21
-16.5
 31
0.0
  0
LINE
  5
   26B
  8
0
  6
CONTINUOUS
 62
    52
 10
20.0
 20
-9.69848537445068
 30
0.0
 11
13.1984844207764
 21
-16.5
 31
0.0
  0
LINE
  5
   26C
  8
0
  6
CONTINUOUS
 62
    52
 10
20.0
 20
-11.8198051452637
 30
0.0
 11
15.3198051452637
 21
-16.5
 31
0.0
  0
LINE
  5
   26D
  8
0
  6
CONTINUOUS
 62
    52
 10
20.0
 20
-13.941125869751
 30
0.0
 11
17.441125869751
 21
-16.5
 31
0.0
  0
LINE
  5
   26E
  8
0
  6
CONTINUOUS
 62
    52
 10
20.0
 20
-16.0624465942383
 30
0.0
 11
19.5624465942383
 21
-16.5
 31
0.0
  0
ENDBLK
  5
   26F
  8
0
  6
CONTINUOUS
 62
     0
  0
BLOCK
  5
   270
  8
0
  6
CONTINUOUS
 62
     0
  2
*HATCH1097
 70
    65
 10
0.0
 20
0.0
 30
0.0
  3
*HATCH1097
  0
LINE
  5
   271
  8
0
  6
CONTINUOUS
 62
    52
 10
17.6543273925781
 20
-37.5
 30
0.0
 11
16.5
 21
-38.6543273925781
 31
0.0
  0
LINE
  5
   272
  8
0
  6
CONTINUOUS
 62
    52
 10
19.7756481170654
 20
-37.5
 30
0.0
 11
16.5
 21
-40.7756462097168
 31
0.0
  0
LINE
  5
   273
  8
0
  6
CONTINUOUS
 62
    52
 10
20.0
 20
-39.3969688415527
 30
0.0
 11
16.5
 21
-42.8969688415527
 31
0.0
  0
LINE
  5
   274
  8
0
  6
CONTINUOUS
 62
    52
 10
20.0
 20
-41.5182876586914
 30
0.0
 11
16.5
 21
-45.0182876586914
 31
0.0
  0
LINE
  5
   275
  8
0
  6
CONTINUOUS
 62
    52
 10
20.0
 20
-43.6396102905273
 30
0.0
 11
17.6396083831787
 21
-46.0
 31
0.0
  0
LINE
  5
   276
  8
0
  6
CONTINUOUS
 62
    52
 10
20.0
 20
-45.760929107666
 30
0.0
 11
19.760929107666
 21
-46.0
 31
0.0
  0
ENDBLK
  5
   277
  8
0
  6
CONTINUOUS
 62
     0
  0
BLOCK
  5
   278
  8
0
  6
CONTINUOUS
 62
     0
  2
*HATCH1098
 70
    65
 10
0.0
 20
0.0
 30
0.0
  3
*HATCH1098
  0
LINE
  5
   279
  8
0
  6
CONTINUOUS
 62
    52
 10
-3.55887603759766
 20
-37.5
 30
0.0
 11
-5.0
 21
-38.9411239624023
 31
0.0
  0
LINE
  5
   27A
  8
0
  6
CONTINUOUS
 62
    52
 10
-1.5
 20
-37.562442779541
 30
0.0
 11
-5.0
 21
-41.062442779541
 31
0.0
  0
LINE
  5
   27B
  8
0
  6
CONTINUOUS
 62
    52
 10
-1.5
 20
-39.6837615966797
 30
0.0
 11
-5.0
 21
-43.1837615966797
 31
0.0
  0
LINE
  5
   27C
  8
0
  6
CONTINUOUS
 62
    52
 10
-1.5
 20
-41.8050804138184
 30
0.0
 11
-5.0
 21
-45.3050804138184
 31
0.0
  0
LINE
  5
   27D
  8
0
  6
CONTINUOUS
 62
    52
 10
-1.5
 20
-43.9264068603516
 30
0.0
 11
-3.57359504699707
 21
-46.0
 31
0.0
  0
ENDBLK
  5
   27E
  8
0
  6
CONTINUOUS
 62
     0
  0
BLOCK
  5
   27F
  8
0
  6
CONTINUOUS
 62
     0
  2
MORSETTO
 70
    64
 10
0.0
 20
0.0
 30
0.0
  3
MORSETTO
  0
LINE
  5
   280
  8
0
  6
CONTINUOUS
 62
     0
 10
0.0
 20
11.0
 30
0.0
 11
20.0
 21
11.0
 31
0.0
  0
LINE
  5
   281
  8
0
  6
CONTINUOUS
 62
     0
 10
20.0
 20
-46.0
 30
0.0
 11
20.0
 21
11.0
 31
0.0
  0
LINE
  5
   282
  8
0
  6
CONTINUOUS
 62
     0
 10
-5.0
 20
-16.5
 30
0.0
 11
-5.0
 21
-14.5
 31
0.0
  0
LINE
  5
   283
  8
0
  6
CONTINUOUS
 62
     0
 10
-5.0
 20
-46.0
 30
0.0
 11
20.0
 21
-46.0
 31
0.0
  0
LINE
  5
   284
  8
0
  6
CONTINUOUS
 62
     0
 10
-6.99125288888572E-16
 20
-14.5
 30
0.0
 11
-6.99125288888572E-16
 21
-5.0
 31
0.0
  0
LINE
  5
   285
  8
0
  6
CONTINUOUS
 62
     0
 10
-5.0
 20
-14.5
 30
0.0
 11
0.0
 21
-14.5
 31
0.0
  0
LINE
  5
   286
  8
0
  6
CONTINUOUS
 62
     0
 10
0.0
 20
5.0
 30
0.0
 11
20.0
 21
5.0
 31
0.0
  0
LINE
  5
   287
  8
0
  6
CONTINUOUS
 62
     0
 10
0.0
 20
-5.0
 30
0.0
 11
20.0
 21
-5.0
 31
0.0
  0
LINE
  5
   288
  8
0
  6
CONTINUOUS
 62
     0
 10
-5.0
 20
-16.5
 30
0.0
 11
20.0
 21
-16.5
 31
0.0
  0
LINE
  5
   289
  8
0
  6
CONTINUOUS
 62
     0
 10
-5.0
 20
-37.5
 30
0.0
 11
-1.5
 21
-37.5
 31
0.0
  0
LINE
  5
   28A
  8
0
  6
DASHDOT
 62
     0
 10
7.5
 20
-46.6823236657696
 30
0.0
 11
7.5
 21
-33.2913197006793
 31
0.0
  0
LINE
  5
   28B
  8
0
  6
CONTINUOUS
 62
     0
 10
-1.5
 20
-46.0
 30
0.0
 11
-1.5
 21
-35.0
 31
0.0
  0
LINE
  5
   28C
  8
0
  6
CONTINUOUS
 62
     0
 10
16.5
 20
-46.0
 30
0.0
 11
16.5
 21
-35.0
 31
0.0
  0
LINE
  5
   28D
  8
0
  6
CONTINUOUS
 62
     0
 10
0.0
 20
-45.0
 30
0.0
 11
0.0
 21
-35.0
 31
0.0
  0
LINE
  5
   28E
  8
0
  6
CONTINUOUS
 62
     0
 10
15.0
 20
-45.0
 30
0.0
 11
15.0
 21
-35.0
 31
0.0
  0
LINE
  5
   28F
  8
0
  6
CONTINUOUS
 62
     0
 10
-6.0
 20
-9.0
 30
0.0
 11
-6.0
 21
9.0
 31
0.0
  0
LINE
  5
   290
  8
0
  6
CONTINUOUS
 62
     0
 10
-8.7
 20
8.0
 30
0.0
 11
-6.0
 21
8.0
 31
0.0
  0
LINE
  5
   291
  8
0
  6
CONTINUOUS
 62
     0
 10
-8.7
 20
-8.0
 30
0.0
 11
-6.0
 21
-8.0
 31
0.0
  0
LINE
  5
   292
  8
0
  6
CONTINUOUS
 62
     0
 10
-6.0
 20
9.0
 30
0.0
 11
-5.0
 21
9.0
 31
0.0
  0
LINE
  5
   293
  8
0
  6
CONTINUOUS
 62
     0
 10
-6.0
 20
-9.0
 30
0.0
 11
-5.0
 21
-9.0
 31
0.0
  0
LINE
  5
   294
  8
0
  6
CONTINUOUS
 62
     0
 10
-9.0
 20
-7.7
 30
0.0
 11
-9.0
 21
7.7
 31
0.0
  0
LINE
  5
   295
  8
0
  6
CONTINUOUS
 62
     0
 10
-8.7
 20
-8.0
 30
0.0
 11
-8.7
 21
8.0
 31
0.0
  0
LINE
  5
   296
  8
0
  6
CONTINUOUS
 62
     0
 10
-9.0
 20
7.7
 30
0.0
 11
-8.7
 21
8.0
 31
0.0
  0
LINE
  5
   297
  8
0
  6
CONTINUOUS
 62
     0
 10
-9.0
 20
-7.7
 30
0.0
 11
-8.7
 21
-8.0
 31
0.0
  0
LINE
  5
   298
  8
0
  6
CONTINUOUS
 62
     0
 10
16.0
 20
-3.75
 30
0.0
 11
16.0
 21
3.75
 31
0.0
  0
LINE
  5
   299
  8
0
  6
CONTINUOUS
 62
     0
 10
-5.0
 20
-9.0
 30
0.0
 11
-5.0
 21
9.0
 31
0.0
  0
LINE
  5
   29A
  8
0
  6
CONTINUOUS
 62
     0
 10
-5.0
 20
5.0
 30
0.0
 11
0.0
 21
5.0
 31
0.0
  0
LINE
  5
   29B
  8
0
  6
CONTINUOUS
 62
     0
 10
-5.0
 20
-5.0
 30
0.0
 11
0.0
 21
-5.0
 31
0.0
  0
LINE
  5
   29C
  8
0
  6
CONTINUOUS
 62
     0
 10
-3.0
 20
3.75
 30
0.0
 11
16.0
 21
3.75
 31
0.0
  0
LINE
  5
   29D
  8
0
  6
CONTINUOUS
 62
     0
 10
-3.0
 20
-3.75
 30
0.0
 11
16.0
 21
-3.75
 31
0.0
  0
LINE
  5
   29E
  8
0
  6
CONTINUOUS
 62
     0
 10
-3.0
 20
-5.0
 30
0.0
 11
-3.0
 21
5.0
 31
0.0
  0
LINE
  5
   29F
  8
0
  6
CONTINUOUS
 62
     0
 10
14.75
 20
-5.0
 30
0.0
 11
14.75
 21
5.0
 31
0.0
  0
LINE
  5
   2A0
  8
0
  6
CONTINUOUS
 62
     0
 10
14.75
 20
5.0
 30
0.0
 11
16.0
 21
3.75
 31
0.0
  0
LINE
  5
   2A1
  8
0
  6
CONTINUOUS
 62
     0
 10
14.75
 20
-5.0
 30
0.0
 11
16.0
 21
-3.75
 31
0.0
  0
LINE
  5
   2A2
  8
0
  6
CONTINUOUS
 62
     0
 10
-6.99125288888572E-16
 20
5.0
 30
0.0
 11
-6.99125288888572E-16
 21
11.0
 31
0.0
  0
LINE
  5
   2A3
  8
0
  6
CONTINUOUS
 62
     0
 10
-4.78518500842764
 20
5.0
 30
0.0
 11
-3.0
 21
3.75
 31
0.0
  0
LINE
  5
   2A4
  8
0
  6
CONTINUOUS
 62
     0
 10
-4.78518500842764
 20
-5.0
 30
0.0
 11
-3.0
 21
-3.75
 31
0.0
  0
INSERT
  5
   2A5
  8
0
  6
CONTINUOUS
 62
     0
  2
*HATCH1095
 10
0.0
 20
0.0
 30
0.0
  0
INSERT
  5
   2A6
  8
0
  6
CONTINUOUS
 62
     0
  2
*HATCH1096
 10
0.0
 20
0.0
 30
0.0
  0
INSERT
  5
   2A7
  8
0
  6
CONTINUOUS
 62
     0
  2
*HATCH1097
 10
0.0
 20
0.0
 30
0.0
  0
INSERT
  5
   2A8
  8
0
  6
CONTINUOUS
 62
     0
  2
*HATCH1098
 10
0.0
 20
0.0
 30
0.0
  0
LINE
  5
   2A9
  8
0
  6
CONTINUOUS
 62
     0
 10
-1.00485917355761E-14
 20
-45.0
 30
0.0
 11
15.0
 21
-45.0
 31
0.0
  0
LINE
  5
   2AA
  8
0
  6
CONTINUOUS
 62
     0
 10
-1.5
 20
-35.0
 30
0.0
 11
16.5
 21
-35.0
 31
0.0
  0
ARC
  5
   2AB
  8
0
  6
CONTINUOUS
 62
     0
 10
7.5
 20
-75.0000000000003
 30
0.0
 40
41.0000000000003
 50
77.3196165081803
 51
102.68038349182
  0
LINE
  5
   2AC
  8
0
  6
CONTINUOUS
 62
     0
 10
15.0
 20
-45.0
 30
0.0
 11
16.5
 21
-43.5
 31
0.0
  0
LINE
  5
   2AD
  8
0
  6
CONTINUOUS
 62
     0
 10
-1.5
 20
-43.5
 30
0.0
 11
-3.5527136788005E-15
 21
-45.0
 31
0.0
  0
LINE
  5
   2AE
  8
0
  6
CONTINUOUS
 62
     0
 10
-1.5
 20
-43.5
 30
0.0
 11
16.5
 21
-43.5
 31
0.0
  0
LINE
  5
   2AF
  8
0
  6
CONTINUOUS
 62
     0
 10
16.5
 20
-37.5
 30
0.0
 11
20.0
 21
-37.5
 31
0.0
  0
LINE
  5
   2B0
  8
0
  6
CONTINUOUS
 62
     0
 10
-5.0
 20
-46.0
 30
0.0
 11
-5.0
 21
-33.0
 31
0.0
  0
ENDBLK
  5
   2B1
  8
0
  6
CONTINUOUS
 62
     0
  0
BLOCK
  5
   2B2
  8
0
  6
CONTINUOUS
 62
   218
  2
*HATCH1099
 70
    65
 10
0.0
 20
0.0
 30
0.0
  3
*HATCH1099
  0
LINE
  5
   2B3
  8
0
  6
CONTINUOUS
 62
     3
 10
-33.9754524230957
 20
14.8149147033691
 30
0.0
 11
-37.2543067932129
 21
11.5360641479492
 31
0.0
  0
LINE
  5
   2B4
  8
0
  6
CONTINUOUS
 62
     3
 10
-31.6806392669678
 20
14.9884099960327
 30
0.0
 11
-35.9627418518066
 21
10.7063045501709
 31
0.0
  0
LINE
  5
   2B5
  8
0
  6
CONTINUOUS
 62
     3
 10
-29.742956161499
 20
14.8047723770142
 30
0.0
 11
-34.3045806884766
 21
10.2431478500366
 31
0.0
  0
LINE
  5
   2B6
  8
0
  6
CONTINUOUS
 62
     3
 10
-28.054027557373
 20
14.3723783493042
 30
0.0
 11
-32.397819519043
 21
10.0285873413086
 31
0.0
  0
LINE
  5
   2B7
  8
0
  6
CONTINUOUS
 62
     3
 10
-26.679220199585
 20
13.6258668899536
 30
0.0
 11
-30.1883068084717
 21
10.1167802810669
 31
0.0
  0
LINE
  5
   2B8
  8
0
  6
CONTINUOUS
 62
     3
 10
-26.1604652404785
 20
12.0233011245728
 30
0.0
 11
-27.1001529693604
 21
11.0836133956909
 31
0.0
  0
ENDBLK
  5
   2B9
  8
0
  6
CONTINUOUS
 62
   218
  0
BLOCK
  5
   2BA
  8
0
  6
CONTINUOUS
 62
    98
  2
*HATCH1100
 70
    65
 10
0.0
 20
0.0
 30
0.0
  3
*HATCH1100
  0
LINE
  5
   2BB
  8
0
  6
CONTINUOUS
 62
   210
 10
-61.650749206543
 20
-76.4999847412109
 30
0.0
 11
-64.150749206543
 21
-78.9999847412109
 31
0.0
  0
LINE
  5
   2BC
  8
0
  6
CONTINUOUS
 62
   210
 10
-57.4081115722656
 20
-76.4999847412109
 30
0.0
 11
-59.9081115722656
 21
-78.9999847412109
 31
0.0
  0
LINE
  5
   2BD
  8
0
  6
CONTINUOUS
 62
   210
 10
-53.1654739379883
 20
-76.4999847412109
 30
0.0
 11
-55.6654739379883
 21
-78.9999847412109
 31
0.0
  0
LINE
  5
   2BE
  8
0
  6
CONTINUOUS
 62
   210
 10
-48.9228363037109
 20
-76.4999847412109
 30
0.0
 11
-51.4228363037109
 21
-78.9999847412109
 31
0.0
  0
LINE
  5
   2BF
  8
0
  6
CONTINUOUS
 62
   210
 10
-44.6801986694336
 20
-76.4999847412109
 30
0.0
 11
-47.1801986694336
 21
-78.9999847412109
 31
0.0
  0
LINE
  5
   2C0
  8
0
  6
CONTINUOUS
 62
   210
 10
-42.4628601074219
 20
-78.5252990722656
 30
0.0
 11
-44.4628601074219
 21
-80.5252990722656
 31
0.0
  0
LINE
  5
   2C1
  8
0
  6
CONTINUOUS
 62
   210
 10
-42.4628601074219
 20
-80.6466217041016
 30
0.0
 11
-44.4628601074219
 21
-82.6466217041016
 31
0.0
  0
LINE
  5
   2C2
  8
0
  6
CONTINUOUS
 62
   210
 10
-42.4628601074219
 20
-82.7679443359375
 30
0.0
 11
-44.4628601074219
 21
-84.7679443359375
 31
0.0
  0
LINE
  5
   2C3
  8
0
  6
CONTINUOUS
 62
   210
 10
-42.4628601074219
 20
-84.8892669677734
 30
0.0
 11
-44.4628601074219
 21
-86.8892669677734
 31
0.0
  0
LINE
  5
   2C4
  8
0
  6
CONTINUOUS
 62
   210
 10
-19.9522609710693
 20
-64.4999847412109
 30
0.0
 11
-21.4628601074219
 21
-66.0105819702148
 31
0.0
  0
LINE
  5
   2C5
  8
0
  6
CONTINUOUS
 62
   210
 10
-54.452278137207
 20
-99.0
 30
0.0
 11
-56.952262878418
 21
-101.499984741211
 31
0.0
  0
LINE
  5
   2C6
  8
0
  6
CONTINUOUS
 62
   210
 10
-42.4628601074219
 20
-89.1319046020508
 30
0.0
 11
-44.4628601074219
 21
-91.1319046020508
 31
0.0
  0
LINE
  5
   2C7
  8
0
  6
CONTINUOUS
 62
   210
 10
-19.4628601074219
 20
-68.2532272338867
 30
0.0
 11
-21.4628601074219
 21
-70.2532272338867
 31
0.0
  0
LINE
  5
   2C8
  8
0
  6
CONTINUOUS
 62
   210
 10
-50.2096405029297
 20
-99.0
 30
0.0
 11
-52.7096252441406
 21
-101.499984741211
 31
0.0
  0
LINE
  5
   2C9
  8
0
  6
CONTINUOUS
 62
   210
 10
-42.4628601074219
 20
-93.3745498657227
 30
0.0
 11
-44.4628601074219
 21
-95.3745498657227
 31
0.0
  0
LINE
  5
   2CA
  8
0
  6
CONTINUOUS
 62
   210
 10
-19.4628601074219
 20
-72.4958724975586
 30
0.0
 11
-21.4628601074219
 21
-74.4958724975586
 31
0.0
  0
LINE
  5
   2CB
  8
0
  6
CONTINUOUS
 62
   210
 10
-45.9670028686523
 20
-99.0
 30
0.0
 11
-48.4669876098633
 21
-101.499984741211
 31
0.0
  0
LINE
  5
   2CC
  8
0
  6
CONTINUOUS
 62
   210
 10
-42.4628601074219
 20
-97.6171798706055
 30
0.0
 11
-46.3456611633301
 21
-101.499984741211
 31
0.0
  0
LINE
  5
   2CD
  8
0
  6
CONTINUOUS
 62
   210
 10
-41.7243576049805
 20
-99.0
 30
0.0
 11
-44.2243423461914
 21
-101.499984741211
 31
0.0
  0
LINE
  5
   2CE
  8
0
  6
CONTINUOUS
 62
   210
 10
-21.4628601074219
 20
-80.8598251342774
 30
0.0
 11
-23.4628601074219
 21
-82.8598251342773
 31
0.0
  0
LINE
  5
   2CF
  8
0
  6
CONTINUOUS
 62
   210
 10
-21.4628601074219
 20
-82.9811477661133
 30
0.0
 11
-23.4628601074219
 21
-84.9811477661133
 31
0.0
  0
LINE
  5
   2D0
  8
0
  6
CONTINUOUS
 62
   210
 10
-21.4628601074219
 20
-85.1024703979492
 30
0.0
 11
-23.4628601074219
 21
-87.1024703979492
 31
0.0
  0
LINE
  5
   2D1
  8
0
  6
CONTINUOUS
 62
   210
 10
-21.4628601074219
 20
-87.2237930297852
 30
0.0
 11
-23.4628601074219
 21
-89.2237930297852
 31
0.0
  0
LINE
  5
   2D2
  8
0
  6
CONTINUOUS
 62
   210
 10
-21.4628601074219
 20
-89.3451156616211
 30
0.0
 11
-23.4628601074219
 21
-91.3451156616211
 31
0.0
  0
LINE
  5
   2D3
  8
0
  6
CONTINUOUS
 62
   210
 10
-21.4628601074219
 20
-91.466438293457
 30
0.0
 11
-23.4628601074219
 21
-93.466438293457
 31
0.0
  0
LINE
  5
   2D4
  8
0
  6
CONTINUOUS
 62
   210
 10
-21.4628601074219
 20
-93.587760925293
 30
0.0
 11
-23.4628601074219
 21
-95.587760925293
 31
0.0
  0
LINE
  5
   2D5
  8
0
  6
CONTINUOUS
 62
   210
 10
-21.4628601074219
 20
-95.7090835571289
 30
0.0
 11
-23.4628601074219
 21
-97.7090835571289
 31
0.0
  0
LINE
  5
   2D6
  8
0
  6
CONTINUOUS
 62
   210
 10
-21.4628601074219
 20
-97.8303909301758
 30
0.0
 11
-25.1324577331543
 21
-101.499984741211
 31
0.0
  0
LINE
  5
   2D7
  8
0
  6
CONTINUOUS
 62
   210
 10
-18.3898315429688
 20
-99.0
 30
0.0
 11
-20.8898162841797
 21
-101.499984741211
 31
0.0
  0
LINE
  5
   2D8
  8
0
  6
CONTINUOUS
 62
   210
 10
-14.1471900939941
 20
-99.0
 30
0.0
 11
-16.6471748352051
 21
-101.499984741211
 31
0.0
  0
LINE
  5
   2D9
  8
0
  6
CONTINUOUS
 62
   210
 10
-9.90454864501953
 20
-99.0
 30
0.0
 11
-12.4045333862305
 21
-101.499984741211
 31
0.0
  0
LINE
  5
   2DA
  8
0
  6
CONTINUOUS
 62
   210
 10
-5.66190814971924
 20
-99.0
 30
0.0
 11
-8.16189193725586
 21
-101.499984741211
 31
0.0
  0
LINE
  5
   2DB
  8
0
  6
CONTINUOUS
 62
   210
 10
-1.41926765441895
 20
-99.0
 30
0.0
 11
-3.91925144195557
 21
-101.499984741211
 31
0.0
  0
LINE
  5
   2DC
  8
0
  6
CONTINUOUS
 62
   210
 10
2.82337284088135
 20
-99.0
 30
0.0
 11
0.323389053344727
 21
-101.499984741211
 31
0.0
  0
ENDBLK
  5
   2DD
  8
0
  6
CONTINUOUS
 62
    98
  0
BLOCK
  5
   2DE
  8
0
  6
CONTINUOUS
 62
     7
  2
*UDIM1549
 70
    65
 10
0.0
 20
0.0
 30
0.0
  3
*UDIM1549
  0
TEXT
  5
   2DF
  8
0
  6
CONTINUOUS
 62
     7
 10
-535.552248005899
 20
-33.041104011024
 30
0.0
 40
3.00000002980232
  1
16,5
 50
89.9999999480344
 41
0.933333333333333
 72
     1
 11
-537.052248016
 21
-27.7411039570147
 31
0.0
 73
     2
  0
LINE
  5
   2E0
  8
0
  6
CONTINUOUS
 62
     7
 10
-498.331799731602
 20
-46.2178829410845
 30
0.0
 11
-536.552248001099
 21
-46.2178829410845
 31
0.0
  0
LINE
  5
   2E1
  8
0
  6
CONTINUOUS
 62
     7
 10
-502.04647030889
 20
-37.9678829410845
 30
0.0
 11
-536.552248001099
 21
-37.9678829410845
 31
0.0
  0
LINE
  5
   2E2
  8
0
  6
CONTINUOUS
 62
     7
 10
-534.552248001099
 20
-46.2178829410845
 30
0.0
 11
-534.552248001099
 21
-22.4411039043639
 31
0.0
  0
LINE
  5
   2E3
  8
0
  6
CONTINUOUS
 62
     7
 10
-534.031303571147
 20
-49.1723062182915
 30
0.0
 11
-534.552248001099
 21
-46.2178829410845
 31
0.0
  0
LINE
  5
   2E4
  8
0
  6
CONTINUOUS
 62
     7
 10
-534.552248001099
 20
-46.2178829410845
 30
0.0
 11
-535.07319243105
 21
-49.1723062182915
 31
0.0
  0
LINE
  5
   2E5
  8
0
  6
CONTINUOUS
 62
     7
 10
-535.07319243105
 20
-35.0134596638776
 30
0.0
 11
-534.552248001099
 21
-37.9678829410845
 31
0.0
  0
LINE
  5
   2E6
  8
0
  6
CONTINUOUS
 62
     7
 10
-534.552248001099
 20
-37.9678829410845
 30
0.0
 11
-534.031303571147
 21
-35.0134596638776
 31
0.0
  0
ENDBLK
  5
   2E7
  8
0
  6
CONTINUOUS
 62
     7
  0
BLOCK
  5
   2E8
  8
0
  6
CONTINUOUS
 62
     7
  2
*UDIM1550
 70
    65
 10
0.0
 20
0.0
 30
0.0
  3
*UDIM1550
  0
TEXT
  5
   2E9
  8
0
  6
CONTINUOUS
 62
     7
 10
-485.931798941207
 20
99.636947637879
 30
0.0
 40
3.00000002980232
  1
24x24
 50
359.999999948034
 41
0.933333333333333
 72
     1
 11
-479.231798873295
 21
101.136947646737
 31
0.0
 73
     2
  0
LINE
  5
   2EA
  8
0
  6
CONTINUOUS
 62
     7
 10
-486.081798777928
 20
77.4071682194048
 30
0.0
 11
-486.081798777928
 21
100.636947631836
 31
0.0
  0
LINE
  5
   2EB
  8
0
  6
CONTINUOUS
 62
     7
 10
-494.831799731602
 20
77.0321426391601
 30
0.0
 11
-494.831799731602
 21
100.636947631836
 31
0.0
  0
LINE
  5
   2EC
  8
0
  6
CONTINUOUS
 62
     7
 10
-472.531798806737
 20
98.636947631836
 30
0.0
 11
-494.831799731602
 21
98.636947631836
 31
0.0
  0
LINE
  5
   2ED
  8
0
  6
CONTINUOUS
 62
     7
 10
-483.127375500721
 20
99.1578920617876
 30
0.0
 11
-486.081798777928
 21
98.636947631836
 31
0.0
  0
LINE
  5
   2EE
  8
0
  6
CONTINUOUS
 62
     7
 10
-486.081798777928
 20
98.636947631836
 30
0.0
 11
-483.127375500721
 21
98.1160032018843
 31
0.0
  0
LINE
  5
   2EF
  8
0
  6
CONTINUOUS
 62
     7
 10
-497.786223008809
 20
98.1160032018843
 30
0.0
 11
-494.831799731602
 21
98.636947631836
 31
0.0
  0
LINE
  5
   2F0
  8
0
  6
CONTINUOUS
 62
     7
 10
-494.831799731602
 20
98.636947631836
 30
0.0
 11
-497.786223008809
 21
99.1578920617876
 31
0.0
  0
ENDBLK
  5
   2F1
  8
0
  6
CONTINUOUS
 62
     7
  0
BLOCK
  5
   2F2
  8
0
  6
CONTINUOUS
 62
     7
  2
*UDIM1551
 70
    65
 10
0.0
 20
0.0
 30
0.0
  3
*UDIM1551
  0
TEXT
  5
   2F3
  8
0
  6
CONTINUOUS
 62
     7
 10
-528.318890608286
 20
-51.7279247237096
 30
0.0
 40
3.00000002980232
  1
21
 50
89.9999999480344
 41
0.933333333333333
 72
     1
 11
-529.818890620923
 21
-49.2279246975158
 31
0.0
 73
     2
  0
TEXT
  5
   2F4
  8
0
  6
CONTINUOUS
 62
     7
 10
-528.318890607018
 20
-54.8779247336437
 30
0.0
 40
3.00000002980232
  1
Ø
 50
89.9999999480344
 41
0.933333333333334
 72
     1
 11
-529.818890620923
 21
-53.7779247213577
 31
0.0
 73
     2
  0
LINE
  5
   2F5
  8
0
  6
CONTINUOUS
 62
     7
 10
-498.331799731602
 20
-56.7178829410845
 30
0.0
 11
-529.318890606022
 21
-56.7178829410845
 31
0.0
  0
LINE
  5
   2F6
  8
0
  6
CONTINUOUS
 62
     7
 10
-499.331799731602
 20
-46.2178829410845
 30
0.0
 11
-529.318890606022
 21
-46.2178829410845
 31
0.0
  0
LINE
  5
   2F7
  8
0
  6
CONTINUOUS
 62
     7
 10
-527.318890606022
 20
-56.7178829410845
 30
0.0
 11
-527.318890606022
 21
-46.2178829410845
 31
0.0
  0
LINE
  5
   2F8
  8
0
  6
CONTINUOUS
 62
     7
 10
-526.79794617607
 20
-59.6723062182915
 30
0.0
 11
-527.318890606022
 21
-56.7178829410845
 31
0.0
  0
LINE
  5
   2F9
  8
0
  6
CONTINUOUS
 62
     7
 10
-527.318890606022
 20
-56.7178829410845
 30
0.0
 11
-527.839835035974
 21
-59.6723062182915
 31
0.0
  0
LINE
  5
   2FA
  8
0
  6
CONTINUOUS
 62
     7
 10
-527.839835035974
 20
-43.2634596638776
 30
0.0
 11
-527.318890606022
 21
-46.2178829410845
 31
0.0
  0
LINE
  5
   2FB
  8
0
  6
CONTINUOUS
 62
     7
 10
-527.318890606022
 20
-46.2178829410845
 30
0.0
 11
-526.79794617607
 21
-43.2634596638776
 31
0.0
  0
ENDBLK
  5
   2FC
  8
0
  6
CONTINUOUS
 62
     7
  0
BLOCK
  5
   2FD
  8
0
  6
CONTINUOUS
 62
     7
  2
*UDIM1552
 70
    65
 10
0.0
 20
0.0
 30
0.0
  3
*UDIM1552
  0
TEXT
  5
   2FE
  8
0
  6
CONTINUOUS
 62
     7
 10
-503.856792856591
 20
99.6290435813564
 30
0.0
 40
3.00000002980232
  1
25
 50
359.999999948034
 41
0.933333333333333
 72
     1
 11
-501.356792830403
 21
101.129043594003
 31
0.0
 73
     2
  0
LINE
  5
   2FF
  8
0
  6
CONTINUOUS
 62
     7
 10
-494.831798777928
 20
80.0321682194048
 30
0.0
 11
-494.831798777928
 21
100.629043579102
 31
0.0
  0
LINE
  5
   300
  8
0
  6
CONTINUOUS
 62
     7
 10
-507.331787109375
 20
89.588247790617
 30
0.0
 11
-507.331787109375
 21
100.629043579102
 31
0.0
  0
LINE
  5
   301
  8
0
  6
CONTINUOUS
 62
     7
 10
-494.831798777928
 20
98.6290435791016
 30
0.0
 11
-507.331787109375
 21
98.6290435791016
 31
0.0
  0
LINE
  5
   302
  8
0
  6
CONTINUOUS
 62
     7
 10
-497.786222055135
 20
98.1080991491499
 30
0.0
 11
-494.831798777928
 21
98.6290435791016
 31
0.0
  0
LINE
  5
   303
  8
0
  6
CONTINUOUS
 62
     7
 10
-494.831798777928
 20
98.6290435791016
 30
0.0
 11
-497.786222055135
 21
99.1499880090532
 31
0.0
  0
LINE
  5
   304
  8
0
  6
CONTINUOUS
 62
     7
 10
-504.377363832168
 20
99.1499880090532
 30
0.0
 11
-507.331787109375
 21
98.6290435791016
 31
0.0
  0
LINE
  5
   305
  8
0
  6
CONTINUOUS
 62
     7
 10
-507.331787109375
 20
98.6290435791016
 30
0.0
 11
-504.377363832168
 21
98.1080991491499
 31
0.0
  0
ENDBLK
  5
   306
  8
0
  6
CONTINUOUS
 62
     7
  0
BLOCK
  5
   307
  8
0
  6
CONTINUOUS
 62
     7
  2
*UDIM1553
 70
    65
 10
0.0
 20
0.0
 30
0.0
  3
*UDIM1553
  0
TEXT
  5
   308
  8
0
  6
CONTINUOUS
 62
     7
 10
-534.221931464856
 20
35.844665436131
 30
0.0
 40
3.00000002980232
  1
107,25
 50
89.9999999480344
 41
0.933333333333333
 72
     1
 11
-535.721931472421
 21
43.9446655179558
 31
0.0
 73
     2
  0
LINE
  5
   309
  8
0
  6
CONTINUOUS
 62
     7
 10
-502.04647030889
 20
71.0321682194048
 30
0.0
 11
-535.22193145752
 21
71.0321682194048
 31
0.0
  0
LINE
  5
   30A
  8
0
  6
CONTINUOUS
 62
     7
 10
-533.22193145752
 20
17.4071597289862
 30
0.0
 11
-533.22193145752
 21
71.0321682194048
 31
0.0
  0
LINE
  5
   30B
  8
0
  6
CONTINUOUS
 62
     7
 10
-533.742875887471
 20
20.3615830061932
 30
0.0
 11
-533.22193145752
 21
17.4071597289862
 31
0.0
  0
LINE
  5
   30C
  8
0
  6
CONTINUOUS
 62
     7
 10
-533.22193145752
 20
17.4071597289862
 30
0.0
 11
-532.700987027568
 21
20.3615830061932
 31
0.0
  0
LINE
  5
   30D
  8
0
  6
CONTINUOUS
 62
     7
 10
-532.700987027568
 20
68.0777449421979
 30
0.0
 11
-533.22193145752
 21
71.0321682194048
 31
0.0
  0
LINE
  5
   30E
  8
0
  6
CONTINUOUS
 62
     7
 10
-533.22193145752
 20
71.0321682194048
 30
0.0
 11
-533.742875887471
 21
68.0777449421979
 31
0.0
  0
ENDBLK
  5
   30F
  8
0
  6
CONTINUOUS
 62
     7
  0
BLOCK
  5
   310
  8
0
  6
CONTINUOUS
 62
     7
  2
*UDIM1554
 70
    65
 10
0.0
 20
0.0
 30
0.0
  3
*UDIM1554
  0
TEXT
  5
   311
  8
0
  6
CONTINUOUS
 62
     7
 10
-449.831794846417
 20
-95.2869796743008
 30
0.0
 40
3.00000002980232
  1
2
 50
359.999999948034
 41
0.933333333333334
 72
     1
 11
-448.731794834137
 21
-93.7869796603918
 31
0.0
 73
     2
  0
LINE
  5
   312
  8
0
  6
CONTINUOUS
 62
     7
 10
-452.83179473877
 20
-60.6591192636521
 30
0.0
 11
-452.83179473877
 21
-98.286979675293
 31
0.0
  0
LINE
  5
   313
  8
0
  6
CONTINUOUS
 62
     7
 10
-453.83179473877
 20
-61.0950166995495
 30
0.0
 11
-453.83179473877
 21
-98.286979675293
 31
0.0
  0
LINE
  5
   314
  8
0
  6
CONTINUOUS
 62
     7
 10
-447.63179482321
 20
-96.286979675293
 30
0.0
 11
-453.83179473877
 21
-96.286979675293
 31
0.0
  0
LINE
  5
   315
  8
0
  6
CONTINUOUS
 62
     7
 10
-449.877371461563
 20
-95.7660352453413
 30
0.0
 11
-452.83179473877
 21
-96.286979675293
 31
0.0
  0
LINE
  5
   316
  8
0
  6
CONTINUOUS
 62
     7
 10
-452.83179473877
 20
-96.286979675293
 30
0.0
 11
-449.877371461563
 21
-96.8079241052446
 31
0.0
  0
LINE
  5
   317
  8
0
  6
CONTINUOUS
 62
     7
 10
-456.786218015977
 20
-96.8079241052446
 30
0.0
 11
-453.83179473877
 21
-96.286979675293
 31
0.0
  0
LINE
  5
   318
  8
0
  6
CONTINUOUS
 62
     7
 10
-453.83179473877
 20
-96.286979675293
 30
0.0
 11
-456.786218015977
 21
-95.7660352453413
 31
0.0
  0
ENDBLK
  5
   319
  8
0
  6
CONTINUOUS
 62
     7
  0
BLOCK
  5
   31A
  8
0
  6
CONTINUOUS
 62
     7
  2
*UDIM1555
 70
    65
 10
0.0
 20
0.0
 30
0.0
  3
*UDIM1555
  0
TEXT
  5
   31B
  8
0
  6
CONTINUOUS
 62
     7
 10
-484.756790970129
 20
-95.2869796717754
 30
0.0
 40
3.00000002980232
  1
107
 50
359.999999948034
 41
0.933333333333333
 72
     1
 11
-480.856790930033
 21
-93.7869796603918
 31
0.0
 73
     2
  0
LINE
  5
   31C
  8
0
  6
CONTINUOUS
 62
     7
 10
-507.331787109375
 20
-45.7178829410845
 30
0.0
 11
-507.331787109375
 21
-98.286979675293
 31
0.0
  0
LINE
  5
   31D
  8
0
  6
CONTINUOUS
 62
     7
 10
-453.83179473877
 20
-96.286979675293
 30
0.0
 11
-507.331787109375
 21
-96.286979675293
 31
0.0
  0
LINE
  5
   31E
  8
0
  6
CONTINUOUS
 62
     7
 10
-456.786218015977
 20
-96.8079241052446
 30
0.0
 11
-453.83179473877
 21
-96.286979675293
 31
0.0
  0
LINE
  5
   31F
  8
0
  6
CONTINUOUS
 62
     7
 10
-453.83179473877
 20
-96.286979675293
 30
0.0
 11
-456.786218015977
 21
-95.7660352453413
 31
0.0
  0
LINE
  5
   320
  8
0
  6
CONTINUOUS
 62
     7
 10
-504.377363832168
 20
-95.7660352453413
 30
0.0
 11
-507.331787109375
 21
-96.286979675293
 31
0.0
  0
LINE
  5
   321
  8
0
  6
CONTINUOUS
 62
     7
 10
-507.331787109375
 20
-96.286979675293
 30
0.0
 11
-504.377363832168
 21
-96.8079241052446
 31
0.0
  0
ENDBLK
  5
   322
  8
0
  6
CONTINUOUS
 62
     7
  0
BLOCK
  5
   323
  8
0
  6
CONTINUOUS
 62
     7
  2
*UDIM1556
 70
    65
 10
0.0
 20
0.0
 30
0.0
  3
*UDIM1556
  0
TEXT
  5
   324
  8
0
  6
CONTINUOUS
 62
     7
 10
-488.431790995342
 20
-88.6204299866328
 30
0.0
 40
3.00000002980232
  1
103,5
 50
359.999999948034
 41
0.933333333333333
 72
     1
 11
-481.731790927431
 21
-87.1204299777746
 31
0.0
 73
     2
  0
LINE
  5
   325
  8
0
  6
CONTINUOUS
 62
     7
 10
-455.581795052686
 20
-9.84282501222463
 30
0.0
 11
-455.581820724023
 21
-91.6204299926757
 31
0.0
  0
LINE
  5
   326
  8
0
  6
CONTINUOUS
 62
     7
 10
-507.331787423292
 20
-45.7178829410845
 30
0.0
 11
-507.331801832857
 21
-91.6204299926757
 31
0.0
  0
LINE
  5
   327
  8
0
  6
CONTINUOUS
 62
     7
 10
-455.58182009619
 20
-89.6204299926758
 30
0.0
 11
-507.331801205025
 21
-89.6204299926758
 31
0.0
  0
LINE
  5
   328
  8
0
  6
CONTINUOUS
 62
     7
 10
-458.536243373397
 20
-90.1413744226275
 30
0.0
 11
-455.58182009619
 21
-89.6204299926758
 31
0.0
  0
LINE
  5
   329
  8
0
  6
CONTINUOUS
 62
     7
 10
-455.58182009619
 20
-89.6204299926758
 30
0.0
 11
-458.536243373397
 21
-89.0994855627241
 31
0.0
  0
LINE
  5
   32A
  8
0
  6
CONTINUOUS
 62
     7
 10
-504.377377927818
 20
-89.0994855627241
 30
0.0
 11
-507.331801205025
 21
-89.6204299926758
 31
0.0
  0
LINE
  5
   32B
  8
0
  6
CONTINUOUS
 62
     7
 10
-507.331801205025
 20
-89.6204299926758
 30
0.0
 11
-504.377377927818
 21
-90.1413744226275
 31
0.0
  0
ENDBLK
  5
   32C
  8
0
  6
CONTINUOUS
 62
     7
  0
BLOCK
  5
   32D
  8
0
  6
CONTINUOUS
 62
     7
  2
*UDIM1557
 70
    65
 10
0.0
 20
0.0
 30
0.0
  3
*UDIM1557
  0
TEXT
  5
   32E
  8
0
  6
CONTINUOUS
 62
     7
 10
-514.58178653072
 20
-88.6204299916836
 30
0.0
 40
3.00000002980232
  1
3
 50
359.999999948034
 41
0.933333333333334
 72
     1
 11
-513.48178651844
 21
-87.1204299777746
 31
0.0
 73
     2
  0
TEXT
  5
   32F
  8
0
  6
CONTINUOUS
 62
     7
 10
-517.331786564496
 20
-88.6204299916836
 30
0.0
 40
3.00000002980232
  1
_
 50
359.999999948034
 41
0.933333333333334
 72
     1
 11
-516.231786552216
 21
-87.1204299777746
 31
0.0
 73
     2
  0
LINE
  5
   330
  8
0
  6
CONTINUOUS
 62
     7
 10
-508.831787423292
 20
-45.7178829410845
 30
0.0
 11
-508.831801832857
 21
-91.6204299926757
 31
0.0
  0
LINE
  5
   331
  8
0
  6
CONTINUOUS
 62
     7
 10
-507.331801205025
 20
-89.6204299926758
 30
0.0
 11
-517.331786563143
 21
-89.6204299926758
 31
0.0
  0
LINE
  5
   332
  8
0
  6
CONTINUOUS
 62
     7
 10
-504.377377927818
 20
-89.0994855627241
 30
0.0
 11
-507.331801205025
 21
-89.6204299926758
 31
0.0
  0
LINE
  5
   333
  8
0
  6
CONTINUOUS
 62
     7
 10
-507.331801205025
 20
-89.6204299926758
 30
0.0
 11
-504.377377927818
 21
-90.1413744226275
 31
0.0
  0
LINE
  5
   334
  8
0
  6
CONTINUOUS
 62
     7
 10
-511.786224482231
 20
-90.1413744226275
 30
0.0
 11
-508.831801205024
 21
-89.6204299926758
 31
0.0
  0
LINE
  5
   335
  8
0
  6
CONTINUOUS
 62
     7
 10
-508.831801205024
 20
-89.6204299926758
 30
0.0
 11
-511.786224482231
 21
-89.0994855627241
 31
0.0
  0
ENDBLK
  5
   336
  8
0
  6
CONTINUOUS
 62
     7
  0
BLOCK
  5
   337
  8
0
  6
CONTINUOUS
 62
     7
  2
*UDIM1558
 70
    65
 10
0.0
 20
0.0
 30
0.0
  3
*UDIM1558
  0
TEXT
  5
   338
  8
0
  6
CONTINUOUS
 62
     7
 10
-448.256401064276
 20
-37.847301966235
 30
0.0
 40
3.00000002980232
  1
12
 50
89.9999999480344
 41
0.933333333333333
 72
     1
 11
-449.756401076913
 21
-35.3473019400412
 31
0.0
 73
     2
  0
LINE
  5
   339
  8
0
  6
CONTINUOUS
 62
     7
 10
-485.979828291452
 20
-37.9678829410845
 30
0.0
 11
-445.256401062012
 21
-37.9678829410845
 31
0.0
  0
LINE
  5
   33A
  8
0
  6
CONTINUOUS
 62
     7
 10
-485.630404279246
 20
-31.9678829410845
 30
0.0
 11
-445.256401062012
 21
-31.9678829410845
 31
0.0
  0
LINE
  5
   33B
  8
0
  6
CONTINUOUS
 62
     7
 10
-447.256401062012
 20
-37.9678829410845
 30
0.0
 11
-447.256401062012
 21
-31.9678829410845
 31
0.0
  0
LINE
  5
   33C
  8
0
  6
CONTINUOUS
 62
     7
 10
-446.73545663206
 20
-40.9223062182915
 30
0.0
 11
-447.256401062012
 21
-37.9678829410845
 31
0.0
  0
LINE
  5
   33D
  8
0
  6
CONTINUOUS
 62
     7
 10
-447.256401062012
 20
-37.9678829410845
 30
0.0
 11
-447.777345491963
 21
-40.9223062182915
 31
0.0
  0
LINE
  5
   33E
  8
0
  6
CONTINUOUS
 62
     7
 10
-447.777345491963
 20
-29.0134596638776
 30
0.0
 11
-447.256401062012
 21
-31.9678829410845
 31
0.0
  0
LINE
  5
   33F
  8
0
  6
CONTINUOUS
 62
     7
 10
-447.256401062012
 20
-31.9678829410845
 30
0.0
 11
-446.73545663206
 21
-29.0134596638776
 31
0.0
  0
ENDBLK
  5
   340
  8
0
  6
CONTINUOUS
 62
     7
  0
BLOCK
  5
   341
  8
0
  6
CONTINUOUS
 62
     7
  2
*UDIM1559
 70
    65
 10
0.0
 20
0.0
 30
0.0
  3
*UDIM1559
  0
TEXT
  5
   342
  8
0
  6
CONTINUOUS
 62
     7
 10
-488.931790977399
 20
106.674774175965
 30
0.0
 40
3.00000002980232
  1
101,5
 50
359.999999948034
 41
0.933333333333333
 72
     1
 11
-482.231790909487
 21
108.174774184823
 31
0.0
 73
     2
  0
LINE
  5
   343
  8
0
  6
CONTINUOUS
 62
     7
 10
-456.581794224993
 20
68.7821597289861
 30
0.0
 11
-456.581774242865
 21
107.674774169922
 31
0.0
  0
LINE
  5
   344
  8
0
  6
CONTINUOUS
 62
     7
 10
-507.331784346336
 20
89.5882477906132
 30
0.0
 11
-507.331734372564
 21
107.674774169914
 31
0.0
  0
LINE
  5
   345
  8
0
  6
CONTINUOUS
 62
     7
 10
-456.581775270419
 20
105.674774169922
 30
0.0
 11
-507.331739898642
 21
105.674774169922
 31
0.0
  0
LINE
  5
   346
  8
0
  6
CONTINUOUS
 62
     7
 10
-459.536198547626
 20
105.15382973997
 30
0.0
 11
-456.581775270419
 21
105.674774169922
 31
0.0
  0
LINE
  5
   347
  8
0
  6
CONTINUOUS
 62
     7
 10
-456.581775270419
 20
105.674774169922
 30
0.0
 11
-459.536198547626
 21
106.195718599874
 31
0.0
  0
LINE
  5
   348
  8
0
  6
CONTINUOUS
 62
     7
 10
-504.377316621435
 20
106.195718599874
 30
0.0
 11
-507.331739898642
 21
105.674774169922
 31
0.0
  0
LINE
  5
   349
  8
0
  6
CONTINUOUS
 62
     7
 10
-507.331739898642
 20
105.674774169922
 30
0.0
 11
-504.377316621435
 21
105.15382973997
 31
0.0
  0
ENDBLK
  5
   34A
  8
0
  6
CONTINUOUS
 62
     7
  0
BLOCK
  5
   34B
  8
0
  6
CONTINUOUS
 62
     7
  2
*UDIM1560
 70
    65
 10
0.0
 20
0.0
 30
0.0
  3
*UDIM1560
  0
TEXT
  5
   34C
  8
0
  6
CONTINUOUS
 62
     7
 10
-426.635795595526
 20
65.7506728902954
 30
0.0
 40
3.00000002980232
  1
12
 50
89.9999999480344
 41
0.933333333333333
 72
     1
 11
-428.135795608163
 21
68.2506729164893
 31
0.0
 73
     2
  0
LINE
  5
   34D
  8
0
  6
CONTINUOUS
 62
     7
 10
-487.054663316243
 20
65.0321682194048
 30
0.0
 11
-423.635795593262
 21
65.0321682194048
 31
0.0
  0
LINE
  5
   34E
  8
0
  6
CONTINUOUS
 62
     7
 10
-485.979828291452
 20
71.0321682194048
 30
0.0
 11
-423.635795593262
 21
71.0321682194048
 31
0.0
  0
LINE
  5
   34F
  8
0
  6
CONTINUOUS
 62
     7
 10
-425.635795593262
 20
65.0321682194048
 30
0.0
 11
-425.635795593262
 21
71.0321682194048
 31
0.0
  0
LINE
  5
   350
  8
0
  6
CONTINUOUS
 62
     7
 10
-425.11485116331
 20
62.0777449421979
 30
0.0
 11
-425.635795593262
 21
65.0321682194048
 31
0.0
  0
LINE
  5
   351
  8
0
  6
CONTINUOUS
 62
     7
 10
-425.635795593262
 20
65.0321682194048
 30
0.0
 11
-426.156740023213
 21
62.0777449421979
 31
0.0
  0
LINE
  5
   352
  8
0
  6
CONTINUOUS
 62
     7
 10
-426.156740023213
 20
73.9865914966118
 30
0.0
 11
-425.635795593262
 21
71.0321682194048
 31
0.0
  0
LINE
  5
   353
  8
0
  6
CONTINUOUS
 62
     7
 10
-425.635795593262
 20
71.0321682194048
 30
0.0
 11
-425.11485116331
 21
73.9865914966118
 31
0.0
  0
ENDBLK
  5
   354
  8
0
  6
CONTINUOUS
 62
     7
  0
BLOCK
  5
   355
  8
0
  6
CONTINUOUS
 62
     7
  2
*UDIM1561
 70
    65
 10
0.0
 20
0.0
 30
0.0
  3
*UDIM1561
  0
TEXT
  5
   356
  8
0
  6
CONTINUOUS
 62
     7
 10
-543.854290012077
 20
12.3571387784008
 30
0.0
 40
3.00000002980232
  1
218
 50
89.9999999480344
 41
0.933333333333333
 72
     1
 11
-545.354290023446
 21
16.2571388185024
 31
0.0
 73
     2
  0
LINE
  5
   357
  8
0
  6
CONTINUOUS
 62
     7
 10
-502.04647030889
 20
-37.9678829410845
 30
0.0
 11
-544.854290008545
 21
-37.9678829410845
 31
0.0
  0
LINE
  5
   358
  8
0
  6
CONTINUOUS
 62
     7
 10
-502.04647030889
 20
71.0321682194048
 30
0.0
 11
-544.854290008545
 21
71.0321682194048
 31
0.0
  0
LINE
  5
   359
  8
0
  6
CONTINUOUS
 62
     7
 10
-542.854290008545
 20
-37.9678829410845
 30
0.0
 11
-542.854290008545
 21
71.0321682194048
 31
0.0
  0
LINE
  5
   35A
  8
0
  6
CONTINUOUS
 62
     7
 10
-543.375234438497
 20
-35.0134596638776
 30
0.0
 11
-542.854290008545
 21
-37.9678829410845
 31
0.0
  0
LINE
  5
   35B
  8
0
  6
CONTINUOUS
 62
     7
 10
-542.854290008545
 20
-37.9678829410845
 30
0.0
 11
-542.333345578593
 21
-35.0134596638776
 31
0.0
  0
LINE
  5
   35C
  8
0
  6
CONTINUOUS
 62
     7
 10
-542.333345578593
 20
68.0777449421979
 30
0.0
 11
-542.854290008545
 21
71.0321682194048
 31
0.0
  0
LINE
  5
   35D
  8
0
  6
CONTINUOUS
 62
     7
 10
-542.854290008545
 20
71.0321682194048
 30
0.0
 11
-543.375234438497
 21
68.0777449421979
 31
0.0
  0
ENDBLK
  5
   35E
  8
0
  6
CONTINUOUS
 62
     7
  0
BLOCK
  5
   35F
  8
0
  6
CONTINUOUS
 62
     7
  2
*UDIM1562
 70
    65
 10
0.0
 20
0.0
 30
0.0
  3
*UDIM1562
  0
TEXT
  5
   360
  8
0
  6
CONTINUOUS
 62
     7
 10
-477.745770306245
 20
-101.479438778221
 30
0.0
 40
3.00000002980232
  1
135
 50
359.999999948034
 41
0.933333333333333
 72
     1
 11
-473.845770266149
 21
-99.9794387668371
 31
0.0
 73
     2
  0
LINE
  5
   361
  8
0
  6
CONTINUOUS
 62
     7
 10
-439.809753747675
 20
11.2821749877753
 30
0.0
 11
-439.809790087152
 21
-104.479438781738
 31
0.0
  0
LINE
  5
   362
  8
0
  6
CONTINUOUS
 62
     7
 10
-507.331787423292
 20
-45.7178829410845
 30
0.0
 11
-507.331805869512
 21
-104.479438781738
 31
0.0
  0
LINE
  5
   363
  8
0
  6
CONTINUOUS
 62
     7
 10
-439.809789459319
 20
-102.479438781738
 30
0.0
 11
-507.331805241679
 21
-102.479438781738
 31
0.0
  0
LINE
  5
   364
  8
0
  6
CONTINUOUS
 62
     7
 10
-442.764212736526
 20
-103.00038321169
 30
0.0
 11
-439.809789459319
 21
-102.479438781738
 31
0.0
  0
LINE
  5
   365
  8
0
  6
CONTINUOUS
 62
     7
 10
-439.809789459319
 20
-102.479438781738
 30
0.0
 11
-442.764212736526
 21
-101.958494351787
 31
0.0
  0
LINE
  5
   366
  8
0
  6
CONTINUOUS
 62
     7
 10
-504.377381964472
 20
-101.958494351787
 30
0.0
 11
-507.331805241679
 21
-102.479438781738
 31
0.0
  0
LINE
  5
   367
  8
0
  6
CONTINUOUS
 62
     7
 10
-507.331805241679
 20
-102.479438781738
 30
0.0
 11
-504.377381964472
 21
-103.00038321169
 31
0.0
  0
ENDBLK
  5
   368
  8
0
  6
CONTINUOUS
 62
     7
  0
BLOCK
  5
   369
  8
0
  6
CONTINUOUS
 62
     7
  2
*UDIM1563
 70
    65
 10
0.0
 20
0.0
 30
0.0
  3
*UDIM1563
  0
TEXT
  5
   36A
  8
0
  6
CONTINUOUS
 62
     7
 10
-418.415580753044
 20
13.2321654943771
 30
0.0
 40
3.00000002980232
  1
105
 50
89.9999999480344
 41
0.933333333333333
 72
     1
 11
-419.915580764413
 21
17.1321655344787
 31
0.0
 73
     2
  0
LINE
  5
   36B
  8
0
  6
CONTINUOUS
 62
     7
 10
-452.83179473877
 20
-8.84282501222468
 30
0.0
 11
-415.415580749512
 21
-8.84282501222468
 31
0.0
  0
LINE
  5
   36C
  8
0
  6
CONTINUOUS
 62
     7
 10
-452.83179473877
 20
43.6571597289862
 30
0.0
 11
-415.415580749512
 21
43.6571597289862
 31
0.0
  0
LINE
  5
   36D
  8
0
  6
CONTINUOUS
 62
     7
 10
-417.415580749512
 20
-8.84282501222468
 30
0.0
 11
-417.415580749512
 21
43.6571597289862
 31
0.0
  0
LINE
  5
   36E
  8
0
  6
CONTINUOUS
 62
     7
 10
-417.936525179463
 20
-5.88840173501772
 30
0.0
 11
-417.415580749512
 21
-8.84282501222468
 31
0.0
  0
LINE
  5
   36F
  8
0
  6
CONTINUOUS
 62
     7
 10
-417.415580749512
 20
-8.84282501222468
 30
0.0
 11
-416.89463631956
 21
-5.88840173501772
 31
0.0
  0
LINE
  5
   370
  8
0
  6
CONTINUOUS
 62
     7
 10
-416.89463631956
 20
40.7027364517793
 30
0.0
 11
-417.415580749512
 21
43.6571597289862
 31
0.0
  0
LINE
  5
   371
  8
0
  6
CONTINUOUS
 62
     7
 10
-417.415580749512
 20
43.6571597289862
 30
0.0
 11
-417.936525179463
 21
40.7027364517793
 31
0.0
  0
ENDBLK
  5
   372
  8
0
  6
CONTINUOUS
 62
     7
  0
BLOCK
  5
   373
  8
0
  6
CONTINUOUS
 62
     0
  2
$1ON-OFF
 70
    64
 10
0.0
 20
0.0
 30
0.0
  3
$1ON-OFF
  0
LINE
  5
   374
  8
0
  6
CONTINUOUS
 62
     0
 10
5.09999999999999
 20
-29.65
 30
0.0
 11
5.54999999999999
 21
-29.65
 31
0.0
  0
LINE
  5
   375
  8
0
  6
CONTINUOUS
 62
     0
 10
3.79999999999999
 20
-37.35
 30
0.0
 11
4.59999999999999
 21
-37.35
 31
0.0
  0
LINE
  5
   376
  8
0
  6
CONTINUOUS
 62
     0
 10
-2.6
 20
-34.75
 30
0.0
 11
-2.6
 21
-34.25
 31
0.0
  0
LINE
  5
   377
  8
0
  6
CONTINUOUS
 62
     0
 10
2.6
 20
-34.75
 30
0.0
 11
2.6
 21
-34.25
 31
0.0
  0
ARC
  5
   378
  8
0
  6
CONTINUOUS
 62
     0
 10
-3.5527136788005E-15
 20
-34.25
 30
0.0
 40
2.6
 50
0.0
 51
180.0
  0
ARC
  5
   379
  8
0
  6
CONTINUOUS
 62
     0
 10
-3.5527136788005E-15
 20
-34.75
 30
0.0
 40
2.6
 50
180.0
 51
360.0
  0
ARC
  5
   37A
  8
0
  6
CONTINUOUS
 62
     0
 10
-3.5527136788005E-15
 20
-34.25
 30
0.0
 40
1.8
 50
0.0
 51
180.0
  0
ARC
  5
   37B
  8
0
  6
CONTINUOUS
 62
     0
 10
-3.5527136788005E-15
 20
-34.75
 30
0.0
 40
1.8
 50
180.0
 51
360.0
  0
LINE
  5
   37C
  8
0
  6
CONTINUOUS
 62
     0
 10
-1.8
 20
-34.75
 30
0.0
 11
-1.8
 21
-34.25
 31
0.0
  0
LINE
  5
   37D
  8
0
  6
CONTINUOUS
 62
     0
 10
1.8
 20
-34.75
 30
0.0
 11
1.8
 21
-34.25
 31
0.0
  0
LINE
  5
   37E
  8
0
  6
CONTINUOUS
 62
     0
 10
2.84999999999999
 20
-32.85
 30
0.0
 11
2.84999999999999
 21
-32.05
 31
0.0
  0
LINE
  5
   37F
  8
0
  6
CONTINUOUS
 62
     0
 10
2.84999999999999
 20
-32.85
 30
0.0
 11
3.79999999999999
 21
-32.85
 31
0.0
  0
LINE
  5
   380
  8
0
  6
CONTINUOUS
 62
     0
 10
5.54999999999999
 20
-32.85
 30
0.0
 11
5.54999999999999
 21
-32.05
 31
0.0
  0
LINE
  5
   381
  8
0
  6
CONTINUOUS
 62
     0
 10
2.84999999999999
 20
-32.05
 30
0.0
 11
3.79999999999999
 21
-32.05
 31
0.0
  0
LINE
  5
   382
  8
0
  6
CONTINUOUS
 62
     0
 10
3.79999999999999
 20
-37.35
 30
0.0
 11
3.79999999999999
 21
-32.85
 31
0.0
  0
LINE
  5
   383
  8
0
  6
CONTINUOUS
 62
     0
 10
4.59999999999999
 20
-37.35
 30
0.0
 11
4.59999999999999
 21
-32.85
 31
0.0
  0
LINE
  5
   384
  8
0
  6
CONTINUOUS
 62
     0
 10
4.59999999999999
 20
-32.85
 30
0.0
 11
5.54999999999999
 21
-32.85
 31
0.0
  0
LINE
  5
   385
  8
0
  6
CONTINUOUS
 62
     0
 10
4.59999999999999
 20
-32.05
 30
0.0
 11
5.54999999999999
 21
-32.05
 31
0.0
  0
LINE
  5
   386
  8
0
  6
CONTINUOUS
 62
     0
 10
3.79999999999999
 20
-32.05
 30
0.0
 11
3.79999999999999
 21
-30.95
 31
0.0
  0
LINE
  5
   387
  8
0
  6
CONTINUOUS
 62
     0
 10
4.59999999999999
 20
-32.05
 30
0.0
 11
4.59999999999999
 21
-30.95
 31
0.0
  0
ARC
  5
   388
  8
0
  6
CONTINUOUS
 62
     0
 10
5.09999999999999
 20
-30.95
 30
0.0
 40
1.3
 50
89.9999999999999
 51
180.0
  0
ARC
  5
   389
  8
0
  6
CONTINUOUS
 62
     0
 10
5.09999999999999
 20
-30.95
 30
0.0
 40
0.5
 50
89.9999999999999
 51
180.0
  0
LINE
  5
   38A
  8
0
  6
CONTINUOUS
 62
     0
 10
5.54999999999999
 20
-30.45
 30
0.0
 11
5.54999999999999
 21
-29.65
 31
0.0
  0
LINE
  5
   38B
  8
0
  6
CONTINUOUS
 62
     0
 10
5.09999999999999
 20
-30.45
 30
0.0
 11
5.54999999999999
 21
-30.45
 31
0.0
  0
LINE
  5
   38C
  8
0
  6
CONTINUOUS
 62
     0
 10
8.29999999999998
 20
-29.65
 30
0.0
 11
8.74999999999999
 21
-29.65
 31
0.0
  0
LINE
  5
   38D
  8
0
  6
CONTINUOUS
 62
     0
 10
6.99999999999999
 20
-37.35
 30
0.0
 11
7.79999999999999
 21
-37.35
 31
0.0
  0
LINE
  5
   38E
  8
0
  6
CONTINUOUS
 62
     0
 10
6.04999999999999
 20
-32.85
 30
0.0
 11
6.04999999999999
 21
-32.05
 31
0.0
  0
LINE
  5
   38F
  8
0
  6
CONTINUOUS
 62
     0
 10
6.04999999999999
 20
-32.85
 30
0.0
 11
6.99999999999999
 21
-32.85
 31
0.0
  0
LINE
  5
   390
  8
0
  6
CONTINUOUS
 62
     0
 10
8.74999999999999
 20
-32.85
 30
0.0
 11
8.74999999999999
 21
-32.05
 31
0.0
  0
LINE
  5
   391
  8
0
  6
CONTINUOUS
 62
     0
 10
6.04999999999999
 20
-32.05
 30
0.0
 11
6.99999999999999
 21
-32.05
 31
0.0
  0
LINE
  5
   392
  8
0
  6
CONTINUOUS
 62
     0
 10
6.99999999999999
 20
-37.35
 30
0.0
 11
6.99999999999999
 21
-32.85
 31
0.0
  0
LINE
  5
   393
  8
0
  6
CONTINUOUS
 62
     0
 10
7.79999999999999
 20
-37.35
 30
0.0
 11
7.79999999999999
 21
-32.85
 31
0.0
  0
LINE
  5
   394
  8
0
  6
CONTINUOUS
 62
     0
 10
7.79999999999999
 20
-32.85
 30
0.0
 11
8.74999999999999
 21
-32.85
 31
0.0
  0
LINE
  5
   395
  8
0
  6
CONTINUOUS
 62
     0
 10
7.79999999999999
 20
-32.05
 30
0.0
 11
8.74999999999999
 21
-32.05
 31
0.0
  0
LINE
  5
   396
  8
0
  6
CONTINUOUS
 62
     0
 10
6.99999999999999
 20
-32.05
 30
0.0
 11
6.99999999999999
 21
-30.95
 31
0.0
  0
LINE
  5
   397
  8
0
  6
CONTINUOUS
 62
     0
 10
7.79999999999999
 20
-32.05
 30
0.0
 11
7.79999999999999
 21
-30.95
 31
0.0
  0
ARC
  5
   398
  8
0
  6
CONTINUOUS
 62
     0
 10
8.29999999999998
 20
-30.95
 30
0.0
 40
1.3
 50
89.9999999999999
 51
180.0
  0
ARC
  5
   399
  8
0
  6
CONTINUOUS
 62
     0
 10
8.29999999999998
 20
-30.95
 30
0.0
 40
0.5
 50
89.9999999999999
 51
180.0
  0
LINE
  5
   39A
  8
0
  6
CONTINUOUS
 62
     0
 10
8.74999999999999
 20
-30.45
 30
0.0
 11
8.74999999999999
 21
-29.65
 31
0.0
  0
LINE
  5
   39B
  8
0
  6
CONTINUOUS
 62
     0
 10
8.29999999999998
 20
-30.45
 30
0.0
 11
8.74999999999999
 21
-30.45
 31
0.0
  0
LINE
  5
   39C
  8
0
  6
CONTINUOUS
 62
     0
 10
3.4
 20
-2.85000000000002
 30
0.0
 11
4.19999999999999
 21
-2.85000000000002
 31
0.0
  0
ARC
  5
   39D
  8
0
  6
CONTINUOUS
 62
     0
 10
-3.5527136788005E-15
 20
0.249999999999979
 30
0.0
 40
2.6
 50
0.0
 51
180.0
  0
ARC
  5
   39E
  8
0
  6
CONTINUOUS
 62
     0
 10
-3.5527136788005E-15
 20
0.249999999999979
 30
0.0
 40
1.8
 50
0.0
 51
180.0
  0
ARC
  5
   39F
  8
0
  6
CONTINUOUS
 62
     0
 10
-3.5527136788005E-15
 20
-0.250000000000018
 30
0.0
 40
2.6
 50
180.0
 51
360.0
  0
ARC
  5
   3A0
  8
0
  6
CONTINUOUS
 62
     0
 10
-3.5527136788005E-15
 20
-0.250000000000018
 30
0.0
 40
1.8
 50
180.0
 51
360.0
  0
LINE
  5
   3A1
  8
0
  6
CONTINUOUS
 62
     0
 10
1.8
 20
-0.250000000000018
 30
0.0
 11
1.8
 21
0.249999999999979
 31
0.0
  0
LINE
  5
   3A2
  8
0
  6
CONTINUOUS
 62
     0
 10
2.6
 20
-0.250000000000018
 30
0.0
 11
2.6
 21
0.249999999999979
 31
0.0
  0
LINE
  5
   3A3
  8
0
  6
CONTINUOUS
 62
     0
 10
-1.8
 20
-0.250000000000032
 30
0.0
 11
-1.8
 21
0.249999999999964
 31
0.0
  0
LINE
  5
   3A4
  8
0
  6
CONTINUOUS
 62
     0
 10
-2.6
 20
-0.250000000000018
 30
0.0
 11
-2.6
 21
0.249999999999979
 31
0.0
  0
LINE
  5
   3A5
  8
0
  6
CONTINUOUS
 62
     0
 10
3.4
 20
-2.85000000000002
 30
0.0
 11
3.4
 21
2.84999999999998
 31
0.0
  0
LINE
  5
   3A6
  8
0
  6
CONTINUOUS
 62
     0
 10
4.19999999999999
 20
-2.85000000000002
 30
0.0
 11
4.19999999999999
 21
0.649999999999981
 31
0.0
  0
LINE
  5
   3A7
  8
0
  6
CONTINUOUS
 62
     0
 10
6.99999999999999
 20
-2.85000000000002
 30
0.0
 11
6.99999999999999
 21
0.649999999999981
 31
0.0
  0
LINE
  5
   3A8
  8
0
  6
CONTINUOUS
 62
     0
 10
7.79999999999999
 20
-2.85000000000002
 30
0.0
 11
7.79999999999999
 21
0.84999999999998
 31
0.0
  0
LINE
  5
   3A9
  8
0
  6
CONTINUOUS
 62
     0
 10
3.4
 20
2.84999999999998
 30
0.0
 11
4.19999999999999
 21
2.84999999999998
 31
0.0
  0
ARC
  5
   3AA
  8
0
  6
CONTINUOUS
 62
     0
 10
5.59999999999999
 20
0.649999999999981
 30
0.0
 40
1.4
 50
0.0
 51
180.0
  0
LINE
  5
   3AB
  8
0
  6
CONTINUOUS
 62
     0
 10
4.19999999999999
 20
2.05
 30
0.0
 11
4.19999999999999
 21
2.84999999999998
 31
0.0
  0
ARC
  5
   3AC
  8
0
  6
CONTINUOUS
 62
     0
 10
5.79999999999999
 20
0.84999999999998
 30
0.0
 40
2.0
 50
0.0
 51
143.130102354155
  0
LINE
  5
   3AD
  8
0
  6
CONTINUOUS
 62
     0
 10
6.99999999999999
 20
-2.85000000000002
 30
0.0
 11
7.79999999999999
 21
-2.85000000000002
 31
0.0
  0
ENDBLK
  5
   3AE
  8
0
  6
CONTINUOUS
 62
     0
  0
BLOCK
  5
   3AF
  8
0
  6
CONTINUOUS
 62
     7
  2
*UDIM1564
 70
    65
 10
0.0
 20
0.0
 30
0.0
  3
*UDIM1564
  0
TEXT
  5
   3B0
  8
0
  6
CONTINUOUS
 62
     7
 10
-568.319661143974
 20
13.2321502224926
 30
0.0
 40
3.00000002980232
  1
161
 50
89.9999999480344
 41
0.933333333333333
 72
     1
 11
-569.819661155343
 21
17.1321502625942
 31
0.0
 73
     2
  0
LINE
  5
   3B1
  8
0
  6
CONTINUOUS
 62
     7
 10
-581.275742263443
 20
-22.8428478240967
 30
0.0
 11
-565.319661140442
 21
-22.8428478240967
 31
0.0
  0
LINE
  5
   3B2
  8
0
  6
CONTINUOUS
 62
     7
 10
-581.275742263443
 20
57.6571502685547
 30
0.0
 11
-565.319661140442
 21
57.6571502685547
 31
0.0
  0
LINE
  5
   3B3
  8
0
  6
CONTINUOUS
 62
     7
 10
-567.319661140442
 20
-22.8428478240967
 30
0.0
 11
-567.319661140442
 21
57.6571502685547
 31
0.0
  0
LINE
  5
   3B4
  8
0
  6
CONTINUOUS
 62
     7
 10
-567.840605570394
 20
-19.8884245468897
 30
0.0
 11
-567.319661140442
 21
-22.8428478240967
 31
0.0
  0
LINE
  5
   3B5
  8
0
  6
CONTINUOUS
 62
     7
 10
-567.319661140442
 20
-22.8428478240967
 30
0.0
 11
-566.79871671049
 21
-19.8884245468897
 31
0.0
  0
LINE
  5
   3B6
  8
0
  6
CONTINUOUS
 62
     7
 10
-566.79871671049
 20
54.7027269913477
 30
0.0
 11
-567.319661140442
 21
57.6571502685547
 31
0.0
  0
LINE
  5
   3B7
  8
0
  6
CONTINUOUS
 62
     7
 10
-567.319661140442
 20
57.6571502685547
 30
0.0
 11
-567.840605570394
 21
54.7027269913477
 31
0.0
  0
ENDBLK
  5
   3B8
  8
0
  6
CONTINUOUS
 62
     7
  0
BLOCK
  5
   3B9
  8
0
  6
CONTINUOUS
 62
     7
  2
*UDIM1565
 70
    65
 10
0.0
 20
0.0
 30
0.0
  3
*UDIM1565
  0
TEXT
  5
   3BA
  8
0
  6
CONTINUOUS
 62
     7
 10
-615.075741624046
 20
99.0166626011738
 30
0.0
 40
3.00000002980232
  1
117
 50
359.999999948034
 41
0.933333333333333
 72
     1
 11
-611.17574158395
 21
100.516662612557
 31
0.0
 73
     2
  0
LINE
  5
   3BB
  8
0
  6
CONTINUOUS
 62
     7
 10
-581.650742263444
 20
58.0321502685547
 30
0.0
 11
-581.650742263443
 21
100.016662597656
 31
0.0
  0
LINE
  5
   3BC
  8
0
  6
CONTINUOUS
 62
     7
 10
-640.150742263443
 20
58.0321502685547
 30
0.0
 11
-640.150742263443
 21
100.016662597656
 31
0.0
  0
LINE
  5
   3BD
  8
0
  6
CONTINUOUS
 62
     7
 10
-581.650742263443
 20
98.0166625976563
 30
0.0
 11
-640.150742263443
 21
98.0166625976563
 31
0.0
  0
LINE
  5
   3BE
  8
0
  6
CONTINUOUS
 62
     7
 10
-584.605165540651
 20
97.4957181677046
 30
0.0
 11
-581.650742263443
 21
98.0166625976563
 31
0.0
  0
LINE
  5
   3BF
  8
0
  6
CONTINUOUS
 62
     7
 10
-581.650742263443
 20
98.0166625976563
 30
0.0
 11
-584.605165540651
 21
98.5376070276079
 31
0.0
  0
LINE
  5
   3C0
  8
0
  6
CONTINUOUS
 62
     7
 10
-637.196318986236
 20
98.5376070276079
 30
0.0
 11
-640.150742263443
 21
98.0166625976563
 31
0.0
  0
LINE
  5
   3C1
  8
0
  6
CONTINUOUS
 62
     7
 10
-640.150742263443
 20
98.0166625976563
 30
0.0
 11
-637.196318986236
 21
97.4957181677046
 31
0.0
  0
ENDBLK
  5
   3C2
  8
0
  6
CONTINUOUS
 62
     7
  0
BLOCK
  5
   3C3
  8
0
  6
CONTINUOUS
 62
     7
  2
*UDIM1566
 70
    65
 10
0.0
 20
0.0
 30
0.0
  3
*UDIM1566
  0
TEXT
  5
   3C4
  8
0
  6
CONTINUOUS
 62
     7
 10
-666.785339357733
 20
-61.2428344917152
 30
0.0
 40
3.00000002980232
  1
46
 50
89.9999999480344
 41
0.933333333333333
 72
     1
 11
-668.28533937037
 21
-58.7428344655213
 31
0.0
 73
     2
  0
LINE
  5
   3C5
  8
0
  6
CONTINUOUS
 62
     7
 10
-620.201224453968
 20
-69.9678326416191
 30
0.0
 11
-667.785339355469
 21
-69.9678326416191
 31
0.0
  0
LINE
  5
   3C6
  8
0
  6
CONTINUOUS
 62
     7
 10
-645.150742067817
 20
-46.9678326416193
 30
0.0
 11
-667.785339355469
 21
-46.9678326416193
 31
0.0
  0
LINE
  5
   3C7
  8
0
  6
CONTINUOUS
 62
     7
 10
-665.785339355469
 20
-69.9678326416191
 30
0.0
 11
-665.785339355469
 21
-46.9678326416193
 31
0.0
  0
LINE
  5
   3C8
  8
0
  6
CONTINUOUS
 62
     7
 10
-666.30628378542
 20
-67.0134093644122
 30
0.0
 11
-665.785339355469
 21
-69.9678326416191
 31
0.0
  0
LINE
  5
   3C9
  8
0
  6
CONTINUOUS
 62
     7
 10
-665.785339355469
 20
-69.9678326416191
 30
0.0
 11
-665.264394925517
 21
-67.0134093644122
 31
0.0
  0
LINE
  5
   3CA
  8
0
  6
CONTINUOUS
 62
     7
 10
-665.264394925517
 20
-49.9222559188263
 30
0.0
 11
-665.785339355469
 21
-46.9678326416193
 31
0.0
  0
LINE
  5
   3CB
  8
0
  6
CONTINUOUS
 62
     7
 10
-665.785339355469
 20
-46.9678326416193
 30
0.0
 11
-666.30628378542
 21
-49.9222559188263
 31
0.0
  0
ENDBLK
  5
   3CC
  8
0
  6
CONTINUOUS
 62
     7
  0
BLOCK
  5
   3CD
  8
0
  6
CONTINUOUS
 62
     7
  2
*UDIM1567
 70
    65
 10
0.0
 20
0.0
 30
0.0
  3
*UDIM1567
  0
TEXT
  5
   3CE
  8
0
  6
CONTINUOUS
 62
     7
 10
-655.560920722668
 20
40.3446501807694
 30
0.0
 40
3.00000002980232
  1
125,25
 50
89.9999999480344
 41
0.933333333333333
 72
     1
 11
-657.060920730233
 21
48.4446502625942
 31
0.0
 73
     2
  0
LINE
  5
   3CF
  8
0
  6
CONTINUOUS
 62
     7
 10
-645.150718688965
 20
80.0321426391602
 30
0.0
 11
-656.560920715332
 21
80.0321426391602
 31
0.0
  0
LINE
  5
   3D0
  8
0
  6
CONTINUOUS
 62
     7
 10
-654.560920715332
 20
17.4071502685547
 30
0.0
 11
-654.560920715332
 21
80.0321426391602
 31
0.0
  0
LINE
  5
   3D1
  8
0
  6
CONTINUOUS
 62
     7
 10
-655.081865145284
 20
20.3615735457617
 30
0.0
 11
-654.560920715332
 21
17.4071502685547
 31
0.0
  0
LINE
  5
   3D2
  8
0
  6
CONTINUOUS
 62
     7
 10
-654.560920715332
 20
17.4071502685547
 30
0.0
 11
-654.03997628538
 21
20.3615735457617
 31
0.0
  0
LINE
  5
   3D3
  8
0
  6
CONTINUOUS
 62
     7
 10
-654.03997628538
 20
77.0777193619532
 30
0.0
 11
-654.560920715332
 21
80.0321426391602
 31
0.0
  0
LINE
  5
   3D4
  8
0
  6
CONTINUOUS
 62
     7
 10
-654.560920715332
 20
80.0321426391602
 30
0.0
 11
-655.081865145284
 21
77.0777193619532
 31
0.0
  0
ENDBLK
  5
   3D5
  8
0
  6
CONTINUOUS
 62
     7
  0
BLOCK
  5
   3D6
  8
0
  6
CONTINUOUS
 62
     7
  2
*UDIM1568
 70
    65
 10
0.0
 20
0.0
 30
0.0
  3
*UDIM1568
  0
TEXT
  5
   3D7
  8
0
  6
CONTINUOUS
 62
     7
 10
-615.075745438737
 20
92.8913116490254
 30
0.0
 40
3.00000002980232
  1
105
 50
359.999999948034
 41
0.933333333333333
 72
     1
 11
-611.175745398641
 21
94.391311660409
 31
0.0
 73
     2
  0
LINE
  5
   3D8
  8
0
  6
CONTINUOUS
 62
     7
 10
-584.650749892838
 20
44.4071502685547
 30
0.0
 11
-584.650749892838
 21
93.8913116455078
 31
0.0
  0
LINE
  5
   3D9
  8
0
  6
CONTINUOUS
 62
     7
 10
-637.150742263429
 20
44.4071502685547
 30
0.0
 11
-637.150742263429
 21
93.8913116455078
 31
0.0
  0
LINE
  5
   3DA
  8
0
  6
CONTINUOUS
 62
     7
 10
-584.650749892838
 20
91.8913116455078
 30
0.0
 11
-637.150742263429
 21
91.8913116455078
 31
0.0
  0
LINE
  5
   3DB
  8
0
  6
CONTINUOUS
 62
     7
 10
-587.605173170045
 20
91.3703672155562
 30
0.0
 11
-584.650749892838
 21
91.8913116455078
 31
0.0
  0
LINE
  5
   3DC
  8
0
  6
CONTINUOUS
 62
     7
 10
-584.650749892838
 20
91.8913116455078
 30
0.0
 11
-587.605173170045
 21
92.4122560754595
 31
0.0
  0
LINE
  5
   3DD
  8
0
  6
CONTINUOUS
 62
     7
 10
-634.196318986223
 20
92.4122560754595
 30
0.0
 11
-637.150742263429
 21
91.8913116455078
 31
0.0
  0
LINE
  5
   3DE
  8
0
  6
CONTINUOUS
 62
     7
 10
-637.150742263429
 20
91.8913116455078
 30
0.0
 11
-634.196318986223
 21
91.3703672155562
 31
0.0
  0
ENDBLK
  5
   3DF
  8
0
  6
CONTINUOUS
 62
     7
  0
BLOCK
  5
   3E0
  8
0
  6
CONTINUOUS
 62
     7
  2
*UDIM1569
 70
    65
 10
0.0
 20
0.0
 30
0.0
  3
*UDIM1569
  0
TEXT
  5
   3E1
  8
0
  6
CONTINUOUS
 62
     7
 10
-666.08271789904
 20
12.3571578435336
 30
0.0
 40
3.00000002980232
  1
254
 50
89.9999999480344
 41
0.933333333333333
 72
     1
 11
-667.582717910409
 21
16.2571578836352
 31
0.0
 73
     2
  0
LINE
  5
   3E2
  8
0
  6
CONTINUOUS
 62
     7
 10
-645.150742067817
 20
-46.9678326416193
 30
0.0
 11
-667.082717895508
 21
-46.9678326416193
 31
0.0
  0
LINE
  5
   3E3
  8
0
  6
CONTINUOUS
 62
     7
 10
-645.150718688965
 20
80.0321426391602
 30
0.0
 11
-667.082717895508
 21
80.0321426391602
 31
0.0
  0
LINE
  5
   3E4
  8
0
  6
CONTINUOUS
 62
     7
 10
-665.082717895508
 20
-46.9678326416193
 30
0.0
 11
-665.082717895508
 21
80.0321426391602
 31
0.0
  0
LINE
  5
   3E5
  8
0
  6
CONTINUOUS
 62
     7
 10
-665.603662325459
 20
-44.0134093644123
 30
0.0
 11
-665.082717895508
 21
-46.9678326416193
 31
0.0
  0
LINE
  5
   3E6
  8
0
  6
CONTINUOUS
 62
     7
 10
-665.082717895508
 20
-46.9678326416193
 30
0.0
 11
-664.561773465556
 21
-44.0134093644123
 31
0.0
  0
LINE
  5
   3E7
  8
0
  6
CONTINUOUS
 62
     7
 10
-664.561773465556
 20
77.0777193619532
 30
0.0
 11
-665.082717895508
 21
80.0321426391602
 31
0.0
  0
LINE
  5
   3E8
  8
0
  6
CONTINUOUS
 62
     7
 10
-665.082717895508
 20
80.0321426391602
 30
0.0
 11
-665.603662325459
 21
77.0777193619532
 31
0.0
  0
ENDBLK
  5
   3E9
  8
0
  6
CONTINUOUS
 62
     7
  0
BLOCK
  5
   3EA
  8
0
  6
CONTINUOUS
 62
     7
  2
*UDIM1570
 70
    65
 10
0.0
 20
0.0
 30
0.0
  3
*UDIM1570
  0
TEXT
  5
   3EB
  8
0
  6
CONTINUOUS
 62
     7
 10
-606.938188242941
 20
85.234603887879
 30
0.0
 40
3.00000002980232
  1
43,75
 50
359.999999948034
 41
0.933333333333333
 72
     1
 11
-600.23818817503
 21
86.7346038967371
 31
0.0
 73
     2
  0
LINE
  5
   3EC
  8
0
  6
CONTINUOUS
 62
     7
 10
-589.025742028659
 20
-38.267831691769
 30
0.0
 11
-589.025702945293
 21
86.2346038818358
 31
0.0
  0
LINE
  5
   3ED
  8
0
  6
CONTINUOUS
 62
     7
 10
-610.900740784448
 20
-38.267830263632
 30
0.0
 11
-610.900701701083
 21
86.2346038818358
 31
0.0
  0
LINE
  5
   3EE
  8
0
  6
CONTINUOUS
 62
     7
 10
-589.025703573126
 20
84.2346038818359
 30
0.0
 11
-610.900702328916
 21
84.2346038818359
 31
0.0
  0
LINE
  5
   3EF
  8
0
  6
CONTINUOUS
 62
     7
 10
-591.980126850333
 20
83.7136594518843
 30
0.0
 11
-589.025703573126
 21
84.2346038818359
 31
0.0
  0
LINE
  5
   3F0
  8
0
  6
CONTINUOUS
 62
     7
 10
-589.025703573126
 20
84.2346038818359
 30
0.0
 11
-591.980126850333
 21
84.7555483117876
 31
0.0
  0
LINE
  5
   3F1
  8
0
  6
CONTINUOUS
 62
     7
 10
-607.946279051709
 20
84.7555483117876
 30
0.0
 11
-610.900702328916
 21
84.2346038818359
 31
0.0
  0
LINE
  5
   3F2
  8
0
  6
CONTINUOUS
 62
     7
 10
-610.900702328916
 20
84.2346038818359
 30
0.0
 11
-607.946279051709
 21
83.7136594518843
 31
0.0
  0
ENDBLK
  5
   3F3
  8
0
  6
CONTINUOUS
 62
     7
  0
BLOCK
  5
   3F4
  8
0
  6
CONTINUOUS
 62
     7
  2
*UDIM1571
 70
    65
 10
0.0
 20
0.0
 30
0.0
  3
*UDIM1571
  0
TEXT
  5
   3F5
  8
0
  6
CONTINUOUS
 62
     7
 10
-628.813188244368
 20
85.234603887879
 30
0.0
 40
3.00000002980232
  1
43,75
 50
359.999999948034
 41
0.933333333333333
 72
     1
 11
-622.113188176457
 21
86.7346038967371
 31
0.0
 73
     2
  0
LINE
  5
   3F6
  8
0
  6
CONTINUOUS
 62
     7
 10
-632.77574163436
 20
-29.2178325982796
 30
0.0
 11
-632.775705391938
 21
86.2346038818358
 31
0.0
  0
LINE
  5
   3F7
  8
0
  6
CONTINUOUS
 62
     7
 10
-610.900702328916
 20
84.2346038818359
 30
0.0
 11
-632.775706019771
 21
84.2346038818359
 31
0.0
  0
LINE
  5
   3F8
  8
0
  6
CONTINUOUS
 62
     7
 10
-613.855125606123
 20
83.7136594518843
 30
0.0
 11
-610.900702328916
 21
84.2346038818359
 31
0.0
  0
LINE
  5
   3F9
  8
0
  6
CONTINUOUS
 62
     7
 10
-610.900702328916
 20
84.2346038818359
 30
0.0
 11
-613.855125606123
 21
84.7555483117876
 31
0.0
  0
LINE
  5
   3FA
  8
0
  6
CONTINUOUS
 62
     7
 10
-629.821282742564
 20
84.7555483117876
 30
0.0
 11
-632.775706019771
 21
84.2346038818359
 31
0.0
  0
LINE
  5
   3FB
  8
0
  6
CONTINUOUS
 62
     7
 10
-632.775706019771
 20
84.2346038818359
 30
0.0
 11
-629.821282742564
 21
83.7136594518843
 31
0.0
  0
ENDBLK
  5
   3FC
  8
0
  6
CONTINUOUS
 62
     7
  0
BLOCK
  5
   3FD
  8
0
  6
CONTINUOUS
 62
     7
  2
*UDIM1572
 70
    65
 10
0.0
 20
0.0
 30
0.0
  3
*UDIM1572
  0
TEXT
  5
   3FE
  8
0
  6
CONTINUOUS
 62
     7
 10
-615.075718727034
 20
104.835754398049
 30
0.0
 40
3.00000002980232
  1
140
 50
359.999999948034
 41
0.933333333333333
 72
     1
 11
-611.175718686938
 21
106.335754409432
 31
0.0
 73
     2
  0
LINE
  5
   3FF
  8
0
  6
CONTINUOUS
 62
     7
 10
-575.900725872418
 20
79.6321426391601
 30
0.0
 11
-575.900714187135
 21
105.835754394531
 31
0.0
  0
LINE
  5
   400
  8
0
  6
CONTINUOUS
 62
     7
 10
-645.900718377153
 20
79.6321426391601
 30
0.0
 11
-645.900710151408
 21
105.835754394531
 31
0.0
  0
LINE
  5
   401
  8
0
  6
CONTINUOUS
 62
     7
 10
-575.900715079018
 20
103.835754394531
 30
0.0
 11
-645.90071077924
 21
103.835754394531
 31
0.0
  0
LINE
  5
   402
  8
0
  6
CONTINUOUS
 62
     7
 10
-578.855138356225
 20
103.31480996458
 30
0.0
 11
-575.900715079018
 21
103.835754394531
 31
0.0
  0
LINE
  5
   403
  8
0
  6
CONTINUOUS
 62
     7
 10
-575.900715079018
 20
103.835754394531
 30
0.0
 11
-578.855138356225
 21
104.356698824483
 31
0.0
  0
LINE
  5
   404
  8
0
  6
CONTINUOUS
 62
     7
 10
-642.946287502033
 20
104.356698824483
 30
0.0
 11
-645.90071077924
 21
103.835754394531
 31
0.0
  0
LINE
  5
   405
  8
0
  6
CONTINUOUS
 62
     7
 10
-645.90071077924
 20
103.835754394531
 30
0.0
 11
-642.946287502033
 21
103.31480996458
 31
0.0
  0
ENDBLK
  5
   406
  8
0
  6
CONTINUOUS
 62
     7
  0
BLOCK
  5
   407
  8
0
  6
CONTINUOUS
 62
     7
  2
MOSTRINA
 70
    64
 10
0.0
 20
0.0
 30
0.0
  3
MOSTRINA
  0
LINE
  5
   408
  8
0
  6
CONTINUOUS
 62
     3
 10
173.338256835938
 20
30.7306251525879
 30
0.0
 11
173.338256835938
 21
189.230621337891
 31
0.0
  0
LINE
  5
   409
  8
0
  6
CONTINUOUS
 62
     3
 10
57.5882568359375
 20
29.4806251525879
 30
0.0
 11
172.088256835938
 21
29.4806251525879
 31
0.0
  0
LINE
  5
   40A
  8
0
  6
CONTINUOUS
 62
     3
 10
56.3382568359375
 20
30.7306251525879
 30
0.0
 11
56.3382568359375
 21
189.230621337891
 31
0.0
  0
LINE
  5
   40B
  8
0
  6
CONTINUOUS
 62
     3
 10
57.5882568359375
 20
190.480621337891
 30
0.0
 11
172.088256835938
 21
190.480621337891
 31
0.0
  0
LINE
  5
   40C
  8
0
  6
CONTINUOUS
 62
     3
 10
167.838256835938
 20
56.9806251525879
 30
0.0
 11
167.838256835938
 21
162.980625152588
 31
0.0
  0
LINE
  5
   40D
  8
0
  6
CONTINUOUS
 62
     3
 10
61.8382568359375
 20
56.9806251525879
 30
0.0
 11
167.838256835938
 21
56.9806251525879
 31
0.0
  0
LINE
  5
   40E
  8
0
  6
CONTINUOUS
 62
     3
 10
61.8382568359375
 20
56.9806251525879
 30
0.0
 11
61.8382568359375
 21
162.980625152588
 31
0.0
  0
LINE
  5
   40F
  8
0
  6
CONTINUOUS
 62
     3
 10
61.8382568359375
 20
162.980621337891
 30
0.0
 11
167.838256835938
 21
162.980621337891
 31
0.0
  0
LINE
  5
   410
  8
0
  6
CONTINUOUS
 62
     3
 10
168.838256835938
 20
48.4806251525879
 30
0.0
 11
168.838256835938
 21
49.4806251525879
 31
0.0
  0
LINE
  5
   411
  8
0
  6
CONTINUOUS
 62
     3
 10
61.8382568359375
 20
50.4806251525879
 30
0.0
 11
167.838256835938
 21
50.4806251525879
 31
0.0
  0
LINE
  5
   412
  8
0
  6
CONTINUOUS
 62
     3
 10
60.8382568359375
 20
48.4806251525879
 30
0.0
 11
60.8382568359375
 21
49.4806251525879
 31
0.0
  0
LINE
  5
   413
  8
0
  6
CONTINUOUS
 62
     3
 10
61.8382568359375
 20
49.4806251525879
 30
0.0
 11
167.838256835938
 21
49.4806251525879
 31
0.0
  0
LINE
  5
   414
  8
0
  6
CONTINUOUS
 62
     3
 10
60.8382568359375
 20
29.4806251525879
 30
0.0
 11
60.8382568359375
 21
48.4806251525879
 31
0.0
  0
LINE
  5
   415
  8
0
  6
CONTINUOUS
 62
     3
 10
60.8382568359375
 20
49.4806213378906
 30
0.0
 11
60.8382568359375
 21
190.480621337891
 31
0.0
  0
LINE
  5
   416
  8
0
  6
CONTINUOUS
 62
     3
 10
61.8382568359375
 20
29.4806251525879
 30
0.0
 11
61.8382568359375
 21
49.4806251525879
 31
0.0
  0
LINE
  5
   417
  8
0
  6
CONTINUOUS
 62
     3
 10
61.8382568359375
 20
162.980621337891
 30
0.0
 11
61.8382568359375
 21
169.480621337891
 31
0.0
  0
LINE
  5
   418
  8
0
  6
CONTINUOUS
 62
     3
 10
61.8382568359375
 20
50.4806251525879
 30
0.0
 11
61.8382568359375
 21
56.9806251525879
 31
0.0
  0
LINE
  5
   419
  8
0
  6
CONTINUOUS
 62
     3
 10
168.838256835938
 20
29.4806251525879
 30
0.0
 11
168.838256835938
 21
48.4806251525879
 31
0.0
  0
LINE
  5
   41A
  8
0
  6
CONTINUOUS
 62
     3
 10
168.838256835938
 20
49.4806251525879
 30
0.0
 11
168.838256835938
 21
190.480621337891
 31
0.0
  0
LINE
  5
   41B
  8
0
  6
CONTINUOUS
 62
     3
 10
167.838256835938
 20
50.4806251525879
 30
0.0
 11
167.838256835938
 21
56.9806251525879
 31
0.0
  0
LINE
  5
   41C
  8
0
  6
CONTINUOUS
 62
     3
 10
167.838256835938
 20
162.980621337891
 30
0.0
 11
167.838256835938
 21
169.480621337891
 31
0.0
  0
LINE
  5
   41D
  8
0
  6
CONTINUOUS
 62
     3
 10
167.838256835938
 20
29.4806251525879
 30
0.0
 11
167.838256835938
 21
49.4806251525879
 31
0.0
  0
LINE
  5
   41E
  8
0
  6
CONTINUOUS
 62
     3
 10
60.8382568359375
 20
170.480621337891
 30
0.0
 11
168.838256835938
 21
170.480621337891
 31
0.0
  0
LINE
  5
   41F
  8
0
  6
CONTINUOUS
 62
     3
 10
61.8382568359375
 20
169.480621337891
 30
0.0
 11
167.838256835938
 21
169.480621337891
 31
0.0
  0
ARC
  5
   420
  8
0
  6
CONTINUOUS
 62
     3
 10
57.5882568359375
 20
30.7306251525879
 30
0.0
 40
1.25
 50
180.0
 51
270.0
  0
ARC
  5
   421
  8
0
  6
CONTINUOUS
 62
     3
 10
172.088256835938
 20
30.7306251525879
 30
0.0
 40
1.25
 50
270.0
 51
360.0
  0
ARC
  5
   422
  8
0
  6
CONTINUOUS
 62
     3
 10
172.088256835938
 20
189.230621337891
 30
0.0
 40
1.25
 50
0.0
 51
90.0
  0
ARC
  5
   423
  8
0
  6
CONTINUOUS
 62
     3
 10
57.5882568359375
 20
189.230621337891
 30
0.0
 40
1.25
 50
90.0
 51
180.0
  0
LINE
  5
   424
  8
0
  6
DOT
 62
     3
 10
60.3382577409677
 20
179.7306252571
 30
0.0
 11
60.8382568359375
 21
179.7306252571
 31
0.0
  0
LINE
  5
   425
  8
0
  6
DOT
 62
     3
 10
60.3382577409676
 20
181.2306252571
 30
0.0
 11
60.8382568359375
 21
181.2306252571
 31
0.0
  0
LINE
  5
   426
  8
0
  6
CONTINUOUS
 62
     3
 10
168.338257745313
 20
179.730625257273
 30
0.0
 11
168.838256835938
 21
179.730625257273
 31
0.0
  0
LINE
  5
   427
  8
0
  6
CONTINUOUS
 62
     3
 10
168.338257745314
 20
181.230625257273
 30
0.0
 11
168.838256835938
 21
181.230625257273
 31
0.0
  0
ARC
  5
   428
  8
0
  6
DOT
 62
     3
 10
60.3382577401871
 20
180.480625257147
 30
0.0
 40
0.749999999345164
 50
90.0
 51
270.0
  0
ARC
  5
   429
  8
0
  6
CONTINUOUS
 62
     3
 10
61.338257740822
 20
180.480625256974
 30
0.0
 40
0.750000000009701
 50
270.0
 51
450.0
  0
LINE
  5
   42A
  8
0
  6
CONTINUOUS
 62
     3
 10
60.8382568359375
 20
181.2306252571
 30
0.0
 11
61.3382577409688
 21
181.2306252571
 31
0.0
  0
LINE
  5
   42B
  8
0
  6
CONTINUOUS
 62
     3
 10
60.8382568359375
 20
179.7306252571
 30
0.0
 11
61.3382577409689
 21
179.7306252571
 31
0.0
  0
ARC
  5
   42C
  8
0
  6
CONTINUOUS
 62
     3
 10
168.338257745503
 20
180.480625256952
 30
0.0
 40
0.750000000048506
 50
90.0000000038822
 51
269.999999996024
  0
ARC
  5
   42D
  8
0
  6
DOT
 62
     3
 10
169.338257745421
 20
180.480625256965
 30
0.0
 40
0.750000000029104
 50
270.000000002449
 51
449.999999997486
  0
LINE
  5
   42E
  8
0
  6
DOT
 62
     3
 10
168.838256835938
 20
181.230625257273
 30
0.0
 11
169.338257745315
 21
181.230625257273
 31
0.0
  0
LINE
  5
   42F
  8
0
  6
DOT
 62
     3
 10
168.838256835938
 20
179.730625257273
 30
0.0
 11
169.338257745315
 21
179.730625257273
 31
0.0
  0
POINT
  5
   430
  8
0
  6
CONTINUOUS
 62
     3
 10
114.838256835938
 20
109.980621337891
 30
0.0
  0
ENDBLK
  5
   431
  8
0
  6
CONTINUOUS
 62
     7
  0
BLOCK
  5
   432
  8
0
  6
CONTINUOUS
 62
     7
  2
*UDIM1573
 70
    65
 10
0.0
 20
0.0
 30
0.0
  3
*UDIM1573
  0
TEXT
  5
   433
  8
0
  6
CONTINUOUS
 62
     7
 10
-382.126779727172
 20
8.49715610294369
 30
0.0
 40
3.00000002980232
  1
7
 50
398.442908631415
 41
0.933333333333334
 72
     1
 11
-382.197830627188
 21
10.355906177147
 31
0.0
 73
     2
  0
TEXT
  5
   434
  8
0
  6
CONTINUOUS
 62
     7
 10
-384.593948124795
 20
6.53869237839924
 30
0.0
 40
3.00000002980232
  1
Ø
 50
398.442908631415
 41
0.933333333333334
 72
     1
 11
-384.664999024811
 21
8.39744245260258
 31
0.0
 73
     2
  0
LINE
  5
   435
  8
0
  6
CONTINUOUS
 62
     7
 10
-360.327767488282
 20
24.5246695550155
 30
0.0
 11
-383.97221360598
 21
5.75546431832485
 31
0.0
  0
LINE
  5
   436
  8
0
  6
CONTINUOUS
 62
     7
 10
-358.337669407522
 20
26.7695547701117
 30
0.0
 11
-360.327767488282
 21
24.5246695550155
 31
0.0
  0
LINE
  5
   437
  8
0
  6
CONTINUOUS
 62
     7
 10
-360.327767488282
 20
24.5246695550155
 30
0.0
 11
-357.68989114381
 21
25.9535181793555
 31
0.0
  0
LINE
  5
   438
  8
0
  6
CONTINUOUS
 62
     7
 10
-363.688514674509
 20
21.1917489408258
 30
0.0
 11
-361.69841659375
 21
23.436634155922
 31
0.0
  0
LINE
  5
   439
  8
0
  6
CONTINUOUS
 62
     7
 10
-361.69841659375
 20
23.436634155922
 30
0.0
 11
-364.336292938221
 21
22.007785531582
 31
0.0
  0
ENDBLK
  5
   43A
  8
0
  6
CONTINUOUS
 62
     7
  0
BLOCK
  5
   43B
  8
0
  6
CONTINUOUS
 62
     7
  2
*UDIM1574
 70
    65
 10
0.0
 20
0.0
 30
0.0
  3
*UDIM1574
  0
TEXT
  5
   43C
  8
0
  6
CONTINUOUS
 62
     7
 10
-353.788092075885
 20
72.2668304511257
 30
0.0
 40
3.00000002980232
  1
80
 50
359.999999844103
 41
0.933333333333333
 72
     1
 11
-351.288092046976
 21
73.7668304592371
 31
0.0
 73
     2
  0
LINE
  5
   43D
  8
0
  6
CONTINUOUS
 62
     7
 10
-361.013092041016
 20
62.1056518554688
 30
0.0
 11
-361.013092041016
 21
73.2668304443359
 31
0.0
  0
LINE
  5
   43E
  8
0
  6
CONTINUOUS
 62
     7
 10
-341.013092041016
 20
62.1056518554688
 30
0.0
 11
-341.013092041016
 21
73.2668304443359
 31
0.0
  0
LINE
  5
   43F
  8
0
  6
CONTINUOUS
 62
     7
 10
-361.013092041016
 20
71.2668304443359
 30
0.0
 11
-341.013092041016
 21
71.2668304443359
 31
0.0
  0
LINE
  5
   440
  8
0
  6
CONTINUOUS
 62
     7
 10
-358.058668763809
 20
71.7877748742876
 30
0.0
 11
-361.013092041016
 21
71.2668304443359
 31
0.0
  0
LINE
  5
   441
  8
0
  6
CONTINUOUS
 62
     7
 10
-361.013092041016
 20
71.2668304443359
 30
0.0
 11
-358.058668763809
 21
70.7458860143843
 31
0.0
  0
LINE
  5
   442
  8
0
  6
CONTINUOUS
 62
     7
 10
-343.967515318223
 20
70.7458860143843
 30
0.0
 11
-341.013092041016
 21
71.2668304443359
 31
0.0
  0
LINE
  5
   443
  8
0
  6
CONTINUOUS
 62
     7
 10
-341.013092041016
 20
71.2668304443359
 30
0.0
 11
-343.967515318223
 21
71.7877748742876
 31
0.0
  0
ENDBLK
  5
   444
  8
0
  6
CONTINUOUS
 62
     7
  0
BLOCK
  5
   445
  8
0
  6
CONTINUOUS
 62
     7
  2
*UDIM1575
 70
    65
 10
0.0
 20
0.0
 30
0.0
  3
*UDIM1575
  0
TEXT
  5
   446
  8
0
  6
CONTINUOUS
 62
     7
 10
-355.188092089793
 20
78.7064895735802
 30
0.0
 40
3.00000002980232
  1
112
 50
359.999999844103
 41
0.933333333333333
 72
     1
 11
-351.288092046976
 21
80.2064895778894
 31
0.0
 73
     2
  0
LINE
  5
   447
  8
0
  6
CONTINUOUS
 62
     7
 10
-365.013092041016
 20
56.7306518554688
 30
0.0
 11
-365.013092041016
 21
79.7064895629883
 31
0.0
  0
LINE
  5
   448
  8
0
  6
CONTINUOUS
 62
     7
 10
-337.013092041016
 20
56.7306518554688
 30
0.0
 11
-337.013092041016
 21
79.7064895629883
 31
0.0
  0
LINE
  5
   449
  8
0
  6
CONTINUOUS
 62
     7
 10
-365.013092041016
 20
77.7064895629883
 30
0.0
 11
-337.013092041016
 21
77.7064895629883
 31
0.0
  0
LINE
  5
   44A
  8
0
  6
CONTINUOUS
 62
     7
 10
-362.058668763809
 20
78.22743399294
 30
0.0
 11
-365.013092041016
 21
77.7064895629883
 31
0.0
  0
LINE
  5
   44B
  8
0
  6
CONTINUOUS
 62
     7
 10
-365.013092041016
 20
77.7064895629883
 30
0.0
 11
-362.058668763809
 21
77.1855451330366
 31
0.0
  0
LINE
  5
   44C
  8
0
  6
CONTINUOUS
 62
     7
 10
-339.967515318223
 20
77.1855451330366
 30
0.0
 11
-337.013092041016
 21
77.7064895629883
 31
0.0
  0
LINE
  5
   44D
  8
0
  6
CONTINUOUS
 62
     7
 10
-337.013092041016
 20
77.7064895629883
 30
0.0
 11
-339.967515318223
 21
78.22743399294
 31
0.0
  0
ENDBLK
  5
   44E
  8
0
  6
CONTINUOUS
 62
     7
  0
BLOCK
  5
   44F
  8
0
  6
CONTINUOUS
 62
     7
  2
*UDIM1576
 70
    65
 10
0.0
 20
0.0
 30
0.0
  3
*UDIM1576
  0
TEXT
  5
   450
  8
0
  6
CONTINUOUS
 62
     7
 10
-377.420467387296
 20
37.5556518066933
 30
0.0
 40
3.00000002980232
  1
112
 50
449.999999844103
 41
0.933333333333333
 72
     1
 11
-378.92046739161
 21
41.4556518495083
 31
0.0
 73
     2
  0
LINE
  5
   451
  8
0
  6
CONTINUOUS
 62
     7
 10
-366.013092041016
 20
55.7306518554688
 30
0.0
 11
-378.420467376709
 21
55.7306518554688
 31
0.0
  0
LINE
  5
   452
  8
0
  6
CONTINUOUS
 62
     7
 10
-366.013092041016
 20
27.7306518554688
 30
0.0
 11
-378.420467376709
 21
27.7306518554688
 31
0.0
  0
LINE
  5
   453
  8
0
  6
CONTINUOUS
 62
     7
 10
-376.420467376709
 20
55.7306518554688
 30
0.0
 11
-376.420467376709
 21
27.7306518554688
 31
0.0
  0
LINE
  5
   454
  8
0
  6
CONTINUOUS
 62
     7
 10
-375.899522946757
 20
52.7762285782618
 30
0.0
 11
-376.420467376709
 21
55.7306518554688
 31
0.0
  0
LINE
  5
   455
  8
0
  6
CONTINUOUS
 62
     7
 10
-376.420467376709
 20
55.7306518554688
 30
0.0
 11
-376.941411806661
 21
52.7762285782618
 31
0.0
  0
LINE
  5
   456
  8
0
  6
CONTINUOUS
 62
     7
 10
-376.941411806661
 20
30.6850751326757
 30
0.0
 11
-376.420467376709
 21
27.7306518554688
 31
0.0
  0
LINE
  5
   457
  8
0
  6
CONTINUOUS
 62
     7
 10
-376.420467376709
 20
27.7306518554688
 30
0.0
 11
-375.899522946757
 21
30.6850751326757
 31
0.0
  0
ENDBLK
  5
   458
  8
0
  6
CONTINUOUS
 62
     7
  0
BLOCK
  5
   459
  8
0
  6
CONTINUOUS
 62
     7
  2
*UDIM1577
 70
    65
 10
0.0
 20
0.0
 30
0.0
  3
*UDIM1577
  0
TEXT
  5
   45A
  8
0
  6
CONTINUOUS
 62
     7
 10
-387.148723612882
 20
37.5556518066933
 30
0.0
 40
3.00000002980232
  1
142
 50
449.999999844103
 41
0.933333333333333
 72
     1
 11
-388.648723617196
 21
41.4556518495083
 31
0.0
 73
     2
  0
LINE
  5
   45B
  8
0
  6
CONTINUOUS
 62
     7
 10
-363.638092041016
 20
59.4806518554688
 30
0.0
 11
-388.148723602295
 21
59.4806518554688
 31
0.0
  0
LINE
  5
   45C
  8
0
  6
CONTINUOUS
 62
     7
 10
-363.638092041016
 20
23.9806518554688
 30
0.0
 11
-388.148723602295
 21
23.9806518554688
 31
0.0
  0
LINE
  5
   45D
  8
0
  6
CONTINUOUS
 62
     7
 10
-386.148723602295
 20
59.4806518554688
 30
0.0
 11
-386.148723602295
 21
23.9806518554688
 31
0.0
  0
LINE
  5
   45E
  8
0
  6
CONTINUOUS
 62
     7
 10
-385.627779172343
 20
56.5262285782618
 30
0.0
 11
-386.148723602295
 21
59.4806518554688
 31
0.0
  0
LINE
  5
   45F
  8
0
  6
CONTINUOUS
 62
     7
 10
-386.148723602295
 20
59.4806518554688
 30
0.0
 11
-386.669668032247
 21
56.5262285782618
 31
0.0
  0
LINE
  5
   460
  8
0
  6
CONTINUOUS
 62
     7
 10
-386.669668032247
 20
26.9350751326757
 30
0.0
 11
-386.148723602295
 21
23.9806518554688
 31
0.0
  0
LINE
  5
   461
  8
0
  6
CONTINUOUS
 62
     7
 10
-386.148723602295
 20
23.9806518554688
 30
0.0
 11
-385.627779172343
 21
26.9350751326757
 31
0.0
  0
ENDBLK
  5
   462
  8
0
  6
CONTINUOUS
 62
     7
  0
BLOCK
  5
   463
  8
0
  6
CONTINUOUS
 62
     7
  2
*UDIM1578
 70
    65
 10
0.0
 20
0.0
 30
0.0
  3
*UDIM1578
  0
TEXT
  5
   464
  8
0
  6
CONTINUOUS
 62
     7
 10
-572.444421002846
 20
-83.0137308118564
 30
0.0
 40
2.99999994933605
  1
43,75
 50
359.999999896069
 41
0.933333333333333
 72
     1
 11
-565.744421113282
 21
-81.5137308493082
 31
0.0
 73
     2
  0
LINE
  5
   465
  8
0
  6
CONTINUOUS
 62
    56
 10
-575.344421256334
 20
-88.4649058319628
 30
0.0
 11
-575.344421256334
 21
-82.0137308239762
 31
0.0
  0
LINE
  5
   466
  8
0
  6
CONTINUOUS
 62
    56
 10
-584.094421386719
 20
-93.787911003362
 30
0.0
 11
-584.094421386719
 21
-82.0137308239762
 31
0.0
  0
LINE
  5
   467
  8
0
  6
CONTINUOUS
 62
    56
 10
-559.044421226432
 20
-84.0137308239762
 30
0.0
 11
-584.094421386719
 21
-84.0137308239762
 31
0.0
  0
LINE
  5
   468
  8
0
  6
CONTINUOUS
 62
    56
 10
-578.298844533541
 20
-84.5346752539279
 30
0.0
 11
-575.344421256334
 21
-84.0137308239762
 31
0.0
  0
LINE
  5
   469
  8
0
  6
CONTINUOUS
 62
    56
 10
-575.344421256334
 20
-84.0137308239762
 30
0.0
 11
-578.298844533541
 21
-83.4927863940245
 31
0.0
  0
LINE
  5
   46A
  8
0
  6
CONTINUOUS
 62
    56
 10
-581.139998109512
 20
-83.4927863940245
 30
0.0
 11
-584.094421386719
 21
-84.0137308239762
 31
0.0
  0
LINE
  5
   46B
  8
0
  6
CONTINUOUS
 62
    56
 10
-584.094421386719
 20
-84.0137308239762
 30
0.0
 11
-581.139998109512
 21
-84.5346752539279
 31
0.0
  0
ENDBLK
  5
   46C
  8
0
  6
CONTINUOUS
 62
     7
  0
BLOCK
  5
   46D
  8
0
  6
CONTINUOUS
 62
     7
  2
*UDIM1579
 70
    65
 10
0.0
 20
0.0
 30
0.0
  3
*UDIM1579
  0
TEXT
  5
   46E
  8
0
  6
CONTINUOUS
 62
     7
 10
-609.694421557915
 20
-83.0137308118564
 30
0.0
 40
2.99999994933605
  1
43,75
 50
359.999999896069
 41
0.933333333333333
 72
     1
 11
-602.994421668351
 21
-81.5137308493082
 31
0.0
 73
     2
  0
LINE
  5
   46F
  8
0
  6
CONTINUOUS
 62
    56
 10
-592.844421517104
 20
-88.4649058319628
 30
0.0
 11
-592.844421517104
 21
-82.0137308239762
 31
0.0
  0
LINE
  5
   470
  8
0
  6
CONTINUOUS
 62
    56
 10
-584.094421386719
 20
-84.0137308239762
 30
0.0
 11
-609.694421555201
 21
-84.0137308239762
 31
0.0
  0
LINE
  5
   471
  8
0
  6
CONTINUOUS
 62
    56
 10
-587.048844663926
 20
-84.5346752539279
 30
0.0
 11
-584.094421386719
 21
-84.0137308239762
 31
0.0
  0
LINE
  5
   472
  8
0
  6
CONTINUOUS
 62
    56
 10
-584.094421386719
 20
-84.0137308239762
 30
0.0
 11
-587.048844663926
 21
-83.4927863940245
 31
0.0
  0
LINE
  5
   473
  8
0
  6
CONTINUOUS
 62
    56
 10
-589.889998239897
 20
-83.4927863940245
 30
0.0
 11
-592.844421517104
 21
-84.0137308239762
 31
0.0
  0
LINE
  5
   474
  8
0
  6
CONTINUOUS
 62
    56
 10
-592.844421517104
 20
-84.0137308239762
 30
0.0
 11
-589.889998239897
 21
-84.5346752539279
 31
0.0
  0
ENDBLK
  5
   475
  8
0
  6
CONTINUOUS
 62
     7
  0
BLOCK
  5
   476
  8
0
  6
CONTINUOUS
 62
    56
  2
*UDIM1580
 70
    65
 10
0.0
 20
0.0
 30
0.0
  3
*UDIM1580
  0
TEXT
  5
   477
  8
0
  6
CONTINUOUS
 62
    56
 10
-563.401714775037
 20
-95.7275884224742
 30
0.0
 40
2.99999994933605
  1
20
 50
348.953156738835
 41
0.933333333333333
 72
     1
 11
-560.660620462296
 21
-94.7344108544813
 31
0.0
 73
     2
  0
TEXT
  5
   478
  8
0
  6
CONTINUOUS
 62
    56
 10
-566.100759605299
 20
-95.2006568657666
 30
0.0
 40
2.99999994933605
  1
R
 50
348.953156738835
 41
0.933333333333333
 72
     1
 11
-564.733724467544
 21
-93.9392232308583
 31
0.0
 73
     2
  0
LINE
  5
   479
  8
0
  6
CONTINUOUS
 62
    56
 10
-558.685972052958
 20
-97.667116656593
 30
0.0
 11
-586.140600616002
 21
-92.3071796610313
 31
0.0
  0
LINE
  5
   47A
  8
0
  6
CONTINUOUS
 62
    56
 10
-574.418037048583
 20
-95.1265421938778
 30
0.0
 11
-571.418537773045
 21
-95.1813518284584
 31
0.0
  0
LINE
  5
   47B
  8
0
  6
CONTINUOUS
 62
    56
 10
-571.418537773045
 20
-95.1813518284584
 30
0.0
 11
-574.218399184404
 21
-94.1039586424861
 31
0.0
  0
ENDBLK
  5
   47C
  8
0
  6
CONTINUOUS
 62
    56
  0
BLOCK
  5
   47D
  8
0
  6
CONTINUOUS
 62
    56
  2
*UDIM1581
 70
    65
 10
0.0
 20
0.0
 30
0.0
  3
*UDIM1581
  0
TEXT
  5
   47E
  8
0
  6
CONTINUOUS
 62
    56
 10
-610.05035285695
 20
-125.789906299665
 30
0.0
 40
2.99999994933605
  1
272
 50
449.999999896069
 41
0.933333333333333
 72
     1
 11
-611.550352824568
 21
-121.889906362817
 31
0.0
 73
     2
  0
LINE
  5
   47F
  8
0
  6
CONTINUOUS
 62
    56
 10
-598.444421585649
 20
-94.4149059057236
 30
0.0
 11
-611.0503528499
 21
-94.4149059057236
 31
0.0
  0
LINE
  5
   480
  8
0
  6
CONTINUOUS
 62
    56
 10
-598.444421585649
 20
-148.814906716347
 30
0.0
 11
-611.0503528499
 21
-148.814906716347
 31
0.0
  0
LINE
  5
   481
  8
0
  6
CONTINUOUS
 62
    56
 10
-609.0503528499
 20
-94.4149059057236
 30
0.0
 11
-609.0503528499
 21
-148.814906716347
 31
0.0
  0
LINE
  5
   482
  8
0
  6
CONTINUOUS
 62
    56
 10
-608.529408419948
 20
-97.3693291829305
 30
0.0
 11
-609.0503528499
 21
-94.4149059057236
 31
0.0
  0
LINE
  5
   483
  8
0
  6
CONTINUOUS
 62
    56
 10
-609.0503528499
 20
-94.4149059057236
 30
0.0
 11
-609.571297279851
 21
-97.3693291829305
 31
0.0
  0
LINE
  5
   484
  8
0
  6
CONTINUOUS
 62
    56
 10
-609.571297279851
 20
-145.86048343914
 30
0.0
 11
-609.0503528499
 21
-148.814906716347
 31
0.0
  0
LINE
  5
   485
  8
0
  6
CONTINUOUS
 62
    56
 10
-609.0503528499
 20
-148.814906716347
 30
0.0
 11
-608.529408419948
 21
-145.86048343914
 31
0.0
  0
ENDBLK
  5
   486
  8
0
  6
CONTINUOUS
 62
    56
  0
BLOCK
  5
   487
  8
0
  6
CONTINUOUS
 62
    56
  2
*UDIM1582
 70
    65
 10
0.0
 20
0.0
 30
0.0
  3
*UDIM1582
  0
TEXT
  5
   488
  8
0
  6
CONTINUOUS
 62
    56
 10
-603.961905203016
 20
-116.214906094998
 30
0.0
 40
2.99999994933605
  1
134,25
 50
449.999999896069
 41
0.933333333333333
 72
     1
 11
-605.461905163042
 21
-108.114906229079
 31
0.0
 73
     2
  0
LINE
  5
   489
  8
0
  6
CONTINUOUS
 62
    56
 10
-598.444421585649
 20
-94.4149059057236
 30
0.0
 11
-604.961905188374
 21
-94.4149059057236
 31
0.0
  0
LINE
  5
   48A
  8
0
  6
CONTINUOUS
 62
    56
 10
-602.770661979981
 20
-121.26490630582
 30
0.0
 11
-604.961905188374
 21
-121.26490630582
 31
0.0
  0
LINE
  5
   48B
  8
0
  6
CONTINUOUS
 62
    56
 10
-602.961905188374
 20
-94.4149059057236
 30
0.0
 11
-602.961905188374
 21
-121.26490630582
 31
0.0
  0
LINE
  5
   48C
  8
0
  6
CONTINUOUS
 62
    56
 10
-602.440960758422
 20
-97.3693291829305
 30
0.0
 11
-602.961905188374
 21
-94.4149059057236
 31
0.0
  0
LINE
  5
   48D
  8
0
  6
CONTINUOUS
 62
    56
 10
-602.961905188374
 20
-94.4149059057236
 30
0.0
 11
-603.482849618326
 21
-97.3693291829305
 31
0.0
  0
LINE
  5
   48E
  8
0
  6
CONTINUOUS
 62
    56
 10
-603.482849618326
 20
-118.310483028613
 30
0.0
 11
-602.961905188374
 21
-121.26490630582
 31
0.0
  0
LINE
  5
   48F
  8
0
  6
CONTINUOUS
 62
    56
 10
-602.961905188374
 20
-121.26490630582
 30
0.0
 11
-602.440960758422
 21
-118.310483028613
 31
0.0
  0
ENDBLK
  5
   490
  8
0
  6
CONTINUOUS
 62
    56
  0
ENDSEC
  0
SECTION
  2
ENTITIES
  0
LINE
  5
   491
  8
0
  6
DASHDOT
 62
     7
 10
-636.343820085757
 20
-97.5685207992792
 30
0.0
 11
-665.828008457325
 21
-97.5685207992792
 31
0.0
  0
LINE
  5
   492
  8
0
  6
DASHDOT
 62
     7
 10
-633.780357824884
 20
-140.368521437049
 30
0.0
 11
-668.327384161677
 21
-140.368521437049
 31
0.0
  0
LINE
  5
   493
  8
0
  6
DASHDOT
 62
     7
 10
-652.873779296875
 20
-92.141525810491
 30
0.0
 11
-652.873779296875
 21
-145.333367723623
 31
0.0
  0
LINE
  5
   494
  8
0
  6
CONTINUOUS
 62
     7
 10
-665.623779486865
 20
-92.5901317061439
 30
0.0
 11
-665.623779486865
 21
-144.948848384492
 31
0.0
  0
LINE
  5
   495
  8
0
  6
CONTINUOUS
 62
     7
 10
-640.123779106885
 20
-92.5901317061439
 30
0.0
 11
-640.123779106885
 21
-146.230579514929
 31
0.0
  0
LINE
  5
   496
  8
0
  6
CONTINUOUS
 62
     7
 10
-636.343820085757
 20
-93.5685207396746
 30
0.0
 11
-668.327384161677
 21
-93.5685207396746
 31
0.0
  0
LINE
  5
   497
  8
0
  6
CONTINUOUS
 62
     7
 10
-633.780357824884
 20
-144.368521496654
 30
0.0
 11
-670.570413639942
 21
-144.368521496654
 31
0.0
  0
CIRCLE
  5
   498
  8
0
  6
CONTINUOUS
 62
     7
 10
-657.248779362068
 20
-97.5685207992792
 30
0.0
 40
0.550000008195639
  0
CIRCLE
  5
   499
  8
0
  6
CONTINUOUS
 62
     7
 10
-648.498779231683
 20
-97.5685207992792
 30
0.0
 40
0.550000008195639
  0
LINE
  5
   49A
  8
0
  6
DASHDOT
 62
     7
 10
-657.248779362068
 20
-92.141525810491
 30
0.0
 11
-657.248779362068
 21
-145.333367723623
 31
0.0
  0
LINE
  5
   49B
  8
0
  6
DASHDOT
 62
     7
 10
-648.498779231683
 20
-92.141525810491
 30
0.0
 11
-648.498779231683
 21
-143.242214618827
 31
0.0
  0
CIRCLE
  5
   49C
  8
0
  6
CONTINUOUS
 62
     7
 10
-657.248779362068
 20
-140.368521437049
 30
0.0
 40
0.550000008195639
  0
CIRCLE
  5
   49D
  8
0
  6
CONTINUOUS
 62
     7
 10
-648.498779231683
 20
-140.368521437049
 30
0.0
 40
0.550000008195639
  0
LINE
  5
   49E
  8
0
  6
DASHDOT
 62
     7
 10
-630.640417655928
 20
-118.618521112949
 30
0.0
 11
-670.550019890137
 21
-118.618521112949
 31
0.0
  0
CIRCLE
  5
   49F
  8
0
  6
CONTINUOUS
 62
    56
 10
-662.865861407893
 20
-95.3208463210589
 30
0.0
 40
6.00000008940697E-2
  0
TEXT
  5
   4A0
  8
0
  6
CONTINUOUS
 62
     7
 10
-653.69512025421
 20
-91.8101710067409
 30
0.0
 40
2.99999994933605
  1
Y
 50
359.999999896069
 41
0.916666607525612
 72
     2
 11
-651.495120436004
 21
-91.8101710107205
 31
0.0
  0
INSERT
  5
   4A1
  8
0
  6
CONTINUOUS
 62
     7
  2
*UDIM1545
 10
0.0
 20
0.0
 30
0.0
  0
INSERT
  5
   4A2
  8
0
  6
CONTINUOUS
 62
     7
  2
*UDIM1546
 10
0.0
 20
0.0
 30
0.0
  0
INSERT
  5
   4A3
  8
0
  6
CONTINUOUS
 62
     7
  2
*UDIM1547
 10
0.0
 20
0.0
 30
0.0
  0
INSERT
  5
   4A4
  8
0
  6
CONTINUOUS
 62
     7
  2
*UDIM1548
 10
0.0
 20
0.0
 30
0.0
  0
TEXT
  5
   4A5
  8
0
  6
CONTINUOUS
 62
     7
 10
-685.846783941315
 20
-120.421626015299
 30
0.0
 40
2.99999994933605
  1
X
 50
359.999999896069
 41
0.916666607525612
 72
     2
 11
-683.646784123109
 21
-120.421626019279
 31
0.0
  0
TEXT
  5
   4A6
  8
0
  6
CONTINUOUS
 62
     7
 10
-628.529635260075
 20
-120.729156041549
 30
0.0
 40
2.99999994933605
  1
X
 50
359.999999896069
 41
0.916666607525612
 72
     2
 11
-626.329635441869
 21
-120.729156045529
 31
0.0
  0
TEXT
  5
   4A7
  8
0
  6
CONTINUOUS
 62
     7
 10
-653.69512025421
 20
-149.777542475991
 30
0.0
 40
2.99999994933605
  1
Y
 50
359.999999896069
 41
0.916666607525612
 72
     2
 11
-651.495120436004
 21
-149.77754247997
 31
0.0
  0
LINE
  5
   4A8
  8
0
  6
CONTINUOUS
 62
     7
 10
-506.331802368164
 20
31.2821502685547
 30
0.0
 11
-506.331802368164
 21
31.5321350097656
 31
0.0
  0
LINE
  5
   4A9
  8
0
  6
CONTINUOUS
 62
     7
 10
-506.331802368164
 20
39.0321350097656
 30
0.0
 11
-506.331802368164
 21
49.0321197509766
 31
0.0
  0
LINE
  5
   4AA
  8
0
  6
CONTINUOUS
 62
     7
 10
-505.081787109375
 20
31.5321350097656
 30
0.0
 11
-505.081787109375
 21
39.0321350097656
 31
0.0
  0
LINE
  5
   4AB
  8
0
  6
CONTINUOUS
 62
     7
 10
-505.081787109375
 20
31.5321350097656
 30
0.0
 11
-506.331802368164
 21
31.5321350097656
 31
0.0
  0
LINE
  5
   4AC
  8
0
  6
CONTINUOUS
 62
     7
 10
-505.081787109375
 20
39.0321350097656
 30
0.0
 11
-506.331802368164
 21
39.0321350097656
 31
0.0
  0
LINE
  5
   4AD
  8
0
  6
CONTINUOUS
 62
     7
 10
-505.081787109375
 20
49.0321197509766
 30
0.0
 11
-505.081787109375
 21
56.5321197509766
 31
0.0
  0
LINE
  5
   4AE
  8
0
  6
CONTINUOUS
 62
     7
 10
-505.081787109375
 20
49.0321197509766
 30
0.0
 11
-506.331802368164
 21
49.0321197509766
 31
0.0
  0
LINE
  5
   4AF
  8
0
  6
CONTINUOUS
 62
     7
 10
-505.081787109375
 20
56.5321197509766
 30
0.0
 11
-506.331802368164
 21
56.5321197509766
 31
0.0
  0
LINE
  5
   4B0
  8
0
  6
CONTINUOUS
 62
     7
 10
-472.081809997559
 20
31.2821350097656
 30
0.0
 11
-472.081809997559
 21
58.7821197509766
 31
0.0
  0
LINE
  5
   4B1
  8
0
  6
CONTINUOUS
 62
     2
 10
-496.331798777928
 20
80.0321426391602
 30
0.0
 11
-506.331787109375
 21
80.0321426391602
 31
0.0
  0
LINE
  5
   4B2
  8
0
  6
CONTINUOUS
 62
     2
 10
-506.33179895744
 20
58.5321197509765
 30
0.0
 11
-506.331791556173
 21
68.8394317626953
 31
0.0
  0
LINE
  5
   4B3
  8
0
  6
CONTINUOUS
 62
     7
 10
-470.331802368164
 20
67.5321197509766
 30
0.0
 11
-472.081802368164
 21
67.5321197509766
 31
0.0
  0
LINE
  5
   4B4
  8
0
  6
CONTINUOUS
 62
     7
 10
-472.08181435724
 20
58.7821153913698
 30
0.0
 11
-472.081806727846
 21
67.5321153913698
 31
0.0
  0
LINE
  5
   4B5
  8
0
  6
CONTINUOUS
 62
     7
 10
-504.331802368164
 20
59.7821197509766
 30
0.0
 11
-506.331802368164
 21
59.7821197509766
 31
0.0
  0
LINE
  5
   4B6
  8
0
  6
CONTINUOUS
 62
     7
 10
-504.331801096782
 20
59.782113393447
 30
0.0
 11
-504.331798542414
 21
60.7865316897753
 31
0.0
  0
LINE
  5
   4B7
  8
0
  6
CONTINUOUS
 62
     7
 10
-472.081809997559
 20
26.5321426391602
 30
0.0
 11
-472.081809997559
 21
31.2821502685547
 31
0.0
  0
LINE
  5
   4B8
  8
0
  6
CONTINUOUS
 62
     7
 10
-506.331797268503
 20
-3.96784464177426
 30
0.0
 11
-506.331782009714
 21
-3.82072708663281
 31
0.0
  0
LINE
  5
   4B9
  8
0
  6
CONTINUOUS
 62
     7
 10
-506.331782989564
 20
3.88503601831848
 30
0.0
 11
-506.331798248352
 21
31.28214600367
 31
0.0
  0
LINE
  5
   4BA
  8
0
  6
CONTINUOUS
 62
     7
 10
-470.831802368164
 20
2.78215026855469
 30
0.0
 11
-504.831819152833
 21
2.78215026855469
 31
0.0
  0
LINE
  5
   4BB
  8
0
  6
CONTINUOUS
 62
     7
 10
-470.831802368164
 20
-2.71784973144531
 30
0.0
 11
-504.831819152833
 21
-2.71784973144531
 31
0.0
  0
LINE
  5
   4BC
  8
0
  6
CONTINUOUS
 62
     7
 10
-502.215772870039
 20
2.78215535316605
 30
0.0
 11
-506.331785267044
 21
3.88504106623447
 31
0.0
  0
LINE
  5
   4BD
  8
0
  6
CONTINUOUS
 62
     7
 10
-506.331782960053
 20
-3.82073136148168
 30
0.0
 11
-502.215770468275
 21
-2.71784919708549
 31
0.0
  0
LINE
  5
   4BE
  8
0
  6
CONTINUOUS
 62
     7
 10
-470.331809997559
 20
4.28215026855469
 30
0.0
 11
-474.331809997559
 21
4.28215026855469
 31
0.0
  0
LINE
  5
   4BF
  8
0
  6
CONTINUOUS
 62
     7
 10
-474.331809997559
 20
4.28215026855469
 30
0.0
 11
-474.331809997559
 21
25.5321426391602
 31
0.0
  0
LINE
  5
   4C0
  8
0
  6
CONTINUOUS
 62
     7
 10
-505.831787109375
 20
0.282150268554688
 30
0.0
 11
-505.831787109375
 21
3.75106048583984
 31
0.0
  0
LINE
  5
   4C1
  8
0
  6
CONTINUOUS
 62
     7
 10
-505.831794151876
 20
-3.68675497805098
 30
0.0
 11
-505.831786522487
 21
-3.21784476076582
 31
0.0
  0
LINE
  5
   4C2
  8
0
  6
CONTINUOUS
 62
     2
 10
-506.331787109375
 20
4.28215026855469
 30
0.0
 11
-507.331787109375
 21
4.28215026855469
 31
0.0
  0
LINE
  5
   4C3
  8
0
  6
CONTINUOUS
 62
     2
 10
-506.331787109375
 20
7.03215026855469
 30
0.0
 11
-507.331787109375
 21
7.03215026855469
 31
0.0
  0
LINE
  5
   4C4
  8
0
  6
CONTINUOUS
 62
     7
 10
-470.331820802557
 20
-3.21783021834861
 30
0.0
 11
-470.831813156865
 21
-2.71783786404106
 31
0.0
  0
LINE
  5
   4C5
  8
0
  6
CONTINUOUS
 62
     7
 10
-470.831808686426
 20
2.78215096953303
 30
0.0
 11
-470.331808703541
 21
3.28215095241872
 31
0.0
  0
LINE
  5
   4C6
  8
0
  6
CONTINUOUS
 62
     7
 10
-472.081809997559
 20
25.5321426391602
 30
0.0
 11
-472.081809997559
 21
26.5321426391602
 31
0.0
  0
LINE
  5
   4C7
  8
0
  6
CONTINUOUS
 62
     2
 10
-505.331787109375
 20
-12.9678344726557
 30
0.0
 11
-507.331787109375
 21
-12.9678344726557
 31
0.0
  0
LINE
  5
   4C8
  8
0
  6
CONTINUOUS
 62
     7
 10
-506.331802368164
 20
-5.96784973144531
 30
0.0
 11
-506.331802368164
 21
-3.96784973144531
 31
0.0
  0
LINE
  5
   4C9
  8
0
  6
CONTINUOUS
 62
     7
 10
-470.331809997559
 20
-10.4678344726563
 30
0.0
 11
-475.331802368164
 21
-10.4678344726563
 31
0.0
  0
LINE
  5
   4CA
  8
0
  6
CONTINUOUS
 62
     7
 10
-475.331802368164
 20
-12.9678344726563
 30
0.0
 11
-475.331802368164
 21
-10.4678344726563
 31
0.0
  0
LINE
  5
   4CB
  8
0
  6
CONTINUOUS
 62
     7
 10
-506.331802368164
 20
-11.7178250122249
 30
0.0
 11
-506.331802368164
 21
-5.96784973144531
 31
0.0
  0
LINE
  5
   4CC
  8
0
  6
CONTINUOUS
 62
     2
 10
-506.331802368164
 20
58.5321197509766
 30
0.0
 11
-506.581787109375
 21
58.5321197509766
 31
0.0
  0
LINE
  5
   4CD
  8
0
  6
CONTINUOUS
 62
     7
 10
-506.33179473877
 20
23.2821502685547
 30
0.0
 11
-506.581787109375
 21
23.2821502685547
 31
0.0
  0
LINE
  5
   4CE
  8
0
  6
CONTINUOUS
 62
     7
 10
-506.331787109375
 20
7.28215217590332
 30
0.0
 11
-506.581787109375
 21
7.28215217590332
 31
0.0
  0
LINE
  5
   4CF
  8
0
  6
CONTINUOUS
 62
     7
 10
-505.831787109375
 20
3.53215074539185
 30
0.0
 11
-506.581787109375
 21
3.53215074539185
 31
0.0
  0
LINE
  5
   4D0
  8
0
  6
CONTINUOUS
 62
     7
 10
-506.331802368164
 20
-4.46784210205078
 30
0.0
 11
-506.581787109375
 21
-4.46784210205078
 31
0.0
  0
LINE
  5
   4D1
  8
0
  6
CONTINUOUS
 62
     2
 10
-506.581787109375
 20
-11.2678296972
 30
0.0
 11
-506.581787109375
 21
4.28214263916016
 31
0.0
  0
LINE
  5
   4D2
  8
0
  6
CONTINUOUS
 62
     2
 10
-506.581787109375
 20
7.03214263916016
 30
0.0
 11
-506.581787109375
 21
58.532112121582
 31
0.0
  0
LINE
  5
   4D3
  8
0
  6
CONTINUOUS
 62
     7
 10
-505.831787109375
 20
49.0321426391602
 30
0.0
 11
-505.831787109375
 21
56.5321197509766
 31
0.0
  0
LINE
  5
   4D4
  8
0
  6
CONTINUOUS
 62
     7
 10
-505.831787109375
 20
31.5321655273438
 30
0.0
 11
-505.831787109375
 21
39.0321578979492
 31
0.0
  0
LINE
  5
   4D5
  8
0
  6
CONTINUOUS
 62
     7
 10
-505.831787109375
 20
-3.21781158447266
 30
0.0
 11
-505.831787109375
 21
0.282188415527344
 31
0.0
  0
LINE
  5
   4D6
  8
0
  6
CONTINUOUS
 62
     2
 10
-506.381791013891
 20
-11.467825792684
 30
0.0
 11
-506.581787959828
 21
-11.267828846747
 31
0.0
  0
LINE
  5
   4D7
  8
0
  6
CONTINUOUS
 62
     2
 10
-506.331787109375
 20
66.5321197509766
 30
0.0
 11
-507.331787109375
 21
66.5321197509766
 31
0.0
  0
LINE
  5
   4D8
  8
0
  6
CONTINUOUS
 62
     2
 10
-506.331787109375
 20
72.0321197509766
 30
0.0
 11
-507.331787109375
 21
72.0321197509766
 31
0.0
  0
LINE
  5
   4D9
  8
0
  6
CONTINUOUS
 62
     2
 10
-506.331787109375
 20
70.6879425048828
 30
0.0
 11
-507.331787109375
 21
70.6879425048828
 31
0.0
  0
LINE
  5
   4DA
  8
0
  6
CONTINUOUS
 62
     2
 10
-506.331787109375
 20
68.8394317626953
 30
0.0
 11
-507.331787109375
 21
68.8394317626953
 31
0.0
  0
LINE
  5
   4DB
  8
0
  6
CONTINUOUS
 62
     7
 10
-471.831817626954
 20
32.7821176623344
 30
0.0
 11
-471.831817626954
 21
60.032140550518
 31
0.0
  0
LINE
  5
   4DC
  8
0
  6
CONTINUOUS
 62
     7
 10
-457.831840515142
 20
68.0321342977013
 30
0.0
 11
-457.831840515142
 21
80.0321342977013
 31
0.0
  0
LINE
  5
   4DD
  8
0
  6
CONTINUOUS
 62
     7
 10
-457.831802368164
 20
68.0321368408027
 30
0.0
 11
-458.081802368164
 21
68.0321368408027
 31
0.0
  0
LINE
  5
   4DE
  8
0
  6
CONTINUOUS
 62
     7
 10
-458.081802368164
 20
67.7821368408027
 30
0.0
 11
-458.081802368164
 21
68.0321368408027
 31
0.0
  0
LINE
  5
   4DF
  8
0
  6
CONTINUOUS
 62
     7
 10
-470.331802368164
 20
67.2821292114081
 30
0.0
 11
-470.331802368164
 21
67.7821368408027
 31
0.0
  0
LINE
  5
   4E0
  8
0
  6
CONTINUOUS
 62
     7
 10
-470.331809184473
 20
78.6321271449813
 30
0.0
 11
-470.331801555078
 21
80.0321439290776
 31
0.0
  0
LINE
  5
   4E1
  8
0
  6
CONTINUOUS
 62
     7
 10
-457.831798553472
 20
80.0321520995836
 30
0.0
 11
-470.331798553472
 21
80.0321520995836
 31
0.0
  0
LINE
  5
   4E2
  8
0
  6
CONTINUOUS
 62
     7
 10
-459.081802368164
 20
67.7821368408027
 30
0.0
 11
-459.231803894043
 21
67.7821368408027
 31
0.0
  0
LINE
  5
   4E3
  8
0
  6
CONTINUOUS
 62
     7
 10
-470.331802368164
 20
67.2821444701972
 30
0.0
 11
-471.831802368164
 21
67.2821444701972
 31
0.0
  0
LINE
  5
   4E4
  8
0
  6
CONTINUOUS
 62
     7
 10
-471.831802368164
 20
60.0321444701972
 30
0.0
 11
-471.831802368164
 21
67.2821444701972
 31
0.0
  0
LINE
  5
   4E5
  8
0
  6
CONTINUOUS
 62
     7
 10
-470.331825256348
 20
-9.96784790040828
 30
0.0
 11
-470.331825256348
 21
-6.32954223634578
 31
0.0
  0
LINE
  5
   4E6
  8
0
  6
CONTINUOUS
 62
     7
 10
-471.831809997559
 20
26.7821368408027
 30
0.0
 11
-471.831809997559
 21
32.7821215820136
 31
0.0
  0
LINE
  5
   4E7
  8
0
  6
CONTINUOUS
 62
     7
 10
-471.831809997559
 20
25.5321215820136
 30
0.0
 11
-472.331809997559
 21
25.5321215820136
 31
0.0
  0
LINE
  5
   4E8
  8
0
  6
CONTINUOUS
 62
     7
 10
-459.231819530851
 20
-11.4678326416086
 30
0.0
 11
-470.331825634366
 21
-11.4678326416086
 31
0.0
  0
LINE
  5
   4E9
  8
0
  6
CONTINUOUS
 62
     7
 10
-470.331825256348
 20
-11.4678479004083
 30
0.0
 11
-470.331825256348
 21
-9.96784790040828
 31
0.0
  0
LINE
  5
   4EA
  8
0
  6
CONTINUOUS
 62
     7
 10
-470.331817626953
 20
-6.32954223634578
 30
0.0
 11
-470.331817626953
 21
-2.84284329526653
 31
0.0
  0
LINE
  5
   4EB
  8
0
  6
CONTINUOUS
 62
     7
 10
-459.081825256348
 20
-12.9678555298028
 30
0.0
 11
-459.081825256348
 21
-11.4678555298028
 31
0.0
  0
LINE
  5
   4EC
  8
0
  6
CONTINUOUS
 62
     7
 10
-459.081825256348
 20
-11.4678555298028
 30
0.0
 11
-459.23181912303
 21
-11.4678555298028
 31
0.0
  0
LINE
  5
   4ED
  8
0
  6
CONTINUOUS
 62
     7
 10
-472.331809997559
 20
25.5321215820136
 30
0.0
 11
-474.331809997559
 21
25.5321215820136
 31
0.0
  0
LINE
  5
   4EE
  8
0
  6
CONTINUOUS
 62
     7
 10
-471.831809997559
 20
25.5321215820136
 30
0.0
 11
-471.831809997559
 21
26.7821368408027
 31
0.0
  0
LINE
  5
   4EF
  8
0
  6
CONTINUOUS
 62
     7
 10
-459.231821232009
 20
-2.84283264161062
 30
0.0
 11
-470.33181970613
 21
-2.84283264161062
 31
0.0
  0
LINE
  5
   4F0
  8
0
  6
CONTINUOUS
 62
     7
 10
-459.23182490924
 20
2.90716735838802
 30
0.0
 11
-470.331823383361
 21
2.90716735838802
 31
0.0
  0
LINE
  5
   4F1
  8
0
  6
CONTINUOUS
 62
     7
 10
-469.682304903292
 20
-9.59283934207869
 30
0.0
 11
-469.581825793058
 21
-9.21783934725585
 31
0.0
  0
LINE
  5
   4F2
  8
0
  6
CONTINUOUS
 62
     7
 10
-469.956820585407
 20
-9.8673638748083
 30
0.0
 11
-469.682307358907
 21
-9.59284301208917
 31
0.0
  0
LINE
  5
   4F3
  8
0
  6
CONTINUOUS
 62
     7
 10
-470.331833899046
 20
-9.9678361825683
 30
0.0
 11
-469.956826284773
 21
-9.86735706468692
 31
0.0
  0
LINE
  5
   4F4
  8
0
  6
CONTINUOUS
 62
     7
 10
-469.956822106889
 20
-4.06832593816129
 30
0.0
 11
-470.33182210414
 21
-3.96783919163403
 31
0.0
  0
LINE
  5
   4F5
  8
0
  6
CONTINUOUS
 62
     7
 10
-469.682309516548
 20
-4.34284336687028
 30
0.0
 11
-469.956822746868
 21
-4.06833013655029
 31
0.0
  0
LINE
  5
   4F6
  8
0
  6
CONTINUOUS
 62
     7
 10
-469.581830982979
 20
-4.71784267170417
 30
0.0
 11
-469.682317729507
 21
-4.34284267445382
 31
0.0
  0
LINE
  5
   4F7
  8
0
  6
CONTINUOUS
 62
     7
 10
-469.581829494883
 20
-9.21784493104301
 30
0.0
 11
-469.581821865489
 21
-4.71784493104301
 31
0.0
  0
LINE
  5
   4F8
  8
0
  6
CONTINUOUS
 62
     7
 10
-459.231819152833
 20
-11.4678555298028
 30
0.0
 11
-459.231819152833
 21
67.78213058441
 31
0.0
  0
LINE
  5
   4F9
  8
0
  6
CONTINUOUS
 62
     7
 10
-459.231796264648
 20
78.6321429443183
 30
0.0
 11
-482.117528675016
 21
78.6321429443183
 31
0.0
  0
LINE
  5
   4FA
  8
0
  6
CONTINUOUS
 62
     7
 10
-459.231849670417
 20
67.7821333953196
 30
0.0
 11
-459.231849670417
 21
78.6321394988352
 31
0.0
  0
LINE
  5
   4FB
  8
0
  6
CONTINUOUS
 62
     7
 10
-470.331802368164
 20
67.7821444701972
 30
0.0
 11
-470.331802368164
 21
78.6321429443183
 31
0.0
  0
LINE
  5
   4FC
  8
0
  6
CONTINUOUS
 62
     7
 10
-451.08179473877
 20
-8.84282501222468
 30
0.0
 11
-451.08179473877
 21
0.657150268554688
 31
0.0
  0
LINE
  5
   4FD
  8
0
  6
CONTINUOUS
 62
     7
 10
-451.08179473877
 20
42.5321597289862
 30
0.0
 11
-451.08179473877
 21
42.6571597289862
 31
0.0
  0
LINE
  5
   4FE
  8
0
  6
CONTINUOUS
 62
     7
 10
-453.83179473877
 20
43.6571597289862
 30
0.0
 11
-455.58179473877
 21
43.6571597289862
 31
0.0
  0
LINE
  5
   4FF
  8
0
  6
CONTINUOUS
 62
     7
 10
-453.83179473877
 20
-8.84282501222468
 30
0.0
 11
-455.58179473877
 21
-8.84282501222468
 31
0.0
  0
LINE
  5
   500
  8
0
  6
CONTINUOUS
 62
     7
 10
-459.08179473877
 20
-16.9678250122247
 30
0.0
 11
-459.08179473877
 21
-11.4678555298028
 31
0.0
  0
LINE
  5
   501
  8
0
  6
CONTINUOUS
 62
     7
 10
-456.58179473877
 20
-16.9678250122247
 30
0.0
 11
-456.58179473877
 21
-8.84282501222468
 31
0.0
  0
LINE
  5
   502
  8
0
  6
CONTINUOUS
 62
     7
 10
-456.58179473877
 20
43.6571597289862
 30
0.0
 11
-456.58179473877
 21
67.7821597289863
 31
0.0
  0
LINE
  5
   503
  8
0
  6
CONTINUOUS
 62
     7
 10
-456.58179473877
 20
67.7821597289863
 30
0.0
 11
-459.08179473877
 21
67.7821597289863
 31
0.0
  0
LINE
  5
   504
  8
0
  6
CONTINUOUS
 62
     7
 10
-456.58179473877
 20
-16.9678250122247
 30
0.0
 11
-459.08179473877
 21
-16.9678250122247
 31
0.0
  0
LINE
  5
   505
  8
0
  6
CONTINUOUS
 62
     7
 10
-455.58179473877
 20
-8.84282501222468
 30
0.0
 11
-455.58179473877
 21
43.6571597289862
 31
0.0
  0
LINE
  5
   506
  8
0
  6
CONTINUOUS
 62
     7
 10
-455.58179473877
 20
-8.84282501222468
 30
0.0
 11
-456.58179473877
 21
-8.84282501222468
 31
0.0
  0
LINE
  5
   507
  8
0
  6
CONTINUOUS
 62
     7
 10
-455.58179473877
 20
43.6571597289862
 30
0.0
 11
-456.58179473877
 21
43.6571597289862
 31
0.0
  0
LINE
  5
   508
  8
0
  6
CONTINUOUS
 62
     7
 10
-459.231830732947
 20
3.18213679240584
 30
0.0
 11
-459.081829214024
 21
3.19525934939323
 31
0.0
  0
LINE
  5
   509
  8
0
  6
CONTINUOUS
 62
     7
 10
-459.081803427988
 20
-3.13097592314956
 30
0.0
 11
-459.231804951106
 21
-3.11784573674319
 31
0.0
  0
LINE
  5
   50A
  8
0
  6
CONTINUOUS
 62
     7
 10
-470.331817626953
 20
2.90715670473482
 30
0.0
 11
-470.331817626953
 21
4.28213684080266
 31
0.0
  0
LINE
  5
   50B
  8
0
  6
CONTINUOUS
 62
   218
 10
-459.231796741486
 20
-45.5678253936946
 30
0.0
 11
-482.861130467341
 21
-45.5678253936946
 31
0.0
  0
LINE
  5
   50C
  8
0
  6
CONTINUOUS
 62
     2
 10
-505.331787109375
 20
-11.7178250122249
 30
0.0
 11
-507.331787109375
 21
-11.7178250122249
 31
0.0
  0
LINE
  5
   50D
  8
0
  6
CONTINUOUS
 62
     7
 10
-459.231788635254
 20
-11.7178250122249
 30
0.0
 11
-467.83179473877
 21
-11.7178250122249
 31
0.0
  0
LINE
  5
   50E
  8
0
  6
CONTINUOUS
 62
   218
 10
-457.831787109375
 20
-46.9678250122249
 30
0.0
 11
-457.831787109375
 21
-34.9678326416195
 31
0.0
  0
LINE
  5
   50F
  8
0
  6
CONTINUOUS
 62
     2
 10
-505.331787109375
 20
-12.9678250122249
 30
0.0
 11
-505.331787109375
 21
-11.7178250122249
 31
0.0
  0
LINE
  5
   510
  8
0
  6
CONTINUOUS
 62
   218
 10
-459.23179273627
 20
-32.9678326420672
 30
0.0
 11
-459.081794738807
 21
-32.9678308814654
 31
0.0
  0
LINE
  5
   511
  8
0
  6
CONTINUOUS
 62
   218
 10
-457.831787109375
 20
-34.9678326416195
 30
0.0
 11
-459.231788635254
 21
-34.9678326416195
 31
0.0
  0
LINE
  5
   512
  8
0
  6
CONTINUOUS
 62
   218
 10
-459.231788635254
 20
-45.567823486346
 30
0.0
 11
-459.231788635254
 21
-32.9678250122249
 31
0.0
  0
LINE
  5
   513
  8
0
  6
CONTINUOUS
 62
   218
 10
-459.231788635254
 20
-32.9678250122249
 30
0.0
 11
-459.231788635254
 21
-11.7178250122249
 31
0.0
  0
LINE
  5
   514
  8
0
  6
CONTINUOUS
 62
     7
 10
-459.08179473877
 20
-17.4678250122249
 30
0.0
 11
-459.231788635254
 21
-17.4678250122249
 31
0.0
  0
LINE
  5
   515
  8
0
  6
CONTINUOUS
 62
   218
 10
-507.331787109212
 20
-29.9678326411247
 30
0.0
 11
-506.331787586071
 21
-29.9678250117302
 31
0.0
  0
LINE
  5
   516
  8
0
  6
CONTINUOUS
 62
   218
 10
-506.331787586212
 20
-44.7178829410845
 30
0.0
 11
-506.331787586212
 21
-29.9678326416192
 31
0.0
  0
LINE
  5
   517
  8
0
  6
CONTINUOUS
 62
   218
 10
-506.331787109375
 20
-35.3428326416195
 30
0.0
 11
-507.331787109375
 21
-35.3428326416195
 31
0.0
  0
LINE
  5
   518
  8
0
  6
CONTINUOUS
 62
     7
 10
-470.331800459739
 20
-11.7178250099696
 30
0.0
 11
-470.331792830344
 21
-10.7178250099468
 31
0.0
  0
LINE
  5
   519
  8
0
  6
CONTINUOUS
 62
     7
 10
-470.331787109375
 20
-10.7178250122249
 30
0.0
 11
-475.331787109375
 21
-10.7178250122249
 31
0.0
  0
LINE
  5
   51A
  8
0
  6
CONTINUOUS
 62
     7
 10
-467.83179473877
 20
-11.7178250122249
 30
0.0
 11
-470.33179473877
 21
-11.7178250122249
 31
0.0
  0
LINE
  5
   51B
  8
0
  6
CONTINUOUS
 62
   218
 10
-506.331787109375
 20
-39.7016282844722
 30
0.0
 11
-507.331787109375
 21
-39.7016282844722
 31
0.0
  0
LINE
  5
   51C
  8
0
  6
CONTINUOUS
 62
   218
 10
-506.331787109375
 20
-38.4751339721859
 30
0.0
 11
-507.331787109375
 21
-38.4751339721859
 31
0.0
  0
LINE
  5
   51D
  8
0
  6
CONTINUOUS
 62
   218
 10
-506.331787109375
 20
-35.4067211914241
 30
0.0
 11
-507.331787109375
 21
-35.4067211914241
 31
0.0
  0
LINE
  5
   51E
  8
0
  6
CONTINUOUS
 62
     7
 10
-456.58179473877
 20
-17.2178250122247
 30
0.0
 11
-459.08179473877
 21
-17.2178250122247
 31
0.0
  0
LINE
  5
   51F
  8
0
  6
CONTINUOUS
 62
     7
 10
-456.58179473877
 20
-34.7178250122247
 30
0.0
 11
-459.08179473877
 21
-34.7178250122247
 31
0.0
  0
LINE
  5
   520
  8
0
  6
CONTINUOUS
 62
     7
 10
-456.58179473877
 20
-34.7178250122247
 30
0.0
 11
-456.58179473877
 21
-17.2178250122247
 31
0.0
  0
LINE
  5
   521
  8
0
  6
CONTINUOUS
 62
     7
 10
-457.58179473877
 20
-34.7178250122247
 30
0.0
 11
-457.58179473877
 21
-17.2178250122247
 31
0.0
  0
LINE
  5
   522
  8
0
  6
CONTINUOUS
 62
     7
 10
-459.08179473877
 20
-34.7178250122247
 30
0.0
 11
-459.08179473877
 21
-17.2178250122247
 31
0.0
  0
ARC
  5
   523
  8
0
  6
CONTINUOUS
 62
     7
 10
-440.744268353513
 20
6.38523425524384
 30
0.0
 40
0.499999897877905
 50
348.623573369035
 51
436.688788706936
  0
ARC
  5
   524
  8
0
  6
CONTINUOUS
 62
     7
 10
-441.342640553431
 20
3.41132527124499
 30
0.0
 40
0.50000037262337
 50
260.593992196011
 51
348.623573369035
  0
LINE
  5
   525
  8
0
  6
DASHDOT
 62
     7
 10
-433.343976027739
 20
3.33090361734659
 30
0.0
 11
-458.402319262193
 21
8.37282378524483
 31
0.0
  0
LINE
  5
   526
  8
0
  6
CONTINUOUS
 62
     7
 10
-440.629148381166
 20
6.87180072494253
 30
0.0
 11
-451.08179473877
 21
9.34486131291438
 31
0.0
  0
LINE
  5
   527
  8
0
  6
CONTINUOUS
 62
     7
 10
-440.852464108551
 20
3.31269821996122
 30
0.0
 11
-440.254092072926
 21
6.28660723701707
 31
0.0
  0
LINE
  5
   528
  8
0
  6
CONTINUOUS
 62
     7
 10
-441.424355292025
 20
2.91804754837359
 30
0.0
 11
-451.08179473877
 21
4.51786668327488
 31
0.0
  0
LINE
  5
   529
  8
0
  6
CONTINUOUS
 62
     7
 10
-504.831819152833
 20
-2.71784973144531
 30
0.0
 11
-504.831819152833
 21
2.78215026855469
 31
0.0
  0
LINE
  5
   52A
  8
0
  6
CONTINUOUS
 62
     7
 10
-494.831798777928
 20
76.0321426391601
 30
0.0
 11
-497.331798777928
 21
76.0321426391601
 31
0.0
  0
LINE
  5
   52B
  8
0
  6
DASHDOT
 62
     7
 10
-486.979828291452
 20
71.0321682194048
 30
0.0
 11
-501.04647030889
 21
71.0321682194048
 31
0.0
  0
LINE
  5
   52C
  8
0
  6
CONTINUOUS
 62
     7
 10
-489.751868744255
 20
60.7865316897753
 30
0.0
 11
-488.236620255428
 21
64.1298541618966
 31
0.0
  0
LINE
  5
   52D
  8
0
  6
CONTINUOUS
 62
     7
 10
-494.831799731602
 20
60.7865316897753
 30
0.0
 11
-494.831799731602
 21
76.0321426391601
 31
0.0
  0
LINE
  5
   52E
  8
0
  6
CONTINUOUS
 62
     7
 10
-497.331798777928
 20
60.7865316897753
 30
0.0
 11
-497.331798777928
 21
68.5321682194048
 31
0.0
  0
LINE
  5
   52F
  8
0
  6
CONTINUOUS
 62
     2
 10
-506.331790228831
 20
70.6879425048828
 30
0.0
 11
-506.331783519137
 21
80.0321421006205
 31
0.0
  0
LINE
  5
   530
  8
0
  6
CONTINUOUS
 62
     7
 10
-488.054663316243
 20
65.0321682194048
 30
0.0
 11
-494.831799731602
 21
65.0321682194048
 31
0.0
  0
INSERT
  5
   531
  8
0
  6
CONTINUOUS
 62
     7
  2
*HATCH1079
 10
-507.331787109375
 20
-37.5863952636719
 30
0.0
 41
0.5
 42
0.5
 50
89.9999999480344
 43
0.5
  0
LINE
  5
   532
  8
0
  6
CONTINUOUS
 62
     7
 10
-488.961096064781
 20
63.0321682194048
 30
0.0
 11
-494.831799731602
 21
63.0321682194048
 31
0.0
  0
INSERT
  5
   533
  8
0
  6
CONTINUOUS
 62
     7
  2
*HATCH1080
 10
-507.331787109375
 20
-37.5863952636719
 30
0.0
 41
0.5
 42
0.5
 50
89.9999999480344
 43
0.5
  0
LINE
  5
   534
  8
0
  6
CONTINUOUS
 62
     2
 10
-470.331817626953
 20
80.0321426391602
 30
0.0
 11
-484.581798777928
 21
80.0321426391602
 31
0.0
  0
LINE
  5
   535
  8
0
  6
DASHDOT
 62
     7
 10
-507.331787109375
 20
-44.7178829410845
 30
0.0
 11
-507.331787109375
 21
88.588247790617
 31
0.0
  0
LINE
  5
   536
  8
0
  6
DASHDOT
 62
     7
 10
-508.831787109375
 20
-44.7178829410845
 30
0.0
 11
-508.831787109375
 21
88.588247790617
 31
0.0
  0
LINE
  5
   537
  8
0
  6
CONTINUOUS
 62
     7
 10
-505.766926483808
 20
88.588247790617
 30
0.0
 11
-510.835822355836
 21
88.588247790617
 31
0.0
  0
ARC
  5
   538
  8
0
  6
CONTINUOUS
 62
     7
 10
-477.83179473877
 20
12.2821749877753
 30
0.0
 40
38.0220413050115
 50
333.082565820193
 51
379.93594827737
  0
LINE
  5
   539
  8
0
  6
CONTINUOUS
 62
     7
 10
-439.809753433758
 20
12.2821749877753
 30
0.0
 11
-439.809753433758
 21
33.9568145032076
 31
0.0
  0
LINE
  5
   53A
  8
0
  6
CONTINUOUS
 62
     7
 10
-489.751868744255
 20
60.7865316897753
 30
0.0
 11
-508.535871990489
 21
60.7865316897753
 31
0.0
  0
INSERT
  5
   53B
  8
0
  6
CONTINUOUS
 62
     7
  2
*HATCH1081
 10
-507.331787109375
 20
-37.5863952636719
 30
0.0
 41
0.5
 42
0.5
 50
89.9999999480344
 43
0.5
  0
LINE
  5
   53C
  8
0
  6
CONTINUOUS
 62
     7
 10
-497.331798777928
 20
62.2821426391601
 30
0.0
 11
-499.831798777928
 21
62.2821426391601
 31
0.0
  0
LINE
  5
   53D
  8
0
  6
CONTINUOUS
 62
     7
 10
-501.327409727313
 20
60.7865316897752
 30
0.0
 11
-499.831798777928
 21
62.2821426391601
 31
0.0
  0
INSERT
  5
   53E
  8
0
  6
CONTINUOUS
 62
     7
  2
*HATCH1082
 10
-507.331787109375
 20
-37.5863952636719
 30
0.0
 41
0.5
 42
0.5
 50
89.9999999480344
 43
0.5
  0
LINE
  5
   53F
  8
0
  6
DASHDOT
 62
     7
 10
-486.979828291452
 20
-37.9678829410845
 30
0.0
 11
-501.04647030889
 21
-37.9678829410845
 31
0.0
  0
LINE
  5
   540
  8
0
  6
CONTINUOUS
 62
     7
 10
-494.831798777928
 20
-42.9678573608398
 30
0.0
 11
-497.331798777928
 21
-42.9678573608398
 31
0.0
  0
LINE
  5
   541
  8
0
  6
CONTINUOUS
 62
     7
 10
-497.331798777928
 20
-42.9678573608398
 30
0.0
 11
-497.331798777928
 21
-27.722246411455
 31
0.0
  0
LINE
  5
   542
  8
0
  6
CONTINUOUS
 62
     7
 10
-494.831799731602
 20
-35.4678829410845
 30
0.0
 11
-494.831799731602
 21
-27.722246411455
 31
0.0
  0
LINE
  5
   543
  8
0
  6
CONTINUOUS
 62
     7
 10
-483.010340993948
 20
-27.722246411455
 30
0.0
 11
-511.886071526699
 21
-27.722246411455
 31
0.0
  0
LINE
  5
   544
  8
0
  6
CONTINUOUS
 62
   218
 10
-457.831787586212
 20
-46.9678250122247
 30
0.0
 11
-484.831799731602
 21
-46.9678250122247
 31
0.0
  0
INSERT
  5
   545
  8
0
  6
CONTINUOUS
 62
     7
  2
*HATCH1083
 10
-507.331787109375
 20
-37.5863952636719
 30
0.0
 41
0.5
 42
0.5
 50
89.9999999480344
 43
0.5
  0
INSERT
  5
   546
  8
0
  6
CONTINUOUS
 62
     7
  2
*HATCH1084
 10
-507.331787109375
 20
-37.5863952636719
 30
0.0
 41
0.5
 42
0.5
 50
89.9999999480344
 43
0.5
  0
LINE
  5
   547
  8
0
  6
CONTINUOUS
 62
     7
 10
-497.331798777928
 20
-30.4678829410845
 30
0.0
 11
-506.331787586212
 21
-30.4678829410845
 31
0.0
  0
LINE
  5
   548
  8
0
  6
CONTINUOUS
 62
     7
 10
-497.331798777928
 20
-28.4678829410845
 30
0.0
 11
-507.331787109375
 21
-28.4678829410845
 31
0.0
  0
LINE
  5
   549
  8
0
  6
CONTINUOUS
 62
     7
 10
-486.630404279246
 20
-31.9678829410845
 30
0.0
 11
-494.831799731602
 21
-31.9678829410845
 31
0.0
  0
INSERT
  5
   54A
  8
0
  6
CONTINUOUS
 62
     7
  2
*HATCH1085
 10
-507.331787109375
 20
-37.5863952636719
 30
0.0
 41
0.5
 42
0.5
 50
89.9999999480344
 43
0.5
  0
LINE
  5
   54B
  8
0
  6
CONTINUOUS
 62
     7
 10
-487.179775912999
 20
-29.9678829410845
 30
0.0
 11
-494.831799731602
 21
-29.9678829410845
 31
0.0
  0
INSERT
  5
   54C
  8
0
  6
CONTINUOUS
 62
     7
  2
*HATCH1086
 10
-507.331787109375
 20
-37.5863952636719
 30
0.0
 41
0.5
 42
0.5
 50
89.9999999480344
 43
0.5
  0
LINE
  5
   54D
  8
0
  6
CONTINUOUS
 62
     7
 10
-475.331802368164
 20
-12.9678344726557
 30
0.0
 11
-505.331787109375
 21
-12.9678344726557
 31
0.0
  0
LINE
  5
   54E
  8
0
  6
CONTINUOUS
 62
     7
 10
-451.08179473877
 20
24.4071502685547
 30
0.0
 11
-451.08179473877
 21
43.6571597289862
 31
0.0
  0
LINE
  5
   54F
  8
0
  6
CONTINUOUS
 62
     7
 10
-451.08179473877
 20
17.9071502685547
 30
0.0
 11
-451.08179473877
 21
23.9071502685547
 31
0.0
  0
LINE
  5
   550
  8
0
  6
CONTINUOUS
 62
     7
 10
-451.08179473877
 20
7.65715590964363
 30
0.0
 11
-451.08179473877
 21
17.4071502685547
 31
0.0
  0
LINE
  5
   551
  8
0
  6
CONTINUOUS
 62
     7
 10
-451.08179473877
 20
1.15715026855469
 30
0.0
 11
-451.08179473877
 21
7.15715590964368
 31
0.0
  0
LINE
  5
   552
  8
0
  6
CONTINUOUS
 62
     1
 10
-453.83179473877
 20
-10.0960826873779
 30
0.0
 11
-453.83179473877
 21
-9.09608268737793
 31
0.0
  0
LINE
  5
   553
  8
0
  6
CONTINUOUS
 62
     1
 10
-452.83179473877
 20
-10.0960826873779
 30
0.0
 11
-453.83179473877
 21
-10.0960826873779
 31
0.0
  0
LINE
  5
   554
  8
0
  6
CONTINUOUS
 62
     1
 10
-453.83179473877
 20
-9.09608268737793
 30
0.0
 11
-453.83179473877
 21
44.9039154052734
 31
0.0
  0
LINE
  5
   555
  8
0
  6
CONTINUOUS
 62
     1
 10
-452.83179473877
 20
44.9039154052734
 30
0.0
 11
-453.83179473877
 21
44.9039154052734
 31
0.0
  0
LINE
  5
   556
  8
0
  6
CONTINUOUS
 62
     1
 10
-456.081794649363
 20
51.6925888061524
 30
0.0
 11
-456.081794649363
 21
54.1152420043945
 31
0.0
  0
LINE
  5
   557
  8
0
  6
CONTINUOUS
 62
     1
 10
-456.081794649363
 20
-19.3074073791504
 30
0.0
 11
-456.081794649363
 21
-16.8847579956055
 31
0.0
  0
LINE
  5
   558
  8
0
  6
CONTINUOUS
 62
     1
 10
-452.83179473877
 20
-23.3460826873779
 30
0.0
 11
-452.83179473877
 21
58.1539173126221
 31
0.0
  0
LINE
  5
   559
  8
0
  6
CONTINUOUS
 62
     1
 10
-451.08179473877
 20
-23.3460826873779
 30
0.0
 11
-452.83179473877
 21
-23.3460826873779
 31
0.0
  0
LINE
  5
   55A
  8
0
  6
CONTINUOUS
 62
     1
 10
-451.08179473877
 20
-23.3460845947266
 30
0.0
 11
-451.08179473877
 21
58.1539154052734
 31
0.0
  0
LINE
  5
   55B
  8
0
  6
CONTINUOUS
 62
     1
 10
-451.08179473877
 20
58.1539154052734
 30
0.0
 11
-451.58179473877
 21
58.1539154052734
 31
0.0
  0
LINE
  5
   55C
  8
0
  6
CONTINUOUS
 62
     1
 10
-452.08179473877
 20
58.1539154052734
 30
0.0
 11
-452.83179473877
 21
58.1539154052734
 31
0.0
  0
LINE
  5
   55D
  8
0
  6
CONTINUOUS
 62
     1
 10
-452.83179473877
 20
51.4039154052734
 30
0.0
 11
-455.581794656213
 21
51.4039154052734
 31
0.0
  0
LINE
  5
   55E
  8
0
  6
CONTINUOUS
 62
     1
 10
-452.83179473877
 20
54.4039154052734
 30
0.0
 11
-455.581794656213
 21
54.4039154052734
 31
0.0
  0
LINE
  5
   55F
  8
0
  6
CONTINUOUS
 62
     1
 10
-455.581794656213
 20
51.4039154052734
 30
0.0
 11
-455.581794656213
 21
51.5180969238281
 31
0.0
  0
LINE
  5
   560
  8
0
  6
CONTINUOUS
 62
     1
 10
-455.581794258351
 20
51.4039142567427
 30
0.0
 11
-456.081794274815
 21
51.6925876612409
 31
0.0
  0
LINE
  5
   561
  8
0
  6
CONTINUOUS
 62
     1
 10
-455.581794656213
 20
51.4039154052734
 30
0.0
 11
-455.581794656213
 21
51.8432540893555
 31
0.0
  0
LINE
  5
   562
  8
0
  6
CONTINUOUS
 62
     1
 10
-455.581794656213
 20
51.8432540893555
 30
0.0
 11
-455.581794656213
 21
52.3298950195313
 31
0.0
  0
LINE
  5
   563
  8
0
  6
CONTINUOUS
 62
     1
 10
-455.581794656213
 20
52.3298950195313
 30
0.0
 11
-455.581794656213
 21
52.9039154052734
 31
0.0
  0
LINE
  5
   564
  8
0
  6
CONTINUOUS
 62
     1
 10
-455.581794656213
 20
52.9039154052734
 30
0.0
 11
-455.581794656213
 21
53.4779434204102
 31
0.0
  0
LINE
  5
   565
  8
0
  6
CONTINUOUS
 62
     1
 10
-455.581794656213
 20
53.4779434204102
 30
0.0
 11
-455.581794656213
 21
53.9645767211914
 31
0.0
  0
LINE
  5
   566
  8
0
  6
CONTINUOUS
 62
     1
 10
-455.581794656213
 20
53.9645767211914
 30
0.0
 11
-455.581794656213
 21
54.4039154052734
 31
0.0
  0
LINE
  5
   567
  8
0
  6
CONTINUOUS
 62
     1
 10
-455.581794656213
 20
54.2897338867188
 30
0.0
 11
-455.581794656213
 21
54.4039154052734
 31
0.0
  0
LINE
  5
   568
  8
0
  6
CONTINUOUS
 62
     1
 10
-456.081795083952
 20
54.1152408135255
 30
0.0
 11
-455.581795067488
 21
54.4039142180237
 31
0.0
  0
LINE
  5
   569
  8
0
  6
CONTINUOUS
 62
     1
 10
-452.83179473877
 20
-16.5960826873779
 30
0.0
 11
-455.581793653657
 21
-16.5960826873779
 31
0.0
  0
LINE
  5
   56A
  8
0
  6
CONTINUOUS
 62
     1
 10
-452.83179473877
 20
-19.5960826873779
 30
0.0
 11
-455.581795495438
 21
-19.5960826873779
 31
0.0
  0
LINE
  5
   56B
  8
0
  6
CONTINUOUS
 62
     1
 10
-456.081794910437
 20
-16.8847586957313
 30
0.0
 11
-455.581794893973
 21
-16.5960834034748
 31
0.0
  0
LINE
  5
   56C
  8
0
  6
CONTINUOUS
 62
     1
 10
-455.581794639555
 20
-19.5960831815222
 30
0.0
 11
-455.581794639555
 21
-16.5960826873779
 31
0.0
  0
LINE
  5
   56D
  8
0
  6
CONTINUOUS
 62
     1
 10
-455.581794432393
 20
-19.5960833011274
 30
0.0
 11
-456.081794448857
 21
-19.3074080088709
 31
0.0
  0
LINE
  5
   56E
  8
0
  6
CONTINUOUS
 62
     1
 10
-507.331761260954
 20
-19.5960826873779
 30
0.0
 11
-507.331761260954
 21
-19.4819011688233
 31
0.0
  0
LINE
  5
   56F
  8
0
  6
CONTINUOUS
 62
     1
 10
-451.58179473877
 20
58.1539154052734
 30
0.0
 11
-452.08179473877
 21
58.1539154052734
 31
0.0
  0
LINE
  5
   570
  8
0
  6
CONTINUOUS
 62
     7
 10
-453.83179473877
 20
44.9039154052734
 30
0.0
 11
-453.83179473877
 21
51.4039154052734
 31
0.0
  0
LINE
  5
   571
  8
0
  6
CONTINUOUS
 62
     7
 10
-452.83179473877
 20
58.1539154052734
 30
0.0
 11
-452.83179473877
 21
92.4694348436057
 31
0.0
  0
LINE
  5
   572
  8
0
  6
CONTINUOUS
 62
     7
 10
-453.83179473877
 20
-60.0950166995495
 30
0.0
 11
-453.83179473877
 21
-19.5960826873779
 31
0.0
  0
LINE
  5
   573
  8
0
  6
CONTINUOUS
 62
     7
 10
-452.83179473877
 20
-59.6591192636521
 30
0.0
 11
-452.83179473877
 21
-23.3460826873779
 31
0.0
  0
LINE
  5
   574
  8
0
  6
CONTINUOUS
 62
     7
 10
-456.406409298031
 20
-61.2172845843557
 30
0.0
 11
-449.779641275939
 21
-58.3286933952386
 31
0.0
  0
LINE
  5
   575
  8
0
  6
CONTINUOUS
 62
     7
 10
-455.976703045035
 20
90.4497689588483
 30
0.0
 11
-450.24691338006
 21
94.1294503950703
 31
0.0
  0
LINE
  5
   576
  8
0
  6
CONTINUOUS
 62
     7
 10
-452.83179473877
 20
45.4039154052734
 30
0.0
 11
-453.83179473877
 21
45.4039154052734
 31
0.0
  0
LINE
  5
   577
  8
0
  6
CONTINUOUS
 62
     7
 10
-452.83179473877
 20
-10.5960826873779
 30
0.0
 11
-453.83179473877
 21
-10.5960826873779
 31
0.0
  0
LINE
  5
   578
  8
0
  6
CONTINUOUS
 62
     7
 10
-452.83179473877
 20
-16.3460826873779
 30
0.0
 11
-453.83179473877
 21
-16.3460826873779
 31
0.0
  0
LINE
  5
   579
  8
0
  6
CONTINUOUS
 62
     7
 10
-452.83179473877
 20
-19.8460826873779
 30
0.0
 11
-453.83179473877
 21
-19.8460826873779
 31
0.0
  0
LINE
  5
   57A
  8
0
  6
CONTINUOUS
 62
     7
 10
-452.83179473877
 20
54.6539154052734
 30
0.0
 11
-453.83179473877
 21
54.6539154052734
 31
0.0
  0
LINE
  5
   57B
  8
0
  6
CONTINUOUS
 62
     7
 10
-452.83179473877
 20
51.1539154052734
 30
0.0
 11
-453.83179473877
 21
51.1539154052734
 31
0.0
  0
LINE
  5
   57C
  8
0
  6
CONTINUOUS
 62
     7
 10
-453.83179473877
 20
54.4039154052734
 30
0.0
 11
-453.83179473877
 21
91.8272330087433
 31
0.0
  0
LINE
  5
   57D
  8
0
  6
CONTINUOUS
 62
     7
 10
-453.83179473877
 20
-16.5960826873779
 30
0.0
 11
-453.83179473877
 21
-10.0960826873779
 31
0.0
  0
INSERT
  5
   57E
  8
0
  6
CONTINUOUS
 62
     7
  2
*HATCH1087
 10
-507.331787109375
 20
-37.5863952636719
 30
0.0
 41
0.5
 42
0.5
 50
89.9999999480344
 43
0.5
  0
INSERT
  5
   57F
  8
0
  6
CONTINUOUS
 62
     7
  2
*HATCH1088
 10
-507.331787109375
 20
-37.5863952636719
 30
0.0
 41
0.5
 42
0.5
 50
89.9999999480344
 43
0.5
  0
INSERT
  5
   580
  8
0
  6
CONTINUOUS
 62
     7
  2
*HATCH1089
 10
-507.331787109375
 20
-37.5863952636719
 30
0.0
 41
0.5
 42
0.5
 50
89.9999999480344
 43
0.5
  0
INSERT
  5
   581
  8
0
  6
CONTINUOUS
 62
     7
  2
*HATCH1090
 10
-507.331787109375
 20
-37.5863952636719
 30
0.0
 41
0.5
 42
0.5
 50
89.9999999480344
 43
0.5
  0
LINE
  5
   582
  8
0
  6
DASHDOT
 62
     3
 10
-412.026707080237
 20
17.4071597289862
 30
0.0
 11
-416.914770681618
 21
17.4071597289862
 31
0.0
  0
LINE
  5
   583
  8
0
  6
DASHDOT
 62
     3
 10
-424.534399236712
 20
17.4071597289862
 30
0.0
 11
-541.272859363809
 21
17.4071597289862
 31
0.0
  0
LINE
  5
   584
  8
0
  6
DASHDOT
 62
     3
 10
-548.461188189369
 20
17.4071597289862
 30
0.0
 11
-556.512116473997
 21
17.4071597289862
 31
0.0
  0
INSERT
  5
   585
  8
255
  6
CONTINUOUS
 62
     7
  2
159486
 10
-511.331786155701
 20
-37.5863952636719
 30
0.0
 41
0.5
 42
0.5
 50
359.999999792138
 43
0.5
  0
LINE
  5
   586
  8
0
  6
CONTINUOUS
 62
     7
 10
-494.831799731602
 20
73.5321682194048
 30
0.0
 11
-497.331798777928
 21
73.5321682194048
 31
0.0
  0
LINE
  5
   587
  8
0
  6
CONTINUOUS
 62
     7
 10
-494.831799731602
 20
68.5321682194048
 30
0.0
 11
-497.331798777928
 21
68.5321682194048
 31
0.0
  0
LINE
  5
   588
  8
0
  6
CONTINUOUS
 62
     7
 10
-497.331798777928
 20
73.5321682194048
 30
0.0
 11
-497.331798777928
 21
76.0321426391601
 31
0.0
  0
LINE
  5
   589
  8
0
  6
CONTINUOUS
 62
     7
 10
-468.149333922742
 20
64.1298541618966
 30
0.0
 11
-488.236620255428
 21
64.1298541618966
 31
0.0
  0
LINE
  5
   58A
  8
0
  6
CONTINUOUS
 62
     7
 10
-468.149333922742
 20
64.1298541618966
 30
0.0
 11
-462.46782175184
 21
83.42256874003
 31
0.0
  0
LINE
  5
   58B
  8
0
  6
DOT
 62
     2
 10
-484.581798777928
 20
80.0321426391602
 30
0.0
 11
-496.331798777928
 21
80.0321426391602
 31
0.0
  0
LINE
  5
   58C
  8
0
  6
CONTINUOUS
 62
     7
 10
-494.831799731602
 20
-40.5178829410845
 30
0.0
 11
-497.331798777928
 21
-40.5178829410845
 31
0.0
  0
LINE
  5
   58D
  8
0
  6
CONTINUOUS
 62
     7
 10
-494.831799731602
 20
-35.4178829410845
 30
0.0
 11
-497.331798777928
 21
-35.4178829410845
 31
0.0
  0
INSERT
  5
   58E
  8
255
  6
CONTINUOUS
 62
    56
  2
MORSETTO
 10
-494.831799731602
 20
-37.9678829410845
 30
0.0
 41
0.5
 42
0.5
 50
359.999999792138
 43
0.5
  0
LINE
  5
   58F
  8
0
  6
CONTINUOUS
 62
     7
 10
-482.834104372708
 20
-48.800146311803
 30
0.0
 11
-483.010340993948
 21
-27.722246411455
 31
0.0
  0
LINE
  5
   590
  8
0
  6
CONTINUOUS
 62
    56
 10
-494.831798777928
 20
-42.9678573608398
 30
0.0
 11
-494.831798777928
 21
-40.4678829410845
 31
0.0
  0
LINE
  5
   591
  8
0
  6
CONTINUOUS
 62
   218
 10
-484.831799731602
 20
-54.9678829410845
 30
0.0
 11
-484.831799731602
 21
-46.2178829410845
 31
0.0
  0
LINE
  5
   592
  8
0
  6
CONTINUOUS
 62
   218
 10
-484.831799731602
 20
-54.9678829410845
 30
0.0
 11
-498.331799731602
 21
-54.9678829410845
 31
0.0
  0
LINE
  5
   593
  8
0
  6
CONTINUOUS
 62
   218
 10
-484.831799731602
 20
-46.2178829410845
 30
0.0
 11
-498.331799731602
 21
-46.2178829410845
 31
0.0
  0
LINE
  5
   594
  8
0
  6
CONTINUOUS
 62
   218
 10
-498.331799731602
 20
-56.4678829410845
 30
0.0
 11
-513.581799731602
 21
-56.4678829410845
 31
0.0
  0
LINE
  5
   595
  8
0
  6
CONTINUOUS
 62
   218
 10
-498.331799731602
 20
-44.7178829410845
 30
0.0
 11
-513.581799731602
 21
-44.7178829410845
 31
0.0
  0
LINE
  5
   596
  8
0
  6
CONTINUOUS
 62
   218
 10
-498.331799731602
 20
-56.4678829410845
 30
0.0
 11
-498.331799731602
 21
-44.7178829410845
 31
0.0
  0
LINE
  5
   597
  8
0
  6
DASHDOT
 62
   218
 10
-483.389287161687
 20
-50.5928829410845
 30
0.0
 11
-516.763509990592
 21
-50.5928829410845
 31
0.0
  0
LINE
  5
   598
  8
0
  6
CONTINUOUS
 62
   218
 10
-484.831799731602
 20
-50.5928829410845
 30
0.0
 11
-498.331799731602
 21
-48.2124687015203
 31
0.0
  0
LINE
  5
   599
  8
0
  6
CONTINUOUS
 62
   218
 10
-484.831799731602
 20
-51.3544528999988
 30
0.0
 11
-498.331799731602
 21
-48.9740386604346
 31
0.0
  0
LINE
  5
   59A
  8
0
  6
CONTINUOUS
 62
   218
 10
-484.831799731602
 20
-52.1160228589132
 30
0.0
 11
-498.331799731602
 21
-49.7356086193489
 31
0.0
  0
LINE
  5
   59B
  8
0
  6
CONTINUOUS
 62
   218
 10
-484.831799731602
 20
-52.8775928178275
 30
0.0
 11
-498.331799731602
 21
-50.4971785782632
 31
0.0
  0
LINE
  5
   59C
  8
0
  6
CONTINUOUS
 62
   218
 10
-484.831799731602
 20
-53.6391627767418
 30
0.0
 11
-498.331799731602
 21
-51.2587485371775
 31
0.0
  0
LINE
  5
   59D
  8
0
  6
CONTINUOUS
 62
   218
 10
-484.831799731602
 20
-54.4007327356561
 30
0.0
 11
-498.331799731602
 21
-52.0203184960918
 31
0.0
  0
LINE
  5
   59E
  8
0
  6
CONTINUOUS
 62
   218
 10
-485.934408944921
 20
-54.9678829410845
 30
0.0
 11
-498.331799731602
 21
-52.7818884550061
 31
0.0
  0
LINE
  5
   59F
  8
0
  6
CONTINUOUS
 62
   218
 10
-490.253486807279
 20
-54.9678829410845
 30
0.0
 11
-498.331799731602
 21
-53.5434584139204
 31
0.0
  0
LINE
  5
   5A0
  8
0
  6
CONTINUOUS
 62
   218
 10
-494.572564669637
 20
-54.9678829410845
 30
0.0
 11
-498.331799731602
 21
-54.3050283728347
 31
0.0
  0
LINE
  5
   5A1
  8
0
  6
CONTINUOUS
 62
   218
 10
-484.831799731602
 20
-49.8313129821702
 30
0.0
 11
-498.331799731602
 21
-47.4508987426059
 31
0.0
  0
LINE
  5
   5A2
  8
0
  6
CONTINUOUS
 62
   218
 10
-484.831799731602
 20
-49.0697430232559
 30
0.0
 11
-498.331799731602
 21
-46.6893287836916
 31
0.0
  0
LINE
  5
   5A3
  8
0
  6
CONTINUOUS
 62
   218
 10
-484.831799731602
 20
-48.3081730643416
 30
0.0
 11
-496.686424105357
 21
-46.2178829410845
 31
0.0
  0
LINE
  5
   5A4
  8
0
  6
CONTINUOUS
 62
   218
 10
-484.831799731602
 20
-47.5466031054273
 30
0.0
 11
-492.367346242999
 21
-46.2178829410845
 31
0.0
  0
LINE
  5
   5A5
  8
0
  6
CONTINUOUS
 62
   218
 10
-484.831799731602
 20
-46.785033146513
 30
0.0
 11
-488.048268380641
 21
-46.2178829410845
 31
0.0
  0
POLYLINE
  5
   5A6
  8
0
  6
CONTINUOUS
 62
   218
 66
     1
 10
0.0
 20
0.0
 30
0.0
 70
     1
  0
VERTEX
  5
   5A7
  8
0
  6
CONTINUOUS
 10
-513.581799731595
 20
-56.4678829410845
 30
0.0
 40
0.0
 41
0.0
  0
VERTEX
  5
   5A8
  8
0
  6
CONTINUOUS
 10
-513.551123195941
 20
-56.4669982210046
 30
0.0
 40
0.0
 41
0.0
  0
VERTEX
  5
   5A9
  8
0
  6
CONTINUOUS
 10
-513.520465138686
 20
-56.4643445936871
 30
0.0
 40
0.0
 41
0.0
  0
VERTEX
  5
   5AA
  8
0
  6
CONTINUOUS
 10
-513.489844027095
 20
-56.459923657578
 30
0.0
 40
0.0
 41
0.0
  0
VERTEX
  5
   5AB
  8
0
  6
CONTINUOUS
 10
-513.459278306183
 20
-56.4537380756838
 30
0.0
 40
0.0
 41
0.0
  0
VERTEX
  5
   5AC
  8
0
  6
CONTINUOUS
 10
-513.428786387596
 20
-56.4457915739679
 30
0.0
 40
0.0
 41
0.0
  0
VERTEX
  5
   5AD
  8
0
  6
CONTINUOUS
 10
-513.398386638526
 20
-56.4360889391056
 30
0.0
 40
0.0
 41
0.0
  0
VERTEX
  5
   5AE
  8
0
  6
CONTINUOUS
 10
-513.368097370645
 20
-56.4246360156015
 30
0.0
 40
0.0
 41
0.0
  0
VERTEX
  5
   5AF
  8
0
  6
CONTINUOUS
 10
-513.337936829075
 20
-56.4114397022684
 30
0.0
 40
0.0
 41
0.0
  0
VERTEX
  5
   5B0
  8
0
  6
CONTINUOUS
 10
-513.307923181399
 20
-56.396507948072
 30
0.0
 40
0.0
 41
0.0
  0
VERTEX
  5
   5B1
  8
0
  6
CONTINUOUS
 10
-513.278074506716
 20
-56.3798497473427
 30
0.0
 40
0.0
 41
0.0
  0
VERTEX
  5
   5B2
  8
0
  6
CONTINUOUS
 10
-513.248408784751
 20
-56.3614751343578
 30
0.0
 40
0.0
 41
0.0
  0
VERTEX
  5
   5B3
  8
0
  6
CONTINUOUS
 10
-513.218943885027
 20
-56.341395177297
 30
0.0
 40
0.0
 41
0.0
  0
VERTEX
  5
   5B4
  8
0
  6
CONTINUOUS
 10
-513.189697556097
 20
-56.3196219715756
 30
0.0
 40
0.0
 41
0.0
  0
VERTEX
  5
   5B5
  8
0
  6
CONTINUOUS
 10
-513.160687414855
 20
-56.2961686325586
 30
0.0
 40
0.0
 41
0.0
  0
VERTEX
  5
   5B6
  8
0
  6
CONTINUOUS
 10
-513.131930935926
 20
-56.2710492876604
 30
0.0
 40
0.0
 41
0.0
  0
VERTEX
  5
   5B7
  8
0
  6
CONTINUOUS
 10
-513.103445441139
 20
-56.2442790678352
 30
0.0
 40
0.0
 41
0.0
  0
VERTEX
  5
   5B8
  8
0
  6
CONTINUOUS
 10
-513.075248089089
 20
-56.2158740984624
 30
0.0
 40
0.0
 41
0.0
  0
VERTEX
  5
   5B9
  8
0
  6
CONTINUOUS
 10
-513.047355864808
 20
-56.1858514896333
 30
0.0
 40
0.0
 41
0.0
  0
VERTEX
  5
   5BA
  8
0
  6
CONTINUOUS
 10
-513.019785569527
 20
-56.1542293258449
 30
0.0
 40
0.0
 41
0.0
  0
VERTEX
  5
   5BB
  8
0
  6
CONTINUOUS
 10
-512.992553810563
 20
-56.1210266551064
 30
0.0
 40
0.0
 41
0.0
  0
VERTEX
  5
   5BC
  8
0
  6
CONTINUOUS
 10
-512.965676991309
 20
-56.0862634774648
 30
0.0
 40
0.0
 41
0.0
  0
VERTEX
  5
   5BD
  8
0
  6
CONTINUOUS
 10
-512.939171301354
 20
-56.0499607329587
 30
0.0
 40
0.0
 41
0.0
  0
VERTEX
  5
   5BE
  8
0
  6
CONTINUOUS
 10
-512.913052706737
 20
-56.0121402890039
 30
0.0
 40
0.0
 41
0.0
  0
VERTEX
  5
   5BF
  8
0
  6
CONTINUOUS
 10
-512.887336940322
 20
-55.9728249272215
 30
0.0
 40
0.0
 41
0.0
  0
VERTEX
  5
   5C0
  8
0
  6
CONTINUOUS
 10
-512.862039492324
 20
-55.9320383297155
 30
0.0
 40
0.0
 41
0.0
  0
VERTEX
  5
   5C1
  8
0
  6
CONTINUOUS
 10
-512.837175600981
 20
-55.8898050648071
 30
0.0
 40
0.0
 41
0.0
  0
VERTEX
  5
   5C2
  8
0
  6
CONTINUOUS
 10
-512.81276024337
 20
-55.8461505722358
 30
0.0
 40
0.0
 41
0.0
  0
VERTEX
  5
   5C3
  8
0
  6
CONTINUOUS
 10
-512.788808126392
 20
-55.8011011478356
 30
0.0
 40
0.0
 41
0.0
  0
VERTEX
  5
   5C4
  8
0
  6
CONTINUOUS
 10
-512.765333677904
 20
-55.7546839276953
 30
0.0
 40
0.0
 41
0.0
  0
VERTEX
  5
   5C5
  8
0
  6
CONTINUOUS
 10
-512.742351038038
 20
-55.7069268718126
 30
0.0
 40
0.0
 41
0.0
  0
VERTEX
  5
   5C6
  8
0
  6
CONTINUOUS
 10
-512.719874050676
 20
-55.6578587472523
 30
0.0
 40
0.0
 41
0.0
  0
VERTEX
  5
   5C7
  8
0
  6
CONTINUOUS
 10
-512.676490877908
 20
-55.5559082912474
 30
0.0
 40
0.0
 41
0.0
  0
VERTEX
  5
   5C8
  8
0
  6
CONTINUOUS
 10
-512.635288673464
 20
-55.4490781672589
 30
0.0
 40
0.0
 41
0.0
  0
VERTEX
  5
   5C9
  8
0
  6
CONTINUOUS
 10
-512.596366697064
 20
-55.3376257384127
 30
0.0
 40
0.0
 41
0.0
  0
VERTEX
  5
   5CA
  8
0
  6
CONTINUOUS
 10
-512.559818715158
 20
-55.2218195033719
 30
0.0
 40
0.0
 41
0.0
  0
VERTEX
  5
   5CB
  8
0
  6
CONTINUOUS
 10
-512.525732775036
 20
-55.1019384495002
 30
0.0
 40
0.0
 41
0.0
  0
VERTEX
  5
   5CC
  8
0
  6
CONTINUOUS
 10
-512.494190992713
 20
-54.9782713807568
 30
0.0
 40
0.0
 41
0.0
  0
VERTEX
  5
   5CD
  8
0
  6
CONTINUOUS
 10
-512.465269355105
 20
-54.8511162219421
 30
0.0
 40
0.0
 41
0.0
  0
VERTEX
  5
   5CE
  8
0
  6
CONTINUOUS
 10
-512.451813115195
 20
-54.7863260280331
 30
0.0
 40
0.0
 41
0.0
  0
VERTEX
  5
   5CF
  8
0
  6
CONTINUOUS
 10
-512.42695031596
 20
-54.6545155236541
 30
0.0
 40
0.0
 41
0.0
  0
VERTEX
  5
   5D0
  8
0
  6
CONTINUOUS
 10
-512.404869650121
 20
-54.5199968854212
 30
0.0
 40
0.0
 41
0.0
  0
VERTEX
  5
   5D1
  8
0
  6
CONTINUOUS
 10
-512.385624311935
 20
-54.3830941805165
 30
0.0
 40
0.0
 41
0.0
  0
VERTEX
  5
   5D2
  8
0
  6
CONTINUOUS
 10
-512.369260665107
 20
-54.2441372195473
 30
0.0
 40
0.0
 41
0.0
  0
VERTEX
  5
   5D3
  8
0
  6
CONTINUOUS
 10
-512.355818131097
 20
-54.1034607620038
 30
0.0
 40
0.0
 41
0.0
  0
VERTEX
  5
   5D4
  8
0
  6
CONTINUOUS
 10
-512.345329094145
 20
-53.9614037097941
 30
0.0
 40
0.0
 41
0.0
  0
VERTEX
  5
   5D5
  8
0
  6
CONTINUOUS
 10
-512.337818823261
 20
-53.8183082907995
 30
0.0
 40
0.0
 41
0.0
  0
VERTEX
  5
   5D6
  8
0
  6
CONTINUOUS
 10
-512.333305411345
 20
-53.6745192344182
 30
0.0
 40
0.0
 41
0.0
  0
VERTEX
  5
   5D7
  8
0
  6
CONTINUOUS
 10
-512.331799731602
 20
-53.5303829410814
 30
0.0
 40
0.0
 41
0.0
  0
VERTEX
  5
   5D8
  8
0
  6
CONTINUOUS
 10
-512.333305411346
 20
-53.3862466477446
 30
0.0
 40
0.0
 41
0.0
  0
VERTEX
  5
   5D9
  8
0
  6
CONTINUOUS
 10
-512.337818823263
 20
-53.2424575913633
 30
0.0
 40
0.0
 41
0.0
  0
VERTEX
  5
   5DA
  8
0
  6
CONTINUOUS
 10
-512.345329094147
 20
-53.0993621723688
 30
0.0
 40
0.0
 41
0.0
  0
VERTEX
  5
   5DB
  8
0
  6
CONTINUOUS
 10
-512.355818131099
 20
-52.9573051201591
 30
0.0
 40
0.0
 41
0.0
  0
VERTEX
  5
   5DC
  8
0
  6
CONTINUOUS
 10
-512.369260665111
 20
-52.8166286626157
 30
0.0
 40
0.0
 41
0.0
  0
VERTEX
  5
   5DD
  8
0
  6
CONTINUOUS
 10
-512.385624311939
 20
-52.6776717016465
 30
0.0
 40
0.0
 41
0.0
  0
VERTEX
  5
   5DE
  8
0
  6
CONTINUOUS
 10
-512.404869650126
 20
-52.5407689967419
 30
0.0
 40
0.0
 41
0.0
  0
VERTEX
  5
   5DF
  8
0
  6
CONTINUOUS
 10
-512.426950315966
 20
-52.4062503585092
 30
0.0
 40
0.0
 41
0.0
  0
VERTEX
  5
   5E0
  8
0
  6
CONTINUOUS
 10
-512.451813115201
 20
-52.2744398541302
 30
0.0
 40
0.0
 41
0.0
  0
VERTEX
  5
   5E1
  8
0
  6
CONTINUOUS
 10
-512.47939815117
 20
-52.1456550266554
 30
0.0
 40
0.0
 41
0.0
  0
VERTEX
  5
   5E2
  8
0
  6
CONTINUOUS
 10
-512.509638969106
 20
-52.0202061300143
 30
0.0
 40
0.0
 41
0.0
  0
VERTEX
  5
   5E3
  8
0
  6
CONTINUOUS
 10
-512.542462716228
 20
-51.8983953815868
 30
0.0
 40
0.0
 41
0.0
  0
VERTEX
  5
   5E4
  8
0
  6
CONTINUOUS
 10
-512.577790317256
 20
-51.7805162341355
 30
0.0
 40
0.0
 41
0.0
  0
VERTEX
  5
   5E5
  8
0
  6
CONTINUOUS
 10
-512.615536664903
 20
-51.6668526688514
 30
0.0
 40
0.0
 41
0.0
  0
VERTEX
  5
   5E6
  8
0
  6
CONTINUOUS
 10
-512.655610824913
 20
-51.5576785112191
 30
0.0
 40
0.0
 41
0.0
  0
VERTEX
  5
   5E7
  8
0
  6
CONTINUOUS
 10
-512.697916255124
 20
-51.4532567713468
 30
0.0
 40
0.0
 41
0.0
  0
VERTEX
  5
   5E8
  8
0
  6
CONTINUOUS
 10
-512.719874050686
 20
-51.4029071349124
 30
0.0
 40
0.0
 41
0.0
  0
VERTEX
  5
   5E9
  8
0
  6
CONTINUOUS
 10
-512.742351038049
 20
-51.3538390103522
 30
0.0
 40
0.0
 41
0.0
  0
VERTEX
  5
   5EA
  8
0
  6
CONTINUOUS
 10
-512.765333677916
 20
-51.3060819544697
 30
0.0
 40
0.0
 41
0.0
  0
VERTEX
  5
   5EB
  8
0
  6
CONTINUOUS
 10
-512.788808126403
 20
-51.2596647343295
 30
0.0
 40
0.0
 41
0.0
  0
VERTEX
  5
   5EC
  8
0
  6
CONTINUOUS
 10
-512.812760243382
 20
-51.2146153099294
 30
0.0
 40
0.0
 41
0.0
  0
VERTEX
  5
   5ED
  8
0
  6
CONTINUOUS
 10
-512.837175600993
 20
-51.1709608173583
 30
0.0
 40
0.0
 41
0.0
  0
VERTEX
  5
   5EE
  8
0
  6
CONTINUOUS
 10
-512.862039492336
 20
-51.1287275524499
 30
0.0
 40
0.0
 41
0.0
  0
VERTEX
  5
   5EF
  8
0
  6
CONTINUOUS
 10
-512.887336940334
 20
-51.0879409549441
 30
0.0
 40
0.0
 41
0.0
  0
VERTEX
  5
   5F0
  8
0
  6
CONTINUOUS
 10
-512.91305270675
 20
-51.0486255931618
 30
0.0
 40
0.0
 41
0.0
  0
VERTEX
  5
   5F1
  8
0
  6
CONTINUOUS
 10
-512.939171301367
 20
-51.0108051492071
 30
0.0
 40
0.0
 41
0.0
  0
VERTEX
  5
   5F2
  8
0
  6
CONTINUOUS
 10
-512.965676991321
 20
-50.9745024047011
 30
0.0
 40
0.0
 41
0.0
  0
VERTEX
  5
   5F3
  8
0
  6
CONTINUOUS
 10
-512.992553810576
 20
-50.9397392270598
 30
0.0
 40
0.0
 41
0.0
  0
VERTEX
  5
   5F4
  8
0
  6
CONTINUOUS
 10
-513.019785569541
 20
-50.9065365563213
 30
0.0
 40
0.0
 41
0.0
  0
VERTEX
  5
   5F5
  8
0
  6
CONTINUOUS
 10
-513.047355864821
 20
-50.8749143925331
 30
0.0
 40
0.0
 41
0.0
  0
VERTEX
  5
   5F6
  8
0
  6
CONTINUOUS
 10
-513.075248089103
 20
-50.8448917837041
 30
0.0
 40
0.0
 41
0.0
  0
VERTEX
  5
   5F7
  8
0
  6
CONTINUOUS
 10
-513.103445441153
 20
-50.8164868143314
 30
0.0
 40
0.0
 41
0.0
  0
VERTEX
  5
   5F8
  8
0
  6
CONTINUOUS
 10
-513.13193093594
 20
-50.7897165945064
 30
0.0
 40
0.0
 41
0.0
  0
VERTEX
  5
   5F9
  8
0
  6
CONTINUOUS
 10
-513.160687414869
 20
-50.7645972496084
 30
0.0
 40
0.0
 41
0.0
  0
VERTEX
  5
   5FA
  8
0
  6
CONTINUOUS
 10
-513.189697556111
 20
-50.7411439105915
 30
0.0
 40
0.0
 41
0.0
  0
VERTEX
  5
   5FB
  8
0
  6
CONTINUOUS
 10
-513.218943885041
 20
-50.7193707048703
 30
0.0
 40
0.0
 41
0.0
  0
VERTEX
  5
   5FC
  8
0
  6
CONTINUOUS
 10
-513.248408784766
 20
-50.6992907478096
 30
0.0
 40
0.0
 41
0.0
  0
VERTEX
  5
   5FD
  8
0
  6
CONTINUOUS
 10
-513.27807450673
 20
-50.6809161348248
 30
0.0
 40
0.0
 41
0.0
  0
VERTEX
  5
   5FE
  8
0
  6
CONTINUOUS
 10
-513.307923181413
 20
-50.6642579340957
 30
0.0
 40
0.0
 41
0.0
  0
VERTEX
  5
   5FF
  8
0
  6
CONTINUOUS
 10
-513.337936829089
 20
-50.6493261798994
 30
0.0
 40
0.0
 41
0.0
  0
VERTEX
  5
   600
  8
0
  6
CONTINUOUS
 10
-513.368097370659
 20
-50.6361298665665
 30
0.0
 40
0.0
 41
0.0
  0
VERTEX
  5
   601
  8
0
  6
CONTINUOUS
 10
-513.39838663854
 20
-50.6246769430625
 30
0.0
 40
0.0
 41
0.0
  0
VERTEX
  5
   602
  8
0
  6
CONTINUOUS
 10
-513.428786387611
 20
-50.6149743082004
 30
0.0
 40
0.0
 41
0.0
  0
VERTEX
  5
   603
  8
0
  6
CONTINUOUS
 10
-513.459278306198
 20
-50.6070278064847
 30
0.0
 40
0.0
 41
0.0
  0
VERTEX
  5
   604
  8
0
  6
CONTINUOUS
 10
-513.48984402711
 20
-50.6008422245907
 30
0.0
 40
0.0
 41
0.0
  0
VERTEX
  5
   605
  8
0
  6
CONTINUOUS
 10
-513.5204651387
 20
-50.5964212884817
 30
0.0
 40
0.0
 41
0.0
  0
VERTEX
  5
   606
  8
0
  6
CONTINUOUS
 10
-513.551123195956
 20
-50.5937676611644
 30
0.0
 40
0.0
 41
0.0
  0
VERTEX
  5
   607
  8
0
  6
CONTINUOUS
 10
-513.58179973161
 20
-50.5928829410845
 30
0.0
 40
0.0
 41
0.0
  0
VERTEX
  5
   608
  8
0
  6
CONTINUOUS
 10
-513.612476267263
 20
-50.5937676611645
 30
0.0
 40
0.0
 41
0.0
  0
VERTEX
  5
   609
  8
0
  6
CONTINUOUS
 10
-513.643134324519
 20
-50.596421288482
 30
0.0
 40
0.0
 41
0.0
  0
VERTEX
  5
   60A
  8
0
  6
CONTINUOUS
 10
-513.673755436109
 20
-50.6008422245911
 30
0.0
 40
0.0
 41
0.0
  0
VERTEX
  5
   60B
  8
0
  6
CONTINUOUS
 10
-513.704321157021
 20
-50.6070278064853
 30
0.0
 40
0.0
 41
0.0
  0
VERTEX
  5
   60C
  8
0
  6
CONTINUOUS
 10
-513.734813075609
 20
-50.6149743082012
 30
0.0
 40
0.0
 41
0.0
  0
VERTEX
  5
   60D
  8
0
  6
CONTINUOUS
 10
-513.765212824679
 20
-50.6246769430635
 30
0.0
 40
0.0
 41
0.0
  0
VERTEX
  5
   60E
  8
0
  6
CONTINUOUS
 10
-513.79550209256
 20
-50.6361298665676
 30
0.0
 40
0.0
 41
0.0
  0
VERTEX
  5
   60F
  8
0
  6
CONTINUOUS
 10
-513.82566263413
 20
-50.6493261799007
 30
0.0
 40
0.0
 41
0.0
  0
VERTEX
  5
   610
  8
0
  6
CONTINUOUS
 10
-513.855676281805
 20
-50.664257934097
 30
0.0
 40
0.0
 41
0.0
  0
VERTEX
  5
   611
  8
0
  6
CONTINUOUS
 10
-513.885524956488
 20
-50.6809161348263
 30
0.0
 40
0.0
 41
0.0
  0
VERTEX
  5
   612
  8
0
  6
CONTINUOUS
 10
-513.915190678453
 20
-50.6992907478113
 30
0.0
 40
0.0
 41
0.0
  0
VERTEX
  5
   613
  8
0
  6
CONTINUOUS
 10
-513.944655578177
 20
-50.7193707048721
 30
0.0
 40
0.0
 41
0.0
  0
VERTEX
  5
   614
  8
0
  6
CONTINUOUS
 10
-513.973901907108
 20
-50.7411439105935
 30
0.0
 40
0.0
 41
0.0
  0
VERTEX
  5
   615
  8
0
  6
CONTINUOUS
 10
-514.002912048349
 20
-50.7645972496105
 30
0.0
 40
0.0
 41
0.0
  0
VERTEX
  5
   616
  8
0
  6
CONTINUOUS
 10
-514.031668527278
 20
-50.7897165945086
 30
0.0
 40
0.0
 41
0.0
  0
VERTEX
  5
   617
  8
0
  6
CONTINUOUS
 10
-514.060154022065
 20
-50.8164868143338
 30
0.0
 40
0.0
 41
0.0
  0
VERTEX
  5
   618
  8
0
  6
CONTINUOUS
 10
-514.088351374115
 20
-50.8448917837067
 30
0.0
 40
0.0
 41
0.0
  0
VERTEX
  5
   619
  8
0
  6
CONTINUOUS
 10
-514.116243598397
 20
-50.8749143925358
 30
0.0
 40
0.0
 41
0.0
  0
VERTEX
  5
   61A
  8
0
  6
CONTINUOUS
 10
-514.143813893677
 20
-50.9065365563241
 30
0.0
 40
0.0
 41
0.0
  0
VERTEX
  5
   61B
  8
0
  6
CONTINUOUS
 10
-514.171045652641
 20
-50.9397392270627
 30
0.0
 40
0.0
 41
0.0
  0
VERTEX
  5
   61C
  8
0
  6
CONTINUOUS
 10
-514.197922471896
 20
-50.9745024047042
 30
0.0
 40
0.0
 41
0.0
  0
VERTEX
  5
   61D
  8
0
  6
CONTINUOUS
 10
-514.22442816185
 20
-51.0108051492104
 30
0.0
 40
0.0
 41
0.0
  0
VERTEX
  5
   61E
  8
0
  6
CONTINUOUS
 10
-514.250546756467
 20
-51.0486255931652
 30
0.0
 40
0.0
 41
0.0
  0
VERTEX
  5
   61F
  8
0
  6
CONTINUOUS
 10
-514.276262522883
 20
-51.0879409549475
 30
0.0
 40
0.0
 41
0.0
  0
VERTEX
  5
   620
  8
0
  6
CONTINUOUS
 10
-514.301559970881
 20
-51.1287275524536
 30
0.0
 40
0.0
 41
0.0
  0
VERTEX
  5
   621
  8
0
  6
CONTINUOUS
 10
-514.326423862224
 20
-51.170960817362
 30
0.0
 40
0.0
 41
0.0
  0
VERTEX
  5
   622
  8
0
  6
CONTINUOUS
 10
-514.350839219834
 20
-51.2146153099333
 30
0.0
 40
0.0
 41
0.0
  0
VERTEX
  5
   623
  8
0
  6
CONTINUOUS
 10
-514.374791336812
 20
-51.2596647343335
 30
0.0
 40
0.0
 41
0.0
  0
VERTEX
  5
   624
  8
0
  6
CONTINUOUS
 10
-514.3982657853
 20
-51.3060819544738
 30
0.0
 40
0.0
 41
0.0
  0
VERTEX
  5
   625
  8
0
  6
CONTINUOUS
 10
-514.421248425166
 20
-51.3538390103565
 30
0.0
 40
0.0
 41
0.0
  0
VERTEX
  5
   626
  8
0
  6
CONTINUOUS
 10
-514.443725412529
 20
-51.4029071349168
 30
0.0
 40
0.0
 41
0.0
  0
VERTEX
  5
   627
  8
0
  6
CONTINUOUS
 10
-514.487108585297
 20
-51.5048575909217
 30
0.0
 40
0.0
 41
0.0
  0
VERTEX
  5
   628
  8
0
  6
CONTINUOUS
 10
-514.52831078974
 20
-51.6116877149102
 30
0.0
 40
0.0
 41
0.0
  0
VERTEX
  5
   629
  8
0
  6
CONTINUOUS
 10
-514.56723276614
 20
-51.7231401437564
 30
0.0
 40
0.0
 41
0.0
  0
VERTEX
  5
   62A
  8
0
  6
CONTINUOUS
 10
-514.603780748046
 20
-51.8389463787972
 30
0.0
 40
0.0
 41
0.0
  0
VERTEX
  5
   62B
  8
0
  6
CONTINUOUS
 10
-514.637866688168
 20
-51.9588274326688
 30
0.0
 40
0.0
 41
0.0
  0
VERTEX
  5
   62C
  8
0
  6
CONTINUOUS
 10
-514.669408470492
 20
-52.0824945014123
 30
0.0
 40
0.0
 41
0.0
  0
VERTEX
  5
   62D
  8
0
  6
CONTINUOUS
 10
-514.6983301081
 20
-52.2096496602269
 30
0.0
 40
0.0
 41
0.0
  0
VERTEX
  5
   62E
  8
0
  6
CONTINUOUS
 10
-514.71178634801
 20
-52.2744398541359
 30
0.0
 40
0.0
 41
0.0
  0
VERTEX
  5
   62F
  8
0
  6
CONTINUOUS
 10
-514.736649147244
 20
-52.406250358515
 30
0.0
 40
0.0
 41
0.0
  0
VERTEX
  5
   630
  8
0
  6
CONTINUOUS
 10
-514.758729813083
 20
-52.5407689967478
 30
0.0
 40
0.0
 41
0.0
  0
VERTEX
  5
   631
  8
0
  6
CONTINUOUS
 10
-514.77797515127
 20
-52.6776717016526
 30
0.0
 40
0.0
 41
0.0
  0
VERTEX
  5
   632
  8
0
  6
CONTINUOUS
 10
-514.794338798097
 20
-52.8166286626217
 30
0.0
 40
0.0
 41
0.0
  0
VERTEX
  5
   633
  8
0
  6
CONTINUOUS
 10
-514.807781332108
 20
-52.9573051201652
 30
0.0
 40
0.0
 41
0.0
  0
VERTEX
  5
   634
  8
0
  6
CONTINUOUS
 10
-514.818270369059
 20
-53.099362172375
 30
0.0
 40
0.0
 41
0.0
  0
VERTEX
  5
   635
  8
0
  6
CONTINUOUS
 10
-514.825780639943
 20
-53.2424575913696
 30
0.0
 40
0.0
 41
0.0
  0
VERTEX
  5
   636
  8
0
  6
CONTINUOUS
 10
-514.830294051859
 20
-53.3862466477509
 30
0.0
 40
0.0
 41
0.0
  0
VERTEX
  5
   637
  8
0
  6
CONTINUOUS
 10
-514.831799731602
 20
-53.5303829410877
 30
0.0
 40
0.0
 41
0.0
  0
VERTEX
  5
   638
  8
0
  6
CONTINUOUS
 10
-514.830294051858
 20
-53.6745192344245
 30
0.0
 40
0.0
 41
0.0
  0
VERTEX
  5
   639
  8
0
  6
CONTINUOUS
 10
-514.825780639942
 20
-53.8183082908057
 30
0.0
 40
0.0
 41
0.0
  0
VERTEX
  5
   63A
  8
0
  6
CONTINUOUS
 10
-514.818270369057
 20
-53.9614037098003
 30
0.0
 40
0.0
 41
0.0
  0
VERTEX
  5
   63B
  8
0
  6
CONTINUOUS
 10
-514.807781332105
 20
-54.10346076201
 30
0.0
 40
0.0
 41
0.0
  0
VERTEX
  5
   63C
  8
0
  6
CONTINUOUS
 10
-514.794338798094
 20
-54.2441372195534
 30
0.0
 40
0.0
 41
0.0
  0
VERTEX
  5
   63D
  8
0
  6
CONTINUOUS
 10
-514.777975151265
 20
-54.3830941805225
 30
0.0
 40
0.0
 41
0.0
  0
VERTEX
  5
   63E
  8
0
  6
CONTINUOUS
 10
-514.758729813078
 20
-54.5199968854271
 30
0.0
 40
0.0
 41
0.0
  0
VERTEX
  5
   63F
  8
0
  6
CONTINUOUS
 10
-514.736649147238
 20
-54.6545155236599
 30
0.0
 40
0.0
 41
0.0
  0
VERTEX
  5
   640
  8
0
  6
CONTINUOUS
 10
-514.711786348003
 20
-54.7863260280388
 30
0.0
 40
0.0
 41
0.0
  0
VERTEX
  5
   641
  8
0
  6
CONTINUOUS
 10
-514.684201312034
 20
-54.9151108555137
 30
0.0
 40
0.0
 41
0.0
  0
VERTEX
  5
   642
  8
0
  6
CONTINUOUS
 10
-514.653960494099
 20
-55.0405597521548
 30
0.0
 40
0.0
 41
0.0
  0
VERTEX
  5
   643
  8
0
  6
CONTINUOUS
 10
-514.621136746976
 20
-55.1623705005822
 30
0.0
 40
0.0
 41
0.0
  0
VERTEX
  5
   644
  8
0
  6
CONTINUOUS
 10
-514.585809145948
 20
-55.2802496480336
 30
0.0
 40
0.0
 41
0.0
  0
VERTEX
  5
   645
  8
0
  6
CONTINUOUS
 10
-514.548062798301
 20
-55.3939132133177
 30
0.0
 40
0.0
 41
0.0
  0
VERTEX
  5
   646
  8
0
  6
CONTINUOUS
 10
-514.507988638291
 20
-55.50308737095
 30
0.0
 40
0.0
 41
0.0
  0
VERTEX
  5
   647
  8
0
  6
CONTINUOUS
 10
-514.46568320808
 20
-55.6075091108222
 30
0.0
 40
0.0
 41
0.0
  0
VERTEX
  5
   648
  8
0
  6
CONTINUOUS
 10
-514.443725412518
 20
-55.6578587472566
 30
0.0
 40
0.0
 41
0.0
  0
VERTEX
  5
   649
  8
0
  6
CONTINUOUS
 10
-514.421248425155
 20
-55.7069268718168
 30
0.0
 40
0.0
 41
0.0
  0
VERTEX
  5
   64A
  8
0
  6
CONTINUOUS
 10
-514.398265785289
 20
-55.7546839276994
 30
0.0
 40
0.0
 41
0.0
  0
VERTEX
  5
   64B
  8
0
  6
CONTINUOUS
 10
-514.374791336801
 20
-55.8011011478396
 30
0.0
 40
0.0
 41
0.0
  0
VERTEX
  5
   64C
  8
0
  6
CONTINUOUS
 10
-514.350839219822
 20
-55.8461505722396
 30
0.0
 40
0.0
 41
0.0
  0
VERTEX
  5
   64D
  8
0
  6
CONTINUOUS
 10
-514.326423862212
 20
-55.8898050648108
 30
0.0
 40
0.0
 41
0.0
  0
VERTEX
  5
   64E
  8
0
  6
CONTINUOUS
 10
-514.301559970868
 20
-55.9320383297191
 30
0.0
 40
0.0
 41
0.0
  0
VERTEX
  5
   64F
  8
0
  6
CONTINUOUS
 10
-514.276262522871
 20
-55.972824927225
 30
0.0
 40
0.0
 41
0.0
  0
VERTEX
  5
   650
  8
0
  6
CONTINUOUS
 10
-514.250546756455
 20
-56.0121402890072
 30
0.0
 40
0.0
 41
0.0
  0
VERTEX
  5
   651
  8
0
  6
CONTINUOUS
 10
-514.224428161837
 20
-56.049960732962
 30
0.0
 40
0.0
 41
0.0
  0
VERTEX
  5
   652
  8
0
  6
CONTINUOUS
 10
-514.197922471883
 20
-56.0862634774679
 30
0.0
 40
0.0
 41
0.0
  0
VERTEX
  5
   653
  8
0
  6
CONTINUOUS
 10
-514.171045652628
 20
-56.1210266551093
 30
0.0
 40
0.0
 41
0.0
  0
VERTEX
  5
   654
  8
0
  6
CONTINUOUS
 10
-514.143813893664
 20
-56.1542293258478
 30
0.0
 40
0.0
 41
0.0
  0
VERTEX
  5
   655
  8
0
  6
CONTINUOUS
 10
-514.116243598383
 20
-56.185851489636
 30
0.0
 40
0.0
 41
0.0
  0
VERTEX
  5
   656
  8
0
  6
CONTINUOUS
 10
-514.088351374102
 20
-56.2158740984649
 30
0.0
 40
0.0
 41
0.0
  0
VERTEX
  5
   657
  8
0
  6
CONTINUOUS
 10
-514.060154022052
 20
-56.2442790678376
 30
0.0
 40
0.0
 41
0.0
  0
VERTEX
  5
   658
  8
0
  6
CONTINUOUS
 10
-514.031668527264
 20
-56.2710492876627
 30
0.0
 40
0.0
 41
0.0
  0
VERTEX
  5
   659
  8
0
  6
CONTINUOUS
 10
-514.002912048336
 20
-56.2961686325607
 30
0.0
 40
0.0
 41
0.0
  0
VERTEX
  5
   65A
  8
0
  6
CONTINUOUS
 10
-513.973901907094
 20
-56.3196219715776
 30
0.0
 40
0.0
 41
0.0
  0
VERTEX
  5
   65B
  8
0
  6
CONTINUOUS
 10
-513.944655578163
 20
-56.3413951772988
 30
0.0
 40
0.0
 41
0.0
  0
VERTEX
  5
   65C
  8
0
  6
CONTINUOUS
 10
-513.915190678439
 20
-56.3614751343595
 30
0.0
 40
0.0
 41
0.0
  0
VERTEX
  5
   65D
  8
0
  6
CONTINUOUS
 10
-513.885524956474
 20
-56.3798497473443
 30
0.0
 40
0.0
 41
0.0
  0
VERTEX
  5
   65E
  8
0
  6
CONTINUOUS
 10
-513.855676281791
 20
-56.3965079480734
 30
0.0
 40
0.0
 41
0.0
  0
VERTEX
  5
   65F
  8
0
  6
CONTINUOUS
 10
-513.825662634115
 20
-56.4114397022696
 30
0.0
 40
0.0
 41
0.0
  0
VERTEX
  5
   660
  8
0
  6
CONTINUOUS
 10
-513.795502092545
 20
-56.4246360156026
 30
0.0
 40
0.0
 41
0.0
  0
VERTEX
  5
   661
  8
0
  6
CONTINUOUS
 10
-513.765212824664
 20
-56.4360889391065
 30
0.0
 40
0.0
 41
0.0
  0
VERTEX
  5
   662
  8
0
  6
CONTINUOUS
 10
-513.734813075594
 20
-56.4457915739686
 30
0.0
 40
0.0
 41
0.0
  0
VERTEX
  5
   663
  8
0
  6
CONTINUOUS
 10
-513.704321157007
 20
-56.4537380756844
 30
0.0
 40
0.0
 41
0.0
  0
VERTEX
  5
   664
  8
0
  6
CONTINUOUS
 10
-513.673755436094
 20
-56.4599236575784
 30
0.0
 40
0.0
 41
0.0
  0
VERTEX
  5
   665
  8
0
  6
CONTINUOUS
 10
-513.643134324504
 20
-56.4643445936874
 30
0.0
 40
0.0
 41
0.0
  0
VERTEX
  5
   666
  8
0
  6
CONTINUOUS
 10
-513.612476267248
 20
-56.4669982210047
 30
0.0
 40
0.0
 41
0.0
  0
VERTEX
  5
   667
  8
0
  6
CONTINUOUS
 10
-513.581799731595
 20
-56.4678829410845
 30
0.0
 40
0.0
 41
0.0
  0
SEQEND
  5
   668
  8
0
  6
CONTINUOUS
 62
   218
  0
POLYLINE
  5
   669
  8
0
  6
CONTINUOUS
 62
   218
 66
     1
 10
0.0
 20
0.0
 30
0.0
  0
VERTEX
  5
   66A
  8
0
  6
CONTINUOUS
 10
-513.581799731613
 20
-44.7178829410845
 30
0.0
 40
0.0
 41
0.0
  0
VERTEX
  5
   66B
  8
0
  6
CONTINUOUS
 10
-513.612476267266
 20
-44.7187676611647
 30
0.0
 40
0.0
 41
0.0
  0
VERTEX
  5
   66C
  8
0
  6
CONTINUOUS
 10
-513.643134324522
 20
-44.7214212884824
 30
0.0
 40
0.0
 41
0.0
  0
VERTEX
  5
   66D
  8
0
  6
CONTINUOUS
 10
-513.673755436112
 20
-44.7258422245917
 30
0.0
 40
0.0
 41
0.0
  0
VERTEX
  5
   66E
  8
0
  6
CONTINUOUS
 10
-513.704321157025
 20
-44.732027806486
 30
0.0
 40
0.0
 41
0.0
  0
VERTEX
  5
   66F
  8
0
  6
CONTINUOUS
 10
-513.734813075612
 20
-44.7399743082021
 30
0.0
 40
0.0
 41
0.0
  0
VERTEX
  5
   670
  8
0
  6
CONTINUOUS
 10
-513.765212824682
 20
-44.7496769430646
 30
0.0
 40
0.0
 41
0.0
  0
VERTEX
  5
   671
  8
0
  6
CONTINUOUS
 10
-513.795502092563
 20
-44.7611298665689
 30
0.0
 40
0.0
 41
0.0
  0
VERTEX
  5
   672
  8
0
  6
CONTINUOUS
 10
-513.825662634133
 20
-44.7743261799022
 30
0.0
 40
0.0
 41
0.0
  0
VERTEX
  5
   673
  8
0
  6
CONTINUOUS
 10
-513.855676281809
 20
-44.7892579340988
 30
0.0
 40
0.0
 41
0.0
  0
VERTEX
  5
   674
  8
0
  6
CONTINUOUS
 10
-513.885524956492
 20
-44.8059161348282
 30
0.0
 40
0.0
 41
0.0
  0
VERTEX
  5
   675
  8
0
  6
CONTINUOUS
 10
-513.915190678456
 20
-44.8242907478134
 30
0.0
 40
0.0
 41
0.0
  0
VERTEX
  5
   676
  8
0
  6
CONTINUOUS
 10
-513.944655578181
 20
-44.8443707048744
 30
0.0
 40
0.0
 41
0.0
  0
VERTEX
  5
   677
  8
0
  6
CONTINUOUS
 10
-513.973901907111
 20
-44.866143910596
 30
0.0
 40
0.0
 41
0.0
  0
VERTEX
  5
   678
  8
0
  6
CONTINUOUS
 10
-514.002912048353
 20
-44.8895972496132
 30
0.0
 40
0.0
 41
0.0
  0
VERTEX
  5
   679
  8
0
  6
CONTINUOUS
 10
-514.031668527281
 20
-44.9147165945116
 30
0.0
 40
0.0
 41
0.0
  0
VERTEX
  5
   67A
  8
0
  6
CONTINUOUS
 10
-514.060154022069
 20
-44.941486814337
 30
0.0
 40
0.0
 41
0.0
  0
VERTEX
  5
   67B
  8
0
  6
CONTINUOUS
 10
-514.088351374118
 20
-44.9698917837101
 30
0.0
 40
0.0
 41
0.0
  0
VERTEX
  5
   67C
  8
0
  6
CONTINUOUS
 10
-514.1162435984
 20
-44.9999143925394
 30
0.0
 40
0.0
 41
0.0
  0
VERTEX
  5
   67D
  8
0
  6
CONTINUOUS
 10
-514.14381389368
 20
-45.0315365563279
 30
0.0
 40
0.0
 41
0.0
  0
VERTEX
  5
   67E
  8
0
  6
CONTINUOUS
 10
-514.171045652644
 20
-45.0647392270667
 30
0.0
 40
0.0
 41
0.0
  0
VERTEX
  5
   67F
  8
0
  6
CONTINUOUS
 10
-514.197922471899
 20
-45.0995024047085
 30
0.0
 40
0.0
 41
0.0
  0
VERTEX
  5
   680
  8
0
  6
CONTINUOUS
 10
-514.224428161853
 20
-45.1358051492148
 30
0.0
 40
0.0
 41
0.0
  0
VERTEX
  5
   681
  8
0
  6
CONTINUOUS
 10
-514.25054675647
 20
-45.1736255931699
 30
0.0
 40
0.0
 41
0.0
  0
VERTEX
  5
   682
  8
0
  6
CONTINUOUS
 10
-514.276262522886
 20
-45.2129409549524
 30
0.0
 40
0.0
 41
0.0
  0
VERTEX
  5
   683
  8
0
  6
CONTINUOUS
 10
-514.301559970884
 20
-45.2537275524586
 30
0.0
 40
0.0
 41
0.0
  0
VERTEX
  5
   684
  8
0
  6
CONTINUOUS
 10
-514.326423862227
 20
-45.2959608173673
 30
0.0
 40
0.0
 41
0.0
  0
VERTEX
  5
   685
  8
0
  6
CONTINUOUS
 10
-514.350839219837
 20
-45.3396153099388
 30
0.0
 40
0.0
 41
0.0
  0
VERTEX
  5
   686
  8
0
  6
CONTINUOUS
 10
-514.374791336815
 20
-45.3846647343392
 30
0.0
 40
0.0
 41
0.0
  0
VERTEX
  5
   687
  8
0
  6
CONTINUOUS
 10
-514.398265785303
 20
-45.4310819544797
 30
0.0
 40
0.0
 41
0.0
  0
VERTEX
  5
   688
  8
0
  6
CONTINUOUS
 10
-514.421248425169
 20
-45.4788390103626
 30
0.0
 40
0.0
 41
0.0
  0
VERTEX
  5
   689
  8
0
  6
CONTINUOUS
 10
-514.443725412532
 20
-45.5279071349231
 30
0.0
 40
0.0
 41
0.0
  0
VERTEX
  5
   68A
  8
0
  6
CONTINUOUS
 10
-514.487108585299
 20
-45.6298575909284
 30
0.0
 40
0.0
 41
0.0
  0
VERTEX
  5
   68B
  8
0
  6
CONTINUOUS
 10
-514.528310789743
 20
-45.7366877149173
 30
0.0
 40
0.0
 41
0.0
  0
VERTEX
  5
   68C
  8
0
  6
CONTINUOUS
 10
-514.567232766142
 20
-45.8481401437639
 30
0.0
 40
0.0
 41
0.0
  0
VERTEX
  5
   68D
  8
0
  6
CONTINUOUS
 10
-514.603780748048
 20
-45.9639463788051
 30
0.0
 40
0.0
 41
0.0
  0
VERTEX
  5
   68E
  8
0
  6
CONTINUOUS
 10
-514.637866688171
 20
-46.0838274326771
 30
0.0
 40
0.0
 41
0.0
  0
VERTEX
  5
   68F
  8
0
  6
CONTINUOUS
 10
-514.669408470494
 20
-46.2074945014209
 30
0.0
 40
0.0
 41
0.0
  0
VERTEX
  5
   690
  8
0
  6
CONTINUOUS
 10
-514.698330108102
 20
-46.3346496602358
 30
0.0
 40
0.0
 41
0.0
  0
VERTEX
  5
   691
  8
0
  6
CONTINUOUS
 10
-514.711786348011
 20
-46.399439854145
 30
0.0
 40
0.0
 41
0.0
  0
VERTEX
  5
   692
  8
0
  6
CONTINUOUS
 10
-514.736649147246
 20
-46.5312503585244
 30
0.0
 40
0.0
 41
0.0
  0
VERTEX
  5
   693
  8
0
  6
CONTINUOUS
 10
-514.758729813085
 20
-46.6657689967575
 30
0.0
 40
0.0
 41
0.0
  0
VERTEX
  5
   694
  8
0
  6
CONTINUOUS
 10
-514.777975151271
 20
-46.8026717016625
 30
0.0
 40
0.0
 41
0.0
  0
VERTEX
  5
   695
  8
0
  6
CONTINUOUS
 10
-514.794338798098
 20
-46.9416286626319
 30
0.0
 40
0.0
 41
0.0
  0
VERTEX
  5
   696
  8
0
  6
CONTINUOUS
 10
-514.807781332108
 20
-47.0823051201756
 30
0.0
 40
0.0
 41
0.0
  0
VERTEX
  5
   697
  8
0
  6
CONTINUOUS
 10
-514.81827036906
 20
-47.2243621723856
 30
0.0
 40
0.0
 41
0.0
  0
VERTEX
  5
   698
  8
0
  6
CONTINUOUS
 10
-514.825780639944
 20
-47.3674575913804
 30
0.0
 40
0.0
 41
0.0
  0
VERTEX
  5
   699
  8
0
  6
CONTINUOUS
 10
-514.830294051859
 20
-47.5112466477618
 30
0.0
 40
0.0
 41
0.0
  0
VERTEX
  5
   69A
  8
0
  6
CONTINUOUS
 10
-514.831799731602
 20
-47.6553829410987
 30
0.0
 40
0.0
 41
0.0
  0
VERTEX
  5
   69B
  8
0
  6
CONTINUOUS
 10
-514.830294051858
 20
-47.7995192344356
 30
0.0
 40
0.0
 41
0.0
  0
VERTEX
  5
   69C
  8
0
  6
CONTINUOUS
 10
-514.825780639941
 20
-47.943308290817
 30
0.0
 40
0.0
 41
0.0
  0
VERTEX
  5
   69D
  8
0
  6
CONTINUOUS
 10
-514.818270369056
 20
-48.0864037098116
 30
0.0
 40
0.0
 41
0.0
  0
VERTEX
  5
   69E
  8
0
  6
CONTINUOUS
 10
-514.807781332104
 20
-48.2284607620213
 30
0.0
 40
0.0
 41
0.0
  0
VERTEX
  5
   69F
  8
0
  6
CONTINUOUS
 10
-514.794338798092
 20
-48.3691372195647
 30
0.0
 40
0.0
 41
0.0
  0
VERTEX
  5
   6A0
  8
0
  6
CONTINUOUS
 10
-514.777975151264
 20
-48.5080941805338
 30
0.0
 40
0.0
 41
0.0
  0
VERTEX
  5
   6A1
  8
0
  6
CONTINUOUS
 10
-514.758729813077
 20
-48.6449968854383
 30
0.0
 40
0.0
 41
0.0
  0
VERTEX
  5
   6A2
  8
0
  6
CONTINUOUS
 10
-514.736649147236
 20
-48.779515523671
 30
0.0
 40
0.0
 41
0.0
  0
VERTEX
  5
   6A3
  8
0
  6
CONTINUOUS
 10
-514.711786348001
 20
-48.9113260280498
 30
0.0
 40
0.0
 41
0.0
  0
VERTEX
  5
   6A4
  8
0
  6
CONTINUOUS
 10
-514.684201312032
 20
-49.0401108555245
 30
0.0
 40
0.0
 41
0.0
  0
VERTEX
  5
   6A5
  8
0
  6
CONTINUOUS
 10
-514.653960494096
 20
-49.1655597521654
 30
0.0
 40
0.0
 41
0.0
  0
VERTEX
  5
   6A6
  8
0
  6
CONTINUOUS
 10
-514.621136746973
 20
-49.2873705005926
 30
0.0
 40
0.0
 41
0.0
  0
VERTEX
  5
   6A7
  8
0
  6
CONTINUOUS
 10
-514.585809145945
 20
-49.4052496480437
 30
0.0
 40
0.0
 41
0.0
  0
VERTEX
  5
   6A8
  8
0
  6
CONTINUOUS
 10
-514.548062798298
 20
-49.5189132133275
 30
0.0
 40
0.0
 41
0.0
  0
VERTEX
  5
   6A9
  8
0
  6
CONTINUOUS
 10
-514.507988638287
 20
-49.6280873709595
 30
0.0
 40
0.0
 41
0.0
  0
VERTEX
  5
   6AA
  8
0
  6
CONTINUOUS
 10
-514.465683208076
 20
-49.7325091108314
 30
0.0
 40
0.0
 41
0.0
  0
VERTEX
  5
   6AB
  8
0
  6
CONTINUOUS
 10
-514.443725412514
 20
-49.7828587472656
 30
0.0
 40
0.0
 41
0.0
  0
VERTEX
  5
   6AC
  8
0
  6
CONTINUOUS
 10
-514.421248425151
 20
-49.8319268718256
 30
0.0
 40
0.0
 41
0.0
  0
VERTEX
  5
   6AD
  8
0
  6
CONTINUOUS
 10
-514.398265785285
 20
-49.8796839277079
 30
0.0
 40
0.0
 41
0.0
  0
VERTEX
  5
   6AE
  8
0
  6
CONTINUOUS
 10
-514.374791336797
 20
-49.9261011478479
 30
0.0
 40
0.0
 41
0.0
  0
VERTEX
  5
   6AF
  8
0
  6
CONTINUOUS
 10
-514.350839219818
 20
-49.9711505722478
 30
0.0
 40
0.0
 41
0.0
  0
VERTEX
  5
   6B0
  8
0
  6
CONTINUOUS
 10
-514.326423862207
 20
-50.0148050648187
 30
0.0
 40
0.0
 41
0.0
  0
VERTEX
  5
   6B1
  8
0
  6
CONTINUOUS
 10
-514.301559970864
 20
-50.0570383297268
 30
0.0
 40
0.0
 41
0.0
  0
VERTEX
  5
   6B2
  8
0
  6
CONTINUOUS
 10
-514.276262522866
 20
-50.0978249272324
 30
0.0
 40
0.0
 41
0.0
  0
VERTEX
  5
   6B3
  8
0
  6
CONTINUOUS
 10
-514.25054675645
 20
-50.1371402890144
 30
0.0
 40
0.0
 41
0.0
  0
VERTEX
  5
   6B4
  8
0
  6
CONTINUOUS
 10
-514.224428161832
 20
-50.1749607329689
 30
0.0
 40
0.0
 41
0.0
  0
VERTEX
  5
   6B5
  8
0
  6
CONTINUOUS
 10
-514.197922471878
 20
-50.2112634774746
 30
0.0
 40
0.0
 41
0.0
  0
VERTEX
  5
   6B6
  8
0
  6
CONTINUOUS
 10
-514.171045652623
 20
-50.2460266551157
 30
0.0
 40
0.0
 41
0.0
  0
VERTEX
  5
   6B7
  8
0
  6
CONTINUOUS
 10
-514.143813893659
 20
-50.2792293258539
 30
0.0
 40
0.0
 41
0.0
  0
VERTEX
  5
   6B8
  8
0
  6
CONTINUOUS
 10
-514.116243598378
 20
-50.3108514896419
 30
0.0
 40
0.0
 41
0.0
  0
VERTEX
  5
   6B9
  8
0
  6
CONTINUOUS
 10
-514.088351374096
 20
-50.3408740984705
 30
0.0
 40
0.0
 41
0.0
  0
VERTEX
  5
   6BA
  8
0
  6
CONTINUOUS
 10
-514.060154022046
 20
-50.3692790678429
 30
0.0
 40
0.0
 41
0.0
  0
VERTEX
  5
   6BB
  8
0
  6
CONTINUOUS
 10
-514.031668527259
 20
-50.3960492876677
 30
0.0
 40
0.0
 41
0.0
  0
VERTEX
  5
   6BC
  8
0
  6
CONTINUOUS
 10
-514.00291204833
 20
-50.4211686325654
 30
0.0
 40
0.0
 41
0.0
  0
VERTEX
  5
   6BD
  8
0
  6
CONTINUOUS
 10
-513.973901907088
 20
-50.444621971582
 30
0.0
 40
0.0
 41
0.0
  0
VERTEX
  5
   6BE
  8
0
  6
CONTINUOUS
 10
-513.944655578157
 20
-50.4663951773029
 30
0.0
 40
0.0
 41
0.0
  0
VERTEX
  5
   6BF
  8
0
  6
CONTINUOUS
 10
-513.915190678433
 20
-50.4864751343633
 30
0.0
 40
0.0
 41
0.0
  0
VERTEX
  5
   6C0
  8
0
  6
CONTINUOUS
 10
-513.885524956468
 20
-50.5048497473477
 30
0.0
 40
0.0
 41
0.0
  0
VERTEX
  5
   6C1
  8
0
  6
CONTINUOUS
 10
-513.855676281785
 20
-50.5215079480765
 30
0.0
 40
0.0
 41
0.0
  0
VERTEX
  5
   6C2
  8
0
  6
CONTINUOUS
 10
-513.825662634109
 20
-50.5364397022724
 30
0.0
 40
0.0
 41
0.0
  0
VERTEX
  5
   6C3
  8
0
  6
CONTINUOUS
 10
-513.795502092539
 20
-50.549636015605
 30
0.0
 40
0.0
 41
0.0
  0
VERTEX
  5
   6C4
  8
0
  6
CONTINUOUS
 10
-513.765212824658
 20
-50.5610889391087
 30
0.0
 40
0.0
 41
0.0
  0
VERTEX
  5
   6C5
  8
0
  6
CONTINUOUS
 10
-513.734813075588
 20
-50.5707915739704
 30
0.0
 40
0.0
 41
0.0
  0
VERTEX
  5
   6C6
  8
0
  6
CONTINUOUS
 10
-513.704321157001
 20
-50.5787380756858
 30
0.0
 40
0.0
 41
0.0
  0
VERTEX
  5
   6C7
  8
0
  6
CONTINUOUS
 10
-513.673755436088
 20
-50.5849236575795
 30
0.0
 40
0.0
 41
0.0
  0
VERTEX
  5
   6C8
  8
0
  6
CONTINUOUS
 10
-513.643134324498
 20
-50.5893445936881
 30
0.0
 40
0.0
 41
0.0
  0
VERTEX
  5
   6C9
  8
0
  6
CONTINUOUS
 10
-513.612476267242
 20
-50.5919982210051
 30
0.0
 40
0.0
 41
0.0
  0
VERTEX
  5
   6CA
  8
0
  6
CONTINUOUS
 10
-513.581799731589
 20
-50.5928829410845
 30
0.0
 40
0.0
 41
0.0
  0
SEQEND
  5
   6CB
  8
0
  6
CONTINUOUS
 62
   218
  0
INSERT
  5
   6CC
  8
0
  6
CONTINUOUS
 62
   218
  2
*HATCH1099
 10
-507.331787109375
 20
-37.5863952636719
 30
0.0
 41
0.5
 42
0.5
 50
89.9999999480344
 43
0.5
  0
LINE
  5
   6CD
  8
0
  6
CONTINUOUS
 62
    98
 10
-457.20679473877
 20
-69.9678250122247
 30
0.0
 11
-506.331787109375
 21
-69.9678250122247
 31
0.0
  0
LINE
  5
   6CE
  8
0
  6
CONTINUOUS
 62
    98
 10
-506.331787109375
 20
-69.9678250122247
 30
0.0
 11
-506.331787109375
 21
-56.4678829410845
 31
0.0
  0
ARC
  5
   6CF
  8
0
  6
CONTINUOUS
 62
    98
 10
-457.20679473877
 20
-69.3428250122247
 30
0.0
 40
0.625
 50
269.999999948034
 51
359.999999948034
  0
LINE
  5
   6D0
  8
0
  6
CONTINUOUS
 62
    98
 10
-456.58179473877
 20
-69.3428250122247
 30
0.0
 11
-456.58179473877
 21
-49.4678250122247
 31
0.0
  0
LINE
  5
   6D1
  8
0
  6
CONTINUOUS
 62
    98
 10
-456.58179473877
 20
-49.4678250122247
 30
0.0
 11
-456.58179473877
 21
-35.4678250122247
 31
0.0
  0
LINE
  5
   6D2
  8
0
  6
CONTINUOUS
 62
    98
 10
-456.58179473877
 20
-35.4678250122247
 30
0.0
 11
-457.08179473877
 21
-35.4678250122247
 31
0.0
  0
LINE
  5
   6D3
  8
0
  6
CONTINUOUS
 62
    98
 10
-457.08179473877
 20
-34.9678250122247
 30
0.0
 11
-458.081790924072
 21
-34.9678250122247
 31
0.0
  0
LINE
  5
   6D4
  8
0
  6
CONTINUOUS
 62
    98
 10
-457.08179473877
 20
-35.4678250122247
 30
0.0
 11
-457.08179473877
 21
-34.9678250122247
 31
0.0
  0
LINE
  5
   6D5
  8
0
  6
CONTINUOUS
 62
    98
 10
-457.831787109375
 20
-48.3178250122247
 30
0.0
 11
-457.831787109375
 21
-34.9678250122247
 31
0.0
  0
LINE
  5
   6D6
  8
0
  6
CONTINUOUS
 62
    98
 10
-457.831787109375
 20
-46.7524651500132
 30
0.0
 11
-457.831787109375
 21
-43.9678250122247
 31
0.0
  0
LINE
  5
   6D7
  8
0
  6
CONTINUOUS
 62
    98
 10
-457.831787109375
 20
-58.8178250122247
 30
0.0
 11
-469.08179473877
 21
-58.8178250122247
 31
0.0
  0
LINE
  5
   6D8
  8
0
  6
CONTINUOUS
 62
    98
 10
-457.831787109375
 20
-49.3178250122247
 30
0.0
 11
-469.08179473877
 21
-49.3178250122247
 31
0.0
  0
LINE
  5
   6D9
  8
0
  6
CONTINUOUS
 62
    98
 10
-457.831787109375
 20
-59.8178250122247
 30
0.0
 11
-467.83179473877
 21
-59.8178250122247
 31
0.0
  0
LINE
  5
   6DA
  8
0
  6
CONTINUOUS
 62
    98
 10
-457.831787109375
 20
-48.3178250122247
 30
0.0
 11
-467.83179473877
 21
-48.3178250122247
 31
0.0
  0
LINE
  5
   6DB
  8
0
  6
CONTINUOUS
 62
     1
 10
-467.83179473877
 20
-48.3178250122247
 30
0.0
 11
-467.83179473877
 21
-47.3178250122247
 31
0.0
  0
LINE
  5
   6DC
  8
0
  6
CONTINUOUS
 62
    98
 10
-467.83179473877
 20
-69.9678250122247
 30
0.0
 11
-467.83179473877
 21
-59.8178250122247
 31
0.0
  0
LINE
  5
   6DD
  8
0
  6
CONTINUOUS
 62
    98
 10
-457.831787109375
 20
-69.9678250122247
 30
0.0
 11
-457.831787109375
 21
-59.8178250122247
 31
0.0
  0
LINE
  5
   6DE
  8
0
  6
CONTINUOUS
 62
    98
 10
-457.831787109375
 20
-58.8178250122247
 30
0.0
 11
-457.831787109375
 21
-49.3178250122247
 31
0.0
  0
LINE
  5
   6DF
  8
0
  6
CONTINUOUS
 62
    98
 10
-469.08179473877
 20
-68.9678250122247
 30
0.0
 11
-506.331787109375
 21
-68.9678250122247
 31
0.0
  0
LINE
  5
   6E0
  8
0
  6
CONTINUOUS
 62
    98
 10
-469.08179473877
 20
-67.9678250122247
 30
0.0
 11
-506.331787109375
 21
-67.9678250122247
 31
0.0
  0
LINE
  5
   6E1
  8
0
  6
CONTINUOUS
 62
    98
 10
-469.08179473877
 20
-66.9678250122247
 30
0.0
 11
-506.331787109375
 21
-66.9678250122247
 31
0.0
  0
LINE
  5
   6E2
  8
0
  6
CONTINUOUS
 62
    98
 10
-467.83179473877
 20
-47.3178250122247
 30
0.0
 11
-484.831799731602
 21
-47.3178250122247
 31
0.0
  0
LINE
  5
   6E3
  8
0
  6
CONTINUOUS
 62
    98
 10
-469.08179473877
 20
-48.3178250122247
 30
0.0
 11
-484.831799731602
 21
-48.3178250122247
 31
0.0
  0
LINE
  5
   6E4
  8
0
  6
CONTINUOUS
 62
    98
 10
-469.08179473877
 20
-69.9678250122247
 30
0.0
 11
-469.08179473877
 21
-48.3178250122247
 31
0.0
  0
LINE
  5
   6E5
  8
0
  6
CONTINUOUS
 62
     1
 10
-475.08179473877
 20
-48.3178250122247
 30
0.0
 11
-475.08179473877
 21
-47.3178250122247
 31
0.0
  0
INSERT
  5
   6E6
  8
0
  6
CONTINUOUS
 62
    98
  2
*HATCH1100
 10
-507.331787109375
 20
-37.5863952636719
 30
0.0
 41
0.5
 42
0.5
 50
89.9999999480344
 43
0.5
  0
LINE
  5
   6E7
  8
0
  6
DASHDOT
 62
     7
 10
-507.331787109375
 20
-82.2941457928097
 30
0.0
 11
-507.331787109375
 21
-56.4678829410845
 31
0.0
  0
LINE
  5
   6E8
  8
0
  6
DASHDOT
 62
     7
 10
-508.831787109375
 20
-82.3698087287673
 30
0.0
 11
-508.831787109375
 21
-56.4678829410845
 31
0.0
  0
LINE
  5
   6E9
  8
0
  6
CONTINUOUS
 62
     7
 10
-504.695673166277
 20
-82.2941457928097
 30
0.0
 11
-510.900033914802
 21
-82.2184828568521
 31
0.0
  0
CIRCLE
  5
   6EA
  8
0
  6
CONTINUOUS
 62
    56
 10
-479.176648671725
 20
75.9244548129523
 30
0.0
 40
0.15
  0
CIRCLE
  5
   6EB
  8
0
  6
CONTINUOUS
 62
    56
 10
-492.813042640254
 20
-58.5165918584721
 30
0.0
 40
0.15
  0
LINE
  5
   6EC
  8
0
  6
DASHDOT
 62
   218
 10
-503.131182659773
 20
70.0321597289862
 30
0.0
 11
-517.378941953924
 21
70.0321597289862
 31
0.0
  0
LINE
  5
   6ED
  8
0
  6
CONTINUOUS
 62
     7
 10
-510.831787109375
 20
68.0321597289862
 30
0.0
 11
-510.831787109375
 21
72.0321597289862
 31
0.0
  0
LINE
  5
   6EE
  8
0
  6
CONTINUOUS
 62
     7
 10
-512.831787109375
 20
68.7821597289862
 30
0.0
 11
-512.831787109375
 21
71.2821597289862
 31
0.0
  0
LINE
  5
   6EF
  8
0
  6
CONTINUOUS
 62
     7
 10
-508.831787109375
 20
72.0321597289862
 30
0.0
 11
-510.831787109375
 21
72.0321597289862
 31
0.0
  0
LINE
  5
   6F0
  8
0
  6
CONTINUOUS
 62
     7
 10
-508.831787109375
 20
68.0321597289862
 30
0.0
 11
-510.831787109375
 21
68.0321597289862
 31
0.0
  0
LINE
  5
   6F1
  8
0
  6
CONTINUOUS
 62
     7
 10
-508.831787109375
 20
71.2821597289862
 30
0.0
 11
-512.831787109375
 21
71.2821597289862
 31
0.0
  0
LINE
  5
   6F2
  8
0
  6
CONTINUOUS
 62
     7
 10
-508.831787109375
 20
68.7821597289862
 30
0.0
 11
-512.831787109375
 21
68.7821597289862
 31
0.0
  0
LINE
  5
   6F3
  8
0
  6
CONTINUOUS
 62
     7
 10
-508.831787109375
 20
-34.9678402710138
 30
0.0
 11
-510.831787109375
 21
-34.9678402710138
 31
0.0
  0
LINE
  5
   6F4
  8
0
  6
CONTINUOUS
 62
     7
 10
-508.831787109375
 20
-35.7178402710138
 30
0.0
 11
-512.831787109375
 21
-35.7178402710138
 31
0.0
  0
LINE
  5
   6F5
  8
0
  6
CONTINUOUS
 62
     7
 10
-508.831787109375
 20
-38.2178402710138
 30
0.0
 11
-512.831787109375
 21
-38.2178402710138
 31
0.0
  0
LINE
  5
   6F6
  8
0
  6
CONTINUOUS
 62
     7
 10
-508.831787109375
 20
-38.9678402710138
 30
0.0
 11
-510.831787109375
 21
-38.9678402710138
 31
0.0
  0
LINE
  5
   6F7
  8
0
  6
DASHDOT
 62
   218
 10
-503.131182659773
 20
-36.9678402710138
 30
0.0
 11
-517.378941953924
 21
-36.9678402710138
 31
0.0
  0
LINE
  5
   6F8
  8
0
  6
CONTINUOUS
 62
     7
 10
-510.831787109375
 20
-38.9678402710138
 30
0.0
 11
-510.831787109375
 21
-34.9678402710138
 31
0.0
  0
LINE
  5
   6F9
  8
0
  6
CONTINUOUS
 62
     7
 10
-512.831787109375
 20
-38.2178402710138
 30
0.0
 11
-512.831787109375
 21
-35.7178402710138
 31
0.0
  0
CIRCLE
  5
   6FA
  8
0
  6
CONTINUOUS
 62
     7
 10
-510.183103926575
 20
69.7086949300221
 30
0.0
 40
0.1
  0
TEXT
  5
   6FB
  8
0
  6
CONTINUOUS
 62
     1
 10
-455.570476984393
 20
-149.981292858809
 30
0.0
 40
2.00000008940697
  1
M 3076 95-01-16.
 50
359.999999948034
 41
0.749999861419206
 72
     2
 11
-431.870480311823
 21
-149.981292880185
 31
0.0
  0
INSERT
  5
   6FC
  8
0
  6
CONTINUOUS
 62
     7
  2
*UDIM1549
 10
0.0
 20
0.0
 30
0.0
  0
INSERT
  5
   6FD
  8
0
  6
CONTINUOUS
 62
     7
  2
*UDIM1550
 10
0.0
 20
0.0
 30
0.0
  0
INSERT
  5
   6FE
  8
0
  6
CONTINUOUS
 62
     7
  2
*UDIM1551
 10
0.0
 20
0.0
 30
0.0
  0
TEXT
  5
   6FF
  8
0
  6
CONTINUOUS
 62
     1
 10
-462.257568316566
 20
-134.968375720407
 30
0.0
 40
2.00000008940697
  1
93-04-05 ROTA S.
 50
359.999999948034
 41
0.749999861419206
 72
     2
 11
-438.557571643995
 21
-134.968375741783
 31
0.0
  0
INSERT
  5
   700
  8
0
  6
CONTINUOUS
 62
     7
  2
*UDIM1552
 10
0.0
 20
0.0
 30
0.0
  0
INSERT
  5
   701
  8
0
  6
CONTINUOUS
 62
     7
  2
*UDIM1553
 10
0.0
 20
0.0
 30
0.0
  0
TEXT
  5
   702
  8
0
  6
CONTINUOUS
 62
     5
 10
-414.758270278367
 20
-8.63628256992293E-2
 30
0.0
 40
3.00000002980232
  1
=          =
 50
89.9999999480344
 41
0.916666604744064
 72
     2
 11
-414.758270248977
 21
32.3636353002314
 31
0.0
  0
INSERT
  5
   703
  8
0
  6
CONTINUOUS
 62
     7
  2
*UDIM1554
 10
0.0
 20
0.0
 30
0.0
  0
INSERT
  5
   704
  8
0
  6
CONTINUOUS
 62
     7
  2
*UDIM1555
 10
0.0
 20
0.0
 30
0.0
  0
INSERT
  5
   705
  8
0
  6
CONTINUOUS
 62
     7
  2
*UDIM1556
 10
0.0
 20
0.0
 30
0.0
  0
INSERT
  5
   706
  8
0
  6
CONTINUOUS
 62
     7
  2
*UDIM1557
 10
0.0
 20
0.0
 30
0.0
  0
INSERT
  5
   707
  8
0
  6
CONTINUOUS
 62
     7
  2
*UDIM1558
 10
0.0
 20
0.0
 30
0.0
  0
INSERT
  5
   708
  8
0
  6
CONTINUOUS
 62
     7
  2
*UDIM1559
 10
0.0
 20
0.0
 30
0.0
  0
INSERT
  5
   709
  8
0
  6
CONTINUOUS
 62
     7
  2
*UDIM1560
 10
0.0
 20
0.0
 30
0.0
  0
INSERT
  5
   70A
  8
0
  6
CONTINUOUS
 62
     7
  2
*UDIM1561
 10
0.0
 20
0.0
 30
0.0
  0
INSERT
  5
   70B
  8
0
  6
CONTINUOUS
 62
     7
  2
*UDIM1562
 10
0.0
 20
0.0
 30
0.0
  0
INSERT
  5
   70C
  8
0
  6
CONTINUOUS
 62
     7
  2
*UDIM1563
 10
0.0
 20
0.0
 30
0.0
  0
TEXT
  5
   70D
  8
0
  6
CONTINUOUS
 62
     7
 10
-408.944946201008
 20
16.174381763436
 30
0.0
 40
3.00000002980232
  1
X
 50
359.999999948034
 41
0.916666604744064
 72
     1
 11
-407.84494626522
 21
17.674381777345
 31
0.0
 73
     2
  0
TEXT
  5
   70E
  8
0
  6
CONTINUOUS
 62
     1
 10
-360.440429601881
 20
-160.981749847325
 30
0.0
 40
4.00000017881393
  1
601812/041
 50
359.999999948034
 41
0.937499973922969
 72
     2
 11
-323.690429002109
 21
-160.981749880472
 31
0.0
  0
TEXT
  5
   70F
  8
0
  6
CONTINUOUS
 62
     1
 10
-342.354736263911
 20
-152.000167766064
 30
0.0
 40
3.00000002980232
  1
S5
 50
359.999999948034
 41
0.916666604744064
 72
     2
 11
-337.40473655349
 21
-152.000167770529
 31
0.0
  0
TEXT
  5
   710
  8
0
  6
CONTINUOUS
 62
     1
 10
-370.889156118939
 20
-133.689895654896
 30
0.0
 40
2.00000008940697
  1
3POLE LOW VOLTAGE M.C.C.B SERIES ISOMAX
 50
359.999999948034
 41
0.749999861419206
 72
     1
 11
-341.789160197975
 21
-132.68989563644
 31
0.0
 73
     2
  0
TEXT
  5
   711
  8
0
  6
CONTINUOUS
 62
     1
 10
-363.389157038337
 20
-136.689895661661
 30
0.0
 40
2.00000008940697
  1
FIXED VERSION TERMINALS CABLE
 50
359.999999948034
 41
0.749999861419206
 72
     1
 11
-341.789160066841
 21
-135.68989563644
 31
0.0
 73
     2
  0
TEXT
  5
   712
  8
0
  6
CONTINUOUS
 62
     1
 10
-367.686764486293
 20
-141.760162384617
 30
0.0
 40
2.00000008940697
  1
INTERR.AUTOMATICO SERIE ISOMAX
 50
359.999999948034
 41
0.749999861419206
 72
     1
 11
-345.33676761985
 21
-140.760162360072
 31
0.0
 73
     2
  0
TEXT
  5
   713
  8
0
  6
CONTINUOUS
 62
     1
 10
-375.186763304627
 20
-144.760162377853
 30
0.0
 40
2.00000008940697
  1
TRIPOL.ESECUZIONE FISSA TERMINALI X CAVI
 50
359.999999948034
 41
0.749999861419206
 72
     1
 11
-345.336767488716
 21
-143.760162360072
 31
0.0
 73
     2
  0
LINE
  5
   714
  8
0
  6
CONTINUOUS
 62
     7
 10
-622.713242067817
 20
80.0321426391602
 30
0.0
 11
-644.150718688965
 21
80.0321426391602
 31
0.0
  0
LINE
  5
   715
  8
0
  6
CONTINUOUS
 62
     7
 10
-577.650726318359
 20
80.0321426391602
 30
0.0
 11
-599.088242067817
 21
80.0321426391602
 31
0.0
  0
LINE
  5
   716
  8
0
  6
CONTINUOUS
 62
     7
 10
-575.900726318359
 20
68.0321502685547
 30
0.0
 11
-575.900726318359
 21
78.6321426391602
 31
0.0
  0
LINE
  5
   717
  8
0
  6
CONTINUOUS
 62
     7
 10
-645.900718691069
 20
68.0321502685547
 30
0.0
 11
-645.900718691069
 21
78.6321426391601
 31
0.0
  0
CIRCLE
  5
   718
  8
0
  6
CONTINUOUS
 62
     7
 10
-632.775714152356
 20
71.0321696971898
 30
0.0
 40
2.75000604975671
  0
CIRCLE
  5
   719
  8
0
  6
CONTINUOUS
 62
     7
 10
-610.900715048424
 20
71.0322052969959
 30
0.0
 40
2.74996219889917
  0
CIRCLE
  5
   71A
  8
0
  6
CONTINUOUS
 62
     7
 10
-589.025748622765
 20
71.032099881077
 30
0.0
 40
2.75005361163582
  0
ARC
  5
   71B
  8
0
  6
CONTINUOUS
 62
     7
 10
-644.1507319918
 20
79.5321340896633
 30
0.0
 40
0.499990919521533
 50
449.999429635018
 51
540.000998310938
  0
ARC
  5
   71C
  8
0
  6
CONTINUOUS
 62
     7
 10
-577.650742094541
 20
79.5321269201795
 30
0.0
 40
0.500011945625467
 50
360.000541447801
 51
449.999463177363
  0
LINE
  5
   71D
  8
0
  6
CONTINUOUS
 62
     7
 10
-644.650718688965
 20
78.6321426391602
 30
0.0
 11
-645.90071869107
 21
78.6321426391602
 31
0.0
  0
LINE
  5
   71E
  8
0
  6
CONTINUOUS
 62
     7
 10
-575.900726318359
 20
78.6321426391602
 30
0.0
 11
-577.150726318359
 21
78.6321426391602
 31
0.0
  0
LINE
  5
   71F
  8
0
  6
CONTINUOUS
 62
     7
 10
-600.838242067817
 20
80.0321426391602
 30
0.0
 11
-620.963242067817
 21
80.0321426391602
 31
0.0
  0
LINE
  5
   720
  8
0
  6
CONTINUOUS
 62
     7
 10
-624.463228426355
 20
68.0321502685547
 30
0.0
 11
-644.650718688965
 21
68.0321502685547
 31
0.0
  0
LINE
  5
   721
  8
0
  6
CONTINUOUS
 62
     7
 10
-602.588248842301
 20
68.0321502685547
 30
0.0
 11
-619.213228426355
 21
68.0321502685547
 31
0.0
  0
LINE
  5
   722
  8
0
  6
CONTINUOUS
 62
     7
 10
-577.150718688965
 20
68.0321502685547
 30
0.0
 11
-597.338248842301
 21
68.0321502685547
 31
0.0
  0
CIRCLE
  5
   723
  8
0
  6
CONTINUOUS
 62
     7
 10
-632.775718831358
 20
78.0321478012155
 30
0.0
 40
0.699999510271856
  0
CIRCLE
  5
   724
  8
0
  6
CONTINUOUS
 62
     7
 10
-610.900743556774
 20
78.0321463618609
 30
0.0
 40
0.700000602888031
  0
CIRCLE
  5
   725
  8
0
  6
CONTINUOUS
 62
     7
 10
-589.025716903708
 20
78.0321563242803
 30
0.0
 40
0.69999790324502
  0
LINE
  5
   726
  8
0
  6
CONTINUOUS
 62
     7
 10
-597.338161455786
 20
68.0321503117065
 30
0.0
 11
-597.338207232153
 21
70.0321503117689
 31
0.0
  0
LINE
  5
   727
  8
0
  6
CONTINUOUS
 62
     7
 10
-602.588161457161
 20
68.0321503117066
 30
0.0
 11
-602.588207233529
 21
70.0321503117689
 31
0.0
  0
LINE
  5
   728
  8
0
  6
CONTINUOUS
 62
     7
 10
-619.213163374641
 20
68.0321502758857
 30
0.0
 11
-619.213182448127
 21
70.0321502760353
 31
0.0
  0
LINE
  5
   729
  8
0
  6
CONTINUOUS
 62
     7
 10
-624.46316337488
 20
68.0321502758857
 30
0.0
 11
-624.463182448366
 21
70.0321502760354
 31
0.0
  0
ARC
  5
   72A
  8
0
  6
CONTINUOUS
 62
     7
 10
-621.838171257355
 20
70.0321845354362
 30
0.0
 40
2.6250366863301
 50
310.367380667564
 51
589.632619228505
  0
ARC
  5
   72B
  8
0
  6
CONTINUOUS
 62
     7
 10
-599.963232037764
 20
70.0321599148032
 30
0.0
 40
2.62500212995821
 50
310.367323104286
 51
589.632676791782
  0
LINE
  5
   72C
  8
0
  6
CONTINUOUS
 62
     7
 10
-644.650718688965
 20
68.0321502685547
 30
0.0
 11
-644.650718688965
 21
78.6321426391602
 31
0.0
  0
LINE
  5
   72D
  8
0
  6
CONTINUOUS
 62
     7
 10
-577.150718688965
 20
68.0321502685547
 30
0.0
 11
-577.150718688965
 21
78.6321426391602
 31
0.0
  0
LINE
  5
   72E
  8
0
  6
CONTINUOUS
 62
     7
 10
-575.900742067817
 20
-11.7178326416194
 30
0.0
 11
-575.900742067817
 21
-10.7178326416194
 31
0.0
  0
LINE
  5
   72F
  8
0
  6
CONTINUOUS
 62
     7
 10
-645.900742067817
 20
-11.7178326416194
 30
0.0
 11
-645.900742067817
 21
-10.7178326416194
 31
0.0
  0
LINE
  5
   730
  8
0
  6
CONTINUOUS
 62
     7
 10
-575.900742067817
 20
-35.4678326416191
 30
0.0
 11
-575.900742067817
 21
-11.7178326416194
 31
0.0
  0
LINE
  5
   731
  8
0
  6
CONTINUOUS
 62
     7
 10
-645.900742067817
 20
-45.5678326654612
 30
0.0
 11
-645.900742067817
 21
-11.7178341913402
 31
0.0
  0
LINE
  5
   732
  8
0
  6
CONTINUOUS
 62
     7
 10
-644.650742067817
 20
-45.5678326654613
 30
0.0
 11
-645.900742067817
 21
-45.5678326654613
 31
0.0
  0
LINE
  5
   733
  8
0
  6
CONTINUOUS
 62
     7
 10
-644.650742067817
 20
-46.4678326416194
 30
0.0
 11
-644.650742067817
 21
-45.5678326654612
 31
0.0
  0
LINE
  5
   734
  8
0
  6
CONTINUOUS
 62
     7
 10
-625.160744227021
 20
-46.9678326416193
 30
0.0
 11
-644.150742067817
 21
-46.9678326416193
 31
0.0
  0
LINE
  5
   735
  8
0
  6
CONTINUOUS
 62
     1
 10
-644.650742067817
 20
-45.5678326654612
 30
0.0
 11
-644.650742067817
 21
-34.9678322839915
 31
0.0
  0
LINE
  5
   736
  8
0
  6
CONTINUOUS
 62
     1
 10
-624.463242067817
 20
-34.9678326416194
 30
0.0
 11
-644.650742067817
 21
-34.9678326416194
 31
0.0
  0
LINE
  5
   737
  8
0
  6
CONTINUOUS
 62
     1
 10
-602.588242067817
 20
-34.9678326416194
 30
0.0
 11
-619.213242067817
 21
-34.9678326416194
 31
0.0
  0
LINE
  5
   738
  8
0
  6
CONTINUOUS
 62
     1
 10
-577.150742067817
 20
-34.9678326416194
 30
0.0
 11
-597.338242067817
 21
-34.9678326416194
 31
0.0
  0
CIRCLE
  5
   739
  8
0
  6
CONTINUOUS
 62
     1
 10
-632.775742450662
 20
-44.9678332384224
 30
0.0
 40
0.700000042083871
  0
CIRCLE
  5
   73A
  8
0
  6
CONTINUOUS
 62
     1
 10
-632.775741948276
 20
-37.9678327578768
 30
0.0
 40
2.75000015959725
  0
LINE
  5
   73B
  8
0
  6
DASHDOT
 62
     7
 10
-596.588257581412
 20
-8.71779038263653
 30
0.0
 11
-603.338127840566
 21
-8.71779038263653
 31
0.0
  0
LINE
  5
   73C
  8
0
  6
DASHDOT
 62
     7
 10
-610.900742263444
 20
-48.8273697840528
 30
0.0
 11
-610.900742263444
 21
-9.31238809258049
 31
0.0
  0
ARC
  5
   73D
  8
0
  6
CONTINUOUS
 62
     7
 10
-644.150742245054
 20
-46.4678327049573
 30
0.0
 40
0.499999889965255
 50
179.99999084272
 51
269.999993044176
  0
LINE
  5
   73E
  8
0
  6
CONTINUOUS
 62
     1
 10
-575.900742263443
 20
43.9071578979492
 30
0.0
 11
-575.900742263443
 21
68.0321502685547
 31
0.0
  0
LINE
  5
   73F
  8
0
  6
CONTINUOUS
 62
     1
 10
-575.900742263443
 20
-16.2178497612476
 30
0.0
 11
-575.900742263443
 21
-8.59284210205078
 31
0.0
  0
LINE
  5
   740
  8
0
  6
CONTINUOUS
 62
     1
 10
-645.900742263443
 20
-16.2178497612476
 30
0.0
 11
-645.900742263443
 21
-8.59285736083982
 31
0.0
  0
LINE
  5
   741
  8
0
  6
CONTINUOUS
 62
     1
 10
-645.900742263443
 20
43.9071426391602
 30
0.0
 11
-645.900742263443
 21
68.0321502685547
 31
0.0
  0
LINE
  5
   742
  8
0
  6
CONTINUOUS
 62
     1
 10
-575.900742263443
 20
68.0321502685547
 30
0.0
 11
-645.900742263443
 21
68.0321502685547
 31
0.0
  0
LINE
  5
   743
  8
0
  6
CONTINUOUS
 62
     1
 10
-640.150742263443
 20
-16.7178497314453
 30
0.0
 11
-645.400734634049
 21
-16.7178497314453
 31
0.0
  0
LINE
  5
   744
  8
0
  6
CONTINUOUS
 62
     1
 10
-645.900742263443
 20
-8.5928497314453
 30
0.0
 11
-645.900742263443
 21
43.9071502685547
 31
0.0
  0
LINE
  5
   745
  8
0
  6
CONTINUOUS
 62
     1
 10
-575.900742263443
 20
-8.59284973144532
 30
0.0
 11
-575.900742263443
 21
43.9071502685547
 31
0.0
  0
LINE
  5
   746
  8
0
  6
DASHDOT
 62
     1
 10
-610.900742263443
 20
-20.0464242954722
 30
0.0
 11
-610.900742263443
 21
70.963551055456
 31
0.0
  0
ARC
  5
   747
  8
0
  6
CONTINUOUS
 62
     1
 10
-576.150742263443
 20
-8.34284973144531
 30
0.0
 40
0.25
 50
269.999999948034
 51
359.999999948034
  0
ARC
  5
   748
  8
0
  6
CONTINUOUS
 62
     1
 10
-645.650742263443
 20
-8.34284973144531
 30
0.0
 40
0.25
 50
179.999999948034
 51
269.999999948034
  0
LINE
  5
   749
  8
0
  6
CONTINUOUS
 62
     1
 10
-575.900742263443
 20
-16.2178497612476
 30
0.0
 11
-581.650742263443
 21
-16.2178497612476
 31
0.0
  0
LINE
  5
   74A
  8
0
  6
CONTINUOUS
 62
     1
 10
-640.150742263443
 20
-16.2178497612476
 30
0.0
 11
-645.900742263443
 21
-16.2178497612476
 31
0.0
  0
LINE
  5
   74B
  8
0
  6
CONTINUOUS
 62
     1
 10
-576.400749892838
 20
-16.7178497314455
 30
0.0
 11
-576.400749892838
 21
-16.2178497612478
 31
0.0
  0
LINE
  5
   74C
  8
0
  6
CONTINUOUS
 62
     1
 10
-645.400734634049
 20
-16.7178497314455
 30
0.0
 11
-645.400734634049
 21
-16.2178497612478
 31
0.0
  0
LINE
  5
   74D
  8
0
  6
CONTINUOUS
 62
     1
 10
-640.275734634049
 20
-8.59285736083984
 30
0.0
 11
-640.275734634049
 21
43.9071426391602
 31
0.0
  0
LINE
  5
   74E
  8
0
  6
CONTINUOUS
 62
     1
 10
-644.775734634049
 20
-8.59284973144531
 30
0.0
 11
-644.775734634049
 21
43.9071426391602
 31
0.0
  0
LINE
  5
   74F
  8
0
  6
CONTINUOUS
 62
     1
 10
-643.625740737565
 20
-8.59285736083984
 30
0.0
 11
-643.625740737565
 21
43.9071426391602
 31
0.0
  0
LINE
  5
   750
  8
0
  6
CONTINUOUS
 62
     1
 10
-642.075737685807
 20
-8.59285736083984
 30
0.0
 11
-642.075737685807
 21
43.9071426391602
 31
0.0
  0
LINE
  5
   751
  8
0
  6
CONTINUOUS
 62
     1
 10
-640.275734634049
 20
43.9071426391602
 30
0.0
 11
-640.275734634049
 21
68.0321426391602
 31
0.0
  0
LINE
  5
   752
  8
0
  6
CONTINUOUS
 62
     1
 10
-638.475739211686
 20
57.6571502685547
 30
0.0
 11
-638.475739211686
 21
68.0321426391602
 31
0.0
  0
LINE
  5
   753
  8
0
  6
CONTINUOUS
 62
     1
 10
-644.775734634049
 20
43.9071426391602
 30
0.0
 11
-644.775734634049
 21
68.0321426391602
 31
0.0
  0
LINE
  5
   754
  8
0
  6
CONTINUOUS
 62
     1
 10
-643.625740737565
 20
43.9071426391602
 30
0.0
 11
-643.625740737565
 21
68.0321426391602
 31
0.0
  0
LINE
  5
   755
  8
0
  6
CONTINUOUS
 62
     1
 10
-642.075737685807
 20
43.9071426391602
 30
0.0
 11
-642.075737685807
 21
68.0321426391602
 31
0.0
  0
LINE
  5
   756
  8
0
  6
CONTINUOUS
 62
     1
 10
-637.325737685807
 20
57.6571502685547
 30
0.0
 11
-637.325737685807
 21
68.0321426391602
 31
0.0
  0
LINE
  5
   757
  8
0
  6
CONTINUOUS
 62
     1
 10
-640.275734634049
 20
-16.2178497612476
 30
0.0
 11
-640.275734634049
 21
-8.59284928441047
 31
0.0
  0
LINE
  5
   758
  8
0
  6
CONTINUOUS
 62
     1
 10
-644.775734634049
 20
-16.2178497612476
 30
0.0
 11
-644.775734634049
 21
-8.59284928441047
 31
0.0
  0
LINE
  5
   759
  8
0
  6
CONTINUOUS
 62
     1
 10
-643.625740737565
 20
-16.2178497612476
 30
0.0
 11
-643.625740737565
 21
-8.59284928441047
 31
0.0
  0
LINE
  5
   75A
  8
0
  6
CONTINUOUS
 62
     1
 10
-642.075737685807
 20
-16.2178497612476
 30
0.0
 11
-642.075737685807
 21
-8.59284928441047
 31
0.0
  0
LINE
  5
   75B
  8
0
  6
CONTINUOUS
 62
     1
 10
-577.025749892838
 20
-8.59284973144532
 30
0.0
 11
-577.025749892838
 21
43.9071426391601
 31
0.0
  0
LINE
  5
   75C
  8
0
  6
CONTINUOUS
 62
     1
 10
-578.175743789322
 20
-8.59285736083985
 30
0.0
 11
-578.175743789322
 21
43.9071426391601
 31
0.0
  0
LINE
  5
   75D
  8
0
  6
CONTINUOUS
 62
     1
 10
-579.97574684108
 20
-8.59285736083985
 30
0.0
 11
-579.97574684108
 21
43.9071426391601
 31
0.0
  0
LINE
  5
   75E
  8
0
  6
CONTINUOUS
 62
     1
 10
-581.775749892838
 20
57.4071604408652
 30
0.0
 11
-581.775749892838
 21
68.0321426391601
 31
0.0
  0
LINE
  5
   75F
  8
0
  6
CONTINUOUS
 62
     1
 10
-583.575745315201
 20
57.6571502685547
 30
0.0
 11
-583.575745315201
 21
68.0321426391601
 31
0.0
  0
LINE
  5
   760
  8
0
  6
CONTINUOUS
 62
     1
 10
-577.025749892838
 20
43.9071426391601
 30
0.0
 11
-577.025749892838
 21
68.0321426391601
 31
0.0
  0
LINE
  5
   761
  8
0
  6
CONTINUOUS
 62
     1
 10
-578.175743789322
 20
43.9071426391601
 30
0.0
 11
-578.175743789322
 21
68.0321426391601
 31
0.0
  0
LINE
  5
   762
  8
0
  6
CONTINUOUS
 62
     1
 10
-579.97574684108
 20
43.9071426391601
 30
0.0
 11
-579.97574684108
 21
68.0321426391601
 31
0.0
  0
LINE
  5
   763
  8
0
  6
CONTINUOUS
 62
     1
 10
-584.47574684108
 20
57.6571502685547
 30
0.0
 11
-584.47574684108
 21
68.0321426391601
 31
0.0
  0
LINE
  5
   764
  8
0
  6
CONTINUOUS
 62
     1
 10
-577.025749892838
 20
-16.2178497612476
 30
0.0
 11
-577.025749892838
 21
-8.59284928441048
 31
0.0
  0
LINE
  5
   765
  8
0
  6
CONTINUOUS
 62
     1
 10
-578.175743789322
 20
-16.2178497612476
 30
0.0
 11
-578.175743789322
 21
-8.59284928441048
 31
0.0
  0
LINE
  5
   766
  8
0
  6
CONTINUOUS
 62
     1
 10
-579.97574684108
 20
-16.2178497612476
 30
0.0
 11
-579.97574684108
 21
-8.59284928441048
 31
0.0
  0
LINE
  5
   767
  8
0
  6
CONTINUOUS
 62
     1
 10
-636.400742263443
 20
57.6571502685547
 30
0.0
 11
-636.400742263443
 21
65.5321502685547
 31
0.0
  0
LINE
  5
   768
  8
0
  6
CONTINUOUS
 62
     1
 10
-585.400742263443
 20
57.6571502685547
 30
0.0
 11
-585.400742263443
 21
65.5321502685547
 31
0.0
  0
LINE
  5
   769
  8
0
  6
CONTINUOUS
 62
     1
 10
-585.400742263443
 20
65.5321502685547
 30
0.0
 11
-636.400742263443
 21
65.5321502685547
 31
0.0
  0
LINE
  5
   76A
  8
0
  6
CONTINUOUS
 62
     3
 10
-624.650749892838
 20
-8.84284973144531
 30
0.0
 11
-629.650742263443
 21
-8.84284973144531
 31
0.0
  0
LINE
  5
   76B
  8
0
  6
CONTINUOUS
 62
     3
 10
-592.150757522232
 20
-8.84284973144531
 30
0.0
 11
-597.150757522232
 21
-8.84284973144531
 31
0.0
  0
LINE
  5
   76C
  8
0
  6
CONTINUOUS
 62
     3
 10
-584.650742263443
 20
-8.59284973144531
 30
0.0
 11
-584.650742263443
 21
0.407142639160156
 31
0.0
  0
LINE
  5
   76D
  8
0
  6
CONTINUOUS
 62
     3
 10
-637.150742263443
 20
-8.59284973144531
 30
0.0
 11
-637.150742263443
 21
0.407142639160156
 31
0.0
  0
LINE
  5
   76E
  8
0
  6
CONTINUOUS
 62
     3
 10
-584.900742263443
 20
43.6571502685547
 30
0.0
 11
-636.90074226343
 21
43.6571502685547
 31
0.0
  0
LINE
  5
   76F
  8
0
  6
CONTINUOUS
 62
     3
 10
-629.650742263443
 20
-8.84284973144531
 30
0.0
 11
-636.900742263443
 21
-8.84284973144531
 31
0.0
  0
LINE
  5
   770
  8
0
  6
CONTINUOUS
 62
     3
 10
-597.150757522232
 20
-8.84284973144531
 30
0.0
 11
-624.650749892838
 21
-8.84284973144531
 31
0.0
  0
LINE
  5
   771
  8
0
  6
CONTINUOUS
 62
     3
 10
-584.900742263443
 20
-8.84284973144531
 30
0.0
 11
-592.150757522232
 21
-8.84284973144531
 31
0.0
  0
LINE
  5
   772
  8
0
  6
CONTINUOUS
 62
     3
 10
-605.525742263443
 20
2.28214263916016
 30
0.0
 11
-605.525742263443
 21
22.2821350097656
 31
0.0
  0
LINE
  5
   773
  8
0
  6
CONTINUOUS
 62
     3
 10
-616.275742263443
 20
2.28214263916016
 30
0.0
 11
-616.275742263443
 21
22.2821350097656
 31
0.0
  0
LINE
  5
   774
  8
0
  6
CONTINUOUS
 62
     1
 10
-584.650742263443
 20
37.9071350097656
 30
0.0
 11
-637.150742263443
 21
37.9071350097656
 31
0.0
  0
LINE
  5
   775
  8
0
  6
CONTINUOUS
 62
     1
 10
-584.650742263443
 20
42.9071350097656
 30
0.0
 11
-637.150742263443
 21
42.9071350097656
 31
0.0
  0
LINE
  5
   776
  8
0
  6
CONTINUOUS
 62
     3
 10
-605.525742263443
 20
22.14990234375
 30
0.0
 11
-616.275742263443
 21
22.14990234375
 31
0.0
  0
LINE
  5
   777
  8
0
  6
CONTINUOUS
 62
     3
 10
-605.525742263443
 20
22.2821350097656
 30
0.0
 11
-616.275742263443
 21
22.2821350097656
 31
0.0
  0
LINE
  5
   778
  8
0
  6
CONTINUOUS
 62
     3
 10
-605.525742263443
 20
2.28214263916016
 30
0.0
 11
-616.275742263443
 21
2.28214263916016
 31
0.0
  0
LINE
  5
   779
  8
0
  6
CONTINUOUS
 62
     3
 10
-605.525742263443
 20
2.41439056396484
 30
0.0
 11
-616.275742263443
 21
2.41439056396484
 31
0.0
  0
LINE
  5
   77A
  8
0
  6
DASHDOT
 62
     3
 10
-610.900742263443
 20
-10.4694906711247
 30
0.0
 11
-610.900742263443
 21
32.7583524123997
 31
0.0
  0
LINE
  5
   77B
  8
0
  6
DASHDOT
 62
     3
 10
-610.900742263443
 20
32.3719860561401
 30
0.0
 11
-610.900742263443
 21
49.1250622605168
 31
0.0
  0
LINE
  5
   77C
  8
0
  6
CONTINUOUS
 62
     3
 10
-584.650749892838
 20
0.907142639160156
 30
0.0
 11
-584.650749892838
 21
6.90713866254091
 31
0.0
  0
LINE
  5
   77D
  8
0
  6
CONTINUOUS
 62
     3
 10
-584.650749892838
 20
24.1571426391602
 30
0.0
 11
-584.650749892838
 21
43.4071502685547
 31
0.0
  0
LINE
  5
   77E
  8
0
  6
CONTINUOUS
 62
     3
 10
-584.650749892838
 20
7.40713866254094
 30
0.0
 11
-584.650749892838
 21
17.1571426391602
 31
0.0
  0
LINE
  5
   77F
  8
0
  6
CONTINUOUS
 62
     3
 10
-584.650749892838
 20
17.6571426391602
 30
0.0
 11
-584.650749892838
 21
23.6571426391602
 31
0.0
  0
LINE
  5
   780
  8
0
  6
CONTINUOUS
 62
     3
 10
-637.150742263446
 20
0.907142639160156
 30
0.0
 11
-637.150742263446
 21
6.90714263916124
 31
0.0
  0
LINE
  5
   781
  8
0
  6
CONTINUOUS
 62
     3
 10
-637.150742263455
 20
7.40714263916128
 30
0.0
 11
-637.150742263455
 21
17.1571426391602
 31
0.0
  0
LINE
  5
   782
  8
0
  6
CONTINUOUS
 62
     3
 10
-637.150742263441
 20
17.6571426391602
 30
0.0
 11
-637.150742263441
 21
23.6571426391602
 31
0.0
  0
LINE
  5
   783
  8
0
  6
CONTINUOUS
 62
     3
 10
-637.150742263429
 20
24.1571426391602
 30
0.0
 11
-637.150742263429
 21
43.4071502685547
 31
0.0
  0
LINE
  5
   784
  8
0
  6
CONTINUOUS
 62
     1
 10
-616.275746250306
 20
7.15715225687228
 30
0.0
 11
-636.650742293246
 21
7.15715225687228
 31
0.0
  0
LINE
  5
   785
  8
0
  6
CONTINUOUS
 62
     3
 10
-584.650749892838
 20
6.90714828024915
 30
0.0
 11
-585.150749892838
 21
6.90714828024915
 31
0.0
  0
LINE
  5
   786
  8
0
  6
CONTINUOUS
 62
     1
 10
-616.27575602985
 20
7.65715225687523
 30
0.0
 11
-636.650742293246
 21
7.65715225687523
 31
0.0
  0
LINE
  5
   787
  8
0
  6
CONTINUOUS
 62
     3
 10
-584.650749892838
 20
7.4071482802491
 30
0.0
 11
-585.150749892838
 21
7.4071482802491
 31
0.0
  0
LINE
  5
   788
  8
0
  6
CONTINUOUS
 62
     3
 10
-636.650742293246
 20
6.90714263916016
 30
0.0
 11
-636.650742293246
 21
7.40714263916016
 31
0.0
  0
LINE
  5
   789
  8
0
  6
CONTINUOUS
 62
     3
 10
-585.150749892838
 20
6.90714263916016
 30
0.0
 11
-585.150749892838
 21
7.40714263916016
 31
0.0
  0
LINE
  5
   78A
  8
0
  6
CONTINUOUS
 62
     3
 10
-584.650742263443
 20
0.407142639160156
 30
0.0
 11
-585.150749892838
 21
0.407142639160156
 31
0.0
  0
LINE
  5
   78B
  8
0
  6
CONTINUOUS
 62
     3
 10
-584.650749892838
 20
0.907142639160156
 30
0.0
 11
-585.150749892838
 21
0.907142639160156
 31
0.0
  0
LINE
  5
   78C
  8
0
  6
CONTINUOUS
 62
     3
 10
-636.650742293246
 20
0.407142639160156
 30
0.0
 11
-636.650742293246
 21
0.907142639160156
 31
0.0
  0
LINE
  5
   78D
  8
0
  6
CONTINUOUS
 62
     3
 10
-585.150749892838
 20
0.407142639160156
 30
0.0
 11
-585.150749892838
 21
0.907142639160156
 31
0.0
  0
LINE
  5
   78E
  8
0
  6
CONTINUOUS
 62
     3
 10
-584.650749892838
 20
23.6571426391602
 30
0.0
 11
-585.150749892838
 21
23.6571426391602
 31
0.0
  0
LINE
  5
   78F
  8
0
  6
CONTINUOUS
 62
     3
 10
-584.650749892838
 20
24.1571426391602
 30
0.0
 11
-585.150749892838
 21
24.1571426391602
 31
0.0
  0
LINE
  5
   790
  8
0
  6
CONTINUOUS
 62
     3
 10
-636.650742293246
 20
23.6571426391602
 30
0.0
 11
-636.650742293246
 21
24.1571426391602
 31
0.0
  0
LINE
  5
   791
  8
0
  6
CONTINUOUS
 62
     3
 10
-585.150749892838
 20
23.6571426391602
 30
0.0
 11
-585.150749892838
 21
24.1571426391602
 31
0.0
  0
LINE
  5
   792
  8
0
  6
CONTINUOUS
 62
     1
 10
-616.275746227152
 20
17.4071426391602
 30
0.0
 11
-636.650742293246
 21
17.4071426391602
 31
0.0
  0
LINE
  5
   793
  8
0
  6
CONTINUOUS
 62
     3
 10
-584.650749892838
 20
17.1571426391602
 30
0.0
 11
-585.150749892838
 21
17.1571426391602
 31
0.0
  0
LINE
  5
   794
  8
0
  6
CONTINUOUS
 62
     1
 10
-616.275742263443
 20
17.9071426391602
 30
0.0
 11
-636.650742293246
 21
17.9071426391602
 31
0.0
  0
LINE
  5
   795
  8
0
  6
CONTINUOUS
 62
     3
 10
-584.650749892838
 20
17.6571426391602
 30
0.0
 11
-585.150749892838
 21
17.6571426391602
 31
0.0
  0
LINE
  5
   796
  8
0
  6
CONTINUOUS
 62
     3
 10
-636.650742293246
 20
17.1571426391602
 30
0.0
 11
-636.650742293246
 21
17.6571426391602
 31
0.0
  0
LINE
  5
   797
  8
0
  6
CONTINUOUS
 62
     3
 10
-585.150749892838
 20
17.1571426391602
 30
0.0
 11
-585.150749892838
 21
17.6571426391602
 31
0.0
  0
ARC
  5
   798
  8
0
  6
CONTINUOUS
 62
     3
 10
-636.900742263443
 20
-8.59284973144531
 30
0.0
 40
0.25
 50
179.999999948034
 51
269.999999948034
  0
ARC
  5
   799
  8
0
  6
CONTINUOUS
 62
     3
 10
-584.900742263443
 20
-8.59284973144531
 30
0.0
 40
0.25
 50
269.999999948034
 51
359.999999948034
  0
ARC
  5
   79A
  8
0
  6
CONTINUOUS
 62
     3
 10
-584.900742263443
 20
43.4071502685547
 30
0.0
 40
0.25
 50
359.999999948034
 51
449.999999948034
  0
ARC
  5
   79B
  8
0
  6
CONTINUOUS
 62
     3
 10
-636.90074226343
 20
43.4071502685547
 30
0.0
 40
0.25
 50
449.999999948034
 51
539.999999948034
  0
INSERT
  5
   79C
  8
255
  6
CONTINUOUS
 62
     3
  2
$1ON-OFF
 10
-600.900747146256
 20
20.6571426391602
 30
0.0
 41
0.5
 42
0.5
 50
359.999999792137
 43
0.5
  0
LINE
  5
   79D
  8
0
  6
CONTINUOUS
 62
     1
 10
-622.150742263443
 20
23.1571426391602
 30
0.0
 11
-622.900742263443
 21
23.1571426391602
 31
0.0
  0
LINE
  5
   79E
  8
0
  6
CONTINUOUS
 62
     1
 10
-622.150742263443
 20
18.6571426391602
 30
0.0
 11
-622.900742263443
 21
18.6571426391602
 31
0.0
  0
CIRCLE
  5
   79F
  8
0
  6
CONTINUOUS
 62
     1
 10
-622.525742263443
 20
4.15714263916017
 30
0.0
 40
2.25
  0
CIRCLE
  5
   7A0
  8
0
  6
CONTINUOUS
 62
     1
 10
-622.525742263443
 20
4.15714263916017
 30
0.0
 40
1.5
  0
LINE
  5
   7A1
  8
0
  6
CONTINUOUS
 62
     1
 10
-622.900742263443
 20
18.6571426391602
 30
0.0
 11
-622.900742263443
 21
23.1571426391602
 31
0.0
  0
LINE
  5
   7A2
  8
0
  6
CONTINUOUS
 62
     1
 10
-622.150742263443
 20
18.6571426391602
 30
0.0
 11
-622.150742263443
 21
23.1571426391602
 31
0.0
  0
LINE
  5
   7A3
  8
0
  6
CONTINUOUS
 62
     1
 10
-617.650742263443
 20
1.15714263916016
 30
0.0
 11
-617.650742263443
 21
7.15714978374292
 31
0.0
  0
LINE
  5
   7A4
  8
0
  6
CONTINUOUS
 62
     1
 10
-604.150742263443
 20
1.15714263916016
 30
0.0
 11
-604.150742263443
 21
7.15714580711978
 31
0.0
  0
LINE
  5
   7A5
  8
0
  6
CONTINUOUS
 62
     1
 10
-604.150742263443
 20
17.9071426391602
 30
0.0
 11
-604.150742263443
 21
23.9071426391602
 31
0.0
  0
LINE
  5
   7A6
  8
0
  6
CONTINUOUS
 62
     1
 10
-617.650742263443
 20
17.9071426391602
 30
0.0
 11
-617.650742263443
 21
23.9071426391602
 31
0.0
  0
LINE
  5
   7A7
  8
0
  6
CONTINUOUS
 62
     7
 10
-640.150742263443
 20
-17.2178326416192
 30
0.0
 11
-645.900742067817
 21
-17.2178326416192
 31
0.0
  0
LINE
  5
   7A8
  8
0
  6
CONTINUOUS
 62
     1
 10
-575.900742067817
 20
-34.7178326416192
 30
0.0
 11
-645.900742067817
 21
-34.7178326416192
 31
0.0
  0
LINE
  5
   7A9
  8
0
  6
DASHDOT
 62
     7
 10
-589.025748622765
 20
63.2820462694411
 30
0.0
 11
-589.025748622765
 21
78.7821534927128
 31
0.0
  0
LINE
  5
   7AA
  8
0
  6
DASHDOT
 62
     7
 10
-581.275695011129
 20
71.032099881077
 30
0.0
 11
-596.775802234401
 21
71.032099881077
 31
0.0
  0
LINE
  5
   7AB
  8
0
  6
DASHDOT
 62
     7
 10
-589.025716903708
 20
72.3321584210353
 30
0.0
 11
-589.025716903708
 21
83.7321542275253
 31
0.0
  0
LINE
  5
   7AC
  8
0
  6
DASHDOT
 62
     7
 10
-583.325719000463
 20
78.0321563242803
 30
0.0
 11
-594.725714806953
 21
78.0321563242803
 31
0.0
  0
LINE
  5
   7AD
  8
0
  6
DASHDOT
 62
     7
 10
-599.963232037764
 20
62.4071577848449
 30
0.0
 11
-599.963232037764
 21
77.6571620447614
 31
0.0
  0
LINE
  5
   7AE
  8
0
  6
DASHDOT
 62
     7
 10
-592.338229907806
 20
70.0321599148032
 30
0.0
 11
-607.588234167722
 21
70.0321599148032
 31
0.0
  0
LINE
  5
   7AF
  8
0
  6
DASHDOT
 62
     7
 10
-610.900743556774
 20
72.3321457589729
 30
0.0
 11
-610.900743556774
 21
91.5909539663191
 31
0.0
  0
LINE
  5
   7B0
  8
0
  6
DASHDOT
 62
     7
 10
-605.200742953886
 20
78.0321463618609
 30
0.0
 11
-616.600744159662
 21
78.0321463618609
 31
0.0
  0
LINE
  5
   7B1
  8
0
  6
DASHDOT
 62
     7
 10
-610.900715048424
 20
63.2822430980967
 30
0.0
 11
-610.900715048424
 21
78.782167495895
 31
0.0
  0
LINE
  5
   7B2
  8
0
  6
DASHDOT
 62
     7
 10
-603.150752849525
 20
71.0322052969959
 30
0.0
 11
-618.650677247324
 21
71.0322052969959
 31
0.0
  0
LINE
  5
   7B3
  8
0
  6
DASHDOT
 62
     7
 10
-621.838171257355
 20
62.4071478491061
 30
0.0
 11
-621.838171257355
 21
77.6572212217663
 31
0.0
  0
LINE
  5
   7B4
  8
0
  6
DASHDOT
 62
     7
 10
-614.213134571025
 20
70.0321845354362
 30
0.0
 11
-629.463207943685
 21
70.0321845354362
 31
0.0
  0
LINE
  5
   7B5
  8
0
  6
DASHDOT
 62
     7
 10
-632.775718831358
 20
72.3321482909436
 30
0.0
 11
-632.775718831358
 21
83.7321473114874
 31
0.0
  0
LINE
  5
   7B6
  8
0
  6
DASHDOT
 62
     7
 10
-627.075719321086
 20
78.0321478012155
 30
0.0
 11
-638.47571834163
 21
78.0321478012155
 31
0.0
  0
LINE
  5
   7B7
  8
0
  6
DASHDOT
 62
     7
 10
-632.775714152356
 20
63.2821636474331
 30
0.0
 11
-632.775714152356
 21
78.7821757469465
 31
0.0
  0
LINE
  5
   7B8
  8
0
  6
DASHDOT
 62
     7
 10
-625.0257081026
 20
71.0321696971898
 30
0.0
 11
-640.525720202113
 21
71.0321696971898
 31
0.0
  0
LINE
  5
   7B9
  8
0
  6
DASHDOT
 62
     7
 10
-632.775741948276
 20
-45.7178329174741
 30
0.0
 11
-632.775741948276
 21
-30.2178325982796
 31
0.0
  0
LINE
  5
   7BA
  8
0
  6
DASHDOT
 62
     7
 10
-625.025741788679
 20
-37.9678327578768
 30
0.0
 11
-640.525742107873
 21
-37.9678327578768
 31
0.0
  0
LINE
  5
   7BB
  8
0
  6
DASHDOT
 62
     7
 10
-632.775742450662
 20
-65.7566001478737
 30
0.0
 11
-632.775742450662
 21
-39.2678331963385
 31
0.0
  0
LINE
  5
   7BC
  8
0
  6
DASHDOT
 62
     7
 10
-627.075742408578
 20
-44.9678332384224
 30
0.0
 11
-638.475742492746
 21
-44.9678332384224
 31
0.0
  0
LINE
  5
   7BD
  8
0
  6
DASHDOT
 62
     7
 10
-610.900741098365
 20
-50.6678323050247
 30
0.0
 11
-610.900741098365
 21
-39.267830263632
 31
0.0
  0
LINE
  5
   7BE
  8
0
  6
DASHDOT
 62
     7
 10
-589.025740955864
 20
-45.717832661915
 30
0.0
 11
-589.025740955864
 21
-30.2178309787331
 31
0.0
  0
LINE
  5
   7BF
  8
0
  6
DASHDOT
 62
     7
 10
-589.025742342576
 20
-50.6678286354246
 30
0.0
 11
-589.025742342576
 21
-39.2678316917689
 31
0.0
  0
LINE
  5
   7C0
  8
0
  6
CONTINUOUS
 62
     7
 10
-605.525742263443
 20
6.87179309554799
 30
0.0
 11
-616.275742263443
 21
6.87179309554799
 31
0.0
  0
LINE
  5
   7C1
  8
0
  6
CONTINUOUS
 62
     7
 10
-605.525742263443
 20
9.34485368351984
 30
0.0
 11
-616.275742263443
 21
9.34485368351984
 31
0.0
  0
LINE
  5
   7C2
  8
0
  6
CONTINUOUS
 62
     7
 10
-605.525742263443
 20
2.91131726922709
 30
0.0
 11
-616.275742263443
 21
2.91131726922709
 31
0.0
  0
LINE
  5
   7C3
  8
0
  6
CONTINUOUS
 62
     7
 10
-644.650718688965
 20
78.6321426391602
 30
0.0
 11
-644.650718688965
 21
79.5321502685547
 31
0.0
  0
LINE
  5
   7C4
  8
0
  6
CONTINUOUS
 62
     7
 10
-577.150718688965
 20
78.6321426391602
 30
0.0
 11
-577.150718688965
 21
79.5321502685547
 31
0.0
  0
LINE
  5
   7C5
  8
0
  6
CONTINUOUS
 62
     1
 10
-636.650742293246
 20
24.4071426391602
 30
0.0
 11
-637.150742263429
 21
24.4071426391602
 31
0.0
  0
LINE
  5
   7C6
  8
0
  6
CONTINUOUS
 62
     1
 10
-636.650742293246
 20
23.9071426391602
 30
0.0
 11
-637.150742263441
 21
23.9071426391602
 31
0.0
  0
LINE
  5
   7C7
  8
0
  6
CONTINUOUS
 62
     3
 10
-636.650742293246
 20
17.6571426391602
 30
0.0
 11
-637.150742263441
 21
17.6571426391602
 31
0.0
  0
LINE
  5
   7C8
  8
0
  6
CONTINUOUS
 62
     3
 10
-636.650742293246
 20
17.1571426391602
 30
0.0
 11
-637.150742263455
 21
17.1571426391602
 31
0.0
  0
LINE
  5
   7C9
  8
0
  6
CONTINUOUS
 62
     3
 10
-636.650742293246
 20
7.40715225687523
 30
0.0
 11
-637.150742263455
 21
7.40715225687523
 31
0.0
  0
LINE
  5
   7CA
  8
0
  6
CONTINUOUS
 62
     3
 10
-636.650742293246
 20
6.90715225687228
 30
0.0
 11
-637.150742263446
 21
6.90715225687228
 31
0.0
  0
LINE
  5
   7CB
  8
0
  6
CONTINUOUS
 62
     3
 10
-636.650742293246
 20
0.907142639160156
 30
0.0
 11
-637.150742263446
 21
0.907142639160156
 31
0.0
  0
LINE
  5
   7CC
  8
0
  6
CONTINUOUS
 62
     3
 10
-636.650742293246
 20
0.407142639160156
 30
0.0
 11
-637.150742263443
 21
0.407142639160156
 31
0.0
  0
LINE
  5
   7CD
  8
0
  6
CONTINUOUS
 62
     1
 10
-585.150749892838
 20
0.657142639160156
 30
0.0
 11
-636.650742293246
 21
0.657142639160156
 31
0.0
  0
LINE
  5
   7CE
  8
0
  6
CONTINUOUS
 62
     1
 10
-585.150749892838
 20
1.15714263916016
 30
0.0
 11
-636.650742293246
 21
1.15714263916016
 31
0.0
  0
LINE
  5
   7CF
  8
0
  6
CONTINUOUS
 62
     1
 10
-585.150749892838
 20
7.15714828024915
 30
0.0
 11
-605.525743939017
 21
7.15714828024915
 31
0.0
  0
LINE
  5
   7D0
  8
0
  6
CONTINUOUS
 62
     1
 10
-585.150749892838
 20
7.6571482802491
 30
0.0
 11
-605.525743755823
 21
7.6571482802491
 31
0.0
  0
LINE
  5
   7D1
  8
0
  6
CONTINUOUS
 62
     1
 10
-585.150749892838
 20
17.4071426391602
 30
0.0
 11
-605.525742263443
 21
17.4071426391602
 31
0.0
  0
LINE
  5
   7D2
  8
0
  6
CONTINUOUS
 62
     1
 10
-585.150749892838
 20
17.9071426391602
 30
0.0
 11
-605.525742263443
 21
17.9071426391602
 31
0.0
  0
LINE
  5
   7D3
  8
0
  6
CONTINUOUS
 62
     1
 10
-585.150749892838
 20
23.9071426391602
 30
0.0
 11
-636.650742293246
 21
23.9071426391602
 31
0.0
  0
LINE
  5
   7D4
  8
0
  6
CONTINUOUS
 62
     1
 10
-585.150749892838
 20
24.4071426391602
 30
0.0
 11
-636.650742293246
 21
24.4071426391602
 31
0.0
  0
LINE
  5
   7D5
  8
0
  6
CONTINUOUS
 62
     7
 10
-598.713242067817
 20
76.7821179199397
 30
0.0
 11
-601.213242067817
 21
76.7821179199397
 31
0.0
  0
LINE
  5
   7D6
  8
0
  6
CONTINUOUS
 62
     7
 10
-601.213242067817
 20
76.7821179199397
 30
0.0
 11
-601.213242067817
 21
78.532118039149
 31
0.0
  0
LINE
  5
   7D7
  8
0
  6
CONTINUOUS
 62
     7
 10
-600.838242067817
 20
78.5321179199397
 30
0.0
 11
-601.213242067817
 21
78.5321179199397
 31
0.0
  0
LINE
  5
   7D8
  8
0
  6
CONTINUOUS
 62
     7
 10
-600.838242067817
 20
78.5321179199394
 30
0.0
 11
-600.838242067817
 21
80.0321179199394
 31
0.0
  0
LINE
  5
   7D9
  8
0
  6
CONTINUOUS
 62
     7
 10
-599.088242067817
 20
78.5321179199394
 30
0.0
 11
-599.088242067817
 21
80.0321179199394
 31
0.0
  0
LINE
  5
   7DA
  8
0
  6
CONTINUOUS
 62
     7
 10
-598.713242067817
 20
78.5321179199397
 30
0.0
 11
-599.088242067817
 21
78.5321179199397
 31
0.0
  0
LINE
  5
   7DB
  8
0
  6
CONTINUOUS
 62
     7
 10
-598.713242067817
 20
76.7821179199397
 30
0.0
 11
-598.713242067817
 21
78.5321179199397
 31
0.0
  0
LINE
  5
   7DC
  8
0
  6
CONTINUOUS
 62
     7
 10
-620.588242067817
 20
76.7821179199397
 30
0.0
 11
-623.088242067817
 21
76.7821179199397
 31
0.0
  0
LINE
  5
   7DD
  8
0
  6
CONTINUOUS
 62
     7
 10
-623.088242067817
 20
76.7821179199397
 30
0.0
 11
-623.088242067817
 21
78.532118039149
 31
0.0
  0
LINE
  5
   7DE
  8
0
  6
CONTINUOUS
 62
     7
 10
-622.713242067817
 20
78.5321179199397
 30
0.0
 11
-623.088242067817
 21
78.5321179199397
 31
0.0
  0
LINE
  5
   7DF
  8
0
  6
CONTINUOUS
 62
     7
 10
-622.713242067817
 20
78.5321179199394
 30
0.0
 11
-622.713242067817
 21
80.0321179199394
 31
0.0
  0
LINE
  5
   7E0
  8
0
  6
CONTINUOUS
 62
     7
 10
-620.963242067817
 20
78.5321179199394
 30
0.0
 11
-620.963242067817
 21
80.0321179199394
 31
0.0
  0
LINE
  5
   7E1
  8
0
  6
CONTINUOUS
 62
     7
 10
-620.588242067817
 20
78.5321179199397
 30
0.0
 11
-620.963242067817
 21
78.5321179199397
 31
0.0
  0
LINE
  5
   7E2
  8
0
  6
CONTINUOUS
 62
     7
 10
-620.588242067817
 20
76.7821179199397
 30
0.0
 11
-620.588242067817
 21
78.5321179199397
 31
0.0
  0
LINE
  5
   7E3
  8
0
  6
DASHDOT
 62
     3
 10
-566.43201025327
 20
17.4071502685547
 30
0.0
 11
-655.567287690216
 21
17.4071502685547
 31
0.0
  0
LINE
  5
   7E4
  8
0
  6
CONTINUOUS
 62
     1
 10
-640.150742263443
 20
-8.84284973144531
 30
0.0
 11
-645.900742263443
 21
-8.84284973144531
 31
0.0
  0
LINE
  5
   7E5
  8
0
  6
CONTINUOUS
 62
     1
 10
-575.900742263443
 20
-8.84284973144531
 30
0.0
 11
-581.650742263443
 21
-8.84284973144531
 31
0.0
  0
LINE
  5
   7E6
  8
0
  6
CONTINUOUS
 62
     1
 10
-575.900742263443
 20
43.4071502685547
 30
0.0
 11
-581.650742263444
 21
43.4071502685547
 31
0.0
  0
LINE
  5
   7E7
  8
0
  6
CONTINUOUS
 62
     1
 10
-640.150742263443
 20
43.6571502685547
 30
0.0
 11
-645.900742263443
 21
43.6571502685547
 31
0.0
  0
LINE
  5
   7E8
  8
0
  6
DASHDOT
 62
     3
 10
-655.567287690216
 20
17.4071502685547
 30
0.0
 11
-663.330682821821
 21
17.4071502685547
 31
0.0
  0
LINE
  5
   7E9
  8
0
  6
DASHDOT
 62
     3
 10
-671.094077953426
 20
17.4071502685547
 30
0.0
 11
-678.138640202475
 21
17.4071502685547
 31
0.0
  0
LINE
  5
   7EA
  8
0
  6
CONTINUOUS
 62
     7
 10
-637.325737685807
 20
-34.7178326416192
 30
0.0
 11
-637.325737685807
 21
-22.8428478240967
 31
0.0
  0
LINE
  5
   7EB
  8
0
  6
CONTINUOUS
 62
     7
 10
-638.475739211686
 20
-34.7178326416192
 30
0.0
 11
-638.475739211686
 21
-22.8428478240967
 31
0.0
  0
LINE
  5
   7EC
  8
0
  6
CONTINUOUS
 62
     7
 10
-640.275734634049
 20
-34.7178326416192
 30
0.0
 11
-640.275734634049
 21
-17.2178326416192
 31
0.0
  0
LINE
  5
   7ED
  8
0
  6
CONTINUOUS
 62
     7
 10
-642.075737685807
 20
-34.7178326416192
 30
0.0
 11
-642.075737685807
 21
-17.2178326416192
 31
0.0
  0
LINE
  5
   7EE
  8
0
  6
CONTINUOUS
 62
     7
 10
-643.625740737565
 20
-34.7178326416192
 30
0.0
 11
-643.625740737565
 21
-17.2178326416192
 31
0.0
  0
LINE
  5
   7EF
  8
0
  6
CONTINUOUS
 62
     7
 10
-644.775734634049
 20
-34.7178326416192
 30
0.0
 11
-644.775734634049
 21
-17.2178326416192
 31
0.0
  0
LINE
  5
   7F0
  8
0
  6
CONTINUOUS
 62
     7
 10
-584.47574684108
 20
-34.7178326416192
 30
0.0
 11
-584.47574684108
 21
-22.8428478240967
 31
0.0
  0
LINE
  5
   7F1
  8
0
  6
CONTINUOUS
 62
     7
 10
-583.325745315201
 20
-34.7178326416192
 30
0.0
 11
-583.325745315201
 21
-22.8428478240967
 31
0.0
  0
LINE
  5
   7F2
  8
0
  6
CONTINUOUS
 62
     7
 10
-581.525749892838
 20
-34.7178326416192
 30
0.0
 11
-581.525749892838
 21
-17.2178326416192
 31
0.0
  0
LINE
  5
   7F3
  8
0
  6
CONTINUOUS
 62
     7
 10
-579.72574684108
 20
-34.7178326416192
 30
0.0
 11
-579.72574684108
 21
-17.2178326416192
 31
0.0
  0
LINE
  5
   7F4
  8
0
  6
CONTINUOUS
 62
     7
 10
-578.175743789322
 20
-34.7178326416192
 30
0.0
 11
-578.175743789322
 21
-17.2178326416192
 31
0.0
  0
LINE
  5
   7F5
  8
0
  6
CONTINUOUS
 62
     7
 10
-577.025749892838
 20
-34.7178326416192
 30
0.0
 11
-577.025749892838
 21
-17.2178326416192
 31
0.0
  0
LINE
  5
   7F6
  8
0
  6
CONTINUOUS
 62
     1
 10
-576.400742263444
 20
-34.9678326416191
 30
0.0
 11
-629.007916405885
 21
-34.9678326416191
 31
0.0
  0
LINE
  5
   7F7
  8
0
  6
CONTINUOUS
 62
     1
 10
-576.400742263444
 20
-35.4678326416191
 30
0.0
 11
-628.885951306387
 21
-35.4678326416191
 31
0.0
  0
LINE
  5
   7F8
  8
0
  6
CONTINUOUS
 62
     1
 10
-575.900742263444
 20
-69.3428326416191
 30
0.0
 11
-575.900742263444
 21
-35.4678326416191
 31
0.0
  0
LINE
  5
   7F9
  8
0
  6
CONTINUOUS
 62
     1
 10
-576.400742263444
 20
-35.4678326416191
 30
0.0
 11
-576.400742263444
 21
-34.9678326416191
 31
0.0
  0
LINE
  5
   7FA
  8
0
  6
CONTINUOUS
 62
     1
 10
-576.525742263444
 20
-69.9678326416191
 30
0.0
 11
-619.201224453968
 21
-69.9678326416191
 31
0.0
  0
ARC
  5
   7FB
  8
0
  6
CONTINUOUS
 62
     1
 10
-576.525742263444
 20
-69.3428326416191
 30
0.0
 40
0.625
 50
269.999999948034
 51
359.999999948034
  0
LINE
  5
   7FC
  8
0
  6
CONTINUOUS
 62
     1
 10
-586.450742263444
 20
-69.9678326416191
 30
0.0
 11
-586.450742263444
 21
-35.4678326416191
 31
0.0
  0
LINE
  5
   7FD
  8
0
  6
CONTINUOUS
 62
     1
 10
-588.250742263444
 20
-69.9678326416191
 30
0.0
 11
-588.250742263444
 21
-35.4678326416191
 31
0.0
  0
LINE
  5
   7FE
  8
0
  6
CONTINUOUS
 62
     1
 10
-590.050742263444
 20
-69.9678326416191
 30
0.0
 11
-590.050742263444
 21
-35.4678326416191
 31
0.0
  0
LINE
  5
   7FF
  8
0
  6
CONTINUOUS
 62
     1
 10
-591.850742263443
 20
-69.9678326416191
 30
0.0
 11
-591.850742263443
 21
-35.4678326416191
 31
0.0
  0
LINE
  5
   800
  8
0
  6
CONTINUOUS
 62
     1
 10
-593.650742263443
 20
-69.9678326416191
 30
0.0
 11
-593.650742263443
 21
-35.4678326416191
 31
0.0
  0
LINE
  5
   801
  8
0
  6
CONTINUOUS
 62
     1
 10
-595.450742263444
 20
-69.9678326416191
 30
0.0
 11
-595.450742263444
 21
-35.4678326416191
 31
0.0
  0
LINE
  5
   802
  8
0
  6
CONTINUOUS
 62
     1
 10
-597.250742263444
 20
-69.9678326416191
 30
0.0
 11
-597.250742263444
 21
-35.4678326416191
 31
0.0
  0
LINE
  5
   803
  8
0
  6
CONTINUOUS
 62
     1
 10
-599.050742263444
 20
-69.9678326416191
 30
0.0
 11
-599.050742263444
 21
-35.4678326416191
 31
0.0
  0
LINE
  5
   804
  8
0
  6
CONTINUOUS
 62
     1
 10
-600.850742263443
 20
-69.9678326416191
 30
0.0
 11
-600.850742263443
 21
-35.4678326416191
 31
0.0
  0
LINE
  5
   805
  8
0
  6
CONTINUOUS
 62
     1
 10
-602.650742263444
 20
-69.9678326416191
 30
0.0
 11
-602.650742263444
 21
-35.4678326416191
 31
0.0
  0
LINE
  5
   806
  8
0
  6
CONTINUOUS
 62
     1
 10
-604.450742263444
 20
-69.9678326416191
 30
0.0
 11
-604.450742263444
 21
-35.4678326416191
 31
0.0
  0
LINE
  5
   807
  8
0
  6
CONTINUOUS
 62
     1
 10
-606.250742263444
 20
-69.9678326416191
 30
0.0
 11
-606.250742263444
 21
-35.4678326416191
 31
0.0
  0
LINE
  5
   808
  8
0
  6
CONTINUOUS
 62
     1
 10
-608.050742263443
 20
-69.9678326416191
 30
0.0
 11
-608.050742263443
 21
-35.4678326416191
 31
0.0
  0
LINE
  5
   809
  8
0
  6
CONTINUOUS
 62
     1
 10
-609.850742263443
 20
-69.9678326416191
 30
0.0
 11
-609.850742263443
 21
-35.4678326416191
 31
0.0
  0
LINE
  5
   80A
  8
0
  6
CONTINUOUS
 62
     1
 10
-611.650742263444
 20
-69.9678326416191
 30
0.0
 11
-611.650742263444
 21
-35.4678326416191
 31
0.0
  0
LINE
  5
   80B
  8
0
  6
CONTINUOUS
 62
     1
 10
-613.450742263444
 20
-69.9678326416191
 30
0.0
 11
-613.450742263444
 21
-35.4678326416191
 31
0.0
  0
LINE
  5
   80C
  8
0
  6
CONTINUOUS
 62
     1
 10
-615.250742263444
 20
-69.9678326416191
 30
0.0
 11
-615.250742263444
 21
-35.4678326416191
 31
0.0
  0
LINE
  5
   80D
  8
0
  6
CONTINUOUS
 62
     1
 10
-617.050742263444
 20
-69.9678326416191
 30
0.0
 11
-617.050742263444
 21
-35.4678326416191
 31
0.0
  0
LINE
  5
   80E
  8
0
  6
CONTINUOUS
 62
     1
 10
-618.850742263443
 20
-69.9678326416191
 30
0.0
 11
-618.850742263443
 21
-35.4678326416191
 31
0.0
  0
LINE
  5
   80F
  8
0
  6
CONTINUOUS
 62
     1
 10
-620.650742263444
 20
-67.7215885666065
 30
0.0
 11
-620.650742263444
 21
-35.4678326416191
 31
0.0
  0
LINE
  5
   810
  8
0
  6
CONTINUOUS
 62
     1
 10
-622.450742263444
 20
-61.0052557796188
 30
0.0
 11
-622.450742263444
 21
-35.4678326416191
 31
0.0
  0
LINE
  5
   811
  8
0
  6
CONTINUOUS
 62
     1
 10
-624.250742263444
 20
-49.2101951065972
 30
0.0
 11
-624.250742263444
 21
-35.4678326416191
 31
0.0
  0
LINE
  5
   812
  8
0
  6
CONTINUOUS
 62
     1
 10
-626.050742263444
 20
-44.9822679442475
 30
0.0
 11
-626.050742263444
 21
-35.4678326416191
 31
0.0
  0
LINE
  5
   813
  8
0
  6
CONTINUOUS
 62
     1
 10
-627.850742263443
 20
-40.7391458161586
 30
0.0
 11
-627.850742263443
 21
-35.4678326416191
 31
0.0
  0
LINE
  5
   814
  8
0
  6
CONTINUOUS
 62
     1
 10
-575.900742263444
 20
-35.4678326416191
 30
0.0
 11
-576.400742263444
 21
-35.4678326416191
 31
0.0
  0
POLYLINE
  5
   815
  8
0
  6
CONTINUOUS
 62
     1
 66
     1
 10
0.0
 20
0.0
 30
0.0
  0
VERTEX
  5
   816
  8
0
  6
CONTINUOUS
 10
-619.201224453968
 20
-69.9677348802354
 30
0.0
 40
0.0
 41
0.0
  0
VERTEX
  5
   817
  8
0
  6
CONTINUOUS
 10
-619.315027112691
 20
-69.8100828921533
 30
0.0
 40
0.0
 41
0.0
  0
VERTEX
  5
   818
  8
0
  6
CONTINUOUS
 10
-619.427867531854
 20
-69.6514230714542
 30
0.0
 40
0.0
 41
0.0
  0
VERTEX
  5
   819
  8
0
  6
CONTINUOUS
 10
-619.539722263914
 20
-69.4917519193724
 30
0.0
 40
0.0
 41
0.0
  0
VERTEX
  5
   81A
  8
0
  6
CONTINUOUS
 10
-619.650555683727
 20
-69.3310641200401
 30
0.0
 40
0.0
 41
0.0
  0
VERTEX
  5
   81B
  8
0
  6
CONTINUOUS
 10
-619.760317422441
 20
-69.1693521575818
 30
0.0
 40
0.0
 41
0.0
  0
VERTEX
  5
   81C
  8
0
  6
CONTINUOUS
 10
-619.868939801405
 20
-69.0066059332099
 30
0.0
 40
0.0
 41
0.0
  0
VERTEX
  5
   81D
  8
0
  6
CONTINUOUS
 10
-619.976335266061
 20
-68.842812382319
 30
0.0
 40
0.0
 41
0.0
  0
VERTEX
  5
   81E
  8
0
  6
CONTINUOUS
 10
-620.082393819844
 20
-68.6779550915807
 30
0.0
 40
0.0
 41
0.0
  0
VERTEX
  5
   81F
  8
0
  6
CONTINUOUS
 10
-620.186980458087
 20
-68.5120139160392
 30
0.0
 40
0.0
 41
0.0
  0
VERTEX
  5
   820
  8
0
  6
CONTINUOUS
 10
-620.289932601914
 20
-68.3449645962051
 30
0.0
 40
0.0
 41
0.0
  0
VERTEX
  5
   821
  8
0
  6
CONTINUOUS
 10
-620.420901086185
 20
-68.1262747040125
 30
0.0
 40
0.0
 41
0.0
  0
VERTEX
  5
   822
  8
0
  6
CONTINUOUS
 10
-620.485075997076
 20
-68.0161876430448
 30
0.0
 40
0.0
 41
0.0
  0
VERTEX
  5
   823
  8
0
  6
CONTINUOUS
 10
-620.548288110457
 20
-67.9055926208913
 30
0.0
 40
0.0
 41
0.0
  0
VERTEX
  5
   824
  8
0
  6
CONTINUOUS
 10
-620.61046623472
 20
-67.7944793523121
 30
0.0
 40
0.0
 41
0.0
  0
VERTEX
  5
   825
  8
0
  6
CONTINUOUS
 10
-620.671537376146
 20
-67.6828374993157
 30
0.0
 40
0.0
 41
0.0
  0
VERTEX
  5
   826
  8
0
  6
CONTINUOUS
 10
-620.731427743216
 20
-67.5706568750569
 30
0.0
 40
0.0
 41
0.0
  0
VERTEX
  5
   827
  8
0
  6
CONTINUOUS
 10
-620.790063750913
 20
-67.4579276477344
 30
0.0
 40
0.0
 41
0.0
  0
VERTEX
  5
   828
  8
0
  6
CONTINUOUS
 10
-620.847373025034
 20
-67.3446405444884
 30
0.0
 40
0.0
 41
0.0
  0
VERTEX
  5
   829
  8
0
  6
CONTINUOUS
 10
-620.903285406491
 20
-67.2307870552985
 30
0.0
 40
0.0
 41
0.0
  0
VERTEX
  5
   82A
  8
0
  6
CONTINUOUS
 10
-620.957733955623
 20
-67.1163596368815
 30
0.0
 40
0.0
 41
0.0
  0
VERTEX
  5
   82B
  8
0
  6
CONTINUOUS
 10
-621.0106559565
 20
-67.001351916589
 30
0.0
 40
0.0
 41
0.0
  0
VERTEX
  5
   82C
  8
0
  6
CONTINUOUS
 10
-621.061993921233
 20
-66.8857588963051
 30
0.0
 40
0.0
 41
0.0
  0
VERTEX
  5
   82D
  8
0
  6
CONTINUOUS
 10
-621.111696594278
 20
-66.7695771563443
 30
0.0
 40
0.0
 41
0.0
  0
VERTEX
  5
   82E
  8
0
  6
CONTINUOUS
 10
-621.159719956742
 20
-66.6528050593492
 30
0.0
 40
0.0
 41
0.0
  0
VERTEX
  5
   82F
  8
0
  6
CONTINUOUS
 10
-621.206028230694
 20
-66.535442954188
 30
0.0
 40
0.0
 41
0.0
  0
VERTEX
  5
   830
  8
0
  6
CONTINUOUS
 10
-621.25059488347
 20
-66.4174933798526
 30
0.0
 40
0.0
 41
0.0
  0
VERTEX
  5
   831
  8
0
  6
CONTINUOUS
 10
-621.293403631979
 20
-66.2989612693562
 30
0.0
 40
0.0
 41
0.0
  0
VERTEX
  5
   832
  8
0
  6
CONTINUOUS
 10
-621.33444944701
 20
-66.1798541536307
 30
0.0
 40
0.0
 41
0.0
  0
VERTEX
  5
   833
  8
0
  6
CONTINUOUS
 10
-621.37373955754
 20
-66.0601823654251
 30
0.0
 40
0.0
 41
0.0
  0
VERTEX
  5
   834
  8
0
  6
CONTINUOUS
 10
-621.423444187704
 20
-65.899726584492
 30
0.0
 40
0.0
 41
0.0
  0
VERTEX
  5
   835
  8
0
  6
CONTINUOUS
 10
-621.470150531107
 20
-65.738330684506
 30
0.0
 40
0.0
 41
0.0
  0
VERTEX
  5
   836
  8
0
  6
CONTINUOUS
 10
-621.513985558428
 20
-65.5760438553056
 30
0.0
 40
0.0
 41
0.0
  0
VERTEX
  5
   837
  8
0
  6
CONTINUOUS
 10
-621.555112314542
 20
-65.4129232543475
 30
0.0
 40
0.0
 41
0.0
  0
VERTEX
  5
   838
  8
0
  6
CONTINUOUS
 10
-621.593725388963
 20
-65.2490329136785
 30
0.0
 40
0.0
 41
0.0
  0
VERTEX
  5
   839
  8
0
  6
CONTINUOUS
 10
-621.630046386277
 20
-65.0844426469066
 30
0.0
 40
0.0
 41
0.0
  0
VERTEX
  5
   83A
  8
0
  6
CONTINUOUS
 10
-621.66431939658
 20
-64.9192269561726
 30
0.0
 40
0.0
 41
0.0
  0
VERTEX
  5
   83B
  8
0
  6
CONTINUOUS
 10
-621.696806465912
 20
-64.7534639391216
 30
0.0
 40
0.0
 41
0.0
  0
VERTEX
  5
   83C
  8
0
  6
CONTINUOUS
 10
-621.7277830667
 20
-64.587234195874
 30
0.0
 40
0.0
 41
0.0
  0
VERTEX
  5
   83D
  8
0
  6
CONTINUOUS
 10
-621.757533568185
 20
-64.4206197359972
 30
0.0
 40
0.0
 41
0.0
  0
VERTEX
  5
   83E
  8
0
  6
CONTINUOUS
 10
-621.81451105694
 20
-64.0865651936894
 30
0.0
 40
0.0
 41
0.0
  0
VERTEX
  5
   83F
  8
0
  6
CONTINUOUS
 10
-621.926192718643
 20
-63.4173486104117
 30
0.0
 40
0.0
 41
0.0
  0
VERTEX
  5
   840
  8
0
  6
CONTINUOUS
 10
-621.984870850556
 20
-63.0832948452728
 30
0.0
 40
0.0
 41
0.0
  0
VERTEX
  5
   841
  8
0
  6
CONTINUOUS
 10
-622.015608915569
 20
-62.9165998758597
 30
0.0
 40
0.0
 41
0.0
  0
VERTEX
  5
   842
  8
0
  6
CONTINUOUS
 10
-622.047457394821
 20
-62.7501773387824
 30
0.0
 40
0.0
 41
0.0
  0
VERTEX
  5
   843
  8
0
  6
CONTINUOUS
 10
-622.078610006101
 20
-62.5933812421659
 30
0.0
 40
0.0
 41
0.0
  0
VERTEX
  5
   844
  8
0
  6
CONTINUOUS
 10
-622.110860830466
 20
-62.4368626965236
 30
0.0
 40
0.0
 41
0.0
  0
VERTEX
  5
   845
  8
0
  6
CONTINUOUS
 10
-622.144211282821
 20
-62.2806253548503
 30
0.0
 40
0.0
 41
0.0
  0
VERTEX
  5
   846
  8
0
  6
CONTINUOUS
 10
-622.178632562668
 20
-62.124665094984
 30
0.0
 40
0.0
 41
0.0
  0
VERTEX
  5
   847
  8
0
  6
CONTINUOUS
 10
-622.250438883832
 20
-61.8135249968767
 30
0.0
 40
0.0
 41
0.0
  0
VERTEX
  5
   848
  8
0
  6
CONTINUOUS
 10
-622.325556282679
 20
-61.5032826791266
 30
0.0
 40
0.0
 41
0.0
  0
VERTEX
  5
   849
  8
0
  6
CONTINUOUS
 10
-622.402965087021
 20
-61.1937024495873
 30
0.0
 40
0.0
 41
0.0
  0
VERTEX
  5
   84A
  8
0
  6
CONTINUOUS
 10
-622.559659275617
 20
-60.5753509415033
 30
0.0
 40
0.0
 41
0.0
  0
VERTEX
  5
   84B
  8
0
  6
CONTINUOUS
 10
-622.636267296013
 20
-60.2659463837643
 30
0.0
 40
0.0
 41
0.0
  0
VERTEX
  5
   84C
  8
0
  6
CONTINUOUS
 10
-622.709999279756
 20
-59.9559857892822
 30
0.0
 40
0.0
 41
0.0
  0
VERTEX
  5
   84D
  8
0
  6
CONTINUOUS
 10
-622.745435028086
 20
-59.8007157141931
 30
0.0
 40
0.0
 41
0.0
  0
VERTEX
  5
   84E
  8
0
  6
CONTINUOUS
 10
-622.779759391866
 20
-59.6452168713121
 30
0.0
 40
0.0
 41
0.0
  0
VERTEX
  5
   84F
  8
0
  6
CONTINUOUS
 10
-622.813825345353
 20
-59.4849188329384
 30
0.0
 40
0.0
 41
0.0
  0
VERTEX
  5
   850
  8
0
  6
CONTINUOUS
 10
-622.846534214536
 20
-59.3243405537307
 30
0.0
 40
0.0
 41
0.0
  0
VERTEX
  5
   851
  8
0
  6
CONTINUOUS
 10
-622.877829874302
 20
-59.1634718752295
 30
0.0
 40
0.0
 41
0.0
  0
VERTEX
  5
   852
  8
0
  6
CONTINUOUS
 10
-622.907678047934
 20
-59.002308213175
 30
0.0
 40
0.0
 41
0.0
  0
VERTEX
  5
   853
  8
0
  6
CONTINUOUS
 10
-622.9360646324
 20
-58.840850064686
 30
0.0
 40
0.0
 41
0.0
  0
VERTEX
  5
   854
  8
0
  6
CONTINUOUS
 10
-622.962994023645
 20
-58.6791025154396
 30
0.0
 40
0.0
 41
0.0
  0
VERTEX
  5
   855
  8
0
  6
CONTINUOUS
 10
-622.988487441881
 20
-58.5170747468496
 30
0.0
 40
0.0
 41
0.0
  0
VERTEX
  5
   856
  8
0
  6
CONTINUOUS
 10
-623.012581256873
 20
-58.3547795432464
 30
0.0
 40
0.0
 41
0.0
  0
VERTEX
  5
   857
  8
0
  6
CONTINUOUS
 10
-623.035325313236
 20
-58.1922327990555
 30
0.0
 40
0.0
 41
0.0
  0
VERTEX
  5
   858
  8
0
  6
CONTINUOUS
 10
-623.056781255719
 20
-58.0294530259773
 30
0.0
 40
0.0
 41
0.0
  0
VERTEX
  5
   859
  8
0
  6
CONTINUOUS
 10
-623.077020854497
 20
-57.8664608601656
 30
0.0
 40
0.0
 41
0.0
  0
VERTEX
  5
   85A
  8
0
  6
CONTINUOUS
 10
-623.096124330463
 20
-57.7032785694074
 30
0.0
 40
0.0
 41
0.0
  0
VERTEX
  5
   85B
  8
0
  6
CONTINUOUS
 10
-623.131276002849
 20
-57.3764378854381
 30
0.0
 40
0.0
 41
0.0
  0
VERTEX
  5
   85C
  8
0
  6
CONTINUOUS
 10
-623.16298341536
 20
-57.0491230218298
 30
0.0
 40
0.0
 41
0.0
  0
VERTEX
  5
   85D
  8
0
  6
CONTINUOUS
 10
-623.192021740504
 20
-56.7215205919354
 30
0.0
 40
0.0
 41
0.0
  0
VERTEX
  5
   85E
  8
0
  6
CONTINUOUS
 10
-623.219140590093
 20
-56.3937960044328
 30
0.0
 40
0.0
 41
0.0
  0
VERTEX
  5
   85F
  8
0
  6
CONTINUOUS
 10
-623.264487094191
 20
-55.813112834648
 30
0.0
 40
0.0
 41
0.0
  0
VERTEX
  5
   860
  8
0
  6
CONTINUOUS
 10
-623.353898189845
 20
-54.6528856719671
 30
0.0
 40
0.0
 41
0.0
  0
VERTEX
  5
   861
  8
0
  6
CONTINUOUS
 10
-623.401601862535
 20
-54.0732723588715
 30
0.0
 40
0.0
 41
0.0
  0
VERTEX
  5
   862
  8
0
  6
CONTINUOUS
 10
-623.426902627778
 20
-53.7835469478863
 30
0.0
 40
0.0
 41
0.0
  0
VERTEX
  5
   863
  8
0
  6
CONTINUOUS
 10
-623.453477229148
 20
-53.4938800961351
 30
0.0
 40
0.0
 41
0.0
  0
VERTEX
  5
   864
  8
0
  6
CONTINUOUS
 10
-623.482731466008
 20
-53.1930921204708
 30
0.0
 40
0.0
 41
0.0
  0
VERTEX
  5
   865
  8
0
  6
CONTINUOUS
 10
-623.514037575117
 20
-52.8924513614491
 30
0.0
 40
0.0
 41
0.0
  0
VERTEX
  5
   866
  8
0
  6
CONTINUOUS
 10
-623.547819965459
 20
-52.5920391412916
 30
0.0
 40
0.0
 41
0.0
  0
VERTEX
  5
   867
  8
0
  6
CONTINUOUS
 10
-623.584538684716
 20
-52.2919588198521
 30
0.0
 40
0.0
 41
0.0
  0
VERTEX
  5
   868
  8
0
  6
CONTINUOUS
 10
-623.624673908843
 20
-51.9923321291031
 30
0.0
 40
0.0
 41
0.0
  0
VERTEX
  5
   869
  8
0
  6
CONTINUOUS
 10
-623.646174452028
 20
-51.8427310580446
 30
0.0
 40
0.0
 41
0.0
  0
VERTEX
  5
   86A
  8
0
  6
CONTINUOUS
 10
-623.668710431653
 20
-51.6932955076203
 30
0.0
 40
0.0
 41
0.0
  0
VERTEX
  5
   86B
  8
0
  6
CONTINUOUS
 10
-623.692340623808
 20
-51.5440442291856
 30
0.0
 40
0.0
 41
0.0
  0
VERTEX
  5
   86C
  8
0
  6
CONTINUOUS
 10
-623.717122154393
 20
-51.3949964350691
 30
0.0
 40
0.0
 41
0.0
  0
VERTEX
  5
   86D
  8
0
  6
CONTINUOUS
 10
-623.743110014424
 20
-51.2461716840258
 30
0.0
 40
0.0
 41
0.0
  0
VERTEX
  5
   86E
  8
0
  6
CONTINUOUS
 10
-623.770356575326
 20
-51.0975897666894
 30
0.0
 40
0.0
 41
0.0
  0
VERTEX
  5
   86F
  8
0
  6
CONTINUOUS
 10
-623.798911104238
 20
-50.9492705910249
 30
0.0
 40
0.0
 41
0.0
  0
VERTEX
  5
   870
  8
0
  6
CONTINUOUS
 10
-623.828819279309
 20
-50.8012340677816
 30
0.0
 40
0.0
 41
0.0
  0
VERTEX
  5
   871
  8
0
  6
CONTINUOUS
 10
-623.860122704998
 20
-50.6534999959455
 30
0.0
 40
0.0
 41
0.0
  0
VERTEX
  5
   872
  8
0
  6
CONTINUOUS
 10
-623.892858427375
 20
-50.506087948192
 30
0.0
 40
0.0
 41
0.0
  0
VERTEX
  5
   873
  8
0
  6
CONTINUOUS
 10
-623.927193168899
 20
-50.3584508584681
 30
0.0
 40
0.0
 41
0.0
  0
VERTEX
  5
   874
  8
0
  6
CONTINUOUS
 10
-623.96303038854
 20
-50.2111766291655
 30
0.0
 40
0.0
 41
0.0
  0
VERTEX
  5
   875
  8
0
  6
CONTINUOUS
 10
-624.000391245533
 20
-50.0642835506077
 30
0.0
 40
0.0
 41
0.0
  0
VERTEX
  5
   876
  8
0
  6
CONTINUOUS
 10
-624.039291091011
 20
-49.9177890191326
 30
0.0
 40
0.0
 41
0.0
  0
VERTEX
  5
   877
  8
0
  6
CONTINUOUS
 10
-624.079739370724
 20
-49.7717093213335
 30
0.0
 40
0.0
 41
0.0
  0
VERTEX
  5
   878
  8
0
  6
CONTINUOUS
 10
-624.121739527749
 20
-49.6260594183006
 30
0.0
 40
0.0
 41
0.0
  0
VERTEX
  5
   879
  8
0
  6
CONTINUOUS
 10
-624.165288905206
 20
-49.4808527298626
 30
0.0
 40
0.0
 41
0.0
  0
VERTEX
  5
   87A
  8
0
  6
CONTINUOUS
 10
-624.210378648972
 20
-49.3361009188278
 30
0.0
 40
0.0
 41
0.0
  0
VERTEX
  5
   87B
  8
0
  6
CONTINUOUS
 10
-624.256993610395
 20
-49.1918136752258
 30
0.0
 40
0.0
 41
0.0
  0
VERTEX
  5
   87C
  8
0
  6
CONTINUOUS
 10
-624.305112249007
 20
-49.0479985005484
 30
0.0
 40
0.0
 41
0.0
  0
VERTEX
  5
   87D
  8
0
  6
CONTINUOUS
 10
-624.354706535239
 20
-48.9046604919915
 30
0.0
 40
0.0
 41
0.0
  0
VERTEX
  5
   87E
  8
0
  6
CONTINUOUS
 10
-624.405741853136
 20
-48.7618021266962
 30
0.0
 40
0.0
 41
0.0
  0
VERTEX
  5
   87F
  8
0
  6
CONTINUOUS
 10
-624.458176903069
 20
-48.61942304599
 30
0.0
 40
0.0
 41
0.0
  0
VERTEX
  5
   880
  8
0
  6
CONTINUOUS
 10
-624.511963604452
 20
-48.4775198396288
 30
0.0
 40
0.0
 41
0.0
  0
VERTEX
  5
   881
  8
0
  6
CONTINUOUS
 10
-624.567046998452
 20
-48.3360858300375
 30
0.0
 40
0.0
 41
0.0
  0
VERTEX
  5
   882
  8
0
  6
CONTINUOUS
 10
-624.623365150708
 20
-48.1951108565519
 30
0.0
 40
0.0
 41
0.0
  0
VERTEX
  5
   883
  8
0
  6
CONTINUOUS
 10
-624.680849054042
 20
-48.0545810596599
 30
0.0
 40
0.0
 41
0.0
  0
VERTEX
  5
   884
  8
0
  6
CONTINUOUS
 10
-624.739422531172
 20
-47.914478665243
 30
0.0
 40
0.0
 41
0.0
  0
VERTEX
  5
   885
  8
0
  6
CONTINUOUS
 10
-624.859497063474
 20
-47.6354641197761
 30
0.0
 40
0.0
 41
0.0
  0
VERTEX
  5
   886
  8
0
  6
CONTINUOUS
 10
-624.975631277339
 20
-47.3738496233999
 30
0.0
 40
0.0
 41
0.0
  0
VERTEX
  5
   887
  8
0
  6
CONTINUOUS
 10
-625.093940375349
 20
-47.113221420167
 30
0.0
 40
0.0
 41
0.0
  0
VERTEX
  5
   888
  8
0
  6
CONTINUOUS
 10
-625.573324660511
 20
-46.074528478232
 30
0.0
 40
0.0
 41
0.0
  0
VERTEX
  5
   889
  8
0
  6
CONTINUOUS
 10
-625.691048920413
 20
-45.8142791513342
 30
0.0
 40
0.0
 41
0.0
  0
VERTEX
  5
   88A
  8
0
  6
CONTINUOUS
 10
-625.806772626067
 20
-45.5532802177767
 30
0.0
 40
0.0
 41
0.0
  0
VERTEX
  5
   88B
  8
0
  6
CONTINUOUS
 10
-625.920183256316
 20
-45.2913694048946
 30
0.0
 40
0.0
 41
0.0
  0
VERTEX
  5
   88C
  8
0
  6
CONTINUOUS
 10
-626.031180258746
 20
-45.0284690102964
 30
0.0
 40
0.0
 41
0.0
  0
VERTEX
  5
   88D
  8
0
  6
CONTINUOUS
 10
-626.128738656264
 20
-44.7919921502868
 30
0.0
 40
0.0
 41
0.0
  0
VERTEX
  5
   88E
  8
0
  6
CONTINUOUS
 10
-626.22476127551
 20
-44.5548314558871
 30
0.0
 40
0.0
 41
0.0
  0
VERTEX
  5
   88F
  8
0
  6
CONTINUOUS
 10
-626.603226754898
 20
-43.6029463308104
 30
0.0
 40
0.0
 41
0.0
  0
VERTEX
  5
   890
  8
0
  6
CONTINUOUS
 10
-626.699236198807
 20
-43.3652514139325
 30
0.0
 40
0.0
 41
0.0
  0
VERTEX
  5
   891
  8
0
  6
CONTINUOUS
 10
-626.796816025904
 20
-43.1280781539989
 30
0.0
 40
0.0
 41
0.0
  0
VERTEX
  5
   892
  8
0
  6
CONTINUOUS
 10
-626.896293011714
 20
-42.8915708468558
 30
0.0
 40
0.0
 41
0.0
  0
VERTEX
  5
   893
  8
0
  6
CONTINUOUS
 10
-626.997818894845
 20
-42.655810539871
 30
0.0
 40
0.0
 41
0.0
  0
VERTEX
  5
   894
  8
0
  6
CONTINUOUS
 10
-627.112486391364
 20
-42.3957405627453
 30
0.0
 40
0.0
 41
0.0
  0
VERTEX
  5
   895
  8
0
  6
CONTINUOUS
 10
-627.229136496559
 20
-42.1364560925185
 30
0.0
 40
0.0
 41
0.0
  0
VERTEX
  5
   896
  8
0
  6
CONTINUOUS
 10
-627.465106959569
 20
-41.6191644355824
 30
0.0
 40
0.0
 41
0.0
  0
VERTEX
  5
   897
  8
0
  6
CONTINUOUS
 10
-627.582255821869
 20
-41.360418044943
 30
0.0
 40
0.0
 41
0.0
  0
VERTEX
  5
   898
  8
0
  6
CONTINUOUS
 10
-627.69719862311
 20
-41.1010354656893
 30
0.0
 40
0.0
 41
0.0
  0
VERTEX
  5
   899
  8
0
  6
CONTINUOUS
 10
-627.753443867401
 20
-40.970967073401
 30
0.0
 40
0.0
 41
0.0
  0
VERTEX
  5
   89A
  8
0
  6
CONTINUOUS
 10
-627.808664129636
 20
-40.8405751132961
 30
0.0
 40
0.0
 41
0.0
  0
VERTEX
  5
   89B
  8
0
  6
CONTINUOUS
 10
-627.862711216989
 20
-40.7098080851055
 30
0.0
 40
0.0
 41
0.0
  0
VERTEX
  5
   89C
  8
0
  6
CONTINUOUS
 10
-627.9154458026
 20
-40.5786176513264
 30
0.0
 40
0.0
 41
0.0
  0
VERTEX
  5
   89D
  8
0
  6
CONTINUOUS
 10
-627.966739836844
 20
-40.4469595233525
 30
0.0
 40
0.0
 41
0.0
  0
VERTEX
  5
   89E
  8
0
  6
CONTINUOUS
 10
-628.016478958604
 20
-40.3147943476048
 30
0.0
 40
0.0
 41
0.0
  0
VERTEX
  5
   89F
  8
0
  6
CONTINUOUS
 10
-628.064564906538
 20
-40.1820885916622
 30
0.0
 40
0.0
 41
0.0
  0
VERTEX
  5
   8A0
  8
0
  6
CONTINUOUS
 10
-628.110917930353
 20
-40.0488154303912
 30
0.0
 40
0.0
 41
0.0
  0
VERTEX
  5
   8A1
  8
0
  6
CONTINUOUS
 10
-628.151148684319
 20
-39.9282343974953
 30
0.0
 40
0.0
 41
0.0
  0
VERTEX
  5
   8A2
  8
0
  6
CONTINUOUS
 10
-628.189897093173
 20
-39.8071685971575
 30
0.0
 40
0.0
 41
0.0
  0
VERTEX
  5
   8A3
  8
0
  6
CONTINUOUS
 10
-628.22715000051
 20
-39.6856148123258
 30
0.0
 40
0.0
 41
0.0
  0
VERTEX
  5
   8A4
  8
0
  6
CONTINUOUS
 10
-628.262907569198
 20
-39.5635746593752
 30
0.0
 40
0.0
 41
0.0
  0
VERTEX
  5
   8A5
  8
0
  6
CONTINUOUS
 10
-628.297182252375
 20
-39.4410542107321
 30
0.0
 40
0.0
 41
0.0
  0
VERTEX
  5
   8A6
  8
0
  6
CONTINUOUS
 10
-628.32999776446
 20
-39.3180636174982
 30
0.0
 40
0.0
 41
0.0
  0
VERTEX
  5
   8A7
  8
0
  6
CONTINUOUS
 10
-628.361388052153
 20
-39.1946167320752
 30
0.0
 40
0.0
 41
0.0
  0
VERTEX
  5
   8A8
  8
0
  6
CONTINUOUS
 10
-628.391396265441
 20
-39.0707307307894
 30
0.0
 40
0.0
 41
0.0
  0
VERTEX
  5
   8A9
  8
0
  6
CONTINUOUS
 10
-628.420073728601
 20
-38.9464257365152
 30
0.0
 40
0.0
 41
0.0
  0
VERTEX
  5
   8AA
  8
0
  6
CONTINUOUS
 10
-628.447478911204
 20
-38.8217244413003
 30
0.0
 40
0.0
 41
0.0
  0
VERTEX
  5
   8AB
  8
0
  6
CONTINUOUS
 10
-628.473676399122
 20
-38.6966517289894
 30
0.0
 40
0.0
 41
0.0
  0
VERTEX
  5
   8AC
  8
0
  6
CONTINUOUS
 10
-628.498735865527
 20
-38.5712342978491
 30
0.0
 40
0.0
 41
0.0
  0
VERTEX
  5
   8AD
  8
0
  6
CONTINUOUS
 10
-628.522731041897
 20
-38.4455002831916
 30
0.0
 40
0.0
 41
0.0
  0
VERTEX
  5
   8AE
  8
0
  6
CONTINUOUS
 10
-628.545738689025
 20
-38.3194788799997
 30
0.0
 40
0.0
 41
0.0
  0
VERTEX
  5
   8AF
  8
0
  6
CONTINUOUS
 10
-628.589107411289
 20
-38.0666937220404
 30
0.0
 40
0.0
 41
0.0
  0
VERTEX
  5
   8B0
  8
0
  6
CONTINUOUS
 10
-628.629477603008
 20
-37.8131192369624
 30
0.0
 40
0.0
 41
0.0
  0
VERTEX
  5
   8B1
  8
0
  6
CONTINUOUS
 10
-628.667467448107
 20
-37.5589886404387
 30
0.0
 40
0.0
 41
0.0
  0
VERTEX
  5
   8B2
  8
0
  6
CONTINUOUS
 10
-628.704394481459
 20
-37.2991315221996
 30
0.0
 40
0.0
 41
0.0
  0
VERTEX
  5
   8B3
  8
0
  6
CONTINUOUS
 10
-628.739956907642
 20
-37.0391154560755
 30
0.0
 40
0.0
 41
0.0
  0
VERTEX
  5
   8B4
  8
0
  6
CONTINUOUS
 10
-628.944520930559
 20
-35.4831552941895
 30
0.0
 40
0.0
 41
0.0
  0
VERTEX
  5
   8B5
  8
0
  6
CONTINUOUS
 10
-629.01424112529
 20
-34.9679186686806
 30
0.0
 40
0.0
 41
0.0
  0
SEQEND
  5
   8B6
  8
0
  6
CONTINUOUS
 62
     1
  0
LINE
  5
   8B7
  8
0
  6
CONTINUOUS
 62
     1
 10
-584.650742263443
 20
-69.9678326416191
 30
0.0
 11
-584.650742263443
 21
-35.4678326416191
 31
0.0
  0
LINE
  5
   8B8
  8
0
  6
CONTINUOUS
 62
     1
 10
-582.850742263443
 20
-69.9678326416191
 30
0.0
 11
-582.850742263443
 21
-35.4678326416191
 31
0.0
  0
LINE
  5
   8B9
  8
0
  6
CONTINUOUS
 62
     1
 10
-581.050742263444
 20
-69.9678326416191
 30
0.0
 11
-581.050742263444
 21
-35.4678326416191
 31
0.0
  0
LINE
  5
   8BA
  8
0
  6
CONTINUOUS
 62
     1
 10
-579.250742263444
 20
-69.9678326416191
 30
0.0
 11
-579.250742263444
 21
-35.4678326416191
 31
0.0
  0
LINE
  5
   8BB
  8
0
  6
CONTINUOUS
 62
     1
 10
-577.450742263443
 20
-69.9678326416191
 30
0.0
 11
-577.450742263443
 21
-35.4678326416191
 31
0.0
  0
LINE
  5
   8BC
  8
0
  6
CONTINUOUS
 62
    56
 10
-640.275742450662
 20
-60.9678829410845
 30
0.0
 11
-640.275742450662
 21
-46.9678326416193
 31
0.0
  0
LINE
  5
   8BD
  8
0
  6
CONTINUOUS
 62
    56
 10
-625.275742450662
 20
-60.9678829410845
 30
0.0
 11
-625.275742450662
 21
-46.9678326416193
 31
0.0
  0
LINE
  5
   8BE
  8
0
  6
CONTINUOUS
 62
    56
 10
-625.275742450662
 20
-60.9678829410845
 30
0.0
 11
-640.275742450662
 21
-60.9678829410845
 31
0.0
  0
ARC
  5
   8BF
  8
0
  6
CONTINUOUS
 62
    56
 10
-632.775742450662
 20
-51.4678829410845
 30
0.0
 40
5.25
 50
121.00165332101
 51
418.998346575059
  0
LINE
  5
   8C0
  8
0
  6
DOT
 62
    56
 10
-637.275742450662
 20
-60.9678829410845
 30
0.0
 11
-637.275742450662
 21
-54.1720463976825
 31
0.0
  0
LINE
  5
   8C1
  8
0
  6
DOT
 62
    56
 10
-628.275742450662
 20
-60.9678829410845
 30
0.0
 11
-628.275742450662
 21
-54.1720463976825
 31
0.0
  0
LINE
  5
   8C2
  8
0
  6
DOT
 62
    56
 10
-629.025742450662
 20
-60.9678829410845
 30
0.0
 11
-629.025742450662
 21
-55.1421175552593
 31
0.0
  0
LINE
  5
   8C3
  8
0
  6
DOT
 62
    56
 10
-636.525742450662
 20
-60.9678829410845
 30
0.0
 11
-636.525742450662
 21
-55.1421175552593
 31
0.0
  0
LINE
  5
   8C4
  8
0
  6
CONTINUOUS
 62
     7
 10
-575.900742067817
 20
-17.2178326416192
 30
0.0
 11
-581.650742263443
 21
-17.2178326416192
 31
0.0
  0
LINE
  5
   8C5
  8
0
  6
CONTINUOUS
 62
     7
 10
-575.900742067817
 20
-16.7178497314455
 30
0.0
 11
-581.650742263443
 21
-16.7178497314455
 31
0.0
  0
LINE
  5
   8C6
  8
0
  6
CONTINUOUS
 62
     3
 10
-636.650742293246
 20
24.1571426391602
 30
0.0
 11
-637.150742263429
 21
24.1571426391602
 31
0.0
  0
LINE
  5
   8C7
  8
0
  6
CONTINUOUS
 62
     3
 10
-636.650742293246
 20
23.6571426391602
 30
0.0
 11
-637.150742263429
 21
23.6571426391602
 31
0.0
  0
CIRCLE
  5
   8C8
  8
0
  6
CONTINUOUS
 62
     7
 10
-583.004987878207
 20
55.2450608634173
 30
0.0
 40
0.1
  0
TEXT
  5
   8C9
  8
0
  6
CONTINUOUS
 62
     7
 10
-563.590984464688
 20
-5.73751813309151
 30
0.0
 40
3.00000002980232
  1
=
 50
89.9999999480344
 41
0.916666604744064
 72
     2
 11
-563.590984462695
 21
-3.53751826422173
 31
0.0
  0
TEXT
  5
   8CA
  8
0
  6
CONTINUOUS
 62
     7
 10
-562.932982743783
 20
34.8392564640765
 30
0.0
 40
3.00000002980232
  1
=
 50
89.9999999480344
 41
0.916666604744064
 72
     2
 11
-562.93298274179
 21
37.0392563329462
 31
0.0
  0
INSERT
  5
   8CB
  8
0
  6
CONTINUOUS
 62
     7
  2
*UDIM1564
 10
0.0
 20
0.0
 30
0.0
  0
INSERT
  5
   8CC
  8
0
  6
CONTINUOUS
 62
     7
  2
*UDIM1565
 10
0.0
 20
0.0
 30
0.0
  0
INSERT
  5
   8CD
  8
0
  6
CONTINUOUS
 62
     7
  2
*UDIM1566
 10
0.0
 20
0.0
 30
0.0
  0
INSERT
  5
   8CE
  8
0
  6
CONTINUOUS
 62
     7
  2
*UDIM1567
 10
0.0
 20
0.0
 30
0.0
  0
INSERT
  5
   8CF
  8
0
  6
CONTINUOUS
 62
     7
  2
*UDIM1568
 10
0.0
 20
0.0
 30
0.0
  0
TEXT
  5
   8D0
  8
0
  6
CONTINUOUS
 62
     7
 10
-613.161735828082
 20
-76.4514165325951
 30
0.0
 40
3.00000002980232
  1
Y
 50
359.999999948034
 41
0.916666604744064
 72
     2
 11
-610.961735959212
 21
-76.4514165345794
 31
0.0
  0
INSERT
  5
   8D1
  8
0
  6
CONTINUOUS
 62
     7
  2
*UDIM1569
 10
0.0
 20
0.0
 30
0.0
  0
INSERT
  5
   8D2
  8
0
  6
CONTINUOUS
 62
     7
  2
*UDIM1570
 10
0.0
 20
0.0
 30
0.0
  0
INSERT
  5
   8D3
  8
0
  6
CONTINUOUS
 62
     7
  2
*UDIM1571
 10
0.0
 20
0.0
 30
0.0
  0
INSERT
  5
   8D4
  8
0
  6
CONTINUOUS
 62
     7
  2
*UDIM1572
 10
0.0
 20
0.0
 30
0.0
  0
TEXT
  5
   8D5
  8
0
  6
CONTINUOUS
 62
     7
 10
-560.331148297947
 20
16.1743815011756
 30
0.0
 40
3.00000002980232
  1
X
 50
359.999999948034
 41
0.916666604744064
 72
     1
 11
-559.23114836216
 21
17.6743815150846
 31
0.0
 73
     2
  0
TEXT
  5
   8D6
  8
0
  6
CONTINUOUS
 62
     7
 10
-682.612998874348
 20
15.5811235971228
 30
0.0
 40
3.00000002980232
  1
X
 50
359.999999948034
 41
0.916666604744064
 72
     1
 11
-681.51299893856
 21
17.0811236110319
 31
0.0
 73
     2
  0
TEXT
  5
   8D7
  8
0
  6
CONTINUOUS
 62
     7
 10
-611.606696994465
 20
109.073654419877
 30
0.0
 40
3.00000002980232
  1
Y
 50
359.999999948034
 41
0.916666604744064
 72
     1
 11
-610.506697058678
 21
110.573654433786
 31
0.0
 73
     2
  0
INSERT
  5
   8D8
  8
255
  6
CONTINUOUS
 62
     7
  2
MOSTRINA
 10
-668.319870681412
 20
-37.5831604003906
 30
0.0
 41
0.5
 42
0.5
 50
3.50835464724173E-15
 43
0.5
  0
LINE
  5
   8D9
  8
0
  6
CONTINUOUS
 62
     7
 10
-365.013092041016
 20
27.7306518554688
 30
0.0
 11
-337.013092041016
 21
27.7306518554688
 31
0.0
  0
LINE
  5
   8DA
  8
0
  6
CONTINUOUS
 62
     7
 10
-365.013092041016
 20
55.7306518554688
 30
0.0
 11
-337.013092041016
 21
55.7306518554688
 31
0.0
  0
LINE
  5
   8DB
  8
0
  6
CONTINUOUS
 62
     7
 10
-365.013092041016
 20
55.7306518554688
 30
0.0
 11
-365.013092041016
 21
27.7306518554688
 31
0.0
  0
LINE
  5
   8DC
  8
0
  6
CONTINUOUS
 62
     7
 10
-337.013092041016
 20
55.7306518554688
 30
0.0
 11
-337.013092041016
 21
27.7306518554688
 31
0.0
  0
CIRCLE
  5
   8DD
  8
0
  6
CONTINUOUS
 62
     7
 10
-361.013092041016
 20
59.4806518554688
 30
0.0
 40
0.875
  0
CIRCLE
  5
   8DE
  8
0
  6
CONTINUOUS
 62
     7
 10
-341.013092041016
 20
59.4806518554688
 30
0.0
 40
0.875
  0
CIRCLE
  5
   8DF
  8
0
  6
CONTINUOUS
 62
     7
 10
-361.013092041016
 20
23.9806518554688
 30
0.0
 40
0.875
  0
CIRCLE
  5
   8E0
  8
0
  6
CONTINUOUS
 62
     7
 10
-341.013092041016
 20
23.9806518554688
 30
0.0
 40
0.875
  0
LINE
  5
   8E1
  8
0
  6
DASHDOT
 62
     7
 10
-361.013092041016
 20
61.1056518554688
 30
0.0
 11
-361.013092041016
 21
57.8556518554688
 31
0.0
  0
LINE
  5
   8E2
  8
0
  6
DASHDOT
 62
     7
 10
-362.638092041016
 20
59.4806518554688
 30
0.0
 11
-359.388092041016
 21
59.4806518554688
 31
0.0
  0
LINE
  5
   8E3
  8
0
  6
DASHDOT
 62
     7
 10
-341.013092041016
 20
61.1056518554688
 30
0.0
 11
-341.013092041016
 21
57.8556518554688
 31
0.0
  0
LINE
  5
   8E4
  8
0
  6
DASHDOT
 62
     7
 10
-342.638092041016
 20
59.4806518554688
 30
0.0
 11
-339.388092041016
 21
59.4806518554688
 31
0.0
  0
LINE
  5
   8E5
  8
0
  6
DASHDOT
 62
     7
 10
-341.013092041016
 20
25.6056518554688
 30
0.0
 11
-341.013092041016
 21
22.3556518554688
 31
0.0
  0
LINE
  5
   8E6
  8
0
  6
DASHDOT
 62
     7
 10
-342.638092041016
 20
23.9806518554688
 30
0.0
 11
-339.388092041016
 21
23.9806518554688
 31
0.0
  0
LINE
  5
   8E7
  8
0
  6
DASHDOT
 62
     7
 10
-361.013092041016
 20
25.6056518554688
 30
0.0
 11
-361.013092041016
 21
22.3556518554688
 31
0.0
  0
LINE
  5
   8E8
  8
0
  6
DASHDOT
 62
     7
 10
-362.638092041016
 20
23.9806518554688
 30
0.0
 11
-359.388092041016
 21
23.9806518554688
 31
0.0
  0
LINE
  5
   8E9
  8
0
  6
DASHDOT
 62
     7
 10
-351.013092041016
 20
69.1007641408058
 30
0.0
 11
-351.013092041016
 21
12.6074010106477
 31
0.0
  0
LINE
  5
   8EA
  8
0
  6
CONTINUOUS
 62
     7
 10
-367.833668584681
 20
62.1318375106748
 30
0.0
 11
-333.879108361374
 21
62.1318375106748
 31
0.0
  0
LINE
  5
   8EB
  8
0
  6
CONTINUOUS
 62
     7
 10
-367.833668584681
 20
20.5667724097295
 30
0.0
 11
-333.879108361374
 21
20.5667724097295
 31
0.0
  0
LINE
  5
   8EC
  8
0
  6
CONTINUOUS
 62
     7
 10
-333.879108361374
 20
62.1318375106748
 30
0.0
 11
-333.879108361374
 21
20.5667724097295
 31
0.0
  0
LINE
  5
   8ED
  8
0
  6
CONTINUOUS
 62
     7
 10
-367.833668584681
 20
62.1318375106748
 30
0.0
 11
-367.833668584681
 21
20.5667724097295
 31
0.0
  0
CIRCLE
  5
   8EE
  8
0
  6
CONTINUOUS
 62
     7
 10
-365.960313537878
 20
60.3170248090842
 30
0.0
 40
0.0625
  0
LINE
  5
   8EF
  8
0
  6
DASHDOT
 62
     7
 10
-374.647397187324
 20
41.7306518554688
 30
0.0
 11
-326.773127209093
 21
41.7306518554688
 31
0.0
  0
TEXT
  5
   8F0
  8
0
  6
CONTINUOUS
 62
     5
 10
-372.778431829588
 20
31.4906933952422
 30
0.0
 40
3.00000002980232
  1
=     =
 50
449.999999844103
 41
0.916666604744064
 72
     2
 11
-372.778431778824
 21
50.1906923134179
 31
0.0
  0
TEXT
  5
   8F1
  8
0
  6
CONTINUOUS
 62
     5
 10
-381.691960643788
 20
27.5536916885824
 30
0.0
 40
3.00000002980232
  1
=        =
 50
449.999999844103
 41
0.916666604744064
 72
     2
 11
-381.691960570628
 21
54.503690131411
 31
0.0
  0
INSERT
  5
   8F2
  8
0
  6
CONTINUOUS
 62
     7
  2
*UDIM1573
 10
0.0
 20
0.0
 30
0.0
  0
TEXT
  5
   8F3
  8
0
  6
CONTINUOUS
 62
     7
 10
-357.9136340341
 20
74.9549977217458
 30
0.0
 40
3.00000002980232
  1
=   =
 50
359.999999844103
 41
0.916666604744064
 72
     2
 11
-344.713634799026
 21
74.9549976858961
 31
0.0
  0
TEXT
  5
   8F4
  8
0
  6
CONTINUOUS
 62
     7
 10
-357.972176285687
 20
68.3982560072683
 30
0.0
 40
3.00000002980232
  1
=   =
 50
359.999999844103
 41
0.916666604744064
 72
     2
 11
-344.772177050613
 21
68.3982559714186
 31
0.0
  0
INSERT
  5
   8F5
  8
0
  6
CONTINUOUS
 62
     7
  2
*UDIM1574
 10
0.0
 20
0.0
 30
0.0
  0
INSERT
  5
   8F6
  8
0
  6
CONTINUOUS
 62
     7
  2
*UDIM1575
 10
0.0
 20
0.0
 30
0.0
  0
INSERT
  5
   8F7
  8
0
  6
CONTINUOUS
 62
     7
  2
*UDIM1576
 10
0.0
 20
0.0
 30
0.0
  0
INSERT
  5
   8F8
  8
0
  6
CONTINUOUS
 62
     7
  2
*UDIM1577
 10
0.0
 20
0.0
 30
0.0
  0
TEXT
  5
   8F9
  8
0
  6
CONTINUOUS
 62
     7
 10
-352.201372037433
 20
5.7555579447797
 30
0.0
 40
3.00000002980232
  1
Y
 50
359.999999844103
 41
0.916666604744064
 72
     2
 11
-350.001372168564
 21
5.75555793880475
 31
0.0
  0
TEXT
  5
   8FA
  8
0
  6
CONTINUOUS
 62
     7
 10
-351.264694581531
 20
84.4950141215375
 30
0.0
 40
3.00000002980232
  1
Y
 50
359.999999844103
 41
0.916666604744064
 72
     2
 11
-349.064694712662
 21
84.4950141155626
 31
0.0
  0
TEXT
  5
   8FB
  8
0
  6
CONTINUOUS
 62
     7
 10
-325.785196195148
 20
40.6770320439389
 30
0.0
 40
3.00000002980232
  1
X
 50
359.999999844103
 41
0.916666604744064
 72
     2
 11
-323.585196326279
 21
40.677032037964
 31
0.0
  0
TEXT
  5
   8FC
  8
0
  6
CONTINUOUS
 62
     7
 10
-396.805885205768
 20
40.6770320439389
 30
0.0
 40
3.00000002980232
  1
X
 50
359.999999844103
 41
0.916666604744064
 72
     2
 11
-394.605885336899
 21
40.677032037964
 31
0.0
  0
LINE
  5
   8FD
  8
0
  6
DASHDOT
 62
     7
 10
-567.564462175601
 20
-100.21490599215
 30
0.0
 11
-597.048650547169
 21
-100.21490599215
 31
0.0
  0
LINE
  5
   8FE
  8
0
  6
DASHDOT
 62
     7
 10
-565.000999914727
 20
-143.01490662992
 30
0.0
 11
-599.548026251521
 21
-143.01490662992
 31
0.0
  0
LINE
  5
   8FF
  8
0
  6
DASHDOT
 62
     7
 10
-584.094421386719
 20
-94.787911003362
 30
0.0
 11
-584.094421386719
 21
-147.979752916494
 31
0.0
  0
CIRCLE
  5
   900
  8
0
  6
CONTINUOUS
 62
     7
 10
-588.469421451911
 20
-100.21490599215
 30
0.0
 40
0.550000008195639
  0
CIRCLE
  5
   901
  8
0
  6
CONTINUOUS
 62
     7
 10
-579.719421321526
 20
-100.21490599215
 30
0.0
 40
0.550000008195639
  0
LINE
  5
   902
  8
0
  6
DASHDOT
 62
     7
 10
-588.469421451911
 20
-98.3316169816381
 30
0.0
 11
-588.469421451911
 21
-147.979752916494
 31
0.0
  0
LINE
  5
   903
  8
0
  6
DASHDOT
 62
     7
 10
-579.719421321526
 20
-98.5323350256768
 30
0.0
 11
-579.719421321526
 21
-145.888599811698
 31
0.0
  0
CIRCLE
  5
   904
  8
0
  6
CONTINUOUS
 62
     7
 10
-588.469421451911
 20
-143.01490662992
 30
0.0
 40
0.550000008195639
  0
CIRCLE
  5
   905
  8
0
  6
CONTINUOUS
 62
     7
 10
-579.719421321526
 20
-143.01490662992
 30
0.0
 40
0.550000008195639
  0
LINE
  5
   906
  8
0
  6
DASHDOT
 62
     7
 10
-561.861059745771
 20
-121.26490630582
 30
0.0
 11
-601.770661979981
 21
-121.26490630582
 31
0.0
  0
ARC
  5
   907
  8
0
  6
CONTINUOUS
 62
    56
 10
-575.344421256334
 20
-94.4149059057236
 30
0.0
 40
4.00000005960464
 50
269.999999896069
 51
449.999999896069
  0
ARC
  5
   908
  8
0
  6
CONTINUOUS
 62
    56
 10
-592.844421517104
 20
-94.4149059057236
 30
0.0
 40
4.00000005960464
 50
449.999999896069
 51
629.999999896069
  0
ARC
  5
   909
  8
0
  6
CONTINUOUS
 62
    56
 10
-575.344421256334
 20
-148.814906716347
 30
0.0
 40
4.00000005960464
 50
269.999999896069
 51
449.999999896069
  0
ARC
  5
   90A
  8
0
  6
CONTINUOUS
 62
    56
 10
-592.844421517104
 20
-148.814906716347
 30
0.0
 40
4.00000005960464
 50
449.999999896069
 51
629.999999896069
  0
LINE
  5
   90B
  8
0
  6
CONTINUOUS
 62
     7
 10
-568.103871294486
 20
-87.6266546329119
 30
0.0
 11
-600.151852325986
 21
-87.6266546329119
 31
0.0
  0
LINE
  5
   90C
  8
0
  6
CONTINUOUS
 62
     7
 10
-568.103871294486
 20
-155.536259532644
 30
0.0
 11
-600.151852325986
 21
-155.536259532644
 31
0.0
  0
LINE
  5
   90D
  8
0
  6
CONTINUOUS
 62
     7
 10
-600.151852325986
 20
-87.6266546329119
 30
0.0
 11
-600.151852325986
 21
-155.536259532644
 31
0.0
  0
LINE
  5
   90E
  8
0
  6
CONTINUOUS
 62
     7
 10
-568.103871294486
 20
-87.6266546329119
 30
0.0
 11
-568.103871294486
 21
-155.536259532644
 31
0.0
  0
LINE
  5
   90F
  8
0
  6
CONTINUOUS
 62
    56
 10
-575.344421256334
 20
-90.4149058461189
 30
0.0
 11
-592.844421517104
 21
-90.4149058461189
 31
0.0
  0
LINE
  5
   910
  8
0
  6
CONTINUOUS
 62
    56
 10
-575.344421256334
 20
-98.4149059653282
 30
0.0
 11
-592.844421517104
 21
-98.4149059653282
 31
0.0
  0
LINE
  5
   911
  8
0
  6
CONTINUOUS
 62
    56
 10
-575.344421256334
 20
-144.814906656742
 30
0.0
 11
-592.844421517104
 21
-144.814906656742
 31
0.0
  0
LINE
  5
   912
  8
0
  6
CONTINUOUS
 62
    56
 10
-575.344421256334
 20
-152.814906775951
 30
0.0
 11
-592.844421517104
 21
-152.814906775951
 31
0.0
  0
LINE
  5
   913
  8
0
  6
DASHDOT
 62
    56
 10
-575.344421256334
 20
-89.4649058319628
 30
0.0
 11
-575.344421256334
 21
-98.6649059690535
 31
0.0
  0
LINE
  5
   914
  8
0
  6
DASHDOT
 62
    56
 10
-570.744421187788
 20
-94.4149059057236
 30
0.0
 11
-579.944421324879
 21
-94.4149059057236
 31
0.0
  0
LINE
  5
   915
  8
0
  6
DASHDOT
 62
    56
 10
-592.844421517104
 20
-89.4649058319628
 30
0.0
 11
-592.844421517104
 21
-98.6649059690535
 31
0.0
  0
LINE
  5
   916
  8
0
  6
DASHDOT
 62
    56
 10
-588.244421448559
 20
-94.4149059057236
 30
0.0
 11
-597.444421585649
 21
-94.4149059057236
 31
0.0
  0
LINE
  5
   917
  8
0
  6
DASHDOT
 62
    56
 10
-575.344421256334
 20
-144.214906647801
 30
0.0
 11
-575.344421256334
 21
-153.414906784892
 31
0.0
  0
LINE
  5
   918
  8
0
  6
DASHDOT
 62
    56
 10
-570.744421187788
 20
-148.814906716347
 30
0.0
 11
-579.944421324879
 21
-148.814906716347
 31
0.0
  0
LINE
  5
   919
  8
0
  6
DASHDOT
 62
    56
 10
-592.844421517104
 20
-144.214906647801
 30
0.0
 11
-592.844421517104
 21
-153.414906784892
 31
0.0
  0
LINE
  5
   91A
  8
0
  6
DASHDOT
 62
    56
 10
-588.244421448559
 20
-148.814906716347
 30
0.0
 11
-597.444421585649
 21
-148.814906716347
 31
0.0
  0
CIRCLE
  5
   91B
  8
0
  6
CONTINUOUS
 62
    56
 10
-571.9844201459
 20
-130.513410042497
 30
0.0
 40
6.00000008940697E-2
  0
INSERT
  5
   91C
  8
0
  6
CONTINUOUS
 62
     7
  2
*UDIM1578
 10
0.0
 20
0.0
 30
0.0
  0
INSERT
  5
   91D
  8
0
  6
CONTINUOUS
 62
     7
  2
*UDIM1579
 10
0.0
 20
0.0
 30
0.0
  0
INSERT
  5
   91E
  8
0
  6
CONTINUOUS
 62
    56
  2
*UDIM1580
 10
0.0
 20
0.0
 30
0.0
  0
INSERT
  5
   91F
  8
0
  6
CONTINUOUS
 62
    56
  2
*UDIM1581
 10
0.0
 20
0.0
 30
0.0
  0
INSERT
  5
   920
  8
0
  6
CONTINUOUS
 62
    56
  2
*UDIM1582
 10
0.0
 20
0.0
 30
0.0
  0
TEXT
  5
   921
  8
0
  6
CONTINUOUS
 62
     7
 10
-585.499435066985
 20
-80.1224098678525
 30
0.0
 40
2.99999994933605
  1
Y
 50
359.999999896069
 41
0.916666607525612
 72
     2
 11
-583.299435248779
 21
-80.1224098718321
 31
0.0
  0
TEXT
  5
   922
  8
0
  6
CONTINUOUS
 62
     7
 10
-617.067426031159
 20
-123.06801120817
 30
0.0
 40
2.99999994933605
  1
X
 50
359.999999896069
 41
0.916666607525612
 72
     2
 11
-614.867426212953
 21
-123.06801121215
 31
0.0
  0
TEXT
  5
   923
  8
0
  6
CONTINUOUS
 62
     7
 10
-559.750277349918
 20
-123.37554123442
 30
0.0
 40
2.99999994933605
  1
X
 50
359.999999896069
 41
0.916666607525612
 72
     2
 11
-557.550277531713
 21
-123.3755412384
 31
0.0
  0
TEXT
  5
   924
  8
0
  6
CONTINUOUS
 62
     7
 10
-585.566341138691
 20
-161.34631244537
 30
0.0
 40
2.99999994933605
  1
Y
 50
359.999999896069
 41
0.916666607525612
 72
     2
 11
-583.366341320485
 21
-161.34631244935
 31
0.0
  0
ENDSEC
  0
EOF
