  0
SECTION
  2
HEADER
  9
$ACADVER
  1
AC1009
  9
$DWGCODEPAGE
  3
iso8859-1
  9
$INSBASE
 10
0.0
 20
0.0
 30
0.0
  9
$EXTMIN
 10
1.0E20
 20
1.0E20
  9
$EXTMAX
 10
-1.0E20
 20
-1.0E20
  9
$LIMMIN
 10
0.0
 20
0.0
  9
$LIMMAX
 10
12.0
 20
9.0
  9
$ORTHOMODE
 70
     0
  9
$REGENMODE
 70
     1
  9
$FILLMODE
 70
     1
  9
$QTEXTMODE
 70
     0
  9
$MIRRTEXT
 70
     1
  9
$DRAGMODE
 70
     2
  9
$LTSCALE
 40
15.0
  9
$OSMODE
 70
     0
  9
$ATTMODE
 70
     1
  9
$TEXTSIZE
 40
0.2
  9
$TRACEWID
 40
0.05
  9
$TEXTSTYLE
  7
STANDARD
  9
$CLAYER
  8
0
  9
$CELTYPE
  6
DASHED
  9
$CECOLOR
 62
   256
  9
$DIMSCALE
 40
1.0
  9
$DIMASZ
 40
0.18
  9
$DIMEXO
 40
0.0625
  9
$DIMDLI
 40
0.38
  9
$DIMRND
 40
0.0
  9
$DIMDLE
 40
0.0
  9
$DIMEXE
 40
0.18
  9
$DIMTP
 40
0.0
  9
$DIMTM
 40
0.0
  9
$DIMTXT
 40
0.18
  9
$DIMCEN
 40
0.09
  9
$DIMTSZ
 40
0.0
  9
$DIMTOL
 70
     0
  9
$DIMLIM
 70
     0
  9
$DIMTIH
 70
     1
  9
$DIMTOH
 70
     1
  9
$DIMSE1
 70
     0
  9
$DIMSE2
 70
     0
  9
$DIMTAD
 70
     0
  9
$DIMZIN
 70
     0
  9
$DIMBLK
  1

  9
$DIMASO
 70
     1
  9
$DIMSHO
 70
     1
  9
$DIMPOST
  1

  9
$DIMAPOST
  1

  9
$DIMALT
 70
     0
  9
$DIMALTD
 70
     2
  9
$DIMALTF
 40
25.4
  9
$DIMLFAC
 40
1.0
  9
$DIMTOFL
 70
     0
  9
$DIMTVP
 40
0.0
  9
$DIMTIX
 70
     0
  9
$DIMSOXD
 70
     0
  9
$DIMSAH
 70
     0
  9
$DIMBLK1
  1

  9
$DIMBLK2
  1

  9
$DIMSTYLE
  2
STANDARD
  9
$DIMCLRD
 70
     0
  9
$DIMCLRE
 70
     0
  9
$DIMCLRT
 70
     0
  9
$DIMTFAC
 40
1.0
  9
$DIMGAP
 40
0.09
  9
$LUNITS
 70
     2
  9
$LUPREC
 70
     4
  9
$AXISMODE
 70
     0
  9
$AXISUNIT
 10
0.0
 20
0.0
  9
$SKETCHINC
 40
0.1
  9
$FILLETRAD
 40
0.0
  9
$AUNITS
 70
     0
  9
$AUPREC
 70
     0
  9
$MENU
  1
acad
  9
$ELEVATION
 40
0.0
  9
$PELEVATION
 40
0.0
  9
$THICKNESS
 40
0.0
  9
$LIMCHECK
 70
     0
  9
$BLIPMODE
 70
     1
  9
$CHAMFERA
 40
0.0
  9
$CHAMFERB
 40
0.0
  9
$SKPOLY
 70
     0
  9
$TDCREATE
 40
0.000000000
  9
$TDUPDATE
 40
0.000000000
  9
$TDINDWG
 40
0.0
  9
$TDUSRTIMER
 40
0.0
  9
$USRTIMER
 70
     1
  9
$ANGBASE
 50
0.0
  9
$ANGDIR
 70
     0
  9
$PDMODE
 70
     0
  9
$PDSIZE
 40
0.0
  9
$PLINEWID
 40
0.0
  9
$COORDS
 70
     1
  9
$SPLFRAME
 70
     0
  9
$SPLINETYPE
 70
     6
  9
$SPLINESEGS
 70
     8
  9
$ATTDIA
 70
     0
  9
$ATTREQ
 70
     1
  9
$HANDLING
 70
     1
  9
$HANDSEED
  5
   74E
  9
$SURFTAB1
 70
     6
  9
$SURFTAB2
 70
     6
  9
$SURFTYPE
 70
     6
  9
$SURFU
 70
     6
  9
$SURFV
 70
     6
  9
$UCSNAME
  2

  9
$UCSORG
 10
0.0
 20
0.0
 30
0.0
  9
$UCSXDIR
 10
1.0
 20
0.0
 30
0.0
  9
$UCSYDIR
 10
0.0
 20
1.0
 30
0.0
  9
$PUCSNAME
  2

  9
$PUCSORG
 10
0.0
 20
0.0
 30
0.0
  9
$PUCSXDIR
 10
1.0
 20
0.0
 30
0.0
  9
$PUCSYDIR
 10
0.0
 20
1.0
 30
0.0
  9
$USERI1
 70
     0
  9
$USERI2
 70
     0
  9
$USERI3
 70
     0
  9
$USERI4
 70
     0
  9
$USERI5
 70
     0
  9
$USERR1
 40
0.0
  9
$USERR2
 40
0.0
  9
$USERR3
 40
0.0
  9
$USERR4
 40
0.0
  9
$USERR5
 40
0.0
  9
$WORLDVIEW
 70
     1
  9
$SHADEDGE
 70
     3
  9
$SHADEDIF
 70
    70
  9
$TILEMODE
 70
     1
  9
$MAXACTVP
 70
    16
  9
$PINSBASE
 10
0.0
 20
0.0
 30
0.0
  9
$PLIMCHECK
 70
     0
  9
$PEXTMIN
 10
1.0E20
 20
1.0E20
 30
1.0E20
  9
$PEXTMAX
 10
-1.0E20
 20
-1.0E20
 30
-1.0E20
  9
$PLIMMIN
 10
0.0
 20
0.0
  9
$PLIMMAX
 10
12.0
 20
9.0
  9
$UNITMODE
 70
     0
  9
$VISRETAIN
 70
     0
  0
ENDSEC
  0
SECTION
  2
TABLES
  0
TABLE
  2
VPORT
 70
     1
  0
VPORT
  2
*ACTIVE
 70
     0
 10
0.0
 20
0.0
 11
1.0
 21
1.0
 12
6.801242
 22
4.5
 13
0.0
 23
0.0
 14
1.0
 24
1.0
 15
0.0
 25
0.0
 16
0.0
 26
0.0
 36
1.0
 17
0.0
 27
0.0
 37
0.0
 40
9.0
 41
1.511387
 42
50.0
 43
0.0
 44
0.0
 50
0.0
 51
0.0
 71
     0
 72
   100
 73
     1
 74
     1
 75
     0
 76
     0
 77
     0
 78
     0
  0
ENDTAB
  0
TABLE
  2
LTYPE
 70
    41
  0
LTYPE
  2
BYBLOCK
 70
     0
  3

 72
    65
 73
     0
 40
0.0
  0
LTYPE
  2
BYLAYER
 70
     0
  3

 72
    65
 73
     0
 40
0.0
  0
LTYPE
  2
CONTINUOUS
 70
     0
  3
Solid line
 72
    65
 73
     0
 40
0.0
  0
LTYPE
  2
BORDER
 70
    64
  3
__ __ . __ __ . __ __ . __ __ . __ __ . __ __ .
 72
    65
 73
     6
 40
1.75
 49
0.5
 49
-0.25
 49
0.5
 49
-0.25
 49
0.0
 49
-0.25
  0
LTYPE
  2
BORDER2
 70
    64
  3
__.__.__.__.__.__.__.__.__.__.__.__.__.__.__.__
 72
    65
 73
     6
 40
0.875
 49
0.25
 49
-0.125
 49
0.25
 49
-0.125
 49
0.0
 49
-0.125
  0
LTYPE
  2
BORDERX2
 70
    64
  3
____  ____  .  ____  ____  .  ____  ____  .  __
 72
    65
 73
     6
 40
3.5
 49
1.0
 49
-0.5
 49
1.0
 49
-0.5
 49
0.0
 49
-0.5
  0
LTYPE
  2
CENTER
 70
    64
  3
____ _ ____ _ ____ _ ____ _ ____ _ ____ _ ____
 72
    65
 73
     4
 40
2.0
 49
1.25
 49
-0.25
 49
0.25
 49
-0.25
  0
LTYPE
  2
CENTER2
 70
    64
  3
___ _ ___ _ ___ _ ___ _ ___ _ ___ _ ___ _ ___ _
 72
    65
 73
     4
 40
1.125
 49
0.75
 49
-0.125
 49
0.125
 49
-0.125
  0
LTYPE
  2
CENTERX2
 70
    64
  3
________  __  ________  __  ________  __  _____
 72
    65
 73
     4
 40
4.0
 49
2.5
 49
-0.5
 49
0.5
 49
-0.5
  0
LTYPE
  2
DASHDOT
 70
    64
  3
__ . __ . __ . __ . __ . __ . __ . __ . __ . __
 72
    65
 73
     4
 40
1.0
 49
0.5
 49
-0.25
 49
0.0
 49
-0.25
  0
LTYPE
  2
DASHDOT2
 70
    64
  3
_._._._._._._._._._._._._._._._._._._._._._._._
 72
    65
 73
     4
 40
0.5
 49
0.25
 49
-0.125
 49
0.0
 49
-0.125
  0
LTYPE
  2
DASHDOTX2
 70
    64
  3
____  .  ____  .  ____  .  ____  .  ____  .  __
 72
    65
 73
     4
 40
2.0
 49
1.0
 49
-0.5
 49
0.0
 49
-0.5
  0
LTYPE
  2
DASHED
 70
    64
  3
__ __ __ __ __ __ __ __ __ __ __ __ __ __ __ __
 72
    65
 73
     2
 40
0.75
 49
0.5
 49
-0.25
  0
LTYPE
  2
DASHED2
 70
    64
  3
_ _ _ _ _ _ _ _ _ _ _ _ _ _ _ _ _ _ _ _ _ _ _ _
 72
    65
 73
     2
 40
0.375
 49
0.25
 49
-0.125
  0
LTYPE
  2
DASHEDX2
 70
    64
  3
____  ____  ____  ____  ____  ____  ____  ____
 72
    65
 73
     2
 40
1.5
 49
1.0
 49
-0.5
  0
LTYPE
  2
DIVIDE
 70
    64
  3
____ . . ____ . . ____ . . ____ . . ____ . . __
 72
    65
 73
     6
 40
1.25
 49
0.5
 49
-0.25
 49
0.0
 49
-0.25
 49
0.0
 49
-0.25
  0
LTYPE
  2
DIVIDE2
 70
    64
  3
__..__..__..__..__..__..__..__..__..__..__..__.
 72
    65
 73
     6
 40
0.625
 49
0.25
 49
-0.125
 49
0.0
 49
-0.125
 49
0.0
 49
-0.125
  0
LTYPE
  2
DIVIDEX2
 70
    64
  3
________  .  .  ________  .  .  ________  .  .
 72
    65
 73
     6
 40
2.5
 49
1.0
 49
-0.5
 49
0.0
 49
-0.5
 49
0.0
 49
-0.5
  0
LTYPE
  2
DOT
 70
    64
  3
. . . . . . . . . . . . . . . . . . . . . . . .
 72
    65
 73
     2
 40
0.25
 49
0.0
 49
-0.25
  0
LTYPE
  2
DOT2
 70
    64
  3
...............................................
 72
    65
 73
     2
 40
0.125
 49
0.0
 49
-0.125
  0
LTYPE
  2
DOTX2
 70
    64
  3
.  .  .  .  .  .  .  .  .  .  .  .  .  .  .  .
 72
    65
 73
     2
 40
0.5
 49
0.0
 49
-0.5
  0
LTYPE
  2
HIDDEN
 70
    64
  3
__ __ __ __ __ __ __ __ __ __ __ __ __ __ __ __
 72
    65
 73
     2
 40
0.375
 49
0.25
 49
-0.125
  0
LTYPE
  2
HIDDEN2
 70
    64
  3
_ _ _ _ _ _ _ _ _ _ _ _ _ _ _ _ _ _ _ _ _ _ _ _
 72
    65
 73
     2
 40
0.1875
 49
0.125
 49
-0.0625
  0
LTYPE
  2
HIDDENX2
 70
    64
  3
____ ____ ____ ____ ____ ____ ____ ____ ____ __
 72
    65
 73
     2
 40
0.75
 49
0.5
 49
-0.25
  0
LTYPE
  2
PHANTOM
 70
    64
  3
______  __  __  ______  __  __  ______  __  __
 72
    65
 73
     6
 40
2.5
 49
1.25
 49
-0.25
 49
0.25
 49
-0.25
 49
0.25
 49
-0.25
  0
LTYPE
  2
PHANTOM2
 70
    64
  3
___ _ _ ___ _ _ ___ _ _ ___ _ _ ___ _ _ ___ _ _
 72
    65
 73
     6
 40
1.25
 49
0.625
 49
-0.125
 49
0.125
 49
-0.125
 49
0.125
 49
-0.125
  0
LTYPE
  2
PHANTOMX2
 70
    64
  3
____________    ____    ____    ____________
 72
    65
 73
     6
 40
5.0
 49
2.5
 49
-0.5
 49
0.5
 49
-0.5
 49
0.5
 49
-0.5
  0
LTYPE
  2
ACAD_ISO02W100
 70
    64
  3
__ __ __ __ __ __ __ __ __ __ __ __ __ __ __ __
 72
    65
 73
     2
 40
15.0
 49
12.0
 49
-3.0
  0
LTYPE
  2
ACAD_ISO03W100
 70
    64
  3
__    __    __    __    __    __    __    __
 72
    65
 73
     2
 40
30.0
 49
12.0
 49
-18.0
  0
LTYPE
  2
ACAD_ISO04W100
 70
    64
  3
____ . ____ . ____ . ____ . ____ . ____ . ____
 72
    65
 73
     4
 40
30.5
 49
24.0
 49
-3.0
 49
0.5
 49
-3.0
  0
LTYPE
  2
ACAD_ISO05W100
 70
    64
  3
____ .. ____ .. ____ .. ____ .. ____ .. ____ ..
 72
    65
 73
     6
 40
34.0
 49
24.0
 49
-3.0
 49
0.5
 49
-3.0
 49
0.5
 49
-3.0
  0
LTYPE
  2
ACAD_ISO06W100
 70
    64
  3
____ ... ____ ... ____ ... ____ ... ____ ... __
 72
    65
 73
     8
 40
37.5
 49
24.0
 49
-3.0
 49
0.5
 49
-3.0
 49
0.5
 49
-3.0
 49
0.5
 49
-3.0
  0
LTYPE
  2
ACAD_ISO07W100
 70
    64
  3
. . . . . . . . . . . . . . . . . . . . . . . .
 72
    65
 73
     2
 40
3.5
 49
0.5
 49
-3.0
  0
LTYPE
  2
ACAD_ISO08W100
 70
    64
  3
____ __ ____ __ ____ __ ____ ____ __ __ ____ __
 72
    65
 73
     4
 40
36.0
 49
24.0
 49
-3.0
 49
6.0
 49
-3.0
  0
LTYPE
  2
ACAD_ISO09W100
 70
    64
  3
____ __ __ ____ __ __ ____ __ __ ____ __ __ ___
 72
    65
 73
     6
 40
45.0
 49
24.0
 49
-3.0
 49
6.0
 49
-3.0
 49
6.0
 49
-3.0
  0
LTYPE
  2
ACAD_ISO10W100
 70
    64
  3
__ . __ . __ . __ . __ . __ . __ . __ . __ . __
 72
    65
 73
     4
 40
18.5
 49
12.0
 49
-3.0
 49
0.5
 49
-3.0
  0
LTYPE
  2
ACAD_ISO11W100
 70
    64
  3
__ __ . __ __ . __ __ . __ __ . __ __ . __ __ .
 72
    65
 73
     6
 40
33.5
 49
12.0
 49
-3.0
 49
12.0
 49
-3.0
 49
0.5
 49
-3.0
  0
LTYPE
  2
ACAD_ISO12W100
 70
    64
  3
__ . . __ . . __ . . __ . . __ . . __ . . __ .
 72
    65
 73
     6
 40
22.0
 49
12.0
 49
-3.0
 49
0.5
 49
-3.0
 49
0.5
 49
-3.0
  0
LTYPE
  2
ACAD_ISO13W100
 70
    64
  3
__ __ . . __ __ . . __ __ . . __ __ . . __ __ .
 72
    65
 73
     8
 40
37.0
 49
12.0
 49
-3.0
 49
12.0
 49
-3.0
 49
0.5
 49
-3.0
 49
0.5
 49
-3.0
  0
LTYPE
  2
ACAD_ISO14W100
 70
    64
  3
__ . . . __ . . . __ . . . __ . . . __ . . . __
 72
    65
 73
     8
 40
25.5
 49
12.0
 49
-3.0
 49
0.5
 49
-3.0
 49
0.5
 49
-3.0
 49
0.5
 49
-3.0
  0
LTYPE
  2
ACAD_ISO15W100
 70
    64
  3
__ __ . . . __ __ . . . __ __ . . . __ __ . . .
 72
    65
 73
    10
 40
40.5
 49
12.0
 49
-3.0
 49
12.0
 49
-3.0
 49
0.5
 49
-3.0
 49
0.5
 49
-3.0
 49
0.5
 49
-3.0
  0
ENDTAB
  0
TABLE
  2
STYLE
 70
     4
  0
STYLE
  2
STANDARD
 70
    64
 40
0.0
 41
1.0
 50
0.0
 71
     0
 42
0.2
  3
txt
  4

  0
STYLE
  2
TOLERANCE
 70
    64
 40
0.0
 41
1.0
 50
0.0
 71
     0
 42
0.2
  3
../igesfont/iges1003.shx
  4

  0
STYLE
  2
ROMANS
 70
    64
 40
0.0
 41
1.0
 50
0.0
 71
     0
 42
0.2
  3
romans.shx
  4

  0
STYLE
  2
ROMANC
 70
    64
 40
0.0
 41
1.0
 50
0.0
 71
     0
 42
0.2
  3
romanc.shx
  4

  0
ENDTAB
  0
TABLE
  2
DIMSTYLE
 70
     2
  0
DIMSTYLE
  2
UNNAMED
 70
     0
  3

  4

  5

  6

  7

 40
1.0
 41
0.18
 42
0.0625
 43
0.38
 44
0.18
 45
0.0
 46
0.0
 47
0.0
 48
0.0
140
0.18
141
0.09
142
0.0
143
25.4
144
1.0
145
0.0
146
1.0
147
0.09
 71
     0
 72
     0
 73
     1
 74
     1
 75
     0
 76
     0
 77
     0
 78
     0
170
     0
171
     2
172
     0
173
     0
174
     0
175
     0
176
     0
177
     0
178
     0
  0
DIMSTYLE
  2
STANDARD
 70
     0
  3

  4

  5

  6

  7

 40
1.0
 41
0.18
 42
0.0625
 43
0.38
 44
0.18
 45
0.0
 46
0.0
 47
0.0
 48
0.0
140
0.18
141
0.09
142
0.0
143
25.4
144
1.0
145
0.0
146
1.0
147
0.09
 71
     0
 72
     0
 73
     1
 74
     1
 75
     0
 76
     0
 77
     0
 78
     0
170
     0
171
     2
172
     0
173
     0
174
     0
175
     0
176
     0
177
     0
178
     0
  0
ENDTAB
  0
TABLE
  2
LAYER
 70
     2
  0
LAYER
  2
0
 70
     0
 62
     7
  6
CONTINUOUS
  0
LAYER
  2
255
 70
     0
 62
     7
  6
CONTINUOUS
  0
ENDTAB
  0
ENDSEC
  0
SECTION
  2
BLOCKS
  0
BLOCK
  5
     B
  8
0
  6
CONTINUOUS
 62
     7
  2
MOSTRINA
 70
    64
 10
0.0
 20
0.0
 30
0.0
  3
MOSTRINA
  0
LINE
  5
     C
  8
0
  6
CONTINUOUS
 62
     3
 10
208.338256835938
 20
30.7306251525879
 30
0.0
 11
208.338256835938
 21
189.230621337891
 31
0.0
  0
LINE
  5
     D
  8
0
  6
CONTINUOUS
 62
     3
 10
57.5882568359375
 20
29.4806251525879
 30
0.0
 11
207.088256835938
 21
29.4806251525879
 31
0.0
  0
LINE
  5
     E
  8
0
  6
CONTINUOUS
 62
     3
 10
56.3382568359375
 20
30.7306251525879
 30
0.0
 11
56.3382568359375
 21
189.230621337891
 31
0.0
  0
LINE
  5
     F
  8
0
  6
CONTINUOUS
 62
     3
 10
57.5882568359375
 20
190.480621337891
 30
0.0
 11
207.088256835938
 21
190.480621337891
 31
0.0
  0
LINE
  5
    10
  8
0
  6
CONTINUOUS
 62
     3
 10
202.838256835938
 20
56.9806251525879
 30
0.0
 11
202.838256835938
 21
162.980625152588
 31
0.0
  0
LINE
  5
    11
  8
0
  6
CONTINUOUS
 62
     3
 10
61.8382568359375
 20
56.9806251525879
 30
0.0
 11
202.838256835938
 21
56.9806251525879
 31
0.0
  0
LINE
  5
    12
  8
0
  6
CONTINUOUS
 62
     3
 10
61.8382568359375
 20
56.9806251525879
 30
0.0
 11
61.8382568359375
 21
162.980625152588
 31
0.0
  0
LINE
  5
    13
  8
0
  6
CONTINUOUS
 62
     3
 10
61.8382568359375
 20
162.980621337891
 30
0.0
 11
202.838256835938
 21
162.980621337891
 31
0.0
  0
LINE
  5
    14
  8
0
  6
CONTINUOUS
 62
     3
 10
203.838256835938
 20
48.4806251525879
 30
0.0
 11
203.838256835938
 21
49.4806251525879
 31
0.0
  0
LINE
  5
    15
  8
0
  6
CONTINUOUS
 62
     3
 10
61.8382568359375
 20
50.4806251525879
 30
0.0
 11
202.838256835938
 21
50.4806251525879
 31
0.0
  0
LINE
  5
    16
  8
0
  6
CONTINUOUS
 62
     3
 10
60.8382568359375
 20
48.4806251525879
 30
0.0
 11
60.8382568359375
 21
49.4806251525879
 31
0.0
  0
LINE
  5
    17
  8
0
  6
CONTINUOUS
 62
     3
 10
61.8382568359375
 20
49.4806251525879
 30
0.0
 11
202.838256835938
 21
49.4806251525879
 31
0.0
  0
LINE
  5
    18
  8
0
  6
CONTINUOUS
 62
     3
 10
60.8382568359375
 20
29.4806251525879
 30
0.0
 11
60.8382568359375
 21
48.4806251525879
 31
0.0
  0
LINE
  5
    19
  8
0
  6
CONTINUOUS
 62
     3
 10
60.8382568359375
 20
49.4806213378906
 30
0.0
 11
60.8382568359375
 21
190.480621337891
 31
0.0
  0
LINE
  5
    1A
  8
0
  6
CONTINUOUS
 62
     3
 10
61.8382568359375
 20
29.4806251525879
 30
0.0
 11
61.8382568359375
 21
49.4806251525879
 31
0.0
  0
LINE
  5
    1B
  8
0
  6
CONTINUOUS
 62
     3
 10
61.8382568359375
 20
162.980621337891
 30
0.0
 11
61.8382568359375
 21
169.480621337891
 31
0.0
  0
LINE
  5
    1C
  8
0
  6
CONTINUOUS
 62
     3
 10
61.8382568359375
 20
50.4806251525879
 30
0.0
 11
61.8382568359375
 21
56.9806251525879
 31
0.0
  0
LINE
  5
    1D
  8
0
  6
CONTINUOUS
 62
     3
 10
203.838256835938
 20
29.4806251525879
 30
0.0
 11
203.838256835938
 21
48.4806251525879
 31
0.0
  0
LINE
  5
    1E
  8
0
  6
CONTINUOUS
 62
     3
 10
203.838256835938
 20
49.4806251525879
 30
0.0
 11
203.838256835938
 21
190.480621337891
 31
0.0
  0
LINE
  5
    1F
  8
0
  6
CONTINUOUS
 62
     3
 10
202.838256835938
 20
50.4806251525879
 30
0.0
 11
202.838256835938
 21
56.9806251525879
 31
0.0
  0
LINE
  5
    20
  8
0
  6
CONTINUOUS
 62
     3
 10
202.838256835938
 20
162.980621337891
 30
0.0
 11
202.838256835938
 21
169.480621337891
 31
0.0
  0
LINE
  5
    21
  8
0
  6
CONTINUOUS
 62
     3
 10
202.838256835938
 20
29.4806251525879
 30
0.0
 11
202.838256835938
 21
49.4806251525879
 31
0.0
  0
LINE
  5
    22
  8
0
  6
CONTINUOUS
 62
     3
 10
60.8382568359375
 20
170.480621337891
 30
0.0
 11
203.838256835938
 21
170.480621337891
 31
0.0
  0
LINE
  5
    23
  8
0
  6
CONTINUOUS
 62
     3
 10
61.8382568359375
 20
169.480621337891
 30
0.0
 11
202.838256835938
 21
169.480621337891
 31
0.0
  0
ARC
  5
    24
  8
0
  6
CONTINUOUS
 62
     3
 10
57.5882568359375
 20
30.7306251525879
 30
0.0
 40
1.25
 50
180.0
 51
270.0
  0
ARC
  5
    25
  8
0
  6
CONTINUOUS
 62
     3
 10
207.088256835938
 20
30.7306251525879
 30
0.0
 40
1.25
 50
270.0
 51
360.0
  0
ARC
  5
    26
  8
0
  6
CONTINUOUS
 62
     3
 10
207.088256835938
 20
189.230621337891
 30
0.0
 40
1.25
 50
0.0
 51
90.0
  0
ARC
  5
    27
  8
0
  6
CONTINUOUS
 62
     3
 10
57.5882568359375
 20
189.230621337891
 30
0.0
 40
1.25
 50
90.0
 51
180.0
  0
LINE
  5
    28
  8
0
  6
DOT
 62
     3
 10
60.3382577409677
 20
179.7306252571
 30
0.0
 11
60.8382568359375
 21
179.7306252571
 31
0.0
  0
LINE
  5
    29
  8
0
  6
DOT
 62
     3
 10
60.3382577409676
 20
181.2306252571
 30
0.0
 11
60.8382568359375
 21
181.2306252571
 31
0.0
  0
LINE
  5
    2A
  8
0
  6
CONTINUOUS
 62
     3
 10
203.338257745313
 20
179.730625257273
 30
0.0
 11
203.838256835938
 21
179.730625257273
 31
0.0
  0
LINE
  5
    2B
  8
0
  6
CONTINUOUS
 62
     3
 10
203.338257745314
 20
181.230625257273
 30
0.0
 11
203.838256835938
 21
181.230625257273
 31
0.0
  0
ARC
  5
    2C
  8
0
  6
DOT
 62
     3
 10
60.3382577401871
 20
180.480625257147
 30
0.0
 40
0.749999999345164
 50
90.0
 51
270.0
  0
ARC
  5
    2D
  8
0
  6
CONTINUOUS
 62
     3
 10
61.338257740822
 20
180.480625256974
 30
0.0
 40
0.750000000009701
 50
270.0
 51
450.0
  0
LINE
  5
    2E
  8
0
  6
CONTINUOUS
 62
     3
 10
60.8382568359375
 20
181.2306252571
 30
0.0
 11
61.3382577409688
 21
181.2306252571
 31
0.0
  0
LINE
  5
    2F
  8
0
  6
CONTINUOUS
 62
     3
 10
60.8382568359375
 20
179.7306252571
 30
0.0
 11
61.3382577409689
 21
179.7306252571
 31
0.0
  0
ARC
  5
    30
  8
0
  6
CONTINUOUS
 62
     3
 10
203.338257745503
 20
180.480625256952
 30
0.0
 40
0.750000000048506
 50
90.0000000038822
 51
269.999999996024
  0
ARC
  5
    31
  8
0
  6
DOT
 62
     3
 10
204.338257745421
 20
180.480625256965
 30
0.0
 40
0.750000000029104
 50
270.000000002449
 51
449.999999997486
  0
LINE
  5
    32
  8
0
  6
DOT
 62
     3
 10
203.838256835938
 20
181.230625257273
 30
0.0
 11
204.338257745315
 21
181.230625257273
 31
0.0
  0
LINE
  5
    33
  8
0
  6
DOT
 62
     3
 10
203.838256835938
 20
179.730625257273
 30
0.0
 11
204.338257745315
 21
179.730625257273
 31
0.0
  0
POINT
  5
    34
  8
0
  6
CONTINUOUS
 62
     7
 10
132.338256835938
 20
109.980623245239
 30
0.0
  0
ENDBLK
  5
    35
  8
0
  6
CONTINUOUS
 62
     7
  0
BLOCK
  5
    36
  8
0
  6
CONTINUOUS
 62
     7
  2
*UDIM240
 70
    65
 10
0.0
 20
0.0
 30
0.0
  3
*UDIM240
  0
TEXT
  5
    37
  8
0
  6
CONTINUOUS
 62
     7
 10
69.0710825564472
 20
-49.9058855067753
 30
0.0
 40
3.00000011722246
  1
161
 50
89.9999999480344
 41
0.933333333333333
 72
     1
 11
67.5710825013682
 21
-46.0058853530276
 31
0.0
 73
     2
  0
LINE
  5
    38
  8
0
  6
CONTINUOUS
 62
     7
 10
49.4994518905878
 20
-81.9558815605165
 30
0.0
 11
72.0710825599795
 21
-81.9558815605165
 31
0.0
  0
LINE
  5
    39
  8
0
  6
CONTINUOUS
 62
     7
 10
49.4994518905878
 20
-9.50588519639983
 30
0.0
 11
72.0710825599795
 21
-9.50588519639983
 31
0.0
  0
LINE
  5
    3A
  8
0
  6
CONTINUOUS
 62
     7
 10
70.0710825599795
 20
-81.9558815605165
 30
0.0
 11
70.0710825599795
 21
-9.50588519639983
 31
0.0
  0
LINE
  5
    3B
  8
0
  6
CONTINUOUS
 62
     7
 10
69.5501381300278
 20
-79.0014582833096
 30
0.0
 11
70.0710825599795
 21
-81.9558815605165
 31
0.0
  0
LINE
  5
    3C
  8
0
  6
CONTINUOUS
 62
     7
 10
70.0710825599795
 20
-81.9558815605165
 30
0.0
 11
70.5920269899311
 21
-79.0014582833096
 31
0.0
  0
LINE
  5
    3D
  8
0
  6
CONTINUOUS
 62
     7
 10
70.5920269899311
 20
-12.4603084736068
 30
0.0
 11
70.0710825599795
 21
-9.50588519639983
 31
0.0
  0
LINE
  5
    3E
  8
0
  6
CONTINUOUS
 62
     7
 10
70.0710825599795
 20
-9.50588519639983
 30
0.0
 11
69.5501381300278
 21
-12.4603084736068
 31
0.0
  0
ENDBLK
  5
    3F
  8
0
  6
CONTINUOUS
 62
     7
  0
BLOCK
  5
    40
  8
0
  6
CONTINUOUS
 62
     7
  2
*UDIM241
 70
    65
 10
0.0
 20
0.0
 30
0.0
  3
*UDIM241
  0
TEXT
  5
    41
  8
0
  6
CONTINUOUS
 62
     7
 10
10.6869538720165
 20
55.3466257888155
 30
0.0
 40
3.00000011722246
  1
152
 50
359.999999948034
 41
0.933333333333333
 72
     1
 11
14.5869540257586
 21
56.8466258439091
 31
0.0
 73
     2
  0
LINE
  5
    42
  8
0
  6
CONTINUOUS
 62
     7
 10
49.0619518756867
 20
-9.06838518149868
 30
0.0
 11
49.0619518756867
 21
56.3466257852979
 31
0.0
  0
LINE
  5
    43
  8
0
  6
CONTINUOUS
 62
     7
 10
-19.3380463123321
 20
-9.06838518149867
 30
0.0
 11
-19.3380463123321
 21
56.3466257852979
 31
0.0
  0
LINE
  5
    44
  8
0
  6
CONTINUOUS
 62
     7
 10
49.0619518756867
 20
54.3466257852979
 30
0.0
 11
-19.3380463123321
 21
54.3466257852979
 31
0.0
  0
LINE
  5
    45
  8
0
  6
CONTINUOUS
 62
     7
 10
46.1075285984797
 20
53.8256813553462
 30
0.0
 11
49.0619518756867
 21
54.3466257852979
 31
0.0
  0
LINE
  5
    46
  8
0
  6
CONTINUOUS
 62
     7
 10
49.0619518756867
 20
54.3466257852979
 30
0.0
 11
46.1075285984797
 21
54.8675702152496
 31
0.0
  0
LINE
  5
    47
  8
0
  6
CONTINUOUS
 62
     7
 10
-16.3836230351252
 20
54.8675702152496
 30
0.0
 11
-19.3380463123321
 21
54.3466257852979
 31
0.0
  0
LINE
  5
    48
  8
0
  6
CONTINUOUS
 62
     7
 10
-19.3380463123321
 20
54.3466257852979
 30
0.0
 11
-16.3836230351252
 21
53.8256813553462
 31
0.0
  0
ENDBLK
  5
    49
  8
0
  6
CONTINUOUS
 62
     7
  0
BLOCK
  5
    4A
  8
0
  6
CONTINUOUS
 62
     2
  2
*UDIM242
 70
    65
 10
0.0
 20
0.0
 30
0.0
  3
*UDIM242
  0
TEXT
  5
    4B
  8
0
  6
CONTINUOUS
 62
     2
 10
-76.4725777515774
 20
31.6946150757314
 30
0.0
 40
3.00000011722246
  1
14
 50
350.045976656765
 41
0.933333333333333
 72
     1
 11
-73.7509238949484
 21
32.7398906130694
 31
0.0
 73
     2
  0
TEXT
  5
    4C
  8
0
  6
CONTINUOUS
 62
     2
 10
-79.575160178675
 20
32.2391173709805
 30
0.0
 40
3.00000011722246
  1
Ø
 50
350.045976656765
 41
0.933333333333334
 72
     1
 11
-78.2324318663532
 21
33.5263939339935
 31
0.0
 73
     2
  0
LINE
  5
    4D
  8
0
  6
CONTINUOUS
 62
     2
 10
-45.035467075985
 20
25.1621281823874
 30
0.0
 11
-79.7480180453532
 21
31.2541705907369
 31
0.0
  0
LINE
  5
    4E
  8
0
  6
CONTINUOUS
 62
     2
 10
-48.0354661101921
 20
25.1597209524448
 30
0.0
 11
-45.035467075985
 21
25.1621281823874
 31
0.0
  0
LINE
  5
    4F
  8
0
  6
CONTINUOUS
 62
     2
 10
-45.035467075985
 20
25.1621281823874
 30
0.0
 11
-47.8553674233436
 21
26.1859260291162
 31
0.0
  0
LINE
  5
    50
  8
0
  6
CONTINUOUS
 62
     2
 10
-48.2406249885932
 20
26.2535386176496
 30
0.0
 11
-51.2406240228003
 21
26.251131387707
 31
0.0
  0
LINE
  5
    51
  8
0
  6
CONTINUOUS
 62
     2
 10
-51.2406240228003
 20
26.251131387707
 30
0.0
 11
-48.4207236754417
 21
25.2273335409782
 31
0.0
  0
ENDBLK
  5
    52
  8
0
  6
CONTINUOUS
 62
     2
  0
BLOCK
  5
    53
  8
0
  6
CONTINUOUS
 62
     2
  2
*UDIM243
 70
    65
 10
0.0
 20
0.0
 30
0.0
  3
*UDIM243
  0
TEXT
  5
    54
  8
0
  6
CONTINUOUS
 62
     2
 10
-50.9130539713195
 20
48.901771221955
 30
0.0
 40
3.00000011722246
  1
50
 50
359.999999948034
 41
0.933333333333333
 72
     1
 11
-48.4130538722812
 21
50.4017712783113
 31
0.0
 73
     2
  0
LINE
  5
    55
  8
0
  6
CONTINUOUS
 62
     2
 10
-36.888053992815
 20
34.8066365717189
 30
0.0
 11
-36.888053992815
 21
49.9017712197001
 31
0.0
  0
LINE
  5
    56
  8
0
  6
CONTINUOUS
 62
     2
 10
-59.3880533967685
 20
34.8066365717189
 30
0.0
 11
-59.3880533967685
 21
49.9017712197001
 31
0.0
  0
LINE
  5
    57
  8
0
  6
CONTINUOUS
 62
     2
 10
-36.888053992815
 20
47.9017712197001
 30
0.0
 11
-59.3880533967685
 21
47.9017712197001
 31
0.0
  0
LINE
  5
    58
  8
0
  6
CONTINUOUS
 62
     2
 10
-39.842477270022
 20
47.3808267897484
 30
0.0
 11
-36.888053992815
 21
47.9017712197001
 31
0.0
  0
LINE
  5
    59
  8
0
  6
CONTINUOUS
 62
     2
 10
-36.888053992815
 20
47.9017712197001
 30
0.0
 11
-39.842477270022
 21
48.4227156496518
 31
0.0
  0
LINE
  5
    5A
  8
0
  6
CONTINUOUS
 62
     2
 10
-56.4336301195616
 20
48.4227156496518
 30
0.0
 11
-59.3880533967685
 21
47.9017712197001
 31
0.0
  0
LINE
  5
    5B
  8
0
  6
CONTINUOUS
 62
     2
 10
-59.3880533967685
 20
47.9017712197001
 30
0.0
 11
-56.4336301195616
 21
47.3808267897484
 31
0.0
  0
ENDBLK
  5
    5C
  8
0
  6
CONTINUOUS
 62
     2
  0
BLOCK
  5
    5D
  8
0
  6
CONTINUOUS
 62
     2
  2
*UDIM244
 70
    65
 10
0.0
 20
0.0
 30
0.0
  3
*UDIM244
  0
TEXT
  5
    5E
  8
0
  6
CONTINUOUS
 62
     2
 10
61.4752191752111
 20
-139.46918366359
 30
0.0
 40
3.00000011722246
  1
11
 50
313.812949267676
 41
0.933333333333333
 72
     1
 11
64.2883906537453
 21
-140.234733725063
 31
0.0
 73
     2
  0
TEXT
  5
    5F
  8
0
  6
CONTINUOUS
 62
     2
 10
59.2944543411412
 20
-137.19613170533
 30
0.0
 40
3.00000011722246
  1
Ø
 50
313.812949267676
 41
0.933333333333334
 72
     1
 11
61.1383969907607
 21
-136.951436435029
 31
0.0
 73
     2
  0
LINE
  5
    60
  8
0
  6
CONTINUOUS
 62
     2
 10
64.2151469300258
 20
-143.769508985022
 30
0.0
 11
44.535799948564
 21
-123.257357683533
 31
0.0
  0
LINE
  5
    61
  8
0
  6
CONTINUOUS
 62
     2
 10
50.3840628295861
 20
-128.600634605991
 30
0.0
 11
47.962781571484
 21
-126.829364703023
 31
0.0
  0
LINE
  5
    62
  8
0
  6
CONTINUOUS
 62
     2
 10
47.962781571484
 20
-126.829364703023
 30
0.0
 11
49.6322318903681
 21
-129.321940806731
 31
0.0
  0
LINE
  5
    63
  8
0
  6
CONTINUOUS
 62
     2
 10
42.1145186904619
 20
-121.486087780564
 30
0.0
 11
44.535799948564
 21
-123.257357683533
 31
0.0
  0
LINE
  5
    64
  8
0
  6
CONTINUOUS
 62
     2
 10
44.535799948564
 20
-123.257357683533
 30
0.0
 11
42.8663496296799
 21
-120.764781579824
 31
0.0
  0
ENDBLK
  5
    65
  8
0
  6
CONTINUOUS
 62
     2
  0
BLOCK
  5
    66
  8
0
  6
CONTINUOUS
 62
     2
  2
*UDIM245
 70
    65
 10
0.0
 20
0.0
 30
0.0
  3
*UDIM245
  0
TEXT
  5
    67
  8
0
  6
CONTINUOUS
 62
     2
 10
43.4743302472698
 20
-135.360905476341
 30
0.0
 40
3.00000011722246
  1
40
 50
359.999999948034
 41
0.933333333333333
 72
     1
 11
45.9743303463081
 21
-133.860905419984
 31
0.0
 73
     2
  0
LINE
  5
    68
  8
0
  6
CONTINUOUS
 62
     2
 10
55.2493170084446
 20
-131.893333471258
 30
0.0
 11
55.2493170084446
 21
-138.360905478596
 31
0.0
  0
LINE
  5
    69
  8
0
  6
CONTINUOUS
 62
     2
 10
37.2493432344877
 20
-131.893333471258
 30
0.0
 11
37.2493432344877
 21
-138.360905478596
 31
0.0
  0
LINE
  5
    6A
  8
0
  6
CONTINUOUS
 62
     2
 10
55.2493170084446
 20
-136.360905478596
 30
0.0
 11
37.2493432344877
 21
-136.360905478596
 31
0.0
  0
LINE
  5
    6B
  8
0
  6
CONTINUOUS
 62
     2
 10
52.2948937312377
 20
-136.881849908547
 30
0.0
 11
55.2493170084446
 21
-136.360905478596
 31
0.0
  0
LINE
  5
    6C
  8
0
  6
CONTINUOUS
 62
     2
 10
55.2493170084446
 20
-136.360905478596
 30
0.0
 11
52.2948937312377
 21
-135.839961048644
 31
0.0
  0
LINE
  5
    6D
  8
0
  6
CONTINUOUS
 62
     2
 10
40.2037665116946
 20
-135.839961048644
 30
0.0
 11
37.2493432344877
 21
-136.360905478596
 31
0.0
  0
LINE
  5
    6E
  8
0
  6
CONTINUOUS
 62
     2
 10
37.2493432344877
 20
-136.360905478596
 30
0.0
 11
40.2037665116946
 21
-136.881849908547
 31
0.0
  0
ENDBLK
  5
    6F
  8
0
  6
CONTINUOUS
 62
     2
  0
BLOCK
  5
    70
  8
0
  6
CONTINUOUS
 62
     7
  2
*UDIM246
 70
    65
 10
0.0
 20
0.0
 30
0.0
  3
*UDIM246
  0
TEXT
  5
    71
  8
0
  6
CONTINUOUS
 62
     7
 10
-70.6310038191471
 20
-25.9246317217465
 30
0.0
 40
3.00000011722246
  1
125,25
 50
89.9999999480344
 41
0.933333333333333
 72
     1
 11
-72.1310038704221
 21
-17.8246314038872
 31
0.0
 73
     2
  0
LINE
  5
    72
  8
0
  6
CONTINUOUS
 62
     7
 10
-0.87556733483285
 20
10.6316222131228
 30
0.0
 11
-71.6310038118108
 21
10.6316222131228
 31
0.0
  0
LINE
  5
    73
  8
0
  6
CONTINUOUS
 62
     7
 10
-69.6310038118108
 20
-45.7308833784582
 30
0.0
 11
-69.6310038118108
 21
10.6316222131228
 31
0.0
  0
LINE
  5
    74
  8
0
  6
CONTINUOUS
 62
     7
 10
-70.1519482417625
 20
-42.7764601012512
 30
0.0
 11
-69.6310038118108
 21
-45.7308833784582
 31
0.0
  0
LINE
  5
    75
  8
0
  6
CONTINUOUS
 62
     7
 10
-69.6310038118108
 20
-45.7308833784582
 30
0.0
 11
-69.1100593818592
 21
-42.7764601012512
 31
0.0
  0
LINE
  5
    76
  8
0
  6
CONTINUOUS
 62
     7
 10
-69.1100593818592
 20
7.6771989359158
 30
0.0
 11
-69.6310038118108
 21
10.6316222131228
 31
0.0
  0
LINE
  5
    77
  8
0
  6
CONTINUOUS
 62
     7
 10
-69.6310038118108
 20
10.6316222131228
 30
0.0
 11
-70.1519482417625
 21
7.6771989359158
 31
0.0
  0
ENDBLK
  5
    78
  8
0
  6
CONTINUOUS
 62
     7
  0
BLOCK
  5
    79
  8
0
  6
CONTINUOUS
 62
     7
  2
*UDIM247
 70
    65
 10
0.0
 20
0.0
 30
0.0
  3
*UDIM247
  0
TEXT
  5
    7A
  8
0
  6
CONTINUOUS
 62
     7
 10
16.0696638077805
 20
41.1251677304969
 30
0.0
 40
3.00000011722246
  1
140
 50
359.999999948034
 41
0.933333333333333
 72
     1
 11
19.9696639615226
 21
42.6251677855905
 31
0.0
 73
     2
  0
LINE
  5
    7B
  8
0
  6
CONTINUOUS
 62
     7
 10
46.361965680119
 20
-21.3308804407283
 30
0.0
 11
46.361965680119
 21
42.1251677269793
 31
0.0
  0
LINE
  5
    7C
  8
0
  6
CONTINUOUS
 62
     7
 10
-16.6380395174028
 20
-21.3308874564508
 30
0.0
 11
-16.6380395174028
 21
42.1251677269793
 31
0.0
  0
LINE
  5
    7D
  8
0
  6
CONTINUOUS
 62
     7
 10
46.361965680119
 20
40.1251677269793
 30
0.0
 11
-16.6380395174028
 21
40.1251677269793
 31
0.0
  0
LINE
  5
    7E
  8
0
  6
CONTINUOUS
 62
     7
 10
43.407542402912
 20
39.6042232970276
 30
0.0
 11
46.361965680119
 21
40.1251677269793
 31
0.0
  0
LINE
  5
    7F
  8
0
  6
CONTINUOUS
 62
     7
 10
46.361965680119
 20
40.1251677269793
 30
0.0
 11
43.407542402912
 21
40.6461121569309
 31
0.0
  0
LINE
  5
    80
  8
0
  6
CONTINUOUS
 62
     7
 10
-13.6836162401958
 20
40.6461121569309
 30
0.0
 11
-16.6380395174028
 21
40.1251677269793
 31
0.0
  0
LINE
  5
    81
  8
0
  6
CONTINUOUS
 62
     7
 10
-16.6380395174028
 20
40.1251677269793
 30
0.0
 11
-13.6836162401958
 21
39.6042232970276
 31
0.0
  0
ENDBLK
  5
    82
  8
0
  6
CONTINUOUS
 62
     7
  0
BLOCK
  5
    83
  8
0
  6
CONTINUOUS
 62
     7
  2
*UDIM248
 70
    65
 10
0.0
 20
0.0
 30
0.0
  3
*UDIM248
  0
TEXT
  5
    84
  8
0
  6
CONTINUOUS
 62
     7
 10
27.8369061815025
 20
-138.300407351596
 30
0.0
 40
3.00000011722246
  1
70
 50
359.999999948034
 41
0.933333333333333
 72
     1
 11
30.3369062805408
 21
-136.800407295239
 31
0.0
 73
     2
  0
LINE
  5
    85
  8
0
  6
CONTINUOUS
 62
     7
 10
46.3619516332958
 20
-3.75517072917364
 30
0.0
 11
46.3619084555802
 21
-141.30040735385
 31
0.0
  0
LINE
  5
    86
  8
0
  6
CONTINUOUS
 62
     7
 10
14.8619524677608
 20
-80.4086755760344
 30
0.0
 11
14.8619333528427
 21
-141.30040735385
 31
0.0
  0
LINE
  5
    87
  8
0
  6
CONTINUOUS
 62
     7
 10
46.3619090834131
 20
-139.30040735385
 30
0.0
 11
14.8619339806757
 21
-139.30040735385
 31
0.0
  0
LINE
  5
    88
  8
0
  6
CONTINUOUS
 62
     7
 10
43.4074858062062
 20
-139.821351783802
 30
0.0
 11
46.3619090834131
 21
-139.30040735385
 31
0.0
  0
LINE
  5
    89
  8
0
  6
CONTINUOUS
 62
     7
 10
46.3619090834131
 20
-139.30040735385
 30
0.0
 11
43.4074858062062
 21
-138.779462923899
 31
0.0
  0
LINE
  5
    8A
  8
0
  6
CONTINUOUS
 62
     7
 10
17.8163572578827
 20
-138.779462923899
 30
0.0
 11
14.8619339806757
 21
-139.30040735385
 31
0.0
  0
LINE
  5
    8B
  8
0
  6
CONTINUOUS
 62
     7
 10
14.8619339806757
 20
-139.30040735385
 30
0.0
 11
17.8163572578827
 21
-139.821351783802
 31
0.0
  0
ENDBLK
  5
    8C
  8
0
  6
CONTINUOUS
 62
     7
  0
BLOCK
  5
    8D
  8
0
  6
CONTINUOUS
 62
     7
  2
*UDIM249
 70
    65
 10
0.0
 20
0.0
 30
0.0
  3
*UDIM249
  0
TEXT
  5
    8E
  8
0
  6
CONTINUOUS
 62
     7
 10
-3.66308612959101
 20
-138.300407351596
 30
0.0
 40
3.00000011722246
  1
70
 50
359.999999948034
 41
0.933333333333333
 72
     1
 11
-1.16308603055271
 21
-136.800407295239
 31
0.0
 73
     2
  0
LINE
  5
    8F
  8
0
  6
CONTINUOUS
 62
     7
 10
-16.6380466977742
 20
-2.82419797768691
 30
0.0
 11
-16.6380901677375
 21
-141.30040735385
 31
0.0
  0
LINE
  5
    90
  8
0
  6
CONTINUOUS
 62
     7
 10
14.8619339806757
 20
-139.30040735385
 30
0.0
 11
-16.6380895399045
 21
-139.30040735385
 31
0.0
  0
LINE
  5
    91
  8
0
  6
CONTINUOUS
 62
     7
 10
11.9075107034687
 20
-139.821351783802
 30
0.0
 11
14.8619339806757
 21
-139.30040735385
 31
0.0
  0
LINE
  5
    92
  8
0
  6
CONTINUOUS
 62
     7
 10
14.8619339806757
 20
-139.30040735385
 30
0.0
 11
11.9075107034687
 21
-138.779462923899
 31
0.0
  0
LINE
  5
    93
  8
0
  6
CONTINUOUS
 62
     7
 10
-13.6836662626975
 20
-138.779462923899
 30
0.0
 11
-16.6380895399045
 21
-139.30040735385
 31
0.0
  0
LINE
  5
    94
  8
0
  6
CONTINUOUS
 62
     7
 10
-16.6380895399045
 20
-139.30040735385
 30
0.0
 11
-13.6836662626975
 21
-139.821351783802
 31
0.0
  0
ENDBLK
  5
    95
  8
0
  6
CONTINUOUS
 62
     7
  0
BLOCK
  5
    96
  8
0
  6
CONTINUOUS
 62
     7
  2
*UDIM250
 70
    65
 10
0.0
 20
0.0
 30
0.0
  3
*UDIM250
  0
TEXT
  5
    97
  8
0
  6
CONTINUOUS
 62
     7
 10
-35.1630818543117
 20
-138.300407351596
 30
0.0
 40
3.00000011722246
  1
70
 50
359.999999948034
 41
0.933333333333333
 72
     1
 11
-32.6630817552734
 21
-136.800407295239
 31
0.0
 73
     2
  0
LINE
  5
    98
  8
0
  6
CONTINUOUS
 62
     7
 10
-48.1380458990935
 20
-2.82419797768689
 30
0.0
 11
-48.1380943243439
 21
-141.30040735385
 31
0.0
  0
LINE
  5
    99
  8
0
  6
CONTINUOUS
 62
     7
 10
-16.6380895399045
 20
-139.30040735385
 30
0.0
 11
-48.1380936249422
 21
-139.30040735385
 31
0.0
  0
LINE
  5
    9A
  8
0
  6
CONTINUOUS
 62
     7
 10
-19.5925128171115
 20
-139.821351783802
 30
0.0
 11
-16.6380895399045
 21
-139.30040735385
 31
0.0
  0
LINE
  5
    9B
  8
0
  6
CONTINUOUS
 62
     7
 10
-16.6380895399045
 20
-139.30040735385
 30
0.0
 11
-19.5925128171115
 21
-138.779462923899
 31
0.0
  0
LINE
  5
    9C
  8
0
  6
CONTINUOUS
 62
     7
 10
-45.1836703477352
 20
-138.779462923899
 30
0.0
 11
-48.1380936249422
 21
-139.30040735385
 31
0.0
  0
LINE
  5
    9D
  8
0
  6
CONTINUOUS
 62
     7
 10
-48.1380936249422
 20
-139.30040735385
 30
0.0
 11
-45.1836703477352
 21
-139.821351783802
 31
0.0
  0
ENDBLK
  5
    9E
  8
0
  6
CONTINUOUS
 62
     7
  0
BLOCK
  5
    9F
  8
0
  6
CONTINUOUS
 62
     2
  2
*UDIM251
 70
    65
 10
0.0
 20
0.0
 30
0.0
  3
*UDIM251
  0
TEXT
  5
    A0
  8
0
  6
CONTINUOUS
 62
     2
 10
-77.6574608435611
 20
-43.484157454486
 30
0.0
 40
3.00000011722246
  1
268
 50
89.9999999480344
 41
0.933333333333333
 72
     1
 11
-79.15746089864
 21
-39.5841573007382
 31
0.0
 73
     2
  0
LINE
  5
    A1
  8
0
  6
CONTINUOUS
 62
     2
 10
-63.0880588203095
 20
-109.968374810286
 30
0.0
 11
-78.6574608400288
 21
-109.968374810286
 31
0.0
  0
LINE
  5
    A2
  8
0
  6
CONTINUOUS
 62
     2
 10
-63.3130395608137
 20
10.6316290795777
 30
0.0
 11
-78.6574608400288
 21
10.6316290795777
 31
0.0
  0
LINE
  5
    A3
  8
0
  6
CONTINUOUS
 62
     2
 10
-76.6574608400288
 20
-109.968374810286
 30
0.0
 11
-76.6574608400288
 21
10.6316290795777
 31
0.0
  0
LINE
  5
    A4
  8
0
  6
CONTINUOUS
 62
     2
 10
-77.1784052699804
 20
-107.013951533079
 30
0.0
 11
-76.6574608400288
 21
-109.968374810286
 31
0.0
  0
LINE
  5
    A5
  8
0
  6
CONTINUOUS
 62
     2
 10
-76.6574608400288
 20
-109.968374810286
 30
0.0
 11
-76.1365164100771
 21
-107.013951533079
 31
0.0
  0
LINE
  5
    A6
  8
0
  6
CONTINUOUS
 62
     2
 10
-76.1365164100771
 20
7.67720580237069
 30
0.0
 11
-76.6574608400288
 21
10.6316290795777
 31
0.0
  0
LINE
  5
    A7
  8
0
  6
CONTINUOUS
 62
     2
 10
-76.6574608400288
 20
10.6316290795777
 30
0.0
 11
-77.1784052699804
 21
7.67720580237069
 31
0.0
  0
ENDBLK
  5
    A8
  8
0
  6
CONTINUOUS
 62
     2
  0
BLOCK
  5
    A9
  8
0
  6
CONTINUOUS
 62
     7
  2
*UDIM252
 70
    65
 10
0.0
 20
0.0
 30
0.0
  3
*UDIM252
  0
TEXT
  5
    AA
  8
0
  6
CONTINUOUS
 62
     7
 10
30.0557112061584
 20
47.5913495087905
 30
0.0
 40
3.00000011722246
  1
104,75
 50
359.999999948034
 41
0.933333333333333
 72
     1
 11
38.155711524012
 21
49.091349560096
 31
0.0
 73
     2
  0
LINE
  5
    AB
  8
0
  6
CONTINUOUS
 62
     7
 10
61.9994619696113
 20
-68.3558621532453
 30
0.0
 11
61.999511141213
 21
48.5913495014846
 31
0.0
  0
LINE
  5
    AC
  8
0
  6
CONTINUOUS
 62
     7
 10
14.8619561645379
 20
35.8990309151986
 30
0.0
 11
14.8619991008828
 21
48.5913495014733
 31
0.0
  0
LINE
  5
    AD
  8
0
  6
CONTINUOUS
 62
     7
 10
61.9995103002934
 20
46.5913495014847
 30
0.0
 11
14.8619923351615
 21
46.5913495014847
 31
0.0
  0
LINE
  5
    AE
  8
0
  6
CONTINUOUS
 62
     7
 10
59.0450870230864
 20
46.0704050715331
 30
0.0
 11
61.9995103002934
 21
46.5913495014847
 31
0.0
  0
LINE
  5
    AF
  8
0
  6
CONTINUOUS
 62
     7
 10
61.9995103002934
 20
46.5913495014847
 30
0.0
 11
59.0450870230864
 21
47.1122939314364
 31
0.0
  0
LINE
  5
    B0
  8
0
  6
CONTINUOUS
 62
     7
 10
17.8164156123685
 20
47.1122939314364
 30
0.0
 11
14.8619923351615
 21
46.5913495014847
 31
0.0
  0
LINE
  5
    B1
  8
0
  6
CONTINUOUS
 62
     7
 10
14.8619923351615
 20
46.5913495014847
 30
0.0
 11
17.8164156123685
 21
46.0704050715331
 31
0.0
  0
ENDBLK
  5
    B2
  8
0
  6
CONTINUOUS
 62
     7
  0
BLOCK
  5
    B3
  8
0
  6
CONTINUOUS
 62
     7
  2
*UDIM253
 70
    65
 10
0.0
 20
0.0
 30
0.0
  3
*UDIM253
  0
TEXT
  5
    B4
  8
0
  6
CONTINUOUS
 62
     7
 10
-7.86297860834276
 20
61.7849572247873
 30
0.0
 40
3.00000011722246
  1
279,5
 50
359.999999948034
 41
0.933333333333333
 72
     1
 11
-1.162978345193
 21
63.2849572773555
 31
0.0
 73
     2
  0
LINE
  5
    B5
  8
0
  6
CONTINUOUS
 62
     7
 10
61.9994619579913
 20
-68.3558621532453
 30
0.0
 11
61.9995155735803
 21
62.7849572187441
 31
0.0
  0
LINE
  5
    B6
  8
0
  6
CONTINUOUS
 62
     7
 10
-63.7755348050324
 20
-68.3558896190648
 30
0.0
 11
-63.7754936377602
 21
62.7849572187441
 31
0.0
  0
LINE
  5
    B7
  8
0
  6
CONTINUOUS
 62
     7
 10
61.9995147559007
 20
60.7849572187442
 30
0.0
 11
-63.7754942655932
 21
60.7849572187442
 31
0.0
  0
LINE
  5
    B8
  8
0
  6
CONTINUOUS
 62
     7
 10
59.0450914786937
 20
60.2640127887926
 30
0.0
 11
61.9995147559007
 21
60.7849572187442
 31
0.0
  0
LINE
  5
    B9
  8
0
  6
CONTINUOUS
 62
     7
 10
61.9995147559007
 20
60.7849572187442
 30
0.0
 11
59.0450914786937
 21
61.3059016486959
 31
0.0
  0
LINE
  5
    BA
  8
0
  6
CONTINUOUS
 62
     7
 10
-60.8210709883862
 20
61.3059016486959
 30
0.0
 11
-63.7754942655932
 21
60.7849572187442
 31
0.0
  0
LINE
  5
    BB
  8
0
  6
CONTINUOUS
 62
     7
 10
-63.7754942655932
 20
60.7849572187442
 30
0.0
 11
-60.8210709883862
 21
60.2640127887926
 31
0.0
  0
ENDBLK
  5
    BC
  8
0
  6
CONTINUOUS
 62
     7
  0
BLOCK
  5
    BD
  8
0
  6
CONTINUOUS
 62
     7
  2
*UDIM254
 70
    65
 10
0.0
 20
0.0
 30
0.0
  3
*UDIM254
  0
TEXT
  5
    BE
  8
0
  6
CONTINUOUS
 62
     7
 10
10.1092405172793
 20
-201.686645209521
 30
0.0
 40
3.00000002980232
  1
109.75
 50
449.999999896069
 41
0.933333333333333
 72
     1
 11
8.60924051702023
 21
-193.586645126343
 31
0.0
 73
     2
  0
LINE
  5
    BF
  8
0
  6
CONTINUOUS
 62
     7
 10
-0.70288536385539
 20
-161.815093994141
 30
0.0
 11
13.1092405319214
 21
-161.815093994141
 31
0.0
  0
LINE
  5
    C0
  8
0
  6
CONTINUOUS
 62
     7
 10
9.3826530444263
 20
-178.940093994141
 30
0.0
 11
13.1092405319214
 21
-178.940093994141
 31
0.0
  0
LINE
  5
    C1
  8
0
  6
CONTINUOUS
 62
     7
 10
11.1092405319214
 20
-161.815093994141
 30
0.0
 11
11.1092405319214
 21
-201.686645206809
 31
0.0
  0
LINE
  5
    C2
  8
0
  6
CONTINUOUS
 62
     7
 10
11.630184961873
 20
-164.769517271348
 30
0.0
 11
11.1092405319214
 21
-161.815093994141
 31
0.0
  0
LINE
  5
    C3
  8
0
  6
CONTINUOUS
 62
     7
 10
11.1092405319214
 20
-161.815093994141
 30
0.0
 11
10.5882961019697
 21
-164.769517271348
 31
0.0
  0
LINE
  5
    C4
  8
0
  6
CONTINUOUS
 62
     7
 10
10.5882961019697
 20
-175.985670716934
 30
0.0
 11
11.1092405319214
 21
-178.940093994141
 31
0.0
  0
LINE
  5
    C5
  8
0
  6
CONTINUOUS
 62
     7
 10
11.1092405319214
 20
-178.940093994141
 30
0.0
 11
11.6301849618731
 21
-175.985670716934
 31
0.0
  0
ENDBLK
  5
    C6
  8
0
  6
CONTINUOUS
 62
     7
  0
BLOCK
  5
    C7
  8
0
  6
CONTINUOUS
 62
     2
  2
*UDIM255
 70
    65
 10
0.0
 20
0.0
 30
0.0
  3
*UDIM255
  0
TEXT
  5
    C8
  8
0
  6
CONTINUOUS
 62
     2
 10
-78.5491330259447
 20
-203.661476509014
 30
0.0
 40
3.00000002980232
  1
5,5
 50
372.325635602095
 41
0.933333333333333
 72
     1
 11
-75.0592286422079
 21
-201.363527915317
 31
0.0
 73
     2
  0
TEXT
  5
    C9
  8
0
  6
CONTINUOUS
 62
     2
 10
-81.6265260416946
 20
-204.333899210296
 30
0.0
 40
3.00000002980232
  1
Ø
 50
372.325635602095
 41
0.933333333333334
 72
     1
 11
-80.8720821369917
 21
-202.633659679112
 31
0.0
 73
     2
  0
TEXT
  5
    CA
  8
0
  6
CONTINUOUS
 62
     2
 10
-70.3915990953938
 20
-201.879022676511
 30
0.0
 40
3.00000002980232
  1
 - M5
 50
372.325635602095
 41
0.933333333333333
 72
     1
 11
-64.1662342326231
 21
-198.983365020301
 31
0.0
 73
     2
  0
LINE
  5
    CB
  8
0
  6
CONTINUOUS
 62
     2
 10
-38.4275107734118
 20
-195.918335072785
 30
0.0
 11
-81.4130585166468
 21
-205.310849372653
 31
0.0
  0
LINE
  5
    CC
  8
0
  6
CONTINUOUS
 62
     2
 10
-35.6523911936521
 20
-194.778724912232
 30
0.0
 11
-38.4275107734118
 21
-195.918335072785
 31
0.0
  0
LINE
  5
    CD
  8
0
  6
CONTINUOUS
 62
     2
 10
-38.4275107734118
 20
-195.918335072785
 30
0.0
 11
-35.4299817605578
 21
-195.796598401651
 31
0.0
  0
LINE
  5
    CE
  8
0
  6
CONTINUOUS
 62
     2
 10
-42.5459368245363
 20
-197.351463076049
 30
0.0
 11
-39.7708172447767
 21
-196.211852915497
 31
0.0
  0
LINE
  5
    CF
  8
0
  6
CONTINUOUS
 62
     2
 10
-39.7708172447767
 20
-196.211852915497
 30
0.0
 11
-42.7683462576307
 21
-196.333589586631
 31
0.0
  0
ENDBLK
  5
    D0
  8
0
  6
CONTINUOUS
 62
     2
  0
BLOCK
  5
    D1
  8
0
  6
CONTINUOUS
 62
     2
  2
*UDIM256
 70
    65
 10
0.0
 20
0.0
 30
0.0
  3
*UDIM256
  0
TEXT
  5
    D2
  8
0
  6
CONTINUOUS
 62
     2
 10
-10.7836303092354
 20
-168.813264842279
 30
0.0
 40
3.00000002980232
  1
35
 50
359.999999896069
 41
0.933333333333333
 72
     1
 11
-8.28363028168678
 21
-167.313264831901
 31
0.0
 73
     2
  0
LINE
  5
    D3
  8
0
  6
CONTINUOUS
 62
     2
 10
-4.09916400909424
 20
-169.813264846802
 30
0.0
 11
-12.8491640090942
 21
-169.813264846802
 31
0.0
  0
LINE
  5
    D4
  8
0
  6
CONTINUOUS
 62
     2
 10
-1.14474073188727
 20
-169.29232041685
 30
0.0
 11
-4.09916400909424
 21
-169.813264846802
 31
0.0
  0
LINE
  5
    D5
  8
0
  6
CONTINUOUS
 62
     2
 10
-4.09916400909424
 20
-169.813264846802
 30
0.0
 11
-1.14474073188727
 21
-170.334209276753
 31
0.0
  0
LINE
  5
    D6
  8
0
  6
CONTINUOUS
 62
     2
 10
-15.8035872863012
 20
-170.334209276753
 30
0.0
 11
-12.8491640090942
 21
-169.813264846802
 31
0.0
  0
LINE
  5
    D7
  8
0
  6
CONTINUOUS
 62
     2
 10
-12.8491640090942
 20
-169.813264846802
 30
0.0
 11
-15.8035872863012
 21
-169.29232041685
 31
0.0
  0
ENDBLK
  5
    D8
  8
0
  6
CONTINUOUS
 62
     2
  0
BLOCK
  5
    D9
  8
0
  6
CONTINUOUS
 62
     2
  2
*UDIM257
 70
    65
 10
0.0
 20
0.0
 30
0.0
  3
*UDIM257
  0
TEXT
  5
    DA
  8
0
  6
CONTINUOUS
 62
     2
 10
-30.1491640565111
 20
-150.759183876612
 30
0.0
 40
3.00000002980232
  1
105
 50
359.999999896069
 41
0.933333333333333
 72
     1
 11
-26.2491640150547
 21
-149.259183868766
 31
0.0
 73
     2
  0
LINE
  5
    DB
  8
0
  6
CONTINUOUS
 62
     2
 10
-39.0991640090942
 20
-153.930557733875
 30
0.0
 11
-39.0991640090942
 21
-149.759183883667
 31
0.0
  0
LINE
  5
    DC
  8
0
  6
CONTINUOUS
 62
     2
 10
-12.8491640090942
 20
-151.759183883667
 30
0.0
 11
-39.0991640090942
 21
-151.759183883667
 31
0.0
  0
LINE
  5
    DD
  8
0
  6
CONTINUOUS
 62
     2
 10
-15.8035872863012
 20
-152.280128313619
 30
0.0
 11
-12.8491640090942
 21
-151.759183883667
 31
0.0
  0
LINE
  5
    DE
  8
0
  6
CONTINUOUS
 62
     2
 10
-12.8491640090942
 20
-151.759183883667
 30
0.0
 11
-15.8035872863012
 21
-151.238239453715
 31
0.0
  0
LINE
  5
    DF
  8
0
  6
CONTINUOUS
 62
     2
 10
-36.1447407318873
 20
-151.238239453715
 30
0.0
 11
-39.0991640090942
 21
-151.759183883667
 31
0.0
  0
LINE
  5
    E0
  8
0
  6
CONTINUOUS
 62
     2
 10
-39.0991640090942
 20
-151.759183883667
 30
0.0
 11
-36.1447407318873
 21
-152.280128313619
 31
0.0
  0
ENDBLK
  5
    E1
  8
0
  6
CONTINUOUS
 62
     2
  0
BLOCK
  5
    E2
  8
0
  6
CONTINUOUS
 62
     2
  2
*UDIM258
 70
    65
 10
0.0
 20
0.0
 30
0.0
  3
*UDIM258
  0
TEXT
  5
    E3
  8
0
  6
CONTINUOUS
 62
     2
 10
-53.6994371484683
 20
-183.115097374787
 30
0.0
 40
3.00000002980232
  1
237
 50
449.999999896069
 41
0.933333333333333
 72
     1
 11
-55.1994371563196
 21
-179.215097333332
 31
0.0
 73
     2
  0
LINE
  5
    E4
  8
0
  6
CONTINUOUS
 62
     2
 10
-42.2377423960492
 20
-161.815092597431
 30
0.0
 11
-54.6994371414165
 21
-161.815075192064
 31
0.0
  0
LINE
  5
    E5
  8
0
  6
CONTINUOUS
 62
     2
 10
-42.3136476877885
 20
-196.065092561977
 30
0.0
 11
-54.6994371414164
 21
-196.065074823495
 31
0.0
  0
LINE
  5
    E6
  8
0
  6
CONTINUOUS
 62
     2
 10
-52.6994371414185
 20
-161.815077985483
 30
0.0
 11
-52.6994371414185
 21
-196.065077687823
 31
0.0
  0
LINE
  5
    E7
  8
0
  6
CONTINUOUS
 62
     2
 10
-52.1784927114668
 20
-164.76950126269
 30
0.0
 11
-52.6994371414185
 21
-161.815077985483
 31
0.0
  0
LINE
  5
    E8
  8
0
  6
CONTINUOUS
 62
     2
 10
-52.6994371414185
 20
-161.815077985483
 30
0.0
 11
-53.2203815713701
 21
-164.76950126269
 31
0.0
  0
LINE
  5
    E9
  8
0
  6
CONTINUOUS
 62
     2
 10
-53.2203815713701
 20
-193.110654410616
 30
0.0
 11
-52.6994371414185
 21
-196.065077687823
 31
0.0
  0
LINE
  5
    EA
  8
0
  6
CONTINUOUS
 62
     2
 10
-52.6994371414185
 20
-196.065077687823
 30
0.0
 11
-52.1784927114668
 21
-193.110654410616
 31
0.0
  0
ENDBLK
  5
    EB
  8
0
  6
CONTINUOUS
 62
     2
  0
BLOCK
  5
    EC
  8
0
  6
CONTINUOUS
 62
     7
  2
*UDIM259
 70
    65
 10
0.0
 20
0.0
 30
0.0
  3
*UDIM259
  0
TEXT
  5
    ED
  8
0
  6
CONTINUOUS
 62
     7
 10
258.568286084035
 20
-2.33823202981332
 30
0.0
 40
3.00000002980232
  1
147
 50
359.999999844103
 41
0.933333333333333
 72
     1
 11
262.468286126852
 21
-0.838232025504112
 31
0.0
 73
     2
  0
LINE
  5
    EE
  8
0
  6
CONTINUOUS
 62
     7
 10
244.368286132813
 20
10.8417301177979
 30
0.0
 11
244.368286132813
 21
-5.33823204040527
 31
0.0
  0
LINE
  5
    EF
  8
0
  6
CONTINUOUS
 62
     7
 10
281.118286132813
 20
10.8417301177979
 30
0.0
 11
281.118286132813
 21
-5.33823204040527
 31
0.0
  0
LINE
  5
    F0
  8
0
  6
CONTINUOUS
 62
     7
 10
244.368286132813
 20
-3.33823204040527
 30
0.0
 11
281.118286132813
 21
-3.33823204040527
 31
0.0
  0
LINE
  5
    F1
  8
0
  6
CONTINUOUS
 62
     7
 10
247.322709410019
 20
-2.81728761045361
 30
0.0
 11
244.368286132813
 21
-3.33823204040527
 31
0.0
  0
LINE
  5
    F2
  8
0
  6
CONTINUOUS
 62
     7
 10
244.368286132813
 20
-3.33823204040527
 30
0.0
 11
247.322709410019
 21
-3.85917647035694
 31
0.0
  0
LINE
  5
    F3
  8
0
  6
CONTINUOUS
 62
     7
 10
278.163862855606
 20
-3.85917647035694
 30
0.0
 11
281.118286132813
 21
-3.33823204040527
 31
0.0
  0
LINE
  5
    F4
  8
0
  6
CONTINUOUS
 62
     7
 10
281.118286132813
 20
-3.33823204040527
 30
0.0
 11
278.163862855606
 21
-2.81728761045361
 31
0.0
  0
ENDBLK
  5
    F5
  8
0
  6
CONTINUOUS
 62
     7
  0
BLOCK
  5
    F6
  8
0
  6
CONTINUOUS
 62
     7
  2
*UDIM260
 70
    65
 10
0.0
 20
0.0
 30
0.0
  3
*UDIM260
  0
TEXT
  5
    F7
  8
0
  6
CONTINUOUS
 62
     7
 10
258.568286084035
 20
52.8997554884972
 30
0.0
 40
3.00000002980232
  1
115
 50
359.999999844103
 41
0.933333333333333
 72
     1
 11
262.468286126852
 21
54.3997554928064
 31
0.0
 73
     2
  0
LINE
  5
    F8
  8
0
  6
CONTINUOUS
 62
     7
 10
248.368286132813
 20
46.7167301177979
 30
0.0
 11
248.368286132813
 21
53.8997554779053
 31
0.0
  0
LINE
  5
    F9
  8
0
  6
CONTINUOUS
 62
     7
 10
277.118286132813
 20
46.7167301177979
 30
0.0
 11
277.118286132813
 21
53.8997554779053
 31
0.0
  0
LINE
  5
    FA
  8
0
  6
CONTINUOUS
 62
     7
 10
248.368286132813
 20
51.8997554779053
 30
0.0
 11
277.118286132813
 21
51.8997554779053
 31
0.0
  0
LINE
  5
    FB
  8
0
  6
CONTINUOUS
 62
     7
 10
251.322709410019
 20
52.4206999078569
 30
0.0
 11
248.368286132813
 21
51.8997554779053
 31
0.0
  0
LINE
  5
    FC
  8
0
  6
CONTINUOUS
 62
     7
 10
248.368286132813
 20
51.8997554779053
 30
0.0
 11
251.322709410019
 21
51.3788110479536
 31
0.0
  0
LINE
  5
    FD
  8
0
  6
CONTINUOUS
 62
     7
 10
274.163862855606
 20
51.3788110479536
 30
0.0
 11
277.118286132813
 21
51.8997554779053
 31
0.0
  0
LINE
  5
    FE
  8
0
  6
CONTINUOUS
 62
     7
 10
277.118286132813
 20
51.8997554779053
 30
0.0
 11
274.163862855606
 21
52.4206999078569
 31
0.0
  0
ENDBLK
  5
    FF
  8
0
  6
CONTINUOUS
 62
     7
  0
BLOCK
  5
   100
  8
0
  6
CONTINUOUS
 62
     7
  2
*UDIM261
 70
    65
 10
0.0
 20
0.0
 30
0.0
  3
*UDIM261
  0
TEXT
  5
   101
  8
0
  6
CONTINUOUS
 62
     7
 10
226.717842091464
 20
21.6667300690224
 30
0.0
 40
3.00000002980232
  1
142
 50
449.999999844103
 41
0.933333333333333
 72
     1
 11
225.21784208715
 21
25.5667301118374
 31
0.0
 73
     2
  0
LINE
  5
   102
  8
0
  6
CONTINUOUS
 62
     7
 10
245.243286132813
 20
43.5917301177979
 30
0.0
 11
225.717842102051
 21
43.5917301177979
 31
0.0
  0
LINE
  5
   103
  8
0
  6
CONTINUOUS
 62
     7
 10
245.243286132813
 20
8.09173011779785
 30
0.0
 11
225.717842102051
 21
8.09173011779785
 31
0.0
  0
LINE
  5
   104
  8
0
  6
CONTINUOUS
 62
     7
 10
227.717842102051
 20
43.5917301177979
 30
0.0
 11
227.717842102051
 21
8.09173011779785
 31
0.0
  0
LINE
  5
   105
  8
0
  6
CONTINUOUS
 62
     7
 10
228.238786532002
 20
40.6373068405909
 30
0.0
 11
227.717842102051
 21
43.5917301177979
 31
0.0
  0
LINE
  5
   106
  8
0
  6
CONTINUOUS
 62
     7
 10
227.717842102051
 20
43.5917301177979
 30
0.0
 11
227.196897672099
 21
40.6373068405909
 31
0.0
  0
LINE
  5
   107
  8
0
  6
CONTINUOUS
 62
     7
 10
227.196897672099
 20
11.0461533950048
 30
0.0
 11
227.717842102051
 21
8.09173011779785
 31
0.0
  0
LINE
  5
   108
  8
0
  6
CONTINUOUS
 62
     7
 10
227.717842102051
 20
8.09173011779785
 30
0.0
 11
228.238786532002
 21
11.0461533950048
 31
0.0
  0
ENDBLK
  5
   109
  8
0
  6
CONTINUOUS
 62
     7
  0
BLOCK
  5
   10A
  8
0
  6
CONTINUOUS
 62
     7
  2
*UDIM262
 70
    65
 10
0.0
 20
0.0
 30
0.0
  3
*UDIM262
  0
TEXT
  5
   10B
  8
0
  6
CONTINUOUS
 62
     7
 10
234.516147602938
 20
21.6667300690224
 30
0.0
 40
3.00000002980232
  1
112
 50
449.999999844103
 41
0.933333333333333
 72
     1
 11
233.016147598624
 21
25.5667301118374
 31
0.0
 73
     2
  0
LINE
  5
   10C
  8
0
  6
CONTINUOUS
 62
     7
 10
243.368286132813
 20
39.8417301177979
 30
0.0
 11
233.516147613525
 21
39.8417301177979
 31
0.0
  0
LINE
  5
   10D
  8
0
  6
CONTINUOUS
 62
     7
 10
243.368286132813
 20
11.8417301177979
 30
0.0
 11
233.516147613525
 21
11.8417301177979
 31
0.0
  0
LINE
  5
   10E
  8
0
  6
CONTINUOUS
 62
     7
 10
235.516147613525
 20
39.8417301177979
 30
0.0
 11
235.516147613525
 21
11.8417301177979
 31
0.0
  0
LINE
  5
   10F
  8
0
  6
CONTINUOUS
 62
     7
 10
236.037092043477
 20
36.8873068405909
 30
0.0
 11
235.516147613525
 21
39.8417301177979
 31
0.0
  0
LINE
  5
   110
  8
0
  6
CONTINUOUS
 62
     7
 10
235.516147613525
 20
39.8417301177979
 30
0.0
 11
234.995203183574
 21
36.8873068405909
 31
0.0
  0
LINE
  5
   111
  8
0
  6
CONTINUOUS
 62
     7
 10
234.995203183574
 20
14.7961533950048
 30
0.0
 11
235.516147613525
 21
11.8417301177979
 31
0.0
  0
LINE
  5
   112
  8
0
  6
CONTINUOUS
 62
     7
 10
235.516147613525
 20
11.8417301177979
 30
0.0
 11
236.037092043477
 21
14.7961533950048
 31
0.0
  0
ENDBLK
  5
   113
  8
0
  6
CONTINUOUS
 62
     7
  0
BLOCK
  5
   114
  8
0
  6
CONTINUOUS
 62
     7
  2
*UDIM263
 70
    65
 10
0.0
 20
0.0
 30
0.0
  3
*UDIM263
  0
TEXT
  5
   115
  8
0
  6
CONTINUOUS
 62
     7
 10
289.033042296366
 20
56.8628604972509
 30
0.0
 40
3.00000002980232
  1
7
 50
404.868411918951
 41
0.933333333333334
 72
     1
 11
288.754422654295
 21
58.7019828868152
 31
0.0
 73
     2
  0
TEXT
  5
   116
  8
0
  6
CONTINUOUS
 62
     7
 10
286.80054629704
 20
54.6405955095455
 30
0.0
 40
3.00000002980232
  1
Ø
 50
404.868411918951
 41
0.933333333333334
 72
     1
 11
286.52192665497
 21
56.4797178991098
 31
0.0
 73
     2
  0
LINE
  5
   117
  8
0
  6
CONTINUOUS
 62
     7
 10
291.297726813269
 20
57.7061897087428
 30
0.0
 11
276.498148357178
 21
42.9744342898265
 31
0.0
  0
LINE
  5
   118
  8
0
  6
CONTINUOUS
 62
     7
 10
279.464792658386
 20
46.6625236407418
 30
0.0
 11
277.738423908447
 21
44.2090259457692
 31
0.0
  0
LINE
  5
   119
  8
0
  6
CONTINUOUS
 62
     7
 10
277.738423908447
 20
44.2090259457692
 30
0.0
 11
280.199825397161
 21
45.9241069092687
 31
0.0
  0
LINE
  5
   11A
  8
0
  6
CONTINUOUS
 62
     7
 10
274.771779607239
 20
40.5209365948539
 30
0.0
 11
276.498148357178
 21
42.9744342898265
 31
0.0
  0
LINE
  5
   11B
  8
0
  6
CONTINUOUS
 62
     7
 10
276.498148357178
 20
42.9744342898265
 30
0.0
 11
274.036746868464
 21
41.259353326327
 31
0.0
  0
ENDBLK
  5
   11C
  8
0
  6
CONTINUOUS
 62
     7
  0
BLOCK
  5
   11D
  8
0
  6
CONTINUOUS
 62
     7
  2
*HATCH197
 70
    65
 10
0.0
 20
0.0
 30
0.0
  3
*HATCH197
  0
LINE
  5
   11E
  8
0
  6
CONTINUOUS
 62
   210
 10
-3.69108244776726E-2
 20
165.5
 30
0.0
 11
2.9523138999939
 21
162.510772705078
 31
0.0
  0
LINE
  5
   11F
  8
0
  6
CONTINUOUS
 62
   210
 10
4.20579242706299
 20
165.499938964844
 30
0.0
 11
7.1949520111084
 21
162.510772705078
 31
0.0
  0
LINE
  5
   120
  8
0
  6
CONTINUOUS
 62
   210
 10
7.26335382461548
 20
166.685012817383
 30
0.0
 11
11.1375408172607
 21
162.810821533203
 31
0.0
  0
LINE
  5
   121
  8
0
  6
CONTINUOUS
 62
   210
 10
8.19100952148438
 20
170.0
 30
0.0
 11
10.5168390274048
 21
167.674163818359
 31
0.0
  0
ENDBLK
  5
   122
  8
0
  6
CONTINUOUS
 62
     7
  0
BLOCK
  5
   123
  8
0
  6
CONTINUOUS
 62
     7
  2
*HATCH198
 70
    65
 10
0.0
 20
0.0
 30
0.0
  3
*HATCH198
  0
LINE
  5
   124
  8
0
  6
CONTINUOUS
 62
   210
 10
22.282886505127
 20
175.0
 30
0.0
 11
24.739839553833
 21
172.543045043945
 31
0.0
  0
LINE
  5
   125
  8
0
  6
CONTINUOUS
 62
   210
 10
24.4042053222656
 20
175.0
 30
0.0
 11
29.4041996002197
 21
170.0
 31
0.0
  0
LINE
  5
   126
  8
0
  6
CONTINUOUS
 62
   210
 10
28.646842956543
 20
175.0
 30
0.0
 11
33.6468391418457
 21
170.0
 31
0.0
  0
LINE
  5
   127
  8
0
  6
CONTINUOUS
 62
   210
 10
32.8894805908203
 20
175.0
 30
0.0
 11
37.889476776123
 21
170.0
 31
0.0
  0
LINE
  5
   128
  8
0
  6
CONTINUOUS
 62
   210
 10
37.1321182250977
 20
175.0
 30
0.0
 11
42.1321144104004
 21
170.0
 31
0.0
  0
LINE
  5
   129
  8
0
  6
CONTINUOUS
 62
   210
 10
41.374755859375
 20
175.0
 30
0.0
 11
46.3747520446777
 21
170.0
 31
0.0
  0
LINE
  5
   12A
  8
0
  6
CONTINUOUS
 62
   210
 10
45.6173934936523
 20
175.0
 30
0.0
 11
50.6173896789551
 21
170.0
 31
0.0
  0
LINE
  5
   12B
  8
0
  6
CONTINUOUS
 62
   210
 10
49.8600311279297
 20
175.0
 30
0.0
 11
54.8600273132324
 21
170.0
 31
0.0
  0
LINE
  5
   12C
  8
0
  6
CONTINUOUS
 62
   210
 10
54.1026725769043
 20
175.0
 30
0.0
 11
55.6382675170898
 21
173.464401245117
 31
0.0
  0
ENDBLK
  5
   12D
  8
0
  6
CONTINUOUS
 62
     7
  0
BLOCK
  5
   12E
  8
0
  6
CONTINUOUS
 62
     2
  2
*HATCH199
 70
    65
 10
0.0
 20
0.0
 30
0.0
  3
*HATCH199
  0
LINE
  5
   12F
  8
0
  6
CONTINUOUS
 62
   210
 10
14.4451389312744
 20
199.0
 30
0.0
 11
11.5500001907349
 21
196.104858398438
 31
0.0
  0
LINE
  5
   130
  8
0
  6
CONTINUOUS
 62
   210
 10
18.687780380249
 20
199.0
 30
0.0
 11
11.5500001907349
 21
191.862213134766
 31
0.0
  0
LINE
  5
   131
  8
0
  6
CONTINUOUS
 62
   210
 10
20.5499858856201
 20
196.619567871094
 30
0.0
 11
13.930419921875
 21
190.0
 31
0.0
  0
LINE
  5
   132
  8
0
  6
CONTINUOUS
 62
   210
 10
20.5499858856201
 20
192.376922607422
 30
0.0
 11
18.1730613708496
 21
190.0
 31
0.0
  0
ENDBLK
  5
   133
  8
0
  6
CONTINUOUS
 62
     2
  0
BLOCK
  5
   134
  8
0
  6
CONTINUOUS
 62
     2
  2
*HATCH200
 70
    65
 10
0.0
 20
0.0
 30
0.0
  3
*HATCH200
  0
LINE
  5
   135
  8
0
  6
CONTINUOUS
 62
   210
 10
14.2943811416626
 20
184.0
 30
0.0
 11
11.5500001907349
 21
181.255615234375
 31
0.0
  0
LINE
  5
   136
  8
0
  6
CONTINUOUS
 62
   210
 10
18.5370235443115
 20
184.0
 30
0.0
 11
11.5500001907349
 21
177.012969970703
 31
0.0
  0
LINE
  5
   137
  8
0
  6
CONTINUOUS
 62
   210
 10
20.5499877929687
 20
181.770324707031
 30
0.0
 11
11.5500001907349
 21
172.77033996582
 31
0.0
  0
LINE
  5
   138
  8
0
  6
CONTINUOUS
 62
   210
 10
20.549991607666
 20
177.527679443359
 30
0.0
 11
11.5500001907349
 21
168.527694702148
 31
0.0
  0
LINE
  5
   139
  8
0
  6
CONTINUOUS
 62
   210
 10
20.5499935150146
 20
173.285049438477
 30
0.0
 11
11.3327283859253
 21
164.067779541016
 31
0.0
  0
LINE
  5
   13A
  8
0
  6
CONTINUOUS
 62
   210
 10
20.5499973297119
 20
169.042404174805
 30
0.0
 11
14.1683549880981
 21
162.660766601563
 31
0.0
  0
LINE
  5
   13B
  8
0
  6
CONTINUOUS
 62
   210
 10
20.5500011444092
 20
164.799758911133
 30
0.0
 11
18.4109954833984
 21
162.660766601563
 31
0.0
  0
ENDBLK
  5
   13C
  8
0
  6
CONTINUOUS
 62
     2
  0
BLOCK
  5
   13D
  8
0
  6
CONTINUOUS
 62
     2
  2
*HATCH201
 70
    65
 10
0.0
 20
0.0
 30
0.0
  3
*HATCH201
  0
LINE
  5
   13E
  8
0
  6
CONTINUOUS
 62
     3
 10
2.22191214561462
 20
191.171905517578
 30
0.0
 11
3.39382290840149
 21
190.0
 31
0.0
  0
LINE
  5
   13F
  8
0
  6
CONTINUOUS
 62
     3
 10
4.01514434814453
 20
191.5
 30
0.0
 11
5.51514148712158
 21
190.0
 31
0.0
  0
LINE
  5
   140
  8
0
  6
CONTINUOUS
 62
     3
 10
6.1364631652832
 20
191.5
 30
0.0
 11
7.63646030426025
 21
190.0
 31
0.0
  0
LINE
  5
   141
  8
0
  6
CONTINUOUS
 62
     3
 10
8.25778198242188
 20
191.5
 30
0.0
 11
9.75777912139893
 21
190.0
 31
0.0
  0
LINE
  5
   142
  8
0
  6
CONTINUOUS
 62
     3
 10
10.3791007995605
 20
191.5
 30
0.0
 11
11.8790979385376
 21
190.0
 31
0.0
  0
ENDBLK
  5
   143
  8
0
  6
CONTINUOUS
 62
     2
  0
BLOCK
  5
   144
  8
0
  6
CONTINUOUS
 62
     2
  2
*HATCH202
 70
    65
 10
0.0
 20
0.0
 30
0.0
  3
*HATCH202
  0
LINE
  5
   145
  8
0
  6
CONTINUOUS
 62
     3
 10
3.02985763549805
 20
184.0
 30
0.0
 11
4.52985525131226
 21
182.5
 31
0.0
  0
LINE
  5
   146
  8
0
  6
CONTINUOUS
 62
     3
 10
5.15117645263672
 20
184.0
 30
0.0
 11
6.65117406845093
 21
182.5
 31
0.0
  0
LINE
  5
   147
  8
0
  6
CONTINUOUS
 62
     3
 10
7.27249526977539
 20
184.0
 30
0.0
 11
8.77249240875244
 21
182.5
 31
0.0
  0
LINE
  5
   148
  8
0
  6
CONTINUOUS
 62
     3
 10
9.39381408691406
 20
184.0
 30
0.0
 11
10.8938112258911
 21
182.5
 31
0.0
  0
LINE
  5
   149
  8
0
  6
CONTINUOUS
 62
     3
 10
11.5151309967041
 20
184.0
 30
0.0
 11
12.0500001907349
 21
183.465133666992
 31
0.0
  0
ENDBLK
  5
   14A
  8
0
  6
CONTINUOUS
 62
     2
  0
BLOCK
  5
   14B
  8
0
  6
CONTINUOUS
 62
     2
  2
*HATCH203
 70
    65
 10
0.0
 20
0.0
 30
0.0
  3
*HATCH203
  0
LINE
  5
   14C
  8
0
  6
CONTINUOUS
 62
     3
 10
2.15654945373535
 20
200.5
 30
0.0
 11
4.99976091086864E-2
 21
198.393447875977
 31
0.0
  0
LINE
  5
   14D
  8
0
  6
CONTINUOUS
 62
     3
 10
4.27786588668823
 20
200.499984741211
 30
0.0
 11
2.27785897254944
 21
198.499984741211
 31
0.0
  0
LINE
  5
   14E
  8
0
  6
CONTINUOUS
 62
     3
 10
5.33852386474609
 20
200.499984741211
 30
0.0
 11
3.33851957321167
 21
198.499984741211
 31
0.0
  0
LINE
  5
   14F
  8
0
  6
CONTINUOUS
 62
     3
 10
6.39918231964111
 20
200.499984741211
 30
0.0
 11
4.39917993545532
 21
198.499984741211
 31
0.0
  0
LINE
  5
   150
  8
0
  6
CONTINUOUS
 62
     3
 10
7.45984077453613
 20
200.499984741211
 30
0.0
 11
5.45984029769897
 21
198.499984741211
 31
0.0
  0
LINE
  5
   151
  8
0
  6
CONTINUOUS
 62
     3
 10
8.52049922943115
 20
200.499984741211
 30
0.0
 11
6.52050065994263
 21
198.499984741211
 31
0.0
  0
LINE
  5
   152
  8
0
  6
CONTINUOUS
 62
     3
 10
9.58115673065186
 20
200.499984741211
 30
0.0
 11
7.58116149902344
 21
198.499984741211
 31
0.0
  0
LINE
  5
   153
  8
0
  6
CONTINUOUS
 62
     3
 10
10.6418151855469
 20
200.499984741211
 30
0.0
 11
8.64182186126709
 21
198.499984741211
 31
0.0
  0
LINE
  5
   154
  8
0
  6
CONTINUOUS
 62
     3
 10
11.7024736404419
 20
200.499969482422
 30
0.0
 11
9.70248222351074
 21
198.499984741211
 31
0.0
  0
LINE
  5
   155
  8
0
  6
CONTINUOUS
 62
     3
 10
2.04999971389771
 20
190.847503662109
 30
0.0
 11
1.70249402523041
 21
190.5
 31
0.0
  0
LINE
  5
   156
  8
0
  6
CONTINUOUS
 62
     3
 10
12.7631320953369
 20
200.499969482422
 30
0.0
 11
11.7631435394287
 21
199.499984741211
 31
0.0
  0
LINE
  5
   157
  8
0
  6
CONTINUOUS
 62
     3
 10
5.42884683609009
 20
193.16569519043
 30
0.0
 11
3.76315402984619
 21
191.5
 31
0.0
  0
LINE
  5
   158
  8
0
  6
CONTINUOUS
 62
     3
 10
13.0499925613403
 20
199.726181030273
 30
0.0
 11
12.8238124847412
 21
199.5
 31
0.0
  0
LINE
  5
   159
  8
0
  6
CONTINUOUS
 62
     3
 10
1.05000126361847
 20
187.726181030273
 30
0.0
 11
0.049999475479126
 21
186.726181030273
 31
0.0
  0
LINE
  5
   15A
  8
0
  6
CONTINUOUS
 62
     3
 10
1.05000138282776
 20
186.66552734375
 30
0.0
 11
4.99996468424797E-2
 21
185.66552734375
 31
0.0
  0
LINE
  5
   15B
  8
0
  6
CONTINUOUS
 62
     3
 10
1.05000150203705
 20
185.604873657227
 30
0.0
 11
4.99998182058334E-2
 21
184.604873657227
 31
0.0
  0
LINE
  5
   15C
  8
0
  6
CONTINUOUS
 62
     3
 10
1.05000162124634
 20
184.544219970703
 30
0.0
 11
4.99999895691872E-2
 21
183.544219970703
 31
0.0
  0
LINE
  5
   15D
  8
0
  6
CONTINUOUS
 62
     3
 10
1.06645560264587
 20
183.5
 30
0.0
 11
5.00001572072506E-2
 21
182.483535766602
 31
0.0
  0
LINE
  5
   15E
  8
0
  6
CONTINUOUS
 62
     3
 10
2.04999995231628
 20
183.422882080078
 30
0.0
 11
0.050000324845314
 21
181.422882080078
 31
0.0
  0
LINE
  5
   15F
  8
0
  6
CONTINUOUS
 62
     3
 10
2.36888837814331
 20
182.681106567383
 30
0.0
 11
5.00004962086678E-2
 21
180.362228393555
 31
0.0
  0
LINE
  5
   160
  8
0
  6
CONTINUOUS
 62
     3
 10
4.30909824371338
 20
182.5
 30
0.0
 11
2.63195157051086
 21
180.822860717773
 31
0.0
  0
LINE
  5
   161
  8
0
  6
CONTINUOUS
 62
     3
 10
5.36975908279419
 20
182.5
 30
0.0
 11
3.68893575668335
 21
180.819183349609
 31
0.0
  0
LINE
  5
   162
  8
0
  6
CONTINUOUS
 62
     3
 10
6.430419921875
 20
182.5
 30
0.0
 11
4.74591970443726
 21
180.815505981445
 31
0.0
  0
LINE
  5
   163
  8
0
  6
CONTINUOUS
 62
     3
 10
7.49108123779297
 20
182.5
 30
0.0
 11
5.80290365219116
 21
180.811828613281
 31
0.0
  0
LINE
  5
   164
  8
0
  6
CONTINUOUS
 62
     3
 10
8.55174255371094
 20
182.5
 30
0.0
 11
6.85988759994507
 21
180.808151245117
 31
0.0
  0
LINE
  5
   165
  8
0
  6
CONTINUOUS
 62
     3
 10
9.61240386962891
 20
182.5
 30
0.0
 11
7.91687154769897
 21
180.804473876953
 31
0.0
  0
LINE
  5
   166
  8
0
  6
CONTINUOUS
 62
     3
 10
10.6730651855469
 20
182.5
 30
0.0
 11
8.97385597229004
 21
180.800796508789
 31
0.0
  0
LINE
  5
   167
  8
0
  6
CONTINUOUS
 62
     3
 10
11.5500001907349
 20
182.316284179688
 30
0.0
 11
10.0308399200439
 21
180.797119140625
 31
0.0
  0
LINE
  5
   168
  8
0
  6
CONTINUOUS
 62
     3
 10
11.5500001907349
 20
181.255630493164
 30
0.0
 11
11.0878238677979
 21
180.793441772461
 31
0.0
  0
LINE
  5
   169
  8
0
  6
CONTINUOUS
 62
     3
 10
10.8550405502319
 20
179.5
 30
0.0
 11
8.85503959655762
 21
177.5
 31
0.0
  0
LINE
  5
   16A
  8
0
  6
CONTINUOUS
 62
     3
 10
11.5500001907349
 20
178.073638916016
 30
0.0
 11
10.9763612747192
 21
177.5
 31
0.0
  0
ENDBLK
  5
   16B
  8
0
  6
CONTINUOUS
 62
     2
  0
BLOCK
  5
   16C
  8
0
  6
CONTINUOUS
 62
     7
  2
*HATCH204
 70
    65
 10
0.0
 20
0.0
 30
0.0
  3
*HATCH204
  0
LINE
  5
   16D
  8
0
  6
CONTINUOUS
 62
     3
 10
2.19918513298035
 20
-56.9999961853027
 30
0.0
 11
3.69918298721313
 21
-58.4999961853027
 31
0.0
  0
LINE
  5
   16E
  8
0
  6
CONTINUOUS
 62
     3
 10
4.32050514221191
 20
-56.9999961853027
 30
0.0
 11
5.82050275802612
 21
-58.4999961853027
 31
0.0
  0
LINE
  5
   16F
  8
0
  6
CONTINUOUS
 62
     3
 10
6.4418249130249
 20
-56.9999961853027
 30
0.0
 11
7.94182252883911
 21
-58.4999961853027
 31
0.0
  0
LINE
  5
   170
  8
0
  6
CONTINUOUS
 62
     3
 10
8.56314468383789
 20
-56.9999961853027
 30
0.0
 11
10.0631427764893
 21
-58.4999961853027
 31
0.0
  0
LINE
  5
   171
  8
0
  6
CONTINUOUS
 62
     3
 10
10.6844635009766
 20
-57.0
 30
0.0
 11
11.8672294616699
 21
-58.1827659606934
 31
0.0
  0
ENDBLK
  5
   172
  8
0
  6
CONTINUOUS
 62
     7
  0
BLOCK
  5
   173
  8
0
  6
CONTINUOUS
 62
     7
  2
*HATCH205
 70
    65
 10
0.0
 20
0.0
 30
0.0
  3
*HATCH205
  0
LINE
  5
   174
  8
0
  6
CONTINUOUS
 62
     3
 10
2.33690619468689
 20
-49.7130928039551
 30
0.0
 11
3.62381052970886
 21
-51.0
 31
0.0
  0
LINE
  5
   175
  8
0
  6
CONTINUOUS
 62
     3
 10
4.24513149261475
 20
-49.5
 30
0.0
 11
5.74513006210327
 21
-51.0
 31
0.0
  0
LINE
  5
   176
  8
0
  6
CONTINUOUS
 62
     3
 10
6.36645030975342
 20
-49.5
 30
0.0
 11
7.86644983291626
 21
-51.0
 31
0.0
  0
LINE
  5
   177
  8
0
  6
CONTINUOUS
 62
     3
 10
8.48776912689209
 20
-49.5
 30
0.0
 11
9.98777008056641
 21
-51.0
 31
0.0
  0
LINE
  5
   178
  8
0
  6
CONTINUOUS
 62
     3
 10
10.6090898513794
 20
-49.5
 30
0.0
 11
12.0500011444092
 21
-50.9409141540527
 31
0.0
  0
ENDBLK
  5
   179
  8
0
  6
CONTINUOUS
 62
     7
  0
BLOCK
  5
   17A
  8
0
  6
CONTINUOUS
 62
     7
  2
*HATCH206
 70
    65
 10
0.0
 20
0.0
 30
0.0
  3
*HATCH206
  0
LINE
  5
   17B
  8
0
  6
CONTINUOUS
 62
     3
 10
2.33690619468689
 20
-49.7130928039551
 30
0.0
 11
3.62381052970886
 21
-51.0
 31
0.0
  0
LINE
  5
   17C
  8
0
  6
CONTINUOUS
 62
     3
 10
4.24513149261475
 20
-49.5
 30
0.0
 11
5.74513006210327
 21
-51.0
 31
0.0
  0
LINE
  5
   17D
  8
0
  6
CONTINUOUS
 62
     3
 10
6.36645030975342
 20
-49.5
 30
0.0
 11
7.86644983291626
 21
-51.0
 31
0.0
  0
LINE
  5
   17E
  8
0
  6
CONTINUOUS
 62
     3
 10
8.48776912689209
 20
-49.5
 30
0.0
 11
9.98777008056641
 21
-51.0
 31
0.0
  0
LINE
  5
   17F
  8
0
  6
CONTINUOUS
 62
     3
 10
10.6090898513794
 20
-49.5
 30
0.0
 11
12.0500011444092
 21
-50.9409141540527
 31
0.0
  0
ENDBLK
  5
   180
  8
0
  6
CONTINUOUS
 62
     7
  0
BLOCK
  5
   181
  8
0
  6
CONTINUOUS
 62
     7
  2
*HATCH207
 70
    65
 10
0.0
 20
0.0
 30
0.0
  3
*HATCH207
  0
LINE
  5
   182
  8
0
  6
CONTINUOUS
 62
     3
 10
2.16904735565186
 20
-44.5
 30
0.0
 11
0.050000611692667
 21
-46.6190452575684
 31
0.0
  0
LINE
  5
   183
  8
0
  6
CONTINUOUS
 62
     3
 10
4.290367603302
 20
-44.5
 30
0.0
 11
2.29036784172058
 21
-46.5
 31
0.0
  0
LINE
  5
   184
  8
0
  6
CONTINUOUS
 62
     3
 10
5.3510274887085
 20
-44.5
 30
0.0
 11
3.35102772712708
 21
-46.5
 31
0.0
  0
LINE
  5
   185
  8
0
  6
CONTINUOUS
 62
     3
 10
6.41168737411499
 20
-44.5
 30
0.0
 11
4.41168785095215
 21
-46.5
 31
0.0
  0
LINE
  5
   186
  8
0
  6
CONTINUOUS
 62
     3
 10
7.47234725952148
 20
-44.5
 30
0.0
 11
5.47234773635864
 21
-46.5
 31
0.0
  0
LINE
  5
   187
  8
0
  6
CONTINUOUS
 62
     3
 10
1.05000174045563
 20
-50.9223442077637
 30
0.0
 11
4.99997660517693E-2
 21
-51.9223480224609
 31
0.0
  0
LINE
  5
   188
  8
0
  6
CONTINUOUS
 62
     3
 10
5.21915149688721
 20
-47.8138542175293
 30
0.0
 11
3.53300762176514
 21
-49.5
 31
0.0
  0
LINE
  5
   189
  8
0
  6
CONTINUOUS
 62
     3
 10
9.59366607666016
 20
-44.5
 30
0.0
 11
7.59366750717163
 21
-46.5
 31
0.0
  0
LINE
  5
   18A
  8
0
  6
CONTINUOUS
 62
     3
 10
1.05000150203705
 20
-53.0436668395996
 30
0.0
 11
4.99994233250618E-2
 21
-54.0436668395996
 31
0.0
  0
LINE
  5
   18B
  8
0
  6
CONTINUOUS
 62
     3
 10
7.34787559509277
 20
-47.806453704834
 30
0.0
 11
5.65432643890381
 21
-49.5
 31
0.0
  0
LINE
  5
   18C
  8
0
  6
CONTINUOUS
 62
     3
 10
11.5500001907349
 20
-44.6649894714356
 30
0.0
 11
9.71498680114746
 21
-46.5
 31
0.0
  0
LINE
  5
   18D
  8
0
  6
CONTINUOUS
 62
     3
 10
1.05000126361847
 20
-55.1649856567383
 30
0.0
 11
4.99990843236446E-2
 21
-56.1649894714355
 31
0.0
  0
LINE
  5
   18E
  8
0
  6
CONTINUOUS
 62
     3
 10
9.47660064697266
 20
-47.7990493774414
 30
0.0
 11
7.77564525604248
 21
-49.5
 31
0.0
  0
LINE
  5
   18F
  8
0
  6
CONTINUOUS
 62
     3
 10
10.5409622192383
 20
-47.7953453063965
 30
0.0
 11
8.83630466461182
 21
-49.5000038146973
 31
0.0
  0
LINE
  5
   190
  8
0
  6
CONTINUOUS
 62
     3
 10
11.5500011444092
 20
-47.8469657897949
 30
0.0
 11
9.89696407318115
 21
-49.5000038146973
 31
0.0
  0
LINE
  5
   191
  8
0
  6
CONTINUOUS
 62
     3
 10
11.5500001907349
 20
-48.9076271057129
 30
0.0
 11
10.9576234817505
 21
-49.5000038146973
 31
0.0
  0
LINE
  5
   192
  8
0
  6
CONTINUOUS
 62
     3
 10
3.01829099655151
 20
-58.4999961853027
 30
0.0
 11
4.99982349574566E-2
 21
-61.4682884216309
 31
0.0
  0
LINE
  5
   193
  8
0
  6
CONTINUOUS
 62
     3
 10
2.05000019073486
 20
-60.5289459228516
 30
0.0
 11
4.99980673193932E-2
 21
-62.5289497375488
 31
0.0
  0
LINE
  5
   194
  8
0
  6
CONTINUOUS
 62
     3
 10
2.05000042915344
 20
-61.5896072387695
 30
0.0
 11
4.99978959560394E-2
 21
-63.5896110534668
 31
0.0
  0
LINE
  5
   195
  8
0
  6
CONTINUOUS
 62
     3
 10
2.05000066757202
 20
-62.6502685546875
 30
0.0
 11
4.99977245926857E-2
 21
-64.6502685546875
 31
0.0
  0
LINE
  5
   196
  8
0
  6
CONTINUOUS
 62
     3
 10
2.0500009059906
 20
-63.7109298706055
 30
0.0
 11
0.049997553229332
 21
-65.7109298706055
 31
0.0
  0
LINE
  5
   197
  8
0
  6
CONTINUOUS
 62
     3
 10
2.05000114440918
 20
-64.7715911865234
 30
0.0
 11
4.99973818659782E-2
 21
-66.7715911865234
 31
0.0
  0
LINE
  5
   198
  8
0
  6
CONTINUOUS
 62
     3
 10
2.38226532936096
 20
-65.4999847412109
 30
0.0
 11
0.382251262664795
 21
-67.5
 31
0.0
  0
LINE
  5
   199
  8
0
  6
CONTINUOUS
 62
     3
 10
3.44292521476746
 20
-65.4999847412109
 30
0.0
 11
1.44291341304779
 21
-67.5
 31
0.0
  0
LINE
  5
   19A
  8
0
  6
CONTINUOUS
 62
     3
 10
4.50358486175537
 20
-65.4999847412109
 30
0.0
 11
2.50357556343079
 21
-67.5
 31
0.0
  0
LINE
  5
   19B
  8
0
  6
CONTINUOUS
 62
     3
 10
5.56424522399902
 20
-65.4999847412109
 30
0.0
 11
3.56423783302307
 21
-67.4999923706055
 31
0.0
  0
LINE
  5
   19C
  8
0
  6
CONTINUOUS
 62
     3
 10
7.68556499481201
 20
-65.4999847412109
 30
0.0
 11
5.68556213378906
 21
-67.4999923706055
 31
0.0
  0
LINE
  5
   19D
  8
0
  6
CONTINUOUS
 62
     3
 10
9.806884765625
 20
-65.4999847412109
 30
0.0
 11
7.80688667297363
 21
-67.4999923706055
 31
0.0
  0
LINE
  5
   19E
  8
0
  6
CONTINUOUS
 62
     3
 10
11.5499963760376
 20
-65.8781967163086
 30
0.0
 11
9.9282112121582
 21
-67.4999771118164
 31
0.0
  0
LINE
  5
   19F
  8
0
  6
CONTINUOUS
 62
     3
 10
13.0495147705078
 20
-66.4999923706055
 30
0.0
 11
12.0495357513428
 21
-67.4999771118164
 31
0.0
  0
ENDBLK
  5
   1A0
  8
0
  6
CONTINUOUS
 62
     7
  0
BLOCK
  5
   1A1
  8
0
  6
CONTINUOUS
 62
     7
  2
*HATCH208
 70
    65
 10
0.0
 20
0.0
 30
0.0
  3
*HATCH208
  0
LINE
  5
   1A2
  8
0
  6
CONTINUOUS
 62
   210
 10
15.2756481170654
 20
-42.0
 30
0.0
 11
11.4999847412109
 21
-45.7756614685059
 31
0.0
  0
LINE
  5
   1A3
  8
0
  6
CONTINUOUS
 62
   210
 10
17.4999847412109
 20
-44.0183029174805
 30
0.0
 11
11.7841444015503
 21
-49.7341461181641
 31
0.0
  0
LINE
  5
   1A4
  8
0
  6
CONTINUOUS
 62
   210
 10
17.4999847412109
 20
-48.2609443664551
 30
0.0
 11
15.0109281539917
 21
-50.75
 31
0.0
  0
ENDBLK
  5
   1A5
  8
0
  6
CONTINUOUS
 62
     7
  0
BLOCK
  5
   1A6
  8
0
  6
CONTINUOUS
 62
     7
  2
*HATCH209
 70
    65
 10
0.0
 20
0.0
 30
0.0
  3
*HATCH209
  0
LINE
  5
   1A7
  8
0
  6
CONTINUOUS
 62
   210
 10
14.8748893737793
 20
-57.25
 30
0.0
 11
11.5360698699951
 21
-60.5888214111328
 31
0.0
  0
LINE
  5
   1A8
  8
0
  6
CONTINUOUS
 62
   210
 10
17.4999847412109
 20
-58.867546081543
 30
0.0
 11
11.5075874328613
 21
-64.8599395751953
 31
0.0
  0
LINE
  5
   1A9
  8
0
  6
CONTINUOUS
 62
   210
 10
17.4999847412109
 20
-63.1101837158203
 30
0.0
 11
14.6101713180542
 21
-66.0
 31
0.0
  0
ENDBLK
  5
   1AA
  8
0
  6
CONTINUOUS
 62
     7
  0
BLOCK
  5
   1AB
  8
0
  6
CONTINUOUS
 62
     7
  2
*HATCH210
 70
    65
 10
0.0
 20
0.0
 30
0.0
  3
*HATCH210
  0
LINE
  5
   1AC
  8
0
  6
CONTINUOUS
 62
   210
 10
17.4999847412109
 20
-47.1985092163086
 30
0.0
 11
20.4999847412109
 21
-50.1985130310059
 31
0.0
  0
LINE
  5
   1AD
  8
0
  6
CONTINUOUS
 62
   210
 10
17.4999847412109
 20
-42.9558639526367
 30
0.0
 11
20.4999847412109
 21
-45.955867767334
 31
0.0
  0
ENDBLK
  5
   1AE
  8
0
  6
CONTINUOUS
 62
     7
  0
BLOCK
  5
   1AF
  8
0
  6
CONTINUOUS
 62
     7
  2
*HATCH211
 70
    65
 10
0.0
 20
0.0
 30
0.0
  3
*HATCH211
  0
LINE
  5
   1B0
  8
0
  6
CONTINUOUS
 62
   210
 10
17.4999847412109
 20
-62.0477600097656
 30
0.0
 11
20.4999847412109
 21
-65.0477676391602
 31
0.0
  0
LINE
  5
   1B1
  8
0
  6
CONTINUOUS
 62
   210
 10
17.4999847412109
 20
-57.8051147460938
 30
0.0
 11
20.4999847412109
 21
-60.8051223754883
 31
0.0
  0
ENDBLK
  5
   1B2
  8
0
  6
CONTINUOUS
 62
     7
  0
BLOCK
  5
   1B3
  8
0
  6
CONTINUOUS
 62
     7
  2
*HATCH212
 70
    65
 10
0.0
 20
0.0
 30
0.0
  3
*HATCH212
  0
LINE
  5
   1B4
  8
0
  6
CONTINUOUS
 62
    52
 10
105.836601257324
 20
228.873168945313
 30
0.0
 11
104.499938964844
 21
227.536499023438
 31
0.0
  0
LINE
  5
   1B5
  8
0
  6
CONTINUOUS
 62
    52
 10
106.499938964844
 20
225.293869018555
 30
0.0
 11
104.499938964844
 21
223.293869018555
 31
0.0
  0
LINE
  5
   1B6
  8
0
  6
CONTINUOUS
 62
    52
 10
106.499938964844
 20
221.051223754883
 30
0.0
 11
104.499938964844
 21
219.051223754883
 31
0.0
  0
LINE
  5
   1B7
  8
0
  6
CONTINUOUS
 62
    52
 10
106.499938964844
 20
216.808578491211
 30
0.0
 11
104.499938964844
 21
214.808578491211
 31
0.0
  0
LINE
  5
   1B8
  8
0
  6
CONTINUOUS
 62
    52
 10
106.499938964844
 20
212.565933227539
 30
0.0
 11
104.499938964844
 21
210.565933227539
 31
0.0
  0
LINE
  5
   1B9
  8
0
  6
CONTINUOUS
 62
    52
 10
106.499938964844
 20
208.323287963867
 30
0.0
 11
104.499938964844
 21
206.323287963867
 31
0.0
  0
LINE
  5
   1BA
  8
0
  6
CONTINUOUS
 62
    52
 10
106.499938964844
 20
204.080642700195
 30
0.0
 11
104.499938964844
 21
202.080642700195
 31
0.0
  0
LINE
  5
   1BB
  8
0
  6
CONTINUOUS
 62
    52
 10
106.499938964844
 20
199.837997436523
 30
0.0
 11
104.499938964844
 21
197.837997436523
 31
0.0
  0
LINE
  5
   1BC
  8
0
  6
CONTINUOUS
 62
    52
 10
106.499938964844
 20
195.595352172852
 30
0.0
 11
104.499938964844
 21
193.595352172852
 31
0.0
  0
LINE
  5
   1BD
  8
0
  6
CONTINUOUS
 62
    52
 10
106.499938964844
 20
191.35270690918
 30
0.0
 11
104.499938964844
 21
189.35270690918
 31
0.0
  0
LINE
  5
   1BE
  8
0
  6
CONTINUOUS
 62
    52
 10
106.499938964844
 20
187.110061645508
 30
0.0
 11
104.499938964844
 21
185.110061645508
 31
0.0
  0
LINE
  5
   1BF
  8
0
  6
CONTINUOUS
 62
    52
 10
106.499938964844
 20
182.867416381836
 30
0.0
 11
104.499938964844
 21
180.867416381836
 31
0.0
  0
LINE
  5
   1C0
  8
0
  6
CONTINUOUS
 62
    52
 10
106.499938964844
 20
178.624771118164
 30
0.0
 11
104.499938964844
 21
176.624771118164
 31
0.0
  0
LINE
  5
   1C1
  8
0
  6
CONTINUOUS
 62
    52
 10
106.499938964844
 20
174.382125854492
 30
0.0
 11
104.499938964844
 21
172.382125854492
 31
0.0
  0
LINE
  5
   1C2
  8
0
  6
CONTINUOUS
 62
    52
 10
106.499938964844
 20
170.13948059082
 30
0.0
 11
104.499938964844
 21
168.13948059082
 31
0.0
  0
LINE
  5
   1C3
  8
0
  6
CONTINUOUS
 62
    52
 10
106.499938964844
 20
165.896835327148
 30
0.0
 11
104.499938964844
 21
163.896835327148
 31
0.0
  0
LINE
  5
   1C4
  8
0
  6
CONTINUOUS
 62
    52
 10
106.499938964844
 20
161.654190063477
 30
0.0
 11
104.499938964844
 21
159.654190063477
 31
0.0
  0
LINE
  5
   1C5
  8
0
  6
CONTINUOUS
 62
    52
 10
106.499938964844
 20
157.411544799805
 30
0.0
 11
104.499938964844
 21
155.411544799805
 31
0.0
  0
LINE
  5
   1C6
  8
0
  6
CONTINUOUS
 62
    52
 10
106.499938964844
 20
153.168899536133
 30
0.0
 11
104.499938964844
 21
151.168899536133
 31
0.0
  0
ENDBLK
  5
   1C7
  8
0
  6
CONTINUOUS
 62
     7
  0
BLOCK
  5
   1C8
  8
0
  6
CONTINUOUS
 62
     7
  2
*HATCH213
 70
    65
 10
0.0
 20
0.0
 30
0.0
  3
*HATCH213
  0
LINE
  5
   1C9
  8
0
  6
CONTINUOUS
 62
    52
 10
106.499938964844
 20
142.562377929688
 30
0.0
 11
104.499938964844
 21
140.562377929688
 31
0.0
  0
LINE
  5
   1CA
  8
0
  6
CONTINUOUS
 62
    52
 10
106.499938964844
 20
138.319732666016
 30
0.0
 11
104.499938964844
 21
136.319732666016
 31
0.0
  0
LINE
  5
   1CB
  8
0
  6
CONTINUOUS
 62
    52
 10
106.499938964844
 20
134.077087402344
 30
0.0
 11
104.499938964844
 21
132.077087402344
 31
0.0
  0
ENDBLK
  5
   1CC
  8
0
  6
CONTINUOUS
 62
     7
  0
BLOCK
  5
   1CD
  8
0
  6
CONTINUOUS
 62
     7
  2
*HATCH214
 70
    65
 10
0.0
 20
0.0
 30
0.0
  3
*HATCH214
  0
LINE
  5
   1CE
  8
0
  6
CONTINUOUS
 62
    52
 10
106.499938964844
 20
17.4044799804688
 30
0.0
 11
104.499938964844
 21
15.4044799804688
 31
0.0
  0
LINE
  5
   1CF
  8
0
  6
CONTINUOUS
 62
    52
 10
106.499938964844
 20
13.1618385314941
 30
0.0
 11
104.499938964844
 21
11.1618385314941
 31
0.0
  0
LINE
  5
   1D0
  8
0
  6
CONTINUOUS
 62
    52
 10
106.499938964844
 20
8.91919898986816
 30
0.0
 11
105.330741882324
 21
7.75
 31
0.0
  0
ENDBLK
  5
   1D1
  8
0
  6
CONTINUOUS
 62
     7
  0
BLOCK
  5
   1D2
  8
0
  6
CONTINUOUS
 62
     7
  2
*HATCH215
 70
    65
 10
0.0
 20
0.0
 30
0.0
  3
*HATCH215
  0
LINE
  5
   1D3
  8
0
  6
CONTINUOUS
 62
    52
 10
106.499938964844
 20
0.433917760848999
 30
0.0
 11
104.499938964844
 21
-1.56608211994171
 31
0.0
  0
LINE
  5
   1D4
  8
0
  6
CONTINUOUS
 62
    52
 10
106.499938964844
 20
-3.80872273445129
 30
0.0
 11
104.499938964844
 21
-5.80872249603271
 31
0.0
  0
LINE
  5
   1D5
  8
0
  6
CONTINUOUS
 62
    52
 10
106.499938964844
 20
-8.05136299133301
 30
0.0
 11
104.499938964844
 21
-10.051362991333
 31
0.0
  0
LINE
  5
   1D6
  8
0
  6
CONTINUOUS
 62
    52
 10
106.499938964844
 20
-12.2940044403076
 30
0.0
 11
104.499938964844
 21
-14.2940044403076
 31
0.0
  0
LINE
  5
   1D7
  8
0
  6
CONTINUOUS
 62
    52
 10
106.499938964844
 20
-16.5366458892822
 30
0.0
 11
104.499938964844
 21
-18.5366458892822
 31
0.0
  0
LINE
  5
   1D8
  8
0
  6
CONTINUOUS
 62
    52
 10
106.499938964844
 20
-20.7792873382568
 30
0.0
 11
104.499938964844
 21
-22.7792873382568
 31
0.0
  0
LINE
  5
   1D9
  8
0
  6
CONTINUOUS
 62
    52
 10
106.499938964844
 20
-25.0219287872314
 30
0.0
 11
104.499938964844
 21
-27.0219287872314
 31
0.0
  0
LINE
  5
   1DA
  8
0
  6
CONTINUOUS
 62
    52
 10
106.499938964844
 20
-29.2645702362061
 30
0.0
 11
104.499938964844
 21
-31.2645702362061
 31
0.0
  0
LINE
  5
   1DB
  8
0
  6
CONTINUOUS
 62
    52
 10
106.499938964844
 20
-33.507209777832
 30
0.0
 11
104.499938964844
 21
-35.507209777832
 31
0.0
  0
LINE
  5
   1DC
  8
0
  6
CONTINUOUS
 62
    52
 10
106.499938964844
 20
-37.7498474121094
 30
0.0
 11
104.499938964844
 21
-39.7498474121094
 31
0.0
  0
LINE
  5
   1DD
  8
0
  6
CONTINUOUS
 62
    52
 10
106.499938964844
 20
-41.9924850463867
 30
0.0
 11
104.499938964844
 21
-43.9924850463867
 31
0.0
  0
LINE
  5
   1DE
  8
0
  6
CONTINUOUS
 62
    52
 10
106.499938964844
 20
-46.2351226806641
 30
0.0
 11
104.499938964844
 21
-48.2351226806641
 31
0.0
  0
LINE
  5
   1DF
  8
0
  6
CONTINUOUS
 62
    52
 10
106.499938964844
 20
-50.4777603149414
 30
0.0
 11
104.499938964844
 21
-52.4777603149414
 31
0.0
  0
LINE
  5
   1E0
  8
0
  6
CONTINUOUS
 62
    52
 10
106.499938964844
 20
-54.7203979492188
 30
0.0
 11
104.499938964844
 21
-56.7203979492188
 31
0.0
  0
LINE
  5
   1E1
  8
0
  6
CONTINUOUS
 62
    52
 10
106.499938964844
 20
-58.9630355834961
 30
0.0
 11
104.499938964844
 21
-60.9630355834961
 31
0.0
  0
LINE
  5
   1E2
  8
0
  6
CONTINUOUS
 62
    52
 10
106.499938964844
 20
-63.2056732177734
 30
0.0
 11
104.499938964844
 21
-65.2056732177734
 31
0.0
  0
LINE
  5
   1E3
  8
0
  6
CONTINUOUS
 62
    52
 10
106.499938964844
 20
-67.4483184814453
 30
0.0
 11
104.499938964844
 21
-69.4483184814453
 31
0.0
  0
LINE
  5
   1E4
  8
0
  6
CONTINUOUS
 62
    52
 10
106.499938964844
 20
-71.6909637451172
 30
0.0
 11
104.499938964844
 21
-73.6909637451172
 31
0.0
  0
LINE
  5
   1E5
  8
0
  6
CONTINUOUS
 62
    52
 10
106.499938964844
 20
-75.9336090087891
 30
0.0
 11
104.499938964844
 21
-77.9336090087891
 31
0.0
  0
LINE
  5
   1E6
  8
0
  6
CONTINUOUS
 62
    52
 10
106.499938964844
 20
-80.1762542724609
 30
0.0
 11
104.499938964844
 21
-82.1762542724609
 31
0.0
  0
LINE
  5
   1E7
  8
0
  6
CONTINUOUS
 62
    52
 10
106.499938964844
 20
-84.4188995361328
 30
0.0
 11
104.499938964844
 21
-86.4188995361328
 31
0.0
  0
LINE
  5
   1E8
  8
0
  6
CONTINUOUS
 62
    52
 10
106.499938964844
 20
-88.6615447998047
 30
0.0
 11
104.499938964844
 21
-90.6615447998047
 31
0.0
  0
LINE
  5
   1E9
  8
0
  6
CONTINUOUS
 62
    52
 10
106.499938964844
 20
-92.9041900634766
 30
0.0
 11
104.499938964844
 21
-94.9041900634766
 31
0.0
  0
LINE
  5
   1EA
  8
0
  6
CONTINUOUS
 62
    52
 10
106.499938964844
 20
-97.1468353271484
 30
0.0
 11
104.499938964844
 21
-99.1468353271484
 31
0.0
  0
LINE
  5
   1EB
  8
0
  6
CONTINUOUS
 62
    52
 10
106.499938964844
 20
-101.389457702637
 30
0.0
 11
106.065864562988
 21
-101.823524475098
 31
0.0
  0
ENDBLK
  5
   1EC
  8
0
  6
CONTINUOUS
 62
     7
  0
BLOCK
  5
   1ED
  8
0
  6
CONTINUOUS
 62
     7
  2
*HATCH216
 70
    65
 10
0.0
 20
0.0
 30
0.0
  3
*HATCH216
  0
LINE
  5
   1EE
  8
0
  6
CONTINUOUS
 62
     3
 10
-0.830074667930603
 20
-35.831859588623
 30
0.0
 11
-2.49821591377258
 21
-37.5
 31
0.0
  0
LINE
  5
   1EF
  8
0
  6
CONTINUOUS
 62
     3
 10
1.29124581813812
 20
-35.831859588623
 30
0.0
 11
-0.376895427703857
 21
-37.5
 31
0.0
  0
LINE
  5
   1F0
  8
0
  6
CONTINUOUS
 62
     3
 10
3.41256618499756
 20
-35.831859588623
 30
0.0
 11
1.74442505836487
 21
-37.5
 31
0.0
  0
LINE
  5
   1F1
  8
0
  6
CONTINUOUS
 62
     3
 10
5.53388690948486
 20
-35.831859588623
 30
0.0
 11
3.86574554443359
 21
-37.5
 31
0.0
  0
LINE
  5
   1F2
  8
0
  6
CONTINUOUS
 62
     3
 10
7.65520763397217
 20
-35.831859588623
 30
0.0
 11
5.9870662689209
 21
-37.5
 31
0.0
  0
LINE
  5
   1F3
  8
0
  6
CONTINUOUS
 62
     3
 10
9.77652835845947
 20
-35.831859588623
 30
0.0
 11
8.1083869934082
 21
-37.5
 31
0.0
  0
LINE
  5
   1F4
  8
0
  6
CONTINUOUS
 62
     3
 10
11.8978490829468
 20
-35.831859588623
 30
0.0
 11
10.2297077178955
 21
-37.5
 31
0.0
  0
LINE
  5
   1F5
  8
0
  6
CONTINUOUS
 62
     3
 10
14.0191679000854
 20
-35.831859588623
 30
0.0
 11
11.4999847412109
 21
-38.3510437011719
 31
0.0
  0
LINE
  5
   1F6
  8
0
  6
CONTINUOUS
 62
     3
 10
16.1404876708984
 20
-35.831859588623
 30
0.0
 11
11.4999847412109
 21
-40.4723663330078
 31
0.0
  0
LINE
  5
   1F7
  8
0
  6
CONTINUOUS
 62
     3
 10
18.2618083953857
 20
-35.831859588623
 30
0.0
 11
12.0936679840088
 21
-42.0
 31
0.0
  0
LINE
  5
   1F8
  8
0
  6
CONTINUOUS
 62
     3
 10
20.3831272125244
 20
-35.831859588623
 30
0.0
 11
14.2149887084961
 21
-42.0
 31
0.0
  0
LINE
  5
   1F9
  8
0
  6
CONTINUOUS
 62
     3
 10
22.5044460296631
 20
-35.831859588623
 30
0.0
 11
16.3363094329834
 21
-42.0
 31
0.0
  0
LINE
  5
   1FA
  8
0
  6
CONTINUOUS
 62
     3
 10
24.6257648468018
 20
-35.831859588623
 30
0.0
 11
18.4576282501221
 21
-42.0
 31
0.0
  0
LINE
  5
   1FB
  8
0
  6
CONTINUOUS
 62
     3
 10
26.7470836639404
 20
-35.831859588623
 30
0.0
 11
20.5789470672607
 21
-42.0
 31
0.0
  0
LINE
  5
   1FC
  8
0
  6
CONTINUOUS
 62
     3
 10
28.8684024810791
 20
-35.831859588623
 30
0.0
 11
22.7002658843994
 21
-42.0
 31
0.0
  0
LINE
  5
   1FD
  8
0
  6
CONTINUOUS
 62
     3
 10
30.9897212982178
 20
-35.831859588623
 30
0.0
 11
24.8215847015381
 21
-42.0
 31
0.0
  0
LINE
  5
   1FE
  8
0
  6
CONTINUOUS
 62
     3
 10
33.1110420227051
 20
-35.831859588623
 30
0.0
 11
26.9429035186768
 21
-42.0
 31
0.0
  0
LINE
  5
   1FF
  8
0
  6
CONTINUOUS
 62
     3
 10
35.232364654541
 20
-35.831859588623
 30
0.0
 11
29.0642223358154
 21
-42.0
 31
0.0
  0
LINE
  5
   200
  8
0
  6
CONTINUOUS
 62
     3
 10
36.1029396057129
 20
-37.0826148986816
 30
0.0
 11
31.1855506896973
 21
-42.0
 31
0.0
  0
LINE
  5
   201
  8
0
  6
CONTINUOUS
 62
     3
 10
36.5830268859863
 20
-38.7238502502441
 30
0.0
 11
33.3068733215332
 21
-42.0
 31
0.0
  0
LINE
  5
   202
  8
0
  6
CONTINUOUS
 62
     3
 10
37.0631141662598
 20
-40.3650856018066
 30
0.0
 11
35.4281959533691
 21
-42.0
 31
0.0
  0
ENDBLK
  5
   203
  8
0
  6
CONTINUOUS
 62
     7
  0
BLOCK
  5
   204
  8
0
  6
CONTINUOUS
 62
     2
  2
*HATCH217
 70
    65
 10
0.0
 20
0.0
 30
0.0
  3
*HATCH217
  0
LINE
  5
   205
  8
0
  6
CONTINUOUS
 62
   210
 10
20.5499858856201
 20
178.854232788086
 30
0.0
 11
23.4042053222656
 21
176.0
 31
0.0
  0
LINE
  5
   206
  8
0
  6
CONTINUOUS
 62
   210
 10
20.5499858856201
 20
183.096878051758
 30
0.0
 11
27.646842956543
 21
176.0
 31
0.0
  0
LINE
  5
   207
  8
0
  6
CONTINUOUS
 62
   210
 10
24.1394901275635
 20
183.75
 30
0.0
 11
28.5499858856201
 21
179.339508056641
 31
0.0
  0
LINE
  5
   208
  8
0
  6
CONTINUOUS
 62
   210
 10
28.3821277618408
 20
183.75
 30
0.0
 11
28.5499858856201
 21
183.582153320313
 31
0.0
  0
ENDBLK
  5
   209
  8
0
  6
CONTINUOUS
 62
     2
  0
BLOCK
  5
   20A
  8
0
  6
CONTINUOUS
 62
     2
  2
*HATCH218
 70
    65
 10
0.0
 20
0.0
 30
0.0
  3
*HATCH218
  0
LINE
  5
   20B
  8
0
  6
CONTINUOUS
 62
   210
 10
20.5499801635742
 20
193.703475952148
 30
0.0
 11
24.0034561157227
 21
190.25
 31
0.0
  0
LINE
  5
   20C
  8
0
  6
CONTINUOUS
 62
   210
 10
20.5499725341797
 20
197.94612121582
 30
0.0
 11
28.24609375
 21
190.25
 31
0.0
  0
LINE
  5
   20D
  8
0
  6
CONTINUOUS
 62
   210
 10
20.9694766998291
 20
201.769271850586
 30
0.0
 11
28.5499858856201
 21
194.188751220703
 31
0.0
  0
LINE
  5
   20E
  8
0
  6
CONTINUOUS
 62
   210
 10
22.3180809020996
 20
204.663314819336
 30
0.0
 11
28.5499858856201
 21
198.431396484375
 31
0.0
  0
LINE
  5
   20F
  8
0
  6
CONTINUOUS
 62
   210
 10
24.3255176544189
 20
206.898513793945
 30
0.0
 11
30.003978729248
 21
201.22004699707
 31
0.0
  0
LINE
  5
   210
  8
0
  6
CONTINUOUS
 62
   210
 10
26.6324310302734
 20
208.834243774414
 30
0.0
 11
32.3108901977539
 21
203.155776977539
 31
0.0
  0
LINE
  5
   211
  8
0
  6
CONTINUOUS
 62
   210
 10
28.9393463134766
 20
210.769973754883
 30
0.0
 11
34.617805480957
 21
205.091506958008
 31
0.0
  0
LINE
  5
   212
  8
0
  6
CONTINUOUS
 62
   210
 10
30.9769496917725
 20
212.975006103516
 30
0.0
 11
36.7792892456055
 21
207.172653198242
 31
0.0
  0
LINE
  5
   213
  8
0
  6
CONTINUOUS
 62
   210
 10
31.0499858856201
 20
217.144607543945
 30
0.0
 11
38.3244438171387
 21
209.870147705078
 31
0.0
  0
LINE
  5
   214
  8
0
  6
CONTINUOUS
 62
   210
 10
31.0499858856201
 20
221.387252807617
 30
0.0
 11
39.0414581298828
 21
213.395767211914
 31
0.0
  0
LINE
  5
   215
  8
0
  6
CONTINUOUS
 62
   210
 10
31.0499858856201
 20
225.629898071289
 30
0.0
 11
39.0499877929688
 21
217.6298828125
 31
0.0
  0
LINE
  5
   216
  8
0
  6
CONTINUOUS
 62
   210
 10
31.0499858856201
 20
229.872543334961
 30
0.0
 11
39.0499877929688
 21
221.872528076172
 31
0.0
  0
LINE
  5
   217
  8
0
  6
CONTINUOUS
 62
   210
 10
34.6651611328125
 20
230.5
 30
0.0
 11
39.0499877929688
 21
226.115173339844
 31
0.0
  0
LINE
  5
   218
  8
0
  6
CONTINUOUS
 62
   210
 10
38.9077987670898
 20
230.5
 30
0.0
 11
39.0499877929688
 21
230.357818603516
 31
0.0
  0
ENDBLK
  5
   219
  8
0
  6
CONTINUOUS
 62
     2
  0
BLOCK
  5
   21A
  8
0
  6
CONTINUOUS
 62
     2
  2
*HATCH219
 70
    65
 10
0.0
 20
0.0
 30
0.0
  3
*HATCH219
  0
LINE
  5
   21B
  8
0
  6
CONTINUOUS
 62
   210
 10
31.0499858856201
 20
240.479156494141
 30
0.0
 11
34.0291290283203
 21
237.5
 31
0.0
  0
LINE
  5
   21C
  8
0
  6
CONTINUOUS
 62
   210
 10
31.0499858856201
 20
244.721801757813
 30
0.0
 11
38.2717666625977
 21
237.5
 31
0.0
  0
LINE
  5
   21D
  8
0
  6
CONTINUOUS
 62
   210
 10
31.0499858856201
 20
248.964431762695
 30
0.0
 11
39.0499839782715
 21
240.964431762695
 31
0.0
  0
LINE
  5
   21E
  8
0
  6
CONTINUOUS
 62
   210
 10
31.0499858856201
 20
253.207077026367
 30
0.0
 11
39.0499839782715
 21
245.207077026367
 31
0.0
  0
LINE
  5
   21F
  8
0
  6
CONTINUOUS
 62
   210
 10
34.4997024536133
 20
254.0
 30
0.0
 11
39.0499839782715
 21
249.44970703125
 31
0.0
  0
LINE
  5
   220
  8
0
  6
CONTINUOUS
 62
   210
 10
38.7423400878906
 20
254.0
 30
0.0
 11
39.0499839782715
 21
253.692352294922
 31
0.0
  0
ENDBLK
  5
   221
  8
0
  6
CONTINUOUS
 62
     2
  0
BLOCK
  5
   222
  8
0
  6
CONTINUOUS
 62
     2
  2
*HATCH220
 70
    65
 10
0.0
 20
0.0
 30
0.0
  3
*HATCH220
  0
LINE
  5
   223
  8
0
  6
CONTINUOUS
 62
   210
 10
22.7609272003174
 20
-43.0000038146973
 30
0.0
 11
20.4999847412109
 21
-45.2609443664551
 31
0.0
  0
LINE
  5
   224
  8
0
  6
CONTINUOUS
 62
   210
 10
25.4999847412109
 20
-44.5035858154297
 30
0.0
 11
20.4999847412109
 21
-49.5035858154297
 31
0.0
  0
LINE
  5
   225
  8
0
  6
CONTINUOUS
 62
   210
 10
25.4999847412109
 20
-48.746223449707
 30
0.0
 11
23.496208190918
 21
-50.7500038146973
 31
0.0
  0
ENDBLK
  5
   226
  8
0
  6
CONTINUOUS
 62
     2
  0
BLOCK
  5
   227
  8
0
  6
CONTINUOUS
 62
     2
  2
*HATCH221
 70
    65
 10
0.0
 20
0.0
 30
0.0
  3
*HATCH221
  0
LINE
  5
   228
  8
0
  6
CONTINUOUS
 62
   210
 10
23.3601703643799
 20
-57.2500038146973
 30
0.0
 11
20.4999847412109
 21
-60.1101837158203
 31
0.0
  0
LINE
  5
   229
  8
0
  6
CONTINUOUS
 62
   210
 10
25.4999847412109
 20
-59.3528289794922
 30
0.0
 11
20.6374073028564
 21
-64.2154083251953
 31
0.0
  0
LINE
  5
   22A
  8
0
  6
CONTINUOUS
 62
   210
 10
25.5492992401123
 20
-63.5461540222168
 30
0.0
 11
21.865930557251
 21
-67.2295227050781
 31
0.0
  0
LINE
  5
   22B
  8
0
  6
CONTINUOUS
 62
   210
 10
27.419038772583
 20
-65.9190521240234
 30
0.0
 11
23.8835048675537
 21
-69.45458984375
 31
0.0
  0
LINE
  5
   22C
  8
0
  6
CONTINUOUS
 62
   210
 10
29.5403575897217
 20
-68.0403747558594
 30
0.0
 11
26.0048274993897
 21
-71.5759124755859
 31
0.0
  0
LINE
  5
   22D
  8
0
  6
CONTINUOUS
 62
   210
 10
31.6616764068604
 20
-70.1616973876953
 30
0.0
 11
28.1261501312256
 21
-73.6972351074219
 31
0.0
  0
LINE
  5
   22E
  8
0
  6
CONTINUOUS
 62
   210
 10
33.7829971313477
 20
-72.2830200195313
 30
0.0
 11
30.2474727630615
 21
-75.8185577392578
 31
0.0
  0
LINE
  5
   22F
  8
0
  6
CONTINUOUS
 62
   210
 10
35.9043197631836
 20
-74.4043426513672
 30
0.0
 11
32.3687934875488
 21
-77.9398803710938
 31
0.0
  0
LINE
  5
   230
  8
0
  6
CONTINUOUS
 62
   210
 10
37.8839950561523
 20
-76.6673049926758
 30
0.0
 11
33.9999847412109
 21
-80.5513153076172
 31
0.0
  0
LINE
  5
   231
  8
0
  6
CONTINUOUS
 62
   210
 10
38.9295349121094
 20
-79.8644027709961
 30
0.0
 11
33.9999847412109
 21
-84.7939529418945
 31
0.0
  0
LINE
  5
   232
  8
0
  6
CONTINUOUS
 62
   210
 10
38.9999847412109
 20
-84.0365982055664
 30
0.0
 11
33.9999847412109
 21
-89.0365982055664
 31
0.0
  0
LINE
  5
   233
  8
0
  6
CONTINUOUS
 62
   210
 10
38.9999847412109
 20
-88.2792434692383
 30
0.0
 11
33.9999847412109
 21
-93.2792434692383
 31
0.0
  0
LINE
  5
   234
  8
0
  6
CONTINUOUS
 62
   210
 10
38.9999847412109
 20
-92.5218887329102
 30
0.0
 11
33.9999847412109
 21
-97.5218887329102
 31
0.0
  0
LINE
  5
   235
  8
0
  6
CONTINUOUS
 62
   210
 10
38.9999847412109
 20
-96.764518737793
 30
0.0
 11
37.5144958496094
 21
-98.25
 31
0.0
  0
ENDBLK
  5
   236
  8
0
  6
CONTINUOUS
 62
     2
  0
BLOCK
  5
   237
  8
0
  6
CONTINUOUS
 62
     2
  2
*HATCH222
 70
    65
 10
0.0
 20
0.0
 30
0.0
  3
*HATCH222
  0
LINE
  5
   238
  8
0
  6
CONTINUOUS
 62
   210
 10
36.257137298584
 20
-103.75
 30
0.0
 11
33.9999847412109
 21
-106.00715637207
 31
0.0
  0
LINE
  5
   239
  8
0
  6
CONTINUOUS
 62
   210
 10
38.9999847412109
 20
-105.249794006348
 30
0.0
 11
33.9999847412109
 21
-110.249794006348
 31
0.0
  0
LINE
  5
   23A
  8
0
  6
CONTINUOUS
 62
   210
 10
38.9999847412109
 20
-109.49243927002
 30
0.0
 11
33.9999847412109
 21
-114.49243927002
 31
0.0
  0
LINE
  5
   23B
  8
0
  6
CONTINUOUS
 62
   210
 10
38.9999847412109
 20
-113.735076904297
 30
0.0
 11
36.7350578308105
 21
-116.0
 31
0.0
  0
ENDBLK
  5
   23C
  8
0
  6
CONTINUOUS
 62
     2
  0
BLOCK
  5
   23D
  8
0
  6
CONTINUOUS
 62
     2
  2
*UDIM264
 70
    65
 10
0.0
 20
0.0
 30
0.0
  3
*UDIM264
  0
TEXT
  5
   23E
  8
0
  6
CONTINUOUS
 62
     2
 10
164.414965867956
 20
-117.968379067712
 30
0.0
 40
3.00000011722246
  1
16,5
 50
90.0
 41
0.933333333333333
 72
     1
 11
162.914965809338
 21
-112.66837886062
 31
0.0
 73
     2
  0
LINE
  5
   23F
  8
0
  6
CONTINUOUS
 62
     2
 10
108.654972707394
 20
-103.893363124788
 30
0.0
 11
167.414965867949
 21
-103.893358282062
 31
0.0
  0
LINE
  5
   240
  8
0
  6
CONTINUOUS
 62
     2
 10
97.8182882845404
 20
-96.4683604538441
 30
0.0
 11
167.414965867949
 21
-96.4683604538441
 31
0.0
  0
LINE
  5
   241
  8
0
  6
CONTINUOUS
 62
     2
 10
165.414965867949
 20
-117.968379067713
 30
0.0
 11
165.414965867949
 21
-96.4683604538441
 31
0.0
  0
LINE
  5
   242
  8
0
  6
CONTINUOUS
 62
     2
 10
165.935910297901
 20
-106.8477817241
 30
0.0
 11
165.414965867949
 21
-103.893358446893
 31
0.0
  0
LINE
  5
   243
  8
0
  6
CONTINUOUS
 62
     2
 10
165.414965867949
 20
-103.893358446893
 30
0.0
 11
164.894021437998
 21
-106.8477817241
 31
0.0
  0
LINE
  5
   244
  8
0
  6
CONTINUOUS
 62
     2
 10
164.894021437998
 20
-93.5139371766371
 30
0.0
 11
165.414965867949
 21
-96.4683604538441
 31
0.0
  0
LINE
  5
   245
  8
0
  6
CONTINUOUS
 62
     2
 10
165.414965867949
 20
-96.4683604538441
 30
0.0
 11
165.935910297901
 21
-93.5139371766371
 31
0.0
  0
ENDBLK
  5
   246
  8
0
  6
CONTINUOUS
 62
     2
  0
BLOCK
  5
   247
  8
0
  6
CONTINUOUS
 62
     7
  2
*UDIM265
 70
    65
 10
0.0
 20
0.0
 30
0.0
  3
*UDIM265
  0
TEXT
  5
   248
  8
0
  6
CONTINUOUS
 62
     7
 10
189.01300703765
 20
-140.318358170621
 30
0.0
 40
3.00000011722246
  1
15
 50
90.0
 41
0.933333333333333
 72
     1
 11
187.513006979036
 21
-137.818358072937
 31
0.0
 73
     2
  0
LINE
  5
   249
  8
0
  6
CONTINUOUS
 62
     2
 10
110.193287956715
 20
-131.793360616731
 30
0.0
 11
192.013007037647
 21
-131.793360616731
 31
0.0
  0
LINE
  5
   24A
  8
0
  6
CONTINUOUS
 62
     2
 10
111.366575419452
 20
-125.043360795545
 30
0.0
 11
192.013007037647
 21
-125.043360795545
 31
0.0
  0
LINE
  5
   24B
  8
0
  6
CONTINUOUS
 62
     2
 10
190.013007037647
 20
-140.318358170623
 30
0.0
 11
190.013007037647
 21
-125.043360795545
 31
0.0
  0
LINE
  5
   24C
  8
0
  6
CONTINUOUS
 62
     2
 10
189.492062607696
 20
-128.838937339524
 30
0.0
 11
190.013007037647
 21
-131.793360616731
 31
0.0
  0
LINE
  5
   24D
  8
0
  6
CONTINUOUS
 62
     2
 10
190.013007037647
 20
-131.793360616731
 30
0.0
 11
190.533951467599
 21
-128.838937339524
 31
0.0
  0
LINE
  5
   24E
  8
0
  6
CONTINUOUS
 62
     2
 10
190.533951467599
 20
-127.997784072752
 30
0.0
 11
190.013007037647
 21
-125.043360795545
 31
0.0
  0
LINE
  5
   24F
  8
0
  6
CONTINUOUS
 62
     2
 10
190.013007037647
 20
-125.043360795545
 30
0.0
 11
189.492062607696
 21
-127.997784072752
 31
0.0
  0
ENDBLK
  5
   250
  8
0
  6
CONTINUOUS
 62
     7
  0
BLOCK
  5
   251
  8
0
  6
CONTINUOUS
 62
     7
  2
*UDIM266
 70
    65
 10
0.0
 20
0.0
 30
0.0
  3
*UDIM266
  0
TEXT
  5
   252
  8
0
  6
CONTINUOUS
 62
     7
 10
189.01300703765
 20
-117.243361525528
 30
0.0
 40
3.00000011722246
  1
47
 50
90.0
 41
0.933333333333333
 72
     1
 11
187.513006979036
 21
-114.743361427845
 31
0.0
 73
     2
  0
LINE
  5
   253
  8
0
  6
CONTINUOUS
 62
     2
 10
108.654972707394
 20
-103.893363207203
 30
0.0
 11
192.013007037647
 21
-103.893363207203
 31
0.0
  0
LINE
  5
   254
  8
0
  6
CONTINUOUS
 62
     2
 10
190.013007037647
 20
-125.043360795545
 30
0.0
 11
190.013007037647
 21
-103.893363207203
 31
0.0
  0
LINE
  5
   255
  8
0
  6
CONTINUOUS
 62
     2
 10
189.492062607696
 20
-122.088937518338
 30
0.0
 11
190.013007037647
 21
-125.043360795545
 31
0.0
  0
LINE
  5
   256
  8
0
  6
CONTINUOUS
 62
     2
 10
190.013007037647
 20
-125.043360795545
 30
0.0
 11
190.533951467599
 21
-122.088937518338
 31
0.0
  0
LINE
  5
   257
  8
0
  6
CONTINUOUS
 62
     2
 10
190.533951467599
 20
-106.84778648441
 30
0.0
 11
190.013007037647
 21
-103.893363207203
 31
0.0
  0
LINE
  5
   258
  8
0
  6
CONTINUOUS
 62
     2
 10
190.013007037647
 20
-103.893363207203
 30
0.0
 11
189.492062607696
 21
-106.84778648441
 31
0.0
  0
ENDBLK
  5
   259
  8
0
  6
CONTINUOUS
 62
     7
  0
BLOCK
  5
   25A
  8
0
  6
CONTINUOUS
 62
     7
  2
*UDIM267
 70
    65
 10
0.0
 20
0.0
 30
0.0
  3
*UDIM267
  0
TEXT
  5
   25B
  8
0
  6
CONTINUOUS
 62
     7
 10
189.013007037652
 20
-61.1424329425713
 30
0.0
 40
3.00000011722246
  1
241
 50
90.0
 41
0.933333333333333
 72
     1
 11
187.513006979036
 21
-57.2424327901839
 31
0.0
 73
     2
  0
LINE
  5
   25C
  8
0
  6
CONTINUOUS
 62
     2
 10
108.654972707394
 20
4.5566397647374
 30
0.0
 11
192.013007037647
 21
4.55663516136283
 31
0.0
  0
LINE
  5
   25D
  8
0
  6
CONTINUOUS
 62
     2
 10
190.013007037647
 20
-103.893363207203
 30
0.0
 11
190.013007037647
 21
4.55663527181109
 31
0.0
  0
LINE
  5
   25E
  8
0
  6
CONTINUOUS
 62
     2
 10
189.492062607696
 20
-100.938939929996
 30
0.0
 11
190.013007037647
 21
-103.893363207203
 31
0.0
  0
LINE
  5
   25F
  8
0
  6
CONTINUOUS
 62
     2
 10
190.013007037647
 20
-103.893363207203
 30
0.0
 11
190.533951467599
 21
-100.938939929996
 31
0.0
  0
LINE
  5
   260
  8
0
  6
CONTINUOUS
 62
     2
 10
190.533951467599
 20
1.60221199460412
 30
0.0
 11
190.013007037647
 21
4.55663527181109
 31
0.0
  0
LINE
  5
   261
  8
0
  6
CONTINUOUS
 62
     2
 10
190.013007037647
 20
4.55663527181109
 30
0.0
 11
189.492062607696
 21
1.60221199460412
 31
0.0
  0
ENDBLK
  5
   262
  8
0
  6
CONTINUOUS
 62
     7
  0
BLOCK
  5
   263
  8
0
  6
CONTINUOUS
 62
     7
  2
*UDIM268
 70
    65
 10
0.0
 20
0.0
 30
0.0
  3
*UDIM268
  0
TEXT
  5
   264
  8
0
  6
CONTINUOUS
 62
     7
 10
189.01300703765
 20
12.3566350487141
 30
0.0
 40
3.00000011722246
  1
47
 50
90.0
 41
0.933333333333333
 72
     1
 11
187.513006979036
 21
14.8566351463976
 31
0.0
 73
     2
  0
LINE
  5
   265
  8
0
  6
CONTINUOUS
 62
     2
 10
111.81217038474
 20
25.7066374144417
 30
0.0
 11
192.013007037647
 21
25.7066374144417
 31
0.0
  0
LINE
  5
   266
  8
0
  6
CONTINUOUS
 62
     2
 10
190.013007037647
 20
4.55663527181109
 30
0.0
 11
190.013007037647
 21
25.7066374144417
 31
0.0
  0
LINE
  5
   267
  8
0
  6
CONTINUOUS
 62
     2
 10
189.492062607696
 20
7.51105854901805
 30
0.0
 11
190.013007037647
 21
4.55663527181109
 31
0.0
  0
LINE
  5
   268
  8
0
  6
CONTINUOUS
 62
     2
 10
190.013007037647
 20
4.55663527181109
 30
0.0
 11
190.533951467599
 21
7.51105854901805
 31
0.0
  0
LINE
  5
   269
  8
0
  6
CONTINUOUS
 62
     2
 10
190.533951467599
 20
22.7522141372348
 30
0.0
 11
190.013007037647
 21
25.7066374144417
 31
0.0
  0
LINE
  5
   26A
  8
0
  6
CONTINUOUS
 62
     2
 10
190.013007037647
 20
25.7066374144417
 30
0.0
 11
189.492062607696
 21
22.7522141372348
 31
0.0
  0
ENDBLK
  5
   26B
  8
0
  6
CONTINUOUS
 62
     7
  0
BLOCK
  5
   26C
  8
0
  6
CONTINUOUS
 62
     7
  2
*UDIM269
 70
    65
 10
0.0
 20
0.0
 30
0.0
  3
*UDIM269
  0
TEXT
  5
   26D
  8
0
  6
CONTINUOUS
 62
     7
 10
189.01300703765
 20
37.6816314973582
 30
0.0
 40
3.00000011722246
  1
20
 50
90.0
 41
0.933333333333333
 72
     1
 11
187.513006979036
 21
40.1816315950417
 31
0.0
 73
     2
  0
LINE
  5
   26E
  8
0
  6
CONTINUOUS
 62
     2
 10
110.215788385272
 20
34.7066371760232
 30
0.0
 11
192.013007037647
 21
34.7066371760232
 31
0.0
  0
LINE
  5
   26F
  8
0
  6
CONTINUOUS
 62
     2
 10
190.013007037647
 20
25.7066374144417
 30
0.0
 11
190.013007037647
 21
42.6816316927271
 31
0.0
  0
LINE
  5
   270
  8
0
  6
CONTINUOUS
 62
     2
 10
189.492062607696
 20
28.6610606916487
 30
0.0
 11
190.013007037647
 21
25.7066374144417
 31
0.0
  0
LINE
  5
   271
  8
0
  6
CONTINUOUS
 62
     2
 10
190.013007037647
 20
25.7066374144417
 30
0.0
 11
190.533951467599
 21
28.6610606916487
 31
0.0
  0
LINE
  5
   272
  8
0
  6
CONTINUOUS
 62
     2
 10
190.533951467599
 20
31.7522138988162
 30
0.0
 11
190.013007037647
 21
34.7066371760232
 31
0.0
  0
LINE
  5
   273
  8
0
  6
CONTINUOUS
 62
     2
 10
190.013007037647
 20
34.7066371760232
 30
0.0
 11
189.492062607696
 21
31.7522138988162
 31
0.0
  0
ENDBLK
  5
   274
  8
0
  6
CONTINUOUS
 62
     7
  0
BLOCK
  5
   275
  8
0
  6
CONTINUOUS
 62
     2
  2
*UDIM270
 70
    65
 10
0.0
 20
0.0
 30
0.0
  3
*UDIM270
  0
TEXT
  5
   276
  8
0
  6
CONTINUOUS
 62
     2
 10
179.507471400796
 20
-28.9621240030852
 30
0.0
 40
3.00000011722246
  1
111,75
 50
90.0
 41
0.933333333333333
 72
     1
 11
178.007471342175
 21
-20.8621236865864
 31
0.0
 73
     2
  0
LINE
  5
   277
  8
0
  6
CONTINUOUS
 62
     2
 10
165.923171849085
 20
-45.7308823972935
 30
0.0
 11
182.507471400786
 21
-45.7308823972935
 31
0.0
  0
LINE
  5
   278
  8
0
  6
CONTINUOUS
 62
     2
 10
108.654972707394
 20
4.55663975753194
 30
0.0
 11
182.507471400786
 21
4.55663514695193
 31
0.0
  0
LINE
  5
   279
  8
0
  6
CONTINUOUS
 62
     2
 10
180.507471400786
 20
-45.7308823972935
 30
0.0
 11
180.507471400786
 21
4.55663527181109
 31
0.0
  0
LINE
  5
   27A
  8
0
  6
CONTINUOUS
 62
     2
 10
179.986526970834
 20
-42.7764591200865
 30
0.0
 11
180.507471400786
 21
-45.7308823972935
 31
0.0
  0
LINE
  5
   27B
  8
0
  6
CONTINUOUS
 62
     2
 10
180.507471400786
 20
-45.7308823972935
 30
0.0
 11
181.028415830738
 21
-42.7764591200865
 31
0.0
  0
LINE
  5
   27C
  8
0
  6
CONTINUOUS
 62
     2
 10
181.028415830738
 20
1.60221199460412
 30
0.0
 11
180.507471400786
 21
4.55663527181109
 31
0.0
  0
LINE
  5
   27D
  8
0
  6
CONTINUOUS
 62
     2
 10
180.507471400786
 20
4.55663527181109
 30
0.0
 11
179.986526970834
 21
1.60221199460412
 31
0.0
  0
ENDBLK
  5
   27E
  8
0
  6
CONTINUOUS
 62
     2
  0
BLOCK
  5
   27F
  8
0
  6
CONTINUOUS
 62
     7
  2
*UDIM271
 70
    65
 10
0.0
 20
0.0
 30
0.0
  3
*UDIM271
  0
TEXT
  5
   280
  8
0
  6
CONTINUOUS
 62
     7
 10
110.418276889059
 20
-159.442186884116
 30
0.0
 40
3.00000011722246
  1
107
 41
0.933333333333333
 72
     1
 11
114.318277041448
 21
-157.942186825505
 31
0.0
 73
     2
  0
LINE
  5
   281
  8
0
  6
CONTINUOUS
 62
     7
 10
90.5182884514334
 20
-115.814865783799
 30
0.0
 11
90.5182884514334
 21
-162.442186884116
 31
0.0
  0
LINE
  5
   282
  8
0
  6
CONTINUOUS
 62
     7
 10
138.668266576528
 20
-126.618791764147
 30
0.0
 11
138.668266576528
 21
-162.442186884116
 31
0.0
  0
LINE
  5
   283
  8
0
  6
CONTINUOUS
 62
     7
 10
90.5182884514334
 20
-160.442186884116
 30
0.0
 11
138.668266576528
 21
-160.442186884116
 31
0.0
  0
LINE
  5
   284
  8
0
  6
CONTINUOUS
 62
     7
 10
93.4727117286403
 20
-159.921242454165
 30
0.0
 11
90.5182884514334
 21
-160.442186884116
 31
0.0
  0
LINE
  5
   285
  8
0
  6
CONTINUOUS
 62
     7
 10
90.5182884514334
 20
-160.442186884116
 30
0.0
 11
93.4727117286403
 21
-160.963131314068
 31
0.0
  0
LINE
  5
   286
  8
0
  6
CONTINUOUS
 62
     7
 10
135.713843299321
 20
-160.963131314068
 30
0.0
 11
138.668266576528
 21
-160.442186884116
 31
0.0
  0
LINE
  5
   287
  8
0
  6
CONTINUOUS
 62
     7
 10
138.668266576528
 20
-160.442186884116
 30
0.0
 11
135.713843299321
 21
-159.921242454165
 31
0.0
  0
ENDBLK
  5
   288
  8
0
  6
CONTINUOUS
 62
     7
  0
BLOCK
  5
   289
  8
0
  6
CONTINUOUS
 62
     7
  2
*UDIM272
 70
    65
 10
0.0
 20
0.0
 30
0.0
  3
*UDIM272
  0
TEXT
  5
   28A
  8
0
  6
CONTINUOUS
 62
     7
 10
142.56826535205
 20
-159.442186884116
 30
0.0
 40
3.00000011722246
  1
2
 41
0.933333333333334
 72
     1
 11
143.668265395031
 21
-157.942186825505
 31
0.0
 73
     2
  0
LINE
  5
   28B
  8
0
  6
CONTINUOUS
 62
     7
 10
139.568266552686
 20
-126.357163864101
 30
0.0
 11
139.568266552686
 21
-162.442186884116
 31
0.0
  0
LINE
  5
   28C
  8
0
  6
CONTINUOUS
 62
     7
 10
138.668266576528
 20
-160.442186884116
 30
0.0
 11
144.768265438013
 21
-160.442186884116
 31
0.0
  0
LINE
  5
   28D
  8
0
  6
CONTINUOUS
 62
     7
 10
135.713843299321
 20
-160.963131314068
 30
0.0
 11
138.668266576528
 21
-160.442186884116
 31
0.0
  0
LINE
  5
   28E
  8
0
  6
CONTINUOUS
 62
     7
 10
138.668266576528
 20
-160.442186884116
 30
0.0
 11
135.713843299321
 21
-159.921242454165
 31
0.0
  0
LINE
  5
   28F
  8
0
  6
CONTINUOUS
 62
     7
 10
142.522689829893
 20
-159.921242454165
 30
0.0
 11
139.568266552686
 21
-160.442186884116
 31
0.0
  0
LINE
  5
   290
  8
0
  6
CONTINUOUS
 62
     7
 10
139.568266552686
 20
-160.442186884116
 30
0.0
 11
142.522689829893
 21
-160.963131314068
 31
0.0
  0
ENDBLK
  5
   291
  8
0
  6
CONTINUOUS
 62
     7
  0
BLOCK
  5
   292
  8
0
  6
CONTINUOUS
 62
     7
  2
*UDIM273
 70
    65
 10
0.0
 20
0.0
 30
0.0
  3
*UDIM273
  0
TEXT
  5
   293
  8
0
  6
CONTINUOUS
 62
     7
 10
149.880771593588
 20
-112.418375773357
 30
0.0
 40
3.00000011722246
  1
12
 50
90.0
 41
0.933333333333333
 72
     1
 11
148.380771534973
 21
-109.918375675674
 31
0.0
 73
     2
  0
LINE
  5
   294
  8
0
  6
CONTINUOUS
 62
     7
 10
108.654972707394
 20
-103.89336353772
 30
0.0
 11
152.880771593584
 21
-103.893378155102
 31
0.0
  0
LINE
  5
   295
  8
0
  6
CONTINUOUS
 62
     7
 10
109.536906528187
 20
-98.4933608009924
 30
0.0
 11
152.880771593584
 21
-98.4933781728894
 31
0.0
  0
LINE
  5
   296
  8
0
  6
CONTINUOUS
 62
     7
 10
150.880771593585
 20
-112.418375773359
 30
0.0
 11
150.880771593585
 21
-98.4933773713044
 31
0.0
  0
LINE
  5
   297
  8
0
  6
CONTINUOUS
 62
     7
 10
151.401716023536
 20
-106.847800771274
 30
0.0
 11
150.880771593585
 21
-103.893377494068
 31
0.0
  0
LINE
  5
   298
  8
0
  6
CONTINUOUS
 62
     7
 10
150.880771593585
 20
-103.893377494068
 30
0.0
 11
150.359827163633
 21
-106.847800771274
 31
0.0
  0
LINE
  5
   299
  8
0
  6
CONTINUOUS
 62
     7
 10
150.359827163633
 20
-95.5389540940974
 30
0.0
 11
150.880771593585
 21
-98.4933773713044
 31
0.0
  0
LINE
  5
   29A
  8
0
  6
CONTINUOUS
 62
     7
 10
150.880771593585
 20
-98.4933773713044
 30
0.0
 11
151.401716023536
 21
-95.5389540940974
 31
0.0
  0
ENDBLK
  5
   29B
  8
0
  6
CONTINUOUS
 62
     7
  0
BLOCK
  5
   29C
  8
0
  6
CONTINUOUS
 62
     7
  2
*UDIM274
 70
    65
 10
0.0
 20
0.0
 30
0.0
  3
*UDIM274
  0
TEXT
  5
   29D
  8
0
  6
CONTINUOUS
 62
     7
 10
106.380777080655
 20
51.6627116983182
 30
0.0
 40
3.00000011722246
  1
101,5
 41
0.933333333333333
 72
     1
 11
113.080777342452
 21
53.1627117569294
 31
0.0
 73
     2
  0
LINE
  5
   29E
  8
0
  6
CONTINUOUS
 62
     7
 10
90.5182953178883
 20
20.9692776581521
 30
0.0
 11
90.5182953178883
 21
52.6627116983182
 31
0.0
  0
LINE
  5
   29F
  8
0
  6
CONTINUOUS
 62
     7
 10
136.193266642093
 20
0.606616401672895
 30
0.0
 11
136.193266642093
 21
52.6627116983182
 31
0.0
  0
LINE
  5
   2A0
  8
0
  6
CONTINUOUS
 62
     7
 10
90.5182953178883
 20
50.6627116983182
 30
0.0
 11
136.193266642093
 21
50.6627116983182
 31
0.0
  0
LINE
  5
   2A1
  8
0
  6
CONTINUOUS
 62
     7
 10
93.4727185950952
 20
51.1836561282698
 30
0.0
 11
90.5182953178883
 21
50.6627116983182
 31
0.0
  0
LINE
  5
   2A2
  8
0
  6
CONTINUOUS
 62
     7
 10
90.5182953178883
 20
50.6627116983182
 30
0.0
 11
93.4727185950952
 21
50.1417672683665
 31
0.0
  0
LINE
  5
   2A3
  8
0
  6
CONTINUOUS
 62
     7
 10
133.238843364886
 20
50.1417672683665
 30
0.0
 11
136.193266642093
 21
50.6627116983182
 31
0.0
  0
LINE
  5
   2A4
  8
0
  6
CONTINUOUS
 62
     7
 10
136.193266642093
 20
50.6627116983182
 30
0.0
 11
133.238843364886
 21
51.1836561282698
 31
0.0
  0
ENDBLK
  5
   2A5
  8
0
  6
CONTINUOUS
 62
     7
  0
BLOCK
  5
   2A6
  8
0
  6
CONTINUOUS
 62
     7
  2
*UDIM275
 70
    65
 10
0.0
 20
0.0
 30
0.0
  3
*UDIM275
  0
TEXT
  5
   2A7
  8
0
  6
CONTINUOUS
 62
     7
 10
155.353150751598
 20
-0.603187464620864
 30
0.0
 40
3.00000011722246
  1
12
 50
90.0
 41
0.933333333333333
 72
     1
 11
153.853150692983
 21
1.89681263306264
 31
0.0
 73
     2
  0
LINE
  5
   2A8
  8
0
  6
CONTINUOUS
 62
     7
 10
117.829655812672
 20
-0.843363300957961
 30
0.0
 11
158.353150751594
 21
-0.84337602195059
 31
0.0
  0
LINE
  5
   2A9
  8
0
  6
CONTINUOUS
 62
     7
 10
108.654972707394
 20
4.5566393051773
 30
0.0
 11
158.353150751594
 21
4.55661372133926
 31
0.0
  0
LINE
  5
   2AA
  8
0
  6
CONTINUOUS
 62
     7
 10
156.353150751595
 20
-0.843375394117643
 30
0.0
 11
156.353150751595
 21
4.55661475090771
 31
0.0
  0
LINE
  5
   2AB
  8
0
  6
CONTINUOUS
 62
     7
 10
156.874095181546
 20
-3.7977986713246
 30
0.0
 11
156.353150751595
 21
-0.843375394117643
 31
0.0
  0
LINE
  5
   2AC
  8
0
  6
CONTINUOUS
 62
     7
 10
156.353150751595
 20
-0.843375394117643
 30
0.0
 11
155.832206321643
 21
-3.7977986713246
 31
0.0
  0
LINE
  5
   2AD
  8
0
  6
CONTINUOUS
 62
     7
 10
155.832206321643
 20
7.51103802811468
 30
0.0
 11
156.353150751595
 21
4.55661475090771
 31
0.0
  0
LINE
  5
   2AE
  8
0
  6
CONTINUOUS
 62
     7
 10
156.353150751595
 20
4.55661475090771
 30
0.0
 11
156.874095181546
 21
7.51103802811468
 31
0.0
  0
ENDBLK
  5
   2AF
  8
0
  6
CONTINUOUS
 62
     7
  0
BLOCK
  5
   2B0
  8
0
  6
CONTINUOUS
 62
     7
  2
*UDIM276
 70
    65
 10
0.0
 20
0.0
 30
0.0
  3
*UDIM276
  0
TEXT
  5
   2B1
  8
0
  6
CONTINUOUS
 62
     7
 10
83.4182882812952
 20
-153.044793254761
 30
0.0
 40
3.00000011722246
  1
3
 41
0.933333333333334
 72
     1
 11
84.5182883242768
 21
-151.54479319615
 31
0.0
 73
     2
  0
TEXT
  5
   2B2
  8
0
  6
CONTINUOUS
 62
     7
 10
80.6682881834112
 20
-153.044793254761
 30
0.0
 40
3.00000011722246
  1
_
 41
0.933333333333334
 72
     1
 11
81.7682882263927
 21
-151.54479319615
 31
0.0
 73
     2
  0
LINE
  5
   2B3
  8
0
  6
CONTINUOUS
 62
     7
 10
89.1682884871962
 20
-116.341366344119
 30
0.0
 11
89.1682884871962
 21
-156.044793254761
 31
0.0
  0
LINE
  5
   2B4
  8
0
  6
CONTINUOUS
 62
     7
 10
90.5182884514334
 20
-115.814865783799
 30
0.0
 11
90.5182884514334
 21
-156.044793254761
 31
0.0
  0
LINE
  5
   2B5
  8
0
  6
CONTINUOUS
 62
     7
 10
80.6682881834112
 20
-154.044793254761
 30
0.0
 11
90.5182884514334
 21
-154.044793254761
 31
0.0
  0
LINE
  5
   2B6
  8
0
  6
CONTINUOUS
 62
     7
 10
86.2138652099892
 20
-154.565737684713
 30
0.0
 11
89.1682884871962
 21
-154.044793254761
 31
0.0
  0
LINE
  5
   2B7
  8
0
  6
CONTINUOUS
 62
     7
 10
89.1682884871962
 20
-154.044793254761
 30
0.0
 11
86.2138652099892
 21
-153.52384882481
 31
0.0
  0
LINE
  5
   2B8
  8
0
  6
CONTINUOUS
 62
     7
 10
93.4727117286403
 20
-153.52384882481
 30
0.0
 11
90.5182884514334
 21
-154.044793254761
 31
0.0
  0
LINE
  5
   2B9
  8
0
  6
CONTINUOUS
 62
     7
 10
90.5182884514334
 20
-154.044793254761
 30
0.0
 11
93.4727117286403
 21
-154.565737684713
 31
0.0
  0
ENDBLK
  5
   2BA
  8
0
  6
CONTINUOUS
 62
     7
  0
BLOCK
  5
   2BB
  8
0
  6
CONTINUOUS
 62
     7
  2
*UDIM277
 70
    65
 10
0.0
 20
0.0
 30
0.0
  3
*UDIM277
  0
TEXT
  5
   2BC
  8
0
  6
CONTINUOUS
 62
     7
 10
106.830773635506
 20
-153.044793254761
 30
0.0
 40
3.00000011722246
  1
103,5
 41
0.933333333333333
 72
     1
 11
113.530773897303
 21
-151.54479319615
 31
0.0
 73
     2
  0
LINE
  5
   2BD
  8
0
  6
CONTINUOUS
 62
     7
 10
137.093266618251
 20
-70.3558749049898
 30
0.0
 11
137.093266618251
 21
-156.044793254761
 31
0.0
  0
LINE
  5
   2BE
  8
0
  6
CONTINUOUS
 62
     7
 10
90.5182884514334
 20
-154.044793254761
 30
0.0
 11
137.093266618251
 21
-154.044793254761
 31
0.0
  0
LINE
  5
   2BF
  8
0
  6
CONTINUOUS
 62
     7
 10
93.4727117286403
 20
-153.52384882481
 30
0.0
 11
90.5182884514334
 21
-154.044793254761
 31
0.0
  0
LINE
  5
   2C0
  8
0
  6
CONTINUOUS
 62
     7
 10
90.5182884514334
 20
-154.044793254761
 30
0.0
 11
93.4727117286403
 21
-154.565737684713
 31
0.0
  0
LINE
  5
   2C1
  8
0
  6
CONTINUOUS
 62
     7
 10
134.138843341044
 20
-154.565737684713
 30
0.0
 11
137.093266618251
 21
-154.044793254761
 31
0.0
  0
LINE
  5
   2C2
  8
0
  6
CONTINUOUS
 62
     7
 10
137.093266618251
 20
-154.044793254761
 30
0.0
 11
134.138843341044
 21
-153.52384882481
 31
0.0
  0
ENDBLK
  5
   2C3
  8
0
  6
CONTINUOUS
 62
     7
  0
BLOCK
  5
   2C4
  8
0
  6
CONTINUOUS
 62
     7
  2
*UDIM278
 70
    65
 10
0.0
 20
0.0
 30
0.0
  3
*UDIM278
  0
TEXT
  5
   2C5
  8
0
  6
CONTINUOUS
 62
     7
 10
122.117735855952
 20
-165.224881738251
 30
0.0
 40
3.00000011722246
  1
159
 41
0.933333333333333
 72
     1
 11
126.017736008342
 21
-163.72488167964
 31
0.0
 73
     2
  0
LINE
  5
   2C6
  8
0
  6
CONTINUOUS
 62
     7
 10
90.5182884514334
 20
-115.814865783799
 30
0.0
 11
90.5182884514334
 21
-168.224881738251
 31
0.0
  0
LINE
  5
   2C7
  8
0
  6
CONTINUOUS
 62
     7
 10
162.067186817014
 20
-59.6966772344458
 30
0.0
 11
162.067186817014
 21
-168.224881738251
 31
0.0
  0
LINE
  5
   2C8
  8
0
  6
CONTINUOUS
 62
     7
 10
90.5182884514334
 20
-166.224881738252
 30
0.0
 11
162.067186817014
 21
-166.224881738252
 31
0.0
  0
LINE
  5
   2C9
  8
0
  6
CONTINUOUS
 62
     7
 10
93.4727117286403
 20
-165.7039373083
 30
0.0
 11
90.5182884514334
 21
-166.224881738252
 31
0.0
  0
LINE
  5
   2CA
  8
0
  6
CONTINUOUS
 62
     7
 10
90.5182884514334
 20
-166.224881738252
 30
0.0
 11
93.4727117286403
 21
-166.745826168203
 31
0.0
  0
LINE
  5
   2CB
  8
0
  6
CONTINUOUS
 62
     7
 10
159.112763539807
 20
-166.745826168203
 30
0.0
 11
162.067186817014
 21
-166.224881738252
 31
0.0
  0
LINE
  5
   2CC
  8
0
  6
CONTINUOUS
 62
     7
 10
162.067186817014
 20
-166.224881738252
 30
0.0
 11
159.112763539807
 21
-165.7039373083
 31
0.0
  0
ENDBLK
  5
   2CD
  8
0
  6
CONTINUOUS
 62
     7
  0
BLOCK
  5
   2CE
  8
0
  6
CONTINUOUS
 62
     7
  2
*UDIM279
 70
    65
 10
0.0
 20
0.0
 30
0.0
  3
*UDIM279
  0
TEXT
  5
   2CF
  8
0
  6
CONTINUOUS
 62
     7
 10
170.066054719751
 20
-49.905877855988
 30
0.0
 40
3.00000011722246
  1
105
 50
90.0
 41
0.933333333333333
 72
     1
 11
168.566054661135
 21
-46.0058777036006
 31
0.0
 73
     2
  0
LINE
  5
   2D0
  8
0
  6
CONTINUOUS
 62
     7
 10
139.668266576528
 20
-69.3558752341672
 30
0.0
 11
173.066054719746
 21
-69.3558862279626
 31
0.0
  0
LINE
  5
   2D1
  8
0
  6
CONTINUOUS
 62
     7
 10
139.668266576528
 20
-22.1058833370587
 30
0.0
 11
173.066054719746
 21
-22.1058938211746
 31
0.0
  0
LINE
  5
   2D2
  8
0
  6
CONTINUOUS
 62
     7
 10
171.066054719746
 20
-69.3558855696079
 30
0.0
 11
171.066054719746
 21
-22.1058931933417
 31
0.0
  0
LINE
  5
   2D3
  8
0
  6
CONTINUOUS
 62
     7
 10
170.545110289794
 20
-66.4014622924009
 30
0.0
 11
171.066054719746
 21
-69.3558855696079
 31
0.0
  0
LINE
  5
   2D4
  8
0
  6
CONTINUOUS
 62
     7
 10
171.066054719746
 20
-69.3558855696079
 30
0.0
 11
171.586999149697
 21
-66.4014622924009
 31
0.0
  0
LINE
  5
   2D5
  8
0
  6
CONTINUOUS
 62
     7
 10
171.586999149697
 20
-25.0603164705486
 30
0.0
 11
171.066054719746
 21
-22.1058931933417
 31
0.0
  0
LINE
  5
   2D6
  8
0
  6
CONTINUOUS
 62
     7
 10
171.066054719746
 20
-22.1058931933417
 30
0.0
 11
170.545110289794
 21
-25.0603164705486
 31
0.0
  0
ENDBLK
  5
   2D7
  8
0
  6
CONTINUOUS
 62
     7
  0
BLOCK
  5
   2D8
  8
0
  6
CONTINUOUS
 62
     2
  2
*UDIM280
 70
    65
 10
0.0
 20
0.0
 30
0.0
  3
*UDIM280
  0
TEXT
  5
   2D9
  8
0
  6
CONTINUOUS
 62
     2
 10
119.863983765094
 20
-136.492208091448
 30
0.0
 40
3.00000011722246
  1
5
 41
0.933333333333334
 72
     1
 11
120.963983808075
 21
-134.992208032837
 31
0.0
 73
     2
  0
LINE
  5
   2DA
  8
0
  6
CONTINUOUS
 62
     2
 10
106.943288016319
 20
-132.793360616731
 30
0.0
 11
106.943288016319
 21
-139.492208091448
 31
0.0
  0
LINE
  5
   2DB
  8
0
  6
CONTINUOUS
 62
     2
 10
109.193287956715
 20
-132.793360616731
 30
0.0
 11
109.193287956715
 21
-139.492208091448
 31
0.0
  0
LINE
  5
   2DC
  8
0
  6
CONTINUOUS
 62
     2
 10
106.943288016319
 20
-137.492208091448
 30
0.0
 11
122.063983851057
 21
-137.492208091448
 31
0.0
  0
LINE
  5
   2DD
  8
0
  6
CONTINUOUS
 62
     2
 10
103.988864739113
 20
-138.0131525214
 30
0.0
 11
106.943288016319
 21
-137.492208091448
 31
0.0
  0
LINE
  5
   2DE
  8
0
  6
CONTINUOUS
 62
     2
 10
106.943288016319
 20
-137.492208091448
 30
0.0
 11
103.988864739113
 21
-136.971263661497
 31
0.0
  0
LINE
  5
   2DF
  8
0
  6
CONTINUOUS
 62
     2
 10
112.147711233922
 20
-136.971263661497
 30
0.0
 11
109.193287956715
 21
-137.492208091448
 31
0.0
  0
LINE
  5
   2E0
  8
0
  6
CONTINUOUS
 62
     2
 10
109.193287956715
 20
-137.492208091448
 30
0.0
 11
112.147711233922
 21
-138.0131525214
 31
0.0
  0
ENDBLK
  5
   2E1
  8
0
  6
CONTINUOUS
 62
     2
  0
BLOCK
  5
   2E2
  8
0
  6
CONTINUOUS
 62
     2
  2
*UDIM281
 70
    65
 10
0.0
 20
0.0
 30
0.0
  3
*UDIM281
  0
TEXT
  5
   2E3
  8
0
  6
CONTINUOUS
 62
     2
 10
120.412567076901
 20
31.236773060954
 30
0.0
 40
3.00000011722246
  1
8
 41
0.933333333333334
 72
     1
 11
121.512567119883
 21
32.7367731195652
 31
0.0
 73
     2
  0
LINE
  5
   2E4
  8
0
  6
CONTINUOUS
 62
     2
 10
105.61578848064
 20
30.236773060954
 30
0.0
 11
122.612567162864
 21
30.236773060954
 31
0.0
  0
LINE
  5
   2E5
  8
0
  6
CONTINUOUS
 62
     2
 10
102.661365203433
 20
29.7158286310023
 30
0.0
 11
105.61578848064
 21
30.236773060954
 31
0.0
  0
LINE
  5
   2E6
  8
0
  6
CONTINUOUS
 62
     2
 10
105.61578848064
 20
30.236773060954
 30
0.0
 11
102.661365203433
 21
30.7577174909056
 31
0.0
  0
LINE
  5
   2E7
  8
0
  6
CONTINUOUS
 62
     2
 10
112.170211662479
 20
30.7577174909056
 30
0.0
 11
109.215788385272
 21
30.236773060954
 31
0.0
  0
LINE
  5
   2E8
  8
0
  6
CONTINUOUS
 62
     2
 10
109.215788385272
 20
30.236773060954
 30
0.0
 11
112.170211662479
 21
29.7158286310023
 31
0.0
  0
ENDBLK
  5
   2E9
  8
0
  6
CONTINUOUS
 62
     2
  0
BLOCK
  5
   2EA
  8
0
  6
CONTINUOUS
 62
     2
  2
*UDIM282
 70
    65
 10
0.0
 20
0.0
 30
0.0
  3
*UDIM282
  0
TEXT
  5
   2EB
  8
0
  6
CONTINUOUS
 62
     2
 10
94.2807876585591
 20
-145.143494941125
 30
0.0
 40
3.00000011722246
  1
41,5
 41
0.933333333333333
 72
     1
 11
99.5807878656522
 21
-143.643494882514
 31
0.0
 73
     2
  0
LINE
  5
   2EC
  8
0
  6
CONTINUOUS
 62
     2
 10
90.5182884514334
 20
-115.814865783799
 30
0.0
 11
90.5182884514334
 21
-148.143494941125
 31
0.0
  0
LINE
  5
   2ED
  8
0
  6
CONTINUOUS
 62
     2
 10
109.193287956715
 20
-132.793360616731
 30
0.0
 11
109.193287956715
 21
-148.143494941125
 31
0.0
  0
LINE
  5
   2EE
  8
0
  6
CONTINUOUS
 62
     2
 10
90.5182884514334
 20
-146.143494941125
 30
0.0
 11
109.193287956715
 21
-146.143494941125
 31
0.0
  0
LINE
  5
   2EF
  8
0
  6
CONTINUOUS
 62
     2
 10
93.4727117286403
 20
-145.622550511173
 30
0.0
 11
90.5182884514334
 21
-146.143494941125
 31
0.0
  0
LINE
  5
   2F0
  8
0
  6
CONTINUOUS
 62
     2
 10
90.5182884514334
 20
-146.143494941125
 30
0.0
 11
93.4727117286403
 21
-146.664439371077
 31
0.0
  0
LINE
  5
   2F1
  8
0
  6
CONTINUOUS
 62
     2
 10
106.238864679508
 20
-146.664439371077
 30
0.0
 11
109.193287956715
 21
-146.143494941125
 31
0.0
  0
LINE
  5
   2F2
  8
0
  6
CONTINUOUS
 62
     2
 10
109.193287956715
 20
-146.143494941125
 30
0.0
 11
106.238864679508
 21
-145.622550511173
 31
0.0
  0
ENDBLK
  5
   2F3
  8
0
  6
CONTINUOUS
 62
     2
  0
BLOCK
  5
   2F4
  8
0
  6
CONTINUOUS
 62
     2
  2
*UDIM283
 70
    65
 10
0.0
 20
0.0
 30
0.0
  3
*UDIM283
  0
TEXT
  5
   2F5
  8
0
  6
CONTINUOUS
 62
     2
 10
95.147957837127
 20
46.4488065019668
 30
0.0
 40
3.00000011722246
  1
41,5
 41
0.933333333333333
 72
     1
 11
100.44795804422
 21
47.9488065605781
 31
0.0
 73
     2
  0
LINE
  5
   2F6
  8
0
  6
CONTINUOUS
 62
     2
 10
90.5182953178883
 20
20.9692776581521
 30
0.0
 11
90.5182953178883
 21
47.4488065019668
 31
0.0
  0
LINE
  5
   2F7
  8
0
  6
CONTINUOUS
 62
     2
 10
109.215788385272
 20
35.7066371760232
 30
0.0
 11
109.215788385272
 21
47.4488065019668
 31
0.0
  0
LINE
  5
   2F8
  8
0
  6
CONTINUOUS
 62
     2
 10
90.5182953178883
 20
45.4488065019668
 30
0.0
 11
109.215788385272
 21
45.4488065019668
 31
0.0
  0
LINE
  5
   2F9
  8
0
  6
CONTINUOUS
 62
     2
 10
93.4727185950952
 20
45.9697509319185
 30
0.0
 11
90.5182953178883
 21
45.4488065019668
 31
0.0
  0
LINE
  5
   2FA
  8
0
  6
CONTINUOUS
 62
     2
 10
90.5182953178883
 20
45.4488065019668
 30
0.0
 11
93.4727185950952
 21
44.9278620720152
 31
0.0
  0
LINE
  5
   2FB
  8
0
  6
CONTINUOUS
 62
     2
 10
106.261365108065
 20
44.9278620720152
 30
0.0
 11
109.215788385272
 21
45.4488065019668
 31
0.0
  0
LINE
  5
   2FC
  8
0
  6
CONTINUOUS
 62
     2
 10
109.215788385272
 20
45.4488065019668
 30
0.0
 11
106.261365108065
 21
45.9697509319185
 31
0.0
  0
ENDBLK
  5
   2FD
  8
0
  6
CONTINUOUS
 62
     2
  0
ENDSEC
  0
SECTION
  2
ENTITIES
  0
LINE
  5
   2FE
  8
0
  6
CONTINUOUS
 62
     7
 10
-62.7630176961429
 20
9.2816222488882
 30
0.0
 11
-63.7755351189488
 21
9.2816222488882
 31
0.0
  0
LINE
  5
   2FF
  8
0
  6
CONTINUOUS
 62
     7
 10
-62.7630176961429
 20
9.2816222488882
 30
0.0
 11
-62.7630176961429
 21
10.1816222250463
 31
0.0
  0
LINE
  5
   300
  8
0
  6
CONTINUOUS
 62
     7
 10
-1.90056728118867
 20
10.6316290795777
 30
0.0
 11
-31.3755665003678
 21
10.6316290795777
 31
0.0
  0
LINE
  5
   301
  8
0
  6
CONTINUOUS
 62
     1
 10
-11.4627593749665
 20
7.25662230253238
 30
0.0
 11
-13.9286870482063
 21
7.25662230253238
 31
0.0
  0
LINE
  5
   302
  8
0
  6
CONTINUOUS
 62
     1
 10
-11.4627593749665
 20
1.85662244558353
 30
0.0
 11
-13.9286870482063
 21
1.85662244558353
 31
0.0
  0
LINE
  5
   303
  8
0
  6
CONTINUOUS
 62
     1
 10
-19.3473818847871
 20
1.85662225299261
 30
0.0
 11
-21.8128238817534
 21
1.85663065170608
 31
0.0
  0
LINE
  5
   304
  8
0
  6
CONTINUOUS
 62
     1
 10
-21.8128238794033
 20
7.25661409698608
 30
0.0
 11
-19.34737842825
 21
7.25662249573823
 31
0.0
  0
LINE
  5
   305
  8
0
  6
CONTINUOUS
 62
     7
 10
29.5994387508012
 20
10.6316222131228
 30
0.0
 11
0.124432665167149
 21
10.6316222131228
 31
0.0
  0
LINE
  5
   306
  8
0
  6
CONTINUOUS
 62
     1
 10
12.152595591793
 20
7.25662230253238
 30
0.0
 11
9.68712505306504
 21
7.25662230253238
 31
0.0
  0
LINE
  5
   307
  8
0
  6
CONTINUOUS
 62
     1
 10
12.1521128567868
 20
1.85662244558353
 30
0.0
 11
9.68712505306504
 21
1.85662244558353
 31
0.0
  0
LINE
  5
   308
  8
0
  6
CONTINUOUS
 62
     1
 10
17.571310598309
 20
1.85661794280692
 30
0.0
 11
20.0370138629504
 21
1.85662634243732
 31
0.0
  0
LINE
  5
   309
  8
0
  6
CONTINUOUS
 62
     1
 10
20.0370138593193
 20
7.25661840665508
 30
0.0
 11
17.5713105744978
 21
7.25662680628555
 31
0.0
  0
LINE
  5
   30A
  8
0
  6
CONTINUOUS
 62
     7
 10
61.8869240701206
 20
9.2816222488882
 30
0.0
 11
60.9869240939624
 21
9.2816222488882
 31
0.0
  0
LINE
  5
   30B
  8
0
  6
CONTINUOUS
 62
     7
 10
61.8869515359397
 20
-0.393377713037353
 30
0.0
 11
61.8869515359397
 21
9.28162216772067
 31
0.0
  0
LINE
  5
   30C
  8
0
  6
CONTINUOUS
 62
     7
 10
60.9869240939624
 20
9.28162224888818
 30
0.0
 11
60.9869240939624
 21
10.1816222250463
 31
0.0
  0
LINE
  5
   30D
  8
0
  6
CONTINUOUS
 62
     7
 10
60.5369459586332
 20
10.6316290795777
 30
0.0
 11
31.624438697157
 21
10.6316290795777
 31
0.0
  0
LINE
  5
   30E
  8
0
  6
CONTINUOUS
 62
     1
 10
43.6525861742593
 20
7.25662230253238
 30
0.0
 11
41.1868467696863
 21
7.25662230253238
 31
0.0
  0
LINE
  5
   30F
  8
0
  6
CONTINUOUS
 62
     1
 10
43.6525861742593
 20
1.85662244558353
 30
0.0
 11
41.1868467696863
 21
1.85662244558353
 31
0.0
  0
LINE
  5
   310
  8
0
  6
CONTINUOUS
 62
     1
 10
49.0712878770859
 20
1.85662225299407
 30
0.0
 11
51.5370106706779
 21
1.85663065266409
 31
0.0
  0
LINE
  5
   311
  8
0
  6
CONTINUOUS
 62
     1
 10
51.5370312681879
 20
7.25661409635813
 30
0.0
 11
49.0712844203929
 21
7.2566224961101
 31
0.0
  0
CIRCLE
  5
   312
  8
0
  6
CONTINUOUS
 62
     1
 10
-0.888051775274866
 20
3.65671902149454
 30
0.0
 40
2.36249993741512
  0
CIRCLE
  5
   313
  8
0
  6
CONTINUOUS
 62
     1
 10
30.6118457799062
 20
3.65666688824585
 30
0.0
 40
2.36249993741512
  0
LINE
  5
   314
  8
0
  6
DASHDOT
 62
     7
 10
12.9272291700492
 20
4.55662684025981
 30
0.0
 11
6.44702136523432
 21
4.55662684025981
 31
0.0
  0
LINE
  5
   315
  8
0
  6
DASHDOT
 62
     7
 10
9.68712505306504
 20
1.31652315242906
 30
0.0
 11
9.68712505306504
 21
7.79673052809051
 31
0.0
  0
ARC
  5
   316
  8
0
  6
CONTINUOUS
 62
     1
 10
9.68712505306504
 20
4.55662684025981
 30
0.0
 40
2.70008597737217
 50
90.0036557603355
 51
269.996301839899
  0
LINE
  5
   317
  8
0
  6
DASHDOT
 62
     7
 10
19.4521170142115
 20
4.55644005774141
 30
0.0
 11
10.2716897718475
 21
4.55644005774141
 31
0.0
  0
ARC
  5
   318
  8
0
  6
CONTINUOUS
 62
     1
 10
14.8619033930426
 20
4.55644005774143
 30
0.0
 40
3.82517801765167
 50
224.89430374687
 51
315.105491686916
  0
LINE
  5
   319
  8
0
  6
DASHDOT
 62
     7
 10
23.2769270995027
 20
4.55669634389585
 30
0.0
 11
16.7970813691506
 21
4.55669634389585
 31
0.0
  0
LINE
  5
   31A
  8
0
  6
DASHDOT
 62
     7
 10
20.037004663484
 20
1.31677150891319
 30
0.0
 11
20.037004663484
 21
7.79661638095841
 31
0.0
  0
ARC
  5
   31B
  8
0
  6
CONTINUOUS
 62
     1
 10
20.0370046634801
 20
4.55669634389584
 30
0.0
 40
2.69993493419874
 50
269.999007927624
 51
450.00105270767
  0
LINE
  5
   31C
  8
0
  6
DASHDOT
 62
     7
 10
44.4267142033789
 20
4.55664857694168
 30
0.0
 11
37.9469518701741
 21
4.55664857694168
 31
0.0
  0
LINE
  5
   31D
  8
0
  6
DASHDOT
 62
     7
 10
41.1868467696863
 20
1.3167605438844
 30
0.0
 11
41.1868467696863
 21
7.79653660999892
 31
0.0
  0
ARC
  5
   31E
  8
0
  6
CONTINUOUS
 62
     1
 10
41.1868467696863
 20
4.55664857694168
 30
0.0
 40
2.69990583590753
 50
449.999999948034
 51
630.002376467854
  0
LINE
  5
   31F
  8
0
  6
DASHDOT
 62
     7
 10
50.9519863637615
 20
4.55658442285473
 30
0.0
 11
41.7719111152913
 21
4.55658442285473
 31
0.0
  0
ARC
  5
   320
  8
0
  6
CONTINUOUS
 62
     1
 10
46.3619556059813
 20
4.55658442285473
 30
0.0
 40
3.82503135352924
 50
404.901045292561
 51
495.098630845462
  0
LINE
  5
   321
  8
0
  6
DASHDOT
 62
     7
 10
54.7770127755744
 20
4.55660892393742
 30
0.0
 11
48.2970039016817
 21
4.55660892393742
 31
0.0
  0
LINE
  5
   322
  8
0
  6
DASHDOT
 62
     7
 10
51.5370083386281
 20
1.31659762053614
 30
0.0
 11
51.5370083386281
 21
7.79662022733866
 31
0.0
  0
ARC
  5
   323
  8
0
  6
CONTINUOUS
 62
     1
 10
51.5370083386281
 20
4.55660892393743
 30
0.0
 40
2.70000856119419
 50
269.998338346111
 51
450.001473300288
  0
LINE
  5
   324
  8
0
  6
DASHDOT
 62
     7
 10
60.212913663185
 20
8.83163407867512
 30
0.0
 11
58.1609402806399
 21
8.83163407867512
 31
0.0
  0
LINE
  5
   325
  8
0
  6
DASHDOT
 62
     7
 10
59.1869304051399
 20
7.80565082062998
 30
0.0
 11
59.1869304051399
 21
9.85761733672025
 31
0.0
  0
CIRCLE
  5
   326
  8
0
  6
CONTINUOUS
 62
     1
 10
59.1869304051399
 20
8.83163407867512
 30
0.0
 40
0.854986048370947
  0
CIRCLE
  5
   327
  8
0
  6
CONTINUOUS
 62
     1
 10
59.1869573714009
 20
8.83162938960766
 30
0.0
 40
0.630025436015144
  0
ARC
  5
   328
  8
0
  6
CONTINUOUS
 62
     7
 10
60.5369276387241
 20
10.1816119461523
 30
0.0
 40
0.449999639351664
 50
360.000054589548
 51
449.999945306521
  0
CIRCLE
  5
   329
  8
0
  6
CONTINUOUS
 62
     1
 10
-60.9630774737087
 20
8.83162634827211
 30
0.0
 40
0.629975049990882
  0
LINE
  5
   32A
  8
0
  6
DASHDOT
 62
     7
 10
-59.9370936041507
 20
8.8317158565233
 30
0.0
 11
-61.9889491754637
 21
8.8317158565233
 31
0.0
  0
LINE
  5
   32B
  8
0
  6
DASHDOT
 62
     7
 10
-60.9630213898072
 20
7.80579493732166
 30
0.0
 11
-60.9630213898072
 21
9.85763677572494
 31
0.0
  0
CIRCLE
  5
   32C
  8
0
  6
CONTINUOUS
 62
     1
 10
-60.9630213898072
 20
8.8317158565233
 30
0.0
 40
0.854934099334694
  0
ARC
  5
   32D
  8
0
  6
CONTINUOUS
 62
     7
 10
-62.3130191583932
 20
10.1816199533719
 30
0.0
 40
0.449994855493029
 50
90.0005173512766
 51
180.001122723422
  0
LINE
  5
   32E
  8
0
  6
DASHDOT
 62
     7
 10
-21.8128009501669
 20
1.31646538855775
 30
0.0
 11
-21.8128009501669
 21
7.79681979173709
 31
0.0
  0
ARC
  5
   32F
  8
0
  6
CONTINUOUS
 62
     1
 10
-21.8128009501669
 20
4.55664259014745
 30
0.0
 40
2.70014766799139
 50
90.0052836333811
 51
269.995265213079
  0
LINE
  5
   330
  8
0
  6
DASHDOT
 62
     7
 10
-12.0479473257359
 20
4.55670049862645
 30
0.0
 11
-21.2281384311477
 21
4.55670049862645
 31
0.0
  0
ARC
  5
   331
  8
0
  6
CONTINUOUS
 62
     1
 10
-16.6380257123045
 20
4.55670049862645
 30
0.0
 40
3.82507676623207
 50
224.901380849089
 51
315.098568474349
  0
LINE
  5
   332
  8
0
  6
DASHDOT
 62
     7
 10
-11.4627593749665
 20
1.31686503436097
 30
0.0
 11
-11.4627593749665
 21
7.79642061269548
 31
0.0
  0
ARC
  5
   333
  8
0
  6
CONTINUOUS
 62
     1
 10
-11.4627593749665
 20
4.55664282352822
 30
0.0
 40
2.69981482430606
 50
269.999999948034
 51
449.999945306521
  0
ARC
  5
   334
  8
0
  6
CONTINUOUS
 62
     1
 10
-16.6380257123045
 20
4.55670049862645
 30
0.0
 40
3.82507676623207
 50
404.897963373026
 51
495.101923170488
  0
ARC
  5
   335
  8
0
  6
CONTINUOUS
 62
     1
 10
14.8619033930426
 20
4.55644005774143
 30
0.0
 40
3.82517801765167
 50
404.902109287098
 51
495.097767281763
  0
ARC
  5
   336
  8
0
  6
CONTINUOUS
 62
     1
 10
46.3619556059813
 20
4.55658442285473
 30
0.0
 40
3.82503135352924
 50
224.899545375473
 51
315.100341172749
  0
LINE
  5
   337
  8
0
  6
CONTINUOUS
 62
     7
 10
60.9869481265528
 20
-0.168366316504446
 30
0.0
 11
-62.92053531326
 21
-0.168366316504446
 31
0.0
  0
LINE
  5
   338
  8
0
  6
CONTINUOUS
 62
     7
 10
60.9869412600997
 20
-0.393377494805236
 30
0.0
 11
60.9869412600997
 21
10.1816119461523
 31
0.0
  0
LINE
  5
   339
  8
0
  6
CONTINUOUS
 62
     7
 10
-31.166575738363
 20
-0.393355149662796
 30
0.0
 11
-31.166575738363
 21
-0.168370634317398
 31
0.0
  0
LINE
  5
   33A
  8
0
  6
CONTINUOUS
 62
     1
 10
61.9994615491515
 20
-22.1058771378525
 30
0.0
 11
61.9994615491515
 21
-0.393377713037353
 31
0.0
  0
LINE
  5
   33B
  8
0
  6
CONTINUOUS
 62
     1
 10
61.9994615491515
 20
-108.70837518699
 30
0.0
 11
61.9994615491515
 21
-69.3558621532452
 31
0.0
  0
LINE
  5
   33C
  8
0
  6
CONTINUOUS
 62
     1
 10
-63.7755351189488
 20
-108.70837518699
 30
0.0
 11
-63.7755351189488
 21
-69.3558896190648
 31
0.0
  0
LINE
  5
   33D
  8
0
  6
CONTINUOUS
 62
     1
 10
-63.7755351189488
 20
-22.1059046036721
 30
0.0
 11
-63.7755351189488
 21
9.2816222488882
 31
0.0
  0
LINE
  5
   33E
  8
0
  6
CONTINUOUS
 62
     1
 10
61.9994615491515
 20
-0.393377713037353
 30
0.0
 11
-63.7755351189488
 21
-0.393377713037353
 31
0.0
  0
LINE
  5
   33F
  8
0
  6
CONTINUOUS
 62
     1
 10
61.5494615610724
 20
-79.5933756149539
 30
0.0
 11
49.0619518756867
 21
-79.5933756149539
 31
0.0
  0
LINE
  5
   340
  8
0
  6
CONTINUOUS
 62
     1
 10
-63.7755351189488
 20
-69.3558827526099
 30
0.0
 11
-63.7755351189488
 21
-22.1058840043074
 31
0.0
  0
LINE
  5
   341
  8
0
  6
CONTINUOUS
 62
     1
 10
61.9994615491515
 20
-69.3558827526099
 30
0.0
 11
61.9994615491515
 21
-22.1058840043074
 31
0.0
  0
LINE
  5
   342
  8
0
  6
CONTINUOUS
 62
     1
 10
61.9994615491515
 20
-69.3558827526099
 30
0.0
 11
49.0619518756867
 21
-69.3558827526099
 31
0.0
  0
LINE
  5
   343
  8
0
  6
CONTINUOUS
 62
     1
 10
61.774461555112
 20
-22.1058840043074
 30
0.0
 11
49.0619518756867
 21
-22.1058840043074
 31
0.0
  0
LINE
  5
   344
  8
0
  6
CONTINUOUS
 62
     1
 10
61.9994615491515
 20
-79.1433756536969
 30
0.0
 11
49.0619518756867
 21
-79.1433756536969
 31
0.0
  0
LINE
  5
   345
  8
0
  6
CONTINUOUS
 62
     1
 10
-63.3255351576919
 20
-79.5933756149539
 30
0.0
 11
-63.3255351576919
 21
-79.1433756536969
 31
0.0
  0
LINE
  5
   346
  8
0
  6
CONTINUOUS
 62
     1
 10
61.5494615610724
 20
-79.5933756149539
 30
0.0
 11
61.5494615610724
 21
-79.1433756536969
 31
0.0
  0
LINE
  5
   347
  8
0
  6
CONTINUOUS
 62
     1
 10
60.1094561060555
 20
-22.1058840043074
 30
0.0
 11
60.1094561060555
 21
-0.393377713037353
 31
0.0
  0
LINE
  5
   348
  8
0
  6
CONTINUOUS
 62
     1
 10
61.1444574519283
 20
-22.1058840043074
 30
0.0
 11
61.1444574519283
 21
-0.393377713037353
 31
0.0
  0
LINE
  5
   349
  8
0
  6
CONTINUOUS
 62
     1
 10
53.6294590242988
 20
-22.1058840043074
 30
0.0
 11
53.6294590242988
 21
-0.393377713037353
 31
0.0
  0
LINE
  5
   34A
  8
0
  6
CONTINUOUS
 62
     1
 10
55.2494548615106
 20
-22.1058840043074
 30
0.0
 11
55.2494548615106
 21
-0.393377713037353
 31
0.0
  0
LINE
  5
   34B
  8
0
  6
CONTINUOUS
 62
     1
 10
56.8694575651772
 20
-22.1058840043074
 30
0.0
 11
56.8694575651772
 21
-0.393377713037353
 31
0.0
  0
LINE
  5
   34C
  8
0
  6
CONTINUOUS
 62
     1
 10
58.4894602688438
 20
-22.1058840043074
 30
0.0
 11
58.4894602688438
 21
-0.393377713037353
 31
0.0
  0
LINE
  5
   34D
  8
0
  6
CONTINUOUS
 62
     1
 10
46.3394605907089
 20
-9.50588519639983
 30
0.0
 11
46.3394605907089
 21
-0.393377713037353
 31
0.0
  0
LINE
  5
   34E
  8
0
  6
CONTINUOUS
 62
     1
 10
47.3744550701268
 20
-9.50588519639983
 30
0.0
 11
47.3744550701268
 21
-0.393377713037353
 31
0.0
  0
LINE
  5
   34F
  8
0
  6
CONTINUOUS
 62
     1
 10
48.7694577797539
 20
-9.57492489631653
 30
0.0
 11
48.7694577797539
 21
-0.393377713037353
 31
0.0
  0
LINE
  5
   350
  8
0
  6
CONTINUOUS
 62
     1
 10
50.3894604834205
 20
-22.1058840043074
 30
0.0
 11
50.3894604834205
 21
-0.393377713037353
 31
0.0
  0
LINE
  5
   351
  8
0
  6
CONTINUOUS
 62
     1
 10
52.0094563206322
 20
-22.1058840043074
 30
0.0
 11
52.0094563206322
 21
-0.393377713037353
 31
0.0
  0
LINE
  5
   352
  8
0
  6
CONTINUOUS
 62
     1
 10
55.2494548615106
 20
-69.3558827526099
 30
0.0
 11
55.2494548615106
 21
-22.1058840043074
 31
0.0
  0
LINE
  5
   353
  8
0
  6
CONTINUOUS
 62
     1
 10
58.4894602688438
 20
-69.3558827526099
 30
0.0
 11
58.4894602688438
 21
-22.1058840043074
 31
0.0
  0
LINE
  5
   354
  8
0
  6
CONTINUOUS
 62
     1
 10
56.8694575651772
 20
-69.3558827526099
 30
0.0
 11
56.8694575651772
 21
-22.1058840043074
 31
0.0
  0
LINE
  5
   355
  8
0
  6
CONTINUOUS
 62
     1
 10
52.0094563206322
 20
-69.3558827526099
 30
0.0
 11
52.0094563206322
 21
-22.1058840043074
 31
0.0
  0
LINE
  5
   356
  8
0
  6
CONTINUOUS
 62
     1
 10
50.3894604834205
 20
-69.3558827526099
 30
0.0
 11
50.3894604834205
 21
-22.1058840043074
 31
0.0
  0
LINE
  5
   357
  8
0
  6
CONTINUOUS
 62
     1
 10
60.1094561060555
 20
-69.3558827526099
 30
0.0
 11
60.1094561060555
 21
-22.1058840043074
 31
0.0
  0
LINE
  5
   358
  8
0
  6
CONTINUOUS
 62
     1
 10
61.1444574519283
 20
-69.3558827526099
 30
0.0
 11
61.1444574519283
 21
-22.1058840043074
 31
0.0
  0
LINE
  5
   359
  8
0
  6
CONTINUOUS
 62
     1
 10
60.1094561060555
 20
-79.1433756536969
 30
0.0
 11
60.1094561060555
 21
-69.355882779432
 31
0.0
  0
LINE
  5
   35A
  8
0
  6
CONTINUOUS
 62
     1
 10
61.1444574519283
 20
-79.1433756536969
 30
0.0
 11
61.1444574519283
 21
-69.355882779432
 31
0.0
  0
LINE
  5
   35B
  8
0
  6
CONTINUOUS
 62
     1
 10
53.6294590242988
 20
-79.1433756536969
 30
0.0
 11
53.6294590242988
 21
-22.1058840043074
 31
0.0
  0
LINE
  5
   35C
  8
0
  6
CONTINUOUS
 62
     1
 10
55.2494548615106
 20
-79.1433756536969
 30
0.0
 11
55.2494548615106
 21
-69.355882779432
 31
0.0
  0
LINE
  5
   35D
  8
0
  6
CONTINUOUS
 62
     1
 10
56.8694575651772
 20
-79.1433756536969
 30
0.0
 11
56.8694575651772
 21
-69.355882779432
 31
0.0
  0
LINE
  5
   35E
  8
0
  6
CONTINUOUS
 62
     1
 10
58.4894602688438
 20
-79.1433756536969
 30
0.0
 11
58.4894602688438
 21
-69.355882779432
 31
0.0
  0
LINE
  5
   35F
  8
0
  6
CONTINUOUS
 62
     1
 10
46.3394605907089
 20
-79.1433756536969
 30
0.0
 11
46.3394605907089
 21
-69.355882779432
 31
0.0
  0
LINE
  5
   360
  8
0
  6
CONTINUOUS
 62
     1
 10
50.3894604834205
 20
-79.1433756536969
 30
0.0
 11
50.3894604834205
 21
-69.355882779432
 31
0.0
  0
LINE
  5
   361
  8
0
  6
CONTINUOUS
 62
     1
 10
52.0094563206322
 20
-79.1433756536969
 30
0.0
 11
52.0094563206322
 21
-69.355882779432
 31
0.0
  0
LINE
  5
   362
  8
0
  6
CONTINUOUS
 62
     1
 10
-61.8855352548474
 20
-22.1058840043074
 30
0.0
 11
-61.8855352548474
 21
-0.393377713037353
 31
0.0
  0
LINE
  5
   363
  8
0
  6
CONTINUOUS
 62
     1
 10
-62.92053531326
 20
-22.1058840043074
 30
0.0
 11
-62.92053531326
 21
9.2816222488882
 31
0.0
  0
LINE
  5
   364
  8
0
  6
CONTINUOUS
 62
     1
 10
-55.4055394605511
 20
-22.1058840043074
 30
0.0
 11
-55.4055394605511
 21
-0.393377713037353
 31
0.0
  0
LINE
  5
   365
  8
0
  6
CONTINUOUS
 62
     1
 10
-57.0255352977628
 20
-22.1058840043074
 30
0.0
 11
-57.0255352977628
 21
-0.393377713037353
 31
0.0
  0
LINE
  5
   366
  8
0
  6
CONTINUOUS
 62
     1
 10
-58.6455354265088
 20
-22.1058840043074
 30
0.0
 11
-58.6455354265088
 21
-0.393377713037353
 31
0.0
  0
LINE
  5
   367
  8
0
  6
CONTINUOUS
 62
     1
 10
-60.2655355552548
 20
-22.1058840043074
 30
0.0
 11
-60.2655355552548
 21
-0.393377713037353
 31
0.0
  0
LINE
  5
   368
  8
0
  6
CONTINUOUS
 62
     1
 10
-48.9255355123395
 20
-22.1058840043074
 30
0.0
 11
-48.9255355123395
 21
-0.393377713037353
 31
0.0
  0
LINE
  5
   369
  8
0
  6
CONTINUOUS
 62
     1
 10
-50.5455382160061
 20
-22.1058840043074
 30
0.0
 11
-50.5455382160061
 21
-0.393377713037353
 31
0.0
  0
LINE
  5
   36A
  8
0
  6
CONTINUOUS
 62
     1
 10
-52.1655409196727
 20
-22.1058840043074
 30
0.0
 11
-52.1655409196727
 21
-0.393377713037353
 31
0.0
  0
LINE
  5
   36B
  8
0
  6
CONTINUOUS
 62
     1
 10
-53.7855367568844
 20
-22.1058840043074
 30
0.0
 11
-53.7855367568844
 21
-0.393377713037353
 31
0.0
  0
LINE
  5
   36C
  8
0
  6
CONTINUOUS
 62
     1
 10
-57.0255357269162
 20
-69.3558827526099
 30
0.0
 11
-57.0255357269162
 21
-22.1058840043074
 31
0.0
  0
LINE
  5
   36D
  8
0
  6
CONTINUOUS
 62
     1
 10
-55.4055394605511
 20
-69.3558827526099
 30
0.0
 11
-55.4055394605511
 21
-22.1058840043074
 31
0.0
  0
LINE
  5
   36E
  8
0
  6
CONTINUOUS
 62
     1
 10
-60.2655355552548
 20
-69.3558827526099
 30
0.0
 11
-60.2655355552548
 21
-22.1058840043074
 31
0.0
  0
LINE
  5
   36F
  8
0
  6
CONTINUOUS
 62
     1
 10
-58.6455354265088
 20
-69.3558827526099
 30
0.0
 11
-58.6455354265088
 21
-22.1058840043074
 31
0.0
  0
LINE
  5
   370
  8
0
  6
CONTINUOUS
 62
     1
 10
-50.5455382160061
 20
-69.3558827526099
 30
0.0
 11
-50.5455382160061
 21
-22.1058840043074
 31
0.0
  0
LINE
  5
   371
  8
0
  6
CONTINUOUS
 62
     1
 10
-48.9255423787944
 20
-69.3558827526099
 30
0.0
 11
-48.9255423787944
 21
-22.1058840043074
 31
0.0
  0
LINE
  5
   372
  8
0
  6
CONTINUOUS
 62
     1
 10
-53.7855367568844
 20
-69.3558827526099
 30
0.0
 11
-53.7855367568844
 21
-22.1058840043074
 31
0.0
  0
LINE
  5
   373
  8
0
  6
CONTINUOUS
 62
     1
 10
-52.1655409196727
 20
-69.3558827526099
 30
0.0
 11
-52.1655409196727
 21
-22.1058840043074
 31
0.0
  0
LINE
  5
   374
  8
0
  6
CONTINUOUS
 62
     1
 10
-61.8855352548474
 20
-69.3558827526099
 30
0.0
 11
-61.8855352548474
 21
-22.1058840043074
 31
0.0
  0
LINE
  5
   375
  8
0
  6
CONTINUOUS
 62
     1
 10
-62.92053531326
 20
-69.3558827526099
 30
0.0
 11
-62.92053531326
 21
-22.1058840043074
 31
0.0
  0
LINE
  5
   376
  8
0
  6
CONTINUOUS
 62
     1
 10
-61.8855352548474
 20
-97.3683820124917
 30
0.0
 11
-61.8855352548474
 21
-79.8183756089934
 31
0.0
  0
LINE
  5
   377
  8
0
  6
CONTINUOUS
 62
     1
 10
-62.92053531326
 20
-97.3683820124917
 30
0.0
 11
-62.92053531326
 21
-79.8183756089934
 31
0.0
  0
LINE
  5
   378
  8
0
  6
CONTINUOUS
 62
     1
 10
-55.4055394605511
 20
-97.3683820124917
 30
0.0
 11
-55.4055394605511
 21
-79.8183756089934
 31
0.0
  0
LINE
  5
   379
  8
0
  6
CONTINUOUS
 62
     1
 10
-57.0255352977628
 20
-97.3683820124917
 30
0.0
 11
-57.0255352977628
 21
-79.8183756089934
 31
0.0
  0
LINE
  5
   37A
  8
0
  6
CONTINUOUS
 62
     1
 10
-58.6455354265088
 20
-97.3683820124917
 30
0.0
 11
-58.6455354265088
 21
-79.8183756089934
 31
0.0
  0
LINE
  5
   37B
  8
0
  6
CONTINUOUS
 62
     1
 10
-60.2655355552548
 20
-97.3683820124917
 30
0.0
 11
-60.2655355552548
 21
-79.8183756089934
 31
0.0
  0
LINE
  5
   37C
  8
0
  6
CONTINUOUS
 62
     1
 10
-16.6155418614261
 20
-97.3683820124917
 30
0.0
 11
-16.6155418614261
 21
-81.9558815605165
 31
0.0
  0
LINE
  5
   37D
  8
0
  6
CONTINUOUS
 62
     1
 10
-48.9255355123395
 20
-97.3683820124917
 30
0.0
 11
-48.9255355123395
 21
-79.8183756089934
 31
0.0
  0
LINE
  5
   37E
  8
0
  6
CONTINUOUS
 62
     1
 10
-50.5455382160061
 20
-97.3683820124917
 30
0.0
 11
-50.5455382160061
 21
-79.8183756089934
 31
0.0
  0
LINE
  5
   37F
  8
0
  6
CONTINUOUS
 62
     1
 10
-52.1655409196727
 20
-97.3683820124917
 30
0.0
 11
-52.1655409196727
 21
-79.8183756089934
 31
0.0
  0
LINE
  5
   380
  8
0
  6
CONTINUOUS
 62
     1
 10
-53.7855367568844
 20
-97.3683820124917
 30
0.0
 11
-53.7855367568844
 21
-79.8183756089934
 31
0.0
  0
LINE
  5
   381
  8
0
  6
CONTINUOUS
 62
     1
 10
45.6869519650936
 20
-2.64337765343272
 30
0.0
 11
-15.9630464017391
 21
-2.64337765343272
 31
0.0
  0
LINE
  5
   382
  8
0
  6
CONTINUOUS
 62
     1
 10
45.6869519650936
 20
-9.50588519639983
 30
0.0
 11
45.6869519650936
 21
-2.64337765343272
 31
0.0
  0
LINE
  5
   383
  8
0
  6
CONTINUOUS
 62
     1
 10
-15.9630464017391
 20
-9.50588519639983
 30
0.0
 11
-15.9630464017391
 21
-2.64337765343272
 31
0.0
  0
ARC
  5
   384
  8
0
  6
CONTINUOUS
 62
     1
 10
-63.5505351249093
 20
-22.330883998347
 30
0.0
 40
0.224999994039536
 50
89.9999999480344
 51
179.999999948034
  0
ARC
  5
   385
  8
0
  6
CONTINUOUS
 62
     1
 10
61.774461555112
 20
-22.330883998347
 30
0.0
 40
0.224999994039536
 50
359.999999948034
 51
449.999999948034
  0
ARC
  5
   386
  8
0
  6
CONTINUOUS
 62
     1
 10
61.774461555112
 20
-69.1308827585703
 30
0.0
 40
0.224999994039536
 50
269.999999948034
 51
359.999999948034
  0
ARC
  5
   387
  8
0
  6
CONTINUOUS
 62
     1
 10
-63.5505351249093
 20
-69.1308827585704
 30
0.0
 40
0.224999994039536
 50
179.999999948034
 51
269.999999948034
  0
LINE
  5
   388
  8
0
  6
CONTINUOUS
 62
     3
 10
46.3619519472119
 20
-69.1308689923276
 30
0.0
 11
46.3619519472119
 21
-65.30586934506
 31
0.0
  0
LINE
  5
   389
  8
0
  6
CONTINUOUS
 62
     3
 10
46.1369519198407
 20
-69.3558690196995
 30
0.0
 11
-16.413032690241
 21
-69.3558690196995
 31
0.0
  0
LINE
  5
   38A
  8
0
  6
CONTINUOUS
 62
     3
 10
-16.6380326509476
 20
-69.1308690589922
 30
0.0
 11
-16.6380326509476
 21
-65.30586934506
 31
0.0
  0
LINE
  5
   38B
  8
0
  6
CONTINUOUS
 62
     3
 10
46.1369448628108
 20
-22.105884004307
 30
0.0
 11
-16.4130395482417
 21
-22.105884004307
 31
0.0
  0
LINE
  5
   38C
  8
0
  6
CONTINUOUS
 62
     1
 10
46.3619244813926
 20
-27.5058838612561
 30
0.0
 11
-16.6380326509479
 21
-27.5058838612561
 31
0.0
  0
LINE
  5
   38D
  8
0
  6
CONTINUOUS
 62
     1
 10
46.3619382143024
 20
-23.0058839804654
 30
0.0
 11
-16.6380326509479
 21
-23.0058839804654
 31
0.0
  0
LINE
  5
   38E
  8
0
  6
CONTINUOUS
 62
     1
 10
24.3119525313377
 20
-39.768369803501
 30
0.0
 11
5.41195303201677
 21
-39.768369803501
 31
0.0
  0
LINE
  5
   38F
  8
0
  6
CONTINUOUS
 62
     7
 10
24.3119525313378
 20
-67.5239652691458
 30
0.0
 11
24.3119525313378
 21
-55.6340417985767
 31
0.0
  0
LINE
  5
   390
  8
0
  6
CONTINUOUS
 62
     7
 10
5.41195303201678
 20
-67.5239652691458
 30
0.0
 11
5.41195303201678
 21
-55.6340417985767
 31
0.0
  0
LINE
  5
   391
  8
0
  6
CONTINUOUS
 62
     7
 10
24.3119525313377
 20
-39.555441037169
 30
0.0
 11
5.41195303201677
 21
-39.555441037169
 31
0.0
  0
LINE
  5
   392
  8
0
  6
DASHDOT
 62
     7
 10
14.8619527816773
 20
-79.4086755760344
 30
0.0
 11
14.8619527816773
 21
34.8990309152043
 31
0.0
  0
LINE
  5
   393
  8
0
  6
CONTINUOUS
 62
   218
 10
46.361965680119
 20
-37.8558696551256
 30
0.0
 11
46.361965680119
 21
-22.3308804407283
 31
0.0
  0
LINE
  5
   394
  8
0
  6
CONTINUOUS
 62
   218
 10
46.3619519472122
 20
-56.3058693654069
 30
0.0
 11
46.3619519472122
 21
-46.8558696157464
 31
0.0
  0
LINE
  5
   395
  8
0
  6
CONTINUOUS
 62
   218
 10
46.3619519472122
 20
-46.4058696276673
 30
0.0
 11
46.3619519472122
 21
-38.305869842244
 31
0.0
  0
LINE
  5
   396
  8
0
  6
CONTINUOUS
 62
   218
 10
46.3619519472122
 20
-64.8558622724543
 30
0.0
 11
46.3619519472122
 21
-56.7558693534859
 31
0.0
  0
LINE
  5
   397
  8
0
  6
CONTINUOUS
 62
   218
 10
-16.6380395174028
 20
-64.8558691389092
 30
0.0
 11
-16.6380395174028
 21
-56.7558762199408
 31
0.0
  0
LINE
  5
   398
  8
0
  6
CONTINUOUS
 62
   218
 10
-16.6380395174028
 20
-37.8558767206198
 30
0.0
 11
-16.6380395174028
 21
-22.3308874564508
 31
0.0
  0
LINE
  5
   399
  8
0
  6
CONTINUOUS
 62
   218
 10
-16.6380395174028
 20
-56.3058762318618
 30
0.0
 11
-16.6380395174028
 21
-46.8558764822013
 31
0.0
  0
LINE
  5
   39A
  8
0
  6
CONTINUOUS
 62
   218
 10
-16.6380395174028
 20
-46.4058764941222
 30
0.0
 11
-16.6380395174028
 21
-38.3058767086989
 31
0.0
  0
LINE
  5
   39B
  8
0
  6
CONTINUOUS
 62
   218
 10
46.3619519472122
 20
-56.7558693534859
 30
0.0
 11
45.9119588255881
 21
-56.7558693534859
 31
0.0
  0
LINE
  5
   39C
  8
0
  6
CONTINUOUS
 62
     1
 10
5.41195303201677
 20
-56.7558693534859
 30
0.0
 11
-16.1880395293237
 21
-56.7558693534859
 31
0.0
  0
LINE
  5
   39D
  8
0
  6
CONTINUOUS
 62
   218
 10
46.3619519472122
 20
-56.3058693654069
 30
0.0
 11
45.9119588255881
 21
-56.3058693654069
 31
0.0
  0
LINE
  5
   39E
  8
0
  6
CONTINUOUS
 62
     1
 10
5.41195303201677
 20
-56.3058693654069
 30
0.0
 11
-16.591443754477
 21
-56.3058693654069
 31
0.0
  0
LINE
  5
   39F
  8
0
  6
CONTINUOUS
 62
   218
 10
45.9119588255881
 20
-56.7558693534859
 30
0.0
 11
45.9119588255881
 21
-56.3058693654069
 31
0.0
  0
LINE
  5
   3A0
  8
0
  6
CONTINUOUS
 62
   218
 10
-16.1880395293237
 20
-56.7558693534859
 30
0.0
 11
-16.1880395293237
 21
-56.3058693654069
 31
0.0
  0
LINE
  5
   3A1
  8
0
  6
CONTINUOUS
 62
   218
 10
-16.6380395244327
 20
-56.3058830966927
 30
0.0
 11
-16.1880395363639
 21
-56.3058762302378
 31
0.0
  0
LINE
  5
   3A2
  8
0
  6
CONTINUOUS
 62
   218
 10
46.3619519472122
 20
-64.8558669931418
 30
0.0
 11
45.9119588255881
 21
-64.8558669931418
 31
0.0
  0
LINE
  5
   3A3
  8
0
  6
CONTINUOUS
 62
   218
 10
45.9119588255881
 20
-65.3058644063005
 30
0.0
 11
45.9119588255881
 21
-64.8558644182215
 31
0.0
  0
LINE
  5
   3A4
  8
0
  6
CONTINUOUS
 62
   218
 10
46.3619519472122
 20
-38.305869842244
 30
0.0
 11
45.9119519591332
 21
-38.305869842244
 31
0.0
  0
LINE
  5
   3A5
  8
0
  6
CONTINUOUS
 62
   218
 10
46.361951748182
 20
-37.8558698541649
 30
0.0
 11
45.9119519591332
 21
-37.8558698541649
 31
0.0
  0
LINE
  5
   3A6
  8
0
  6
CONTINUOUS
 62
   218
 10
45.9119519591332
 20
-38.305869842244
 30
0.0
 11
45.9119519591332
 21
-37.8558698541649
 31
0.0
  0
LINE
  5
   3A7
  8
0
  6
CONTINUOUS
 62
   218
 10
-16.6380395244327
 20
-37.8558835833029
 30
0.0
 11
-16.1880395363639
 21
-37.855876716848
 31
0.0
  0
LINE
  5
   3A8
  8
0
  6
CONTINUOUS
 62
   218
 10
46.3619519472122
 20
-46.8558696157464
 30
0.0
 11
45.9119519591332
 21
-46.8558696157464
 31
0.0
  0
LINE
  5
   3A9
  8
0
  6
CONTINUOUS
 62
     1
 10
5.41195303201677
 20
-46.8558696157464
 30
0.0
 11
-16.1880395293237
 21
-46.8558696157464
 31
0.0
  0
LINE
  5
   3AA
  8
0
  6
CONTINUOUS
 62
   218
 10
46.3619519472122
 20
-46.4058696276673
 30
0.0
 11
45.9119519591332
 21
-46.4058696276673
 31
0.0
  0
LINE
  5
   3AB
  8
0
  6
CONTINUOUS
 62
     1
 10
5.41195303201677
 20
-46.4058696276673
 30
0.0
 11
-16.1880395293237
 21
-46.4058696276673
 31
0.0
  0
LINE
  5
   3AC
  8
0
  6
CONTINUOUS
 62
   218
 10
45.9119519591332
 20
-46.8558696157464
 30
0.0
 11
45.9119519591332
 21
-46.4058696276673
 31
0.0
  0
LINE
  5
   3AD
  8
0
  6
CONTINUOUS
 62
     7
 10
-16.1880326628686
 20
-65.3058692783954
 30
0.0
 11
-16.1880326628686
 21
-64.8558693232113
 31
0.0
  0
LINE
  5
   3AE
  8
0
  6
CONTINUOUS
 62
     7
 10
-16.1880395293237
 20
-46.8558764822013
 30
0.0
 11
-16.1880395293237
 21
-46.4058696276673
 31
0.0
  0
LINE
  5
   3AF
  8
0
  6
CONTINUOUS
 62
     7
 10
-16.1880395293237
 20
-38.3058767086989
 30
0.0
 11
-16.1880395293237
 21
-37.855869854165
 31
0.0
  0
ARC
  5
   3B0
  8
0
  6
CONTINUOUS
 62
     7
 10
-16.4130395233633
 20
-22.3308874564508
 30
0.0
 40
0.224999994039536
 50
90.0000062832808
 51
179.999999948034
  0
ARC
  5
   3B1
  8
0
  6
CONTINUOUS
 62
     7
 10
46.1369448876893
 20
-22.3308805402422
 30
0.0
 40
0.224999994039536
 50
360.000025289036
 51
450.000006283281
  0
ARC
  5
   3B2
  8
0
  6
CONTINUOUS
 62
     7
 10
46.1369519198407
 20
-69.1308690256599
 30
0.0
 40
0.224999994039536
 50
269.999999948034
 51
360.000008436035
  0
ARC
  5
   3B3
  8
0
  6
CONTINUOUS
 62
     7
 10
-16.413032690241
 20
-69.1308690256599
 30
0.0
 40
0.224999994039536
 50
180.000008436035
 51
269.999999948034
  0
LINE
  5
   3B4
  8
0
  6
CONTINUOUS
 62
     1
 10
4.17445306479934
 20
-64.855867795159
 30
0.0
 11
4.17445306479934
 21
-56.7558693534859
 31
0.0
  0
LINE
  5
   3B5
  8
0
  6
CONTINUOUS
 62
     1
 10
25.5494524985552
 20
-64.8558661911251
 30
0.0
 11
25.5494524985552
 21
-56.7558693534859
 31
0.0
  0
LINE
  5
   3B6
  8
0
  6
CONTINUOUS
 62
     1
 10
4.17445306479934
 20
-46.4058696276673
 30
0.0
 11
4.17445306479934
 21
-38.305869842244
 31
0.0
  0
LINE
  5
   3B7
  8
0
  6
CONTINUOUS
 62
     1
 10
25.5494524985552
 20
-46.4058696276673
 30
0.0
 11
25.5494524985552
 21
-38.305869842244
 31
0.0
  0
LINE
  5
   3B8
  8
0
  6
CONTINUOUS
 62
     1
 10
0.124453172087685
 20
-40.3308697885998
 30
0.0
 11
-0.550546810030921
 21
-40.3308697885998
 31
0.0
  0
LINE
  5
   3B9
  8
0
  6
CONTINUOUS
 62
     1
 10
0.124453172087685
 20
-44.3808696813115
 30
0.0
 11
-0.550546810030921
 21
-44.3808696813115
 31
0.0
  0
LINE
  5
   3BA
  8
0
  6
CONTINUOUS
 62
     1
 10
-0.550546810030909
 20
-44.3808696813115
 30
0.0
 11
-0.550546810030909
 21
-40.3308697885998
 31
0.0
  0
LINE
  5
   3BB
  8
0
  6
CONTINUOUS
 62
     1
 10
0.124453172087698
 20
-44.3808696813115
 30
0.0
 11
0.124453172087698
 21
-40.3308697885999
 31
0.0
  0
CIRCLE
  5
   3BC
  8
0
  6
CONTINUOUS
 62
     1
 10
-0.213046818971611
 20
-60.8058692461976
 30
0.0
 40
2.02499994635582
  0
CIRCLE
  5
   3BD
  8
0
  6
CONTINUOUS
 62
     1
 10
-0.213046818971611
 20
-60.8058692461976
 30
0.0
 40
1.34999996423721
  0
LINE
  5
   3BE
  8
0
  6
CONTINUOUS
 62
     2
 10
-62.7630588024281
 20
-108.70837518699
 30
0.0
 11
-63.7755351189488
 21
-108.70837518699
 31
0.0
  0
LINE
  5
   3BF
  8
0
  6
CONTINUOUS
 62
     2
 10
-62.7630588024281
 20
-109.293375257323
 30
0.0
 11
-62.7630588024281
 21
-108.70837518699
 31
0.0
  0
LINE
  5
   3C0
  8
0
  6
CONTINUOUS
 62
     2
 10
-1.90056728118867
 20
-109.968374810286
 30
0.0
 11
-31.3755665003678
 21
-109.968374810286
 31
0.0
  0
LINE
  5
   3C1
  8
0
  6
CONTINUOUS
 62
     2
 10
29.5994387508012
 20
-109.968374810287
 30
0.0
 11
0.124439531622048
 21
-109.968374810287
 31
0.0
  0
LINE
  5
   3C2
  8
0
  6
CONTINUOUS
 62
     2
 10
60.3119310707429
 20
-109.968374810312
 30
0.0
 11
31.624438697157
 21
-109.968374810312
 31
0.0
  0
LINE
  5
   3C3
  8
0
  6
CONTINUOUS
 62
     2
 10
60.9869310528615
 20
-109.29337482817
 30
0.0
 11
60.9869310528615
 21
-108.70837518699
 31
0.0
  0
LINE
  5
   3C4
  8
0
  6
CONTINUOUS
 62
     2
 10
61.9994615491515
 20
-108.70837518699
 30
0.0
 11
60.9869310528615
 21
-108.70837518699
 31
0.0
  0
LINE
  5
   3C5
  8
0
  6
CONTINUOUS
 62
     1
 10
-28.1130601494931
 20
-99.1683819628454
 30
0.0
 11
-63.7755351189488
 21
-99.1683819628454
 31
0.0
  0
LINE
  5
   3C6
  8
0
  6
CONTINUOUS
 62
     1
 10
-9.88806020313728
 20
-99.1683819628454
 30
0.0
 11
-24.9630666702411
 21
-99.1683819628454
 31
0.0
  0
LINE
  5
   3C7
  8
0
  6
CONTINUOUS
 62
     1
 10
23.1869320542195
 20
-99.1683819628454
 30
0.0
 11
-7.63806712919682
 21
-99.1683819628454
 31
0.0
  0
LINE
  5
   3C8
  8
0
  6
CONTINUOUS
 62
     1
 10
37.3619316787103
 20
-99.1683819628454
 30
0.0
 11
26.336931970773
 21
-99.1683819628454
 31
0.0
  0
LINE
  5
   3C9
  8
0
  6
CONTINUOUS
 62
     1
 10
54.6869263005224
 20
-99.1683947733923
 30
0.0
 11
39.6119266998735
 21
-99.1683947733923
 31
0.0
  0
LINE
  5
   3CA
  8
0
  6
CONTINUOUS
 62
     1
 10
60.9869339970927
 20
-99.1683863764391
 30
0.0
 11
57.8369272147577
 21
-99.1683795099868
 31
0.0
  0
LINE
  5
   3CB
  8
0
  6
CONTINUOUS
 62
     1
 10
60.9869241863824
 20
-108.708375446145
 30
0.0
 11
60.9869241863824
 21
-99.1683839386148
 31
0.0
  0
LINE
  5
   3CC
  8
0
  6
CONTINUOUS
 62
     1
 10
-30.1380600958489
 20
-97.3683751440742
 30
0.0
 11
-31.6005600571059
 21
-97.3683751440742
 31
0.0
  0
LINE
  5
   3CD
  8
0
  6
CONTINUOUS
 62
     1
 10
-62.7630588024281
 20
-108.70837518699
 30
0.0
 11
-62.7630588024281
 21
-99.1683836794591
 31
0.0
  0
LINE
  5
   3CE
  8
0
  6
CONTINUOUS
 62
     1
 10
39.6119316191056
 20
-99.1683750963905
 30
0.0
 11
37.3619385451652
 21
-99.1683750963905
 31
0.0
  0
LINE
  5
   3CF
  8
0
  6
CONTINUOUS
 62
     1
 10
51.5369351423945
 20
-101.193382167997
 30
0.0
 11
49.0712873200018
 21
-101.193375301544
 31
0.0
  0
LINE
  5
   3D0
  8
0
  6
CONTINUOUS
 62
     1
 10
43.6525763728386
 20
-101.193387677081
 30
0.0
 11
41.1869285504459
 21
-101.193380810628
 31
0.0
  0
LINE
  5
   3D1
  8
0
  6
CONTINUOUS
 62
     1
 10
43.6525794002486
 20
-106.593374899695
 30
0.0
 11
41.1869315773824
 21
-106.593374899695
 31
0.0
  0
LINE
  5
   3D2
  8
0
  6
CONTINUOUS
 62
     1
 10
51.536931303201
 20
-106.593374899695
 30
0.0
 11
49.0712903467897
 21
-106.593374899695
 31
0.0
  0
LINE
  5
   3D3
  8
0
  6
CONTINUOUS
 62
     1
 10
57.836931136308
 20
-99.1683750963905
 30
0.0
 11
54.6869312197545
 21
-99.1683750963905
 31
0.0
  0
LINE
  5
   3D4
  8
0
  6
CONTINUOUS
 62
     1
 10
-7.63807399565172
 20
-99.1683750963905
 30
0.0
 11
-9.88806020313728
 21
-99.1683750963905
 31
0.0
  0
LINE
  5
   3D5
  8
0
  6
CONTINUOUS
 62
     1
 10
-11.4630631885251
 20
-101.193385250448
 30
0.0
 11
-13.9287110109179
 21
-101.193378383995
 31
0.0
  0
LINE
  5
   3D6
  8
0
  6
CONTINUOUS
 62
     1
 10
-19.347421958062
 20
-101.193383893077
 30
0.0
 11
-21.8130697810288
 21
-101.193377026625
 31
0.0
  0
LINE
  5
   3D7
  8
0
  6
CONTINUOUS
 62
     1
 10
-19.3474189308213
 20
-106.593374899695
 30
0.0
 11
-21.8130667536876
 21
-106.593374899695
 31
0.0
  0
LINE
  5
   3D8
  8
0
  6
CONTINUOUS
 62
     1
 10
-11.4630670278689
 20
-106.593374899695
 30
0.0
 11
-13.9287079842803
 21
-106.593374899695
 31
0.0
  0
LINE
  5
   3D9
  8
0
  6
CONTINUOUS
 62
     1
 10
-24.9630670993945
 20
-99.1683750963905
 30
0.0
 11
-28.1130601494931
 21
-99.1683750963905
 31
0.0
  0
LINE
  5
   3DA
  8
0
  6
CONTINUOUS
 62
     1
 10
20.0369359769347
 20
-101.193383709222
 30
0.0
 11
17.5712881539679
 21
-101.19337684277
 31
0.0
  0
LINE
  5
   3DB
  8
0
  6
CONTINUOUS
 62
     1
 10
12.1525772073979
 20
-101.193382351852
 30
0.0
 11
9.68692938443107
 21
-101.193375485399
 31
0.0
  0
LINE
  5
   3DC
  8
0
  6
CONTINUOUS
 62
     1
 10
12.1525802347136
 20
-106.593374899695
 30
0.0
 11
9.68693241184741
 21
-106.593374899695
 31
0.0
  0
LINE
  5
   3DD
  8
0
  6
CONTINUOUS
 62
     1
 10
20.036932137666
 20
-106.593374899695
 30
0.0
 11
17.5712911812547
 21
-106.593374899695
 31
0.0
  0
LINE
  5
   3DE
  8
0
  6
CONTINUOUS
 62
     1
 10
26.336931970773
 20
-99.1683750963905
 30
0.0
 11
23.1869320542195
 21
-99.1683750963905
 31
0.0
  0
LINE
  5
   3DF
  8
0
  6
CONTINUOUS
 62
     2
 10
32.1869386822559
 20
-108.843374840091
 30
0.0
 11
32.1869386822559
 21
-106.818374893735
 31
0.0
  0
LINE
  5
   3E0
  8
0
  6
CONTINUOUS
 62
     2
 10
32.1869386822559
 20
-108.843374840091
 30
0.0
 11
31.624438697157
 21
-108.843374840091
 31
0.0
  0
LINE
  5
   3E1
  8
0
  6
CONTINUOUS
 62
     2
 10
31.624438697157
 20
-109.968374810296
 30
0.0
 11
31.624438697157
 21
-108.843374840098
 31
0.0
  0
LINE
  5
   3E2
  8
0
  6
CONTINUOUS
 62
     2
 10
29.5994387508012
 20
-109.968374810287
 30
0.0
 11
29.5994387508012
 21
-108.84337484009
 31
0.0
  0
LINE
  5
   3E3
  8
0
  6
CONTINUOUS
 62
     2
 10
29.5994387508012
 20
-108.843374840091
 30
0.0
 11
29.0369387657024
 21
-108.843374840091
 31
0.0
  0
LINE
  5
   3E4
  8
0
  6
CONTINUOUS
 62
     2
 10
29.0369387657024
 20
-108.843374840091
 30
0.0
 11
29.0369387657024
 21
-106.818374893735
 31
0.0
  0
LINE
  5
   3E5
  8
0
  6
CONTINUOUS
 62
     2
 10
32.1869386822559
 20
-106.818374893735
 30
0.0
 11
29.0369387657024
 21
-106.818374893735
 31
0.0
  0
LINE
  5
   3E6
  8
0
  6
CONTINUOUS
 62
     2
 10
-2.46306726628751
 20
-108.843374840091
 30
0.0
 11
-2.46306726628751
 21
-106.818374893735
 31
0.0
  0
LINE
  5
   3E7
  8
0
  6
CONTINUOUS
 62
     2
 10
-1.90056728118867
 20
-108.843374840091
 30
0.0
 11
-2.46306726628751
 21
-108.843374840091
 31
0.0
  0
LINE
  5
   3E8
  8
0
  6
CONTINUOUS
 62
     2
 10
-1.90056728118867
 20
-109.968374810296
 30
0.0
 11
-1.90056728118867
 21
-108.843374840098
 31
0.0
  0
LINE
  5
   3E9
  8
0
  6
CONTINUOUS
 62
     2
 10
0.124432665167149
 20
-109.968374810287
 30
0.0
 11
0.124432665167149
 21
-108.84337484009
 31
0.0
  0
LINE
  5
   3EA
  8
0
  6
CONTINUOUS
 62
     2
 10
0.686932650265991
 20
-108.843374840091
 30
0.0
 11
0.124432665167152
 21
-108.843374840091
 31
0.0
  0
LINE
  5
   3EB
  8
0
  6
CONTINUOUS
 62
     2
 10
0.686932650265986
 20
-108.843374840091
 30
0.0
 11
0.686932650265986
 21
-106.818374893735
 31
0.0
  0
LINE
  5
   3EC
  8
0
  6
CONTINUOUS
 62
     2
 10
0.686932650265991
 20
-106.818374893735
 30
0.0
 11
-2.46306726628751
 21
-106.818374893735
 31
0.0
  0
ARC
  5
   3ED
  8
0
  6
CONTINUOUS
 62
     2
 10
-62.0880610260112
 20
-109.293376061885
 30
0.0
 40
0.674998158905646
 50
179.999941123702
 51
270.000103159103
  0
CIRCLE
  5
   3EE
  8
0
  6
CONTINUOUS
 62
     1
 10
-60.9630598467125
 20
-108.168375499465
 30
0.0
 40
0.630000497878804
  0
ARC
  5
   3EF
  8
0
  6
CONTINUOUS
 62
     1
 10
-21.8130747052932
 20
-103.893380953544
 30
0.0
 40
2.69999738401634
 50
90.0001399327154
 51
270.000100332566
  0
ARC
  5
   3F0
  8
0
  6
CONTINUOUS
 62
     1
 10
-16.6380714089019
 20
-103.893333686258
 30
0.0
 40
3.82504183567352
 50
404.899302393594
 51
495.100813987516
  0
ARC
  5
   3F1
  8
0
  6
CONTINUOUS
 62
     1
 10
-11.4630651539139
 20
-103.893378211249
 30
0.0
 40
2.69999367071187
 50
269.999747131106
 51
450.000048027357
  0
CIRCLE
  5
   3F2
  8
0
  6
CONTINUOUS
 62
     1
 10
-0.888061432522107
 20
-102.993358861689
 30
0.0
 40
2.36248745863058
  0
CIRCLE
  5
   3F3
  8
0
  6
CONTINUOUS
 62
     1
 10
-0.888073846743641
 20
-102.993388908131
 30
0.0
 40
1.23750949026183
  0
ARC
  5
   3F4
  8
0
  6
CONTINUOUS
 62
     1
 10
9.68689378260743
 20
-103.893401649741
 30
0.0
 40
2.6999588909701
 50
449.999680793011
 51
630.000858183329
  0
ARC
  5
   3F5
  8
0
  6
CONTINUOUS
 62
     1
 10
14.8619527816773
 20
-103.893368410314
 30
0.0
 40
3.82499575272611
 50
404.900757179708
 51
495.099359217673
  0
ARC
  5
   3F6
  8
0
  6
CONTINUOUS
 62
     1
 10
20.0369330511105
 20
-103.893377594415
 30
0.0
 40
2.69999521855754
 50
269.999783457987
 51
450.000092622467
  0
CIRCLE
  5
   3F7
  8
0
  6
CONTINUOUS
 62
     1
 10
30.6119829037539
 20
-102.993440773709
 30
0.0
 40
2.36257180416723
  0
CIRCLE
  5
   3F8
  8
0
  6
CONTINUOUS
 62
     1
 10
30.6119127501589
 20
-102.993350494584
 30
0.0
 40
1.23747207015985
  0
ARC
  5
   3F9
  8
0
  6
CONTINUOUS
 62
     1
 10
41.186914917639
 20
-103.893376266371
 30
0.0
 40
2.69999133592634
 50
90.0003609959681
 51
270.000490903722
  0
ARC
  5
   3FA
  8
0
  6
CONTINUOUS
 62
     1
 10
51.5368682144451
 20
-103.893366450632
 30
0.0
 40
2.70005302328714
 50
270.001034630644
 51
449.998799421533
  0
ARC
  5
   3FB
  8
0
  6
CONTINUOUS
 62
     1
 10
46.3618967614196
 20
-103.893396501507
 30
0.0
 40
3.82500495650487
 50
404.901246442185
 51
495.09901516511
  0
CIRCLE
  5
   3FC
  8
0
  6
CONTINUOUS
 62
     1
 10
59.1869308674201
 20
-108.168378236975
 30
0.0
 40
0.629998362391338
  0
ARC
  5
   3FD
  8
0
  6
CONTINUOUS
 62
     1
 10
46.3618967614196
 20
-103.893396501507
 30
0.0
 40
3.82500495650487
 50
224.900341297451
 51
315.099658598617
  0
ARC
  5
   3FE
  8
0
  6
CONTINUOUS
 62
     1
 10
14.8619527816773
 20
-103.893368410314
 30
0.0
 40
3.82499575272611
 50
224.901072739214
 51
315.098927156855
  0
ARC
  5
   3FF
  8
0
  6
CONTINUOUS
 62
     1
 10
-16.6380714089019
 20
-103.893333686258
 30
0.0
 40
3.82504183567352
 50
224.901119153159
 51
315.09888074291
  0
LINE
  5
   400
  8
0
  6
DASHDOT
 62
     2
 10
-11.4630651539139
 20
-107.943371846198
 30
0.0
 11
-11.4630651539139
 21
-99.8433845762997
 31
0.0
  0
LINE
  5
   401
  8
0
  6
DASHDOT
 62
     2
 10
-7.41307151896486
 20
-103.893378211249
 30
0.0
 11
-15.513058788863
 21
-103.893378211249
 31
0.0
  0
LINE
  5
   402
  8
0
  6
DASHDOT
 62
     2
 10
-21.8130747052932
 20
-107.943378301797
 30
0.0
 11
-21.8130747052932
 21
-99.84338360529
 31
0.0
  0
LINE
  5
   403
  8
0
  6
DASHDOT
 62
     2
 10
-17.7630773570396
 20
-103.893380953544
 30
0.0
 11
-25.8630720535467
 21
-103.893380953544
 31
0.0
  0
LINE
  5
   404
  8
0
  6
DASHDOT
 62
     2
 10
9.68689378260743
 20
-107.943360504949
 30
0.0
 11
9.68689378260743
 21
-99.843442794534
 31
0.0
  0
LINE
  5
   405
  8
0
  6
DASHDOT
 62
     2
 10
13.7368526378147
 20
-103.893401649741
 30
0.0
 11
5.63693492740011
 21
-103.893401649741
 31
0.0
  0
LINE
  5
   406
  8
0
  6
DASHDOT
 62
     2
 10
14.8619527816773
 20
-112.08887375208
 30
0.0
 11
14.8619527816773
 21
-77.4311091299198
 31
0.0
  0
LINE
  5
   407
  8
0
  6
DASHDOT
 62
     2
 10
20.0369330511105
 20
-107.94337277721
 30
0.0
 11
20.0369330511105
 21
-99.8433824116206
 31
0.0
  0
LINE
  5
   408
  8
0
  6
DASHDOT
 62
     2
 10
24.0869282339053
 20
-103.893377594415
 30
0.0
 11
15.9869378683158
 21
-103.893377594415
 31
0.0
  0
LINE
  5
   409
  8
0
  6
DASHDOT
 62
     2
 10
41.186914917639
 20
-107.943367566535
 30
0.0
 11
41.186914917639
 21
-99.8433849662079
 31
0.0
  0
LINE
  5
   40A
  8
0
  6
DASHDOT
 62
     2
 10
45.2369062178026
 20
-103.893376266371
 30
0.0
 11
37.1369236174754
 21
-103.893376266371
 31
0.0
  0
LINE
  5
   40B
  8
0
  6
DASHDOT
 62
     2
 10
51.5368682144451
 20
-107.943419438156
 30
0.0
 11
51.5368682144451
 21
-99.8433134631074
 31
0.0
  0
LINE
  5
   40C
  8
0
  6
DASHDOT
 62
     2
 10
55.5869212019695
 20
-103.893366450632
 30
0.0
 11
47.4868152269208
 21
-103.893366450632
 31
0.0
  0
LINE
  5
   40D
  8
0
  6
DASHDOT
 62
     2
 10
59.1869308674201
 20
-110.148376563603
 30
0.0
 11
59.1869308674201
 21
-106.188379910346
 31
0.0
  0
LINE
  5
   40E
  8
0
  6
DASHDOT
 62
     2
 10
-60.9630598467125
 20
-110.148375961581
 30
0.0
 11
-60.9630598467125
 21
-106.188375037349
 31
0.0
  0
LINE
  5
   40F
  8
0
  6
DASHDOT
 62
     2
 10
-58.9830593845965
 20
-108.168375499465
 30
0.0
 11
-62.9430603088285
 21
-108.168375499465
 31
0.0
  0
ARC
  5
   410
  8
0
  6
CONTINUOUS
 62
     2
 10
60.3119118747248
 20
-109.293380704047
 30
0.0
 40
0.675007545361396
 50
270.001088208967
 51
360.000070595423
  0
LINE
  5
   411
  8
0
  6
CONTINUOUS
 62
     1
 10
61.211931046901
 20
-97.3683820105291
 30
0.0
 11
61.211931046901
 21
-79.5933824814058
 31
0.0
  0
LINE
  5
   412
  8
0
  6
CONTINUOUS
 62
     1
 10
-62.9880351398105
 20
-97.3683751440742
 30
0.0
 11
-62.9880351398105
 21
-79.8183756089934
 31
0.0
  0
LINE
  5
   413
  8
0
  6
CONTINUOUS
 62
     1
 10
30.971952354908
 20
-59.0733692920931
 30
0.0
 11
30.7694523602724
 21
-59.0733692920931
 31
0.0
  0
LINE
  5
   414
  8
0
  6
CONTINUOUS
 62
     1
 10
30.5444523662329
 20
-62.538369200302
 30
0.0
 11
30.1844523757696
 21
-62.538369200302
 31
0.0
  0
LINE
  5
   415
  8
0
  6
CONTINUOUS
 62
     1
 10
27.3044524520636
 20
-61.3683692312964
 30
0.0
 11
27.3044524520636
 21
-61.1433692372569
 31
0.0
  0
LINE
  5
   416
  8
0
  6
CONTINUOUS
 62
     1
 10
29.6444523900747
 20
-61.3683692312964
 30
0.0
 11
29.6444523900747
 21
-61.1433692372569
 31
0.0
  0
ARC
  5
   417
  8
0
  6
CONTINUOUS
 62
     1
 10
28.4744524210692
 20
-61.1433692372569
 30
0.0
 40
1.16999996900559
 50
359.999999948034
 51
539.999999948034
  0
ARC
  5
   418
  8
0
  6
CONTINUOUS
 62
     1
 10
28.4744524210692
 20
-61.3683692312964
 30
0.0
 40
1.16999996900558
 50
179.999999948034
 51
359.999999948034
  0
ARC
  5
   419
  8
0
  6
CONTINUOUS
 62
     1
 10
28.4744524210692
 20
-61.1433692372569
 30
0.0
 40
0.809999978542329
 50
359.999999948034
 51
539.999999948034
  0
ARC
  5
   41A
  8
0
  6
CONTINUOUS
 62
     1
 10
28.4744524210692
 20
-61.3683692312964
 30
0.0
 40
0.809999978542327
 50
179.999999948034
 51
359.999999948034
  0
LINE
  5
   41B
  8
0
  6
CONTINUOUS
 62
     1
 10
27.6644524425268
 20
-61.3683692312964
 30
0.0
 11
27.6644524425268
 21
-61.1433692372569
 31
0.0
  0
LINE
  5
   41C
  8
0
  6
CONTINUOUS
 62
     1
 10
29.2844523996115
 20
-61.3683692312964
 30
0.0
 11
29.2844523996115
 21
-61.1433692372569
 31
0.0
  0
LINE
  5
   41D
  8
0
  6
CONTINUOUS
 62
     1
 10
29.7569523870945
 20
-60.5133692539462
 30
0.0
 11
29.7569523870945
 21
-60.1533692634829
 31
0.0
  0
LINE
  5
   41E
  8
0
  6
CONTINUOUS
 62
     1
 10
30.1844523757696
 20
-60.5133692539462
 30
0.0
 11
29.7569523870945
 21
-60.5133692539462
 31
0.0
  0
LINE
  5
   41F
  8
0
  6
CONTINUOUS
 62
     1
 10
30.971952354908
 20
-60.5133692539462
 30
0.0
 11
30.971952354908
 21
-60.1533692634829
 31
0.0
  0
LINE
  5
   420
  8
0
  6
CONTINUOUS
 62
     1
 10
30.1844523757696
 20
-60.1533692634829
 30
0.0
 11
29.7569523870945
 21
-60.1533692634829
 31
0.0
  0
LINE
  5
   421
  8
0
  6
CONTINUOUS
 62
     1
 10
30.1844523757696
 20
-62.538369200302
 30
0.0
 11
30.1844523757696
 21
-60.5133692539462
 31
0.0
  0
LINE
  5
   422
  8
0
  6
CONTINUOUS
 62
     1
 10
30.5444523662329
 20
-62.538369200302
 30
0.0
 11
30.5444523662329
 21
-60.5133692539462
 31
0.0
  0
LINE
  5
   423
  8
0
  6
CONTINUOUS
 62
     1
 10
30.971952354908
 20
-60.5133692539462
 30
0.0
 11
30.5444523662329
 21
-60.5133692539462
 31
0.0
  0
LINE
  5
   424
  8
0
  6
CONTINUOUS
 62
     1
 10
30.971952354908
 20
-60.1533692634829
 30
0.0
 11
30.5444523662329
 21
-60.1533692634829
 31
0.0
  0
LINE
  5
   425
  8
0
  6
CONTINUOUS
 62
     1
 10
30.1844523757696
 20
-60.1533692634829
 30
0.0
 11
30.1844523757696
 21
-59.6583692765959
 31
0.0
  0
LINE
  5
   426
  8
0
  6
CONTINUOUS
 62
     1
 10
30.5444523662329
 20
-60.1533692634829
 30
0.0
 11
30.5444523662329
 21
-59.6583692765959
 31
0.0
  0
ARC
  5
   427
  8
0
  6
CONTINUOUS
 62
     1
 10
30.7694523602724
 20
-59.6583692765959
 30
0.0
 40
0.584999984502792
 50
449.999999948034
 51
539.999999948034
  0
ARC
  5
   428
  8
0
  6
CONTINUOUS
 62
     1
 10
30.7694523602724
 20
-59.6583692765959
 30
0.0
 40
0.224999994039535
 50
449.999999948034
 51
539.999999948034
  0
LINE
  5
   429
  8
0
  6
CONTINUOUS
 62
     1
 10
30.971952354908
 20
-59.4333692825564
 30
0.0
 11
30.971952354908
 21
-59.0733692920931
 31
0.0
  0
LINE
  5
   42A
  8
0
  6
CONTINUOUS
 62
     1
 10
30.971952354908
 20
-59.4333692825564
 30
0.0
 11
30.7694523602724
 21
-59.4333692825564
 31
0.0
  0
LINE
  5
   42B
  8
0
  6
CONTINUOUS
 62
     1
 10
32.411952316761
 20
-59.0733692920931
 30
0.0
 11
32.2094523221254
 21
-59.0733692920931
 31
0.0
  0
LINE
  5
   42C
  8
0
  6
CONTINUOUS
 62
     1
 10
31.9844523280859
 20
-62.538369200302
 30
0.0
 11
31.6244523376226
 21
-62.538369200302
 31
0.0
  0
LINE
  5
   42D
  8
0
  6
CONTINUOUS
 62
     1
 10
31.1969523489475
 20
-60.5133692539462
 30
0.0
 11
31.1969523489475
 21
-60.1533692634829
 31
0.0
  0
LINE
  5
   42E
  8
0
  6
CONTINUOUS
 62
     1
 10
31.6244523376226
 20
-60.5133692539462
 30
0.0
 11
31.1969523489475
 21
-60.5133692539462
 31
0.0
  0
LINE
  5
   42F
  8
0
  6
CONTINUOUS
 62
     1
 10
32.411952316761
 20
-60.5133692539462
 30
0.0
 11
32.411952316761
 21
-60.1533692634829
 31
0.0
  0
LINE
  5
   430
  8
0
  6
CONTINUOUS
 62
     1
 10
31.6244523376226
 20
-60.1533692634829
 30
0.0
 11
31.1969523489475
 21
-60.1533692634829
 31
0.0
  0
LINE
  5
   431
  8
0
  6
CONTINUOUS
 62
     1
 10
31.6244523376226
 20
-62.538369200302
 30
0.0
 11
31.6244523376226
 21
-60.5133692539462
 31
0.0
  0
LINE
  5
   432
  8
0
  6
CONTINUOUS
 62
     1
 10
31.9844523280859
 20
-62.538369200302
 30
0.0
 11
31.9844523280859
 21
-60.5133692539462
 31
0.0
  0
LINE
  5
   433
  8
0
  6
CONTINUOUS
 62
     1
 10
32.411952316761
 20
-60.5133692539462
 30
0.0
 11
31.9844523280859
 21
-60.5133692539462
 31
0.0
  0
LINE
  5
   434
  8
0
  6
CONTINUOUS
 62
     1
 10
32.411952316761
 20
-60.1533692634829
 30
0.0
 11
31.9844523280859
 21
-60.1533692634829
 31
0.0
  0
LINE
  5
   435
  8
0
  6
CONTINUOUS
 62
     1
 10
31.6244523376226
 20
-60.1533692634829
 30
0.0
 11
31.6244523376226
 21
-59.6583692765959
 31
0.0
  0
LINE
  5
   436
  8
0
  6
CONTINUOUS
 62
     1
 10
31.9844523280859
 20
-60.1533692634829
 30
0.0
 11
31.9844523280859
 21
-59.6583692765959
 31
0.0
  0
ARC
  5
   437
  8
0
  6
CONTINUOUS
 62
     1
 10
32.2094523221254
 20
-59.6583692765959
 30
0.0
 40
0.584999984502792
 50
449.999999948034
 51
539.999999948034
  0
ARC
  5
   438
  8
0
  6
CONTINUOUS
 62
     1
 10
32.2094523221254
 20
-59.6583692765959
 30
0.0
 40
0.224999994039535
 50
449.999999948034
 51
539.999999948034
  0
LINE
  5
   439
  8
0
  6
CONTINUOUS
 62
     1
 10
32.411952316761
 20
-59.4333692825564
 30
0.0
 11
32.411952316761
 21
-59.0733692920931
 31
0.0
  0
LINE
  5
   43A
  8
0
  6
CONTINUOUS
 62
     1
 10
32.411952316761
 20
-59.4333692825564
 30
0.0
 11
32.2094523221254
 21
-59.4333692825564
 31
0.0
  0
LINE
  5
   43B
  8
0
  6
CONTINUOUS
 62
     1
 10
30.3644523710012
 20
-43.638369700981
 30
0.0
 11
30.004452380538
 21
-43.638369700981
 31
0.0
  0
ARC
  5
   43C
  8
0
  6
CONTINUOUS
 62
     1
 10
28.4744524210692
 20
-42.2433697379359
 30
0.0
 40
1.16999996900559
 50
359.999999948034
 51
539.999999948034
  0
ARC
  5
   43D
  8
0
  6
CONTINUOUS
 62
     1
 10
28.4744524210692
 20
-42.2433697379359
 30
0.0
 40
0.809999978542329
 50
359.999999948034
 51
539.999999948034
  0
ARC
  5
   43E
  8
0
  6
CONTINUOUS
 62
     1
 10
28.4744524210692
 20
-42.4683697319754
 30
0.0
 40
1.16999996900558
 50
179.999999948034
 51
359.999999948034
  0
ARC
  5
   43F
  8
0
  6
CONTINUOUS
 62
     1
 10
28.4744524210692
 20
-42.4683697319754
 30
0.0
 40
0.809999978542327
 50
179.999999948034
 51
359.999999948034
  0
LINE
  5
   440
  8
0
  6
CONTINUOUS
 62
     1
 10
29.2844523996115
 20
-42.4683697319754
 30
0.0
 11
29.2844523996115
 21
-42.2433697379359
 31
0.0
  0
LINE
  5
   441
  8
0
  6
CONTINUOUS
 62
     1
 10
29.6444523900747
 20
-42.4683697319754
 30
0.0
 11
29.6444523900747
 21
-42.2433697379359
 31
0.0
  0
LINE
  5
   442
  8
0
  6
CONTINUOUS
 62
     1
 10
27.6644524425268
 20
-42.4683697319754
 30
0.0
 11
27.6644524425268
 21
-42.2433697379359
 31
0.0
  0
LINE
  5
   443
  8
0
  6
CONTINUOUS
 62
     1
 10
27.3044524520636
 20
-42.4683697319754
 30
0.0
 11
27.3044524520636
 21
-42.2433697379359
 31
0.0
  0
LINE
  5
   444
  8
0
  6
CONTINUOUS
 62
     1
 10
30.004452380538
 20
-43.638369700981
 30
0.0
 11
30.004452380538
 21
-41.0733697689303
 31
0.0
  0
LINE
  5
   445
  8
0
  6
CONTINUOUS
 62
     1
 10
30.3644523710012
 20
-43.638369700981
 30
0.0
 11
30.3644523710012
 21
-42.0633697427043
 31
0.0
  0
LINE
  5
   446
  8
0
  6
CONTINUOUS
 62
     1
 10
31.6244523376227
 20
-43.638369700981
 30
0.0
 11
31.6244523376227
 21
-42.0633697427043
 31
0.0
  0
LINE
  5
   447
  8
0
  6
CONTINUOUS
 62
     1
 10
31.9844523280859
 20
-43.638369700981
 30
0.0
 11
31.9844523280859
 21
-41.9733697450885
 31
0.0
  0
LINE
  5
   448
  8
0
  6
CONTINUOUS
 62
     1
 10
30.3644523710012
 20
-41.0733697689303
 30
0.0
 11
30.004452380538
 21
-41.0733697689303
 31
0.0
  0
ARC
  5
   449
  8
0
  6
CONTINUOUS
 62
     1
 10
30.994452354312
 20
-42.0633697427043
 30
0.0
 40
0.629999983310699
 50
359.999999948034
 51
539.999999948034
  0
LINE
  5
   44A
  8
0
  6
CONTINUOUS
 62
     1
 10
30.3644523710012
 20
-41.4333697593936
 30
0.0
 11
30.3644523710012
 21
-41.0733697689303
 31
0.0
  0
ARC
  5
   44B
  8
0
  6
CONTINUOUS
 62
     1
 10
31.0844523519278
 20
-41.9733697450885
 30
0.0
 40
0.899999976158142
 50
359.999999948034
 51
503.13010230219
  0
LINE
  5
   44C
  8
0
  6
CONTINUOUS
 62
     1
 10
31.9844523280859
 20
-43.638369700981
 30
0.0
 11
31.6244523376227
 21
-43.638369700981
 31
0.0
  0
LINE
  5
   44D
  8
0
  6
CONTINUOUS
 62
     7
 10
24.3119525313378
 20
-59.3332702326047
 30
0.0
 11
5.41195303201678
 21
-59.3332702326047
 31
0.0
  0
LINE
  5
   44E
  8
0
  6
CONTINUOUS
 62
     7
 10
24.3119525313378
 20
-55.6340417985767
 30
0.0
 11
5.41195303201678
 21
-55.6340417985767
 31
0.0
  0
LINE
  5
   44F
  8
0
  6
CONTINUOUS
 62
     7
 10
24.3119525313378
 20
-63.2205731192736
 30
0.0
 11
5.41195303201678
 21
-63.2205731192736
 31
0.0
  0
LINE
  5
   450
  8
0
  6
CONTINUOUS
 62
     7
 10
24.3119525313378
 20
-67.5239652691458
 30
0.0
 11
5.41195303201678
 21
-67.5239652691458
 31
0.0
  0
LINE
  5
   451
  8
0
  6
CONTINUOUS
 62
     7
 10
24.3119525313378
 20
-55.6340417985767
 30
0.0
 11
24.3119525313378
 21
-39.555441037169
 31
0.0
  0
LINE
  5
   452
  8
0
  6
CONTINUOUS
 62
     7
 10
5.41195303201678
 20
-55.6340417985767
 30
0.0
 11
5.41195303201678
 21
-39.555441037169
 31
0.0
  0
LINE
  5
   453
  8
0
  6
CONTINUOUS
 62
     1
 10
5.41195303201678
 20
-64.8558669931418
 30
0.0
 11
-16.1880326628686
 21
-64.8558669931418
 31
0.0
  0
LINE
  5
   454
  8
0
  6
DASHDOT
 62
     7
 10
46.3619519472122
 20
-2.75517072917368
 30
0.0
 11
46.3619519472122
 21
12.1403932946139
 31
0.0
  0
LINE
  5
   455
  8
0
  6
DASHDOT
 62
     7
 10
-16.6380463838577
 20
-1.82419797768695
 30
0.0
 11
-16.6380463838577
 21
13.8471766723395
 31
0.0
  0
LINE
  5
   456
  8
0
  6
CONTINUOUS
 62
     1
 10
-19.3380463123321
 20
-22.1058840043074
 30
0.0
 11
-63.5505351249093
 21
-22.1058840043074
 31
0.0
  0
LINE
  5
   457
  8
0
  6
CONTINUOUS
 62
   218
 10
-16.1880395293237
 20
-38.305869842244
 30
0.0
 11
-16.6380395174028
 21
-38.305869842244
 31
0.0
  0
LINE
  5
   458
  8
0
  6
CONTINUOUS
 62
     1
 10
45.9119519591332
 20
-37.8558698541649
 30
0.0
 11
-16.1880395293237
 21
-37.8558698541649
 31
0.0
  0
LINE
  5
   459
  8
0
  6
CONTINUOUS
 62
     1
 10
45.9119519591332
 20
-38.305869842244
 30
0.0
 11
-16.1880395293237
 21
-38.305869842244
 31
0.0
  0
LINE
  5
   45A
  8
0
  6
CONTINUOUS
 62
     1
 10
45.9119519591332
 20
-46.4058696276673
 30
0.0
 11
24.3119456648829
 21
-46.4058696276673
 31
0.0
  0
LINE
  5
   45B
  8
0
  6
CONTINUOUS
 62
     1
 10
45.9119519591332
 20
-46.8558696157464
 30
0.0
 11
24.3119456648829
 21
-46.8558696157464
 31
0.0
  0
LINE
  5
   45C
  8
0
  6
CONTINUOUS
 62
     1
 10
45.9119588255881
 20
-56.3058693654069
 30
0.0
 11
24.3119456648829
 21
-56.3058693654069
 31
0.0
  0
LINE
  5
   45D
  8
0
  6
CONTINUOUS
 62
     1
 10
45.9119588255881
 20
-56.7558693534859
 30
0.0
 11
24.3119456648829
 21
-56.7558693534859
 31
0.0
  0
LINE
  5
   45E
  8
0
  6
CONTINUOUS
 62
     1
 10
45.9119588255881
 20
-64.8558669931418
 30
0.0
 11
24.3119525313378
 21
-64.8558669931418
 31
0.0
  0
LINE
  5
   45F
  8
0
  6
CONTINUOUS
 62
   218
 10
-16.1880326628686
 20
-64.8558669931418
 30
0.0
 11
-16.6380395174028
 21
-64.8558669931418
 31
0.0
  0
LINE
  5
   460
  8
0
  6
CONTINUOUS
 62
   218
 10
-16.1880395293237
 20
-56.7558693534859
 30
0.0
 11
-16.6380395174028
 21
-56.7558693534859
 31
0.0
  0
LINE
  5
   461
  8
0
  6
CONTINUOUS
 62
   218
 10
-16.1880395293237
 20
-46.4058696276673
 30
0.0
 11
-16.6380395174028
 21
-46.4058696276673
 31
0.0
  0
LINE
  5
   462
  8
0
  6
CONTINUOUS
 62
   218
 10
-16.1880395293237
 20
-46.8558696157464
 30
0.0
 11
-16.6380395174028
 21
-46.8558696157464
 31
0.0
  0
LINE
  5
   463
  8
0
  6
CONTINUOUS
 62
     1
 10
-16.1880395293237
 20
-37.8558698541649
 30
0.0
 11
-16.591443754477
 21
-37.8558698541649
 31
0.0
  0
LINE
  5
   464
  8
0
  6
CONTINUOUS
 62
     7
 10
-16.1880326628686
 20
-65.3058692783954
 30
0.0
 11
-16.6380326509476
 21
-65.3058692783954
 31
0.0
  0
LINE
  5
   465
  8
0
  6
CONTINUOUS
 62
     7
 10
46.3619519472119
 20
-65.30586934506
 30
0.0
 11
45.9119588255881
 21
-65.3058644063005
 31
0.0
  0
LINE
  5
   466
  8
0
  6
CONTINUOUS
 62
     1
 10
61.2119310466299
 20
-97.3683820124917
 30
0.0
 11
-63.7755351189488
 21
-97.3683820124917
 31
0.0
  0
LINE
  5
   467
  8
0
  6
CONTINUOUS
 62
     7
 10
0.686932650265991
 20
7.48163624769896
 30
0.0
 11
-2.46306726628751
 21
7.48163624769896
 31
0.0
  0
LINE
  5
   468
  8
0
  6
CONTINUOUS
 62
     7
 10
-2.46306726628751
 20
7.48163624769896
 30
0.0
 11
-2.46306726628751
 21
9.50663619405478
 31
0.0
  0
LINE
  5
   469
  8
0
  6
CONTINUOUS
 62
     7
 10
-1.90056728118867
 20
9.50663619405478
 30
0.0
 11
-2.46306726628751
 21
9.50663619405478
 31
0.0
  0
LINE
  5
   46A
  8
0
  6
CONTINUOUS
 62
     7
 10
-1.90056728118867
 20
9.5066361940623
 30
0.0
 11
-1.90056728118867
 21
10.63163616426
 31
0.0
  0
LINE
  5
   46B
  8
0
  6
CONTINUOUS
 62
     7
 10
0.124432665167149
 20
9.50663619405394
 30
0.0
 11
0.124432665167149
 21
10.6316361642516
 31
0.0
  0
LINE
  5
   46C
  8
0
  6
CONTINUOUS
 62
     7
 10
0.686932650265991
 20
9.50663619405478
 30
0.0
 11
0.124432665167152
 21
9.50663619405478
 31
0.0
  0
LINE
  5
   46D
  8
0
  6
CONTINUOUS
 62
     7
 10
0.686932650265986
 20
7.48163624769896
 30
0.0
 11
0.686932650265986
 21
9.50663619405478
 31
0.0
  0
LINE
  5
   46E
  8
0
  6
CONTINUOUS
 62
     7
 10
31.624438697157
 20
9.5066361940623
 30
0.0
 11
31.624438697157
 21
10.63163616426
 31
0.0
  0
LINE
  5
   46F
  8
0
  6
CONTINUOUS
 62
     7
 10
32.1869386822559
 20
9.50663619405478
 30
0.0
 11
31.624438697157
 21
9.50663619405478
 31
0.0
  0
LINE
  5
   470
  8
0
  6
CONTINUOUS
 62
     7
 10
32.1869386822559
 20
7.48163624769896
 30
0.0
 11
32.1869386822559
 21
9.50663619405478
 31
0.0
  0
LINE
  5
   471
  8
0
  6
CONTINUOUS
 62
     7
 10
32.1869386822559
 20
7.48163624769896
 30
0.0
 11
29.0369387657024
 21
7.48163624769896
 31
0.0
  0
LINE
  5
   472
  8
0
  6
CONTINUOUS
 62
     7
 10
29.5994387508012
 20
9.50663619405478
 30
0.0
 11
29.0369387657024
 21
9.50663619405478
 31
0.0
  0
LINE
  5
   473
  8
0
  6
CONTINUOUS
 62
     7
 10
29.5994387508012
 20
9.50663619405394
 30
0.0
 11
29.5994387508012
 21
10.6316361642516
 31
0.0
  0
LINE
  5
   474
  8
0
  6
CONTINUOUS
 62
     7
 10
29.0369387657024
 20
7.48163624769896
 30
0.0
 11
29.0369387657024
 21
9.50663619405478
 31
0.0
  0
LINE
  5
   475
  8
0
  6
CONTINUOUS
 62
     1
 10
45.9119588255881
 20
-65.3058644063005
 30
0.0
 11
24.3119525313378
 21
-65.3058644063005
 31
0.0
  0
LINE
  5
   476
  8
0
  6
CONTINUOUS
 62
     1
 10
5.41195303201678
 20
-65.3058692783954
 30
0.0
 11
-16.1880326628686
 21
-65.3058692783954
 31
0.0
  0
LINE
  5
   477
  8
0
  6
CONTINUOUS
 62
     1
 10
-47.3055355552548
 20
-97.3683820124917
 30
0.0
 11
-47.3055355552548
 21
-79.8183756089934
 31
0.0
  0
LINE
  5
   478
  8
0
  6
CONTINUOUS
 62
     1
 10
-45.6855355981702
 20
-97.3683820124917
 30
0.0
 11
-45.6855355981702
 21
-79.8183756089934
 31
0.0
  0
LINE
  5
   479
  8
0
  6
CONTINUOUS
 62
     1
 10
-44.0655356410855
 20
-97.3683820124917
 30
0.0
 11
-44.0655356410855
 21
-79.8183756089934
 31
0.0
  0
LINE
  5
   47A
  8
0
  6
CONTINUOUS
 62
     1
 10
-42.4455356840009
 20
-97.3683820124917
 30
0.0
 11
-42.4455356840009
 21
-79.8183756089934
 31
0.0
  0
LINE
  5
   47B
  8
0
  6
CONTINUOUS
 62
     1
 10
-40.8255357269162
 20
-97.3683820124917
 30
0.0
 11
-40.8255357269162
 21
-79.8183756089934
 31
0.0
  0
LINE
  5
   47C
  8
0
  6
CONTINUOUS
 62
     1
 10
-39.2055357698315
 20
-97.3683820124917
 30
0.0
 11
-39.2055357698315
 21
-79.8183756089934
 31
0.0
  0
LINE
  5
   47D
  8
0
  6
CONTINUOUS
 62
     1
 10
-37.5855358127469
 20
-97.3683820124917
 30
0.0
 11
-37.5855358127469
 21
-79.8183756089934
 31
0.0
  0
LINE
  5
   47E
  8
0
  6
CONTINUOUS
 62
     1
 10
-35.9655358556622
 20
-97.3683820124917
 30
0.0
 11
-35.9655358556622
 21
-79.8183756089934
 31
0.0
  0
LINE
  5
   47F
  8
0
  6
CONTINUOUS
 62
     1
 10
-34.3455358985776
 20
-97.3683820124917
 30
0.0
 11
-34.3455358985776
 21
-79.8183756089934
 31
0.0
  0
LINE
  5
   480
  8
0
  6
CONTINUOUS
 62
     1
 10
-32.7255359414929
 20
-97.3683820124917
 30
0.0
 11
-32.7255359414929
 21
-79.8183756089934
 31
0.0
  0
LINE
  5
   481
  8
0
  6
CONTINUOUS
 62
     1
 10
-31.1055359844083
 20
-97.3683820124917
 30
0.0
 11
-31.1055359844083
 21
-79.8183756089934
 31
0.0
  0
LINE
  5
   482
  8
0
  6
CONTINUOUS
 62
     1
 10
-29.4855360273236
 20
-97.3683820124917
 30
0.0
 11
-29.4855360273236
 21
-79.8183756089934
 31
0.0
  0
LINE
  5
   483
  8
0
  6
CONTINUOUS
 62
     1
 10
-27.8655360702389
 20
-97.3683820124917
 30
0.0
 11
-27.8655360702389
 21
-79.8183756089934
 31
0.0
  0
LINE
  5
   484
  8
0
  6
CONTINUOUS
 62
     1
 10
-26.2455361131543
 20
-97.3683820124917
 30
0.0
 11
-26.2455361131543
 21
-79.8183756089934
 31
0.0
  0
LINE
  5
   485
  8
0
  6
CONTINUOUS
 62
     1
 10
-24.6255361560696
 20
-97.3683820124917
 30
0.0
 11
-24.6255361560696
 21
-79.8183756089934
 31
0.0
  0
LINE
  5
   486
  8
0
  6
CONTINUOUS
 62
     1
 10
-23.005536198985
 20
-97.3683820124917
 30
0.0
 11
-23.005536198985
 21
-79.8183756089934
 31
0.0
  0
LINE
  5
   487
  8
0
  6
CONTINUOUS
 62
     1
 10
-21.3855362419003
 20
-97.3683820124917
 30
0.0
 11
-21.3855362419003
 21
-79.8183756089934
 31
0.0
  0
LINE
  5
   488
  8
0
  6
CONTINUOUS
 62
     1
 10
-19.7655362848156
 20
-97.3683820124917
 30
0.0
 11
-19.7655362848156
 21
-79.8183756089934
 31
0.0
  0
LINE
  5
   489
  8
0
  6
CONTINUOUS
 62
     1
 10
-18.145536327731
 20
-97.3683820124917
 30
0.0
 11
-18.145536327731
 21
-81.9558815605165
 31
0.0
  0
LINE
  5
   48A
  8
0
  6
CONTINUOUS
 62
     1
 10
-16.5255363706463
 20
-9.50588519639983
 30
0.0
 11
-16.5255363706463
 21
-0.393377713037424
 31
0.0
  0
LINE
  5
   48B
  8
0
  6
CONTINUOUS
 62
     2
 10
-33.4005664467236
 20
10.6316290795777
 30
0.0
 11
-62.3130395608137
 21
10.6316290795777
 31
0.0
  0
LINE
  5
   48C
  8
0
  6
CONTINUOUS
 62
     1
 10
-42.9627585405014
 20
7.25662230253238
 30
0.0
 11
-45.4286862137413
 21
7.25662230253238
 31
0.0
  0
LINE
  5
   48D
  8
0
  6
CONTINUOUS
 62
     1
 10
-42.9627585405014
 20
1.85662244558353
 30
0.0
 11
-45.4286862137413
 21
1.85662244558353
 31
0.0
  0
LINE
  5
   48E
  8
0
  6
CONTINUOUS
 62
     1
 10
-50.8473810511569
 20
1.85662225299261
 30
0.0
 11
-53.3128230481233
 21
1.85663065170607
 31
0.0
  0
LINE
  5
   48F
  8
0
  6
CONTINUOUS
 62
     1
 10
-53.3128230434267
 20
7.25661409698607
 30
0.0
 11
-50.8473775922733
 21
7.25662249573821
 31
0.0
  0
CIRCLE
  5
   490
  8
0
  6
CONTINUOUS
 62
     1
 10
-32.3880509408098
 20
3.65671902149454
 30
0.0
 40
2.36249993741512
  0
LINE
  5
   491
  8
0
  6
DASHDOT
 62
     7
 10
-53.3128001157019
 20
1.31646538855775
 30
0.0
 11
-53.3128001157019
 21
7.79681979173709
 31
0.0
  0
ARC
  5
   492
  8
0
  6
CONTINUOUS
 62
     1
 10
-53.3128001157019
 20
4.55664259014745
 30
0.0
 40
2.70014766799139
 50
90.0052836333811
 51
269.995265213079
  0
LINE
  5
   493
  8
0
  6
DASHDOT
 62
     7
 10
-43.5479464912708
 20
4.55670049862645
 30
0.0
 11
-52.7281375966827
 21
4.55670049862645
 31
0.0
  0
ARC
  5
   494
  8
0
  6
CONTINUOUS
 62
     1
 10
-48.1380248778395
 20
4.55670049862645
 30
0.0
 40
3.82507676623207
 50
224.901380849089
 51
315.098568474349
  0
LINE
  5
   495
  8
0
  6
DASHDOT
 62
     7
 10
-42.9627585405014
 20
1.31686503436097
 30
0.0
 11
-42.9627585405014
 21
7.79642061269548
 31
0.0
  0
ARC
  5
   496
  8
0
  6
CONTINUOUS
 62
     1
 10
-42.9627585405014
 20
4.55664282352822
 30
0.0
 40
2.69981482430606
 50
269.999999948034
 51
449.999945306521
  0
ARC
  5
   497
  8
0
  6
CONTINUOUS
 62
     1
 10
-48.1380248778395
 20
4.55670049862645
 30
0.0
 40
3.82507676623207
 50
404.897963373026
 51
495.101923170488
  0
LINE
  5
   498
  8
0
  6
DASHDOT
 62
     7
 10
-48.1380455493927
 20
-1.82419797768695
 30
0.0
 11
-48.1380455493927
 21
13.8471766723395
 31
0.0
  0
LINE
  5
   499
  8
0
  6
CONTINUOUS
 62
     2
 10
-30.813066515269
 20
7.48163624769896
 30
0.0
 11
-33.9630664318225
 21
7.48163624769896
 31
0.0
  0
LINE
  5
   49A
  8
0
  6
CONTINUOUS
 62
     2
 10
-33.9630664318225
 20
7.48163624769896
 30
0.0
 11
-33.9630664318225
 21
9.50663619405478
 31
0.0
  0
LINE
  5
   49B
  8
0
  6
CONTINUOUS
 62
     2
 10
-33.4005664467236
 20
9.50663619405478
 30
0.0
 11
-33.9630664318225
 21
9.50663619405478
 31
0.0
  0
LINE
  5
   49C
  8
0
  6
CONTINUOUS
 62
     2
 10
-33.4005664467236
 20
9.5066361940623
 30
0.0
 11
-33.4005664467236
 21
10.63163616426
 31
0.0
  0
LINE
  5
   49D
  8
0
  6
CONTINUOUS
 62
     2
 10
-31.3755665003678
 20
9.50663619405394
 30
0.0
 11
-31.3755665003678
 21
10.6316361642516
 31
0.0
  0
LINE
  5
   49E
  8
0
  6
CONTINUOUS
 62
     2
 10
-30.813066515269
 20
9.50663619405478
 30
0.0
 11
-31.3755665003678
 21
9.50663619405478
 31
0.0
  0
LINE
  5
   49F
  8
0
  6
CONTINUOUS
 62
     2
 10
-30.813066515269
 20
7.48163624769896
 30
0.0
 11
-30.813066515269
 21
9.50663619405478
 31
0.0
  0
LINE
  5
   4A0
  8
0
  6
DASHDOT
 62
     2
 10
-32.3880509408098
 20
-3.2057807967113
 30
0.0
 11
-32.3880509408098
 21
10.5192188397004
 31
0.0
  0
LINE
  5
   4A1
  8
0
  6
DASHDOT
 62
     2
 10
-25.525551122604
 20
3.65671902149454
 30
0.0
 11
-39.2505507590157
 21
3.65671902149454
 31
0.0
  0
LINE
  5
   4A2
  8
0
  6
DASHDOT
 62
     2
 10
-0.888051775274853
 20
-3.2057807967113
 30
0.0
 11
-0.888051775274853
 21
10.5192188397004
 31
0.0
  0
LINE
  5
   4A3
  8
0
  6
DASHDOT
 62
     2
 10
5.97444804293097
 20
3.65671902149454
 30
0.0
 11
-7.7505515934807
 21
3.65671902149454
 31
0.0
  0
LINE
  5
   4A4
  8
0
  6
DASHDOT
 62
     2
 10
30.6118457799062
 20
-3.20583292995998
 30
0.0
 11
30.6118457799062
 21
10.5191667064517
 31
0.0
  0
LINE
  5
   4A5
  8
0
  6
DASHDOT
 62
     2
 10
37.474345598112
 20
3.65666688824585
 30
0.0
 11
23.7493459617004
 21
3.65666688824585
 31
0.0
  0
LINE
  5
   4A6
  8
0
  6
CONTINUOUS
 62
     2
 10
-33.4005664467236
 20
-109.968374810286
 30
0.0
 11
-62.0880588203095
 21
-109.968374810286
 31
0.0
  0
LINE
  5
   4A7
  8
0
  6
CONTINUOUS
 62
     1
 10
-42.9630623528325
 20
-101.193385250448
 30
0.0
 11
-45.4287101752253
 21
-101.193378383995
 31
0.0
  0
LINE
  5
   4A8
  8
0
  6
CONTINUOUS
 62
     1
 10
-50.8474211223693
 20
-101.193383893077
 30
0.0
 11
-53.3130689453362
 21
-101.193377026625
 31
0.0
  0
LINE
  5
   4A9
  8
0
  6
CONTINUOUS
 62
     1
 10
-50.8474180963563
 20
-106.593374899695
 30
0.0
 11
-53.3130659192225
 21
-106.593374899695
 31
0.0
  0
LINE
  5
   4AA
  8
0
  6
CONTINUOUS
 62
     1
 10
-42.9630661934039
 20
-106.593374899695
 30
0.0
 11
-45.4287071498152
 21
-106.593374899695
 31
0.0
  0
LINE
  5
   4AB
  8
0
  6
CONTINUOUS
 62
     2
 10
-33.9630664318225
 20
-108.843374840091
 30
0.0
 11
-33.9630664318225
 21
-106.818374893735
 31
0.0
  0
LINE
  5
   4AC
  8
0
  6
CONTINUOUS
 62
     2
 10
-33.4005664467236
 20
-108.843374840091
 30
0.0
 11
-33.9630664318225
 21
-108.843374840091
 31
0.0
  0
LINE
  5
   4AD
  8
0
  6
CONTINUOUS
 62
     2
 10
-33.4005664467236
 20
-109.968374810296
 30
0.0
 11
-33.4005664467236
 21
-108.843374840098
 31
0.0
  0
LINE
  5
   4AE
  8
0
  6
CONTINUOUS
 62
     2
 10
-31.3755665003678
 20
-109.968374810287
 30
0.0
 11
-31.3755665003678
 21
-108.84337484009
 31
0.0
  0
LINE
  5
   4AF
  8
0
  6
CONTINUOUS
 62
     2
 10
-30.813066515269
 20
-108.843374840091
 30
0.0
 11
-31.3755665003678
 21
-108.843374840091
 31
0.0
  0
LINE
  5
   4B0
  8
0
  6
CONTINUOUS
 62
     2
 10
-30.813066515269
 20
-108.843374840091
 30
0.0
 11
-30.813066515269
 21
-106.818374893735
 31
0.0
  0
LINE
  5
   4B1
  8
0
  6
CONTINUOUS
 62
     2
 10
-30.813066515269
 20
-106.818374893735
 30
0.0
 11
-33.9630664318225
 21
-106.818374893735
 31
0.0
  0
ARC
  5
   4B2
  8
0
  6
CONTINUOUS
 62
     1
 10
-53.3130738708281
 20
-103.893380953544
 30
0.0
 40
2.69999738401634
 50
90.0001399327154
 51
270.000100332566
  0
ARC
  5
   4B3
  8
0
  6
CONTINUOUS
 62
     1
 10
-48.1380705744369
 20
-103.893333686258
 30
0.0
 40
3.82504183567352
 50
404.899302393594
 51
495.100813987516
  0
ARC
  5
   4B4
  8
0
  6
CONTINUOUS
 62
     1
 10
-42.9630643194489
 20
-103.893378211249
 30
0.0
 40
2.69999367071187
 50
269.999747131106
 51
450.000048027357
  0
CIRCLE
  5
   4B5
  8
0
  6
CONTINUOUS
 62
     1
 10
-32.3880605980571
 20
-102.993358861689
 30
0.0
 40
2.36248745863058
  0
CIRCLE
  5
   4B6
  8
0
  6
CONTINUOUS
 62
     1
 10
-32.3880730122786
 20
-102.993388908131
 30
0.0
 40
1.23750949026183
  0
ARC
  5
   4B7
  8
0
  6
CONTINUOUS
 62
     1
 10
-48.1380705744369
 20
-103.893333686258
 30
0.0
 40
3.82504183567352
 50
224.901119153159
 51
315.09888074291
  0
LINE
  5
   4B8
  8
0
  6
DASHDOT
 62
     2
 10
-42.9630643194489
 20
-107.943371846198
 30
0.0
 11
-42.9630643194489
 21
-99.8433845762997
 31
0.0
  0
LINE
  5
   4B9
  8
0
  6
DASHDOT
 62
     2
 10
-38.9130706844998
 20
-103.893378211249
 30
0.0
 11
-47.013057954398
 21
-103.893378211249
 31
0.0
  0
LINE
  5
   4BA
  8
0
  6
DASHDOT
 62
     2
 10
-53.3130738708282
 20
-107.943378301797
 30
0.0
 11
-53.3130738708282
 21
-99.84338360529
 31
0.0
  0
LINE
  5
   4BB
  8
0
  6
DASHDOT
 62
     2
 10
-49.2630765225746
 20
-103.893380953544
 30
0.0
 11
-57.3630712190817
 21
-103.893380953544
 31
0.0
  0
LINE
  5
   4BC
  8
0
  6
DASHDOT
 62
     2
 10
-32.3880605980571
 20
-109.855846201111
 30
0.0
 11
-32.3880605980571
 21
-96.1308715222682
 31
0.0
  0
LINE
  5
   4BD
  8
0
  6
DASHDOT
 62
     2
 10
-25.5255732586358
 20
-102.993358861689
 30
0.0
 11
-39.2505479374784
 21
-102.993358861689
 31
0.0
  0
LINE
  5
   4BE
  8
0
  6
DASHDOT
 62
     2
 10
-0.888061432522107
 20
-109.855846201111
 30
0.0
 11
-0.888061432522107
 21
-96.1308715222682
 31
0.0
  0
LINE
  5
   4BF
  8
0
  6
DASHDOT
 62
     2
 10
5.97442590689919
 20
-102.993358861689
 30
0.0
 11
-7.7505487719434
 21
-102.993358861689
 31
0.0
  0
LINE
  5
   4C0
  8
0
  6
DASHDOT
 62
     2
 10
30.6119829037539
 20
-109.856012458667
 30
0.0
 11
30.6119829037539
 21
-96.1308690887506
 31
0.0
  0
LINE
  5
   4C1
  8
0
  6
DASHDOT
 62
     2
 10
37.4745545887119
 20
-102.993440773709
 30
0.0
 11
23.749411218796
 21
-102.993440773709
 31
0.0
  0
LINE
  5
   4C2
  8
0
  6
CONTINUOUS
 62
     1
 10
-61.8855352548474
 20
-79.1433756536969
 30
0.0
 11
-61.8855352548474
 21
-69.355882779432
 31
0.0
  0
LINE
  5
   4C3
  8
0
  6
CONTINUOUS
 62
     1
 10
-62.92053531326
 20
-79.1433756536969
 30
0.0
 11
-62.92053531326
 21
-69.355882779432
 31
0.0
  0
LINE
  5
   4C4
  8
0
  6
CONTINUOUS
 62
     1
 10
-55.4055394605511
 20
-79.1433756536969
 30
0.0
 11
-55.4055394605511
 21
-69.355882779432
 31
0.0
  0
LINE
  5
   4C5
  8
0
  6
CONTINUOUS
 62
     1
 10
-57.0255352977628
 20
-79.1433756536969
 30
0.0
 11
-57.0255352977628
 21
-69.355882779432
 31
0.0
  0
LINE
  5
   4C6
  8
0
  6
CONTINUOUS
 62
     1
 10
-58.6455354265088
 20
-79.1433756536969
 30
0.0
 11
-58.6455354265088
 21
-69.355882779432
 31
0.0
  0
LINE
  5
   4C7
  8
0
  6
CONTINUOUS
 62
     1
 10
-60.2655355552548
 20
-79.1433756536969
 30
0.0
 11
-60.2655355552548
 21
-69.355882779432
 31
0.0
  0
LINE
  5
   4C8
  8
0
  6
CONTINUOUS
 62
     1
 10
-48.9255355123395
 20
-79.1433756536969
 30
0.0
 11
-48.9255355123395
 21
-69.355882779432
 31
0.0
  0
LINE
  5
   4C9
  8
0
  6
CONTINUOUS
 62
     1
 10
-50.5455382160061
 20
-79.1433756536969
 30
0.0
 11
-50.5455382160061
 21
-69.355882779432
 31
0.0
  0
LINE
  5
   4CA
  8
0
  6
CONTINUOUS
 62
     1
 10
-52.1655409196727
 20
-79.1433756536969
 30
0.0
 11
-52.1655409196727
 21
-69.355882779432
 31
0.0
  0
LINE
  5
   4CB
  8
0
  6
CONTINUOUS
 62
     1
 10
-53.7855367568844
 20
-79.1433756536969
 30
0.0
 11
-53.7855367568844
 21
-69.355882779432
 31
0.0
  0
LINE
  5
   4CC
  8
0
  6
CONTINUOUS
 62
     1
 10
-47.3055355552548
 20
-79.1433756536969
 30
0.0
 11
-47.3055355552548
 21
-0.393377713037367
 31
0.0
  0
LINE
  5
   4CD
  8
0
  6
CONTINUOUS
 62
     1
 10
-45.6855355981702
 20
-79.1433756536969
 30
0.0
 11
-45.6855355981702
 21
-0.393377713037367
 31
0.0
  0
LINE
  5
   4CE
  8
0
  6
CONTINUOUS
 62
     1
 10
-44.0655356410855
 20
-79.1433756536969
 30
0.0
 11
-44.0655356410855
 21
-0.393377713037381
 31
0.0
  0
LINE
  5
   4CF
  8
0
  6
CONTINUOUS
 62
     1
 10
-42.4455356840009
 20
-79.1433756536969
 30
0.0
 11
-42.4455356840009
 21
-0.393377713037381
 31
0.0
  0
LINE
  5
   4D0
  8
0
  6
CONTINUOUS
 62
     1
 10
-40.8255357269162
 20
-79.1433756536969
 30
0.0
 11
-40.8255357269162
 21
-0.393377713037381
 31
0.0
  0
LINE
  5
   4D1
  8
0
  6
CONTINUOUS
 62
     1
 10
-39.2055357698315
 20
-79.1433756536969
 30
0.0
 11
-39.2055357698315
 21
-0.393377713037381
 31
0.0
  0
LINE
  5
   4D2
  8
0
  6
CONTINUOUS
 62
     1
 10
-37.5855358127469
 20
-79.1433756536969
 30
0.0
 11
-37.5855358127469
 21
-0.393377713037395
 31
0.0
  0
LINE
  5
   4D3
  8
0
  6
CONTINUOUS
 62
     1
 10
-35.9655358556622
 20
-79.1433756536969
 30
0.0
 11
-35.9655358556622
 21
-0.393377713037395
 31
0.0
  0
LINE
  5
   4D4
  8
0
  6
CONTINUOUS
 62
     1
 10
-34.3455358985776
 20
-79.1433756536969
 30
0.0
 11
-34.3455358985776
 21
-0.393377713037395
 31
0.0
  0
LINE
  5
   4D5
  8
0
  6
CONTINUOUS
 62
     1
 10
-32.7255359414929
 20
-79.1433756536969
 30
0.0
 11
-32.7255359414929
 21
-0.393377713037395
 31
0.0
  0
LINE
  5
   4D6
  8
0
  6
CONTINUOUS
 62
     1
 10
-31.1055359844083
 20
-79.1433756536969
 30
0.0
 11
-31.1055359844083
 21
-0.393377713037395
 31
0.0
  0
LINE
  5
   4D7
  8
0
  6
CONTINUOUS
 62
     1
 10
-29.4855360273236
 20
-79.1433756536969
 30
0.0
 11
-29.4855360273236
 21
-0.393377713037395
 31
0.0
  0
LINE
  5
   4D8
  8
0
  6
CONTINUOUS
 62
     1
 10
-27.8655360702389
 20
-79.1433756536969
 30
0.0
 11
-27.8655360702389
 21
-0.393377713037395
 31
0.0
  0
LINE
  5
   4D9
  8
0
  6
CONTINUOUS
 62
     1
 10
-26.2455361131543
 20
-79.1433756536969
 30
0.0
 11
-26.2455361131543
 21
-0.393377713037395
 31
0.0
  0
LINE
  5
   4DA
  8
0
  6
CONTINUOUS
 62
     1
 10
-24.6255361560696
 20
-79.1433756536969
 30
0.0
 11
-24.6255361560696
 21
-0.39337771303741
 31
0.0
  0
LINE
  5
   4DB
  8
0
  6
CONTINUOUS
 62
     1
 10
-23.005536198985
 20
-79.1433756536969
 30
0.0
 11
-23.005536198985
 21
-0.39337771303741
 31
0.0
  0
LINE
  5
   4DC
  8
0
  6
CONTINUOUS
 62
     1
 10
-21.3855362419003
 20
-79.1433756536969
 30
0.0
 11
-21.3855362419003
 21
-0.39337771303741
 31
0.0
  0
LINE
  5
   4DD
  8
0
  6
CONTINUOUS
 62
     1
 10
-19.7655362848156
 20
-79.1433756536969
 30
0.0
 11
-19.7655362848156
 21
-0.39337771303741
 31
0.0
  0
LINE
  5
   4DE
  8
0
  6
CONTINUOUS
 62
     1
 10
-18.145536327731
 20
-9.50588519639983
 30
0.0
 11
-18.145536327731
 21
-0.393377713037424
 31
0.0
  0
CIRCLE
  5
   4DF
  8
0
  6
CONTINUOUS
 62
     2
 10
-11.2236161330415
 20
-139.498937016467
 30
0.0
 40
0.112499997019768
  0
LINE
  5
   4E0
  8
0
  6
DASHDOT
 62
     7
 10
65.5184229255038
 20
-45.7308833784582
 30
0.0
 11
-74.3519038332905
 21
-45.7308833784582
 31
0.0
  0
LINE
  5
   4E1
  8
0
  6
CONTINUOUS
 62
     2
 10
-25.6380319748598
 20
10.6316638782875
 30
0.0
 11
-25.6380319748598
 21
16.7066370247142
 31
0.0
  0
LINE
  5
   4E2
  8
0
  6
CONTINUOUS
 62
     3
 10
-7.63803245169694
 20
16.4697649301591
 30
0.0
 11
-25.6380319748598
 21
16.4697649301591
 31
0.0
  0
LINE
  5
   4E3
  8
0
  6
CONTINUOUS
 62
     2
 10
-8.65068129878347
 20
-131.793333447416
 30
0.0
 11
-24.8506551204242
 21
-131.793333447416
 31
0.0
  0
LINE
  5
   4E4
  8
0
  6
CONTINUOUS
 62
     5
 10
55.361965879373
 20
10.6316638782875
 30
0.0
 11
55.361965879373
 21
16.7066370247142
 31
0.0
  0
LINE
  5
   4E5
  8
0
  6
CONTINUOUS
 62
     5
 10
55.3619619059187
 20
16.7066303845126
 30
0.0
 11
57.6119394651976
 21
18.9566096507225
 31
0.0
  0
LINE
  5
   4E6
  8
0
  6
CONTINUOUS
 62
     5
 10
57.6119435037899
 20
18.9566163657449
 30
0.0
 11
57.6119435037899
 21
33.8066365717189
 31
0.0
  0
LINE
  5
   4E7
  8
0
  6
CONTINUOUS
 62
     5
 10
56.7119435276318
 20
34.706636547877
 30
0.0
 11
36.0119440759946
 21
34.706636547877
 31
0.0
  0
LINE
  5
   4E8
  8
0
  6
CONTINUOUS
 62
     5
 10
35.1119440998364
 20
18.9566575644742
 30
0.0
 11
35.1119440998364
 21
33.8066365717189
 31
0.0
  0
LINE
  5
   4E9
  8
0
  6
CONTINUOUS
 62
     5
 10
37.3619656746973
 20
16.7066394973129
 30
0.0
 11
35.1119434313315
 21
18.9566600337151
 31
0.0
  0
LINE
  5
   4EA
  8
0
  6
CONTINUOUS
 62
     5
 10
37.3619663562102
 20
10.6316638782875
 30
0.0
 11
37.3619663562102
 21
16.7066370247142
 31
0.0
  0
LINE
  5
   4EB
  8
0
  6
CONTINUOUS
 62
     3
 10
55.361965879373
 20
16.4697649301591
 30
0.0
 11
37.3619663562102
 21
16.4697649301591
 31
0.0
  0
CIRCLE
  5
   4EC
  8
0
  6
CONTINUOUS
 62
     5
 10
46.3619519472123
 20
25.7066297850472
 30
0.0
 40
3.14999606014844
  0
ARC
  5
   4ED
  8
0
  6
CONTINUOUS
 62
     5
 10
36.0119483107701
 20
33.8066292824073
 30
0.0
 40
0.900005062631997
 50
90.0001503466694
 51
179.999917361423
  0
ARC
  5
   4EE
  8
0
  6
CONTINUOUS
 62
     5
 10
56.711929617118
 20
33.8066289918342
 30
0.0
 40
0.900013734355684
 50
360.000182522284
 51
449.999003087461
  0
LINE
  5
   4EF
  8
0
  6
DASHDOT
 62
     2
 10
46.3619519472122
 20
22.1066337368197
 30
0.0
 11
46.3619519472122
 21
29.3066258332747
 31
0.0
  0
LINE
  5
   4F0
  8
0
  6
DASHDOT
 62
     2
 10
49.9619479954398
 20
25.7066297850472
 30
0.0
 11
42.7619558989848
 21
25.7066297850472
 31
0.0
  0
LINE
  5
   4F1
  8
0
  6
CONTINUOUS
 62
     2
 10
25.2119443620968
 20
34.706636547877
 30
0.0
 11
4.51194491045957
 21
34.706636547877
 31
0.0
  0
CIRCLE
  5
   4F2
  8
0
  6
CONTINUOUS
 62
     2
 10
14.8619527816773
 20
25.7066297850472
 30
0.0
 40
3.14999606014844
  0
ARC
  5
   4F3
  8
0
  6
CONTINUOUS
 62
     2
 10
25.2119304515831
 20
33.8066289918342
 30
0.0
 40
0.900013734355684
 50
360.000182522284
 51
449.999003087461
  0
ARC
  5
   4F4
  8
0
  6
CONTINUOUS
 62
     2
 10
4.51194914523509
 20
33.8066292824073
 30
0.0
 40
0.900005062631997
 50
90.0001503466694
 51
179.999917361423
  0
LINE
  5
   4F5
  8
0
  6
CONTINUOUS
 62
     2
 10
3.6119449343014
 20
18.9566575644742
 30
0.0
 11
3.6119449343014
 21
33.8066365717189
 31
0.0
  0
LINE
  5
   4F6
  8
0
  6
CONTINUOUS
 62
     2
 10
26.111944338255
 20
18.9566163657449
 30
0.0
 11
26.111944338255
 21
33.8066365717189
 31
0.0
  0
LINE
  5
   4F7
  8
0
  6
CONTINUOUS
 62
     2
 10
23.8619627403837
 20
16.7066303845126
 30
0.0
 11
26.1119402996626
 21
18.9566096507226
 31
0.0
  0
LINE
  5
   4F8
  8
0
  6
CONTINUOUS
 62
     2
 10
5.8619665091623
 20
16.7066394973129
 30
0.0
 11
3.61194426579656
 21
18.9566600337151
 31
0.0
  0
LINE
  5
   4F9
  8
0
  6
CONTINUOUS
 62
     3
 10
23.861966713838
 20
16.4697649301591
 30
0.0
 11
5.86196719067519
 21
16.4697649301591
 31
0.0
  0
LINE
  5
   4FA
  8
0
  6
CONTINUOUS
 62
     2
 10
5.86196719067517
 20
10.6316638782875
 30
0.0
 11
5.86196719067517
 21
16.7066370247142
 31
0.0
  0
LINE
  5
   4FB
  8
0
  6
CONTINUOUS
 62
     2
 10
23.861966713838
 20
10.6316638782875
 30
0.0
 11
23.861966713838
 21
16.7066370247142
 31
0.0
  0
LINE
  5
   4FC
  8
0
  6
CONTINUOUS
 62
     2
 10
-27.8880542312336
 20
18.9566575644742
 30
0.0
 11
-27.8880542312336
 21
33.8066365717189
 31
0.0
  0
ARC
  5
   4FD
  8
0
  6
CONTINUOUS
 62
     2
 10
-26.9880500202999
 20
33.8066292824073
 30
0.0
 40
0.900005062631997
 50
90.0001503466694
 51
179.999917361423
  0
LINE
  5
   4FE
  8
0
  6
CONTINUOUS
 62
     2
 10
-6.28805480343814
 20
34.706636547877
 30
0.0
 11
-26.9880542550754
 21
34.706636547877
 31
0.0
  0
ARC
  5
   4FF
  8
0
  6
CONTINUOUS
 62
     2
 10
-6.2880687139519
 20
33.8066289918342
 30
0.0
 40
0.900013734355684
 50
360.000182522284
 51
449.999003087461
  0
LINE
  5
   500
  8
0
  6
CONTINUOUS
 62
     2
 10
-5.38805482728002
 20
18.9566163657449
 30
0.0
 11
-5.38805482728002
 21
33.8066365717189
 31
0.0
  0
LINE
  5
   501
  8
0
  6
CONTINUOUS
 62
     2
 10
-7.6380364251513
 20
16.7066303845126
 30
0.0
 11
-5.38805886587242
 21
18.9566096507226
 31
0.0
  0
LINE
  5
   502
  8
0
  6
CONTINUOUS
 62
     2
 10
-25.6380326563727
 20
16.7066394973129
 30
0.0
 11
-27.8880548997385
 21
18.9566600337151
 31
0.0
  0
LINE
  5
   503
  8
0
  6
CONTINUOUS
 62
     2
 10
-7.63803245169697
 20
10.6316638782875
 30
0.0
 11
-7.63803245169697
 21
16.7066370247142
 31
0.0
  0
CIRCLE
  5
   504
  8
0
  6
CONTINUOUS
 62
     2
 10
-16.6380463838577
 20
25.7066297850472
 30
0.0
 40
3.14999606014844
  0
LINE
  5
   505
  8
0
  6
DASHDOT
 62
     2
 10
-16.6380463838577
 20
22.1066337368197
 30
0.0
 11
-16.6380463838577
 21
29.3066258332747
 31
0.0
  0
LINE
  5
   506
  8
0
  6
DASHDOT
 62
     2
 10
-13.0380503356302
 20
25.7066297850472
 30
0.0
 11
-20.2380424320852
 21
25.7066297850472
 31
0.0
  0
LINE
  5
   507
  8
0
  6
CONTINUOUS
 62
     3
 10
14.8619527816773
 20
15.4519055546776
 30
0.0
 11
14.8619527816773
 21
36.5564613065125
 31
0.0
  0
LINE
  5
   508
  8
0
  6
DASHDOT
 62
     2
 10
18.4619488299048
 20
25.7066297850472
 30
0.0
 11
11.2619567334498
 21
25.7066297850472
 31
0.0
  0
LINE
  5
   509
  8
0
  6
CONTINUOUS
 62
     7
 10
54.3493170322865
 20
-131.793333447416
 30
0.0
 11
38.1493432106458
 21
-131.793333447416
 31
0.0
  0
LINE
  5
   50A
  8
0
  6
CONTINUOUS
 62
     7
 10
37.2493432344877
 20
-130.893333471258
 30
0.0
 11
37.2493432344877
 21
-109.968340011603
 31
0.0
  0
LINE
  5
   50B
  8
0
  6
CONTINUOUS
 62
     7
 10
55.2493170084446
 20
-130.893333471258
 30
0.0
 11
55.2493170084446
 21
-109.968340011603
 31
0.0
  0
LINE
  5
   50C
  8
0
  6
CONTINUOUS
 62
     3
 10
55.2493170084446
 20
-115.773104532207
 30
0.0
 11
37.2493432344876
 21
-115.773104532207
 31
0.0
  0
CIRCLE
  5
   50D
  8
0
  6
CONTINUOUS
 62
     7
 10
46.249290760024
 20
-125.043361193278
 30
0.0
 40
2.47504733243181
  0
LINE
  5
   50E
  8
0
  6
DASHDOT
 62
     2
 10
49.1743380805349
 20
-125.043361193278
 30
0.0
 11
43.3242434395131
 21
-125.043361193278
 31
0.0
  0
LINE
  5
   50F
  8
0
  6
CONTINUOUS
 62
     2
 10
5.74934406895268
 20
-130.893333471258
 30
0.0
 11
5.74934406895268
 21
-109.968340011603
 31
0.0
  0
LINE
  5
   510
  8
0
  6
CONTINUOUS
 62
     3
 10
23.7493178429097
 20
-115.773104532207
 30
0.0
 11
5.74934406895267
 21
-115.773104532207
 31
0.0
  0
LINE
  5
   511
  8
0
  6
CONTINUOUS
 62
     2
 10
23.7493178429097
 20
-130.893333471258
 30
0.0
 11
23.7493178429097
 21
-109.968340011603
 31
0.0
  0
CIRCLE
  5
   512
  8
0
  6
CONTINUOUS
 62
     2
 10
14.749291594489
 20
-125.043361193278
 30
0.0
 40
2.47504733243181
  0
LINE
  5
   513
  8
0
  6
CONTINUOUS
 62
     2
 10
22.8493178667515
 20
-131.793333447416
 30
0.0
 11
6.64934404511081
 21
-131.793333447416
 31
0.0
  0
LINE
  5
   514
  8
0
  6
CONTINUOUS
 62
     2
 10
-7.75068132262532
 20
-130.893333471258
 30
0.0
 11
-7.75068132262532
 21
-109.968340011603
 31
0.0
  0
LINE
  5
   515
  8
0
  6
CONTINUOUS
 62
     3
 10
-7.75068132262532
 20
-115.773104532207
 30
0.0
 11
-25.7506550965823
 21
-115.773104532207
 31
0.0
  0
LINE
  5
   516
  8
0
  6
CONTINUOUS
 62
     2
 10
-25.7506550965823
 20
-130.893333471258
 30
0.0
 11
-25.7506550965823
 21
-109.968340011603
 31
0.0
  0
CIRCLE
  5
   517
  8
0
  6
CONTINUOUS
 62
     2
 10
-16.750707571046
 20
-125.043361193278
 30
0.0
 40
2.47504733243181
  0
ARC
  5
   518
  8
0
  6
CONTINUOUS
 62
     7
 10
38.1493474839155
 20
-130.893326292282
 30
0.0
 40
0.900005168451485
 50
180.00008433977
 51
269.999863832817
  0
ARC
  5
   519
  8
0
  6
CONTINUOUS
 62
     7
 10
54.3493034510606
 20
-130.893326078496
 30
0.0
 40
0.900013460248687
 50
270.000959112258
 51
359.999822049471
  0
ARC
  5
   51A
  8
0
  6
CONTINUOUS
 62
     2
 10
22.8493042855256
 20
-130.893326078496
 30
0.0
 40
0.900013460248687
 50
270.000959112258
 51
359.999822049471
  0
ARC
  5
   51B
  8
0
  6
CONTINUOUS
 62
     2
 10
-8.65069488000934
 20
-130.893326078496
 30
0.0
 40
0.900013460248687
 50
270.000959112258
 51
359.999822049471
  0
ARC
  5
   51C
  8
0
  6
CONTINUOUS
 62
     2
 10
6.6493483183805
 20
-130.893326292282
 30
0.0
 40
0.900005168451485
 50
180.00008433977
 51
269.999863832817
  0
ARC
  5
   51D
  8
0
  6
CONTINUOUS
 62
     2
 10
-24.8506508471545
 20
-130.893326292282
 30
0.0
 40
0.900005168451485
 50
180.00008433977
 51
269.999863832817
  0
LINE
  5
   51E
  8
0
  6
DASHDOT
 62
     2
 10
-13.8256602505351
 20
-125.043361193278
 30
0.0
 11
-19.6757548915569
 21
-125.043361193278
 31
0.0
  0
LINE
  5
   51F
  8
0
  6
DASHDOT
 62
     2
 10
17.6743389149999
 20
-125.043361193278
 30
0.0
 11
11.8242442739781
 21
-125.043361193278
 31
0.0
  0
LINE
  5
   520
  8
0
  6
CONTINUOUS
 62
     2
 10
-37.7880539689731
 20
34.706636547877
 30
0.0
 11
-58.4880534206104
 21
34.706636547877
 31
0.0
  0
LINE
  5
   521
  8
0
  6
CONTINUOUS
 62
     2
 10
-59.3880533967685
 20
18.9566575644742
 30
0.0
 11
-59.3880533967685
 21
33.8066365717189
 31
0.0
  0
LINE
  5
   522
  8
0
  6
CONTINUOUS
 62
     2
 10
-36.888053992815
 20
18.9566163657449
 30
0.0
 11
-36.888053992815
 21
33.8066365717189
 31
0.0
  0
CIRCLE
  5
   523
  8
0
  6
CONTINUOUS
 62
     2
 10
-48.1380455493927
 20
25.7066297850472
 30
0.0
 40
3.14999606014844
  0
LINE
  5
   524
  8
0
  6
DASHDOT
 62
     2
 10
-44.5380495011652
 20
25.7066297850472
 30
0.0
 11
-51.7380415976202
 21
25.7066297850472
 31
0.0
  0
LINE
  5
   525
  8
0
  6
DASHDOT
 62
     2
 10
-48.1380455493927
 20
22.1066337368197
 30
0.0
 11
-48.1380455493927
 21
29.3066258332747
 31
0.0
  0
ARC
  5
   526
  8
0
  6
CONTINUOUS
 62
     2
 10
-58.4880491858349
 20
33.8066292824073
 30
0.0
 40
0.900005062631997
 50
90.0001503466694
 51
179.999917361423
  0
ARC
  5
   527
  8
0
  6
CONTINUOUS
 62
     2
 10
-37.7880678794869
 20
33.8066289918342
 30
0.0
 40
0.900013734355684
 50
360.000182522284
 51
449.999003087461
  0
LINE
  5
   528
  8
0
  6
CONTINUOUS
 62
     2
 10
-57.1380318219077
 20
16.7066394973129
 30
0.0
 11
-59.3880540652734
 21
18.9566600337151
 31
0.0
  0
LINE
  5
   529
  8
0
  6
CONTINUOUS
 62
     2
 10
-39.1380355906863
 20
16.7066303845126
 30
0.0
 11
-36.8880580314074
 21
18.9566096507226
 31
0.0
  0
LINE
  5
   52A
  8
0
  6
CONTINUOUS
 62
     3
 10
-39.1380316172319
 20
16.4697649301591
 30
0.0
 11
-57.1380311403948
 21
16.4697649301591
 31
0.0
  0
LINE
  5
   52B
  8
0
  6
CONTINUOUS
 62
     2
 10
-57.1380311403948
 20
10.6316638782875
 30
0.0
 11
-57.1380311403948
 21
16.7066370247142
 31
0.0
  0
LINE
  5
   52C
  8
0
  6
CONTINUOUS
 62
     2
 10
-39.1380316172319
 20
10.6316638782875
 30
0.0
 11
-39.1380316172319
 21
16.7066370247142
 31
0.0
  0
LINE
  5
   52D
  8
0
  6
CONTINUOUS
 62
     3
 10
-39.2506804881603
 20
-115.773104532207
 30
0.0
 11
-57.2506542621173
 21
-115.773104532207
 31
0.0
  0
LINE
  5
   52E
  8
0
  6
CONTINUOUS
 62
     2
 10
-39.2506804881603
 20
-130.893333471258
 30
0.0
 11
-39.2506804881603
 21
-109.968340011603
 31
0.0
  0
LINE
  5
   52F
  8
0
  6
CONTINUOUS
 62
     2
 10
-57.2506542621173
 20
-130.893333471258
 30
0.0
 11
-57.2506542621173
 21
-109.968340011603
 31
0.0
  0
ARC
  5
   530
  8
0
  6
CONTINUOUS
 62
     2
 10
-56.3506500126894
 20
-130.893326292282
 30
0.0
 40
0.900005168451485
 50
180.00008433977
 51
269.999863832817
  0
ARC
  5
   531
  8
0
  6
CONTINUOUS
 62
     2
 10
-40.1506940455443
 20
-130.893326078496
 30
0.0
 40
0.900013460248687
 50
270.000959112258
 51
359.999822049471
  0
LINE
  5
   532
  8
0
  6
CONTINUOUS
 62
     2
 10
-40.1506804643184
 20
-131.793333447416
 30
0.0
 11
-56.3506542859591
 21
-131.793333447416
 31
0.0
  0
CIRCLE
  5
   533
  8
0
  6
CONTINUOUS
 62
     2
 10
-48.2507067365809
 20
-125.043361193278
 30
0.0
 40
2.47504733243181
  0
LINE
  5
   534
  8
0
  6
DASHDOT
 62
     2
 10
-45.3256594160701
 20
-125.043361193278
 30
0.0
 11
-51.1757540570918
 21
-125.043361193278
 31
0.0
  0
INSERT
  5
   535
  8
255
  6
CONTINUOUS
 62
     7
  2
MOSTRINA
 10
-44.6902612168997
 20
-95.2221625277447
 30
0.0
 41
0.449999988079071
 42
0.449999988079071
 50
359.999999792138
 43
0.449999988079071
  0
LINE
  5
   536
  8
0
  6
CONTINUOUS
 62
     1
 10
-19.3380463123321
 20
-79.1433756536969
 30
0.0
 11
-63.7755351189488
 21
-79.1433756536969
 31
0.0
  0
LINE
  5
   537
  8
0
  6
CONTINUOUS
 62
     1
 10
-19.3380463123321
 20
-79.5933756149539
 30
0.0
 11
-63.3255351576919
 21
-79.5933756149539
 31
0.0
  0
LINE
  5
   538
  8
0
  6
CONTINUOUS
 62
     1
 10
-19.3380463123321
 20
-79.8183756089934
 30
0.0
 11
-62.9880351398105
 21
-79.8183756089934
 31
0.0
  0
LINE
  5
   539
  8
0
  6
CONTINUOUS
 62
     1
 10
-19.3380463123321
 20
-69.3558827526099
 30
0.0
 11
-63.5505351249093
 21
-69.3558827526099
 31
0.0
  0
TEXT
  5
   53A
  8
0
  6
CONTINUOUS
 62
     2
 10
-5.57242466050234
 20
51.6760187934435
 30
0.0
 40
3.00000011722246
  1
=             =
 50
359.999999948034
 41
0.916666563948001
 72
     1
 11
14.7775738412308
 21
53.1760188337001
 31
0.0
 73
     2
  0
TEXT
  5
   53B
  8
0
  6
CONTINUOUS
 62
     7
 10
73.1806688992206
 20
-58.5542147332877
 30
0.0
 40
3.00000011722246
  1
=       =
 50
89.9999999480344
 41
0.916666641434036
 72
     1
 11
71.6806688515685
 21
-46.4542146057329
 31
0.0
 73
     2
  0
INSERT
  5
   53C
  8
0
  6
CONTINUOUS
 62
     7
  2
*UDIM240
 10
0.0
 20
0.0
 30
0.0
  0
INSERT
  5
   53D
  8
0
  6
CONTINUOUS
 62
     7
  2
*UDIM241
 10
0.0
 20
0.0
 30
0.0
  0
INSERT
  5
   53E
  8
0
  6
CONTINUOUS
 62
     2
  2
*UDIM242
 10
0.0
 20
0.0
 30
0.0
  0
INSERT
  5
   53F
  8
0
  6
CONTINUOUS
 62
     2
  2
*UDIM243
 10
0.0
 20
0.0
 30
0.0
  0
INSERT
  5
   540
  8
0
  6
CONTINUOUS
 62
     2
  2
*UDIM244
 10
0.0
 20
0.0
 30
0.0
  0
INSERT
  5
   541
  8
0
  6
CONTINUOUS
 62
     2
  2
*UDIM245
 10
0.0
 20
0.0
 30
0.0
  0
TEXT
  5
   542
  8
0
  6
CONTINUOUS
 62
     2
 10
-12.3316135454821
 20
-144.79262362694
 30
0.0
 40
3.00000011722246
  1
Y
 50
359.999999948034
 41
0.916666563948002
 72
     2
 11
-10.1316137348924
 21
-144.792623628924
 31
0.0
  0
INSERT
  5
   543
  8
0
  6
CONTINUOUS
 62
     7
  2
*UDIM246
 10
0.0
 20
0.0
 30
0.0
  0
TEXT
  5
   544
  8
0
  6
CONTINUOUS
 62
     7
 10
-6.48084210463891
 20
37.502279018912
 30
0.0
 40
3.00000011722246
  1
=             =
 50
359.999999948034
 41
0.916666563948001
 72
     2
 11
34.2191548961216
 21
37.5022789822029
 31
0.0
  0
INSERT
  5
   545
  8
0
  6
CONTINUOUS
 62
     7
  2
*UDIM247
 10
0.0
 20
0.0
 30
0.0
  0
TEXT
  5
   546
  8
0
  6
CONTINUOUS
 62
     2
 10
-84.4577249184268
 20
-45.3005560824018
 30
0.0
 40
3.00000011722246
  1
X
 50
359.999999948034
 41
0.916666563948002
 72
     2
 11
-82.2577251078371
 21
-45.3005560843861
 31
0.0
  0
INSERT
  5
   547
  8
0
  6
CONTINUOUS
 62
     7
  2
*UDIM248
 10
0.0
 20
0.0
 30
0.0
  0
INSERT
  5
   548
  8
0
  6
CONTINUOUS
 62
     7
  2
*UDIM249
 10
0.0
 20
0.0
 30
0.0
  0
INSERT
  5
   549
  8
0
  6
CONTINUOUS
 62
     7
  2
*UDIM250
 10
0.0
 20
0.0
 30
0.0
  0
INSERT
  5
   54A
  8
0
  6
CONTINUOUS
 62
     2
  2
*UDIM251
 10
0.0
 20
0.0
 30
0.0
  0
INSERT
  5
   54B
  8
0
  6
CONTINUOUS
 62
     7
  2
*UDIM252
 10
0.0
 20
0.0
 30
0.0
  0
INSERT
  5
   54C
  8
0
  6
CONTINUOUS
 62
     7
  2
*UDIM253
 10
0.0
 20
0.0
 30
0.0
  0
TEXT
  5
   54D
  8
0
  6
CONTINUOUS
 62
     7
 10
13.5823908806792
 20
-144.019076874236
 30
0.0
 40
3.00000011722246
  1
Y
 50
359.999999948034
 41
0.916666563948002
 72
     2
 11
15.7823906912689
 21
-144.019076876221
 31
0.0
  0
TEXT
  5
   54E
  8
0
  6
CONTINUOUS
 62
     7
 10
74.1983965194903
 20
-47.3498220803609
 30
0.0
 40
3.00000011722246
  1
X
 50
359.999999948034
 41
0.916666563948002
 72
     2
 11
76.39839633008
 21
-47.3498220823452
 31
0.0
  0
TEXT
  5
   54F
  8
0
  6
CONTINUOUS
 62
     7
 10
-12.2542583176767
 20
-199.560127648995
 30
0.0
 40
3.00000011722246
  1
Y
 50
359.999999948034
 41
0.916666563948002
 72
     2
 11
-10.054258507087
 21
-199.560127650979
 31
0.0
  0
TEXT
  5
   550
  8
0
  6
CONTINUOUS
 62
     7
 10
14.4974609014325
 20
65.0284120947321
 30
0.0
 40
3.00000011722246
  1
Y
 50
359.999999948034
 41
0.916666563948002
 72
     2
 11
16.6974607120222
 21
65.0284120927478
 31
0.0
  0
LINE
  5
   551
  8
0
  6
DASHDOT
 62
     2
 10
-1.70288536385539
 20
-161.815093994141
 30
0.0
 11
-41.2377423960502
 21
-161.815093994141
 31
0.0
  0
LINE
  5
   552
  8
0
  6
DASHDOT
 62
     2
 10
-0.754672351110958
 20
-196.065093994141
 30
0.0
 11
-41.3136476877895
 21
-196.065093994141
 31
0.0
  0
LINE
  5
   553
  8
0
  6
DASHDOT
 62
     2
 10
-4.09916400909424
 20
-154.854652442136
 30
0.0
 11
-4.09916400909424
 21
-178.940093994141
 31
0.0
  0
LINE
  5
   554
  8
0
  6
CONTINUOUS
 62
     7
 10
0.900835990905762
 20
-154.171504816482
 30
0.0
 11
0.900835990905762
 21
-176.440093994141
 31
0.0
  0
LINE
  5
   555
  8
0
  6
CONTINUOUS
 62
     7
 10
3.46918561475061
 20
-156.815093994141
 30
0.0
 11
-45.7161546086689
 21
-156.815093994141
 31
0.0
  0
LINE
  5
   556
  8
0
  6
CONTINUOUS
 62
     7
 10
4.15879507856474
 20
-201.065093994141
 30
0.0
 11
-45.4125334417117
 21
-201.065093994141
 31
0.0
  0
LINE
  5
   557
  8
0
  6
DASHDOT
 62
     2
 10
8.3826530444263
 20
-178.940093994141
 30
0.0
 11
-59.8345388721788
 21
-178.940093994141
 31
0.0
  0
LINE
  5
   558
  8
0
  6
DASHDOT
 62
     2
 10
-12.8491640090942
 20
-147.217195771862
 30
0.0
 11
-12.8491640090942
 21
-173.940093994141
 31
0.0
  0
CIRCLE
  5
   559
  8
0
  6
CONTINUOUS
 62
     7
 10
-4.09916400909424
 20
-161.815093994141
 30
0.0
 40
0.6875
  0
CIRCLE
  5
   55A
  8
0
  6
CONTINUOUS
 62
     7
 10
-4.09916400909424
 20
-196.065093994141
 30
0.0
 40
0.6875
  0
LINE
  5
   55B
  8
0
  6
CONTINUOUS
 62
     7
 10
8.38265304442629
 20
-176.440093994141
 30
0.0
 11
-47.3101657351942
 21
-176.440093994141
 31
0.0
  0
LINE
  5
   55C
  8
0
  6
DASHDOT
 62
     2
 10
-12.8491640090942
 20
-171.440093994141
 30
0.0
 11
-12.8491640090942
 21
-206.290711645115
 31
0.0
  0
LINE
  5
   55D
  8
0
  6
DASHDOT
 62
     2
 10
-4.09916400909424
 20
-178.940093994141
 30
0.0
 11
-4.09916400909424
 21
-200.01830102702
 31
0.0
  0
LINE
  5
   55E
  8
0
  6
CONTINUOUS
 62
     7
 10
0.900835990905762
 20
-181.440093994141
 30
0.0
 11
0.900835990905762
 21
-204.221883253672
 31
0.0
  0
LINE
  5
   55F
  8
0
  6
CONTINUOUS
 62
     7
 10
8.3826530444263
 20
-181.440093994141
 30
0.0
 11
-47.1583551517156
 21
-181.440093994141
 31
0.0
  0
LINE
  5
   560
  8
0
  6
DASHDOT
 62
     2
 10
-39.0991640090942
 20
-154.930557733875
 30
0.0
 11
-39.0991640090942
 21
-200.473732777456
 31
0.0
  0
CIRCLE
  5
   561
  8
0
  6
CONTINUOUS
 62
     2
 10
-39.0991640090942
 20
-161.815093994141
 30
0.0
 40
0.6875
  0
CIRCLE
  5
   562
  8
0
  6
CONTINUOUS
 62
     2
 10
-39.0991640090942
 20
-196.065093994141
 30
0.0
 40
0.6875
  0
LINE
  5
   563
  8
0
  6
CONTINUOUS
 62
     7
 10
-44.0991640090942
 20
-154.095599524743
 30
0.0
 11
-44.0991640090942
 21
-176.440093994141
 31
0.0
  0
LINE
  5
   564
  8
0
  6
CONTINUOUS
 62
     7
 10
-44.0991640090942
 20
-181.440093994141
 30
0.0
 11
-44.0991640090942
 21
-203.358133863549
 31
0.0
  0
INSERT
  5
   565
  8
0
  6
CONTINUOUS
 62
     7
  2
*UDIM254
 10
0.0
 20
0.0
 30
0.0
  0
INSERT
  5
   566
  8
0
  6
CONTINUOUS
 62
     2
  2
*UDIM255
 10
0.0
 20
0.0
 30
0.0
  0
INSERT
  5
   567
  8
0
  6
CONTINUOUS
 62
     2
  2
*UDIM256
 10
0.0
 20
0.0
 30
0.0
  0
INSERT
  5
   568
  8
0
  6
CONTINUOUS
 62
     2
  2
*UDIM257
 10
0.0
 20
0.0
 30
0.0
  0
INSERT
  5
   569
  8
0
  6
CONTINUOUS
 62
     2
  2
*UDIM258
 10
0.0
 20
0.0
 30
0.0
  0
TEXT
  5
   56A
  8
0
  6
CONTINUOUS
 62
     7
 10
-63.7677354839756
 20
-179.985685376323
 30
0.0
 40
3.00000002980232
  1
x
 50
359.999999896069
 41
0.916666604744064
 72
     2
 11
-61.5677356151058
 21
-179.985685380303
 31
0.0
  0
TEXT
  5
   56B
  8
0
  6
CONTINUOUS
 62
     7
 10
12.0893011066006
 20
-180.416691331066
 30
0.0
 40
3.00000002980232
  1
x
 50
359.999999896069
 41
0.916666604744064
 72
     2
 11
14.2893009754704
 21
-180.416691335045
 31
0.0
  0
LINE
  5
   56C
  8
0
  6
DASHDOT
 62
     2
 10
237.844475668004
 20
25.8417301177979
 30
0.0
 11
287.737171603652
 21
25.8417301177979
 31
0.0
  0
LINE
  5
   56D
  8
0
  6
CONTINUOUS
 62
     7
 10
244.368286132813
 20
11.8417301177979
 30
0.0
 11
281.118286132813
 21
11.8417301177979
 31
0.0
  0
LINE
  5
   56E
  8
0
  6
CONTINUOUS
 62
     7
 10
244.368286132813
 20
39.8417301177979
 30
0.0
 11
281.118286132813
 21
39.8417301177979
 31
0.0
  0
LINE
  5
   56F
  8
0
  6
CONTINUOUS
 62
     7
 10
244.368286132813
 20
39.8417301177979
 30
0.0
 11
244.368286132813
 21
11.8417301177979
 31
0.0
  0
LINE
  5
   570
  8
0
  6
CONTINUOUS
 62
     7
 10
281.118286132813
 20
39.8417301177979
 30
0.0
 11
281.118286132813
 21
11.8417301177979
 31
0.0
  0
LINE
  5
   571
  8
0
  6
DASHDOT
 62
     2
 10
262.743286132813
 20
49.9501793453867
 30
0.0
 11
262.743286132813
 21
3.89745908074701E-3
 31
0.0
  0
CIRCLE
  5
   572
  8
0
  6
CONTINUOUS
 62
     7
 10
248.368286132813
 20
43.5917301177979
 30
0.0
 40
0.875
  0
CIRCLE
  5
   573
  8
0
  6
CONTINUOUS
 62
     7
 10
277.118286132813
 20
43.5917301177979
 30
0.0
 40
0.875
  0
CIRCLE
  5
   574
  8
0
  6
CONTINUOUS
 62
     7
 10
277.118286132813
 20
8.09173011779785
 30
0.0
 40
0.875
  0
CIRCLE
  5
   575
  8
0
  6
CONTINUOUS
 62
     7
 10
248.368286132813
 20
8.09173011779785
 30
0.0
 40
0.875
  0
LINE
  5
   576
  8
0
  6
DASHDOT
 62
     7
 10
277.118286132813
 20
45.7167301177979
 30
0.0
 11
277.118286132813
 21
41.4667301177978
 31
0.0
  0
LINE
  5
   577
  8
0
  6
DASHDOT
 62
     7
 10
274.993286132813
 20
43.5917301177979
 30
0.0
 11
279.243286132813
 21
43.5917301177979
 31
0.0
  0
LINE
  5
   578
  8
0
  6
DASHDOT
 62
     7
 10
248.368286132813
 20
45.7167301177979
 30
0.0
 11
248.368286132813
 21
41.4667301177978
 31
0.0
  0
LINE
  5
   579
  8
0
  6
DASHDOT
 62
     7
 10
246.243286132813
 20
43.5917301177979
 30
0.0
 11
250.493286132813
 21
43.5917301177979
 31
0.0
  0
LINE
  5
   57A
  8
0
  6
DASHDOT
 62
     7
 10
248.368286132813
 20
10.2167301177979
 30
0.0
 11
248.368286132813
 21
5.96673011779785
 31
0.0
  0
LINE
  5
   57B
  8
0
  6
DASHDOT
 62
     7
 10
246.243286132813
 20
8.09173011779785
 30
0.0
 11
250.493286132813
 21
8.09173011779785
 31
0.0
  0
LINE
  5
   57C
  8
0
  6
DASHDOT
 62
     7
 10
277.118286132813
 20
10.2167301177979
 30
0.0
 11
277.118286132813
 21
5.96673011779785
 31
0.0
  0
LINE
  5
   57D
  8
0
  6
DASHDOT
 62
     7
 10
274.993286132813
 20
8.09173011779785
 30
0.0
 11
279.243286132813
 21
8.09173011779785
 31
0.0
  0
LINE
  5
   57E
  8
0
  6
CONTINUOUS
 62
     7
 10
241.643387141428
 20
46.7008859141215
 30
0.0
 11
283.605690882339
 21
46.7008859141215
 31
0.0
  0
LINE
  5
   57F
  8
0
  6
CONTINUOUS
 62
     7
 10
241.643387141428
 20
4.36723435249409
 30
0.0
 11
283.605690882339
 21
4.36723435249409
 31
0.0
  0
LINE
  5
   580
  8
0
  6
CONTINUOUS
 62
     7
 10
283.605690882339
 20
46.7008859141215
 30
0.0
 11
283.605690882339
 21
4.36723435249409
 31
0.0
  0
LINE
  5
   581
  8
0
  6
CONTINUOUS
 62
     7
 10
241.643387141428
 20
46.7008859141215
 30
0.0
 11
241.643387141428
 21
4.36723435249409
 31
0.0
  0
TEXT
  5
   582
  8
0
  6
CONTINUOUS
 62
     2
 10
136.547335138747
 20
-193.91461848667
 30
0.0
 40
2.00000008940697
  1
M 3076 95-01-16
 50
359.999999844103
 41
0.749999861419206
 72
     1
 11
147.647333582801
 21
-192.914618472113
 31
0.0
 73
     2
  0
TEXT
  5
   583
  8
0
  6
CONTINUOUS
 62
     2
 10
162.137335033694
 20
-193.914618488707
 30
0.0
 40
2.00000008940697
  1
M4371 97-07-07
 50
359.999999844103
 41
0.749999861419206
 72
     1
 11
172.487333582801
 21
-192.914618472113
 31
0.0
 73
     2
  0
TEXT
  5
   584
  8
0
  6
CONTINUOUS
 62
     2
 10
186.977335033694
 20
-193.914618488707
 30
0.0
 40
2.00000008940697
  1
M4380 97-11-03
 50
359.999999844103
 41
0.749999861419206
 72
     1
 11
197.327333582801
 21
-192.914618472113
 31
0.0
 73
     2
  0
TEXT
  5
   585
  8
0
  6
CONTINUOUS
 62
     1
 10
130.273757931854
 20
-187.151844073734
 30
0.0
 40
2.00000008940697
  1
97-11-03 SCARPELLINI
 50
359.999999844103
 41
0.749999861419206
 72
     2
 11
159.973753764
 21
-187.151844154396
 31
0.0
  0
TEXT
  5
   586
  8
0
  6
CONTINUOUS
 62
     7
 10
262.102625956036
 20
-9.37263686418026
 30
0.0
 40
3.00000002980232
  1
Y
 50
359.999999844103
 41
0.916666604744064
 72
     2
 11
264.302625824906
 21
-9.37263687015521
 31
0.0
  0
TEXT
  5
   587
  8
0
  6
CONTINUOUS
 62
     7
 10
261.359930386044
 20
58.95536225081
 30
0.0
 40
3.00000002980232
  1
Y
 50
359.999999844103
 41
0.916666604744064
 72
     2
 11
263.559930254914
 21
58.955362244835
 31
0.0
  0
TEXT
  5
   588
  8
0
  6
CONTINUOUS
 62
     7
 10
216.42684565971
 20
23.6773209606907
 30
0.0
 40
3.00000002980232
  1
X
 50
359.999999844103
 41
0.916666604744064
 72
     2
 11
218.62684552858
 21
23.6773209547157
 31
0.0
  0
TEXT
  5
   589
  8
0
  6
CONTINUOUS
 62
     7
 10
289.744665255047
 20
24.0990641915849
 30
0.0
 40
3.00000002980232
  1
X
 50
359.999999844103
 41
0.916666604744064
 72
     2
 11
291.944665123917
 21
24.0990641856099
 31
0.0
  0
TEXT
  5
   58A
  8
0
  6
CONTINUOUS
 62
     7
 10
252.879018094537
 20
-6.77320145248756
 30
0.0
 40
3.00000002980232
  1
=      =
 50
359.999999844103
 41
0.916666604744064
 72
     2
 11
274.329016854264
 21
-6.7732015107433
 31
0.0
  0
TEXT
  5
   58B
  8
0
  6
CONTINUOUS
 62
     7
 10
252.136322286126
 20
48.8361354005398
 30
0.0
 40
3.00000002980232
  1
=      =
 50
359.999999844103
 41
0.916666604744064
 72
     2
 11
273.586321045853
 21
48.8361353422841
 31
0.0
  0
INSERT
  5
   58C
  8
0
  6
CONTINUOUS
 62
     7
  2
*UDIM259
 10
0.0
 20
0.0
 30
0.0
  0
INSERT
  5
   58D
  8
0
  6
CONTINUOUS
 62
     7
  2
*UDIM260
 10
0.0
 20
0.0
 30
0.0
  0
INSERT
  5
   58E
  8
0
  6
CONTINUOUS
 62
     7
  2
*UDIM261
 10
0.0
 20
0.0
 30
0.0
  0
INSERT
  5
   58F
  8
0
  6
CONTINUOUS
 62
     7
  2
*UDIM262
 10
0.0
 20
0.0
 30
0.0
  0
INSERT
  5
   590
  8
0
  6
CONTINUOUS
 62
     7
  2
*UDIM263
 10
0.0
 20
0.0
 30
0.0
  0
TEXT
  5
   591
  8
0
  6
CONTINUOUS
 62
     1
 10
130.273757943779
 20
-178.685094749288
 30
0.0
 40
2.00000008940697
  1
93-04-05 ROTA S.
 50
359.999999844103
 41
0.749999861419206
 72
     2
 11
153.97375461635
 21
-178.685094813654
 31
0.0
  0
TEXT
  5
   592
  8
0
  6
CONTINUOUS
 62
     7
 10
240.040242257936
 20
16.0718720604033
 30
0.0
 40
3.00000002980232
  1
=     =
 50
449.999999844103
 41
0.916666604744064
 72
     2
 11
240.0402423087
 21
34.771870978579
 31
0.0
  0
TEXT
  5
   593
  8
0
  6
CONTINUOUS
 62
     7
 10
231.50114899248
 20
13.6215483187686
 30
0.0
 40
3.00000002980232
  1
=       =
 50
449.999999844103
 41
0.916666604744064
 72
     2
 11
231.501149058175
 21
37.8215469200463
 31
0.0
  0
TEXT
  5
   594
  8
0
  6
CONTINUOUS
 62
     1
 10
231.973709124863
 20
-204.68987074414
 30
0.0
 40
4.00000017881393
  1
601840/071
 50
359.999999844103
 41
0.937499973922969
 72
     2
 11
268.723709724635
 21
-204.689870843949
 31
0.0
  0
TEXT
  5
   595
  8
0
  6
CONTINUOUS
 62
     1
 10
248.059402479634
 20
-195.708288025267
 30
0.0
 40
3.00000002980232
  1
S6 630 800
 50
359.999999844103
 41
0.916666604744064
 72
     2
 11
275.009400922463
 21
-195.70828809846
 31
0.0
  0
TEXT
  5
   596
  8
0
  6
CONTINUOUS
 62
     1
 10
221.524982720872
 20
-177.398015943412
 30
0.0
 40
2.00000008940697
  1
4POLE LOW VOLTAGE M.C.C.B SERIES ISOMAX
 50
359.999999844103
 41
0.749999861419206
 72
     1
 11
250.62497864365
 21
-176.398015977741
 31
0.0
 73
     2
  0
TEXT
  5
   597
  8
0
  6
CONTINUOUS
 62
     1
 10
222.274982651593
 20
-180.398015945449
 30
0.0
 40
2.00000008940697
  1
FIXED VERSION EXTENDED FRONT TERMINALS
 50
359.999999844103
 41
0.749999861419206
 72
     1
 11
250.624978679425
 21
-179.398015977741
 31
0.0
 73
     2
  0
TEXT
  5
   598
  8
0
  6
CONTINUOUS
 62
     1
 10
224.727374353518
 20
-185.468282685377
 30
0.0
 40
2.00000008940697
  1
INTERR.AUTOMATICO SERIE ISOMAX
 50
359.999999844103
 41
0.749999861419206
 72
     1
 11
247.077371221775
 21
-184.468282701374
 31
0.0
 73
     2
  0
TEXT
  5
   599
  8
0
  6
CONTINUOUS
 62
     1
 10
211.22737628025
 20
-188.468282648713
 30
0.0
 40
2.00000008940697
  1
TETRAP.ESECUZIONE FISSA TERMINALI ANT.PROLUNGATI
 50
359.999999844103
 41
0.749999861419206
 72
     1
 11
247.077371257549
 21
-187.468282701374
 31
0.0
 73
     2
  0
LINE
  5
   59A
  8
0
  6
CONTINUOUS
 62
     3
 10
141.143266510963
 20
-69.3558749049898
 30
0.0
 11
142.26826648116
 21
-69.3558749049898
 31
0.0
  0
LINE
  5
   59B
  8
0
  6
CONTINUOUS
 62
     3
 10
141.143266510963
 20
-65.305856776906
 30
0.0
 11
142.26826648116
 21
-65.305856776906
 31
0.0
  0
LINE
  5
   59C
  8
0
  6
CONTINUOUS
 62
     3
 10
141.143266510963
 20
-64.8558593637473
 30
0.0
 11
142.26826648116
 21
-64.8558593637473
 31
0.0
  0
LINE
  5
   59D
  8
0
  6
CONTINUOUS
 62
     3
 10
141.143266510963
 20
-56.7558617240914
 30
0.0
 11
142.26826648116
 21
-56.7558617240914
 31
0.0
  0
LINE
  5
   59E
  8
0
  6
CONTINUOUS
 62
     3
 10
141.143266510963
 20
-56.3058617360123
 30
0.0
 11
142.26826648116
 21
-56.3058617360123
 31
0.0
  0
LINE
  5
   59F
  8
0
  6
CONTINUOUS
 62
     3
 10
141.143266510963
 20
-46.8558619863518
 30
0.0
 11
142.26826648116
 21
-46.8558619863518
 31
0.0
  0
LINE
  5
   5A0
  8
0
  6
CONTINUOUS
 62
     3
 10
141.143266510963
 20
-46.4058619982728
 30
0.0
 11
142.26826648116
 21
-46.4058619982728
 31
0.0
  0
LINE
  5
   5A1
  8
0
  6
CONTINUOUS
 62
     3
 10
141.143266510963
 20
-38.3058622128495
 30
0.0
 11
142.26826648116
 21
-38.3058622128495
 31
0.0
  0
LINE
  5
   5A2
  8
0
  6
CONTINUOUS
 62
     3
 10
141.143266510963
 20
-37.8558622247704
 30
0.0
 11
142.26826648116
 21
-37.8558622247704
 31
0.0
  0
LINE
  5
   5A3
  8
0
  6
CONTINUOUS
 62
     3
 10
141.143266510963
 20
-22.1058830231423
 30
0.0
 11
142.26826648116
 21
-22.1058830231423
 31
0.0
  0
LINE
  5
   5A4
  8
0
  6
CONTINUOUS
 62
   130
 10
90.9682953596115
 20
-42.4683550179007
 30
0.0
 11
90.9682953596115
 21
-36.6183551728727
 31
0.0
  0
LINE
  5
   5A5
  8
0
  6
CONTINUOUS
 62
   130
 10
90.5182957470417
 20
5.90664370059947
 30
0.0
 11
91.6432952880859
 21
5.90664370059947
 31
0.0
  0
LINE
  5
   5A6
  8
0
  6
CONTINUOUS
 62
   130
 10
90.5182957470417
 20
1.40663695335387
 30
0.0
 11
91.6432952880859
 21
1.40663695335387
 31
0.0
  0
LINE
  5
   5A7
  8
0
  6
CONTINUOUS
 62
   130
 10
90.5182957470417
 20
1.40663695335387
 30
0.0
 11
90.5182957470417
 21
2.00813840226327
 31
0.0
  0
LINE
  5
   5A8
  8
0
  6
CONTINUOUS
 62
   130
 10
90.5182957470417
 20
2.00817960099265
 30
0.0
 11
90.5182957470417
 21
2.78583308380983
 31
0.0
  0
LINE
  5
   5A9
  8
0
  6
CONTINUOUS
 62
   130
 10
90.5182957470417
 20
2.785888015449
 30
0.0
 11
90.5182957470417
 21
5.90664327144604
 31
0.0
  0
LINE
  5
   5AA
  8
0
  6
CONTINUOUS
 62
     3
 10
91.1932953000069
 20
-78.6933544874193
 30
0.0
 11
91.6432952612638
 21
-78.6933544874193
 31
0.0
  0
LINE
  5
   5AB
  8
0
  6
CONTINUOUS
 62
   130
 10
91.1932953000069
 20
-71.9433611035347
 30
0.0
 11
91.1932953000069
 21
-68.1183543384077
 31
0.0
  0
LINE
  5
   5AC
  8
0
  6
CONTINUOUS
 62
     3
 10
91.1932953000069
 20
-42.1505342865739
 30
0.0
 11
91.1932953000069
 21
-36.6183551728727
 31
0.0
  0
LINE
  5
   5AD
  8
0
  6
CONTINUOUS
 62
   130
 10
91.1932953000067
 20
-5.11835599866774
 30
0.0
 11
94.7932952046394
 21
-5.11841093030691
 31
0.0
  0
LINE
  5
   5AE
  8
0
  6
CONTINUOUS
 62
   130
 10
91.6432944721363
 20
-4.84739049357631
 30
0.0
 11
91.6432953572651
 21
-5.11837513604905
 31
0.0
  0
LINE
  5
   5AF
  8
0
  6
CONTINUOUS
 62
   130
 10
91.6432952880859
 20
-5.11836287379266
 30
0.0
 11
91.6432952880859
 21
10.6316367089748
 31
0.0
  0
LINE
  5
   5B0
  8
0
  6
CONTINUOUS
 62
     3
 10
91.6432952612638
 20
-78.6933544874193
 30
0.0
 11
111.652131095957
 21
-78.6933544874193
 31
0.0
  0
LINE
  5
   5B1
  8
0
  6
CONTINUOUS
 62
     3
 10
124.515787979961
 20
9.28164361119251
 30
0.0
 11
126.293273743988
 21
9.28164361119251
 31
0.0
  0
LINE
  5
   5B2
  8
0
  6
CONTINUOUS
 62
   130
 10
91.1932936008458
 20
-49.0857054945827
 30
0.0
 11
91.6432952880859
 21
-48.9651320900662
 31
0.0
  0
LINE
  5
   5B3
  8
0
  6
CONTINUOUS
 62
     3
 10
91.1932986140585
 20
-42.150540670574
 30
0.0
 11
94.8984745413123
 21
-43.1433748893824
 31
0.0
  0
LINE
  5
   5B4
  8
0
  6
CONTINUOUS
 62
     3
 10
92.7682664191714
 20
-43.143374851486
 30
0.0
 11
133.808265331983
 21
-43.1433553631515
 31
0.0
  0
LINE
  5
   5B5
  8
0
  6
CONTINUOUS
 62
     3
 10
92.7682664191714
 20
-48.0933884533082
 30
0.0
 11
133.808265331983
 21
-48.0933689660702
 31
0.0
  0
LINE
  5
   5B6
  8
0
  6
CONTINUOUS
 62
   130
 10
91.6432952880859
 20
-48.9651543147884
 30
0.0
 11
91.6432952880859
 21
-42.4683550179007
 31
0.0
  0
LINE
  5
   5B7
  8
0
  6
DASHDOT
 62
   130
 10
90.5182953178883
 20
-78.6933540582659
 30
0.0
 11
90.5182953178883
 21
19.9692776581521
 31
0.0
  0
LINE
  5
   5B8
  8
0
  6
CONTINUOUS
 62
   130
 10
90.5182953178882
 20
-71.9433542370798
 30
0.0
 11
91.1932948708534
 21
-71.9433542370798
 31
0.0
  0
LINE
  5
   5B9
  8
0
  6
CONTINUOUS
 62
     3
 10
90.5182954609391
 20
-78.6933540582658
 30
0.0
 11
91.1932954430577
 21
-78.6933544874192
 31
0.0
  0
LINE
  5
   5BA
  8
0
  6
CONTINUOUS
 62
     3
 10
111.652120268661
 20
-78.6933565356115
 30
0.0
 11
111.893270145348
 21
-79.5933560428292
 31
0.0
  0
LINE
  5
   5BB
  8
0
  6
CONTINUOUS
 62
     3
 10
111.66828789115
 20
-79.593354034424
 30
0.0
 11
126.293266904355
 21
-79.593354034424
 31
0.0
  0
LINE
  5
   5BC
  8
0
  6
CONTINUOUS
 62
     3
 10
123.81826696992
 20
-48.2058823317284
 30
0.0
 11
123.81826696992
 21
-48.0933686017988
 31
0.0
  0
LINE
  5
   5BD
  8
0
  6
CONTINUOUS
 62
     3
 10
123.81826696992
 20
-43.1433550000193
 30
0.0
 11
123.81826696992
 21
-43.0308824688191
 31
0.0
  0
LINE
  5
   5BE
  8
0
  6
CONTINUOUS
 62
     3
 10
123.81826696992
 20
-43.0308824688191
 30
0.0
 11
133.808265331983
 21
-43.0308824688191
 31
0.0
  0
LINE
  5
   5BF
  8
0
  6
CONTINUOUS
 62
     3
 10
123.818262600202
 20
-48.2058848269281
 30
0.0
 11
133.808265331983
 21
-48.2059402576461
 31
0.0
  0
LINE
  5
   5C0
  8
0
  6
CONTINUOUS
 62
     1
 10
90.5182974636554
 20
-66.8246044614708
 30
0.0
 11
90.5182974636554
 21
-63.5621182808073
 31
0.0
  0
LINE
  5
   5C1
  8
0
  6
CONTINUOUS
 62
   130
 10
90.9682953051077
 20
-62.2683544933798
 30
0.0
 11
91.1932952991472
 21
-62.2683544933798
 31
0.0
  0
LINE
  5
   5C2
  8
0
  6
CONTINUOUS
 62
   130
 10
90.9682953051077
 20
-68.1183543384077
 30
0.0
 11
91.1932952991472
 21
-68.1183543384077
 31
0.0
  0
LINE
  5
   5C3
  8
0
  6
CONTINUOUS
 62
   130
 10
90.9682957351207
 20
-36.6183551728727
 30
0.0
 11
91.1932961583137
 21
-36.6183551728727
 31
0.0
  0
LINE
  5
   5C4
  8
0
  6
CONTINUOUS
 62
   130
 10
90.9682957082987
 20
-42.4683550179007
 30
0.0
 11
91.6432952612638
 21
-42.4683550179007
 31
0.0
  0
LINE
  5
   5C5
  8
0
  6
CONTINUOUS
 62
     1
 10
90.5182953178882
 20
-63.5621181920169
 30
0.0
 11
90.9682978808879
 21
-63.5621181920169
 31
0.0
  0
LINE
  5
   5C6
  8
0
  6
CONTINUOUS
 62
     1
 10
90.5182957470417
 20
-66.8246043726804
 30
0.0
 11
90.9682978808879
 21
-66.8246043726804
 31
0.0
  0
LINE
  5
   5C7
  8
0
  6
CONTINUOUS
 62
     3
 10
136.193266642093
 20
-79.5933746337887
 30
0.0
 11
136.193266642093
 21
-69.3558749049898
 31
0.0
  0
LINE
  5
   5C8
  8
0
  6
CONTINUOUS
 62
     3
 10
136.193266642093
 20
-22.1058830231423
 30
0.0
 11
136.193266642093
 21
-0.393383598327105
 31
0.0
  0
LINE
  5
   5C9
  8
0
  6
CONTINUOUS
 62
     3
 10
133.943266701697
 20
-0.393383598327105
 30
0.0
 11
136.193266642093
 21
-0.393383598327105
 31
0.0
  0
LINE
  5
   5CA
  8
0
  6
CONTINUOUS
 62
     3
 10
133.943266701697
 20
-79.5933746337887
 30
0.0
 11
136.193266642093
 21
-79.5933746337887
 31
0.0
  0
LINE
  5
   5CB
  8
0
  6
CONTINUOUS
 62
     3
 10
137.093266618251
 20
-69.3558749049898
 30
0.0
 11
137.093266618251
 21
-22.1058830231423
 31
0.0
  0
LINE
  5
   5CC
  8
0
  6
CONTINUOUS
 62
     3
 10
136.193266642093
 20
-69.3558749049898
 30
0.0
 11
137.093266618251
 21
-69.3558749049898
 31
0.0
  0
LINE
  5
   5CD
  8
0
  6
CONTINUOUS
 62
     3
 10
136.193266642093
 20
-22.1058830231423
 30
0.0
 11
137.093266618251
 21
-22.1058830231423
 31
0.0
  0
LINE
  5
   5CE
  8
0
  6
CONTINUOUS
 62
     3
 10
124.943266940116
 20
-34.8183646040516
 30
0.0
 11
124.943266940116
 21
-1.43009512062254
 31
0.0
  0
LINE
  5
   5CF
  8
0
  6
CONTINUOUS
 62
     3
 10
124.943265857388
 20
-34.8183644235915
 30
0.0
 11
126.293266209287
 21
-35.0433712530736
 31
0.0
  0
LINE
  5
   5D0
  8
0
  6
CONTINUOUS
 62
     3
 10
124.943266511854
 20
-34.8183677373875
 30
0.0
 11
124.943266941008
 21
-34.5933746095933
 31
0.0
  0
LINE
  5
   5D1
  8
0
  6
CONTINUOUS
 62
     3
 10
124.943266081863
 20
-3.31837100559831
 30
0.0
 11
124.943266511016
 21
-3.54337099963784
 31
0.0
  0
LINE
  5
   5D2
  8
0
  6
CONTINUOUS
 62
     3
 10
126.293262150644
 20
9.28162324436447
 30
0.0
 11
134.483260560392
 21
9.28161637790974
 31
0.0
  0
LINE
  5
   5D3
  8
0
  6
CONTINUOUS
 62
     3
 10
126.293266904353
 20
10.6316367089748
 30
0.0
 11
134.843266677856
 21
10.6316367089748
 31
0.0
  0
LINE
  5
   5D4
  8
0
  6
CONTINUOUS
 62
     3
 10
126.293266904353
 20
-79.593354034424
 30
0.0
 11
133.943259835242
 21
-79.593354034424
 31
0.0
  0
LINE
  5
   5D5
  8
0
  6
CONTINUOUS
 62
     3
 10
126.293266904353
 20
-78.6933609247208
 30
0.0
 11
133.808265331983
 21
-78.6933609247208
 31
0.0
  0
LINE
  5
   5D6
  8
0
  6
CONTINUOUS
 62
     3
 10
134.843266677856
 20
-0.393383598327105
 30
0.0
 11
134.843266677856
 21
-0.168376737832673
 31
0.0
  0
LINE
  5
   5D7
  8
0
  6
CONTINUOUS
 62
     3
 10
126.293266904353
 20
-79.593354034424
 30
0.0
 11
126.293266904353
 21
-48.2058985597838
 31
0.0
  0
LINE
  5
   5D8
  8
0
  6
CONTINUOUS
 62
     3
 10
126.293266904353
 20
-1.068375438063
 30
0.0
 11
126.293266904353
 21
10.6316367089748
 31
0.0
  0
LINE
  5
   5D9
  8
0
  6
CONTINUOUS
 62
     3
 10
134.843266677856
 20
10.6316367089748
 30
0.0
 11
135.068266671895
 21
10.6316367089748
 31
0.0
  0
LINE
  5
   5DA
  8
0
  6
CONTINUOUS
 62
     3
 10
134.843266677856
 20
-0.168376737832673
 30
0.0
 11
135.068266671895
 21
-0.168376737832673
 31
0.0
  0
LINE
  5
   5DB
  8
0
  6
CONTINUOUS
 62
     3
 10
135.068266671895
 20
-0.168376737832673
 30
0.0
 11
135.068266671895
 21
10.6316367089748
 31
0.0
  0
LINE
  5
   5DC
  8
0
  6
CONTINUOUS
 62
     3
 10
133.808265331983
 20
-43.0308824688191
 30
0.0
 11
133.808265331983
 21
-0.168390470742466
 31
0.0
  0
LINE
  5
   5DD
  8
0
  6
CONTINUOUS
 62
     3
 10
133.808265331983
 20
-78.6933609247208
 30
0.0
 11
133.808265331983
 21
-48.2059402576461
 31
0.0
  0
LINE
  5
   5DE
  8
0
  6
CONTINUOUS
 62
     3
 10
133.808260556676
 20
-0.16838424907219
 30
0.0
 11
134.843261902549
 21
-0.168377382617351
 31
0.0
  0
LINE
  5
   5DF
  8
0
  6
CONTINUOUS
 62
     3
 10
134.483265314101
 20
-0.168390470742466
 30
0.0
 11
134.483265314101
 21
9.28162301182782
 31
0.0
  0
LINE
  5
   5E0
  8
0
  6
CONTINUOUS
 62
     3
 10
137.093266618251
 20
-69.3558749049898
 30
0.0
 11
138.668266576528
 21
-69.3558749049898
 31
0.0
  0
LINE
  5
   5E1
  8
0
  6
CONTINUOUS
 62
     3
 10
137.093266618251
 20
-22.1058830231423
 30
0.0
 11
138.668266576528
 21
-22.1058830231423
 31
0.0
  0
LINE
  5
   5E2
  8
0
  6
CONTINUOUS
 62
     3
 10
142.26826648116
 20
-69.3558749049898
 30
0.0
 11
142.26826648116
 21
-65.305856776906
 31
0.0
  0
LINE
  5
   5E3
  8
0
  6
CONTINUOUS
 62
     3
 10
142.26826648116
 20
-23.1183898627751
 30
0.0
 11
142.26826648116
 21
-22.1058830231423
 31
0.0
  0
LINE
  5
   5E4
  8
0
  6
CONTINUOUS
 62
     3
 10
134.843259811401
 20
-0.393369865417313
 30
0.0
 11
136.193266642093
 21
-0.393369865417313
 31
0.0
  0
LINE
  5
   5E5
  8
0
  6
CONTINUOUS
 62
     3
 10
136.193266642093
 20
-22.1058692902325
 30
0.0
 11
137.093266618251
 21
-22.1058692902325
 31
0.0
  0
LINE
  5
   5E6
  8
0
  6
CONTINUOUS
 62
     3
 10
142.26826648116
 20
-27.3933760166165
 30
0.0
 11
142.26826648116
 21
-23.1183761298653
 31
0.0
  0
LINE
  5
   5E7
  8
0
  6
CONTINUOUS
 62
     3
 10
133.943266701697
 20
-79.5933746337887
 30
0.0
 11
133.943266701697
 21
-0.393383598327105
 31
0.0
  0
LINE
  5
   5E8
  8
0
  6
CONTINUOUS
 62
     3
 10
124.943265999472
 20
-1.43010062664594
 30
0.0
 11
126.293265510212
 21
-1.06837581161527
 31
0.0
  0
LINE
  5
   5E9
  8
0
  6
CONTINUOUS
 62
     3
 10
133.808267434735
 20
-53.2908812416371
 30
0.0
 11
133.943268800046
 21
-53.3146846594093
 31
0.0
  0
LINE
  5
   5EA
  8
0
  6
CONTINUOUS
 62
     3
 10
133.808267790099
 20
-78.6933540414354
 30
0.0
 11
133.943262286333
 21
-78.7821922294595
 31
0.0
  0
LINE
  5
   5EB
  8
0
  6
CONTINUOUS
 62
     3
 10
133.808263114761
 20
-37.9458771488927
 30
0.0
 11
133.943264479724
 21
-37.9220711516618
 31
0.0
  0
LINE
  5
   5EC
  8
0
  6
CONTINUOUS
 62
     3
 10
133.808263460839
 20
-4.07356693096879
 30
0.0
 11
133.943257956528
 21
-4.13103915061427
 31
0.0
  0
LINE
  5
   5ED
  8
0
  6
CONTINUOUS
 62
     3
 10
133.808270800433
 20
-2.11315926880853
 30
0.0
 11
133.94326530309
 21
-2.05569391524615
 31
0.0
  0
LINE
  5
   5EE
  8
0
  6
CONTINUOUS
 62
     2
 10
90.5182953178883
 20
-105.243360221386
 30
0.0
 11
91.4182884275915
 21
-105.243360221386
 31
0.0
  0
LINE
  5
   5EF
  8
0
  6
CONTINUOUS
 62
     2
 10
90.5182953178883
 20
-105.243360221386
 30
0.0
 11
90.5182953178883
 21
-100.74336720705
 31
0.0
  0
LINE
  5
   5F0
  8
0
  6
CONTINUOUS
 62
     3
 10
115.76985057134
 20
-108.708360472918
 30
0.0
 11
133.808285931349
 21
-108.708360472918
 31
0.0
  0
LINE
  5
   5F1
  8
0
  6
CONTINUOUS
 62
     2
 10
91.4182884275915
 20
-109.968360096216
 30
0.0
 11
101.51130593037
 21
-109.968360096216
 31
0.0
  0
LINE
  5
   5F2
  8
0
  6
CONTINUOUS
 62
     2
 10
111.8876230599
 20
-109.968360096215
 30
0.0
 11
135.068287271261
 21
-109.968360096215
 31
0.0
  0
LINE
  5
   5F3
  8
0
  6
CONTINUOUS
 62
     3
 10
90.5182884514334
 20
-78.9183609187606
 30
0.0
 11
111.66828789115
 21
-78.9183609187606
 31
0.0
  0
LINE
  5
   5F4
  8
0
  6
CONTINUOUS
 62
     2
 10
135.068287271261
 20
-109.968360096216
 30
0.0
 11
135.068287271261
 21
-99.1683672487737
 31
0.0
  0
LINE
  5
   5F5
  8
0
  6
CONTINUOUS
 62
     2
 10
90.5182884514334
 20
-114.814865783799
 30
0.0
 11
90.5182884514334
 21
-78.9183609187606
 31
0.0
  0
LINE
  5
   5F6
  8
0
  6
CONTINUOUS
 62
     2
 10
133.808287647963
 20
-99.1683672487737
 30
0.0
 11
135.068287271261
 21
-99.1683672487737
 31
0.0
  0
LINE
  5
   5F7
  8
0
  6
CONTINUOUS
 62
     3
 10
133.808287647963
 20
-108.708358756304
 30
0.0
 11
133.808287647963
 21
-99.1683672487737
 31
0.0
  0
LINE
  5
   5F8
  8
0
  6
CONTINUOUS
 62
     3
 10
111.66828789115
 20
-79.5933677673341
 30
0.0
 11
111.66828789115
 21
-78.9183609187606
 31
0.0
  0
LINE
  5
   5F9
  8
0
  6
CONTINUOUS
 62
     2
 10
133.808287647963
 20
-97.3683672964574
 30
0.0
 11
133.808287647963
 21
-79.5933677673341
 31
0.0
  0
LINE
  5
   5FA
  8
0
  6
CONTINUOUS
 62
     3
 10
116.505787763
 20
-109.968360096216
 30
0.0
 11
116.505787763
 21
-108.708360472917
 31
0.0
  0
LINE
  5
   5FB
  8
0
  6
CONTINUOUS
 62
     2
 10
91.4182884275915
 20
-109.968360096215
 30
0.0
 11
91.4182884275915
 21
-105.243360221386
 31
0.0
  0
LINE
  5
   5FC
  8
0
  6
CONTINUOUS
 62
     3
 10
116.398973190634
 20
-109.968360096216
 30
0.0
 11
116.398973190634
 21
-108.708361760377
 31
0.0
  0
LINE
  5
   5FD
  8
0
  6
CONTINUOUS
 62
     7
 10
136.193287584782
 20
-97.3683675146826
 30
0.0
 11
136.193287584782
 21
-79.8183679795989
 31
0.0
  0
LINE
  5
   5FE
  8
0
  6
CONTINUOUS
 62
     7
 10
133.808287647963
 20
-79.8183679795989
 30
0.0
 11
136.193287584782
 21
-79.8183679795989
 31
0.0
  0
LINE
  5
   5FF
  8
0
  6
CONTINUOUS
 62
     7
 10
133.808287647963
 20
-97.3683675146826
 30
0.0
 11
136.193287584782
 21
-97.3683675146826
 31
0.0
  0
LINE
  5
   600
  8
0
  6
CONTINUOUS
 62
     7
 10
135.068287614584
 20
-97.3683675146826
 30
0.0
 11
135.068287614584
 21
-79.8183679795989
 31
0.0
  0
LINE
  5
   601
  8
0
  6
CONTINUOUS
 62
   130
 10
159.082156055791
 20
-64.6266912674309
 30
0.0
 11
160.226347062651
 21
-61.1768864545805
 31
0.0
  0
LINE
  5
   602
  8
0
  6
CONTINUOUS
 62
   130
 10
147.912692035599
 20
-61.8521168838286
 30
0.0
 11
158.530214562764
 21
-64.9173714938432
 31
0.0
  0
LINE
  5
   603
  8
0
  6
CONTINUOUS
 62
   130
 10
149.612644946325
 20
-56.7266754756954
 30
0.0
 11
159.957505328705
 21
-60.6139793439709
 31
0.0
  0
LINE
  5
   604
  8
0
  6
CONTINUOUS
 62
   130
 10
142.26826648116
 20
-54.2907774615096
 30
0.0
 11
149.612648694378
 21
-56.726676457302
 31
0.0
  0
LINE
  5
   605
  8
0
  6
CONTINUOUS
 62
   130
 10
142.26826648116
 20
-59.9800393821417
 30
0.0
 11
147.912701885449
 21
-61.8521198558918
 31
0.0
  0
ARC
  5
   606
  8
0
  6
CONTINUOUS
 62
   130
 10
158.655037991127
 20
-64.4850334664846
 30
0.0
 40
0.449988379135659
 50
253.896746069851
 51
341.65100647314
  0
ARC
  5
   607
  8
0
  6
CONTINUOUS
 62
   130
 10
159.799233100707
 20
-61.0352227538292
 30
0.0
 40
0.449988470292987
 50
341.650951831627
 51
429.405209888843
  0
ARC
  5
   608
  8
0
  6
CONTINUOUS
 62
     7
 10
114.609252752506
 20
-47.9617892567805
 30
0.0
 40
47.4579340645082
 50
327.264349717579
 51
356.916833212326
  0
LINE
  5
   609
  8
0
  6
CONTINUOUS
 62
     3
 10
126.293266904353
 20
-43.0308824688191
 30
0.0
 11
126.293266904353
 21
-35.0433895468705
 31
0.0
  0
LINE
  5
   60A
  8
0
  6
CONTINUOUS
 62
     3
 10
133.808265331983
 20
-48.0933689660702
 30
0.0
 11
133.808265331983
 21
-43.1433553631515
 31
0.0
  0
LINE
  5
   60B
  8
0
  6
CONTINUOUS
 62
     3
 10
92.7682664191714
 20
-48.0933689660702
 30
0.0
 11
92.7682664191714
 21
-43.143374851486
 31
0.0
  0
LINE
  5
   60C
  8
0
  6
CONTINUOUS
 62
     3
 10
100.731955411406
 20
-6.46351537468563
 30
0.0
 11
100.890795258294
 21
-5.56268955561934
 31
0.0
  0
LINE
  5
   60D
  8
0
  6
CONTINUOUS
 62
     3
 10
100.890788605809
 20
-5.56270015595058
 30
0.0
 11
100.890788605809
 21
3.20663801048813
 31
0.0
  0
LINE
  5
   60E
  8
0
  6
CONTINUOUS
 62
     3
 10
96.840795214672
 20
9.95663672685619
 30
0.0
 11
100.890794799958
 21
9.95663783167615
 31
0.0
  0
LINE
  5
   60F
  8
0
  6
CONTINUOUS
 62
     3
 10
96.6313802841093
 20
-6.46351537468563
 30
0.0
 11
96.8407956660008
 21
-5.27586135326979
 31
0.0
  0
LINE
  5
   610
  8
0
  6
DASHDOT
 62
     7
 10
90.9825661512354
 20
4.55663527181109
 30
0.0
 11
107.654972707394
 21
4.55663981996152
 31
0.0
  0
LINE
  5
   611
  8
0
  6
CONTINUOUS
 62
     7
 10
89.4538034198607
 20
-6.46351537468561
 30
0.0
 11
115.616673282965
 21
-6.46351537468561
 31
0.0
  0
LINE
  5
   612
  8
0
  6
CONTINUOUS
 62
     7
 10
115.616673282965
 20
-6.46351537468563
 30
0.0
 11
116.70825317664
 21
-1.40586186732232
 31
0.0
  0
LINE
  5
   613
  8
0
  6
CONTINUOUS
 62
     7
 10
91.6432952880859
 20
-3.09336292743684
 30
0.0
 11
96.8407951503992
 21
-3.09336292743684
 31
0.0
  0
LINE
  5
   614
  8
0
  6
CONTINUOUS
 62
     7
 10
100.890788605809
 20
-3.09336292743684
 30
0.0
 11
116.344044314745
 21
-3.09336292743684
 31
0.0
  0
LINE
  5
   615
  8
0
  6
CONTINUOUS
 62
     7
 10
101.340788593888
 20
-0.843362987041488
 30
0.0
 11
116.829655812672
 21
-0.843362987041488
 31
0.0
  0
LINE
  5
   616
  8
0
  6
CONTINUOUS
 62
     7
 10
101.340788593888
 20
-1.51836296916012
 30
0.0
 11
101.340788593888
 21
-0.843362987041488
 31
0.0
  0
LINE
  5
   617
  8
0
  6
CONTINUOUS
 62
     7
 10
103.590788534284
 20
-3.09336292743684
 30
0.0
 11
103.590788534284
 21
-2.19336295127873
 31
0.0
  0
LINE
  5
   618
  8
0
  6
CONTINUOUS
 62
     7
 10
101.340788593888
 20
-1.51836296916014
 30
0.0
 11
103.590788534284
 21
-2.19336295127873
 31
0.0
  0
LINE
  5
   619
  8
0
  6
CONTINUOUS
 62
     7
 10
94.7932952046394
 20
-5.11841093030691
 30
0.0
 11
95.2432951927185
 21
-3.09336292743684
 31
0.0
  0
LINE
  5
   61A
  8
0
  6
CONTINUOUS
 62
     7
 10
96.1432951688766
 20
-3.09336292743686
 30
0.0
 11
96.7467742724873
 21
-5.80908334057993
 31
0.0
  0
INSERT
  5
   61B
  8
0
  6
CONTINUOUS
 62
     7
  2
*HATCH197
 10
91.6432952880859
 20
-79.5933609008789
 30
0.0
 41
0.449999988079071
 42
0.449999988079071
 43
0.449999988079071
  0
INSERT
  5
   61C
  8
0
  6
CONTINUOUS
 62
     7
  2
*HATCH198
 10
91.6432952880859
 20
-79.5933609008789
 30
0.0
 41
0.449999988079071
 42
0.449999988079071
 43
0.449999988079071
  0
LINE
  5
   61D
  8
0
  6
CONTINUOUS
 62
     7
 10
91.6657968828423
 20
0.281636000595128
 30
0.0
 11
96.840796316598
 21
0.281637412309493
 31
0.0
  0
LINE
  5
   61E
  8
0
  6
CONTINUOUS
 62
     7
 10
96.8407938629388
 20
7.33119756550515
 30
0.0
 11
96.8407938629388
 21
10.1816295044597
 31
0.0
  0
LINE
  5
   61F
  8
0
  6
CONTINUOUS
 62
     3
 10
96.8407951503992
 20
-5.27586427739297
 30
0.0
 11
96.8407951503992
 21
1.77783106774221
 31
0.0
  0
LINE
  5
   620
  8
0
  6
CONTINUOUS
 62
     7
 10
96.8407951503992
 20
6.58163552880255
 30
0.0
 11
96.8407951503992
 21
7.33119791548582
 31
0.0
  0
LINE
  5
   621
  8
0
  6
CONTINUOUS
 62
     7
 10
96.8407951503992
 20
1.77783106774221
 30
0.0
 11
96.8407951503992
 21
2.53163949847195
 31
0.0
  0
LINE
  5
   622
  8
0
  6
CONTINUOUS
 62
     7
 10
96.8407937595521
 20
10.1816279953147
 30
0.0
 11
97.5157933125153
 21
10.1816350459057
 31
0.0
  0
LINE
  5
   623
  8
0
  6
CONTINUOUS
 62
     7
 10
97.5157856911396
 20
10.1816317551125
 30
0.0
 11
97.5157856911396
 21
10.6316248767366
 31
0.0
  0
LINE
  5
   624
  8
0
  6
CONTINUOUS
 62
     7
 10
91.6657940594187
 20
10.6316357264205
 30
0.0
 11
100.937202354564
 21
10.6316273732724
 31
0.0
  0
LINE
  5
   625
  8
0
  6
CONTINUOUS
 62
     7
 10
92.5657942810889
 20
9.73162912931592
 30
0.0
 11
96.840793309533
 21
9.73163029551462
 31
0.0
  0
LINE
  5
   626
  8
0
  6
CONTINUOUS
 62
     7
 10
92.5657964508462
 20
1.7778299015434
 30
0.0
 11
96.8407954792903
 21
1.77783106774208
 31
0.0
  0
LINE
  5
   627
  8
0
  6
CONTINUOUS
 62
     7
 10
92.5657966134849
 20
1.18163622226879
 30
0.0
 11
96.840795641929
 21
1.18163738846748
 31
0.0
  0
LINE
  5
   628
  8
0
  6
CONTINUOUS
 62
     7
 10
92.565794934757
 20
7.33544193502658
 30
0.0
 11
96.8407939632011
 21
7.33544310122527
 31
0.0
  0
LINE
  5
   629
  8
0
  6
CONTINUOUS
 62
     7
 10
92.5657956928016
 20
7.33119717844043
 30
0.0
 11
92.5657956928016
 21
9.73162912931595
 31
0.0
  0
LINE
  5
   62A
  8
0
  6
CONTINUOUS
 62
     7
 10
92.5657961219548
 20
1.18163601179998
 30
0.0
 11
92.5657961219548
 21
1.77783183684173
 31
0.0
  0
LINE
  5
   62B
  8
0
  6
CONTINUOUS
 62
     7
 10
92.1157956779005
 20
2.98163605182724
 30
0.0
 11
92.1157956779005
 21
6.13163553922719
 31
0.0
  0
LINE
  5
   62C
  8
0
  6
CONTINUOUS
 62
     7
 10
92.5657952636482
 20
6.13163566198486
 30
0.0
 11
92.5657952636482
 21
6.35663565602438
 31
0.0
  0
LINE
  5
   62D
  8
0
  6
CONTINUOUS
 62
     7
 10
92.5657952636482
 20
2.75663618054539
 30
0.0
 11
92.5657952636482
 21
2.98163960781235
 31
0.0
  0
LINE
  5
   62E
  8
0
  6
CONTINUOUS
 62
   210
 10
92.5657952636482
 20
3.20663616862443
 30
0.0
 11
92.5657952636482
 21
3.25263626658797
 31
0.0
  0
LINE
  5
   62F
  8
0
  6
CONTINUOUS
 62
   210
 10
97.0657951444387
 20
3.20663739620225
 30
0.0
 11
97.0657951444387
 21
3.2526374941658
 31
0.0
  0
LINE
  5
   630
  8
0
  6
CONTINUOUS
 62
   210
 10
92.5657952636482
 20
3.25263626658797
 30
0.0
 11
92.5657952636482
 21
3.38750156784296
 31
0.0
  0
LINE
  5
   631
  8
0
  6
CONTINUOUS
 62
   210
 10
92.5657952636482
 20
3.38750159466504
 30
0.0
 11
92.5657952636482
 21
3.60204183213045
 31
0.0
  0
LINE
  5
   632
  8
0
  6
CONTINUOUS
 62
   210
 10
92.5657952636482
 20
3.60204183213045
 30
0.0
 11
92.5657952636482
 21
3.88163615074302
 31
0.0
  0
LINE
  5
   633
  8
0
  6
CONTINUOUS
 62
   210
 10
92.5657952636482
 20
3.88163615074302
 30
0.0
 11
92.5657952636482
 21
4.20723013816568
 31
0.0
  0
LINE
  5
   634
  8
0
  6
CONTINUOUS
 62
   210
 10
92.5657952636482
 20
4.20723013816568
 30
0.0
 11
92.5657952636482
 21
4.55663570370817
 31
0.0
  0
LINE
  5
   635
  8
0
  6
CONTINUOUS
 62
   210
 10
92.5657952636482
 20
4.55663570370817
 30
0.0
 11
92.5657952636482
 21
4.90604169840408
 31
0.0
  0
LINE
  5
   636
  8
0
  6
CONTINUOUS
 62
   210
 10
92.5657952636482
 20
4.90604169840408
 30
0.0
 11
92.5657952636482
 21
5.23163568582675
 31
0.0
  0
LINE
  5
   637
  8
0
  6
CONTINUOUS
 62
   210
 10
92.5657952636482
 20
5.23163568582675
 30
0.0
 11
92.5657952636482
 21
5.51123000443931
 31
0.0
  0
LINE
  5
   638
  8
0
  6
CONTINUOUS
 62
   210
 10
92.5657952636482
 20
5.51123000443931
 30
0.0
 11
92.5657952636482
 21
5.72577024190473
 31
0.0
  0
LINE
  5
   639
  8
0
  6
CONTINUOUS
 62
   210
 10
92.5657952636482
 20
5.72577024190473
 30
0.0
 11
92.5657952636482
 21
5.8606355431597
 31
0.0
  0
LINE
  5
   63A
  8
0
  6
CONTINUOUS
 62
   210
 10
97.0657951444387
 20
5.86063679755961
 30
0.0
 11
97.0657951444387
 21
5.90663689552315
 31
0.0
  0
LINE
  5
   63B
  8
0
  6
CONTINUOUS
 62
   210
 10
92.5657952636482
 20
5.8606355699818
 30
0.0
 11
92.5657952636482
 21
5.90663566794532
 31
0.0
  0
LINE
  5
   63C
  8
0
  6
CONTINUOUS
 62
   210
 10
96.8407952212163
 20
2.53163692823742
 30
0.0
 11
97.0657951461755
 21
2.75663697595442
 31
0.0
  0
LINE
  5
   63D
  8
0
  6
CONTINUOUS
 62
   210
 10
97.0657951444387
 20
2.7566374081232
 30
0.0
 11
97.0657951444387
 21
3.20663739620225
 31
0.0
  0
LINE
  5
   63E
  8
0
  6
CONTINUOUS
 62
   210
 10
92.5657956319214
 20
3.20663616862443
 30
0.0
 11
100.890788605809
 21
3.20663843964152
 31
0.0
  0
LINE
  5
   63F
  8
0
  6
CONTINUOUS
 62
   210
 10
92.5657952636482
 20
2.98163617458491
 30
0.0
 11
92.5657952636482
 21
3.20663616862443
 31
0.0
  0
LINE
  5
   640
  8
0
  6
CONTINUOUS
 62
   210
 10
97.0657951444387
 20
5.90663689552315
 30
0.0
 11
97.0657951444387
 21
6.35663688360219
 31
0.0
  0
LINE
  5
   641
  8
0
  6
CONTINUOUS
 62
   210
 10
92.5657952636482
 20
5.90663566794532
 30
0.0
 11
92.5657952636482
 21
6.13163566198486
 31
0.0
  0
LINE
  5
   642
  8
0
  6
CONTINUOUS
 62
   210
 10
92.5657948953748
 20
5.90663566794532
 30
0.0
 11
100.890788605809
 21
5.90663793896262
 31
0.0
  0
LINE
  5
   643
  8
0
  6
CONTINUOUS
 62
     7
 10
92.565796454902
 20
1.76296231007935
 30
0.0
 11
96.8407954833461
 21
1.76296347627803
 31
0.0
  0
LINE
  5
   644
  8
0
  6
CONTINUOUS
 62
   210
 10
92.7907958100976
 20
2.53163624788473
 30
0.0
 11
96.8407957028091
 21
2.53163735270476
 31
0.0
  0
LINE
  5
   645
  8
0
  6
CONTINUOUS
 62
   210
 10
92.5657953473998
 20
2.75663580228657
 30
0.0
 11
92.7907953951168
 21
2.53163587732736
 31
0.0
  0
LINE
  5
   646
  8
0
  6
CONTINUOUS
 62
   210
 10
92.1157961075526
 20
2.98163605182722
 30
0.0
 11
92.5657956933003
 21
2.98163617458489
 31
0.0
  0
LINE
  5
   647
  8
0
  6
CONTINUOUS
 62
   210
 10
92.1157952482482
 20
6.13163553922718
 30
0.0
 11
92.5657948339959
 21
6.13163566198484
 31
0.0
  0
LINE
  5
   648
  8
0
  6
CONTINUOUS
 62
   210
 10
92.5657942921742
 20
6.35663529564178
 30
0.0
 11
92.7907942171334
 21
6.58163534335878
 31
0.0
  0
LINE
  5
   649
  8
0
  6
CONTINUOUS
 62
   210
 10
92.7907947052777
 20
6.5816357114428
 30
0.0
 11
96.8407945979892
 21
6.58163681626283
 31
0.0
  0
LINE
  5
   64A
  8
0
  6
CONTINUOUS
 62
   210
 10
92.5657953650684
 20
7.3311967492871
 30
0.0
 11
96.8407943935126
 21
7.33119791548579
 31
0.0
  0
LINE
  5
   64B
  8
0
  6
CONTINUOUS
 62
   130
 10
104.758930635342
 20
10.6316367089748
 30
0.0
 11
126.293294370174
 21
10.6316367089748
 31
0.0
  0
INSERT
  5
   64C
  8
0
  6
CONTINUOUS
 62
     2
  2
*HATCH199
 10
91.6432952880859
 20
-79.5933609008789
 30
0.0
 41
0.449999988079071
 42
0.449999988079071
 43
0.449999988079071
  0
INSERT
  5
   64D
  8
0
  6
CONTINUOUS
 62
     2
  2
*HATCH200
 10
91.6432952880859
 20
-79.5933609008789
 30
0.0
 41
0.449999988079071
 42
0.449999988079071
 43
0.449999988079071
  0
INSERT
  5
   64E
  8
0
  6
CONTINUOUS
 62
     2
  2
*HATCH201
 10
91.6432952880859
 20
-79.5933609008789
 30
0.0
 41
0.449999988079071
 42
0.449999988079071
 43
0.449999988079071
  0
INSERT
  5
   64F
  8
0
  6
CONTINUOUS
 62
     2
  2
*HATCH202
 10
91.6432952880859
 20
-79.5933609008789
 30
0.0
 41
0.449999988079071
 42
0.449999988079071
 43
0.449999988079071
  0
INSERT
  5
   650
  8
0
  6
CONTINUOUS
 62
     2
  2
*HATCH203
 10
91.6432952880859
 20
-79.5933609008789
 30
0.0
 41
0.449999988079071
 42
0.449999988079071
 43
0.449999988079071
  0
LINE
  5
   651
  8
0
  6
CONTINUOUS
 62
     7
 10
162.067186817014
 20
-58.6966772344458
 30
0.0
 11
162.067186817014
 21
-47.9617892567805
 31
0.0
  0
LINE
  5
   652
  8
0
  6
DASHDOT
 62
     7
 10
89.1682884871962
 20
-115.341366344119
 30
0.0
 11
89.1682884871962
 21
17.480365918457
 31
0.0
  0
LINE
  5
   653
  8
0
  6
CONTINUOUS
 62
     3
 10
91.6432952880859
 20
-48.9651320900662
 30
0.0
 11
94.8968340246562
 21
-48.0933792648704
 31
0.0
  0
LINE
  5
   654
  8
0
  6
CONTINUOUS
 62
     3
 10
91.6432952880859
 20
-42.4683550179007
 30
0.0
 11
91.6432952880859
 21
-42.2711161010066
 31
0.0
  0
LINE
  5
   655
  8
0
  6
CONTINUOUS
 62
   130
 10
91.1932953000069
 20
-36.6183551728727
 30
0.0
 11
91.1932953000069
 21
-5.11835600733777
 31
0.0
  0
LINE
  5
   656
  8
0
  6
CONTINUOUS
 62
   130
 10
91.1932953000069
 20
-62.2683544933798
 30
0.0
 11
91.1932953000069
 21
-49.0857086634014
 31
0.0
  0
LINE
  5
   657
  8
0
  6
CONTINUOUS
 62
     3
 10
91.1932953000069
 20
-68.1183543384077
 30
0.0
 11
91.1932953000069
 21
-62.2683544933798
 31
0.0
  0
LINE
  5
   658
  8
0
  6
CONTINUOUS
 62
   130
 10
90.9682953059673
 20
-68.1183543384077
 30
0.0
 11
90.9682953059673
 21
-66.8246043726804
 31
0.0
  0
LINE
  5
   659
  8
0
  6
CONTINUOUS
 62
   130
 10
90.9682953059673
 20
-63.5621181920169
 30
0.0
 11
90.9682953059673
 21
-62.2683544933798
 31
0.0
  0
LINE
  5
   65A
  8
0
  6
CONTINUOUS
 62
     3
 10
90.9682953059673
 20
-66.8246043726804
 30
0.0
 11
90.9682953059673
 21
-63.5621181920169
 31
0.0
  0
LINE
  5
   65B
  8
0
  6
CONTINUOUS
 62
     2
 10
133.808287647963
 20
-99.1683672487737
 30
0.0
 11
133.808287647963
 21
-97.3683672964574
 31
0.0
  0
LINE
  5
   65C
  8
0
  6
DASHDOT
 62
     2
 10
90.2048402868696
 20
-103.893358446893
 30
0.0
 11
107.654972707394
 21
-103.893363207203
 31
0.0
  0
LINE
  5
   65D
  8
0
  6
CONTINUOUS
 62
     2
 10
104.69328759519
 20
-109.968360096216
 30
0.0
 11
111.88760932699
 21
-109.968360096216
 31
0.0
  0
LINE
  5
   65E
  8
0
  6
CONTINUOUS
 62
     7
 10
96.8182882845404
 20
-98.4933604001999
 30
0.0
 11
108.536906528187
 21
-98.4933604001999
 31
0.0
  0
LINE
  5
   65F
  8
0
  6
CONTINUOUS
 62
     7
 10
90.5182884514334
 20
-96.4683604538441
 30
0.0
 11
96.8182882845404
 21
-96.4683604538441
 31
0.0
  0
LINE
  5
   660
  8
0
  6
CONTINUOUS
 62
     7
 10
96.8182882845404
 20
-98.4933604001999
 30
0.0
 11
96.8182882845404
 21
-96.4683604538441
 31
0.0
  0
LINE
  5
   661
  8
0
  6
CONTINUOUS
 62
     7
 10
96.8182882845404
 20
-109.293360114098
 30
0.0
 11
99.5182882130148
 21
-109.293360114098
 31
0.0
  0
LINE
  5
   662
  8
0
  6
CONTINUOUS
 62
     7
 10
99.5182882130148
 20
-102.543361391592
 30
0.0
 11
99.5182882130148
 21
-98.4933604001999
 31
0.0
  0
LINE
  5
   663
  8
0
  6
CONTINUOUS
 62
     7
 10
96.8182882845404
 20
-109.518351147479
 30
0.0
 11
96.8182882845404
 21
-105.940866455557
 31
0.0
  0
LINE
  5
   664
  8
0
  6
CONTINUOUS
 62
     7
 10
99.5182882130148
 20
-109.293360114098
 30
0.0
 11
100.868288177252
 21
-109.293360114098
 31
0.0
  0
LINE
  5
   665
  8
0
  6
CONTINUOUS
 62
     7
 10
89.8555485768905
 20
-95.7176970081011
 30
0.0
 11
107.724977780838
 21
-95.7176970081011
 31
0.0
  0
LINE
  5
   666
  8
0
  6
CONTINUOUS
 62
     7
 10
107.724977780838
 20
-95.7176970081011
 30
0.0
 11
112.718677296111
 21
-112.789181397524
 31
0.0
  0
LINE
  5
   667
  8
0
  6
CONTINUOUS
 62
     7
 10
92.5657942810889
 20
-109.068352516557
 30
0.0
 11
96.8182882845404
 21
-109.068353676617
 31
0.0
  0
LINE
  5
   668
  8
0
  6
CONTINUOUS
 62
     7
 10
96.8407937595521
 20
-109.518351382556
 30
0.0
 11
97.5157933125153
 21
-109.518358433147
 31
0.0
  0
LINE
  5
   669
  8
0
  6
CONTINUOUS
 62
     7
 10
97.5157856911396
 20
-109.968348263978
 30
0.0
 11
97.5157856911396
 21
-109.518355142354
 31
0.0
  0
LINE
  5
   66A
  8
0
  6
CONTINUOUS
 62
     7
 10
92.5657956928016
 20
-109.068352516557
 30
0.0
 11
92.5657956928016
 21
-106.667920565682
 31
0.0
  0
LINE
  5
   66B
  8
0
  6
CONTINUOUS
 62
     7
 10
92.5657953650684
 20
-106.667920136529
 30
0.0
 11
96.8182882845404
 21
-106.667921296588
 31
0.0
  0
LINE
  5
   66C
  8
0
  6
CONTINUOUS
 62
     7
 10
92.7907947052777
 20
-105.918359098684
 30
0.0
 11
96.8407945979892
 21
-105.918360203504
 31
0.0
  0
LINE
  5
   66D
  8
0
  6
CONTINUOUS
 62
     7
 10
97.0657951444387
 20
-105.693360270844
 30
0.0
 11
97.0657951444387
 21
-105.243360282765
 31
0.0
  0
LINE
  5
   66E
  8
0
  6
CONTINUOUS
 62
     7
 10
92.5657948953748
 20
-105.243359055187
 30
0.0
 11
97.0657947761654
 21
-105.243360282765
 31
0.0
  0
LINE
  5
   66F
  8
0
  6
CONTINUOUS
 62
     7
 10
92.7907947052777
 20
-105.918359098684
 30
0.0
 11
96.8407945979892
 21
-105.918360203504
 31
0.0
  0
LINE
  5
   670
  8
0
  6
CONTINUOUS
 62
     7
 10
92.5657942921742
 20
-105.693358682883
 30
0.0
 11
92.7907942171334
 21
-105.9183587306
 31
0.0
  0
LINE
  5
   671
  8
0
  6
CONTINUOUS
 62
     7
 10
92.5657952636482
 20
-105.693359654358
 30
0.0
 11
92.5657952636482
 21
-105.243361320066
 31
0.0
  0
LINE
  5
   672
  8
0
  6
CONTINUOUS
 62
     7
 10
92.1157952482482
 20
-105.468358926469
 30
0.0
 11
92.5657948339959
 21
-105.468359049226
 31
0.0
  0
LINE
  5
   673
  8
0
  6
CONTINUOUS
 62
     7
 10
92.1157956779005
 20
-105.468358926469
 30
0.0
 11
92.1157956779005
 21
-102.318359439069
 31
0.0
  0
INSERT
  5
   674
  8
0
  6
CONTINUOUS
 62
     7
  2
*HATCH204
 10
91.6432952880859
 20
-79.5933609008789
 30
0.0
 41
0.449999988079071
 42
0.449999988079071
 43
0.449999988079071
  0
INSERT
  5
   675
  8
0
  6
CONTINUOUS
 62
     7
  2
*HATCH205
 10
91.6432952880859
 20
-79.5933609008789
 30
0.0
 41
0.449999988079071
 42
0.449999988079071
 43
0.449999988079071
  0
LINE
  5
   676
  8
0
  6
CONTINUOUS
 62
     7
 10
92.5657956319214
 20
-102.543359555866
 30
0.0
 11
97.065795512712
 21
-102.543360783444
 31
0.0
  0
LINE
  5
   677
  8
0
  6
CONTINUOUS
 62
     7
 10
97.0657951444387
 20
-102.543360783444
 30
0.0
 11
97.0657951444387
 21
-102.093360795365
 31
0.0
  0
LINE
  5
   678
  8
0
  6
CONTINUOUS
 62
     7
 10
96.8407952212163
 20
-101.868360315479
 30
0.0
 11
97.0657951461755
 21
-102.093360363196
 31
0.0
  0
LINE
  5
   679
  8
0
  6
CONTINUOUS
 62
     7
 10
92.7907958100976
 20
-101.868359635126
 30
0.0
 11
96.8407957028091
 21
-101.868360739946
 31
0.0
  0
LINE
  5
   67A
  8
0
  6
CONTINUOUS
 62
     7
 10
92.5657953473998
 20
-102.093359189528
 30
0.0
 11
92.7907953951168
 21
-101.868359264569
 31
0.0
  0
INSERT
  5
   67B
  8
0
  6
CONTINUOUS
 62
     7
  2
*HATCH206
 10
91.6432952880859
 20
-79.5933609008789
 30
0.0
 41
0.449999988079071
 42
0.449999988079071
 43
0.449999988079071
  0
LINE
  5
   67C
  8
0
  6
CONTINUOUS
 62
     7
 10
92.5657964508462
 20
-101.114553288785
 30
0.0
 11
96.8407954792903
 21
-101.114554454983
 31
0.0
  0
LINE
  5
   67D
  8
0
  6
CONTINUOUS
 62
     7
 10
92.565796454902
 20
-101.099685697321
 30
0.0
 11
96.8182882845404
 21
-101.09968685738
 31
0.0
  0
LINE
  5
   67E
  8
0
  6
CONTINUOUS
 62
     7
 10
92.5657961219548
 20
-101.114555224083
 30
0.0
 11
92.5657961219548
 21
-100.518359399041
 31
0.0
  0
LINE
  5
   67F
  8
0
  6
CONTINUOUS
 62
     7
 10
92.5657966134849
 20
-100.51835960951
 30
0.0
 11
96.8182882845404
 21
-100.518360769569
 31
0.0
  0
LINE
  5
   680
  8
0
  6
CONTINUOUS
 62
     7
 10
91.6432952880859
 20
-99.6183593816982
 30
0.0
 11
96.8182882845404
 21
-99.6183607934108
 31
0.0
  0
INSERT
  5
   681
  8
0
  6
CONTINUOUS
 62
     7
  2
*HATCH207
 10
91.6432952880859
 20
-79.5933609008789
 30
0.0
 41
0.449999988079071
 42
0.449999988079071
 43
0.449999988079071
  0
LINE
  5
   682
  8
0
  6
CONTINUOUS
 62
     7
 10
91.6432952880859
 20
-109.968360096216
 30
0.0
 11
91.6432952880859
 21
-99.6183593816982
 31
0.0
  0
LINE
  5
   683
  8
0
  6
CONTINUOUS
 62
     7
 10
92.1157956779005
 20
-102.318359439069
 30
0.0
 11
92.5657952636482
 21
-102.318359439069
 31
0.0
  0
LINE
  5
   684
  8
0
  6
CONTINUOUS
 62
     7
 10
96.8407945979892
 20
-105.918360203504
 30
0.0
 11
97.0657951444387
 21
-105.693360270844
 31
0.0
  0
LINE
  5
   685
  8
0
  6
CONTINUOUS
 62
     7
 10
96.8182882845404
 20
-101.845853366523
 30
0.0
 11
96.8182882845404
 21
-98.4933604001999
 31
0.0
  0
LINE
  5
   686
  8
0
  6
CONTINUOUS
 62
     7
 10
92.5657952636482
 20
-102.430859129693
 30
0.0
 11
97.0657951444387
 21
-102.43086035727
 31
0.0
  0
LINE
  5
   687
  8
0
  6
CONTINUOUS
 62
     7
 10
92.5657952636482
 20
-105.355859052207
 30
0.0
 11
97.0657951444387
 21
-105.355860279784
 31
0.0
  0
INSERT
  5
   688
  8
0
  6
CONTINUOUS
 62
     7
  2
*HATCH208
 10
91.6432952880859
 20
-79.5933609008789
 30
0.0
 41
0.449999988079071
 42
0.449999988079071
 43
0.449999988079071
  0
INSERT
  5
   689
  8
0
  6
CONTINUOUS
 62
     7
  2
*HATCH209
 10
91.6432952880859
 20
-79.5933609008789
 30
0.0
 41
0.449999988079071
 42
0.449999988079071
 43
0.449999988079071
  0
INSERT
  5
   68A
  8
0
  6
CONTINUOUS
 62
     7
  2
*HATCH210
 10
91.6432952880859
 20
-79.5933609008789
 30
0.0
 41
0.449999988079071
 42
0.449999988079071
 43
0.449999988079071
  0
INSERT
  5
   68B
  8
0
  6
CONTINUOUS
 62
     7
  2
*HATCH211
 10
91.6432952880859
 20
-79.5933609008789
 30
0.0
 41
0.449999988079071
 42
0.449999988079071
 43
0.449999988079071
  0
LINE
  5
   68C
  8
0
  6
CONTINUOUS
 62
     7
 10
97.0657951444387
 20
-102.43086035727
 30
0.0
 11
100.868288177252
 21
-102.430861394572
 31
0.0
  0
LINE
  5
   68D
  8
0
  6
CONTINUOUS
 62
     7
 10
97.0657951444387
 20
-105.355860279784
 30
0.0
 11
100.868288177252
 21
-105.355861317086
 31
0.0
  0
LINE
  5
   68E
  8
0
  6
CONTINUOUS
 62
     3
 10
142.26826648116
 20
-64.8558593637473
 30
0.0
 11
142.26826648116
 21
-56.7558617240914
 31
0.0
  0
LINE
  5
   68F
  8
0
  6
CONTINUOUS
 62
     3
 10
142.26826648116
 20
-56.3058617360123
 30
0.0
 11
142.26826648116
 21
-46.8558619863518
 31
0.0
  0
LINE
  5
   690
  8
0
  6
CONTINUOUS
 62
     3
 10
142.26826648116
 20
-46.4058619982728
 30
0.0
 11
142.26826648116
 21
-38.3058622128495
 31
0.0
  0
LINE
  5
   691
  8
0
  6
CONTINUOUS
 62
     3
 10
142.26826648116
 20
-37.8558622247704
 30
0.0
 11
142.26826648116
 21
-27.3933760166165
 31
0.0
  0
LINE
  5
   692
  8
0
  6
CONTINUOUS
 62
     1
 10
138.668266576528
 20
-70.4808611422777
 30
0.0
 11
138.668266576528
 21
-69.5808611661196
 31
0.0
  0
LINE
  5
   693
  8
0
  6
CONTINUOUS
 62
     1
 10
138.668266576528
 20
-70.4808611422777
 30
0.0
 11
139.568266552686
 21
-70.4808611422777
 31
0.0
  0
LINE
  5
   694
  8
0
  6
CONTINUOUS
 62
     1
 10
138.668266576528
 20
-21.8808641463518
 30
0.0
 11
138.668266576528
 21
-20.9808641701936
 31
0.0
  0
LINE
  5
   695
  8
0
  6
CONTINUOUS
 62
     1
 10
138.668266576528
 20
-20.9808641701936
 30
0.0
 11
139.568266552686
 21
-20.9808641701936
 31
0.0
  0
LINE
  5
   696
  8
0
  6
CONTINUOUS
 62
     1
 10
138.668266576528
 20
-69.5808611661196
 30
0.0
 11
138.668266576528
 21
-21.880862429738
 31
0.0
  0
LINE
  5
   697
  8
0
  6
CONTINUOUS
 62
     1
 10
136.643266630172
 20
-14.8710582712572
 30
0.0
 11
136.643266630172
 21
-12.6906704505998
 31
0.0
  0
LINE
  5
   698
  8
0
  6
CONTINUOUS
 62
     1
 10
136.643266630172
 20
-78.7710531452578
 30
0.0
 11
136.643266630172
 21
-76.5906687578279
 31
0.0
  0
LINE
  5
   699
  8
0
  6
CONTINUOUS
 62
     1
 10
139.568266552686
 20
-81.9558625549078
 30
0.0
 11
139.568266552686
 21
-9.50586447417732
 31
0.0
  0
LINE
  5
   69A
  8
0
  6
CONTINUOUS
 62
     1
 10
139.568266552686
 20
-81.955860838294
 30
0.0
 11
141.143266510963
 21
-81.955860838294
 31
0.0
  0
LINE
  5
   69B
  8
0
  6
CONTINUOUS
 62
     1
 10
141.143266510963
 20
-81.955860838294
 30
0.0
 11
141.143266510963
 21
-9.50586275756359
 31
0.0
  0
LINE
  5
   69C
  8
0
  6
CONTINUOUS
 62
     1
 10
139.568266552686
 20
-9.50586447417732
 30
0.0
 11
140.243266534804
 21
-9.50586447417732
 31
0.0
  0
LINE
  5
   69D
  8
0
  6
CONTINUOUS
 62
     1
 10
140.693266522883
 20
-9.50586447417732
 30
0.0
 11
141.143266510963
 21
-9.50586447417732
 31
0.0
  0
LINE
  5
   69E
  8
0
  6
CONTINUOUS
 62
     1
 10
136.643266721087
 20
-14.8710592418958
 30
0.0
 11
137.093266723983
 21
-15.1308652990617
 31
0.0
  0
LINE
  5
   69F
  8
0
  6
CONTINUOUS
 62
     1
 10
136.643265992864
 20
-12.6906715821635
 30
0.0
 11
137.09326599576
 21
-12.4308655249976
 31
0.0
  0
LINE
  5
   6A0
  8
0
  6
CONTINUOUS
 62
     1
 10
137.093266618251
 20
-15.1308643251657
 30
0.0
 11
137.093266618251
 21
-15.0970127025273
 31
0.0
  0
LINE
  5
   6A1
  8
0
  6
CONTINUOUS
 62
     1
 10
137.093266618251
 20
-15.1308643251657
 30
0.0
 11
139.568266552686
 21
-15.1308643251657
 31
0.0
  0
LINE
  5
   6A2
  8
0
  6
CONTINUOUS
 62
     1
 10
137.093266618251
 20
-15.0970127025273
 30
0.0
 11
137.093266618251
 21
-14.9971675818813
 31
0.0
  0
LINE
  5
   6A3
  8
0
  6
CONTINUOUS
 62
     1
 10
137.093266618251
 20
-14.9971675818813
 30
0.0
 11
137.093266618251
 21
-14.836334608847
 31
0.0
  0
LINE
  5
   6A4
  8
0
  6
CONTINUOUS
 62
     1
 10
137.093266618251
 20
-14.836334608847
 30
0.0
 11
137.093266618251
 21
-14.6225750014726
 31
0.0
  0
LINE
  5
   6A5
  8
0
  6
CONTINUOUS
 62
     1
 10
137.093266618251
 20
-14.6225750014726
 30
0.0
 11
137.093266618251
 21
-14.3666072958511
 31
0.0
  0
LINE
  5
   6A6
  8
0
  6
CONTINUOUS
 62
     1
 10
137.093266618251
 20
-14.3666072958511
 30
0.0
 11
137.093266618251
 21
-14.0812648961835
 31
0.0
  0
LINE
  5
   6A7
  8
0
  6
CONTINUOUS
 62
     1
 10
137.093266618251
 20
-14.0812648961835
 30
0.0
 11
137.093266618251
 21
-13.7808643609285
 31
0.0
  0
LINE
  5
   6A8
  8
0
  6
CONTINUOUS
 62
     1
 10
137.093266618251
 20
-13.7808643609285
 30
0.0
 11
137.093266618251
 21
-13.4804569592186
 31
0.0
  0
LINE
  5
   6A9
  8
0
  6
CONTINUOUS
 62
     1
 10
137.093266618251
 20
-13.4804569592186
 30
0.0
 11
137.093266618251
 21
-13.1951214260059
 31
0.0
  0
LINE
  5
   6AA
  8
0
  6
CONTINUOUS
 62
     1
 10
137.093266618251
 20
-13.1951214260059
 30
0.0
 11
137.093266618251
 21
-12.9391537203844
 31
0.0
  0
LINE
  5
   6AB
  8
0
  6
CONTINUOUS
 62
     1
 10
137.093266618251
 20
-12.9391537203844
 30
0.0
 11
137.093266618251
 21
-12.7253872465551
 31
0.0
  0
LINE
  5
   6AC
  8
0
  6
CONTINUOUS
 62
     1
 10
137.093266618251
 20
-12.7253872465551
 30
0.0
 11
137.093266618251
 21
-12.5645542735208
 31
0.0
  0
LINE
  5
   6AD
  8
0
  6
CONTINUOUS
 62
     1
 10
137.093266618251
 20
-12.5645542735208
 30
0.0
 11
137.093266618251
 21
-12.4647091528748
 31
0.0
  0
LINE
  5
   6AE
  8
0
  6
CONTINUOUS
 62
     1
 10
137.093266618251
 20
-12.4308643966913
 30
0.0
 11
139.568266552686
 21
-12.4308643966913
 31
0.0
  0
LINE
  5
   6AF
  8
0
  6
CONTINUOUS
 62
     1
 10
138.218266588449
 20
-12.4647091528748
 30
0.0
 11
138.218266588449
 21
-12.4308643966913
 31
0.0
  0
LINE
  5
   6B0
  8
0
  6
CONTINUOUS
 62
     1
 10
136.643266115327
 20
-78.7710535309988
 30
0.0
 11
137.093266118224
 21
-79.0308612871472
 31
0.0
  0
LINE
  5
   6B1
  8
0
  6
CONTINUOUS
 62
     1
 10
136.643265700722
 20
-76.5906695689486
 30
0.0
 11
137.093265703619
 21
-76.3308618128003
 31
0.0
  0
LINE
  5
   6B2
  8
0
  6
CONTINUOUS
 62
     1
 10
137.093266618251
 20
-79.0308609157801
 30
0.0
 11
137.093266618251
 21
-78.9970127263691
 31
0.0
  0
LINE
  5
   6B3
  8
0
  6
CONTINUOUS
 62
     1
 10
137.093266618251
 20
-79.0308609157801
 30
0.0
 11
139.568266552686
 21
-79.0308609157801
 31
0.0
  0
LINE
  5
   6B4
  8
0
  6
CONTINUOUS
 62
     1
 10
137.093266618251
 20
-78.9970127263691
 30
0.0
 11
137.093266618251
 21
-78.8971693223368
 31
0.0
  0
LINE
  5
   6B5
  8
0
  6
CONTINUOUS
 62
     1
 10
137.093266618251
 20
-78.8971693223368
 30
0.0
 11
137.093266618251
 21
-78.7363329160751
 31
0.0
  0
LINE
  5
   6B6
  8
0
  6
CONTINUOUS
 62
     1
 10
137.093266618251
 20
-78.7363329160751
 30
0.0
 11
137.093266618251
 21
-78.5225715920869
 31
0.0
  0
LINE
  5
   6B7
  8
0
  6
CONTINUOUS
 62
     1
 10
137.093266618251
 20
-78.5225715920869
 30
0.0
 11
137.093266618251
 21
-78.2666038864654
 31
0.0
  0
LINE
  5
   6B8
  8
0
  6
CONTINUOUS
 62
     1
 10
137.093266618251
 20
-78.2666038864654
 30
0.0
 11
137.093266618251
 21
-77.9812649200253
 31
0.0
  0
LINE
  5
   6B9
  8
0
  6
CONTINUOUS
 62
     1
 10
137.093266618251
 20
-77.9812649200253
 30
0.0
 11
137.093266618251
 21
-77.6808609515429
 31
0.0
  0
LINE
  5
   6BA
  8
0
  6
CONTINUOUS
 62
     1
 10
137.093266618251
 20
-77.6808609515429
 30
0.0
 11
137.093266618251
 21
-77.3804569830604
 31
0.0
  0
LINE
  5
   6BB
  8
0
  6
CONTINUOUS
 62
     1
 10
137.093266618251
 20
-77.3804569830604
 30
0.0
 11
137.093266618251
 21
-77.0951180166203
 31
0.0
  0
LINE
  5
   6BC
  8
0
  6
CONTINUOUS
 62
     1
 10
137.093266618251
 20
-77.0951180166203
 30
0.0
 11
137.093266618251
 21
-76.8391503109988
 31
0.0
  0
LINE
  5
   6BD
  8
0
  6
CONTINUOUS
 62
     1
 10
137.093266618251
 20
-76.8391503109988
 30
0.0
 11
137.093266618251
 21
-76.6253889870106
 31
0.0
  0
LINE
  5
   6BE
  8
0
  6
CONTINUOUS
 62
     1
 10
137.093266618251
 20
-76.6253889870106
 30
0.0
 11
137.093266618251
 21
-76.4645525807489
 31
0.0
  0
LINE
  5
   6BF
  8
0
  6
CONTINUOUS
 62
     1
 10
137.093266618251
 20
-76.4645525807489
 30
0.0
 11
137.093266618251
 21
-76.3647074601029
 31
0.0
  0
LINE
  5
   6C0
  8
0
  6
CONTINUOUS
 62
     1
 10
137.093266618251
 20
-76.3308609873056
 30
0.0
 11
139.568266552686
 21
-76.3308609873056
 31
0.0
  0
LINE
  5
   6C1
  8
0
  6
CONTINUOUS
 62
     1
 10
138.218266588449
 20
-76.3647074601029
 30
0.0
 11
138.218266588449
 21
-76.3308609873056
 31
0.0
  0
LINE
  5
   6C2
  8
0
  6
CONTINUOUS
 62
     1
 10
140.243266534804
 20
-9.50586447417732
 30
0.0
 11
140.693266522883
 21
-9.50586447417732
 31
0.0
  0
LINE
  5
   6C3
  8
0
  6
CONTINUOUS
 62
     7
 10
139.568266552686
 20
-9.50586447417732
 30
0.0
 11
139.568266552686
 21
23.2092652418077
 31
0.0
  0
LINE
  5
   6C4
  8
0
  6
CONTINUOUS
 62
     7
 10
138.668266576528
 20
-20.9808641701936
 30
0.0
 11
138.668266576528
 21
-15.1308643251657
 31
0.0
  0
LINE
  5
   6C5
  8
0
  6
CONTINUOUS
 62
     7
 10
139.568266552686
 20
-125.357163864101
 30
0.0
 11
139.568266552686
 21
-81.955860838294
 31
0.0
  0
LINE
  5
   6C6
  8
0
  6
CONTINUOUS
 62
     7
 10
138.668266576528
 20
-125.618791764147
 30
0.0
 11
138.668266576528
 21
-79.0308609157801
 31
0.0
  0
LINE
  5
   6C7
  8
0
  6
CONTINUOUS
 62
     7
 10
135.525804757768
 20
-126.532298106809
 30
0.0
 11
142.71138489827
 21
-124.443466670617
 31
0.0
  0
LINE
  5
   6C8
  8
0
  6
CONTINUOUS
 62
     7
 10
136.444890589693
 20
25.2004174182159
 30
0.0
 11
143.129151185509
 21
20.9392012883831
 31
0.0
  0
LINE
  5
   6C9
  8
0
  6
CONTINUOUS
 62
     7
 10
138.668266576528
 20
-12.2058644026517
 30
0.0
 11
139.568266552686
 21
-12.2058644026517
 31
0.0
  0
LINE
  5
   6CA
  8
0
  6
CONTINUOUS
 62
     7
 10
138.668266576528
 20
-15.3558643192052
 30
0.0
 11
139.568266552686
 21
-15.3558643192052
 31
0.0
  0
LINE
  5
   6CB
  8
0
  6
CONTINUOUS
 62
     7
 10
138.668266576528
 20
-76.1058609932661
 30
0.0
 11
139.568266552686
 21
-76.1058609932661
 31
0.0
  0
LINE
  5
   6CC
  8
0
  6
CONTINUOUS
 62
     7
 10
138.668266576528
 20
-79.2558609098196
 30
0.0
 11
139.568266552686
 21
-79.2558609098196
 31
0.0
  0
LINE
  5
   6CD
  8
0
  6
CONTINUOUS
 62
     7
 10
138.668266576528
 20
-70.9308611303568
 30
0.0
 11
139.568266552686
 21
-70.9308611303568
 31
0.0
  0
LINE
  5
   6CE
  8
0
  6
CONTINUOUS
 62
     7
 10
138.668266576528
 20
-20.5308641821146
 30
0.0
 11
139.568266552686
 21
-20.5308641821146
 31
0.0
  0
LINE
  5
   6CF
  8
0
  6
CONTINUOUS
 62
     7
 10
138.668266576528
 20
-12.4308643966913
 30
0.0
 11
138.668266576528
 21
23.7830152266086
 31
0.0
  0
LINE
  5
   6D0
  8
0
  6
CONTINUOUS
 62
     7
 10
138.668266576528
 20
-76.3308609873056
 30
0.0
 11
138.668266576528
 21
-70.4808611422777
 31
0.0
  0
INSERT
  5
   6D1
  8
0
  6
CONTINUOUS
 62
     7
  2
*HATCH212
 10
91.6432952880859
 20
-79.5933609008789
 30
0.0
 41
0.449999988079071
 42
0.449999988079071
 43
0.449999988079071
  0
INSERT
  5
   6D2
  8
0
  6
CONTINUOUS
 62
     7
  2
*HATCH213
 10
91.6432952880859
 20
-79.5933609008789
 30
0.0
 41
0.449999988079071
 42
0.449999988079071
 43
0.449999988079071
  0
INSERT
  5
   6D3
  8
0
  6
CONTINUOUS
 62
     7
  2
*HATCH214
 10
91.6432952880859
 20
-79.5933609008789
 30
0.0
 41
0.449999988079071
 42
0.449999988079071
 43
0.449999988079071
  0
INSERT
  5
   6D4
  8
0
  6
CONTINUOUS
 62
     7
  2
*HATCH215
 10
91.6432952880859
 20
-79.5933609008789
 30
0.0
 41
0.449999988079071
 42
0.449999988079071
 43
0.449999988079071
  0
LINE
  5
   6D5
  8
0
  6
DASHDOT
 62
     7
 10
76.5824899697814
 20
-45.7308823972935
 30
0.0
 11
164.923171849085
 21
-45.7308823972935
 31
0.0
  0
LINE
  5
   6D6
  8
0
  6
DASHDOT
 62
     2
 10
173.113698645842
 20
-45.7308823972935
 30
0.0
 11
180.280409593004
 21
-45.7308823972935
 31
0.0
  0
LINE
  5
   6D7
  8
0
  6
CONTINUOUS
 62
     3
 10
100.890788605809
 20
5.90663793896263
 30
0.0
 11
100.890788605809
 21
9.95663783167441
 31
0.0
  0
LINE
  5
   6D8
  8
0
  6
CONTINUOUS
 62
     7
 10
116.70825317664
 20
-1.40586186732229
 30
0.0
 11
126.815483579977
 21
-1.40586186732229
 31
0.0
  0
LINE
  5
   6D9
  8
0
  6
CONTINUOUS
 62
     7
 10
126.815483579977
 20
-1.40586186732229
 30
0.0
 11
129.823958642909
 21
12.5334059242596
 31
0.0
  0
INSERT
  5
   6DA
  8
0
  6
CONTINUOUS
 62
     7
  2
*HATCH216
 10
91.6432952880859
 20
-79.5933609008789
 30
0.0
 41
0.449999988079071
 42
0.449999988079071
 43
0.449999988079071
  0
LINE
  5
   6DB
  8
0
  6
CONTINUOUS
 62
     5
 10
100.890788605809
 20
-0.393361894144377
 30
0.0
 11
104.490788510442
 21
-0.393361894144377
 31
0.0
  0
LINE
  5
   6DC
  8
0
  6
CONTINUOUS
 62
     5
 10
105.61578848064
 20
34.7066371760232
 30
0.0
 11
109.215788385272
 21
34.7066371760232
 31
0.0
  0
LINE
  5
   6DD
  8
0
  6
CONTINUOUS
 62
     5
 10
109.215788385272
 20
16.4697655583052
 30
0.0
 11
109.215788385272
 21
34.7066371760232
 31
0.0
  0
LINE
  5
   6DE
  8
0
  6
CONTINUOUS
 62
     5
 10
100.890788605809
 20
-0.393361894144377
 30
0.0
 11
100.890788605809
 21
9.98696009649599
 31
0.0
  0
LINE
  5
   6DF
  8
0
  6
CONTINUOUS
 62
     5
 10
104.490788510442
 20
-0.393361894144377
 30
0.0
 11
104.490788510442
 21
9.98696009649599
 31
0.0
  0
LINE
  5
   6E0
  8
0
  6
CONTINUOUS
 62
     5
 10
104.812279519339
 20
10.6764016899964
 30
0.0
 11
107.608332611507
 21
13.0225662998002
 31
0.0
  0
LINE
  5
   6E1
  8
0
  6
CONTINUOUS
 62
     5
 10
105.61578848064
 20
16.4697655583052
 30
0.0
 11
105.61578848064
 21
34.7066371760232
 31
0.0
  0
LINE
  5
   6E2
  8
0
  6
CONTINUOUS
 62
     5
 10
102.49824469499
 20
13.4341622873562
 30
0.0
 11
105.294297787158
 21
15.78032689716
 31
0.0
  0
LINE
  5
   6E3
  8
0
  6
DASHDOT
 62
     7
 10
98.8891671298814
 20
4.5566379747254
 30
0.0
 11
106.005419394009
 21
4.5566379747254
 31
0.0
  0
LINE
  5
   6E4
  8
0
  6
CONTINUOUS
 62
     2
 10
100.890788605809
 20
6.01913793598239
 30
0.0
 11
104.490788510442
 21
6.01913793598239
 31
0.0
  0
LINE
  5
   6E5
  8
0
  6
CONTINUOUS
 62
     2
 10
100.890788605809
 20
3.09413801346842
 30
0.0
 11
104.490788510442
 21
3.09413801346842
 31
0.0
  0
LINE
  5
   6E6
  8
0
  6
CONTINUOUS
 62
     2
 10
96.8407945979892
 20
6.58163681626282
 30
0.0
 11
96.9994169009822
 21
6.40785392708555
 31
0.0
  0
LINE
  5
   6E7
  8
0
  6
CONTINUOUS
 62
     2
 10
104.490788510442
 20
7.7066378912789
 30
0.0
 11
104.850788500905
 21
7.7066378912789
 31
0.0
  0
LINE
  5
   6E8
  8
0
  6
CONTINUOUS
 62
     2
 10
104.490788510442
 20
1.40663805817191
 30
0.0
 11
104.850788500905
 21
1.40663805817191
 31
0.0
  0
LINE
  5
   6E9
  8
0
  6
CONTINUOUS
 62
     2
 10
104.850788500905
 20
1.40663805817191
 30
0.0
 11
104.850788500905
 21
7.7066378912789
 31
0.0
  0
LINE
  5
   6EA
  8
0
  6
CONTINUOUS
 62
     1
 10
107.55078842938
 20
2.30663803433005
 30
0.0
 11
107.55078842938
 21
6.80663791512076
 31
0.0
  0
LINE
  5
   6EB
  8
0
  6
CONTINUOUS
 62
     1
 10
104.850788500905
 20
2.30663803433005
 30
0.0
 11
104.850788500905
 21
6.80663791512076
 31
0.0
  0
LINE
  5
   6EC
  8
0
  6
CONTINUOUS
 62
     1
 10
103.500788536668
 20
3.20663801048819
 30
0.0
 11
103.500788536668
 21
5.90663793896262
 31
0.0
  0
LINE
  5
   6ED
  8
0
  6
CONTINUOUS
 62
     1
 10
100.350788620115
 20
5.90663793896262
 30
0.0
 11
104.490788510442
 21
5.90663793896262
 31
0.0
  0
LINE
  5
   6EE
  8
0
  6
CONTINUOUS
 62
     1
 10
100.350788620115
 20
3.20663801048819
 30
0.0
 11
104.490788510442
 21
3.20663801048819
 31
0.0
  0
LINE
  5
   6EF
  8
0
  6
CONTINUOUS
 62
     1
 10
104.850788500905
 20
6.80663791512076
 30
0.0
 11
107.55078842938
 21
6.80663791512076
 31
0.0
  0
LINE
  5
   6F0
  8
0
  6
CONTINUOUS
 62
     1
 10
104.850788500905
 20
2.30663803433005
 30
0.0
 11
107.55078842938
 21
2.30663803433005
 31
0.0
  0
LINE
  5
   6F1
  8
0
  6
CONTINUOUS
 62
     7
 10
93.6007887989284
 20
5.63059444627527
 30
0.0
 11
103.500788594438
 21
5.63059444627527
 31
0.0
  0
LINE
  5
   6F2
  8
0
  6
CONTINUOUS
 62
     7
 10
93.6007887989284
 20
3.48268150317553
 30
0.0
 11
103.500788594438
 21
3.48268150317553
 31
0.0
  0
LINE
  5
   6F3
  8
0
  6
DASHDOT
 62
     7
 10
99.4507890731098
 20
4.5566379747254
 30
0.0
 11
108.40578840673
 21
4.5566379747254
 31
0.0
  0
LINE
  5
   6F4
  8
0
  6
CONTINUOUS
 62
     1
 10
93.6007887989284
 20
3.20663645096548
 30
0.0
 11
93.6007887989284
 21
5.90663595028657
 31
0.0
  0
LINE
  5
   6F5
  8
0
  6
DASHDOT
 62
     7
 10
103.613841536803
 20
25.7066374144417
 30
0.0
 11
110.81217038474
 21
25.7066374144417
 31
0.0
  0
LINE
  5
   6F6
  8
0
  6
CONTINUOUS
 62
     5
 10
105.61578848064
 20
27.2816373727185
 30
0.0
 11
109.215788385272
 21
27.2816373727185
 31
0.0
  0
LINE
  5
   6F7
  8
0
  6
CONTINUOUS
 62
     5
 10
105.61578848064
 20
24.131637456165
 30
0.0
 11
109.215788385272
 21
24.131637456165
 31
0.0
  0
INSERT
  5
   6F8
  8
0
  6
CONTINUOUS
 62
     2
  2
*HATCH217
 10
91.6432952880859
 20
-79.5933609008789
 30
0.0
 41
0.449999988079071
 42
0.449999988079071
 43
0.449999988079071
  0
ARC
  5
   6F9
  8
0
  6
CONTINUOUS
 62
     5
 10
105.390773834527
 20
9.98696660021625
 30
0.0
 40
0.899985301722327
 50
129.999969834231
 51
180.0
  0
ARC
  5
   6FA
  8
0
  6
CONTINUOUS
 62
     5
 10
105.390849669819
 20
9.98693811301008
 30
0.0
 40
4.50006651628369
 50
129.999969834231
 51
180.0
  0
ARC
  5
   6FB
  8
0
  6
CONTINUOUS
 62
     5
 10
104.7157905476
 20
16.4697645325876
 30
0.0
 40
0.899997918208713
 50
309.999969834231
 51
360.0
  0
ARC
  5
   6FC
  8
0
  6
CONTINUOUS
 62
     5
 10
104.715775103517
 20
16.4697689176173
 30
0.0
 40
4.5000137549944
 50
309.999969834231
 51
360.0
  0
INSERT
  5
   6FD
  8
0
  6
CONTINUOUS
 62
     2
  2
*HATCH218
 10
91.6432952880859
 20
-79.5933609008789
 30
0.0
 41
0.449999988079071
 42
0.449999988079071
 43
0.449999988079071
  0
INSERT
  5
   6FE
  8
0
  6
CONTINUOUS
 62
     2
  2
*HATCH219
 10
91.6432952880859
 20
-79.5933609008789
 30
0.0
 41
0.449999988079071
 42
0.449999988079071
 43
0.449999988079071
  0
LINE
  5
   6FF
  8
0
  6
CONTINUOUS
 62
     7
 10
106.943288016319
 20
-131.793360616731
 30
0.0
 11
109.193287956715
 21
-131.793360616731
 31
0.0
  0
LINE
  5
   700
  8
0
  6
CONTINUOUS
 62
     7
 10
100.868288177252
 20
-98.943361486959
 30
0.0
 11
103.118288117647
 21
-98.943361486959
 31
0.0
  0
LINE
  5
   701
  8
0
  6
CONTINUOUS
 62
     7
 10
109.193287956715
 20
-131.793360616731
 30
0.0
 11
109.193287956715
 21
-115.773131701523
 31
0.0
  0
LINE
  5
   702
  8
0
  6
CONTINUOUS
 62
     7
 10
100.868288177252
 20
-102.543361391592
 30
0.0
 11
100.868288177252
 21
-98.943361486959
 31
0.0
  0
LINE
  5
   703
  8
0
  6
CONTINUOUS
 62
     7
 10
103.381891193019
 20
-108.65696303079
 30
0.0
 11
108.270674088285
 21
-113.545748398618
 31
0.0
  0
LINE
  5
   704
  8
0
  6
CONTINUOUS
 62
     7
 10
108.27067432282
 20
-113.545750746511
 30
0.0
 11
108.771268059423
 21
-114.198132646464
 31
0.0
  0
LINE
  5
   705
  8
0
  6
CONTINUOUS
 62
     7
 10
108.771267994594
 20
-114.198132525222
 30
0.0
 11
109.085954185711
 21
-114.957857692076
 31
0.0
  0
LINE
  5
   706
  8
0
  6
CONTINUOUS
 62
     7
 10
109.085954069884
 20
-114.957862772638
 30
0.0
 11
109.193287919471
 21
-115.773137567643
 31
0.0
  0
LINE
  5
   707
  8
0
  6
CONTINUOUS
 62
     7
 10
106.943288016319
 20
-131.793360616731
 30
0.0
 11
106.943288016319
 21
-115.773131701523
 31
0.0
  0
LINE
  5
   708
  8
0
  6
CONTINUOUS
 62
     7
 10
106.87477966722
 20
-115.428715350718
 30
0.0
 11
106.943288003595
 21
-115.773129870787
 31
0.0
  0
LINE
  5
   709
  8
0
  6
CONTINUOUS
 62
     7
 10
106.679684071562
 20
-115.136735741884
 30
0.0
 11
106.874779806369
 21
-115.428717998044
 31
0.0
  0
LINE
  5
   70A
  8
0
  6
CONTINUOUS
 62
     7
 10
101.790901005132
 20
-110.247954935297
 30
0.0
 11
106.679683859116
 21
-115.136733668347
 31
0.0
  0
LINE
  5
   70B
  8
0
  6
CONTINUOUS
 62
     7
 10
101.290307580946
 20
-109.595570953589
 30
0.0
 11
101.790901331939
 21
-110.247959700692
 31
0.0
  0
LINE
  5
   70C
  8
0
  6
CONTINUOUS
 62
     7
 10
100.975621139783
 20
-108.835847144794
 30
0.0
 11
101.290307334702
 21
-109.595565434185
 31
0.0
  0
LINE
  5
   70D
  8
0
  6
CONTINUOUS
 62
     7
 10
100.868288124124
 20
-108.020568272521
 30
0.0
 11
100.975621108971
 21
-108.835849911736
 31
0.0
  0
LINE
  5
   70E
  8
0
  6
CONTINUOUS
 62
     7
 10
103.118288117647
 20
-108.020567667394
 30
0.0
 11
103.118288117647
 21
-98.943361486959
 31
0.0
  0
LINE
  5
   70F
  8
0
  6
DASHDOT
 62
     7
 10
99.2767689005633
 20
-103.893361355829
 30
0.0
 11
104.600924388156
 21
-103.893361355829
 31
0.0
  0
LINE
  5
   710
  8
0
  6
CONTINUOUS
 62
     2
 10
100.868288177252
 20
-102.430861394572
 30
0.0
 11
103.118288117647
 21
-102.430861394572
 31
0.0
  0
LINE
  5
   711
  8
0
  6
CONTINUOUS
 62
     2
 10
100.868288177252
 20
-105.355861317086
 30
0.0
 11
103.118288117647
 21
-105.355861317086
 31
0.0
  0
ARC
  5
   712
  8
0
  6
CONTINUOUS
 62
     7
 10
104.01829526887
 20
-108.020565202575
 30
0.0
 40
0.900007087139857
 50
180.000053690574
 51
224.999736642428
  0
LINE
  5
   713
  8
0
  6
DASHDOT
 62
     2
 10
105.486099555826
 20
-125.043360795545
 30
0.0
 11
110.366575419452
 21
-125.043360795545
 31
0.0
  0
LINE
  5
   714
  8
0
  6
CONTINUOUS
 62
     2
 10
106.943288016319
 20
-123.805860828328
 30
0.0
 11
109.193287956715
 21
-123.805860828328
 31
0.0
  0
LINE
  5
   715
  8
0
  6
CONTINUOUS
 62
     2
 10
106.943288016319
 20
-126.280860762763
 30
0.0
 11
109.193287956715
 21
-126.280860762763
 31
0.0
  0
INSERT
  5
   716
  8
0
  6
CONTINUOUS
 62
     2
  2
*HATCH220
 10
91.6432952880859
 20
-79.5933609008789
 30
0.0
 41
0.449999988079071
 42
0.449999988079071
 43
0.449999988079071
  0
INSERT
  5
   717
  8
0
  6
CONTINUOUS
 62
     2
  2
*HATCH221
 10
91.6432952880859
 20
-79.5933609008789
 30
0.0
 41
0.449999988079071
 42
0.449999988079071
 43
0.449999988079071
  0
INSERT
  5
   718
  8
0
  6
CONTINUOUS
 62
     2
  2
*HATCH222
 10
91.6432952880859
 20
-79.5933609008789
 30
0.0
 41
0.449999988079071
 42
0.449999988079071
 43
0.449999988079071
  0
LINE
  5
   719
  8
0
  6
CONTINUOUS
 62
     2
 10
103.478288108111
 20
-107.043361272382
 30
0.0
 11
103.478288108111
 21
-100.743361439275
 31
0.0
  0
LINE
  5
   71A
  8
0
  6
CONTINUOUS
 62
     2
 10
103.118288117647
 20
-100.743361439275
 30
0.0
 11
103.478288108111
 21
-100.743361439275
 31
0.0
  0
LINE
  5
   71B
  8
0
  6
CONTINUOUS
 62
     2
 10
103.118288117647
 20
-107.043361272382
 30
0.0
 11
103.478288108111
 21
-107.043361272382
 31
0.0
  0
LINE
  5
   71C
  8
0
  6
CONTINUOUS
 62
     1
 10
106.178288036585
 20
-106.143361296224
 30
0.0
 11
106.178288036585
 21
-101.643361415433
 31
0.0
  0
LINE
  5
   71D
  8
0
  6
CONTINUOUS
 62
     1
 10
103.478288108111
 20
-106.143361296224
 30
0.0
 11
103.478288108111
 21
-101.643361415433
 31
0.0
  0
LINE
  5
   71E
  8
0
  6
CONTINUOUS
 62
     1
 10
102.128288143873
 20
-105.243361320066
 30
0.0
 11
102.128288143873
 21
-102.543361391592
 31
0.0
  0
LINE
  5
   71F
  8
0
  6
CONTINUOUS
 62
     1
 10
92.2282884061338
 20
-102.543361391592
 30
0.0
 11
103.118288117647
 21
-102.543361391592
 31
0.0
  0
LINE
  5
   720
  8
0
  6
CONTINUOUS
 62
     1
 10
92.2282884061338
 20
-105.243361320066
 30
0.0
 11
103.118288117647
 21
-105.243361320066
 31
0.0
  0
LINE
  5
   721
  8
0
  6
CONTINUOUS
 62
     1
 10
103.478288108111
 20
-101.643361415433
 30
0.0
 11
106.178288036585
 21
-101.643361415433
 31
0.0
  0
LINE
  5
   722
  8
0
  6
CONTINUOUS
 62
     1
 10
103.478288108111
 20
-106.143361296224
 30
0.0
 11
106.178288036585
 21
-106.143361296224
 31
0.0
  0
LINE
  5
   723
  8
0
  6
CONTINUOUS
 62
     7
 10
92.2282884061338
 20
-102.819404884279
 30
0.0
 11
102.128288201643
 21
-102.819404884279
 31
0.0
  0
LINE
  5
   724
  8
0
  6
CONTINUOUS
 62
     7
 10
92.2282884061338
 20
-104.967317827379
 30
0.0
 11
102.128288201643
 21
-104.967317827379
 31
0.0
  0
LINE
  5
   725
  8
0
  6
DASHDOT
 62
     7
 10
98.0782886803152
 20
-103.893361355829
 30
0.0
 11
107.033288013935
 21
-103.893361355829
 31
0.0
  0
LINE
  5
   726
  8
0
  6
CONTINUOUS
 62
     1
 10
92.2282884061338
 20
-105.243361320066
 30
0.0
 11
92.2282884061338
 21
-102.543359463796
 31
0.0
  0
LINE
  5
   727
  8
0
  6
CONTINUOUS
 62
     2
 10
100.868288177252
 20
-109.293360114098
 30
0.0
 11
100.868288177252
 21
-105.243361320066
 31
0.0
  0
LINE
  5
   728
  8
0
  6
CONTINUOUS
 62
     2
 10
99.5182882130148
 20
-109.293360114098
 30
0.0
 11
99.5182882130148
 21
-105.243361320066
 31
0.0
  0
LINE
  5
   729
  8
0
  6
CONTINUOUS
 62
     2
 10
92.5657953473998
 20
-102.543361391592
 30
0.0
 11
92.5657953473998
 21
-102.093359189528
 31
0.0
  0
LINE
  5
   72A
  8
0
  6
DASHDOT
 62
     7
 10
81.649854556611
 20
3.65661629438455
 30
0.0
 11
93.2293301043943
 21
3.65661629438455
 31
0.0
  0
LINE
  5
   72B
  8
0
  6
CONTINUOUS
 62
     2
 10
87.3682885348799
 20
1.85661634206826
 30
0.0
 11
87.3682885348799
 21
5.45661624670083
 31
0.0
  0
LINE
  5
   72C
  8
0
  6
CONTINUOUS
 62
     2
 10
85.5682885825636
 20
2.53161632418687
 30
0.0
 11
85.5682885825636
 21
4.78161626458223
 31
0.0
  0
LINE
  5
   72D
  8
0
  6
CONTINUOUS
 62
     2
 10
87.3682885348799
 20
5.45661624670083
 30
0.0
 11
89.1682884871962
 21
5.45661624670083
 31
0.0
  0
LINE
  5
   72E
  8
0
  6
CONTINUOUS
 62
     2
 10
87.3682885348799
 20
1.85661634206826
 30
0.0
 11
89.1682884871962
 21
1.85661634206826
 31
0.0
  0
LINE
  5
   72F
  8
0
  6
CONTINUOUS
 62
     2
 10
85.5682885825636
 20
4.78161626458223
 30
0.0
 11
89.1682884871962
 21
4.78161626458223
 31
0.0
  0
LINE
  5
   730
  8
0
  6
CONTINUOUS
 62
     2
 10
85.5682885825636
 20
2.53161632418687
 30
0.0
 11
89.1682884871962
 21
2.53161632418687
 31
0.0
  0
LINE
  5
   731
  8
0
  6
CONTINUOUS
 62
     2
 10
87.3682885348799
 20
-101.193380928039
 30
0.0
 11
89.1682884871962
 21
-101.193380928039
 31
0.0
  0
LINE
  5
   732
  8
0
  6
CONTINUOUS
 62
     2
 10
85.5682885825636
 20
-101.868380910158
 30
0.0
 11
89.1682884871962
 21
-101.868380910158
 31
0.0
  0
LINE
  5
   733
  8
0
  6
DASHDOT
 62
     7
 10
81.649854556611
 20
-102.993380880355
 30
0.0
 11
93.2293301043943
 21
-102.993380880355
 31
0.0
  0
LINE
  5
   734
  8
0
  6
CONTINUOUS
 62
     2
 10
85.5682885825636
 20
-104.118380850553
 30
0.0
 11
89.1682884871962
 21
-104.118380850553
 31
0.0
  0
LINE
  5
   735
  8
0
  6
CONTINUOUS
 62
     2
 10
87.3682885348799
 20
-104.793380832672
 30
0.0
 11
89.1682884871962
 21
-104.793380832672
 31
0.0
  0
LINE
  5
   736
  8
0
  6
CONTINUOUS
 62
     2
 10
87.3682885348799
 20
-104.793380832672
 30
0.0
 11
87.3682885348799
 21
-101.193380928039
 31
0.0
  0
LINE
  5
   737
  8
0
  6
CONTINUOUS
 62
     2
 10
85.5682885825636
 20
-104.118380850553
 30
0.0
 11
85.5682885825636
 21
-101.868380910158
 31
0.0
  0
INSERT
  5
   738
  8
0
  6
CONTINUOUS
 62
     2
  2
*UDIM264
 10
0.0
 20
0.0
 30
0.0
  0
INSERT
  5
   739
  8
0
  6
CONTINUOUS
 62
     7
  2
*UDIM265
 10
0.0
 20
0.0
 30
0.0
  0
INSERT
  5
   73A
  8
0
  6
CONTINUOUS
 62
     7
  2
*UDIM266
 10
0.0
 20
0.0
 30
0.0
  0
INSERT
  5
   73B
  8
0
  6
CONTINUOUS
 62
     7
  2
*UDIM267
 10
0.0
 20
0.0
 30
0.0
  0
INSERT
  5
   73C
  8
0
  6
CONTINUOUS
 62
     7
  2
*UDIM268
 10
0.0
 20
0.0
 30
0.0
  0
INSERT
  5
   73D
  8
0
  6
CONTINUOUS
 62
     7
  2
*UDIM269
 10
0.0
 20
0.0
 30
0.0
  0
INSERT
  5
   73E
  8
0
  6
CONTINUOUS
 62
     2
  2
*UDIM270
 10
0.0
 20
0.0
 30
0.0
  0
INSERT
  5
   73F
  8
0
  6
CONTINUOUS
 62
     7
  2
*UDIM271
 10
0.0
 20
0.0
 30
0.0
  0
INSERT
  5
   740
  8
0
  6
CONTINUOUS
 62
     7
  2
*UDIM272
 10
0.0
 20
0.0
 30
0.0
  0
INSERT
  5
   741
  8
0
  6
CONTINUOUS
 62
     7
  2
*UDIM273
 10
0.0
 20
0.0
 30
0.0
  0
INSERT
  5
   742
  8
0
  6
CONTINUOUS
 62
     7
  2
*UDIM274
 10
0.0
 20
0.0
 30
0.0
  0
INSERT
  5
   743
  8
0
  6
CONTINUOUS
 62
     7
  2
*UDIM275
 10
0.0
 20
0.0
 30
0.0
  0
INSERT
  5
   744
  8
0
  6
CONTINUOUS
 62
     7
  2
*UDIM276
 10
0.0
 20
0.0
 30
0.0
  0
INSERT
  5
   745
  8
0
  6
CONTINUOUS
 62
     7
  2
*UDIM277
 10
0.0
 20
0.0
 30
0.0
  0
INSERT
  5
   746
  8
0
  6
CONTINUOUS
 62
     7
  2
*UDIM278
 10
0.0
 20
0.0
 30
0.0
  0
INSERT
  5
   747
  8
0
  6
CONTINUOUS
 62
     7
  2
*UDIM279
 10
0.0
 20
0.0
 30
0.0
  0
TEXT
  5
   748
  8
0
  6
CONTINUOUS
 62
     2
 10
175.813837924676
 20
-56.1633744649752
 30
0.0
 40
3.00000011722246
  1
=     =
 50
90.0
 41
0.916666563948001
 72
     2
 11
175.813837924653
 21
-37.463375858598
 31
0.0
  0
TEXT
  5
   749
  8
0
  6
CONTINUOUS
 62
     7
 10
182.752027932571
 20
-47.6584542151268
 30
0.0
 40
3.00000011722246
  1
X
 41
0.916666563948002
 72
     2
 11
184.952027743161
 21
-47.6584542151268
 31
0.0
  0
INSERT
  5
   74A
  8
0
  6
CONTINUOUS
 62
     2
  2
*UDIM280
 10
0.0
 20
0.0
 30
0.0
  0
INSERT
  5
   74B
  8
0
  6
CONTINUOUS
 62
     2
  2
*UDIM281
 10
0.0
 20
0.0
 30
0.0
  0
INSERT
  5
   74C
  8
0
  6
CONTINUOUS
 62
     2
  2
*UDIM282
 10
0.0
 20
0.0
 30
0.0
  0
INSERT
  5
   74D
  8
0
  6
CONTINUOUS
 62
     2
  2
*UDIM283
 10
0.0
 20
0.0
 30
0.0
  0
ENDSEC
  0
EOF
