  0
SECTION
  2
HEADER
  9
$ACADVER
  1
AC1012
  9
$DWGCODEPAGE
  3
iso8859-1
  9
$INSBASE
 10
0.0
 20
0.0
 30
0.0
  9
$EXTMIN
 10
12.0
 20
10.0
 30
0.0
  9
$EXTMAX
 10
397.0
 20
283.0
 30
0.0
  9
$LIMMIN
 10
0.0
 20
0.0
  9
$LIMMAX
 10
12.0
 20
9.0
  9
$ORTHOMODE
 70
     0
  9
$REGENMODE
 70
     1
  9
$FILLMODE
 70
     1
  9
$QTEXTMODE
 70
     0
  9
$MIRRTEXT
 70
     1
  9
$DRAGMODE
 70
     2
  9
$LTSCALE
 40
1.0
  9
$OSMODE
 70
     0
  9
$ATTMODE
 70
     1
  9
$TEXTSIZE
 40
0.125
  9
$TRACEWID
 40
0.05
  9
$TEXTSTYLE
  7
STANDARD
  9
$CLAYER
  8
1
  9
$CELTYPE
  6
CONTINUOUS
  9
$CECOLOR
 62
     1
  9
$CELTSCALE
 40
1.0
  9
$DELOBJ
 70
     1
  9
$DISPSILH
 70
     0
  9
$DIMSCALE
 40
1.0
  9
$DIMASZ
 40
0.125
  9
$DIMEXO
 40
0.0625
  9
$DIMDLI
 40
0.25
  9
$DIMRND
 40
0.0
  9
$DIMDLE
 40
0.0
  9
$DIMEXE
 40
0.125
  9
$DIMTP
 40
0.005
  9
$DIMTM
 40
-0.005
  9
$DIMTXT
 40
3.0
  9
$DIMCEN
 40
0.09
  9
$DIMTSZ
 40
0.0
  9
$DIMTOL
 70
     0
  9
$DIMLIM
 70
     0
  9
$DIMTIH
 70
     1
  9
$DIMTOH
 70
     1
  9
$DIMSE1
 70
     0
  9
$DIMSE2
 70
     0
  9
$DIMTAD
 70
     0
  9
$DIMZIN
 70
     0
  9
$DIMBLK
  1

  9
$DIMASO
 70
     1
  9
$DIMSHO
 70
     1
  9
$DIMPOST
  1

  9
$DIMAPOST
  1

  9
$DIMALT
 70
     0
  9
$DIMALTD
 70
     0
  9
$DIMALTF
 40
25.4
  9
$DIMLFAC
 40
1.0
  9
$DIMTOFL
 70
     1
  9
$DIMTVP
 40
0.0
  9
$DIMTIX
 70
     0
  9
$DIMSOXD
 70
     0
  9
$DIMSAH
 70
     0
  9
$DIMBLK1
  1

  9
$DIMBLK2
  1

  9
$DIMSTYLE
  2
DSTYLE1
  9
$DIMCLRD
 70
     0
  9
$DIMCLRE
 70
     0
  9
$DIMCLRT
 70
     0
  9
$DIMTFAC
 40
1.0
  9
$DIMGAP
 40
0.0625
  9
$DIMJUST
 70
     0
  9
$DIMSD1
 70
     0
  9
$DIMSD2
 70
     0
  9
$DIMTOLJ
 70
     1
  9
$DIMTZIN
 70
     0
  9
$DIMALTZ
 70
     0
  9
$DIMALTTZ
 70
     0
  9
$DIMFIT
 70
     3
  9
$DIMUPT
 70
     0
  9
$DIMUNIT
 70
     2
  9
$DIMDEC
 70
     4
  9
$DIMTDEC
 70
     4
  9
$DIMALTU
 70
     2
  9
$DIMALTTD
 70
     2
  9
$DIMTXSTY
  7
STANDARD
  9
$DIMAUNIT
 70
     0
  9
$LUNITS
 70
     2
  9
$LUPREC
 70
     3
  9
$SKETCHINC
 40
0.1
  9
$FILLETRAD
 40
10.0
  9
$AUNITS
 70
     0
  9
$AUPREC
 70
     1
  9
$MENU
  1
acad
  9
$ELEVATION
 40
0.0
  9
$PELEVATION
 40
0.0
  9
$THICKNESS
 40
0.0
  9
$LIMCHECK
 70
     0
  9
$BLIPMODE
 70
     1
  9
$CHAMFERA
 40
6.0
  9
$CHAMFERB
 40
6.0
  9
$CHAMFERC
 40
0.0
  9
$CHAMFERD
 40
0.0
  9
$SKPOLY
 70
     0
  9
$TDCREATE
 40
2451064.694031713
  9
$TDUPDATE
 40
2451064.694031713
  9
$TDINDWG
 40
0.0068274190
  9
$TDUSRTIMER
 40
0.0068274190
  9
$USRTIMER
 70
     1
  9
$ANGBASE
 50
0.0
  9
$ANGDIR
 70
     0
  9
$PDMODE
 70
     2
  9
$PDSIZE
 40
-0.01
  9
$PLINEWID
 40
0.0
  9
$COORDS
 70
     1
  9
$SPLFRAME
 70
     0
  9
$SPLINETYPE
 70
     6
  9
$SPLINESEGS
 70
     8
  9
$ATTDIA
 70
     0
  9
$ATTREQ
 70
     1
  9
$HANDLING
 70
     1
  9
$HANDSEED
  5
A0D
  9
$SURFTAB1
 70
     6
  9
$SURFTAB2
 70
     6
  9
$SURFTYPE
 70
     6
  9
$SURFU
 70
     6
  9
$SURFV
 70
     6
  9
$UCSNAME
  2

  9
$UCSORG
 10
0.0
 20
0.0
 30
0.0
  9
$UCSXDIR
 10
1.0
 20
0.0
 30
0.0
  9
$UCSYDIR
 10
0.0
 20
1.0
 30
0.0
  9
$PUCSNAME
  2

  9
$PUCSORG
 10
0.0
 20
0.0
 30
0.0
  9
$PUCSXDIR
 10
1.0
 20
0.0
 30
0.0
  9
$PUCSYDIR
 10
0.0
 20
1.0
 30
0.0
  9
$USERI1
 70
     0
  9
$USERI2
 70
     0
  9
$USERI3
 70
     0
  9
$USERI4
 70
     0
  9
$USERI5
 70
     0
  9
$USERR1
 40
0.0
  9
$USERR2
 40
0.0
  9
$USERR3
 40
0.0
  9
$USERR4
 40
0.0
  9
$USERR5
 40
0.0
  9
$WORLDVIEW
 70
     1
  9
$SHADEDGE
 70
     3
  9
$SHADEDIF
 70
    70
  9
$TILEMODE
 70
     1
  9
$MAXACTVP
 70
    16
  9
$PINSBASE
 10
0.0
 20
0.0
 30
0.0
  9
$PLIMCHECK
 70
     0
  9
$PEXTMIN
 10
1.000000E+20
 20
1.000000E+20
 30
1.000000E+20
  9
$PEXTMAX
 10
-1.000000E+20
 20
-1.000000E+20
 30
-1.000000E+20
  9
$PLIMMIN
 10
0.0
 20
0.0
  9
$PLIMMAX
 10
12.0
 20
9.0
  9
$UNITMODE
 70
     0
  9
$VISRETAIN
 70
     0
  9
$PLINEGEN
 70
     0
  9
$PSLTSCALE
 70
     1
  9
$TREEDEPTH
 70
  3020
  9
$PICKSTYLE
 70
     1
  9
$CMLSTYLE
  2
STANDARD
  9
$CMLJUST
 70
     0
  9
$CMLSCALE
 40
1.0
  9
$SAVEIMAGES
 70
     0
  0
ENDSEC
  0
SECTION
  2
CLASSES
  0
ENDSEC
  0
SECTION
  2
TABLES
  0
TABLE
  2
VPORT
  5
8
100
AcDbSymbolTable
 70
     2
  0
VPORT
  5
A0C
100
AcDbSymbolTableRecord
100
AcDbViewportTableRecord
  2
*ACTIVE
 70
     0
 10
0.0
 20
0.0
 11
1.0
 21
1.0
 12
333.358911
 22
173.440152
 13
0.0
 23
0.0
 14
1.0
 24
1.0
 15
0.0
 25
0.0
 16
0.0
 26
0.0
 36
1.0
 17
0.0
 27
0.0
 37
0.0
 40
341.717638
 41
1.524768
 42
50.0
 43
0.0
 44
0.0
 50
0.0
 51
0.0
 71
     0
 72
   100
 73
     1
 74
     1
 75
     0
 76
     0
 77
     0
 78
     0
  0
ENDTAB
  0
TABLE
  2
LTYPE
  5
5
100
AcDbSymbolTable
 70
     3
  0
LTYPE
  5
13
100
AcDbSymbolTableRecord
100
AcDbLinetypeTableRecord
  2
BYBLOCK
 70
     0
  3

 72
    65
 73
     0
 40
0.0
  0
LTYPE
  5
14
100
AcDbSymbolTableRecord
100
AcDbLinetypeTableRecord
  2
BYLAYER
 70
     0
  3

 72
    65
 73
     0
 40
0.0
  0
LTYPE
  5
15
100
AcDbSymbolTableRecord
100
AcDbLinetypeTableRecord
  2
CONTINUOUS
 70
     0
  3
Solid line
 72
    65
 73
     0
 40
0.0
  0
LTYPE
  5
1F
100
AcDbSymbolTableRecord
100
AcDbLinetypeTableRecord
  2
HIDDEN
 70
    64
  3
_ 
 72
    65
 73
     2
 40
4.5
 49
3.0
 74
     0
 49
-1.5
 74
     0
  0
LTYPE
  5
20
100
AcDbSymbolTableRecord
100
AcDbLinetypeTableRecord
  2
CENTERLINE
 70
    64
  3
_ 
 72
    65
 73
     4
 40
30.0
 49
24.0
 74
     0
 49
-1.5
 74
     0
 49
3.0
 74
     0
 49
-1.5
 74
     0
  0
ENDTAB
  0
TABLE
  2
LAYER
  5
2
100
AcDbSymbolTable
 70
     4
  0
LAYER
  5
F
100
AcDbSymbolTableRecord
100
AcDbLayerTableRecord
  2
0
 70
     0
 62
     7
  6
CONTINUOUS
  0
LAYER
  5
1E
100
AcDbSymbolTableRecord
100
AcDbLayerTableRecord
  2
1
 70
     0
 62
     7
  6
CONTINUOUS
  0
LAYER
  5
21
100
AcDbSymbolTableRecord
100
AcDbLayerTableRecord
  2
V1L0
 70
     0
 62
     7
  6
CONTINUOUS
  0
LAYER
  5
31
100
AcDbSymbolTableRecord
100
AcDbLayerTableRecord
  2
V0L1
 70
    64
 62
     7
  6
CONTINUOUS
  0
ENDTAB
  0
TABLE
  2
STYLE
  5
3
100
AcDbSymbolTable
 70
     1
  0
STYLE
  5
10
100
AcDbSymbolTableRecord
100
AcDbTextStyleTableRecord
  2
STANDARD
 70
     0
 40
0.0
 41
1.0
 50
0.0
 71
     0
 42
0.2
  3
txt
  4

  0
ENDTAB
  0
TABLE
  2
VIEW
  5
6
100
AcDbSymbolTable
 70
     0
  0
ENDTAB
  0
TABLE
  2
UCS
  5
7
100
AcDbSymbolTable
 70
     0
  0
ENDTAB
  0
TABLE
  2
APPID
  5
9
100
AcDbSymbolTable
 70
     1
  0
APPID
  5
11
100
AcDbSymbolTableRecord
100
AcDbRegAppTableRecord
  2
ACAD
 70
     0
  0
ENDTAB
  0
TABLE
  2
DIMSTYLE
  5
A
100
AcDbSymbolTable
 70
    13
  0
DIMSTYLE
105
22
100
AcDbSymbolTableRecord
100
AcDbDimStyleTableRecord
  2
DSTYLE1
 70
     0
  3

  4

  5

  6

  7

 40
1.0
 41
3.5
 42
1.5
 43
0.25
 44
3.0
 45
0.01
 46
0.0
 47
0.1
 48
1.0
140
2.4999
141
0.0
142
0.0
143
0.03937
144
1.0
145
0.0
146
1.0
147
1.0
 71
     0
 72
     0
 73
     1
 74
     1
 75
     1
 76
     0
 77
     1
 78
    11
170
     0
171
     3
172
     0
173
     0
174
     0
175
     0
176
     0
177
     0
178
     0
270
     2
271
     4
272
     4
273
     2
274
     2
340
10
275
     0
280
     0
281
     0
282
     0
283
     1
284
     0
285
     0
286
     0
287
     3
288
     0
  0
DIMSTYLE
105
23
100
AcDbSymbolTableRecord
100
AcDbDimStyleTableRecord
  2
DSTYLE2
 70
     0
  3

  4

  5

  6

  7

 40
1.0
 41
3.5001
 42
0.0
 43
0.25
 44
0.9999
 45
0.01
 46
0.0
 47
0.0
 48
0.0
140
2.4999
141
0.0
142
0.0
143
0.03937
144
1.0
145
0.0
146
1.0
147
0.9999
 71
     0
 72
     0
 73
     0
 74
     0
 75
     0
 76
     1
 77
     1
 78
    11
170
     0
171
     0
172
     0
173
     0
174
     0
175
     0
176
     0
177
     0
178
     0
270
     2
271
     4
272
     4
273
     2
274
     2
340
10
275
     0
280
     0
281
     0
282
     0
283
     1
284
     0
285
     0
286
     0
287
     3
288
     0
  0
DIMSTYLE
105
24
100
AcDbSymbolTableRecord
100
AcDbDimStyleTableRecord
  2
DSTYLE3
 70
     0
  3

  4

  5

  6

  7

 40
1.0
 41
3.5001
 42
0.0
 43
0.25
 44
0.9999
 45
0.01
 46
0.0
 47
0.0
 48
0.0
140
2.4999
141
0.0
142
0.0
143
0.03937
144
1.0
145
0.0
146
1.0
147
0.9999
 71
     0
 72
     0
 73
     0
 74
     0
 75
     1
 76
     0
 77
     1
 78
    11
170
     0
171
     0
172
     0
173
     0
174
     0
175
     0
176
     0
177
     0
178
     0
270
     2
271
     4
272
     4
273
     2
274
     2
340
10
275
     0
280
     0
281
     0
282
     0
283
     1
284
     0
285
     0
286
     0
287
     3
288
     0
  0
DIMSTYLE
105
25
100
AcDbSymbolTableRecord
100
AcDbDimStyleTableRecord
  2
DSTYLE4
 70
     0
  3

  4

  5

  6

  7

 40
1.0
 41
3.5001
 42
1.0
 43
0.25
 44
0.9999
 45
0.1
 46
0.0
 47
0.0
 48
0.0
140
2.4999
141
0.0
142
0.0
143
0.03937
144
1.0
145
0.0
146
1.0
147
0.9999
 71
     0
 72
     0
 73
     0
 74
     0
 75
     0
 76
     0
 77
     1
 78
    11
170
     0
171
     0
172
     0
173
     0
174
     0
175
     0
176
     0
177
     0
178
     0
270
     2
271
     4
272
     4
273
     2
274
     2
340
10
275
     0
280
     0
281
     0
282
     0
283
     1
284
     0
285
     0
286
     0
287
     3
288
     0
  0
DIMSTYLE
105
26
100
AcDbSymbolTableRecord
100
AcDbDimStyleTableRecord
  2
DSTYLE5
 70
     0
  3

  4

  5

  6

  7

 40
1.0
 41
3.5001
 42
1.0
 43
0.25
 44
0.9999
 45
0.01
 46
0.0
 47
0.0
 48
0.0
140
2.4999
141
0.0
142
0.0
143
0.03937
144
1.0
145
0.0
146
1.0
147
0.9999
 71
     0
 72
     0
 73
     0
 74
     0
 75
     0
 76
     0
 77
     1
 78
    11
170
     0
171
     0
172
     0
173
     0
174
     0
175
     0
176
     0
177
     0
178
     0
270
     2
271
     4
272
     4
273
     2
274
     2
340
10
275
     0
280
     0
281
     0
282
     0
283
     1
284
     0
285
     0
286
     0
287
     3
288
     0
  0
DIMSTYLE
105
27
100
AcDbSymbolTableRecord
100
AcDbDimStyleTableRecord
  2
DSTYLE6
 70
     0
  3

  4

  5

  6

  7

 40
1.0
 41
3.5001
 42
1.0
 43
0.25
 44
0.9999
 45
0.01
 46
0.0
 47
0.0
 48
0.0
140
2.4999
141
0.0
142
0.0
143
0.03937
144
1.0
145
0.0
146
1.0
147
0.9999
 71
     0
 72
     0
 73
     0
 74
     0
 75
     0
 76
     1
 77
     1
 78
    11
170
     0
171
     0
172
     0
173
     0
174
     0
175
     0
176
     0
177
     0
178
     0
270
     2
271
     4
272
     4
273
     2
274
     2
340
10
275
     0
280
     0
281
     0
282
     0
283
     1
284
     0
285
     0
286
     0
287
     3
288
     0
  0
DIMSTYLE
105
28
100
AcDbSymbolTableRecord
100
AcDbDimStyleTableRecord
  2
DSTYLE7
 70
     0
  3

  4

  5

  6

  7

 40
1.0
 41
3.5001
 42
0.0
 43
0.25
 44
0.9999
 45
0.001
 46
0.0
 47
0.0
 48
0.0
140
2.4999
141
0.0
142
0.0
143
0.03937
144
1.0
145
0.0
146
1.0
147
0.9999
 71
     0
 72
     0
 73
     0
 74
     0
 75
     1
 76
     1
 77
     1
 78
    11
170
     0
171
     0
172
     0
173
     0
174
     0
175
     0
176
     0
177
     0
178
     0
270
     2
271
     4
272
     4
273
     2
274
     2
340
10
275
     0
280
     0
281
     0
282
     0
283
     1
284
     0
285
     0
286
     0
287
     3
288
     0
  0
DIMSTYLE
105
29
100
AcDbSymbolTableRecord
100
AcDbDimStyleTableRecord
  2
DSTYLE8
 70
     0
  3

  4

  5

  6

  7

 40
1.0
 41
3.5001
 42
0.0
 43
0.25
 44
0.9999
 45
0.0
 46
0.0
 47
0.0
 48
0.0
140
2.4999
141
0.0
142
3.5001
143
0.03937
144
1.0
145
0.0
146
1.0
147
0.9999
 71
     0
 72
     0
 73
     0
 74
     0
 75
     0
 76
     1
 77
     1
 78
    11
170
     0
171
     0
172
     0
173
     0
174
     0
175
     0
176
     0
177
     0
178
     0
270
     2
271
     4
272
     4
273
     2
274
     2
340
10
275
     0
280
     0
281
     0
282
     0
283
     1
284
     0
285
     0
286
     0
287
     3
288
     0
  0
DIMSTYLE
105
2A
100
AcDbSymbolTableRecord
100
AcDbDimStyleTableRecord
  2
DSTYLE9
 70
     0
  3

  4

  5

  6

  7

 40
1.0
 41
3.5001
 42
0.0
 43
0.25
 44
0.9999
 45
0.0
 46
0.0
 47
0.0
 48
0.0
140
2.4999
141
0.0
142
3.5001
143
0.03937
144
1.0
145
0.0
146
1.0
147
0.9999
 71
     0
 72
     0
 73
     0
 74
     0
 75
     0
 76
     0
 77
     1
 78
    11
170
     0
171
     0
172
     0
173
     0
174
     0
175
     0
176
     0
177
     0
178
     0
270
     2
271
     4
272
     4
273
     2
274
     2
340
10
275
     0
280
     0
281
     0
282
     0
283
     1
284
     0
285
     0
286
     0
287
     3
288
     0
  0
DIMSTYLE
105
2B
100
AcDbSymbolTableRecord
100
AcDbDimStyleTableRecord
  2
DSTYLE10
 70
     0
  3

  4

  5

  6

  7

 40
1.0
 41
3.5001
 42
0.0
 43
0.25
 44
0.9999
 45
0.01
 46
0.0
 47
0.0
 48
0.0
140
2.4999
141
0.0
142
3.5001
143
0.03937
144
1.0
145
0.0
146
1.0
147
0.9999
 71
     0
 72
     0
 73
     0
 74
     0
 75
     1
 76
     0
 77
     1
 78
    11
170
     0
171
     0
172
     0
173
     0
174
     0
175
     0
176
     0
177
     0
178
     0
270
     2
271
     4
272
     4
273
     2
274
     2
340
10
275
     0
280
     0
281
     0
282
     0
283
     1
284
     0
285
     0
286
     0
287
     3
288
     0
  0
DIMSTYLE
105
2C
100
AcDbSymbolTableRecord
100
AcDbDimStyleTableRecord
  2
DSTYLE11
 70
     0
  3

  4

  5

  6

  7

 40
1.0
 41
3.5001
 42
1.0
 43
0.25
 44
0.9999
 45
0.01
 46
0.0
 47
0.0
 48
0.0
140
2.4999
141
0.0
142
0.0
143
0.03937
144
1.0
145
0.0
146
1.0
147
0.9999
 71
     0
 72
     0
 73
     0
 74
     0
 75
     1
 76
     0
 77
     1
 78
    11
170
     0
171
     0
172
     0
173
     0
174
     0
175
     0
176
     0
177
     0
178
     0
270
     2
271
     4
272
     4
273
     2
274
     2
340
10
275
     0
280
     0
281
     0
282
     0
283
     1
284
     0
285
     0
286
     0
287
     3
288
     0
  0
DIMSTYLE
105
2D
100
AcDbSymbolTableRecord
100
AcDbDimStyleTableRecord
  2
DSTYLE12
 70
     0
  3

  4

  5

  6

  7

 40
1.0
 41
3.0
 42
1.5
 43
0.25
 44
3.0
 45
0.0
 46
0.0
 47
1.0
 48
1.0
140
3.0
141
0.0
142
0.0
143
0.03937
144
1.0
145
0.0
146
1.0
147
1.5
 71
     0
 72
     0
 73
     1
 74
     1
 75
     1
 76
     0
 77
     1
 78
    11
170
     0
171
     3
172
     0
173
     0
174
     0
175
     0
176
     0
177
     0
178
     0
270
     2
271
     4
272
     4
273
     2
274
     2
340
10
275
     0
280
     0
281
     0
282
     0
283
     1
284
     0
285
     0
286
     0
287
     3
288
     0
  0
DIMSTYLE
105
2E
100
AcDbSymbolTableRecord
100
AcDbDimStyleTableRecord
  2
DSTYLE13
 70
     0
  3

  4

  5

  6

  7

 40
1.0
 41
3.5001
 42
1.0
 43
0.25
 44
0.9999
 45
0.01
 46
0.0
 47
0.0
 48
0.0
140
2.4999
141
0.0
142
0.0
143
0.03937
144
1.0
145
0.0
146
1.0
147
0.9999
 71
     0
 72
     0
 73
     0
 74
     0
 75
     1
 76
     1
 77
     1
 78
    11
170
     0
171
     0
172
     0
173
     0
174
     0
175
     0
176
     0
177
     0
178
     0
270
     2
271
     4
272
     4
273
     2
274
     2
340
10
275
     0
280
     0
281
     0
282
     0
283
     1
284
     0
285
     0
286
     0
287
     3
288
     0
  0
ENDTAB
  0
TABLE
  2
BLOCK_RECORD
  5
1
100
AcDbSymbolTable
 70
    26
  0
BLOCK_RECORD
  5
19
100
AcDbSymbolTableRecord
100
AcDbBlockTableRecord
  2
*MODEL_SPACE
  0
BLOCK_RECORD
  5
16
100
AcDbSymbolTableRecord
100
AcDbBlockTableRecord
  2
*PAPER_SPACE
  0
BLOCK_RECORD
  5
35
100
AcDbSymbolTableRecord
100
AcDbBlockTableRecord
  2
SLASH
  0
BLOCK_RECORD
  5
39
100
AcDbSymbolTableRecord
100
AcDbBlockTableRecord
  2
CADRE_A3
  0
ENDTAB
  0
ENDSEC
  0
SECTION
  2
BLOCKS
  0
BLOCK
  5
1A
100
AcDbEntity
  8
0
100
AcDbBlockBegin
  2
*MODEL_SPACE
 70
     0
 10
0.0
 20
0.0
 30
0.0
  3
*MODEL_SPACE
  1

  0
ENDBLK
  5
1B
100
AcDbEntity
  8
0
100
AcDbBlockEnd
  0
BLOCK
  5
17
100
AcDbEntity
 67
     1
  8
0
100
AcDbBlockBegin
  2
*PAPER_SPACE
 70
     0
 10
0.0
 20
0.0
 30
0.0
  3
*PAPER_SPACE
  1

  0
ENDBLK
  5
18
100
AcDbEntity
 67
     1
  8
0
100
AcDbBlockEnd
  0
BLOCK
  5
36
100
AcDbEntity
  8
0
100
AcDbBlockBegin
  2
SLASH
 70
    64
 10
0.0
 20
0.0
 30
0.0
  3
SLASH
  1

  0
LINE
  5
37
100
AcDbEntity
  8
V0L1
  6
CONTINUOUS
 62
     0
100
AcDbLine
 10
-0.5
 20
-0.5
 30
0.0
 11
0.5
 21
0.5
 31
0.0
  0
ENDBLK
  5
38
100
AcDbEntity
  8
0
100
AcDbBlockEnd
  0
BLOCK
  5
3A
100
AcDbEntity
  8
0
100
AcDbBlockBegin
  2
CADRE_A3
 70
    64
 10
0.0
 20
0.0
 30
0.0
  3
CADRE_A3
  1

  0
POINT
  5
3B
100
AcDbEntity
  8
V0L1
  6
CONTINUOUS
 62
     1
100
AcDbPoint
 10
393.0
 20
278.0
 30
0.0
  0
LINE
  5
3C
100
AcDbEntity
  8
V0L1
  6
CONTINUOUS
 62
    40
100
AcDbLine
 10
228.56571
 20
23.0
 30
0.0
 11
230.3
 21
23.0
 31
0.0
  0
LINE
  5
3D
100
AcDbEntity
  8
V0L1
  6
CONTINUOUS
 62
     3
100
AcDbLine
 10
228.0
 20
50.0
 30
0.0
 11
228.0
 21
54.0
 31
0.0
  0
LINE
  5
3E
100
AcDbEntity
  8
V0L1
  6
CONTINUOUS
 62
    40
100
AcDbLine
 10
350.0
 20
50.0
 30
0.0
 11
393.0
 21
50.0
 31
0.0
  0
LINE
  5
3F
100
AcDbEntity
  8
V0L1
  6
CONTINUOUS
 62
    40
100
AcDbLine
 10
230.3
 20
23.0
 30
0.0
 11
230.3
 21
26.32
 31
0.0
  0
LINE
  5
40
100
AcDbEntity
  8
V0L1
  6
CONTINUOUS
 62
    40
100
AcDbLine
 10
230.3
 20
26.32
 30
0.0
 11
229.72771
 21
26.32
 31
0.0
  0
LINE
  5
41
100
AcDbEntity
  8
V0L1
  6
CONTINUOUS
 62
    40
100
AcDbLine
 10
229.72771
 20
26.32
 30
0.0
 11
228.56571
 21
23.0
 31
0.0
  0
LINE
  5
42
100
AcDbEntity
  8
V0L1
  6
CONTINUOUS
 62
    40
100
AcDbLine
 10
228.81941
 20
23.18
 30
0.0
 11
230.12
 21
23.18
 31
0.0
  0
LINE
  5
43
100
AcDbEntity
  8
V0L1
  6
CONTINUOUS
 62
    40
100
AcDbLine
 10
230.12
 20
23.18
 30
0.0
 11
230.12
 21
26.14
 31
0.0
  0
LINE
  5
44
100
AcDbEntity
  8
V0L1
  6
CONTINUOUS
 62
    40
100
AcDbLine
 10
230.12
 20
26.14
 30
0.0
 11
229.85541
 21
26.14
 31
0.0
  0
LINE
  5
45
100
AcDbEntity
  8
V0L1
  6
CONTINUOUS
 62
    40
100
AcDbLine
 10
229.85541
 20
26.14
 30
0.0
 11
228.81941
 21
23.18
 31
0.0
  0
LINE
  5
46
100
AcDbEntity
  8
V0L1
  6
CONTINUOUS
 62
    40
100
AcDbLine
 10
229.07312
 20
23.36
 30
0.0
 11
229.94
 21
23.36
 31
0.0
  0
LINE
  5
47
100
AcDbEntity
  8
V0L1
  6
CONTINUOUS
 62
    40
100
AcDbLine
 10
229.94
 20
23.36
 30
0.0
 11
229.94
 21
25.836801
 31
0.0
  0
LINE
  5
48
100
AcDbEntity
  8
V0L1
  6
CONTINUOUS
 62
    40
100
AcDbLine
 10
229.94
 20
25.836801
 30
0.0
 11
229.07312
 21
23.36
 31
0.0
  0
LINE
  5
49
100
AcDbEntity
  8
V0L1
  6
CONTINUOUS
 62
    40
100
AcDbLine
 10
229.32683
 20
23.54
 30
0.0
 11
229.76
 21
23.54
 31
0.0
  0
LINE
  5
4A
100
AcDbEntity
  8
V0L1
  6
CONTINUOUS
 62
    40
100
AcDbLine
 10
229.76
 20
23.54
 30
0.0
 11
229.76
 21
24.777639
 31
0.0
  0
LINE
  5
4B
100
AcDbEntity
  8
V0L1
  6
CONTINUOUS
 62
    40
100
AcDbLine
 10
229.76
 20
24.777639
 30
0.0
 11
229.32683
 21
23.54
 31
0.0
  0
LINE
  5
4C
100
AcDbEntity
  8
V0L1
  6
CONTINUOUS
 62
    40
100
AcDbLine
 10
229.53825
 20
23.69
 30
0.0
 11
229.61
 21
23.69
 31
0.0
  0
LINE
  5
4D
100
AcDbEntity
  8
V0L1
  6
CONTINUOUS
 62
    40
100
AcDbLine
 10
229.61
 20
23.69
 30
0.0
 11
229.61
 21
23.895004
 31
0.0
  0
LINE
  5
4E
100
AcDbEntity
  8
V0L1
  6
CONTINUOUS
 62
    40
100
AcDbLine
 10
229.61
 20
23.895004
 30
0.0
 11
229.53825
 21
23.69
 31
0.0
  0
LINE
  5
4F
100
AcDbEntity
  8
V0L1
  6
CONTINUOUS
 62
    40
100
AcDbLine
 10
231.3
 20
23.0
 30
0.0
 11
231.3
 21
26.32
 31
0.0
  0
LINE
  5
50
100
AcDbEntity
  8
V0L1
  6
CONTINUOUS
 62
    40
100
AcDbLine
 10
231.3
 20
26.32
 30
0.0
 11
231.87229
 21
26.32
 31
0.0
  0
LINE
  5
51
100
AcDbEntity
  8
V0L1
  6
CONTINUOUS
 62
    40
100
AcDbLine
 10
231.87229
 20
26.32
 30
0.0
 11
233.03429
 21
23.0
 31
0.0
  0
LINE
  5
52
100
AcDbEntity
  8
V0L1
  6
CONTINUOUS
 62
    40
100
AcDbLine
 10
233.03429
 20
23.0
 30
0.0
 11
231.3
 21
23.0
 31
0.0
  0
LINE
  5
53
100
AcDbEntity
  8
V0L1
  6
CONTINUOUS
 62
    40
100
AcDbLine
 10
231.48
 20
23.18
 30
0.0
 11
231.48
 21
26.14
 31
0.0
  0
LINE
  5
54
100
AcDbEntity
  8
V0L1
  6
CONTINUOUS
 62
    40
100
AcDbLine
 10
231.48
 20
26.14
 30
0.0
 11
231.74459
 21
26.14
 31
0.0
  0
LINE
  5
55
100
AcDbEntity
  8
V0L1
  6
CONTINUOUS
 62
    40
100
AcDbLine
 10
231.74459
 20
26.14
 30
0.0
 11
232.78059
 21
23.18
 31
0.0
  0
LINE
  5
56
100
AcDbEntity
  8
V0L1
  6
CONTINUOUS
 62
    40
100
AcDbLine
 10
232.78059
 20
23.18
 30
0.0
 11
231.48
 21
23.18
 31
0.0
  0
LINE
  5
57
100
AcDbEntity
  8
V0L1
  6
CONTINUOUS
 62
    40
100
AcDbLine
 10
231.66
 20
23.36
 30
0.0
 11
231.66
 21
25.836801
 31
0.0
  0
LINE
  5
58
100
AcDbEntity
  8
V0L1
  6
CONTINUOUS
 62
    40
100
AcDbLine
 10
231.66
 20
25.836801
 30
0.0
 11
232.52688
 21
23.36
 31
0.0
  0
LINE
  5
59
100
AcDbEntity
  8
V0L1
  6
CONTINUOUS
 62
    40
100
AcDbLine
 10
232.52688
 20
23.36
 30
0.0
 11
231.66
 21
23.36
 31
0.0
  0
LINE
  5
5A
100
AcDbEntity
  8
V0L1
  6
CONTINUOUS
 62
    40
100
AcDbLine
 10
231.84
 20
23.54
 30
0.0
 11
231.84
 21
24.777639
 31
0.0
  0
LINE
  5
5B
100
AcDbEntity
  8
V0L1
  6
CONTINUOUS
 62
    40
100
AcDbLine
 10
231.84
 20
24.777639
 30
0.0
 11
232.27317
 21
23.54
 31
0.0
  0
LINE
  5
5C
100
AcDbEntity
  8
V0L1
  6
CONTINUOUS
 62
    40
100
AcDbLine
 10
232.27317
 20
23.54
 30
0.0
 11
231.84
 21
23.54
 31
0.0
  0
LINE
  5
5D
100
AcDbEntity
  8
V0L1
  6
CONTINUOUS
 62
    40
100
AcDbLine
 10
232.06175
 20
23.69
 30
0.0
 11
231.99
 21
23.69
 31
0.0
  0
LINE
  5
5E
100
AcDbEntity
  8
V0L1
  6
CONTINUOUS
 62
    40
100
AcDbLine
 10
231.99
 20
23.69
 30
0.0
 11
231.99
 21
23.895004
 31
0.0
  0
LINE
  5
5F
100
AcDbEntity
  8
V0L1
  6
CONTINUOUS
 62
    40
100
AcDbLine
 10
231.99
 20
23.895004
 30
0.0
 11
232.06175
 21
23.69
 31
0.0
  0
LINE
  5
60
100
AcDbEntity
  8
V0L1
  6
CONTINUOUS
 62
    40
100
AcDbLine
 10
227.05371
 20
18.68
 30
0.0
 11
228.21571
 21
22.0
 31
0.0
  0
LINE
  5
61
100
AcDbEntity
  8
V0L1
  6
CONTINUOUS
 62
     3
100
AcDbLine
 10
222.0
 20
15.0
 30
0.0
 11
222.0
 21
58.0
 31
0.0
  0
LINE
  5
62
100
AcDbEntity
  8
V0L1
  6
CONTINUOUS
 62
     3
100
AcDbLine
 10
222.0
 20
58.0
 30
0.0
 11
393.0
 21
58.0
 31
0.0
  0
LINE
  5
63
100
AcDbEntity
  8
V0L1
  6
CONTINUOUS
 62
     3
100
AcDbLine
 10
222.0
 20
54.0
 30
0.0
 11
393.0
 21
54.0
 31
0.0
  0
LINE
  5
64
100
AcDbEntity
  8
V0L1
  6
CONTINUOUS
 62
     3
100
AcDbLine
 10
222.0
 20
50.0
 30
0.0
 11
350.0
 21
50.0
 31
0.0
  0
LINE
  5
65
100
AcDbEntity
  8
V0L1
  6
CONTINUOUS
 62
    40
100
AcDbLine
 10
228.0
 20
46.0
 30
0.0
 11
335.0
 21
46.0
 31
0.0
  0
LINE
  5
66
100
AcDbEntity
  8
V0L1
  6
CONTINUOUS
 62
    40
100
AcDbLine
 10
228.0
 20
42.0
 30
0.0
 11
335.0
 21
42.0
 31
0.0
  0
LINE
  5
67
100
AcDbEntity
  8
V0L1
  6
CONTINUOUS
 62
    40
100
AcDbLine
 10
228.0
 20
38.0
 30
0.0
 11
335.0
 21
38.0
 31
0.0
  0
LINE
  5
68
100
AcDbEntity
  8
V0L1
  6
CONTINUOUS
 62
    40
100
AcDbLine
 10
228.0
 20
34.0
 30
0.0
 11
335.0
 21
34.0
 31
0.0
  0
LINE
  5
69
100
AcDbEntity
  8
V0L1
  6
CONTINUOUS
 62
     3
100
AcDbLine
 10
222.0
 20
30.0
 30
0.0
 11
393.0
 21
30.0
 31
0.0
  0
LINE
  5
6A
100
AcDbEntity
  8
V0L1
  6
CONTINUOUS
 62
     3
100
AcDbLine
 10
252.0
 20
26.0
 30
0.0
 11
335.0
 21
26.0
 31
0.0
  0
LINE
  5
6B
100
AcDbEntity
  8
V0L1
  6
CONTINUOUS
 62
     3
100
AcDbLine
 10
335.0
 20
23.0
 30
0.0
 11
393.0
 21
23.0
 31
0.0
  0
LINE
  5
6C
100
AcDbEntity
  8
V0L1
  6
CONTINUOUS
 62
    40
100
AcDbLine
 10
228.0
 20
30.0
 30
0.0
 11
228.0
 21
50.0
 31
0.0
  0
LINE
  5
6D
100
AcDbEntity
  8
V0L1
  6
CONTINUOUS
 62
     3
100
AcDbLine
 10
231.0
 20
54.0
 30
0.0
 11
231.0
 21
58.0
 31
0.0
  0
LINE
  5
6E
100
AcDbEntity
  8
V0L1
  6
CONTINUOUS
 62
    40
100
AcDbLine
 10
235.0
 20
30.0
 30
0.0
 11
235.0
 21
50.0
 31
0.0
  0
LINE
  5
6F
100
AcDbEntity
  8
V0L1
  6
CONTINUOUS
 62
     3
100
AcDbLine
 10
252.0
 20
15.0
 30
0.0
 11
252.0
 21
30.0
 31
0.0
  0
LINE
  5
70
100
AcDbEntity
  8
V0L1
  6
CONTINUOUS
 62
     3
100
AcDbLine
 10
265.0
 20
54.0
 30
0.0
 11
265.0
 21
58.0
 31
0.0
  0
LINE
  5
71
100
AcDbEntity
  8
V0L1
  6
CONTINUOUS
 62
     3
100
AcDbLine
 10
268.0
 20
50.0
 30
0.0
 11
268.0
 21
54.0
 31
0.0
  0
LINE
  5
72
100
AcDbEntity
  8
V0L1
  6
CONTINUOUS
 62
     3
100
AcDbLine
 10
275.0
 20
54.0
 30
0.0
 11
275.0
 21
58.0
 31
0.0
  0
LINE
  5
73
100
AcDbEntity
  8
V0L1
  6
CONTINUOUS
 62
     3
100
AcDbLine
 10
308.0
 20
50.0
 30
0.0
 11
308.0
 21
58.0
 31
0.0
  0
LINE
  5
74
100
AcDbEntity
  8
V0L1
  6
CONTINUOUS
 62
     3
100
AcDbLine
 10
318.0
 20
54.0
 30
0.0
 11
318.0
 21
58.0
 31
0.0
  0
LINE
  5
75
100
AcDbEntity
  8
V0L1
  6
CONTINUOUS
 62
     3
100
AcDbLine
 10
335.0
 20
15.0
 30
0.0
 11
335.0
 21
50.0
 31
0.0
  0
LINE
  5
76
100
AcDbEntity
  8
V0L1
  6
CONTINUOUS
 62
     3
100
AcDbLine
 10
341.0
 20
23.0
 30
0.0
 11
341.0
 21
26.107786
 31
0.0
  0
LINE
  5
77
100
AcDbEntity
  8
V0L1
  6
CONTINUOUS
 62
     3
100
AcDbLine
 10
347.0
 20
23.0
 30
0.0
 11
347.0
 21
30.0
 31
0.0
  0
LINE
  5
78
100
AcDbEntity
  8
V0L1
  6
CONTINUOUS
 62
     3
100
AcDbLine
 10
350.0
 20
30.0
 30
0.0
 11
350.0
 21
58.0
 31
0.0
  0
LINE
  5
79
100
AcDbEntity
  8
V0L1
  6
CONTINUOUS
 62
     3
100
AcDbLine
 10
353.0
 20
23.0
 30
0.0
 11
353.0
 21
26.107786
 31
0.0
  0
LINE
  5
7A
100
AcDbEntity
  8
V0L1
  6
CONTINUOUS
 62
     3
100
AcDbLine
 10
16.0
 20
278.0
 30
0.0
 11
16.0
 21
15.0
 31
0.0
  0
LINE
  5
7B
100
AcDbEntity
  8
V0L1
  6
CONTINUOUS
 62
     3
100
AcDbLine
 10
16.0
 20
15.0
 30
0.0
 11
393.0
 21
15.0
 31
0.0
  0
LINE
  5
7C
100
AcDbEntity
  8
V0L1
  6
CONTINUOUS
 62
     3
100
AcDbLine
 10
359.0
 20
23.0
 30
0.0
 11
359.0
 21
30.0
 31
0.0
  0
LINE
  5
7D
100
AcDbEntity
  8
V0L1
  6
CONTINUOUS
 62
     3
100
AcDbLine
 10
360.0
 20
54.0
 30
0.0
 11
360.0
 21
58.0
 31
0.0
  0
LINE
  5
7E
100
AcDbEntity
  8
V0L1
  6
CONTINUOUS
 62
     3
100
AcDbLine
 10
370.0
 20
23.0
 30
0.0
 11
370.0
 21
30.0
 31
0.0
  0
LINE
  5
7F
100
AcDbEntity
  8
V0L1
  6
CONTINUOUS
 62
     3
100
AcDbLine
 10
382.0
 20
23.0
 30
0.0
 11
382.0
 21
30.0
 31
0.0
  0
LINE
  5
80
100
AcDbEntity
  8
V0L1
  6
CONTINUOUS
 62
    40
100
AcDbLine
 10
389.5
 20
53.5
 30
0.0
 11
392.5
 21
53.5
 31
0.0
  0
LINE
  5
81
100
AcDbEntity
  8
V0L1
  6
CONTINUOUS
 62
    40
100
AcDbLine
 10
392.5
 20
53.5
 30
0.0
 11
392.5
 21
50.5
 31
0.0
  0
LINE
  5
82
100
AcDbEntity
  8
V0L1
  6
CONTINUOUS
 62
    40
100
AcDbLine
 10
389.5
 20
50.5
 30
0.0
 11
392.5
 21
50.5
 31
0.0
  0
LINE
  5
83
100
AcDbEntity
  8
V0L1
  6
CONTINUOUS
 62
    40
100
AcDbLine
 10
389.5
 20
53.5
 30
0.0
 11
389.5
 21
50.5
 31
0.0
  0
LINE
  5
84
100
AcDbEntity
  8
V0L1
  6
CONTINUOUS
 62
    40
100
AcDbLine
 10
389.5
 20
49.5
 30
0.0
 11
389.5
 21
46.5
 31
0.0
  0
LINE
  5
85
100
AcDbEntity
  8
V0L1
  6
CONTINUOUS
 62
    40
100
AcDbLine
 10
389.5
 20
46.5
 30
0.0
 11
392.5
 21
46.5
 31
0.0
  0
LINE
  5
86
100
AcDbEntity
  8
V0L1
  6
CONTINUOUS
 62
    40
100
AcDbLine
 10
392.5
 20
49.5
 30
0.0
 11
392.5
 21
46.5
 31
0.0
  0
LINE
  5
87
100
AcDbEntity
  8
V0L1
  6
CONTINUOUS
 62
    40
100
AcDbLine
 10
389.5
 20
49.5
 30
0.0
 11
392.5
 21
49.5
 31
0.0
  0
LINE
  5
88
100
AcDbEntity
  8
V0L1
  6
CONTINUOUS
 62
    40
100
AcDbLine
 10
389.5
 20
45.5
 30
0.0
 11
389.5
 21
42.5
 31
0.0
  0
LINE
  5
89
100
AcDbEntity
  8
V0L1
  6
CONTINUOUS
 62
    40
100
AcDbLine
 10
389.5
 20
42.5
 30
0.0
 11
392.5
 21
42.5
 31
0.0
  0
LINE
  5
8A
100
AcDbEntity
  8
V0L1
  6
CONTINUOUS
 62
     3
100
AcDbLine
 10
393.0
 20
15.0
 30
0.0
 11
393.0
 21
278.0
 31
0.0
  0
LINE
  5
8B
100
AcDbEntity
  8
V0L1
  6
CONTINUOUS
 62
     3
100
AcDbLine
 10
393.0
 20
278.0
 30
0.0
 11
16.0
 21
278.0
 31
0.0
  0
LINE
  5
8C
100
AcDbEntity
  8
V0L1
  6
CONTINUOUS
 62
    40
100
AcDbLine
 10
392.5
 20
45.5
 30
0.0
 11
392.5
 21
42.5
 31
0.0
  0
LINE
  5
8D
100
AcDbEntity
  8
V0L1
  6
CONTINUOUS
 62
    40
100
AcDbLine
 10
389.5
 20
45.5
 30
0.0
 11
392.5
 21
45.5
 31
0.0
  0
LINE
  5
8E
100
AcDbEntity
  8
V0L1
  6
CONTINUOUS
 62
    40
100
AcDbLine
 10
393.0
 20
15.0
 30
0.0
 11
397.0
 21
15.0
 31
0.0
  0
LINE
  5
8F
100
AcDbEntity
  8
V0L1
  6
CONTINUOUS
 62
    40
100
AcDbLine
 10
393.0
 20
18.0
 30
0.0
 11
397.0
 21
18.0
 31
0.0
  0
LINE
  5
90
100
AcDbEntity
  8
V0L1
  6
CONTINUOUS
 62
    40
100
AcDbLine
 10
393.0
 20
21.0
 30
0.0
 11
397.0
 21
21.0
 31
0.0
  0
LINE
  5
91
100
AcDbEntity
  8
V0L1
  6
CONTINUOUS
 62
    40
100
AcDbLine
 10
393.0
 20
24.0
 30
0.0
 11
397.0
 21
24.0
 31
0.0
  0
LINE
  5
92
100
AcDbEntity
  8
V0L1
  6
CONTINUOUS
 62
    40
100
AcDbLine
 10
393.0
 20
27.0
 30
0.0
 11
397.0
 21
27.0
 31
0.0
  0
LINE
  5
93
100
AcDbEntity
  8
V0L1
  6
CONTINUOUS
 62
    40
100
AcDbLine
 10
393.0
 20
30.0
 30
0.0
 11
397.0
 21
30.0
 31
0.0
  0
LINE
  5
94
100
AcDbEntity
  8
V0L1
  6
CONTINUOUS
 62
    40
100
AcDbLine
 10
229.6
 20
26.5
 30
0.0
 11
230.48
 21
26.5
 31
0.0
  0
LINE
  5
95
100
AcDbEntity
  8
V0L1
  6
CONTINUOUS
 62
    40
100
AcDbLine
 10
83.0
 20
278.0
 30
0.0
 11
83.0
 21
266.0
 31
0.0
  0
LINE
  5
96
100
AcDbEntity
  8
V0L1
  6
CONTINUOUS
 62
     3
100
AcDbLine
 10
150.0
 20
266.0
 30
0.0
 11
150.0
 21
278.0
 31
0.0
  0
LINE
  5
97
100
AcDbEntity
  8
V0L1
  6
CONTINUOUS
 62
     3
100
AcDbLine
 10
150.0
 20
266.0
 30
0.0
 11
16.0
 21
266.0
 31
0.0
  0
LINE
  5
98
100
AcDbEntity
  8
V0L1
  6
CONTINUOUS
 62
    40
100
AcDbLine
 10
228.8
 20
18.5
 30
0.0
 11
226.8
 21
18.5
 31
0.0
  0
LINE
  5
99
100
AcDbEntity
  8
V0L1
  6
CONTINUOUS
 62
    40
100
AcDbLine
 10
228.21571
 20
22.0
 30
0.0
 11
230.3
 21
22.0
 31
0.0
  0
LINE
  5
9A
100
AcDbEntity
  8
V0L1
  6
CONTINUOUS
 62
    40
100
AcDbLine
 10
226.8
 20
18.5
 30
0.0
 11
228.088
 21
22.18
 31
0.0
  0
LINE
  5
9B
100
AcDbEntity
  8
V0L1
  6
CONTINUOUS
 62
    40
100
AcDbLine
 10
232.0
 20
26.5
 30
0.0
 11
233.288
 21
22.82
 31
0.0
  0
LINE
  5
9C
100
AcDbEntity
  8
V0L1
  6
CONTINUOUS
 62
    40
100
AcDbLine
 10
232.24
 20
20.1
 30
0.0
 11
232.8
 21
18.5
 31
0.0
  0
LINE
  5
9D
100
AcDbEntity
  8
V0L1
  6
CONTINUOUS
 62
    40
100
AcDbLine
 10
228.8
 20
18.5
 30
0.0
 11
229.36
 21
20.1
 31
0.0
  0
LINE
  5
9E
100
AcDbEntity
  8
V0L1
  6
CONTINUOUS
 62
    40
100
AcDbLine
 10
235.36
 20
18.5
 30
0.0
 11
237.44
 21
18.5
 31
0.0
  0
LINE
  5
9F
100
AcDbEntity
  8
V0L1
  6
CONTINUOUS
 62
    40
100
AcDbLine
 10
235.36
 20
26.5
 30
0.0
 11
237.44
 21
26.5
 31
0.0
  0
LINE
  5
A0
100
AcDbEntity
  8
V0L1
  6
CONTINUOUS
 62
    40
100
AcDbLine
 10
229.36
 20
20.1
 30
0.0
 11
230.48
 21
20.1
 31
0.0
  0
LINE
  5
A1
100
AcDbEntity
  8
V0L1
  6
CONTINUOUS
 62
    40
100
AcDbLine
 10
232.8
 20
18.5
 30
0.0
 11
234.8
 21
18.5
 31
0.0
  0
LINE
  5
A2
100
AcDbEntity
  8
V0L1
  6
CONTINUOUS
 62
    40
100
AcDbLine
 10
228.088
 20
22.18
 30
0.0
 11
230.48
 21
22.18
 31
0.0
  0
LINE
  5
A3
100
AcDbEntity
  8
V0L1
  6
CONTINUOUS
 62
    40
100
AcDbLine
 10
228.312
 20
22.82
 30
0.0
 11
230.48
 21
22.82
 31
0.0
  0
LINE
  5
A4
100
AcDbEntity
  8
V0L1
  6
CONTINUOUS
 62
    40
100
AcDbLine
 10
57.69113
 20
271.18273
 30
0.0
 11
60.69113
 21
271.18273
 31
0.0
  0
LINE
  5
A5
100
AcDbEntity
  8
V0L1
  6
CONTINUOUS
 62
    40
100
AcDbLine
 10
60.69113
 20
271.18273
 30
0.0
 11
60.69113
 21
268.18273
 31
0.0
  0
LINE
  5
A6
100
AcDbEntity
  8
V0L1
  6
CONTINUOUS
 62
    40
100
AcDbLine
 10
230.48
 20
20.1
 30
0.0
 11
230.48
 21
22.18
 31
0.0
  0
LINE
  5
A7
100
AcDbEntity
  8
V0L1
  6
CONTINUOUS
 62
    40
100
AcDbLine
 10
231.12
 20
20.1
 30
0.0
 11
231.12
 21
22.18
 31
0.0
  0
LINE
  5
A8
100
AcDbEntity
  8
V0L1
  6
CONTINUOUS
 62
    40
100
AcDbLine
 10
231.12
 20
20.1
 30
0.0
 11
232.24
 21
20.1
 31
0.0
  0
LINE
  5
A9
100
AcDbEntity
  8
V0L1
  6
CONTINUOUS
 62
    40
100
AcDbLine
 10
231.12
 20
22.18
 30
0.0
 11
233.512
 21
22.18
 31
0.0
  0
LINE
  5
AA
100
AcDbEntity
  8
V0L1
  6
CONTINUOUS
 62
    40
100
AcDbLine
 10
228.312
 20
22.82
 30
0.0
 11
229.6
 21
26.5
 31
0.0
  0
LINE
  5
AB
100
AcDbEntity
  8
V0L1
  6
CONTINUOUS
 62
    40
100
AcDbLine
 10
231.12
 20
22.82
 30
0.0
 11
233.288
 21
22.82
 31
0.0
  0
LINE
  5
AC
100
AcDbEntity
  8
V0L1
  6
CONTINUOUS
 62
    40
100
AcDbLine
 10
231.12
 20
22.82
 30
0.0
 11
231.12
 21
26.5
 31
0.0
  0
LINE
  5
AD
100
AcDbEntity
  8
V0L1
  6
CONTINUOUS
 62
    40
100
AcDbLine
 10
230.48
 20
22.82
 30
0.0
 11
230.48
 21
26.5
 31
0.0
  0
LINE
  5
AE
100
AcDbEntity
  8
V0L1
  6
CONTINUOUS
 62
    40
100
AcDbLine
 10
232.0
 20
26.5
 30
0.0
 11
231.12
 21
26.5
 31
0.0
  0
LINE
  5
AF
100
AcDbEntity
  8
V0L1
  6
CONTINUOUS
 62
    40
100
AcDbLine
 10
233.512
 20
22.18
 30
0.0
 11
234.8
 21
18.5
 31
0.0
  0
LINE
  5
B0
100
AcDbEntity
  8
V0L1
  6
CONTINUOUS
 62
    40
100
AcDbLine
 10
235.36
 20
18.5
 30
0.0
 11
235.36
 21
22.18
 31
0.0
  0
LINE
  5
B1
100
AcDbEntity
  8
V0L1
  6
CONTINUOUS
 62
    40
100
AcDbLine
 10
57.69113
 20
268.18273
 30
0.0
 11
60.69113
 21
268.18273
 31
0.0
  0
LINE
  5
B2
100
AcDbEntity
  8
V0L1
  6
CONTINUOUS
 62
    40
100
AcDbLine
 10
57.69113
 20
271.18273
 30
0.0
 11
57.69113
 21
268.18273
 31
0.0
  0
LINE
  5
B3
100
AcDbEntity
  8
V0L1
  6
CONTINUOUS
 62
    40
100
AcDbLine
 10
48.21513
 20
271.18273
 30
0.0
 11
51.21513
 21
271.18273
 31
0.0
  0
ARC
  5
B4
100
AcDbEntity
  8
V0L1
  6
CONTINUOUS
 62
    40
100
AcDbCircle
 10
238.56
 20
24.7
 30
0.0
 40
1.8
100
AcDbArc
 50
299.38468
 51
90.0
  0
ARC
  5
B5
100
AcDbEntity
  8
V0L1
  6
CONTINUOUS
 62
    40
100
AcDbCircle
 10
238.56
 20
20.9
 30
0.0
 40
2.4
100
AcDbArc
 50
270.0
 51
32.23095
  0
LINE
  5
B6
100
AcDbEntity
  8
V0L1
  6
CONTINUOUS
 62
    40
100
AcDbLine
 10
51.21513
 20
271.18273
 30
0.0
 11
51.21513
 21
268.18273
 31
0.0
  0
LINE
  5
B7
100
AcDbEntity
  8
V0L1
  6
CONTINUOUS
 62
    40
100
AcDbLine
 10
48.21513
 20
268.18273
 30
0.0
 11
51.21513
 21
268.18273
 31
0.0
  0
LINE
  5
B8
100
AcDbEntity
  8
V0L1
  6
CONTINUOUS
 62
    40
100
AcDbLine
 10
240.0
 20
22.82
 30
0.0
 11
238.08
 21
22.82
 31
0.0
  0
LINE
  5
B9
100
AcDbEntity
  8
V0L1
  6
CONTINUOUS
 62
    40
100
AcDbLine
 10
240.59017
 20
22.18
 30
0.0
 11
238.08
 21
22.18
 31
0.0
  0
LINE
  5
BA
100
AcDbEntity
  8
V0L1
  6
CONTINUOUS
 62
    40
100
AcDbLine
 10
238.08
 20
18.5
 30
0.0
 11
238.08
 21
22.18
 31
0.0
  0
LINE
  5
BB
100
AcDbEntity
  8
V0L1
  6
CONTINUOUS
 62
    40
100
AcDbLine
 10
237.44
 20
18.5
 30
0.0
 11
237.44
 21
22.18
 31
0.0
  0
LINE
  5
BC
100
AcDbEntity
  8
V0L1
  6
CONTINUOUS
 62
    40
100
AcDbLine
 10
238.08
 20
26.5
 30
0.0
 11
238.56
 21
26.5
 31
0.0
  0
LINE
  5
BD
100
AcDbEntity
  8
V0L1
  6
CONTINUOUS
 62
    40
100
AcDbLine
 10
237.44
 20
22.82
 30
0.0
 11
235.36
 21
22.82
 31
0.0
  0
LINE
  5
BE
100
AcDbEntity
  8
V0L1
  6
CONTINUOUS
 62
    40
100
AcDbLine
 10
237.44
 20
22.18
 30
0.0
 11
235.36
 21
22.18
 31
0.0
  0
LINE
  5
BF
100
AcDbEntity
  8
V0L1
  6
CONTINUOUS
 62
    40
100
AcDbLine
 10
238.08
 20
18.5
 30
0.0
 11
238.56
 21
18.5
 31
0.0
  0
LINE
  5
C0
100
AcDbEntity
  8
V0L1
  6
CONTINUOUS
 62
    40
100
AcDbLine
 10
235.36
 20
22.82
 30
0.0
 11
235.36
 21
26.5
 31
0.0
  0
LINE
  5
C1
100
AcDbEntity
  8
V0L1
  6
CONTINUOUS
 62
    40
100
AcDbLine
 10
48.21513
 20
271.18273
 30
0.0
 11
48.21513
 21
268.18273
 31
0.0
  0
LINE
  5
C2
100
AcDbEntity
  8
V0L1
  6
CONTINUOUS
 62
    40
100
AcDbLine
 10
237.44
 20
22.82
 30
0.0
 11
237.44
 21
26.5
 31
0.0
  0
LINE
  5
C3
100
AcDbEntity
  8
V0L1
  6
CONTINUOUS
 62
    40
100
AcDbLine
 10
238.08
 20
22.82
 30
0.0
 11
238.08
 21
26.5
 31
0.0
  0
ARC
  5
C4
100
AcDbEntity
  8
V0L1
  6
CONTINUOUS
 62
    40
100
AcDbCircle
 10
238.56
 20
20.9
 30
0.0
 40
2.4
100
AcDbArc
 50
53.130102
 51
68.407484
  0
LINE
  5
C5
100
AcDbEntity
  8
V0L1
  6
CONTINUOUS
 62
    40
100
AcDbLine
 10
241.6
 20
18.5
 30
0.0
 11
241.6
 21
22.18
 31
0.0
  0
LINE
  5
C6
100
AcDbEntity
  8
V0L1
  6
CONTINUOUS
 62
    40
100
AcDbLine
 10
243.68
 20
22.18
 30
0.0
 11
241.6
 21
22.18
 31
0.0
  0
LINE
  5
C7
100
AcDbEntity
  8
V0L1
  6
CONTINUOUS
 62
    40
100
AcDbLine
 10
243.68
 20
18.5
 30
0.0
 11
243.68
 21
22.18
 31
0.0
  0
LINE
  5
C8
100
AcDbEntity
  8
V0L1
  6
CONTINUOUS
 62
    40
100
AcDbLine
 10
124.0
 20
269.0
 30
0.0
 11
127.0
 21
269.0
 31
0.0
  0
LINE
  5
C9
100
AcDbEntity
  8
V0L1
  6
CONTINUOUS
 62
    40
100
AcDbLine
 10
241.6
 20
18.5
 30
0.0
 11
243.68
 21
18.5
 31
0.0
  0
LINE
  5
CA
100
AcDbEntity
  8
V0L1
  6
CONTINUOUS
 62
    40
100
AcDbLine
 10
244.32
 20
18.5
 30
0.0
 11
244.32
 21
22.18
 31
0.0
  0
LINE
  5
CB
100
AcDbEntity
  8
V0L1
  6
CONTINUOUS
 62
    40
100
AcDbLine
 10
246.83017
 20
22.18
 30
0.0
 11
244.32
 21
22.18
 31
0.0
  0
LINE
  5
CC
100
AcDbEntity
  8
V0L1
  6
CONTINUOUS
 62
    40
100
AcDbLine
 10
127.0
 20
272.0
 30
0.0
 11
127.0
 21
269.0
 31
0.0
  0
LINE
  5
CD
100
AcDbEntity
  8
V0L1
  6
CONTINUOUS
 62
    40
100
AcDbLine
 10
124.0
 20
272.0
 30
0.0
 11
127.0
 21
272.0
 31
0.0
  0
LINE
  5
CE
100
AcDbEntity
  8
V0L1
  6
CONTINUOUS
 62
    40
100
AcDbLine
 10
124.0
 20
272.0
 30
0.0
 11
124.0
 21
269.0
 31
0.0
  0
ARC
  5
CF
100
AcDbEntity
  8
V0L1
  6
CONTINUOUS
 62
    40
100
AcDbCircle
 10
244.8
 20
20.9
 30
0.0
 40
2.4
100
AcDbArc
 50
270.0
 51
32.23095
  0
LINE
  5
D0
100
AcDbEntity
  8
V0L1
  6
CONTINUOUS
 62
    40
100
AcDbLine
 10
137.0
 20
269.0
 30
0.0
 11
140.0
 21
269.0
 31
0.0
  0
LINE
  5
D1
100
AcDbEntity
  8
V0L1
  6
CONTINUOUS
 62
    40
100
AcDbLine
 10
244.32
 20
18.5
 30
0.0
 11
244.8
 21
18.5
 31
0.0
  0
LINE
  5
D2
100
AcDbEntity
  8
V0L1
  6
CONTINUOUS
 62
    40
100
AcDbLine
 10
241.6
 20
22.82
 30
0.0
 11
241.6
 21
26.5
 31
0.0
  0
LINE
  5
D3
100
AcDbEntity
  8
V0L1
  6
CONTINUOUS
 62
    40
100
AcDbLine
 10
241.6
 20
26.5
 30
0.0
 11
243.68
 21
26.5
 31
0.0
  0
LINE
  5
D4
100
AcDbEntity
  8
V0L1
  6
CONTINUOUS
 62
    40
100
AcDbLine
 10
243.68
 20
22.82
 30
0.0
 11
243.68
 21
26.5
 31
0.0
  0
LINE
  5
D5
100
AcDbEntity
  8
V0L1
  6
CONTINUOUS
 62
    40
100
AcDbLine
 10
243.68
 20
22.82
 30
0.0
 11
241.6
 21
22.82
 31
0.0
  0
LINE
  5
D6
100
AcDbEntity
  8
V0L1
  6
CONTINUOUS
 62
    40
100
AcDbLine
 10
244.32
 20
22.82
 30
0.0
 11
244.32
 21
26.5
 31
0.0
  0
LINE
  5
D7
100
AcDbEntity
  8
V0L1
  6
CONTINUOUS
 62
    40
100
AcDbLine
 10
244.32
 20
26.5
 30
0.0
 11
244.8
 21
26.5
 31
0.0
  0
ARC
  5
D8
100
AcDbEntity
  8
V0L1
  6
CONTINUOUS
 62
    40
100
AcDbCircle
 10
244.8
 20
24.7
 30
0.0
 40
1.8
100
AcDbArc
 50
299.38468
 51
90.0
  0
LINE
  5
D9
100
AcDbEntity
  8
V0L1
  6
CONTINUOUS
 62
    40
100
AcDbLine
 10
140.0
 20
272.0
 30
0.0
 11
140.0
 21
269.0
 31
0.0
  0
ARC
  5
DA
100
AcDbEntity
  8
V0L1
  6
CONTINUOUS
 62
    40
100
AcDbCircle
 10
244.8
 20
20.9
 30
0.0
 40
2.4
100
AcDbArc
 50
53.130102
 51
68.407484
  0
LINE
  5
DB
100
AcDbEntity
  8
V0L1
  6
CONTINUOUS
 62
    40
100
AcDbLine
 10
246.24
 20
22.82
 30
0.0
 11
244.32
 21
22.82
 31
0.0
  0
LINE
  5
DC
100
AcDbEntity
  8
V0L1
  6
CONTINUOUS
 62
    40
100
AcDbLine
 10
137.0
 20
272.0
 30
0.0
 11
140.0
 21
272.0
 31
0.0
  0
TEXT
  5
DD
100
AcDbEntity
  8
V0L1
  6
CONTINUOUS
 62
    13
100
AcDbText
 10
28.042442
 20
273.05173
 30
0.0
 40
2.5
  1
Tolerances generales selon ISO 2768
 41
0.5
100
AcDbText
  0
TEXT
  5
DE
100
AcDbEntity
  8
V0L1
  6
CONTINUOUS
 62
    13
100
AcDbText
 10
19.029304
 20
268.29203
 30
0.0
 40
2.5
  1
Degre de precision   f      m       c       v
 41
0.5
100
AcDbText
  0
TEXT
  5
DF
100
AcDbEntity
  8
V0L1
  6
CONTINUOUS
 62
    13
100
AcDbText
 10
86.294943
 20
273.6093
 30
0.0
 40
2.5
  1
Tolerances generales sur pieces moulees selon
 41
0.5
100
AcDbText
  0
TEXT
  5
E0
100
AcDbEntity
  8
V0L1
  6
CONTINUOUS
 62
    13
100
AcDbText
 10
86.294943
 20
269.1093
 30
0.0
 40
2.5
  1
Din 16901 (FPTC 407364)   130       140   
 41
0.5
100
AcDbText
  0
LINE
  5
E1
100
AcDbEntity
  8
V0L1
  6
CONTINUOUS
 62
    40
100
AcDbLine
 10
230.3
 20
22.0
 30
0.0
 11
230.3
 21
20.28
 31
0.0
  0
LINE
  5
E2
100
AcDbEntity
  8
V0L1
  6
CONTINUOUS
 62
    40
100
AcDbLine
 10
67.16713
 20
268.18273
 30
0.0
 11
70.16713
 21
268.18273
 31
0.0
  0
LINE
  5
E3
100
AcDbEntity
  8
V0L1
  6
CONTINUOUS
 62
    40
100
AcDbLine
 10
137.0
 20
272.0
 30
0.0
 11
137.0
 21
269.0
 31
0.0
  0
LINE
  5
E4
100
AcDbEntity
  8
V0L1
  6
CONTINUOUS
 62
    40
100
AcDbLine
 10
230.3
 20
20.28
 30
0.0
 11
229.23229
 21
20.28
 31
0.0
  0
LINE
  5
E5
100
AcDbEntity
  8
V0L1
  6
CONTINUOUS
 62
    40
100
AcDbLine
 10
229.23229
 20
20.28
 30
0.0
 11
228.67229
 21
18.68
 31
0.0
  0
LINE
  5
E6
100
AcDbEntity
  8
V0L1
  6
CONTINUOUS
 62
    40
100
AcDbLine
 10
16.0
 20
278.0
 30
0.0
 11
17.5
 21
281.67156
 31
0.0
  0
LINE
  5
E7
100
AcDbEntity
  8
V0L1
  6
CONTINUOUS
 62
    40
100
AcDbLine
 10
17.5
 20
281.67156
 30
0.0
 11
19.0
 21
278.0
 31
0.0
  0
LINE
  5
E8
100
AcDbEntity
  8
V0L1
  6
CONTINUOUS
 62
    40
100
AcDbLine
 10
212.0
 20
278.0
 30
0.0
 11
213.5
 21
281.67156
 31
0.0
  0
LINE
  5
E9
100
AcDbEntity
  8
V0L1
  6
CONTINUOUS
 62
    40
100
AcDbLine
 10
213.5
 20
281.67156
 30
0.0
 11
215.0
 21
278.0
 31
0.0
  0
LINE
  5
EA
100
AcDbEntity
  8
V0L1
  6
CONTINUOUS
 62
    40
100
AcDbLine
 10
16.0
 20
15.0
 30
0.0
 11
17.5
 21
11.328442
 31
0.0
  0
LINE
  5
EB
100
AcDbEntity
  8
V0L1
  6
CONTINUOUS
 62
    40
100
AcDbLine
 10
17.5
 20
11.328442
 30
0.0
 11
19.0
 21
15.0
 31
0.0
  0
LINE
  5
EC
100
AcDbEntity
  8
V0L1
  6
CONTINUOUS
 62
    40
100
AcDbLine
 10
212.0
 20
15.0
 30
0.0
 11
213.5
 21
11.328442
 31
0.0
  0
LINE
  5
ED
100
AcDbEntity
  8
V0L1
  6
CONTINUOUS
 62
    40
100
AcDbLine
 10
213.5
 20
11.328442
 30
0.0
 11
215.0
 21
15.0
 31
0.0
  0
LINE
  5
EE
100
AcDbEntity
  8
V0L1
  6
CONTINUOUS
 62
    40
100
AcDbLine
 10
228.67229
 20
18.68
 30
0.0
 11
227.05371
 21
18.68
 31
0.0
  0
LINE
  5
EF
100
AcDbEntity
  8
V0L1
  6
CONTINUOUS
 62
    40
100
AcDbLine
 10
227.30741
 20
18.86
 30
0.0
 11
228.34341
 21
21.82
 31
0.0
  0
LINE
  5
F0
100
AcDbEntity
  8
V0L1
  6
CONTINUOUS
 62
    40
100
AcDbLine
 10
228.34341
 20
21.82
 30
0.0
 11
230.12
 21
21.82
 31
0.0
  0
LINE
  5
F1
100
AcDbEntity
  8
V0L1
  6
CONTINUOUS
 62
    40
100
AcDbLine
 10
230.12
 20
21.82
 30
0.0
 11
230.12
 21
20.46
 31
0.0
  0
LINE
  5
F2
100
AcDbEntity
  8
V0L1
  6
CONTINUOUS
 62
    40
100
AcDbLine
 10
230.12
 20
20.46
 30
0.0
 11
229.10459
 21
20.46
 31
0.0
  0
LINE
  5
F3
100
AcDbEntity
  8
V0L1
  6
CONTINUOUS
 62
    40
100
AcDbLine
 10
229.10459
 20
20.46
 30
0.0
 11
228.54459
 21
18.86
 31
0.0
  0
LINE
  5
F4
100
AcDbEntity
  8
V0L1
  6
CONTINUOUS
 62
    40
100
AcDbLine
 10
228.54459
 20
18.86
 30
0.0
 11
227.30741
 21
18.86
 31
0.0
  0
LINE
  5
F5
100
AcDbEntity
  8
V0L1
  6
CONTINUOUS
 62
    40
100
AcDbLine
 10
227.56112
 20
19.04
 30
0.0
 11
228.47112
 21
21.64
 31
0.0
  0
LINE
  5
F6
100
AcDbEntity
  8
V0L1
  6
CONTINUOUS
 62
    40
100
AcDbLine
 10
228.47112
 20
21.64
 30
0.0
 11
229.94
 21
21.64
 31
0.0
  0
LINE
  5
F7
100
AcDbEntity
  8
V0L1
  6
CONTINUOUS
 62
    40
100
AcDbLine
 10
229.94
 20
21.64
 30
0.0
 11
229.94
 21
20.64
 31
0.0
  0
LINE
  5
F8
100
AcDbEntity
  8
V0L1
  6
CONTINUOUS
 62
    40
100
AcDbLine
 10
229.94
 20
20.64
 30
0.0
 11
228.97688
 21
20.64
 31
0.0
  0
LINE
  5
F9
100
AcDbEntity
  8
V0L1
  6
CONTINUOUS
 62
    40
100
AcDbLine
 10
228.97688
 20
20.64
 30
0.0
 11
228.41688
 21
19.04
 31
0.0
  0
LINE
  5
FA
100
AcDbEntity
  8
V0L1
  6
CONTINUOUS
 62
    40
100
AcDbLine
 10
228.41688
 20
19.04
 30
0.0
 11
227.56112
 21
19.04
 31
0.0
  0
LINE
  5
FB
100
AcDbEntity
  8
V0L1
  6
CONTINUOUS
 62
    40
100
AcDbLine
 10
227.81483
 20
19.22
 30
0.0
 11
228.59883
 21
21.46
 31
0.0
  0
LINE
  5
FC
100
AcDbEntity
  8
V0L1
  6
CONTINUOUS
 62
    40
100
AcDbLine
 10
228.59883
 20
21.46
 30
0.0
 11
229.76
 21
21.46
 31
0.0
  0
LINE
  5
FD
100
AcDbEntity
  8
V0L1
  6
CONTINUOUS
 62
    40
100
AcDbLine
 10
229.76
 20
21.46
 30
0.0
 11
229.76
 21
20.82
 31
0.0
  0
LINE
  5
FE
100
AcDbEntity
  8
V0L1
  6
CONTINUOUS
 62
    40
100
AcDbLine
 10
229.76
 20
20.82
 30
0.0
 11
228.84917
 21
20.82
 31
0.0
  0
LINE
  5
FF
100
AcDbEntity
  8
V0L1
  6
CONTINUOUS
 62
    40
100
AcDbLine
 10
228.84917
 20
20.82
 30
0.0
 11
228.28917
 21
19.22
 31
0.0
  0
LINE
  5
100
100
AcDbEntity
  8
V0L1
  6
CONTINUOUS
 62
    40
100
AcDbLine
 10
228.28917
 20
19.22
 30
0.0
 11
227.81483
 21
19.22
 31
0.0
  0
LINE
  5
101
100
AcDbEntity
  8
V0L1
  6
CONTINUOUS
 62
    40
100
AcDbLine
 10
70.16713
 20
271.18273
 30
0.0
 11
70.16713
 21
268.18273
 31
0.0
  0
LINE
  5
102
100
AcDbEntity
  8
V0L1
  6
CONTINUOUS
 62
    40
100
AcDbLine
 10
67.16713
 20
271.18273
 30
0.0
 11
70.16713
 21
271.18273
 31
0.0
  0
LINE
  5
103
100
AcDbEntity
  8
V0L1
  6
CONTINUOUS
 62
    40
100
AcDbLine
 10
67.16713
 20
271.18273
 30
0.0
 11
67.16713
 21
268.18273
 31
0.0
  0
LINE
  5
104
100
AcDbEntity
  8
V0L1
  6
CONTINUOUS
 62
    40
100
AcDbLine
 10
76.64313
 20
268.18273
 30
0.0
 11
79.64313
 21
268.18273
 31
0.0
  0
LINE
  5
105
100
AcDbEntity
  8
V0L1
  6
CONTINUOUS
 62
    40
100
AcDbLine
 10
79.64313
 20
271.18273
 30
0.0
 11
79.64313
 21
268.18273
 31
0.0
  0
LINE
  5
106
100
AcDbEntity
  8
V0L1
  6
CONTINUOUS
 62
    40
100
AcDbLine
 10
228.06853
 20
19.4
 30
0.0
 11
228.72653
 21
21.28
 31
0.0
  0
LINE
  5
107
100
AcDbEntity
  8
V0L1
  6
CONTINUOUS
 62
    40
100
AcDbLine
 10
228.72653
 20
21.28
 30
0.0
 11
229.58
 21
21.28
 31
0.0
  0
TEXT
  5
108
100
AcDbEntity
  8
V0L1
  6
CONTINUOUS
 62
    13
100
AcDbText
 10
309.33055
 20
56.201294
 30
0.0
 40
1.45
  1
Controle
 41
0.6
100
AcDbText
  0
TEXT
  5
109
100
AcDbEntity
  8
V0L1
  6
CONTINUOUS
 62
    13
100
AcDbText
 10
309.33055
 20
54.461294
 30
0.0
 40
1.45
  1
Normes
 41
0.6
100
AcDbText
  0
TEXT
  5
10A
100
AcDbEntity
  8
V0L1
  6
CONTINUOUS
 62
    13
100
AcDbText
 10
309.33055
 20
52.201294
 30
0.0
 40
1.45
  1
Remplace
 41
0.6
100
AcDbText
  0
TEXT
  5
10B
100
AcDbEntity
  8
V0L1
  6
CONTINUOUS
 62
    13
100
AcDbText
 10
309.33055
 20
50.461294
 30
0.0
 40
1.45
  1
par :
 41
0.6
100
AcDbText
  0
TEXT
  5
10C
100
AcDbEntity
  8
V0L1
  6
CONTINUOUS
 62
    13
100
AcDbText
 10
351.33055
 20
56.201294
 30
0.0
 40
1.45
  1
Bon pour
 41
0.6
100
AcDbText
  0
TEXT
  5
10D
100
AcDbEntity
  8
V0L1
  6
CONTINUOUS
 62
    13
100
AcDbText
 10
351.33055
 20
54.461294
 30
0.0
 40
1.45
  1
execution
 41
0.6
100
AcDbText
  0
LINE
  5
10E
100
AcDbEntity
  8
V0L1
  6
CONTINUOUS
 62
    40
100
AcDbLine
 10
76.64313
 20
271.18273
 30
0.0
 11
79.64313
 21
271.18273
 31
0.0
  0
LINE
  5
10F
100
AcDbEntity
  8
V0L1
  6
CONTINUOUS
 62
    40
100
AcDbLine
 10
229.58
 20
21.28
 30
0.0
 11
229.58
 21
21.0
 31
0.0
  0
LINE
  5
110
100
AcDbEntity
  8
V0L1
  6
CONTINUOUS
 62
    40
100
AcDbLine
 10
229.58
 20
21.0
 30
0.0
 11
228.72147
 21
21.0
 31
0.0
  0
LINE
  5
111
100
AcDbEntity
  8
V0L1
  6
CONTINUOUS
 62
    40
100
AcDbLine
 10
228.72147
 20
21.0
 30
0.0
 11
228.16147
 21
19.4
 31
0.0
  0
LINE
  5
112
100
AcDbEntity
  8
V0L1
  6
CONTINUOUS
 62
    40
100
AcDbLine
 10
228.16147
 20
19.4
 30
0.0
 11
228.06853
 21
19.4
 31
0.0
  0
LINE
  5
113
100
AcDbEntity
  8
V0L1
  6
CONTINUOUS
 62
    40
100
AcDbLine
 10
229.58
 20
21.15
 30
0.0
 11
228.72147
 21
21.15
 31
0.0
  0
LINE
  5
114
100
AcDbEntity
  8
V0L1
  6
CONTINUOUS
 62
    40
100
AcDbLine
 10
232.92771
 20
18.68
 30
0.0
 11
234.54629
 21
18.68
 31
0.0
  0
LINE
  5
115
100
AcDbEntity
  8
V0L1
  6
CONTINUOUS
 62
    40
100
AcDbLine
 10
234.54629
 20
18.68
 30
0.0
 11
233.38429
 21
22.0
 31
0.0
  0
LINE
  5
116
100
AcDbEntity
  8
V0L1
  6
CONTINUOUS
 62
    40
100
AcDbLine
 10
233.38429
 20
22.0
 30
0.0
 11
231.3
 21
22.0
 31
0.0
  0
LINE
  5
117
100
AcDbEntity
  8
V0L1
  6
CONTINUOUS
 62
    40
100
AcDbLine
 10
231.3
 20
22.0
 30
0.0
 11
231.3
 21
20.28
 31
0.0
  0
LINE
  5
118
100
AcDbEntity
  8
V0L1
  6
CONTINUOUS
 62
    40
100
AcDbLine
 10
231.3
 20
20.28
 30
0.0
 11
232.36771
 21
20.28
 31
0.0
  0
LINE
  5
119
100
AcDbEntity
  8
V0L1
  6
CONTINUOUS
 62
    40
100
AcDbLine
 10
232.36771
 20
20.28
 30
0.0
 11
232.92771
 21
18.68
 31
0.0
  0
LINE
  5
11A
100
AcDbEntity
  8
V0L1
  6
CONTINUOUS
 62
    40
100
AcDbLine
 10
233.05541
 20
18.86
 30
0.0
 11
234.29259
 21
18.86
 31
0.0
  0
LINE
  5
11B
100
AcDbEntity
  8
V0L1
  6
CONTINUOUS
 62
    40
100
AcDbLine
 10
234.29259
 20
18.86
 30
0.0
 11
233.25659
 21
21.82
 31
0.0
  0
LINE
  5
11C
100
AcDbEntity
  8
V0L1
  6
CONTINUOUS
 62
    40
100
AcDbLine
 10
233.25659
 20
21.82
 30
0.0
 11
231.48
 21
21.82
 31
0.0
  0
LINE
  5
11D
100
AcDbEntity
  8
V0L1
  6
CONTINUOUS
 62
    40
100
AcDbLine
 10
231.48
 20
21.82
 30
0.0
 11
231.48
 21
20.46
 31
0.0
  0
LINE
  5
11E
100
AcDbEntity
  8
V0L1
  6
CONTINUOUS
 62
    40
100
AcDbLine
 10
231.48
 20
20.46
 30
0.0
 11
232.49541
 21
20.46
 31
0.0
  0
LINE
  5
11F
100
AcDbEntity
  8
V0L1
  6
CONTINUOUS
 62
    40
100
AcDbLine
 10
232.49541
 20
20.46
 30
0.0
 11
233.05541
 21
18.86
 31
0.0
  0
LINE
  5
120
100
AcDbEntity
  8
V0L1
  6
CONTINUOUS
 62
    40
100
AcDbLine
 10
234.03888
 20
19.04
 30
0.0
 11
233.12888
 21
21.64
 31
0.0
  0
LINE
  5
121
100
AcDbEntity
  8
V0L1
  6
CONTINUOUS
 62
    40
100
AcDbLine
 10
233.12888
 20
21.64
 30
0.0
 11
231.66
 21
21.64
 31
0.0
  0
LINE
  5
122
100
AcDbEntity
  8
V0L1
  6
CONTINUOUS
 62
    40
100
AcDbLine
 10
231.66
 20
21.64
 30
0.0
 11
231.66
 21
20.64
 31
0.0
  0
LINE
  5
123
100
AcDbEntity
  8
V0L1
  6
CONTINUOUS
 62
    40
100
AcDbLine
 10
231.66
 20
20.64
 30
0.0
 11
232.62312
 21
20.64
 31
0.0
  0
LINE
  5
124
100
AcDbEntity
  8
V0L1
  6
CONTINUOUS
 62
    40
100
AcDbLine
 10
232.62312
 20
20.64
 30
0.0
 11
233.18312
 21
19.04
 31
0.0
  0
LINE
  5
125
100
AcDbEntity
  8
V0L1
  6
CONTINUOUS
 62
    40
100
AcDbLine
 10
233.18312
 20
19.04
 30
0.0
 11
234.03888
 21
19.04
 31
0.0
  0
LINE
  5
126
100
AcDbEntity
  8
V0L1
  6
CONTINUOUS
 62
    40
100
AcDbLine
 10
233.78517
 20
19.22
 30
0.0
 11
233.00117
 21
21.46
 31
0.0
  0
LINE
  5
127
100
AcDbEntity
  8
V0L1
  6
CONTINUOUS
 62
    40
100
AcDbLine
 10
233.00117
 20
21.46
 30
0.0
 11
231.84
 21
21.46
 31
0.0
  0
LINE
  5
128
100
AcDbEntity
  8
V0L1
  6
CONTINUOUS
 62
    40
100
AcDbLine
 10
231.84
 20
21.46
 30
0.0
 11
231.84
 21
20.82
 31
0.0
  0
LINE
  5
129
100
AcDbEntity
  8
V0L1
  6
CONTINUOUS
 62
    40
100
AcDbLine
 10
231.84
 20
20.82
 30
0.0
 11
232.75083
 21
20.82
 31
0.0
  0
LINE
  5
12A
100
AcDbEntity
  8
V0L1
  6
CONTINUOUS
 62
    40
100
AcDbLine
 10
232.75083
 20
20.82
 30
0.0
 11
233.31083
 21
19.22
 31
0.0
  0
LINE
  5
12B
100
AcDbEntity
  8
V0L1
  6
CONTINUOUS
 62
    40
100
AcDbLine
 10
233.31083
 20
19.22
 30
0.0
 11
233.78517
 21
19.22
 31
0.0
  0
LINE
  5
12C
100
AcDbEntity
  8
V0L1
  6
CONTINUOUS
 62
    40
100
AcDbLine
 10
233.53147
 20
19.4
 30
0.0
 11
232.87347
 21
21.28
 31
0.0
  0
LINE
  5
12D
100
AcDbEntity
  8
V0L1
  6
CONTINUOUS
 62
    40
100
AcDbLine
 10
232.87347
 20
21.28
 30
0.0
 11
232.02
 21
21.28
 31
0.0
  0
LINE
  5
12E
100
AcDbEntity
  8
V0L1
  6
CONTINUOUS
 62
    40
100
AcDbLine
 10
232.02
 20
21.28
 30
0.0
 11
232.02
 21
21.0
 31
0.0
  0
LINE
  5
12F
100
AcDbEntity
  8
V0L1
  6
CONTINUOUS
 62
    40
100
AcDbLine
 10
232.02
 20
21.0
 30
0.0
 11
232.87853
 21
21.0
 31
0.0
  0
LINE
  5
130
100
AcDbEntity
  8
V0L1
  6
CONTINUOUS
 62
    40
100
AcDbLine
 10
232.87853
 20
21.0
 30
0.0
 11
233.43853
 21
19.4
 31
0.0
  0
LINE
  5
131
100
AcDbEntity
  8
V0L1
  6
CONTINUOUS
 62
    40
100
AcDbLine
 10
233.43853
 20
19.4
 30
0.0
 11
233.53147
 21
19.4
 31
0.0
  0
LINE
  5
132
100
AcDbEntity
  8
V0L1
  6
CONTINUOUS
 62
    40
100
AcDbLine
 10
232.02
 20
21.15
 30
0.0
 11
232.87853
 21
21.15
 31
0.0
  0
LINE
  5
133
100
AcDbEntity
  8
V0L1
  6
CONTINUOUS
 62
    40
100
AcDbLine
 10
235.54
 20
23.0
 30
0.0
 11
235.54
 21
26.32
 31
0.0
  0
LINE
  5
134
100
AcDbEntity
  8
V0L1
  6
CONTINUOUS
 62
    40
100
AcDbLine
 10
235.54
 20
26.32
 30
0.0
 11
237.26
 21
26.32
 31
0.0
  0
LINE
  5
135
100
AcDbEntity
  8
V0L1
  6
CONTINUOUS
 62
    40
100
AcDbLine
 10
237.26
 20
26.32
 30
0.0
 11
237.26
 21
23.0
 31
0.0
  0
LINE
  5
136
100
AcDbEntity
  8
V0L1
  6
CONTINUOUS
 62
    40
100
AcDbLine
 10
237.26
 20
23.0
 30
0.0
 11
235.54
 21
23.0
 31
0.0
  0
LINE
  5
137
100
AcDbEntity
  8
V0L1
  6
CONTINUOUS
 62
    40
100
AcDbLine
 10
237.08
 20
23.18
 30
0.0
 11
235.72
 21
23.18
 31
0.0
  0
LINE
  5
138
100
AcDbEntity
  8
V0L1
  6
CONTINUOUS
 62
    40
100
AcDbLine
 10
235.72
 20
23.18
 30
0.0
 11
235.72
 21
26.14
 31
0.0
  0
LINE
  5
139
100
AcDbEntity
  8
V0L1
  6
CONTINUOUS
 62
    40
100
AcDbLine
 10
350.0
 20
46.0
 30
0.0
 11
393.0
 21
46.0
 31
0.0
  0
LINE
  5
13A
100
AcDbEntity
  8
V0L1
  6
CONTINUOUS
 62
    40
100
AcDbLine
 10
350.0
 20
42.0
 30
0.0
 11
393.0
 21
42.0
 31
0.0
  0
LINE
  5
13B
100
AcDbEntity
  8
V0L1
  6
CONTINUOUS
 62
    40
100
AcDbLine
 10
350.0
 20
38.0
 30
0.0
 11
393.0
 21
38.0
 31
0.0
  0
LINE
  5
13C
100
AcDbEntity
  8
V0L1
  6
CONTINUOUS
 62
    40
100
AcDbLine
 10
335.0
 20
34.0
 30
0.0
 11
393.0
 21
34.0
 31
0.0
  0
TEXT
  5
13D
100
AcDbEntity
  8
V0L1
  6
CONTINUOUS
 62
    13
100
AcDbText
 10
223.19606
 20
54.832339
 30
0.0
 40
2.0
  1
Etabli
 41
0.5
100
AcDbText
  0
TEXT
  5
13E
100
AcDbEntity
  8
V0L1
  6
CONTINUOUS
 62
    13
100
AcDbText
 10
229.19606
 20
50.832339
 30
0.0
 40
2.0
  1
Issu de :
 41
0.5
100
AcDbText
  0
TEXT
  5
13F
100
AcDbEntity
  8
V0L1
  6
CONTINUOUS
 62
    13
100
AcDbText
 10
226.18532
 20
37.081261
 30
0.0
 40
2.2
  1
Modif.
 50
90.0
 41
0.5
100
AcDbText
  0
TEXT
  5
140
100
AcDbEntity
  8
V0L1
  6
CONTINUOUS
 62
    13
100
AcDbText
 10
266.03012
 20
54.832339
 30
0.0
 40
2.0
  1
Controle
 41
0.5
100
AcDbText
  0
TEXT
  5
141
100
AcDbEntity
  8
V0L1
  6
CONTINUOUS
 62
    13
100
AcDbText
 10
269.03012
 20
50.832339
 30
0.0
 40
2.0
  1
Remplace
 41
0.5
100
AcDbText
  0
LINE
  5
142
100
AcDbEntity
  8
V0L1
  6
CONTINUOUS
 62
    40
100
AcDbLine
 10
235.72
 20
26.14
 30
0.0
 11
237.08
 21
26.14
 31
0.0
  0
LINE
  5
143
100
AcDbEntity
  8
V0L1
  6
CONTINUOUS
 62
    40
100
AcDbLine
 10
237.08
 20
26.14
 30
0.0
 11
237.08
 21
23.18
 31
0.0
  0
LINE
  5
144
100
AcDbEntity
  8
V0L1
  6
CONTINUOUS
 62
    40
100
AcDbLine
 10
235.9
 20
23.36
 30
0.0
 11
235.9
 21
25.96
 31
0.0
  0
TEXT
  5
145
100
AcDbEntity
  8
V0L1
  6
CONTINUOUS
 62
    13
100
AcDbText
 10
338.54651
 20
46.906468
 30
0.0
 40
2.0
  1
Echelle
 41
0.5
100
AcDbText
  0
TEXT
  5
146
100
AcDbEntity
  8
V0L1
  6
CONTINUOUS
 62
    13
100
AcDbText
 10
351.28476
 20
43.201045
 30
0.0
 40
2.0
  1
Nomenclature separee de numero different
 41
0.45
100
AcDbText
  0
TEXT
  5
147
100
AcDbEntity
  8
V0L1
  6
CONTINUOUS
 62
    13
100
AcDbText
 10
351.28476
 20
47.201045
 30
0.0
 40
2.0
  1
Nomenclature separee de meme numero
 41
0.45
100
AcDbText
  0
TEXT
  5
148
100
AcDbEntity
  8
V0L1
  6
CONTINUOUS
 62
    13
100
AcDbText
 10
351.28476
 20
51.201045
 30
0.0
 40
2.0
  1
Sans nomenclature separee
 41
0.45
100
AcDbText
  0
TEXT
  5
149
100
AcDbEntity
  8
V0L1
  6
CONTINUOUS
 62
    13
100
AcDbText
 10
351.28476
 20
31.201045
 30
0.0
 40
2.0
  1
Service resp.: B E
 41
0.45
100
AcDbText
  0
TEXT
  5
14A
100
AcDbEntity
  8
V0L1
  6
CONTINUOUS
 62
    13
100
AcDbText
 10
336.61841
 20
27.130883
 30
0.0
 40
2.2
  1
Doc. Type     Format     Langue     Feuil.No    Nb.feuil.
 41
0.45
100
AcDbText
  0
TEXT
  5
14B
100
AcDbEntity
  8
V0L1
  6
CONTINUOUS
 62
    13
100
AcDbText
 10
363.90098
 20
23.606885
 30
0.0
 40
2.2
  1
F
 41
0.75
100
AcDbText
  0
TEXT
  5
14C
100
AcDbEntity
  8
V0L1
  6
CONTINUOUS
 62
    13
100
AcDbText
 10
355.0488
 20
23.606885
 30
0.0
 40
2.2
  1
3
 41
0.75
100
AcDbText
  0
TEXT
  5
14D
100
AcDbEntity
  8
V0L1
  6
CONTINUOUS
 62
     4
100
AcDbText
 10
253.50904
 20
26.746705
 30
0.0
 40
2.5
  1
ABB Control
 41
0.9
100
AcDbText
  0
TEXT
  5
14E
100
AcDbEntity
  8
V0L1
  6
CONTINUOUS
 62
    13
100
AcDbText
 10
253.64853
 20
22.747949
 30
0.0
 40
2.0
  1
Titre
 41
0.75
100
AcDbText
  0
LINE
  5
14F
100
AcDbEntity
  8
V0L1
  6
CONTINUOUS
 62
    40
100
AcDbLine
 10
29.0
 20
69.0
 30
0.0
 11
29.0
 21
15.0
 31
0.0
  0
LINE
  5
150
100
AcDbEntity
  8
V0L1
  6
CONTINUOUS
 62
    40
100
AcDbLine
 10
16.0
 20
69.0
 30
0.0
 11
29.0
 21
69.0
 31
0.0
  0
LINE
  5
151
100
AcDbEntity
  8
V0L1
  6
CONTINUOUS
 62
    40
100
AcDbLine
 10
235.9
 20
25.96
 30
0.0
 11
236.9
 21
25.96
 31
0.0
  0
LINE
  5
152
100
AcDbEntity
  8
V0L1
  6
CONTINUOUS
 62
    40
100
AcDbLine
 10
16.0
 20
58.833333
 30
0.0
 11
12.0
 21
58.833333
 31
0.0
  0
LINE
  5
153
100
AcDbEntity
  8
V0L1
  6
CONTINUOUS
 62
    40
100
AcDbLine
 10
16.0
 20
102.66667
 30
0.0
 11
12.0
 21
102.66667
 31
0.0
  0
LINE
  5
154
100
AcDbEntity
  8
V0L1
  6
CONTINUOUS
 62
    40
100
AcDbLine
 10
16.0
 20
146.5
 30
0.0
 11
12.0
 21
146.5
 31
0.0
  0
LINE
  5
155
100
AcDbEntity
  8
V0L1
  6
CONTINUOUS
 62
    40
100
AcDbLine
 10
16.0
 20
190.33333
 30
0.0
 11
12.0
 21
190.33333
 31
0.0
  0
LINE
  5
156
100
AcDbEntity
  8
V0L1
  6
CONTINUOUS
 62
    40
100
AcDbLine
 10
16.0
 20
234.16667
 30
0.0
 11
12.0
 21
234.16667
 31
0.0
  0
TEXT
  5
157
100
AcDbEntity
  8
V0L1
  6
CONTINUOUS
 62
    13
100
AcDbText
 10
13.5
 20
36.916667
 30
0.0
 40
2.0
  1
A
100
AcDbText
  0
TEXT
  5
158
100
AcDbEntity
  8
V0L1
  6
CONTINUOUS
 62
    13
100
AcDbText
 10
13.5
 20
80.75
 30
0.0
 40
2.0
  1
B
100
AcDbText
  0
TEXT
  5
159
100
AcDbEntity
  8
V0L1
  6
CONTINUOUS
 62
    13
100
AcDbText
 10
13.5
 20
124.58333
 30
0.0
 40
2.0
  1
C
100
AcDbText
  0
TEXT
  5
15A
100
AcDbEntity
  8
V0L1
  6
CONTINUOUS
 62
    13
100
AcDbText
 10
13.5
 20
168.41667
 30
0.0
 40
2.0
  1
D
100
AcDbText
  0
TEXT
  5
15B
100
AcDbEntity
  8
V0L1
  6
CONTINUOUS
 62
    13
100
AcDbText
 10
13.5
 20
212.25
 30
0.0
 40
2.0
  1
E
100
AcDbText
  0
TEXT
  5
15C
100
AcDbEntity
  8
V0L1
  6
CONTINUOUS
 62
    13
100
AcDbText
 10
13.5
 20
256.08333
 30
0.0
 40
2.0
  1
F
100
AcDbText
  0
TEXT
  5
15D
100
AcDbEntity
  8
V0L1
  6
CONTINUOUS
 62
    13
100
AcDbText
 10
394.14933
 20
36.799778
 30
0.0
 40
2.0
  1
A
100
AcDbText
  0
LINE
  5
15E
100
AcDbEntity
  8
V0L1
  6
CONTINUOUS
 62
    40
100
AcDbLine
 10
397.0
 20
58.833333
 30
0.0
 11
393.0
 21
58.833333
 31
0.0
  0
TEXT
  5
15F
100
AcDbEntity
  8
V0L1
  6
CONTINUOUS
 62
    13
100
AcDbText
 10
394.14933
 20
80.633111
 30
0.0
 40
2.0
  1
B
100
AcDbText
  0
LINE
  5
160
100
AcDbEntity
  8
V0L1
  6
CONTINUOUS
 62
    40
100
AcDbLine
 10
397.0
 20
102.66667
 30
0.0
 11
393.0
 21
102.66667
 31
0.0
  0
TEXT
  5
161
100
AcDbEntity
  8
V0L1
  6
CONTINUOUS
 62
    13
100
AcDbText
 10
394.14933
 20
124.46644
 30
0.0
 40
2.0
  1
C
100
AcDbText
  0
LINE
  5
162
100
AcDbEntity
  8
V0L1
  6
CONTINUOUS
 62
    40
100
AcDbLine
 10
397.0
 20
146.5
 30
0.0
 11
393.0
 21
146.5
 31
0.0
  0
TEXT
  5
163
100
AcDbEntity
  8
V0L1
  6
CONTINUOUS
 62
    13
100
AcDbText
 10
394.14933
 20
168.29978
 30
0.0
 40
2.0
  1
D
100
AcDbText
  0
LINE
  5
164
100
AcDbEntity
  8
V0L1
  6
CONTINUOUS
 62
    40
100
AcDbLine
 10
397.0
 20
190.33333
 30
0.0
 11
393.0
 21
190.33333
 31
0.0
  0
TEXT
  5
165
100
AcDbEntity
  8
V0L1
  6
CONTINUOUS
 62
    13
100
AcDbText
 10
394.14933
 20
212.13311
 30
0.0
 40
2.0
  1
E
100
AcDbText
  0
LINE
  5
166
100
AcDbEntity
  8
V0L1
  6
CONTINUOUS
 62
    40
100
AcDbLine
 10
397.0
 20
234.16667
 30
0.0
 11
393.0
 21
234.16667
 31
0.0
  0
TEXT
  5
167
100
AcDbEntity
  8
V0L1
  6
CONTINUOUS
 62
    13
100
AcDbText
 10
394.64933
 20
255.96644
 30
0.0
 40
2.0
  1
F
100
AcDbText
  0
LINE
  5
168
100
AcDbEntity
  8
V0L1
  6
CONTINUOUS
 62
    40
100
AcDbLine
 10
397.0
 20
15.0
 30
0.0
 11
397.0
 21
30.0
 31
0.0
  0
LINE
  5
169
100
AcDbEntity
  8
V0L1
  6
CONTINUOUS
 62
    40
100
AcDbLine
 10
344.125
 20
15.0
 30
0.0
 11
344.125
 21
10.0
 31
0.0
  0
LINE
  5
16A
100
AcDbEntity
  8
V0L1
  6
CONTINUOUS
 62
    40
100
AcDbLine
 10
344.125
 20
278.0
 30
0.0
 11
344.125
 21
283.0
 31
0.0
  0
LINE
  5
16B
100
AcDbEntity
  8
V0L1
  6
CONTINUOUS
 62
    40
100
AcDbLine
 10
295.25
 20
15.0
 30
0.0
 11
295.25
 21
10.0
 31
0.0
  0
LINE
  5
16C
100
AcDbEntity
  8
V0L1
  6
CONTINUOUS
 62
    40
100
AcDbLine
 10
295.25
 20
278.0
 30
0.0
 11
295.25
 21
283.0
 31
0.0
  0
LINE
  5
16D
100
AcDbEntity
  8
V0L1
  6
CONTINUOUS
 62
    40
100
AcDbLine
 10
246.375
 20
15.0
 30
0.0
 11
246.375
 21
10.0
 31
0.0
  0
LINE
  5
16E
100
AcDbEntity
  8
V0L1
  6
CONTINUOUS
 62
    40
100
AcDbLine
 10
246.375
 20
278.0
 30
0.0
 11
246.375
 21
283.0
 31
0.0
  0
LINE
  5
16F
100
AcDbEntity
  8
V0L1
  6
CONTINUOUS
 62
    40
100
AcDbLine
 10
197.5
 20
15.0
 30
0.0
 11
197.5
 21
10.0
 31
0.0
  0
LINE
  5
170
100
AcDbEntity
  8
V0L1
  6
CONTINUOUS
 62
    40
100
AcDbLine
 10
197.5
 20
278.0
 30
0.0
 11
197.5
 21
283.0
 31
0.0
  0
LINE
  5
171
100
AcDbEntity
  8
V0L1
  6
CONTINUOUS
 62
    40
100
AcDbLine
 10
149.625
 20
15.0
 30
0.0
 11
149.625
 21
10.0
 31
0.0
  0
LINE
  5
172
100
AcDbEntity
  8
V0L1
  6
CONTINUOUS
 62
    40
100
AcDbLine
 10
149.625
 20
278.0
 30
0.0
 11
149.625
 21
283.0
 31
0.0
  0
LINE
  5
173
100
AcDbEntity
  8
V0L1
  6
CONTINUOUS
 62
    40
100
AcDbLine
 10
100.75
 20
15.0
 30
0.0
 11
100.75
 21
10.0
 31
0.0
  0
LINE
  5
174
100
AcDbEntity
  8
V0L1
  6
CONTINUOUS
 62
    40
100
AcDbLine
 10
100.75
 20
278.0
 30
0.0
 11
100.75
 21
283.0
 31
0.0
  0
LINE
  5
175
100
AcDbEntity
  8
V0L1
  6
CONTINUOUS
 62
    40
100
AcDbLine
 10
51.875
 20
15.0
 30
0.0
 11
51.875
 21
10.0
 31
0.0
  0
LINE
  5
176
100
AcDbEntity
  8
V0L1
  6
CONTINUOUS
 62
    40
100
AcDbLine
 10
51.875
 20
278.0
 30
0.0
 11
51.875
 21
283.0
 31
0.0
  0
TEXT
  5
177
100
AcDbEntity
  8
V0L1
  6
CONTINUOUS
 62
    13
100
AcDbText
 10
368.5625
 20
11.249993
 30
0.0
 40
2.0
  1
1
100
AcDbText
  0
TEXT
  5
178
100
AcDbEntity
  8
V0L1
  6
CONTINUOUS
 62
    13
100
AcDbText
 10
319.6875
 20
11.249993
 30
0.0
 40
2.0
  1
2
100
AcDbText
  0
TEXT
  5
179
100
AcDbEntity
  8
V0L1
  6
CONTINUOUS
 62
    13
100
AcDbText
 10
270.8125
 20
11.249993
 30
0.0
 40
2.0
  1
3
100
AcDbText
  0
TEXT
  5
17A
100
AcDbEntity
  8
V0L1
  6
CONTINUOUS
 62
    13
100
AcDbText
 10
221.9375
 20
11.249993
 30
0.0
 40
2.0
  1
4
100
AcDbText
  0
TEXT
  5
17B
100
AcDbEntity
  8
V0L1
  6
CONTINUOUS
 62
    13
100
AcDbText
 10
174.0625
 20
11.249993
 30
0.0
 40
2.0
  1
5
100
AcDbText
  0
TEXT
  5
17C
100
AcDbEntity
  8
V0L1
  6
CONTINUOUS
 62
    13
100
AcDbText
 10
125.1875
 20
11.249993
 30
0.0
 40
2.0
  1
6
100
AcDbText
  0
TEXT
  5
17D
100
AcDbEntity
  8
V0L1
  6
CONTINUOUS
 62
    13
100
AcDbText
 10
76.3125
 20
11.249993
 30
0.0
 40
2.0
  1
7
100
AcDbText
  0
TEXT
  5
17E
100
AcDbEntity
  8
V0L1
  6
CONTINUOUS
 62
    13
100
AcDbText
 10
27.4375
 20
11.249993
 30
0.0
 40
2.0
  1
8
100
AcDbText
  0
TEXT
  5
17F
100
AcDbEntity
  8
V0L1
  6
CONTINUOUS
 62
    13
100
AcDbText
 10
368.5625
 20
279.24999
 30
0.0
 40
2.0
  1
1
100
AcDbText
  0
TEXT
  5
180
100
AcDbEntity
  8
V0L1
  6
CONTINUOUS
 62
    13
100
AcDbText
 10
319.6875
 20
279.24999
 30
0.0
 40
2.0
  1
2
100
AcDbText
  0
TEXT
  5
181
100
AcDbEntity
  8
V0L1
  6
CONTINUOUS
 62
    13
100
AcDbText
 10
270.8125
 20
279.24999
 30
0.0
 40
2.0
  1
3
100
AcDbText
  0
TEXT
  5
182
100
AcDbEntity
  8
V0L1
  6
CONTINUOUS
 62
    13
100
AcDbText
 10
221.9375
 20
279.24999
 30
0.0
 40
2.0
  1
4
100
AcDbText
  0
TEXT
  5
183
100
AcDbEntity
  8
V0L1
  6
CONTINUOUS
 62
    13
100
AcDbText
 10
174.0625
 20
279.24999
 30
0.0
 40
2.0
  1
5
100
AcDbText
  0
TEXT
  5
184
100
AcDbEntity
  8
V0L1
  6
CONTINUOUS
 62
    13
100
AcDbText
 10
125.1875
 20
279.24999
 30
0.0
 40
2.0
  1
6
100
AcDbText
  0
TEXT
  5
185
100
AcDbEntity
  8
V0L1
  6
CONTINUOUS
 62
    13
100
AcDbText
 10
76.3125
 20
279.24999
 30
0.0
 40
2.0
  1
7
100
AcDbText
  0
TEXT
  5
186
100
AcDbEntity
  8
V0L1
  6
CONTINUOUS
 62
    13
100
AcDbText
 10
27.4375
 20
279.24999
 30
0.0
 40
2.0
  1
8
100
AcDbText
  0
LINE
  5
187
100
AcDbEntity
  8
V0L1
  6
CONTINUOUS
 62
    40
100
AcDbLine
 10
236.9
 20
25.96
 30
0.0
 11
236.9
 21
23.36
 31
0.0
  0
LINE
  5
188
100
AcDbEntity
  8
V0L1
  6
CONTINUOUS
 62
    40
100
AcDbLine
 10
236.9
 20
23.36
 30
0.0
 11
235.9
 21
23.36
 31
0.0
  0
LINE
  5
189
100
AcDbEntity
  8
V0L1
  6
CONTINUOUS
 62
    40
100
AcDbLine
 10
236.08
 20
23.54
 30
0.0
 11
236.08
 21
25.78
 31
0.0
  0
LINE
  5
18A
100
AcDbEntity
  8
V0L1
  6
CONTINUOUS
 62
    40
100
AcDbLine
 10
236.08
 20
25.78
 30
0.0
 11
236.72
 21
25.78
 31
0.0
  0
LINE
  5
18B
100
AcDbEntity
  8
V0L1
  6
CONTINUOUS
 62
    40
100
AcDbLine
 10
236.72
 20
25.78
 30
0.0
 11
236.72
 21
23.54
 31
0.0
  0
LINE
  5
18C
100
AcDbEntity
  8
V0L1
  6
CONTINUOUS
 62
    40
100
AcDbLine
 10
236.72
 20
23.54
 30
0.0
 11
236.08
 21
23.54
 31
0.0
  0
LINE
  5
18D
100
AcDbEntity
  8
V0L1
  6
CONTINUOUS
 62
    40
100
AcDbLine
 10
236.26
 20
23.72
 30
0.0
 11
236.26
 21
25.6
 31
0.0
  0
LINE
  5
18E
100
AcDbEntity
  8
V0L1
  6
CONTINUOUS
 62
    40
100
AcDbLine
 10
236.26
 20
25.6
 30
0.0
 11
236.54
 21
25.6
 31
0.0
  0
LINE
  5
18F
100
AcDbEntity
  8
V0L1
  6
CONTINUOUS
 62
    40
100
AcDbLine
 10
236.54
 20
25.6
 30
0.0
 11
236.54
 21
23.72
 31
0.0
  0
LINE
  5
190
100
AcDbEntity
  8
V0L1
  6
CONTINUOUS
 62
    40
100
AcDbLine
 10
236.54
 20
23.72
 30
0.0
 11
236.26
 21
23.72
 31
0.0
  0
LINE
  5
191
100
AcDbEntity
  8
V0L1
  6
CONTINUOUS
 62
    40
100
AcDbLine
 10
236.42
 20
23.84
 30
0.0
 11
236.38
 21
23.84
 31
0.0
  0
LINE
  5
192
100
AcDbEntity
  8
V0L1
  6
CONTINUOUS
 62
    40
100
AcDbLine
 10
236.38
 20
23.84
 30
0.0
 11
236.38
 21
25.48
 31
0.0
  0
LINE
  5
193
100
AcDbEntity
  8
V0L1
  6
CONTINUOUS
 62
    40
100
AcDbLine
 10
236.38
 20
25.48
 30
0.0
 11
236.42
 21
25.48
 31
0.0
  0
LINE
  5
194
100
AcDbEntity
  8
V0L1
  6
CONTINUOUS
 62
    40
100
AcDbLine
 10
236.42
 20
25.48
 30
0.0
 11
236.42
 21
23.84
 31
0.0
  0
LINE
  5
195
100
AcDbEntity
  8
V0L1
  6
CONTINUOUS
 62
    40
100
AcDbLine
 10
235.54
 20
18.68
 30
0.0
 11
237.26
 21
18.68
 31
0.0
  0
LINE
  5
196
100
AcDbEntity
  8
V0L1
  6
CONTINUOUS
 62
    40
100
AcDbLine
 10
237.26
 20
18.68
 30
0.0
 11
237.26
 21
22.0
 31
0.0
  0
LINE
  5
197
100
AcDbEntity
  8
V0L1
  6
CONTINUOUS
 62
    40
100
AcDbLine
 10
237.26
 20
22.0
 30
0.0
 11
235.54
 21
22.0
 31
0.0
  0
LINE
  5
198
100
AcDbEntity
  8
V0L1
  6
CONTINUOUS
 62
    40
100
AcDbLine
 10
235.54
 20
22.0
 30
0.0
 11
235.54
 21
18.68
 31
0.0
  0
LINE
  5
199
100
AcDbEntity
  8
V0L1
  6
CONTINUOUS
 62
    40
100
AcDbLine
 10
235.72
 20
21.82
 30
0.0
 11
235.72
 21
18.86
 31
0.0
  0
LINE
  5
19A
100
AcDbEntity
  8
V0L1
  6
CONTINUOUS
 62
    40
100
AcDbLine
 10
235.72
 20
18.86
 30
0.0
 11
237.08
 21
18.86
 31
0.0
  0
LINE
  5
19B
100
AcDbEntity
  8
V0L1
  6
CONTINUOUS
 62
    40
100
AcDbLine
 10
237.08
 20
18.86
 30
0.0
 11
237.08
 21
21.82
 31
0.0
  0
LINE
  5
19C
100
AcDbEntity
  8
V0L1
  6
CONTINUOUS
 62
    40
100
AcDbLine
 10
237.08
 20
21.82
 30
0.0
 11
235.72
 21
21.82
 31
0.0
  0
LINE
  5
19D
100
AcDbEntity
  8
V0L1
  6
CONTINUOUS
 62
    40
100
AcDbLine
 10
235.9
 20
21.64
 30
0.0
 11
235.9
 21
19.04
 31
0.0
  0
LINE
  5
19E
100
AcDbEntity
  8
V0L1
  6
CONTINUOUS
 62
    40
100
AcDbLine
 10
235.9
 20
19.04
 30
0.0
 11
236.9
 21
19.04
 31
0.0
  0
LINE
  5
19F
100
AcDbEntity
  8
V0L1
  6
CONTINUOUS
 62
    40
100
AcDbLine
 10
236.9
 20
19.04
 30
0.0
 11
236.9
 21
21.64
 31
0.0
  0
LINE
  5
1A0
100
AcDbEntity
  8
V0L1
  6
CONTINUOUS
 62
    40
100
AcDbLine
 10
236.9
 20
21.64
 30
0.0
 11
235.9
 21
21.64
 31
0.0
  0
LINE
  5
1A1
100
AcDbEntity
  8
V0L1
  6
CONTINUOUS
 62
    40
100
AcDbLine
 10
236.08
 20
21.46
 30
0.0
 11
236.08
 21
19.22
 31
0.0
  0
LINE
  5
1A2
100
AcDbEntity
  8
V0L1
  6
CONTINUOUS
 62
    40
100
AcDbLine
 10
236.08
 20
19.22
 30
0.0
 11
236.72
 21
19.22
 31
0.0
  0
LINE
  5
1A3
100
AcDbEntity
  8
V0L1
  6
CONTINUOUS
 62
    40
100
AcDbLine
 10
236.72
 20
19.22
 30
0.0
 11
236.72
 21
21.46
 31
0.0
  0
LINE
  5
1A4
100
AcDbEntity
  8
V0L1
  6
CONTINUOUS
 62
    40
100
AcDbLine
 10
236.72
 20
21.46
 30
0.0
 11
236.08
 21
21.46
 31
0.0
  0
LINE
  5
1A5
100
AcDbEntity
  8
V0L1
  6
CONTINUOUS
 62
    40
100
AcDbLine
 10
236.26
 20
19.4
 30
0.0
 11
236.54
 21
19.4
 31
0.0
  0
LINE
  5
1A6
100
AcDbEntity
  8
V0L1
  6
CONTINUOUS
 62
    40
100
AcDbLine
 10
236.54
 20
19.4
 30
0.0
 11
236.54
 21
21.28
 31
0.0
  0
LINE
  5
1A7
100
AcDbEntity
  8
V0L1
  6
CONTINUOUS
 62
    40
100
AcDbLine
 10
236.54
 20
21.28
 30
0.0
 11
236.26
 21
21.28
 31
0.0
  0
LINE
  5
1A8
100
AcDbEntity
  8
V0L1
  6
CONTINUOUS
 62
    40
100
AcDbLine
 10
236.26
 20
21.28
 30
0.0
 11
236.26
 21
19.4
 31
0.0
  0
LINE
  5
1A9
100
AcDbEntity
  8
V0L1
  6
CONTINUOUS
 62
    40
100
AcDbLine
 10
236.38
 20
19.52
 30
0.0
 11
236.42
 21
19.52
 31
0.0
  0
LINE
  5
1AA
100
AcDbEntity
  8
V0L1
  6
CONTINUOUS
 62
    40
100
AcDbLine
 10
236.42
 20
19.52
 30
0.0
 11
236.42
 21
21.16
 31
0.0
  0
LINE
  5
1AB
100
AcDbEntity
  8
V0L1
  6
CONTINUOUS
 62
    40
100
AcDbLine
 10
236.42
 20
21.16
 30
0.0
 11
236.38
 21
21.16
 31
0.0
  0
LINE
  5
1AC
100
AcDbEntity
  8
V0L1
  6
CONTINUOUS
 62
    40
100
AcDbLine
 10
236.38
 20
21.16
 30
0.0
 11
236.38
 21
19.52
 31
0.0
  0
LINE
  5
1AD
100
AcDbEntity
  8
V0L1
  6
CONTINUOUS
 62
    40
100
AcDbLine
 10
238.26
 20
23.0
 30
0.0
 11
238.26
 21
26.32
 31
0.0
  0
LINE
  5
1AE
100
AcDbEntity
  8
V0L1
  6
CONTINUOUS
 62
    40
100
AcDbLine
 10
238.26
 20
26.32
 30
0.0
 11
238.56
 21
26.32
 31
0.0
  0
ARC
  5
1AF
100
AcDbEntity
  8
V0L1
  6
CONTINUOUS
 62
    40
100
AcDbCircle
 10
238.56
 20
24.7
 30
0.0
 40
1.62
100
AcDbArc
 50
299.38468
 51
90.0
  0
ARC
  5
1B0
100
AcDbEntity
  8
V0L1
  6
CONTINUOUS
 62
    40
100
AcDbCircle
 10
239.44321
 20
23.131579
 30
0.0
 40
0.18
100
AcDbArc
 50
119.38468
 51
226.9698
  0
LINE
  5
1B1
100
AcDbEntity
  8
V0L1
  6
CONTINUOUS
 62
    40
100
AcDbLine
 10
239.32038
 20
23.0
 30
0.0
 11
238.26
 21
23.0
 31
0.0
  0
LINE
  5
1B2
100
AcDbEntity
  8
V0L1
  6
CONTINUOUS
 62
    40
100
AcDbLine
 10
238.44
 20
23.18
 30
0.0
 11
238.44
 21
26.14
 31
0.0
  0
LINE
  5
1B3
100
AcDbEntity
  8
V0L1
  6
CONTINUOUS
 62
    40
100
AcDbLine
 10
238.44
 20
26.14
 30
0.0
 11
238.56
 21
26.14
 31
0.0
  0
ARC
  5
1B4
100
AcDbEntity
  8
V0L1
  6
CONTINUOUS
 62
    40
100
AcDbCircle
 10
238.56
 20
24.7
 30
0.0
 40
1.44
100
AcDbArc
 50
299.38468
 51
90.0
  0
ARC
  5
1B5
100
AcDbEntity
  8
V0L1
  6
CONTINUOUS
 62
    40
100
AcDbCircle
 10
239.44321
 20
23.131579
 30
0.0
 40
0.36
100
AcDbArc
 50
119.38468
 51
172.27012
  0
LINE
  5
1B6
100
AcDbEntity
  8
V0L1
  6
CONTINUOUS
 62
    40
100
AcDbLine
 10
239.08648
 20
23.18
 30
0.0
 11
238.44
 21
23.18
 31
0.0
  0
LINE
  5
1B7
100
AcDbEntity
  8
V0L1
  6
CONTINUOUS
 62
    40
100
AcDbLine
 10
238.62
 20
23.36
 30
0.0
 11
238.62
 21
25.958571
 31
0.0
  0
ARC
  5
1B8
100
AcDbEntity
  8
V0L1
  6
CONTINUOUS
 62
    40
100
AcDbCircle
 10
238.56
 20
24.7
 30
0.0
 40
1.26
100
AcDbArc
 50
299.38468
 51
87.2706
  0
ARC
  5
1B9
100
AcDbEntity
  8
V0L1
  6
CONTINUOUS
 62
    40
100
AcDbCircle
 10
239.44321
 20
23.131579
 30
0.0
 40
0.54
100
AcDbArc
 50
119.38468
 51
154.97574
  0
LINE
  5
1BA
100
AcDbEntity
  8
V0L1
  6
CONTINUOUS
 62
    40
100
AcDbLine
 10
238.9539
 20
23.36
 30
0.0
 11
238.62
 21
23.36
 31
0.0
  0
LINE
  5
1BB
100
AcDbEntity
  8
V0L1
  6
CONTINUOUS
 62
    40
100
AcDbLine
 10
238.8
 20
23.54
 30
0.0
 11
238.8
 21
25.752996
 31
0.0
  0
ARC
  5
1BC
100
AcDbEntity
  8
V0L1
  6
CONTINUOUS
 62
    40
100
AcDbCircle
 10
238.56
 20
24.7
 30
0.0
 40
1.08
100
AcDbArc
 50
299.38468
 51
77.16041
  0
ARC
  5
1BD
100
AcDbEntity
  8
V0L1
  6
CONTINUOUS
 62
    40
100
AcDbCircle
 10
239.44321
 20
23.131579
 30
0.0
 40
0.72
100
AcDbArc
 50
119.38468
 51
145.44122
  0
LINE
  5
1BE
100
AcDbEntity
  8
V0L1
  6
CONTINUOUS
 62
    40
100
AcDbLine
 10
238.85026
 20
23.54
 30
0.0
 11
238.8
 21
23.54
 31
0.0
  0
LINE
  5
1BF
100
AcDbEntity
  8
V0L1
  6
CONTINUOUS
 62
    40
100
AcDbLine
 10
238.98
 20
23.903226
 30
0.0
 11
238.98
 21
25.49599
 31
0.0
  0
ARC
  5
1C0
100
AcDbEntity
  8
V0L1
  6
CONTINUOUS
 62
    40
100
AcDbCircle
 10
238.56
 20
24.7
 30
0.0
 40
0.9
100
AcDbArc
 50
299.38468
 51
62.18186
  0
ARC
  5
1C1
100
AcDbEntity
  8
V0L1
  6
CONTINUOUS
 62
    40
100
AcDbCircle
 10
239.44321
 20
23.131579
 30
0.0
 40
0.9
100
AcDbArc
 50
119.38468
 51
120.97573
  0
LINE
  5
1C2
100
AcDbEntity
  8
V0L1
  6
CONTINUOUS
 62
    40
100
AcDbLine
 10
239.1
 20
24.13715
 30
0.0
 11
239.1
 21
25.26285
 31
0.0
  0
ARC
  5
1C3
100
AcDbEntity
  8
V0L1
  6
CONTINUOUS
 62
    40
100
AcDbCircle
 10
238.56
 20
24.7
 30
0.0
 40
0.78
100
AcDbArc
 50
313.81306
 51
46.18694
  0
LINE
  5
1C4
100
AcDbEntity
  8
V0L1
  6
CONTINUOUS
 62
    40
100
AcDbLine
 10
238.26
 20
18.68
 30
0.0
 11
238.26
 21
22.0
 31
0.0
  0
LINE
  5
1C5
100
AcDbEntity
  8
V0L1
  6
CONTINUOUS
 62
    40
100
AcDbLine
 10
238.26
 20
22.0
 30
0.0
 11
240.48832
 21
22.0
 31
0.0
  0
ARC
  5
1C6
100
AcDbEntity
  8
V0L1
  6
CONTINUOUS
 62
    40
100
AcDbCircle
 10
238.56
 20
20.9
 30
0.0
 40
2.22
100
AcDbArc
 50
270.0
 51
29.70243
  0
LINE
  5
1C7
100
AcDbEntity
  8
V0L1
  6
CONTINUOUS
 62
    40
100
AcDbLine
 10
238.56
 20
18.68
 30
0.0
 11
238.26
 21
18.68
 31
0.0
  0
LINE
  5
1C8
100
AcDbEntity
  8
V0L1
  6
CONTINUOUS
 62
    40
100
AcDbLine
 10
238.44
 20
18.86
 30
0.0
 11
238.44
 21
21.82
 31
0.0
  0
LINE
  5
1C9
100
AcDbEntity
  8
V0L1
  6
CONTINUOUS
 62
    40
100
AcDbLine
 10
238.44
 20
21.82
 30
0.0
 11
240.38077
 21
21.82
 31
0.0
  0
ARC
  5
1CA
100
AcDbEntity
  8
V0L1
  6
CONTINUOUS
 62
    40
100
AcDbCircle
 10
238.56
 20
20.9
 30
0.0
 40
2.04
100
AcDbArc
 50
270.0
 51
26.8066
  0
LINE
  5
1CB
100
AcDbEntity
  8
V0L1
  6
CONTINUOUS
 62
    40
100
AcDbLine
 10
238.56
 20
18.86
 30
0.0
 11
238.44
 21
18.86
 31
0.0
  0
LINE
  5
1CC
100
AcDbEntity
  8
V0L1
  6
CONTINUOUS
 62
    40
100
AcDbLine
 10
238.62
 20
19.040968
 30
0.0
 11
238.62
 21
21.64
 31
0.0
  0
LINE
  5
1CD
100
AcDbEntity
  8
V0L1
  6
CONTINUOUS
 62
    40
100
AcDbLine
 10
238.62
 20
21.64
 30
0.0
 11
240.26646
 21
21.64
 31
0.0
  0
ARC
  5
1CE
100
AcDbEntity
  8
V0L1
  6
CONTINUOUS
 62
    40
100
AcDbCircle
 10
238.56
 20
20.9
 30
0.0
 40
1.86
100
AcDbArc
 50
271.84857
 51
23.44381
  0
LINE
  5
1CF
100
AcDbEntity
  8
V0L1
  6
CONTINUOUS
 62
    40
100
AcDbLine
 10
238.8
 20
19.237231
 30
0.0
 11
238.8
 21
21.46
 31
0.0
  0
LINE
  5
1D0
100
AcDbEntity
  8
V0L1
  6
CONTINUOUS
 62
    40
100
AcDbLine
 10
238.8
 20
21.46
 30
0.0
 11
240.14392
 21
21.46
 31
0.0
  0
ARC
  5
1D1
100
AcDbEntity
  8
V0L1
  6
CONTINUOUS
 62
    40
100
AcDbCircle
 10
238.56
 20
20.9
 30
0.0
 40
1.68
100
AcDbArc
 50
278.21321
 51
19.47122
  0
LINE
  5
1D2
100
AcDbEntity
  8
V0L1
  6
CONTINUOUS
 62
    40
100
AcDbLine
 10
238.98
 20
19.46
 30
0.0
 11
238.98
 21
21.28
 31
0.0
  0
LINE
  5
1D3
100
AcDbEntity
  8
V0L1
  6
CONTINUOUS
 62
    40
100
AcDbLine
 10
238.98
 20
21.28
 30
0.0
 11
240.01107
 21
21.28
 31
0.0
  0
ARC
  5
1D4
100
AcDbEntity
  8
V0L1
  6
CONTINUOUS
 62
    40
100
AcDbCircle
 10
238.56
 20
20.9
 30
0.0
 40
1.5
100
AcDbArc
 50
286.2602
 51
14.67485
  0
LINE
  5
1D5
100
AcDbEntity
  8
V0L1
  6
CONTINUOUS
 62
    40
100
AcDbLine
 10
239.16
 20
19.724245
 30
0.0
 11
239.16
 21
21.1
 31
0.0
  0
LINE
  5
1D6
100
AcDbEntity
  8
V0L1
  6
CONTINUOUS
 62
    40
100
AcDbLine
 10
239.16
 20
21.1
 30
0.0
 11
239.86476
 21
21.1
 31
0.0
  0
ARC
  5
1D7
100
AcDbEntity
  8
V0L1
  6
CONTINUOUS
 62
    40
100
AcDbCircle
 10
238.56
 20
20.9
 30
0.0
 40
1.32
100
AcDbArc
 50
297.03569
 51
8.71474
  0
LINE
  5
1D8
100
AcDbEntity
  8
V0L1
  6
CONTINUOUS
 62
    40
100
AcDbLine
 10
239.31
 20
20.002002
 30
0.0
 11
239.31
 21
20.95
 31
0.0
  0
LINE
  5
1D9
100
AcDbEntity
  8
V0L1
  6
CONTINUOUS
 62
    40
100
AcDbLine
 10
239.31
 20
20.95
 30
0.0
 11
239.72893
 21
20.95
 31
0.0
  0
ARC
  5
1DA
100
AcDbEntity
  8
V0L1
  6
CONTINUOUS
 62
    40
100
AcDbCircle
 10
238.56
 20
20.9
 30
0.0
 40
1.17
100
AcDbArc
 50
309.86834
 51
2.44928
  0
LINE
  5
1DB
100
AcDbEntity
  8
V0L1
  6
CONTINUOUS
 62
    40
100
AcDbLine
 10
241.78
 20
23.0
 30
0.0
 11
241.78
 21
26.32
 31
0.0
  0
LINE
  5
1DC
100
AcDbEntity
  8
V0L1
  6
CONTINUOUS
 62
    40
100
AcDbLine
 10
241.78
 20
26.32
 30
0.0
 11
243.5
 21
26.32
 31
0.0
  0
LINE
  5
1DD
100
AcDbEntity
  8
V0L1
  6
CONTINUOUS
 62
    40
100
AcDbLine
 10
243.5
 20
26.32
 30
0.0
 11
243.5
 21
23.0
 31
0.0
  0
LINE
  5
1DE
100
AcDbEntity
  8
V0L1
  6
CONTINUOUS
 62
    40
100
AcDbLine
 10
243.5
 20
23.0
 30
0.0
 11
241.78
 21
23.0
 31
0.0
  0
LINE
  5
1DF
100
AcDbEntity
  8
V0L1
  6
CONTINUOUS
 62
    40
100
AcDbLine
 10
243.32
 20
23.18
 30
0.0
 11
241.96
 21
23.18
 31
0.0
  0
LINE
  5
1E0
100
AcDbEntity
  8
V0L1
  6
CONTINUOUS
 62
    40
100
AcDbLine
 10
241.96
 20
23.18
 30
0.0
 11
241.96
 21
26.14
 31
0.0
  0
LINE
  5
1E1
100
AcDbEntity
  8
V0L1
  6
CONTINUOUS
 62
    40
100
AcDbLine
 10
241.96
 20
26.14
 30
0.0
 11
243.32
 21
26.14
 31
0.0
  0
LINE
  5
1E2
100
AcDbEntity
  8
V0L1
  6
CONTINUOUS
 62
    40
100
AcDbLine
 10
243.32
 20
26.14
 30
0.0
 11
243.32
 21
23.18
 31
0.0
  0
LINE
  5
1E3
100
AcDbEntity
  8
V0L1
  6
CONTINUOUS
 62
    40
100
AcDbLine
 10
242.14
 20
23.36
 30
0.0
 11
242.14
 21
25.96
 31
0.0
  0
LINE
  5
1E4
100
AcDbEntity
  8
V0L1
  6
CONTINUOUS
 62
    40
100
AcDbLine
 10
242.14
 20
25.96
 30
0.0
 11
243.14
 21
25.96
 31
0.0
  0
LINE
  5
1E5
100
AcDbEntity
  8
V0L1
  6
CONTINUOUS
 62
    40
100
AcDbLine
 10
243.14
 20
25.96
 30
0.0
 11
243.14
 21
23.36
 31
0.0
  0
LINE
  5
1E6
100
AcDbEntity
  8
V0L1
  6
CONTINUOUS
 62
    40
100
AcDbLine
 10
243.14
 20
23.36
 30
0.0
 11
242.14
 21
23.36
 31
0.0
  0
LINE
  5
1E7
100
AcDbEntity
  8
V0L1
  6
CONTINUOUS
 62
    40
100
AcDbLine
 10
242.32
 20
23.54
 30
0.0
 11
242.32
 21
25.78
 31
0.0
  0
LINE
  5
1E8
100
AcDbEntity
  8
V0L1
  6
CONTINUOUS
 62
    40
100
AcDbLine
 10
242.32
 20
25.78
 30
0.0
 11
242.96
 21
25.78
 31
0.0
  0
LINE
  5
1E9
100
AcDbEntity
  8
V0L1
  6
CONTINUOUS
 62
    40
100
AcDbLine
 10
242.96
 20
25.78
 30
0.0
 11
242.96
 21
23.54
 31
0.0
  0
LINE
  5
1EA
100
AcDbEntity
  8
V0L1
  6
CONTINUOUS
 62
    40
100
AcDbLine
 10
242.96
 20
23.54
 30
0.0
 11
242.32
 21
23.54
 31
0.0
  0
LINE
  5
1EB
100
AcDbEntity
  8
V0L1
  6
CONTINUOUS
 62
    40
100
AcDbLine
 10
242.78
 20
23.72
 30
0.0
 11
242.5
 21
23.72
 31
0.0
  0
LINE
  5
1EC
100
AcDbEntity
  8
V0L1
  6
CONTINUOUS
 62
    40
100
AcDbLine
 10
242.5
 20
23.72
 30
0.0
 11
242.5
 21
25.6
 31
0.0
  0
LINE
  5
1ED
100
AcDbEntity
  8
V0L1
  6
CONTINUOUS
 62
    40
100
AcDbLine
 10
242.5
 20
25.6
 30
0.0
 11
242.78
 21
25.6
 31
0.0
  0
LINE
  5
1EE
100
AcDbEntity
  8
V0L1
  6
CONTINUOUS
 62
    40
100
AcDbLine
 10
242.78
 20
25.6
 30
0.0
 11
242.78
 21
23.72
 31
0.0
  0
LINE
  5
1EF
100
AcDbEntity
  8
V0L1
  6
CONTINUOUS
 62
    40
100
AcDbLine
 10
242.62
 20
23.84
 30
0.0
 11
242.62
 21
25.48
 31
0.0
  0
LINE
  5
1F0
100
AcDbEntity
  8
V0L1
  6
CONTINUOUS
 62
    40
100
AcDbLine
 10
242.62
 20
25.48
 30
0.0
 11
242.66
 21
25.48
 31
0.0
  0
LINE
  5
1F1
100
AcDbEntity
  8
V0L1
  6
CONTINUOUS
 62
    40
100
AcDbLine
 10
242.66
 20
25.48
 30
0.0
 11
242.66
 21
23.84
 31
0.0
  0
LINE
  5
1F2
100
AcDbEntity
  8
V0L1
  6
CONTINUOUS
 62
     1
100
AcDbLine
 10
242.66
 20
23.84
 30
0.0
 11
242.62
 21
23.84
 31
0.0
  0
LINE
  5
1F3
100
AcDbEntity
  8
V0L1
  6
CONTINUOUS
 62
    40
100
AcDbLine
 10
241.78
 20
18.68
 30
0.0
 11
243.5
 21
18.68
 31
0.0
  0
LINE
  5
1F4
100
AcDbEntity
  8
V0L1
  6
CONTINUOUS
 62
    40
100
AcDbLine
 10
243.5
 20
18.68
 30
0.0
 11
243.5
 21
22.0
 31
0.0
  0
LINE
  5
1F5
100
AcDbEntity
  8
V0L1
  6
CONTINUOUS
 62
    40
100
AcDbLine
 10
243.5
 20
22.0
 30
0.0
 11
241.78
 21
22.0
 31
0.0
  0
LINE
  5
1F6
100
AcDbEntity
  8
V0L1
  6
CONTINUOUS
 62
    40
100
AcDbLine
 10
241.78
 20
22.0
 30
0.0
 11
241.78
 21
18.68
 31
0.0
  0
LINE
  5
1F7
100
AcDbEntity
  8
V0L1
  6
CONTINUOUS
 62
    40
100
AcDbLine
 10
241.96
 20
21.82
 30
0.0
 11
241.96
 21
18.86
 31
0.0
  0
LINE
  5
1F8
100
AcDbEntity
  8
V0L1
  6
CONTINUOUS
 62
    40
100
AcDbLine
 10
241.96
 20
18.86
 30
0.0
 11
243.32
 21
18.86
 31
0.0
  0
LINE
  5
1F9
100
AcDbEntity
  8
V0L1
  6
CONTINUOUS
 62
    40
100
AcDbLine
 10
243.32
 20
18.86
 30
0.0
 11
243.32
 21
21.82
 31
0.0
  0
LINE
  5
1FA
100
AcDbEntity
  8
V0L1
  6
CONTINUOUS
 62
    40
100
AcDbLine
 10
243.32
 20
21.82
 30
0.0
 11
241.96
 21
21.82
 31
0.0
  0
LINE
  5
1FB
100
AcDbEntity
  8
V0L1
  6
CONTINUOUS
 62
    40
100
AcDbLine
 10
242.14
 20
21.64
 30
0.0
 11
242.14
 21
19.04
 31
0.0
  0
LINE
  5
1FC
100
AcDbEntity
  8
V0L1
  6
CONTINUOUS
 62
    40
100
AcDbLine
 10
242.14
 20
19.04
 30
0.0
 11
243.14
 21
19.04
 31
0.0
  0
LINE
  5
1FD
100
AcDbEntity
  8
V0L1
  6
CONTINUOUS
 62
    40
100
AcDbLine
 10
243.14
 20
19.04
 30
0.0
 11
243.14
 21
21.64
 31
0.0
  0
LINE
  5
1FE
100
AcDbEntity
  8
V0L1
  6
CONTINUOUS
 62
    40
100
AcDbLine
 10
243.14
 20
21.64
 30
0.0
 11
242.14
 21
21.64
 31
0.0
  0
LINE
  5
1FF
100
AcDbEntity
  8
V0L1
  6
CONTINUOUS
 62
    40
100
AcDbLine
 10
242.32
 20
19.22
 30
0.0
 11
242.96
 21
19.22
 31
0.0
  0
LINE
  5
200
100
AcDbEntity
  8
V0L1
  6
CONTINUOUS
 62
    40
100
AcDbLine
 10
242.96
 20
19.22
 30
0.0
 11
242.96
 21
21.46
 31
0.0
  0
LINE
  5
201
100
AcDbEntity
  8
V0L1
  6
CONTINUOUS
 62
    40
100
AcDbLine
 10
242.96
 20
21.46
 30
0.0
 11
242.32
 21
21.46
 31
0.0
  0
LINE
  5
202
100
AcDbEntity
  8
V0L1
  6
CONTINUOUS
 62
    40
100
AcDbLine
 10
242.32
 20
21.46
 30
0.0
 11
242.32
 21
19.22
 31
0.0
  0
LINE
  5
203
100
AcDbEntity
  8
V0L1
  6
CONTINUOUS
 62
    40
100
AcDbLine
 10
242.5
 20
21.28
 30
0.0
 11
242.5
 21
19.4
 31
0.0
  0
LINE
  5
204
100
AcDbEntity
  8
V0L1
  6
CONTINUOUS
 62
    40
100
AcDbLine
 10
242.5
 20
19.4
 30
0.0
 11
242.78
 21
19.4
 31
0.0
  0
LINE
  5
205
100
AcDbEntity
  8
V0L1
  6
CONTINUOUS
 62
    40
100
AcDbLine
 10
242.78
 20
19.4
 30
0.0
 11
242.78
 21
21.28
 31
0.0
  0
LINE
  5
206
100
AcDbEntity
  8
V0L1
  6
CONTINUOUS
 62
    40
100
AcDbLine
 10
242.78
 20
21.28
 30
0.0
 11
242.5
 21
21.28
 31
0.0
  0
LINE
  5
207
100
AcDbEntity
  8
V0L1
  6
CONTINUOUS
 62
    40
100
AcDbLine
 10
242.62
 20
21.16
 30
0.0
 11
242.62
 21
19.52
 31
0.0
  0
LINE
  5
208
100
AcDbEntity
  8
V0L1
  6
CONTINUOUS
 62
    40
100
AcDbLine
 10
242.62
 20
19.52
 30
0.0
 11
242.66
 21
19.52
 31
0.0
  0
LINE
  5
209
100
AcDbEntity
  8
V0L1
  6
CONTINUOUS
 62
    40
100
AcDbLine
 10
242.66
 20
19.52
 30
0.0
 11
242.66
 21
21.16
 31
0.0
  0
LINE
  5
20A
100
AcDbEntity
  8
V0L1
  6
CONTINUOUS
 62
    40
100
AcDbLine
 10
242.66
 20
21.16
 30
0.0
 11
242.62
 21
21.16
 31
0.0
  0
LINE
  5
20B
100
AcDbEntity
  8
V0L1
  6
CONTINUOUS
 62
    40
100
AcDbLine
 10
245.56038
 20
23.0
 30
0.0
 11
244.5
 21
23.0
 31
0.0
  0
LINE
  5
20C
100
AcDbEntity
  8
V0L1
  6
CONTINUOUS
 62
    40
100
AcDbLine
 10
244.5
 20
23.0
 30
0.0
 11
244.5
 21
26.32
 31
0.0
  0
LINE
  5
20D
100
AcDbEntity
  8
V0L1
  6
CONTINUOUS
 62
    40
100
AcDbLine
 10
244.5
 20
26.32
 30
0.0
 11
244.8
 21
26.32
 31
0.0
  0
ARC
  5
20E
100
AcDbEntity
  8
V0L1
  6
CONTINUOUS
 62
    40
100
AcDbCircle
 10
244.8
 20
24.7
 30
0.0
 40
1.62
100
AcDbArc
 50
299.38468
 51
90.0
  0
ARC
  5
20F
100
AcDbEntity
  8
V0L1
  6
CONTINUOUS
 62
    40
100
AcDbCircle
 10
245.68321
 20
23.131579
 30
0.0
 40
0.18
100
AcDbArc
 50
119.38468
 51
226.9698
  0
LINE
  5
210
100
AcDbEntity
  8
V0L1
  6
CONTINUOUS
 62
    40
100
AcDbLine
 10
244.68
 20
23.18
 30
0.0
 11
244.68
 21
26.14
 31
0.0
  0
LINE
  5
211
100
AcDbEntity
  8
V0L1
  6
CONTINUOUS
 62
    40
100
AcDbLine
 10
244.68
 20
26.14
 30
0.0
 11
244.8
 21
26.14
 31
0.0
  0
ARC
  5
212
100
AcDbEntity
  8
V0L1
  6
CONTINUOUS
 62
    40
100
AcDbCircle
 10
244.8
 20
24.7
 30
0.0
 40
1.44
100
AcDbArc
 50
299.38468
 51
90.0
  0
ARC
  5
213
100
AcDbEntity
  8
V0L1
  6
CONTINUOUS
 62
    40
100
AcDbCircle
 10
245.68321
 20
23.131579
 30
0.0
 40
0.36
100
AcDbArc
 50
119.38468
 51
172.27012
  0
LINE
  5
214
100
AcDbEntity
  8
V0L1
  6
CONTINUOUS
 62
    40
100
AcDbLine
 10
245.32648
 20
23.18
 30
0.0
 11
244.68
 21
23.18
 31
0.0
  0
LINE
  5
215
100
AcDbEntity
  8
V0L1
  6
CONTINUOUS
 62
    40
100
AcDbLine
 10
245.1939
 20
23.36
 30
0.0
 11
244.86
 21
23.36
 31
0.0
  0
LINE
  5
216
100
AcDbEntity
  8
V0L1
  6
CONTINUOUS
 62
    40
100
AcDbLine
 10
244.86
 20
23.36
 30
0.0
 11
244.86
 21
25.958571
 31
0.0
  0
ARC
  5
217
100
AcDbEntity
  8
V0L1
  6
CONTINUOUS
 62
    40
100
AcDbCircle
 10
244.8
 20
24.7
 30
0.0
 40
1.26
100
AcDbArc
 50
299.38468
 51
87.2706
  0
ARC
  5
218
100
AcDbEntity
  8
V0L1
  6
CONTINUOUS
 62
    40
100
AcDbCircle
 10
245.68321
 20
23.131579
 30
0.0
 40
0.54
100
AcDbArc
 50
119.38468
 51
154.97574
  0
LINE
  5
219
100
AcDbEntity
  8
V0L1
  6
CONTINUOUS
 62
    40
100
AcDbLine
 10
245.04
 20
23.54
 30
0.0
 11
245.04
 21
25.752996
 31
0.0
  0
ARC
  5
21A
100
AcDbEntity
  8
V0L1
  6
CONTINUOUS
 62
    40
100
AcDbCircle
 10
244.8
 20
24.7
 30
0.0
 40
1.08
100
AcDbArc
 50
299.38468
 51
77.16041
  0
ARC
  5
21B
100
AcDbEntity
  8
V0L1
  6
CONTINUOUS
 62
    40
100
AcDbCircle
 10
245.68321
 20
23.131579
 30
0.0
 40
0.72
100
AcDbArc
 50
119.38468
 51
145.44122
  0
LINE
  5
21C
100
AcDbEntity
  8
V0L1
  6
CONTINUOUS
 62
    40
100
AcDbLine
 10
245.09026
 20
23.54
 30
0.0
 11
245.04
 21
23.54
 31
0.0
  0
LINE
  5
21D
100
AcDbEntity
  8
V0L1
  6
CONTINUOUS
 62
    40
100
AcDbLine
 10
245.22
 20
23.903226
 30
0.0
 11
245.22
 21
25.49599
 31
0.0
  0
ARC
  5
21E
100
AcDbEntity
  8
V0L1
  6
CONTINUOUS
 62
    40
100
AcDbCircle
 10
244.8
 20
24.7
 30
0.0
 40
0.9
100
AcDbArc
 50
299.38468
 51
62.18186
  0
ARC
  5
21F
100
AcDbEntity
  8
V0L1
  6
CONTINUOUS
 62
    40
100
AcDbCircle
 10
245.68321
 20
23.131579
 30
0.0
 40
0.9
100
AcDbArc
 50
119.38468
 51
120.97573
  0
LINE
  5
220
100
AcDbEntity
  8
V0L1
  6
CONTINUOUS
 62
    40
100
AcDbLine
 10
245.34
 20
24.13715
 30
0.0
 11
245.34
 21
25.26285
 31
0.0
  0
ARC
  5
221
100
AcDbEntity
  8
V0L1
  6
CONTINUOUS
 62
    40
100
AcDbCircle
 10
244.8
 20
24.7
 30
0.0
 40
0.78
100
AcDbArc
 50
313.81306
 51
46.18694
  0
LINE
  5
222
100
AcDbEntity
  8
V0L1
  6
CONTINUOUS
 62
    40
100
AcDbLine
 10
244.5
 20
18.68
 30
0.0
 11
244.5
 21
22.0
 31
0.0
  0
LINE
  5
223
100
AcDbEntity
  8
V0L1
  6
CONTINUOUS
 62
    40
100
AcDbLine
 10
244.5
 20
22.0
 30
0.0
 11
246.72832
 21
22.0
 31
0.0
  0
ARC
  5
224
100
AcDbEntity
  8
V0L1
  6
CONTINUOUS
 62
    40
100
AcDbCircle
 10
244.8
 20
20.9
 30
0.0
 40
2.22
100
AcDbArc
 50
270.0
 51
29.70243
  0
LINE
  5
225
100
AcDbEntity
  8
V0L1
  6
CONTINUOUS
 62
    40
100
AcDbLine
 10
244.8
 20
18.68
 30
0.0
 11
244.5
 21
18.68
 31
0.0
  0
LINE
  5
226
100
AcDbEntity
  8
V0L1
  6
CONTINUOUS
 62
    40
100
AcDbLine
 10
244.68
 20
18.86
 30
0.0
 11
244.68
 21
21.82
 31
0.0
  0
LINE
  5
227
100
AcDbEntity
  8
V0L1
  6
CONTINUOUS
 62
    40
100
AcDbLine
 10
244.68
 20
21.82
 30
0.0
 11
246.62077
 21
21.82
 31
0.0
  0
ARC
  5
228
100
AcDbEntity
  8
V0L1
  6
CONTINUOUS
 62
    40
100
AcDbCircle
 10
244.8
 20
20.9
 30
0.0
 40
2.04
100
AcDbArc
 50
270.0
 51
26.8066
  0
LINE
  5
229
100
AcDbEntity
  8
V0L1
  6
CONTINUOUS
 62
    40
100
AcDbLine
 10
244.8
 20
18.86
 30
0.0
 11
244.68
 21
18.86
 31
0.0
  0
LINE
  5
22A
100
AcDbEntity
  8
V0L1
  6
CONTINUOUS
 62
    40
100
AcDbLine
 10
244.86
 20
19.040968
 30
0.0
 11
244.86
 21
21.64
 31
0.0
  0
LINE
  5
22B
100
AcDbEntity
  8
V0L1
  6
CONTINUOUS
 62
    40
100
AcDbLine
 10
244.86
 20
21.64
 30
0.0
 11
246.50646
 21
21.64
 31
0.0
  0
ARC
  5
22C
100
AcDbEntity
  8
V0L1
  6
CONTINUOUS
 62
    40
100
AcDbCircle
 10
244.8
 20
20.9
 30
0.0
 40
1.86
100
AcDbArc
 50
271.84857
 51
23.44381
  0
LINE
  5
22D
100
AcDbEntity
  8
V0L1
  6
CONTINUOUS
 62
    40
100
AcDbLine
 10
245.04
 20
19.237231
 30
0.0
 11
245.04
 21
21.46
 31
0.0
  0
LINE
  5
22E
100
AcDbEntity
  8
V0L1
  6
CONTINUOUS
 62
    40
100
AcDbLine
 10
245.04
 20
21.46
 30
0.0
 11
246.38392
 21
21.46
 31
0.0
  0
ARC
  5
22F
100
AcDbEntity
  8
V0L1
  6
CONTINUOUS
 62
    40
100
AcDbCircle
 10
244.8
 20
20.9
 30
0.0
 40
1.68
100
AcDbArc
 50
278.21321
 51
19.47122
  0
LINE
  5
230
100
AcDbEntity
  8
V0L1
  6
CONTINUOUS
 62
    40
100
AcDbLine
 10
245.22
 20
19.46
 30
0.0
 11
245.22
 21
21.28
 31
0.0
  0
LINE
  5
231
100
AcDbEntity
  8
V0L1
  6
CONTINUOUS
 62
    40
100
AcDbLine
 10
245.22
 20
21.28
 30
0.0
 11
246.25107
 21
21.28
 31
0.0
  0
ARC
  5
232
100
AcDbEntity
  8
V0L1
  6
CONTINUOUS
 62
    40
100
AcDbCircle
 10
244.8
 20
20.9
 30
0.0
 40
1.5
100
AcDbArc
 50
286.2602
 51
14.67485
  0
LINE
  5
233
100
AcDbEntity
  8
V0L1
  6
CONTINUOUS
 62
    40
100
AcDbLine
 10
245.4
 20
19.724245
 30
0.0
 11
245.4
 21
21.1
 31
0.0
  0
LINE
  5
234
100
AcDbEntity
  8
V0L1
  6
CONTINUOUS
 62
    40
100
AcDbLine
 10
245.4
 20
21.1
 30
0.0
 11
246.10476
 21
21.1
 31
0.0
  0
ARC
  5
235
100
AcDbEntity
  8
V0L1
  6
CONTINUOUS
 62
    40
100
AcDbCircle
 10
244.8
 20
20.9
 30
0.0
 40
1.32
100
AcDbArc
 50
297.03569
 51
8.71474
  0
LINE
  5
236
100
AcDbEntity
  8
V0L1
  6
CONTINUOUS
 62
    40
100
AcDbLine
 10
245.58
 20
20.068616
 30
0.0
 11
245.58
 21
20.92
 31
0.0
  0
LINE
  5
237
100
AcDbEntity
  8
V0L1
  6
CONTINUOUS
 62
    40
100
AcDbLine
 10
245.58
 20
20.92
 30
0.0
 11
245.93982
 21
20.92
 31
0.0
  0
ARC
  5
238
100
AcDbEntity
  8
V0L1
  6
CONTINUOUS
 62
    40
100
AcDbCircle
 10
244.8
 20
20.9
 30
0.0
 40
1.14
100
AcDbArc
 50
313.17355
 51
1.00524
  0
LINE
  5
239
100
AcDbEntity
  8
V0L1
  6
CONTINUOUS
 62
    40
100
AcDbLine
 10
239.42
 20
20.84
 30
0.0
 11
239.6183
 21
20.84
 31
0.0
  0
ARC
  5
23A
100
AcDbEntity
  8
V0L1
  6
CONTINUOUS
 62
    40
100
AcDbCircle
 10
238.56
 20
20.9
 30
0.0
 40
1.06
100
AcDbArc
 50
324.22517
 51
356.75511
  0
LINE
  5
23B
100
AcDbEntity
  8
V0L1
  6
CONTINUOUS
 62
    40
100
AcDbLine
 10
239.42
 20
20.280323
 30
0.0
 11
239.42
 21
20.84
 31
0.0
  0
LINE
  5
23C
100
AcDbEntity
  8
V0L1
  6
CONTINUOUS
 62
    40
100
AcDbLine
 10
245.69
 20
20.381541
 30
0.0
 11
245.69
 21
20.81
 31
0.0
  0
LINE
  5
23D
100
AcDbEntity
  8
V0L1
  6
CONTINUOUS
 62
    40
100
AcDbLine
 10
245.69
 20
20.81
 30
0.0
 11
245.82606
 21
20.81
 31
0.0
  0
ARC
  5
23E
100
AcDbEntity
  8
V0L1
  6
CONTINUOUS
 62
    40
100
AcDbCircle
 10
244.8
 20
20.9
 30
0.0
 40
1.03
100
AcDbArc
 50
329.77755
 51
354.98718
  0
LINE
  5
23F
100
AcDbEntity
  8
V0L1
  6
CONTINUOUS
 62
    40
100
AcDbLine
 10
76.64313
 20
271.18273
 30
0.0
 11
76.64313
 21
268.18273
 31
0.0
  0
TEXT
  5
240
100
AcDbEntity
  8
V0L1
  6
CONTINUOUS
 62
    13
100
AcDbText
 10
18.894545
 20
17.473426
 30
0.0
 40
2.0
  1
Ce document, propriete exclusive de notre
 50
90.0
 41
0.6
100
AcDbText
  0
TEXT
  5
241
100
AcDbEntity
  8
V0L1
  6
CONTINUOUS
 62
    13
100
AcDbText
 10
21.894545
 20
17.473426
 30
0.0
 40
2.0
  1
Societe, est strictement confidentiel. Il
 50
90.0
 41
0.6
100
AcDbText
  0
TEXT
  5
242
100
AcDbEntity
  8
V0L1
  6
CONTINUOUS
 62
    13
100
AcDbText
 10
24.894545
 20
17.473426
 30
0.0
 40
2.0
  1
ne peut etre communique, copie ou
 50
90.0
 41
0.6
100
AcDbText
  0
TEXT
  5
243
100
AcDbEntity
  8
V0L1
  6
CONTINUOUS
 62
    13
100
AcDbText
 10
27.894545
 20
17.473426
 30
0.0
 40
2.0
  1
reproduit sans son autorisation ecrite.
 50
90.0
 41
0.6
100
AcDbText
  0
ATTDEF
  5
244
100
AcDbEntity
  8
V0L1
  6
CONTINUOUS
 62
     3
100
AcDbText
 10
337.07224
 20
15.8802
 30
0.0
 40
6.0
  1
 
 41
0.8
100
AcDbAttributeDefinition
  3
N_plan
  2
N_plan
 70
     0
  0
ATTDEF
  5
245
100
AcDbEntity
  8
V0L1
  6
CONTINUOUS
 62
     5
100
AcDbText
 10
267.0845
 20
22.158328
 30
0.0
 40
2.5
  1
 
 41
0.8
100
AcDbAttributeDefinition
  3
Appareil
  2
Appareil
 70
     0
  0
ATTDEF
  5
246
100
AcDbEntity
  8
V0L1
  6
CONTINUOUS
 62
     3
100
AcDbText
 10
292.0125
 20
16.254832
 30
0.0
 40
3.5
  1
 
 41
0.85
 72
     1
 11
293.5
 21
16.254832
 31
0.0
100
AcDbAttributeDefinition
  3
Piece
  2
Piece
 70
     0
  0
ATTDEF
  5
247
100
AcDbEntity
  8
V0L1
  6
CONTINUOUS
 62
     3
100
AcDbText
 10
339.33956
 20
40.53937
 30
0.0
 40
8.0
  1
 
 41
0.7
 72
     1
 11
342.13956
 21
40.53937
 31
0.0
100
AcDbAttributeDefinition
  3
Echelle
  2
Echelle
 70
     0
  0
ATTDEF
  5
248
100
AcDbEntity
  8
V0L1
  6
CONTINUOUS
 62
    40
100
AcDbText
 10
232.00289
 20
54.925552
 30
0.0
 40
2.2
  1
 
 41
0.6
100
AcDbAttributeDefinition
  3
Etabli
  2
Etabli
 70
     0
  0
ATTDEF
  5
249
100
AcDbEntity
  8
V0L1
  6
CONTINUOUS
 62
    40
100
AcDbText
 10
276.25314
 20
54.847514
 30
0.0
 40
2.2
  1
 
 41
0.6
100
AcDbAttributeDefinition
  3
Controle
  2
Controle
 70
     0
  0
ATTDEF
  5
24A
100
AcDbEntity
  8
V0L1
  6
CONTINUOUS
 62
    40
100
AcDbText
 10
361.40138
 20
54.716689
 30
0.0
 40
2.5
  1
 
 41
0.5
100
AcDbAttributeDefinition
  3
Execution
  2
Execution
 70
     0
  0
ATTDEF
  5
24B
100
AcDbEntity
  8
V0L1
  6
CONTINUOUS
 62
    40
100
AcDbText
 10
239.16886
 20
50.869941
 30
0.0
 40
2.2
  1
 
 41
0.6
100
AcDbAttributeDefinition
  3
Issu
  2
Issu
 70
     0
  0
ATTDEF
  5
24C
100
AcDbEntity
  8
V0L1
  6
CONTINUOUS
 62
    40
100
AcDbText
 10
278.55203
 20
50.832642
 30
0.0
 40
2.2
  1
 
 41
0.6
100
AcDbAttributeDefinition
  3
Remplace
  2
Remplace
 70
     0
  0
ATTDEF
  5
24D
100
AcDbEntity
  8
V0L1
  6
CONTINUOUS
 62
    40
100
AcDbText
 10
318.14064
 20
50.943037
 30
0.0
 40
2.2
  1
 
 41
0.6
100
AcDbAttributeDefinition
  3
Remplace_par
  2
Remplace_par
 70
     0
  0
ATTDEF
  5
24E
100
AcDbEntity
  8
V0L1
  6
CONTINUOUS
 62
    40
100
AcDbText
 10
230.23861
 20
31.961826
 30
0.0
 40
2.5
  1
 
 72
     1
 11
231.48861
 21
31.961826
 31
0.0
100
AcDbAttributeDefinition
  3
Indice
  2
Indice
 70
     0
  0
ATTDEF
  5
24F
100
AcDbEntity
  8
V0L1
  6
CONTINUOUS
 62
    40
100
AcDbText
 10
393.91335
 20
16.513872
 30
0.0
 40
2.4
  1
 
 72
     1
 11
395.11335
 21
16.513872
 31
0.0
100
AcDbAttributeDefinition
  3
Indice_2
  2
Indice_2
 70
     0
  0
ATTDEF
  5
250
100
AcDbEntity
  8
V0L1
  6
CONTINUOUS
 62
    40
100
AcDbText
 10
236.6432
 20
30.659267
 30
0.0
 40
2.5
  1
 
 41
0.5
100
AcDbAttributeDefinition
  3
Texte_indice
  2
Texte_indice
 70
     0
  0
ATTDEF
  5
251
100
AcDbEntity
  8
V0L1
  6
CONTINUOUS
 62
    40
100
AcDbText
 10
389.16522
 20
51.998568
 30
0.0
 40
2.9
  1
 
 41
1.3
 72
     1
 11
391.05022
 21
51.998568
 31
0.0
100
AcDbAttributeDefinition
  3
Sans_nomenclature
  2
Sans_nomenclature
 70
     0
  0
ATTDEF
  5
252
100
AcDbEntity
  8
V0L1
  6
CONTINUOUS
 62
    40
100
AcDbText
 10
389.25344
 20
47.984386
 30
0.0
 40
2.9
  1
 
 41
1.3
 72
     1
 11
391.13844
 21
47.984386
 31
0.0
100
AcDbAttributeDefinition
  3
Nomenc_meme_numero
  2
Nomenc_meme_numero
 70
     0
  0
ATTDEF
  5
253
100
AcDbEntity
  8
V0L1
  6
CONTINUOUS
 62
    40
100
AcDbText
 10
389.20933
 20
43.926092
 30
0.0
 40
2.9
  1
 
 41
1.3
 72
     1
 11
391.09433
 21
43.926092
 31
0.0
100
AcDbAttributeDefinition
  3
Nomenc_numero_dif
  2
Nomenc_numero_dif
 70
     0
  0
ATTDEF
  5
254
100
AcDbEntity
  8
V0L1
  6
CONTINUOUS
 62
    40
100
AcDbText
 10
47.710405
 20
269.67194
 30
0.0
 40
3.0
  1
 
 41
1.4
 72
     1
 11
49.810405
 21
269.67194
 31
0.0
100
AcDbAttributeDefinition
  3
f
  2
f
 70
     0
  0
ATTDEF
  5
255
100
AcDbEntity
  8
V0L1
  6
CONTINUOUS
 62
    40
100
AcDbText
 10
57.186971
 20
269.68863
 30
0.0
 40
3.0
  1
 
 41
1.4
 72
     1
 11
59.286971
 21
269.68863
 31
0.0
100
AcDbAttributeDefinition
  3
m
  2
m
 70
     0
  0
ATTDEF
  5
256
100
AcDbEntity
  8
V0L1
  6
CONTINUOUS
 62
    40
100
AcDbText
 10
66.680531
 20
269.68698
 30
0.0
 40
3.0
  1
 
 41
1.4
 72
     1
 11
68.780531
 21
269.68698
 31
0.0
100
AcDbAttributeDefinition
  3
c
  2
c
 70
     0
  0
ATTDEF
  5
257
100
AcDbEntity
  8
V0L1
  6
CONTINUOUS
 62
    40
100
AcDbText
 10
76.155731
 20
269.67858
 30
0.0
 40
3.0
  1
 
 41
1.4
 72
     1
 11
78.255731
 21
269.67858
 31
0.0
100
AcDbAttributeDefinition
  3
v
  2
v
 70
     0
  0
ATTDEF
  5
258
100
AcDbEntity
  8
V0L1
  6
CONTINUOUS
 62
    40
100
AcDbText
 10
123.67797
 20
270.50796
 30
0.0
 40
2.9
  1
 
 41
1.3
 72
     1
 11
125.56297
 21
270.50796
 31
0.0
100
AcDbAttributeDefinition
  3
130
  2
130
 70
     0
  0
ATTDEF
  5
259
100
AcDbEntity
  8
V0L1
  6
CONTINUOUS
 62
    40
100
AcDbText
 10
136.66684
 20
270.48317
 30
0.0
 40
2.9
  1
 
 41
1.3
 72
     1
 11
138.55184
 21
270.48317
 31
0.0
100
AcDbAttributeDefinition
  3
140
  2
140
 70
     0
  0
POINT
  5
25A
100
AcDbEntity
  8
V0L1
  6
CONTINUOUS
 62
     1
100
AcDbPoint
 10
393.0
 20
278.0
 30
0.0
  0
ENDBLK
  5
25B
100
AcDbEntity
  8
0
100
AcDbBlockEnd
  0
ENDSEC
  0
SECTION
  2
ENTITIES
  0
LINE
  5
36C
100
AcDbEntity
  8
1
  6
CONTINUOUS
 62
   250
100
AcDbLine
 10
288.63461
 20
156.91044
 30
0.0
 11
288.63461
 21
141.91044
 31
0.0
  0
LINE
  5
36E
100
AcDbEntity
  8
1
  6
CONTINUOUS
 62
   250
100
AcDbLine
 10
151.53608
 20
115.42853
 30
0.0
 11
151.53608
 21
48.428533
 31
0.0
  0
LINE
  5
36F
100
AcDbEntity
  8
1
  6
CONTINUOUS
 62
   250
100
AcDbLine
 10
151.89633
 20
228.85153
 30
0.0
 11
136.89633
 21
228.85153
 31
0.0
  0
LINE
  5
370
100
AcDbEntity
  8
1
  6
CONTINUOUS
 62
   250
100
AcDbLine
 10
151.89633
 20
158.85153
 30
0.0
 11
136.89633
 21
158.85153
 31
0.0
  0
LINE
  5
373
100
AcDbEntity
  8
1
  6
CONTINUOUS
 62
   250
100
AcDbLine
 10
151.89633
 20
222.95153
 30
0.0
 11
136.89633
 21
222.95153
 31
0.0
  0
TEXT
  5
374
100
AcDbEntity
  8
1
  6
CONTINUOUS
 62
   250
100
AcDbText
 10
272.19961
 20
90.43576
 30
0.0
 40
3.0
  1
(1) bornes Contacteur
 41
0.75
 72
     1
 11
294.32461
 21
93.43576
 31
0.0
100
AcDbText
 73
     3
  0
TEXT
  5
375
100
AcDbEntity
  8
1
  6
CONTINUOUS
 62
   250
100
AcDbText
 10
321.232
 20
90.793067
 30
0.0
 40
3.0
  1
/ terminal of Contactor
 41
0.75
 51
30.0
 72
     1
 11
345.4195
 21
93.793067
 31
0.0
100
AcDbText
 73
     3
  0
LINE
  5
376
100
AcDbEntity
  8
1
  6
CONTINUOUS
 62
   250
100
AcDbLine
 10
356.58461
 20
179.50347
 30
0.0
 11
356.58461
 21
194.31044
 31
0.0
  0
LINE
  5
377
100
AcDbEntity
  8
1
  6
CONTINUOUS
 62
   250
100
AcDbLine
 10
151.89633
 20
164.75152
 30
0.0
 11
136.89633
 21
164.75152
 31
0.0
  0
LINE
  5
378
100
AcDbEntity
  8
1
  6
CONTINUOUS
 62
   250
100
AcDbLine
 10
151.89633
 20
210.75152
 30
0.0
 11
136.89633
 21
210.75152
 31
0.0
  0
LINE
  5
379
100
AcDbEntity
  8
1
  6
CONTINUOUS
 62
   250
100
AcDbLine
 10
151.89633
 20
176.95153
 30
0.0
 11
136.89633
 21
176.95153
 31
0.0
  0
LINE
  5
37A
100
AcDbEntity
  8
1
  6
CONTINUOUS
 62
   250
100
AcDbLine
 10
151.89633
 20
211.75152
 30
0.0
 11
136.89633
 21
211.75152
 31
0.0
  0
LINE
  5
37B
100
AcDbEntity
  8
1
  6
CONTINUOUS
 62
   250
100
AcDbLine
 10
151.89633
 20
175.95153
 30
0.0
 11
136.89633
 21
175.95153
 31
0.0
  0
LINE
  5
37C
100
AcDbEntity
  8
1
  6
CONTINUOUS
 62
   250
100
AcDbLine
 10
336.03719
 20
212.41044
 30
0.0
 11
334.63461
 21
212.41044
 31
0.0
  0
LINE
  5
37D
100
AcDbEntity
  8
1
  6
CONTINUOUS
 62
   250
100
AcDbLine
 10
356.58461
 20
171.80347
 30
0.0
 11
356.58461
 21
172.61044
 31
0.0
  0
LINE
  5
37E
100
AcDbEntity
  8
1
  6
CONTINUOUS
 62
   250
100
AcDbLine
 10
287.13461
 20
195.16044
 30
0.0
 11
287.13461
 21
193.16044
 31
0.0
  0
LINE
  5
37F
100
AcDbEntity
  8
1
  6
CONTINUOUS
 62
   250
100
AcDbLine
 10
287.13461
 20
193.16044
 30
0.0
 11
287.13461
 21
159.71403
 31
0.0
  0
LINE
  5
380
100
AcDbEntity
  8
1
  6
CONTINUOUS
 62
   250
100
AcDbLine
 10
128.39633
 20
229.47044
 30
0.0
 11
128.39633
 21
230.30152
 31
0.0
  0
LINE
  5
381
100
AcDbEntity
  8
1
  6
CONTINUOUS
 62
   250
100
AcDbLine
 10
285.43462
 20
159.66044
 30
0.0
 11
286.43462
 21
159.66044
 31
0.0
  0
LINE
  5
382
100
AcDbEntity
  8
1
  6
CONTINUOUS
 62
   250
100
AcDbLine
 10
283.13461
 20
195.16044
 30
0.0
 11
285.98462
 21
195.16044
 31
0.0
  0
LINE
  5
383
100
AcDbEntity
  8
1
  6
CONTINUOUS
 62
   250
100
AcDbLine
 10
285.43462
 20
159.66044
 30
0.0
 11
283.13461
 21
159.04416
 31
0.0
  0
LINE
  5
384
100
AcDbEntity
  8
1
  6
CONTINUOUS
 62
   250
100
AcDbLine
 10
283.13461
 20
193.16044
 30
0.0
 11
284.82991
 21
193.16044
 31
0.0
  0
LINE
  5
385
100
AcDbEntity
  8
1
  6
CONTINUOUS
 62
   250
100
AcDbLine
 10
101.39633
 20
229.47044
 30
0.0
 11
101.39633
 21
230.30152
 31
0.0
  0
LINE
  5
386
100
AcDbEntity
  8
1
  6
CONTINUOUS
 62
   250
100
AcDbLine
 10
285.98462
 20
195.16044
 30
0.0
 11
284.82991
 21
193.16044
 31
0.0
  0
LINE
  5
387
100
AcDbEntity
  8
1
  6
CONTINUOUS
 62
   250
100
AcDbLine
 10
287.13461
 20
174.86044
 30
0.0
 11
299.93462
 21
174.86044
 31
0.0
  0
LINE
  5
389
100
AcDbEntity
  8
1
  6
CONTINUOUS
 62
   250
100
AcDbLine
 10
287.13461
 20
187.66044
 30
0.0
 11
295.13461
 21
187.66044
 31
0.0
  0
LINE
  5
38A
100
AcDbEntity
  8
1
  6
CONTINUOUS
 62
   250
100
AcDbLine
 10
287.13461
 20
184.66044
 30
0.0
 11
295.13461
 21
184.66044
 31
0.0
  0
LINE
  5
38B
100
AcDbEntity
  8
1
  6
CONTINUOUS
 62
   250
100
AcDbLine
 10
287.13461
 20
167.66044
 30
0.0
 11
295.13461
 21
167.66044
 31
0.0
  0
LINE
  5
38C
100
AcDbEntity
  8
1
  6
CONTINUOUS
 62
   250
100
AcDbLine
 10
287.13461
 20
164.66044
 30
0.0
 11
295.13461
 21
164.66044
 31
0.0
  0
LINE
  5
38D
100
AcDbEntity
  8
1
  6
CONTINUOUS
 62
   250
100
AcDbLine
 10
295.13461
 20
187.66044
 30
0.0
 11
295.13461
 21
184.66044
 31
0.0
  0
LINE
  5
38E
100
AcDbEntity
  8
1
  6
CONTINUOUS
 62
   250
100
AcDbLine
 10
299.93462
 20
177.41044
 30
0.0
 11
299.93462
 21
174.86044
 31
0.0
  0
LINE
  5
38F
100
AcDbEntity
  8
1
  6
CONTINUOUS
 62
   250
100
AcDbLine
 10
295.13461
 20
167.66044
 30
0.0
 11
295.13461
 21
164.66044
 31
0.0
  0
LINE
  5
390
100
AcDbEntity
  8
1
  6
CONTINUOUS
 62
   250
100
AcDbLine
 10
288.63461
 20
147.91044
 30
0.0
 11
309.13461
 21
147.91044
 31
0.0
  0
LINE
  5
391
100
AcDbEntity
  8
1
  6
CONTINUOUS
 62
   250
100
AcDbLine
 10
288.63461
 20
156.91044
 30
0.0
 11
309.13461
 21
156.91044
 31
0.0
  0
LINE
  5
392
100
AcDbEntity
  8
1
  6
CONTINUOUS
 62
   250
100
AcDbLine
 10
283.13461
 20
213.91044
 30
0.0
 11
287.63461
 21
213.91044
 31
0.0
  0
LINE
  5
393
100
AcDbEntity
  8
1
  6
CONTINUOUS
 62
   250
100
AcDbLine
 10
357.58461
 20
206.51044
 30
0.0
 11
349.60494
 21
206.51044
 31
0.0
  0
ARC
  5
394
100
AcDbEntity
  8
1
  6
CONTINUOUS
 62
   250
100
AcDbCircle
 10
287.63461
 20
141.91044
 30
0.0
 40
1.0
100
AcDbArc
 50
270.0
 51
0.0
  0
LINE
  5
395
100
AcDbEntity
  8
1
  6
CONTINUOUS
 62
   250
100
AcDbLine
 10
288.63461
 20
203.41044
 30
0.0
 11
288.63461
 21
212.14249
 31
0.0
  0
ARC
  5
396
100
AcDbEntity
  8
1
  6
CONTINUOUS
 62
   250
100
AcDbCircle
 10
287.63461
 20
212.91044
 30
0.0
 40
1.0
100
AcDbArc
 50
0.0
 51
90.0
  0
LINE
  5
397
100
AcDbEntity
  8
1
  6
CONTINUOUS
 62
   250
100
AcDbLine
 10
288.63461
 20
203.41044
 30
0.0
 11
300.63461
 21
203.41044
 31
0.0
  0
LINE
  5
398
100
AcDbEntity
  8
1
  6
CONTINUOUS
 62
   250
100
AcDbLine
 10
300.63461
 20
211.91044
 30
0.0
 11
300.63461
 21
203.41044
 31
0.0
  0
LINE
  5
399
100
AcDbEntity
  8
1
  6
CONTINUOUS
 62
   250
100
AcDbLine
 10
302.63461
 20
213.91044
 30
0.0
 11
315.06914
 21
213.91044
 31
0.0
  0
LINE
  5
39A
100
AcDbEntity
  8
1
  6
CONTINUOUS
 62
   250
100
AcDbLine
 10
286.43462
 20
159.66044
 30
0.0
 11
285.83173
 21
161.91044
 31
0.0
  0
LINE
  5
39B
100
AcDbEntity
  8
1
  6
CONTINUOUS
 62
   250
100
AcDbLine
 10
285.83173
 20
161.91044
 30
0.0
 11
283.09797
 21
159.07955
 31
0.0
  0
LINE
  5
39C
100
AcDbEntity
  8
1
  6
CONTINUOUS
 62
   250
100
AcDbLine
 10
309.13461
 20
207.41044
 30
0.0
 11
309.13461
 21
147.41044
 31
0.0
  0
LINE
  5
39D
100
AcDbEntity
  8
1
  6
CONTINUOUS
 62
   250
100
AcDbLine
 10
309.13461
 20
147.41044
 30
0.0
 11
315.06914
 21
141.04645
 31
0.0
  0
LINE
  5
39E
100
AcDbEntity
  8
1
  6
CONTINUOUS
 62
   250
100
AcDbLine
 10
309.13461
 20
207.41044
 30
0.0
 11
315.06914
 21
213.77444
 31
0.0
  0
LINE
  5
39F
100
AcDbEntity
  8
1
  6
CONTINUOUS
 62
   250
100
AcDbLine
 10
332.63461
 20
140.41044
 30
0.0
 11
316.53185
 21
140.41044
 31
0.0
  0
LINE
  5
3A0
100
AcDbEntity
  8
1
  6
CONTINUOUS
 62
   250
100
AcDbLine
 10
332.63461
 20
214.41044
 30
0.0
 11
316.53185
 21
214.41044
 31
0.0
  0
LINE
  5
3A1
100
AcDbEntity
  8
1
  6
CONTINUOUS
 62
   250
100
AcDbLine
 10
334.63461
 20
212.41044
 30
0.0
 11
334.63461
 21
207.41044
 31
0.0
  0
ARC
  5
3A2
100
AcDbEntity
  8
1
  6
CONTINUOUS
 62
   250
100
AcDbCircle
 10
332.63461
 20
142.41044
 30
0.0
 40
2.0
100
AcDbArc
 50
270.0
 51
0.0
  0
ARC
  5
3A3
100
AcDbEntity
  8
1
  6
CONTINUOUS
 62
   250
100
AcDbCircle
 10
332.63461
 20
212.41044
 30
0.0
 40
2.0
100
AcDbArc
 50
0.0
 51
90.0
  0
ARC
  5
3A4
100
AcDbEntity
  8
1
  6
CONTINUOUS
 62
   250
100
AcDbCircle
 10
316.53185
 20
212.41044
 30
0.0
 40
2.0
100
AcDbArc
 50
90.0
 51
137.0
  0
ARC
  5
3A5
100
AcDbEntity
  8
1
  6
CONTINUOUS
 62
   250
100
AcDbCircle
 10
316.53185
 20
142.41044
 30
0.0
 40
2.0
100
AcDbArc
 50
223.0
 51
270.0
  0
LINE
  5
3A6
100
AcDbEntity
  8
1
  6
CONTINUOUS
 62
   250
100
AcDbLine
 10
347.93462
 20
207.41044
 30
0.0
 11
334.63461
 21
207.41044
 31
0.0
  0
LINE
  5
3A7
100
AcDbEntity
  8
1
  6
CONTINUOUS
 62
   250
100
AcDbLine
 10
347.93462
 20
147.41044
 30
0.0
 11
334.63461
 21
147.41044
 31
0.0
  0
LINE
  5
3A8
100
AcDbEntity
  8
1
  6
CONTINUOUS
 62
   250
100
AcDbLine
 10
349.93462
 20
205.41044
 30
0.0
 11
349.93462
 21
203.81044
 31
0.0
  0
LINE
  5
3A9
100
AcDbEntity
  8
1
  6
CONTINUOUS
 62
   250
100
AcDbLine
 10
351.13461
 20
203.81044
 30
0.0
 11
351.13461
 21
179.61044
 31
0.0
  0
LINE
  5
3AA
100
AcDbEntity
  8
1
  6
CONTINUOUS
 62
   250
100
AcDbLine
 10
334.63461
 20
147.41044
 30
0.0
 11
334.63461
 21
142.41044
 31
0.0
  0
ARC
  5
3AB
100
AcDbEntity
  8
1
  6
CONTINUOUS
 62
   250
100
AcDbCircle
 10
347.93462
 20
149.41044
 30
0.0
 40
2.0
100
AcDbArc
 50
270.0
 51
0.0
  0
ARC
  5
3AC
100
AcDbEntity
  8
1
  6
CONTINUOUS
 62
   250
100
AcDbCircle
 10
347.93462
 20
205.41044
 30
0.0
 40
2.0
100
AcDbArc
 50
0.0
 51
90.0
  0
LINE
  5
3AD
100
AcDbEntity
  8
1
  6
CONTINUOUS
 62
   250
100
AcDbLine
 10
351.13461
 20
199.81044
 30
0.0
 11
349.93462
 21
199.81044
 31
0.0
  0
LINE
  5
3AE
100
AcDbEntity
  8
1
  6
CONTINUOUS
 62
   250
100
AcDbLine
 10
351.13461
 20
155.01044
 30
0.0
 11
349.93462
 21
155.01044
 31
0.0
  0
LINE
  5
3AF
100
AcDbEntity
  8
1
  6
CONTINUOUS
 62
   250
100
AcDbLine
 10
349.93462
 20
155.01044
 30
0.0
 11
349.93462
 21
151.01044
 31
0.0
  0
LINE
  5
3B0
100
AcDbEntity
  8
1
  6
CONTINUOUS
 62
   250
100
AcDbLine
 10
356.13461
 20
163.41044
 30
0.0
 11
351.13461
 21
163.41044
 31
0.0
  0
LINE
  5
3B1
100
AcDbEntity
  8
1
  6
CONTINUOUS
 62
   250
100
AcDbLine
 10
356.13461
 20
171.91044
 30
0.0
 11
351.13461
 21
171.91044
 31
0.0
  0
LINE
  5
3B2
100
AcDbEntity
  8
1
  6
CONTINUOUS
 62
   250
100
AcDbLine
 10
357.13461
 20
170.91044
 30
0.0
 11
357.13461
 21
164.41044
 31
0.0
  0
LINE
  5
3B3
100
AcDbEntity
  8
1
  6
CONTINUOUS
 62
   250
100
AcDbLine
 10
351.13461
 20
163.41044
 30
0.0
 11
351.13461
 21
151.01044
 31
0.0
  0
LINE
  5
3B4
100
AcDbEntity
  8
1
  6
CONTINUOUS
 62
   250
100
AcDbLine
 10
354.33461
 20
171.91044
 30
0.0
 11
354.33461
 21
163.41044
 31
0.0
  0
ARC
  5
3B5
100
AcDbEntity
  8
1
  6
CONTINUOUS
 62
   250
100
AcDbCircle
 10
356.13461
 20
164.41044
 30
0.0
 40
1.0
100
AcDbArc
 50
270.0
 51
0.0
  0
ARC
  5
3B6
100
AcDbEntity
  8
1
  6
CONTINUOUS
 62
   250
100
AcDbCircle
 10
356.13461
 20
170.91044
 30
0.0
 40
1.0
100
AcDbArc
 50
0.0
 51
90.0
  0
LINE
  5
3B7
100
AcDbEntity
  8
1
  6
CONTINUOUS
 62
   250
100
AcDbLine
 10
328.73462
 20
173.91044
 30
0.0
 11
316.73462
 21
173.91044
 31
0.0
  0
LINE
  5
3B8
100
AcDbEntity
  8
1
  6
CONTINUOUS
 62
   250
100
AcDbLine
 10
328.73462
 20
180.91044
 30
0.0
 11
316.73462
 21
180.91044
 31
0.0
  0
LINE
  5
3B9
100
AcDbEntity
  8
1
  6
CONTINUOUS
 62
   250
100
AcDbLine
 10
330.13461
 20
183.41044
 30
0.0
 11
324.13461
 21
183.41044
 31
0.0
  0
LINE
  5
3BA
100
AcDbEntity
  8
1
  6
CONTINUOUS
 62
   250
100
AcDbLine
 10
330.13461
 20
188.41044
 30
0.0
 11
324.13461
 21
188.41044
 31
0.0
  0
LINE
  5
3BB
100
AcDbEntity
  8
1
  6
CONTINUOUS
 62
   250
100
AcDbLine
 10
316.73462
 20
180.91044
 30
0.0
 11
316.73462
 21
173.91044
 31
0.0
  0
LINE
  5
3BC
100
AcDbEntity
  8
1
  6
CONTINUOUS
 62
   250
100
AcDbLine
 10
328.73462
 20
180.91044
 30
0.0
 11
328.73462
 21
173.91044
 31
0.0
  0
LINE
  5
3BD
100
AcDbEntity
  8
1
  6
CONTINUOUS
 62
   250
100
AcDbLine
 10
324.13461
 20
188.41044
 30
0.0
 11
324.13461
 21
183.41044
 31
0.0
  0
LINE
  5
3BE
100
AcDbEntity
  8
1
  6
CONTINUOUS
 62
   250
100
AcDbLine
 10
330.13461
 20
188.41044
 30
0.0
 11
330.13461
 21
183.41044
 31
0.0
  0
LINE
  5
3BF
100
AcDbEntity
  8
1
  6
HIDDEN
 62
   250
100
AcDbLine
 10
338.18462
 20
206.51044
 30
0.0
 11
337.85704
 21
207.41044
 31
0.0
  0
ARC
  5
3C0
100
AcDbEntity
  8
1
  6
CONTINUOUS
 62
   250
100
AcDbCircle
 10
302.63461
 20
211.91044
 30
0.0
 40
2.0
100
AcDbArc
 50
90.0
 51
180.0
  0
CIRCLE
  5
3C1
100
AcDbEntity
  8
1
  6
CONTINUOUS
 62
   250
100
AcDbCircle
 10
129.89633
 20
174.35153
 30
0.0
 40
3.25
  0
CIRCLE
  5
3C2
100
AcDbEntity
  8
1
  6
CONTINUOUS
 62
   250
100
AcDbCircle
 10
119.72235
 20
174.35153
 30
0.0
 40
3.25
  0
CIRCLE
  5
3C3
100
AcDbEntity
  8
1
  6
CONTINUOUS
 62
   250
100
AcDbCircle
 10
109.89633
 20
174.35153
 30
0.0
 40
3.25
  0
CIRCLE
  5
3C4
100
AcDbEntity
  8
1
  6
CONTINUOUS
 62
   250
100
AcDbCircle
 10
99.896327
 20
174.30152
 30
0.0
 40
3.25
  0
CIRCLE
  5
3C5
100
AcDbEntity
  8
1
  6
CONTINUOUS
 62
   250
100
AcDbCircle
 10
99.896327
 20
213.35153
 30
0.0
 40
3.25
  0
CIRCLE
  5
3C6
100
AcDbEntity
  8
1
  6
CONTINUOUS
 62
   250
100
AcDbCircle
 10
109.89633
 20
213.35153
 30
0.0
 40
3.25
  0
CIRCLE
  5
3C7
100
AcDbEntity
  8
1
  6
CONTINUOUS
 62
   250
100
AcDbCircle
 10
119.89633
 20
213.35153
 30
0.0
 40
3.25
  0
CIRCLE
  5
3C8
100
AcDbEntity
  8
1
  6
CONTINUOUS
 62
   250
100
AcDbCircle
 10
129.89633
 20
213.35153
 30
0.0
 40
3.25
  0
LINE
  5
3CD
100
AcDbEntity
  8
1
  6
CONTINUOUS
 62
   250
100
AcDbLine
 10
283.13461
 20
213.91044
 30
0.0
 11
283.13461
 21
193.16044
 31
0.0
  0
LINE
  5
3CE
100
AcDbEntity
  8
1
  6
CONTINUOUS
 62
   250
100
AcDbLine
 10
283.13461
 20
140.91044
 30
0.0
 11
315.06914
 21
140.91044
 31
0.0
  0
LINE
  5
3CF
100
AcDbEntity
  8
1
  6
CONTINUOUS
 62
   250
100
AcDbLine
 10
287.13461
 20
177.41044
 30
0.0
 11
299.93462
 21
177.41044
 31
0.0
  0
LINE
  5
3F8
100
AcDbEntity
  8
1
  6
CONTINUOUS
 62
   250
100
AcDbLine
 10
283.13461
 20
159.1175
 30
0.0
 11
283.13461
 21
140.91044
 31
0.0
  0
ARC
  5
40D
100
AcDbEntity
  8
1
  6
CONTINUOUS
 62
   250
100
AcDbCircle
 10
131.14633
 20
223.55152
 30
0.0
 40
3.5
100
AcDbArc
 50
0.0
 51
180.0
  0
ARC
  5
40E
100
AcDbEntity
  8
1
  6
CONTINUOUS
 62
   250
100
AcDbCircle
 10
131.14633
 20
222.80152
 30
0.0
 40
3.5
100
AcDbArc
 50
180.0
 51
220.0052
  0
ARC
  5
40F
100
AcDbEntity
  8
1
  6
CONTINUOUS
 62
   250
100
AcDbCircle
 10
131.14633
 20
222.80152
 30
0.0
 40
3.5
100
AcDbArc
 50
319.9948
 51
0.0
  0
CIRCLE
  5
410
100
AcDbEntity
  8
1
  6
CONTINUOUS
 62
   250
100
AcDbCircle
 10
110.04633
 20
163.23261
 30
0.0
 40
2.875
  0
CIRCLE
  5
411
100
AcDbEntity
  8
1
  6
CONTINUOUS
 62
   250
100
AcDbCircle
 10
119.74633
 20
224.47044
 30
0.0
 40
2.875
  0
LINE
  5
412
100
AcDbEntity
  8
1
  6
CONTINUOUS
 62
   250
100
AcDbLine
 10
127.64633
 20
164.90152
 30
0.0
 11
127.64633
 21
164.15152
 31
0.0
  0
ARC
  5
413
100
AcDbEntity
  8
1
  6
CONTINUOUS
 62
   250
100
AcDbCircle
 10
131.14633
 20
164.15152
 30
0.0
 40
3.5
100
AcDbArc
 50
180.0
 51
0.0
  0
LINE
  5
414
100
AcDbEntity
  8
1
  6
CONTINUOUS
 62
   250
100
AcDbLine
 10
134.64633
 20
164.90152
 30
0.0
 11
134.64633
 21
164.15152
 31
0.0
  0
ARC
  5
415
100
AcDbEntity
  8
1
  6
CONTINUOUS
 62
   250
100
AcDbCircle
 10
131.14633
 20
164.90152
 30
0.0
 40
3.5
100
AcDbArc
 50
0.0
 51
40.005201
  0
ARC
  5
416
100
AcDbEntity
  8
1
  6
CONTINUOUS
 62
   250
100
AcDbCircle
 10
131.14633
 20
164.90152
 30
0.0
 40
3.5
100
AcDbArc
 50
139.9948
 51
180.0
  0
LINE
  5
417
100
AcDbEntity
  8
1
  6
CONTINUOUS
 62
   250
100
AcDbLine
 10
134.64633
 20
223.55152
 30
0.0
 11
134.64633
 21
222.80152
 31
0.0
  0
LINE
  5
418
100
AcDbEntity
  8
1
  6
CONTINUOUS
 62
   250
100
AcDbLine
 10
127.64633
 20
223.55152
 30
0.0
 11
127.64633
 21
222.80152
 31
0.0
  0
ARC
  5
419
100
AcDbEntity
  8
1
  6
CONTINUOUS
 62
   250
100
AcDbCircle
 10
131.14633
 20
222.93261
 30
0.0
 40
3.25
100
AcDbArc
 50
310.74795
 51
229.25205
  0
ARC
  5
422
100
AcDbEntity
  8
1
  6
CONTINUOUS
 62
   250
100
AcDbCircle
 10
98.646327
 20
222.85153
 30
0.0
 40
3.25
100
AcDbArc
 50
312.8918
 51
227.1082
  0
ARC
  5
42B
100
AcDbEntity
  8
1
  6
CONTINUOUS
 62
   250
100
AcDbCircle
 10
131.14633
 20
164.28261
 30
0.0
 40
3.25
100
AcDbArc
 50
118.0248
 51
61.9752
  0
CIRCLE
  5
434
100
AcDbEntity
  8
1
  6
CONTINUOUS
 62
   250
100
AcDbCircle
 10
119.74633
 20
224.47044
 30
0.0
 40
2.75
  0
CIRCLE
  5
43D
100
AcDbEntity
  8
1
  6
CONTINUOUS
 62
   250
100
AcDbCircle
 10
110.04633
 20
163.23261
 30
0.0
 40
2.75
  0
LINE
  5
446
100
AcDbEntity
  8
1
  6
CONTINUOUS
 62
   250
100
AcDbLine
 10
121.89633
 20
189.05152
 30
0.0
 11
121.89633
 21
196.85153
 31
0.0
  0
LINE
  5
447
100
AcDbEntity
  8
1
  6
CONTINUOUS
 62
   250
100
AcDbLine
 10
117.89633
 20
189.05152
 30
0.0
 11
117.89633
 21
196.85153
 31
0.0
  0
LINE
  5
448
100
AcDbEntity
  8
1
  6
CONTINUOUS
 62
   250
100
AcDbLine
 10
131.89633
 20
189.05152
 30
0.0
 11
131.89633
 21
196.85153
 31
0.0
  0
LINE
  5
449
100
AcDbEntity
  8
1
  6
CONTINUOUS
 62
   250
100
AcDbLine
 10
127.89633
 20
189.05152
 30
0.0
 11
127.89633
 21
196.85153
 31
0.0
  0
LINE
  5
44A
100
AcDbEntity
  8
1
  6
CONTINUOUS
 62
   250
100
AcDbLine
 10
111.89633
 20
189.05152
 30
0.0
 11
111.89633
 21
196.85153
 31
0.0
  0
LINE
  5
44B
100
AcDbEntity
  8
1
  6
CONTINUOUS
 62
   250
100
AcDbLine
 10
107.89633
 20
189.05152
 30
0.0
 11
107.89633
 21
196.85153
 31
0.0
  0
LINE
  5
44C
100
AcDbEntity
  8
1
  6
CONTINUOUS
 62
   250
100
AcDbLine
 10
101.89633
 20
189.05152
 30
0.0
 11
101.89633
 21
196.85153
 31
0.0
  0
LINE
  5
44D
100
AcDbEntity
  8
1
  6
CONTINUOUS
 62
   250
100
AcDbLine
 10
97.896327
 20
189.05152
 30
0.0
 11
97.896327
 21
196.85153
 31
0.0
  0
LINE
  5
44E
100
AcDbEntity
  8
1
  6
CONTINUOUS
 62
   250
100
AcDbLine
 10
136.89633
 20
156.85153
 30
0.0
 11
135.39633
 21
156.85153
 31
0.0
  0
LINE
  5
44F
100
AcDbEntity
  8
1
  6
CONTINUOUS
 62
   250
100
AcDbLine
 10
136.89633
 20
230.85153
 30
0.0
 11
135.39633
 21
230.85153
 31
0.0
  0
LINE
  5
450
100
AcDbEntity
  8
1
  6
CONTINUOUS
 62
   250
100
AcDbLine
 10
136.89633
 20
156.85153
 30
0.0
 11
136.89633
 21
230.85153
 31
0.0
  0
LINE
  5
451
100
AcDbEntity
  8
1
  6
CONTINUOUS
 62
   250
100
AcDbLine
 10
92.896327
 20
156.85153
 30
0.0
 11
92.896327
 21
230.85153
 31
0.0
  0
LINE
  5
452
100
AcDbEntity
  8
1
  6
CONTINUOUS
 62
   250
100
AcDbLine
 10
135.29633
 20
189.05152
 30
0.0
 11
125.29633
 21
189.05152
 31
0.0
  0
LINE
  5
453
100
AcDbEntity
  8
1
  6
CONTINUOUS
 62
   250
100
AcDbLine
 10
135.29633
 20
196.85153
 30
0.0
 11
125.29633
 21
196.85153
 31
0.0
  0
LINE
  5
454
100
AcDbEntity
  8
1
  6
CONTINUOUS
 62
   250
100
AcDbLine
 10
94.496327
 20
189.05152
 30
0.0
 11
94.496327
 21
196.85153
 31
0.0
  0
LINE
  5
455
100
AcDbEntity
  8
1
  6
CONTINUOUS
 62
   250
100
AcDbLine
 10
135.29633
 20
189.05152
 30
0.0
 11
135.29633
 21
196.85153
 31
0.0
  0
LINE
  5
456
100
AcDbEntity
  8
1
  6
CONTINUOUS
 62
   250
100
AcDbLine
 10
125.29633
 20
189.05152
 30
0.0
 11
125.29633
 21
196.85153
 31
0.0
  0
LINE
  5
457
100
AcDbEntity
  8
1
  6
CONTINUOUS
 62
   250
100
AcDbLine
 10
104.49633
 20
189.05152
 30
0.0
 11
104.49633
 21
196.85153
 31
0.0
  0
LINE
  5
458
100
AcDbEntity
  8
1
  6
CONTINUOUS
 62
   250
100
AcDbLine
 10
106.09633
 20
189.05152
 30
0.0
 11
106.09633
 21
196.85153
 31
0.0
  0
LINE
  5
459
100
AcDbEntity
  8
1
  6
CONTINUOUS
 62
   250
100
AcDbLine
 10
123.69633
 20
189.05152
 30
0.0
 11
123.69633
 21
196.85153
 31
0.0
  0
LINE
  5
45A
100
AcDbEntity
  8
1
  6
CONTINUOUS
 62
   250
100
AcDbLine
 10
113.89633
 20
189.05152
 30
0.0
 11
113.89633
 21
196.85153
 31
0.0
  0
LINE
  5
45B
100
AcDbEntity
  8
1
  6
CONTINUOUS
 62
   250
100
AcDbLine
 10
115.89633
 20
189.05152
 30
0.0
 11
115.89633
 21
196.85153
 31
0.0
  0
LINE
  5
45C
100
AcDbEntity
  8
1
  6
CONTINUOUS
 62
   250
100
AcDbLine
 10
123.69633
 20
189.05152
 30
0.0
 11
115.89633
 21
189.05152
 31
0.0
  0
LINE
  5
45D
100
AcDbEntity
  8
1
  6
CONTINUOUS
 62
   250
100
AcDbLine
 10
123.69633
 20
196.85153
 30
0.0
 11
115.89633
 21
196.85153
 31
0.0
  0
LINE
  5
45E
100
AcDbEntity
  8
1
  6
CONTINUOUS
 62
   250
100
AcDbLine
 10
113.89633
 20
189.05152
 30
0.0
 11
106.09633
 21
189.05152
 31
0.0
  0
LINE
  5
45F
100
AcDbEntity
  8
1
  6
CONTINUOUS
 62
   250
100
AcDbLine
 10
113.89633
 20
196.85153
 30
0.0
 11
106.09633
 21
196.85153
 31
0.0
  0
LINE
  5
460
100
AcDbEntity
  8
1
  6
CONTINUOUS
 62
   250
100
AcDbLine
 10
104.49633
 20
189.05152
 30
0.0
 11
94.496327
 21
189.05152
 31
0.0
  0
LINE
  5
461
100
AcDbEntity
  8
1
  6
CONTINUOUS
 62
   250
100
AcDbLine
 10
104.49633
 20
196.85153
 30
0.0
 11
94.496327
 21
196.85153
 31
0.0
  0
LINE
  5
462
100
AcDbEntity
  8
1
  6
CONTINUOUS
 62
   250
100
AcDbLine
 10
133.09633
 20
179.85153
 30
0.0
 11
133.09633
 21
188.35153
 31
0.0
  0
LINE
  5
463
100
AcDbEntity
  8
1
  6
CONTINUOUS
 62
   250
100
AcDbLine
 10
126.69633
 20
179.85153
 30
0.0
 11
126.69633
 21
188.35153
 31
0.0
  0
LINE
  5
464
100
AcDbEntity
  8
1
  6
CONTINUOUS
 62
   250
100
AcDbLine
 10
123.09633
 20
179.85153
 30
0.0
 11
123.09633
 21
188.35153
 31
0.0
  0
LINE
  5
465
100
AcDbEntity
  8
1
  6
CONTINUOUS
 62
   250
100
AcDbLine
 10
116.69633
 20
179.85153
 30
0.0
 11
116.69633
 21
188.28029
 31
0.0
  0
LINE
  5
466
100
AcDbEntity
  8
1
  6
CONTINUOUS
 62
   250
100
AcDbLine
 10
113.09633
 20
179.85153
 30
0.0
 11
113.09633
 21
188.35153
 31
0.0
  0
LINE
  5
467
100
AcDbEntity
  8
1
  6
CONTINUOUS
 62
   250
100
AcDbLine
 10
106.69633
 20
179.85153
 30
0.0
 11
106.69633
 21
188.35153
 31
0.0
  0
LINE
  5
468
100
AcDbEntity
  8
1
  6
CONTINUOUS
 62
   250
100
AcDbLine
 10
96.696327
 20
179.85153
 30
0.0
 11
96.696327
 21
188.35153
 31
0.0
  0
LINE
  5
469
100
AcDbEntity
  8
1
  6
CONTINUOUS
 62
   250
100
AcDbLine
 10
133.09633
 20
188.35153
 30
0.0
 11
126.69633
 21
188.35153
 31
0.0
  0
LINE
  5
46A
100
AcDbEntity
  8
1
  6
CONTINUOUS
 62
   250
100
AcDbLine
 10
133.89633
 20
179.85153
 30
0.0
 11
125.89633
 21
179.85153
 31
0.0
  0
LINE
  5
46B
100
AcDbEntity
  8
1
  6
CONTINUOUS
 62
   250
100
AcDbLine
 10
123.89633
 20
179.85153
 30
0.0
 11
115.89633
 21
179.85153
 31
0.0
  0
LINE
  5
46C
100
AcDbEntity
  8
1
  6
CONTINUOUS
 62
   250
100
AcDbLine
 10
113.89633
 20
179.85153
 30
0.0
 11
105.89633
 21
179.85153
 31
0.0
  0
LINE
  5
46D
100
AcDbEntity
  8
1
  6
CONTINUOUS
 62
   250
100
AcDbLine
 10
103.09633
 20
179.85153
 30
0.0
 11
103.09633
 21
188.35153
 31
0.0
  0
LINE
  5
46E
100
AcDbEntity
  8
1
  6
CONTINUOUS
 62
   250
100
AcDbLine
 10
123.09633
 20
188.35153
 30
0.0
 11
116.69633
 21
188.35153
 31
0.0
  0
LINE
  5
46F
100
AcDbEntity
  8
1
  6
CONTINUOUS
 62
   250
100
AcDbLine
 10
113.09633
 20
188.35153
 30
0.0
 11
106.69633
 21
188.35153
 31
0.0
  0
LINE
  5
470
100
AcDbEntity
  8
1
  6
CONTINUOUS
 62
   250
100
AcDbLine
 10
103.09633
 20
188.35153
 30
0.0
 11
96.696327
 21
188.35153
 31
0.0
  0
LINE
  5
471
100
AcDbEntity
  8
1
  6
CONTINUOUS
 62
   250
100
AcDbLine
 10
103.89633
 20
179.85153
 30
0.0
 11
95.896327
 21
179.85153
 31
0.0
  0
LINE
  5
472
100
AcDbEntity
  8
1
  6
CONTINUOUS
 62
   250
100
AcDbLine
 10
133.89633
 20
170.35153
 30
0.0
 11
133.89633
 21
179.85153
 31
0.0
  0
LINE
  5
473
100
AcDbEntity
  8
1
  6
CONTINUOUS
 62
   250
100
AcDbLine
 10
125.89633
 20
170.35153
 30
0.0
 11
125.89633
 21
179.85153
 31
0.0
  0
LINE
  5
474
100
AcDbEntity
  8
1
  6
CONTINUOUS
 62
   250
100
AcDbLine
 10
123.89633
 20
170.35153
 30
0.0
 11
123.89633
 21
179.85153
 31
0.0
  0
LINE
  5
475
100
AcDbEntity
  8
1
  6
CONTINUOUS
 62
   250
100
AcDbLine
 10
115.89633
 20
170.35153
 30
0.0
 11
115.89633
 21
179.85153
 31
0.0
  0
LINE
  5
476
100
AcDbEntity
  8
1
  6
CONTINUOUS
 62
   250
100
AcDbLine
 10
113.89633
 20
170.35153
 30
0.0
 11
113.89633
 21
179.85153
 31
0.0
  0
LINE
  5
477
100
AcDbEntity
  8
1
  6
CONTINUOUS
 62
   250
100
AcDbLine
 10
105.89633
 20
170.35153
 30
0.0
 11
105.89633
 21
179.85153
 31
0.0
  0
LINE
  5
478
100
AcDbEntity
  8
1
  6
CONTINUOUS
 62
   250
100
AcDbLine
 10
103.89633
 20
170.35153
 30
0.0
 11
103.89633
 21
179.85153
 31
0.0
  0
LINE
  5
479
100
AcDbEntity
  8
1
  6
CONTINUOUS
 62
   250
100
AcDbLine
 10
95.896327
 20
170.35153
 30
0.0
 11
95.896327
 21
179.89547
 31
0.0
  0
LINE
  5
47A
100
AcDbEntity
  8
1
  6
CONTINUOUS
 62
   250
100
AcDbLine
 10
133.89633
 20
170.35153
 30
0.0
 11
125.89633
 21
170.35153
 31
0.0
  0
LINE
  5
47B
100
AcDbEntity
  8
1
  6
CONTINUOUS
 62
   250
100
AcDbLine
 10
123.89633
 20
170.35153
 30
0.0
 11
115.89633
 21
170.35153
 31
0.0
  0
LINE
  5
47C
100
AcDbEntity
  8
1
  6
CONTINUOUS
 62
   250
100
AcDbLine
 10
113.89633
 20
170.35153
 30
0.0
 11
105.89633
 21
170.35153
 31
0.0
  0
LINE
  5
47D
100
AcDbEntity
  8
1
  6
CONTINUOUS
 62
   250
100
AcDbLine
 10
103.89633
 20
170.35153
 30
0.0
 11
95.896327
 21
170.35153
 31
0.0
  0
LINE
  5
47E
100
AcDbEntity
  8
1
  6
CONTINUOUS
 62
   250
100
AcDbLine
 10
133.89633
 20
217.27044
 30
0.0
 11
125.89633
 21
217.27044
 31
0.0
  0
LINE
  5
47F
100
AcDbEntity
  8
1
  6
CONTINUOUS
 62
   250
100
AcDbLine
 10
125.89633
 20
207.77044
 30
0.0
 11
125.89633
 21
217.27044
 31
0.0
  0
LINE
  5
480
100
AcDbEntity
  8
1
  6
CONTINUOUS
 62
   250
100
AcDbLine
 10
133.89633
 20
207.77044
 30
0.0
 11
125.89633
 21
207.77044
 31
0.0
  0
LINE
  5
481
100
AcDbEntity
  8
1
  6
CONTINUOUS
 62
   250
100
AcDbLine
 10
133.89633
 20
207.77044
 30
0.0
 11
133.89633
 21
217.27044
 31
0.0
  0
LINE
  5
482
100
AcDbEntity
  8
1
  6
CONTINUOUS
 62
   250
100
AcDbLine
 10
123.89633
 20
217.27044
 30
0.0
 11
115.89633
 21
217.27044
 31
0.0
  0
LINE
  5
483
100
AcDbEntity
  8
1
  6
CONTINUOUS
 62
   250
100
AcDbLine
 10
115.89633
 20
207.77044
 30
0.0
 11
115.89633
 21
217.27044
 31
0.0
  0
LINE
  5
484
100
AcDbEntity
  8
1
  6
CONTINUOUS
 62
   250
100
AcDbLine
 10
123.89633
 20
207.77044
 30
0.0
 11
115.89633
 21
207.77044
 31
0.0
  0
LINE
  5
485
100
AcDbEntity
  8
1
  6
CONTINUOUS
 62
   250
100
AcDbLine
 10
123.89633
 20
207.77044
 30
0.0
 11
123.89633
 21
217.27044
 31
0.0
  0
LINE
  5
486
100
AcDbEntity
  8
1
  6
CONTINUOUS
 62
   250
100
AcDbLine
 10
113.89633
 20
217.27044
 30
0.0
 11
105.89633
 21
217.27044
 31
0.0
  0
LINE
  5
487
100
AcDbEntity
  8
1
  6
CONTINUOUS
 62
   250
100
AcDbLine
 10
105.89633
 20
207.77044
 30
0.0
 11
105.89633
 21
217.27044
 31
0.0
  0
LINE
  5
488
100
AcDbEntity
  8
1
  6
CONTINUOUS
 62
   250
100
AcDbLine
 10
113.89633
 20
207.77044
 30
0.0
 11
105.89633
 21
207.77044
 31
0.0
  0
LINE
  5
489
100
AcDbEntity
  8
1
  6
CONTINUOUS
 62
   250
100
AcDbLine
 10
113.89633
 20
207.77044
 30
0.0
 11
113.89633
 21
217.27044
 31
0.0
  0
LINE
  5
48A
100
AcDbEntity
  8
1
  6
CONTINUOUS
 62
   250
100
AcDbLine
 10
103.89633
 20
217.27044
 30
0.0
 11
95.896327
 21
217.27044
 31
0.0
  0
LINE
  5
48B
100
AcDbEntity
  8
1
  6
CONTINUOUS
 62
   250
100
AcDbLine
 10
95.896327
 20
207.77044
 30
0.0
 11
95.896327
 21
217.31439
 31
0.0
  0
LINE
  5
48C
100
AcDbEntity
  8
1
  6
CONTINUOUS
 62
   250
100
AcDbLine
 10
103.89633
 20
207.77044
 30
0.0
 11
95.896327
 21
207.77044
 31
0.0
  0
LINE
  5
48D
100
AcDbEntity
  8
1
  6
CONTINUOUS
 62
   250
100
AcDbLine
 10
103.89633
 20
207.77044
 30
0.0
 11
103.89633
 21
217.27044
 31
0.0
  0
LINE
  5
48E
100
AcDbEntity
  8
1
  6
CONTINUOUS
 62
   250
100
AcDbLine
 10
131.89633
 20
203.27044
 30
0.0
 11
131.89633
 21
205.27044
 31
0.0
  0
LINE
  5
48F
100
AcDbEntity
  8
1
  6
CONTINUOUS
 62
   250
100
AcDbLine
 10
127.89633
 20
203.27044
 30
0.0
 11
127.89633
 21
205.27044
 31
0.0
  0
LINE
  5
490
100
AcDbEntity
  8
1
  6
CONTINUOUS
 62
   250
100
AcDbLine
 10
121.89633
 20
203.27044
 30
0.0
 11
121.89633
 21
205.27044
 31
0.0
  0
LINE
  5
491
100
AcDbEntity
  8
1
  6
CONTINUOUS
 62
   250
100
AcDbLine
 10
117.89633
 20
203.27044
 30
0.0
 11
117.89633
 21
205.27044
 31
0.0
  0
LINE
  5
492
100
AcDbEntity
  8
1
  6
CONTINUOUS
 62
   250
100
AcDbLine
 10
111.89633
 20
203.27044
 30
0.0
 11
111.89633
 21
205.27044
 31
0.0
  0
LINE
  5
493
100
AcDbEntity
  8
1
  6
CONTINUOUS
 62
   250
100
AcDbLine
 10
107.89633
 20
203.27044
 30
0.0
 11
107.89633
 21
205.27044
 31
0.0
  0
LINE
  5
494
100
AcDbEntity
  8
1
  6
CONTINUOUS
 62
   250
100
AcDbLine
 10
101.89633
 20
203.27044
 30
0.0
 11
101.89633
 21
205.27044
 31
0.0
  0
LINE
  5
495
100
AcDbEntity
  8
1
  6
CONTINUOUS
 62
   250
100
AcDbLine
 10
97.896327
 20
203.27044
 30
0.0
 11
97.896327
 21
205.27044
 31
0.0
  0
LINE
  5
496
100
AcDbEntity
  8
1
  6
CONTINUOUS
 62
   250
100
AcDbLine
 10
131.89633
 20
205.27044
 30
0.0
 11
127.89633
 21
205.27044
 31
0.0
  0
LINE
  5
497
100
AcDbEntity
  8
1
  6
CONTINUOUS
 62
   250
100
AcDbLine
 10
131.89633
 20
203.27044
 30
0.0
 11
127.89633
 21
203.27044
 31
0.0
  0
LINE
  5
498
100
AcDbEntity
  8
1
  6
CONTINUOUS
 62
   250
100
AcDbLine
 10
121.89633
 20
203.27044
 30
0.0
 11
117.89633
 21
203.27044
 31
0.0
  0
LINE
  5
499
100
AcDbEntity
  8
1
  6
CONTINUOUS
 62
   250
100
AcDbLine
 10
111.89633
 20
203.27044
 30
0.0
 11
107.89633
 21
203.27044
 31
0.0
  0
LINE
  5
49A
100
AcDbEntity
  8
1
  6
CONTINUOUS
 62
   250
100
AcDbLine
 10
101.89633
 20
203.27044
 30
0.0
 11
97.896327
 21
203.27044
 31
0.0
  0
LINE
  5
49B
100
AcDbEntity
  8
1
  6
CONTINUOUS
 62
   250
100
AcDbLine
 10
101.89633
 20
205.27044
 30
0.0
 11
97.896327
 21
205.27044
 31
0.0
  0
LINE
  5
49C
100
AcDbEntity
  8
1
  6
CONTINUOUS
 62
   250
100
AcDbLine
 10
111.89633
 20
205.27044
 30
0.0
 11
107.89633
 21
205.27044
 31
0.0
  0
LINE
  5
49D
100
AcDbEntity
  8
1
  6
CONTINUOUS
 62
   250
100
AcDbLine
 10
121.89633
 20
205.27044
 30
0.0
 11
117.89633
 21
205.27044
 31
0.0
  0
LINE
  5
49E
100
AcDbEntity
  8
1
  6
CONTINUOUS
 62
   250
100
AcDbLine
 10
136.89633
 20
167.15152
 30
0.0
 11
92.896327
 21
167.15152
 31
0.0
  0
LINE
  5
49F
100
AcDbEntity
  8
1
  6
CONTINUOUS
 62
   250
100
AcDbLine
 10
136.89633
 20
220.47044
 30
0.0
 11
92.896327
 21
220.47044
 31
0.0
  0
LINE
  5
4A0
100
AcDbEntity
  8
1
  6
CONTINUOUS
 62
   250
100
AcDbLine
 10
136.89633
 20
171.35153
 30
0.0
 11
133.89633
 21
171.35153
 31
0.0
  0
LINE
  5
4A1
100
AcDbEntity
  8
1
  6
CONTINUOUS
 62
   250
100
AcDbLine
 10
136.89633
 20
216.27044
 30
0.0
 11
133.89633
 21
216.27044
 31
0.0
  0
LINE
  5
4A2
100
AcDbEntity
  8
1
  6
CONTINUOUS
 62
   250
100
AcDbLine
 10
125.89633
 20
216.27044
 30
0.0
 11
123.89633
 21
216.27044
 31
0.0
  0
LINE
  5
4A3
100
AcDbEntity
  8
1
  6
CONTINUOUS
 62
   250
100
AcDbLine
 10
115.89633
 20
216.27044
 30
0.0
 11
113.89633
 21
216.27044
 31
0.0
  0
LINE
  5
4A4
100
AcDbEntity
  8
1
  6
CONTINUOUS
 62
   250
100
AcDbLine
 10
105.89633
 20
216.27044
 30
0.0
 11
103.89633
 21
216.27044
 31
0.0
  0
LINE
  5
4A5
100
AcDbEntity
  8
1
  6
CONTINUOUS
 62
   250
100
AcDbLine
 10
95.896327
 20
216.27044
 30
0.0
 11
92.896327
 21
216.27044
 31
0.0
  0
LINE
  5
4A6
100
AcDbEntity
  8
1
  6
CONTINUOUS
 62
   250
100
AcDbLine
 10
95.896327
 20
171.35153
 30
0.0
 11
92.896327
 21
171.35153
 31
0.0
  0
LINE
  5
4A7
100
AcDbEntity
  8
1
  6
CONTINUOUS
 62
   250
100
AcDbLine
 10
105.89633
 20
171.35153
 30
0.0
 11
103.89633
 21
171.35153
 31
0.0
  0
LINE
  5
4A8
100
AcDbEntity
  8
1
  6
CONTINUOUS
 62
   250
100
AcDbLine
 10
115.89633
 20
171.35153
 30
0.0
 11
113.89633
 21
171.35153
 31
0.0
  0
LINE
  5
4A9
100
AcDbEntity
  8
1
  6
CONTINUOUS
 62
   250
100
AcDbLine
 10
125.89633
 20
171.35153
 30
0.0
 11
123.89633
 21
171.35153
 31
0.0
  0
LINE
  5
4AA
100
AcDbEntity
  8
1
  6
CONTINUOUS
 62
   250
100
AcDbLine
 10
135.39633
 20
156.85153
 30
0.0
 11
135.39633
 21
157.40152
 31
0.0
  0
LINE
  5
4AB
100
AcDbEntity
  8
1
  6
CONTINUOUS
 62
   250
100
AcDbLine
 10
94.396327
 20
156.85153
 30
0.0
 11
94.396327
 21
157.40152
 31
0.0
  0
LINE
  5
4AC
100
AcDbEntity
  8
1
  6
CONTINUOUS
 62
   250
100
AcDbLine
 10
135.39633
 20
220.47044
 30
0.0
 11
135.39633
 21
230.30152
 31
0.0
  0
LINE
  5
4AD
100
AcDbEntity
  8
1
  6
CONTINUOUS
 62
   250
100
AcDbLine
 10
94.396327
 20
220.47044
 30
0.0
 11
94.396327
 21
230.30152
 31
0.0
  0
LINE
  5
4AE
100
AcDbEntity
  8
1
  6
CONTINUOUS
 62
   250
100
AcDbLine
 10
125.49633
 20
164.25152
 30
0.0
 11
124.29633
 21
164.25152
 31
0.0
  0
LINE
  5
4AF
100
AcDbEntity
  8
1
  6
CONTINUOUS
 62
   250
100
AcDbLine
 10
125.49633
 20
223.45153
 30
0.0
 11
124.29633
 21
223.45153
 31
0.0
  0
LINE
  5
4B0
100
AcDbEntity
  8
1
  6
CONTINUOUS
 62
   250
100
AcDbLine
 10
125.49633
 20
164.25152
 30
0.0
 11
125.49633
 21
167.15152
 31
0.0
  0
LINE
  5
4B1
100
AcDbEntity
  8
1
  6
CONTINUOUS
 62
   250
100
AcDbLine
 10
124.29633
 20
164.25152
 30
0.0
 11
124.29633
 21
167.15152
 31
0.0
  0
LINE
  5
4B2
100
AcDbEntity
  8
1
  6
CONTINUOUS
 62
   250
100
AcDbLine
 10
115.49633
 20
164.25152
 30
0.0
 11
115.49633
 21
167.15152
 31
0.0
  0
LINE
  5
4B3
100
AcDbEntity
  8
1
  6
CONTINUOUS
 62
   250
100
AcDbLine
 10
114.29633
 20
164.25152
 30
0.0
 11
114.29633
 21
167.15152
 31
0.0
  0
LINE
  5
4B4
100
AcDbEntity
  8
1
  6
CONTINUOUS
 62
   250
100
AcDbLine
 10
105.49633
 20
164.25152
 30
0.0
 11
105.49633
 21
167.15152
 31
0.0
  0
LINE
  5
4B5
100
AcDbEntity
  8
1
  6
CONTINUOUS
 62
   250
100
AcDbLine
 10
104.29633
 20
164.25152
 30
0.0
 11
104.29633
 21
167.15152
 31
0.0
  0
LINE
  5
4B6
100
AcDbEntity
  8
1
  6
CONTINUOUS
 62
   250
100
AcDbLine
 10
104.29633
 20
220.47044
 30
0.0
 11
104.29633
 21
223.45153
 31
0.0
  0
LINE
  5
4B7
100
AcDbEntity
  8
1
  6
CONTINUOUS
 62
   250
100
AcDbLine
 10
105.49633
 20
220.47044
 30
0.0
 11
105.49633
 21
223.45153
 31
0.0
  0
LINE
  5
4B8
100
AcDbEntity
  8
1
  6
CONTINUOUS
 62
   250
100
AcDbLine
 10
114.29633
 20
220.47044
 30
0.0
 11
114.29633
 21
223.45153
 31
0.0
  0
LINE
  5
4B9
100
AcDbEntity
  8
1
  6
CONTINUOUS
 62
   250
100
AcDbLine
 10
115.49633
 20
220.47044
 30
0.0
 11
115.49633
 21
223.45153
 31
0.0
  0
LINE
  5
4BA
100
AcDbEntity
  8
1
  6
CONTINUOUS
 62
   250
100
AcDbLine
 10
124.29633
 20
220.47044
 30
0.0
 11
124.29633
 21
223.45153
 31
0.0
  0
LINE
  5
4BB
100
AcDbEntity
  8
1
  6
CONTINUOUS
 62
   250
100
AcDbLine
 10
125.49633
 20
220.47044
 30
0.0
 11
125.49633
 21
223.45153
 31
0.0
  0
LINE
  5
4BC
100
AcDbEntity
  8
1
  6
CONTINUOUS
 62
   250
100
AcDbLine
 10
115.49633
 20
164.25152
 30
0.0
 11
114.29633
 21
164.25152
 31
0.0
  0
LINE
  5
4BD
100
AcDbEntity
  8
1
  6
CONTINUOUS
 62
   250
100
AcDbLine
 10
105.49633
 20
164.25152
 30
0.0
 11
104.29633
 21
164.25152
 31
0.0
  0
LINE
  5
4BE
100
AcDbEntity
  8
1
  6
CONTINUOUS
 62
   250
100
AcDbLine
 10
115.49633
 20
223.45153
 30
0.0
 11
114.29633
 21
223.45153
 31
0.0
  0
LINE
  5
4BF
100
AcDbEntity
  8
1
  6
CONTINUOUS
 62
   250
100
AcDbLine
 10
105.49633
 20
223.45153
 30
0.0
 11
104.29633
 21
223.45153
 31
0.0
  0
LINE
  5
4C0
100
AcDbEntity
  8
1
  6
CONTINUOUS
 62
   250
100
AcDbLine
 10
94.396327
 20
156.85153
 30
0.0
 11
92.896327
 21
156.85153
 31
0.0
  0
LINE
  5
4C1
100
AcDbEntity
  8
1
  6
CONTINUOUS
 62
   250
100
AcDbLine
 10
94.396327
 20
230.85153
 30
0.0
 11
92.896327
 21
230.85153
 31
0.0
  0
LINE
  5
4C2
100
AcDbEntity
  8
1
  6
CONTINUOUS
 62
   250
100
AcDbLine
 10
135.39633
 20
158.15152
 30
0.0
 11
94.396327
 21
158.15152
 31
0.0
  0
LINE
  5
4C3
100
AcDbEntity
  8
1
  6
CONTINUOUS
 62
   250
100
AcDbLine
 10
135.39633
 20
229.47044
 30
0.0
 11
94.396327
 21
229.47044
 31
0.0
  0
LINE
  5
4C4
100
AcDbEntity
  8
1
  6
CONTINUOUS
 62
   250
100
AcDbLine
 10
135.39633
 20
157.40152
 30
0.0
 11
94.396327
 21
157.40152
 31
0.0
  0
LINE
  5
4C5
100
AcDbEntity
  8
1
  6
CONTINUOUS
 62
   250
100
AcDbLine
 10
135.39633
 20
230.30152
 30
0.0
 11
94.396327
 21
230.30152
 31
0.0
  0
LINE
  5
4C6
100
AcDbEntity
  8
1
  6
CONTINUOUS
 62
   250
100
AcDbLine
 10
102.99633
 20
157.40152
 30
0.0
 11
102.99633
 21
158.15152
 31
0.0
  0
LINE
  5
4C7
100
AcDbEntity
  8
1
  6
CONTINUOUS
 62
   250
100
AcDbLine
 10
126.79633
 20
157.40152
 30
0.0
 11
126.79633
 21
158.15152
 31
0.0
  0
LINE
  5
4C8
100
AcDbEntity
  8
1
  6
CONTINUOUS
 62
   250
100
AcDbLine
 10
126.79633
 20
229.47044
 30
0.0
 11
126.79633
 21
230.30152
 31
0.0
  0
LINE
  5
4C9
100
AcDbEntity
  8
1
  6
CONTINUOUS
 62
   250
100
AcDbLine
 10
102.99633
 20
229.47044
 30
0.0
 11
102.99633
 21
230.30152
 31
0.0
  0
ARC
  5
4CA
100
AcDbEntity
  8
1
  6
CONTINUOUS
 62
   250
100
AcDbCircle
 10
98.646327
 20
222.72044
 30
0.0
 40
3.5
100
AcDbArc
 50
180.0
 51
220.0052
  0
ARC
  5
4CB
100
AcDbEntity
  8
1
  6
CONTINUOUS
 62
   250
100
AcDbCircle
 10
98.646327
 20
223.47044
 30
0.0
 40
3.5
100
AcDbArc
 50
0.0
 51
180.0
  0
ARC
  5
4CC
100
AcDbEntity
  8
1
  6
CONTINUOUS
 62
   250
100
AcDbCircle
 10
98.646327
 20
222.72044
 30
0.0
 40
3.5
100
AcDbArc
 50
319.9948
 51
0.0
  0
LINE
  5
4CD
100
AcDbEntity
  8
1
  6
CONTINUOUS
 62
   250
100
AcDbLine
 10
102.14633
 20
223.47044
 30
0.0
 11
102.14633
 21
222.72044
 31
0.0
  0
LINE
  5
4CE
100
AcDbEntity
  8
1
  6
CONTINUOUS
 62
   250
100
AcDbLine
 10
95.146327
 20
223.47044
 30
0.0
 11
95.146327
 21
222.72044
 31
0.0
  0
LINE
  5
4CF
100
AcDbEntity
  8
1
  6
HIDDEN
 62
   250
100
AcDbLine
 10
95.536084
 20
118.42853
 30
0.0
 11
133.53608
 21
118.42853
 31
0.0
  0
LINE
  5
4D0
100
AcDbEntity
  8
1
  6
HIDDEN
 62
   250
100
AcDbLine
 10
95.536084
 20
45.428533
 30
0.0
 11
133.53608
 21
45.428533
 31
0.0
  0
LINE
  5
4D1
100
AcDbEntity
  8
1
  6
HIDDEN
 62
   250
100
AcDbLine
 10
92.536084
 20
115.42853
 30
0.0
 11
92.536084
 21
48.428533
 31
0.0
  0
LINE
  5
4D2
100
AcDbEntity
  8
1
  6
HIDDEN
 62
   250
100
AcDbLine
 10
136.53608
 20
115.42853
 30
0.0
 11
136.53608
 21
48.428533
 31
0.0
  0
ARC
  5
4D3
100
AcDbEntity
  8
1
  6
HIDDEN
 62
   250
100
AcDbCircle
 10
133.53608
 20
115.42853
 30
0.0
 40
3.0
100
AcDbArc
 50
0.0
 51
90.0
  0
ARC
  5
4D4
100
AcDbEntity
  8
1
  6
HIDDEN
 62
   250
100
AcDbCircle
 10
95.536084
 20
115.42853
 30
0.0
 40
3.0
100
AcDbArc
 50
90.0
 51
180.0
  0
ARC
  5
4D5
100
AcDbEntity
  8
1
  6
HIDDEN
 62
   250
100
AcDbCircle
 10
95.536084
 20
48.428533
 30
0.0
 40
3.0
100
AcDbArc
 50
180.0
 51
270.0
  0
ARC
  5
4D6
100
AcDbEntity
  8
1
  6
HIDDEN
 62
   250
100
AcDbCircle
 10
133.53608
 20
48.428533
 30
0.0
 40
3.0
100
AcDbArc
 50
270.0
 51
0.0
  0
LINE
  5
4D7
100
AcDbEntity
  8
1
  6
CENTERLINE
 62
   250
100
AcDbLine
 10
85.933637
 20
106.92853
 30
0.0
 11
138.8447
 21
106.92853
 31
0.0
  0
ARC
  5
4D8
100
AcDbEntity
  8
1
  6
CONTINUOUS
 62
   250
100
AcDbCircle
 10
129.89633
 20
213.97044
 30
0.0
 40
3.35
100
AcDbArc
 50
0.0
 51
180.0
  0
LINE
  5
4D9
100
AcDbEntity
  8
1
  6
CENTERLINE
 62
   250
100
AcDbLine
 10
85.933637
 20
56.928533
 30
0.0
 11
138.8447
 21
56.928533
 31
0.0
  0
LINE
  5
4DA
100
AcDbEntity
  8
1
  6
CENTERLINE
 62
   250
100
AcDbLine
 10
90.010735
 20
111.92853
 30
0.0
 11
138.8447
 21
111.92853
 31
0.0
  0
ARC
  5
4DB
100
AcDbEntity
  8
1
  6
CONTINUOUS
 62
   250
100
AcDbCircle
 10
119.89633
 20
213.97044
 30
0.0
 40
3.35
100
AcDbArc
 50
0.0
 51
180.0
  0
LINE
  5
4DC
100
AcDbEntity
  8
1
  6
CENTERLINE
 62
   250
100
AcDbLine
 10
90.010735
 20
51.928533
 30
0.0
 11
138.8447
 21
51.928533
 31
0.0
  0
ARC
  5
4DD
100
AcDbEntity
  8
1
  6
CONTINUOUS
 62
   250
100
AcDbCircle
 10
109.89633
 20
213.97044
 30
0.0
 40
3.35
100
AcDbArc
 50
0.0
 51
180.0
  0
LINE
  5
4DE
100
AcDbEntity
  8
1
  6
CENTERLINE
 62
   250
100
AcDbLine
 10
97.036084
 20
122.82644
 30
0.0
 11
97.036084
 21
99.78362
 31
0.0
  0
ARC
  5
4DF
100
AcDbEntity
  8
1
  6
CONTINUOUS
 62
   250
100
AcDbCircle
 10
99.896327
 20
213.97044
 30
0.0
 40
3.35
100
AcDbArc
 50
0.0
 51
180.0
  0
ARC
  5
4E0
100
AcDbEntity
  8
1
  6
CONTINUOUS
 62
   250
100
AcDbCircle
 10
99.896327
 20
173.65152
 30
0.0
 40
3.35
100
AcDbArc
 50
174.4327
 51
0.0
  0
ARC
  5
4E1
100
AcDbEntity
  8
1
  6
CONTINUOUS
 62
   250
100
AcDbCircle
 10
132.03608
 20
111.92853
 30
0.0
 40
2.25
100
AcDbArc
 50
311.81031
 51
228.18969
  0
ARC
  5
4E2
100
AcDbEntity
  8
1
  6
CONTINUOUS
 62
   250
100
AcDbCircle
 10
109.89633
 20
173.65152
 30
0.0
 40
3.35
100
AcDbArc
 50
180.0
 51
0.0
  0
ARC
  5
4E3
100
AcDbEntity
  8
1
  6
CONTINUOUS
 62
   250
100
AcDbCircle
 10
132.03608
 20
106.92853
 30
0.0
 40
2.25
100
AcDbArc
 50
131.81031
 51
48.18969
  0
ARC
  5
4E4
100
AcDbEntity
  8
1
  6
CONTINUOUS
 62
   250
100
AcDbCircle
 10
97.036084
 20
56.928533
 30
0.0
 40
2.25
100
AcDbArc
 50
311.81031
 51
228.18969
  0
ARC
  5
4E5
100
AcDbEntity
  8
1
  6
CONTINUOUS
 62
   250
100
AcDbCircle
 10
119.89633
 20
173.65152
 30
0.0
 40
3.35
100
AcDbArc
 50
180.0
 51
0.0
  0
ARC
  5
4E6
100
AcDbEntity
  8
1
  6
CONTINUOUS
 62
   250
100
AcDbCircle
 10
97.036084
 20
51.928533
 30
0.0
 40
2.25
100
AcDbArc
 50
131.81031
 51
48.18969
  0
ARC
  5
4E7
100
AcDbEntity
  8
1
  6
CONTINUOUS
 62
   250
100
AcDbCircle
 10
132.03608
 20
51.928533
 30
0.0
 40
2.25
100
AcDbArc
 50
131.81031
 51
180.0
  0
ARC
  5
4E8
100
AcDbEntity
  8
1
  6
CONTINUOUS
 62
   250
100
AcDbCircle
 10
129.89633
 20
173.65152
 30
0.0
 40
3.35
100
AcDbArc
 50
180.0
 51
0.0
  0
ARC
  5
4E9
100
AcDbEntity
  8
1
  6
CONTINUOUS
 62
   250
100
AcDbCircle
 10
132.03608
 20
56.928533
 30
0.0
 40
2.25
100
AcDbArc
 50
311.81031
 51
228.18969
  0
ARC
  5
4EA
100
AcDbEntity
  8
1
  6
CONTINUOUS
 62
   250
100
AcDbCircle
 10
97.036084
 20
106.92853
 30
0.0
 40
2.25
100
AcDbArc
 50
131.81031
 51
48.18969
  0
ARC
  5
4EB
100
AcDbEntity
  8
1
  6
CONTINUOUS
 62
   250
100
AcDbCircle
 10
129.89633
 20
213.32044
 30
0.0
 40
3.35
100
AcDbArc
 50
180.0
 51
0.0
  0
ARC
  5
4EC
100
AcDbEntity
  8
1
  6
CONTINUOUS
 62
   250
100
AcDbCircle
 10
97.036084
 20
111.92853
 30
0.0
 40
2.25
100
AcDbArc
 50
311.81031
 51
228.18969
  0
LINE
  5
4ED
100
AcDbEntity
  8
1
  6
CONTINUOUS
 62
   250
100
AcDbLine
 10
133.53608
 20
110.25148
 30
0.0
 11
133.53608
 21
108.60558
 31
0.0
  0
ARC
  5
4EE
100
AcDbEntity
  8
1
  6
CONTINUOUS
 62
   250
100
AcDbCircle
 10
119.89633
 20
213.32044
 30
0.0
 40
3.35
100
AcDbArc
 50
180.0
 51
0.0
  0
LINE
  5
4EF
100
AcDbEntity
  8
1
  6
CONTINUOUS
 62
   250
100
AcDbLine
 10
130.53608
 20
110.25148
 30
0.0
 11
130.53608
 21
108.60558
 31
0.0
  0
LINE
  5
4F0
100
AcDbEntity
  8
1
  6
CONTINUOUS
 62
   250
100
AcDbLine
 10
98.536084
 20
110.14986
 30
0.0
 11
98.536084
 21
108.60558
 31
0.0
  0
ARC
  5
4F1
100
AcDbEntity
  8
1
  6
CONTINUOUS
 62
   250
100
AcDbCircle
 10
109.89633
 20
213.32044
 30
0.0
 40
3.35
100
AcDbArc
 50
180.0
 51
0.0
  0
LINE
  5
4F2
100
AcDbEntity
  8
1
  6
CONTINUOUS
 62
   250
100
AcDbLine
 10
95.536084
 20
110.25148
 30
0.0
 11
95.536084
 21
108.60558
 31
0.0
  0
LINE
  5
4F3
100
AcDbEntity
  8
1
  6
CONTINUOUS
 62
   250
100
AcDbLine
 10
133.53608
 20
55.251482
 30
0.0
 11
133.53608
 21
53.605584
 31
0.0
  0
ARC
  5
4F4
100
AcDbEntity
  8
1
  6
CONTINUOUS
 62
   250
100
AcDbCircle
 10
99.896327
 20
213.32044
 30
0.0
 40
3.35
100
AcDbArc
 50
180.0
 51
0.0
  0
LINE
  5
4F5
100
AcDbEntity
  8
1
  6
CONTINUOUS
 62
   250
100
AcDbLine
 10
130.53608
 20
55.251482
 30
0.0
 11
130.53608
 21
53.605584
 31
0.0
  0
LINE
  5
4F6
100
AcDbEntity
  8
1
  6
CONTINUOUS
 62
   250
100
AcDbLine
 10
98.536084
 20
55.251482
 30
0.0
 11
98.536084
 21
53.605584
 31
0.0
  0
ARC
  5
4F7
100
AcDbEntity
  8
1
  6
CONTINUOUS
 62
   250
100
AcDbCircle
 10
99.896327
 20
174.30152
 30
0.0
 40
3.35
100
AcDbArc
 50
0.0
 51
180.0
  0
LINE
  5
4F8
100
AcDbEntity
  8
1
  6
CONTINUOUS
 62
   250
100
AcDbLine
 10
95.536084
 20
55.251482
 30
0.0
 11
95.536084
 21
53.605584
 31
0.0
  0
ARC
  5
4F9
100
AcDbEntity
  8
1
  6
CONTINUOUS
 62
   250
100
AcDbCircle
 10
109.89633
 20
174.30152
 30
0.0
 40
3.35
100
AcDbArc
 50
0.0
 51
180.0
  0
LINE
  5
4FA
100
AcDbEntity
  8
1
  6
CONTINUOUS
 62
   250
100
AcDbLine
 10
134.28608
 20
49.578533
 30
0.0
 11
129.78608
 21
49.578533
 31
0.0
  0
LINE
  5
4FB
100
AcDbEntity
  8
1
  6
CONTINUOUS
 62
   250
100
AcDbLine
 10
134.28608
 20
51.928533
 30
0.0
 11
134.28608
 21
49.578533
 31
0.0
  0
ARC
  5
4FC
100
AcDbEntity
  8
1
  6
CONTINUOUS
 62
   250
100
AcDbCircle
 10
119.89633
 20
174.30152
 30
0.0
 40
3.35
100
AcDbArc
 50
0.0
 51
180.0
  0
LINE
  5
4FD
100
AcDbEntity
  8
1
  6
CONTINUOUS
 62
   250
100
AcDbLine
 10
129.78608
 20
51.928533
 30
0.0
 11
129.78608
 21
49.578533
 31
0.0
  0
ARC
  5
4FE
100
AcDbEntity
  8
1
  6
CONTINUOUS
 62
   250
100
AcDbCircle
 10
132.03608
 20
51.928533
 30
0.0
 40
2.25
100
AcDbArc
 50
0.0
 51
48.189685
  0
ARC
  5
4FF
100
AcDbEntity
  8
1
  6
CONTINUOUS
 62
   250
100
AcDbCircle
 10
129.89633
 20
174.30152
 30
0.0
 40
3.35
100
AcDbArc
 50
0.0
 51
180.0
  0
LINE
  5
500
100
AcDbEntity
  8
1
  6
CONTINUOUS
 62
   250
100
AcDbLine
 10
285.98462
 20
195.16044
 30
0.0
 11
287.13461
 21
195.16044
 31
0.0
  0
LINE
  5
501
100
AcDbEntity
  8
1
  6
CONTINUOUS
 62
   250
100
AcDbLine
 10
133.24633
 20
174.30152
 30
0.0
 11
133.24633
 21
173.65152
 31
0.0
  0
LINE
  5
502
100
AcDbEntity
  8
1
  6
CONTINUOUS
 62
   250
100
AcDbLine
 10
126.54633
 20
174.30152
 30
0.0
 11
126.54633
 21
173.65152
 31
0.0
  0
LINE
  5
503
100
AcDbEntity
  8
1
  6
CONTINUOUS
 62
   250
100
AcDbLine
 10
123.24633
 20
174.30152
 30
0.0
 11
123.24633
 21
173.65152
 31
0.0
  0
LINE
  5
504
100
AcDbEntity
  8
1
  6
CONTINUOUS
 62
   250
100
AcDbLine
 10
116.54633
 20
174.30152
 30
0.0
 11
116.54633
 21
173.65152
 31
0.0
  0
LINE
  5
505
100
AcDbEntity
  8
1
  6
CONTINUOUS
 62
   250
100
AcDbLine
 10
113.24633
 20
174.30152
 30
0.0
 11
113.24633
 21
173.65152
 31
0.0
  0
LINE
  5
506
100
AcDbEntity
  8
1
  6
CONTINUOUS
 62
   250
100
AcDbLine
 10
106.54633
 20
174.30152
 30
0.0
 11
106.54633
 21
173.65152
 31
0.0
  0
LINE
  5
507
100
AcDbEntity
  8
1
  6
CONTINUOUS
 62
   250
100
AcDbLine
 10
103.24633
 20
174.30152
 30
0.0
 11
103.24633
 21
173.65152
 31
0.0
  0
LINE
  5
508
100
AcDbEntity
  8
1
  6
CONTINUOUS
 62
   250
100
AcDbLine
 10
96.546327
 20
174.30152
 30
0.0
 11
96.56213
 21
173.97653
 31
0.0
  0
LINE
  5
509
100
AcDbEntity
  8
1
  6
CONTINUOUS
 62
   250
100
AcDbLine
 10
96.546327
 20
213.97044
 30
0.0
 11
96.546327
 21
213.32044
 31
0.0
  0
LINE
  5
50A
100
AcDbEntity
  8
1
  6
CONTINUOUS
 62
   250
100
AcDbLine
 10
103.24633
 20
213.97044
 30
0.0
 11
103.24633
 21
213.32044
 31
0.0
  0
LINE
  5
50B
100
AcDbEntity
  8
1
  6
CONTINUOUS
 62
   250
100
AcDbLine
 10
106.54633
 20
213.97044
 30
0.0
 11
106.54633
 21
213.32044
 31
0.0
  0
LINE
  5
50C
100
AcDbEntity
  8
1
  6
CONTINUOUS
 62
   250
100
AcDbLine
 10
113.24633
 20
213.97044
 30
0.0
 11
113.24633
 21
213.32044
 31
0.0
  0
LINE
  5
50D
100
AcDbEntity
  8
1
  6
CONTINUOUS
 62
   250
100
AcDbLine
 10
116.54633
 20
213.97044
 30
0.0
 11
116.54633
 21
213.32044
 31
0.0
  0
LINE
  5
50E
100
AcDbEntity
  8
1
  6
CONTINUOUS
 62
   250
100
AcDbLine
 10
123.24633
 20
213.97044
 30
0.0
 11
123.24633
 21
213.32044
 31
0.0
  0
LINE
  5
50F
100
AcDbEntity
  8
1
  6
CONTINUOUS
 62
   250
100
AcDbLine
 10
126.54633
 20
213.97044
 30
0.0
 11
126.54633
 21
213.32044
 31
0.0
  0
LINE
  5
510
100
AcDbEntity
  8
1
  6
CONTINUOUS
 62
   250
100
AcDbLine
 10
133.24633
 20
213.97044
 30
0.0
 11
133.24633
 21
213.32044
 31
0.0
  0
LINE
  5
511
100
AcDbEntity
  8
1
  6
CONTINUOUS
 62
   250
100
AcDbLine
 10
286.43462
 20
159.66044
 30
0.0
 11
287.13461
 21
159.66044
 31
0.0
  0
LINE
  5
512
100
AcDbEntity
  8
1
  6
CONTINUOUS
 62
   250
100
AcDbLine
 10
300.63461
 20
203.41044
 30
0.0
 11
309.13461
 21
203.41044
 31
0.0
  0
LINE
  5
513
100
AcDbEntity
  8
1
  6
CONTINUOUS
 62
   250
100
AcDbLine
 10
357.13461
 20
172.61044
 30
0.0
 11
351.13461
 21
172.61044
 31
0.0
  0
LINE
  5
514
100
AcDbEntity
  8
1
  6
CONTINUOUS
 62
   250
100
AcDbLine
 10
356.13461
 20
179.61044
 30
0.0
 11
351.13461
 21
179.61044
 31
0.0
  0
LINE
  5
515
100
AcDbEntity
  8
1
  6
CONTINUOUS
 62
   250
100
AcDbLine
 10
357.13461
 20
172.61044
 30
0.0
 11
357.13461
 21
178.61044
 31
0.0
  0
ARC
  5
516
100
AcDbEntity
  8
1
  6
CONTINUOUS
 62
   250
100
AcDbCircle
 10
356.13461
 20
178.61044
 30
0.0
 40
1.0
100
AcDbArc
 50
0.0
 51
90.0
  0
LINE
  5
517
100
AcDbEntity
  8
1
  6
CONTINUOUS
 62
   250
100
AcDbLine
 10
351.13461
 20
179.61044
 30
0.0
 11
351.13461
 21
172.61044
 31
0.0
  0
LINE
  5
518
100
AcDbEntity
  8
1
  6
CONTINUOUS
 62
   250
100
AcDbLine
 10
351.13461
 20
172.61044
 30
0.0
 11
351.13461
 21
171.91044
 31
0.0
  0
LINE
  5
519
100
AcDbEntity
  8
1
  6
CONTINUOUS
 62
   250
100
AcDbLine
 10
351.13461
 20
171.91044
 30
0.0
 11
351.13461
 21
163.41044
 31
0.0
  0
LINE
  5
51A
100
AcDbEntity
  8
1
  6
CONTINUOUS
 62
   250
100
AcDbLine
 10
354.13461
 20
174.21044
 30
0.0
 11
354.13461
 21
179.61044
 31
0.0
  0
LINE
  5
51B
100
AcDbEntity
  8
1
  6
CONTINUOUS
 62
   250
100
AcDbLine
 10
354.13461
 20
174.21044
 30
0.0
 11
351.13461
 21
174.21044
 31
0.0
  0
LINE
  5
51C
100
AcDbEntity
  8
1
  6
CONTINUOUS
 62
   250
100
AcDbLine
 10
135.39633
 20
157.40152
 30
0.0
 11
135.39633
 21
167.15152
 31
0.0
  0
LINE
  5
51D
100
AcDbEntity
  8
1
  6
CONTINUOUS
 62
   250
100
AcDbLine
 10
94.396327
 20
157.40152
 30
0.0
 11
94.396327
 21
167.15152
 31
0.0
  0
LINE
  5
51E
100
AcDbEntity
  8
1
  6
CONTINUOUS
 62
   250
100
AcDbLine
 10
135.39633
 20
230.30152
 30
0.0
 11
135.39633
 21
230.85153
 31
0.0
  0
LINE
  5
51F
100
AcDbEntity
  8
1
  6
CONTINUOUS
 62
   250
100
AcDbLine
 10
94.396327
 20
230.30152
 30
0.0
 11
94.396327
 21
230.85153
 31
0.0
  0
LINE
  5
520
100
AcDbEntity
  8
1
  6
CONTINUOUS
 62
   250
100
AcDbLine
 10
357.58461
 20
148.31044
 30
0.0
 11
357.58461
 21
159.51044
 31
0.0
  0
LINE
  5
521
100
AcDbEntity
  8
1
  6
CONTINUOUS
 62
   250
100
AcDbLine
 10
356.58461
 20
160.51044
 30
0.0
 11
356.58461
 21
163.51741
 31
0.0
  0
LINE
  5
522
100
AcDbEntity
  8
1
  6
CONTINUOUS
 62
   250
100
AcDbLine
 10
356.58461
 20
160.51044
 30
0.0
 11
357.58461
 21
159.51044
 31
0.0
  0
LINE
  5
523
100
AcDbEntity
  8
1
  6
CONTINUOUS
 62
   250
100
AcDbLine
 10
356.58461
 20
194.31044
 30
0.0
 11
357.58461
 21
195.31044
 31
0.0
  0
LINE
  5
524
100
AcDbEntity
  8
1
  6
CONTINUOUS
 62
   250
100
AcDbLine
 10
357.58461
 20
195.31044
 30
0.0
 11
357.58461
 21
206.51044
 31
0.0
  0
LINE
  5
525
100
AcDbEntity
  8
1
  6
CONTINUOUS
 62
   250
100
AcDbLine
 10
357.58461
 20
148.31044
 30
0.0
 11
349.6835
 21
148.31044
 31
0.0
  0
LINE
  5
526
100
AcDbEntity
  8
1
  6
HIDDEN
 62
   250
100
AcDbLine
 10
338.18462
 20
148.31044
 30
0.0
 11
337.85704
 21
147.41044
 31
0.0
  0
LINE
  5
527
100
AcDbEntity
  8
1
  6
CONTINUOUS
 62
   250
100
AcDbLine
 10
336.03719
 20
142.41044
 30
0.0
 11
334.63461
 21
142.41044
 31
0.0
  0
ARC
  5
528
100
AcDbEntity
  8
1
  6
HIDDEN
 62
   250
100
AcDbCircle
 10
288.58461
 20
144.41044
 30
0.0
 40
2.0
100
AcDbArc
 50
180.0
 51
270.0
  0
LINE
  5
529
100
AcDbEntity
  8
1
  6
HIDDEN
 62
   250
100
AcDbLine
 10
349.60494
 20
206.51044
 30
0.0
 11
338.18462
 21
206.51044
 31
0.0
  0
LINE
  5
52A
100
AcDbEntity
  8
1
  6
CONTINUOUS
 62
   250
100
AcDbLine
 10
351.13461
 20
151.01044
 30
0.0
 11
349.93462
 21
151.01044
 31
0.0
  0
LINE
  5
52B
100
AcDbEntity
  8
1
  6
CONTINUOUS
 62
   250
100
AcDbLine
 10
349.93462
 20
151.01044
 30
0.0
 11
349.93462
 21
149.41044
 31
0.0
  0
LINE
  5
52C
100
AcDbEntity
  8
1
  6
CONTINUOUS
 62
   250
100
AcDbLine
 10
351.13461
 20
203.81044
 30
0.0
 11
349.93462
 21
203.81044
 31
0.0
  0
LINE
  5
52D
100
AcDbEntity
  8
1
  6
CONTINUOUS
 62
   250
100
AcDbLine
 10
349.93462
 20
203.81044
 30
0.0
 11
349.93462
 21
199.81044
 31
0.0
  0
LINE
  5
52F
100
AcDbEntity
  8
1
  6
HIDDEN
 62
   250
100
AcDbLine
 10
349.60494
 20
148.31044
 30
0.0
 11
338.18462
 21
148.31044
 31
0.0
  0
LINE
  5
530
100
AcDbEntity
  8
1
  6
HIDDEN
 62
   250
 48
0.5
100
AcDbLine
 10
317.73462
 20
196.82675
 30
0.0
 11
317.73462
 21
209.41044
 31
0.0
  0
LINE
  5
531
100
AcDbEntity
  8
1
  6
HIDDEN
 62
   250
 48
0.5
100
AcDbLine
 10
321.63461
 20
209.41044
 30
0.0
 11
317.73462
 21
209.41044
 31
0.0
  0
LINE
  5
532
100
AcDbEntity
  8
1
  6
HIDDEN
 62
   250
 48
0.5
100
AcDbLine
 10
318.73462
 20
196.82675
 30
0.0
 11
318.73462
 21
209.41044
 31
0.0
  0
LINE
  5
533
100
AcDbEntity
  8
1
  6
HIDDEN
 62
   250
 48
0.5
100
AcDbLine
 10
321.63461
 20
201.61044
 30
0.0
 11
321.63461
 21
209.41044
 31
0.0
  0
LINE
  5
534
100
AcDbEntity
  8
1
  6
HIDDEN
 62
   250
 48
0.5
100
AcDbLine
 10
321.63461
 20
201.61044
 30
0.0
 11
318.73462
 21
201.61044
 31
0.0
  0
LINE
  5
535
100
AcDbEntity
  8
1
  6
HIDDEN
 62
   250
 48
0.5
100
AcDbLine
 10
324.13461
 20
202.47916
 30
0.0
 11
324.13461
 21
205.01044
 31
0.0
  0
LINE
  5
536
100
AcDbEntity
  8
1
  6
HIDDEN
 62
   250
 48
0.5
100
AcDbLine
 10
321.63461
 20
208.76044
 30
0.0
 11
324.13461
 21
208.54172
 31
0.0
  0
LINE
  5
537
100
AcDbEntity
  8
1
  6
HIDDEN
 62
   250
 48
0.5
100
AcDbLine
 10
321.63461
 20
202.26044
 30
0.0
 11
324.13461
 21
202.47916
 31
0.0
  0
LINE
  5
538
100
AcDbEntity
  8
1
  6
HIDDEN
 62
   250
 48
0.5
100
AcDbLine
 10
324.13461
 20
206.01044
 30
0.0
 11
322.93462
 21
206.01044
 31
0.0
  0
LINE
  5
539
100
AcDbEntity
  8
1
  6
HIDDEN
 62
   250
 48
0.5
100
AcDbLine
 10
324.13461
 20
205.01044
 30
0.0
 11
322.93462
 21
205.01044
 31
0.0
  0
LINE
  5
53A
100
AcDbEntity
  8
1
  6
HIDDEN
 62
   250
 48
0.5
100
AcDbLine
 10
322.93462
 20
205.01044
 30
0.0
 11
322.93462
 21
206.01044
 31
0.0
  0
LINE
  5
53B
100
AcDbEntity
  8
1
  6
HIDDEN
 62
   250
 48
0.5
100
AcDbLine
 10
324.13461
 20
206.01044
 30
0.0
 11
324.13461
 21
208.54172
 31
0.0
  0
LINE
  5
53D
100
AcDbEntity
  8
1
  6
CONTINUOUS
 62
   250
100
AcDbLine
 10
288.63461
 20
212.41044
 30
0.0
 11
288.63461
 21
212.91044
 31
0.0
  0
LINE
  5
53F
100
AcDbEntity
  8
1
  6
CONTINUOUS
 62
   250
100
AcDbLine
 10
337.85704
 20
207.41044
 30
0.0
 11
336.03719
 21
212.41044
 31
0.0
  0
LINE
  5
540
100
AcDbEntity
  8
1
  6
CONTINUOUS
 62
   250
100
AcDbLine
 10
300.69812
 20
212.41044
 30
0.0
 11
288.58461
 21
212.41044
 31
0.0
  0
LINE
  5
545
100
AcDbEntity
  8
1
  6
HIDDEN
 62
   250
100
AcDbLine
 10
154.53608
 20
118.42853
 30
0.0
 11
192.53608
 21
118.42853
 31
0.0
  0
ARC
  5
546
100
AcDbEntity
  8
1
  6
HIDDEN
 62
   250
100
AcDbCircle
 10
288.58461
 20
210.41044
 30
0.0
 40
2.0
100
AcDbArc
 50
88.567904
 51
180.0
  0
LINE
  5
547
100
AcDbEntity
  8
1
  6
HIDDEN
 62
   250
100
AcDbLine
 10
334.63461
 20
212.41044
 30
0.0
 11
300.69812
 21
212.41044
 31
0.0
  0
LINE
  5
548
100
AcDbEntity
  8
1
  6
HIDDEN
 62
   250
100
AcDbLine
 10
154.53608
 20
45.428533
 30
0.0
 11
192.53608
 21
45.428533
 31
0.0
  0
LINE
  5
549
100
AcDbEntity
  8
1
  6
HIDDEN
 62
   250
100
AcDbLine
 10
151.53608
 20
115.42853
 30
0.0
 11
151.53608
 21
48.428533
 31
0.0
  0
LINE
  5
54A
100
AcDbEntity
  8
1
  6
HIDDEN
 62
   250
100
AcDbLine
 10
195.53608
 20
115.42853
 30
0.0
 11
195.53608
 21
48.428533
 31
0.0
  0
ARC
  5
54B
100
AcDbEntity
  8
1
  6
HIDDEN
 62
   250
100
AcDbCircle
 10
192.53608
 20
115.42853
 30
0.0
 40
3.0
100
AcDbArc
 50
0.0
 51
90.0
  0
ARC
  5
54C
100
AcDbEntity
  8
1
  6
HIDDEN
 62
   250
100
AcDbCircle
 10
154.53608
 20
115.42853
 30
0.0
 40
3.0
100
AcDbArc
 50
90.0
 51
180.0
  0
ARC
  5
54D
100
AcDbEntity
  8
1
  6
HIDDEN
 62
   250
100
AcDbCircle
 10
154.53608
 20
48.428533
 30
0.0
 40
3.0
100
AcDbArc
 50
180.0
 51
270.0
  0
ARC
  5
54E
100
AcDbEntity
  8
1
  6
HIDDEN
 62
   250
100
AcDbCircle
 10
192.53608
 20
48.428533
 30
0.0
 40
3.0
100
AcDbArc
 50
270.0
 51
0.0
  0
LINE
  5
54F
100
AcDbEntity
  8
1
  6
CENTERLINE
 62
   250
100
AcDbLine
 10
149.01073
 20
106.92853
 30
0.0
 11
197.8447
 21
106.92853
 31
0.0
  0
LINE
  5
550
100
AcDbEntity
  8
1
  6
CENTERLINE
 62
   250
100
AcDbLine
 10
149.01073
 20
56.928533
 30
0.0
 11
197.8447
 21
56.928533
 31
0.0
  0
LINE
  5
551
100
AcDbEntity
  8
1
  6
CENTERLINE
 62
   250
100
AcDbLine
 10
149.01073
 20
111.92853
 30
0.0
 11
199.05455
 21
111.92853
 31
0.0
  0
LINE
  5
552
100
AcDbEntity
  8
1
  6
CENTERLINE
 62
   250
100
AcDbLine
 10
149.01073
 20
51.928533
 30
0.0
 11
199.05455
 21
51.928533
 31
0.0
  0
LINE
  5
553
100
AcDbEntity
  8
1
  6
CONTINUOUS
 62
   250
100
AcDbLine
 10
337.85704
 20
147.41044
 30
0.0
 11
336.03719
 21
142.41044
 31
0.0
  0
LINE
  5
554
100
AcDbEntity
  8
1
  6
CENTERLINE
 62
   250
100
AcDbLine
 10
156.03608
 20
122.82644
 30
0.0
 11
156.03608
 21
99.78362
 31
0.0
  0
ARC
  5
555
100
AcDbEntity
  8
1
  6
CONTINUOUS
 62
   250
100
AcDbCircle
 10
191.03608
 20
111.92853
 30
0.0
 40
2.25
100
AcDbArc
 50
311.81031
 51
228.18969
  0
ARC
  5
556
100
AcDbEntity
  8
1
  6
CONTINUOUS
 62
   250
100
AcDbCircle
 10
191.03608
 20
106.92853
 30
0.0
 40
2.25
100
AcDbArc
 50
131.81031
 51
48.18969
  0
ARC
  5
557
100
AcDbEntity
  8
1
  6
CONTINUOUS
 62
   250
100
AcDbCircle
 10
156.03608
 20
56.928533
 30
0.0
 40
2.25
100
AcDbArc
 50
311.81031
 51
228.18969
  0
ARC
  5
558
100
AcDbEntity
  8
1
  6
CONTINUOUS
 62
   250
100
AcDbCircle
 10
156.03608
 20
51.928533
 30
0.0
 40
2.25
100
AcDbArc
 50
131.81031
 51
48.18969
  0
ARC
  5
559
100
AcDbEntity
  8
1
  6
CONTINUOUS
 62
   250
100
AcDbCircle
 10
191.03608
 20
51.928533
 30
0.0
 40
2.25
100
AcDbArc
 50
131.81031
 51
180.0
  0
ARC
  5
55A
100
AcDbEntity
  8
1
  6
CONTINUOUS
 62
   250
100
AcDbCircle
 10
191.03608
 20
56.928533
 30
0.0
 40
2.25
100
AcDbArc
 50
311.81031
 51
228.18969
  0
LINE
  5
55C
100
AcDbEntity
  8
1
  6
HIDDEN
 62
   250
100
AcDbLine
 10
334.63461
 20
142.41044
 30
0.0
 11
288.58461
 21
142.41044
 31
0.0
  0
TEXT
  5
55E
100
AcDbEntity
  8
1
  6
CONTINUOUS
 62
   250
100
AcDbText
 10
254.98837
 20
17.262586
 30
0.0
 40
3.0
  1
encombrement-perçage/
 41
0.75
 72
     4
 11
278.23837
 21
18.262586
 31
0.0
100
AcDbText
  0
TEXT
  5
55F
100
AcDbEntity
  8
1
  6
CONTINUOUS
 62
   250
100
AcDbText
 10
299.50619
 20
17.390166
 30
0.0
 40
2.5
  1
 dimensions-drilling
 41
0.75
 51
30.0
 72
     1
 11
315.44369
 21
19.890166
 31
0.0
100
AcDbText
 73
     3
  0
LINE
  5
560
100
AcDbEntity
  8
1
  6
CENTERLINE
 62
   250
100
AcDbLine
 10
148.71488
 20
193.85153
 30
0.0
 11
89.71488
 21
193.85153
 31
0.0
  0
LINE
  5
561
100
AcDbEntity
  8
1
  6
CENTERLINE
 62
   250
100
AcDbLine
 10
136.89633
 20
213.35153
 30
0.0
 11
84.865225
 21
213.35153
 31
0.0
  0
LINE
  5
562
100
AcDbEntity
  8
1
  6
CENTERLINE
 62
   250
100
AcDbLine
 10
136.89633
 20
174.35153
 30
0.0
 11
84.865225
 21
174.35153
 31
0.0
  0
LINE
  5
564
100
AcDbEntity
  8
1
  6
CONTINUOUS
 62
   250
100
AcDbLine
 10
239.02918
 20
183.0097
 30
0.0
 11
241.38611
 21
183.0097
 31
0.0
  0
LINE
  5
565
100
AcDbEntity
  8
1
  6
CONTINUOUS
 62
   250
100
AcDbLine
 10
241.38611
 20
183.0097
 30
0.0
 11
241.38611
 21
181.02491
 31
0.0
  0
LINE
  5
566
100
AcDbEntity
  8
1
  6
CONTINUOUS
 62
   250
100
AcDbLine
 10
241.38611
 20
181.02491
 30
0.0
 11
245.86709
 21
181.02491
 31
0.0
  0
LINE
  5
567
100
AcDbEntity
  8
1
  6
CONTINUOUS
 62
   250
100
AcDbLine
 10
245.86709
 20
181.02491
 30
0.0
 11
245.86709
 21
183.0097
 31
0.0
  0
LINE
  5
568
100
AcDbEntity
  8
1
  6
CONTINUOUS
 62
   250
100
AcDbLine
 10
245.86709
 20
183.0097
 30
0.0
 11
248.47212
 21
183.0097
 31
0.0
  0
ARC
  5
569
100
AcDbEntity
  8
1
  6
CONTINUOUS
 62
   250
100
AcDbCircle
 10
156.03608
 20
106.92853
 30
0.0
 40
2.25
100
AcDbArc
 50
131.81031
 51
48.18969
  0
TEXT
  5
56A
100
AcDbEntity
  8
1
  6
CONTINUOUS
 62
   250
100
AcDbText
 10
251.08053
 20
180.85787
 30
0.0
 40
2.5
  1
35 mm EN50022
 41
0.75
 11
251.08053
 21
183.35787
 31
0.0
100
AcDbText
 73
     3
  0
ARC
  5
56B
100
AcDbEntity
  8
1
  6
CONTINUOUS
 62
   250
100
AcDbCircle
 10
156.03608
 20
111.92853
 30
0.0
 40
2.25
100
AcDbArc
 50
311.81031
 51
228.18969
  0
LINE
  5
584
100
AcDbEntity
  8
1
  6
CONTINUOUS
 62
   250
100
AcDbLine
 10
192.53608
 20
110.25148
 30
0.0
 11
192.53608
 21
108.60558
 31
0.0
  0
LINE
  5
585
100
AcDbEntity
  8
1
  6
CONTINUOUS
 62
   250
100
AcDbLine
 10
189.53608
 20
110.25148
 30
0.0
 11
189.53608
 21
108.60558
 31
0.0
  0
LINE
  5
586
100
AcDbEntity
  8
1
  6
CONTINUOUS
 62
   250
100
AcDbLine
 10
157.53608
 20
110.14986
 30
0.0
 11
157.53608
 21
108.60558
 31
0.0
  0
LINE
  5
587
100
AcDbEntity
  8
1
  6
CONTINUOUS
 62
   250
100
AcDbLine
 10
154.53608
 20
110.25148
 30
0.0
 11
154.53608
 21
108.60558
 31
0.0
  0
LINE
  5
588
100
AcDbEntity
  8
1
  6
CONTINUOUS
 62
   250
100
AcDbLine
 10
192.53608
 20
55.251482
 30
0.0
 11
192.53608
 21
53.605584
 31
0.0
  0
LINE
  5
589
100
AcDbEntity
  8
1
  6
CONTINUOUS
 62
   250
100
AcDbLine
 10
189.53608
 20
55.251482
 30
0.0
 11
189.53608
 21
53.605584
 31
0.0
  0
LINE
  5
58A
100
AcDbEntity
  8
1
  6
CONTINUOUS
 62
   250
100
AcDbLine
 10
157.53608
 20
55.251482
 30
0.0
 11
157.53608
 21
53.605584
 31
0.0
  0
LINE
  5
58B
100
AcDbEntity
  8
1
  6
CONTINUOUS
 62
   250
100
AcDbLine
 10
154.53608
 20
55.251482
 30
0.0
 11
154.53608
 21
53.605584
 31
0.0
  0
LINE
  5
58C
100
AcDbEntity
  8
1
  6
CONTINUOUS
 62
   250
100
AcDbLine
 10
193.28608
 20
49.578533
 30
0.0
 11
188.78608
 21
49.578533
 31
0.0
  0
LINE
  5
58D
100
AcDbEntity
  8
1
  6
CONTINUOUS
 62
   250
100
AcDbLine
 10
193.28608
 20
51.928533
 30
0.0
 11
193.28608
 21
49.578533
 31
0.0
  0
LINE
  5
58E
100
AcDbEntity
  8
1
  6
CONTINUOUS
 62
   250
100
AcDbLine
 10
188.78608
 20
51.928533
 30
0.0
 11
188.78608
 21
49.578533
 31
0.0
  0
ARC
  5
58F
100
AcDbEntity
  8
1
  6
CONTINUOUS
 62
   250
100
AcDbCircle
 10
191.03608
 20
51.928533
 30
0.0
 40
2.25
100
AcDbArc
 50
0.0
 51
48.189685
  0
LINE
  5
591
100
AcDbEntity
  8
1
  6
CONTINUOUS
 62
   250
100
AcDbLine
 10
187.39633
 20
229.47044
 30
0.0
 11
187.39633
 21
230.30152
 31
0.0
  0
LINE
  5
592
100
AcDbEntity
  8
1
  6
CONTINUOUS
 62
   250
100
AcDbLine
 10
160.39633
 20
229.47044
 30
0.0
 11
160.39633
 21
230.30152
 31
0.0
  0
CIRCLE
  5
593
100
AcDbEntity
  8
1
  6
CONTINUOUS
 62
   250
100
AcDbCircle
 10
188.89633
 20
174.35153
 30
0.0
 40
3.25
  0
CIRCLE
  5
594
100
AcDbEntity
  8
1
  6
CONTINUOUS
 62
   250
100
AcDbCircle
 10
178.72235
 20
174.35153
 30
0.0
 40
3.25
  0
CIRCLE
  5
595
100
AcDbEntity
  8
1
  6
CONTINUOUS
 62
   250
100
AcDbCircle
 10
168.89633
 20
174.35153
 30
0.0
 40
3.25
  0
CIRCLE
  5
596
100
AcDbEntity
  8
1
  6
CONTINUOUS
 62
   250
100
AcDbCircle
 10
158.89633
 20
174.30152
 30
0.0
 40
3.25
  0
CIRCLE
  5
597
100
AcDbEntity
  8
1
  6
CONTINUOUS
 62
   250
100
AcDbCircle
 10
158.89633
 20
213.35153
 30
0.0
 40
3.25
  0
CIRCLE
  5
598
100
AcDbEntity
  8
1
  6
CONTINUOUS
 62
   250
100
AcDbCircle
 10
168.89633
 20
213.35153
 30
0.0
 40
3.25
  0
CIRCLE
  5
599
100
AcDbEntity
  8
1
  6
CONTINUOUS
 62
   250
100
AcDbCircle
 10
178.89633
 20
213.35153
 30
0.0
 40
3.25
  0
CIRCLE
  5
59A
100
AcDbEntity
  8
1
  6
CONTINUOUS
 62
   250
100
AcDbCircle
 10
188.89633
 20
213.35153
 30
0.0
 40
3.25
  0
ARC
  5
5DB
100
AcDbEntity
  8
1
  6
CONTINUOUS
 62
   250
100
AcDbCircle
 10
190.14633
 20
223.55152
 30
0.0
 40
3.5
100
AcDbArc
 50
0.0
 51
180.0
  0
ARC
  5
5DC
100
AcDbEntity
  8
1
  6
CONTINUOUS
 62
   250
100
AcDbCircle
 10
190.14633
 20
222.80152
 30
0.0
 40
3.5
100
AcDbArc
 50
180.0
 51
220.0052
  0
ARC
  5
5DD
100
AcDbEntity
  8
1
  6
CONTINUOUS
 62
   250
100
AcDbCircle
 10
190.14633
 20
222.80152
 30
0.0
 40
3.5
100
AcDbArc
 50
319.9948
 51
0.0
  0
CIRCLE
  5
5DE
100
AcDbEntity
  8
1
  6
CONTINUOUS
 62
   250
100
AcDbCircle
 10
169.04633
 20
163.23261
 30
0.0
 40
2.875
  0
CIRCLE
  5
5DF
100
AcDbEntity
  8
1
  6
CONTINUOUS
 62
   250
100
AcDbCircle
 10
178.74633
 20
224.47044
 30
0.0
 40
2.875
  0
LINE
  5
5E0
100
AcDbEntity
  8
1
  6
CONTINUOUS
 62
   250
100
AcDbLine
 10
186.64633
 20
164.90152
 30
0.0
 11
186.64633
 21
164.15152
 31
0.0
  0
ARC
  5
5E1
100
AcDbEntity
  8
1
  6
CONTINUOUS
 62
   250
100
AcDbCircle
 10
190.14633
 20
164.15152
 30
0.0
 40
3.5
100
AcDbArc
 50
180.0
 51
0.0
  0
LINE
  5
5E2
100
AcDbEntity
  8
1
  6
CONTINUOUS
 62
   250
100
AcDbLine
 10
193.64633
 20
164.90152
 30
0.0
 11
193.64633
 21
164.15152
 31
0.0
  0
ARC
  5
5E3
100
AcDbEntity
  8
1
  6
CONTINUOUS
 62
   250
100
AcDbCircle
 10
190.14633
 20
164.90152
 30
0.0
 40
3.5
100
AcDbArc
 50
0.0
 51
40.005201
  0
ARC
  5
5E4
100
AcDbEntity
  8
1
  6
CONTINUOUS
 62
   250
100
AcDbCircle
 10
190.14633
 20
164.90152
 30
0.0
 40
3.5
100
AcDbArc
 50
139.9948
 51
180.0
  0
LINE
  5
5E5
100
AcDbEntity
  8
1
  6
CONTINUOUS
 62
   250
100
AcDbLine
 10
193.64633
 20
223.55152
 30
0.0
 11
193.64633
 21
222.80152
 31
0.0
  0
LINE
  5
5E6
100
AcDbEntity
  8
1
  6
CONTINUOUS
 62
   250
100
AcDbLine
 10
186.64633
 20
223.55152
 30
0.0
 11
186.64633
 21
222.80152
 31
0.0
  0
ARC
  5
5E7
100
AcDbEntity
  8
1
  6
CONTINUOUS
 62
   250
100
AcDbCircle
 10
190.14633
 20
222.93261
 30
0.0
 40
3.25
100
AcDbArc
 50
310.74795
 51
229.25205
  0
ARC
  5
5F0
100
AcDbEntity
  8
1
  6
CONTINUOUS
 62
   250
100
AcDbCircle
 10
157.64633
 20
222.85153
 30
0.0
 40
3.25
100
AcDbArc
 50
312.8918
 51
227.1082
  0
ARC
  5
5F9
100
AcDbEntity
  8
1
  6
CONTINUOUS
 62
   250
100
AcDbCircle
 10
190.14633
 20
164.28261
 30
0.0
 40
3.25
100
AcDbArc
 50
118.0248
 51
61.9752
  0
CIRCLE
  5
602
100
AcDbEntity
  8
1
  6
CONTINUOUS
 62
   250
100
AcDbCircle
 10
178.74633
 20
224.47044
 30
0.0
 40
2.75
  0
CIRCLE
  5
60B
100
AcDbEntity
  8
1
  6
CONTINUOUS
 62
   250
100
AcDbCircle
 10
169.04633
 20
163.23261
 30
0.0
 40
2.75
  0
LINE
  5
614
100
AcDbEntity
  8
1
  6
CONTINUOUS
 62
   250
100
AcDbLine
 10
180.89633
 20
189.05152
 30
0.0
 11
180.89633
 21
196.85153
 31
0.0
  0
LINE
  5
615
100
AcDbEntity
  8
1
  6
CONTINUOUS
 62
   250
100
AcDbLine
 10
176.89633
 20
189.05152
 30
0.0
 11
176.89633
 21
196.85153
 31
0.0
  0
LINE
  5
616
100
AcDbEntity
  8
1
  6
CONTINUOUS
 62
   250
100
AcDbLine
 10
190.89633
 20
189.05152
 30
0.0
 11
190.89633
 21
196.85153
 31
0.0
  0
LINE
  5
617
100
AcDbEntity
  8
1
  6
CONTINUOUS
 62
   250
100
AcDbLine
 10
186.89633
 20
189.05152
 30
0.0
 11
186.89633
 21
196.85153
 31
0.0
  0
LINE
  5
618
100
AcDbEntity
  8
1
  6
CONTINUOUS
 62
   250
100
AcDbLine
 10
170.89633
 20
189.05152
 30
0.0
 11
170.89633
 21
196.85153
 31
0.0
  0
LINE
  5
619
100
AcDbEntity
  8
1
  6
CONTINUOUS
 62
   250
100
AcDbLine
 10
166.89633
 20
189.05152
 30
0.0
 11
166.89633
 21
196.85153
 31
0.0
  0
LINE
  5
61A
100
AcDbEntity
  8
1
  6
CONTINUOUS
 62
   250
100
AcDbLine
 10
160.89633
 20
189.05152
 30
0.0
 11
160.89633
 21
196.85153
 31
0.0
  0
LINE
  5
61B
100
AcDbEntity
  8
1
  6
CONTINUOUS
 62
   250
100
AcDbLine
 10
156.89633
 20
189.05152
 30
0.0
 11
156.89633
 21
196.85153
 31
0.0
  0
LINE
  5
61C
100
AcDbEntity
  8
1
  6
CONTINUOUS
 62
   250
100
AcDbLine
 10
195.89633
 20
156.85153
 30
0.0
 11
194.39633
 21
156.85153
 31
0.0
  0
LINE
  5
61D
100
AcDbEntity
  8
1
  6
CONTINUOUS
 62
   250
100
AcDbLine
 10
195.89633
 20
230.85153
 30
0.0
 11
194.39633
 21
230.85153
 31
0.0
  0
LINE
  5
61E
100
AcDbEntity
  8
1
  6
CONTINUOUS
 62
   250
100
AcDbLine
 10
195.89633
 20
156.85153
 30
0.0
 11
195.89633
 21
230.85153
 31
0.0
  0
LINE
  5
61F
100
AcDbEntity
  8
1
  6
CONTINUOUS
 62
   250
100
AcDbLine
 10
151.89633
 20
156.85153
 30
0.0
 11
151.89633
 21
230.85153
 31
0.0
  0
LINE
  5
620
100
AcDbEntity
  8
1
  6
CONTINUOUS
 62
   250
100
AcDbLine
 10
194.29633
 20
189.05152
 30
0.0
 11
184.29633
 21
189.05152
 31
0.0
  0
LINE
  5
621
100
AcDbEntity
  8
1
  6
CONTINUOUS
 62
   250
100
AcDbLine
 10
194.29633
 20
196.85153
 30
0.0
 11
184.29633
 21
196.85153
 31
0.0
  0
LINE
  5
622
100
AcDbEntity
  8
1
  6
CONTINUOUS
 62
   250
100
AcDbLine
 10
153.49633
 20
189.05152
 30
0.0
 11
153.49633
 21
196.85153
 31
0.0
  0
LINE
  5
623
100
AcDbEntity
  8
1
  6
CONTINUOUS
 62
   250
100
AcDbLine
 10
194.29633
 20
189.05152
 30
0.0
 11
194.29633
 21
196.85153
 31
0.0
  0
LINE
  5
625
100
AcDbEntity
  8
1
  6
CONTINUOUS
 62
   250
100
AcDbLine
 10
184.29633
 20
189.05152
 30
0.0
 11
184.29633
 21
196.85153
 31
0.0
  0
LINE
  5
626
100
AcDbEntity
  8
1
  6
CONTINUOUS
 62
   250
100
AcDbLine
 10
163.49633
 20
189.05152
 30
0.0
 11
163.49633
 21
196.85153
 31
0.0
  0
LINE
  5
627
100
AcDbEntity
  8
1
  6
CONTINUOUS
 62
   250
100
AcDbLine
 10
165.09633
 20
189.05152
 30
0.0
 11
165.09633
 21
196.85153
 31
0.0
  0
LINE
  5
628
100
AcDbEntity
  8
1
  6
CONTINUOUS
 62
   250
100
AcDbLine
 10
182.69633
 20
189.05152
 30
0.0
 11
182.69633
 21
196.85153
 31
0.0
  0
LINE
  5
629
100
AcDbEntity
  8
1
  6
CONTINUOUS
 62
   250
100
AcDbLine
 10
172.89633
 20
189.05152
 30
0.0
 11
172.89633
 21
196.85153
 31
0.0
  0
LINE
  5
62A
100
AcDbEntity
  8
1
  6
CONTINUOUS
 62
   250
100
AcDbLine
 10
174.89633
 20
189.05152
 30
0.0
 11
174.89633
 21
196.85153
 31
0.0
  0
LINE
  5
62B
100
AcDbEntity
  8
1
  6
CONTINUOUS
 62
   250
100
AcDbLine
 10
182.69633
 20
189.05152
 30
0.0
 11
174.89633
 21
189.05152
 31
0.0
  0
LINE
  5
62C
100
AcDbEntity
  8
1
  6
CONTINUOUS
 62
   250
100
AcDbLine
 10
182.69633
 20
196.85153
 30
0.0
 11
174.89633
 21
196.85153
 31
0.0
  0
LINE
  5
62D
100
AcDbEntity
  8
1
  6
CONTINUOUS
 62
   250
100
AcDbLine
 10
172.89633
 20
189.05152
 30
0.0
 11
165.09633
 21
189.05152
 31
0.0
  0
LINE
  5
62E
100
AcDbEntity
  8
1
  6
CONTINUOUS
 62
   250
100
AcDbLine
 10
172.89633
 20
196.85153
 30
0.0
 11
165.09633
 21
196.85153
 31
0.0
  0
LINE
  5
62F
100
AcDbEntity
  8
1
  6
CONTINUOUS
 62
   250
100
AcDbLine
 10
163.49633
 20
189.05152
 30
0.0
 11
153.49633
 21
189.05152
 31
0.0
  0
LINE
  5
630
100
AcDbEntity
  8
1
  6
CONTINUOUS
 62
   250
100
AcDbLine
 10
163.49633
 20
196.85153
 30
0.0
 11
153.49633
 21
196.85153
 31
0.0
  0
LINE
  5
631
100
AcDbEntity
  8
1
  6
CONTINUOUS
 62
   250
100
AcDbLine
 10
192.09633
 20
179.85153
 30
0.0
 11
192.09633
 21
188.35153
 31
0.0
  0
LINE
  5
632
100
AcDbEntity
  8
1
  6
CONTINUOUS
 62
   250
100
AcDbLine
 10
185.69633
 20
179.85153
 30
0.0
 11
185.69633
 21
188.35153
 31
0.0
  0
LINE
  5
633
100
AcDbEntity
  8
1
  6
CONTINUOUS
 62
   250
100
AcDbLine
 10
182.09633
 20
179.85153
 30
0.0
 11
182.09633
 21
188.35153
 31
0.0
  0
LINE
  5
634
100
AcDbEntity
  8
1
  6
CONTINUOUS
 62
   250
100
AcDbLine
 10
175.69633
 20
179.85153
 30
0.0
 11
175.69633
 21
188.28029
 31
0.0
  0
LINE
  5
635
100
AcDbEntity
  8
1
  6
CONTINUOUS
 62
   250
100
AcDbLine
 10
172.09633
 20
179.85153
 30
0.0
 11
172.09633
 21
188.35153
 31
0.0
  0
LINE
  5
636
100
AcDbEntity
  8
1
  6
CONTINUOUS
 62
   250
100
AcDbLine
 10
165.69633
 20
179.85153
 30
0.0
 11
165.69633
 21
188.35153
 31
0.0
  0
LINE
  5
637
100
AcDbEntity
  8
1
  6
CONTINUOUS
 62
   250
100
AcDbLine
 10
155.69633
 20
179.85153
 30
0.0
 11
155.69633
 21
188.35153
 31
0.0
  0
LINE
  5
638
100
AcDbEntity
  8
1
  6
CONTINUOUS
 62
   250
100
AcDbLine
 10
192.09633
 20
188.35153
 30
0.0
 11
185.69633
 21
188.35153
 31
0.0
  0
LINE
  5
639
100
AcDbEntity
  8
1
  6
CONTINUOUS
 62
   250
100
AcDbLine
 10
192.89633
 20
179.85153
 30
0.0
 11
184.89633
 21
179.85153
 31
0.0
  0
LINE
  5
63A
100
AcDbEntity
  8
1
  6
CONTINUOUS
 62
   250
100
AcDbLine
 10
182.89633
 20
179.85153
 30
0.0
 11
174.89633
 21
179.85153
 31
0.0
  0
LINE
  5
63B
100
AcDbEntity
  8
1
  6
CONTINUOUS
 62
   250
100
AcDbLine
 10
172.89633
 20
179.85153
 30
0.0
 11
164.89633
 21
179.85153
 31
0.0
  0
LINE
  5
63C
100
AcDbEntity
  8
1
  6
CONTINUOUS
 62
   250
100
AcDbLine
 10
162.09633
 20
179.85153
 30
0.0
 11
162.09633
 21
188.35153
 31
0.0
  0
LINE
  5
63D
100
AcDbEntity
  8
1
  6
CONTINUOUS
 62
   250
100
AcDbLine
 10
182.09633
 20
188.35153
 30
0.0
 11
175.69633
 21
188.35153
 31
0.0
  0
LINE
  5
63E
100
AcDbEntity
  8
1
  6
CONTINUOUS
 62
   250
100
AcDbLine
 10
172.09633
 20
188.35153
 30
0.0
 11
165.69633
 21
188.35153
 31
0.0
  0
LINE
  5
63F
100
AcDbEntity
  8
1
  6
CONTINUOUS
 62
   250
100
AcDbLine
 10
162.09633
 20
188.35153
 30
0.0
 11
155.69633
 21
188.35153
 31
0.0
  0
LINE
  5
640
100
AcDbEntity
  8
1
  6
CONTINUOUS
 62
   250
100
AcDbLine
 10
162.89633
 20
179.85153
 30
0.0
 11
154.89633
 21
179.85153
 31
0.0
  0
LINE
  5
641
100
AcDbEntity
  8
1
  6
CONTINUOUS
 62
   250
100
AcDbLine
 10
192.89633
 20
170.35153
 30
0.0
 11
192.89633
 21
179.85153
 31
0.0
  0
LINE
  5
642
100
AcDbEntity
  8
1
  6
CONTINUOUS
 62
   250
100
AcDbLine
 10
184.89633
 20
170.35153
 30
0.0
 11
184.89633
 21
179.85153
 31
0.0
  0
LINE
  5
643
100
AcDbEntity
  8
1
  6
CONTINUOUS
 62
   250
100
AcDbLine
 10
182.89633
 20
170.35153
 30
0.0
 11
182.89633
 21
179.85153
 31
0.0
  0
LINE
  5
644
100
AcDbEntity
  8
1
  6
CONTINUOUS
 62
   250
100
AcDbLine
 10
174.89633
 20
170.35153
 30
0.0
 11
174.89633
 21
179.85153
 31
0.0
  0
LINE
  5
645
100
AcDbEntity
  8
1
  6
CONTINUOUS
 62
   250
100
AcDbLine
 10
172.89633
 20
170.35153
 30
0.0
 11
172.89633
 21
179.85153
 31
0.0
  0
LINE
  5
646
100
AcDbEntity
  8
1
  6
CONTINUOUS
 62
   250
100
AcDbLine
 10
164.89633
 20
170.35153
 30
0.0
 11
164.89633
 21
179.85153
 31
0.0
  0
LINE
  5
647
100
AcDbEntity
  8
1
  6
CONTINUOUS
 62
   250
100
AcDbLine
 10
162.89633
 20
170.35153
 30
0.0
 11
162.89633
 21
179.85153
 31
0.0
  0
LINE
  5
648
100
AcDbEntity
  8
1
  6
CONTINUOUS
 62
   250
100
AcDbLine
 10
154.89633
 20
170.35153
 30
0.0
 11
154.89633
 21
179.89547
 31
0.0
  0
LINE
  5
649
100
AcDbEntity
  8
1
  6
CONTINUOUS
 62
   250
100
AcDbLine
 10
192.89633
 20
170.35153
 30
0.0
 11
184.89633
 21
170.35153
 31
0.0
  0
LINE
  5
64A
100
AcDbEntity
  8
1
  6
CONTINUOUS
 62
   250
100
AcDbLine
 10
182.89633
 20
170.35153
 30
0.0
 11
174.89633
 21
170.35153
 31
0.0
  0
LINE
  5
64B
100
AcDbEntity
  8
1
  6
CONTINUOUS
 62
   250
100
AcDbLine
 10
172.89633
 20
170.35153
 30
0.0
 11
164.89633
 21
170.35153
 31
0.0
  0
LINE
  5
64C
100
AcDbEntity
  8
1
  6
CONTINUOUS
 62
   250
100
AcDbLine
 10
162.89633
 20
170.35153
 30
0.0
 11
154.89633
 21
170.35153
 31
0.0
  0
LINE
  5
64D
100
AcDbEntity
  8
1
  6
CONTINUOUS
 62
   250
100
AcDbLine
 10
192.89633
 20
217.27044
 30
0.0
 11
184.89633
 21
217.27044
 31
0.0
  0
LINE
  5
64E
100
AcDbEntity
  8
1
  6
CONTINUOUS
 62
   250
100
AcDbLine
 10
184.89633
 20
207.77044
 30
0.0
 11
184.89633
 21
217.27044
 31
0.0
  0
LINE
  5
64F
100
AcDbEntity
  8
1
  6
CONTINUOUS
 62
   250
100
AcDbLine
 10
192.89633
 20
207.77044
 30
0.0
 11
184.89633
 21
207.77044
 31
0.0
  0
LINE
  5
650
100
AcDbEntity
  8
1
  6
CONTINUOUS
 62
   250
100
AcDbLine
 10
192.89633
 20
207.77044
 30
0.0
 11
192.89633
 21
217.27044
 31
0.0
  0
LINE
  5
651
100
AcDbEntity
  8
1
  6
CONTINUOUS
 62
   250
100
AcDbLine
 10
182.89633
 20
217.27044
 30
0.0
 11
174.89633
 21
217.27044
 31
0.0
  0
LINE
  5
652
100
AcDbEntity
  8
1
  6
CONTINUOUS
 62
   250
100
AcDbLine
 10
174.89633
 20
207.77044
 30
0.0
 11
174.89633
 21
217.27044
 31
0.0
  0
LINE
  5
653
100
AcDbEntity
  8
1
  6
CONTINUOUS
 62
   250
100
AcDbLine
 10
182.89633
 20
207.77044
 30
0.0
 11
174.89633
 21
207.77044
 31
0.0
  0
LINE
  5
654
100
AcDbEntity
  8
1
  6
CONTINUOUS
 62
   250
100
AcDbLine
 10
182.89633
 20
207.77044
 30
0.0
 11
182.89633
 21
217.27044
 31
0.0
  0
LINE
  5
655
100
AcDbEntity
  8
1
  6
CONTINUOUS
 62
   250
100
AcDbLine
 10
172.89633
 20
217.27044
 30
0.0
 11
164.89633
 21
217.27044
 31
0.0
  0
LINE
  5
656
100
AcDbEntity
  8
1
  6
CONTINUOUS
 62
   250
100
AcDbLine
 10
164.89633
 20
207.77044
 30
0.0
 11
164.89633
 21
217.27044
 31
0.0
  0
LINE
  5
657
100
AcDbEntity
  8
1
  6
CONTINUOUS
 62
   250
100
AcDbLine
 10
172.89633
 20
207.77044
 30
0.0
 11
164.89633
 21
207.77044
 31
0.0
  0
LINE
  5
658
100
AcDbEntity
  8
1
  6
CONTINUOUS
 62
   250
100
AcDbLine
 10
172.89633
 20
207.77044
 30
0.0
 11
172.89633
 21
217.27044
 31
0.0
  0
LINE
  5
659
100
AcDbEntity
  8
1
  6
CONTINUOUS
 62
   250
100
AcDbLine
 10
162.89633
 20
217.27044
 30
0.0
 11
154.89633
 21
217.27044
 31
0.0
  0
LINE
  5
65A
100
AcDbEntity
  8
1
  6
CONTINUOUS
 62
   250
100
AcDbLine
 10
154.89633
 20
207.77044
 30
0.0
 11
154.89633
 21
217.31439
 31
0.0
  0
LINE
  5
65B
100
AcDbEntity
  8
1
  6
CONTINUOUS
 62
   250
100
AcDbLine
 10
162.89633
 20
207.77044
 30
0.0
 11
154.89633
 21
207.77044
 31
0.0
  0
LINE
  5
65C
100
AcDbEntity
  8
1
  6
CONTINUOUS
 62
   250
100
AcDbLine
 10
162.89633
 20
207.77044
 30
0.0
 11
162.89633
 21
217.27044
 31
0.0
  0
LINE
  5
65D
100
AcDbEntity
  8
1
  6
CONTINUOUS
 62
   250
100
AcDbLine
 10
190.89633
 20
203.27044
 30
0.0
 11
190.89633
 21
205.27044
 31
0.0
  0
LINE
  5
65E
100
AcDbEntity
  8
1
  6
CONTINUOUS
 62
   250
100
AcDbLine
 10
186.89633
 20
203.27044
 30
0.0
 11
186.89633
 21
205.27044
 31
0.0
  0
LINE
  5
65F
100
AcDbEntity
  8
1
  6
CONTINUOUS
 62
   250
100
AcDbLine
 10
180.89633
 20
203.27044
 30
0.0
 11
180.89633
 21
205.27044
 31
0.0
  0
LINE
  5
660
100
AcDbEntity
  8
1
  6
CONTINUOUS
 62
   250
100
AcDbLine
 10
176.89633
 20
203.27044
 30
0.0
 11
176.89633
 21
205.27044
 31
0.0
  0
LINE
  5
661
100
AcDbEntity
  8
1
  6
CONTINUOUS
 62
   250
100
AcDbLine
 10
170.89633
 20
203.27044
 30
0.0
 11
170.89633
 21
205.27044
 31
0.0
  0
LINE
  5
662
100
AcDbEntity
  8
1
  6
CONTINUOUS
 62
   250
100
AcDbLine
 10
166.89633
 20
203.27044
 30
0.0
 11
166.89633
 21
205.27044
 31
0.0
  0
LINE
  5
663
100
AcDbEntity
  8
1
  6
CONTINUOUS
 62
   250
100
AcDbLine
 10
160.89633
 20
203.27044
 30
0.0
 11
160.89633
 21
205.27044
 31
0.0
  0
LINE
  5
664
100
AcDbEntity
  8
1
  6
CONTINUOUS
 62
   250
100
AcDbLine
 10
156.89633
 20
203.27044
 30
0.0
 11
156.89633
 21
205.27044
 31
0.0
  0
LINE
  5
665
100
AcDbEntity
  8
1
  6
CONTINUOUS
 62
   250
100
AcDbLine
 10
190.89633
 20
205.27044
 30
0.0
 11
186.89633
 21
205.27044
 31
0.0
  0
LINE
  5
666
100
AcDbEntity
  8
1
  6
CONTINUOUS
 62
   250
100
AcDbLine
 10
190.89633
 20
203.27044
 30
0.0
 11
186.89633
 21
203.27044
 31
0.0
  0
LINE
  5
667
100
AcDbEntity
  8
1
  6
CONTINUOUS
 62
   250
100
AcDbLine
 10
180.89633
 20
203.27044
 30
0.0
 11
176.89633
 21
203.27044
 31
0.0
  0
LINE
  5
668
100
AcDbEntity
  8
1
  6
CONTINUOUS
 62
   250
100
AcDbLine
 10
170.89633
 20
203.27044
 30
0.0
 11
166.89633
 21
203.27044
 31
0.0
  0
LINE
  5
669
100
AcDbEntity
  8
1
  6
CONTINUOUS
 62
   250
100
AcDbLine
 10
160.89633
 20
203.27044
 30
0.0
 11
156.89633
 21
203.27044
 31
0.0
  0
LINE
  5
66A
100
AcDbEntity
  8
1
  6
CONTINUOUS
 62
   250
100
AcDbLine
 10
160.89633
 20
205.27044
 30
0.0
 11
156.89633
 21
205.27044
 31
0.0
  0
LINE
  5
66B
100
AcDbEntity
  8
1
  6
CONTINUOUS
 62
   250
100
AcDbLine
 10
170.89633
 20
205.27044
 30
0.0
 11
166.89633
 21
205.27044
 31
0.0
  0
LINE
  5
66C
100
AcDbEntity
  8
1
  6
CONTINUOUS
 62
   250
100
AcDbLine
 10
180.89633
 20
205.27044
 30
0.0
 11
176.89633
 21
205.27044
 31
0.0
  0
LINE
  5
66D
100
AcDbEntity
  8
1
  6
CONTINUOUS
 62
   250
100
AcDbLine
 10
195.89633
 20
167.15152
 30
0.0
 11
151.89633
 21
167.15152
 31
0.0
  0
LINE
  5
66E
100
AcDbEntity
  8
1
  6
CONTINUOUS
 62
   250
100
AcDbLine
 10
195.89633
 20
220.47044
 30
0.0
 11
151.89633
 21
220.47044
 31
0.0
  0
LINE
  5
66F
100
AcDbEntity
  8
1
  6
CONTINUOUS
 62
   250
100
AcDbLine
 10
195.89633
 20
171.35153
 30
0.0
 11
192.89633
 21
171.35153
 31
0.0
  0
LINE
  5
670
100
AcDbEntity
  8
1
  6
CONTINUOUS
 62
   250
100
AcDbLine
 10
195.89633
 20
216.27044
 30
0.0
 11
192.89633
 21
216.27044
 31
0.0
  0
LINE
  5
671
100
AcDbEntity
  8
1
  6
CONTINUOUS
 62
   250
100
AcDbLine
 10
184.89633
 20
216.27044
 30
0.0
 11
182.89633
 21
216.27044
 31
0.0
  0
LINE
  5
672
100
AcDbEntity
  8
1
  6
CONTINUOUS
 62
   250
100
AcDbLine
 10
174.89633
 20
216.27044
 30
0.0
 11
172.89633
 21
216.27044
 31
0.0
  0
LINE
  5
673
100
AcDbEntity
  8
1
  6
CONTINUOUS
 62
   250
100
AcDbLine
 10
164.89633
 20
216.27044
 30
0.0
 11
162.89633
 21
216.27044
 31
0.0
  0
LINE
  5
674
100
AcDbEntity
  8
1
  6
CONTINUOUS
 62
   250
100
AcDbLine
 10
154.89633
 20
216.27044
 30
0.0
 11
151.89633
 21
216.27044
 31
0.0
  0
LINE
  5
675
100
AcDbEntity
  8
1
  6
CONTINUOUS
 62
   250
100
AcDbLine
 10
154.89633
 20
171.35153
 30
0.0
 11
151.89633
 21
171.35153
 31
0.0
  0
LINE
  5
676
100
AcDbEntity
  8
1
  6
CONTINUOUS
 62
   250
100
AcDbLine
 10
164.89633
 20
171.35153
 30
0.0
 11
162.89633
 21
171.35153
 31
0.0
  0
LINE
  5
677
100
AcDbEntity
  8
1
  6
CONTINUOUS
 62
   250
100
AcDbLine
 10
174.89633
 20
171.35153
 30
0.0
 11
172.89633
 21
171.35153
 31
0.0
  0
LINE
  5
678
100
AcDbEntity
  8
1
  6
CONTINUOUS
 62
   250
100
AcDbLine
 10
184.89633
 20
171.35153
 30
0.0
 11
182.89633
 21
171.35153
 31
0.0
  0
LINE
  5
679
100
AcDbEntity
  8
1
  6
CONTINUOUS
 62
   250
100
AcDbLine
 10
194.39633
 20
156.85153
 30
0.0
 11
194.39633
 21
157.40152
 31
0.0
  0
LINE
  5
67A
100
AcDbEntity
  8
1
  6
CONTINUOUS
 62
   250
100
AcDbLine
 10
153.39633
 20
156.85153
 30
0.0
 11
153.39633
 21
157.40152
 31
0.0
  0
LINE
  5
67B
100
AcDbEntity
  8
1
  6
CONTINUOUS
 62
   250
100
AcDbLine
 10
194.39633
 20
220.47044
 30
0.0
 11
194.39633
 21
230.30152
 31
0.0
  0
LINE
  5
67C
100
AcDbEntity
  8
1
  6
CONTINUOUS
 62
   250
100
AcDbLine
 10
153.39633
 20
220.47044
 30
0.0
 11
153.39633
 21
230.30152
 31
0.0
  0
LINE
  5
67D
100
AcDbEntity
  8
1
  6
CONTINUOUS
 62
   250
100
AcDbLine
 10
184.49633
 20
164.25152
 30
0.0
 11
183.29633
 21
164.25152
 31
0.0
  0
LINE
  5
67E
100
AcDbEntity
  8
1
  6
CONTINUOUS
 62
   250
100
AcDbLine
 10
184.49633
 20
223.45153
 30
0.0
 11
183.29633
 21
223.45153
 31
0.0
  0
LINE
  5
67F
100
AcDbEntity
  8
1
  6
CONTINUOUS
 62
   250
100
AcDbLine
 10
184.49633
 20
164.25152
 30
0.0
 11
184.49633
 21
167.15152
 31
0.0
  0
LINE
  5
680
100
AcDbEntity
  8
1
  6
CONTINUOUS
 62
   250
100
AcDbLine
 10
183.29633
 20
164.25152
 30
0.0
 11
183.29633
 21
167.15152
 31
0.0
  0
LINE
  5
681
100
AcDbEntity
  8
1
  6
CONTINUOUS
 62
   250
100
AcDbLine
 10
174.49633
 20
164.25152
 30
0.0
 11
174.49633
 21
167.15152
 31
0.0
  0
LINE
  5
682
100
AcDbEntity
  8
1
  6
CONTINUOUS
 62
   250
100
AcDbLine
 10
173.29633
 20
164.25152
 30
0.0
 11
173.29633
 21
167.15152
 31
0.0
  0
LINE
  5
683
100
AcDbEntity
  8
1
  6
CONTINUOUS
 62
   250
100
AcDbLine
 10
164.49633
 20
164.25152
 30
0.0
 11
164.49633
 21
167.15152
 31
0.0
  0
LINE
  5
684
100
AcDbEntity
  8
1
  6
CONTINUOUS
 62
   250
100
AcDbLine
 10
163.29633
 20
164.25152
 30
0.0
 11
163.29633
 21
167.15152
 31
0.0
  0
LINE
  5
685
100
AcDbEntity
  8
1
  6
CONTINUOUS
 62
   250
100
AcDbLine
 10
163.29633
 20
220.47044
 30
0.0
 11
163.29633
 21
223.45153
 31
0.0
  0
LINE
  5
686
100
AcDbEntity
  8
1
  6
CONTINUOUS
 62
   250
100
AcDbLine
 10
164.49633
 20
220.47044
 30
0.0
 11
164.49633
 21
223.45153
 31
0.0
  0
LINE
  5
687
100
AcDbEntity
  8
1
  6
CONTINUOUS
 62
   250
100
AcDbLine
 10
173.29633
 20
220.47044
 30
0.0
 11
173.29633
 21
223.45153
 31
0.0
  0
LINE
  5
688
100
AcDbEntity
  8
1
  6
CONTINUOUS
 62
   250
100
AcDbLine
 10
174.49633
 20
220.47044
 30
0.0
 11
174.49633
 21
223.45153
 31
0.0
  0
LINE
  5
689
100
AcDbEntity
  8
1
  6
CONTINUOUS
 62
   250
100
AcDbLine
 10
183.29633
 20
220.47044
 30
0.0
 11
183.29633
 21
223.45153
 31
0.0
  0
LINE
  5
68A
100
AcDbEntity
  8
1
  6
CONTINUOUS
 62
   250
100
AcDbLine
 10
184.49633
 20
220.47044
 30
0.0
 11
184.49633
 21
223.45153
 31
0.0
  0
LINE
  5
68B
100
AcDbEntity
  8
1
  6
CONTINUOUS
 62
   250
100
AcDbLine
 10
174.49633
 20
164.25152
 30
0.0
 11
173.29633
 21
164.25152
 31
0.0
  0
LINE
  5
68C
100
AcDbEntity
  8
1
  6
CONTINUOUS
 62
   250
100
AcDbLine
 10
164.49633
 20
164.25152
 30
0.0
 11
163.29633
 21
164.25152
 31
0.0
  0
LINE
  5
68D
100
AcDbEntity
  8
1
  6
CONTINUOUS
 62
   250
100
AcDbLine
 10
174.49633
 20
223.45153
 30
0.0
 11
173.29633
 21
223.45153
 31
0.0
  0
LINE
  5
68E
100
AcDbEntity
  8
1
  6
CONTINUOUS
 62
   250
100
AcDbLine
 10
164.49633
 20
223.45153
 30
0.0
 11
163.29633
 21
223.45153
 31
0.0
  0
LINE
  5
68F
100
AcDbEntity
  8
1
  6
CONTINUOUS
 62
   250
100
AcDbLine
 10
153.39633
 20
156.85153
 30
0.0
 11
151.89633
 21
156.85153
 31
0.0
  0
LINE
  5
690
100
AcDbEntity
  8
1
  6
CONTINUOUS
 62
   250
100
AcDbLine
 10
153.39633
 20
230.85153
 30
0.0
 11
151.89633
 21
230.85153
 31
0.0
  0
LINE
  5
691
100
AcDbEntity
  8
1
  6
CONTINUOUS
 62
   250
100
AcDbLine
 10
194.39633
 20
158.15152
 30
0.0
 11
153.39633
 21
158.15152
 31
0.0
  0
LINE
  5
692
100
AcDbEntity
  8
1
  6
CONTINUOUS
 62
   250
100
AcDbLine
 10
194.39633
 20
229.47044
 30
0.0
 11
153.39633
 21
229.47044
 31
0.0
  0
LINE
  5
693
100
AcDbEntity
  8
1
  6
CONTINUOUS
 62
   250
100
AcDbLine
 10
194.39633
 20
157.40152
 30
0.0
 11
153.39633
 21
157.40152
 31
0.0
  0
LINE
  5
694
100
AcDbEntity
  8
1
  6
CONTINUOUS
 62
   250
100
AcDbLine
 10
194.39633
 20
230.30152
 30
0.0
 11
153.39633
 21
230.30152
 31
0.0
  0
LINE
  5
695
100
AcDbEntity
  8
1
  6
CONTINUOUS
 62
   250
100
AcDbLine
 10
161.99633
 20
157.40152
 30
0.0
 11
161.99633
 21
158.15152
 31
0.0
  0
LINE
  5
696
100
AcDbEntity
  8
1
  6
CONTINUOUS
 62
   250
100
AcDbLine
 10
185.79633
 20
157.40152
 30
0.0
 11
185.79633
 21
158.15152
 31
0.0
  0
LINE
  5
697
100
AcDbEntity
  8
1
  6
CONTINUOUS
 62
   250
100
AcDbLine
 10
185.79633
 20
229.47044
 30
0.0
 11
185.79633
 21
230.30152
 31
0.0
  0
LINE
  5
698
100
AcDbEntity
  8
1
  6
CONTINUOUS
 62
   250
100
AcDbLine
 10
161.99633
 20
229.47044
 30
0.0
 11
161.99633
 21
230.30152
 31
0.0
  0
ARC
  5
699
100
AcDbEntity
  8
1
  6
CONTINUOUS
 62
   250
100
AcDbCircle
 10
157.64633
 20
222.72044
 30
0.0
 40
3.5
100
AcDbArc
 50
180.0
 51
220.0052
  0
ARC
  5
69A
100
AcDbEntity
  8
1
  6
CONTINUOUS
 62
   250
100
AcDbCircle
 10
157.64633
 20
223.47044
 30
0.0
 40
3.5
100
AcDbArc
 50
0.0
 51
180.0
  0
ARC
  5
69B
100
AcDbEntity
  8
1
  6
CONTINUOUS
 62
   250
100
AcDbCircle
 10
157.64633
 20
222.72044
 30
0.0
 40
3.5
100
AcDbArc
 50
319.9948
 51
0.0
  0
LINE
  5
69C
100
AcDbEntity
  8
1
  6
CONTINUOUS
 62
   250
100
AcDbLine
 10
161.14633
 20
223.47044
 30
0.0
 11
161.14633
 21
222.72044
 31
0.0
  0
LINE
  5
69D
100
AcDbEntity
  8
1
  6
CONTINUOUS
 62
   250
100
AcDbLine
 10
154.14633
 20
223.47044
 30
0.0
 11
154.14633
 21
222.72044
 31
0.0
  0
ARC
  5
69E
100
AcDbEntity
  8
1
  6
CONTINUOUS
 62
   250
100
AcDbCircle
 10
188.89633
 20
213.97044
 30
0.0
 40
3.35
100
AcDbArc
 50
0.0
 51
180.0
  0
ARC
  5
69F
100
AcDbEntity
  8
1
  6
CONTINUOUS
 62
   250
100
AcDbCircle
 10
178.89633
 20
213.97044
 30
0.0
 40
3.35
100
AcDbArc
 50
0.0
 51
180.0
  0
ARC
  5
6A0
100
AcDbEntity
  8
1
  6
CONTINUOUS
 62
   250
100
AcDbCircle
 10
168.89633
 20
213.97044
 30
0.0
 40
3.35
100
AcDbArc
 50
0.0
 51
180.0
  0
ARC
  5
6A1
100
AcDbEntity
  8
1
  6
CONTINUOUS
 62
   250
100
AcDbCircle
 10
158.89633
 20
213.97044
 30
0.0
 40
3.35
100
AcDbArc
 50
0.0
 51
180.0
  0
ARC
  5
6A2
100
AcDbEntity
  8
1
  6
CONTINUOUS
 62
   250
100
AcDbCircle
 10
158.89633
 20
173.65152
 30
0.0
 40
3.35
100
AcDbArc
 50
174.4327
 51
0.0
  0
ARC
  5
6A3
100
AcDbEntity
  8
1
  6
CONTINUOUS
 62
   250
100
AcDbCircle
 10
168.89633
 20
173.65152
 30
0.0
 40
3.35
100
AcDbArc
 50
180.0
 51
0.0
  0
ARC
  5
6A4
100
AcDbEntity
  8
1
  6
CONTINUOUS
 62
   250
100
AcDbCircle
 10
178.89633
 20
173.65152
 30
0.0
 40
3.35
100
AcDbArc
 50
180.0
 51
0.0
  0
ARC
  5
6A5
100
AcDbEntity
  8
1
  6
CONTINUOUS
 62
   250
100
AcDbCircle
 10
188.89633
 20
173.65152
 30
0.0
 40
3.35
100
AcDbArc
 50
180.0
 51
0.0
  0
ARC
  5
6A6
100
AcDbEntity
  8
1
  6
CONTINUOUS
 62
   250
100
AcDbCircle
 10
188.89633
 20
213.32044
 30
0.0
 40
3.35
100
AcDbArc
 50
180.0
 51
0.0
  0
ARC
  5
6A7
100
AcDbEntity
  8
1
  6
CONTINUOUS
 62
   250
100
AcDbCircle
 10
178.89633
 20
213.32044
 30
0.0
 40
3.35
100
AcDbArc
 50
180.0
 51
0.0
  0
ARC
  5
6A8
100
AcDbEntity
  8
1
  6
CONTINUOUS
 62
   250
100
AcDbCircle
 10
168.89633
 20
213.32044
 30
0.0
 40
3.35
100
AcDbArc
 50
180.0
 51
0.0
  0
ARC
  5
6A9
100
AcDbEntity
  8
1
  6
CONTINUOUS
 62
   250
100
AcDbCircle
 10
158.89633
 20
213.32044
 30
0.0
 40
3.35
100
AcDbArc
 50
180.0
 51
0.0
  0
ARC
  5
6AA
100
AcDbEntity
  8
1
  6
CONTINUOUS
 62
   250
100
AcDbCircle
 10
158.89633
 20
174.30152
 30
0.0
 40
3.35
100
AcDbArc
 50
0.0
 51
180.0
  0
ARC
  5
6AB
100
AcDbEntity
  8
1
  6
CONTINUOUS
 62
   250
100
AcDbCircle
 10
168.89633
 20
174.30152
 30
0.0
 40
3.35
100
AcDbArc
 50
0.0
 51
180.0
  0
ARC
  5
6AC
100
AcDbEntity
  8
1
  6
CONTINUOUS
 62
   250
100
AcDbCircle
 10
178.89633
 20
174.30152
 30
0.0
 40
3.35
100
AcDbArc
 50
0.0
 51
180.0
  0
ARC
  5
6AD
100
AcDbEntity
  8
1
  6
CONTINUOUS
 62
   250
100
AcDbCircle
 10
188.89633
 20
174.30152
 30
0.0
 40
3.35
100
AcDbArc
 50
0.0
 51
180.0
  0
LINE
  5
6AE
100
AcDbEntity
  8
1
  6
CONTINUOUS
 62
   250
100
AcDbLine
 10
192.24633
 20
174.30152
 30
0.0
 11
192.24633
 21
173.65152
 31
0.0
  0
LINE
  5
6AF
100
AcDbEntity
  8
1
  6
CONTINUOUS
 62
   250
100
AcDbLine
 10
185.54633
 20
174.30152
 30
0.0
 11
185.54633
 21
173.65152
 31
0.0
  0
LINE
  5
6B0
100
AcDbEntity
  8
1
  6
CONTINUOUS
 62
   250
100
AcDbLine
 10
182.24633
 20
174.30152
 30
0.0
 11
182.24633
 21
173.65152
 31
0.0
  0
LINE
  5
6B1
100
AcDbEntity
  8
1
  6
CONTINUOUS
 62
   250
100
AcDbLine
 10
175.54633
 20
174.30152
 30
0.0
 11
175.54633
 21
173.65152
 31
0.0
  0
LINE
  5
6B2
100
AcDbEntity
  8
1
  6
CONTINUOUS
 62
   250
100
AcDbLine
 10
172.24633
 20
174.30152
 30
0.0
 11
172.24633
 21
173.65152
 31
0.0
  0
LINE
  5
6B3
100
AcDbEntity
  8
1
  6
CONTINUOUS
 62
   250
100
AcDbLine
 10
165.54633
 20
174.30152
 30
0.0
 11
165.54633
 21
173.65152
 31
0.0
  0
LINE
  5
6B4
100
AcDbEntity
  8
1
  6
CONTINUOUS
 62
   250
100
AcDbLine
 10
162.24633
 20
174.30152
 30
0.0
 11
162.24633
 21
173.65152
 31
0.0
  0
LINE
  5
6B5
100
AcDbEntity
  8
1
  6
CONTINUOUS
 62
   250
100
AcDbLine
 10
155.54633
 20
174.30152
 30
0.0
 11
155.56213
 21
173.97653
 31
0.0
  0
LINE
  5
6B6
100
AcDbEntity
  8
1
  6
CONTINUOUS
 62
   250
100
AcDbLine
 10
155.54633
 20
213.97044
 30
0.0
 11
155.54633
 21
213.32044
 31
0.0
  0
LINE
  5
6B7
100
AcDbEntity
  8
1
  6
CONTINUOUS
 62
   250
100
AcDbLine
 10
162.24633
 20
213.97044
 30
0.0
 11
162.24633
 21
213.32044
 31
0.0
  0
LINE
  5
6B8
100
AcDbEntity
  8
1
  6
CONTINUOUS
 62
   250
100
AcDbLine
 10
165.54633
 20
213.97044
 30
0.0
 11
165.54633
 21
213.32044
 31
0.0
  0
LINE
  5
6B9
100
AcDbEntity
  8
1
  6
CONTINUOUS
 62
   250
100
AcDbLine
 10
172.24633
 20
213.97044
 30
0.0
 11
172.24633
 21
213.32044
 31
0.0
  0
LINE
  5
6BA
100
AcDbEntity
  8
1
  6
CONTINUOUS
 62
   250
100
AcDbLine
 10
175.54633
 20
213.97044
 30
0.0
 11
175.54633
 21
213.32044
 31
0.0
  0
LINE
  5
6BB
100
AcDbEntity
  8
1
  6
CONTINUOUS
 62
   250
100
AcDbLine
 10
182.24633
 20
213.97044
 30
0.0
 11
182.24633
 21
213.32044
 31
0.0
  0
LINE
  5
6BC
100
AcDbEntity
  8
1
  6
CONTINUOUS
 62
   250
100
AcDbLine
 10
185.54633
 20
213.97044
 30
0.0
 11
185.54633
 21
213.32044
 31
0.0
  0
LINE
  5
6BD
100
AcDbEntity
  8
1
  6
CONTINUOUS
 62
   250
100
AcDbLine
 10
192.24633
 20
213.97044
 30
0.0
 11
192.24633
 21
213.32044
 31
0.0
  0
LINE
  5
6BE
100
AcDbEntity
  8
1
  6
CONTINUOUS
 62
   250
100
AcDbLine
 10
194.39633
 20
157.40152
 30
0.0
 11
194.39633
 21
167.15152
 31
0.0
  0
LINE
  5
6BF
100
AcDbEntity
  8
1
  6
CONTINUOUS
 62
   250
100
AcDbLine
 10
153.39633
 20
157.40152
 30
0.0
 11
153.39633
 21
167.15152
 31
0.0
  0
LINE
  5
6C0
100
AcDbEntity
  8
1
  6
CONTINUOUS
 62
   250
100
AcDbLine
 10
194.39633
 20
230.30152
 30
0.0
 11
194.39633
 21
230.85153
 31
0.0
  0
LINE
  5
6C1
100
AcDbEntity
  8
1
  6
CONTINUOUS
 62
   250
100
AcDbLine
 10
153.39633
 20
230.30152
 30
0.0
 11
153.39633
 21
230.85153
 31
0.0
  0
LINE
  5
6C2
100
AcDbEntity
  8
1
  6
CENTERLINE
 62
   250
100
AcDbLine
 10
201.04317
 20
193.85153
 30
0.0
 11
148.71488
 21
193.85153
 31
0.0
  0
LINE
  5
6C3
100
AcDbEntity
  8
1
  6
CENTERLINE
 62
   250
100
AcDbLine
 10
201.04317
 20
213.35153
 30
0.0
 11
151.89633
 21
213.35153
 31
0.0
  0
LINE
  5
6C4
100
AcDbEntity
  8
1
  6
CENTERLINE
 62
   250
100
AcDbLine
 10
201.04317
 20
174.35153
 30
0.0
 11
151.89633
 21
174.35153
 31
0.0
  0
LINE
  5
6C5
100
AcDbEntity
  8
1
  6
CONTINUOUS
 62
   250
100
AcDbLine
 10
136.89633
 20
227.85153
 30
0.0
 11
136.89633
 21
159.85153
 31
0.0
  0
LINE
  5
6C6
100
AcDbEntity
  8
1
  6
CONTINUOUS
 62
   250
100
AcDbLine
 10
151.89633
 20
227.85153
 30
0.0
 11
151.89633
 21
159.85153
 31
0.0
  0
LINE
  5
6C8
100
AcDbEntity
  8
1
  6
HIDDEN
 62
   250
100
AcDbLine
 10
289.58461
 20
154.61044
 30
0.0
 11
289.58461
 21
200.05554
 31
0.0
  0
LINE
  5
6C9
100
AcDbEntity
  8
1
  6
HIDDEN
 62
   250
100
AcDbLine
 10
286.58461
 20
144.41044
 30
0.0
 11
286.58461
 21
151.61044
 31
0.0
  0
LINE
  5
6CA
100
AcDbEntity
  8
1
  6
HIDDEN
 62
   250
100
AcDbLine
 10
136.53608
 20
115.92853
 30
0.0
 11
151.53608
 21
115.92853
 31
0.0
  0
LINE
  5
6CB
100
AcDbEntity
  8
1
  6
HIDDEN
 62
   250
100
AcDbLine
 10
136.53608
 20
47.928533
 30
0.0
 11
151.57804
 21
47.928533
 31
0.0
  0
LINE
  5
6CC
100
AcDbEntity
  8
1
  6
HIDDEN
 62
   250
100
AcDbLine
 10
289.58461
 20
200.21044
 30
0.0
 11
286.58461
 21
203.21044
 31
0.0
  0
LINE
  5
6CD
100
AcDbEntity
  8
1
  6
HIDDEN
 62
   250
100
AcDbLine
 10
289.58461
 20
154.61044
 30
0.0
 11
286.58461
 21
151.61044
 31
0.0
  0
LINE
  5
6CE
100
AcDbEntity
  8
1
  6
HIDDEN
 62
   250
100
AcDbLine
 10
286.58461
 20
203.21044
 30
0.0
 11
286.58461
 21
210.41044
 31
0.0
  0
LINE
  5
6CF
100
AcDbEntity
  8
1
  6
HIDDEN
 62
   250
 48
0.5
100
AcDbLine
 10
335.73462
 20
188.15547
 30
0.0
 11
335.73462
 21
201.41044
 31
0.0
  0
LINE
  5
6D0
100
AcDbEntity
  8
1
  6
HIDDEN
 62
   250
 48
0.5
100
AcDbLine
 10
339.63461
 20
201.41044
 30
0.0
 11
335.73462
 21
201.41044
 31
0.0
  0
LINE
  5
6D1
100
AcDbEntity
  8
1
  6
HIDDEN
 62
   250
 48
0.5
100
AcDbLine
 10
336.73462
 20
188.2345
 30
0.0
 11
336.73462
 21
201.41044
 31
0.0
  0
LINE
  5
6D2
100
AcDbEntity
  8
1
  6
HIDDEN
 62
   250
 48
0.5
100
AcDbLine
 10
339.63461
 20
193.61044
 30
0.0
 11
339.63461
 21
201.41044
 31
0.0
  0
LINE
  5
6D3
100
AcDbEntity
  8
1
  6
HIDDEN
 62
   250
 48
0.5
100
AcDbLine
 10
339.63461
 20
193.61044
 30
0.0
 11
336.73462
 21
193.61044
 31
0.0
  0
LINE
  5
6D4
100
AcDbEntity
  8
1
  6
HIDDEN
 62
   250
 48
0.5
100
AcDbLine
 10
342.13461
 20
194.47916
 30
0.0
 11
342.13461
 21
197.01044
 31
0.0
  0
LINE
  5
6D5
100
AcDbEntity
  8
1
  6
HIDDEN
 62
   250
 48
0.5
100
AcDbLine
 10
339.63461
 20
200.76044
 30
0.0
 11
342.13461
 21
200.54172
 31
0.0
  0
LINE
  5
6D6
100
AcDbEntity
  8
1
  6
HIDDEN
 62
   250
 48
0.5
100
AcDbLine
 10
339.63461
 20
194.26044
 30
0.0
 11
342.13461
 21
194.47916
 31
0.0
  0
LINE
  5
6D7
100
AcDbEntity
  8
1
  6
HIDDEN
 62
   250
 48
0.5
100
AcDbLine
 10
342.13461
 20
198.01044
 30
0.0
 11
340.93462
 21
198.01044
 31
0.0
  0
LINE
  5
6D8
100
AcDbEntity
  8
1
  6
HIDDEN
 62
   250
 48
0.5
100
AcDbLine
 10
342.13461
 20
197.01044
 30
0.0
 11
340.93462
 21
197.01044
 31
0.0
  0
LINE
  5
6D9
100
AcDbEntity
  8
1
  6
HIDDEN
 62
   250
 48
0.5
100
AcDbLine
 10
340.93462
 20
197.01044
 30
0.0
 11
340.93462
 21
198.01044
 31
0.0
  0
LINE
  5
6DA
100
AcDbEntity
  8
1
  6
HIDDEN
 62
   250
 48
0.5
100
AcDbLine
 10
342.13461
 20
198.01044
 30
0.0
 11
342.13461
 21
200.54172
 31
0.0
  0
LINE
  5
6DD
100
AcDbEntity
  8
1
  6
CENTERLINE
 62
   250
100
AcDbLine
 10
191.03608
 20
122.82644
 30
0.0
 11
191.03608
 21
32.196102
 31
0.0
  0
LINE
  5
6DE
100
AcDbEntity
  8
1
  6
CENTERLINE
 62
   250
100
AcDbLine
 10
156.03608
 20
64.396439
 30
0.0
 11
156.03608
 21
39.501969
 31
0.0
  0
LINE
  5
6DF
100
AcDbEntity
  8
1
  6
CENTERLINE
 62
   250
100
AcDbLine
 10
132.03608
 20
122.82644
 30
0.0
 11
132.03608
 21
32.196102
 31
0.0
  0
LINE
  5
6E0
100
AcDbEntity
  8
1
  6
CENTERLINE
 62
   250
100
AcDbLine
 10
97.036084
 20
64.396439
 30
0.0
 11
97.036084
 21
32.196102
 31
0.0
  0
LINE
  5
6E5
100
AcDbEntity
  8
1
  6
CONTINUOUS
 62
   250
100
AcDbLine
 10
361.13998
 20
215.85255
 30
0.0
 11
361.13998
 21
139.15473
 31
0.0
  0
LINE
  5
6E6
100
AcDbEntity
  8
1
  6
CONTINUOUS
 62
   250
100
AcDbLine
 10
336.73462
 20
202.41044
 30
0.0
 11
336.73462
 21
241.50365
 31
0.0
  0
LINE
  5
6E7
100
AcDbEntity
  8
1
  6
CONTINUOUS
 62
   250
100
AcDbLine
 10
336.73462
 20
240.50375
 30
0.0
 11
333.23451
 21
241.08476
 31
0.0
  0
LINE
  5
6E8
100
AcDbEntity
  8
1
  6
CONTINUOUS
 62
   250
100
AcDbLine
 10
336.73462
 20
240.50375
 30
0.0
 11
333.23451
 21
239.92273
 31
0.0
  0
LINE
  5
6E9
100
AcDbEntity
  8
1
  6
CONTINUOUS
 62
   250
100
AcDbLine
 10
333.23451
 20
241.08476
 30
0.0
 11
333.23451
 21
239.92273
 31
0.0
  0
LINE
  5
6EA
100
AcDbEntity
  8
1
  6
CONTINUOUS
 62
   250
100
AcDbLine
 10
283.13461
 20
240.50375
 30
0.0
 11
286.63472
 21
241.08476
 31
0.0
  0
LINE
  5
6EB
100
AcDbEntity
  8
1
  6
CONTINUOUS
 62
   250
100
AcDbLine
 10
283.13461
 20
240.50375
 30
0.0
 11
286.63472
 21
239.92273
 31
0.0
  0
LINE
  5
6EC
100
AcDbEntity
  8
1
  6
CONTINUOUS
 62
   250
100
AcDbLine
 10
286.63472
 20
241.08476
 30
0.0
 11
286.63472
 21
239.92273
 31
0.0
  0
LINE
  5
6ED
100
AcDbEntity
  8
1
  6
CONTINUOUS
 62
   250
100
AcDbLine
 10
336.73462
 20
240.50375
 30
0.0
 11
309.93462
 21
240.50375
 31
0.0
  0
LINE
  5
6EE
100
AcDbEntity
  8
1
  6
CONTINUOUS
 62
   250
100
AcDbLine
 10
283.13461
 20
240.50375
 30
0.0
 11
309.93462
 21
240.50375
 31
0.0
  0
TEXT
  5
6EF
100
AcDbEntity
  8
1
  6
CONTINUOUS
 62
   250
100
AcDbText
 10
303.37238
 20
241.50465
 30
0.0
 40
2.4999
  1
53,6
 41
0.75
100
AcDbText
  0
TEXT
  5
6F0
100
AcDbEntity
  8
1
  6
CONTINUOUS
 62
   250
100
AcDbText
 10
310.87208
 20
241.50465
 30
0.0
 40
2.4999
  1
(1)
 41
0.75
100
AcDbText
  0
LINE
  5
6F1
100
AcDbEntity
  8
V0L1
  6
CONTINUOUS
 62
   250
100
AcDbLine
 10
366.304973
 20
138.993153
 30
0.0
 11
366.678467
 21
139.366647
 31
0.0
  0
LINE
  5
6F2
100
AcDbEntity
  8
V0L1
  6
CONTINUOUS
 62
   250
100
AcDbLine
 10
361.139981
 20
139.485015
 30
0.0
 11
366.678467
 21
145.023501
 31
0.0
  0
LINE
  5
6F3
100
AcDbEntity
  8
V0L1
  6
CONTINUOUS
 62
   250
100
AcDbLine
 10
361.139981
 20
145.14187
 30
0.0
 11
366.678467
 21
150.680356
 31
0.0
  0
LINE
  5
6F4
100
AcDbEntity
  8
V0L1
  6
CONTINUOUS
 62
   250
100
AcDbLine
 10
361.139981
 20
150.798724
 30
0.0
 11
366.678467
 21
156.33721
 31
0.0
  0
LINE
  5
6F5
100
AcDbEntity
  8
V0L1
  6
CONTINUOUS
 62
   250
100
AcDbLine
 10
361.139981
 20
156.455578
 30
0.0
 11
366.678467
 21
161.994064
 31
0.0
  0
LINE
  5
6F6
100
AcDbEntity
  8
V0L1
  6
CONTINUOUS
 62
   250
100
AcDbLine
 10
361.139981
 20
162.112432
 30
0.0
 11
366.678467
 21
167.650918
 31
0.0
  0
LINE
  5
6F7
100
AcDbEntity
  8
V0L1
  6
CONTINUOUS
 62
   250
100
AcDbLine
 10
361.139981
 20
167.769287
 30
0.0
 11
366.678467
 21
173.307773
 31
0.0
  0
LINE
  5
6F8
100
AcDbEntity
  8
V0L1
  6
CONTINUOUS
 62
   250
100
AcDbLine
 10
361.139981
 20
173.426141
 30
0.0
 11
366.678467
 21
178.964627
 31
0.0
  0
LINE
  5
6F9
100
AcDbEntity
  8
V0L1
  6
CONTINUOUS
 62
   250
100
AcDbLine
 10
361.139981
 20
179.082995
 30
0.0
 11
366.678467
 21
184.621481
 31
0.0
  0
LINE
  5
6FA
100
AcDbEntity
  8
V0L1
  6
CONTINUOUS
 62
   250
100
AcDbLine
 10
361.139981
 20
184.739849
 30
0.0
 11
366.678467
 21
190.278335
 31
0.0
  0
LINE
  5
6FB
100
AcDbEntity
  8
V0L1
  6
CONTINUOUS
 62
   250
100
AcDbLine
 10
361.139981
 20
190.396704
 30
0.0
 11
366.678467
 21
195.93519
 31
0.0
  0
LINE
  5
6FC
100
AcDbEntity
  8
V0L1
  6
CONTINUOUS
 62
   250
100
AcDbLine
 10
361.139981
 20
196.053558
 30
0.0
 11
366.678467
 21
201.592044
 31
0.0
  0
LINE
  5
6FD
100
AcDbEntity
  8
V0L1
  6
CONTINUOUS
 62
   250
100
AcDbLine
 10
361.139981
 20
201.710412
 30
0.0
 11
366.678467
 21
207.248898
 31
0.0
  0
LINE
  5
6FE
100
AcDbEntity
  8
V0L1
  6
CONTINUOUS
 62
   250
100
AcDbLine
 10
361.139981
 20
207.367266
 30
0.0
 11
366.678467
 21
212.905752
 31
0.0
  0
LINE
  5
6FF
100
AcDbEntity
  8
V0L1
  6
CONTINUOUS
 62
   250
100
AcDbLine
 10
361.139981
 20
213.024121
 30
0.0
 11
363.968408
 21
215.852548
 31
0.0
  0
LINE
  5
700
100
AcDbEntity
  8
1
  6
CONTINUOUS
 62
   250
100
AcDbLine
 10
132.03608
 20
33.753549
 30
0.0
 11
135.53618
 21
33.172532
 31
0.0
  0
LINE
  5
701
100
AcDbEntity
  8
1
  6
CONTINUOUS
 62
   250
100
AcDbLine
 10
132.03608
 20
33.753549
 30
0.0
 11
135.53618
 21
34.334566
 31
0.0
  0
LINE
  5
702
100
AcDbEntity
  8
1
  6
CONTINUOUS
 62
   250
100
AcDbLine
 10
135.53618
 20
33.172532
 30
0.0
 11
135.53618
 21
34.334566
 31
0.0
  0
LINE
  5
703
100
AcDbEntity
  8
1
  6
CONTINUOUS
 62
   250
100
AcDbLine
 10
191.03608
 20
33.753549
 30
0.0
 11
187.53598
 21
33.172532
 31
0.0
  0
LINE
  5
704
100
AcDbEntity
  8
1
  6
CONTINUOUS
 62
   250
100
AcDbLine
 10
191.03608
 20
33.753549
 30
0.0
 11
187.53598
 21
34.334566
 31
0.0
  0
LINE
  5
705
100
AcDbEntity
  8
1
  6
CONTINUOUS
 62
   250
100
AcDbLine
 10
187.53598
 20
33.172532
 30
0.0
 11
187.53598
 21
34.334566
 31
0.0
  0
LINE
  5
706
100
AcDbEntity
  8
1
  6
CONTINUOUS
 62
   250
100
AcDbLine
 10
132.03608
 20
33.753549
 30
0.0
 11
161.53608
 21
33.753549
 31
0.0
  0
LINE
  5
707
100
AcDbEntity
  8
1
  6
CONTINUOUS
 62
   250
100
AcDbLine
 10
191.03608
 20
33.753549
 30
0.0
 11
161.53608
 21
33.753549
 31
0.0
  0
TEXT
  5
708
100
AcDbEntity
  8
1
  6
CONTINUOUS
 62
   250
100
AcDbText
 10
159.66116
 20
34.754449
 30
0.0
 40
2.4999
  1
59
 41
0.75
100
AcDbText
  0
LINE
  5
709
100
AcDbEntity
  8
1
  6
CONTINUOUS
 62
   250
100
AcDbLine
 10
97.036084
 20
33.753549
 30
0.0
 11
100.53618
 21
33.172532
 31
0.0
  0
LINE
  5
70A
100
AcDbEntity
  8
1
  6
CONTINUOUS
 62
   250
100
AcDbLine
 10
97.036084
 20
33.753549
 30
0.0
 11
100.53618
 21
34.334566
 31
0.0
  0
LINE
  5
70B
100
AcDbEntity
  8
1
  6
CONTINUOUS
 62
   250
100
AcDbLine
 10
100.53618
 20
33.172532
 30
0.0
 11
100.53618
 21
34.334566
 31
0.0
  0
LINE
  5
70C
100
AcDbEntity
  8
1
  6
CONTINUOUS
 62
   250
100
AcDbLine
 10
132.03608
 20
33.753549
 30
0.0
 11
128.53598
 21
33.172532
 31
0.0
  0
LINE
  5
70D
100
AcDbEntity
  8
1
  6
CONTINUOUS
 62
   250
100
AcDbLine
 10
132.03608
 20
33.753549
 30
0.0
 11
128.53598
 21
34.334566
 31
0.0
  0
LINE
  5
70E
100
AcDbEntity
  8
1
  6
CONTINUOUS
 62
   250
100
AcDbLine
 10
128.53598
 20
33.172532
 30
0.0
 11
128.53598
 21
34.334566
 31
0.0
  0
LINE
  5
70F
100
AcDbEntity
  8
1
  6
CONTINUOUS
 62
   250
100
AcDbLine
 10
97.036084
 20
33.753549
 30
0.0
 11
114.53608
 21
33.753549
 31
0.0
  0
LINE
  5
710
100
AcDbEntity
  8
1
  6
CONTINUOUS
 62
   250
100
AcDbLine
 10
132.03608
 20
33.753549
 30
0.0
 11
114.53608
 21
33.753549
 31
0.0
  0
TEXT
  5
711
100
AcDbEntity
  8
1
  6
CONTINUOUS
 62
   250
100
AcDbText
 10
112.66116
 20
34.754449
 30
0.0
 40
2.4999
  1
35
 41
0.75
100
AcDbText
  0
LINE
  5
712
100
AcDbEntity
  8
1
  6
CONTINUOUS
 62
   250
100
AcDbLine
 10
198.8447
 20
106.92853
 30
0.0
 11
206.83156
 21
106.92853
 31
0.0
  0
LINE
  5
713
100
AcDbEntity
  8
1
  6
CONTINUOUS
 62
   250
100
AcDbLine
 10
198.8447
 20
56.928533
 30
0.0
 11
206.83156
 21
56.928533
 31
0.0
  0
LINE
  5
714
100
AcDbEntity
  8
1
  6
CONTINUOUS
 62
   250
100
AcDbLine
 10
205.83166
 20
106.92853
 30
0.0
 11
205.25065
 21
103.42843
 31
0.0
  0
LINE
  5
715
100
AcDbEntity
  8
1
  6
CONTINUOUS
 62
   250
100
AcDbLine
 10
205.83166
 20
106.92853
 30
0.0
 11
206.41268
 21
103.42843
 31
0.0
  0
LINE
  5
716
100
AcDbEntity
  8
1
  6
CONTINUOUS
 62
   250
100
AcDbLine
 10
205.25065
 20
103.42843
 30
0.0
 11
206.41268
 21
103.42843
 31
0.0
  0
LINE
  5
717
100
AcDbEntity
  8
1
  6
CONTINUOUS
 62
   250
100
AcDbLine
 10
205.83166
 20
56.928533
 30
0.0
 11
205.25065
 21
60.428633
 31
0.0
  0
LINE
  5
718
100
AcDbEntity
  8
1
  6
CONTINUOUS
 62
   250
100
AcDbLine
 10
205.83166
 20
56.928533
 30
0.0
 11
206.41268
 21
60.428633
 31
0.0
  0
LINE
  5
719
100
AcDbEntity
  8
1
  6
CONTINUOUS
 62
   250
100
AcDbLine
 10
205.25065
 20
60.428633
 30
0.0
 11
206.41268
 21
60.428633
 31
0.0
  0
LINE
  5
71A
100
AcDbEntity
  8
1
  6
CONTINUOUS
 62
   250
100
AcDbLine
 10
205.83166
 20
106.92853
 30
0.0
 11
205.83166
 21
81.928533
 31
0.0
  0
LINE
  5
71B
100
AcDbEntity
  8
1
  6
CONTINUOUS
 62
   250
100
AcDbLine
 10
205.83166
 20
56.928533
 30
0.0
 11
205.83166
 21
81.928533
 31
0.0
  0
TEXT
  5
71C
100
AcDbEntity
  8
1
  6
CONTINUOUS
 62
   250
100
AcDbText
 10
204.83076
 20
80.053608
 30
0.0
 40
2.4999
  1
50
 50
90.0
 41
0.75
100
AcDbText
  0
LINE
  5
71D
100
AcDbEntity
  8
1
  6
CONTINUOUS
 62
   250
100
AcDbLine
 10
89.010735
 20
111.92853
 30
0.0
 11
77.259381
 21
111.92853
 31
0.0
  0
LINE
  5
71E
100
AcDbEntity
  8
1
  6
CONTINUOUS
 62
   250
100
AcDbLine
 10
89.010735
 20
51.928533
 30
0.0
 11
77.259381
 21
51.928533
 31
0.0
  0
LINE
  5
71F
100
AcDbEntity
  8
1
  6
CONTINUOUS
 62
   250
100
AcDbLine
 10
78.259281
 20
111.92853
 30
0.0
 11
77.678264
 21
108.42843
 31
0.0
  0
LINE
  5
720
100
AcDbEntity
  8
1
  6
CONTINUOUS
 62
   250
100
AcDbLine
 10
78.259281
 20
111.92853
 30
0.0
 11
78.840298
 21
108.42843
 31
0.0
  0
LINE
  5
721
100
AcDbEntity
  8
1
  6
CONTINUOUS
 62
   250
100
AcDbLine
 10
77.678264
 20
108.42843
 30
0.0
 11
78.840298
 21
108.42843
 31
0.0
  0
LINE
  5
722
100
AcDbEntity
  8
1
  6
CONTINUOUS
 62
   250
100
AcDbLine
 10
78.259281
 20
51.928533
 30
0.0
 11
77.678264
 21
55.428633
 31
0.0
  0
LINE
  5
723
100
AcDbEntity
  8
1
  6
CONTINUOUS
 62
   250
100
AcDbLine
 10
78.259281
 20
51.928533
 30
0.0
 11
78.840298
 21
55.428633
 31
0.0
  0
LINE
  5
724
100
AcDbEntity
  8
1
  6
CONTINUOUS
 62
   250
100
AcDbLine
 10
77.678264
 20
55.428633
 30
0.0
 11
78.840298
 21
55.428633
 31
0.0
  0
LINE
  5
725
100
AcDbEntity
  8
1
  6
CONTINUOUS
 62
   250
100
AcDbLine
 10
78.259281
 20
111.92853
 30
0.0
 11
78.259281
 21
81.928533
 31
0.0
  0
LINE
  5
726
100
AcDbEntity
  8
1
  6
CONTINUOUS
 62
   250
100
AcDbLine
 10
78.259281
 20
51.928533
 30
0.0
 11
78.259281
 21
81.928533
 31
0.0
  0
TEXT
  5
727
100
AcDbEntity
  8
1
  6
CONTINUOUS
 62
   250
100
AcDbText
 10
77.258381
 20
80.053608
 30
0.0
 40
2.4999
  1
60
 50
90.0
 41
0.75
100
AcDbText
  0
LINE
  5
728
100
AcDbEntity
  8
1
  6
CONTINUOUS
 62
   250
100
AcDbLine
 10
92.896327
 20
155.85153
 30
0.0
 11
92.896327
 21
138.57998
 31
0.0
  0
LINE
  5
729
100
AcDbEntity
  8
1
  6
CONTINUOUS
 62
   250
100
AcDbLine
 10
195.89633
 20
155.85153
 30
0.0
 11
195.89633
 21
138.57998
 31
0.0
  0
LINE
  5
72A
100
AcDbEntity
  8
1
  6
CONTINUOUS
 62
   250
100
AcDbLine
 10
92.896327
 20
139.57988
 30
0.0
 11
96.396428
 21
138.99886
 31
0.0
  0
LINE
  5
72B
100
AcDbEntity
  8
1
  6
CONTINUOUS
 62
   250
100
AcDbLine
 10
92.896327
 20
139.57988
 30
0.0
 11
96.396428
 21
140.16089
 31
0.0
  0
LINE
  5
72C
100
AcDbEntity
  8
1
  6
CONTINUOUS
 62
   250
100
AcDbLine
 10
96.396428
 20
138.99886
 30
0.0
 11
96.396428
 21
140.16089
 31
0.0
  0
LINE
  5
72D
100
AcDbEntity
  8
1
  6
CONTINUOUS
 62
   250
100
AcDbLine
 10
195.89633
 20
139.57988
 30
0.0
 11
192.39623
 21
138.99886
 31
0.0
  0
LINE
  5
72E
100
AcDbEntity
  8
1
  6
CONTINUOUS
 62
   250
100
AcDbLine
 10
195.89633
 20
139.57988
 30
0.0
 11
192.39623
 21
140.16089
 31
0.0
  0
LINE
  5
72F
100
AcDbEntity
  8
1
  6
CONTINUOUS
 62
   250
100
AcDbLine
 10
192.39623
 20
138.99886
 30
0.0
 11
192.39623
 21
140.16089
 31
0.0
  0
LINE
  5
730
100
AcDbEntity
  8
1
  6
CONTINUOUS
 62
   250
100
AcDbLine
 10
92.896327
 20
139.57988
 30
0.0
 11
144.39633
 21
139.57988
 31
0.0
  0
LINE
  5
731
100
AcDbEntity
  8
1
  6
CONTINUOUS
 62
   250
100
AcDbLine
 10
195.89633
 20
139.57988
 30
0.0
 11
144.39633
 21
139.57988
 31
0.0
  0
TEXT
  5
732
100
AcDbEntity
  8
1
  6
CONTINUOUS
 62
   250
100
AcDbText
 10
141.58394
 20
140.58078
 30
0.0
 40
2.4999
  1
103
 41
0.75
100
AcDbText
  0
LINE
  5
733
100
AcDbEntity
  8
1
  6
CONTINUOUS
 62
   250
100
AcDbLine
 10
287.13461
 20
184.66044
 30
0.0
 11
274.87186
 21
179.39578
 31
0.0
  0
LINE
  5
734
100
AcDbEntity
  8
1
  6
CONTINUOUS
 62
   250
100
AcDbLine
 10
287.13461
 20
184.66044
 30
0.0
 11
284.18147
 21
183.93455
 31
0.0
  0
LINE
  5
735
100
AcDbEntity
  8
1
  6
CONTINUOUS
 62
   250
100
AcDbLine
 10
287.13461
 20
184.66044
 30
0.0
 11
284.57439
 21
183.01933
 31
0.0
  0
LINE
  5
736
100
AcDbEntity
  8
1
  6
CONTINUOUS
 62
   250
100
AcDbLine
 10
284.18147
 20
183.93455
 30
0.0
 11
284.57439
 21
183.01933
 31
0.0
  0
LINE
  5
737
100
AcDbEntity
  8
1
  6
CONTINUOUS
 62
   250
100
AcDbLine
 10
235.87186
 20
179.39578
 30
0.0
 11
274.87186
 21
179.39578
 31
0.0
  0
LINE
  5
738
100
AcDbEntity
  8
1
  6
CONTINUOUS
 62
   250
100
AcDbLine
 10
167.10178
 20
161.28806
 30
0.0
 11
170.99087
 21
165.17715
 31
0.0
  0
LINE
  5
739
100
AcDbEntity
  8
1
  6
CONTINUOUS
 62
   250
100
AcDbLine
 10
167.63211
 20
164.64682
 30
0.0
 11
170.46054
 21
161.81839
 31
0.0
  0
LINE
  5
73A
100
AcDbEntity
  8
1
  6
CONTINUOUS
 62
   250
100
AcDbLine
 10
176.80178
 20
222.5259
 30
0.0
 11
180.69087
 21
226.41499
 31
0.0
  0
LINE
  5
73B
100
AcDbEntity
  8
1
  6
CONTINUOUS
 62
   250
100
AcDbLine
 10
177.33211
 20
225.88466
 30
0.0
 11
180.16054
 21
223.05623
 31
0.0
  0
LINE
  5
73C
100
AcDbEntity
  8
1
  6
CONTINUOUS
 62
   250
100
AcDbLine
 10
188.37856
 20
166.01929
 30
0.0
 11
191.91409
 21
162.48376
 31
0.0
  0
LINE
  5
73D
100
AcDbEntity
  8
1
  6
CONTINUOUS
 62
   250
100
AcDbLine
 10
187.86382
 20
161.96902
 30
0.0
 11
192.45991
 21
166.56511
 31
0.0
  0
LINE
  5
73E
100
AcDbEntity
  8
1
  6
CONTINUOUS
 62
   250
100
AcDbLine
 10
155.87856
 20
224.58821
 30
0.0
 11
159.41409
 21
221.05268
 31
0.0
  0
LINE
  5
73F
100
AcDbEntity
  8
1
  6
CONTINUOUS
 62
   250
100
AcDbLine
 10
155.36533
 20
220.53944
 30
0.0
 11
159.95991
 21
225.13403
 31
0.0
  0
LINE
  5
740
100
AcDbEntity
  8
1
  6
CONTINUOUS
 62
   250
100
AcDbLine
 10
188.37856
 20
224.66929
 30
0.0
 11
191.91409
 21
221.13376
 31
0.0
  0
LINE
  5
741
100
AcDbEntity
  8
1
  6
CONTINUOUS
 62
   250
100
AcDbLine
 10
187.8701
 20
220.62529
 30
0.0
 11
192.45991
 21
225.21511
 31
0.0
  0
LINE
  5
742
100
AcDbEntity
  8
1
  6
CONTINUOUS
 62
   250
100
AcDbLine
 10
186.61382
 20
211.03794
 30
0.0
 11
191.20991
 21
215.63403
 31
0.0
  0
LINE
  5
743
100
AcDbEntity
  8
1
  6
CONTINUOUS
 62
   250
100
AcDbLine
 10
187.12856
 20
215.08821
 30
0.0
 11
190.66409
 21
211.55268
 31
0.0
  0
LINE
  5
744
100
AcDbEntity
  8
1
  6
CONTINUOUS
 62
   250
100
AcDbLine
 10
176.61382
 20
211.03794
 30
0.0
 11
181.20991
 21
215.63403
 31
0.0
  0
LINE
  5
745
100
AcDbEntity
  8
1
  6
CONTINUOUS
 62
   250
100
AcDbLine
 10
177.12856
 20
215.08821
 30
0.0
 11
180.66409
 21
211.55268
 31
0.0
  0
LINE
  5
746
100
AcDbEntity
  8
1
  6
CONTINUOUS
 62
   250
100
AcDbLine
 10
166.61382
 20
211.03794
 30
0.0
 11
171.20991
 21
215.63403
 31
0.0
  0
LINE
  5
747
100
AcDbEntity
  8
1
  6
CONTINUOUS
 62
   250
100
AcDbLine
 10
167.12856
 20
215.08821
 30
0.0
 11
170.66409
 21
211.55268
 31
0.0
  0
LINE
  5
748
100
AcDbEntity
  8
1
  6
CONTINUOUS
 62
   250
100
AcDbLine
 10
156.61382
 20
211.03794
 30
0.0
 11
161.20991
 21
215.63403
 31
0.0
  0
LINE
  5
749
100
AcDbEntity
  8
1
  6
CONTINUOUS
 62
   250
100
AcDbLine
 10
157.12856
 20
215.08821
 30
0.0
 11
160.66409
 21
211.55268
 31
0.0
  0
LINE
  5
74A
100
AcDbEntity
  8
1
  6
CONTINUOUS
 62
   250
100
AcDbLine
 10
156.59823
 20
172.00343
 30
0.0
 11
161.19442
 21
176.59962
 31
0.0
  0
LINE
  5
74B
100
AcDbEntity
  8
1
  6
CONTINUOUS
 62
   250
100
AcDbLine
 10
157.12856
 20
176.06929
 30
0.0
 11
160.66409
 21
172.53376
 31
0.0
  0
LINE
  5
74C
100
AcDbEntity
  8
1
  6
CONTINUOUS
 62
   250
100
AcDbLine
 10
166.62337
 20
172.02856
 30
0.0
 11
171.21929
 21
176.62449
 31
0.0
  0
LINE
  5
74D
100
AcDbEntity
  8
1
  6
CONTINUOUS
 62
   250
100
AcDbLine
 10
167.12856
 20
176.06929
 30
0.0
 11
170.66409
 21
172.53376
 31
0.0
  0
LINE
  5
74E
100
AcDbEntity
  8
1
  6
CONTINUOUS
 62
   250
100
AcDbLine
 10
176.42425
 20
172.05343
 30
0.0
 11
181.02045
 21
176.64962
 31
0.0
  0
LINE
  5
74F
100
AcDbEntity
  8
1
  6
CONTINUOUS
 62
   250
100
AcDbLine
 10
176.95458
 20
176.11929
 30
0.0
 11
180.49012
 21
172.58376
 31
0.0
  0
LINE
  5
750
100
AcDbEntity
  8
1
  6
CONTINUOUS
 62
   250
100
AcDbLine
 10
186.59823
 20
172.05343
 30
0.0
 11
191.19442
 21
176.64962
 31
0.0
  0
LINE
  5
751
100
AcDbEntity
  8
1
  6
CONTINUOUS
 62
   250
100
AcDbLine
 10
187.10356
 20
176.09429
 30
0.0
 11
190.63909
 21
172.55876
 31
0.0
  0
LINE
  5
752
100
AcDbEntity
  8
1
  6
CONTINUOUS
 62
   250
100
AcDbLine
 10
351.13461
 20
150.01044
 30
0.0
 11
351.13461
 21
122.21987
 31
0.0
  0
LINE
  5
753
100
AcDbEntity
  8
1
  6
CONTINUOUS
 62
   250
100
AcDbLine
 10
361.13461
 20
139.41044
 30
0.0
 11
361.13461
 21
122.21987
 31
0.0
  0
LINE
  5
754
100
AcDbEntity
  8
1
  6
CONTINUOUS
 62
   250
100
AcDbLine
 10
351.13461
 20
123.21977
 30
0.0
 11
347.63451
 21
123.80078
 31
0.0
  0
LINE
  5
755
100
AcDbEntity
  8
1
  6
CONTINUOUS
 62
   250
100
AcDbLine
 10
351.13461
 20
123.21977
 30
0.0
 11
347.63451
 21
122.63875
 31
0.0
  0
LINE
  5
756
100
AcDbEntity
  8
1
  6
CONTINUOUS
 62
   250
100
AcDbLine
 10
347.63451
 20
123.80078
 30
0.0
 11
347.63451
 21
122.63875
 31
0.0
  0
LINE
  5
757
100
AcDbEntity
  8
1
  6
CONTINUOUS
 62
   250
100
AcDbLine
 10
361.13461
 20
123.21977
 30
0.0
 11
364.63472
 21
123.80078
 31
0.0
  0
LINE
  5
758
100
AcDbEntity
  8
1
  6
CONTINUOUS
 62
   250
100
AcDbLine
 10
361.13461
 20
123.21977
 30
0.0
 11
364.63472
 21
122.63875
 31
0.0
  0
LINE
  5
759
100
AcDbEntity
  8
1
  6
CONTINUOUS
 62
   250
100
AcDbLine
 10
364.63472
 20
123.80078
 30
0.0
 11
364.63472
 21
122.63875
 31
0.0
  0
LINE
  5
75A
100
AcDbEntity
  8
1
  6
CONTINUOUS
 62
   250
100
AcDbLine
 10
350.13471
 20
123.21977
 30
0.0
 11
351.13461
 21
123.21977
 31
0.0
  0
LINE
  5
75B
100
AcDbEntity
  8
1
  6
CONTINUOUS
 62
   250
100
AcDbLine
 10
362.13452
 20
123.21977
 30
0.0
 11
351.13461
 21
123.21977
 31
0.0
  0
TEXT
  5
75C
100
AcDbEntity
  8
1
  6
CONTINUOUS
 62
   250
100
AcDbText
 10
354.25969
 20
124.22067
 30
0.0
 40
2.4999
  1
10
 41
0.75
100
AcDbText
  0
POINT
  5
75D
100
AcDbEntity
  8
V0L1
  6
CONTINUOUS
 62
   250
100
AcDbPoint
 10
393.0
 20
278.0
 30
0.0
  0
LINE
  5
75E
100
AcDbEntity
  8
V0L1
  6
CONTINUOUS
 62
   250
100
AcDbLine
 10
228.56571
 20
23.0
 30
0.0
 11
230.3
 21
23.0
 31
0.0
  0
LINE
  5
75F
100
AcDbEntity
  8
V0L1
  6
CONTINUOUS
 62
   250
100
AcDbLine
 10
228.0
 20
50.0
 30
0.0
 11
228.0
 21
54.0
 31
0.0
  0
LINE
  5
760
100
AcDbEntity
  8
V0L1
  6
CONTINUOUS
 62
   250
100
AcDbLine
 10
350.0
 20
50.0
 30
0.0
 11
393.0
 21
50.0
 31
0.0
  0
LINE
  5
761
100
AcDbEntity
  8
V0L1
  6
CONTINUOUS
 62
   250
100
AcDbLine
 10
230.3
 20
23.0
 30
0.0
 11
230.3
 21
26.32
 31
0.0
  0
LINE
  5
762
100
AcDbEntity
  8
V0L1
  6
CONTINUOUS
 62
   250
100
AcDbLine
 10
230.3
 20
26.32
 30
0.0
 11
229.72771
 21
26.32
 31
0.0
  0
LINE
  5
763
100
AcDbEntity
  8
V0L1
  6
CONTINUOUS
 62
   250
100
AcDbLine
 10
229.72771
 20
26.32
 30
0.0
 11
228.56571
 21
23.0
 31
0.0
  0
LINE
  5
764
100
AcDbEntity
  8
V0L1
  6
CONTINUOUS
 62
   250
100
AcDbLine
 10
228.81941
 20
23.18
 30
0.0
 11
230.12
 21
23.18
 31
0.0
  0
LINE
  5
765
100
AcDbEntity
  8
V0L1
  6
CONTINUOUS
 62
   250
100
AcDbLine
 10
230.12
 20
23.18
 30
0.0
 11
230.12
 21
26.14
 31
0.0
  0
LINE
  5
766
100
AcDbEntity
  8
V0L1
  6
CONTINUOUS
 62
   250
100
AcDbLine
 10
230.12
 20
26.14
 30
0.0
 11
229.85541
 21
26.14
 31
0.0
  0
LINE
  5
767
100
AcDbEntity
  8
V0L1
  6
CONTINUOUS
 62
   250
100
AcDbLine
 10
229.85541
 20
26.14
 30
0.0
 11
228.81941
 21
23.18
 31
0.0
  0
LINE
  5
768
100
AcDbEntity
  8
V0L1
  6
CONTINUOUS
 62
   250
100
AcDbLine
 10
229.07312
 20
23.36
 30
0.0
 11
229.94
 21
23.36
 31
0.0
  0
LINE
  5
769
100
AcDbEntity
  8
V0L1
  6
CONTINUOUS
 62
   250
100
AcDbLine
 10
229.94
 20
23.36
 30
0.0
 11
229.94
 21
25.836801
 31
0.0
  0
LINE
  5
76A
100
AcDbEntity
  8
V0L1
  6
CONTINUOUS
 62
   250
100
AcDbLine
 10
229.94
 20
25.836801
 30
0.0
 11
229.07312
 21
23.36
 31
0.0
  0
LINE
  5
76B
100
AcDbEntity
  8
V0L1
  6
CONTINUOUS
 62
   250
100
AcDbLine
 10
229.32683
 20
23.54
 30
0.0
 11
229.76
 21
23.54
 31
0.0
  0
LINE
  5
76C
100
AcDbEntity
  8
V0L1
  6
CONTINUOUS
 62
   250
100
AcDbLine
 10
229.76
 20
23.54
 30
0.0
 11
229.76
 21
24.777639
 31
0.0
  0
LINE
  5
76D
100
AcDbEntity
  8
V0L1
  6
CONTINUOUS
 62
   250
100
AcDbLine
 10
229.76
 20
24.777639
 30
0.0
 11
229.32683
 21
23.54
 31
0.0
  0
LINE
  5
76E
100
AcDbEntity
  8
V0L1
  6
CONTINUOUS
 62
   250
100
AcDbLine
 10
229.53825
 20
23.69
 30
0.0
 11
229.61
 21
23.69
 31
0.0
  0
LINE
  5
76F
100
AcDbEntity
  8
V0L1
  6
CONTINUOUS
 62
   250
100
AcDbLine
 10
229.61
 20
23.69
 30
0.0
 11
229.61
 21
23.895004
 31
0.0
  0
LINE
  5
770
100
AcDbEntity
  8
V0L1
  6
CONTINUOUS
 62
   250
100
AcDbLine
 10
229.61
 20
23.895004
 30
0.0
 11
229.53825
 21
23.69
 31
0.0
  0
LINE
  5
771
100
AcDbEntity
  8
V0L1
  6
CONTINUOUS
 62
   250
100
AcDbLine
 10
231.3
 20
23.0
 30
0.0
 11
231.3
 21
26.32
 31
0.0
  0
LINE
  5
772
100
AcDbEntity
  8
V0L1
  6
CONTINUOUS
 62
   250
100
AcDbLine
 10
231.3
 20
26.32
 30
0.0
 11
231.87229
 21
26.32
 31
0.0
  0
LINE
  5
773
100
AcDbEntity
  8
V0L1
  6
CONTINUOUS
 62
   250
100
AcDbLine
 10
231.87229
 20
26.32
 30
0.0
 11
233.03429
 21
23.0
 31
0.0
  0
LINE
  5
774
100
AcDbEntity
  8
V0L1
  6
CONTINUOUS
 62
   250
100
AcDbLine
 10
233.03429
 20
23.0
 30
0.0
 11
231.3
 21
23.0
 31
0.0
  0
LINE
  5
775
100
AcDbEntity
  8
V0L1
  6
CONTINUOUS
 62
   250
100
AcDbLine
 10
231.48
 20
23.18
 30
0.0
 11
231.48
 21
26.14
 31
0.0
  0
LINE
  5
776
100
AcDbEntity
  8
V0L1
  6
CONTINUOUS
 62
   250
100
AcDbLine
 10
231.48
 20
26.14
 30
0.0
 11
231.74459
 21
26.14
 31
0.0
  0
LINE
  5
777
100
AcDbEntity
  8
V0L1
  6
CONTINUOUS
 62
   250
100
AcDbLine
 10
231.74459
 20
26.14
 30
0.0
 11
232.78059
 21
23.18
 31
0.0
  0
LINE
  5
778
100
AcDbEntity
  8
V0L1
  6
CONTINUOUS
 62
   250
100
AcDbLine
 10
232.78059
 20
23.18
 30
0.0
 11
231.48
 21
23.18
 31
0.0
  0
LINE
  5
779
100
AcDbEntity
  8
V0L1
  6
CONTINUOUS
 62
   250
100
AcDbLine
 10
231.66
 20
23.36
 30
0.0
 11
231.66
 21
25.836801
 31
0.0
  0
LINE
  5
77A
100
AcDbEntity
  8
V0L1
  6
CONTINUOUS
 62
   250
100
AcDbLine
 10
231.66
 20
25.836801
 30
0.0
 11
232.52688
 21
23.36
 31
0.0
  0
LINE
  5
77B
100
AcDbEntity
  8
V0L1
  6
CONTINUOUS
 62
   250
100
AcDbLine
 10
232.52688
 20
23.36
 30
0.0
 11
231.66
 21
23.36
 31
0.0
  0
LINE
  5
77C
100
AcDbEntity
  8
V0L1
  6
CONTINUOUS
 62
   250
100
AcDbLine
 10
231.84
 20
23.54
 30
0.0
 11
231.84
 21
24.777639
 31
0.0
  0
LINE
  5
77D
100
AcDbEntity
  8
V0L1
  6
CONTINUOUS
 62
   250
100
AcDbLine
 10
231.84
 20
24.777639
 30
0.0
 11
232.27317
 21
23.54
 31
0.0
  0
LINE
  5
77E
100
AcDbEntity
  8
V0L1
  6
CONTINUOUS
 62
   250
100
AcDbLine
 10
232.27317
 20
23.54
 30
0.0
 11
231.84
 21
23.54
 31
0.0
  0
LINE
  5
77F
100
AcDbEntity
  8
V0L1
  6
CONTINUOUS
 62
   250
100
AcDbLine
 10
232.06175
 20
23.69
 30
0.0
 11
231.99
 21
23.69
 31
0.0
  0
LINE
  5
780
100
AcDbEntity
  8
V0L1
  6
CONTINUOUS
 62
   250
100
AcDbLine
 10
231.99
 20
23.69
 30
0.0
 11
231.99
 21
23.895004
 31
0.0
  0
LINE
  5
781
100
AcDbEntity
  8
V0L1
  6
CONTINUOUS
 62
   250
100
AcDbLine
 10
231.99
 20
23.895004
 30
0.0
 11
232.06175
 21
23.69
 31
0.0
  0
LINE
  5
782
100
AcDbEntity
  8
V0L1
  6
CONTINUOUS
 62
   250
100
AcDbLine
 10
227.05371
 20
18.68
 30
0.0
 11
228.21571
 21
22.0
 31
0.0
  0
LINE
  5
783
100
AcDbEntity
  8
V0L1
  6
CONTINUOUS
 62
   250
100
AcDbLine
 10
222.0
 20
15.0
 30
0.0
 11
222.0
 21
58.0
 31
0.0
  0
LINE
  5
784
100
AcDbEntity
  8
V0L1
  6
CONTINUOUS
 62
   250
100
AcDbLine
 10
222.0
 20
58.0
 30
0.0
 11
393.0
 21
58.0
 31
0.0
  0
LINE
  5
785
100
AcDbEntity
  8
V0L1
  6
CONTINUOUS
 62
   250
100
AcDbLine
 10
222.0
 20
54.0
 30
0.0
 11
393.0
 21
54.0
 31
0.0
  0
LINE
  5
786
100
AcDbEntity
  8
V0L1
  6
CONTINUOUS
 62
   250
100
AcDbLine
 10
222.0
 20
50.0
 30
0.0
 11
350.0
 21
50.0
 31
0.0
  0
LINE
  5
787
100
AcDbEntity
  8
V0L1
  6
CONTINUOUS
 62
   250
100
AcDbLine
 10
228.0
 20
46.0
 30
0.0
 11
335.0
 21
46.0
 31
0.0
  0
LINE
  5
788
100
AcDbEntity
  8
V0L1
  6
CONTINUOUS
 62
   250
100
AcDbLine
 10
228.0
 20
42.0
 30
0.0
 11
335.0
 21
42.0
 31
0.0
  0
LINE
  5
789
100
AcDbEntity
  8
V0L1
  6
CONTINUOUS
 62
   250
100
AcDbLine
 10
228.0
 20
38.0
 30
0.0
 11
335.0
 21
38.0
 31
0.0
  0
LINE
  5
78A
100
AcDbEntity
  8
V0L1
  6
CONTINUOUS
 62
   250
100
AcDbLine
 10
228.0
 20
34.0
 30
0.0
 11
335.0
 21
34.0
 31
0.0
  0
LINE
  5
78B
100
AcDbEntity
  8
V0L1
  6
CONTINUOUS
 62
   250
100
AcDbLine
 10
222.0
 20
30.0
 30
0.0
 11
393.0
 21
30.0
 31
0.0
  0
LINE
  5
78C
100
AcDbEntity
  8
V0L1
  6
CONTINUOUS
 62
   250
100
AcDbLine
 10
252.0
 20
26.0
 30
0.0
 11
335.0
 21
26.0
 31
0.0
  0
LINE
  5
78D
100
AcDbEntity
  8
V0L1
  6
CONTINUOUS
 62
   250
100
AcDbLine
 10
335.0
 20
23.0
 30
0.0
 11
393.0
 21
23.0
 31
0.0
  0
LINE
  5
78E
100
AcDbEntity
  8
V0L1
  6
CONTINUOUS
 62
   250
100
AcDbLine
 10
228.0
 20
30.0
 30
0.0
 11
228.0
 21
50.0
 31
0.0
  0
LINE
  5
78F
100
AcDbEntity
  8
V0L1
  6
CONTINUOUS
 62
   250
100
AcDbLine
 10
231.0
 20
54.0
 30
0.0
 11
231.0
 21
58.0
 31
0.0
  0
LINE
  5
790
100
AcDbEntity
  8
V0L1
  6
CONTINUOUS
 62
   250
100
AcDbLine
 10
235.0
 20
30.0
 30
0.0
 11
235.0
 21
50.0
 31
0.0
  0
LINE
  5
791
100
AcDbEntity
  8
V0L1
  6
CONTINUOUS
 62
   250
100
AcDbLine
 10
252.0
 20
15.0
 30
0.0
 11
252.0
 21
30.0
 31
0.0
  0
LINE
  5
792
100
AcDbEntity
  8
V0L1
  6
CONTINUOUS
 62
   250
100
AcDbLine
 10
265.0
 20
54.0
 30
0.0
 11
265.0
 21
58.0
 31
0.0
  0
LINE
  5
793
100
AcDbEntity
  8
V0L1
  6
CONTINUOUS
 62
   250
100
AcDbLine
 10
268.0
 20
50.0
 30
0.0
 11
268.0
 21
54.0
 31
0.0
  0
LINE
  5
794
100
AcDbEntity
  8
V0L1
  6
CONTINUOUS
 62
   250
100
AcDbLine
 10
275.0
 20
54.0
 30
0.0
 11
275.0
 21
58.0
 31
0.0
  0
LINE
  5
795
100
AcDbEntity
  8
V0L1
  6
CONTINUOUS
 62
   250
100
AcDbLine
 10
308.0
 20
50.0
 30
0.0
 11
308.0
 21
58.0
 31
0.0
  0
LINE
  5
796
100
AcDbEntity
  8
V0L1
  6
CONTINUOUS
 62
   250
100
AcDbLine
 10
318.0
 20
54.0
 30
0.0
 11
318.0
 21
58.0
 31
0.0
  0
LINE
  5
797
100
AcDbEntity
  8
V0L1
  6
CONTINUOUS
 62
   250
100
AcDbLine
 10
335.0
 20
15.0
 30
0.0
 11
335.0
 21
50.0
 31
0.0
  0
LINE
  5
798
100
AcDbEntity
  8
V0L1
  6
CONTINUOUS
 62
   250
100
AcDbLine
 10
341.0
 20
23.0
 30
0.0
 11
341.0
 21
26.107786
 31
0.0
  0
LINE
  5
799
100
AcDbEntity
  8
V0L1
  6
CONTINUOUS
 62
   250
100
AcDbLine
 10
347.0
 20
23.0
 30
0.0
 11
347.0
 21
30.0
 31
0.0
  0
LINE
  5
79A
100
AcDbEntity
  8
V0L1
  6
CONTINUOUS
 62
   250
100
AcDbLine
 10
350.0
 20
30.0
 30
0.0
 11
350.0
 21
58.0
 31
0.0
  0
LINE
  5
79B
100
AcDbEntity
  8
V0L1
  6
CONTINUOUS
 62
   250
100
AcDbLine
 10
353.0
 20
23.0
 30
0.0
 11
353.0
 21
26.107786
 31
0.0
  0
LINE
  5
79C
100
AcDbEntity
  8
V0L1
  6
CONTINUOUS
 62
   250
100
AcDbLine
 10
16.0
 20
278.0
 30
0.0
 11
16.0
 21
15.0
 31
0.0
  0
LINE
  5
79D
100
AcDbEntity
  8
V0L1
  6
CONTINUOUS
 62
   250
100
AcDbLine
 10
16.0
 20
15.0
 30
0.0
 11
393.0
 21
15.0
 31
0.0
  0
LINE
  5
79E
100
AcDbEntity
  8
V0L1
  6
CONTINUOUS
 62
   250
100
AcDbLine
 10
359.0
 20
23.0
 30
0.0
 11
359.0
 21
30.0
 31
0.0
  0
LINE
  5
79F
100
AcDbEntity
  8
V0L1
  6
CONTINUOUS
 62
   250
100
AcDbLine
 10
360.0
 20
54.0
 30
0.0
 11
360.0
 21
58.0
 31
0.0
  0
LINE
  5
7A0
100
AcDbEntity
  8
V0L1
  6
CONTINUOUS
 62
   250
100
AcDbLine
 10
370.0
 20
23.0
 30
0.0
 11
370.0
 21
30.0
 31
0.0
  0
LINE
  5
7A1
100
AcDbEntity
  8
V0L1
  6
CONTINUOUS
 62
   250
100
AcDbLine
 10
382.0
 20
23.0
 30
0.0
 11
382.0
 21
30.0
 31
0.0
  0
LINE
  5
7A2
100
AcDbEntity
  8
V0L1
  6
CONTINUOUS
 62
   250
100
AcDbLine
 10
389.5
 20
53.5
 30
0.0
 11
392.5
 21
53.5
 31
0.0
  0
LINE
  5
7A3
100
AcDbEntity
  8
V0L1
  6
CONTINUOUS
 62
   250
100
AcDbLine
 10
392.5
 20
53.5
 30
0.0
 11
392.5
 21
50.5
 31
0.0
  0
LINE
  5
7A4
100
AcDbEntity
  8
V0L1
  6
CONTINUOUS
 62
   250
100
AcDbLine
 10
389.5
 20
50.5
 30
0.0
 11
392.5
 21
50.5
 31
0.0
  0
LINE
  5
7A5
100
AcDbEntity
  8
V0L1
  6
CONTINUOUS
 62
   250
100
AcDbLine
 10
389.5
 20
53.5
 30
0.0
 11
389.5
 21
50.5
 31
0.0
  0
LINE
  5
7A6
100
AcDbEntity
  8
V0L1
  6
CONTINUOUS
 62
   250
100
AcDbLine
 10
389.5
 20
49.5
 30
0.0
 11
389.5
 21
46.5
 31
0.0
  0
LINE
  5
7A7
100
AcDbEntity
  8
V0L1
  6
CONTINUOUS
 62
   250
100
AcDbLine
 10
389.5
 20
46.5
 30
0.0
 11
392.5
 21
46.5
 31
0.0
  0
LINE
  5
7A8
100
AcDbEntity
  8
V0L1
  6
CONTINUOUS
 62
   250
100
AcDbLine
 10
392.5
 20
49.5
 30
0.0
 11
392.5
 21
46.5
 31
0.0
  0
LINE
  5
7A9
100
AcDbEntity
  8
V0L1
  6
CONTINUOUS
 62
   250
100
AcDbLine
 10
389.5
 20
49.5
 30
0.0
 11
392.5
 21
49.5
 31
0.0
  0
LINE
  5
7AA
100
AcDbEntity
  8
V0L1
  6
CONTINUOUS
 62
   250
100
AcDbLine
 10
389.5
 20
45.5
 30
0.0
 11
389.5
 21
42.5
 31
0.0
  0
LINE
  5
7AB
100
AcDbEntity
  8
V0L1
  6
CONTINUOUS
 62
   250
100
AcDbLine
 10
389.5
 20
42.5
 30
0.0
 11
392.5
 21
42.5
 31
0.0
  0
LINE
  5
7AC
100
AcDbEntity
  8
V0L1
  6
CONTINUOUS
 62
   250
100
AcDbLine
 10
393.0
 20
15.0
 30
0.0
 11
393.0
 21
278.0
 31
0.0
  0
LINE
  5
7AD
100
AcDbEntity
  8
V0L1
  6
CONTINUOUS
 62
   250
100
AcDbLine
 10
393.0
 20
278.0
 30
0.0
 11
16.0
 21
278.0
 31
0.0
  0
LINE
  5
7AE
100
AcDbEntity
  8
V0L1
  6
CONTINUOUS
 62
   250
100
AcDbLine
 10
392.5
 20
45.5
 30
0.0
 11
392.5
 21
42.5
 31
0.0
  0
LINE
  5
7AF
100
AcDbEntity
  8
V0L1
  6
CONTINUOUS
 62
   250
100
AcDbLine
 10
389.5
 20
45.5
 30
0.0
 11
392.5
 21
45.5
 31
0.0
  0
LINE
  5
7B0
100
AcDbEntity
  8
V0L1
  6
CONTINUOUS
 62
   250
100
AcDbLine
 10
393.0
 20
15.0
 30
0.0
 11
397.0
 21
15.0
 31
0.0
  0
LINE
  5
7B1
100
AcDbEntity
  8
V0L1
  6
CONTINUOUS
 62
   250
100
AcDbLine
 10
393.0
 20
18.0
 30
0.0
 11
397.0
 21
18.0
 31
0.0
  0
LINE
  5
7B2
100
AcDbEntity
  8
V0L1
  6
CONTINUOUS
 62
   250
100
AcDbLine
 10
393.0
 20
21.0
 30
0.0
 11
397.0
 21
21.0
 31
0.0
  0
LINE
  5
7B3
100
AcDbEntity
  8
V0L1
  6
CONTINUOUS
 62
   250
100
AcDbLine
 10
393.0
 20
24.0
 30
0.0
 11
397.0
 21
24.0
 31
0.0
  0
LINE
  5
7B4
100
AcDbEntity
  8
V0L1
  6
CONTINUOUS
 62
   250
100
AcDbLine
 10
393.0
 20
27.0
 30
0.0
 11
397.0
 21
27.0
 31
0.0
  0
LINE
  5
7B5
100
AcDbEntity
  8
V0L1
  6
CONTINUOUS
 62
   250
100
AcDbLine
 10
393.0
 20
30.0
 30
0.0
 11
397.0
 21
30.0
 31
0.0
  0
LINE
  5
7B6
100
AcDbEntity
  8
V0L1
  6
CONTINUOUS
 62
   250
100
AcDbLine
 10
229.6
 20
26.5
 30
0.0
 11
230.48
 21
26.5
 31
0.0
  0
LINE
  5
7B7
100
AcDbEntity
  8
V0L1
  6
CONTINUOUS
 62
   250
100
AcDbLine
 10
83.0
 20
278.0
 30
0.0
 11
83.0
 21
266.0
 31
0.0
  0
LINE
  5
7B8
100
AcDbEntity
  8
V0L1
  6
CONTINUOUS
 62
   250
100
AcDbLine
 10
150.0
 20
266.0
 30
0.0
 11
150.0
 21
278.0
 31
0.0
  0
LINE
  5
7B9
100
AcDbEntity
  8
V0L1
  6
CONTINUOUS
 62
   250
100
AcDbLine
 10
150.0
 20
266.0
 30
0.0
 11
16.0
 21
266.0
 31
0.0
  0
LINE
  5
7BA
100
AcDbEntity
  8
V0L1
  6
CONTINUOUS
 62
   250
100
AcDbLine
 10
228.8
 20
18.5
 30
0.0
 11
226.8
 21
18.5
 31
0.0
  0
LINE
  5
7BB
100
AcDbEntity
  8
V0L1
  6
CONTINUOUS
 62
   250
100
AcDbLine
 10
228.21571
 20
22.0
 30
0.0
 11
230.3
 21
22.0
 31
0.0
  0
LINE
  5
7BC
100
AcDbEntity
  8
V0L1
  6
CONTINUOUS
 62
   250
100
AcDbLine
 10
226.8
 20
18.5
 30
0.0
 11
228.088
 21
22.18
 31
0.0
  0
LINE
  5
7BD
100
AcDbEntity
  8
V0L1
  6
CONTINUOUS
 62
   250
100
AcDbLine
 10
232.0
 20
26.5
 30
0.0
 11
233.288
 21
22.82
 31
0.0
  0
LINE
  5
7BE
100
AcDbEntity
  8
V0L1
  6
CONTINUOUS
 62
   250
100
AcDbLine
 10
232.24
 20
20.1
 30
0.0
 11
232.8
 21
18.5
 31
0.0
  0
LINE
  5
7BF
100
AcDbEntity
  8
V0L1
  6
CONTINUOUS
 62
   250
100
AcDbLine
 10
228.8
 20
18.5
 30
0.0
 11
229.36
 21
20.1
 31
0.0
  0
LINE
  5
7C0
100
AcDbEntity
  8
V0L1
  6
CONTINUOUS
 62
   250
100
AcDbLine
 10
235.36
 20
18.5
 30
0.0
 11
237.44
 21
18.5
 31
0.0
  0
LINE
  5
7C1
100
AcDbEntity
  8
V0L1
  6
CONTINUOUS
 62
   250
100
AcDbLine
 10
235.36
 20
26.5
 30
0.0
 11
237.44
 21
26.5
 31
0.0
  0
LINE
  5
7C2
100
AcDbEntity
  8
V0L1
  6
CONTINUOUS
 62
   250
100
AcDbLine
 10
229.36
 20
20.1
 30
0.0
 11
230.48
 21
20.1
 31
0.0
  0
LINE
  5
7C3
100
AcDbEntity
  8
V0L1
  6
CONTINUOUS
 62
   250
100
AcDbLine
 10
232.8
 20
18.5
 30
0.0
 11
234.8
 21
18.5
 31
0.0
  0
LINE
  5
7C4
100
AcDbEntity
  8
V0L1
  6
CONTINUOUS
 62
   250
100
AcDbLine
 10
228.088
 20
22.18
 30
0.0
 11
230.48
 21
22.18
 31
0.0
  0
LINE
  5
7C5
100
AcDbEntity
  8
V0L1
  6
CONTINUOUS
 62
   250
100
AcDbLine
 10
228.312
 20
22.82
 30
0.0
 11
230.48
 21
22.82
 31
0.0
  0
LINE
  5
7C6
100
AcDbEntity
  8
V0L1
  6
CONTINUOUS
 62
   250
100
AcDbLine
 10
57.69113
 20
271.18273
 30
0.0
 11
60.69113
 21
271.18273
 31
0.0
  0
LINE
  5
7C7
100
AcDbEntity
  8
V0L1
  6
CONTINUOUS
 62
   250
100
AcDbLine
 10
60.69113
 20
271.18273
 30
0.0
 11
60.69113
 21
268.18273
 31
0.0
  0
LINE
  5
7C8
100
AcDbEntity
  8
V0L1
  6
CONTINUOUS
 62
   250
100
AcDbLine
 10
230.48
 20
20.1
 30
0.0
 11
230.48
 21
22.18
 31
0.0
  0
LINE
  5
7C9
100
AcDbEntity
  8
V0L1
  6
CONTINUOUS
 62
   250
100
AcDbLine
 10
231.12
 20
20.1
 30
0.0
 11
231.12
 21
22.18
 31
0.0
  0
LINE
  5
7CA
100
AcDbEntity
  8
V0L1
  6
CONTINUOUS
 62
   250
100
AcDbLine
 10
231.12
 20
20.1
 30
0.0
 11
232.24
 21
20.1
 31
0.0
  0
LINE
  5
7CB
100
AcDbEntity
  8
V0L1
  6
CONTINUOUS
 62
   250
100
AcDbLine
 10
231.12
 20
22.18
 30
0.0
 11
233.512
 21
22.18
 31
0.0
  0
LINE
  5
7CC
100
AcDbEntity
  8
V0L1
  6
CONTINUOUS
 62
   250
100
AcDbLine
 10
228.312
 20
22.82
 30
0.0
 11
229.6
 21
26.5
 31
0.0
  0
LINE
  5
7CD
100
AcDbEntity
  8
V0L1
  6
CONTINUOUS
 62
   250
100
AcDbLine
 10
231.12
 20
22.82
 30
0.0
 11
233.288
 21
22.82
 31
0.0
  0
LINE
  5
7CE
100
AcDbEntity
  8
V0L1
  6
CONTINUOUS
 62
   250
100
AcDbLine
 10
231.12
 20
22.82
 30
0.0
 11
231.12
 21
26.5
 31
0.0
  0
LINE
  5
7CF
100
AcDbEntity
  8
V0L1
  6
CONTINUOUS
 62
   250
100
AcDbLine
 10
230.48
 20
22.82
 30
0.0
 11
230.48
 21
26.5
 31
0.0
  0
LINE
  5
7D0
100
AcDbEntity
  8
V0L1
  6
CONTINUOUS
 62
   250
100
AcDbLine
 10
232.0
 20
26.5
 30
0.0
 11
231.12
 21
26.5
 31
0.0
  0
LINE
  5
7D1
100
AcDbEntity
  8
V0L1
  6
CONTINUOUS
 62
   250
100
AcDbLine
 10
233.512
 20
22.18
 30
0.0
 11
234.8
 21
18.5
 31
0.0
  0
LINE
  5
7D2
100
AcDbEntity
  8
V0L1
  6
CONTINUOUS
 62
   250
100
AcDbLine
 10
235.36
 20
18.5
 30
0.0
 11
235.36
 21
22.18
 31
0.0
  0
LINE
  5
7D3
100
AcDbEntity
  8
V0L1
  6
CONTINUOUS
 62
   250
100
AcDbLine
 10
57.69113
 20
268.18273
 30
0.0
 11
60.69113
 21
268.18273
 31
0.0
  0
LINE
  5
7D4
100
AcDbEntity
  8
V0L1
  6
CONTINUOUS
 62
   250
100
AcDbLine
 10
57.69113
 20
271.18273
 30
0.0
 11
57.69113
 21
268.18273
 31
0.0
  0
LINE
  5
7D5
100
AcDbEntity
  8
V0L1
  6
CONTINUOUS
 62
   250
100
AcDbLine
 10
48.21513
 20
271.18273
 30
0.0
 11
51.21513
 21
271.18273
 31
0.0
  0
ARC
  5
7D6
100
AcDbEntity
  8
V0L1
  6
CONTINUOUS
 62
   250
100
AcDbCircle
 10
238.56
 20
24.7
 30
0.0
 40
1.8
100
AcDbArc
 50
299.38468
 51
90.0
  0
ARC
  5
7D7
100
AcDbEntity
  8
V0L1
  6
CONTINUOUS
 62
   250
100
AcDbCircle
 10
238.56
 20
20.9
 30
0.0
 40
2.4
100
AcDbArc
 50
270.0
 51
32.23095
  0
LINE
  5
7D8
100
AcDbEntity
  8
V0L1
  6
CONTINUOUS
 62
   250
100
AcDbLine
 10
51.21513
 20
271.18273
 30
0.0
 11
51.21513
 21
268.18273
 31
0.0
  0
LINE
  5
7D9
100
AcDbEntity
  8
V0L1
  6
CONTINUOUS
 62
   250
100
AcDbLine
 10
48.21513
 20
268.18273
 30
0.0
 11
51.21513
 21
268.18273
 31
0.0
  0
LINE
  5
7DA
100
AcDbEntity
  8
V0L1
  6
CONTINUOUS
 62
   250
100
AcDbLine
 10
240.0
 20
22.82
 30
0.0
 11
238.08
 21
22.82
 31
0.0
  0
LINE
  5
7DB
100
AcDbEntity
  8
V0L1
  6
CONTINUOUS
 62
   250
100
AcDbLine
 10
240.59017
 20
22.18
 30
0.0
 11
238.08
 21
22.18
 31
0.0
  0
LINE
  5
7DC
100
AcDbEntity
  8
V0L1
  6
CONTINUOUS
 62
   250
100
AcDbLine
 10
238.08
 20
18.5
 30
0.0
 11
238.08
 21
22.18
 31
0.0
  0
LINE
  5
7DD
100
AcDbEntity
  8
V0L1
  6
CONTINUOUS
 62
   250
100
AcDbLine
 10
237.44
 20
18.5
 30
0.0
 11
237.44
 21
22.18
 31
0.0
  0
LINE
  5
7DE
100
AcDbEntity
  8
V0L1
  6
CONTINUOUS
 62
   250
100
AcDbLine
 10
238.08
 20
26.5
 30
0.0
 11
238.56
 21
26.5
 31
0.0
  0
LINE
  5
7DF
100
AcDbEntity
  8
V0L1
  6
CONTINUOUS
 62
   250
100
AcDbLine
 10
237.44
 20
22.82
 30
0.0
 11
235.36
 21
22.82
 31
0.0
  0
LINE
  5
7E0
100
AcDbEntity
  8
V0L1
  6
CONTINUOUS
 62
   250
100
AcDbLine
 10
237.44
 20
22.18
 30
0.0
 11
235.36
 21
22.18
 31
0.0
  0
LINE
  5
7E1
100
AcDbEntity
  8
V0L1
  6
CONTINUOUS
 62
   250
100
AcDbLine
 10
238.08
 20
18.5
 30
0.0
 11
238.56
 21
18.5
 31
0.0
  0
LINE
  5
7E2
100
AcDbEntity
  8
V0L1
  6
CONTINUOUS
 62
   250
100
AcDbLine
 10
235.36
 20
22.82
 30
0.0
 11
235.36
 21
26.5
 31
0.0
  0
LINE
  5
7E3
100
AcDbEntity
  8
V0L1
  6
CONTINUOUS
 62
   250
100
AcDbLine
 10
48.21513
 20
271.18273
 30
0.0
 11
48.21513
 21
268.18273
 31
0.0
  0
LINE
  5
7E4
100
AcDbEntity
  8
V0L1
  6
CONTINUOUS
 62
   250
100
AcDbLine
 10
237.44
 20
22.82
 30
0.0
 11
237.44
 21
26.5
 31
0.0
  0
LINE
  5
7E5
100
AcDbEntity
  8
V0L1
  6
CONTINUOUS
 62
   250
100
AcDbLine
 10
238.08
 20
22.82
 30
0.0
 11
238.08
 21
26.5
 31
0.0
  0
ARC
  5
7E6
100
AcDbEntity
  8
V0L1
  6
CONTINUOUS
 62
   250
100
AcDbCircle
 10
238.56
 20
20.9
 30
0.0
 40
2.4
100
AcDbArc
 50
53.130102
 51
68.407484
  0
LINE
  5
7E7
100
AcDbEntity
  8
V0L1
  6
CONTINUOUS
 62
   250
100
AcDbLine
 10
241.6
 20
18.5
 30
0.0
 11
241.6
 21
22.18
 31
0.0
  0
LINE
  5
7E8
100
AcDbEntity
  8
V0L1
  6
CONTINUOUS
 62
   250
100
AcDbLine
 10
243.68
 20
22.18
 30
0.0
 11
241.6
 21
22.18
 31
0.0
  0
LINE
  5
7E9
100
AcDbEntity
  8
V0L1
  6
CONTINUOUS
 62
   250
100
AcDbLine
 10
243.68
 20
18.5
 30
0.0
 11
243.68
 21
22.18
 31
0.0
  0
LINE
  5
7EA
100
AcDbEntity
  8
V0L1
  6
CONTINUOUS
 62
   250
100
AcDbLine
 10
124.0
 20
269.0
 30
0.0
 11
127.0
 21
269.0
 31
0.0
  0
LINE
  5
7EB
100
AcDbEntity
  8
V0L1
  6
CONTINUOUS
 62
   250
100
AcDbLine
 10
241.6
 20
18.5
 30
0.0
 11
243.68
 21
18.5
 31
0.0
  0
LINE
  5
7EC
100
AcDbEntity
  8
V0L1
  6
CONTINUOUS
 62
   250
100
AcDbLine
 10
244.32
 20
18.5
 30
0.0
 11
244.32
 21
22.18
 31
0.0
  0
LINE
  5
7ED
100
AcDbEntity
  8
V0L1
  6
CONTINUOUS
 62
   250
100
AcDbLine
 10
246.83017
 20
22.18
 30
0.0
 11
244.32
 21
22.18
 31
0.0
  0
LINE
  5
7EE
100
AcDbEntity
  8
V0L1
  6
CONTINUOUS
 62
   250
100
AcDbLine
 10
127.0
 20
272.0
 30
0.0
 11
127.0
 21
269.0
 31
0.0
  0
LINE
  5
7EF
100
AcDbEntity
  8
V0L1
  6
CONTINUOUS
 62
   250
100
AcDbLine
 10
124.0
 20
272.0
 30
0.0
 11
127.0
 21
272.0
 31
0.0
  0
LINE
  5
7F0
100
AcDbEntity
  8
V0L1
  6
CONTINUOUS
 62
   250
100
AcDbLine
 10
124.0
 20
272.0
 30
0.0
 11
124.0
 21
269.0
 31
0.0
  0
ARC
  5
7F1
100
AcDbEntity
  8
V0L1
  6
CONTINUOUS
 62
   250
100
AcDbCircle
 10
244.8
 20
20.9
 30
0.0
 40
2.4
100
AcDbArc
 50
270.0
 51
32.23095
  0
LINE
  5
7F2
100
AcDbEntity
  8
V0L1
  6
CONTINUOUS
 62
   250
100
AcDbLine
 10
137.0
 20
269.0
 30
0.0
 11
140.0
 21
269.0
 31
0.0
  0
LINE
  5
7F3
100
AcDbEntity
  8
V0L1
  6
CONTINUOUS
 62
   250
100
AcDbLine
 10
244.32
 20
18.5
 30
0.0
 11
244.8
 21
18.5
 31
0.0
  0
LINE
  5
7F4
100
AcDbEntity
  8
V0L1
  6
CONTINUOUS
 62
   250
100
AcDbLine
 10
241.6
 20
22.82
 30
0.0
 11
241.6
 21
26.5
 31
0.0
  0
LINE
  5
7F5
100
AcDbEntity
  8
V0L1
  6
CONTINUOUS
 62
   250
100
AcDbLine
 10
241.6
 20
26.5
 30
0.0
 11
243.68
 21
26.5
 31
0.0
  0
LINE
  5
7F6
100
AcDbEntity
  8
V0L1
  6
CONTINUOUS
 62
   250
100
AcDbLine
 10
243.68
 20
22.82
 30
0.0
 11
243.68
 21
26.5
 31
0.0
  0
LINE
  5
7F7
100
AcDbEntity
  8
V0L1
  6
CONTINUOUS
 62
   250
100
AcDbLine
 10
243.68
 20
22.82
 30
0.0
 11
241.6
 21
22.82
 31
0.0
  0
LINE
  5
7F8
100
AcDbEntity
  8
V0L1
  6
CONTINUOUS
 62
   250
100
AcDbLine
 10
244.32
 20
22.82
 30
0.0
 11
244.32
 21
26.5
 31
0.0
  0
LINE
  5
7F9
100
AcDbEntity
  8
V0L1
  6
CONTINUOUS
 62
   250
100
AcDbLine
 10
244.32
 20
26.5
 30
0.0
 11
244.8
 21
26.5
 31
0.0
  0
ARC
  5
7FA
100
AcDbEntity
  8
V0L1
  6
CONTINUOUS
 62
   250
100
AcDbCircle
 10
244.8
 20
24.7
 30
0.0
 40
1.8
100
AcDbArc
 50
299.38468
 51
90.0
  0
LINE
  5
7FB
100
AcDbEntity
  8
V0L1
  6
CONTINUOUS
 62
   250
100
AcDbLine
 10
140.0
 20
272.0
 30
0.0
 11
140.0
 21
269.0
 31
0.0
  0
ARC
  5
7FC
100
AcDbEntity
  8
V0L1
  6
CONTINUOUS
 62
   250
100
AcDbCircle
 10
244.8
 20
20.9
 30
0.0
 40
2.4
100
AcDbArc
 50
53.130102
 51
68.407484
  0
LINE
  5
7FD
100
AcDbEntity
  8
V0L1
  6
CONTINUOUS
 62
   250
100
AcDbLine
 10
246.24
 20
22.82
 30
0.0
 11
244.32
 21
22.82
 31
0.0
  0
LINE
  5
7FE
100
AcDbEntity
  8
V0L1
  6
CONTINUOUS
 62
   250
100
AcDbLine
 10
137.0
 20
272.0
 30
0.0
 11
140.0
 21
272.0
 31
0.0
  0
TEXT
  5
7FF
100
AcDbEntity
  8
V0L1
  6
CONTINUOUS
 62
   250
100
AcDbText
 10
28.042442
 20
273.05173
 30
0.0
 40
2.5
  1
Tolerances generales selon ISO 2768
 41
0.5
100
AcDbText
  0
TEXT
  5
800
100
AcDbEntity
  8
V0L1
  6
CONTINUOUS
 62
   250
100
AcDbText
 10
19.029304
 20
268.29203
 30
0.0
 40
2.5
  1
Degre de precision   f      m       c       v
 41
0.5
100
AcDbText
  0
TEXT
  5
801
100
AcDbEntity
  8
V0L1
  6
CONTINUOUS
 62
   250
100
AcDbText
 10
86.294943
 20
273.6093
 30
0.0
 40
2.5
  1
Tolerances generales sur pieces moulees selon
 41
0.5
100
AcDbText
  0
TEXT
  5
802
100
AcDbEntity
  8
V0L1
  6
CONTINUOUS
 62
   250
100
AcDbText
 10
86.294943
 20
269.1093
 30
0.0
 40
2.5
  1
Din 16901 (FPTC 407364)   130       140   
 41
0.5
100
AcDbText
  0
LINE
  5
803
100
AcDbEntity
  8
V0L1
  6
CONTINUOUS
 62
   250
100
AcDbLine
 10
230.3
 20
22.0
 30
0.0
 11
230.3
 21
20.28
 31
0.0
  0
LINE
  5
804
100
AcDbEntity
  8
V0L1
  6
CONTINUOUS
 62
   250
100
AcDbLine
 10
67.16713
 20
268.18273
 30
0.0
 11
70.16713
 21
268.18273
 31
0.0
  0
LINE
  5
805
100
AcDbEntity
  8
V0L1
  6
CONTINUOUS
 62
   250
100
AcDbLine
 10
137.0
 20
272.0
 30
0.0
 11
137.0
 21
269.0
 31
0.0
  0
LINE
  5
806
100
AcDbEntity
  8
V0L1
  6
CONTINUOUS
 62
   250
100
AcDbLine
 10
230.3
 20
20.28
 30
0.0
 11
229.23229
 21
20.28
 31
0.0
  0
LINE
  5
807
100
AcDbEntity
  8
V0L1
  6
CONTINUOUS
 62
   250
100
AcDbLine
 10
229.23229
 20
20.28
 30
0.0
 11
228.67229
 21
18.68
 31
0.0
  0
LINE
  5
808
100
AcDbEntity
  8
V0L1
  6
CONTINUOUS
 62
   250
100
AcDbLine
 10
16.0
 20
278.0
 30
0.0
 11
17.5
 21
281.67156
 31
0.0
  0
LINE
  5
809
100
AcDbEntity
  8
V0L1
  6
CONTINUOUS
 62
   250
100
AcDbLine
 10
17.5
 20
281.67156
 30
0.0
 11
19.0
 21
278.0
 31
0.0
  0
LINE
  5
80A
100
AcDbEntity
  8
V0L1
  6
CONTINUOUS
 62
   250
100
AcDbLine
 10
212.0
 20
278.0
 30
0.0
 11
213.5
 21
281.67156
 31
0.0
  0
LINE
  5
80B
100
AcDbEntity
  8
V0L1
  6
CONTINUOUS
 62
   250
100
AcDbLine
 10
213.5
 20
281.67156
 30
0.0
 11
215.0
 21
278.0
 31
0.0
  0
LINE
  5
80C
100
AcDbEntity
  8
V0L1
  6
CONTINUOUS
 62
   250
100
AcDbLine
 10
16.0
 20
15.0
 30
0.0
 11
17.5
 21
11.328442
 31
0.0
  0
LINE
  5
80D
100
AcDbEntity
  8
V0L1
  6
CONTINUOUS
 62
   250
100
AcDbLine
 10
17.5
 20
11.328442
 30
0.0
 11
19.0
 21
15.0
 31
0.0
  0
LINE
  5
80E
100
AcDbEntity
  8
V0L1
  6
CONTINUOUS
 62
   250
100
AcDbLine
 10
212.0
 20
15.0
 30
0.0
 11
213.5
 21
11.328442
 31
0.0
  0
LINE
  5
80F
100
AcDbEntity
  8
V0L1
  6
CONTINUOUS
 62
   250
100
AcDbLine
 10
213.5
 20
11.328442
 30
0.0
 11
215.0
 21
15.0
 31
0.0
  0
LINE
  5
810
100
AcDbEntity
  8
V0L1
  6
CONTINUOUS
 62
   250
100
AcDbLine
 10
228.67229
 20
18.68
 30
0.0
 11
227.05371
 21
18.68
 31
0.0
  0
LINE
  5
811
100
AcDbEntity
  8
V0L1
  6
CONTINUOUS
 62
   250
100
AcDbLine
 10
227.30741
 20
18.86
 30
0.0
 11
228.34341
 21
21.82
 31
0.0
  0
LINE
  5
812
100
AcDbEntity
  8
V0L1
  6
CONTINUOUS
 62
   250
100
AcDbLine
 10
228.34341
 20
21.82
 30
0.0
 11
230.12
 21
21.82
 31
0.0
  0
LINE
  5
813
100
AcDbEntity
  8
V0L1
  6
CONTINUOUS
 62
   250
100
AcDbLine
 10
230.12
 20
21.82
 30
0.0
 11
230.12
 21
20.46
 31
0.0
  0
LINE
  5
814
100
AcDbEntity
  8
V0L1
  6
CONTINUOUS
 62
   250
100
AcDbLine
 10
230.12
 20
20.46
 30
0.0
 11
229.10459
 21
20.46
 31
0.0
  0
LINE
  5
815
100
AcDbEntity
  8
V0L1
  6
CONTINUOUS
 62
   250
100
AcDbLine
 10
229.10459
 20
20.46
 30
0.0
 11
228.54459
 21
18.86
 31
0.0
  0
LINE
  5
816
100
AcDbEntity
  8
V0L1
  6
CONTINUOUS
 62
   250
100
AcDbLine
 10
228.54459
 20
18.86
 30
0.0
 11
227.30741
 21
18.86
 31
0.0
  0
LINE
  5
817
100
AcDbEntity
  8
V0L1
  6
CONTINUOUS
 62
   250
100
AcDbLine
 10
227.56112
 20
19.04
 30
0.0
 11
228.47112
 21
21.64
 31
0.0
  0
LINE
  5
818
100
AcDbEntity
  8
V0L1
  6
CONTINUOUS
 62
   250
100
AcDbLine
 10
228.47112
 20
21.64
 30
0.0
 11
229.94
 21
21.64
 31
0.0
  0
LINE
  5
819
100
AcDbEntity
  8
V0L1
  6
CONTINUOUS
 62
   250
100
AcDbLine
 10
229.94
 20
21.64
 30
0.0
 11
229.94
 21
20.64
 31
0.0
  0
LINE
  5
81A
100
AcDbEntity
  8
V0L1
  6
CONTINUOUS
 62
   250
100
AcDbLine
 10
229.94
 20
20.64
 30
0.0
 11
228.97688
 21
20.64
 31
0.0
  0
LINE
  5
81B
100
AcDbEntity
  8
V0L1
  6
CONTINUOUS
 62
   250
100
AcDbLine
 10
228.97688
 20
20.64
 30
0.0
 11
228.41688
 21
19.04
 31
0.0
  0
LINE
  5
81C
100
AcDbEntity
  8
V0L1
  6
CONTINUOUS
 62
   250
100
AcDbLine
 10
228.41688
 20
19.04
 30
0.0
 11
227.56112
 21
19.04
 31
0.0
  0
LINE
  5
81D
100
AcDbEntity
  8
V0L1
  6
CONTINUOUS
 62
   250
100
AcDbLine
 10
227.81483
 20
19.22
 30
0.0
 11
228.59883
 21
21.46
 31
0.0
  0
LINE
  5
81E
100
AcDbEntity
  8
V0L1
  6
CONTINUOUS
 62
   250
100
AcDbLine
 10
228.59883
 20
21.46
 30
0.0
 11
229.76
 21
21.46
 31
0.0
  0
LINE
  5
81F
100
AcDbEntity
  8
V0L1
  6
CONTINUOUS
 62
   250
100
AcDbLine
 10
229.76
 20
21.46
 30
0.0
 11
229.76
 21
20.82
 31
0.0
  0
LINE
  5
820
100
AcDbEntity
  8
V0L1
  6
CONTINUOUS
 62
   250
100
AcDbLine
 10
229.76
 20
20.82
 30
0.0
 11
228.84917
 21
20.82
 31
0.0
  0
LINE
  5
821
100
AcDbEntity
  8
V0L1
  6
CONTINUOUS
 62
   250
100
AcDbLine
 10
228.84917
 20
20.82
 30
0.0
 11
228.28917
 21
19.22
 31
0.0
  0
LINE
  5
822
100
AcDbEntity
  8
V0L1
  6
CONTINUOUS
 62
   250
100
AcDbLine
 10
228.28917
 20
19.22
 30
0.0
 11
227.81483
 21
19.22
 31
0.0
  0
LINE
  5
823
100
AcDbEntity
  8
V0L1
  6
CONTINUOUS
 62
   250
100
AcDbLine
 10
70.16713
 20
271.18273
 30
0.0
 11
70.16713
 21
268.18273
 31
0.0
  0
LINE
  5
824
100
AcDbEntity
  8
V0L1
  6
CONTINUOUS
 62
   250
100
AcDbLine
 10
67.16713
 20
271.18273
 30
0.0
 11
70.16713
 21
271.18273
 31
0.0
  0
LINE
  5
825
100
AcDbEntity
  8
V0L1
  6
CONTINUOUS
 62
   250
100
AcDbLine
 10
67.16713
 20
271.18273
 30
0.0
 11
67.16713
 21
268.18273
 31
0.0
  0
LINE
  5
826
100
AcDbEntity
  8
V0L1
  6
CONTINUOUS
 62
   250
100
AcDbLine
 10
76.64313
 20
268.18273
 30
0.0
 11
79.64313
 21
268.18273
 31
0.0
  0
LINE
  5
827
100
AcDbEntity
  8
V0L1
  6
CONTINUOUS
 62
   250
100
AcDbLine
 10
79.64313
 20
271.18273
 30
0.0
 11
79.64313
 21
268.18273
 31
0.0
  0
LINE
  5
828
100
AcDbEntity
  8
V0L1
  6
CONTINUOUS
 62
   250
100
AcDbLine
 10
228.06853
 20
19.4
 30
0.0
 11
228.72653
 21
21.28
 31
0.0
  0
LINE
  5
829
100
AcDbEntity
  8
V0L1
  6
CONTINUOUS
 62
   250
100
AcDbLine
 10
228.72653
 20
21.28
 30
0.0
 11
229.58
 21
21.28
 31
0.0
  0
TEXT
  5
82A
100
AcDbEntity
  8
V0L1
  6
CONTINUOUS
 62
   250
100
AcDbText
 10
309.33055
 20
56.201294
 30
0.0
 40
1.45
  1
Controle
 41
0.6
100
AcDbText
  0
TEXT
  5
82B
100
AcDbEntity
  8
V0L1
  6
CONTINUOUS
 62
   250
100
AcDbText
 10
309.33055
 20
54.461294
 30
0.0
 40
1.45
  1
Normes
 41
0.6
100
AcDbText
  0
TEXT
  5
82C
100
AcDbEntity
  8
V0L1
  6
CONTINUOUS
 62
   250
100
AcDbText
 10
309.33055
 20
52.201294
 30
0.0
 40
1.45
  1
Remplace
 41
0.6
100
AcDbText
  0
TEXT
  5
82D
100
AcDbEntity
  8
V0L1
  6
CONTINUOUS
 62
   250
100
AcDbText
 10
309.33055
 20
50.461294
 30
0.0
 40
1.45
  1
par :
 41
0.6
100
AcDbText
  0
TEXT
  5
82E
100
AcDbEntity
  8
V0L1
  6
CONTINUOUS
 62
   250
100
AcDbText
 10
351.33055
 20
56.201294
 30
0.0
 40
1.45
  1
Bon pour
 41
0.6
100
AcDbText
  0
TEXT
  5
82F
100
AcDbEntity
  8
V0L1
  6
CONTINUOUS
 62
   250
100
AcDbText
 10
351.33055
 20
54.461294
 30
0.0
 40
1.45
  1
execution
 41
0.6
100
AcDbText
  0
LINE
  5
830
100
AcDbEntity
  8
V0L1
  6
CONTINUOUS
 62
   250
100
AcDbLine
 10
76.64313
 20
271.18273
 30
0.0
 11
79.64313
 21
271.18273
 31
0.0
  0
LINE
  5
831
100
AcDbEntity
  8
V0L1
  6
CONTINUOUS
 62
   250
100
AcDbLine
 10
229.58
 20
21.28
 30
0.0
 11
229.58
 21
21.0
 31
0.0
  0
LINE
  5
832
100
AcDbEntity
  8
V0L1
  6
CONTINUOUS
 62
   250
100
AcDbLine
 10
229.58
 20
21.0
 30
0.0
 11
228.72147
 21
21.0
 31
0.0
  0
LINE
  5
833
100
AcDbEntity
  8
V0L1
  6
CONTINUOUS
 62
   250
100
AcDbLine
 10
228.72147
 20
21.0
 30
0.0
 11
228.16147
 21
19.4
 31
0.0
  0
LINE
  5
834
100
AcDbEntity
  8
V0L1
  6
CONTINUOUS
 62
   250
100
AcDbLine
 10
228.16147
 20
19.4
 30
0.0
 11
228.06853
 21
19.4
 31
0.0
  0
LINE
  5
835
100
AcDbEntity
  8
V0L1
  6
CONTINUOUS
 62
   250
100
AcDbLine
 10
229.58
 20
21.15
 30
0.0
 11
228.72147
 21
21.15
 31
0.0
  0
LINE
  5
836
100
AcDbEntity
  8
V0L1
  6
CONTINUOUS
 62
   250
100
AcDbLine
 10
232.92771
 20
18.68
 30
0.0
 11
234.54629
 21
18.68
 31
0.0
  0
LINE
  5
837
100
AcDbEntity
  8
V0L1
  6
CONTINUOUS
 62
   250
100
AcDbLine
 10
234.54629
 20
18.68
 30
0.0
 11
233.38429
 21
22.0
 31
0.0
  0
LINE
  5
838
100
AcDbEntity
  8
V0L1
  6
CONTINUOUS
 62
   250
100
AcDbLine
 10
233.38429
 20
22.0
 30
0.0
 11
231.3
 21
22.0
 31
0.0
  0
LINE
  5
839
100
AcDbEntity
  8
V0L1
  6
CONTINUOUS
 62
   250
100
AcDbLine
 10
231.3
 20
22.0
 30
0.0
 11
231.3
 21
20.28
 31
0.0
  0
LINE
  5
83A
100
AcDbEntity
  8
V0L1
  6
CONTINUOUS
 62
   250
100
AcDbLine
 10
231.3
 20
20.28
 30
0.0
 11
232.36771
 21
20.28
 31
0.0
  0
LINE
  5
83B
100
AcDbEntity
  8
V0L1
  6
CONTINUOUS
 62
   250
100
AcDbLine
 10
232.36771
 20
20.28
 30
0.0
 11
232.92771
 21
18.68
 31
0.0
  0
LINE
  5
83C
100
AcDbEntity
  8
V0L1
  6
CONTINUOUS
 62
   250
100
AcDbLine
 10
233.05541
 20
18.86
 30
0.0
 11
234.29259
 21
18.86
 31
0.0
  0
LINE
  5
83D
100
AcDbEntity
  8
V0L1
  6
CONTINUOUS
 62
   250
100
AcDbLine
 10
234.29259
 20
18.86
 30
0.0
 11
233.25659
 21
21.82
 31
0.0
  0
LINE
  5
83E
100
AcDbEntity
  8
V0L1
  6
CONTINUOUS
 62
   250
100
AcDbLine
 10
233.25659
 20
21.82
 30
0.0
 11
231.48
 21
21.82
 31
0.0
  0
LINE
  5
83F
100
AcDbEntity
  8
V0L1
  6
CONTINUOUS
 62
   250
100
AcDbLine
 10
231.48
 20
21.82
 30
0.0
 11
231.48
 21
20.46
 31
0.0
  0
LINE
  5
840
100
AcDbEntity
  8
V0L1
  6
CONTINUOUS
 62
   250
100
AcDbLine
 10
231.48
 20
20.46
 30
0.0
 11
232.49541
 21
20.46
 31
0.0
  0
LINE
  5
841
100
AcDbEntity
  8
V0L1
  6
CONTINUOUS
 62
   250
100
AcDbLine
 10
232.49541
 20
20.46
 30
0.0
 11
233.05541
 21
18.86
 31
0.0
  0
LINE
  5
842
100
AcDbEntity
  8
V0L1
  6
CONTINUOUS
 62
   250
100
AcDbLine
 10
234.03888
 20
19.04
 30
0.0
 11
233.12888
 21
21.64
 31
0.0
  0
LINE
  5
843
100
AcDbEntity
  8
V0L1
  6
CONTINUOUS
 62
   250
100
AcDbLine
 10
233.12888
 20
21.64
 30
0.0
 11
231.66
 21
21.64
 31
0.0
  0
LINE
  5
844
100
AcDbEntity
  8
V0L1
  6
CONTINUOUS
 62
   250
100
AcDbLine
 10
231.66
 20
21.64
 30
0.0
 11
231.66
 21
20.64
 31
0.0
  0
LINE
  5
845
100
AcDbEntity
  8
V0L1
  6
CONTINUOUS
 62
   250
100
AcDbLine
 10
231.66
 20
20.64
 30
0.0
 11
232.62312
 21
20.64
 31
0.0
  0
LINE
  5
846
100
AcDbEntity
  8
V0L1
  6
CONTINUOUS
 62
   250
100
AcDbLine
 10
232.62312
 20
20.64
 30
0.0
 11
233.18312
 21
19.04
 31
0.0
  0
LINE
  5
847
100
AcDbEntity
  8
V0L1
  6
CONTINUOUS
 62
   250
100
AcDbLine
 10
233.18312
 20
19.04
 30
0.0
 11
234.03888
 21
19.04
 31
0.0
  0
LINE
  5
848
100
AcDbEntity
  8
V0L1
  6
CONTINUOUS
 62
   250
100
AcDbLine
 10
233.78517
 20
19.22
 30
0.0
 11
233.00117
 21
21.46
 31
0.0
  0
LINE
  5
849
100
AcDbEntity
  8
V0L1
  6
CONTINUOUS
 62
   250
100
AcDbLine
 10
233.00117
 20
21.46
 30
0.0
 11
231.84
 21
21.46
 31
0.0
  0
LINE
  5
84A
100
AcDbEntity
  8
V0L1
  6
CONTINUOUS
 62
   250
100
AcDbLine
 10
231.84
 20
21.46
 30
0.0
 11
231.84
 21
20.82
 31
0.0
  0
LINE
  5
84B
100
AcDbEntity
  8
V0L1
  6
CONTINUOUS
 62
   250
100
AcDbLine
 10
231.84
 20
20.82
 30
0.0
 11
232.75083
 21
20.82
 31
0.0
  0
LINE
  5
84C
100
AcDbEntity
  8
V0L1
  6
CONTINUOUS
 62
   250
100
AcDbLine
 10
232.75083
 20
20.82
 30
0.0
 11
233.31083
 21
19.22
 31
0.0
  0
LINE
  5
84D
100
AcDbEntity
  8
V0L1
  6
CONTINUOUS
 62
   250
100
AcDbLine
 10
233.31083
 20
19.22
 30
0.0
 11
233.78517
 21
19.22
 31
0.0
  0
LINE
  5
84E
100
AcDbEntity
  8
V0L1
  6
CONTINUOUS
 62
   250
100
AcDbLine
 10
233.53147
 20
19.4
 30
0.0
 11
232.87347
 21
21.28
 31
0.0
  0
LINE
  5
84F
100
AcDbEntity
  8
V0L1
  6
CONTINUOUS
 62
   250
100
AcDbLine
 10
232.87347
 20
21.28
 30
0.0
 11
232.02
 21
21.28
 31
0.0
  0
LINE
  5
850
100
AcDbEntity
  8
V0L1
  6
CONTINUOUS
 62
   250
100
AcDbLine
 10
232.02
 20
21.28
 30
0.0
 11
232.02
 21
21.0
 31
0.0
  0
LINE
  5
851
100
AcDbEntity
  8
V0L1
  6
CONTINUOUS
 62
   250
100
AcDbLine
 10
232.02
 20
21.0
 30
0.0
 11
232.87853
 21
21.0
 31
0.0
  0
LINE
  5
852
100
AcDbEntity
  8
V0L1
  6
CONTINUOUS
 62
   250
100
AcDbLine
 10
232.87853
 20
21.0
 30
0.0
 11
233.43853
 21
19.4
 31
0.0
  0
LINE
  5
853
100
AcDbEntity
  8
V0L1
  6
CONTINUOUS
 62
   250
100
AcDbLine
 10
233.43853
 20
19.4
 30
0.0
 11
233.53147
 21
19.4
 31
0.0
  0
LINE
  5
854
100
AcDbEntity
  8
V0L1
  6
CONTINUOUS
 62
   250
100
AcDbLine
 10
232.02
 20
21.15
 30
0.0
 11
232.87853
 21
21.15
 31
0.0
  0
LINE
  5
855
100
AcDbEntity
  8
V0L1
  6
CONTINUOUS
 62
   250
100
AcDbLine
 10
235.54
 20
23.0
 30
0.0
 11
235.54
 21
26.32
 31
0.0
  0
LINE
  5
856
100
AcDbEntity
  8
V0L1
  6
CONTINUOUS
 62
   250
100
AcDbLine
 10
235.54
 20
26.32
 30
0.0
 11
237.26
 21
26.32
 31
0.0
  0
LINE
  5
857
100
AcDbEntity
  8
V0L1
  6
CONTINUOUS
 62
   250
100
AcDbLine
 10
237.26
 20
26.32
 30
0.0
 11
237.26
 21
23.0
 31
0.0
  0
LINE
  5
858
100
AcDbEntity
  8
V0L1
  6
CONTINUOUS
 62
   250
100
AcDbLine
 10
237.26
 20
23.0
 30
0.0
 11
235.54
 21
23.0
 31
0.0
  0
LINE
  5
859
100
AcDbEntity
  8
V0L1
  6
CONTINUOUS
 62
   250
100
AcDbLine
 10
237.08
 20
23.18
 30
0.0
 11
235.72
 21
23.18
 31
0.0
  0
LINE
  5
85A
100
AcDbEntity
  8
V0L1
  6
CONTINUOUS
 62
   250
100
AcDbLine
 10
235.72
 20
23.18
 30
0.0
 11
235.72
 21
26.14
 31
0.0
  0
LINE
  5
85B
100
AcDbEntity
  8
V0L1
  6
CONTINUOUS
 62
   250
100
AcDbLine
 10
350.0
 20
46.0
 30
0.0
 11
393.0
 21
46.0
 31
0.0
  0
LINE
  5
85C
100
AcDbEntity
  8
V0L1
  6
CONTINUOUS
 62
   250
100
AcDbLine
 10
350.0
 20
42.0
 30
0.0
 11
393.0
 21
42.0
 31
0.0
  0
LINE
  5
85D
100
AcDbEntity
  8
V0L1
  6
CONTINUOUS
 62
   250
100
AcDbLine
 10
350.0
 20
38.0
 30
0.0
 11
393.0
 21
38.0
 31
0.0
  0
LINE
  5
85E
100
AcDbEntity
  8
V0L1
  6
CONTINUOUS
 62
   250
100
AcDbLine
 10
335.0
 20
34.0
 30
0.0
 11
393.0
 21
34.0
 31
0.0
  0
TEXT
  5
85F
100
AcDbEntity
  8
V0L1
  6
CONTINUOUS
 62
   250
100
AcDbText
 10
223.19606
 20
54.832339
 30
0.0
 40
2.0
  1
Etabli
 41
0.5
100
AcDbText
  0
TEXT
  5
860
100
AcDbEntity
  8
V0L1
  6
CONTINUOUS
 62
   250
100
AcDbText
 10
229.19606
 20
50.832339
 30
0.0
 40
2.0
  1
Issu de :
 41
0.5
100
AcDbText
  0
TEXT
  5
861
100
AcDbEntity
  8
V0L1
  6
CONTINUOUS
 62
   250
100
AcDbText
 10
226.18532
 20
37.081261
 30
0.0
 40
2.2
  1
Modif.
 50
90.0
 41
0.5
100
AcDbText
  0
TEXT
  5
862
100
AcDbEntity
  8
V0L1
  6
CONTINUOUS
 62
   250
100
AcDbText
 10
266.03012
 20
54.832339
 30
0.0
 40
2.0
  1
Controle
 41
0.5
100
AcDbText
  0
TEXT
  5
863
100
AcDbEntity
  8
V0L1
  6
CONTINUOUS
 62
   250
100
AcDbText
 10
269.03012
 20
50.832339
 30
0.0
 40
2.0
  1
Remplace
 41
0.5
100
AcDbText
  0
LINE
  5
864
100
AcDbEntity
  8
V0L1
  6
CONTINUOUS
 62
   250
100
AcDbLine
 10
235.72
 20
26.14
 30
0.0
 11
237.08
 21
26.14
 31
0.0
  0
LINE
  5
865
100
AcDbEntity
  8
V0L1
  6
CONTINUOUS
 62
   250
100
AcDbLine
 10
237.08
 20
26.14
 30
0.0
 11
237.08
 21
23.18
 31
0.0
  0
LINE
  5
866
100
AcDbEntity
  8
V0L1
  6
CONTINUOUS
 62
   250
100
AcDbLine
 10
235.9
 20
23.36
 30
0.0
 11
235.9
 21
25.96
 31
0.0
  0
TEXT
  5
867
100
AcDbEntity
  8
V0L1
  6
CONTINUOUS
 62
   250
100
AcDbText
 10
338.54651
 20
46.906468
 30
0.0
 40
2.0
  1
Echelle
 41
0.5
100
AcDbText
  0
TEXT
  5
868
100
AcDbEntity
  8
V0L1
  6
CONTINUOUS
 62
   250
100
AcDbText
 10
351.28476
 20
43.201045
 30
0.0
 40
2.0
  1
Nomenclature separee de numero different
 41
0.45
100
AcDbText
  0
TEXT
  5
869
100
AcDbEntity
  8
V0L1
  6
CONTINUOUS
 62
   250
100
AcDbText
 10
351.28476
 20
47.201045
 30
0.0
 40
2.0
  1
Nomenclature separee de meme numero
 41
0.45
100
AcDbText
  0
TEXT
  5
86A
100
AcDbEntity
  8
V0L1
  6
CONTINUOUS
 62
   250
100
AcDbText
 10
351.28476
 20
51.201045
 30
0.0
 40
2.0
  1
Sans nomenclature separee
 41
0.45
100
AcDbText
  0
TEXT
  5
86B
100
AcDbEntity
  8
V0L1
  6
CONTINUOUS
 62
   250
100
AcDbText
 10
351.28476
 20
31.201045
 30
0.0
 40
2.0
  1
Service resp.: B E
 41
0.45
100
AcDbText
  0
TEXT
  5
86C
100
AcDbEntity
  8
V0L1
  6
CONTINUOUS
 62
   250
100
AcDbText
 10
336.61841
 20
27.130883
 30
0.0
 40
2.2
  1
Doc. Type     Format     Langue     Feuil.No    Nb.feuil.
 41
0.45
100
AcDbText
  0
TEXT
  5
86D
100
AcDbEntity
  8
V0L1
  6
CONTINUOUS
 62
   250
100
AcDbText
 10
363.90098
 20
23.606885
 30
0.0
 40
2.2
  1
F
 41
0.75
100
AcDbText
  0
TEXT
  5
86E
100
AcDbEntity
  8
V0L1
  6
CONTINUOUS
 62
   250
100
AcDbText
 10
355.0488
 20
23.606885
 30
0.0
 40
2.2
  1
3
 41
0.75
100
AcDbText
  0
TEXT
  5
86F
100
AcDbEntity
  8
V0L1
  6
CONTINUOUS
 62
   250
100
AcDbText
 10
253.50904
 20
26.746705
 30
0.0
 40
2.5
  1
ABB Control
 41
0.9
100
AcDbText
  0
TEXT
  5
870
100
AcDbEntity
  8
V0L1
  6
CONTINUOUS
 62
   250
100
AcDbText
 10
253.64853
 20
22.747949
 30
0.0
 40
2.0
  1
Titre
 41
0.75
100
AcDbText
  0
LINE
  5
871
100
AcDbEntity
  8
V0L1
  6
CONTINUOUS
 62
   250
100
AcDbLine
 10
29.0
 20
69.0
 30
0.0
 11
29.0
 21
15.0
 31
0.0
  0
LINE
  5
872
100
AcDbEntity
  8
V0L1
  6
CONTINUOUS
 62
   250
100
AcDbLine
 10
16.0
 20
69.0
 30
0.0
 11
29.0
 21
69.0
 31
0.0
  0
LINE
  5
873
100
AcDbEntity
  8
V0L1
  6
CONTINUOUS
 62
   250
100
AcDbLine
 10
235.9
 20
25.96
 30
0.0
 11
236.9
 21
25.96
 31
0.0
  0
LINE
  5
874
100
AcDbEntity
  8
V0L1
  6
CONTINUOUS
 62
   250
100
AcDbLine
 10
16.0
 20
58.833333
 30
0.0
 11
12.0
 21
58.833333
 31
0.0
  0
LINE
  5
875
100
AcDbEntity
  8
V0L1
  6
CONTINUOUS
 62
   250
100
AcDbLine
 10
16.0
 20
102.66667
 30
0.0
 11
12.0
 21
102.66667
 31
0.0
  0
LINE
  5
876
100
AcDbEntity
  8
V0L1
  6
CONTINUOUS
 62
   250
100
AcDbLine
 10
16.0
 20
146.5
 30
0.0
 11
12.0
 21
146.5
 31
0.0
  0
LINE
  5
877
100
AcDbEntity
  8
V0L1
  6
CONTINUOUS
 62
   250
100
AcDbLine
 10
16.0
 20
190.33333
 30
0.0
 11
12.0
 21
190.33333
 31
0.0
  0
LINE
  5
878
100
AcDbEntity
  8
V0L1
  6
CONTINUOUS
 62
   250
100
AcDbLine
 10
16.0
 20
234.16667
 30
0.0
 11
12.0
 21
234.16667
 31
0.0
  0
TEXT
  5
879
100
AcDbEntity
  8
V0L1
  6
CONTINUOUS
 62
   250
100
AcDbText
 10
13.5
 20
36.916667
 30
0.0
 40
2.0
  1
A
100
AcDbText
  0
TEXT
  5
87A
100
AcDbEntity
  8
V0L1
  6
CONTINUOUS
 62
   250
100
AcDbText
 10
13.5
 20
80.75
 30
0.0
 40
2.0
  1
B
100
AcDbText
  0
TEXT
  5
87B
100
AcDbEntity
  8
V0L1
  6
CONTINUOUS
 62
   250
100
AcDbText
 10
13.5
 20
124.58333
 30
0.0
 40
2.0
  1
C
100
AcDbText
  0
TEXT
  5
87C
100
AcDbEntity
  8
V0L1
  6
CONTINUOUS
 62
   250
100
AcDbText
 10
13.5
 20
168.41667
 30
0.0
 40
2.0
  1
D
100
AcDbText
  0
TEXT
  5
87D
100
AcDbEntity
  8
V0L1
  6
CONTINUOUS
 62
   250
100
AcDbText
 10
13.5
 20
212.25
 30
0.0
 40
2.0
  1
E
100
AcDbText
  0
TEXT
  5
87E
100
AcDbEntity
  8
V0L1
  6
CONTINUOUS
 62
   250
100
AcDbText
 10
13.5
 20
256.08333
 30
0.0
 40
2.0
  1
F
100
AcDbText
  0
TEXT
  5
87F
100
AcDbEntity
  8
V0L1
  6
CONTINUOUS
 62
   250
100
AcDbText
 10
394.14933
 20
36.799778
 30
0.0
 40
2.0
  1
A
100
AcDbText
  0
LINE
  5
880
100
AcDbEntity
  8
V0L1
  6
CONTINUOUS
 62
   250
100
AcDbLine
 10
397.0
 20
58.833333
 30
0.0
 11
393.0
 21
58.833333
 31
0.0
  0
TEXT
  5
881
100
AcDbEntity
  8
V0L1
  6
CONTINUOUS
 62
   250
100
AcDbText
 10
394.14933
 20
80.633111
 30
0.0
 40
2.0
  1
B
100
AcDbText
  0
LINE
  5
882
100
AcDbEntity
  8
V0L1
  6
CONTINUOUS
 62
   250
100
AcDbLine
 10
397.0
 20
102.66667
 30
0.0
 11
393.0
 21
102.66667
 31
0.0
  0
TEXT
  5
883
100
AcDbEntity
  8
V0L1
  6
CONTINUOUS
 62
   250
100
AcDbText
 10
394.14933
 20
124.46644
 30
0.0
 40
2.0
  1
C
100
AcDbText
  0
LINE
  5
884
100
AcDbEntity
  8
V0L1
  6
CONTINUOUS
 62
   250
100
AcDbLine
 10
397.0
 20
146.5
 30
0.0
 11
393.0
 21
146.5
 31
0.0
  0
TEXT
  5
885
100
AcDbEntity
  8
V0L1
  6
CONTINUOUS
 62
   250
100
AcDbText
 10
394.14933
 20
168.29978
 30
0.0
 40
2.0
  1
D
100
AcDbText
  0
LINE
  5
886
100
AcDbEntity
  8
V0L1
  6
CONTINUOUS
 62
   250
100
AcDbLine
 10
397.0
 20
190.33333
 30
0.0
 11
393.0
 21
190.33333
 31
0.0
  0
TEXT
  5
887
100
AcDbEntity
  8
V0L1
  6
CONTINUOUS
 62
   250
100
AcDbText
 10
394.14933
 20
212.13311
 30
0.0
 40
2.0
  1
E
100
AcDbText
  0
LINE
  5
888
100
AcDbEntity
  8
V0L1
  6
CONTINUOUS
 62
   250
100
AcDbLine
 10
397.0
 20
234.16667
 30
0.0
 11
393.0
 21
234.16667
 31
0.0
  0
TEXT
  5
889
100
AcDbEntity
  8
V0L1
  6
CONTINUOUS
 62
   250
100
AcDbText
 10
394.64933
 20
255.96644
 30
0.0
 40
2.0
  1
F
100
AcDbText
  0
LINE
  5
88A
100
AcDbEntity
  8
V0L1
  6
CONTINUOUS
 62
   250
100
AcDbLine
 10
397.0
 20
15.0
 30
0.0
 11
397.0
 21
30.0
 31
0.0
  0
LINE
  5
88B
100
AcDbEntity
  8
V0L1
  6
CONTINUOUS
 62
   250
100
AcDbLine
 10
344.125
 20
15.0
 30
0.0
 11
344.125
 21
10.0
 31
0.0
  0
LINE
  5
88C
100
AcDbEntity
  8
V0L1
  6
CONTINUOUS
 62
   250
100
AcDbLine
 10
344.125
 20
278.0
 30
0.0
 11
344.125
 21
283.0
 31
0.0
  0
LINE
  5
88D
100
AcDbEntity
  8
V0L1
  6
CONTINUOUS
 62
   250
100
AcDbLine
 10
295.25
 20
15.0
 30
0.0
 11
295.25
 21
10.0
 31
0.0
  0
LINE
  5
88E
100
AcDbEntity
  8
V0L1
  6
CONTINUOUS
 62
   250
100
AcDbLine
 10
295.25
 20
278.0
 30
0.0
 11
295.25
 21
283.0
 31
0.0
  0
LINE
  5
88F
100
AcDbEntity
  8
V0L1
  6
CONTINUOUS
 62
   250
100
AcDbLine
 10
246.375
 20
15.0
 30
0.0
 11
246.375
 21
10.0
 31
0.0
  0
LINE
  5
890
100
AcDbEntity
  8
V0L1
  6
CONTINUOUS
 62
   250
100
AcDbLine
 10
246.375
 20
278.0
 30
0.0
 11
246.375
 21
283.0
 31
0.0
  0
LINE
  5
891
100
AcDbEntity
  8
V0L1
  6
CONTINUOUS
 62
   250
100
AcDbLine
 10
197.5
 20
15.0
 30
0.0
 11
197.5
 21
10.0
 31
0.0
  0
LINE
  5
892
100
AcDbEntity
  8
V0L1
  6
CONTINUOUS
 62
   250
100
AcDbLine
 10
197.5
 20
278.0
 30
0.0
 11
197.5
 21
283.0
 31
0.0
  0
LINE
  5
893
100
AcDbEntity
  8
V0L1
  6
CONTINUOUS
 62
   250
100
AcDbLine
 10
149.625
 20
15.0
 30
0.0
 11
149.625
 21
10.0
 31
0.0
  0
LINE
  5
894
100
AcDbEntity
  8
V0L1
  6
CONTINUOUS
 62
   250
100
AcDbLine
 10
149.625
 20
278.0
 30
0.0
 11
149.625
 21
283.0
 31
0.0
  0
LINE
  5
895
100
AcDbEntity
  8
V0L1
  6
CONTINUOUS
 62
   250
100
AcDbLine
 10
100.75
 20
15.0
 30
0.0
 11
100.75
 21
10.0
 31
0.0
  0
LINE
  5
896
100
AcDbEntity
  8
V0L1
  6
CONTINUOUS
 62
   250
100
AcDbLine
 10
100.75
 20
278.0
 30
0.0
 11
100.75
 21
283.0
 31
0.0
  0
LINE
  5
897
100
AcDbEntity
  8
V0L1
  6
CONTINUOUS
 62
   250
100
AcDbLine
 10
51.875
 20
15.0
 30
0.0
 11
51.875
 21
10.0
 31
0.0
  0
LINE
  5
898
100
AcDbEntity
  8
V0L1
  6
CONTINUOUS
 62
   250
100
AcDbLine
 10
51.875
 20
278.0
 30
0.0
 11
51.875
 21
283.0
 31
0.0
  0
TEXT
  5
899
100
AcDbEntity
  8
V0L1
  6
CONTINUOUS
 62
   250
100
AcDbText
 10
368.5625
 20
11.249993
 30
0.0
 40
2.0
  1
1
100
AcDbText
  0
TEXT
  5
89A
100
AcDbEntity
  8
V0L1
  6
CONTINUOUS
 62
   250
100
AcDbText
 10
319.6875
 20
11.249993
 30
0.0
 40
2.0
  1
2
100
AcDbText
  0
TEXT
  5
89B
100
AcDbEntity
  8
V0L1
  6
CONTINUOUS
 62
   250
100
AcDbText
 10
270.8125
 20
11.249993
 30
0.0
 40
2.0
  1
3
100
AcDbText
  0
TEXT
  5
89C
100
AcDbEntity
  8
V0L1
  6
CONTINUOUS
 62
   250
100
AcDbText
 10
221.9375
 20
11.249993
 30
0.0
 40
2.0
  1
4
100
AcDbText
  0
TEXT
  5
89D
100
AcDbEntity
  8
V0L1
  6
CONTINUOUS
 62
   250
100
AcDbText
 10
174.0625
 20
11.249993
 30
0.0
 40
2.0
  1
5
100
AcDbText
  0
TEXT
  5
89E
100
AcDbEntity
  8
V0L1
  6
CONTINUOUS
 62
   250
100
AcDbText
 10
125.1875
 20
11.249993
 30
0.0
 40
2.0
  1
6
100
AcDbText
  0
TEXT
  5
89F
100
AcDbEntity
  8
V0L1
  6
CONTINUOUS
 62
   250
100
AcDbText
 10
76.3125
 20
11.249993
 30
0.0
 40
2.0
  1
7
100
AcDbText
  0
TEXT
  5
8A0
100
AcDbEntity
  8
V0L1
  6
CONTINUOUS
 62
   250
100
AcDbText
 10
27.4375
 20
11.249993
 30
0.0
 40
2.0
  1
8
100
AcDbText
  0
TEXT
  5
8A1
100
AcDbEntity
  8
V0L1
  6
CONTINUOUS
 62
   250
100
AcDbText
 10
368.5625
 20
279.24999
 30
0.0
 40
2.0
  1
1
100
AcDbText
  0
TEXT
  5
8A2
100
AcDbEntity
  8
V0L1
  6
CONTINUOUS
 62
   250
100
AcDbText
 10
319.6875
 20
279.24999
 30
0.0
 40
2.0
  1
2
100
AcDbText
  0
TEXT
  5
8A3
100
AcDbEntity
  8
V0L1
  6
CONTINUOUS
 62
   250
100
AcDbText
 10
270.8125
 20
279.24999
 30
0.0
 40
2.0
  1
3
100
AcDbText
  0
TEXT
  5
8A4
100
AcDbEntity
  8
V0L1
  6
CONTINUOUS
 62
   250
100
AcDbText
 10
221.9375
 20
279.24999
 30
0.0
 40
2.0
  1
4
100
AcDbText
  0
TEXT
  5
8A5
100
AcDbEntity
  8
V0L1
  6
CONTINUOUS
 62
   250
100
AcDbText
 10
174.0625
 20
279.24999
 30
0.0
 40
2.0
  1
5
100
AcDbText
  0
TEXT
  5
8A6
100
AcDbEntity
  8
V0L1
  6
CONTINUOUS
 62
   250
100
AcDbText
 10
125.1875
 20
279.24999
 30
0.0
 40
2.0
  1
6
100
AcDbText
  0
TEXT
  5
8A7
100
AcDbEntity
  8
V0L1
  6
CONTINUOUS
 62
   250
100
AcDbText
 10
76.3125
 20
279.24999
 30
0.0
 40
2.0
  1
7
100
AcDbText
  0
TEXT
  5
8A8
100
AcDbEntity
  8
V0L1
  6
CONTINUOUS
 62
   250
100
AcDbText
 10
27.4375
 20
279.24999
 30
0.0
 40
2.0
  1
8
100
AcDbText
  0
LINE
  5
8A9
100
AcDbEntity
  8
V0L1
  6
CONTINUOUS
 62
   250
100
AcDbLine
 10
236.9
 20
25.96
 30
0.0
 11
236.9
 21
23.36
 31
0.0
  0
LINE
  5
8AA
100
AcDbEntity
  8
V0L1
  6
CONTINUOUS
 62
   250
100
AcDbLine
 10
236.9
 20
23.36
 30
0.0
 11
235.9
 21
23.36
 31
0.0
  0
LINE
  5
8AB
100
AcDbEntity
  8
V0L1
  6
CONTINUOUS
 62
   250
100
AcDbLine
 10
236.08
 20
23.54
 30
0.0
 11
236.08
 21
25.78
 31
0.0
  0
LINE
  5
8AC
100
AcDbEntity
  8
V0L1
  6
CONTINUOUS
 62
   250
100
AcDbLine
 10
236.08
 20
25.78
 30
0.0
 11
236.72
 21
25.78
 31
0.0
  0
LINE
  5
8AD
100
AcDbEntity
  8
V0L1
  6
CONTINUOUS
 62
   250
100
AcDbLine
 10
236.72
 20
25.78
 30
0.0
 11
236.72
 21
23.54
 31
0.0
  0
LINE
  5
8AE
100
AcDbEntity
  8
V0L1
  6
CONTINUOUS
 62
   250
100
AcDbLine
 10
236.72
 20
23.54
 30
0.0
 11
236.08
 21
23.54
 31
0.0
  0
LINE
  5
8AF
100
AcDbEntity
  8
V0L1
  6
CONTINUOUS
 62
   250
100
AcDbLine
 10
236.26
 20
23.72
 30
0.0
 11
236.26
 21
25.6
 31
0.0
  0
LINE
  5
8B0
100
AcDbEntity
  8
V0L1
  6
CONTINUOUS
 62
   250
100
AcDbLine
 10
236.26
 20
25.6
 30
0.0
 11
236.54
 21
25.6
 31
0.0
  0
LINE
  5
8B1
100
AcDbEntity
  8
V0L1
  6
CONTINUOUS
 62
   250
100
AcDbLine
 10
236.54
 20
25.6
 30
0.0
 11
236.54
 21
23.72
 31
0.0
  0
LINE
  5
8B2
100
AcDbEntity
  8
V0L1
  6
CONTINUOUS
 62
   250
100
AcDbLine
 10
236.54
 20
23.72
 30
0.0
 11
236.26
 21
23.72
 31
0.0
  0
LINE
  5
8B3
100
AcDbEntity
  8
V0L1
  6
CONTINUOUS
 62
   250
100
AcDbLine
 10
236.42
 20
23.84
 30
0.0
 11
236.38
 21
23.84
 31
0.0
  0
LINE
  5
8B4
100
AcDbEntity
  8
V0L1
  6
CONTINUOUS
 62
   250
100
AcDbLine
 10
236.38
 20
23.84
 30
0.0
 11
236.38
 21
25.48
 31
0.0
  0
LINE
  5
8B5
100
AcDbEntity
  8
V0L1
  6
CONTINUOUS
 62
   250
100
AcDbLine
 10
236.38
 20
25.48
 30
0.0
 11
236.42
 21
25.48
 31
0.0
  0
LINE
  5
8B6
100
AcDbEntity
  8
V0L1
  6
CONTINUOUS
 62
   250
100
AcDbLine
 10
236.42
 20
25.48
 30
0.0
 11
236.42
 21
23.84
 31
0.0
  0
LINE
  5
8B7
100
AcDbEntity
  8
V0L1
  6
CONTINUOUS
 62
   250
100
AcDbLine
 10
235.54
 20
18.68
 30
0.0
 11
237.26
 21
18.68
 31
0.0
  0
LINE
  5
8B8
100
AcDbEntity
  8
V0L1
  6
CONTINUOUS
 62
   250
100
AcDbLine
 10
237.26
 20
18.68
 30
0.0
 11
237.26
 21
22.0
 31
0.0
  0
LINE
  5
8B9
100
AcDbEntity
  8
V0L1
  6
CONTINUOUS
 62
   250
100
AcDbLine
 10
237.26
 20
22.0
 30
0.0
 11
235.54
 21
22.0
 31
0.0
  0
LINE
  5
8BA
100
AcDbEntity
  8
V0L1
  6
CONTINUOUS
 62
   250
100
AcDbLine
 10
235.54
 20
22.0
 30
0.0
 11
235.54
 21
18.68
 31
0.0
  0
LINE
  5
8BB
100
AcDbEntity
  8
V0L1
  6
CONTINUOUS
 62
   250
100
AcDbLine
 10
235.72
 20
21.82
 30
0.0
 11
235.72
 21
18.86
 31
0.0
  0
LINE
  5
8BC
100
AcDbEntity
  8
V0L1
  6
CONTINUOUS
 62
   250
100
AcDbLine
 10
235.72
 20
18.86
 30
0.0
 11
237.08
 21
18.86
 31
0.0
  0
LINE
  5
8BD
100
AcDbEntity
  8
V0L1
  6
CONTINUOUS
 62
   250
100
AcDbLine
 10
237.08
 20
18.86
 30
0.0
 11
237.08
 21
21.82
 31
0.0
  0
LINE
  5
8BE
100
AcDbEntity
  8
V0L1
  6
CONTINUOUS
 62
   250
100
AcDbLine
 10
237.08
 20
21.82
 30
0.0
 11
235.72
 21
21.82
 31
0.0
  0
LINE
  5
8BF
100
AcDbEntity
  8
V0L1
  6
CONTINUOUS
 62
   250
100
AcDbLine
 10
235.9
 20
21.64
 30
0.0
 11
235.9
 21
19.04
 31
0.0
  0
LINE
  5
8C0
100
AcDbEntity
  8
V0L1
  6
CONTINUOUS
 62
   250
100
AcDbLine
 10
235.9
 20
19.04
 30
0.0
 11
236.9
 21
19.04
 31
0.0
  0
LINE
  5
8C1
100
AcDbEntity
  8
V0L1
  6
CONTINUOUS
 62
   250
100
AcDbLine
 10
236.9
 20
19.04
 30
0.0
 11
236.9
 21
21.64
 31
0.0
  0
LINE
  5
8C2
100
AcDbEntity
  8
V0L1
  6
CONTINUOUS
 62
   250
100
AcDbLine
 10
236.9
 20
21.64
 30
0.0
 11
235.9
 21
21.64
 31
0.0
  0
LINE
  5
8C3
100
AcDbEntity
  8
V0L1
  6
CONTINUOUS
 62
   250
100
AcDbLine
 10
236.08
 20
21.46
 30
0.0
 11
236.08
 21
19.22
 31
0.0
  0
LINE
  5
8C4
100
AcDbEntity
  8
V0L1
  6
CONTINUOUS
 62
   250
100
AcDbLine
 10
236.08
 20
19.22
 30
0.0
 11
236.72
 21
19.22
 31
0.0
  0
LINE
  5
8C5
100
AcDbEntity
  8
V0L1
  6
CONTINUOUS
 62
   250
100
AcDbLine
 10
236.72
 20
19.22
 30
0.0
 11
236.72
 21
21.46
 31
0.0
  0
LINE
  5
8C6
100
AcDbEntity
  8
V0L1
  6
CONTINUOUS
 62
   250
100
AcDbLine
 10
236.72
 20
21.46
 30
0.0
 11
236.08
 21
21.46
 31
0.0
  0
LINE
  5
8C7
100
AcDbEntity
  8
V0L1
  6
CONTINUOUS
 62
   250
100
AcDbLine
 10
236.26
 20
19.4
 30
0.0
 11
236.54
 21
19.4
 31
0.0
  0
LINE
  5
8C8
100
AcDbEntity
  8
V0L1
  6
CONTINUOUS
 62
   250
100
AcDbLine
 10
236.54
 20
19.4
 30
0.0
 11
236.54
 21
21.28
 31
0.0
  0
LINE
  5
8C9
100
AcDbEntity
  8
V0L1
  6
CONTINUOUS
 62
   250
100
AcDbLine
 10
236.54
 20
21.28
 30
0.0
 11
236.26
 21
21.28
 31
0.0
  0
LINE
  5
8CA
100
AcDbEntity
  8
V0L1
  6
CONTINUOUS
 62
   250
100
AcDbLine
 10
236.26
 20
21.28
 30
0.0
 11
236.26
 21
19.4
 31
0.0
  0
LINE
  5
8CB
100
AcDbEntity
  8
V0L1
  6
CONTINUOUS
 62
   250
100
AcDbLine
 10
236.38
 20
19.52
 30
0.0
 11
236.42
 21
19.52
 31
0.0
  0
LINE
  5
8CC
100
AcDbEntity
  8
V0L1
  6
CONTINUOUS
 62
   250
100
AcDbLine
 10
236.42
 20
19.52
 30
0.0
 11
236.42
 21
21.16
 31
0.0
  0
LINE
  5
8CD
100
AcDbEntity
  8
V0L1
  6
CONTINUOUS
 62
   250
100
AcDbLine
 10
236.42
 20
21.16
 30
0.0
 11
236.38
 21
21.16
 31
0.0
  0
LINE
  5
8CE
100
AcDbEntity
  8
V0L1
  6
CONTINUOUS
 62
   250
100
AcDbLine
 10
236.38
 20
21.16
 30
0.0
 11
236.38
 21
19.52
 31
0.0
  0
LINE
  5
8CF
100
AcDbEntity
  8
V0L1
  6
CONTINUOUS
 62
   250
100
AcDbLine
 10
238.26
 20
23.0
 30
0.0
 11
238.26
 21
26.32
 31
0.0
  0
LINE
  5
8D0
100
AcDbEntity
  8
V0L1
  6
CONTINUOUS
 62
   250
100
AcDbLine
 10
238.26
 20
26.32
 30
0.0
 11
238.56
 21
26.32
 31
0.0
  0
ARC
  5
8D1
100
AcDbEntity
  8
V0L1
  6
CONTINUOUS
 62
   250
100
AcDbCircle
 10
238.56
 20
24.7
 30
0.0
 40
1.62
100
AcDbArc
 50
299.38468
 51
90.0
  0
ARC
  5
8D2
100
AcDbEntity
  8
V0L1
  6
CONTINUOUS
 62
   250
100
AcDbCircle
 10
239.44321
 20
23.131579
 30
0.0
 40
0.18
100
AcDbArc
 50
119.38468
 51
226.9698
  0
LINE
  5
8D3
100
AcDbEntity
  8
V0L1
  6
CONTINUOUS
 62
   250
100
AcDbLine
 10
239.32038
 20
23.0
 30
0.0
 11
238.26
 21
23.0
 31
0.0
  0
LINE
  5
8D4
100
AcDbEntity
  8
V0L1
  6
CONTINUOUS
 62
   250
100
AcDbLine
 10
238.44
 20
23.18
 30
0.0
 11
238.44
 21
26.14
 31
0.0
  0
LINE
  5
8D5
100
AcDbEntity
  8
V0L1
  6
CONTINUOUS
 62
   250
100
AcDbLine
 10
238.44
 20
26.14
 30
0.0
 11
238.56
 21
26.14
 31
0.0
  0
ARC
  5
8D6
100
AcDbEntity
  8
V0L1
  6
CONTINUOUS
 62
   250
100
AcDbCircle
 10
238.56
 20
24.7
 30
0.0
 40
1.44
100
AcDbArc
 50
299.38468
 51
90.0
  0
ARC
  5
8D7
100
AcDbEntity
  8
V0L1
  6
CONTINUOUS
 62
   250
100
AcDbCircle
 10
239.44321
 20
23.131579
 30
0.0
 40
0.36
100
AcDbArc
 50
119.38468
 51
172.27012
  0
LINE
  5
8D8
100
AcDbEntity
  8
V0L1
  6
CONTINUOUS
 62
   250
100
AcDbLine
 10
239.08648
 20
23.18
 30
0.0
 11
238.44
 21
23.18
 31
0.0
  0
LINE
  5
8D9
100
AcDbEntity
  8
V0L1
  6
CONTINUOUS
 62
   250
100
AcDbLine
 10
238.62
 20
23.36
 30
0.0
 11
238.62
 21
25.958571
 31
0.0
  0
ARC
  5
8DA
100
AcDbEntity
  8
V0L1
  6
CONTINUOUS
 62
   250
100
AcDbCircle
 10
238.56
 20
24.7
 30
0.0
 40
1.26
100
AcDbArc
 50
299.38468
 51
87.2706
  0
ARC
  5
8DB
100
AcDbEntity
  8
V0L1
  6
CONTINUOUS
 62
   250
100
AcDbCircle
 10
239.44321
 20
23.131579
 30
0.0
 40
0.54
100
AcDbArc
 50
119.38468
 51
154.97574
  0
LINE
  5
8DC
100
AcDbEntity
  8
V0L1
  6
CONTINUOUS
 62
   250
100
AcDbLine
 10
238.9539
 20
23.36
 30
0.0
 11
238.62
 21
23.36
 31
0.0
  0
LINE
  5
8DD
100
AcDbEntity
  8
V0L1
  6
CONTINUOUS
 62
   250
100
AcDbLine
 10
238.8
 20
23.54
 30
0.0
 11
238.8
 21
25.752996
 31
0.0
  0
ARC
  5
8DE
100
AcDbEntity
  8
V0L1
  6
CONTINUOUS
 62
   250
100
AcDbCircle
 10
238.56
 20
24.7
 30
0.0
 40
1.08
100
AcDbArc
 50
299.38468
 51
77.16041
  0
ARC
  5
8DF
100
AcDbEntity
  8
V0L1
  6
CONTINUOUS
 62
   250
100
AcDbCircle
 10
239.44321
 20
23.131579
 30
0.0
 40
0.72
100
AcDbArc
 50
119.38468
 51
145.44122
  0
LINE
  5
8E0
100
AcDbEntity
  8
V0L1
  6
CONTINUOUS
 62
   250
100
AcDbLine
 10
238.85026
 20
23.54
 30
0.0
 11
238.8
 21
23.54
 31
0.0
  0
LINE
  5
8E1
100
AcDbEntity
  8
V0L1
  6
CONTINUOUS
 62
   250
100
AcDbLine
 10
238.98
 20
23.903226
 30
0.0
 11
238.98
 21
25.49599
 31
0.0
  0
ARC
  5
8E2
100
AcDbEntity
  8
V0L1
  6
CONTINUOUS
 62
   250
100
AcDbCircle
 10
238.56
 20
24.7
 30
0.0
 40
0.9
100
AcDbArc
 50
299.38468
 51
62.18186
  0
ARC
  5
8E3
100
AcDbEntity
  8
V0L1
  6
CONTINUOUS
 62
   250
100
AcDbCircle
 10
239.44321
 20
23.131579
 30
0.0
 40
0.9
100
AcDbArc
 50
119.38468
 51
120.97573
  0
LINE
  5
8E4
100
AcDbEntity
  8
V0L1
  6
CONTINUOUS
 62
   250
100
AcDbLine
 10
239.1
 20
24.13715
 30
0.0
 11
239.1
 21
25.26285
 31
0.0
  0
ARC
  5
8E5
100
AcDbEntity
  8
V0L1
  6
CONTINUOUS
 62
   250
100
AcDbCircle
 10
238.56
 20
24.7
 30
0.0
 40
0.78
100
AcDbArc
 50
313.81306
 51
46.18694
  0
LINE
  5
8E6
100
AcDbEntity
  8
V0L1
  6
CONTINUOUS
 62
   250
100
AcDbLine
 10
238.26
 20
18.68
 30
0.0
 11
238.26
 21
22.0
 31
0.0
  0
LINE
  5
8E7
100
AcDbEntity
  8
V0L1
  6
CONTINUOUS
 62
   250
100
AcDbLine
 10
238.26
 20
22.0
 30
0.0
 11
240.48832
 21
22.0
 31
0.0
  0
ARC
  5
8E8
100
AcDbEntity
  8
V0L1
  6
CONTINUOUS
 62
   250
100
AcDbCircle
 10
238.56
 20
20.9
 30
0.0
 40
2.22
100
AcDbArc
 50
270.0
 51
29.70243
  0
LINE
  5
8E9
100
AcDbEntity
  8
V0L1
  6
CONTINUOUS
 62
   250
100
AcDbLine
 10
238.56
 20
18.68
 30
0.0
 11
238.26
 21
18.68
 31
0.0
  0
LINE
  5
8EA
100
AcDbEntity
  8
V0L1
  6
CONTINUOUS
 62
   250
100
AcDbLine
 10
238.44
 20
18.86
 30
0.0
 11
238.44
 21
21.82
 31
0.0
  0
LINE
  5
8EB
100
AcDbEntity
  8
V0L1
  6
CONTINUOUS
 62
   250
100
AcDbLine
 10
238.44
 20
21.82
 30
0.0
 11
240.38077
 21
21.82
 31
0.0
  0
ARC
  5
8EC
100
AcDbEntity
  8
V0L1
  6
CONTINUOUS
 62
   250
100
AcDbCircle
 10
238.56
 20
20.9
 30
0.0
 40
2.04
100
AcDbArc
 50
270.0
 51
26.8066
  0
LINE
  5
8ED
100
AcDbEntity
  8
V0L1
  6
CONTINUOUS
 62
   250
100
AcDbLine
 10
238.56
 20
18.86
 30
0.0
 11
238.44
 21
18.86
 31
0.0
  0
LINE
  5
8EE
100
AcDbEntity
  8
V0L1
  6
CONTINUOUS
 62
   250
100
AcDbLine
 10
238.62
 20
19.040968
 30
0.0
 11
238.62
 21
21.64
 31
0.0
  0
LINE
  5
8EF
100
AcDbEntity
  8
V0L1
  6
CONTINUOUS
 62
   250
100
AcDbLine
 10
238.62
 20
21.64
 30
0.0
 11
240.26646
 21
21.64
 31
0.0
  0
ARC
  5
8F0
100
AcDbEntity
  8
V0L1
  6
CONTINUOUS
 62
   250
100
AcDbCircle
 10
238.56
 20
20.9
 30
0.0
 40
1.86
100
AcDbArc
 50
271.84857
 51
23.44381
  0
LINE
  5
8F1
100
AcDbEntity
  8
V0L1
  6
CONTINUOUS
 62
   250
100
AcDbLine
 10
238.8
 20
19.237231
 30
0.0
 11
238.8
 21
21.46
 31
0.0
  0
LINE
  5
8F2
100
AcDbEntity
  8
V0L1
  6
CONTINUOUS
 62
   250
100
AcDbLine
 10
238.8
 20
21.46
 30
0.0
 11
240.14392
 21
21.46
 31
0.0
  0
ARC
  5
8F3
100
AcDbEntity
  8
V0L1
  6
CONTINUOUS
 62
   250
100
AcDbCircle
 10
238.56
 20
20.9
 30
0.0
 40
1.68
100
AcDbArc
 50
278.21321
 51
19.47122
  0
LINE
  5
8F4
100
AcDbEntity
  8
V0L1
  6
CONTINUOUS
 62
   250
100
AcDbLine
 10
238.98
 20
19.46
 30
0.0
 11
238.98
 21
21.28
 31
0.0
  0
LINE
  5
8F5
100
AcDbEntity
  8
V0L1
  6
CONTINUOUS
 62
   250
100
AcDbLine
 10
238.98
 20
21.28
 30
0.0
 11
240.01107
 21
21.28
 31
0.0
  0
ARC
  5
8F6
100
AcDbEntity
  8
V0L1
  6
CONTINUOUS
 62
   250
100
AcDbCircle
 10
238.56
 20
20.9
 30
0.0
 40
1.5
100
AcDbArc
 50
286.2602
 51
14.67485
  0
LINE
  5
8F7
100
AcDbEntity
  8
V0L1
  6
CONTINUOUS
 62
   250
100
AcDbLine
 10
239.16
 20
19.724245
 30
0.0
 11
239.16
 21
21.1
 31
0.0
  0
LINE
  5
8F8
100
AcDbEntity
  8
V0L1
  6
CONTINUOUS
 62
   250
100
AcDbLine
 10
239.16
 20
21.1
 30
0.0
 11
239.86476
 21
21.1
 31
0.0
  0
ARC
  5
8F9
100
AcDbEntity
  8
V0L1
  6
CONTINUOUS
 62
   250
100
AcDbCircle
 10
238.56
 20
20.9
 30
0.0
 40
1.32
100
AcDbArc
 50
297.03569
 51
8.71474
  0
LINE
  5
8FA
100
AcDbEntity
  8
V0L1
  6
CONTINUOUS
 62
   250
100
AcDbLine
 10
239.31
 20
20.002002
 30
0.0
 11
239.31
 21
20.95
 31
0.0
  0
LINE
  5
8FB
100
AcDbEntity
  8
V0L1
  6
CONTINUOUS
 62
   250
100
AcDbLine
 10
239.31
 20
20.95
 30
0.0
 11
239.72893
 21
20.95
 31
0.0
  0
ARC
  5
8FC
100
AcDbEntity
  8
V0L1
  6
CONTINUOUS
 62
   250
100
AcDbCircle
 10
238.56
 20
20.9
 30
0.0
 40
1.17
100
AcDbArc
 50
309.86834
 51
2.44928
  0
LINE
  5
8FD
100
AcDbEntity
  8
V0L1
  6
CONTINUOUS
 62
   250
100
AcDbLine
 10
241.78
 20
23.0
 30
0.0
 11
241.78
 21
26.32
 31
0.0
  0
LINE
  5
8FE
100
AcDbEntity
  8
V0L1
  6
CONTINUOUS
 62
   250
100
AcDbLine
 10
241.78
 20
26.32
 30
0.0
 11
243.5
 21
26.32
 31
0.0
  0
LINE
  5
8FF
100
AcDbEntity
  8
V0L1
  6
CONTINUOUS
 62
   250
100
AcDbLine
 10
243.5
 20
26.32
 30
0.0
 11
243.5
 21
23.0
 31
0.0
  0
LINE
  5
900
100
AcDbEntity
  8
V0L1
  6
CONTINUOUS
 62
   250
100
AcDbLine
 10
243.5
 20
23.0
 30
0.0
 11
241.78
 21
23.0
 31
0.0
  0
LINE
  5
901
100
AcDbEntity
  8
V0L1
  6
CONTINUOUS
 62
   250
100
AcDbLine
 10
243.32
 20
23.18
 30
0.0
 11
241.96
 21
23.18
 31
0.0
  0
LINE
  5
902
100
AcDbEntity
  8
V0L1
  6
CONTINUOUS
 62
   250
100
AcDbLine
 10
241.96
 20
23.18
 30
0.0
 11
241.96
 21
26.14
 31
0.0
  0
LINE
  5
903
100
AcDbEntity
  8
V0L1
  6
CONTINUOUS
 62
   250
100
AcDbLine
 10
241.96
 20
26.14
 30
0.0
 11
243.32
 21
26.14
 31
0.0
  0
LINE
  5
904
100
AcDbEntity
  8
V0L1
  6
CONTINUOUS
 62
   250
100
AcDbLine
 10
243.32
 20
26.14
 30
0.0
 11
243.32
 21
23.18
 31
0.0
  0
LINE
  5
905
100
AcDbEntity
  8
V0L1
  6
CONTINUOUS
 62
   250
100
AcDbLine
 10
242.14
 20
23.36
 30
0.0
 11
242.14
 21
25.96
 31
0.0
  0
LINE
  5
906
100
AcDbEntity
  8
V0L1
  6
CONTINUOUS
 62
   250
100
AcDbLine
 10
242.14
 20
25.96
 30
0.0
 11
243.14
 21
25.96
 31
0.0
  0
LINE
  5
907
100
AcDbEntity
  8
V0L1
  6
CONTINUOUS
 62
   250
100
AcDbLine
 10
243.14
 20
25.96
 30
0.0
 11
243.14
 21
23.36
 31
0.0
  0
LINE
  5
908
100
AcDbEntity
  8
V0L1
  6
CONTINUOUS
 62
   250
100
AcDbLine
 10
243.14
 20
23.36
 30
0.0
 11
242.14
 21
23.36
 31
0.0
  0
LINE
  5
909
100
AcDbEntity
  8
V0L1
  6
CONTINUOUS
 62
   250
100
AcDbLine
 10
242.32
 20
23.54
 30
0.0
 11
242.32
 21
25.78
 31
0.0
  0
LINE
  5
90A
100
AcDbEntity
  8
V0L1
  6
CONTINUOUS
 62
   250
100
AcDbLine
 10
242.32
 20
25.78
 30
0.0
 11
242.96
 21
25.78
 31
0.0
  0
LINE
  5
90B
100
AcDbEntity
  8
V0L1
  6
CONTINUOUS
 62
   250
100
AcDbLine
 10
242.96
 20
25.78
 30
0.0
 11
242.96
 21
23.54
 31
0.0
  0
LINE
  5
90C
100
AcDbEntity
  8
V0L1
  6
CONTINUOUS
 62
   250
100
AcDbLine
 10
242.96
 20
23.54
 30
0.0
 11
242.32
 21
23.54
 31
0.0
  0
LINE
  5
90D
100
AcDbEntity
  8
V0L1
  6
CONTINUOUS
 62
   250
100
AcDbLine
 10
242.78
 20
23.72
 30
0.0
 11
242.5
 21
23.72
 31
0.0
  0
LINE
  5
90E
100
AcDbEntity
  8
V0L1
  6
CONTINUOUS
 62
   250
100
AcDbLine
 10
242.5
 20
23.72
 30
0.0
 11
242.5
 21
25.6
 31
0.0
  0
LINE
  5
90F
100
AcDbEntity
  8
V0L1
  6
CONTINUOUS
 62
   250
100
AcDbLine
 10
242.5
 20
25.6
 30
0.0
 11
242.78
 21
25.6
 31
0.0
  0
LINE
  5
910
100
AcDbEntity
  8
V0L1
  6
CONTINUOUS
 62
   250
100
AcDbLine
 10
242.78
 20
25.6
 30
0.0
 11
242.78
 21
23.72
 31
0.0
  0
LINE
  5
911
100
AcDbEntity
  8
V0L1
  6
CONTINUOUS
 62
   250
100
AcDbLine
 10
242.62
 20
23.84
 30
0.0
 11
242.62
 21
25.48
 31
0.0
  0
LINE
  5
912
100
AcDbEntity
  8
V0L1
  6
CONTINUOUS
 62
   250
100
AcDbLine
 10
242.62
 20
25.48
 30
0.0
 11
242.66
 21
25.48
 31
0.0
  0
LINE
  5
913
100
AcDbEntity
  8
V0L1
  6
CONTINUOUS
 62
   250
100
AcDbLine
 10
242.66
 20
25.48
 30
0.0
 11
242.66
 21
23.84
 31
0.0
  0
LINE
  5
914
100
AcDbEntity
  8
V0L1
  6
CONTINUOUS
 62
   250
100
AcDbLine
 10
242.66
 20
23.84
 30
0.0
 11
242.62
 21
23.84
 31
0.0
  0
LINE
  5
915
100
AcDbEntity
  8
V0L1
  6
CONTINUOUS
 62
   250
100
AcDbLine
 10
241.78
 20
18.68
 30
0.0
 11
243.5
 21
18.68
 31
0.0
  0
LINE
  5
916
100
AcDbEntity
  8
V0L1
  6
CONTINUOUS
 62
   250
100
AcDbLine
 10
243.5
 20
18.68
 30
0.0
 11
243.5
 21
22.0
 31
0.0
  0
LINE
  5
917
100
AcDbEntity
  8
V0L1
  6
CONTINUOUS
 62
   250
100
AcDbLine
 10
243.5
 20
22.0
 30
0.0
 11
241.78
 21
22.0
 31
0.0
  0
LINE
  5
918
100
AcDbEntity
  8
V0L1
  6
CONTINUOUS
 62
   250
100
AcDbLine
 10
241.78
 20
22.0
 30
0.0
 11
241.78
 21
18.68
 31
0.0
  0
LINE
  5
919
100
AcDbEntity
  8
V0L1
  6
CONTINUOUS
 62
   250
100
AcDbLine
 10
241.96
 20
21.82
 30
0.0
 11
241.96
 21
18.86
 31
0.0
  0
LINE
  5
91A
100
AcDbEntity
  8
V0L1
  6
CONTINUOUS
 62
   250
100
AcDbLine
 10
241.96
 20
18.86
 30
0.0
 11
243.32
 21
18.86
 31
0.0
  0
LINE
  5
91B
100
AcDbEntity
  8
V0L1
  6
CONTINUOUS
 62
   250
100
AcDbLine
 10
243.32
 20
18.86
 30
0.0
 11
243.32
 21
21.82
 31
0.0
  0
LINE
  5
91C
100
AcDbEntity
  8
V0L1
  6
CONTINUOUS
 62
   250
100
AcDbLine
 10
243.32
 20
21.82
 30
0.0
 11
241.96
 21
21.82
 31
0.0
  0
LINE
  5
91D
100
AcDbEntity
  8
V0L1
  6
CONTINUOUS
 62
   250
100
AcDbLine
 10
242.14
 20
21.64
 30
0.0
 11
242.14
 21
19.04
 31
0.0
  0
LINE
  5
91E
100
AcDbEntity
  8
V0L1
  6
CONTINUOUS
 62
   250
100
AcDbLine
 10
242.14
 20
19.04
 30
0.0
 11
243.14
 21
19.04
 31
0.0
  0
LINE
  5
91F
100
AcDbEntity
  8
V0L1
  6
CONTINUOUS
 62
   250
100
AcDbLine
 10
243.14
 20
19.04
 30
0.0
 11
243.14
 21
21.64
 31
0.0
  0
LINE
  5
920
100
AcDbEntity
  8
V0L1
  6
CONTINUOUS
 62
   250
100
AcDbLine
 10
243.14
 20
21.64
 30
0.0
 11
242.14
 21
21.64
 31
0.0
  0
LINE
  5
921
100
AcDbEntity
  8
V0L1
  6
CONTINUOUS
 62
   250
100
AcDbLine
 10
242.32
 20
19.22
 30
0.0
 11
242.96
 21
19.22
 31
0.0
  0
LINE
  5
922
100
AcDbEntity
  8
V0L1
  6
CONTINUOUS
 62
   250
100
AcDbLine
 10
242.96
 20
19.22
 30
0.0
 11
242.96
 21
21.46
 31
0.0
  0
LINE
  5
923
100
AcDbEntity
  8
V0L1
  6
CONTINUOUS
 62
   250
100
AcDbLine
 10
242.96
 20
21.46
 30
0.0
 11
242.32
 21
21.46
 31
0.0
  0
LINE
  5
924
100
AcDbEntity
  8
V0L1
  6
CONTINUOUS
 62
   250
100
AcDbLine
 10
242.32
 20
21.46
 30
0.0
 11
242.32
 21
19.22
 31
0.0
  0
LINE
  5
925
100
AcDbEntity
  8
V0L1
  6
CONTINUOUS
 62
   250
100
AcDbLine
 10
242.5
 20
21.28
 30
0.0
 11
242.5
 21
19.4
 31
0.0
  0
LINE
  5
926
100
AcDbEntity
  8
V0L1
  6
CONTINUOUS
 62
   250
100
AcDbLine
 10
242.5
 20
19.4
 30
0.0
 11
242.78
 21
19.4
 31
0.0
  0
LINE
  5
927
100
AcDbEntity
  8
V0L1
  6
CONTINUOUS
 62
   250
100
AcDbLine
 10
242.78
 20
19.4
 30
0.0
 11
242.78
 21
21.28
 31
0.0
  0
LINE
  5
928
100
AcDbEntity
  8
V0L1
  6
CONTINUOUS
 62
   250
100
AcDbLine
 10
242.78
 20
21.28
 30
0.0
 11
242.5
 21
21.28
 31
0.0
  0
LINE
  5
929
100
AcDbEntity
  8
V0L1
  6
CONTINUOUS
 62
   250
100
AcDbLine
 10
242.62
 20
21.16
 30
0.0
 11
242.62
 21
19.52
 31
0.0
  0
LINE
  5
92A
100
AcDbEntity
  8
V0L1
  6
CONTINUOUS
 62
   250
100
AcDbLine
 10
242.62
 20
19.52
 30
0.0
 11
242.66
 21
19.52
 31
0.0
  0
LINE
  5
92B
100
AcDbEntity
  8
V0L1
  6
CONTINUOUS
 62
   250
100
AcDbLine
 10
242.66
 20
19.52
 30
0.0
 11
242.66
 21
21.16
 31
0.0
  0
LINE
  5
92C
100
AcDbEntity
  8
V0L1
  6
CONTINUOUS
 62
   250
100
AcDbLine
 10
242.66
 20
21.16
 30
0.0
 11
242.62
 21
21.16
 31
0.0
  0
LINE
  5
92D
100
AcDbEntity
  8
V0L1
  6
CONTINUOUS
 62
   250
100
AcDbLine
 10
245.56038
 20
23.0
 30
0.0
 11
244.5
 21
23.0
 31
0.0
  0
LINE
  5
92E
100
AcDbEntity
  8
V0L1
  6
CONTINUOUS
 62
   250
100
AcDbLine
 10
244.5
 20
23.0
 30
0.0
 11
244.5
 21
26.32
 31
0.0
  0
LINE
  5
92F
100
AcDbEntity
  8
V0L1
  6
CONTINUOUS
 62
   250
100
AcDbLine
 10
244.5
 20
26.32
 30
0.0
 11
244.8
 21
26.32
 31
0.0
  0
ARC
  5
930
100
AcDbEntity
  8
V0L1
  6
CONTINUOUS
 62
   250
100
AcDbCircle
 10
244.8
 20
24.7
 30
0.0
 40
1.62
100
AcDbArc
 50
299.38468
 51
90.0
  0
ARC
  5
931
100
AcDbEntity
  8
V0L1
  6
CONTINUOUS
 62
   250
100
AcDbCircle
 10
245.68321
 20
23.131579
 30
0.0
 40
0.18
100
AcDbArc
 50
119.38468
 51
226.9698
  0
LINE
  5
932
100
AcDbEntity
  8
V0L1
  6
CONTINUOUS
 62
   250
100
AcDbLine
 10
244.68
 20
23.18
 30
0.0
 11
244.68
 21
26.14
 31
0.0
  0
LINE
  5
933
100
AcDbEntity
  8
V0L1
  6
CONTINUOUS
 62
   250
100
AcDbLine
 10
244.68
 20
26.14
 30
0.0
 11
244.8
 21
26.14
 31
0.0
  0
ARC
  5
934
100
AcDbEntity
  8
V0L1
  6
CONTINUOUS
 62
   250
100
AcDbCircle
 10
244.8
 20
24.7
 30
0.0
 40
1.44
100
AcDbArc
 50
299.38468
 51
90.0
  0
ARC
  5
935
100
AcDbEntity
  8
V0L1
  6
CONTINUOUS
 62
   250
100
AcDbCircle
 10
245.68321
 20
23.131579
 30
0.0
 40
0.36
100
AcDbArc
 50
119.38468
 51
172.27012
  0
LINE
  5
936
100
AcDbEntity
  8
V0L1
  6
CONTINUOUS
 62
   250
100
AcDbLine
 10
245.32648
 20
23.18
 30
0.0
 11
244.68
 21
23.18
 31
0.0
  0
LINE
  5
937
100
AcDbEntity
  8
V0L1
  6
CONTINUOUS
 62
   250
100
AcDbLine
 10
245.1939
 20
23.36
 30
0.0
 11
244.86
 21
23.36
 31
0.0
  0
LINE
  5
938
100
AcDbEntity
  8
V0L1
  6
CONTINUOUS
 62
   250
100
AcDbLine
 10
244.86
 20
23.36
 30
0.0
 11
244.86
 21
25.958571
 31
0.0
  0
ARC
  5
939
100
AcDbEntity
  8
V0L1
  6
CONTINUOUS
 62
   250
100
AcDbCircle
 10
244.8
 20
24.7
 30
0.0
 40
1.26
100
AcDbArc
 50
299.38468
 51
87.2706
  0
ARC
  5
93A
100
AcDbEntity
  8
V0L1
  6
CONTINUOUS
 62
   250
100
AcDbCircle
 10
245.68321
 20
23.131579
 30
0.0
 40
0.54
100
AcDbArc
 50
119.38468
 51
154.97574
  0
LINE
  5
93B
100
AcDbEntity
  8
V0L1
  6
CONTINUOUS
 62
   250
100
AcDbLine
 10
245.04
 20
23.54
 30
0.0
 11
245.04
 21
25.752996
 31
0.0
  0
ARC
  5
93C
100
AcDbEntity
  8
V0L1
  6
CONTINUOUS
 62
   250
100
AcDbCircle
 10
244.8
 20
24.7
 30
0.0
 40
1.08
100
AcDbArc
 50
299.38468
 51
77.16041
  0
ARC
  5
93D
100
AcDbEntity
  8
V0L1
  6
CONTINUOUS
 62
   250
100
AcDbCircle
 10
245.68321
 20
23.131579
 30
0.0
 40
0.72
100
AcDbArc
 50
119.38468
 51
145.44122
  0
LINE
  5
93E
100
AcDbEntity
  8
V0L1
  6
CONTINUOUS
 62
   250
100
AcDbLine
 10
245.09026
 20
23.54
 30
0.0
 11
245.04
 21
23.54
 31
0.0
  0
LINE
  5
93F
100
AcDbEntity
  8
V0L1
  6
CONTINUOUS
 62
   250
100
AcDbLine
 10
245.22
 20
23.903226
 30
0.0
 11
245.22
 21
25.49599
 31
0.0
  0
ARC
  5
940
100
AcDbEntity
  8
V0L1
  6
CONTINUOUS
 62
   250
100
AcDbCircle
 10
244.8
 20
24.7
 30
0.0
 40
0.9
100
AcDbArc
 50
299.38468
 51
62.18186
  0
ARC
  5
941
100
AcDbEntity
  8
V0L1
  6
CONTINUOUS
 62
   250
100
AcDbCircle
 10
245.68321
 20
23.131579
 30
0.0
 40
0.9
100
AcDbArc
 50
119.38468
 51
120.97573
  0
LINE
  5
942
100
AcDbEntity
  8
V0L1
  6
CONTINUOUS
 62
   250
100
AcDbLine
 10
245.34
 20
24.13715
 30
0.0
 11
245.34
 21
25.26285
 31
0.0
  0
ARC
  5
943
100
AcDbEntity
  8
V0L1
  6
CONTINUOUS
 62
   250
100
AcDbCircle
 10
244.8
 20
24.7
 30
0.0
 40
0.78
100
AcDbArc
 50
313.81306
 51
46.18694
  0
LINE
  5
944
100
AcDbEntity
  8
V0L1
  6
CONTINUOUS
 62
   250
100
AcDbLine
 10
244.5
 20
18.68
 30
0.0
 11
244.5
 21
22.0
 31
0.0
  0
LINE
  5
945
100
AcDbEntity
  8
V0L1
  6
CONTINUOUS
 62
   250
100
AcDbLine
 10
244.5
 20
22.0
 30
0.0
 11
246.72832
 21
22.0
 31
0.0
  0
ARC
  5
946
100
AcDbEntity
  8
V0L1
  6
CONTINUOUS
 62
   250
100
AcDbCircle
 10
244.8
 20
20.9
 30
0.0
 40
2.22
100
AcDbArc
 50
270.0
 51
29.70243
  0
LINE
  5
947
100
AcDbEntity
  8
V0L1
  6
CONTINUOUS
 62
   250
100
AcDbLine
 10
244.8
 20
18.68
 30
0.0
 11
244.5
 21
18.68
 31
0.0
  0
LINE
  5
948
100
AcDbEntity
  8
V0L1
  6
CONTINUOUS
 62
   250
100
AcDbLine
 10
244.68
 20
18.86
 30
0.0
 11
244.68
 21
21.82
 31
0.0
  0
LINE
  5
949
100
AcDbEntity
  8
V0L1
  6
CONTINUOUS
 62
   250
100
AcDbLine
 10
244.68
 20
21.82
 30
0.0
 11
246.62077
 21
21.82
 31
0.0
  0
ARC
  5
94A
100
AcDbEntity
  8
V0L1
  6
CONTINUOUS
 62
   250
100
AcDbCircle
 10
244.8
 20
20.9
 30
0.0
 40
2.04
100
AcDbArc
 50
270.0
 51
26.8066
  0
LINE
  5
94B
100
AcDbEntity
  8
V0L1
  6
CONTINUOUS
 62
   250
100
AcDbLine
 10
244.8
 20
18.86
 30
0.0
 11
244.68
 21
18.86
 31
0.0
  0
LINE
  5
94C
100
AcDbEntity
  8
V0L1
  6
CONTINUOUS
 62
   250
100
AcDbLine
 10
244.86
 20
19.040968
 30
0.0
 11
244.86
 21
21.64
 31
0.0
  0
LINE
  5
94D
100
AcDbEntity
  8
V0L1
  6
CONTINUOUS
 62
   250
100
AcDbLine
 10
244.86
 20
21.64
 30
0.0
 11
246.50646
 21
21.64
 31
0.0
  0
ARC
  5
94E
100
AcDbEntity
  8
V0L1
  6
CONTINUOUS
 62
   250
100
AcDbCircle
 10
244.8
 20
20.9
 30
0.0
 40
1.86
100
AcDbArc
 50
271.84857
 51
23.44381
  0
LINE
  5
94F
100
AcDbEntity
  8
V0L1
  6
CONTINUOUS
 62
   250
100
AcDbLine
 10
245.04
 20
19.237231
 30
0.0
 11
245.04
 21
21.46
 31
0.0
  0
LINE
  5
950
100
AcDbEntity
  8
V0L1
  6
CONTINUOUS
 62
   250
100
AcDbLine
 10
245.04
 20
21.46
 30
0.0
 11
246.38392
 21
21.46
 31
0.0
  0
ARC
  5
951
100
AcDbEntity
  8
V0L1
  6
CONTINUOUS
 62
   250
100
AcDbCircle
 10
244.8
 20
20.9
 30
0.0
 40
1.68
100
AcDbArc
 50
278.21321
 51
19.47122
  0
LINE
  5
952
100
AcDbEntity
  8
V0L1
  6
CONTINUOUS
 62
   250
100
AcDbLine
 10
245.22
 20
19.46
 30
0.0
 11
245.22
 21
21.28
 31
0.0
  0
LINE
  5
953
100
AcDbEntity
  8
V0L1
  6
CONTINUOUS
 62
   250
100
AcDbLine
 10
245.22
 20
21.28
 30
0.0
 11
246.25107
 21
21.28
 31
0.0
  0
ARC
  5
954
100
AcDbEntity
  8
V0L1
  6
CONTINUOUS
 62
   250
100
AcDbCircle
 10
244.8
 20
20.9
 30
0.0
 40
1.5
100
AcDbArc
 50
286.2602
 51
14.67485
  0
LINE
  5
955
100
AcDbEntity
  8
V0L1
  6
CONTINUOUS
 62
   250
100
AcDbLine
 10
245.4
 20
19.724245
 30
0.0
 11
245.4
 21
21.1
 31
0.0
  0
LINE
  5
956
100
AcDbEntity
  8
V0L1
  6
CONTINUOUS
 62
   250
100
AcDbLine
 10
245.4
 20
21.1
 30
0.0
 11
246.10476
 21
21.1
 31
0.0
  0
ARC
  5
957
100
AcDbEntity
  8
V0L1
  6
CONTINUOUS
 62
   250
100
AcDbCircle
 10
244.8
 20
20.9
 30
0.0
 40
1.32
100
AcDbArc
 50
297.03569
 51
8.71474
  0
LINE
  5
958
100
AcDbEntity
  8
V0L1
  6
CONTINUOUS
 62
   250
100
AcDbLine
 10
245.58
 20
20.068616
 30
0.0
 11
245.58
 21
20.92
 31
0.0
  0
LINE
  5
959
100
AcDbEntity
  8
V0L1
  6
CONTINUOUS
 62
   250
100
AcDbLine
 10
245.58
 20
20.92
 30
0.0
 11
245.93982
 21
20.92
 31
0.0
  0
ARC
  5
95A
100
AcDbEntity
  8
V0L1
  6
CONTINUOUS
 62
   250
100
AcDbCircle
 10
244.8
 20
20.9
 30
0.0
 40
1.14
100
AcDbArc
 50
313.17355
 51
1.00524
  0
LINE
  5
95B
100
AcDbEntity
  8
V0L1
  6
CONTINUOUS
 62
   250
100
AcDbLine
 10
239.42
 20
20.84
 30
0.0
 11
239.6183
 21
20.84
 31
0.0
  0
ARC
  5
95C
100
AcDbEntity
  8
V0L1
  6
CONTINUOUS
 62
   250
100
AcDbCircle
 10
238.56
 20
20.9
 30
0.0
 40
1.06
100
AcDbArc
 50
324.22517
 51
356.75511
  0
LINE
  5
95D
100
AcDbEntity
  8
V0L1
  6
CONTINUOUS
 62
   250
100
AcDbLine
 10
239.42
 20
20.280323
 30
0.0
 11
239.42
 21
20.84
 31
0.0
  0
LINE
  5
95E
100
AcDbEntity
  8
V0L1
  6
CONTINUOUS
 62
   250
100
AcDbLine
 10
245.69
 20
20.381541
 30
0.0
 11
245.69
 21
20.81
 31
0.0
  0
LINE
  5
95F
100
AcDbEntity
  8
V0L1
  6
CONTINUOUS
 62
   250
100
AcDbLine
 10
245.69
 20
20.81
 30
0.0
 11
245.82606
 21
20.81
 31
0.0
  0
ARC
  5
960
100
AcDbEntity
  8
V0L1
  6
CONTINUOUS
 62
   250
100
AcDbCircle
 10
244.8
 20
20.9
 30
0.0
 40
1.03
100
AcDbArc
 50
329.77755
 51
354.98718
  0
LINE
  5
961
100
AcDbEntity
  8
V0L1
  6
CONTINUOUS
 62
   250
100
AcDbLine
 10
76.64313
 20
271.18273
 30
0.0
 11
76.64313
 21
268.18273
 31
0.0
  0
TEXT
  5
962
100
AcDbEntity
  8
V0L1
  6
CONTINUOUS
 62
   250
100
AcDbText
 10
18.894545
 20
17.473426
 30
0.0
 40
2.0
  1
Ce document, propriete exclusive de notre
 50
90.0
 41
0.6
100
AcDbText
  0
TEXT
  5
963
100
AcDbEntity
  8
V0L1
  6
CONTINUOUS
 62
   250
100
AcDbText
 10
21.894545
 20
17.473426
 30
0.0
 40
2.0
  1
Societe, est strictement confidentiel. Il
 50
90.0
 41
0.6
100
AcDbText
  0
TEXT
  5
964
100
AcDbEntity
  8
V0L1
  6
CONTINUOUS
 62
   250
100
AcDbText
 10
24.894545
 20
17.473426
 30
0.0
 40
2.0
  1
ne peut etre communique, copie ou
 50
90.0
 41
0.6
100
AcDbText
  0
TEXT
  5
965
100
AcDbEntity
  8
V0L1
  6
CONTINUOUS
 62
   250
100
AcDbText
 10
27.894545
 20
17.473426
 30
0.0
 40
2.0
  1
reproduit sans son autorisation ecrite.
 50
90.0
 41
0.6
100
AcDbText
  0
ATTDEF
  5
966
100
AcDbEntity
  8
V0L1
  6
CONTINUOUS
 62
   250
100
AcDbText
 10
337.07224
 20
15.8802
 30
0.0
 40
6.0
  1
 
 41
0.8
100
AcDbAttributeDefinition
  3
FPTE307662
  2
FPTE307662
 70
     0
  0
ATTDEF
  5
967
100
AcDbEntity
  8
V0L1
  6
CONTINUOUS
 62
   250
100
AcDbText
 10
267.0845
 20
22.158328
 30
0.0
 40
2.5
  1
 
 41
0.8
100
AcDbAttributeDefinition
  3
A9/12/16_N_+_VM5-1
  2
A9/12/16_N_+_VM5-1
 70
     0
  0
ATTDEF
  5
969
100
AcDbEntity
  8
V0L1
  6
CONTINUOUS
 62
   250
100
AcDbText
 10
341.206227
 20
37.241544
 30
0.0
 40
8.0
  1
 
 41
0.7
 72
     1
 11
342.13956
 21
37.241544
 31
0.0
100
AcDbAttributeDefinition
  3
1
  2
1
 70
     0
  0
ATTDEF
  5
96A
100
AcDbEntity
  8
V0L1
  6
CONTINUOUS
 62
   250
100
AcDbText
 10
232.00289
 20
54.925552
 30
0.0
 40
2.2
  1
 
 41
0.6
100
AcDbAttributeDefinition
  3
VIOLO_17/07/96
  2
VIOLO_17/07/96
 70
     0
  0
ATTDEF
  5
96C
100
AcDbEntity
  8
V0L1
  6
CONTINUOUS
 62
   250
100
AcDbText
 10
361.40138
 20
54.716689
 30
0.0
 40
2.5
  1
 
 41
0.5
100
AcDbAttributeDefinition
  3
17227
  2
17227
 70
     0
  0
POINT
  5
97C
100
AcDbEntity
  8
V0L1
  6
CONTINUOUS
 62
   250
100
AcDbPoint
 10
393.0
 20
278.0
 30
0.0
  0
LINE
  5
97D
100
AcDbEntity
  8
1
  6
CONTINUOUS
 62
   250
100
AcDbLine
 10
288.63461
 20
213.14249
 30
0.0
 11
288.63461
 21
219.95024
 31
0.0
  0
LINE
  5
97E
100
AcDbEntity
  8
1
  6
CONTINUOUS
 62
   250
100
AcDbLine
 10
288.63461
 20
218.95034
 30
0.0
 11
292.13472
 21
218.36932
 31
0.0
  0
LINE
  5
97F
100
AcDbEntity
  8
1
  6
CONTINUOUS
 62
   250
100
AcDbLine
 10
288.63461
 20
218.95034
 30
0.0
 11
292.13472
 21
219.53136
 31
0.0
  0
LINE
  5
980
100
AcDbEntity
  8
1
  6
CONTINUOUS
 62
   250
100
AcDbLine
 10
292.13472
 20
218.36932
 30
0.0
 11
292.13472
 21
219.53136
 31
0.0
  0
LINE
  5
981
100
AcDbEntity
  8
1
  6
CONTINUOUS
 62
   250
100
AcDbLine
 10
283.13461
 20
218.95034
 30
0.0
 11
279.63451
 21
218.36932
 31
0.0
  0
LINE
  5
982
100
AcDbEntity
  8
1
  6
CONTINUOUS
 62
   250
100
AcDbLine
 10
283.13461
 20
218.95034
 30
0.0
 11
279.63451
 21
219.53136
 31
0.0
  0
LINE
  5
983
100
AcDbEntity
  8
1
  6
CONTINUOUS
 62
   250
100
AcDbLine
 10
279.63451
 20
218.36932
 30
0.0
 11
279.63451
 21
219.53136
 31
0.0
  0
LINE
  5
984
100
AcDbEntity
  8
1
  6
CONTINUOUS
 62
   250
100
AcDbLine
 10
289.63452
 20
218.95034
 30
0.0
 11
283.13461
 21
218.95034
 31
0.0
  0
LINE
  5
985
100
AcDbEntity
  8
1
  6
CONTINUOUS
 62
   250
100
AcDbLine
 10
283.13461
 20
218.95034
 30
0.0
 11
269.28566
 21
218.95034
 31
0.0
  0
TEXT
  5
986
100
AcDbEntity
  8
1
  6
CONTINUOUS
 62
   250
100
AcDbText
 10
270.28556
 20
219.95124
 30
0.0
 40
2.4999
  1
5,5
 41
0.75
100
AcDbText
  0
LINE
  5
987
100
AcDbEntity
  8
1
  6
CONTINUOUS
 62
   250
100
AcDbLine
 10
318.73462
 20
210.41044
 30
0.0
 11
318.73462
 21
231.78099
 31
0.0
  0
LINE
  5
988
100
AcDbEntity
  8
1
  6
CONTINUOUS
 62
   250
100
AcDbLine
 10
283.13461
 20
230.78109
 30
0.0
 11
286.63472
 21
230.20007
 31
0.0
  0
LINE
  5
989
100
AcDbEntity
  8
1
  6
CONTINUOUS
 62
   250
100
AcDbLine
 10
283.13461
 20
230.78109
 30
0.0
 11
286.63472
 21
231.3621
 31
0.0
  0
LINE
  5
98A
100
AcDbEntity
  8
1
  6
CONTINUOUS
 62
   250
100
AcDbLine
 10
286.63472
 20
230.20007
 30
0.0
 11
286.63472
 21
231.3621
 31
0.0
  0
LINE
  5
98B
100
AcDbEntity
  8
1
  6
CONTINUOUS
 62
   250
100
AcDbLine
 10
318.73462
 20
230.78109
 30
0.0
 11
315.23451
 21
230.20007
 31
0.0
  0
LINE
  5
98C
100
AcDbEntity
  8
1
  6
CONTINUOUS
 62
   250
100
AcDbLine
 10
318.73462
 20
230.78109
 30
0.0
 11
315.23451
 21
231.3621
 31
0.0
  0
LINE
  5
98D
100
AcDbEntity
  8
1
  6
CONTINUOUS
 62
   250
100
AcDbLine
 10
315.23451
 20
230.20007
 30
0.0
 11
315.23451
 21
231.3621
 31
0.0
  0
LINE
  5
98E
100
AcDbEntity
  8
1
  6
CONTINUOUS
 62
   250
100
AcDbLine
 10
283.13461
 20
230.78109
 30
0.0
 11
300.93462
 21
230.78109
 31
0.0
  0
LINE
  5
98F
100
AcDbEntity
  8
1
  6
CONTINUOUS
 62
   250
100
AcDbLine
 10
318.73462
 20
230.78109
 30
0.0
 11
300.93462
 21
230.78109
 31
0.0
  0
TEXT
  5
990
100
AcDbEntity
  8
1
  6
CONTINUOUS
 62
   250
100
AcDbText
 10
294.37238
 20
231.78199
 30
0.0
 40
2.4999
  1
35,6
 41
0.75
100
AcDbText
  0
TEXT
  5
991
100
AcDbEntity
  8
1
  6
CONTINUOUS
 62
   250
100
AcDbText
 10
301.87208
 20
231.78199
 30
0.0
 40
2.4999
  1
(1)
 41
0.75
100
AcDbText
  0
LINE
  5
992
100
AcDbEntity
  8
1
  6
CONTINUOUS
 62
   250
100
AcDbLine
 10
99.896327
 20
174.30152
 30
0.0
 11
99.896327
 21
147.84067
 31
0.0
  0
INSERT
  5
993
100
AcDbEntity
  8
1
 62
   250
100
AcDbBlockReference
  2
SLASH
 10
109.89633
 20
148.84057
 30
0.0
 41
3.5001
 42
3.5001
 43
3.5001
  0
LINE
  5
994
100
AcDbEntity
  8
1
  6
CONTINUOUS
 62
   250
100
AcDbLine
 10
110.89623
 20
148.84057
 30
0.0
 11
109.89633
 21
148.84057
 31
0.0
  0
LINE
  5
995
100
AcDbEntity
  8
1
  6
CONTINUOUS
 62
   250
100
AcDbLine
 10
98.896427
 20
148.84057
 30
0.0
 11
109.89633
 21
148.84057
 31
0.0
  0
TEXT
  5
996
100
AcDbEntity
  8
1
  6
CONTINUOUS
 62
   250
100
AcDbText
 10
103.0214
 20
149.84147
 30
0.0
 40
2.4999
  1
10
 41
0.75
100
AcDbText
  0
LINE
  5
997
100
AcDbEntity
  8
1
  6
CONTINUOUS
 62
   250
100
AcDbLine
 10
119.72235
 20
174.35153
 30
0.0
 11
119.72235
 21
147.84067
 31
0.0
  0
LINE
  5
998
100
AcDbEntity
  8
1
  6
CONTINUOUS
 62
   250
100
AcDbLine
 10
109.89633
 20
174.35153
 30
0.0
 11
109.89633
 21
147.84067
 31
0.0
  0
INSERT
  5
999
100
AcDbEntity
  8
1
 62
   250
100
AcDbBlockReference
  2
SLASH
 10
119.72235
 20
148.84057
 30
0.0
 41
3.5001
 42
3.5001
 43
3.5001
  0
INSERT
  5
99A
100
AcDbEntity
  8
1
 62
   250
100
AcDbBlockReference
  2
SLASH
 10
119.72235
 20
148.84057
 30
0.0
 41
3.5001
 42
3.5001
 43
3.5001
  0
LINE
  5
99B
100
AcDbEntity
  8
1
  6
CONTINUOUS
 62
   250
100
AcDbLine
 10
120.72225
 20
148.84057
 30
0.0
 11
119.72235
 21
148.84057
 31
0.0
  0
LINE
  5
99C
100
AcDbEntity
  8
1
  6
CONTINUOUS
 62
   250
100
AcDbLine
 10
108.89643
 20
148.84057
 30
0.0
 11
119.72235
 21
148.84057
 31
0.0
  0
TEXT
  5
99D
100
AcDbEntity
  8
1
  6
CONTINUOUS
 62
   250
100
AcDbText
 10
112.93441
 20
149.84147
 30
0.0
 40
2.4999
  1
10
 41
0.75
100
AcDbText
  0
LINE
  5
99E
100
AcDbEntity
  8
1
  6
CONTINUOUS
 62
   250
100
AcDbLine
 10
129.89633
 20
174.35153
 30
0.0
 11
129.89633
 21
147.84067
 31
0.0
  0
INSERT
  5
99F
100
AcDbEntity
  8
1
 62
   250
100
AcDbBlockReference
  2
SLASH
 10
129.89633
 20
148.84057
 30
0.0
 41
3.5001
 42
3.5001
 43
3.5001
  0
LINE
  5
9A0
100
AcDbEntity
  8
1
  6
CONTINUOUS
 62
   250
100
AcDbLine
 10
130.89623
 20
148.84057
 30
0.0
 11
129.89633
 21
148.84057
 31
0.0
  0
LINE
  5
9A1
100
AcDbEntity
  8
1
  6
CONTINUOUS
 62
   250
100
AcDbLine
 10
118.72245
 20
148.84057
 30
0.0
 11
129.89633
 21
148.84057
 31
0.0
  0
TEXT
  5
9A2
100
AcDbEntity
  8
1
  6
CONTINUOUS
 62
   250
100
AcDbText
 10
122.93441
 20
149.84147
 30
0.0
 40
2.4999
  1
10
 41
0.75
100
AcDbText
  0
LINE
  5
9A3
100
AcDbEntity
  8
1
  6
CONTINUOUS
 62
   250
100
AcDbLine
 10
86.186901
 20
213.35153
 30
0.0
 11
85.605885
 21
209.85142
 31
0.0
  0
LINE
  5
9A4
100
AcDbEntity
  8
1
  6
CONTINUOUS
 62
   250
100
AcDbLine
 10
86.186901
 20
213.35153
 30
0.0
 11
86.767918
 21
209.85142
 31
0.0
  0
LINE
  5
9A5
100
AcDbEntity
  8
1
  6
CONTINUOUS
 62
   250
100
AcDbLine
 10
85.605885
 20
209.85142
 30
0.0
 11
86.767918
 21
209.85142
 31
0.0
  0
LINE
  5
9A6
100
AcDbEntity
  8
1
  6
CONTINUOUS
 62
   250
100
AcDbLine
 10
86.186901
 20
174.35153
 30
0.0
 11
85.605885
 21
177.85163
 31
0.0
  0
LINE
  5
9A7
100
AcDbEntity
  8
1
  6
CONTINUOUS
 62
   250
100
AcDbLine
 10
86.186901
 20
174.35153
 30
0.0
 11
86.767918
 21
177.85163
 31
0.0
  0
LINE
  5
9A8
100
AcDbEntity
  8
1
  6
CONTINUOUS
 62
   250
100
AcDbLine
 10
85.605885
 20
177.85163
 30
0.0
 11
86.767918
 21
177.85163
 31
0.0
  0
LINE
  5
9A9
100
AcDbEntity
  8
1
  6
CONTINUOUS
 62
   250
100
AcDbLine
 10
86.186901
 20
213.35153
 30
0.0
 11
86.186901
 21
193.85153
 31
0.0
  0
LINE
  5
9AA
100
AcDbEntity
  8
1
  6
CONTINUOUS
 62
   250
100
AcDbLine
 10
86.186901
 20
174.35153
 30
0.0
 11
86.186901
 21
193.85153
 31
0.0
  0
TEXT
  5
9AB
100
AcDbEntity
  8
1
  6
CONTINUOUS
 62
   250
100
AcDbText
 10
85.186001
 20
191.9766
 30
0.0
 40
2.4999
  1
39
 50
90.0
 41
0.75
100
AcDbText
  0
LINE
  5
9AC
100
AcDbEntity
  8
1
  6
CONTINUOUS
 62
   250
100
AcDbLine
 10
91.896327
 20
230.85153
 30
0.0
 11
77.259381
 21
230.85153
 31
0.0
  0
LINE
  5
9AD
100
AcDbEntity
  8
1
  6
CONTINUOUS
 62
   250
100
AcDbLine
 10
91.896327
 20
156.85153
 30
0.0
 11
77.259381
 21
156.85153
 31
0.0
  0
LINE
  5
9AE
100
AcDbEntity
  8
1
  6
CONTINUOUS
 62
   250
100
AcDbLine
 10
78.259281
 20
230.85153
 30
0.0
 11
77.678264
 21
227.35142
 31
0.0
  0
LINE
  5
9AF
100
AcDbEntity
  8
1
  6
CONTINUOUS
 62
   250
100
AcDbLine
 10
78.259281
 20
230.85153
 30
0.0
 11
78.840298
 21
227.35142
 31
0.0
  0
LINE
  5
9B0
100
AcDbEntity
  8
1
  6
CONTINUOUS
 62
   250
100
AcDbLine
 10
77.678264
 20
227.35142
 30
0.0
 11
78.840298
 21
227.35142
 31
0.0
  0
LINE
  5
9B1
100
AcDbEntity
  8
1
  6
CONTINUOUS
 62
   250
100
AcDbLine
 10
78.259281
 20
156.85153
 30
0.0
 11
77.678264
 21
160.35163
 31
0.0
  0
LINE
  5
9B2
100
AcDbEntity
  8
1
  6
CONTINUOUS
 62
   250
100
AcDbLine
 10
78.259281
 20
156.85153
 30
0.0
 11
78.840298
 21
160.35163
 31
0.0
  0
LINE
  5
9B3
100
AcDbEntity
  8
1
  6
CONTINUOUS
 62
   250
100
AcDbLine
 10
77.678264
 20
160.35163
 30
0.0
 11
78.840298
 21
160.35163
 31
0.0
  0
LINE
  5
9B4
100
AcDbEntity
  8
1
  6
CONTINUOUS
 62
   250
100
AcDbLine
 10
78.259281
 20
230.85153
 30
0.0
 11
78.259281
 21
193.85153
 31
0.0
  0
LINE
  5
9B5
100
AcDbEntity
  8
1
  6
CONTINUOUS
 62
   250
100
AcDbLine
 10
78.259281
 20
156.85153
 30
0.0
 11
78.259281
 21
193.85153
 31
0.0
  0
TEXT
  5
9B6
100
AcDbEntity
  8
1
  6
CONTINUOUS
 62
   250
100
AcDbText
 10
77.258381
 20
191.9766
 30
0.0
 40
2.4999
  1
74
 50
90.0
 41
0.75
100
AcDbText
  0
LINE
  5
9B7
100
AcDbEntity
  8
1
  6
CONTINUOUS
 62
   250
100
AcDbLine
 10
351.13461
 20
204.81044
 30
0.0
 11
351.13461
 21
252.27741
 31
0.0
  0
LINE
  5
9B8
100
AcDbEntity
  8
1
  6
CONTINUOUS
 62
   250
100
AcDbLine
 10
351.13461
 20
251.27751
 30
0.0
 11
347.63451
 21
251.85852
 31
0.0
  0
LINE
  5
9B9
100
AcDbEntity
  8
1
  6
CONTINUOUS
 62
   250
100
AcDbLine
 10
351.13461
 20
251.27751
 30
0.0
 11
347.63451
 21
250.69649
 31
0.0
  0
LINE
  5
9BA
100
AcDbEntity
  8
1
  6
CONTINUOUS
 62
   250
100
AcDbLine
 10
347.63451
 20
251.85852
 30
0.0
 11
347.63451
 21
250.69649
 31
0.0
  0
LINE
  5
9BB
100
AcDbEntity
  8
1
  6
CONTINUOUS
 62
   250
100
AcDbLine
 10
283.13461
 20
251.27751
 30
0.0
 11
286.63472
 21
251.85852
 31
0.0
  0
LINE
  5
9BC
100
AcDbEntity
  8
1
  6
CONTINUOUS
 62
   250
100
AcDbLine
 10
283.13461
 20
251.27751
 30
0.0
 11
286.63472
 21
250.69649
 31
0.0
  0
LINE
  5
9BD
100
AcDbEntity
  8
1
  6
CONTINUOUS
 62
   250
100
AcDbLine
 10
286.63472
 20
251.85852
 30
0.0
 11
286.63472
 21
250.69649
 31
0.0
  0
LINE
  5
9BE
100
AcDbEntity
  8
1
  6
CONTINUOUS
 62
   250
100
AcDbLine
 10
351.13461
 20
251.27751
 30
0.0
 11
317.13461
 21
251.27751
 31
0.0
  0
LINE
  5
9BF
100
AcDbEntity
  8
1
  6
CONTINUOUS
 62
   250
100
AcDbLine
 10
283.13461
 20
251.27751
 30
0.0
 11
317.13461
 21
251.27751
 31
0.0
  0
TEXT
  5
9C0
100
AcDbEntity
  8
1
  6
CONTINUOUS
 62
   250
100
AcDbText
 10
315.25969
 20
252.27841
 30
0.0
 40
2.4999
  1
68
 41
0.75
100
AcDbText
  0
LINE
  5
9C1
100
AcDbEntity
  8
1
  6
CONTINUOUS
 62
   250
100
AcDbLine
 10
283.13461
 20
139.91044
 30
0.0
 11
283.13461
 21
122.21987
 31
0.0
  0
LINE
  5
9C2
100
AcDbEntity
  8
1
  6
CONTINUOUS
 62
   250
100
AcDbLine
 10
287.13461
 20
158.71403
 30
0.0
 11
287.13461
 21
122.21987
 31
0.0
  0
LINE
  5
9C3
100
AcDbEntity
  8
1
  6
CONTINUOUS
 62
   250
100
AcDbLine
 10
283.13461
 20
123.21977
 30
0.0
 11
279.63451
 21
123.80078
 31
0.0
  0
LINE
  5
9C4
100
AcDbEntity
  8
1
  6
CONTINUOUS
 62
   250
100
AcDbLine
 10
283.13461
 20
123.21977
 30
0.0
 11
279.63451
 21
122.63875
 31
0.0
  0
LINE
  5
9C5
100
AcDbEntity
  8
1
  6
CONTINUOUS
 62
   250
100
AcDbLine
 10
279.63451
 20
123.80078
 30
0.0
 11
279.63451
 21
122.63875
 31
0.0
  0
LINE
  5
9C6
100
AcDbEntity
  8
1
  6
CONTINUOUS
 62
   250
100
AcDbLine
 10
287.13461
 20
123.21977
 30
0.0
 11
290.63472
 21
123.80078
 31
0.0
  0
LINE
  5
9C7
100
AcDbEntity
  8
1
  6
CONTINUOUS
 62
   250
100
AcDbLine
 10
287.13461
 20
123.21977
 30
0.0
 11
290.63472
 21
122.63875
 31
0.0
  0
LINE
  5
9C8
100
AcDbEntity
  8
1
  6
CONTINUOUS
 62
   250
100
AcDbLine
 10
290.63472
 20
123.80078
 30
0.0
 11
290.63472
 21
122.63875
 31
0.0
  0
LINE
  5
9C9
100
AcDbEntity
  8
1
  6
CONTINUOUS
 62
   250
100
AcDbLine
 10
283.13461
 20
123.21977
 30
0.0
 11
273.39347
 21
123.21977
 31
0.0
  0
LINE
  5
9CA
100
AcDbEntity
  8
1
  6
CONTINUOUS
 62
   250
100
AcDbLine
 10
288.13452
 20
123.21977
 30
0.0
 11
283.13461
 21
123.21977
 31
0.0
  0
TEXT
  5
9CB
100
AcDbEntity
  8
1
  6
CONTINUOUS
 62
   250
100
AcDbText
 10
274.39337
 20
124.22067
 30
0.0
 40
2.4999
  1
4
 41
0.75
100
AcDbText
  0
LINE
  5
9CC
100
AcDbEntity
  8
1
  6
CONTINUOUS
 62
   250
100
AcDbLine
 10
108.10178
 20
161.28806
 30
0.0
 11
111.99087
 21
165.17715
 31
0.0
  0
LINE
  5
9CD
100
AcDbEntity
  8
1
  6
CONTINUOUS
 62
   250
100
AcDbLine
 10
108.63211
 20
164.64682
 30
0.0
 11
111.46054
 21
161.81839
 31
0.0
  0
LINE
  5
9CE
100
AcDbEntity
  8
1
  6
CONTINUOUS
 62
   250
100
AcDbLine
 10
117.80178
 20
222.5259
 30
0.0
 11
121.69087
 21
226.41499
 31
0.0
  0
LINE
  5
9CF
100
AcDbEntity
  8
1
  6
CONTINUOUS
 62
   250
100
AcDbLine
 10
118.33211
 20
225.88466
 30
0.0
 11
121.16054
 21
223.05623
 31
0.0
  0
LINE
  5
9D0
100
AcDbEntity
  8
1
  6
CONTINUOUS
 62
   250
100
AcDbLine
 10
129.37856
 20
166.01929
 30
0.0
 11
132.91409
 21
162.48376
 31
0.0
  0
LINE
  5
9D1
100
AcDbEntity
  8
1
  6
CONTINUOUS
 62
   250
100
AcDbLine
 10
128.86382
 20
161.96902
 30
0.0
 11
133.45991
 21
166.56511
 31
0.0
  0
LINE
  5
9D2
100
AcDbEntity
  8
1
  6
CONTINUOUS
 62
   250
100
AcDbLine
 10
96.87856
 20
224.58821
 30
0.0
 11
100.41409
 21
221.05268
 31
0.0
  0
LINE
  5
9D3
100
AcDbEntity
  8
1
  6
CONTINUOUS
 62
   250
100
AcDbLine
 10
96.365326
 20
220.53944
 30
0.0
 11
100.95991
 21
225.13403
 31
0.0
  0
LINE
  5
9D4
100
AcDbEntity
  8
1
  6
CONTINUOUS
 62
   250
100
AcDbLine
 10
129.37856
 20
224.66929
 30
0.0
 11
132.91409
 21
221.13376
 31
0.0
  0
LINE
  5
9D5
100
AcDbEntity
  8
1
  6
CONTINUOUS
 62
   250
100
AcDbLine
 10
128.8701
 20
220.62529
 30
0.0
 11
133.45991
 21
225.21511
 31
0.0
  0
LINE
  5
9D6
100
AcDbEntity
  8
1
  6
CONTINUOUS
 62
   250
100
AcDbLine
 10
127.61382
 20
211.03794
 30
0.0
 11
132.20991
 21
215.63403
 31
0.0
  0
LINE
  5
9D7
100
AcDbEntity
  8
1
  6
CONTINUOUS
 62
   250
100
AcDbLine
 10
128.12856
 20
215.08821
 30
0.0
 11
131.66409
 21
211.55268
 31
0.0
  0
LINE
  5
9D8
100
AcDbEntity
  8
1
  6
CONTINUOUS
 62
   250
100
AcDbLine
 10
117.61382
 20
211.03794
 30
0.0
 11
122.20991
 21
215.63403
 31
0.0
  0
LINE
  5
9D9
100
AcDbEntity
  8
1
  6
CONTINUOUS
 62
   250
100
AcDbLine
 10
118.12856
 20
215.08821
 30
0.0
 11
121.66409
 21
211.55268
 31
0.0
  0
LINE
  5
9DA
100
AcDbEntity
  8
1
  6
CONTINUOUS
 62
   250
100
AcDbLine
 10
107.61382
 20
211.03794
 30
0.0
 11
112.20991
 21
215.63403
 31
0.0
  0
LINE
  5
9DB
100
AcDbEntity
  8
1
  6
CONTINUOUS
 62
   250
100
AcDbLine
 10
108.12856
 20
215.08821
 30
0.0
 11
111.66409
 21
211.55268
 31
0.0
  0
LINE
  5
9DC
100
AcDbEntity
  8
1
  6
CONTINUOUS
 62
   250
100
AcDbLine
 10
97.613823
 20
211.03794
 30
0.0
 11
102.20991
 21
215.63403
 31
0.0
  0
LINE
  5
9DD
100
AcDbEntity
  8
1
  6
CONTINUOUS
 62
   250
100
AcDbLine
 10
98.12856
 20
215.08821
 30
0.0
 11
101.66409
 21
211.55268
 31
0.0
  0
LINE
  5
9DE
100
AcDbEntity
  8
1
  6
CONTINUOUS
 62
   250
100
AcDbLine
 10
97.59823
 20
172.00343
 30
0.0
 11
102.19442
 21
176.59962
 31
0.0
  0
LINE
  5
9DF
100
AcDbEntity
  8
1
  6
CONTINUOUS
 62
   250
100
AcDbLine
 10
98.12856
 20
176.06929
 30
0.0
 11
101.66409
 21
172.53376
 31
0.0
  0
LINE
  5
9E0
100
AcDbEntity
  8
1
  6
CONTINUOUS
 62
   250
100
AcDbLine
 10
107.62337
 20
172.02856
 30
0.0
 11
112.21929
 21
176.62449
 31
0.0
  0
LINE
  5
9E1
100
AcDbEntity
  8
1
  6
CONTINUOUS
 62
   250
100
AcDbLine
 10
108.12856
 20
176.06929
 30
0.0
 11
111.66409
 21
172.53376
 31
0.0
  0
LINE
  5
9E2
100
AcDbEntity
  8
1
  6
CONTINUOUS
 62
   250
100
AcDbLine
 10
117.42425
 20
172.05343
 30
0.0
 11
122.02045
 21
176.64962
 31
0.0
  0
LINE
  5
9E3
100
AcDbEntity
  8
1
  6
CONTINUOUS
 62
   250
100
AcDbLine
 10
117.95458
 20
176.11929
 30
0.0
 11
121.49012
 21
172.58376
 31
0.0
  0
LINE
  5
9E4
100
AcDbEntity
  8
1
  6
CONTINUOUS
 62
   250
100
AcDbLine
 10
127.59823
 20
172.05343
 30
0.0
 11
132.19442
 21
176.64962
 31
0.0
  0
LINE
  5
9E5
100
AcDbEntity
  8
1
  6
CONTINUOUS
 62
   250
100
AcDbLine
 10
128.10356
 20
176.09429
 30
0.0
 11
131.63909
 21
172.55876
 31
0.0
  0
LINE
  5
9E6
100
AcDbEntity
  8
1
  6
CONTINUOUS
 62
   250
100
AcDbLine
 10
283.13461
 20
214.91044
 30
0.0
 11
283.13461
 21
261.66336
 31
0.0
  0
LINE
  5
9E7
100
AcDbEntity
  8
1
  6
CONTINUOUS
 62
   250
100
AcDbLine
 10
357.58461
 20
207.51044
 30
0.0
 11
357.58461
 21
261.66336
 31
0.0
  0
LINE
  5
9E8
100
AcDbEntity
  8
1
  6
CONTINUOUS
 62
   250
100
AcDbLine
 10
283.13461
 20
260.66346
 30
0.0
 11
286.63472
 21
260.08244
 31
0.0
  0
LINE
  5
9E9
100
AcDbEntity
  8
1
  6
CONTINUOUS
 62
   250
100
AcDbLine
 10
283.13461
 20
260.66346
 30
0.0
 11
286.63472
 21
261.24448
 31
0.0
  0
LINE
  5
9EA
100
AcDbEntity
  8
1
  6
CONTINUOUS
 62
   250
100
AcDbLine
 10
286.63472
 20
260.08244
 30
0.0
 11
286.63472
 21
261.24448
 31
0.0
  0
LINE
  5
9EB
100
AcDbEntity
  8
1
  6
CONTINUOUS
 62
   250
100
AcDbLine
 10
357.58461
 20
260.66346
 30
0.0
 11
354.08451
 21
260.08244
 31
0.0
  0
LINE
  5
9EC
100
AcDbEntity
  8
1
  6
CONTINUOUS
 62
   250
100
AcDbLine
 10
357.58461
 20
260.66346
 30
0.0
 11
354.08451
 21
261.24448
 31
0.0
  0
LINE
  5
9ED
100
AcDbEntity
  8
1
  6
CONTINUOUS
 62
   250
100
AcDbLine
 10
354.08451
 20
260.08244
 30
0.0
 11
354.08451
 21
261.24448
 31
0.0
  0
LINE
  5
9EE
100
AcDbEntity
  8
1
  6
CONTINUOUS
 62
   250
100
AcDbLine
 10
283.13461
 20
260.66346
 30
0.0
 11
319.12433
 21
260.66346
 31
0.0
  0
LINE
  5
9EF
100
AcDbEntity
  8
1
  6
CONTINUOUS
 62
   250
100
AcDbLine
 10
357.58461
 20
260.66346
 30
0.0
 11
319.12433
 21
260.66346
 31
0.0
  0
TEXT
  5
9F0
100
AcDbEntity
  8
1
  6
CONTINUOUS
 62
   250
100
AcDbText
 10
315.37448
 20
261.66436
 30
0.0
 40
2.4999
  1
74.5
 41
0.75
100
AcDbText
  0
LINE
  5
9F1
100
AcDbEntity
  8
1
  6
CONTINUOUS
 62
   250
100
AcDbLine
 10
92.536084
 20
48.428533
 30
0.0
 11
92.536084
 21
32.753649
 31
0.0
  0
LINE
  5
9F2
100
AcDbEntity
  8
1
  6
CONTINUOUS
 62
   250
100
AcDbLine
 10
92.536084
 20
33.753549
 30
0.0
 11
89.035984
 21
33.172532
 31
0.0
  0
LINE
  5
9F3
100
AcDbEntity
  8
1
  6
CONTINUOUS
 62
   250
100
AcDbLine
 10
92.536084
 20
33.753549
 30
0.0
 11
89.035984
 21
34.334566
 31
0.0
  0
LINE
  5
9F4
100
AcDbEntity
  8
1
  6
CONTINUOUS
 62
   250
100
AcDbLine
 10
89.035984
 20
33.172532
 30
0.0
 11
89.035984
 21
34.334566
 31
0.0
  0
LINE
  5
9F5
100
AcDbEntity
  8
1
  6
CONTINUOUS
 62
   250
100
AcDbLine
 10
98.035984
 20
33.753549
 30
0.0
 11
92.536084
 21
33.753549
 31
0.0
  0
LINE
  5
9F6
100
AcDbEntity
  8
1
  6
CONTINUOUS
 62
   250
100
AcDbLine
 10
92.536084
 20
33.753549
 30
0.0
 11
81.125265
 21
33.753549
 31
0.0
  0
TEXT
  5
9F7
100
AcDbEntity
  8
1
  6
CONTINUOUS
 62
   250
100
AcDbText
 10
82.125165
 20
34.754449
 30
0.0
 40
2.4999
  1
4,5
 41
0.75
100
AcDbText
  0
LINE
  5
9F8
100
AcDbEntity
  8
1
  6
CONTINUOUS
 62
   250
100
AcDbLine
 10
195.53608
 20
48.428533
 30
0.0
 11
195.53608
 21
32.753649
 31
0.0
  0
LINE
  5
9F9
100
AcDbEntity
  8
1
  6
CONTINUOUS
 62
   250
100
AcDbLine
 10
195.53608
 20
33.753549
 30
0.0
 11
199.03618
 21
33.172532
 31
0.0
  0
LINE
  5
9FA
100
AcDbEntity
  8
1
  6
CONTINUOUS
 62
   250
100
AcDbLine
 10
195.53608
 20
33.753549
 30
0.0
 11
199.03618
 21
34.334566
 31
0.0
  0
LINE
  5
9FB
100
AcDbEntity
  8
1
  6
CONTINUOUS
 62
   250
100
AcDbLine
 10
199.03618
 20
33.172532
 30
0.0
 11
199.03618
 21
34.334566
 31
0.0
  0
LINE
  5
9FC
100
AcDbEntity
  8
1
  6
CONTINUOUS
 62
   250
100
AcDbLine
 10
195.53608
 20
33.753549
 30
0.0
 11
207.09342
 21
33.753549
 31
0.0
  0
LINE
  5
9FD
100
AcDbEntity
  8
1
  6
CONTINUOUS
 62
   250
100
AcDbLine
 10
190.03618
 20
33.753549
 30
0.0
 11
195.53608
 21
33.753549
 31
0.0
  0
TEXT
  5
9FE
100
AcDbEntity
  8
1
  6
CONTINUOUS
 62
   250
100
AcDbText
 10
200.46874
 20
34.754449
 30
0.0
 40
2.4999
  1
4,5
 41
0.75
100
AcDbText
  0
LINE
  5
9FF
100
AcDbEntity
  8
1
  6
CONTINUOUS
 62
   250
100
AcDbLine
 10
191.03608
 20
111.92853
 30
0.0
 11
201.26386
 21
122.30692
 31
0.0
  0
LINE
  5
A00
100
AcDbEntity
  8
1
  6
CONTINUOUS
 62
   250
100
AcDbLine
 10
192.6154
 20
113.53111
 30
0.0
 11
195.48594
 21
115.61619
 31
0.0
  0
LINE
  5
A01
100
AcDbEntity
  8
1
  6
CONTINUOUS
 62
   250
100
AcDbLine
 10
192.6154
 20
113.53111
 30
0.0
 11
194.6583
 21
116.43182
 31
0.0
  0
LINE
  5
A02
100
AcDbEntity
  8
1
  6
CONTINUOUS
 62
   250
100
AcDbLine
 10
195.48594
 20
115.61619
 30
0.0
 11
194.6583
 21
116.43182
 31
0.0
  0
LINE
  5
A03
100
AcDbEntity
  8
1
  6
CONTINUOUS
 62
   250
100
AcDbLine
 10
201.26386
 20
122.30692
 30
0.0
 11
210.76357
 21
122.30692
 31
0.0
  0
TEXT
  5
A04
100
AcDbEntity
  8
1
  6
CONTINUOUS
 62
   250
100
AcDbText
 10
202.26386
 20
123.30692
 30
0.0
 40
2.4999
  1
%%c4,5
 41
0.75
100
AcDbText
  0
LINE
  5
A05
100
AcDbEntity
  8
1
  6
CONTINUOUS
 62
   250
100
AcDbLine
 10
389.568122
 20
53.512943
 30
0.0
 11
392.553457
 21
50.529195
 31
0.0
  0
LINE
  5
A06
100
AcDbEntity
  8
1
  6
CONTINUOUS
 62
   250
100
AcDbLine
 10
392.553457
 20
53.512943
 30
0.0
 11
389.568122
 21
50.529195
 31
0.0
  0
ENDSEC
  0
SECTION
  2
OBJECTS
  0
DICTIONARY
  5
C
100
AcDbDictionary
  3
ACAD_GROUP
350
D
  3
ACAD_MLINESTYLE
350
E
  0
DICTIONARY
  5
D
102
{ACAD_REACTORS
330
C
102
}
100
AcDbDictionary
  0
DICTIONARY
  5
E
102
{ACAD_REACTORS
330
C
102
}
100
AcDbDictionary
  3
STANDARD
350
1C
  0
MLINESTYLE
  5
1C
102
{ACAD_REACTORS
330
E
102
}
100
AcDbMlineStyle
  2
STANDARD
 70
     0
  3

 62
     0
 51
90.0
 52
90.0
 71
     2
 49
0.5
 62
   256
  6
BYLAYER
 49
-0.5
 62
   256
  6
BYLAYER
  0
ENDSEC
  0
EOF
