  0
SECTION
  2
HEADER
  9
$ACADVER
  1
AC1009
  9
$DWGCODEPAGE
  3
iso8859-1
  9
$INSBASE
 10
0.0
 20
0.0
 30
0.0
  9
$EXTMIN
 10
1.0E20
 20
1.0E20
  9
$EXTMAX
 10
-1.0E20
 20
-1.0E20
  9
$LIMMIN
 10
0.0
 20
0.0
  9
$LIMMAX
 10
12.0
 20
9.0
  9
$ORTHOMODE
 70
     0
  9
$REGENMODE
 70
     1
  9
$FILLMODE
 70
     1
  9
$QTEXTMODE
 70
     0
  9
$MIRRTEXT
 70
     1
  9
$DRAGMODE
 70
     2
  9
$LTSCALE
 40
15.0
  9
$OSMODE
 70
     0
  9
$ATTMODE
 70
     1
  9
$TEXTSIZE
 40
0.2
  9
$TRACEWID
 40
0.05
  9
$TEXTSTYLE
  7
STANDARD
  9
$CLAYER
  8
0
  9
$CELTYPE
  6
DASHED
  9
$CECOLOR
 62
   256
  9
$DIMSCALE
 40
1.0
  9
$DIMASZ
 40
0.18
  9
$DIMEXO
 40
0.0625
  9
$DIMDLI
 40
0.38
  9
$DIMRND
 40
0.0
  9
$DIMDLE
 40
0.0
  9
$DIMEXE
 40
0.18
  9
$DIMTP
 40
0.0
  9
$DIMTM
 40
0.0
  9
$DIMTXT
 40
0.18
  9
$DIMCEN
 40
0.09
  9
$DIMTSZ
 40
0.0
  9
$DIMTOL
 70
     0
  9
$DIMLIM
 70
     0
  9
$DIMTIH
 70
     1
  9
$DIMTOH
 70
     1
  9
$DIMSE1
 70
     0
  9
$DIMSE2
 70
     0
  9
$DIMTAD
 70
     0
  9
$DIMZIN
 70
     0
  9
$DIMBLK
  1

  9
$DIMASO
 70
     1
  9
$DIMSHO
 70
     1
  9
$DIMPOST
  1

  9
$DIMAPOST
  1

  9
$DIMALT
 70
     0
  9
$DIMALTD
 70
     2
  9
$DIMALTF
 40
25.4
  9
$DIMLFAC
 40
1.0
  9
$DIMTOFL
 70
     0
  9
$DIMTVP
 40
0.0
  9
$DIMTIX
 70
     0
  9
$DIMSOXD
 70
     0
  9
$DIMSAH
 70
     0
  9
$DIMBLK1
  1

  9
$DIMBLK2
  1

  9
$DIMSTYLE
  2
STANDARD
  9
$DIMCLRD
 70
     0
  9
$DIMCLRE
 70
     0
  9
$DIMCLRT
 70
     0
  9
$DIMTFAC
 40
1.0
  9
$DIMGAP
 40
0.09
  9
$LUNITS
 70
     2
  9
$LUPREC
 70
     4
  9
$AXISMODE
 70
     0
  9
$AXISUNIT
 10
0.0
 20
0.0
  9
$SKETCHINC
 40
0.1
  9
$FILLETRAD
 40
0.0
  9
$AUNITS
 70
     0
  9
$AUPREC
 70
     0
  9
$MENU
  1
acad
  9
$ELEVATION
 40
0.0
  9
$PELEVATION
 40
0.0
  9
$THICKNESS
 40
0.0
  9
$LIMCHECK
 70
     0
  9
$BLIPMODE
 70
     1
  9
$CHAMFERA
 40
0.0
  9
$CHAMFERB
 40
0.0
  9
$SKPOLY
 70
     0
  9
$TDCREATE
 40
0.000000000
  9
$TDUPDATE
 40
0.000000000
  9
$TDINDWG
 40
0.0
  9
$TDUSRTIMER
 40
0.0
  9
$USRTIMER
 70
     1
  9
$ANGBASE
 50
0.0
  9
$ANGDIR
 70
     0
  9
$PDMODE
 70
     0
  9
$PDSIZE
 40
0.0
  9
$PLINEWID
 40
0.0
  9
$COORDS
 70
     1
  9
$SPLFRAME
 70
     0
  9
$SPLINETYPE
 70
     6
  9
$SPLINESEGS
 70
     8
  9
$ATTDIA
 70
     0
  9
$ATTREQ
 70
     1
  9
$HANDLING
 70
     1
  9
$HANDSEED
  5
   57D
  9
$SURFTAB1
 70
     6
  9
$SURFTAB2
 70
     6
  9
$SURFTYPE
 70
     6
  9
$SURFU
 70
     6
  9
$SURFV
 70
     6
  9
$UCSNAME
  2

  9
$UCSORG
 10
0.0
 20
0.0
 30
0.0
  9
$UCSXDIR
 10
1.0
 20
0.0
 30
0.0
  9
$UCSYDIR
 10
0.0
 20
1.0
 30
0.0
  9
$PUCSNAME
  2

  9
$PUCSORG
 10
0.0
 20
0.0
 30
0.0
  9
$PUCSXDIR
 10
1.0
 20
0.0
 30
0.0
  9
$PUCSYDIR
 10
0.0
 20
1.0
 30
0.0
  9
$USERI1
 70
     0
  9
$USERI2
 70
     0
  9
$USERI3
 70
     0
  9
$USERI4
 70
     0
  9
$USERI5
 70
     0
  9
$USERR1
 40
0.0
  9
$USERR2
 40
0.0
  9
$USERR3
 40
0.0
  9
$USERR4
 40
0.0
  9
$USERR5
 40
0.0
  9
$WORLDVIEW
 70
     1
  9
$SHADEDGE
 70
     3
  9
$SHADEDIF
 70
    70
  9
$TILEMODE
 70
     1
  9
$MAXACTVP
 70
    16
  9
$PINSBASE
 10
0.0
 20
0.0
 30
0.0
  9
$PLIMCHECK
 70
     0
  9
$PEXTMIN
 10
1.0E20
 20
1.0E20
 30
1.0E20
  9
$PEXTMAX
 10
-1.0E20
 20
-1.0E20
 30
-1.0E20
  9
$PLIMMIN
 10
0.0
 20
0.0
  9
$PLIMMAX
 10
12.0
 20
9.0
  9
$UNITMODE
 70
     0
  9
$VISRETAIN
 70
     0
  0
ENDSEC
  0
SECTION
  2
TABLES
  0
TABLE
  2
VPORT
 70
     1
  0
VPORT
  2
*ACTIVE
 70
     0
 10
0.0
 20
0.0
 11
1.0
 21
1.0
 12
6.801242
 22
4.5
 13
0.0
 23
0.0
 14
1.0
 24
1.0
 15
0.0
 25
0.0
 16
0.0
 26
0.0
 36
1.0
 17
0.0
 27
0.0
 37
0.0
 40
9.0
 41
1.511387
 42
50.0
 43
0.0
 44
0.0
 50
0.0
 51
0.0
 71
     0
 72
   100
 73
     1
 74
     1
 75
     0
 76
     0
 77
     0
 78
     0
  0
ENDTAB
  0
TABLE
  2
LTYPE
 70
    41
  0
LTYPE
  2
BYBLOCK
 70
     0
  3

 72
    65
 73
     0
 40
0.0
  0
LTYPE
  2
BYLAYER
 70
     0
  3

 72
    65
 73
     0
 40
0.0
  0
LTYPE
  2
CONTINUOUS
 70
     0
  3
Solid line
 72
    65
 73
     0
 40
0.0
  0
LTYPE
  2
BORDER
 70
    64
  3
__ __ . __ __ . __ __ . __ __ . __ __ . __ __ .
 72
    65
 73
     6
 40
1.75
 49
0.5
 49
-0.25
 49
0.5
 49
-0.25
 49
0.0
 49
-0.25
  0
LTYPE
  2
BORDER2
 70
    64
  3
__.__.__.__.__.__.__.__.__.__.__.__.__.__.__.__
 72
    65
 73
     6
 40
0.875
 49
0.25
 49
-0.125
 49
0.25
 49
-0.125
 49
0.0
 49
-0.125
  0
LTYPE
  2
BORDERX2
 70
    64
  3
____  ____  .  ____  ____  .  ____  ____  .  __
 72
    65
 73
     6
 40
3.5
 49
1.0
 49
-0.5
 49
1.0
 49
-0.5
 49
0.0
 49
-0.5
  0
LTYPE
  2
CENTER
 70
    64
  3
____ _ ____ _ ____ _ ____ _ ____ _ ____ _ ____
 72
    65
 73
     4
 40
2.0
 49
1.25
 49
-0.25
 49
0.25
 49
-0.25
  0
LTYPE
  2
CENTER2
 70
    64
  3
___ _ ___ _ ___ _ ___ _ ___ _ ___ _ ___ _ ___ _
 72
    65
 73
     4
 40
1.125
 49
0.75
 49
-0.125
 49
0.125
 49
-0.125
  0
LTYPE
  2
CENTERX2
 70
    64
  3
________  __  ________  __  ________  __  _____
 72
    65
 73
     4
 40
4.0
 49
2.5
 49
-0.5
 49
0.5
 49
-0.5
  0
LTYPE
  2
DASHDOT
 70
    64
  3
__ . __ . __ . __ . __ . __ . __ . __ . __ . __
 72
    65
 73
     4
 40
1.0
 49
0.5
 49
-0.25
 49
0.0
 49
-0.25
  0
LTYPE
  2
DASHDOT2
 70
    64
  3
_._._._._._._._._._._._._._._._._._._._._._._._
 72
    65
 73
     4
 40
0.5
 49
0.25
 49
-0.125
 49
0.0
 49
-0.125
  0
LTYPE
  2
DASHDOTX2
 70
    64
  3
____  .  ____  .  ____  .  ____  .  ____  .  __
 72
    65
 73
     4
 40
2.0
 49
1.0
 49
-0.5
 49
0.0
 49
-0.5
  0
LTYPE
  2
DASHED
 70
    64
  3
__ __ __ __ __ __ __ __ __ __ __ __ __ __ __ __
 72
    65
 73
     2
 40
0.75
 49
0.5
 49
-0.25
  0
LTYPE
  2
DASHED2
 70
    64
  3
_ _ _ _ _ _ _ _ _ _ _ _ _ _ _ _ _ _ _ _ _ _ _ _
 72
    65
 73
     2
 40
0.375
 49
0.25
 49
-0.125
  0
LTYPE
  2
DASHEDX2
 70
    64
  3
____  ____  ____  ____  ____  ____  ____  ____
 72
    65
 73
     2
 40
1.5
 49
1.0
 49
-0.5
  0
LTYPE
  2
DIVIDE
 70
    64
  3
____ . . ____ . . ____ . . ____ . . ____ . . __
 72
    65
 73
     6
 40
1.25
 49
0.5
 49
-0.25
 49
0.0
 49
-0.25
 49
0.0
 49
-0.25
  0
LTYPE
  2
DIVIDE2
 70
    64
  3
__..__..__..__..__..__..__..__..__..__..__..__.
 72
    65
 73
     6
 40
0.625
 49
0.25
 49
-0.125
 49
0.0
 49
-0.125
 49
0.0
 49
-0.125
  0
LTYPE
  2
DIVIDEX2
 70
    64
  3
________  .  .  ________  .  .  ________  .  .
 72
    65
 73
     6
 40
2.5
 49
1.0
 49
-0.5
 49
0.0
 49
-0.5
 49
0.0
 49
-0.5
  0
LTYPE
  2
DOT
 70
    64
  3
. . . . . . . . . . . . . . . . . . . . . . . .
 72
    65
 73
     2
 40
0.25
 49
0.0
 49
-0.25
  0
LTYPE
  2
DOT2
 70
    64
  3
...............................................
 72
    65
 73
     2
 40
0.125
 49
0.0
 49
-0.125
  0
LTYPE
  2
DOTX2
 70
    64
  3
.  .  .  .  .  .  .  .  .  .  .  .  .  .  .  .
 72
    65
 73
     2
 40
0.5
 49
0.0
 49
-0.5
  0
LTYPE
  2
HIDDEN
 70
    64
  3
__ __ __ __ __ __ __ __ __ __ __ __ __ __ __ __
 72
    65
 73
     2
 40
0.375
 49
0.25
 49
-0.125
  0
LTYPE
  2
HIDDEN2
 70
    64
  3
_ _ _ _ _ _ _ _ _ _ _ _ _ _ _ _ _ _ _ _ _ _ _ _
 72
    65
 73
     2
 40
0.1875
 49
0.125
 49
-0.0625
  0
LTYPE
  2
HIDDENX2
 70
    64
  3
____ ____ ____ ____ ____ ____ ____ ____ ____ __
 72
    65
 73
     2
 40
0.75
 49
0.5
 49
-0.25
  0
LTYPE
  2
PHANTOM
 70
    64
  3
______  __  __  ______  __  __  ______  __  __
 72
    65
 73
     6
 40
2.5
 49
1.25
 49
-0.25
 49
0.25
 49
-0.25
 49
0.25
 49
-0.25
  0
LTYPE
  2
PHANTOM2
 70
    64
  3
___ _ _ ___ _ _ ___ _ _ ___ _ _ ___ _ _ ___ _ _
 72
    65
 73
     6
 40
1.25
 49
0.625
 49
-0.125
 49
0.125
 49
-0.125
 49
0.125
 49
-0.125
  0
LTYPE
  2
PHANTOMX2
 70
    64
  3
____________    ____    ____    ____________
 72
    65
 73
     6
 40
5.0
 49
2.5
 49
-0.5
 49
0.5
 49
-0.5
 49
0.5
 49
-0.5
  0
LTYPE
  2
ACAD_ISO02W100
 70
    64
  3
__ __ __ __ __ __ __ __ __ __ __ __ __ __ __ __
 72
    65
 73
     2
 40
15.0
 49
12.0
 49
-3.0
  0
LTYPE
  2
ACAD_ISO03W100
 70
    64
  3
__    __    __    __    __    __    __    __
 72
    65
 73
     2
 40
30.0
 49
12.0
 49
-18.0
  0
LTYPE
  2
ACAD_ISO04W100
 70
    64
  3
____ . ____ . ____ . ____ . ____ . ____ . ____
 72
    65
 73
     4
 40
30.5
 49
24.0
 49
-3.0
 49
0.5
 49
-3.0
  0
LTYPE
  2
ACAD_ISO05W100
 70
    64
  3
____ .. ____ .. ____ .. ____ .. ____ .. ____ ..
 72
    65
 73
     6
 40
34.0
 49
24.0
 49
-3.0
 49
0.5
 49
-3.0
 49
0.5
 49
-3.0
  0
LTYPE
  2
ACAD_ISO06W100
 70
    64
  3
____ ... ____ ... ____ ... ____ ... ____ ... __
 72
    65
 73
     8
 40
37.5
 49
24.0
 49
-3.0
 49
0.5
 49
-3.0
 49
0.5
 49
-3.0
 49
0.5
 49
-3.0
  0
LTYPE
  2
ACAD_ISO07W100
 70
    64
  3
. . . . . . . . . . . . . . . . . . . . . . . .
 72
    65
 73
     2
 40
3.5
 49
0.5
 49
-3.0
  0
LTYPE
  2
ACAD_ISO08W100
 70
    64
  3
____ __ ____ __ ____ __ ____ ____ __ __ ____ __
 72
    65
 73
     4
 40
36.0
 49
24.0
 49
-3.0
 49
6.0
 49
-3.0
  0
LTYPE
  2
ACAD_ISO09W100
 70
    64
  3
____ __ __ ____ __ __ ____ __ __ ____ __ __ ___
 72
    65
 73
     6
 40
45.0
 49
24.0
 49
-3.0
 49
6.0
 49
-3.0
 49
6.0
 49
-3.0
  0
LTYPE
  2
ACAD_ISO10W100
 70
    64
  3
__ . __ . __ . __ . __ . __ . __ . __ . __ . __
 72
    65
 73
     4
 40
18.5
 49
12.0
 49
-3.0
 49
0.5
 49
-3.0
  0
LTYPE
  2
ACAD_ISO11W100
 70
    64
  3
__ __ . __ __ . __ __ . __ __ . __ __ . __ __ .
 72
    65
 73
     6
 40
33.5
 49
12.0
 49
-3.0
 49
12.0
 49
-3.0
 49
0.5
 49
-3.0
  0
LTYPE
  2
ACAD_ISO12W100
 70
    64
  3
__ . . __ . . __ . . __ . . __ . . __ . . __ .
 72
    65
 73
     6
 40
22.0
 49
12.0
 49
-3.0
 49
0.5
 49
-3.0
 49
0.5
 49
-3.0
  0
LTYPE
  2
ACAD_ISO13W100
 70
    64
  3
__ __ . . __ __ . . __ __ . . __ __ . . __ __ .
 72
    65
 73
     8
 40
37.0
 49
12.0
 49
-3.0
 49
12.0
 49
-3.0
 49
0.5
 49
-3.0
 49
0.5
 49
-3.0
  0
LTYPE
  2
ACAD_ISO14W100
 70
    64
  3
__ . . . __ . . . __ . . . __ . . . __ . . . __
 72
    65
 73
     8
 40
25.5
 49
12.0
 49
-3.0
 49
0.5
 49
-3.0
 49
0.5
 49
-3.0
 49
0.5
 49
-3.0
  0
LTYPE
  2
ACAD_ISO15W100
 70
    64
  3
__ __ . . . __ __ . . . __ __ . . . __ __ . . .
 72
    65
 73
    10
 40
40.5
 49
12.0
 49
-3.0
 49
12.0
 49
-3.0
 49
0.5
 49
-3.0
 49
0.5
 49
-3.0
 49
0.5
 49
-3.0
  0
ENDTAB
  0
TABLE
  2
STYLE
 70
     4
  0
STYLE
  2
STANDARD
 70
    64
 40
0.0
 41
1.0
 50
0.0
 71
     0
 42
0.2
  3
txt
  4

  0
STYLE
  2
TOLERANCE
 70
    64
 40
0.0
 41
1.0
 50
0.0
 71
     0
 42
0.2
  3
../igesfont/iges1003.shx
  4

  0
STYLE
  2
ROMANS
 70
    64
 40
0.0
 41
1.0
 50
0.0
 71
     0
 42
0.2
  3
romans.shx
  4

  0
STYLE
  2
ROMANC
 70
    64
 40
0.0
 41
1.0
 50
0.0
 71
     0
 42
0.2
  3
romanc.shx
  4

  0
ENDTAB
  0
TABLE
  2
DIMSTYLE
 70
     2
  0
DIMSTYLE
  2
UNNAMED
 70
     0
  3

  4

  5

  6

  7

 40
1.0
 41
0.18
 42
0.0625
 43
0.38
 44
0.18
 45
0.0
 46
0.0
 47
0.0
 48
0.0
140
0.18
141
0.09
142
0.0
143
25.4
144
1.0
145
0.0
146
1.0
147
0.09
 71
     0
 72
     0
 73
     1
 74
     1
 75
     0
 76
     0
 77
     0
 78
     0
170
     0
171
     2
172
     0
173
     0
174
     0
175
     0
176
     0
177
     0
178
     0
  0
DIMSTYLE
  2
STANDARD
 70
     0
  3

  4

  5

  6

  7

 40
1.0
 41
0.18
 42
0.0625
 43
0.38
 44
0.18
 45
0.0
 46
0.0
 47
0.0
 48
0.0
140
0.18
141
0.09
142
0.0
143
25.4
144
1.0
145
0.0
146
1.0
147
0.09
 71
     0
 72
     0
 73
     1
 74
     1
 75
     0
 76
     0
 77
     0
 78
     0
170
     0
171
     2
172
     0
173
     0
174
     0
175
     0
176
     0
177
     0
178
     0
  0
ENDTAB
  0
TABLE
  2
LAYER
 70
     2
  0
LAYER
  2
0
 70
     0
 62
     7
  6
CONTINUOUS
  0
LAYER
  2
255
 70
     0
 62
     7
  6
CONTINUOUS
  0
ENDTAB
  0
ENDSEC
  0
SECTION
  2
BLOCKS
  0
BLOCK
  5
     B
  8
0
  6
CONTINUOUS
 62
     7
  2
*UDIM799
 70
    65
 10
0.0
 20
0.0
 30
0.0
  3
*UDIM799
  0
TEXT
  5
     C
  8
0
  6
CONTINUOUS
 62
     7
 10
58.6164037891563
 20
-106.703346858204
 30
0.0
 40
3.00000002980232
  1
7
 50
401.743212308633
 41
0.933333333333334
 72
     1
 11
58.4384637515091
 21
-104.851769851502
 31
0.0
 73
     2
  0
TEXT
  5
     D
  8
0
  6
CONTINUOUS
 62
     7
 10
56.2660745835566
 20
-108.80059569606
 30
0.0
 40
3.00000002980232
  1
Ø
 50
401.743212308633
 41
0.933333333333334
 72
     1
 11
56.0881345459095
 21
-106.949018689359
 31
0.0
 73
     2
  0
LINE
  5
     E
  8
0
  6
CONTINUOUS
 62
     7
 10
71.4246587725
 20
-96.6145057703472
 30
0.0
 11
56.9318678683437
 21
-109.54673194897
 31
0.0
  0
LINE
  5
     F
  8
0
  6
CONTINUOUS
 62
     7
 10
73.2822197869019
 20
-94.2587750816278
 30
0.0
 11
71.4246587725
 21
-96.6145057703472
 31
0.0
  0
LINE
  5
    10
  8
0
  6
CONTINUOUS
 62
     7
 10
71.4246587725
 20
-96.6145057703472
 30
0.0
 11
73.9759023880818
 21
-95.0361661320078
 31
0.0
  0
LINE
  5
    11
  8
0
  6
CONTINUOUS
 62
     7
 10
68.2613593146606
 20
-100.135374698646
 30
0.0
 11
70.1189203290625
 21
-97.7796440099263
 31
0.0
  0
LINE
  5
    12
  8
0
  6
CONTINUOUS
 62
     7
 10
70.1189203290625
 20
-97.7796440099263
 30
0.0
 11
67.5676767134807
 21
-99.3579836482656
 31
0.0
  0
ENDBLK
  5
    13
  8
0
  6
CONTINUOUS
 62
     7
  0
BLOCK
  5
    14
  8
0
  6
CONTINUOUS
 62
     7
  2
*UDIM800
 70
    65
 10
0.0
 20
0.0
 30
0.0
  3
*UDIM800
  0
TEXT
  5
    15
  8
0
  6
CONTINUOUS
 62
     7
 10
40.0027542008387
 20
-83.6220749389122
 30
0.0
 40
3.00000002980232
  1
142
 50
449.999999844103
 41
0.933333333333333
 72
     1
 11
38.5027541965246
 21
-79.7220748960972
 31
0.0
 73
     2
  0
LINE
  5
    16
  8
0
  6
CONTINUOUS
 62
     7
 10
68.1467895507813
 20
-61.6970748901367
 30
0.0
 11
39.0027542114258
 21
-61.6970748901367
 31
0.0
  0
LINE
  5
    17
  8
0
  6
CONTINUOUS
 62
     7
 10
68.1467895507813
 20
-97.1970748901367
 30
0.0
 11
39.0027542114258
 21
-97.1970748901367
 31
0.0
  0
LINE
  5
    18
  8
0
  6
CONTINUOUS
 62
     7
 10
41.0027542114258
 20
-61.6970748901367
 30
0.0
 11
41.0027542114258
 21
-97.1970748901367
 31
0.0
  0
LINE
  5
    19
  8
0
  6
CONTINUOUS
 62
     7
 10
41.5236986413774
 20
-64.6514981673437
 30
0.0
 11
41.0027542114258
 21
-61.6970748901367
 31
0.0
  0
LINE
  5
    1A
  8
0
  6
CONTINUOUS
 62
     7
 10
41.0027542114258
 20
-61.6970748901367
 30
0.0
 11
40.4818097814741
 21
-64.6514981673437
 31
0.0
  0
LINE
  5
    1B
  8
0
  6
CONTINUOUS
 62
     7
 10
40.4818097814741
 20
-94.2426516129298
 30
0.0
 11
41.0027542114258
 21
-97.1970748901367
 31
0.0
  0
LINE
  5
    1C
  8
0
  6
CONTINUOUS
 62
     7
 10
41.0027542114258
 20
-97.1970748901367
 30
0.0
 11
41.5236986413774
 21
-94.2426516129298
 31
0.0
  0
ENDBLK
  5
    1D
  8
0
  6
CONTINUOUS
 62
     7
  0
BLOCK
  5
    1E
  8
0
  6
CONTINUOUS
 62
     7
  2
*UDIM801
 70
    65
 10
0.0
 20
0.0
 30
0.0
  3
*UDIM801
  0
TEXT
  5
    1F
  8
0
  6
CONTINUOUS
 62
     7
 10
50.0344486130702
 20
-83.6220749389122
 30
0.0
 40
3.00000002980232
  1
112
 50
449.999999844103
 41
0.933333333333333
 72
     1
 11
48.5344486087561
 21
-79.7220748960972
 31
0.0
 73
     2
  0
LINE
  5
    20
  8
0
  6
CONTINUOUS
 62
     7
 10
65.7717895507813
 20
-65.4470748901367
 30
0.0
 11
49.0344486236572
 21
-65.4470748901367
 31
0.0
  0
LINE
  5
    21
  8
0
  6
CONTINUOUS
 62
     7
 10
65.7717895507813
 20
-93.4470748901367
 30
0.0
 11
49.0344486236572
 21
-93.4470748901367
 31
0.0
  0
LINE
  5
    22
  8
0
  6
CONTINUOUS
 62
     7
 10
51.0344486236572
 20
-65.4470748901367
 30
0.0
 11
51.0344486236572
 21
-93.4470748901367
 31
0.0
  0
LINE
  5
    23
  8
0
  6
CONTINUOUS
 62
     7
 10
51.5553930536089
 20
-68.4014981673437
 30
0.0
 11
51.0344486236572
 21
-65.4470748901367
 31
0.0
  0
LINE
  5
    24
  8
0
  6
CONTINUOUS
 62
     7
 10
51.0344486236572
 20
-65.4470748901367
 30
0.0
 11
50.5135041937056
 21
-68.4014981673437
 31
0.0
  0
LINE
  5
    25
  8
0
  6
CONTINUOUS
 62
     7
 10
50.5135041937056
 20
-90.4926516129298
 30
0.0
 11
51.0344486236572
 21
-93.4470748901367
 31
0.0
  0
LINE
  5
    26
  8
0
  6
CONTINUOUS
 62
     7
 10
51.0344486236572
 20
-93.4470748901367
 30
0.0
 11
51.5553930536089
 21
-90.4926516129298
 31
0.0
  0
ENDBLK
  5
    27
  8
0
  6
CONTINUOUS
 62
     7
  0
BLOCK
  5
    28
  8
0
  6
CONTINUOUS
 62
     7
  2
*UDIM802
 70
    65
 10
0.0
 20
0.0
 30
0.0
  3
*UDIM802
  0
TEXT
  5
    29
  8
0
  6
CONTINUOUS
 62
     7
 10
76.5967895020039
 20
-40.7313079728065
 30
0.0
 40
3.00000002980232
  1
112
 50
359.999999844103
 41
0.933333333333333
 72
     1
 11
80.4967895448208
 21
-39.2313079684973
 31
0.0
 73
     2
  0
LINE
  5
    2A
  8
0
  6
CONTINUOUS
 62
     7
 10
66.7717895507813
 20
-64.4470748901367
 30
0.0
 11
66.7717895507813
 21
-39.7313079833984
 31
0.0
  0
LINE
  5
    2B
  8
0
  6
CONTINUOUS
 62
     7
 10
94.7717895507813
 20
-64.4470748901367
 30
0.0
 11
94.7717895507813
 21
-39.7313079833984
 31
0.0
  0
LINE
  5
    2C
  8
0
  6
CONTINUOUS
 62
     7
 10
66.7717895507813
 20
-41.7313079833984
 30
0.0
 11
94.7717895507813
 21
-41.7313079833984
 31
0.0
  0
LINE
  5
    2D
  8
0
  6
CONTINUOUS
 62
     7
 10
69.7262128279882
 20
-41.2103635534468
 30
0.0
 11
66.7717895507813
 21
-41.7313079833984
 31
0.0
  0
LINE
  5
    2E
  8
0
  6
CONTINUOUS
 62
     7
 10
66.7717895507813
 20
-41.7313079833984
 30
0.0
 11
69.7262128279882
 21
-42.2522524133501
 31
0.0
  0
LINE
  5
    2F
  8
0
  6
CONTINUOUS
 62
     7
 10
91.8173662735743
 20
-42.2522524133501
 30
0.0
 11
94.7717895507813
 21
-41.7313079833984
 31
0.0
  0
LINE
  5
    30
  8
0
  6
CONTINUOUS
 62
     7
 10
94.7717895507813
 20
-41.7313079833984
 30
0.0
 11
91.8173662735743
 21
-41.2103635534468
 31
0.0
  0
ENDBLK
  5
    31
  8
0
  6
CONTINUOUS
 62
     7
  0
BLOCK
  5
    32
  8
0
  6
CONTINUOUS
 62
     7
  2
*UDIM803
 70
    65
 10
0.0
 20
0.0
 30
0.0
  3
*UDIM803
  0
TEXT
  5
    33
  8
0
  6
CONTINUOUS
 62
     7
 10
77.9967895159117
 20
-48.8522014550023
 30
0.0
 40
3.00000002980232
  1
80
 50
359.999999844103
 41
0.933333333333333
 72
     1
 11
80.4967895448208
 21
-47.3522014468908
 31
0.0
 73
     2
  0
LINE
  5
    34
  8
0
  6
CONTINUOUS
 62
     7
 10
70.7717895507813
 20
-59.0720748901367
 30
0.0
 11
70.7717895507813
 21
-47.852201461792
 31
0.0
  0
LINE
  5
    35
  8
0
  6
CONTINUOUS
 62
     7
 10
90.7717895507813
 20
-59.0720748901367
 30
0.0
 11
90.7717895507813
 21
-47.852201461792
 31
0.0
  0
LINE
  5
    36
  8
0
  6
CONTINUOUS
 62
     7
 10
70.7717895507813
 20
-49.852201461792
 30
0.0
 11
90.7717895507813
 21
-49.852201461792
 31
0.0
  0
LINE
  5
    37
  8
0
  6
CONTINUOUS
 62
     7
 10
73.7262128279882
 20
-49.3312570318403
 30
0.0
 11
70.7717895507813
 21
-49.852201461792
 31
0.0
  0
LINE
  5
    38
  8
0
  6
CONTINUOUS
 62
     7
 10
70.7717895507813
 20
-49.852201461792
 30
0.0
 11
73.7262128279882
 21
-50.3731458917437
 31
0.0
  0
LINE
  5
    39
  8
0
  6
CONTINUOUS
 62
     7
 10
87.8173662735743
 20
-50.3731458917437
 30
0.0
 11
90.7717895507813
 21
-49.852201461792
 31
0.0
  0
LINE
  5
    3A
  8
0
  6
CONTINUOUS
 62
     7
 10
90.7717895507813
 20
-49.852201461792
 30
0.0
 11
87.8173662735743
 21
-49.3312570318403
 31
0.0
  0
ENDBLK
  5
    3B
  8
0
  6
CONTINUOUS
 62
     7
  0
BLOCK
  5
    3C
  8
0
  6
CONTINUOUS
 62
     7
  2
*HATCH253
 70
    65
 10
0.0
 20
0.0
 30
0.0
  3
*HATCH253
  0
LINE
  5
    3D
  8
0
  6
CONTINUOUS
 62
    52
 10
107.001167297363
 20
-64.8257827758789
 30
0.0
 11
105.001167297363
 21
-66.8257751464844
 31
0.0
  0
LINE
  5
    3E
  8
0
  6
CONTINUOUS
 62
    52
 10
107.001167297363
 20
-69.0684280395508
 30
0.0
 11
105.001167297363
 21
-71.0684204101563
 31
0.0
  0
LINE
  5
    3F
  8
0
  6
CONTINUOUS
 62
    52
 10
107.001167297363
 20
-73.3110733032227
 30
0.0
 11
105.001167297363
 21
-75.3110656738281
 31
0.0
  0
LINE
  5
    40
  8
0
  6
CONTINUOUS
 62
    52
 10
107.001167297363
 20
-77.5537185668945
 30
0.0
 11
105.001167297363
 21
-79.5537109375
 31
0.0
  0
LINE
  5
    41
  8
0
  6
CONTINUOUS
 62
    52
 10
107.001167297363
 20
-81.7963638305664
 30
0.0
 11
105.001167297363
 21
-83.7963562011719
 31
0.0
  0
LINE
  5
    42
  8
0
  6
CONTINUOUS
 62
    52
 10
107.001167297363
 20
-86.0390090942383
 30
0.0
 11
105.001167297363
 21
-88.0390014648438
 31
0.0
  0
LINE
  5
    43
  8
0
  6
CONTINUOUS
 62
    52
 10
107.001167297363
 20
-90.2816543579102
 30
0.0
 11
105.001167297363
 21
-92.2816467285156
 31
0.0
  0
LINE
  5
    44
  8
0
  6
CONTINUOUS
 62
    52
 10
107.001167297363
 20
-94.524299621582
 30
0.0
 11
105.001167297363
 21
-96.5242919921875
 31
0.0
  0
LINE
  5
    45
  8
0
  6
CONTINUOUS
 62
    52
 10
107.001167297363
 20
-98.7669448852539
 30
0.0
 11
105.001167297363
 21
-100.766937255859
 31
0.0
  0
LINE
  5
    46
  8
0
  6
CONTINUOUS
 62
    52
 10
107.001167297363
 20
-103.009590148926
 30
0.0
 11
105.001167297363
 21
-105.009582519531
 31
0.0
  0
LINE
  5
    47
  8
0
  6
CONTINUOUS
 62
    52
 10
107.001167297363
 20
-107.252235412598
 30
0.0
 11
105.001167297363
 21
-109.252227783203
 31
0.0
  0
LINE
  5
    48
  8
0
  6
CONTINUOUS
 62
    52
 10
107.001167297363
 20
-111.49488067627
 30
0.0
 11
105.001167297363
 21
-113.494873046875
 31
0.0
  0
LINE
  5
    49
  8
0
  6
CONTINUOUS
 62
    52
 10
107.001167297363
 20
-115.737464904785
 30
0.0
 11
105.269889831543
 21
-117.46875
 31
0.0
  0
ENDBLK
  5
    4A
  8
0
  6
CONTINUOUS
 62
     7
  0
BLOCK
  5
    4B
  8
0
  6
CONTINUOUS
 62
     7
  2
*HATCH254
 70
    65
 10
0.0
 20
0.0
 30
0.0
  3
*HATCH254
  0
LINE
  5
    4C
  8
0
  6
CONTINUOUS
 62
    52
 10
107.001167297363
 20
-47.8552169799805
 30
0.0
 11
105.001167297363
 21
-49.8552169799805
 31
0.0
  0
LINE
  5
    4D
  8
0
  6
CONTINUOUS
 62
    52
 10
107.001167297363
 20
-52.0978546142578
 30
0.0
 11
105.001167297363
 21
-54.0978546142578
 31
0.0
  0
LINE
  5
    4E
  8
0
  6
CONTINUOUS
 62
    52
 10
107.001167297363
 20
-56.3404998779297
 30
0.0
 11
106.091667175293
 21
-57.25
 31
0.0
  0
ENDBLK
  5
    4F
  8
0
  6
CONTINUOUS
 62
     7
  0
BLOCK
  5
    50
  8
0
  6
CONTINUOUS
 62
     7
  2
*HATCH255
 70
    65
 10
0.0
 20
0.0
 30
0.0
  3
*HATCH255
  0
LINE
  5
    51
  8
0
  6
CONTINUOUS
 62
    52
 10
107.001167297363
 20
77.3026809692383
 30
0.0
 11
105.001167297363
 21
75.3026809692383
 31
0.0
  0
LINE
  5
    52
  8
0
  6
CONTINUOUS
 62
    52
 10
107.001167297363
 20
73.0600357055664
 30
0.0
 11
105.001167297363
 21
71.0600357055664
 31
0.0
  0
LINE
  5
    53
  8
0
  6
CONTINUOUS
 62
    52
 10
107.001167297363
 20
68.8173904418945
 30
0.0
 11
105.001167297363
 21
66.8173904418945
 31
0.0
  0
ENDBLK
  5
    54
  8
0
  6
CONTINUOUS
 62
     7
  0
BLOCK
  5
    55
  8
0
  6
CONTINUOUS
 62
     7
  2
*HATCH256
 70
    65
 10
0.0
 20
0.0
 30
0.0
  3
*HATCH256
  0
LINE
  5
    56
  8
0
  6
CONTINUOUS
 62
    52
 10
107.001167297363
 20
202.460571289063
 30
0.0
 11
105.001167297363
 21
200.460571289063
 31
0.0
  0
LINE
  5
    57
  8
0
  6
CONTINUOUS
 62
    52
 10
107.001167297363
 20
198.217926025391
 30
0.0
 11
105.001167297363
 21
196.217926025391
 31
0.0
  0
LINE
  5
    58
  8
0
  6
CONTINUOUS
 62
    52
 10
107.001167297363
 20
193.975280761719
 30
0.0
 11
105.001167297363
 21
191.975280761719
 31
0.0
  0
LINE
  5
    59
  8
0
  6
CONTINUOUS
 62
    52
 10
107.001167297363
 20
189.732635498047
 30
0.0
 11
105.001167297363
 21
187.732635498047
 31
0.0
  0
LINE
  5
    5A
  8
0
  6
CONTINUOUS
 62
    52
 10
107.001167297363
 20
185.489990234375
 30
0.0
 11
105.001167297363
 21
183.489990234375
 31
0.0
  0
LINE
  5
    5B
  8
0
  6
CONTINUOUS
 62
    52
 10
107.001167297363
 20
181.247344970703
 30
0.0
 11
105.001167297363
 21
179.247344970703
 31
0.0
  0
LINE
  5
    5C
  8
0
  6
CONTINUOUS
 62
    52
 10
107.001167297363
 20
177.004699707031
 30
0.0
 11
105.001167297363
 21
175.004699707031
 31
0.0
  0
LINE
  5
    5D
  8
0
  6
CONTINUOUS
 62
    52
 10
107.001167297363
 20
172.762054443359
 30
0.0
 11
105.001167297363
 21
170.762054443359
 31
0.0
  0
LINE
  5
    5E
  8
0
  6
CONTINUOUS
 62
    52
 10
107.001167297363
 20
168.519409179688
 30
0.0
 11
105.001167297363
 21
166.519409179688
 31
0.0
  0
LINE
  5
    5F
  8
0
  6
CONTINUOUS
 62
    52
 10
107.001167297363
 20
164.276763916016
 30
0.0
 11
105.001167297363
 21
162.276763916016
 31
0.0
  0
LINE
  5
    60
  8
0
  6
CONTINUOUS
 62
    52
 10
107.001167297363
 20
160.034118652344
 30
0.0
 11
105.001167297363
 21
158.034118652344
 31
0.0
  0
LINE
  5
    61
  8
0
  6
CONTINUOUS
 62
    52
 10
107.001167297363
 20
155.791473388672
 30
0.0
 11
105.001167297363
 21
153.791473388672
 31
0.0
  0
LINE
  5
    62
  8
0
  6
CONTINUOUS
 62
    52
 10
107.001167297363
 20
151.548828125
 30
0.0
 11
105.001167297363
 21
149.548828125
 31
0.0
  0
LINE
  5
    63
  8
0
  6
CONTINUOUS
 62
    52
 10
107.001167297363
 20
147.306182861328
 30
0.0
 11
105.001167297363
 21
145.306182861328
 31
0.0
  0
LINE
  5
    64
  8
0
  6
CONTINUOUS
 62
    52
 10
107.001167297363
 20
143.063537597656
 30
0.0
 11
105.001167297363
 21
141.063537597656
 31
0.0
  0
LINE
  5
    65
  8
0
  6
CONTINUOUS
 62
    52
 10
107.001167297363
 20
138.820892333984
 30
0.0
 11
105.001167297363
 21
136.820892333984
 31
0.0
  0
LINE
  5
    66
  8
0
  6
CONTINUOUS
 62
    52
 10
107.001167297363
 20
134.578247070313
 30
0.0
 11
105.001167297363
 21
132.578247070313
 31
0.0
  0
LINE
  5
    67
  8
0
  6
CONTINUOUS
 62
    52
 10
107.001167297363
 20
130.335601806641
 30
0.0
 11
105.001167297363
 21
128.335601806641
 31
0.0
  0
LINE
  5
    68
  8
0
  6
CONTINUOUS
 62
    52
 10
107.001167297363
 20
126.092956542969
 30
0.0
 11
105.001167297363
 21
124.092956542969
 31
0.0
  0
LINE
  5
    69
  8
0
  6
CONTINUOUS
 62
    52
 10
107.001167297363
 20
121.850311279297
 30
0.0
 11
105.001167297363
 21
119.850311279297
 31
0.0
  0
LINE
  5
    6A
  8
0
  6
CONTINUOUS
 62
    52
 10
107.001167297363
 20
117.607666015625
 30
0.0
 11
105.001167297363
 21
115.607666015625
 31
0.0
  0
LINE
  5
    6B
  8
0
  6
CONTINUOUS
 62
    52
 10
107.001167297363
 20
113.365020751953
 30
0.0
 11
105.001167297363
 21
111.365020751953
 31
0.0
  0
LINE
  5
    6C
  8
0
  6
CONTINUOUS
 62
    52
 10
107.001167297363
 20
109.122375488281
 30
0.0
 11
105.001167297363
 21
107.122375488281
 31
0.0
  0
LINE
  5
    6D
  8
0
  6
CONTINUOUS
 62
    52
 10
107.001167297363
 20
104.879730224609
 30
0.0
 11
105.001167297363
 21
102.879730224609
 31
0.0
  0
LINE
  5
    6E
  8
0
  6
CONTINUOUS
 62
    52
 10
107.001167297363
 20
100.637084960938
 30
0.0
 11
105.001167297363
 21
98.6370849609375
 31
0.0
  0
LINE
  5
    6F
  8
0
  6
CONTINUOUS
 62
    52
 10
107.001167297363
 20
96.3944396972656
 30
0.0
 11
105.001167297363
 21
94.3944396972656
 31
0.0
  0
LINE
  5
    70
  8
0
  6
CONTINUOUS
 62
    52
 10
107.001167297363
 20
92.1517944335938
 30
0.0
 11
105.001167297363
 21
90.1517944335938
 31
0.0
  0
LINE
  5
    71
  8
0
  6
CONTINUOUS
 62
    52
 10
107.001167297363
 20
87.9091491699219
 30
0.0
 11
105.001167297363
 21
85.9091491699219
 31
0.0
  0
ENDBLK
  5
    72
  8
0
  6
CONTINUOUS
 62
     7
  0
BLOCK
  5
    73
  8
0
  6
CONTINUOUS
 62
     7
  2
PARTE_FISSA
 70
    64
 10
0.0
 20
0.0
 30
0.0
  3
PARTE_FISSA
  0
LINE
  5
    74
  8
0
  6
CONTINUOUS
 62
     7
 10
-102.999923706055
 20
176.868667602539
 30
0.0
 11
-102.999923706055
 21
186.737014770508
 31
0.0
  0
LINE
  5
    75
  8
0
  6
CONTINUOUS
 62
     7
 10
-102.999923706055
 20
37.7370309829712
 30
0.0
 11
-102.999923706055
 21
47.7370300292969
 31
0.0
  0
LINE
  5
    76
  8
0
  6
CONTINUOUS
 62
   210
 10
-150.49996276031
 20
82.2370204932941
 30
0.0
 11
-146.49996276031
 21
82.2370357520832
 31
0.0
  0
LINE
  5
    77
  8
0
  6
CONTINUOUS
 62
   210
 10
-150.499966575007
 20
75.2370204932286
 30
0.0
 11
-146.499966575007
 21
75.2370357520177
 31
0.0
  0
LINE
  5
    78
  8
0
  6
CONTINUOUS
 62
   210
 10
-150.999969482422
 20
171.237045288086
 30
0.0
 11
-150.999969482422
 21
196.237045288086
 31
0.0
  0
LINE
  5
    79
  8
0
  6
CONTINUOUS
 62
     7
 10
-139.999969482422
 20
30.0370483398438
 30
0.0
 11
-102.999923706055
 21
30.0370483398438
 31
0.0
  0
LINE
  5
    7A
  8
0
  6
CONTINUOUS
 62
   210
 10
-139.999969482422
 20
27.2370452880859
 30
0.0
 11
-102.999923706055
 21
27.2370452880859
 31
0.0
  0
LINE
  5
    7B
  8
0
  6
CONTINUOUS
 62
   210
 10
-139.999969482422
 20
197.237045288086
 30
0.0
 11
-102.999923706055
 21
197.237045288086
 31
0.0
  0
LINE
  5
    7C
  8
0
  6
CONTINUOUS
 62
     3
 10
-139.999969482422
 20
194.437057495117
 30
0.0
 11
-102.999923706055
 21
194.437057495117
 31
0.0
  0
LINE
  5
    7D
  8
0
  6
CONTINUOUS
 62
   210
 10
-102.999923706055
 20
27.2370452880859
 30
0.0
 11
-102.999923706055
 21
197.237045288086
 31
0.0
  0
LINE
  5
    7E
  8
0
  6
CONTINUOUS
 62
   210
 10
-146.499969482422
 20
72.2369995117188
 30
0.0
 11
-146.499969482422
 21
75.2370357520066
 31
0.0
  0
LINE
  5
    7F
  8
0
  6
CONTINUOUS
 62
   210
 10
-139.999969482422
 20
27.2370452880859
 30
0.0
 11
-139.999969482422
 21
28.237045288086
 31
0.0
  0
LINE
  5
    80
  8
0
  6
CONTINUOUS
 62
     3
 10
-146.499969482422
 20
144.237045288086
 30
0.0
 11
-139.999969482422
 21
144.237045288086
 31
0.0
  0
LINE
  5
    81
  8
0
  6
CONTINUOUS
 62
   210
 10
-139.999969482422
 20
152.237045288086
 30
0.0
 11
-139.999969482422
 21
168.737045288086
 31
0.0
  0
LINE
  5
    82
  8
0
  6
CONTINUOUS
 62
     7
 10
-146.499969482422
 20
65.2369842529297
 30
0.0
 11
-139.999969482422
 21
65.2369842529297
 31
0.0
  0
LINE
  5
    83
  8
0
  6
CONTINUOUS
 62
     7
 10
-146.499969482422
 20
65.2369842529297
 30
0.0
 11
-146.499969482422
 21
68.737045288086
 31
0.0
  0
LINE
  5
    84
  8
0
  6
CONTINUOUS
 62
     7
 10
-146.499955754228
 20
80.7370205149202
 30
0.0
 11
-103.999894719072
 21
80.7370205149202
 31
0.0
  0
LINE
  5
    85
  8
0
  6
CONTINUOUS
 62
     7
 10
-103.999899420573
 20
80.7370196257666
 30
0.0
 11
-102.999929968944
 21
81.7370348485211
 31
0.0
  0
LINE
  5
    86
  8
0
  6
CONTINUOUS
 62
     7
 10
-146.499969482422
 20
69.737060546875
 30
0.0
 11
-103.999908447266
 21
69.737060546875
 31
0.0
  0
LINE
  5
    87
  8
0
  6
CONTINUOUS
 62
     7
 10
-103.999890727308
 20
69.7370466585365
 30
0.0
 11
-102.999921275679
 21
68.737031435782
 31
0.0
  0
LINE
  5
    88
  8
0
  6
CONTINUOUS
 62
   210
 10
-152.499980354956
 20
55.7370411694801
 30
0.0
 11
-152.499965096168
 21
68.737041168802
 31
0.0
  0
LINE
  5
    89
  8
0
  6
CONTINUOUS
 62
   210
 10
-152.499984432647
 20
168.737034137504
 30
0.0
 11
-152.499969173859
 21
155.737034136825
 31
0.0
  0
LINE
  5
    8A
  8
0
  6
CONTINUOUS
 62
     3
 10
-146.499969482422
 20
144.237045288086
 30
0.0
 11
-146.499969482422
 21
148.237045288086
 31
0.0
  0
LINE
  5
    8B
  8
0
  6
CONTINUOUS
 62
   210
 10
-102.999923706055
 20
54.2370452880859
 30
0.0
 11
-102.999923706055
 21
55.2370452880859
 31
0.0
  0
LINE
  5
    8C
  8
0
  6
CONTINUOUS
 62
   210
 10
-150.999969482422
 20
53.2370452880859
 30
0.0
 11
-139.999969482422
 21
53.2370452880859
 31
0.0
  0
LINE
  5
    8D
  8
0
  6
CONTINUOUS
 62
   210
 10
-150.999969482422
 20
171.237045288086
 30
0.0
 11
-139.999969482422
 21
171.237045288086
 31
0.0
  0
LINE
  5
    8E
  8
0
  6
CONTINUOUS
 62
   210
 10
-150.499984741211
 20
55.7370452880859
 30
0.0
 11
-139.999984741211
 21
55.7370452880859
 31
0.0
  0
LINE
  5
    8F
  8
0
  6
CONTINUOUS
 62
   210
 10
-150.499984741211
 20
68.7370452880859
 30
0.0
 11
-146.499969482422
 21
68.7370452880859
 31
0.0
  0
LINE
  5
    90
  8
0
  6
CONTINUOUS
 62
   210
 10
-150.499984741211
 20
168.737045288086
 30
0.0
 11
-139.999984741211
 21
168.737045288086
 31
0.0
  0
LINE
  5
    91
  8
0
  6
CONTINUOUS
 62
   210
 10
-150.499984741211
 20
155.737045288086
 30
0.0
 11
-139.999969482422
 21
155.737045288086
 31
0.0
  0
LINE
  5
    92
  8
0
  6
CONTINUOUS
 62
   210
 10
-150.499969482422
 20
152.237045288086
 30
0.0
 11
-140.000122070313
 21
152.237045288086
 31
0.0
  0
LINE
  5
    93
  8
0
  6
CONTINUOUS
 62
     3
 10
-146.499969482422
 20
148.237045288086
 30
0.0
 11
-140.000045776367
 21
148.237045288086
 31
0.0
  0
LINE
  5
    94
  8
0
  6
CONTINUOUS
 62
   210
 10
-150.499969482422
 20
144.237045288086
 30
0.0
 11
-146.499969482422
 21
144.237045288086
 31
0.0
  0
LINE
  5
    95
  8
0
  6
CONTINUOUS
 62
     7
 10
-139.999969482422
 20
55.7370452880859
 30
0.0
 11
-139.999969482422
 21
65.2369537353516
 31
0.0
  0
LINE
  5
    96
  8
0
  6
CONTINUOUS
 62
   210
 10
-139.999969482422
 20
53.2370452880859
 30
0.0
 11
-139.999969482422
 21
55.7370452880859
 31
0.0
  0
LINE
  5
    97
  8
0
  6
CONTINUOUS
 62
     3
 10
-146.499969482422
 20
75.2370357520066
 30
0.0
 11
-146.499969482422
 21
82.2370357520576
 31
0.0
  0
LINE
  5
    98
  8
0
  6
CONTINUOUS
 62
   210
 10
-146.499969482422
 20
68.737045288086
 30
0.0
 11
-146.499969482422
 21
72.2369995117188
 31
0.0
  0
LINE
  5
    99
  8
0
  6
CONTINUOUS
 62
   210
 10
-146.499969482422
 20
82.2370357520576
 30
0.0
 11
-146.499969482422
 21
144.237030029297
 31
0.0
  0
LINE
  5
    9A
  8
0
  6
CONTINUOUS
 62
     7
 10
-139.999969482422
 20
28.237045288086
 30
0.0
 11
-139.999969482422
 21
53.2370452880859
 31
0.0
  0
LINE
  5
    9B
  8
0
  6
CONTINUOUS
 62
   210
 10
-139.999969482422
 20
196.237045288086
 30
0.0
 11
-139.999969482422
 21
197.237045288086
 31
0.0
  0
LINE
  5
    9C
  8
0
  6
CONTINUOUS
 62
     3
 10
-139.999969482422
 20
171.237045288086
 30
0.0
 11
-139.999969482422
 21
196.237045288086
 31
0.0
  0
LINE
  5
    9D
  8
0
  6
CONTINUOUS
 62
   210
 10
-139.999969482422
 20
168.737045288086
 30
0.0
 11
-139.999969482422
 21
171.237045288086
 31
0.0
  0
LINE
  5
    9E
  8
0
  6
CONTINUOUS
 62
   210
 10
-150.999969482422
 20
196.237045288086
 30
0.0
 11
-139.999969482422
 21
196.237045288086
 31
0.0
  0
LINE
  5
    9F
  8
0
  6
CONTINUOUS
 62
     3
 10
-139.999969482422
 20
144.237045288086
 30
0.0
 11
-139.999969482422
 21
152.237045288086
 31
0.0
  0
LINE
  5
    A0
  8
0
  6
DASHDOT
 62
     7
 10
-169.312270419599
 20
162.237045288086
 30
0.0
 11
-123.140867353061
 21
162.237045288086
 31
0.0
  0
LINE
  5
    A1
  8
0
  6
DASHDOT
 62
     7
 10
-171.298912373977
 20
62.2370452880859
 30
0.0
 11
-125.67558730361
 21
62.2370452880859
 31
0.0
  0
LINE
  5
    A2
  8
0
  6
CONTINUOUS
 62
     2
 10
-151.999984741211
 20
169.237060546875
 30
0.0
 11
-150.499984741211
 21
169.237060546875
 31
0.0
  0
LINE
  5
    A3
  8
0
  6
CONTINUOUS
 62
     2
 10
-151.999984741211
 20
55.2370529174805
 30
0.0
 11
-150.499984741211
 21
55.2370529174805
 31
0.0
  0
LINE
  5
    A4
  8
0
  6
CONTINUOUS
 62
     2
 10
-150.499984741211
 20
55.2370529174805
 30
0.0
 11
-150.499984741211
 21
169.237060546875
 31
0.0
  0
LINE
  5
    A5
  8
0
  6
CONTINUOUS
 62
     2
 10
-151.999984741211
 20
55.2370529174805
 30
0.0
 11
-151.999984741211
 21
169.237060546875
 31
0.0
  0
LINE
  5
    A6
  8
0
  6
CONTINUOUS
 62
   210
 10
-150.999969482422
 20
28.2370452880859
 30
0.0
 11
-150.999969482422
 21
53.2370452880859
 31
0.0
  0
LINE
  5
    A7
  8
0
  6
CONTINUOUS
 62
   210
 10
-150.999969482422
 20
28.2370452880859
 30
0.0
 11
-139.999969482422
 21
28.2370452880859
 31
0.0
  0
LINE
  5
    A8
  8
0
  6
CONTINUOUS
 62
   210
 10
-152.499969482422
 20
68.7370452880859
 30
0.0
 11
-151.999984741211
 21
68.7370452880859
 31
0.0
  0
LINE
  5
    A9
  8
0
  6
CONTINUOUS
 62
   210
 10
-152.499984741211
 20
55.7370452880859
 30
0.0
 11
-151.999984741211
 21
55.7370452880859
 31
0.0
  0
LINE
  5
    AA
  8
0
  6
CONTINUOUS
 62
   210
 10
-152.499984741211
 20
168.737045288086
 30
0.0
 11
-151.999984741211
 21
168.737045288086
 31
0.0
  0
LINE
  5
    AB
  8
0
  6
CONTINUOUS
 62
   210
 10
-152.499969482422
 20
155.737045288086
 30
0.0
 11
-151.999984741211
 21
155.737045288086
 31
0.0
  0
LINE
  5
    AC
  8
0
  6
CONTINUOUS
 62
     7
 10
-158.699969482422
 20
158.337045288086
 30
0.0
 11
-158.699969482422
 21
166.137045288086
 31
0.0
  0
LINE
  5
    AD
  8
0
  6
CONTINUOUS
 62
     7
 10
-161.899969482422
 20
160.237045288086
 30
0.0
 11
-161.899969482422
 21
164.237045288086
 31
0.0
  0
LINE
  5
    AE
  8
0
  6
CONTINUOUS
 62
     7
 10
-158.699969482422
 20
166.137045288086
 30
0.0
 11
-155.499969482422
 21
166.137045288086
 31
0.0
  0
LINE
  5
    AF
  8
0
  6
CONTINUOUS
 62
     7
 10
-158.699969482422
 20
158.337045288086
 30
0.0
 11
-155.499969482422
 21
158.337045288086
 31
0.0
  0
LINE
  5
    B0
  8
0
  6
CONTINUOUS
 62
     7
 10
-161.899969482422
 20
164.237045288086
 30
0.0
 11
-155.499969482422
 21
164.237045288086
 31
0.0
  0
LINE
  5
    B1
  8
0
  6
CONTINUOUS
 62
     7
 10
-161.899969482422
 20
160.237045288086
 30
0.0
 11
-155.499969482422
 21
160.237045288086
 31
0.0
  0
LINE
  5
    B2
  8
0
  6
CONTINUOUS
 62
     7
 10
-158.699969482422
 20
66.1370452880859
 30
0.0
 11
-155.499969482422
 21
66.1370452880859
 31
0.0
  0
LINE
  5
    B3
  8
0
  6
CONTINUOUS
 62
     7
 10
-161.899969482422
 20
64.2370452880859
 30
0.0
 11
-155.499969482422
 21
64.2370452880859
 31
0.0
  0
LINE
  5
    B4
  8
0
  6
CONTINUOUS
 62
     7
 10
-161.899969482422
 20
60.2370452880859
 30
0.0
 11
-155.499969482422
 21
60.2370452880859
 31
0.0
  0
LINE
  5
    B5
  8
0
  6
CONTINUOUS
 62
     7
 10
-158.699969482422
 20
58.3370452880859
 30
0.0
 11
-155.499969482422
 21
58.3370452880859
 31
0.0
  0
LINE
  5
    B6
  8
0
  6
CONTINUOUS
 62
     7
 10
-158.699969482422
 20
58.3370452880859
 30
0.0
 11
-158.699969482422
 21
66.137045288086
 31
0.0
  0
LINE
  5
    B7
  8
0
  6
CONTINUOUS
 62
     7
 10
-161.899969482422
 20
60.2370452880859
 30
0.0
 11
-161.899969482422
 21
64.237045288086
 31
0.0
  0
CIRCLE
  5
    B8
  8
0
  6
CONTINUOUS
 62
     7
 10
-158.114833949467
 20
161.069376965513
 30
0.0
 40
0.2
  0
POINT
  5
    B9
  8
0
  6
CONTINUOUS
 62
     7
 10
-152.499965096168
 20
109.987045288086
 30
0.0
  0
LINE
  5
    BA
  8
0
  6
CONTINUOUS
 62
     7
 10
-121.500053097185
 20
227.237045288086
 30
0.0
 11
-121.500017884597
 21
197.237045288086
 31
0.0
  0
LINE
  5
    BB
  8
0
  6
CONTINUOUS
 62
     7
 10
-116.500053097182
 20
227.237045288086
 30
0.0
 11
-116.500017884601
 21
197.237051156851
 31
0.0
  0
LINE
  5
    BC
  8
0
  6
DASHDOT
 62
     7
 10
-129.580144460604
 20
217.237045288086
 30
0.0
 11
-109.113068881193
 21
217.237045288086
 31
0.0
  0
LINE
  5
    BD
  8
0
  6
CONTINUOUS
 62
     7
 10
-121.500053097185
 20
227.237045288086
 30
0.0
 11
-116.500053097182
 21
227.237045288086
 31
0.0
  0
LINE
  5
    BE
  8
0
  6
CONTINUOUS
 62
     7
 10
-121.500053097185
 20
207.237045288086
 30
0.0
 11
-116.500053097182
 21
207.237045288086
 31
0.0
  0
LINE
  5
    BF
  8
0
  6
DASHDOT
 62
     7
 10
-129.580144460604
 20
7.23704528808594
 30
0.0
 11
-109.113068881193
 21
7.23704528808594
 31
0.0
  0
LINE
  5
    C0
  8
0
  6
CONTINUOUS
 62
     7
 10
-121.500053097185
 20
-2.76295471191406
 30
0.0
 11
-116.500053097182
 21
-2.76295471191406
 31
0.0
  0
LINE
  5
    C1
  8
0
  6
CONTINUOUS
 62
     7
 10
-121.500053097185
 20
17.2370452880859
 30
0.0
 11
-116.500053097182
 21
17.2370452880859
 31
0.0
  0
LINE
  5
    C2
  8
0
  6
CONTINUOUS
 62
     7
 10
-121.500049019477
 20
-2.76295471191406
 30
0.0
 11
-121.500013806889
 21
27.2370452880859
 31
0.0
  0
LINE
  5
    C3
  8
0
  6
CONTINUOUS
 62
     7
 10
-116.50004901948
 20
-2.76296058067874
 30
0.0
 11
-116.500013806892
 21
27.2370394193213
 31
0.0
  0
ENDBLK
  5
    C4
  8
0
  6
CONTINUOUS
 62
     7
  0
BLOCK
  5
    C5
  8
0
  6
CONTINUOUS
 62
     7
  2
SBARRA
 70
    64
 10
0.0
 20
0.0
 30
0.0
  3
SBARRA
  0
LINE
  5
    C6
  8
0
  6
CONTINUOUS
 62
     7
 10
26.5001059159648
 20
107.500000002179
 30
0.0
 11
26.5001852131506
 21
175.058668808326
 31
0.0
  0
LINE
  5
    C7
  8
0
  6
CONTINUOUS
 62
     7
 10
20.5001059159613
 20
107.5
 30
0.0
 11
20.5001871954688
 21
176.747543585899
 31
0.0
  0
LINE
  5
    C8
  8
0
  6
CONTINUOUS
 62
     7
 10
20.5001076765838
 20
108.999994130421
 30
0.0
 11
20.5001276303837
 21
125.999994127583
 31
0.0
  0
LINE
  5
    C9
  8
0
  6
CONTINUOUS
 62
     7
 10
20.5001059159613
 20
107.5
 30
0.0
 11
26.5001059159647
 21
107.5
 31
0.0
  0
LINE
  5
    CA
  8
0
  6
CONTINUOUS
 62
     7
 10
18.5001157280214
 20
125.999994131249
 30
0.0
 11
20.5001276303837
 21
125.999994131249
 31
0.0
  0
LINE
  5
    CB
  8
0
  6
CONTINUOUS
 62
     7
 10
18.5001157280214
 20
108.999994131249
 30
0.0
 11
20.5001076765838
 21
108.999994131249
 31
0.0
  0
LINE
  5
    CC
  8
0
  6
CONTINUOUS
 62
     7
 10
18.5001157280214
 20
108.999994131249
 30
0.0
 11
18.5001157280214
 21
125.999994131249
 31
0.0
  0
LINE
  5
    CD
  8
0
  6
CONTINUOUS
 62
     7
 10
31.500127630398
 20
126.000003393245
 30
0.0
 11
33.5001276303966
 21
126.000001045739
 31
0.0
  0
LINE
  5
    CE
  8
0
  6
CONTINUOUS
 62
     7
 10
31.5001076765981
 20
109.000003393257
 30
0.0
 11
33.5001076765968
 21
109.000001045751
 31
0.0
  0
LINE
  5
    CF
  8
0
  6
CONTINUOUS
 62
     7
 10
33.5001076765968
 20
109.00000102933
 30
0.0
 11
33.5001276303966
 21
126.000001032607
 31
0.0
  0
LINE
  5
    D0
  8
0
  6
CONTINUOUS
 62
     7
 10
26.5001076765981
 20
109.000003385442
 30
0.0
 11
26.500127630398
 21
126.00000338543
 31
0.0
  0
LINE
  5
    D1
  8
0
  6
CONTINUOUS
 62
     1
 10
18.1001157280214
 20
110.309994131249
 30
0.0
 11
18.1001157280214
 21
124.689994131249
 31
0.0
  0
ARC
  5
    D2
  8
0
  6
CONTINUOUS
 62
     1
 10
15.7464513489096
 20
112.107494131249
 30
0.0
 40
2.74633562088826
 50
139.1176078909
 51
220.8823921091
  0
ARC
  5
    D3
  8
0
  6
CONTINUOUS
 62
     1
 10
15.7464513489096
 20
122.892494131249
 30
0.0
 40
2.74633562088826
 50
139.1176078909
 51
220.8823921091
  0
LINE
  5
    D4
  8
0
  6
CONTINUOUS
 62
     1
 10
13.6169202145588
 20
113.904994131249
 30
0.0
 11
18.1001157280214
 21
113.904994131249
 31
0.0
  0
ARC
  5
    D5
  8
0
  6
CONTINUOUS
 62
     1
 10
23.7851157280214
 20
117.499994131249
 30
0.0
 40
10.785
 50
160.528779365509
 51
199.471220634491
  0
LINE
  5
    D6
  8
0
  6
CONTINUOUS
 62
     1
 10
13.6169202145588
 20
121.094994131249
 30
0.0
 11
18.1001157280214
 21
121.094994131249
 31
0.0
  0
LINE
  5
    D7
  8
0
  6
CONTINUOUS
 62
     1
 10
13.6700715444038
 20
110.309994131249
 30
0.0
 11
18.1001157280214
 21
110.309994131249
 31
0.0
  0
LINE
  5
    D8
  8
0
  6
CONTINUOUS
 62
     1
 10
13.6700715444038
 20
124.689994131249
 30
0.0
 11
18.1001157280214
 21
124.689994131249
 31
0.0
  0
LINE
  5
    D9
  8
0
  6
CONTINUOUS
 62
     1
 10
18.1001157280214
 20
111.399994131249
 30
0.0
 11
18.5001157280214
 21
111.399994131249
 31
0.0
  0
LINE
  5
    DA
  8
0
  6
CONTINUOUS
 62
     1
 10
18.1001157280214
 20
123.599994131249
 30
0.0
 11
18.5001157280214
 21
123.599994131249
 31
0.0
  0
LINE
  5
    DB
  8
0
  6
CONTINUOUS
 62
     7
 10
40.0001138585073
 20
114.2667875
 30
0.0
 11
43.5001274655542
 21
114.2667875
 31
0.0
  0
LINE
  5
    DC
  8
0
  6
CONTINUOUS
 62
     7
 10
40.0001214484926
 20
120.7332125
 30
0.0
 11
43.5001274655542
 21
120.7332125
 31
0.0
  0
LINE
  5
    DD
  8
0
  6
CONTINUOUS
 62
     1
 10
40.0001223485117
 20
121.5
 30
0.0
 11
43.5001274655542
 21
121.5
 31
0.0
  0
LINE
  5
    DE
  8
0
  6
CONTINUOUS
 62
     1
 10
40.0001129584882
 20
113.5
 30
0.0
 11
43.5001274655542
 21
113.5
 31
0.0
  0
LINE
  5
    DF
  8
0
  6
CONTINUOUS
 62
     1
 10
13.0001157280214
 20
112.107494131249
 30
0.0
 11
13.0001157280214
 21
122.892494131249
 31
0.0
  0
LINE
  5
    E0
  8
0
  6
CONTINUOUS
 62
     7
 10
17.1163056989868
 20
177.700035923916
 30
0.0
 11
30.5776098850749
 21
173.910958478093
 31
0.0
  0
LINE
  5
    E1
  8
0
  6
CONTINUOUS
 62
     1
 10
43.5001274655542
 20
113.5
 30
0.0
 11
43.5001274655542
 21
121.5
 31
0.0
  0
POINT
  5
    E2
  8
0
  6
CONTINUOUS
 62
     7
 10
20.5001176534907
 20
117.5
 30
0.0
  0
LINE
  5
    E3
  8
0
  6
CONTINUOUS
 62
     1
 10
40.0001110462431
 20
111.870828277965
 30
0.0
 11
40.0001242607413
 21
123.129158527663
 31
0.0
  0
LINE
  5
    E4
  8
0
  6
CONTINUOUS
 62
     1
 10
33.5001110462476
 20
111.870835906792
 30
0.0
 11
33.5001242607458
 21
123.129166162543
 31
0.0
  0
LINE
  5
    E5
  8
0
  6
CONTINUOUS
 62
     1
 10
34.0806830467625
 20
125.005553863775
 30
0.0
 11
39.4195698795573
 21
125.005547597241
 31
0.0
  0
LINE
  5
    E6
  8
0
  6
CONTINUOUS
 62
     1
 10
34.0806786419298
 20
121.252777114045
 30
0.0
 11
39.4195654747246
 21
121.252770847511
 31
0.0
  0
LINE
  5
    E7
  8
0
  6
CONTINUOUS
 62
     1
 10
34.0806698322643
 20
113.747223614585
 30
0.0
 11
39.4195566650591
 21
113.747217348051
 31
0.0
  0
ARC
  5
    E8
  8
0
  6
CONTINUOUS
 62
     1
 10
36.8226938336936
 20
123.129162270464
 30
0.0
 40
3.32256957295006
 50
145.615685280868
 51
214.384180216953
  0
ARC
  5
    E9
  8
0
  6
CONTINUOUS
 62
     1
 10
45.9195610698871
 20
117.499986468387
 30
0.0
 40
12.419443416399
 50
162.411978974917
 51
197.587886522905
  0
ARC
  5
    EA
  8
0
  6
CONTINUOUS
 62
     1
 10
36.8226806191954
 20
111.870832021274
 30
0.0
 40
3.32256957295006
 50
145.615685280868
 51
214.384180216953
  0
LINE
  5
    EB
  8
0
  6
CONTINUOUS
 62
     1
 10
34.0806654274316
 20
109.994446864855
 30
0.0
 11
39.4195522602264
 21
109.994440598321
 31
0.0
  0
LINE
  5
    EC
  8
0
  6
DASHDOT
 62
     7
 10
8.02747321816309
 20
117.500030944336
 30
0.0
 11
46.8626391108652
 21
117.499985361446
 31
0.0
  0
ARC
  5
    ED
  8
0
  6
CONTINUOUS
 62
     1
 10
36.6775546877935
 20
123.129162440821
 30
0.0
 40
3.32256957295006
 50
325.615685280868
 51
394.384180216953
  0
ARC
  5
    EE
  8
0
  6
CONTINUOUS
 62
     1
 10
27.5806742371018
 20
117.500007993709
 30
0.0
 40
12.419443416399
 50
342.411978974916
 51
377.587886522905
  0
ARC
  5
    EF
  8
0
  6
CONTINUOUS
 62
     1
 10
36.6775414732954
 20
111.870832191632
 30
0.0
 40
3.32256957295006
 50
325.615685280868
 51
394.384180216953
  0
ENDBLK
  5
    F0
  8
0
  6
CONTINUOUS
 62
     7
  0
BLOCK
  5
    F1
  8
0
  6
CONTINUOUS
 62
     7
  2
*UDIM804
 70
    65
 10
0.0
 20
0.0
 30
0.0
  3
*UDIM804
  0
TEXT
  5
    F2
  8
0
  6
CONTINUOUS
 62
     7
 10
162.519365553665
 20
41.3143929572174
 30
0.0
 40
2.99999994933605
  1
10
 50
90.0
 41
0.933333333333333
 72
     1
 11
161.019365578994
 21
43.8143929149955
 31
0.0
 73
     2
  0
LINE
  5
    F3
  8
0
  6
CONTINUOUS
 62
     7
 10
214.812325059483
 20
49.839393004775
 30
0.0
 11
161.519365553662
 21
49.839393004775
 31
0.0
  0
LINE
  5
    F4
  8
0
  6
CONTINUOUS
 62
     7
 10
211.580288465955
 20
53.8393930643797
 30
0.0
 11
161.519365553662
 21
53.8393930643797
 31
0.0
  0
LINE
  5
    F5
  8
0
  6
CONTINUOUS
 62
     7
 10
163.519365553662
 20
41.3143929572155
 30
0.0
 11
163.519365553662
 21
53.8393930643797
 31
0.0
  0
LINE
  5
    F6
  8
0
  6
CONTINUOUS
 62
     7
 10
164.040309983614
 20
46.8849697275681
 30
0.0
 11
163.519365553662
 21
49.839393004775
 31
0.0
  0
LINE
  5
    F7
  8
0
  6
CONTINUOUS
 62
     7
 10
163.519365553662
 20
49.839393004775
 30
0.0
 11
162.998421123711
 21
46.8849697275681
 31
0.0
  0
LINE
  5
    F8
  8
0
  6
CONTINUOUS
 62
     7
 10
162.998421123711
 20
56.7938163415867
 30
0.0
 11
163.519365553662
 21
53.8393930643797
 31
0.0
  0
LINE
  5
    F9
  8
0
  6
CONTINUOUS
 62
     7
 10
163.519365553662
 20
53.8393930643797
 30
0.0
 11
164.040309983614
 21
56.7938163415867
 31
0.0
  0
ENDBLK
  5
    FA
  8
0
  6
CONTINUOUS
 62
     7
  0
BLOCK
  5
    FB
  8
0
  6
CONTINUOUS
 62
     7
  2
*UDIM805
 70
    65
 10
0.0
 20
0.0
 30
0.0
  3
*UDIM805
  0
TEXT
  5
    FC
  8
0
  6
CONTINUOUS
 62
     7
 10
162.519365553667
 20
91.6643937016482
 30
0.0
 40
2.99999994933605
  1
210
 50
90.0
 41
0.933333333333333
 72
     1
 11
161.019365578994
 21
95.5643936357832
 31
0.0
 73
     2
  0
LINE
  5
    FD
  8
0
  6
CONTINUOUS
 62
     7
 10
207.423271870245
 20
137.839392164982
 30
0.0
 11
161.519365553662
 21
137.839392164982
 31
0.0
  0
LINE
  5
    FE
  8
0
  6
CONTINUOUS
 62
     7
 10
163.519365553662
 20
53.8393930643797
 30
0.0
 11
163.519365553662
 21
137.839392164982
 31
0.0
  0
LINE
  5
    FF
  8
0
  6
CONTINUOUS
 62
     7
 10
162.998421123711
 20
56.7938163415867
 30
0.0
 11
163.519365553662
 21
53.8393930643797
 31
0.0
  0
LINE
  5
   100
  8
0
  6
CONTINUOUS
 62
     7
 10
163.519365553662
 20
53.8393930643797
 30
0.0
 11
164.040309983614
 21
56.7938163415867
 31
0.0
  0
LINE
  5
   101
  8
0
  6
CONTINUOUS
 62
     7
 10
164.040309983614
 20
134.884968887776
 30
0.0
 11
163.519365553662
 21
137.839392164982
 31
0.0
  0
LINE
  5
   102
  8
0
  6
CONTINUOUS
 62
     7
 10
163.519365553662
 20
137.839392164982
 30
0.0
 11
162.998421123711
 21
134.884968887776
 31
0.0
  0
ENDBLK
  5
   103
  8
0
  6
CONTINUOUS
 62
     7
  0
BLOCK
  5
   104
  8
0
  6
CONTINUOUS
 62
     7
  2
*UDIM806
 70
    65
 10
0.0
 20
0.0
 30
0.0
  3
*UDIM806
  0
TEXT
  5
   105
  8
0
  6
CONTINUOUS
 62
     7
 10
162.519365553665
 20
144.814375876333
 30
0.0
 40
2.99999994933605
  1
10
 50
90.0
 41
0.933333333333333
 72
     1
 11
161.019365578994
 21
147.314375834111
 31
0.0
 73
     2
  0
LINE
  5
   106
  8
0
  6
CONTINUOUS
 62
     7
 10
214.812325059483
 20
141.839394375682
 30
0.0
 11
161.519365553662
 21
141.839394375682
 31
0.0
  0
LINE
  5
   107
  8
0
  6
CONTINUOUS
 62
     7
 10
163.519365553662
 20
137.839392164982
 30
0.0
 11
163.519365553662
 21
149.814375791891
 31
0.0
  0
LINE
  5
   108
  8
0
  6
CONTINUOUS
 62
     7
 10
164.040309983614
 20
134.884968887776
 30
0.0
 11
163.519365553662
 21
137.839392164982
 31
0.0
  0
LINE
  5
   109
  8
0
  6
CONTINUOUS
 62
     7
 10
163.519365553662
 20
137.839392164982
 30
0.0
 11
162.998421123711
 21
134.884968887776
 31
0.0
  0
LINE
  5
   10A
  8
0
  6
CONTINUOUS
 62
     7
 10
162.998421123711
 20
144.793817652889
 30
0.0
 11
163.519365553662
 21
141.839394375682
 31
0.0
  0
LINE
  5
   10B
  8
0
  6
CONTINUOUS
 62
     7
 10
163.519365553662
 20
141.839394375682
 30
0.0
 11
164.040309983614
 21
144.793817652889
 31
0.0
  0
ENDBLK
  5
   10C
  8
0
  6
CONTINUOUS
 62
     7
  0
BLOCK
  5
   10D
  8
0
  6
CONTINUOUS
 62
     7
  2
*UDIM807
 70
    65
 10
0.0
 20
0.0
 30
0.0
  3
*UDIM807
  0
TEXT
  5
   10E
  8
0
  6
CONTINUOUS
 62
     7
 10
173.555385615583
 20
66.014393384086
 30
0.0
 40
2.99999994933605
  1
102,75
 50
90.0
 41
0.933333333333333
 72
     1
 11
172.055385640905
 21
74.1143932472914
 31
0.0
 73
     2
  0
LINE
  5
   10F
  8
0
  6
CONTINUOUS
 62
     7
 10
211.580288465955
 20
53.8393930643797
 30
0.0
 11
172.555385615573
 21
53.8393930643797
 31
0.0
  0
LINE
  5
   110
  8
0
  6
CONTINUOUS
 62
     7
 10
177.018320723692
 20
94.9393936768174
 30
0.0
 11
172.555385615573
 21
94.9393936768174
 31
0.0
  0
LINE
  5
   111
  8
0
  6
CONTINUOUS
 62
     7
 10
174.555385615573
 20
53.8393930643797
 30
0.0
 11
174.555385615573
 21
94.9393936768174
 31
0.0
  0
LINE
  5
   112
  8
0
  6
CONTINUOUS
 62
     7
 10
174.034441185621
 20
56.7938163415867
 30
0.0
 11
174.555385615573
 21
53.8393930643797
 31
0.0
  0
LINE
  5
   113
  8
0
  6
CONTINUOUS
 62
     7
 10
174.555385615573
 20
53.8393930643797
 30
0.0
 11
175.076330045524
 21
56.7938163415867
 31
0.0
  0
LINE
  5
   114
  8
0
  6
CONTINUOUS
 62
     7
 10
175.076330045524
 20
91.9849703996105
 30
0.0
 11
174.555385615573
 21
94.9393936768174
 31
0.0
  0
LINE
  5
   115
  8
0
  6
CONTINUOUS
 62
     7
 10
174.555385615573
 20
94.9393936768174
 30
0.0
 11
174.034441185621
 21
91.9849703996105
 31
0.0
  0
ENDBLK
  5
   116
  8
0
  6
CONTINUOUS
 62
     7
  0
BLOCK
  5
   117
  8
0
  6
CONTINUOUS
 62
     7
  2
*UDIM808
 70
    65
 10
0.0
 20
0.0
 30
0.0
  3
*UDIM808
  0
TEXT
  5
   118
  8
0
  6
CONTINUOUS
 62
     7
 10
188.681264267415
 20
172.322066934149
 30
0.0
 40
2.99999994933605
  1
6x20
 41
0.933333333333333
 72
     1
 11
193.981264177909
 21
173.822066908817
 31
0.0
 73
     2
  0
LINE
  5
   119
  8
0
  6
CONTINUOUS
 62
     7
 10
213.412334413746
 20
134.839391438884
 30
0.0
 11
213.412334413746
 21
173.322066934149
 31
0.0
  0
LINE
  5
   11A
  8
0
  6
CONTINUOUS
 62
     7
 10
215.812334449503
 20
134.83939707298
 30
0.0
 11
215.812334449503
 21
173.322066934149
 31
0.0
  0
LINE
  5
   11B
  8
0
  6
CONTINUOUS
 62
     7
 10
188.681264267415
 20
171.322066934149
 30
0.0
 11
215.812334449503
 21
171.322066934149
 31
0.0
  0
LINE
  5
   11C
  8
0
  6
CONTINUOUS
 62
     7
 10
210.457911136539
 20
170.801122504197
 30
0.0
 11
213.412334413746
 21
171.322066934149
 31
0.0
  0
LINE
  5
   11D
  8
0
  6
CONTINUOUS
 62
     7
 10
213.412334413746
 20
171.322066934149
 30
0.0
 11
210.457911136539
 21
171.8430113641
 31
0.0
  0
LINE
  5
   11E
  8
0
  6
CONTINUOUS
 62
     7
 10
218.76675772671
 20
171.8430113641
 30
0.0
 11
215.812334449503
 21
171.322066934149
 31
0.0
  0
LINE
  5
   11F
  8
0
  6
CONTINUOUS
 62
     7
 10
215.812334449503
 20
171.322066934149
 30
0.0
 11
218.76675772671
 21
170.801122504197
 31
0.0
  0
ENDBLK
  5
   120
  8
0
  6
CONTINUOUS
 62
     7
  0
BLOCK
  5
   121
  8
0
  6
CONTINUOUS
 62
     7
  2
*UDIM809
 70
    65
 10
0.0
 20
0.0
 30
0.0
  3
*UDIM809
  0
TEXT
  5
   122
  8
0
  6
CONTINUOUS
 62
     7
 10
206.837344155143
 20
179.68487832316
 30
0.0
 40
2.99999994933605
  1
31
 41
0.933333333333333
 72
     1
 11
209.337344112923
 21
181.184878297828
 31
0.0
 73
     2
  0
LINE
  5
   123
  8
0
  6
CONTINUOUS
 62
     7
 10
203.412360075116
 20
168.85071682123
 30
0.0
 11
203.412360075116
 21
180.68487832316
 31
0.0
  0
LINE
  5
   124
  8
0
  6
CONTINUOUS
 62
     7
 10
215.812325059483
 20
142.839394373138
 30
0.0
 11
215.812325059483
 21
180.68487832316
 31
0.0
  0
LINE
  5
   125
  8
0
  6
CONTINUOUS
 62
     7
 10
203.412360075116
 20
178.68487832316
 30
0.0
 11
215.812325059483
 21
178.68487832316
 31
0.0
  0
LINE
  5
   126
  8
0
  6
CONTINUOUS
 62
     7
 10
206.366783352323
 20
179.205822753112
 30
0.0
 11
203.412360075116
 21
178.68487832316
 31
0.0
  0
LINE
  5
   127
  8
0
  6
CONTINUOUS
 62
     7
 10
203.412360075116
 20
178.68487832316
 30
0.0
 11
206.366783352323
 21
178.163933893208
 31
0.0
  0
LINE
  5
   128
  8
0
  6
CONTINUOUS
 62
     7
 10
212.857901782276
 20
178.163933893208
 30
0.0
 11
215.812325059483
 21
178.68487832316
 31
0.0
  0
LINE
  5
   129
  8
0
  6
CONTINUOUS
 62
     7
 10
215.812325059483
 20
178.68487832316
 30
0.0
 11
212.857901782276
 21
179.205822753112
 31
0.0
  0
ENDBLK
  5
   12A
  8
0
  6
CONTINUOUS
 62
     7
  0
BLOCK
  5
   12B
  8
0
  6
CONTINUOUS
 62
     7
  2
*UDIM810
 70
    65
 10
0.0
 20
0.0
 30
0.0
  3
*UDIM810
  0
TEXT
  5
   12C
  8
0
  6
CONTINUOUS
 62
     7
 10
220.812312198987
 20
179.68487832316
 30
0.0
 40
2.99999994933605
  1
5
 41
0.933333333333333
 72
     1
 11
221.91231218041
 21
181.184878297828
 31
0.0
 73
     2
  0
LINE
  5
   12D
  8
0
  6
CONTINUOUS
 62
     7
 10
217.812325089287
 20
142.839394375631
 30
0.0
 11
217.812325089287
 21
180.68487832316
 31
0.0
  0
LINE
  5
   12E
  8
0
  6
CONTINUOUS
 62
     7
 10
215.812325059483
 20
178.68487832316
 30
0.0
 11
223.012312161833
 21
178.68487832316
 31
0.0
  0
LINE
  5
   12F
  8
0
  6
CONTINUOUS
 62
     7
 10
212.857901782276
 20
178.163933893208
 30
0.0
 11
215.812325059483
 21
178.68487832316
 31
0.0
  0
LINE
  5
   130
  8
0
  6
CONTINUOUS
 62
     7
 10
215.812325059483
 20
178.68487832316
 30
0.0
 11
212.857901782276
 21
179.205822753112
 31
0.0
  0
LINE
  5
   131
  8
0
  6
CONTINUOUS
 62
     7
 10
220.766748366494
 20
179.205822753112
 30
0.0
 11
217.812325089287
 21
178.68487832316
 31
0.0
  0
LINE
  5
   132
  8
0
  6
CONTINUOUS
 62
     7
 10
217.812325089287
 20
178.68487832316
 30
0.0
 11
220.766748366494
 21
178.163933893208
 31
0.0
  0
ENDBLK
  5
   133
  8
0
  6
CONTINUOUS
 62
     7
  0
BLOCK
  5
   134
  8
0
  6
CONTINUOUS
 62
     7
  2
*UDIM811
 70
    65
 10
0.0
 20
0.0
 30
0.0
  3
*UDIM811
  0
TEXT
  5
   135
  8
0
  6
CONTINUOUS
 62
     7
 10
284.172644954333
 20
90.7643936436892
 30
0.0
 40
2.99999994933605
  1
105
 50
90.0
 41
0.933333333333333
 72
     1
 11
282.67264497966
 21
94.6643935778242
 31
0.0
 73
     2
  0
LINE
  5
   136
  8
0
  6
CONTINUOUS
 62
     7
 10
267.012828393763
 20
73.939393364837
 30
0.0
 11
287.172644954328
 21
73.939393364837
 31
0.0
  0
LINE
  5
   137
  8
0
  6
CONTINUOUS
 62
     7
 10
267.012828393763
 20
115.939393989742
 30
0.0
 11
287.172644954328
 21
115.939393989742
 31
0.0
  0
LINE
  5
   138
  8
0
  6
CONTINUOUS
 62
     7
 10
285.172644954328
 20
73.939393364837
 30
0.0
 11
285.172644954328
 21
115.939393989742
 31
0.0
  0
LINE
  5
   139
  8
0
  6
CONTINUOUS
 62
     7
 10
284.651700524376
 20
76.893816642044
 30
0.0
 11
285.172644954328
 21
73.939393364837
 31
0.0
  0
LINE
  5
   13A
  8
0
  6
CONTINUOUS
 62
     7
 10
285.172644954328
 20
73.939393364837
 30
0.0
 11
285.69358938428
 21
76.893816642044
 31
0.0
  0
LINE
  5
   13B
  8
0
  6
CONTINUOUS
 62
     7
 10
285.69358938428
 20
112.984970712535
 30
0.0
 11
285.172644954328
 21
115.939393989742
 31
0.0
  0
LINE
  5
   13C
  8
0
  6
CONTINUOUS
 62
     7
 10
285.172644954328
 20
115.939393989742
 30
0.0
 11
284.651700524376
 21
112.984970712535
 31
0.0
  0
ENDBLK
  5
   13D
  8
0
  6
CONTINUOUS
 62
     7
  0
BLOCK
  5
   13E
  8
0
  6
CONTINUOUS
 62
     7
  2
*UDIM812
 70
    65
 10
0.0
 20
0.0
 30
0.0
  3
*UDIM812
  0
TEXT
  5
   13F
  8
0
  6
CONTINUOUS
 62
     7
 10
233.346376282075
 20
27.2712652121763
 30
0.0
 40
2.99999994933605
  1
184,5
 41
0.933333333333333
 72
     1
 11
240.046376168926
 21
28.7712651868444
 31
0.0
 73
     2
  0
LINE
  5
   140
  8
0
  6
CONTINUOUS
 62
     7
 10
203.412360075116
 20
55.0206058864516
 30
0.0
 11
203.412360075116
 21
24.2712652121763
 31
0.0
  0
LINE
  5
   141
  8
0
  6
CONTINUOUS
 62
     7
 10
277.230388170132
 20
89.8393936157226
 30
0.0
 11
277.230388170132
 21
24.2712652121763
 31
0.0
  0
LINE
  5
   142
  8
0
  6
CONTINUOUS
 62
     7
 10
203.412360075116
 20
26.2712652121763
 30
0.0
 11
277.230388170132
 21
26.2712652121763
 31
0.0
  0
LINE
  5
   143
  8
0
  6
CONTINUOUS
 62
     7
 10
206.366783352323
 20
26.792209642128
 30
0.0
 11
203.412360075116
 21
26.2712652121763
 31
0.0
  0
LINE
  5
   144
  8
0
  6
CONTINUOUS
 62
     7
 10
203.412360075116
 20
26.2712652121763
 30
0.0
 11
206.366783352323
 21
25.7503207822247
 31
0.0
  0
LINE
  5
   145
  8
0
  6
CONTINUOUS
 62
     7
 10
274.275964892925
 20
25.7503207822247
 30
0.0
 11
277.230388170132
 21
26.2712652121763
 31
0.0
  0
LINE
  5
   146
  8
0
  6
CONTINUOUS
 62
     7
 10
277.230388170132
 20
26.2712652121763
 30
0.0
 11
274.275964892925
 21
26.792209642128
 31
0.0
  0
ENDBLK
  5
   147
  8
0
  6
CONTINUOUS
 62
     7
  0
BLOCK
  5
   148
  8
0
  6
CONTINUOUS
 62
     7
  2
*UDIM813
 70
    65
 10
0.0
 20
0.0
 30
0.0
  3
*UDIM813
  0
TEXT
  5
   149
  8
0
  6
CONTINUOUS
 62
     7
 10
227.737596298524
 20
36.4157965984405
 30
0.0
 40
2.99999994933605
  1
156,5
 41
0.933333333333333
 72
     1
 11
234.437596185374
 21
37.9157965731085
 31
0.0
 73
     2
  0
LINE
  5
   14A
  8
0
  6
CONTINUOUS
 62
     7
 10
203.412360075116
 20
55.0206058864516
 30
0.0
 11
203.412360075116
 21
33.4157965984405
 31
0.0
  0
LINE
  5
   14B
  8
0
  6
CONTINUOUS
 62
     7
 10
266.012828393763
 20
42.7745434866447
 30
0.0
 11
266.012828393763
 21
33.4157965984405
 31
0.0
  0
LINE
  5
   14C
  8
0
  6
CONTINUOUS
 62
     7
 10
203.412360075116
 20
35.4157965984405
 30
0.0
 11
266.012828393763
 21
35.4157965984405
 31
0.0
  0
LINE
  5
   14D
  8
0
  6
CONTINUOUS
 62
     7
 10
206.366783352323
 20
35.9367410283921
 30
0.0
 11
203.412360075116
 21
35.4157965984405
 31
0.0
  0
LINE
  5
   14E
  8
0
  6
CONTINUOUS
 62
     7
 10
203.412360075116
 20
35.4157965984405
 30
0.0
 11
206.366783352323
 21
34.8948521684888
 31
0.0
  0
LINE
  5
   14F
  8
0
  6
CONTINUOUS
 62
     7
 10
263.058405116556
 20
34.8948521684888
 30
0.0
 11
266.012828393763
 21
35.4157965984405
 31
0.0
  0
LINE
  5
   150
  8
0
  6
CONTINUOUS
 62
     7
 10
266.012828393763
 20
35.4157965984405
 30
0.0
 11
263.058405116556
 21
35.9367410283921
 31
0.0
  0
ENDBLK
  5
   151
  8
0
  6
CONTINUOUS
 62
     7
  0
BLOCK
  5
   152
  8
0
  6
CONTINUOUS
 62
     7
  2
*UDIM814
 70
    65
 10
0.0
 20
0.0
 30
0.0
  3
*UDIM814
  0
TEXT
  5
   153
  8
0
  6
CONTINUOUS
 62
     7
 10
269.812830392704
 20
36.4157965984405
 30
0.0
 40
2.99999994933605
  1
2
 41
0.933333333333333
 72
     1
 11
270.912830374127
 21
37.9157965731085
 31
0.0
 73
     2
  0
LINE
  5
   154
  8
0
  6
CONTINUOUS
 62
     7
 10
266.812828405684
 20
43.3502444298027
 30
0.0
 11
266.812828405684
 21
33.4157965984405
 31
0.0
  0
LINE
  5
   155
  8
0
  6
CONTINUOUS
 62
     7
 10
266.012828393763
 20
35.4157965984405
 30
0.0
 11
272.01283035555
 21
35.4157965984405
 31
0.0
  0
LINE
  5
   156
  8
0
  6
CONTINUOUS
 62
     7
 10
263.058405116556
 20
34.8948521684888
 30
0.0
 11
266.012828393763
 21
35.4157965984405
 31
0.0
  0
LINE
  5
   157
  8
0
  6
CONTINUOUS
 62
     7
 10
266.012828393763
 20
35.4157965984405
 30
0.0
 11
263.058405116556
 21
35.9367410283921
 31
0.0
  0
LINE
  5
   158
  8
0
  6
CONTINUOUS
 62
     7
 10
269.767251682891
 20
35.9367410283921
 30
0.0
 11
266.812828405684
 21
35.4157965984405
 31
0.0
  0
LINE
  5
   159
  8
0
  6
CONTINUOUS
 62
     7
 10
266.812828405684
 20
35.4157965984405
 30
0.0
 11
269.767251682891
 21
34.8948521684888
 31
0.0
  0
ENDBLK
  5
   15A
  8
0
  6
CONTINUOUS
 62
     7
  0
BLOCK
  5
   15B
  8
0
  6
CONTINUOUS
 62
     7
  2
*UDIM815
 70
    65
 10
0.0
 20
0.0
 30
0.0
  3
*UDIM815
  0
TEXT
  5
   15C
  8
0
  6
CONTINUOUS
 62
     7
 10
196.462359243582
 20
44.468436488942
 30
0.0
 40
2.99999994933605
  1
3
 41
0.933333333333333
 72
     1
 11
197.562359225005
 21
45.96843646361
 31
0.0
 73
     2
  0
TEXT
  5
   15D
  8
0
  6
CONTINUOUS
 62
     7
 10
193.712359268814
 20
44.468436488942
 30
0.0
 40
2.99999994933605
  1
_
 41
0.933333333333333
 72
     1
 11
194.812359250238
 21
45.96843646361
 31
0.0
 73
     2
  0
LINE
  5
   15E
  8
0
  6
CONTINUOUS
 62
     7
 10
202.212360057235
 20
54.6733923469825
 30
0.0
 11
202.212360057235
 21
41.468436488942
 31
0.0
  0
LINE
  5
   15F
  8
0
  6
CONTINUOUS
 62
     7
 10
203.412360075116
 20
55.0206058864516
 30
0.0
 11
203.412360075116
 21
41.468436488942
 31
0.0
  0
LINE
  5
   160
  8
0
  6
CONTINUOUS
 62
     7
 10
193.712359268814
 20
43.468436488942
 30
0.0
 11
203.412360075116
 21
43.468436488942
 31
0.0
  0
LINE
  5
   161
  8
0
  6
CONTINUOUS
 62
     7
 10
199.257936780028
 20
42.9474920589903
 30
0.0
 11
202.212360057235
 21
43.468436488942
 31
0.0
  0
LINE
  5
   162
  8
0
  6
CONTINUOUS
 62
     7
 10
202.212360057235
 20
43.468436488942
 30
0.0
 11
199.257936780028
 21
43.9893809188936
 31
0.0
  0
LINE
  5
   163
  8
0
  6
CONTINUOUS
 62
     7
 10
206.366783352323
 20
43.9893809188936
 30
0.0
 11
203.412360075116
 21
43.468436488942
 31
0.0
  0
LINE
  5
   164
  8
0
  6
CONTINUOUS
 62
     7
 10
203.412360075116
 20
43.468436488942
 30
0.0
 11
206.366783352323
 21
42.9474920589903
 31
0.0
  0
ENDBLK
  5
   165
  8
0
  6
CONTINUOUS
 62
     7
  0
BLOCK
  5
   166
  8
0
  6
CONTINUOUS
 62
     7
  2
*UDIM816
 70
    65
 10
0.0
 20
0.0
 30
0.0
  3
*UDIM816
  0
TEXT
  5
   167
  8
0
  6
CONTINUOUS
 62
     7
 10
229.837623742003
 20
44.468436488942
 30
0.0
 40
2.99999994933605
  1
153
 41
0.933333333333333
 72
     1
 11
233.73762367614
 21
45.96843646361
 31
0.0
 73
     2
  0
LINE
  5
   168
  8
0
  6
CONTINUOUS
 62
     7
 10
264.612885139592
 20
72.939393365355
 30
0.0
 11
264.612885139592
 21
41.468436488942
 31
0.0
  0
LINE
  5
   169
  8
0
  6
CONTINUOUS
 62
     7
 10
203.412360075116
 20
43.468436488942
 30
0.0
 11
264.612885139592
 21
43.468436488942
 31
0.0
  0
LINE
  5
   16A
  8
0
  6
CONTINUOUS
 62
     7
 10
206.366783352323
 20
43.9893809188936
 30
0.0
 11
203.412360075116
 21
43.468436488942
 31
0.0
  0
LINE
  5
   16B
  8
0
  6
CONTINUOUS
 62
     7
 10
203.412360075116
 20
43.468436488942
 30
0.0
 11
206.366783352323
 21
42.9474920589903
 31
0.0
  0
LINE
  5
   16C
  8
0
  6
CONTINUOUS
 62
     7
 10
261.658461862385
 20
42.9474920589903
 30
0.0
 11
264.612885139592
 21
43.468436488942
 31
0.0
  0
LINE
  5
   16D
  8
0
  6
CONTINUOUS
 62
     7
 10
264.612885139592
 20
43.468436488942
 30
0.0
 11
261.658461862385
 21
43.9893809188936
 31
0.0
  0
ENDBLK
  5
   16E
  8
0
  6
CONTINUOUS
 62
     7
  0
BLOCK
  5
   16F
  8
0
  6
CONTINUOUS
 62
     7
  2
*UDIM817
 70
    65
 10
0.0
 20
0.0
 30
0.0
  3
*UDIM817
  0
TEXT
  5
   170
  8
0
  6
CONTINUOUS
 62
     7
 10
229.437361302152
 20
186.67052906202
 30
0.0
 40
2.99999994933605
  1
151
 41
0.933333333333333
 72
     1
 11
233.337361236289
 21
188.170529036688
 31
0.0
 73
     2
  0
LINE
  5
   171
  8
0
  6
CONTINUOUS
 62
     7
 10
203.412360075116
 20
168.85071682123
 30
0.0
 11
203.412360075116
 21
187.67052906202
 31
0.0
  0
LINE
  5
   172
  8
0
  6
CONTINUOUS
 62
     7
 10
263.812360975146
 20
165.339399678179
 30
0.0
 11
263.812360975146
 21
187.67052906202
 31
0.0
  0
LINE
  5
   173
  8
0
  6
CONTINUOUS
 62
     7
 10
203.412360075116
 20
185.67052906202
 30
0.0
 11
263.812360975146
 21
185.67052906202
 31
0.0
  0
LINE
  5
   174
  8
0
  6
CONTINUOUS
 62
     7
 10
206.366783352323
 20
186.191473491971
 30
0.0
 11
203.412360075116
 21
185.67052906202
 31
0.0
  0
LINE
  5
   175
  8
0
  6
CONTINUOUS
 62
     7
 10
203.412360075116
 20
185.67052906202
 30
0.0
 11
206.366783352323
 21
185.149584632068
 31
0.0
  0
LINE
  5
   176
  8
0
  6
CONTINUOUS
 62
     7
 10
260.857937697939
 20
185.149584632068
 30
0.0
 11
263.812360975146
 21
185.67052906202
 31
0.0
  0
LINE
  5
   177
  8
0
  6
CONTINUOUS
 62
     7
 10
263.812360975146
 20
185.67052906202
 30
0.0
 11
260.857937697939
 21
186.191473491971
 31
0.0
  0
ENDBLK
  5
   178
  8
0
  6
CONTINUOUS
 62
     7
  0
BLOCK
  5
   179
  8
0
  6
CONTINUOUS
 62
     7
  2
TERM_ANT_
 70
    64
 10
0.0
 20
0.0
 30
0.0
  3
TERM_ANT_
  0
LINE
  5
   17A
  8
0
  6
CONTINUOUS
 62
     3
 10
104.83820302152
 20
17.736790496214
 30
0.0
 11
104.83820302152
 21
25.2368000329572
 31
0.0
  0
LINE
  5
   17B
  8
0
  6
CONTINUOUS
 62
     3
 10
104.83820302152
 20
17.736790496214
 30
0.0
 11
106.08820302152
 21
17.736790496214
 31
0.0
  0
LINE
  5
   17C
  8
0
  6
CONTINUOUS
 62
     3
 10
106.08820302152
 20
-2.26319996704281
 30
0.0
 11
106.08820302152
 21
17.7367847741681
 31
0.0
  0
LINE
  5
   17D
  8
0
  6
CONTINUOUS
 62
     3
 10
106.08820302152
 20
-2.2631999670428
 30
0.0
 11
123.58820302152
 21
-2.2631999670428
 31
0.0
  0
LINE
  5
   17E
  8
0
  6
CONTINUOUS
 62
     3
 10
123.58820302152
 20
-2.26319996704281
 30
0.0
 11
123.58820302152
 21
17.7367847741681
 31
0.0
  0
LINE
  5
   17F
  8
0
  6
CONTINUOUS
 62
     3
 10
123.58820302152
 20
17.736790496214
 30
0.0
 11
124.83820302152
 21
17.736790496214
 31
0.0
  0
LINE
  5
   180
  8
0
  6
CONTINUOUS
 62
     3
 10
124.83820302152
 20
17.736790496214
 30
0.0
 11
124.83820302152
 21
25.2368000329572
 31
0.0
  0
CIRCLE
  5
   181
  8
0
  6
CONTINUOUS
 62
     3
 10
114.838135984871
 20
7.73682142327932
 30
0.0
 40
4.1000570117577
  0
LINE
  5
   182
  8
0
  6
CONTINUOUS
 62
     7
 10
69.8382030215199
 20
17.736790496214
 30
0.0
 11
69.8382030215199
 21
25.2368000329572
 31
0.0
  0
LINE
  5
   183
  8
0
  6
CONTINUOUS
 62
     7
 10
89.8382030215199
 20
17.736790496214
 30
0.0
 11
89.8382030215199
 21
25.2368000329572
 31
0.0
  0
CIRCLE
  5
   184
  8
0
  6
CONTINUOUS
 62
     7
 10
79.838135984871
 20
7.73682142327933
 30
0.0
 40
4.1000570117577
  0
LINE
  5
   185
  8
0
  6
CONTINUOUS
 62
     7
 10
71.0882030215199
 20
-2.26319996704281
 30
0.0
 11
71.0882030215199
 21
17.7367847741681
 31
0.0
  0
LINE
  5
   186
  8
0
  6
CONTINUOUS
 62
     7
 10
88.5882030215199
 20
-2.26319996704281
 30
0.0
 11
88.5882030215199
 21
17.7367847741681
 31
0.0
  0
LINE
  5
   187
  8
0
  6
CONTINUOUS
 62
     7
 10
71.0882030215199
 20
-2.2631999670428
 30
0.0
 11
88.5882030215199
 21
-2.2631999670428
 31
0.0
  0
LINE
  5
   188
  8
0
  6
CONTINUOUS
 62
     7
 10
69.8382030215199
 20
17.736790496214
 30
0.0
 11
71.0882030215199
 21
17.736790496214
 31
0.0
  0
LINE
  5
   189
  8
0
  6
CONTINUOUS
 62
     7
 10
88.5882030215199
 20
17.736790496214
 30
0.0
 11
89.8382030215199
 21
17.736790496214
 31
0.0
  0
LINE
  5
   18A
  8
0
  6
CONTINUOUS
 62
     7
 10
139.838068948222
 20
17.736790496214
 30
0.0
 11
139.838068948222
 21
25.2368000329572
 31
0.0
  0
LINE
  5
   18B
  8
0
  6
CONTINUOUS
 62
     7
 10
159.838068948222
 20
17.736790496214
 30
0.0
 11
159.838068948222
 21
25.2368000329572
 31
0.0
  0
LINE
  5
   18C
  8
0
  6
CONTINUOUS
 62
     7
 10
158.588068948222
 20
-2.26319996704281
 30
0.0
 11
158.588068948222
 21
17.7367847741681
 31
0.0
  0
LINE
  5
   18D
  8
0
  6
CONTINUOUS
 62
     7
 10
141.088068948222
 20
-2.26319996704281
 30
0.0
 11
141.088068948222
 21
17.7367847741681
 31
0.0
  0
LINE
  5
   18E
  8
0
  6
CONTINUOUS
 62
     7
 10
141.088068948222
 20
-2.2631999670428
 30
0.0
 11
158.588068948222
 21
-2.2631999670428
 31
0.0
  0
CIRCLE
  5
   18F
  8
0
  6
CONTINUOUS
 62
     7
 10
149.838135984871
 20
7.73682142327932
 30
0.0
 40
4.1000570117577
  0
LINE
  5
   190
  8
0
  6
CONTINUOUS
 62
     7
 10
139.838068948222
 20
17.736790496214
 30
0.0
 11
141.088068948222
 21
17.736790496214
 31
0.0
  0
LINE
  5
   191
  8
0
  6
CONTINUOUS
 62
     7
 10
158.588068948222
 20
17.736790496214
 30
0.0
 11
159.838068948222
 21
17.736790496214
 31
0.0
  0
POINT
  5
   192
  8
0
  6
CONTINUOUS
 62
     7
 10
114.838135984871
 20
25.2368000329572
 30
0.0
  0
LINE
  5
   193
  8
0
  6
DASHDOT
 62
     7
 10
149.838135984871
 20
0.636764411521626
 30
0.0
 11
149.838135984871
 21
14.836878435037
 31
0.0
  0
LINE
  5
   194
  8
0
  6
DASHDOT
 62
     7
 10
142.738078973113
 20
7.73682142327932
 30
0.0
 11
156.938192996629
 21
7.73682142327932
 31
0.0
  0
LINE
  5
   195
  8
0
  6
DASHDOT
 62
     7
 10
114.838135984871
 20
0.636764411521628
 30
0.0
 11
114.838135984871
 21
14.836878435037
 31
0.0
  0
LINE
  5
   196
  8
0
  6
DASHDOT
 62
     7
 10
107.738078973113
 20
7.73682142327932
 30
0.0
 11
121.938192996629
 21
7.73682142327932
 31
0.0
  0
LINE
  5
   197
  8
0
  6
DASHDOT
 62
     7
 10
79.838135984871
 20
0.63676441152163
 30
0.0
 11
79.838135984871
 21
14.836878435037
 31
0.0
  0
LINE
  5
   198
  8
0
  6
DASHDOT
 62
     7
 10
72.7380789731133
 20
7.73682142327933
 30
0.0
 11
86.9381929966287
 21
7.73682142327933
 31
0.0
  0
ENDBLK
  5
   199
  8
0
  6
CONTINUOUS
 62
     7
  0
BLOCK
  5
   19A
  8
0
  6
CONTINUOUS
 62
     7
  2
*UDIM818
 70
    65
 10
0.0
 20
0.0
 30
0.0
  3
*UDIM818
  0
TEXT
  5
   19B
  8
0
  6
CONTINUOUS
 62
     7
 10
106.391966708061
 20
49.133150298969
 30
0.0
 40
2.99999994933605
  1
8,2
 50
333.376737091291
 41
0.933333333333333
 72
     1
 11
110.550642002858
 21
48.7264327031905
 31
0.0
 73
     2
  0
TEXT
  5
   19C
  8
0
  6
CONTINUOUS
 62
     7
 10
103.575953794952
 20
50.5447348568448
 30
0.0
 40
2.99999994933605
  1
Ø
 50
333.376737091291
 41
0.933333333333333
 72
     1
 11
105.231506505734
 21
51.3927590929133
 31
0.0
 73
     2
  0
LINE
  5
   19D
  8
0
  6
CONTINUOUS
 62
     7
 10
112.916828962471
 20
44.7438256887129
 30
0.0
 11
93.3056546690011
 21
54.574331337685
 31
0.0
  0
LINE
  5
   19E
  8
0
  6
CONTINUOUS
 62
     7
 10
99.1125443263457
 20
52.2462380160791
 30
0.0
 11
96.2379248497939
 21
53.1044704234309
 31
0.0
  0
LINE
  5
   19F
  8
0
  6
CONTINUOUS
 62
     7
 10
96.2379248497939
 20
53.1044704234309
 30
0.0
 11
98.6456509133527
 21
51.3148181659072
 31
0.0
  0
LINE
  5
   1A0
  8
0
  6
CONTINUOUS
 62
     7
 10
90.4310351924493
 20
55.4325637450367
 30
0.0
 11
93.3056546690011
 21
54.574331337685
 31
0.0
  0
LINE
  5
   1A1
  8
0
  6
CONTINUOUS
 62
     7
 10
93.3056546690011
 20
54.574331337685
 30
0.0
 11
90.8979286054424
 21
56.3639835952087
 31
0.0
  0
ENDBLK
  5
   1A2
  8
0
  6
CONTINUOUS
 62
     7
  0
BLOCK
  5
   1A3
  8
0
  6
CONTINUOUS
 62
     7
  2
*UDIM819
 70
    65
 10
0.0
 20
0.0
 30
0.0
  3
*UDIM819
  0
TEXT
  5
   1A4
  8
0
  6
CONTINUOUS
 62
     7
 10
52.6848416903159
 20
42.4643699940489
 30
0.0
 40
2.99999994933605
  1
20
 50
359.999999948034
 41
0.933333333333333
 72
     1
 11
55.1848416494488
 21
43.964369966462
 31
0.0
 73
     2
  0
LINE
  5
   1A5
  8
0
  6
CONTINUOUS
 62
     7
 10
70.7718162164296
 20
56.8393885693363
 30
0.0
 11
70.7718162164296
 21
39.464369991794
 31
0.0
  0
LINE
  5
   1A6
  8
0
  6
CONTINUOUS
 62
     7
 10
62.7718160972203
 20
56.8393885693363
 30
0.0
 11
62.7718160972203
 21
39.464369991794
 31
0.0
  0
LINE
  5
   1A7
  8
0
  6
CONTINUOUS
 62
     7
 10
70.7718162164296
 20
41.464369991794
 30
0.0
 11
52.6848416916688
 21
41.464369991794
 31
0.0
  0
LINE
  5
   1A8
  8
0
  6
CONTINUOUS
 62
     7
 10
73.7262394936366
 20
41.9853144217457
 30
0.0
 11
70.7718162164296
 21
41.464369991794
 31
0.0
  0
LINE
  5
   1A9
  8
0
  6
CONTINUOUS
 62
     7
 10
70.7718162164296
 20
41.464369991794
 30
0.0
 11
73.7262394936366
 21
40.9434255618423
 31
0.0
  0
LINE
  5
   1AA
  8
0
  6
CONTINUOUS
 62
     7
 10
59.8173928200134
 20
40.9434255618423
 30
0.0
 11
62.7718160972203
 21
41.464369991794
 31
0.0
  0
LINE
  5
   1AB
  8
0
  6
CONTINUOUS
 62
     7
 10
62.7718160972203
 20
41.464369991794
 30
0.0
 11
59.8173928200134
 21
41.9853144217457
 31
0.0
  0
ENDBLK
  5
   1AC
  8
0
  6
CONTINUOUS
 62
     7
  0
BLOCK
  5
   1AD
  8
0
  6
CONTINUOUS
 62
     7
  2
*UDIM820
 70
    65
 10
0.0
 20
0.0
 30
0.0
  3
*UDIM820
  0
TEXT
  5
   1AE
  8
0
  6
CONTINUOUS
 62
     7
 10
87.1968166283107
 20
37.216930343186
 30
0.0
 40
2.99999994933605
  1
17,5
 50
359.999999948034
 41
0.933333333333333
 72
     1
 11
92.4968165401573
 21
38.7169303130738
 31
0.0
 73
     2
  0
LINE
  5
   1AF
  8
0
  6
CONTINUOUS
 62
     7
 10
84.2718164175953
 20
48.8393922648243
 30
0.0
 11
84.2718164175953
 21
34.2169303384057
 31
0.0
  0
LINE
  5
   1B0
  8
0
  6
CONTINUOUS
 62
     7
 10
77.2718163132872
 20
48.8393922648243
 30
0.0
 11
77.2718163132872
 21
34.2169303384057
 31
0.0
  0
LINE
  5
   1B1
  8
0
  6
CONTINUOUS
 62
     7
 10
97.796816450651
 20
36.2169303384057
 30
0.0
 11
77.2718163132872
 21
36.2169303384057
 31
0.0
  0
LINE
  5
   1B2
  8
0
  6
CONTINUOUS
 62
     7
 10
87.2262396948023
 20
36.7378747683574
 30
0.0
 11
84.2718164175953
 21
36.2169303384057
 31
0.0
  0
LINE
  5
   1B3
  8
0
  6
CONTINUOUS
 62
     7
 10
84.2718164175953
 20
36.2169303384057
 30
0.0
 11
87.2262396948023
 21
35.6959859084541
 31
0.0
  0
LINE
  5
   1B4
  8
0
  6
CONTINUOUS
 62
     7
 10
74.3173930360802
 20
35.6959859084541
 30
0.0
 11
77.2718163132872
 21
36.2169303384057
 31
0.0
  0
LINE
  5
   1B5
  8
0
  6
CONTINUOUS
 62
     7
 10
77.2718163132872
 20
36.2169303384057
 30
0.0
 11
74.3173930360802
 21
36.7378747683574
 31
0.0
  0
ENDBLK
  5
   1B6
  8
0
  6
CONTINUOUS
 62
     7
  0
BLOCK
  5
   1B7
  8
0
  6
CONTINUOUS
 62
     7
  2
*UDIM821
 70
    65
 10
0.0
 20
0.0
 30
0.0
  3
*UDIM821
  0
TEXT
  5
   1B8
  8
0
  6
CONTINUOUS
 62
     7
 10
76.5967895635099
 20
181.179017448063
 30
0.0
 40
2.99999994933605
  1
117
 50
359.999999948034
 41
0.933333333333333
 72
     1
 11
80.4967894989997
 21
182.679017419214
 31
0.0
 73
     2
  0
LINE
  5
   1B9
  8
0
  6
CONTINUOUS
 62
     7
 10
104.171789899468
 20
127.63939646099
 30
0.0
 11
104.171789899468
 21
182.179017444545
 31
0.0
  0
LINE
  5
   1BA
  8
0
  6
CONTINUOUS
 62
     7
 10
57.3717892020941
 20
127.63939646099
 30
0.0
 11
57.3717892020941
 21
182.179017444545
 31
0.0
  0
LINE
  5
   1BB
  8
0
  6
CONTINUOUS
 62
     7
 10
104.171789899468
 20
180.179017444545
 30
0.0
 11
57.3717892020941
 21
180.179017444545
 31
0.0
  0
LINE
  5
   1BC
  8
0
  6
CONTINUOUS
 62
     7
 10
101.217366622261
 20
179.658073014594
 30
0.0
 11
104.171789899468
 21
180.179017444545
 31
0.0
  0
LINE
  5
   1BD
  8
0
  6
CONTINUOUS
 62
     7
 10
104.171789899468
 20
180.179017444545
 30
0.0
 11
101.217366622261
 21
180.699961874497
 31
0.0
  0
LINE
  5
   1BE
  8
0
  6
CONTINUOUS
 62
     7
 10
60.3262124793011
 20
180.699961874497
 30
0.0
 11
57.3717892020941
 21
180.179017444545
 31
0.0
  0
LINE
  5
   1BF
  8
0
  6
CONTINUOUS
 62
     7
 10
57.3717892020941
 20
180.179017444545
 30
0.0
 11
60.3262124793011
 21
179.658073014594
 31
0.0
  0
ENDBLK
  5
   1C0
  8
0
  6
CONTINUOUS
 62
     7
  0
BLOCK
  5
   1C1
  8
0
  6
CONTINUOUS
 62
     7
  2
*UDIM822
 70
    65
 10
0.0
 20
0.0
 30
0.0
  3
*UDIM822
  0
TEXT
  5
   1C2
  8
0
  6
CONTINUOUS
 62
     7
 10
76.5967880361481
 20
172.510853256397
 30
0.0
 40
2.99999994933605
  1
105
 50
359.999999948034
 41
0.933333333333333
 72
     1
 11
80.4967879716379
 21
174.010853227548
 31
0.0
 73
     2
  0
LINE
  5
   1C3
  8
0
  6
CONTINUOUS
 62
     7
 10
101.771804234409
 20
165.339348950119
 30
0.0
 11
101.771804234409
 21
173.51085325288
 31
0.0
  0
LINE
  5
   1C4
  8
0
  6
CONTINUOUS
 62
     7
 10
59.7717730045231
 20
155.439391816855
 30
0.0
 11
59.7717730045231
 21
173.51085325288
 31
0.0
  0
LINE
  5
   1C5
  8
0
  6
CONTINUOUS
 62
     7
 10
101.771804234409
 20
171.51085325288
 30
0.0
 11
59.7717730045231
 21
171.51085325288
 31
0.0
  0
LINE
  5
   1C6
  8
0
  6
CONTINUOUS
 62
     7
 10
98.8173809572017
 20
170.989908822928
 30
0.0
 11
101.771804234409
 21
171.51085325288
 31
0.0
  0
LINE
  5
   1C7
  8
0
  6
CONTINUOUS
 62
     7
 10
101.771804234409
 20
171.51085325288
 30
0.0
 11
98.8173809572017
 21
172.031797682831
 31
0.0
  0
LINE
  5
   1C8
  8
0
  6
CONTINUOUS
 62
     7
 10
62.7261962817301
 20
172.031797682831
 30
0.0
 11
59.7717730045231
 21
171.51085325288
 31
0.0
  0
LINE
  5
   1C9
  8
0
  6
CONTINUOUS
 62
     7
 10
59.7717730045231
 20
171.51085325288
 30
0.0
 11
62.7261962817301
 21
170.989908822928
 31
0.0
  0
ENDBLK
  5
   1CA
  8
0
  6
CONTINUOUS
 62
     7
  0
BLOCK
  5
   1CB
  8
0
  6
CONTINUOUS
 62
     7
  2
*UDIM823
 70
    65
 10
0.0
 20
0.0
 30
0.0
  3
*UDIM823
  0
TEXT
  5
   1CC
  8
0
  6
CONTINUOUS
 62
     7
 10
127.945886944786
 20
108.664392429539
 30
0.0
 40
2.99999994933605
  1
260
 50
89.9999999480344
 41
0.933333333333333
 72
     1
 11
126.445886973651
 21
112.564392365035
 31
0.0
 73
     2
  0
LINE
  5
   1CD
  8
0
  6
CONTINUOUS
 62
     7
 10
102.271782675887
 20
60.8393924287371
 30
0.0
 11
130.945886948319
 21
60.8393924287371
 31
0.0
  0
LINE
  5
   1CE
  8
0
  6
CONTINUOUS
 62
     7
 10
102.271782675887
 20
164.839393978458
 30
0.0
 11
130.945886948319
 21
164.839393978458
 31
0.0
  0
LINE
  5
   1CF
  8
0
  6
CONTINUOUS
 62
     7
 10
128.945886948319
 20
60.8393924287371
 30
0.0
 11
128.945886948319
 21
164.839393978458
 31
0.0
  0
LINE
  5
   1D0
  8
0
  6
CONTINUOUS
 62
     7
 10
128.424942518367
 20
63.793815705944
 30
0.0
 11
128.945886948319
 21
60.8393924287371
 31
0.0
  0
LINE
  5
   1D1
  8
0
  6
CONTINUOUS
 62
     7
 10
128.945886948319
 20
60.8393924287371
 30
0.0
 11
129.46683137827
 21
63.793815705944
 31
0.0
  0
LINE
  5
   1D2
  8
0
  6
CONTINUOUS
 62
     7
 10
129.46683137827
 20
161.884970701251
 30
0.0
 11
128.945886948319
 21
164.839393978458
 31
0.0
  0
LINE
  5
   1D3
  8
0
  6
CONTINUOUS
 62
     7
 10
128.945886948319
 20
164.839393978458
 30
0.0
 11
128.424942518367
 21
161.884970701251
 31
0.0
  0
ENDBLK
  5
   1D4
  8
0
  6
CONTINUOUS
 62
     7
  0
BLOCK
  5
   1D5
  8
0
  6
CONTINUOUS
 62
     7
  2
*UDIM824
 70
    65
 10
0.0
 20
0.0
 30
0.0
  3
*UDIM824
  0
TEXT
  5
   1D6
  8
0
  6
CONTINUOUS
 62
     7
 10
120.635068351865
 20
70.9143934342244
 30
0.0
 40
2.99999994933605
  1
85,25
 50
89.9999999480344
 41
0.933333333333333
 72
     1
 11
119.135068383266
 21
77.6143933224335
 31
0.0
 73
     2
  0
LINE
  5
   1D7
  8
0
  6
CONTINUOUS
 62
     7
 10
102.271782675887
 20
60.8393924287371
 30
0.0
 11
123.635068357934
 21
60.8393924287371
 31
0.0
  0
LINE
  5
   1D8
  8
0
  6
CONTINUOUS
 62
     7
 10
107.898136974245
 20
94.939395988623
 30
0.0
 11
123.635068357934
 21
94.939395988623
 31
0.0
  0
LINE
  5
   1D9
  8
0
  6
CONTINUOUS
 62
     7
 10
121.635068357934
 20
60.8393924287371
 30
0.0
 11
121.635068357934
 21
94.939395988623
 31
0.0
  0
LINE
  5
   1DA
  8
0
  6
CONTINUOUS
 62
     7
 10
121.114123927982
 20
63.793815705944
 30
0.0
 11
121.635068357934
 21
60.8393924287371
 31
0.0
  0
LINE
  5
   1DB
  8
0
  6
CONTINUOUS
 62
     7
 10
121.635068357934
 20
60.8393924287371
 30
0.0
 11
122.156012787885
 21
63.793815705944
 31
0.0
  0
LINE
  5
   1DC
  8
0
  6
CONTINUOUS
 62
     7
 10
122.156012787885
 20
91.984972711416
 30
0.0
 11
121.635068357934
 21
94.939395988623
 31
0.0
  0
LINE
  5
   1DD
  8
0
  6
CONTINUOUS
 62
     7
 10
121.635068357934
 20
94.939395988623
 30
0.0
 11
121.114123927982
 21
91.984972711416
 31
0.0
  0
ENDBLK
  5
   1DE
  8
0
  6
CONTINUOUS
 62
     7
  0
BLOCK
  5
   1DF
  8
0
  6
CONTINUOUS
 62
     7
  2
*UDIM825
 70
    65
 10
0.0
 20
0.0
 30
0.0
  3
*UDIM825
  0
TEXT
  5
   1E0
  8
0
  6
CONTINUOUS
 62
     7
 10
111.133624731374
 20
90.7643982663225
 30
0.0
 40
2.99999994933605
  1
161
 50
89.9999999480344
 41
0.933333333333333
 72
     1
 11
109.633624760238
 21
94.664398201818
 31
0.0
 73
     2
  0
LINE
  5
   1E1
  8
0
  6
CONTINUOUS
 62
     7
 10
104.671789892018
 20
62.7393970346845
 30
0.0
 11
114.133624734906
 21
62.7393970346845
 31
0.0
  0
LINE
  5
   1E2
  8
0
  6
CONTINUOUS
 62
     7
 10
104.671789892018
 20
127.13939646844
 30
0.0
 11
114.133624734906
 21
127.13939646844
 31
0.0
  0
LINE
  5
   1E3
  8
0
  6
CONTINUOUS
 62
     7
 10
112.133624734906
 20
62.7393970346845
 30
0.0
 11
112.133624734906
 21
127.13939646844
 31
0.0
  0
LINE
  5
   1E4
  8
0
  6
CONTINUOUS
 62
     7
 10
111.612680304954
 20
65.6938203118915
 30
0.0
 11
112.133624734906
 21
62.7393970346845
 31
0.0
  0
LINE
  5
   1E5
  8
0
  6
CONTINUOUS
 62
     7
 10
112.133624734906
 20
62.7393970346845
 30
0.0
 11
112.654569164858
 21
65.6938203118915
 31
0.0
  0
LINE
  5
   1E6
  8
0
  6
CONTINUOUS
 62
     7
 10
112.654569164858
 20
124.184973191233
 30
0.0
 11
112.133624734906
 21
127.13939646844
 31
0.0
  0
LINE
  5
   1E7
  8
0
  6
CONTINUOUS
 62
     7
 10
112.133624734906
 20
127.13939646844
 30
0.0
 11
111.612680304954
 21
124.184973191233
 31
0.0
  0
ENDBLK
  5
   1E8
  8
0
  6
CONTINUOUS
 62
     7
  0
BLOCK
  5
   1E9
  8
0
  6
CONTINUOUS
 62
     7
  2
*UDIM826
 70
    65
 10
0.0
 20
0.0
 30
0.0
  3
*UDIM826
  0
TEXT
  5
   1EA
  8
0
  6
CONTINUOUS
 62
     7
 10
283.836127008803
 20
-2.74881132674707
 30
0.0
 40
2.99999994933605
  1
35
 50
449.999999896069
 41
0.933333333333333
 72
     1
 11
282.336127038654
 21
-0.248811366255538
 31
0.0
 73
     2
  0
LINE
  5
   1EB
  8
0
  6
CONTINUOUS
 62
     7
 10
228.637761112436
 20
7.02619489334984
 30
0.0
 11
286.836127013322
 21
7.02619489334984
 31
0.0
  0
LINE
  5
   1EC
  8
0
  6
CONTINUOUS
 62
     7
 10
281.592826272672
 20
-6.97381752229785
 30
0.0
 11
286.836127013322
 21
-6.97381752229785
 31
0.0
  0
LINE
  5
   1ED
  8
0
  6
CONTINUOUS
 62
     7
 10
284.836127013322
 20
7.02619489334984
 30
0.0
 11
284.836127013322
 21
-6.97381752229785
 31
0.0
  0
LINE
  5
   1EE
  8
0
  6
CONTINUOUS
 62
     7
 10
285.357071443274
 20
4.07177161614288
 30
0.0
 11
284.836127013322
 21
7.02619489334984
 31
0.0
  0
LINE
  5
   1EF
  8
0
  6
CONTINUOUS
 62
     7
 10
284.836127013322
 20
7.02619489334984
 30
0.0
 11
284.315182583371
 21
4.07177161614288
 31
0.0
  0
LINE
  5
   1F0
  8
0
  6
CONTINUOUS
 62
     7
 10
284.315182583371
 20
-4.01939424509089
 30
0.0
 11
284.836127013322
 21
-6.97381752229785
 31
0.0
  0
LINE
  5
   1F1
  8
0
  6
CONTINUOUS
 62
     7
 10
284.836127013322
 20
-6.97381752229785
 30
0.0
 11
285.357071443274
 21
-4.01939424509089
 31
0.0
  0
ENDBLK
  5
   1F2
  8
0
  6
CONTINUOUS
 62
     7
  0
BLOCK
  5
   1F3
  8
0
  6
CONTINUOUS
 62
     7
  2
*UDIM827
 70
    65
 10
0.0
 20
0.0
 30
0.0
  3
*UDIM827
  0
TEXT
  5
   1F4
  8
0
  6
CONTINUOUS
 62
     7
 10
283.836127008803
 20
-16.7488115353633
 30
0.0
 40
2.99999994933605
  1
35
 50
449.999999896069
 41
0.933333333333333
 72
     1
 11
282.336127038654
 21
-14.2488115748718
 31
0.0
 73
     2
  0
LINE
  5
   1F5
  8
0
  6
CONTINUOUS
 62
     7
 10
228.637761112436
 20
-20.9738055238827
 30
0.0
 11
286.836127013322
 21
-20.9738055238827
 31
0.0
  0
LINE
  5
   1F6
  8
0
  6
CONTINUOUS
 62
     7
 10
284.836127013322
 20
-6.97381752229785
 30
0.0
 11
284.836127013322
 21
-20.9738055238827
 31
0.0
  0
LINE
  5
   1F7
  8
0
  6
CONTINUOUS
 62
     7
 10
285.357071443274
 20
-9.92824079950481
 30
0.0
 11
284.836127013322
 21
-6.97381752229785
 31
0.0
  0
LINE
  5
   1F8
  8
0
  6
CONTINUOUS
 62
     7
 10
284.836127013322
 20
-6.97381752229785
 30
0.0
 11
284.315182583371
 21
-9.92824079950481
 31
0.0
  0
LINE
  5
   1F9
  8
0
  6
CONTINUOUS
 62
     7
 10
284.315182583371
 20
-18.0193822466757
 30
0.0
 11
284.836127013322
 21
-20.9738055238827
 31
0.0
  0
LINE
  5
   1FA
  8
0
  6
CONTINUOUS
 62
     7
 10
284.836127013322
 20
-20.9738055238827
 30
0.0
 11
285.357071443274
 21
-18.0193822466757
 31
0.0
  0
ENDBLK
  5
   1FB
  8
0
  6
CONTINUOUS
 62
     7
  0
BLOCK
  5
   1FC
  8
0
  6
CONTINUOUS
 62
     7
  2
*UDIM828
 70
    65
 10
0.0
 20
0.0
 30
0.0
  3
*UDIM828
  0
TEXT
  5
   1FD
  8
0
  6
CONTINUOUS
 62
     7
 10
121.420608508396
 20
-76.547074577937
 30
0.0
 40
3.00000002980232
  1
47,75
 50
449.999999896069
 41
0.933333333333333
 72
     1
 11
119.920608505607
 21
-69.847074508667
 31
0.0
 73
     2
  0
LINE
  5
   1FE
  8
0
  6
CONTINUOUS
 62
     7
 10
129.144228360765
 20
-91.3845748901367
 30
0.0
 11
120.420608520508
 21
-91.3845748901367
 31
0.0
  0
LINE
  5
   1FF
  8
0
  6
CONTINUOUS
 62
     7
 10
122.420608520508
 20
-63.1470744421085
 30
0.0
 11
122.420608520508
 21
-91.3845748901367
 31
0.0
  0
LINE
  5
   200
  8
0
  6
CONTINUOUS
 62
     7
 10
121.899664090556
 20
-76.4926516129298
 30
0.0
 11
122.420608520508
 21
-79.4470748901367
 31
0.0
  0
LINE
  5
   201
  8
0
  6
CONTINUOUS
 62
     7
 10
122.420608520508
 20
-79.4470748901367
 30
0.0
 11
122.941552950459
 21
-76.4926516129298
 31
0.0
  0
LINE
  5
   202
  8
0
  6
CONTINUOUS
 62
     7
 10
122.941552950459
 20
-94.3389981673437
 30
0.0
 11
122.420608520508
 21
-91.3845748901367
 31
0.0
  0
LINE
  5
   203
  8
0
  6
CONTINUOUS
 62
     7
 10
122.420608520508
 20
-91.3845748901367
 30
0.0
 11
121.899664090556
 21
-94.3389981673437
 31
0.0
  0
ENDBLK
  5
   204
  8
0
  6
CONTINUOUS
 62
     7
  0
BLOCK
  5
   205
  8
0
  6
CONTINUOUS
 62
     7
  2
*UDIM829
 70
    65
 10
0.0
 20
0.0
 30
0.0
  3
*UDIM829
  0
TEXT
  5
   206
  8
0
  6
CONTINUOUS
 62
     7
 10
139.575295986999
 20
-53.756179805048
 30
0.0
 40
3.00000002980232
  1
70
 50
359.999999896069
 41
0.933333333333333
 72
     1
 11
142.075296014547
 21
-52.2561797946692
 31
0.0
 73
     2
  0
LINE
  5
   207
  8
0
  6
CONTINUOUS
 62
     7
 10
151.100296020508
 20
-59.9332080264515
 30
0.0
 11
151.100296020508
 21
-52.7561798095703
 31
0.0
  0
LINE
  5
   208
  8
0
  6
CONTINUOUS
 62
     7
 10
133.600296020508
 20
-58.9282011697502
 30
0.0
 11
133.600296020508
 21
-52.7561798095703
 31
0.0
  0
LINE
  5
   209
  8
0
  6
CONTINUOUS
 62
     7
 10
151.100296020508
 20
-54.7561798095703
 30
0.0
 11
133.600296020508
 21
-54.7561798095703
 31
0.0
  0
LINE
  5
   20A
  8
0
  6
CONTINUOUS
 62
     7
 10
148.145872743301
 20
-55.277124239522
 30
0.0
 11
151.100296020508
 21
-54.7561798095703
 31
0.0
  0
LINE
  5
   20B
  8
0
  6
CONTINUOUS
 62
     7
 10
151.100296020508
 20
-54.7561798095703
 30
0.0
 11
148.145872743301
 21
-54.2352353796187
 31
0.0
  0
LINE
  5
   20C
  8
0
  6
CONTINUOUS
 62
     7
 10
136.554719297715
 20
-54.2352353796187
 30
0.0
 11
133.600296020508
 21
-54.7561798095703
 31
0.0
  0
LINE
  5
   20D
  8
0
  6
CONTINUOUS
 62
     7
 10
133.600296020508
 20
-54.7561798095703
 30
0.0
 11
136.554719297715
 21
-55.277124239522
 31
0.0
  0
ENDBLK
  5
   20E
  8
0
  6
CONTINUOUS
 62
     7
  0
BLOCK
  5
   20F
  8
0
  6
CONTINUOUS
 62
     7
  2
*UDIM830
 70
    65
 10
0.0
 20
0.0
 30
0.0
  3
*UDIM830
  0
TEXT
  5
   210
  8
0
  6
CONTINUOUS
 62
     7
 10
154.075296374429
 20
-105.533433909662
 30
0.0
 40
3.00000002980232
  1
25
 50
359.999999896069
 41
0.933333333333333
 72
     1
 11
156.575296401978
 21
-104.033433899283
 31
0.0
 73
     2
  0
LINE
  5
   211
  8
0
  6
CONTINUOUS
 62
     7
 10
151.100296020508
 20
-98.2390807247877
 30
0.0
 11
151.100296020508
 21
-108.533433914185
 31
0.0
  0
LINE
  5
   212
  8
0
  6
CONTINUOUS
 62
     7
 10
159.075296426813
 20
-106.533433914185
 30
0.0
 11
144.850296020508
 21
-106.533433914185
 31
0.0
  0
LINE
  5
   213
  8
0
  6
CONTINUOUS
 62
     7
 10
154.054719297715
 20
-106.012489484233
 30
0.0
 11
151.100296020508
 21
-106.533433914185
 31
0.0
  0
LINE
  5
   214
  8
0
  6
CONTINUOUS
 62
     7
 10
151.100296020508
 20
-106.533433914185
 30
0.0
 11
154.054719297715
 21
-107.054378344136
 31
0.0
  0
LINE
  5
   215
  8
0
  6
CONTINUOUS
 62
     7
 10
141.895872743301
 20
-107.054378344136
 30
0.0
 11
144.850296020508
 21
-106.533433914185
 31
0.0
  0
LINE
  5
   216
  8
0
  6
CONTINUOUS
 62
     7
 10
144.850296020508
 20
-106.533433914185
 30
0.0
 11
141.895872743301
 21
-106.012489484233
 31
0.0
  0
ENDBLK
  5
   217
  8
0
  6
CONTINUOUS
 62
     7
  0
BLOCK
  5
   218
  8
0
  6
CONTINUOUS
 62
     7
  2
*UDIM831
 70
    65
 10
0.0
 20
0.0
 30
0.0
  3
*UDIM831
  0
TEXT
  5
   219
  8
0
  6
CONTINUOUS
 62
     7
 10
165.873418800934
 20
-83.05957064094
 30
0.0
 40
3.00000002980232
  1
100
 50
449.999999896069
 41
0.933333333333333
 72
     1
 11
164.373418793082
 21
-79.1595705994855
 31
0.0
 73
     2
  0
LINE
  5
   21A
  8
0
  6
CONTINUOUS
 62
     7
 10
155.64127049286
 20
-66.3845752040532
 30
0.0
 11
168.873418807983
 21
-66.3845793578426
 31
0.0
  0
LINE
  5
   21B
  8
0
  6
CONTINUOUS
 62
     7
 10
155.264392921597
 20
-91.3845752040532
 30
0.0
 11
168.873418807983
 21
-91.3845794761507
 31
0.0
  0
LINE
  5
   21C
  8
0
  6
CONTINUOUS
 62
     7
 10
166.873418807983
 20
-66.3845787300097
 30
0.0
 11
166.873418807983
 21
-91.3845788483177
 31
0.0
  0
LINE
  5
   21D
  8
0
  6
CONTINUOUS
 62
     7
 10
167.394363237935
 20
-69.3390020072166
 30
0.0
 11
166.873418807983
 21
-66.3845787300097
 31
0.0
  0
LINE
  5
   21E
  8
0
  6
CONTINUOUS
 62
     7
 10
166.873418807983
 20
-66.3845787300097
 30
0.0
 11
166.352474378032
 21
-69.3390020072166
 31
0.0
  0
LINE
  5
   21F
  8
0
  6
CONTINUOUS
 62
     7
 10
166.352474378032
 20
-88.4301555711108
 30
0.0
 11
166.873418807983
 21
-91.3845788483177
 31
0.0
  0
LINE
  5
   220
  8
0
  6
CONTINUOUS
 62
     7
 10
166.873418807983
 20
-91.3845788483177
 30
0.0
 11
167.394363237935
 21
-88.4301555711108
 31
0.0
  0
ENDBLK
  5
   221
  8
0
  6
CONTINUOUS
 62
     7
  0
BLOCK
  5
   222
  8
0
  6
CONTINUOUS
 62
     7
  2
*UDIM832
 70
    65
 10
0.0
 20
0.0
 30
0.0
  3
*UDIM832
  0
TEXT
  5
   223
  8
0
  6
CONTINUOUS
 62
     7
 10
99.3557581040779
 20
-111.742158596735
 30
0.0
 40
3.00000002980232
  1
5
 50
392.168847725592
 41
0.933333333333334
 72
     1
 11
99.4882649827882
 21
-109.886776696468
 31
0.0
 73
     2
  0
TEXT
  5
   224
  8
0
  6
CONTINUOUS
 62
     7
 10
96.6893373698455
 20
-113.41926936548
 30
0.0
 40
3.00000002980232
  1
Ø
 50
392.168847725592
 41
0.933333333333334
 72
     1
 11
96.8218442485558
 21
-111.563887465213
 31
0.0
 73
     2
  0
TEXT
  5
   225
  8
0
  6
CONTINUOUS
 62
     7
 10
101.683585745059
 20
-110.278014252876
 30
0.0
 40
3.00000002980232
  1
 (M4)
 50
392.168847725592
 41
0.933333333333333
 72
     1
 11
106.556396188827
 21
-105.441102085419
 31
0.0
 73
     2
  0
LINE
  5
   226
  8
0
  6
CONTINUOUS
 62
     7
 10
134.129347751822
 20
-91.0518148180224
 30
0.0
 11
97.2217534885838
 21
-114.265752135822
 31
0.0
  0
LINE
  5
   227
  8
0
  6
CONTINUOUS
 62
     7
 10
136.352856941843
 20
-89.0378617694402
 30
0.0
 11
134.129347751822
 21
-91.0518148180224
 31
0.0
  0
LINE
  5
   228
  8
0
  6
CONTINUOUS
 62
     7
 10
134.129347751822
 20
-91.0518148180224
 30
0.0
 11
136.907575361293
 21
-89.9198027377102
 31
0.0
  0
LINE
  5
   229
  8
0
  6
CONTINUOUS
 62
     7
 10
130.847735099173
 20
-93.7312880108333
 30
0.0
 11
133.071244289194
 21
-91.717334962251
 31
0.0
  0
LINE
  5
   22A
  8
0
  6
CONTINUOUS
 62
     7
 10
133.071244289194
 20
-91.717334962251
 30
0.0
 11
130.293016679723
 21
-92.8493470425632
 31
0.0
  0
ENDBLK
  5
   22B
  8
0
  6
CONTINUOUS
 62
     7
  0
ENDSEC
  0
SECTION
  2
ENTITIES
  0
LINE
  5
   22C
  8
0
  6
CONTINUOUS
 62
     7
 10
66.7717895507813
 20
-93.4470748901367
 30
0.0
 11
94.7717895507813
 21
-93.4470748901367
 31
0.0
  0
LINE
  5
   22D
  8
0
  6
CONTINUOUS
 62
     7
 10
66.7717895507813
 20
-65.4470748901367
 30
0.0
 11
94.7717895507813
 21
-65.4470748901367
 31
0.0
  0
LINE
  5
   22E
  8
0
  6
CONTINUOUS
 62
     7
 10
66.7717895507813
 20
-65.4470748901367
 30
0.0
 11
66.7717895507813
 21
-93.4470748901367
 31
0.0
  0
LINE
  5
   22F
  8
0
  6
CONTINUOUS
 62
     7
 10
94.7717895507813
 20
-65.4470748901367
 30
0.0
 11
94.7717895507813
 21
-93.4470748901367
 31
0.0
  0
LINE
  5
   230
  8
0
  6
DASHDOT
 62
     7
 10
80.7717895507813
 20
-50.3531116441611
 30
0.0
 11
80.7717895507813
 21
-109.483865167944
 31
0.0
  0
CIRCLE
  5
   231
  8
0
  6
CONTINUOUS
 62
     7
 10
70.7717895507813
 20
-61.6970748901367
 30
0.0
 40
0.875
  0
CIRCLE
  5
   232
  8
0
  6
CONTINUOUS
 62
     7
 10
90.7717895507813
 20
-61.6970748901367
 30
0.0
 40
0.875
  0
CIRCLE
  5
   233
  8
0
  6
CONTINUOUS
 62
     7
 10
90.7717895507813
 20
-97.1970748901367
 30
0.0
 40
0.875
  0
CIRCLE
  5
   234
  8
0
  6
CONTINUOUS
 62
     7
 10
70.7717895507813
 20
-97.1970748901367
 30
0.0
 40
0.875
  0
LINE
  5
   235
  8
0
  6
CONTINUOUS
 62
     3
 10
62.8072938813668
 20
-59.3472745928455
 30
0.0
 11
98.6106631513523
 21
-59.3472745928455
 31
0.0
  0
LINE
  5
   236
  8
0
  6
CONTINUOUS
 62
     3
 10
62.8072938813668
 20
-100.552555717601
 30
0.0
 11
98.6106631513523
 21
-100.552555717601
 31
0.0
  0
LINE
  5
   237
  8
0
  6
CONTINUOUS
 62
     3
 10
98.6106631513523
 20
-59.3472745928455
 30
0.0
 11
98.6106631513523
 21
-100.552555717601
 31
0.0
  0
LINE
  5
   238
  8
0
  6
CONTINUOUS
 62
     3
 10
62.8072938813668
 20
-59.3472745928455
 30
0.0
 11
62.8072938813668
 21
-100.552555717601
 31
0.0
  0
LINE
  5
   239
  8
0
  6
DASHDOT
 62
     7
 10
90.7717895507813
 20
-60.0720748901367
 30
0.0
 11
90.7717895507813
 21
-63.3220748901367
 31
0.0
  0
LINE
  5
   23A
  8
0
  6
DASHDOT
 62
     7
 10
89.1467895507813
 20
-61.6970748901367
 30
0.0
 11
92.3967895507812
 21
-61.6970748901367
 31
0.0
  0
LINE
  5
   23B
  8
0
  6
DASHDOT
 62
     7
 10
70.7717895507813
 20
-60.0720748901367
 30
0.0
 11
70.7717895507813
 21
-63.3220748901367
 31
0.0
  0
LINE
  5
   23C
  8
0
  6
DASHDOT
 62
     7
 10
69.1467895507813
 20
-61.6970748901367
 30
0.0
 11
72.3967895507813
 21
-61.6970748901367
 31
0.0
  0
LINE
  5
   23D
  8
0
  6
DASHDOT
 62
     7
 10
70.7717895507813
 20
-95.5720748901367
 30
0.0
 11
70.7717895507813
 21
-98.8220748901367
 31
0.0
  0
LINE
  5
   23E
  8
0
  6
DASHDOT
 62
     7
 10
69.1467895507813
 20
-97.1970748901367
 30
0.0
 11
72.3967895507813
 21
-97.1970748901367
 31
0.0
  0
LINE
  5
   23F
  8
0
  6
DASHDOT
 62
     7
 10
90.7717895507813
 20
-95.5720748901367
 30
0.0
 11
90.7717895507813
 21
-98.8220748901367
 31
0.0
  0
LINE
  5
   240
  8
0
  6
DASHDOT
 62
     7
 10
89.1467895507813
 20
-97.1970748901367
 30
0.0
 11
92.3967895507812
 21
-97.1970748901367
 31
0.0
  0
LINE
  5
   241
  8
0
  6
DASHDOT
 62
     7
 10
55.4059319974247
 20
-79.4470748901367
 30
0.0
 11
102.464087547231
 21
-79.4470748901367
 31
0.0
  0
INSERT
  5
   242
  8
0
  6
CONTINUOUS
 62
     7
  2
*UDIM799
 10
0.0
 20
0.0
 30
0.0
  0
INSERT
  5
   243
  8
0
  6
CONTINUOUS
 62
     7
  2
*UDIM800
 10
0.0
 20
0.0
 30
0.0
  0
INSERT
  5
   244
  8
0
  6
CONTINUOUS
 62
     7
  2
*UDIM801
 10
0.0
 20
0.0
 30
0.0
  0
INSERT
  5
   245
  8
0
  6
CONTINUOUS
 62
     7
  2
*UDIM802
 10
0.0
 20
0.0
 30
0.0
  0
INSERT
  5
   246
  8
0
  6
CONTINUOUS
 62
     7
  2
*UDIM803
 10
0.0
 20
0.0
 30
0.0
  0
TEXT
  5
   247
  8
0
  6
CONTINUOUS
 62
     7
 10
73.5217855253788
 20
-52.9091971482493
 30
0.0
 40
3.00000002980232
  1
=   =
 50
359.999999844103
 41
0.916666604744064
 72
     2
 11
86.7217847604525
 21
-52.909197184099
 31
0.0
  0
TEXT
  5
   248
  8
0
  6
CONTINUOUS
 62
     7
 10
72.3054360820822
 20
-44.3889163666054
 30
0.0
 40
3.00000002980232
  1
=    =
 50
359.999999844103
 41
0.916666604744064
 72
     2
 11
88.2554351587069
 21
-44.3889164099238
 31
0.0
  0
TEXT
  5
   249
  8
0
  6
CONTINUOUS
 62
     7
 10
54.2130919130878
 20
-89.7109743904024
 30
0.0
 40
3.00000002980232
  1
=     =
 50
449.999999844103
 41
0.916666604744064
 72
     2
 11
54.2130919638514
 21
-71.0109754722267
 31
0.0
  0
TEXT
  5
   24A
  8
0
  6
CONTINUOUS
 62
     7
 10
44.499972158374
 20
-91.8028615475644
 30
0.0
 40
3.00000002980232
  1
=       =
 50
449.999999844103
 41
0.916666604744064
 72
     2
 11
44.4999722240681
 21
-67.6028629462867
 31
0.0
  0
TEXT
  5
   24B
  8
0
  6
CONTINUOUS
 62
     7
 10
79.5800216097605
 20
-112.891979286666
 30
0.0
 40
3.00000002980232
  1
Y
 50
359.999999844103
 41
0.916666604744064
 72
     2
 11
81.7800214786303
 21
-112.891979292641
 31
0.0
  0
TEXT
  5
   24C
  8
0
  6
CONTINUOUS
 62
     7
 10
79.7504272360575
 20
-35.0166054463336
 30
0.0
 40
3.00000002980232
  1
Y
 50
359.999999844103
 41
0.916666604744064
 72
     2
 11
81.9504271049273
 21
-35.0166054523085
 31
0.0
  0
TEXT
  5
   24D
  8
0
  6
CONTINUOUS
 62
     7
 10
31.3552285332453
 20
-80.855719397063
 30
0.0
 40
3.00000002980232
  1
X
 50
359.999999844103
 41
0.916666604744064
 72
     2
 11
33.5552284021151
 21
-80.8557194030379
 31
0.0
  0
LINE
  5
   24E
  8
0
  6
CONTINUOUS
 62
     3
 10
224.01236038208
 20
62.9593989986182
 30
0.0
 11
252.812360811234
 21
62.9593989986182
 31
0.0
  0
LINE
  5
   24F
  8
0
  6
CONTINUOUS
 62
     7
 10
224.01236038208
 20
77.9570753085268
 30
0.0
 11
224.01236038208
 21
129.839388084376
 31
0.0
  0
LINE
  5
   250
  8
0
  6
DASHDOT
 62
     7
 10
203.412360075116
 20
56.0206058864516
 30
0.0
 11
203.412360075116
 21
61.6393931806087
 31
0.0
  0
LINE
  5
   251
  8
0
  6
CONTINUOUS
 62
     7
 10
223.212360370159
 20
125.571236174283
 30
0.0
 11
223.212360370159
 21
125.639381927252
 31
0.0
  0
LINE
  5
   252
  8
0
  6
CONTINUOUS
 62
     7
 10
251.412351635199
 20
104.739392885152
 30
0.0
 11
251.41235938199
 21
101.43938335324
 31
0.0
  0
LINE
  5
   253
  8
0
  6
CONTINUOUS
 62
     7
 10
252.412337116338
 20
123.23939131129
 30
0.0
 11
252.695186234493
 21
123.356548277366
 31
0.0
  0
LINE
  5
   254
  8
0
  6
CONTINUOUS
 62
     7
 10
252.695191331739
 20
123.356539826935
 30
0.0
 11
252.812348306987
 21
123.63938283053
 31
0.0
  0
LINE
  5
   255
  8
0
  6
CONTINUOUS
 62
     7
 10
251.412354250936
 20
120.439393622761
 30
0.0
 11
251.412360354451
 21
123.239393664709
 31
0.0
  0
LINE
  5
   256
  8
0
  6
CONTINUOUS
 62
     7
 10
251.412360790372
 20
123.23939409852
 30
0.0
 11
252.412348598242
 21
123.23939409852
 31
0.0
  0
LINE
  5
   257
  8
0
  6
CONTINUOUS
 62
     7
 10
251.412354686856
 20
104.739393822849
 30
0.0
 11
251.412354686856
 21
120.439394056797
 31
0.0
  0
LINE
  5
   258
  8
0
  6
CONTINUOUS
 62
     7
 10
249.61236076355
 20
84.4393935203552
 30
0.0
 11
249.61236076355
 21
100.639393761754
 31
0.0
  0
LINE
  5
   259
  8
0
  6
CONTINUOUS
 62
     7
 10
249.612372748434
 20
100.639415792612
 30
0.0
 11
249.719550475842
 21
101.039415787618
 31
0.0
  0
LINE
  5
   25A
  8
0
  6
CONTINUOUS
 62
     7
 10
249.71956410284
 20
101.039431009648
 30
0.0
 11
250.012380254409
 21
101.332253257868
 31
0.0
  0
LINE
  5
   25B
  8
0
  6
CONTINUOUS
 62
     7
 10
250.01233885551
 20
101.332205625879
 30
0.0
 11
250.412344943534
 21
101.43938335324
 31
0.0
  0
LINE
  5
   25C
  8
0
  6
CONTINUOUS
 62
     7
 10
249.61236076355
 20
84.4393935203552
 30
0.0
 11
252.812360811234
 21
84.4393935203552
 31
0.0
  0
LINE
  5
   25D
  8
0
  6
CONTINUOUS
 62
     7
 10
252.412313229206
 20
78.8393883218492
 30
0.0
 11
252.812343736375
 21
78.4393883301634
 31
0.0
  0
LINE
  5
   25E
  8
0
  6
CONTINUOUS
 62
     7
 10
252.412322637892
 20
83.2393977449696
 30
0.0
 11
252.812359248181
 21
83.6393977364068
 31
0.0
  0
LINE
  5
   25F
  8
0
  6
CONTINUOUS
 62
     7
 10
227.30519441739
 20
83.2393832853723
 30
0.0
 11
252.41231759425
 21
83.239395492403
 31
0.0
  0
LINE
  5
   260
  8
0
  6
CONTINUOUS
 62
     7
 10
227.305175830317
 20
78.8393934369087
 30
0.0
 11
252.412323421239
 21
78.8393934369087
 31
0.0
  0
LINE
  5
   261
  8
0
  6
CONTINUOUS
 62
     7
 10
225.812358600853
 20
83.6393820505592
 30
0.0
 11
227.305192629741
 21
83.2393759417335
 31
0.0
  0
LINE
  5
   262
  8
0
  6
CONTINUOUS
 62
     7
 10
224.412358562333
 20
84.014511976804
 30
0.0
 11
225.812371538246
 21
83.6393777375115
 31
0.0
  0
LINE
  5
   263
  8
0
  6
CONTINUOUS
 62
     7
 10
224.012360826623
 20
77.9570877730942
 30
0.0
 11
227.305176637284
 21
78.8393936808576
 31
0.0
  0
LINE
  5
   264
  8
0
  6
CONTINUOUS
 62
     7
 10
224.012365582482
 20
84.9571149657315
 30
0.0
 11
224.412364422705
 21
85.0642926931435
 31
0.0
  0
LINE
  5
   265
  8
0
  6
CONTINUOUS
 62
     7
 10
224.01236038208
 20
75.4393872827291
 30
0.0
 11
225.612360024452
 21
75.4393872827291
 31
0.0
  0
LINE
  5
   266
  8
0
  6
CONTINUOUS
 62
     7
 10
225.612360024452
 20
66.639398222336
 30
0.0
 11
225.612360024452
 21
75.4393872827291
 31
0.0
  0
LINE
  5
   267
  8
0
  6
CONTINUOUS
 62
     7
 10
224.412360388041
 20
78.0642591480146
 30
0.0
 11
224.412360388041
 21
95.8393875867127
 31
0.0
  0
LINE
  5
   268
  8
0
  6
CONTINUOUS
 62
     7
 10
225.812360408902
 20
83.6393935084343
 30
0.0
 11
225.812360408902
 21
93.6393936574459
 31
0.0
  0
LINE
  5
   269
  8
0
  6
CONTINUOUS
 62
     7
 10
224.01236000061
 20
95.8393875867127
 30
0.0
 11
225.212359637022
 21
95.8393875867127
 31
0.0
  0
LINE
  5
   26A
  8
0
  6
CONTINUOUS
 62
     7
 10
225.212363757938
 20
95.8393836214624
 30
0.0
 11
225.512364509206
 21
95.75900032591
 31
0.0
  0
LINE
  5
   26B
  8
0
  6
CONTINUOUS
 62
     7
 10
225.212363757938
 20
95.8393836214624
 30
0.0
 11
225.512364509206
 21
95.75900032591
 31
0.0
  0
LINE
  5
   26C
  8
0
  6
CONTINUOUS
 62
     7
 10
225.512361697964
 20
95.7589983056073
 30
0.0
 11
225.731976870711
 21
95.5393816148567
 31
0.0
  0
LINE
  5
   26D
  8
0
  6
CONTINUOUS
 62
     7
 10
225.731969968725
 20
95.5393763359572
 30
0.0
 11
225.812354412034
 21
95.2393763324399
 31
0.0
  0
LINE
  5
   26E
  8
0
  6
CONTINUOUS
 62
     7
 10
225.812367656827
 20
93.6393881738226
 30
0.0
 11
225.812367656827
 21
95.2393820941487
 31
0.0
  0
LINE
  5
   26F
  8
0
  6
CONTINUOUS
 62
     7
 10
225.731978724645
 20
93.3393850104962
 30
0.0
 11
225.770067708837
 21
93.4815358893684
 31
0.0
  0
LINE
  5
   270
  8
0
  6
CONTINUOUS
 62
     7
 10
225.770066975109
 20
93.4815320150149
 30
0.0
 11
225.812362430669
 21
93.6393872393693
 31
0.0
  0
LINE
  5
   271
  8
0
  6
CONTINUOUS
 62
     7
 10
225.512360280839
 20
93.1197564421809
 30
0.0
 11
225.731975824154
 21
93.3393731332558
 31
0.0
  0
LINE
  5
   272
  8
0
  6
CONTINUOUS
 62
     7
 10
225.212355259057
 20
93.0393792340932
 30
0.0
 11
225.512355259385
 21
93.1197625234783
 31
0.0
  0
LINE
  5
   273
  8
0
  6
CONTINUOUS
 62
     7
 10
224.412360388041
 20
93.0393875449895
 30
0.0
 11
225.212360018492
 21
93.0393875449895
 31
0.0
  0
LINE
  5
   274
  8
0
  6
CONTINUOUS
 62
     7
 10
223.212360370159
 20
125.639381927252
 30
0.0
 11
224.01236038208
 21
125.639381927252
 31
0.0
  0
LINE
  5
   275
  8
0
  6
CONTINUOUS
 62
     7
 10
223.212360370159
 20
121.692043001244
 30
0.0
 11
224.01236038208
 21
121.692043001244
 31
0.0
  0
LINE
  5
   276
  8
0
  6
CONTINUOUS
 62
     7
 10
225.812350997197
 20
79.0393888825886
 30
0.0
 11
226.931965764109
 21
78.7393889013334
 31
0.0
  0
LINE
  5
   277
  8
0
  6
CONTINUOUS
 62
     7
 10
225.812347057461
 20
79.0393926960269
 30
0.0
 11
225.812347057461
 21
83.0393927556316
 31
0.0
  0
LINE
  5
   278
  8
0
  6
CONTINUOUS
 62
     7
 10
225.812347174475
 20
83.0393874059305
 30
0.0
 11
226.93197147559
 21
83.3393874077219
 31
0.0
  0
LINE
  5
   279
  8
0
  6
CONTINUOUS
 62
     7
 10
225.731980079614
 20
93.127668104289
 30
0.0
 11
225.812364136436
 21
93.4815377266711
 31
0.0
  0
LINE
  5
   27A
  8
0
  6
CONTINUOUS
 62
     7
 10
225.77006457087
 20
93.4815384304843
 30
0.0
 11
225.812359645963
 21
93.4815384304843
 31
0.0
  0
LINE
  5
   27B
  8
0
  6
CONTINUOUS
 62
     7
 10
225.758769697613
 20
87.8393833454712
 30
0.0
 11
225.812358561695
 21
87.8791660593279
 31
0.0
  0
LINE
  5
   27C
  8
0
  6
CONTINUOUS
 62
     7
 10
225.731977684465
 20
87.8592606562451
 30
0.0
 11
225.758773260919
 21
87.8393693000311
 31
0.0
  0
LINE
  5
   27D
  8
0
  6
CONTINUOUS
 62
     7
 10
225.731975581044
 20
91.8393936306238
 30
0.0
 11
225.812360027432
 21
91.8393936306238
 31
0.0
  0
LINE
  5
   27E
  8
0
  6
CONTINUOUS
 62
     7
 10
225.731973394289
 20
89.4194789423155
 30
0.0
 11
225.758768970743
 21
89.4393702985295
 31
0.0
  0
LINE
  5
   27F
  8
0
  6
CONTINUOUS
 62
     7
 10
225.758772843179
 20
89.4393805836461
 30
0.0
 11
225.812361707261
 21
89.3995978697894
 31
0.0
  0
LINE
  5
   280
  8
0
  6
CONTINUOUS
 62
     7
 10
225.731973318464
 20
92.772131185875
 30
0.0
 11
225.775642814739
 21
92.5282224936237
 31
0.0
  0
LINE
  5
   281
  8
0
  6
CONTINUOUS
 62
     7
 10
225.7756447723
 20
92.5282253207523
 30
0.0
 11
225.812359707321
 21
91.8393947703518
 31
0.0
  0
LINE
  5
   282
  8
0
  6
CONTINUOUS
 62
     7
 10
225.525829891109
 20
87.9002758762326
 30
0.0
 11
225.731973840975
 21
87.8592724621381
 31
0.0
  0
LINE
  5
   283
  8
0
  6
CONTINUOUS
 62
     7
 10
225.512359394067
 20
87.9092809757723
 30
0.0
 11
225.525830997577
 21
87.9002782906856
 31
0.0
  0
LINE
  5
   284
  8
0
  6
CONTINUOUS
 62
     7
 10
225.51235346482
 20
89.3694838926564
 30
0.0
 11
225.525825830805
 21
89.3784865779288
 31
0.0
  0
LINE
  5
   285
  8
0
  6
CONTINUOUS
 62
     7
 10
225.525828468506
 20
89.3784846611904
 30
0.0
 11
225.731971655892
 21
89.4194880689039
 31
0.0
  0
LINE
  5
   286
  8
0
  6
CONTINUOUS
 62
     7
 10
225.512360022962
 20
91.8393936306238
 30
0.0
 11
225.731975581044
 21
91.8393936306238
 31
0.0
  0
LINE
  5
   287
  8
0
  6
CONTINUOUS
 62
     7
 10
225.212358230999
 20
87.9629863844121
 30
0.0
 11
225.512358228507
 21
87.9092754584872
 31
0.0
  0
LINE
  5
   288
  8
0
  6
CONTINUOUS
 62
     7
 10
225.212357766768
 20
89.3157742635919
 30
0.0
 11
225.512357764276
 21
89.3694851895169
 31
0.0
  0
LINE
  5
   289
  8
0
  6
CONTINUOUS
 62
     7
 10
225.212360018492
 20
91.8393936306238
 30
0.0
 11
225.512360022962
 21
91.8393936306238
 31
0.0
  0
LINE
  5
   28A
  8
0
  6
CONTINUOUS
 62
     7
 10
224.412360388041
 20
89.3157790910659
 30
0.0
 11
225.212360018492
 21
89.3157790910659
 31
0.0
  0
LINE
  5
   28B
  8
0
  6
CONTINUOUS
 62
     7
 10
224.412360388041
 20
91.8393936306238
 30
0.0
 11
225.212360018492
 21
91.8393936306238
 31
0.0
  0
LINE
  5
   28C
  8
0
  6
CONTINUOUS
 62
     7
 10
224.412360388041
 20
87.9629958677829
 30
0.0
 11
225.212360018492
 21
87.9629958677829
 31
0.0
  0
LINE
  5
   28D
  8
0
  6
CONTINUOUS
 62
     3
 10
224.01236038208
 20
128.719399062991
 30
0.0
 11
261.69235972333
 21
128.719399062991
 31
0.0
  0
LINE
  5
   28E
  8
0
  6
CONTINUOUS
 62
     3
 10
252.812360811711
 20
62.9593989986182
 30
0.0
 11
261.69235972333
 21
62.9593989986182
 31
0.0
  0
LINE
  5
   28F
  8
0
  6
CONTINUOUS
 62
     3
 10
252.812360811711
 20
62.9593989986182
 30
0.0
 11
252.812360811711
 21
78.7393934354186
 31
0.0
  0
LINE
  5
   290
  8
0
  6
CONTINUOUS
 62
     3
 10
252.812360811712
 20
83.3393874004482
 30
0.0
 11
252.812360811712
 21
84.4394179344181
 31
0.0
  0
LINE
  5
   291
  8
0
  6
CONTINUOUS
 62
     3
 10
252.812360811234
 20
123.639413018563
 30
0.0
 11
252.812360811234
 21
129.839394196868
 31
0.0
  0
LINE
  5
   292
  8
0
  6
CONTINUOUS
 62
     3
 10
264.612360987544
 20
101.01894088655
 30
0.0
 11
264.612360987544
 21
104.839265650509
 31
0.0
  0
LINE
  5
   293
  8
0
  6
CONTINUOUS
 62
     3
 10
264.61233933599
 20
80.6595625921297
 30
0.0
 11
264.612357646536
 21
78.039274848562
 31
0.0
  0
LINE
  5
   294
  8
0
  6
CONTINUOUS
 62
     3
 10
261.69235972333
 20
123.339400203526
 30
0.0
 11
262.812360960722
 21
123.339400203526
 31
0.0
  0
LINE
  5
   295
  8
0
  6
CONTINUOUS
 62
     3
 10
261.69235972333
 20
62.9594005244971
 30
0.0
 11
261.69235972333
 21
71.7394004482461
 31
0.0
  0
LINE
  5
   296
  8
0
  6
CONTINUOUS
 62
     3
 10
252.812359588185
 20
83.339393503964
 30
0.0
 11
261.692358499804
 21
83.339393503964
 31
0.0
  0
LINE
  5
   297
  8
0
  6
CONTINUOUS
 62
     3
 10
252.812359864349
 20
78.7393934354186
 30
0.0
 11
261.692358775968
 21
78.7393934354186
 31
0.0
  0
LINE
  5
   298
  8
0
  6
CONTINUOUS
 62
     1
 10
261.69235972333
 20
120.139394052327
 30
0.0
 11
263.812360594153
 21
120.139394052327
 31
0.0
  0
LINE
  5
   299
  8
0
  6
CONTINUOUS
 62
     1
 10
262.612360957742
 20
71.7393998160959
 30
0.0
 11
262.812360960722
 21
71.7393998160959
 31
0.0
  0
LINE
  5
   29A
  8
0
  6
CONTINUOUS
 62
     1
 10
261.69235972333
 20
71.739400448246
 30
0.0
 11
262.812360960722
 21
71.7394001430699
 31
0.0
  0
LINE
  5
   29B
  8
0
  6
CONTINUOUS
 62
     2
 10
268.212885169394
 20
74.139393748343
 30
0.0
 11
268.212885169394
 21
74.9393926158547
 31
0.0
  0
LINE
  5
   29C
  8
0
  6
CONTINUOUS
 62
     2
 10
264.612885139592
 20
73.939393365355
 30
0.0
 11
264.612885139592
 21
115.939393991204
 31
0.0
  0
LINE
  5
   29D
  8
0
  6
CONTINUOUS
 62
     2
 10
263.812360594153
 20
115.939393989742
 30
0.0
 11
266.012828393763
 21
115.939393989742
 31
0.0
  0
LINE
  5
   29E
  8
0
  6
CONTINUOUS
 62
     2
 10
263.812360594153
 20
73.939393364837
 30
0.0
 11
266.012828393763
 21
73.939393364837
 31
0.0
  0
LINE
  5
   29F
  8
0
  6
CONTINUOUS
 62
     2
 10
268.212862418982
 20
81.3393870447337
 30
0.0
 11
268.212884925696
 21
74.1393930410041
 31
0.0
  0
LINE
  5
   2A0
  8
0
  6
CONTINUOUS
 62
     2
 10
268.212807302194
 20
86.5393873054319
 30
0.0
 11
268.212861089426
 21
81.7393872339811
 31
0.0
  0
LINE
  5
   2A1
  8
0
  6
CONTINUOUS
 62
     2
 10
268.212884024985
 20
86.9393933717638
 30
0.0
 11
268.212884024985
 21
94.7393873844772
 31
0.0
  0
LINE
  5
   2A2
  8
0
  6
CONTINUOUS
 62
     2
 10
268.212804424951
 20
86.9393831484606
 30
0.0
 11
268.212825787255
 21
94.7393832651863
 31
0.0
  0
LINE
  5
   2A3
  8
0
  6
CONTINUOUS
 62
     2
 10
268.212741801304
 20
99.9393863498237
 30
0.0
 11
268.212824961659
 21
95.1393862783465
 31
0.0
  0
LINE
  5
   2A4
  8
0
  6
CONTINUOUS
 62
     7
 10
250.412344943534
 20
101.43938335324
 30
0.0
 11
251.412357738714
 21
101.43938335324
 31
0.0
  0
LINE
  5
   2A5
  8
0
  6
CONTINUOUS
 62
     7
 10
263.812360594153
 20
115.939393989742
 30
0.0
 11
263.812360594153
 21
120.139394052327
 31
0.0
  0
LINE
  5
   2A6
  8
0
  6
CONTINUOUS
 62
     7
 10
263.812360594153
 20
71.7393998705916
 30
0.0
 11
263.812360594153
 21
73.939393364837
 31
0.0
  0
LINE
  5
   2A7
  8
0
  6
CONTINUOUS
 62
     2
 10
261.69235972333
 20
120.139394052327
 30
0.0
 11
261.69235972333
 21
120.239398936629
 31
0.0
  0
LINE
  5
   2A8
  8
0
  6
CONTINUOUS
 62
     3
 10
261.69235972333
 20
71.7394004482461
 30
0.0
 11
261.69235972333
 21
120.139394052327
 31
0.0
  0
ARC
  5
   2A9
  8
0
  6
CONTINUOUS
 62
     7
 10
276.482777087689
 20
86.1218408851968
 30
0.0
 40
0.399999924262788
 50
348.623601768641
 51
436.688817106542
  0
ARC
  5
   2AA
  8
0
  6
CONTINUOUS
 62
     7
 10
276.004080497717
 20
83.7427134257059
 30
0.0
 40
0.400000304059165
 50
260.594020595617
 51
348.623601768641
  0
LINE
  5
   2AB
  8
0
  6
DASHDOT
 62
     7
 10
262.356335363543
 20
87.7119055436982
 30
0.0
 11
282.403012245454
 21
83.6783792675618
 31
0.0
  0
LINE
  5
   2AC
  8
0
  6
CONTINUOUS
 62
     7
 10
268.212808670414
 20
88.489525702159
 30
0.0
 11
276.574872874352
 21
86.5110941123214
 31
0.0
  0
LINE
  5
   2AD
  8
0
  6
CONTINUOUS
 62
     7
 10
276.396221698502
 20
83.6638119775188
 30
0.0
 11
276.874918157039
 21
86.0429394634552
 31
0.0
  0
LINE
  5
   2AE
  8
0
  6
CONTINUOUS
 62
     7
 10
268.212828721351
 20
84.627930765576
 30
0.0
 11
275.938708901112
 21
83.3480912091852
 31
0.0
  0
LINE
  5
   2AF
  8
0
  6
DASHDOT
 62
     7
 10
202.212360057235
 20
55.6733923469825
 30
0.0
 11
202.212360057235
 21
61.6393931806087
 31
0.0
  0
ARC
  5
   2B0
  8
0
  6
DASHDOT
 62
     7
 10
246.812679877069
 20
90.8393936157227
 30
0.0
 40
30.4177082930624
 50
337.492314756863
 51
360.0
  0
LINE
  5
   2B1
  8
0
  6
DASHDOT
 62
     7
 10
277.230388170132
 20
90.8393936157226
 30
0.0
 11
277.230388170132
 21
93.1394735038915
 31
0.0
  0
LINE
  5
   2B2
  8
0
  6
CONTINUOUS
 62
     1
 10
266.012828393763
 20
72.9393933489919
 30
0.0
 11
266.012828393763
 21
73.7393933609128
 31
0.0
  0
LINE
  5
   2B3
  8
0
  6
CONTINUOUS
 62
     1
 10
266.012828393763
 20
72.9393933489919
 30
0.0
 11
266.812828405684
 21
72.9393933489919
 31
0.0
  0
LINE
  5
   2B4
  8
0
  6
CONTINUOUS
 62
     1
 10
266.012828393763
 20
116.139392466843
 30
0.0
 11
266.012828393763
 21
116.939392478764
 31
0.0
  0
LINE
  5
   2B5
  8
0
  6
CONTINUOUS
 62
     1
 10
266.012828393763
 20
116.939392478764
 30
0.0
 11
266.812828405684
 21
116.939392478764
 31
0.0
  0
LINE
  5
   2B6
  8
0
  6
CONTINUOUS
 62
     1
 10
266.012828393763
 20
73.7393933609128
 30
0.0
 11
266.012828393763
 21
116.139393992722
 31
0.0
  0
LINE
  5
   2B7
  8
0
  6
CONTINUOUS
 62
     1
 10
264.212828438466
 20
122.370331280394
 30
0.0
 11
264.212828438466
 21
124.308453867869
 31
0.0
  0
LINE
  5
   2B8
  8
0
  6
CONTINUOUS
 62
     1
 10
264.212828438466
 20
65.5703334857664
 30
0.0
 11
264.212828438466
 21
67.5084530214825
 31
0.0
  0
LINE
  5
   2B9
  8
0
  6
CONTINUOUS
 62
     1
 10
266.812828405684
 20
62.739393197
 30
0.0
 11
266.812828405684
 21
127.139394156635
 31
0.0
  0
LINE
  5
   2BA
  8
0
  6
CONTINUOUS
 62
     1
 10
268.212828426545
 20
62.739393197
 30
0.0
 11
268.212828426545
 21
127.139394156635
 31
0.0
  0
LINE
  5
   2BB
  8
0
  6
CONTINUOUS
 62
     1
 10
264.612828411982
 20
122.13939255625
 30
0.0
 11
266.812828405684
 21
122.13939255625
 31
0.0
  0
LINE
  5
   2BC
  8
0
  6
CONTINUOUS
 62
     1
 10
264.61282845851
 20
124.539392592013
 30
0.0
 11
266.812828405684
 21
124.539392592013
 31
0.0
  0
LINE
  5
   2BD
  8
0
  6
CONTINUOUS
 62
     1
 10
264.212828742904
 20
122.370330364465
 30
0.0
 11
264.612828762035
 21
122.139391637425
 31
0.0
  0
LINE
  5
   2BE
  8
0
  6
CONTINUOUS
 62
     1
 10
264.612828336002
 20
122.13939255625
 30
0.0
 11
264.612828336002
 21
122.230737772455
 31
0.0
  0
LINE
  5
   2BF
  8
0
  6
CONTINUOUS
 62
     1
 10
264.612828411982
 20
122.13939255625
 30
0.0
 11
264.612828411982
 21
122.490863508753
 31
0.0
  0
LINE
  5
   2C0
  8
0
  6
CONTINUOUS
 62
     1
 10
264.612828429827
 20
122.490863508753
 30
0.0
 11
264.612828429827
 21
122.880176258695
 31
0.0
  0
LINE
  5
   2C1
  8
0
  6
CONTINUOUS
 62
     1
 10
264.612828439747
 20
122.880176258695
 30
0.0
 11
264.612828439747
 21
123.339392574131
 31
0.0
  0
LINE
  5
   2C2
  8
0
  6
CONTINUOUS
 62
     1
 10
264.612828448464
 20
123.339392574131
 30
0.0
 11
264.612828448464
 21
123.798614993084
 31
0.0
  0
LINE
  5
   2C3
  8
0
  6
CONTINUOUS
 62
     1
 10
264.61282845851
 20
123.798614993084
 30
0.0
 11
264.61282845851
 21
124.539392592013
 31
0.0
  0
LINE
  5
   2C4
  8
0
  6
CONTINUOUS
 62
     1
 10
264.612828476778
 20
124.18792163951
 30
0.0
 11
264.612828476778
 21
124.448047375808
 31
0.0
  0
LINE
  5
   2C5
  8
0
  6
CONTINUOUS
 62
     1
 10
264.212828095594
 20
124.308452915173
 30
0.0
 11
264.612828114726
 21
124.539391642213
 31
0.0
  0
LINE
  5
   2C6
  8
0
  6
CONTINUOUS
 62
     1
 10
264.612828555121
 20
124.448047375808
 30
0.0
 11
264.612828555121
 21
124.539392592013
 31
0.0
  0
LINE
  5
   2C7
  8
0
  6
CONTINUOUS
 62
     1
 10
264.612829245789
 20
67.7393932715058
 30
0.0
 11
266.812828405684
 21
67.7393932715058
 31
0.0
  0
LINE
  5
   2C8
  8
0
  6
CONTINUOUS
 62
     1
 10
264.612827772366
 20
65.3393932357431
 30
0.0
 11
266.812828405684
 21
65.3393932357431
 31
0.0
  0
LINE
  5
   2C9
  8
0
  6
CONTINUOUS
 62
     1
 10
264.612828482484
 20
67.6480480553009
 30
0.0
 11
264.612828482484
 21
67.7393932715058
 31
0.0
  0
LINE
  5
   2CA
  8
0
  6
CONTINUOUS
 62
     1
 10
264.212828234404
 20
67.5084524613818
 30
0.0
 11
264.612828253536
 21
67.7393926986283
 31
0.0
  0
LINE
  5
   2CB
  8
0
  6
CONTINUOUS
 62
     1
 10
264.612828464673
 20
67.3879207931239
 30
0.0
 11
264.612828464673
 21
67.6480480553009
 31
0.0
  0
LINE
  5
   2CC
  8
0
  6
CONTINUOUS
 62
     1
 10
264.612828460645
 20
66.9986141466978
 30
0.0
 11
264.612828460645
 21
67.3879207931239
 31
0.0
  0
LINE
  5
   2CD
  8
0
  6
CONTINUOUS
 62
     1
 10
264.612828458395
 20
66.5393932536244
 30
0.0
 11
264.612828458395
 21
66.9986141466978
 31
0.0
  0
LINE
  5
   2CE
  8
0
  6
CONTINUOUS
 62
     1
 10
264.612828456468
 20
66.08017388643
 30
0.0
 11
264.612828456468
 21
66.5393932536244
 31
0.0
  0
LINE
  5
   2CF
  8
0
  6
CONTINUOUS
 62
     1
 10
264.612828454407
 20
65.6908657141249
 30
0.0
 11
264.612828454407
 21
66.08017388643
 31
0.0
  0
LINE
  5
   2D0
  8
0
  6
CONTINUOUS
 62
     1
 10
264.61282845072
 20
65.4307384519479
 30
0.0
 11
264.61282845072
 21
65.6908657141249
 31
0.0
  0
LINE
  5
   2D1
  8
0
  6
CONTINUOUS
 62
     1
 10
264.61282843529
 20
65.3393932357431
 30
0.0
 11
264.61282843529
 21
65.430738451948
 31
0.0
  0
LINE
  5
   2D2
  8
0
  6
CONTINUOUS
 62
     1
 10
264.21282860367
 20
65.5703329819899
 30
0.0
 11
264.612828622802
 21
65.3393927447434
 31
0.0
  0
LINE
  5
   2D3
  8
0
  6
CONTINUOUS
 62
     7
 10
266.812828405684
 20
127.139394156635
 30
0.0
 11
266.812828405684
 21
172.33714160859
 31
0.0
  0
LINE
  5
   2D4
  8
0
  6
CONTINUOUS
 62
     7
 10
266.012828393763
 20
116.139393992722
 30
0.0
 11
266.012828393763
 21
122.13939255625
 31
0.0
  0
LINE
  5
   2D5
  8
0
  6
CONTINUOUS
 62
     7
 10
266.812828405684
 20
44.3502444298027
 30
0.0
 11
266.812828405684
 21
62.739393197
 31
0.0
  0
LINE
  5
   2D6
  8
0
  6
CONTINUOUS
 62
     7
 10
266.012828393763
 20
43.7745434866447
 30
0.0
 11
266.012828393763
 21
65.3393932357431
 31
0.0
  0
LINE
  5
   2D7
  8
0
  6
CONTINUOUS
 62
     3
 10
264.504763609054
 20
42.6893006041905
 30
0.0
 11
268.394331881227
 21
45.4883357159412
 31
0.0
  0
LINE
  5
   2D8
  8
0
  6
CONTINUOUS
 62
     7
 10
266.012828393763
 20
124.739392594993
 30
0.0
 11
266.812828405684
 21
124.739392594993
 31
0.0
  0
LINE
  5
   2D9
  8
0
  6
CONTINUOUS
 62
     7
 10
266.012828393763
 20
121.93939255327
 30
0.0
 11
266.812828405684
 21
121.93939255327
 31
0.0
  0
LINE
  5
   2DA
  8
0
  6
CONTINUOUS
 62
     7
 10
266.012828393763
 20
117.339392484725
 30
0.0
 11
266.812828405684
 21
117.339392484725
 31
0.0
  0
LINE
  5
   2DB
  8
0
  6
CONTINUOUS
 62
     7
 10
266.012828393763
 20
72.5393933430314
 30
0.0
 11
266.812828405684
 21
72.5393933430314
 31
0.0
  0
LINE
  5
   2DC
  8
0
  6
CONTINUOUS
 62
     7
 10
266.012828393763
 20
67.9393932744861
 30
0.0
 11
266.812828405684
 21
67.9393932744861
 31
0.0
  0
LINE
  5
   2DD
  8
0
  6
CONTINUOUS
 62
     7
 10
266.012828393763
 20
65.1393932327628
 30
0.0
 11
266.812828405684
 21
65.1393932327628
 31
0.0
  0
LINE
  5
   2DE
  8
0
  6
CONTINUOUS
 62
     7
 10
266.012828393763
 20
67.7393932715058
 30
0.0
 11
266.012828393763
 21
72.9393933489919
 31
0.0
  0
LINE
  5
   2DF
  8
0
  6
CONTINUOUS
 62
     7
 10
266.012828393763
 20
124.539392592013
 30
0.0
 11
266.012828393763
 21
172.414300172916
 31
0.0
  0
INSERT
  5
   2E0
  8
0
  6
CONTINUOUS
 62
     7
  2
*HATCH253
 10
224.012359619141
 20
90.8393936157227
 30
0.0
 41
0.400000005960464
 42
0.400000005960464
 43
0.400000005960464
  0
INSERT
  5
   2E1
  8
0
  6
CONTINUOUS
 62
     7
  2
*HATCH254
 10
224.012359619141
 20
90.8393936157227
 30
0.0
 41
0.400000005960464
 42
0.400000005960464
 43
0.400000005960464
  0
INSERT
  5
   2E2
  8
0
  6
CONTINUOUS
 62
     7
  2
*HATCH255
 10
224.012359619141
 20
90.8393936157227
 30
0.0
 41
0.400000005960464
 42
0.400000005960464
 43
0.400000005960464
  0
LINE
  5
   2E3
  8
0
  6
DASHDOT
 62
     7
 10
178.018320723692
 20
94.9393936768174
 30
0.0
 11
279.695020576328
 21
94.9393936768174
 31
0.0
  0
LINE
  5
   2E4
  8
0
  6
CONTINUOUS
 62
     1
 10
266.812828405684
 20
127.139394156635
 30
0.0
 11
268.212828426545
 21
127.139394156635
 31
0.0
  0
LINE
  5
   2E5
  8
0
  6
CONTINUOUS
 62
     1
 10
266.812828405684
 20
62.739393197
 30
0.0
 11
268.212828426545
 21
62.739393197
 31
0.0
  0
LINE
  5
   2E6
  8
0
  6
CONTINUOUS
 62
     3
 10
263.699304419352
 20
172.637435405092
 30
0.0
 11
269.343996840453
 21
172.093014959109
 31
0.0
  0
INSERT
  5
   2E7
  8
0
  6
CONTINUOUS
 62
     7
  2
*HATCH256
 10
224.012359619141
 20
90.8393936157227
 30
0.0
 41
0.400000005960464
 42
0.400000005960464
 43
0.400000005960464
  0
LINE
  5
   2E8
  8
0
  6
CONTINUOUS
 62
   130
 10
224.01236038208
 20
162.599398347139
 30
0.0
 11
252.812360811234
 21
162.599398347139
 31
0.0
  0
LINE
  5
   2E9
  8
0
  6
CONTINUOUS
 62
   130
 10
252.812360811234
 20
157.119399486184
 30
0.0
 11
252.812360811234
 21
162.839399655828
 31
0.0
  0
LINE
  5
   2EA
  8
0
  6
CONTINUOUS
 62
   130
 10
252.812360811234
 20
128.839399149188
 30
0.0
 11
252.812360811234
 21
130.3195028466
 31
0.0
  0
LINE
  5
   2EB
  8
0
  6
CONTINUOUS
 62
   130
 10
224.01236038208
 20
128.839399149188
 30
0.0
 11
224.01236038208
 21
164.83939968563
 31
0.0
  0
LINE
  5
   2EC
  8
0
  6
CONTINUOUS
 62
   130
 10
224.01236038208
 20
150.119399381876
 30
0.0
 11
225.612360405922
 21
150.119399381876
 31
0.0
  0
LINE
  5
   2ED
  8
0
  6
CONTINUOUS
 62
   130
 10
225.612360405922
 20
150.119399381876
 30
0.0
 11
225.612360405922
 21
159.039399599203
 31
0.0
  0
LINE
  5
   2EE
  8
0
  6
CONTINUOUS
 62
   130
 10
251.412360790372
 20
154.319399444461
 30
0.0
 11
251.452360180616
 21
154.319399444461
 31
0.0
  0
LINE
  5
   2EF
  8
0
  6
CONTINUOUS
 62
   130
 10
251.412360790372
 20
157.119399486184
 30
0.0
 11
252.812360811234
 21
157.119399486184
 31
0.0
  0
LINE
  5
   2F0
  8
0
  6
CONTINUOUS
 62
   130
 10
251.412360790372
 20
130.319435707927
 30
0.0
 11
252.812360811234
 21
130.319435707927
 31
0.0
  0
LINE
  5
   2F1
  8
0
  6
CONTINUOUS
 62
   130
 10
251.412360790372
 20
133.119435749651
 30
0.0
 11
251.452360180616
 21
133.119435749651
 31
0.0
  0
LINE
  5
   2F2
  8
0
  6
CONTINUOUS
 62
   130
 10
251.412360790372
 20
130.319435707927
 30
0.0
 11
251.412360790372
 21
157.119399486184
 31
0.0
  0
LINE
  5
   2F3
  8
0
  6
CONTINUOUS
 62
   210
 10
252.812360811234
 20
162.599398347139
 30
0.0
 11
261.692359722853
 21
162.599398347139
 31
0.0
  0
LINE
  5
   2F4
  8
0
  6
CONTINUOUS
 62
   210
 10
252.812360811234
 20
130.319435707927
 30
0.0
 11
252.812360811234
 21
130.419399088323
 31
0.0
  0
LINE
  5
   2F5
  8
0
  6
CONTINUOUS
 62
   210
 10
252.812360811234
 20
157.019399484694
 30
0.0
 11
252.812360811234
 21
157.119399486184
 31
0.0
  0
LINE
  5
   2F6
  8
0
  6
CONTINUOUS
 62
   210
 10
261.692359722853
 20
133.219399130046
 30
0.0
 11
261.812360945344
 21
133.219399130046
 31
0.0
  0
LINE
  5
   2F7
  8
0
  6
CONTINUOUS
 62
   210
 10
261.692359722853
 20
130.219399085343
 30
0.0
 11
261.812360945344
 21
130.219399085343
 31
0.0
  0
LINE
  5
   2F8
  8
0
  6
CONTINUOUS
 62
   210
 10
261.692359722853
 20
129.719399077892
 30
0.0
 11
261.812360945344
 21
129.719399077892
 31
0.0
  0
LINE
  5
   2F9
  8
0
  6
CONTINUOUS
 62
   210
 10
261.692359722853
 20
129.839399164089
 30
0.0
 11
261.692359722853
 21
162.599398347139
 31
0.0
  0
LINE
  5
   2FA
  8
0
  6
CONTINUOUS
 62
   210
 10
251.652360183597
 20
130.419399088323
 30
0.0
 11
252.812360811234
 21
130.419399088323
 31
0.0
  0
LINE
  5
   2FB
  8
0
  6
CONTINUOUS
 62
   210
 10
251.51093938276
 20
130.477982368678
 30
0.0
 11
251.652360896378
 21
130.419400824532
 31
0.0
  0
LINE
  5
   2FC
  8
0
  6
CONTINUOUS
 62
   210
 10
251.452359772375
 20
130.619393095498
 30
0.0
 11
251.510938264545
 21
130.477974639951
 31
0.0
  0
LINE
  5
   2FD
  8
0
  6
CONTINUOUS
 62
   210
 10
251.452360180616
 20
130.619399091303
 30
0.0
 11
251.452360180616
 21
132.819399124086
 31
0.0
  0
LINE
  5
   2FE
  8
0
  6
CONTINUOUS
 62
   210
 10
251.452360180616
 20
154.619399448931
 30
0.0
 11
251.452360180616
 21
156.819399481714
 31
0.0
  0
LINE
  5
   2FF
  8
0
  6
CONTINUOUS
 62
   210
 10
251.452356813189
 20
156.819389984723
 30
0.0
 11
251.510935305359
 21
156.96080844027
 31
0.0
  0
LINE
  5
   300
  8
0
  6
CONTINUOUS
 62
   210
 10
251.510940845797
 20
156.960820948329
 30
0.0
 11
251.652362359415
 21
157.019402492474
 31
0.0
  0
LINE
  5
   301
  8
0
  6
CONTINUOUS
 62
   210
 10
251.652360183597
 20
157.019399484694
 30
0.0
 11
252.812360811234
 21
157.019399484694
 31
0.0
  0
LINE
  5
   302
  8
0
  6
CONTINUOUS
 62
   210
 10
251.452360180616
 20
132.819399124086
 30
0.0
 11
251.452360180616
 21
154.619399448931
 31
0.0
  0
LINE
  5
   303
  8
0
  6
CONTINUOUS
 62
     2
 10
261.812360945344
 20
120.239398936629
 30
0.0
 11
261.812360945344
 21
154.039399440289
 31
0.0
  0
LINE
  5
   304
  8
0
  6
CONTINUOUS
 62
     2
 10
263.812360975146
 20
120.63939894259
 30
0.0
 11
263.812360975146
 21
148.639399359822
 31
0.0
  0
LINE
  5
   305
  8
0
  6
CONTINUOUS
 62
     2
 10
263.812360975146
 20
149.039399365783
 30
0.0
 11
263.812360975146
 21
154.039399440289
 31
0.0
  0
LINE
  5
   306
  8
0
  6
CONTINUOUS
 62
     2
 10
261.812360945344
 20
154.039399440289
 30
0.0
 11
262.812360960245
 21
154.039399440289
 31
0.0
  0
LINE
  5
   307
  8
0
  6
CONTINUOUS
 62
     2
 10
261.812360945344
 20
120.239398936629
 30
0.0
 11
263.412360969186
 21
120.239398936629
 31
0.0
  0
LINE
  5
   308
  8
0
  6
CONTINUOUS
 62
     2
 10
263.412360969186
 20
149.039399365783
 30
0.0
 11
263.812360975146
 21
149.039399365783
 31
0.0
  0
LINE
  5
   309
  8
0
  6
CONTINUOUS
 62
     2
 10
263.412360969186
 20
148.639399359822
 30
0.0
 11
263.812360975146
 21
148.639399359822
 31
0.0
  0
LINE
  5
   30A
  8
0
  6
CONTINUOUS
 62
     2
 10
263.412360969186
 20
148.639399359822
 30
0.0
 11
263.412360969186
 21
149.039399365783
 31
0.0
  0
LINE
  5
   30B
  8
0
  6
CONTINUOUS
 62
     2
 10
263.412360969186
 20
120.239398936629
 30
0.0
 11
263.412360969186
 21
120.63939894259
 31
0.0
  0
LINE
  5
   30C
  8
0
  6
CONTINUOUS
 62
     2
 10
262.012360948324
 20
120.63939894259
 30
0.0
 11
263.412360969186
 21
120.63939894259
 31
0.0
  0
LINE
  5
   30D
  8
0
  6
CONTINUOUS
 62
     2
 10
262.012360948324
 20
120.63939894259
 30
0.0
 11
262.012360948324
 21
154.039399440289
 31
0.0
  0
LINE
  5
   30E
  8
0
  6
CONTINUOUS
 62
   210
 10
261.692358833932
 20
134.419397725259
 30
0.0
 11
261.812357005897
 21
134.3666145204
 31
0.0
  0
LINE
  5
   30F
  8
0
  6
CONTINUOUS
 62
   210
 10
261.69236136912
 20
153.019401322335
 30
0.0
 11
261.812362594573
 21
153.072184525136
 31
0.0
  0
LINE
  5
   310
  8
0
  6
CONTINUOUS
 62
     2
 10
263.412360969186
 20
120.63939894259
 30
0.0
 11
263.812360975146
 21
120.63939894259
 31
0.0
  0
LINE
  5
   311
  8
0
  6
CONTINUOUS
 62
     2
 10
262.812360960245
 20
154.039399440289
 30
0.0
 11
263.412360969186
 21
154.039399440289
 31
0.0
  0
LINE
  5
   312
  8
0
  6
CONTINUOUS
 62
   130
 10
224.01236038208
 20
128.839399149188
 30
0.0
 11
261.812360945344
 21
128.839399149188
 31
0.0
  0
LINE
  5
   313
  8
0
  6
CONTINUOUS
 62
     7
 10
263.812360975146
 20
154.439399446249
 30
0.0
 11
263.812360975146
 21
164.339399678179
 31
0.0
  0
ARC
  5
   314
  8
0
  6
CONTINUOUS
 62
     7
 10
263.312360967696
 20
164.339399678179
 30
0.0
 40
0.500000007450581
 50
0.0
 51
90.0
  0
LINE
  5
   315
  8
0
  6
CONTINUOUS
 62
     7
 10
261.812360945344
 20
154.039399440289
 30
0.0
 11
261.812360945344
 21
162.839399655828
 31
0.0
  0
LINE
  5
   316
  8
0
  6
CONTINUOUS
 62
     7
 10
224.01236038208
 20
162.839399655828
 30
0.0
 11
261.812360945344
 21
162.839399655828
 31
0.0
  0
LINE
  5
   317
  8
0
  6
CONTINUOUS
 62
     7
 10
224.01236038208
 20
163.039399658808
 30
0.0
 11
262.012360948324
 21
163.039399658808
 31
0.0
  0
LINE
  5
   318
  8
0
  6
CONTINUOUS
 62
     7
 10
262.012360948324
 20
154.439399446249
 30
0.0
 11
262.012360948324
 21
163.039399658808
 31
0.0
  0
LINE
  5
   319
  8
0
  6
CONTINUOUS
 62
     7
 10
262.012360948324
 20
154.439399446249
 30
0.0
 11
263.412360969186
 21
154.439399446249
 31
0.0
  0
LINE
  5
   31A
  8
0
  6
CONTINUOUS
 62
     7
 10
263.412360969186
 20
154.0418966006
 30
0.0
 11
263.412360969186
 21
154.439399446249
 31
0.0
  0
LINE
  5
   31B
  8
0
  6
CONTINUOUS
 62
     7
 10
224.01236038208
 20
164.83939968563
 30
0.0
 11
263.312360967696
 21
164.83939968563
 31
0.0
  0
LINE
  5
   31C
  8
0
  6
CONTINUOUS
 62
     7
 10
263.412360969186
 20
154.439399446249
 30
0.0
 11
263.812360975146
 21
154.439399446249
 31
0.0
  0
LINE
  5
   31D
  8
0
  6
CONTINUOUS
 62
     2
 10
263.412360969186
 20
154.039399440289
 30
0.0
 11
263.812360975146
 21
154.039399440289
 31
0.0
  0
LINE
  5
   31E
  8
0
  6
CONTINUOUS
 62
     2
 10
261.69235972333
 20
120.239398936629
 30
0.0
 11
261.69235972333
 21
128.719399062991
 31
0.0
  0
LINE
  5
   31F
  8
0
  6
CONTINUOUS
 62
     1
 10
262.812360960722
 20
71.7394001430699
 30
0.0
 11
263.812360594153
 21
71.7393998705916
 31
0.0
  0
LINE
  5
   320
  8
0
  6
CONTINUOUS
 62
     7
 10
224.01236038208
 20
60.8393981359092
 30
0.0
 11
263.312360967696
 21
60.8393981359092
 31
0.0
  0
LINE
  5
   321
  8
0
  6
CONTINUOUS
 62
     7
 10
224.01236038208
 20
62.6393981627313
 30
0.0
 11
262.012360948324
 21
62.6393981627313
 31
0.0
  0
LINE
  5
   322
  8
0
  6
CONTINUOUS
 62
     7
 10
224.01236038208
 20
62.8393981657115
 30
0.0
 11
261.812360945344
 21
62.8393981657115
 31
0.0
  0
LINE
  5
   323
  8
0
  6
CONTINUOUS
 62
   210
 10
261.692359722853
 20
63.0793994743998
 30
0.0
 11
261.692359722853
 21
71.7394004482461
 31
0.0
  0
LINE
  5
   324
  8
0
  6
CONTINUOUS
 62
     7
 10
261.812360945344
 20
62.8393981657115
 30
0.0
 11
261.812360945344
 21
71.6393983812506
 31
0.0
  0
LINE
  5
   325
  8
0
  6
CONTINUOUS
 62
     7
 10
262.012360948324
 20
62.6393981627313
 30
0.0
 11
262.012360948324
 21
71.2393983752901
 31
0.0
  0
LINE
  5
   326
  8
0
  6
CONTINUOUS
 62
     7
 10
262.012360948324
 20
71.2393983752901
 30
0.0
 11
263.412360969186
 21
71.2393983752901
 31
0.0
  0
LINE
  5
   327
  8
0
  6
CONTINUOUS
 62
     7
 10
263.412360969186
 20
71.2393983752901
 30
0.0
 11
263.412360969186
 21
71.6369012209391
 31
0.0
  0
LINE
  5
   328
  8
0
  6
CONTINUOUS
 62
     7
 10
263.412360969186
 20
71.2393983752901
 30
0.0
 11
263.812360975146
 21
71.2393983752901
 31
0.0
  0
LINE
  5
   329
  8
0
  6
CONTINUOUS
 62
     7
 10
263.812360975146
 20
61.3393981433598
 30
0.0
 11
263.812360975146
 21
71.2393983752901
 31
0.0
  0
ARC
  5
   32A
  8
0
  6
CONTINUOUS
 62
     7
 10
263.312360967696
 20
61.3393981433598
 30
0.0
 40
0.500000007450581
 50
270.0
 51
360.0
  0
LINE
  5
   32B
  8
0
  6
CONTINUOUS
 62
     2
 10
261.812360945344
 20
71.6393983812506
 30
0.0
 11
263.412360969186
 21
71.6393983812506
 31
0.0
  0
LINE
  5
   32C
  8
0
  6
CONTINUOUS
 62
     7
 10
224.01236038208
 20
60.8393981359092
 30
0.0
 11
224.01236038208
 21
77.9570863792642
 31
0.0
  0
LINE
  5
   32D
  8
0
  6
DASHDOT
 62
     7
 10
203.412360075116
 20
118.839400136471
 30
0.0
 11
203.412360075116
 21
167.85071682123
 31
0.0
  0
LINE
  5
   32E
  8
0
  6
DASHDOT
 62
     7
 10
202.212360057235
 20
61.6393931806087
 30
0.0
 11
202.212360057235
 21
119.639400148392
 31
0.0
  0
LINE
  5
   32F
  8
0
  6
CONTINUOUS
 62
   130
 10
224.01236038208
 20
159.039399599203
 30
0.0
 11
225.612360405922
 21
159.039399599203
 31
0.0
  0
LINE
  5
   330
  8
0
  6
CONTINUOUS
 62
     7
 10
224.01236038208
 20
66.639398222336
 30
0.0
 11
225.612360024452
 21
66.639398222336
 31
0.0
  0
LINE
  5
   331
  8
0
  6
CONTINUOUS
 62
     7
 10
223.212360370159
 20
121.692043001244
 30
0.0
 11
223.212360370159
 21
125.639381927252
 31
0.0
  0
LINE
  5
   332
  8
0
  6
CONTINUOUS
 62
     7
 10
223.212360370159
 20
70.0393810987471
 30
0.0
 11
224.01236038208
 21
70.0393810987471
 31
0.0
  0
LINE
  5
   333
  8
0
  6
CONTINUOUS
 62
     7
 10
223.212360370159
 20
66.0920421727396
 30
0.0
 11
223.212360370159
 21
70.0393810987471
 31
0.0
  0
LINE
  5
   334
  8
0
  6
CONTINUOUS
 62
     7
 10
223.212360370159
 20
66.0920421727396
 30
0.0
 11
224.01236038208
 21
66.0920421727396
 31
0.0
  0
LINE
  5
   335
  8
0
  6
CONTINUOUS
 62
   130
 10
223.212360370159
 20
159.639382433891
 30
0.0
 11
224.01236038208
 21
159.639382433891
 31
0.0
  0
LINE
  5
   336
  8
0
  6
CONTINUOUS
 62
   130
 10
223.212360370159
 20
155.692043507884
 30
0.0
 11
223.212360370159
 21
159.639382433891
 31
0.0
  0
LINE
  5
   337
  8
0
  6
CONTINUOUS
 62
   130
 10
223.212360370159
 20
155.692043507884
 30
0.0
 11
224.01236038208
 21
155.692043507884
 31
0.0
  0
LINE
  5
   338
  8
0
  6
DASHDOT
 62
     7
 10
202.212360057235
 20
118.839400136471
 30
0.0
 11
202.212360057235
 21
167.85071682123
 31
0.0
  0
LINE
  5
   339
  8
0
  6
DASHDOT
 62
     7
 10
203.412360075116
 20
61.6393931806087
 30
0.0
 11
203.412360075116
 21
118.839400136471
 31
0.0
  0
INSERT
  5
   33A
  8
255
  6
CONTINUOUS
 62
     7
  2
PARTE_FISSA
 10
264.412347022554
 20
50.9445749060092
 30
0.0
 41
0.400000005960464
 42
0.400000005960464
 43
0.400000005960464
  0
INSERT
  5
   33B
  8
255
  6
CONTINUOUS
 62
     7
  2
SBARRA
 10
205.212392867948
 20
90.8393715492065
 30
0.0
 41
0.400000005960464
 42
0.400000005960464
 50
1.34502178612498E-4
 43
0.400000005960464
  0
INSERT
  5
   33C
  8
0
  6
CONTINUOUS
 62
     7
  2
*UDIM804
 10
0.0
 20
0.0
 30
0.0
  0
INSERT
  5
   33D
  8
0
  6
CONTINUOUS
 62
     7
  2
*UDIM805
 10
0.0
 20
0.0
 30
0.0
  0
INSERT
  5
   33E
  8
0
  6
CONTINUOUS
 62
     7
  2
*UDIM806
 10
0.0
 20
0.0
 30
0.0
  0
INSERT
  5
   33F
  8
0
  6
CONTINUOUS
 62
     7
  2
*UDIM807
 10
0.0
 20
0.0
 30
0.0
  0
INSERT
  5
   340
  8
0
  6
CONTINUOUS
 62
     7
  2
*UDIM808
 10
0.0
 20
0.0
 30
0.0
  0
INSERT
  5
   341
  8
0
  6
CONTINUOUS
 62
     7
  2
*UDIM809
 10
0.0
 20
0.0
 30
0.0
  0
INSERT
  5
   342
  8
0
  6
CONTINUOUS
 62
     7
  2
*UDIM810
 10
0.0
 20
0.0
 30
0.0
  0
INSERT
  5
   343
  8
0
  6
CONTINUOUS
 62
     7
  2
*UDIM811
 10
0.0
 20
0.0
 30
0.0
  0
INSERT
  5
   344
  8
0
  6
CONTINUOUS
 62
     7
  2
*UDIM812
 10
0.0
 20
0.0
 30
0.0
  0
INSERT
  5
   345
  8
0
  6
CONTINUOUS
 62
     7
  2
*UDIM813
 10
0.0
 20
0.0
 30
0.0
  0
INSERT
  5
   346
  8
0
  6
CONTINUOUS
 62
     7
  2
*UDIM814
 10
0.0
 20
0.0
 30
0.0
  0
INSERT
  5
   347
  8
0
  6
CONTINUOUS
 62
     7
  2
*UDIM815
 10
0.0
 20
0.0
 30
0.0
  0
INSERT
  5
   348
  8
0
  6
CONTINUOUS
 62
     7
  2
*UDIM816
 10
0.0
 20
0.0
 30
0.0
  0
INSERT
  5
   349
  8
0
  6
CONTINUOUS
 62
     7
  2
*UDIM817
 10
0.0
 20
0.0
 30
0.0
  0
TEXT
  5
   34A
  8
0
  6
CONTINUOUS
 62
     7
 10
289.280762655672
 20
86.7727008572484
 30
0.0
 40
2.99999994933605
  1
=    =
 50
90.0
 41
0.91666673368878
 72
     1
 11
287.780762680994
 21
94.7477013198034
 31
0.0
 73
     2
  0
TEXT
  5
   34B
  8
0
  6
CONTINUOUS
 62
     7
 10
289.623200711024
 20
93.8165440230151
 30
0.0
 40
2.99999994933605
  1
X
 41
0.916666607525612
 72
     2
 11
291.82320052923
 21
93.8165440230151
 31
0.0
  0
LINE
  5
   34C
  8
0
  6
CONTINUOUS
 62
     3
 10
59.7717730045231
 20
127.13939646844
 30
0.0
 11
59.7717730045231
 21
154.439391816855
 31
0.0
  0
CIRCLE
  5
   34D
  8
0
  6
DOT
 62
     7
 10
66.7717840351109
 20
66.8393938810909
 30
0.0
 40
2.19999878903394
  0
ARC
  5
   34E
  8
0
  6
DOT
 62
     7
 10
73.7717825443303
 20
68.0393933916476
 30
0.0
 40
1.79999922154889
 50
359.999999948034
 51
496.521683037288
  0
CIRCLE
  5
   34F
  8
0
  6
DOT
 62
     7
 10
80.7717806897086
 20
66.8393920294253
 30
0.0
 40
2.19999885163413
  0
CIRCLE
  5
   350
  8
0
  6
DOT
 62
     7
 10
87.7717838690283
 20
68.0393832414602
 30
0.0
 40
1.79999176240177
  0
CIRCLE
  5
   351
  8
0
  6
DOT
 62
     7
 10
94.7718070152766
 20
66.8393441453797
 30
0.0
 40
2.20005287110646
  0
LINE
  5
   352
  8
0
  6
DASHDOT
 62
     7
 10
66.7717840351109
 20
63.4393950741756
 30
0.0
 11
66.7717840351109
 21
70.2393926880062
 31
0.0
  0
LINE
  5
   353
  8
0
  6
DASHDOT
 62
     7
 10
70.1717828420262
 20
66.8393938810909
 30
0.0
 11
63.3717852281956
 21
66.8393938810909
 31
0.0
  0
LINE
  5
   354
  8
0
  6
DASHDOT
 62
     7
 10
73.7717825443302
 20
60.8685231087892
 30
0.0
 11
73.7717825443302
 21
71.0393926310778
 31
0.0
  0
LINE
  5
   355
  8
0
  6
DASHDOT
 62
     7
 10
76.7717817837605
 20
68.0393933916476
 30
0.0
 11
70.7717833049
 21
68.0393933916476
 31
0.0
  0
LINE
  5
   356
  8
0
  6
DASHDOT
 62
     7
 10
84.1717795592242
 20
66.8393920294253
 30
0.0
 11
77.3717818201931
 21
66.8393920294253
 31
0.0
  0
LINE
  5
   357
  8
0
  6
DASHDOT
 62
     7
 10
90.7717756493115
 20
68.0393832414602
 30
0.0
 11
84.7717920887452
 21
68.0393832414602
 31
0.0
  0
LINE
  5
   358
  8
0
  6
DASHDOT
 62
     7
 10
94.7718070152766
 20
63.4392912563918
 30
0.0
 11
94.7718070152766
 21
70.2393970343675
 31
0.0
  0
LINE
  5
   359
  8
0
  6
DASHDOT
 62
     7
 10
98.1718599042645
 20
66.8393441453797
 30
0.0
 11
91.3717541262888
 21
66.8393441453797
 31
0.0
  0
LINE
  5
   35A
  8
0
  6
DASHDOT
 62
     7
 10
94.7717858588709
 20
61.6793969837312
 30
0.0
 11
94.7717858588709
 21
65.1993910539729
 31
0.0
  0
LINE
  5
   35B
  8
0
  6
DASHDOT
 62
     7
 10
66.7717826776083
 20
61.6793925631265
 30
0.0
 11
66.7717826776083
 21
65.1993927768799
 31
0.0
  0
LINE
  5
   35C
  8
0
  6
CONTINUOUS
 62
     3
 10
101.57178375721
 20
115.939396301547
 30
0.0
 11
59.9717892408371
 21
115.939396301547
 31
0.0
  0
LINE
  5
   35D
  8
0
  6
CONTINUOUS
 62
     3
 10
101.57178375721
 20
73.9394017792145
 30
0.0
 11
96.1717837005853
 21
73.9394017792145
 31
0.0
  0
LINE
  5
   35E
  8
0
  6
CONTINUOUS
 62
     3
 10
91.5717836081981
 20
73.9394017792141
 30
0.0
 11
81.751501103172
 21
73.9394017792141
 31
0.0
  0
LINE
  5
   35F
  8
0
  6
CONTINUOUS
 62
     3
 10
65.3717893213034
 20
73.9394017792035
 30
0.0
 11
59.9717892408371
 21
73.9394017792035
 31
0.0
  0
LINE
  5
   360
  8
0
  6
CONTINUOUS
 62
     3
 10
69.9717893898487
 20
73.9394017792131
 30
0.0
 11
65.3717893213034
 21
73.9394017792131
 31
0.0
  0
LINE
  5
   361
  8
0
  6
CONTINUOUS
 62
     3
 10
96.1717836767434
 20
73.9394017792145
 30
0.0
 11
91.5717836081981
 21
73.9394017792145
 31
0.0
  0
LINE
  5
   362
  8
0
  6
DASHDOT
 62
     7
 10
80.7717895507813
 20
66.6909229435255
 30
0.0
 11
80.7717895507813
 21
108.00903122707
 31
0.0
  0
ARC
  5
   363
  8
0
  6
CONTINUOUS
 62
     3
 10
59.9717892408371
 20
74.1394017821837
 30
0.0
 40
0.200000002980232
 50
179.999999948034
 51
269.999999948034
  0
ARC
  5
   364
  8
0
  6
CONTINUOUS
 62
     3
 10
59.9717892408371
 20
115.739396298567
 30
0.0
 40
0.200000002980232
 50
449.999999948034
 51
539.999999948034
  0
ARC
  5
   365
  8
0
  6
CONTINUOUS
 62
     3
 10
101.57178375721
 20
115.739396298567
 30
0.0
 40
0.200000002980232
 50
359.999999948034
 51
449.999999948034
  0
ARC
  5
   366
  8
0
  6
CONTINUOUS
 62
     3
 10
101.57178375721
 20
74.1394017821948
 30
0.0
 40
0.200000002980232
 50
269.999999948034
 51
359.999999948034
  0
LINE
  5
   367
  8
0
  6
CONTINUOUS
 62
     3
 10
79.7920094354553
 20
73.9394017792141
 30
0.0
 11
69.9717893898487
 21
73.9394017792141
 31
0.0
  0
LINE
  5
   368
  8
0
  6
CONTINUOUS
 62
     7
 10
69.7717832833528
 20
73.9393956756986
 30
0.0
 11
65.7717893272638
 21
73.9393956756986
 31
0.0
  0
LINE
  5
   369
  8
0
  6
CONTINUOUS
 62
     7
 10
95.7717775672672
 20
73.9393956756986
 30
0.0
 11
91.7717775076626
 21
73.9393956756986
 31
0.0
  0
LINE
  5
   36A
  8
0
  6
CONTINUOUS
 62
     7
 10
101.771789863706
 20
74.1393956786788
 30
0.0
 11
101.771789863706
 21
81.3393896824515
 31
0.0
  0
LINE
  5
   36B
  8
0
  6
CONTINUOUS
 62
     7
 10
59.7717892378569
 20
74.1393956786788
 30
0.0
 11
59.7717892378569
 21
81.3393896824515
 31
0.0
  0
LINE
  5
   36C
  8
0
  6
CONTINUOUS
 62
     7
 10
101.571789860725
 20
115.939396301547
 30
0.0
 11
59.9717892408482
 21
115.939396301547
 31
0.0
  0
LINE
  5
   36D
  8
0
  6
CONTINUOUS
 62
     7
 10
65.7717893272638
 20
73.9393956756986
 30
0.0
 11
59.9717892408371
 21
73.9393956756986
 31
0.0
  0
LINE
  5
   36E
  8
0
  6
CONTINUOUS
 62
     7
 10
91.7717775076626
 20
73.9393956756986
 30
0.0
 11
69.7717832833528
 21
73.9393956756986
 31
0.0
  0
LINE
  5
   36F
  8
0
  6
CONTINUOUS
 62
     7
 10
101.571789860725
 20
73.9393956756986
 30
0.0
 11
95.7717775672672
 21
73.9393956756986
 31
0.0
  0
LINE
  5
   370
  8
0
  6
CONTINUOUS
 62
     7
 10
85.0717896148563
 20
82.8393897048032
 30
0.0
 11
85.0717896148563
 21
98.8393838397061
 31
0.0
  0
LINE
  5
   371
  8
0
  6
CONTINUOUS
 62
     7
 10
76.4717894867063
 20
82.8393897048032
 30
0.0
 11
76.4717894867063
 21
98.8393838397061
 31
0.0
  0
LINE
  5
   372
  8
0
  6
CONTINUOUS
 62
     7
 10
101.771789863706
 20
111.13938402299
 30
0.0
 11
59.7717892378569
 21
111.13938402299
 31
0.0
  0
LINE
  5
   373
  8
0
  6
CONTINUOUS
 62
     7
 10
101.771789863706
 20
115.139384082595
 30
0.0
 11
59.7717892378569
 21
115.139384082595
 31
0.0
  0
LINE
  5
   374
  8
0
  6
CONTINUOUS
 62
     7
 10
85.0717896148563
 20
98.7335977053172
 30
0.0
 11
76.4717894867063
 21
98.7335977053172
 31
0.0
  0
LINE
  5
   375
  8
0
  6
CONTINUOUS
 62
     7
 10
85.0717896148563
 20
98.8393838397061
 30
0.0
 11
76.4717894867063
 21
98.8393838397061
 31
0.0
  0
LINE
  5
   376
  8
0
  6
CONTINUOUS
 62
     7
 10
85.0717896148563
 20
82.8393897048032
 30
0.0
 11
76.4717894867063
 21
82.8393897048032
 31
0.0
  0
LINE
  5
   377
  8
0
  6
CONTINUOUS
 62
     7
 10
85.0717896148563
 20
82.9451880462235
 30
0.0
 11
76.4717894867063
 21
82.9451880462235
 31
0.0
  0
LINE
  5
   378
  8
0
  6
DASHDOT
 62
     7
 10
80.7717895507813
 20
56.7258575426793
 30
0.0
 11
80.7717895507813
 21
166.967137834211
 31
0.0
  0
LINE
  5
   379
  8
0
  6
CONTINUOUS
 62
     7
 10
101.77178376019
 20
81.7393896884119
 30
0.0
 11
101.77178376019
 21
86.5393865786421
 31
0.0
  0
LINE
  5
   37A
  8
0
  6
CONTINUOUS
 62
     7
 10
101.77178376019
 20
100.339389965574
 30
0.0
 11
101.77178376019
 21
115.739396298567
 31
0.0
  0
LINE
  5
   37B
  8
0
  6
CONTINUOUS
 62
     7
 10
101.77178376019
 20
86.9393865846025
 30
0.0
 11
101.77178376019
 21
94.739389882127
 31
0.0
  0
LINE
  5
   37C
  8
0
  6
CONTINUOUS
 62
     7
 10
101.77178376019
 20
95.1393898880875
 30
0.0
 11
101.77178376019
 21
99.9393899596131
 31
0.0
  0
LINE
  5
   37D
  8
0
  6
CONTINUOUS
 62
     7
 10
59.7717892378548
 20
81.7393896884119
 30
0.0
 11
59.7717892378548
 21
86.5393897599384
 31
0.0
  0
LINE
  5
   37E
  8
0
  6
CONTINUOUS
 62
     7
 10
59.7717892378477
 20
86.9393897658989
 30
0.0
 11
59.7717892378477
 21
94.739389882127
 31
0.0
  0
LINE
  5
   37F
  8
0
  6
CONTINUOUS
 62
     7
 10
59.7717892378589
 20
95.1393898880875
 30
0.0
 11
59.7717892378589
 21
99.9393899596131
 31
0.0
  0
LINE
  5
   380
  8
0
  6
CONTINUOUS
 62
     7
 10
59.771789237868
 20
100.339389965574
 30
0.0
 11
59.771789237868
 21
115.739396298567
 31
0.0
  0
LINE
  5
   381
  8
0
  6
CONTINUOUS
 62
     7
 10
76.4717862972166
 20
86.5393974541073
 30
0.0
 11
60.1717892199755
 21
86.5393974541073
 31
0.0
  0
LINE
  5
   382
  8
0
  6
CONTINUOUS
 62
     7
 10
101.77178376019
 20
86.5393942728088
 30
0.0
 11
101.371783754229
 21
86.5393942728088
 31
0.0
  0
LINE
  5
   383
  8
0
  6
CONTINUOUS
 62
     7
 10
76.4717784735812
 20
86.9393974600701
 30
0.0
 11
60.1717892199755
 21
86.9393974600701
 31
0.0
  0
LINE
  5
   384
  8
0
  6
CONTINUOUS
 62
     7
 10
101.77178376019
 20
86.9393942787692
 30
0.0
 11
101.371783754229
 21
86.9393942787692
 31
0.0
  0
LINE
  5
   385
  8
0
  6
CONTINUOUS
 62
     7
 10
60.1717892199755
 20
86.5393897599375
 30
0.0
 11
60.1717892199755
 21
86.939389765898
 31
0.0
  0
LINE
  5
   386
  8
0
  6
CONTINUOUS
 62
     7
 10
101.371783754229
 20
86.5393897599375
 30
0.0
 11
101.371783754229
 21
86.939389765898
 31
0.0
  0
LINE
  5
   387
  8
0
  6
CONTINUOUS
 62
     7
 10
101.771789863706
 20
81.3393896824515
 30
0.0
 11
101.371783754229
 21
81.3393896824515
 31
0.0
  0
LINE
  5
   388
  8
0
  6
CONTINUOUS
 62
     7
 10
101.77178376019
 20
81.7393896884119
 30
0.0
 11
101.371783754229
 21
81.7393896884119
 31
0.0
  0
LINE
  5
   389
  8
0
  6
CONTINUOUS
 62
     7
 10
60.1717892199755
 20
81.3393896824515
 30
0.0
 11
60.1717892199755
 21
81.7393896884119
 31
0.0
  0
LINE
  5
   38A
  8
0
  6
CONTINUOUS
 62
     7
 10
101.371783754229
 20
81.3393896824515
 30
0.0
 11
101.371783754229
 21
81.7393896884119
 31
0.0
  0
LINE
  5
   38B
  8
0
  6
CONTINUOUS
 62
     7
 10
101.77178376019
 20
99.9393899596131
 30
0.0
 11
101.371783754229
 21
99.9393899596131
 31
0.0
  0
LINE
  5
   38C
  8
0
  6
CONTINUOUS
 62
     7
 10
101.77178376019
 20
100.339389965574
 30
0.0
 11
101.371783754229
 21
100.339389965574
 31
0.0
  0
LINE
  5
   38D
  8
0
  6
CONTINUOUS
 62
     7
 10
60.1717892199755
 20
99.9393899596131
 30
0.0
 11
60.1717892199755
 21
100.339389965574
 31
0.0
  0
LINE
  5
   38E
  8
0
  6
CONTINUOUS
 62
     7
 10
101.371783754229
 20
99.9393899596131
 30
0.0
 11
101.371783754229
 21
100.339389965574
 31
0.0
  0
LINE
  5
   38F
  8
0
  6
CONTINUOUS
 62
     7
 10
76.4717863157391
 20
94.739389882127
 30
0.0
 11
60.1717892199755
 21
94.739389882127
 31
0.0
  0
LINE
  5
   390
  8
0
  6
CONTINUOUS
 62
     7
 10
101.77178376019
 20
94.739389882127
 30
0.0
 11
101.371783754229
 21
94.739389882127
 31
0.0
  0
LINE
  5
   391
  8
0
  6
CONTINUOUS
 62
     7
 10
76.4717894867063
 20
95.1393898880875
 30
0.0
 11
60.1717892199755
 21
95.1393898880875
 31
0.0
  0
LINE
  5
   392
  8
0
  6
CONTINUOUS
 62
     7
 10
101.77178376019
 20
95.1393898880875
 30
0.0
 11
101.371783754229
 21
95.1393898880875
 31
0.0
  0
LINE
  5
   393
  8
0
  6
CONTINUOUS
 62
     7
 10
60.1717892199755
 20
94.739389882127
 30
0.0
 11
60.1717892199755
 21
95.1393898880875
 31
0.0
  0
LINE
  5
   394
  8
0
  6
CONTINUOUS
 62
     7
 10
101.371783754229
 20
94.739389882127
 30
0.0
 11
101.371783754229
 21
95.1393898880875
 31
0.0
  0
ARC
  5
   395
  8
0
  6
CONTINUOUS
 62
     7
 10
59.9717892408371
 20
74.1393956786788
 30
0.0
 40
0.200000002980232
 50
179.999999948034
 51
269.999999948034
  0
ARC
  5
   396
  8
0
  6
CONTINUOUS
 62
     7
 10
101.571789860725
 20
74.1393956786788
 30
0.0
 40
0.200000002980232
 50
269.999999948034
 51
359.999999948034
  0
ARC
  5
   397
  8
0
  6
CONTINUOUS
 62
     7
 10
101.571789860725
 20
115.739396298567
 30
0.0
 40
0.200000002980232
 50
359.999999948034
 51
449.999999948034
  0
ARC
  5
   398
  8
0
  6
CONTINUOUS
 62
     7
 10
59.9717892408482
 20
115.739396298567
 30
0.0
 40
0.200000002980232
 50
449.999999948034
 51
539.999999948034
  0
LINE
  5
   399
  8
0
  6
CONTINUOUS
 62
     7
 10
71.7717894166708
 20
99.3393899506724
 30
0.0
 11
71.1717894077301
 21
99.3393899506724
 31
0.0
  0
LINE
  5
   39A
  8
0
  6
CONTINUOUS
 62
     7
 10
71.7717894166708
 20
95.7393898970282
 30
0.0
 11
71.1717894077301
 21
95.7393898970282
 31
0.0
  0
CIRCLE
  5
   39B
  8
0
  6
CONTINUOUS
 62
     7
 10
71.4717894122005
 20
84.1393897241747
 30
0.0
 40
1.80000002682209
  0
CIRCLE
  5
   39C
  8
0
  6
CONTINUOUS
 62
     7
 10
71.4717894122005
 20
84.1393897241747
 30
0.0
 40
1.20000001788139
  0
LINE
  5
   39D
  8
0
  6
CONTINUOUS
 62
     7
 10
71.1717894077301
 20
95.7393898970282
 30
0.0
 11
71.1717894077301
 21
99.3393899506724
 31
0.0
  0
LINE
  5
   39E
  8
0
  6
CONTINUOUS
 62
     7
 10
71.7717894166708
 20
95.7393898970282
 30
0.0
 11
71.7717894166708
 21
99.3393899506724
 31
0.0
  0
LINE
  5
   39F
  8
0
  6
CONTINUOUS
 62
     7
 10
75.371789470315
 20
81.7393896884119
 30
0.0
 11
75.371789470315
 21
86.5393954756038
 31
0.0
  0
LINE
  5
   3A0
  8
0
  6
CONTINUOUS
 62
     7
 10
86.1717896312475
 20
81.7393896884119
 30
0.0
 11
86.1717896312475
 21
86.5393922943053
 31
0.0
  0
LINE
  5
   3A1
  8
0
  6
CONTINUOUS
 62
     7
 10
86.1717896312475
 20
95.1393898880875
 30
0.0
 11
86.1717896312475
 21
99.9393899596131
 31
0.0
  0
LINE
  5
   3A2
  8
0
  6
CONTINUOUS
 62
     7
 10
75.371789470315
 20
95.1393898880875
 30
0.0
 11
75.371789470315
 21
99.9393899596131
 31
0.0
  0
LINE
  5
   3A3
  8
0
  6
CONTINUOUS
 62
     7
 10
90.991785796821
 20
85.6793897471225
 30
0.0
 11
90.8117857941388
 21
85.6793897471225
 31
0.0
  0
LINE
  5
   3A4
  8
0
  6
CONTINUOUS
 62
     7
 10
90.6117857911586
 20
82.599389701227
 30
0.0
 11
90.2917857863902
 21
82.599389701227
 31
0.0
  0
LINE
  5
   3A5
  8
0
  6
CONTINUOUS
 62
     7
 10
87.7317857482433
 20
83.6393897167242
 30
0.0
 11
87.7317857482433
 21
83.8393897197044
 31
0.0
  0
LINE
  5
   3A6
  8
0
  6
CONTINUOUS
 62
     7
 10
89.8117857792377
 20
83.6393897167242
 30
0.0
 11
89.8117857792377
 21
83.8393897197044
 31
0.0
  0
ARC
  5
   3A7
  8
0
  6
CONTINUOUS
 62
     7
 10
88.7717857637404
 20
83.8393897197044
 30
0.0
 40
1.04000001549721
 50
359.999999948034
 51
539.999999948034
  0
ARC
  5
   3A8
  8
0
  6
CONTINUOUS
 62
     7
 10
88.7717857637404
 20
83.6393897167242
 30
0.0
 40
1.04000001549721
 50
179.999999948034
 51
359.999999948034
  0
ARC
  5
   3A9
  8
0
  6
CONTINUOUS
 62
     7
 10
88.7717857637404
 20
83.8393897197044
 30
0.0
 40
0.720000010728837
 50
359.999999948034
 51
539.999999948034
  0
ARC
  5
   3AA
  8
0
  6
CONTINUOUS
 62
     7
 10
88.7717857637404
 20
83.6393897167242
 30
0.0
 40
0.720000010728835
 50
179.999999948034
 51
359.999999948034
  0
LINE
  5
   3AB
  8
0
  6
CONTINUOUS
 62
     7
 10
88.0517857530116
 20
83.6393897167242
 30
0.0
 11
88.0517857530116
 21
83.8393897197044
 31
0.0
  0
LINE
  5
   3AC
  8
0
  6
CONTINUOUS
 62
     7
 10
89.4917857744693
 20
83.6393897167242
 30
0.0
 11
89.4917857744693
 21
83.8393897197044
 31
0.0
  0
LINE
  5
   3AD
  8
0
  6
CONTINUOUS
 62
     7
 10
89.9117857807278
 20
84.3993897280491
 30
0.0
 11
89.9117857807278
 21
84.7193897328174
 31
0.0
  0
LINE
  5
   3AE
  8
0
  6
CONTINUOUS
 62
     7
 10
90.2917857863902
 20
84.399389728049
 30
0.0
 11
89.9117857807278
 21
84.399389728049
 31
0.0
  0
LINE
  5
   3AF
  8
0
  6
CONTINUOUS
 62
     7
 10
90.991785796821
 20
84.3993897280491
 30
0.0
 11
90.991785796821
 21
84.7193897328174
 31
0.0
  0
LINE
  5
   3B0
  8
0
  6
CONTINUOUS
 62
     7
 10
90.2917857863902
 20
84.7193897328174
 30
0.0
 11
89.9117857807278
 21
84.7193897328174
 31
0.0
  0
LINE
  5
   3B1
  8
0
  6
CONTINUOUS
 62
     7
 10
90.2917857863902
 20
82.599389701227
 30
0.0
 11
90.2917857863902
 21
84.3993897280491
 31
0.0
  0
LINE
  5
   3B2
  8
0
  6
CONTINUOUS
 62
     7
 10
90.6117857911586
 20
82.599389701227
 30
0.0
 11
90.6117857911586
 21
84.3993897280491
 31
0.0
  0
LINE
  5
   3B3
  8
0
  6
CONTINUOUS
 62
     7
 10
90.991785796821
 20
84.399389728049
 30
0.0
 11
90.6117857911586
 21
84.399389728049
 31
0.0
  0
LINE
  5
   3B4
  8
0
  6
CONTINUOUS
 62
     7
 10
90.991785796821
 20
84.7193897328174
 30
0.0
 11
90.6117857911586
 21
84.7193897328174
 31
0.0
  0
LINE
  5
   3B5
  8
0
  6
CONTINUOUS
 62
     7
 10
90.2917857863902
 20
84.7193897328174
 30
0.0
 11
90.2917857863902
 21
85.1593897393739
 31
0.0
  0
LINE
  5
   3B6
  8
0
  6
CONTINUOUS
 62
     7
 10
90.6117857911586
 20
84.7193897328174
 30
0.0
 11
90.6117857911586
 21
85.1593897393739
 31
0.0
  0
ARC
  5
   3B7
  8
0
  6
CONTINUOUS
 62
     7
 10
90.8117857941388
 20
85.1593897393739
 30
0.0
 40
0.520000007748604
 50
449.999999948034
 51
539.999999948034
  0
ARC
  5
   3B8
  8
0
  6
CONTINUOUS
 62
     7
 10
90.8117857941388
 20
85.1593897393739
 30
0.0
 40
0.200000002980232
 50
449.999999948034
 51
539.999999948034
  0
LINE
  5
   3B9
  8
0
  6
CONTINUOUS
 62
     7
 10
90.991785796821
 20
85.3593897423542
 30
0.0
 11
90.991785796821
 21
85.6793897471225
 31
0.0
  0
LINE
  5
   3BA
  8
0
  6
CONTINUOUS
 62
     7
 10
90.991785796821
 20
85.3593897423542
 30
0.0
 11
90.8117857941388
 21
85.3593897423542
 31
0.0
  0
LINE
  5
   3BB
  8
0
  6
CONTINUOUS
 62
     7
 10
92.2717858158945
 20
85.6793897471225
 30
0.0
 11
92.0917858132123
 21
85.6793897471225
 31
0.0
  0
LINE
  5
   3BC
  8
0
  6
CONTINUOUS
 62
     7
 10
91.8917858102321
 20
82.599389701227
 30
0.0
 11
91.5717858054637
 21
82.599389701227
 31
0.0
  0
LINE
  5
   3BD
  8
0
  6
CONTINUOUS
 62
     7
 10
91.1917857998013
 20
84.3993897280491
 30
0.0
 11
91.1917857998013
 21
84.7193897328174
 31
0.0
  0
LINE
  5
   3BE
  8
0
  6
CONTINUOUS
 62
     7
 10
91.5717858054637
 20
84.399389728049
 30
0.0
 11
91.1917857998013
 21
84.399389728049
 31
0.0
  0
LINE
  5
   3BF
  8
0
  6
CONTINUOUS
 62
     7
 10
92.2717858158945
 20
84.3993897280491
 30
0.0
 11
92.2717858158945
 21
84.7193897328174
 31
0.0
  0
LINE
  5
   3C0
  8
0
  6
CONTINUOUS
 62
     7
 10
91.5717858054637
 20
84.7193897328174
 30
0.0
 11
91.1917857998013
 21
84.7193897328174
 31
0.0
  0
LINE
  5
   3C1
  8
0
  6
CONTINUOUS
 62
     7
 10
91.5717858054637
 20
82.599389701227
 30
0.0
 11
91.5717858054637
 21
84.3993897280491
 31
0.0
  0
LINE
  5
   3C2
  8
0
  6
CONTINUOUS
 62
     7
 10
91.8917858102321
 20
82.599389701227
 30
0.0
 11
91.8917858102321
 21
84.3993897280491
 31
0.0
  0
LINE
  5
   3C3
  8
0
  6
CONTINUOUS
 62
     7
 10
92.2717858158945
 20
84.399389728049
 30
0.0
 11
91.8917858102321
 21
84.399389728049
 31
0.0
  0
LINE
  5
   3C4
  8
0
  6
CONTINUOUS
 62
     7
 10
92.2717858158945
 20
84.7193897328174
 30
0.0
 11
91.8917858102321
 21
84.7193897328174
 31
0.0
  0
LINE
  5
   3C5
  8
0
  6
CONTINUOUS
 62
     7
 10
91.5717858054637
 20
84.7193897328174
 30
0.0
 11
91.5717858054637
 21
85.1593897393739
 31
0.0
  0
LINE
  5
   3C6
  8
0
  6
CONTINUOUS
 62
     7
 10
91.8917858102321
 20
84.7193897328174
 30
0.0
 11
91.8917858102321
 21
85.1593897393739
 31
0.0
  0
ARC
  5
   3C7
  8
0
  6
CONTINUOUS
 62
     7
 10
92.0917858132123
 20
85.1593897393739
 30
0.0
 40
0.520000007748604
 50
449.999999948034
 51
539.999999948034
  0
ARC
  5
   3C8
  8
0
  6
CONTINUOUS
 62
     7
 10
92.0917858132123
 20
85.1593897393739
 30
0.0
 40
0.200000002980232
 50
449.999999948034
 51
539.999999948034
  0
LINE
  5
   3C9
  8
0
  6
CONTINUOUS
 62
     7
 10
92.2717858158945
 20
85.3593897423542
 30
0.0
 11
92.2717858158945
 21
85.6793897471225
 31
0.0
  0
LINE
  5
   3CA
  8
0
  6
CONTINUOUS
 62
     7
 10
92.2717858158945
 20
85.3593897423542
 30
0.0
 11
92.0917858132123
 21
85.3593897423542
 31
0.0
  0
LINE
  5
   3CB
  8
0
  6
CONTINUOUS
 62
     7
 10
90.4517857887744
 20
96.399389906863
 30
0.0
 11
90.1317857840061
 21
96.399389906863
 31
0.0
  0
ARC
  5
   3CC
  8
0
  6
CONTINUOUS
 62
     7
 10
88.7717857637405
 20
97.6393899253404
 30
0.0
 40
1.04000001549721
 50
359.999999948034
 51
539.999999948034
  0
ARC
  5
   3CD
  8
0
  6
CONTINUOUS
 62
     7
 10
88.7717857637405
 20
97.6393899253404
 30
0.0
 40
0.720000010728837
 50
359.999999948034
 51
539.999999948034
  0
ARC
  5
   3CE
  8
0
  6
CONTINUOUS
 62
     7
 10
88.7717857637405
 20
97.4393899223602
 30
0.0
 40
1.04000001549721
 50
179.999999948034
 51
359.999999948034
  0
ARC
  5
   3CF
  8
0
  6
CONTINUOUS
 62
     7
 10
88.7717857637405
 20
97.4393899223602
 30
0.0
 40
0.720000010728835
 50
179.999999948034
 51
359.999999948034
  0
LINE
  5
   3D0
  8
0
  6
CONTINUOUS
 62
     7
 10
89.4917857744693
 20
97.4393899223602
 30
0.0
 11
89.4917857744693
 21
97.6393899253404
 31
0.0
  0
LINE
  5
   3D1
  8
0
  6
CONTINUOUS
 62
     7
 10
89.8117857792377
 20
97.4393899223602
 30
0.0
 11
89.8117857792377
 21
97.6393899253404
 31
0.0
  0
LINE
  5
   3D2
  8
0
  6
CONTINUOUS
 62
     7
 10
88.0517857530116
 20
97.4393899223602
 30
0.0
 11
88.0517857530116
 21
97.6393899253404
 31
0.0
  0
LINE
  5
   3D3
  8
0
  6
CONTINUOUS
 62
     7
 10
87.7317857482433
 20
97.4393899223602
 30
0.0
 11
87.7317857482433
 21
97.6393899253404
 31
0.0
  0
LINE
  5
   3D4
  8
0
  6
CONTINUOUS
 62
     7
 10
90.131785784006
 20
96.399389906863
 30
0.0
 11
90.131785784006
 21
98.6793899408376
 31
0.0
  0
LINE
  5
   3D5
  8
0
  6
CONTINUOUS
 62
     7
 10
90.4517857887744
 20
96.399389906863
 30
0.0
 11
90.4517857887744
 21
97.7993899277246
 31
0.0
  0
LINE
  5
   3D6
  8
0
  6
CONTINUOUS
 62
     7
 10
91.5717858054637
 20
96.399389906863
 30
0.0
 11
91.5717858054637
 21
97.7993899277246
 31
0.0
  0
LINE
  5
   3D7
  8
0
  6
CONTINUOUS
 62
     7
 10
91.8917858102321
 20
96.399389906863
 30
0.0
 11
91.8917858102321
 21
97.8793899289167
 31
0.0
  0
LINE
  5
   3D8
  8
0
  6
CONTINUOUS
 62
     7
 10
90.4517857887744
 20
98.6793899408376
 30
0.0
 11
90.1317857840061
 21
98.6793899408376
 31
0.0
  0
ARC
  5
   3D9
  8
0
  6
CONTINUOUS
 62
     7
 10
91.0117857971191
 20
97.7993899277246
 30
0.0
 40
0.56000000834465
 50
359.999999948034
 51
539.999999948034
  0
LINE
  5
   3DA
  8
0
  6
CONTINUOUS
 62
     7
 10
90.4517857887744
 20
98.3593899360693
 30
0.0
 11
90.4517857887744
 21
98.6793899408376
 31
0.0
  0
ARC
  5
   3DB
  8
0
  6
CONTINUOUS
 62
     7
 10
91.0917857983112
 20
97.8793899289167
 30
0.0
 40
0.800000011920929
 50
359.999999948034
 51
503.13010230219
  0
LINE
  5
   3DC
  8
0
  6
CONTINUOUS
 62
     7
 10
91.8917858102321
 20
96.399389906863
 30
0.0
 11
91.5717858054637
 21
96.399389906863
 31
0.0
  0
LINE
  5
   3DD
  8
0
  6
CONTINUOUS
 62
     7
 10
60.1717892199755
 20
100.339389965574
 30
0.0
 11
59.771789237868
 21
100.339389965574
 31
0.0
  0
LINE
  5
   3DE
  8
0
  6
CONTINUOUS
 62
     7
 10
60.1717892199755
 20
99.9393899596131
 30
0.0
 11
59.7717892378589
 21
99.9393899596131
 31
0.0
  0
LINE
  5
   3DF
  8
0
  6
CONTINUOUS
 62
     7
 10
60.1717892199755
 20
95.1393898880875
 30
0.0
 11
59.7717892378589
 21
95.1393898880875
 31
0.0
  0
LINE
  5
   3E0
  8
0
  6
CONTINUOUS
 62
     7
 10
60.1717892199755
 20
94.739389882127
 30
0.0
 11
59.7717892378477
 21
94.739389882127
 31
0.0
  0
LINE
  5
   3E1
  8
0
  6
CONTINUOUS
 62
     7
 10
60.1717892199755
 20
86.9393974600701
 30
0.0
 11
59.7717892378477
 21
86.9393974600701
 31
0.0
  0
LINE
  5
   3E2
  8
0
  6
CONTINUOUS
 62
     7
 10
60.1717892199755
 20
86.5393974541073
 30
0.0
 11
59.7717892378548
 21
86.5393974541073
 31
0.0
  0
LINE
  5
   3E3
  8
0
  6
CONTINUOUS
 62
     7
 10
60.1717892199755
 20
81.7393896884119
 30
0.0
 11
59.7717892378548
 21
81.7393896884119
 31
0.0
  0
LINE
  5
   3E4
  8
0
  6
CONTINUOUS
 62
     7
 10
60.1717892199755
 20
81.3393896824515
 30
0.0
 11
59.7717892378569
 21
81.3393896824515
 31
0.0
  0
LINE
  5
   3E5
  8
0
  6
CONTINUOUS
 62
     7
 10
101.371783754229
 20
100.339389965574
 30
0.0
 11
60.1717892199755
 21
100.339389965574
 31
0.0
  0
LINE
  5
   3E6
  8
0
  6
CONTINUOUS
 62
     7
 10
101.371783754229
 20
99.9393899596131
 30
0.0
 11
60.1717892199755
 21
99.9393899596131
 31
0.0
  0
LINE
  5
   3E7
  8
0
  6
CONTINUOUS
 62
     7
 10
101.371783754229
 20
95.1393898880875
 30
0.0
 11
85.0717896148563
 21
95.1393898880875
 31
0.0
  0
LINE
  5
   3E8
  8
0
  6
CONTINUOUS
 62
     7
 10
101.371783754229
 20
94.739389882127
 30
0.0
 11
85.0717896148563
 21
94.739389882127
 31
0.0
  0
LINE
  5
   3E9
  8
0
  6
CONTINUOUS
 62
     7
 10
101.371783754229
 20
86.9393942787692
 30
0.0
 11
85.0717884209528
 21
86.9393942787692
 31
0.0
  0
LINE
  5
   3EA
  8
0
  6
CONTINUOUS
 62
     7
 10
101.371783754229
 20
86.5393942728088
 30
0.0
 11
85.0717882743973
 21
86.5393942728088
 31
0.0
  0
LINE
  5
   3EB
  8
0
  6
CONTINUOUS
 62
     7
 10
101.371783754229
 20
81.7393896884119
 30
0.0
 11
60.1717892199755
 21
81.7393896884119
 31
0.0
  0
LINE
  5
   3EC
  8
0
  6
CONTINUOUS
 62
     7
 10
101.371783754229
 20
81.3393896824515
 30
0.0
 11
60.1717892199755
 21
81.3393896824515
 31
0.0
  0
LINE
  5
   3ED
  8
0
  6
DASHDOT
 62
     7
 10
87.7717838690283
 20
62.2393914194538
 30
0.0
 11
87.7717838690283
 21
70.9220543559034
 31
0.0
  0
LINE
  5
   3EE
  8
0
  6
CONTINUOUS
 62
     7
 10
85.0717896148563
 20
88.4895180727644
 30
0.0
 11
76.4717894867063
 21
88.4895180727644
 31
0.0
  0
LINE
  5
   3EF
  8
0
  6
CONTINUOUS
 62
     7
 10
85.0717896148563
 20
86.0429318340607
 30
0.0
 11
76.4717894867063
 21
86.0429318340607
 31
0.0
  0
LINE
  5
   3F0
  8
0
  6
CONTINUOUS
 62
     7
 10
85.0717896148563
 20
83.6638043481243
 30
0.0
 11
76.4717894867063
 21
83.6638043481243
 31
0.0
  0
LINE
  5
   3F1
  8
0
  6
CONTINUOUS
 62
     7
 10
85.0717896148563
 20
83.3427054922522
 30
0.0
 11
76.4717894867063
 21
83.3427054922522
 31
0.0
  0
LINE
  5
   3F2
  8
0
  6
DASHDOT
 62
     7
 10
106.898136974245
 20
94.939395988623
 30
0.0
 11
53.6352603910513
 21
94.939395988623
 31
0.0
  0
LINE
  5
   3F3
  8
0
  6
CONTINUOUS
 62
     3
 10
101.271782675887
 20
164.839393978458
 30
0.0
 11
60.2734232671961
 21
164.839393978458
 31
0.0
  0
LINE
  5
   3F4
  8
0
  6
CONTINUOUS
 62
     3
 10
101.771804234409
 20
127.13939646844
 30
0.0
 11
101.771804234409
 21
154.439391816855
 31
0.0
  0
LINE
  5
   3F5
  8
0
  6
CONTINUOUS
 62
     3
 10
100.831783279682
 20
154.439391816855
 30
0.0
 11
100.831783279682
 21
164.715132501997
 31
0.0
  0
LINE
  5
   3F6
  8
0
  6
CONTINUOUS
 62
     3
 10
99.3917838685762
 20
154.439391816855
 30
0.0
 11
99.3917838685762
 21
164.715132501997
 31
0.0
  0
LINE
  5
   3F7
  8
0
  6
CONTINUOUS
 62
     3
 10
97.9517844574701
 20
154.439391816855
 30
0.0
 11
97.9517844574701
 21
164.715132501997
 31
0.0
  0
LINE
  5
   3F8
  8
0
  6
CONTINUOUS
 62
     3
 10
96.511785046364
 20
154.439391816855
 30
0.0
 11
96.511785046364
 21
164.715132501997
 31
0.0
  0
LINE
  5
   3F9
  8
0
  6
CONTINUOUS
 62
     3
 10
95.0717825835
 20
154.439391816855
 30
0.0
 11
95.0717825835
 21
164.715132501997
 31
0.0
  0
LINE
  5
   3FA
  8
0
  6
CONTINUOUS
 62
     3
 10
93.6317831723939
 20
154.439391816855
 30
0.0
 11
93.6317831723939
 21
164.715132501997
 31
0.0
  0
LINE
  5
   3FB
  8
0
  6
CONTINUOUS
 62
     3
 10
92.1917837612878
 20
154.439391816855
 30
0.0
 11
92.1917837612878
 21
164.715132501997
 31
0.0
  0
LINE
  5
   3FC
  8
0
  6
CONTINUOUS
 62
     3
 10
90.7517843501817
 20
154.439391816855
 30
0.0
 11
90.7517843501817
 21
164.715132501997
 31
0.0
  0
LINE
  5
   3FD
  8
0
  6
CONTINUOUS
 62
     3
 10
89.3117849390756
 20
154.439391816855
 30
0.0
 11
89.3117849390756
 21
164.715132501997
 31
0.0
  0
LINE
  5
   3FE
  8
0
  6
CONTINUOUS
 62
     3
 10
87.8717824762117
 20
154.439391816855
 30
0.0
 11
87.8717824762117
 21
164.715132501997
 31
0.0
  0
LINE
  5
   3FF
  8
0
  6
CONTINUOUS
 62
     3
 10
86.4317830651055
 20
154.439391816855
 30
0.0
 11
86.4317830651055
 21
164.715132501997
 31
0.0
  0
LINE
  5
   400
  8
0
  6
CONTINUOUS
 62
     3
 10
84.9917836539995
 20
154.439391816855
 30
0.0
 11
84.9917836539995
 21
164.715132501997
 31
0.0
  0
LINE
  5
   401
  8
0
  6
CONTINUOUS
 62
     3
 10
83.5517842428933
 20
154.439391816855
 30
0.0
 11
83.5517842428933
 21
164.715132501997
 31
0.0
  0
LINE
  5
   402
  8
0
  6
CONTINUOUS
 62
     3
 10
82.1117833059083
 20
154.439391816855
 30
0.0
 11
82.1117833059083
 21
164.715132501997
 31
0.0
  0
LINE
  5
   403
  8
0
  6
CONTINUOUS
 62
     3
 10
80.6717838948022
 20
154.439391816855
 30
0.0
 11
80.6717838948022
 21
164.715132501997
 31
0.0
  0
LINE
  5
   404
  8
0
  6
CONTINUOUS
 62
     3
 10
79.2317844836961
 20
154.439391816855
 30
0.0
 11
79.2317844836961
 21
164.715132501997
 31
0.0
  0
LINE
  5
   405
  8
0
  6
CONTINUOUS
 62
     3
 10
77.7917835467111
 20
154.439391816855
 30
0.0
 11
77.7917835467111
 21
164.715132501997
 31
0.0
  0
LINE
  5
   406
  8
0
  6
CONTINUOUS
 62
     3
 10
76.351784135605
 20
154.439391816855
 30
0.0
 11
76.351784135605
 21
164.715132501997
 31
0.0
  0
LINE
  5
   407
  8
0
  6
CONTINUOUS
 62
     3
 10
101.771804234409
 20
154.439391816855
 30
0.0
 11
59.7717730045231
 21
154.439391816855
 31
0.0
  0
LINE
  5
   408
  8
0
  6
CONTINUOUS
 62
     3
 10
101.771804234409
 20
154.039391810894
 30
0.0
 11
59.7717730045231
 21
154.039391810894
 31
0.0
  0
LINE
  5
   409
  8
0
  6
CONTINUOUS
 62
     3
 10
101.771804234409
 20
149.039391736388
 30
0.0
 11
59.7717730045231
 21
149.039391736388
 31
0.0
  0
LINE
  5
   40A
  8
0
  6
CONTINUOUS
 62
     3
 10
101.771804234409
 20
148.639391730428
 30
0.0
 11
59.7717730045231
 21
148.639391730428
 31
0.0
  0
LINE
  5
   40B
  8
0
  6
CONTINUOUS
 62
     3
 10
101.371804228448
 20
154.039391810894
 30
0.0
 11
101.371804228448
 21
154.439391816855
 31
0.0
  0
LINE
  5
   40C
  8
0
  6
CONTINUOUS
 62
     3
 10
74.9117847244989
 20
154.439391816855
 30
0.0
 11
74.9117847244989
 21
164.839393978458
 31
0.0
  0
LINE
  5
   40D
  8
0
  6
CONTINUOUS
 62
     3
 10
73.4717853133928
 20
154.439391816855
 30
0.0
 11
73.4717853133928
 21
164.839393978458
 31
0.0
  0
LINE
  5
   40E
  8
0
  6
CONTINUOUS
 62
     3
 10
72.0317859022867
 20
154.439391816855
 30
0.0
 11
72.0317859022867
 21
164.839393978458
 31
0.0
  0
LINE
  5
   40F
  8
0
  6
CONTINUOUS
 62
     3
 10
70.5917864911806
 20
154.439391816855
 30
0.0
 11
70.5917864911806
 21
164.839393978458
 31
0.0
  0
LINE
  5
   410
  8
0
  6
CONTINUOUS
 62
     3
 10
101.771804234409
 20
154.439391816855
 30
0.0
 11
101.771804234409
 21
164.339348950119
 31
0.0
  0
LINE
  5
   411
  8
0
  6
CONTINUOUS
 62
     3
 10
76.351784135605
 20
60.9636539051981
 30
0.0
 11
76.351784135605
 21
62.7393970346845
 31
0.0
  0
LINE
  5
   412
  8
0
  6
CONTINUOUS
 62
     3
 10
77.7917835467111
 20
60.9636539051981
 30
0.0
 11
77.7917835467111
 21
62.7393970346845
 31
0.0
  0
LINE
  5
   413
  8
0
  6
CONTINUOUS
 62
     3
 10
79.2317844836961
 20
60.9636539051981
 30
0.0
 11
79.2317844836961
 21
62.7393970346845
 31
0.0
  0
LINE
  5
   414
  8
0
  6
CONTINUOUS
 62
     3
 10
80.6717838948022
 20
60.9636539051981
 30
0.0
 11
80.6717838948022
 21
62.7393970346845
 31
0.0
  0
LINE
  5
   415
  8
0
  6
CONTINUOUS
 62
     3
 10
82.1117833059083
 20
60.9636539051981
 30
0.0
 11
82.1117833059083
 21
62.7393970346845
 31
0.0
  0
LINE
  5
   416
  8
0
  6
CONTINUOUS
 62
     3
 10
83.5517842428933
 20
60.9636539051981
 30
0.0
 11
83.5517842428933
 21
62.7393970346845
 31
0.0
  0
LINE
  5
   417
  8
0
  6
CONTINUOUS
 62
     3
 10
84.9917836539995
 20
60.9636539051981
 30
0.0
 11
84.9917836539995
 21
62.7393970346845
 31
0.0
  0
LINE
  5
   418
  8
0
  6
CONTINUOUS
 62
     3
 10
86.4317830651055
 20
60.9636539051981
 30
0.0
 11
86.4317830651055
 21
62.7393970346845
 31
0.0
  0
LINE
  5
   419
  8
0
  6
CONTINUOUS
 62
     3
 10
87.8717824762117
 20
60.9636539051981
 30
0.0
 11
87.8717824762117
 21
62.7393970346845
 31
0.0
  0
LINE
  5
   41A
  8
0
  6
CONTINUOUS
 62
     3
 10
89.3117849390756
 20
60.9636539051981
 30
0.0
 11
89.3117849390756
 21
62.7393970346845
 31
0.0
  0
LINE
  5
   41B
  8
0
  6
CONTINUOUS
 62
     3
 10
90.7517843501817
 20
60.9636539051981
 30
0.0
 11
90.7517843501817
 21
62.7393970346845
 31
0.0
  0
LINE
  5
   41C
  8
0
  6
CONTINUOUS
 62
     3
 10
92.1917837612878
 20
60.9636539051981
 30
0.0
 11
92.1917837612878
 21
62.7393970346845
 31
0.0
  0
LINE
  5
   41D
  8
0
  6
CONTINUOUS
 62
     3
 10
93.6317831723939
 20
60.9636539051981
 30
0.0
 11
93.6317831723939
 21
62.7393970346845
 31
0.0
  0
LINE
  5
   41E
  8
0
  6
CONTINUOUS
 62
     3
 10
95.0717825835
 20
60.9636539051981
 30
0.0
 11
95.0717825835
 21
62.7393970346845
 31
0.0
  0
LINE
  5
   41F
  8
0
  6
CONTINUOUS
 62
     3
 10
96.511785046364
 20
60.9636539051981
 30
0.0
 11
96.511785046364
 21
62.7393970346845
 31
0.0
  0
LINE
  5
   420
  8
0
  6
CONTINUOUS
 62
     3
 10
97.9517844574701
 20
60.9636539051981
 30
0.0
 11
97.9517844574701
 21
62.7393970346845
 31
0.0
  0
LINE
  5
   421
  8
0
  6
CONTINUOUS
 62
     3
 10
99.3917838685762
 20
60.9636539051981
 30
0.0
 11
99.3917838685762
 21
62.7393970346845
 31
0.0
  0
LINE
  5
   422
  8
0
  6
CONTINUOUS
 62
     3
 10
100.831783279682
 20
60.9636539051981
 30
0.0
 11
100.831783279682
 21
62.7393970346845
 31
0.0
  0
LINE
  5
   423
  8
0
  6
CONTINUOUS
 62
     3
 10
101.771804234409
 20
61.3394374570762
 30
0.0
 11
101.771804234409
 21
62.7393970346845
 31
0.0
  0
LINE
  5
   424
  8
0
  6
CONTINUOUS
 62
     3
 10
101.271782675887
 20
60.8393924287371
 30
0.0
 11
60.2734245854161
 21
60.8393924287371
 31
0.0
  0
LINE
  5
   425
  8
0
  6
CONTINUOUS
 62
     3
 10
104.171789899468
 20
63.2393970421351
 30
0.0
 11
104.171789899468
 21
126.63939646099
 31
0.0
  0
LINE
  5
   426
  8
0
  6
CONTINUOUS
 62
     3
 10
57.3717892020941
 20
63.2393970421351
 30
0.0
 11
57.3717892020941
 21
126.63939646099
 31
0.0
  0
LINE
  5
   427
  8
0
  6
CONTINUOUS
 62
     3
 10
103.671789892018
 20
127.13939646844
 30
0.0
 11
57.8717892095447
 21
127.13939646844
 31
0.0
  0
LINE
  5
   428
  8
0
  6
CONTINUOUS
 62
     3
 10
101.971789866686
 20
73.7393971985973
 30
0.0
 11
101.971789866686
 21
116.139397830407
 31
0.0
  0
LINE
  5
   429
  8
0
  6
CONTINUOUS
 62
     3
 10
101.971789866686
 20
73.7393971985973
 30
0.0
 11
59.5717892348766
 21
73.7393971985973
 31
0.0
  0
LINE
  5
   42A
  8
0
  6
CONTINUOUS
 62
     3
 10
59.5717892348766
 20
73.7393971985973
 30
0.0
 11
59.5717892348766
 21
116.139397830407
 31
0.0
  0
LINE
  5
   42B
  8
0
  6
CONTINUOUS
 62
     3
 10
101.971789866686
 20
116.139396304528
 30
0.0
 11
59.5717892348766
 21
116.139396304528
 31
0.0
  0
LINE
  5
   42C
  8
0
  6
CONTINUOUS
 62
     3
 10
102.371789872646
 20
70.3393971479333
 30
0.0
 11
102.371789872646
 21
70.7393971538938
 31
0.0
  0
LINE
  5
   42D
  8
0
  6
CONTINUOUS
 62
     3
 10
101.971789866686
 20
71.1393971598543
 30
0.0
 11
59.5717892348766
 21
71.1393971598543
 31
0.0
  0
LINE
  5
   42E
  8
0
  6
CONTINUOUS
 62
     3
 10
101.971789866686
 20
70.7393971538938
 30
0.0
 11
59.5717892348766
 21
70.7393971538938
 31
0.0
  0
LINE
  5
   42F
  8
0
  6
CONTINUOUS
 62
     3
 10
59.1717892289162
 20
62.7393970346845
 30
0.0
 11
59.1717892289162
 21
127.13939646844
 31
0.0
  0
LINE
  5
   430
  8
0
  6
CONTINUOUS
 62
     3
 10
59.5717892348766
 20
116.139396304528
 30
0.0
 11
59.5717892348766
 21
118.739396343271
 31
0.0
  0
LINE
  5
   431
  8
0
  6
CONTINUOUS
 62
     3
 10
59.5717892348766
 20
62.7393970346845
 30
0.0
 11
59.5717892348766
 21
70.7393971538938
 31
0.0
  0
LINE
  5
   432
  8
0
  6
CONTINUOUS
 62
     3
 10
102.371789872646
 20
62.7393970346845
 30
0.0
 11
102.371789872646
 21
70.3393971479333
 31
0.0
  0
LINE
  5
   433
  8
0
  6
CONTINUOUS
 62
     3
 10
102.371789872646
 20
70.7393971538938
 30
0.0
 11
102.371789872646
 21
127.13939646844
 31
0.0
  0
LINE
  5
   434
  8
0
  6
CONTINUOUS
 62
     3
 10
101.971789866686
 20
71.1393971598543
 30
0.0
 11
101.971789866686
 21
73.7393971985973
 31
0.0
  0
LINE
  5
   435
  8
0
  6
CONTINUOUS
 62
     3
 10
101.971789866686
 20
116.139396304528
 30
0.0
 11
101.971789866686
 21
118.739396343271
 31
0.0
  0
LINE
  5
   436
  8
0
  6
CONTINUOUS
 62
     3
 10
101.971789866686
 20
62.7393970346845
 30
0.0
 11
101.971789866686
 21
70.7393971538938
 31
0.0
  0
LINE
  5
   437
  8
0
  6
CONTINUOUS
 62
     3
 10
102.371789872646
 20
119.139396349231
 30
0.0
 11
59.1717892289162
 21
119.139396349231
 31
0.0
  0
LINE
  5
   438
  8
0
  6
CONTINUOUS
 62
     3
 10
101.971789866686
 20
118.739396343271
 30
0.0
 11
59.5717892348766
 21
118.739396343271
 31
0.0
  0
ARC
  5
   439
  8
0
  6
CONTINUOUS
 62
     3
 10
103.671789892018
 20
63.2393970421351
 30
0.0
 40
0.500000007450581
 50
269.999999948034
 51
359.999999948034
  0
ARC
  5
   43A
  8
0
  6
CONTINUOUS
 62
     3
 10
103.671789892018
 20
126.63939646099
 30
0.0
 40
0.500000007450581
 50
359.999999948034
 51
449.999999948034
  0
ARC
  5
   43B
  8
0
  6
CONTINUOUS
 62
     3
 10
57.8717892095447
 20
126.63939646099
 30
0.0
 40
0.500000007450581
 50
89.9999999480344
 51
179.999999948034
  0
LINE
  5
   43C
  8
0
  6
DOT
 62
     3
 10
59.1717892289162
 20
122.839397972049
 30
0.0
 11
58.971789587948
 21
122.839397972049
 31
0.0
  0
LINE
  5
   43D
  8
0
  6
DOT
 62
     3
 10
59.1717892289162
 20
123.43939798099
 30
0.0
 11
58.971789587948
 21
123.43939798099
 31
0.0
  0
LINE
  5
   43E
  8
0
  6
CONTINUOUS
 62
     3
 10
102.371789872646
 20
122.839397972118
 30
0.0
 11
102.171790233417
 21
122.839397972118
 31
0.0
  0
LINE
  5
   43F
  8
0
  6
CONTINUOUS
 62
     3
 10
102.371789872646
 20
123.439397981059
 30
0.0
 11
102.171790233417
 21
123.439397981059
 31
0.0
  0
ARC
  5
   440
  8
0
  6
DOT
 62
     3
 10
58.9717895876358
 20
123.139397976538
 30
0.0
 40
0.300000004208414
 50
89.9999999480344
 51
269.999999948034
  0
ARC
  5
   441
  8
0
  6
CONTINUOUS
 62
     3
 10
59.3717895938502
 20
123.139397976469
 30
0.0
 40
0.300000004474229
 50
269.999999948034
 51
449.999999948034
  0
LINE
  5
   442
  8
0
  6
CONTINUOUS
 62
     3
 10
59.3717895939089
 20
123.43939798099
 30
0.0
 11
59.1717892289162
 21
123.43939798099
 31
0.0
  0
LINE
  5
   443
  8
0
  6
CONTINUOUS
 62
     3
 10
59.371789593909
 20
122.839397972049
 30
0.0
 11
59.1717892289162
 21
122.839397972049
 31
0.0
  0
ARC
  5
   444
  8
0
  6
CONTINUOUS
 62
     3
 10
102.171790233492
 20
123.13939797646
 30
0.0
 40
0.300000004489751
 50
89.9999999519166
 51
269.999999944059
  0
ARC
  5
   445
  8
0
  6
DOT
 62
     3
 10
102.57179023942
 20
123.139397976466
 30
0.0
 40
0.30000000448199
 50
269.999999950484
 51
449.99999994552
  0
LINE
  5
   446
  8
0
  6
DOT
 62
     3
 10
102.571790239377
 20
123.439397981059
 30
0.0
 11
102.371789872646
 21
123.439397981059
 31
0.0
  0
LINE
  5
   447
  8
0
  6
DOT
 62
     3
 10
102.571790239377
 20
122.839397972118
 30
0.0
 11
102.371789872646
 21
122.839397972118
 31
0.0
  0
LINE
  5
   448
  8
0
  6
CONTINUOUS
 62
     3
 10
103.671789892018
 20
62.7393970346845
 30
0.0
 11
57.8717892095447
 21
62.7393970346845
 31
0.0
  0
ARC
  5
   449
  8
0
  6
DOT
 62
     7
 10
73.7717825443303
 20
68.0393933916476
 30
0.0
 40
1.79999922154889
 50
136.521683037288
 51
260.198490207526
  0
ARC
  5
   44A
  8
0
  6
DOT
 62
     7
 10
73.7717825443303
 20
68.0393933916476
 30
0.0
 40
1.79999922154889
 50
260.198490207526
 51
359.999999948034
  0
ARC
  5
   44B
  8
0
  6
CONTINUOUS
 62
     3
 10
101.271783128573
 20
164.339396084681
 30
0.0
 40
0.500000541867644
 50
360.000287654422
 51
449.999800478754
  0
ARC
  5
   44C
  8
0
  6
CONTINUOUS
 62
     3
 10
60.2717959729898
 20
164.339396084681
 30
0.0
 40
0.500000541867644
 50
449.813525640829
 51
539.999712241647
  0
LINE
  5
   44D
  8
0
  6
CONTINUOUS
 62
     3
 10
59.7717748671538
 20
154.439391816855
 30
0.0
 11
59.7717748671538
 21
164.339348950119
 31
0.0
  0
LINE
  5
   44E
  8
0
  6
CONTINUOUS
 62
     3
 10
60.7117958218802
 20
154.439391816855
 30
0.0
 11
60.7117958218802
 21
164.715132501997
 31
0.0
  0
LINE
  5
   44F
  8
0
  6
CONTINUOUS
 62
     3
 10
62.1517952329863
 20
154.439391816855
 30
0.0
 11
62.1517952329863
 21
164.715132501997
 31
0.0
  0
LINE
  5
   450
  8
0
  6
CONTINUOUS
 62
     3
 10
63.5917946440924
 20
154.439391816855
 30
0.0
 11
63.5917946440924
 21
164.715132501997
 31
0.0
  0
LINE
  5
   451
  8
0
  6
CONTINUOUS
 62
     3
 10
65.0317940551985
 20
154.439391816855
 30
0.0
 11
65.0317940551985
 21
164.715132501997
 31
0.0
  0
LINE
  5
   452
  8
0
  6
CONTINUOUS
 62
     3
 10
66.4717965180625
 20
154.439391816855
 30
0.0
 11
66.4717965180625
 21
164.715132501997
 31
0.0
  0
LINE
  5
   453
  8
0
  6
CONTINUOUS
 62
     3
 10
67.9117959291686
 20
154.439391816855
 30
0.0
 11
67.9117959291686
 21
164.715132501997
 31
0.0
  0
LINE
  5
   454
  8
0
  6
CONTINUOUS
 62
     3
 10
69.3517953402747
 20
154.439391816855
 30
0.0
 11
69.3517953402747
 21
164.715132501997
 31
0.0
  0
ARC
  5
   455
  8
0
  6
CONTINUOUS
 62
     3
 10
101.271781814061
 20
61.3393916370298
 30
0.0
 40
0.500001856388509
 50
270.000350048231
 51
359.999561610556
  0
ARC
  5
   456
  8
0
  6
CONTINUOUS
 62
     3
 10
57.8717892095447
 20
63.2393970421351
 30
0.0
 40
0.500000007450581
 50
179.999999948034
 51
269.999999948034
  0
LINE
  5
   457
  8
0
  6
CONTINUOUS
 62
     3
 10
59.5717892348766
 20
71.1393971598543
 30
0.0
 11
59.5717892348766
 21
73.7393971985973
 31
0.0
  0
LINE
  5
   458
  8
0
  6
CONTINUOUS
 62
     3
 10
59.7717748671538
 20
61.3394374570762
 30
0.0
 11
59.7717748671538
 21
62.7393970346845
 31
0.0
  0
ARC
  5
   459
  8
0
  6
CONTINUOUS
 62
     3
 10
60.2717972875019
 20
61.3393916370298
 30
0.0
 40
0.500001856388509
 50
180.000438285513
 51
270.186474189881
  0
LINE
  5
   45A
  8
0
  6
CONTINUOUS
 62
     3
 10
60.7117958218802
 20
60.9636539051981
 30
0.0
 11
60.7117958218802
 21
62.7393970346845
 31
0.0
  0
LINE
  5
   45B
  8
0
  6
CONTINUOUS
 62
     3
 10
62.1517952329863
 20
60.9636539051981
 30
0.0
 11
62.1517952329863
 21
62.7393970346845
 31
0.0
  0
LINE
  5
   45C
  8
0
  6
CONTINUOUS
 62
     3
 10
63.5917946440924
 20
60.9636539051981
 30
0.0
 11
63.5917946440924
 21
62.7393970346845
 31
0.0
  0
LINE
  5
   45D
  8
0
  6
CONTINUOUS
 62
     3
 10
65.0317940551985
 20
60.9636539051981
 30
0.0
 11
65.0317940551985
 21
62.7393970346845
 31
0.0
  0
LINE
  5
   45E
  8
0
  6
CONTINUOUS
 62
     3
 10
66.4717965180625
 20
60.9636539051981
 30
0.0
 11
66.4717965180625
 21
62.7393970346845
 31
0.0
  0
LINE
  5
   45F
  8
0
  6
CONTINUOUS
 62
     3
 10
67.9117959291686
 20
60.9636539051981
 30
0.0
 11
67.9117959291686
 21
62.7393970346845
 31
0.0
  0
LINE
  5
   460
  8
0
  6
CONTINUOUS
 62
     3
 10
69.3517953402747
 20
60.9636539051981
 30
0.0
 11
69.3517953402747
 21
62.7393970346845
 31
0.0
  0
LINE
  5
   461
  8
0
  6
CONTINUOUS
 62
     3
 10
70.7917947513808
 20
60.9636539051981
 30
0.0
 11
70.7917947513808
 21
62.7393970346845
 31
0.0
  0
LINE
  5
   462
  8
0
  6
CONTINUOUS
 62
     3
 10
72.2317941624869
 20
60.9636539051981
 30
0.0
 11
72.2317941624869
 21
62.7393970346845
 31
0.0
  0
LINE
  5
   463
  8
0
  6
CONTINUOUS
 62
     3
 10
73.6717966253509
 20
60.9636539051981
 30
0.0
 11
73.6717966253509
 21
62.7393970346845
 31
0.0
  0
LINE
  5
   464
  8
0
  6
CONTINUOUS
 62
     3
 10
75.111796036457
 20
60.9636539051981
 30
0.0
 11
75.111796036457
 21
62.7393970346845
 31
0.0
  0
LINE
  5
   465
  8
0
  6
CONTINUOUS
 62
     3
 10
60.1717748731143
 20
154.039391810894
 30
0.0
 11
60.1717748731143
 21
154.439391816855
 31
0.0
  0
CIRCLE
  5
   466
  8
0
  6
DOT
 62
     7
 10
87.7717896550894
 20
123.639396416286
 30
0.0
 40
1.79999176240177
  0
LINE
  5
   467
  8
0
  6
DASHDOT
 62
     7
 10
90.7717814353725
 20
123.639396416286
 30
0.0
 11
84.7717978748062
 21
123.639396416286
 31
0.0
  0
LINE
  5
   468
  8
0
  6
DASHDOT
 62
     7
 10
87.7717896550894
 20
117.83940459428
 30
0.0
 11
87.7717896550894
 21
126.522067530729
 31
0.0
  0
LINE
  5
   469
  8
0
  6
DASHDOT
 62
     7
 10
76.7717875698216
 20
123.639406566474
 30
0.0
 11
70.771789090961
 21
123.639406566474
 31
0.0
  0
LINE
  5
   46A
  8
0
  6
DASHDOT
 62
     7
 10
73.7717883303913
 20
116.468536283615
 30
0.0
 11
73.7717883303913
 21
126.639405805904
 31
0.0
  0
CIRCLE
  5
   46B
  8
0
  6
DOT
 62
     7
 10
73.7717883303913
 20
123.639406566474
 30
0.0
 40
1.79999922154889
  0
LINE
  5
   46C
  8
0
  6
DOT
 62
     7
 10
96.5238688382974
 20
120.639391313195
 30
0.0
 11
89.5717814174912
 21
120.639391313195
 31
0.0
  0
LINE
  5
   46D
  8
0
  6
DOT
 62
     7
 10
96.567488196113
 20
120.239391307235
 30
0.0
 11
89.5717814174912
 21
120.239391307235
 31
0.0
  0
LINE
  5
   46E
  8
0
  6
DOT
 62
     7
 10
89.5717814174912
 20
120.239391307235
 30
0.0
 11
89.5717814174912
 21
123.639396416286
 31
0.0
  0
LINE
  5
   46F
  8
0
  6
DOT
 62
     7
 10
85.9717978926876
 20
120.239391307235
 30
0.0
 11
85.9717978926876
 21
123.639396416286
 31
0.0
  0
LINE
  5
   470
  8
0
  6
DOT
 62
     7
 10
75.5717875519402
 20
120.239391307235
 30
0.0
 11
75.5717875519402
 21
123.639406566474
 31
0.0
  0
LINE
  5
   471
  8
0
  6
DOT
 62
     7
 10
71.9717891088424
 20
120.239391307235
 30
0.0
 11
71.9717891088424
 21
123.639406566474
 31
0.0
  0
LINE
  5
   472
  8
0
  6
DOT
 62
     7
 10
71.9717891088424
 20
120.639391313195
 30
0.0
 11
67.0153732760445
 21
120.639391313195
 31
0.0
  0
LINE
  5
   473
  8
0
  6
DOT
 62
     7
 10
71.9717891088424
 20
120.239391307235
 30
0.0
 11
66.8408958447821
 21
120.239391307235
 31
0.0
  0
LINE
  5
   474
  8
0
  6
DOT
 62
     7
 10
85.9717978926876
 20
120.639391313195
 30
0.0
 11
75.5717875519402
 21
120.639391313195
 31
0.0
  0
LINE
  5
   475
  8
0
  6
DOT
 62
     7
 10
85.9717978926876
 20
120.239391307235
 30
0.0
 11
75.5717875519402
 21
120.239391307235
 31
0.0
  0
POINT
  5
   476
  8
0
  6
CONTINUOUS
 62
     7
 10
80.7717895507813
 20
60.8393924287371
 30
0.0
  0
INSERT
  5
   477
  8
255
  6
CONTINUOUS
 62
     7
  2
TERM_ANT_
 10
34.8365344723442
 20
50.7446722651311
 30
0.0
 41
0.400000005960464
 42
0.400000005960464
 50
3.50835464724173E-15
 43
0.400000005960464
  0
INSERT
  5
   478
  8
0
  6
CONTINUOUS
 62
     7
  2
*UDIM818
 10
0.0
 20
0.0
 30
0.0
  0
INSERT
  5
   479
  8
0
  6
CONTINUOUS
 62
     7
  2
*UDIM819
 10
0.0
 20
0.0
 30
0.0
  0
INSERT
  5
   47A
  8
0
  6
CONTINUOUS
 62
     7
  2
*UDIM820
 10
0.0
 20
0.0
 30
0.0
  0
INSERT
  5
   47B
  8
0
  6
CONTINUOUS
 62
     7
  2
*UDIM821
 10
0.0
 20
0.0
 30
0.0
  0
INSERT
  5
   47C
  8
0
  6
CONTINUOUS
 62
     7
  2
*UDIM822
 10
0.0
 20
0.0
 30
0.0
  0
INSERT
  5
   47D
  8
0
  6
CONTINUOUS
 62
     7
  2
*UDIM823
 10
0.0
 20
0.0
 30
0.0
  0
INSERT
  5
   47E
  8
0
  6
CONTINUOUS
 62
     7
  2
*UDIM824
 10
0.0
 20
0.0
 30
0.0
  0
TEXT
  5
   47F
  8
0
  6
CONTINUOUS
 62
     7
 10
116.799026971199
 20
87.1497295175121
 30
0.0
 40
2.99999994933605
  1
=    =
 50
89.9999999480344
 41
0.91666673368878
 72
     1
 11
115.299027003754
 21
95.1247299814275
 31
0.0
 73
     2
  0
INSERT
  5
   480
  8
0
  6
CONTINUOUS
 62
     7
  2
*UDIM825
 10
0.0
 20
0.0
 30
0.0
  0
TEXT
  5
   481
  8
0
  6
CONTINUOUS
 62
     7
 10
79.9194788933771
 20
185.733124387858
 30
0.0
 40
2.99999994933605
  1
Y
 50
359.999999948034
 41
0.916666607525612
 72
     2
 11
82.1194787115829
 21
185.733124385874
 31
0.0
  0
TEXT
  5
   482
  8
0
  6
CONTINUOUS
 62
     7
 10
134.123700544406
 20
93.6679780026573
 30
0.0
 40
2.99999994933605
  1
X
 50
359.999999948034
 41
0.916666607525612
 72
     2
 11
136.323700362612
 21
93.667978000673
 31
0.0
  0
TEXT
  5
   483
  8
0
  6
CONTINUOUS
 62
     7
 10
50.0113030507991
 20
93.952872759405
 30
0.0
 40
2.99999994933605
  1
X
 50
359.999999948034
 41
0.916666607525612
 72
     2
 11
52.2113028690049
 21
93.9528727574207
 31
0.0
  0
LINE
  5
   484
  8
0
  6
CONTINUOUS
 62
   210
 10
204.012358719111
 20
-15.9738146046504
 30
0.0
 11
204.012358719111
 21
-25.9738147536621
 31
0.0
  0
LINE
  5
   485
  8
0
  6
CONTINUOUS
 62
   210
 10
204.012358719111
 20
-1.97381439603419
 30
0.0
 11
204.012358719111
 21
-11.9738145450458
 31
0.0
  0
LINE
  5
   486
  8
0
  6
CONTINUOUS
 62
   210
 10
204.012358719111
 20
12.0261888643399
 30
0.0
 11
204.012358719111
 21
2.02617956005474
 31
0.0
  0
LINE
  5
   487
  8
0
  6
CONTINUOUS
 62
   210
 10
223.21237731576
 20
-27.973843775164
 30
0.0
 11
205.812358745933
 21
-27.973843775164
 31
0.0
  0
LINE
  5
   488
  8
0
  6
CONTINUOUS
 62
   210
 10
208.412370991384
 20
14.0261888943268
 30
0.0
 11
205.81235874561
 21
14.0261949978424
 31
0.0
  0
LINE
  5
   489
  8
0
  6
CONTINUOUS
 62
   210
 10
223.21237731576
 20
14.0261827906265
 30
0.0
 11
208.412358784676
 21
14.0261827906265
 31
0.0
  0
LINE
  5
   48A
  8
0
  6
CONTINUOUS
 62
   210
 10
223.21237731576
 20
13.0261583616625
 30
0.0
 11
208.412358784676
 21
13.0261583616625
 31
0.0
  0
LINE
  5
   48B
  8
0
  6
CONTINUOUS
 62
   210
 10
223.21237731576
 20
0.726158178378228
 30
0.0
 11
208.412358784676
 21
0.726158178378228
 31
0.0
  0
LINE
  5
   48C
  8
0
  6
CONTINUOUS
 62
   210
 10
223.21237731576
 20
-0.673841842483398
 30
0.0
 11
208.412358784676
 21
-0.673841842483398
 31
0.0
  0
LINE
  5
   48D
  8
0
  6
CONTINUOUS
 62
   210
 10
223.21237731576
 20
-13.273842030238
 30
0.0
 11
208.412358784676
 21
-13.273842030238
 31
0.0
  0
LINE
  5
   48E
  8
0
  6
CONTINUOUS
 62
   210
 10
223.21237731576
 20
-14.6738420510997
 30
0.0
 11
208.412358784676
 21
-14.6738420510997
 31
0.0
  0
LINE
  5
   48F
  8
0
  6
CONTINUOUS
 62
   210
 10
223.21237731576
 20
-26.9738422343839
 30
0.0
 11
208.412358784676
 21
-26.9738422343839
 31
0.0
  0
LINE
  5
   490
  8
0
  6
CONTINUOUS
 62
   210
 10
223.21237731576
 20
14.0261827906265
 30
0.0
 11
223.21237731576
 21
11.1261888509289
 31
0.0
  0
LINE
  5
   491
  8
0
  6
CONTINUOUS
 62
   210
 10
223.21237731576
 20
2.92618872873936
 30
0.0
 11
223.21237731576
 21
-2.87381746120309
 31
0.0
  0
LINE
  5
   492
  8
0
  6
CONTINUOUS
 62
   210
 10
223.21237731576
 20
-11.0738175833926
 30
0.0
 11
223.21237731576
 21
-16.8738176698193
 31
0.0
  0
LINE
  5
   493
  8
0
  6
CONTINUOUS
 62
   210
 10
223.21237731576
 20
-25.0738177920089
 30
0.0
 11
223.21237731576
 21
-27.973843775164
 31
0.0
  0
LINE
  5
   494
  8
0
  6
CONTINUOUS
 62
   210
 10
205.812358745933
 20
-25.9738147536621
 30
0.0
 11
205.812358745933
 21
-27.973843775164
 31
0.0
  0
LINE
  5
   495
  8
0
  6
CONTINUOUS
 62
   210
 10
205.812358745933
 20
-11.9738145450458
 30
0.0
 11
205.812358745933
 21
-15.9738146046504
 31
0.0
  0
LINE
  5
   496
  8
0
  6
CONTINUOUS
 62
   210
 10
205.812358745933
 20
14.026194997658
 30
0.0
 11
205.812358745933
 21
12.0261827608242
 31
0.0
  0
LINE
  5
   497
  8
0
  6
CONTINUOUS
 62
   210
 10
208.412358784676
 20
14.0261812647476
 30
0.0
 11
208.412358784676
 21
-27.973843775164
 31
0.0
  0
LINE
  5
   498
  8
0
  6
CONTINUOUS
 62
   210
 10
218.812371146679
 20
11.1261888509289
 30
0.0
 11
215.812377205491
 21
11.1261888509289
 31
0.0
  0
LINE
  5
   499
  8
0
  6
CONTINUOUS
 62
   210
 10
218.812371146679
 20
2.92618872873936
 30
0.0
 11
215.812377205491
 21
2.92618872873936
 31
0.0
  0
LINE
  5
   49A
  8
0
  6
CONTINUOUS
 62
   210
 10
215.812377205491
 20
11.1261888509289
 30
0.0
 11
215.812377205491
 21
7.4419602804046
 31
0.0
  0
LINE
  5
   49B
  8
0
  6
CONTINUOUS
 62
   210
 10
215.812377205491
 20
6.61041119574793
 30
0.0
 11
215.812377205491
 21
2.92618872873936
 31
0.0
  0
LINE
  5
   49C
  8
0
  6
CONTINUOUS
 62
   210
 10
218.812371146679
 20
-2.87381440944523
 30
0.0
 11
215.812377205491
 21
-2.87381440944523
 31
0.0
  0
LINE
  5
   49D
  8
0
  6
CONTINUOUS
 62
   210
 10
218.812371146679
 20
-11.0738145316348
 30
0.0
 11
215.812377205491
 21
-11.0738145316348
 31
0.0
  0
LINE
  5
   49E
  8
0
  6
CONTINUOUS
 62
   210
 10
215.812377205491
 20
-2.87381440944523
 30
0.0
 11
215.812377205491
 21
-6.5580368764538
 31
0.0
  0
LINE
  5
   49F
  8
0
  6
CONTINUOUS
 62
   210
 10
215.812377205491
 20
-7.38958901286833
 30
0.0
 11
215.812377205491
 21
-11.0738145316348
 31
0.0
  0
LINE
  5
   4A0
  8
0
  6
CONTINUOUS
 62
   210
 10
218.812371146679
 20
-16.8738146180615
 30
0.0
 11
215.812377205491
 21
-16.8738146180615
 31
0.0
  0
LINE
  5
   4A1
  8
0
  6
CONTINUOUS
 62
   210
 10
218.812371146679
 20
-25.073814740251
 30
0.0
 11
215.812377205491
 21
-25.073814740251
 31
0.0
  0
LINE
  5
   4A2
  8
0
  6
CONTINUOUS
 62
   210
 10
215.812377205491
 20
-16.8738146180615
 30
0.0
 11
215.812377205491
 21
-20.5580340333122
 31
0.0
  0
LINE
  5
   4A3
  8
0
  6
CONTINUOUS
 62
   210
 10
215.812377205491
 20
-21.3895861697267
 30
0.0
 11
215.812377205491
 21
-25.073814740251
 31
0.0
  0
LINE
  5
   4A4
  8
0
  6
CONTINUOUS
 62
   210
 10
218.812371146679
 20
-25.7738147506818
 30
0.0
 11
215.812377205491
 21
-25.7738147506818
 31
0.0
  0
LINE
  5
   4A5
  8
0
  6
CONTINUOUS
 62
   210
 10
218.812371146679
 20
-16.1738146076307
 30
0.0
 11
215.812377205491
 21
-16.1738146076307
 31
0.0
  0
LINE
  5
   4A6
  8
0
  6
CONTINUOUS
 62
   210
 10
215.812377205491
 20
-25.073814740251
 30
0.0
 11
215.812377205491
 21
-25.7738147506818
 31
0.0
  0
LINE
  5
   4A7
  8
0
  6
CONTINUOUS
 62
   210
 10
215.812377205491
 20
-16.1738146076307
 30
0.0
 11
215.812377205491
 21
-16.8738146180615
 31
0.0
  0
LINE
  5
   4A8
  8
0
  6
CONTINUOUS
 62
   210
 10
215.812377205491
 20
-25.7738147506818
 30
0.0
 11
209.612377113104
 21
-25.7738147506818
 31
0.0
  0
LINE
  5
   4A9
  8
0
  6
CONTINUOUS
 62
   210
 10
215.812377205491
 20
-25.073814740251
 30
0.0
 11
209.612377113104
 21
-25.073814740251
 31
0.0
  0
LINE
  5
   4AA
  8
0
  6
CONTINUOUS
 62
   210
 10
215.812377205491
 20
-16.1738146076307
 30
0.0
 11
213.212377166748
 21
-16.1738146076307
 31
0.0
  0
LINE
  5
   4AB
  8
0
  6
CONTINUOUS
 62
   210
 10
215.812377205491
 20
-16.8738146180615
 30
0.0
 11
213.212377166748
 21
-16.8738146180615
 31
0.0
  0
LINE
  5
   4AC
  8
0
  6
CONTINUOUS
 62
   210
 10
218.812371146679
 20
-11.7738145420656
 30
0.0
 11
215.812377205491
 21
-11.7738145420656
 31
0.0
  0
LINE
  5
   4AD
  8
0
  6
CONTINUOUS
 62
   210
 10
218.812371146679
 20
-2.17381439901442
 30
0.0
 11
215.812377205491
 21
-2.17381439901442
 31
0.0
  0
LINE
  5
   4AE
  8
0
  6
CONTINUOUS
 62
   210
 10
215.812377205491
 20
-11.0738145316348
 30
0.0
 11
215.812377205491
 21
-11.7738145420656
 31
0.0
  0
LINE
  5
   4AF
  8
0
  6
CONTINUOUS
 62
   210
 10
215.812377205491
 20
-2.17381439901442
 30
0.0
 11
215.812377205491
 21
-2.87381440944523
 31
0.0
  0
LINE
  5
   4B0
  8
0
  6
CONTINUOUS
 62
   210
 10
215.812377205491
 20
-11.7738145420656
 30
0.0
 11
213.212377166748
 21
-11.7738145420656
 31
0.0
  0
LINE
  5
   4B1
  8
0
  6
CONTINUOUS
 62
   210
 10
215.812377205491
 20
-11.0738145316348
 30
0.0
 11
213.212377166748
 21
-11.0738145316348
 31
0.0
  0
LINE
  5
   4B2
  8
0
  6
CONTINUOUS
 62
   210
 10
215.812377205491
 20
-2.17381439901442
 30
0.0
 11
213.212377166748
 21
-2.17381439901442
 31
0.0
  0
LINE
  5
   4B3
  8
0
  6
CONTINUOUS
 62
   210
 10
215.812377205491
 20
-2.87381440944523
 30
0.0
 11
213.212377166748
 21
-2.87381440944523
 31
0.0
  0
LINE
  5
   4B4
  8
0
  6
CONTINUOUS
 62
   210
 10
218.812371146679
 20
2.22618871830855
 30
0.0
 11
215.812377205491
 21
2.22618871830855
 31
0.0
  0
LINE
  5
   4B5
  8
0
  6
CONTINUOUS
 62
   210
 10
218.812371146679
 20
11.8261888613597
 30
0.0
 11
215.812377205491
 21
11.8261888613597
 31
0.0
  0
LINE
  5
   4B6
  8
0
  6
CONTINUOUS
 62
   210
 10
215.812377205491
 20
2.92618872873936
 30
0.0
 11
215.812377205491
 21
2.22618871830855
 31
0.0
  0
LINE
  5
   4B7
  8
0
  6
CONTINUOUS
 62
   210
 10
215.812377205491
 20
11.8261888613597
 30
0.0
 11
215.812377205491
 21
11.1261888509289
 31
0.0
  0
LINE
  5
   4B8
  8
0
  6
CONTINUOUS
 62
   210
 10
215.812377205491
 20
2.22618871830855
 30
0.0
 11
213.212377166748
 21
2.22618871830855
 31
0.0
  0
LINE
  5
   4B9
  8
0
  6
CONTINUOUS
 62
   210
 10
215.812377205491
 20
2.92618872873936
 30
0.0
 11
213.212377166748
 21
2.92618872873936
 31
0.0
  0
LINE
  5
   4BA
  8
0
  6
CONTINUOUS
 62
   210
 10
215.812377205491
 20
11.8261888613597
 30
0.0
 11
209.612377113104
 21
11.8261888613597
 31
0.0
  0
LINE
  5
   4BB
  8
0
  6
CONTINUOUS
 62
   210
 10
215.812377205491
 20
11.1261888509289
 30
0.0
 11
209.612377113104
 21
11.1261888509289
 31
0.0
  0
LINE
  5
   4BC
  8
0
  6
CONTINUOUS
 62
   210
 10
215.812377205491
 20
-20.1738146672353
 30
0.0
 11
214.81237719059
 21
-20.1738146672353
 31
0.0
  0
LINE
  5
   4BD
  8
0
  6
CONTINUOUS
 62
   210
 10
215.812377205491
 20
-21.7738146910772
 30
0.0
 11
214.81237719059
 21
-21.7738146910772
 31
0.0
  0
LINE
  5
   4BE
  8
0
  6
CONTINUOUS
 62
   210
 10
214.81237719059
 20
-20.1738146672353
 30
0.0
 11
214.81237719059
 21
-21.7738146910772
 31
0.0
  0
LINE
  5
   4BF
  8
0
  6
CONTINUOUS
 62
   210
 10
215.812377205491
 20
-6.17381445861906
 30
0.0
 11
214.81237719059
 21
-6.17381445861906
 31
0.0
  0
LINE
  5
   4C0
  8
0
  6
CONTINUOUS
 62
   210
 10
215.812377205491
 20
-7.77381448246092
 30
0.0
 11
214.81237719059
 21
-7.77381448246092
 31
0.0
  0
LINE
  5
   4C1
  8
0
  6
CONTINUOUS
 62
   210
 10
214.81237719059
 20
-6.17381445861906
 30
0.0
 11
214.81237719059
 21
-7.77381448246092
 31
0.0
  0
LINE
  5
   4C2
  8
0
  6
CONTINUOUS
 62
   210
 10
215.812377205491
 20
7.82618880175505
 30
0.0
 11
214.81237719059
 21
7.82618880175505
 31
0.0
  0
LINE
  5
   4C3
  8
0
  6
CONTINUOUS
 62
   210
 10
215.812377205491
 20
6.22618877791319
 30
0.0
 11
214.81237719059
 21
6.22618877791319
 31
0.0
  0
LINE
  5
   4C4
  8
0
  6
CONTINUOUS
 62
   210
 10
214.81237719059
 20
7.82618880175505
 30
0.0
 11
214.81237719059
 21
6.22618877791319
 31
0.0
  0
LINE
  5
   4C5
  8
0
  6
CONTINUOUS
 62
   210
 10
223.21237731576
 20
-16.8738146180615
 30
0.0
 11
223.21237731576
 21
-18.7266039523108
 31
0.0
  0
LINE
  5
   4C6
  8
0
  6
CONTINUOUS
 62
   210
 10
223.21237731576
 20
-23.2210101472124
 30
0.0
 11
223.21237731576
 21
-25.073814740251
 31
0.0
  0
LINE
  5
   4C7
  8
0
  6
CONTINUOUS
 62
   210
 10
223.21237731576
 20
-2.87381440944523
 30
0.0
 11
223.21237731576
 21
-4.72660984721028
 31
0.0
  0
LINE
  5
   4C8
  8
0
  6
CONTINUOUS
 62
   210
 10
223.21237731576
 20
-9.22101604211184
 30
0.0
 11
223.21237731576
 21
-11.0738145316348
 31
0.0
  0
LINE
  5
   4C9
  8
0
  6
CONTINUOUS
 62
   210
 10
223.21237731576
 20
11.1261888509289
 30
0.0
 11
223.21237731576
 21
9.27338730964811
 31
0.0
  0
LINE
  5
   4CA
  8
0
  6
CONTINUOUS
 62
   210
 10
223.21237731576
 20
4.7789780629887
 30
0.0
 11
223.21237731576
 21
2.92618872873936
 31
0.0
  0
LINE
  5
   4CB
  8
0
  6
CONTINUOUS
 62
   130
 10
215.812371101976
 20
7.44196638392032
 30
0.0
 11
215.812371101976
 21
6.61041119574793
 31
0.0
  0
LINE
  5
   4CC
  8
0
  6
CONTINUOUS
 62
   130
 10
215.812371101976
 20
-20.5580340333122
 30
0.0
 11
215.812371101976
 21
-21.3895861697267
 31
0.0
  0
LINE
  5
   4CD
  8
0
  6
CONTINUOUS
 62
   130
 10
215.812371101976
 20
-6.55803382469594
 30
0.0
 11
215.812371101976
 21
-7.38958596111047
 31
0.0
  0
LINE
  5
   4CE
  8
0
  6
CONTINUOUS
 62
     2
 10
204.212358722091
 20
2.02617956005474
 30
0.0
 11
204.212358722091
 21
-1.97381439603419
 31
0.0
  0
LINE
  5
   4CF
  8
0
  6
CONTINUOUS
 62
     2
 10
204.212358722091
 20
-11.9738145450458
 30
0.0
 11
204.212358722091
 21
-15.9738146046504
 31
0.0
  0
LINE
  5
   4D0
  8
0
  6
CONTINUOUS
 62
     2
 10
203.61235871315
 20
12.0261888643399
 30
0.0
 11
203.61235871315
 21
-25.9738147536621
 31
0.0
  0
LINE
  5
   4D1
  8
0
  6
CONTINUOUS
 62
   210
 10
208.412358784676
 20
-25.9738147536621
 30
0.0
 11
205.812358745933
 21
-25.9738147536621
 31
0.0
  0
LINE
  5
   4D2
  8
0
  6
CONTINUOUS
 62
   210
 10
208.412358784676
 20
-15.9738146046504
 30
0.0
 11
205.812358745933
 21
-15.9738146046504
 31
0.0
  0
LINE
  5
   4D3
  8
0
  6
CONTINUOUS
 62
   210
 10
208.412358784676
 20
-11.9738145450458
 30
0.0
 11
205.812358745933
 21
-11.9738145450458
 31
0.0
  0
LINE
  5
   4D4
  8
0
  6
CONTINUOUS
 62
   210
 10
208.412358784676
 20
-1.97381439603419
 30
0.0
 11
205.812358745933
 21
-1.97381439603419
 31
0.0
  0
LINE
  5
   4D5
  8
0
  6
CONTINUOUS
 62
   210
 10
208.412358784676
 20
2.02618871532832
 30
0.0
 11
204.012358719111
 21
2.02618871532832
 31
0.0
  0
LINE
  5
   4D6
  8
0
  6
CONTINUOUS
 62
   210
 10
208.412358784676
 20
12.0261888643399
 30
0.0
 11
205.812358745933
 21
12.0261888643399
 31
0.0
  0
LINE
  5
   4D7
  8
0
  6
CONTINUOUS
 62
   210
 10
223.21237731576
 20
12.626158355702
 30
0.0
 11
208.412358784676
 21
12.626158355702
 31
0.0
  0
LINE
  5
   4D8
  8
0
  6
CONTINUOUS
 62
   210
 10
223.21237731576
 20
-26.5738422284235
 30
0.0
 11
208.412358784676
 21
-26.5738422284235
 31
0.0
  0
LINE
  5
   4D9
  8
0
  6
CONTINUOUS
 62
   210
 10
208.412358784676
 20
-27.5738437692036
 30
0.0
 11
205.812358745933
 21
-27.5738437692036
 31
0.0
  0
LINE
  5
   4DA
  8
0
  6
CONTINUOUS
 62
   210
 10
209.612377113104
 20
-25.073814740251
 30
0.0
 11
209.612377113104
 21
-25.7738147506818
 31
0.0
  0
LINE
  5
   4DB
  8
0
  6
CONTINUOUS
 62
   210
 10
213.212377166748
 20
-16.1738146076307
 30
0.0
 11
213.212377166748
 21
-16.8738146180615
 31
0.0
  0
LINE
  5
   4DC
  8
0
  6
CONTINUOUS
 62
   210
 10
213.212377166748
 20
-11.0738145316348
 30
0.0
 11
213.212377166748
 21
-11.7738145420656
 31
0.0
  0
LINE
  5
   4DD
  8
0
  6
CONTINUOUS
 62
   210
 10
213.212377166748
 20
-2.17381439901442
 30
0.0
 11
213.212377166748
 21
-2.87381440944523
 31
0.0
  0
LINE
  5
   4DE
  8
0
  6
CONTINUOUS
 62
   210
 10
213.212377166748
 20
2.92618872873936
 30
0.0
 11
213.212377166748
 21
2.22618871830855
 31
0.0
  0
LINE
  5
   4DF
  8
0
  6
CONTINUOUS
 62
   210
 10
209.612377113104
 20
11.8261888613597
 30
0.0
 11
209.612377113104
 21
11.1261888509289
 31
0.0
  0
LINE
  5
   4E0
  8
0
  6
CONTINUOUS
 62
   130
 10
216.612371113897
 20
11.0261888494388
 30
0.0
 11
215.812371101976
 21
11.0261888494388
 31
0.0
  0
LINE
  5
   4E1
  8
0
  6
CONTINUOUS
 62
   130
 10
216.612371113897
 20
3.02618873022948
 30
0.0
 11
215.812371101976
 21
3.02618873022948
 31
0.0
  0
LINE
  5
   4E2
  8
0
  6
CONTINUOUS
 62
   130
 10
216.612371113897
 20
-24.973811687003
 30
0.0
 11
215.812371101976
 21
-24.973811687003
 31
0.0
  0
LINE
  5
   4E3
  8
0
  6
CONTINUOUS
 62
   130
 10
216.612371113897
 20
-16.9738115677937
 30
0.0
 11
215.812371101976
 21
-16.9738115677937
 31
0.0
  0
LINE
  5
   4E4
  8
0
  6
CONTINUOUS
 62
   130
 10
216.612371113897
 20
-10.9738114783868
 30
0.0
 11
215.812371101976
 21
-10.9738114783868
 31
0.0
  0
LINE
  5
   4E5
  8
0
  6
CONTINUOUS
 62
   130
 10
216.612371113897
 20
-2.97381135917749
 30
0.0
 11
215.812371101976
 21
-2.97381135917749
 31
0.0
  0
LINE
  5
   4E6
  8
0
  6
DASHDOT
 62
     7
 10
280.592826272672
 20
-6.97381752229785
 30
0.0
 11
199.898924069645
 21
-6.97381752229785
 31
0.0
  0
LINE
  5
   4E7
  8
0
  6
CONTINUOUS
 62
   210
 10
205.812358745933
 20
-11.9738145450458
 30
0.0
 11
204.012358719111
 21
-11.9738145450458
 31
0.0
  0
LINE
  5
   4E8
  8
0
  6
CONTINUOUS
 62
   210
 10
205.812358745933
 20
-15.9738146046504
 30
0.0
 11
204.012358719111
 21
-15.9738146046504
 31
0.0
  0
LINE
  5
   4E9
  8
0
  6
CONTINUOUS
 62
   210
 10
205.812358745933
 20
-1.97381439603419
 30
0.0
 11
204.012358719111
 21
-1.97381439603419
 31
0.0
  0
LINE
  5
   4EA
  8
0
  6
CONTINUOUS
 62
   210
 10
205.812358745933
 20
-0.973841846953746
 30
0.0
 11
204.212358722091
 21
-0.973841846953746
 31
0.0
  0
LINE
  5
   4EB
  8
0
  6
CONTINUOUS
 62
   210
 10
204.012358719111
 20
2.22619482182427
 30
0.0
 11
204.012358719111
 21
2.02618871532832
 31
0.0
  0
LINE
  5
   4EC
  8
0
  6
CONTINUOUS
 62
   210
 10
205.812358745933
 20
12.0261888643399
 30
0.0
 11
204.012358719111
 21
12.0261888643399
 31
0.0
  0
LINE
  5
   4ED
  8
0
  6
CONTINUOUS
 62
   210
 10
204.012358719111
 20
-25.7738055954083
 30
0.0
 11
204.012358719111
 21
-25.9738147536621
 31
0.0
  0
LINE
  5
   4EE
  8
0
  6
DASHDOT
 62
     7
 10
227.637761112436
 20
7.02619489334984
 30
0.0
 11
199.550841799987
 21
7.02619489334984
 31
0.0
  0
LINE
  5
   4EF
  8
0
  6
DASHDOT
 62
     7
 10
227.637761112436
 20
-20.9738055238827
 30
0.0
 11
200.508068041546
 21
-20.9738055238827
 31
0.0
  0
LINE
  5
   4F0
  8
0
  6
CONTINUOUS
 62
     2
 10
222.81237120626
 20
-10.673814525662
 30
0.0
 11
218.412371140719
 21
-10.6738178825957
 31
0.0
  0
LINE
  5
   4F1
  8
0
  6
CONTINUOUS
 62
     2
 10
222.812371206257
 20
-3.2738144153912
 30
0.0
 11
218.412371140719
 21
-3.2738177723249
 31
0.0
  0
LINE
  5
   4F2
  8
0
  6
CONTINUOUS
 62
     2
 10
218.812371146679
 20
-10.6738084221586
 30
0.0
 11
218.812371146679
 21
-12.1738053927525
 31
0.0
  0
LINE
  5
   4F3
  8
0
  6
CONTINUOUS
 62
     2
 10
218.812371146679
 20
-1.77380523778038
 30
0.0
 11
218.812371146679
 21
-3.27380526013212
 31
0.0
  0
LINE
  5
   4F4
  8
0
  6
CONTINUOUS
 62
     2
 10
223.212371212244
 20
-1.77380523778038
 30
0.0
 11
223.212371212244
 21
-2.97380525566177
 31
0.0
  0
LINE
  5
   4F5
  8
0
  6
CONTINUOUS
 62
     2
 10
223.212371212244
 20
-3.2738144154057
 30
0.0
 11
223.212371212244
 21
-10.6738175774321
 31
0.0
  0
LINE
  5
   4F6
  8
0
  6
CONTINUOUS
 62
     2
 10
223.212371212244
 20
-10.9738053748711
 30
0.0
 11
223.212371212244
 21
-12.1738053927525
 31
0.0
  0
LINE
  5
   4F7
  8
0
  6
CONTINUOUS
 62
     2
 10
223.212371212244
 20
-10.9738053748711
 30
0.0
 11
222.812371206284
 21
-10.9738053748711
 31
0.0
  0
LINE
  5
   4F8
  8
0
  6
CONTINUOUS
 62
     2
 10
223.212371212244
 20
-2.97380525566177
 30
0.0
 11
222.812371206284
 21
-2.97380525566177
 31
0.0
  0
LINE
  5
   4F9
  8
0
  6
CONTINUOUS
 62
     2
 10
223.212371212244
 20
-2.97380525566177
 30
0.0
 11
223.212371212244
 21
-3.27381746716355
 31
0.0
  0
LINE
  5
   4FA
  8
0
  6
CONTINUOUS
 62
     2
 10
223.212371212244
 20
-10.6738175774321
 30
0.0
 11
223.212371212244
 21
-10.9738053748711
 31
0.0
  0
LINE
  5
   4FB
  8
0
  6
CONTINUOUS
 62
     2
 10
222.812371206284
 20
-2.97380525566177
 30
0.0
 11
222.812371206284
 21
-3.27381746716355
 31
0.0
  0
LINE
  5
   4FC
  8
0
  6
CONTINUOUS
 62
     2
 10
222.812371206284
 20
-10.6738175774321
 30
0.0
 11
222.812371206284
 21
-10.9738053748711
 31
0.0
  0
LINE
  5
   4FD
  8
0
  6
CONTINUOUS
 62
     2
 10
220.305190382791
 20
-10.6738175774321
 30
0.0
 11
220.305190382791
 21
-11.0737992728455
 31
0.0
  0
LINE
  5
   4FE
  8
0
  6
CONTINUOUS
 62
     2
 10
220.305191569883
 20
-11.073799963188
 30
0.0
 11
218.812372371967
 21
-10.6738090982274
 31
0.0
  0
LINE
  5
   4FF
  8
0
  6
CONTINUOUS
 62
     2
 10
220.305190382791
 20
-2.87379609889808
 30
0.0
 11
220.305190382791
 21
-3.27379610485855
 31
0.0
  0
LINE
  5
   500
  8
0
  6
CONTINUOUS
 62
     2
 10
220.305193083423
 20
-2.87379767138566
 30
0.0
 11
218.812373885504
 21
-3.27380681228601
 31
0.0
  0
LINE
  5
   501
  8
0
  6
CONTINUOUS
 62
     2
 10
218.812371146679
 20
3.32618263118411
 30
0.0
 11
218.412371140719
 21
3.32618263118411
 31
0.0
  0
LINE
  5
   502
  8
0
  6
CONTINUOUS
 62
     2
 10
218.812371146679
 20
10.7261827414527
 30
0.0
 11
218.412371140719
 21
10.7261827414527
 31
0.0
  0
LINE
  5
   503
  8
0
  6
CONTINUOUS
 62
     2
 10
222.812371206284
 20
3.32618263118411
 30
0.0
 11
218.812371146679
 21
3.32618263118411
 31
0.0
  0
LINE
  5
   504
  8
0
  6
CONTINUOUS
 62
     2
 10
222.812371206284
 20
10.7261827414527
 30
0.0
 11
218.812371146679
 21
10.7261827414527
 31
0.0
  0
LINE
  5
   505
  8
0
  6
CONTINUOUS
 62
     2
 10
218.812371146679
 20
3.32619483821554
 30
0.0
 11
218.812371146679
 21
1.8261948158638
 31
0.0
  0
LINE
  5
   506
  8
0
  6
CONTINUOUS
 62
     2
 10
218.812371146679
 20
12.2261949708359
 30
0.0
 11
218.812371146679
 21
10.7261949484841
 31
0.0
  0
LINE
  5
   507
  8
0
  6
CONTINUOUS
 62
     2
 10
223.212371212244
 20
12.2261949708359
 30
0.0
 11
223.212371212244
 21
11.0261949529545
 31
0.0
  0
LINE
  5
   508
  8
0
  6
CONTINUOUS
 62
     2
 10
223.212371212244
 20
10.7261888449684
 30
0.0
 11
223.212371212244
 21
3.32618263118411
 31
0.0
  0
LINE
  5
   509
  8
0
  6
CONTINUOUS
 62
     2
 10
223.212371212244
 20
3.02619483374519
 30
0.0
 11
223.212371212244
 21
1.8261948158638
 31
0.0
  0
LINE
  5
   50A
  8
0
  6
CONTINUOUS
 62
     2
 10
223.212371212244
 20
3.02619483374519
 30
0.0
 11
222.812371206284
 21
3.02619483374519
 31
0.0
  0
LINE
  5
   50B
  8
0
  6
CONTINUOUS
 62
     2
 10
223.212371212244
 20
11.0261949529545
 30
0.0
 11
222.812371206284
 21
11.0261949529545
 31
0.0
  0
LINE
  5
   50C
  8
0
  6
CONTINUOUS
 62
     2
 10
223.212371212244
 20
11.0261949529545
 30
0.0
 11
223.212371212244
 21
10.7261827414527
 31
0.0
  0
LINE
  5
   50D
  8
0
  6
CONTINUOUS
 62
     2
 10
223.212371212244
 20
3.32618263118411
 30
0.0
 11
223.212371212244
 21
3.02619483374519
 31
0.0
  0
LINE
  5
   50E
  8
0
  6
CONTINUOUS
 62
     2
 10
222.812371206284
 20
11.0261949529545
 30
0.0
 11
222.812371206284
 21
10.7261827414527
 31
0.0
  0
LINE
  5
   50F
  8
0
  6
CONTINUOUS
 62
     2
 10
222.812371206284
 20
3.32618263118411
 30
0.0
 11
222.812371206284
 21
3.02619483374519
 31
0.0
  0
LINE
  5
   510
  8
0
  6
CONTINUOUS
 62
     2
 10
220.305190382791
 20
3.32618263118411
 30
0.0
 11
220.305190382791
 21
2.92620093577079
 31
0.0
  0
LINE
  5
   511
  8
0
  6
CONTINUOUS
 62
     2
 10
220.305189863741
 20
2.92620130511772
 30
0.0
 11
218.812370665823
 21
3.32619522318641
 31
0.0
  0
LINE
  5
   512
  8
0
  6
CONTINUOUS
 62
     2
 10
220.305190382791
 20
11.1262010579603
 30
0.0
 11
220.305190382791
 21
10.7262010519999
 31
0.0
  0
LINE
  5
   513
  8
0
  6
CONTINUOUS
 62
     2
 10
220.305194175872
 20
11.1261979195579
 30
0.0
 11
218.812374977952
 21
10.72619183178
 31
0.0
  0
LINE
  5
   514
  8
0
  6
CONTINUOUS
 62
     2
 10
222.812374258017
 20
-24.6738147342823
 30
0.0
 11
218.412371140719
 21
-24.6738180912158
 31
0.0
  0
LINE
  5
   515
  8
0
  6
CONTINUOUS
 62
     2
 10
222.812368154499
 20
-17.2738146240116
 30
0.0
 11
218.412371140719
 21
-17.2738179809455
 31
0.0
  0
LINE
  5
   516
  8
0
  6
CONTINUOUS
 62
     2
 10
218.812371146679
 20
-24.6738086307748
 30
0.0
 11
218.812371146679
 21
-26.1738056013687
 31
0.0
  0
LINE
  5
   517
  8
0
  6
CONTINUOUS
 62
     2
 10
218.812371146679
 20
-15.7738054463966
 30
0.0
 11
218.812371146679
 21
-17.2738054687484
 31
0.0
  0
LINE
  5
   518
  8
0
  6
CONTINUOUS
 62
     2
 10
223.212371212244
 20
-15.7738054463966
 30
0.0
 11
223.212371212244
 21
-16.973805464278
 31
0.0
  0
LINE
  5
   519
  8
0
  6
CONTINUOUS
 62
     2
 10
223.212371212244
 20
-17.273814624022
 30
0.0
 11
223.212371212244
 21
-24.6738177860484
 31
0.0
  0
LINE
  5
   51A
  8
0
  6
CONTINUOUS
 62
     2
 10
223.212371212244
 20
-24.9738055834873
 30
0.0
 11
223.212371212244
 21
-26.1738056013687
 31
0.0
  0
LINE
  5
   51B
  8
0
  6
CONTINUOUS
 62
     2
 10
223.212371212244
 20
-24.9738055834873
 30
0.0
 11
222.812371206284
 21
-24.9738055834873
 31
0.0
  0
LINE
  5
   51C
  8
0
  6
CONTINUOUS
 62
     2
 10
223.212371212244
 20
-16.973805464278
 30
0.0
 11
222.812371206284
 21
-16.973805464278
 31
0.0
  0
LINE
  5
   51D
  8
0
  6
CONTINUOUS
 62
     2
 10
223.212371212244
 20
-16.973805464278
 30
0.0
 11
223.212371212244
 21
-17.2738176757798
 31
0.0
  0
LINE
  5
   51E
  8
0
  6
CONTINUOUS
 62
     2
 10
223.212371212244
 20
-24.6738177860484
 30
0.0
 11
223.212371212244
 21
-24.9738055834873
 31
0.0
  0
LINE
  5
   51F
  8
0
  6
CONTINUOUS
 62
     2
 10
222.812371206284
 20
-16.973805464278
 30
0.0
 11
222.812371206284
 21
-17.2738176757798
 31
0.0
  0
LINE
  5
   520
  8
0
  6
CONTINUOUS
 62
     2
 10
222.812371206284
 20
-24.6738177860484
 30
0.0
 11
222.812371206284
 21
-24.9738055834873
 31
0.0
  0
LINE
  5
   521
  8
0
  6
CONTINUOUS
 62
     2
 10
220.305190382791
 20
-24.6738177860484
 30
0.0
 11
220.305190382791
 21
-25.0737994814617
 31
0.0
  0
LINE
  5
   522
  8
0
  6
CONTINUOUS
 62
     2
 10
220.305191526477
 20
-25.0737999865472
 30
0.0
 11
218.812372328561
 21
-24.6738091215866
 31
0.0
  0
LINE
  5
   523
  8
0
  6
CONTINUOUS
 62
     2
 10
220.305190382791
 20
-16.8737963075143
 30
0.0
 11
220.305190382791
 21
-17.2737963134748
 31
0.0
  0
LINE
  5
   524
  8
0
  6
CONTINUOUS
 62
     2
 10
220.305193213352
 20
-16.873797325481
 30
0.0
 11
218.812374015433
 21
-17.2738064663814
 31
0.0
  0
LINE
  5
   525
  8
0
  6
CONTINUOUS
 62
     2
 10
223.212371212244
 20
-12.1738053927525
 30
0.0
 11
218.812371146679
 21
-12.1738053927525
 31
0.0
  0
LINE
  5
   526
  8
0
  6
CONTINUOUS
 62
     2
 10
223.212371212244
 20
-1.77380523778038
 30
0.0
 11
218.812371146679
 21
-1.77380523778038
 31
0.0
  0
LINE
  5
   527
  8
0
  6
CONTINUOUS
 62
     2
 10
224.012377327681
 20
-2.00047237632526
 30
0.0
 11
223.212371499337
 21
-1.97380551716959
 31
0.0
  0
LINE
  5
   528
  8
0
  6
CONTINUOUS
 62
     2
 10
224.012377327681
 20
-11.9471387239613
 30
0.0
 11
223.212371483696
 21
-11.9738055836383
 31
0.0
  0
LINE
  5
   529
  8
0
  6
CONTINUOUS
 62
     2
 10
223.212371212244
 20
1.8261948158638
 30
0.0
 11
218.812371146679
 21
1.8261948158638
 31
0.0
  0
LINE
  5
   52A
  8
0
  6
CONTINUOUS
 62
     2
 10
223.212371212244
 20
12.2261949708359
 30
0.0
 11
218.812371146679
 21
12.2261949708359
 31
0.0
  0
LINE
  5
   52B
  8
0
  6
CONTINUOUS
 62
     2
 10
224.012377327681
 20
11.9995277607061
 30
0.0
 11
223.21237150172
 21
12.0261946197823
 31
0.0
  0
LINE
  5
   52C
  8
0
  6
CONTINUOUS
 62
     2
 10
224.012377327681
 20
2.05286141307009
 30
0.0
 11
223.212371481312
 21
2.02619455331359
 31
0.0
  0
LINE
  5
   52D
  8
0
  6
CONTINUOUS
 62
     2
 10
223.212371212244
 20
-26.1738056013687
 30
0.0
 11
218.812371146679
 21
-26.1738056013687
 31
0.0
  0
LINE
  5
   52E
  8
0
  6
CONTINUOUS
 62
     2
 10
223.212371212244
 20
-15.7738054463966
 30
0.0
 11
218.812371146679
 21
-15.7738054463966
 31
0.0
  0
LINE
  5
   52F
  8
0
  6
CONTINUOUS
 62
     2
 10
224.012377327681
 20
-16.0004725133566
 30
0.0
 11
223.212371496953
 21
-15.9738056541215
 31
0.0
  0
LINE
  5
   530
  8
0
  6
CONTINUOUS
 62
     2
 10
224.012377327681
 20
-25.9471388609926
 30
0.0
 11
223.212371486079
 21
-25.9738057205902
 31
0.0
  0
LINE
  5
   531
  8
0
  6
CONTINUOUS
 62
     7
 10
224.012371224165
 20
14.0261827906265
 30
0.0
 11
224.012371224165
 21
-27.973843775164
 31
0.0
  0
LINE
  5
   532
  8
0
  6
DASHDOT
 62
     7
 10
203.412370917201
 20
16.623720592954
 30
0.0
 11
203.412370917201
 21
-31.1588747695667
 31
0.0
  0
LINE
  5
   533
  8
0
  6
DASHDOT
 62
     7
 10
202.21237089932
 20
16.623720592954
 30
0.0
 11
202.21237089932
 21
-30.8978130673233
 31
0.0
  0
LINE
  5
   534
  8
0
  6
CONTINUOUS
 62
     7
 10
266.012371850014
 20
22.0190005977499
 30
0.0
 11
266.012371850014
 21
-35.4726390232477
 31
0.0
  0
LINE
  5
   535
  8
0
  6
CONTINUOUS
 62
     7
 10
266.812371861935
 20
22.0190005977499
 30
0.0
 11
266.812371861935
 21
-35.4726390232477
 31
0.0
  0
LINE
  5
   536
  8
0
  6
CONTINUOUS
 62
     1
 10
268.212371882797
 20
16.4261828263893
 30
0.0
 11
268.212371882797
 21
-30.373817870985
 31
0.0
  0
LINE
  5
   537
  8
0
  6
CONTINUOUS
 62
     1
 10
268.212371882797
 20
16.4261828263893
 30
0.0
 11
266.812371861935
 21
16.4261828263893
 31
0.0
  0
LINE
  5
   538
  8
0
  6
CONTINUOUS
 62
     1
 10
268.212371882797
 20
-30.373817870985
 30
0.0
 11
266.812371861935
 21
-30.373817870985
 31
0.0
  0
LINE
  5
   539
  8
0
  6
CONTINUOUS
 62
     7
 10
266.012371850014
 20
14.0261827906265
 30
0.0
 11
224.012371224165
 21
14.0261827906265
 31
0.0
  0
LINE
  5
   53A
  8
0
  6
CONTINUOUS
 62
     7
 10
266.012371850014
 20
-27.9738178352222
 30
0.0
 11
224.012371224165
 21
-27.9738178352222
 31
0.0
  0
LINE
  5
   53B
  8
0
  6
CONTINUOUS
 62
     7
 10
263.812371817231
 20
14.0261827906265
 30
0.0
 11
263.812371817231
 21
-27.9738178352222
 31
0.0
  0
LINE
  5
   53C
  8
0
  6
CONTINUOUS
 62
     7
 10
264.612371829152
 20
14.0261827906265
 30
0.0
 11
264.612371829152
 21
-27.9738178352222
 31
0.0
  0
LINE
  5
   53D
  8
0
  6
CONTINUOUS
 62
     7
 10
277.212372016907
 20
-2.57381745673274
 30
0.0
 11
277.212372016907
 21
-11.373817587863
 31
0.0
  0
LINE
  5
   53E
  8
0
  6
CONTINUOUS
 62
     7
 10
277.212372016907
 20
-2.57381745673274
 30
0.0
 11
268.212371882797
 21
-2.57381745673274
 31
0.0
  0
LINE
  5
   53F
  8
0
  6
CONTINUOUS
 62
     7
 10
277.212372016907
 20
-11.373817587863
 30
0.0
 11
268.212371882797
 21
-11.373817587863
 31
0.0
  0
LINE
  5
   540
  8
0
  6
CONTINUOUS
 62
   210
 10
205.812358745933
 20
2.02617956005474
 30
0.0
 11
205.812358745933
 21
-1.9738204995499
 31
0.0
  0
LINE
  5
   541
  8
0
  6
CONTINUOUS
 62
   210
 10
205.812358745933
 20
2.02617956005474
 30
0.0
 11
204.012358719111
 21
2.02617956005474
 31
0.0
  0
LINE
  5
   542
  8
0
  6
CONTINUOUS
 62
   210
 10
205.812358745933
 20
-25.9738147536621
 30
0.0
 11
204.012358719111
 21
-25.9738147536621
 31
0.0
  0
LINE
  5
   543
  8
0
  6
CONTINUOUS
 62
     2
 10
204.012358719111
 20
12.0261888643399
 30
0.0
 11
203.61235871315
 21
12.0261888643399
 31
0.0
  0
LINE
  5
   544
  8
0
  6
CONTINUOUS
 62
     2
 10
204.012358719111
 20
-25.9738147536621
 30
0.0
 11
203.61235871315
 21
-25.9738147536621
 31
0.0
  0
LINE
  5
   545
  8
0
  6
CONTINUOUS
 62
     7
 10
215.812371101976
 20
11.0261949529545
 30
0.0
 11
215.812371101976
 21
3.02619483374519
 31
0.0
  0
LINE
  5
   546
  8
0
  6
CONTINUOUS
 62
     7
 10
217.812371131778
 20
11.0261949529545
 30
0.0
 11
217.812371131778
 21
3.02619483374519
 31
0.0
  0
LINE
  5
   547
  8
0
  6
CONTINUOUS
 62
     7
 10
217.812371131778
 20
11.0261949529545
 30
0.0
 11
215.812371101976
 21
11.0261949529545
 31
0.0
  0
LINE
  5
   548
  8
0
  6
CONTINUOUS
 62
     7
 10
217.812371131778
 20
3.02619483374519
 30
0.0
 11
215.812371101976
 21
3.02619483374519
 31
0.0
  0
LINE
  5
   549
  8
0
  6
CONTINUOUS
 62
     2
 10
218.412371140719
 20
10.7261827414527
 30
0.0
 11
218.412371140719
 21
3.32618263118411
 31
0.0
  0
LINE
  5
   54A
  8
0
  6
CONTINUOUS
 62
     7
 10
217.812371131778
 20
10.5261949455039
 30
0.0
 11
215.812371101976
 21
10.5261949455039
 31
0.0
  0
LINE
  5
   54B
  8
0
  6
CONTINUOUS
 62
     7
 10
217.812371131778
 20
3.52619484119577
 30
0.0
 11
215.812371101976
 21
3.52619484119577
 31
0.0
  0
LINE
  5
   54C
  8
0
  6
CONTINUOUS
 62
     7
 10
215.812371101976
 20
-2.97380525566177
 30
0.0
 11
215.812371101976
 21
-10.9738053748711
 31
0.0
  0
LINE
  5
   54D
  8
0
  6
CONTINUOUS
 62
     7
 10
217.812371131778
 20
-2.97380525566177
 30
0.0
 11
217.812371131778
 21
-10.9738053748711
 31
0.0
  0
LINE
  5
   54E
  8
0
  6
CONTINUOUS
 62
     7
 10
217.812371131778
 20
-2.97380525566177
 30
0.0
 11
215.812371101976
 21
-2.97380525566177
 31
0.0
  0
LINE
  5
   54F
  8
0
  6
CONTINUOUS
 62
     7
 10
217.812371131778
 20
-3.47380526311235
 30
0.0
 11
215.812371101976
 21
-3.47380526311235
 31
0.0
  0
LINE
  5
   550
  8
0
  6
CONTINUOUS
 62
     7
 10
217.812371131778
 20
-10.4738053674205
 30
0.0
 11
215.812371101976
 21
-10.4738053674205
 31
0.0
  0
LINE
  5
   551
  8
0
  6
CONTINUOUS
 62
     7
 10
217.812371131778
 20
-10.9738053748711
 30
0.0
 11
215.812371101976
 21
-10.9738053748711
 31
0.0
  0
LINE
  5
   552
  8
0
  6
CONTINUOUS
 62
     2
 10
218.412371140719
 20
-3.27381746716355
 30
0.0
 11
218.412371140719
 21
-10.6738175774321
 31
0.0
  0
LINE
  5
   553
  8
0
  6
CONTINUOUS
 62
     2
 10
218.412371140719
 20
-17.2738176757798
 30
0.0
 11
218.412371140719
 21
-24.6738177860484
 31
0.0
  0
LINE
  5
   554
  8
0
  6
CONTINUOUS
 62
     7
 10
217.812371131778
 20
-16.973805464278
 30
0.0
 11
217.812371131778
 21
-24.9738055834873
 31
0.0
  0
LINE
  5
   555
  8
0
  6
CONTINUOUS
 62
     7
 10
217.812371131778
 20
-16.973805464278
 30
0.0
 11
215.812371101976
 21
-16.973805464278
 31
0.0
  0
LINE
  5
   556
  8
0
  6
CONTINUOUS
 62
     7
 10
217.812371131778
 20
-17.4738054717286
 30
0.0
 11
215.812371101976
 21
-17.4738054717286
 31
0.0
  0
LINE
  5
   557
  8
0
  6
CONTINUOUS
 62
     7
 10
217.812371131778
 20
-24.4738055760367
 30
0.0
 11
215.812371101976
 21
-24.4738055760367
 31
0.0
  0
LINE
  5
   558
  8
0
  6
CONTINUOUS
 62
     7
 10
217.812371131778
 20
-24.9738055834873
 30
0.0
 11
215.812371101976
 21
-24.9738055834873
 31
0.0
  0
LINE
  5
   559
  8
0
  6
CONTINUOUS
 62
     7
 10
215.812371101976
 20
-16.973805464278
 30
0.0
 11
215.812371101976
 21
-24.9738055834873
 31
0.0
  0
INSERT
  5
   55A
  8
0
  6
CONTINUOUS
 62
     7
  2
*UDIM826
 10
0.0
 20
0.0
 30
0.0
  0
INSERT
  5
   55B
  8
0
  6
CONTINUOUS
 62
     7
  2
*UDIM827
 10
0.0
 20
0.0
 30
0.0
  0
TEXT
  5
   55C
  8
0
  6
CONTINUOUS
 62
     7
 10
195.814610120214
 20
-8.47551535595341
 30
0.0
 40
2.99999994933605
  1
Y
 50
359.999999896069
 41
0.916666607525612
 72
     2
 11
198.01460993842
 21
-8.47551535993302
 31
0.0
  0
TEXT
  5
   55D
  8
0
  6
CONTINUOUS
 62
     7
 10
287.424422886674
 20
-8.73845481299651
 30
0.0
 40
2.99999994933605
  1
Y
 50
359.999999896069
 41
0.916666607525612
 72
     2
 11
289.62442270488
 21
-8.73845481697612
 31
0.0
  0
LINE
  5
   55E
  8
0
  6
DASHDOT
 62
     7
 10
144.850296020508
 20
-56.6996404303837
 30
0.0
 11
144.850296020508
 21
-110.462488541905
 31
0.0
  0
LINE
  5
   55F
  8
0
  6
CONTINUOUS
 62
     3
 10
127.975296020508
 20
-60.1323424075054
 30
0.0
 11
127.975296020508
 21
-99.7130697899098
 31
0.0
  0
LINE
  5
   560
  8
0
  6
DASHDOT
 62
     7
 10
151.100296020508
 20
-60.9332080264515
 30
0.0
 11
151.100296020508
 21
-97.2390807247877
 31
0.0
  0
LINE
  5
   561
  8
0
  6
DASHDOT
 62
     7
 10
133.600296020508
 20
-59.9282011697502
 30
0.0
 11
133.600296020508
 21
-97.1134548677
 31
0.0
  0
LINE
  5
   562
  8
0
  6
DASHDOT
 62
     7
 10
154.64127049286
 20
-66.3845748901367
 30
0.0
 11
129.767350789502
 21
-66.3845748901367
 31
0.0
  0
LINE
  5
   563
  8
0
  6
DASHDOT
 62
     7
 10
154.264392921597
 20
-91.3845748901367
 30
0.0
 11
130.144228360765
 21
-91.3845748901367
 31
0.0
  0
CIRCLE
  5
   564
  8
0
  6
CONTINUOUS
 62
     7
 10
133.600296020508
 20
-66.3845748901367
 30
0.0
 40
0.625
  0
CIRCLE
  5
   565
  8
0
  6
CONTINUOUS
 62
     7
 10
151.100296020508
 20
-66.3845748901367
 30
0.0
 40
0.625
  0
CIRCLE
  5
   566
  8
0
  6
CONTINUOUS
 62
     7
 10
151.100296020508
 20
-91.3845748901367
 30
0.0
 40
0.625
  0
CIRCLE
  5
   567
  8
0
  6
CONTINUOUS
 62
     7
 10
133.600296020508
 20
-91.3845748901367
 30
0.0
 40
0.625
  0
LINE
  5
   568
  8
0
  6
DASHDOT
 62
     7
 10
159.534676420918
 20
-79.4470748901367
 30
0.0
 11
115.826097601058
 21
-79.4470748901367
 31
0.0
  0
LINE
  5
   569
  8
0
  6
CONTINUOUS
 62
     3
 10
157.388168451474
 20
-60.1323424075054
 30
0.0
 11
127.975296020508
 21
-60.1323424075054
 31
0.0
  0
LINE
  5
   56A
  8
0
  6
CONTINUOUS
 62
     3
 10
157.388168451474
 20
-99.7130697899098
 30
0.0
 11
127.975296020508
 21
-99.7130697899098
 31
0.0
  0
LINE
  5
   56B
  8
0
  6
CONTINUOUS
 62
     3
 10
157.388168451474
 20
-60.1323424075054
 30
0.0
 11
157.388168451474
 21
-99.7130697899098
 31
0.0
  0
TEXT
  5
   56C
  8
0
  6
CONTINUOUS
 62
     1
 10
138.296893362876
 20
-193.480718893192
 30
0.0
 40
2.00000008940697
  1
M4352 96-12-17
 50
359.999999896069
 41
0.749999861419206
 72
     2
 11
158.99689045566
 21
-193.480718930637
 31
0.0
  0
TEXT
  5
   56D
  8
0
  6
CONTINUOUS
 62
     1
 10
130.442901609519
 20
-178.463386602259
 30
0.0
 40
2.00000008940697
  1
96-11-19 BARCELLA
 50
359.999999896069
 41
0.749999861419206
 72
     2
 11
155.642898071984
 21
-178.463386647844
 31
0.0
  0
TEXT
  5
   56E
  8
0
  6
CONTINUOUS
 62
     1
 10
231.973709102828
 20
-204.68986525788
 30
0.0
 40
4.00000017881393
  1
605032/121
 50
359.999999896069
 41
0.937499973922969
 72
     2
 11
268.723709702599
 21
-204.689865324357
 31
0.0
  0
TEXT
  5
   56F
  8
0
  6
CONTINUOUS
 62
     1
 10
250.059402463107
 20
-195.708282493541
 30
0.0
 40
3.00000002980232
  1
S3X
 50
359.999999896069
 41
0.916666604744064
 72
     2
 11
257.759402015079
 21
-195.70828250747
 31
0.0
  0
TEXT
  5
   570
  8
0
  6
CONTINUOUS
 62
     1
 10
223.962477530593
 20
-177.398010250357
 30
0.0
 40
2.00000008940697
  1
3POLE LOW VOLTAGE M.C.C.B SERIES ISOMAX
 50
359.999999896069
 41
0.687499997764826
 72
     1
 11
250.637478634715
 21
-176.398010253906
 31
0.0
 73
     2
  0
TEXT
  5
   571
  8
0
  6
CONTINUOUS
 62
     1
 10
219.837477359602
 20
-180.398010242895
 30
0.0
 40
2.00000008940697
  1
SUPERLIMITING PLUG-IN VERSION FRONT TERMINALS
 50
359.999999896069
 41
0.687499997764826
 72
     1
 11
250.637478634715
 21
-179.398010253906
 31
0.0
 73
     2
  0
TEXT
  5
   572
  8
0
  6
CONTINUOUS
 62
     1
 10
215.602369909228
 20
-185.468276965284
 30
0.0
 40
2.00000008940697
  1
INTERR.AUTOMATICO SERIE ISOMAX SUPERLIMITATORE
 50
359.999999896069
 41
0.687499997764826
 72
     1
 11
247.08987121284
 21
-184.468276977539
 31
0.0
 73
     2
  0
TEXT
  5
   573
  8
0
  6
CONTINUOUS
 62
     1
 10
213.539869823733
 20
-188.468276961553
 30
0.0
 40
2.00000008940697
  1
TRIPOL. ESECUZIONE RIMOVIBILE TERMINALI ANTERIORI
 50
359.999999896069
 41
0.687499997764826
 72
     1
 11
247.08987121284
 21
-187.468276977539
 31
0.0
 73
     2
  0
INSERT
  5
   574
  8
0
  6
CONTINUOUS
 62
     7
  2
*UDIM828
 10
0.0
 20
0.0
 30
0.0
  0
INSERT
  5
   575
  8
0
  6
CONTINUOUS
 62
     7
  2
*UDIM829
 10
0.0
 20
0.0
 30
0.0
  0
INSERT
  5
   576
  8
0
  6
CONTINUOUS
 62
     7
  2
*UDIM830
 10
0.0
 20
0.0
 30
0.0
  0
INSERT
  5
   577
  8
0
  6
CONTINUOUS
 62
     7
  2
*UDIM831
 10
0.0
 20
0.0
 30
0.0
  0
INSERT
  5
   578
  8
0
  6
CONTINUOUS
 62
     7
  2
*UDIM832
 10
0.0
 20
0.0
 30
0.0
  0
TEXT
  5
   579
  8
0
  6
CONTINUOUS
 62
     7
 10
143.963072774081
 20
-113.894290951885
 30
0.0
 40
3.00000002980232
  1
Y
 50
359.999999896069
 41
0.916666604744064
 72
     2
 11
146.163072642951
 21
-113.894290955864
 31
0.0
  0
TEXT
  5
   57A
  8
0
  6
CONTINUOUS
 62
     7
 10
143.464873549609
 20
-48.0968933383594
 30
0.0
 40
3.00000002980232
  1
Y
 50
359.999999896069
 41
0.916666604744064
 72
     2
 11
145.664873418479
 21
-48.096893342339
 31
0.0
  0
TEXT
  5
   57B
  8
0
  6
CONTINUOUS
 62
     7
 10
104.504886624484
 20
-80.01592245499
 30
0.0
 40
3.00000002980232
  1
X
 50
359.999999896069
 41
0.916666604744064
 72
     2
 11
106.704886493354
 21
-80.0159224589696
 31
0.0
  0
TEXT
  5
   57C
  8
0
  6
CONTINUOUS
 62
     7
 10
170.934373852877
 20
-80.5845828334461
 30
0.0
 40
3.00000002980232
  1
X
 50
359.999999896069
 41
0.916666604744064
 72
     2
 11
173.134373721747
 21
-80.5845828374257
 31
0.0
  0
ENDSEC
  0
EOF
