  0
SECTION
  2
HEADER
  9
$ACADVER
  1
AC1015
  9
$ACADMAINTVER
 70
    13
  9
$DWGCODEPAGE
  3
ANSI_1252
  9
$INSBASE
 10
0.0
 20
0.0
 30
0.0
  9
$EXTMIN
 10
0.5794608709704362
 20
0.5791515336964367
 30
0.0
  9
$EXTMAX
 10
392.5794608709704
 20
263.0791515336964
 30
0.0
  9
$LIMMIN
 10
0.0
 20
0.0
  9
$LIMMAX
 10
399.0
 20
280.0
  9
$ORTHOMODE
 70
     1
  9
$REGENMODE
 70
     0
  9
$FILLMODE
 70
     1
  9
$QTEXTMODE
 70
     0
  9
$MIRRTEXT
 70
     1
  9
$LTSCALE
 40
5.0
  9
$ATTMODE
 70
     1
  9
$TEXTSIZE
 40
2.0
  9
$TRACEWID
 40
0.05
  9
$TEXTSTYLE
  7
STANDARD
  9
$CLAYER
  8
SWEDEN2
  9
$CELTYPE
  6
CONTINUOUS
  9
$CECOLOR
 62
     6
  9
$CELTSCALE
 40
1.0
  9
$DISPSILH
 70
     0
  9
$DIMSCALE
 40
1.0
  9
$DIMASZ
 40
0.18
  9
$DIMEXO
 40
0.0625
  9
$DIMDLI
 40
0.38
  9
$DIMRND
 40
0.0
  9
$DIMDLE
 40
0.0
  9
$DIMEXE
 40
0.18
  9
$DIMTP
 40
0.0
  9
$DIMTM
 40
0.0
  9
$DIMTXT
 40
0.18
  9
$DIMCEN
 40
0.09
  9
$DIMTSZ
 40
0.0
  9
$DIMTOL
 70
     0
  9
$DIMLIM
 70
     0
  9
$DIMTIH
 70
     1
  9
$DIMTOH
 70
     1
  9
$DIMSE1
 70
     0
  9
$DIMSE2
 70
     0
  9
$DIMTAD
 70
     0
  9
$DIMZIN
 70
     0
  9
$DIMBLK
  1

  9
$DIMASO
 70
     1
  9
$DIMSHO
 70
     1
  9
$DIMPOST
  1

  9
$DIMAPOST
  1

  9
$DIMALT
 70
     0
  9
$DIMALTD
 70
     2
  9
$DIMALTF
 40
25.4
  9
$DIMLFAC
 40
1.0
  9
$DIMTOFL
 70
     0
  9
$DIMTVP
 40
0.0
  9
$DIMTIX
 70
     0
  9
$DIMSOXD
 70
     0
  9
$DIMSAH
 70
     0
  9
$DIMBLK1
  1

  9
$DIMBLK2
  1

  9
$DIMSTYLE
  2
Standard
  9
$DIMCLRD
 70
     0
  9
$DIMCLRE
 70
     0
  9
$DIMCLRT
 70
     0
  9
$DIMTFAC
 40
1.0
  9
$DIMGAP
 40
0.09
  9
$DIMJUST
 70
     0
  9
$DIMSD1
 70
     0
  9
$DIMSD2
 70
     0
  9
$DIMTOLJ
 70
     1
  9
$DIMTZIN
 70
     0
  9
$DIMALTZ
 70
     0
  9
$DIMALTTZ
 70
     0
  9
$DIMUPT
 70
     0
  9
$DIMDEC
 70
     4
  9
$DIMTDEC
 70
     4
  9
$DIMALTU
 70
     2
  9
$DIMALTTD
 70
     2
  9
$DIMTXSTY
  7
STANDARD
  9
$DIMAUNIT
 70
     0
  9
$DIMADEC
 70
     0
  9
$DIMALTRND
 40
0.0
  9
$DIMAZIN
 70
     0
  9
$DIMDSEP
 70
    46
  9
$DIMATFIT
 70
     3
  9
$DIMFRAC
 70
     0
  9
$DIMLDRBLK
  1

  9
$DIMLUNIT
 70
     2
  9
$DIMLWD
 70
    -2
  9
$DIMLWE
 70
    -2
  9
$DIMTMOVE
 70
     2
  9
$LUNITS
 70
     2
  9
$LUPREC
 70
     4
  9
$SKETCHINC
 40
0.1
  9
$FILLETRAD
 40
1.5
  9
$AUNITS
 70
     0
  9
$AUPREC
 70
     0
  9
$MENU
  1
C:\ACADWIN\SUPPORT\ACAD_2
  9
$ELEVATION
 40
0.0
  9
$PELEVATION
 40
0.0
  9
$THICKNESS
 40
0.0
  9
$LIMCHECK
 70
     0
  9
$CHAMFERA
 40
0.0
  9
$CHAMFERB
 40
0.0
  9
$CHAMFERC
 40
0.0
  9
$CHAMFERD
 40
0.0
  9
$SKPOLY
 70
     0
  9
$TDCREATE
 40
2450332.497727314
  9
$TDUCREATE
 40
2450332.372727315
  9
$TDUPDATE
 40
2453201.630810844
  9
$TDUUPDATE
 40
2453201.505810844
  9
$TDINDWG
 40
0.8506773380
  9
$TDUSRTIMER
 40
0.8506773380
  9
$USRTIMER
 70
     1
  9
$ANGBASE
 50
0.0
  9
$ANGDIR
 70
     0
  9
$PDMODE
 70
     0
  9
$PDSIZE
 40
0.0
  9
$PLINEWID
 40
0.0
  9
$SPLFRAME
 70
     0
  9
$SPLINETYPE
 70
     6
  9
$SPLINESEGS
 70
     8
  9
$HANDSEED
  5
5CF
  9
$SURFTAB1
 70
   100
  9
$SURFTAB2
 70
   100
  9
$SURFTYPE
 70
     6
  9
$SURFU
 70
     6
  9
$SURFV
 70
     6
  9
$UCSBASE
  2

  9
$UCSNAME
  2

  9
$UCSORG
 10
0.0
 20
0.0
 30
0.0
  9
$UCSXDIR
 10
1.0
 20
0.0
 30
0.0
  9
$UCSYDIR
 10
0.0
 20
1.0
 30
0.0
  9
$UCSORTHOREF
  2

  9
$UCSORTHOVIEW
 70
     0
  9
$UCSORGTOP
 10
0.0
 20
0.0
 30
0.0
  9
$UCSORGBOTTOM
 10
0.0
 20
0.0
 30
0.0
  9
$UCSORGLEFT
 10
0.0
 20
0.0
 30
0.0
  9
$UCSORGRIGHT
 10
0.0
 20
0.0
 30
0.0
  9
$UCSORGFRONT
 10
0.0
 20
0.0
 30
0.0
  9
$UCSORGBACK
 10
0.0
 20
0.0
 30
0.0
  9
$PUCSBASE
  2

  9
$PUCSNAME
  2

  9
$PUCSORG
 10
0.0
 20
0.0
 30
0.0
  9
$PUCSXDIR
 10
1.0
 20
0.0
 30
0.0
  9
$PUCSYDIR
 10
0.0
 20
1.0
 30
0.0
  9
$PUCSORTHOREF
  2

  9
$PUCSORTHOVIEW
 70
     0
  9
$PUCSORGTOP
 10
0.0
 20
0.0
 30
0.0
  9
$PUCSORGBOTTOM
 10
0.0
 20
0.0
 30
0.0
  9
$PUCSORGLEFT
 10
0.0
 20
0.0
 30
0.0
  9
$PUCSORGRIGHT
 10
0.0
 20
0.0
 30
0.0
  9
$PUCSORGFRONT
 10
0.0
 20
0.0
 30
0.0
  9
$PUCSORGBACK
 10
0.0
 20
0.0
 30
0.0
  9
$USERI1
 70
     0
  9
$USERI2
 70
     0
  9
$USERI3
 70
     0
  9
$USERI4
 70
     0
  9
$USERI5
 70
     0
  9
$USERR1
 40
0.0
  9
$USERR2
 40
0.0
  9
$USERR3
 40
0.0
  9
$USERR4
 40
0.0
  9
$USERR5
 40
0.0
  9
$WORLDVIEW
 70
     1
  9
$SHADEDGE
 70
     3
  9
$SHADEDIF
 70
    70
  9
$TILEMODE
 70
     1
  9
$MAXACTVP
 70
    16
  9
$PINSBASE
 10
0.0
 20
0.0
 30
0.0
  9
$PLIMCHECK
 70
     0
  9
$PEXTMIN
 10
1.000000000000000E+20
 20
1.000000000000000E+20
 30
1.000000000000000E+20
  9
$PEXTMAX
 10
-1.000000000000000E+20
 20
-1.000000000000000E+20
 30
-1.000000000000000E+20
  9
$PLIMMIN
 10
0.0
 20
0.0
  9
$PLIMMAX
 10
12.0
 20
9.0
  9
$UNITMODE
 70
     0
  9
$VISRETAIN
 70
     0
  9
$PLINEGEN
 70
     0
  9
$PSLTSCALE
 70
     0
  9
$TREEDEPTH
 70
  3020
  9
$CMLSTYLE
  2
Standard
  9
$CMLJUST
 70
     0
  9
$CMLSCALE
 40
1.0
  9
$PROXYGRAPHICS
 70
     1
  9
$MEASUREMENT
 70
     0
  9
$CELWEIGHT
370
    -1
  9
$ENDCAPS
280
     0
  9
$JOINSTYLE
280
     0
  9
$LWDISPLAY
290
     0
  9
$INSUNITS
 70
     0
  9
$HYPERLINKBASE
  1

  9
$STYLESHEET
  1

  9
$XEDIT
290
     1
  9
$CEPSNTYPE
380
     0
  9
$PSTYLEMODE
290
     1
  9
$FINGERPRINTGUID
  2
{AEC09FEB-9B45-40F4-AA74-541100412BB4}
  9
$VERSIONGUID
  2
{E263F2EA-075F-4DE3-BCBD-8B2F079E00F5}
  9
$EXTNAMES
290
     1
  9
$PSVPSCALE
 40
0.0
  9
$OLESTARTUP
290
     0
  0
ENDSEC
  0
SECTION
  2
CLASSES
  0
CLASS
  1
ACDBDICTIONARYWDFLT
  2
AcDbDictionaryWithDefault
  3
AutoCAD 2000
 90
        0
280
     0
281
     0
  0
CLASS
  1
ACDBPLACEHOLDER
  2
AcDbPlaceHolder
  3
AutoCAD 2000
 90
        0
280
     0
281
     0
  0
CLASS
  1
LAYOUT
  2
AcDbLayout
  3
AutoCAD 2000
 90
        0
280
     0
281
     0
  0
CLASS
  1
DICTIONARYVAR
  2
AcDbDictionaryVar
  3
AutoCAD 2000
 90
        0
280
     0
281
     0
  0
ENDSEC
  0
SECTION
  2
TABLES
  0
TABLE
  2
VPORT
  5
8
330
0
100
AcDbSymbolTable
 70
     3
  0
VPORT
  5
5CE
330
8
100
AcDbSymbolTableRecord
100
AcDbViewportTableRecord
  2
*Active
 70
     0
 10
0.0
 20
0.0
 11
1.0
 21
1.0
 12
277.7209302325581
 22
140.0
 13
0.0
 23
0.0
 14
7.0
 24
1.0
 15
21.0
 25
7.0
 16
0.0
 26
0.0
 36
1.0
 17
0.0
 27
0.0
 37
0.0
 40
280.0
 41
1.983720930232558
 42
50.0
 43
0.0
 44
0.0
 50
0.0
 51
0.0
 71
     0
 72
   100
 73
     1
 74
     0
 75
     0
 76
     1
 77
     0
 78
     0
281
     0
 65
     1
110
0.0
120
0.0
130
0.0
111
1.0
121
0.0
131
0.0
112
0.0
122
1.0
132
0.0
 79
     0
146
0.0
  0
ENDTAB
  0
TABLE
  2
LTYPE
  5
5
330
0
100
AcDbSymbolTable
 70
    12
  0
LTYPE
  5
13
330
5
100
AcDbSymbolTableRecord
100
AcDbLinetypeTableRecord
  2
ByBlock
 70
     0
  3

 72
    65
 73
     0
 40
0.0
  0
LTYPE
  5
14
330
5
100
AcDbSymbolTableRecord
100
AcDbLinetypeTableRecord
  2
ByLayer
 70
     0
  3

 72
    65
 73
     0
 40
0.0
  0
LTYPE
  5
15
330
5
100
AcDbSymbolTableRecord
100
AcDbLinetypeTableRecord
  2
CONTINUOUS
 70
     0
  3
Solid line
 72
    65
 73
     0
 40
0.0
  0
LTYPE
  5
3D
330
5
100
AcDbSymbolTableRecord
100
AcDbLinetypeTableRecord
  2
DASHED
 70
     0
  3
__ __ __ __ __ __ __ __ __ __ __ __ __ __ __ __
 72
    65
 73
     2
 40
0.75
 49
0.5
 74
     0
 49
-0.25
 74
     0
  0
LTYPE
  5
3E
330
5
100
AcDbSymbolTableRecord
100
AcDbLinetypeTableRecord
  2
CENTER
 70
     0
  3
____ _ ____ _ ____ _ ____ _ ____ _ ____ _ ____ 
 72
    65
 73
     4
 40
2.0
 49
1.25
 74
     0
 49
-0.25
 74
     0
 49
0.25
 74
     0
 49
-0.25
 74
     0
  0
LTYPE
  5
3F
330
5
100
AcDbSymbolTableRecord
100
AcDbLinetypeTableRecord
  2
HIDDEN
 70
     0
  3
__ __ __ __ __ __ __ __ __ __ __ __ __ __ __ __
 72
    65
 73
     2
 40
0.375
 49
0.25
 74
     0
 49
-0.125
 74
     0
  0
LTYPE
  5
40
330
5
100
AcDbSymbolTableRecord
100
AcDbLinetypeTableRecord
  2
DIVIDE
 70
     0
  3
____ . . ____ . . ____ . . ____ . . ____ . . __
 72
    65
 73
     6
 40
1.25
 49
0.5
 74
     0
 49
-0.25
 74
     0
 49
0.0
 74
     0
 49
-0.25
 74
     0
 49
0.0
 74
     0
 49
-0.25
 74
     0
  0
LTYPE
  5
41
330
5
100
AcDbSymbolTableRecord
100
AcDbLinetypeTableRecord
  2
BORDER
 70
     0
  3
__ __ . __ __ . __ __ . __ __ . __ __ . __ __ .
 72
    65
 73
     6
 40
1.75
 49
0.5
 74
     0
 49
-0.25
 74
     0
 49
0.5
 74
     0
 49
-0.25
 74
     0
 49
0.0
 74
     0
 49
-0.25
 74
     0
  0
LTYPE
  5
42
330
5
100
AcDbSymbolTableRecord
100
AcDbLinetypeTableRecord
  2
PHANTOM
 70
     0
  3
______  __  __  ______  __  __  ______  __  __ 
 72
    65
 73
     6
 40
2.5
 49
1.25
 74
     0
 49
-0.25
 74
     0
 49
0.25
 74
     0
 49
-0.25
 74
     0
 49
0.25
 74
     0
 49
-0.25
 74
     0
  0
LTYPE
  5
43
330
5
100
AcDbSymbolTableRecord
100
AcDbLinetypeTableRecord
  2
DASHEDX2
 70
     0
  3
____  ____  ____  ____  ____  ____  ____  ____ 
 72
    65
 73
     2
 40
1.5
 49
1.0
 74
     0
 49
-0.5
 74
     0
  0
LTYPE
  5
44
330
5
100
AcDbSymbolTableRecord
100
AcDbLinetypeTableRecord
  2
DASHDOTX2
 70
     0
  3
____  .  ____  .  ____  .  ____  .  ____  .  __
 72
    65
 73
     4
 40
2.0
 49
1.0
 74
     0
 49
-0.5
 74
     0
 49
0.0
 74
     0
 49
-0.5
 74
     0
  0
LTYPE
  5
45
330
5
100
AcDbSymbolTableRecord
100
AcDbLinetypeTableRecord
  2
DOTX2
 70
     0
  3
.  .  .  .  .  .  .  .  .  .  .  .  .  .  .  . 
 72
    65
 73
     2
 40
0.5
 49
0.0
 74
     0
 49
-0.5
 74
     0
  0
LTYPE
  5
46
330
5
100
AcDbSymbolTableRecord
100
AcDbLinetypeTableRecord
  2
DASHDOT
 70
     0
  3
__ . __ . __ . __ . __ . __ . __ . __ . __ . __
 72
    65
 73
     4
 40
1.0
 49
0.5
 74
     0
 49
-0.25
 74
     0
 49
0.0
 74
     0
 49
-0.25
 74
     0
  0
LTYPE
  5
47
330
5
100
AcDbSymbolTableRecord
100
AcDbLinetypeTableRecord
  2
DOT
 70
     0
  3
. . . . . . . . . . . . . . . . . . . . . . . .
 72
    65
 73
     2
 40
0.25
 49
0.0
 74
     0
 49
-0.25
 74
     0
  0
ENDTAB
  0
TABLE
  2
LAYER
  5
2
330
0
100
AcDbSymbolTable
 70
    13
  0
LAYER
  5
10
330
2
100
AcDbSymbolTableRecord
100
AcDbLayerTableRecord
  2
0
 70
     0
 62
     7
  6
CONTINUOUS
370
    -3
390
F
  0
LAYER
  5
4B
330
2
100
AcDbSymbolTableRecord
100
AcDbLayerTableRecord
  2
RAAMI
 70
     0
 62
     4
  6
CONTINUOUS
370
    -3
390
F
  0
LAYER
  5
4C
330
2
100
AcDbSymbolTableRecord
100
AcDbLayerTableRecord
  2
PAKSU
 70
     0
 62
     3
  6
CONTINUOUS
370
    -3
390
F
  0
LAYER
  5
4D
330
2
100
AcDbSymbolTableRecord
100
AcDbLayerTableRecord
  2
OHUT
 70
     0
 62
     6
  6
CONTINUOUS
370
    -3
390
F
  0
LAYER
  5
4E
330
2
100
AcDbSymbolTableRecord
100
AcDbLayerTableRecord
  2
SWEDEN
 70
     0
 62
     7
  6
CONTINUOUS
370
    -3
390
F
  0
LAYER
  5
4F
330
2
100
AcDbSymbolTableRecord
100
AcDbLayerTableRecord
  2
SWEDEN2
 70
     0
 62
     5
  6
CONTINUOUS
370
    -3
390
F
  0
LAYER
  5
50
330
2
100
AcDbSymbolTableRecord
100
AcDbLayerTableRecord
  2
BASE
 70
     0
 62
     7
  6
CONTINUOUS
370
    -3
390
F
  0
LAYER
  5
51
330
2
100
AcDbSymbolTableRecord
100
AcDbLayerTableRecord
  2
21
 70
     0
 62
     2
  6
CONTINUOUS
370
    -3
390
F
  0
LAYER
  5
52
330
2
100
AcDbSymbolTableRecord
100
AcDbLayerTableRecord
  2
HEL035
 70
     0
 62
     7
  6
CONTINUOUS
370
    -3
390
F
  0
LAYER
  5
53
330
2
100
AcDbSymbolTableRecord
100
AcDbLayerTableRecord
  2
MUO
 70
     0
 62
     7
  6
CONTINUOUS
370
    -3
390
F
  0
LAYER
  5
54
330
2
100
AcDbSymbolTableRecord
100
AcDbLayerTableRecord
  2
1
 70
     0
 62
     2
  6
CONTINUOUS
370
    -3
390
F
  0
LAYER
  5
55
330
2
100
AcDbSymbolTableRecord
100
AcDbLayerTableRecord
  2
BASE1
 70
     0
 62
     5
  6
CONTINUOUS
370
    -3
390
F
  0
LAYER
  5
56
330
2
100
AcDbSymbolTableRecord
100
AcDbLayerTableRecord
  2
TEKS
 70
     0
 62
     5
  6
CONTINUOUS
370
    -3
390
F
  0
ENDTAB
  0
TABLE
  2
STYLE
  5
3
330
0
100
AcDbSymbolTable
 70
     4
  0
STYLE
  5
11
330
3
100
AcDbSymbolTableRecord
100
AcDbTextStyleTableRecord
  2
STANDARD
 70
     0
 40
0.0
 41
1.0
 50
0.0
 71
     0
 42
2.0
  3
txt
  4

  0
STYLE
  5
3A
330
3
100
AcDbSymbolTableRecord
100
AcDbTextStyleTableRecord
  2
ROMANS
 70
     0
 40
0.0
 41
1.0
 50
0.0
 71
     0
 42
2.5
  3
romans
  4

  0
STYLE
  5
3B
330
3
100
AcDbSymbolTableRecord
100
AcDbTextStyleTableRecord
  2
GREEKS
 70
     0
 40
0.0
 41
1.0
 50
0.0
 71
     0
 42
3.0
  3
TXT
  4

  0
STYLE
  5
3C
330
3
100
AcDbSymbolTableRecord
100
AcDbTextStyleTableRecord
  2
CYRILLIC
 70
     0
 40
0.0
 41
1.0
 50
0.0
 71
     0
 42
2.5
  3
CYRILLIC
  4

  0
ENDTAB
  0
TABLE
  2
VIEW
  5
6
330
0
100
AcDbSymbolTable
 70
     0
  0
ENDTAB
  0
TABLE
  2
UCS
  5
7
330
0
100
AcDbSymbolTable
 70
     0
  0
ENDTAB
  0
TABLE
  2
APPID
  5
9
330
0
100
AcDbSymbolTable
 70
     1
  0
APPID
  5
12
330
9
100
AcDbSymbolTableRecord
100
AcDbRegAppTableRecord
  2
ACAD
 70
     0
  0
ENDTAB
  0
TABLE
  2
DIMSTYLE
  5
A
330
0
100
AcDbSymbolTable
 70
     1
100
AcDbDimStyleTable
 71
     0
  0
DIMSTYLE
105
5C9
330
A
100
AcDbSymbolTableRecord
100
AcDbDimStyleTableRecord
  2
Standard
 70
     0
340
11
  0
ENDTAB
  0
TABLE
  2
BLOCK_RECORD
  5
1
330
0
100
AcDbSymbolTable
 70
    24
  0
BLOCK_RECORD
  5
1E
330
1
100
AcDbSymbolTableRecord
100
AcDbBlockTableRecord
  2
*Model_Space
340
21
  0
BLOCK_RECORD
  5
1A
330
1
100
AcDbSymbolTableRecord
100
AcDbBlockTableRecord
  2
*Paper_Space
340
1D
  0
BLOCK_RECORD
  5
22
330
1
100
AcDbSymbolTableRecord
100
AcDbBlockTableRecord
  2
1
340
0
102
{BLKREFS
331
2C9
331
2CA
331
2CB
102
}
  0
BLOCK_RECORD
  5
23
330
1
100
AcDbSymbolTableRecord
100
AcDbBlockTableRecord
  2
BLC16
340
0
  0
BLOCK_RECORD
  5
24
330
1
100
AcDbSymbolTableRecord
100
AcDbBlockTableRecord
  2
BLC27
340
0
  0
BLOCK_RECORD
  5
25
330
1
100
AcDbSymbolTableRecord
100
AcDbBlockTableRecord
  2
BLC26
340
0
102
{BLKREFS
331
86
102
}
  0
BLOCK_RECORD
  5
26
330
1
100
AcDbSymbolTableRecord
100
AcDbBlockTableRecord
  2
BLC28
340
0
  0
BLOCK_RECORD
  5
27
330
1
100
AcDbSymbolTableRecord
100
AcDbBlockTableRecord
  2
BLC22
340
0
  0
BLOCK_RECORD
  5
28
330
1
100
AcDbSymbolTableRecord
100
AcDbBlockTableRecord
  2
BLC18
340
0
  0
BLOCK_RECORD
  5
29
330
1
100
AcDbSymbolTableRecord
100
AcDbBlockTableRecord
  2
BLC29
340
0
  0
BLOCK_RECORD
  5
2A
330
1
100
AcDbSymbolTableRecord
100
AcDbBlockTableRecord
  2
WKU130
340
0
  0
BLOCK_RECORD
  5
2B
330
1
100
AcDbSymbolTableRecord
100
AcDbBlockTableRecord
  2
BLC15
340
0
  0
BLOCK_RECORD
  5
2C
330
1
100
AcDbSymbolTableRecord
100
AcDbBlockTableRecord
  2
BLC5
340
0
  0
BLOCK_RECORD
  5
2D
330
1
100
AcDbSymbolTableRecord
100
AcDbBlockTableRecord
  2
BLC57
340
0
  0
BLOCK_RECORD
  5
2E
330
1
100
AcDbSymbolTableRecord
100
AcDbBlockTableRecord
  2
BLC25
340
0
  0
BLOCK_RECORD
  5
2F
330
1
100
AcDbSymbolTableRecord
100
AcDbBlockTableRecord
  2
*X13
340
0
  0
BLOCK_RECORD
  5
30
330
1
100
AcDbSymbolTableRecord
100
AcDbBlockTableRecord
  2
ABBA3V
340
0
  0
BLOCK_RECORD
  5
31
330
1
100
AcDbSymbolTableRecord
100
AcDbBlockTableRecord
  2
*X15
340
0
102
{BLKREFS
331
11B
331
363
102
}
  0
BLOCK_RECORD
  5
32
330
1
100
AcDbSymbolTableRecord
100
AcDbBlockTableRecord
  2
*X16
340
0
102
{BLKREFS
331
11C
331
364
102
}
  0
BLOCK_RECORD
  5
33
330
1
100
AcDbSymbolTableRecord
100
AcDbBlockTableRecord
  2
*X17
340
0
102
{BLKREFS
331
11D
331
365
102
}
  0
BLOCK_RECORD
  5
34
330
1
100
AcDbSymbolTableRecord
100
AcDbBlockTableRecord
  2
*X18
340
0
102
{BLKREFS
331
11E
331
366
102
}
  0
BLOCK_RECORD
  5
35
330
1
100
AcDbSymbolTableRecord
100
AcDbBlockTableRecord
  2
*X19
340
0
102
{BLKREFS
331
130
331
137
331
378
331
37F
102
}
  0
BLOCK_RECORD
  5
36
330
1
100
AcDbSymbolTableRecord
100
AcDbBlockTableRecord
  2
*X20
340
0
102
{BLKREFS
331
131
331
136
331
379
331
37E
102
}
  0
BLOCK_RECORD
  5
37
330
1
100
AcDbSymbolTableRecord
100
AcDbBlockTableRecord
  2
*X21
340
0
102
{BLKREFS
331
132
331
135
331
37A
331
37D
102
}
  0
BLOCK_RECORD
  5
38
330
1
100
AcDbSymbolTableRecord
100
AcDbBlockTableRecord
  2
*X22
340
0
102
{BLKREFS
331
133
331
134
331
37B
331
37C
102
}
  0
BLOCK_RECORD
  5
39
330
1
100
AcDbSymbolTableRecord
100
AcDbBlockTableRecord
  2
MAA
340
0
  0
ENDTAB
  0
ENDSEC
  0
SECTION
  2
BLOCKS
  0
BLOCK
  5
59
330
1E
100
AcDbEntity
  8
0
 62
     6
100
AcDbBlockBegin
  2
*Model_Space
 70
     0
 10
0.0
 20
0.0
 30
0.0
  3
*Model_Space
  1

  0
ENDBLK
  5
5A
330
1E
100
AcDbEntity
  8
0
 62
     6
100
AcDbBlockEnd
  0
BLOCK
  5
57
330
1A
100
AcDbEntity
 67
     1
  8
0
 62
     6
100
AcDbBlockBegin
  2
*Paper_Space
 70
     0
 10
0.0
 20
0.0
 30
0.0
  3
*Paper_Space
  1

  0
ENDBLK
  5
58
330
1A
100
AcDbEntity
 67
     1
  8
0
 62
     6
100
AcDbBlockEnd
  0
BLOCK
  5
5B
330
22
100
AcDbEntity
  8
0
100
AcDbBlockBegin
  2
1
 70
     0
 10
0.0
 20
0.0
 30
0.0
  3
1
  1

  0
ENDBLK
  5
5C
330
22
100
AcDbEntity
  8
0
100
AcDbBlockEnd
  0
BLOCK
  5
5D
330
23
100
AcDbEntity
  8
0
100
AcDbBlockBegin
  2
BLC16
 70
     0
 10
0.0
 20
0.0
 30
0.0
  3
BLC16
  1

  0
LINE
  5
5E
330
23
100
AcDbEntity
  8
0
  6
Continuous
100
AcDbLine
 10
0.007688543809266
 20
38.05492790713048
 30
0.0
 11
19.98368297262045
 21
38.05492790713048
 31
0.0
  0
LINE
  5
5F
330
23
100
AcDbEntity
  8
0
  6
Continuous
100
AcDbLine
 10
19.98368297262045
 20
38.05492790713048
 30
0.0
 11
19.98368297262045
 21
-0.0037506651295445
 31
0.0
  0
LINE
  5
60
330
23
100
AcDbEntity
  8
0
  6
Continuous
100
AcDbLine
 10
19.98368297262045
 20
-0.0037506651295445
 30
0.0
 11
0.007688543809266
 21
-0.0037506651295445
 31
0.0
  0
LINE
  5
61
330
23
100
AcDbEntity
  8
0
  6
Continuous
100
AcDbLine
 10
0.007688543809266
 20
-0.0037506651295445
 30
0.0
 11
0.007688543809266
 21
38.05492790713048
 31
0.0
  0
LINE
  5
62
330
23
100
AcDbEntity
  8
0
  6
Continuous
100
AcDbLine
 10
14.15264305765733
 20
36.91973811995545
 30
0.0
 11
14.15264305765733
 21
33.52846854603386
 31
0.0
  0
LINE
  5
63
330
23
100
AcDbEntity
  8
0
  6
Continuous
100
AcDbLine
 10
14.15264305765733
 20
33.52846854603386
 30
0.0
 11
11.56043525426407
 21
33.52846854603386
 31
0.0
  0
LINE
  5
64
330
23
100
AcDbEntity
  8
0
  6
Continuous
100
AcDbLine
 10
11.56043525426407
 20
33.52846854603386
 30
0.0
 11
11.56043525426407
 21
30.77843318004674
 31
0.0
  0
LINE
  5
65
330
23
100
AcDbEntity
  8
0
  6
Continuous
100
AcDbLine
 10
11.56043525426407
 20
30.77843318004674
 30
0.0
 11
14.15264305765733
 21
30.77843318004674
 31
0.0
  0
LINE
  5
66
330
23
100
AcDbEntity
  8
0
  6
Continuous
100
AcDbLine
 10
14.15264305765733
 20
30.77843318004674
 30
0.0
 11
14.15264305765733
 21
27.3871636061251
 31
0.0
  0
TEXT
  5
67
330
23
100
AcDbEntity
  8
0
  6
Continuous
100
AcDbText
 10
6.558569492786901
 20
30.80526575700884
 30
0.0
 40
2.5
  1
2
 11
6.558569492786901
 21
29.97193242367551
 31
0.0
100
AcDbText
 73
     1
  0
TEXT
  5
69
330
23
100
AcDbEntity
  8
0
  6
Continuous
100
AcDbText
 10
6.553289092987213
 20
23.85407765705549
 30
0.0
 40
2.5
  1
2 I
 11
6.553289092987213
 21
23.02074432372215
 31
0.0
100
AcDbText
 73
     1
  0
LINE
  5
6A
330
23
100
AcDbEntity
  8
0
  6
Continuous
100
AcDbLine
 10
12.94253367881567
 20
26.35912860214402
 30
0.0
 11
15.2882991910413
 21
25.02377489077527
 31
0.0
  0
LINE
  5
6B
330
23
100
AcDbEntity
  8
0
  6
Continuous
100
AcDbLine
 10
15.2882991910413
 20
25.02377489077527
 30
0.0
 11
12.94253367881567
 21
23.83385574203085
 31
0.0
  0
LINE
  5
6C
330
23
100
AcDbEntity
  8
0
  6
Continuous
100
AcDbLine
 10
14.16982338783971
 20
26.35912860214402
 30
0.0
 11
16.51558890006533
 21
25.02377489077527
 31
0.0
  0
LINE
  5
6D
330
23
100
AcDbEntity
  8
0
  6
Continuous
100
AcDbLine
 10
16.51558890006533
 20
25.02377489077527
 30
0.0
 11
14.16982338783971
 21
23.83385574203085
 31
0.0
  0
TEXT
  5
6E
330
23
100
AcDbEntity
  8
0
  6
Continuous
100
AcDbText
 10
11.56644561204224
 20
19.2356793808035
 30
0.0
 40
2.5
  1
I
 11
11.56644561204224
 21
18.40234604747017
 31
0.0
100
AcDbText
 73
     1
  0
TEXT
  5
6F
330
23
100
AcDbEntity
  8
0
  6
Continuous
100
AcDbText
 10
13.01818129898113
 20
18.90234604747017
 30
0.0
 40
1.5
  1
2
 11
13.01818129898113
 21
18.40234604747017
 31
0.0
100
AcDbText
 73
     1
  0
LINE
  5
70
330
23
100
AcDbEntity
  8
0
  6
Continuous
100
AcDbLine
 10
10.65732992648723
 20
12.77382488441155
 30
0.0
 11
13.00309543871283
 21
13.96374403315597
 31
0.0
  0
LINE
  5
71
330
23
100
AcDbEntity
  8
0
  6
Continuous
100
AcDbLine
 10
13.00309543871283
 20
11.43847117304277
 30
0.0
 11
10.65732992648723
 21
12.77382488441155
 31
0.0
  0
LINE
  5
72
330
23
100
AcDbEntity
  8
0
  6
Continuous
100
AcDbLine
 10
6.557002402835379
 20
16.71465824609843
 30
0.0
 11
15.28174286348452
 21
16.71465824609843
 31
0.0
  0
LINE
  5
73
330
23
100
AcDbEntity
  8
0
  6
Continuous
100
AcDbLine
 10
6.557002402835379
 20
17.52398388997782
 30
0.0
 11
6.557002402835379
 21
15.90879125881686
 31
0.0
  0
LINE
  5
74
330
23
100
AcDbEntity
  8
0
  6
Continuous
100
AcDbLine
 10
15.28651830982313
 20
17.52398388997782
 30
0.0
 11
15.28651830982313
 21
15.90879125881686
 31
0.0
  0
ARC
  5
75
330
23
100
AcDbEntity
  8
0
  6
Continuous
100
AcDbCircle
 10
12.68484626207323
 20
18.50804481635963
 30
0.0
 40
2.922744400799075
100
AcDbArc
 50
193.1055130667446
 51
283.1055130667446
  0
TEXT
  5
76
330
23
100
AcDbEntity
  8
0
  6
Continuous
100
AcDbText
 10
6.557002402835379
 20
11.5679743218787
 30
0.0
 40
2.5
  1
2I
 11
6.557002402835379
 21
10.73464098854536
 31
0.0
100
AcDbText
 73
     1
  0
LINE
  5
77
330
23
100
AcDbEntity
  8
0
  6
Continuous
100
AcDbLine
 10
6.557002402835379
 20
9.441103420977455
 30
0.0
 11
15.28174286348452
 21
9.441103420977455
 31
0.0
  0
LINE
  5
78
330
23
100
AcDbEntity
  8
0
  6
Continuous
100
AcDbLine
 10
15.28651830982313
 20
10.25042906485684
 30
0.0
 11
15.28651830982313
 21
8.63523643369588
 31
0.0
  0
LINE
  5
79
330
23
100
AcDbEntity
  8
0
  6
Continuous
100
AcDbLine
 10
6.557002402835379
 20
10.25042906485684
 30
0.0
 11
6.557002402835379
 21
8.63523643369588
 31
0.0
  0
TEXT
  5
7A
330
23
100
AcDbEntity
  8
0
  6
Continuous
100
AcDbText
 10
6.557002402835379
 20
4.778631420446179
 30
0.0
 40
2.5
  1
I
 11
6.557002402835379
 21
3.945298087112846
 31
0.0
100
AcDbText
 73
     1
  0
LINE
  5
7B
330
23
100
AcDbEntity
  8
0
  6
Continuous
100
AcDbLine
 10
9.509028761221046
 20
6.822461571955827
 30
0.0
 11
9.509028761221046
 21
5.477735886740859
 31
0.0
  0
LINE
  5
7C
330
23
100
AcDbEntity
  8
0
  6
Continuous
100
AcDbLine
 10
8.615065206632394
 20
5.477735886740859
 30
0.0
 11
9.526220368040085
 21
5.477735886740859
 31
0.0
  0
LINE
  5
7D
330
23
100
AcDbEntity
  8
0
  6
Continuous
100
AcDbLine
 10
9.509028761221046
 20
5.477735886740859
 30
0.0
 11
10.40299231580975
 21
5.477735886740859
 31
0.0
  0
LINE
  5
7E
330
23
100
AcDbEntity
  8
0
  6
Continuous
100
AcDbLine
 10
8.90159198694927
 20
5.082327781630496
 30
0.0
 11
9.509028761221046
 21
5.082327781630496
 31
0.0
  0
LINE
  5
7F
330
23
100
AcDbEntity
  8
0
  6
Continuous
100
AcDbLine
 10
9.509028761221046
 20
5.082327781630525
 30
0.0
 11
10.15084874913087
 21
5.082327781630496
 31
0.0
  0
LINE
  5
80
330
23
100
AcDbEntity
  8
0
  6
Continuous
100
AcDbLine
 10
9.981861134137275
 20
4.719969133827802
 30
0.0
 11
9.072041111215057
 21
4.719969133827802
 31
0.0
  0
LINE
  5
81
330
23
100
AcDbEntity
  8
0
  6
Continuous
100
AcDbLine
 10
15.28651830982313
 20
2.79792376144114
 30
0.0
 11
15.28651830982313
 21
1.182731130280146
 31
0.0
  0
LINE
  5
82
330
23
100
AcDbEntity
  8
0
  6
Continuous
100
AcDbLine
 10
6.557002402835379
 20
1.98859811756175
 30
0.0
 11
15.28174286348452
 21
1.98859811756175
 31
0.0
  0
LINE
  5
83
330
23
100
AcDbEntity
  8
0
  6
Continuous
100
AcDbLine
 10
6.557002402835379
 20
2.79792376144114
 30
0.0
 11
6.557002402835379
 21
1.182731130280146
 31
0.0
  0
ENDBLK
  5
84
330
23
100
AcDbEntity
  8
0
100
AcDbBlockEnd
  0
BLOCK
  5
85
330
24
100
AcDbEntity
  8
0
100
AcDbBlockBegin
  2
BLC27
 70
     0
 10
0.0
 20
0.0
 30
0.0
  3
BLC27
  1

  0
INSERT
  5
86
330
24
100
AcDbEntity
  8
SWEDEN2
  6
CENTER
100
AcDbBlockReference
  2
BLC26
 10
0.0806298676206154
 20
0.0379850207146433
 30
0.0
 41
1.006224687463202
 42
1.006224687463202
 43
1.006224687463202
  0
ENDBLK
  5
87
330
24
100
AcDbEntity
  8
0
100
AcDbBlockEnd
  0
BLOCK
  5
88
330
25
100
AcDbEntity
  8
0
100
AcDbBlockBegin
  2
BLC26
 70
     0
 10
0.0
 20
0.0
 30
0.0
  3
BLC26
  1

  0
ARC
  5
89
330
25
100
AcDbEntity
  8
0
  6
Continuous
100
AcDbCircle
 10
-0.1805760986685527
 20
1.179220254965343
 30
0.0
 40
1.196858692389954
100
AcDbArc
 50
90.0
 51
265.7062371869478
  0
LINE
  5
8A
330
25
100
AcDbEntity
  8
0
  6
Continuous
100
AcDbLine
 10
-0.1866378806934961
 20
-0.0109199663277195
 30
0.0
 11
0.4589419049629271
 21
-0.0109199663277195
 31
0.0
  0
LINE
  5
8B
330
25
100
AcDbEntity
  8
0
  6
Continuous
100
AcDbLine
 10
-0.1866378806934961
 20
2.375670901630712
 30
0.0
 11
0.4528801229380406
 21
2.375670901630712
 31
0.0
  0
LINE
  5
8C
330
25
100
AcDbEntity
  8
0
  6
Continuous
100
AcDbLine
 10
-0.1855088671185854
 20
-2.40462935692193
 30
0.0
 11
0.4600709185378947
 21
-2.40462935692193
 31
0.0
  0
ARC
  5
8D
330
25
100
AcDbEntity
  8
0
  6
Continuous
100
AcDbCircle
 10
-0.1805760986685527
 20
-1.207778658717671
 30
0.0
 40
1.196858692389954
100
AcDbArc
 50
90.0
 51
270.0
  0
LINE
  5
8E
330
25
100
AcDbEntity
  8
0
  6
Continuous
100
AcDbLine
 10
0.4515250165858618
 20
-2.404586463428898
 30
0.0
 11
1.401804627155996
 21
-2.404586463428898
 31
0.0
  0
LINE
  5
8F
330
25
100
AcDbEntity
  8
0
  6
Continuous
100
AcDbLine
 10
0.4467851751237788
 20
2.375673621606836
 30
0.0
 11
1.418543909567034
 21
2.375673621606836
 31
0.0
  0
LINE
  5
90
330
25
100
AcDbEntity
  8
0
  6
Continuous
100
AcDbLine
 10
0.4566268661492927
 20
-0.0109105363144124
 30
0.0
 11
1.422748890188501
 21
-0.0109105363144124
 31
0.0
  0
ENDBLK
  5
91
330
25
100
AcDbEntity
  8
0
100
AcDbBlockEnd
  0
BLOCK
  5
92
330
26
100
AcDbEntity
  8
0
100
AcDbBlockBegin
  2
BLC28
 70
     0
 10
0.0
 20
0.0
 30
0.0
  3
BLC28
  1

  0
LINE
  5
93
330
26
100
AcDbEntity
  8
0
  6
Continuous
100
AcDbLine
 10
0.4845759328177337
 20
2.400948399895582
 30
0.0
 11
1.4567117645079
 21
2.400948399895582
 31
0.0
  0
LINE
  5
94
330
26
100
AcDbEntity
  8
0
  6
Continuous
100
AcDbLine
 10
0.4746729803414951
 20
4.802388298304521
 30
0.0
 11
1.4524806091963
 21
4.802388298304521
 31
0.0
  0
LINE
  5
95
330
26
100
AcDbEntity
  8
0
  6
Continuous
100
AcDbLine
 10
0.4794423258352936
 20
-0.0076274117533615
 30
0.0
 11
1.435637129983888
 21
-0.0076274117533615
 31
0.0
  0
ARC
  5
96
330
26
100
AcDbEntity
  8
0
  6
Continuous
100
AcDbCircle
 10
-0.1565934213067237
 20
1.19663014749571
 30
0.0
 40
1.204308763687699
100
AcDbArc
 50
90.0
 51
270.0
  0
LINE
  5
97
330
26
100
AcDbEntity
  8
0
  6
Continuous
100
AcDbLine
 10
-0.1615568946986912
 20
-0.0076705722449901
 30
0.0
 11
0.4880414233560657
 21
-0.0076705722449901
 31
0.0
  0
LINE
  5
98
330
26
100
AcDbEntity
  8
0
  6
Continuous
100
AcDbLine
 10
-0.1626929360302256
 20
4.802385561397414
 30
0.0
 11
0.480805867301001
 21
4.802385561397414
 31
0.0
  0
LINE
  5
99
330
26
100
AcDbEntity
  8
0
  6
Continuous
100
AcDbLine
 10
-0.1626929360302256
 20
2.400938911183402
 30
0.0
 11
0.486905382024446
 21
2.400938911183402
 31
0.0
  0
ARC
  5
9A
330
26
100
AcDbEntity
  8
0
  6
Continuous
100
AcDbCircle
 10
-0.1565934213067237
 20
3.598487383391386
 30
0.0
 40
1.204308763687699
100
AcDbArc
 50
90.0
 51
265.7062371869478
  0
LINE
  5
9B
330
26
100
AcDbEntity
  8
0
  6
Continuous
100
AcDbLine
 10
0.4845759328177337
 20
-2.362960848436557
 30
0.0
 11
1.4567117645079
 21
-2.362960848436557
 31
0.0
  0
LINE
  5
9C
330
26
100
AcDbEntity
  8
0
  6
Continuous
100
AcDbLine
 10
0.4794423258352936
 20
-4.771536660085502
 30
0.0
 11
1.435637129983888
 21
-4.771536660085502
 31
0.0
  0
ARC
  5
9D
330
26
100
AcDbEntity
  8
0
  6
Continuous
100
AcDbCircle
 10
-0.1565934213067237
 20
-3.567279100836429
 30
0.0
 40
1.204308763687699
100
AcDbArc
 50
90.0
 51
270.0
  0
LINE
  5
9E
330
26
100
AcDbEntity
  8
0
  6
Continuous
100
AcDbLine
 10
-0.1615568946986912
 20
-4.77157982057713
 30
0.0
 11
0.4880414233560657
 21
-4.77157982057713
 31
0.0
  0
LINE
  5
9F
330
26
100
AcDbEntity
  8
0
  6
Continuous
100
AcDbLine
 10
-0.1626929360302256
 20
-2.362970337148738
 30
0.0
 11
0.486905382024446
 21
-2.362970337148738
 31
0.0
  0
ARC
  5
A0
330
26
100
AcDbEntity
  8
0
  6
Continuous
100
AcDbCircle
 10
-0.1565934213067237
 20
-1.165421864940753
 30
0.0
 40
1.204308763687699
100
AcDbArc
 50
101.2846498384606
 51
265.7062371869478
  0
ENDBLK
  5
A1
330
26
100
AcDbEntity
  8
0
100
AcDbBlockEnd
  0
BLOCK
  5
A2
330
27
100
AcDbEntity
  8
0
100
AcDbBlockBegin
  2
BLC22
 70
     0
 10
0.0
 20
0.0
 30
0.0
  3
BLC22
  1

  0
LINE
  5
A3
330
27
100
AcDbEntity
  8
HEL035
100
AcDbLine
 10
0.0
 20
-0.0015500000000088
 30
0.0
 11
0.0
 21
9.998450000000048
 31
0.0
  0
LINE
  5
A4
330
27
100
AcDbEntity
  8
21
100
AcDbLine
 10
2.5
 20
10.0
 30
0.0
 11
5.0
 21
10.0
 31
0.0
  0
LINE
  5
A5
330
27
100
AcDbEntity
  8
HEL035
100
AcDbLine
 10
0.0
 20
9.998450000000048
 30
0.0
 11
2.5
 21
9.998450000000048
 31
0.0
  0
LINE
  5
A6
330
27
100
AcDbEntity
  8
HEL035
100
AcDbLine
 10
-2.5
 20
5.0
 30
0.0
 11
2.5
 21
5.0
 31
0.0
  0
LINE
  5
A7
330
27
100
AcDbEntity
  8
21
100
AcDbLine
 10
2.5
 20
5.0
 30
0.0
 11
5.0
 21
5.0
 31
0.0
  0
LINE
  5
A8
330
27
100
AcDbEntity
  8
21
100
AcDbLine
 10
5.0
 20
5.0
 30
0.0
 11
5.0
 21
7.900000000000005
 31
0.0
  0
LINE
  5
A9
330
27
100
AcDbEntity
  8
HEL035
100
AcDbLine
 10
3.880950475618021
 20
6.944424757063899
 30
0.0
 11
4.560313229692326
 21
6.008681430563825
 31
0.0
  0
LINE
  5
AA
330
27
100
AcDbEntity
  8
21
100
AcDbLine
 10
10.0
 20
10.0
 30
0.0
 11
4.199999999999988
 21
6.5
 31
0.0
  0
LINE
  5
AB
330
27
100
AcDbEntity
  8
HEL035
100
AcDbLine
 10
2.5
 20
-0.0015500000000088
 30
0.0
 11
0.0
 21
-0.0015500000000088
 31
0.0
  0
LINE
  5
AC
330
27
100
AcDbEntity
  8
21
100
AcDbLine
 10
2.5
 20
0.0
 30
0.0
 11
5.0
 21
0.0
 31
0.0
  0
ENDBLK
  5
AD
330
27
100
AcDbEntity
  8
0
100
AcDbBlockEnd
  0
BLOCK
  5
AE
330
28
100
AcDbEntity
  8
0
100
AcDbBlockBegin
  2
BLC18
 70
     0
 10
0.0
 20
0.0
 30
0.0
  3
BLC18
  1

  0
LINE
  5
AF
330
28
100
AcDbEntity
  8
MUO
100
AcDbLine
 10
-0.0562679883412756
 20
0.8495546738177921
 30
0.0
 11
8.307242059683858
 21
9.215501804109429
 31
0.0
  0
LINE
  5
B0
330
28
100
AcDbEntity
  8
MUO
100
AcDbLine
 10
0.9280248765246881
 20
-0.107047211869272
 30
0.0
 11
9.268385649226672
 21
8.230699888388677
 31
0.0
  0
LINE
  5
B1
330
28
100
AcDbEntity
  8
MUO
100
AcDbLine
 10
-0.0562679883412756
 20
-0.107047211869272
 30
0.0
 11
-0.0562679883412756
 21
9.215501804109429
 31
0.0
  0
LINE
  5
B2
330
28
100
AcDbEntity
  8
MUO
100
AcDbLine
 10
9.268385649226672
 20
-0.107047211869272
 30
0.0
 11
-0.0562679883412756
 21
-0.107047211869272
 31
0.0
  0
LINE
  5
B3
330
28
100
AcDbEntity
  8
MUO
100
AcDbLine
 10
9.268385649226672
 20
9.215501804109429
 30
0.0
 11
9.268385649226672
 21
-0.107047211869272
 31
0.0
  0
LINE
  5
B4
330
28
100
AcDbEntity
  8
MUO
100
AcDbLine
 10
-0.0562679883412756
 20
9.215501804109429
 30
0.0
 11
9.268385649226672
 21
9.215501804109429
 31
0.0
  0
ENDBLK
  5
B5
330
28
100
AcDbEntity
  8
0
100
AcDbBlockEnd
  0
BLOCK
  5
B6
330
29
100
AcDbEntity
  8
0
100
AcDbBlockBegin
  2
BLC29
 70
     0
 10
0.0
 20
0.0
 30
0.0
  3
BLC29
  1

  0
LINE
  5
B7
330
29
100
AcDbEntity
  8
0
  6
Continuous
100
AcDbLine
 10
0.0048653824876794
 20
1.206889041390212
 30
0.0
 11
2.350630894713304
 21
-0.1284646699785696
 31
0.0
  0
LINE
  5
B8
330
29
100
AcDbEntity
  8
0
  6
Continuous
100
AcDbLine
 10
2.350630894713304
 20
-0.1284646699785696
 30
0.0
 11
0.0048653824876794
 21
-1.318383818722992
 31
0.0
  0
ENDBLK
  5
B9
330
29
100
AcDbEntity
  8
0
100
AcDbBlockEnd
  0
BLOCK
  5
BA
330
2A
100
AcDbEntity
  8
0
100
AcDbBlockBegin
  2
WKU130
 70
     0
 10
190.0
 20
250.0
 30
0.0
  3
WKU130
  1

  0
ARC
  5
BB
330
2A
100
AcDbEntity
  8
21
100
AcDbCircle
 10
191.083333
 20
249.916667
 30
0.0
 40
1.086534
100
AcDbArc
 50
32.47119199999999
 51
175.6012949999999
  0
ARC
  5
BC
330
2A
100
AcDbEntity
  8
21
100
AcDbCircle
 10
192.9166669999999
 20
251.083333
 30
0.0
 40
1.086534
100
AcDbArc
 50
212.471192
 51
355.6012949999999
  0
ENDBLK
  5
BD
330
2A
100
AcDbEntity
  8
0
100
AcDbBlockEnd
  0
BLOCK
  5
BE
330
2B
100
AcDbEntity
  8
0
100
AcDbBlockBegin
  2
BLC15
 70
     0
 10
0.0
 20
0.0
 30
0.0
  3
BLC15
  1

  0
LINE
  5
BF
330
2B
100
AcDbEntity
  8
0
  6
Continuous
100
AcDbLine
 10
0.1420843676212655
 20
3.490022375113255
 30
0.0
 11
0.1420843676212655
 21
0.8443648832166417
 31
0.0
  0
LINE
  5
C0
330
2B
100
AcDbEntity
  8
0
  6
Continuous
100
AcDbLine
 10
-0.4616105474578376
 20
-0.9371884861638335
 30
0.0
 11
0.7457792827003687
 21
-0.9371884861638335
 31
0.0
  0
LINE
  5
C1
330
2B
100
AcDbEntity
  8
0
  6
Continuous
100
AcDbLine
 10
-0.8941083970667307
 20
-0.0496747197325362
 30
0.0
 11
1.169266760442411
 21
-0.0496747197325362
 31
0.0
  0
LINE
  5
C2
330
2B
100
AcDbEntity
  8
0
  6
Continuous
100
AcDbLine
 10
-1.389678849743603
 20
0.8443648832166417
 30
0.0
 11
1.673847584986134
 21
0.8443648832166417
 31
0.0
  0
ENDBLK
  5
C3
330
2B
100
AcDbEntity
  8
0
100
AcDbBlockEnd
  0
BLOCK
  5
C4
330
2C
100
AcDbEntity
  8
0
100
AcDbBlockBegin
  2
BLC5
 70
     0
 10
0.0
 20
0.0
 30
0.0
  3
BLC5
  1

  0
TEXT
  5
C5
330
2C
100
AcDbEntity
  8
0
100
AcDbText
 10
-3.043703616622593
 20
-6.645911909806137
 30
0.0
 40
3.2
  1
PE
100
AcDbText
  0
LINE
  5
C6
330
2C
100
AcDbEntity
  8
0
100
AcDbLine
 10
-2.946391600460657
 20
1.181176409735783
 30
0.0
 11
2.135458132443943
 21
1.181176409735783
 31
0.0
  0
LINE
  5
C7
330
2C
100
AcDbEntity
  8
0
100
AcDbLine
 10
-0.4865600808100226
 20
2.238361925631892
 30
0.0
 11
-0.4865600808100226
 21
6.930438381985624
 31
0.0
  0
LINE
  5
C8
330
2C
100
AcDbEntity
  8
0
100
AcDbLine
 10
-1.973271438840612
 20
0.0652583651787779
 30
0.0
 11
1.225410573891878
 21
0.0652583651787779
 31
0.0
  0
LINE
  5
C9
330
2C
100
AcDbEntity
  8
0
100
AcDbLine
 10
2.685090816321945
 20
2.238361925631892
 30
0.0
 11
1.68493953910135
 21
2.238361925631892
 31
0.0
  0
LINE
  5
CA
330
2C
100
AcDbEntity
  8
0
100
AcDbLine
 10
-3.505034656205481
 20
2.238361925631892
 30
0.0
 11
2.649049328854516
 21
2.238361925631892
 31
0.0
  0
CIRCLE
  5
CB
330
2C
100
AcDbEntity
  8
0
100
AcDbCircle
 10
-0.4775497089431724
 20
1.422632360897239
 30
0.0
 40
3.80456268992242
  0
ENDBLK
  5
CC
330
2C
100
AcDbEntity
  8
0
100
AcDbBlockEnd
  0
BLOCK
  5
CD
330
2D
100
AcDbEntity
  8
0
100
AcDbBlockBegin
  2
BLC57
 70
     0
 10
0.0
 20
0.0
 30
0.0
  3
BLC57
  1

  0
TEXT
  5
CE
330
2D
100
AcDbEntity
  8
0
  6
Continuous
100
AcDbText
 10
5.743694433929135
 20
1.362373143485873
 30
0.0
 40
2.5
  1
1
 11
5.743694433929135
 21
0.5290398101525398
 31
0.0
100
AcDbText
 73
     1
  0
LINE
  5
CF
330
2D
100
AcDbEntity
  8
0
  6
Continuous
100
AcDbLine
 10
1.301790899551605
 20
0.6971801650394128
 30
0.0
 11
3.685251332632219
 21
1.885372006239947
 31
0.0
  0
LINE
  5
D0
330
2D
100
AcDbEntity
  8
0
  6
Continuous
100
AcDbLine
 10
3.65559815579715
 20
2.68711305054316
 30
0.0
 11
1.309832643571525
 21
1.497193901798738
 31
0.0
  0
LINE
  5
D1
330
2D
100
AcDbEntity
  8
0
  6
Continuous
100
AcDbLine
 10
1.309832643571525
 20
4.022466761911914
 30
0.0
 11
3.65559815579715
 21
2.68711305054316
 31
0.0
  0
LINE
  5
D2
330
2D
100
AcDbEntity
  8
BASE
  6
Continuous
100
AcDbLine
 10
7.5
 20
0.0
 30
0.0
 11
7.5
 21
5.0
 31
0.0
  0
LINE
  5
D3
330
2D
100
AcDbEntity
  8
BASE
  6
Continuous
100
AcDbLine
 10
0.0
 20
0.0
 30
0.0
 11
7.5
 21
0.0
 31
0.0
  0
LINE
  5
D4
330
2D
100
AcDbEntity
  8
BASE
  6
Continuous
100
AcDbLine
 10
0.0
 20
5.0
 30
0.0
 11
0.0
 21
0.0
 31
0.0
  0
LINE
  5
D5
330
2D
100
AcDbEntity
  8
BASE
  6
Continuous
100
AcDbLine
 10
7.5
 20
5.0
 30
0.0
 11
0.0
 21
5.0
 31
0.0
  0
ENDBLK
  5
D6
330
2D
100
AcDbEntity
  8
0
100
AcDbBlockEnd
  0
BLOCK
  5
D7
330
2E
100
AcDbEntity
  8
0
100
AcDbBlockBegin
  2
BLC25
 70
     0
 10
0.0
 20
0.0
 30
0.0
  3
BLC25
  1

  0
TEXT
  5
D8
330
2E
100
AcDbEntity
  8
0
  6
Continuous
100
AcDbText
 10
2.0
 20
30.66666666666666
 30
0.0
 40
2.0
  1
1)
 11
2.0
 21
30.0
 31
0.0
100
AcDbText
 73
     1
  0
TEXT
  5
D9
330
2E
100
AcDbEntity
  8
0
100
AcDbText
 10
6.0
 20
1.999999999999995
 30
0.0
 40
2.0
  1
7B    27     26
 11
6.0
 21
1.333333333333328
 31
0.0
100
AcDbText
 73
     1
  0
TEXT
  5
DA
330
2E
100
AcDbEntity
  8
0
100
AcDbText
 10
6.0
 20
5.333333333333331
 30
0.0
 40
2.0
  1
5B     9      8
 11
6.0
 21
4.666666666666664
 31
0.0
100
AcDbText
 73
     1
  0
TEXT
  5
DB
330
2E
100
AcDbEntity
  8
0
100
AcDbText
 10
6.0
 20
8.666666666666666
 30
0.0
 40
2.0
  1
3B     3      2
 11
6.0
 21
8.0
 31
0.0
100
AcDbText
 73
     1
  0
TEXT
  5
DC
330
2E
100
AcDbEntity
  8
0
100
AcDbText
 10
32.0
 20
12.66666666666666
 30
0.0
 40
2.0
  1
In=5A
 11
32.0
 21
12.0
 31
0.0
100
AcDbText
 73
     1
  0
TEXT
  5
DD
330
2E
100
AcDbEntity
  8
0
100
AcDbText
 10
16.0
 20
12.66666666666666
 30
0.0
 40
2.0
  1
In=1A 
 11
16.0
 21
12.0
 31
0.0
100
AcDbText
 73
     1
  0
TEXT
  5
DE
330
2E
100
AcDbEntity
  8
0
100
AcDbText
 10
26.0
 20
18.66666666666666
 30
0.0
 40
2.0
  1
108:
 11
26.0
 21
18.0
 31
0.0
100
AcDbText
 73
     1
  0
TEXT
  5
DF
330
2E
100
AcDbEntity
  8
0
100
AcDbText
 10
6.0
 20
18.66666666666666
 30
0.0
 40
2.0
  1
101:       
 11
6.0
 21
18.0
 31
0.0
100
AcDbText
 73
     1
  0
TEXT
  5
E0
330
2E
100
AcDbEntity
  8
0
100
AcDbText
 10
6.0
 20
24.66666666666666
 30
0.0
 40
2.0
  1
TERMINALS / UTTAG
 11
6.0
 21
24.0
 31
0.0
100
AcDbText
 73
     1
  0
LINE
  5
E1
330
2E
100
AcDbEntity
  8
0
100
AcDbLine
 10
0.0
 20
12.0
 30
0.0
 11
44.0
 21
12.0
 31
0.0
  0
LINE
  5
E2
330
2E
100
AcDbEntity
  8
0
100
AcDbLine
 10
28.0
 20
18.0
 30
0.0
 11
28.0
 21
0.0
 31
0.0
  0
LINE
  5
E3
330
2E
100
AcDbEntity
  8
0
100
AcDbLine
 10
14.0
 20
18.0
 30
0.0
 11
44.0
 21
18.0
 31
0.0
  0
LINE
  5
E4
330
2E
100
AcDbEntity
  8
0
100
AcDbLine
 10
14.0
 20
24.0
 30
0.0
 11
14.0
 21
0.0
 31
0.0
  0
LINE
  5
E5
330
2E
100
AcDbEntity
  8
0
100
AcDbLine
 10
0.0
 20
24.0
 30
0.0
 11
44.0
 21
24.0
 31
0.0
  0
LINE
  5
E6
330
2E
100
AcDbEntity
  8
0
100
AcDbLine
 10
44.0
 20
0.0
 30
0.0
 11
44.0
 21
30.0
 31
0.0
  0
LINE
  5
E7
330
2E
100
AcDbEntity
  8
0
100
AcDbLine
 10
0.0
 20
0.0
 30
0.0
 11
44.0
 21
0.0
 31
0.0
  0
LINE
  5
E8
330
2E
100
AcDbEntity
  8
0
100
AcDbLine
 10
0.0
 20
30.0
 30
0.0
 11
0.0
 21
0.0
 31
0.0
  0
LINE
  5
E9
330
2E
100
AcDbEntity
  8
0
100
AcDbLine
 10
44.0
 20
30.0
 30
0.0
 11
0.0
 21
30.0
 31
0.0
  0
ENDBLK
  5
EA
330
2E
100
AcDbEntity
  8
0
100
AcDbBlockEnd
  0
BLOCK
  5
EB
330
2F
100
AcDbEntity
  8
0
100
AcDbBlockBegin
  2
*X13
 70
     1
 10
0.0
 20
0.0
 30
0.0
  3
*X13
  1

  0
LINE
  5
EC
330
2F
100
AcDbEntity
  8
0
  6
Continuous
 62
     0
100
AcDbLine
 10
78.70659715724506
 20
140.0
 30
0.0
 11
80.0
 21
140.0
 31
0.0
  0
ENDBLK
  5
ED
330
2F
100
AcDbEntity
  8
0
100
AcDbBlockEnd
  0
BLOCK
  5
EE
330
30
100
AcDbEntity
  8
0
100
AcDbBlockBegin
  2
ABBA3V
 70
     0
 10
0.0
 20
0.0
 30
0.0
  3
ABBA3V
  1

  0
TEXT
  5
EF
330
30
100
AcDbEntity
  8
RAAMI
  6
DASHED
100
AcDbText
 10
292.217194262135
 20
11.81335905974098
 30
0.0
 40
3.0
  1
A3
  7
GREEKS
100
AcDbText
  0
TEXT
  5
F0
330
30
100
AcDbEntity
  8
RAAMI
  6
DASHED
100
AcDbText
 10
351.8185767466981
 20
15.69252984362215
 30
0.0
 40
1.399999999999999
  1
LEHTI SHEET
  7
GREEKS
100
AcDbText
  0
LINE
  5
F1
330
30
100
AcDbEntity
  8
PAKSU
100
AcDbLine
 10
0.2370990874900258
 20
262.7379992524221
 30
0.0
 11
392.23709908749
 21
262.7379992524221
 31
0.0
  0
LINE
  5
F2
330
30
100
AcDbEntity
  8
RAAMI
100
AcDbLine
 10
18.23709908749002
 20
0.2379992524221779
 30
0.0
 11
0.2370990874900258
 21
0.2379992524221779
 31
0.0
  0
LINE
  5
F3
330
30
100
AcDbEntity
  8
PAKSU
100
AcDbLine
 10
209.23709908749
 20
0.2379992524221779
 30
0.0
 11
392.23709908749
 21
0.2379992524221779
 31
0.0
  0
LINE
  5
F4
330
30
100
AcDbEntity
  8
PAKSU
100
AcDbLine
 10
209.23709908749
 20
0.2379992524221779
 30
0.0
 11
209.23709908749
 21
35.23799925242217
 31
0.0
  0
LINE
  5
F5
330
30
100
AcDbEntity
  8
PAKSU
100
AcDbLine
 10
392.23709908749
 20
0.2379992524221779
 30
0.0
 11
392.23709908749
 21
35.23799925242217
 31
0.0
  0
LINE
  5
F6
330
30
100
AcDbEntity
  8
OHUT
100
AcDbLine
 10
209.23709908749
 20
18.23799925242217
 30
0.0
 11
392.23709908749
 21
18.23799925242217
 31
0.0
  0
LINE
  5
F7
330
30
100
AcDbEntity
  8
OHUT
100
AcDbLine
 10
209.23709908749
 20
9.737999252422177
 30
0.0
 11
392.23709908749
 21
9.737999252422177
 31
0.0
  0
LINE
  5
F8
330
30
100
AcDbEntity
  8
OHUT
100
AcDbLine
 10
209.23709908749
 20
26.73799925242217
 30
0.0
 11
307.23709908749
 21
26.73799925242217
 31
0.0
  0
LINE
  5
F9
330
30
100
AcDbEntity
  8
PAKSU
100
AcDbLine
 10
209.23709908749
 20
35.23799925242217
 30
0.0
 11
392.23709908749
 21
35.23799925242217
 31
0.0
  0
TEXT
  5
FA
330
30
100
AcDbEntity
  8
RAAMI
100
AcDbText
 10
210.23709908749
 20
23.97133258575551
 30
0.0
 40
1.399999999999999
  1
TARKASTI  CHECKED
  7
ROMANS
100
AcDbText
  0
TEXT
  5
FC
330
30
100
AcDbEntity
  8
RAAMI
100
AcDbText
 10
209.9799338133564
 20
15.70466591908884
 30
0.0
 40
1.399999999999999
  1
HYVÄKSYI  APPROVED
  7
ROMANS
100
AcDbText
  0
LINE
  5
FD
330
30
100
AcDbEntity
  8
OHUT
100
AcDbLine
 10
307.23709908749
 20
0.2379992524221779
 30
0.0
 11
307.23709908749
 21
35.23799925242217
 31
0.0
  0
TEXT
  5
FE
330
30
100
AcDbEntity
  8
RAAMI
100
AcDbText
 10
259.23709908749
 20
32.73799925242217
 30
0.0
 40
1.399999999999999
  1
LIITTYY  CONCERNING
  7
ROMANS
100
AcDbText
  0
TEXT
  5
FF
330
30
100
AcDbEntity
  8
RAAMI
100
AcDbText
 10
259.23709908749
 20
23.73799925242217
 30
0.0
 40
1.399999999999999
  1
TOLERANSSIT  TOLERANCES
  7
ROMANS
100
AcDbText
  0
TEXT
  5
100
330
30
100
AcDbEntity
  8
RAAMI
100
AcDbText
 10
259.23709908749
 20
15.73799925242217
 30
0.0
 40
1.399999999999999
  1
SUHDE  SCALE
  7
ROMANS
100
AcDbText
  0
TEXT
  5
101
330
30
100
AcDbEntity
  8
RAAMI
100
AcDbText
 10
309.23709908749
 20
32.73799925242217
 30
0.0
 40
1.399999999999999
  1
NIMITYS  NAME
  7
ROMANS
100
AcDbText
  0
TEXT
  5
102
330
30
100
AcDbEntity
  8
RAAMI
100
AcDbText
 10
309.23709908749
 20
15.73799925242217
 30
0.0
 40
1.399999999999999
  1
KOODI  CODE
  7
ROMANS
100
AcDbText
  0
TEXT
  5
103
330
30
100
AcDbEntity
  8
RAAMI
100
AcDbText
 10
309.23709908749
 20
7.237999252422177
 30
0.0
 40
1.399999999999999
  1
PIIRUSTUS NO  DRAWING NR
  7
ROMANS
100
AcDbText
  0
LINE
  5
104
330
30
100
AcDbEntity
  8
OHUT
100
AcDbLine
 10
349.73709908749
 20
9.737999252422177
 30
0.0
 11
349.73709908749
 21
18.23799925242217
 31
0.0
  0
TEXT
  5
105
330
30
100
AcDbEntity
  8
RAAMI
100
AcDbText
 10
371.23709908749
 20
7.237999252422177
 30
0.0
 40
1.399999999999999
  1
PAINOS  REVISION
  7
ROMANS
100
AcDbText
  0
LINE
  5
106
330
30
100
AcDbEntity
  8
OHUT
100
AcDbLine
 10
369.73709908749
 20
9.737999252422177
 30
0.0
 11
369.73709908749
 21
0.2379992524221779
 31
0.0
  0
LINE
  5
107
330
30
100
AcDbEntity
  8
RAAMI
100
AcDbLine
 10
210.18709908749
 20
1.737999252422177
 30
0.0
 11
211.93709908749
 21
1.737999252422177
 31
0.0
  0
LINE
  5
108
330
30
100
AcDbEntity
  8
RAAMI
100
AcDbLine
 10
215.43709908749
 20
1.737999252422177
 30
0.0
 11
217.18709908749
 21
1.737999252422177
 31
0.0
  0
LINE
  5
109
330
30
100
AcDbEntity
  8
RAAMI
100
AcDbLine
 10
212.63709908749
 20
8.737999252422177
 30
0.0
 11
211.4595712478463
 21
5.373633996297456
 31
0.0
  0
LINE
  5
10A
330
30
100
AcDbEntity
  8
RAAMI
100
AcDbLine
 10
212.4258857855872
 20
3.137999252422176
 30
0.0
 11
213.54709908749
 21
3.137999252422176
 31
0.0
  0
LINE
  5
10B
330
30
100
AcDbEntity
  8
RAAMI
100
AcDbLine
 10
212.4258889824527
 20
3.134541809458486
 30
0.0
 11
211.93709908749
 21
1.737999252422177
 31
0.0
  0
LINE
  5
10C
330
30
100
AcDbEntity
  8
RAAMI
100
AcDbLine
 10
214.73709908749
 20
8.737999252422177
 30
0.0
 11
215.9134520127146
 21
5.376990894637707
 31
0.0
  0
LINE
  5
10D
330
30
100
AcDbEntity
  8
RAAMI
100
AcDbLine
 10
214.9481967907755
 20
3.134862957320585
 30
0.0
 11
215.43709908749
 21
1.737999252422177
 31
0.0
  0
LINE
  5
10E
330
30
100
AcDbEntity
  8
RAAMI
100
AcDbLine
 10
214.73709908749
 20
8.737999252422177
 30
0.0
 11
213.82709908749
 21
8.737999252422177
 31
0.0
  0
LINE
  5
10F
330
30
100
AcDbEntity
  8
RAAMI
100
AcDbLine
 10
213.54709908749
 20
8.737999252422177
 30
0.0
 11
213.54709908749
 21
5.377999252422178
 31
0.0
  0
LINE
  5
110
330
30
100
AcDbEntity
  8
RAAMI
100
AcDbLine
 10
213.82709908749
 20
8.737999252422177
 30
0.0
 11
213.82709908749
 21
5.377999252422178
 31
0.0
  0
LINE
  5
111
330
30
100
AcDbEntity
  8
RAAMI
100
AcDbLine
 10
213.82709908749
 20
3.137999252422176
 30
0.0
 11
214.9469924809167
 21
3.137999252422176
 31
0.0
  0
LINE
  5
112
330
30
100
AcDbEntity
  8
RAAMI
100
AcDbLine
 10
213.54709908749
 20
8.737999252422177
 30
0.0
 11
212.63709908749
 21
8.737999252422177
 31
0.0
  0
LINE
  5
113
330
30
100
AcDbEntity
  8
RAAMI
100
AcDbLine
 10
211.4590398011296
 20
5.377999252422178
 30
0.0
 11
213.54709908749
 21
5.377999252422178
 31
0.0
  0
LINE
  5
114
330
30
100
AcDbEntity
  8
RAAMI
100
AcDbLine
 10
211.3600815769602
 20
5.097999252422177
 30
0.0
 11
213.54709908749
 21
5.097999252422177
 31
0.0
  0
LINE
  5
115
330
30
100
AcDbEntity
  8
RAAMI
100
AcDbLine
 10
216.0115910012183
 20
5.096593784627025
 30
0.0
 11
217.18709908749
 21
1.737999252422177
 31
0.0
  0
LINE
  5
116
330
30
100
AcDbEntity
  8
RAAMI
100
AcDbLine
 10
213.82709908749
 20
5.377999252422178
 30
0.0
 11
215.9122127349171
 21
5.377999252422178
 31
0.0
  0
LINE
  5
117
330
30
100
AcDbEntity
  8
RAAMI
100
AcDbLine
 10
213.82709908749
 20
5.097999252422177
 30
0.0
 11
216.0103556182099
 21
5.097999252422177
 31
0.0
  0
LINE
  5
118
330
30
100
AcDbEntity
  8
RAAMI
100
AcDbLine
 10
213.82709908749
 20
5.097999252422177
 30
0.0
 11
213.82709908749
 21
3.137999252422176
 31
0.0
  0
LINE
  5
119
330
30
100
AcDbEntity
  8
RAAMI
100
AcDbLine
 10
213.54709908749
 20
5.097999252422177
 30
0.0
 11
213.54709908749
 21
3.137999252422176
 31
0.0
  0
LINE
  5
11A
330
30
100
AcDbEntity
  8
RAAMI
100
AcDbLine
 10
211.3569877289154
 20
5.080538227923291
 30
0.0
 11
210.18709908749
 21
1.737999252422177
 31
0.0
  0
INSERT
  5
11B
330
30
100
AcDbEntity
  8
RAAMI
100
AcDbBlockReference
  2
*X15
 10
210.18709908749
 20
1.737999252422177
 30
0.0
 41
0.7
 42
0.7
 43
0.7
  0
INSERT
  5
11C
330
30
100
AcDbEntity
  8
RAAMI
100
AcDbBlockReference
  2
*X16
 10
210.18709908749
 20
1.737999252422177
 30
0.0
 41
0.7
 42
0.7
 43
0.7
  0
INSERT
  5
11D
330
30
100
AcDbEntity
  8
RAAMI
100
AcDbBlockReference
  2
*X17
 10
210.18709908749
 20
1.737999252422177
 30
0.0
 41
0.7
 42
0.7
 43
0.7
  0
INSERT
  5
11E
330
30
100
AcDbEntity
  8
RAAMI
100
AcDbBlockReference
  2
*X18
 10
210.18709908749
 20
1.737999252422177
 30
0.0
 41
0.7
 42
0.7
 43
0.7
  0
LINE
  5
11F
330
30
100
AcDbEntity
  8
RAAMI
100
AcDbLine
 10
217.67709908749
 20
1.737999252422177
 30
0.0
 11
217.67709908749
 21
5.097999252422177
 31
0.0
  0
LINE
  5
120
330
30
100
AcDbEntity
  8
RAAMI
100
AcDbLine
 10
217.67709908749
 20
8.737999252422177
 30
0.0
 11
219.63709908749
 21
8.737999252422177
 31
0.0
  0
LINE
  5
121
330
30
100
AcDbEntity
  8
RAAMI
100
AcDbLine
 10
219.63709908749
 20
8.737999252422177
 30
0.0
 11
219.63709908749
 21
5.377999252422178
 31
0.0
  0
LINE
  5
122
330
30
100
AcDbEntity
  8
RAAMI
100
AcDbLine
 10
219.63709908749
 20
5.377999252422178
 30
0.0
 11
217.67709908749
 21
5.377999252422178
 31
0.0
  0
LINE
  5
123
330
30
100
AcDbEntity
  8
RAAMI
100
AcDbLine
 10
217.67709908749
 20
5.097999252422177
 30
0.0
 11
219.63709908749
 21
5.097999252422177
 31
0.0
  0
LINE
  5
124
330
30
100
AcDbEntity
  8
RAAMI
100
AcDbLine
 10
219.63709908749
 20
5.097999252422177
 30
0.0
 11
219.63709908749
 21
1.737999252422177
 31
0.0
  0
LINE
  5
125
330
30
100
AcDbEntity
  8
RAAMI
100
AcDbLine
 10
219.63709908749
 20
1.737999252422177
 30
0.0
 11
217.67709908749
 21
1.737999252422177
 31
0.0
  0
LINE
  5
126
330
30
100
AcDbEntity
  8
RAAMI
100
AcDbLine
 10
217.67709908749
 20
5.377999252422178
 30
0.0
 11
217.67709908749
 21
8.737999252422177
 31
0.0
  0
ARC
  5
127
330
30
100
AcDbEntity
  8
RAAMI
100
AcDbCircle
 10
220.47709908749
 20
7.162999252422174
 30
0.0
 40
1.574999999999998
100
AcDbArc
 50
298.4558593394117
 51
90.0524369955635
  0
LINE
  5
128
330
30
100
AcDbEntity
  8
RAAMI
100
AcDbLine
 10
219.91709908749
 20
8.737999252422177
 30
0.0
 11
220.4756576504909
 21
8.737998592821838
 31
0.0
  0
LINE
  5
129
330
30
100
AcDbEntity
  8
RAAMI
100
AcDbLine
 10
219.91709908749
 20
8.737999252422177
 30
0.0
 11
219.91709908749
 21
5.377999252422178
 31
0.0
  0
LINE
  5
12A
330
30
100
AcDbEntity
  8
RAAMI
100
AcDbLine
 10
219.91709908749
 20
5.377999252422178
 30
0.0
 11
221.9015418540271
 21
5.377999252422178
 31
0.0
  0
LINE
  5
12B
330
30
100
AcDbEntity
  8
RAAMI
100
AcDbLine
 10
222.15709908749
 20
5.097999252422177
 30
0.0
 11
219.91709908749
 21
5.097999252422177
 31
0.0
  0
LINE
  5
12C
330
30
100
AcDbEntity
  8
RAAMI
100
AcDbLine
 10
219.91709908749
 20
5.097999252422177
 30
0.0
 11
219.91709908749
 21
1.737999252422177
 31
0.0
  0
ARC
  5
12D
330
30
100
AcDbEntity
  8
RAAMI
100
AcDbCircle
 10
220.47709908749
 20
3.837999252422179
 30
0.0
 40
2.099999999999998
100
AcDbArc
 50
269.9377244294032
 51
37.05655321680703
  0
LINE
  5
12E
330
30
100
AcDbEntity
  8
RAAMI
100
AcDbLine
 10
219.91709908749
 20
1.737999252422177
 30
0.0
 11
220.4748165690634
 21
1.738000492872633
 31
0.0
  0
ARC
  5
12F
330
30
100
AcDbEntity
  8
RAAMI
100
AcDbCircle
 10
220.47709908749
 20
3.837999252422179
 30
0.0
 40
2.099999999999998
100
AcDbArc
 50
47.28621969132301
 51
68.78799932186918
  0
INSERT
  5
130
330
30
100
AcDbEntity
  8
RAAMI
100
AcDbBlockReference
  2
*X19
 10
210.18709908749
 20
1.737999252422177
 30
0.0
 41
0.7
 42
0.7
 43
0.7
  0
INSERT
  5
131
330
30
100
AcDbEntity
  8
RAAMI
100
AcDbBlockReference
  2
*X20
 10
210.18709908749
 20
1.737999252422177
 30
0.0
 41
0.7
 42
0.7
 43
0.7
  0
INSERT
  5
132
330
30
100
AcDbEntity
  8
RAAMI
100
AcDbBlockReference
  2
*X21
 10
210.18709908749
 20
1.737999252422177
 30
0.0
 41
0.7
 42
0.7
 43
0.7
  0
INSERT
  5
133
330
30
100
AcDbEntity
  8
RAAMI
100
AcDbBlockReference
  2
*X22
 10
210.18709908749
 20
1.737999252422177
 30
0.0
 41
0.7
 42
0.7
 43
0.7
  0
INSERT
  5
134
330
30
100
AcDbEntity
  8
RAAMI
100
AcDbBlockReference
  2
*X22
 10
215.64709908749
 20
1.737999252422177
 30
0.0
 41
0.7
 42
0.7
 43
0.7
  0
INSERT
  5
135
330
30
100
AcDbEntity
  8
RAAMI
100
AcDbBlockReference
  2
*X21
 10
215.64709908749
 20
1.737999252422177
 30
0.0
 41
0.7
 42
0.7
 43
0.7
  0
INSERT
  5
136
330
30
100
AcDbEntity
  8
RAAMI
100
AcDbBlockReference
  2
*X20
 10
215.64709908749
 20
1.737999252422177
 30
0.0
 41
0.7
 42
0.7
 43
0.7
  0
INSERT
  5
137
330
30
100
AcDbEntity
  8
RAAMI
100
AcDbBlockReference
  2
*X19
 10
215.64709908749
 20
1.737999252422177
 30
0.0
 41
0.7
 42
0.7
 43
0.7
  0
ARC
  5
138
330
30
100
AcDbEntity
  8
RAAMI
100
AcDbCircle
 10
225.93709908749
 20
3.837999252422179
 30
0.0
 40
2.099999999999998
100
AcDbArc
 50
47.28621969132301
 51
68.78799932186918
  0
LINE
  5
139
330
30
100
AcDbEntity
  8
RAAMI
100
AcDbLine
 10
225.37709908749
 20
1.737999252422177
 30
0.0
 11
225.9348165690634
 21
1.738000492872633
 31
0.0
  0
ARC
  5
13A
330
30
100
AcDbEntity
  8
RAAMI
100
AcDbCircle
 10
225.93709908749
 20
3.837999252422179
 30
0.0
 40
2.099999999999998
100
AcDbArc
 50
269.9377244294032
 51
37.05655321680703
  0
LINE
  5
13B
330
30
100
AcDbEntity
  8
RAAMI
100
AcDbLine
 10
225.37709908749
 20
5.097999252422177
 30
0.0
 11
225.37709908749
 21
1.737999252422177
 31
0.0
  0
LINE
  5
13C
330
30
100
AcDbEntity
  8
RAAMI
100
AcDbLine
 10
227.61709908749
 20
5.097999252422177
 30
0.0
 11
225.37709908749
 21
5.097999252422177
 31
0.0
  0
LINE
  5
13D
330
30
100
AcDbEntity
  8
RAAMI
100
AcDbLine
 10
225.37709908749
 20
5.377999252422178
 30
0.0
 11
227.3615418540271
 21
5.377999252422178
 31
0.0
  0
LINE
  5
13E
330
30
100
AcDbEntity
  8
RAAMI
100
AcDbLine
 10
225.37709908749
 20
8.737999252422177
 30
0.0
 11
225.37709908749
 21
5.377999252422178
 31
0.0
  0
LINE
  5
13F
330
30
100
AcDbEntity
  8
RAAMI
100
AcDbLine
 10
225.37709908749
 20
8.737999252422177
 30
0.0
 11
225.9356576504909
 21
8.737998592821838
 31
0.0
  0
ARC
  5
140
330
30
100
AcDbEntity
  8
RAAMI
100
AcDbCircle
 10
225.93709908749
 20
7.162999252422174
 30
0.0
 40
1.574999999999998
100
AcDbArc
 50
298.4558593394117
 51
90.0524369955635
  0
LINE
  5
141
330
30
100
AcDbEntity
  8
RAAMI
100
AcDbLine
 10
223.13709908749
 20
5.377999252422178
 30
0.0
 11
223.13709908749
 21
8.737999252422177
 31
0.0
  0
LINE
  5
142
330
30
100
AcDbEntity
  8
RAAMI
100
AcDbLine
 10
225.09709908749
 20
1.737999252422177
 30
0.0
 11
223.13709908749
 21
1.737999252422177
 31
0.0
  0
LINE
  5
143
330
30
100
AcDbEntity
  8
RAAMI
100
AcDbLine
 10
225.09709908749
 20
5.097999252422177
 30
0.0
 11
225.09709908749
 21
1.737999252422177
 31
0.0
  0
LINE
  5
144
330
30
100
AcDbEntity
  8
RAAMI
100
AcDbLine
 10
223.13709908749
 20
5.097999252422177
 30
0.0
 11
225.09709908749
 21
5.097999252422177
 31
0.0
  0
LINE
  5
145
330
30
100
AcDbEntity
  8
RAAMI
100
AcDbLine
 10
225.09709908749
 20
5.377999252422178
 30
0.0
 11
223.13709908749
 21
5.377999252422178
 31
0.0
  0
LINE
  5
146
330
30
100
AcDbEntity
  8
RAAMI
100
AcDbLine
 10
225.09709908749
 20
8.737999252422177
 30
0.0
 11
225.09709908749
 21
5.377999252422178
 31
0.0
  0
LINE
  5
147
330
30
100
AcDbEntity
  8
RAAMI
100
AcDbLine
 10
223.13709908749
 20
8.737999252422177
 30
0.0
 11
225.09709908749
 21
8.737999252422177
 31
0.0
  0
LINE
  5
148
330
30
100
AcDbEntity
  8
RAAMI
100
AcDbLine
 10
223.13709908749
 20
1.737999252422177
 30
0.0
 11
223.13709908749
 21
5.097999252422177
 31
0.0
  0
TEXT
  5
149
330
30
100
AcDbEntity
  8
RAAMI
100
AcDbText
 10
229.73709908749
 20
1.737999252422177
 30
0.0
 40
3.0
  1
ABB 
 41
0.8
  7
ROMANS
100
AcDbText
  0
TEXT
  5
14A
330
30
100
AcDbEntity
  8
RAAMI
100
AcDbText
 10
237.73709908749
 20
1.737999252422177
 30
0.0
 40
3.0
  1
Strömberg
 41
0.8
  7
ROMANS
100
AcDbText
  0
LINE
  5
14B
330
30
100
AcDbEntity
  8
OHUT
100
AcDbLine
 10
282.23709908749
 20
9.737999252422177
 30
0.0
 11
282.23709908749
 21
18.23799925242217
 31
0.0
  0
TEXT
  5
14C
330
30
100
AcDbEntity
  8
RAAMI
100
AcDbText
 10
27.73709908749002
 20
4.737999252422177
 30
0.0
 40
1.399999999999999
  1
MUUTOS
  7
ROMANS
100
AcDbText
  0
TEXT
  5
14D
330
30
100
AcDbEntity
  8
RAAMI
100
AcDbText
 10
27.73709908749002
 20
2.471332585755512
 30
0.0
 40
1.399999999999999
  1
REVISION
  7
ROMANS
100
AcDbText
  0
LINE
  5
14E
330
30
100
AcDbEntity
  8
OHUT
100
AcDbLine
 10
46.73709908749002
 20
9.237999252422177
 30
0.0
 11
209.23709908749
 21
9.237999252422177
 31
0.0
  0
LINE
  5
14F
330
30
100
AcDbEntity
  8
OHUT
100
AcDbLine
 10
46.73709908749002
 20
0.2379992524221779
 30
0.0
 11
46.73709908749002
 21
9.237999252422177
 31
0.0
  0
LINE
  5
150
330
30
100
AcDbEntity
  8
OHUT
100
AcDbLine
 10
40.73709908749002
 20
4.737999252422177
 30
0.0
 11
209.23709908749
 21
4.737999252422177
 31
0.0
  0
LINE
  5
151
330
30
100
AcDbEntity
  8
OHUT
100
AcDbLine
 10
257.23709908749
 20
9.737999252422177
 30
0.0
 11
257.23709908749
 21
35.23799925242217
 31
0.0
  0
LINE
  5
152
330
30
100
AcDbEntity
  8
OHUT
100
AcDbLine
 10
271.23709908749
 20
9.737999252422177
 30
0.0
 11
271.23709908749
 21
0.2379992524221779
 31
0.0
  0
TEXT
  5
153
330
30
100
AcDbEntity
  8
RAAMI
100
AcDbText
 10
210.23709908749
 20
32.23799925242218
 30
0.0
 40
1.399999999999999
  1
TEKI  PREPARED
  7
ROMANS
100
AcDbText
  0
TEXT
  5
154
330
30
100
AcDbEntity
  8
RAAMI
100
AcDbText
 10
273.23709908749
 20
7.237999252422177
 30
0.0
 40
1.399999999999999
  1
VAST.OSASTO RESP.DEPT.
  7
ROMANS
100
AcDbText
  0
TEXT
  5
155
330
30
100
AcDbEntity
  8
RAAMI
100
AcDbText
 10
257.4070059842234
 20
1.741782898647898
 30
0.0
 40
3.0
  1
Power
 41
0.8
  7
ROMANS
100
AcDbText
  0
TEXT
  5
156
330
30
100
AcDbEntity
  8
RAAMI
100
AcDbText
 10
42.23709908749002
 20
1.195292064563767
 30
0.0
 40
2.5
  1
B
  7
ROMANS
100
AcDbText
  0
TEXT
  5
157
330
30
100
AcDbEntity
  8
RAAMI
100
AcDbText
 10
42.23709908749002
 20
5.587508451304787
 30
0.0
 40
2.5
  1
C
  7
ROMANS
100
AcDbText
  0
LINE
  5
158
330
30
100
AcDbEntity
  8
PAKSU
100
AcDbLine
 10
0.2370990874900258
 20
0.2379992524221779
 30
0.0
 11
392.23709908749
 21
0.2379992524221779
 31
0.0
  0
LINE
  5
159
330
30
100
AcDbEntity
  8
PAKSU
100
AcDbLine
 10
392.23709908749
 20
262.7379992524221
 30
0.0
 11
392.23709908749
 21
0.2379992524221779
 31
0.0
  0
LINE
  5
15A
330
30
100
AcDbEntity
  8
PAKSU
100
AcDbLine
 10
0.2370990874900258
 20
0.2379992524221779
 30
0.0
 11
0.2370990874900258
 21
262.7379992524221
 31
0.0
  0
ENDBLK
  5
15B
330
30
100
AcDbEntity
  8
0
100
AcDbBlockEnd
  0
BLOCK
  5
15C
330
31
100
AcDbEntity
  8
0
100
AcDbBlockBegin
  2
*X15
 70
     1
 10
0.0
 20
0.0
 30
0.0
  3
*X15
  1

  0
LINE
  5
15D
330
31
100
AcDbEntity
  8
0
 62
     0
100
AcDbLine
 10
2.284498831525768
 20
6.527139518645053
 30
0.0
 11
4.8
 21
9.042640687119284
 31
0.0
  0
LINE
  5
15E
330
31
100
AcDbEntity
  8
0
 62
     0
100
AcDbLine
 10
2.379686282839342
 20
6.799103665255263
 30
0.0
 11
4.8
 21
9.219417382415922
 31
0.0
  0
LINE
  5
15F
330
31
100
AcDbEntity
  8
0
 62
     0
100
AcDbLine
 10
2.474873734152915
 20
7.071067811865474
 30
0.0
 11
4.8
 21
9.396194077712559
 31
0.0
  0
LINE
  5
160
330
31
100
AcDbEntity
  8
0
 62
     0
100
AcDbLine
 10
2.570061185466489
 20
7.343031958475685
 30
0.0
 11
4.8
 21
9.572970773009195
 31
0.0
  0
LINE
  5
161
330
31
100
AcDbEntity
  8
0
 62
     0
100
AcDbLine
 10
2.665248636780063
 20
7.614996105085896
 30
0.0
 11
4.8
 21
9.749747468305832
 31
0.0
  0
LINE
  5
162
330
31
100
AcDbEntity
  8
0
 62
     0
100
AcDbLine
 10
2.760436088093637
 20
7.886960251696106
 30
0.0
 11
4.8
 21
9.926524163602469
 31
0.0
  0
LINE
  5
163
330
31
100
AcDbEntity
  8
0
 62
     0
100
AcDbLine
 10
2.85562353940721
 20
8.158924398306316
 30
0.0
 11
4.696699141100895
 21
10.0
 31
0.0
  0
LINE
  5
164
330
31
100
AcDbEntity
  8
0
 62
     0
100
AcDbLine
 10
2.950810990720784
 20
8.430888544916527
 30
0.0
 11
4.519922445804257
 21
10.0
 31
0.0
  0
LINE
  5
165
330
31
100
AcDbEntity
  8
0
 62
     0
100
AcDbLine
 10
3.045998442034358
 20
8.702852691526738
 30
0.0
 11
4.343145750507621
 21
10.0
 31
0.0
  0
LINE
  5
166
330
31
100
AcDbEntity
  8
0
 62
     0
100
AcDbLine
 10
3.141185893347932
 20
8.974816838136948
 30
0.0
 11
4.166369055210983
 21
10.0
 31
0.0
  0
LINE
  5
167
330
31
100
AcDbEntity
  8
0
 62
     0
100
AcDbLine
 10
3.236373344661505
 20
9.246780984747159
 30
0.0
 11
3.989592359914347
 21
10.0
 31
0.0
  0
LINE
  5
168
330
31
100
AcDbEntity
  8
0
 62
     0
100
AcDbLine
 10
3.331560795975079
 20
9.51874513135737
 30
0.0
 11
3.81281566461771
 21
10.0
 31
0.0
  0
LINE
  5
169
330
31
100
AcDbEntity
  8
0
 62
     0
100
AcDbLine
 10
3.426748247288653
 20
9.790709277967581
 30
0.0
 11
3.636038969321073
 21
10.0
 31
0.0
  0
LINE
  5
16A
330
31
100
AcDbEntity
  8
0
 62
     0
100
AcDbLine
 10
2.189311380212195
 20
6.255175372034843
 30
0.0
 11
4.8
 21
8.865863991822648
 31
0.0
  0
LINE
  5
16B
330
31
100
AcDbEntity
  8
0
 62
     0
100
AcDbLine
 10
2.094123928898621
 20
5.983211225424632
 30
0.0
 11
4.8
 21
8.689087296526011
 31
0.0
  0
LINE
  5
16C
330
31
100
AcDbEntity
  8
0
 62
     0
100
AcDbLine
 10
1.998936477585047
 20
5.711247078814421
 30
0.0
 11
4.8
 21
8.512310601229374
 31
0.0
  0
LINE
  5
16D
330
31
100
AcDbEntity
  8
0
 62
     0
100
AcDbLine
 10
1.903749026271473
 20
5.439282932204211
 30
0.0
 11
4.8
 21
8.335533905932738
 31
0.0
  0
LINE
  5
16E
330
31
100
AcDbEntity
  8
0
 62
     0
100
AcDbLine
 10
1.841242789363899
 20
5.2
 30
0.0
 11
4.8
 21
8.1587572106361
 31
0.0
  0
LINE
  5
16F
330
31
100
AcDbEntity
  8
0
 62
     0
100
AcDbLine
 10
2.018019484660536
 20
5.2
 30
0.0
 11
4.8
 21
7.981980515339463
 31
0.0
  0
LINE
  5
170
330
31
100
AcDbEntity
  8
0
 62
     0
100
AcDbLine
 10
2.194796179957173
 20
5.2
 30
0.0
 11
4.8
 21
7.805203820042827
 31
0.0
  0
LINE
  5
171
330
31
100
AcDbEntity
  8
0
 62
     0
100
AcDbLine
 10
2.37157287525381
 20
5.2
 30
0.0
 11
4.8
 21
7.62842712474619
 31
0.0
  0
LINE
  5
172
330
31
100
AcDbEntity
  8
0
 62
     0
100
AcDbLine
 10
2.548349570550447
 20
5.2
 30
0.0
 11
4.8
 21
7.451650429449553
 31
0.0
  0
LINE
  5
173
330
31
100
AcDbEntity
  8
0
 62
     0
100
AcDbLine
 10
2.725126265847084
 20
5.2
 30
0.0
 11
4.8
 21
7.274873734152916
 31
0.0
  0
LINE
  5
174
330
31
100
AcDbEntity
  8
0
 62
     0
100
AcDbLine
 10
2.901902961143721
 20
5.2
 30
0.0
 11
4.8
 21
7.098097038856279
 31
0.0
  0
LINE
  5
175
330
31
100
AcDbEntity
  8
0
 62
     0
100
AcDbLine
 10
3.078679656440358
 20
5.2
 30
0.0
 11
4.8
 21
6.921320343559642
 31
0.0
  0
LINE
  5
176
330
31
100
AcDbEntity
  8
0
 62
     0
100
AcDbLine
 10
3.255456351736994
 20
5.2
 30
0.0
 11
4.8
 21
6.744543648263006
 31
0.0
  0
LINE
  5
177
330
31
100
AcDbEntity
  8
0
 62
     0
100
AcDbLine
 10
3.432233047033631
 20
5.2
 30
0.0
 11
4.8
 21
6.567766952966368
 31
0.0
  0
LINE
  5
178
330
31
100
AcDbEntity
  8
0
 62
     0
100
AcDbLine
 10
3.609009742330268
 20
5.2
 30
0.0
 11
4.8
 21
6.390990257669732
 31
0.0
  0
LINE
  5
179
330
31
100
AcDbEntity
  8
0
 62
     0
100
AcDbLine
 10
3.785786437626905
 20
5.2
 30
0.0
 11
4.8
 21
6.214213562373095
 31
0.0
  0
LINE
  5
17A
330
31
100
AcDbEntity
  8
0
 62
     0
100
AcDbLine
 10
3.962563132923542
 20
5.2
 30
0.0
 11
4.8
 21
6.037436867076458
 31
0.0
  0
LINE
  5
17B
330
31
100
AcDbEntity
  8
0
 62
     0
100
AcDbLine
 10
4.139339828220179
 20
5.2
 30
0.0
 11
4.8
 21
5.860660171779821
 31
0.0
  0
LINE
  5
17C
330
31
100
AcDbEntity
  8
0
 62
     0
100
AcDbLine
 10
4.316116523516816
 20
5.2
 30
0.0
 11
4.8
 21
5.683883476483184
 31
0.0
  0
LINE
  5
17D
330
31
100
AcDbEntity
  8
0
 62
     0
100
AcDbLine
 10
4.492893218813453
 20
5.2
 30
0.0
 11
4.8
 21
5.507106781186547
 31
0.0
  0
LINE
  5
17E
330
31
100
AcDbEntity
  8
0
 62
     0
100
AcDbLine
 10
4.669669914110089
 20
5.2
 30
0.0
 11
4.8
 21
5.330330085889911
 31
0.0
  0
ENDBLK
  5
17F
330
31
100
AcDbEntity
  8
0
100
AcDbBlockEnd
  0
BLOCK
  5
180
330
32
100
AcDbEntity
  8
0
100
AcDbBlockBegin
  2
*X16
 70
     1
 10
0.0
 20
0.0
 30
0.0
  3
*X16
  1

  0
LINE
  5
181
330
32
100
AcDbEntity
  8
0
 62
     0
100
AcDbLine
 10
5.2
 20
6.083883476483183
 30
0.0
 11
7.178252432022877
 21
8.062135908506061
 31
0.0
  0
LINE
  5
182
330
32
100
AcDbEntity
  8
0
 62
     0
100
AcDbLine
 10
5.2
 20
6.260660171779821
 30
0.0
 11
7.132421436945971
 21
8.19308160872579
 31
0.0
  0
LINE
  5
183
330
32
100
AcDbEntity
  8
0
 62
     0
100
AcDbLine
 10
5.2
 20
6.437436867076457
 30
0.0
 11
7.086590441869065
 21
8.324027308945522
 31
0.0
  0
LINE
  5
184
330
32
100
AcDbEntity
  8
0
 62
     0
100
AcDbLine
 10
5.2
 20
6.614213562373095
 30
0.0
 11
7.04075944679216
 21
8.454973009165254
 31
0.0
  0
LINE
  5
185
330
32
100
AcDbEntity
  8
0
 62
     0
100
AcDbLine
 10
5.2
 20
6.790990257669731
 30
0.0
 11
6.994928451715254
 21
8.585918709384984
 31
0.0
  0
LINE
  5
186
330
32
100
AcDbEntity
  8
0
 62
     0
100
AcDbLine
 10
5.2
 20
6.967766952966368
 30
0.0
 11
6.949097456638348
 21
8.716864409604715
 31
0.0
  0
LINE
  5
187
330
32
100
AcDbEntity
  8
0
 62
     0
100
AcDbLine
 10
5.2
 20
7.144543648263005
 30
0.0
 11
6.903266461561442
 21
8.847810109824447
 31
0.0
  0
LINE
  5
188
330
32
100
AcDbEntity
  8
0
 62
     0
100
AcDbLine
 10
5.2
 20
7.321320343559642
 30
0.0
 11
6.857435466484536
 21
8.978755810044177
 31
0.0
  0
LINE
  5
189
330
32
100
AcDbEntity
  8
0
 62
     0
100
AcDbLine
 10
5.2
 20
7.498097038856279
 30
0.0
 11
6.81160447140763
 21
9.109701510263908
 31
0.0
  0
LINE
  5
18A
330
32
100
AcDbEntity
  8
0
 62
     0
100
AcDbLine
 10
5.2
 20
7.674873734152916
 30
0.0
 11
6.765773476330724
 21
9.24064721048364
 31
0.0
  0
LINE
  5
18B
330
32
100
AcDbEntity
  8
0
 62
     0
100
AcDbLine
 10
5.2
 20
7.851650429449552
 30
0.0
 11
6.719942481253818
 21
9.37159291070337
 31
0.0
  0
LINE
  5
18C
330
32
100
AcDbEntity
  8
0
 62
     0
100
AcDbLine
 10
5.2
 20
8.028427124746189
 30
0.0
 11
6.674111486176912
 21
9.502538610923101
 31
0.0
  0
LINE
  5
18D
330
32
100
AcDbEntity
  8
0
 62
     0
100
AcDbLine
 10
5.2
 20
8.205203820042827
 30
0.0
 11
6.628280491100007
 21
9.633484311142833
 31
0.0
  0
LINE
  5
18E
330
32
100
AcDbEntity
  8
0
 62
     0
100
AcDbLine
 10
5.2
 20
8.381980515339463
 30
0.0
 11
6.582449496023101
 21
9.764430011362563
 31
0.0
  0
LINE
  5
18F
330
32
100
AcDbEntity
  8
0
 62
     0
100
AcDbLine
 10
5.2
 20
8.5587572106361
 30
0.0
 11
6.536618500946195
 21
9.895375711582294
 31
0.0
  0
LINE
  5
190
330
32
100
AcDbEntity
  8
0
 62
     0
100
AcDbLine
 10
5.2
 20
8.735533905932737
 30
0.0
 11
6.464466094067264
 21
10.0
 31
0.0
  0
LINE
  5
191
330
32
100
AcDbEntity
  8
0
 62
     0
100
AcDbLine
 10
5.2
 20
8.912310601229373
 30
0.0
 11
6.287689398770627
 21
10.0
 31
0.0
  0
LINE
  5
192
330
32
100
AcDbEntity
  8
0
 62
     0
100
AcDbLine
 10
5.2
 20
9.089087296526011
 30
0.0
 11
6.11091270347399
 21
10.0
 31
0.0
  0
LINE
  5
193
330
32
100
AcDbEntity
  8
0
 62
     0
100
AcDbLine
 10
5.2
 20
9.265863991822648
 30
0.0
 11
5.934136008177353
 21
10.0
 31
0.0
  0
LINE
  5
194
330
32
100
AcDbEntity
  8
0
 62
     0
100
AcDbLine
 10
5.2
 20
9.442640687119284
 30
0.0
 11
5.757359312880716
 21
10.0
 31
0.0
  0
LINE
  5
195
330
32
100
AcDbEntity
  8
0
 62
     0
100
AcDbLine
 10
5.2
 20
9.619417382415921
 30
0.0
 11
5.580582617584079
 21
10.0
 31
0.0
  0
LINE
  5
196
330
32
100
AcDbEntity
  8
0
 62
     0
100
AcDbLine
 10
5.2
 20
9.796194077712558
 30
0.0
 11
5.403805922287442
 21
10.0
 31
0.0
  0
LINE
  5
197
330
32
100
AcDbEntity
  8
0
 62
     0
100
AcDbLine
 10
5.2
 20
9.972970773009194
 30
0.0
 11
5.227029226990805
 21
10.0
 31
0.0
  0
LINE
  5
198
330
32
100
AcDbEntity
  8
0
 62
     0
100
AcDbLine
 10
5.2
 20
5.907106781186547
 30
0.0
 11
7.224083427099783
 21
7.931190208286329
 31
0.0
  0
LINE
  5
199
330
32
100
AcDbEntity
  8
0
 62
     0
100
AcDbLine
 10
5.2
 20
5.73033008588991
 30
0.0
 11
7.269914422176689
 21
7.800244508066598
 31
0.0
  0
LINE
  5
19A
330
32
100
AcDbEntity
  8
0
 62
     0
100
AcDbLine
 10
5.2
 20
5.553553390593273
 30
0.0
 11
7.315745417253594
 21
7.669298807846868
 31
0.0
  0
LINE
  5
19B
330
32
100
AcDbEntity
  8
0
 62
     0
100
AcDbLine
 10
5.2
 20
5.376776695296636
 30
0.0
 11
7.3615764123305
 21
7.538353107627136
 31
0.0
  0
LINE
  5
19C
330
32
100
AcDbEntity
  8
0
 62
     0
100
AcDbLine
 10
5.2
 20
5.2
 30
0.0
 11
7.407407407407406
 21
7.407407407407405
 31
0.0
  0
LINE
  5
19D
330
32
100
AcDbEntity
  8
0
 62
     0
100
AcDbLine
 10
5.376776695296637
 20
5.2
 30
0.0
 11
7.453238402484312
 21
7.276461707187674
 31
0.0
  0
LINE
  5
19E
330
32
100
AcDbEntity
  8
0
 62
     0
100
AcDbLine
 10
5.553553390593274
 20
5.2
 30
0.0
 11
7.499069397561219
 21
7.145516006967943
 31
0.0
  0
LINE
  5
19F
330
32
100
AcDbEntity
  8
0
 62
     0
100
AcDbLine
 10
5.730330085889911
 20
5.2
 30
0.0
 11
7.544900392638124
 21
7.014570306748212
 31
0.0
  0
LINE
  5
1A0
330
32
100
AcDbEntity
  8
0
 62
     0
100
AcDbLine
 10
5.907106781186548
 20
5.2
 30
0.0
 11
7.59073138771503
 21
6.883624606528481
 31
0.0
  0
LINE
  5
1A1
330
32
100
AcDbEntity
  8
0
 62
     0
100
AcDbLine
 10
6.083883476483184
 20
5.2
 30
0.0
 11
7.636562382791936
 21
6.752678906308751
 31
0.0
  0
LINE
  5
1A2
330
32
100
AcDbEntity
  8
0
 62
     0
100
AcDbLine
 10
6.260660171779822
 20
5.2
 30
0.0
 11
7.682393377868842
 21
6.621733206089019
 31
0.0
  0
LINE
  5
1A3
330
32
100
AcDbEntity
  8
0
 62
     0
100
AcDbLine
 10
6.437436867076458
 20
5.2
 30
0.0
 11
7.728224372945748
 21
6.490787505869288
 31
0.0
  0
LINE
  5
1A4
330
32
100
AcDbEntity
  8
0
 62
     0
100
AcDbLine
 10
6.614213562373095
 20
5.2
 30
0.0
 11
7.774055368022653
 21
6.359841805649558
 31
0.0
  0
LINE
  5
1A5
330
32
100
AcDbEntity
  8
0
 62
     0
100
AcDbLine
 10
6.790990257669732
 20
5.2
 30
0.0
 11
7.819886363099559
 21
6.228896105429826
 31
0.0
  0
LINE
  5
1A6
330
32
100
AcDbEntity
  8
0
 62
     0
100
AcDbLine
 10
6.967766952966369
 20
5.2
 30
0.0
 11
7.865717358176465
 21
6.097950405210095
 31
0.0
  0
LINE
  5
1A7
330
32
100
AcDbEntity
  8
0
 62
     0
100
AcDbLine
 10
7.144543648263006
 20
5.2
 30
0.0
 11
7.911548353253371
 21
5.967004704990364
 31
0.0
  0
LINE
  5
1A8
330
32
100
AcDbEntity
  8
0
 62
     0
100
AcDbLine
 10
7.321320343559643
 20
5.2
 30
0.0
 11
7.957379348330277
 21
5.836059004770634
 31
0.0
  0
LINE
  5
1A9
330
32
100
AcDbEntity
  8
0
 62
     0
100
AcDbLine
 10
7.49809703885628
 20
5.2
 30
0.0
 11
8.003210343407182
 21
5.705113304550902
 31
0.0
  0
LINE
  5
1AA
330
32
100
AcDbEntity
  8
0
 62
     0
100
AcDbLine
 10
7.674873734152916
 20
5.2
 30
0.0
 11
8.049041338484089
 21
5.574167604331171
 31
0.0
  0
LINE
  5
1AB
330
32
100
AcDbEntity
  8
0
 62
     0
100
AcDbLine
 10
7.851650429449553
 20
5.2
 30
0.0
 11
8.094872333560994
 21
5.443221904111441
 31
0.0
  0
LINE
  5
1AC
330
32
100
AcDbEntity
  8
0
 62
     0
100
AcDbLine
 10
8.02842712474619
 20
5.2
 30
0.0
 11
8.140703328637901
 21
5.312276203891709
 31
0.0
  0
ENDBLK
  5
1AD
330
32
100
AcDbEntity
  8
0
100
AcDbBlockEnd
  0
BLOCK
  5
1AE
330
33
100
AcDbEntity
  8
0
100
AcDbBlockBegin
  2
*X17
 70
     1
 10
0.0
 20
0.0
 30
0.0
  3
*X17
  1

  0
LINE
  5
1AF
330
33
100
AcDbEntity
  8
0
 62
     0
100
AcDbLine
 10
0.0
 20
0.0
 30
0.0
 11
4.8
 21
4.799999999999999
 31
0.0
  0
LINE
  5
1B0
330
33
100
AcDbEntity
  8
0
 62
     0
100
AcDbLine
 10
0.0951874513135737
 20
0.2719641466102105
 30
0.0
 11
4.623223304703364
 21
4.8
 31
0.0
  0
LINE
  5
1B1
330
33
100
AcDbEntity
  8
0
 62
     0
100
AcDbLine
 10
0.1903749026271474
 20
0.5439282932204211
 30
0.0
 11
4.446446609406727
 21
4.8
 31
0.0
  0
LINE
  5
1B2
330
33
100
AcDbEntity
  8
0
 62
     0
100
AcDbLine
 10
0.2855623539407211
 20
0.8158924398306318
 30
0.0
 11
4.269669914110091
 21
4.8
 31
0.0
  0
LINE
  5
1B3
330
33
100
AcDbEntity
  8
0
 62
     0
100
AcDbLine
 10
0.3807498052542948
 20
1.087856586440842
 30
0.0
 11
4.092893218813453
 21
4.8
 31
0.0
  0
LINE
  5
1B4
330
33
100
AcDbEntity
  8
0
 62
     0
100
AcDbLine
 10
0.4759372565678686
 20
1.359820733051052
 30
0.0
 11
3.916116523516816
 21
4.8
 31
0.0
  0
LINE
  5
1B5
330
33
100
AcDbEntity
  8
0
 62
     0
100
AcDbLine
 10
0.5711247078814422
 20
1.631784879661263
 30
0.0
 11
3.73933982822018
 21
4.8
 31
0.0
  0
LINE
  5
1B6
330
33
100
AcDbEntity
  8
0
 62
     0
100
AcDbLine
 10
0.6663121591950159
 20
1.903749026271474
 30
0.0
 11
3.562563132923543
 21
4.8
 31
0.0
  0
LINE
  5
1B7
330
33
100
AcDbEntity
  8
0
 62
     0
100
AcDbLine
 10
0.7614996105085896
 20
2.175713172881684
 30
0.0
 11
3.385786437626906
 21
4.8
 31
0.0
  0
LINE
  5
1B8
330
33
100
AcDbEntity
  8
0
 62
     0
100
AcDbLine
 10
0.8566870618221631
 20
2.447677319491895
 30
0.0
 11
3.209009742330269
 21
4.8
 31
0.0
  0
LINE
  5
1B9
330
33
100
AcDbEntity
  8
0
 62
     0
100
AcDbLine
 10
0.951874513135737
 20
2.719641466102105
 30
0.0
 11
3.032233047033632
 21
4.8
 31
0.0
  0
LINE
  5
1BA
330
33
100
AcDbEntity
  8
0
 62
     0
100
AcDbLine
 10
1.04706196444931
 20
2.991605612712316
 30
0.0
 11
2.855456351736995
 21
4.8
 31
0.0
  0
LINE
  5
1BB
330
33
100
AcDbEntity
  8
0
 62
     0
100
AcDbLine
 10
1.142249415762884
 20
3.263569759322527
 30
0.0
 11
2.678679656440358
 21
4.8
 31
0.0
  0
LINE
  5
1BC
330
33
100
AcDbEntity
  8
0
 62
     0
100
AcDbLine
 10
1.237436867076458
 20
3.535533905932737
 30
0.0
 11
2.501902961143721
 21
4.8
 31
0.0
  0
LINE
  5
1BD
330
33
100
AcDbEntity
  8
0
 62
     0
100
AcDbLine
 10
1.332624318390031
 20
3.807498052542948
 30
0.0
 11
2.325126265847084
 21
4.8
 31
0.0
  0
LINE
  5
1BE
330
33
100
AcDbEntity
  8
0
 62
     0
100
AcDbLine
 10
1.427811769703605
 20
4.079462199153158
 30
0.0
 11
2.148349570550447
 21
4.8
 31
0.0
  0
LINE
  5
1BF
330
33
100
AcDbEntity
  8
0
 62
     0
100
AcDbLine
 10
1.522999221017179
 20
4.351426345763369
 30
0.0
 11
1.971572875253811
 21
4.8
 31
0.0
  0
LINE
  5
1C0
330
33
100
AcDbEntity
  8
0
 62
     0
100
AcDbLine
 10
1.618186672330752
 20
4.623390492373579
 30
0.0
 11
1.794796179957174
 21
4.8
 31
0.0
  0
LINE
  5
1C1
330
33
100
AcDbEntity
  8
0
 62
     0
100
AcDbLine
 10
0.1767766952966369
 20
0.0
 30
0.0
 11
4.8
 21
4.623223304703363
 31
0.0
  0
LINE
  5
1C2
330
33
100
AcDbEntity
  8
0
 62
     0
100
AcDbLine
 10
0.3535533905932738
 20
0.0
 30
0.0
 11
4.8
 21
4.446446609406725
 31
0.0
  0
LINE
  5
1C3
330
33
100
AcDbEntity
  8
0
 62
     0
100
AcDbLine
 10
0.5303300858899107
 20
0.0
 30
0.0
 11
4.8
 21
4.269669914110089
 31
0.0
  0
LINE
  5
1C4
330
33
100
AcDbEntity
  8
0
 62
     0
100
AcDbLine
 10
0.7071067811865476
 20
0.0
 30
0.0
 11
4.8
 21
4.092893218813452
 31
0.0
  0
LINE
  5
1C5
330
33
100
AcDbEntity
  8
0
 62
     0
100
AcDbLine
 10
0.8838834764831844
 20
0.0
 30
0.0
 11
4.8
 21
3.916116523516815
 31
0.0
  0
LINE
  5
1C6
330
33
100
AcDbEntity
  8
0
 62
     0
100
AcDbLine
 10
1.060660171779821
 20
0.0
 30
0.0
 11
4.8
 21
3.739339828220178
 31
0.0
  0
LINE
  5
1C7
330
33
100
AcDbEntity
  8
0
 62
     0
100
AcDbLine
 10
1.237436867076458
 20
0.0
 30
0.0
 11
3.17984168695883
 21
1.942404819882371
 31
0.0
  0
LINE
  5
1C8
330
33
100
AcDbEntity
  8
0
 62
     0
100
AcDbLine
 10
3.237436867076458
 20
2.0
 30
0.0
 11
4.8
 21
3.562563132923541
 31
0.0
  0
LINE
  5
1C9
330
33
100
AcDbEntity
  8
0
 62
     0
100
AcDbLine
 10
1.414213562373095
 20
0.0
 30
0.0
 11
3.084654235645256
 21
1.670440673272161
 31
0.0
  0
LINE
  5
1CA
330
33
100
AcDbEntity
  8
0
 62
     0
100
AcDbLine
 10
3.414213562373095
 20
2.0
 30
0.0
 11
4.8
 21
3.385786437626904
 31
0.0
  0
LINE
  5
1CB
330
33
100
AcDbEntity
  8
0
 62
     0
100
AcDbLine
 10
1.590990257669732
 20
0.0
 30
0.0
 11
2.989466784331682
 21
1.39847652666195
 31
0.0
  0
LINE
  5
1CC
330
33
100
AcDbEntity
  8
0
 62
     0
100
AcDbLine
 10
3.590990257669732
 20
2.0
 30
0.0
 11
4.8
 21
3.209009742330267
 31
0.0
  0
LINE
  5
1CD
330
33
100
AcDbEntity
  8
0
 62
     0
100
AcDbLine
 10
1.767766952966368
 20
0.0
 30
0.0
 11
2.894279333018109
 21
1.12651238005174
 31
0.0
  0
LINE
  5
1CE
330
33
100
AcDbEntity
  8
0
 62
     0
100
AcDbLine
 10
3.767766952966369
 20
2.0
 30
0.0
 11
4.8
 21
3.032233047033631
 31
0.0
  0
LINE
  5
1CF
330
33
100
AcDbEntity
  8
0
 62
     0
100
AcDbLine
 10
1.944543648263005
 20
0.0
 30
0.0
 11
2.799091881704535
 21
0.8545482334415293
 31
0.0
  0
LINE
  5
1D0
330
33
100
AcDbEntity
  8
0
 62
     0
100
AcDbLine
 10
3.944543648263006
 20
2.0
 30
0.0
 11
4.8
 21
2.855456351736994
 31
0.0
  0
LINE
  5
1D1
330
33
100
AcDbEntity
  8
0
 62
     0
100
AcDbLine
 10
2.121320343559642
 20
0.0
 30
0.0
 11
2.703904430390961
 21
0.5825840868313189
 31
0.0
  0
LINE
  5
1D2
330
33
100
AcDbEntity
  8
0
 62
     0
100
AcDbLine
 10
4.121320343559642
 20
2.0
 30
0.0
 11
4.8
 21
2.678679656440357
 31
0.0
  0
LINE
  5
1D3
330
33
100
AcDbEntity
  8
0
 62
     0
100
AcDbLine
 10
2.298097038856279
 20
0.0
 30
0.0
 11
2.608716979077388
 21
0.3106199402211083
 31
0.0
  0
LINE
  5
1D4
330
33
100
AcDbEntity
  8
0
 62
     0
100
AcDbLine
 10
4.29809703885628
 20
2.0
 30
0.0
 11
4.8
 21
2.50190296114372
 31
0.0
  0
LINE
  5
1D5
330
33
100
AcDbEntity
  8
0
 62
     0
100
AcDbLine
 10
2.474873734152916
 20
0.0
 30
0.0
 11
2.513529527763814
 21
0.0386557936108977
 31
0.0
  0
LINE
  5
1D6
330
33
100
AcDbEntity
  8
0
 62
     0
100
AcDbLine
 10
4.474873734152916
 20
2.0
 30
0.0
 11
4.8
 21
2.325126265847083
 31
0.0
  0
LINE
  5
1D7
330
33
100
AcDbEntity
  8
0
 62
     0
100
AcDbLine
 10
4.651650429449554
 20
2.0
 30
0.0
 11
4.8
 21
2.148349570550446
 31
0.0
  0
ENDBLK
  5
1D8
330
33
100
AcDbEntity
  8
0
100
AcDbBlockEnd
  0
BLOCK
  5
1D9
330
34
100
AcDbEntity
  8
0
100
AcDbBlockBegin
  2
*X18
 70
     1
 10
0.0
 20
0.0
 30
0.0
  3
*X18
  1

  0
LINE
  5
1DA
330
34
100
AcDbEntity
  8
0
 62
     0
100
AcDbLine
 10
6.884654412785825
 20
1.758130249183355
 30
0.0
 11
8.736506264637677
 21
3.609982101035206
 31
0.0
  0
LINE
  5
1DB
330
34
100
AcDbEntity
  8
0
 62
     0
100
AcDbLine
 10
6.838823417708919
 20
1.889075949403086
 30
0.0
 11
8.690675269560772
 21
3.740927801254938
 31
0.0
  0
LINE
  5
1DC
330
34
100
AcDbEntity
  8
0
 62
     0
100
AcDbLine
 10
6.772970773009196
 20
2.0
 30
0.0
 11
8.644844274483865
 21
3.871873501474668
 31
0.0
  0
LINE
  5
1DD
330
34
100
AcDbEntity
  8
0
 62
     0
100
AcDbLine
 10
6.596194077712559
 20
2.0
 30
0.0
 11
8.59901327940696
 21
4.0028192016944
 31
0.0
  0
LINE
  5
1DE
330
34
100
AcDbEntity
  8
0
 62
     0
100
AcDbLine
 10
6.419417382415922
 20
2.0
 30
0.0
 11
8.553182284330054
 21
4.133764901914131
 31
0.0
  0
LINE
  5
1DF
330
34
100
AcDbEntity
  8
0
 62
     0
100
AcDbLine
 10
6.242640687119285
 20
2.0
 30
0.0
 11
8.507351289253149
 21
4.264710602133861
 31
0.0
  0
LINE
  5
1E0
330
34
100
AcDbEntity
  8
0
 62
     0
100
AcDbLine
 10
6.065863991822649
 20
2.0
 30
0.0
 11
8.461520294176242
 21
4.395656302353593
 31
0.0
  0
LINE
  5
1E1
330
34
100
AcDbEntity
  8
0
 62
     0
100
AcDbLine
 10
5.889087296526011
 20
2.0
 30
0.0
 11
8.415689299099337
 21
4.526602002573324
 31
0.0
  0
LINE
  5
1E2
330
34
100
AcDbEntity
  8
0
 62
     0
100
AcDbLine
 10
5.712310601229375
 20
2.0
 30
0.0
 11
8.369858304022431
 21
4.657547702793054
 31
0.0
  0
LINE
  5
1E3
330
34
100
AcDbEntity
  8
0
 62
     0
100
AcDbLine
 10
5.535533905932737
 20
2.0
 30
0.0
 11
8.324027308945524
 21
4.788493403012786
 31
0.0
  0
LINE
  5
1E4
330
34
100
AcDbEntity
  8
0
 62
     0
100
AcDbLine
 10
5.358757210636101
 20
2.0
 30
0.0
 11
8.158757210636101
 21
4.8
 31
0.0
  0
LINE
  5
1E5
330
34
100
AcDbEntity
  8
0
 62
     0
100
AcDbLine
 10
5.2
 20
2.018019484660535
 30
0.0
 11
7.981980515339465
 21
4.8
 31
0.0
  0
LINE
  5
1E6
330
34
100
AcDbEntity
  8
0
 62
     0
100
AcDbLine
 10
5.2
 20
2.194796179957172
 30
0.0
 11
7.805203820042828
 21
4.8
 31
0.0
  0
LINE
  5
1E7
330
34
100
AcDbEntity
  8
0
 62
     0
100
AcDbLine
 10
5.2
 20
2.371572875253809
 30
0.0
 11
7.628427124746191
 21
4.8
 31
0.0
  0
LINE
  5
1E8
330
34
100
AcDbEntity
  8
0
 62
     0
100
AcDbLine
 10
5.2
 20
2.548349570550446
 30
0.0
 11
7.451650429449554
 21
4.8
 31
0.0
  0
LINE
  5
1E9
330
34
100
AcDbEntity
  8
0
 62
     0
100
AcDbLine
 10
5.2
 20
2.725126265847083
 30
0.0
 11
7.274873734152918
 21
4.8
 31
0.0
  0
LINE
  5
1EA
330
34
100
AcDbEntity
  8
0
 62
     0
100
AcDbLine
 10
5.2
 20
2.90190296114372
 30
0.0
 11
7.09809703885628
 21
4.8
 31
0.0
  0
LINE
  5
1EB
330
34
100
AcDbEntity
  8
0
 62
     0
100
AcDbLine
 10
5.2
 20
3.078679656440356
 30
0.0
 11
6.921320343559644
 21
4.8
 31
0.0
  0
LINE
  5
1EC
330
34
100
AcDbEntity
  8
0
 62
     0
100
AcDbLine
 10
5.2
 20
3.255456351736993
 30
0.0
 11
6.744543648263007
 21
4.8
 31
0.0
  0
LINE
  5
1ED
330
34
100
AcDbEntity
  8
0
 62
     0
100
AcDbLine
 10
5.2
 20
3.43223304703363
 30
0.0
 11
6.56776695296637
 21
4.8
 31
0.0
  0
LINE
  5
1EE
330
34
100
AcDbEntity
  8
0
 62
     0
100
AcDbLine
 10
5.2
 20
3.609009742330267
 30
0.0
 11
6.390990257669733
 21
4.8
 31
0.0
  0
LINE
  5
1EF
330
34
100
AcDbEntity
  8
0
 62
     0
100
AcDbLine
 10
5.2
 20
3.785786437626904
 30
0.0
 11
6.214213562373096
 21
4.8
 31
0.0
  0
LINE
  5
1F0
330
34
100
AcDbEntity
  8
0
 62
     0
100
AcDbLine
 10
5.2
 20
3.962563132923541
 30
0.0
 11
6.037436867076459
 21
4.8
 31
0.0
  0
LINE
  5
1F1
330
34
100
AcDbEntity
  8
0
 62
     0
100
AcDbLine
 10
5.2
 20
4.139339828220178
 30
0.0
 11
5.860660171779822
 21
4.8
 31
0.0
  0
LINE
  5
1F2
330
34
100
AcDbEntity
  8
0
 62
     0
100
AcDbLine
 10
5.2
 20
4.316116523516814
 30
0.0
 11
5.683883476483186
 21
4.8
 31
0.0
  0
LINE
  5
1F3
330
34
100
AcDbEntity
  8
0
 62
     0
100
AcDbLine
 10
5.2
 20
4.492893218813452
 30
0.0
 11
5.507106781186549
 21
4.8
 31
0.0
  0
LINE
  5
1F4
330
34
100
AcDbEntity
  8
0
 62
     0
100
AcDbLine
 10
5.2
 20
4.669669914110088
 30
0.0
 11
5.330330085889912
 21
4.8
 31
0.0
  0
LINE
  5
1F5
330
34
100
AcDbEntity
  8
0
 62
     0
100
AcDbLine
 10
6.930485407862731
 20
1.627184548963624
 30
0.0
 11
8.782337259714584
 21
3.479036400815475
 31
0.0
  0
LINE
  5
1F6
330
34
100
AcDbEntity
  8
0
 62
     0
100
AcDbLine
 10
6.976316402939636
 20
1.496238848743893
 30
0.0
 11
8.828168254791489
 21
3.348090700595744
 31
0.0
  0
LINE
  5
1F7
330
34
100
AcDbEntity
  8
0
 62
     0
100
AcDbLine
 10
7.022147398016543
 20
1.365293148524162
 30
0.0
 11
8.873999249868395
 21
3.217145000376013
 31
0.0
  0
LINE
  5
1F8
330
34
100
AcDbEntity
  8
0
 62
     0
100
AcDbLine
 10
7.067978393093449
 20
1.234347448304431
 30
0.0
 11
8.9198302449453
 21
3.086199300156282
 31
0.0
  0
LINE
  5
1F9
330
34
100
AcDbEntity
  8
0
 62
     0
100
AcDbLine
 10
7.113809388170355
 20
1.1034017480847
 30
0.0
 11
8.965661240022207
 21
2.955253599936551
 31
0.0
  0
LINE
  5
1FA
330
34
100
AcDbEntity
  8
0
 62
     0
100
AcDbLine
 10
7.159640383247261
 20
0.9724560478649696
 30
0.0
 11
9.011492235099112
 21
2.82430789971682
 31
0.0
  0
LINE
  5
1FB
330
34
100
AcDbEntity
  8
0
 62
     0
100
AcDbLine
 10
7.205471378324166
 20
0.8415103476452385
 30
0.0
 11
9.057323230176018
 21
2.693362199497089
 31
0.0
  0
LINE
  5
1FC
330
34
100
AcDbEntity
  8
0
 62
     0
100
AcDbLine
 10
7.251302373401072
 20
0.7105646474255075
 30
0.0
 11
9.103154225252923
 21
2.562416499277358
 31
0.0
  0
LINE
  5
1FD
330
34
100
AcDbEntity
  8
0
 62
     0
100
AcDbLine
 10
7.297133368477978
 20
0.5796189472057765
 30
0.0
 11
9.14898522032983
 21
2.431470799057627
 31
0.0
  0
LINE
  5
1FE
330
34
100
AcDbEntity
  8
0
 62
     0
100
AcDbLine
 10
7.342964363554884
 20
0.4486732469860454
 30
0.0
 11
9.194816215406737
 21
2.300525098837896
 31
0.0
  0
LINE
  5
1FF
330
34
100
AcDbEntity
  8
0
 62
     0
100
AcDbLine
 10
7.38879535863179
 20
0.3177275467663144
 30
0.0
 11
9.240647210483642
 21
2.169579398618165
 31
0.0
  0
LINE
  5
200
330
34
100
AcDbEntity
  8
0
 62
     0
100
AcDbLine
 10
7.434626353708695
 20
0.1867818465465834
 30
0.0
 11
9.286478205560548
 21
2.038633698398434
 31
0.0
  0
LINE
  5
201
330
34
100
AcDbEntity
  8
0
 62
     0
100
AcDbLine
 10
7.480457348785601
 20
0.0558361463268524
 30
0.0
 11
9.332309200637453
 21
1.907687998178703
 31
0.0
  0
LINE
  5
202
330
34
100
AcDbEntity
  8
0
 62
     0
100
AcDbLine
 10
7.601397897755386
 20
0.0
 30
0.0
 11
9.37814019571436
 21
1.776742297958972
 31
0.0
  0
LINE
  5
203
330
34
100
AcDbEntity
  8
0
 62
     0
100
AcDbLine
 10
7.778174593052023
 20
0.0
 30
0.0
 11
9.423971190791265
 21
1.645796597739241
 31
0.0
  0
LINE
  5
204
330
34
100
AcDbEntity
  8
0
 62
     0
100
AcDbLine
 10
7.954951288348659
 20
0.0
 30
0.0
 11
9.469802185868172
 21
1.51485089751951
 31
0.0
  0
LINE
  5
205
330
34
100
AcDbEntity
  8
0
 62
     0
100
AcDbLine
 10
8.131727983645296
 20
0.0
 30
0.0
 11
9.515633180945076
 21
1.383905197299779
 31
0.0
  0
LINE
  5
206
330
34
100
AcDbEntity
  8
0
 62
     0
100
AcDbLine
 10
8.308504678941934
 20
0.0
 30
0.0
 11
9.561464176021983
 21
1.252959497080048
 31
0.0
  0
LINE
  5
207
330
34
100
AcDbEntity
  8
0
 62
     0
100
AcDbLine
 10
8.485281374238571
 20
0.0
 30
0.0
 11
9.607295171098888
 21
1.122013796860317
 31
0.0
  0
LINE
  5
208
330
34
100
AcDbEntity
  8
0
 62
     0
100
AcDbLine
 10
8.662058069535207
 20
0.0
 30
0.0
 11
9.653126166175795
 21
0.9910680966405861
 31
0.0
  0
LINE
  5
209
330
34
100
AcDbEntity
  8
0
 62
     0
100
AcDbLine
 10
8.838834764831844
 20
0.0
 30
0.0
 11
9.6989571612527
 21
0.860122396420855
 31
0.0
  0
LINE
  5
20A
330
34
100
AcDbEntity
  8
0
 62
     0
100
AcDbLine
 10
9.01561146012848
 20
0.0
 30
0.0
 11
9.744788156329606
 21
0.7291766962011242
 31
0.0
  0
LINE
  5
20B
330
34
100
AcDbEntity
  8
0
 62
     0
100
AcDbLine
 10
9.192388155425119
 20
0.0
 30
0.0
 11
9.790619151406511
 21
0.5982309959813931
 31
0.0
  0
LINE
  5
20C
330
34
100
AcDbEntity
  8
0
 62
     0
100
AcDbLine
 10
9.369164850721755
 20
0.0
 30
0.0
 11
9.836450146483418
 21
0.467285295761662
 31
0.0
  0
LINE
  5
20D
330
34
100
AcDbEntity
  8
0
 62
     0
100
AcDbLine
 10
9.545941546018392
 20
0.0
 30
0.0
 11
9.882281141560325
 21
0.336339595541931
 31
0.0
  0
LINE
  5
20E
330
34
100
AcDbEntity
  8
0
 62
     0
100
AcDbLine
 10
9.722718241315028
 20
0.0
 30
0.0
 11
9.92811213663723
 21
0.2053938953222
 31
0.0
  0
LINE
  5
20F
330
34
100
AcDbEntity
  8
0
 62
     0
100
AcDbLine
 10
9.899494936611665
 20
0.0
 30
0.0
 11
9.973943131714136
 21
0.0744481951024689
 31
0.0
  0
ENDBLK
  5
210
330
34
100
AcDbEntity
  8
0
100
AcDbBlockEnd
  0
BLOCK
  5
211
330
35
100
AcDbEntity
  8
0
100
AcDbBlockBegin
  2
*X19
 70
     1
 10
0.0
 20
0.0
 30
0.0
  3
*X19
  1

  0
LINE
  5
212
330
35
100
AcDbEntity
  8
0
 62
     0
100
AcDbLine
 10
10.7
 20
6.280582617584078
 30
0.0
 11
13.5
 21
9.080582617584076
 31
0.0
  0
LINE
  5
213
330
35
100
AcDbEntity
  8
0
 62
     0
100
AcDbLine
 10
10.7
 20
6.457359312880715
 30
0.0
 11
13.5
 21
9.257359312880712
 31
0.0
  0
LINE
  5
214
330
35
100
AcDbEntity
  8
0
 62
     0
100
AcDbLine
 10
10.7
 20
6.634136008177351
 30
0.0
 11
13.5
 21
9.43413600817735
 31
0.0
  0
LINE
  5
215
330
35
100
AcDbEntity
  8
0
 62
     0
100
AcDbLine
 10
10.7
 20
6.810912703473989
 30
0.0
 11
13.5
 21
9.610912703473987
 31
0.0
  0
LINE
  5
216
330
35
100
AcDbEntity
  8
0
 62
     0
100
AcDbLine
 10
10.7
 20
6.987689398770625
 30
0.0
 11
13.5
 21
9.787689398770623
 31
0.0
  0
LINE
  5
217
330
35
100
AcDbEntity
  8
0
 62
     0
100
AcDbLine
 10
10.7
 20
7.164466094067263
 30
0.0
 11
13.5
 21
9.96446609406726
 31
0.0
  0
LINE
  5
218
330
35
100
AcDbEntity
  8
0
 62
     0
100
AcDbLine
 10
10.7
 20
7.341242789363899
 30
0.0
 11
13.3587572106361
 21
10.0
 31
0.0
  0
LINE
  5
219
330
35
100
AcDbEntity
  8
0
 62
     0
100
AcDbLine
 10
10.7
 20
7.518019484660536
 30
0.0
 11
13.18198051533946
 21
10.0
 31
0.0
  0
LINE
  5
21A
330
35
100
AcDbEntity
  8
0
 62
     0
100
AcDbLine
 10
10.7
 20
7.694796179957173
 30
0.0
 11
13.00520382004282
 21
10.0
 31
0.0
  0
LINE
  5
21B
330
35
100
AcDbEntity
  8
0
 62
     0
100
AcDbLine
 10
10.7
 20
7.87157287525381
 30
0.0
 11
12.82842712474619
 21
10.0
 31
0.0
  0
LINE
  5
21C
330
35
100
AcDbEntity
  8
0
 62
     0
100
AcDbLine
 10
10.7
 20
8.048349570550447
 30
0.0
 11
12.65165042944955
 21
10.0
 31
0.0
  0
LINE
  5
21D
330
35
100
AcDbEntity
  8
0
 62
     0
100
AcDbLine
 10
10.7
 20
8.225126265847084
 30
0.0
 11
12.47487373415292
 21
10.0
 31
0.0
  0
LINE
  5
21E
330
35
100
AcDbEntity
  8
0
 62
     0
100
AcDbLine
 10
10.7
 20
8.40190296114372
 30
0.0
 11
12.29809703885628
 21
10.0
 31
0.0
  0
LINE
  5
21F
330
35
100
AcDbEntity
  8
0
 62
     0
100
AcDbLine
 10
10.7
 20
8.578679656440357
 30
0.0
 11
12.12132034355964
 21
10.0
 31
0.0
  0
LINE
  5
220
330
35
100
AcDbEntity
  8
0
 62
     0
100
AcDbLine
 10
10.7
 20
8.755456351736995
 30
0.0
 11
11.944543648263
 21
10.0
 31
0.0
  0
LINE
  5
221
330
35
100
AcDbEntity
  8
0
 62
     0
100
AcDbLine
 10
10.7
 20
8.932233047033632
 30
0.0
 11
11.76776695296637
 21
10.0
 31
0.0
  0
LINE
  5
222
330
35
100
AcDbEntity
  8
0
 62
     0
100
AcDbLine
 10
10.7
 20
9.109009742330268
 30
0.0
 11
11.59099025766973
 21
10.0
 31
0.0
  0
LINE
  5
223
330
35
100
AcDbEntity
  8
0
 62
     0
100
AcDbLine
 10
10.7
 20
9.285786437626905
 30
0.0
 11
11.41421356237309
 21
10.0
 31
0.0
  0
LINE
  5
224
330
35
100
AcDbEntity
  8
0
 62
     0
100
AcDbLine
 10
10.7
 20
9.462563132923541
 30
0.0
 11
11.23743686707646
 21
10.0
 31
0.0
  0
LINE
  5
225
330
35
100
AcDbEntity
  8
0
 62
     0
100
AcDbLine
 10
10.7
 20
9.63933982822018
 30
0.0
 11
11.06066017177982
 21
10.0
 31
0.0
  0
LINE
  5
226
330
35
100
AcDbEntity
  8
0
 62
     0
100
AcDbLine
 10
10.7
 20
9.816116523516816
 30
0.0
 11
10.88388347648318
 21
10.0
 31
0.0
  0
LINE
  5
227
330
35
100
AcDbEntity
  8
0
 62
     0
100
AcDbLine
 10
10.7
 20
9.992893218813453
 30
0.0
 11
10.70710678118655
 21
10.0
 31
0.0
  0
LINE
  5
228
330
35
100
AcDbEntity
  8
0
 62
     0
100
AcDbLine
 10
10.7
 20
6.103805922287441
 30
0.0
 11
13.5
 21
8.903805922287439
 31
0.0
  0
LINE
  5
229
330
35
100
AcDbEntity
  8
0
 62
     0
100
AcDbLine
 10
10.7
 20
5.927029226990804
 30
0.0
 11
13.5
 21
8.727029226990802
 31
0.0
  0
LINE
  5
22A
330
35
100
AcDbEntity
  8
0
 62
     0
100
AcDbLine
 10
10.7
 20
5.750252531694168
 30
0.0
 11
13.5
 21
8.550252531694166
 31
0.0
  0
LINE
  5
22B
330
35
100
AcDbEntity
  8
0
 62
     0
100
AcDbLine
 10
10.7
 20
5.57347583639753
 30
0.0
 11
13.5
 21
8.373475836397528
 31
0.0
  0
LINE
  5
22C
330
35
100
AcDbEntity
  8
0
 62
     0
100
AcDbLine
 10
10.7
 20
5.396699141100894
 30
0.0
 11
13.5
 21
8.196699141100891
 31
0.0
  0
LINE
  5
22D
330
35
100
AcDbEntity
  8
0
 62
     0
100
AcDbLine
 10
10.7
 20
5.219922445804257
 30
0.0
 11
13.5
 21
8.019922445804255
 31
0.0
  0
LINE
  5
22E
330
35
100
AcDbEntity
  8
0
 62
     0
100
AcDbLine
 10
10.85685424949238
 20
5.2
 30
0.0
 11
13.5
 21
7.843145750507618
 31
0.0
  0
LINE
  5
22F
330
35
100
AcDbEntity
  8
0
 62
     0
100
AcDbLine
 10
11.03363094478901
 20
5.2
 30
0.0
 11
13.5
 21
7.666369055210981
 31
0.0
  0
LINE
  5
230
330
35
100
AcDbEntity
  8
0
 62
     0
100
AcDbLine
 10
11.21040764008565
 20
5.2
 30
0.0
 11
13.5
 21
7.489592359914344
 31
0.0
  0
LINE
  5
231
330
35
100
AcDbEntity
  8
0
 62
     0
100
AcDbLine
 10
11.38718433538229
 20
5.2
 30
0.0
 11
13.5
 21
7.312815664617708
 31
0.0
  0
LINE
  5
232
330
35
100
AcDbEntity
  8
0
 62
     0
100
AcDbLine
 10
11.56396103067893
 20
5.2
 30
0.0
 11
13.5
 21
7.13603896932107
 31
0.0
  0
LINE
  5
233
330
35
100
AcDbEntity
  8
0
 62
     0
100
AcDbLine
 10
11.74073772597556
 20
5.2
 30
0.0
 11
13.5
 21
6.959262274024434
 31
0.0
  0
LINE
  5
234
330
35
100
AcDbEntity
  8
0
 62
     0
100
AcDbLine
 10
11.9175144212722
 20
5.2
 30
0.0
 11
13.5
 21
6.782485578727796
 31
0.0
  0
LINE
  5
235
330
35
100
AcDbEntity
  8
0
 62
     0
100
AcDbLine
 10
12.09429111656884
 20
5.2
 30
0.0
 11
13.5
 21
6.60570888343116
 31
0.0
  0
LINE
  5
236
330
35
100
AcDbEntity
  8
0
 62
     0
100
AcDbLine
 10
12.27106781186547
 20
5.2
 30
0.0
 11
13.5
 21
6.428932188134523
 31
0.0
  0
LINE
  5
237
330
35
100
AcDbEntity
  8
0
 62
     0
100
AcDbLine
 10
12.44784450716211
 20
5.2
 30
0.0
 11
13.5
 21
6.252155492837886
 31
0.0
  0
LINE
  5
238
330
35
100
AcDbEntity
  8
0
 62
     0
100
AcDbLine
 10
12.62462120245875
 20
5.2
 30
0.0
 11
13.5
 21
6.075378797541249
 31
0.0
  0
LINE
  5
239
330
35
100
AcDbEntity
  8
0
 62
     0
100
AcDbLine
 10
12.80139789775538
 20
5.2
 30
0.0
 11
13.5
 21
5.898602102244612
 31
0.0
  0
LINE
  5
23A
330
35
100
AcDbEntity
  8
0
 62
     0
100
AcDbLine
 10
12.97817459305202
 20
5.2
 30
0.0
 11
13.5
 21
5.721825406947975
 31
0.0
  0
LINE
  5
23B
330
35
100
AcDbEntity
  8
0
 62
     0
100
AcDbLine
 10
13.15495128834866
 20
5.2
 30
0.0
 11
13.5
 21
5.545048711651339
 31
0.0
  0
LINE
  5
23C
330
35
100
AcDbEntity
  8
0
 62
     0
100
AcDbLine
 10
13.3317279836453
 20
5.2
 30
0.0
 11
13.5
 21
5.368272016354701
 31
0.0
  0
ENDBLK
  5
23D
330
35
100
AcDbEntity
  8
0
100
AcDbBlockEnd
  0
BLOCK
  5
23E
330
36
100
AcDbEntity
  8
0
100
AcDbBlockBegin
  2
*X20
 70
     1
 10
0.0
 20
0.0
 30
0.0
  3
*X20
  1

  0
LINE
  5
23F
330
36
100
AcDbEntity
  8
0
 62
     0
100
AcDbLine
 10
10.7
 20
1.154058453981608
 30
0.0
 11
13.5
 21
3.954058453981607
 31
0.0
  0
LINE
  5
240
330
36
100
AcDbEntity
  8
0
 62
     0
100
AcDbLine
 10
10.7
 20
1.330835149278245
 30
0.0
 11
13.5
 21
4.130835149278244
 31
0.0
  0
LINE
  5
241
330
36
100
AcDbEntity
  8
0
 62
     0
100
AcDbLine
 10
10.7
 20
1.507611844574882
 30
0.0
 11
13.5
 21
4.30761184457488
 31
0.0
  0
LINE
  5
242
330
36
100
AcDbEntity
  8
0
 62
     0
100
AcDbLine
 10
10.7
 20
1.684388539871519
 30
0.0
 11
13.5
 21
4.484388539871518
 31
0.0
  0
LINE
  5
243
330
36
100
AcDbEntity
  8
0
 62
     0
100
AcDbLine
 10
10.7
 20
1.861165235168155
 30
0.0
 11
13.5
 21
4.661165235168154
 31
0.0
  0
LINE
  5
244
330
36
100
AcDbEntity
  8
0
 62
     0
100
AcDbLine
 10
10.7
 20
2.037941930464792
 30
0.0
 11
13.46205806953521
 21
4.800000000000001
 31
0.0
  0
LINE
  5
245
330
36
100
AcDbEntity
  8
0
 62
     0
100
AcDbLine
 10
10.7
 20
2.214718625761429
 30
0.0
 11
13.28528137423857
 21
4.800000000000001
 31
0.0
  0
LINE
  5
246
330
36
100
AcDbEntity
  8
0
 62
     0
100
AcDbLine
 10
10.7
 20
2.391495321058066
 30
0.0
 11
13.10850467894193
 21
4.800000000000001
 31
0.0
  0
LINE
  5
247
330
36
100
AcDbEntity
  8
0
 62
     0
100
AcDbLine
 10
10.7
 20
2.568272016354703
 30
0.0
 11
12.9317279836453
 21
4.800000000000001
 31
0.0
  0
LINE
  5
248
330
36
100
AcDbEntity
  8
0
 62
     0
100
AcDbLine
 10
10.7
 20
2.74504871165134
 30
0.0
 11
12.75495128834866
 21
4.800000000000001
 31
0.0
  0
LINE
  5
249
330
36
100
AcDbEntity
  8
0
 62
     0
100
AcDbLine
 10
10.7
 20
2.921825406947977
 30
0.0
 11
12.57817459305202
 21
4.800000000000001
 31
0.0
  0
LINE
  5
24A
330
36
100
AcDbEntity
  8
0
 62
     0
100
AcDbLine
 10
10.7
 20
3.098602102244614
 30
0.0
 11
12.40139789775539
 21
4.800000000000001
 31
0.0
  0
LINE
  5
24B
330
36
100
AcDbEntity
  8
0
 62
     0
100
AcDbLine
 10
10.7
 20
3.275378797541251
 30
0.0
 11
12.22462120245875
 21
4.800000000000001
 31
0.0
  0
LINE
  5
24C
330
36
100
AcDbEntity
  8
0
 62
     0
100
AcDbLine
 10
10.7
 20
3.452155492837887
 30
0.0
 11
12.04784450716211
 21
4.800000000000001
 31
0.0
  0
LINE
  5
24D
330
36
100
AcDbEntity
  8
0
 62
     0
100
AcDbLine
 10
10.7
 20
3.628932188134524
 30
0.0
 11
11.87106781186547
 21
4.800000000000001
 31
0.0
  0
LINE
  5
24E
330
36
100
AcDbEntity
  8
0
 62
     0
100
AcDbLine
 10
10.7
 20
3.805708883431161
 30
0.0
 11
11.69429111656884
 21
4.800000000000001
 31
0.0
  0
LINE
  5
24F
330
36
100
AcDbEntity
  8
0
 62
     0
100
AcDbLine
 10
10.7
 20
3.982485578727798
 30
0.0
 11
11.5175144212722
 21
4.800000000000001
 31
0.0
  0
LINE
  5
250
330
36
100
AcDbEntity
  8
0
 62
     0
100
AcDbLine
 10
10.7
 20
4.159262274024435
 30
0.0
 11
11.34073772597556
 21
4.800000000000001
 31
0.0
  0
LINE
  5
251
330
36
100
AcDbEntity
  8
0
 62
     0
100
AcDbLine
 10
10.7
 20
4.336038969321072
 30
0.0
 11
11.16396103067893
 21
4.800000000000001
 31
0.0
  0
LINE
  5
252
330
36
100
AcDbEntity
  8
0
 62
     0
100
AcDbLine
 10
10.7
 20
4.512815664617709
 30
0.0
 11
10.98718433538229
 21
4.800000000000001
 31
0.0
  0
LINE
  5
253
330
36
100
AcDbEntity
  8
0
 62
     0
100
AcDbLine
 10
10.7
 20
4.689592359914345
 30
0.0
 11
10.81040764008565
 21
4.800000000000001
 31
0.0
  0
LINE
  5
254
330
36
100
AcDbEntity
  8
0
 62
     0
100
AcDbLine
 10
10.7
 20
0.9772817586849718
 30
0.0
 11
13.5
 21
3.77728175868497
 31
0.0
  0
LINE
  5
255
330
36
100
AcDbEntity
  8
0
 62
     0
100
AcDbLine
 10
10.7
 20
0.800505063388335
 30
0.0
 11
13.5
 21
3.600505063388333
 31
0.0
  0
LINE
  5
256
330
36
100
AcDbEntity
  8
0
 62
     0
100
AcDbLine
 10
10.7
 20
0.6237283680916982
 30
0.0
 11
13.5
 21
3.423728368091696
 31
0.0
  0
LINE
  5
257
330
36
100
AcDbEntity
  8
0
 62
     0
100
AcDbLine
 10
10.7
 20
0.4469516727950612
 30
0.0
 11
13.5
 21
3.246951672795059
 31
0.0
  0
LINE
  5
258
330
36
100
AcDbEntity
  8
0
 62
     0
100
AcDbLine
 10
10.7
 20
0.2701749774984243
 30
0.0
 11
13.5
 21
3.070174977498422
 31
0.0
  0
LINE
  5
259
330
36
100
AcDbEntity
  8
0
 62
     0
100
AcDbLine
 10
10.7
 20
0.0933982822017875
 30
0.0
 11
13.5
 21
2.893398282201785
 31
0.0
  0
LINE
  5
25A
330
36
100
AcDbEntity
  8
0
 62
     0
100
AcDbLine
 10
10.78337841309485
 20
0.0
 30
0.0
 11
13.5
 21
2.716621586905149
 31
0.0
  0
LINE
  5
25B
330
36
100
AcDbEntity
  8
0
 62
     0
100
AcDbLine
 10
10.96015510839148
 20
0.0
 30
0.0
 11
13.5
 21
2.539844891608512
 31
0.0
  0
LINE
  5
25C
330
36
100
AcDbEntity
  8
0
 62
     0
100
AcDbLine
 10
11.13693180368812
 20
0.0
 30
0.0
 11
13.5
 21
2.363068196311875
 31
0.0
  0
LINE
  5
25D
330
36
100
AcDbEntity
  8
0
 62
     0
100
AcDbLine
 10
11.31370849898476
 20
0.0
 30
0.0
 11
13.5
 21
2.186291501015238
 31
0.0
  0
LINE
  5
25E
330
36
100
AcDbEntity
  8
0
 62
     0
100
AcDbLine
 10
11.49048519428139
 20
0.0
 30
0.0
 11
13.5
 21
2.009514805718601
 31
0.0
  0
LINE
  5
25F
330
36
100
AcDbEntity
  8
0
 62
     0
100
AcDbLine
 10
11.66726188957803
 20
0.0
 30
0.0
 11
13.5
 21
1.832738110421964
 31
0.0
  0
LINE
  5
260
330
36
100
AcDbEntity
  8
0
 62
     0
100
AcDbLine
 10
11.84403858487467
 20
0.0
 30
0.0
 11
13.5
 21
1.655961415125327
 31
0.0
  0
LINE
  5
261
330
36
100
AcDbEntity
  8
0
 62
     0
100
AcDbLine
 10
12.02081528017131
 20
0.0
 30
0.0
 11
13.5
 21
1.479184719828691
 31
0.0
  0
LINE
  5
262
330
36
100
AcDbEntity
  8
0
 62
     0
100
AcDbLine
 10
12.19759197546794
 20
0.0
 30
0.0
 11
13.5
 21
1.302408024532054
 31
0.0
  0
LINE
  5
263
330
36
100
AcDbEntity
  8
0
 62
     0
100
AcDbLine
 10
12.37436867076458
 20
0.0
 30
0.0
 11
13.5
 21
1.125631329235417
 31
0.0
  0
LINE
  5
264
330
36
100
AcDbEntity
  8
0
 62
     0
100
AcDbLine
 10
12.55114536606122
 20
0.0
 30
0.0
 11
13.5
 21
0.9488546339387806
 31
0.0
  0
LINE
  5
265
330
36
100
AcDbEntity
  8
0
 62
     0
100
AcDbLine
 10
12.72792206135785
 20
0.0
 30
0.0
 11
13.5
 21
0.7720779386421438
 31
0.0
  0
LINE
  5
266
330
36
100
AcDbEntity
  8
0
 62
     0
100
AcDbLine
 10
12.90469875665449
 20
0.0
 30
0.0
 11
13.5
 21
0.5953012433455069
 31
0.0
  0
LINE
  5
267
330
36
100
AcDbEntity
  8
0
 62
     0
100
AcDbLine
 10
13.08147545195113
 20
0.0
 30
0.0
 11
13.5
 21
0.4185245480488699
 31
0.0
  0
LINE
  5
268
330
36
100
AcDbEntity
  8
0
 62
     0
100
AcDbLine
 10
13.25825214724776
 20
0.0
 30
0.0
 11
13.5
 21
0.2417478527522331
 31
0.0
  0
LINE
  5
269
330
36
100
AcDbEntity
  8
0
 62
     0
100
AcDbLine
 10
13.4350288425444
 20
0.0
 30
0.0
 11
13.5
 21
0.0649711574555962
 31
0.0
  0
ENDBLK
  5
26A
330
36
100
AcDbEntity
  8
0
100
AcDbBlockEnd
  0
BLOCK
  5
26B
330
37
100
AcDbEntity
  8
0
100
AcDbBlockBegin
  2
*X21
 70
     1
 10
0.0
 20
0.0
 30
0.0
  3
*X21
  1

  0
LINE
  5
26C
330
37
100
AcDbEntity
  8
0
 62
     0
100
AcDbLine
 10
13.9
 20
6.298602102244612
 30
0.0
 11
16.58299474438346
 21
8.981596846628077
 31
0.0
  0
LINE
  5
26D
330
37
100
AcDbEntity
  8
0
 62
     0
100
AcDbLine
 10
13.9
 20
6.47537879754125
 30
0.0
 11
16.51050279500106
 21
9.085881592542312
 31
0.0
  0
LINE
  5
26E
330
37
100
AcDbEntity
  8
0
 62
     0
100
AcDbLine
 10
13.9
 20
6.652155492837886
 30
0.0
 11
16.43292735533684
 21
9.185082848174726
 31
0.0
  0
LINE
  5
26F
330
37
100
AcDbEntity
  8
0
 62
     0
100
AcDbLine
 10
13.9
 20
6.828932188134523
 30
0.0
 11
16.35037215123712
 21
9.279304339371643
 31
0.0
  0
LINE
  5
270
330
37
100
AcDbEntity
  8
0
 62
     0
100
AcDbLine
 10
13.9
 20
7.00570888343116
 30
0.0
 11
16.26289196487371
 21
9.368600848304868
 31
0.0
  0
LINE
  5
271
330
37
100
AcDbEntity
  8
0
 62
     0
100
AcDbLine
 10
13.9
 20
7.182485578727797
 30
0.0
 11
16.17049525263323
 21
9.452980831361033
 31
0.0
  0
LINE
  5
272
330
37
100
AcDbEntity
  8
0
 62
     0
100
AcDbLine
 10
13.9
 20
7.359262274024434
 30
0.0
 11
16.07314454342055
 21
9.532406817444991
 31
0.0
  0
LINE
  5
273
330
37
100
AcDbEntity
  8
0
 62
     0
100
AcDbLine
 10
13.9
 20
7.53603896932107
 30
0.0
 11
15.97075466195056
 21
9.606793631271633
 31
0.0
  0
LINE
  5
274
330
37
100
AcDbEntity
  8
0
 62
     0
100
AcDbLine
 10
13.9
 20
7.712815664617708
 30
0.0
 11
15.86318857628903
 21
9.67600424090674
 31
0.0
  0
LINE
  5
275
330
37
100
AcDbEntity
  8
0
 62
     0
100
AcDbLine
 10
13.9
 20
7.889592359914344
 30
0.0
 11
15.75025038159864
 21
9.739842741512989
 31
0.0
  0
LINE
  5
276
330
37
100
AcDbEntity
  8
0
 62
     0
100
AcDbLine
 10
13.9
 20
8.066369055210982
 30
0.0
 11
15.63167453725327
 21
9.798043592464253
 31
0.0
  0
LINE
  5
277
330
37
100
AcDbEntity
  8
0
 62
     0
100
AcDbLine
 10
13.9
 20
8.243145750507618
 30
0.0
 11
15.50710986763958
 21
9.850255618147199
 31
0.0
  0
LINE
  5
278
330
37
100
AcDbEntity
  8
0
 62
     0
100
AcDbLine
 10
13.9
 20
8.419922445804255
 30
0.0
 11
15.37609582797506
 21
9.896018273779313
 31
0.0
  0
LINE
  5
279
330
37
100
AcDbEntity
  8
0
 62
     0
100
AcDbLine
 10
13.9
 20
8.596699141100891
 30
0.0
 11
15.23802674945604
 21
9.934725890556936
 31
0.0
  0
LINE
  5
27A
330
37
100
AcDbEntity
  8
0
 62
     0
100
AcDbLine
 10
13.9
 20
8.773475836397528
 30
0.0
 11
15.09209641503479
 21
9.965572251432316
 31
0.0
  0
LINE
  5
27B
330
37
100
AcDbEntity
  8
0
 62
     0
100
AcDbLine
 10
13.9
 20
8.950252531694166
 30
0.0
 11
14.93720855236614
 21
9.987461084060305
 31
0.0
  0
LINE
  5
27C
330
37
100
AcDbEntity
  8
0
 62
     0
100
AcDbLine
 10
13.9
 20
9.127029226990803
 30
0.0
 11
14.77182410265905
 21
9.998853329649859
 31
0.0
  0
LINE
  5
27D
330
37
100
AcDbEntity
  8
0
 62
     0
100
AcDbLine
 10
13.9
 20
9.303805922287439
 30
0.0
 11
14.59619325557977
 21
9.999999177867216
 31
0.0
  0
LINE
  5
27E
330
37
100
AcDbEntity
  8
0
 62
     0
100
AcDbLine
 10
13.9
 20
9.480582617584076
 30
0.0
 11
14.41941676903803
 21
9.999999386622105
 31
0.0
  0
LINE
  5
27F
330
37
100
AcDbEntity
  8
0
 62
     0
100
AcDbLine
 10
13.9
 20
9.657359312880712
 30
0.0
 11
14.24264028249628
 21
9.999999595376992
 31
0.0
  0
LINE
  5
280
330
37
100
AcDbEntity
  8
0
 62
     0
100
AcDbLine
 10
13.9
 20
9.834136008177351
 30
0.0
 11
14.06586379595453
 21
9.99999980413188
 31
0.0
  0
LINE
  5
281
330
37
100
AcDbEntity
  8
0
 62
     0
100
AcDbLine
 10
13.9
 20
6.121825406947976
 30
0.0
 11
16.65024539739187
 21
8.872070804339848
 31
0.0
  0
LINE
  5
282
330
37
100
AcDbEntity
  8
0
 62
     0
100
AcDbLine
 10
13.9
 20
5.945048711651339
 30
0.0
 11
16.71203459532913
 21
8.75708330698047
 31
0.0
  0
LINE
  5
283
330
37
100
AcDbEntity
  8
0
 62
     0
100
AcDbLine
 10
13.9
 20
5.768272016354702
 30
0.0
 11
16.76806734382514
 21
8.636339360179849
 31
0.0
  0
LINE
  5
284
330
37
100
AcDbEntity
  8
0
 62
     0
100
AcDbLine
 10
13.9
 20
5.591495321058065
 30
0.0
 11
16.81795531761595
 21
8.509450638674019
 31
0.0
  0
LINE
  5
285
330
37
100
AcDbEntity
  8
0
 62
     0
100
AcDbLine
 10
13.9
 20
5.414718625761429
 30
0.0
 11
16.86118931399924
 21
8.375907939760674
 31
0.0
  0
LINE
  5
286
330
37
100
AcDbEntity
  8
0
 62
     0
100
AcDbLine
 10
13.9
 20
5.237941930464791
 30
0.0
 11
16.89709737442627
 21
8.235039304891063
 31
0.0
  0
LINE
  5
287
330
37
100
AcDbEntity
  8
0
 62
     0
100
AcDbLine
 10
14.03883476483184
 20
5.2
 30
0.0
 11
16.92477897501023
 21
8.085944210178388
 31
0.0
  0
LINE
  5
288
330
37
100
AcDbEntity
  8
0
 62
     0
100
AcDbLine
 10
14.21561146012848
 20
5.2
 30
0.0
 11
16.94299675793814
 21
7.927385297809664
 31
0.0
  0
LINE
  5
289
330
37
100
AcDbEntity
  8
0
 62
     0
100
AcDbLine
 10
14.39238815542512
 20
5.2
 30
0.0
 11
16.9499871677438
 21
7.757599012318679
 31
0.0
  0
LINE
  5
28A
330
37
100
AcDbEntity
  8
0
 62
     0
100
AcDbLine
 10
14.56916485072175
 20
5.2
 30
0.0
 11
16.94310086073496
 21
7.573936010013212
 31
0.0
  0
LINE
  5
28B
330
37
100
AcDbEntity
  8
0
 62
     0
100
AcDbLine
 10
14.74594154601839
 20
5.2
 30
0.0
 11
16.91803700563266
 21
7.372095459614269
 31
0.0
  0
LINE
  5
28C
330
37
100
AcDbEntity
  8
0
 62
     0
100
AcDbLine
 10
14.92271824131503
 20
5.2
 30
0.0
 11
16.86690917579153
 21
7.144190934476499
 31
0.0
  0
LINE
  5
28D
330
37
100
AcDbEntity
  8
0
 62
     0
100
AcDbLine
 10
15.09949493661166
 20
5.2
 30
0.0
 11
16.77171472429693
 21
6.872219787685267
 31
0.0
  0
LINE
  5
28E
330
37
100
AcDbEntity
  8
0
 62
     0
100
AcDbLine
 10
15.2762716319083
 20
5.2
 30
0.0
 11
15.84795125284192
 21
5.771679620933618
 31
0.0
  0
LINE
  5
28F
330
37
100
AcDbEntity
  8
0
 62
     0
100
AcDbLine
 10
15.96672997781769
 20
5.89045834590939
 30
0.0
 11
16.55954165409061
 21
6.483270022182311
 31
0.0
  0
LINE
  5
290
330
37
100
AcDbEntity
  8
0
 62
     0
100
AcDbLine
 10
15.45304832720494
 20
5.2
 30
0.0
 11
15.97066124869689
 21
5.717612921491952
 31
0.0
  0
LINE
  5
291
330
37
100
AcDbEntity
  8
0
 62
     0
100
AcDbLine
 10
15.62982502250157
 20
5.2
 30
0.0
 11
16.08893422102424
 21
5.659109198522661
 31
0.0
  0
LINE
  5
292
330
37
100
AcDbEntity
  8
0
 62
     0
100
AcDbLine
 10
15.80660171779821
 20
5.2
 30
0.0
 11
16.20296425787942
 21
5.59636254008121
 31
0.0
  0
LINE
  5
293
330
37
100
AcDbEntity
  8
0
 62
     0
100
AcDbLine
 10
15.98337841309485
 20
5.2
 30
0.0
 11
16.31290894781219
 21
5.529530534717341
 31
0.0
  0
LINE
  5
294
330
37
100
AcDbEntity
  8
0
 62
     0
100
AcDbLine
 10
16.16015510839148
 20
5.2
 30
0.0
 11
16.41889477551746
 21
5.458739667125973
 31
0.0
  0
LINE
  5
295
330
37
100
AcDbEntity
  8
0
 62
     0
100
AcDbLine
 10
16.33693180368812
 20
5.2
 30
0.0
 11
16.52102114525041
 21
5.384089341562286
 31
0.0
  0
LINE
  5
296
330
37
100
AcDbEntity
  8
0
 62
     0
100
AcDbLine
 10
16.51370849898476
 20
5.2
 30
0.0
 11
16.61936335457592
 21
5.305654855591162
 31
0.0
  0
LINE
  5
297
330
37
100
AcDbEntity
  8
0
 62
     0
100
AcDbLine
 10
16.69048519428139
 20
5.2
 30
0.0
 11
16.71397473843326
 21
5.223489544151862
 31
0.0
  0
ENDBLK
  5
298
330
37
100
AcDbEntity
  8
0
100
AcDbBlockEnd
  0
BLOCK
  5
299
330
38
100
AcDbEntity
  8
0
100
AcDbBlockBegin
  2
*X22
 70
     1
 10
0.0
 20
0.0
 30
0.0
  3
*X22
  1

  0
LINE
  5
29A
330
38
100
AcDbEntity
  8
0
 62
     0
100
AcDbLine
 10
13.9
 20
0.8185245480488701
 30
0.0
 11
17.39644991717202
 21
4.314974465220889
 31
0.0
  0
LINE
  5
29B
330
38
100
AcDbEntity
  8
0
 62
     0
100
AcDbLine
 10
13.9
 20
0.995301243345507
 30
0.0
 11
17.33635410458252
 21
4.431655347928027
 31
0.0
  0
LINE
  5
29C
330
38
100
AcDbEntity
  8
0
 62
     0
100
AcDbLine
 10
13.9
 20
1.172077938642143
 30
0.0
 11
17.27207765977055
 21
4.544155598412691
 31
0.0
  0
LINE
  5
29D
330
38
100
AcDbEntity
  8
0
 62
     0
100
AcDbLine
 10
13.9
 20
1.34885463393878
 30
0.0
 11
17.20376610315736
 21
4.652620737096146
 31
0.0
  0
LINE
  5
29E
330
38
100
AcDbEntity
  8
0
 62
     0
100
AcDbLine
 10
13.9
 20
1.525631329235417
 30
0.0
 11
17.13153548167385
 21
4.757166810909273
 31
0.0
  0
LINE
  5
29F
330
38
100
AcDbEntity
  8
0
 62
     0
100
AcDbLine
 10
13.9
 20
1.702408024532054
 30
0.0
 11
16.99759197546794
 21
4.8
 31
0.0
  0
LINE
  5
2A0
330
38
100
AcDbEntity
  8
0
 62
     0
100
AcDbLine
 10
13.9
 20
1.879184719828691
 30
0.0
 11
16.82081528017131
 21
4.8
 31
0.0
  0
LINE
  5
2A1
330
38
100
AcDbEntity
  8
0
 62
     0
100
AcDbLine
 10
13.9
 20
2.055961415125328
 30
0.0
 11
16.64403858487467
 21
4.8
 31
0.0
  0
LINE
  5
2A2
330
38
100
AcDbEntity
  8
0
 62
     0
100
AcDbLine
 10
13.9
 20
2.232738110421965
 30
0.0
 11
16.46726188957803
 21
4.8
 31
0.0
  0
LINE
  5
2A3
330
38
100
AcDbEntity
  8
0
 62
     0
100
AcDbLine
 10
13.9
 20
2.409514805718601
 30
0.0
 11
16.2904851942814
 21
4.8
 31
0.0
  0
LINE
  5
2A4
330
38
100
AcDbEntity
  8
0
 62
     0
100
AcDbLine
 10
13.9
 20
2.586291501015238
 30
0.0
 11
16.11370849898476
 21
4.8
 31
0.0
  0
LINE
  5
2A5
330
38
100
AcDbEntity
  8
0
 62
     0
100
AcDbLine
 10
13.9
 20
2.763068196311875
 30
0.0
 11
15.93693180368812
 21
4.8
 31
0.0
  0
LINE
  5
2A6
330
38
100
AcDbEntity
  8
0
 62
     0
100
AcDbLine
 10
13.9
 20
2.939844891608512
 30
0.0
 11
15.76015510839149
 21
4.8
 31
0.0
  0
LINE
  5
2A7
330
38
100
AcDbEntity
  8
0
 62
     0
100
AcDbLine
 10
13.9
 20
3.116621586905149
 30
0.0
 11
15.58337841309485
 21
4.8
 31
0.0
  0
LINE
  5
2A8
330
38
100
AcDbEntity
  8
0
 62
     0
100
AcDbLine
 10
13.9
 20
3.293398282201786
 30
0.0
 11
15.40660171779821
 21
4.8
 31
0.0
  0
LINE
  5
2A9
330
38
100
AcDbEntity
  8
0
 62
     0
100
AcDbLine
 10
13.9
 20
3.470174977498423
 30
0.0
 11
15.22982502250157
 21
4.8
 31
0.0
  0
LINE
  5
2AA
330
38
100
AcDbEntity
  8
0
 62
     0
100
AcDbLine
 10
13.9
 20
3.64695167279506
 30
0.0
 11
15.05304832720494
 21
4.8
 31
0.0
  0
LINE
  5
2AB
330
38
100
AcDbEntity
  8
0
 62
     0
100
AcDbLine
 10
13.9
 20
3.823728368091696
 30
0.0
 11
14.8762716319083
 21
4.8
 31
0.0
  0
LINE
  5
2AC
330
38
100
AcDbEntity
  8
0
 62
     0
100
AcDbLine
 10
13.9
 20
4.000505063388334
 30
0.0
 11
14.69949493661166
 21
4.8
 31
0.0
  0
LINE
  5
2AD
330
38
100
AcDbEntity
  8
0
 62
     0
100
AcDbLine
 10
13.9
 20
4.17728175868497
 30
0.0
 11
14.52271824131503
 21
4.8
 31
0.0
  0
LINE
  5
2AE
330
38
100
AcDbEntity
  8
0
 62
     0
100
AcDbLine
 10
13.9
 20
4.354058453981607
 30
0.0
 11
14.34594154601839
 21
4.8
 31
0.0
  0
LINE
  5
2AF
330
38
100
AcDbEntity
  8
0
 62
     0
100
AcDbLine
 10
13.9
 20
4.530835149278244
 30
0.0
 11
14.16916485072175
 21
4.8
 31
0.0
  0
LINE
  5
2B0
330
38
100
AcDbEntity
  8
0
 62
     0
100
AcDbLine
 10
13.9
 20
4.707611844574881
 30
0.0
 11
13.99238815542512
 21
4.8
 31
0.0
  0
LINE
  5
2B1
330
38
100
AcDbEntity
  8
0
 62
     0
100
AcDbLine
 10
13.9
 20
0.6417478527522334
 30
0.0
 11
17.45218526214292
 21
4.193933114895161
 31
0.0
  0
LINE
  5
2B2
330
38
100
AcDbEntity
  8
0
 62
     0
100
AcDbLine
 10
13.9
 20
0.4649711574555965
 30
0.0
 11
17.50333949830906
 21
4.068310655764662
 31
0.0
  0
LINE
  5
2B3
330
38
100
AcDbEntity
  8
0
 62
     0
100
AcDbLine
 10
13.9
 20
0.2881944621589596
 30
0.0
 11
17.54964242799989
 21
3.937836890158853
 31
0.0
  0
LINE
  5
2B4
330
38
100
AcDbEntity
  8
0
 62
     0
100
AcDbLine
 10
13.9
 20
0.1114177668623227
 30
0.0
 11
17.59076236298873
 21
3.802180129851055
 31
0.0
  0
LINE
  5
2B5
330
38
100
AcDbEntity
  8
0
 62
     0
100
AcDbLine
 10
13.96535907380306
 20
0.0000001453687495
 30
0.0
 11
17.62628957551245
 21
3.660930647078139
 31
0.0
  0
LINE
  5
2B6
330
38
100
AcDbEntity
  8
0
 62
     0
100
AcDbLine
 10
14.14213616227945
 20
0.0000005385484993
 30
0.0
 11
17.65571284726207
 21
3.513577223531124
 31
0.0
  0
LINE
  5
2B7
330
38
100
AcDbEntity
  8
0
 62
     0
100
AcDbLine
 10
14.31891325075583
 20
0.0000009317282491
 30
0.0
 11
17.67838532706747
 21
3.359473008039884
 31
0.0
  0
LINE
  5
2B8
330
38
100
AcDbEntity
  8
0
 62
     0
100
AcDbLine
 10
14.49569033923222
 20
0.0000013249079989
 30
0.0
 11
17.6934731399576
 21
3.197784125633374
 31
0.0
  0
LINE
  5
2B9
330
38
100
AcDbEntity
  8
0
 62
     0
100
AcDbLine
 10
14.67246742770861
 20
0.0000017180877487
 30
0.0
 11
17.6998747877926
 21
3.027409078171735
 31
0.0
  0
LINE
  5
2BA
330
38
100
AcDbEntity
  8
0
 62
     0
100
AcDbLine
 10
14.85315433025688
 20
0.0039119253393838
 30
0.0
 11
17.69608807466061
 21
2.846845669743118
 31
0.0
  0
LINE
  5
2BB
330
38
100
AcDbEntity
  8
0
 62
     0
100
AcDbLine
 10
15.04604362941941
 20
0.0200245292052809
 30
0.0
 11
17.67997547079472
 21
2.653956370580586
 31
0.0
  0
LINE
  5
2BC
330
38
100
AcDbEntity
  8
0
 62
     0
100
AcDbLine
 10
15.25448294516349
 20
0.051687149652724
 30
0.0
 11
17.64831285034728
 21
2.445517054836507
 31
0.0
  0
LINE
  5
2BD
330
38
100
AcDbEntity
  8
0
 62
     0
100
AcDbLine
 10
15.48376230096711
 20
0.104189810159703
 30
0.0
 11
17.5958101898403
 21
2.216237699032893
 31
0.0
  0
LINE
  5
2BE
330
38
100
AcDbEntity
  8
0
 62
     0
100
AcDbLine
 10
15.74378625147994
 20
0.1874370653758922
 30
0.0
 11
17.51256293462411
 21
1.956213748520063
 31
0.0
  0
LINE
  5
2BF
330
38
100
AcDbEntity
  8
0
 62
     0
100
AcDbLine
 10
16.05817558800134
 20
0.3250497066006601
 30
0.0
 11
17.37495029339934
 21
1.641824411998659
 31
0.0
  0
LINE
  5
2C0
330
38
100
AcDbEntity
  8
0
 62
     0
100
AcDbLine
 10
16.54193023656893
 20
0.6320276598716133
 30
0.0
 11
17.06797234012839
 21
1.158069763431071
 31
0.0
  0
ENDBLK
  5
2C1
330
38
100
AcDbEntity
  8
0
100
AcDbBlockEnd
  0
BLOCK
  5
2C2
330
39
100
AcDbEntity
  8
0
100
AcDbBlockBegin
  2
MAA
 70
     0
 10
0.0
 20
0.0
 30
0.0
  3
MAA
  1

  0
LINE
  5
2C3
330
39
100
AcDbEntity
  8
0
  6
Continuous
100
AcDbLine
 10
-0.5007181785718445
 20
-2.587965694815835
 30
0.0
 11
0.3861686956486778
 21
-2.587965694815835
 31
0.0
  0
LINE
  5
2C4
330
39
100
AcDbEntity
  8
0
  6
Continuous
100
AcDbLine
 10
-0.8318226116142
 20
-1.976332608015752
 30
0.0
 11
0.7527486036598248
 21
-1.976332608015752
 31
0.0
  0
LINE
  5
2C5
330
39
100
AcDbEntity
  8
0
  6
Continuous
100
AcDbLine
 10
-0.0158866873312604
 20
-1.35427039676108
 30
0.0
 11
1.178454303285661
 21
-1.35427039676108
 31
0.0
  0
LINE
  5
2C6
330
39
100
AcDbEntity
  8
0
  6
Continuous
100
AcDbLine
 10
-1.210227677948239
 20
-1.35427039676108
 30
0.0
 11
-0.0158866873312604
 21
-1.35427039676108
 31
0.0
  0
LINE
  5
2C7
330
39
100
AcDbEntity
  8
0
  6
Continuous
100
AcDbLine
 10
0.0
 20
0.0
 30
0.0
 11
0.0
 21
-1.35427039676108
 31
0.0
  0
ENDBLK
  5
2C8
330
39
100
AcDbEntity
  8
0
100
AcDbBlockEnd
  0
ENDSEC
  0
SECTION
  2
ENTITIES
  0
INSERT
  5
2C9
330
1E
100
AcDbEntity
  8
0
100
AcDbBlockReference
  2
1
 10
65.40543794728922
 20
98.7130660876682
 30
0.0
  0
INSERT
  5
2CA
330
1E
100
AcDbEntity
  8
0
100
AcDbBlockReference
  2
1
 10
72.5416524658361
 20
49.71055967492806
 30
0.0
  0
INSERT
  5
2CB
330
1E
100
AcDbEntity
  8
0
100
AcDbBlockReference
  2
1
 10
85.39044274796726
 20
73.49723378259056
 30
0.0
  0
LINE
  5
2CC
330
1E
100
AcDbEntity
  8
BASE
  6
Continuous
100
AcDbLine
 10
351.9494306503438
 20
144.5656563389775
 30
0.0
 11
348.4307823820054
 21
142.7807776158608
 31
0.0
  0
LINE
  5
2CD
330
1E
100
AcDbEntity
  8
BASE
  6
Continuous
100
AcDbLine
 10
348.4307823820054
 20
146.5686869060306
 30
0.0
 11
351.9494306503438
 21
144.5656563389775
 31
0.0
  0
TEXT
  5
2CE
330
1E
100
AcDbEntity
  8
BASE
  6
Continuous
100
AcDbText
 10
341.2587896838685
 20
143.4873424218304
 30
0.0
 40
3.75
  1
I
 11
341.2587896838685
 21
142.2373424218304
 31
0.0
100
AcDbText
 73
     1
  0
TEXT
  5
2CF
330
1E
100
AcDbEntity
  8
BASE
  6
Continuous
100
AcDbText
 10
341.2587896838685
 20
135.8631306346289
 30
0.0
 40
3.75
  1
I
 11
341.2587896838685
 21
134.6131306346288
 31
0.0
100
AcDbText
 73
     1
  0
LINE
  5
2D0
330
1E
100
AcDbEntity
  8
BASE
  6
Continuous
100
AcDbLine
 10
351.9494306503438
 20
137.1018098635206
 30
0.0
 11
348.4307823820054
 21
135.316931140404
 31
0.0
  0
LINE
  5
2D1
330
1E
100
AcDbEntity
  8
BASE
  6
Continuous
100
AcDbLine
 10
348.4307823820054
 20
139.1048404305737
 30
0.0
 11
351.9494306503438
 21
137.1018098635206
 31
0.0
  0
TEXT
  5
2D2
330
1E
100
AcDbEntity
  8
BASE
  6
Continuous
100
AcDbText
 10
54.13475385131249
 20
67.94873595360215
 30
0.0
 40
3.75
  1
1
 11
54.13475385131249
 21
66.69873595360215
 31
0.0
100
AcDbText
 73
     1
  0
LINE
  5
2D3
330
1E
100
AcDbEntity
  8
BASE
  6
Continuous
100
AcDbLine
 10
47.48396116577612
 20
71.93887638124121
 30
0.0
 11
51.00260943411456
 21
69.9358458141881
 31
0.0
  0
LINE
  5
2D4
330
1E
100
AcDbEntity
  8
BASE
  6
Continuous
100
AcDbLine
 10
47.47189854974624
 20
66.95094648593246
 30
0.0
 11
51.04708919936712
 21
68.73323424773326
 31
0.0
  0
LINE
  5
2D5
330
1E
100
AcDbEntity
  8
BASE
  6
Continuous
100
AcDbLine
 10
51.00260943411456
 20
69.9358458141881
 30
0.0
 11
47.48396116577612
 21
68.15096709107144
 31
0.0
  0
CIRCLE
  5
2D6
330
1E
100
AcDbEntity
  8
BASE
  6
Continuous
100
AcDbCircle
 10
52.11963441474428
 20
57.98707246511194
 30
0.0
 40
1.049999999999999
  0
LINE
  5
2D7
330
1E
100
AcDbEntity
  8
BASE
  6
Continuous
100
AcDbLine
 10
51.070549581864
 20
57.94324309803253
 30
0.0
 11
47.07706670573784
 21
57.94324309803253
 31
0.0
  0
LINE
  5
2D8
330
1E
100
AcDbEntity
  8
BASE
  6
Continuous
100
AcDbLine
 10
41.32286035320227
 20
57.98963848764771
 30
0.0
 11
35.28375998476211
 21
57.98963848764771
 31
0.0
  0
LINE
  5
2D9
330
1E
100
AcDbEntity
  8
BASE
  6
Continuous
100
AcDbLine
 10
47.07706670573784
 20
57.94324309803253
 30
0.0
 11
41.2949784340113
 21
55.7190395670964
 31
0.0
  0
TEXT
  5
2DA
330
1E
100
AcDbEntity
  8
BASE
  6
Continuous
100
AcDbText
 10
20.08475393572513
 20
61.95782598611571
 30
0.0
 40
2.25
  1
SEAL. IN
  7
ROMANS
100
AcDbText
  0
LINE
  5
2DB
330
1E
100
AcDbEntity
  8
BASE
  6
Continuous
100
AcDbLine
 10
35.67460263443587
 20
211.6183502125721
 30
0.0
 11
13.17460263443587
 21
211.6183502125721
 31
0.0
  0
LINE
  5
2DC
330
1E
100
AcDbEntity
  8
1
  6
Continuous
100
AcDbLine
 10
338.4233310692752
 20
144.5746388678201
 30
0.0
 11
53.52924302393787
 21
144.5746388678201
 31
0.0
  0
LINE
  5
2DD
330
1E
100
AcDbEntity
  8
1
  6
Continuous
100
AcDbLine
 10
338.4233310692752
 20
137.0746388678201
 30
0.0
 11
57.32069851218866
 21
137.0746388678201
 31
0.0
  0
LINE
  5
2DE
330
1E
100
AcDbEntity
  8
BASE
  6
Continuous
100
AcDbLine
 10
352.1376695799627
 20
123.9068216663214
 30
0.0
 11
355.6563178483012
 21
121.9037910992683
 31
0.0
  0
LINE
  5
2DF
330
1E
100
AcDbEntity
  8
BASE
  6
Continuous
100
AcDbLine
 10
355.7351174239418
 20
121.9037910992683
 30
0.0
 11
352.2164691556034
 21
120.1189123761516
 31
0.0
  0
TEXT
  5
2E0
330
1E
100
AcDbEntity
  8
BASE
  6
Continuous
100
AcDbText
 10
341.2587896838685
 20
120.8254771821212
 30
0.0
 40
3.75
  1
I
 11
341.2587896838685
 21
119.5754771821212
 31
0.0
100
AcDbText
 73
     1
  0
LINE
  5
2E1
330
1E
100
AcDbEntity
  8
BASE
  6
Continuous
100
AcDbLine
 10
370.999426002879
 20
123.1658082427566
 30
0.0
 11
370.999426002879
 21
120.4836111238709
 31
0.0
  0
LINE
  5
2E2
330
1E
100
AcDbEntity
  8
BASE
  6
Continuous
100
AcDbLine
 10
366.5331288344302
 20
125.3686857717923
 30
0.0
 11
367.8841439921461
 21
123.6830621992247
 31
0.0
  0
LINE
  5
2E3
330
1E
100
AcDbEntity
  8
BASE
  6
Continuous
100
AcDbLine
 10
362.8360193106668
 20
120.1464864093573
 30
0.0
 11
367.1501853605156
 21
124.3893242798204
 31
0.0
  0
LINE
  5
2E4
330
1E
100
AcDbEntity
  8
BASE
  6
Continuous
100
AcDbLine
 10
359.3239303037618
 20
121.8978904140252
 30
0.0
 11
371.0062378440103
 21
121.8978904140252
 31
0.0
  0
LINE
  5
2E5
330
1E
100
AcDbEntity
  8
BASE
  6
Continuous
100
AcDbLine
 10
359.2773827226976
 20
123.1658082427566
 30
0.0
 11
359.2773827226976
 21
120.4836111238709
 31
0.0
  0
TEXT
  5
2E6
330
1E
100
AcDbEntity
  8
BASE
  6
Continuous
100
AcDbText
 10
20.05413570287527
 20
56.9682370093313
 30
0.0
 40
2.25
  1
SGF1/8
  7
ROMANS
100
AcDbText
  0
LINE
  5
2E7
330
1E
100
AcDbEntity
  8
SWEDEN2
  6
Continuous
100
AcDbLine
 10
2.579363984026031
 20
253.3047848667994
 30
0.0
 11
2.579363984026031
 21
54.50205322075817
 31
0.0
  0
LINE
  5
2E8
330
1E
100
AcDbEntity
  8
SWEDEN2
  6
Continuous
100
AcDbLine
 10
2.579363984026031
 20
54.50205322075817
 30
0.0
 11
391.2698411798135
 21
54.50205322075817
 31
0.0
  0
LINE
  5
2E9
330
1E
100
AcDbEntity
  8
SWEDEN2
  6
Continuous
100
AcDbLine
 10
391.2698411798135
 20
54.50205322075817
 30
0.0
 11
391.2698411798135
 21
253.3047848667994
 31
0.0
  0
LINE
  5
2EA
330
1E
100
AcDbEntity
  8
SWEDEN2
  6
Continuous
100
AcDbLine
 10
391.2698411798135
 20
253.3047848667994
 30
0.0
 11
2.579363984026031
 21
253.3047848667994
 31
0.0
  0
LINE
  5
2EB
330
1E
100
AcDbEntity
  8
1
  6
Continuous
100
AcDbLine
 10
61.11215400043945
 20
129.5746388678201
 30
0.0
 11
338.4233310692752
 21
129.5746388678201
 31
0.0
  0
LINE
  5
2EC
330
1E
100
AcDbEntity
  8
1
  6
Continuous
100
AcDbLine
 10
64.65084669975512
 20
122.0746388678201
 30
0.0
 11
338.4932686172676
 21
122.0746388678201
 31
0.0
  0
LINE
  5
2ED
330
1E
100
AcDbEntity
  8
1
  6
Continuous
100
AcDbLine
 10
13.17460263443587
 20
256.7145793016208
 30
0.0
 11
13.17460263443587
 21
196.6019061013141
 31
0.0
  0
LINE
  5
2EE
330
1E
100
AcDbEntity
  8
BASE
  6
Continuous
100
AcDbLine
 10
383.9007131819287
 20
138.4286794007366
 30
0.0
 11
383.9007131819287
 21
135.7464822818508
 31
0.0
  0
LINE
  5
2EF
330
1E
100
AcDbEntity
  8
BASE
  6
Continuous
100
AcDbLine
 10
379.4695449381851
 20
140.4580057310278
 30
0.0
 11
380.8205600959008
 21
138.7723821584601
 31
0.0
  0
LINE
  5
2F0
330
1E
100
AcDbEntity
  8
BASE
  6
Continuous
100
AcDbLine
 10
375.8014340767652
 20
135.4093575673373
 30
0.0
 11
380.115600126614
 21
139.6521954378003
 31
0.0
  0
LINE
  5
2F1
330
1E
100
AcDbEntity
  8
BASE
  6
Continuous
100
AcDbLine
 10
372.2252174828115
 20
137.1607615720051
 30
0.0
 11
383.90752502306
 21
137.1607615720051
 31
0.0
  0
LINE
  5
2F2
330
1E
100
AcDbEntity
  8
BASE
  6
Continuous
100
AcDbLine
 10
372.1786699017474
 20
138.4286794007366
 30
0.0
 11
372.1786699017474
 21
135.7464822818508
 31
0.0
  0
LINE
  5
2F3
330
1E
100
AcDbEntity
  8
SWEDEN2
  6
Continuous
100
AcDbLine
 10
387.9750083805248
 20
164.0061624036225
 30
0.0
 11
387.9750083805248
 21
119.5746388678201
 31
0.0
  0
LINE
  5
2F4
330
1E
100
AcDbEntity
  8
SWEDEN2
  6
Continuous
100
AcDbLine
 10
387.9750083805248
 20
119.5746388678201
 30
0.0
 11
338.4233310692752
 21
119.5746388678201
 31
0.0
  0
LINE
  5
2F5
330
1E
100
AcDbEntity
  8
SWEDEN2
  6
Continuous
100
AcDbLine
 10
338.4233310692752
 20
119.5746388678201
 30
0.0
 11
338.4233310692752
 21
164.0061624036225
 31
0.0
  0
LINE
  5
2F6
330
1E
100
AcDbEntity
  8
SWEDEN2
  6
HIDDEN
100
AcDbLine
 10
338.4233310692752
 20
142.0746388678201
 30
0.0
 11
387.9750083805248
 21
142.0746388678201
 31
0.0
  0
LINE
  5
2F7
330
1E
100
AcDbEntity
  8
SWEDEN2
  6
HIDDEN
100
AcDbLine
 10
338.3836188985299
 20
134.5746388678201
 30
0.0
 11
387.9750083805248
 21
134.5746388678201
 31
0.0
  0
LINE
  5
2F8
330
1E
100
AcDbEntity
  8
SWEDEN2
  6
HIDDEN
100
AcDbLine
 10
338.3836188985299
 20
127.0746388678201
 30
0.0
 11
387.8899638029864
 21
127.0746388678201
 31
0.0
  0
TEXT
  5
2F9
330
1E
100
AcDbEntity
  8
BASE
  6
HIDDEN
100
AcDbText
 10
338.9943408599049
 20
140.1282713044734
 30
0.0
 40
1.5
  1
EN
100
AcDbText
  0
TEXT
  5
2FA
330
1E
100
AcDbEntity
  8
BASE
  6
HIDDEN
100
AcDbText
 10
338.9943408599049
 20
125.1250170261365
 30
0.0
 40
1.5
  1
EN
100
AcDbText
  0
CIRCLE
  5
2FB
330
1E
100
AcDbEntity
  8
BASE
  6
Continuous
100
AcDbCircle
 10
337.6253117837347
 20
139.5746388678201
 30
0.0
 40
0.7980192855404964
  0
CIRCLE
  5
2FC
330
1E
100
AcDbEntity
  8
BASE
  6
Continuous
100
AcDbCircle
 10
337.7041113593754
 20
124.5746388678201
 30
0.0
 40
0.7980192855404964
  0
LINE
  5
2FD
330
1E
100
AcDbEntity
  8
1
  6
Continuous
100
AcDbLine
 10
139.9432947729286
 20
209.3275153747084
 30
0.0
 11
332.420308740166
 21
209.3275153747084
 31
0.0
  0
LINE
  5
2FE
330
1E
100
AcDbEntity
  8
BASE
  6
Continuous
100
AcDbLine
 10
43.17460263443587
 20
228.9104405780422
 30
0.0
 11
34.55871655676111
 21
233.7324955358164
 31
0.0
  0
LINE
  5
2FF
330
1E
100
AcDbEntity
  8
1
  6
Continuous
100
AcDbLine
 10
134.4988831138329
 20
204.3275153747084
 30
0.0
 11
329.920308740166
 21
204.3275153747084
 31
0.0
  0
LINE
  5
300
330
1E
100
AcDbEntity
  8
1
  6
Continuous
100
AcDbLine
 10
129.054470404412
 20
199.3275153747084
 30
0.0
 11
327.420308740166
 21
199.3275153747084
 31
0.0
  0
LINE
  5
301
330
1E
100
AcDbEntity
  8
BASE
  6
Continuous
100
AcDbLine
 10
35.67460263443587
 20
226.6183502125721
 30
0.0
 11
13.17460263443587
 21
226.6183502125721
 31
0.0
  0
LINE
  5
302
330
1E
100
AcDbEntity
  8
1
  6
Continuous
100
AcDbLine
 10
43.17460263443587
 20
208.8647122530865
 30
0.0
 11
50.67460263443587
 21
208.8647122530865
 31
0.0
  0
LINE
  5
303
330
1E
100
AcDbEntity
  8
BASE
  6
Continuous
100
AcDbLine
 10
35.67460263443587
 20
216.6183502125721
 30
0.0
 11
13.17460263443587
 21
216.6183502125721
 31
0.0
  0
LINE
  5
304
330
1E
100
AcDbEntity
  8
BASE
  6
Continuous
100
AcDbLine
 10
35.67460263443587
 20
221.6183502125721
 30
0.0
 11
13.17460263443587
 21
221.6183502125721
 31
0.0
  0
LINE
  5
305
330
1E
100
AcDbEntity
  8
BASE
  6
Continuous
100
AcDbLine
 10
35.67460263443587
 20
231.6183502125721
 30
0.0
 11
13.17460263443587
 21
231.6183502125721
 31
0.0
  0
LINE
  5
306
330
1E
100
AcDbEntity
  8
BASE
  6
Continuous
100
AcDbLine
 10
13.17460263443587
 20
206.6183502125721
 30
0.0
 11
35.67460263443587
 21
206.6183502125721
 31
0.0
  0
LINE
  5
307
330
1E
100
AcDbEntity
  8
1
  6
Continuous
100
AcDbLine
 10
332.420308740166
 20
154.1397898682764
 30
0.0
 11
332.420308740166
 21
209.3409344361547
 31
0.0
  0
LINE
  5
308
330
1E
100
AcDbEntity
  8
1
  6
Continuous
100
AcDbLine
 10
329.920308740166
 20
204.2785526013735
 30
0.0
 11
329.920308740166
 21
139.4986459142516
 31
0.0
  0
LINE
  5
309
330
1E
100
AcDbEntity
  8
1
  6
Continuous
100
AcDbLine
 10
327.420308740166
 20
199.3275153747084
 30
0.0
 11
327.420308740166
 21
124.5284867421988
 31
0.0
  0
LINE
  5
30A
330
1E
100
AcDbEntity
  8
1
  6
Continuous
100
AcDbLine
 10
327.420308740166
 20
124.5746388678201
 30
0.0
 11
336.7766890153281
 21
124.5746388678201
 31
0.0
  0
LINE
  5
30B
330
1E
100
AcDbEntity
  8
1
  6
Continuous
100
AcDbLine
 10
329.920308740166
 20
139.5746388678201
 30
0.0
 11
336.7766890153281
 21
139.5746388678201
 31
0.0
  0
TEXT
  5
30C
330
1E
100
AcDbEntity
  8
0
  6
Continuous
100
AcDbText
 10
91.16153469081059
 20
38.32648843836636
 30
0.0
 40
2.0
  1
SS3
 50
90.0
  7
ROMANS
100
AcDbText
  0
TEXT
  5
30D
330
1E
100
AcDbEntity
  8
0
  6
Continuous
100
AcDbText
 10
137.573576882136
 20
38.32648843836636
 30
0.0
 40
2.0
  1
SS2
 50
90.0
  7
ROMANS
100
AcDbText
  0
TEXT
  5
30E
330
1E
100
AcDbEntity
  8
0
  6
Continuous
100
AcDbText
 10
184.4172512863815
 20
38.32648843836636
 30
0.0
 40
2.0
  1
SS1
 50
90.0
  7
ROMANS
100
AcDbText
  0
TEXT
  5
30F
330
1E
100
AcDbEntity
  8
0
  6
Continuous
100
AcDbText
 10
291.6274451191158
 20
37.17659106680798
 30
0.0
 40
2.0
  1
AR3
 50
90.0
  7
ROMANS
100
AcDbText
  0
TEXT
  5
310
330
1E
100
AcDbEntity
  8
0
  6
Continuous
100
AcDbText
 10
213.306607189134
 20
28.09643725427252
 30
0.0
 40
2.0
  1
97/02/04  Marko Rännäli
  7
ROMANS
100
AcDbText
  0
TEXT
  5
311
330
1E
100
AcDbEntity
  8
0
  6
Continuous
100
AcDbText
 10
317.5
 20
27.5
 30
0.0
 40
2.0
  1
CIRCUIT DIAGRAM;PROGRAMMING OF U2/
  7
ROMANS
100
AcDbText
  0
TEXT
  5
312
330
1E
100
AcDbEntity
  8
0
  6
Continuous
100
AcDbText
 10
317.5
 20
24.16666666666666
 30
0.0
 40
2.0
  1
KRETSSCHEMA;PROGRAMMERING AV U2
  7
ROMANS
100
AcDbText
  0
TEXT
  5
313
330
1E
100
AcDbEntity
  8
0
  6
Continuous
100
AcDbText
 10
317.5
 20
20.83333333333333
 30
0.0
 40
2.0
  1
SPAC 539 C1 / E297
  7
ROMANS
100
AcDbText
  0
TEXT
  5
314
330
1E
100
AcDbEntity
  8
0
  6
Continuous
100
AcDbText
 10
367.5
 20
12.5
 30
0.0
 40
2.0
  1
4/4
  7
ROMANS
100
AcDbText
  0
TEXT
  5
315
330
1E
100
AcDbEntity
  8
0
  6
Continuous
100
AcDbText
 10
322.5
 20
2.5
 30
0.0
 40
2.5
  1
1MRS10241-AB
  7
ROMANS
100
AcDbText
  0
TEXT
  5
316
330
1E
100
AcDbEntity
  8
0
  6
Continuous
100
AcDbText
 10
15.45634884248647
 20
255.413513488987
 30
0.0
 40
1.5
  1
BS1
  7
ROMANS
100
AcDbText
  0
TEXT
  5
317
330
1E
100
AcDbEntity
  8
BASE
  6
Continuous
100
AcDbText
 10
379.742063638359
 20
248.2847140271074
 30
0.0
 40
2.0
  1
U2
  7
ROMANS
100
AcDbText
  0
TEXT
  5
318
330
1E
100
AcDbEntity
  8
BASE
  6
Continuous
100
AcDbText
 10
15.67460263443587
 20
228.3286922582848
 30
0.0
 40
2.0
  1
SGB1/1
  7
ROMANS
100
AcDbText
  0
TEXT
  5
319
330
1E
100
AcDbEntity
  8
BASE
  6
Continuous
100
AcDbText
 10
15.67460263443587
 20
223.3119122971301
 30
0.0
 40
2.0
  1
SGB1/2
  7
ROMANS
100
AcDbText
  0
TEXT
  5
31A
330
1E
100
AcDbEntity
  8
BASE
  6
Continuous
100
AcDbText
 10
15.67460263443587
 20
218.2864547760381
 30
0.0
 40
2.0
  1
SGB1/3
  7
ROMANS
100
AcDbText
  0
TEXT
  5
31B
330
1E
100
AcDbEntity
  8
BASE
  6
Continuous
100
AcDbText
 10
15.67460263443587
 20
213.3651279741929
 30
0.0
 40
2.0
  1
SGB1/4
  7
ROMANS
100
AcDbText
  0
TEXT
  5
31C
330
1E
100
AcDbEntity
  8
BASE
  6
Continuous
100
AcDbText
 10
15.67460263443587
 20
208.1487641344821
 30
0.0
 40
2.0
  1
SGB1/5
  7
ROMANS
100
AcDbText
  0
TEXT
  5
31D
330
1E
100
AcDbEntity
  8
BASE
  6
Continuous
100
AcDbText
 10
15.67460263443587
 20
203.1253773864634
 30
0.0
 40
2.0
  1
SGB1/6
  7
ROMANS
100
AcDbText
  0
TEXT
  5
31E
330
1E
100
AcDbEntity
  8
BASE
  6
Continuous
100
AcDbText
 10
53.17460263443587
 20
202.6295279381663
 30
0.0
 40
2.0
  1
Trip ind. reset
  7
ROMANS
100
AcDbText
  0
TEXT
  5
31F
330
1E
100
AcDbEntity
  8
BASE
  6
Continuous
100
AcDbText
 10
52.02380890111669
 20
217.2671168654283
 30
0.0
 40
2.0
  1

  7
ROMANS
100
AcDbText
  0
TEXT
  5
320
330
1E
100
AcDbEntity
  8
0
  6
Continuous
100
AcDbText
 10
52.0773866898064
 20
38.32648843836636
 30
0.0
 40
2.0
  1
TS 2
 50
90.0
  7
ROMANS
100
AcDbText
  0
LWPOLYLINE
  5
321
330
1E
100
AcDbEntity
  8
BASE
  6
Continuous
100
AcDbPolyline
 90
        2
 70
     1
 43
0.5
 10
12.67460263443587
 20
231.6183502125721
 42
1.0
 10
13.67460263443587
 20
231.6183502125721
 42
1.0
  0
LWPOLYLINE
  5
325
330
1E
100
AcDbEntity
  8
BASE
  6
Continuous
100
AcDbPolyline
 90
        2
 70
     1
 43
0.5
 10
12.67460263443587
 20
226.6183502125721
 42
1.0
 10
13.67460263443587
 20
226.6183502125721
 42
1.0
  0
LWPOLYLINE
  5
329
330
1E
100
AcDbEntity
  8
BASE
  6
Continuous
100
AcDbPolyline
 90
        2
 70
     1
 43
0.5
 10
12.67460263443587
 20
221.6183502125721
 42
1.0
 10
13.67460263443587
 20
221.6183502125721
 42
1.0
  0
LWPOLYLINE
  5
32D
330
1E
100
AcDbEntity
  8
BASE
  6
Continuous
100
AcDbPolyline
 90
        2
 70
     1
 43
0.5
 10
12.67460263443587
 20
216.6183502125721
 42
1.0
 10
13.67460263443587
 20
216.6183502125721
 42
1.0
  0
LWPOLYLINE
  5
331
330
1E
100
AcDbEntity
  8
BASE
  6
Continuous
100
AcDbPolyline
 90
        2
 70
     1
 43
0.5
 10
12.67460263443587
 20
211.6183502125721
 42
1.0
 10
13.67460263443587
 20
211.6183502125721
 42
1.0
  0
TEXT
  5
335
330
1E
100
AcDbEntity
  8
0
  6
Continuous
100
AcDbText
 10
380.0
 20
2.5
 30
0.0
 40
2.5
  1
A
  7
ROMANS
100
AcDbText
  0
TEXT
  5
336
330
1E
100
AcDbEntity
  8
0
  6
Continuous
100
AcDbText
 10
213.306607189134
 20
19.77246326580224
 30
0.0
 40
2.0
  1
Markku Niemi
  7
ROMANS
100
AcDbText
  0
TEXT
  5
337
330
1E
100
AcDbEntity
  8
0
  6
Continuous
100
AcDbText
 10
213.306607189134
 20
11.17997341501988
 30
0.0
 40
2.0
  1
Timo Kasi
  7
ROMANS
100
AcDbText
  0
TEXT
  5
338
330
1E
100
AcDbEntity
  8
RAAMI
  6
DASHED
100
AcDbText
 10
292.5595560456154
 20
12.15451134101524
 30
0.0
 40
3.0
  1
A3
  7
GREEKS
100
AcDbText
  0
TEXT
  5
339
330
1E
100
AcDbEntity
  8
RAAMI
  6
DASHED
100
AcDbText
 10
352.1609385301785
 20
16.0336821248964
 30
0.0
 40
1.399999999999999
  1
LEHTI SHEET
  7
GREEKS
100
AcDbText
  0
LINE
  5
33A
330
1E
100
AcDbEntity
  8
PAKSU
100
AcDbLine
 10
0.5794608709704362
 20
263.0791515336964
 30
0.0
 11
392.5794608709704
 21
263.0791515336964
 31
0.0
  0
LINE
  5
33B
330
1E
100
AcDbEntity
  8
RAAMI
100
AcDbLine
 10
18.57946087097043
 20
0.5791515336964367
 30
0.0
 11
0.5794608709704362
 21
0.5791515336964367
 31
0.0
  0
LINE
  5
33C
330
1E
100
AcDbEntity
  8
PAKSU
100
AcDbLine
 10
209.5794608709704
 20
0.5791515336964367
 30
0.0
 11
392.5794608709704
 21
0.5791515336964367
 31
0.0
  0
LINE
  5
33D
330
1E
100
AcDbEntity
  8
PAKSU
100
AcDbLine
 10
209.5794608709704
 20
0.5791515336964367
 30
0.0
 11
209.5794608709704
 21
35.57915153369644
 31
0.0
  0
LINE
  5
33E
330
1E
100
AcDbEntity
  8
PAKSU
100
AcDbLine
 10
392.5794608709704
 20
0.5791515336964367
 30
0.0
 11
392.5794608709704
 21
35.57915153369644
 31
0.0
  0
LINE
  5
33F
330
1E
100
AcDbEntity
  8
OHUT
100
AcDbLine
 10
209.5794608709704
 20
18.57915153369643
 30
0.0
 11
392.5794608709704
 21
18.57915153369643
 31
0.0
  0
LINE
  5
340
330
1E
100
AcDbEntity
  8
OHUT
100
AcDbLine
 10
209.5794608709704
 20
10.07915153369643
 30
0.0
 11
392.5794608709704
 21
10.07915153369643
 31
0.0
  0
LINE
  5
341
330
1E
100
AcDbEntity
  8
OHUT
100
AcDbLine
 10
209.5794608709704
 20
27.07915153369643
 30
0.0
 11
307.5794608709704
 21
27.07915153369643
 31
0.0
  0
LINE
  5
342
330
1E
100
AcDbEntity
  8
PAKSU
100
AcDbLine
 10
209.5794608709704
 20
35.57915153369644
 30
0.0
 11
392.5794608709704
 21
35.57915153369644
 31
0.0
  0
TEXT
  5
343
330
1E
100
AcDbEntity
  8
RAAMI
100
AcDbText
 10
210.5794608709704
 20
24.31248486702977
 30
0.0
 40
1.399999999999999
  1
TARKASTI  CHECKED
  7
ROMANS
100
AcDbText
  0
TEXT
  5
344
330
1E
100
AcDbEntity
  8
RAAMI
100
AcDbText
 10
210.3222955968368
 20
16.0458182003631
 30
0.0
 40
1.399999999999999
  1
HYVÄKSYI  APPROVED
  7
ROMANS
100
AcDbText
  0
LINE
  5
345
330
1E
100
AcDbEntity
  8
OHUT
100
AcDbLine
 10
307.5794608709704
 20
0.5791515336964367
 30
0.0
 11
307.5794608709704
 21
35.57915153369644
 31
0.0
  0
TEXT
  5
346
330
1E
100
AcDbEntity
  8
RAAMI
100
AcDbText
 10
259.5794608709704
 20
33.07915153369644
 30
0.0
 40
1.399999999999999
  1
LIITTYY  CONCERNING
  7
ROMANS
100
AcDbText
  0
TEXT
  5
347
330
1E
100
AcDbEntity
  8
RAAMI
100
AcDbText
 10
259.5794608709704
 20
24.07915153369643
 30
0.0
 40
1.399999999999999
  1
TOLERANSSIT  TOLERANCES
  7
ROMANS
100
AcDbText
  0
TEXT
  5
348
330
1E
100
AcDbEntity
  8
RAAMI
100
AcDbText
 10
259.5794608709704
 20
16.07915153369643
 30
0.0
 40
1.399999999999999
  1
SUHDE  SCALE
  7
ROMANS
100
AcDbText
  0
TEXT
  5
349
330
1E
100
AcDbEntity
  8
RAAMI
100
AcDbText
 10
309.5794608709704
 20
33.07915153369644
 30
0.0
 40
1.399999999999999
  1
NIMITYS  NAME
  7
ROMANS
100
AcDbText
  0
TEXT
  5
34A
330
1E
100
AcDbEntity
  8
RAAMI
100
AcDbText
 10
309.5794608709704
 20
16.07915153369643
 30
0.0
 40
1.399999999999999
  1
KOODI  CODE
  7
ROMANS
100
AcDbText
  0
TEXT
  5
34B
330
1E
100
AcDbEntity
  8
RAAMI
100
AcDbText
 10
309.5794608709704
 20
7.579151533696436
 30
0.0
 40
1.399999999999999
  1
PIIRUSTUS NO  DRAWING NR
  7
ROMANS
100
AcDbText
  0
LINE
  5
34C
330
1E
100
AcDbEntity
  8
OHUT
100
AcDbLine
 10
350.0794608709704
 20
10.07915153369643
 30
0.0
 11
350.0794608709704
 21
18.57915153369643
 31
0.0
  0
TEXT
  5
34D
330
1E
100
AcDbEntity
  8
RAAMI
100
AcDbText
 10
371.5794608709704
 20
7.579151533696436
 30
0.0
 40
1.399999999999999
  1
PAINOS  REVISION
  7
ROMANS
100
AcDbText
  0
LINE
  5
34E
330
1E
100
AcDbEntity
  8
OHUT
100
AcDbLine
 10
370.0794608709704
 20
10.07915153369643
 30
0.0
 11
370.0794608709704
 21
0.5791515336964367
 31
0.0
  0
LINE
  5
34F
330
1E
100
AcDbEntity
  8
RAAMI
100
AcDbLine
 10
210.5294608709704
 20
2.079151533696436
 30
0.0
 11
212.2794608709704
 21
2.079151533696436
 31
0.0
  0
LINE
  5
350
330
1E
100
AcDbEntity
  8
RAAMI
100
AcDbLine
 10
215.7794608709704
 20
2.079151533696436
 30
0.0
 11
217.5294608709704
 21
2.079151533696436
 31
0.0
  0
LINE
  5
351
330
1E
100
AcDbEntity
  8
RAAMI
100
AcDbLine
 10
212.9794608709704
 20
9.079151533696435
 30
0.0
 11
211.8019330313268
 21
5.714786277571715
 31
0.0
  0
LINE
  5
352
330
1E
100
AcDbEntity
  8
RAAMI
100
AcDbLine
 10
212.7682475690676
 20
3.479151533696435
 30
0.0
 11
213.8894608709704
 21
3.479151533696435
 31
0.0
  0
LINE
  5
353
330
1E
100
AcDbEntity
  8
RAAMI
100
AcDbLine
 10
212.7682507659331
 20
3.475694090732745
 30
0.0
 11
212.2794608709704
 21
2.079151533696436
 31
0.0
  0
LINE
  5
354
330
1E
100
AcDbEntity
  8
RAAMI
100
AcDbLine
 10
215.0794608709704
 20
9.079151533696435
 30
0.0
 11
216.255813796195
 21
5.718143175911966
 31
0.0
  0
LINE
  5
355
330
1E
100
AcDbEntity
  8
RAAMI
100
AcDbLine
 10
215.290558574256
 20
3.476015238594844
 30
0.0
 11
215.7794608709704
 21
2.079151533696436
 31
0.0
  0
LINE
  5
356
330
1E
100
AcDbEntity
  8
RAAMI
100
AcDbLine
 10
215.0794608709704
 20
9.079151533696435
 30
0.0
 11
214.1694608709704
 21
9.079151533696435
 31
0.0
  0
LINE
  5
357
330
1E
100
AcDbEntity
  8
RAAMI
100
AcDbLine
 10
213.8894608709704
 20
9.079151533696435
 30
0.0
 11
213.8894608709704
 21
5.719151533696437
 31
0.0
  0
LINE
  5
358
330
1E
100
AcDbEntity
  8
RAAMI
100
AcDbLine
 10
214.1694608709704
 20
9.079151533696435
 30
0.0
 11
214.1694608709704
 21
5.719151533696437
 31
0.0
  0
LINE
  5
359
330
1E
100
AcDbEntity
  8
RAAMI
100
AcDbLine
 10
214.1694608709704
 20
3.479151533696435
 30
0.0
 11
215.2893542643972
 21
3.479151533696435
 31
0.0
  0
LINE
  5
35A
330
1E
100
AcDbEntity
  8
RAAMI
100
AcDbLine
 10
213.8894608709704
 20
9.079151533696435
 30
0.0
 11
212.9794608709704
 21
9.079151533696435
 31
0.0
  0
LINE
  5
35B
330
1E
100
AcDbEntity
  8
RAAMI
100
AcDbLine
 10
211.80140158461
 20
5.719151533696437
 30
0.0
 11
213.8894608709704
 21
5.719151533696437
 31
0.0
  0
LINE
  5
35C
330
1E
100
AcDbEntity
  8
RAAMI
100
AcDbLine
 10
211.7024433604406
 20
5.439151533696436
 30
0.0
 11
213.8894608709704
 21
5.439151533696436
 31
0.0
  0
LINE
  5
35D
330
1E
100
AcDbEntity
  8
RAAMI
100
AcDbLine
 10
216.3539527846987
 20
5.437746065901284
 30
0.0
 11
217.5294608709704
 21
2.079151533696436
 31
0.0
  0
LINE
  5
35E
330
1E
100
AcDbEntity
  8
RAAMI
100
AcDbLine
 10
214.1694608709704
 20
5.719151533696437
 30
0.0
 11
216.2545745183976
 21
5.719151533696437
 31
0.0
  0
LINE
  5
35F
330
1E
100
AcDbEntity
  8
RAAMI
100
AcDbLine
 10
214.1694608709704
 20
5.439151533696436
 30
0.0
 11
216.3527174016903
 21
5.439151533696436
 31
0.0
  0
LINE
  5
360
330
1E
100
AcDbEntity
  8
RAAMI
100
AcDbLine
 10
214.1694608709704
 20
5.439151533696436
 30
0.0
 11
214.1694608709704
 21
3.479151533696435
 31
0.0
  0
LINE
  5
361
330
1E
100
AcDbEntity
  8
RAAMI
100
AcDbLine
 10
213.8894608709704
 20
5.439151533696436
 30
0.0
 11
213.8894608709704
 21
3.479151533696435
 31
0.0
  0
LINE
  5
362
330
1E
100
AcDbEntity
  8
RAAMI
100
AcDbLine
 10
211.6993495123958
 20
5.42169050919755
 30
0.0
 11
210.5294608709704
 21
2.079151533696436
 31
0.0
  0
INSERT
  5
363
330
1E
100
AcDbEntity
  8
RAAMI
100
AcDbBlockReference
  2
*X15
 10
210.5294608709704
 20
2.079151533696436
 30
0.0
 41
0.7
 42
0.7
 43
0.7
  0
INSERT
  5
364
330
1E
100
AcDbEntity
  8
RAAMI
100
AcDbBlockReference
  2
*X16
 10
210.5294608709704
 20
2.079151533696436
 30
0.0
 41
0.7
 42
0.7
 43
0.7
  0
INSERT
  5
365
330
1E
100
AcDbEntity
  8
RAAMI
100
AcDbBlockReference
  2
*X17
 10
210.5294608709704
 20
2.079151533696436
 30
0.0
 41
0.7
 42
0.7
 43
0.7
  0
INSERT
  5
366
330
1E
100
AcDbEntity
  8
RAAMI
100
AcDbBlockReference
  2
*X18
 10
210.5294608709704
 20
2.079151533696436
 30
0.0
 41
0.7
 42
0.7
 43
0.7
  0
LINE
  5
367
330
1E
100
AcDbEntity
  8
RAAMI
100
AcDbLine
 10
218.0194608709704
 20
2.079151533696436
 30
0.0
 11
218.0194608709704
 21
5.439151533696436
 31
0.0
  0
LINE
  5
368
330
1E
100
AcDbEntity
  8
RAAMI
100
AcDbLine
 10
218.0194608709704
 20
9.079151533696435
 30
0.0
 11
219.9794608709704
 21
9.079151533696435
 31
0.0
  0
LINE
  5
369
330
1E
100
AcDbEntity
  8
RAAMI
100
AcDbLine
 10
219.9794608709704
 20
9.079151533696435
 30
0.0
 11
219.9794608709704
 21
5.719151533696437
 31
0.0
  0
LINE
  5
36A
330
1E
100
AcDbEntity
  8
RAAMI
100
AcDbLine
 10
219.9794608709704
 20
5.719151533696437
 30
0.0
 11
218.0194608709704
 21
5.719151533696437
 31
0.0
  0
LINE
  5
36B
330
1E
100
AcDbEntity
  8
RAAMI
100
AcDbLine
 10
218.0194608709704
 20
5.439151533696436
 30
0.0
 11
219.9794608709704
 21
5.439151533696436
 31
0.0
  0
LINE
  5
36C
330
1E
100
AcDbEntity
  8
RAAMI
100
AcDbLine
 10
219.9794608709704
 20
5.439151533696436
 30
0.0
 11
219.9794608709704
 21
2.079151533696436
 31
0.0
  0
LINE
  5
36D
330
1E
100
AcDbEntity
  8
RAAMI
100
AcDbLine
 10
219.9794608709704
 20
2.079151533696436
 30
0.0
 11
218.0194608709704
 21
2.079151533696436
 31
0.0
  0
LINE
  5
36E
330
1E
100
AcDbEntity
  8
RAAMI
100
AcDbLine
 10
218.0194608709704
 20
5.719151533696437
 30
0.0
 11
218.0194608709704
 21
9.079151533696435
 31
0.0
  0
ARC
  5
36F
330
1E
100
AcDbEntity
  8
RAAMI
100
AcDbCircle
 10
220.8194608709704
 20
7.504151533696433
 30
0.0
 40
1.574999999999998
100
AcDbArc
 50
298.4558593394117
 51
90.0524369955635
  0
LINE
  5
370
330
1E
100
AcDbEntity
  8
RAAMI
100
AcDbLine
 10
220.2594608709704
 20
9.079151533696435
 30
0.0
 11
220.8180194339713
 21
9.079150874096097
 31
0.0
  0
LINE
  5
371
330
1E
100
AcDbEntity
  8
RAAMI
100
AcDbLine
 10
220.2594608709704
 20
9.079151533696435
 30
0.0
 11
220.2594608709704
 21
5.719151533696437
 31
0.0
  0
LINE
  5
372
330
1E
100
AcDbEntity
  8
RAAMI
100
AcDbLine
 10
220.2594608709704
 20
5.719151533696437
 30
0.0
 11
222.2439036375075
 21
5.719151533696437
 31
0.0
  0
LINE
  5
373
330
1E
100
AcDbEntity
  8
RAAMI
100
AcDbLine
 10
222.4994608709704
 20
5.439151533696436
 30
0.0
 11
220.2594608709704
 21
5.439151533696436
 31
0.0
  0
LINE
  5
374
330
1E
100
AcDbEntity
  8
RAAMI
100
AcDbLine
 10
220.2594608709704
 20
5.439151533696436
 30
0.0
 11
220.2594608709704
 21
2.079151533696436
 31
0.0
  0
ARC
  5
375
330
1E
100
AcDbEntity
  8
RAAMI
100
AcDbCircle
 10
220.8194608709704
 20
4.179151533696438
 30
0.0
 40
2.099999999999998
100
AcDbArc
 50
269.9377244294032
 51
37.05655321680703
  0
LINE
  5
376
330
1E
100
AcDbEntity
  8
RAAMI
100
AcDbLine
 10
220.2594608709704
 20
2.079151533696436
 30
0.0
 11
220.8171783525438
 21
2.079152774146892
 31
0.0
  0
ARC
  5
377
330
1E
100
AcDbEntity
  8
RAAMI
100
AcDbCircle
 10
220.8194608709704
 20
4.179151533696438
 30
0.0
 40
2.099999999999998
100
AcDbArc
 50
47.28621969132301
 51
68.78799932186918
  0
INSERT
  5
378
330
1E
100
AcDbEntity
  8
RAAMI
100
AcDbBlockReference
  2
*X19
 10
210.5294608709704
 20
2.079151533696436
 30
0.0
 41
0.7
 42
0.7
 43
0.7
  0
INSERT
  5
379
330
1E
100
AcDbEntity
  8
RAAMI
100
AcDbBlockReference
  2
*X20
 10
210.5294608709704
 20
2.079151533696436
 30
0.0
 41
0.7
 42
0.7
 43
0.7
  0
INSERT
  5
37A
330
1E
100
AcDbEntity
  8
RAAMI
100
AcDbBlockReference
  2
*X21
 10
210.5294608709704
 20
2.079151533696436
 30
0.0
 41
0.7
 42
0.7
 43
0.7
  0
INSERT
  5
37B
330
1E
100
AcDbEntity
  8
RAAMI
100
AcDbBlockReference
  2
*X22
 10
210.5294608709704
 20
2.079151533696436
 30
0.0
 41
0.7
 42
0.7
 43
0.7
  0
INSERT
  5
37C
330
1E
100
AcDbEntity
  8
RAAMI
100
AcDbBlockReference
  2
*X22
 10
215.9894608709704
 20
2.079151533696436
 30
0.0
 41
0.7
 42
0.7
 43
0.7
  0
INSERT
  5
37D
330
1E
100
AcDbEntity
  8
RAAMI
100
AcDbBlockReference
  2
*X21
 10
215.9894608709704
 20
2.079151533696436
 30
0.0
 41
0.7
 42
0.7
 43
0.7
  0
INSERT
  5
37E
330
1E
100
AcDbEntity
  8
RAAMI
100
AcDbBlockReference
  2
*X20
 10
215.9894608709704
 20
2.079151533696436
 30
0.0
 41
0.7
 42
0.7
 43
0.7
  0
INSERT
  5
37F
330
1E
100
AcDbEntity
  8
RAAMI
100
AcDbBlockReference
  2
*X19
 10
215.9894608709704
 20
2.079151533696436
 30
0.0
 41
0.7
 42
0.7
 43
0.7
  0
ARC
  5
380
330
1E
100
AcDbEntity
  8
RAAMI
100
AcDbCircle
 10
226.2794608709704
 20
4.179151533696438
 30
0.0
 40
2.099999999999998
100
AcDbArc
 50
47.28621969132301
 51
68.78799932186918
  0
LINE
  5
381
330
1E
100
AcDbEntity
  8
RAAMI
100
AcDbLine
 10
225.7194608709704
 20
2.079151533696436
 30
0.0
 11
226.2771783525438
 21
2.079152774146892
 31
0.0
  0
ARC
  5
382
330
1E
100
AcDbEntity
  8
RAAMI
100
AcDbCircle
 10
226.2794608709704
 20
4.179151533696438
 30
0.0
 40
2.099999999999998
100
AcDbArc
 50
269.9377244294032
 51
37.05655321680703
  0
LINE
  5
383
330
1E
100
AcDbEntity
  8
RAAMI
100
AcDbLine
 10
225.7194608709704
 20
5.439151533696436
 30
0.0
 11
225.7194608709704
 21
2.079151533696436
 31
0.0
  0
LINE
  5
384
330
1E
100
AcDbEntity
  8
RAAMI
100
AcDbLine
 10
227.9594608709704
 20
5.439151533696436
 30
0.0
 11
225.7194608709704
 21
5.439151533696436
 31
0.0
  0
LINE
  5
385
330
1E
100
AcDbEntity
  8
RAAMI
100
AcDbLine
 10
225.7194608709704
 20
5.719151533696437
 30
0.0
 11
227.7039036375075
 21
5.719151533696437
 31
0.0
  0
LINE
  5
386
330
1E
100
AcDbEntity
  8
RAAMI
100
AcDbLine
 10
225.7194608709704
 20
9.079151533696435
 30
0.0
 11
225.7194608709704
 21
5.719151533696437
 31
0.0
  0
LINE
  5
387
330
1E
100
AcDbEntity
  8
RAAMI
100
AcDbLine
 10
225.7194608709704
 20
9.079151533696435
 30
0.0
 11
226.2780194339713
 21
9.079150874096097
 31
0.0
  0
ARC
  5
388
330
1E
100
AcDbEntity
  8
RAAMI
100
AcDbCircle
 10
226.2794608709704
 20
7.504151533696433
 30
0.0
 40
1.574999999999998
100
AcDbArc
 50
298.4558593394117
 51
90.0524369955635
  0
LINE
  5
389
330
1E
100
AcDbEntity
  8
RAAMI
100
AcDbLine
 10
223.4794608709704
 20
5.719151533696437
 30
0.0
 11
223.4794608709704
 21
9.079151533696435
 31
0.0
  0
LINE
  5
38A
330
1E
100
AcDbEntity
  8
RAAMI
100
AcDbLine
 10
225.4394608709704
 20
2.079151533696436
 30
0.0
 11
223.4794608709704
 21
2.079151533696436
 31
0.0
  0
LINE
  5
38B
330
1E
100
AcDbEntity
  8
RAAMI
100
AcDbLine
 10
225.4394608709704
 20
5.439151533696436
 30
0.0
 11
225.4394608709704
 21
2.079151533696436
 31
0.0
  0
LINE
  5
38C
330
1E
100
AcDbEntity
  8
RAAMI
100
AcDbLine
 10
223.4794608709704
 20
5.439151533696436
 30
0.0
 11
225.4394608709704
 21
5.439151533696436
 31
0.0
  0
LINE
  5
38D
330
1E
100
AcDbEntity
  8
RAAMI
100
AcDbLine
 10
225.4394608709704
 20
5.719151533696437
 30
0.0
 11
223.4794608709704
 21
5.719151533696437
 31
0.0
  0
LINE
  5
38E
330
1E
100
AcDbEntity
  8
RAAMI
100
AcDbLine
 10
225.4394608709704
 20
9.079151533696435
 30
0.0
 11
225.4394608709704
 21
5.719151533696437
 31
0.0
  0
LINE
  5
38F
330
1E
100
AcDbEntity
  8
RAAMI
100
AcDbLine
 10
223.4794608709704
 20
9.079151533696435
 30
0.0
 11
225.4394608709704
 21
9.079151533696435
 31
0.0
  0
LINE
  5
390
330
1E
100
AcDbEntity
  8
RAAMI
100
AcDbLine
 10
223.4794608709704
 20
2.079151533696436
 30
0.0
 11
223.4794608709704
 21
5.439151533696436
 31
0.0
  0
TEXT
  5
391
330
1E
100
AcDbEntity
  8
RAAMI
100
AcDbText
 10
230.0794608709704
 20
2.079151533696436
 30
0.0
 40
3.0
  1
ABB Transmit Oy
 41
0.8
  7
ROMANS
100
AcDbText
  0
LINE
  5
392
330
1E
100
AcDbEntity
  8
OHUT
100
AcDbLine
 10
282.5794608709704
 20
10.07915153369643
 30
0.0
 11
282.5794608709704
 21
18.57915153369643
 31
0.0
  0
TEXT
  5
393
330
1E
100
AcDbEntity
  8
RAAMI
100
AcDbText
 10
28.07946087097043
 20
5.079151533696436
 30
0.0
 40
1.399999999999999
  1
MUUTOS
  7
ROMANS
100
AcDbText
  0
TEXT
  5
394
330
1E
100
AcDbEntity
  8
RAAMI
100
AcDbText
 10
28.07946087097043
 20
2.812484867029771
 30
0.0
 40
1.399999999999999
  1
REVISION
  7
ROMANS
100
AcDbText
  0
LINE
  5
395
330
1E
100
AcDbEntity
  8
OHUT
100
AcDbLine
 10
47.07946087097043
 20
9.579151533696435
 30
0.0
 11
209.5794608709704
 21
9.579151533696435
 31
0.0
  0
LINE
  5
396
330
1E
100
AcDbEntity
  8
OHUT
100
AcDbLine
 10
47.07946087097043
 20
0.5791515336964367
 30
0.0
 11
47.07946087097043
 21
9.579151533696435
 31
0.0
  0
LINE
  5
397
330
1E
100
AcDbEntity
  8
OHUT
100
AcDbLine
 10
41.07946087097043
 20
5.079151533696436
 30
0.0
 11
209.5794608709704
 21
5.079151533696436
 31
0.0
  0
LINE
  5
398
330
1E
100
AcDbEntity
  8
OHUT
100
AcDbLine
 10
257.5794608709704
 20
10.07915153369643
 30
0.0
 11
257.5794608709704
 21
35.57915153369644
 31
0.0
  0
LINE
  5
399
330
1E
100
AcDbEntity
  8
OHUT
100
AcDbLine
 10
271.5794608709704
 20
10.07915153369643
 30
0.0
 11
271.5794608709704
 21
0.5791515336964367
 31
0.0
  0
TEXT
  5
39A
330
1E
100
AcDbEntity
  8
RAAMI
100
AcDbText
 10
210.5794608709704
 20
32.57915153369644
 30
0.0
 40
1.399999999999999
  1
TEKI  PREPARED
  7
ROMANS
100
AcDbText
  0
TEXT
  5
39B
330
1E
100
AcDbEntity
  8
RAAMI
100
AcDbText
 10
273.5794608709704
 20
7.579151533696436
 30
0.0
 40
1.399999999999999
  1
VAST.OSASTO RESP.DEPT.
  7
ROMANS
100
AcDbText
  0
TEXT
  5
39C
330
1E
100
AcDbEntity
  8
RAAMI
100
AcDbText
 10
42.57946087097043
 20
1.536444345838026
 30
0.0
 40
2.5
  1
B
  7
ROMANS
100
AcDbText
  0
TEXT
  5
39D
330
1E
100
AcDbEntity
  8
RAAMI
100
AcDbText
 10
42.57946087097043
 20
5.928660732579046
 30
0.0
 40
2.5
  1
C
  7
ROMANS
100
AcDbText
  0
LINE
  5
39E
330
1E
100
AcDbEntity
  8
PAKSU
100
AcDbLine
 10
0.5794608709704362
 20
0.5791515336964367
 30
0.0
 11
392.5794608709704
 21
0.5791515336964367
 31
0.0
  0
LINE
  5
39F
330
1E
100
AcDbEntity
  8
PAKSU
100
AcDbLine
 10
392.5794608709704
 20
263.0791515336964
 30
0.0
 11
392.5794608709704
 21
0.5791515336964367
 31
0.0
  0
LINE
  5
3A0
330
1E
100
AcDbEntity
  8
PAKSU
100
AcDbLine
 10
0.5794608709704362
 20
0.5791515336964367
 30
0.0
 11
0.5794608709704362
 21
263.0791515336964
 31
0.0
  0
TEXT
  5
3A1
330
1E
100
AcDbEntity
  8
0
  6
Continuous
100
AcDbText
 10
281.9225863680535
 20
2.5
 30
0.0
 40
2.5
  1
RSG
  7
ROMANS
100
AcDbText
  0
LINE
  5
3A2
330
1E
100
AcDbEntity
  8
0
  6
Continuous
100
AcDbLine
 10
344.7207930958199
 20
135.69754403823
 30
0.0
 11
345.6076799700404
 21
135.69754403823
 31
0.0
  0
LINE
  5
3A3
330
1E
100
AcDbEntity
  8
0
  6
Continuous
100
AcDbLine
 10
344.3896886627775
 20
136.3091771250301
 30
0.0
 11
345.9742598780516
 21
136.3091771250301
 31
0.0
  0
LINE
  5
3A4
330
1E
100
AcDbEntity
  8
0
  6
Continuous
100
AcDbLine
 10
345.2056245870604
 20
136.9312393362847
 30
0.0
 11
346.3999655776774
 21
136.9312393362847
 31
0.0
  0
LINE
  5
3A5
330
1E
100
AcDbEntity
  8
0
  6
Continuous
100
AcDbLine
 10
344.0112835964435
 20
136.9312393362847
 30
0.0
 11
345.2056245870604
 21
136.9312393362847
 31
0.0
  0
LINE
  5
3A6
330
1E
100
AcDbEntity
  8
0
  6
Continuous
100
AcDbLine
 10
345.2215112743918
 20
138.2855097330458
 30
0.0
 11
345.2215112743918
 21
136.9312393362847
 31
0.0
  0
LINE
  5
3A7
330
1E
100
AcDbEntity
  8
0
  6
Continuous
100
AcDbLine
 10
344.5530548167442
 20
142.9085963460626
 30
0.0
 11
345.4399416909647
 21
142.9085963460626
 31
0.0
  0
LINE
  5
3A8
330
1E
100
AcDbEntity
  8
0
  6
Continuous
100
AcDbLine
 10
344.2219503837018
 20
143.5202294328627
 30
0.0
 11
345.8065215989758
 21
143.5202294328627
 31
0.0
  0
LINE
  5
3A9
330
1E
100
AcDbEntity
  8
0
  6
Continuous
100
AcDbLine
 10
345.0378863079848
 20
144.1422916441174
 30
0.0
 11
346.2322272986017
 21
144.1422916441174
 31
0.0
  0
LINE
  5
3AA
330
1E
100
AcDbEntity
  8
0
  6
Continuous
100
AcDbLine
 10
343.8435453173678
 20
144.1422916441174
 30
0.0
 11
345.0378863079848
 21
144.1422916441174
 31
0.0
  0
LINE
  5
3AB
330
1E
100
AcDbEntity
  8
0
  6
Continuous
100
AcDbLine
 10
345.053772995316
 20
145.4965620408785
 30
0.0
 11
345.053772995316
 21
144.1422916441174
 31
0.0
  0
TEXT
  5
3AC
330
1E
100
AcDbEntity
  8
BASE
  6
Continuous
100
AcDbText
 10
368.7965269766201
 20
243.7276261916641
 30
0.0
 40
2.0
  1
SPCS 2D32
  7
ROMANS
100
AcDbText
  0
LINE
  5
3AD
330
1E
100
AcDbEntity
  8
SWEDEN2
  6
HIDDEN
100
AcDbLine
 10
338.3836188985299
 20
156.7809764941044
 30
0.0
 11
387.9750083805248
 21
156.7809764941044
 31
0.0
  0
LINE
  5
3AE
330
1E
100
AcDbEntity
  8
SWEDEN2
  6
HIDDEN
100
AcDbLine
 10
338.3836188985299
 20
149.0598997674507
 30
0.0
 11
387.9750083805248
 21
149.0598997674507
 31
0.0
  0
LINE
  5
3AF
330
1E
100
AcDbEntity
  8
1
  6
Continuous
100
AcDbLine
 10
170.587048160666
 20
256.7145793016208
 30
0.0
 11
170.5136512716219
 21
221.7397088247724
 31
0.0
  0
LWPOLYLINE
  5
3B0
330
1E
100
AcDbEntity
  8
BASE
  6
Continuous
100
AcDbPolyline
 90
        2
 70
     1
 43
0.5
 10
170.087048160666
 20
231.5420434219223
 42
1.0
 10
171.087048160666
 20
231.5420434219223
 42
1.0
  0
LWPOLYLINE
  5
3B4
330
1E
100
AcDbEntity
  8
BASE
  6
Continuous
100
AcDbPolyline
 90
        2
 70
     1
 43
0.5
 10
170.087048160666
 20
226.5420434219223
 42
1.0
 10
171.087048160666
 20
226.5420434219223
 42
1.0
  0
TEXT
  5
3B8
330
1E
100
AcDbEntity
  8
0
  6
Continuous
100
AcDbText
 10
173.1263644947399
 20
255.413513488987
 30
0.0
 40
1.5
  1
BS2
  7
ROMANS
100
AcDbText
  0
LINE
  5
3B9
330
1E
100
AcDbEntity
  8
BASE
  6
Continuous
100
AcDbLine
 10
193.0136512716219
 20
231.7397088247724
 30
0.0
 11
170.5136512716219
 21
231.7397088247724
 31
0.0
  0
LINE
  5
3BA
330
1E
100
AcDbEntity
  8
BASE
  6
Continuous
100
AcDbLine
 10
193.0136512716219
 20
226.7397088247724
 30
0.0
 11
170.5136512716219
 21
226.7397088247724
 31
0.0
  0
LINE
  5
3BB
330
1E
100
AcDbEntity
  8
BASE
  6
Continuous
100
AcDbLine
 10
193.0136512716219
 20
221.7397088247724
 30
0.0
 11
170.5136512716219
 21
221.7397088247724
 31
0.0
  0
LINE
  5
3BC
330
1E
100
AcDbEntity
  8
BASE
  6
Continuous
100
AcDbLine
 10
200.5136512716219
 20
218.8722313534212
 30
0.0
 11
191.8977651939472
 21
223.6942863111954
 31
0.0
  0
LINE
  5
3BD
330
1E
100
AcDbEntity
  8
SWEDEN2
  6
Continuous
 62
     6
100
AcDbLine
 10
200.5136512716219
 20
218.9009000187751
 30
0.0
 11
222.308395763215
 21
218.9009000187751
 31
0.0
  0
LINE
  5
3BE
330
1E
100
AcDbEntity
  8
SWEDEN2
  6
Continuous
 62
     6
100
AcDbLine
 10
222.308395763215
 20
218.9009000187751
 30
0.0
 11
222.308395763215
 21
199.3793784355555
 31
0.0
  0
LINE
  5
3BF
330
1E
100
AcDbEntity
  8
SWEDEN2
  6
Continuous
 62
     6
100
AcDbLine
 10
200.5136512716219
 20
223.900900018775
 30
0.0
 11
227.7528084726358
 21
223.900900018775
 31
0.0
  0
LINE
  5
3C0
330
1E
100
AcDbEntity
  8
SWEDEN2
  6
Continuous
 62
     6
100
AcDbLine
 10
227.7528084726358
 20
223.900900018775
 30
0.0
 11
227.7528084726358
 21
204.307509841684
 31
0.0
  0
LINE
  5
3C1
330
1E
100
AcDbEntity
  8
SWEDEN2
  6
Continuous
 62
     6
100
AcDbLine
 10
200.5136512716219
 20
228.9009000187751
 30
0.0
 11
233.1972201317316
 21
228.9009000187751
 31
0.0
  0
LINE
  5
3C2
330
1E
100
AcDbEntity
  8
SWEDEN2
  6
Continuous
 62
     6
100
AcDbLine
 10
233.1972201317316
 20
228.9009000187751
 30
0.0
 11
233.1972201317316
 21
209.2356412478125
 31
0.0
  0
LWPOLYLINE
  5
3C3
330
1E
100
AcDbEntity
  8
BASE
  6
Continuous
100
AcDbPolyline
 90
        2
 70
     1
 43
0.5
 10
221.8421668598717
 20
199.3668288638509
 42
1.0
 10
222.8421668598717
 20
199.3668288638509
 42
1.0
  0
LWPOLYLINE
  5
3C7
330
1E
100
AcDbEntity
  8
BASE
  6
Continuous
100
AcDbPolyline
 90
        2
 70
     1
 43
0.5
 10
227.2837846547214
 20
204.309900453603
 42
1.0
 10
228.2837846547214
 20
204.309900453603
 42
1.0
  0
LWPOLYLINE
  5
3CB
330
1E
100
AcDbEntity
  8
BASE
  6
Continuous
100
AcDbPolyline
 90
        2
 70
     1
 43
0.5
 10
232.7254013992461
 20
209.3353565589857
 42
1.0
 10
233.7254013992462
 20
209.3353565589857
 42
1.0
  0
TEXT
  5
3CF
330
1E
100
AcDbEntity
  8
BASE
  6
Continuous
100
AcDbText
 10
175.2486567266222
 20
228.4223907669442
 30
0.0
 40
2.0
  1
SGB2/1
  7
ROMANS
100
AcDbText
  0
TEXT
  5
3D0
330
1E
100
AcDbEntity
  8
BASE
  6
Continuous
100
AcDbText
 10
175.2486567266222
 20
223.4056108057895
 30
0.0
 40
2.0
  1
SGB2/2
  7
ROMANS
100
AcDbText
  0
TEXT
  5
3D1
330
1E
100
AcDbEntity
  8
BASE
  6
Continuous
100
AcDbText
 10
175.2486567266222
 20
218.3801532846976
 30
0.0
 40
2.0
  1
SGB2/3
  7
ROMANS
100
AcDbText
  0
LINE
  5
3D2
330
1E
100
AcDbEntity
  8
BASE
  6
Continuous
100
AcDbLine
 10
359.0335501154665
 20
150.0468357715556
 30
0.0
 11
363.3477161653154
 21
154.2896736420187
 31
0.0
  0
LINE
  5
3D3
330
1E
100
AcDbEntity
  8
BASE
  6
Continuous
100
AcDbLine
 10
355.4573335215129
 20
151.7982397762235
 30
0.0
 11
367.1396410617614
 21
151.7982397762235
 31
0.0
  0
LINE
  5
3D4
330
1E
100
AcDbEntity
  8
BASE
  6
Continuous
100
AcDbLine
 10
355.4107859404487
 20
153.0661576049549
 30
0.0
 11
355.4107859404487
 21
150.3839604860691
 31
0.0
  0
LINE
  5
3D5
330
1E
100
AcDbEntity
  8
BASE
  6
Continuous
100
AcDbLine
 10
367.1328292206301
 20
153.0661576049549
 30
0.0
 11
367.1328292206301
 21
150.3839604860691
 31
0.0
  0
LINE
  5
3D6
330
1E
100
AcDbEntity
  8
BASE
  6
Continuous
100
AcDbLine
 10
362.6665320521813
 20
155.0954839352461
 30
0.0
 11
364.0175472098972
 21
153.4098603626784
 31
0.0
  0
TEXT
  5
3D7
330
1E
100
AcDbEntity
  8
BASE
  6
Continuous
100
AcDbText
 10
52.02380890111669
 20
212.2991507670968
 30
0.0
 40
2.0
  1

  7
ROMANS
100
AcDbText
  0
TEXT
  5
3D8
330
1E
100
AcDbEntity
  8
BASE
  6
Continuous
100
AcDbText
 10
62.95634884248648
 20
182.605346321263
 30
0.0
 40
2.0
  1

  7
ROMANS
100
AcDbText
  0
LINE
  5
3D9
330
1E
100
AcDbEntity
  8
1
  6
Continuous
100
AcDbLine
 10
43.17460263443587
 20
193.9146764333493
 30
0.0
 11
50.67460263443587
 21
193.9146764333493
 31
0.0
  0
LINE
  5
3DA
330
1E
100
AcDbEntity
  8
1
  6
Continuous
100
AcDbLine
 10
43.17460263443587
 20
198.9146764333492
 30
0.0
 11
50.67460263443587
 21
198.9146764333492
 31
0.0
  0
LINE
  5
3DB
330
1E
100
AcDbEntity
  8
BASE
  6
Continuous
100
AcDbLine
 10
13.17460263443587
 20
196.6683143928348
 30
0.0
 11
35.67460263443587
 21
196.6683143928348
 31
0.0
  0
LINE
  5
3DC
330
1E
100
AcDbEntity
  8
BASE
  6
Continuous
100
AcDbLine
 10
35.67460263443587
 20
201.6683143928348
 30
0.0
 11
13.17460263443587
 21
201.6683143928348
 31
0.0
  0
LWPOLYLINE
  5
3DD
330
1E
100
AcDbEntity
  8
BASE
  6
Continuous
100
AcDbPolyline
 90
        2
 70
     1
 43
0.5
 10
12.67460263443587
 20
201.6683143928348
 42
1.0
 10
13.67460263443587
 20
201.6683143928348
 42
1.0
  0
LWPOLYLINE
  5
3E1
330
1E
100
AcDbEntity
  8
BASE
  6
Continuous
100
AcDbPolyline
 90
        2
 70
     1
 43
0.5
 10
12.67460263443587
 20
206.5418013781695
 42
1.0
 10
13.67460263443587
 20
206.5418013781695
 42
1.0
  0
TEXT
  5
3E5
330
1E
100
AcDbEntity
  8
BASE
  6
Continuous
100
AcDbText
 10
15.67460263443587
 20
198.2518904011287
 30
0.0
 40
2.0
  1
SGB1/7
  7
ROMANS
100
AcDbText
  0
TEXT
  5
3E6
330
1E
100
AcDbEntity
  8
BASE
  6
Continuous
100
AcDbText
 10
14.30995539827154
 20
207.8347609567817
 30
0.0
 40
2.0
  1

  7
ROMANS
100
AcDbText
  0
TEXT
  5
3E7
330
1E
100
AcDbEntity
  8
BASE
  6
Continuous
100
AcDbText
 10
53.17460263443587
 20
213.123379068029
 30
0.0
 40
2.0
  1
BACTRL
  7
ROMANS
100
AcDbText
  0
LINE
  5
3E8
330
1E
100
AcDbEntity
  8
BASE
  6
Continuous
100
AcDbLine
 10
200.5136512716219
 20
228.7284941656783
 30
0.0
 11
191.8977651939472
 21
233.5505491234525
 31
0.0
  0
LINE
  5
3E9
330
1E
100
AcDbEntity
  8
BASE
  6
Continuous
100
AcDbLine
 10
200.5136512716219
 20
223.8722313534212
 30
0.0
 11
191.8977651939472
 21
228.6942863111955
 31
0.0
  0
TEXT
  5
3EA
330
1E
100
AcDbEntity
  8
0
  6
Continuous
100
AcDbText
 10
233.858006792373
 20
38.32648843836636
 30
0.0
 40
2.0
  1
TS1
 50
90.0
  7
ROMANS
100
AcDbText
  0
TEXT
  5
3EB
330
1E
100
AcDbEntity
  8
BASE
  6
Continuous
100
AcDbText
 10
228.864340273022
 20
88.4542508940296
 30
0.0
 40
2.25
  1
SGR2/2
 50
90.0
  7
ROMANS
100
AcDbText
  0
LINE
  5
3EC
330
1E
100
AcDbEntity
  8
SWEDEN2
  6
Continuous
100
AcDbLine
 10
221.722852412867
 20
65.75205322075817
 30
0.0
 11
247.3139985765461
 21
65.75205322075817
 31
0.0
  0
LINE
  5
3ED
330
1E
100
AcDbEntity
  8
SWEDEN2
  6
Continuous
100
AcDbLine
 10
247.3139985765461
 20
73.25205322075817
 30
0.0
 11
221.722852412867
 21
73.25205322075817
 31
0.0
  0
LWPOLYLINE
  5
3EE
330
1E
100
AcDbEntity
  8
BASE
  6
Continuous
100
AcDbPolyline
 90
        2
 70
     1
 43
0.5
 10
224.9998623427881
 20
159.5020532207581
 42
1.0
 10
225.9998623427881
 20
159.5020532207581
 42
1.0
  0
LINE
  5
3F2
330
1E
100
AcDbEntity
  8
1
  6
Continuous
100
AcDbLine
 10
225.4998623427881
 20
88.25205322075817
 30
0.0
 11
225.4998623427881
 21
159.5020532207581
 31
0.0
  0
TEXT
  5
3F3
330
1E
100
AcDbEntity
  8
BASE
  6
Continuous
100
AcDbText
 10
225.1143402730219
 20
88.4542508940296
 30
0.0
 40
2.25
  1
SGR1/2
 50
90.0
  7
ROMANS
100
AcDbText
  0
LINE
  5
3F4
330
1E
100
AcDbEntity
  8
BASE
  6
Continuous
100
AcDbLine
 10
226.0752586842853
 20
73.25205322075817
 30
0.0
 11
226.0752586842853
 21
77.00205322075817
 31
0.0
  0
LINE
  5
3F5
330
1E
100
AcDbEntity
  8
SWEDEN2
  6
Continuous
100
AcDbLine
 10
221.722852412867
 20
73.25205322075817
 30
0.0
 11
221.722852412867
 21
65.75205322075817
 31
0.0
  0
LINE
  5
3F6
330
1E
100
AcDbEntity
  8
BASE
  6
Continuous
100
AcDbLine
 10
228.6238034904516
 20
71.93887638124121
 30
0.0
 11
232.14245175879
 21
69.9358458141881
 31
0.0
  0
LINE
  5
3F7
330
1E
100
AcDbEntity
  8
BASE
  6
Continuous
100
AcDbLine
 10
228.6117408744217
 20
66.95094648593246
 30
0.0
 11
232.1869315240426
 21
68.73323424773326
 31
0.0
  0
LINE
  5
3F8
330
1E
100
AcDbEntity
  8
BASE
  6
Continuous
100
AcDbLine
 10
232.14245175879
 20
69.9358458141881
 30
0.0
 11
228.6238034904516
 21
68.15096709107144
 31
0.0
  0
TEXT
  5
3F9
330
1E
100
AcDbEntity
  8
BASE
  6
Continuous
100
AcDbText
 10
235.2745961759879
 20
67.94873595360215
 30
0.0
 40
3.75
  1
1
 11
235.2745961759879
 21
66.69873595360215
 31
0.0
100
AcDbText
 73
     1
  0
LINE
  5
3FA
330
1E
100
AcDbEntity
  8
BASE
  6
Continuous
100
AcDbLine
 10
225.4998623427881
 20
84.50205322075817
 30
0.0
 11
225.4998623427881
 21
88.25205322075817
 31
0.0
  0
LINE
  5
3FB
330
1E
100
AcDbEntity
  8
BASE
  6
Continuous
100
AcDbLine
 10
226.0752586842853
 20
77.00205322075817
 30
0.0
 11
223.498574295421
 21
84.52450159799994
 31
0.0
  0
LINE
  5
3FC
330
1E
100
AcDbEntity
  8
1
  6
Continuous
100
AcDbLine
 10
229.2498623427881
 20
88.25205322075817
 30
0.0
 11
229.2498623427881
 21
152.0020532207581
 31
0.0
  0
LINE
  5
3FD
330
1E
100
AcDbEntity
  8
1
  6
Continuous
100
AcDbLine
 10
232.9998623427881
 20
88.25205322075817
 30
0.0
 11
232.9998623427881
 21
144.5020532207581
 31
0.0
  0
LINE
  5
3FE
330
1E
100
AcDbEntity
  8
1
  6
Continuous
100
AcDbLine
 10
236.7498623427881
 20
88.25205322075817
 30
0.0
 11
236.7498623427882
 21
137.0020532207582
 31
0.0
  0
TEXT
  5
3FF
330
1E
100
AcDbEntity
  8
BASE
  6
Continuous
100
AcDbText
 10
239.8406660106588
 20
88.4542508940296
 30
0.0
 40
2.25
  1
SGR5/2
 50
90.0
  7
ROMANS
100
AcDbText
  0
TEXT
  5
400
330
1E
100
AcDbEntity
  8
BASE
  6
Continuous
100
AcDbText
 10
236.0648076318153
 20
88.4542508940296
 30
0.0
 40
2.25
  1
SGR4/2
 50
90.0
  7
ROMANS
100
AcDbText
  0
TEXT
  5
401
330
1E
100
AcDbEntity
  8
BASE
  6
Continuous
100
AcDbText
 10
232.5626235153349
 20
88.4542508940296
 30
0.0
 40
2.25
  1
SGR3/2
 50
90.0
  7
ROMANS
100
AcDbText
  0
LINE
  5
402
330
1E
100
AcDbEntity
  8
BASE
  6
Continuous
100
AcDbLine
 10
237.3252586842853
 20
73.25205322075817
 30
0.0
 11
237.3252586842853
 21
77.00205322075817
 31
0.0
  0
LINE
  5
403
330
1E
100
AcDbEntity
  8
BASE
  6
Continuous
100
AcDbLine
 10
233.5752586842854
 20
73.25205322075817
 30
0.0
 11
233.5752586842854
 21
77.00205322075817
 31
0.0
  0
LINE
  5
404
330
1E
100
AcDbEntity
  8
BASE
  6
Continuous
100
AcDbLine
 10
229.8252586842854
 20
73.25205322075817
 30
0.0
 11
229.8252586842854
 21
77.00205322075817
 31
0.0
  0
LINE
  5
405
330
1E
100
AcDbEntity
  8
SWEDEN2
  6
Continuous
100
AcDbLine
 10
247.3139985765461
 20
65.75205322075817
 30
0.0
 11
247.3139985765461
 21
73.25205322075817
 31
0.0
  0
LINE
  5
406
330
1E
100
AcDbEntity
  8
BASE
  6
Continuous
100
AcDbLine
 10
236.7498623427881
 20
84.50205322075817
 30
0.0
 11
236.7498623427881
 21
88.25205322075817
 31
0.0
  0
LINE
  5
407
330
1E
100
AcDbEntity
  8
BASE
  6
Continuous
100
AcDbLine
 10
229.2498623427881
 20
84.50205322075817
 30
0.0
 11
229.2498623427881
 21
88.25205322075817
 31
0.0
  0
LINE
  5
408
330
1E
100
AcDbEntity
  8
BASE
  6
Continuous
100
AcDbLine
 10
232.9998623427881
 20
84.50205322075817
 30
0.0
 11
232.9998623427881
 21
88.25205322075817
 31
0.0
  0
LINE
  5
409
330
1E
100
AcDbEntity
  8
BASE
  6
Continuous
100
AcDbLine
 10
233.5752586842854
 20
77.00205322075817
 30
0.0
 11
230.998574295421
 21
84.52450159799994
 31
0.0
  0
LINE
  5
40A
330
1E
100
AcDbEntity
  8
BASE
  6
Continuous
100
AcDbLine
 10
229.8252586842854
 20
77.00205322075817
 30
0.0
 11
227.248574295421
 21
84.52450159799994
 31
0.0
  0
LINE
  5
40B
330
1E
100
AcDbEntity
  8
BASE
  6
Continuous
100
AcDbLine
 10
237.3252586842853
 20
77.00205322075817
 30
0.0
 11
234.748574295421
 21
84.52450159799994
 31
0.0
  0
LINE
  5
40C
330
1E
100
AcDbEntity
  8
BASE
  6
Continuous
100
AcDbLine
 10
236.7498623427881
 20
88.25205322075817
 30
0.0
 11
236.7498623427881
 21
88.25205322075817
 31
0.0
  0
LWPOLYLINE
  5
40D
330
1E
100
AcDbEntity
  8
BASE
  6
Continuous
100
AcDbPolyline
 90
        2
 70
     1
 43
0.5
 10
236.2498623427881
 20
137.0020532207582
 42
1.0
 10
237.2498623427881
 20
137.0020532207582
 42
1.0
  0
LWPOLYLINE
  5
411
330
1E
100
AcDbEntity
  8
BASE
  6
Continuous
100
AcDbPolyline
 90
        2
 70
     1
 43
0.5
 10
232.4998623427881
 20
144.5020532207581
 42
1.0
 10
233.4998623427881
 20
144.5020532207581
 42
1.0
  0
LWPOLYLINE
  5
415
330
1E
100
AcDbEntity
  8
BASE
  6
Continuous
100
AcDbPolyline
 90
        2
 70
     1
 43
0.5
 10
228.7498623427881
 20
152.0020532207581
 42
1.0
 10
229.7498623427881
 20
152.0020532207581
 42
1.0
  0
TEXT
  5
419
330
1E
100
AcDbEntity
  8
BASE
  6
Continuous
100
AcDbText
 10
174.8758304681938
 20
88.4542508940296
 30
0.0
 40
2.25
  1
SGR1/1
 50
90.0
  7
ROMANS
100
AcDbText
  0
LWPOLYLINE
  5
41A
330
1E
100
AcDbEntity
  8
BASE
  6
Continuous
100
AcDbPolyline
 90
        2
 70
     1
 43
0.5
 10
174.6624604614871
 20
159.5020532207581
 42
1.0
 10
175.6624604614871
 20
159.5020532207581
 42
1.0
  0
LINE
  5
41E
330
1E
100
AcDbEntity
  8
1
  6
Continuous
100
AcDbLine
 10
175.1624604614871
 20
88.25205322075817
 30
0.0
 11
175.1624604614871
 21
159.5020532207581
 31
0.0
  0
LINE
  5
41F
330
1E
100
AcDbEntity
  8
BASE
  6
Continuous
100
AcDbLine
 10
175.7378568029843
 20
73.25205322075817
 30
0.0
 11
175.7378568029843
 21
77.00205322075817
 31
0.0
  0
LINE
  5
420
330
1E
100
AcDbEntity
  8
1
  6
Continuous
100
AcDbLine
 10
184.2519608466743
 20
65.75205322075817
 30
0.0
 11
184.2519608466743
 21
49.73305959229605
 31
0.0
  0
LINE
  5
421
330
1E
100
AcDbEntity
  8
BASE
  6
Continuous
100
AcDbLine
 10
180.1661890973617
 20
71.93887638124121
 30
0.0
 11
183.6848373657001
 21
69.9358458141881
 31
0.0
  0
LINE
  5
422
330
1E
100
AcDbEntity
  8
BASE
  6
Continuous
100
AcDbLine
 10
180.1541264813318
 20
66.95094648593246
 30
0.0
 11
183.7293171309527
 21
68.73323424773326
 31
0.0
  0
LINE
  5
423
330
1E
100
AcDbEntity
  8
BASE
  6
Continuous
100
AcDbLine
 10
183.6848373657001
 20
69.9358458141881
 30
0.0
 11
180.1661890973617
 21
68.15096709107144
 31
0.0
  0
TEXT
  5
424
330
1E
100
AcDbEntity
  8
BASE
  6
Continuous
100
AcDbText
 10
186.8169817828981
 20
67.94873595360215
 30
0.0
 40
3.75
  1
1
 11
186.8169817828981
 21
66.69873595360215
 31
0.0
100
AcDbText
 73
     1
  0
LINE
  5
425
330
1E
100
AcDbEntity
  8
BASE
  6
Continuous
100
AcDbLine
 10
175.1624604614871
 20
84.50205322075817
 30
0.0
 11
175.1624604614871
 21
88.25205322075817
 31
0.0
  0
LINE
  5
426
330
1E
100
AcDbEntity
  8
BASE
  6
Continuous
100
AcDbLine
 10
175.7378568029843
 20
77.00205322075817
 30
0.0
 11
173.16117241412
 21
84.52450159799994
 31
0.0
  0
LINE
  5
427
330
1E
100
AcDbEntity
  8
1
  6
Continuous
100
AcDbLine
 10
178.9124604614871
 20
88.25205322075817
 30
0.0
 11
178.9124604614871
 21
152.0020532207581
 31
0.0
  0
LINE
  5
428
330
1E
100
AcDbEntity
  8
1
  6
Continuous
100
AcDbLine
 10
182.6624604614871
 20
88.25205322075817
 30
0.0
 11
182.6624604614871
 21
144.5020532207581
 31
0.0
  0
LINE
  5
429
330
1E
100
AcDbEntity
  8
1
  6
Continuous
100
AcDbLine
 10
186.4124604614871
 20
88.25205322075817
 30
0.0
 11
186.4124604614871
 21
137.0020532207582
 31
0.0
  0
TEXT
  5
42A
330
1E
100
AcDbEntity
  8
BASE
  6
Continuous
100
AcDbText
 10
185.8521562058307
 20
88.4542508940296
 30
0.0
 40
2.25
  1
SGR4/1
 50
90.0
  7
ROMANS
100
AcDbText
  0
TEXT
  5
42B
330
1E
100
AcDbEntity
  8
BASE
  6
Continuous
100
AcDbText
 10
182.0762978269872
 20
88.4542508940296
 30
0.0
 40
2.25
  1
SGR3/1
 50
90.0
  7
ROMANS
100
AcDbText
  0
TEXT
  5
42C
330
1E
100
AcDbEntity
  8
BASE
  6
Continuous
100
AcDbText
 10
178.5741137105067
 20
88.4542508940296
 30
0.0
 40
2.25
  1
SGR2/1
 50
90.0
  7
ROMANS
100
AcDbText
  0
LINE
  5
42D
330
1E
100
AcDbEntity
  8
BASE
  6
Continuous
100
AcDbLine
 10
186.9878568029843
 20
73.25205322075817
 30
0.0
 11
186.9878568029843
 21
77.00205322075817
 31
0.0
  0
LINE
  5
42E
330
1E
100
AcDbEntity
  8
BASE
  6
Continuous
100
AcDbLine
 10
183.2378568029843
 20
73.25205322075817
 30
0.0
 11
183.2378568029843
 21
77.00205322075817
 31
0.0
  0
LINE
  5
42F
330
1E
100
AcDbEntity
  8
BASE
  6
Continuous
100
AcDbLine
 10
179.4878568029843
 20
73.25205322075817
 30
0.0
 11
179.4878568029843
 21
77.00205322075817
 31
0.0
  0
LINE
  5
430
330
1E
100
AcDbEntity
  8
BASE
  6
Continuous
100
AcDbLine
 10
186.4124604614871
 20
84.50205322075817
 30
0.0
 11
186.4124604614871
 21
88.25205322075817
 31
0.0
  0
LINE
  5
431
330
1E
100
AcDbEntity
  8
BASE
  6
Continuous
100
AcDbLine
 10
178.9124604614871
 20
84.50205322075817
 30
0.0
 11
178.9124604614871
 21
88.25205322075817
 31
0.0
  0
LINE
  5
432
330
1E
100
AcDbEntity
  8
BASE
  6
Continuous
100
AcDbLine
 10
182.6624604614871
 20
84.50205322075817
 30
0.0
 11
182.6624604614871
 21
88.25205322075817
 31
0.0
  0
LINE
  5
433
330
1E
100
AcDbEntity
  8
BASE
  6
Continuous
100
AcDbLine
 10
183.2378568029843
 20
77.00205322075817
 30
0.0
 11
180.66117241412
 21
84.52450159799994
 31
0.0
  0
LINE
  5
434
330
1E
100
AcDbEntity
  8
BASE
  6
Continuous
100
AcDbLine
 10
179.4878568029843
 20
77.00205322075817
 30
0.0
 11
176.91117241412
 21
84.52450159799994
 31
0.0
  0
LINE
  5
435
330
1E
100
AcDbEntity
  8
BASE
  6
Continuous
100
AcDbLine
 10
186.9878568029843
 20
77.00205322075817
 30
0.0
 11
184.41117241412
 21
84.52450159799994
 31
0.0
  0
LINE
  5
436
330
1E
100
AcDbEntity
  8
BASE
  6
Continuous
100
AcDbLine
 10
186.4124604614871
 20
88.25205322075817
 30
0.0
 11
186.4124604614871
 21
88.25205322075817
 31
0.0
  0
LWPOLYLINE
  5
437
330
1E
100
AcDbEntity
  8
BASE
  6
Continuous
100
AcDbPolyline
 90
        2
 70
     1
 43
0.5
 10
185.9124604614871
 20
137.0020532207582
 42
1.0
 10
186.9124604614871
 20
137.0020532207582
 42
1.0
  0
LWPOLYLINE
  5
43B
330
1E
100
AcDbEntity
  8
BASE
  6
Continuous
100
AcDbPolyline
 90
        2
 70
     1
 43
0.5
 10
182.1624604614871
 20
144.5020532207581
 42
1.0
 10
183.1624604614871
 20
144.5020532207581
 42
1.0
  0
LWPOLYLINE
  5
43F
330
1E
100
AcDbEntity
  8
BASE
  6
Continuous
100
AcDbPolyline
 90
        2
 70
     1
 43
0.5
 10
178.4124604614871
 20
152.0020532207581
 42
1.0
 10
179.4124604614871
 20
152.0020532207581
 42
1.0
  0
LINE
  5
443
330
1E
100
AcDbEntity
  8
1
  6
Continuous
100
AcDbLine
 10
91.08094603518896
 20
65.75205322075817
 30
0.0
 11
91.08094603518896
 21
50.0081377290262
 31
0.0
  0
LINE
  5
444
330
1E
100
AcDbEntity
  8
BASE
  6
Continuous
100
AcDbLine
 10
43.17460263443587
 20
223.8669482933983
 30
0.0
 11
34.55871655676111
 21
228.6890032511725
 31
0.0
  0
LINE
  5
445
330
1E
100
AcDbEntity
  8
BASE
  6
Continuous
100
AcDbLine
 10
43.17460263443587
 20
218.8234560087544
 30
0.0
 11
34.55871655676111
 21
223.6455109665286
 31
0.0
  0
LINE
  5
446
330
1E
100
AcDbEntity
  8
BASE
  6
Continuous
100
AcDbLine
 10
43.17460263443587
 20
213.9901093989521
 30
0.0
 11
34.55871655676111
 21
218.8121643567263
 31
0.0
  0
LINE
  5
447
330
1E
100
AcDbEntity
  8
BASE
  6
Continuous
100
AcDbLine
 10
43.17460263443587
 20
208.9466171143081
 30
0.0
 11
34.55871655676111
 21
213.7686720720823
 31
0.0
  0
LINE
  5
448
330
1E
100
AcDbEntity
  8
BASE
  6
Continuous
100
AcDbLine
 10
43.17460263443587
 20
203.9031248296642
 30
0.0
 11
34.55871655676111
 21
208.7251797874384
 31
0.0
  0
LINE
  5
449
330
1E
100
AcDbEntity
  8
BASE
  6
Continuous
100
AcDbLine
 10
43.17460263443587
 20
198.8596325450202
 30
0.0
 11
34.55871655676111
 21
203.6816875027944
 31
0.0
  0
LINE
  5
44A
330
1E
100
AcDbEntity
  8
BASE
  6
Continuous
100
AcDbLine
 10
43.17460263443587
 20
194.0262859352178
 30
0.0
 11
34.55871655676111
 21
198.8483408929921
 31
0.0
  0
LINE
  5
44B
330
1E
100
AcDbEntity
  8
21
  6
Continuous
 62
     6
100
AcDbLine
 10
129.054470404412
 20
218.9009000187751
 30
0.0
 11
129.054470404412
 21
199.3793784355555
 31
0.0
  0
LINE
  5
44C
330
1E
100
AcDbEntity
  8
21
  6
Continuous
 62
     6
100
AcDbLine
 10
134.4988831138329
 20
223.900900018775
 30
0.0
 11
134.4988831138329
 21
204.307509841684
 31
0.0
  0
LINE
  5
44D
330
1E
100
AcDbEntity
  8
21
  6
Continuous
 62
     6
100
AcDbLine
 10
139.9432947729286
 20
228.9009000187751
 30
0.0
 11
139.9432947729286
 21
209.2356412478125
 31
0.0
  0
LINE
  5
44E
330
1E
100
AcDbEntity
  8
21
  6
Continuous
 62
     6
100
AcDbLine
 10
43.17460263443587
 20
228.9009000187751
 30
0.0
 11
139.9432947729286
 21
228.9009000187751
 31
0.0
  0
LINE
  5
44F
330
1E
100
AcDbEntity
  8
21
  6
Continuous
 62
     6
100
AcDbLine
 10
43.17460263443587
 20
223.900900018775
 30
0.0
 11
134.4988831138329
 21
223.900900018775
 31
0.0
  0
LINE
  5
450
330
1E
100
AcDbEntity
  8
21
  6
Continuous
 62
     6
100
AcDbLine
 10
43.17460263443587
 20
218.9009000187751
 30
0.0
 11
129.054470404412
 21
218.9009000187751
 31
0.0
  0
LINE
  5
451
330
1E
100
AcDbEntity
  8
SWEDEN2
  6
Continuous
100
AcDbLine
 10
171.8763963693842
 20
73.25205322075817
 30
0.0
 11
171.8763963693842
 21
65.75205322075817
 31
0.0
  0
LINE
  5
452
330
1E
100
AcDbEntity
  8
SWEDEN2
  6
Continuous
100
AcDbLine
 10
197.6886235016291
 20
73.25205322075817
 30
0.0
 11
171.8763963693842
 21
73.25205322075817
 31
0.0
  0
LINE
  5
453
330
1E
100
AcDbEntity
  8
SWEDEN2
  6
Continuous
100
AcDbLine
 10
171.8763963693842
 20
65.75205322075817
 30
0.0
 11
197.6886235016291
 21
65.75205322075817
 31
0.0
  0
LINE
  5
454
330
1E
100
AcDbEntity
  8
SWEDEN2
  6
Continuous
100
AcDbLine
 10
197.6886235016291
 20
65.75205322075817
 30
0.0
 11
197.6886235016291
 21
73.25205322075817
 31
0.0
  0
LINE
  5
455
330
1E
100
AcDbEntity
  8
SWEDEN2
  6
Continuous
100
AcDbLine
 10
41.69454866450919
 20
73.25205322075817
 30
0.0
 11
41.69454866450919
 21
65.75205322075817
 31
0.0
  0
LINE
  5
456
330
1E
100
AcDbEntity
  8
SWEDEN2
  6
Continuous
100
AcDbLine
 10
67.54218599827597
 20
73.25205322075817
 30
0.0
 11
41.69454866450919
 21
73.25205322075817
 31
0.0
  0
LINE
  5
457
330
1E
100
AcDbEntity
  8
SWEDEN2
  6
Continuous
100
AcDbLine
 10
41.69454866450919
 20
65.75205322075817
 30
0.0
 11
67.54218599827597
 21
65.75205322075817
 31
0.0
  0
LINE
  5
458
330
1E
100
AcDbEntity
  8
SWEDEN2
  6
Continuous
100
AcDbLine
 10
67.54218599827597
 20
65.75205322075817
 30
0.0
 11
67.54218599827597
 21
73.25205322075817
 31
0.0
  0
LINE
  5
459
330
1E
100
AcDbEntity
  8
BASE
  6
Continuous
100
AcDbLine
 10
46.77449117786865
 20
99.50205322075817
 30
0.0
 11
46.77449117786865
 21
82.85199433944791
 31
0.0
  0
LINE
  5
45A
330
1E
100
AcDbEntity
  8
BASE
  6
Continuous
100
AcDbLine
 10
46.77449117786865
 20
73.25205322075817
 30
0.0
 11
46.77449117786865
 21
77.00205322075817
 31
0.0
  0
LINE
  5
45B
330
1E
100
AcDbEntity
  8
BASE
  6
Continuous
100
AcDbLine
 10
46.77449117786865
 20
77.00205322075817
 30
0.0
 11
46.77449117786865
 21
82.85199433944791
 31
0.0
  0
LINE
  5
45C
330
1E
100
AcDbEntity
  8
BASE
  6
Continuous
100
AcDbLine
 10
46.77449117786865
 20
99.50205322075817
 30
0.0
 11
44.1978067890043
 21
107.0245015979999
 31
0.0
  0
LINE
  5
45D
330
1E
100
AcDbEntity
  8
1
  6
Continuous
100
AcDbLine
 10
46.19909483637139
 20
159.6746834136641
 30
0.0
 11
46.19909483637139
 21
107.0020532207581
 31
0.0
  0
LINE
  5
45E
330
1E
100
AcDbEntity
  8
BASE
  6
Continuous
100
AcDbLine
 10
50.56594666611944
 20
99.50205322075817
 30
0.0
 11
50.56594666611944
 21
82.85199433944791
 31
0.0
  0
LINE
  5
45F
330
1E
100
AcDbEntity
  8
BASE
  6
Continuous
100
AcDbLine
 10
50.56594666611944
 20
73.25205322075817
 30
0.0
 11
50.56594666611944
 21
77.00205322075817
 31
0.0
  0
LINE
  5
460
330
1E
100
AcDbEntity
  8
BASE
  6
Continuous
100
AcDbLine
 10
50.56594666611944
 20
77.00205322075817
 30
0.0
 11
50.56594666611944
 21
82.85199433944791
 31
0.0
  0
LINE
  5
461
330
1E
100
AcDbEntity
  8
BASE
  6
Continuous
100
AcDbLine
 10
50.56594666611944
 20
99.50205322075817
 30
0.0
 11
47.98926227725509
 21
107.0245015979999
 31
0.0
  0
LINE
  5
462
330
1E
100
AcDbEntity
  8
1
  6
Continuous
100
AcDbLine
 10
49.99055032462219
 20
152.2980221930605
 30
0.0
 11
49.99055032462219
 21
107.0020532207581
 31
0.0
  0
LINE
  5
463
330
1E
100
AcDbEntity
  8
BASE
  6
Continuous
100
AcDbLine
 10
54.10463936543512
 20
99.50205322075817
 30
0.0
 11
54.10463936543512
 21
82.85199433944791
 31
0.0
  0
LINE
  5
464
330
1E
100
AcDbEntity
  8
BASE
  6
Continuous
100
AcDbLine
 10
54.10463936543512
 20
73.25205322075817
 30
0.0
 11
54.10463936543512
 21
77.00205322075817
 31
0.0
  0
LINE
  5
465
330
1E
100
AcDbEntity
  8
BASE
  6
Continuous
100
AcDbLine
 10
54.10463936543512
 20
77.00205322075817
 30
0.0
 11
54.10463936543512
 21
82.85199433944791
 31
0.0
  0
LINE
  5
466
330
1E
100
AcDbEntity
  8
BASE
  6
Continuous
100
AcDbLine
 10
54.10463936543512
 20
99.50205322075817
 30
0.0
 11
51.52795497657077
 21
107.0245015979999
 31
0.0
  0
LINE
  5
467
330
1E
100
AcDbEntity
  8
1
  6
Continuous
100
AcDbLine
 10
53.52924302393787
 20
144.5746388678201
 30
0.0
 11
53.52924302393787
 21
107.0020532207581
 31
0.0
  0
LINE
  5
468
330
1E
100
AcDbEntity
  8
BASE
  6
Continuous
100
AcDbLine
 10
57.89609485368591
 20
99.50205322075817
 30
0.0
 11
57.89609485368591
 21
82.85199433944791
 31
0.0
  0
LINE
  5
469
330
1E
100
AcDbEntity
  8
BASE
  6
Continuous
100
AcDbLine
 10
57.89609485368591
 20
73.25205322075817
 30
0.0
 11
57.89609485368591
 21
77.00205322075817
 31
0.0
  0
LINE
  5
46A
330
1E
100
AcDbEntity
  8
BASE
  6
Continuous
100
AcDbLine
 10
57.89609485368591
 20
77.00205322075817
 30
0.0
 11
57.89609485368591
 21
82.85199433944791
 31
0.0
  0
LINE
  5
46B
330
1E
100
AcDbEntity
  8
BASE
  6
Continuous
100
AcDbLine
 10
57.89609485368591
 20
99.50205322075817
 30
0.0
 11
55.31941046482156
 21
107.0245015979999
 31
0.0
  0
LINE
  5
46C
330
1E
100
AcDbEntity
  8
1
  6
Continuous
100
AcDbLine
 10
57.32069851218866
 20
137.0020532207581
 30
0.0
 11
57.32069851218866
 21
107.0020532207581
 31
0.0
  0
LINE
  5
46D
330
1E
100
AcDbEntity
  8
BASE
  6
Continuous
100
AcDbLine
 10
61.6875503419367
 20
99.50205322075817
 30
0.0
 11
61.6875503419367
 21
82.85199433944791
 31
0.0
  0
LINE
  5
46E
330
1E
100
AcDbEntity
  8
BASE
  6
Continuous
100
AcDbLine
 10
61.6875503419367
 20
73.25205322075817
 30
0.0
 11
61.6875503419367
 21
77.00205322075817
 31
0.0
  0
LINE
  5
46F
330
1E
100
AcDbEntity
  8
BASE
  6
Continuous
100
AcDbLine
 10
61.6875503419367
 20
77.00205322075817
 30
0.0
 11
61.6875503419367
 21
82.85199433944791
 31
0.0
  0
LINE
  5
470
330
1E
100
AcDbEntity
  8
BASE
  6
Continuous
100
AcDbLine
 10
61.6875503419367
 20
99.50205322075817
 30
0.0
 11
59.11086595307235
 21
107.0245015979999
 31
0.0
  0
LINE
  5
471
330
1E
100
AcDbEntity
  8
1
  6
Continuous
100
AcDbLine
 10
61.11215400043945
 20
129.5746388678201
 30
0.0
 11
61.11215400043945
 21
107.0020532207581
 31
0.0
  0
LINE
  5
472
330
1E
100
AcDbEntity
  8
BASE
  6
Continuous
100
AcDbLine
 10
65.22624304125237
 20
99.50205322075817
 30
0.0
 11
65.22624304125237
 21
82.85199433944791
 31
0.0
  0
LINE
  5
473
330
1E
100
AcDbEntity
  8
BASE
  6
Continuous
100
AcDbLine
 10
65.22624304125237
 20
73.25205322075817
 30
0.0
 11
65.22624304125237
 21
77.00205322075817
 31
0.0
  0
LINE
  5
474
330
1E
100
AcDbEntity
  8
BASE
  6
Continuous
100
AcDbLine
 10
65.22624304125237
 20
77.00205322075817
 30
0.0
 11
65.22624304125237
 21
82.85199433944791
 31
0.0
  0
LINE
  5
475
330
1E
100
AcDbEntity
  8
BASE
  6
Continuous
100
AcDbLine
 10
65.22624304125237
 20
99.50205322075817
 30
0.0
 11
62.64955865238802
 21
107.0245015979999
 31
0.0
  0
LINE
  5
476
330
1E
100
AcDbEntity
  8
1
  6
Continuous
100
AcDbLine
 10
64.65084669975512
 20
122.0746388678201
 30
0.0
 11
64.65084669975512
 21
107.0020532207581
 31
0.0
  0
LINE
  5
477
330
1E
100
AcDbEntity
  8
1
  6
Continuous
100
AcDbLine
 10
46.19909483637139
 20
159.6746834136641
 30
0.0
 11
338.4233310692752
 21
159.6746834136641
 31
0.0
  0
LINE
  5
478
330
1E
100
AcDbEntity
  8
1
  6
Continuous
100
AcDbLine
 10
49.99055032462219
 20
152.2980221930605
 30
0.0
 11
338.4233310692752
 21
152.2980221930605
 31
0.0
  0
TEXT
  5
479
330
1E
100
AcDbEntity
  8
BASE
  6
Continuous
100
AcDbText
 10
45.50427384307745
 20
109.3737197628217
 30
0.0
 40
2.25
  1
SGR1/4
 50
90.0
  7
ROMANS
100
AcDbText
  0
TEXT
  5
47A
330
1E
100
AcDbEntity
  8
BASE
  6
Continuous
100
AcDbText
 10
49.25427384307745
 20
109.3737197628217
 30
0.0
 40
2.25
  1
SGR2/4
 50
90.0
  7
ROMANS
100
AcDbText
  0
TEXT
  5
47B
330
1E
100
AcDbEntity
  8
BASE
  6
Continuous
100
AcDbText
 10
53.00427384307745
 20
109.3737197628217
 30
0.0
 40
2.25
  1
SGR3/4
 50
90.0
  7
ROMANS
100
AcDbText
  0
TEXT
  5
47C
330
1E
100
AcDbEntity
  8
BASE
  6
Continuous
100
AcDbText
 10
56.75427384307745
 20
109.3737197628217
 30
0.0
 40
2.25
  1
SGR4/4
 50
90.0
  7
ROMANS
100
AcDbText
  0
TEXT
  5
47D
330
1E
100
AcDbEntity
  8
BASE
  6
Continuous
100
AcDbText
 10
64.04059407302596
 20
109.3737197628217
 30
0.0
 40
2.25
  1
SGR6/4
 50
90.0
  7
ROMANS
100
AcDbText
  0
TEXT
  5
47E
330
1E
100
AcDbEntity
  8
BASE
  6
Continuous
100
AcDbText
 10
60.29059407302596
 20
109.3737197628217
 30
0.0
 40
2.25
  1
SGR5/4
 50
90.0
  7
ROMANS
100
AcDbText
  0
LWPOLYLINE
  5
47F
330
1E
100
AcDbEntity
  8
BASE
  6
Continuous
100
AcDbPolyline
 90
        2
 70
     1
 43
0.5
 10
240.1359806783055
 20
129.4826827775524
 42
1.0
 10
241.1359806783055
 20
129.4826827775524
 42
1.0
  0
LWPOLYLINE
  5
483
330
1E
100
AcDbEntity
  8
BASE
  6
Continuous
100
AcDbPolyline
 90
        2
 70
     1
 43
0.5
 10
243.8859806783056
 20
121.9826827775525
 42
1.0
 10
244.8859806783056
 20
121.9826827775525
 42
1.0
  0
LINE
  5
487
330
1E
100
AcDbEntity
  8
1
  6
Continuous
100
AcDbLine
 10
244.3859806783055
 20
88.25205322075817
 30
0.0
 11
244.3859806783056
 21
122.0756504610884
 31
0.0
  0
LINE
  5
488
330
1E
100
AcDbEntity
  8
1
  6
Continuous
100
AcDbLine
 10
240.6359806783055
 20
88.25205322075817
 30
0.0
 11
240.6359806783055
 21
129.5287322248599
 31
0.0
  0
TEXT
  5
489
330
1E
100
AcDbEntity
  8
BASE
  6
Continuous
100
AcDbText
 10
254.7582163640189
 20
88.4542508940296
 30
0.0
 40
2.25
  1

 50
90.0
  7
ROMANS
100
AcDbText
  0
TEXT
  5
48A
330
1E
100
AcDbEntity
  8
BASE
  6
Continuous
100
AcDbText
 10
243.7009259673328
 20
88.4542508940296
 30
0.0
 40
2.25
  1
SGR6/2
 50
90.0
  7
ROMANS
100
AcDbText
  0
LINE
  5
48B
330
1E
100
AcDbEntity
  8
BASE
  6
Continuous
100
AcDbLine
 10
244.9613770198028
 20
77.00205322075817
 30
0.0
 11
242.3846926309384
 21
84.52450159799994
 31
0.0
  0
LINE
  5
48C
330
1E
100
AcDbEntity
  8
BASE
  6
Continuous
100
AcDbLine
 10
244.3859806783055
 20
84.50205322075817
 30
0.0
 11
244.3859806783055
 21
88.25205322075817
 31
0.0
  0
LINE
  5
48D
330
1E
100
AcDbEntity
  8
BASE
  6
Continuous
100
AcDbLine
 10
240.6359806783055
 20
84.50205322075817
 30
0.0
 11
240.6359806783055
 21
88.25205322075817
 31
0.0
  0
LINE
  5
48E
330
1E
100
AcDbEntity
  8
BASE
  6
Continuous
100
AcDbLine
 10
244.3859806783055
 20
88.25205322075817
 30
0.0
 11
244.3859806783055
 21
88.25205322075817
 31
0.0
  0
LINE
  5
48F
330
1E
100
AcDbEntity
  8
BASE
  6
Continuous
100
AcDbLine
 10
241.2113770198028
 20
77.00205322075817
 30
0.0
 11
238.6346926309384
 21
84.52450159799994
 31
0.0
  0
LINE
  5
490
330
1E
100
AcDbEntity
  8
BASE
  6
Continuous
100
AcDbLine
 10
241.2113770198028
 20
73.25205322075817
 30
0.0
 11
241.2113770198028
 21
77.00205322075817
 31
0.0
  0
LINE
  5
491
330
1E
100
AcDbEntity
  8
BASE
  6
Continuous
100
AcDbLine
 10
244.9613770198028
 20
73.25205322075817
 30
0.0
 11
244.9613770198028
 21
77.00205322075817
 31
0.0
  0
LWPOLYLINE
  5
492
330
1E
100
AcDbEntity
  8
BASE
  6
Continuous
100
AcDbPolyline
 90
        2
 70
     1
 43
0.5
 10
189.4665742456439
 20
129.4826827775524
 42
1.0
 10
190.4665742456439
 20
129.4826827775524
 42
1.0
  0
LWPOLYLINE
  5
496
330
1E
100
AcDbEntity
  8
BASE
  6
Continuous
100
AcDbPolyline
 90
        2
 70
     1
 43
0.5
 10
193.216574245644
 20
121.9826827775525
 42
1.0
 10
194.216574245644
 20
121.9826827775525
 42
1.0
  0
LINE
  5
49A
330
1E
100
AcDbEntity
  8
1
  6
Continuous
100
AcDbLine
 10
189.9665742456439
 20
88.25205322075817
 30
0.0
 11
189.9665742456439
 21
129.5287322248599
 31
0.0
  0
LINE
  5
49B
330
1E
100
AcDbEntity
  8
1
  6
Continuous
100
AcDbLine
 10
193.7165742456439
 20
88.25205322075817
 30
0.0
 11
193.716574245644
 21
122.0756504610884
 31
0.0
  0
TEXT
  5
49C
330
1E
100
AcDbEntity
  8
BASE
  6
Continuous
100
AcDbText
 10
193.1562699899876
 20
88.4542508940296
 30
0.0
 40
2.25
  1
SGR6/1
 50
90.0
  7
ROMANS
100
AcDbText
  0
TEXT
  5
49D
330
1E
100
AcDbEntity
  8
BASE
  6
Continuous
100
AcDbText
 10
189.380411611144
 20
88.4542508940296
 30
0.0
 40
2.25
  1
SGR5/1
 50
90.0
  7
ROMANS
100
AcDbText
  0
LINE
  5
49E
330
1E
100
AcDbEntity
  8
BASE
  6
Continuous
100
AcDbLine
 10
194.2919705871412
 20
73.25205322075817
 30
0.0
 11
194.2919705871412
 21
77.00205322075817
 31
0.0
  0
LINE
  5
49F
330
1E
100
AcDbEntity
  8
BASE
  6
Continuous
100
AcDbLine
 10
190.5419705871412
 20
73.25205322075817
 30
0.0
 11
190.5419705871412
 21
77.00205322075817
 31
0.0
  0
LINE
  5
4A0
330
1E
100
AcDbEntity
  8
BASE
  6
Continuous
100
AcDbLine
 10
194.2919705871412
 20
77.00205322075817
 30
0.0
 11
191.7152861982768
 21
84.52450159799994
 31
0.0
  0
LINE
  5
4A1
330
1E
100
AcDbEntity
  8
BASE
  6
Continuous
100
AcDbLine
 10
189.9665742456439
 20
84.50205322075817
 30
0.0
 11
189.9665742456439
 21
88.25205322075817
 31
0.0
  0
LINE
  5
4A2
330
1E
100
AcDbEntity
  8
BASE
  6
Continuous
100
AcDbLine
 10
190.5419705871412
 20
77.00205322075817
 30
0.0
 11
187.9652861982768
 21
84.52450159799994
 31
0.0
  0
LINE
  5
4A3
330
1E
100
AcDbEntity
  8
BASE
  6
Continuous
100
AcDbLine
 10
193.7165742456439
 20
84.50205322075817
 30
0.0
 11
193.7165742456439
 21
88.25205322075817
 31
0.0
  0
LINE
  5
4A4
330
1E
100
AcDbEntity
  8
BASE
  6
Continuous
100
AcDbLine
 10
193.7165742456439
 20
88.25205322075817
 30
0.0
 11
193.7165742456439
 21
88.25205322075817
 31
0.0
  0
LINE
  5
4A5
330
1E
100
AcDbEntity
  8
1
  6
Continuous
100
AcDbLine
 10
137.354165063517
 20
65.75205322075817
 30
0.0
 11
137.354165063517
 21
49.73305959229605
 31
0.0
  0
TEXT
  5
4A6
330
1E
100
AcDbEntity
  8
BASE
  6
Continuous
100
AcDbText
 10
131.6763179273495
 20
88.4542508940296
 30
0.0
 40
2.25
  1
SGR2/3
 50
90.0
  7
ROMANS
100
AcDbText
  0
TEXT
  5
4A7
330
1E
100
AcDbEntity
  8
BASE
  6
Continuous
100
AcDbText
 10
135.1785020438299
 20
88.4542508940296
 30
0.0
 40
2.25
  1
SGR3/3
 50
90.0
  7
ROMANS
100
AcDbText
  0
TEXT
  5
4A8
330
1E
100
AcDbEntity
  8
BASE
  6
Continuous
100
AcDbText
 10
138.9543604226735
 20
88.4542508940296
 30
0.0
 40
2.25
  1
SGR4/3
 50
90.0
  7
ROMANS
100
AcDbText
  0
TEXT
  5
4A9
330
1E
100
AcDbEntity
  8
BASE
  6
Continuous
100
AcDbText
 10
127.9780346850365
 20
88.4542508940296
 30
0.0
 40
2.25
  1
SGR1/3
 50
90.0
  7
ROMANS
100
AcDbText
  0
TEXT
  5
4AA
330
1E
100
AcDbEntity
  8
BASE
  6
Continuous
100
AcDbText
 10
146.2584742068303
 20
88.4542508940296
 30
0.0
 40
2.25
  1
SGR6/3
 50
90.0
  7
ROMANS
100
AcDbText
  0
TEXT
  5
4AB
330
1E
100
AcDbEntity
  8
BASE
  6
Continuous
100
AcDbText
 10
142.4826158279868
 20
88.4542508940296
 30
0.0
 40
2.25
  1
SGR5/3
 50
90.0
  7
ROMANS
100
AcDbText
  0
LINE
  5
4AC
330
1E
100
AcDbEntity
  8
BASE
  6
Continuous
100
AcDbLine
 10
128.8400610198271
 20
73.25205322075817
 30
0.0
 11
128.8400610198271
 21
77.00205322075817
 31
0.0
  0
LINE
  5
4AD
330
1E
100
AcDbEntity
  8
BASE
  6
Continuous
100
AcDbLine
 10
132.5900610198271
 20
73.25205322075817
 30
0.0
 11
132.5900610198271
 21
77.00205322075817
 31
0.0
  0
LINE
  5
4AE
330
1E
100
AcDbEntity
  8
BASE
  6
Continuous
100
AcDbLine
 10
136.3400610198271
 20
73.25205322075817
 30
0.0
 11
136.3400610198271
 21
77.00205322075817
 31
0.0
  0
LINE
  5
4AF
330
1E
100
AcDbEntity
  8
BASE
  6
Continuous
100
AcDbLine
 10
140.0900610198271
 20
73.25205322075817
 30
0.0
 11
140.0900610198271
 21
77.00205322075817
 31
0.0
  0
LINE
  5
4B0
330
1E
100
AcDbEntity
  8
BASE
  6
Continuous
100
AcDbLine
 10
147.3941748039839
 20
73.25205322075817
 30
0.0
 11
147.3941748039839
 21
77.00205322075817
 31
0.0
  0
LINE
  5
4B1
330
1E
100
AcDbEntity
  8
BASE
  6
Continuous
100
AcDbLine
 10
143.6441748039839
 20
73.25205322075817
 30
0.0
 11
143.6441748039839
 21
77.00205322075817
 31
0.0
  0
LINE
  5
4B2
330
1E
100
AcDbEntity
  8
BASE
  6
Continuous
100
AcDbLine
 10
136.3400610198271
 20
77.00205322075817
 30
0.0
 11
133.7633766309628
 21
84.52450159799994
 31
0.0
  0
LINE
  5
4B3
330
1E
100
AcDbEntity
  8
BASE
  6
Continuous
100
AcDbLine
 10
128.2646646783298
 20
84.50205322075817
 30
0.0
 11
128.2646646783298
 21
88.25205322075817
 31
0.0
  0
LINE
  5
4B4
330
1E
100
AcDbEntity
  8
BASE
  6
Continuous
100
AcDbLine
 10
132.0146646783298
 20
84.50205322075817
 30
0.0
 11
132.0146646783298
 21
88.25205322075817
 31
0.0
  0
LINE
  5
4B5
330
1E
100
AcDbEntity
  8
BASE
  6
Continuous
100
AcDbLine
 10
128.8400610198271
 20
77.00205322075817
 30
0.0
 11
126.2633766309628
 21
84.52450159799994
 31
0.0
  0
LINE
  5
4B6
330
1E
100
AcDbEntity
  8
BASE
  6
Continuous
100
AcDbLine
 10
132.5900610198271
 20
77.00205322075817
 30
0.0
 11
130.0133766309627
 21
84.52450159799994
 31
0.0
  0
LINE
  5
4B7
330
1E
100
AcDbEntity
  8
BASE
  6
Continuous
100
AcDbLine
 10
139.5146646783298
 20
84.50205322075817
 30
0.0
 11
139.5146646783298
 21
88.25205322075817
 31
0.0
  0
LINE
  5
4B8
330
1E
100
AcDbEntity
  8
BASE
  6
Continuous
100
AcDbLine
 10
143.0687784624867
 20
84.50205322075817
 30
0.0
 11
143.0687784624867
 21
88.25205322075817
 31
0.0
  0
LINE
  5
4B9
330
1E
100
AcDbEntity
  8
BASE
  6
Continuous
100
AcDbLine
 10
146.8187784624867
 20
84.50205322075817
 30
0.0
 11
146.8187784624867
 21
88.25205322075817
 31
0.0
  0
LINE
  5
4BA
330
1E
100
AcDbEntity
  8
BASE
  6
Continuous
100
AcDbLine
 10
135.7646646783299
 20
84.50205322075817
 30
0.0
 11
135.7646646783299
 21
88.25205322075817
 31
0.0
  0
LINE
  5
4BB
330
1E
100
AcDbEntity
  8
BASE
  6
Continuous
100
AcDbLine
 10
143.6441748039839
 20
77.00205322075817
 30
0.0
 11
141.0674904151196
 21
84.52450159799994
 31
0.0
  0
LINE
  5
4BC
330
1E
100
AcDbEntity
  8
BASE
  6
Continuous
100
AcDbLine
 10
140.0900610198271
 20
77.00205322075817
 30
0.0
 11
137.5133766309627
 21
84.52450159799994
 31
0.0
  0
LINE
  5
4BD
330
1E
100
AcDbEntity
  8
BASE
  6
Continuous
100
AcDbLine
 10
147.3941748039839
 20
77.00205322075817
 30
0.0
 11
144.8174904151196
 21
84.52450159799994
 31
0.0
  0
LINE
  5
4BE
330
1E
100
AcDbEntity
  8
BASE
  6
Continuous
100
AcDbLine
 10
139.5146646783298
 20
88.25205322075817
 30
0.0
 11
139.5146646783298
 21
88.25205322075817
 31
0.0
  0
LINE
  5
4BF
330
1E
100
AcDbEntity
  8
BASE
  6
Continuous
100
AcDbLine
 10
146.8187784624867
 20
88.25205322075817
 30
0.0
 11
146.8187784624867
 21
88.25205322075817
 31
0.0
  0
LWPOLYLINE
  5
4C0
330
1E
100
AcDbEntity
  8
BASE
  6
Continuous
100
AcDbPolyline
 90
        2
 70
     1
 43
0.5
 10
139.0146646783299
 20
137.0020532207582
 42
1.0
 10
140.0146646783299
 20
137.0020532207582
 42
1.0
  0
LWPOLYLINE
  5
4C4
330
1E
100
AcDbEntity
  8
BASE
  6
Continuous
100
AcDbPolyline
 90
        2
 70
     1
 43
0.5
 10
146.3187784624867
 20
121.9826827775525
 42
1.0
 10
147.3187784624867
 20
121.9826827775525
 42
1.0
  0
LWPOLYLINE
  5
4C8
330
1E
100
AcDbEntity
  8
BASE
  6
Continuous
100
AcDbPolyline
 90
        2
 70
     1
 43
0.5
 10
131.5146646783299
 20
152.0020532207581
 42
1.0
 10
132.5146646783298
 20
152.0020532207581
 42
1.0
  0
LWPOLYLINE
  5
4CC
330
1E
100
AcDbEntity
  8
BASE
  6
Continuous
100
AcDbPolyline
 90
        2
 70
     1
 43
0.5
 10
127.7646646783298
 20
159.5020532207581
 42
1.0
 10
128.7646646783298
 20
159.5020532207581
 42
1.0
  0
LWPOLYLINE
  5
4D0
330
1E
100
AcDbEntity
  8
BASE
  6
Continuous
100
AcDbPolyline
 90
        2
 70
     1
 43
0.5
 10
135.2646646783298
 20
144.5020532207581
 42
1.0
 10
136.2646646783298
 20
144.5020532207581
 42
1.0
  0
LWPOLYLINE
  5
4D4
330
1E
100
AcDbEntity
  8
BASE
  6
Continuous
100
AcDbPolyline
 90
        2
 70
     1
 43
0.5
 10
142.5687784624867
 20
129.4826827775524
 42
1.0
 10
143.5687784624867
 20
129.4826827775524
 42
1.0
  0
LINE
  5
4D8
330
1E
100
AcDbEntity
  8
1
  6
Continuous
100
AcDbLine
 10
128.2646646783298
 20
88.25205322075817
 30
0.0
 11
128.2646646783298
 21
159.5020532207581
 31
0.0
  0
LINE
  5
4D9
330
1E
100
AcDbEntity
  8
1
  6
Continuous
100
AcDbLine
 10
132.0146646783298
 20
88.25205322075817
 30
0.0
 11
132.0146646783298
 21
152.0020532207581
 31
0.0
  0
LINE
  5
4DA
330
1E
100
AcDbEntity
  8
1
  6
Continuous
100
AcDbLine
 10
135.7646646783299
 20
88.25205322075817
 30
0.0
 11
135.7646646783299
 21
144.5020532207581
 31
0.0
  0
LINE
  5
4DB
330
1E
100
AcDbEntity
  8
1
  6
Continuous
100
AcDbLine
 10
143.0687784624867
 20
88.25205322075817
 30
0.0
 11
143.0687784624867
 21
129.5287322248599
 31
0.0
  0
LINE
  5
4DC
330
1E
100
AcDbEntity
  8
1
  6
Continuous
100
AcDbLine
 10
139.5146646783298
 20
88.25205322075817
 30
0.0
 11
139.5146646783299
 21
137.0020532207582
 31
0.0
  0
LINE
  5
4DD
330
1E
100
AcDbEntity
  8
1
  6
Continuous
100
AcDbLine
 10
146.8187784624867
 20
88.25205322075817
 30
0.0
 11
146.8187784624867
 21
122.0756504610884
 31
0.0
  0
LWPOLYLINE
  5
4DE
330
1E
100
AcDbEntity
  8
BASE
  6
Continuous
100
AcDbPolyline
 90
        2
 70
     1
 43
0.5
 10
92.06421610770645
 20
137.0020532207582
 42
1.0
 10
93.06421610770645
 20
137.0020532207582
 42
1.0
  0
LWPOLYLINE
  5
4E2
330
1E
100
AcDbEntity
  8
BASE
  6
Continuous
100
AcDbPolyline
 90
        2
 70
     1
 43
0.5
 10
99.36832989186331
 20
121.9826827775525
 42
1.0
 10
100.3683298918633
 20
121.9826827775525
 42
1.0
  0
LWPOLYLINE
  5
4E6
330
1E
100
AcDbEntity
  8
BASE
  6
Continuous
100
AcDbPolyline
 90
        2
 70
     1
 43
0.5
 10
88.31421610770638
 20
144.5020532207581
 42
1.0
 10
89.31421610770639
 20
144.5020532207581
 42
1.0
  0
LWPOLYLINE
  5
4EA
330
1E
100
AcDbEntity
  8
BASE
  6
Continuous
100
AcDbPolyline
 90
        2
 70
     1
 43
0.5
 10
84.56421610770638
 20
152.0020532207581
 42
1.0
 10
85.56421610770639
 20
152.0020532207581
 42
1.0
  0
LWPOLYLINE
  5
4EE
330
1E
100
AcDbEntity
  8
BASE
  6
Continuous
100
AcDbPolyline
 90
        2
 70
     1
 43
0.5
 10
80.81421610770638
 20
159.5020532207581
 42
1.0
 10
81.81421610770639
 20
159.5020532207581
 42
1.0
  0
LWPOLYLINE
  5
4F2
330
1E
100
AcDbEntity
  8
BASE
  6
Continuous
100
AcDbPolyline
 90
        2
 70
     1
 43
0.5
 10
95.61832989186326
 20
129.4826827775524
 42
1.0
 10
96.61832989186326
 20
129.4826827775524
 42
1.0
  0
TEXT
  5
4F6
330
1E
100
AcDbEntity
  8
BASE
  6
Continuous
100
AcDbText
 10
81.02758611441311
 20
88.4542508940296
 30
0.0
 40
2.25
  1
SGR1/5
 50
90.0
  7
ROMANS
100
AcDbText
  0
TEXT
  5
4F7
330
1E
100
AcDbEntity
  8
BASE
  6
Continuous
100
AcDbText
 10
88.22805347320651
 20
88.4542508940296
 30
0.0
 40
2.25
  1
SGR3/5
 50
90.0
  7
ROMANS
100
AcDbText
  0
TEXT
  5
4F8
330
1E
100
AcDbEntity
  8
BASE
  6
Continuous
100
AcDbText
 10
92.00391185205006
 20
88.4542508940296
 30
0.0
 40
2.25
  1
SGR4/5
 50
90.0
  7
ROMANS
100
AcDbText
  0
TEXT
  5
4F9
330
1E
100
AcDbEntity
  8
BASE
  6
Continuous
100
AcDbText
 10
99.30802563620694
 20
88.4542508940296
 30
0.0
 40
2.25
  1
SGR6/5
 50
90.0
  7
ROMANS
100
AcDbText
  0
TEXT
  5
4FA
330
1E
100
AcDbEntity
  8
BASE
  6
Continuous
100
AcDbText
 10
95.53216725736337
 20
88.4542508940296
 30
0.0
 40
2.25
  1
SGR5/5
 50
90.0
  7
ROMANS
100
AcDbText
  0
TEXT
  5
4FB
330
1E
100
AcDbEntity
  8
BASE
  6
Continuous
100
AcDbText
 10
84.72586935672609
 20
88.4542508940296
 30
0.0
 40
2.25
  1
SGR2/5
 50
90.0
  7
ROMANS
100
AcDbText
  0
LINE
  5
4FC
330
1E
100
AcDbEntity
  8
BASE
  6
Continuous
100
AcDbLine
 10
85.63961244920363
 20
73.25205322075817
 30
0.0
 11
85.63961244920363
 21
77.00205322075817
 31
0.0
  0
LINE
  5
4FD
330
1E
100
AcDbEntity
  8
BASE
  6
Continuous
100
AcDbLine
 10
89.38961244920363
 20
73.25205322075817
 30
0.0
 11
89.38961244920363
 21
77.00205322075817
 31
0.0
  0
LINE
  5
4FE
330
1E
100
AcDbEntity
  8
BASE
  6
Continuous
100
AcDbLine
 10
93.13961244920363
 20
73.25205322075817
 30
0.0
 11
93.13961244920363
 21
77.00205322075817
 31
0.0
  0
LINE
  5
4FF
330
1E
100
AcDbEntity
  8
BASE
  6
Continuous
100
AcDbLine
 10
100.4437262333605
 20
73.25205322075817
 30
0.0
 11
100.4437262333605
 21
77.00205322075817
 31
0.0
  0
LINE
  5
500
330
1E
100
AcDbEntity
  8
BASE
  6
Continuous
100
AcDbLine
 10
96.69372623336052
 20
73.25205322075817
 30
0.0
 11
96.69372623336052
 21
77.00205322075817
 31
0.0
  0
LINE
  5
501
330
1E
100
AcDbEntity
  8
BASE
  6
Continuous
100
AcDbLine
 10
81.88961244920363
 20
73.25205322075817
 30
0.0
 11
81.88961244920363
 21
77.00205322075817
 31
0.0
  0
LINE
  5
502
330
1E
100
AcDbEntity
  8
BASE
  6
Continuous
100
AcDbLine
 10
96.69372623336052
 20
77.00205322075817
 30
0.0
 11
94.11704184449616
 21
84.52450159799994
 31
0.0
  0
LINE
  5
503
330
1E
100
AcDbEntity
  8
BASE
  6
Continuous
100
AcDbLine
 10
92.56421610770638
 20
84.50205322075817
 30
0.0
 11
92.56421610770638
 21
88.25205322075817
 31
0.0
  0
LINE
  5
504
330
1E
100
AcDbEntity
  8
BASE
  6
Continuous
100
AcDbLine
 10
88.81421610770638
 20
84.50205322075817
 30
0.0
 11
88.81421610770638
 21
88.25205322075817
 31
0.0
  0
LINE
  5
505
330
1E
100
AcDbEntity
  8
BASE
  6
Continuous
100
AcDbLine
 10
81.31421610770638
 20
84.50205322075817
 30
0.0
 11
81.31421610770638
 21
88.25205322075817
 31
0.0
  0
LINE
  5
506
330
1E
100
AcDbEntity
  8
BASE
  6
Continuous
100
AcDbLine
 10
85.06421610770638
 20
84.50205322075817
 30
0.0
 11
85.06421610770638
 21
88.25205322075817
 31
0.0
  0
LINE
  5
507
330
1E
100
AcDbEntity
  8
BASE
  6
Continuous
100
AcDbLine
 10
89.38961244920363
 20
77.00205322075817
 30
0.0
 11
86.81292806033928
 21
84.52450159799994
 31
0.0
  0
LINE
  5
508
330
1E
100
AcDbEntity
  8
BASE
  6
Continuous
100
AcDbLine
 10
81.88961244920363
 20
77.00205322075817
 30
0.0
 11
79.31292806033929
 21
84.52450159799994
 31
0.0
  0
LINE
  5
509
330
1E
100
AcDbEntity
  8
BASE
  6
Continuous
100
AcDbLine
 10
85.63961244920363
 20
77.00205322075817
 30
0.0
 11
83.06292806033928
 21
84.52450159799994
 31
0.0
  0
LINE
  5
50A
330
1E
100
AcDbEntity
  8
BASE
  6
Continuous
100
AcDbLine
 10
93.13961244920363
 20
77.00205322075817
 30
0.0
 11
90.56292806033928
 21
84.52450159799994
 31
0.0
  0
LINE
  5
50B
330
1E
100
AcDbEntity
  8
BASE
  6
Continuous
100
AcDbLine
 10
92.56421610770638
 20
88.25205322075817
 30
0.0
 11
92.56421610770638
 21
88.25205322075817
 31
0.0
  0
LINE
  5
50C
330
1E
100
AcDbEntity
  8
BASE
  6
Continuous
100
AcDbLine
 10
96.11832989186325
 20
84.50205322075817
 30
0.0
 11
96.11832989186325
 21
88.25205322075817
 31
0.0
  0
LINE
  5
50D
330
1E
100
AcDbEntity
  8
BASE
  6
Continuous
100
AcDbLine
 10
99.86832989186325
 20
84.50205322075817
 30
0.0
 11
99.86832989186325
 21
88.25205322075817
 31
0.0
  0
LINE
  5
50E
330
1E
100
AcDbEntity
  8
BASE
  6
Continuous
100
AcDbLine
 10
100.4437262333605
 20
77.00205322075817
 30
0.0
 11
97.86704184449616
 21
84.52450159799994
 31
0.0
  0
LINE
  5
50F
330
1E
100
AcDbEntity
  8
BASE
  6
Continuous
100
AcDbLine
 10
99.86832989186325
 20
88.25205322075817
 30
0.0
 11
99.86832989186325
 21
88.25205322075817
 31
0.0
  0
LINE
  5
510
330
1E
100
AcDbEntity
  8
1
  6
Continuous
100
AcDbLine
 10
81.31421610770638
 20
88.25205322075817
 30
0.0
 11
81.31421610770638
 21
159.5020532207581
 31
0.0
  0
LINE
  5
511
330
1E
100
AcDbEntity
  8
1
  6
Continuous
100
AcDbLine
 10
85.06421610770638
 20
88.25205322075817
 30
0.0
 11
85.06421610770638
 21
152.0020532207581
 31
0.0
  0
LINE
  5
512
330
1E
100
AcDbEntity
  8
1
  6
Continuous
100
AcDbLine
 10
88.81421610770638
 20
88.25205322075817
 30
0.0
 11
88.81421610770638
 21
144.5020532207581
 31
0.0
  0
LINE
  5
513
330
1E
100
AcDbEntity
  8
1
  6
Continuous
100
AcDbLine
 10
96.11832989186325
 20
88.25205322075817
 30
0.0
 11
96.11832989186325
 21
129.5287322248599
 31
0.0
  0
LINE
  5
514
330
1E
100
AcDbEntity
  8
1
  6
Continuous
100
AcDbLine
 10
92.56421610770638
 20
88.25205322075817
 30
0.0
 11
92.56421610770644
 21
137.0020532207582
 31
0.0
  0
LINE
  5
515
330
1E
100
AcDbEntity
  8
1
  6
Continuous
100
AcDbLine
 10
99.86832989186325
 20
88.25205322075817
 30
0.0
 11
99.86832989186332
 21
122.0756504610884
 31
0.0
  0
CIRCLE
  5
516
330
1E
100
AcDbEntity
  8
BASE
  6
Continuous
100
AcDbCircle
 10
233.8751295884167
 20
57.98707246511194
 30
0.0
 40
1.049999999999999
  0
LINE
  5
517
330
1E
100
AcDbEntity
  8
BASE
  6
Continuous
100
AcDbLine
 10
232.8260447555364
 20
57.94324309803253
 30
0.0
 11
228.8325618794103
 21
57.94324309803253
 31
0.0
  0
TEXT
  5
518
330
1E
100
AcDbEntity
  8
BASE
  6
Continuous
100
AcDbText
 10
201.8096308765477
 20
56.9682370093313
 30
0.0
 40
2.25
  1
SGF1/8
  7
ROMANS
100
AcDbText
  0
LINE
  5
519
330
1E
100
AcDbEntity
  8
BASE
  6
Continuous
100
AcDbLine
 10
228.8325618794103
 20
57.94324309803253
 30
0.0
 11
223.0504736076837
 21
55.7190395670964
 31
0.0
  0
LINE
  5
51A
330
1E
100
AcDbEntity
  8
BASE
  6
Continuous
100
AcDbLine
 10
223.0783555268747
 20
57.98963848764771
 30
0.0
 11
217.0392551584345
 21
57.98963848764771
 31
0.0
  0
TEXT
  5
51B
330
1E
100
AcDbEntity
  8
BASE
  6
Continuous
100
AcDbText
 10
201.8402491093975
 20
61.95782598611571
 30
0.0
 40
2.25
  1
SEAL. IN
  7
ROMANS
100
AcDbText
  0
TEXT
  5
51C
330
1E
100
AcDbEntity
  8
BASE
  6
Continuous
100
AcDbText
 10
15.67460263443587
 20
193.2013149426369
 30
0.0
 40
2.0
  1
SGB1/8
  7
ROMANS
100
AcDbText
  0
TEXT
  5
51D
330
1E
100
AcDbEntity
  8
BASE
  6
Continuous
100
AcDbText
 10
53.17460263443587
 20
192.8565812435119
 30
0.0
 40
2.0
  1
Complete relay reset
  7
ROMANS
100
AcDbText
  0
TEXT
  5
51E
330
1E
100
AcDbEntity
  8
BASE
  6
Continuous
100
AcDbText
 10
52.02380890111669
 20
204.3301499172528
 30
0.0
 40
2.0
  1

  7
ROMANS
100
AcDbText
  0
LINE
  5
51F
330
1E
100
AcDbEntity
  8
1
  6
Continuous
100
AcDbLine
 10
240.8507320323813
 20
256.7145793016208
 30
0.0
 11
240.8507320323813
 21
217.4891177448345
 31
0.0
  0
TEXT
  5
520
330
1E
100
AcDbEntity
  8
0
  6
Continuous
100
AcDbText
 10
244.5408420997744
 20
255.4135141409129
 30
0.0
 40
1.5
  1
BS2
  7
ROMANS
100
AcDbText
  0
TEXT
  5
521
330
1E
100
AcDbEntity
  8
BASE
  6
Continuous
100
AcDbText
 10
245.5123405983375
 20
214.5104545146684
 30
0.0
 40
2.0
  1
SGB2/8
  7
ROMANS
100
AcDbText
  0
TEXT
  5
522
330
1E
100
AcDbEntity
  8
BASE
  6
Continuous
100
AcDbText
 10
245.5123405983375
 20
229.4740187987602
 30
0.0
 40
2.0
  1
SGB2/5
  7
ROMANS
100
AcDbText
  0
LINE
  5
523
330
1E
100
AcDbEntity
  8
BASE
  6
Continuous
100
AcDbLine
 10
263.2773351433372
 20
232.7913368565884
 30
0.0
 11
240.7773351433372
 21
232.7913368565884
 31
0.0
  0
LINE
  5
524
330
1E
100
AcDbEntity
  8
BASE
  6
Continuous
100
AcDbLine
 10
263.2773351433372
 20
227.7913368565884
 30
0.0
 11
240.7773351433372
 21
227.7913368565884
 31
0.0
  0
LINE
  5
525
330
1E
100
AcDbEntity
  8
BASE
  6
Continuous
100
AcDbLine
 10
263.2773351433372
 20
222.7913368565884
 30
0.0
 11
240.7773351433372
 21
222.7913368565884
 31
0.0
  0
LINE
  5
526
330
1E
100
AcDbEntity
  8
BASE
  6
Continuous
100
AcDbLine
 10
263.2773351433372
 20
217.7913368565884
 30
0.0
 11
240.7773351433372
 21
217.7913368565884
 31
0.0
  0
TEXT
  5
527
330
1E
100
AcDbEntity
  8
BASE
  6
Continuous
100
AcDbText
 10
245.5123405983375
 20
224.4572388376055
 30
0.0
 40
2.0
  1
SGB2/6
  7
ROMANS
100
AcDbText
  0
TEXT
  5
528
330
1E
100
AcDbEntity
  8
BASE
  6
Continuous
100
AcDbText
 10
245.5123405983375
 20
219.4317813165136
 30
0.0
 40
2.0
  1
SGB2/7
  7
ROMANS
100
AcDbText
  0
LWPOLYLINE
  5
529
330
1E
100
AcDbEntity
  8
BASE
  6
Continuous
100
AcDbPolyline
 90
        2
 70
     1
 43
0.5
 10
240.3507320323813
 20
222.5936714537383
 42
1.0
 10
241.3507320323813
 20
222.5936714537383
 42
1.0
  0
LWPOLYLINE
  5
52D
330
1E
100
AcDbEntity
  8
BASE
  6
Continuous
100
AcDbPolyline
 90
        2
 70
     1
 43
0.5
 10
240.3507320323813
 20
227.5936714537383
 42
1.0
 10
241.3507320323813
 20
227.5936714537383
 42
1.0
  0
LWPOLYLINE
  5
531
330
1E
100
AcDbEntity
  8
BASE
  6
Continuous
100
AcDbPolyline
 90
        2
 70
     1
 43
0.5
 10
240.3507320323813
 20
232.5936714537383
 42
1.0
 10
241.3507320323813
 20
232.5936714537383
 42
1.0
  0
LINE
  5
535
330
1E
100
AcDbEntity
  8
BASE
  6
Continuous
100
AcDbLine
 10
270.7773351433372
 20
224.9238593852372
 30
0.0
 11
262.1614490656625
 21
229.7459143430114
 31
0.0
  0
LINE
  5
536
330
1E
100
AcDbEntity
  8
BASE
  6
Continuous
100
AcDbLine
 10
270.7773351433372
 20
215.0675965729802
 30
0.0
 11
262.1614490656625
 21
219.8896515307544
 31
0.0
  0
LINE
  5
537
330
1E
100
AcDbEntity
  8
BASE
  6
Continuous
100
AcDbLine
 10
270.7773351433372
 20
219.9238593852372
 30
0.0
 11
262.1614490656625
 21
224.7459143430114
 31
0.0
  0
LINE
  5
538
330
1E
100
AcDbEntity
  8
BASE
  6
Continuous
100
AcDbLine
 10
270.7773351433372
 20
229.7801221974943
 30
0.0
 11
262.1614490656625
 21
234.6021771552685
 31
0.0
  0
LINE
  5
539
330
1E
100
AcDbEntity
  8
SWEDEN2
  6
Continuous
 62
     6
100
AcDbLine
 10
270.7773351433372
 20
214.9525280505911
 30
0.0
 11
279.0659271963555
 21
214.9525280505911
 31
0.0
  0
LINE
  5
53A
330
1E
100
AcDbEntity
  8
SWEDEN2
  6
Continuous
 62
     6
100
AcDbLine
 10
270.7773351433372
 20
219.952528050591
 30
0.0
 11
279.1409133754742
 21
219.952528050591
 31
0.0
  0
LINE
  5
53B
330
1E
100
AcDbEntity
  8
SWEDEN2
  6
Continuous
 62
     6
100
AcDbLine
 10
270.7773351433372
 20
224.9525280505911
 30
0.0
 11
279.1409133754742
 21
224.9525280505911
 31
0.0
  0
LINE
  5
53C
330
1E
100
AcDbEntity
  8
SWEDEN2
  6
Continuous
 62
     6
100
AcDbLine
 10
270.7773351433372
 20
229.952528050591
 30
0.0
 11
279.1409133754742
 21
229.952528050591
 31
0.0
  0
LINE
  5
53D
330
1E
100
AcDbEntity
  8
SWEDEN2
  6
Continuous
100
AcDbLine
 10
338.4233310692752
 20
164.0061624036225
 30
0.0
 11
387.9750083805248
 21
164.0061624036225
 31
0.0
  0
LINE
  5
53E
330
1E
100
AcDbEntity
  8
SWEDEN2
  6
Continuous
100
AcDbLine
 10
150.6762215165094
 20
73.25205322075817
 30
0.0
 11
124.8639943842645
 21
73.25205322075817
 31
0.0
  0
LINE
  5
53F
330
1E
100
AcDbEntity
  8
SWEDEN2
  6
Continuous
100
AcDbLine
 10
124.8639943842645
 20
73.25205322075817
 30
0.0
 11
124.8639943842645
 21
65.75205322075817
 31
0.0
  0
LINE
  5
540
330
1E
100
AcDbEntity
  8
SWEDEN2
  6
Continuous
100
AcDbLine
 10
124.8639943842645
 20
65.75205322075817
 30
0.0
 11
150.6762215165094
 21
65.75205322075817
 31
0.0
  0
LINE
  5
541
330
1E
100
AcDbEntity
  8
BASE
  6
Continuous
100
AcDbLine
 10
136.6724353805804
 20
69.9358458141881
 30
0.0
 11
133.153787112242
 21
68.15096709107144
 31
0.0
  0
LINE
  5
542
330
1E
100
AcDbEntity
  8
BASE
  6
Continuous
100
AcDbLine
 10
133.153787112242
 20
71.93887638124121
 30
0.0
 11
136.6724353805804
 21
69.9358458141881
 31
0.0
  0
TEXT
  5
543
330
1E
100
AcDbEntity
  8
BASE
  6
Continuous
100
AcDbText
 10
139.8045797977784
 20
67.94873595360215
 30
0.0
 40
3.75
  1
1
 11
139.8045797977784
 21
66.69873595360215
 31
0.0
100
AcDbText
 73
     1
  0
LINE
  5
544
330
1E
100
AcDbEntity
  8
BASE
  6
Continuous
100
AcDbLine
 10
133.1417244962121
 20
66.95094648593246
 30
0.0
 11
136.716915145833
 21
68.73323424773326
 31
0.0
  0
LINE
  5
545
330
1E
100
AcDbEntity
  8
SWEDEN2
  6
Continuous
100
AcDbLine
 10
150.6762215165094
 20
65.75205322075817
 30
0.0
 11
150.6762215165094
 21
73.25205322075817
 31
0.0
  0
LINE
  5
546
330
1E
100
AcDbEntity
  8
SWEDEN2
  6
Continuous
100
AcDbLine
 10
78.12334086105505
 20
65.75205322075817
 30
0.0
 11
103.9355679932999
 21
65.75205322075817
 31
0.0
  0
LINE
  5
547
330
1E
100
AcDbEntity
  8
SWEDEN2
  6
Continuous
100
AcDbLine
 10
103.9355679932999
 20
73.25205322075817
 30
0.0
 11
78.12334086105505
 21
73.25205322075817
 31
0.0
  0
LINE
  5
548
330
1E
100
AcDbEntity
  8
SWEDEN2
  6
Continuous
100
AcDbLine
 10
78.12334086105505
 20
73.25205322075817
 30
0.0
 11
78.12334086105505
 21
65.75205322075817
 31
0.0
  0
LINE
  5
549
330
1E
100
AcDbEntity
  8
BASE
  6
Continuous
100
AcDbLine
 10
86.40107097300262
 20
66.95094648593246
 30
0.0
 11
89.97626162262355
 21
68.73323424773326
 31
0.0
  0
LINE
  5
54A
330
1E
100
AcDbEntity
  8
BASE
  6
Continuous
100
AcDbLine
 10
86.4131335890325
 20
71.93887638124121
 30
0.0
 11
89.93178185737093
 21
69.9358458141881
 31
0.0
  0
LINE
  5
54B
330
1E
100
AcDbEntity
  8
BASE
  6
Continuous
100
AcDbLine
 10
89.93178185737093
 20
69.9358458141881
 30
0.0
 11
86.4131335890325
 21
68.15096709107144
 31
0.0
  0
TEXT
  5
54C
330
1E
100
AcDbEntity
  8
BASE
  6
Continuous
100
AcDbText
 10
93.06392627456892
 20
67.94873595360215
 30
0.0
 40
3.75
  1
1
 11
93.06392627456892
 21
66.69873595360215
 31
0.0
100
AcDbText
 73
     1
  0
LINE
  5
54D
330
1E
100
AcDbEntity
  8
SWEDEN2
  6
Continuous
100
AcDbLine
 10
103.9355679932999
 20
65.75205322075817
 30
0.0
 11
103.9355679932999
 21
73.25205322075817
 31
0.0
  0
CIRCLE
  5
54E
330
1E
100
AcDbEntity
  8
BASE
  6
Continuous
100
AcDbCircle
 10
337.7041113593754
 20
154.2157828218449
 30
0.0
 40
0.7980192855404964
  0
LINE
  5
54F
330
1E
100
AcDbEntity
  8
1
  6
Continuous
100
AcDbLine
 10
332.420308740166
 20
154.2157828218449
 30
0.0
 11
336.7766890153281
 21
154.2157828218449
 31
0.0
  0
TEXT
  5
550
330
1E
100
AcDbEntity
  8
BASE
  6
Continuous
100
AcDbText
 10
345.1300300079698
 20
120.7353597926505
 30
0.0
 40
3.109531518794881
  1
tr
 11
345.1300300079698
 21
119.6988492863855
 31
0.0
100
AcDbText
 73
     1
  0
TEXT
  5
551
330
1E
100
AcDbEntity
  8
BASE
  6
Continuous
100
AcDbText
 10
355.4652599542005
 20
120.8407671781541
 30
0.0
 40
3.75
  1

 11
355.4652599542005
 21
119.5907671781542
 31
0.0
100
AcDbText
 73
     1
  0
TEXT
  5
552
330
1E
100
AcDbEntity
  8
BASE
  6
Continuous
100
AcDbText
 10
355.4303776137948
 20
128.9812434199928
 30
0.0
 40
3.75
  1

 11
355.4303776137948
 21
127.7312434199928
 31
0.0
100
AcDbText
 73
     1
  0
TEXT
  5
553
330
1E
100
AcDbEntity
  8
BASE
  6
Continuous
100
AcDbText
 10
357.0278241134331
 20
144.1093589986668
 30
0.0
 40
3.75
  1
/Uo2
 11
357.0278241134331
 21
142.8593589986668
 31
0.0
100
AcDbText
 73
     1
  0
TEXT
  5
554
330
1E
100
AcDbEntity
  8
BASE
  6
Continuous
100
AcDbText
 10
356.1498795825241
 20
135.9688827568281
 30
0.0
 40
3.75
  1
/Uo2
 11
356.1498795825241
 21
134.7188827568281
 31
0.0
100
AcDbText
 73
     1
  0
TEXT
  5
555
330
1E
100
AcDbEntity
  8
BASE
  6
Continuous
100
AcDbText
 10
53.17460263443587
 20
207.7202437721904
 30
0.0
 40
2.0
  1
Remote settings
  7
ROMANS
100
AcDbText
  0
LINE
  5
556
330
1E
100
AcDbEntity
  8
1
  6
Continuous
100
AcDbLine
 10
43.17460263443587
 20
213.9554280871107
 30
0.0
 11
50.67460263443587
 21
213.9554280871107
 31
0.0
  0
TEXT
  5
557
330
1E
100
AcDbEntity
  8
BASE
  6
Continuous
100
AcDbText
 10
53.17460263443587
 20
197.947297077536
 30
0.0
 40
2.0
  1
Reset trip indicators and output relays
  7
ROMANS
100
AcDbText
  0
LINE
  5
558
330
1E
100
AcDbEntity
  8
1
  6
Continuous
100
AcDbLine
 10
43.17460263443587
 20
204.0053922673734
 30
0.0
 11
50.67460263443587
 21
204.0053922673734
 31
0.0
  0
TEXT
  5
559
330
1E
100
AcDbEntity
  8
BASE
  6
Continuous
100
AcDbText
 10
281.7715424232957
 20
233.9107453822393
 30
0.0
 40
2.0
  1
BACTRL
  7
ROMANS
100
AcDbText
  0
TEXT
  5
55A
330
1E
100
AcDbEntity
  8
BASE
  6
Continuous
100
AcDbText
 10
281.7715424232957
 20
223.8021720260695
 30
0.0
 40
2.0
  1
Trip ind. reset
  7
ROMANS
100
AcDbText
  0
TEXT
  5
55B
330
1E
100
AcDbEntity
  8
BASE
  6
Continuous
100
AcDbText
 10
281.7715424232957
 20
219.1199411654392
 30
0.0
 40
2.0
  1
Reset trip indicators and output relays
  7
ROMANS
100
AcDbText
  0
TEXT
  5
55C
330
1E
100
AcDbEntity
  8
BASE
  6
Continuous
100
AcDbText
 10
281.7715424232957
 20
214.0292253314151
 30
0.0
 40
2.0
  1
Complete relay reset
  7
ROMANS
100
AcDbText
  0
TEXT
  5
55D
330
1E
100
AcDbEntity
  8
BASE
  6
Continuous
100
AcDbText
 10
281.7715424232957
 20
213.9965067431432
 30
0.0
 40
2.0
  1

  7
ROMANS
100
AcDbText
  0
LWPOLYLINE
  5
55E
330
1E
100
AcDbEntity
  8
BASE
  6
Continuous
100
AcDbPolyline
 90
        2
 70
     1
 43
0.5
 10
240.3507320323813
 20
237.5218028598668
 42
1.0
 10
241.3507320323813
 20
237.5218028598668
 42
1.0
  0
LINE
  5
562
330
1E
100
AcDbEntity
  8
BASE
  6
Continuous
100
AcDbLine
 10
263.2773351433372
 20
237.7194682627169
 30
0.0
 11
240.7773351433372
 21
237.7194682627169
 31
0.0
  0
TEXT
  5
563
330
1E
100
AcDbEntity
  8
BASE
  6
Continuous
100
AcDbText
 10
245.5123405983375
 20
234.4021502048887
 30
0.0
 40
2.0
  1
SGB2/4
  7
ROMANS
100
AcDbText
  0
LINE
  5
564
330
1E
100
AcDbEntity
  8
BASE
  6
Continuous
100
AcDbLine
 10
270.7773351433372
 20
234.7082536036228
 30
0.0
 11
262.1614490656625
 21
239.530308561397
 31
0.0
  0
LINE
  5
565
330
1E
100
AcDbEntity
  8
SWEDEN2
  6
Continuous
 62
     6
100
AcDbLine
 10
270.7773351433372
 20
234.8806594567196
 30
0.0
 11
279.1409133754742
 21
234.8806594567196
 31
0.0
  0
LINE
  5
566
330
1E
100
AcDbEntity
  8
SWEDEN2
  6
Continuous
 62
     6
100
AcDbLine
 10
52.11963441474428
 20
59.03707246511194
 30
0.0
 11
52.11963441474428
 21
65.73009121765365
 31
0.0
  0
LINE
  5
567
330
1E
100
AcDbEntity
  8
SWEDEN2
  6
Continuous
 62
     6
100
AcDbLine
 10
52.11963441474428
 20
56.93707246511195
 30
0.0
 11
52.11963441474428
 21
49.98098371548637
 31
0.0
  0
LINE
  5
568
330
1E
100
AcDbEntity
  8
SWEDEN2
  6
Continuous
 62
     6
100
AcDbLine
 10
233.8751295884167
 20
59.03707246511194
 30
0.0
 11
233.8751295884167
 21
65.73009121765365
 31
0.0
  0
LINE
  5
569
330
1E
100
AcDbEntity
  8
SWEDEN2
  6
Continuous
 62
     6
100
AcDbLine
 10
233.8751295884167
 20
56.93707246511195
 30
0.0
 11
233.8751295884167
 21
49.76375486679692
 31
0.0
  0
TEXT
  5
56A
330
1E
100
AcDbEntity
  8
BASE
  6
Continuous
100
AcDbText
 10
281.7715424232957
 20
229.1209721378872
 30
0.0
 40
2.0
  1
Remote settings
  7
ROMANS
100
AcDbText
  0
LINE
  5
56B
330
1E
100
AcDbEntity
  8
0
  6
Continuous
100
AcDbLine
 10
345.053772995316
 20
152.5671801095787
 30
0.0
 11
345.053772995316
 21
151.2129097128176
 31
0.0
  0
TEXT
  5
56C
330
1E
100
AcDbEntity
  8
BASE
  6
Continuous
100
AcDbText
 10
341.2587896838685
 20
150.5579604905307
 30
0.0
 40
3.75
  1
I
 11
341.2587896838685
 21
149.3079604905307
 31
0.0
100
AcDbText
 73
     1
  0
LINE
  5
56D
330
1E
100
AcDbEntity
  8
0
  6
Continuous
100
AcDbLine
 10
343.8435453173678
 20
151.2129097128176
 30
0.0
 11
345.0378863079848
 21
151.2129097128176
 31
0.0
  0
LINE
  5
56E
330
1E
100
AcDbEntity
  8
0
  6
Continuous
100
AcDbLine
 10
345.0378863079848
 20
151.2129097128176
 30
0.0
 11
346.2322272986017
 21
151.2129097128176
 31
0.0
  0
LINE
  5
56F
330
1E
100
AcDbEntity
  8
0
  6
Continuous
100
AcDbLine
 10
344.2219503837018
 20
150.590847501563
 30
0.0
 11
345.8065215989758
 21
150.590847501563
 31
0.0
  0
LINE
  5
570
330
1E
100
AcDbEntity
  8
0
  6
Continuous
100
AcDbLine
 10
344.5530548167442
 20
149.9792144147629
 30
0.0
 11
345.4399416909647
 21
149.9792144147629
 31
0.0
  0
LINE
  5
571
330
1E
100
AcDbEntity
  8
BASE
  6
Continuous
100
AcDbLine
 10
348.4307823820054
 20
153.6393049747308
 30
0.0
 11
351.9494306503438
 21
151.6362744076777
 31
0.0
  0
LINE
  5
572
330
1E
100
AcDbEntity
  8
BASE
  6
Continuous
100
AcDbLine
 10
351.9494306503438
 20
151.6362744076777
 30
0.0
 11
348.4307823820054
 21
149.8513956845611
 31
0.0
  0
LINE
  5
573
330
1E
100
AcDbEntity
  8
0
  6
Continuous
100
AcDbLine
 10
345.053772995316
 20
160.3220510116596
 30
0.0
 11
345.053772995316
 21
158.9677806148985
 31
0.0
  0
TEXT
  5
574
330
1E
100
AcDbEntity
  8
BASE
  6
Continuous
100
AcDbText
 10
341.2587896838685
 20
158.3128313926115
 30
0.0
 40
3.75
  1
I
 11
341.2587896838685
 21
157.0628313926115
 31
0.0
100
AcDbText
 73
     1
  0
LINE
  5
575
330
1E
100
AcDbEntity
  8
0
  6
Continuous
100
AcDbLine
 10
343.8435453173678
 20
158.9677806148985
 30
0.0
 11
345.0378863079848
 21
158.9677806148985
 31
0.0
  0
LINE
  5
576
330
1E
100
AcDbEntity
  8
0
  6
Continuous
100
AcDbLine
 10
345.0378863079848
 20
158.9677806148985
 30
0.0
 11
346.2322272986017
 21
158.9677806148985
 31
0.0
  0
LINE
  5
577
330
1E
100
AcDbEntity
  8
0
  6
Continuous
100
AcDbLine
 10
344.2219503837018
 20
158.3457184036439
 30
0.0
 11
345.8065215989758
 21
158.3457184036439
 31
0.0
  0
LINE
  5
578
330
1E
100
AcDbEntity
  8
0
  6
Continuous
100
AcDbLine
 10
344.5530548167442
 20
157.7340853168438
 30
0.0
 11
345.4399416909647
 21
157.7340853168438
 31
0.0
  0
LINE
  5
579
330
1E
100
AcDbEntity
  8
BASE
  6
Continuous
100
AcDbLine
 10
348.4307823820054
 20
161.3941758768117
 30
0.0
 11
351.9494306503438
 21
159.3911453097586
 31
0.0
  0
LINE
  5
57A
330
1E
100
AcDbEntity
  8
BASE
  6
Continuous
100
AcDbLine
 10
351.9494306503438
 20
159.3911453097586
 30
0.0
 11
348.4307823820054
 21
157.606266586642
 31
0.0
  0
LINE
  5
57B
330
1E
100
AcDbEntity
  8
BASE
  6
Continuous
100
AcDbLine
 10
350.7128485099674
 20
146.5686869060306
 30
0.0
 11
354.2314967783058
 21
144.5656563389775
 31
0.0
  0
LINE
  5
57C
330
1E
100
AcDbEntity
  8
BASE
  6
Continuous
100
AcDbLine
 10
354.2314967783058
 20
144.5656563389775
 30
0.0
 11
350.7128485099674
 21
142.7807776158608
 31
0.0
  0
LINE
  5
57D
330
1E
100
AcDbEntity
  8
BASE
  6
Continuous
100
AcDbLine
 10
350.7128485099674
 20
139.1048404305737
 30
0.0
 11
354.2314967783058
 21
137.1018098635206
 31
0.0
  0
LINE
  5
57E
330
1E
100
AcDbEntity
  8
BASE
  6
Continuous
100
AcDbLine
 10
354.2314967783058
 20
137.1018098635206
 30
0.0
 11
350.7128485099674
 21
135.316931140404
 31
0.0
  0
TEXT
  5
57F
330
1E
100
AcDbEntity
  8
BASE
  6
Continuous
100
AcDbText
 10
341.2587896838685
 20
128.2843611086283
 30
0.0
 40
3.75
  1
I
 11
341.2587896838685
 21
127.0343611086283
 31
0.0
100
AcDbText
 73
     1
  0
LINE
  5
580
330
1E
100
AcDbEntity
  8
BASE
  6
Continuous
100
AcDbLine
 10
355.7351174239418
 20
129.3626750257754
 30
0.0
 11
352.2164691556034
 21
127.5777963026587
 31
0.0
  0
LINE
  5
581
330
1E
100
AcDbEntity
  8
BASE
  6
Continuous
100
AcDbLine
 10
352.1376695799627
 20
131.3657055928285
 30
0.0
 11
355.6563178483012
 21
129.3626750257754
 31
0.0
  0
TEXT
  5
582
330
1E
100
AcDbEntity
  8
BASE
  6
Continuous
100
AcDbText
 10
345.1300300079698
 20
128.1942437191576
 30
0.0
 40
3.109531518794881
  1
tr
 11
345.1300300079698
 21
127.1577332128927
 31
0.0
100
AcDbText
 73
     1
  0
LWPOLYLINE
  5
583
330
1E
100
AcDbEntity
  8
BASE
  6
Continuous
100
AcDbPolyline
 90
        2
 70
     1
 43
0.5
 10
296.7830446533987
 20
129.4826827775524
 42
1.0
 10
297.7830446533987
 20
129.4826827775524
 42
1.0
  0
LWPOLYLINE
  5
587
330
1E
100
AcDbEntity
  8
BASE
  6
Continuous
100
AcDbPolyline
 90
        2
 70
     1
 43
0.5
 10
300.5330446533988
 20
121.9826827775525
 42
1.0
 10
301.5330446533988
 20
121.9826827775525
 42
1.0
  0
LWPOLYLINE
  5
58B
330
1E
100
AcDbEntity
  8
BASE
  6
Continuous
100
AcDbPolyline
 90
        2
 70
     1
 43
0.5
 10
292.8969263178813
 20
137.0020532207582
 42
1.0
 10
293.8969263178813
 20
137.0020532207582
 42
1.0
  0
LWPOLYLINE
  5
58F
330
1E
100
AcDbEntity
  8
BASE
  6
Continuous
100
AcDbPolyline
 90
        2
 70
     1
 43
0.5
 10
285.3969263178813
 20
152.0020532207581
 42
1.0
 10
286.3969263178813
 20
152.0020532207581
 42
1.0
  0
LWPOLYLINE
  5
593
330
1E
100
AcDbEntity
  8
BASE
  6
Continuous
100
AcDbPolyline
 90
        2
 70
     1
 43
0.5
 10
281.6469263178813
 20
159.5020532207581
 42
1.0
 10
282.6469263178813
 20
159.5020532207581
 42
1.0
  0
LWPOLYLINE
  5
597
330
1E
100
AcDbEntity
  8
BASE
  6
Continuous
100
AcDbPolyline
 90
        2
 70
     1
 43
0.5
 10
289.1469263178813
 20
144.5020532207581
 42
1.0
 10
290.1469263178814
 20
144.5020532207581
 42
1.0
  0
LINE
  5
59B
330
1E
100
AcDbEntity
  8
SWEDEN2
  6
Continuous
 62
     6
100
AcDbLine
 10
290.5221935635099
 20
49.70917694243493
 30
0.0
 11
290.5221935635099
 21
65.73009121765365
 31
0.0
  0
LINE
  5
59C
330
1E
100
AcDbEntity
  8
1
  6
Continuous
100
AcDbLine
 10
289.6469263178813
 20
88.25205322075817
 30
0.0
 11
289.6469263178813
 21
144.5020532207581
 31
0.0
  0
LINE
  5
59D
330
1E
100
AcDbEntity
  8
1
  6
Continuous
100
AcDbLine
 10
285.8969263178813
 20
88.25205322075817
 30
0.0
 11
285.8969263178813
 21
152.0020532207581
 31
0.0
  0
LINE
  5
59E
330
1E
100
AcDbEntity
  8
1
  6
Continuous
100
AcDbLine
 10
282.1469263178813
 20
88.25205322075817
 30
0.0
 11
282.1469263178813
 21
159.5020532207581
 31
0.0
  0
TEXT
  5
59F
330
1E
100
AcDbEntity
  8
BASE
  6
Continuous
100
AcDbText
 10
300.3479899424259
 20
88.4542508940296
 30
0.0
 40
2.25
  1

 50
90.0
  7
ROMANS
100
AcDbText
  0
LINE
  5
5A0
330
1E
100
AcDbEntity
  8
1
  6
Continuous
100
AcDbLine
 10
297.2830446533987
 20
88.25205322075817
 30
0.0
 11
297.2830446533987
 21
129.5287322248599
 31
0.0
  0
LINE
  5
5A1
330
1E
100
AcDbEntity
  8
1
  6
Continuous
100
AcDbLine
 10
301.0330446533987
 20
88.25205322075817
 30
0.0
 11
301.0330446533988
 21
122.0756504610884
 31
0.0
  0
TEXT
  5
5A2
330
1E
100
AcDbEntity
  8
BASE
  6
Continuous
100
AcDbText
 10
289.2096874904282
 20
88.4542508940296
 30
0.0
 40
2.25
  1

 50
90.0
  7
ROMANS
100
AcDbText
  0
TEXT
  5
5A3
330
1E
100
AcDbEntity
  8
BASE
  6
Continuous
100
AcDbText
 10
292.7118716069086
 20
88.4542508940296
 30
0.0
 40
2.25
  1

 50
90.0
  7
ROMANS
100
AcDbText
  0
TEXT
  5
5A4
330
1E
100
AcDbEntity
  8
BASE
  6
Continuous
100
AcDbText
 10
296.4877299857521
 20
88.4542508940296
 30
0.0
 40
2.25
  1

 50
90.0
  7
ROMANS
100
AcDbText
  0
LINE
  5
5A5
330
1E
100
AcDbEntity
  8
1
  6
Continuous
100
AcDbLine
 10
293.3969263178813
 20
88.25205322075817
 30
0.0
 11
293.3969263178813
 21
137.0020532207582
 31
0.0
  0
TEXT
  5
5A6
330
1E
100
AcDbEntity
  8
BASE
  6
Continuous
100
AcDbText
 10
281.7614042481151
 20
88.4542508940296
 30
0.0
 40
2.25
  1
SGF2/3
 50
90.0
  7
ROMANS
100
AcDbText
  0
TEXT
  5
5A7
330
1E
100
AcDbEntity
  8
BASE
  6
Continuous
100
AcDbText
 10
285.5114042481152
 20
88.4542508940296
 30
0.0
 40
2.25
  1

 50
90.0
  7
ROMANS
100
AcDbText
  0
LINE
  5
5A8
330
1E
100
AcDbEntity
  8
SWEDEN2
  6
Continuous
100
AcDbLine
 10
278.3699163879601
 20
65.75205322075817
 30
0.0
 11
303.9610625516393
 21
65.75205322075817
 31
0.0
  0
LINE
  5
5A9
330
1E
100
AcDbEntity
  8
SWEDEN2
  6
Continuous
100
AcDbLine
 10
303.9610625516393
 20
73.25205322075817
 30
0.0
 11
278.3699163879601
 21
73.25205322075817
 31
0.0
  0
LINE
  5
5AA
330
1E
100
AcDbEntity
  8
BASE
  6
Continuous
100
AcDbLine
 10
288.7895157338832
 20
69.9358458141881
 30
0.0
 11
285.2708674655448
 21
68.15096709107144
 31
0.0
  0
LINE
  5
5AB
330
1E
100
AcDbEntity
  8
BASE
  6
Continuous
100
AcDbLine
 10
285.2588048495149
 20
66.95094648593246
 30
0.0
 11
288.8339954991357
 21
68.73323424773326
 31
0.0
  0
LINE
  5
5AC
330
1E
100
AcDbEntity
  8
BASE
  6
Continuous
100
AcDbLine
 10
285.2708674655448
 20
71.93887638124121
 30
0.0
 11
288.7895157338832
 21
69.9358458141881
 31
0.0
  0
LINE
  5
5AD
330
1E
100
AcDbEntity
  8
BASE
  6
Continuous
100
AcDbLine
 10
286.4723226593786
 20
73.25205322075817
 30
0.0
 11
286.4723226593786
 21
77.00205322075817
 31
0.0
  0
LINE
  5
5AE
330
1E
100
AcDbEntity
  8
BASE
  6
Continuous
100
AcDbLine
 10
282.7223226593786
 20
73.25205322075817
 30
0.0
 11
282.7223226593786
 21
77.00205322075817
 31
0.0
  0
LINE
  5
5AF
330
1E
100
AcDbEntity
  8
SWEDEN2
  6
Continuous
100
AcDbLine
 10
278.3699163879601
 20
73.25205322075817
 30
0.0
 11
278.3699163879601
 21
65.75205322075817
 31
0.0
  0
LINE
  5
5B0
330
1E
100
AcDbEntity
  8
BASE
  6
Continuous
100
AcDbLine
 10
285.8969263178813
 20
84.50205322075817
 30
0.0
 11
285.8969263178813
 21
88.25205322075817
 31
0.0
  0
LINE
  5
5B1
330
1E
100
AcDbEntity
  8
BASE
  6
Continuous
100
AcDbLine
 10
282.1469263178813
 20
84.50205322075817
 30
0.0
 11
282.1469263178813
 21
88.25205322075817
 31
0.0
  0
LINE
  5
5B2
330
1E
100
AcDbEntity
  8
BASE
  6
Continuous
100
AcDbLine
 10
286.4723226593786
 20
77.00205322075817
 30
0.0
 11
283.8956382705142
 21
84.52450159799994
 31
0.0
  0
LINE
  5
5B3
330
1E
100
AcDbEntity
  8
BASE
  6
Continuous
100
AcDbLine
 10
282.7223226593786
 20
77.00205322075817
 30
0.0
 11
280.1456382705142
 21
84.52450159799994
 31
0.0
  0
LINE
  5
5B4
330
1E
100
AcDbEntity
  8
BASE
  6
Continuous
100
AcDbLine
 10
301.6084409948959
 20
73.25205322075817
 30
0.0
 11
301.6084409948959
 21
77.00205322075817
 31
0.0
  0
LINE
  5
5B5
330
1E
100
AcDbEntity
  8
BASE
  6
Continuous
100
AcDbLine
 10
297.858440994896
 20
73.25205322075817
 30
0.0
 11
297.858440994896
 21
77.00205322075817
 31
0.0
  0
LINE
  5
5B6
330
1E
100
AcDbEntity
  8
BASE
  6
Continuous
100
AcDbLine
 10
290.2223226593786
 20
73.25205322075817
 30
0.0
 11
290.2223226593786
 21
77.00205322075817
 31
0.0
  0
LINE
  5
5B7
330
1E
100
AcDbEntity
  8
BASE
  6
Continuous
100
AcDbLine
 10
293.9723226593786
 20
73.25205322075817
 30
0.0
 11
293.9723226593786
 21
77.00205322075817
 31
0.0
  0
TEXT
  5
5B8
330
1E
100
AcDbEntity
  8
BASE
  6
Continuous
100
AcDbText
 10
291.9216601510811
 20
67.94873595360215
 30
0.0
 40
3.75
  1
1
 11
291.9216601510811
 21
66.69873595360215
 31
0.0
100
AcDbText
 73
     1
  0
LINE
  5
5B9
330
1E
100
AcDbEntity
  8
SWEDEN2
  6
Continuous
100
AcDbLine
 10
303.9610625516393
 20
65.75205322075817
 30
0.0
 11
303.9610625516393
 21
73.25205322075817
 31
0.0
  0
LINE
  5
5BA
330
1E
100
AcDbEntity
  8
BASE
  6
Continuous
100
AcDbLine
 10
297.2830446533987
 20
84.50205322075817
 30
0.0
 11
297.2830446533987
 21
88.25205322075817
 31
0.0
  0
LINE
  5
5BB
330
1E
100
AcDbEntity
  8
BASE
  6
Continuous
100
AcDbLine
 10
301.0330446533987
 20
84.50205322075817
 30
0.0
 11
301.0330446533987
 21
88.25205322075817
 31
0.0
  0
LINE
  5
5BC
330
1E
100
AcDbEntity
  8
BASE
  6
Continuous
100
AcDbLine
 10
289.6469263178813
 20
84.50205322075817
 30
0.0
 11
289.6469263178813
 21
88.25205322075817
 31
0.0
  0
LINE
  5
5BD
330
1E
100
AcDbEntity
  8
BASE
  6
Continuous
100
AcDbLine
 10
293.3969263178813
 20
84.50205322075817
 30
0.0
 11
293.3969263178813
 21
88.25205322075817
 31
0.0
  0
LINE
  5
5BE
330
1E
100
AcDbEntity
  8
BASE
  6
Continuous
100
AcDbLine
 10
293.9723226593786
 20
77.00205322075817
 30
0.0
 11
291.3956382705142
 21
84.52450159799994
 31
0.0
  0
LINE
  5
5BF
330
1E
100
AcDbEntity
  8
BASE
  6
Continuous
100
AcDbLine
 10
290.2223226593786
 20
77.00205322075817
 30
0.0
 11
287.6456382705142
 21
84.52450159799994
 31
0.0
  0
LINE
  5
5C0
330
1E
100
AcDbEntity
  8
BASE
  6
Continuous
100
AcDbLine
 10
297.858440994896
 20
77.00205322075817
 30
0.0
 11
295.2817566060316
 21
84.52450159799994
 31
0.0
  0
LINE
  5
5C1
330
1E
100
AcDbEntity
  8
BASE
  6
Continuous
100
AcDbLine
 10
301.6084409948959
 20
77.00205322075817
 30
0.0
 11
299.0317566060316
 21
84.52450159799994
 31
0.0
  0
LINE
  5
5C2
330
1E
100
AcDbEntity
  8
BASE
  6
Continuous
100
AcDbLine
 10
293.3969263178813
 20
88.25205322075817
 30
0.0
 11
293.3969263178813
 21
88.25205322075817
 31
0.0
  0
LINE
  5
5C3
330
1E
100
AcDbEntity
  8
BASE
  6
Continuous
100
AcDbLine
 10
301.0330446533987
 20
88.25205322075817
 30
0.0
 11
301.0330446533987
 21
88.25205322075817
 31
0.0
  0
TEXT
  5
5C4
330
1E
100
AcDbEntity
  8
BASE
  6
Continuous
100
AcDbText
 10
285.61340430531
 20
88.4542508940296
 30
0.0
 40
2.25
  1
SGF2/4
 50
90.0
  7
ROMANS
100
AcDbText
  0
TEXT
  5
5C5
330
1E
100
AcDbEntity
  8
BASE
  6
Continuous
100
AcDbText
 10
289.2388171867001
 20
88.4542508940296
 30
0.0
 40
2.25
  1
SGF2/5
 50
90.0
  7
ROMANS
100
AcDbText
  0
TEXT
  5
5C6
330
1E
100
AcDbEntity
  8
BASE
  6
Continuous
100
AcDbText
 10
293.090817243895
 20
88.4542508940296
 30
0.0
 40
2.25
  1
SGF2/6
 50
90.0
  7
ROMANS
100
AcDbText
  0
TEXT
  5
5C7
330
1E
100
AcDbEntity
  8
BASE
  6
Continuous
100
AcDbText
 10
296.94281730109
 20
88.4542508940296
 30
0.0
 40
2.25
  1
SGF2/7
 50
90.0
  7
ROMANS
100
AcDbText
  0
TEXT
  5
5C8
330
1E
100
AcDbEntity
  8
BASE
  6
Continuous
100
AcDbText
 10
300.7948183620911
 20
88.4542508940296
 30
0.0
 40
2.25
  1
SGF2/8
 50
90.0
  7
ROMANS
100
AcDbText
  0
ENDSEC
  0
SECTION
  2
OBJECTS
  0
DICTIONARY
  5
C
330
0
100
AcDbDictionary
281
     1
  3
ACAD_GROUP
350
D
  3
ACAD_LAYOUT
350
19
  3
ACAD_MLINESTYLE
350
16
  3
ACAD_PLOTSETTINGS
350
18
  3
ACAD_PLOTSTYLENAME
350
E
  3
AcDbVariableDictionary
350
5CB
  0
DICTIONARY
  5
D
102
{ACAD_REACTORS
330
C
102
}
330
C
100
AcDbDictionary
281
     1
  0
DICTIONARY
  5
19
102
{ACAD_REACTORS
330
C
102
}
330
C
100
AcDbDictionary
281
     1
  3
Layout1
350
1D
  3
Model
350
21
  0
DICTIONARY
  5
16
102
{ACAD_REACTORS
330
C
102
}
330
C
100
AcDbDictionary
281
     1
  3
Standard
350
17
  0
DICTIONARY
  5
18
102
{ACAD_REACTORS
330
C
102
}
330
C
100
AcDbDictionary
281
     1
  0
ACDBDICTIONARYWDFLT
  5
E
102
{ACAD_REACTORS
330
C
102
}
330
C
100
AcDbDictionary
281
     1
  3
Normal
350
F
100
AcDbDictionaryWithDefault
340
F
  0
DICTIONARY
  5
5CB
102
{ACAD_REACTORS
330
C
102
}
330
C
100
AcDbDictionary
281
     1
  3
DIMASSOC
350
5CD
  3
HIDETEXT
350
5CC
  0
LAYOUT
  5
1D
102
{ACAD_REACTORS
330
19
102
}
330
19
100
AcDbPlotSettings
  1

  2
\\FIVAA-S-IGS2002\FIVAA-P-234
  4

  6

 40
0.0
 41
0.0
 42
0.0
 43
0.0
 44
0.0
 45
0.0
 46
0.0
 47
0.0
 48
0.0
 49
0.0
140
0.0
141
0.0
142
1.0
143
1.0
 70
   688
 72
     0
 73
     0
 74
     5
  7

 75
    16
147
1.0
148
0.0
149
0.0
100
AcDbLayout
  1
Layout1
 70
     0
 71
     1
 10
0.0
 20
0.0
 11
12.0
 21
9.0
 12
0.0
 22
0.0
 32
0.0
 14
1.000000000000000E+20
 24
1.000000000000000E+20
 34
1.000000000000000E+20
 15
-1.000000000000000E+20
 25
-1.000000000000000E+20
 35
-1.000000000000000E+20
146
0.0
 13
0.0
 23
0.0
 33
0.0
 16
1.0
 26
0.0
 36
0.0
 17
0.0
 27
1.0
 37
0.0
 76
     0
330
1A
  0
LAYOUT
  5
21
102
{ACAD_REACTORS
330
19
102
}
330
19
100
AcDbPlotSettings
  1

  2
\\FIVAA-S-IGS2002\FIVAA-P-234
  4

  6

 40
0.0
 41
0.0
 42
0.0
 43
0.0
 44
0.0
 45
0.0
 46
0.0
 47
0.0
 48
0.0
 49
0.0
140
0.0
141
0.0
142
1.0
143
1.0
 70
  1712
 72
     0
 73
     0
 74
     0
  7

 75
     0
147
1.0
148
0.0
149
0.0
100
AcDbLayout
  1
Model
 70
     1
 71
     0
 10
0.0
 20
0.0
 11
12.0
 21
9.0
 12
0.0
 22
0.0
 32
0.0
 14
0.0
 24
0.0
 34
0.0
 15
0.0
 25
0.0
 35
0.0
146
0.0
 13
0.0
 23
0.0
 33
0.0
 16
1.0
 26
0.0
 36
0.0
 17
0.0
 27
1.0
 37
0.0
 76
     0
330
1E
  0
MLINESTYLE
  5
17
102
{ACAD_REACTORS
330
16
102
}
330
16
100
AcDbMlineStyle
  2
STANDARD
 70
     0
  3

 62
   256
 51
90.0
 52
90.0
 71
     2
 49
0.5
 62
   256
  6
BYLAYER
 49
-0.5
 62
   256
  6
BYLAYER
  0
ACDBPLACEHOLDER
  5
F
102
{ACAD_REACTORS
330
E
102
}
330
E
  0
DICTIONARYVAR
  5
5CD
102
{ACAD_REACTORS
330
5CB
102
}
330
5CB
100
DictionaryVariables
280
     0
  1
2
  0
DICTIONARYVAR
  5
5CC
102
{ACAD_REACTORS
330
5CB
102
}
330
5CB
100
DictionaryVariables
280
     0
  1
1
  0
ENDSEC
  0
EOF
