  0
SECTION
  2
HEADER
  9
$ACADVER
  1
AC1009
  9
$DWGCODEPAGE
  3
iso8859-1
  9
$INSBASE
 10
0.0
 20
0.0
 30
0.0
  9
$EXTMIN
 10
1.0E20
 20
1.0E20
  9
$EXTMAX
 10
-1.0E20
 20
-1.0E20
  9
$LIMMIN
 10
0.0
 20
0.0
  9
$LIMMAX
 10
12.0
 20
9.0
  9
$ORTHOMODE
 70
     0
  9
$REGENMODE
 70
     1
  9
$FILLMODE
 70
     1
  9
$QTEXTMODE
 70
     0
  9
$MIRRTEXT
 70
     1
  9
$DRAGMODE
 70
     2
  9
$LTSCALE
 40
15.0
  9
$OSMODE
 70
     0
  9
$ATTMODE
 70
     1
  9
$TEXTSIZE
 40
0.2
  9
$TRACEWID
 40
0.05
  9
$TEXTSTYLE
  7
STANDARD
  9
$CLAYER
  8
0
  9
$CELTYPE
  6
DASHED
  9
$CECOLOR
 62
   256
  9
$DIMSCALE
 40
1.0
  9
$DIMASZ
 40
0.18
  9
$DIMEXO
 40
0.0625
  9
$DIMDLI
 40
0.38
  9
$DIMRND
 40
0.0
  9
$DIMDLE
 40
0.0
  9
$DIMEXE
 40
0.18
  9
$DIMTP
 40
0.0
  9
$DIMTM
 40
0.0
  9
$DIMTXT
 40
0.18
  9
$DIMCEN
 40
0.09
  9
$DIMTSZ
 40
0.0
  9
$DIMTOL
 70
     0
  9
$DIMLIM
 70
     0
  9
$DIMTIH
 70
     1
  9
$DIMTOH
 70
     1
  9
$DIMSE1
 70
     0
  9
$DIMSE2
 70
     0
  9
$DIMTAD
 70
     0
  9
$DIMZIN
 70
     0
  9
$DIMBLK
  1

  9
$DIMASO
 70
     1
  9
$DIMSHO
 70
     1
  9
$DIMPOST
  1

  9
$DIMAPOST
  1

  9
$DIMALT
 70
     0
  9
$DIMALTD
 70
     2
  9
$DIMALTF
 40
25.4
  9
$DIMLFAC
 40
1.0
  9
$DIMTOFL
 70
     0
  9
$DIMTVP
 40
0.0
  9
$DIMTIX
 70
     0
  9
$DIMSOXD
 70
     0
  9
$DIMSAH
 70
     0
  9
$DIMBLK1
  1

  9
$DIMBLK2
  1

  9
$DIMSTYLE
  2
STANDARD
  9
$DIMCLRD
 70
     0
  9
$DIMCLRE
 70
     0
  9
$DIMCLRT
 70
     0
  9
$DIMTFAC
 40
1.0
  9
$DIMGAP
 40
0.09
  9
$LUNITS
 70
     2
  9
$LUPREC
 70
     4
  9
$AXISMODE
 70
     0
  9
$AXISUNIT
 10
0.0
 20
0.0
  9
$SKETCHINC
 40
0.1
  9
$FILLETRAD
 40
0.0
  9
$AUNITS
 70
     0
  9
$AUPREC
 70
     0
  9
$MENU
  1
acad
  9
$ELEVATION
 40
0.0
  9
$PELEVATION
 40
0.0
  9
$THICKNESS
 40
0.0
  9
$LIMCHECK
 70
     0
  9
$BLIPMODE
 70
     1
  9
$CHAMFERA
 40
0.0
  9
$CHAMFERB
 40
0.0
  9
$SKPOLY
 70
     0
  9
$TDCREATE
 40
0.000000000
  9
$TDUPDATE
 40
0.000000000
  9
$TDINDWG
 40
0.0
  9
$TDUSRTIMER
 40
0.0
  9
$USRTIMER
 70
     1
  9
$ANGBASE
 50
0.0
  9
$ANGDIR
 70
     0
  9
$PDMODE
 70
     0
  9
$PDSIZE
 40
0.0
  9
$PLINEWID
 40
0.0
  9
$COORDS
 70
     1
  9
$SPLFRAME
 70
     0
  9
$SPLINETYPE
 70
     6
  9
$SPLINESEGS
 70
     8
  9
$ATTDIA
 70
     0
  9
$ATTREQ
 70
     1
  9
$HANDLING
 70
     1
  9
$HANDSEED
  5
   785
  9
$SURFTAB1
 70
     6
  9
$SURFTAB2
 70
     6
  9
$SURFTYPE
 70
     6
  9
$SURFU
 70
     6
  9
$SURFV
 70
     6
  9
$UCSNAME
  2

  9
$UCSORG
 10
0.0
 20
0.0
 30
0.0
  9
$UCSXDIR
 10
1.0
 20
0.0
 30
0.0
  9
$UCSYDIR
 10
0.0
 20
1.0
 30
0.0
  9
$PUCSNAME
  2

  9
$PUCSORG
 10
0.0
 20
0.0
 30
0.0
  9
$PUCSXDIR
 10
1.0
 20
0.0
 30
0.0
  9
$PUCSYDIR
 10
0.0
 20
1.0
 30
0.0
  9
$USERI1
 70
     0
  9
$USERI2
 70
     0
  9
$USERI3
 70
     0
  9
$USERI4
 70
     0
  9
$USERI5
 70
     0
  9
$USERR1
 40
0.0
  9
$USERR2
 40
0.0
  9
$USERR3
 40
0.0
  9
$USERR4
 40
0.0
  9
$USERR5
 40
0.0
  9
$WORLDVIEW
 70
     1
  9
$SHADEDGE
 70
     3
  9
$SHADEDIF
 70
    70
  9
$TILEMODE
 70
     1
  9
$MAXACTVP
 70
    16
  9
$PINSBASE
 10
0.0
 20
0.0
 30
0.0
  9
$PLIMCHECK
 70
     0
  9
$PEXTMIN
 10
1.0E20
 20
1.0E20
 30
1.0E20
  9
$PEXTMAX
 10
-1.0E20
 20
-1.0E20
 30
-1.0E20
  9
$PLIMMIN
 10
0.0
 20
0.0
  9
$PLIMMAX
 10
12.0
 20
9.0
  9
$UNITMODE
 70
     0
  9
$VISRETAIN
 70
     0
  0
ENDSEC
  0
SECTION
  2
TABLES
  0
TABLE
  2
VPORT
 70
     1
  0
VPORT
  2
*ACTIVE
 70
     0
 10
0.0
 20
0.0
 11
1.0
 21
1.0
 12
6.801242
 22
4.5
 13
0.0
 23
0.0
 14
1.0
 24
1.0
 15
0.0
 25
0.0
 16
0.0
 26
0.0
 36
1.0
 17
0.0
 27
0.0
 37
0.0
 40
9.0
 41
1.511387
 42
50.0
 43
0.0
 44
0.0
 50
0.0
 51
0.0
 71
     0
 72
   100
 73
     1
 74
     1
 75
     0
 76
     0
 77
     0
 78
     0
  0
ENDTAB
  0
TABLE
  2
LTYPE
 70
    41
  0
LTYPE
  2
BYBLOCK
 70
     0
  3

 72
    65
 73
     0
 40
0.0
  0
LTYPE
  2
BYLAYER
 70
     0
  3

 72
    65
 73
     0
 40
0.0
  0
LTYPE
  2
CONTINUOUS
 70
     0
  3
Solid line
 72
    65
 73
     0
 40
0.0
  0
LTYPE
  2
BORDER
 70
    64
  3
__ __ . __ __ . __ __ . __ __ . __ __ . __ __ .
 72
    65
 73
     6
 40
1.75
 49
0.5
 49
-0.25
 49
0.5
 49
-0.25
 49
0.0
 49
-0.25
  0
LTYPE
  2
BORDER2
 70
    64
  3
__.__.__.__.__.__.__.__.__.__.__.__.__.__.__.__
 72
    65
 73
     6
 40
0.875
 49
0.25
 49
-0.125
 49
0.25
 49
-0.125
 49
0.0
 49
-0.125
  0
LTYPE
  2
BORDERX2
 70
    64
  3
____  ____  .  ____  ____  .  ____  ____  .  __
 72
    65
 73
     6
 40
3.5
 49
1.0
 49
-0.5
 49
1.0
 49
-0.5
 49
0.0
 49
-0.5
  0
LTYPE
  2
CENTER
 70
    64
  3
____ _ ____ _ ____ _ ____ _ ____ _ ____ _ ____
 72
    65
 73
     4
 40
2.0
 49
1.25
 49
-0.25
 49
0.25
 49
-0.25
  0
LTYPE
  2
CENTER2
 70
    64
  3
___ _ ___ _ ___ _ ___ _ ___ _ ___ _ ___ _ ___ _
 72
    65
 73
     4
 40
1.125
 49
0.75
 49
-0.125
 49
0.125
 49
-0.125
  0
LTYPE
  2
CENTERX2
 70
    64
  3
________  __  ________  __  ________  __  _____
 72
    65
 73
     4
 40
4.0
 49
2.5
 49
-0.5
 49
0.5
 49
-0.5
  0
LTYPE
  2
DASHDOT
 70
    64
  3
__ . __ . __ . __ . __ . __ . __ . __ . __ . __
 72
    65
 73
     4
 40
1.0
 49
0.5
 49
-0.25
 49
0.0
 49
-0.25
  0
LTYPE
  2
DASHDOT2
 70
    64
  3
_._._._._._._._._._._._._._._._._._._._._._._._
 72
    65
 73
     4
 40
0.5
 49
0.25
 49
-0.125
 49
0.0
 49
-0.125
  0
LTYPE
  2
DASHDOTX2
 70
    64
  3
____  .  ____  .  ____  .  ____  .  ____  .  __
 72
    65
 73
     4
 40
2.0
 49
1.0
 49
-0.5
 49
0.0
 49
-0.5
  0
LTYPE
  2
DASHED
 70
    64
  3
__ __ __ __ __ __ __ __ __ __ __ __ __ __ __ __
 72
    65
 73
     2
 40
0.75
 49
0.5
 49
-0.25
  0
LTYPE
  2
DASHED2
 70
    64
  3
_ _ _ _ _ _ _ _ _ _ _ _ _ _ _ _ _ _ _ _ _ _ _ _
 72
    65
 73
     2
 40
0.375
 49
0.25
 49
-0.125
  0
LTYPE
  2
DASHEDX2
 70
    64
  3
____  ____  ____  ____  ____  ____  ____  ____
 72
    65
 73
     2
 40
1.5
 49
1.0
 49
-0.5
  0
LTYPE
  2
DIVIDE
 70
    64
  3
____ . . ____ . . ____ . . ____ . . ____ . . __
 72
    65
 73
     6
 40
1.25
 49
0.5
 49
-0.25
 49
0.0
 49
-0.25
 49
0.0
 49
-0.25
  0
LTYPE
  2
DIVIDE2
 70
    64
  3
__..__..__..__..__..__..__..__..__..__..__..__.
 72
    65
 73
     6
 40
0.625
 49
0.25
 49
-0.125
 49
0.0
 49
-0.125
 49
0.0
 49
-0.125
  0
LTYPE
  2
DIVIDEX2
 70
    64
  3
________  .  .  ________  .  .  ________  .  .
 72
    65
 73
     6
 40
2.5
 49
1.0
 49
-0.5
 49
0.0
 49
-0.5
 49
0.0
 49
-0.5
  0
LTYPE
  2
DOT
 70
    64
  3
. . . . . . . . . . . . . . . . . . . . . . . .
 72
    65
 73
     2
 40
0.25
 49
0.0
 49
-0.25
  0
LTYPE
  2
DOT2
 70
    64
  3
...............................................
 72
    65
 73
     2
 40
0.125
 49
0.0
 49
-0.125
  0
LTYPE
  2
DOTX2
 70
    64
  3
.  .  .  .  .  .  .  .  .  .  .  .  .  .  .  .
 72
    65
 73
     2
 40
0.5
 49
0.0
 49
-0.5
  0
LTYPE
  2
HIDDEN
 70
    64
  3
__ __ __ __ __ __ __ __ __ __ __ __ __ __ __ __
 72
    65
 73
     2
 40
0.375
 49
0.25
 49
-0.125
  0
LTYPE
  2
HIDDEN2
 70
    64
  3
_ _ _ _ _ _ _ _ _ _ _ _ _ _ _ _ _ _ _ _ _ _ _ _
 72
    65
 73
     2
 40
0.1875
 49
0.125
 49
-0.0625
  0
LTYPE
  2
HIDDENX2
 70
    64
  3
____ ____ ____ ____ ____ ____ ____ ____ ____ __
 72
    65
 73
     2
 40
0.75
 49
0.5
 49
-0.25
  0
LTYPE
  2
PHANTOM
 70
    64
  3
______  __  __  ______  __  __  ______  __  __
 72
    65
 73
     6
 40
2.5
 49
1.25
 49
-0.25
 49
0.25
 49
-0.25
 49
0.25
 49
-0.25
  0
LTYPE
  2
PHANTOM2
 70
    64
  3
___ _ _ ___ _ _ ___ _ _ ___ _ _ ___ _ _ ___ _ _
 72
    65
 73
     6
 40
1.25
 49
0.625
 49
-0.125
 49
0.125
 49
-0.125
 49
0.125
 49
-0.125
  0
LTYPE
  2
PHANTOMX2
 70
    64
  3
____________    ____    ____    ____________
 72
    65
 73
     6
 40
5.0
 49
2.5
 49
-0.5
 49
0.5
 49
-0.5
 49
0.5
 49
-0.5
  0
LTYPE
  2
ACAD_ISO02W100
 70
    64
  3
__ __ __ __ __ __ __ __ __ __ __ __ __ __ __ __
 72
    65
 73
     2
 40
15.0
 49
12.0
 49
-3.0
  0
LTYPE
  2
ACAD_ISO03W100
 70
    64
  3
__    __    __    __    __    __    __    __
 72
    65
 73
     2
 40
30.0
 49
12.0
 49
-18.0
  0
LTYPE
  2
ACAD_ISO04W100
 70
    64
  3
____ . ____ . ____ . ____ . ____ . ____ . ____
 72
    65
 73
     4
 40
30.5
 49
24.0
 49
-3.0
 49
0.5
 49
-3.0
  0
LTYPE
  2
ACAD_ISO05W100
 70
    64
  3
____ .. ____ .. ____ .. ____ .. ____ .. ____ ..
 72
    65
 73
     6
 40
34.0
 49
24.0
 49
-3.0
 49
0.5
 49
-3.0
 49
0.5
 49
-3.0
  0
LTYPE
  2
ACAD_ISO06W100
 70
    64
  3
____ ... ____ ... ____ ... ____ ... ____ ... __
 72
    65
 73
     8
 40
37.5
 49
24.0
 49
-3.0
 49
0.5
 49
-3.0
 49
0.5
 49
-3.0
 49
0.5
 49
-3.0
  0
LTYPE
  2
ACAD_ISO07W100
 70
    64
  3
. . . . . . . . . . . . . . . . . . . . . . . .
 72
    65
 73
     2
 40
3.5
 49
0.5
 49
-3.0
  0
LTYPE
  2
ACAD_ISO08W100
 70
    64
  3
____ __ ____ __ ____ __ ____ ____ __ __ ____ __
 72
    65
 73
     4
 40
36.0
 49
24.0
 49
-3.0
 49
6.0
 49
-3.0
  0
LTYPE
  2
ACAD_ISO09W100
 70
    64
  3
____ __ __ ____ __ __ ____ __ __ ____ __ __ ___
 72
    65
 73
     6
 40
45.0
 49
24.0
 49
-3.0
 49
6.0
 49
-3.0
 49
6.0
 49
-3.0
  0
LTYPE
  2
ACAD_ISO10W100
 70
    64
  3
__ . __ . __ . __ . __ . __ . __ . __ . __ . __
 72
    65
 73
     4
 40
18.5
 49
12.0
 49
-3.0
 49
0.5
 49
-3.0
  0
LTYPE
  2
ACAD_ISO11W100
 70
    64
  3
__ __ . __ __ . __ __ . __ __ . __ __ . __ __ .
 72
    65
 73
     6
 40
33.5
 49
12.0
 49
-3.0
 49
12.0
 49
-3.0
 49
0.5
 49
-3.0
  0
LTYPE
  2
ACAD_ISO12W100
 70
    64
  3
__ . . __ . . __ . . __ . . __ . . __ . . __ .
 72
    65
 73
     6
 40
22.0
 49
12.0
 49
-3.0
 49
0.5
 49
-3.0
 49
0.5
 49
-3.0
  0
LTYPE
  2
ACAD_ISO13W100
 70
    64
  3
__ __ . . __ __ . . __ __ . . __ __ . . __ __ .
 72
    65
 73
     8
 40
37.0
 49
12.0
 49
-3.0
 49
12.0
 49
-3.0
 49
0.5
 49
-3.0
 49
0.5
 49
-3.0
  0
LTYPE
  2
ACAD_ISO14W100
 70
    64
  3
__ . . . __ . . . __ . . . __ . . . __ . . . __
 72
    65
 73
     8
 40
25.5
 49
12.0
 49
-3.0
 49
0.5
 49
-3.0
 49
0.5
 49
-3.0
 49
0.5
 49
-3.0
  0
LTYPE
  2
ACAD_ISO15W100
 70
    64
  3
__ __ . . . __ __ . . . __ __ . . . __ __ . . .
 72
    65
 73
    10
 40
40.5
 49
12.0
 49
-3.0
 49
12.0
 49
-3.0
 49
0.5
 49
-3.0
 49
0.5
 49
-3.0
 49
0.5
 49
-3.0
  0
ENDTAB
  0
TABLE
  2
STYLE
 70
     4
  0
STYLE
  2
STANDARD
 70
    64
 40
0.0
 41
1.0
 50
0.0
 71
     0
 42
0.2
  3
txt
  4

  0
STYLE
  2
TOLERANCE
 70
    64
 40
0.0
 41
1.0
 50
0.0
 71
     0
 42
0.2
  3
../igesfont/iges1003.shx
  4

  0
STYLE
  2
ROMANS
 70
    64
 40
0.0
 41
1.0
 50
0.0
 71
     0
 42
0.2
  3
romans.shx
  4

  0
STYLE
  2
ROMANC
 70
    64
 40
0.0
 41
1.0
 50
0.0
 71
     0
 42
0.2
  3
romanc.shx
  4

  0
ENDTAB
  0
TABLE
  2
DIMSTYLE
 70
     2
  0
DIMSTYLE
  2
UNNAMED
 70
     0
  3

  4

  5

  6

  7

 40
1.0
 41
0.18
 42
0.0625
 43
0.38
 44
0.18
 45
0.0
 46
0.0
 47
0.0
 48
0.0
140
0.18
141
0.09
142
0.0
143
25.4
144
1.0
145
0.0
146
1.0
147
0.09
 71
     0
 72
     0
 73
     1
 74
     1
 75
     0
 76
     0
 77
     0
 78
     0
170
     0
171
     2
172
     0
173
     0
174
     0
175
     0
176
     0
177
     0
178
     0
  0
DIMSTYLE
  2
STANDARD
 70
     0
  3

  4

  5

  6

  7

 40
1.0
 41
0.18
 42
0.0625
 43
0.38
 44
0.18
 45
0.0
 46
0.0
 47
0.0
 48
0.0
140
0.18
141
0.09
142
0.0
143
25.4
144
1.0
145
0.0
146
1.0
147
0.09
 71
     0
 72
     0
 73
     1
 74
     1
 75
     0
 76
     0
 77
     0
 78
     0
170
     0
171
     2
172
     0
173
     0
174
     0
175
     0
176
     0
177
     0
178
     0
  0
ENDTAB
  0
TABLE
  2
LAYER
 70
     2
  0
LAYER
  2
0
 70
     0
 62
     7
  6
CONTINUOUS
  0
LAYER
  2
255
 70
     0
 62
     7
  6
CONTINUOUS
  0
ENDTAB
  0
ENDSEC
  0
SECTION
  2
BLOCKS
  0
BLOCK
  5
     B
  8
0
  6
CONTINUOUS
 62
     7
  2
MOSTRINA
 70
    64
 10
0.0
 20
0.0
 30
0.0
  3
MOSTRINA
  0
LINE
  5
     C
  8
0
  6
CONTINUOUS
 62
     1
 10
208.338256835938
 20
30.7306251525879
 30
0.0
 11
208.338256835938
 21
189.230621337891
 31
0.0
  0
LINE
  5
     D
  8
0
  6
CONTINUOUS
 62
     1
 10
57.5882568359375
 20
29.4806251525879
 30
0.0
 11
207.088256835938
 21
29.4806251525879
 31
0.0
  0
LINE
  5
     E
  8
0
  6
CONTINUOUS
 62
     1
 10
56.3382568359375
 20
30.7306251525879
 30
0.0
 11
56.3382568359375
 21
189.230621337891
 31
0.0
  0
LINE
  5
     F
  8
0
  6
CONTINUOUS
 62
     1
 10
57.5882568359375
 20
190.480621337891
 30
0.0
 11
207.088256835938
 21
190.480621337891
 31
0.0
  0
LINE
  5
    10
  8
0
  6
CONTINUOUS
 62
     1
 10
202.838256835938
 20
56.9806251525879
 30
0.0
 11
202.838256835938
 21
162.980625152588
 31
0.0
  0
LINE
  5
    11
  8
0
  6
CONTINUOUS
 62
     1
 10
61.8382568359375
 20
56.9806251525879
 30
0.0
 11
202.838256835938
 21
56.9806251525879
 31
0.0
  0
LINE
  5
    12
  8
0
  6
CONTINUOUS
 62
     1
 10
61.8382568359375
 20
56.9806251525879
 30
0.0
 11
61.8382568359375
 21
162.980625152588
 31
0.0
  0
LINE
  5
    13
  8
0
  6
CONTINUOUS
 62
     1
 10
61.8382568359375
 20
162.980621337891
 30
0.0
 11
202.838256835938
 21
162.980621337891
 31
0.0
  0
LINE
  5
    14
  8
0
  6
CONTINUOUS
 62
     1
 10
203.838256835938
 20
48.4806251525879
 30
0.0
 11
203.838256835938
 21
49.4806251525879
 31
0.0
  0
LINE
  5
    15
  8
0
  6
CONTINUOUS
 62
     1
 10
61.8382568359375
 20
50.4806251525879
 30
0.0
 11
202.838256835938
 21
50.4806251525879
 31
0.0
  0
LINE
  5
    16
  8
0
  6
CONTINUOUS
 62
     1
 10
60.8382568359375
 20
48.4806251525879
 30
0.0
 11
60.8382568359375
 21
49.4806251525879
 31
0.0
  0
LINE
  5
    17
  8
0
  6
CONTINUOUS
 62
     1
 10
61.8382568359375
 20
49.4806251525879
 30
0.0
 11
202.838256835938
 21
49.4806251525879
 31
0.0
  0
LINE
  5
    18
  8
0
  6
CONTINUOUS
 62
     1
 10
60.8382568359375
 20
29.4806251525879
 30
0.0
 11
60.8382568359375
 21
48.4806251525879
 31
0.0
  0
LINE
  5
    19
  8
0
  6
CONTINUOUS
 62
     1
 10
60.8382568359375
 20
49.4806213378906
 30
0.0
 11
60.8382568359375
 21
190.480621337891
 31
0.0
  0
LINE
  5
    1A
  8
0
  6
CONTINUOUS
 62
     1
 10
61.8382568359375
 20
29.4806251525879
 30
0.0
 11
61.8382568359375
 21
49.4806251525879
 31
0.0
  0
LINE
  5
    1B
  8
0
  6
CONTINUOUS
 62
     1
 10
61.8382568359375
 20
162.980621337891
 30
0.0
 11
61.8382568359375
 21
169.480621337891
 31
0.0
  0
LINE
  5
    1C
  8
0
  6
CONTINUOUS
 62
     1
 10
61.8382568359375
 20
50.4806251525879
 30
0.0
 11
61.8382568359375
 21
56.9806251525879
 31
0.0
  0
LINE
  5
    1D
  8
0
  6
CONTINUOUS
 62
     1
 10
203.838256835938
 20
29.4806251525879
 30
0.0
 11
203.838256835938
 21
48.4806251525879
 31
0.0
  0
LINE
  5
    1E
  8
0
  6
CONTINUOUS
 62
     1
 10
203.838256835938
 20
49.4806251525879
 30
0.0
 11
203.838256835938
 21
190.480621337891
 31
0.0
  0
LINE
  5
    1F
  8
0
  6
CONTINUOUS
 62
     1
 10
202.838256835938
 20
50.4806251525879
 30
0.0
 11
202.838256835938
 21
56.9806251525879
 31
0.0
  0
LINE
  5
    20
  8
0
  6
CONTINUOUS
 62
     1
 10
202.838256835938
 20
162.980621337891
 30
0.0
 11
202.838256835938
 21
169.480621337891
 31
0.0
  0
LINE
  5
    21
  8
0
  6
CONTINUOUS
 62
     1
 10
202.838256835938
 20
29.4806251525879
 30
0.0
 11
202.838256835938
 21
49.4806251525879
 31
0.0
  0
LINE
  5
    22
  8
0
  6
CONTINUOUS
 62
     1
 10
60.8382568359375
 20
170.480621337891
 30
0.0
 11
203.838256835938
 21
170.480621337891
 31
0.0
  0
LINE
  5
    23
  8
0
  6
CONTINUOUS
 62
     1
 10
61.8382568359375
 20
169.480621337891
 30
0.0
 11
202.838256835938
 21
169.480621337891
 31
0.0
  0
ARC
  5
    24
  8
0
  6
CONTINUOUS
 62
     1
 10
57.5882568359375
 20
30.7306251525879
 30
0.0
 40
1.25
 50
180.0
 51
270.0
  0
ARC
  5
    25
  8
0
  6
CONTINUOUS
 62
     1
 10
207.088256835938
 20
30.7306251525879
 30
0.0
 40
1.25
 50
270.0
 51
360.0
  0
ARC
  5
    26
  8
0
  6
CONTINUOUS
 62
     1
 10
207.088256835938
 20
189.230621337891
 30
0.0
 40
1.25
 50
0.0
 51
90.0
  0
ARC
  5
    27
  8
0
  6
CONTINUOUS
 62
     1
 10
57.5882568359375
 20
189.230621337891
 30
0.0
 40
1.25
 50
90.0
 51
180.0
  0
LINE
  5
    28
  8
0
  6
DOT
 62
     1
 10
60.3382577409677
 20
179.7306252571
 30
0.0
 11
60.8382568359375
 21
179.7306252571
 31
0.0
  0
LINE
  5
    29
  8
0
  6
DOT
 62
     1
 10
60.3382577409676
 20
181.2306252571
 30
0.0
 11
60.8382568359375
 21
181.2306252571
 31
0.0
  0
LINE
  5
    2A
  8
0
  6
CONTINUOUS
 62
     1
 10
203.338257745313
 20
179.730625257273
 30
0.0
 11
203.838256835938
 21
179.730625257273
 31
0.0
  0
LINE
  5
    2B
  8
0
  6
CONTINUOUS
 62
     1
 10
203.338257745314
 20
181.230625257273
 30
0.0
 11
203.838256835938
 21
181.230625257273
 31
0.0
  0
ARC
  5
    2C
  8
0
  6
DOT
 62
     1
 10
60.3382577401871
 20
180.480625257147
 30
0.0
 40
0.749999999345164
 50
90.0
 51
270.0
  0
ARC
  5
    2D
  8
0
  6
CONTINUOUS
 62
     1
 10
61.338257740822
 20
180.480625256974
 30
0.0
 40
0.750000000009701
 50
270.0
 51
450.0
  0
LINE
  5
    2E
  8
0
  6
CONTINUOUS
 62
     1
 10
60.8382568359375
 20
181.2306252571
 30
0.0
 11
61.3382577409688
 21
181.2306252571
 31
0.0
  0
LINE
  5
    2F
  8
0
  6
CONTINUOUS
 62
     1
 10
60.8382568359375
 20
179.7306252571
 30
0.0
 11
61.3382577409689
 21
179.7306252571
 31
0.0
  0
ARC
  5
    30
  8
0
  6
CONTINUOUS
 62
     1
 10
203.338257745503
 20
180.480625256952
 30
0.0
 40
0.750000000048506
 50
90.0000000038822
 51
269.999999996024
  0
LINE
  5
    31
  8
0
  6
DOT
 62
     1
 10
203.838256835938
 20
181.230625257273
 30
0.0
 11
204.338257745315
 21
181.230625257273
 31
0.0
  0
LINE
  5
    32
  8
0
  6
DOT
 62
     1
 10
203.838256835938
 20
179.730625257273
 30
0.0
 11
204.338257745315
 21
179.730625257273
 31
0.0
  0
ENDBLK
  5
    33
  8
0
  6
CONTINUOUS
 62
     7
  0
BLOCK
  5
    34
  8
0
  6
CONTINUOUS
 62
     7
  2
*UDIM802
 70
    65
 10
0.0
 20
0.0
 30
0.0
  3
*UDIM802
  0
TEXT
  5
    35
  8
0
  6
CONTINUOUS
 62
     7
 10
57.1022156099325
 20
78.8011837107695
 30
0.0
 40
2.4999999335834
  1
406
 50
89.9999999480344
 41
0.933333333333333
 72
     1
 11
55.8522156460844
 21
82.0511836255601
 31
0.0
 73
     2
  0
LINE
  5
    36
  8
0
  6
CONTINUOUS
 62
     7
 10
68.7074851099433
 20
11.2303453864129
 30
0.0
 11
56.1022156128761
 21
11.2303453864129
 31
0.0
  0
LINE
  5
    37
  8
0
  6
CONTINUOUS
 62
     7
 10
68.5325000878956
 20
153.330348476765
 30
0.0
 11
56.1022156128761
 21
153.330348476765
 31
0.0
  0
LINE
  5
    38
  8
0
  6
CONTINUOUS
 62
     7
 10
58.1022156128761
 20
11.2303453864129
 30
0.0
 11
58.1022156128761
 21
153.330348476765
 31
0.0
  0
LINE
  5
    39
  8
0
  6
CONTINUOUS
 62
     7
 10
57.5812710948757
 20
14.1847686480945
 30
0.0
 11
58.1022156128761
 21
11.2303453864129
 31
0.0
  0
LINE
  5
    3A
  8
0
  6
CONTINUOUS
 62
     7
 10
58.1022156128761
 20
11.2303453864129
 30
0.0
 11
58.6231601308764
 21
14.1847686480945
 31
0.0
  0
LINE
  5
    3B
  8
0
  6
CONTINUOUS
 62
     7
 10
58.8786727692946
 20
150.432571003555
 30
0.0
 11
58.1022156128761
 21
153.330348476765
 31
0.0
  0
LINE
  5
    3C
  8
0
  6
CONTINUOUS
 62
     7
 10
58.1022156128761
 20
153.330348476765
 30
0.0
 11
57.3257584564575
 21
150.432571003555
 31
0.0
  0
ENDBLK
  5
    3D
  8
0
  6
CONTINUOUS
 62
     7
  0
BLOCK
  5
    3E
  8
0
  6
CONTINUOUS
 62
     7
  2
*UDIM803
 70
    65
 10
0.0
 20
0.0
 30
0.0
  3
*UDIM803
  0
TEXT
  5
    3F
  8
0
  6
CONTINUOUS
 62
     7
 10
57.1022156080758
 20
156.517843455161
 30
0.0
 40
2.99999997871263
  1
48,5
 50
89.9999999480344
 41
0.933333333333333
 72
     1
 11
55.6022156235198
 21
161.817843418912
 31
0.0
 73
     2
  0
LINE
  5
    40
  8
0
  6
CONTINUOUS
 62
     7
 10
73.257462733005
 20
170.305338361058
 30
0.0
 11
56.1022156128761
 21
170.305338361058
 31
0.0
  0
LINE
  5
    41
  8
0
  6
CONTINUOUS
 62
     7
 10
58.1022156128761
 20
153.330348476765
 30
0.0
 11
58.1022156128761
 21
170.305338361058
 31
0.0
  0
LINE
  5
    42
  8
0
  6
CONTINUOUS
 62
     7
 10
57.3257584564575
 20
156.228125949976
 30
0.0
 11
58.1022156128761
 21
153.330348476765
 31
0.0
  0
LINE
  5
    43
  8
0
  6
CONTINUOUS
 62
     7
 10
58.1022156128761
 20
153.330348476765
 30
0.0
 11
58.8786727692946
 21
156.228125949976
 31
0.0
  0
LINE
  5
    44
  8
0
  6
CONTINUOUS
 62
     7
 10
58.6231601308764
 20
167.350915099376
 30
0.0
 11
58.1022156128761
 21
170.305338361058
 31
0.0
  0
LINE
  5
    45
  8
0
  6
CONTINUOUS
 62
     7
 10
58.1022156128761
 20
170.305338361058
 30
0.0
 11
57.5812710948757
 21
167.350915099376
 31
0.0
  0
ENDBLK
  5
    46
  8
0
  6
CONTINUOUS
 62
     7
  0
BLOCK
  5
    47
  8
0
  6
CONTINUOUS
 62
     7
  2
*UDIM804
 70
    65
 10
0.0
 20
0.0
 30
0.0
  3
*UDIM804
  0
TEXT
  5
    48
  8
0
  6
CONTINUOUS
 62
     7
 10
114.994994922984
 20
-15.6583136350086
 30
0.0
 40
2.4999999335834
  1
70
 50
359.999999948034
 41
0.933333333333333
 72
     1
 11
117.078328202097
 21
-14.408313670096
 31
0.0
 73
     2
  0
LINE
  5
    49
  8
0
  6
CONTINUOUS
 62
     7
 10
129.557494699955
 20
-9.04320212604532
 30
0.0
 11
129.557494699955
 21
-18.6583136368877
 31
0.0
  0
LINE
  5
    4A
  8
0
  6
CONTINUOUS
 62
     7
 10
129.557494699955
 20
-16.6583136368877
 30
0.0
 11
105.057495117188
 21
-16.6583136368877
 31
0.0
  0
LINE
  5
    4B
  8
0
  6
CONTINUOUS
 62
     7
 10
126.603071438273
 20
-17.179258154888
 30
0.0
 11
129.557494699955
 21
-16.6583136368877
 31
0.0
  0
LINE
  5
    4C
  8
0
  6
CONTINUOUS
 62
     7
 10
129.557494699955
 20
-16.6583136368877
 30
0.0
 11
126.603071438273
 21
-16.1373691188873
 31
0.0
  0
LINE
  5
    4D
  8
0
  6
CONTINUOUS
 62
     7
 10
108.011918378869
 20
-16.1373691188873
 30
0.0
 11
105.057495117188
 21
-16.6583136368877
 31
0.0
  0
LINE
  5
    4E
  8
0
  6
CONTINUOUS
 62
     7
 10
105.057495117188
 20
-16.6583136368877
 30
0.0
 11
108.011918378869
 21
-17.179258154888
 31
0.0
  0
ENDBLK
  5
    4F
  8
0
  6
CONTINUOUS
 62
     7
  0
BLOCK
  5
    50
  8
0
  6
CONTINUOUS
 62
     7
  2
*UDIM805
 70
    65
 10
0.0
 20
0.0
 30
0.0
  3
*UDIM805
  0
TEXT
  5
    51
  8
0
  6
CONTINUOUS
 62
     7
 10
90.4949966753602
 20
-15.6583136350086
 30
0.0
 40
2.4999999335834
  1
70
 50
359.999999948034
 41
0.933333333333333
 72
     1
 11
92.5783299544737
 21
-14.408313670096
 31
0.0
 73
     2
  0
LINE
  5
    52
  8
0
  6
CONTINUOUS
 62
     7
 10
80.55749553442
 20
-8.41526173704082
 30
0.0
 11
80.55749553442
 21
-18.6583136368877
 31
0.0
  0
LINE
  5
    53
  8
0
  6
CONTINUOUS
 62
     7
 10
105.057495117188
 20
-16.6583136368877
 30
0.0
 11
80.55749553442
 21
-16.6583136368877
 31
0.0
  0
LINE
  5
    54
  8
0
  6
CONTINUOUS
 62
     7
 10
102.103071855506
 20
-17.179258154888
 30
0.0
 11
105.057495117188
 21
-16.6583136368877
 31
0.0
  0
LINE
  5
    55
  8
0
  6
CONTINUOUS
 62
     7
 10
105.057495117188
 20
-16.6583136368877
 30
0.0
 11
102.103071855506
 21
-16.1373691188873
 31
0.0
  0
LINE
  5
    56
  8
0
  6
CONTINUOUS
 62
     7
 10
83.5119187961016
 20
-16.1373691188873
 30
0.0
 11
80.55749553442
 21
-16.6583136368877
 31
0.0
  0
LINE
  5
    57
  8
0
  6
CONTINUOUS
 62
     7
 10
80.55749553442
 20
-16.6583136368877
 30
0.0
 11
83.5119187961016
 21
-17.179258154888
 31
0.0
  0
ENDBLK
  5
    58
  8
0
  6
CONTINUOUS
 62
     7
  0
BLOCK
  5
    59
  8
0
  6
CONTINUOUS
 62
     7
  2
*UDIM806
 70
    65
 10
0.0
 20
0.0
 30
0.0
  3
*UDIM806
  0
TEXT
  5
    5A
  8
0
  6
CONTINUOUS
 62
     7
 10
101.578337141626
 20
184.134287791477
 30
0.0
 40
2.4999999335834
  1
210
 50
359.999999948034
 41
0.933333333333333
 72
     1
 11
104.828337056411
 21
185.384287755337
 31
0.0
 73
     2
  0
LINE
  5
    5B
  8
0
  6
CONTINUOUS
 62
     7
 10
141.80750228171
 20
153.280343154073
 30
0.0
 11
141.80750228171
 21
185.134287788545
 31
0.0
  0
LINE
  5
    5C
  8
0
  6
CONTINUOUS
 62
     7
 10
68.3075035334076
 20
153.280343154073
 30
0.0
 11
68.3075035334076
 21
185.134287788545
 31
0.0
  0
LINE
  5
    5D
  8
0
  6
CONTINUOUS
 62
     7
 10
141.80750228171
 20
183.134287788545
 30
0.0
 11
68.3075035334076
 21
183.134287788545
 31
0.0
  0
LINE
  5
    5E
  8
0
  6
CONTINUOUS
 62
     7
 10
138.853079020028
 20
182.613343270545
 30
0.0
 11
141.80750228171
 21
183.134287788545
 31
0.0
  0
LINE
  5
    5F
  8
0
  6
CONTINUOUS
 62
     7
 10
141.80750228171
 20
183.134287788545
 30
0.0
 11
138.853079020028
 21
183.655232306546
 31
0.0
  0
LINE
  5
    60
  8
0
  6
CONTINUOUS
 62
     7
 10
71.2619267950892
 20
183.655232306546
 30
0.0
 11
68.3075035334076
 21
183.134287788545
 31
0.0
  0
LINE
  5
    61
  8
0
  6
CONTINUOUS
 62
     7
 10
68.3075035334076
 20
183.134287788545
 30
0.0
 11
71.2619267950892
 21
182.613343270545
 31
0.0
  0
ENDBLK
  5
    62
  8
0
  6
CONTINUOUS
 62
     7
  0
BLOCK
  5
    63
  8
0
  6
CONTINUOUS
 62
     7
  2
*UDIM807
 70
    65
 10
0.0
 20
0.0
 30
0.0
  3
*UDIM807
  0
TEXT
  5
    64
  8
0
  6
CONTINUOUS
 62
     7
 10
62.9762511512595
 20
29.2324258249985
 30
0.0
 40
2.4999999335834
  1
142,75
 50
89.9999999480344
 41
0.933333333333333
 72
     1
 11
61.7262511905814
 21
35.9824256468058
 31
0.0
 73
     2
  0
LINE
  5
    65
  8
0
  6
CONTINUOUS
 62
     7
 10
68.7074851099433
 20
11.2303453864129
 30
0.0
 11
61.9762511573731
 21
11.2303453864129
 31
0.0
  0
LINE
  5
    66
  8
0
  6
CONTINUOUS
 62
     7
 10
64.0258083423486
 20
61.192839194977
 30
0.0
 11
61.9762511573731
 21
61.192839194977
 31
0.0
  0
LINE
  5
    67
  8
0
  6
CONTINUOUS
 62
     7
 10
63.9762511573731
 20
11.2303453864129
 30
0.0
 11
63.9762511573731
 21
61.192839194977
 31
0.0
  0
LINE
  5
    68
  8
0
  6
CONTINUOUS
 62
     7
 10
63.4553066393728
 20
14.1847686480945
 30
0.0
 11
63.9762511573731
 21
11.2303453864129
 31
0.0
  0
LINE
  5
    69
  8
0
  6
CONTINUOUS
 62
     7
 10
63.9762511573731
 20
11.2303453864129
 30
0.0
 11
64.4971956753734
 21
14.1847686480945
 31
0.0
  0
LINE
  5
    6A
  8
0
  6
CONTINUOUS
 62
     7
 10
64.4971956753734
 20
58.2384159332954
 30
0.0
 11
63.9762511573731
 21
61.192839194977
 31
0.0
  0
LINE
  5
    6B
  8
0
  6
CONTINUOUS
 62
     7
 10
63.9762511573731
 20
61.192839194977
 30
0.0
 11
63.4553066393728
 21
58.2384159332954
 31
0.0
  0
ENDBLK
  5
    6C
  8
0
  6
CONTINUOUS
 62
     7
  0
BLOCK
  5
    6D
  8
0
  6
CONTINUOUS
 62
     7
  2
*UDIM808
 70
    65
 10
0.0
 20
0.0
 30
0.0
  3
*UDIM808
  0
TEXT
  5
    6E
  8
0
  6
CONTINUOUS
 62
     7
 10
101.578329142638
 20
27.9877973971994
 30
0.0
 40
2.4999999335834
  1
152
 50
359.999999948034
 41
0.933333333333333
 72
     1
 11
104.828329057424
 21
29.2377973610598
 31
0.0
 73
     2
  0
LINE
  5
    6F
  8
0
  6
CONTINUOUS
 62
     7
 10
131.657494664192
 20
32.4553403349159
 30
0.0
 11
131.657494664192
 21
24.9877973942681
 31
0.0
  0
LINE
  5
    70
  8
0
  6
CONTINUOUS
 62
     7
 10
78.4574955701828
 20
32.4553403349159
 30
0.0
 11
78.4574955701828
 21
24.9877973942681
 31
0.0
  0
LINE
  5
    71
  8
0
  6
CONTINUOUS
 62
     7
 10
131.657494664192
 20
26.9877973942681
 30
0.0
 11
78.4574955701828
 21
26.9877973942681
 31
0.0
  0
LINE
  5
    72
  8
0
  6
CONTINUOUS
 62
     7
 10
128.703071402511
 20
26.4668528762677
 30
0.0
 11
131.657494664192
 21
26.9877973942681
 31
0.0
  0
LINE
  5
    73
  8
0
  6
CONTINUOUS
 62
     7
 10
131.657494664192
 20
26.9877973942681
 30
0.0
 11
128.703071402511
 21
27.5087419122684
 31
0.0
  0
LINE
  5
    74
  8
0
  6
CONTINUOUS
 62
     7
 10
81.4119188318644
 20
27.5087419122684
 30
0.0
 11
78.4574955701828
 21
26.9877973942681
 31
0.0
  0
LINE
  5
    75
  8
0
  6
CONTINUOUS
 62
     7
 10
78.4574955701828
 20
26.9877973942681
 30
0.0
 11
81.4119188318644
 21
26.4668528762677
 31
0.0
  0
ENDBLK
  5
    76
  8
0
  6
CONTINUOUS
 62
     7
  0
BLOCK
  5
    77
  8
0
  6
CONTINUOUS
 62
     7
  2
*UDIM809
 70
    65
 10
0.0
 20
0.0
 30
0.0
  3
*UDIM809
  0
TEXT
  5
    78
  8
0
  6
CONTINUOUS
 62
     7
 10
148.817253110535
 20
57.7136733873158
 30
0.0
 40
2.4999999335834
  1
161
 50
89.9999999480344
 41
0.933333333333333
 72
     1
 11
147.567253146687
 21
60.9636733021064
 31
0.0
 73
     2
  0
LINE
  5
    79
  8
0
  6
CONTINUOUS
 62
     7
 10
132.219994671643
 20
33.0178403423665
 30
0.0
 11
151.817253113478
 21
33.0178403423665
 31
0.0
  0
LINE
  5
    7A
  8
0
  6
CONTINUOUS
 62
     7
 10
132.219994671643
 20
89.3678380475877
 30
0.0
 11
151.817253113478
 21
89.3678380475877
 31
0.0
  0
LINE
  5
    7B
  8
0
  6
CONTINUOUS
 62
     7
 10
149.817253113478
 20
33.0178403423665
 30
0.0
 11
149.817253113478
 21
89.3678380475877
 31
0.0
  0
LINE
  5
    7C
  8
0
  6
CONTINUOUS
 62
     7
 10
149.296308595478
 20
35.9722636040481
 30
0.0
 11
149.817253113478
 21
33.0178403423665
 31
0.0
  0
LINE
  5
    7D
  8
0
  6
CONTINUOUS
 62
     7
 10
149.817253113478
 20
33.0178403423665
 30
0.0
 11
150.338197631479
 21
35.9722636040481
 31
0.0
  0
LINE
  5
    7E
  8
0
  6
CONTINUOUS
 62
     7
 10
150.338197631479
 20
86.413414785906
 30
0.0
 11
149.817253113478
 21
89.3678380475877
 31
0.0
  0
LINE
  5
    7F
  8
0
  6
CONTINUOUS
 62
     7
 10
149.817253113478
 20
89.3678380475877
 30
0.0
 11
149.296308595478
 21
86.413414785906
 31
0.0
  0
ENDBLK
  5
    80
  8
0
  6
CONTINUOUS
 62
     7
  0
BLOCK
  5
    81
  8
0
  6
CONTINUOUS
 62
     7
  2
*UDIM810
 70
    65
 10
0.0
 20
0.0
 30
0.0
  3
*UDIM810
  0
TEXT
  5
    82
  8
0
  6
CONTINUOUS
 62
     7
 10
57.0963890403716
 20
-1.90298493913981
 30
0.0
 40
2.4999999335834
  1
48,5
 50
89.9999999480344
 41
0.933333333333333
 72
     1
 11
55.8463890775801
 21
2.513681611323
 31
0.0
 73
     2
  0
LINE
  5
    83
  8
0
  6
CONTINUOUS
 62
     7
 10
73.257462733005
 20
-5.74464966873028
 30
0.0
 11
56.0963890443718
 21
-5.74464966873028
 31
0.0
  0
LINE
  5
    84
  8
0
  6
CONTINUOUS
 62
     7
 10
68.7074851099433
 20
11.2303453864129
 30
0.0
 11
56.0963890443718
 21
11.2303453864129
 31
0.0
  0
LINE
  5
    85
  8
0
  6
CONTINUOUS
 62
     7
 10
58.0963890443718
 20
-5.74464966873028
 30
0.0
 11
58.0963890443718
 21
11.2303453864129
 31
0.0
  0
LINE
  5
    86
  8
0
  6
CONTINUOUS
 62
     7
 10
57.5754445263715
 20
-2.79022640704867
 30
0.0
 11
58.0963890443718
 21
-5.74464966873028
 31
0.0
  0
LINE
  5
    87
  8
0
  6
CONTINUOUS
 62
     7
 10
58.0963890443718
 20
-5.74464966873028
 30
0.0
 11
58.6173335623721
 21
-2.79022640704867
 31
0.0
  0
LINE
  5
    88
  8
0
  6
CONTINUOUS
 62
     7
 10
58.6173335623721
 20
8.27592212473127
 30
0.0
 11
58.0963890443718
 21
11.2303453864129
 31
0.0
  0
LINE
  5
    89
  8
0
  6
CONTINUOUS
 62
     7
 10
58.0963890443718
 20
11.2303453864129
 30
0.0
 11
57.5754445263715
 21
8.27592212473127
 31
0.0
  0
ENDBLK
  5
    8A
  8
0
  6
CONTINUOUS
 62
     7
  0
BLOCK
  5
    8B
  8
0
  6
CONTINUOUS
 62
     7
  2
*UDIM811
 70
    65
 10
0.0
 20
0.0
 30
0.0
  3
*UDIM811
  0
TEXT
  5
    8C
  8
0
  6
CONTINUOUS
 62
     7
 10
66.3798555750288
 20
-1.39426035533996
 30
0.0
 40
2.4999999335834
  1
11
 50
367.667167138913
 41
0.933333333333333
 72
     1
 11
68.2777906148029
 21
0.122519143776991
 31
0.0
 73
     2
  0
TEXT
  5
    8D
  8
0
  6
CONTINUOUS
 62
     7
 10
63.7783235853566
 20
-1.74448336331665
 30
0.0
 40
2.4999999335834
  1
Ø
 50
367.667167138913
 41
0.933333333333333
 72
     1
 11
64.5200222030889
 21
-0.383358530480137
 31
0.0
 73
     2
  0
LINE
  5
    8E
  8
0
  6
CONTINUOUS
 62
     7
 10
63.9117418764056
 20
-2.73554318051586
 30
0.0
 11
82.4652486475408
 21
-0.237836077162271
 31
0.0
  0
LINE
  5
    8F
  8
0
  6
CONTINUOUS
 62
     7
 10
75.79108869883
 20
-1.66196759860123
 30
0.0
 11
78.6495953478216
 21
-0.75150632118698
 31
0.0
  0
LINE
  5
    90
  8
0
  6
CONTINUOUS
 62
     7
 10
78.6495953478216
 20
-0.75150632118698
 30
0.0
 11
75.652081645463
 21
-0.629393241737446
 31
0.0
  0
LINE
  5
    91
  8
0
  6
CONTINUOUS
 62
     7
 10
85.3237552965324
 20
0.672625200251979
 30
0.0
 11
82.4652486475408
 21
-0.237836077162271
 31
0.0
  0
LINE
  5
    92
  8
0
  6
CONTINUOUS
 62
     7
 10
82.4652486475408
 20
-0.237836077162271
 30
0.0
 11
85.4627623498993
 21
-0.359949156611812
 31
0.0
  0
ENDBLK
  5
    93
  8
0
  6
CONTINUOUS
 62
     7
  0
BLOCK
  5
    94
  8
0
  6
CONTINUOUS
 62
     7
  2
*UDIM812
 70
    65
 10
0.0
 20
0.0
 30
0.0
  3
*UDIM812
  0
TEXT
  5
    95
  8
0
  6
CONTINUOUS
 62
     7
 10
78.6828119605943
 20
-10.2493888613994
 30
0.0
 40
2.4999999335834
  1
40
 50
359.999999948034
 41
0.933333333333333
 72
     1
 11
80.7661452397079
 21
-8.99938889648676
 31
0.0
 73
     2
  0
LINE
  5
    96
  8
0
  6
CONTINUOUS
 62
     7
 10
87.5574424793471
 20
-6.0446496806512
 30
0.0
 11
87.5574424793471
 21
-13.2493888632784
 31
0.0
  0
LINE
  5
    97
  8
0
  6
CONTINUOUS
 62
     7
 10
73.5574627449259
 20
-6.0446496806512
 30
0.0
 11
73.5574627449259
 21
-13.2493888632784
 31
0.0
  0
LINE
  5
    98
  8
0
  6
CONTINUOUS
 62
     7
 10
87.5574424793471
 20
-11.2493888632785
 30
0.0
 11
73.5574627449259
 21
-11.2493888632785
 31
0.0
  0
LINE
  5
    99
  8
0
  6
CONTINUOUS
 62
     7
 10
84.6030192176654
 20
-11.7703333812788
 30
0.0
 11
87.5574424793471
 21
-11.2493888632785
 31
0.0
  0
LINE
  5
    9A
  8
0
  6
CONTINUOUS
 62
     7
 10
87.5574424793471
 20
-11.2493888632785
 30
0.0
 11
84.6030192176654
 21
-10.7284443452781
 31
0.0
  0
LINE
  5
    9B
  8
0
  6
CONTINUOUS
 62
     7
 10
76.5118860066075
 20
-10.7284443452781
 30
0.0
 11
73.5574627449259
 21
-11.2493888632785
 31
0.0
  0
LINE
  5
    9C
  8
0
  6
CONTINUOUS
 62
     7
 10
73.5574627449259
 20
-11.2493888632785
 30
0.0
 11
76.5118860066075
 21
-11.7703333812788
 31
0.0
  0
ENDBLK
  5
    9D
  8
0
  6
CONTINUOUS
 62
     7
  0
BLOCK
  5
    9E
  8
0
  6
CONTINUOUS
 62
     2
  2
*HATCH253
 70
    65
 10
0.0
 20
0.0
 30
0.0
  3
*HATCH253
  0
LINE
  5
    9F
  8
0
  6
CONTINUOUS
 62
   210
 10
22.7609272003174
 20
-43.0000038146973
 30
0.0
 11
20.4999847412109
 21
-45.2609443664551
 31
0.0
  0
LINE
  5
    A0
  8
0
  6
CONTINUOUS
 62
   210
 10
25.4999847412109
 20
-44.5035858154297
 30
0.0
 11
20.4999847412109
 21
-49.5035858154297
 31
0.0
  0
LINE
  5
    A1
  8
0
  6
CONTINUOUS
 62
   210
 10
25.4999847412109
 20
-48.746223449707
 30
0.0
 11
23.496208190918
 21
-50.7500038146973
 31
0.0
  0
ENDBLK
  5
    A2
  8
0
  6
CONTINUOUS
 62
     2
  0
BLOCK
  5
    A3
  8
0
  6
CONTINUOUS
 62
     2
  2
*HATCH254
 70
    65
 10
0.0
 20
0.0
 30
0.0
  3
*HATCH254
  0
LINE
  5
    A4
  8
0
  6
CONTINUOUS
 62
   210
 10
23.3601703643799
 20
-57.2500038146973
 30
0.0
 11
20.4999847412109
 21
-60.1101837158203
 31
0.0
  0
LINE
  5
    A5
  8
0
  6
CONTINUOUS
 62
   210
 10
25.4999847412109
 20
-59.3528289794922
 30
0.0
 11
20.6374073028564
 21
-64.2154083251953
 31
0.0
  0
LINE
  5
    A6
  8
0
  6
CONTINUOUS
 62
   210
 10
25.5492992401123
 20
-63.5461540222168
 30
0.0
 11
21.865930557251
 21
-67.2295227050781
 31
0.0
  0
LINE
  5
    A7
  8
0
  6
CONTINUOUS
 62
   210
 10
27.419038772583
 20
-65.9190521240234
 30
0.0
 11
23.8835048675537
 21
-69.45458984375
 31
0.0
  0
LINE
  5
    A8
  8
0
  6
CONTINUOUS
 62
   210
 10
29.5403575897217
 20
-68.0403747558594
 30
0.0
 11
26.0048274993897
 21
-71.5759124755859
 31
0.0
  0
LINE
  5
    A9
  8
0
  6
CONTINUOUS
 62
   210
 10
31.6616764068604
 20
-70.1616973876953
 30
0.0
 11
28.1261501312256
 21
-73.6972351074219
 31
0.0
  0
LINE
  5
    AA
  8
0
  6
CONTINUOUS
 62
   210
 10
33.7829971313477
 20
-72.2830200195313
 30
0.0
 11
30.2474727630615
 21
-75.8185577392578
 31
0.0
  0
LINE
  5
    AB
  8
0
  6
CONTINUOUS
 62
   210
 10
35.9043197631836
 20
-74.4043426513672
 30
0.0
 11
32.3687934875488
 21
-77.9398803710938
 31
0.0
  0
LINE
  5
    AC
  8
0
  6
CONTINUOUS
 62
   210
 10
37.8839950561523
 20
-76.6673049926758
 30
0.0
 11
33.9999847412109
 21
-80.5513153076172
 31
0.0
  0
LINE
  5
    AD
  8
0
  6
CONTINUOUS
 62
   210
 10
38.9295349121094
 20
-79.8644027709961
 30
0.0
 11
33.9999847412109
 21
-84.7939529418945
 31
0.0
  0
LINE
  5
    AE
  8
0
  6
CONTINUOUS
 62
   210
 10
38.9999847412109
 20
-84.0365982055664
 30
0.0
 11
33.9999847412109
 21
-89.0365982055664
 31
0.0
  0
LINE
  5
    AF
  8
0
  6
CONTINUOUS
 62
   210
 10
38.9999847412109
 20
-88.2792434692383
 30
0.0
 11
33.9999847412109
 21
-93.2792434692383
 31
0.0
  0
LINE
  5
    B0
  8
0
  6
CONTINUOUS
 62
   210
 10
38.9999847412109
 20
-92.5218887329102
 30
0.0
 11
33.9999847412109
 21
-97.5218887329102
 31
0.0
  0
LINE
  5
    B1
  8
0
  6
CONTINUOUS
 62
   210
 10
38.9999847412109
 20
-96.764518737793
 30
0.0
 11
37.5144958496094
 21
-98.25
 31
0.0
  0
ENDBLK
  5
    B2
  8
0
  6
CONTINUOUS
 62
     2
  0
BLOCK
  5
    B3
  8
0
  6
CONTINUOUS
 62
     2
  2
*HATCH255
 70
    65
 10
0.0
 20
0.0
 30
0.0
  3
*HATCH255
  0
LINE
  5
    B4
  8
0
  6
CONTINUOUS
 62
   210
 10
36.257137298584
 20
-103.75
 30
0.0
 11
33.9999847412109
 21
-106.00715637207
 31
0.0
  0
LINE
  5
    B5
  8
0
  6
CONTINUOUS
 62
   210
 10
38.9999847412109
 20
-105.249794006348
 30
0.0
 11
33.9999847412109
 21
-110.249794006348
 31
0.0
  0
LINE
  5
    B6
  8
0
  6
CONTINUOUS
 62
   210
 10
38.9999847412109
 20
-109.49243927002
 30
0.0
 11
33.9999847412109
 21
-114.49243927002
 31
0.0
  0
LINE
  5
    B7
  8
0
  6
CONTINUOUS
 62
   210
 10
38.9999847412109
 20
-113.735076904297
 30
0.0
 11
36.7350578308105
 21
-116.0
 31
0.0
  0
ENDBLK
  5
    B8
  8
0
  6
CONTINUOUS
 62
     2
  0
BLOCK
  5
    B9
  8
0
  6
CONTINUOUS
 62
     7
  2
*HATCH256
 70
    65
 10
0.0
 20
0.0
 30
0.0
  3
*HATCH256
  0
LINE
  5
    BA
  8
0
  6
CONTINUOUS
 62
   210
 10
-0.15100434422493
 20
303.5
 30
0.0
 11
2.83822202682495
 21
300.510772705078
 31
0.0
  0
LINE
  5
    BB
  8
0
  6
CONTINUOUS
 62
   210
 10
4.09169864654541
 20
303.499938964844
 30
0.0
 11
7.08086013793945
 21
300.510772705078
 31
0.0
  0
LINE
  5
    BC
  8
0
  6
CONTINUOUS
 62
   210
 10
7.24261045455933
 20
304.591674804688
 30
0.0
 11
11.1204385757446
 21
300.713836669922
 31
0.0
  0
LINE
  5
    BD
  8
0
  6
CONTINUOUS
 62
   210
 10
8.07691764831543
 20
308.0
 30
0.0
 11
10.5494365692139
 21
305.527465820313
 31
0.0
  0
ENDBLK
  5
    BE
  8
0
  6
CONTINUOUS
 62
     7
  0
BLOCK
  5
    BF
  8
0
  6
CONTINUOUS
 62
     7
  2
*HATCH257
 70
    65
 10
0.0
 20
0.0
 30
0.0
  3
*HATCH257
  0
LINE
  5
    C0
  8
0
  6
CONTINUOUS
 62
   210
 10
26.5499858856201
 20
308.618804931641
 30
0.0
 11
27.1687889099121
 21
308.0
 31
0.0
  0
LINE
  5
    C1
  8
0
  6
CONTINUOUS
 62
   210
 10
26.4114322662354
 20
313.0
 30
0.0
 11
31.4114265441895
 21
308.0
 31
0.0
  0
LINE
  5
    C2
  8
0
  6
CONTINUOUS
 62
   210
 10
30.6540699005127
 20
313.0
 30
0.0
 11
35.6540641784668
 21
308.0
 31
0.0
  0
LINE
  5
    C3
  8
0
  6
CONTINUOUS
 62
   210
 10
34.8967094421387
 20
313.0
 30
0.0
 11
39.8967018127441
 21
308.0
 31
0.0
  0
LINE
  5
    C4
  8
0
  6
CONTINUOUS
 62
   210
 10
39.139347076416
 20
313.0
 30
0.0
 11
44.1393394470215
 21
308.0
 31
0.0
  0
LINE
  5
    C5
  8
0
  6
CONTINUOUS
 62
   210
 10
43.3819847106934
 20
313.0
 30
0.0
 11
48.3819770812988
 21
308.0
 31
0.0
  0
LINE
  5
    C6
  8
0
  6
CONTINUOUS
 62
   210
 10
47.6246223449707
 20
313.0
 30
0.0
 11
52.6246147155762
 21
308.0
 31
0.0
  0
LINE
  5
    C7
  8
0
  6
CONTINUOUS
 62
   210
 10
51.8672599792481
 20
313.0
 30
0.0
 11
55.2414474487305
 21
309.625793457031
 31
0.0
  0
ENDBLK
  5
    C8
  8
0
  6
CONTINUOUS
 62
     7
  0
BLOCK
  5
    C9
  8
0
  6
CONTINUOUS
 62
     2
  2
*HATCH258
 70
    65
 10
0.0
 20
0.0
 30
0.0
  3
*HATCH258
  0
LINE
  5
    CA
  8
0
  6
CONTINUOUS
 62
   210
 10
14.5593214035034
 20
337.0
 30
0.0
 11
11.5500001907349
 21
333.990692138672
 31
0.0
  0
LINE
  5
    CB
  8
0
  6
CONTINUOUS
 62
   210
 10
18.8019638061523
 20
337.0
 30
0.0
 11
11.5500001907349
 21
329.748077392578
 31
0.0
  0
LINE
  5
    CC
  8
0
  6
CONTINUOUS
 62
   210
 10
20.5499858856201
 20
334.50537109375
 30
0.0
 11
14.044602394104
 21
328.0
 31
0.0
  0
LINE
  5
    CD
  8
0
  6
CONTINUOUS
 62
   210
 10
20.5499858856201
 20
330.262756347656
 30
0.0
 11
18.2872447967529
 21
328.0
 31
0.0
  0
ENDBLK
  5
    CE
  8
0
  6
CONTINUOUS
 62
     2
  0
BLOCK
  5
    CF
  8
0
  6
CONTINUOUS
 62
     2
  2
*HATCH259
 70
    65
 10
0.0
 20
0.0
 30
0.0
  3
*HATCH259
  0
LINE
  5
    D0
  8
0
  6
CONTINUOUS
 62
   210
 10
14.4085636138916
 20
322.0
 30
0.0
 11
11.5500001907349
 21
319.141448974609
 31
0.0
  0
LINE
  5
    D1
  8
0
  6
CONTINUOUS
 62
   210
 10
18.6512050628662
 20
322.0
 30
0.0
 11
11.5500001907349
 21
314.898834228516
 31
0.0
  0
LINE
  5
    D2
  8
0
  6
CONTINUOUS
 62
   210
 10
20.5499877929687
 20
319.656158447266
 30
0.0
 11
11.5500001907349
 21
310.656158447266
 31
0.0
  0
LINE
  5
    D3
  8
0
  6
CONTINUOUS
 62
   210
 10
20.549991607666
 20
315.413543701172
 30
0.0
 11
11.5500001907349
 21
306.413543701172
 31
0.0
  0
LINE
  5
    D4
  8
0
  6
CONTINUOUS
 62
   210
 10
20.5499935150146
 20
311.170867919922
 30
0.0
 11
11.3082847595215
 21
301.929168701172
 31
0.0
  0
LINE
  5
    D5
  8
0
  6
CONTINUOUS
 62
   210
 10
20.5499973297119
 20
306.928253173828
 30
0.0
 11
14.2825384140015
 21
300.660766601563
 31
0.0
  0
LINE
  5
    D6
  8
0
  6
CONTINUOUS
 62
   210
 10
20.5500011444092
 20
302.685638427734
 30
0.0
 11
18.5251789093018
 21
300.660766601563
 31
0.0
  0
ENDBLK
  5
    D7
  8
0
  6
CONTINUOUS
 62
     2
  0
BLOCK
  5
    D8
  8
0
  6
CONTINUOUS
 62
     2
  2
*HATCH260
 70
    65
 10
0.0
 20
0.0
 30
0.0
  3
*HATCH260
  0
LINE
  5
    D9
  8
0
  6
CONTINUOUS
 62
     3
 10
2.16486620903015
 20
329.114868164063
 30
0.0
 11
3.27973127365112
 21
328.0
 31
0.0
  0
LINE
  5
    DA
  8
0
  6
CONTINUOUS
 62
     3
 10
3.90105271339417
 20
329.5
 30
0.0
 11
5.40104961395264
 21
328.0
 31
0.0
  0
LINE
  5
    DB
  8
0
  6
CONTINUOUS
 62
     3
 10
6.02237129211426
 20
329.5
 30
0.0
 11
7.52236843109131
 21
328.0
 31
0.0
  0
LINE
  5
    DC
  8
0
  6
CONTINUOUS
 62
     3
 10
8.14369010925293
 20
329.5
 30
0.0
 11
9.64368724822998
 21
328.0
 31
0.0
  0
LINE
  5
    DD
  8
0
  6
CONTINUOUS
 62
     3
 10
10.2650089263916
 20
329.5
 30
0.0
 11
11.7650060653687
 21
328.0
 31
0.0
  0
ENDBLK
  5
    DE
  8
0
  6
CONTINUOUS
 62
     2
  0
BLOCK
  5
    DF
  8
0
  6
CONTINUOUS
 62
     2
  2
*HATCH261
 70
    65
 10
0.0
 20
0.0
 30
0.0
  3
*HATCH261
  0
LINE
  5
    E0
  8
0
  6
CONTINUOUS
 62
     3
 10
2.9157657623291
 20
322.0
 30
0.0
 11
4.41576385498047
 21
320.5
 31
0.0
  0
LINE
  5
    E1
  8
0
  6
CONTINUOUS
 62
     3
 10
5.03708457946777
 20
322.0
 30
0.0
 11
6.53708267211914
 21
320.5
 31
0.0
  0
LINE
  5
    E2
  8
0
  6
CONTINUOUS
 62
     3
 10
7.15840339660645
 20
322.0
 30
0.0
 11
8.65840148925781
 21
320.5
 31
0.0
  0
LINE
  5
    E3
  8
0
  6
CONTINUOUS
 62
     3
 10
9.27972221374512
 20
322.0
 30
0.0
 11
10.7797203063965
 21
320.5
 31
0.0
  0
LINE
  5
    E4
  8
0
  6
CONTINUOUS
 62
     3
 10
11.4010391235352
 20
322.0
 30
0.0
 11
12.0500001907349
 21
321.351043701172
 31
0.0
  0
ENDBLK
  5
    E5
  8
0
  6
CONTINUOUS
 62
     2
  0
BLOCK
  5
    E6
  8
0
  6
CONTINUOUS
 62
     2
  2
*HATCH262
 70
    65
 10
0.0
 20
0.0
 30
0.0
  3
*HATCH262
  0
LINE
  5
    E7
  8
0
  6
CONTINUOUS
 62
     3
 10
1.2100738286972
 20
338.5
 30
0.0
 11
4.99974600970745E-2
 21
337.339904785156
 31
0.0
  0
LINE
  5
    E8
  8
0
  6
CONTINUOUS
 62
     3
 10
3.3313901424408
 20
338.5
 30
0.0
 11
0.049997802823782
 21
335.218566894531
 31
0.0
  0
LINE
  5
    E9
  8
0
  6
CONTINUOUS
 62
     3
 10
2.0500009059906
 20
336.157928466797
 30
0.0
 11
4.99979667365551E-2
 21
334.157928466797
 31
0.0
  0
LINE
  5
    EA
  8
0
  6
CONTINUOUS
 62
     3
 10
2.05000066757202
 20
335.097259521484
 30
0.0
 11
4.99981380999088E-2
 21
333.097259521484
 31
0.0
  0
LINE
  5
    EB
  8
0
  6
CONTINUOUS
 62
     3
 10
2.05000042915344
 20
334.036590576172
 30
0.0
 11
4.99983094632626E-2
 21
332.036590576172
 31
0.0
  0
LINE
  5
    EC
  8
0
  6
CONTINUOUS
 62
     3
 10
2.05000019073486
 20
332.975921630859
 30
0.0
 11
4.99984808266163E-2
 21
330.975921630859
 31
0.0
  0
LINE
  5
    ED
  8
0
  6
CONTINUOUS
 62
     3
 10
2.04999995231628
 20
331.915252685547
 30
0.0
 11
0.04999865218997
 21
329.915252685547
 31
0.0
  0
LINE
  5
    EE
  8
0
  6
CONTINUOUS
 62
     3
 10
2.36104822158813
 20
331.165679931641
 30
0.0
 11
4.99988161027431E-2
 21
328.854644775391
 31
0.0
  0
LINE
  5
    EF
  8
0
  6
CONTINUOUS
 62
     3
 10
3.42170858383179
 20
331.165679931641
 30
0.0
 11
4.99989874660969E-2
 21
327.793975830078
 31
0.0
  0
LINE
  5
    F0
  8
0
  6
CONTINUOUS
 62
     3
 10
4.4823694229126
 20
331.165679931641
 30
0.0
 11
2.81667637825012
 21
329.5
 31
0.0
  0
LINE
  5
    F1
  8
0
  6
CONTINUOUS
 62
     3
 10
1.05000102519989
 20
327.733306884766
 30
0.0
 11
4.99991551041603E-2
 21
326.733306884766
 31
0.0
  0
LINE
  5
    F2
  8
0
  6
CONTINUOUS
 62
     3
 10
11.5499973297119
 20
337.172668457031
 30
0.0
 11
10.8773260116577
 21
336.5
 31
0.0
  0
LINE
  5
    F3
  8
0
  6
CONTINUOUS
 62
     3
 10
1.05000114440918
 20
326.672668457031
 30
0.0
 11
0.049999326467514
 21
325.672668457031
 31
0.0
  0
LINE
  5
    F4
  8
0
  6
CONTINUOUS
 62
     3
 10
6.6036901473999
 20
331.165679931641
 30
0.0
 11
4.93799781799316
 21
329.5
 31
0.0
  0
LINE
  5
    F5
  8
0
  6
CONTINUOUS
 62
     3
 10
7.66435050964355
 20
331.165679931641
 30
0.0
 11
5.99865818023682
 21
329.5
 31
0.0
  0
LINE
  5
    F6
  8
0
  6
CONTINUOUS
 62
     3
 10
8.72501087188721
 20
331.165679931641
 30
0.0
 11
7.05931854248047
 21
329.5
 31
0.0
  0
LINE
  5
    F7
  8
0
  6
CONTINUOUS
 62
     3
 10
9.78567123413086
 20
331.165679931641
 30
0.0
 11
8.11997890472412
 21
329.5
 31
0.0
  0
LINE
  5
    F8
  8
0
  6
CONTINUOUS
 62
     3
 10
10.8463325500488
 20
331.165679931641
 30
0.0
 11
9.18064022064209
 21
329.5
 31
0.0
  0
LINE
  5
    F9
  8
0
  6
CONTINUOUS
 62
     3
 10
11.5500001907349
 20
330.808685302734
 30
0.0
 11
10.2413005828857
 21
329.5
 31
0.0
  0
LINE
  5
    FA
  8
0
  6
CONTINUOUS
 62
     3
 10
11.5499992370605
 20
329.748046875
 30
0.0
 11
11.3019609451294
 21
329.5
 31
0.0
  0
LINE
  5
    FB
  8
0
  6
CONTINUOUS
 62
     3
 10
3.36262011528015
 20
320.5
 30
0.0
 11
5.00006824731827E-2
 21
317.187377929688
 31
0.0
  0
LINE
  5
    FC
  8
0
  6
CONTINUOUS
 62
     3
 10
2.05000257492065
 20
318.126708984375
 30
0.0
 11
5.00008538365364E-2
 21
316.126708984375
 31
0.0
  0
LINE
  5
    FD
  8
0
  6
CONTINUOUS
 62
     3
 10
2.48393964767456
 20
317.5
 30
0.0
 11
0.483938843011856
 21
315.5
 31
0.0
  0
LINE
  5
    FE
  8
0
  6
CONTINUOUS
 62
     3
 10
3.54460000991821
 20
317.5
 30
0.0
 11
1.54459929466248
 21
315.5
 31
0.0
  0
LINE
  5
    FF
  8
0
  6
CONTINUOUS
 62
     3
 10
4.60526037216187
 20
317.5
 30
0.0
 11
2.60525989532471
 21
315.5
 31
0.0
  0
LINE
  5
   100
  8
0
  6
CONTINUOUS
 62
     3
 10
5.66592073440552
 20
317.5
 30
0.0
 11
3.66592025756836
 21
315.5
 31
0.0
  0
LINE
  5
   101
  8
0
  6
CONTINUOUS
 62
     3
 10
6.72658109664917
 20
317.5
 30
0.0
 11
4.72658061981201
 21
315.5
 31
0.0
  0
LINE
  5
   102
  8
0
  6
CONTINUOUS
 62
     3
 10
7.78724145889282
 20
317.5
 30
0.0
 11
5.78724098205566
 21
315.5
 31
0.0
  0
LINE
  5
   103
  8
0
  6
CONTINUOUS
 62
     3
 10
8.84790229797363
 20
317.5
 30
0.0
 11
6.84790182113647
 21
315.5
 31
0.0
  0
LINE
  5
   104
  8
0
  6
CONTINUOUS
 62
     3
 10
9.90856266021729
 20
317.5
 30
0.0
 11
7.90856218338013
 21
315.5
 31
0.0
  0
LINE
  5
   105
  8
0
  6
CONTINUOUS
 62
     3
 10
11.5500001907349
 20
317.020111083984
 30
0.0
 11
10.0298833847046
 21
315.5
 31
0.0
  0
ENDBLK
  5
   106
  8
0
  6
CONTINUOUS
 62
     2
  0
BLOCK
  5
   107
  8
0
  6
CONTINUOUS
 62
     7
  2
*HATCH263
 70
    65
 10
0.0
 20
0.0
 30
0.0
  3
*HATCH263
  0
LINE
  5
   108
  8
0
  6
CONTINUOUS
 62
     3
 10
2.19918513298035
 20
-56.9999961853027
 30
0.0
 11
3.69918298721313
 21
-58.4999961853027
 31
0.0
  0
LINE
  5
   109
  8
0
  6
CONTINUOUS
 62
     3
 10
4.32050514221191
 20
-56.9999961853027
 30
0.0
 11
5.82050275802612
 21
-58.4999961853027
 31
0.0
  0
LINE
  5
   10A
  8
0
  6
CONTINUOUS
 62
     3
 10
6.4418249130249
 20
-56.9999961853027
 30
0.0
 11
7.94182252883911
 21
-58.4999961853027
 31
0.0
  0
LINE
  5
   10B
  8
0
  6
CONTINUOUS
 62
     3
 10
8.56314468383789
 20
-56.9999961853027
 30
0.0
 11
10.0631427764893
 21
-58.4999961853027
 31
0.0
  0
LINE
  5
   10C
  8
0
  6
CONTINUOUS
 62
     3
 10
10.6844635009766
 20
-57.0
 30
0.0
 11
11.8672294616699
 21
-58.1827659606934
 31
0.0
  0
ENDBLK
  5
   10D
  8
0
  6
CONTINUOUS
 62
     7
  0
BLOCK
  5
   10E
  8
0
  6
CONTINUOUS
 62
     7
  2
*HATCH264
 70
    65
 10
0.0
 20
0.0
 30
0.0
  3
*HATCH264
  0
LINE
  5
   10F
  8
0
  6
CONTINUOUS
 62
     3
 10
2.33690619468689
 20
-49.7130928039551
 30
0.0
 11
3.62381052970886
 21
-51.0
 31
0.0
  0
LINE
  5
   110
  8
0
  6
CONTINUOUS
 62
     3
 10
4.24513149261475
 20
-49.5
 30
0.0
 11
5.74513006210327
 21
-51.0
 31
0.0
  0
LINE
  5
   111
  8
0
  6
CONTINUOUS
 62
     3
 10
6.36645030975342
 20
-49.5
 30
0.0
 11
7.86644983291626
 21
-51.0
 31
0.0
  0
LINE
  5
   112
  8
0
  6
CONTINUOUS
 62
     3
 10
8.48776912689209
 20
-49.5
 30
0.0
 11
9.98777008056641
 21
-51.0
 31
0.0
  0
LINE
  5
   113
  8
0
  6
CONTINUOUS
 62
     3
 10
10.6090898513794
 20
-49.5
 30
0.0
 11
12.0500011444092
 21
-50.9409141540527
 31
0.0
  0
ENDBLK
  5
   114
  8
0
  6
CONTINUOUS
 62
     7
  0
BLOCK
  5
   115
  8
0
  6
CONTINUOUS
 62
     7
  2
*HATCH265
 70
    65
 10
0.0
 20
0.0
 30
0.0
  3
*HATCH265
  0
LINE
  5
   116
  8
0
  6
CONTINUOUS
 62
     3
 10
2.33690619468689
 20
-49.7130928039551
 30
0.0
 11
3.62381052970886
 21
-51.0
 31
0.0
  0
LINE
  5
   117
  8
0
  6
CONTINUOUS
 62
     3
 10
4.24513149261475
 20
-49.5
 30
0.0
 11
5.74513006210327
 21
-51.0
 31
0.0
  0
LINE
  5
   118
  8
0
  6
CONTINUOUS
 62
     3
 10
6.36645030975342
 20
-49.5
 30
0.0
 11
7.86644983291626
 21
-51.0
 31
0.0
  0
LINE
  5
   119
  8
0
  6
CONTINUOUS
 62
     3
 10
8.48776912689209
 20
-49.5
 30
0.0
 11
9.98777008056641
 21
-51.0
 31
0.0
  0
LINE
  5
   11A
  8
0
  6
CONTINUOUS
 62
     3
 10
10.6090898513794
 20
-49.5
 30
0.0
 11
12.0500011444092
 21
-50.9409141540527
 31
0.0
  0
ENDBLK
  5
   11B
  8
0
  6
CONTINUOUS
 62
     7
  0
BLOCK
  5
   11C
  8
0
  6
CONTINUOUS
 62
     7
  2
*HATCH266
 70
    65
 10
0.0
 20
0.0
 30
0.0
  3
*HATCH266
  0
LINE
  5
   11D
  8
0
  6
CONTINUOUS
 62
     3
 10
2.16904735565186
 20
-44.5
 30
0.0
 11
0.050000611692667
 21
-46.6190452575684
 31
0.0
  0
LINE
  5
   11E
  8
0
  6
CONTINUOUS
 62
     3
 10
4.290367603302
 20
-44.5
 30
0.0
 11
2.29036784172058
 21
-46.5
 31
0.0
  0
LINE
  5
   11F
  8
0
  6
CONTINUOUS
 62
     3
 10
5.3510274887085
 20
-44.5
 30
0.0
 11
3.35102772712708
 21
-46.5
 31
0.0
  0
LINE
  5
   120
  8
0
  6
CONTINUOUS
 62
     3
 10
6.41168737411499
 20
-44.5
 30
0.0
 11
4.41168785095215
 21
-46.5
 31
0.0
  0
LINE
  5
   121
  8
0
  6
CONTINUOUS
 62
     3
 10
7.47234725952148
 20
-44.5
 30
0.0
 11
5.47234773635864
 21
-46.5
 31
0.0
  0
LINE
  5
   122
  8
0
  6
CONTINUOUS
 62
     3
 10
1.05000174045563
 20
-50.9223442077637
 30
0.0
 11
4.99997660517693E-2
 21
-51.9223480224609
 31
0.0
  0
LINE
  5
   123
  8
0
  6
CONTINUOUS
 62
     3
 10
5.21915149688721
 20
-47.8138542175293
 30
0.0
 11
3.53300762176514
 21
-49.5
 31
0.0
  0
LINE
  5
   124
  8
0
  6
CONTINUOUS
 62
     3
 10
9.59366607666016
 20
-44.5
 30
0.0
 11
7.59366750717163
 21
-46.5
 31
0.0
  0
LINE
  5
   125
  8
0
  6
CONTINUOUS
 62
     3
 10
1.05000150203705
 20
-53.0436668395996
 30
0.0
 11
4.99994233250618E-2
 21
-54.0436668395996
 31
0.0
  0
LINE
  5
   126
  8
0
  6
CONTINUOUS
 62
     3
 10
7.34787559509277
 20
-47.806453704834
 30
0.0
 11
5.65432643890381
 21
-49.5
 31
0.0
  0
LINE
  5
   127
  8
0
  6
CONTINUOUS
 62
     3
 10
11.5500001907349
 20
-44.6649894714356
 30
0.0
 11
9.71498680114746
 21
-46.5
 31
0.0
  0
LINE
  5
   128
  8
0
  6
CONTINUOUS
 62
     3
 10
1.05000126361847
 20
-55.1649856567383
 30
0.0
 11
4.99990843236446E-2
 21
-56.1649894714355
 31
0.0
  0
LINE
  5
   129
  8
0
  6
CONTINUOUS
 62
     3
 10
9.47660064697266
 20
-47.7990493774414
 30
0.0
 11
7.77564525604248
 21
-49.5
 31
0.0
  0
LINE
  5
   12A
  8
0
  6
CONTINUOUS
 62
     3
 10
10.5409622192383
 20
-47.7953453063965
 30
0.0
 11
8.83630466461182
 21
-49.5000038146973
 31
0.0
  0
LINE
  5
   12B
  8
0
  6
CONTINUOUS
 62
     3
 10
11.5500011444092
 20
-47.8469657897949
 30
0.0
 11
9.89696407318115
 21
-49.5000038146973
 31
0.0
  0
LINE
  5
   12C
  8
0
  6
CONTINUOUS
 62
     3
 10
11.5500001907349
 20
-48.9076271057129
 30
0.0
 11
10.9576234817505
 21
-49.5000038146973
 31
0.0
  0
LINE
  5
   12D
  8
0
  6
CONTINUOUS
 62
     3
 10
3.01829099655151
 20
-58.4999961853027
 30
0.0
 11
4.99982349574566E-2
 21
-61.4682884216309
 31
0.0
  0
LINE
  5
   12E
  8
0
  6
CONTINUOUS
 62
     3
 10
2.05000019073486
 20
-60.5289459228516
 30
0.0
 11
4.99980673193932E-2
 21
-62.5289497375488
 31
0.0
  0
LINE
  5
   12F
  8
0
  6
CONTINUOUS
 62
     3
 10
2.05000042915344
 20
-61.5896072387695
 30
0.0
 11
4.99978959560394E-2
 21
-63.5896110534668
 31
0.0
  0
LINE
  5
   130
  8
0
  6
CONTINUOUS
 62
     3
 10
2.05000066757202
 20
-62.6502685546875
 30
0.0
 11
4.99977245926857E-2
 21
-64.6502685546875
 31
0.0
  0
LINE
  5
   131
  8
0
  6
CONTINUOUS
 62
     3
 10
2.0500009059906
 20
-63.7109298706055
 30
0.0
 11
0.049997553229332
 21
-65.7109298706055
 31
0.0
  0
LINE
  5
   132
  8
0
  6
CONTINUOUS
 62
     3
 10
2.05000114440918
 20
-64.7715911865234
 30
0.0
 11
4.99973818659782E-2
 21
-66.7715911865234
 31
0.0
  0
LINE
  5
   133
  8
0
  6
CONTINUOUS
 62
     3
 10
2.38226532936096
 20
-65.4999847412109
 30
0.0
 11
0.382251262664795
 21
-67.5
 31
0.0
  0
LINE
  5
   134
  8
0
  6
CONTINUOUS
 62
     3
 10
3.44292521476746
 20
-65.4999847412109
 30
0.0
 11
1.44291341304779
 21
-67.5
 31
0.0
  0
LINE
  5
   135
  8
0
  6
CONTINUOUS
 62
     3
 10
4.50358486175537
 20
-65.4999847412109
 30
0.0
 11
2.50357556343079
 21
-67.5
 31
0.0
  0
LINE
  5
   136
  8
0
  6
CONTINUOUS
 62
     3
 10
5.56424522399902
 20
-65.4999847412109
 30
0.0
 11
3.56423783302307
 21
-67.4999923706055
 31
0.0
  0
LINE
  5
   137
  8
0
  6
CONTINUOUS
 62
     3
 10
7.68556499481201
 20
-65.4999847412109
 30
0.0
 11
5.68556213378906
 21
-67.4999923706055
 31
0.0
  0
LINE
  5
   138
  8
0
  6
CONTINUOUS
 62
     3
 10
9.806884765625
 20
-65.4999847412109
 30
0.0
 11
7.80688667297363
 21
-67.4999923706055
 31
0.0
  0
LINE
  5
   139
  8
0
  6
CONTINUOUS
 62
     3
 10
11.5499963760376
 20
-65.8781967163086
 30
0.0
 11
9.9282112121582
 21
-67.4999771118164
 31
0.0
  0
LINE
  5
   13A
  8
0
  6
CONTINUOUS
 62
     3
 10
13.0495147705078
 20
-66.4999923706055
 30
0.0
 11
12.0495357513428
 21
-67.4999771118164
 31
0.0
  0
ENDBLK
  5
   13B
  8
0
  6
CONTINUOUS
 62
     7
  0
BLOCK
  5
   13C
  8
0
  6
CONTINUOUS
 62
     7
  2
*HATCH267
 70
    65
 10
0.0
 20
0.0
 30
0.0
  3
*HATCH267
  0
LINE
  5
   13D
  8
0
  6
CONTINUOUS
 62
   210
 10
15.2756481170654
 20
-42.0
 30
0.0
 11
11.4999847412109
 21
-45.7756614685059
 31
0.0
  0
LINE
  5
   13E
  8
0
  6
CONTINUOUS
 62
   210
 10
17.4999847412109
 20
-44.0183029174805
 30
0.0
 11
11.7841444015503
 21
-49.7341461181641
 31
0.0
  0
LINE
  5
   13F
  8
0
  6
CONTINUOUS
 62
   210
 10
17.4999847412109
 20
-48.2609443664551
 30
0.0
 11
15.0109281539917
 21
-50.75
 31
0.0
  0
ENDBLK
  5
   140
  8
0
  6
CONTINUOUS
 62
     7
  0
BLOCK
  5
   141
  8
0
  6
CONTINUOUS
 62
     7
  2
*HATCH268
 70
    65
 10
0.0
 20
0.0
 30
0.0
  3
*HATCH268
  0
LINE
  5
   142
  8
0
  6
CONTINUOUS
 62
   210
 10
14.8748893737793
 20
-57.25
 30
0.0
 11
11.5360698699951
 21
-60.5888214111328
 31
0.0
  0
LINE
  5
   143
  8
0
  6
CONTINUOUS
 62
   210
 10
17.4999847412109
 20
-58.867546081543
 30
0.0
 11
11.5075874328613
 21
-64.8599395751953
 31
0.0
  0
LINE
  5
   144
  8
0
  6
CONTINUOUS
 62
   210
 10
17.4999847412109
 20
-63.1101837158203
 30
0.0
 11
14.6101713180542
 21
-66.0
 31
0.0
  0
ENDBLK
  5
   145
  8
0
  6
CONTINUOUS
 62
     7
  0
BLOCK
  5
   146
  8
0
  6
CONTINUOUS
 62
     7
  2
*HATCH269
 70
    65
 10
0.0
 20
0.0
 30
0.0
  3
*HATCH269
  0
LINE
  5
   147
  8
0
  6
CONTINUOUS
 62
   210
 10
17.4999847412109
 20
-47.1985092163086
 30
0.0
 11
20.4999847412109
 21
-50.1985130310059
 31
0.0
  0
LINE
  5
   148
  8
0
  6
CONTINUOUS
 62
   210
 10
17.4999847412109
 20
-42.9558639526367
 30
0.0
 11
20.4999847412109
 21
-45.955867767334
 31
0.0
  0
ENDBLK
  5
   149
  8
0
  6
CONTINUOUS
 62
     7
  0
BLOCK
  5
   14A
  8
0
  6
CONTINUOUS
 62
     7
  2
*HATCH270
 70
    65
 10
0.0
 20
0.0
 30
0.0
  3
*HATCH270
  0
LINE
  5
   14B
  8
0
  6
CONTINUOUS
 62
   210
 10
17.4999847412109
 20
-62.0477600097656
 30
0.0
 11
20.4999847412109
 21
-65.0477676391602
 31
0.0
  0
LINE
  5
   14C
  8
0
  6
CONTINUOUS
 62
   210
 10
17.4999847412109
 20
-57.8051147460938
 30
0.0
 11
20.4999847412109
 21
-60.8051223754883
 31
0.0
  0
ENDBLK
  5
   14D
  8
0
  6
CONTINUOUS
 62
     7
  0
BLOCK
  5
   14E
  8
0
  6
CONTINUOUS
 62
     7
  2
*HATCH271
 70
    65
 10
0.0
 20
0.0
 30
0.0
  3
*HATCH271
  0
LINE
  5
   14F
  8
0
  6
CONTINUOUS
 62
    52
 10
106.240852355957
 20
345.950042724609
 30
0.0
 11
103.684600830078
 21
343.393768310547
 31
0.0
  0
LINE
  5
   150
  8
0
  6
CONTINUOUS
 62
    52
 10
106.475814819336
 20
341.942352294922
 30
0.0
 11
103.70238494873
 21
339.168914794922
 31
0.0
  0
LINE
  5
   151
  8
0
  6
CONTINUOUS
 62
    52
 10
106.476348876953
 20
337.700225830078
 30
0.0
 11
103.720176696777
 21
334.944061279297
 31
0.0
  0
LINE
  5
   152
  8
0
  6
CONTINUOUS
 62
    52
 10
106.47688293457
 20
333.458099365234
 30
0.0
 11
103.737968444824
 21
330.719207763672
 31
0.0
  0
LINE
  5
   153
  8
0
  6
CONTINUOUS
 62
    52
 10
106.477416992188
 20
329.215972900391
 30
0.0
 11
103.755760192871
 21
326.494354248047
 31
0.0
  0
LINE
  5
   154
  8
0
  6
CONTINUOUS
 62
    52
 10
106.477951049805
 20
324.973846435547
 30
0.0
 11
103.773551940918
 21
322.269500732422
 31
0.0
  0
LINE
  5
   155
  8
0
  6
CONTINUOUS
 62
    52
 10
106.478485107422
 20
320.731719970703
 30
0.0
 11
103.791343688965
 21
318.044647216797
 31
0.0
  0
LINE
  5
   156
  8
0
  6
CONTINUOUS
 62
    52
 10
106.479019165039
 20
316.489593505859
 30
0.0
 11
103.809135437012
 21
313.819793701172
 31
0.0
  0
LINE
  5
   157
  8
0
  6
CONTINUOUS
 62
    52
 10
106.479553222656
 20
312.247467041016
 30
0.0
 11
103.826927185059
 21
309.594940185547
 31
0.0
  0
LINE
  5
   158
  8
0
  6
CONTINUOUS
 62
    52
 10
106.480087280273
 20
308.005340576172
 30
0.0
 11
103.844718933105
 21
305.370086669922
 31
0.0
  0
LINE
  5
   159
  8
0
  6
CONTINUOUS
 62
    52
 10
106.480621337891
 20
303.763214111328
 30
0.0
 11
103.862510681152
 21
301.145233154297
 31
0.0
  0
LINE
  5
   15A
  8
0
  6
CONTINUOUS
 62
    52
 10
106.481155395508
 20
299.521087646484
 30
0.0
 11
103.880302429199
 21
296.920379638672
 31
0.0
  0
LINE
  5
   15B
  8
0
  6
CONTINUOUS
 62
    52
 10
106.481689453125
 20
295.278961181641
 30
0.0
 11
103.898094177246
 21
292.695526123047
 31
0.0
  0
LINE
  5
   15C
  8
0
  6
CONTINUOUS
 62
    52
 10
106.482223510742
 20
291.036834716797
 30
0.0
 11
103.915885925293
 21
288.470672607422
 31
0.0
  0
LINE
  5
   15D
  8
0
  6
CONTINUOUS
 62
    52
 10
106.482757568359
 20
286.794708251953
 30
0.0
 11
103.93367767334
 21
284.245819091797
 31
0.0
  0
LINE
  5
   15E
  8
0
  6
CONTINUOUS
 62
    52
 10
106.483291625977
 20
282.552581787109
 30
0.0
 11
103.951469421387
 21
280.020965576172
 31
0.0
  0
LINE
  5
   15F
  8
0
  6
CONTINUOUS
 62
    52
 10
106.483825683594
 20
278.310455322266
 30
0.0
 11
103.969261169434
 21
275.796112060547
 31
0.0
  0
LINE
  5
   160
  8
0
  6
CONTINUOUS
 62
    52
 10
106.484359741211
 20
274.068328857422
 30
0.0
 11
103.98705291748
 21
271.571258544922
 31
0.0
  0
LINE
  5
   161
  8
0
  6
CONTINUOUS
 62
    52
 10
106.484893798828
 20
269.826202392578
 30
0.0
 11
104.004844665527
 21
267.346405029297
 31
0.0
  0
LINE
  5
   162
  8
0
  6
CONTINUOUS
 62
    52
 10
106.485427856445
 20
265.584075927734
 30
0.0
 11
104.022636413574
 21
263.121551513672
 31
0.0
  0
LINE
  5
   163
  8
0
  6
CONTINUOUS
 62
    52
 10
106.485961914062
 20
261.341949462891
 30
0.0
 11
104.040428161621
 21
258.896697998047
 31
0.0
  0
LINE
  5
   164
  8
0
  6
CONTINUOUS
 62
    52
 10
106.48649597168
 20
257.099822998047
 30
0.0
 11
104.058219909668
 21
254.671844482422
 31
0.0
  0
LINE
  5
   165
  8
0
  6
CONTINUOUS
 62
    52
 10
106.487030029297
 20
252.857727050781
 30
0.0
 11
104.076011657715
 21
250.446990966797
 31
0.0
  0
LINE
  5
   166
  8
0
  6
CONTINUOUS
 62
    52
 10
106.487564086914
 20
248.615631103516
 30
0.0
 11
104.093803405762
 21
246.222137451172
 31
0.0
  0
LINE
  5
   167
  8
0
  6
CONTINUOUS
 62
    52
 10
106.488098144531
 20
244.37353515625
 30
0.0
 11
104.111595153809
 21
241.997283935547
 31
0.0
  0
LINE
  5
   168
  8
0
  6
CONTINUOUS
 62
    52
 10
106.488632202148
 20
240.131439208984
 30
0.0
 11
104.129386901855
 21
237.772430419922
 31
0.0
  0
LINE
  5
   169
  8
0
  6
CONTINUOUS
 62
    52
 10
106.489166259766
 20
235.889343261719
 30
0.0
 11
104.147178649902
 21
233.547576904297
 31
0.0
  0
LINE
  5
   16A
  8
0
  6
CONTINUOUS
 62
    52
 10
106.489700317383
 20
231.647247314453
 30
0.0
 11
104.164970397949
 21
229.322723388672
 31
0.0
  0
LINE
  5
   16B
  8
0
  6
CONTINUOUS
 62
    52
 10
106.490234375
 20
227.405151367188
 30
0.0
 11
104.182762145996
 21
225.097869873047
 31
0.0
  0
LINE
  5
   16C
  8
0
  6
CONTINUOUS
 62
    52
 10
106.490768432617
 20
223.163055419922
 30
0.0
 11
104.200553894043
 21
220.873016357422
 31
0.0
  0
LINE
  5
   16D
  8
0
  6
CONTINUOUS
 62
    52
 10
106.491302490234
 20
218.920959472656
 30
0.0
 11
104.21834564209
 21
216.648162841797
 31
0.0
  0
LINE
  5
   16E
  8
0
  6
CONTINUOUS
 62
    52
 10
106.491836547852
 20
214.678863525391
 30
0.0
 11
104.236137390137
 21
212.423309326172
 31
0.0
  0
LINE
  5
   16F
  8
0
  6
CONTINUOUS
 62
    52
 10
106.492370605469
 20
210.436767578125
 30
0.0
 11
104.253929138184
 21
208.198455810547
 31
0.0
  0
LINE
  5
   170
  8
0
  6
CONTINUOUS
 62
    52
 10
106.492904663086
 20
206.194671630859
 30
0.0
 11
104.27172088623
 21
203.973602294922
 31
0.0
  0
LINE
  5
   171
  8
0
  6
CONTINUOUS
 62
    52
 10
106.493438720703
 20
201.952575683594
 30
0.0
 11
104.289512634277
 21
199.748748779297
 31
0.0
  0
LINE
  5
   172
  8
0
  6
CONTINUOUS
 62
    52
 10
106.49397277832
 20
197.710479736328
 30
0.0
 11
104.307304382324
 21
195.523895263672
 31
0.0
  0
LINE
  5
   173
  8
0
  6
CONTINUOUS
 62
    52
 10
106.494506835938
 20
193.468383789063
 30
0.0
 11
104.325096130371
 21
191.299041748047
 31
0.0
  0
LINE
  5
   174
  8
0
  6
CONTINUOUS
 62
    52
 10
106.495040893555
 20
189.226287841797
 30
0.0
 11
104.342887878418
 21
187.074188232422
 31
0.0
  0
LINE
  5
   175
  8
0
  6
CONTINUOUS
 62
    52
 10
106.495574951172
 20
184.984191894531
 30
0.0
 11
104.360679626465
 21
182.849334716797
 31
0.0
  0
LINE
  5
   176
  8
0
  6
CONTINUOUS
 62
    52
 10
106.496109008789
 20
180.742095947266
 30
0.0
 11
104.378471374512
 21
178.624481201172
 31
0.0
  0
LINE
  5
   177
  8
0
  6
CONTINUOUS
 62
    52
 10
106.496643066406
 20
176.5
 30
0.0
 11
104.396263122559
 21
174.399627685547
 31
0.0
  0
LINE
  5
   178
  8
0
  6
CONTINUOUS
 62
    52
 10
106.497177124023
 20
172.257904052734
 30
0.0
 11
104.414054870605
 21
170.174774169922
 31
0.0
  0
LINE
  5
   179
  8
0
  6
CONTINUOUS
 62
    52
 10
106.497711181641
 20
168.015808105469
 30
0.0
 11
104.431846618652
 21
165.949920654297
 31
0.0
  0
LINE
  5
   17A
  8
0
  6
CONTINUOUS
 62
    52
 10
106.498245239258
 20
163.773712158203
 30
0.0
 11
104.449638366699
 21
161.725067138672
 31
0.0
  0
LINE
  5
   17B
  8
0
  6
CONTINUOUS
 62
    52
 10
106.498779296875
 20
159.531616210938
 30
0.0
 11
104.467430114746
 21
157.500213623047
 31
0.0
  0
LINE
  5
   17C
  8
0
  6
CONTINUOUS
 62
    52
 10
106.499313354492
 20
155.289520263672
 30
0.0
 11
104.485221862793
 21
153.275360107422
 31
0.0
  0
LINE
  5
   17D
  8
0
  6
CONTINUOUS
 62
    52
 10
106.499778747559
 20
151.047500610352
 30
0.0
 11
105.202278137207
 21
149.75
 31
0.0
  0
ENDBLK
  5
   17E
  8
0
  6
CONTINUOUS
 62
     7
  0
BLOCK
  5
   17F
  8
0
  6
CONTINUOUS
 62
     7
  2
*HATCH272
 70
    65
 10
0.0
 20
0.0
 30
0.0
  3
*HATCH272
  0
LINE
  5
   180
  8
0
  6
CONTINUOUS
 62
    52
 10
106.499938964844
 20
142.562377929688
 30
0.0
 11
104.499938964844
 21
140.562377929688
 31
0.0
  0
LINE
  5
   181
  8
0
  6
CONTINUOUS
 62
    52
 10
106.499938964844
 20
138.319732666016
 30
0.0
 11
104.499938964844
 21
136.319732666016
 31
0.0
  0
LINE
  5
   182
  8
0
  6
CONTINUOUS
 62
    52
 10
106.499938964844
 20
134.077087402344
 30
0.0
 11
104.499938964844
 21
132.077087402344
 31
0.0
  0
ENDBLK
  5
   183
  8
0
  6
CONTINUOUS
 62
     7
  0
BLOCK
  5
   184
  8
0
  6
CONTINUOUS
 62
     7
  2
*HATCH273
 70
    65
 10
0.0
 20
0.0
 30
0.0
  3
*HATCH273
  0
LINE
  5
   185
  8
0
  6
CONTINUOUS
 62
    52
 10
106.499938964844
 20
17.4044799804688
 30
0.0
 11
104.499938964844
 21
15.4044799804688
 31
0.0
  0
LINE
  5
   186
  8
0
  6
CONTINUOUS
 62
    52
 10
106.499938964844
 20
13.1618385314941
 30
0.0
 11
104.499938964844
 21
11.1618385314941
 31
0.0
  0
LINE
  5
   187
  8
0
  6
CONTINUOUS
 62
    52
 10
106.499938964844
 20
8.91919898986816
 30
0.0
 11
105.330741882324
 21
7.75
 31
0.0
  0
ENDBLK
  5
   188
  8
0
  6
CONTINUOUS
 62
     7
  0
BLOCK
  5
   189
  8
0
  6
CONTINUOUS
 62
     7
  2
*HATCH274
 70
    65
 10
0.0
 20
0.0
 30
0.0
  3
*HATCH274
  0
LINE
  5
   18A
  8
0
  6
CONTINUOUS
 62
    52
 10
106.499938964844
 20
0.433917760848999
 30
0.0
 11
104.499938964844
 21
-1.56608211994171
 31
0.0
  0
LINE
  5
   18B
  8
0
  6
CONTINUOUS
 62
    52
 10
106.499938964844
 20
-3.80872273445129
 30
0.0
 11
104.499938964844
 21
-5.80872249603271
 31
0.0
  0
LINE
  5
   18C
  8
0
  6
CONTINUOUS
 62
    52
 10
106.499938964844
 20
-8.05136299133301
 30
0.0
 11
104.499938964844
 21
-10.051362991333
 31
0.0
  0
LINE
  5
   18D
  8
0
  6
CONTINUOUS
 62
    52
 10
106.499938964844
 20
-12.2940044403076
 30
0.0
 11
104.499938964844
 21
-14.2940044403076
 31
0.0
  0
LINE
  5
   18E
  8
0
  6
CONTINUOUS
 62
    52
 10
106.499938964844
 20
-16.5366458892822
 30
0.0
 11
104.499938964844
 21
-18.5366458892822
 31
0.0
  0
LINE
  5
   18F
  8
0
  6
CONTINUOUS
 62
    52
 10
106.499938964844
 20
-20.7792873382568
 30
0.0
 11
104.499938964844
 21
-22.7792873382568
 31
0.0
  0
LINE
  5
   190
  8
0
  6
CONTINUOUS
 62
    52
 10
106.499938964844
 20
-25.0219287872314
 30
0.0
 11
104.499938964844
 21
-27.0219287872314
 31
0.0
  0
LINE
  5
   191
  8
0
  6
CONTINUOUS
 62
    52
 10
106.499938964844
 20
-29.2645702362061
 30
0.0
 11
104.499938964844
 21
-31.2645702362061
 31
0.0
  0
LINE
  5
   192
  8
0
  6
CONTINUOUS
 62
    52
 10
106.499938964844
 20
-33.507209777832
 30
0.0
 11
104.499938964844
 21
-35.507209777832
 31
0.0
  0
LINE
  5
   193
  8
0
  6
CONTINUOUS
 62
    52
 10
106.499938964844
 20
-37.7498474121094
 30
0.0
 11
104.499938964844
 21
-39.7498474121094
 31
0.0
  0
LINE
  5
   194
  8
0
  6
CONTINUOUS
 62
    52
 10
106.499938964844
 20
-41.9924850463867
 30
0.0
 11
104.499938964844
 21
-43.9924850463867
 31
0.0
  0
LINE
  5
   195
  8
0
  6
CONTINUOUS
 62
    52
 10
106.499938964844
 20
-46.2351226806641
 30
0.0
 11
104.499938964844
 21
-48.2351226806641
 31
0.0
  0
LINE
  5
   196
  8
0
  6
CONTINUOUS
 62
    52
 10
106.499938964844
 20
-50.4777603149414
 30
0.0
 11
104.499938964844
 21
-52.4777603149414
 31
0.0
  0
LINE
  5
   197
  8
0
  6
CONTINUOUS
 62
    52
 10
106.499938964844
 20
-54.7203979492188
 30
0.0
 11
104.499938964844
 21
-56.7203979492188
 31
0.0
  0
LINE
  5
   198
  8
0
  6
CONTINUOUS
 62
    52
 10
106.499938964844
 20
-58.9630355834961
 30
0.0
 11
104.499938964844
 21
-60.9630355834961
 31
0.0
  0
LINE
  5
   199
  8
0
  6
CONTINUOUS
 62
    52
 10
106.499938964844
 20
-63.2056732177734
 30
0.0
 11
104.499938964844
 21
-65.2056732177734
 31
0.0
  0
LINE
  5
   19A
  8
0
  6
CONTINUOUS
 62
    52
 10
106.499938964844
 20
-67.4483184814453
 30
0.0
 11
104.499938964844
 21
-69.4483184814453
 31
0.0
  0
LINE
  5
   19B
  8
0
  6
CONTINUOUS
 62
    52
 10
106.499938964844
 20
-71.6909637451172
 30
0.0
 11
104.499938964844
 21
-73.6909637451172
 31
0.0
  0
LINE
  5
   19C
  8
0
  6
CONTINUOUS
 62
    52
 10
106.499938964844
 20
-75.9336090087891
 30
0.0
 11
104.499938964844
 21
-77.9336090087891
 31
0.0
  0
LINE
  5
   19D
  8
0
  6
CONTINUOUS
 62
    52
 10
106.499938964844
 20
-80.1762542724609
 30
0.0
 11
104.499938964844
 21
-82.1762542724609
 31
0.0
  0
LINE
  5
   19E
  8
0
  6
CONTINUOUS
 62
    52
 10
106.499938964844
 20
-84.4188995361328
 30
0.0
 11
104.499938964844
 21
-86.4188995361328
 31
0.0
  0
LINE
  5
   19F
  8
0
  6
CONTINUOUS
 62
    52
 10
106.499938964844
 20
-88.6615447998047
 30
0.0
 11
104.499938964844
 21
-90.6615447998047
 31
0.0
  0
LINE
  5
   1A0
  8
0
  6
CONTINUOUS
 62
    52
 10
106.499938964844
 20
-92.9041900634766
 30
0.0
 11
104.499938964844
 21
-94.9041900634766
 31
0.0
  0
LINE
  5
   1A1
  8
0
  6
CONTINUOUS
 62
    52
 10
106.499938964844
 20
-97.1468353271484
 30
0.0
 11
104.499938964844
 21
-99.1468353271484
 31
0.0
  0
LINE
  5
   1A2
  8
0
  6
CONTINUOUS
 62
    52
 10
106.499938964844
 20
-101.389457702637
 30
0.0
 11
106.065864562988
 21
-101.823524475098
 31
0.0
  0
ENDBLK
  5
   1A3
  8
0
  6
CONTINUOUS
 62
     7
  0
BLOCK
  5
   1A4
  8
0
  6
CONTINUOUS
 62
     7
  2
*HATCH275
 70
    65
 10
0.0
 20
0.0
 30
0.0
  3
*HATCH275
  0
LINE
  5
   1A5
  8
0
  6
CONTINUOUS
 62
     3
 10
-2.50001525878906
 20
-36.3908767700195
 30
0.0
 11
-1.39089548587799
 21
-37.5
 31
0.0
  0
LINE
  5
   1A6
  8
0
  6
CONTINUOUS
 62
     3
 10
-0.937715291976929
 20
-35.831859588623
 30
0.0
 11
0.730423629283905
 21
-37.5
 31
0.0
  0
LINE
  5
   1A7
  8
0
  6
CONTINUOUS
 62
     3
 10
1.18360376358032
 20
-35.831859588623
 30
0.0
 11
2.8517427444458
 21
-37.5
 31
0.0
  0
LINE
  5
   1A8
  8
0
  6
CONTINUOUS
 62
     3
 10
3.30492258071899
 20
-35.831859588623
 30
0.0
 11
4.97306156158447
 21
-37.5
 31
0.0
  0
LINE
  5
   1A9
  8
0
  6
CONTINUOUS
 62
     3
 10
5.42624187469482
 20
-35.831859588623
 30
0.0
 11
7.0943808555603
 21
-37.5
 31
0.0
  0
LINE
  5
   1AA
  8
0
  6
CONTINUOUS
 62
     3
 10
6.48690128326416
 20
-35.831859588623
 30
0.0
 11
8.1550407409668
 21
-37.5
 31
0.0
  0
LINE
  5
   1AB
  8
0
  6
CONTINUOUS
 62
     3
 10
7.5475606918335
 20
-35.831859588623
 30
0.0
 11
9.21570014953613
 21
-37.5
 31
0.0
  0
LINE
  5
   1AC
  8
0
  6
CONTINUOUS
 62
     3
 10
8.60822010040283
 20
-35.831859588623
 30
0.0
 11
10.2763595581055
 21
-37.5
 31
0.0
  0
LINE
  5
   1AD
  8
0
  6
CONTINUOUS
 62
     3
 10
9.66887950897217
 20
-35.831859588623
 30
0.0
 11
11.3370189666748
 21
-37.5
 31
0.0
  0
LINE
  5
   1AE
  8
0
  6
CONTINUOUS
 62
     3
 10
10.7295389175415
 20
-35.831859588623
 30
0.0
 11
16.8976726531982
 21
-42.0
 31
0.0
  0
LINE
  5
   1AF
  8
0
  6
CONTINUOUS
 62
     3
 10
12.8508577346802
 20
-35.831859588623
 30
0.0
 11
19.0189914703369
 21
-42.0
 31
0.0
  0
LINE
  5
   1B0
  8
0
  6
CONTINUOUS
 62
     3
 10
14.9721765518188
 20
-35.831859588623
 30
0.0
 11
21.1403102874756
 21
-42.0
 31
0.0
  0
LINE
  5
   1B1
  8
0
  6
CONTINUOUS
 62
     3
 10
17.0934963226318
 20
-35.831859588623
 30
0.0
 11
23.2616291046143
 21
-42.0
 31
0.0
  0
LINE
  5
   1B2
  8
0
  6
CONTINUOUS
 62
     3
 10
19.2148151397705
 20
-35.831859588623
 30
0.0
 11
25.3829479217529
 21
-42.0
 31
0.0
  0
LINE
  5
   1B3
  8
0
  6
CONTINUOUS
 62
     3
 10
21.3361339569092
 20
-35.831859588623
 30
0.0
 11
27.5042667388916
 21
-42.0
 31
0.0
  0
LINE
  5
   1B4
  8
0
  6
CONTINUOUS
 62
     3
 10
23.4574527740479
 20
-35.831859588623
 30
0.0
 11
29.6255855560303
 21
-42.0
 31
0.0
  0
LINE
  5
   1B5
  8
0
  6
CONTINUOUS
 62
     3
 10
25.5787715911865
 20
-35.831859588623
 30
0.0
 11
31.7469043731689
 21
-42.0
 31
0.0
  0
LINE
  5
   1B6
  8
0
  6
CONTINUOUS
 62
     3
 10
27.7000904083252
 20
-35.831859588623
 30
0.0
 11
33.8682250976563
 21
-42.0
 31
0.0
  0
LINE
  5
   1B7
  8
0
  6
CONTINUOUS
 62
     3
 10
29.8214092254639
 20
-35.831859588623
 30
0.0
 11
35.9895477294922
 21
-42.0
 31
0.0
  0
LINE
  5
   1B8
  8
0
  6
CONTINUOUS
 62
     3
 10
31.9427280426025
 20
-35.831859588623
 30
0.0
 11
38.1108703613281
 21
-42.0
 31
0.0
  0
LINE
  5
   1B9
  8
0
  6
CONTINUOUS
 62
     3
 10
34.0640487670898
 20
-35.831859588623
 30
0.0
 11
40.2321929931641
 21
-42.0
 31
0.0
  0
LINE
  5
   1BA
  8
0
  6
CONTINUOUS
 62
     3
 10
36.1853713989258
 20
-35.831859588623
 30
0.0
 11
42.353515625
 21
-42.0
 31
0.0
  0
LINE
  5
   1BB
  8
0
  6
CONTINUOUS
 62
     3
 10
38.3066940307617
 20
-35.831859588623
 30
0.0
 11
44.4748382568359
 21
-42.0
 31
0.0
  0
LINE
  5
   1BC
  8
0
  6
CONTINUOUS
 62
     3
 10
40.4280166625977
 20
-35.831859588623
 30
0.0
 11
46.5961608886719
 21
-42.0
 31
0.0
  0
LINE
  5
   1BD
  8
0
  6
CONTINUOUS
 62
     3
 10
42.5493392944336
 20
-35.831859588623
 30
0.0
 11
48.7174835205078
 21
-42.0
 31
0.0
  0
LINE
  5
   1BE
  8
0
  6
CONTINUOUS
 62
     3
 10
44.6706428527832
 20
-35.831859588623
 30
0.0
 11
50.6643218994141
 21
-41.8255462646484
 31
0.0
  0
LINE
  5
   1BF
  8
0
  6
CONTINUOUS
 62
     3
 10
46.7919654846191
 20
-35.831859588623
 30
0.0
 11
50.5011444091797
 21
-39.5410461425781
 31
0.0
  0
LINE
  5
   1C0
  8
0
  6
CONTINUOUS
 62
     3
 10
48.9132881164551
 20
-35.831859588623
 30
0.0
 11
50.3379669189453
 21
-37.2565460205078
 31
0.0
  0
ENDBLK
  5
   1C1
  8
0
  6
CONTINUOUS
 62
     7
  0
BLOCK
  5
   1C2
  8
0
  6
CONTINUOUS
 62
     7
  2
*UDIM813
 70
    65
 10
0.0
 20
0.0
 30
0.0
  3
*UDIM813
  0
TEXT
  5
   1C3
  8
0
  6
CONTINUOUS
 62
     7
 10
259.640365099883
 20
-13.3488136746866
 30
0.0
 40
2.4999999335834
  1
15
 50
90.0
 41
0.933333333333333
 72
     1
 11
258.390365133089
 21
-11.265480396702
 31
0.0
 73
     2
  0
LINE
  5
   1C4
  8
0
  6
CONTINUOUS
 62
     7
 10
201.088806682825
 20
-5.74464585403301
 30
0.0
 11
262.64036509988
 21
-5.74464585403301
 31
0.0
  0
LINE
  5
   1C5
  8
0
  6
CONTINUOUS
 62
     7
 10
202.001363606921
 20
-0.494645943439977
 30
0.0
 11
262.64036509988
 21
-0.494645943439977
 31
0.0
  0
LINE
  5
   1C6
  8
0
  6
CONTINUOUS
 62
     7
 10
260.64036509988
 20
-13.3488136746882
 30
0.0
 11
260.64036509988
 21
-0.494645943439977
 31
0.0
  0
LINE
  5
   1C7
  8
0
  6
CONTINUOUS
 62
     7
 10
261.161309617881
 20
-8.69906911571461
 30
0.0
 11
260.64036509988
 21
-5.74464585403301
 31
0.0
  0
LINE
  5
   1C8
  8
0
  6
CONTINUOUS
 62
     7
 10
260.64036509988
 20
-5.74464585403301
 30
0.0
 11
260.11942058188
 21
-8.69906911571461
 31
0.0
  0
LINE
  5
   1C9
  8
0
  6
CONTINUOUS
 62
     7
 10
260.11942058188
 20
2.45977731824163
 30
0.0
 11
260.64036509988
 21
-0.494645943439977
 31
0.0
  0
LINE
  5
   1CA
  8
0
  6
CONTINUOUS
 62
     7
 10
260.64036509988
 20
-0.494645943439977
 30
0.0
 11
261.161309617881
 21
2.45977731824163
 31
0.0
  0
ENDBLK
  5
   1CB
  8
0
  6
CONTINUOUS
 62
     7
  0
BLOCK
  5
   1CC
  8
0
  6
CONTINUOUS
 62
     7
  2
*UDIM814
 70
    65
 10
0.0
 20
0.0
 30
0.0
  3
*UDIM814
  0
TEXT
  5
   1CD
  8
0
  6
CONTINUOUS
 62
     7
 10
259.640365099883
 20
5.41785078296166
 30
0.0
 40
2.4999999335834
  1
47
 50
90.0
 41
0.933333333333333
 72
     1
 11
258.390365133089
 21
7.50118406094625
 31
0.0
 73
     2
  0
LINE
  5
   1CE
  8
0
  6
CONTINUOUS
 62
     7
 10
226.878071732306
 20
15.9553449748856
 30
0.0
 11
262.64036509988
 21
15.9553449748856
 31
0.0
  0
LINE
  5
   1CF
  8
0
  6
CONTINUOUS
 62
     7
 10
260.64036509988
 20
-0.494645943439977
 30
0.0
 11
260.64036509988
 21
15.9553449748856
 31
0.0
  0
LINE
  5
   1D0
  8
0
  6
CONTINUOUS
 62
     7
 10
260.11942058188
 20
2.45977731824163
 30
0.0
 11
260.64036509988
 21
-0.494645943439977
 31
0.0
  0
LINE
  5
   1D1
  8
0
  6
CONTINUOUS
 62
     7
 10
260.64036509988
 20
-0.494645943439977
 30
0.0
 11
261.161309617881
 21
2.45977731824163
 31
0.0
  0
LINE
  5
   1D2
  8
0
  6
CONTINUOUS
 62
     7
 10
261.161309617881
 20
13.0009217132039
 30
0.0
 11
260.64036509988
 21
15.9553449748856
 31
0.0
  0
LINE
  5
   1D3
  8
0
  6
CONTINUOUS
 62
     7
 10
260.64036509988
 20
15.9553449748856
 30
0.0
 11
260.11942058188
 21
13.0009217132039
 31
0.0
  0
ENDBLK
  5
   1D4
  8
0
  6
CONTINUOUS
 62
     7
  0
BLOCK
  5
   1D5
  8
0
  6
CONTINUOUS
 62
     7
  2
*UDIM815
 70
    65
 10
0.0
 20
0.0
 30
0.0
  3
*UDIM815
  0
TEXT
  5
   1D6
  8
0
  6
CONTINUOUS
 62
     7
 10
259.640365099885
 20
78.8011768290867
 30
0.0
 40
2.4999999335834
  1
379
 50
90.0
 41
0.933333333333333
 72
     1
 11
258.390365133089
 21
82.0511767427436
 31
0.0
 73
     2
  0
LINE
  5
   1D7
  8
0
  6
CONTINUOUS
 62
     7
 10
199.892339255367
 20
148.605354600595
 30
0.0
 11
262.64036509988
 21
148.60535047034
 31
0.0
  0
LINE
  5
   1D8
  8
0
  6
CONTINUOUS
 62
     7
 10
260.64036509988
 20
15.9553449748856
 30
0.0
 11
260.64036509988
 21
148.605350601986
 31
0.0
  0
LINE
  5
   1D9
  8
0
  6
CONTINUOUS
 62
     7
 10
260.11942058188
 20
18.9097682365672
 30
0.0
 11
260.64036509988
 21
15.9553449748856
 31
0.0
  0
LINE
  5
   1DA
  8
0
  6
CONTINUOUS
 62
     7
 10
260.64036509988
 20
15.9553449748856
 30
0.0
 11
261.161309617881
 21
18.9097682365672
 31
0.0
  0
LINE
  5
   1DB
  8
0
  6
CONTINUOUS
 62
     7
 10
261.161309617881
 20
145.650927340304
 30
0.0
 11
260.64036509988
 21
148.605350601986
 31
0.0
  0
LINE
  5
   1DC
  8
0
  6
CONTINUOUS
 62
     7
 10
260.64036509988
 20
148.605350601986
 30
0.0
 11
260.11942058188
 21
145.650927340304
 31
0.0
  0
ENDBLK
  5
   1DD
  8
0
  6
CONTINUOUS
 62
     7
  0
BLOCK
  5
   1DE
  8
0
  6
CONTINUOUS
 62
     7
  2
*UDIM816
 70
    65
 10
0.0
 20
0.0
 30
0.0
  3
*UDIM816
  0
TEXT
  5
   1DF
  8
0
  6
CONTINUOUS
 62
     7
 10
259.640365099884
 20
154.33035576448
 30
0.0
 40
2.99999997871263
  1
47
 50
90.0
 41
0.933333333333333
 72
     1
 11
258.140365110524
 21
156.830355746738
 31
0.0
 73
     2
  0
LINE
  5
   1E0
  8
0
  6
CONTINUOUS
 62
     7
 10
202.001318445695
 20
165.055360891491
 30
0.0
 11
262.64036509988
 21
165.055360891491
 31
0.0
  0
LINE
  5
   1E1
  8
0
  6
CONTINUOUS
 62
     7
 10
260.64036509988
 20
148.605350601986
 30
0.0
 11
260.64036509988
 21
165.055360891491
 31
0.0
  0
LINE
  5
   1E2
  8
0
  6
CONTINUOUS
 62
     7
 10
260.11942058188
 20
151.559773863667
 30
0.0
 11
260.64036509988
 21
148.605350601986
 31
0.0
  0
LINE
  5
   1E3
  8
0
  6
CONTINUOUS
 62
     7
 10
260.64036509988
 20
148.605350601986
 30
0.0
 11
261.161309617881
 21
151.559773863667
 31
0.0
  0
LINE
  5
   1E4
  8
0
  6
CONTINUOUS
 62
     7
 10
261.161309617881
 20
162.100937629809
 30
0.0
 11
260.64036509988
 21
165.055360891491
 31
0.0
  0
LINE
  5
   1E5
  8
0
  6
CONTINUOUS
 62
     7
 10
260.64036509988
 20
165.055360891491
 30
0.0
 11
260.11942058188
 21
162.100937629809
 31
0.0
  0
ENDBLK
  5
   1E6
  8
0
  6
CONTINUOUS
 62
     7
  0
BLOCK
  5
   1E7
  8
0
  6
CONTINUOUS
 62
     7
  2
*UDIM817
 70
    65
 10
0.0
 20
0.0
 30
0.0
  3
*UDIM817
  0
TEXT
  5
   1E8
  8
0
  6
CONTINUOUS
 62
     7
 10
259.640365099884
 20
175.45796769022
 30
0.0
 40
2.99999997871263
  1
15
 50
90.0
 41
0.933333333333333
 72
     1
 11
258.140365110524
 21
177.957967672478
 31
0.0
 73
     2
  0
LINE
  5
   1E9
  8
0
  6
CONTINUOUS
 62
     7
 10
201.08875865725
 20
170.305360288433
 30
0.0
 11
262.64036509988
 21
170.305359317882
 31
0.0
  0
LINE
  5
   1EA
  8
0
  6
CONTINUOUS
 62
     7
 10
260.64036509988
 20
165.055360891491
 30
0.0
 11
260.64036509988
 21
180.457967654739
 31
0.0
  0
LINE
  5
   1EB
  8
0
  6
CONTINUOUS
 62
     7
 10
261.161309617881
 20
162.100937629809
 30
0.0
 11
260.64036509988
 21
165.055360891491
 31
0.0
  0
LINE
  5
   1EC
  8
0
  6
CONTINUOUS
 62
     7
 10
260.64036509988
 20
165.055360891491
 30
0.0
 11
260.11942058188
 21
162.100937629809
 31
0.0
  0
LINE
  5
   1ED
  8
0
  6
CONTINUOUS
 62
     7
 10
260.11942058188
 20
173.2597826111
 30
0.0
 11
260.64036509988
 21
170.305359349418
 31
0.0
  0
LINE
  5
   1EE
  8
0
  6
CONTINUOUS
 62
     7
 10
260.64036509988
 20
170.305359349418
 30
0.0
 11
261.161309617881
 21
173.2597826111
 31
0.0
  0
ENDBLK
  5
   1EF
  8
0
  6
CONTINUOUS
 62
     7
  0
BLOCK
  5
   1F0
  8
0
  6
CONTINUOUS
 62
     2
  2
*HATCH276
 70
    65
 10
0.0
 20
0.0
 30
0.0
  3
*HATCH276
  0
LINE
  5
   1F1
  8
0
  6
CONTINUOUS
 62
   210
 10
22.6438598632813
 20
321.75
 30
0.0
 11
20.499885559082
 21
319.606048583984
 31
0.0
  0
LINE
  5
   1F2
  8
0
  6
CONTINUOUS
 62
   210
 10
25.4998836517334
 20
320.363403320313
 30
0.0
 11
20.4998874664307
 21
315.363403320313
 31
0.0
  0
LINE
  5
   1F3
  8
0
  6
CONTINUOUS
 62
   210
 10
25.4998874664307
 20
316.120758056641
 30
0.0
 11
23.3791427612305
 21
314.0
 31
0.0
  0
ENDBLK
  5
   1F4
  8
0
  6
CONTINUOUS
 62
     2
  0
BLOCK
  5
   1F5
  8
0
  6
CONTINUOUS
 62
     2
  2
*HATCH277
 70
    65
 10
0.0
 20
0.0
 30
0.0
  3
*HATCH277
  0
LINE
  5
   1F6
  8
0
  6
CONTINUOUS
 62
   210
 10
36.2027435302734
 20
369.250030517578
 30
0.0
 11
33.9998588562012
 21
367.047149658203
 31
0.0
  0
LINE
  5
   1F7
  8
0
  6
CONTINUOUS
 62
   210
 10
38.9998588562012
 20
367.804504394531
 30
0.0
 11
33.9998588562012
 21
362.804504394531
 31
0.0
  0
LINE
  5
   1F8
  8
0
  6
CONTINUOUS
 62
   210
 10
38.9998588562012
 20
363.561889648438
 30
0.0
 11
33.9998588562012
 21
358.561889648438
 31
0.0
  0
LINE
  5
   1F9
  8
0
  6
CONTINUOUS
 62
   210
 10
38.9998588562012
 20
359.319274902344
 30
0.0
 11
33.9998588562012
 21
354.319274902344
 31
0.0
  0
LINE
  5
   1FA
  8
0
  6
CONTINUOUS
 62
   210
 10
38.9998664855957
 20
355.076568603516
 30
0.0
 11
21.3265552520752
 21
337.403259277344
 31
0.0
  0
LINE
  5
   1FB
  8
0
  6
CONTINUOUS
 62
   210
 10
38.9141159057617
 20
350.748199462891
 30
0.0
 11
20.4998779296875
 21
332.333953857422
 31
0.0
  0
LINE
  5
   1FC
  8
0
  6
CONTINUOUS
 62
   210
 10
25.4998760223389
 20
333.09130859375
 30
0.0
 11
20.658576965332
 21
328.25
 31
0.0
  0
LINE
  5
   1FD
  8
0
  6
CONTINUOUS
 62
   210
 10
25.4998798370361
 20
328.848693847656
 30
0.0
 11
24.9012222290039
 21
328.25
 31
0.0
  0
ENDBLK
  5
   1FE
  8
0
  6
CONTINUOUS
 62
     2
  0
BLOCK
  5
   1FF
  8
0
  6
CONTINUOUS
 62
     2
  2
*HATCH278
 70
    65
 10
0.0
 20
0.0
 30
0.0
  3
*HATCH278
  0
LINE
  5
   200
  8
0
  6
CONTINUOUS
 62
   210
 10
36.9821815490723
 20
387.000030517578
 30
0.0
 11
33.9998474121094
 21
384.017700195313
 31
0.0
  0
LINE
  5
   201
  8
0
  6
CONTINUOUS
 62
   210
 10
38.9998474121094
 20
384.775054931641
 30
0.0
 11
33.9998512268066
 21
379.775054931641
 31
0.0
  0
LINE
  5
   202
  8
0
  6
CONTINUOUS
 62
   210
 10
38.9998474121094
 20
380.532440185547
 30
0.0
 11
33.9998512268066
 21
375.532440185547
 31
0.0
  0
LINE
  5
   203
  8
0
  6
CONTINUOUS
 62
   210
 10
38.9998512268066
 20
376.289794921875
 30
0.0
 11
37.4601058959961
 21
374.750030517578
 31
0.0
  0
ENDBLK
  5
   204
  8
0
  6
CONTINUOUS
 62
     2
  0
BLOCK
  5
   205
  8
0
  6
CONTINUOUS
 62
     7
  2
*UDIM818
 70
    65
 10
0.0
 20
0.0
 30
0.0
  3
*UDIM818
  0
TEXT
  5
   206
  8
0
  6
CONTINUOUS
 62
     7
 10
232.050238769203
 20
136.801189078407
 30
0.0
 40
2.4999999335834
  1
12
 50
90.0
 41
0.933333333333333
 72
     1
 11
230.800238802409
 21
138.884522356391
 31
0.0
 73
     2
  0
LINE
  5
   207
  8
0
  6
CONTINUOUS
 62
     7
 10
207.028203960318
 20
144.405352443457
 30
0.0
 11
235.0502387692
 21
144.405352443457
 31
0.0
  0
LINE
  5
   208
  8
0
  6
CONTINUOUS
 62
     7
 10
199.892339255367
 20
148.605354547428
 30
0.0
 11
235.0502387692
 21
148.605350364007
 31
0.0
  0
LINE
  5
   209
  8
0
  6
CONTINUOUS
 62
     7
 10
233.0502387692
 20
136.801189078405
 30
0.0
 11
233.0502387692
 21
148.605350601986
 31
0.0
  0
LINE
  5
   20A
  8
0
  6
CONTINUOUS
 62
     7
 10
233.571183287201
 20
141.450929181775
 30
0.0
 11
233.0502387692
 21
144.405352443457
 31
0.0
  0
LINE
  5
   20B
  8
0
  6
CONTINUOUS
 62
     7
 10
233.0502387692
 20
144.405352443457
 30
0.0
 11
232.5292942512
 21
141.450929181775
 31
0.0
  0
LINE
  5
   20C
  8
0
  6
CONTINUOUS
 62
     7
 10
232.5292942512
 20
151.559773863667
 30
0.0
 11
233.0502387692
 21
148.605350601986
 31
0.0
  0
LINE
  5
   20D
  8
0
  6
CONTINUOUS
 62
     7
 10
233.0502387692
 20
148.605350601986
 30
0.0
 11
233.571183287201
 21
151.559773863667
 31
0.0
  0
ENDBLK
  5
   20E
  8
0
  6
CONTINUOUS
 62
     7
  0
BLOCK
  5
   20F
  8
0
  6
CONTINUOUS
 62
     7
  2
*UDIM819
 70
    65
 10
0.0
 20
0.0
 30
0.0
  3
*UDIM819
  0
TEXT
  5
   210
  8
0
  6
CONTINUOUS
 62
     7
 10
193.047140144819
 20
4.66546607681493
 30
0.0
 40
2.4999999335834
  1
5
 41
0.933333333333333
 72
     1
 11
193.963806787133
 21
5.91546604360663
 31
0.0
 73
     2
  0
LINE
  5
   211
  8
0
  6
CONTINUOUS
 62
     7
 10
193.047140144819
 20
3.66546607681494
 30
0.0
 11
200.088806682825
 21
3.66546607681494
 31
0.0
  0
LINE
  5
   212
  8
0
  6
CONTINUOUS
 62
     7
 10
195.384383450946
 20
3.1445215588146
 30
0.0
 11
198.338806712628
 21
3.66546607681494
 31
0.0
  0
LINE
  5
   213
  8
0
  6
CONTINUOUS
 62
     7
 10
198.338806712628
 20
3.66546607681494
 30
0.0
 11
195.384383450946
 21
4.18641059481527
 31
0.0
  0
LINE
  5
   214
  8
0
  6
CONTINUOUS
 62
     7
 10
203.043229944507
 20
4.18641059481527
 30
0.0
 11
200.088806682825
 21
3.66546607681494
 31
0.0
  0
LINE
  5
   215
  8
0
  6
CONTINUOUS
 62
     7
 10
200.088806682825
 20
3.66546607681494
 30
0.0
 11
203.043229944507
 21
3.1445215588146
 31
0.0
  0
ENDBLK
  5
   216
  8
0
  6
CONTINUOUS
 62
     7
  0
BLOCK
  5
   217
  8
0
  6
CONTINUOUS
 62
     7
  2
*UDIM820
 70
    65
 10
0.0
 20
0.0
 30
0.0
  3
*UDIM820
  0
TEXT
  5
   218
  8
0
  6
CONTINUOUS
 62
     7
 10
187.469772299852
 20
-8.2620578882113
 30
0.0
 40
2.4999999335834
  1
41,5
 41
0.933333333333333
 72
     1
 11
191.886438849183
 21
-7.0120579214196
 31
0.0
 73
     2
  0
LINE
  5
   219
  8
0
  6
CONTINUOUS
 62
     7
 10
185.563806930184
 20
9.18035148780872
 30
0.0
 11
185.563806930184
 21
-11.2620578882113
 31
0.0
  0
LINE
  5
   21A
  8
0
  6
CONTINUOUS
 62
     7
 10
200.088806682825
 20
-6.74464585403301
 30
0.0
 11
200.088806682825
 21
-11.2620578882113
 31
0.0
  0
LINE
  5
   21B
  8
0
  6
CONTINUOUS
 62
     7
 10
185.563806930184
 20
-9.2620578882113
 30
0.0
 11
200.088806682825
 21
-9.2620578882113
 31
0.0
  0
LINE
  5
   21C
  8
0
  6
CONTINUOUS
 62
     7
 10
188.518230191866
 20
-8.74111337021096
 30
0.0
 11
185.563806930184
 21
-9.2620578882113
 31
0.0
  0
LINE
  5
   21D
  8
0
  6
CONTINUOUS
 62
     7
 10
185.563806930184
 20
-9.2620578882113
 30
0.0
 11
188.518230191866
 21
-9.78300240621164
 31
0.0
  0
LINE
  5
   21E
  8
0
  6
CONTINUOUS
 62
     7
 10
197.134383421144
 20
-9.78300240621164
 30
0.0
 11
200.088806682825
 21
-9.2620578882113
 31
0.0
  0
LINE
  5
   21F
  8
0
  6
CONTINUOUS
 62
     7
 10
200.088806682825
 20
-9.2620578882113
 30
0.0
 11
197.134383421144
 21
-8.74111337021096
 31
0.0
  0
ENDBLK
  5
   220
  8
0
  6
CONTINUOUS
 62
     7
  0
BLOCK
  5
   221
  8
0
  6
CONTINUOUS
 62
     7
  2
*UDIM821
 70
    65
 10
0.0
 20
0.0
 30
0.0
  3
*UDIM821
  0
TEXT
  5
   222
  8
0
  6
CONTINUOUS
 62
     7
 10
235.979898736464
 20
3.72617826661931
 30
0.0
 40
2.4999999335834
  1
16,5
 50
90.0
 41
0.933333333333333
 72
     1
 11
234.729898769667
 21
8.1428448159484
 31
0.0
 73
     2
  0
LINE
  5
   223
  8
0
  6
CONTINUOUS
 62
     7
 10
226.878071732306
 20
15.9553460798105
 30
0.0
 11
238.979898736457
 21
15.9553594514209
 31
0.0
  0
LINE
  5
   224
  8
0
  6
CONTINUOUS
 62
     7
 10
191.463806846738
 20
21.7303545325995
 30
0.0
 11
238.979898736458
 21
21.7303545325995
 31
0.0
  0
LINE
  5
   225
  8
0
  6
CONTINUOUS
 62
     7
 10
236.979898736458
 20
3.72617826661774
 30
0.0
 11
236.979898736458
 21
21.7303545325995
 31
0.0
  0
LINE
  5
   226
  8
0
  6
CONTINUOUS
 62
     7
 10
237.500843254459
 20
13.0009339798894
 30
0.0
 11
236.979898736458
 21
15.955357241571
 31
0.0
  0
LINE
  5
   227
  8
0
  6
CONTINUOUS
 62
     7
 10
236.979898736458
 20
15.955357241571
 30
0.0
 11
236.458954218458
 21
13.0009339798894
 31
0.0
  0
LINE
  5
   228
  8
0
  6
CONTINUOUS
 62
     7
 10
236.458954218458
 20
24.6847777942811
 30
0.0
 11
236.979898736458
 21
21.7303545325995
 31
0.0
  0
LINE
  5
   229
  8
0
  6
CONTINUOUS
 62
     7
 10
236.979898736458
 20
21.7303545325995
 30
0.0
 11
237.500843254459
 21
24.6847777942811
 31
0.0
  0
ENDBLK
  5
   22A
  8
0
  6
CONTINUOUS
 62
     7
  0
BLOCK
  5
   22B
  8
0
  6
CONTINUOUS
 62
     7
  2
*UDIM822
 70
    65
 10
0.0
 20
0.0
 30
0.0
  3
*UDIM822
  0
TEXT
  5
   22C
  8
0
  6
CONTINUOUS
 62
     7
 10
230.085411455862
 20
8.35117810202534
 30
0.0
 40
2.4999999335834
  1
12
 50
90.0
 41
0.933333333333333
 72
     1
 11
228.835411489068
 21
10.4345113800099
 31
0.0
 73
     2
  0
LINE
  5
   22D
  8
0
  6
CONTINUOUS
 62
     7
 10
226.878071732304
 20
15.9553473305386
 30
0.0
 11
233.085411455854
 21
15.955361952877
 31
0.0
  0
LINE
  5
   22E
  8
0
  6
CONTINUOUS
 62
     7
 10
205.175686590605
 20
20.1553545594215
 30
0.0
 11
233.08541145586
 21
20.1553545594215
 31
0.0
  0
LINE
  5
   22F
  8
0
  6
CONTINUOUS
 62
     7
 10
231.085411455859
 20
8.35117810202377
 30
0.0
 11
231.085411455859
 21
20.1553545594215
 31
0.0
  0
LINE
  5
   230
  8
0
  6
CONTINUOUS
 62
     7
 10
231.60635597386
 20
13.0009339798894
 30
0.0
 11
231.085411455859
 21
15.955357241571
 31
0.0
  0
LINE
  5
   231
  8
0
  6
CONTINUOUS
 62
     7
 10
231.085411455859
 20
15.955357241571
 30
0.0
 11
230.564466937859
 21
13.0009339798894
 31
0.0
  0
LINE
  5
   232
  8
0
  6
CONTINUOUS
 62
     7
 10
230.564466937859
 20
23.1097778211031
 30
0.0
 11
231.085411455859
 21
20.1553545594215
 31
0.0
  0
LINE
  5
   233
  8
0
  6
CONTINUOUS
 62
     7
 10
231.085411455859
 20
20.1553545594215
 30
0.0
 11
231.60635597386
 21
23.1097778211031
 31
0.0
  0
ENDBLK
  5
   234
  8
0
  6
CONTINUOUS
 62
     7
  0
BLOCK
  5
   235
  8
0
  6
CONTINUOUS
 62
     7
  2
*UDIM823
 70
    65
 10
0.0
 20
0.0
 30
0.0
  3
*UDIM823
  0
TEXT
  5
   236
  8
0
  6
CONTINUOUS
 62
     7
 10
252.668910598251
 20
31.5949095673014
 30
0.0
 40
2.4999999335834
  1
129,25
 50
90.0
 41
0.933333333333333
 72
     1
 11
251.418910631451
 21
38.344909387975
 31
0.0
 73
     2
  0
LINE
  5
   237
  8
0
  6
CONTINUOUS
 62
     7
 10
226.878071732306
 20
15.9553454162787
 30
0.0
 11
255.668910598242
 21
15.9553581243573
 31
0.0
  0
LINE
  5
   238
  8
0
  6
CONTINUOUS
 62
     7
 10
253.668910598242
 20
15.955357241571
 30
0.0
 11
253.668910598242
 21
61.1928378388288
 31
0.0
  0
LINE
  5
   239
  8
0
  6
CONTINUOUS
 62
     7
 10
253.147966080242
 20
18.9097805032526
 30
0.0
 11
253.668910598242
 21
15.955357241571
 31
0.0
  0
LINE
  5
   23A
  8
0
  6
CONTINUOUS
 62
     7
 10
253.668910598242
 20
15.955357241571
 30
0.0
 11
254.189855116243
 21
18.9097805032526
 31
0.0
  0
LINE
  5
   23B
  8
0
  6
CONTINUOUS
 62
     7
 10
254.189855116243
 20
58.2384145771472
 30
0.0
 11
253.668910598242
 21
61.1928378388288
 31
0.0
  0
LINE
  5
   23C
  8
0
  6
CONTINUOUS
 62
     7
 10
253.668910598242
 20
61.1928378388288
 30
0.0
 11
253.147966080242
 21
58.2384145771472
 31
0.0
  0
ENDBLK
  5
   23D
  8
0
  6
CONTINUOUS
 62
     7
  0
BLOCK
  5
   23E
  8
0
  6
CONTINUOUS
 62
     7
  2
*UDIM824
 70
    65
 10
0.0
 20
0.0
 30
0.0
  3
*UDIM824
  0
TEXT
  5
   23F
  8
0
  6
CONTINUOUS
 62
     7
 10
200.809632627013
 20
-19.3554678097653
 30
0.0
 40
2.4999999335834
  1
107
 41
0.933333333333333
 72
     1
 11
204.059632540671
 21
-18.1054678429736
 31
0.0
 73
     2
  0
LINE
  5
   240
  8
0
  6
CONTINUOUS
 62
     7
 10
185.563806930184
 20
9.18035148780872
 30
0.0
 11
185.563806930184
 21
-22.3554678097653
 31
0.0
  0
LINE
  5
   241
  8
0
  6
CONTINUOUS
 62
     7
 10
223.013790270685
 20
-1.94220336769781
 30
0.0
 11
223.013790270685
 21
-22.3554678097653
 31
0.0
  0
LINE
  5
   242
  8
0
  6
CONTINUOUS
 62
     7
 10
185.563806930184
 20
-20.3554678097653
 30
0.0
 11
223.013790270685
 21
-20.3554678097653
 31
0.0
  0
LINE
  5
   243
  8
0
  6
CONTINUOUS
 62
     7
 10
188.518230191866
 20
-19.834523291765
 30
0.0
 11
185.563806930184
 21
-20.3554678097653
 31
0.0
  0
LINE
  5
   244
  8
0
  6
CONTINUOUS
 62
     7
 10
185.563806930184
 20
-20.3554678097653
 30
0.0
 11
188.518230191866
 21
-20.8764123277656
 31
0.0
  0
LINE
  5
   245
  8
0
  6
CONTINUOUS
 62
     7
 10
220.059367009004
 20
-20.8764123277656
 30
0.0
 11
223.013790270685
 21
-20.3554678097653
 31
0.0
  0
LINE
  5
   246
  8
0
  6
CONTINUOUS
 62
     7
 10
223.013790270685
 20
-20.3554678097653
 30
0.0
 11
220.059367009004
 21
-19.834523291765
 31
0.0
  0
ENDBLK
  5
   247
  8
0
  6
CONTINUOUS
 62
     7
  0
BLOCK
  5
   248
  8
0
  6
CONTINUOUS
 62
     7
  2
*UDIM825
 70
    65
 10
0.0
 20
0.0
 30
0.0
  3
*UDIM825
  0
TEXT
  5
   249
  8
0
  6
CONTINUOUS
 62
     7
 10
226.713789294531
 20
-19.3554678097653
 30
0.0
 40
2.4999999335834
  1
2
 41
0.933333333333333
 72
     1
 11
227.630455936845
 21
-18.1054678429736
 31
0.0
 73
     2
  0
LINE
  5
   24A
  8
0
  6
CONTINUOUS
 62
     7
 10
223.713790258764
 20
-1.73871499907016
 30
0.0
 11
223.713790258764
 21
-22.3554678097653
 31
0.0
  0
LINE
  5
   24B
  8
0
  6
CONTINUOUS
 62
     7
 10
223.013790270685
 20
-20.3554678097653
 30
0.0
 11
228.547122579159
 21
-20.3554678097653
 31
0.0
  0
LINE
  5
   24C
  8
0
  6
CONTINUOUS
 62
     7
 10
220.059367009004
 20
-20.8764123277656
 30
0.0
 11
223.013790270685
 21
-20.3554678097653
 31
0.0
  0
LINE
  5
   24D
  8
0
  6
CONTINUOUS
 62
     7
 10
223.013790270685
 20
-20.3554678097653
 30
0.0
 11
220.059367009004
 21
-19.834523291765
 31
0.0
  0
LINE
  5
   24E
  8
0
  6
CONTINUOUS
 62
     7
 10
226.668213520446
 20
-19.834523291765
 30
0.0
 11
223.713790258764
 21
-20.3554678097653
 31
0.0
  0
LINE
  5
   24F
  8
0
  6
CONTINUOUS
 62
     7
 10
223.713790258764
 20
-20.3554678097653
 30
0.0
 11
226.668213520446
 21
-20.8764123277656
 31
0.0
  0
ENDBLK
  5
   250
  8
0
  6
CONTINUOUS
 62
     7
  0
BLOCK
  5
   251
  8
0
  6
CONTINUOUS
 62
     7
  2
*UDIM826
 70
    65
 10
0.0
 20
0.0
 30
0.0
  3
*UDIM826
  0
TEXT
  5
   252
  8
0
  6
CONTINUOUS
 62
     7
 10
197.513800644619
 20
186.013394659621
 30
0.0
 40
2.4999999335834
  1
101,5
 41
0.933333333333333
 72
     1
 11
203.097133829622
 21
187.263394626412
 31
0.0
 73
     2
  0
LINE
  5
   253
  8
0
  6
CONTINUOUS
 62
     7
 10
185.563812270761
 20
161.592961987315
 30
0.0
 11
185.563812270761
 21
187.013394659621
 31
0.0
  0
LINE
  5
   254
  8
0
  6
CONTINUOUS
 62
     7
 10
221.088790303468
 20
145.755336415768
 30
0.0
 11
221.088790303468
 21
187.013394659621
 31
0.0
  0
LINE
  5
   255
  8
0
  6
CONTINUOUS
 62
     7
 10
185.563812270761
 20
185.013394659621
 30
0.0
 11
221.088790303468
 21
185.013394659621
 31
0.0
  0
LINE
  5
   256
  8
0
  6
CONTINUOUS
 62
     7
 10
188.518235532442
 20
185.534339177621
 30
0.0
 11
185.563812270761
 21
185.013394659621
 31
0.0
  0
LINE
  5
   257
  8
0
  6
CONTINUOUS
 62
     7
 10
185.563812270761
 20
185.013394659621
 30
0.0
 11
188.518235532442
 21
184.49245014162
 31
0.0
  0
LINE
  5
   258
  8
0
  6
CONTINUOUS
 62
     7
 10
218.134367041786
 20
184.49245014162
 30
0.0
 11
221.088790303468
 21
185.013394659621
 31
0.0
  0
LINE
  5
   259
  8
0
  6
CONTINUOUS
 62
     7
 10
221.088790303468
 20
185.013394659621
 30
0.0
 11
218.134367041786
 21
185.534339177621
 31
0.0
  0
ENDBLK
  5
   25A
  8
0
  6
CONTINUOUS
 62
     7
  0
BLOCK
  5
   25B
  8
0
  6
CONTINUOUS
 62
     7
  2
*UDIM827
 70
    65
 10
0.0
 20
0.0
 30
0.0
  3
*UDIM827
  0
TEXT
  5
   25C
  8
0
  6
CONTINUOUS
 62
     7
 10
179.222140380258
 20
-13.8531363605007
 30
0.0
 40
2.4999999335834
  1
3
 41
0.933333333333333
 72
     1
 11
180.138807022572
 21
-12.603136393709
 31
0.0
 73
     2
  0
TEXT
  5
   25D
  8
0
  6
CONTINUOUS
 62
     7
 10
176.930473782165
 20
-13.8531363605007
 30
0.0
 40
2.4999999335834
  1
_
 41
0.933333333333333
 72
     1
 11
177.847140424479
 21
-12.603136393709
 31
0.0
 73
     2
  0
LINE
  5
   25E
  8
0
  6
CONTINUOUS
 62
     7
 10
184.513806948066
 20
9.18035148780872
 30
0.0
 11
184.513806948066
 21
-16.8531363605007
 31
0.0
  0
LINE
  5
   25F
  8
0
  6
CONTINUOUS
 62
     7
 10
185.563806930184
 20
9.18035148780872
 30
0.0
 11
185.563806930184
 21
-16.8531363605007
 31
0.0
  0
LINE
  5
   260
  8
0
  6
CONTINUOUS
 62
     7
 10
176.930473782165
 20
-14.8531363605007
 30
0.0
 11
185.563806930184
 21
-14.8531363605007
 31
0.0
  0
LINE
  5
   261
  8
0
  6
CONTINUOUS
 62
     7
 10
181.559383686384
 20
-15.374080878501
 30
0.0
 11
184.513806948066
 21
-14.8531363605007
 31
0.0
  0
LINE
  5
   262
  8
0
  6
CONTINUOUS
 62
     7
 10
184.513806948066
 20
-14.8531363605007
 30
0.0
 11
181.559383686384
 21
-14.3321918425004
 31
0.0
  0
LINE
  5
   263
  8
0
  6
CONTINUOUS
 62
     7
 10
188.518230191866
 20
-14.3321918425004
 30
0.0
 11
185.563806930184
 21
-14.8531363605007
 31
0.0
  0
LINE
  5
   264
  8
0
  6
CONTINUOUS
 62
     7
 10
185.563806930184
 20
-14.8531363605007
 30
0.0
 11
188.518230191866
 21
-15.374080878501
 31
0.0
  0
ENDBLK
  5
   265
  8
0
  6
CONTINUOUS
 62
     7
  0
BLOCK
  5
   266
  8
0
  6
CONTINUOUS
 62
     7
  2
*UDIM828
 70
    65
 10
0.0
 20
0.0
 30
0.0
  3
*UDIM828
  0
TEXT
  5
   267
  8
0
  6
CONTINUOUS
 62
     7
 10
197.86379796837
 20
-13.8531363605007
 30
0.0
 40
2.4999999335834
  1
103,5
 41
0.933333333333333
 72
     1
 11
203.447131153373
 21
-12.603136393709
 31
0.0
 73
     2
  0
LINE
  5
   268
  8
0
  6
CONTINUOUS
 62
     7
 10
221.788790291547
 20
41.8178434923293
 30
0.0
 11
221.788790291547
 21
-16.8531363605007
 31
0.0
  0
LINE
  5
   269
  8
0
  6
CONTINUOUS
 62
     7
 10
185.563806930184
 20
-14.8531363605007
 30
0.0
 11
221.788790291547
 21
-14.8531363605007
 31
0.0
  0
LINE
  5
   26A
  8
0
  6
CONTINUOUS
 62
     7
 10
188.518230191866
 20
-14.3321918425004
 30
0.0
 11
185.563806930184
 21
-14.8531363605007
 31
0.0
  0
LINE
  5
   26B
  8
0
  6
CONTINUOUS
 62
     7
 10
185.563806930184
 20
-14.8531363605007
 30
0.0
 11
188.518230191866
 21
-15.374080878501
 31
0.0
  0
LINE
  5
   26C
  8
0
  6
CONTINUOUS
 62
     7
 10
218.834367029865
 20
-15.374080878501
 30
0.0
 11
221.788790291547
 21
-14.8531363605007
 31
0.0
  0
LINE
  5
   26D
  8
0
  6
CONTINUOUS
 62
     7
 10
221.788790291547
 20
-14.8531363605007
 30
0.0
 11
218.834367029865
 21
-14.3321918425004
 31
0.0
  0
ENDBLK
  5
   26E
  8
0
  6
CONTINUOUS
 62
     7
  0
BLOCK
  5
   26F
  8
0
  6
CONTINUOUS
 62
     7
  2
*UDIM829
 70
    65
 10
0.0
 20
0.0
 30
0.0
  3
*UDIM829
  0
TEXT
  5
   270
  8
0
  6
CONTINUOUS
 62
     7
 10
209.90921322386
 20
-24.5915608602436
 30
0.0
 40
2.4999999335834
  1
159
 41
0.933333333333333
 72
     1
 11
213.159213137518
 21
-23.3415608934519
 31
0.0
 73
     2
  0
LINE
  5
   271
  8
0
  6
CONTINUOUS
 62
     7
 10
185.563806930184
 20
9.18035148780872
 30
0.0
 11
185.563806930184
 21
-27.5915608602436
 31
0.0
  0
LINE
  5
   272
  8
0
  6
CONTINUOUS
 62
     7
 10
241.212950629914
 20
50.1083306478558
 30
0.0
 11
241.212950629914
 21
-27.5915608602436
 31
0.0
  0
LINE
  5
   273
  8
0
  6
CONTINUOUS
 62
     7
 10
185.563806930184
 20
-25.5915608602436
 30
0.0
 11
241.212950629914
 21
-25.5915608602436
 31
0.0
  0
LINE
  5
   274
  8
0
  6
CONTINUOUS
 62
     7
 10
188.518230191866
 20
-25.0706163422433
 30
0.0
 11
185.563806930184
 21
-25.5915608602436
 31
0.0
  0
LINE
  5
   275
  8
0
  6
CONTINUOUS
 62
     7
 10
185.563806930184
 20
-25.5915608602436
 30
0.0
 11
188.518230191866
 21
-26.1125053782439
 31
0.0
  0
LINE
  5
   276
  8
0
  6
CONTINUOUS
 62
     7
 10
238.258527368232
 20
-26.1125053782439
 30
0.0
 11
241.212950629914
 21
-25.5915608602436
 31
0.0
  0
LINE
  5
   277
  8
0
  6
CONTINUOUS
 62
     7
 10
241.212950629914
 20
-25.5915608602436
 30
0.0
 11
238.258527368232
 21
-25.0706163422433
 31
0.0
  0
ENDBLK
  5
   278
  8
0
  6
CONTINUOUS
 62
     7
  0
BLOCK
  5
   279
  8
0
  6
CONTINUOUS
 62
     7
  2
*UDIM830
 70
    65
 10
0.0
 20
0.0
 30
0.0
  3
*UDIM830
  0
TEXT
  5
   27A
  8
0
  6
CONTINUOUS
 62
     7
 10
247.212070176039
 20
57.7136745275779
 30
0.0
 40
2.4999999335834
  1
105
 50
90.0
 41
0.933333333333333
 72
     1
 11
245.962070209243
 21
60.9636744412347
 31
0.0
 73
     2
  0
LINE
  5
   27B
  8
0
  6
CONTINUOUS
 62
     7
 10
224.013790270685
 20
42.817843163152
 30
0.0
 11
250.212070176035
 21
42.8178345392716
 31
0.0
  0
LINE
  5
   27C
  8
0
  6
CONTINUOUS
 62
     7
 10
224.013790270685
 20
79.567837211988
 30
0.0
 11
250.212070176035
 21
79.5678289879163
 31
0.0
  0
LINE
  5
   27D
  8
0
  6
CONTINUOUS
 62
     7
 10
248.212070176035
 20
42.8178351976263
 30
0.0
 11
248.212070176035
 21
79.5678296157493
 31
0.0
  0
LINE
  5
   27E
  8
0
  6
CONTINUOUS
 62
     7
 10
247.691125658035
 20
45.7722584593079
 30
0.0
 11
248.212070176035
 21
42.8178351976263
 31
0.0
  0
LINE
  5
   27F
  8
0
  6
CONTINUOUS
 62
     7
 10
248.212070176035
 20
42.8178351976263
 30
0.0
 11
248.733014694035
 21
45.7722584593079
 31
0.0
  0
LINE
  5
   280
  8
0
  6
CONTINUOUS
 62
     7
 10
248.733014694035
 20
76.6134063540677
 30
0.0
 11
248.212070176035
 21
79.5678296157493
 31
0.0
  0
LINE
  5
   281
  8
0
  6
CONTINUOUS
 62
     7
 10
248.212070176035
 20
79.5678296157493
 30
0.0
 11
247.691125658035
 21
76.6134063540677
 31
0.0
  0
ENDBLK
  5
   282
  8
0
  6
CONTINUOUS
 62
     7
  0
BLOCK
  5
   283
  8
0
  6
CONTINUOUS
 62
     7
  2
*UDIM831
 70
    65
 10
0.0
 20
0.0
 30
0.0
  3
*UDIM831
  0
TEXT
  5
   284
  8
0
  6
CONTINUOUS
 62
     7
 10
202.209635273459
 20
71.9938603922553
 30
0.0
 40
2.4999999335834
  1
115
 41
0.933333333333333
 72
     1
 11
205.459635187117
 21
73.243860359047
 31
0.0
 73
     2
  0
LINE
  5
   285
  8
0
  6
CONTINUOUS
 62
     7
 10
185.563812270761
 20
70.9938603922553
 30
0.0
 11
225.813790223002
 21
70.9938603922553
 31
0.0
  0
LINE
  5
   286
  8
0
  6
CONTINUOUS
 62
     7
 10
188.518235532442
 20
71.5148049102557
 30
0.0
 11
185.563812270761
 21
70.9938603922553
 31
0.0
  0
LINE
  5
   287
  8
0
  6
CONTINUOUS
 62
     7
 10
185.563812270761
 20
70.9938603922553
 30
0.0
 11
188.518235532442
 21
70.472915874255
 31
0.0
  0
LINE
  5
   288
  8
0
  6
CONTINUOUS
 62
     7
 10
222.85936696132
 20
70.472915874255
 30
0.0
 11
225.813790223002
 21
70.9938603922553
 31
0.0
  0
LINE
  5
   289
  8
0
  6
CONTINUOUS
 62
     7
 10
225.813790223002
 20
70.9938603922553
 30
0.0
 11
222.85936696132
 21
71.5148049102557
 31
0.0
  0
ENDBLK
  5
   28A
  8
0
  6
CONTINUOUS
 62
     7
  0
BLOCK
  5
   28B
  8
0
  6
CONTINUOUS
 62
     7
  2
*UDIM832
 70
    65
 10
0.0
 20
0.0
 30
0.0
  3
*UDIM832
  0
TEXT
  5
   28C
  8
0
  6
CONTINUOUS
 62
     7
 10
184.536758167789
 20
-84.2937406686081
 30
0.0
 40
2.50000001341104
  1
109,75
 50
449.999999896069
 41
0.933333333333333
 72
     1
 11
183.286758173285
 21
-77.5437406301387
 31
0.0
 73
     2
  0
LINE
  5
   28D
  8
0
  6
CONTINUOUS
 62
     7
 10
191.270358528216
 20
-68.2444881722331
 30
0.0
 11
183.536758179991
 21
-68.2444881722331
 31
0.0
  0
LINE
  5
   28E
  8
0
  6
CONTINUOUS
 62
     7
 10
185.536758179991
 20
-68.2444881722331
 30
0.0
 11
185.536758179991
 21
-90.1944884993136
 31
0.0
  0
LINE
  5
   28F
  8
0
  6
CONTINUOUS
 62
     7
 10
186.057702697991
 20
-71.1989114339147
 30
0.0
 11
185.536758179991
 21
-68.2444881722331
 31
0.0
  0
LINE
  5
   290
  8
0
  6
CONTINUOUS
 62
     7
 10
185.536758179991
 20
-68.2444881722331
 30
0.0
 11
185.01581366199
 21
-71.1989114339147
 31
0.0
  0
LINE
  5
   291
  8
0
  6
CONTINUOUS
 62
     7
 10
185.01581366199
 20
-87.240065237632
 30
0.0
 11
185.536758179991
 21
-90.1944884993136
 31
0.0
  0
LINE
  5
   292
  8
0
  6
CONTINUOUS
 62
     7
 10
185.536758179991
 20
-90.1944884993136
 30
0.0
 11
186.057702697991
 21
-87.240065237632
 31
0.0
  0
ENDBLK
  5
   293
  8
0
  6
CONTINUOUS
 62
     7
  0
BLOCK
  5
   294
  8
0
  6
CONTINUOUS
 62
     7
  2
*UDIM833
 70
    65
 10
0.0
 20
0.0
 30
0.0
  3
*UDIM833
  0
TEXT
  5
   295
  8
0
  6
CONTINUOUS
 62
     7
 10
184.536758167789
 20
-109.898655953792
 30
0.0
 40
2.50000001341104
  1
127,25
 50
449.999999896069
 41
0.933333333333333
 72
     1
 11
183.286758173285
 21
-103.148655915322
 31
0.0
 73
     2
  0
LINE
  5
   296
  8
0
  6
CONTINUOUS
 62
     7
 10
191.132436633398
 20
-115.644488878548
 30
0.0
 11
183.536758179991
 21
-115.644488878548
 31
0.0
  0
LINE
  5
   297
  8
0
  6
CONTINUOUS
 62
     7
 10
185.536758179991
 20
-90.1944884993136
 30
0.0
 11
185.536758179991
 21
-115.644488878548
 31
0.0
  0
LINE
  5
   298
  8
0
  6
CONTINUOUS
 62
     7
 10
186.057702697991
 20
-93.1489117609952
 30
0.0
 11
185.536758179991
 21
-90.1944884993136
 31
0.0
  0
LINE
  5
   299
  8
0
  6
CONTINUOUS
 62
     7
 10
185.536758179991
 20
-90.1944884993136
 30
0.0
 11
185.01581366199
 21
-93.1489117609952
 31
0.0
  0
LINE
  5
   29A
  8
0
  6
CONTINUOUS
 62
     7
 10
185.01581366199
 20
-112.690065616867
 30
0.0
 11
185.536758179991
 21
-115.644488878548
 31
0.0
  0
LINE
  5
   29B
  8
0
  6
CONTINUOUS
 62
     7
 10
185.536758179991
 20
-115.644488878548
 30
0.0
 11
186.057702697991
 21
-112.690065616867
 31
0.0
  0
ENDBLK
  5
   29C
  8
0
  6
CONTINUOUS
 62
     7
  0
BLOCK
  5
   29D
  8
0
  6
CONTINUOUS
 62
     7
  2
*UDIM834
 70
    65
 10
0.0
 20
0.0
 30
0.0
  3
*UDIM834
  0
TEXT
  5
   29E
  8
0
  6
CONTINUOUS
 62
     7
 10
179.300661904686
 20
-81.6236552797378
 30
0.0
 40
2.50000001341104
  1
375
 50
449.999999896069
 41
0.933333333333333
 72
     1
 11
178.050661903855
 21
-78.3736552600439
 31
0.0
 73
     2
  0
LINE
  5
   29F
  8
0
  6
CONTINUOUS
 62
     7
 10
191.270358528216
 20
-40.6444877609611
 30
0.0
 11
178.300661910561
 21
-40.6444877609611
 31
0.0
  0
LINE
  5
   2A0
  8
0
  6
CONTINUOUS
 62
     7
 10
191.132436633398
 20
-115.644488878548
 30
0.0
 11
178.300661910561
 21
-115.644488878548
 31
0.0
  0
LINE
  5
   2A1
  8
0
  6
CONTINUOUS
 62
     7
 10
180.300661910561
 20
-40.6444877609611
 30
0.0
 11
180.300661910561
 21
-115.644488878548
 31
0.0
  0
LINE
  5
   2A2
  8
0
  6
CONTINUOUS
 62
     7
 10
180.821606428561
 20
-43.5989110226427
 30
0.0
 11
180.300661910561
 21
-40.6444877609611
 31
0.0
  0
LINE
  5
   2A3
  8
0
  6
CONTINUOUS
 62
     7
 10
180.300661910561
 20
-40.6444877609611
 30
0.0
 11
179.77971739256
 21
-43.5989110226427
 31
0.0
  0
LINE
  5
   2A4
  8
0
  6
CONTINUOUS
 62
     7
 10
179.77971739256
 20
-112.690065616867
 30
0.0
 11
180.300661910561
 21
-115.644488878548
 31
0.0
  0
LINE
  5
   2A5
  8
0
  6
CONTINUOUS
 62
     7
 10
180.300661910561
 20
-115.644488878548
 30
0.0
 11
180.821606428561
 21
-112.690065616867
 31
0.0
  0
ENDBLK
  5
   2A6
  8
0
  6
CONTINUOUS
 62
     7
  0
BLOCK
  5
   2A7
  8
0
  6
CONTINUOUS
 62
     7
  2
*UDIM835
 70
    65
 10
0.0
 20
0.0
 30
0.0
  3
*UDIM835
  0
TEXT
  5
   2A8
  8
0
  6
CONTINUOUS
 62
     7
 10
200.667232871399
 20
-112.302898186384
 30
0.0
 40
2.50000001341104
  1
5,5
 50
381.254468391328
 41
0.933333333333333
 72
     1
 11
203.24302818366
 21
-109.959763824163
 31
0.0
 73
     2
  0
TEXT
  5
   2A9
  8
0
  6
CONTINUOUS
 62
     7
 10
198.220786395451
 20
-113.254488852721
 30
0.0
 40
2.50000001341104
  1
Ø
 50
381.254468391328
 41
0.933333333333333
 72
     1
 11
198.621962628031
 21
-111.757212848115
 31
0.0
 73
     2
  0
TEXT
  5
   2AA
  8
0
  6
CONTINUOUS
 62
     7
 10
207.152257599974
 20
-109.780427719499
 30
0.0
 40
2.50000001341104
  1
 - M5
 50
381.254468391328
 41
0.933333333333333
 72
     1
 11
211.902671991916
 21
-106.591434999664
 31
0.0
 73
     2
  0
LINE
  5
   2AB
  8
0
  6
CONTINUOUS
 62
     7
 10
217.921873918467
 20
-106.664370883462
 30
0.0
 11
194.322280492862
 21
-115.843869779957
 31
0.0
  0
LINE
  5
   2AC
  8
0
  6
CONTINUOUS
 62
     7
 10
197.912072302866
 20
-113.888588196797
 30
0.0
 11
195.347458068053
 21
-115.445107977139
 31
0.0
  0
LINE
  5
   2AD
  8
0
  6
CONTINUOUS
 62
     7
 10
195.347458068053
 20
-115.445107977139
 30
0.0
 11
198.289768252085
 21
-114.859607523733
 31
0.0
  0
LINE
  5
   2AE
  8
0
  6
CONTINUOUS
 62
     7
 10
191.757666258049
 20
-117.400389560299
 30
0.0
 11
194.322280492862
 21
-115.843869779957
 31
0.0
  0
LINE
  5
   2AF
  8
0
  6
CONTINUOUS
 62
     7
 10
194.322280492862
 20
-115.843869779957
 30
0.0
 11
191.37997030883
 21
-116.429370233364
 31
0.0
  0
ENDBLK
  5
   2B0
  8
0
  6
CONTINUOUS
 62
     7
  0
BLOCK
  5
   2B1
  8
0
  6
CONTINUOUS
 62
     7
  2
*UDIM836
 70
    65
 10
0.0
 20
0.0
 30
0.0
  3
*UDIM836
  0
TEXT
  5
   2B2
  8
0
  6
CONTINUOUS
 62
     7
 10
199.522370981213
 20
-83.8640868047877
 30
0.0
 40
2.50000001341104
  1
70
 50
359.999999896069
 41
0.933333333333333
 72
     1
 11
201.605704327983
 21
-82.6140868018508
 31
0.0
 73
     2
  0
LINE
  5
   2B3
  8
0
  6
CONTINUOUS
 62
     7
 10
208.834869489074
 20
-84.8640868085563
 30
0.0
 11
194.834869280458
 21
-84.8640868085563
 31
0.0
  0
LINE
  5
   2B4
  8
0
  6
CONTINUOUS
 62
     7
 10
205.880446227392
 20
-85.3850313265566
 30
0.0
 11
208.834869489074
 21
-84.8640868085563
 31
0.0
  0
LINE
  5
   2B5
  8
0
  6
CONTINUOUS
 62
     7
 10
208.834869489074
 20
-84.8640868085563
 30
0.0
 11
205.880446227392
 21
-84.343142290556
 31
0.0
  0
LINE
  5
   2B6
  8
0
  6
CONTINUOUS
 62
     7
 10
197.789292542139
 20
-84.343142290556
 30
0.0
 11
194.834869280458
 21
-84.8640868085563
 31
0.0
  0
LINE
  5
   2B7
  8
0
  6
CONTINUOUS
 62
     7
 10
194.834869280458
 20
-84.8640868085563
 30
0.0
 11
197.789292542139
 21
-85.3850313265566
 31
0.0
  0
ENDBLK
  5
   2B8
  8
0
  6
CONTINUOUS
 62
     7
  0
BLOCK
  5
   2B9
  8
0
  6
CONTINUOUS
 62
     7
  2
*UDIM837
 70
    65
 10
0.0
 20
0.0
 30
0.0
  3
*UDIM837
  0
TEXT
  5
   2BA
  8
0
  6
CONTINUOUS
 62
     7
 10
101.578328541663
 20
-112.538458564902
 30
0.0
 40
2.50000001341104
  1
147
 50
359.999999844103
 41
0.933333333333333
 72
     1
 11
104.828328562492
 21
-111.288458567023
 31
0.0
 73
     2
  0
LINE
  5
   2BB
  8
0
  6
CONTINUOUS
 62
     7
 10
90.3574940051934
 20
-102.394488666206
 30
0.0
 11
90.3574822683252
 21
-115.538458573728
 31
0.0
  0
LINE
  5
   2BC
  8
0
  6
CONTINUOUS
 62
     7
 10
119.757494443288
 20
-102.394488666206
 30
0.0
 11
119.757482706419
 21
-115.538458573728
 31
0.0
  0
LINE
  5
   2BD
  8
0
  6
CONTINUOUS
 62
     7
 10
90.3574840542191
 20
-113.538458573728
 30
0.0
 11
119.757484492313
 21
-113.538458573728
 31
0.0
  0
LINE
  5
   2BE
  8
0
  6
CONTINUOUS
 62
     7
 10
93.3119073159007
 20
-113.017514055728
 30
0.0
 11
90.3574840542191
 21
-113.538458573728
 31
0.0
  0
LINE
  5
   2BF
  8
0
  6
CONTINUOUS
 62
     7
 10
90.3574840542191
 20
-113.538458573728
 30
0.0
 11
93.3119073159007
 21
-114.059403091729
 31
0.0
  0
LINE
  5
   2C0
  8
0
  6
CONTINUOUS
 62
     7
 10
116.803061230632
 20
-114.059403091729
 30
0.0
 11
119.757484492313
 21
-113.538458573728
 31
0.0
  0
LINE
  5
   2C1
  8
0
  6
CONTINUOUS
 62
     7
 10
119.757484492313
 20
-113.538458573728
 30
0.0
 11
116.803061230632
 21
-113.017514055728
 31
0.0
  0
ENDBLK
  5
   2C2
  8
0
  6
CONTINUOUS
 62
     7
  0
BLOCK
  5
   2C3
  8
0
  6
CONTINUOUS
 62
     7
  2
*UDIM838
 70
    65
 10
0.0
 20
0.0
 30
0.0
  3
*UDIM838
  0
TEXT
  5
   2C4
  8
0
  6
CONTINUOUS
 62
     7
 10
101.578328540581
 20
-68.3480678917652
 30
0.0
 40
2.50000001341104
  1
115
 50
359.999999844103
 41
0.933333333333333
 72
     1
 11
104.82832856141
 21
-67.0980678938863
 31
0.0
 73
     2
  0
LINE
  5
   2C5
  8
0
  6
CONTINUOUS
 62
     7
 10
93.5574952597406
 20
-73.2944882623852
 30
0.0
 11
93.55749712642
 21
-67.3480679005919
 31
0.0
  0
LINE
  5
   2C6
  8
0
  6
CONTINUOUS
 62
     7
 10
116.557495602467
 20
-73.2944882623852
 30
0.0
 11
116.557497469147
 21
-67.3480679005919
 31
0.0
  0
LINE
  5
   2C7
  8
0
  6
CONTINUOUS
 62
     7
 10
93.557496498587
 20
-69.3480679005918
 30
0.0
 11
116.557496841314
 21
-69.3480679005918
 31
0.0
  0
LINE
  5
   2C8
  8
0
  6
CONTINUOUS
 62
     7
 10
96.5119197602686
 20
-68.8271233825915
 30
0.0
 11
93.557496498587
 21
-69.3480679005918
 31
0.0
  0
LINE
  5
   2C9
  8
0
  6
CONTINUOUS
 62
     7
 10
93.557496498587
 20
-69.3480679005918
 30
0.0
 11
96.5119197602686
 21
-69.8690124185921
 31
0.0
  0
LINE
  5
   2CA
  8
0
  6
CONTINUOUS
 62
     7
 10
113.603073579632
 20
-69.8690124185921
 30
0.0
 11
116.557496841314
 21
-69.3480679005918
 31
0.0
  0
LINE
  5
   2CB
  8
0
  6
CONTINUOUS
 62
     7
 10
116.557496841314
 20
-69.3480679005918
 30
0.0
 11
113.603073579632
 21
-68.8271233825915
 31
0.0
  0
ENDBLK
  5
   2CC
  8
0
  6
CONTINUOUS
 62
     7
  0
BLOCK
  5
   2CD
  8
0
  6
CONTINUOUS
 62
     7
  2
*UDIM839
 70
    65
 10
0.0
 20
0.0
 30
0.0
  3
*UDIM839
  0
TEXT
  5
   2CE
  8
0
  6
CONTINUOUS
 62
     7
 10
73.2664362999331
 20
-93.6736554604305
 30
0.0
 40
2.50000001341104
  1
142
 50
449.999999844103
 41
0.933333333333333
 72
     1
 11
72.0164363020501
 21
-90.4236554396029
 31
0.0
 73
     2
  0
LINE
  5
   2CF
  8
0
  6
CONTINUOUS
 62
     7
 10
90.8574949204922
 20
-75.9944882877171
 30
0.0
 11
72.2664363087556
 21
-75.9944882877171
 31
0.0
  0
LINE
  5
   2D0
  8
0
  6
CONTINUOUS
 62
     7
 10
90.8574949204922
 20
-104.39448871091
 30
0.0
 11
72.2664363087556
 21
-104.39448871091
 31
0.0
  0
LINE
  5
   2D1
  8
0
  6
CONTINUOUS
 62
     7
 10
74.2664363087556
 20
-75.9944882877171
 30
0.0
 11
74.2664363087556
 21
-104.39448871091
 31
0.0
  0
LINE
  5
   2D2
  8
0
  6
CONTINUOUS
 62
     7
 10
74.7873808267559
 20
-78.9489115493987
 30
0.0
 11
74.2664363087556
 21
-75.9944882877171
 31
0.0
  0
LINE
  5
   2D3
  8
0
  6
CONTINUOUS
 62
     7
 10
74.2664363087556
 20
-75.9944882877171
 30
0.0
 11
73.7454917907553
 21
-78.9489115493987
 31
0.0
  0
LINE
  5
   2D4
  8
0
  6
CONTINUOUS
 62
     7
 10
73.7454917907553
 20
-101.440065449228
 30
0.0
 11
74.2664363087556
 21
-104.39448871091
 31
0.0
  0
LINE
  5
   2D5
  8
0
  6
CONTINUOUS
 62
     7
 10
74.2664363087556
 20
-104.39448871091
 30
0.0
 11
74.7873808267559
 21
-101.440065449228
 31
0.0
  0
ENDBLK
  5
   2D6
  8
0
  6
CONTINUOUS
 62
     7
  0
BLOCK
  5
   2D7
  8
0
  6
CONTINUOUS
 62
     7
  2
*UDIM840
 70
    65
 10
0.0
 20
0.0
 30
0.0
  3
*UDIM840
  0
TEXT
  5
   2D8
  8
0
  6
CONTINUOUS
 62
     7
 10
79.766857539375
 20
-93.6736554604305
 30
0.0
 40
2.50000001341104
  1
112
 50
449.999999844103
 41
0.933333333333333
 72
     1
 11
78.516857541492
 21
-90.4236554396029
 31
0.0
 73
     2
  0
LINE
  5
   2D9
  8
0
  6
CONTINUOUS
 62
     7
 10
89.3574948981404
 20
-78.9944883324206
 30
0.0
 11
78.7668575481976
 21
-78.9944883324206
 31
0.0
  0
LINE
  5
   2DA
  8
0
  6
CONTINUOUS
 62
     7
 10
89.3574948981404
 20
-101.394488666207
 30
0.0
 11
78.7668575481976
 21
-101.394488666207
 31
0.0
  0
LINE
  5
   2DB
  8
0
  6
CONTINUOUS
 62
     7
 10
80.7668575481975
 20
-78.9944883324206
 30
0.0
 11
80.7668575481975
 21
-101.394488666207
 31
0.0
  0
LINE
  5
   2DC
  8
0
  6
CONTINUOUS
 62
     7
 10
81.2878020661979
 20
-81.9489115941022
 30
0.0
 11
80.7668575481975
 21
-78.9944883324206
 31
0.0
  0
LINE
  5
   2DD
  8
0
  6
CONTINUOUS
 62
     7
 10
80.7668575481975
 20
-78.9944883324206
 30
0.0
 11
80.2459130301972
 21
-81.9489115941022
 31
0.0
  0
LINE
  5
   2DE
  8
0
  6
CONTINUOUS
 62
     7
 10
80.2459130301972
 20
-98.440065404525
 30
0.0
 11
80.7668575481975
 21
-101.394488666207
 31
0.0
  0
LINE
  5
   2DF
  8
0
  6
CONTINUOUS
 62
     7
 10
80.7668575481975
 20
-101.394488666207
 30
0.0
 11
81.2878020661979
 21
-98.440065404525
 31
0.0
  0
ENDBLK
  5
   2E0
  8
0
  6
CONTINUOUS
 62
     7
  0
BLOCK
  5
   2E1
  8
0
  6
CONTINUOUS
 62
     7
  2
*UDIM841
 70
    65
 10
0.0
 20
0.0
 30
0.0
  3
*UDIM841
  0
TEXT
  5
   2E2
  8
0
  6
CONTINUOUS
 62
     7
 10
126.013169776594
 20
-65.1711701832308
 30
0.0
 40
2.50000001341104
  1
7
 50
404.868411918951
 41
0.933333333333333
 72
     1
 11
125.780986742596
 21
-63.6385681989307
 31
0.0
 73
     2
  0
TEXT
  5
   2E3
  8
0
  6
CONTINUOUS
 62
     7
 10
124.152756428638
 20
-67.0230576880999
 30
0.0
 40
2.50000001341104
  1
Ø
 50
404.868411918951
 41
0.933333333333333
 72
     1
 11
123.920573394641
 21
-65.4904557037999
 31
0.0
 73
     2
  0
LINE
  5
   2E4
  8
0
  6
CONTINUOUS
 62
     7
 10
128.017987025784
 20
-64.5865173273045
 30
0.0
 11
116.061385060651
 21
-76.488324957453
 31
0.0
  0
LINE
  5
   2E5
  8
0
  6
CONTINUOUS
 62
     7
 10
118.77997419327
 20
-73.0471538715589
 30
0.0
 11
117.053605516451
 21
-75.5006516179813
 31
0.0
  0
LINE
  5
   2E6
  8
0
  6
CONTINUOUS
 62
     7
 10
117.053605516451
 20
-75.5006516179813
 30
0.0
 11
119.515007056278
 21
-73.7855707278373
 31
0.0
  0
LINE
  5
   2E7
  8
0
  6
CONTINUOUS
 62
     7
 10
114.335016383832
 20
-78.9418227038753
 30
0.0
 11
116.061385060651
 21
-76.488324957453
 31
0.0
  0
LINE
  5
   2E8
  8
0
  6
CONTINUOUS
 62
     7
 10
116.061385060651
 20
-76.488324957453
 30
0.0
 11
113.599983520823
 21
-78.2034058475969
 31
0.0
  0
ENDBLK
  5
   2E9
  8
0
  6
CONTINUOUS
 62
     7
  0
ENDSEC
  0
SECTION
  2
ENTITIES
  0
LINE
  5
   2EA
  8
0
  6
CONTINUOUS
 62
     2
 10
92.0199793893876
 20
11.2303453864129
 30
0.0
 11
69.7074851099433
 21
11.2303453864129
 31
0.0
  0
LINE
  5
   2EB
  8
0
  6
CONTINUOUS
 62
     7
 10
135.857441656803
 20
-5.74464966873028
 30
0.0
 11
123.25746189854
 21
-5.74464966873028
 31
0.0
  0
LINE
  5
   2EC
  8
0
  6
CONTINUOUS
 62
     7
 10
122.557461910461
 20
-5.0446496806512
 30
0.0
 11
122.557461910461
 21
11.2303453863925
 31
0.0
  0
LINE
  5
   2ED
  8
0
  6
CONTINUOUS
 62
     7
 10
136.557441644882
 20
-5.0446496806512
 30
0.0
 11
136.557441644882
 21
11.2303453863925
 31
0.0
  0
CIRCLE
  5
   2EE
  8
0
  6
CONTINUOUS
 62
     7
 10
129.557421163216
 20
-0.494671199174626
 30
0.0
 40
1.92503683232651
  0
LINE
  5
   2EF
  8
0
  6
DASHDOT
 62
     2
 10
131.832457989582
 20
-0.494671199174626
 30
0.0
 11
127.28238433685
 21
-0.494671199174626
 31
0.0
  0
LINE
  5
   2F0
  8
0
  6
CONTINUOUS
 62
     2
 10
98.0574623276934
 20
-5.0446496806512
 30
0.0
 11
98.0574623276934
 21
11.2303453863925
 31
0.0
  0
LINE
  5
   2F1
  8
0
  6
CONTINUOUS
 62
     1
 10
112.057442062115
 20
6.71552849431829
 30
0.0
 11
98.0574623276934
 21
6.71552849431829
 31
0.0
  0
LINE
  5
   2F2
  8
0
  6
CONTINUOUS
 62
     2
 10
112.057442062115
 20
-5.0446496806512
 30
0.0
 11
112.057442062115
 21
11.2303453863925
 31
0.0
  0
CIRCLE
  5
   2F3
  8
0
  6
CONTINUOUS
 62
     2
 10
105.057421580449
 20
-0.494671199174626
 30
0.0
 40
1.92503683232651
  0
LINE
  5
   2F4
  8
0
  6
CONTINUOUS
 62
     2
 10
111.357442074035
 20
-5.74464966873028
 30
0.0
 11
98.7574623157725
 21
-5.74464966873028
 31
0.0
  0
LINE
  5
   2F5
  8
0
  6
CONTINUOUS
 62
     2
 10
86.857442491268
 20
-5.74464966873028
 30
0.0
 11
74.257462733005
 21
-5.74464966873028
 31
0.0
  0
LINE
  5
   2F6
  8
0
  6
CONTINUOUS
 62
     2
 10
87.5574424793471
 20
-5.0446496806512
 30
0.0
 11
87.5574424793471
 21
11.2303453863925
 31
0.0
  0
LINE
  5
   2F7
  8
0
  6
CONTINUOUS
 62
     1
 10
87.5574424793471
 20
6.71552849431829
 30
0.0
 11
73.5574627449259
 21
6.71552849431829
 31
0.0
  0
LINE
  5
   2F8
  8
0
  6
CONTINUOUS
 62
     2
 10
73.5574627449259
 20
-5.0446496806512
 30
0.0
 11
73.5574627449259
 21
11.2303453863925
 31
0.0
  0
CIRCLE
  5
   2F9
  8
0
  6
CONTINUOUS
 62
     2
 10
80.5574219976812
 20
-0.494671199174626
 30
0.0
 40
1.92503683232651
  0
ARC
  5
   2FA
  8
0
  6
CONTINUOUS
 62
     7
 10
123.257465222194
 20
-5.04464409700365
 30
0.0
 40
0.700004026529487
 50
180.00008433977
 51
269.999863832817
  0
ARC
  5
   2FB
  8
0
  6
CONTINUOUS
 62
     7
 10
135.857431093627
 20
-5.044643930725
 30
0.0
 40
0.700010475705149
 50
270.000959112258
 51
359.999822049471
  0
ARC
  5
   2FC
  8
0
  6
CONTINUOUS
 62
     2
 10
111.35743151086
 20
-5.044643930725
 30
0.0
 40
0.700010475705149
 50
270.000959112258
 51
359.999822049471
  0
ARC
  5
   2FD
  8
0
  6
CONTINUOUS
 62
     2
 10
86.8574319280922
 20
-5.044643930725
 30
0.0
 40
0.700010475705149
 50
270.000959112258
 51
359.999822049471
  0
ARC
  5
   2FE
  8
0
  6
CONTINUOUS
 62
     2
 10
98.7574656394267
 20
-5.04464409700365
 30
0.0
 40
0.700004026529487
 50
180.00008433977
 51
269.999863832817
  0
ARC
  5
   2FF
  8
0
  6
CONTINUOUS
 62
     2
 10
74.2574660566592
 20
-5.04464409700365
 30
0.0
 40
0.700004026529487
 50
180.00008433977
 51
269.999863832817
  0
LINE
  5
   300
  8
0
  6
DASHDOT
 62
     2
 10
107.332458406815
 20
-0.494671199174626
 30
0.0
 11
102.782384754083
 21
-0.494671199174626
 31
0.0
  0
LINE
  5
   301
  8
0
  6
CONTINUOUS
 62
     1
 10
84.5827188016405
 20
150.705343180895
 30
0.0
 11
82.6647750376415
 21
150.705343180895
 31
0.0
  0
LINE
  5
   302
  8
0
  6
CONTINUOUS
 62
     1
 10
84.5827188016405
 20
146.505343252421
 30
0.0
 11
82.6647750376415
 21
146.505343252421
 31
0.0
  0
LINE
  5
   303
  8
0
  6
CONTINUOUS
 62
     1
 10
78.4502345618275
 20
146.505343102628
 30
0.0
 11
76.5326685467748
 21
146.50534963496
 31
0.0
  0
LINE
  5
   304
  8
0
  6
CONTINUOUS
 62
     1
 10
76.5326685499219
 20
150.705336798803
 30
0.0
 11
78.4502372519295
 21
150.705343331166
 31
0.0
  0
LINE
  5
   305
  8
0
  6
CONTINUOUS
 62
     7
 10
69.1825170904394
 20
144.755360679972
 30
0.0
 11
69.1825170904394
 21
152.280343154073
 31
0.0
  0
LINE
  5
   306
  8
0
  6
CONTINUOUS
 62
     1
 10
102.950217282896
 20
150.705343180895
 30
0.0
 11
101.032629067965
 21
150.705343180895
 31
0.0
  0
LINE
  5
   307
  8
0
  6
CONTINUOUS
 62
     1
 10
102.949841822332
 20
146.505343252421
 30
0.0
 11
101.032629067965
 21
146.505343252421
 31
0.0
  0
LINE
  5
   308
  8
0
  6
CONTINUOUS
 62
     1
 10
107.164773432744
 20
146.505339750261
 30
0.0
 11
109.082542658546
 21
146.505346283307
 31
0.0
  0
LINE
  5
   309
  8
0
  6
CONTINUOUS
 62
     1
 10
109.082542663122
 20
150.705340150768
 30
0.0
 11
107.16477343148
 21
150.705346683814
 31
0.0
  0
LINE
  5
   30A
  8
0
  6
CONTINUOUS
 62
     3
 10
140.932473143936
 20
152.280343154073
 30
0.0
 11
140.932473143936
 21
152.980343142152
 31
0.0
  0
LINE
  5
   30B
  8
0
  6
CONTINUOUS
 62
     1
 10
127.450210189943
 20
150.705343180895
 30
0.0
 11
125.532412857131
 21
150.705343180895
 31
0.0
  0
LINE
  5
   30C
  8
0
  6
CONTINUOUS
 62
     1
 10
127.450210189943
 20
146.505343252421
 30
0.0
 11
125.532412857131
 21
146.505343252421
 31
0.0
  0
LINE
  5
   30D
  8
0
  6
CONTINUOUS
 62
     1
 10
131.664755999601
 20
146.505343102629
 30
0.0
 11
133.582540416046
 21
146.505349635705
 31
0.0
  0
LINE
  5
   30E
  8
0
  6
CONTINUOUS
 62
     1
 10
133.582556429578
 20
150.705336798315
 30
0.0
 11
131.664753312703
 21
150.705343331455
 31
0.0
  0
LINE
  5
   30F
  8
0
  6
DASHDOT
 62
     7
 10
103.552710071684
 20
148.60534669037
 30
0.0
 11
98.512548398032
 21
148.60534669037
 31
0.0
  0
LINE
  5
   310
  8
0
  6
DASHDOT
 62
     7
 10
101.032629067965
 20
146.085266020437
 30
0.0
 11
101.032629067965
 21
151.125427360303
 31
0.0
  0
ARC
  5
   311
  8
0
  6
CONTINUOUS
 62
     1
 10
101.032629067965
 20
148.60534669037
 30
0.0
 40
2.10006689115832
 50
90.0036557603355
 51
269.996301839899
  0
LINE
  5
   312
  8
0
  6
DASHDOT
 62
     7
 10
108.62762288738
 20
148.605201415077
 30
0.0
 11
101.487290520209
 21
148.605201415077
 31
0.0
  0
ARC
  5
   313
  8
0
  6
CONTINUOUS
 62
     1
 10
105.057456703805
 20
148.605201415077
 30
0.0
 40
2.97513848632147
 50
224.89430374687
 51
315.105491686916
  0
LINE
  5
   314
  8
0
  6
DASHDOT
 62
     7
 10
111.602475204085
 20
148.605400748754
 30
0.0
 11
106.562595143907
 21
148.605400748754
 31
0.0
  0
LINE
  5
   315
  8
0
  6
DASHDOT
 62
     7
 10
109.082535507785
 20
146.085459186593
 30
0.0
 11
109.082535507785
 21
151.1253385792
 31
0.0
  0
ARC
  5
   316
  8
0
  6
CONTINUOUS
 62
     1
 10
109.082535507782
 20
148.605400748754
 30
0.0
 40
2.09994941313343
 50
269.999007927624
 51
450.00105270767
  0
LINE
  5
   317
  8
0
  6
DASHDOT
 62
     7
 10
128.052309773844
 20
148.605363596679
 30
0.0
 11
123.012494578114
 21
148.605363596679
 31
0.0
  0
LINE
  5
   318
  8
0
  6
DASHDOT
 62
     7
 10
125.532412857131
 20
146.085450658237
 30
0.0
 11
125.532412857131
 21
151.12527653512
 31
0.0
  0
ARC
  5
   319
  8
0
  6
CONTINUOUS
 62
     1
 10
125.532412857131
 20
148.605363596679
 30
0.0
 40
2.09992678112893
 50
449.999999948034
 51
630.002376467854
  0
LINE
  5
   31A
  8
0
  6
DASHDOT
 62
     7
 10
133.127521502158
 20
148.605313699055
 30
0.0
 11
125.987462908018
 21
148.605313699055
 31
0.0
  0
ARC
  5
   31B
  8
0
  6
CONTINUOUS
 62
     1
 10
129.557497545664
 20
148.605313699055
 30
0.0
 40
2.97502441422517
 50
404.901045292561
 51
495.098630845462
  0
LINE
  5
   31C
  8
0
  6
DASHDOT
 62
     7
 10
136.102542072826
 20
148.605332755453
 30
0.0
 11
131.062535123226
 21
148.605332755453
 31
0.0
  0
LINE
  5
   31D
  8
0
  6
DASHDOT
 62
     7
 10
133.582538598026
 20
146.085323940077
 30
0.0
 11
133.582538598026
 21
151.125341570829
 31
0.0
  0
ARC
  5
   31E
  8
0
  6
CONTINUOUS
 62
     1
 10
133.582538598026
 20
148.605332755453
 30
0.0
 40
2.10000667857487
 50
269.998338346111
 51
450.001473300288
  0
LINE
  5
   31F
  8
0
  6
DASHDOT
 62
     7
 10
79.0528188959374
 20
148.605358940283
 30
0.0
 11
74.012553882486
 21
148.605358940283
 31
0.0
  0
LINE
  5
   320
  8
0
  6
DASHDOT
 62
     7
 10
76.5326863892117
 20
146.085221092981
 30
0.0
 11
76.5326863892117
 21
151.125496787585
 31
0.0
  0
ARC
  5
   321
  8
0
  6
CONTINUOUS
 62
     1
 10
76.5326863892117
 20
148.605358940283
 30
0.0
 40
2.1001148727515
 50
90.0052836333811
 51
269.995265213079
  0
LINE
  5
   322
  8
0
  6
DASHDOT
 62
     7
 10
84.1275726134026
 20
148.605403980212
 30
0.0
 11
76.9874239083067
 21
148.605403980212
 31
0.0
  0
ARC
  5
   323
  8
0
  6
CONTINUOUS
 62
     1
 10
80.5575116122949
 20
148.605403980212
 30
0.0
 40
2.97505973521659
 50
224.901380849089
 51
315.098568474349
  0
LINE
  5
   324
  8
0
  6
DASHDOT
 62
     7
 10
87.102540654257
 20
148.605359121801
 30
0.0
 11
82.0628969490241
 21
148.605359121801
 31
0.0
  0
LINE
  5
   325
  8
0
  6
DASHDOT
 62
     7
 10
84.5827188016405
 20
146.085531928609
 30
0.0
 11
84.5827188016405
 21
151.125186314994
 31
0.0
  0
ARC
  5
   326
  8
0
  6
CONTINUOUS
 62
     1
 10
84.5827188016405
 20
148.605359121801
 30
0.0
 40
2.09985599432712
 50
269.999999948034
 51
449.999945306521
  0
ARC
  5
   327
  8
0
  6
CONTINUOUS
 62
     1
 10
80.5575116122949
 20
148.605403980212
 30
0.0
 40
2.97505973521659
 50
404.897963373026
 51
495.101923170488
  0
ARC
  5
   328
  8
0
  6
CONTINUOUS
 62
     1
 10
105.057456703805
 20
148.605201415077
 30
0.0
 40
2.97513848632147
 50
404.902109287098
 51
495.097767281763
  0
ARC
  5
   329
  8
0
  6
CONTINUOUS
 62
     1
 10
129.557497545664
 20
148.605313699055
 30
0.0
 40
2.97502441422517
 50
224.899545375473
 51
315.100341172749
  0
LINE
  5
   32A
  8
0
  6
CONTINUOUS
 62
     1
 10
141.80750228171
 20
96.455343935036
 30
0.0
 11
68.3950035319174
 21
96.455343935036
 31
0.0
  0
LINE
  5
   32B
  8
0
  6
CONTINUOUS
 62
     1
 10
141.80750228171
 20
34.8553449840777
 30
0.0
 11
131.657494664192
 21
34.8553449840777
 31
0.0
  0
LINE
  5
   32C
  8
0
  6
CONTINUOUS
 62
     1
 10
78.4574955701828
 20
42.8178395079011
 30
0.0
 11
68.4825035304273
 21
42.8178395079011
 31
0.0
  0
LINE
  5
   32D
  8
0
  6
CONTINUOUS
 62
     1
 10
141.63250228469
 20
79.5678388820523
 30
0.0
 11
131.657494664192
 21
79.5678388820523
 31
0.0
  0
LINE
  5
   32E
  8
0
  6
CONTINUOUS
 62
     1
 10
141.80750228171
 20
35.2053449572556
 30
0.0
 11
131.657494664192
 21
35.2053449572556
 31
0.0
  0
LINE
  5
   32F
  8
0
  6
CONTINUOUS
 62
     3
 10
68.7450035050954
 20
34.8553449840777
 30
0.0
 11
68.7450035050954
 21
35.2053449572556
 31
0.0
  0
LINE
  5
   330
  8
0
  6
CONTINUOUS
 62
     1
 10
141.370002289161
 20
34.8553449840777
 30
0.0
 11
141.370002289161
 21
35.2053449572556
 31
0.0
  0
LINE
  5
   331
  8
0
  6
CONTINUOUS
 62
     1
 10
140.249998035773
 20
79.5678388820523
 30
0.0
 11
140.249998035773
 21
96.455343935036
 31
0.0
  0
LINE
  5
   332
  8
0
  6
CONTINUOUS
 62
     1
 10
141.054999090179
 20
79.5678388820523
 30
0.0
 11
141.054999090179
 21
96.455343935036
 31
0.0
  0
LINE
  5
   333
  8
0
  6
CONTINUOUS
 62
     1
 10
135.210000257834
 20
79.5678388820523
 30
0.0
 11
135.210000257834
 21
96.455343935036
 31
0.0
  0
LINE
  5
   334
  8
0
  6
CONTINUOUS
 62
     1
 10
136.469997032031
 20
79.5678388820523
 30
0.0
 11
136.469997032031
 21
96.455343935036
 31
0.0
  0
LINE
  5
   335
  8
0
  6
CONTINUOUS
 62
     1
 10
137.729999146804
 20
79.5678388820523
 30
0.0
 11
137.729999146804
 21
96.455343935036
 31
0.0
  0
LINE
  5
   336
  8
0
  6
CONTINUOUS
 62
     1
 10
138.990001261577
 20
79.5678388820523
 30
0.0
 11
138.990001261577
 21
96.455343935036
 31
0.0
  0
LINE
  5
   337
  8
0
  6
CONTINUOUS
 62
     1
 10
129.540001422509
 20
89.3678380475877
 30
0.0
 11
129.540001422509
 21
96.455343935036
 31
0.0
  0
LINE
  5
   338
  8
0
  6
CONTINUOUS
 62
     1
 10
130.344997136339
 20
89.3678380475877
 30
0.0
 11
130.344997136339
 21
96.455343935036
 31
0.0
  0
LINE
  5
   339
  8
0
  6
CONTINUOUS
 62
     1
 10
131.429999254092
 20
89.3141405027
 30
0.0
 11
131.429999254092
 21
96.455343935036
 31
0.0
  0
LINE
  5
   33A
  8
0
  6
CONTINUOUS
 62
     1
 10
132.690001368865
 20
79.5678388820523
 30
0.0
 11
132.690001368865
 21
96.455343935036
 31
0.0
  0
LINE
  5
   33B
  8
0
  6
CONTINUOUS
 62
     1
 10
133.949998143062
 20
79.5678388820523
 30
0.0
 11
133.949998143062
 21
96.455343935036
 31
0.0
  0
LINE
  5
   33C
  8
0
  6
CONTINUOUS
 62
     1
 10
136.469997032031
 20
42.8178395079011
 30
0.0
 11
136.469997032031
 21
79.5678388820523
 31
0.0
  0
LINE
  5
   33D
  8
0
  6
CONTINUOUS
 62
     1
 10
138.990001261577
 20
42.8178395079011
 30
0.0
 11
138.990001261577
 21
79.5678388820523
 31
0.0
  0
LINE
  5
   33E
  8
0
  6
CONTINUOUS
 62
     1
 10
137.729999146804
 20
42.8178395079011
 30
0.0
 11
137.729999146804
 21
79.5678388820523
 31
0.0
  0
LINE
  5
   33F
  8
0
  6
CONTINUOUS
 62
     1
 10
133.949998143062
 20
42.8178395079011
 30
0.0
 11
133.949998143062
 21
79.5678388820523
 31
0.0
  0
LINE
  5
   340
  8
0
  6
CONTINUOUS
 62
     1
 10
132.690001368865
 20
42.8178395079011
 30
0.0
 11
132.690001368865
 21
79.5678388820523
 31
0.0
  0
LINE
  5
   341
  8
0
  6
CONTINUOUS
 62
     1
 10
140.249998035773
 20
42.8178395079011
 30
0.0
 11
140.249998035773
 21
79.5678388820523
 31
0.0
  0
LINE
  5
   342
  8
0
  6
CONTINUOUS
 62
     1
 10
141.054999090179
 20
42.8178395079011
 30
0.0
 11
141.054999090179
 21
79.5678388820523
 31
0.0
  0
LINE
  5
   343
  8
0
  6
CONTINUOUS
 62
     1
 10
140.249998035773
 20
35.2053449572556
 30
0.0
 11
140.249998035773
 21
42.8178394870395
 31
0.0
  0
LINE
  5
   344
  8
0
  6
CONTINUOUS
 62
     1
 10
141.054999090179
 20
35.2053449572556
 30
0.0
 11
141.054999090179
 21
42.8178394870395
 31
0.0
  0
LINE
  5
   345
  8
0
  6
CONTINUOUS
 62
     1
 10
135.210000257834
 20
35.2053449572556
 30
0.0
 11
135.210000257834
 21
79.5678388820523
 31
0.0
  0
LINE
  5
   346
  8
0
  6
CONTINUOUS
 62
     1
 10
136.469997032031
 20
35.2053449572556
 30
0.0
 11
136.469997032031
 21
42.8178394870395
 31
0.0
  0
LINE
  5
   347
  8
0
  6
CONTINUOUS
 62
     1
 10
137.729999146804
 20
35.2053449572556
 30
0.0
 11
137.729999146804
 21
42.8178394870395
 31
0.0
  0
LINE
  5
   348
  8
0
  6
CONTINUOUS
 62
     1
 10
138.990001261577
 20
35.2053449572556
 30
0.0
 11
138.990001261577
 21
42.8178394870395
 31
0.0
  0
LINE
  5
   349
  8
0
  6
CONTINUOUS
 62
     1
 10
132.690001368865
 20
35.2053449572556
 30
0.0
 11
132.690001368865
 21
42.8178394870395
 31
0.0
  0
LINE
  5
   34A
  8
0
  6
CONTINUOUS
 62
     1
 10
133.949998143062
 20
35.2053449572556
 30
0.0
 11
133.949998143062
 21
42.8178394870395
 31
0.0
  0
LINE
  5
   34B
  8
0
  6
CONTINUOUS
 62
     1
 10
69.8650034401263
 20
79.5678388820523
 30
0.0
 11
69.8650034401263
 21
96.455343935036
 31
0.0
  0
LINE
  5
   34C
  8
0
  6
CONTINUOUS
 62
     1
 10
69.0600033870782
 20
79.5678388820523
 30
0.0
 11
69.0600033870782
 21
96.455343935036
 31
0.0
  0
LINE
  5
   34D
  8
0
  6
CONTINUOUS
 62
     1
 10
74.9050002167072
 20
79.5678388820523
 30
0.0
 11
74.9050002167072
 21
96.455343935036
 31
0.0
  0
LINE
  5
   34E
  8
0
  6
CONTINUOUS
 62
     1
 10
73.6450034425105
 20
79.5678388820523
 30
0.0
 11
73.6450034425105
 21
96.455343935036
 31
0.0
  0
LINE
  5
   34F
  8
0
  6
CONTINUOUS
 62
     1
 10
72.3850033304538
 20
79.5678388820523
 30
0.0
 11
72.3850033304538
 21
96.455343935036
 31
0.0
  0
LINE
  5
   350
  8
0
  6
CONTINUOUS
 62
     1
 10
71.125003218397
 20
79.5678388820523
 30
0.0
 11
71.125003218397
 21
96.455343935036
 31
0.0
  0
LINE
  5
   351
  8
0
  6
CONTINUOUS
 62
     1
 10
80.5749990520324
 20
92.7219377379676
 30
0.0
 11
80.5749990520324
 21
96.455343935036
 31
0.0
  0
LINE
  5
   352
  8
0
  6
CONTINUOUS
 62
     1
 10
79.9450033352221
 20
89.3678380475877
 30
0.0
 11
79.9450033352221
 21
96.455343935036
 31
0.0
  0
LINE
  5
   353
  8
0
  6
CONTINUOUS
 62
     1
 10
78.6850012204494
 20
89.3141461056181
 30
0.0
 11
78.6850012204494
 21
96.455343935036
 31
0.0
  0
LINE
  5
   354
  8
0
  6
CONTINUOUS
 62
     1
 10
77.4249991056766
 20
79.5678388820523
 30
0.0
 11
77.4249991056766
 21
96.455343935036
 31
0.0
  0
LINE
  5
   355
  8
0
  6
CONTINUOUS
 62
     1
 10
76.1650023314799
 20
79.5678388820523
 30
0.0
 11
76.1650023314799
 21
96.455343935036
 31
0.0
  0
LINE
  5
   356
  8
0
  6
CONTINUOUS
 62
     1
 10
73.6450031087245
 20
42.8178395079011
 30
0.0
 11
73.6450031087245
 21
79.5678388820523
 31
0.0
  0
LINE
  5
   357
  8
0
  6
CONTINUOUS
 62
     1
 10
74.9050002167072
 20
42.8178395079011
 30
0.0
 11
74.9050002167072
 21
79.5678388820523
 31
0.0
  0
LINE
  5
   358
  8
0
  6
CONTINUOUS
 62
     1
 10
71.125003218397
 20
42.8178395079011
 30
0.0
 11
71.125003218397
 21
79.5678388820523
 31
0.0
  0
LINE
  5
   359
  8
0
  6
CONTINUOUS
 62
     1
 10
72.3850033304538
 20
42.8178395079011
 30
0.0
 11
72.3850033304538
 21
79.5678388820523
 31
0.0
  0
LINE
  5
   35A
  8
0
  6
CONTINUOUS
 62
     1
 10
76.1650023314799
 20
42.8178395079011
 30
0.0
 11
76.1650023314799
 21
79.5678388820523
 31
0.0
  0
LINE
  5
   35B
  8
0
  6
CONTINUOUS
 62
     1
 10
77.4249991056766
 20
42.8178395079011
 30
0.0
 11
77.4249991056766
 21
79.5678388820523
 31
0.0
  0
LINE
  5
   35C
  8
0
  6
CONTINUOUS
 62
     1
 10
69.8650034401263
 20
42.8178395079011
 30
0.0
 11
69.8650034401263
 21
79.5678388820523
 31
0.0
  0
LINE
  5
   35D
  8
0
  6
CONTINUOUS
 62
     1
 10
69.0600033870782
 20
42.8178395079011
 30
0.0
 11
69.0600033870782
 21
79.5678388820523
 31
0.0
  0
LINE
  5
   35E
  8
0
  6
CONTINUOUS
 62
     1
 10
69.8650034401263
 20
35.2053449572556
 30
0.0
 11
69.8650034401263
 21
42.8178394870395
 31
0.0
  0
LINE
  5
   35F
  8
0
  6
CONTINUOUS
 62
     1
 10
69.0600033870782
 20
35.2053449572556
 30
0.0
 11
69.0600033870782
 21
42.8178394870395
 31
0.0
  0
LINE
  5
   360
  8
0
  6
CONTINUOUS
 62
     1
 10
74.9050002167072
 20
35.2053449572556
 30
0.0
 11
74.9050002167072
 21
42.8178394870395
 31
0.0
  0
LINE
  5
   361
  8
0
  6
CONTINUOUS
 62
     1
 10
73.6450034425105
 20
35.2053449572556
 30
0.0
 11
73.6450034425105
 21
42.8178394870395
 31
0.0
  0
LINE
  5
   362
  8
0
  6
CONTINUOUS
 62
     1
 10
72.3850033304538
 20
35.2053449572556
 30
0.0
 11
72.3850033304538
 21
42.8178394870395
 31
0.0
  0
LINE
  5
   363
  8
0
  6
CONTINUOUS
 62
     1
 10
71.125003218397
 20
35.2053449572556
 30
0.0
 11
71.125003218397
 21
42.8178394870395
 31
0.0
  0
LINE
  5
   364
  8
0
  6
CONTINUOUS
 62
     1
 10
80.5749990520324
 20
35.2053449572556
 30
0.0
 11
80.5749990520324
 21
42.8178394870395
 31
0.0
  0
LINE
  5
   365
  8
0
  6
CONTINUOUS
 62
     1
 10
77.4249991056766
 20
35.2053449572556
 30
0.0
 11
77.4249991056766
 21
42.8178394870395
 31
0.0
  0
LINE
  5
   366
  8
0
  6
CONTINUOUS
 62
     1
 10
76.1650023314799
 20
35.2053449572556
 30
0.0
 11
76.1650023314799
 21
42.8178394870395
 31
0.0
  0
LINE
  5
   367
  8
0
  6
CONTINUOUS
 62
     1
 10
129.032494708896
 20
94.7053439648383
 30
0.0
 11
81.0824955254793
 21
94.7053439648383
 31
0.0
  0
LINE
  5
   368
  8
0
  6
CONTINUOUS
 62
     1
 10
129.032494708896
 20
89.3678380475877
 30
0.0
 11
129.032494708896
 21
94.7053439648383
 31
0.0
  0
LINE
  5
   369
  8
0
  6
CONTINUOUS
 62
     1
 10
81.0824955254793
 20
89.3678380475877
 30
0.0
 11
81.0824955254793
 21
94.7053439648383
 31
0.0
  0
LINE
  5
   36A
  8
0
  6
CONTINUOUS
 62
     3
 10
129.557494699955
 20
42.9928502119986
 30
0.0
 11
129.557494699955
 21
45.9678499657979
 31
0.0
  0
LINE
  5
   36B
  8
0
  6
CONTINUOUS
 62
     3
 10
129.38249467701
 20
42.8178501890537
 30
0.0
 11
80.7325061866666
 21
42.8178501890537
 31
0.0
  0
LINE
  5
   36C
  8
0
  6
CONTINUOUS
 62
     3
 10
80.5575062155725
 20
42.9928501601484
 30
0.0
 11
80.5575062155725
 21
45.9678499657979
 31
0.0
  0
LINE
  5
   36D
  8
0
  6
CONTINUOUS
 62
     3
 10
129.382489188209
 20
79.5678388820527
 30
0.0
 11
80.732500852666
 21
79.5678388820527
 31
0.0
  0
LINE
  5
   36E
  8
0
  6
CONTINUOUS
 62
     1
 10
129.557473337651
 20
75.367838953578
 30
0.0
 11
80.5575062155722
 21
75.367838953578
 31
0.0
  0
LINE
  5
   36F
  8
0
  6
CONTINUOUS
 62
     1
 10
129.557484018803
 20
78.8678388939734
 30
0.0
 11
80.5575062155722
 21
78.8678388939734
 31
0.0
  0
LINE
  5
   370
  8
0
  6
CONTINUOUS
 62
     1
 10
112.407494992018
 20
65.8303497971528
 30
0.0
 11
97.7074952423573
 21
65.8303497971528
 31
0.0
  0
LINE
  5
   371
  8
0
  6
CONTINUOUS
 62
     7
 10
112.407494992018
 20
44.2426642307424
 30
0.0
 11
112.407494992018
 21
53.4903825731226
 31
0.0
  0
LINE
  5
   372
  8
0
  6
CONTINUOUS
 62
     7
 10
97.7074952423573
 20
44.2426642307424
 30
0.0
 11
97.7074952423573
 21
53.4903825731226
 31
0.0
  0
LINE
  5
   373
  8
0
  6
CONTINUOUS
 62
     7
 10
112.407494992018
 20
65.9959610614223
 30
0.0
 11
97.7074952423573
 21
65.9959610614223
 31
0.0
  0
LINE
  5
   374
  8
0
  6
DASHDOT
 62
     7
 10
105.057495117188
 20
34.9990005712631
 30
0.0
 11
105.057495117188
 21
178.141123213784
 31
0.0
  0
LINE
  5
   375
  8
0
  6
CONTINUOUS
 62
   218
 10
129.557505381105
 20
67.3178499266293
 30
0.0
 11
129.557505381105
 21
79.3928416520693
 31
0.0
  0
LINE
  5
   376
  8
0
  6
CONTINUOUS
 62
   218
 10
129.557494699955
 20
52.9678500161999
 30
0.0
 11
129.557494699955
 21
60.3178498910302
 31
0.0
  0
LINE
  5
   377
  8
0
  6
CONTINUOUS
 62
   218
 10
129.557494699955
 20
60.6678498850697
 30
0.0
 11
129.557494699955
 21
66.9678497777813
 31
0.0
  0
LINE
  5
   378
  8
0
  6
CONTINUOUS
 62
   218
 10
129.557494699955
 20
46.3178554700248
 30
0.0
 11
129.557494699955
 21
52.6178500221604
 31
0.0
  0
LINE
  5
   379
  8
0
  6
CONTINUOUS
 62
   218
 10
80.5575008749961
 20
46.3178501294487
 30
0.0
 11
80.5575008749961
 21
52.6178446815843
 31
0.0
  0
LINE
  5
   37A
  8
0
  6
CONTINUOUS
 62
   218
 10
80.5575008749961
 20
67.3178444312448
 30
0.0
 11
80.5575008749961
 21
79.3928361953962
 31
0.0
  0
LINE
  5
   37B
  8
0
  6
CONTINUOUS
 62
   218
 10
80.5575008749961
 20
52.9678446756238
 30
0.0
 11
80.5575008749961
 21
60.3178445504541
 31
0.0
  0
LINE
  5
   37C
  8
0
  6
CONTINUOUS
 62
   218
 10
80.5575008749961
 20
60.6678445444936
 30
0.0
 11
80.5575008749961
 21
66.9678444372052
 31
0.0
  0
LINE
  5
   37D
  8
0
  6
CONTINUOUS
 62
   218
 10
129.557494699955
 20
52.6178500221604
 30
0.0
 11
129.207500046492
 21
52.6178500221604
 31
0.0
  0
LINE
  5
   37E
  8
0
  6
CONTINUOUS
 62
     1
 10
97.7074952423573
 20
52.6178500221604
 30
0.0
 11
80.9075008690357
 21
52.6178500221604
 31
0.0
  0
LINE
  5
   37F
  8
0
  6
CONTINUOUS
 62
   218
 10
129.557494699955
 20
52.9678500161999
 30
0.0
 11
129.207500046492
 21
52.9678500161999
 31
0.0
  0
LINE
  5
   380
  8
0
  6
CONTINUOUS
 62
     1
 10
97.7074952423573
 20
52.9678500161999
 30
0.0
 11
80.5937420242813
 21
52.9678500161999
 31
0.0
  0
LINE
  5
   381
  8
0
  6
CONTINUOUS
 62
   218
 10
129.207500046492
 20
52.6178500221604
 30
0.0
 11
129.207500046492
 21
52.9678500161999
 31
0.0
  0
LINE
  5
   382
  8
0
  6
CONTINUOUS
 62
   218
 10
80.9075008690357
 20
52.6178500221604
 30
0.0
 11
80.9075008690357
 21
52.9678500161999
 31
0.0
  0
LINE
  5
   383
  8
0
  6
CONTINUOUS
 62
   218
 10
80.5575008695284
 20
52.9678393363108
 30
0.0
 11
80.90750086356
 21
52.9678446768869
 31
0.0
  0
LINE
  5
   384
  8
0
  6
CONTINUOUS
 62
   218
 10
129.557494699955
 20
46.317851798379
 30
0.0
 11
129.207500046492
 21
46.317851798379
 31
0.0
  0
LINE
  5
   385
  8
0
  6
CONTINUOUS
 62
   218
 10
129.207500046492
 20
45.9678538070553
 30
0.0
 11
129.207500046492
 21
46.3178538010948
 31
0.0
  0
LINE
  5
   386
  8
0
  6
CONTINUOUS
 62
   218
 10
129.557494699955
 20
66.9678497777813
 30
0.0
 11
129.207494705915
 21
66.9678497777813
 31
0.0
  0
LINE
  5
   387
  8
0
  6
CONTINUOUS
 62
   218
 10
129.557494545154
 20
67.3178497718209
 30
0.0
 11
129.207494705915
 21
67.3178497718209
 31
0.0
  0
LINE
  5
   388
  8
0
  6
CONTINUOUS
 62
   218
 10
129.207494705915
 20
66.9678497777813
 30
0.0
 11
129.207494705915
 21
67.3178497718209
 31
0.0
  0
LINE
  5
   389
  8
0
  6
CONTINUOUS
 62
   218
 10
80.5575008695284
 20
67.3178390936023
 30
0.0
 11
80.90750086356
 21
67.3178444341784
 31
0.0
  0
LINE
  5
   38A
  8
0
  6
CONTINUOUS
 62
   218
 10
129.557494699955
 20
60.3178498910302
 30
0.0
 11
129.207494705915
 21
60.3178498910302
 31
0.0
  0
LINE
  5
   38B
  8
0
  6
CONTINUOUS
 62
     1
 10
97.7074952423573
 20
60.3178498910302
 30
0.0
 11
80.9075008690357
 21
60.3178498910302
 31
0.0
  0
LINE
  5
   38C
  8
0
  6
CONTINUOUS
 62
   218
 10
129.557494699955
 20
60.6678498850697
 30
0.0
 11
129.207494705915
 21
60.6678498850697
 31
0.0
  0
LINE
  5
   38D
  8
0
  6
CONTINUOUS
 62
     1
 10
97.7074952423573
 20
60.6678498850697
 30
0.0
 11
80.9075008690357
 21
60.6678498850697
 31
0.0
  0
LINE
  5
   38E
  8
0
  6
CONTINUOUS
 62
   218
 10
129.207494705915
 20
60.3178498910302
 30
0.0
 11
129.207494705915
 21
60.6678498850697
 31
0.0
  0
LINE
  5
   38F
  8
0
  6
CONTINUOUS
 62
     7
 10
80.9075062096119
 20
45.9678500176481
 30
0.0
 11
80.9075062096119
 21
46.3178499861027
 31
0.0
  0
LINE
  5
   390
  8
0
  6
CONTINUOUS
 62
     7
 10
80.9075008690357
 20
60.3178445504541
 30
0.0
 11
80.9075008690357
 21
60.6678498850697
 31
0.0
  0
LINE
  5
   391
  8
0
  6
CONTINUOUS
 62
     7
 10
80.9075008690357
 20
66.9678444372052
 30
0.0
 11
80.9075008690357
 21
67.3178497718208
 31
0.0
  0
ARC
  5
   392
  8
0
  6
CONTINUOUS
 62
     7
 10
80.7325008720159
 20
79.3928361953962
 30
0.0
 40
0.174999997019768
 50
90.0000062832808
 51
179.999999948034
  0
ARC
  5
   393
  8
0
  6
CONTINUOUS
 62
     7
 10
129.382489207559
 20
79.3928415746696
 30
0.0
 40
0.174999997019768
 50
360.000025289036
 51
450.000006283281
  0
ARC
  5
   394
  8
0
  6
CONTINUOUS
 62
     7
 10
129.38249467701
 20
42.9928501860735
 30
0.0
 40
0.174999997019768
 50
269.999999948034
 51
360.000008436035
  0
ARC
  5
   395
  8
0
  6
CONTINUOUS
 62
     7
 10
80.7325061866666
 20
42.9928501860735
 30
0.0
 40
0.174999997019768
 50
180.000008436035
 51
269.999999948034
  0
LINE
  5
   396
  8
0
  6
CONTINUOUS
 62
     1
 10
96.7449952587486
 20
46.3178511745878
 30
0.0
 11
96.7449952587486
 21
52.6178500221604
 31
0.0
  0
LINE
  5
   397
  8
0
  6
CONTINUOUS
 62
     1
 10
113.369994975626
 20
46.3178524221697
 30
0.0
 11
113.369994975626
 21
52.6178500221604
 31
0.0
  0
LINE
  5
   398
  8
0
  6
CONTINUOUS
 62
     1
 10
96.7449952587486
 20
60.6678498850697
 30
0.0
 11
96.7449952587486
 21
66.9678497777813
 31
0.0
  0
LINE
  5
   399
  8
0
  6
CONTINUOUS
 62
     1
 10
113.369994975626
 20
60.6678498850697
 30
0.0
 11
113.369994975626
 21
66.9678497777813
 31
0.0
  0
LINE
  5
   39A
  8
0
  6
CONTINUOUS
 62
     1
 10
93.5949953123927
 20
65.3928498046034
 30
0.0
 11
93.0699953213334
 21
65.3928498046034
 31
0.0
  0
LINE
  5
   39B
  8
0
  6
CONTINUOUS
 62
     1
 10
93.5949953123927
 20
62.2428498582476
 30
0.0
 11
93.0699953213334
 21
62.2428498582476
 31
0.0
  0
LINE
  5
   39C
  8
0
  6
CONTINUOUS
 62
     1
 10
93.0699953213334
 20
62.2428498582476
 30
0.0
 11
93.0699953213334
 21
65.3928498046034
 31
0.0
  0
LINE
  5
   39D
  8
0
  6
CONTINUOUS
 62
     1
 10
93.5949953123927
 20
62.2428498582476
 30
0.0
 11
93.5949953123927
 21
65.3928498046034
 31
0.0
  0
CIRCLE
  5
   39E
  8
0
  6
CONTINUOUS
 62
     1
 10
93.3324953168631
 20
49.4678500758046
 30
0.0
 40
1.57499997317791
  0
CIRCLE
  5
   39F
  8
0
  6
CONTINUOUS
 62
     1
 10
93.3324953168631
 20
49.4678500758046
 30
0.0
 40
1.04999998211861
  0
LINE
  5
   3A0
  8
0
  6
CONTINUOUS
 62
     3
 10
69.182485118884
 20
12.2103451026933
 30
0.0
 11
68.3075035334076
 21
12.2103451026933
 31
0.0
  0
LINE
  5
   3A1
  8
0
  6
CONTINUOUS
 62
     3
 10
69.182485118884
 20
11.7553450436847
 30
0.0
 11
69.182485118884
 21
12.2103451026933
 31
0.0
  0
LINE
  5
   3A2
  8
0
  6
CONTINUOUS
 62
     3
 10
91.7517447164924
 20
11.2303453864129
 30
0.0
 11
69.7074851099433
 21
11.2303453864129
 31
0.0
  0
LINE
  5
   3A3
  8
0
  6
CONTINUOUS
 62
     1
 10
122.557478869337
 20
19.6303399027842
 30
0.0
 11
113.982479015368
 21
19.6303399027842
 31
0.0
  0
LINE
  5
   3A4
  8
0
  6
CONTINUOUS
 62
     1
 10
136.03247481379
 20
19.6303299390253
 30
0.0
 11
124.307475013465
 21
19.6303299390253
 31
0.0
  0
LINE
  5
   3A5
  8
0
  6
CONTINUOUS
 62
     1
 10
140.93248084637
 20
19.630336469989
 30
0.0
 11
138.482475548041
 21
19.6303418105631
 31
0.0
  0
LINE
  5
   3A6
  8
0
  6
CONTINUOUS
 62
     1
 10
69.182485118884
 20
12.2103451026933
 30
0.0
 11
69.182485118884
 21
19.7003399015921
 31
0.0
  0
LINE
  5
   3A7
  8
0
  6
CONTINUOUS
 62
     1
 10
124.307478839535
 20
19.6303452433602
 30
0.0
 11
122.557484209913
 21
19.6303452433602
 31
0.0
  0
LINE
  5
   3A8
  8
0
  6
CONTINUOUS
 62
     1
 10
138.482478598136
 20
19.6303452433602
 30
0.0
 11
136.032478639859
 21
19.6303452433602
 31
0.0
  0
LINE
  5
   3A9
  8
0
  6
CONTINUOUS
 62
     1
 10
84.5824825022038
 20
18.0553373308587
 30
0.0
 11
82.6647563999768
 21
18.0553426714331
 31
0.0
  0
LINE
  5
   3AA
  8
0
  6
CONTINUOUS
 62
     1
 10
78.4502034012128
 20
18.0553383865914
 30
0.0
 11
76.5324772985394
 21
18.0553437271658
 31
0.0
  0
LINE
  5
   3AB
  8
0
  6
CONTINUOUS
 62
     1
 10
78.4502057557334
 20
13.8553453417079
 30
0.0
 11
76.5324796531381
 21
13.8553453417079
 31
0.0
  0
LINE
  5
   3AC
  8
0
  6
CONTINUOUS
 62
     1
 10
84.5824795160475
 20
13.8553453417079
 30
0.0
 11
82.6647587540283
 21
13.8553453417079
 31
0.0
  0
LINE
  5
   3AD
  8
0
  6
CONTINUOUS
 62
     1
 10
113.982479015368
 20
19.6303452433602
 30
0.0
 11
69.182485118884
 21
19.6303452433602
 31
0.0
  0
ARC
  5
   3AE
  8
0
  6
CONTINUOUS
 62
     3
 10
69.7074833943975
 20
11.7553444179145
 30
0.0
 40
0.524998573004765
 50
179.999941123702
 51
270.000103159103
  0
CIRCLE
  5
   3AF
  8
0
  6
CONTINUOUS
 62
     1
 10
70.5824843199083
 20
12.6303448636302
 30
0.0
 40
0.49000039187499
  0
ARC
  5
   3B0
  8
0
  6
CONTINUOUS
 62
     1
 10
76.5324734685559
 20
15.9553406530273
 30
0.0
 40
2.09999798521424
 50
90.0001399327154
 51
270.000100332566
  0
ARC
  5
   3B1
  8
0
  6
CONTINUOUS
 62
     1
 10
80.5574760704966
 20
15.9553774164717
 30
0.0
 40
2.97503256700413
 50
404.899302393594
 51
495.100813987516
  0
ARC
  5
   3B2
  8
0
  6
CONTINUOUS
 62
     1
 10
84.582480973568
 20
15.9553427859233
 30
0.0
 40
2.09999509708851
 50
269.999747131106
 51
450.000048027357
  0
ARC
  5
   3B3
  8
0
  6
CONTINUOUS
 62
     1
 10
80.5574760704966
 20
15.9553774164717
 30
0.0
 40
2.97503256700413
 50
224.901119153159
 51
315.09888074291
  0
LINE
  5
   3B4
  8
0
  6
DASHDOT
 62
     2
 10
84.5825086196193
 20
15.9553774164717
 30
0.0
 11
76.5324435213738
 21
15.9553774164717
 31
0.0
  0
LINE
  5
   3B5
  8
0
  6
DASHDOT
 62
     2
 10
84.582480973568
 20
12.8053477067162
 30
0.0
 11
84.582480973568
 21
19.1053378651304
 31
0.0
  0
LINE
  5
   3B6
  8
0
  6
DASHDOT
 62
     2
 10
87.7324760527751
 20
15.9553427859233
 30
0.0
 11
81.4324858943609
 21
15.9553427859233
 31
0.0
  0
LINE
  5
   3B7
  8
0
  6
DASHDOT
 62
     2
 10
76.5324734685559
 20
12.8053426856945
 30
0.0
 11
76.5324734685559
 21
19.1053386203601
 31
0.0
  0
LINE
  5
   3B8
  8
0
  6
DASHDOT
 62
     2
 10
79.6824714358888
 20
15.9553406530273
 30
0.0
 11
73.3824755012231
 21
15.9553406530273
 31
0.0
  0
LINE
  5
   3B9
  8
0
  6
DASHDOT
 62
     2
 10
105.057495117188
 20
-16.2583072470265
 30
0.0
 11
105.057495117188
 21
36.5371078216821
 31
0.0
  0
LINE
  5
   3BA
  8
0
  6
DASHDOT
 62
     2
 10
70.5824843199083
 20
11.0903444896366
 30
0.0
 11
70.5824843199083
 21
14.1703452376238
 31
0.0
  0
LINE
  5
   3BB
  8
0
  6
DASHDOT
 62
     2
 10
72.1224846939019
 20
12.6303448636302
 30
0.0
 11
69.0424839459147
 21
12.6303448636302
 31
0.0
  0
LINE
  5
   3BC
  8
0
  6
CONTINUOUS
 62
     1
 10
117.587494903803
 20
50.8153500528568
 30
0.0
 11
117.429994906485
 21
50.8153500528568
 31
0.0
  0
LINE
  5
   3BD
  8
0
  6
CONTINUOUS
 62
     1
 10
117.254994909465
 20
48.1203500987523
 30
0.0
 11
116.974994914234
 21
48.1203500987523
 31
0.0
  0
LINE
  5
   3BE
  8
0
  6
CONTINUOUS
 62
     1
 10
114.734994952381
 20
49.0303500832551
 30
0.0
 11
114.734994952381
 21
49.2053500802749
 31
0.0
  0
LINE
  5
   3BF
  8
0
  6
CONTINUOUS
 62
     1
 10
116.554994921386
 20
49.0303500832551
 30
0.0
 11
116.554994921386
 21
49.2053500802749
 31
0.0
  0
ARC
  5
   3C0
  8
0
  6
CONTINUOUS
 62
     1
 10
115.644994936883
 20
49.2053500802749
 30
0.0
 40
0.909999984502793
 50
359.999999948034
 51
539.999999948034
  0
ARC
  5
   3C1
  8
0
  6
CONTINUOUS
 62
     1
 10
115.644994936883
 20
49.0303500832551
 30
0.0
 40
0.909999984502792
 50
179.999999948034
 51
359.999999948034
  0
ARC
  5
   3C2
  8
0
  6
CONTINUOUS
 62
     1
 10
115.644994936883
 20
49.2053500802749
 30
0.0
 40
0.629999989271164
 50
359.999999948034
 51
539.999999948034
  0
ARC
  5
   3C3
  8
0
  6
CONTINUOUS
 62
     1
 10
115.644994936883
 20
49.0303500832551
 30
0.0
 40
0.629999989271163
 50
179.999999948034
 51
359.999999948034
  0
LINE
  5
   3C4
  8
0
  6
CONTINUOUS
 62
     1
 10
115.014994947612
 20
49.0303500832551
 30
0.0
 11
115.014994947612
 21
49.2053500802749
 31
0.0
  0
LINE
  5
   3C5
  8
0
  6
CONTINUOUS
 62
     1
 10
116.274994926155
 20
49.0303500832551
 30
0.0
 11
116.274994926155
 21
49.2053500802749
 31
0.0
  0
LINE
  5
   3C6
  8
0
  6
CONTINUOUS
 62
     1
 10
116.642494919896
 20
49.6953500719303
 30
0.0
 11
116.642494919896
 21
49.9753500671619
 31
0.0
  0
LINE
  5
   3C7
  8
0
  6
CONTINUOUS
 62
     1
 10
116.974994914234
 20
49.6953500719303
 30
0.0
 11
116.642494919896
 21
49.6953500719303
 31
0.0
  0
LINE
  5
   3C8
  8
0
  6
CONTINUOUS
 62
     1
 10
117.587494903803
 20
49.6953500719303
 30
0.0
 11
117.587494903803
 21
49.9753500671619
 31
0.0
  0
LINE
  5
   3C9
  8
0
  6
CONTINUOUS
 62
     1
 10
116.974994914234
 20
49.9753500671619
 30
0.0
 11
116.642494919896
 21
49.9753500671619
 31
0.0
  0
LINE
  5
   3CA
  8
0
  6
CONTINUOUS
 62
     1
 10
116.974994914234
 20
48.1203500987523
 30
0.0
 11
116.974994914234
 21
49.6953500719303
 31
0.0
  0
LINE
  5
   3CB
  8
0
  6
CONTINUOUS
 62
     1
 10
117.254994909465
 20
48.1203500987523
 30
0.0
 11
117.254994909465
 21
49.6953500719303
 31
0.0
  0
LINE
  5
   3CC
  8
0
  6
CONTINUOUS
 62
     1
 10
117.587494903803
 20
49.6953500719303
 30
0.0
 11
117.254994909465
 21
49.6953500719303
 31
0.0
  0
LINE
  5
   3CD
  8
0
  6
CONTINUOUS
 62
     1
 10
117.587494903803
 20
49.9753500671619
 30
0.0
 11
117.254994909465
 21
49.9753500671619
 31
0.0
  0
LINE
  5
   3CE
  8
0
  6
CONTINUOUS
 62
     1
 10
116.974994914234
 20
49.9753500671619
 30
0.0
 11
116.974994914234
 21
50.3603500606054
 31
0.0
  0
LINE
  5
   3CF
  8
0
  6
CONTINUOUS
 62
     1
 10
117.254994909465
 20
49.9753500671619
 30
0.0
 11
117.254994909465
 21
50.3603500606054
 31
0.0
  0
ARC
  5
   3D0
  8
0
  6
CONTINUOUS
 62
     1
 10
117.429994906485
 20
50.3603500606054
 30
0.0
 40
0.454999992251396
 50
449.999999948034
 51
539.999999948034
  0
ARC
  5
   3D1
  8
0
  6
CONTINUOUS
 62
     1
 10
117.429994906485
 20
50.3603500606054
 30
0.0
 40
0.174999997019768
 50
449.999999948034
 51
539.999999948034
  0
LINE
  5
   3D2
  8
0
  6
CONTINUOUS
 62
     1
 10
117.587494903803
 20
50.5353500576251
 30
0.0
 11
117.587494903803
 21
50.8153500528568
 31
0.0
  0
LINE
  5
   3D3
  8
0
  6
CONTINUOUS
 62
     1
 10
117.587494903803
 20
50.5353500576251
 30
0.0
 11
117.429994906485
 21
50.5353500576251
 31
0.0
  0
LINE
  5
   3D4
  8
0
  6
CONTINUOUS
 62
     1
 10
118.707494884729
 20
50.8153500528568
 30
0.0
 11
118.549994887412
 21
50.8153500528568
 31
0.0
  0
LINE
  5
   3D5
  8
0
  6
CONTINUOUS
 62
     1
 10
118.374994890392
 20
48.1203500987523
 30
0.0
 11
118.09499489516
 21
48.1203500987523
 31
0.0
  0
LINE
  5
   3D6
  8
0
  6
CONTINUOUS
 62
     1
 10
117.762494900823
 20
49.6953500719303
 30
0.0
 11
117.762494900823
 21
49.9753500671619
 31
0.0
  0
LINE
  5
   3D7
  8
0
  6
CONTINUOUS
 62
     1
 10
118.09499489516
 20
49.6953500719303
 30
0.0
 11
117.762494900823
 21
49.6953500719303
 31
0.0
  0
LINE
  5
   3D8
  8
0
  6
CONTINUOUS
 62
     1
 10
118.707494884729
 20
49.6953500719303
 30
0.0
 11
118.707494884729
 21
49.9753500671619
 31
0.0
  0
LINE
  5
   3D9
  8
0
  6
CONTINUOUS
 62
     1
 10
118.09499489516
 20
49.9753500671619
 30
0.0
 11
117.762494900823
 21
49.9753500671619
 31
0.0
  0
LINE
  5
   3DA
  8
0
  6
CONTINUOUS
 62
     1
 10
118.09499489516
 20
48.1203500987523
 30
0.0
 11
118.09499489516
 21
49.6953500719303
 31
0.0
  0
LINE
  5
   3DB
  8
0
  6
CONTINUOUS
 62
     1
 10
118.374994890392
 20
48.1203500987523
 30
0.0
 11
118.374994890392
 21
49.6953500719303
 31
0.0
  0
LINE
  5
   3DC
  8
0
  6
CONTINUOUS
 62
     1
 10
118.707494884729
 20
49.6953500719303
 30
0.0
 11
118.374994890392
 21
49.6953500719303
 31
0.0
  0
LINE
  5
   3DD
  8
0
  6
CONTINUOUS
 62
     1
 10
118.707494884729
 20
49.9753500671619
 30
0.0
 11
118.374994890392
 21
49.9753500671619
 31
0.0
  0
LINE
  5
   3DE
  8
0
  6
CONTINUOUS
 62
     1
 10
118.09499489516
 20
49.9753500671619
 30
0.0
 11
118.09499489516
 21
50.3603500606054
 31
0.0
  0
LINE
  5
   3DF
  8
0
  6
CONTINUOUS
 62
     1
 10
118.374994890392
 20
49.9753500671619
 30
0.0
 11
118.374994890392
 21
50.3603500606054
 31
0.0
  0
ARC
  5
   3E0
  8
0
  6
CONTINUOUS
 62
     1
 10
118.549994887412
 20
50.3603500606054
 30
0.0
 40
0.454999992251396
 50
449.999999948034
 51
539.999999948034
  0
ARC
  5
   3E1
  8
0
  6
CONTINUOUS
 62
     1
 10
118.549994887412
 20
50.3603500606054
 30
0.0
 40
0.174999997019768
 50
449.999999948034
 51
539.999999948034
  0
LINE
  5
   3E2
  8
0
  6
CONTINUOUS
 62
     1
 10
118.707494884729
 20
50.5353500576251
 30
0.0
 11
118.707494884729
 21
50.8153500528568
 31
0.0
  0
LINE
  5
   3E3
  8
0
  6
CONTINUOUS
 62
     1
 10
118.707494884729
 20
50.5353500576251
 30
0.0
 11
118.549994887412
 21
50.5353500576251
 31
0.0
  0
LINE
  5
   3E4
  8
0
  6
CONTINUOUS
 62
     1
 10
117.11499491185
 20
62.8203498484128
 30
0.0
 11
116.834994916618
 21
62.8203498484128
 31
0.0
  0
ARC
  5
   3E5
  8
0
  6
CONTINUOUS
 62
     1
 10
115.644994936883
 20
63.9053498299354
 30
0.0
 40
0.909999984502793
 50
359.999999948034
 51
539.999999948034
  0
ARC
  5
   3E6
  8
0
  6
CONTINUOUS
 62
     1
 10
115.644994936883
 20
63.9053498299354
 30
0.0
 40
0.629999989271164
 50
359.999999948034
 51
539.999999948034
  0
ARC
  5
   3E7
  8
0
  6
CONTINUOUS
 62
     1
 10
115.644994936883
 20
63.7303498329156
 30
0.0
 40
0.909999984502792
 50
179.999999948034
 51
359.999999948034
  0
ARC
  5
   3E8
  8
0
  6
CONTINUOUS
 62
     1
 10
115.644994936883
 20
63.7303498329156
 30
0.0
 40
0.629999989271163
 50
179.999999948034
 51
359.999999948034
  0
LINE
  5
   3E9
  8
0
  6
CONTINUOUS
 62
     1
 10
116.274994926155
 20
63.7303498329156
 30
0.0
 11
116.274994926155
 21
63.9053498299354
 31
0.0
  0
LINE
  5
   3EA
  8
0
  6
CONTINUOUS
 62
     1
 10
116.554994921386
 20
63.7303498329156
 30
0.0
 11
116.554994921386
 21
63.9053498299354
 31
0.0
  0
LINE
  5
   3EB
  8
0
  6
CONTINUOUS
 62
     1
 10
115.014994947612
 20
63.7303498329156
 30
0.0
 11
115.014994947612
 21
63.9053498299354
 31
0.0
  0
LINE
  5
   3EC
  8
0
  6
CONTINUOUS
 62
     1
 10
114.734994952381
 20
63.7303498329156
 30
0.0
 11
114.734994952381
 21
63.9053498299354
 31
0.0
  0
LINE
  5
   3ED
  8
0
  6
CONTINUOUS
 62
     1
 10
116.834994916618
 20
62.8203498484128
 30
0.0
 11
116.834994916618
 21
64.8153498144382
 31
0.0
  0
LINE
  5
   3EE
  8
0
  6
CONTINUOUS
 62
     1
 10
117.11499491185
 20
62.8203498484128
 30
0.0
 11
117.11499491185
 21
64.0453498275512
 31
0.0
  0
LINE
  5
   3EF
  8
0
  6
CONTINUOUS
 62
     1
 10
118.09499489516
 20
62.8203498484128
 30
0.0
 11
118.09499489516
 21
64.0453498275512
 31
0.0
  0
LINE
  5
   3F0
  8
0
  6
CONTINUOUS
 62
     1
 10
118.374994890392
 20
62.8203498484128
 30
0.0
 11
118.374994890392
 21
64.1153498263591
 31
0.0
  0
LINE
  5
   3F1
  8
0
  6
CONTINUOUS
 62
     1
 10
117.11499491185
 20
64.8153498144382
 30
0.0
 11
116.834994916618
 21
64.8153498144382
 31
0.0
  0
ARC
  5
   3F2
  8
0
  6
CONTINUOUS
 62
     1
 10
117.604994903505
 20
64.0453498275512
 30
0.0
 40
0.489999991655349
 50
359.999999948034
 51
539.999999948034
  0
LINE
  5
   3F3
  8
0
  6
CONTINUOUS
 62
     1
 10
117.11499491185
 20
64.5353498192066
 30
0.0
 11
117.11499491185
 21
64.8153498144382
 31
0.0
  0
ARC
  5
   3F4
  8
0
  6
CONTINUOUS
 62
     1
 10
117.674994902313
 20
64.1153498263591
 30
0.0
 40
0.699999988079071
 50
359.999999948034
 51
503.13010230219
  0
LINE
  5
   3F5
  8
0
  6
CONTINUOUS
 62
     1
 10
118.374994890392
 20
62.8203498484128
 30
0.0
 11
118.09499489516
 21
62.8203498484128
 31
0.0
  0
LINE
  5
   3F6
  8
0
  6
CONTINUOUS
 62
     7
 10
112.407494992018
 20
50.6132048749909
 30
0.0
 11
97.7074952423573
 21
50.6132048749909
 31
0.0
  0
LINE
  5
   3F7
  8
0
  6
CONTINUOUS
 62
     7
 10
112.407494992018
 20
53.4903825731226
 30
0.0
 11
97.7074952423573
 21
53.4903825731226
 31
0.0
  0
LINE
  5
   3F8
  8
0
  6
CONTINUOUS
 62
     7
 10
112.407494992018
 20
47.5897470456433
 30
0.0
 11
97.7074952423573
 21
47.5897470456433
 31
0.0
  0
LINE
  5
   3F9
  8
0
  6
CONTINUOUS
 62
     7
 10
112.407494992018
 20
44.2426642307424
 30
0.0
 11
97.7074952423573
 21
44.2426642307424
 31
0.0
  0
LINE
  5
   3FA
  8
0
  6
CONTINUOUS
 62
     7
 10
112.407494992018
 20
53.4903825731226
 30
0.0
 11
112.407494992018
 21
65.9959610614223
 31
0.0
  0
LINE
  5
   3FB
  8
0
  6
CONTINUOUS
 62
     7
 10
97.7074952423573
 20
53.4903825731226
 30
0.0
 11
97.7074952423573
 21
65.9959610614223
 31
0.0
  0
LINE
  5
   3FC
  8
0
  6
CONTINUOUS
 62
     1
 10
97.7074952423573
 20
46.317851798379
 30
0.0
 11
80.9075062096119
 21
46.317851798379
 31
0.0
  0
LINE
  5
   3FD
  8
0
  6
DASHDOT
 62
     7
 10
129.557494699955
 20
94.6183937939949
 30
0.0
 11
129.557494699955
 21
106.203832588773
 31
0.0
  0
LINE
  5
   3FE
  8
0
  6
DASHDOT
 62
     7
 10
80.55749553442
 20
95.3424837186686
 30
0.0
 11
80.55749553442
 21
107.531330784009
 31
0.0
  0
LINE
  5
   3FF
  8
0
  6
CONTINUOUS
 62
     1
 10
78.4574955701828
 20
79.5678388820523
 30
0.0
 11
68.4825035304273
 21
79.5678388820523
 31
0.0
  0
LINE
  5
   400
  8
0
  6
CONTINUOUS
 62
   218
 10
80.9075008690357
 20
66.9678497777813
 30
0.0
 11
80.5575008749961
 21
66.9678497777813
 31
0.0
  0
LINE
  5
   401
  8
0
  6
CONTINUOUS
 62
     1
 10
129.207494705915
 20
67.3178497718209
 30
0.0
 11
80.9075008690357
 21
67.3178497718209
 31
0.0
  0
LINE
  5
   402
  8
0
  6
CONTINUOUS
 62
     1
 10
129.207494705915
 20
66.9678497777813
 30
0.0
 11
80.9075008690357
 21
66.9678497777813
 31
0.0
  0
LINE
  5
   403
  8
0
  6
CONTINUOUS
 62
     1
 10
129.207494705915
 20
60.6678498850697
 30
0.0
 11
112.407489651442
 21
60.6678498850697
 31
0.0
  0
LINE
  5
   404
  8
0
  6
CONTINUOUS
 62
     1
 10
129.207494705915
 20
60.3178498910302
 30
0.0
 11
112.407489651442
 21
60.3178498910302
 31
0.0
  0
LINE
  5
   405
  8
0
  6
CONTINUOUS
 62
     1
 10
129.207500046492
 20
52.9678500161999
 30
0.0
 11
112.407489651442
 21
52.9678500161999
 31
0.0
  0
LINE
  5
   406
  8
0
  6
CONTINUOUS
 62
     1
 10
129.207500046492
 20
52.6178500221604
 30
0.0
 11
112.407489651442
 21
52.6178500221604
 31
0.0
  0
LINE
  5
   407
  8
0
  6
CONTINUOUS
 62
     1
 10
129.207500046492
 20
46.317851798379
 30
0.0
 11
112.407494992018
 21
46.317851798379
 31
0.0
  0
LINE
  5
   408
  8
0
  6
CONTINUOUS
 62
   218
 10
80.9075062096119
 20
46.317851798379
 30
0.0
 11
80.5575008749961
 21
46.317851798379
 31
0.0
  0
LINE
  5
   409
  8
0
  6
CONTINUOUS
 62
   218
 10
80.9075008690357
 20
52.6178500221604
 30
0.0
 11
80.5575008749961
 21
52.6178500221604
 31
0.0
  0
LINE
  5
   40A
  8
0
  6
CONTINUOUS
 62
   218
 10
80.9075008690357
 20
60.6678498850697
 30
0.0
 11
80.5575008749961
 21
60.6678498850697
 31
0.0
  0
LINE
  5
   40B
  8
0
  6
CONTINUOUS
 62
   218
 10
80.9075008690357
 20
60.3178498910302
 30
0.0
 11
80.5575008749961
 21
60.3178498910302
 31
0.0
  0
LINE
  5
   40C
  8
0
  6
CONTINUOUS
 62
     1
 10
80.9075008690357
 20
67.3178497718209
 30
0.0
 11
80.5937420242813
 21
67.3178497718209
 31
0.0
  0
LINE
  5
   40D
  8
0
  6
CONTINUOUS
 62
     7
 10
80.9075062096119
 20
45.9678500176481
 30
0.0
 11
80.5575062155725
 21
45.9678500176481
 31
0.0
  0
LINE
  5
   40E
  8
0
  6
CONTINUOUS
 62
     7
 10
129.557494699955
 20
45.9678499657979
 30
0.0
 11
129.207500046492
 21
45.9678538070553
 31
0.0
  0
LINE
  5
   40F
  8
0
  6
CONTINUOUS
 62
     1
 10
129.207500046492
 20
45.9678538070553
 30
0.0
 11
112.407494992018
 21
45.9678538070553
 31
0.0
  0
LINE
  5
   410
  8
0
  6
CONTINUOUS
 62
     1
 10
97.7074952423573
 20
45.9678500176481
 30
0.0
 11
80.9075062096119
 21
45.9678500176481
 31
0.0
  0
LINE
  5
   411
  8
0
  6
CONTINUOUS
 62
     1
 10
117.307412009485
 20
144.317877893276
 30
0.0
 11
117.307412009485
 21
151.492877771087
 31
0.0
  0
LINE
  5
   412
  8
0
  6
DASHDOT
 62
     7
 10
120.89491194839
 20
147.905377832181
 30
0.0
 11
113.71991207058
 21
147.905377832181
 31
0.0
  0
LINE
  5
   413
  8
0
  6
DASHDOT
 62
     7
 10
92.8075782248901
 20
144.317877893276
 30
0.0
 11
92.8075782248901
 21
151.492877771087
 31
0.0
  0
LINE
  5
   414
  8
0
  6
DASHDOT
 62
     7
 10
96.3950781637953
 20
147.905377832181
 30
0.0
 11
89.2200782859849
 21
147.905377832181
 31
0.0
  0
LINE
  5
   415
  8
0
  6
DASHDOT
 62
     7
 10
156.23072333035
 20
61.192839194977
 30
0.0
 11
65.0258083423486
 21
61.192839194977
 31
0.0
  0
LINE
  5
   416
  8
0
  6
DASHDOT
 62
     7
 10
51.6024448539982
 20
61.192839194977
 30
0.0
 11
48.9860265469469
 21
61.192839194977
 31
0.0
  0
INSERT
  5
   417
  8
255
  6
CONTINUOUS
 62
     7
  2
MOSTRINA
 10
58.7391060134069
 20
22.6996217146789
 30
0.0
 41
0.349999994039536
 42
0.349999994039536
 50
359.999999792138
 43
0.349999994039536
  0
LINE
  5
   418
  8
0
  6
CONTINUOUS
 62
     1
 10
78.4574955701828
 20
35.2053449572556
 30
0.0
 11
68.3075035334076
 21
35.2053449572556
 31
0.0
  0
LINE
  5
   419
  8
0
  6
CONTINUOUS
 62
     1
 10
78.4574955701828
 20
34.8553449840777
 30
0.0
 11
68.7450035050954
 21
34.8553449840777
 31
0.0
  0
LINE
  5
   41A
  8
0
  6
CONTINUOUS
 62
     3
 10
92.0199793893876
 20
153.330348476765
 30
0.0
 11
69.5325000878956
 21
153.330348476765
 31
0.0
  0
ARC
  5
   41B
  8
0
  6
CONTINUOUS
 62
     3
 10
69.532515956445
 20
152.980341375294
 30
0.0
 40
0.349996002028132
 50
90.0005173512766
 51
180.001122723422
  0
LINE
  5
   41C
  8
0
  6
CONTINUOUS
 62
     3
 10
69.1825170904394
 20
152.280343154073
 30
0.0
 11
69.1825170904394
 21
152.980343142152
 31
0.0
  0
LINE
  5
   41D
  8
0
  6
CONTINUOUS
 62
     3
 10
69.1825170904394
 20
152.280343154073
 30
0.0
 11
68.3075035334076
 21
152.280343154073
 31
0.0
  0
LINE
  5
   41E
  8
0
  6
CONTINUOUS
 62
     3
 10
92.0199793893876
 20
152.455354001975
 30
0.0
 11
92.0199793893876
 21
153.330353987074
 31
0.0
  0
LINE
  5
   41F
  8
0
  6
CONTINUOUS
 62
     3
 10
92.0199793893876
 20
152.455354001969
 30
0.0
 11
91.5824793968382
 21
152.455354001969
 31
0.0
  0
LINE
  5
   420
  8
0
  6
CONTINUOUS
 62
     3
 10
91.5824793968382
 20
150.880354028791
 30
0.0
 11
91.5824793968382
 21
152.455354001969
 31
0.0
  0
LINE
  5
   421
  8
0
  6
CONTINUOUS
 62
     3
 10
94.0324793551149
 20
150.880354028791
 30
0.0
 11
91.5824793968382
 21
150.880354028791
 31
0.0
  0
LINE
  5
   422
  8
0
  6
CONTINUOUS
 62
     3
 10
94.0324793551149
 20
150.880354028791
 30
0.0
 11
94.0324793551149
 21
152.455354001969
 31
0.0
  0
LINE
  5
   423
  8
0
  6
CONTINUOUS
 62
     3
 10
94.0324793551149
 20
152.455354001969
 30
0.0
 11
93.5949793625655
 21
152.455354001969
 31
0.0
  0
LINE
  5
   424
  8
0
  6
CONTINUOUS
 62
     3
 10
93.5949793625655
 20
152.455354001969
 30
0.0
 11
93.5949793625655
 21
153.330353987068
 31
0.0
  0
LINE
  5
   425
  8
0
  6
CONTINUOUS
 62
     3
 10
116.519984312731
 20
153.330343136189
 30
0.0
 11
93.5949793625655
 21
153.330343136189
 31
0.0
  0
LINE
  5
   426
  8
0
  6
CONTINUOUS
 62
     3
 10
116.519984312731
 20
152.455354001969
 30
0.0
 11
116.519984312731
 21
153.330353987068
 31
0.0
  0
LINE
  5
   427
  8
0
  6
CONTINUOUS
 62
     3
 10
116.519984312731
 20
152.455354001969
 30
0.0
 11
116.082484320182
 21
152.455354001969
 31
0.0
  0
LINE
  5
   428
  8
0
  6
CONTINUOUS
 62
     3
 10
116.082484320182
 20
150.880354028791
 30
0.0
 11
116.082484320182
 21
152.455354001969
 31
0.0
  0
LINE
  5
   429
  8
0
  6
CONTINUOUS
 62
     3
 10
118.532484278458
 20
150.880354028791
 30
0.0
 11
116.082484320182
 21
150.880354028791
 31
0.0
  0
LINE
  5
   42A
  8
0
  6
CONTINUOUS
 62
     3
 10
118.532484278458
 20
150.880354028791
 30
0.0
 11
118.532484278458
 21
152.455354001969
 31
0.0
  0
LINE
  5
   42B
  8
0
  6
CONTINUOUS
 62
     3
 10
118.532484278458
 20
152.455354001969
 30
0.0
 11
118.094984285909
 21
152.455354001969
 31
0.0
  0
LINE
  5
   42C
  8
0
  6
CONTINUOUS
 62
     3
 10
118.094984285909
 20
152.455354001975
 30
0.0
 11
118.094984285909
 21
153.330353987074
 31
0.0
  0
LINE
  5
   42D
  8
0
  6
CONTINUOUS
 62
     3
 10
140.582490146479
 20
153.330348476765
 30
0.0
 11
118.094984285909
 21
153.330348476765
 31
0.0
  0
ARC
  5
   42E
  8
0
  6
CONTINUOUS
 62
     3
 10
140.582475897661
 20
152.980335147457
 30
0.0
 40
0.349999722807106
 50
360.000054589548
 51
449.999945306521
  0
LINE
  5
   42F
  8
0
  6
CONTINUOUS
 62
     7
 10
140.932486495376
 20
144.755343282228
 30
0.0
 11
140.932486495376
 21
152.980335147457
 31
0.0
  0
LINE
  5
   430
  8
0
  6
CONTINUOUS
 62
     3
 10
141.80750228171
 20
152.280343154073
 30
0.0
 11
140.932473143936
 21
152.280343154073
 31
0.0
  0
LINE
  5
   431
  8
0
  6
CONTINUOUS
 62
     1
 10
140.932486495376
 20
144.755343282228
 30
0.0
 11
140.932486495376
 21
152.980335147457
 31
0.0
  0
LINE
  5
   432
  8
0
  6
CONTINUOUS
 62
     7
 10
140.93249183595
 20
144.930351978118
 30
0.0
 11
69.1825170904394
 21
144.930351978118
 31
0.0
  0
LINE
  5
   433
  8
0
  6
CONTINUOUS
 62
     7
 10
140.93249183595
 20
144.930351978118
 30
0.0
 11
69.1825170904394
 21
144.930351978118
 31
0.0
  0
LINE
  5
   434
  8
0
  6
CONTINUOUS
 62
     1
 10
141.80750228171
 20
144.755343112492
 30
0.0
 11
68.3950035319174
 21
144.755343112492
 31
0.0
  0
LINE
  5
   435
  8
0
  6
CONTINUOUS
 62
     1
 10
141.80750228171
 20
96.5603494435528
 30
0.0
 11
68.3075035334076
 21
96.5603494435528
 31
0.0
  0
LINE
  5
   436
  8
0
  6
CONTINUOUS
 62
     1
 10
141.80750228171
 20
96.9103494375923
 30
0.0
 11
68.3075035334076
 21
96.9103494375923
 31
0.0
  0
LINE
  5
   437
  8
0
  6
CONTINUOUS
 62
     3
 10
68.745003525957
 20
96.5603494435528
 30
0.0
 11
68.745003525957
 21
96.9103494375923
 31
0.0
  0
LINE
  5
   438
  8
0
  6
CONTINUOUS
 62
     3
 10
141.370002289161
 20
96.5603494435528
 30
0.0
 11
141.370002289161
 21
96.9103494375923
 31
0.0
  0
LINE
  5
   439
  8
0
  6
CONTINUOUS
 62
     1
 10
141.807486700967
 20
19.7003399015921
 30
0.0
 11
68.3075035334076
 21
19.7003399015921
 31
0.0
  0
LINE
  5
   43A
  8
0
  6
CONTINUOUS
 62
     1
 10
78.4574955701828
 20
34.7853449852698
 30
0.0
 11
68.3075035334076
 21
34.7853449852698
 31
0.0
  0
LINE
  5
   43B
  8
0
  6
CONTINUOUS
 62
     1
 10
141.7200022832
 20
34.7853449852698
 30
0.0
 11
131.657494664192
 21
34.7853449852698
 31
0.0
  0
LINE
  5
   43C
  8
0
  6
CONTINUOUS
 62
     1
 10
141.054999090179
 20
19.7003399015921
 30
0.0
 11
141.054999090179
 21
34.7853449852698
 31
0.0
  0
LINE
  5
   43D
  8
0
  6
CONTINUOUS
 62
     1
 10
140.249998035773
 20
19.7003399015921
 30
0.0
 11
140.249998035773
 21
34.7853449852698
 31
0.0
  0
LINE
  5
   43E
  8
0
  6
CONTINUOUS
 62
     1
 10
138.990001261577
 20
19.7003399015921
 30
0.0
 11
138.990001261577
 21
34.7853449852698
 31
0.0
  0
LINE
  5
   43F
  8
0
  6
CONTINUOUS
 62
     1
 10
137.729999146804
 20
19.7003399015921
 30
0.0
 11
137.729999146804
 21
34.7853449852698
 31
0.0
  0
LINE
  5
   440
  8
0
  6
CONTINUOUS
 62
     1
 10
136.469997032031
 20
19.7003399015921
 30
0.0
 11
136.469997032031
 21
34.7853449852698
 31
0.0
  0
LINE
  5
   441
  8
0
  6
CONTINUOUS
 62
     1
 10
135.210000257834
 20
19.7003399015921
 30
0.0
 11
135.210000257834
 21
34.7853449852698
 31
0.0
  0
LINE
  5
   442
  8
0
  6
CONTINUOUS
 62
     1
 10
133.949998143062
 20
19.7003399015921
 30
0.0
 11
133.949998143062
 21
34.7853449852698
 31
0.0
  0
LINE
  5
   443
  8
0
  6
CONTINUOUS
 62
     1
 10
132.690001368865
 20
19.7003399015921
 30
0.0
 11
132.690001368865
 21
34.7853449852698
 31
0.0
  0
LINE
  5
   444
  8
0
  6
CONTINUOUS
 62
     1
 10
131.429999254092
 20
19.7003399015921
 30
0.0
 11
131.429999254092
 21
33.0715378872543
 31
0.0
  0
LINE
  5
   445
  8
0
  6
CONTINUOUS
 62
     1
 10
130.344997136339
 20
19.7003399015921
 30
0.0
 11
130.344997136339
 21
33.0178403423665
 31
0.0
  0
LINE
  5
   446
  8
0
  6
CONTINUOUS
 62
     1
 10
129.540001422509
 20
19.7003399015921
 30
0.0
 11
129.540001422509
 21
33.0178403423665
 31
0.0
  0
LINE
  5
   447
  8
0
  6
CONTINUOUS
 62
     1
 10
77.4249991056766
 20
19.7003399015921
 30
0.0
 11
77.4249991056766
 21
34.7853449852698
 31
0.0
  0
LINE
  5
   448
  8
0
  6
CONTINUOUS
 62
     1
 10
76.1650023314799
 20
19.7003399015921
 30
0.0
 11
76.1650023314799
 21
34.7853449852698
 31
0.0
  0
LINE
  5
   449
  8
0
  6
CONTINUOUS
 62
     1
 10
74.9050002167072
 20
19.7003399015921
 30
0.0
 11
74.9050002167072
 21
34.7853449852698
 31
0.0
  0
LINE
  5
   44A
  8
0
  6
CONTINUOUS
 62
     1
 10
73.6450034425105
 20
19.7003399015921
 30
0.0
 11
73.6450034425105
 21
34.7853449852698
 31
0.0
  0
LINE
  5
   44B
  8
0
  6
CONTINUOUS
 62
     1
 10
72.3850033304538
 20
19.7003399015921
 30
0.0
 11
72.3850033304538
 21
34.7853449852698
 31
0.0
  0
LINE
  5
   44C
  8
0
  6
CONTINUOUS
 62
     1
 10
71.125003218397
 20
19.7003399015921
 30
0.0
 11
71.125003218397
 21
34.7853449852698
 31
0.0
  0
LINE
  5
   44D
  8
0
  6
CONTINUOUS
 62
     1
 10
69.8650034401263
 20
19.7003399015921
 30
0.0
 11
69.8650034401263
 21
34.7853449852698
 31
0.0
  0
LINE
  5
   44E
  8
0
  6
CONTINUOUS
 62
     1
 10
69.0600033870782
 20
19.7003399015921
 30
0.0
 11
69.0600033870782
 21
34.7853449852698
 31
0.0
  0
LINE
  5
   44F
  8
0
  6
CONTINUOUS
 62
     1
 10
78.6850012204494
 20
19.7003399015921
 30
0.0
 11
78.6850012204494
 21
33.071532284336
 31
0.0
  0
LINE
  5
   450
  8
0
  6
CONTINUOUS
 62
     1
 10
79.9450033352221
 20
19.7003399015921
 30
0.0
 11
79.9450033352221
 21
33.0178403423665
 31
0.0
  0
LINE
  5
   451
  8
0
  6
CONTINUOUS
 62
     1
 10
80.5749990520324
 20
19.7003399015921
 30
0.0
 11
80.5749990520324
 21
33.0178403423665
 31
0.0
  0
LINE
  5
   452
  8
0
  6
CONTINUOUS
 62
     1
 10
141.054999090179
 20
96.9103494375923
 30
0.0
 11
141.054999090179
 21
144.755343112492
 31
0.0
  0
LINE
  5
   453
  8
0
  6
CONTINUOUS
 62
     1
 10
140.249998035773
 20
96.9103494375923
 30
0.0
 11
140.249998035773
 21
144.755343112492
 31
0.0
  0
LINE
  5
   454
  8
0
  6
CONTINUOUS
 62
     1
 10
138.990001261577
 20
96.9103494375923
 30
0.0
 11
138.990001261577
 21
144.755343112492
 31
0.0
  0
LINE
  5
   455
  8
0
  6
CONTINUOUS
 62
     1
 10
137.729999146804
 20
96.9103494375923
 30
0.0
 11
137.729999146804
 21
144.755343112492
 31
0.0
  0
LINE
  5
   456
  8
0
  6
CONTINUOUS
 62
     1
 10
135.210000257834
 20
96.9103494375923
 30
0.0
 11
135.210000257834
 21
144.755343112492
 31
0.0
  0
LINE
  5
   457
  8
0
  6
CONTINUOUS
 62
     1
 10
133.949998143062
 20
96.9103494375923
 30
0.0
 11
133.949998143062
 21
144.755343112492
 31
0.0
  0
LINE
  5
   458
  8
0
  6
CONTINUOUS
 62
     1
 10
132.690001368865
 20
96.9103494375923
 30
0.0
 11
132.690001368865
 21
144.755343112492
 31
0.0
  0
LINE
  5
   459
  8
0
  6
CONTINUOUS
 62
     1
 10
131.429999254092
 20
96.9103494375923
 30
0.0
 11
131.429999254092
 21
144.755343112492
 31
0.0
  0
LINE
  5
   45A
  8
0
  6
CONTINUOUS
 62
     1
 10
130.344997136339
 20
96.9103494375923
 30
0.0
 11
130.344997136339
 21
144.755343112492
 31
0.0
  0
LINE
  5
   45B
  8
0
  6
CONTINUOUS
 62
     1
 10
69.0600033870782
 20
96.9103494375923
 30
0.0
 11
69.0600033870782
 21
144.755343112492
 31
0.0
  0
LINE
  5
   45C
  8
0
  6
CONTINUOUS
 62
     1
 10
69.8650034401263
 20
96.9103494375923
 30
0.0
 11
69.8650034401263
 21
144.755343112492
 31
0.0
  0
LINE
  5
   45D
  8
0
  6
CONTINUOUS
 62
     1
 10
71.125003218397
 20
96.9103494375923
 30
0.0
 11
71.125003218397
 21
144.755343112492
 31
0.0
  0
LINE
  5
   45E
  8
0
  6
CONTINUOUS
 62
     1
 10
72.3850033304538
 20
96.9103494375923
 30
0.0
 11
72.3850033304538
 21
144.755343112492
 31
0.0
  0
LINE
  5
   45F
  8
0
  6
CONTINUOUS
 62
     1
 10
73.6450034425105
 20
96.9103494375923
 30
0.0
 11
73.6450034425105
 21
144.755343112492
 31
0.0
  0
LINE
  5
   460
  8
0
  6
CONTINUOUS
 62
     1
 10
74.9050002167072
 20
96.9103494375923
 30
0.0
 11
74.9050002167072
 21
144.755343112492
 31
0.0
  0
LINE
  5
   461
  8
0
  6
CONTINUOUS
 62
     1
 10
76.1650023314799
 20
96.9103494375923
 30
0.0
 11
76.1650023314799
 21
144.755343112492
 31
0.0
  0
LINE
  5
   462
  8
0
  6
CONTINUOUS
 62
     1
 10
77.4249991056766
 20
96.9103494375923
 30
0.0
 11
77.4249991056766
 21
144.755343112492
 31
0.0
  0
LINE
  5
   463
  8
0
  6
CONTINUOUS
 62
     1
 10
78.6850012204494
 20
96.9103494375923
 30
0.0
 11
78.6850012204494
 21
144.755343112492
 31
0.0
  0
LINE
  5
   464
  8
0
  6
CONTINUOUS
 62
     1
 10
79.9450033352221
 20
96.9103494375923
 30
0.0
 11
79.9450033352221
 21
144.755343112492
 31
0.0
  0
ARC
  5
   465
  8
0
  6
CONTINUOUS
 62
     1
 10
76.5326863892117
 20
148.605403980212
 30
0.0
 40
2.86999995112419
 50
449.679006550204
 51
629.999999948034
  0
ARC
  5
   466
  8
0
  6
CONTINUOUS
 62
     1
 10
80.5575008749961
 20
148.605403980212
 30
0.0
 40
3.56999993920326
 50
413.505022838263
 51
486.494981956033
  0
LINE
  5
   467
  8
0
  6
CONTINUOUS
 62
     1
 10
78.4342349063489
 20
151.475358891407
 30
0.0
 11
76.5487651689183
 21
151.475358891407
 31
0.0
  0
LINE
  5
   468
  8
0
  6
CONTINUOUS
 62
     1
 10
84.5827188016405
 20
151.475359072926
 30
0.0
 11
82.6807665982903
 21
151.475359072926
 31
0.0
  0
LINE
  5
   469
  8
0
  6
CONTINUOUS
 62
     1
 10
84.5666724544679
 20
145.735404029087
 30
0.0
 11
82.6807059631726
 21
145.735404029087
 31
0.0
  0
LINE
  5
   46A
  8
0
  6
CONTINUOUS
 62
     1
 10
78.4343566699916
 20
145.735358989159
 30
0.0
 11
76.5326863892117
 21
145.735358989159
 31
0.0
  0
ARC
  5
   46B
  8
0
  6
CONTINUOUS
 62
     1
 10
80.5575008749961
 20
148.605403980212
 30
0.0
 40
3.56999993920326
 50
233.507448791235
 51
306.493766547859
  0
ARC
  5
   46C
  8
0
  6
CONTINUOUS
 62
     1
 10
84.5827188016405
 20
148.605359121801
 30
0.0
 40
2.86999995112419
 50
269.679654033286
 51
449.999999948034
  0
ARC
  5
   46D
  8
0
  6
CONTINUOUS
 62
     1
 10
109.082718384408
 20
148.605359121801
 30
0.0
 40
2.86999995112419
 50
269.679654033286
 51
449.999999948034
  0
LINE
  5
   46E
  8
0
  6
CONTINUOUS
 62
     1
 10
109.082718384408
 20
151.475359072926
 30
0.0
 11
107.180766181058
 21
151.475359072926
 31
0.0
  0
LINE
  5
   46F
  8
0
  6
CONTINUOUS
 62
     1
 10
109.066672037235
 20
145.735404029087
 30
0.0
 11
107.18070554594
 21
145.735404029087
 31
0.0
  0
ARC
  5
   470
  8
0
  6
CONTINUOUS
 62
     1
 10
105.057500457764
 20
148.605403980212
 30
0.0
 40
3.56999993920326
 50
233.507448791235
 51
306.493766547859
  0
ARC
  5
   471
  8
0
  6
CONTINUOUS
 62
     1
 10
105.057500457764
 20
148.605403980212
 30
0.0
 40
3.56999993920326
 50
413.505022838263
 51
486.494981956033
  0
LINE
  5
   472
  8
0
  6
CONTINUOUS
 62
     1
 10
102.934234489116
 20
151.475358891407
 30
0.0
 11
101.048764751686
 21
151.475358891407
 31
0.0
  0
ARC
  5
   473
  8
0
  6
CONTINUOUS
 62
     1
 10
101.032685971979
 20
148.605403980212
 30
0.0
 40
2.86999995112419
 50
449.679006550204
 51
629.999999948034
  0
LINE
  5
   474
  8
0
  6
CONTINUOUS
 62
     1
 10
102.934356252759
 20
145.735358989159
 30
0.0
 11
101.032685971979
 21
145.735358989159
 31
0.0
  0
ARC
  5
   475
  8
0
  6
CONTINUOUS
 62
     1
 10
133.582717967175
 20
148.605359121801
 30
0.0
 40
2.86999995112419
 50
269.679654033286
 51
449.999999948034
  0
LINE
  5
   476
  8
0
  6
CONTINUOUS
 62
     1
 10
133.582717967175
 20
151.475359072926
 30
0.0
 11
131.680765763825
 21
151.475359072926
 31
0.0
  0
LINE
  5
   477
  8
0
  6
CONTINUOUS
 62
     1
 10
133.566671620003
 20
145.735404029087
 30
0.0
 11
131.680705128708
 21
145.735404029087
 31
0.0
  0
ARC
  5
   478
  8
0
  6
CONTINUOUS
 62
     1
 10
129.557500040531
 20
148.605403980212
 30
0.0
 40
3.56999993920326
 50
233.507448791235
 51
306.493766547859
  0
ARC
  5
   479
  8
0
  6
CONTINUOUS
 62
     1
 10
129.557500040531
 20
148.605403980212
 30
0.0
 40
3.56999993920326
 50
413.505022838263
 51
486.494981956033
  0
LINE
  5
   47A
  8
0
  6
CONTINUOUS
 62
     1
 10
127.434234071884
 20
151.475358891407
 30
0.0
 11
125.548764334453
 21
151.475358891407
 31
0.0
  0
LINE
  5
   47B
  8
0
  6
CONTINUOUS
 62
     1
 10
127.434355835527
 20
145.735358989159
 30
0.0
 11
125.532685554747
 21
145.735358989159
 31
0.0
  0
ARC
  5
   47C
  8
0
  6
CONTINUOUS
 62
     1
 10
125.532685554747
 20
148.605403980212
 30
0.0
 40
2.86999995112419
 50
449.679006550204
 51
629.999999948034
  0
ARC
  5
   47D
  8
0
  6
CONTINUOUS
 62
     1
 10
92.4575782308506
 20
147.905377832181
 30
0.0
 40
1.04999998211861
 50
89.9999999480344
 51
269.999999948034
  0
ARC
  5
   47E
  8
0
  6
CONTINUOUS
 62
     1
 10
93.1575782189296
 20
147.905377832181
 30
0.0
 40
1.04999998211861
 50
269.999999948034
 51
449.999999948034
  0
LINE
  5
   47F
  8
0
  6
CONTINUOUS
 62
     1
 10
93.1575782189296
 20
148.9553778143
 30
0.0
 11
92.4575782308506
 21
148.9553778143
 31
0.0
  0
LINE
  5
   480
  8
0
  6
CONTINUOUS
 62
     1
 10
93.1575782189296
 20
146.855377850063
 30
0.0
 11
92.4575782308506
 21
146.855377850063
 31
0.0
  0
ARC
  5
   481
  8
0
  6
CONTINUOUS
 62
     1
 10
117.657577801697
 20
147.905377832181
 30
0.0
 40
1.04999998211861
 50
269.999999948034
 51
449.999999948034
  0
LINE
  5
   482
  8
0
  6
CONTINUOUS
 62
     1
 10
117.657577801697
 20
148.9553778143
 30
0.0
 11
116.957577813618
 21
148.9553778143
 31
0.0
  0
LINE
  5
   483
  8
0
  6
CONTINUOUS
 62
     1
 10
117.657577801697
 20
146.855377850063
 30
0.0
 11
116.957577813618
 21
146.855377850063
 31
0.0
  0
ARC
  5
   484
  8
0
  6
CONTINUOUS
 62
     1
 10
116.957577813618
 20
147.905377832181
 30
0.0
 40
1.04999998211861
 50
89.9999999480344
 51
269.999999948034
  0
CIRCLE
  5
   485
  8
0
  6
CONTINUOUS
 62
     1
 10
70.5824957042933
 20
151.930348500607
 30
0.0
 40
0.769999986886978
  0
CIRCLE
  5
   486
  8
0
  6
CONTINUOUS
 62
     1
 10
90.357495367527
 20
151.930348500607
 30
0.0
 40
0.769999986886978
  0
CIRCLE
  5
   487
  8
0
  6
CONTINUOUS
 62
     1
 10
119.757494866848
 20
151.930348500607
 30
0.0
 40
0.769999986886978
  0
CIRCLE
  5
   488
  8
0
  6
CONTINUOUS
 62
     1
 10
139.532494530082
 20
151.930348500607
 30
0.0
 40
0.769999986886978
  0
LINE
  5
   489
  8
0
  6
CONTINUOUS
 62
     3
 10
68.3075035334076
 20
12.2103451026933
 30
0.0
 11
68.3075035334076
 21
34.7853449852698
 31
0.0
  0
LINE
  5
   48A
  8
0
  6
CONTINUOUS
 62
     3
 10
68.3075035334076
 20
96.9103494375923
 30
0.0
 11
68.3075035334076
 21
152.280343154073
 31
0.0
  0
LINE
  5
   48B
  8
0
  6
CONTINUOUS
 62
     3
 10
68.3075035334076
 20
35.2053449572556
 30
0.0
 11
68.3075035334076
 21
96.5603494435528
 31
0.0
  0
LINE
  5
   48C
  8
0
  6
CONTINUOUS
 62
     3
 10
68.745003525957
 20
96.9103494375923
 30
0.0
 11
68.3075035334076
 21
96.9103494375923
 31
0.0
  0
LINE
  5
   48D
  8
0
  6
CONTINUOUS
 62
     3
 10
68.745003525957
 20
96.5603494435528
 30
0.0
 11
68.3075035334076
 21
96.5603494435528
 31
0.0
  0
LINE
  5
   48E
  8
0
  6
CONTINUOUS
 62
     3
 10
68.7450035050954
 20
35.2053449572556
 30
0.0
 11
68.3075035334076
 21
35.2053449572556
 31
0.0
  0
LINE
  5
   48F
  8
0
  6
CONTINUOUS
 62
     3
 10
68.7450035050954
 20
34.7853449852698
 30
0.0
 11
68.3075035334076
 21
34.7853449852698
 31
0.0
  0
LINE
  5
   490
  8
0
  6
CONTINUOUS
 62
     3
 10
141.80750228171
 20
19.7003399015921
 30
0.0
 11
141.80750228171
 21
34.8553449840777
 31
0.0
  0
LINE
  5
   491
  8
0
  6
CONTINUOUS
 62
     3
 10
141.80750228171
 20
35.2053449572556
 30
0.0
 11
141.80750228171
 21
96.5603494435528
 31
0.0
  0
LINE
  5
   492
  8
0
  6
CONTINUOUS
 62
     3
 10
141.80750228171
 20
96.9103494375923
 30
0.0
 11
141.80750228171
 21
152.280343154073
 31
0.0
  0
LINE
  5
   493
  8
0
  6
CONTINUOUS
 62
     3
 10
141.80750228171
 20
96.9103494375923
 30
0.0
 11
141.370002289161
 21
96.9103494375923
 31
0.0
  0
LINE
  5
   494
  8
0
  6
CONTINUOUS
 62
     3
 10
141.80750228171
 20
96.5603494435528
 30
0.0
 11
141.370002289161
 21
96.5603494435528
 31
0.0
  0
LINE
  5
   495
  8
0
  6
CONTINUOUS
 62
     3
 10
141.80750228171
 20
35.2053449572556
 30
0.0
 11
141.370002289161
 21
35.2053449572556
 31
0.0
  0
LINE
  5
   496
  8
0
  6
CONTINUOUS
 62
     3
 10
141.80750228171
 20
34.8553449840777
 30
0.0
 11
141.370002289161
 21
34.8553449840777
 31
0.0
  0
LINE
  5
   497
  8
0
  6
CONTINUOUS
 62
     3
 10
141.370002289161
 20
34.8553449840777
 30
0.0
 11
141.370002289161
 21
35.2053449572556
 31
0.0
  0
LINE
  5
   498
  8
0
  6
CONTINUOUS
 62
     1
 10
141.63250228469
 20
42.8178395079011
 30
0.0
 11
131.657494664192
 21
42.8178395079011
 31
0.0
  0
ARC
  5
   499
  8
0
  6
CONTINUOUS
 62
     1
 10
141.63250228469
 20
79.3928388850325
 30
0.0
 40
0.174999997019768
 50
359.999999948034
 51
449.999999948034
  0
ARC
  5
   49A
  8
0
  6
CONTINUOUS
 62
     1
 10
141.63250228469
 20
42.9928395049208
 30
0.0
 40
0.174999997019768
 50
269.999999948034
 51
359.999999948034
  0
ARC
  5
   49B
  8
0
  6
CONTINUOUS
 62
     1
 10
68.4825035304273
 20
42.9928395049209
 30
0.0
 40
0.174999997019768
 50
179.999999948034
 51
269.999999948034
  0
ARC
  5
   49C
  8
0
  6
CONTINUOUS
 62
     1
 10
68.4825035304273
 20
79.3928388850325
 30
0.0
 40
0.174999997019768
 50
89.9999999480344
 51
179.999999948034
  0
LINE
  5
   49D
  8
0
  6
CONTINUOUS
 62
     1
 10
129.032494708896
 20
143.005343312023
 30
0.0
 11
81.0824955254794
 21
143.005343312023
 31
0.0
  0
LINE
  5
   49E
  8
0
  6
CONTINUOUS
 62
     1
 10
129.032494708896
 20
135.655343437193
 30
0.0
 11
81.0824955254794
 21
135.655343437193
 31
0.0
  0
LINE
  5
   49F
  8
0
  6
CONTINUOUS
 62
     1
 10
81.0824955254794
 20
135.655343437193
 30
0.0
 11
81.0824955254794
 21
143.005343312023
 31
0.0
  0
LINE
  5
   4A0
  8
0
  6
CONTINUOUS
 62
     1
 10
129.032494708896
 20
135.655343437193
 30
0.0
 11
129.032494708896
 21
143.005343312023
 31
0.0
  0
LINE
  5
   4A1
  8
0
  6
CONTINUOUS
 62
     3
 10
104.969995118678
 20
98.2053494155386
 30
0.0
 11
104.969995118678
 21
101.180349364875
 31
0.0
  0
LINE
  5
   4A2
  8
0
  6
CONTINUOUS
 62
     3
 10
105.599995107949
 20
98.2053494155386
 30
0.0
 11
105.599995107949
 21
101.180349364875
 31
0.0
  0
LINE
  5
   4A3
  8
0
  6
CONTINUOUS
 62
     3
 10
106.22999509722
 20
98.2053494155386
 30
0.0
 11
106.22999509722
 21
102.405349344013
 31
0.0
  0
LINE
  5
   4A4
  8
0
  6
CONTINUOUS
 62
     3
 10
106.859995086491
 20
98.2053494155386
 30
0.0
 11
106.859995086491
 21
102.405349344013
 31
0.0
  0
LINE
  5
   4A5
  8
0
  6
CONTINUOUS
 62
     3
 10
107.489995075762
 20
98.2053494155386
 30
0.0
 11
107.489995075762
 21
102.405349344013
 31
0.0
  0
LINE
  5
   4A6
  8
0
  6
CONTINUOUS
 62
     3
 10
108.119995065033
 20
98.2053494155386
 30
0.0
 11
108.119995065033
 21
102.405349344013
 31
0.0
  0
LINE
  5
   4A7
  8
0
  6
CONTINUOUS
 62
     3
 10
108.749995054305
 20
98.2053494155386
 30
0.0
 11
108.749995054305
 21
102.405349344013
 31
0.0
  0
LINE
  5
   4A8
  8
0
  6
CONTINUOUS
 62
     3
 10
109.379995043576
 20
98.2053494155386
 30
0.0
 11
109.379995043576
 21
102.405349344013
 31
0.0
  0
LINE
  5
   4A9
  8
0
  6
CONTINUOUS
 62
     3
 10
110.009995032847
 20
98.2053494155386
 30
0.0
 11
110.009995032847
 21
102.405349344013
 31
0.0
  0
LINE
  5
   4AA
  8
0
  6
CONTINUOUS
 62
     3
 10
110.639995022118
 20
98.2053494155386
 30
0.0
 11
110.639995022118
 21
102.405349344013
 31
0.0
  0
LINE
  5
   4AB
  8
0
  6
CONTINUOUS
 62
     1
 10
142.437502270981
 20
96.9103494375923
 30
0.0
 11
68.9375035226787
 21
96.9103494375923
 31
0.0
  0
LINE
  5
   4AC
  8
0
  6
CONTINUOUS
 62
     3
 10
104.339995129406
 20
98.2053494155386
 30
0.0
 11
104.339995129406
 21
101.180349364875
 31
0.0
  0
LINE
  5
   4AD
  8
0
  6
CONTINUOUS
 62
     3
 10
103.709995140135
 20
98.2053494155386
 30
0.0
 11
103.709995140135
 21
101.180349364875
 31
0.0
  0
LINE
  5
   4AE
  8
0
  6
CONTINUOUS
 62
     3
 10
103.079995150864
 20
98.2053494155386
 30
0.0
 11
103.079995150864
 21
102.405349344013
 31
0.0
  0
LINE
  5
   4AF
  8
0
  6
CONTINUOUS
 62
     3
 10
102.449995161593
 20
98.2053494155386
 30
0.0
 11
102.449995161593
 21
102.405349344013
 31
0.0
  0
LINE
  5
   4B0
  8
0
  6
CONTINUOUS
 62
     3
 10
101.819995172322
 20
98.2053494155386
 30
0.0
 11
101.819995172322
 21
102.405349344013
 31
0.0
  0
LINE
  5
   4B1
  8
0
  6
CONTINUOUS
 62
     3
 10
101.189995183051
 20
98.2053494155386
 30
0.0
 11
101.189995183051
 21
102.405349344013
 31
0.0
  0
LINE
  5
   4B2
  8
0
  6
CONTINUOUS
 62
     3
 10
100.559995193779
 20
98.2053494155386
 30
0.0
 11
100.559995193779
 21
102.405349344013
 31
0.0
  0
LINE
  5
   4B3
  8
0
  6
CONTINUOUS
 62
     3
 10
99.9299952045083
 20
98.2053494155386
 30
0.0
 11
99.9299952045083
 21
102.405349344013
 31
0.0
  0
LINE
  5
   4B4
  8
0
  6
CONTINUOUS
 62
     3
 10
99.2999952152372
 20
98.2053494155386
 30
0.0
 11
99.2999952152372
 21
102.405349344013
 31
0.0
  0
LINE
  5
   4B5
  8
0
  6
CONTINUOUS
 62
     3
 10
105.599995107949
 20
98.2053494155386
 30
0.0
 11
104.969995118678
 21
98.2053494155386
 31
0.0
  0
LINE
  5
   4B6
  8
0
  6
CONTINUOUS
 62
     3
 10
105.599995107949
 20
101.180349364875
 30
0.0
 11
104.969995118678
 21
101.180349364875
 31
0.0
  0
LINE
  5
   4B7
  8
0
  6
CONTINUOUS
 62
     3
 10
104.339995129406
 20
101.180349364875
 30
0.0
 11
103.709995140135
 21
101.180349364875
 31
0.0
  0
LINE
  5
   4B8
  8
0
  6
CONTINUOUS
 62
     3
 10
103.079995150864
 20
102.405349344013
 30
0.0
 11
102.449995161593
 21
102.405349344013
 31
0.0
  0
LINE
  5
   4B9
  8
0
  6
CONTINUOUS
 62
     3
 10
101.819995172322
 20
102.405349344013
 30
0.0
 11
101.189995183051
 21
102.405349344013
 31
0.0
  0
LINE
  5
   4BA
  8
0
  6
CONTINUOUS
 62
     3
 10
100.559995193779
 20
102.405349344013
 30
0.0
 11
99.9299952045083
 21
102.405349344013
 31
0.0
  0
LINE
  5
   4BB
  8
0
  6
CONTINUOUS
 62
     3
 10
106.859995086491
 20
102.405349344013
 30
0.0
 11
106.22999509722
 21
102.405349344013
 31
0.0
  0
LINE
  5
   4BC
  8
0
  6
CONTINUOUS
 62
     3
 10
108.119995065033
 20
102.405349344013
 30
0.0
 11
107.489995075762
 21
102.405349344013
 31
0.0
  0
LINE
  5
   4BD
  8
0
  6
CONTINUOUS
 62
     3
 10
109.379995043576
 20
102.405349344013
 30
0.0
 11
108.749995054305
 21
102.405349344013
 31
0.0
  0
LINE
  5
   4BE
  8
0
  6
CONTINUOUS
 62
     3
 10
110.639995022118
 20
102.405349344013
 30
0.0
 11
110.009995032847
 21
102.405349344013
 31
0.0
  0
LINE
  5
   4BF
  8
0
  6
CONTINUOUS
 62
     3
 10
98.669995225966
 20
98.2053494155386
 30
0.0
 11
98.669995225966
 21
102.405349344013
 31
0.0
  0
LINE
  5
   4C0
  8
0
  6
CONTINUOUS
 62
     3
 10
99.2999952152372
 20
102.405349344013
 30
0.0
 11
98.669995225966
 21
102.405349344013
 31
0.0
  0
LINE
  5
   4C1
  8
0
  6
CONTINUOUS
 62
     3
 10
99.2999952152372
 20
98.2053494155386
 30
0.0
 11
98.669995225966
 21
98.2053494155386
 31
0.0
  0
LINE
  5
   4C2
  8
0
  6
CONTINUOUS
 62
     3
 10
100.559995193779
 20
98.2053494155386
 30
0.0
 11
99.9299952045083
 21
98.2053494155386
 31
0.0
  0
LINE
  5
   4C3
  8
0
  6
CONTINUOUS
 62
     3
 10
101.819995172322
 20
98.2053494155386
 30
0.0
 11
101.189995183051
 21
98.2053494155386
 31
0.0
  0
LINE
  5
   4C4
  8
0
  6
CONTINUOUS
 62
     3
 10
103.079995150864
 20
98.2053494155386
 30
0.0
 11
102.449995161593
 21
98.2053494155386
 31
0.0
  0
LINE
  5
   4C5
  8
0
  6
CONTINUOUS
 62
     3
 10
104.339995129406
 20
98.2053494155386
 30
0.0
 11
103.709995140135
 21
98.2053494155386
 31
0.0
  0
LINE
  5
   4C6
  8
0
  6
CONTINUOUS
 62
     3
 10
106.859995086491
 20
98.2053494155386
 30
0.0
 11
106.22999509722
 21
98.2053494155386
 31
0.0
  0
LINE
  5
   4C7
  8
0
  6
CONTINUOUS
 62
     3
 10
108.119995065033
 20
98.2053494155386
 30
0.0
 11
107.489995075762
 21
98.2053494155386
 31
0.0
  0
LINE
  5
   4C8
  8
0
  6
CONTINUOUS
 62
     3
 10
109.379995043576
 20
98.2053494155386
 30
0.0
 11
108.749995054305
 21
98.2053494155386
 31
0.0
  0
LINE
  5
   4C9
  8
0
  6
CONTINUOUS
 62
     3
 10
110.639995022118
 20
98.2053494155386
 30
0.0
 11
110.009995032847
 21
98.2053494155386
 31
0.0
  0
LINE
  5
   4CA
  8
0
  6
CONTINUOUS
 62
     3
 10
135.209994603694
 20
98.2053494155386
 30
0.0
 11
135.209994603694
 21
102.405349344013
 31
0.0
  0
LINE
  5
   4CB
  8
0
  6
CONTINUOUS
 62
     3
 10
135.209994603694
 20
98.2053494155386
 30
0.0
 11
134.579994614422
 21
98.2053494155386
 31
0.0
  0
LINE
  5
   4CC
  8
0
  6
CONTINUOUS
 62
     3
 10
133.949994625151
 20
98.2053494155386
 30
0.0
 11
133.31999463588
 21
98.2053494155386
 31
0.0
  0
LINE
  5
   4CD
  8
0
  6
CONTINUOUS
 62
     3
 10
132.689994646609
 20
98.2053494155386
 30
0.0
 11
132.059994657338
 21
98.2053494155386
 31
0.0
  0
LINE
  5
   4CE
  8
0
  6
CONTINUOUS
 62
     3
 10
131.429994668067
 20
98.2053494155386
 30
0.0
 11
130.799994678795
 21
98.2053494155386
 31
0.0
  0
LINE
  5
   4CF
  8
0
  6
CONTINUOUS
 62
     3
 10
128.909994710982
 20
98.2053494155386
 30
0.0
 11
128.279994721711
 21
98.2053494155386
 31
0.0
  0
LINE
  5
   4D0
  8
0
  6
CONTINUOUS
 62
     3
 10
127.64999473244
 20
98.2053494155386
 30
0.0
 11
127.019994743168
 21
98.2053494155386
 31
0.0
  0
LINE
  5
   4D1
  8
0
  6
CONTINUOUS
 62
     3
 10
126.389994753897
 20
98.2053494155386
 30
0.0
 11
125.759994764626
 21
98.2053494155386
 31
0.0
  0
LINE
  5
   4D2
  8
0
  6
CONTINUOUS
 62
     3
 10
125.129994775355
 20
98.2053494155386
 30
0.0
 11
124.499994786084
 21
98.2053494155386
 31
0.0
  0
LINE
  5
   4D3
  8
0
  6
CONTINUOUS
 62
     3
 10
123.869994796813
 20
98.2053494155386
 30
0.0
 11
123.239994807541
 21
98.2053494155386
 31
0.0
  0
LINE
  5
   4D4
  8
0
  6
CONTINUOUS
 62
     3
 10
123.869994796813
 20
102.405349344013
 30
0.0
 11
123.239994807541
 21
102.405349344013
 31
0.0
  0
LINE
  5
   4D5
  8
0
  6
CONTINUOUS
 62
     3
 10
123.239994807541
 20
98.2053494155386
 30
0.0
 11
123.239994807541
 21
102.405349344013
 31
0.0
  0
LINE
  5
   4D6
  8
0
  6
CONTINUOUS
 62
     3
 10
135.209994603694
 20
102.405349344013
 30
0.0
 11
134.579994614422
 21
102.405349344013
 31
0.0
  0
LINE
  5
   4D7
  8
0
  6
CONTINUOUS
 62
     3
 10
133.949994625151
 20
102.405349344013
 30
0.0
 11
133.31999463588
 21
102.405349344013
 31
0.0
  0
LINE
  5
   4D8
  8
0
  6
CONTINUOUS
 62
     3
 10
132.689994646609
 20
102.405349344013
 30
0.0
 11
132.059994657338
 21
102.405349344013
 31
0.0
  0
LINE
  5
   4D9
  8
0
  6
CONTINUOUS
 62
     3
 10
131.429994668067
 20
102.405349344013
 30
0.0
 11
130.799994678795
 21
102.405349344013
 31
0.0
  0
LINE
  5
   4DA
  8
0
  6
CONTINUOUS
 62
     3
 10
125.129994775355
 20
102.405349344013
 30
0.0
 11
124.499994786084
 21
102.405349344013
 31
0.0
  0
LINE
  5
   4DB
  8
0
  6
CONTINUOUS
 62
     3
 10
126.389994753897
 20
102.405349344013
 30
0.0
 11
125.759994764626
 21
102.405349344013
 31
0.0
  0
LINE
  5
   4DC
  8
0
  6
CONTINUOUS
 62
     3
 10
127.64999473244
 20
102.405349344013
 30
0.0
 11
127.019994743168
 21
102.405349344013
 31
0.0
  0
LINE
  5
   4DD
  8
0
  6
CONTINUOUS
 62
     3
 10
128.909994710982
 20
101.180349364875
 30
0.0
 11
128.279994721711
 21
101.180349364875
 31
0.0
  0
LINE
  5
   4DE
  8
0
  6
CONTINUOUS
 62
     3
 10
130.169994689524
 20
101.180349364875
 30
0.0
 11
129.539994700253
 21
101.180349364875
 31
0.0
  0
LINE
  5
   4DF
  8
0
  6
CONTINUOUS
 62
     3
 10
130.169994689524
 20
98.2053494155386
 30
0.0
 11
129.539994700253
 21
98.2053494155386
 31
0.0
  0
LINE
  5
   4E0
  8
0
  6
CONTINUOUS
 62
     3
 10
123.869994796813
 20
98.2053494155386
 30
0.0
 11
123.869994796813
 21
102.405349344013
 31
0.0
  0
LINE
  5
   4E1
  8
0
  6
CONTINUOUS
 62
     3
 10
124.499994786084
 20
98.2053494155386
 30
0.0
 11
124.499994786084
 21
102.405349344013
 31
0.0
  0
LINE
  5
   4E2
  8
0
  6
CONTINUOUS
 62
     3
 10
125.129994775355
 20
98.2053494155386
 30
0.0
 11
125.129994775355
 21
102.405349344013
 31
0.0
  0
LINE
  5
   4E3
  8
0
  6
CONTINUOUS
 62
     3
 10
125.759994764626
 20
98.2053494155386
 30
0.0
 11
125.759994764626
 21
102.405349344013
 31
0.0
  0
LINE
  5
   4E4
  8
0
  6
CONTINUOUS
 62
     3
 10
126.389994753897
 20
98.2053494155386
 30
0.0
 11
126.389994753897
 21
102.405349344013
 31
0.0
  0
LINE
  5
   4E5
  8
0
  6
CONTINUOUS
 62
     3
 10
127.019994743168
 20
98.2053494155386
 30
0.0
 11
127.019994743168
 21
102.405349344013
 31
0.0
  0
LINE
  5
   4E6
  8
0
  6
CONTINUOUS
 62
     3
 10
127.64999473244
 20
98.2053494155386
 30
0.0
 11
127.64999473244
 21
102.405349344013
 31
0.0
  0
LINE
  5
   4E7
  8
0
  6
CONTINUOUS
 62
     3
 10
128.279994721711
 20
98.2053494155386
 30
0.0
 11
128.279994721711
 21
101.180349364875
 31
0.0
  0
LINE
  5
   4E8
  8
0
  6
CONTINUOUS
 62
     3
 10
128.909994710982
 20
98.2053494155386
 30
0.0
 11
128.909994710982
 21
101.180349364875
 31
0.0
  0
LINE
  5
   4E9
  8
0
  6
CONTINUOUS
 62
     3
 10
135.209994603694
 20
98.2053494155386
 30
0.0
 11
135.209994603694
 21
102.405349344013
 31
0.0
  0
LINE
  5
   4EA
  8
0
  6
CONTINUOUS
 62
     3
 10
134.579994614422
 20
98.2053494155386
 30
0.0
 11
134.579994614422
 21
102.405349344013
 31
0.0
  0
LINE
  5
   4EB
  8
0
  6
CONTINUOUS
 62
     3
 10
133.949994625151
 20
98.2053494155386
 30
0.0
 11
133.949994625151
 21
102.405349344013
 31
0.0
  0
LINE
  5
   4EC
  8
0
  6
CONTINUOUS
 62
     3
 10
133.31999463588
 20
98.2053494155386
 30
0.0
 11
133.31999463588
 21
102.405349344013
 31
0.0
  0
LINE
  5
   4ED
  8
0
  6
CONTINUOUS
 62
     3
 10
132.689994646609
 20
98.2053494155386
 30
0.0
 11
132.689994646609
 21
102.405349344013
 31
0.0
  0
LINE
  5
   4EE
  8
0
  6
CONTINUOUS
 62
     3
 10
132.059994657338
 20
98.2053494155386
 30
0.0
 11
132.059994657338
 21
102.405349344013
 31
0.0
  0
LINE
  5
   4EF
  8
0
  6
CONTINUOUS
 62
     3
 10
131.429994668067
 20
98.2053494155386
 30
0.0
 11
131.429994668067
 21
102.405349344013
 31
0.0
  0
LINE
  5
   4F0
  8
0
  6
CONTINUOUS
 62
     3
 10
130.799994678795
 20
98.2053494155386
 30
0.0
 11
130.799994678795
 21
102.405349344013
 31
0.0
  0
LINE
  5
   4F1
  8
0
  6
CONTINUOUS
 62
     3
 10
130.169994689524
 20
98.2053494155386
 30
0.0
 11
130.169994689524
 21
101.180349364875
 31
0.0
  0
LINE
  5
   4F2
  8
0
  6
CONTINUOUS
 62
     3
 10
129.539994700253
 20
98.2053494155386
 30
0.0
 11
129.539994700253
 21
101.180349364875
 31
0.0
  0
LINE
  5
   4F3
  8
0
  6
CONTINUOUS
 62
     3
 10
86.2449954375625
 20
98.2053494155386
 30
0.0
 11
85.6149954482913
 21
98.2053494155386
 31
0.0
  0
LINE
  5
   4F4
  8
0
  6
CONTINUOUS
 62
     3
 10
84.9849954590202
 20
98.2053494155386
 30
0.0
 11
84.354995469749
 21
98.2053494155386
 31
0.0
  0
LINE
  5
   4F5
  8
0
  6
CONTINUOUS
 62
     3
 10
83.7249954804778
 20
98.2053494155386
 30
0.0
 11
83.0949954912067
 21
98.2053494155386
 31
0.0
  0
LINE
  5
   4F6
  8
0
  6
CONTINUOUS
 62
     3
 10
82.4649955019355
 20
98.2053494155386
 30
0.0
 11
81.8349955126643
 21
98.2053494155386
 31
0.0
  0
LINE
  5
   4F7
  8
0
  6
CONTINUOUS
 62
     3
 10
79.9449955448509
 20
98.2053494155386
 30
0.0
 11
79.3149955555797
 21
98.2053494155386
 31
0.0
  0
LINE
  5
   4F8
  8
0
  6
CONTINUOUS
 62
     3
 10
78.6849955663085
 20
98.2053494155386
 30
0.0
 11
78.0549955770373
 21
98.2053494155386
 31
0.0
  0
LINE
  5
   4F9
  8
0
  6
CONTINUOUS
 62
     3
 10
77.4249955877662
 20
98.2053494155386
 30
0.0
 11
76.794995598495
 21
98.2053494155386
 31
0.0
  0
LINE
  5
   4FA
  8
0
  6
CONTINUOUS
 62
     3
 10
76.1649956092239
 20
98.2053494155386
 30
0.0
 11
75.5349956199527
 21
98.2053494155386
 31
0.0
  0
LINE
  5
   4FB
  8
0
  6
CONTINUOUS
 62
     3
 10
74.9049956306815
 20
98.2053494155386
 30
0.0
 11
74.2749956414104
 21
98.2053494155386
 31
0.0
  0
LINE
  5
   4FC
  8
0
  6
CONTINUOUS
 62
     3
 10
74.9049956306815
 20
102.405349344013
 30
0.0
 11
74.2749956414104
 21
102.405349344013
 31
0.0
  0
LINE
  5
   4FD
  8
0
  6
CONTINUOUS
 62
     3
 10
74.2749956414104
 20
98.2053494155386
 30
0.0
 11
74.2749956414104
 21
102.405349344013
 31
0.0
  0
LINE
  5
   4FE
  8
0
  6
CONTINUOUS
 62
     3
 10
86.2449954375625
 20
102.405349344013
 30
0.0
 11
85.6149954482913
 21
102.405349344013
 31
0.0
  0
LINE
  5
   4FF
  8
0
  6
CONTINUOUS
 62
     3
 10
84.9849954590202
 20
102.405349344013
 30
0.0
 11
84.354995469749
 21
102.405349344013
 31
0.0
  0
LINE
  5
   500
  8
0
  6
CONTINUOUS
 62
     3
 10
83.7249954804778
 20
102.405349344013
 30
0.0
 11
83.0949954912067
 21
102.405349344013
 31
0.0
  0
LINE
  5
   501
  8
0
  6
CONTINUOUS
 62
     3
 10
82.4649955019355
 20
102.405349344013
 30
0.0
 11
81.8349955126643
 21
102.405349344013
 31
0.0
  0
LINE
  5
   502
  8
0
  6
CONTINUOUS
 62
     3
 10
76.1649956092239
 20
102.405349344013
 30
0.0
 11
75.5349956199527
 21
102.405349344013
 31
0.0
  0
LINE
  5
   503
  8
0
  6
CONTINUOUS
 62
     3
 10
77.4249955877662
 20
102.405349344013
 30
0.0
 11
76.794995598495
 21
102.405349344013
 31
0.0
  0
LINE
  5
   504
  8
0
  6
CONTINUOUS
 62
     3
 10
78.6849955663085
 20
102.405349344013
 30
0.0
 11
78.0549955770373
 21
102.405349344013
 31
0.0
  0
LINE
  5
   505
  8
0
  6
CONTINUOUS
 62
     3
 10
79.9449955448509
 20
101.180349364875
 30
0.0
 11
79.3149955555797
 21
101.180349364875
 31
0.0
  0
LINE
  5
   506
  8
0
  6
CONTINUOUS
 62
     3
 10
81.2049955233932
 20
101.180349364875
 30
0.0
 11
80.574995534122
 21
101.180349364875
 31
0.0
  0
LINE
  5
   507
  8
0
  6
CONTINUOUS
 62
     3
 10
81.2049955233932
 20
98.2053494155386
 30
0.0
 11
80.574995534122
 21
98.2053494155386
 31
0.0
  0
LINE
  5
   508
  8
0
  6
CONTINUOUS
 62
     3
 10
74.9049956306815
 20
98.2053494155386
 30
0.0
 11
74.9049956306815
 21
102.405349344013
 31
0.0
  0
LINE
  5
   509
  8
0
  6
CONTINUOUS
 62
     3
 10
75.5349956199527
 20
98.2053494155386
 30
0.0
 11
75.5349956199527
 21
102.405349344013
 31
0.0
  0
LINE
  5
   50A
  8
0
  6
CONTINUOUS
 62
     3
 10
76.1649956092239
 20
98.2053494155386
 30
0.0
 11
76.1649956092239
 21
102.405349344013
 31
0.0
  0
LINE
  5
   50B
  8
0
  6
CONTINUOUS
 62
     3
 10
76.794995598495
 20
98.2053494155386
 30
0.0
 11
76.794995598495
 21
102.405349344013
 31
0.0
  0
LINE
  5
   50C
  8
0
  6
CONTINUOUS
 62
     3
 10
77.4249955877662
 20
98.2053494155386
 30
0.0
 11
77.4249955877662
 21
102.405349344013
 31
0.0
  0
LINE
  5
   50D
  8
0
  6
CONTINUOUS
 62
     3
 10
78.0549955770373
 20
98.2053494155386
 30
0.0
 11
78.0549955770373
 21
102.405349344013
 31
0.0
  0
LINE
  5
   50E
  8
0
  6
CONTINUOUS
 62
     3
 10
78.6849955663085
 20
98.2053494155386
 30
0.0
 11
78.6849955663085
 21
102.405349344013
 31
0.0
  0
LINE
  5
   50F
  8
0
  6
CONTINUOUS
 62
     3
 10
79.3149955555797
 20
98.2053494155386
 30
0.0
 11
79.3149955555797
 21
101.180349364875
 31
0.0
  0
LINE
  5
   510
  8
0
  6
CONTINUOUS
 62
     3
 10
79.9449955448509
 20
98.2053494155386
 30
0.0
 11
79.9449955448509
 21
101.180349364875
 31
0.0
  0
LINE
  5
   511
  8
0
  6
CONTINUOUS
 62
     3
 10
86.2449954375625
 20
98.2053494155386
 30
0.0
 11
86.2449954375625
 21
102.405349344013
 31
0.0
  0
LINE
  5
   512
  8
0
  6
CONTINUOUS
 62
     3
 10
85.6149954482913
 20
98.2053494155386
 30
0.0
 11
85.6149954482913
 21
102.405349344013
 31
0.0
  0
LINE
  5
   513
  8
0
  6
CONTINUOUS
 62
     3
 10
84.9849954590202
 20
98.2053494155386
 30
0.0
 11
84.9849954590202
 21
102.405349344013
 31
0.0
  0
LINE
  5
   514
  8
0
  6
CONTINUOUS
 62
     3
 10
84.354995469749
 20
98.2053494155386
 30
0.0
 11
84.354995469749
 21
102.405349344013
 31
0.0
  0
LINE
  5
   515
  8
0
  6
CONTINUOUS
 62
     3
 10
83.7249954804778
 20
98.2053494155386
 30
0.0
 11
83.7249954804778
 21
102.405349344013
 31
0.0
  0
LINE
  5
   516
  8
0
  6
CONTINUOUS
 62
     3
 10
83.0949954912067
 20
98.2053494155386
 30
0.0
 11
83.0949954912067
 21
102.405349344013
 31
0.0
  0
LINE
  5
   517
  8
0
  6
CONTINUOUS
 62
     3
 10
82.4649955019355
 20
98.2053494155386
 30
0.0
 11
82.4649955019355
 21
102.405349344013
 31
0.0
  0
LINE
  5
   518
  8
0
  6
CONTINUOUS
 62
     3
 10
81.8349955126643
 20
98.2053494155386
 30
0.0
 11
81.8349955126643
 21
102.405349344013
 31
0.0
  0
LINE
  5
   519
  8
0
  6
CONTINUOUS
 62
     3
 10
81.2049955233932
 20
98.2053494155386
 30
0.0
 11
81.2049955233932
 21
101.180349364875
 31
0.0
  0
LINE
  5
   51A
  8
0
  6
CONTINUOUS
 62
     3
 10
80.574995534122
 20
98.2053494155386
 30
0.0
 11
80.574995534122
 21
101.180349364875
 31
0.0
  0
ARC
  5
   51B
  8
0
  6
CONTINUOUS
 62
     1
 10
101.032473051323
 20
15.9553406530273
 30
0.0
 40
2.09999798521424
 50
90.0001399327154
 51
270.000100332566
  0
LINE
  5
   51C
  8
0
  6
DASHDOT
 62
     2
 10
101.032473051323
 20
12.8053426856945
 30
0.0
 11
101.032473051323
 21
19.1053386203601
 31
0.0
  0
LINE
  5
   51D
  8
0
  6
DASHDOT
 62
     2
 10
104.182471018656
 20
15.9553406530273
 30
0.0
 11
97.8824750839906
 21
15.9553406530273
 31
0.0
  0
LINE
  5
   51E
  8
0
  6
CONTINUOUS
 62
     1
 10
102.950202983721
 20
18.0553383865914
 30
0.0
 11
101.032476881047
 21
18.0553437271658
 31
0.0
  0
LINE
  5
   51F
  8
0
  6
CONTINUOUS
 62
     1
 10
102.950205338501
 20
13.8553453417079
 30
0.0
 11
101.032479235906
 21
13.8553453417079
 31
0.0
  0
ARC
  5
   520
  8
0
  6
CONTINUOUS
 62
     1
 10
105.057475653264
 20
15.9553774164717
 30
0.0
 40
2.97503256700413
 50
224.901119153159
 51
315.09888074291
  0
ARC
  5
   521
  8
0
  6
CONTINUOUS
 62
     1
 10
105.057475653264
 20
15.9553774164717
 30
0.0
 40
2.97503256700413
 50
404.899302393594
 51
495.100813987516
  0
LINE
  5
   522
  8
0
  6
CONTINUOUS
 62
     1
 10
109.082482084689
 20
18.0553373308587
 30
0.0
 11
107.164755982909
 21
18.0553426714331
 31
0.0
  0
LINE
  5
   523
  8
0
  6
CONTINUOUS
 62
     1
 10
109.082479098815
 20
13.8553453417079
 30
0.0
 11
107.164758336796
 21
13.8553453417079
 31
0.0
  0
ARC
  5
   524
  8
0
  6
CONTINUOUS
 62
     1
 10
109.082480556335
 20
15.9553427859233
 30
0.0
 40
2.09999509708851
 50
269.999747131106
 51
450.000048027357
  0
LINE
  5
   525
  8
0
  6
DASHDOT
 62
     2
 10
109.082480556335
 20
12.8053477067162
 30
0.0
 11
109.082480556335
 21
19.1053378651304
 31
0.0
  0
LINE
  5
   526
  8
0
  6
DASHDOT
 62
     2
 10
112.232475635543
 20
15.9553427859233
 30
0.0
 11
105.932485477128
 21
15.9553427859233
 31
0.0
  0
LINE
  5
   527
  8
0
  6
DASHDOT
 62
     2
 10
129.557494699955
 20
12.3124366263377
 30
0.0
 11
129.557494699955
 21
19.232957501293
 31
0.0
  0
ARC
  5
   528
  8
0
  6
CONTINUOUS
 62
     1
 10
125.532472634091
 20
15.9553406530273
 30
0.0
 40
2.09999798521424
 50
90.0001399327154
 51
270.000100332566
  0
LINE
  5
   529
  8
0
  6
DASHDOT
 62
     2
 10
125.532472634091
 20
12.8053426856945
 30
0.0
 11
125.532472634091
 21
19.1053386203601
 31
0.0
  0
LINE
  5
   52A
  8
0
  6
DASHDOT
 62
     2
 10
128.682470601424
 20
15.9553406530273
 30
0.0
 11
122.382474666758
 21
15.9553406530273
 31
0.0
  0
LINE
  5
   52B
  8
0
  6
DASHDOT
 62
     2
 10
136.73247521831
 20
15.9553427859233
 30
0.0
 11
130.432485059896
 21
15.9553427859233
 31
0.0
  0
LINE
  5
   52C
  8
0
  6
DASHDOT
 62
     2
 10
133.582480139103
 20
12.8053477067162
 30
0.0
 11
133.582480139103
 21
19.1053378651304
 31
0.0
  0
ARC
  5
   52D
  8
0
  6
CONTINUOUS
 62
     1
 10
133.582480139103
 20
15.9553427859233
 30
0.0
 40
2.09999509708851
 50
269.999747131106
 51
450.000048027357
  0
LINE
  5
   52E
  8
0
  6
CONTINUOUS
 62
     1
 10
133.5824816673
 20
18.0553373308587
 30
0.0
 11
131.66475556552
 21
18.0553426714331
 31
0.0
  0
LINE
  5
   52F
  8
0
  6
CONTINUOUS
 62
     1
 10
133.582478681582
 20
13.8553453417079
 30
0.0
 11
131.664757919563
 21
13.8553453417079
 31
0.0
  0
ARC
  5
   530
  8
0
  6
CONTINUOUS
 62
     1
 10
129.557475236032
 20
15.9553774164717
 30
0.0
 40
2.97503256700413
 50
224.901119153159
 51
315.09888074291
  0
ARC
  5
   531
  8
0
  6
CONTINUOUS
 62
     1
 10
129.557475236032
 20
15.9553774164717
 30
0.0
 40
2.97503256700413
 50
404.899302393594
 51
495.100813987516
  0
LINE
  5
   532
  8
0
  6
CONTINUOUS
 62
     1
 10
127.450202566331
 20
18.0553383865914
 30
0.0
 11
125.532476463658
 21
18.0553437271658
 31
0.0
  0
LINE
  5
   533
  8
0
  6
CONTINUOUS
 62
     1
 10
127.450204921268
 20
13.8553453417079
 30
0.0
 11
125.532478818673
 21
13.8553453417079
 31
0.0
  0
LINE
  5
   534
  8
0
  6
CONTINUOUS
 62
     3
 10
140.407505124432
 20
11.2303453864129
 30
0.0
 11
118.363245517883
 21
11.2303453864129
 31
0.0
  0
ARC
  5
   535
  8
0
  6
CONTINUOUS
 62
     3
 10
140.407506839978
 20
11.7553444179145
 30
0.0
 40
0.524998573004765
 50
269.999896736966
 51
360.000058772367
  0
LINE
  5
   536
  8
0
  6
CONTINUOUS
 62
     3
 10
140.932505115491
 20
11.7553450436847
 30
0.0
 11
140.932505115491
 21
12.2103451026933
 31
0.0
  0
LINE
  5
   537
  8
0
  6
CONTINUOUS
 62
     3
 10
141.807486700967
 20
12.2103451026933
 30
0.0
 11
140.932505115491
 21
12.2103451026933
 31
0.0
  0
LINE
  5
   538
  8
0
  6
CONTINUOUS
 62
     1
 10
140.932505115491
 20
12.2103451026933
 30
0.0
 11
140.932505115491
 21
19.7003399015921
 31
0.0
  0
LINE
  5
   539
  8
0
  6
CONTINUOUS
 62
     3
 10
141.807486700967
 20
12.2103451026933
 30
0.0
 11
141.807486700967
 21
34.7853449852698
 31
0.0
  0
LINE
  5
   53A
  8
0
  6
CONTINUOUS
 62
     3
 10
92.0199793893876
 20
11.2303347052534
 30
0.0
 11
92.0199793893876
 21
12.1053346903522
 31
0.0
  0
LINE
  5
   53B
  8
0
  6
CONTINUOUS
 62
     3
 10
92.0199793893876
 20
12.105334690358
 30
0.0
 11
91.5824793968382
 21
12.105334690358
 31
0.0
  0
LINE
  5
   53C
  8
0
  6
CONTINUOUS
 62
     3
 10
91.5824793968382
 20
12.105334690358
 30
0.0
 11
91.5824793968382
 21
13.680334663536
 31
0.0
  0
LINE
  5
   53D
  8
0
  6
CONTINUOUS
 62
     3
 10
94.0324793551149
 20
13.680334663536
 30
0.0
 11
91.5824793968382
 21
13.680334663536
 31
0.0
  0
LINE
  5
   53E
  8
0
  6
CONTINUOUS
 62
     3
 10
94.0324793551149
 20
12.105334690358
 30
0.0
 11
94.0324793551149
 21
13.680334663536
 31
0.0
  0
LINE
  5
   53F
  8
0
  6
CONTINUOUS
 62
     3
 10
94.0324793551149
 20
12.105334690358
 30
0.0
 11
93.5949793625655
 21
12.105334690358
 31
0.0
  0
LINE
  5
   540
  8
0
  6
CONTINUOUS
 62
     3
 10
93.5949793625655
 20
11.2303347052598
 30
0.0
 11
93.5949793625655
 21
12.1053346903587
 31
0.0
  0
LINE
  5
   541
  8
0
  6
CONTINUOUS
 62
     3
 10
116.519984312731
 20
11.230345556138
 30
0.0
 11
93.5949793625655
 21
11.230345556138
 31
0.0
  0
LINE
  5
   542
  8
0
  6
CONTINUOUS
 62
     3
 10
116.519984312731
 20
11.2303347052598
 30
0.0
 11
116.519984312731
 21
12.1053346903587
 31
0.0
  0
LINE
  5
   543
  8
0
  6
CONTINUOUS
 62
     3
 10
116.519984312731
 20
12.105334690358
 30
0.0
 11
116.082484320182
 21
12.105334690358
 31
0.0
  0
LINE
  5
   544
  8
0
  6
CONTINUOUS
 62
     3
 10
116.082484320182
 20
12.105334690358
 30
0.0
 11
116.082484320182
 21
13.680334663536
 31
0.0
  0
LINE
  5
   545
  8
0
  6
CONTINUOUS
 62
     3
 10
118.532484278458
 20
13.680334663536
 30
0.0
 11
116.082484320182
 21
13.680334663536
 31
0.0
  0
LINE
  5
   546
  8
0
  6
CONTINUOUS
 62
     3
 10
118.532484278458
 20
12.105334690358
 30
0.0
 11
118.532484278458
 21
13.680334663536
 31
0.0
  0
LINE
  5
   547
  8
0
  6
CONTINUOUS
 62
     3
 10
118.532484278458
 20
12.105334690358
 30
0.0
 11
118.094984285909
 21
12.105334690358
 31
0.0
  0
LINE
  5
   548
  8
0
  6
CONTINUOUS
 62
     3
 10
118.094984285909
 20
11.2303347052534
 30
0.0
 11
118.094984285909
 21
12.1053346903522
 31
0.0
  0
LINE
  5
   549
  8
0
  6
DASHDOT
 62
     7
 10
129.557494699955
 20
-8.04320212604532
 30
0.0
 11
129.557494699955
 21
178.141123213784
 31
0.0
  0
LINE
  5
   54A
  8
0
  6
DASHDOT
 62
     7
 10
80.55749553442
 20
-7.41526173704082
 30
0.0
 11
80.55749553442
 21
178.141123213784
 31
0.0
  0
INSERT
  5
   54B
  8
0
  6
CONTINUOUS
 62
     7
  2
*UDIM802
 10
0.0
 20
0.0
 30
0.0
  0
INSERT
  5
   54C
  8
0
  6
CONTINUOUS
 62
     7
  2
*UDIM803
 10
0.0
 20
0.0
 30
0.0
  0
CIRCLE
  5
   54D
  8
0
  6
CONTINUOUS
 62
     1
 10
92.8074839458011
 20
16.6553578422034
 30
0.0
 40
1.83749026298616
  0
CIRCLE
  5
   54E
  8
0
  6
CONTINUOUS
 62
     1
 10
92.8074742902954
 20
16.6553344727488
 30
0.0
 40
0.962507390421093
  0
CIRCLE
  5
   54F
  8
0
  6
CONTINUOUS
 62
     1
 10
117.307518661368
 20
16.6552941328546
 30
0.0
 40
1.83755586507084
  0
CIRCLE
  5
   550
  8
0
  6
CONTINUOUS
 62
     1
 10
117.30746409746
 20
16.655364349952
 30
0.0
 40
0.962478285897051
  0
LINE
  5
   551
  8
0
  6
DASHDOT
 62
     2
 10
96.0357550357655
 20
16.6553578422034
 30
0.0
 11
89.9199937006963
 21
16.6553578422034
 31
0.0
  0
LINE
  5
   552
  8
0
  6
DASHDOT
 62
     2
 10
117.307518661368
 20
13.7677382856652
 30
0.0
 11
117.307518661368
 21
19.542849980044
 31
0.0
  0
LINE
  5
   553
  8
0
  6
DASHDOT
 62
     2
 10
120.389459421531
 20
16.6553578422034
 30
0.0
 11
105.97574021998
 21
16.6553578422034
 31
0.0
  0
LINE
  5
   554
  8
0
  6
DASHDOT
 62
     2
 10
92.8075190786
 20
13.7677382856652
 30
0.0
 11
92.8075190786
 21
19.542849980044
 31
0.0
  0
LINE
  5
   555
  8
0
  6
DASHDOT
 62
     2
 10
139.532505914467
 20
11.0903444896366
 30
0.0
 11
139.532505914467
 21
14.1703452376238
 31
0.0
  0
LINE
  5
   556
  8
0
  6
DASHDOT
 62
     2
 10
141.07250628846
 20
12.6303448636302
 30
0.0
 11
137.992505540473
 21
12.6303448636302
 31
0.0
  0
CIRCLE
  5
   557
  8
0
  6
CONTINUOUS
 62
     1
 10
139.532505914467
 20
12.6303448636302
 30
0.0
 40
0.49000039187499
  0
CIRCLE
  5
   558
  8
0
  6
CONTINUOUS
 62
     1
 10
92.8075782248901
 20
99.6053440511207
 30
0.0
 40
1.39999997615814
  0
CIRCLE
  5
   559
  8
0
  6
CONTINUOUS
 62
     1
 10
117.307412009485
 20
99.6053440511207
 30
0.0
 40
1.39999997615814
  0
LINE
  5
   55A
  8
0
  6
CONTINUOUS
 62
     1
 10
136.470000236377
 20
96.9103494375923
 30
0.0
 11
136.470000236377
 21
144.755343112492
 31
0.0
  0
LINE
  5
   55B
  8
0
  6
CONTINUOUS
 62
     2
 10
73.5574627449259
 20
153.330343305935
 30
0.0
 11
73.5574627449259
 21
169.605338372979
 31
0.0
  0
LINE
  5
   55C
  8
0
  6
CONTINUOUS
 62
     1
 10
87.5574424793471
 20
157.845160198009
 30
0.0
 11
73.5574627449259
 21
157.845160198009
 31
0.0
  0
LINE
  5
   55D
  8
0
  6
CONTINUOUS
 62
     2
 10
87.5574424793471
 20
153.330343305935
 30
0.0
 11
87.5574424793471
 21
169.605338372979
 31
0.0
  0
ARC
  5
   55E
  8
0
  6
CONTINUOUS
 62
     2
 10
86.8574319280922
 20
169.605332623052
 30
0.0
 40
0.700010475705149
 50
360.000177846598
 51
449.999040783811
  0
LINE
  5
   55F
  8
0
  6
CONTINUOUS
 62
     2
 10
86.857442491268
 20
170.305338361058
 30
0.0
 11
74.257462733005
 21
170.305338361058
 31
0.0
  0
ARC
  5
   560
  8
0
  6
CONTINUOUS
 62
     2
 10
74.2574660566592
 20
169.605332789331
 30
0.0
 40
0.700004026529487
 50
90.0001360632517
 51
179.999915556299
  0
CIRCLE
  5
   561
  8
0
  6
CONTINUOUS
 62
     2
 10
80.5574219976812
 20
165.055359891502
 30
0.0
 40
1.92503683232651
  0
LINE
  5
   562
  8
0
  6
CONTINUOUS
 62
     2
 10
98.0574623276934
 20
153.330343305935
 30
0.0
 11
98.0574623276934
 21
169.605338372979
 31
0.0
  0
LINE
  5
   563
  8
0
  6
CONTINUOUS
 62
     1
 10
112.057442062115
 20
157.845160198009
 30
0.0
 11
98.0574623276934
 21
157.845160198009
 31
0.0
  0
LINE
  5
   564
  8
0
  6
CONTINUOUS
 62
     2
 10
112.057442062115
 20
153.330343305935
 30
0.0
 11
112.057442062115
 21
169.605338372979
 31
0.0
  0
CIRCLE
  5
   565
  8
0
  6
CONTINUOUS
 62
     2
 10
105.057421580449
 20
165.055359891502
 30
0.0
 40
1.92503683232651
  0
LINE
  5
   566
  8
0
  6
DASHDOT
 62
     2
 10
107.332458406815
 20
165.055359891502
 30
0.0
 11
102.782384754083
 21
165.055359891502
 31
0.0
  0
ARC
  5
   567
  8
0
  6
CONTINUOUS
 62
     2
 10
111.35743151086
 20
169.605332623052
 30
0.0
 40
0.700010475705149
 50
360.000177846598
 51
449.999040783811
  0
LINE
  5
   568
  8
0
  6
CONTINUOUS
 62
     2
 10
111.357442074035
 20
170.305338361058
 30
0.0
 11
98.7574623157725
 21
170.305338361058
 31
0.0
  0
ARC
  5
   569
  8
0
  6
CONTINUOUS
 62
     2
 10
98.7574656394267
 20
169.605332789331
 30
0.0
 40
0.700004026529487
 50
90.0001360632517
 51
179.999915556299
  0
LINE
  5
   56A
  8
0
  6
CONTINUOUS
 62
     7
 10
122.557461910461
 20
153.330343305935
 30
0.0
 11
122.557461910461
 21
169.605338372979
 31
0.0
  0
ARC
  5
   56B
  8
0
  6
CONTINUOUS
 62
     7
 10
123.257465222194
 20
169.605332789331
 30
0.0
 40
0.700004026529487
 50
90.0001360632517
 51
179.999915556299
  0
LINE
  5
   56C
  8
0
  6
CONTINUOUS
 62
     7
 10
135.857441656803
 20
170.305338361058
 30
0.0
 11
123.25746189854
 21
170.305338361058
 31
0.0
  0
ARC
  5
   56D
  8
0
  6
CONTINUOUS
 62
     7
 10
135.857431093627
 20
169.605332623052
 30
0.0
 40
0.700010475705149
 50
360.000177846598
 51
449.999040783811
  0
LINE
  5
   56E
  8
0
  6
CONTINUOUS
 62
     7
 10
136.557441644882
 20
153.330343305935
 30
0.0
 11
136.557441644882
 21
169.605338372979
 31
0.0
  0
CIRCLE
  5
   56F
  8
0
  6
CONTINUOUS
 62
     7
 10
129.557421163216
 20
165.055359891502
 30
0.0
 40
1.92503683232651
  0
LINE
  5
   570
  8
0
  6
DASHDOT
 62
     2
 10
131.832457989582
 20
165.055359891502
 30
0.0
 11
127.28238433685
 21
165.055359891502
 31
0.0
  0
LINE
  5
   571
  8
0
  6
DASHDOT
 62
     3
 10
82.8324588240472
 20
165.055359891502
 30
0.0
 11
78.2823851713151
 21
165.055359891502
 31
0.0
  0
INSERT
  5
   572
  8
0
  6
CONTINUOUS
 62
     7
  2
*UDIM804
 10
0.0
 20
0.0
 30
0.0
  0
INSERT
  5
   573
  8
0
  6
CONTINUOUS
 62
     7
  2
*UDIM805
 10
0.0
 20
0.0
 30
0.0
  0
INSERT
  5
   574
  8
0
  6
CONTINUOUS
 62
     7
  2
*UDIM806
 10
0.0
 20
0.0
 30
0.0
  0
INSERT
  5
   575
  8
0
  6
CONTINUOUS
 62
     7
  2
*UDIM807
 10
0.0
 20
0.0
 30
0.0
  0
INSERT
  5
   576
  8
0
  6
CONTINUOUS
 62
     7
  2
*UDIM808
 10
0.0
 20
0.0
 30
0.0
  0
INSERT
  5
   577
  8
0
  6
CONTINUOUS
 62
     7
  2
*UDIM809
 10
0.0
 20
0.0
 30
0.0
  0
TEXT
  5
   578
  8
0
  6
CONTINUOUS
 62
     7
 10
103.744094404307
 20
-21.3169087603152
 30
0.0
 40
2.99999997871263
  1
Y
 50
359.999999948034
 41
0.91666663951344
 72
     2
 11
105.944094340019
 21
-21.3169087622995
 31
0.0
  0
TEXT
  5
   579
  8
0
  6
CONTINUOUS
 62
     7
 10
60.0800964129495
 20
62.0388368344289
 30
0.0
 40
2.99999997871263
  1
X
 50
359.999999948034
 41
0.91666663951344
 72
     2
 11
62.2800963486616
 21
62.0388368324446
 31
0.0
  0
TEXT
  5
   57A
  8
0
  6
CONTINUOUS
 62
     7
 10
156.965027853219
 20
60.6173677424255
 30
0.0
 40
2.99999997871263
  1
X
 50
359.999999948034
 41
0.91666663951344
 72
     2
 11
159.165027788931
 21
60.6173677404412
 31
0.0
  0
TEXT
  5
   57B
  8
0
  6
CONTINUOUS
 62
     7
 10
103.656965945376
 20
177.146881689537
 30
0.0
 40
2.99999997871263
  1
Y
 50
359.999999948034
 41
0.91666663951344
 72
     2
 11
105.856965881088
 21
177.146881687553
 31
0.0
  0
INSERT
  5
   57C
  8
0
  6
CONTINUOUS
 62
     7
  2
*UDIM810
 10
0.0
 20
0.0
 30
0.0
  0
INSERT
  5
   57D
  8
0
  6
CONTINUOUS
 62
     7
  2
*UDIM811
 10
0.0
 20
0.0
 30
0.0
  0
INSERT
  5
   57E
  8
0
  6
CONTINUOUS
 62
     7
  2
*UDIM812
 10
0.0
 20
0.0
 30
0.0
  0
LINE
  5
   57F
  8
0
  6
CONTINUOUS
 62
     7
 10
198.338806712628
 20
-5.74464585403301
 30
0.0
 11
200.088806682825
 21
-5.74464585403301
 31
0.0
  0
LINE
  5
   580
  8
0
  6
CONTINUOUS
 62
     7
 10
193.613806793094
 20
19.8053537108531
 30
0.0
 11
195.363806763291
 21
19.8053537108531
 31
0.0
  0
LINE
  5
   581
  8
0
  6
CONTINUOUS
 62
     7
 10
200.088806682825
 20
-5.74464585403301
 30
0.0
 11
200.088806682825
 21
6.71553230901556
 31
0.0
  0
LINE
  5
   582
  8
0
  6
CONTINUOUS
 62
     7
 10
193.613806793094
 20
17.0053537585368
 30
0.0
 11
193.613806793094
 21
19.8053537108531
 31
0.0
  0
LINE
  5
   583
  8
0
  6
CONTINUOUS
 62
     7
 10
195.568831379409
 20
12.2503302163946
 30
0.0
 11
199.371218111702
 21
8.44794156099829
 31
0.0
  0
LINE
  5
   584
  8
0
  6
CONTINUOUS
 62
     7
 10
199.371218294118
 20
8.44793973485946
 30
0.0
 11
199.760568981826
 21
7.94053158565107
 31
0.0
  0
LINE
  5
   585
  8
0
  6
CONTINUOUS
 62
     7
 10
199.760568931404
 20
7.94053167995067
 30
0.0
 11
200.005324860143
 21
7.34963432236237
 31
0.0
  0
LINE
  5
   586
  8
0
  6
CONTINUOUS
 62
     7
 10
200.005324770056
 20
7.34963037081376
 30
0.0
 11
200.088806653857
 21
6.71552774647737
 31
0.0
  0
LINE
  5
   587
  8
0
  6
CONTINUOUS
 62
     7
 10
198.338806712628
 20
-5.74464585403301
 30
0.0
 11
198.338806712628
 21
6.71553230901556
 31
0.0
  0
LINE
  5
   588
  8
0
  6
CONTINUOUS
 62
     7
 10
198.285522440602
 20
6.98341169550929
 30
0.0
 11
198.338806702731
 21
6.71553373292084
 31
0.0
  0
LINE
  5
   589
  8
0
  6
CONTINUOUS
 62
     7
 10
198.133781420321
 20
7.21050694897308
 30
0.0
 11
198.285522548829
 21
6.98340963647759
 31
0.0
  0
LINE
  5
   58A
  8
0
  6
CONTINUOUS
 62
     7
 10
194.331394554901
 20
11.0128920567373
 30
0.0
 11
198.133781255085
 21
7.21050856172426
 31
0.0
  0
LINE
  5
   58B
  8
0
  6
CONTINUOUS
 62
     7
 10
193.942044110183
 20
11.5203018250887
 30
0.0
 11
194.331394809084
 21
11.0128883503193
 31
0.0
  0
LINE
  5
   58C
  8
0
  6
CONTINUOUS
 62
     7
 10
193.697287986963
 20
12.1111981264089
 30
0.0
 11
193.94204391866
 21
11.5203061179589
 31
0.0
  0
LINE
  5
   58D
  8
0
  6
CONTINUOUS
 62
     7
 10
193.613806751772
 20
12.7453039219539
 30
0.0
 11
193.697287962998
 21
12.1111959743425
 31
0.0
  0
LINE
  5
   58E
  8
0
  6
CONTINUOUS
 62
     7
 10
195.363806763291
 20
12.7453043926084
 30
0.0
 11
195.363806763291
 21
19.8053537108531
 31
0.0
  0
LINE
  5
   58F
  8
0
  6
CONTINUOUS
 62
     2
 10
193.613806793094
 20
17.0928537570467
 30
0.0
 11
195.363806763291
 21
17.0928537570467
 31
0.0
  0
LINE
  5
   590
  8
0
  6
CONTINUOUS
 62
     2
 10
193.613806793094
 20
14.8178537957897
 30
0.0
 11
195.363806763291
 21
14.8178537957897
 31
0.0
  0
ARC
  5
   591
  8
0
  6
CONTINUOUS
 62
     7
 10
196.063812331976
 20
12.7453063096893
 30
0.0
 40
0.700005518842679
 50
180.000053690574
 51
224.999736642428
  0
LINE
  5
   592
  8
0
  6
DASHDOT
 62
     2
 10
197.205437899299
 20
-0.494645943439977
 30
0.0
 11
201.001363606921
 21
-0.494645943439977
 31
0.0
  0
LINE
  5
   593
  8
0
  6
CONTINUOUS
 62
     2
 10
198.338806712628
 20
0.467854040168746
 30
0.0
 11
200.088806682825
 21
0.467854040168746
 31
0.0
  0
LINE
  5
   594
  8
0
  6
CONTINUOUS
 62
     2
 10
198.338806712628
 20
-1.4571459270487
 30
0.0
 11
200.088806682825
 21
-1.4571459270487
 31
0.0
  0
INSERT
  5
   595
  8
0
  6
CONTINUOUS
 62
     2
  2
*HATCH253
 10
186.438812255859
 20
34.855354309082
 30
0.0
 41
0.349999994039536
 42
0.349999994039536
 43
0.349999994039536
  0
INSERT
  5
   596
  8
0
  6
CONTINUOUS
 62
     2
  2
*HATCH254
 10
186.438812255859
 20
34.855354309082
 30
0.0
 41
0.349999994039536
 42
0.349999994039536
 43
0.349999994039536
  0
INSERT
  5
   597
  8
0
  6
CONTINUOUS
 62
     2
  2
*HATCH255
 10
186.438812255859
 20
34.855354309082
 30
0.0
 41
0.349999994039536
 42
0.349999994039536
 43
0.349999994039536
  0
LINE
  5
   598
  8
0
  6
CONTINUOUS
 62
     2
 10
195.643806758523
 20
13.5053538181414
 30
0.0
 11
195.643806758523
 21
18.4053537346949
 31
0.0
  0
LINE
  5
   599
  8
0
  6
CONTINUOUS
 62
     2
 10
195.363806763291
 20
18.4053537346949
 30
0.0
 11
195.643806758523
 21
18.4053537346949
 31
0.0
  0
LINE
  5
   59A
  8
0
  6
CONTINUOUS
 62
     2
 10
195.363806763291
 20
13.5053538181414
 30
0.0
 11
195.643806758523
 21
13.5053538181414
 31
0.0
  0
LINE
  5
   59B
  8
0
  6
CONTINUOUS
 62
     1
 10
197.74380672276
 20
14.2053538062205
 30
0.0
 11
197.74380672276
 21
17.7053537466159
 31
0.0
  0
LINE
  5
   59C
  8
0
  6
CONTINUOUS
 62
     1
 10
195.643806758523
 20
14.2053538062205
 30
0.0
 11
195.643806758523
 21
17.7053537466159
 31
0.0
  0
LINE
  5
   59D
  8
0
  6
CONTINUOUS
 62
     1
 10
194.593806776404
 20
14.9053537942996
 30
0.0
 11
194.593806776404
 21
17.0053537585368
 31
0.0
  0
LINE
  5
   59E
  8
0
  6
CONTINUOUS
 62
     1
 10
186.893806907535
 20
17.0053537585368
 30
0.0
 11
195.363806763291
 21
17.0053537585368
 31
0.0
  0
LINE
  5
   59F
  8
0
  6
CONTINUOUS
 62
     1
 10
186.893806907535
 20
14.9053537942996
 30
0.0
 11
195.363806763291
 21
14.9053537942996
 31
0.0
  0
LINE
  5
   5A0
  8
0
  6
CONTINUOUS
 62
     1
 10
195.643806758523
 20
17.7053537466159
 30
0.0
 11
197.74380672276
 21
17.7053537466159
 31
0.0
  0
LINE
  5
   5A1
  8
0
  6
CONTINUOUS
 62
     1
 10
195.643806758523
 20
14.2053538062205
 30
0.0
 11
197.74380672276
 21
14.2053538062205
 31
0.0
  0
LINE
  5
   5A2
  8
0
  6
CONTINUOUS
 62
     7
 10
186.893806907535
 20
16.7906532621931
 30
0.0
 11
194.593806821336
 21
16.7906532621931
 31
0.0
  0
LINE
  5
   5A3
  8
0
  6
CONTINUOUS
 62
     7
 10
186.893806907535
 20
15.1200542906433
 30
0.0
 11
194.593806821336
 21
15.1200542906433
 31
0.0
  0
LINE
  5
   5A4
  8
0
  6
DASHDOT
 62
     7
 10
191.443807163835
 20
15.9553537764182
 30
0.0
 11
198.408806711435
 21
15.9553537764182
 31
0.0
  0
LINE
  5
   5A5
  8
0
  6
CONTINUOUS
 62
     1
 10
186.893806907535
 20
14.9053537942996
 30
0.0
 11
186.893806907535
 21
17.0053552579337
 31
0.0
  0
LINE
  5
   5A6
  8
0
  6
CONTINUOUS
 62
     2
 10
193.613806793094
 20
11.7553547024727
 30
0.0
 11
193.613806793094
 21
14.9053537942996
 31
0.0
  0
LINE
  5
   5A7
  8
0
  6
DASHDOT
 62
     7
 10
192.511307479441
 20
148.605353231234
 30
0.0
 11
199.476307027042
 21
148.605353231234
 31
0.0
  0
LINE
  5
   5A8
  8
0
  6
DASHDOT
 62
   130
 10
185.563812270761
 20
35.5553596377372
 30
0.0
 11
185.563812270761
 21
112.292962809859
 31
0.0
  0
LINE
  5
   5A9
  8
0
  6
DASHDOT
 62
     7
 10
183.993126816091
 20
148.605350601986
 30
0.0
 11
198.892339255367
 21
148.605354666418
 31
0.0
  0
LINE
  5
   5AA
  8
0
  6
DASHDOT
 62
     2
 10
183.192081779143
 20
15.9553566194135
 30
0.0
 11
198.892339255367
 21
15.9553523364605
 31
0.0
  0
LINE
  5
   5AB
  8
0
  6
CONTINUOUS
 62
     3
 10
225.813790223002
 20
67.3178535865181
 30
0.0
 11
225.813790223002
 21
75.455342936516
 31
0.0
  0
LINE
  5
   5AC
  8
0
  6
CONTINUOUS
 62
     5
 10
193.631307126582
 20
144.755353296799
 30
0.0
 11
193.631307126582
 21
147.467853250605
 31
0.0
  0
LINE
  5
   5AD
  8
0
  6
CONTINUOUS
 62
     7
 10
198.338806712628
 20
-5.74464585403301
 30
0.0
 11
200.088806682825
 21
-5.74464585403301
 31
0.0
  0
LINE
  5
   5AE
  8
0
  6
DASHDOT
 62
     2
 10
197.205437899299
 20
-0.494645943439977
 30
0.0
 11
201.001363606921
 21
-0.494645943439977
 31
0.0
  0
LINE
  5
   5AF
  8
0
  6
CONTINUOUS
 62
     3
 10
185.913812306523
 20
63.7303591579198
 30
0.0
 11
185.913812306523
 21
68.2803590804338
 31
0.0
  0
LINE
  5
   5B0
  8
0
  6
CONTINUOUS
 62
   130
 10
185.563812604547
 20
149.655357694626
 30
0.0
 11
186.438812255859
 21
149.655357694626
 31
0.0
  0
LINE
  5
   5B1
  8
0
  6
CONTINUOUS
 62
   130
 10
185.563812604547
 20
146.155352413654
 30
0.0
 11
186.438812255859
 21
146.155352413654
 31
0.0
  0
LINE
  5
   5B2
  8
0
  6
CONTINUOUS
 62
   130
 10
185.563812604547
 20
146.155352413654
 30
0.0
 11
185.563812604547
 21
146.623186878343
 31
0.0
  0
LINE
  5
   5B3
  8
0
  6
CONTINUOUS
 62
   130
 10
185.563812604547
 20
146.6232189218
 30
0.0
 11
185.563812604547
 21
147.228060525269
 31
0.0
  0
LINE
  5
   5B4
  8
0
  6
CONTINUOUS
 62
   130
 10
185.563812604547
 20
147.228103249878
 30
0.0
 11
185.563812604547
 21
149.65535736084
 31
0.0
  0
LINE
  5
   5B5
  8
0
  6
CONTINUOUS
 62
     3
 10
186.08881226182
 20
35.5553593039512
 30
0.0
 11
186.438812234998
 21
35.5553593039512
 31
0.0
  0
LINE
  5
   5B6
  8
0
  6
CONTINUOUS
 62
     3
 10
186.08881226182
 20
63.9775530624015
 30
0.0
 11
186.08881226182
 21
68.2803590804338
 31
0.0
  0
LINE
  5
   5B7
  8
0
  6
CONTINUOUS
 62
   130
 10
186.08881226182
 20
141.080357847401
 30
0.0
 11
188.888812214136
 21
141.080315122792
 31
0.0
  0
LINE
  5
   5B8
  8
0
  6
CONTINUOUS
 62
   130
 10
186.438811621232
 20
141.291108797799
 30
0.0
 11
186.438812309665
 21
141.08034296277
 31
0.0
  0
LINE
  5
   5B9
  8
0
  6
CONTINUOUS
 62
   130
 10
186.438812255859
 20
141.080352500081
 30
0.0
 11
186.438812255859
 21
153.330352291465
 31
0.0
  0
LINE
  5
   5BA
  8
0
  6
CONTINUOUS
 62
     3
 10
186.438812234998
 20
35.5553593039512
 30
0.0
 11
202.001240253663
 21
35.5553593039512
 31
0.0
  0
LINE
  5
   5BB
  8
0
  6
CONTINUOUS
 62
     3
 10
186.08881094025
 20
58.5835309606949
 30
0.0
 11
186.438812255859
 21
58.6773102762061
 31
0.0
  0
LINE
  5
   5BC
  8
0
  6
CONTINUOUS
 62
     3
 10
186.088814839416
 20
63.9775480970681
 30
0.0
 11
188.970618365656
 21
63.2053436973557
 31
0.0
  0
LINE
  5
   5BD
  8
0
  6
CONTINUOUS
 62
     3
 10
187.313789810537
 20
63.2053437268307
 30
0.0
 11
219.233789266943
 21
63.2053588844243
 31
0.0
  0
LINE
  5
   5BE
  8
0
  6
CONTINUOUS
 62
     3
 10
187.313789810537
 20
59.3553331112105
 30
0.0
 11
219.233789266943
 21
59.3553482679513
 31
0.0
  0
LINE
  5
   5BF
  8
0
  6
CONTINUOUS
 62
     3
 10
186.438812255859
 20
58.6772929903109
 30
0.0
 11
186.438812255859
 21
63.7303591579198
 31
0.0
  0
LINE
  5
   5C0
  8
0
  6
DASHDOT
 62
   130
 10
185.563812270761
 20
21.7303545325995
 30
0.0
 11
185.563812270761
 21
160.592961987315
 31
0.0
  0
LINE
  5
   5C1
  8
0
  6
CONTINUOUS
 62
     3
 10
185.563812270761
 20
40.8053595483302
 30
0.0
 11
186.088811928034
 21
40.8053595483302
 31
0.0
  0
LINE
  5
   5C2
  8
0
  6
CONTINUOUS
 62
     3
 10
185.563812382022
 20
35.5553596377372
 30
0.0
 11
186.088812373082
 21
35.5553593039512
 31
0.0
  0
LINE
  5
   5C3
  8
0
  6
CONTINUOUS
 62
     3
 10
202.001231832433
 20
35.5553577109128
 30
0.0
 11
202.188792849408
 21
34.8553580875652
 31
0.0
  0
LINE
  5
   5C4
  8
0
  6
CONTINUOUS
 62
     3
 10
202.013806650043
 20
34.8553596496581
 30
0.0
 11
213.388790434599
 21
34.8553596496581
 31
0.0
  0
LINE
  5
   5C5
  8
0
  6
CONTINUOUS
 62
     3
 10
211.463790467382
 20
59.2678378716114
 30
0.0
 11
211.463790467382
 21
59.3553485512734
 31
0.0
  0
LINE
  5
   5C6
  8
0
  6
CONTINUOUS
 62
     3
 10
211.463790467382
 20
63.2053591668605
 30
0.0
 11
211.463790467382
 21
63.2928378030661
 31
0.0
  0
LINE
  5
   5C7
  8
0
  6
CONTINUOUS
 62
     3
 10
211.463790467382
 20
63.2928378030661
 30
0.0
 11
219.233789266943
 21
63.2928378030661
 31
0.0
  0
LINE
  5
   5C8
  8
0
  6
CONTINUOUS
 62
     3
 10
211.463787068712
 20
59.2678359309004
 30
0.0
 11
219.233789266943
 21
59.2677928181194
 31
0.0
  0
LINE
  5
   5C9
  8
0
  6
CONTINUOUS
 62
     3
 10
185.913812598586
 20
68.2803590804338
 30
0.0
 11
186.088812929392
 21
68.2803590804338
 31
0.0
  0
LINE
  5
   5CA
  8
0
  6
CONTINUOUS
 62
     3
 10
185.913812577724
 20
63.7303591579198
 30
0.0
 11
186.438812234998
 21
63.7303591579198
 31
0.0
  0
LINE
  5
   5CB
  8
0
  6
CONTINUOUS
 62
     3
 10
221.088790303468
 20
35.2053436219694
 30
0.0
 11
221.088790303468
 21
42.8178434923293
 31
0.0
  0
LINE
  5
   5CC
  8
0
  6
CONTINUOUS
 62
     3
 10
221.088790303468
 20
96.9103532522917
 30
0.0
 11
221.088790303468
 21
144.755336415768
 31
0.0
  0
LINE
  5
   5CD
  8
0
  6
CONTINUOUS
 62
     7
 10
219.33879033327
 20
96.4553372383121
 30
0.0
 11
221.088790303468
 21
96.4553372383121
 31
0.0
  0
LINE
  5
   5CE
  8
0
  6
CONTINUOUS
 62
     3
 10
220.213806607127
 20
34.8553436279299
 30
0.0
 11
220.738790309428
 21
34.8553436279299
 31
0.0
  0
LINE
  5
   5CF
  8
0
  6
CONTINUOUS
 62
     3
 10
221.788790291547
 20
42.8178434923293
 30
0.0
 11
221.788790291547
 21
79.5678375259045
 31
0.0
  0
LINE
  5
   5D0
  8
0
  6
CONTINUOUS
 62
     3
 10
221.088790303468
 20
42.8178434923293
 30
0.0
 11
221.788790291547
 21
42.8178434923293
 31
0.0
  0
LINE
  5
   5D1
  8
0
  6
CONTINUOUS
 62
     3
 10
221.088790303468
 20
79.5678375259045
 30
0.0
 11
221.788790291547
 21
79.5678375259045
 31
0.0
  0
LINE
  5
   5D2
  8
0
  6
CONTINUOUS
 62
     3
 10
212.338790452479
 20
69.6803517583178
 30
0.0
 11
212.338790452479
 21
94.2634902006661
 31
0.0
  0
LINE
  5
   5D3
  8
0
  6
CONTINUOUS
 62
     3
 10
212.338789610358
 20
69.6803518986757
 30
0.0
 11
213.388789893991
 21
69.5053465852006
 31
0.0
  0
LINE
  5
   5D4
  8
0
  6
CONTINUOUS
 62
     3
 10
212.338790119387
 20
69.6803493212788
 30
0.0
 11
212.338790453173
 21
69.8553439778854
 31
0.0
  0
LINE
  5
   5D5
  8
0
  6
CONTINUOUS
 62
     3
 10
207.727842977233
 20
152.280346555164
 30
0.0
 11
219.233789266943
 21
152.280336908634
 31
0.0
  0
LINE
  5
   5D6
  8
0
  6
CONTINUOUS
 62
     3
 10
213.388790434598
 20
153.330352291465
 30
0.0
 11
220.038790321349
 21
153.330352291465
 31
0.0
  0
LINE
  5
   5D7
  8
0
  6
CONTINUOUS
 62
     3
 10
213.388790434598
 20
34.8553596496581
 30
0.0
 11
219.338784992694
 21
34.8553596496581
 31
0.0
  0
LINE
  5
   5D8
  8
0
  6
CONTINUOUS
 62
     3
 10
213.388790434598
 20
35.5553542971611
 30
0.0
 11
219.233789266943
 21
35.5553542971611
 31
0.0
  0
LINE
  5
   5D9
  8
0
  6
CONTINUOUS
 62
     3
 10
213.388790434598
 20
34.8553596496581
 30
0.0
 11
213.388790434598
 21
59.2678252497904
 31
0.0
  0
LINE
  5
   5DA
  8
0
  6
CONTINUOUS
 62
     3
 10
220.038790321349
 20
153.330352291465
 30
0.0
 11
220.213790318369
 21
153.330352291465
 31
0.0
  0
LINE
  5
   5DB
  8
0
  6
CONTINUOUS
 62
     3
 10
220.213790318369
 20
144.755352437496
 30
0.0
 11
220.213790318369
 21
153.330352291465
 31
0.0
  0
LINE
  5
   5DC
  8
0
  6
CONTINUOUS
 62
     3
 10
219.233789266943
 20
63.2928378030661
 30
0.0
 11
219.233789266943
 21
152.280336908634
 31
0.0
  0
LINE
  5
   5DD
  8
0
  6
CONTINUOUS
 62
     3
 10
219.233789266943
 20
35.5553542971611
 30
0.0
 11
219.233789266943
 21
59.2677928181194
 31
0.0
  0
LINE
  5
   5DE
  8
0
  6
CONTINUOUS
 62
     3
 10
221.788790291547
 20
42.8178434923293
 30
0.0
 11
223.013790270685
 21
42.8178434923293
 31
0.0
  0
LINE
  5
   5DF
  8
0
  6
CONTINUOUS
 62
     3
 10
221.788790291547
 20
79.5678375259045
 30
0.0
 11
223.013790270685
 21
79.5678375259045
 31
0.0
  0
LINE
  5
   5E0
  8
0
  6
CONTINUOUS
 62
     3
 10
225.813790223002
 20
42.8178434923293
 30
0.0
 11
225.813790223002
 21
45.9678576217525
 31
0.0
  0
LINE
  5
   5E1
  8
0
  6
CONTINUOUS
 62
     3
 10
225.813790223002
 20
78.7803321987394
 30
0.0
 11
225.813790223002
 21
79.5678375259045
 31
0.0
  0
LINE
  5
   5E2
  8
0
  6
CONTINUOUS
 62
     3
 10
220.738790309428
 20
96.4553479194642
 30
0.0
 11
221.088790303468
 21
96.4553479194642
 31
0.0
  0
LINE
  5
   5E3
  8
0
  6
CONTINUOUS
 62
     3
 10
221.088790303468
 20
79.5678482070566
 30
0.0
 11
221.788790291547
 21
79.5678482070566
 31
0.0
  0
LINE
  5
   5E4
  8
0
  6
CONTINUOUS
 62
     3
 10
225.813790223002
 20
75.455342936516
 30
0.0
 11
225.813790223002
 21
78.7803428798916
 31
0.0
  0
LINE
  5
   5E5
  8
0
  6
CONTINUOUS
 62
     3
 10
219.33879033327
 20
34.8553436279299
 30
0.0
 11
219.33879033327
 21
96.4553372383121
 31
0.0
  0
LINE
  5
   5E6
  8
0
  6
CONTINUOUS
 62
     3
 10
219.233790902417
 20
55.3128386820417
 30
0.0
 11
219.338791965319
 21
55.2943249124882
 31
0.0
  0
LINE
  5
   5E7
  8
0
  6
CONTINUOUS
 62
     3
 10
219.233791178812
 20
35.5553596508276
 30
0.0
 11
219.338786899098
 21
35.4862632817106
 31
0.0
  0
LINE
  5
   5E8
  8
0
  6
CONTINUOUS
 62
     3
 10
219.233787542437
 20
67.2478419782051
 30
0.0
 11
219.338788605068
 21
67.2663577540042
 31
0.0
  0
LINE
  5
   5E9
  8
0
  6
CONTINUOUS
 62
     3
 10
219.233787811609
 20
141.89297157441
 30
0.0
 11
219.338783531472
 21
141.848270958707
 31
0.0
  0
LINE
  5
   5EA
  8
0
  6
CONTINUOUS
 62
     3
 10
219.233793520182
 20
143.41773310385
 30
0.0
 11
219.338789245464
 21
143.462428379265
 31
0.0
  0
LINE
  5
   5EB
  8
0
  6
CONTINUOUS
 62
     2
 10
185.563812270761
 20
14.9053546488283
 30
0.0
 11
186.263806918264
 21
14.9053546488283
 31
0.0
  0
LINE
  5
   5EC
  8
0
  6
CONTINUOUS
 62
     2
 10
185.563812270761
 20
14.9053546488283
 30
0.0
 11
185.563812270761
 21
21.7303545325995
 31
0.0
  0
LINE
  5
   5ED
  8
0
  6
CONTINUOUS
 62
     3
 10
195.608807147891
 20
12.2103544276951
 30
0.0
 11
219.233805288673
 21
12.2103544276951
 31
0.0
  0
LINE
  5
   5EE
  8
0
  6
CONTINUOUS
 62
     2
 10
186.263806918264
 20
11.2303547114134
 30
0.0
 11
193.631307126582
 21
11.2303547114134
 31
0.0
  0
LINE
  5
   5EF
  8
0
  6
CONTINUOUS
 62
     2
 10
196.588806368525
 20
11.2303547114142
 30
0.0
 11
220.213806340099
 21
11.2303547114142
 31
0.0
  0
LINE
  5
   5F0
  8
0
  6
CONTINUOUS
 62
     3
 10
185.563806930184
 20
35.3803543001411
 30
0.0
 11
202.013806650043
 21
35.3803543001411
 31
0.0
  0
LINE
  5
   5F1
  8
0
  6
CONTINUOUS
 62
     2
 10
220.213806340099
 20
11.2303547114132
 30
0.0
 11
220.213806340099
 21
19.6303492277859
 31
0.0
  0
LINE
  5
   5F2
  8
0
  6
CONTINUOUS
 62
     3
 10
185.563806930184
 20
10.1803514878087
 30
0.0
 11
185.563806930184
 21
35.3803543001411
 31
0.0
  0
LINE
  5
   5F3
  8
0
  6
CONTINUOUS
 62
     2
 10
219.233806623817
 20
19.6303492277859
 30
0.0
 11
220.213806340099
 21
19.6303492277859
 31
0.0
  0
LINE
  5
   5F4
  8
0
  6
CONTINUOUS
 62
     3
 10
219.233806623817
 20
12.2103557628391
 30
0.0
 11
219.233806623817
 21
19.6303492277859
 31
0.0
  0
LINE
  5
   5F5
  8
0
  6
CONTINUOUS
 62
     3
 10
202.013806650043
 20
34.8553489685057
 30
0.0
 11
202.013806650043
 21
35.3803543001411
 31
0.0
  0
LINE
  5
   5F6
  8
0
  6
CONTINUOUS
 62
     2
 10
219.233806623817
 20
21.0303492039441
 30
0.0
 11
219.233806623817
 21
34.8553489685057
 31
0.0
  0
LINE
  5
   5F7
  8
0
  6
CONTINUOUS
 62
     2
 10
186.263806918264
 20
11.2303547114142
 30
0.0
 11
186.263806918264
 21
14.9053546488283
 31
0.0
  0
LINE
  5
   5F8
  8
0
  6
CONTINUOUS
 62
     7
 10
221.088806592226
 20
21.0303490342133
 30
0.0
 11
221.088806592226
 21
34.6803488017552
 31
0.0
  0
LINE
  5
   5F9
  8
0
  6
CONTINUOUS
 62
     7
 10
219.233806623817
 20
34.6803488017552
 30
0.0
 11
220.213806607127
 21
34.6803488017552
 31
0.0
  0
LINE
  5
   5FA
  8
0
  6
CONTINUOUS
 62
     7
 10
219.233806623817
 20
21.0303490342133
 30
0.0
 11
221.088806592226
 21
21.0303490342133
 31
0.0
  0
LINE
  5
   5FB
  8
0
  6
CONTINUOUS
 62
     7
 10
220.213806607127
 20
21.0303490342133
 30
0.0
 11
220.213806607127
 21
34.6803488017552
 31
0.0
  0
LINE
  5
   5FC
  8
0
  6
CONTINUOUS
 62
   130
 10
238.891260015886
 20
46.4960974674531
 30
0.0
 11
239.781186362974
 21
49.1792790139447
 31
0.0
  0
LINE
  5
   5FD
  8
0
  6
CONTINUOUS
 62
   130
 10
230.2038990291
 20
48.6540997862274
 30
0.0
 11
238.461972183914
 21
46.2700128447712
 31
0.0
  0
LINE
  5
   5FE
  8
0
  6
CONTINUOUS
 62
   130
 10
231.526084638841
 20
52.6405542524915
 30
0.0
 11
239.572087234593
 21
49.6170956596721
 31
0.0
  0
LINE
  5
   5FF
  8
0
  6
CONTINUOUS
 62
   130
 10
225.813790223002
 20
54.5351416147831
 30
0.0
 11
231.526080027115
 21
52.6405559854469
 31
0.0
  0
LINE
  5
   600
  8
0
  6
CONTINUOUS
 62
   130
 10
225.813790223002
 20
50.1101600790931
 30
0.0
 11
230.203904365414
 21
48.6540982456455
 31
0.0
  0
ARC
  5
   601
  8
0
  6
CONTINUOUS
 62
   130
 10
238.55905707356
 20
46.6062757581204
 30
0.0
 40
0.349990964861241
 50
253.896746069851
 51
341.65100647314
  0
ARC
  5
   602
  8
0
  6
CONTINUOUS
 62
   130
 10
239.448986611652
 20
49.2894618933492
 30
0.0
 40
0.349991035761385
 50
341.650951831627
 51
429.405209888843
  0
ARC
  5
   603
  8
0
  6
CONTINUOUS
 62
     7
 10
204.301223786072
 20
59.4576880428115
 30
0.0
 40
36.9117268438413
 50
327.264349717579
 51
356.916833212326
  0
LINE
  5
   604
  8
0
  6
CONTINUOUS
 62
     3
 10
213.388790434598
 20
63.2928378030661
 30
0.0
 11
213.388790434598
 21
69.5053323566917
 31
0.0
  0
LINE
  5
   605
  8
0
  6
CONTINUOUS
 62
     3
 10
219.233789266943
 20
59.3553482679513
 30
0.0
 11
219.233789266943
 21
63.2053588844243
 31
0.0
  0
LINE
  5
   606
  8
0
  6
CONTINUOUS
 62
     3
 10
187.313789810537
 20
59.3553482679513
 30
0.0
 11
187.313789810537
 21
63.2053437268307
 31
0.0
  0
LINE
  5
   607
  8
0
  6
CONTINUOUS
 62
     3
 10
193.507770196433
 20
140.034122767266
 30
0.0
 11
193.631312300737
 21
140.734765077613
 31
0.0
  0
LINE
  5
   608
  8
0
  6
CONTINUOUS
 62
     3
 10
193.631307126582
 20
140.734756832911
 30
0.0
 11
193.631307126582
 21
147.555353249115
 31
0.0
  0
LINE
  5
   609
  8
0
  6
CONTINUOUS
 62
     3
 10
190.481312237006
 20
152.805352300406
 30
0.0
 11
193.631311944253
 21
152.80535315971
 31
0.0
  0
LINE
  5
   60A
  8
0
  6
CONTINUOUS
 62
     3
 10
190.318433956138
 20
140.034122767266
 30
0.0
 11
190.48131258804
 21
140.957853681551
 31
0.0
  0
LINE
  5
   60B
  8
0
  6
CONTINUOUS
 62
     7
 10
184.735874120017
 20
140.034122767266
 30
0.0
 11
205.084773094953
 21
140.034122767266
 31
0.0
  0
LINE
  5
   60C
  8
0
  6
CONTINUOUS
 62
     7
 10
205.084773094953
 20
140.034122767266
 30
0.0
 11
208.275847916515
 21
154.819436107168
 31
0.0
  0
LINE
  5
   60D
  8
0
  6
CONTINUOUS
 62
     7
 10
186.438812255859
 20
142.655352473259
 30
0.0
 11
190.481312187016
 21
142.655352473259
 31
0.0
  0
LINE
  5
   60E
  8
0
  6
CONTINUOUS
 62
     7
 10
193.631307126582
 20
142.655352473259
 30
0.0
 11
205.650506125024
 21
142.655352473259
 31
0.0
  0
LINE
  5
   60F
  8
0
  6
CONTINUOUS
 62
     7
 10
193.981307120621
 20
144.405352443457
 30
0.0
 11
206.028203960318
 21
144.405352443457
 31
0.0
  0
LINE
  5
   610
  8
0
  6
CONTINUOUS
 62
     7
 10
193.981307120621
 20
143.880352452397
 30
0.0
 11
193.981307120621
 21
144.405352443457
 31
0.0
  0
LINE
  5
   611
  8
0
  6
CONTINUOUS
 62
     7
 10
195.731307090819
 20
142.655352473259
 30
0.0
 11
195.731307090819
 21
143.355352461338
 31
0.0
  0
LINE
  5
   612
  8
0
  6
CONTINUOUS
 62
     7
 10
193.981307120621
 20
143.880352452397
 30
0.0
 11
195.731307090819
 21
143.355352461338
 31
0.0
  0
LINE
  5
   613
  8
0
  6
CONTINUOUS
 62
     7
 10
188.888812214136
 20
141.080315122792
 30
0.0
 11
189.238812208176
 21
142.655352473259
 31
0.0
  0
LINE
  5
   614
  8
0
  6
CONTINUOUS
 62
     7
 10
189.938812196255
 20
142.655352473259
 30
0.0
 11
190.408184836837
 21
140.543125465275
 31
0.0
  0
INSERT
  5
   615
  8
0
  6
CONTINUOUS
 62
     7
  2
*HATCH256
 10
186.438812255859
 20
34.855354309082
 30
0.0
 41
0.349999994039536
 42
0.349999994039536
 43
0.349999994039536
  0
INSERT
  5
   616
  8
0
  6
CONTINUOUS
 62
     7
  2
*HATCH257
 10
186.438812255859
 20
34.855354309082
 30
0.0
 41
0.349999994039536
 42
0.349999994039536
 43
0.349999994039536
  0
LINE
  5
   617
  8
0
  6
CONTINUOUS
 62
     7
 10
186.456313496391
 20
145.280351664341
 30
0.0
 11
190.48131309406
 21
145.280352762341
 31
0.0
  0
LINE
  5
   618
  8
0
  6
CONTINUOUS
 62
     7
 10
190.481311185658
 20
150.76334404448
 30
0.0
 11
190.481311185658
 21
152.980346684642
 31
0.0
  0
LINE
  5
   619
  8
0
  6
CONTINUOUS
 62
     3
 10
190.481312187016
 20
140.957851407233
 30
0.0
 11
190.481312187016
 21
146.444058949799
 31
0.0
  0
LINE
  5
   61A
  8
0
  6
CONTINUOUS
 62
     7
 10
190.481312187016
 20
150.180351343751
 30
0.0
 11
190.481312187016
 21
150.763344316687
 31
0.0
  0
LINE
  5
   61B
  8
0
  6
CONTINUOUS
 62
     7
 10
190.481312187016
 20
146.444058949799
 30
0.0
 11
190.481312187016
 21
147.030354401469
 31
0.0
  0
LINE
  5
   61C
  8
0
  6
CONTINUOUS
 62
     7
 10
190.481311105246
 20
152.980345510862
 30
0.0
 11
191.006310762518
 21
152.980350994655
 31
0.0
  0
LINE
  5
   61D
  8
0
  6
CONTINUOUS
 62
     7
 10
191.006304834781
 20
152.980348435149
 30
0.0
 11
191.006304834781
 21
153.330343088613
 31
0.0
  0
LINE
  5
   61E
  8
0
  6
CONTINUOUS
 62
     7
 10
186.456311300395
 20
153.330351527256
 30
0.0
 11
191.00631122291
 21
153.330347427898
 31
0.0
  0
LINE
  5
   61F
  8
0
  6
CONTINUOUS
 62
     7
 10
187.156311479428
 20
152.630346389552
 30
0.0
 11
190.481310755231
 21
152.630347296595
 31
0.0
  0
LINE
  5
   620
  8
0
  6
CONTINUOUS
 62
     7
 10
187.156313167017
 20
146.444058042755
 30
0.0
 11
190.48131244282
 21
146.444058949799
 31
0.0
  0
LINE
  5
   621
  8
0
  6
CONTINUOUS
 62
     7
 10
187.156313293513
 20
145.980351843377
 30
0.0
 11
190.481312569317
 21
145.98035275042
 31
0.0
  0
LINE
  5
   622
  8
0
  6
CONTINUOUS
 62
     7
 10
187.156311987836
 20
150.766645220805
 30
0.0
 11
190.48131126364
 21
150.766646127849
 31
0.0
  0
LINE
  5
   623
  8
0
  6
CONTINUOUS
 62
     7
 10
187.156312577427
 20
150.763343743429
 30
0.0
 11
187.156312577427
 21
152.630346389552
 31
0.0
  0
LINE
  5
   624
  8
0
  6
CONTINUOUS
 62
     7
 10
187.156312911212
 20
145.980351679679
 30
0.0
 11
187.156312911212
 21
146.444059547987
 31
0.0
  0
LINE
  5
   625
  8
0
  6
CONTINUOUS
 62
     7
 10
186.806312562525
 20
147.380351724057
 30
0.0
 11
186.806312562525
 21
149.830351348547
 31
0.0
  0
LINE
  5
   626
  8
0
  6
CONTINUOUS
 62
     7
 10
187.156312243641
 20
149.830351444026
 30
0.0
 11
187.156312243641
 21
150.005351441045
 31
0.0
  0
LINE
  5
   627
  8
0
  6
CONTINUOUS
 62
     7
 10
187.156312243641
 20
147.205351822515
 30
0.0
 11
187.156312243641
 21
147.380354489823
 31
0.0
  0
LINE
  5
   628
  8
0
  6
CONTINUOUS
 62
   210
 10
190.481312242096
 20
147.030352402398
 30
0.0
 11
190.656312185387
 21
147.205352441167
 31
0.0
  0
LINE
  5
   629
  8
0
  6
CONTINUOUS
 62
   210
 10
190.656312184036
 20
147.205352777298
 30
0.0
 11
190.656312184036
 21
147.555352771337
 31
0.0
  0
LINE
  5
   62A
  8
0
  6
CONTINUOUS
 62
   210
 10
187.156312530075
 20
147.555351816555
 30
0.0
 11
190.65631247047
 21
147.555352771337
 31
0.0
  0
LINE
  5
   62B
  8
0
  6
CONTINUOUS
 62
   210
 10
187.156312243641
 20
147.380351819535
 30
0.0
 11
187.156312243641
 21
147.555351816555
 31
0.0
  0
LINE
  5
   62C
  8
0
  6
CONTINUOUS
 62
   210
 10
190.656312184036
 20
149.655352401789
 30
0.0
 11
190.656312184036
 21
150.005352395828
 31
0.0
  0
LINE
  5
   62D
  8
0
  6
CONTINUOUS
 62
   210
 10
190.481311203674
 20
150.180351864729
 30
0.0
 11
190.656311242443
 21
150.005351921438
 31
0.0
  0
LINE
  5
   62E
  8
0
  6
CONTINUOUS
 62
   210
 10
187.156312243641
 20
149.655351447006
 30
0.0
 11
187.156312243641
 21
149.830351444026
 31
0.0
  0
LINE
  5
   62F
  8
0
  6
CONTINUOUS
 62
   210
 10
187.156311957206
 20
149.655351447006
 30
0.0
 11
190.656311897601
 21
149.655352401789
 31
0.0
  0
LINE
  5
   630
  8
0
  6
CONTINUOUS
 62
     7
 10
187.156313170171
 20
146.432494360396
 30
0.0
 11
190.481312445975
 21
146.43249526744
 31
0.0
  0
LINE
  5
   631
  8
0
  6
CONTINUOUS
 62
   210
 10
187.331312670312
 20
147.030351873235
 30
0.0
 11
190.481312616668
 21
147.030352732539
 31
0.0
  0
LINE
  5
   632
  8
0
  6
CONTINUOUS
 62
   210
 10
187.156312308781
 20
147.205351528314
 30
0.0
 11
187.33131234755
 21
147.030351585023
 31
0.0
  0
LINE
  5
   633
  8
0
  6
CONTINUOUS
 62
   210
 10
186.806312896699
 20
147.380351724057
 30
0.0
 11
187.156312577814
 21
147.380351819535
 31
0.0
  0
LINE
  5
   634
  8
0
  6
CONTINUOUS
 62
   210
 10
186.806312228351
 20
149.830351348547
 30
0.0
 11
187.156311909467
 21
149.830351444026
 31
0.0
  0
LINE
  5
   635
  8
0
  6
CONTINUOUS
 62
   210
 10
187.15631148805
 20
150.005351160748
 30
0.0
 11
187.33131143134
 21
150.180351199517
 31
0.0
  0
LINE
  5
   636
  8
0
  6
CONTINUOUS
 62
   210
 10
187.331311811008
 20
150.180351485804
 30
0.0
 11
190.481311757364
 21
150.180352345109
 31
0.0
  0
LINE
  5
   637
  8
0
  6
CONTINUOUS
 62
   210
 10
187.156312322523
 20
150.763343409643
 30
0.0
 11
190.481311598326
 21
150.763344316687
 31
0.0
  0
LINE
  5
   638
  8
0
  6
CONTINUOUS
 62
   130
 10
191.006304834781
 20
153.330352291465
 30
0.0
 11
194.138296671252
 21
153.330352291465
 31
0.0
  0
INSERT
  5
   639
  8
0
  6
CONTINUOUS
 62
     2
  2
*HATCH258
 10
186.438812255859
 20
34.855354309082
 30
0.0
 41
0.349999994039536
 42
0.349999994039536
 43
0.349999994039536
  0
INSERT
  5
   63A
  8
0
  6
CONTINUOUS
 62
     2
  2
*HATCH259
 10
186.438812255859
 20
34.855354309082
 30
0.0
 41
0.349999994039536
 42
0.349999994039536
 43
0.349999994039536
  0
INSERT
  5
   63B
  8
0
  6
CONTINUOUS
 62
     2
  2
*HATCH260
 10
186.438812255859
 20
34.855354309082
 30
0.0
 41
0.349999994039536
 42
0.349999994039536
 43
0.349999994039536
  0
INSERT
  5
   63C
  8
0
  6
CONTINUOUS
 62
     2
  2
*HATCH261
 10
186.438812255859
 20
34.855354309082
 30
0.0
 41
0.349999994039536
 42
0.349999994039536
 43
0.349999994039536
  0
INSERT
  5
   63D
  8
0
  6
CONTINUOUS
 62
     2
  2
*HATCH262
 10
186.438812255859
 20
34.855354309082
 30
0.0
 41
0.349999994039536
 42
0.349999994039536
 43
0.349999994039536
  0
LINE
  5
   63E
  8
0
  6
CONTINUOUS
 62
     7
 10
241.212950629914
 20
51.1083306478558
 30
0.0
 11
241.212950629914
 21
59.4576880428115
 31
0.0
  0
LINE
  5
   63F
  8
0
  6
DASHDOT
 62
     7
 10
184.513806948066
 20
10.1803514878087
 30
0.0
 11
184.513806948066
 21
160.447541305999
 31
0.0
  0
LINE
  5
   640
  8
0
  6
CONTINUOUS
 62
     3
 10
186.438812255859
 20
58.6773102762061
 30
0.0
 11
188.969342408244
 21
59.3553402577732
 31
0.0
  0
LINE
  5
   641
  8
0
  6
CONTINUOUS
 62
     3
 10
186.438812255859
 20
63.7303591579198
 30
0.0
 11
186.438812255859
 21
63.8837672058444
 31
0.0
  0
LINE
  5
   642
  8
0
  6
CONTINUOUS
 62
     3
 10
186.08881226182
 20
103.980353131891
 30
0.0
 11
186.08881226182
 21
140.034122767266
 31
0.0
  0
LINE
  5
   643
  8
0
  6
CONTINUOUS
 62
     3
 10
186.08881226182
 20
40.8053595483302
 30
0.0
 11
186.08881226182
 21
58.5835284960581
 31
0.0
  0
LINE
  5
   644
  8
0
  6
CONTINUOUS
 62
     2
 10
219.233806623817
 20
19.6303492277859
 30
0.0
 11
219.233806623817
 21
21.0303492039441
 31
0.0
  0
LINE
  5
   645
  8
0
  6
CONTINUOUS
 62
     7
 10
190.463806846738
 20
20.1553545594215
 30
0.0
 11
204.175686590605
 21
20.1553545594215
 31
0.0
  0
LINE
  5
   646
  8
0
  6
CONTINUOUS
 62
     7
 10
185.563806930184
 20
21.7303545325995
 30
0.0
 11
190.463806846738
 21
21.7303545325995
 31
0.0
  0
LINE
  5
   647
  8
0
  6
CONTINUOUS
 62
     7
 10
190.463806846738
 20
20.1553545594215
 30
0.0
 11
190.463806846738
 21
21.7303545325995
 31
0.0
  0
LINE
  5
   648
  8
0
  6
CONTINUOUS
 62
     7
 10
190.463806846738
 20
11.7553547024727
 30
0.0
 11
192.563806810975
 21
11.7553547024727
 31
0.0
  0
LINE
  5
   649
  8
0
  6
CONTINUOUS
 62
     7
 10
192.563806810975
 20
11.7553547024727
 30
0.0
 11
192.563806810975
 21
14.8178540822245
 31
0.0
  0
LINE
  5
   64A
  8
0
  6
CONTINUOUS
 62
     7
 10
190.463806846738
 20
11.5803616748537
 30
0.0
 11
190.463806846738
 21
14.3628497948961
 31
0.0
  0
LINE
  5
   64B
  8
0
  6
CONTINUOUS
 62
     7
 10
192.563806810975
 20
11.7553547024727
 30
0.0
 11
193.613806793094
 21
11.7553547024727
 31
0.0
  0
LINE
  5
   64C
  8
0
  6
CONTINUOUS
 62
     7
 10
185.048342578441
 20
22.3142038848123
 30
0.0
 11
204.021483067363
 21
22.3142038848123
 31
0.0
  0
LINE
  5
   64D
  8
0
  6
CONTINUOUS
 62
     7
 10
187.156311479428
 20
11.9303606133264
 30
0.0
 11
190.463806846738
 21
11.930359711058
 31
0.0
  0
LINE
  5
   64E
  8
0
  6
CONTINUOUS
 62
     7
 10
190.481311105246
 20
11.580361492016
 30
0.0
 11
191.006310762518
 21
11.580356008223
 31
0.0
  0
LINE
  5
   64F
  8
0
  6
CONTINUOUS
 62
     7
 10
191.006304834781
 20
11.2303639142654
 30
0.0
 11
191.006304834781
 21
11.5803585677288
 31
0.0
  0
LINE
  5
   650
  8
0
  6
CONTINUOUS
 62
     7
 10
187.156312577427
 20
11.9303606133264
 30
0.0
 11
187.156312577427
 21
13.797363259449
 31
0.0
  0
LINE
  5
   651
  8
0
  6
CONTINUOUS
 62
     7
 10
187.156312322523
 20
13.7973635932349
 30
0.0
 11
190.463806846738
 21
13.7973626909667
 31
0.0
  0
LINE
  5
   652
  8
0
  6
CONTINUOUS
 62
     7
 10
187.331311811008
 20
14.380355517074
 30
0.0
 11
190.481311757364
 21
14.3803546577695
 31
0.0
  0
LINE
  5
   653
  8
0
  6
CONTINUOUS
 62
     7
 10
190.656312184036
 20
14.5553546070501
 30
0.0
 11
190.656312184036
 21
14.9053546010896
 31
0.0
  0
LINE
  5
   654
  8
0
  6
CONTINUOUS
 62
     7
 10
187.156311957206
 20
14.9053555558724
 30
0.0
 11
190.656311897601
 21
14.9053546010896
 31
0.0
  0
LINE
  5
   655
  8
0
  6
CONTINUOUS
 62
     7
 10
187.331311811008
 20
14.380355517074
 30
0.0
 11
190.481311757364
 21
14.3803546577695
 31
0.0
  0
LINE
  5
   656
  8
0
  6
CONTINUOUS
 62
     7
 10
187.15631148805
 20
14.5553558421304
 30
0.0
 11
187.33131143134
 21
14.3803558033615
 31
0.0
  0
LINE
  5
   657
  8
0
  6
CONTINUOUS
 62
     7
 10
187.156312243641
 20
14.5553550865391
 30
0.0
 11
187.156312243641
 21
14.9053537942996
 31
0.0
  0
LINE
  5
   658
  8
0
  6
CONTINUOUS
 62
     7
 10
186.806312228351
 20
14.7303556543308
 30
0.0
 11
187.156311909467
 21
14.7303555588526
 31
0.0
  0
LINE
  5
   659
  8
0
  6
CONTINUOUS
 62
     7
 10
186.806312562525
 20
14.7303556543308
 30
0.0
 11
186.806312562525
 21
17.1803552788215
 31
0.0
  0
INSERT
  5
   65A
  8
0
  6
CONTINUOUS
 62
     7
  2
*HATCH263
 10
186.438812255859
 20
34.855354309082
 30
0.0
 41
0.349999994039536
 42
0.349999994039536
 43
0.349999994039536
  0
INSERT
  5
   65B
  8
0
  6
CONTINUOUS
 62
     7
  2
*HATCH264
 10
186.438812255859
 20
34.855354309082
 30
0.0
 41
0.349999994039536
 42
0.349999994039536
 43
0.349999994039536
  0
LINE
  5
   65C
  8
0
  6
CONTINUOUS
 62
     7
 10
187.156312530075
 20
17.0053551863235
 30
0.0
 11
190.65631247047
 21
17.0053542315408
 31
0.0
  0
LINE
  5
   65D
  8
0
  6
CONTINUOUS
 62
     7
 10
190.656312184036
 20
17.0053542315407
 30
0.0
 11
190.656312184036
 21
17.3553542255803
 31
0.0
  0
LINE
  5
   65E
  8
0
  6
CONTINUOUS
 62
     7
 10
190.481312242096
 20
17.5303546004804
 30
0.0
 11
190.656312185387
 21
17.3553545617115
 31
0.0
  0
LINE
  5
   65F
  8
0
  6
CONTINUOUS
 62
     7
 10
187.331312670312
 20
17.5303551296437
 30
0.0
 11
190.481312616668
 21
17.5303542703392
 31
0.0
  0
LINE
  5
   660
  8
0
  6
CONTINUOUS
 62
     7
 10
187.156312308781
 20
17.3553554745643
 30
0.0
 11
187.33131234755
 21
17.530355417855
 31
0.0
  0
INSERT
  5
   661
  8
0
  6
CONTINUOUS
 62
     7
  2
*HATCH265
 10
186.438812255859
 20
34.855354309082
 30
0.0
 41
0.349999994039536
 42
0.349999994039536
 43
0.349999994039536
  0
LINE
  5
   662
  8
0
  6
CONTINUOUS
 62
     7
 10
187.156313167017
 20
18.1166489601228
 30
0.0
 11
190.48131244282
 21
18.1166480530793
 31
0.0
  0
LINE
  5
   663
  8
0
  6
CONTINUOUS
 62
     7
 10
187.156313170171
 20
18.128212642482
 30
0.0
 11
190.463806846738
 21
18.128211740214
 31
0.0
  0
LINE
  5
   664
  8
0
  6
CONTINUOUS
 62
     7
 10
187.156312911212
 20
18.1166474548907
 30
0.0
 11
187.156312911212
 21
18.5803553231992
 31
0.0
  0
LINE
  5
   665
  8
0
  6
CONTINUOUS
 62
     7
 10
187.156313293513
 20
18.5803551595013
 30
0.0
 11
190.463806846738
 21
18.5803542572333
 31
0.0
  0
LINE
  5
   666
  8
0
  6
CONTINUOUS
 62
     7
 10
186.438812255859
 20
19.2803553433111
 30
0.0
 11
190.463806846738
 21
19.2803542453124
 31
0.0
  0
INSERT
  5
   667
  8
0
  6
CONTINUOUS
 62
     7
  2
*HATCH266
 10
186.438812255859
 20
34.855354309082
 30
0.0
 41
0.349999994039536
 42
0.349999994039536
 43
0.349999994039536
  0
LINE
  5
   668
  8
0
  6
CONTINUOUS
 62
     7
 10
186.438812255859
 20
11.2303547114134
 30
0.0
 11
186.438812255859
 21
19.2803553433111
 31
0.0
  0
LINE
  5
   669
  8
0
  6
CONTINUOUS
 62
     7
 10
186.806312562525
 20
17.1803552788215
 30
0.0
 11
187.156312243641
 21
17.1803552788215
 31
0.0
  0
LINE
  5
   66A
  8
0
  6
CONTINUOUS
 62
     7
 10
190.481311757364
 20
14.3803546577695
 30
0.0
 11
190.656312184036
 21
14.5553546070501
 31
0.0
  0
LINE
  5
   66B
  8
0
  6
CONTINUOUS
 62
     7
 10
190.463806846738
 20
17.5478600053893
 30
0.0
 11
190.463806846738
 21
20.1553545594215
 31
0.0
  0
LINE
  5
   66C
  8
0
  6
CONTINUOUS
 62
     7
 10
187.156312243641
 20
17.0928555186195
 30
0.0
 11
190.656312184036
 21
17.0928545638367
 31
0.0
  0
LINE
  5
   66D
  8
0
  6
CONTINUOUS
 62
     7
 10
187.156312243641
 20
14.8178555573624
 30
0.0
 11
190.656312184036
 21
14.8178546025796
 31
0.0
  0
INSERT
  5
   66E
  8
0
  6
CONTINUOUS
 62
     7
  2
*HATCH267
 10
186.438812255859
 20
34.855354309082
 30
0.0
 41
0.349999994039536
 42
0.349999994039536
 43
0.349999994039536
  0
INSERT
  5
   66F
  8
0
  6
CONTINUOUS
 62
     7
  2
*HATCH268
 10
186.438812255859
 20
34.855354309082
 30
0.0
 41
0.349999994039536
 42
0.349999994039536
 43
0.349999994039536
  0
INSERT
  5
   670
  8
0
  6
CONTINUOUS
 62
     7
  2
*HATCH269
 10
186.438812255859
 20
34.855354309082
 30
0.0
 41
0.349999994039536
 42
0.349999994039536
 43
0.349999994039536
  0
INSERT
  5
   671
  8
0
  6
CONTINUOUS
 62
     7
  2
*HATCH270
 10
186.438812255859
 20
34.855354309082
 30
0.0
 41
0.349999994039536
 42
0.349999994039536
 43
0.349999994039536
  0
LINE
  5
   672
  8
0
  6
CONTINUOUS
 62
     7
 10
190.656312184036
 20
17.0928545638367
 30
0.0
 11
193.613806793094
 21
17.0928537570467
 31
0.0
  0
LINE
  5
   673
  8
0
  6
CONTINUOUS
 62
     7
 10
190.656312184036
 20
14.8178546025796
 30
0.0
 11
193.613806793094
 21
14.8178537957897
 31
0.0
  0
LINE
  5
   674
  8
0
  6
CONTINUOUS
 62
     3
 10
225.813790223002
 20
46.3178556130762
 30
0.0
 11
225.813790223002
 21
52.6178538368576
 31
0.0
  0
LINE
  5
   675
  8
0
  6
CONTINUOUS
 62
     3
 10
225.813790223002
 20
52.9678538308972
 30
0.0
 11
225.813790223002
 21
60.3178537057274
 31
0.0
  0
LINE
  5
   676
  8
0
  6
CONTINUOUS
 62
     3
 10
225.813790223002
 20
60.667853699767
 30
0.0
 11
225.813790223002
 21
66.9678535924786
 31
0.0
  0
LINE
  5
   677
  8
0
  6
CONTINUOUS
 62
     3
 10
225.813790223002
 20
67.3178535865181
 30
0.0
 11
225.813790223002
 21
75.455342936516
 31
0.0
  0
LINE
  5
   678
  8
0
  6
CONTINUOUS
 62
     1
 10
223.013790270685
 20
41.9428541883826
 30
0.0
 11
223.013790270685
 21
42.6428541764617
 31
0.0
  0
LINE
  5
   679
  8
0
  6
CONTINUOUS
 62
     1
 10
223.013790270685
 20
41.9428541883826
 30
0.0
 11
223.713790258764
 21
41.9428541883826
 31
0.0
  0
LINE
  5
   67A
  8
0
  6
CONTINUOUS
 62
     1
 10
223.013790270685
 20
79.7428522095084
 30
0.0
 11
223.013790270685
 21
80.4428521975875
 31
0.0
  0
LINE
  5
   67B
  8
0
  6
CONTINUOUS
 62
     1
 10
223.013790270685
 20
80.4428521975875
 30
0.0
 11
223.713790258764
 21
80.4428521975875
 31
0.0
  0
LINE
  5
   67C
  8
0
  6
CONTINUOUS
 62
     1
 10
223.013790270685
 20
42.6428541764617
 30
0.0
 11
223.013790270685
 21
79.7428535446525
 31
0.0
  0
LINE
  5
   67D
  8
0
  6
CONTINUOUS
 62
     1
 10
221.438790297507
 20
85.1949234972755
 30
0.0
 11
221.438790297507
 21
86.8907807071647
 31
0.0
  0
LINE
  5
   67E
  8
0
  6
CONTINUOUS
 62
     1
 10
221.438790297507
 20
35.4949270139494
 30
0.0
 11
221.438790297507
 21
37.1907815535507
 31
0.0
  0
LINE
  5
   67F
  8
0
  6
CONTINUOUS
 62
     1
 10
223.713790258764
 20
33.0178530052304
 30
0.0
 11
223.713790258764
 21
89.3678520455957
 31
0.0
  0
LINE
  5
   680
  8
0
  6
CONTINUOUS
 62
     1
 10
223.713790258764
 20
33.0178543403745
 30
0.0
 11
224.938790237903
 21
33.0178543403745
 31
0.0
  0
LINE
  5
   681
  8
0
  6
CONTINUOUS
 62
     1
 10
224.938790237903
 20
33.0178543403745
 30
0.0
 11
224.938790237903
 21
89.3678533807397
 31
0.0
  0
LINE
  5
   682
  8
0
  6
CONTINUOUS
 62
     1
 10
224.588790243863
 20
89.3678520455957
 30
0.0
 11
225.113790234922
 21
89.3678520455957
 31
0.0
  0
LINE
  5
   683
  8
0
  6
CONTINUOUS
 62
     1
 10
223.713790258764
 20
89.3678520455957
 30
0.0
 11
224.063790252804
 21
89.3678520455957
 31
0.0
  0
LINE
  5
   684
  8
0
  6
CONTINUOUS
 62
     1
 10
221.438790368219
 20
85.1949227423343
 30
0.0
 11
221.788790373783
 21
84.9928513626268
 31
0.0
  0
LINE
  5
   685
  8
0
  6
CONTINUOUS
 62
     1
 10
221.438789801823
 20
86.8907798270596
 30
0.0
 11
221.788789807387
 21
87.0928512067671
 31
0.0
  0
LINE
  5
   686
  8
0
  6
CONTINUOUS
 62
     1
 10
222.663790276646
 20
84.9928521201015
 30
0.0
 11
222.663790276646
 21
85.0191811601804
 31
0.0
  0
LINE
  5
   687
  8
0
  6
CONTINUOUS
 62
     1
 10
221.788790291547
 20
84.9928521201015
 30
0.0
 11
223.713790258764
 21
84.9928521201015
 31
0.0
  0
LINE
  5
   688
  8
0
  6
CONTINUOUS
 62
     1
 10
221.788790291547
 20
85.0191811601804
 30
0.0
 11
221.788790291547
 21
85.0968384769732
 31
0.0
  0
LINE
  5
   689
  8
0
  6
CONTINUOUS
 62
     1
 10
221.788790291547
 20
85.0968384769732
 30
0.0
 11
221.788790291547
 21
85.2219307905167
 31
0.0
  0
LINE
  5
   68A
  8
0
  6
CONTINUOUS
 62
     1
 10
221.788790291547
 20
85.2219307905167
 30
0.0
 11
221.788790291547
 21
85.388188264492
 31
0.0
  0
LINE
  5
   68B
  8
0
  6
CONTINUOUS
 62
     1
 10
221.788790291547
 20
85.388188264492
 30
0.0
 11
221.788790291547
 21
85.5872742596367
 31
0.0
  0
LINE
  5
   68C
  8
0
  6
CONTINUOUS
 62
     1
 10
221.788790291547
 20
85.5872742596367
 30
0.0
 11
221.788790291547
 21
85.8092072392557
 31
0.0
  0
LINE
  5
   68D
  8
0
  6
CONTINUOUS
 62
     1
 10
221.788790291547
 20
85.8092072392557
 30
0.0
 11
221.788790291547
 21
86.0428521022201
 31
0.0
  0
LINE
  5
   68E
  8
0
  6
CONTINUOUS
 62
     1
 10
221.788790291547
 20
86.0428521022201
 30
0.0
 11
221.788790291547
 21
86.2765023057606
 31
0.0
  0
LINE
  5
   68F
  8
0
  6
CONTINUOUS
 62
     1
 10
221.788790291547
 20
86.2765023057606
 30
0.0
 11
221.788790291547
 21
86.4984299448034
 31
0.0
  0
LINE
  5
   690
  8
0
  6
CONTINUOUS
 62
     1
 10
221.788790291547
 20
86.4984299448034
 30
0.0
 11
221.788790291547
 21
86.6975159399482
 31
0.0
  0
LINE
  5
   691
  8
0
  6
CONTINUOUS
 62
     1
 10
221.788790291547
 20
86.6975159399482
 30
0.0
 11
221.788790291547
 21
86.8637787544995
 31
0.0
  0
LINE
  5
   692
  8
0
  6
CONTINUOUS
 62
     1
 10
221.788790291547
 20
86.8637787544995
 30
0.0
 11
221.788790291547
 21
86.9888710680431
 31
0.0
  0
LINE
  5
   693
  8
0
  6
CONTINUOUS
 62
     1
 10
221.788790291547
 20
86.9888710680431
 30
0.0
 11
221.788790291547
 21
87.0665283848358
 31
0.0
  0
LINE
  5
   694
  8
0
  6
CONTINUOUS
 62
     1
 10
221.788790291547
 20
87.0928520843387
 30
0.0
 11
223.713790258764
 21
87.0928520843387
 31
0.0
  0
LINE
  5
   695
  8
0
  6
CONTINUOUS
 62
     1
 10
221.788790291547
 20
87.0665283848358
 30
0.0
 11
221.788790291547
 21
87.0928520843387
 31
0.0
  0
LINE
  5
   696
  8
0
  6
CONTINUOUS
 62
     1
 10
221.438789897072
 20
35.4949267139287
 30
0.0
 11
221.788789902637
 21
35.2928540127904
 31
0.0
  0
LINE
  5
   697
  8
0
  6
CONTINUOUS
 62
     1
 10
221.438789574602
 20
37.190780922679
 30
0.0
 11
221.788789580166
 21
37.3928536238173
 31
0.0
  0
LINE
  5
   698
  8
0
  6
CONTINUOUS
 62
     1
 10
222.663790276646
 20
35.2928543016314
 30
0.0
 11
222.663790276646
 21
35.3191806714224
 31
0.0
  0
LINE
  5
   699
  8
0
  6
CONTINUOUS
 62
     1
 10
221.788790291547
 20
35.2928543016314
 30
0.0
 11
223.713790258764
 21
35.2928543016314
 31
0.0
  0
LINE
  5
   69A
  8
0
  6
CONTINUOUS
 62
     1
 10
221.788790291547
 20
35.3191806714224
 30
0.0
 11
221.788790291547
 21
35.3968366530711
 31
0.0
  0
LINE
  5
   69B
  8
0
  6
CONTINUOUS
 62
     1
 10
221.788790291547
 20
35.3968366530711
 30
0.0
 11
221.788790291547
 21
35.5219316369026
 31
0.0
  0
LINE
  5
   69C
  8
0
  6
CONTINUOUS
 62
     1
 10
221.788790291547
 20
35.5219316369026
 30
0.0
 11
221.788790291547
 21
35.688190446022
 31
0.0
  0
LINE
  5
   69D
  8
0
  6
CONTINUOUS
 62
     1
 10
221.788790291547
 20
35.688190446022
 30
0.0
 11
221.788790291547
 21
35.8872764411667
 31
0.0
  0
LINE
  5
   69E
  8
0
  6
CONTINUOUS
 62
     1
 10
221.788790291547
 20
35.8872764411667
 30
0.0
 11
221.788790291547
 21
36.1092067504976
 31
0.0
  0
LINE
  5
   69F
  8
0
  6
CONTINUOUS
 62
     1
 10
221.788790291547
 20
36.1092067504976
 30
0.0
 11
221.788790291547
 21
36.3428542837501
 31
0.0
  0
LINE
  5
   6A0
  8
0
  6
CONTINUOUS
 62
     1
 10
221.788790291547
 20
36.3428542837501
 30
0.0
 11
221.788790291547
 21
36.5765018170025
 31
0.0
  0
LINE
  5
   6A1
  8
0
  6
CONTINUOUS
 62
     1
 10
221.788790291547
 20
36.5765018170025
 30
0.0
 11
221.788790291547
 21
36.7984321263334
 31
0.0
  0
LINE
  5
   6A2
  8
0
  6
CONTINUOUS
 62
     1
 10
221.788790291547
 20
36.7984321263334
 30
0.0
 11
221.788790291547
 21
36.9975181214781
 31
0.0
  0
LINE
  5
   6A3
  8
0
  6
CONTINUOUS
 62
     1
 10
221.788790291547
 20
36.9975181214781
 30
0.0
 11
221.788790291547
 21
37.1637769305975
 31
0.0
  0
LINE
  5
   6A4
  8
0
  6
CONTINUOUS
 62
     1
 10
221.788790291547
 20
37.1637769305975
 30
0.0
 11
221.788790291547
 21
37.288871914429
 31
0.0
  0
LINE
  5
   6A5
  8
0
  6
CONTINUOUS
 62
     1
 10
221.788790291547
 20
37.288871914429
 30
0.0
 11
221.788790291547
 21
37.3665292312218
 31
0.0
  0
LINE
  5
   6A6
  8
0
  6
CONTINUOUS
 62
     1
 10
221.788790291547
 20
37.3928542658687
 30
0.0
 11
223.713790258764
 21
37.3928542658687
 31
0.0
  0
LINE
  5
   6A7
  8
0
  6
CONTINUOUS
 62
     1
 10
221.788790291547
 20
37.3665292312218
 30
0.0
 11
221.788790291547
 21
37.3928542658687
 31
0.0
  0
LINE
  5
   6A8
  8
0
  6
CONTINUOUS
 62
     1
 10
224.238790249824
 20
89.3678520455957
 30
0.0
 11
224.588790243863
 21
89.3678520455957
 31
0.0
  0
LINE
  5
   6A9
  8
0
  6
CONTINUOUS
 62
     7
 10
223.713790258764
 20
89.3678520455957
 30
0.0
 11
223.713790258764
 21
156.112952473209
 31
0.0
  0
LINE
  5
   6AA
  8
0
  6
CONTINUOUS
 62
     7
 10
223.013790270685
 20
80.4428521975875
 30
0.0
 11
223.013790270685
 21
84.9928521201015
 31
0.0
  0
LINE
  5
   6AB
  8
0
  6
CONTINUOUS
 62
     7
 10
223.713790258764
 20
-0.738714999070169
 30
0.0
 11
223.713790258764
 21
33.0178543403745
 31
0.0
  0
LINE
  5
   6AC
  8
0
  6
CONTINUOUS
 62
     7
 10
223.013790270685
 20
-0.942203367697807
 30
0.0
 11
223.013790270685
 21
35.2928543016314
 31
0.0
  0
LINE
  5
   6AD
  8
0
  6
CONTINUOUS
 62
     7
 10
221.444653262514
 20
-1.65270830760205
 30
0.0
 11
227.033437869113
 21
-2.80616196369863E-2
 31
0.0
  0
LINE
  5
   6AE
  8
0
  6
CONTINUOUS
 62
     7
 10
221.284497820119
 20
157.661626402845
 30
0.0
 11
226.483367221608
 21
154.347347159397
 31
0.0
  0
LINE
  5
   6AF
  8
0
  6
CONTINUOUS
 62
     7
 10
223.013790270685
 20
87.2678520813585
 30
0.0
 11
223.713790258764
 21
87.2678520813585
 31
0.0
  0
LINE
  5
   6B0
  8
0
  6
CONTINUOUS
 62
     7
 10
223.013790270685
 20
84.8178521230817
 30
0.0
 11
223.713790258764
 21
84.8178521230817
 31
0.0
  0
LINE
  5
   6B1
  8
0
  6
CONTINUOUS
 62
     7
 10
223.013790270685
 20
37.5678542628884
 30
0.0
 11
223.713790258764
 21
37.5678542628884
 31
0.0
  0
LINE
  5
   6B2
  8
0
  6
CONTINUOUS
 62
     7
 10
223.013790270685
 20
35.1178543046117
 30
0.0
 11
223.713790258764
 21
35.1178543046117
 31
0.0
  0
LINE
  5
   6B3
  8
0
  6
CONTINUOUS
 62
     7
 10
223.013790270685
 20
41.5928541943431
 30
0.0
 11
223.713790258764
 21
41.5928541943431
 31
0.0
  0
LINE
  5
   6B4
  8
0
  6
CONTINUOUS
 62
     7
 10
223.013790270685
 20
80.792852191627
 30
0.0
 11
223.713790258764
 21
80.792852191627
 31
0.0
  0
LINE
  5
   6B5
  8
0
  6
CONTINUOUS
 62
     7
 10
223.013790270685
 20
87.0928520843387
 30
0.0
 11
223.013790270685
 21
156.559202465609
 31
0.0
  0
LINE
  5
   6B6
  8
0
  6
CONTINUOUS
 62
     7
 10
223.013790270685
 20
37.3928542658687
 30
0.0
 11
223.013790270685
 21
41.9428541883826
 31
0.0
  0
INSERT
  5
   6B7
  8
0
  6
CONTINUOUS
 62
     7
  2
*HATCH271
 10
186.438812255859
 20
34.855354309082
 30
0.0
 41
0.349999994039536
 42
0.349999994039536
 43
0.349999994039536
  0
INSERT
  5
   6B8
  8
0
  6
CONTINUOUS
 62
     7
  2
*HATCH272
 10
186.438812255859
 20
34.855354309082
 30
0.0
 41
0.349999994039536
 42
0.349999994039536
 43
0.349999994039536
  0
INSERT
  5
   6B9
  8
0
  6
CONTINUOUS
 62
     7
  2
*HATCH273
 10
186.438812255859
 20
34.855354309082
 30
0.0
 41
0.349999994039536
 42
0.349999994039536
 43
0.349999994039536
  0
INSERT
  5
   6BA
  8
0
  6
CONTINUOUS
 62
     7
  2
*HATCH274
 10
186.438812255859
 20
34.855354309082
 30
0.0
 41
0.349999994039536
 42
0.349999994039536
 43
0.349999994039536
  0
LINE
  5
   6BB
  8
0
  6
DASHDOT
 62
     7
 10
169.008595954196
 20
61.1928378388288
 30
0.0
 11
260.221498366663
 21
61.1928378388288
 31
0.0
  0
LINE
  5
   6BC
  8
0
  6
DASHDOT
 62
     2
 10
249.804682133622
 20
61.1928378388288
 30
0.0
 11
255.378790700818
 21
61.1928378388288
 31
0.0
  0
LINE
  5
   6BD
  8
0
  6
CONTINUOUS
 62
     3
 10
193.631307126582
 20
149.655353213353
 30
0.0
 11
193.631307126582
 21
152.805353159709
 31
0.0
  0
LINE
  5
   6BE
  8
0
  6
CONTINUOUS
 62
     7
 10
204.021483067363
 20
22.3142038848123
 30
0.0
 11
204.175686590605
 21
20.1553545594215
 31
0.0
  0
LINE
  5
   6BF
  8
0
  6
CONTINUOUS
 62
     7
 10
192.563806810975
 20
17.0928540434816
 30
0.0
 11
192.563806810975
 21
20.1553545594215
 31
0.0
  0
LINE
  5
   6C0
  8
0
  6
DASHDOT
 62
     7
 10
197.288807064295
 20
15.9553517236353
 30
0.0
 11
204.253806611895
 21
15.9553517236353
 31
0.0
  0
LINE
  5
   6C1
  8
0
  6
DASHDOT
 62
     7
 10
180.911404470837
 20
15.955357241571
 30
0.0
 11
225.878071732306
 21
15.9553449748856
 31
0.0
  0
INSERT
  5
   6C2
  8
0
  6
CONTINUOUS
 62
     7
  2
*HATCH275
 10
186.438812255859
 20
34.855354309082
 30
0.0
 41
0.349999994039536
 42
0.349999994039536
 43
0.349999994039536
  0
LINE
  5
   6C3
  8
0
  6
CONTINUOUS
 62
   130
 10
186.088806921244
 20
11.230349370837
 30
0.0
 11
194.113937057498
 21
11.230349370837
 31
0.0
  0
LINE
  5
   6C4
  8
0
  6
DASHDOT
 62
     7
 10
184.513806948066
 20
-12.0357719200019
 30
0.0
 11
184.513806948066
 21
1.95535162787964
 31
0.0
  0
LINE
  5
   6C5
  8
0
  6
DASHDOT
 62
     7
 10
185.563806930184
 20
-11.836312884605
 30
0.0
 11
185.563806930184
 21
1.95535162787964
 31
0.0
  0
LINE
  5
   6C6
  8
0
  6
CONTINUOUS
 62
   130
 10
196.588762066627
 20
153.330352291465
 30
0.0
 11
213.388811796904
 21
153.330352291465
 31
0.0
  0
LINE
  5
   6C7
  8
0
  6
CONTINUOUS
 62
     3
 10
224.938790237903
 20
79.5678375259045
 30
0.0
 11
225.813790223002
 21
79.5678375259045
 31
0.0
  0
LINE
  5
   6C8
  8
0
  6
CONTINUOUS
 62
     3
 10
224.938790237903
 20
67.3178535865181
 30
0.0
 11
225.813790223002
 21
67.3178535865181
 31
0.0
  0
LINE
  5
   6C9
  8
0
  6
CONTINUOUS
 62
     3
 10
224.938790237903
 20
66.9678535924786
 30
0.0
 11
225.813790223002
 21
66.9678535924786
 31
0.0
  0
LINE
  5
   6CA
  8
0
  6
CONTINUOUS
 62
     3
 10
224.938790237903
 20
60.667853699767
 30
0.0
 11
225.813790223002
 21
60.667853699767
 31
0.0
  0
LINE
  5
   6CB
  8
0
  6
CONTINUOUS
 62
     3
 10
224.938790237903
 20
60.3178537057274
 30
0.0
 11
225.813790223002
 21
60.3178537057274
 31
0.0
  0
LINE
  5
   6CC
  8
0
  6
CONTINUOUS
 62
     3
 10
224.938790237903
 20
52.9678538308972
 30
0.0
 11
225.813790223002
 21
52.9678538308972
 31
0.0
  0
LINE
  5
   6CD
  8
0
  6
CONTINUOUS
 62
     3
 10
224.938790237903
 20
52.6178538368576
 30
0.0
 11
225.813790223002
 21
52.6178538368576
 31
0.0
  0
LINE
  5
   6CE
  8
0
  6
CONTINUOUS
 62
     3
 10
224.938790237903
 20
46.3178556130762
 30
0.0
 11
225.813790223002
 21
46.3178556130762
 31
0.0
  0
LINE
  5
   6CF
  8
0
  6
CONTINUOUS
 62
     3
 10
224.938790237903
 20
45.9678576217525
 30
0.0
 11
225.813790223002
 21
45.9678576217525
 31
0.0
  0
LINE
  5
   6D0
  8
0
  6
CONTINUOUS
 62
     3
 10
224.938790237903
 20
42.8178434923293
 30
0.0
 11
225.813790223002
 21
42.8178434923293
 31
0.0
  0
LINE
  5
   6D1
  8
0
  6
DASHDOT
 62
   218
 10
179.331620329686
 20
147.905336362124
 30
0.0
 11
185.991401071039
 21
147.905336362124
 31
0.0
  0
LINE
  5
   6D2
  8
0
  6
DASHDOT
 62
   218
 10
179.566420291721
 20
16.6553385972979
 30
0.0
 11
187.592309903096
 21
16.6553385972979
 31
0.0
  0
LINE
  5
   6D3
  8
0
  6
CONTINUOUS
 62
     7
 10
183.113806971908
 20
98.2053372085097
 30
0.0
 11
183.113806971908
 21
101.005337160826
 31
0.0
  0
LINE
  5
   6D4
  8
0
  6
CONTINUOUS
 62
     7
 10
181.71380699575
 20
98.730337199569
 30
0.0
 11
181.71380699575
 21
100.480337169767
 31
0.0
  0
LINE
  5
   6D5
  8
0
  6
CONTINUOUS
 62
     7
 10
183.113806971908
 20
101.005337160826
 30
0.0
 11
184.513806948066
 21
101.005337160826
 31
0.0
  0
LINE
  5
   6D6
  8
0
  6
CONTINUOUS
 62
     7
 10
183.113806971908
 20
98.2053372085097
 30
0.0
 11
184.513806948066
 21
98.2053372085097
 31
0.0
  0
LINE
  5
   6D7
  8
0
  6
CONTINUOUS
 62
     7
 10
181.71380699575
 20
100.480337169767
 30
0.0
 11
184.513806948066
 21
100.480337169767
 31
0.0
  0
LINE
  5
   6D8
  8
0
  6
CONTINUOUS
 62
     7
 10
181.71380699575
 20
98.730337199569
 30
0.0
 11
184.513806948066
 21
98.730337199569
 31
0.0
  0
LINE
  5
   6D9
  8
0
  6
CONTINUOUS
 62
     7
 10
183.113806971908
 20
18.0553385734561
 30
0.0
 11
184.513806948066
 21
18.0553385734561
 31
0.0
  0
LINE
  5
   6DA
  8
0
  6
CONTINUOUS
 62
     7
 10
181.71380699575
 20
17.5303385823968
 30
0.0
 11
184.513806948066
 21
17.5303385823968
 31
0.0
  0
LINE
  5
   6DB
  8
0
  6
CONTINUOUS
 62
     7
 10
181.71380699575
 20
15.7803386121991
 30
0.0
 11
184.513806948066
 21
15.7803386121991
 31
0.0
  0
LINE
  5
   6DC
  8
0
  6
CONTINUOUS
 62
     7
 10
183.113806971908
 20
15.2553386211398
 30
0.0
 11
184.513806948066
 21
15.2553386211398
 31
0.0
  0
LINE
  5
   6DD
  8
0
  6
CONTINUOUS
 62
     7
 10
183.113806971908
 20
15.2553386211398
 30
0.0
 11
183.113806971908
 21
18.0553385734561
 31
0.0
  0
LINE
  5
   6DE
  8
0
  6
CONTINUOUS
 62
     7
 10
181.71380699575
 20
15.7803386121991
 30
0.0
 11
181.71380699575
 21
17.5303385823968
 31
0.0
  0
LINE
  5
   6DF
  8
0
  6
CONTINUOUS
 62
     3
 10
221.088790303468
 20
79.5678375259045
 30
0.0
 11
221.088790303468
 21
96.4553372383121
 31
0.0
  0
LINE
  5
   6E0
  8
0
  6
CONTINUOUS
 62
     3
 10
220.213790318369
 20
144.755352437496
 30
0.0
 11
221.088790303468
 21
144.755352437496
 31
0.0
  0
LINE
  5
   6E1
  8
0
  6
CONTINUOUS
 62
     7
 10
219.33879033327
 20
96.5603532582521
 30
0.0
 11
219.33879033327
 21
153.330352291465
 31
0.0
  0
LINE
  5
   6E2
  8
0
  6
CONTINUOUS
 62
     7
 10
219.33879033327
 20
96.5603532582521
 30
0.0
 11
220.738790309428
 21
96.5603532582521
 31
0.0
  0
LINE
  5
   6E3
  8
0
  6
CONTINUOUS
 62
     7
 10
219.33879033327
 20
96.9103532522917
 30
0.0
 11
220.738790309428
 21
96.9103532522917
 31
0.0
  0
LINE
  5
   6E4
  8
0
  6
CONTINUOUS
 62
     3
 10
220.738790309428
 20
96.4553479194642
 30
0.0
 11
220.738790309428
 21
96.9103532522917
 31
0.0
  0
LINE
  5
   6E5
  8
0
  6
CONTINUOUS
 62
     3
 10
186.08881226182
 20
103.980353131891
 30
0.0
 11
219.33879033327
 21
103.980353131891
 31
0.0
  0
LINE
  5
   6E6
  8
0
  6
CONTINUOUS
 62
     3
 10
213.388790434598
 20
94.3553532958039
 30
0.0
 11
213.388790434598
 21
105.555353105069
 31
0.0
  0
LINE
  5
   6E7
  8
0
  6
CONTINUOUS
 62
     3
 10
212.338790452479
 20
105.555353105069
 30
0.0
 11
213.388790434598
 21
105.555353105069
 31
0.0
  0
LINE
  5
   6E8
  8
0
  6
CONTINUOUS
 62
     3
 10
212.338790452479
 20
105.555353105069
 30
0.0
 11
212.338790452479
 21
141.605352491141
 31
0.0
  0
LINE
  5
   6E9
  8
0
  6
CONTINUOUS
 62
     3
 10
212.338790452479
 20
141.605352491141
 30
0.0
 11
213.388790434598
 21
141.605352491141
 31
0.0
  0
LINE
  5
   6EA
  8
0
  6
CONTINUOUS
 62
     3
 10
213.388790434598
 20
141.605352491141
 30
0.0
 11
213.388790434598
 21
153.330352291465
 31
0.0
  0
LINE
  5
   6EB
  8
0
  6
CONTINUOUS
 62
     3
 10
212.338790452479
 20
94.2634902006661
 30
0.0
 11
213.388790434598
 21
94.3553532958039
 31
0.0
  0
LINE
  5
   6EC
  8
0
  6
CONTINUOUS
 62
     7
 10
183.113806971908
 20
149.305336338282
 30
0.0
 11
184.513806948066
 21
149.305336338282
 31
0.0
  0
LINE
  5
   6ED
  8
0
  6
CONTINUOUS
 62
     7
 10
181.71380699575
 20
148.780336347223
 30
0.0
 11
184.513806948066
 21
148.780336347223
 31
0.0
  0
LINE
  5
   6EE
  8
0
  6
CONTINUOUS
 62
     7
 10
181.71380699575
 20
147.030336377025
 30
0.0
 11
181.71380699575
 21
148.780336347223
 31
0.0
  0
LINE
  5
   6EF
  8
0
  6
CONTINUOUS
 62
     7
 10
181.71380699575
 20
147.030336377025
 30
0.0
 11
184.513806948066
 21
147.030336377025
 31
0.0
  0
LINE
  5
   6F0
  8
0
  6
CONTINUOUS
 62
     7
 10
183.113806971908
 20
146.505336385966
 30
0.0
 11
184.513806948066
 21
146.505336385966
 31
0.0
  0
LINE
  5
   6F1
  8
0
  6
CONTINUOUS
 62
     7
 10
183.113806971908
 20
146.505336385966
 30
0.0
 11
183.113806971908
 21
149.305336338282
 31
0.0
  0
LINE
  5
   6F2
  8
0
  6
DASHDOT
 62
   218
 10
179.331620329686
 20
99.6053371846679
 30
0.0
 11
185.991401071039
 21
99.6053371846679
 31
0.0
  0
LINE
  5
   6F3
  8
0
  6
CONTINUOUS
 62
     3
 10
185.563812604547
 20
101.35535851717
 30
0.0
 11
186.438812255859
 21
101.35535851717
 31
0.0
  0
LINE
  5
   6F4
  8
0
  6
CONTINUOUS
 62
     3
 10
185.563812604547
 20
97.8553532361984
 30
0.0
 11
186.438812255859
 21
97.8553532361984
 31
0.0
  0
LINE
  5
   6F5
  8
0
  6
CONTINUOUS
 62
     3
 10
186.438812255859
 20
92.7803533226252
 30
0.0
 11
186.438812255859
 21
103.980353131891
 31
0.0
  0
LINE
  5
   6F6
  8
0
  6
CONTINUOUS
 62
     3
 10
186.08881226182
 20
92.7803586699446
 30
0.0
 11
186.438812255859
 21
92.7803533293685
 31
0.0
  0
LINE
  5
   6F7
  8
0
  6
CONTINUOUS
 62
     3
 10
186.08881226182
 20
68.2803590804338
 30
0.0
 11
186.08881226182
 21
92.7803586632012
 31
0.0
  0
LINE
  5
   6F8
  8
0
  6
CONTINUOUS
 62
   130
 10
186.08881226182
 20
140.034122767266
 30
0.0
 11
186.08881226182
 21
141.080357840657
 31
0.0
  0
LINE
  5
   6F9
  8
0
  6
CONTINUOUS
 62
     3
 10
219.33879033327
 20
35.2053436219694
 30
0.0
 11
220.738790309428
 21
35.2053436219694
 31
0.0
  0
LINE
  5
   6FA
  8
0
  6
CONTINUOUS
 62
     3
 10
220.738790309428
 20
34.8553436279299
 30
0.0
 11
220.738790309428
 21
35.2053436219694
 31
0.0
  0
LINE
  5
   6FB
  8
0
  6
CONTINUOUS
 62
     3
 10
220.738790309428
 20
96.9103532522917
 30
0.0
 11
221.088790303468
 21
96.9103532522917
 31
0.0
  0
LINE
  5
   6FC
  8
0
  6
CONTINUOUS
 62
     3
 10
220.738790309428
 20
35.2053436219694
 30
0.0
 11
221.088790303468
 21
35.2053436219694
 31
0.0
  0
LINE
  5
   6FD
  8
0
  6
CONTINUOUS
 62
     3
 10
220.213806607127
 20
34.6803488017552
 30
0.0
 11
220.213806607127
 21
34.8553436279299
 31
0.0
  0
LINE
  5
   6FE
  8
0
  6
CONTINUOUS
 62
     7
 10
220.213806607127
 20
34.6803488017552
 30
0.0
 11
221.088806592226
 21
34.6803488017552
 31
0.0
  0
LINE
  5
   6FF
  8
0
  6
CONTINUOUS
 62
     7
 10
219.233806623817
 20
34.855348798775
 30
0.0
 11
220.213806607127
 21
34.855348798775
 31
0.0
  0
LINE
  5
   700
  8
0
  6
CONTINUOUS
 62
     3
 10
186.08881226182
 20
103.980353131891
 30
0.0
 11
186.438812255859
 21
103.980353131891
 31
0.0
  0
LINE
  5
   701
  8
0
  6
CONTINUOUS
 62
     7
 10
219.33879033327
 20
144.755352437496
 30
0.0
 11
220.213790318369
 21
144.755352437496
 31
0.0
  0
LINE
  5
   702
  8
0
  6
CONTINUOUS
 62
     7
 10
187.156312243641
 20
17.0053537585368
 30
0.0
 11
187.156312243641
 21
17.3553554094242
 31
0.0
  0
TEXT
  5
   703
  8
0
  6
CONTINUOUS
 62
     1
 10
233.05940246582
 20
-195.708282449416
 30
0.0
 40
2.99999997871263
  1
S6X 630/800 III
 41
0.91666663951344
 72
     2
 11
273.759400987909
 21
-195.708282449416
 31
0.0
  0
TEXT
  5
   704
  8
0
  6
CONTINUOUS
 62
     1
 10
219.724979222875
 20
-177.398010271149
 30
0.0
 40
2.00000003448554
  1
3POLE LOW VOLTAGE M.C.C.B SER.ISOMAX SUPERLIMIT.
 41
0.649999976158142
 72
     1
 11
250.774978637695
 21
-176.398010253906
 31
0.0
 73
     2
  0
TEXT
  5
   705
  8
0
  6
CONTINUOUS
 62
     1
 10
224.324978647583
 20
-180.398010271149
 30
0.0
 40
2.00000003448554
  1
FIXED VERSION EXTENDED FRONT TERMINALS
 41
0.699999987110495
 72
     1
 11
250.774978637695
 21
-179.398010253906
 31
0.0
 73
     2
  0
TEXT
  5
   706
  8
0
  6
CONTINUOUS
 62
     1
 10
212.877375726881
 20
-185.468276994782
 30
0.0
 40
2.00000003448554
  1
INTERR.AUTOMATICO SERIE ISOMAX SUPERLIMITATORE
 41
0.749999888539317
 72
     1
 11
247.22737121582
 21
-184.468276977539
 31
0.0
 73
     2
  0
TEXT
  5
   707
  8
0
  6
CONTINUOUS
 62
     1
 10
214.377375529824
 20
-188.468276994782
 30
0.0
 40
2.00000003448554
  1
TRIPOL.ESECUZIONE FISSA TERMINALI ANTER PROL
 41
0.749999888539317
 72
     1
 11
247.22737121582
 21
-187.468276977539
 31
0.0
 73
     2
  0
INSERT
  5
   708
  8
0
  6
CONTINUOUS
 62
     7
  2
*UDIM813
 10
0.0
 20
0.0
 30
0.0
  0
INSERT
  5
   709
  8
0
  6
CONTINUOUS
 62
     7
  2
*UDIM814
 10
0.0
 20
0.0
 30
0.0
  0
INSERT
  5
   70A
  8
0
  6
CONTINUOUS
 62
     7
  2
*UDIM815
 10
0.0
 20
0.0
 30
0.0
  0
INSERT
  5
   70B
  8
0
  6
CONTINUOUS
 62
     7
  2
*UDIM816
 10
0.0
 20
0.0
 30
0.0
  0
INSERT
  5
   70C
  8
0
  6
CONTINUOUS
 62
     7
  2
*UDIM817
 10
0.0
 20
0.0
 30
0.0
  0
LINE
  5
   70D
  8
0
  6
CONTINUOUS
 62
     1
 10
186.893781032922
 20
147.555351993175
 30
0.0
 11
186.893781032922
 21
149.655353456809
 31
0.0
  0
LINE
  5
   70E
  8
0
  6
CONTINUOUS
 62
     1
 10
186.893771294137
 20
147.555353492572
 30
0.0
 11
195.363771149893
 21
147.555358113721
 31
0.0
  0
LINE
  5
   70F
  8
0
  6
CONTINUOUS
 62
     7
 10
186.893771176999
 20
147.770053988916
 30
0.0
 11
194.5937710908
 21
147.77005818996
 31
0.0
  0
LINE
  5
   710
  8
0
  6
CONTINUOUS
 62
     7
 10
186.893770265537
 20
149.440652960466
 30
0.0
 11
194.593770179337
 21
149.44065716151
 31
0.0
  0
LINE
  5
   711
  8
0
  6
CONTINUOUS
 62
     1
 10
186.893770148398
 20
149.655353456809
 30
0.0
 11
195.363770004154
 21
149.655358077958
 31
0.0
  0
LINE
  5
   712
  8
0
  6
CONTINUOUS
 62
     7
 10
190.656276618378
 20
147.467854740058
 30
0.0
 11
193.613771227435
 21
147.467857160428
 31
0.0
  0
LINE
  5
   713
  8
0
  6
CONTINUOUS
 62
     2
 10
193.613771227435
 20
147.467857160428
 30
0.0
 11
195.363771197632
 21
147.467858115211
 31
0.0
  0
LINE
  5
   714
  8
0
  6
CONTINUOUS
 62
     2
 10
193.613769986217
 20
149.742857121685
 30
0.0
 11
195.363769956415
 21
149.742858076468
 31
0.0
  0
LINE
  5
   715
  8
0
  6
CONTINUOUS
 62
     7
 10
190.65627537716
 20
149.742854701315
 30
0.0
 11
193.613769986217
 21
149.742857121685
 31
0.0
  0
LINE
  5
   716
  8
0
  6
CONTINUOUS
 62
     1
 10
194.593780901791
 20
147.555357693616
 30
0.0
 11
194.593780901791
 21
149.655357657853
 31
0.0
  0
LINE
  5
   717
  8
0
  6
CONTINUOUS
 62
     7
 10
193.631307126582
 20
144.755357216189
 30
0.0
 11
195.363772677545
 21
144.755358161405
 31
0.0
  0
LINE
  5
   718
  8
0
  6
CONTINUOUS
 62
     7
 10
195.363780888677
 20
144.755358161405
 30
0.0
 11
195.363780888677
 21
151.815407479649
 31
0.0
  0
ARC
  5
   719
  8
0
  6
CONTINUOUS
 62
     7
 10
196.063774394338
 20
151.815405944484
 30
0.0
 40
0.700005518842679
 50
135.000294617586
 51
179.99997756944
  0
LINE
  5
   71A
  8
0
  6
CONTINUOUS
 62
     7
 10
195.568793171717
 20
152.310381767722
 30
0.0
 11
199.371193817618
 21
156.112788485843
 31
0.0
  0
LINE
  5
   71B
  8
0
  6
CONTINUOUS
 62
     7
 10
194.331355672074
 20
153.547819252245
 30
0.0
 11
198.133755649772
 21
157.350220173864
 31
0.0
  0
LINE
  5
   71C
  8
0
  6
CONTINUOUS
 62
     2
 10
195.363769240327
 20
151.055358054116
 30
0.0
 11
195.643769235559
 21
151.055358206881
 31
0.0
  0
LINE
  5
   71D
  8
0
  6
CONTINUOUS
 62
     2
 10
195.643780883909
 20
146.155358290328
 30
0.0
 11
195.643780883909
 21
151.055358206881
 31
0.0
  0
LINE
  5
   71E
  8
0
  6
CONTINUOUS
 62
     1
 10
195.643769617472
 20
150.355358218802
 30
0.0
 11
197.743769581709
 21
150.355359364541
 31
0.0
  0
LINE
  5
   71F
  8
0
  6
CONTINUOUS
 62
     1
 10
197.743780848146
 20
146.855359424146
 30
0.0
 11
197.743780848146
 21
150.355359364541
 31
0.0
  0
LINE
  5
   720
  8
0
  6
CONTINUOUS
 62
     1
 10
195.643771527038
 20
146.855358278407
 30
0.0
 11
197.743771491275
 21
146.855359424146
 31
0.0
  0
LINE
  5
   721
  8
0
  6
CONTINUOUS
 62
     2
 10
195.363771913719
 20
146.155358137563
 30
0.0
 11
195.643771908951
 21
146.155358290328
 31
0.0
  0
INSERT
  5
   722
  8
0
  6
CONTINUOUS
 62
     2
  2
*HATCH276
 10
186.438812255859
 20
34.855354309082
 30
0.0
 41
0.349999994039536
 42
0.349999994039536
 43
0.349999994039536
  0
INSERT
  5
   723
  8
0
  6
CONTINUOUS
 62
     2
  2
*HATCH277
 10
186.438812255859
 20
34.855354309082
 30
0.0
 41
0.349999994039536
 42
0.349999994039536
 43
0.349999994039536
  0
LINE
  5
   724
  8
0
  6
CONTINUOUS
 62
     7
 10
198.338780838013
 20
157.845194850828
 30
0.0
 11
198.338780838013
 21
170.305359349418
 31
0.0
  0
LINE
  5
   725
  8
0
  6
CONTINUOUS
 62
     7
 10
200.088780808211
 20
157.845198686966
 30
0.0
 11
200.088780808211
 21
170.305360304201
 31
0.0
  0
LINE
  5
   726
  8
0
  6
CONTINUOUS
 62
     2
 10
198.338762076532
 20
164.092859455217
 30
0.0
 11
200.088762046729
 21
164.09286041
 31
0.0
  0
LINE
  5
   727
  8
0
  6
CONTINUOUS
 62
     2
 10
198.338761026271
 20
166.017859422434
 30
0.0
 11
200.088760996468
 21
166.017860377217
 31
0.0
  0
LINE
  5
   728
  8
0
  6
DASHDOT
 62
     2
 10
197.205392738072
 20
165.055358820471
 30
0.0
 11
201.001318445695
 21
165.055360891491
 31
0.0
  0
INSERT
  5
   729
  8
0
  6
CONTINUOUS
 62
     2
  2
*HATCH278
 10
186.438812255859
 20
34.855354309082
 30
0.0
 41
0.349999994039536
 42
0.349999994039536
 43
0.349999994039536
  0
LINE
  5
   72A
  8
0
  6
CONTINUOUS
 62
     7
 10
198.338758687053
 20
170.305359349418
 30
0.0
 11
200.08875865725
 21
170.305360304201
 31
0.0
  0
ARC
  5
   72B
  8
0
  6
CONTINUOUS
 62
     7
 10
196.063774394338
 20
151.815405944484
 30
0.0
 40
2.45000548904036
 50
135.000294617586
 51
173.140281602732
  0
ARC
  5
   72C
  8
0
  6
CONTINUOUS
 62
     7
 10
197.638780849934
 20
157.845194850828
 30
0.0
 40
0.699999988079071
 50
315.000007111648
 51
360.0
  0
ARC
  5
   72D
  8
0
  6
CONTINUOUS
 62
     7
 10
197.638780849934
 20
157.845198686966
 30
0.0
 40
2.44999995827675
 50
315.000045749033
 51
360.0
  0
TEXT
  5
   72E
  8
0
  6
CONTINUOUS
 62
     1
 10
162.6225813142
 20
-193.442703264313
 30
0.0
 40
2.00000003448554
  1
M4380 97-11-03
 41
0.749999888539317
 72
     1
 11
172.972579956055
 21
-192.44270324707
 31
0.0
 73
     2
  0
TEXT
  5
   72F
  8
0
  6
CONTINUOUS
 62
     1
 10
130.357192993164
 20
-187.15617374054
 30
0.0
 40
2.00000003448554
  1
97-11-03 SCARPELLINI
 41
0.749999888539317
 72
     2
 11
160.057189094531
 21
-187.15617374054
 31
0.0
  0
INSERT
  5
   730
  8
0
  6
CONTINUOUS
 62
     7
  2
*UDIM818
 10
0.0
 20
0.0
 30
0.0
  0
INSERT
  5
   731
  8
0
  6
CONTINUOUS
 62
     7
  2
*UDIM819
 10
0.0
 20
0.0
 30
0.0
  0
INSERT
  5
   732
  8
0
  6
CONTINUOUS
 62
     7
  2
*UDIM820
 10
0.0
 20
0.0
 30
0.0
  0
INSERT
  5
   733
  8
0
  6
CONTINUOUS
 62
     7
  2
*UDIM821
 10
0.0
 20
0.0
 30
0.0
  0
INSERT
  5
   734
  8
0
  6
CONTINUOUS
 62
     7
  2
*UDIM822
 10
0.0
 20
0.0
 30
0.0
  0
INSERT
  5
   735
  8
0
  6
CONTINUOUS
 62
     7
  2
*UDIM823
 10
0.0
 20
0.0
 30
0.0
  0
TEXT
  5
   736
  8
0
  6
CONTINUOUS
 62
     1
 10
136.882583843682
 20
-193.4427039842
 30
0.0
 40
2.00000003448554
  1
M 4352 96-12-17
 41
0.749999888539317
 72
     1
 11
147.982582387009
 21
-192.442703966958
 31
0.0
 73
     2
  0
TEXT
  5
   737
  8
0
  6
CONTINUOUS
 62
     7
 10
250.136883535634
 20
51.8224124180352
 30
0.0
 40
2.99999997871263
  1
=   =
 50
90.0
 41
0.91666663951344
 72
     2
 11
250.136883535618
 21
65.0224119498549
 31
0.0
  0
TEXT
  5
   738
  8
0
  6
CONTINUOUS
 62
     1
 10
130.357193272712
 20
-178.689413425725
 30
0.0
 40
2.00000003448554
  1
18-11-14 ZANCHI.
 41
0.749999888539317
 72
     2
 11
154.057190162307
 21
-178.689413425725
 31
0.0
  0
INSERT
  5
   739
  8
0
  6
CONTINUOUS
 62
     7
  2
*UDIM824
 10
0.0
 20
0.0
 30
0.0
  0
INSERT
  5
   73A
  8
0
  6
CONTINUOUS
 62
     7
  2
*UDIM825
 10
0.0
 20
0.0
 30
0.0
  0
INSERT
  5
   73B
  8
0
  6
CONTINUOUS
 62
     7
  2
*UDIM826
 10
0.0
 20
0.0
 30
0.0
  0
TEXT
  5
   73C
  8
0
  6
CONTINUOUS
 62
     7
 10
262.817634109875
 20
60.4570264451851
 30
0.0
 40
2.99999997871263
  1
X
 41
0.91666663951344
 72
     2
 11
265.017634045587
 21
60.4570264451851
 31
0.0
  0
INSERT
  5
   73D
  8
0
  6
CONTINUOUS
 62
     7
  2
*UDIM827
 10
0.0
 20
0.0
 30
0.0
  0
INSERT
  5
   73E
  8
0
  6
CONTINUOUS
 62
     7
  2
*UDIM828
 10
0.0
 20
0.0
 30
0.0
  0
INSERT
  5
   73F
  8
0
  6
CONTINUOUS
 62
     7
  2
*UDIM829
 10
0.0
 20
0.0
 30
0.0
  0
INSERT
  5
   740
  8
0
  6
CONTINUOUS
 62
     7
  2
*UDIM830
 10
0.0
 20
0.0
 30
0.0
  0
TEXT
  5
   741
  8
0
  6
CONTINUOUS
 62
     1
 10
231.973706979957
 20
-204.689854985934
 30
0.0
 40
4.00000006897109
  1
605031/041
 41
0.937499981746078
 72
     2
 11
268.723706883472
 21
-204.689854985934
 31
0.0
  0
INSERT
  5
   742
  8
0
  6
CONTINUOUS
 62
     7
  2
*UDIM831
 10
0.0
 20
0.0
 30
0.0
  0
LINE
  5
   743
  8
0
  6
DASHDOT
 62
     2
 10
210.751892433831
 20
-68.2444881722331
 30
0.0
 11
192.270358528216
 21
-68.2444881722331
 31
0.0
  0
LINE
  5
   744
  8
0
  6
DASHDOT
 62
     2
 10
211.51046285533
 20
-115.644488878548
 30
0.0
 11
192.132436633398
 21
-115.644488878548
 31
0.0
  0
LINE
  5
   745
  8
0
  6
DASHDOT
 62
     2
 10
194.834869280458
 20
-63.6910369805683
 30
0.0
 11
194.834869280458
 21
-117.756419749233
 31
0.0
  0
LINE
  5
   746
  8
0
  6
DASHDOT
 62
     2
 10
208.834869489074
 20
-63.2083103487052
 30
0.0
 11
208.834869489074
 21
-117.618497854415
 31
0.0
  0
LINE
  5
   747
  8
0
  6
CONTINUOUS
 62
     7
 10
212.834869548678
 20
-36.6444877013564
 30
0.0
 11
212.834869548678
 21
-122.16992038341
 31
0.0
  0
LINE
  5
   748
  8
0
  6
CONTINUOUS
 62
     7
 10
190.834869220853
 20
-36.6444877013564
 30
0.0
 11
190.834869220853
 21
-122.031998488592
 31
0.0
  0
LINE
  5
   749
  8
0
  6
CONTINUOUS
 62
     7
 10
214.889549278371
 20
-36.6444877013564
 30
0.0
 11
188.47750642072
 21
-36.6444877013564
 31
0.0
  0
LINE
  5
   74A
  8
0
  6
CONTINUOUS
 62
     7
 10
215.441236857643
 20
-119.644488938153
 30
0.0
 11
188.339584525902
 21
-119.644488938153
 31
0.0
  0
LINE
  5
   74B
  8
0
  6
DASHDOT
 62
     2
 10
201.834869384766
 20
-36.3605683777794
 30
0.0
 11
201.834869384766
 21
-117.330610019227
 31
0.0
  0
CIRCLE
  5
   74C
  8
0
  6
CONTINUOUS
 62
     7
 10
208.834869489074
 20
-68.2444881722331
 30
0.0
 40
0.550000008195639
  0
CIRCLE
  5
   74D
  8
0
  6
CONTINUOUS
 62
     7
 10
194.834869280458
 20
-68.2444881722331
 30
0.0
 40
0.550000008195639
  0
CIRCLE
  5
   74E
  8
0
  6
CONTINUOUS
 62
     7
 10
194.834869280458
 20
-115.644488878548
 30
0.0
 40
0.550000008195639
  0
CIRCLE
  5
   74F
  8
0
  6
CONTINUOUS
 62
     7
 10
208.834869489074
 20
-115.644488878548
 30
0.0
 40
0.550000008195639
  0
LINE
  5
   750
  8
0
  6
DASHDOT
 62
     2
 10
220.048484669144
 20
-90.1944884993136
 30
0.0
 11
176.105656543848
 21
-90.1944884993136
 31
0.0
  0
CIRCLE
  5
   751
  8
0
  6
CONTINUOUS
 62
     7
 10
192.410318165356
 20
-65.9520497961094
 30
0.0
 40
6.00000008940697E-2
  0
CIRCLE
  5
   752
  8
0
  6
CONTINUOUS
 62
     7
 10
194.834869280458
 20
-40.6444877609611
 30
0.0
 40
0.550000008195639
  0
CIRCLE
  5
   753
  8
0
  6
CONTINUOUS
 62
     7
 10
208.834869489074
 20
-40.6444877609611
 30
0.0
 40
0.550000008195639
  0
LINE
  5
   754
  8
0
  6
DASHDOT
 62
     2
 10
208.834869489074
 20
-35.6083099374331
 30
0.0
 11
208.834869489074
 21
-90.0184974431432
 31
0.0
  0
LINE
  5
   755
  8
0
  6
DASHDOT
 62
     2
 10
194.834869280458
 20
-36.0910365692962
 30
0.0
 11
194.834869280458
 21
-90.1564193379612
 31
0.0
  0
LINE
  5
   756
  8
0
  6
DASHDOT
 62
     2
 10
210.751892433831
 20
-40.6444877609611
 30
0.0
 11
192.270358528216
 21
-40.6444877609611
 31
0.0
  0
INSERT
  5
   757
  8
0
  6
CONTINUOUS
 62
     7
  2
*UDIM832
 10
0.0
 20
0.0
 30
0.0
  0
INSERT
  5
   758
  8
0
  6
CONTINUOUS
 62
     7
  2
*UDIM833
 10
0.0
 20
0.0
 30
0.0
  0
INSERT
  5
   759
  8
0
  6
CONTINUOUS
 62
     7
  2
*UDIM834
 10
0.0
 20
0.0
 30
0.0
  0
TEXT
  5
   75A
  8
0
  6
CONTINUOUS
 62
     7
 10
173.901861153318
 20
-91.6618113455741
 30
0.0
 40
2.99999994933605
  1
X
 50
359.999999896069
 41
0.916666607525612
 72
     2
 11
176.101860971524
 21
-91.6618113495537
 31
0.0
  0
TEXT
  5
   75B
  8
0
  6
CONTINUOUS
 62
     7
 10
218.242671445395
 20
-91.6050372053238
 30
0.0
 40
2.99999994933605
  1
X
 50
359.999999896069
 41
0.916666607525612
 72
     2
 11
220.442671263601
 21
-91.6050372093034
 31
0.0
  0
INSERT
  5
   75C
  8
0
  6
CONTINUOUS
 62
     7
  2
*UDIM835
 10
0.0
 20
0.0
 30
0.0
  0
TEXT
  5
   75D
  8
0
  6
CONTINUOUS
 62
     7
 10
205.856644496913
 20
-88.8683660982601
 30
0.0
 40
2.99999994933605
  1
=
 50
359.999999896069
 41
0.916666607525612
 72
     2
 11
208.056644315119
 21
-88.8683661022397
 31
0.0
  0
TEXT
  5
   75E
  8
0
  6
CONTINUOUS
 62
     7
 10
197.058190462608
 20
-88.8683660982601
 30
0.0
 40
2.99999994933605
  1
=
 50
359.999999896069
 41
0.916666607525612
 72
     2
 11
199.258190280813
 21
-88.8683661022397
 31
0.0
  0
INSERT
  5
   75F
  8
0
  6
CONTINUOUS
 62
     7
  2
*UDIM836
 10
0.0
 20
0.0
 30
0.0
  0
TEXT
  5
   760
  8
0
  6
CONTINUOUS
 62
     7
 10
200.110169163986
 20
-33.9236507941175
 30
0.0
 40
2.99999994933605
  1
Y
 50
359.999999896069
 41
0.916666607525612
 72
     2
 11
202.310168982192
 21
-33.9236507980971
 31
0.0
  0
TEXT
  5
   761
  8
0
  6
CONTINUOUS
 62
     7
 10
201.132108456863
 20
-124.656785080717
 30
0.0
 40
2.99999994933605
  1
Y
 50
359.999999896069
 41
0.916666607525612
 72
     2
 11
203.332108275069
 21
-124.656785084696
 31
0.0
  0
LINE
  5
   762
  8
0
  6
CONTINUOUS
 62
     7
 10
90.3574948981404
 20
-101.394488666207
 30
0.0
 11
119.757495336235
 21
-101.394488666207
 31
0.0
  0
LINE
  5
   763
  8
0
  6
CONTINUOUS
 62
     7
 10
90.3574948981404
 20
-78.9944883324206
 30
0.0
 11
119.757495336235
 21
-78.9944883324206
 31
0.0
  0
LINE
  5
   764
  8
0
  6
CONTINUOUS
 62
     7
 10
90.3574948981404
 20
-78.9944883324206
 30
0.0
 11
90.3574948981404
 21
-101.394488666207
 31
0.0
  0
LINE
  5
   765
  8
0
  6
CONTINUOUS
 62
     7
 10
119.757495336235
 20
-78.9944883324206
 30
0.0
 11
119.757495336235
 21
-101.394488666207
 31
0.0
  0
LINE
  5
   766
  8
0
  6
DASHDOT
 62
     2
 10
105.057495117188
 20
-70.9077288298474
 30
0.0
 11
105.057495117188
 21
-110.864754934298
 31
0.0
  0
CIRCLE
  5
   767
  8
0
  6
CONTINUOUS
 62
     7
 10
93.5574949458242
 20
-75.9944882877171
 30
0.0
 40
0.700000010430813
  0
CIRCLE
  5
   768
  8
0
  6
CONTINUOUS
 62
     7
 10
116.557495288551
 20
-75.9944882877171
 30
0.0
 40
0.700000010430813
  0
CIRCLE
  5
   769
  8
0
  6
CONTINUOUS
 62
     7
 10
116.557495288551
 20
-104.39448871091
 30
0.0
 40
0.700000010430813
  0
CIRCLE
  5
   76A
  8
0
  6
CONTINUOUS
 62
     7
 10
93.5574949458242
 20
-104.39448871091
 30
0.0
 40
0.700000010430813
  0
LINE
  5
   76B
  8
0
  6
DASHDOT
 62
     7
 10
116.557495288551
 20
-74.2944882623851
 30
0.0
 11
116.557495288551
 21
-77.6944883130491
 31
0.0
  0
LINE
  5
   76C
  8
0
  6
DASHDOT
 62
     7
 10
114.857495263219
 20
-75.9944882877171
 30
0.0
 11
118.257495313883
 21
-75.9944882877171
 31
0.0
  0
LINE
  5
   76D
  8
0
  6
DASHDOT
 62
     7
 10
93.5574949458242
 20
-74.2944882623851
 30
0.0
 11
93.5574949458242
 21
-77.6944883130491
 31
0.0
  0
LINE
  5
   76E
  8
0
  6
DASHDOT
 62
     7
 10
91.8574949204922
 20
-75.9944882877171
 30
0.0
 11
95.2574949711561
 21
-75.9944882877171
 31
0.0
  0
LINE
  5
   76F
  8
0
  6
DASHDOT
 62
     7
 10
93.5574949458242
 20
-102.694488685578
 30
0.0
 11
93.5574949458242
 21
-106.094488736242
 31
0.0
  0
LINE
  5
   770
  8
0
  6
DASHDOT
 62
     7
 10
91.8574949204922
 20
-104.39448871091
 30
0.0
 11
95.2574949711561
 21
-104.39448871091
 31
0.0
  0
LINE
  5
   771
  8
0
  6
DASHDOT
 62
     7
 10
116.557495288551
 20
-102.694488685578
 30
0.0
 11
116.557495288551
 21
-106.094488736242
 31
0.0
  0
LINE
  5
   772
  8
0
  6
DASHDOT
 62
     7
 10
114.857495263219
 20
-104.39448871091
 30
0.0
 11
118.257495313883
 21
-104.39448871091
 31
0.0
  0
LINE
  5
   773
  8
0
  6
CONTINUOUS
 62
     7
 10
88.1775756725495
 20
-73.5071636135942
 30
0.0
 11
121.747419165508
 21
-73.5071636135942
 31
0.0
  0
LINE
  5
   774
  8
0
  6
CONTINUOUS
 62
     7
 10
88.1775756725495
 20
-107.374085367553
 30
0.0
 11
121.747419165508
 21
-107.374085367553
 31
0.0
  0
LINE
  5
   775
  8
0
  6
CONTINUOUS
 62
     7
 10
121.747419165508
 20
-73.5071636135942
 30
0.0
 11
121.747419165508
 21
-107.374085367553
 31
0.0
  0
LINE
  5
   776
  8
0
  6
CONTINUOUS
 62
     7
 10
88.1775756725495
 20
-73.5071636135942
 30
0.0
 11
88.1775756725495
 21
-107.374085367553
 31
0.0
  0
LINE
  5
   777
  8
0
  6
DASHDOT
 62
     2
 10
81.9369307445968
 20
-90.1944884993136
 30
0.0
 11
128.869951316288
 21
-90.1944884993136
 31
0.0
  0
TEXT
  5
   778
  8
0
  6
CONTINUOUS
 62
     7
 10
84.5371069636508
 20
-104.242027813301
 30
0.0
 40
2.99999994933605
  1
=      =
 50
449.999999844103
 41
0.916666607525612
 72
     2
 11
84.5371070218796
 21
-82.7920295621513
 31
0.0
  0
TEXT
  5
   779
  8
0
  6
CONTINUOUS
 62
     7
 10
77.3866460416709
 20
-104.242027813301
 30
0.0
 40
2.99999994933605
  1
=      =
 50
449.999999844103
 41
0.916666607525612
 72
     2
 11
77.3866460998997
 21
-82.7920295621513
 31
0.0
  0
TEXT
  5
   77A
  8
0
  6
CONTINUOUS
 62
     7
 10
103.994967609852
 20
-118.365981928425
 30
0.0
 40
2.99999994933605
  1
Y
 50
359.999999844103
 41
0.916666607525612
 72
     2
 11
106.194967428058
 21
-118.3659819344
 31
0.0
  0
TEXT
  5
   77B
  8
0
  6
CONTINUOUS
 62
     7
 10
103.400811145005
 20
-63.7035818219
 30
0.0
 40
2.99999994933605
  1
Y
 50
359.999999844103
 41
0.916666607525612
 72
     2
 11
105.60081096321
 21
-63.703581827875
 31
0.0
  0
TEXT
  5
   77C
  8
0
  6
CONTINUOUS
 62
     7
 10
67.4543428282936
 20
-91.9260152849733
 30
0.0
 40
2.99999994933605
  1
X
 50
359.999999844103
 41
0.916666607525612
 72
     2
 11
69.6543426464994
 21
-91.9260152909483
 31
0.0
  0
TEXT
  5
   77D
  8
0
  6
CONTINUOUS
 62
     7
 10
129.630176884669
 20
-91.3426115458875
 30
0.0
 40
2.99999994933605
  1
X
 50
359.999999844103
 41
0.916666607525612
 72
     2
 11
131.830176702874
 21
-91.3426115518624
 31
0.0
  0
TEXT
  5
   77E
  8
0
  6
CONTINUOUS
 62
     7
 10
92.7660821199184
 20
-116.286428678953
 30
0.0
 40
2.99999994933605
  1
=      =
 50
359.999999844103
 41
0.916666607525612
 72
     2
 11
114.216080371068
 21
-116.286428737209
 31
0.0
  0
TEXT
  5
   77F
  8
0
  6
CONTINUOUS
 62
     7
 10
92.1719231755178
 20
-71.7989615853741
 30
0.0
 40
2.99999994933605
  1
=      =
 50
359.999999844103
 41
0.916666607525612
 72
     2
 11
113.621921426668
 21
-71.7989616436298
 31
0.0
  0
INSERT
  5
   780
  8
0
  6
CONTINUOUS
 62
     7
  2
*UDIM837
 10
0.0
 20
0.0
 30
0.0
  0
INSERT
  5
   781
  8
0
  6
CONTINUOUS
 62
     7
  2
*UDIM838
 10
0.0
 20
0.0
 30
0.0
  0
INSERT
  5
   782
  8
0
  6
CONTINUOUS
 62
     7
  2
*UDIM839
 10
0.0
 20
0.0
 30
0.0
  0
INSERT
  5
   783
  8
0
  6
CONTINUOUS
 62
     7
  2
*UDIM840
 10
0.0
 20
0.0
 30
0.0
  0
INSERT
  5
   784
  8
0
  6
CONTINUOUS
 62
     7
  2
*UDIM841
 10
0.0
 20
0.0
 30
0.0
  0
ENDSEC
  0
EOF
