  0
SECTION
  2
HEADER
  9
$ACADVER
  1
AC1009
  9
$INSBASE
 10
0.0
 20
0.0
 30
0.0
  9
$EXTMIN
 10
0.237099
 20
0.237999
 30
0.0
  9
$EXTMAX
 10
392.237099
 20
262.737999
 30
0.0
  9
$LIMMIN
 10
0.0
 20
0.0
  9
$LIMMAX
 10
12.0
 20
9.0
  9
$ORTHOMODE
 70
     1
  9
$REGENMODE
 70
     1
  9
$FILLMODE
 70
     1
  9
$QTEXTMODE
 70
     0
  9
$MIRRTEXT
 70
     1
  9
$DRAGMODE
 70
     2
  9
$LTSCALE
 40
5.0
  9
$OSMODE
 70
     0
  9
$ATTMODE
 70
     1
  9
$TEXTSIZE
 40
2.0
  9
$TRACEWID
 40
0.05
  9
$TEXTSTYLE
  7
ROMANS
  9
$CLAYER
  8
0
  9
$CELTYPE
  6
CONTINUOUS
  9
$CECOLOR
 62
   256
  9
$DIMSCALE
 40
1.0
  9
$DIMASZ
 40
0.18
  9
$DIMEXO
 40
0.0625
  9
$DIMDLI
 40
0.38
  9
$DIMRND
 40
0.0
  9
$DIMDLE
 40
0.0
  9
$DIMEXE
 40
0.18
  9
$DIMTP
 40
0.0
  9
$DIMTM
 40
0.0
  9
$DIMTXT
 40
0.18
  9
$DIMCEN
 40
0.09
  9
$DIMTSZ
 40
0.0
  9
$DIMTOL
 70
     0
  9
$DIMLIM
 70
     0
  9
$DIMTIH
 70
     1
  9
$DIMTOH
 70
     1
  9
$DIMSE1
 70
     0
  9
$DIMSE2
 70
     0
  9
$DIMTAD
 70
     0
  9
$DIMZIN
 70
     0
  9
$DIMBLK
  1

  9
$DIMASO
 70
     1
  9
$DIMSHO
 70
     1
  9
$DIMPOST
  1

  9
$DIMAPOST
  1

  9
$DIMALT
 70
     0
  9
$DIMALTD
 70
     2
  9
$DIMALTF
 40
25.4
  9
$DIMLFAC
 40
1.0
  9
$DIMTOFL
 70
     0
  9
$DIMTVP
 40
0.0
  9
$DIMTIX
 70
     0
  9
$DIMSOXD
 70
     0
  9
$DIMSAH
 70
     0
  9
$DIMBLK1
  1

  9
$DIMBLK2
  1

  9
$DIMSTYLE
  2
*UNNAMED
  9
$DIMCLRD
 70
     0
  9
$DIMCLRE
 70
     0
  9
$DIMCLRT
 70
     0
  9
$DIMTFAC
 40
1.0
  9
$DIMGAP
 40
0.09
  9
$LUNITS
 70
     2
  9
$LUPREC
 70
     4
  9
$SKETCHINC
 40
0.1
  9
$FILLETRAD
 40
0.0
  9
$AUNITS
 70
     0
  9
$AUPREC
 70
     0
  9
$MENU
  1
acad
  9
$ELEVATION
 40
0.0
  9
$PELEVATION
 40
0.0
  9
$THICKNESS
 40
0.0
  9
$LIMCHECK
 70
     0
  9
$BLIPMODE
 70
     1
  9
$CHAMFERA
 40
0.0
  9
$CHAMFERB
 40
0.0
  9
$SKPOLY
 70
     0
  9
$TDCREATE
 40
2449959.352399074
  9
$TDUPDATE
 40
2449980.303619097
  9
$TDINDWG
 40
0.0006237269
  9
$TDUSRTIMER
 40
0.0006237269
  9
$USRTIMER
 70
     1
  9
$ANGBASE
 50
0.0
  9
$ANGDIR
 70
     0
  9
$PDMODE
 70
     0
  9
$PDSIZE
 40
0.0
  9
$PLINEWID
 40
0.0
  9
$COORDS
 70
     2
  9
$SPLFRAME
 70
     0
  9
$SPLINETYPE
 70
     6
  9
$SPLINESEGS
 70
     8
  9
$ATTDIA
 70
     0
  9
$ATTREQ
 70
     1
  9
$HANDLING
 70
     0
  9
$HANDSEED
  5
0
  9
$SURFTAB1
 70
   250
  9
$SURFTAB2
 70
   250
  9
$SURFTYPE
 70
     6
  9
$SURFU
 70
     6
  9
$SURFV
 70
     6
  9
$UCSNAME
  2

  9
$UCSORG
 10
0.0
 20
0.0
 30
0.0
  9
$UCSXDIR
 10
1.0
 20
0.0
 30
0.0
  9
$UCSYDIR
 10
0.0
 20
1.0
 30
0.0
  9
$PUCSNAME
  2

  9
$PUCSORG
 10
0.0
 20
0.0
 30
0.0
  9
$PUCSXDIR
 10
1.0
 20
0.0
 30
0.0
  9
$PUCSYDIR
 10
0.0
 20
1.0
 30
0.0
  9
$USERI1
 70
     0
  9
$USERI2
 70
     0
  9
$USERI3
 70
     0
  9
$USERI4
 70
     0
  9
$USERI5
 70
     0
  9
$USERR1
 40
0.0
  9
$USERR2
 40
0.0
  9
$USERR3
 40
0.0
  9
$USERR4
 40
0.0
  9
$USERR5
 40
0.0
  9
$WORLDVIEW
 70
     1
  9
$SHADEDGE
 70
     3
  9
$SHADEDIF
 70
    70
  9
$TILEMODE
 70
     1
  9
$MAXACTVP
 70
    16
  9
$PINSBASE
 10
0.0
 20
0.0
 30
0.0
  9
$PLIMCHECK
 70
     0
  9
$PEXTMIN
 10
1.000000E+20
 20
1.000000E+20
 30
1.000000E+20
  9
$PEXTMAX
 10
-1.000000E+20
 20
-1.000000E+20
 30
-1.000000E+20
  9
$PLIMMIN
 10
0.0
 20
0.0
  9
$PLIMMAX
 10
12.0
 20
9.0
  9
$UNITMODE
 70
     0
  9
$VISRETAIN
 70
     0
  9
$PLINEGEN
 70
     0
  9
$PSLTSCALE
 70
     0
  9
$TREEDEPTH
 70
  3020
  9
$DWGCODEPAGE
  3
undefined
  0
ENDSEC
  0
SECTION
  2
TABLES
  0
TABLE
  2
VPORT
 70
     2
  0
VPORT
  2
*ACTIVE
 70
     0
 10
0.0
 20
0.0
 11
1.0
 21
1.0
 12
222.522843
 22
142.040485
 13
0.0
 23
0.0
 14
2.5
 24
2.5
 15
0.0
 25
0.0
 16
0.0
 26
0.0
 36
1.0
 17
0.0
 27
0.0
 37
0.0
 40
284.080971
 41
1.566616
 42
50.0
 43
0.0
 44
0.0
 50
0.0
 51
0.0
 71
     0
 72
   100
 73
     1
 74
     1
 75
     1
 76
     0
 77
     0
 78
     0
  0
ENDTAB
  0
TABLE
  2
LTYPE
 70
     7
  0
LTYPE
  2
CONTINUOUS
 70
    64
  3
Solid line
 72
    65
 73
     0
 40
0.0
  0
LTYPE
  2
DASHED
 70
    64
  3
__ __ __ __ __ __ __ __ __ __ __ __ __ __ __ __
 72
    65
 73
     2
 40
0.75
 49
0.5
 49
-0.25
  0
LTYPE
  2
CENTER
 70
    64
  3
____ _ ____ _ ____ _ ____ _ ____ _ ____ _ ____ 
 72
    65
 73
     4
 40
2.0
 49
1.25
 49
-0.25
 49
0.25
 49
-0.25
  0
LTYPE
  2
HIDDEN
 70
    64
  3
__ __ __ __ __ __ __ __ __ __ __ __ __ __ __ __
 72
    65
 73
     2
 40
0.375
 49
0.25
 49
-0.125
  0
LTYPE
  2
DOT
 70
     0
  3
. . . . . . . . . . . . . . . . . . . . . . . .
 72
    65
 73
     2
 40
0.25
 49
0.0
 49
-0.25
  0
LTYPE
  2
DASHDOT
 70
     0
  3
__ . __ . __ . __ . __ . __ . __ . __ . __ . __
 72
    65
 73
     4
 40
1.0
 49
0.5
 49
-0.25
 49
0.0
 49
-0.25
  0
LTYPE
  2
PHANTOM
 70
     0
  3
______  __  __  ______  __  __  ______  __  __ 
 72
    65
 73
     6
 40
2.5
 49
1.25
 49
-0.25
 49
0.25
 49
-0.25
 49
0.25
 49
-0.25
  0
ENDTAB
  0
TABLE
  2
LAYER
 70
    13
  0
LAYER
  2
0
 70
    64
 62
     7
  6
CONTINUOUS
  0
LAYER
  2
RAAMI
 70
    64
 62
    -4
  6
CONTINUOUS
  0
LAYER
  2
PAKSU
 70
    64
 62
    -3
  6
CONTINUOUS
  0
LAYER
  2
OHUT
 70
    64
 62
    -6
  6
CONTINUOUS
  0
LAYER
  2
SWEDEN
 70
    64
 62
    -7
  6
CONTINUOUS
  0
LAYER
  2
SWEDEN2
 70
    64
 62
    -5
  6
CONTINUOUS
  0
LAYER
  2
BASE
 70
    64
 62
    -7
  6
CONTINUOUS
  0
LAYER
  2
21
 70
    64
 62
    -2
  6
CONTINUOUS
  0
LAYER
  2
HEL035
 70
    64
 62
    -7
  6
CONTINUOUS
  0
LAYER
  2
MUO
 70
    64
 62
    -7
  6
CONTINUOUS
  0
LAYER
  2
1
 70
    64
 62
    -2
  6
CONTINUOUS
  0
LAYER
  2
BASE1
 70
    64
 62
    -1
  6
CONTINUOUS
  0
LAYER
  2
TEKS
 70
    64
 62
    -5
  6
CONTINUOUS
  0
ENDTAB
  0
TABLE
  2
STYLE
 70
     8
  0
STYLE
  2
STANDARD
 70
    64
 40
0.0
 41
1.0
 50
0.0
 71
     0
 42
2.5
  3
txt
  4

  0
STYLE
  2
ROMANS
 70
    64
 40
0.0
 41
1.0
 50
0.0
 71
     0
 42
2.0
  3
romans
  4

  0
STYLE
  2
GREEKC
 70
     0
 40
0.0
 41
1.0
 50
0.0
 71
     0
 42
1.5
  3
GREEKC
  4

  0
STYLE
  2
GREEKS
 70
    64
 40
0.0
 41
1.0
 50
0.0
 71
     0
 42
3.0
  3
TXT
  4

  0
STYLE
  2
MONOTXT
 70
     0
 40
0.0
 41
1.0
 50
0.0
 71
     0
 42
2.0
  3
monotxt
  4

  0
STYLE
  2
ROMANT
 70
     0
 40
0.0
 41
1.0
 50
0.0
 71
     0
 42
2.5
  3
romant
  4

  0
STYLE
  2
ITALICC
 70
     0
 40
0.0
 41
1.0
 50
0.0
 71
     0
 42
2.5
  3
ITALIC
  4

  0
STYLE
  2
ROMAND
 70
     0
 40
0.0
 41
1.0
 50
0.0
 71
     0
 42
2.5
  3
ROMAND
  4

  0
ENDTAB
  0
TABLE
  2
VIEW
 70
     0
  0
ENDTAB
  0
TABLE
  2
UCS
 70
     0
  0
ENDTAB
  0
TABLE
  2
APPID
 70
     1
  0
APPID
  2
ACAD
 70
    64
  0
ENDTAB
  0
TABLE
  2
DIMSTYLE
 70
     0
  0
ENDTAB
  0
ENDSEC
  0
SECTION
  2
BLOCKS
  0
BLOCK
  8
0
  2
1
 70
    64
 10
0.0
 20
0.0
 30
0.0
  3
1
  0
ENDBLK
  8
0
  0
BLOCK
  8
0
  2
BLC16
 70
     0
 10
0.0
 20
0.0
 30
0.0
  3
BLC16
  0
LINE
  8
0
  6
CONTINUOUS
 10
0.007689
 20
38.054928
 30
0.0
 11
19.983683
 21
38.054928
 31
0.0
  0
LINE
  8
0
  6
CONTINUOUS
 10
19.983683
 20
38.054928
 30
0.0
 11
19.983683
 21
-0.003751
 31
0.0
  0
LINE
  8
0
  6
CONTINUOUS
 10
19.983683
 20
-0.003751
 30
0.0
 11
0.007689
 21
-0.003751
 31
0.0
  0
LINE
  8
0
  6
CONTINUOUS
 10
0.007689
 20
-0.003751
 30
0.0
 11
0.007689
 21
38.054928
 31
0.0
  0
LINE
  8
0
  6
CONTINUOUS
 10
14.152643
 20
36.919738
 30
0.0
 11
14.152643
 21
33.528469
 31
0.0
  0
LINE
  8
0
  6
CONTINUOUS
 10
14.152643
 20
33.528469
 30
0.0
 11
11.560435
 21
33.528469
 31
0.0
  0
LINE
  8
0
  6
CONTINUOUS
 10
11.560435
 20
33.528469
 30
0.0
 11
11.560435
 21
30.778433
 31
0.0
  0
LINE
  8
0
  6
CONTINUOUS
 10
11.560435
 20
30.778433
 30
0.0
 11
14.152643
 21
30.778433
 31
0.0
  0
LINE
  8
0
  6
CONTINUOUS
 10
14.152643
 20
30.778433
 30
0.0
 11
14.152643
 21
27.387164
 31
0.0
  0
TEXT
  8
0
  6
CONTINUOUS
 10
6.558569
 20
30.805266
 30
0.0
 40
2.5
  1
2
 11
6.558569
 21
29.971932
 31
0.0
 73
     1
  0
TEXT
  8
0
  6
CONTINUOUS
 10
6.553289
 20
23.854078
 30
0.0
 40
2.5
  1
2 I
 11
6.553289
 21
23.020744
 31
0.0
 73
     1
  0
LINE
  8
0
  6
CONTINUOUS
 10
12.942534
 20
26.359129
 30
0.0
 11
15.288299
 21
25.023775
 31
0.0
  0
LINE
  8
0
  6
CONTINUOUS
 10
15.288299
 20
25.023775
 30
0.0
 11
12.942534
 21
23.833856
 31
0.0
  0
LINE
  8
0
  6
CONTINUOUS
 10
14.169823
 20
26.359129
 30
0.0
 11
16.515589
 21
25.023775
 31
0.0
  0
LINE
  8
0
  6
CONTINUOUS
 10
16.515589
 20
25.023775
 30
0.0
 11
14.169823
 21
23.833856
 31
0.0
  0
TEXT
  8
0
  6
CONTINUOUS
 10
11.566446
 20
19.235679
 30
0.0
 40
2.5
  1
I
 11
11.566446
 21
18.402346
 31
0.0
 73
     1
  0
TEXT
  8
0
  6
CONTINUOUS
 10
13.018181
 20
18.902346
 30
0.0
 40
1.5
  1
2
 11
13.018181
 21
18.402346
 31
0.0
 73
     1
  0
LINE
  8
0
  6
CONTINUOUS
 10
10.65733
 20
12.773825
 30
0.0
 11
13.003095
 21
13.963744
 31
0.0
  0
LINE
  8
0
  6
CONTINUOUS
 10
13.003095
 20
11.438471
 30
0.0
 11
10.65733
 21
12.773825
 31
0.0
  0
LINE
  8
0
  6
CONTINUOUS
 10
6.557002
 20
16.714658
 30
0.0
 11
15.281743
 21
16.714658
 31
0.0
  0
LINE
  8
0
  6
CONTINUOUS
 10
6.557002
 20
17.523984
 30
0.0
 11
6.557002
 21
15.908791
 31
0.0
  0
LINE
  8
0
  6
CONTINUOUS
 10
15.286518
 20
17.523984
 30
0.0
 11
15.286518
 21
15.908791
 31
0.0
  0
ARC
  8
0
  6
CONTINUOUS
 10
12.684846
 20
18.508045
 30
0.0
 40
2.922744
 50
193.105513
 51
283.105513
  0
TEXT
  8
0
  6
CONTINUOUS
 10
6.557002
 20
11.567974
 30
0.0
 40
2.5
  1
2I
 11
6.557002
 21
10.734641
 31
0.0
 73
     1
  0
LINE
  8
0
  6
CONTINUOUS
 10
6.557002
 20
9.441103
 30
0.0
 11
15.281743
 21
9.441103
 31
0.0
  0
LINE
  8
0
  6
CONTINUOUS
 10
15.286518
 20
10.250429
 30
0.0
 11
15.286518
 21
8.635236
 31
0.0
  0
LINE
  8
0
  6
CONTINUOUS
 10
6.557002
 20
10.250429
 30
0.0
 11
6.557002
 21
8.635236
 31
0.0
  0
TEXT
  8
0
  6
CONTINUOUS
 10
6.557002
 20
4.778631
 30
0.0
 40
2.5
  1
I
 11
6.557002
 21
3.945298
 31
0.0
 73
     1
  0
LINE
  8
0
  6
CONTINUOUS
 10
9.509029
 20
6.822462
 30
0.0
 11
9.509029
 21
5.477736
 31
0.0
  0
LINE
  8
0
  6
CONTINUOUS
 10
8.615065
 20
5.477736
 30
0.0
 11
9.52622
 21
5.477736
 31
0.0
  0
LINE
  8
0
  6
CONTINUOUS
 10
9.509029
 20
5.477736
 30
0.0
 11
10.402992
 21
5.477736
 31
0.0
  0
LINE
  8
0
  6
CONTINUOUS
 10
8.901592
 20
5.082328
 30
0.0
 11
9.509029
 21
5.082328
 31
0.0
  0
LINE
  8
0
  6
CONTINUOUS
 10
9.509029
 20
5.082328
 30
0.0
 11
10.150849
 21
5.082328
 31
0.0
  0
LINE
  8
0
  6
CONTINUOUS
 10
9.981861
 20
4.719969
 30
0.0
 11
9.072041
 21
4.719969
 31
0.0
  0
LINE
  8
0
  6
CONTINUOUS
 10
15.286518
 20
2.797924
 30
0.0
 11
15.286518
 21
1.182731
 31
0.0
  0
LINE
  8
0
  6
CONTINUOUS
 10
6.557002
 20
1.988598
 30
0.0
 11
15.281743
 21
1.988598
 31
0.0
  0
LINE
  8
0
  6
CONTINUOUS
 10
6.557002
 20
2.797924
 30
0.0
 11
6.557002
 21
1.182731
 31
0.0
  0
ENDBLK
  8
0
  0
BLOCK
  8
0
  2
BLC27
 70
     0
 10
0.0
 20
0.0
 30
0.0
  3
BLC27
  0
INSERT
  8
SWEDEN2
  6
CENTER
  2
BLC26
 10
0.08063
 20
0.037985
 30
0.0
 41
1.006225
 42
1.006225
 43
1.006225
  0
ENDBLK
  8
0
  0
BLOCK
  8
0
  2
BLC26
 70
    64
 10
0.0
 20
0.0
 30
0.0
  3
BLC26
  0
ARC
  8
0
  6
CONTINUOUS
 10
-0.180576
 20
1.17922
 30
0.0
 40
1.196859
 50
90.0
 51
265.706237
  0
LINE
  8
0
  6
CONTINUOUS
 10
-0.186638
 20
-0.01092
 30
0.0
 11
0.458942
 21
-0.01092
 31
0.0
  0
LINE
  8
0
  6
CONTINUOUS
 10
-0.186638
 20
2.375671
 30
0.0
 11
0.45288
 21
2.375671
 31
0.0
  0
LINE
  8
0
  6
CONTINUOUS
 10
-0.185509
 20
-2.404629
 30
0.0
 11
0.460071
 21
-2.404629
 31
0.0
  0
ARC
  8
0
  6
CONTINUOUS
 10
-0.180576
 20
-1.207779
 30
0.0
 40
1.196859
 50
90.0
 51
270.0
  0
LINE
  8
0
  6
CONTINUOUS
 10
0.451525
 20
-2.404586
 30
0.0
 11
1.401805
 21
-2.404586
 31
0.0
  0
LINE
  8
0
  6
CONTINUOUS
 10
0.446785
 20
2.375674
 30
0.0
 11
1.418544
 21
2.375674
 31
0.0
  0
LINE
  8
0
  6
CONTINUOUS
 10
0.456627
 20
-0.010911
 30
0.0
 11
1.422749
 21
-0.010911
 31
0.0
  0
ENDBLK
  8
0
  0
BLOCK
  8
0
  2
BLC22
 70
     0
 10
0.0
 20
0.0
 30
0.0
  3
BLC22
  0
LINE
  8
HEL035
 10
0.0
 20
-0.00155
 30
0.0
 11
0.0
 21
9.99845
 31
0.0
  0
LINE
  8
21
 10
2.5
 20
10.0
 30
0.0
 11
5.0
 21
10.0
 31
0.0
  0
LINE
  8
HEL035
 10
0.0
 20
9.99845
 30
0.0
 11
2.5
 21
9.99845
 31
0.0
  0
LINE
  8
HEL035
 10
-2.5
 20
5.0
 30
0.0
 11
2.5
 21
5.0
 31
0.0
  0
LINE
  8
21
 10
2.5
 20
5.0
 30
0.0
 11
5.0
 21
5.0
 31
0.0
  0
LINE
  8
21
 10
5.0
 20
5.0
 30
0.0
 11
5.0
 21
7.9
 31
0.0
  0
LINE
  8
HEL035
 10
3.88095
 20
6.944425
 30
0.0
 11
4.560313
 21
6.008681
 31
0.0
  0
LINE
  8
21
 10
10.0
 20
10.0
 30
0.0
 11
4.2
 21
6.5
 31
0.0
  0
LINE
  8
HEL035
 10
2.5
 20
-0.00155
 30
0.0
 11
0.0
 21
-0.00155
 31
0.0
  0
LINE
  8
21
 10
2.5
 20
0.0
 30
0.0
 11
5.0
 21
0.0
 31
0.0
  0
ENDBLK
  8
0
  0
BLOCK
  8
0
  2
BLC18
 70
     0
 10
0.0
 20
0.0
 30
0.0
  3
BLC18
  0
LINE
  8
MUO
 10
-0.056268
 20
0.849555
 30
0.0
 11
8.307242
 21
9.215502
 31
0.0
  0
LINE
  8
MUO
 10
0.928025
 20
-0.107047
 30
0.0
 11
9.268386
 21
8.2307
 31
0.0
  0
LINE
  8
MUO
 10
-0.056268
 20
-0.107047
 30
0.0
 11
-0.056268
 21
9.215502
 31
0.0
  0
LINE
  8
MUO
 10
9.268386
 20
-0.107047
 30
0.0
 11
-0.056268
 21
-0.107047
 31
0.0
  0
LINE
  8
MUO
 10
9.268386
 20
9.215502
 30
0.0
 11
9.268386
 21
-0.107047
 31
0.0
  0
LINE
  8
MUO
 10
-0.056268
 20
9.215502
 30
0.0
 11
9.268386
 21
9.215502
 31
0.0
  0
ENDBLK
  8
0
  0
BLOCK
  8
0
  2
BLC29
 70
    64
 10
0.0
 20
0.0
 30
0.0
  3
BLC29
  0
LINE
  8
0
  6
CONTINUOUS
 10
0.004865
 20
1.206889
 30
0.0
 11
2.350631
 21
-0.128465
 31
0.0
  0
LINE
  8
0
  6
CONTINUOUS
 10
2.350631
 20
-0.128465
 30
0.0
 11
0.004865
 21
-1.318384
 31
0.0
  0
ENDBLK
  8
0
  0
BLOCK
  8
0
  2
WKU130
 70
    64
 10
190.0
 20
250.0
 30
0.0
  3
WKU130
  0
ARC
  8
21
 10
191.083333
 20
249.916667
 30
0.0
 40
1.086534
 50
32.471192
 51
175.601295
  0
ARC
  8
21
 10
192.916667
 20
251.083333
 30
0.0
 40
1.086534
 50
212.471192
 51
355.601295
  0
ENDBLK
  8
0
  0
BLOCK
  8
0
  2
BLC38
 70
    64
 10
0.0
 20
0.0
 30
0.0
  3
BLC38
  0
LINE
  8
BASE
  6
CONTINUOUS
 10
5.0
 20
0.429605
 30
0.0
 11
5.0
 21
-2.5
 31
0.0
  0
LINE
  8
BASE
  6
CONTINUOUS
 10
0.0
 20
0.429605
 30
0.0
 11
0.0
 21
-2.5
 31
0.0
  0
LINE
  8
BASE
  6
CONTINUOUS
 10
5.0
 20
15.0
 30
0.0
 11
5.0
 21
9.752154
 31
0.0
  0
LINE
  8
BASE
  6
CONTINUOUS
 10
0.0
 20
15.0
 30
0.0
 11
0.0
 21
9.752154
 31
0.0
  0
INSERT
  8
HEL035
  2
WKU130
 10
2.806261
 20
1.002888
 30
0.0
 41
0.8
 42
0.8
 43
0.8
  0
LINE
  8
HEL035
 10
2.466311
 20
2.72844
 30
0.0
 11
6.466311
 21
2.72844
 31
0.0
  0
LINE
  8
HEL035
 10
-1.290099
 20
7.674464
 30
0.0
 11
2.709901
 21
7.674464
 31
0.0
  0
LINE
  8
MUO
 10
-2.204897
 20
1.386207
 30
0.0
 11
6.158613
 21
9.752154
 31
0.0
  0
LINE
  8
MUO
 10
-1.220605
 20
0.429605
 30
0.0
 11
7.119756
 21
8.767352
 31
0.0
  0
LINE
  8
MUO
 10
-2.204897
 20
0.429605
 30
0.0
 11
-2.204897
 21
9.752154
 31
0.0
  0
LINE
  8
MUO
 10
7.119756
 20
0.429605
 30
0.0
 11
-2.204897
 21
0.429605
 31
0.0
  0
LINE
  8
MUO
 10
7.119756
 20
9.752154
 30
0.0
 11
7.119756
 21
0.429605
 31
0.0
  0
LINE
  8
MUO
 10
-2.204897
 20
9.752154
 30
0.0
 11
7.119756
 21
9.752154
 31
0.0
  0
TEXT
  8
SWEDEN2
  6
CONTINUOUS
 10
-0.633266
 20
15.55315
 30
0.0
 40
2.0
  1
+
  0
TEXT
  8
SWEDEN2
  6
CONTINUOUS
 10
4.297086
 20
15.577719
 30
0.0
 40
2.0
  1
-
  0
ENDBLK
  8
0
  0
BLOCK
  8
0
  2
*X9
 70
    65
 10
0.0
 20
0.0
 30
0.0
  3
*X
  0
LINE
  8
0
 62
     0
 10
2.284499
 20
6.52714
 30
0.0
 11
4.8
 21
9.042641
 31
0.0
  0
LINE
  8
0
 62
     0
 10
2.379686
 20
6.799104
 30
0.0
 11
4.8
 21
9.219417
 31
0.0
  0
LINE
  8
0
 62
     0
 10
2.474874
 20
7.071068
 30
0.0
 11
4.8
 21
9.396194
 31
0.0
  0
LINE
  8
0
 62
     0
 10
2.570061
 20
7.343032
 30
0.0
 11
4.8
 21
9.572971
 31
0.0
  0
LINE
  8
0
 62
     0
 10
2.665249
 20
7.614996
 30
0.0
 11
4.8
 21
9.749747
 31
0.0
  0
LINE
  8
0
 62
     0
 10
2.760436
 20
7.88696
 30
0.0
 11
4.8
 21
9.926524
 31
0.0
  0
LINE
  8
0
 62
     0
 10
2.855624
 20
8.158924
 30
0.0
 11
4.696699
 21
10.0
 31
0.0
  0
LINE
  8
0
 62
     0
 10
2.950811
 20
8.430889
 30
0.0
 11
4.519922
 21
10.0
 31
0.0
  0
LINE
  8
0
 62
     0
 10
3.045998
 20
8.702853
 30
0.0
 11
4.343146
 21
10.0
 31
0.0
  0
LINE
  8
0
 62
     0
 10
3.141186
 20
8.974817
 30
0.0
 11
4.166369
 21
10.0
 31
0.0
  0
LINE
  8
0
 62
     0
 10
3.236373
 20
9.246781
 30
0.0
 11
3.989592
 21
10.0
 31
0.0
  0
LINE
  8
0
 62
     0
 10
3.331561
 20
9.518745
 30
0.0
 11
3.812816
 21
10.0
 31
0.0
  0
LINE
  8
0
 62
     0
 10
3.426748
 20
9.790709
 30
0.0
 11
3.636039
 21
10.0
 31
0.0
  0
LINE
  8
0
 62
     0
 10
2.189311
 20
6.255175
 30
0.0
 11
4.8
 21
8.865864
 31
0.0
  0
LINE
  8
0
 62
     0
 10
2.094124
 20
5.983211
 30
0.0
 11
4.8
 21
8.689087
 31
0.0
  0
LINE
  8
0
 62
     0
 10
1.998936
 20
5.711247
 30
0.0
 11
4.8
 21
8.512311
 31
0.0
  0
LINE
  8
0
 62
     0
 10
1.903749
 20
5.439283
 30
0.0
 11
4.8
 21
8.335534
 31
0.0
  0
LINE
  8
0
 62
     0
 10
1.841243
 20
5.2
 30
0.0
 11
4.8
 21
8.158757
 31
0.0
  0
LINE
  8
0
 62
     0
 10
2.018019
 20
5.2
 30
0.0
 11
4.8
 21
7.981981
 31
0.0
  0
LINE
  8
0
 62
     0
 10
2.194796
 20
5.2
 30
0.0
 11
4.8
 21
7.805204
 31
0.0
  0
LINE
  8
0
 62
     0
 10
2.371573
 20
5.2
 30
0.0
 11
4.8
 21
7.628427
 31
0.0
  0
LINE
  8
0
 62
     0
 10
2.54835
 20
5.2
 30
0.0
 11
4.8
 21
7.45165
 31
0.0
  0
LINE
  8
0
 62
     0
 10
2.725126
 20
5.2
 30
0.0
 11
4.8
 21
7.274874
 31
0.0
  0
LINE
  8
0
 62
     0
 10
2.901903
 20
5.2
 30
0.0
 11
4.8
 21
7.098097
 31
0.0
  0
LINE
  8
0
 62
     0
 10
3.07868
 20
5.2
 30
0.0
 11
4.8
 21
6.92132
 31
0.0
  0
LINE
  8
0
 62
     0
 10
3.255456
 20
5.2
 30
0.0
 11
4.8
 21
6.744544
 31
0.0
  0
LINE
  8
0
 62
     0
 10
3.432233
 20
5.2
 30
0.0
 11
4.8
 21
6.567767
 31
0.0
  0
LINE
  8
0
 62
     0
 10
3.60901
 20
5.2
 30
0.0
 11
4.8
 21
6.39099
 31
0.0
  0
LINE
  8
0
 62
     0
 10
3.785786
 20
5.2
 30
0.0
 11
4.8
 21
6.214214
 31
0.0
  0
LINE
  8
0
 62
     0
 10
3.962563
 20
5.2
 30
0.0
 11
4.8
 21
6.037437
 31
0.0
  0
LINE
  8
0
 62
     0
 10
4.13934
 20
5.2
 30
0.0
 11
4.8
 21
5.86066
 31
0.0
  0
LINE
  8
0
 62
     0
 10
4.316117
 20
5.2
 30
0.0
 11
4.8
 21
5.683883
 31
0.0
  0
LINE
  8
0
 62
     0
 10
4.492893
 20
5.2
 30
0.0
 11
4.8
 21
5.507107
 31
0.0
  0
LINE
  8
0
 62
     0
 10
4.66967
 20
5.2
 30
0.0
 11
4.8
 21
5.33033
 31
0.0
  0
ENDBLK
  8
0
  0
BLOCK
  8
0
  2
*X10
 70
    65
 10
0.0
 20
0.0
 30
0.0
  3
*X
  0
LINE
  8
0
 62
     0
 10
5.2
 20
6.083883
 30
0.0
 11
7.178252
 21
8.062136
 31
0.0
  0
LINE
  8
0
 62
     0
 10
5.2
 20
6.26066
 30
0.0
 11
7.132421
 21
8.193082
 31
0.0
  0
LINE
  8
0
 62
     0
 10
5.2
 20
6.437437
 30
0.0
 11
7.08659
 21
8.324027
 31
0.0
  0
LINE
  8
0
 62
     0
 10
5.2
 20
6.614214
 30
0.0
 11
7.040759
 21
8.454973
 31
0.0
  0
LINE
  8
0
 62
     0
 10
5.2
 20
6.79099
 30
0.0
 11
6.994928
 21
8.585919
 31
0.0
  0
LINE
  8
0
 62
     0
 10
5.2
 20
6.967767
 30
0.0
 11
6.949097
 21
8.716864
 31
0.0
  0
LINE
  8
0
 62
     0
 10
5.2
 20
7.144544
 30
0.0
 11
6.903266
 21
8.84781
 31
0.0
  0
LINE
  8
0
 62
     0
 10
5.2
 20
7.32132
 30
0.0
 11
6.857435
 21
8.978756
 31
0.0
  0
LINE
  8
0
 62
     0
 10
5.2
 20
7.498097
 30
0.0
 11
6.811604
 21
9.109702
 31
0.0
  0
LINE
  8
0
 62
     0
 10
5.2
 20
7.674874
 30
0.0
 11
6.765773
 21
9.240647
 31
0.0
  0
LINE
  8
0
 62
     0
 10
5.2
 20
7.85165
 30
0.0
 11
6.719942
 21
9.371593
 31
0.0
  0
LINE
  8
0
 62
     0
 10
5.2
 20
8.028427
 30
0.0
 11
6.674111
 21
9.502539
 31
0.0
  0
LINE
  8
0
 62
     0
 10
5.2
 20
8.205204
 30
0.0
 11
6.62828
 21
9.633484
 31
0.0
  0
LINE
  8
0
 62
     0
 10
5.2
 20
8.381981
 30
0.0
 11
6.582449
 21
9.76443
 31
0.0
  0
LINE
  8
0
 62
     0
 10
5.2
 20
8.558757
 30
0.0
 11
6.536619
 21
9.895376
 31
0.0
  0
LINE
  8
0
 62
     0
 10
5.2
 20
8.735534
 30
0.0
 11
6.464466
 21
10.0
 31
0.0
  0
LINE
  8
0
 62
     0
 10
5.2
 20
8.912311
 30
0.0
 11
6.287689
 21
10.0
 31
0.0
  0
LINE
  8
0
 62
     0
 10
5.2
 20
9.089087
 30
0.0
 11
6.110913
 21
10.0
 31
0.0
  0
LINE
  8
0
 62
     0
 10
5.2
 20
9.265864
 30
0.0
 11
5.934136
 21
10.0
 31
0.0
  0
LINE
  8
0
 62
     0
 10
5.2
 20
9.442641
 30
0.0
 11
5.757359
 21
10.0
 31
0.0
  0
LINE
  8
0
 62
     0
 10
5.2
 20
9.619417
 30
0.0
 11
5.580583
 21
10.0
 31
0.0
  0
LINE
  8
0
 62
     0
 10
5.2
 20
9.796194
 30
0.0
 11
5.403806
 21
10.0
 31
0.0
  0
LINE
  8
0
 62
     0
 10
5.2
 20
9.972971
 30
0.0
 11
5.227029
 21
10.0
 31
0.0
  0
LINE
  8
0
 62
     0
 10
5.2
 20
5.907107
 30
0.0
 11
7.224083
 21
7.93119
 31
0.0
  0
LINE
  8
0
 62
     0
 10
5.2
 20
5.73033
 30
0.0
 11
7.269914
 21
7.800245
 31
0.0
  0
LINE
  8
0
 62
     0
 10
5.2
 20
5.553553
 30
0.0
 11
7.315745
 21
7.669299
 31
0.0
  0
LINE
  8
0
 62
     0
 10
5.2
 20
5.376777
 30
0.0
 11
7.361576
 21
7.538353
 31
0.0
  0
LINE
  8
0
 62
     0
 10
5.2
 20
5.2
 30
0.0
 11
7.407407
 21
7.407407
 31
0.0
  0
LINE
  8
0
 62
     0
 10
5.376777
 20
5.2
 30
0.0
 11
7.453238
 21
7.276462
 31
0.0
  0
LINE
  8
0
 62
     0
 10
5.553553
 20
5.2
 30
0.0
 11
7.499069
 21
7.145516
 31
0.0
  0
LINE
  8
0
 62
     0
 10
5.73033
 20
5.2
 30
0.0
 11
7.5449
 21
7.01457
 31
0.0
  0
LINE
  8
0
 62
     0
 10
5.907107
 20
5.2
 30
0.0
 11
7.590731
 21
6.883625
 31
0.0
  0
LINE
  8
0
 62
     0
 10
6.083883
 20
5.2
 30
0.0
 11
7.636562
 21
6.752679
 31
0.0
  0
LINE
  8
0
 62
     0
 10
6.26066
 20
5.2
 30
0.0
 11
7.682393
 21
6.621733
 31
0.0
  0
LINE
  8
0
 62
     0
 10
6.437437
 20
5.2
 30
0.0
 11
7.728224
 21
6.490788
 31
0.0
  0
LINE
  8
0
 62
     0
 10
6.614214
 20
5.2
 30
0.0
 11
7.774055
 21
6.359842
 31
0.0
  0
LINE
  8
0
 62
     0
 10
6.79099
 20
5.2
 30
0.0
 11
7.819886
 21
6.228896
 31
0.0
  0
LINE
  8
0
 62
     0
 10
6.967767
 20
5.2
 30
0.0
 11
7.865717
 21
6.09795
 31
0.0
  0
LINE
  8
0
 62
     0
 10
7.144544
 20
5.2
 30
0.0
 11
7.911548
 21
5.967005
 31
0.0
  0
LINE
  8
0
 62
     0
 10
7.32132
 20
5.2
 30
0.0
 11
7.957379
 21
5.836059
 31
0.0
  0
LINE
  8
0
 62
     0
 10
7.498097
 20
5.2
 30
0.0
 11
8.00321
 21
5.705113
 31
0.0
  0
LINE
  8
0
 62
     0
 10
7.674874
 20
5.2
 30
0.0
 11
8.049041
 21
5.574168
 31
0.0
  0
LINE
  8
0
 62
     0
 10
7.85165
 20
5.2
 30
0.0
 11
8.094872
 21
5.443222
 31
0.0
  0
LINE
  8
0
 62
     0
 10
8.028427
 20
5.2
 30
0.0
 11
8.140703
 21
5.312276
 31
0.0
  0
ENDBLK
  8
0
  0
BLOCK
  8
0
  2
*X11
 70
    65
 10
0.0
 20
0.0
 30
0.0
  3
*X
  0
LINE
  8
0
 62
     0
 10
0.0
 20
0.0
 30
0.0
 11
4.8
 21
4.8
 31
0.0
  0
LINE
  8
0
 62
     0
 10
0.095187
 20
0.271964
 30
0.0
 11
4.623223
 21
4.8
 31
0.0
  0
LINE
  8
0
 62
     0
 10
0.190375
 20
0.543928
 30
0.0
 11
4.446447
 21
4.8
 31
0.0
  0
LINE
  8
0
 62
     0
 10
0.285562
 20
0.815892
 30
0.0
 11
4.26967
 21
4.8
 31
0.0
  0
LINE
  8
0
 62
     0
 10
0.38075
 20
1.087857
 30
0.0
 11
4.092893
 21
4.8
 31
0.0
  0
LINE
  8
0
 62
     0
 10
0.475937
 20
1.359821
 30
0.0
 11
3.916117
 21
4.8
 31
0.0
  0
LINE
  8
0
 62
     0
 10
0.571125
 20
1.631785
 30
0.0
 11
3.73934
 21
4.8
 31
0.0
  0
LINE
  8
0
 62
     0
 10
0.666312
 20
1.903749
 30
0.0
 11
3.562563
 21
4.8
 31
0.0
  0
LINE
  8
0
 62
     0
 10
0.7615
 20
2.175713
 30
0.0
 11
3.385786
 21
4.8
 31
0.0
  0
LINE
  8
0
 62
     0
 10
0.856687
 20
2.447677
 30
0.0
 11
3.20901
 21
4.8
 31
0.0
  0
LINE
  8
0
 62
     0
 10
0.951875
 20
2.719641
 30
0.0
 11
3.032233
 21
4.8
 31
0.0
  0
LINE
  8
0
 62
     0
 10
1.047062
 20
2.991606
 30
0.0
 11
2.855456
 21
4.8
 31
0.0
  0
LINE
  8
0
 62
     0
 10
1.142249
 20
3.26357
 30
0.0
 11
2.67868
 21
4.8
 31
0.0
  0
LINE
  8
0
 62
     0
 10
1.237437
 20
3.535534
 30
0.0
 11
2.501903
 21
4.8
 31
0.0
  0
LINE
  8
0
 62
     0
 10
1.332624
 20
3.807498
 30
0.0
 11
2.325126
 21
4.8
 31
0.0
  0
LINE
  8
0
 62
     0
 10
1.427812
 20
4.079462
 30
0.0
 11
2.14835
 21
4.8
 31
0.0
  0
LINE
  8
0
 62
     0
 10
1.522999
 20
4.351426
 30
0.0
 11
1.971573
 21
4.8
 31
0.0
  0
LINE
  8
0
 62
     0
 10
1.618187
 20
4.62339
 30
0.0
 11
1.794796
 21
4.8
 31
0.0
  0
LINE
  8
0
 62
     0
 10
0.176777
 20
0.0
 30
0.0
 11
4.8
 21
4.623223
 31
0.0
  0
LINE
  8
0
 62
     0
 10
0.353553
 20
0.0
 30
0.0
 11
4.8
 21
4.446447
 31
0.0
  0
LINE
  8
0
 62
     0
 10
0.53033
 20
0.0
 30
0.0
 11
4.8
 21
4.26967
 31
0.0
  0
LINE
  8
0
 62
     0
 10
0.707107
 20
0.0
 30
0.0
 11
4.8
 21
4.092893
 31
0.0
  0
LINE
  8
0
 62
     0
 10
0.883883
 20
0.0
 30
0.0
 11
4.8
 21
3.916117
 31
0.0
  0
LINE
  8
0
 62
     0
 10
1.06066
 20
0.0
 30
0.0
 11
4.8
 21
3.73934
 31
0.0
  0
LINE
  8
0
 62
     0
 10
1.237437
 20
0.0
 30
0.0
 11
3.179842
 21
1.942405
 31
0.0
  0
LINE
  8
0
 62
     0
 10
3.237437
 20
2.0
 30
0.0
 11
4.8
 21
3.562563
 31
0.0
  0
LINE
  8
0
 62
     0
 10
1.414214
 20
0.0
 30
0.0
 11
3.084654
 21
1.670441
 31
0.0
  0
LINE
  8
0
 62
     0
 10
3.414214
 20
2.0
 30
0.0
 11
4.8
 21
3.385786
 31
0.0
  0
LINE
  8
0
 62
     0
 10
1.59099
 20
0.0
 30
0.0
 11
2.989467
 21
1.398477
 31
0.0
  0
LINE
  8
0
 62
     0
 10
3.59099
 20
2.0
 30
0.0
 11
4.8
 21
3.20901
 31
0.0
  0
LINE
  8
0
 62
     0
 10
1.767767
 20
0.0
 30
0.0
 11
2.894279
 21
1.126512
 31
0.0
  0
LINE
  8
0
 62
     0
 10
3.767767
 20
2.0
 30
0.0
 11
4.8
 21
3.032233
 31
0.0
  0
LINE
  8
0
 62
     0
 10
1.944544
 20
0.0
 30
0.0
 11
2.799092
 21
0.854548
 31
0.0
  0
LINE
  8
0
 62
     0
 10
3.944544
 20
2.0
 30
0.0
 11
4.8
 21
2.855456
 31
0.0
  0
LINE
  8
0
 62
     0
 10
2.12132
 20
0.0
 30
0.0
 11
2.703904
 21
0.582584
 31
0.0
  0
LINE
  8
0
 62
     0
 10
4.12132
 20
2.0
 30
0.0
 11
4.8
 21
2.67868
 31
0.0
  0
LINE
  8
0
 62
     0
 10
2.298097
 20
0.0
 30
0.0
 11
2.608717
 21
0.31062
 31
0.0
  0
LINE
  8
0
 62
     0
 10
4.298097
 20
2.0
 30
0.0
 11
4.8
 21
2.501903
 31
0.0
  0
LINE
  8
0
 62
     0
 10
2.474874
 20
0.0
 30
0.0
 11
2.51353
 21
0.038656
 31
0.0
  0
LINE
  8
0
 62
     0
 10
4.474874
 20
2.0
 30
0.0
 11
4.8
 21
2.325126
 31
0.0
  0
LINE
  8
0
 62
     0
 10
4.65165
 20
2.0
 30
0.0
 11
4.8
 21
2.14835
 31
0.0
  0
ENDBLK
  8
0
  0
BLOCK
  8
0
  2
*X12
 70
    65
 10
0.0
 20
0.0
 30
0.0
  3
*X
  0
LINE
  8
0
 62
     0
 10
6.884654
 20
1.75813
 30
0.0
 11
8.736506
 21
3.609982
 31
0.0
  0
LINE
  8
0
 62
     0
 10
6.838823
 20
1.889076
 30
0.0
 11
8.690675
 21
3.740928
 31
0.0
  0
LINE
  8
0
 62
     0
 10
6.772971
 20
2.0
 30
0.0
 11
8.644844
 21
3.871874
 31
0.0
  0
LINE
  8
0
 62
     0
 10
6.596194
 20
2.0
 30
0.0
 11
8.599013
 21
4.002819
 31
0.0
  0
LINE
  8
0
 62
     0
 10
6.419417
 20
2.0
 30
0.0
 11
8.553182
 21
4.133765
 31
0.0
  0
LINE
  8
0
 62
     0
 10
6.242641
 20
2.0
 30
0.0
 11
8.507351
 21
4.264711
 31
0.0
  0
LINE
  8
0
 62
     0
 10
6.065864
 20
2.0
 30
0.0
 11
8.46152
 21
4.395656
 31
0.0
  0
LINE
  8
0
 62
     0
 10
5.889087
 20
2.0
 30
0.0
 11
8.415689
 21
4.526602
 31
0.0
  0
LINE
  8
0
 62
     0
 10
5.712311
 20
2.0
 30
0.0
 11
8.369858
 21
4.657548
 31
0.0
  0
LINE
  8
0
 62
     0
 10
5.535534
 20
2.0
 30
0.0
 11
8.324027
 21
4.788493
 31
0.0
  0
LINE
  8
0
 62
     0
 10
5.358757
 20
2.0
 30
0.0
 11
8.158757
 21
4.8
 31
0.0
  0
LINE
  8
0
 62
     0
 10
5.2
 20
2.018019
 30
0.0
 11
7.981981
 21
4.8
 31
0.0
  0
LINE
  8
0
 62
     0
 10
5.2
 20
2.194796
 30
0.0
 11
7.805204
 21
4.8
 31
0.0
  0
LINE
  8
0
 62
     0
 10
5.2
 20
2.371573
 30
0.0
 11
7.628427
 21
4.8
 31
0.0
  0
LINE
  8
0
 62
     0
 10
5.2
 20
2.54835
 30
0.0
 11
7.45165
 21
4.8
 31
0.0
  0
LINE
  8
0
 62
     0
 10
5.2
 20
2.725126
 30
0.0
 11
7.274874
 21
4.8
 31
0.0
  0
LINE
  8
0
 62
     0
 10
5.2
 20
2.901903
 30
0.0
 11
7.098097
 21
4.8
 31
0.0
  0
LINE
  8
0
 62
     0
 10
5.2
 20
3.07868
 30
0.0
 11
6.92132
 21
4.8
 31
0.0
  0
LINE
  8
0
 62
     0
 10
5.2
 20
3.255456
 30
0.0
 11
6.744544
 21
4.8
 31
0.0
  0
LINE
  8
0
 62
     0
 10
5.2
 20
3.432233
 30
0.0
 11
6.567767
 21
4.8
 31
0.0
  0
LINE
  8
0
 62
     0
 10
5.2
 20
3.60901
 30
0.0
 11
6.39099
 21
4.8
 31
0.0
  0
LINE
  8
0
 62
     0
 10
5.2
 20
3.785786
 30
0.0
 11
6.214214
 21
4.8
 31
0.0
  0
LINE
  8
0
 62
     0
 10
5.2
 20
3.962563
 30
0.0
 11
6.037437
 21
4.8
 31
0.0
  0
LINE
  8
0
 62
     0
 10
5.2
 20
4.13934
 30
0.0
 11
5.86066
 21
4.8
 31
0.0
  0
LINE
  8
0
 62
     0
 10
5.2
 20
4.316117
 30
0.0
 11
5.683883
 21
4.8
 31
0.0
  0
LINE
  8
0
 62
     0
 10
5.2
 20
4.492893
 30
0.0
 11
5.507107
 21
4.8
 31
0.0
  0
LINE
  8
0
 62
     0
 10
5.2
 20
4.66967
 30
0.0
 11
5.33033
 21
4.8
 31
0.0
  0
LINE
  8
0
 62
     0
 10
6.930485
 20
1.627185
 30
0.0
 11
8.782337
 21
3.479036
 31
0.0
  0
LINE
  8
0
 62
     0
 10
6.976316
 20
1.496239
 30
0.0
 11
8.828168
 21
3.348091
 31
0.0
  0
LINE
  8
0
 62
     0
 10
7.022147
 20
1.365293
 30
0.0
 11
8.873999
 21
3.217145
 31
0.0
  0
LINE
  8
0
 62
     0
 10
7.067978
 20
1.234347
 30
0.0
 11
8.91983
 21
3.086199
 31
0.0
  0
LINE
  8
0
 62
     0
 10
7.113809
 20
1.103402
 30
0.0
 11
8.965661
 21
2.955254
 31
0.0
  0
LINE
  8
0
 62
     0
 10
7.15964
 20
0.972456
 30
0.0
 11
9.011492
 21
2.824308
 31
0.0
  0
LINE
  8
0
 62
     0
 10
7.205471
 20
0.84151
 30
0.0
 11
9.057323
 21
2.693362
 31
0.0
  0
LINE
  8
0
 62
     0
 10
7.251302
 20
0.710565
 30
0.0
 11
9.103154
 21
2.562416
 31
0.0
  0
LINE
  8
0
 62
     0
 10
7.297133
 20
0.579619
 30
0.0
 11
9.148985
 21
2.431471
 31
0.0
  0
LINE
  8
0
 62
     0
 10
7.342964
 20
0.448673
 30
0.0
 11
9.194816
 21
2.300525
 31
0.0
  0
LINE
  8
0
 62
     0
 10
7.388795
 20
0.317728
 30
0.0
 11
9.240647
 21
2.169579
 31
0.0
  0
LINE
  8
0
 62
     0
 10
7.434626
 20
0.186782
 30
0.0
 11
9.286478
 21
2.038634
 31
0.0
  0
LINE
  8
0
 62
     0
 10
7.480457
 20
0.055836
 30
0.0
 11
9.332309
 21
1.907688
 31
0.0
  0
LINE
  8
0
 62
     0
 10
7.601398
 20
0.0
 30
0.0
 11
9.37814
 21
1.776742
 31
0.0
  0
LINE
  8
0
 62
     0
 10
7.778175
 20
0.0
 30
0.0
 11
9.423971
 21
1.645797
 31
0.0
  0
LINE
  8
0
 62
     0
 10
7.954951
 20
0.0
 30
0.0
 11
9.469802
 21
1.514851
 31
0.0
  0
LINE
  8
0
 62
     0
 10
8.131728
 20
0.0
 30
0.0
 11
9.515633
 21
1.383905
 31
0.0
  0
LINE
  8
0
 62
     0
 10
8.308505
 20
0.0
 30
0.0
 11
9.561464
 21
1.252959
 31
0.0
  0
LINE
  8
0
 62
     0
 10
8.485281
 20
0.0
 30
0.0
 11
9.607295
 21
1.122014
 31
0.0
  0
LINE
  8
0
 62
     0
 10
8.662058
 20
0.0
 30
0.0
 11
9.653126
 21
0.991068
 31
0.0
  0
LINE
  8
0
 62
     0
 10
8.838835
 20
0.0
 30
0.0
 11
9.698957
 21
0.860122
 31
0.0
  0
LINE
  8
0
 62
     0
 10
9.015611
 20
0.0
 30
0.0
 11
9.744788
 21
0.729177
 31
0.0
  0
LINE
  8
0
 62
     0
 10
9.192388
 20
0.0
 30
0.0
 11
9.790619
 21
0.598231
 31
0.0
  0
LINE
  8
0
 62
     0
 10
9.369165
 20
0.0
 30
0.0
 11
9.83645
 21
0.467285
 31
0.0
  0
LINE
  8
0
 62
     0
 10
9.545942
 20
0.0
 30
0.0
 11
9.882281
 21
0.33634
 31
0.0
  0
LINE
  8
0
 62
     0
 10
9.722718
 20
0.0
 30
0.0
 11
9.928112
 21
0.205394
 31
0.0
  0
LINE
  8
0
 62
     0
 10
9.899495
 20
0.0
 30
0.0
 11
9.973943
 21
0.074448
 31
0.0
  0
ENDBLK
  8
0
  0
BLOCK
  8
0
  2
*X13
 70
    65
 10
0.0
 20
0.0
 30
0.0
  3
*X
  0
LINE
  8
0
 62
     0
 10
10.7
 20
6.280583
 30
0.0
 11
13.5
 21
9.080583
 31
0.0
  0
LINE
  8
0
 62
     0
 10
10.7
 20
6.457359
 30
0.0
 11
13.5
 21
9.257359
 31
0.0
  0
LINE
  8
0
 62
     0
 10
10.7
 20
6.634136
 30
0.0
 11
13.5
 21
9.434136
 31
0.0
  0
LINE
  8
0
 62
     0
 10
10.7
 20
6.810913
 30
0.0
 11
13.5
 21
9.610913
 31
0.0
  0
LINE
  8
0
 62
     0
 10
10.7
 20
6.987689
 30
0.0
 11
13.5
 21
9.787689
 31
0.0
  0
LINE
  8
0
 62
     0
 10
10.7
 20
7.164466
 30
0.0
 11
13.5
 21
9.964466
 31
0.0
  0
LINE
  8
0
 62
     0
 10
10.7
 20
7.341243
 30
0.0
 11
13.358757
 21
10.0
 31
0.0
  0
LINE
  8
0
 62
     0
 10
10.7
 20
7.518019
 30
0.0
 11
13.181981
 21
10.0
 31
0.0
  0
LINE
  8
0
 62
     0
 10
10.7
 20
7.694796
 30
0.0
 11
13.005204
 21
10.0
 31
0.0
  0
LINE
  8
0
 62
     0
 10
10.7
 20
7.871573
 30
0.0
 11
12.828427
 21
10.0
 31
0.0
  0
LINE
  8
0
 62
     0
 10
10.7
 20
8.04835
 30
0.0
 11
12.65165
 21
10.0
 31
0.0
  0
LINE
  8
0
 62
     0
 10
10.7
 20
8.225126
 30
0.0
 11
12.474874
 21
10.0
 31
0.0
  0
LINE
  8
0
 62
     0
 10
10.7
 20
8.401903
 30
0.0
 11
12.298097
 21
10.0
 31
0.0
  0
LINE
  8
0
 62
     0
 10
10.7
 20
8.57868
 30
0.0
 11
12.12132
 21
10.0
 31
0.0
  0
LINE
  8
0
 62
     0
 10
10.7
 20
8.755456
 30
0.0
 11
11.944544
 21
10.0
 31
0.0
  0
LINE
  8
0
 62
     0
 10
10.7
 20
8.932233
 30
0.0
 11
11.767767
 21
10.0
 31
0.0
  0
LINE
  8
0
 62
     0
 10
10.7
 20
9.10901
 30
0.0
 11
11.59099
 21
10.0
 31
0.0
  0
LINE
  8
0
 62
     0
 10
10.7
 20
9.285786
 30
0.0
 11
11.414214
 21
10.0
 31
0.0
  0
LINE
  8
0
 62
     0
 10
10.7
 20
9.462563
 30
0.0
 11
11.237437
 21
10.0
 31
0.0
  0
LINE
  8
0
 62
     0
 10
10.7
 20
9.63934
 30
0.0
 11
11.06066
 21
10.0
 31
0.0
  0
LINE
  8
0
 62
     0
 10
10.7
 20
9.816117
 30
0.0
 11
10.883883
 21
10.0
 31
0.0
  0
LINE
  8
0
 62
     0
 10
10.7
 20
9.992893
 30
0.0
 11
10.707107
 21
10.0
 31
0.0
  0
LINE
  8
0
 62
     0
 10
10.7
 20
6.103806
 30
0.0
 11
13.5
 21
8.903806
 31
0.0
  0
LINE
  8
0
 62
     0
 10
10.7
 20
5.927029
 30
0.0
 11
13.5
 21
8.727029
 31
0.0
  0
LINE
  8
0
 62
     0
 10
10.7
 20
5.750253
 30
0.0
 11
13.5
 21
8.550253
 31
0.0
  0
LINE
  8
0
 62
     0
 10
10.7
 20
5.573476
 30
0.0
 11
13.5
 21
8.373476
 31
0.0
  0
LINE
  8
0
 62
     0
 10
10.7
 20
5.396699
 30
0.0
 11
13.5
 21
8.196699
 31
0.0
  0
LINE
  8
0
 62
     0
 10
10.7
 20
5.219922
 30
0.0
 11
13.5
 21
8.019922
 31
0.0
  0
LINE
  8
0
 62
     0
 10
10.856854
 20
5.2
 30
0.0
 11
13.5
 21
7.843146
 31
0.0
  0
LINE
  8
0
 62
     0
 10
11.033631
 20
5.2
 30
0.0
 11
13.5
 21
7.666369
 31
0.0
  0
LINE
  8
0
 62
     0
 10
11.210408
 20
5.2
 30
0.0
 11
13.5
 21
7.489592
 31
0.0
  0
LINE
  8
0
 62
     0
 10
11.387184
 20
5.2
 30
0.0
 11
13.5
 21
7.312816
 31
0.0
  0
LINE
  8
0
 62
     0
 10
11.563961
 20
5.2
 30
0.0
 11
13.5
 21
7.136039
 31
0.0
  0
LINE
  8
0
 62
     0
 10
11.740738
 20
5.2
 30
0.0
 11
13.5
 21
6.959262
 31
0.0
  0
LINE
  8
0
 62
     0
 10
11.917514
 20
5.2
 30
0.0
 11
13.5
 21
6.782486
 31
0.0
  0
LINE
  8
0
 62
     0
 10
12.094291
 20
5.2
 30
0.0
 11
13.5
 21
6.605709
 31
0.0
  0
LINE
  8
0
 62
     0
 10
12.271068
 20
5.2
 30
0.0
 11
13.5
 21
6.428932
 31
0.0
  0
LINE
  8
0
 62
     0
 10
12.447845
 20
5.2
 30
0.0
 11
13.5
 21
6.252155
 31
0.0
  0
LINE
  8
0
 62
     0
 10
12.624621
 20
5.2
 30
0.0
 11
13.5
 21
6.075379
 31
0.0
  0
LINE
  8
0
 62
     0
 10
12.801398
 20
5.2
 30
0.0
 11
13.5
 21
5.898602
 31
0.0
  0
LINE
  8
0
 62
     0
 10
12.978175
 20
5.2
 30
0.0
 11
13.5
 21
5.721825
 31
0.0
  0
LINE
  8
0
 62
     0
 10
13.154951
 20
5.2
 30
0.0
 11
13.5
 21
5.545049
 31
0.0
  0
LINE
  8
0
 62
     0
 10
13.331728
 20
5.2
 30
0.0
 11
13.5
 21
5.368272
 31
0.0
  0
ENDBLK
  8
0
  0
BLOCK
  8
0
  2
*X14
 70
    65
 10
0.0
 20
0.0
 30
0.0
  3
*X
  0
LINE
  8
0
 62
     0
 10
10.7
 20
1.154058
 30
0.0
 11
13.5
 21
3.954058
 31
0.0
  0
LINE
  8
0
 62
     0
 10
10.7
 20
1.330835
 30
0.0
 11
13.5
 21
4.130835
 31
0.0
  0
LINE
  8
0
 62
     0
 10
10.7
 20
1.507612
 30
0.0
 11
13.5
 21
4.307612
 31
0.0
  0
LINE
  8
0
 62
     0
 10
10.7
 20
1.684389
 30
0.0
 11
13.5
 21
4.484389
 31
0.0
  0
LINE
  8
0
 62
     0
 10
10.7
 20
1.861165
 30
0.0
 11
13.5
 21
4.661165
 31
0.0
  0
LINE
  8
0
 62
     0
 10
10.7
 20
2.037942
 30
0.0
 11
13.462058
 21
4.8
 31
0.0
  0
LINE
  8
0
 62
     0
 10
10.7
 20
2.214719
 30
0.0
 11
13.285281
 21
4.8
 31
0.0
  0
LINE
  8
0
 62
     0
 10
10.7
 20
2.391495
 30
0.0
 11
13.108505
 21
4.8
 31
0.0
  0
LINE
  8
0
 62
     0
 10
10.7
 20
2.568272
 30
0.0
 11
12.931728
 21
4.8
 31
0.0
  0
LINE
  8
0
 62
     0
 10
10.7
 20
2.745049
 30
0.0
 11
12.754951
 21
4.8
 31
0.0
  0
LINE
  8
0
 62
     0
 10
10.7
 20
2.921825
 30
0.0
 11
12.578175
 21
4.8
 31
0.0
  0
LINE
  8
0
 62
     0
 10
10.7
 20
3.098602
 30
0.0
 11
12.401398
 21
4.8
 31
0.0
  0
LINE
  8
0
 62
     0
 10
10.7
 20
3.275379
 30
0.0
 11
12.224621
 21
4.8
 31
0.0
  0
LINE
  8
0
 62
     0
 10
10.7
 20
3.452155
 30
0.0
 11
12.047845
 21
4.8
 31
0.0
  0
LINE
  8
0
 62
     0
 10
10.7
 20
3.628932
 30
0.0
 11
11.871068
 21
4.8
 31
0.0
  0
LINE
  8
0
 62
     0
 10
10.7
 20
3.805709
 30
0.0
 11
11.694291
 21
4.8
 31
0.0
  0
LINE
  8
0
 62
     0
 10
10.7
 20
3.982486
 30
0.0
 11
11.517514
 21
4.8
 31
0.0
  0
LINE
  8
0
 62
     0
 10
10.7
 20
4.159262
 30
0.0
 11
11.340738
 21
4.8
 31
0.0
  0
LINE
  8
0
 62
     0
 10
10.7
 20
4.336039
 30
0.0
 11
11.163961
 21
4.8
 31
0.0
  0
LINE
  8
0
 62
     0
 10
10.7
 20
4.512816
 30
0.0
 11
10.987184
 21
4.8
 31
0.0
  0
LINE
  8
0
 62
     0
 10
10.7
 20
4.689592
 30
0.0
 11
10.810408
 21
4.8
 31
0.0
  0
LINE
  8
0
 62
     0
 10
10.7
 20
0.977282
 30
0.0
 11
13.5
 21
3.777282
 31
0.0
  0
LINE
  8
0
 62
     0
 10
10.7
 20
0.800505
 30
0.0
 11
13.5
 21
3.600505
 31
0.0
  0
LINE
  8
0
 62
     0
 10
10.7
 20
0.623728
 30
0.0
 11
13.5
 21
3.423728
 31
0.0
  0
LINE
  8
0
 62
     0
 10
10.7
 20
0.446952
 30
0.0
 11
13.5
 21
3.246952
 31
0.0
  0
LINE
  8
0
 62
     0
 10
10.7
 20
0.270175
 30
0.0
 11
13.5
 21
3.070175
 31
0.0
  0
LINE
  8
0
 62
     0
 10
10.7
 20
0.093398
 30
0.0
 11
13.5
 21
2.893398
 31
0.0
  0
LINE
  8
0
 62
     0
 10
10.783378
 20
0.0
 30
0.0
 11
13.5
 21
2.716622
 31
0.0
  0
LINE
  8
0
 62
     0
 10
10.960155
 20
0.0
 30
0.0
 11
13.5
 21
2.539845
 31
0.0
  0
LINE
  8
0
 62
     0
 10
11.136932
 20
0.0
 30
0.0
 11
13.5
 21
2.363068
 31
0.0
  0
LINE
  8
0
 62
     0
 10
11.313708
 20
0.0
 30
0.0
 11
13.5
 21
2.186292
 31
0.0
  0
LINE
  8
0
 62
     0
 10
11.490485
 20
0.0
 30
0.0
 11
13.5
 21
2.009515
 31
0.0
  0
LINE
  8
0
 62
     0
 10
11.667262
 20
0.0
 30
0.0
 11
13.5
 21
1.832738
 31
0.0
  0
LINE
  8
0
 62
     0
 10
11.844039
 20
0.0
 30
0.0
 11
13.5
 21
1.655961
 31
0.0
  0
LINE
  8
0
 62
     0
 10
12.020815
 20
0.0
 30
0.0
 11
13.5
 21
1.479185
 31
0.0
  0
LINE
  8
0
 62
     0
 10
12.197592
 20
0.0
 30
0.0
 11
13.5
 21
1.302408
 31
0.0
  0
LINE
  8
0
 62
     0
 10
12.374369
 20
0.0
 30
0.0
 11
13.5
 21
1.125631
 31
0.0
  0
LINE
  8
0
 62
     0
 10
12.551145
 20
0.0
 30
0.0
 11
13.5
 21
0.948855
 31
0.0
  0
LINE
  8
0
 62
     0
 10
12.727922
 20
0.0
 30
0.0
 11
13.5
 21
0.772078
 31
0.0
  0
LINE
  8
0
 62
     0
 10
12.904699
 20
0.0
 30
0.0
 11
13.5
 21
0.595301
 31
0.0
  0
LINE
  8
0
 62
     0
 10
13.081475
 20
0.0
 30
0.0
 11
13.5
 21
0.418525
 31
0.0
  0
LINE
  8
0
 62
     0
 10
13.258252
 20
0.0
 30
0.0
 11
13.5
 21
0.241748
 31
0.0
  0
LINE
  8
0
 62
     0
 10
13.435029
 20
0.0
 30
0.0
 11
13.5
 21
0.064971
 31
0.0
  0
ENDBLK
  8
0
  0
BLOCK
  8
0
  2
*X15
 70
    65
 10
0.0
 20
0.0
 30
0.0
  3
*X
  0
LINE
  8
0
 62
     0
 10
13.9
 20
6.298602
 30
0.0
 11
16.582995
 21
8.981597
 31
0.0
  0
LINE
  8
0
 62
     0
 10
13.9
 20
6.475379
 30
0.0
 11
16.510503
 21
9.085882
 31
0.0
  0
LINE
  8
0
 62
     0
 10
13.9
 20
6.652155
 30
0.0
 11
16.432927
 21
9.185083
 31
0.0
  0
LINE
  8
0
 62
     0
 10
13.9
 20
6.828932
 30
0.0
 11
16.350372
 21
9.279304
 31
0.0
  0
LINE
  8
0
 62
     0
 10
13.9
 20
7.005709
 30
0.0
 11
16.262892
 21
9.368601
 31
0.0
  0
LINE
  8
0
 62
     0
 10
13.9
 20
7.182486
 30
0.0
 11
16.170495
 21
9.452981
 31
0.0
  0
LINE
  8
0
 62
     0
 10
13.9
 20
7.359262
 30
0.0
 11
16.073145
 21
9.532407
 31
0.0
  0
LINE
  8
0
 62
     0
 10
13.9
 20
7.536039
 30
0.0
 11
15.970755
 21
9.606794
 31
0.0
  0
LINE
  8
0
 62
     0
 10
13.9
 20
7.712816
 30
0.0
 11
15.863189
 21
9.676004
 31
0.0
  0
LINE
  8
0
 62
     0
 10
13.9
 20
7.889592
 30
0.0
 11
15.75025
 21
9.739843
 31
0.0
  0
LINE
  8
0
 62
     0
 10
13.9
 20
8.066369
 30
0.0
 11
15.631675
 21
9.798044
 31
0.0
  0
LINE
  8
0
 62
     0
 10
13.9
 20
8.243146
 30
0.0
 11
15.50711
 21
9.850256
 31
0.0
  0
LINE
  8
0
 62
     0
 10
13.9
 20
8.419922
 30
0.0
 11
15.376096
 21
9.896018
 31
0.0
  0
LINE
  8
0
 62
     0
 10
13.9
 20
8.596699
 30
0.0
 11
15.238027
 21
9.934726
 31
0.0
  0
LINE
  8
0
 62
     0
 10
13.9
 20
8.773476
 30
0.0
 11
15.092096
 21
9.965572
 31
0.0
  0
LINE
  8
0
 62
     0
 10
13.9
 20
8.950253
 30
0.0
 11
14.937209
 21
9.987461
 31
0.0
  0
LINE
  8
0
 62
     0
 10
13.9
 20
9.127029
 30
0.0
 11
14.771824
 21
9.998853
 31
0.0
  0
LINE
  8
0
 62
     0
 10
13.9
 20
9.303806
 30
0.0
 11
14.596193
 21
9.999999
 31
0.0
  0
LINE
  8
0
 62
     0
 10
13.9
 20
9.480583
 30
0.0
 11
14.419417
 21
9.999999
 31
0.0
  0
LINE
  8
0
 62
     0
 10
13.9
 20
9.657359
 30
0.0
 11
14.24264
 21
10.0
 31
0.0
  0
LINE
  8
0
 62
     0
 10
13.9
 20
9.834136
 30
0.0
 11
14.065864
 21
10.0
 31
0.0
  0
LINE
  8
0
 62
     0
 10
13.9
 20
6.121825
 30
0.0
 11
16.650245
 21
8.872071
 31
0.0
  0
LINE
  8
0
 62
     0
 10
13.9
 20
5.945049
 30
0.0
 11
16.712035
 21
8.757083
 31
0.0
  0
LINE
  8
0
 62
     0
 10
13.9
 20
5.768272
 30
0.0
 11
16.768067
 21
8.636339
 31
0.0
  0
LINE
  8
0
 62
     0
 10
13.9
 20
5.591495
 30
0.0
 11
16.817955
 21
8.509451
 31
0.0
  0
LINE
  8
0
 62
     0
 10
13.9
 20
5.414719
 30
0.0
 11
16.861189
 21
8.375908
 31
0.0
  0
LINE
  8
0
 62
     0
 10
13.9
 20
5.237942
 30
0.0
 11
16.897097
 21
8.235039
 31
0.0
  0
LINE
  8
0
 62
     0
 10
14.038835
 20
5.2
 30
0.0
 11
16.924779
 21
8.085944
 31
0.0
  0
LINE
  8
0
 62
     0
 10
14.215611
 20
5.2
 30
0.0
 11
16.942997
 21
7.927385
 31
0.0
  0
LINE
  8
0
 62
     0
 10
14.392388
 20
5.2
 30
0.0
 11
16.949987
 21
7.757599
 31
0.0
  0
LINE
  8
0
 62
     0
 10
14.569165
 20
5.2
 30
0.0
 11
16.943101
 21
7.573936
 31
0.0
  0
LINE
  8
0
 62
     0
 10
14.745942
 20
5.2
 30
0.0
 11
16.918037
 21
7.372095
 31
0.0
  0
LINE
  8
0
 62
     0
 10
14.922718
 20
5.2
 30
0.0
 11
16.866909
 21
7.144191
 31
0.0
  0
LINE
  8
0
 62
     0
 10
15.099495
 20
5.2
 30
0.0
 11
16.771715
 21
6.87222
 31
0.0
  0
LINE
  8
0
 62
     0
 10
15.276272
 20
5.2
 30
0.0
 11
15.847951
 21
5.77168
 31
0.0
  0
LINE
  8
0
 62
     0
 10
15.96673
 20
5.890458
 30
0.0
 11
16.559542
 21
6.48327
 31
0.0
  0
LINE
  8
0
 62
     0
 10
15.453048
 20
5.2
 30
0.0
 11
15.970661
 21
5.717613
 31
0.0
  0
LINE
  8
0
 62
     0
 10
15.629825
 20
5.2
 30
0.0
 11
16.088934
 21
5.659109
 31
0.0
  0
LINE
  8
0
 62
     0
 10
15.806602
 20
5.2
 30
0.0
 11
16.202964
 21
5.596363
 31
0.0
  0
LINE
  8
0
 62
     0
 10
15.983378
 20
5.2
 30
0.0
 11
16.312909
 21
5.529531
 31
0.0
  0
LINE
  8
0
 62
     0
 10
16.160155
 20
5.2
 30
0.0
 11
16.418895
 21
5.45874
 31
0.0
  0
LINE
  8
0
 62
     0
 10
16.336932
 20
5.2
 30
0.0
 11
16.521021
 21
5.384089
 31
0.0
  0
LINE
  8
0
 62
     0
 10
16.513708
 20
5.2
 30
0.0
 11
16.619363
 21
5.305655
 31
0.0
  0
LINE
  8
0
 62
     0
 10
16.690485
 20
5.2
 30
0.0
 11
16.713975
 21
5.22349
 31
0.0
  0
ENDBLK
  8
0
  0
BLOCK
  8
0
  2
*X16
 70
    65
 10
0.0
 20
0.0
 30
0.0
  3
*X
  0
LINE
  8
0
 62
     0
 10
13.9
 20
0.818525
 30
0.0
 11
17.39645
 21
4.314974
 31
0.0
  0
LINE
  8
0
 62
     0
 10
13.9
 20
0.995301
 30
0.0
 11
17.336354
 21
4.431655
 31
0.0
  0
LINE
  8
0
 62
     0
 10
13.9
 20
1.172078
 30
0.0
 11
17.272078
 21
4.544156
 31
0.0
  0
LINE
  8
0
 62
     0
 10
13.9
 20
1.348855
 30
0.0
 11
17.203766
 21
4.652621
 31
0.0
  0
LINE
  8
0
 62
     0
 10
13.9
 20
1.525631
 30
0.0
 11
17.131535
 21
4.757167
 31
0.0
  0
LINE
  8
0
 62
     0
 10
13.9
 20
1.702408
 30
0.0
 11
16.997592
 21
4.8
 31
0.0
  0
LINE
  8
0
 62
     0
 10
13.9
 20
1.879185
 30
0.0
 11
16.820815
 21
4.8
 31
0.0
  0
LINE
  8
0
 62
     0
 10
13.9
 20
2.055961
 30
0.0
 11
16.644039
 21
4.8
 31
0.0
  0
LINE
  8
0
 62
     0
 10
13.9
 20
2.232738
 30
0.0
 11
16.467262
 21
4.8
 31
0.0
  0
LINE
  8
0
 62
     0
 10
13.9
 20
2.409515
 30
0.0
 11
16.290485
 21
4.8
 31
0.0
  0
LINE
  8
0
 62
     0
 10
13.9
 20
2.586292
 30
0.0
 11
16.113708
 21
4.8
 31
0.0
  0
LINE
  8
0
 62
     0
 10
13.9
 20
2.763068
 30
0.0
 11
15.936932
 21
4.8
 31
0.0
  0
LINE
  8
0
 62
     0
 10
13.9
 20
2.939845
 30
0.0
 11
15.760155
 21
4.8
 31
0.0
  0
LINE
  8
0
 62
     0
 10
13.9
 20
3.116622
 30
0.0
 11
15.583378
 21
4.8
 31
0.0
  0
LINE
  8
0
 62
     0
 10
13.9
 20
3.293398
 30
0.0
 11
15.406602
 21
4.8
 31
0.0
  0
LINE
  8
0
 62
     0
 10
13.9
 20
3.470175
 30
0.0
 11
15.229825
 21
4.8
 31
0.0
  0
LINE
  8
0
 62
     0
 10
13.9
 20
3.646952
 30
0.0
 11
15.053048
 21
4.8
 31
0.0
  0
LINE
  8
0
 62
     0
 10
13.9
 20
3.823728
 30
0.0
 11
14.876272
 21
4.8
 31
0.0
  0
LINE
  8
0
 62
     0
 10
13.9
 20
4.000505
 30
0.0
 11
14.699495
 21
4.8
 31
0.0
  0
LINE
  8
0
 62
     0
 10
13.9
 20
4.177282
 30
0.0
 11
14.522718
 21
4.8
 31
0.0
  0
LINE
  8
0
 62
     0
 10
13.9
 20
4.354058
 30
0.0
 11
14.345942
 21
4.8
 31
0.0
  0
LINE
  8
0
 62
     0
 10
13.9
 20
4.530835
 30
0.0
 11
14.169165
 21
4.8
 31
0.0
  0
LINE
  8
0
 62
     0
 10
13.9
 20
4.707612
 30
0.0
 11
13.992388
 21
4.8
 31
0.0
  0
LINE
  8
0
 62
     0
 10
13.9
 20
0.641748
 30
0.0
 11
17.452185
 21
4.193933
 31
0.0
  0
LINE
  8
0
 62
     0
 10
13.9
 20
0.464971
 30
0.0
 11
17.503339
 21
4.068311
 31
0.0
  0
LINE
  8
0
 62
     0
 10
13.9
 20
0.288194
 30
0.0
 11
17.549642
 21
3.937837
 31
0.0
  0
LINE
  8
0
 62
     0
 10
13.9
 20
0.111418
 30
0.0
 11
17.590762
 21
3.80218
 31
0.0
  0
LINE
  8
0
 62
     0
 10
13.965359
 20
0.0
 30
0.0
 11
17.62629
 21
3.660931
 31
0.0
  0
LINE
  8
0
 62
     0
 10
14.142136
 20
0.000001
 30
0.0
 11
17.655713
 21
3.513577
 31
0.0
  0
LINE
  8
0
 62
     0
 10
14.318913
 20
0.000001
 30
0.0
 11
17.678385
 21
3.359473
 31
0.0
  0
LINE
  8
0
 62
     0
 10
14.49569
 20
0.000001
 30
0.0
 11
17.693473
 21
3.197784
 31
0.0
  0
LINE
  8
0
 62
     0
 10
14.672467
 20
0.000002
 30
0.0
 11
17.699875
 21
3.027409
 31
0.0
  0
LINE
  8
0
 62
     0
 10
14.853154
 20
0.003912
 30
0.0
 11
17.696088
 21
2.846846
 31
0.0
  0
LINE
  8
0
 62
     0
 10
15.046044
 20
0.020025
 30
0.0
 11
17.679975
 21
2.653956
 31
0.0
  0
LINE
  8
0
 62
     0
 10
15.254483
 20
0.051687
 30
0.0
 11
17.648313
 21
2.445517
 31
0.0
  0
LINE
  8
0
 62
     0
 10
15.483762
 20
0.10419
 30
0.0
 11
17.59581
 21
2.216238
 31
0.0
  0
LINE
  8
0
 62
     0
 10
15.743786
 20
0.187437
 30
0.0
 11
17.512563
 21
1.956214
 31
0.0
  0
LINE
  8
0
 62
     0
 10
16.058176
 20
0.32505
 30
0.0
 11
17.37495
 21
1.641824
 31
0.0
  0
LINE
  8
0
 62
     0
 10
16.54193
 20
0.632028
 30
0.0
 11
17.067972
 21
1.15807
 31
0.0
  0
ENDBLK
  8
0
  0
BLOCK
  8
0
  2
BLC15
 70
     0
 10
0.0
 20
0.0
 30
0.0
  3
BLC15
  0
LINE
  8
0
  6
CONTINUOUS
 10
0.142084
 20
3.490022
 30
0.0
 11
0.142084
 21
0.844365
 31
0.0
  0
LINE
  8
0
  6
CONTINUOUS
 10
-0.461611
 20
-0.937188
 30
0.0
 11
0.745779
 21
-0.937188
 31
0.0
  0
LINE
  8
0
  6
CONTINUOUS
 10
-0.894108
 20
-0.049675
 30
0.0
 11
1.169267
 21
-0.049675
 31
0.0
  0
LINE
  8
0
  6
CONTINUOUS
 10
-1.389679
 20
0.844365
 30
0.0
 11
1.673848
 21
0.844365
 31
0.0
  0
ENDBLK
  8
0
  0
BLOCK
  8
0
  2
BLC55
 70
    64
 10
0.0
 20
0.0
 30
0.0
  3
BLC55
  0
INSERT
  8
SWEDEN
  6
CENTER
  2
BLC5
 10
0.087066
 20
-0.756831
 30
0.0
 41
0.6
 42
0.6
 43
0.6
  0
ENDBLK
  8
0
  0
BLOCK
  8
0
  2
BLC5
 70
    64
 10
0.0
 20
0.0
 30
0.0
  3
BLC5
  0
TEXT
  8
0
 10
-3.043704
 20
-6.645912
 30
0.0
 40
3.2
  1
PE
  0
LINE
  8
0
 10
-2.946392
 20
1.181176
 30
0.0
 11
2.135458
 21
1.181176
 31
0.0
  0
LINE
  8
0
 10
-0.48656
 20
2.238362
 30
0.0
 11
-0.48656
 21
6.930438
 31
0.0
  0
LINE
  8
0
 10
-1.973271
 20
0.065258
 30
0.0
 11
1.225411
 21
0.065258
 31
0.0
  0
LINE
  8
0
 10
2.685091
 20
2.238362
 30
0.0
 11
1.68494
 21
2.238362
 31
0.0
  0
LINE
  8
0
 10
-3.505035
 20
2.238362
 30
0.0
 11
2.649049
 21
2.238362
 31
0.0
  0
CIRCLE
  8
0
 10
-0.47755
 20
1.422632
 30
0.0
 40
3.804563
  0
ENDBLK
  8
0
  0
BLOCK
  8
0
  2
BLC43
 70
    64
 10
0.0
 20
0.0
 30
0.0
  3
BLC43
  0
TEXT
  8
SWEDEN2
  6
CONTINUOUS
 10
-0.646672
 20
-0.986365
 30
0.0
 40
2.0
  1
+
  0
ENDBLK
  8
0
  0
BLOCK
  8
0
  2
BLC42
 70
    64
 10
0.0
 20
0.0
 30
0.0
  3
BLC42
  0
TEXT
  8
SWEDEN2
  6
CONTINUOUS
 10
-0.655237
 20
-0.99442
 30
0.0
 40
2.0
  1
-
  0
ENDBLK
  8
0
  0
BLOCK
  8
0
  2
BLC44
 70
    64
 10
0.0
 20
0.0
 30
0.0
  3
BLC44
  0
LINE
  8
HEL035
 10
-2.520993
 20
1.697877
 30
0.0
 11
1.479007
 21
1.697877
 31
0.0
  0
INSERT
  8
HEL035
  2
WKU130
 10
-2.181043
 20
-0.027675
 30
0.0
 41
0.8
 42
0.8
 43
0.8
  0
ENDBLK
  8
0
  0
BLOCK
  8
0
  2
BLC25
 70
     0
 10
0.0
 20
0.0
 30
0.0
  3
BLC25
  0
TEXT
  8
0
  6
CONTINUOUS
 10
2.0
 20
30.666667
 30
0.0
 40
2.0
  1
1)
 11
2.0
 21
30.0
 31
0.0
 73
     1
  0
TEXT
  8
0
 10
6.0
 20
2.0
 30
0.0
 40
2.0
  1
7B    27     26
 11
6.0
 21
1.333333
 31
0.0
 73
     1
  0
TEXT
  8
0
 10
6.0
 20
5.333333
 30
0.0
 40
2.0
  1
5B     9      8
 11
6.0
 21
4.666667
 31
0.0
 73
     1
  0
TEXT
  8
0
 10
6.0
 20
8.666667
 30
0.0
 40
2.0
  1
3B     3      2
 11
6.0
 21
8.0
 31
0.0
 73
     1
  0
TEXT
  8
0
 10
32.0
 20
12.666667
 30
0.0
 40
2.0
  1
In=5A
 11
32.0
 21
12.0
 31
0.0
 73
     1
  0
TEXT
  8
0
 10
16.0
 20
12.666667
 30
0.0
 40
2.0
  1
In=1A 
 11
16.0
 21
12.0
 31
0.0
 73
     1
  0
TEXT
  8
0
 10
26.0
 20
18.666667
 30
0.0
 40
2.0
  1
108:
 11
26.0
 21
18.0
 31
0.0
 73
     1
  0
TEXT
  8
0
 10
6.0
 20
18.666667
 30
0.0
 40
2.0
  1
101:       
 11
6.0
 21
18.0
 31
0.0
 73
     1
  0
TEXT
  8
0
 10
6.0
 20
24.666667
 30
0.0
 40
2.0
  1
TERMINALS / UTTAG
 11
6.0
 21
24.0
 31
0.0
 73
     1
  0
LINE
  8
0
 10
0.0
 20
12.0
 30
0.0
 11
44.0
 21
12.0
 31
0.0
  0
LINE
  8
0
 10
28.0
 20
18.0
 30
0.0
 11
28.0
 21
0.0
 31
0.0
  0
LINE
  8
0
 10
14.0
 20
18.0
 30
0.0
 11
44.0
 21
18.0
 31
0.0
  0
LINE
  8
0
 10
14.0
 20
24.0
 30
0.0
 11
14.0
 21
0.0
 31
0.0
  0
LINE
  8
0
 10
0.0
 20
24.0
 30
0.0
 11
44.0
 21
24.0
 31
0.0
  0
LINE
  8
0
 10
44.0
 20
0.0
 30
0.0
 11
44.0
 21
30.0
 31
0.0
  0
LINE
  8
0
 10
0.0
 20
0.0
 30
0.0
 11
44.0
 21
0.0
 31
0.0
  0
LINE
  8
0
 10
0.0
 20
30.0
 30
0.0
 11
0.0
 21
0.0
 31
0.0
  0
LINE
  8
0
 10
44.0
 20
30.0
 30
0.0
 11
0.0
 21
30.0
 31
0.0
  0
ENDBLK
  8
0
  0
BLOCK
  8
0
  2
OPTION2
 70
     0
 10
0.0
 20
0.0
 30
0.0
  3
OPTION2
  0
TEXT
  8
0
  6
CONTINUOUS
 10
0.0
 20
13.974728
 30
0.0
 40
1.5
  1
OPTION 2
  7
GREEKS
  0
LINE
  8
0
  6
CONTINUOUS
 10
27.453271
 20
10.0
 30
0.0
 11
35.0
 21
10.0
 31
0.0
  0
LINE
  8
0
  6
CONTINUOUS
 10
35.0
 20
10.0
 30
0.0
 11
35.0
 21
17.5
 31
0.0
  0
INSERT
  8
0
  6
CONTINUOUS
  2
BLC29
 10
33.311388
 20
9.871533
 30
0.0
 50
180.0
  0
LINE
  8
0
  6
CONTINUOUS
 10
42.5
 20
5.0
 30
0.0
 11
42.5
 21
17.5
 31
0.0
  0
LINE
  8
0
  6
CONTINUOUS
 10
27.453271
 20
5.0
 30
0.0
 11
42.5
 21
5.0
 31
0.0
  0
INSERT
  8
0
  6
CONTINUOUS
  2
BLC29
 10
33.311388
 20
4.871533
 30
0.0
 50
180.0
  0
LINE
  8
0
  6
CONTINUOUS
 10
20.0
 20
13.238717
 30
0.0
 11
27.453271
 21
13.238717
 31
0.0
  0
LINE
  8
0
  6
CONTINUOUS
 10
20.0
 20
5.0
 30
0.0
 11
-2.008799
 21
5.0
 31
0.0
  0
LINE
  8
0
  6
CONTINUOUS
 10
10.298812
 20
0.0
 30
0.0
 11
-2.008799
 21
0.0
 31
0.0
  0
LINE
  8
0
  6
CONTINUOUS
 10
10.298812
 20
-10.0
 30
0.0
 11
-2.008799
 21
-10.0
 31
0.0
  0
INSERT
  8
0
  6
CONTINUOUS
  2
BLC29
 10
5.811388
 20
-10.128467
 30
0.0
 50
180.0
  0
LINE
  8
0
 10
17.721556
 20
-12.343989
 30
0.0
 11
17.721556
 21
1.656608
 31
0.0
  0
LINE
  8
0
 10
17.721556
 20
1.656608
 30
0.0
 11
10.298812
 21
1.656608
 31
0.0
  0
LINE
  8
0
 10
10.298812
 20
1.656608
 30
0.0
 11
10.298812
 21
-12.343989
 31
0.0
  0
LINE
  8
0
 10
10.298812
 20
-12.343989
 30
0.0
 11
17.721556
 21
-12.343989
 31
0.0
  0
TEXT
  8
0
  6
CONTINUOUS
 10
22.772517
 20
9.027781
 30
0.0
 40
2.0
  1
3I
  7
GREEKS
  0
TEXT
  8
0
  6
CONTINUOUS
 10
22.772517
 20
3.98629
 30
0.0
 40
2.0
  1
3U
  7
GREEKS
  0
INSERT
  8
0
  6
CONTINUOUS
  2
BLC29
 10
5.811388
 20
-0.128467
 30
0.0
 50
180.0
  0
INSERT
  8
0
  6
CONTINUOUS
  2
BLC29
 10
5.811388
 20
4.871533
 30
0.0
 50
180.0
  0
INSERT
  8
0
  6
CONTINUOUS
  2
BLC29
 10
5.811388
 20
9.871533
 30
0.0
 50
180.0
  0
TEXT
  8
0
  6
CONTINUOUS
 10
-0.263101
 20
7.214316
 30
0.0
 40
2.0
  1
I
  7
GREEKS
  0
TEXT
  8
0
  6
CONTINUOUS
 10
-0.263101
 20
2.073898
 30
0.0
 40
2.0
  1
U
  7
GREEKS
  0
TEXT
  8
0
  6
CONTINUOUS
 10
-0.263101
 20
-2.618443
 30
0.0
 40
2.0
  1
P
  7
GREEKS
  0
TEXT
  8
0
  6
CONTINUOUS
 10
-0.263101
 20
-12.9093
 30
0.0
 40
2.0
  1
Q
  7
GREEKS
  0
LINE
  8
0
  6
CONTINUOUS
 10
12.5
 20
1.656608
 30
0.0
 11
12.5
 21
10.0
 31
0.0
  0
LINE
  8
0
  6
CONTINUOUS
 10
15.731308
 20
1.656608
 30
0.0
 11
15.731308
 21
5.0
 31
0.0
  0
LINE
  8
0
  6
CONTINUOUS
 10
20.0
 20
16.915965
 30
0.0
 11
20.0
 21
-15.0
 31
0.0
  0
LINE
  8
0
  6
CONTINUOUS
 10
20.0
 20
10.0
 30
0.0
 11
-2.008799
 21
10.0
 31
0.0
  0
TEXT
  8
0
  6
CONTINUOUS
 10
22.501359
 20
13.688531
 30
0.0
 40
2.5
  1
U5
  7
GREEKS
  0
LINE
  8
0
  6
HIDDEN
 10
-2.008799
 20
16.915965
 30
0.0
 11
27.453271
 21
16.915965
 31
0.0
  0
LINE
  8
0
  6
HIDDEN
 10
27.453271
 20
-15.0
 30
0.0
 11
27.453271
 21
16.915965
 31
0.0
  0
LINE
  8
0
  6
HIDDEN
 10
-2.008799
 20
-15.0
 30
0.0
 11
-2.008799
 21
16.915965
 31
0.0
  0
LINE
  8
0
  6
HIDDEN
 10
-2.008799
 20
-15.0
 30
0.0
 11
27.453271
 21
-15.0
 31
0.0
  0
ENDBLK
  8
0
  0
BLOCK
  8
0
  2
OPTION1
 70
     0
 10
0.0
 20
0.0
 30
0.0
  3
OPTION1
  0
TEXT
  8
0
  6
CONTINUOUS
 10
0.0
 20
13.974728
 30
0.0
 40
1.5
  1
OPTION 1
  7
GREEKS
  0
LINE
  8
0
  6
HIDDEN
 10
67.5
 20
7.5
 30
0.0
 11
62.5
 21
7.5
 31
0.0
  0
LINE
  8
0
  6
HIDDEN
 10
62.5
 20
-17.5
 30
0.0
 11
67.5
 21
-17.5
 31
0.0
  0
LINE
  8
0
  6
HIDDEN
 10
62.5
 20
7.5
 30
0.0
 11
62.5
 21
-17.5
 31
0.0
  0
TEXT
  8
0
  6
HIDDEN
 10
63.358139
 20
4.107311
 30
0.0
 40
2.0
  1
X6
  7
GREEKS
  0
TEXT
  8
0
  6
HIDDEN
 10
63.718464
 20
-0.166494
 30
0.0
 40
2.0
  1
7
  7
GREEKS
  0
TEXT
  8
0
  6
HIDDEN
 10
63.718464
 20
-5.233054
 30
0.0
 40
2.0
  1
8
  7
GREEKS
  0
TEXT
  8
0
  6
HIDDEN
 10
63.718464
 20
-10.304537
 30
0.0
 40
2.0
  1
9
  7
GREEKS
  0
TEXT
  8
0
  6
HIDDEN
 10
63.718464
 20
-15.371096
 30
0.0
 40
2.0
  1
10
  7
GREEKS
  0
INSERT
  8
0
  6
CONTINUOUS
  2
BLC29
 10
33.311388
 20
9.871533
 30
0.0
 50
180.0
  0
LINE
  8
0
  6
CONTINUOUS
 10
27.453271
 20
10.0
 30
0.0
 11
35.0
 21
10.0
 31
0.0
  0
LINE
  8
0
  6
CONTINUOUS
 10
35.0
 20
10.0
 30
0.0
 11
35.0
 21
17.5
 31
0.0
  0
LINE
  8
0
  6
CONTINUOUS
 10
42.5
 20
5.0
 30
0.0
 11
42.5
 21
17.5
 31
0.0
  0
LINE
  8
0
  6
CONTINUOUS
 10
27.453271
 20
5.0
 30
0.0
 11
42.5
 21
5.0
 31
0.0
  0
INSERT
  8
0
  6
CONTINUOUS
  2
BLC29
 10
33.311388
 20
4.871533
 30
0.0
 50
180.0
  0
LINE
  8
0
  6
CONTINUOUS
 10
27.453271
 20
2.5
 30
0.0
 11
67.5
 21
2.5
 31
0.0
  0
LINE
  8
0
  6
CONTINUOUS
 10
27.453271
 20
-2.5
 30
0.0
 11
67.5
 21
-2.5
 31
0.0
  0
LINE
  8
0
  6
CONTINUOUS
 10
27.453271
 20
-7.5
 30
0.0
 11
67.5
 21
-7.5
 31
0.0
  0
LINE
  8
0
  6
CONTINUOUS
 10
27.453271
 20
-12.5
 30
0.0
 11
67.5
 21
-12.5
 31
0.0
  0
LINE
  8
0
  6
CONTINUOUS
 10
17.721556
 20
2.5
 30
0.0
 11
27.453271
 21
2.5
 31
0.0
  0
LINE
  8
0
  6
CONTINUOUS
 10
17.721556
 20
-2.5
 30
0.0
 11
27.453271
 21
-2.5
 31
0.0
  0
LINE
  8
0
  6
CONTINUOUS
 10
17.721556
 20
-7.5
 30
0.0
 11
27.453271
 21
-7.5
 31
0.0
  0
LINE
  8
0
  6
CONTINUOUS
 10
17.721556
 20
-12.5
 30
0.0
 11
27.453271
 21
-12.5
 31
0.0
  0
LINE
  8
0
  6
CONTINUOUS
 10
20.0
 20
5.0
 30
0.0
 11
-2.008799
 21
5.0
 31
0.0
  0
LINE
  8
0
  6
CONTINUOUS
 10
10.298812
 20
-10.0
 30
0.0
 11
-2.008799
 21
-10.0
 31
0.0
  0
INSERT
  8
0
  6
CONTINUOUS
  2
BLC29
 10
5.811388
 20
-10.128467
 30
0.0
 50
180.0
  0
LINE
  8
0
 10
10.298812
 20
-3.51754
 30
0.0
 11
17.721556
 21
-3.51754
 31
0.0
  0
LINE
  8
0
 10
17.721556
 20
-3.51754
 30
0.0
 11
17.721556
 21
3.494825
 31
0.0
  0
LINE
  8
0
 10
17.721556
 20
3.494825
 30
0.0
 11
10.298812
 21
3.494825
 31
0.0
  0
LINE
  8
0
 10
10.298812
 20
3.494825
 30
0.0
 11
10.298812
 21
-3.51754
 31
0.0
  0
LINE
  8
0
 10
10.298812
 20
-6.505175
 30
0.0
 11
10.298812
 21
-13.51754
 31
0.0
  0
LINE
  8
0
 10
17.721556
 20
-6.505175
 30
0.0
 11
10.298812
 21
-6.505175
 31
0.0
  0
LINE
  8
0
 10
17.721556
 20
-13.51754
 30
0.0
 11
17.721556
 21
-6.505175
 31
0.0
  0
LINE
  8
0
 10
10.298812
 20
-13.51754
 30
0.0
 11
17.721556
 21
-13.51754
 31
0.0
  0
TEXT
  8
0
  6
CONTINUOUS
 10
11.44453
 20
0.52545
 30
0.0
 40
2.0
  1
I/U
  7
GREEKS
  0
TEXT
  8
0
  6
CONTINUOUS
 10
11.44453
 20
-9.47455
 30
0.0
 40
2.0
  1
I/U
  7
GREEKS
  0
TEXT
  8
0
  6
CONTINUOUS
 10
22.772517
 20
9.027781
 30
0.0
 40
2.0
  1
3I
  7
GREEKS
  0
TEXT
  8
0
  6
CONTINUOUS
 10
22.772517
 20
3.98629
 30
0.0
 40
2.0
  1
3U
  7
GREEKS
  0
TEXT
  8
0
  6
CONTINUOUS
 10
20.785345
 20
0.370043
 30
0.0
 40
1.5
  1
mA 1
  7
GREEKS
  0
TEXT
  8
0
  6
CONTINUOUS
 10
20.785345
 20
-4.439284
 30
0.0
 40
1.5
  1
mA 1
  7
GREEKS
  0
TEXT
  8
0
  6
CONTINUOUS
 10
20.785345
 20
-9.411101
 30
0.0
 40
1.5
  1
mA 2
  7
GREEKS
  0
INSERT
  8
0
  6
CONTINUOUS
  2
BLC29
 10
5.811388
 20
-0.128467
 30
0.0
 50
180.0
  0
INSERT
  8
0
  6
CONTINUOUS
  2
BLC29
 10
5.811388
 20
4.871533
 30
0.0
 50
180.0
  0
INSERT
  8
0
  6
CONTINUOUS
  2
BLC29
 10
5.811388
 20
9.871533
 30
0.0
 50
180.0
  0
TEXT
  8
0
  6
CONTINUOUS
 10
-0.263101
 20
7.214316
 30
0.0
 40
2.0
  1
I
  7
GREEKS
  0
TEXT
  8
0
  6
CONTINUOUS
 10
-0.263101
 20
2.073898
 30
0.0
 40
2.0
  1
U
  7
GREEKS
  0
TEXT
  8
0
  6
CONTINUOUS
 10
-0.263101
 20
-2.618443
 30
0.0
 40
2.0
  1
P
  7
GREEKS
  0
LINE
  8
0
  6
CONTINUOUS
 10
10.298812
 20
0.0
 30
0.0
 11
-2.008799
 21
0.0
 31
0.0
  0
TEXT
  8
0
  6
CONTINUOUS
 10
-0.263101
 20
-12.9093
 30
0.0
 40
2.0
  1
Q
  7
GREEKS
  0
LINE
  8
0
  6
CONTINUOUS
 10
20.0
 20
16.915965
 30
0.0
 11
20.0
 21
-15.0
 31
0.0
  0
LINE
  8
0
  6
CONTINUOUS
 10
20.0
 20
10.0
 30
0.0
 11
-2.008799
 21
10.0
 31
0.0
  0
LINE
  8
0
  6
CONTINUOUS
 10
20.0
 20
13.238717
 30
0.0
 11
27.453271
 21
13.238717
 31
0.0
  0
TEXT
  8
0
  6
CONTINUOUS
 10
22.501359
 20
13.688531
 30
0.0
 40
2.5
  1
U5
  7
GREEKS
  0
LINE
  8
0
  6
HIDDEN
 10
27.453271
 20
-15.0
 30
0.0
 11
27.453271
 21
16.915965
 31
0.0
  0
TEXT
  8
0
  6
CONTINUOUS
 10
20.785345
 20
-14.432157
 30
0.0
 40
1.5
  1
mA 2
  7
GREEKS
  0
LINE
  8
0
  6
HIDDEN
 10
-2.008799
 20
16.915965
 30
0.0
 11
27.453271
 21
16.915965
 31
0.0
  0
LINE
  8
0
  6
HIDDEN
 10
-2.008799
 20
-15.0
 30
0.0
 11
-2.008799
 21
16.915965
 31
0.0
  0
LINE
  8
0
  6
HIDDEN
 10
-2.008799
 20
-15.0
 30
0.0
 11
27.453271
 21
-15.0
 31
0.0
  0
ENDBLK
  8
0
  0
BLOCK
  8
0
  2
B63
 70
     0
 10
0.0
 20
0.0
 30
0.0
  3
B63
  0
LINE
  8
BASE
  6
CONTINUOUS
 10
10.740939
 20
0.0
 30
0.0
 11
15.0
 21
0.0
 31
0.0
  0
LINE
  8
BASE
  6
CONTINUOUS
 10
0.0
 20
0.0
 30
0.0
 11
5.0
 21
0.0
 31
0.0
  0
LINE
  8
BASE
  6
CONTINUOUS
 10
9.353436
 20
-0.361863
 30
0.0
 11
4.256076
 21
-3.214703
 31
0.0
  0
LINE
  8
BASE
  6
CONTINUOUS
 10
5.0
 20
-5.0
 30
0.0
 11
0.0
 21
-5.0
 31
0.0
  0
LINE
  8
BASE
  6
CONTINUOUS
 10
5.0
 20
-5.0
 30
0.0
 11
5.0
 21
-2.5
 31
0.0
  0
CIRCLE
  8
BASE
  6
CONTINUOUS
 10
10.0
 20
0.0
 30
0.0
 40
0.740939
  0
ENDBLK
  8
0
  0
BLOCK
  8
0
  2
B506
 70
    64
 10
0.0
 20
0.0
 30
0.0
  3
B506
  0
INSERT
  8
BASE
  6
CONTINUOUS
  2
BLC29
 10
1.994594
 20
-0.128476
 30
0.0
 50
180.0
  0
ENDBLK
  8
0
  0
ENDSEC
  0
SECTION
  2
ENTITIES
  0
INSERT
  8
0
  2
1
 10
65.405438
 20
98.713066
 30
0.0
  0
INSERT
  8
0
  2
1
 10
72.541652
 20
49.71056
 30
0.0
  0
INSERT
  8
0
  2
1
 10
85.390443
 20
73.497234
 30
0.0
  0
LINE
  8
0
  6
CENTER
 62
   249
 10
265.0
 20
237.5
 30
0.0
 11
265.0
 21
87.5
 31
0.0
  0
LINE
  8
0
  6
CENTER
 62
   249
 10
265.0
 20
87.5
 30
0.0
 11
265.0
 21
57.5
 31
0.0
  0
LINE
  8
0
  6
CONTINUOUS
 62
   249
 10
197.5
 20
72.5
 30
0.0
 11
207.5
 21
72.5
 31
0.0
  0
LINE
  8
0
  6
CONTINUOUS
 62
   249
 10
197.5
 20
72.5
 30
0.0
 11
200.0
 21
75.0
 31
0.0
  0
LINE
  8
0
  6
CONTINUOUS
 62
   249
 10
202.5
 20
72.5
 30
0.0
 11
205.0
 21
75.0
 31
0.0
  0
LINE
  8
0
  6
CONTINUOUS
 62
   249
 10
207.5
 20
72.5
 30
0.0
 11
210.0
 21
75.0
 31
0.0
  0
LINE
  8
0
  6
CONTINUOUS
 62
   249
 10
202.5
 20
72.5
 30
0.0
 11
202.5
 21
57.5
 31
0.0
  0
LINE
  8
0
  6
CONTINUOUS
 62
   249
 10
190.0
 20
75.0
 30
0.0
 11
190.0
 21
57.5
 31
0.0
  0
LINE
  8
0
  6
CONTINUOUS
 62
   249
 10
185.0
 20
75.0
 30
0.0
 11
185.0
 21
57.5
 31
0.0
  0
LINE
  8
0
  6
DASHED
 62
   249
 10
190.0
 20
57.5
 30
0.0
 11
190.0
 21
50.0
 31
0.0
  0
LINE
  8
0
  6
DASHED
 62
   249
 10
202.5
 20
57.5
 30
0.0
 11
202.5
 21
50.0
 31
0.0
  0
LINE
  8
0
  6
DASHED
 62
   249
 10
185.0
 20
57.5
 30
0.0
 11
185.0
 21
50.0
 31
0.0
  0
LINE
  8
0
  6
CONTINUOUS
 62
   249
 10
180.0
 20
120.232891
 30
0.0
 11
210.450615
 21
120.232891
 31
0.0
  0
TEXT
  8
0
  6
CONTINUOUS
 62
   249
 10
191.908766
 20
116.295815
 30
0.0
 40
2.5
  1
IRF
 11
191.908766
 21
115.462481
 31
0.0
 73
     1
  0
LINE
  8
0
  6
CONTINUOUS
 62
   249
 10
210.450615
 20
115.0
 30
0.0
 11
180.0
 21
115.0
 31
0.0
  0
LINE
  8
0
  6
CONTINUOUS
 62
   249
 10
210.450615
 20
167.209828
 30
0.0
 11
210.450615
 21
115.0
 31
0.0
  0
LINE
  8
0
  6
HIDDEN
 62
   249
 10
210.450615
 20
237.5
 30
0.0
 11
210.450615
 21
195.0
 31
0.0
  0
TEXT
  8
0
  6
CONTINUOUS
 62
   249
 10
183.730324
 20
122.307235
 30
0.0
 40
2.5
  1
SERIAL I/O
  0
CIRCLE
  8
0
  6
CONTINUOUS
 62
   249
 10
179.012659
 20
117.498324
 30
0.0
 40
1.0
  0
LINE
  8
0
  6
CONTINUOUS
 62
   249
 10
180.0
 20
180.0
 30
0.0
 11
180.0
 21
165.0
 31
0.0
  0
LINE
  8
0
  6
CONTINUOUS
 62
   249
 10
180.0
 20
180.0
 30
0.0
 11
180.0
 21
195.0
 31
0.0
  0
LINE
  8
0
  6
CONTINUOUS
 62
   249
 10
180.0
 20
165.0
 30
0.0
 11
180.0
 21
115.0
 31
0.0
  0
LINE
  8
0
  6
CENTER
 62
   249
 10
40.0
 20
237.5
 30
0.0
 11
40.0
 21
57.5
 31
0.0
  0
LINE
  8
0
  6
CONTINUOUS
 62
   249
 10
94.353436
 20
109.638137
 30
0.0
 11
89.256076
 21
106.785297
 31
0.0
  0
LINE
  8
0
  6
CONTINUOUS
 62
   249
 10
95.740939
 20
110.0
 30
0.0
 11
105.0
 21
110.0
 31
0.0
  0
LINE
  8
0
  6
CONTINUOUS
 62
   249
 10
80.740939
 20
92.5
 30
0.0
 11
85.0
 21
92.5
 31
0.0
  0
LINE
  8
0
  6
CONTINUOUS
 62
   249
 10
79.353436
 20
92.138137
 30
0.0
 11
74.256076
 21
89.285297
 31
0.0
  0
LINE
  8
0
  6
CONTINUOUS
 62
   249
 10
71.853436
 20
87.138137
 30
0.0
 11
66.756076
 21
84.285297
 31
0.0
  0
LINE
  8
0
  6
CONTINUOUS
 62
   249
 10
73.240939
 20
87.5
 30
0.0
 11
80.0
 21
87.5
 31
0.0
  0
LINE
  8
0
  6
CONTINUOUS
 62
   249
 10
64.353436
 20
82.138137
 30
0.0
 11
59.256076
 21
79.285297
 31
0.0
  0
LINE
  8
0
  6
CONTINUOUS
 62
   249
 10
65.740939
 20
82.5
 30
0.0
 11
70.0
 21
82.5
 31
0.0
  0
LINE
  8
0
  6
DASHED
 62
   249
 10
92.5
 20
182.5
 30
0.0
 11
92.5
 21
108.600824
 31
0.0
  0
LINE
  8
0
  6
DASHED
 62
   249
 10
77.5
 20
182.5
 30
0.0
 11
77.5
 21
91.100824
 31
0.0
  0
LINE
  8
0
  6
DASHED
 62
   249
 10
70.0
 20
182.5
 30
0.0
 11
70.0
 21
86.100824
 31
0.0
  0
LINE
  8
0
  6
DASHED
 62
   249
 10
62.5
 20
182.5
 30
0.0
 11
62.5
 21
81.100824
 31
0.0
  0
LINE
  8
0
  6
CENTER
 62
   249
 10
40.0
 20
57.5
 30
0.0
 11
265.0
 21
57.5
 31
0.0
  0
LINE
  8
0
  6
CONTINUOUS
 62
   249
 10
178.01266
 20
117.5
 30
0.0
 11
172.5
 21
117.5
 31
0.0
  0
LINE
  8
0
  6
CENTER
 62
   249
 10
265.0
 20
237.5
 30
0.0
 11
40.0
 21
237.5
 31
0.0
  0
TEXT
  8
0
  6
CONTINUOUS
 62
   249
 10
253.80556
 20
58.210666
 30
0.0
 40
2.0
  1
RX/TX
  7
ROMANS
  0
ARC
  8
0
  6
CONTINUOUS
 62
   249
 10
267.5
 20
69.984457
 30
0.0
 40
2.5
 50
90.0
 51
270.0
  0
LINE
  8
0
  6
CONTINUOUS
 62
   249
 10
266.819436
 20
70.474457
 30
0.0
 11
266.819436
 21
69.494457
 31
0.0
  0
LINE
  8
0
  6
CONTINUOUS
 62
   249
 10
266.819436
 20
69.494457
 30
0.0
 11
270.249436
 21
69.494457
 31
0.0
  0
LINE
  8
0
  6
CONTINUOUS
 62
   249
 10
270.249436
 20
69.494457
 30
0.0
 11
270.249436
 21
70.474457
 31
0.0
  0
LINE
  8
0
  6
CONTINUOUS
 62
   249
 10
270.249436
 20
70.474457
 30
0.0
 11
266.819436
 21
70.474457
 31
0.0
  0
LINE
  8
0
  6
CONTINUOUS
 62
   249
 10
25.0
 20
170.0
 30
0.0
 11
25.0
 21
164.999655
 31
0.0
  0
LINE
  8
0
  6
CONTINUOUS
 62
   249
 10
25.0
 20
170.0
 30
0.0
 11
26.0
 21
171.0
 31
0.0
  0
LINE
  8
0
  6
CONTINUOUS
 62
   249
 10
25.0
 20
164.999655
 30
0.0
 11
26.0
 21
163.999655
 31
0.0
  0
LINE
  8
0
  6
DASHED
 62
   249
 10
270.0
 20
69.984457
 30
0.0
 11
280.0
 21
69.984457
 31
0.0
  0
LINE
  8
0
  6
CONTINUOUS
 62
   249
 10
180.0
 20
145.0
 30
0.0
 11
210.450615
 21
145.0
 31
0.0
  0
TEXT
  8
0
  6
HIDDEN
 62
   249
 10
185.797463
 20
128.727206
 30
0.0
 40
2.0
  1
E (kWh)
  7
GREEKS
  0
LINE
  8
0
  6
CONTINUOUS
 62
   249
 10
180.0
 20
177.5
 30
0.0
 11
210.450615
 21
177.5
 31
0.0
  0
LINE
  8
0
  6
CONTINUOUS
 62
   249
 10
196.598231
 20
180.131915
 30
0.0
 11
196.598231
 21
178.343784
 31
0.0
  0
LINE
  8
0
  6
CONTINUOUS
 62
   249
 10
191.198712
 20
178.119034
 30
0.0
 11
194.074823
 21
180.947593
 31
0.0
  0
LINE
  8
0
  6
CONTINUOUS
 62
   249
 10
193.644119
 20
181.4848
 30
0.0
 11
194.544796
 21
180.36105
 31
0.0
  0
LINE
  8
0
  6
CONTINUOUS
 62
   249
 10
188.814567
 20
179.286637
 30
0.0
 11
196.602773
 21
179.286637
 31
0.0
  0
LINE
  8
0
  6
CONTINUOUS
 62
   249
 10
188.783536
 20
180.131915
 30
0.0
 11
188.783536
 21
178.343784
 31
0.0
  0
TEXT
  8
0
  6
HIDDEN
 62
   249
 10
181.080478
 20
185.635853
 30
0.0
 40
1.5
  1
EN
  0
CIRCLE
  8
0
  6
CONTINUOUS
 62
   249
 10
179.012659
 20
186.121046
 30
0.0
 40
1.0
  0
LINE
  8
0
  6
CONTINUOUS
 62
   249
 10
178.01273
 20
186.127349
 30
0.0
 11
165.0
 21
186.127349
 31
0.0
  0
LINE
  8
0
 62
   249
 10
54.089925
 20
227.201188
 30
0.0
 11
45.9
 21
227.201188
 31
0.0
  0
LINE
  8
0
 62
   249
 10
45.9
 20
219.778444
 30
0.0
 11
54.089925
 21
219.778444
 31
0.0
  0
LINE
  8
0
 62
   249
 10
45.9
 20
227.201188
 30
0.0
 11
45.9
 21
219.778444
 31
0.0
  0
LINE
  8
0
 62
   249
 10
50.195685
 20
227.034655
 30
0.0
 11
48.281882
 21
224.755833
 31
0.0
  0
LINE
  8
0
 62
   249
 10
51.687803
 20
227.034655
 30
0.0
 11
49.833468
 21
224.755833
 31
0.0
  0
LINE
  8
0
  6
CONTINUOUS
 62
   249
 10
52.5
 20
227.201188
 30
0.0
 11
52.5
 21
230.0
 31
0.0
  0
LINE
  8
0
  6
CONTINUOUS
 62
   249
 10
47.5
 20
227.201188
 30
0.0
 11
47.5
 21
237.5
 31
0.0
  0
LINE
  8
0
  6
CONTINUOUS
 62
   249
 10
50.0
 20
215.0
 30
0.0
 11
50.0
 21
219.778444
 31
0.0
  0
LINE
  8
0
  6
CONTINUOUS
 62
   249
 10
57.5
 20
200.0
 30
0.0
 11
57.5
 21
219.778444
 31
0.0
  0
LINE
  8
0
  6
CONTINUOUS
 62
   249
 10
55.0
 20
227.201188
 30
0.0
 11
55.0
 21
237.5
 31
0.0
  0
LINE
  8
0
  6
CONTINUOUS
 62
   249
 10
60.0
 20
227.201188
 30
0.0
 11
60.0
 21
230.0
 31
0.0
  0
LINE
  8
0
 62
   249
 10
59.187803
 20
227.034655
 30
0.0
 11
57.333468
 21
224.755833
 31
0.0
  0
LINE
  8
0
 62
   249
 10
57.695685
 20
227.034655
 30
0.0
 11
55.781882
 21
224.755833
 31
0.0
  0
LINE
  8
0
 62
   249
 10
53.673889
 20
227.201188
 30
0.0
 11
53.673889
 21
219.778444
 31
0.0
  0
LINE
  8
0
 62
   249
 10
53.4
 20
219.778444
 30
0.0
 11
61.589925
 21
219.778444
 31
0.0
  0
LINE
  8
0
 62
   249
 10
61.589925
 20
227.201188
 30
0.0
 11
53.4
 21
227.201188
 31
0.0
  0
LINE
  8
0
 62
   249
 10
68.673889
 20
227.201188
 30
0.0
 11
68.673889
 21
219.778444
 31
0.0
  0
LINE
  8
0
  6
CONTINUOUS
 62
   249
 10
65.0
 20
200.0
 30
0.0
 11
65.0
 21
219.778444
 31
0.0
  0
LINE
  8
0
  6
CONTINUOUS
 62
   249
 10
62.5
 20
227.201188
 30
0.0
 11
62.5
 21
237.5
 31
0.0
  0
LINE
  8
0
  6
CONTINUOUS
 62
   249
 10
67.5
 20
227.201188
 30
0.0
 11
67.5
 21
230.0
 31
0.0
  0
LINE
  8
0
 62
   249
 10
66.687803
 20
227.034655
 30
0.0
 11
64.833468
 21
224.755833
 31
0.0
  0
LINE
  8
0
 62
   249
 10
65.195685
 20
227.034655
 30
0.0
 11
63.281882
 21
224.755833
 31
0.0
  0
LINE
  8
0
 62
   249
 10
61.173889
 20
227.201188
 30
0.0
 11
61.173889
 21
219.778444
 31
0.0
  0
LINE
  8
0
 62
   249
 10
60.9
 20
219.778444
 30
0.0
 11
68.673889
 21
219.778444
 31
0.0
  0
LINE
  8
0
 62
   249
 10
68.673889
 20
227.201188
 30
0.0
 11
60.9
 21
227.201188
 31
0.0
  0
LINE
  8
0
 62
   249
 10
119.089925
 20
227.201188
 30
0.0
 11
111.173889
 21
227.201188
 31
0.0
  0
LINE
  8
0
 62
   249
 10
119.089925
 20
219.778444
 30
0.0
 11
119.089925
 21
227.201188
 31
0.0
  0
LINE
  8
0
 62
   249
 10
111.173889
 20
219.778444
 30
0.0
 11
119.089925
 21
219.778444
 31
0.0
  0
LINE
  8
0
 62
   249
 10
111.173889
 20
227.201188
 30
0.0
 11
111.173889
 21
219.778444
 31
0.0
  0
LINE
  8
0
 62
   249
 10
115.195685
 20
227.034655
 30
0.0
 11
113.281882
 21
224.755833
 31
0.0
  0
LINE
  8
0
 62
   249
 10
116.687803
 20
227.034655
 30
0.0
 11
114.833468
 21
224.755833
 31
0.0
  0
LINE
  8
0
  6
CONTINUOUS
 62
   249
 10
117.5
 20
227.201188
 30
0.0
 11
117.5
 21
237.5
 31
0.0
  0
LINE
  8
0
  6
CONTINUOUS
 62
   249
 10
112.5
 20
227.201188
 30
0.0
 11
112.5
 21
237.5
 31
0.0
  0
LINE
  8
0
  6
CONTINUOUS
 62
   249
 10
115.0
 20
200.0
 30
0.0
 11
115.0
 21
219.778444
 31
0.0
  0
LINE
  8
0
  6
HIDDEN
 62
   249
 10
42.5
 20
237.5
 30
0.0
 11
42.5
 21
232.5
 31
0.0
  0
LINE
  8
0
  6
HIDDEN
 62
   249
 10
42.5
 20
232.5
 30
0.0
 11
72.5
 21
232.5
 31
0.0
  0
LINE
  8
0
  6
HIDDEN
 62
   249
 10
72.5
 20
232.5
 30
0.0
 11
72.5
 21
237.5
 31
0.0
  0
LINE
  8
0
  6
HIDDEN
 62
   249
 10
107.5
 20
237.5
 30
0.0
 11
107.5
 21
232.5
 31
0.0
  0
LINE
  8
0
  6
HIDDEN
 62
   249
 10
107.5
 20
232.5
 30
0.0
 11
122.5
 21
232.5
 31
0.0
  0
LINE
  8
0
  6
HIDDEN
 62
   249
 10
122.5
 20
237.5
 30
0.0
 11
122.5
 21
232.5
 31
0.0
  0
TEXT
  8
0
  6
CENTER
 62
   249
 10
204.033886
 20
137.117584
 30
0.0
 40
2.0
  1
/#
  7
GREEKS
  0
TEXT
  8
0
  6
CENTER
 62
   249
 10
203.564812
 20
139.121429
 30
0.0
 40
2.0
  1
U
 50
180.0
  7
GREEKS
  0
LINE
  8
0
  6
DASHED
 62
   249
 10
40.0
 20
170.0
 30
0.0
 11
27.5
 21
170.0
 31
0.0
  0
LINE
  8
0
  6
DASHED
 62
   249
 10
40.0
 20
165.0
 30
0.0
 11
27.5
 21
165.0
 31
0.0
  0
LINE
  8
0
  6
DASHED
 62
   249
 10
40.0
 20
152.5
 30
0.0
 11
27.5
 21
152.5
 31
0.0
  0
LINE
  8
0
  6
DASHED
 62
   249
 10
40.0
 20
147.5
 30
0.0
 11
27.5
 21
147.5
 31
0.0
  0
LINE
  8
0
  6
DASHED
 62
   249
 10
40.0
 20
142.5
 30
0.0
 11
27.5
 21
142.5
 31
0.0
  0
LINE
  8
0
  6
CONTINUOUS
 62
   249
 10
25.0
 20
152.5
 30
0.0
 11
26.0
 21
153.5
 31
0.0
  0
LINE
  8
0
  6
CONTINUOUS
 62
   249
 10
25.0
 20
82.499655
 30
0.0
 11
26.0
 21
81.499655
 31
0.0
  0
LINE
  8
0
  6
CONTINUOUS
 62
   249
 10
25.0
 20
152.5
 30
0.0
 11
25.0
 21
82.5
 31
0.0
  0
LINE
  8
0
  6
CONTINUOUS
 62
   249
 10
277.5
 20
80.0
 30
0.0
 11
276.5
 21
79.0
 31
0.0
  0
LINE
  8
0
  6
CONTINUOUS
 62
   249
 10
277.5
 20
197.500345
 30
0.0
 11
276.5
 21
198.500345
 31
0.0
  0
LINE
  8
0
  6
CONTINUOUS
 62
   249
 10
277.5
 20
80.0
 30
0.0
 11
277.5
 21
197.5
 31
0.0
  0
LINE
  8
0
  6
CONTINUOUS
 62
   249
 10
117.5
 20
252.5
 30
0.0
 11
118.5
 21
251.5
 31
0.0
  0
LINE
  8
0
  6
CONTINUOUS
 62
   249
 10
117.5
 20
252.5
 30
0.0
 11
47.499655
 21
252.5
 31
0.0
  0
LINE
  8
0
  6
CONTINUOUS
 62
   249
 10
47.499655
 20
252.5
 30
0.0
 11
46.499655
 21
251.5
 31
0.0
  0
LINE
  8
0
  6
DASHED
 62
   249
 10
47.5
 20
237.5
 30
0.0
 11
47.5
 21
245.0
 31
0.0
  0
LINE
  8
0
  6
DASHED
 62
   249
 10
55.0
 20
237.5
 30
0.0
 11
55.0
 21
245.0
 31
0.0
  0
LINE
  8
0
  6
DASHED
 62
   249
 10
62.5
 20
237.5
 30
0.0
 11
62.5
 21
245.0
 31
0.0
  0
LINE
  8
0
  6
DASHED
 62
   249
 10
80.0
 20
245.0
 30
0.0
 11
80.0
 21
237.5
 31
0.0
  0
LINE
  8
0
  6
DASHED
 62
   249
 10
60.0
 20
237.5
 30
0.0
 11
60.0
 21
245.0
 31
0.0
  0
LINE
  8
0
  6
DASHED
 62
   249
 10
87.5
 20
237.5
 30
0.0
 11
87.5
 21
245.0
 31
0.0
  0
LINE
  8
0
  6
DASHED
 62
   249
 10
67.5
 20
237.5
 30
0.0
 11
67.5
 21
245.0
 31
0.0
  0
LINE
  8
0
  6
DASHED
 62
   249
 10
95.0
 20
237.5
 30
0.0
 11
95.0
 21
245.0
 31
0.0
  0
LINE
  8
0
  6
DASHED
 62
   249
 10
92.5
 20
237.5
 30
0.0
 11
92.5
 21
245.0
 31
0.0
  0
LINE
  8
0
 62
   249
 10
0.237099
 20
0.237999
 30
0.0
 11
0.237099
 21
262.737999
 31
0.0
  0
LINE
  8
0
 62
   249
 10
392.237099
 20
262.737999
 30
0.0
 11
392.237099
 21
0.237999
 31
0.0
  0
LINE
  8
0
 62
   249
 10
0.237099
 20
0.237999
 30
0.0
 11
392.237099
 21
0.237999
 31
0.0
  0
TEXT
  8
0
 62
   249
 10
42.237099
 20
5.598529
 30
0.0
 40
2.5
  1
C
  7
ROMANS
  0
TEXT
  8
0
 62
   249
 10
42.237099
 20
1.162231
 30
0.0
 40
2.5
  1
B
  7
ROMANS
  0
TEXT
  8
0
 62
   249
 10
273.237099
 20
7.237999
 30
0.0
 40
1.4
  1
VAST.OSASTO RESP.DEPT.
  7
ROMANS
  0
TEXT
  8
0
 62
   249
 10
210.237099
 20
32.237999
 30
0.0
 40
1.4
  1
TEKI  PREPARED
  7
ROMANS
  0
LINE
  8
0
 62
   249
 10
271.237099
 20
9.737999
 30
0.0
 11
271.237099
 21
0.237999
 31
0.0
  0
LINE
  8
0
 62
   249
 10
257.237099
 20
9.737999
 30
0.0
 11
257.237099
 21
35.237999
 31
0.0
  0
LINE
  8
0
 62
   249
 10
40.737099
 20
4.737999
 30
0.0
 11
209.237099
 21
4.737999
 31
0.0
  0
LINE
  8
0
 62
   249
 10
46.737099
 20
0.237999
 30
0.0
 11
46.737099
 21
13.767101
 31
0.0
  0
LINE
  8
0
 62
   249
 10
46.737099
 20
13.767101
 30
0.0
 11
209.237099
 21
13.767101
 31
0.0
  0
TEXT
  8
0
 62
   249
 10
27.737099
 20
2.471333
 30
0.0
 40
1.4
  1
REVISION
  7
ROMANS
  0
TEXT
  8
0
 62
   249
 10
27.737099
 20
4.737999
 30
0.0
 40
1.4
  1
MUUTOS
  7
ROMANS
  0
LINE
  8
0
 62
   249
 10
282.237099
 20
9.737999
 30
0.0
 11
282.237099
 21
18.237999
 31
0.0
  0
TEXT
  8
0
 62
   249
 10
237.737099
 20
1.737999
 30
0.0
 40
3.0
  1
Transmit Oy
 41
0.8
  7
ROMANS
  0
TEXT
  8
0
 62
   249
 10
229.737099
 20
1.737999
 30
0.0
 40
3.0
  1
ABB 
 41
0.8
  7
ROMANS
  0
LINE
  8
0
 62
   249
 10
223.137099
 20
1.737999
 30
0.0
 11
223.137099
 21
5.097999
 31
0.0
  0
LINE
  8
0
 62
   249
 10
223.137099
 20
8.737999
 30
0.0
 11
225.097099
 21
8.737999
 31
0.0
  0
LINE
  8
0
 62
   249
 10
225.097099
 20
8.737999
 30
0.0
 11
225.097099
 21
5.377999
 31
0.0
  0
LINE
  8
0
 62
   249
 10
225.097099
 20
5.377999
 30
0.0
 11
223.137099
 21
5.377999
 31
0.0
  0
LINE
  8
0
 62
   249
 10
223.137099
 20
5.097999
 30
0.0
 11
225.097099
 21
5.097999
 31
0.0
  0
LINE
  8
0
 62
   249
 10
225.097099
 20
5.097999
 30
0.0
 11
225.097099
 21
1.737999
 31
0.0
  0
LINE
  8
0
 62
   249
 10
225.097099
 20
1.737999
 30
0.0
 11
223.137099
 21
1.737999
 31
0.0
  0
LINE
  8
0
 62
   249
 10
223.137099
 20
5.377999
 30
0.0
 11
223.137099
 21
8.737999
 31
0.0
  0
ARC
  8
0
 62
   249
 10
225.937099
 20
7.162999
 30
0.0
 40
1.575
 50
298.455859
 51
90.052437
  0
LINE
  8
0
 62
   249
 10
225.377099
 20
8.737999
 30
0.0
 11
225.935658
 21
8.737999
 31
0.0
  0
LINE
  8
0
 62
   249
 10
225.377099
 20
8.737999
 30
0.0
 11
225.377099
 21
5.377999
 31
0.0
  0
LINE
  8
0
 62
   249
 10
225.377099
 20
5.377999
 30
0.0
 11
227.361542
 21
5.377999
 31
0.0
  0
LINE
  8
0
 62
   249
 10
227.617099
 20
5.097999
 30
0.0
 11
225.377099
 21
5.097999
 31
0.0
  0
LINE
  8
0
 62
   249
 10
225.377099
 20
5.097999
 30
0.0
 11
225.377099
 21
1.737999
 31
0.0
  0
ARC
  8
0
 62
   249
 10
225.937099
 20
3.837999
 30
0.0
 40
2.1
 50
269.937724
 51
37.056553
  0
LINE
  8
0
 62
   249
 10
225.377099
 20
1.737999
 30
0.0
 11
225.934817
 21
1.738
 31
0.0
  0
ARC
  8
0
 62
   249
 10
225.937099
 20
3.837999
 30
0.0
 40
2.1
 50
47.28622
 51
68.787999
  0
ARC
  8
0
 62
   249
 10
220.477099
 20
3.837999
 30
0.0
 40
2.1
 50
47.28622
 51
68.787999
  0
LINE
  8
0
 62
   249
 10
219.917099
 20
1.737999
 30
0.0
 11
220.474817
 21
1.738
 31
0.0
  0
ARC
  8
0
 62
   249
 10
220.477099
 20
3.837999
 30
0.0
 40
2.1
 50
269.937724
 51
37.056553
  0
LINE
  8
0
 62
   249
 10
219.917099
 20
5.097999
 30
0.0
 11
219.917099
 21
1.737999
 31
0.0
  0
LINE
  8
0
 62
   249
 10
222.157099
 20
5.097999
 30
0.0
 11
219.917099
 21
5.097999
 31
0.0
  0
LINE
  8
0
 62
   249
 10
219.917099
 20
5.377999
 30
0.0
 11
221.901542
 21
5.377999
 31
0.0
  0
LINE
  8
0
 62
   249
 10
219.917099
 20
8.737999
 30
0.0
 11
219.917099
 21
5.377999
 31
0.0
  0
LINE
  8
0
 62
   249
 10
219.917099
 20
8.737999
 30
0.0
 11
220.475658
 21
8.737999
 31
0.0
  0
ARC
  8
0
 62
   249
 10
220.477099
 20
7.162999
 30
0.0
 40
1.575
 50
298.455859
 51
90.052437
  0
LINE
  8
0
 62
   249
 10
217.677099
 20
5.377999
 30
0.0
 11
217.677099
 21
8.737999
 31
0.0
  0
LINE
  8
0
 62
   249
 10
219.637099
 20
1.737999
 30
0.0
 11
217.677099
 21
1.737999
 31
0.0
  0
LINE
  8
0
 62
   249
 10
219.637099
 20
5.097999
 30
0.0
 11
219.637099
 21
1.737999
 31
0.0
  0
LINE
  8
0
 62
   249
 10
217.677099
 20
5.097999
 30
0.0
 11
219.637099
 21
5.097999
 31
0.0
  0
LINE
  8
0
 62
   249
 10
219.637099
 20
5.377999
 30
0.0
 11
217.677099
 21
5.377999
 31
0.0
  0
LINE
  8
0
 62
   249
 10
219.637099
 20
8.737999
 30
0.0
 11
219.637099
 21
5.377999
 31
0.0
  0
LINE
  8
0
 62
   249
 10
217.677099
 20
8.737999
 30
0.0
 11
219.637099
 21
8.737999
 31
0.0
  0
LINE
  8
0
 62
   249
 10
217.677099
 20
1.737999
 30
0.0
 11
217.677099
 21
5.097999
 31
0.0
  0
LINE
  8
0
 62
   249
 10
211.356988
 20
5.080538
 30
0.0
 11
210.187099
 21
1.737999
 31
0.0
  0
LINE
  8
0
 62
   249
 10
213.547099
 20
5.097999
 30
0.0
 11
213.547099
 21
3.137999
 31
0.0
  0
LINE
  8
0
 62
   249
 10
213.827099
 20
5.097999
 30
0.0
 11
213.827099
 21
3.137999
 31
0.0
  0
LINE
  8
0
 62
   249
 10
213.827099
 20
5.097999
 30
0.0
 11
216.010356
 21
5.097999
 31
0.0
  0
LINE
  8
0
 62
   249
 10
213.827099
 20
5.377999
 30
0.0
 11
215.912213
 21
5.377999
 31
0.0
  0
LINE
  8
0
 62
   249
 10
216.011591
 20
5.096594
 30
0.0
 11
217.187099
 21
1.737999
 31
0.0
  0
LINE
  8
0
 62
   249
 10
211.360082
 20
5.097999
 30
0.0
 11
213.547099
 21
5.097999
 31
0.0
  0
LINE
  8
0
 62
   249
 10
211.45904
 20
5.377999
 30
0.0
 11
213.547099
 21
5.377999
 31
0.0
  0
LINE
  8
0
 62
   249
 10
213.547099
 20
8.737999
 30
0.0
 11
212.637099
 21
8.737999
 31
0.0
  0
LINE
  8
0
 62
   249
 10
213.827099
 20
3.137999
 30
0.0
 11
214.946992
 21
3.137999
 31
0.0
  0
LINE
  8
0
 62
   249
 10
213.827099
 20
8.737999
 30
0.0
 11
213.827099
 21
5.377999
 31
0.0
  0
LINE
  8
0
 62
   249
 10
213.547099
 20
8.737999
 30
0.0
 11
213.547099
 21
5.377999
 31
0.0
  0
LINE
  8
0
 62
   249
 10
214.737099
 20
8.737999
 30
0.0
 11
213.827099
 21
8.737999
 31
0.0
  0
LINE
  8
0
 62
   249
 10
214.948197
 20
3.134863
 30
0.0
 11
215.437099
 21
1.737999
 31
0.0
  0
LINE
  8
0
 62
   249
 10
214.737099
 20
8.737999
 30
0.0
 11
215.913452
 21
5.376991
 31
0.0
  0
LINE
  8
0
 62
   249
 10
212.425889
 20
3.134542
 30
0.0
 11
211.937099
 21
1.737999
 31
0.0
  0
LINE
  8
0
 62
   249
 10
212.425886
 20
3.137999
 30
0.0
 11
213.547099
 21
3.137999
 31
0.0
  0
LINE
  8
0
 62
   249
 10
212.637099
 20
8.737999
 30
0.0
 11
211.459571
 21
5.373634
 31
0.0
  0
LINE
  8
0
 62
   249
 10
215.437099
 20
1.737999
 30
0.0
 11
217.187099
 21
1.737999
 31
0.0
  0
LINE
  8
0
 62
   249
 10
210.187099
 20
1.737999
 30
0.0
 11
211.937099
 21
1.737999
 31
0.0
  0
LINE
  8
0
 62
   249
 10
369.737099
 20
9.737999
 30
0.0
 11
369.737099
 21
0.237999
 31
0.0
  0
TEXT
  8
0
 62
   249
 10
371.237099
 20
7.237999
 30
0.0
 40
1.4
  1
PAINOS  REVISION
  7
ROMANS
  0
LINE
  8
0
 62
   249
 10
349.737099
 20
9.737999
 30
0.0
 11
349.737099
 21
18.237999
 31
0.0
  0
TEXT
  8
0
 62
   249
 10
309.237099
 20
7.237999
 30
0.0
 40
1.4
  1
PIIRUSTUS NO  DRAWING NR
  7
ROMANS
  0
TEXT
  8
0
 62
   249
 10
309.237099
 20
15.737999
 30
0.0
 40
1.4
  1
KOODI  CODE
  7
ROMANS
  0
TEXT
  8
0
 62
   249
 10
309.237099
 20
32.737999
 30
0.0
 40
1.4
  1
NIMITYS  NAME
  7
ROMANS
  0
TEXT
  8
0
 62
   249
 10
259.237099
 20
15.737999
 30
0.0
 40
1.4
  1
SUHDE  SCALE
  7
ROMANS
  0
TEXT
  8
0
 62
   249
 10
259.237099
 20
23.737999
 30
0.0
 40
1.4
  1
TOLERANSSIT  TOLERANCES
  7
ROMANS
  0
TEXT
  8
0
 62
   249
 10
259.237099
 20
32.737999
 30
0.0
 40
1.4
  1
LIITTYY  CONCERNING
  7
ROMANS
  0
LINE
  8
0
 62
   249
 10
307.237099
 20
0.237999
 30
0.0
 11
307.237099
 21
35.237999
 31
0.0
  0
TEXT
  8
0
 62
   249
 10
209.979934
 20
15.704666
 30
0.0
 40
1.4
  1
HYVÄKSYI  APPROVED
  7
ROMANS
  0
TEXT
  8
0
 62
   249
 10
210.237099
 20
23.971333
 30
0.0
 40
1.4
  1
TARKASTI  CHECKED
  7
ROMANS
  0
LINE
  8
0
 62
   249
 10
209.237099
 20
35.237999
 30
0.0
 11
392.237099
 21
35.237999
 31
0.0
  0
LINE
  8
0
 62
   249
 10
209.237099
 20
26.737999
 30
0.0
 11
307.237099
 21
26.737999
 31
0.0
  0
LINE
  8
0
 62
   249
 10
209.237099
 20
9.737999
 30
0.0
 11
392.237099
 21
9.737999
 31
0.0
  0
LINE
  8
0
 62
   249
 10
209.237099
 20
18.237999
 30
0.0
 11
392.237099
 21
18.237999
 31
0.0
  0
LINE
  8
0
 62
   249
 10
392.237099
 20
0.237999
 30
0.0
 11
392.237099
 21
35.237999
 31
0.0
  0
LINE
  8
0
 62
   249
 10
209.237099
 20
0.237999
 30
0.0
 11
209.237099
 21
35.237999
 31
0.0
  0
LINE
  8
0
 62
   249
 10
209.237099
 20
0.237999
 30
0.0
 11
392.237099
 21
0.237999
 31
0.0
  0
LINE
  8
0
 62
   249
 10
18.237099
 20
0.237999
 30
0.0
 11
0.237099
 21
0.237999
 31
0.0
  0
LINE
  8
0
 62
   249
 10
0.237099
 20
262.737999
 30
0.0
 11
392.237099
 21
262.737999
 31
0.0
  0
TEXT
  8
0
  6
CONTINUOUS
 62
   249
 10
351.818577
 20
15.736611
 30
0.0
 40
1.4
  1
LEHTI SHEET
  7
GREEKS
  0
LINE
  8
0
  6
CONTINUOUS
 62
   249
 10
52.5
 20
65.0
 30
0.0
 11
52.5
 21
67.5
 31
0.0
  0
LINE
  8
0
  6
CONTINUOUS
 62
   249
 10
52.5
 20
65.0
 30
0.0
 11
47.5
 21
65.0
 31
0.0
  0
LINE
  8
0
  6
CONTINUOUS
 62
   249
 10
56.853436
 20
69.638137
 30
0.0
 11
51.756076
 21
66.785297
 31
0.0
  0
LINE
  8
0
  6
CONTINUOUS
 62
   249
 10
47.5
 20
70.0
 30
0.0
 11
52.5
 21
70.0
 31
0.0
  0
LINE
  8
0
  6
CONTINUOUS
 62
   249
 10
58.240939
 20
70.0
 30
0.0
 11
62.5
 21
70.0
 31
0.0
  0
LINE
  8
0
  6
CONTINUOUS
 62
   249
 10
237.5
 20
195.0
 30
0.0
 11
237.5
 21
82.5
 31
0.0
  0
LINE
  8
0
  6
CONTINUOUS
 62
   249
 10
237.5
 20
195.0
 30
0.0
 11
238.5
 21
196.0
 31
0.0
  0
LINE
  8
0
  6
CONTINUOUS
 62
   249
 10
237.5
 20
82.5
 30
0.0
 11
238.5
 21
81.5
 31
0.0
  0
LINE
  8
0
  6
CONTINUOUS
 62
   249
 10
52.5
 20
230.0
 30
0.0
 11
60.0
 21
230.0
 31
0.0
  0
LINE
  8
0
  6
CONTINUOUS
 62
   249
 10
60.0
 20
230.0
 30
0.0
 11
60.0
 21
237.5
 31
0.0
  0
LINE
  8
0
  6
CONTINUOUS
 62
   249
 10
67.5
 20
230.0
 30
0.0
 11
67.5
 21
237.5
 31
0.0
  0
LINE
  8
0
  6
CONTINUOUS
 62
   249
 10
85.0
 20
230.0
 30
0.0
 11
92.5
 21
230.0
 31
0.0
  0
LINE
  8
0
  6
HIDDEN
 62
   249
 10
75.0
 20
232.5
 30
0.0
 11
105.0
 21
232.5
 31
0.0
  0
LINE
  8
0
 62
   249
 10
101.173889
 20
227.201188
 30
0.0
 11
93.4
 21
227.201188
 31
0.0
  0
LINE
  8
0
 62
   249
 10
93.4
 20
219.778444
 30
0.0
 11
101.173889
 21
219.778444
 31
0.0
  0
LINE
  8
0
 62
   249
 10
93.673889
 20
227.201188
 30
0.0
 11
93.673889
 21
219.778444
 31
0.0
  0
LINE
  8
0
 62
   249
 10
97.695685
 20
227.034655
 30
0.0
 11
95.781882
 21
224.755833
 31
0.0
  0
LINE
  8
0
 62
   249
 10
99.187803
 20
227.034655
 30
0.0
 11
97.333468
 21
224.755833
 31
0.0
  0
LINE
  8
0
  6
CONTINUOUS
 62
   249
 10
100.0
 20
227.201188
 30
0.0
 11
100.0
 21
230.0
 31
0.0
  0
LINE
  8
0
  6
CONTINUOUS
 62
   249
 10
97.5
 20
200.0
 30
0.0
 11
97.5
 21
219.778444
 31
0.0
  0
LINE
  8
0
 62
   249
 10
101.173889
 20
227.201188
 30
0.0
 11
101.173889
 21
219.778444
 31
0.0
  0
LINE
  8
0
 62
   249
 10
94.089925
 20
227.201188
 30
0.0
 11
85.9
 21
227.201188
 31
0.0
  0
LINE
  8
0
 62
   249
 10
85.9
 20
219.778444
 30
0.0
 11
94.089925
 21
219.778444
 31
0.0
  0
LINE
  8
0
 62
   249
 10
86.173889
 20
227.201188
 30
0.0
 11
86.173889
 21
219.778444
 31
0.0
  0
LINE
  8
0
 62
   249
 10
90.195685
 20
227.034655
 30
0.0
 11
88.281882
 21
224.755833
 31
0.0
  0
LINE
  8
0
 62
   249
 10
91.687803
 20
227.034655
 30
0.0
 11
89.833468
 21
224.755833
 31
0.0
  0
LINE
  8
0
  6
CONTINUOUS
 62
   249
 10
92.5
 20
227.201188
 30
0.0
 11
92.5
 21
230.0
 31
0.0
  0
LINE
  8
0
  6
CONTINUOUS
 62
   249
 10
90.0
 20
200.0
 30
0.0
 11
90.0
 21
219.778444
 31
0.0
  0
LINE
  8
0
  6
CONTINUOUS
 62
   249
 10
79.989347
 20
200.0
 30
0.0
 11
79.989347
 21
219.778444
 31
0.0
  0
LINE
  8
0
  6
CONTINUOUS
 62
   249
 10
85.0
 20
227.201188
 30
0.0
 11
85.0
 21
230.0
 31
0.0
  0
LINE
  8
0
 62
   249
 10
84.187803
 20
227.034655
 30
0.0
 11
82.333468
 21
224.755833
 31
0.0
  0
LINE
  8
0
 62
   249
 10
82.695685
 20
227.034655
 30
0.0
 11
80.781882
 21
224.755833
 31
0.0
  0
LINE
  8
0
 62
   249
 10
78.4
 20
227.201188
 30
0.0
 11
78.4
 21
219.778444
 31
0.0
  0
LINE
  8
0
 62
   249
 10
78.4
 20
219.778444
 30
0.0
 11
86.589925
 21
219.778444
 31
0.0
  0
LINE
  8
0
 62
   249
 10
86.589925
 20
227.201188
 30
0.0
 11
78.4
 21
227.201188
 31
0.0
  0
LINE
  8
0
  6
HIDDEN
 62
   249
 10
75.0
 20
237.5
 30
0.0
 11
75.0
 21
232.5
 31
0.0
  0
LINE
  8
0
  6
CONTINUOUS
 62
   249
 10
80.0
 20
227.201188
 30
0.0
 11
80.0
 21
237.5
 31
0.0
  0
LINE
  8
0
  6
CONTINUOUS
 62
   249
 10
87.5
 20
227.201188
 30
0.0
 11
87.5
 21
237.5
 31
0.0
  0
LINE
  8
0
  6
CONTINUOUS
 62
   249
 10
92.5
 20
230.0
 30
0.0
 11
92.5
 21
237.5
 31
0.0
  0
LINE
  8
0
  6
CONTINUOUS
 62
   249
 10
95.0
 20
227.201188
 30
0.0
 11
95.0
 21
237.5
 31
0.0
  0
LINE
  8
0
  6
CONTINUOUS
 62
   249
 10
100.0
 20
230.0
 30
0.0
 11
100.0
 21
237.5
 31
0.0
  0
LINE
  8
0
  6
HIDDEN
 62
   249
 10
105.0
 20
232.5
 30
0.0
 11
105.0
 21
237.5
 31
0.0
  0
TEXT
  8
0
  6
CONTINUOUS
 62
   249
 10
45.843537
 20
233.193089
 30
0.0
 40
2.0
  1
X3
 50
90.0
  7
ROMANS
  0
TEXT
  8
0
  6
CONTINUOUS
 62
   249
 10
50.127712
 20
234.311518
 30
0.0
 40
2.0
  1
7
 50
90.0
  7
ROMANS
  0
TEXT
  8
0
  6
CONTINUOUS
 62
   249
 10
57.513662
 20
234.311518
 30
0.0
 40
2.0
  1
8
 50
90.0
  7
ROMANS
  0
TEXT
  8
0
  6
CONTINUOUS
 62
   249
 10
62.240948
 20
234.311518
 30
0.0
 40
2.0
  1
6
 50
90.0
  7
ROMANS
  0
TEXT
  8
0
  6
CONTINUOUS
 62
   249
 10
65.906236
 20
233.193089
 30
0.0
 40
2.0
  1
10
 50
90.0
  7
ROMANS
  0
TEXT
  8
0
  6
CONTINUOUS
 62
   249
 10
69.969234
 20
234.311518
 30
0.0
 40
2.0
  1
9
 50
90.0
  7
ROMANS
  0
TEXT
  8
0
  6
CONTINUOUS
 62
   249
 10
78.638358
 20
233.193089
 30
0.0
 40
2.0
  1
X4
 50
90.0
  7
ROMANS
  0
TEXT
  8
0
  6
CONTINUOUS
 62
   249
 10
82.664052
 20
234.311518
 30
0.0
 40
2.0
  1
7
 50
90.0
  7
ROMANS
  0
TEXT
  8
0
  6
CONTINUOUS
 62
   249
 10
90.133084
 20
234.311518
 30
0.0
 40
2.0
  1
8
 50
90.0
  7
ROMANS
  0
TEXT
  8
0
  6
CONTINUOUS
 62
   249
 10
94.703435
 20
234.311518
 30
0.0
 40
2.0
  1
6
 50
90.0
  7
ROMANS
  0
TEXT
  8
0
  6
CONTINUOUS
 62
   249
 10
98.544121
 20
233.193089
 30
0.0
 40
2.0
  1
10
 50
90.0
  7
ROMANS
  0
TEXT
  8
0
  6
CONTINUOUS
 62
   249
 10
102.902526
 20
234.311518
 30
0.0
 40
2.0
  1
9
 50
90.0
  7
ROMANS
  0
TEXT
  8
0
  6
CONTINUOUS
 62
   249
 10
111.147003
 20
233.193089
 30
0.0
 40
2.0
  1
X5
 50
90.0
  7
ROMANS
  0
TEXT
  8
0
  6
CONTINUOUS
 62
   249
 10
115.265011
 20
233.193089
 30
0.0
 40
2.0
  1
10
 50
90.0
  7
ROMANS
  0
TEXT
  8
0
  6
CONTINUOUS
 62
   249
 10
120.158463
 20
234.311518
 30
0.0
 40
2.0
  1
9
 50
90.0
  7
ROMANS
  0
LINE
  8
0
  6
CONTINUOUS
 62
   249
 10
188.413482
 20
189.283009
 30
0.0
 11
187.164809
 21
188.649604
 31
0.0
  0
LINE
  8
0
  6
CONTINUOUS
 62
   249
 10
187.164809
 20
189.99383
 30
0.0
 11
188.413482
 21
189.283009
 31
0.0
  0
TEXT
  8
0
  6
CONTINUOUS
 62
   249
 10
183.766315
 20
190.203269
 30
0.0
 40
2.0
  1
I
 50
180.0
  0
TEXT
  8
0
  6
CONTINUOUS
 62
   249
 10
190.28943
 20
190.199018
 30
0.0
 40
2.0
  1
O
 50
180.0
  0
LINE
  8
0
  6
CONTINUOUS
 62
   249
 10
188.412266
 20
189.282392
 30
0.0
 11
183.919117
 21
189.282392
 31
0.0
  0
TEXT
  8
0
  6
CONTINUOUS
 62
   249
 10
204.983412
 20
191.844123
 30
0.0
 40
2.5
  1
U4
  7
GREEKS
  0
LINE
  8
0
  6
CONTINUOUS
 62
   249
 10
180.0
 20
191.282084
 30
0.0
 11
210.450615
 21
191.282084
 31
0.0
  0
LINE
  8
0
  6
CONTINUOUS
 62
   249
 10
185.020751
 20
183.550788
 30
0.0
 11
189.513901
 21
183.550788
 31
0.0
  0
TEXT
  8
0
  6
CONTINUOUS
 62
   249
 10
183.143587
 20
182.634162
 30
0.0
 40
2.0
  1
O
  0
TEXT
  8
0
  6
CONTINUOUS
 62
   249
 10
189.666703
 20
182.629911
 30
0.0
 40
2.0
  1
I
  0
LINE
  8
0
  6
CONTINUOUS
 62
   249
 10
188.265227
 20
184.26161
 30
0.0
 11
189.513901
 21
183.550788
 31
0.0
  0
LINE
  8
0
  6
CONTINUOUS
 62
   249
 10
189.513901
 20
183.550788
 30
0.0
 11
188.265227
 21
182.917383
 31
0.0
  0
TEXT
  8
0
  6
CONTINUOUS
 62
   249
 10
183.148338
 20
178.322127
 30
0.0
 40
2.5
  1
n
  7
GREEKS
  0
TEXT
  8
0
  6
CONTINUOUS
 62
   249
 10
186.237202
 20
178.322127
 30
0.0
 40
2.0
  1
x
  7
GREEKS
  0
LINE
  8
0
  6
CONTINUOUS
 62
   249
 10
180.0
 20
165.0
 30
0.0
 11
210.450615
 21
165.0
 31
0.0
  0
LINE
  8
0
  6
CONTINUOUS
 62
   249
 10
207.865285
 20
183.550788
 30
0.0
 11
206.616612
 21
182.917383
 31
0.0
  0
LINE
  8
0
  6
CONTINUOUS
 62
   249
 10
206.616612
 20
184.26161
 30
0.0
 11
207.865285
 21
183.550788
 31
0.0
  0
TEXT
  8
0
  6
CONTINUOUS
 62
   249
 10
208.018087
 20
182.629911
 30
0.0
 40
2.0
  1
I
  0
TEXT
  8
0
  6
CONTINUOUS
 62
   249
 10
201.494972
 20
182.634162
 30
0.0
 40
2.0
  1
O
  0
LINE
  8
0
  6
CONTINUOUS
 62
   249
 10
203.372136
 20
183.550788
 30
0.0
 11
207.865285
 21
183.550788
 31
0.0
  0
LINE
  8
0
  6
CONTINUOUS
 62
   249
 10
188.412266
 20
175.66769
 30
0.0
 11
183.919117
 21
175.66769
 31
0.0
  0
TEXT
  8
0
  6
CONTINUOUS
 62
   249
 10
190.28943
 20
176.584316
 30
0.0
 40
2.0
  1
O
 50
180.0
  0
TEXT
  8
0
  6
CONTINUOUS
 62
   249
 10
183.766315
 20
176.588567
 30
0.0
 40
2.0
  1
I
 50
180.0
  0
LINE
  8
0
  6
CONTINUOUS
 62
   249
 10
187.164809
 20
176.379129
 30
0.0
 11
188.413482
 21
175.668307
 31
0.0
  0
LINE
  8
0
  6
CONTINUOUS
 62
   249
 10
188.413482
 20
175.668307
 30
0.0
 11
187.164809
 21
175.034902
 31
0.0
  0
LINE
  8
0
  6
CONTINUOUS
 62
   249
 10
189.513901
 20
171.995916
 30
0.0
 11
188.265227
 21
171.362511
 31
0.0
  0
LINE
  8
0
  6
CONTINUOUS
 62
   249
 10
188.265227
 20
172.706737
 30
0.0
 11
189.513901
 21
171.995916
 31
0.0
  0
TEXT
  8
0
  6
CONTINUOUS
 62
   249
 10
189.666703
 20
171.075039
 30
0.0
 40
2.0
  1
I
  0
TEXT
  8
0
  6
CONTINUOUS
 62
   249
 10
183.143587
 20
171.07929
 30
0.0
 40
2.0
  1
O
  0
LINE
  8
0
  6
CONTINUOUS
 62
   249
 10
185.020751
 20
171.995916
 30
0.0
 11
189.513901
 21
171.995916
 31
0.0
  0
LINE
  8
0
  6
CONTINUOUS
 62
   249
 10
207.879658
 20
171.498338
 30
0.0
 11
206.630985
 21
170.864933
 31
0.0
  0
LINE
  8
0
  6
CONTINUOUS
 62
   249
 10
206.630985
 20
172.209159
 30
0.0
 11
207.879658
 21
171.498338
 31
0.0
  0
LINE
  8
0
  6
CONTINUOUS
 62
   249
 10
203.385292
 20
171.497721
 30
0.0
 11
204.633965
 21
172.131126
 31
0.0
  0
LINE
  8
0
  6
CONTINUOUS
 62
   249
 10
204.633965
 20
170.786899
 30
0.0
 11
203.385292
 21
171.497721
 31
0.0
  0
TEXT
  8
0
  6
CONTINUOUS
 62
   249
 10
208.03246
 20
170.577461
 30
0.0
 40
2.0
  1
I
  0
TEXT
  8
0
  6
CONTINUOUS
 62
   249
 10
201.494136
 20
170.581712
 30
0.0
 40
2.0
  1
O
  0
LINE
  8
0
  6
CONTINUOUS
 62
   249
 10
203.386509
 20
171.498338
 30
0.0
 11
207.879658
 21
171.498338
 31
0.0
  0
TEXT
  8
0
  6
CONTINUOUS
 62
   249
 10
182.659568
 20
168.132124
 30
0.0
 40
1.5
  1
OBJECTS
  7
GREEKS
  0
TEXT
  8
0
  6
CONTINUOUS
 62
   249
 10
185.807799
 20
165.632124
 30
0.0
 40
1.5
  1
1...6
  7
ROMANS
  0
LINE
  8
0
  6
CONTINUOUS
 62
   249
 10
180.0
 20
160.0
 30
0.0
 11
210.450615
 21
160.0
 31
0.0
  0
LINE
  8
0
  6
CONTINUOUS
 62
   249
 10
200.0
 20
165.0
 30
0.0
 11
200.0
 21
191.282084
 31
0.0
  0
TEXT
  8
0
  6
CONTINUOUS
 62
   249
 10
183.418724
 20
161.234751
 30
0.0
 40
2.0
  1
INTERLOCKING
  7
GREEKS
  0
LINE
  8
0
  6
CONTINUOUS
 62
   249
 10
180.0
 20
152.5
 30
0.0
 11
210.450615
 21
152.5
 31
0.0
  0
TEXT
  8
0
  6
CONTINUOUS
 62
   249
 10
183.628108
 20
156.695432
 30
0.0
 40
2.0
  1
OBJECTS
  7
GREEKS
  0
TEXT
  8
0
  6
CONTINUOUS
 62
   249
 10
187.955363
 20
153.362099
 30
0.0
 40
2.0
  1
1...7
  7
ROMANS
  0
LINE
  8
0
  6
CONTINUOUS
 62
   249
 10
202.41932
 20
158.869279
 30
0.0
 11
207.41932
 21
158.869279
 31
0.0
  0
LINE
  8
0
  6
CONTINUOUS
 62
   249
 10
204.91932
 20
158.869279
 30
0.0
 11
204.91932
 21
156.369279
 31
0.0
  0
TEXT
  8
0
  6
CONTINUOUS
 62
   249
 10
204.585987
 20
155.869279
 30
0.0
 40
1.0
  1
X
  7
GREEKS
  0
LINE
  8
0
  6
CONTINUOUS
 62
   249
 10
204.91932
 20
155.119279
 30
0.0
 11
204.91932
 21
153.869279
 31
0.0
  0
LINE
  8
0
  6
CONTINUOUS
 62
   249
 10
204.91932
 20
155.119279
 30
0.0
 11
203.960323
 21
156.377356
 31
0.0
  0
LINE
  8
0
  6
CONTINUOUS
 62
   249
 10
200.0
 20
152.5
 30
0.0
 11
200.0
 21
160.0
 31
0.0
  0
TEXT
  8
0
  6
CONTINUOUS
 62
   249
 10
182.707072
 20
148.952837
 30
0.0
 40
2.0
  1
ON/OFF INPUTS
  7
GREEKS
  0
TEXT
  8
0
  6
CONTINUOUS
 62
   249
 10
191.684559
 20
145.619504
 30
0.0
 40
2.0
  1
8...17
  7
ROMANS
  0
LINE
  8
0
  6
CONTINUOUS
 62
   249
 10
180.0
 20
132.5
 30
0.0
 11
210.450615
 21
132.5
 31
0.0
  0
LINE
  8
0
  6
CONTINUOUS
 62
   249
 10
200.0
 20
132.5
 30
0.0
 11
200.0
 21
145.0
 31
0.0
  0
TEXT
  8
0
  6
CONTINUOUS
 62
   249
 10
182.707072
 20
141.63531
 30
0.0
 40
2.0
  1
OPTIONS
  7
GREEKS
  0
TEXT
  8
0
  6
CONTINUOUS
 62
   249
 10
182.707072
 20
138.301977
 30
0.0
 40
2.0
  1
I ; U
  7
GREEKS
  0
TEXT
  8
0
  6
CONTINUOUS
 62
   249
 10
182.707072
 20
134.968644
 30
0.0
 40
2.0
  1
P ; Q ; E
  7
GREEKS
  0
LINE
  8
0
  6
CONTINUOUS
 62
   249
 10
180.0
 20
127.5
 30
0.0
 11
210.450615
 21
127.5
 31
0.0
  0
LINE
  8
0
  6
CONTINUOUS
 62
   249
 10
200.114266
 20
128.558064
 30
0.0
 11
202.153221
 21
128.558064
 31
0.0
  0
LINE
  8
0
  6
CONTINUOUS
 62
   249
 10
202.153221
 20
128.558064
 30
0.0
 11
202.153221
 21
131.125472
 31
0.0
  0
LINE
  8
0
  6
CONTINUOUS
 62
   249
 10
206.778909
 20
128.558064
 30
0.0
 11
204.739955
 21
128.558064
 31
0.0
  0
LINE
  8
0
  6
CONTINUOUS
 62
   249
 10
204.739955
 20
128.558064
 30
0.0
 11
204.739955
 21
131.125472
 31
0.0
  0
LINE
  8
0
  6
CONTINUOUS
 62
   249
 10
202.153221
 20
131.125472
 30
0.0
 11
204.739955
 21
131.125472
 31
0.0
  0
LINE
  8
0
  6
CONTINUOUS
 62
   249
 10
180.0
 20
195.0
 30
0.0
 11
210.450615
 21
195.0
 31
0.0
  0
LINE
  8
0
  6
CONTINUOUS
 62
   249
 10
210.450615
 20
195.0
 30
0.0
 11
210.450615
 21
167.18832
 31
0.0
  0
LINE
  8
0
  6
HIDDEN
 62
   249
 10
180.0
 20
195.0
 30
0.0
 11
180.0
 21
237.5
 31
0.0
  0
LINE
  8
0
  6
HIDDEN
 62
   249
 10
180.491201
 20
205.0
 30
0.0
 11
209.953271
 21
205.0
 31
0.0
  0
LINE
  8
0
  6
HIDDEN
 62
   249
 10
180.491201
 20
205.0
 30
0.0
 11
180.491201
 21
236.915965
 31
0.0
  0
LINE
  8
0
  6
HIDDEN
 62
   249
 10
209.953271
 20
205.0
 30
0.0
 11
209.953271
 21
236.915965
 31
0.0
  0
LINE
  8
0
  6
HIDDEN
 62
   249
 10
180.491201
 20
236.915965
 30
0.0
 11
209.953271
 21
236.915965
 31
0.0
  0
LINE
  8
0
  6
CONTINUOUS
 62
   249
 10
202.5
 20
236.915965
 30
0.0
 11
202.5
 21
205.0
 31
0.0
  0
LINE
  8
0
  6
CONTINUOUS
 62
   249
 10
202.5
 20
233.238717
 30
0.0
 11
209.953271
 21
233.238717
 31
0.0
  0
TEXT
  8
0
  6
CONTINUOUS
 62
   249
 10
205.001359
 20
233.688531
 30
0.0
 40
2.5
  1
U5
  7
ROMANS
  0
LINE
  8
0
  6
CONTINUOUS
 62
   249
 10
209.953271
 20
230.0
 30
0.0
 11
217.5
 21
230.0
 31
0.0
  0
LINE
  8
0
  6
CONTINUOUS
 62
   249
 10
217.5
 20
230.0
 30
0.0
 11
217.5
 21
237.5
 31
0.0
  0
LINE
  8
0
  6
CONTINUOUS
 62
   249
 10
209.953271
 20
225.0
 30
0.0
 11
225.0
 21
225.0
 31
0.0
  0
LINE
  8
0
  6
CONTINUOUS
 62
   249
 10
225.0
 20
225.0
 30
0.0
 11
225.0
 21
237.5
 31
0.0
  0
LINE
  8
0
  6
CONTINUOUS
 62
   249
 10
209.953271
 20
207.5
 30
0.0
 11
265.0
 21
207.5
 31
0.0
  0
LINE
  8
0
  6
CONTINUOUS
 62
   249
 10
209.953271
 20
212.5
 30
0.0
 11
265.0
 21
212.5
 31
0.0
  0
LINE
  8
0
  6
CONTINUOUS
 62
   249
 10
209.953271
 20
217.5
 30
0.0
 11
265.0
 21
217.5
 31
0.0
  0
LINE
  8
0
  6
CONTINUOUS
 62
   249
 10
209.953271
 20
222.5
 30
0.0
 11
265.0
 21
222.5
 31
0.0
  0
LINE
  8
0
  6
HIDDEN
 62
   249
 10
265.0
 20
227.5
 30
0.0
 11
260.0
 21
227.5
 31
0.0
  0
LINE
  8
0
  6
HIDDEN
 62
   249
 10
260.0
 20
227.5
 30
0.0
 11
260.0
 21
202.5
 31
0.0
  0
LINE
  8
0
  6
HIDDEN
 62
   249
 10
260.0
 20
202.5
 30
0.0
 11
265.0
 21
202.5
 31
0.0
  0
TEXT
  8
0
  6
HIDDEN
 62
   249
 10
260.858139
 20
224.107311
 30
0.0
 40
2.0
  1
X6
  7
ROMANS
  0
TEXT
  8
0
  6
HIDDEN
 62
   249
 10
261.218464
 20
219.833506
 30
0.0
 40
2.0
  1
7
  7
ROMANS
  0
TEXT
  8
0
  6
HIDDEN
 62
   249
 10
261.218464
 20
214.766946
 30
0.0
 40
2.0
  1
8
  7
ROMANS
  0
TEXT
  8
0
  6
HIDDEN
 62
   249
 10
261.218464
 20
209.695463
 30
0.0
 40
2.0
  1
9
  7
ROMANS
  0
TEXT
  8
0
  6
HIDDEN
 62
   249
 10
260.117145
 20
204.628904
 30
0.0
 40
2.0
  1
10
  7
ROMANS
  0
LINE
  8
0
 62
   249
 10
250.996971
 20
86.208127
 30
0.0
 11
249.142636
 21
83.929305
 31
0.0
  0
LINE
  8
0
 62
   249
 10
249.504853
 20
86.208127
 30
0.0
 11
247.59105
 21
83.929305
 31
0.0
  0
LINE
  8
0
 62
   249
 10
249.504853
 20
93.741188
 30
0.0
 11
247.59105
 21
91.462366
 31
0.0
  0
LINE
  8
0
 62
   249
 10
250.996971
 20
93.741188
 30
0.0
 11
249.142636
 21
91.462366
 31
0.0
  0
LINE
  8
0
 62
   249
 10
250.996971
 20
176.208127
 30
0.0
 11
249.142636
 21
173.929305
 31
0.0
  0
LINE
  8
0
 62
   249
 10
249.504853
 20
176.208127
 30
0.0
 11
247.59105
 21
173.929305
 31
0.0
  0
LINE
  8
0
 62
   249
 10
249.504853
 20
183.708127
 30
0.0
 11
247.59105
 21
181.429305
 31
0.0
  0
LINE
  8
0
 62
   249
 10
250.996971
 20
183.708127
 30
0.0
 11
249.142636
 21
181.429305
 31
0.0
  0
LINE
  8
0
 62
   249
 10
249.504853
 20
191.208127
 30
0.0
 11
247.59105
 21
188.929305
 31
0.0
  0
LINE
  8
0
 62
   249
 10
250.996971
 20
191.208127
 30
0.0
 11
249.142636
 21
188.929305
 31
0.0
  0
LINE
  8
0
 62
   249
 10
249.504853
 20
199.09384
 30
0.0
 11
247.59105
 21
196.815018
 31
0.0
  0
LINE
  8
0
 62
   249
 10
250.996971
 20
199.09384
 30
0.0
 11
249.142636
 21
196.815018
 31
0.0
  0
LINE
  8
0
 62
   249
 10
252.201188
 20
86.589925
 30
0.0
 11
252.201188
 21
78.4
 31
0.0
  0
LINE
  8
0
 62
   249
 10
244.778444
 20
86.204212
 30
0.0
 11
252.201188
 21
86.204212
 31
0.0
  0
LINE
  8
0
 62
   249
 10
252.201188
 20
78.4
 30
0.0
 11
244.778444
 21
78.4
 31
0.0
  0
LINE
  8
0
 62
   249
 10
244.778444
 20
78.4
 30
0.0
 11
244.778444
 21
86.589925
 31
0.0
  0
LINE
  8
0
  6
CONTINUOUS
 62
   249
 10
244.778444
 20
82.5
 30
0.0
 11
240.0
 21
82.5
 31
0.0
  0
LINE
  8
0
  6
CONTINUOUS
 62
   249
 10
244.778444
 20
90.0
 30
0.0
 11
240.0
 21
90.0
 31
0.0
  0
LINE
  8
0
 62
   249
 10
244.778444
 20
85.9
 30
0.0
 11
244.778444
 21
93.737273
 31
0.0
  0
LINE
  8
0
 62
   249
 10
244.778444
 20
168.737273
 30
0.0
 11
252.201188
 21
168.737273
 31
0.0
  0
LINE
  8
0
 62
   249
 10
252.201188
 20
93.737273
 30
0.0
 11
252.201188
 21
85.9
 31
0.0
  0
LINE
  8
0
  6
CONTINUOUS
 62
   249
 10
252.201188
 20
87.5
 30
0.0
 11
257.5
 21
87.5
 31
0.0
  0
LINE
  8
0
  6
CONTINUOUS
 62
   249
 10
252.201188
 20
177.5
 30
0.0
 11
257.5
 21
177.5
 31
0.0
  0
LINE
  8
0
 62
   249
 10
252.201188
 20
184.089925
 30
0.0
 11
252.201188
 21
175.9
 31
0.0
  0
LINE
  8
0
 62
   249
 10
244.778444
 20
183.704212
 30
0.0
 11
252.201188
 21
183.704212
 31
0.0
  0
LINE
  8
0
 62
   249
 10
244.778444
 20
175.9
 30
0.0
 11
244.778444
 21
184.089925
 31
0.0
  0
LINE
  8
0
  6
CONTINUOUS
 62
   249
 10
244.778444
 20
172.5
 30
0.0
 11
240.0
 21
172.5
 31
0.0
  0
LINE
  8
0
 62
   249
 10
244.778444
 20
168.737273
 30
0.0
 11
244.778444
 21
176.589925
 31
0.0
  0
LINE
  8
0
 62
   249
 10
244.778444
 20
176.204212
 30
0.0
 11
252.201188
 21
176.204212
 31
0.0
  0
LINE
  8
0
 62
   249
 10
252.201188
 20
176.589925
 30
0.0
 11
252.201188
 21
168.737273
 31
0.0
  0
LINE
  8
0
  6
CONTINUOUS
 62
   249
 10
252.201188
 20
170.0
 30
0.0
 11
265.0
 21
170.0
 31
0.0
  0
LINE
  8
0
  6
CONTINUOUS
 62
   249
 10
252.201188
 20
185.0
 30
0.0
 11
257.5
 21
185.0
 31
0.0
  0
LINE
  8
0
 62
   249
 10
252.201188
 20
191.589925
 30
0.0
 11
252.201188
 21
183.4
 31
0.0
  0
LINE
  8
0
 62
   249
 10
244.778444
 20
191.204212
 30
0.0
 11
252.201188
 21
191.204212
 31
0.0
  0
LINE
  8
0
 62
   249
 10
244.778444
 20
183.4
 30
0.0
 11
244.778444
 21
191.589925
 31
0.0
  0
LINE
  8
0
  6
CONTINUOUS
 62
   249
 10
244.778444
 20
187.5
 30
0.0
 11
240.0
 21
187.5
 31
0.0
  0
LINE
  8
0
  6
CONTINUOUS
 62
   249
 10
244.778444
 20
195.0
 30
0.0
 11
240.0
 21
195.0
 31
0.0
  0
LINE
  8
0
 62
   249
 10
244.778444
 20
190.9
 30
0.0
 11
244.778444
 21
199.089925
 31
0.0
  0
LINE
  8
0
 62
   249
 10
244.778444
 20
199.089925
 30
0.0
 11
252.201188
 21
199.089925
 31
0.0
  0
LINE
  8
0
 62
   249
 10
252.201188
 20
199.089925
 30
0.0
 11
252.201188
 21
190.9
 31
0.0
  0
LINE
  8
0
  6
CONTINUOUS
 62
   249
 10
252.201188
 20
192.5
 30
0.0
 11
257.5
 21
192.5
 31
0.0
  0
LINE
  8
0
  6
CONTINUOUS
 62
   249
 10
252.201188
 20
80.0
 30
0.0
 11
265.0
 21
80.0
 31
0.0
  0
LINE
  8
0
  6
CONTINUOUS
 62
   249
 10
252.201188
 20
85.0
 30
0.0
 11
265.0
 21
85.0
 31
0.0
  0
LINE
  8
0
  6
CONTINUOUS
 62
   249
 10
252.201188
 20
92.5
 30
0.0
 11
265.0
 21
92.5
 31
0.0
  0
LINE
  8
0
  6
CONTINUOUS
 62
   249
 10
252.201188
 20
175.0
 30
0.0
 11
265.0
 21
175.0
 31
0.0
  0
LINE
  8
0
  6
CONTINUOUS
 62
   249
 10
252.201188
 20
182.5
 30
0.0
 11
265.0
 21
182.5
 31
0.0
  0
LINE
  8
0
  6
CONTINUOUS
 62
   249
 10
252.201188
 20
190.0
 30
0.0
 11
265.0
 21
190.0
 31
0.0
  0
LINE
  8
0
  6
CONTINUOUS
 62
   249
 10
252.201188
 20
197.5
 30
0.0
 11
265.0
 21
197.5
 31
0.0
  0
LINE
  8
0
  6
CONTINUOUS
 62
   249
 10
257.5
 20
192.5
 30
0.0
 11
257.5
 21
170.0
 31
0.0
  0
LINE
  8
0
  6
CONTINUOUS
 62
   249
 10
244.778444
 20
180.0
 30
0.0
 11
240.0
 21
180.0
 31
0.0
  0
LINE
  8
0
 62
   249
 10
244.778444
 20
93.737273
 30
0.0
 11
252.201188
 21
93.737273
 31
0.0
  0
LINE
  8
0
  6
CONTINUOUS
 62
   249
 10
257.5
 20
87.5
 30
0.0
 11
257.5
 21
80.0
 31
0.0
  0
TEXT
  8
0
  6
CONTINUOUS
 62
   249
 10
260.800489
 20
71.600392
 30
0.0
 40
2.0
  1
9
  7
ROMANS
  0
LINE
  8
0
  6
CONTINUOUS
 62
   249
 10
257.500679
 20
68.485864
 30
0.0
 11
259.419928
 21
71.173941
 31
0.0
  0
LINE
  8
0
  6
CONTINUOUS
 62
   249
 10
244.778444
 20
145.0
 30
0.0
 11
240.0
 21
145.0
 31
0.0
  0
LINE
  8
0
  6
CONTINUOUS
 62
   249
 10
257.5
 20
157.5
 30
0.0
 11
257.5
 21
135.0
 31
0.0
  0
LINE
  8
0
  6
CONTINUOUS
 62
   249
 10
252.201188
 20
162.5
 30
0.0
 11
265.0
 21
162.5
 31
0.0
  0
LINE
  8
0
  6
CONTINUOUS
 62
   249
 10
252.201188
 20
155.0
 30
0.0
 11
265.0
 21
155.0
 31
0.0
  0
LINE
  8
0
  6
CONTINUOUS
 62
   249
 10
252.201188
 20
147.5
 30
0.0
 11
265.0
 21
147.5
 31
0.0
  0
LINE
  8
0
  6
CONTINUOUS
 62
   249
 10
252.201188
 20
140.0
 30
0.0
 11
265.0
 21
140.0
 31
0.0
  0
LINE
  8
0
  6
CONTINUOUS
 62
   249
 10
252.201188
 20
157.5
 30
0.0
 11
257.5
 21
157.5
 31
0.0
  0
LINE
  8
0
 62
   249
 10
252.201188
 20
164.089925
 30
0.0
 11
252.201188
 21
155.9
 31
0.0
  0
LINE
  8
0
 62
   249
 10
244.778444
 20
164.089925
 30
0.0
 11
252.201188
 21
164.089925
 31
0.0
  0
LINE
  8
0
 62
   249
 10
244.778444
 20
155.9
 30
0.0
 11
244.778444
 21
164.089925
 31
0.0
  0
LINE
  8
0
  6
CONTINUOUS
 62
   249
 10
244.778444
 20
160.0
 30
0.0
 11
240.0
 21
160.0
 31
0.0
  0
LINE
  8
0
  6
CONTINUOUS
 62
   249
 10
244.778444
 20
152.5
 30
0.0
 11
240.0
 21
152.5
 31
0.0
  0
LINE
  8
0
 62
   249
 10
244.778444
 20
148.4
 30
0.0
 11
244.778444
 21
156.589925
 31
0.0
  0
LINE
  8
0
 62
   249
 10
244.778444
 20
156.204212
 30
0.0
 11
252.201188
 21
156.204212
 31
0.0
  0
LINE
  8
0
 62
   249
 10
252.201188
 20
156.589925
 30
0.0
 11
252.201188
 21
148.4
 31
0.0
  0
LINE
  8
0
  6
CONTINUOUS
 62
   249
 10
252.201188
 20
150.0
 30
0.0
 11
257.5
 21
150.0
 31
0.0
  0
LINE
  8
0
  6
CONTINUOUS
 62
   249
 10
252.201188
 20
135.0
 30
0.0
 11
265.0
 21
135.0
 31
0.0
  0
LINE
  8
0
 62
   249
 10
252.201188
 20
141.589925
 30
0.0
 11
252.201188
 21
133.737273
 31
0.0
  0
LINE
  8
0
 62
   249
 10
244.778444
 20
141.204212
 30
0.0
 11
252.201188
 21
141.204212
 31
0.0
  0
LINE
  8
0
 62
   249
 10
244.778444
 20
133.737273
 30
0.0
 11
244.778444
 21
141.589925
 31
0.0
  0
LINE
  8
0
  6
CONTINUOUS
 62
   249
 10
244.778444
 20
137.5
 30
0.0
 11
240.0
 21
137.5
 31
0.0
  0
LINE
  8
0
 62
   249
 10
244.778444
 20
140.9
 30
0.0
 11
244.778444
 21
149.089925
 31
0.0
  0
LINE
  8
0
 62
   249
 10
244.778444
 20
148.704212
 30
0.0
 11
252.201188
 21
148.704212
 31
0.0
  0
LINE
  8
0
 62
   249
 10
252.201188
 20
149.089925
 30
0.0
 11
252.201188
 21
140.9
 31
0.0
  0
LINE
  8
0
  6
CONTINUOUS
 62
   249
 10
252.201188
 20
142.5
 30
0.0
 11
257.5
 21
142.5
 31
0.0
  0
LINE
  8
0
 62
   249
 10
244.778444
 20
133.737273
 30
0.0
 11
252.201188
 21
133.737273
 31
0.0
  0
LINE
  8
0
 62
   249
 10
250.996971
 20
164.09384
 30
0.0
 11
249.142636
 21
161.815018
 31
0.0
  0
LINE
  8
0
 62
   249
 10
249.504853
 20
164.09384
 30
0.0
 11
247.59105
 21
161.815018
 31
0.0
  0
LINE
  8
0
 62
   249
 10
250.996971
 20
156.208127
 30
0.0
 11
249.142636
 21
153.929305
 31
0.0
  0
LINE
  8
0
 62
   249
 10
249.504853
 20
156.208127
 30
0.0
 11
247.59105
 21
153.929305
 31
0.0
  0
LINE
  8
0
 62
   249
 10
250.996971
 20
148.708127
 30
0.0
 11
249.142636
 21
146.429305
 31
0.0
  0
LINE
  8
0
 62
   249
 10
249.504853
 20
148.708127
 30
0.0
 11
247.59105
 21
146.429305
 31
0.0
  0
LINE
  8
0
 62
   249
 10
249.504853
 20
141.208127
 30
0.0
 11
247.59105
 21
138.929305
 31
0.0
  0
LINE
  8
0
 62
   249
 10
250.996971
 20
141.208127
 30
0.0
 11
249.142636
 21
138.929305
 31
0.0
  0
LINE
  8
0
 62
   249
 10
250.996971
 20
103.708127
 30
0.0
 11
249.142636
 21
101.429305
 31
0.0
  0
LINE
  8
0
 62
   249
 10
249.504853
 20
103.708127
 30
0.0
 11
247.59105
 21
101.429305
 31
0.0
  0
LINE
  8
0
 62
   249
 10
249.504853
 20
111.208127
 30
0.0
 11
247.59105
 21
108.929305
 31
0.0
  0
LINE
  8
0
 62
   249
 10
250.996971
 20
111.208127
 30
0.0
 11
249.142636
 21
108.929305
 31
0.0
  0
LINE
  8
0
 62
   249
 10
249.504853
 20
118.708127
 30
0.0
 11
247.59105
 21
116.429305
 31
0.0
  0
LINE
  8
0
 62
   249
 10
250.996971
 20
118.708127
 30
0.0
 11
249.142636
 21
116.429305
 31
0.0
  0
LINE
  8
0
 62
   249
 10
249.504853
 20
126.59384
 30
0.0
 11
247.59105
 21
124.315018
 31
0.0
  0
LINE
  8
0
 62
   249
 10
250.996971
 20
126.59384
 30
0.0
 11
249.142636
 21
124.315018
 31
0.0
  0
LINE
  8
0
 62
   249
 10
244.778444
 20
96.237273
 30
0.0
 11
252.201188
 21
96.237273
 31
0.0
  0
LINE
  8
0
  6
CONTINUOUS
 62
   249
 10
252.201188
 20
105.0
 30
0.0
 11
257.5
 21
105.0
 31
0.0
  0
LINE
  8
0
 62
   249
 10
252.201188
 20
111.589925
 30
0.0
 11
252.201188
 21
103.4
 31
0.0
  0
LINE
  8
0
 62
   249
 10
244.778444
 20
111.204212
 30
0.0
 11
252.201188
 21
111.204212
 31
0.0
  0
LINE
  8
0
 62
   249
 10
244.778444
 20
103.4
 30
0.0
 11
244.778444
 21
111.589925
 31
0.0
  0
LINE
  8
0
  6
CONTINUOUS
 62
   249
 10
244.778444
 20
100.0
 30
0.0
 11
240.0
 21
100.0
 31
0.0
  0
LINE
  8
0
 62
   249
 10
244.778444
 20
96.237273
 30
0.0
 11
244.778444
 21
104.089925
 31
0.0
  0
LINE
  8
0
 62
   249
 10
244.778444
 20
103.704212
 30
0.0
 11
252.201188
 21
103.704212
 31
0.0
  0
LINE
  8
0
 62
   249
 10
252.201188
 20
104.089925
 30
0.0
 11
252.201188
 21
96.237273
 31
0.0
  0
LINE
  8
0
  6
CONTINUOUS
 62
   249
 10
252.201188
 20
112.5
 30
0.0
 11
257.5
 21
112.5
 31
0.0
  0
LINE
  8
0
 62
   249
 10
252.201188
 20
119.089925
 30
0.0
 11
252.201188
 21
110.9
 31
0.0
  0
LINE
  8
0
 62
   249
 10
244.778444
 20
118.704212
 30
0.0
 11
252.201188
 21
118.704212
 31
0.0
  0
LINE
  8
0
 62
   249
 10
244.778444
 20
110.9
 30
0.0
 11
244.778444
 21
119.089925
 31
0.0
  0
LINE
  8
0
  6
CONTINUOUS
 62
   249
 10
244.778444
 20
115.0
 30
0.0
 11
240.0
 21
115.0
 31
0.0
  0
LINE
  8
0
  6
CONTINUOUS
 62
   249
 10
244.778444
 20
122.5
 30
0.0
 11
240.0
 21
122.5
 31
0.0
  0
LINE
  8
0
 62
   249
 10
244.778444
 20
118.4
 30
0.0
 11
244.778444
 21
126.589925
 31
0.0
  0
LINE
  8
0
 62
   249
 10
244.778444
 20
126.589925
 30
0.0
 11
252.201188
 21
126.589925
 31
0.0
  0
LINE
  8
0
 62
   249
 10
252.201188
 20
126.589925
 30
0.0
 11
252.201188
 21
118.4
 31
0.0
  0
LINE
  8
0
  6
CONTINUOUS
 62
   249
 10
252.201188
 20
120.0
 30
0.0
 11
257.5
 21
120.0
 31
0.0
  0
LINE
  8
0
  6
CONTINUOUS
 62
   249
 10
257.5
 20
120.0
 30
0.0
 11
257.5
 21
97.5
 31
0.0
  0
LINE
  8
0
  6
CONTINUOUS
 62
   249
 10
244.778444
 20
107.5
 30
0.0
 11
240.0
 21
107.5
 31
0.0
  0
LINE
  8
0
  6
CONTINUOUS
 62
   249
 10
252.201188
 20
97.5
 30
0.0
 11
265.0
 21
97.5
 31
0.0
  0
LINE
  8
0
  6
CONTINUOUS
 62
   249
 10
252.201188
 20
102.5
 30
0.0
 11
265.0
 21
102.5
 31
0.0
  0
LINE
  8
0
  6
CONTINUOUS
 62
   249
 10
252.201188
 20
110.0
 30
0.0
 11
265.0
 21
110.0
 31
0.0
  0
LINE
  8
0
  6
CONTINUOUS
 62
   249
 10
252.201188
 20
117.5
 30
0.0
 11
265.0
 21
117.5
 31
0.0
  0
LINE
  8
0
  6
CONTINUOUS
 62
   249
 10
252.201188
 20
125.0
 30
0.0
 11
265.0
 21
125.0
 31
0.0
  0
LINE
  8
0
  6
CONTINUOUS
 62
   249
 10
172.5
 20
117.5
 30
0.0
 11
172.5
 21
110.0
 31
0.0
  0
LINE
  8
0
  6
DASHED
 62
   249
 10
172.5
 20
110.0
 30
0.0
 11
172.5
 21
75.0
 31
0.0
  0
LINE
  8
0
  6
DASHED
 62
   249
 10
172.5
 20
75.0
 30
0.0
 11
55.0
 21
75.0
 31
0.0
  0
LINE
  8
0
  6
DASHED
 62
   249
 10
55.0
 20
75.0
 30
0.0
 11
55.0
 21
68.600824
 31
0.0
  0
LINE
  8
0
  6
CONTINUOUS
 62
   249
 10
47.5
 20
70.0
 30
0.0
 11
40.0
 21
70.0
 31
0.0
  0
LINE
  8
0
  6
CONTINUOUS
 62
   249
 10
47.5
 20
65.0
 30
0.0
 11
40.0
 21
65.0
 31
0.0
  0
LINE
  8
0
  6
HIDDEN
 62
   249
 10
40.0
 20
75.0
 30
0.0
 11
45.0
 21
75.0
 31
0.0
  0
LINE
  8
0
  6
HIDDEN
 62
   249
 10
45.0
 20
75.0
 30
0.0
 11
45.0
 21
60.0
 31
0.0
  0
LINE
  8
0
  6
HIDDEN
 62
   249
 10
45.0
 20
60.0
 30
0.0
 11
40.0
 21
60.0
 31
0.0
  0
LINE
  8
0
  6
HIDDEN
 62
   249
 10
57.5
 20
57.5
 30
0.0
 11
57.5
 21
62.5
 31
0.0
  0
LINE
  8
0
  6
HIDDEN
 62
   249
 10
57.5
 20
62.5
 30
0.0
 11
67.5
 21
62.5
 31
0.0
  0
LINE
  8
0
  6
HIDDEN
 62
   249
 10
67.5
 20
62.5
 30
0.0
 11
67.5
 21
57.5
 31
0.0
  0
LINE
  8
0
  6
CONTINUOUS
 62
   249
 10
62.5
 20
70.0
 30
0.0
 11
62.5
 21
57.5
 31
0.0
  0
TEXT
  8
0
  6
CONTINUOUS
 62
   249
 10
40.553922
 20
71.133162
 30
0.0
 40
2.0
  1
X1
  7
ROMANS
  0
TEXT
  8
0
  6
CONTINUOUS
 62
   249
 10
41.557818
 20
67.336524
 30
0.0
 40
2.0
  1
8
  7
ROMANS
  0
TEXT
  8
0
  6
CONTINUOUS
 62
   249
 10
40.553922
 20
62.213439
 30
0.0
 40
2.0
  1
10
  7
ROMANS
  0
TEXT
  8
0
  6
CONTINUOUS
 62
   249
 10
60.929575
 20
58.274875
 30
0.0
 40
2.0
  1
X1
 50
90.0
  7
ROMANS
  0
TEXT
  8
0
  6
CONTINUOUS
 62
   249
 10
65.393329
 20
59.037835
 30
0.0
 40
2.0
  1
9
 50
90.0
  7
ROMANS
  0
LINE
  8
0
  6
CONTINUOUS
 62
   249
 10
60.0
 20
82.5
 30
0.0
 11
40.0
 21
82.5
 31
0.0
  0
LINE
  8
0
  6
CONTINUOUS
 62
   249
 10
180.0
 20
189.449243
 30
0.0
 11
62.5
 21
189.449243
 31
0.0
  0
LINE
  8
0
  6
CONTINUOUS
 62
   249
 10
62.5
 20
189.449243
 30
0.0
 11
62.5
 21
182.5
 31
0.0
  0
LINE
  8
0
  6
CONTINUOUS
 62
   249
 10
70.0
 20
189.449243
 30
0.0
 11
70.0
 21
182.5
 31
0.0
  0
LINE
  8
0
  6
CONTINUOUS
 62
   249
 10
67.5
 20
87.5
 30
0.0
 11
40.0
 21
87.5
 31
0.0
  0
LINE
  8
0
  6
CONTINUOUS
 62
   249
 10
75.0
 20
92.5
 30
0.0
 11
40.0
 21
92.5
 31
0.0
  0
LINE
  8
0
  6
CONTINUOUS
 62
   249
 10
86.853436
 20
97.138137
 30
0.0
 11
81.756076
 21
94.285297
 31
0.0
  0
LINE
  8
0
  6
CONTINUOUS
 62
   249
 10
88.240939
 20
97.5
 30
0.0
 11
90.0
 21
97.5
 31
0.0
  0
LINE
  8
0
  6
DASHED
 62
   249
 10
85.0
 20
182.5
 30
0.0
 11
85.0
 21
96.100824
 31
0.0
  0
LINE
  8
0
  6
CONTINUOUS
 62
   249
 10
82.5
 20
97.5
 30
0.0
 11
40.0
 21
97.5
 31
0.0
  0
LINE
  8
0
  6
HIDDEN
 62
   249
 10
40.0
 20
77.5
 30
0.0
 11
45.0
 21
77.5
 31
0.0
  0
LINE
  8
0
  6
HIDDEN
 62
   249
 10
45.0
 20
77.5
 30
0.0
 11
45.0
 21
102.5
 31
0.0
  0
LINE
  8
0
  6
HIDDEN
 62
   249
 10
45.0
 20
102.5
 30
0.0
 11
40.0
 21
102.5
 31
0.0
  0
LINE
  8
0
  6
CONTINUOUS
 62
   249
 10
40.0
 20
110.0
 30
0.0
 11
90.0
 21
110.0
 31
0.0
  0
LINE
  8
0
  6
DASHED
 62
   249
 10
100.0
 20
182.5
 30
0.0
 11
100.0
 21
113.600824
 31
0.0
  0
LINE
  8
0
  6
CONTINUOUS
 62
   249
 10
103.240939
 20
115.0
 30
0.0
 11
110.0
 21
115.0
 31
0.0
  0
LINE
  8
0
  6
CONTINUOUS
 62
   249
 10
101.853436
 20
114.638137
 30
0.0
 11
96.756076
 21
111.785297
 31
0.0
  0
LINE
  8
0
  6
CONTINUOUS
 62
   249
 10
110.740939
 20
120.0
 30
0.0
 11
115.0
 21
120.0
 31
0.0
  0
LINE
  8
0
  6
DASHED
 62
   249
 10
107.5
 20
182.5
 30
0.0
 11
107.5
 21
118.600824
 31
0.0
  0
LINE
  8
0
  6
CONTINUOUS
 62
   249
 10
109.353436
 20
119.638137
 30
0.0
 11
104.256076
 21
116.785297
 31
0.0
  0
LINE
  8
0
  6
DASHED
 62
   249
 10
115.0
 20
182.5
 30
0.0
 11
115.0
 21
123.600824
 31
0.0
  0
LINE
  8
0
  6
CONTINUOUS
 62
   249
 10
118.240939
 20
125.0
 30
0.0
 11
120.0
 21
125.0
 31
0.0
  0
LINE
  8
0
  6
CONTINUOUS
 62
   249
 10
116.853436
 20
124.638137
 30
0.0
 11
111.756076
 21
121.785297
 31
0.0
  0
LINE
  8
0
  6
CONTINUOUS
 62
   249
 10
97.5
 20
115.0
 30
0.0
 11
40.0
 21
115.0
 31
0.0
  0
LINE
  8
0
  6
CONTINUOUS
 62
   249
 10
105.0
 20
120.0
 30
0.0
 11
40.0
 21
120.0
 31
0.0
  0
LINE
  8
0
  6
CONTINUOUS
 62
   249
 10
112.5
 20
125.0
 30
0.0
 11
40.0
 21
125.0
 31
0.0
  0
LINE
  8
0
  6
HIDDEN
 62
   249
 10
40.0
 20
105.0
 30
0.0
 11
45.0
 21
105.0
 31
0.0
  0
LINE
  8
0
  6
HIDDEN
 62
   249
 10
45.0
 20
105.0
 30
0.0
 11
45.0
 21
130.0
 31
0.0
  0
LINE
  8
0
  6
HIDDEN
 62
   249
 10
45.0
 20
130.0
 30
0.0
 11
40.0
 21
130.0
 31
0.0
  0
LINE
  8
0
  6
CONTINUOUS
 62
   249
 10
146.853436
 20
152.138137
 30
0.0
 11
141.756076
 21
149.285297
 31
0.0
  0
LINE
  8
0
  6
CONTINUOUS
 62
   249
 10
148.240939
 20
152.5
 30
0.0
 11
150.0
 21
152.5
 31
0.0
  0
LINE
  8
0
  6
DASHED
 62
   249
 10
145.0
 20
182.5
 30
0.0
 11
145.0
 21
151.100824
 31
0.0
  0
LINE
  8
0
  6
CONTINUOUS
 62
   249
 10
139.353436
 20
147.138137
 30
0.0
 11
134.256076
 21
144.285297
 31
0.0
  0
LINE
  8
0
  6
DASHED
 62
   249
 10
137.5
 20
182.5
 30
0.0
 11
137.5
 21
146.100824
 31
0.0
  0
LINE
  8
0
  6
CONTINUOUS
 62
   249
 10
140.740939
 20
147.5
 30
0.0
 11
145.0
 21
147.5
 31
0.0
  0
LINE
  8
0
  6
CONTINUOUS
 62
   249
 10
131.853436
 20
142.138137
 30
0.0
 11
126.756076
 21
139.285297
 31
0.0
  0
LINE
  8
0
  6
CONTINUOUS
 62
   249
 10
133.240939
 20
142.5
 30
0.0
 11
140.0
 21
142.5
 31
0.0
  0
LINE
  8
0
  6
DASHED
 62
   249
 10
130.0
 20
182.5
 30
0.0
 11
130.0
 21
141.100824
 31
0.0
  0
LINE
  8
0
  6
DASHED
 62
   249
 10
122.5
 20
182.5
 30
0.0
 11
122.5
 21
136.100824
 31
0.0
  0
LINE
  8
0
  6
CONTINUOUS
 62
   249
 10
125.740939
 20
137.5
 30
0.0
 11
135.0
 21
137.5
 31
0.0
  0
LINE
  8
0
  6
CONTINUOUS
 62
   249
 10
124.353436
 20
137.138137
 30
0.0
 11
119.256076
 21
134.285297
 31
0.0
  0
LINE
  8
0
  6
CONTINUOUS
 62
   249
 10
40.0
 20
137.5
 30
0.0
 11
120.0
 21
137.5
 31
0.0
  0
LINE
  8
0
  6
CONTINUOUS
 62
   249
 10
127.5
 20
142.5
 30
0.0
 11
40.0
 21
142.5
 31
0.0
  0
LINE
  8
0
  6
CONTINUOUS
 62
   249
 10
135.0
 20
147.5
 30
0.0
 11
40.0
 21
147.5
 31
0.0
  0
LINE
  8
0
  6
CONTINUOUS
 62
   249
 10
142.5
 20
152.5
 30
0.0
 11
40.0
 21
152.5
 31
0.0
  0
LINE
  8
0
  6
HIDDEN
 62
   249
 10
45.0
 20
157.5
 30
0.0
 11
40.0
 21
157.5
 31
0.0
  0
LINE
  8
0
  6
HIDDEN
 62
   249
 10
40.0
 20
132.5
 30
0.0
 11
45.0
 21
132.5
 31
0.0
  0
LINE
  8
0
  6
HIDDEN
 62
   249
 10
45.0
 20
132.5
 30
0.0
 11
45.0
 21
157.5
 31
0.0
  0
LINE
  8
0
  6
HIDDEN
 62
   249
 10
45.0
 20
160.0
 30
0.0
 11
40.0
 21
160.0
 31
0.0
  0
LINE
  8
0
  6
HIDDEN
 62
   249
 10
45.0
 20
160.0
 30
0.0
 11
45.0
 21
175.0
 31
0.0
  0
LINE
  8
0
  6
HIDDEN
 62
   249
 10
40.0
 20
175.0
 30
0.0
 11
45.0
 21
175.0
 31
0.0
  0
LINE
  8
0
  6
CONTINUOUS
 62
   249
 10
155.740939
 20
165.0
 30
0.0
 11
160.0
 21
165.0
 31
0.0
  0
LINE
  8
0
  6
DASHED
 62
   249
 10
152.5
 20
182.5
 30
0.0
 11
152.5
 21
163.600824
 31
0.0
  0
LINE
  8
0
  6
CONTINUOUS
 62
   249
 10
154.353436
 20
164.638137
 30
0.0
 11
149.256076
 21
161.785297
 31
0.0
  0
LINE
  8
0
  6
DASHED
 62
   249
 10
160.0
 20
182.5
 30
0.0
 11
160.0
 21
168.600824
 31
0.0
  0
LINE
  8
0
  6
CONTINUOUS
 62
   249
 10
163.240939
 20
170.0
 30
0.0
 11
165.0
 21
170.0
 31
0.0
  0
LINE
  8
0
  6
CONTINUOUS
 62
   249
 10
161.853436
 20
169.638137
 30
0.0
 11
156.756076
 21
166.785297
 31
0.0
  0
LINE
  8
0
  6
CONTINUOUS
 62
   249
 10
150.0
 20
165.0
 30
0.0
 11
40.0
 21
165.0
 31
0.0
  0
LINE
  8
0
  6
CONTINUOUS
 62
   249
 10
157.5
 20
170.0
 30
0.0
 11
40.0
 21
170.0
 31
0.0
  0
LINE
  8
0
  6
CONTINUOUS
 62
   249
 10
77.5
 20
189.449243
 30
0.0
 11
77.5
 21
182.5
 31
0.0
  0
LINE
  8
0
  6
CONTINUOUS
 62
   249
 10
85.0
 20
189.449243
 30
0.0
 11
85.0
 21
182.5
 31
0.0
  0
LINE
  8
0
  6
CONTINUOUS
 62
   249
 10
92.5
 20
189.449243
 30
0.0
 11
92.5
 21
182.5
 31
0.0
  0
LINE
  8
0
  6
CONTINUOUS
 62
   249
 10
100.0
 20
189.449243
 30
0.0
 11
100.0
 21
182.5
 31
0.0
  0
LINE
  8
0
  6
CONTINUOUS
 62
   249
 10
107.5
 20
189.449243
 30
0.0
 11
107.5
 21
182.5
 31
0.0
  0
LINE
  8
0
  6
CONTINUOUS
 62
   249
 10
115.0
 20
189.449243
 30
0.0
 11
115.0
 21
182.5
 31
0.0
  0
LINE
  8
0
  6
CONTINUOUS
 62
   249
 10
122.5
 20
189.449243
 30
0.0
 11
122.5
 21
182.5
 31
0.0
  0
LINE
  8
0
  6
CONTINUOUS
 62
   249
 10
130.0
 20
189.449243
 30
0.0
 11
130.0
 21
182.5
 31
0.0
  0
LINE
  8
0
  6
CONTINUOUS
 62
   249
 10
137.5
 20
189.449243
 30
0.0
 11
137.5
 21
182.5
 31
0.0
  0
LINE
  8
0
  6
CONTINUOUS
 62
   249
 10
145.0
 20
189.449243
 30
0.0
 11
145.0
 21
182.5
 31
0.0
  0
LINE
  8
0
  6
CONTINUOUS
 62
   249
 10
152.5
 20
189.449243
 30
0.0
 11
152.5
 21
182.5
 31
0.0
  0
LINE
  8
0
  6
CONTINUOUS
 62
   249
 10
160.0
 20
189.449243
 30
0.0
 11
160.0
 21
182.5
 31
0.0
  0
LINE
  8
0
  6
CONTINUOUS
 62
   249
 10
70.0
 20
82.5
 30
0.0
 11
75.0
 21
82.5
 31
0.0
  0
LINE
  8
0
  6
CONTINUOUS
 62
   249
 10
90.0
 20
97.5
 30
0.0
 11
90.0
 21
57.5
 31
0.0
  0
LINE
  8
0
  6
CONTINUOUS
 62
   249
 10
85.0
 20
57.5
 30
0.0
 11
85.0
 21
92.5
 31
0.0
  0
LINE
  8
0
  6
CONTINUOUS
 62
   249
 10
80.0
 20
57.5
 30
0.0
 11
80.0
 21
87.5
 31
0.0
  0
LINE
  8
0
  6
CONTINUOUS
 62
   249
 10
75.0
 20
57.5
 30
0.0
 11
75.0
 21
82.5
 31
0.0
  0
LINE
  8
0
  6
CONTINUOUS
 62
   249
 10
105.0
 20
57.5
 30
0.0
 11
105.0
 21
110.0
 31
0.0
  0
LINE
  8
0
  6
CONTINUOUS
 62
   249
 10
110.0
 20
57.5
 30
0.0
 11
110.0
 21
115.0
 31
0.0
  0
LINE
  8
0
  6
CONTINUOUS
 62
   249
 10
115.0
 20
57.5
 30
0.0
 11
115.0
 21
120.0
 31
0.0
  0
LINE
  8
0
  6
CONTINUOUS
 62
   249
 10
120.0
 20
125.0
 30
0.0
 11
120.0
 21
57.5
 31
0.0
  0
LINE
  8
0
  6
CONTINUOUS
 62
   249
 10
135.0
 20
57.5
 30
0.0
 11
135.0
 21
137.5
 31
0.0
  0
LINE
  8
0
  6
CONTINUOUS
 62
   249
 10
140.0
 20
57.5
 30
0.0
 11
140.0
 21
142.5
 31
0.0
  0
LINE
  8
0
  6
CONTINUOUS
 62
   249
 10
145.0
 20
57.5
 30
0.0
 11
145.0
 21
147.5
 31
0.0
  0
LINE
  8
0
  6
CONTINUOUS
 62
   249
 10
150.0
 20
152.5
 30
0.0
 11
150.0
 21
57.5
 31
0.0
  0
LINE
  8
0
  6
CONTINUOUS
 62
   249
 10
160.0
 20
57.5
 30
0.0
 11
160.0
 21
165.0
 31
0.0
  0
LINE
  8
0
  6
CONTINUOUS
 62
   249
 10
165.0
 20
170.0
 30
0.0
 11
165.0
 21
57.5
 31
0.0
  0
TEXT
  8
0
  6
CONTINUOUS
 62
   249
 10
40.847565
 20
171.234054
 30
0.0
 40
2.0
  1
X6
  7
ROMANS
  0
TEXT
  8
0
  6
CONTINUOUS
 62
   249
 10
41.364911
 20
167.327661
 30
0.0
 40
2.0
  1
3
  7
ROMANS
  0
TEXT
  8
0
  6
CONTINUOUS
 62
   249
 10
40.939011
 20
162.186987
 30
0.0
 40
2.0
  1
1
  7
ROMANS
  0
TEXT
  8
0
  6
CONTINUOUS
 62
   249
 10
40.877997
 20
154.203057
 30
0.0
 40
2.0
  1
X5
  7
ROMANS
  0
TEXT
  8
0
  6
CONTINUOUS
 62
   249
 10
40.159746
 20
149.547279
 30
0.0
 40
2.0
  1
17
  7
ROMANS
  0
TEXT
  8
0
  6
CONTINUOUS
 62
   249
 10
40.159746
 20
144.593951
 30
0.0
 40
2.0
  1
15
  7
ROMANS
  0
TEXT
  8
0
  6
CONTINUOUS
 62
   249
 10
40.159746
 20
139.508379
 30
0.0
 40
2.0
  1
13
  7
ROMANS
  0
TEXT
  8
0
  6
CONTINUOUS
 62
   249
 10
40.159746
 20
134.698315
 30
0.0
 40
2.0
  1
11
  7
ROMANS
  0
TEXT
  8
0
  6
CONTINUOUS
 62
   249
 10
40.862781
 20
126.681324
 30
0.0
 40
2.0
  1
X4
  7
ROMANS
  0
TEXT
  8
0
  6
CONTINUOUS
 62
   249
 10
40.144529
 20
122.168811
 30
0.0
 40
2.0
  1
17
  7
ROMANS
  0
TEXT
  8
0
  6
CONTINUOUS
 62
   249
 10
40.144529
 20
116.939974
 30
0.0
 40
2.0
  1
15
  7
ROMANS
  0
TEXT
  8
0
  6
CONTINUOUS
 62
   249
 10
40.300151
 20
112.140931
 30
0.0
 40
2.0
  1
13
  7
ROMANS
  0
TEXT
  8
0
  6
CONTINUOUS
 62
   249
 10
40.300151
 20
107.187603
 30
0.0
 40
2.0
  1
11
  7
ROMANS
  0
TEXT
  8
0
  6
CONTINUOUS
 62
   249
 10
40.725836
 20
99.41306
 30
0.0
 40
2.0
  1
X3
  7
ROMANS
  0
TEXT
  8
0
  6
CONTINUOUS
 62
   249
 10
40.163206
 20
94.801364
 30
0.0
 40
2.0
  1
17
  7
ROMANS
  0
TEXT
  8
0
  6
CONTINUOUS
 62
   249
 10
40.163206
 20
89.462323
 30
0.0
 40
2.0
  1
15
  7
ROMANS
  0
TEXT
  8
0
  6
CONTINUOUS
 62
   249
 10
40.163206
 20
84.564097
 30
0.0
 40
2.0
  1
13
  7
ROMANS
  0
TEXT
  8
0
  6
CONTINUOUS
 62
   249
 10
40.163206
 20
79.64383
 30
0.0
 40
2.0
  1
11
  7
ROMANS
  0
LINE
  8
0
  6
HIDDEN
 62
   249
 10
95.0
 20
62.5
 30
0.0
 11
95.0
 21
57.5
 31
0.0
  0
LINE
  8
0
  6
HIDDEN
 62
   249
 10
70.0
 20
57.5
 30
0.0
 11
70.0
 21
62.5
 31
0.0
  0
LINE
  8
0
  6
HIDDEN
 62
   249
 10
70.0
 20
62.5
 30
0.0
 11
95.0
 21
62.5
 31
0.0
  0
LINE
  8
0
  6
HIDDEN
 62
   249
 10
100.0
 20
57.5
 30
0.0
 11
100.0
 21
62.5
 31
0.0
  0
LINE
  8
0
  6
HIDDEN
 62
   249
 10
100.0
 20
62.5
 30
0.0
 11
125.0
 21
62.5
 31
0.0
  0
LINE
  8
0
  6
HIDDEN
 62
   249
 10
125.0
 20
62.5
 30
0.0
 11
125.0
 21
57.5
 31
0.0
  0
LINE
  8
0
  6
HIDDEN
 62
   249
 10
155.0
 20
62.5
 30
0.0
 11
155.0
 21
57.5
 31
0.0
  0
LINE
  8
0
  6
HIDDEN
 62
   249
 10
130.0
 20
62.5
 30
0.0
 11
155.0
 21
62.5
 31
0.0
  0
LINE
  8
0
  6
HIDDEN
 62
   249
 10
130.0
 20
57.5
 30
0.0
 11
130.0
 21
62.5
 31
0.0
  0
LINE
  8
0
  6
HIDDEN
 62
   249
 10
170.0
 20
62.5
 30
0.0
 11
170.0
 21
57.5
 31
0.0
  0
LINE
  8
0
  6
HIDDEN
 62
   249
 10
156.47596
 20
62.5
 30
0.0
 11
170.0
 21
62.5
 31
0.0
  0
LINE
  8
0
  6
HIDDEN
 62
   249
 10
156.47596
 20
62.5
 30
0.0
 11
156.47596
 21
57.5
 31
0.0
  0
TEXT
  8
0
  6
CONTINUOUS
 62
   249
 10
73.379542
 20
58.286266
 30
0.0
 40
2.0
  1
X3
 50
90.0
  7
ROMANS
  0
TEXT
  8
0
  6
CONTINUOUS
 62
   249
 10
77.717137
 20
57.714046
 30
0.0
 40
2.0
  1
12
 50
90.0
  7
ROMANS
  0
TEXT
  8
0
  6
CONTINUOUS
 62
   249
 10
82.632942
 20
57.714046
 30
0.0
 40
2.0
  1
14
 50
90.0
  7
ROMANS
  0
TEXT
  8
0
  6
CONTINUOUS
 62
   249
 10
87.670477
 20
57.722716
 30
0.0
 40
2.0
  1
16
 50
90.0
  7
ROMANS
  0
TEXT
  8
0
  6
CONTINUOUS
 62
   249
 10
92.708011
 20
57.714046
 30
0.0
 40
2.0
  1
18
 50
90.0
  7
ROMANS
  0
TEXT
  8
0
  6
CONTINUOUS
 62
   249
 10
103.23855
 20
58.286266
 30
0.0
 40
2.0
  1
X4
 50
90.0
  7
ROMANS
  0
TEXT
  8
0
  6
CONTINUOUS
 62
   249
 10
107.743521
 20
57.714046
 30
0.0
 40
2.0
  1
12
 50
90.0
  7
ROMANS
  0
TEXT
  8
0
  6
CONTINUOUS
 62
   249
 10
112.720191
 20
57.714046
 30
0.0
 40
2.0
  1
14
 50
90.0
  7
ROMANS
  0
TEXT
  8
0
  6
CONTINUOUS
 62
   249
 10
117.925102
 20
57.714046
 30
0.0
 40
2.0
  1
16
 50
90.0
  7
ROMANS
  0
TEXT
  8
0
  6
CONTINUOUS
 62
   249
 10
122.825692
 20
57.904786
 30
0.0
 40
2.0
  1
18
 50
90.0
  7
ROMANS
  0
TEXT
  8
0
  6
CONTINUOUS
 62
   249
 10
133.386663
 20
58.286266
 30
0.0
 40
2.0
  1
X5
 50
90.0
  7
ROMANS
  0
TEXT
  8
0
  6
CONTINUOUS
 62
   249
 10
137.785121
 20
57.904786
 30
0.0
 40
2.0
  1
12
 50
90.0
  7
ROMANS
  0
TEXT
  8
0
  6
CONTINUOUS
 62
   249
 10
142.777007
 20
57.904786
 30
0.0
 40
2.0
  1
14
 50
90.0
  7
ROMANS
  0
TEXT
  8
0
  6
CONTINUOUS
 62
   249
 10
147.981918
 20
57.904786
 30
0.0
 40
2.0
  1
16
 50
90.0
  7
ROMANS
  0
TEXT
  8
0
  6
CONTINUOUS
 62
   249
 10
152.775995
 20
57.904786
 30
0.0
 40
2.0
  1
18
 50
90.0
  7
ROMANS
  0
TEXT
  8
0
  6
CONTINUOUS
 62
   249
 10
159.198193
 20
58.286266
 30
0.0
 40
2.0
  1
X6
 50
90.0
  7
ROMANS
  0
TEXT
  8
0
  6
CONTINUOUS
 62
   249
 10
162.911928
 20
59.239965
 30
0.0
 40
2.0
  1
2
 50
90.0
  7
ROMANS
  0
TEXT
  8
0
  6
CONTINUOUS
 62
   249
 10
167.812518
 20
59.239965
 30
0.0
 40
2.0
  1
4
 50
90.0
  7
ROMANS
  0
TEXT
  8
0
  6
CONTINUOUS
 62
   249
 10
46.234057
 20
166.693661
 30
0.0
 40
2.0
  1
SIGNAL 6
  7
ROMANS
  0
TEXT
  8
0
  6
CONTINUOUS
 62
   249
 10
46.234057
 20
161.773394
 30
0.0
 40
2.0
  1
SIGNAL 5
  7
ROMANS
  0
TEXT
  8
0
  6
CONTINUOUS
 62
   249
 10
46.234057
 20
149.326213
 30
0.0
 40
2.0
  1
CLOSE 6
  7
ROMANS
  0
TEXT
  8
0
  6
CONTINUOUS
 62
   249
 10
46.234057
 20
144.20758
 30
0.0
 40
2.0
  1
OPEN 6
  7
ROMANS
  0
TEXT
  8
0
  6
CONTINUOUS
 62
   249
 10
46.234057
 20
139.287313
 30
0.0
 40
2.0
  1
CLOSE 5
  7
ROMANS
  0
TEXT
  8
0
  6
CONTINUOUS
 62
   249
 10
46.234057
 20
134.168679
 30
0.0
 40
2.0
  1
OPEN 5
  7
ROMANS
  0
TEXT
  8
0
  6
CONTINUOUS
 62
   249
 10
46.234057
 20
122.118232
 30
0.0
 40
2.0
  1
CLOSE 4
  7
ROMANS
  0
TEXT
  8
0
  6
CONTINUOUS
 62
   249
 10
46.234057
 20
116.801232
 30
0.0
 40
2.0
  1
OPEN 4
  7
ROMANS
  0
TEXT
  8
0
  6
CONTINUOUS
 62
   249
 10
46.234057
 20
111.682598
 30
0.0
 40
2.0
  1
CLOSE 3
  7
ROMANS
  0
TEXT
  8
0
  6
CONTINUOUS
 62
   249
 10
46.234057
 20
106.762332
 30
0.0
 40
2.0
  1
OPEN 3
  7
ROMANS
  0
TEXT
  8
0
  6
CONTINUOUS
 62
   249
 10
46.234057
 20
94.116784
 30
0.0
 40
2.0
  1
CLOSE 2
  7
ROMANS
  0
TEXT
  8
0
  6
CONTINUOUS
 62
   249
 10
46.234057
 20
89.218558
 30
0.0
 40
2.0
  1
OPEN 2
  7
ROMANS
  0
TEXT
  8
0
  6
CONTINUOUS
 62
   249
 10
46.234057
 20
84.166047
 30
0.0
 40
2.0
  1
CLOSE 1
  7
ROMANS
  0
TEXT
  8
0
  6
CONTINUOUS
 62
   249
 10
46.234057
 20
78.926189
 30
0.0
 40
2.0
  1
OPEN 1
  7
ROMANS
  0
TEXT
  8
0
  6
CONTINUOUS
 62
   249
 10
46.234057
 20
66.479009
 30
0.0
 40
2.0
  1
IRF
  7
ROMANS
  0
LINE
  8
0
  6
HIDDEN
 62
   249
 10
195.0
 20
62.5
 30
0.0
 11
195.0
 21
57.5
 31
0.0
  0
LINE
  8
0
  6
HIDDEN
 62
   249
 10
180.0
 20
62.5
 30
0.0
 11
195.0
 21
62.5
 31
0.0
  0
LINE
  8
0
  6
HIDDEN
 62
   249
 10
180.0
 20
62.5
 30
0.0
 11
180.0
 21
57.5
 31
0.0
  0
TEXT
  8
0
  6
CONTINUOUS
 62
   249
 10
183.52874
 20
58.20657
 30
0.0
 40
2.0
  1
X1
 50
90.0
  7
ROMANS
  0
TEXT
  8
0
  6
CONTINUOUS
 62
   249
 10
187.790254
 20
58.969529
 30
0.0
 40
2.0
  1
1
 50
90.0
  7
ROMANS
  0
TEXT
  8
0
  6
CONTINUOUS
 62
   249
 10
192.675628
 20
58.969529
 30
0.0
 40
2.0
  1
2
 50
90.0
  7
ROMANS
  0
LINE
  8
0
  6
CONTINUOUS
 62
   249
 10
180.0
 20
148.326528
 30
0.0
 11
172.5
 21
148.326528
 31
0.0
  0
LINE
  8
0
  6
CONTINUOUS
 62
   249
 10
172.5
 20
148.326528
 30
0.0
 11
172.5
 21
189.449243
 31
0.0
  0
LINE
  8
0
  6
CONTINUOUS
 62
   249
 10
180.0
 20
182.5
 30
0.0
 11
172.5
 21
182.5
 31
0.0
  0
LINE
  8
0
  6
CONTINUOUS
 62
   249
 10
180.0
 20
175.598121
 30
0.0
 11
172.5
 21
175.598121
 31
0.0
  0
LINE
  8
0
  6
CONTINUOUS
 62
   249
 10
180.0
 20
172.038541
 30
0.0
 11
172.5
 21
172.038541
 31
0.0
  0
LINE
  8
0
  6
CONTINUOUS
 62
   249
 10
173.836098
 20
188.194406
 30
0.0
 11
176.757585
 21
190.839295
 31
0.0
  0
LINE
  8
0
  6
CONTINUOUS
 62
   249
 10
173.836098
 20
181.240551
 30
0.0
 11
176.757585
 21
183.88544
 31
0.0
  0
LINE
  8
0
  6
CONTINUOUS
 62
   249
 10
173.836098
 20
174.341799
 30
0.0
 11
176.757585
 21
176.986688
 31
0.0
  0
LINE
  8
0
  6
CONTINUOUS
 62
   249
 10
173.836098
 20
170.771198
 30
0.0
 11
176.757585
 21
173.416087
 31
0.0
  0
TEXT
  8
0
  6
CONTINUOUS
 62
   249
 10
177.274931
 20
190.839295
 30
0.0
 40
1.5
  1
2
  7
ROMANS
  0
TEXT
  8
0
  6
CONTINUOUS
 62
   249
 10
177.274931
 20
183.024346
 30
0.0
 40
1.5
  1
1
  7
ROMANS
  0
TEXT
  8
0
  6
CONTINUOUS
 62
   249
 10
177.274931
 20
177.000957
 30
0.0
 40
1.5
  1
6
  7
ROMANS
  0
TEXT
  8
0
  6
CONTINUOUS
 62
   249
 10
177.274931
 20
173.40994
 30
0.0
 40
1.5
  1
6
  7
ROMANS
  0
LINE
  8
0
  6
CONTINUOUS
 62
   249
 10
173.836098
 20
147.08842
 30
0.0
 11
176.757585
 21
149.733309
 31
0.0
  0
TEXT
  8
0
  6
CONTINUOUS
 62
   249
 10
177.274931
 20
149.733309
 30
0.0
 40
1.5
  1
2
  7
ROMANS
  0
LINE
  8
0
  6
CONTINUOUS
 62
   249
 10
180.491201
 20
230.0
 30
0.0
 11
175.0
 21
230.0
 31
0.0
  0
LINE
  8
0
  6
CONTINUOUS
 62
   249
 10
175.0
 20
230.0
 30
0.0
 11
175.0
 21
197.5
 31
0.0
  0
LINE
  8
0
  6
CONTINUOUS
 62
   249
 10
175.0
 20
197.5
 30
0.0
 11
217.5
 21
197.5
 31
0.0
  0
LINE
  8
0
  6
CONTINUOUS
 62
   249
 10
217.5
 20
197.5
 30
0.0
 11
217.5
 21
138.414691
 31
0.0
  0
LINE
  8
0
  6
CONTINUOUS
 62
   249
 10
217.5
 20
138.414691
 30
0.0
 11
210.450615
 21
138.414691
 31
0.0
  0
LINE
  8
0
  6
CONTINUOUS
 62
   249
 10
50.0
 20
215.0
 30
0.0
 11
50.0
 21
200.0
 31
0.0
  0
LINE
  8
0
  6
CONTINUOUS
 62
   249
 10
50.0
 20
200.0
 30
0.0
 11
215.0
 21
200.0
 31
0.0
  0
LINE
  8
0
  6
CONTINUOUS
 62
   249
 10
215.0
 20
200.0
 30
0.0
 11
220.0
 21
200.0
 31
0.0
  0
LINE
  8
0
  6
CONTINUOUS
 62
   249
 10
220.0
 20
200.0
 30
0.0
 11
220.0
 21
130.0
 31
0.0
  0
LINE
  8
0
  6
CONTINUOUS
 62
   249
 10
220.0
 20
130.0
 30
0.0
 11
210.450615
 21
130.0
 31
0.0
  0
LINE
  8
0
  6
CONTINUOUS
 62
   249
 10
210.450615
 20
148.598211
 30
0.0
 11
220.0
 21
148.598211
 31
0.0
  0
LINE
  8
0
  6
CONTINUOUS
 62
   249
 10
210.450615
 20
162.5
 30
0.0
 11
225.0
 21
162.5
 31
0.0
  0
LINE
  8
0
  6
CONTINUOUS
 62
   249
 10
225.0
 20
162.5
 30
0.0
 11
225.0
 21
70.0
 31
0.0
  0
LINE
  8
0
  6
CONTINUOUS
 62
   249
 10
237.5
 20
155.995208
 30
0.0
 11
210.450615
 21
155.995208
 31
0.0
  0
LINE
  8
0
  6
CONTINUOUS
 62
   249
 10
210.450615
 20
160.74266
 30
0.0
 11
215.0
 21
160.74266
 31
0.0
  0
LINE
  8
0
  6
CONTINUOUS
 62
   249
 10
215.0
 20
160.74266
 30
0.0
 11
215.0
 21
155.995208
 31
0.0
  0
LINE
  8
0
  6
CONTINUOUS
 62
   249
 10
210.450615
 20
164.267555
 30
0.0
 11
220.0
 21
164.267555
 31
0.0
  0
LINE
  8
0
  6
CONTINUOUS
 62
   249
 10
212.789991
 20
147.515336
 30
0.0
 11
214.87931
 21
149.406844
 31
0.0
  0
LINE
  8
0
  6
CONTINUOUS
 62
   249
 10
212.789991
 20
129.009916
 30
0.0
 11
214.87931
 21
130.901424
 31
0.0
  0
LINE
  8
0
  6
CONTINUOUS
 62
   249
 10
212.789991
 20
163.200882
 30
0.0
 11
214.87931
 21
165.09239
 31
0.0
  0
TEXT
  8
0
  6
CONTINUOUS
 62
   249
 10
214.658974
 20
131.591458
 30
0.0
 40
1.5
  1
1
  7
ROMANS
  0
TEXT
  8
0
  6
CONTINUOUS
 62
   249
 10
213.594355
 20
150.218044
 30
0.0
 40
1.5
  1
10
  7
ROMANS
  0
TEXT
  8
0
  6
CONTINUOUS
 62
   249
 10
213.594355
 20
166.002727
 30
0.0
 40
1.5
  1
10
  7
ROMANS
  0
LINE
  8
0
  6
CONTINUOUS
 62
   249
 10
85.0
 20
219.778444
 30
0.0
 11
85.0
 21
195.0
 31
0.0
  0
LINE
  8
0
  6
CONTINUOUS
 62
   249
 10
85.0
 20
195.0
 30
0.0
 11
165.0
 21
195.0
 31
0.0
  0
LINE
  8
0
  6
CONTINUOUS
 62
   249
 10
165.0
 20
195.0
 30
0.0
 11
165.0
 21
186.127349
 31
0.0
  0
LINE
  8
0
  6
CONTINUOUS
 62
   249
 10
180.491201
 20
225.0
 30
0.0
 11
175.0
 21
225.0
 31
0.0
  0
LINE
  8
0
  6
CONTINUOUS
 62
   249
 10
180.491201
 20
220.0
 30
0.0
 11
175.0
 21
220.0
 31
0.0
  0
LINE
  8
0
  6
CONTINUOUS
 62
   249
 10
180.491201
 20
210.0
 30
0.0
 11
175.0
 21
210.0
 31
0.0
  0
LINE
  8
0
  6
CONTINUOUS
 62
   249
 10
152.5
 20
237.5
 30
0.0
 11
152.5
 21
200.0
 31
0.0
  0
LINE
  8
0
  6
CONTINUOUS
 62
   249
 10
142.5
 20
237.5
 30
0.0
 11
142.5
 21
200.0
 31
0.0
  0
LINE
  8
0
  6
CONTINUOUS
 62
   249
 10
132.5
 20
237.5
 30
0.0
 11
132.5
 21
195.0
 31
0.0
  0
TEXT
  8
0
  6
CONTINUOUS
 62
   249
 10
46.159264
 20
201.001229
 30
0.0
 40
2.0
  1
8
  7
ROMANS
  0
TEXT
  8
0
  6
CONTINUOUS
 62
   249
 10
53.659264
 20
201.001229
 30
0.0
 40
2.0
  1
9
  7
ROMANS
  0
TEXT
  8
0
  6
CONTINUOUS
 62
   249
 10
59.97241
 20
201.001229
 30
0.0
 40
2.0
  1
12
  7
ROMANS
  0
TEXT
  8
0
  6
CONTINUOUS
 62
   249
 10
74.952631
 20
201.001229
 30
0.0
 40
2.0
  1
10
  7
ROMANS
  0
TEXT
  8
0
  6
CONTINUOUS
 62
   249
 10
85.489757
 20
201.001229
 30
0.0
 40
2.0
  1
11
  7
ROMANS
  0
TEXT
  8
0
  6
CONTINUOUS
 62
   249
 10
92.426762
 20
201.001229
 30
0.0
 40
2.0
  1
13
  7
ROMANS
  0
TEXT
  8
0
  6
CONTINUOUS
 62
   249
 10
109.805033
 20
201.001229
 30
0.0
 40
2.0
  1
14
  7
ROMANS
  0
TEXT
  8
0
  6
CONTINUOUS
 62
   249
 10
136.889636
 20
201.001229
 30
0.0
 40
2.0
  1
15
  7
ROMANS
  0
TEXT
  8
0
  6
CONTINUOUS
 62
   249
 10
147.163525
 20
201.001229
 30
0.0
 40
2.0
  1
16
  7
ROMANS
  0
TEXT
  8
0
  6
CONTINUOUS
 62
   249
 10
49.992428
 20
195.809482
 30
0.0
 40
2.0
  1
ON-OFF INPUTS
  7
ROMANS
  0
TEXT
  8
0
  6
CONTINUOUS
 62
   249
 10
181.718027
 20
234.634251
 30
0.0
 40
1.5
  1
OPTION 1 / 2
  7
ROMANS
  0
LINE
  8
0
  6
DASHED
 62
   249
 10
277.5
 20
222.5
 30
0.0
 11
265.0
 21
222.5
 31
0.0
  0
LINE
  8
0
  6
CONTINUOUS
 62
   249
 10
210.450615
 20
123.811424
 30
0.0
 11
220.0
 21
123.811424
 31
0.0
  0
LINE
  8
0
  6
CONTINUOUS
 62
   249
 10
220.0
 20
123.811424
 30
0.0
 11
220.0
 21
62.5
 31
0.0
  0
LINE
  8
0
  6
CONTINUOUS
 62
   249
 10
257.500679
 20
61.118108
 30
0.0
 11
259.419928
 21
63.806186
 31
0.0
  0
TEXT
  8
0
  6
CONTINUOUS
 62
   249
 10
260.800489
 20
64.232636
 30
0.0
 40
2.0
  1
9
  7
ROMANS
  0
LINE
  8
0
  6
HIDDEN
 62
   249
 10
260.0
 20
166.871839
 30
0.0
 11
265.0
 21
166.871839
 31
0.0
  0
LINE
  8
0
  6
HIDDEN
 62
   249
 10
265.0
 20
201.157139
 30
0.0
 11
260.0
 21
201.157139
 31
0.0
  0
LINE
  8
0
  6
HIDDEN
 62
   249
 10
260.0
 20
201.157139
 30
0.0
 11
260.0
 21
166.871839
 31
0.0
  0
LINE
  8
0
  6
HIDDEN
 62
   249
 10
260.0
 20
130.891026
 30
0.0
 11
265.0
 21
130.891026
 31
0.0
  0
LINE
  8
0
  6
HIDDEN
 62
   249
 10
260.0
 20
166.157139
 30
0.0
 11
260.0
 21
130.891026
 31
0.0
  0
LINE
  8
0
  6
HIDDEN
 62
   249
 10
265.0
 20
166.157139
 30
0.0
 11
260.0
 21
166.157139
 31
0.0
  0
LINE
  8
0
  6
HIDDEN
 62
   249
 10
260.0
 20
75.361698
 30
0.0
 11
265.0
 21
75.361698
 31
0.0
  0
LINE
  8
0
  6
HIDDEN
 62
   249
 10
260.0
 20
129.197137
 30
0.0
 11
260.0
 21
75.361698
 31
0.0
  0
LINE
  8
0
  6
HIDDEN
 62
   249
 10
265.0
 20
129.197137
 30
0.0
 11
260.0
 21
129.197137
 31
0.0
  0
TEXT
  8
0
  6
CONTINUOUS
 62
   249
 10
260.880935
 20
198.167842
 30
0.0
 40
2.0
  1
X3
  7
ROMANS
  0
TEXT
  8
0
  6
CONTINUOUS
 62
   249
 10
261.572011
 20
194.603081
 30
0.0
 40
2.0
  1
2
  7
ROMANS
  0
TEXT
  8
0
  6
CONTINUOUS
 62
   249
 10
261.572011
 20
187.280373
 30
0.0
 40
2.0
  1
3
  7
ROMANS
  0
TEXT
  8
0
  6
CONTINUOUS
 62
   249
 10
261.572011
 20
179.847461
 30
0.0
 40
2.0
  1
4
  7
ROMANS
  0
TEXT
  8
0
  6
CONTINUOUS
 62
   249
 10
261.572011
 20
172.061898
 30
0.0
 40
2.0
  1
5
  7
ROMANS
  0
TEXT
  8
0
  6
CONTINUOUS
 62
   249
 10
261.572011
 20
167.560405
 30
0.0
 40
2.0
  1
1
  7
ROMANS
  0
TEXT
  8
0
  6
CONTINUOUS
 62
   249
 10
260.887287
 20
163.312381
 30
0.0
 40
2.0
  1
X4
  7
ROMANS
  0
TEXT
  8
0
  6
CONTINUOUS
 62
   249
 10
261.572011
 20
159.350887
 30
0.0
 40
2.0
  1
2
  7
ROMANS
  0
TEXT
  8
0
  6
CONTINUOUS
 62
   249
 10
261.572011
 20
151.862873
 30
0.0
 40
2.0
  1
3
  7
ROMANS
  0
TEXT
  8
0
  6
CONTINUOUS
 62
   249
 10
261.572011
 20
144.37486
 30
0.0
 40
2.0
  1
4
  7
ROMANS
  0
TEXT
  8
0
  6
CONTINUOUS
 62
   249
 10
261.572011
 20
136.677459
 30
0.0
 40
2.0
  1
5
  7
ROMANS
  0
TEXT
  8
0
  6
CONTINUOUS
 62
   249
 10
261.572011
 20
132.087804
 30
0.0
 40
2.0
  1
1
  7
ROMANS
  0
TEXT
  8
0
  6
CONTINUOUS
 62
   249
 10
260.765558
 20
126.054479
 30
0.0
 40
2.0
  1
X5
  7
ROMANS
  0
TEXT
  8
0
  6
CONTINUOUS
 62
   249
 10
261.572011
 20
121.685231
 30
0.0
 40
2.0
  1
2
  7
ROMANS
  0
TEXT
  8
0
  6
CONTINUOUS
 62
   249
 10
261.572011
 20
114.395584
 30
0.0
 40
2.0
  1
3
  7
ROMANS
  0
TEXT
  8
0
  6
CONTINUOUS
 62
   249
 10
261.572011
 20
106.984713
 30
0.0
 40
2.0
  1
4
  7
ROMANS
  0
TEXT
  8
0
  6
CONTINUOUS
 62
   249
 10
261.572011
 20
99.573843
 30
0.0
 40
2.0
  1
5
  7
ROMANS
  0
TEXT
  8
0
  6
CONTINUOUS
 62
   249
 10
261.572011
 20
94.763779
 30
0.0
 40
2.0
  1
1
  7
ROMANS
  0
TEXT
  8
0
  6
CONTINUOUS
 62
   249
 10
261.572011
 20
89.402698
 30
0.0
 40
2.0
  1
7
  7
ROMANS
  0
TEXT
  8
0
  6
CONTINUOUS
 62
   249
 10
261.572011
 20
82.002847
 30
0.0
 40
2.0
  1
8
  7
ROMANS
  0
TEXT
  8
0
  6
CONTINUOUS
 62
   249
 10
261.572011
 20
76.829112
 30
0.0
 40
2.0
  1
6
  7
ROMANS
  0
TEXT
  8
0
  6
CONTINUOUS
 62
   249
 10
238.489218
 20
191.864189
 30
0.0
 40
2.0
  1
1/O
  7
ROMANS
  0
TEXT
  8
0
  6
CONTINUOUS
 62
   249
 10
238.489218
 20
184.442298
 30
0.0
 40
2.0
  1
1/I
  7
ROMANS
  0
TEXT
  8
0
  6
CONTINUOUS
 62
   249
 10
238.489218
 20
176.777959
 30
0.0
 40
2.0
  1
2/O
  7
ROMANS
  0
TEXT
  8
0
  6
CONTINUOUS
 62
   249
 10
238.489218
 20
169.113619
 30
0.0
 40
2.0
  1
2/I
  7
ROMANS
  0
TEXT
  8
0
  6
CONTINUOUS
 62
   249
 10
238.489218
 20
156.666439
 30
0.0
 40
2.0
  1
3/O
  7
ROMANS
  0
TEXT
  8
0
  6
CONTINUOUS
 62
   249
 10
238.489218
 20
149.01312
 30
0.0
 40
2.0
  1
3/I
  7
ROMANS
  0
TEXT
  8
0
  6
CONTINUOUS
 62
   249
 10
238.489218
 20
141.811636
 30
0.0
 40
2.0
  1
4/O
  7
ROMANS
  0
TEXT
  8
0
  6
CONTINUOUS
 62
   249
 10
238.489218
 20
134.378725
 30
0.0
 40
2.0
  1
4/I
  7
ROMANS
  0
TEXT
  8
0
  6
CONTINUOUS
 62
   249
 10
238.489218
 20
119.198492
 30
0.0
 40
2.0
  1
5/O
  7
ROMANS
  0
TEXT
  8
0
  6
CONTINUOUS
 62
   249
 10
238.489218
 20
111.545173
 30
0.0
 40
2.0
  1
5/I
  7
ROMANS
  0
TEXT
  8
0
  6
CONTINUOUS
 62
   249
 10
238.489218
 20
104.211445
 30
0.0
 40
2.0
  1
6/O
  7
ROMANS
  0
TEXT
  8
0
  6
CONTINUOUS
 62
   249
 10
238.489218
 20
96.646289
 30
0.0
 40
2.0
  1
6/I
  7
ROMANS
  0
TEXT
  8
0
  6
CONTINUOUS
 62
   249
 10
238.489218
 20
86.777875
 30
0.0
 40
2.0
  1
7/O
  7
ROMANS
  0
TEXT
  8
0
  6
CONTINUOUS
 62
   249
 10
239.113078
 20
79.763738
 30
0.0
 40
2.0
  1
7/I
  7
ROMANS
  0
LINE
  8
0
  6
DASHED
 62
   249
 10
100.0
 20
237.5
 30
0.0
 11
100.0
 21
245.0
 31
0.0
  0
LINE
  8
0
  6
DASHED
 62
   249
 10
112.5
 20
237.5
 30
0.0
 11
112.5
 21
245.0
 31
0.0
  0
LINE
  8
0
  6
DASHED
 62
   249
 10
117.5
 20
237.5
 30
0.0
 11
117.5
 21
245.0
 31
0.0
  0
LINE
  8
0
  6
CONTINUOUS
 62
   249
 10
132.5
 20
237.5
 30
0.0
 11
132.5
 21
242.5
 31
0.0
  0
LINE
  8
0
  6
CONTINUOUS
 62
   249
 10
142.5
 20
237.5
 30
0.0
 11
142.5
 21
242.5
 31
0.0
  0
LINE
  8
0
  6
CONTINUOUS
 62
   249
 10
152.5
 20
237.5
 30
0.0
 11
152.5
 21
242.5
 31
0.0
  0
LINE
  8
0
  6
CONTINUOUS
 62
   249
 10
217.5
 20
237.5
 30
0.0
 11
217.5
 21
242.5
 31
0.0
  0
LINE
  8
0
  6
CONTINUOUS
 62
   249
 10
225.0
 20
237.5
 30
0.0
 11
225.0
 21
242.5
 31
0.0
  0
LINE
  8
0
  6
CONTINUOUS
 62
   249
 10
132.499655
 20
245.0
 30
0.0
 11
131.499655
 21
244.0
 31
0.0
  0
LINE
  8
0
  6
CONTINUOUS
 62
   249
 10
225.0
 20
245.0
 30
0.0
 11
132.499655
 21
245.0
 31
0.0
  0
LINE
  8
0
  6
CONTINUOUS
 62
   249
 10
225.0
 20
245.0
 30
0.0
 11
226.0
 21
244.0
 31
0.0
  0
TEXT
  8
0
  6
CONTINUOUS
 62
   249
 10
171.754828
 20
246.54103
 30
0.0
 40
2.0
  1
SHEET 1
  7
ROMANS
  0
LINE
  8
0
  6
DASHED
 62
   249
 10
40.0
 20
137.5
 30
0.0
 11
27.5
 21
137.5
 31
0.0
  0
LINE
  8
0
  6
DASHED
 62
   249
 10
40.0
 20
125.0
 30
0.0
 11
27.5
 21
125.0
 31
0.0
  0
LINE
  8
0
  6
DASHED
 62
   249
 10
40.0
 20
120.0
 30
0.0
 11
27.5
 21
120.0
 31
0.0
  0
LINE
  8
0
  6
DASHED
 62
   249
 10
40.0
 20
115.0
 30
0.0
 11
27.5
 21
115.0
 31
0.0
  0
LINE
  8
0
  6
DASHED
 62
   249
 10
40.0
 20
110.0
 30
0.0
 11
27.5
 21
110.0
 31
0.0
  0
LINE
  8
0
  6
DASHED
 62
   249
 10
40.0
 20
97.5
 30
0.0
 11
27.5
 21
97.5
 31
0.0
  0
LINE
  8
0
  6
DASHED
 62
   249
 10
40.0
 20
92.5
 30
0.0
 11
27.5
 21
92.5
 31
0.0
  0
LINE
  8
0
  6
DASHED
 62
   249
 10
40.0
 20
87.5
 30
0.0
 11
27.5
 21
87.5
 31
0.0
  0
LINE
  8
0
  6
DASHED
 62
   249
 10
40.0
 20
82.5
 30
0.0
 11
27.5
 21
82.5
 31
0.0
  0
LINE
  8
0
  6
DASHED
 62
   249
 10
40.0
 20
65.0
 30
0.0
 11
27.5
 21
65.0
 31
0.0
  0
LINE
  8
0
  6
DASHED
 62
   249
 10
62.5
 20
57.5
 30
0.0
 11
62.5
 21
50.0
 31
0.0
  0
LINE
  8
0
  6
DASHED
 62
   249
 10
75.0
 20
57.5
 30
0.0
 11
75.0
 21
50.0
 31
0.0
  0
LINE
  8
0
  6
DASHED
 62
   249
 10
80.0
 20
57.5
 30
0.0
 11
80.0
 21
50.0
 31
0.0
  0
LINE
  8
0
  6
DASHED
 62
   249
 10
85.0
 20
57.5
 30
0.0
 11
85.0
 21
50.0
 31
0.0
  0
LINE
  8
0
  6
DASHED
 62
   249
 10
90.0
 20
57.5
 30
0.0
 11
90.0
 21
50.0
 31
0.0
  0
LINE
  8
0
  6
DASHED
 62
   249
 10
105.0
 20
57.5
 30
0.0
 11
105.0
 21
50.0
 31
0.0
  0
LINE
  8
0
  6
DASHED
 62
   249
 10
110.0
 20
57.5
 30
0.0
 11
110.0
 21
50.0
 31
0.0
  0
LINE
  8
0
  6
DASHED
 62
   249
 10
115.0
 20
57.5
 30
0.0
 11
115.0
 21
50.0
 31
0.0
  0
LINE
  8
0
  6
DASHED
 62
   249
 10
120.0
 20
57.5
 30
0.0
 11
120.0
 21
50.0
 31
0.0
  0
LINE
  8
0
  6
DASHED
 62
   249
 10
135.0
 20
57.5
 30
0.0
 11
135.0
 21
50.0
 31
0.0
  0
LINE
  8
0
  6
DASHED
 62
   249
 10
140.0
 20
57.5
 30
0.0
 11
140.0
 21
50.0
 31
0.0
  0
LINE
  8
0
  6
DASHED
 62
   249
 10
145.0
 20
57.5
 30
0.0
 11
145.0
 21
50.0
 31
0.0
  0
LINE
  8
0
  6
DASHED
 62
   249
 10
150.0
 20
57.5
 30
0.0
 11
150.0
 21
50.0
 31
0.0
  0
LINE
  8
0
  6
DASHED
 62
   249
 10
160.0
 20
57.5
 30
0.0
 11
160.0
 21
50.0
 31
0.0
  0
LINE
  8
0
  6
DASHED
 62
   249
 10
165.0
 20
57.5
 30
0.0
 11
165.0
 21
50.0
 31
0.0
  0
LINE
  8
0
  6
DASHED
 62
   249
 10
277.5
 20
217.5
 30
0.0
 11
265.0
 21
217.5
 31
0.0
  0
LINE
  8
0
  6
DASHED
 62
   249
 10
277.5
 20
212.5
 30
0.0
 11
265.0
 21
212.5
 31
0.0
  0
LINE
  8
0
  6
DASHED
 62
   249
 10
277.5
 20
207.5
 30
0.0
 11
265.0
 21
207.5
 31
0.0
  0
LINE
  8
0
  6
CONTINUOUS
 62
   249
 10
290.0
 20
207.5
 30
0.0
 11
290.0
 21
222.5
 31
0.0
  0
LINE
  8
0
  6
CONTINUOUS
 62
   249
 10
290.0
 20
222.500345
 30
0.0
 11
289.0
 21
223.500345
 31
0.0
  0
LINE
  8
0
  6
CONTINUOUS
 62
   249
 10
290.0
 20
207.5
 30
0.0
 11
289.0
 21
206.5
 31
0.0
  0
TEXT
  8
0
  6
CONTINUOUS
 62
   249
 10
282.5
 20
220.0
 30
0.0
 40
1.5
  1
mA 1
  7
ROMANS
  0
TEXT
  8
0
  6
CONTINUOUS
 62
   249
 10
282.5
 20
209.642475
 30
0.0
 40
1.5
  1
mA 2
  7
ROMANS
  0
LINE
  8
0
  6
DASHED
 62
   249
 10
272.5
 20
197.5
 30
0.0
 11
265.0
 21
197.5
 31
0.0
  0
LINE
  8
0
  6
DASHED
 62
   249
 10
272.5
 20
190.0
 30
0.0
 11
265.0
 21
190.0
 31
0.0
  0
LINE
  8
0
  6
DASHED
 62
   249
 10
272.5
 20
182.5
 30
0.0
 11
265.0
 21
182.5
 31
0.0
  0
LINE
  8
0
  6
DASHED
 62
   249
 10
272.5
 20
175.0
 30
0.0
 11
265.0
 21
175.0
 31
0.0
  0
LINE
  8
0
  6
DASHED
 62
   249
 10
272.5
 20
170.0
 30
0.0
 11
265.0
 21
170.0
 31
0.0
  0
LINE
  8
0
  6
DASHED
 62
   249
 10
272.5
 20
162.5
 30
0.0
 11
265.0
 21
162.5
 31
0.0
  0
LINE
  8
0
  6
DASHED
 62
   249
 10
272.5
 20
155.0
 30
0.0
 11
265.0
 21
155.0
 31
0.0
  0
LINE
  8
0
  6
DASHED
 62
   249
 10
272.5
 20
147.5
 30
0.0
 11
265.0
 21
147.5
 31
0.0
  0
LINE
  8
0
  6
DASHED
 62
   249
 10
272.5
 20
140.0
 30
0.0
 11
265.0
 21
140.0
 31
0.0
  0
LINE
  8
0
  6
DASHED
 62
   249
 10
272.5
 20
135.0
 30
0.0
 11
265.0
 21
135.0
 31
0.0
  0
LINE
  8
0
  6
DASHED
 62
   249
 10
272.5
 20
125.0
 30
0.0
 11
265.0
 21
125.0
 31
0.0
  0
LINE
  8
0
  6
DASHED
 62
   249
 10
272.5
 20
117.5
 30
0.0
 11
265.0
 21
117.5
 31
0.0
  0
LINE
  8
0
  6
DASHED
 62
   249
 10
272.5
 20
110.0
 30
0.0
 11
265.0
 21
110.0
 31
0.0
  0
LINE
  8
0
  6
DASHED
 62
   249
 10
272.5
 20
102.5
 30
0.0
 11
265.0
 21
102.5
 31
0.0
  0
LINE
  8
0
  6
DASHED
 62
   249
 10
272.5
 20
97.5
 30
0.0
 11
265.0
 21
97.5
 31
0.0
  0
LINE
  8
0
  6
DASHED
 62
   249
 10
272.5
 20
92.5
 30
0.0
 11
265.0
 21
92.5
 31
0.0
  0
LINE
  8
0
  6
DASHED
 62
   249
 10
272.5
 20
85.0
 30
0.0
 11
265.0
 21
85.0
 31
0.0
  0
LINE
  8
0
  6
DASHED
 62
   249
 10
272.5
 20
80.0
 30
0.0
 11
265.0
 21
80.0
 31
0.0
  0
LINE
  8
0
  6
CONTINUOUS
 62
   249
 10
265.0
 20
70.0
 30
0.0
 11
225.0
 21
70.0
 31
0.0
  0
LINE
  8
0
  6
CONTINUOUS
 62
   249
 10
265.0
 20
62.5
 30
0.0
 11
220.0
 21
62.5
 31
0.0
  0
LINE
  8
0
  6
DASHED
 62
   249
 10
270.0
 20
62.413461
 30
0.0
 11
280.0
 21
62.413461
 31
0.0
  0
LINE
  8
0
  6
CONTINUOUS
 62
   249
 10
270.249436
 20
62.903461
 30
0.0
 11
266.819436
 21
62.903461
 31
0.0
  0
LINE
  8
0
  6
CONTINUOUS
 62
   249
 10
270.249436
 20
61.923461
 30
0.0
 11
270.249436
 21
62.903461
 31
0.0
  0
LINE
  8
0
  6
CONTINUOUS
 62
   249
 10
266.819436
 20
61.923461
 30
0.0
 11
270.249436
 21
61.923461
 31
0.0
  0
LINE
  8
0
  6
CONTINUOUS
 62
   249
 10
266.819436
 20
62.903461
 30
0.0
 11
266.819436
 21
61.923461
 31
0.0
  0
ARC
  8
0
  6
CONTINUOUS
 62
   249
 10
267.5
 20
62.413461
 30
0.0
 40
2.5
 50
90.0
 51
270.0
  0
TEXT
  8
0
  6
CONTINUOUS
 62
   249
 10
308.674343
 20
121.703323
 30
0.0
 40
2.0
  1
  SIGNALINGÅNGAR
  7
ROMANS
  0
TEXT
  8
0
  6
CONTINUOUS
 62
   249
 10
308.677729
 20
112.536656
 30
0.0
 40
2.0
  1
  BLOCKRING IN
  7
ROMANS
  0
TEXT
  8
0
  6
CONTINUOUS
 62
   249
 10
308.680355
 20
103.36999
 30
0.0
 40
2.0
  1
  INGÅNG FÖR PULSRÄKNARE
  7
ROMANS
  0
TEXT
  8
0
  6
CONTINUOUS
 62
   249
 10
308.680355
 20
94.203323
 30
0.0
 40
2.0
  1
  SIGNALUTGÅNG
  7
ROMANS
  0
TEXT
  8
0
  6
CONTINUOUS
 62
   249
 10
309.003568
 20
85.036656
 30
0.0
 40
2.0
  1
  BRYTARMANÖVER
  7
ROMANS
  0
TEXT
  8
0
  6
CONTINUOUS
 62
   249
 10
309.308335
 20
75.86999
 30
0.0
 40
2.0
  1
  INTERNT RELÄFEL
  7
ROMANS
  0
TEXT
  8
0
  6
CONTINUOUS
 62
   249
 10
308.649938
 20
66.703323
 30
0.0
 40
2.0
  1
  ANALOG SIGNALINGÅNG (OPTION)
  7
ROMANS
  0
TEXT
  8
0
  6
CONTINUOUS
 62
   249
 10
308.649938
 20
57.536656
 30
0.0
 40
2.0
  1
  LÄGESINFORMATION IN
  7
ROMANS
  0
TEXT
  8
0
  6
CONTINUOUS
 62
   249
 10
313.310156
 20
48.347865
 30
0.0
 40
2.0
  1
FÖRREGLING
  7
ROMANS
  0
TEXT
  8
0
  6
CONTINUOUS
 62
   249
 10
308.959838
 20
39.408604
 30
0.0
 40
2.0
  1
  BUSSANSLUTNINGSMODUL
  7
ROMANS
  0
TEXT
  8
0
  6
CONTINUOUS
 62
   249
 10
79.770296
 20
253.644392
 30
0.0
 40
2.0
  1
6)
  7
ROMANS
  0
TEXT
  8
0
  6
CONTINUOUS
 62
   249
 10
77.57918
 20
248.883592
 30
0.0
 40
2.0
  1
7)    8)
  7
ROMANS
  0
TEXT
  8
0
  6
CONTINUOUS
 62
   249
 10
18.069094
 20
166.715701
 30
0.0
 40
2.0
  1
9)
  7
ROMANS
  0
TEXT
  8
0
  6
CONTINUOUS
 62
   249
 10
16.764271
 20
120.810673
 30
0.0
 40
2.0
  1
10)
  7
ROMANS
  0
TEXT
  8
0
  6
CONTINUOUS
 62
   249
 10
18.069094
 20
63.951395
 30
0.0
 40
2.0
  1
11)
  7
ROMANS
  0
TEXT
  8
0
  6
CONTINUOUS
 62
   249
 10
292.460652
 20
214.973908
 30
0.0
 40
2.0
  1
12)
  7
ROMANS
  0
TEXT
  8
0
  6
CONTINUOUS
 62
   249
 10
282.463687
 20
142.481904
 30
0.0
 40
2.0
  1
13)
  7
ROMANS
  0
TEXT
  8
0
  6
CONTINUOUS
 62
   249
 10
283.604893
 20
68.920924
 30
0.0
 40
2.0
  1
14)
  7
ROMANS
  0
TEXT
  8
0
  6
CONTINUOUS
 62
   249
 10
283.604893
 20
61.405031
 30
0.0
 40
2.0
  1
15)
  7
ROMANS
  0
TEXT
  8
0
  6
CONTINUOUS
 62
   249
 10
307.311545
 20
125.014616
 30
0.0
 40
2.0
  1
6) ON-OFF INPUTS/
  7
ROMANS
  0
TEXT
  8
0
  6
CONTINUOUS
 62
   249
 10
307.341977
 20
115.856687
 30
0.0
 40
2.0
  1
7) BLOCKING INPUT/
  7
ROMANS
  0
TEXT
  8
0
  6
CONTINUOUS
 62
   249
 10
307.326761
 20
106.687738
 30
0.0
 40
2.0
  1
8) PULSE COUNTER INPUT/
  7
ROMANS
  0
TEXT
  8
0
  6
CONTINUOUS
 62
   249
 10
307.341977
 20
97.507768
 30
0.0
 40
2.0
  1
9) ALARM OUTPUT/
  7
ROMANS
  0
TEXT
  8
0
  6
CONTINUOUS
 62
   249
 10
306.018178
 20
88.349839
 30
0.0
 40
2.0
  1
10) CIRCUIT BREAKER CONTROL/
  7
ROMANS
  0
TEXT
  8
0
  6
CONTINUOUS
 62
   249
 10
306.657253
 20
79.247013
 30
0.0
 40
2.0
  1
11) INTERNAL RELAY FAULT/
  7
ROMANS
  0
TEXT
  8
0
  6
CONTINUOUS
 62
   249
 10
305.987746
 20
70.000921
 30
0.0
 40
2.0
  1
12) ANALOGUE SIGNAL INPUT (OPTION)/
  7
ROMANS
  0
TEXT
  8
0
  6
CONTINUOUS
 62
   249
 10
305.987746
 20
60.831972
 30
0.0
 40
2.0
  1
13) OBJECT STATUS INPUT/
  7
ROMANS
  0
TEXT
  8
0
  6
CONTINUOUS
 62
   249
 10
305.987746
 20
51.674043
 30
0.0
 40
2.0
  1
14) BUSBAR INTERLOCKING/
  7
ROMANS
  0
TEXT
  8
0
  6
CONTINUOUS
 62
   249
 10
305.97253
 20
42.714481
 30
0.0
 40
2.0
  1
15) BUS CONNECTION MODULE/
  7
ROMANS
  0
TEXT
  8
0
  6
CONTINUOUS
 62
   249
 10
212.774044
 20
28.200652
 30
0.0
 40
2.0
  1
1992-03-22 J RANTALA
  7
ROMANS
  0
TEXT
  8
0
  6
CONTINUOUS
 62
   249
 10
317.5
 20
27.5
 30
0.0
 40
2.0
  1
CIRCUIT DIAGRAM / KRETSSCHEMA
  7
ROMANS
  0
TEXT
  8
0
  6
CONTINUOUS
 62
   249
 10
317.5
 20
24.166667
 30
0.0
 40
2.0
  1
SPAC 537 C1
  7
ROMANS
  0
TEXT
  8
0
  6
CONTINUOUS
 62
   249
 10
370.321329
 20
11.84642
 30
0.0
 40
2.0
  1
2/3
  7
ROMANS
  0
TEXT
  8
0
  6
CONTINUOUS
 62
   249
 10
317.5
 20
2.5
 30
0.0
 40
2.5
  1
RS 10078-AB
  7
ROMANS
  0
TEXT
  8
0
  6
CONTINUOUS
 62
   249
 10
291.852008
 20
11.912542
 30
0.0
 40
3.0
  1
A3
  7
GREEKS
  0
TEXT
  8
0
  6
CONTINUOUS
 62
   249
 10
310.0
 20
221.474728
 30
0.0
 40
1.5
  1
OPTION 2
  7
ROMANS
  0
LINE
  8
0
  6
CONTINUOUS
 62
   249
 10
337.453271
 20
217.5
 30
0.0
 11
345.0
 21
217.5
 31
0.0
  0
LINE
  8
0
  6
CONTINUOUS
 62
   249
 10
345.0
 20
217.5
 30
0.0
 11
345.0
 21
225.0
 31
0.0
  0
LINE
  8
0
  6
CONTINUOUS
 62
   249
 10
352.5
 20
212.5
 30
0.0
 11
352.5
 21
225.0
 31
0.0
  0
LINE
  8
0
  6
CONTINUOUS
 62
   249
 10
337.453271
 20
212.5
 30
0.0
 11
352.5
 21
212.5
 31
0.0
  0
LINE
  8
0
  6
CONTINUOUS
 62
   249
 10
330.0
 20
220.738717
 30
0.0
 11
337.453271
 21
220.738717
 31
0.0
  0
LINE
  8
0
  6
CONTINUOUS
 62
   249
 10
330.0
 20
212.5
 30
0.0
 11
307.991201
 21
212.5
 31
0.0
  0
LINE
  8
0
  6
CONTINUOUS
 62
   249
 10
320.298812
 20
207.5
 30
0.0
 11
307.991201
 21
207.5
 31
0.0
  0
LINE
  8
0
  6
CONTINUOUS
 62
   249
 10
320.298812
 20
197.5
 30
0.0
 11
307.991201
 21
197.5
 31
0.0
  0
LINE
  8
0
 62
   249
 10
327.721556
 20
195.156011
 30
0.0
 11
327.721556
 21
209.156608
 31
0.0
  0
LINE
  8
0
 62
   249
 10
327.721556
 20
209.156608
 30
0.0
 11
320.298812
 21
209.156608
 31
0.0
  0
LINE
  8
0
 62
   249
 10
320.298812
 20
209.156608
 30
0.0
 11
320.298812
 21
195.156011
 31
0.0
  0
LINE
  8
0
 62
   249
 10
320.298812
 20
195.156011
 30
0.0
 11
327.721556
 21
195.156011
 31
0.0
  0
TEXT
  8
0
  6
CONTINUOUS
 62
   249
 10
332.772517
 20
216.527781
 30
0.0
 40
2.0
  1
3I
  7
GREEKS
  0
TEXT
  8
0
  6
CONTINUOUS
 62
   249
 10
332.772517
 20
211.48629
 30
0.0
 40
2.0
  1
3U
  7
GREEKS
  0
TEXT
  8
0
  6
CONTINUOUS
 62
   249
 10
309.736899
 20
214.714316
 30
0.0
 40
2.0
  1
I
  7
GREEKS
  0
TEXT
  8
0
  6
CONTINUOUS
 62
   249
 10
309.736899
 20
209.573898
 30
0.0
 40
2.0
  1
U
  7
GREEKS
  0
TEXT
  8
0
  6
CONTINUOUS
 62
   249
 10
309.736899
 20
204.881557
 30
0.0
 40
2.0
  1
P
  7
GREEKS
  0
TEXT
  8
0
  6
CONTINUOUS
 62
   249
 10
309.736899
 20
194.5907
 30
0.0
 40
2.0
  1
Q
  7
GREEKS
  0
LINE
  8
0
  6
CONTINUOUS
 62
   249
 10
322.5
 20
209.156608
 30
0.0
 11
322.5
 21
217.5
 31
0.0
  0
LINE
  8
0
  6
CONTINUOUS
 62
   249
 10
325.731308
 20
209.156608
 30
0.0
 11
325.731308
 21
212.5
 31
0.0
  0
LINE
  8
0
  6
CONTINUOUS
 62
   249
 10
330.0
 20
224.415965
 30
0.0
 11
330.0
 21
192.5
 31
0.0
  0
LINE
  8
0
  6
CONTINUOUS
 62
   249
 10
330.0
 20
217.5
 30
0.0
 11
307.991201
 21
217.5
 31
0.0
  0
TEXT
  8
0
  6
CONTINUOUS
 62
   249
 10
331.615515
 20
221.188531
 30
0.0
 40
2.5
  1
U5
  7
ROMANS
  0
LINE
  8
0
  6
HIDDEN
 62
   249
 10
307.991201
 20
224.415965
 30
0.0
 11
337.453271
 21
224.415965
 31
0.0
  0
LINE
  8
0
  6
HIDDEN
 62
   249
 10
337.453271
 20
192.5
 30
0.0
 11
337.453271
 21
224.415965
 31
0.0
  0
LINE
  8
0
  6
HIDDEN
 62
   249
 10
307.991201
 20
192.5
 30
0.0
 11
307.991201
 21
224.415965
 31
0.0
  0
LINE
  8
0
  6
HIDDEN
 62
   249
 10
307.991201
 20
192.5
 30
0.0
 11
337.453271
 21
192.5
 31
0.0
  0
TEXT
  8
0
  6
CONTINUOUS
 62
   249
 10
310.0
 20
183.974728
 30
0.0
 40
1.5
  1
OPTION 1
  7
ROMANS
  0
LINE
  8
0
  6
HIDDEN
 62
   249
 10
377.5
 20
177.5
 30
0.0
 11
372.5
 21
177.5
 31
0.0
  0
LINE
  8
0
  6
HIDDEN
 62
   249
 10
372.5
 20
152.5
 30
0.0
 11
377.5
 21
152.5
 31
0.0
  0
LINE
  8
0
  6
HIDDEN
 62
   249
 10
372.5
 20
177.5
 30
0.0
 11
372.5
 21
152.5
 31
0.0
  0
TEXT
  8
0
  6
HIDDEN
 62
   249
 10
373.358139
 20
174.107311
 30
0.0
 40
2.0
  1
X6
  7
ROMANS
  0
TEXT
  8
0
  6
HIDDEN
 62
   249
 10
373.718464
 20
169.833506
 30
0.0
 40
2.0
  1
7
  7
ROMANS
  0
TEXT
  8
0
  6
HIDDEN
 62
   249
 10
373.718464
 20
164.766946
 30
0.0
 40
2.0
  1
8
  7
ROMANS
  0
TEXT
  8
0
  6
HIDDEN
 62
   249
 10
373.718464
 20
159.695463
 30
0.0
 40
2.0
  1
9
  7
ROMANS
  0
TEXT
  8
0
  6
HIDDEN
 62
   249
 10
372.613897
 20
154.628904
 30
0.0
 40
2.0
  1
10
  7
ROMANS
  0
LINE
  8
0
  6
CONTINUOUS
 62
   249
 10
337.453271
 20
180.0
 30
0.0
 11
345.0
 21
180.0
 31
0.0
  0
LINE
  8
0
  6
CONTINUOUS
 62
   249
 10
345.0
 20
180.0
 30
0.0
 11
345.0
 21
187.5
 31
0.0
  0
LINE
  8
0
  6
CONTINUOUS
 62
   249
 10
352.5
 20
175.0
 30
0.0
 11
352.5
 21
187.5
 31
0.0
  0
LINE
  8
0
  6
CONTINUOUS
 62
   249
 10
337.453271
 20
175.0
 30
0.0
 11
352.5
 21
175.0
 31
0.0
  0
LINE
  8
0
  6
CONTINUOUS
 62
   249
 10
337.453271
 20
172.5
 30
0.0
 11
377.5
 21
172.5
 31
0.0
  0
LINE
  8
0
  6
CONTINUOUS
 62
   249
 10
337.453271
 20
167.5
 30
0.0
 11
377.5
 21
167.5
 31
0.0
  0
LINE
  8
0
  6
CONTINUOUS
 62
   249
 10
337.453271
 20
162.5
 30
0.0
 11
377.5
 21
162.5
 31
0.0
  0
LINE
  8
0
  6
CONTINUOUS
 62
   249
 10
337.453271
 20
157.5
 30
0.0
 11
377.5
 21
157.5
 31
0.0
  0
LINE
  8
0
  6
CONTINUOUS
 62
   249
 10
327.721556
 20
172.5
 30
0.0
 11
337.453271
 21
172.5
 31
0.0
  0
LINE
  8
0
  6
CONTINUOUS
 62
   249
 10
327.721556
 20
167.5
 30
0.0
 11
337.453271
 21
167.5
 31
0.0
  0
LINE
  8
0
  6
CONTINUOUS
 62
   249
 10
327.721556
 20
162.5
 30
0.0
 11
337.453271
 21
162.5
 31
0.0
  0
LINE
  8
0
  6
CONTINUOUS
 62
   249
 10
327.721556
 20
157.5
 30
0.0
 11
337.453271
 21
157.5
 31
0.0
  0
LINE
  8
0
  6
CONTINUOUS
 62
   249
 10
330.0
 20
175.0
 30
0.0
 11
307.991201
 21
175.0
 31
0.0
  0
LINE
  8
0
  6
CONTINUOUS
 62
   249
 10
320.298812
 20
160.0
 30
0.0
 11
307.991201
 21
160.0
 31
0.0
  0
LINE
  8
0
 62
   249
 10
320.298812
 20
166.48246
 30
0.0
 11
327.721556
 21
166.48246
 31
0.0
  0
LINE
  8
0
 62
   249
 10
327.721556
 20
166.48246
 30
0.0
 11
327.721556
 21
173.494825
 31
0.0
  0
LINE
  8
0
 62
   249
 10
327.721556
 20
173.494825
 30
0.0
 11
320.298812
 21
173.494825
 31
0.0
  0
LINE
  8
0
 62
   249
 10
320.298812
 20
173.494825
 30
0.0
 11
320.298812
 21
166.48246
 31
0.0
  0
LINE
  8
0
 62
   249
 10
320.298812
 20
163.494825
 30
0.0
 11
320.298812
 21
156.48246
 31
0.0
  0
LINE
  8
0
 62
   249
 10
327.721556
 20
163.494825
 30
0.0
 11
320.298812
 21
163.494825
 31
0.0
  0
LINE
  8
0
 62
   249
 10
327.721556
 20
156.48246
 30
0.0
 11
327.721556
 21
163.494825
 31
0.0
  0
LINE
  8
0
 62
   249
 10
320.298812
 20
156.48246
 30
0.0
 11
327.721556
 21
156.48246
 31
0.0
  0
TEXT
  8
0
  6
CONTINUOUS
 62
   249
 10
321.44453
 20
170.52545
 30
0.0
 40
2.0
  1
I/U
  7
GREEKS
  0
TEXT
  8
0
  6
CONTINUOUS
 62
   249
 10
321.44453
 20
160.52545
 30
0.0
 40
2.0
  1
I/U
  7
GREEKS
  0
TEXT
  8
0
  6
CONTINUOUS
 62
   249
 10
332.772517
 20
179.027781
 30
0.0
 40
2.0
  1
3I
  7
GREEKS
  0
TEXT
  8
0
  6
CONTINUOUS
 62
   249
 10
332.772517
 20
173.98629
 30
0.0
 40
2.0
  1
3U
  7
GREEKS
  0
TEXT
  8
0
  6
CONTINUOUS
 62
   249
 10
330.785345
 20
170.370043
 30
0.0
 40
1.5
  1
mA 1
  7
ROMANS
  0
TEXT
  8
0
  6
CONTINUOUS
 62
   249
 10
330.785345
 20
165.560716
 30
0.0
 40
1.5
  1
mA 1
  7
ROMANS
  0
TEXT
  8
0
  6
CONTINUOUS
 62
   249
 10
330.785345
 20
160.588899
 30
0.0
 40
1.5
  1
mA 2
  7
ROMANS
  0
TEXT
  8
0
  6
CONTINUOUS
 62
   249
 10
309.736899
 20
177.214316
 30
0.0
 40
2.0
  1
I
  7
GREEKS
  0
TEXT
  8
0
  6
CONTINUOUS
 62
   249
 10
309.736899
 20
172.073898
 30
0.0
 40
2.0
  1
U
  7
GREEKS
  0
TEXT
  8
0
  6
CONTINUOUS
 62
   249
 10
309.736899
 20
167.381557
 30
0.0
 40
2.0
  1
P
  7
GREEKS
  0
LINE
  8
0
  6
CONTINUOUS
 62
   249
 10
320.298812
 20
170.0
 30
0.0
 11
307.991201
 21
170.0
 31
0.0
  0
TEXT
  8
0
  6
CONTINUOUS
 62
   249
 10
309.736899
 20
157.0907
 30
0.0
 40
2.0
  1
Q
  7
GREEKS
  0
LINE
  8
0
  6
CONTINUOUS
 62
   249
 10
330.0
 20
186.915965
 30
0.0
 11
330.0
 21
155.0
 31
0.0
  0
LINE
  8
0
  6
CONTINUOUS
 62
   249
 10
330.0
 20
180.0
 30
0.0
 11
307.991201
 21
180.0
 31
0.0
  0
LINE
  8
0
  6
CONTINUOUS
 62
   249
 10
330.0
 20
183.238717
 30
0.0
 11
337.453271
 21
183.238717
 31
0.0
  0
TEXT
  8
0
  6
CONTINUOUS
 62
   249
 10
331.615515
 20
183.688531
 30
0.0
 40
2.5
  1
U5
  7
ROMANS
  0
LINE
  8
0
  6
HIDDEN
 62
   249
 10
337.453271
 20
155.0
 30
0.0
 11
337.453271
 21
186.915965
 31
0.0
  0
TEXT
  8
0
  6
CONTINUOUS
 62
   249
 10
330.785345
 20
155.567843
 30
0.0
 40
1.5
  1
mA 2
  7
ROMANS
  0
LINE
  8
0
  6
HIDDEN
 62
   249
 10
307.991201
 20
186.915965
 30
0.0
 11
337.453271
 21
186.915965
 31
0.0
  0
LINE
  8
0
  6
HIDDEN
 62
   249
 10
307.991201
 20
155.0
 30
0.0
 11
307.991201
 21
186.915965
 31
0.0
  0
LINE
  8
0
  6
HIDDEN
 62
   249
 10
307.991201
 20
155.0
 30
0.0
 11
337.453271
 21
155.0
 31
0.0
  0
TEXT
  8
0
  6
CONTINUOUS
 62
   249
 10
380.0
 20
2.5
 30
0.0
 40
2.5
  1
D
  7
ROMANS
  0
TEXT
  8
0
  6
CONTINUOUS
 62
   249
 10
55.10784
 20
1.200794
 30
0.0
 40
2.0
  1
REDRAWN WITH AUTOCAD 1992-03-22  JR / RITU Power
  7
ROMANS
  0
CIRCLE
  8
0
  6
CONTINUOUS
 62
   249
 10
155.0
 20
165.0
 30
0.0
 40
0.740939
  0
CIRCLE
  8
0
  6
CONTINUOUS
 62
   249
 10
162.5
 20
170.0
 30
0.0
 40
0.740939
  0
CIRCLE
  8
0
  6
CONTINUOUS
 62
   249
 10
147.5
 20
152.5
 30
0.0
 40
0.740939
  0
CIRCLE
  8
0
  6
CONTINUOUS
 62
   249
 10
140.0
 20
147.5
 30
0.0
 40
0.740939
  0
CIRCLE
  8
0
  6
CONTINUOUS
 62
   249
 10
132.5
 20
142.5
 30
0.0
 40
0.740939
  0
CIRCLE
  8
0
  6
CONTINUOUS
 62
   249
 10
125.0
 20
137.5
 30
0.0
 40
0.740939
  0
CIRCLE
  8
0
  6
CONTINUOUS
 62
   249
 10
117.5
 20
125.0
 30
0.0
 40
0.740939
  0
CIRCLE
  8
0
  6
CONTINUOUS
 62
   249
 10
110.0
 20
120.0
 30
0.0
 40
0.740939
  0
CIRCLE
  8
0
  6
CONTINUOUS
 62
   249
 10
102.5
 20
115.0
 30
0.0
 40
0.740939
  0
CIRCLE
  8
0
  6
CONTINUOUS
 62
   249
 10
95.0
 20
110.0
 30
0.0
 40
0.740939
  0
CIRCLE
  8
0
  6
CONTINUOUS
 62
   249
 10
87.5
 20
97.5
 30
0.0
 40
0.740939
  0
CIRCLE
  8
0
  6
CONTINUOUS
 62
   249
 10
80.0
 20
92.5
 30
0.0
 40
0.740939
  0
CIRCLE
  8
0
  6
CONTINUOUS
 62
   249
 10
72.5
 20
87.5
 30
0.0
 40
0.740939
  0
CIRCLE
  8
0
  6
CONTINUOUS
 62
   249
 10
65.0
 20
82.5
 30
0.0
 40
0.740939
  0
CIRCLE
  8
0
  6
CONTINUOUS
 62
   249
 10
57.5
 20
70.0
 30
0.0
 40
0.740939
  0
TEXT
  8
0
  6
CONTINUOUS
 62
   249
 10
55.095869
 20
5.83057
 30
0.0
 40
2.0
  1
SEE SHEET 3/3
  7
ROMANS
  0
LINE
  8
0
 62
   249
 10
40.737099
 20
9.263735
 30
0.0
 11
209.237099
 21
9.263735
 31
0.0
  0
TEXT
  8
0
 62
   249
 10
42.237099
 20
10.106925
 30
0.0
 40
2.5
  1
D
  7
ROMANS
  0
TEXT
  8
0
  6
CONTINUOUS
 62
   249
 10
55.095869
 20
10.338966
 30
0.0
 40
2.0
  1
A CHANGE OF VERSION  1995-08-25 JR / AD-ELECTRONICS
  7
ROMANS
  0
LINE
  8
0
 62
   249
 10
186.013701
 20
43.283527
 30
0.0
 11
190.013701
 21
43.283527
 31
0.0
  0
INSERT
  8
0
 62
   249
  2
WKU130
 10
186.35365
 20
41.557974
 30
0.0
 41
0.8
 42
0.8
 43
0.8
  0
TEXT
  8
0
  6
CONTINUOUS
 62
   249
 10
184.353328
 20
44.013635
 30
0.0
 40
2.0
  1
+
  0
TEXT
  8
0
  6
CONTINUOUS
 62
   249
 10
189.344763
 20
44.00558
 30
0.0
 40
2.0
  1
-
  0
LINE
  8
0
  6
CONTINUOUS
 62
   249
 10
190.0
 20
77.929605
 30
0.0
 11
190.0
 21
75.0
 31
0.0
  0
LINE
  8
0
  6
CONTINUOUS
 62
   249
 10
185.0
 20
77.929605
 30
0.0
 11
185.0
 21
75.0
 31
0.0
  0
LINE
  8
0
  6
CONTINUOUS
 62
   249
 10
190.0
 20
92.5
 30
0.0
 11
190.0
 21
87.252154
 31
0.0
  0
LINE
  8
0
  6
CONTINUOUS
 62
   249
 10
185.0
 20
92.5
 30
0.0
 11
185.0
 21
87.252154
 31
0.0
  0
INSERT
  8
0
 62
   249
  2
WKU130
 10
187.806261
 20
78.502888
 30
0.0
 41
0.8
 42
0.8
 43
0.8
  0
LINE
  8
0
 62
   249
 10
187.466311
 20
80.22844
 30
0.0
 11
191.466311
 21
80.22844
 31
0.0
  0
LINE
  8
0
 62
   249
 10
183.709901
 20
85.174464
 30
0.0
 11
187.709901
 21
85.174464
 31
0.0
  0
LINE
  8
0
 62
   249
 10
182.795103
 20
78.886207
 30
0.0
 11
191.158613
 21
87.252154
 31
0.0
  0
LINE
  8
0
 62
   249
 10
183.779395
 20
77.929605
 30
0.0
 11
192.119756
 21
86.267352
 31
0.0
  0
LINE
  8
0
 62
   249
 10
182.795103
 20
77.929605
 30
0.0
 11
182.795103
 21
87.252154
 31
0.0
  0
LINE
  8
0
 62
   249
 10
192.119756
 20
77.929605
 30
0.0
 11
182.795103
 21
77.929605
 31
0.0
  0
LINE
  8
0
 62
   249
 10
192.119756
 20
87.252154
 30
0.0
 11
192.119756
 21
77.929605
 31
0.0
  0
LINE
  8
0
 62
   249
 10
182.795103
 20
87.252154
 30
0.0
 11
192.119756
 21
87.252154
 31
0.0
  0
TEXT
  8
0
  6
CONTINUOUS
 62
   249
 10
184.366734
 20
93.05315
 30
0.0
 40
2.0
  1
+
  0
TEXT
  8
0
  6
CONTINUOUS
 62
   249
 10
189.297086
 20
93.077719
 30
0.0
 40
2.0
  1
-
  0
ARC
  8
0
  6
CONTINUOUS
 62
   249
 10
57.5
 20
200.0
 30
0.0
 40
0.5
 50
180.0
 51
0.0
  0
ARC
  8
0
  6
CONTINUOUS
 62
   249
 10
57.5
 20
200.0
 30
0.0
 40
0.5
 50
0.0
 51
180.0
  0
ARC
  8
0
  6
CONTINUOUS
 62
   249
 10
65.0
 20
200.0
 30
0.0
 40
0.5
 50
180.0
 51
0.0
  0
ARC
  8
0
  6
CONTINUOUS
 62
   249
 10
65.0
 20
200.0
 30
0.0
 40
0.5
 50
0.0
 51
180.0
  0
ARC
  8
0
  6
CONTINUOUS
 62
   249
 10
60.0
 20
230.0
 30
0.0
 40
0.5
 50
180.0
 51
0.0
  0
ARC
  8
0
  6
CONTINUOUS
 62
   249
 10
60.0
 20
230.0
 30
0.0
 40
0.5
 50
0.0
 51
180.0
  0
TEXT
  8
0
  6
CONTINUOUS
 62
   249
 10
46.853328
 20
246.513635
 30
0.0
 40
2.0
  1
+
  0
TEXT
  8
0
  6
CONTINUOUS
 62
   249
 10
54.353328
 20
246.513635
 30
0.0
 40
2.0
  1
+
  0
TEXT
  8
0
  6
CONTINUOUS
 62
   249
 10
61.853328
 20
246.513635
 30
0.0
 40
2.0
  1
+
  0
TEXT
  8
0
  6
CONTINUOUS
 62
   249
 10
59.344763
 20
246.50558
 30
0.0
 40
2.0
  1
-
  0
TEXT
  8
0
  6
CONTINUOUS
 62
   249
 10
66.844763
 20
246.50558
 30
0.0
 40
2.0
  1
-
  0
ARC
  8
0
  6
CONTINUOUS
 62
   249
 10
80.0
 20
200.0
 30
0.0
 40
0.5
 50
180.0
 51
0.0
  0
ARC
  8
0
  6
CONTINUOUS
 62
   249
 10
80.0
 20
200.0
 30
0.0
 40
0.5
 50
0.0
 51
180.0
  0
ARC
  8
0
  6
CONTINUOUS
 62
   249
 10
90.0
 20
200.0
 30
0.0
 40
0.5
 50
180.0
 51
0.0
  0
ARC
  8
0
  6
CONTINUOUS
 62
   249
 10
90.0
 20
200.0
 30
0.0
 40
0.5
 50
0.0
 51
180.0
  0
ARC
  8
0
  6
CONTINUOUS
 62
   249
 10
97.5
 20
200.0
 30
0.0
 40
0.5
 50
180.0
 51
0.0
  0
ARC
  8
0
  6
CONTINUOUS
 62
   249
 10
97.5
 20
200.0
 30
0.0
 40
0.5
 50
0.0
 51
180.0
  0
ARC
  8
0
  6
CONTINUOUS
 62
   249
 10
115.0
 20
200.0
 30
0.0
 40
0.5
 50
180.0
 51
0.0
  0
ARC
  8
0
  6
CONTINUOUS
 62
   249
 10
115.0
 20
200.0
 30
0.0
 40
0.5
 50
0.0
 51
180.0
  0
ARC
  8
0
  6
CONTINUOUS
 62
   249
 10
132.5
 20
195.0
 30
0.0
 40
0.5
 50
180.0
 51
0.0
  0
ARC
  8
0
  6
CONTINUOUS
 62
   249
 10
132.5
 20
195.0
 30
0.0
 40
0.5
 50
0.0
 51
180.0
  0
ARC
  8
0
  6
CONTINUOUS
 62
   249
 10
172.5
 20
172.038541
 30
0.0
 40
0.5
 50
180.0
 51
0.0
  0
ARC
  8
0
  6
CONTINUOUS
 62
   249
 10
172.5
 20
172.038541
 30
0.0
 40
0.5
 50
0.0
 51
180.0
  0
ARC
  8
0
  6
CONTINUOUS
 62
   249
 10
142.5
 20
200.0
 30
0.0
 40
0.5
 50
180.0
 51
0.0
  0
ARC
  8
0
  6
CONTINUOUS
 62
   249
 10
142.5
 20
200.0
 30
0.0
 40
0.5
 50
0.0
 51
180.0
  0
ARC
  8
0
  6
CONTINUOUS
 62
   249
 10
152.5
 20
200.0
 30
0.0
 40
0.5
 50
180.0
 51
0.0
  0
ARC
  8
0
  6
CONTINUOUS
 62
   249
 10
152.5
 20
200.0
 30
0.0
 40
0.5
 50
0.0
 51
180.0
  0
ARC
  8
0
  6
CONTINUOUS
 62
   249
 10
172.5
 20
182.5
 30
0.0
 40
0.5
 50
180.0
 51
0.0
  0
ARC
  8
0
  6
CONTINUOUS
 62
   249
 10
172.5
 20
182.5
 30
0.0
 40
0.5
 50
0.0
 51
180.0
  0
ARC
  8
0
  6
CONTINUOUS
 62
   249
 10
172.5
 20
175.598121
 30
0.0
 40
0.5
 50
180.0
 51
0.0
  0
ARC
  8
0
  6
CONTINUOUS
 62
   249
 10
172.5
 20
175.598121
 30
0.0
 40
0.5
 50
0.0
 51
180.0
  0
ARC
  8
0
  6
CONTINUOUS
 62
   249
 10
172.5
 20
189.449243
 30
0.0
 40
0.5
 50
180.0
 51
0.0
  0
ARC
  8
0
  6
CONTINUOUS
 62
   249
 10
172.5
 20
189.449243
 30
0.0
 40
0.5
 50
0.0
 51
180.0
  0
INSERT
  8
0
  6
CONTINUOUS
 62
   249
  2
BLC29
 10
169.831994
 20
189.320767
 30
0.0
 50
180.0
  0
ARC
  8
0
  6
CONTINUOUS
 62
   249
 10
175.0
 20
210.0
 30
0.0
 40
0.5
 50
180.0
 51
0.0
  0
ARC
  8
0
  6
CONTINUOUS
 62
   249
 10
175.0
 20
210.0
 30
0.0
 40
0.5
 50
0.0
 51
180.0
  0
ARC
  8
0
  6
CONTINUOUS
 62
   249
 10
92.5
 20
230.0
 30
0.0
 40
0.5
 50
180.0
 51
0.0
  0
ARC
  8
0
  6
CONTINUOUS
 62
   249
 10
92.5
 20
230.0
 30
0.0
 40
0.5
 50
0.0
 51
180.0
  0
TEXT
  8
0
  6
CONTINUOUS
 62
   249
 10
79.353328
 20
246.513635
 30
0.0
 40
2.0
  1
+
  0
TEXT
  8
0
  6
CONTINUOUS
 62
   249
 10
86.853328
 20
246.513635
 30
0.0
 40
2.0
  1
+
  0
TEXT
  8
0
  6
CONTINUOUS
 62
   249
 10
91.844763
 20
246.50558
 30
0.0
 40
2.0
  1
-
  0
TEXT
  8
0
  6
CONTINUOUS
 62
   249
 10
94.353328
 20
246.513635
 30
0.0
 40
2.0
  1
+
  0
TEXT
  8
0
  6
CONTINUOUS
 62
   249
 10
99.344763
 20
246.50558
 30
0.0
 40
2.0
  1
-
  0
TEXT
  8
0
  6
CONTINUOUS
 62
   249
 10
111.853328
 20
246.513635
 30
0.0
 40
2.0
  1
+
  0
TEXT
  8
0
  6
CONTINUOUS
 62
   249
 10
116.844763
 20
246.50558
 30
0.0
 40
2.0
  1
-
  0
ARC
  8
0
  6
CONTINUOUS
 62
   249
 10
175.0
 20
220.0
 30
0.0
 40
0.5
 50
180.0
 51
0.0
  0
ARC
  8
0
  6
CONTINUOUS
 62
   249
 10
175.0
 20
220.0
 30
0.0
 40
0.5
 50
0.0
 51
180.0
  0
ARC
  8
0
  6
CONTINUOUS
 62
   249
 10
175.0
 20
225.0
 30
0.0
 40
0.5
 50
180.0
 51
0.0
  0
ARC
  8
0
  6
CONTINUOUS
 62
   249
 10
175.0
 20
225.0
 30
0.0
 40
0.5
 50
0.0
 51
180.0
  0
INSERT
  8
0
  6
CENTER
 62
   249
  2
BLC5
 10
202.791926
 20
45.842005
 30
0.0
 41
0.6
 42
0.6
 43
0.6
  0
LINE
  8
0
 62
   249
 10
211.786248
 20
6.306997
 30
0.0
 11
213.547099
 21
8.067848
 31
0.0
  0
LINE
  8
0
 62
   249
 10
211.852879
 20
6.497372
 30
0.0
 11
213.547099
 21
8.191591
 31
0.0
  0
LINE
  8
0
 62
   249
 10
211.919511
 20
6.687747
 30
0.0
 11
213.547099
 21
8.315335
 31
0.0
  0
LINE
  8
0
 62
   249
 10
211.986142
 20
6.878122
 30
0.0
 11
213.547099
 21
8.439079
 31
0.0
  0
LINE
  8
0
 62
   249
 10
212.052773
 20
7.068497
 30
0.0
 11
213.547099
 21
8.562822
 31
0.0
  0
LINE
  8
0
 62
   249
 10
212.119404
 20
7.258871
 30
0.0
 11
213.547099
 21
8.686566
 31
0.0
  0
LINE
  8
0
 62
   249
 10
212.186036
 20
7.449246
 30
0.0
 11
213.474788
 21
8.737999
 31
0.0
  0
LINE
  8
0
 62
   249
 10
212.252667
 20
7.639621
 30
0.0
 11
213.351045
 21
8.737999
 31
0.0
  0
LINE
  8
0
 62
   249
 10
212.319298
 20
7.829996
 30
0.0
 11
213.227301
 21
8.737999
 31
0.0
  0
LINE
  8
0
 62
   249
 10
212.385929
 20
8.020371
 30
0.0
 11
213.103557
 21
8.737999
 31
0.0
  0
LINE
  8
0
 62
   249
 10
212.45256
 20
8.210746
 30
0.0
 11
212.979814
 21
8.737999
 31
0.0
  0
LINE
  8
0
 62
   249
 10
212.519192
 20
8.401121
 30
0.0
 11
212.85607
 21
8.737999
 31
0.0
  0
LINE
  8
0
 62
   249
 10
212.585823
 20
8.591496
 30
0.0
 11
212.732326
 21
8.737999
 31
0.0
  0
LINE
  8
0
 62
   249
 10
211.719617
 20
6.116622
 30
0.0
 11
213.547099
 21
7.944104
 31
0.0
  0
LINE
  8
0
 62
   249
 10
211.652986
 20
5.926247
 30
0.0
 11
213.547099
 21
7.82036
 31
0.0
  0
LINE
  8
0
 62
   249
 10
211.586355
 20
5.735872
 30
0.0
 11
213.547099
 21
7.696617
 31
0.0
  0
LINE
  8
0
 62
   249
 10
211.519723
 20
5.545497
 30
0.0
 11
213.547099
 21
7.572873
 31
0.0
  0
LINE
  8
0
 62
   249
 10
211.475969
 20
5.377999
 30
0.0
 11
213.547099
 21
7.449129
 31
0.0
  0
LINE
  8
0
 62
   249
 10
211.599713
 20
5.377999
 30
0.0
 11
213.547099
 21
7.325386
 31
0.0
  0
LINE
  8
0
 62
   249
 10
211.723456
 20
5.377999
 30
0.0
 11
213.547099
 21
7.201642
 31
0.0
  0
LINE
  8
0
 62
   249
 10
211.8472
 20
5.377999
 30
0.0
 11
213.547099
 21
7.077898
 31
0.0
  0
LINE
  8
0
 62
   249
 10
211.970944
 20
5.377999
 30
0.0
 11
213.547099
 21
6.954155
 31
0.0
  0
LINE
  8
0
 62
   249
 10
212.094687
 20
5.377999
 30
0.0
 11
213.547099
 21
6.830411
 31
0.0
  0
LINE
  8
0
 62
   249
 10
212.218431
 20
5.377999
 30
0.0
 11
213.547099
 21
6.706667
 31
0.0
  0
LINE
  8
0
 62
   249
 10
212.342175
 20
5.377999
 30
0.0
 11
213.547099
 21
6.582923
 31
0.0
  0
LINE
  8
0
 62
   249
 10
212.465919
 20
5.377999
 30
0.0
 11
213.547099
 21
6.45918
 31
0.0
  0
LINE
  8
0
 62
   249
 10
212.589662
 20
5.377999
 30
0.0
 11
213.547099
 21
6.335436
 31
0.0
  0
LINE
  8
0
 62
   249
 10
212.713406
 20
5.377999
 30
0.0
 11
213.547099
 21
6.211692
 31
0.0
  0
LINE
  8
0
 62
   249
 10
212.83715
 20
5.377999
 30
0.0
 11
213.547099
 21
6.087949
 31
0.0
  0
LINE
  8
0
 62
   249
 10
212.960893
 20
5.377999
 30
0.0
 11
213.547099
 21
5.964205
 31
0.0
  0
LINE
  8
0
 62
   249
 10
213.084637
 20
5.377999
 30
0.0
 11
213.547099
 21
5.840461
 31
0.0
  0
LINE
  8
0
 62
   249
 10
213.208381
 20
5.377999
 30
0.0
 11
213.547099
 21
5.716718
 31
0.0
  0
LINE
  8
0
 62
   249
 10
213.332124
 20
5.377999
 30
0.0
 11
213.547099
 21
5.592974
 31
0.0
  0
LINE
  8
0
 62
   249
 10
213.455868
 20
5.377999
 30
0.0
 11
213.547099
 21
5.46923
 31
0.0
  0
LINE
  8
0
 62
   249
 10
213.827099
 20
5.996718
 30
0.0
 11
215.211876
 21
7.381494
 31
0.0
  0
LINE
  8
0
 62
   249
 10
213.827099
 20
6.120461
 30
0.0
 11
215.179794
 21
7.473156
 31
0.0
  0
LINE
  8
0
 62
   249
 10
213.827099
 20
6.244205
 30
0.0
 11
215.147712
 21
7.564818
 31
0.0
  0
LINE
  8
0
 62
   249
 10
213.827099
 20
6.367949
 30
0.0
 11
215.115631
 21
7.65648
 31
0.0
  0
LINE
  8
0
 62
   249
 10
213.827099
 20
6.491692
 30
0.0
 11
215.083549
 21
7.748142
 31
0.0
  0
LINE
  8
0
 62
   249
 10
213.827099
 20
6.615436
 30
0.0
 11
215.051467
 21
7.839804
 31
0.0
  0
LINE
  8
0
 62
   249
 10
213.827099
 20
6.73918
 30
0.0
 11
215.019386
 21
7.931466
 31
0.0
  0
LINE
  8
0
 62
   249
 10
213.827099
 20
6.862923
 30
0.0
 11
214.987304
 21
8.023128
 31
0.0
  0
LINE
  8
0
 62
   249
 10
213.827099
 20
6.986667
 30
0.0
 11
214.955222
 21
8.11479
 31
0.0
  0
LINE
  8
0
 62
   249
 10
213.827099
 20
7.110411
 30
0.0
 11
214.923141
 21
8.206452
 31
0.0
  0
LINE
  8
0
 62
   249
 10
213.827099
 20
7.234155
 30
0.0
 11
214.891059
 21
8.298114
 31
0.0
  0
LINE
  8
0
 62
   249
 10
213.827099
 20
7.357898
 30
0.0
 11
214.858977
 21
8.389776
 31
0.0
  0
LINE
  8
0
 62
   249
 10
213.827099
 20
7.481642
 30
0.0
 11
214.826895
 21
8.481438
 31
0.0
  0
LINE
  8
0
 62
   249
 10
213.827099
 20
7.605386
 30
0.0
 11
214.794814
 21
8.5731
 31
0.0
  0
LINE
  8
0
 62
   249
 10
213.827099
 20
7.729129
 30
0.0
 11
214.762732
 21
8.664762
 31
0.0
  0
LINE
  8
0
 62
   249
 10
213.827099
 20
7.852873
 30
0.0
 11
214.712225
 21
8.737999
 31
0.0
  0
LINE
  8
0
 62
   249
 10
213.827099
 20
7.976617
 30
0.0
 11
214.588482
 21
8.737999
 31
0.0
  0
LINE
  8
0
 62
   249
 10
213.827099
 20
8.10036
 30
0.0
 11
214.464738
 21
8.737999
 31
0.0
  0
LINE
  8
0
 62
   249
 10
213.827099
 20
8.224104
 30
0.0
 11
214.340994
 21
8.737999
 31
0.0
  0
LINE
  8
0
 62
   249
 10
213.827099
 20
8.347848
 30
0.0
 11
214.217251
 21
8.737999
 31
0.0
  0
LINE
  8
0
 62
   249
 10
213.827099
 20
8.471591
 30
0.0
 11
214.093507
 21
8.737999
 31
0.0
  0
LINE
  8
0
 62
   249
 10
213.827099
 20
8.595335
 30
0.0
 11
213.969763
 21
8.737999
 31
0.0
  0
LINE
  8
0
 62
   249
 10
213.827099
 20
8.719079
 30
0.0
 11
213.84602
 21
8.737999
 31
0.0
  0
LINE
  8
0
 62
   249
 10
213.827099
 20
5.872974
 30
0.0
 11
215.243957
 21
7.289832
 31
0.0
  0
LINE
  8
0
 62
   249
 10
213.827099
 20
5.74923
 30
0.0
 11
215.276039
 21
7.19817
 31
0.0
  0
LINE
  8
0
 62
   249
 10
213.827099
 20
5.625487
 30
0.0
 11
215.308121
 21
7.106508
 31
0.0
  0
LINE
  8
0
 62
   249
 10
213.827099
 20
5.501743
 30
0.0
 11
215.340203
 21
7.014846
 31
0.0
  0
LINE
  8
0
 62
   249
 10
213.827099
 20
5.377999
 30
0.0
 11
215.372284
 21
6.923184
 31
0.0
  0
LINE
  8
0
 62
   249
 10
213.950843
 20
5.377999
 30
0.0
 11
215.404366
 21
6.831522
 31
0.0
  0
LINE
  8
0
 62
   249
 10
214.074586
 20
5.377999
 30
0.0
 11
215.436448
 21
6.73986
 31
0.0
  0
LINE
  8
0
 62
   249
 10
214.19833
 20
5.377999
 30
0.0
 11
215.468529
 21
6.648198
 31
0.0
  0
LINE
  8
0
 62
   249
 10
214.322074
 20
5.377999
 30
0.0
 11
215.500611
 21
6.556536
 31
0.0
  0
LINE
  8
0
 62
   249
 10
214.445818
 20
5.377999
 30
0.0
 11
215.532693
 21
6.464874
 31
0.0
  0
LINE
  8
0
 62
   249
 10
214.569561
 20
5.377999
 30
0.0
 11
215.564774
 21
6.373212
 31
0.0
  0
LINE
  8
0
 62
   249
 10
214.693305
 20
5.377999
 30
0.0
 11
215.596856
 21
6.281551
 31
0.0
  0
LINE
  8
0
 62
   249
 10
214.817049
 20
5.377999
 30
0.0
 11
215.628938
 21
6.189889
 31
0.0
  0
LINE
  8
0
 62
   249
 10
214.940792
 20
5.377999
 30
0.0
 11
215.66102
 21
6.098227
 31
0.0
  0
LINE
  8
0
 62
   249
 10
215.064536
 20
5.377999
 30
0.0
 11
215.693101
 21
6.006565
 31
0.0
  0
LINE
  8
0
 62
   249
 10
215.18828
 20
5.377999
 30
0.0
 11
215.725183
 21
5.914903
 31
0.0
  0
LINE
  8
0
 62
   249
 10
215.312023
 20
5.377999
 30
0.0
 11
215.757265
 21
5.823241
 31
0.0
  0
LINE
  8
0
 62
   249
 10
215.435767
 20
5.377999
 30
0.0
 11
215.789346
 21
5.731579
 31
0.0
  0
LINE
  8
0
 62
   249
 10
215.559511
 20
5.377999
 30
0.0
 11
215.821428
 21
5.639917
 31
0.0
  0
LINE
  8
0
 62
   249
 10
215.683254
 20
5.377999
 30
0.0
 11
215.85351
 21
5.548255
 31
0.0
  0
LINE
  8
0
 62
   249
 10
215.806998
 20
5.377999
 30
0.0
 11
215.885591
 21
5.456593
 31
0.0
  0
LINE
  8
0
 62
   249
 10
217.677099
 20
6.134407
 30
0.0
 11
219.637099
 21
8.094407
 31
0.0
  0
LINE
  8
0
 62
   249
 10
217.677099
 20
6.258151
 30
0.0
 11
219.637099
 21
8.218151
 31
0.0
  0
LINE
  8
0
 62
   249
 10
217.677099
 20
6.381894
 30
0.0
 11
219.637099
 21
8.341894
 31
0.0
  0
LINE
  8
0
 62
   249
 10
217.677099
 20
6.505638
 30
0.0
 11
219.637099
 21
8.465638
 31
0.0
  0
LINE
  8
0
 62
   249
 10
217.677099
 20
6.629382
 30
0.0
 11
219.637099
 21
8.589382
 31
0.0
  0
LINE
  8
0
 62
   249
 10
217.677099
 20
6.753126
 30
0.0
 11
219.637099
 21
8.713126
 31
0.0
  0
LINE
  8
0
 62
   249
 10
217.677099
 20
6.876869
 30
0.0
 11
219.538229
 21
8.737999
 31
0.0
  0
LINE
  8
0
 62
   249
 10
217.677099
 20
7.000613
 30
0.0
 11
219.414485
 21
8.737999
 31
0.0
  0
LINE
  8
0
 62
   249
 10
217.677099
 20
7.124357
 30
0.0
 11
219.290742
 21
8.737999
 31
0.0
  0
LINE
  8
0
 62
   249
 10
217.677099
 20
7.2481
 30
0.0
 11
219.166998
 21
8.737999
 31
0.0
  0
LINE
  8
0
 62
   249
 10
217.677099
 20
7.371844
 30
0.0
 11
219.043254
 21
8.737999
 31
0.0
  0
LINE
  8
0
 62
   249
 10
217.677099
 20
7.495588
 30
0.0
 11
218.919511
 21
8.737999
 31
0.0
  0
LINE
  8
0
 62
   249
 10
217.677099
 20
7.619331
 30
0.0
 11
218.795767
 21
8.737999
 31
0.0
  0
LINE
  8
0
 62
   249
 10
217.677099
 20
7.743075
 30
0.0
 11
218.672023
 21
8.737999
 31
0.0
  0
LINE
  8
0
 62
   249
 10
217.677099
 20
7.866819
 30
0.0
 11
218.54828
 21
8.737999
 31
0.0
  0
LINE
  8
0
 62
   249
 10
217.677099
 20
7.990562
 30
0.0
 11
218.424536
 21
8.737999
 31
0.0
  0
LINE
  8
0
 62
   249
 10
217.677099
 20
8.114306
 30
0.0
 11
218.300792
 21
8.737999
 31
0.0
  0
LINE
  8
0
 62
   249
 10
217.677099
 20
8.23805
 30
0.0
 11
218.177049
 21
8.737999
 31
0.0
  0
LINE
  8
0
 62
   249
 10
217.677099
 20
8.361793
 30
0.0
 11
218.053305
 21
8.737999
 31
0.0
  0
LINE
  8
0
 62
   249
 10
217.677099
 20
8.485537
 30
0.0
 11
217.929561
 21
8.737999
 31
0.0
  0
LINE
  8
0
 62
   249
 10
217.677099
 20
8.609281
 30
0.0
 11
217.805818
 21
8.737999
 31
0.0
  0
LINE
  8
0
 62
   249
 10
217.677099
 20
8.733025
 30
0.0
 11
217.682074
 21
8.737999
 31
0.0
  0
LINE
  8
0
 62
   249
 10
217.677099
 20
6.010663
 30
0.0
 11
219.637099
 21
7.970663
 31
0.0
  0
LINE
  8
0
 62
   249
 10
217.677099
 20
5.88692
 30
0.0
 11
219.637099
 21
7.84692
 31
0.0
  0
LINE
  8
0
 62
   249
 10
217.677099
 20
5.763176
 30
0.0
 11
219.637099
 21
7.723176
 31
0.0
  0
LINE
  8
0
 62
   249
 10
217.677099
 20
5.639432
 30
0.0
 11
219.637099
 21
7.599432
 31
0.0
  0
LINE
  8
0
 62
   249
 10
217.677099
 20
5.515689
 30
0.0
 11
219.637099
 21
7.475689
 31
0.0
  0
LINE
  8
0
 62
   249
 10
217.677099
 20
5.391945
 30
0.0
 11
219.637099
 21
7.351945
 31
0.0
  0
LINE
  8
0
 62
   249
 10
217.786897
 20
5.377999
 30
0.0
 11
219.637099
 21
7.228201
 31
0.0
  0
LINE
  8
0
 62
   249
 10
217.910641
 20
5.377999
 30
0.0
 11
219.637099
 21
7.104458
 31
0.0
  0
LINE
  8
0
 62
   249
 10
218.034384
 20
5.377999
 30
0.0
 11
219.637099
 21
6.980714
 31
0.0
  0
LINE
  8
0
 62
   249
 10
218.158128
 20
5.377999
 30
0.0
 11
219.637099
 21
6.85697
 31
0.0
  0
LINE
  8
0
 62
   249
 10
218.281872
 20
5.377999
 30
0.0
 11
219.637099
 21
6.733227
 31
0.0
  0
LINE
  8
0
 62
   249
 10
218.405615
 20
5.377999
 30
0.0
 11
219.637099
 21
6.609483
 31
0.0
  0
LINE
  8
0
 62
   249
 10
218.529359
 20
5.377999
 30
0.0
 11
219.637099
 21
6.485739
 31
0.0
  0
LINE
  8
0
 62
   249
 10
218.653103
 20
5.377999
 30
0.0
 11
219.637099
 21
6.361995
 31
0.0
  0
LINE
  8
0
 62
   249
 10
218.776847
 20
5.377999
 30
0.0
 11
219.637099
 21
6.238252
 31
0.0
  0
LINE
  8
0
 62
   249
 10
218.90059
 20
5.377999
 30
0.0
 11
219.637099
 21
6.114508
 31
0.0
  0
LINE
  8
0
 62
   249
 10
219.024334
 20
5.377999
 30
0.0
 11
219.637099
 21
5.990764
 31
0.0
  0
LINE
  8
0
 62
   249
 10
219.148078
 20
5.377999
 30
0.0
 11
219.637099
 21
5.867021
 31
0.0
  0
LINE
  8
0
 62
   249
 10
219.271821
 20
5.377999
 30
0.0
 11
219.637099
 21
5.743277
 31
0.0
  0
LINE
  8
0
 62
   249
 10
219.395565
 20
5.377999
 30
0.0
 11
219.637099
 21
5.619533
 31
0.0
  0
LINE
  8
0
 62
   249
 10
219.519309
 20
5.377999
 30
0.0
 11
219.637099
 21
5.49579
 31
0.0
  0
LINE
  8
0
 62
   249
 10
219.917099
 20
6.147021
 30
0.0
 11
221.795195
 21
8.025117
 31
0.0
  0
LINE
  8
0
 62
   249
 10
219.917099
 20
6.270764
 30
0.0
 11
221.744451
 21
8.098116
 31
0.0
  0
LINE
  8
0
 62
   249
 10
219.917099
 20
6.394508
 30
0.0
 11
221.690148
 21
8.167557
 31
0.0
  0
LINE
  8
0
 62
   249
 10
219.917099
 20
6.518252
 30
0.0
 11
221.63236
 21
8.233512
 31
0.0
  0
LINE
  8
0
 62
   249
 10
219.917099
 20
6.641995
 30
0.0
 11
221.571123
 21
8.29602
 31
0.0
  0
LINE
  8
0
 62
   249
 10
219.917099
 20
6.765739
 30
0.0
 11
221.506446
 21
8.355086
 31
0.0
  0
LINE
  8
0
 62
   249
 10
219.917099
 20
6.889483
 30
0.0
 11
221.4383
 21
8.410684
 31
0.0
  0
LINE
  8
0
 62
   249
 10
219.917099
 20
7.013227
 30
0.0
 11
221.366627
 21
8.462755
 31
0.0
  0
LINE
  8
0
 62
   249
 10
219.917099
 20
7.13697
 30
0.0
 11
221.291331
 21
8.511202
 31
0.0
  0
LINE
  8
0
 62
   249
 10
219.917099
 20
7.260714
 30
0.0
 11
221.212274
 21
8.555889
 31
0.0
  0
LINE
  8
0
 62
   249
 10
219.917099
 20
7.384458
 30
0.0
 11
221.129271
 21
8.59663
 31
0.0
  0
LINE
  8
0
 62
   249
 10
219.917099
 20
7.508201
 30
0.0
 11
221.042076
 21
8.633178
 31
0.0
  0
LINE
  8
0
 62
   249
 10
219.917099
 20
7.631945
 30
0.0
 11
220.950366
 21
8.665212
 31
0.0
  0
LINE
  8
0
 62
   249
 10
219.917099
 20
7.755689
 30
0.0
 11
220.853718
 21
8.692307
 31
0.0
  0
LINE
  8
0
 62
   249
 10
219.917099
 20
7.879432
 30
0.0
 11
220.751567
 21
8.7139
 31
0.0
  0
LINE
  8
0
 62
   249
 10
219.917099
 20
8.003176
 30
0.0
 11
220.643145
 21
8.729222
 31
0.0
  0
LINE
  8
0
 62
   249
 10
219.917099
 20
8.12692
 30
0.0
 11
220.527376
 21
8.737197
 31
0.0
  0
LINE
  8
0
 62
   249
 10
219.917099
 20
8.250663
 30
0.0
 11
220.404434
 21
8.737999
 31
0.0
  0
LINE
  8
0
 62
   249
 10
219.917099
 20
8.374407
 30
0.0
 11
220.280691
 21
8.737999
 31
0.0
  0
LINE
  8
0
 62
   249
 10
219.917099
 20
8.498151
 30
0.0
 11
220.156947
 21
8.737999
 31
0.0
  0
LINE
  8
0
 62
   249
 10
219.917099
 20
8.621894
 30
0.0
 11
220.033204
 21
8.737999
 31
0.0
  0
LINE
  8
0
 62
   249
 10
219.917099
 20
6.023277
 30
0.0
 11
221.842271
 21
7.948449
 31
0.0
  0
LINE
  8
0
 62
   249
 10
219.917099
 20
5.899533
 30
0.0
 11
221.885523
 21
7.867958
 31
0.0
  0
LINE
  8
0
 62
   249
 10
219.917099
 20
5.77579
 30
0.0
 11
221.924746
 21
7.783437
 31
0.0
  0
LINE
  8
0
 62
   249
 10
219.917099
 20
5.652046
 30
0.0
 11
221.959668
 21
7.694615
 31
0.0
  0
LINE
  8
0
 62
   249
 10
219.917099
 20
5.528302
 30
0.0
 11
221.989932
 21
7.601135
 31
0.0
  0
LINE
  8
0
 62
   249
 10
219.917099
 20
5.404559
 30
0.0
 11
222.015067
 21
7.502527
 31
0.0
  0
LINE
  8
0
 62
   249
 10
220.014283
 20
5.377999
 30
0.0
 11
222.034444
 21
7.39816
 31
0.0
  0
LINE
  8
0
 62
   249
 10
220.138027
 20
5.377999
 30
0.0
 11
222.047197
 21
7.287169
 31
0.0
  0
LINE
  8
0
 62
   249
 10
220.261771
 20
5.377999
 30
0.0
 11
222.05209
 21
7.168319
 31
0.0
  0
LINE
  8
0
 62
   249
 10
220.385514
 20
5.377999
 30
0.0
 11
222.04727
 21
7.039754
 31
0.0
  0
LINE
  8
0
 62
   249
 10
220.509258
 20
5.377999
 30
0.0
 11
222.029725
 21
6.898466
 31
0.0
  0
LINE
  8
0
 62
   249
 10
220.633002
 20
5.377999
 30
0.0
 11
221.993936
 21
6.738933
 31
0.0
  0
LINE
  8
0
 62
   249
 10
220.756746
 20
5.377999
 30
0.0
 11
221.927299
 21
6.548553
 31
0.0
  0
LINE
  8
0
 62
   249
 10
220.880489
 20
5.377999
 30
0.0
 11
221.280665
 21
5.778175
 31
0.0
  0
LINE
  8
0
 62
   249
 10
221.36381
 20
5.86132
 30
0.0
 11
221.778778
 21
6.276288
 31
0.0
  0
LINE
  8
0
 62
   249
 10
221.004233
 20
5.377999
 30
0.0
 11
221.366562
 21
5.740328
 31
0.0
  0
LINE
  8
0
 62
   249
 10
221.127977
 20
5.377999
 30
0.0
 11
221.449353
 21
5.699376
 31
0.0
  0
LINE
  8
0
 62
   249
 10
221.25172
 20
5.377999
 30
0.0
 11
221.529174
 21
5.655453
 31
0.0
  0
LINE
  8
0
 62
   249
 10
221.375464
 20
5.377999
 30
0.0
 11
221.606135
 21
5.608671
 31
0.0
  0
LINE
  8
0
 62
   249
 10
221.499208
 20
5.377999
 30
0.0
 11
221.680325
 21
5.559117
 31
0.0
  0
LINE
  8
0
 62
   249
 10
221.622951
 20
5.377999
 30
0.0
 11
221.751814
 21
5.506862
 31
0.0
  0
LINE
  8
0
 62
   249
 10
221.746695
 20
5.377999
 30
0.0
 11
221.820653
 21
5.451958
 31
0.0
  0
LINE
  8
0
 62
   249
 10
221.870439
 20
5.377999
 30
0.0
 11
221.886881
 21
5.394442
 31
0.0
  0
LINE
  8
0
 62
   249
 10
225.377099
 20
6.147021
 30
0.0
 11
227.255195
 21
8.025117
 31
0.0
  0
LINE
  8
0
 62
   249
 10
225.377099
 20
6.270764
 30
0.0
 11
227.204451
 21
8.098116
 31
0.0
  0
LINE
  8
0
 62
   249
 10
225.377099
 20
6.394508
 30
0.0
 11
227.150148
 21
8.167557
 31
0.0
  0
LINE
  8
0
 62
   249
 10
225.377099
 20
6.518252
 30
0.0
 11
227.09236
 21
8.233512
 31
0.0
  0
LINE
  8
0
 62
   249
 10
225.377099
 20
6.641995
 30
0.0
 11
227.031123
 21
8.29602
 31
0.0
  0
LINE
  8
0
 62
   249
 10
225.377099
 20
6.765739
 30
0.0
 11
226.966446
 21
8.355086
 31
0.0
  0
LINE
  8
0
 62
   249
 10
225.377099
 20
6.889483
 30
0.0
 11
226.8983
 21
8.410684
 31
0.0
  0
LINE
  8
0
 62
   249
 10
225.377099
 20
7.013227
 30
0.0
 11
226.826627
 21
8.462755
 31
0.0
  0
LINE
  8
0
 62
   249
 10
225.377099
 20
7.13697
 30
0.0
 11
226.751331
 21
8.511202
 31
0.0
  0
LINE
  8
0
 62
   249
 10
225.377099
 20
7.260714
 30
0.0
 11
226.672274
 21
8.555889
 31
0.0
  0
LINE
  8
0
 62
   249
 10
225.377099
 20
7.384458
 30
0.0
 11
226.589271
 21
8.59663
 31
0.0
  0
LINE
  8
0
 62
   249
 10
225.377099
 20
7.508201
 30
0.0
 11
226.502076
 21
8.633178
 31
0.0
  0
LINE
  8
0
 62
   249
 10
225.377099
 20
7.631945
 30
0.0
 11
226.410366
 21
8.665212
 31
0.0
  0
LINE
  8
0
 62
   249
 10
225.377099
 20
7.755689
 30
0.0
 11
226.313718
 21
8.692307
 31
0.0
  0
LINE
  8
0
 62
   249
 10
225.377099
 20
7.879432
 30
0.0
 11
226.211567
 21
8.7139
 31
0.0
  0
LINE
  8
0
 62
   249
 10
225.377099
 20
8.003176
 30
0.0
 11
226.103145
 21
8.729222
 31
0.0
  0
LINE
  8
0
 62
   249
 10
225.377099
 20
8.12692
 30
0.0
 11
225.987376
 21
8.737197
 31
0.0
  0
LINE
  8
0
 62
   249
 10
225.377099
 20
8.250663
 30
0.0
 11
225.864434
 21
8.737999
 31
0.0
  0
LINE
  8
0
 62
   249
 10
225.377099
 20
8.374407
 30
0.0
 11
225.740691
 21
8.737999
 31
0.0
  0
LINE
  8
0
 62
   249
 10
225.377099
 20
8.498151
 30
0.0
 11
225.616947
 21
8.737999
 31
0.0
  0
LINE
  8
0
 62
   249
 10
225.377099
 20
8.621894
 30
0.0
 11
225.493204
 21
8.737999
 31
0.0
  0
LINE
  8
0
 62
   249
 10
225.377099
 20
6.023277
 30
0.0
 11
227.302271
 21
7.948449
 31
0.0
  0
LINE
  8
0
 62
   249
 10
225.377099
 20
5.899533
 30
0.0
 11
227.345523
 21
7.867958
 31
0.0
  0
LINE
  8
0
 62
   249
 10
225.377099
 20
5.77579
 30
0.0
 11
227.384746
 21
7.783437
 31
0.0
  0
LINE
  8
0
 62
   249
 10
225.377099
 20
5.652046
 30
0.0
 11
227.419668
 21
7.694615
 31
0.0
  0
LINE
  8
0
 62
   249
 10
225.377099
 20
5.528302
 30
0.0
 11
227.449932
 21
7.601135
 31
0.0
  0
LINE
  8
0
 62
   249
 10
225.377099
 20
5.404559
 30
0.0
 11
227.475067
 21
7.502527
 31
0.0
  0
LINE
  8
0
 62
   249
 10
225.474283
 20
5.377999
 30
0.0
 11
227.494444
 21
7.39816
 31
0.0
  0
LINE
  8
0
 62
   249
 10
225.598027
 20
5.377999
 30
0.0
 11
227.507197
 21
7.287169
 31
0.0
  0
LINE
  8
0
 62
   249
 10
225.721771
 20
5.377999
 30
0.0
 11
227.51209
 21
7.168319
 31
0.0
  0
LINE
  8
0
 62
   249
 10
225.845514
 20
5.377999
 30
0.0
 11
227.50727
 21
7.039754
 31
0.0
  0
LINE
  8
0
 62
   249
 10
225.969258
 20
5.377999
 30
0.0
 11
227.489725
 21
6.898466
 31
0.0
  0
LINE
  8
0
 62
   249
 10
226.093002
 20
5.377999
 30
0.0
 11
227.453936
 21
6.738933
 31
0.0
  0
LINE
  8
0
 62
   249
 10
226.216746
 20
5.377999
 30
0.0
 11
227.387299
 21
6.548553
 31
0.0
  0
LINE
  8
0
 62
   249
 10
226.340489
 20
5.377999
 30
0.0
 11
226.740665
 21
5.778175
 31
0.0
  0
LINE
  8
0
 62
   249
 10
226.82381
 20
5.86132
 30
0.0
 11
227.238778
 21
6.276288
 31
0.0
  0
LINE
  8
0
 62
   249
 10
226.464233
 20
5.377999
 30
0.0
 11
226.826562
 21
5.740328
 31
0.0
  0
LINE
  8
0
 62
   249
 10
226.587977
 20
5.377999
 30
0.0
 11
226.909353
 21
5.699376
 31
0.0
  0
LINE
  8
0
 62
   249
 10
226.71172
 20
5.377999
 30
0.0
 11
226.989174
 21
5.655453
 31
0.0
  0
LINE
  8
0
 62
   249
 10
226.835464
 20
5.377999
 30
0.0
 11
227.066135
 21
5.608671
 31
0.0
  0
LINE
  8
0
 62
   249
 10
226.959208
 20
5.377999
 30
0.0
 11
227.140325
 21
5.559117
 31
0.0
  0
LINE
  8
0
 62
   249
 10
227.082951
 20
5.377999
 30
0.0
 11
227.211814
 21
5.506862
 31
0.0
  0
LINE
  8
0
 62
   249
 10
227.206695
 20
5.377999
 30
0.0
 11
227.280653
 21
5.451958
 31
0.0
  0
LINE
  8
0
 62
   249
 10
227.330439
 20
5.377999
 30
0.0
 11
227.346881
 21
5.394442
 31
0.0
  0
LINE
  8
0
 62
   249
 10
223.137099
 20
6.134407
 30
0.0
 11
225.097099
 21
8.094407
 31
0.0
  0
LINE
  8
0
 62
   249
 10
223.137099
 20
6.258151
 30
0.0
 11
225.097099
 21
8.218151
 31
0.0
  0
LINE
  8
0
 62
   249
 10
223.137099
 20
6.381894
 30
0.0
 11
225.097099
 21
8.341894
 31
0.0
  0
LINE
  8
0
 62
   249
 10
223.137099
 20
6.505638
 30
0.0
 11
225.097099
 21
8.465638
 31
0.0
  0
LINE
  8
0
 62
   249
 10
223.137099
 20
6.629382
 30
0.0
 11
225.097099
 21
8.589382
 31
0.0
  0
LINE
  8
0
 62
   249
 10
223.137099
 20
6.753126
 30
0.0
 11
225.097099
 21
8.713126
 31
0.0
  0
LINE
  8
0
 62
   249
 10
223.137099
 20
6.876869
 30
0.0
 11
224.998229
 21
8.737999
 31
0.0
  0
LINE
  8
0
 62
   249
 10
223.137099
 20
7.000613
 30
0.0
 11
224.874485
 21
8.737999
 31
0.0
  0
LINE
  8
0
 62
   249
 10
223.137099
 20
7.124357
 30
0.0
 11
224.750742
 21
8.737999
 31
0.0
  0
LINE
  8
0
 62
   249
 10
223.137099
 20
7.2481
 30
0.0
 11
224.626998
 21
8.737999
 31
0.0
  0
LINE
  8
0
 62
   249
 10
223.137099
 20
7.371844
 30
0.0
 11
224.503254
 21
8.737999
 31
0.0
  0
LINE
  8
0
 62
   249
 10
223.137099
 20
7.495588
 30
0.0
 11
224.379511
 21
8.737999
 31
0.0
  0
LINE
  8
0
 62
   249
 10
223.137099
 20
7.619331
 30
0.0
 11
224.255767
 21
8.737999
 31
0.0
  0
LINE
  8
0
 62
   249
 10
223.137099
 20
7.743075
 30
0.0
 11
224.132023
 21
8.737999
 31
0.0
  0
LINE
  8
0
 62
   249
 10
223.137099
 20
7.866819
 30
0.0
 11
224.00828
 21
8.737999
 31
0.0
  0
LINE
  8
0
 62
   249
 10
223.137099
 20
7.990562
 30
0.0
 11
223.884536
 21
8.737999
 31
0.0
  0
LINE
  8
0
 62
   249
 10
223.137099
 20
8.114306
 30
0.0
 11
223.760792
 21
8.737999
 31
0.0
  0
LINE
  8
0
 62
   249
 10
223.137099
 20
8.23805
 30
0.0
 11
223.637049
 21
8.737999
 31
0.0
  0
LINE
  8
0
 62
   249
 10
223.137099
 20
8.361793
 30
0.0
 11
223.513305
 21
8.737999
 31
0.0
  0
LINE
  8
0
 62
   249
 10
223.137099
 20
8.485537
 30
0.0
 11
223.389561
 21
8.737999
 31
0.0
  0
LINE
  8
0
 62
   249
 10
223.137099
 20
8.609281
 30
0.0
 11
223.265818
 21
8.737999
 31
0.0
  0
LINE
  8
0
 62
   249
 10
223.137099
 20
8.733025
 30
0.0
 11
223.142074
 21
8.737999
 31
0.0
  0
LINE
  8
0
 62
   249
 10
223.137099
 20
6.010663
 30
0.0
 11
225.097099
 21
7.970663
 31
0.0
  0
LINE
  8
0
 62
   249
 10
223.137099
 20
5.88692
 30
0.0
 11
225.097099
 21
7.84692
 31
0.0
  0
LINE
  8
0
 62
   249
 10
223.137099
 20
5.763176
 30
0.0
 11
225.097099
 21
7.723176
 31
0.0
  0
LINE
  8
0
 62
   249
 10
223.137099
 20
5.639432
 30
0.0
 11
225.097099
 21
7.599432
 31
0.0
  0
LINE
  8
0
 62
   249
 10
223.137099
 20
5.515689
 30
0.0
 11
225.097099
 21
7.475689
 31
0.0
  0
LINE
  8
0
 62
   249
 10
223.137099
 20
5.391945
 30
0.0
 11
225.097099
 21
7.351945
 31
0.0
  0
LINE
  8
0
 62
   249
 10
223.246897
 20
5.377999
 30
0.0
 11
225.097099
 21
7.228201
 31
0.0
  0
LINE
  8
0
 62
   249
 10
223.370641
 20
5.377999
 30
0.0
 11
225.097099
 21
7.104458
 31
0.0
  0
LINE
  8
0
 62
   249
 10
223.494384
 20
5.377999
 30
0.0
 11
225.097099
 21
6.980714
 31
0.0
  0
LINE
  8
0
 62
   249
 10
223.618128
 20
5.377999
 30
0.0
 11
225.097099
 21
6.85697
 31
0.0
  0
LINE
  8
0
 62
   249
 10
223.741872
 20
5.377999
 30
0.0
 11
225.097099
 21
6.733227
 31
0.0
  0
LINE
  8
0
 62
   249
 10
223.865615
 20
5.377999
 30
0.0
 11
225.097099
 21
6.609483
 31
0.0
  0
LINE
  8
0
 62
   249
 10
223.989359
 20
5.377999
 30
0.0
 11
225.097099
 21
6.485739
 31
0.0
  0
LINE
  8
0
 62
   249
 10
224.113103
 20
5.377999
 30
0.0
 11
225.097099
 21
6.361995
 31
0.0
  0
LINE
  8
0
 62
   249
 10
224.236847
 20
5.377999
 30
0.0
 11
225.097099
 21
6.238252
 31
0.0
  0
LINE
  8
0
 62
   249
 10
224.36059
 20
5.377999
 30
0.0
 11
225.097099
 21
6.114508
 31
0.0
  0
LINE
  8
0
 62
   249
 10
224.484334
 20
5.377999
 30
0.0
 11
225.097099
 21
5.990764
 31
0.0
  0
LINE
  8
0
 62
   249
 10
224.608078
 20
5.377999
 30
0.0
 11
225.097099
 21
5.867021
 31
0.0
  0
LINE
  8
0
 62
   249
 10
224.731821
 20
5.377999
 30
0.0
 11
225.097099
 21
5.743277
 31
0.0
  0
LINE
  8
0
 62
   249
 10
224.855565
 20
5.377999
 30
0.0
 11
225.097099
 21
5.619533
 31
0.0
  0
LINE
  8
0
 62
   249
 10
224.979309
 20
5.377999
 30
0.0
 11
225.097099
 21
5.49579
 31
0.0
  0
LINE
  8
0
 62
   249
 10
225.377099
 20
2.310966
 30
0.0
 11
227.824614
 21
4.758481
 31
0.0
  0
LINE
  8
0
 62
   249
 10
225.377099
 20
2.43471
 30
0.0
 11
227.782547
 21
4.840158
 31
0.0
  0
LINE
  8
0
 62
   249
 10
225.377099
 20
2.558454
 30
0.0
 11
227.737553
 21
4.918908
 31
0.0
  0
LINE
  8
0
 62
   249
 10
225.377099
 20
2.682197
 30
0.0
 11
227.689735
 21
4.994834
 31
0.0
  0
LINE
  8
0
 62
   249
 10
225.377099
 20
2.805941
 30
0.0
 11
227.639174
 21
5.068016
 31
0.0
  0
LINE
  8
0
 62
   249
 10
225.377099
 20
2.929685
 30
0.0
 11
227.545413
 21
5.097999
 31
0.0
  0
LINE
  8
0
 62
   249
 10
225.377099
 20
3.053429
 30
0.0
 11
227.42167
 21
5.097999
 31
0.0
  0
LINE
  8
0
 62
   249
 10
225.377099
 20
3.177172
 30
0.0
 11
227.297926
 21
5.097999
 31
0.0
  0
LINE
  8
0
 62
   249
 10
225.377099
 20
3.300916
 30
0.0
 11
227.174182
 21
5.097999
 31
0.0
  0
LINE
  8
0
 62
   249
 10
225.377099
 20
3.42466
 30
0.0
 11
227.050439
 21
5.097999
 31
0.0
  0
LINE
  8
0
 62
   249
 10
225.377099
 20
3.548403
 30
0.0
 11
226.926695
 21
5.097999
 31
0.0
  0
LINE
  8
0
 62
   249
 10
225.377099
 20
3.672147
 30
0.0
 11
226.802951
 21
5.097999
 31
0.0
  0
LINE
  8
0
 62
   249
 10
225.377099
 20
3.795891
 30
0.0
 11
226.679208
 21
5.097999
 31
0.0
  0
LINE
  8
0
 62
   249
 10
225.377099
 20
3.919634
 30
0.0
 11
226.555464
 21
5.097999
 31
0.0
  0
LINE
  8
0
 62
   249
 10
225.377099
 20
4.043378
 30
0.0
 11
226.43172
 21
5.097999
 31
0.0
  0
LINE
  8
0
 62
   249
 10
225.377099
 20
4.167122
 30
0.0
 11
226.307977
 21
5.097999
 31
0.0
  0
LINE
  8
0
 62
   249
 10
225.377099
 20
4.290865
 30
0.0
 11
226.184233
 21
5.097999
 31
0.0
  0
LINE
  8
0
 62
   249
 10
225.377099
 20
4.414609
 30
0.0
 11
226.060489
 21
5.097999
 31
0.0
  0
LINE
  8
0
 62
   249
 10
225.377099
 20
4.538353
 30
0.0
 11
225.936746
 21
5.097999
 31
0.0
  0
LINE
  8
0
 62
   249
 10
225.377099
 20
4.662096
 30
0.0
 11
225.813002
 21
5.097999
 31
0.0
  0
LINE
  8
0
 62
   249
 10
225.377099
 20
4.78584
 30
0.0
 11
225.689258
 21
5.097999
 31
0.0
  0
LINE
  8
0
 62
   249
 10
225.377099
 20
4.909584
 30
0.0
 11
225.565514
 21
5.097999
 31
0.0
  0
LINE
  8
0
 62
   249
 10
225.377099
 20
5.033328
 30
0.0
 11
225.441771
 21
5.097999
 31
0.0
  0
LINE
  8
0
 62
   249
 10
225.377099
 20
2.187223
 30
0.0
 11
227.863629
 21
4.673752
 31
0.0
  0
LINE
  8
0
 62
   249
 10
225.377099
 20
2.063479
 30
0.0
 11
227.899437
 21
4.585817
 31
0.0
  0
LINE
  8
0
 62
   249
 10
225.377099
 20
1.939735
 30
0.0
 11
227.931849
 21
4.494485
 31
0.0
  0
LINE
  8
0
 62
   249
 10
225.377099
 20
1.815992
 30
0.0
 11
227.960633
 21
4.399525
 31
0.0
  0
LINE
  8
0
 62
   249
 10
225.42285
 20
1.737999
 30
0.0
 11
227.985502
 21
4.300651
 31
0.0
  0
LINE
  8
0
 62
   249
 10
225.546594
 20
1.738
 30
0.0
 11
228.006098
 21
4.197503
 31
0.0
  0
LINE
  8
0
 62
   249
 10
225.670338
 20
1.738
 30
0.0
 11
228.021969
 21
4.08963
 31
0.0
  0
LINE
  8
0
 62
   249
 10
225.794082
 20
1.738
 30
0.0
 11
228.03253
 21
3.976448
 31
0.0
  0
LINE
  8
0
 62
   249
 10
225.917826
 20
1.738
 30
0.0
 11
228.037011
 21
3.857186
 31
0.0
  0
LINE
  8
0
 62
   249
 10
226.044307
 20
1.740738
 30
0.0
 11
228.034361
 21
3.730791
 31
0.0
  0
LINE
  8
0
 62
   249
 10
226.17933
 20
1.752016
 30
0.0
 11
228.023082
 21
3.595769
 31
0.0
  0
LINE
  8
0
 62
   249
 10
226.325237
 20
1.77418
 30
0.0
 11
228.000918
 21
3.449861
 31
0.0
  0
LINE
  8
0
 62
   249
 10
226.485733
 20
1.810932
 30
0.0
 11
227.964166
 21
3.289366
 31
0.0
  0
LINE
  8
0
 62
   249
 10
226.667749
 20
1.869205
 30
0.0
 11
227.905893
 21
3.107349
 31
0.0
  0
LINE
  8
0
 62
   249
 10
226.887822
 20
1.965534
 30
0.0
 11
227.809564
 21
2.887276
 31
0.0
  0
LINE
  8
0
 62
   249
 10
227.22645
 20
2.180419
 30
0.0
 11
227.59468
 21
2.548648
 31
0.0
  0
LINE
  8
0
 62
   249
 10
210.187099
 20
1.737999
 30
0.0
 11
213.547099
 21
5.097999
 31
0.0
  0
LINE
  8
0
 62
   249
 10
210.25373
 20
1.928374
 30
0.0
 11
213.423355
 21
5.097999
 31
0.0
  0
LINE
  8
0
 62
   249
 10
210.320362
 20
2.118749
 30
0.0
 11
213.299612
 21
5.097999
 31
0.0
  0
LINE
  8
0
 62
   249
 10
210.386993
 20
2.309124
 30
0.0
 11
213.175868
 21
5.097999
 31
0.0
  0
LINE
  8
0
 62
   249
 10
210.453624
 20
2.499499
 30
0.0
 11
213.052124
 21
5.097999
 31
0.0
  0
LINE
  8
0
 62
   249
 10
210.520255
 20
2.689874
 30
0.0
 11
212.928381
 21
5.097999
 31
0.0
  0
LINE
  8
0
 62
   249
 10
210.586886
 20
2.880249
 30
0.0
 11
212.804637
 21
5.097999
 31
0.0
  0
LINE
  8
0
 62
   249
 10
210.653518
 20
3.070624
 30
0.0
 11
212.680893
 21
5.097999
 31
0.0
  0
LINE
  8
0
 62
   249
 10
210.720149
 20
3.260998
 30
0.0
 11
212.55715
 21
5.097999
 31
0.0
  0
LINE
  8
0
 62
   249
 10
210.78678
 20
3.451373
 30
0.0
 11
212.433406
 21
5.097999
 31
0.0
  0
LINE
  8
0
 62
   249
 10
210.853411
 20
3.641748
 30
0.0
 11
212.309662
 21
5.097999
 31
0.0
  0
LINE
  8
0
 62
   249
 10
210.920042
 20
3.832123
 30
0.0
 11
212.185919
 21
5.097999
 31
0.0
  0
LINE
  8
0
 62
   249
 10
210.986674
 20
4.022498
 30
0.0
 11
212.062175
 21
5.097999
 31
0.0
  0
LINE
  8
0
 62
   249
 10
211.053305
 20
4.212873
 30
0.0
 11
211.938431
 21
5.097999
 31
0.0
  0
LINE
  8
0
 62
   249
 10
211.119936
 20
4.403248
 30
0.0
 11
211.814687
 21
5.097999
 31
0.0
  0
LINE
  8
0
 62
   249
 10
211.186567
 20
4.593623
 30
0.0
 11
211.690944
 21
5.097999
 31
0.0
  0
LINE
  8
0
 62
   249
 10
211.253199
 20
4.783998
 30
0.0
 11
211.5672
 21
5.097999
 31
0.0
  0
LINE
  8
0
 62
   249
 10
211.31983
 20
4.974373
 30
0.0
 11
211.443456
 21
5.097999
 31
0.0
  0
LINE
  8
0
 62
   249
 10
210.310843
 20
1.737999
 30
0.0
 11
213.547099
 21
4.974256
 31
0.0
  0
LINE
  8
0
 62
   249
 10
210.434586
 20
1.737999
 30
0.0
 11
213.547099
 21
4.850512
 31
0.0
  0
LINE
  8
0
 62
   249
 10
210.55833
 20
1.737999
 30
0.0
 11
213.547099
 21
4.726768
 31
0.0
  0
LINE
  8
0
 62
   249
 10
210.682074
 20
1.737999
 30
0.0
 11
213.547099
 21
4.603025
 31
0.0
  0
LINE
  8
0
 62
   249
 10
210.805818
 20
1.737999
 30
0.0
 11
213.547099
 21
4.479281
 31
0.0
  0
LINE
  8
0
 62
   249
 10
210.929561
 20
1.737999
 30
0.0
 11
213.547099
 21
4.355537
 31
0.0
  0
LINE
  8
0
 62
   249
 10
211.053305
 20
1.737999
 30
0.0
 11
212.412988
 21
3.097683
 31
0.0
  0
LINE
  8
0
 62
   249
 10
212.453305
 20
3.137999
 30
0.0
 11
213.547099
 21
4.231793
 31
0.0
  0
LINE
  8
0
 62
   249
 10
211.177049
 20
1.737999
 30
0.0
 11
212.346357
 21
2.907308
 31
0.0
  0
LINE
  8
0
 62
   249
 10
212.577049
 20
3.137999
 30
0.0
 11
213.547099
 21
4.10805
 31
0.0
  0
LINE
  8
0
 62
   249
 10
211.300792
 20
1.737999
 30
0.0
 11
212.279726
 21
2.716933
 31
0.0
  0
LINE
  8
0
 62
   249
 10
212.700792
 20
3.137999
 30
0.0
 11
213.547099
 21
3.984306
 31
0.0
  0
LINE
  8
0
 62
   249
 10
211.424536
 20
1.737999
 30
0.0
 11
212.213095
 21
2.526558
 31
0.0
  0
LINE
  8
0
 62
   249
 10
212.824536
 20
3.137999
 30
0.0
 11
213.547099
 21
3.860562
 31
0.0
  0
LINE
  8
0
 62
   249
 10
211.54828
 20
1.737999
 30
0.0
 11
212.146463
 21
2.336183
 31
0.0
  0
LINE
  8
0
 62
   249
 10
212.94828
 20
3.137999
 30
0.0
 11
213.547099
 21
3.736819
 31
0.0
  0
LINE
  8
0
 62
   249
 10
211.672023
 20
1.737999
 30
0.0
 11
212.079832
 21
2.145808
 31
0.0
  0
LINE
  8
0
 62
   249
 10
213.072023
 20
3.137999
 30
0.0
 11
213.547099
 21
3.613075
 31
0.0
  0
LINE
  8
0
 62
   249
 10
211.795767
 20
1.737999
 30
0.0
 11
212.013201
 21
1.955433
 31
0.0
  0
LINE
  8
0
 62
   249
 10
213.195767
 20
3.137999
 30
0.0
 11
213.547099
 21
3.489331
 31
0.0
  0
LINE
  8
0
 62
   249
 10
211.919511
 20
1.737999
 30
0.0
 11
211.94657
 21
1.765058
 31
0.0
  0
LINE
  8
0
 62
   249
 10
213.319511
 20
3.137999
 30
0.0
 11
213.547099
 21
3.365588
 31
0.0
  0
LINE
  8
0
 62
   249
 10
213.443254
 20
3.137999
 30
0.0
 11
213.547099
 21
3.241844
 31
0.0
  0
LINE
  8
0
 62
   249
 10
217.677099
 20
2.54584
 30
0.0
 11
219.637099
 21
4.50584
 31
0.0
  0
LINE
  8
0
 62
   249
 10
217.677099
 20
2.669584
 30
0.0
 11
219.637099
 21
4.629584
 31
0.0
  0
LINE
  8
0
 62
   249
 10
217.677099
 20
2.793328
 30
0.0
 11
219.637099
 21
4.753328
 31
0.0
  0
LINE
  8
0
 62
   249
 10
217.677099
 20
2.917071
 30
0.0
 11
219.637099
 21
4.877071
 31
0.0
  0
LINE
  8
0
 62
   249
 10
217.677099
 20
3.040815
 30
0.0
 11
219.637099
 21
5.000815
 31
0.0
  0
LINE
  8
0
 62
   249
 10
217.677099
 20
3.164559
 30
0.0
 11
219.61054
 21
5.097999
 31
0.0
  0
LINE
  8
0
 62
   249
 10
217.677099
 20
3.288302
 30
0.0
 11
219.486796
 21
5.097999
 31
0.0
  0
LINE
  8
0
 62
   249
 10
217.677099
 20
3.412046
 30
0.0
 11
219.363052
 21
5.097999
 31
0.0
  0
LINE
  8
0
 62
   249
 10
217.677099
 20
3.53579
 30
0.0
 11
219.239309
 21
5.097999
 31
0.0
  0
LINE
  8
0
 62
   249
 10
217.677099
 20
3.659533
 30
0.0
 11
219.115565
 21
5.097999
 31
0.0
  0
LINE
  8
0
 62
   249
 10
217.677099
 20
3.783277
 30
0.0
 11
218.991821
 21
5.097999
 31
0.0
  0
LINE
  8
0
 62
   249
 10
217.677099
 20
3.907021
 30
0.0
 11
218.868078
 21
5.097999
 31
0.0
  0
LINE
  8
0
 62
   249
 10
217.677099
 20
4.030764
 30
0.0
 11
218.744334
 21
5.097999
 31
0.0
  0
LINE
  8
0
 62
   249
 10
217.677099
 20
4.154508
 30
0.0
 11
218.62059
 21
5.097999
 31
0.0
  0
LINE
  8
0
 62
   249
 10
217.677099
 20
4.278252
 30
0.0
 11
218.496847
 21
5.097999
 31
0.0
  0
LINE
  8
0
 62
   249
 10
217.677099
 20
4.401995
 30
0.0
 11
218.373103
 21
5.097999
 31
0.0
  0
LINE
  8
0
 62
   249
 10
217.677099
 20
4.525739
 30
0.0
 11
218.249359
 21
5.097999
 31
0.0
  0
LINE
  8
0
 62
   249
 10
217.677099
 20
4.649483
 30
0.0
 11
218.125615
 21
5.097999
 31
0.0
  0
LINE
  8
0
 62
   249
 10
217.677099
 20
4.773227
 30
0.0
 11
218.001872
 21
5.097999
 31
0.0
  0
LINE
  8
0
 62
   249
 10
217.677099
 20
4.89697
 30
0.0
 11
217.878128
 21
5.097999
 31
0.0
  0
LINE
  8
0
 62
   249
 10
217.677099
 20
5.020714
 30
0.0
 11
217.754384
 21
5.097999
 31
0.0
  0
LINE
  8
0
 62
   249
 10
217.677099
 20
2.422096
 30
0.0
 11
219.637099
 21
4.382096
 31
0.0
  0
LINE
  8
0
 62
   249
 10
217.677099
 20
2.298353
 30
0.0
 11
219.637099
 21
4.258353
 31
0.0
  0
LINE
  8
0
 62
   249
 10
217.677099
 20
2.174609
 30
0.0
 11
219.637099
 21
4.134609
 31
0.0
  0
LINE
  8
0
 62
   249
 10
217.677099
 20
2.050865
 30
0.0
 11
219.637099
 21
4.010865
 31
0.0
  0
LINE
  8
0
 62
   249
 10
217.677099
 20
1.927122
 30
0.0
 11
219.637099
 21
3.887122
 31
0.0
  0
LINE
  8
0
 62
   249
 10
217.677099
 20
1.803378
 30
0.0
 11
219.637099
 21
3.763378
 31
0.0
  0
LINE
  8
0
 62
   249
 10
217.735464
 20
1.737999
 30
0.0
 11
219.637099
 21
3.639634
 31
0.0
  0
LINE
  8
0
 62
   249
 10
217.859208
 20
1.737999
 30
0.0
 11
219.637099
 21
3.515891
 31
0.0
  0
LINE
  8
0
 62
   249
 10
217.982951
 20
1.737999
 30
0.0
 11
219.637099
 21
3.392147
 31
0.0
  0
LINE
  8
0
 62
   249
 10
218.106695
 20
1.737999
 30
0.0
 11
219.637099
 21
3.268403
 31
0.0
  0
LINE
  8
0
 62
   249
 10
218.230439
 20
1.737999
 30
0.0
 11
219.637099
 21
3.14466
 31
0.0
  0
LINE
  8
0
 62
   249
 10
218.354182
 20
1.737999
 30
0.0
 11
219.637099
 21
3.020916
 31
0.0
  0
LINE
  8
0
 62
   249
 10
218.477926
 20
1.737999
 30
0.0
 11
219.637099
 21
2.897172
 31
0.0
  0
LINE
  8
0
 62
   249
 10
218.60167
 20
1.737999
 30
0.0
 11
219.637099
 21
2.773429
 31
0.0
  0
LINE
  8
0
 62
   249
 10
218.725413
 20
1.737999
 30
0.0
 11
219.637099
 21
2.649685
 31
0.0
  0
LINE
  8
0
 62
   249
 10
218.849157
 20
1.737999
 30
0.0
 11
219.637099
 21
2.525941
 31
0.0
  0
LINE
  8
0
 62
   249
 10
218.972901
 20
1.737999
 30
0.0
 11
219.637099
 21
2.402197
 31
0.0
  0
LINE
  8
0
 62
   249
 10
219.096645
 20
1.737999
 30
0.0
 11
219.637099
 21
2.278454
 31
0.0
  0
LINE
  8
0
 62
   249
 10
219.220388
 20
1.737999
 30
0.0
 11
219.637099
 21
2.15471
 31
0.0
  0
LINE
  8
0
 62
   249
 10
219.344132
 20
1.737999
 30
0.0
 11
219.637099
 21
2.030966
 31
0.0
  0
LINE
  8
0
 62
   249
 10
219.467876
 20
1.737999
 30
0.0
 11
219.637099
 21
1.907223
 31
0.0
  0
LINE
  8
0
 62
   249
 10
219.591619
 20
1.737999
 30
0.0
 11
219.637099
 21
1.783479
 31
0.0
  0
LINE
  8
0
 62
   249
 10
215.006357
 20
2.96869
 30
0.0
 11
216.302653
 21
4.264987
 31
0.0
  0
LINE
  8
0
 62
   249
 10
214.974275
 20
3.060352
 30
0.0
 11
216.270572
 21
4.356649
 31
0.0
  0
LINE
  8
0
 62
   249
 10
214.928179
 20
3.137999
 30
0.0
 11
216.23849
 21
4.448311
 31
0.0
  0
LINE
  8
0
 62
   249
 10
214.804435
 20
3.137999
 30
0.0
 11
216.206408
 21
4.539973
 31
0.0
  0
LINE
  8
0
 62
   249
 10
214.680691
 20
3.137999
 30
0.0
 11
216.174327
 21
4.631635
 31
0.0
  0
LINE
  8
0
 62
   249
 10
214.556948
 20
3.137999
 30
0.0
 11
216.142245
 21
4.723297
 31
0.0
  0
LINE
  8
0
 62
   249
 10
214.433204
 20
3.137999
 30
0.0
 11
216.110163
 21
4.814959
 31
0.0
  0
LINE
  8
0
 62
   249
 10
214.30946
 20
3.137999
 30
0.0
 11
216.078082
 21
4.906621
 31
0.0
  0
LINE
  8
0
 62
   249
 10
214.185717
 20
3.137999
 30
0.0
 11
216.046
 21
4.998283
 31
0.0
  0
LINE
  8
0
 62
   249
 10
214.061973
 20
3.137999
 30
0.0
 11
216.013918
 21
5.089945
 31
0.0
  0
LINE
  8
0
 62
   249
 10
213.938229
 20
3.137999
 30
0.0
 11
215.898229
 21
5.097999
 31
0.0
  0
LINE
  8
0
 62
   249
 10
213.827099
 20
3.150613
 30
0.0
 11
215.774485
 21
5.097999
 31
0.0
  0
LINE
  8
0
 62
   249
 10
213.827099
 20
3.274357
 30
0.0
 11
215.650742
 21
5.097999
 31
0.0
  0
LINE
  8
0
 62
   249
 10
213.827099
 20
3.3981
 30
0.0
 11
215.526998
 21
5.097999
 31
0.0
  0
LINE
  8
0
 62
   249
 10
213.827099
 20
3.521844
 30
0.0
 11
215.403254
 21
5.097999
 31
0.0
  0
LINE
  8
0
 62
   249
 10
213.827099
 20
3.645588
 30
0.0
 11
215.279511
 21
5.097999
 31
0.0
  0
LINE
  8
0
 62
   249
 10
213.827099
 20
3.769331
 30
0.0
 11
215.155767
 21
5.097999
 31
0.0
  0
LINE
  8
0
 62
   249
 10
213.827099
 20
3.893075
 30
0.0
 11
215.032023
 21
5.097999
 31
0.0
  0
LINE
  8
0
 62
   249
 10
213.827099
 20
4.016819
 30
0.0
 11
214.90828
 21
5.097999
 31
0.0
  0
LINE
  8
0
 62
   249
 10
213.827099
 20
4.140562
 30
0.0
 11
214.784536
 21
5.097999
 31
0.0
  0
LINE
  8
0
 62
   249
 10
213.827099
 20
4.264306
 30
0.0
 11
214.660792
 21
5.097999
 31
0.0
  0
LINE
  8
0
 62
   249
 10
213.827099
 20
4.38805
 30
0.0
 11
214.537049
 21
5.097999
 31
0.0
  0
LINE
  8
0
 62
   249
 10
213.827099
 20
4.511793
 30
0.0
 11
214.413305
 21
5.097999
 31
0.0
  0
LINE
  8
0
 62
   249
 10
213.827099
 20
4.635537
 30
0.0
 11
214.289561
 21
5.097999
 31
0.0
  0
LINE
  8
0
 62
   249
 10
213.827099
 20
4.759281
 30
0.0
 11
214.165818
 21
5.097999
 31
0.0
  0
LINE
  8
0
 62
   249
 10
213.827099
 20
4.883025
 30
0.0
 11
214.042074
 21
5.097999
 31
0.0
  0
LINE
  8
0
 62
   249
 10
213.827099
 20
5.006768
 30
0.0
 11
213.91833
 21
5.097999
 31
0.0
  0
LINE
  8
0
 62
   249
 10
215.038439
 20
2.877028
 30
0.0
 11
216.334735
 21
4.173325
 31
0.0
  0
LINE
  8
0
 62
   249
 10
215.070521
 20
2.785366
 30
0.0
 11
216.366817
 21
4.081663
 31
0.0
  0
LINE
  8
0
 62
   249
 10
215.102602
 20
2.693704
 30
0.0
 11
216.398899
 21
3.990001
 31
0.0
  0
LINE
  8
0
 62
   249
 10
215.134684
 20
2.602042
 30
0.0
 11
216.43098
 21
3.898339
 31
0.0
  0
LINE
  8
0
 62
   249
 10
215.166766
 20
2.51038
 30
0.0
 11
216.463062
 21
3.806677
 31
0.0
  0
LINE
  8
0
 62
   249
 10
215.198847
 20
2.418718
 30
0.0
 11
216.495144
 21
3.715015
 31
0.0
  0
LINE
  8
0
 62
   249
 10
215.230929
 20
2.327056
 30
0.0
 11
216.527225
 21
3.623353
 31
0.0
  0
LINE
  8
0
 62
   249
 10
215.263011
 20
2.235395
 30
0.0
 11
216.559307
 21
3.531691
 31
0.0
  0
LINE
  8
0
 62
   249
 10
215.295092
 20
2.143733
 30
0.0
 11
216.591389
 21
3.440029
 31
0.0
  0
LINE
  8
0
 62
   249
 10
215.327174
 20
2.052071
 30
0.0
 11
216.62347
 21
3.348367
 31
0.0
  0
LINE
  8
0
 62
   249
 10
215.359256
 20
1.960409
 30
0.0
 11
216.655552
 21
3.256705
 31
0.0
  0
LINE
  8
0
 62
   249
 10
215.391338
 20
1.868747
 30
0.0
 11
216.687634
 21
3.165043
 31
0.0
  0
LINE
  8
0
 62
   249
 10
215.423419
 20
1.777085
 30
0.0
 11
216.719716
 21
3.073381
 31
0.0
  0
LINE
  8
0
 62
   249
 10
215.508078
 20
1.737999
 30
0.0
 11
216.751797
 21
2.981719
 31
0.0
  0
LINE
  8
0
 62
   249
 10
215.631821
 20
1.737999
 30
0.0
 11
216.783879
 21
2.890057
 31
0.0
  0
LINE
  8
0
 62
   249
 10
215.755565
 20
1.737999
 30
0.0
 11
216.815961
 21
2.798395
 31
0.0
  0
LINE
  8
0
 62
   249
 10
215.879309
 20
1.737999
 30
0.0
 11
216.848042
 21
2.706733
 31
0.0
  0
LINE
  8
0
 62
   249
 10
216.003052
 20
1.737999
 30
0.0
 11
216.880124
 21
2.615071
 31
0.0
  0
LINE
  8
0
 62
   249
 10
216.126796
 20
1.737999
 30
0.0
 11
216.912206
 21
2.523409
 31
0.0
  0
LINE
  8
0
 62
   249
 10
216.25054
 20
1.737999
 30
0.0
 11
216.944287
 21
2.431747
 31
0.0
  0
LINE
  8
0
 62
   249
 10
216.374283
 20
1.737999
 30
0.0
 11
216.976369
 21
2.340085
 31
0.0
  0
LINE
  8
0
 62
   249
 10
216.498027
 20
1.737999
 30
0.0
 11
217.008451
 21
2.248423
 31
0.0
  0
LINE
  8
0
 62
   249
 10
216.621771
 20
1.737999
 30
0.0
 11
217.040532
 21
2.156761
 31
0.0
  0
LINE
  8
0
 62
   249
 10
216.745514
 20
1.737999
 30
0.0
 11
217.072614
 21
2.065099
 31
0.0
  0
LINE
  8
0
 62
   249
 10
216.869258
 20
1.737999
 30
0.0
 11
217.104696
 21
1.973437
 31
0.0
  0
LINE
  8
0
 62
   249
 10
216.993002
 20
1.737999
 30
0.0
 11
217.136778
 21
1.881775
 31
0.0
  0
LINE
  8
0
 62
   249
 10
217.116746
 20
1.737999
 30
0.0
 11
217.168859
 21
1.790113
 31
0.0
  0
LINE
  8
0
 62
   249
 10
219.917099
 20
2.310966
 30
0.0
 11
222.364614
 21
4.758481
 31
0.0
  0
LINE
  8
0
 62
   249
 10
219.917099
 20
2.43471
 30
0.0
 11
222.322547
 21
4.840158
 31
0.0
  0
LINE
  8
0
 62
   249
 10
219.917099
 20
2.558454
 30
0.0
 11
222.277553
 21
4.918908
 31
0.0
  0
LINE
  8
0
 62
   249
 10
219.917099
 20
2.682197
 30
0.0
 11
222.229735
 21
4.994834
 31
0.0
  0
LINE
  8
0
 62
   249
 10
219.917099
 20
2.805941
 30
0.0
 11
222.179174
 21
5.068016
 31
0.0
  0
LINE
  8
0
 62
   249
 10
219.917099
 20
2.929685
 30
0.0
 11
222.085413
 21
5.097999
 31
0.0
  0
LINE
  8
0
 62
   249
 10
219.917099
 20
3.053429
 30
0.0
 11
221.96167
 21
5.097999
 31
0.0
  0
LINE
  8
0
 62
   249
 10
219.917099
 20
3.177172
 30
0.0
 11
221.837926
 21
5.097999
 31
0.0
  0
LINE
  8
0
 62
   249
 10
219.917099
 20
3.300916
 30
0.0
 11
221.714182
 21
5.097999
 31
0.0
  0
LINE
  8
0
 62
   249
 10
219.917099
 20
3.42466
 30
0.0
 11
221.590439
 21
5.097999
 31
0.0
  0
LINE
  8
0
 62
   249
 10
219.917099
 20
3.548403
 30
0.0
 11
221.466695
 21
5.097999
 31
0.0
  0
LINE
  8
0
 62
   249
 10
219.917099
 20
3.672147
 30
0.0
 11
221.342951
 21
5.097999
 31
0.0
  0
LINE
  8
0
 62
   249
 10
219.917099
 20
3.795891
 30
0.0
 11
221.219208
 21
5.097999
 31
0.0
  0
LINE
  8
0
 62
   249
 10
219.917099
 20
3.919634
 30
0.0
 11
221.095464
 21
5.097999
 31
0.0
  0
LINE
  8
0
 62
   249
 10
219.917099
 20
4.043378
 30
0.0
 11
220.97172
 21
5.097999
 31
0.0
  0
LINE
  8
0
 62
   249
 10
219.917099
 20
4.167122
 30
0.0
 11
220.847977
 21
5.097999
 31
0.0
  0
LINE
  8
0
 62
   249
 10
219.917099
 20
4.290865
 30
0.0
 11
220.724233
 21
5.097999
 31
0.0
  0
LINE
  8
0
 62
   249
 10
219.917099
 20
4.414609
 30
0.0
 11
220.600489
 21
5.097999
 31
0.0
  0
LINE
  8
0
 62
   249
 10
219.917099
 20
4.538353
 30
0.0
 11
220.476746
 21
5.097999
 31
0.0
  0
LINE
  8
0
 62
   249
 10
219.917099
 20
4.662096
 30
0.0
 11
220.353002
 21
5.097999
 31
0.0
  0
LINE
  8
0
 62
   249
 10
219.917099
 20
4.78584
 30
0.0
 11
220.229258
 21
5.097999
 31
0.0
  0
LINE
  8
0
 62
   249
 10
219.917099
 20
4.909584
 30
0.0
 11
220.105514
 21
5.097999
 31
0.0
  0
LINE
  8
0
 62
   249
 10
219.917099
 20
5.033328
 30
0.0
 11
219.981771
 21
5.097999
 31
0.0
  0
LINE
  8
0
 62
   249
 10
219.917099
 20
2.187223
 30
0.0
 11
222.403629
 21
4.673752
 31
0.0
  0
LINE
  8
0
 62
   249
 10
219.917099
 20
2.063479
 30
0.0
 11
222.439437
 21
4.585817
 31
0.0
  0
LINE
  8
0
 62
   249
 10
219.917099
 20
1.939735
 30
0.0
 11
222.471849
 21
4.494485
 31
0.0
  0
LINE
  8
0
 62
   249
 10
219.917099
 20
1.815992
 30
0.0
 11
222.500633
 21
4.399525
 31
0.0
  0
LINE
  8
0
 62
   249
 10
219.96285
 20
1.737999
 30
0.0
 11
222.525502
 21
4.300651
 31
0.0
  0
LINE
  8
0
 62
   249
 10
220.086594
 20
1.738
 30
0.0
 11
222.546098
 21
4.197503
 31
0.0
  0
LINE
  8
0
 62
   249
 10
220.210338
 20
1.738
 30
0.0
 11
222.561969
 21
4.08963
 31
0.0
  0
LINE
  8
0
 62
   249
 10
220.334082
 20
1.738
 30
0.0
 11
222.57253
 21
3.976448
 31
0.0
  0
LINE
  8
0
 62
   249
 10
220.457826
 20
1.738
 30
0.0
 11
222.577011
 21
3.857186
 31
0.0
  0
LINE
  8
0
 62
   249
 10
220.584307
 20
1.740738
 30
0.0
 11
222.574361
 21
3.730791
 31
0.0
  0
LINE
  8
0
 62
   249
 10
220.71933
 20
1.752016
 30
0.0
 11
222.563082
 21
3.595769
 31
0.0
  0
LINE
  8
0
 62
   249
 10
220.865237
 20
1.77418
 30
0.0
 11
222.540918
 21
3.449861
 31
0.0
  0
LINE
  8
0
 62
   249
 10
221.025733
 20
1.810932
 30
0.0
 11
222.504166
 21
3.289366
 31
0.0
  0
LINE
  8
0
 62
   249
 10
221.207749
 20
1.869205
 30
0.0
 11
222.445893
 21
3.107349
 31
0.0
  0
LINE
  8
0
 62
   249
 10
221.427822
 20
1.965534
 30
0.0
 11
222.349564
 21
2.887276
 31
0.0
  0
LINE
  8
0
 62
   249
 10
221.76645
 20
2.180419
 30
0.0
 11
222.13468
 21
2.548648
 31
0.0
  0
LINE
  8
0
 62
   249
 10
223.137099
 20
2.54584
 30
0.0
 11
225.097099
 21
4.50584
 31
0.0
  0
LINE
  8
0
 62
   249
 10
223.137099
 20
2.669584
 30
0.0
 11
225.097099
 21
4.629584
 31
0.0
  0
LINE
  8
0
 62
   249
 10
223.137099
 20
2.793328
 30
0.0
 11
225.097099
 21
4.753328
 31
0.0
  0
LINE
  8
0
 62
   249
 10
223.137099
 20
2.917071
 30
0.0
 11
225.097099
 21
4.877071
 31
0.0
  0
LINE
  8
0
 62
   249
 10
223.137099
 20
3.040815
 30
0.0
 11
225.097099
 21
5.000815
 31
0.0
  0
LINE
  8
0
 62
   249
 10
223.137099
 20
3.164559
 30
0.0
 11
225.07054
 21
5.097999
 31
0.0
  0
LINE
  8
0
 62
   249
 10
223.137099
 20
3.288302
 30
0.0
 11
224.946796
 21
5.097999
 31
0.0
  0
LINE
  8
0
 62
   249
 10
223.137099
 20
3.412046
 30
0.0
 11
224.823052
 21
5.097999
 31
0.0
  0
LINE
  8
0
 62
   249
 10
223.137099
 20
3.53579
 30
0.0
 11
224.699309
 21
5.097999
 31
0.0
  0
LINE
  8
0
 62
   249
 10
223.137099
 20
3.659533
 30
0.0
 11
224.575565
 21
5.097999
 31
0.0
  0
LINE
  8
0
 62
   249
 10
223.137099
 20
3.783277
 30
0.0
 11
224.451821
 21
5.097999
 31
0.0
  0
LINE
  8
0
 62
   249
 10
223.137099
 20
3.907021
 30
0.0
 11
224.328078
 21
5.097999
 31
0.0
  0
LINE
  8
0
 62
   249
 10
223.137099
 20
4.030764
 30
0.0
 11
224.204334
 21
5.097999
 31
0.0
  0
LINE
  8
0
 62
   249
 10
223.137099
 20
4.154508
 30
0.0
 11
224.08059
 21
5.097999
 31
0.0
  0
LINE
  8
0
 62
   249
 10
223.137099
 20
4.278252
 30
0.0
 11
223.956847
 21
5.097999
 31
0.0
  0
LINE
  8
0
 62
   249
 10
223.137099
 20
4.401995
 30
0.0
 11
223.833103
 21
5.097999
 31
0.0
  0
LINE
  8
0
 62
   249
 10
223.137099
 20
4.525739
 30
0.0
 11
223.709359
 21
5.097999
 31
0.0
  0
LINE
  8
0
 62
   249
 10
223.137099
 20
4.649483
 30
0.0
 11
223.585615
 21
5.097999
 31
0.0
  0
LINE
  8
0
 62
   249
 10
223.137099
 20
4.773227
 30
0.0
 11
223.461872
 21
5.097999
 31
0.0
  0
LINE
  8
0
 62
   249
 10
223.137099
 20
4.89697
 30
0.0
 11
223.338128
 21
5.097999
 31
0.0
  0
LINE
  8
0
 62
   249
 10
223.137099
 20
5.020714
 30
0.0
 11
223.214384
 21
5.097999
 31
0.0
  0
LINE
  8
0
 62
   249
 10
223.137099
 20
2.422096
 30
0.0
 11
225.097099
 21
4.382096
 31
0.0
  0
LINE
  8
0
 62
   249
 10
223.137099
 20
2.298353
 30
0.0
 11
225.097099
 21
4.258353
 31
0.0
  0
LINE
  8
0
 62
   249
 10
223.137099
 20
2.174609
 30
0.0
 11
225.097099
 21
4.134609
 31
0.0
  0
LINE
  8
0
 62
   249
 10
223.137099
 20
2.050865
 30
0.0
 11
225.097099
 21
4.010865
 31
0.0
  0
LINE
  8
0
 62
   249
 10
223.137099
 20
1.927122
 30
0.0
 11
225.097099
 21
3.887122
 31
0.0
  0
LINE
  8
0
 62
   249
 10
223.137099
 20
1.803378
 30
0.0
 11
225.097099
 21
3.763378
 31
0.0
  0
LINE
  8
0
 62
   249
 10
223.195464
 20
1.737999
 30
0.0
 11
225.097099
 21
3.639634
 31
0.0
  0
LINE
  8
0
 62
   249
 10
223.319208
 20
1.737999
 30
0.0
 11
225.097099
 21
3.515891
 31
0.0
  0
LINE
  8
0
 62
   249
 10
223.442951
 20
1.737999
 30
0.0
 11
225.097099
 21
3.392147
 31
0.0
  0
LINE
  8
0
 62
   249
 10
223.566695
 20
1.737999
 30
0.0
 11
225.097099
 21
3.268403
 31
0.0
  0
LINE
  8
0
 62
   249
 10
223.690439
 20
1.737999
 30
0.0
 11
225.097099
 21
3.14466
 31
0.0
  0
LINE
  8
0
 62
   249
 10
223.814182
 20
1.737999
 30
0.0
 11
225.097099
 21
3.020916
 31
0.0
  0
LINE
  8
0
 62
   249
 10
223.937926
 20
1.737999
 30
0.0
 11
225.097099
 21
2.897172
 31
0.0
  0
LINE
  8
0
 62
   249
 10
224.06167
 20
1.737999
 30
0.0
 11
225.097099
 21
2.773429
 31
0.0
  0
LINE
  8
0
 62
   249
 10
224.185413
 20
1.737999
 30
0.0
 11
225.097099
 21
2.649685
 31
0.0
  0
LINE
  8
0
 62
   249
 10
224.309157
 20
1.737999
 30
0.0
 11
225.097099
 21
2.525941
 31
0.0
  0
LINE
  8
0
 62
   249
 10
224.432901
 20
1.737999
 30
0.0
 11
225.097099
 21
2.402197
 31
0.0
  0
LINE
  8
0
 62
   249
 10
224.556645
 20
1.737999
 30
0.0
 11
225.097099
 21
2.278454
 31
0.0
  0
LINE
  8
0
 62
   249
 10
224.680388
 20
1.737999
 30
0.0
 11
225.097099
 21
2.15471
 31
0.0
  0
LINE
  8
0
 62
   249
 10
224.804132
 20
1.737999
 30
0.0
 11
225.097099
 21
2.030966
 31
0.0
  0
LINE
  8
0
 62
   249
 10
224.927876
 20
1.737999
 30
0.0
 11
225.097099
 21
1.907223
 31
0.0
  0
LINE
  8
0
 62
   249
 10
225.051619
 20
1.737999
 30
0.0
 11
225.097099
 21
1.783479
 31
0.0
  0
ARC
  8
0
  6
CONTINUOUS
 62
   249
 10
257.5
 20
80.0
 30
0.0
 40
0.5
 50
180.0
 51
0.0
  0
ARC
  8
0
  6
CONTINUOUS
 62
   249
 10
257.5
 20
80.0
 30
0.0
 40
0.5
 50
0.0
 51
180.0
  0
ARC
  8
0
  6
CONTINUOUS
 62
   249
 10
257.5
 20
97.5
 30
0.0
 40
0.5
 50
180.0
 51
0.0
  0
ARC
  8
0
  6
CONTINUOUS
 62
   249
 10
257.5
 20
97.5
 30
0.0
 40
0.5
 50
0.0
 51
180.0
  0
ARC
  8
0
  6
CONTINUOUS
 62
   249
 10
257.5
 20
105.0
 30
0.0
 40
0.5
 50
180.0
 51
0.0
  0
ARC
  8
0
  6
CONTINUOUS
 62
   249
 10
257.5
 20
105.0
 30
0.0
 40
0.5
 50
0.0
 51
180.0
  0
ARC
  8
0
  6
CONTINUOUS
 62
   249
 10
257.5
 20
112.5
 30
0.0
 40
0.5
 50
180.0
 51
0.0
  0
ARC
  8
0
  6
CONTINUOUS
 62
   249
 10
257.5
 20
112.5
 30
0.0
 40
0.5
 50
0.0
 51
180.0
  0
LINE
  8
0
  6
CONTINUOUS
 62
   249
 10
242.388983
 20
71.36064
 30
0.0
 11
244.734749
 21
70.025287
 31
0.0
  0
LINE
  8
0
  6
CONTINUOUS
 62
   249
 10
244.734749
 20
70.025287
 30
0.0
 11
242.388983
 21
68.835368
 31
0.0
  0
LINE
  8
0
  6
CONTINUOUS
 62
   249
 10
240.160763
 20
68.689938
 30
0.0
 11
237.814998
 21
70.025292
 31
0.0
  0
LINE
  8
0
  6
CONTINUOUS
 62
   249
 10
237.814998
 20
70.025292
 30
0.0
 11
240.160763
 21
71.215211
 31
0.0
  0
LINE
  8
0
  6
CONTINUOUS
 62
   249
 10
240.160763
 20
61.189938
 30
0.0
 11
237.814998
 21
62.525292
 31
0.0
  0
LINE
  8
0
  6
CONTINUOUS
 62
   249
 10
237.814998
 20
62.525292
 30
0.0
 11
240.160763
 21
63.715211
 31
0.0
  0
LINE
  8
0
  6
CONTINUOUS
 62
   249
 10
242.388983
 20
63.86064
 30
0.0
 11
244.734749
 21
62.525287
 31
0.0
  0
LINE
  8
0
  6
CONTINUOUS
 62
   249
 10
244.734749
 20
62.525287
 30
0.0
 11
242.388983
 21
61.335368
 31
0.0
  0
3DFACE
  8
0
  6
CONTINUOUS
 62
   249
 10
266.819436
 20
69.494457
 30
0.0
 11
266.833156
 21
69.494457
 31
0.0
 12
266.833156
 22
70.474457
 32
0.0
 13
266.819436
 23
70.474457
 33
0.0
  0
3DFACE
  8
0
  6
CONTINUOUS
 62
   249
 10
266.833156
 20
69.494457
 30
0.0
 11
266.846876
 21
69.494457
 31
0.0
 12
266.846876
 22
70.474457
 32
0.0
 13
266.833156
 23
70.474457
 33
0.0
  0
3DFACE
  8
0
  6
CONTINUOUS
 62
   249
 10
266.846876
 20
69.494457
 30
0.0
 11
266.860596
 21
69.494457
 31
0.0
 12
266.860596
 22
70.474457
 32
0.0
 13
266.846876
 23
70.474457
 33
0.0
  0
3DFACE
  8
0
  6
CONTINUOUS
 62
   249
 10
266.860596
 20
69.494457
 30
0.0
 11
266.874316
 21
69.494457
 31
0.0
 12
266.874316
 22
70.474457
 32
0.0
 13
266.860596
 23
70.474457
 33
0.0
  0
3DFACE
  8
0
  6
CONTINUOUS
 62
   249
 10
266.874316
 20
69.494457
 30
0.0
 11
266.888036
 21
69.494457
 31
0.0
 12
266.888036
 22
70.474457
 32
0.0
 13
266.874316
 23
70.474457
 33
0.0
  0
3DFACE
  8
0
  6
CONTINUOUS
 62
   249
 10
266.888036
 20
69.494457
 30
0.0
 11
266.901756
 21
69.494457
 31
0.0
 12
266.901756
 22
70.474457
 32
0.0
 13
266.888036
 23
70.474457
 33
0.0
  0
3DFACE
  8
0
  6
CONTINUOUS
 62
   249
 10
266.901756
 20
69.494457
 30
0.0
 11
266.915476
 21
69.494457
 31
0.0
 12
266.915476
 22
70.474457
 32
0.0
 13
266.901756
 23
70.474457
 33
0.0
  0
3DFACE
  8
0
  6
CONTINUOUS
 62
   249
 10
266.915476
 20
69.494457
 30
0.0
 11
266.929196
 21
69.494457
 31
0.0
 12
266.929196
 22
70.474457
 32
0.0
 13
266.915476
 23
70.474457
 33
0.0
  0
3DFACE
  8
0
  6
CONTINUOUS
 62
   249
 10
266.929196
 20
69.494457
 30
0.0
 11
266.942916
 21
69.494457
 31
0.0
 12
266.942916
 22
70.474457
 32
0.0
 13
266.929196
 23
70.474457
 33
0.0
  0
3DFACE
  8
0
  6
CONTINUOUS
 62
   249
 10
266.942916
 20
69.494457
 30
0.0
 11
266.956636
 21
69.494457
 31
0.0
 12
266.956636
 22
70.474457
 32
0.0
 13
266.942916
 23
70.474457
 33
0.0
  0
3DFACE
  8
0
  6
CONTINUOUS
 62
   249
 10
266.956636
 20
69.494457
 30
0.0
 11
266.970356
 21
69.494457
 31
0.0
 12
266.970356
 22
70.474457
 32
0.0
 13
266.956636
 23
70.474457
 33
0.0
  0
3DFACE
  8
0
  6
CONTINUOUS
 62
   249
 10
266.970356
 20
69.494457
 30
0.0
 11
266.984076
 21
69.494457
 31
0.0
 12
266.984076
 22
70.474457
 32
0.0
 13
266.970356
 23
70.474457
 33
0.0
  0
3DFACE
  8
0
  6
CONTINUOUS
 62
   249
 10
266.984076
 20
69.494457
 30
0.0
 11
266.997796
 21
69.494457
 31
0.0
 12
266.997796
 22
70.474457
 32
0.0
 13
266.984076
 23
70.474457
 33
0.0
  0
3DFACE
  8
0
  6
CONTINUOUS
 62
   249
 10
266.997796
 20
69.494457
 30
0.0
 11
267.011516
 21
69.494457
 31
0.0
 12
267.011516
 22
70.474457
 32
0.0
 13
266.997796
 23
70.474457
 33
0.0
  0
3DFACE
  8
0
  6
CONTINUOUS
 62
   249
 10
267.011516
 20
69.494457
 30
0.0
 11
267.025236
 21
69.494457
 31
0.0
 12
267.025236
 22
70.474457
 32
0.0
 13
267.011516
 23
70.474457
 33
0.0
  0
3DFACE
  8
0
  6
CONTINUOUS
 62
   249
 10
267.025236
 20
69.494457
 30
0.0
 11
267.038956
 21
69.494457
 31
0.0
 12
267.038956
 22
70.474457
 32
0.0
 13
267.025236
 23
70.474457
 33
0.0
  0
3DFACE
  8
0
  6
CONTINUOUS
 62
   249
 10
267.038956
 20
69.494457
 30
0.0
 11
267.052676
 21
69.494457
 31
0.0
 12
267.052676
 22
70.474457
 32
0.0
 13
267.038956
 23
70.474457
 33
0.0
  0
3DFACE
  8
0
  6
CONTINUOUS
 62
   249
 10
267.052676
 20
69.494457
 30
0.0
 11
267.066396
 21
69.494457
 31
0.0
 12
267.066396
 22
70.474457
 32
0.0
 13
267.052676
 23
70.474457
 33
0.0
  0
3DFACE
  8
0
  6
CONTINUOUS
 62
   249
 10
267.066396
 20
69.494457
 30
0.0
 11
267.080116
 21
69.494457
 31
0.0
 12
267.080116
 22
70.474457
 32
0.0
 13
267.066396
 23
70.474457
 33
0.0
  0
3DFACE
  8
0
  6
CONTINUOUS
 62
   249
 10
267.080116
 20
69.494457
 30
0.0
 11
267.093836
 21
69.494457
 31
0.0
 12
267.093836
 22
70.474457
 32
0.0
 13
267.080116
 23
70.474457
 33
0.0
  0
3DFACE
  8
0
  6
CONTINUOUS
 62
   249
 10
267.093836
 20
69.494457
 30
0.0
 11
267.107556
 21
69.494457
 31
0.0
 12
267.107556
 22
70.474457
 32
0.0
 13
267.093836
 23
70.474457
 33
0.0
  0
3DFACE
  8
0
  6
CONTINUOUS
 62
   249
 10
267.107556
 20
69.494457
 30
0.0
 11
267.121276
 21
69.494457
 31
0.0
 12
267.121276
 22
70.474457
 32
0.0
 13
267.107556
 23
70.474457
 33
0.0
  0
3DFACE
  8
0
  6
CONTINUOUS
 62
   249
 10
267.121276
 20
69.494457
 30
0.0
 11
267.134996
 21
69.494457
 31
0.0
 12
267.134996
 22
70.474457
 32
0.0
 13
267.121276
 23
70.474457
 33
0.0
  0
3DFACE
  8
0
  6
CONTINUOUS
 62
   249
 10
267.134996
 20
69.494457
 30
0.0
 11
267.148716
 21
69.494457
 31
0.0
 12
267.148716
 22
70.474457
 32
0.0
 13
267.134996
 23
70.474457
 33
0.0
  0
3DFACE
  8
0
  6
CONTINUOUS
 62
   249
 10
267.148716
 20
69.494457
 30
0.0
 11
267.162436
 21
69.494457
 31
0.0
 12
267.162436
 22
70.474457
 32
0.0
 13
267.148716
 23
70.474457
 33
0.0
  0
3DFACE
  8
0
  6
CONTINUOUS
 62
   249
 10
267.162436
 20
69.494457
 30
0.0
 11
267.176156
 21
69.494457
 31
0.0
 12
267.176156
 22
70.474457
 32
0.0
 13
267.162436
 23
70.474457
 33
0.0
  0
3DFACE
  8
0
  6
CONTINUOUS
 62
   249
 10
267.176156
 20
69.494457
 30
0.0
 11
267.189876
 21
69.494457
 31
0.0
 12
267.189876
 22
70.474457
 32
0.0
 13
267.176156
 23
70.474457
 33
0.0
  0
3DFACE
  8
0
  6
CONTINUOUS
 62
   249
 10
267.189876
 20
69.494457
 30
0.0
 11
267.203596
 21
69.494457
 31
0.0
 12
267.203596
 22
70.474457
 32
0.0
 13
267.189876
 23
70.474457
 33
0.0
  0
3DFACE
  8
0
  6
CONTINUOUS
 62
   249
 10
267.203596
 20
69.494457
 30
0.0
 11
267.217316
 21
69.494457
 31
0.0
 12
267.217316
 22
70.474457
 32
0.0
 13
267.203596
 23
70.474457
 33
0.0
  0
3DFACE
  8
0
  6
CONTINUOUS
 62
   249
 10
267.217316
 20
69.494457
 30
0.0
 11
267.231036
 21
69.494457
 31
0.0
 12
267.231036
 22
70.474457
 32
0.0
 13
267.217316
 23
70.474457
 33
0.0
  0
3DFACE
  8
0
  6
CONTINUOUS
 62
   249
 10
267.231036
 20
69.494457
 30
0.0
 11
267.244756
 21
69.494457
 31
0.0
 12
267.244756
 22
70.474457
 32
0.0
 13
267.231036
 23
70.474457
 33
0.0
  0
3DFACE
  8
0
  6
CONTINUOUS
 62
   249
 10
267.244756
 20
69.494457
 30
0.0
 11
267.258476
 21
69.494457
 31
0.0
 12
267.258476
 22
70.474457
 32
0.0
 13
267.244756
 23
70.474457
 33
0.0
  0
3DFACE
  8
0
  6
CONTINUOUS
 62
   249
 10
267.258476
 20
69.494457
 30
0.0
 11
267.272196
 21
69.494457
 31
0.0
 12
267.272196
 22
70.474457
 32
0.0
 13
267.258476
 23
70.474457
 33
0.0
  0
3DFACE
  8
0
  6
CONTINUOUS
 62
   249
 10
267.272196
 20
69.494457
 30
0.0
 11
267.285916
 21
69.494457
 31
0.0
 12
267.285916
 22
70.474457
 32
0.0
 13
267.272196
 23
70.474457
 33
0.0
  0
3DFACE
  8
0
  6
CONTINUOUS
 62
   249
 10
267.285916
 20
69.494457
 30
0.0
 11
267.299636
 21
69.494457
 31
0.0
 12
267.299636
 22
70.474457
 32
0.0
 13
267.285916
 23
70.474457
 33
0.0
  0
3DFACE
  8
0
  6
CONTINUOUS
 62
   249
 10
267.299636
 20
69.494457
 30
0.0
 11
267.313356
 21
69.494457
 31
0.0
 12
267.313356
 22
70.474457
 32
0.0
 13
267.299636
 23
70.474457
 33
0.0
  0
3DFACE
  8
0
  6
CONTINUOUS
 62
   249
 10
267.313356
 20
69.494457
 30
0.0
 11
267.327076
 21
69.494457
 31
0.0
 12
267.327076
 22
70.474457
 32
0.0
 13
267.313356
 23
70.474457
 33
0.0
  0
3DFACE
  8
0
  6
CONTINUOUS
 62
   249
 10
267.327076
 20
69.494457
 30
0.0
 11
267.340796
 21
69.494457
 31
0.0
 12
267.340796
 22
70.474457
 32
0.0
 13
267.327076
 23
70.474457
 33
0.0
  0
3DFACE
  8
0
  6
CONTINUOUS
 62
   249
 10
267.340796
 20
69.494457
 30
0.0
 11
267.354516
 21
69.494457
 31
0.0
 12
267.354516
 22
70.474457
 32
0.0
 13
267.340796
 23
70.474457
 33
0.0
  0
3DFACE
  8
0
  6
CONTINUOUS
 62
   249
 10
267.354516
 20
69.494457
 30
0.0
 11
267.368236
 21
69.494457
 31
0.0
 12
267.368236
 22
70.474457
 32
0.0
 13
267.354516
 23
70.474457
 33
0.0
  0
3DFACE
  8
0
  6
CONTINUOUS
 62
   249
 10
267.368236
 20
69.494457
 30
0.0
 11
267.381956
 21
69.494457
 31
0.0
 12
267.381956
 22
70.474457
 32
0.0
 13
267.368236
 23
70.474457
 33
0.0
  0
3DFACE
  8
0
  6
CONTINUOUS
 62
   249
 10
267.381956
 20
69.494457
 30
0.0
 11
267.395676
 21
69.494457
 31
0.0
 12
267.395676
 22
70.474457
 32
0.0
 13
267.381956
 23
70.474457
 33
0.0
  0
3DFACE
  8
0
  6
CONTINUOUS
 62
   249
 10
267.395676
 20
69.494457
 30
0.0
 11
267.409396
 21
69.494457
 31
0.0
 12
267.409396
 22
70.474457
 32
0.0
 13
267.395676
 23
70.474457
 33
0.0
  0
3DFACE
  8
0
  6
CONTINUOUS
 62
   249
 10
267.409396
 20
69.494457
 30
0.0
 11
267.423116
 21
69.494457
 31
0.0
 12
267.423116
 22
70.474457
 32
0.0
 13
267.409396
 23
70.474457
 33
0.0
  0
3DFACE
  8
0
  6
CONTINUOUS
 62
   249
 10
267.423116
 20
69.494457
 30
0.0
 11
267.436836
 21
69.494457
 31
0.0
 12
267.436836
 22
70.474457
 32
0.0
 13
267.423116
 23
70.474457
 33
0.0
  0
3DFACE
  8
0
  6
CONTINUOUS
 62
   249
 10
267.436836
 20
69.494457
 30
0.0
 11
267.450556
 21
69.494457
 31
0.0
 12
267.450556
 22
70.474457
 32
0.0
 13
267.436836
 23
70.474457
 33
0.0
  0
3DFACE
  8
0
  6
CONTINUOUS
 62
   249
 10
267.450556
 20
69.494457
 30
0.0
 11
267.464276
 21
69.494457
 31
0.0
 12
267.464276
 22
70.474457
 32
0.0
 13
267.450556
 23
70.474457
 33
0.0
  0
3DFACE
  8
0
  6
CONTINUOUS
 62
   249
 10
267.464276
 20
69.494457
 30
0.0
 11
267.477996
 21
69.494457
 31
0.0
 12
267.477996
 22
70.474457
 32
0.0
 13
267.464276
 23
70.474457
 33
0.0
  0
3DFACE
  8
0
  6
CONTINUOUS
 62
   249
 10
267.477996
 20
69.494457
 30
0.0
 11
267.491716
 21
69.494457
 31
0.0
 12
267.491716
 22
70.474457
 32
0.0
 13
267.477996
 23
70.474457
 33
0.0
  0
3DFACE
  8
0
  6
CONTINUOUS
 62
   249
 10
267.491716
 20
69.494457
 30
0.0
 11
267.505436
 21
69.494457
 31
0.0
 12
267.505436
 22
70.474457
 32
0.0
 13
267.491716
 23
70.474457
 33
0.0
  0
3DFACE
  8
0
  6
CONTINUOUS
 62
   249
 10
267.505436
 20
69.494457
 30
0.0
 11
267.519156
 21
69.494457
 31
0.0
 12
267.519156
 22
70.474457
 32
0.0
 13
267.505436
 23
70.474457
 33
0.0
  0
3DFACE
  8
0
  6
CONTINUOUS
 62
   249
 10
267.519156
 20
69.494457
 30
0.0
 11
267.532876
 21
69.494457
 31
0.0
 12
267.532876
 22
70.474457
 32
0.0
 13
267.519156
 23
70.474457
 33
0.0
  0
3DFACE
  8
0
  6
CONTINUOUS
 62
   249
 10
267.532876
 20
69.494457
 30
0.0
 11
267.546596
 21
69.494457
 31
0.0
 12
267.546596
 22
70.474457
 32
0.0
 13
267.532876
 23
70.474457
 33
0.0
  0
3DFACE
  8
0
  6
CONTINUOUS
 62
   249
 10
267.546596
 20
69.494457
 30
0.0
 11
267.560316
 21
69.494457
 31
0.0
 12
267.560316
 22
70.474457
 32
0.0
 13
267.546596
 23
70.474457
 33
0.0
  0
3DFACE
  8
0
  6
CONTINUOUS
 62
   249
 10
267.560316
 20
69.494457
 30
0.0
 11
267.574036
 21
69.494457
 31
0.0
 12
267.574036
 22
70.474457
 32
0.0
 13
267.560316
 23
70.474457
 33
0.0
  0
3DFACE
  8
0
  6
CONTINUOUS
 62
   249
 10
267.574036
 20
69.494457
 30
0.0
 11
267.587756
 21
69.494457
 31
0.0
 12
267.587756
 22
70.474457
 32
0.0
 13
267.574036
 23
70.474457
 33
0.0
  0
3DFACE
  8
0
  6
CONTINUOUS
 62
   249
 10
267.587756
 20
69.494457
 30
0.0
 11
267.601476
 21
69.494457
 31
0.0
 12
267.601476
 22
70.474457
 32
0.0
 13
267.587756
 23
70.474457
 33
0.0
  0
3DFACE
  8
0
  6
CONTINUOUS
 62
   249
 10
267.601476
 20
69.494457
 30
0.0
 11
267.615196
 21
69.494457
 31
0.0
 12
267.615196
 22
70.474457
 32
0.0
 13
267.601476
 23
70.474457
 33
0.0
  0
3DFACE
  8
0
  6
CONTINUOUS
 62
   249
 10
267.615196
 20
69.494457
 30
0.0
 11
267.628916
 21
69.494457
 31
0.0
 12
267.628916
 22
70.474457
 32
0.0
 13
267.615196
 23
70.474457
 33
0.0
  0
3DFACE
  8
0
  6
CONTINUOUS
 62
   249
 10
267.628916
 20
69.494457
 30
0.0
 11
267.642636
 21
69.494457
 31
0.0
 12
267.642636
 22
70.474457
 32
0.0
 13
267.628916
 23
70.474457
 33
0.0
  0
3DFACE
  8
0
  6
CONTINUOUS
 62
   249
 10
267.642636
 20
69.494457
 30
0.0
 11
267.656356
 21
69.494457
 31
0.0
 12
267.656356
 22
70.474457
 32
0.0
 13
267.642636
 23
70.474457
 33
0.0
  0
3DFACE
  8
0
  6
CONTINUOUS
 62
   249
 10
267.656356
 20
69.494457
 30
0.0
 11
267.670076
 21
69.494457
 31
0.0
 12
267.670076
 22
70.474457
 32
0.0
 13
267.656356
 23
70.474457
 33
0.0
  0
3DFACE
  8
0
  6
CONTINUOUS
 62
   249
 10
267.670076
 20
69.494457
 30
0.0
 11
267.683796
 21
69.494457
 31
0.0
 12
267.683796
 22
70.474457
 32
0.0
 13
267.670076
 23
70.474457
 33
0.0
  0
3DFACE
  8
0
  6
CONTINUOUS
 62
   249
 10
267.683796
 20
69.494457
 30
0.0
 11
267.697516
 21
69.494457
 31
0.0
 12
267.697516
 22
70.474457
 32
0.0
 13
267.683796
 23
70.474457
 33
0.0
  0
3DFACE
  8
0
  6
CONTINUOUS
 62
   249
 10
267.697516
 20
69.494457
 30
0.0
 11
267.711236
 21
69.494457
 31
0.0
 12
267.711236
 22
70.474457
 32
0.0
 13
267.697516
 23
70.474457
 33
0.0
  0
3DFACE
  8
0
  6
CONTINUOUS
 62
   249
 10
267.711236
 20
69.494457
 30
0.0
 11
267.724956
 21
69.494457
 31
0.0
 12
267.724956
 22
70.474457
 32
0.0
 13
267.711236
 23
70.474457
 33
0.0
  0
3DFACE
  8
0
  6
CONTINUOUS
 62
   249
 10
267.724956
 20
69.494457
 30
0.0
 11
267.738676
 21
69.494457
 31
0.0
 12
267.738676
 22
70.474457
 32
0.0
 13
267.724956
 23
70.474457
 33
0.0
  0
3DFACE
  8
0
  6
CONTINUOUS
 62
   249
 10
267.738676
 20
69.494457
 30
0.0
 11
267.752396
 21
69.494457
 31
0.0
 12
267.752396
 22
70.474457
 32
0.0
 13
267.738676
 23
70.474457
 33
0.0
  0
3DFACE
  8
0
  6
CONTINUOUS
 62
   249
 10
267.752396
 20
69.494457
 30
0.0
 11
267.766116
 21
69.494457
 31
0.0
 12
267.766116
 22
70.474457
 32
0.0
 13
267.752396
 23
70.474457
 33
0.0
  0
3DFACE
  8
0
  6
CONTINUOUS
 62
   249
 10
267.766116
 20
69.494457
 30
0.0
 11
267.779836
 21
69.494457
 31
0.0
 12
267.779836
 22
70.474457
 32
0.0
 13
267.766116
 23
70.474457
 33
0.0
  0
3DFACE
  8
0
  6
CONTINUOUS
 62
   249
 10
267.779836
 20
69.494457
 30
0.0
 11
267.793556
 21
69.494457
 31
0.0
 12
267.793556
 22
70.474457
 32
0.0
 13
267.779836
 23
70.474457
 33
0.0
  0
3DFACE
  8
0
  6
CONTINUOUS
 62
   249
 10
267.793556
 20
69.494457
 30
0.0
 11
267.807276
 21
69.494457
 31
0.0
 12
267.807276
 22
70.474457
 32
0.0
 13
267.793556
 23
70.474457
 33
0.0
  0
3DFACE
  8
0
  6
CONTINUOUS
 62
   249
 10
267.807276
 20
69.494457
 30
0.0
 11
267.820996
 21
69.494457
 31
0.0
 12
267.820996
 22
70.474457
 32
0.0
 13
267.807276
 23
70.474457
 33
0.0
  0
3DFACE
  8
0
  6
CONTINUOUS
 62
   249
 10
267.820996
 20
69.494457
 30
0.0
 11
267.834716
 21
69.494457
 31
0.0
 12
267.834716
 22
70.474457
 32
0.0
 13
267.820996
 23
70.474457
 33
0.0
  0
3DFACE
  8
0
  6
CONTINUOUS
 62
   249
 10
267.834716
 20
69.494457
 30
0.0
 11
267.848436
 21
69.494457
 31
0.0
 12
267.848436
 22
70.474457
 32
0.0
 13
267.834716
 23
70.474457
 33
0.0
  0
3DFACE
  8
0
  6
CONTINUOUS
 62
   249
 10
267.848436
 20
69.494457
 30
0.0
 11
267.862156
 21
69.494457
 31
0.0
 12
267.862156
 22
70.474457
 32
0.0
 13
267.848436
 23
70.474457
 33
0.0
  0
3DFACE
  8
0
  6
CONTINUOUS
 62
   249
 10
267.862156
 20
69.494457
 30
0.0
 11
267.875876
 21
69.494457
 31
0.0
 12
267.875876
 22
70.474457
 32
0.0
 13
267.862156
 23
70.474457
 33
0.0
  0
3DFACE
  8
0
  6
CONTINUOUS
 62
   249
 10
267.875876
 20
69.494457
 30
0.0
 11
267.889596
 21
69.494457
 31
0.0
 12
267.889596
 22
70.474457
 32
0.0
 13
267.875876
 23
70.474457
 33
0.0
  0
3DFACE
  8
0
  6
CONTINUOUS
 62
   249
 10
267.889596
 20
69.494457
 30
0.0
 11
267.903316
 21
69.494457
 31
0.0
 12
267.903316
 22
70.474457
 32
0.0
 13
267.889596
 23
70.474457
 33
0.0
  0
3DFACE
  8
0
  6
CONTINUOUS
 62
   249
 10
267.903316
 20
69.494457
 30
0.0
 11
267.917036
 21
69.494457
 31
0.0
 12
267.917036
 22
70.474457
 32
0.0
 13
267.903316
 23
70.474457
 33
0.0
  0
3DFACE
  8
0
  6
CONTINUOUS
 62
   249
 10
267.917036
 20
69.494457
 30
0.0
 11
267.930756
 21
69.494457
 31
0.0
 12
267.930756
 22
70.474457
 32
0.0
 13
267.917036
 23
70.474457
 33
0.0
  0
3DFACE
  8
0
  6
CONTINUOUS
 62
   249
 10
267.930756
 20
69.494457
 30
0.0
 11
267.944476
 21
69.494457
 31
0.0
 12
267.944476
 22
70.474457
 32
0.0
 13
267.930756
 23
70.474457
 33
0.0
  0
3DFACE
  8
0
  6
CONTINUOUS
 62
   249
 10
267.944476
 20
69.494457
 30
0.0
 11
267.958196
 21
69.494457
 31
0.0
 12
267.958196
 22
70.474457
 32
0.0
 13
267.944476
 23
70.474457
 33
0.0
  0
3DFACE
  8
0
  6
CONTINUOUS
 62
   249
 10
267.958196
 20
69.494457
 30
0.0
 11
267.971916
 21
69.494457
 31
0.0
 12
267.971916
 22
70.474457
 32
0.0
 13
267.958196
 23
70.474457
 33
0.0
  0
3DFACE
  8
0
  6
CONTINUOUS
 62
   249
 10
267.971916
 20
69.494457
 30
0.0
 11
267.985636
 21
69.494457
 31
0.0
 12
267.985636
 22
70.474457
 32
0.0
 13
267.971916
 23
70.474457
 33
0.0
  0
3DFACE
  8
0
  6
CONTINUOUS
 62
   249
 10
267.985636
 20
69.494457
 30
0.0
 11
267.999356
 21
69.494457
 31
0.0
 12
267.999356
 22
70.474457
 32
0.0
 13
267.985636
 23
70.474457
 33
0.0
  0
3DFACE
  8
0
  6
CONTINUOUS
 62
   249
 10
267.999356
 20
69.494457
 30
0.0
 11
268.013076
 21
69.494457
 31
0.0
 12
268.013076
 22
70.474457
 32
0.0
 13
267.999356
 23
70.474457
 33
0.0
  0
3DFACE
  8
0
  6
CONTINUOUS
 62
   249
 10
268.013076
 20
69.494457
 30
0.0
 11
268.026796
 21
69.494457
 31
0.0
 12
268.026796
 22
70.474457
 32
0.0
 13
268.013076
 23
70.474457
 33
0.0
  0
3DFACE
  8
0
  6
CONTINUOUS
 62
   249
 10
268.026796
 20
69.494457
 30
0.0
 11
268.040516
 21
69.494457
 31
0.0
 12
268.040516
 22
70.474457
 32
0.0
 13
268.026796
 23
70.474457
 33
0.0
  0
3DFACE
  8
0
  6
CONTINUOUS
 62
   249
 10
268.040516
 20
69.494457
 30
0.0
 11
268.054236
 21
69.494457
 31
0.0
 12
268.054236
 22
70.474457
 32
0.0
 13
268.040516
 23
70.474457
 33
0.0
  0
3DFACE
  8
0
  6
CONTINUOUS
 62
   249
 10
268.054236
 20
69.494457
 30
0.0
 11
268.067956
 21
69.494457
 31
0.0
 12
268.067956
 22
70.474457
 32
0.0
 13
268.054236
 23
70.474457
 33
0.0
  0
3DFACE
  8
0
  6
CONTINUOUS
 62
   249
 10
268.067956
 20
69.494457
 30
0.0
 11
268.081676
 21
69.494457
 31
0.0
 12
268.081676
 22
70.474457
 32
0.0
 13
268.067956
 23
70.474457
 33
0.0
  0
3DFACE
  8
0
  6
CONTINUOUS
 62
   249
 10
268.081676
 20
69.494457
 30
0.0
 11
268.095396
 21
69.494457
 31
0.0
 12
268.095396
 22
70.474457
 32
0.0
 13
268.081676
 23
70.474457
 33
0.0
  0
3DFACE
  8
0
  6
CONTINUOUS
 62
   249
 10
268.095396
 20
69.494457
 30
0.0
 11
268.109116
 21
69.494457
 31
0.0
 12
268.109116
 22
70.474457
 32
0.0
 13
268.095396
 23
70.474457
 33
0.0
  0
3DFACE
  8
0
  6
CONTINUOUS
 62
   249
 10
268.109116
 20
69.494457
 30
0.0
 11
268.122836
 21
69.494457
 31
0.0
 12
268.122836
 22
70.474457
 32
0.0
 13
268.109116
 23
70.474457
 33
0.0
  0
3DFACE
  8
0
  6
CONTINUOUS
 62
   249
 10
268.122836
 20
69.494457
 30
0.0
 11
268.136556
 21
69.494457
 31
0.0
 12
268.136556
 22
70.474457
 32
0.0
 13
268.122836
 23
70.474457
 33
0.0
  0
3DFACE
  8
0
  6
CONTINUOUS
 62
   249
 10
268.136556
 20
69.494457
 30
0.0
 11
268.150276
 21
69.494457
 31
0.0
 12
268.150276
 22
70.474457
 32
0.0
 13
268.136556
 23
70.474457
 33
0.0
  0
3DFACE
  8
0
  6
CONTINUOUS
 62
   249
 10
268.150276
 20
69.494457
 30
0.0
 11
268.163996
 21
69.494457
 31
0.0
 12
268.163996
 22
70.474457
 32
0.0
 13
268.150276
 23
70.474457
 33
0.0
  0
3DFACE
  8
0
  6
CONTINUOUS
 62
   249
 10
268.163996
 20
69.494457
 30
0.0
 11
268.177716
 21
69.494457
 31
0.0
 12
268.177716
 22
70.474457
 32
0.0
 13
268.163996
 23
70.474457
 33
0.0
  0
3DFACE
  8
0
  6
CONTINUOUS
 62
   249
 10
268.177716
 20
69.494457
 30
0.0
 11
268.191436
 21
69.494457
 31
0.0
 12
268.191436
 22
70.474457
 32
0.0
 13
268.177716
 23
70.474457
 33
0.0
  0
3DFACE
  8
0
  6
CONTINUOUS
 62
   249
 10
268.191436
 20
69.494457
 30
0.0
 11
268.205156
 21
69.494457
 31
0.0
 12
268.205156
 22
70.474457
 32
0.0
 13
268.191436
 23
70.474457
 33
0.0
  0
3DFACE
  8
0
  6
CONTINUOUS
 62
   249
 10
268.205156
 20
69.494457
 30
0.0
 11
268.218876
 21
69.494457
 31
0.0
 12
268.218876
 22
70.474457
 32
0.0
 13
268.205156
 23
70.474457
 33
0.0
  0
3DFACE
  8
0
  6
CONTINUOUS
 62
   249
 10
268.218876
 20
69.494457
 30
0.0
 11
268.232596
 21
69.494457
 31
0.0
 12
268.232596
 22
70.474457
 32
0.0
 13
268.218876
 23
70.474457
 33
0.0
  0
3DFACE
  8
0
  6
CONTINUOUS
 62
   249
 10
268.232596
 20
69.494457
 30
0.0
 11
268.246316
 21
69.494457
 31
0.0
 12
268.246316
 22
70.474457
 32
0.0
 13
268.232596
 23
70.474457
 33
0.0
  0
3DFACE
  8
0
  6
CONTINUOUS
 62
   249
 10
268.246316
 20
69.494457
 30
0.0
 11
268.260036
 21
69.494457
 31
0.0
 12
268.260036
 22
70.474457
 32
0.0
 13
268.246316
 23
70.474457
 33
0.0
  0
3DFACE
  8
0
  6
CONTINUOUS
 62
   249
 10
268.260036
 20
69.494457
 30
0.0
 11
268.273756
 21
69.494457
 31
0.0
 12
268.273756
 22
70.474457
 32
0.0
 13
268.260036
 23
70.474457
 33
0.0
  0
3DFACE
  8
0
  6
CONTINUOUS
 62
   249
 10
268.273756
 20
69.494457
 30
0.0
 11
268.287476
 21
69.494457
 31
0.0
 12
268.287476
 22
70.474457
 32
0.0
 13
268.273756
 23
70.474457
 33
0.0
  0
3DFACE
  8
0
  6
CONTINUOUS
 62
   249
 10
268.287476
 20
69.494457
 30
0.0
 11
268.301196
 21
69.494457
 31
0.0
 12
268.301196
 22
70.474457
 32
0.0
 13
268.287476
 23
70.474457
 33
0.0
  0
3DFACE
  8
0
  6
CONTINUOUS
 62
   249
 10
268.301196
 20
69.494457
 30
0.0
 11
268.314916
 21
69.494457
 31
0.0
 12
268.314916
 22
70.474457
 32
0.0
 13
268.301196
 23
70.474457
 33
0.0
  0
3DFACE
  8
0
  6
CONTINUOUS
 62
   249
 10
268.314916
 20
69.494457
 30
0.0
 11
268.328636
 21
69.494457
 31
0.0
 12
268.328636
 22
70.474457
 32
0.0
 13
268.314916
 23
70.474457
 33
0.0
  0
3DFACE
  8
0
  6
CONTINUOUS
 62
   249
 10
268.328636
 20
69.494457
 30
0.0
 11
268.342356
 21
69.494457
 31
0.0
 12
268.342356
 22
70.474457
 32
0.0
 13
268.328636
 23
70.474457
 33
0.0
  0
3DFACE
  8
0
  6
CONTINUOUS
 62
   249
 10
268.342356
 20
69.494457
 30
0.0
 11
268.356076
 21
69.494457
 31
0.0
 12
268.356076
 22
70.474457
 32
0.0
 13
268.342356
 23
70.474457
 33
0.0
  0
3DFACE
  8
0
  6
CONTINUOUS
 62
   249
 10
268.356076
 20
69.494457
 30
0.0
 11
268.369796
 21
69.494457
 31
0.0
 12
268.369796
 22
70.474457
 32
0.0
 13
268.356076
 23
70.474457
 33
0.0
  0
3DFACE
  8
0
  6
CONTINUOUS
 62
   249
 10
268.369796
 20
69.494457
 30
0.0
 11
268.383516
 21
69.494457
 31
0.0
 12
268.383516
 22
70.474457
 32
0.0
 13
268.369796
 23
70.474457
 33
0.0
  0
3DFACE
  8
0
  6
CONTINUOUS
 62
   249
 10
268.383516
 20
69.494457
 30
0.0
 11
268.397236
 21
69.494457
 31
0.0
 12
268.397236
 22
70.474457
 32
0.0
 13
268.383516
 23
70.474457
 33
0.0
  0
3DFACE
  8
0
  6
CONTINUOUS
 62
   249
 10
268.397236
 20
69.494457
 30
0.0
 11
268.410956
 21
69.494457
 31
0.0
 12
268.410956
 22
70.474457
 32
0.0
 13
268.397236
 23
70.474457
 33
0.0
  0
3DFACE
  8
0
  6
CONTINUOUS
 62
   249
 10
268.410956
 20
69.494457
 30
0.0
 11
268.424676
 21
69.494457
 31
0.0
 12
268.424676
 22
70.474457
 32
0.0
 13
268.410956
 23
70.474457
 33
0.0
  0
3DFACE
  8
0
  6
CONTINUOUS
 62
   249
 10
268.424676
 20
69.494457
 30
0.0
 11
268.438396
 21
69.494457
 31
0.0
 12
268.438396
 22
70.474457
 32
0.0
 13
268.424676
 23
70.474457
 33
0.0
  0
3DFACE
  8
0
  6
CONTINUOUS
 62
   249
 10
268.438396
 20
69.494457
 30
0.0
 11
268.452116
 21
69.494457
 31
0.0
 12
268.452116
 22
70.474457
 32
0.0
 13
268.438396
 23
70.474457
 33
0.0
  0
3DFACE
  8
0
  6
CONTINUOUS
 62
   249
 10
268.452116
 20
69.494457
 30
0.0
 11
268.465836
 21
69.494457
 31
0.0
 12
268.465836
 22
70.474457
 32
0.0
 13
268.452116
 23
70.474457
 33
0.0
  0
3DFACE
  8
0
  6
CONTINUOUS
 62
   249
 10
268.465836
 20
69.494457
 30
0.0
 11
268.479556
 21
69.494457
 31
0.0
 12
268.479556
 22
70.474457
 32
0.0
 13
268.465836
 23
70.474457
 33
0.0
  0
3DFACE
  8
0
  6
CONTINUOUS
 62
   249
 10
268.479556
 20
69.494457
 30
0.0
 11
268.493276
 21
69.494457
 31
0.0
 12
268.493276
 22
70.474457
 32
0.0
 13
268.479556
 23
70.474457
 33
0.0
  0
3DFACE
  8
0
  6
CONTINUOUS
 62
   249
 10
268.493276
 20
69.494457
 30
0.0
 11
268.506996
 21
69.494457
 31
0.0
 12
268.506996
 22
70.474457
 32
0.0
 13
268.493276
 23
70.474457
 33
0.0
  0
3DFACE
  8
0
  6
CONTINUOUS
 62
   249
 10
268.506996
 20
69.494457
 30
0.0
 11
268.520716
 21
69.494457
 31
0.0
 12
268.520716
 22
70.474457
 32
0.0
 13
268.506996
 23
70.474457
 33
0.0
  0
3DFACE
  8
0
  6
CONTINUOUS
 62
   249
 10
268.520716
 20
69.494457
 30
0.0
 11
268.534436
 21
69.494457
 31
0.0
 12
268.534436
 22
70.474457
 32
0.0
 13
268.520716
 23
70.474457
 33
0.0
  0
3DFACE
  8
0
  6
CONTINUOUS
 62
   249
 10
268.534436
 20
69.494457
 30
0.0
 11
268.548156
 21
69.494457
 31
0.0
 12
268.548156
 22
70.474457
 32
0.0
 13
268.534436
 23
70.474457
 33
0.0
  0
3DFACE
  8
0
  6
CONTINUOUS
 62
   249
 10
268.548156
 20
69.494457
 30
0.0
 11
268.561876
 21
69.494457
 31
0.0
 12
268.561876
 22
70.474457
 32
0.0
 13
268.548156
 23
70.474457
 33
0.0
  0
3DFACE
  8
0
  6
CONTINUOUS
 62
   249
 10
268.561876
 20
69.494457
 30
0.0
 11
268.575596
 21
69.494457
 31
0.0
 12
268.575596
 22
70.474457
 32
0.0
 13
268.561876
 23
70.474457
 33
0.0
  0
3DFACE
  8
0
  6
CONTINUOUS
 62
   249
 10
268.575596
 20
69.494457
 30
0.0
 11
268.589316
 21
69.494457
 31
0.0
 12
268.589316
 22
70.474457
 32
0.0
 13
268.575596
 23
70.474457
 33
0.0
  0
3DFACE
  8
0
  6
CONTINUOUS
 62
   249
 10
268.589316
 20
69.494457
 30
0.0
 11
268.603036
 21
69.494457
 31
0.0
 12
268.603036
 22
70.474457
 32
0.0
 13
268.589316
 23
70.474457
 33
0.0
  0
3DFACE
  8
0
  6
CONTINUOUS
 62
   249
 10
268.603036
 20
69.494457
 30
0.0
 11
268.616756
 21
69.494457
 31
0.0
 12
268.616756
 22
70.474457
 32
0.0
 13
268.603036
 23
70.474457
 33
0.0
  0
3DFACE
  8
0
  6
CONTINUOUS
 62
   249
 10
268.616756
 20
69.494457
 30
0.0
 11
268.630476
 21
69.494457
 31
0.0
 12
268.630476
 22
70.474457
 32
0.0
 13
268.616756
 23
70.474457
 33
0.0
  0
3DFACE
  8
0
  6
CONTINUOUS
 62
   249
 10
268.630476
 20
69.494457
 30
0.0
 11
268.644196
 21
69.494457
 31
0.0
 12
268.644196
 22
70.474457
 32
0.0
 13
268.630476
 23
70.474457
 33
0.0
  0
3DFACE
  8
0
  6
CONTINUOUS
 62
   249
 10
268.644196
 20
69.494457
 30
0.0
 11
268.657916
 21
69.494457
 31
0.0
 12
268.657916
 22
70.474457
 32
0.0
 13
268.644196
 23
70.474457
 33
0.0
  0
3DFACE
  8
0
  6
CONTINUOUS
 62
   249
 10
268.657916
 20
69.494457
 30
0.0
 11
268.671636
 21
69.494457
 31
0.0
 12
268.671636
 22
70.474457
 32
0.0
 13
268.657916
 23
70.474457
 33
0.0
  0
3DFACE
  8
0
  6
CONTINUOUS
 62
   249
 10
268.671636
 20
69.494457
 30
0.0
 11
268.685356
 21
69.494457
 31
0.0
 12
268.685356
 22
70.474457
 32
0.0
 13
268.671636
 23
70.474457
 33
0.0
  0
3DFACE
  8
0
  6
CONTINUOUS
 62
   249
 10
268.685356
 20
69.494457
 30
0.0
 11
268.699076
 21
69.494457
 31
0.0
 12
268.699076
 22
70.474457
 32
0.0
 13
268.685356
 23
70.474457
 33
0.0
  0
3DFACE
  8
0
  6
CONTINUOUS
 62
   249
 10
268.699076
 20
69.494457
 30
0.0
 11
268.712796
 21
69.494457
 31
0.0
 12
268.712796
 22
70.474457
 32
0.0
 13
268.699076
 23
70.474457
 33
0.0
  0
3DFACE
  8
0
  6
CONTINUOUS
 62
   249
 10
268.712796
 20
69.494457
 30
0.0
 11
268.726516
 21
69.494457
 31
0.0
 12
268.726516
 22
70.474457
 32
0.0
 13
268.712796
 23
70.474457
 33
0.0
  0
3DFACE
  8
0
  6
CONTINUOUS
 62
   249
 10
268.726516
 20
69.494457
 30
0.0
 11
268.740236
 21
69.494457
 31
0.0
 12
268.740236
 22
70.474457
 32
0.0
 13
268.726516
 23
70.474457
 33
0.0
  0
3DFACE
  8
0
  6
CONTINUOUS
 62
   249
 10
268.740236
 20
69.494457
 30
0.0
 11
268.753956
 21
69.494457
 31
0.0
 12
268.753956
 22
70.474457
 32
0.0
 13
268.740236
 23
70.474457
 33
0.0
  0
3DFACE
  8
0
  6
CONTINUOUS
 62
   249
 10
268.753956
 20
69.494457
 30
0.0
 11
268.767676
 21
69.494457
 31
0.0
 12
268.767676
 22
70.474457
 32
0.0
 13
268.753956
 23
70.474457
 33
0.0
  0
3DFACE
  8
0
  6
CONTINUOUS
 62
   249
 10
268.767676
 20
69.494457
 30
0.0
 11
268.781396
 21
69.494457
 31
0.0
 12
268.781396
 22
70.474457
 32
0.0
 13
268.767676
 23
70.474457
 33
0.0
  0
3DFACE
  8
0
  6
CONTINUOUS
 62
   249
 10
268.781396
 20
69.494457
 30
0.0
 11
268.795116
 21
69.494457
 31
0.0
 12
268.795116
 22
70.474457
 32
0.0
 13
268.781396
 23
70.474457
 33
0.0
  0
3DFACE
  8
0
  6
CONTINUOUS
 62
   249
 10
268.795116
 20
69.494457
 30
0.0
 11
268.808836
 21
69.494457
 31
0.0
 12
268.808836
 22
70.474457
 32
0.0
 13
268.795116
 23
70.474457
 33
0.0
  0
3DFACE
  8
0
  6
CONTINUOUS
 62
   249
 10
268.808836
 20
69.494457
 30
0.0
 11
268.822556
 21
69.494457
 31
0.0
 12
268.822556
 22
70.474457
 32
0.0
 13
268.808836
 23
70.474457
 33
0.0
  0
3DFACE
  8
0
  6
CONTINUOUS
 62
   249
 10
268.822556
 20
69.494457
 30
0.0
 11
268.836276
 21
69.494457
 31
0.0
 12
268.836276
 22
70.474457
 32
0.0
 13
268.822556
 23
70.474457
 33
0.0
  0
3DFACE
  8
0
  6
CONTINUOUS
 62
   249
 10
268.836276
 20
69.494457
 30
0.0
 11
268.849996
 21
69.494457
 31
0.0
 12
268.849996
 22
70.474457
 32
0.0
 13
268.836276
 23
70.474457
 33
0.0
  0
3DFACE
  8
0
  6
CONTINUOUS
 62
   249
 10
268.849996
 20
69.494457
 30
0.0
 11
268.863716
 21
69.494457
 31
0.0
 12
268.863716
 22
70.474457
 32
0.0
 13
268.849996
 23
70.474457
 33
0.0
  0
3DFACE
  8
0
  6
CONTINUOUS
 62
   249
 10
268.863716
 20
69.494457
 30
0.0
 11
268.877436
 21
69.494457
 31
0.0
 12
268.877436
 22
70.474457
 32
0.0
 13
268.863716
 23
70.474457
 33
0.0
  0
3DFACE
  8
0
  6
CONTINUOUS
 62
   249
 10
268.877436
 20
69.494457
 30
0.0
 11
268.891156
 21
69.494457
 31
0.0
 12
268.891156
 22
70.474457
 32
0.0
 13
268.877436
 23
70.474457
 33
0.0
  0
3DFACE
  8
0
  6
CONTINUOUS
 62
   249
 10
268.891156
 20
69.494457
 30
0.0
 11
268.904876
 21
69.494457
 31
0.0
 12
268.904876
 22
70.474457
 32
0.0
 13
268.891156
 23
70.474457
 33
0.0
  0
3DFACE
  8
0
  6
CONTINUOUS
 62
   249
 10
268.904876
 20
69.494457
 30
0.0
 11
268.918596
 21
69.494457
 31
0.0
 12
268.918596
 22
70.474457
 32
0.0
 13
268.904876
 23
70.474457
 33
0.0
  0
3DFACE
  8
0
  6
CONTINUOUS
 62
   249
 10
268.918596
 20
69.494457
 30
0.0
 11
268.932316
 21
69.494457
 31
0.0
 12
268.932316
 22
70.474457
 32
0.0
 13
268.918596
 23
70.474457
 33
0.0
  0
3DFACE
  8
0
  6
CONTINUOUS
 62
   249
 10
268.932316
 20
69.494457
 30
0.0
 11
268.946036
 21
69.494457
 31
0.0
 12
268.946036
 22
70.474457
 32
0.0
 13
268.932316
 23
70.474457
 33
0.0
  0
3DFACE
  8
0
  6
CONTINUOUS
 62
   249
 10
268.946036
 20
69.494457
 30
0.0
 11
268.959756
 21
69.494457
 31
0.0
 12
268.959756
 22
70.474457
 32
0.0
 13
268.946036
 23
70.474457
 33
0.0
  0
3DFACE
  8
0
  6
CONTINUOUS
 62
   249
 10
268.959756
 20
69.494457
 30
0.0
 11
268.973476
 21
69.494457
 31
0.0
 12
268.973476
 22
70.474457
 32
0.0
 13
268.959756
 23
70.474457
 33
0.0
  0
3DFACE
  8
0
  6
CONTINUOUS
 62
   249
 10
268.973476
 20
69.494457
 30
0.0
 11
268.987196
 21
69.494457
 31
0.0
 12
268.987196
 22
70.474457
 32
0.0
 13
268.973476
 23
70.474457
 33
0.0
  0
3DFACE
  8
0
  6
CONTINUOUS
 62
   249
 10
268.987196
 20
69.494457
 30
0.0
 11
269.000916
 21
69.494457
 31
0.0
 12
269.000916
 22
70.474457
 32
0.0
 13
268.987196
 23
70.474457
 33
0.0
  0
3DFACE
  8
0
  6
CONTINUOUS
 62
   249
 10
269.000916
 20
69.494457
 30
0.0
 11
269.014636
 21
69.494457
 31
0.0
 12
269.014636
 22
70.474457
 32
0.0
 13
269.000916
 23
70.474457
 33
0.0
  0
3DFACE
  8
0
  6
CONTINUOUS
 62
   249
 10
269.014636
 20
69.494457
 30
0.0
 11
269.028356
 21
69.494457
 31
0.0
 12
269.028356
 22
70.474457
 32
0.0
 13
269.014636
 23
70.474457
 33
0.0
  0
3DFACE
  8
0
  6
CONTINUOUS
 62
   249
 10
269.028356
 20
69.494457
 30
0.0
 11
269.042076
 21
69.494457
 31
0.0
 12
269.042076
 22
70.474457
 32
0.0
 13
269.028356
 23
70.474457
 33
0.0
  0
3DFACE
  8
0
  6
CONTINUOUS
 62
   249
 10
269.042076
 20
69.494457
 30
0.0
 11
269.055796
 21
69.494457
 31
0.0
 12
269.055796
 22
70.474457
 32
0.0
 13
269.042076
 23
70.474457
 33
0.0
  0
3DFACE
  8
0
  6
CONTINUOUS
 62
   249
 10
269.055796
 20
69.494457
 30
0.0
 11
269.069516
 21
69.494457
 31
0.0
 12
269.069516
 22
70.474457
 32
0.0
 13
269.055796
 23
70.474457
 33
0.0
  0
3DFACE
  8
0
  6
CONTINUOUS
 62
   249
 10
269.069516
 20
69.494457
 30
0.0
 11
269.083236
 21
69.494457
 31
0.0
 12
269.083236
 22
70.474457
 32
0.0
 13
269.069516
 23
70.474457
 33
0.0
  0
3DFACE
  8
0
  6
CONTINUOUS
 62
   249
 10
269.083236
 20
69.494457
 30
0.0
 11
269.096956
 21
69.494457
 31
0.0
 12
269.096956
 22
70.474457
 32
0.0
 13
269.083236
 23
70.474457
 33
0.0
  0
3DFACE
  8
0
  6
CONTINUOUS
 62
   249
 10
269.096956
 20
69.494457
 30
0.0
 11
269.110676
 21
69.494457
 31
0.0
 12
269.110676
 22
70.474457
 32
0.0
 13
269.096956
 23
70.474457
 33
0.0
  0
3DFACE
  8
0
  6
CONTINUOUS
 62
   249
 10
269.110676
 20
69.494457
 30
0.0
 11
269.124396
 21
69.494457
 31
0.0
 12
269.124396
 22
70.474457
 32
0.0
 13
269.110676
 23
70.474457
 33
0.0
  0
3DFACE
  8
0
  6
CONTINUOUS
 62
   249
 10
269.124396
 20
69.494457
 30
0.0
 11
269.138116
 21
69.494457
 31
0.0
 12
269.138116
 22
70.474457
 32
0.0
 13
269.124396
 23
70.474457
 33
0.0
  0
3DFACE
  8
0
  6
CONTINUOUS
 62
   249
 10
269.138116
 20
69.494457
 30
0.0
 11
269.151836
 21
69.494457
 31
0.0
 12
269.151836
 22
70.474457
 32
0.0
 13
269.138116
 23
70.474457
 33
0.0
  0
3DFACE
  8
0
  6
CONTINUOUS
 62
   249
 10
269.151836
 20
69.494457
 30
0.0
 11
269.165556
 21
69.494457
 31
0.0
 12
269.165556
 22
70.474457
 32
0.0
 13
269.151836
 23
70.474457
 33
0.0
  0
3DFACE
  8
0
  6
CONTINUOUS
 62
   249
 10
269.165556
 20
69.494457
 30
0.0
 11
269.179276
 21
69.494457
 31
0.0
 12
269.179276
 22
70.474457
 32
0.0
 13
269.165556
 23
70.474457
 33
0.0
  0
3DFACE
  8
0
  6
CONTINUOUS
 62
   249
 10
269.179276
 20
69.494457
 30
0.0
 11
269.192996
 21
69.494457
 31
0.0
 12
269.192996
 22
70.474457
 32
0.0
 13
269.179276
 23
70.474457
 33
0.0
  0
3DFACE
  8
0
  6
CONTINUOUS
 62
   249
 10
269.192996
 20
69.494457
 30
0.0
 11
269.206716
 21
69.494457
 31
0.0
 12
269.206716
 22
70.474457
 32
0.0
 13
269.192996
 23
70.474457
 33
0.0
  0
3DFACE
  8
0
  6
CONTINUOUS
 62
   249
 10
269.206716
 20
69.494457
 30
0.0
 11
269.220436
 21
69.494457
 31
0.0
 12
269.220436
 22
70.474457
 32
0.0
 13
269.206716
 23
70.474457
 33
0.0
  0
3DFACE
  8
0
  6
CONTINUOUS
 62
   249
 10
269.220436
 20
69.494457
 30
0.0
 11
269.234156
 21
69.494457
 31
0.0
 12
269.234156
 22
70.474457
 32
0.0
 13
269.220436
 23
70.474457
 33
0.0
  0
3DFACE
  8
0
  6
CONTINUOUS
 62
   249
 10
269.234156
 20
69.494457
 30
0.0
 11
269.247876
 21
69.494457
 31
0.0
 12
269.247876
 22
70.474457
 32
0.0
 13
269.234156
 23
70.474457
 33
0.0
  0
3DFACE
  8
0
  6
CONTINUOUS
 62
   249
 10
269.247876
 20
69.494457
 30
0.0
 11
269.261596
 21
69.494457
 31
0.0
 12
269.261596
 22
70.474457
 32
0.0
 13
269.247876
 23
70.474457
 33
0.0
  0
3DFACE
  8
0
  6
CONTINUOUS
 62
   249
 10
269.261596
 20
69.494457
 30
0.0
 11
269.275316
 21
69.494457
 31
0.0
 12
269.275316
 22
70.474457
 32
0.0
 13
269.261596
 23
70.474457
 33
0.0
  0
3DFACE
  8
0
  6
CONTINUOUS
 62
   249
 10
269.275316
 20
69.494457
 30
0.0
 11
269.289036
 21
69.494457
 31
0.0
 12
269.289036
 22
70.474457
 32
0.0
 13
269.275316
 23
70.474457
 33
0.0
  0
3DFACE
  8
0
  6
CONTINUOUS
 62
   249
 10
269.289036
 20
69.494457
 30
0.0
 11
269.302756
 21
69.494457
 31
0.0
 12
269.302756
 22
70.474457
 32
0.0
 13
269.289036
 23
70.474457
 33
0.0
  0
3DFACE
  8
0
  6
CONTINUOUS
 62
   249
 10
269.302756
 20
69.494457
 30
0.0
 11
269.316476
 21
69.494457
 31
0.0
 12
269.316476
 22
70.474457
 32
0.0
 13
269.302756
 23
70.474457
 33
0.0
  0
3DFACE
  8
0
  6
CONTINUOUS
 62
   249
 10
269.316476
 20
69.494457
 30
0.0
 11
269.330196
 21
69.494457
 31
0.0
 12
269.330196
 22
70.474457
 32
0.0
 13
269.316476
 23
70.474457
 33
0.0
  0
3DFACE
  8
0
  6
CONTINUOUS
 62
   249
 10
269.330196
 20
69.494457
 30
0.0
 11
269.343916
 21
69.494457
 31
0.0
 12
269.343916
 22
70.474457
 32
0.0
 13
269.330196
 23
70.474457
 33
0.0
  0
3DFACE
  8
0
  6
CONTINUOUS
 62
   249
 10
269.343916
 20
69.494457
 30
0.0
 11
269.357636
 21
69.494457
 31
0.0
 12
269.357636
 22
70.474457
 32
0.0
 13
269.343916
 23
70.474457
 33
0.0
  0
3DFACE
  8
0
  6
CONTINUOUS
 62
   249
 10
269.357636
 20
69.494457
 30
0.0
 11
269.371356
 21
69.494457
 31
0.0
 12
269.371356
 22
70.474457
 32
0.0
 13
269.357636
 23
70.474457
 33
0.0
  0
3DFACE
  8
0
  6
CONTINUOUS
 62
   249
 10
269.371356
 20
69.494457
 30
0.0
 11
269.385076
 21
69.494457
 31
0.0
 12
269.385076
 22
70.474457
 32
0.0
 13
269.371356
 23
70.474457
 33
0.0
  0
3DFACE
  8
0
  6
CONTINUOUS
 62
   249
 10
269.385076
 20
69.494457
 30
0.0
 11
269.398796
 21
69.494457
 31
0.0
 12
269.398796
 22
70.474457
 32
0.0
 13
269.385076
 23
70.474457
 33
0.0
  0
3DFACE
  8
0
  6
CONTINUOUS
 62
   249
 10
269.398796
 20
69.494457
 30
0.0
 11
269.412516
 21
69.494457
 31
0.0
 12
269.412516
 22
70.474457
 32
0.0
 13
269.398796
 23
70.474457
 33
0.0
  0
3DFACE
  8
0
  6
CONTINUOUS
 62
   249
 10
269.412516
 20
69.494457
 30
0.0
 11
269.426236
 21
69.494457
 31
0.0
 12
269.426236
 22
70.474457
 32
0.0
 13
269.412516
 23
70.474457
 33
0.0
  0
3DFACE
  8
0
  6
CONTINUOUS
 62
   249
 10
269.426236
 20
69.494457
 30
0.0
 11
269.439956
 21
69.494457
 31
0.0
 12
269.439956
 22
70.474457
 32
0.0
 13
269.426236
 23
70.474457
 33
0.0
  0
3DFACE
  8
0
  6
CONTINUOUS
 62
   249
 10
269.439956
 20
69.494457
 30
0.0
 11
269.453676
 21
69.494457
 31
0.0
 12
269.453676
 22
70.474457
 32
0.0
 13
269.439956
 23
70.474457
 33
0.0
  0
3DFACE
  8
0
  6
CONTINUOUS
 62
   249
 10
269.453676
 20
69.494457
 30
0.0
 11
269.467396
 21
69.494457
 31
0.0
 12
269.467396
 22
70.474457
 32
0.0
 13
269.453676
 23
70.474457
 33
0.0
  0
3DFACE
  8
0
  6
CONTINUOUS
 62
   249
 10
269.467396
 20
69.494457
 30
0.0
 11
269.481116
 21
69.494457
 31
0.0
 12
269.481116
 22
70.474457
 32
0.0
 13
269.467396
 23
70.474457
 33
0.0
  0
3DFACE
  8
0
  6
CONTINUOUS
 62
   249
 10
269.481116
 20
69.494457
 30
0.0
 11
269.494836
 21
69.494457
 31
0.0
 12
269.494836
 22
70.474457
 32
0.0
 13
269.481116
 23
70.474457
 33
0.0
  0
3DFACE
  8
0
  6
CONTINUOUS
 62
   249
 10
269.494836
 20
69.494457
 30
0.0
 11
269.508556
 21
69.494457
 31
0.0
 12
269.508556
 22
70.474457
 32
0.0
 13
269.494836
 23
70.474457
 33
0.0
  0
3DFACE
  8
0
  6
CONTINUOUS
 62
   249
 10
269.508556
 20
69.494457
 30
0.0
 11
269.522276
 21
69.494457
 31
0.0
 12
269.522276
 22
70.474457
 32
0.0
 13
269.508556
 23
70.474457
 33
0.0
  0
3DFACE
  8
0
  6
CONTINUOUS
 62
   249
 10
269.522276
 20
69.494457
 30
0.0
 11
269.535996
 21
69.494457
 31
0.0
 12
269.535996
 22
70.474457
 32
0.0
 13
269.522276
 23
70.474457
 33
0.0
  0
3DFACE
  8
0
  6
CONTINUOUS
 62
   249
 10
269.535996
 20
69.494457
 30
0.0
 11
269.549716
 21
69.494457
 31
0.0
 12
269.549716
 22
70.474457
 32
0.0
 13
269.535996
 23
70.474457
 33
0.0
  0
3DFACE
  8
0
  6
CONTINUOUS
 62
   249
 10
269.549716
 20
69.494457
 30
0.0
 11
269.563436
 21
69.494457
 31
0.0
 12
269.563436
 22
70.474457
 32
0.0
 13
269.549716
 23
70.474457
 33
0.0
  0
3DFACE
  8
0
  6
CONTINUOUS
 62
   249
 10
269.563436
 20
69.494457
 30
0.0
 11
269.577156
 21
69.494457
 31
0.0
 12
269.577156
 22
70.474457
 32
0.0
 13
269.563436
 23
70.474457
 33
0.0
  0
3DFACE
  8
0
  6
CONTINUOUS
 62
   249
 10
269.577156
 20
69.494457
 30
0.0
 11
269.590876
 21
69.494457
 31
0.0
 12
269.590876
 22
70.474457
 32
0.0
 13
269.577156
 23
70.474457
 33
0.0
  0
3DFACE
  8
0
  6
CONTINUOUS
 62
   249
 10
269.590876
 20
69.494457
 30
0.0
 11
269.604596
 21
69.494457
 31
0.0
 12
269.604596
 22
70.474457
 32
0.0
 13
269.590876
 23
70.474457
 33
0.0
  0
3DFACE
  8
0
  6
CONTINUOUS
 62
   249
 10
269.604596
 20
69.494457
 30
0.0
 11
269.618316
 21
69.494457
 31
0.0
 12
269.618316
 22
70.474457
 32
0.0
 13
269.604596
 23
70.474457
 33
0.0
  0
3DFACE
  8
0
  6
CONTINUOUS
 62
   249
 10
269.618316
 20
69.494457
 30
0.0
 11
269.632036
 21
69.494457
 31
0.0
 12
269.632036
 22
70.474457
 32
0.0
 13
269.618316
 23
70.474457
 33
0.0
  0
3DFACE
  8
0
  6
CONTINUOUS
 62
   249
 10
269.632036
 20
69.494457
 30
0.0
 11
269.645756
 21
69.494457
 31
0.0
 12
269.645756
 22
70.474457
 32
0.0
 13
269.632036
 23
70.474457
 33
0.0
  0
3DFACE
  8
0
  6
CONTINUOUS
 62
   249
 10
269.645756
 20
69.494457
 30
0.0
 11
269.659476
 21
69.494457
 31
0.0
 12
269.659476
 22
70.474457
 32
0.0
 13
269.645756
 23
70.474457
 33
0.0
  0
3DFACE
  8
0
  6
CONTINUOUS
 62
   249
 10
269.659476
 20
69.494457
 30
0.0
 11
269.673196
 21
69.494457
 31
0.0
 12
269.673196
 22
70.474457
 32
0.0
 13
269.659476
 23
70.474457
 33
0.0
  0
3DFACE
  8
0
  6
CONTINUOUS
 62
   249
 10
269.673196
 20
69.494457
 30
0.0
 11
269.686916
 21
69.494457
 31
0.0
 12
269.686916
 22
70.474457
 32
0.0
 13
269.673196
 23
70.474457
 33
0.0
  0
3DFACE
  8
0
  6
CONTINUOUS
 62
   249
 10
269.686916
 20
69.494457
 30
0.0
 11
269.700636
 21
69.494457
 31
0.0
 12
269.700636
 22
70.474457
 32
0.0
 13
269.686916
 23
70.474457
 33
0.0
  0
3DFACE
  8
0
  6
CONTINUOUS
 62
   249
 10
269.700636
 20
69.494457
 30
0.0
 11
269.714356
 21
69.494457
 31
0.0
 12
269.714356
 22
70.474457
 32
0.0
 13
269.700636
 23
70.474457
 33
0.0
  0
3DFACE
  8
0
  6
CONTINUOUS
 62
   249
 10
269.714356
 20
69.494457
 30
0.0
 11
269.728076
 21
69.494457
 31
0.0
 12
269.728076
 22
70.474457
 32
0.0
 13
269.714356
 23
70.474457
 33
0.0
  0
3DFACE
  8
0
  6
CONTINUOUS
 62
   249
 10
269.728076
 20
69.494457
 30
0.0
 11
269.741796
 21
69.494457
 31
0.0
 12
269.741796
 22
70.474457
 32
0.0
 13
269.728076
 23
70.474457
 33
0.0
  0
3DFACE
  8
0
  6
CONTINUOUS
 62
   249
 10
269.741796
 20
69.494457
 30
0.0
 11
269.755516
 21
69.494457
 31
0.0
 12
269.755516
 22
70.474457
 32
0.0
 13
269.741796
 23
70.474457
 33
0.0
  0
3DFACE
  8
0
  6
CONTINUOUS
 62
   249
 10
269.755516
 20
69.494457
 30
0.0
 11
269.769236
 21
69.494457
 31
0.0
 12
269.769236
 22
70.474457
 32
0.0
 13
269.755516
 23
70.474457
 33
0.0
  0
3DFACE
  8
0
  6
CONTINUOUS
 62
   249
 10
269.769236
 20
69.494457
 30
0.0
 11
269.782956
 21
69.494457
 31
0.0
 12
269.782956
 22
70.474457
 32
0.0
 13
269.769236
 23
70.474457
 33
0.0
  0
3DFACE
  8
0
  6
CONTINUOUS
 62
   249
 10
269.782956
 20
69.494457
 30
0.0
 11
269.796676
 21
69.494457
 31
0.0
 12
269.796676
 22
70.474457
 32
0.0
 13
269.782956
 23
70.474457
 33
0.0
  0
3DFACE
  8
0
  6
CONTINUOUS
 62
   249
 10
269.796676
 20
69.494457
 30
0.0
 11
269.810396
 21
69.494457
 31
0.0
 12
269.810396
 22
70.474457
 32
0.0
 13
269.796676
 23
70.474457
 33
0.0
  0
3DFACE
  8
0
  6
CONTINUOUS
 62
   249
 10
269.810396
 20
69.494457
 30
0.0
 11
269.824116
 21
69.494457
 31
0.0
 12
269.824116
 22
70.474457
 32
0.0
 13
269.810396
 23
70.474457
 33
0.0
  0
3DFACE
  8
0
  6
CONTINUOUS
 62
   249
 10
269.824116
 20
69.494457
 30
0.0
 11
269.837836
 21
69.494457
 31
0.0
 12
269.837836
 22
70.474457
 32
0.0
 13
269.824116
 23
70.474457
 33
0.0
  0
3DFACE
  8
0
  6
CONTINUOUS
 62
   249
 10
269.837836
 20
69.494457
 30
0.0
 11
269.851556
 21
69.494457
 31
0.0
 12
269.851556
 22
70.474457
 32
0.0
 13
269.837836
 23
70.474457
 33
0.0
  0
3DFACE
  8
0
  6
CONTINUOUS
 62
   249
 10
269.851556
 20
69.494457
 30
0.0
 11
269.865276
 21
69.494457
 31
0.0
 12
269.865276
 22
70.474457
 32
0.0
 13
269.851556
 23
70.474457
 33
0.0
  0
3DFACE
  8
0
  6
CONTINUOUS
 62
   249
 10
269.865276
 20
69.494457
 30
0.0
 11
269.878996
 21
69.494457
 31
0.0
 12
269.878996
 22
70.474457
 32
0.0
 13
269.865276
 23
70.474457
 33
0.0
  0
3DFACE
  8
0
  6
CONTINUOUS
 62
   249
 10
269.878996
 20
69.494457
 30
0.0
 11
269.892716
 21
69.494457
 31
0.0
 12
269.892716
 22
70.474457
 32
0.0
 13
269.878996
 23
70.474457
 33
0.0
  0
3DFACE
  8
0
  6
CONTINUOUS
 62
   249
 10
269.892716
 20
69.494457
 30
0.0
 11
269.906436
 21
69.494457
 31
0.0
 12
269.906436
 22
70.474457
 32
0.0
 13
269.892716
 23
70.474457
 33
0.0
  0
3DFACE
  8
0
  6
CONTINUOUS
 62
   249
 10
269.906436
 20
69.494457
 30
0.0
 11
269.920156
 21
69.494457
 31
0.0
 12
269.920156
 22
70.474457
 32
0.0
 13
269.906436
 23
70.474457
 33
0.0
  0
3DFACE
  8
0
  6
CONTINUOUS
 62
   249
 10
269.920156
 20
69.494457
 30
0.0
 11
269.933876
 21
69.494457
 31
0.0
 12
269.933876
 22
70.474457
 32
0.0
 13
269.920156
 23
70.474457
 33
0.0
  0
3DFACE
  8
0
  6
CONTINUOUS
 62
   249
 10
269.933876
 20
69.494457
 30
0.0
 11
269.947596
 21
69.494457
 31
0.0
 12
269.947596
 22
70.474457
 32
0.0
 13
269.933876
 23
70.474457
 33
0.0
  0
3DFACE
  8
0
  6
CONTINUOUS
 62
   249
 10
269.947596
 20
69.494457
 30
0.0
 11
269.961316
 21
69.494457
 31
0.0
 12
269.961316
 22
70.474457
 32
0.0
 13
269.947596
 23
70.474457
 33
0.0
  0
3DFACE
  8
0
  6
CONTINUOUS
 62
   249
 10
269.961316
 20
69.494457
 30
0.0
 11
269.975036
 21
69.494457
 31
0.0
 12
269.975036
 22
70.474457
 32
0.0
 13
269.961316
 23
70.474457
 33
0.0
  0
3DFACE
  8
0
  6
CONTINUOUS
 62
   249
 10
269.975036
 20
69.494457
 30
0.0
 11
269.988756
 21
69.494457
 31
0.0
 12
269.988756
 22
70.474457
 32
0.0
 13
269.975036
 23
70.474457
 33
0.0
  0
3DFACE
  8
0
  6
CONTINUOUS
 62
   249
 10
269.988756
 20
69.494457
 30
0.0
 11
270.002476
 21
69.494457
 31
0.0
 12
270.002476
 22
70.474457
 32
0.0
 13
269.988756
 23
70.474457
 33
0.0
  0
3DFACE
  8
0
  6
CONTINUOUS
 62
   249
 10
270.002476
 20
69.494457
 30
0.0
 11
270.016196
 21
69.494457
 31
0.0
 12
270.016196
 22
70.474457
 32
0.0
 13
270.002476
 23
70.474457
 33
0.0
  0
3DFACE
  8
0
  6
CONTINUOUS
 62
   249
 10
270.016196
 20
69.494457
 30
0.0
 11
270.029916
 21
69.494457
 31
0.0
 12
270.029916
 22
70.474457
 32
0.0
 13
270.016196
 23
70.474457
 33
0.0
  0
3DFACE
  8
0
  6
CONTINUOUS
 62
   249
 10
270.029916
 20
69.494457
 30
0.0
 11
270.043636
 21
69.494457
 31
0.0
 12
270.043636
 22
70.474457
 32
0.0
 13
270.029916
 23
70.474457
 33
0.0
  0
3DFACE
  8
0
  6
CONTINUOUS
 62
   249
 10
270.043636
 20
69.494457
 30
0.0
 11
270.057356
 21
69.494457
 31
0.0
 12
270.057356
 22
70.474457
 32
0.0
 13
270.043636
 23
70.474457
 33
0.0
  0
3DFACE
  8
0
  6
CONTINUOUS
 62
   249
 10
270.057356
 20
69.494457
 30
0.0
 11
270.071076
 21
69.494457
 31
0.0
 12
270.071076
 22
70.474457
 32
0.0
 13
270.057356
 23
70.474457
 33
0.0
  0
3DFACE
  8
0
  6
CONTINUOUS
 62
   249
 10
270.071076
 20
69.494457
 30
0.0
 11
270.084796
 21
69.494457
 31
0.0
 12
270.084796
 22
70.474457
 32
0.0
 13
270.071076
 23
70.474457
 33
0.0
  0
3DFACE
  8
0
  6
CONTINUOUS
 62
   249
 10
270.084796
 20
69.494457
 30
0.0
 11
270.098516
 21
69.494457
 31
0.0
 12
270.098516
 22
70.474457
 32
0.0
 13
270.084796
 23
70.474457
 33
0.0
  0
3DFACE
  8
0
  6
CONTINUOUS
 62
   249
 10
270.098516
 20
69.494457
 30
0.0
 11
270.112236
 21
69.494457
 31
0.0
 12
270.112236
 22
70.474457
 32
0.0
 13
270.098516
 23
70.474457
 33
0.0
  0
3DFACE
  8
0
  6
CONTINUOUS
 62
   249
 10
270.112236
 20
69.494457
 30
0.0
 11
270.125956
 21
69.494457
 31
0.0
 12
270.125956
 22
70.474457
 32
0.0
 13
270.112236
 23
70.474457
 33
0.0
  0
3DFACE
  8
0
  6
CONTINUOUS
 62
   249
 10
270.125956
 20
69.494457
 30
0.0
 11
270.139676
 21
69.494457
 31
0.0
 12
270.139676
 22
70.474457
 32
0.0
 13
270.125956
 23
70.474457
 33
0.0
  0
3DFACE
  8
0
  6
CONTINUOUS
 62
   249
 10
270.139676
 20
69.494457
 30
0.0
 11
270.153396
 21
69.494457
 31
0.0
 12
270.153396
 22
70.474457
 32
0.0
 13
270.139676
 23
70.474457
 33
0.0
  0
3DFACE
  8
0
  6
CONTINUOUS
 62
   249
 10
270.153396
 20
69.494457
 30
0.0
 11
270.167116
 21
69.494457
 31
0.0
 12
270.167116
 22
70.474457
 32
0.0
 13
270.153396
 23
70.474457
 33
0.0
  0
3DFACE
  8
0
  6
CONTINUOUS
 62
   249
 10
270.167116
 20
69.494457
 30
0.0
 11
270.180836
 21
69.494457
 31
0.0
 12
270.180836
 22
70.474457
 32
0.0
 13
270.167116
 23
70.474457
 33
0.0
  0
3DFACE
  8
0
  6
CONTINUOUS
 62
   249
 10
270.180836
 20
69.494457
 30
0.0
 11
270.194556
 21
69.494457
 31
0.0
 12
270.194556
 22
70.474457
 32
0.0
 13
270.180836
 23
70.474457
 33
0.0
  0
3DFACE
  8
0
  6
CONTINUOUS
 62
   249
 10
270.194556
 20
69.494457
 30
0.0
 11
270.208276
 21
69.494457
 31
0.0
 12
270.208276
 22
70.474457
 32
0.0
 13
270.194556
 23
70.474457
 33
0.0
  0
3DFACE
  8
0
  6
CONTINUOUS
 62
   249
 10
270.208276
 20
69.494457
 30
0.0
 11
270.221996
 21
69.494457
 31
0.0
 12
270.221996
 22
70.474457
 32
0.0
 13
270.208276
 23
70.474457
 33
0.0
  0
3DFACE
  8
0
  6
CONTINUOUS
 62
   249
 10
270.221996
 20
69.494457
 30
0.0
 11
270.235716
 21
69.494457
 31
0.0
 12
270.235716
 22
70.474457
 32
0.0
 13
270.221996
 23
70.474457
 33
0.0
  0
3DFACE
  8
0
  6
CONTINUOUS
 62
   249
 10
270.235716
 20
69.494457
 30
0.0
 11
270.249436
 21
69.494457
 31
0.0
 12
270.249436
 22
70.474457
 32
0.0
 13
270.235716
 23
70.474457
 33
0.0
  0
3DFACE
  8
0
  6
CONTINUOUS
 62
   249
 10
266.819436
 20
61.923461
 30
0.0
 11
266.833156
 21
61.923461
 31
0.0
 12
266.833156
 22
62.903461
 32
0.0
 13
266.819436
 23
62.903461
 33
0.0
  0
3DFACE
  8
0
  6
CONTINUOUS
 62
   249
 10
266.833156
 20
61.923461
 30
0.0
 11
266.846876
 21
61.923461
 31
0.0
 12
266.846876
 22
62.903461
 32
0.0
 13
266.833156
 23
62.903461
 33
0.0
  0
3DFACE
  8
0
  6
CONTINUOUS
 62
   249
 10
266.846876
 20
61.923461
 30
0.0
 11
266.860596
 21
61.923461
 31
0.0
 12
266.860596
 22
62.903461
 32
0.0
 13
266.846876
 23
62.903461
 33
0.0
  0
3DFACE
  8
0
  6
CONTINUOUS
 62
   249
 10
266.860596
 20
61.923461
 30
0.0
 11
266.874316
 21
61.923461
 31
0.0
 12
266.874316
 22
62.903461
 32
0.0
 13
266.860596
 23
62.903461
 33
0.0
  0
3DFACE
  8
0
  6
CONTINUOUS
 62
   249
 10
266.874316
 20
61.923461
 30
0.0
 11
266.888036
 21
61.923461
 31
0.0
 12
266.888036
 22
62.903461
 32
0.0
 13
266.874316
 23
62.903461
 33
0.0
  0
3DFACE
  8
0
  6
CONTINUOUS
 62
   249
 10
266.888036
 20
61.923461
 30
0.0
 11
266.901756
 21
61.923461
 31
0.0
 12
266.901756
 22
62.903461
 32
0.0
 13
266.888036
 23
62.903461
 33
0.0
  0
3DFACE
  8
0
  6
CONTINUOUS
 62
   249
 10
266.901756
 20
61.923461
 30
0.0
 11
266.915476
 21
61.923461
 31
0.0
 12
266.915476
 22
62.903461
 32
0.0
 13
266.901756
 23
62.903461
 33
0.0
  0
3DFACE
  8
0
  6
CONTINUOUS
 62
   249
 10
266.915476
 20
61.923461
 30
0.0
 11
266.929196
 21
61.923461
 31
0.0
 12
266.929196
 22
62.903461
 32
0.0
 13
266.915476
 23
62.903461
 33
0.0
  0
3DFACE
  8
0
  6
CONTINUOUS
 62
   249
 10
266.929196
 20
61.923461
 30
0.0
 11
266.942916
 21
61.923461
 31
0.0
 12
266.942916
 22
62.903461
 32
0.0
 13
266.929196
 23
62.903461
 33
0.0
  0
3DFACE
  8
0
  6
CONTINUOUS
 62
   249
 10
266.942916
 20
61.923461
 30
0.0
 11
266.956636
 21
61.923461
 31
0.0
 12
266.956636
 22
62.903461
 32
0.0
 13
266.942916
 23
62.903461
 33
0.0
  0
3DFACE
  8
0
  6
CONTINUOUS
 62
   249
 10
266.956636
 20
61.923461
 30
0.0
 11
266.970356
 21
61.923461
 31
0.0
 12
266.970356
 22
62.903461
 32
0.0
 13
266.956636
 23
62.903461
 33
0.0
  0
3DFACE
  8
0
  6
CONTINUOUS
 62
   249
 10
266.970356
 20
61.923461
 30
0.0
 11
266.984076
 21
61.923461
 31
0.0
 12
266.984076
 22
62.903461
 32
0.0
 13
266.970356
 23
62.903461
 33
0.0
  0
3DFACE
  8
0
  6
CONTINUOUS
 62
   249
 10
266.984076
 20
61.923461
 30
0.0
 11
266.997796
 21
61.923461
 31
0.0
 12
266.997796
 22
62.903461
 32
0.0
 13
266.984076
 23
62.903461
 33
0.0
  0
3DFACE
  8
0
  6
CONTINUOUS
 62
   249
 10
266.997796
 20
61.923461
 30
0.0
 11
267.011516
 21
61.923461
 31
0.0
 12
267.011516
 22
62.903461
 32
0.0
 13
266.997796
 23
62.903461
 33
0.0
  0
3DFACE
  8
0
  6
CONTINUOUS
 62
   249
 10
267.011516
 20
61.923461
 30
0.0
 11
267.025236
 21
61.923461
 31
0.0
 12
267.025236
 22
62.903461
 32
0.0
 13
267.011516
 23
62.903461
 33
0.0
  0
3DFACE
  8
0
  6
CONTINUOUS
 62
   249
 10
267.025236
 20
61.923461
 30
0.0
 11
267.038956
 21
61.923461
 31
0.0
 12
267.038956
 22
62.903461
 32
0.0
 13
267.025236
 23
62.903461
 33
0.0
  0
3DFACE
  8
0
  6
CONTINUOUS
 62
   249
 10
267.038956
 20
61.923461
 30
0.0
 11
267.052676
 21
61.923461
 31
0.0
 12
267.052676
 22
62.903461
 32
0.0
 13
267.038956
 23
62.903461
 33
0.0
  0
3DFACE
  8
0
  6
CONTINUOUS
 62
   249
 10
267.052676
 20
61.923461
 30
0.0
 11
267.066396
 21
61.923461
 31
0.0
 12
267.066396
 22
62.903461
 32
0.0
 13
267.052676
 23
62.903461
 33
0.0
  0
3DFACE
  8
0
  6
CONTINUOUS
 62
   249
 10
267.066396
 20
61.923461
 30
0.0
 11
267.080116
 21
61.923461
 31
0.0
 12
267.080116
 22
62.903461
 32
0.0
 13
267.066396
 23
62.903461
 33
0.0
  0
3DFACE
  8
0
  6
CONTINUOUS
 62
   249
 10
267.080116
 20
61.923461
 30
0.0
 11
267.093836
 21
61.923461
 31
0.0
 12
267.093836
 22
62.903461
 32
0.0
 13
267.080116
 23
62.903461
 33
0.0
  0
3DFACE
  8
0
  6
CONTINUOUS
 62
   249
 10
267.093836
 20
61.923461
 30
0.0
 11
267.107556
 21
61.923461
 31
0.0
 12
267.107556
 22
62.903461
 32
0.0
 13
267.093836
 23
62.903461
 33
0.0
  0
3DFACE
  8
0
  6
CONTINUOUS
 62
   249
 10
267.107556
 20
61.923461
 30
0.0
 11
267.121276
 21
61.923461
 31
0.0
 12
267.121276
 22
62.903461
 32
0.0
 13
267.107556
 23
62.903461
 33
0.0
  0
3DFACE
  8
0
  6
CONTINUOUS
 62
   249
 10
267.121276
 20
61.923461
 30
0.0
 11
267.134996
 21
61.923461
 31
0.0
 12
267.134996
 22
62.903461
 32
0.0
 13
267.121276
 23
62.903461
 33
0.0
  0
3DFACE
  8
0
  6
CONTINUOUS
 62
   249
 10
267.134996
 20
61.923461
 30
0.0
 11
267.148716
 21
61.923461
 31
0.0
 12
267.148716
 22
62.903461
 32
0.0
 13
267.134996
 23
62.903461
 33
0.0
  0
3DFACE
  8
0
  6
CONTINUOUS
 62
   249
 10
267.148716
 20
61.923461
 30
0.0
 11
267.162436
 21
61.923461
 31
0.0
 12
267.162436
 22
62.903461
 32
0.0
 13
267.148716
 23
62.903461
 33
0.0
  0
3DFACE
  8
0
  6
CONTINUOUS
 62
   249
 10
267.162436
 20
61.923461
 30
0.0
 11
267.176156
 21
61.923461
 31
0.0
 12
267.176156
 22
62.903461
 32
0.0
 13
267.162436
 23
62.903461
 33
0.0
  0
3DFACE
  8
0
  6
CONTINUOUS
 62
   249
 10
267.176156
 20
61.923461
 30
0.0
 11
267.189876
 21
61.923461
 31
0.0
 12
267.189876
 22
62.903461
 32
0.0
 13
267.176156
 23
62.903461
 33
0.0
  0
3DFACE
  8
0
  6
CONTINUOUS
 62
   249
 10
267.189876
 20
61.923461
 30
0.0
 11
267.203596
 21
61.923461
 31
0.0
 12
267.203596
 22
62.903461
 32
0.0
 13
267.189876
 23
62.903461
 33
0.0
  0
3DFACE
  8
0
  6
CONTINUOUS
 62
   249
 10
267.203596
 20
61.923461
 30
0.0
 11
267.217316
 21
61.923461
 31
0.0
 12
267.217316
 22
62.903461
 32
0.0
 13
267.203596
 23
62.903461
 33
0.0
  0
3DFACE
  8
0
  6
CONTINUOUS
 62
   249
 10
267.217316
 20
61.923461
 30
0.0
 11
267.231036
 21
61.923461
 31
0.0
 12
267.231036
 22
62.903461
 32
0.0
 13
267.217316
 23
62.903461
 33
0.0
  0
3DFACE
  8
0
  6
CONTINUOUS
 62
   249
 10
267.231036
 20
61.923461
 30
0.0
 11
267.244756
 21
61.923461
 31
0.0
 12
267.244756
 22
62.903461
 32
0.0
 13
267.231036
 23
62.903461
 33
0.0
  0
3DFACE
  8
0
  6
CONTINUOUS
 62
   249
 10
267.244756
 20
61.923461
 30
0.0
 11
267.258476
 21
61.923461
 31
0.0
 12
267.258476
 22
62.903461
 32
0.0
 13
267.244756
 23
62.903461
 33
0.0
  0
3DFACE
  8
0
  6
CONTINUOUS
 62
   249
 10
267.258476
 20
61.923461
 30
0.0
 11
267.272196
 21
61.923461
 31
0.0
 12
267.272196
 22
62.903461
 32
0.0
 13
267.258476
 23
62.903461
 33
0.0
  0
3DFACE
  8
0
  6
CONTINUOUS
 62
   249
 10
267.272196
 20
61.923461
 30
0.0
 11
267.285916
 21
61.923461
 31
0.0
 12
267.285916
 22
62.903461
 32
0.0
 13
267.272196
 23
62.903461
 33
0.0
  0
3DFACE
  8
0
  6
CONTINUOUS
 62
   249
 10
267.285916
 20
61.923461
 30
0.0
 11
267.299636
 21
61.923461
 31
0.0
 12
267.299636
 22
62.903461
 32
0.0
 13
267.285916
 23
62.903461
 33
0.0
  0
3DFACE
  8
0
  6
CONTINUOUS
 62
   249
 10
267.299636
 20
61.923461
 30
0.0
 11
267.313356
 21
61.923461
 31
0.0
 12
267.313356
 22
62.903461
 32
0.0
 13
267.299636
 23
62.903461
 33
0.0
  0
3DFACE
  8
0
  6
CONTINUOUS
 62
   249
 10
267.313356
 20
61.923461
 30
0.0
 11
267.327076
 21
61.923461
 31
0.0
 12
267.327076
 22
62.903461
 32
0.0
 13
267.313356
 23
62.903461
 33
0.0
  0
3DFACE
  8
0
  6
CONTINUOUS
 62
   249
 10
267.327076
 20
61.923461
 30
0.0
 11
267.340796
 21
61.923461
 31
0.0
 12
267.340796
 22
62.903461
 32
0.0
 13
267.327076
 23
62.903461
 33
0.0
  0
3DFACE
  8
0
  6
CONTINUOUS
 62
   249
 10
267.340796
 20
61.923461
 30
0.0
 11
267.354516
 21
61.923461
 31
0.0
 12
267.354516
 22
62.903461
 32
0.0
 13
267.340796
 23
62.903461
 33
0.0
  0
3DFACE
  8
0
  6
CONTINUOUS
 62
   249
 10
267.354516
 20
61.923461
 30
0.0
 11
267.368236
 21
61.923461
 31
0.0
 12
267.368236
 22
62.903461
 32
0.0
 13
267.354516
 23
62.903461
 33
0.0
  0
3DFACE
  8
0
  6
CONTINUOUS
 62
   249
 10
267.368236
 20
61.923461
 30
0.0
 11
267.381956
 21
61.923461
 31
0.0
 12
267.381956
 22
62.903461
 32
0.0
 13
267.368236
 23
62.903461
 33
0.0
  0
3DFACE
  8
0
  6
CONTINUOUS
 62
   249
 10
267.381956
 20
61.923461
 30
0.0
 11
267.395676
 21
61.923461
 31
0.0
 12
267.395676
 22
62.903461
 32
0.0
 13
267.381956
 23
62.903461
 33
0.0
  0
3DFACE
  8
0
  6
CONTINUOUS
 62
   249
 10
267.395676
 20
61.923461
 30
0.0
 11
267.409396
 21
61.923461
 31
0.0
 12
267.409396
 22
62.903461
 32
0.0
 13
267.395676
 23
62.903461
 33
0.0
  0
3DFACE
  8
0
  6
CONTINUOUS
 62
   249
 10
267.409396
 20
61.923461
 30
0.0
 11
267.423116
 21
61.923461
 31
0.0
 12
267.423116
 22
62.903461
 32
0.0
 13
267.409396
 23
62.903461
 33
0.0
  0
3DFACE
  8
0
  6
CONTINUOUS
 62
   249
 10
267.423116
 20
61.923461
 30
0.0
 11
267.436836
 21
61.923461
 31
0.0
 12
267.436836
 22
62.903461
 32
0.0
 13
267.423116
 23
62.903461
 33
0.0
  0
3DFACE
  8
0
  6
CONTINUOUS
 62
   249
 10
267.436836
 20
61.923461
 30
0.0
 11
267.450556
 21
61.923461
 31
0.0
 12
267.450556
 22
62.903461
 32
0.0
 13
267.436836
 23
62.903461
 33
0.0
  0
3DFACE
  8
0
  6
CONTINUOUS
 62
   249
 10
267.450556
 20
61.923461
 30
0.0
 11
267.464276
 21
61.923461
 31
0.0
 12
267.464276
 22
62.903461
 32
0.0
 13
267.450556
 23
62.903461
 33
0.0
  0
3DFACE
  8
0
  6
CONTINUOUS
 62
   249
 10
267.464276
 20
61.923461
 30
0.0
 11
267.477996
 21
61.923461
 31
0.0
 12
267.477996
 22
62.903461
 32
0.0
 13
267.464276
 23
62.903461
 33
0.0
  0
3DFACE
  8
0
  6
CONTINUOUS
 62
   249
 10
267.477996
 20
61.923461
 30
0.0
 11
267.491716
 21
61.923461
 31
0.0
 12
267.491716
 22
62.903461
 32
0.0
 13
267.477996
 23
62.903461
 33
0.0
  0
3DFACE
  8
0
  6
CONTINUOUS
 62
   249
 10
267.491716
 20
61.923461
 30
0.0
 11
267.505436
 21
61.923461
 31
0.0
 12
267.505436
 22
62.903461
 32
0.0
 13
267.491716
 23
62.903461
 33
0.0
  0
3DFACE
  8
0
  6
CONTINUOUS
 62
   249
 10
267.505436
 20
61.923461
 30
0.0
 11
267.519156
 21
61.923461
 31
0.0
 12
267.519156
 22
62.903461
 32
0.0
 13
267.505436
 23
62.903461
 33
0.0
  0
3DFACE
  8
0
  6
CONTINUOUS
 62
   249
 10
267.519156
 20
61.923461
 30
0.0
 11
267.532876
 21
61.923461
 31
0.0
 12
267.532876
 22
62.903461
 32
0.0
 13
267.519156
 23
62.903461
 33
0.0
  0
3DFACE
  8
0
  6
CONTINUOUS
 62
   249
 10
267.532876
 20
61.923461
 30
0.0
 11
267.546596
 21
61.923461
 31
0.0
 12
267.546596
 22
62.903461
 32
0.0
 13
267.532876
 23
62.903461
 33
0.0
  0
3DFACE
  8
0
  6
CONTINUOUS
 62
   249
 10
267.546596
 20
61.923461
 30
0.0
 11
267.560316
 21
61.923461
 31
0.0
 12
267.560316
 22
62.903461
 32
0.0
 13
267.546596
 23
62.903461
 33
0.0
  0
3DFACE
  8
0
  6
CONTINUOUS
 62
   249
 10
267.560316
 20
61.923461
 30
0.0
 11
267.574036
 21
61.923461
 31
0.0
 12
267.574036
 22
62.903461
 32
0.0
 13
267.560316
 23
62.903461
 33
0.0
  0
3DFACE
  8
0
  6
CONTINUOUS
 62
   249
 10
267.574036
 20
61.923461
 30
0.0
 11
267.587756
 21
61.923461
 31
0.0
 12
267.587756
 22
62.903461
 32
0.0
 13
267.574036
 23
62.903461
 33
0.0
  0
3DFACE
  8
0
  6
CONTINUOUS
 62
   249
 10
267.587756
 20
61.923461
 30
0.0
 11
267.601476
 21
61.923461
 31
0.0
 12
267.601476
 22
62.903461
 32
0.0
 13
267.587756
 23
62.903461
 33
0.0
  0
3DFACE
  8
0
  6
CONTINUOUS
 62
   249
 10
267.601476
 20
61.923461
 30
0.0
 11
267.615196
 21
61.923461
 31
0.0
 12
267.615196
 22
62.903461
 32
0.0
 13
267.601476
 23
62.903461
 33
0.0
  0
3DFACE
  8
0
  6
CONTINUOUS
 62
   249
 10
267.615196
 20
61.923461
 30
0.0
 11
267.628916
 21
61.923461
 31
0.0
 12
267.628916
 22
62.903461
 32
0.0
 13
267.615196
 23
62.903461
 33
0.0
  0
3DFACE
  8
0
  6
CONTINUOUS
 62
   249
 10
267.628916
 20
61.923461
 30
0.0
 11
267.642636
 21
61.923461
 31
0.0
 12
267.642636
 22
62.903461
 32
0.0
 13
267.628916
 23
62.903461
 33
0.0
  0
3DFACE
  8
0
  6
CONTINUOUS
 62
   249
 10
267.642636
 20
61.923461
 30
0.0
 11
267.656356
 21
61.923461
 31
0.0
 12
267.656356
 22
62.903461
 32
0.0
 13
267.642636
 23
62.903461
 33
0.0
  0
3DFACE
  8
0
  6
CONTINUOUS
 62
   249
 10
267.656356
 20
61.923461
 30
0.0
 11
267.670076
 21
61.923461
 31
0.0
 12
267.670076
 22
62.903461
 32
0.0
 13
267.656356
 23
62.903461
 33
0.0
  0
3DFACE
  8
0
  6
CONTINUOUS
 62
   249
 10
267.670076
 20
61.923461
 30
0.0
 11
267.683796
 21
61.923461
 31
0.0
 12
267.683796
 22
62.903461
 32
0.0
 13
267.670076
 23
62.903461
 33
0.0
  0
3DFACE
  8
0
  6
CONTINUOUS
 62
   249
 10
267.683796
 20
61.923461
 30
0.0
 11
267.697516
 21
61.923461
 31
0.0
 12
267.697516
 22
62.903461
 32
0.0
 13
267.683796
 23
62.903461
 33
0.0
  0
3DFACE
  8
0
  6
CONTINUOUS
 62
   249
 10
267.697516
 20
61.923461
 30
0.0
 11
267.711236
 21
61.923461
 31
0.0
 12
267.711236
 22
62.903461
 32
0.0
 13
267.697516
 23
62.903461
 33
0.0
  0
3DFACE
  8
0
  6
CONTINUOUS
 62
   249
 10
267.711236
 20
61.923461
 30
0.0
 11
267.724956
 21
61.923461
 31
0.0
 12
267.724956
 22
62.903461
 32
0.0
 13
267.711236
 23
62.903461
 33
0.0
  0
3DFACE
  8
0
  6
CONTINUOUS
 62
   249
 10
267.724956
 20
61.923461
 30
0.0
 11
267.738676
 21
61.923461
 31
0.0
 12
267.738676
 22
62.903461
 32
0.0
 13
267.724956
 23
62.903461
 33
0.0
  0
3DFACE
  8
0
  6
CONTINUOUS
 62
   249
 10
267.738676
 20
61.923461
 30
0.0
 11
267.752396
 21
61.923461
 31
0.0
 12
267.752396
 22
62.903461
 32
0.0
 13
267.738676
 23
62.903461
 33
0.0
  0
3DFACE
  8
0
  6
CONTINUOUS
 62
   249
 10
267.752396
 20
61.923461
 30
0.0
 11
267.766116
 21
61.923461
 31
0.0
 12
267.766116
 22
62.903461
 32
0.0
 13
267.752396
 23
62.903461
 33
0.0
  0
3DFACE
  8
0
  6
CONTINUOUS
 62
   249
 10
267.766116
 20
61.923461
 30
0.0
 11
267.779836
 21
61.923461
 31
0.0
 12
267.779836
 22
62.903461
 32
0.0
 13
267.766116
 23
62.903461
 33
0.0
  0
3DFACE
  8
0
  6
CONTINUOUS
 62
   249
 10
267.779836
 20
61.923461
 30
0.0
 11
267.793556
 21
61.923461
 31
0.0
 12
267.793556
 22
62.903461
 32
0.0
 13
267.779836
 23
62.903461
 33
0.0
  0
3DFACE
  8
0
  6
CONTINUOUS
 62
   249
 10
267.793556
 20
61.923461
 30
0.0
 11
267.807276
 21
61.923461
 31
0.0
 12
267.807276
 22
62.903461
 32
0.0
 13
267.793556
 23
62.903461
 33
0.0
  0
3DFACE
  8
0
  6
CONTINUOUS
 62
   249
 10
267.807276
 20
61.923461
 30
0.0
 11
267.820996
 21
61.923461
 31
0.0
 12
267.820996
 22
62.903461
 32
0.0
 13
267.807276
 23
62.903461
 33
0.0
  0
3DFACE
  8
0
  6
CONTINUOUS
 62
   249
 10
267.820996
 20
61.923461
 30
0.0
 11
267.834716
 21
61.923461
 31
0.0
 12
267.834716
 22
62.903461
 32
0.0
 13
267.820996
 23
62.903461
 33
0.0
  0
3DFACE
  8
0
  6
CONTINUOUS
 62
   249
 10
267.834716
 20
61.923461
 30
0.0
 11
267.848436
 21
61.923461
 31
0.0
 12
267.848436
 22
62.903461
 32
0.0
 13
267.834716
 23
62.903461
 33
0.0
  0
3DFACE
  8
0
  6
CONTINUOUS
 62
   249
 10
267.848436
 20
61.923461
 30
0.0
 11
267.862156
 21
61.923461
 31
0.0
 12
267.862156
 22
62.903461
 32
0.0
 13
267.848436
 23
62.903461
 33
0.0
  0
3DFACE
  8
0
  6
CONTINUOUS
 62
   249
 10
267.862156
 20
61.923461
 30
0.0
 11
267.875876
 21
61.923461
 31
0.0
 12
267.875876
 22
62.903461
 32
0.0
 13
267.862156
 23
62.903461
 33
0.0
  0
3DFACE
  8
0
  6
CONTINUOUS
 62
   249
 10
267.875876
 20
61.923461
 30
0.0
 11
267.889596
 21
61.923461
 31
0.0
 12
267.889596
 22
62.903461
 32
0.0
 13
267.875876
 23
62.903461
 33
0.0
  0
3DFACE
  8
0
  6
CONTINUOUS
 62
   249
 10
267.889596
 20
61.923461
 30
0.0
 11
267.903316
 21
61.923461
 31
0.0
 12
267.903316
 22
62.903461
 32
0.0
 13
267.889596
 23
62.903461
 33
0.0
  0
3DFACE
  8
0
  6
CONTINUOUS
 62
   249
 10
267.903316
 20
61.923461
 30
0.0
 11
267.917036
 21
61.923461
 31
0.0
 12
267.917036
 22
62.903461
 32
0.0
 13
267.903316
 23
62.903461
 33
0.0
  0
3DFACE
  8
0
  6
CONTINUOUS
 62
   249
 10
267.917036
 20
61.923461
 30
0.0
 11
267.930756
 21
61.923461
 31
0.0
 12
267.930756
 22
62.903461
 32
0.0
 13
267.917036
 23
62.903461
 33
0.0
  0
3DFACE
  8
0
  6
CONTINUOUS
 62
   249
 10
267.930756
 20
61.923461
 30
0.0
 11
267.944476
 21
61.923461
 31
0.0
 12
267.944476
 22
62.903461
 32
0.0
 13
267.930756
 23
62.903461
 33
0.0
  0
3DFACE
  8
0
  6
CONTINUOUS
 62
   249
 10
267.944476
 20
61.923461
 30
0.0
 11
267.958196
 21
61.923461
 31
0.0
 12
267.958196
 22
62.903461
 32
0.0
 13
267.944476
 23
62.903461
 33
0.0
  0
3DFACE
  8
0
  6
CONTINUOUS
 62
   249
 10
267.958196
 20
61.923461
 30
0.0
 11
267.971916
 21
61.923461
 31
0.0
 12
267.971916
 22
62.903461
 32
0.0
 13
267.958196
 23
62.903461
 33
0.0
  0
3DFACE
  8
0
  6
CONTINUOUS
 62
   249
 10
267.971916
 20
61.923461
 30
0.0
 11
267.985636
 21
61.923461
 31
0.0
 12
267.985636
 22
62.903461
 32
0.0
 13
267.971916
 23
62.903461
 33
0.0
  0
3DFACE
  8
0
  6
CONTINUOUS
 62
   249
 10
267.985636
 20
61.923461
 30
0.0
 11
267.999356
 21
61.923461
 31
0.0
 12
267.999356
 22
62.903461
 32
0.0
 13
267.985636
 23
62.903461
 33
0.0
  0
3DFACE
  8
0
  6
CONTINUOUS
 62
   249
 10
267.999356
 20
61.923461
 30
0.0
 11
268.013076
 21
61.923461
 31
0.0
 12
268.013076
 22
62.903461
 32
0.0
 13
267.999356
 23
62.903461
 33
0.0
  0
3DFACE
  8
0
  6
CONTINUOUS
 62
   249
 10
268.013076
 20
61.923461
 30
0.0
 11
268.026796
 21
61.923461
 31
0.0
 12
268.026796
 22
62.903461
 32
0.0
 13
268.013076
 23
62.903461
 33
0.0
  0
3DFACE
  8
0
  6
CONTINUOUS
 62
   249
 10
268.026796
 20
61.923461
 30
0.0
 11
268.040516
 21
61.923461
 31
0.0
 12
268.040516
 22
62.903461
 32
0.0
 13
268.026796
 23
62.903461
 33
0.0
  0
3DFACE
  8
0
  6
CONTINUOUS
 62
   249
 10
268.040516
 20
61.923461
 30
0.0
 11
268.054236
 21
61.923461
 31
0.0
 12
268.054236
 22
62.903461
 32
0.0
 13
268.040516
 23
62.903461
 33
0.0
  0
3DFACE
  8
0
  6
CONTINUOUS
 62
   249
 10
268.054236
 20
61.923461
 30
0.0
 11
268.067956
 21
61.923461
 31
0.0
 12
268.067956
 22
62.903461
 32
0.0
 13
268.054236
 23
62.903461
 33
0.0
  0
3DFACE
  8
0
  6
CONTINUOUS
 62
   249
 10
268.067956
 20
61.923461
 30
0.0
 11
268.081676
 21
61.923461
 31
0.0
 12
268.081676
 22
62.903461
 32
0.0
 13
268.067956
 23
62.903461
 33
0.0
  0
3DFACE
  8
0
  6
CONTINUOUS
 62
   249
 10
268.081676
 20
61.923461
 30
0.0
 11
268.095396
 21
61.923461
 31
0.0
 12
268.095396
 22
62.903461
 32
0.0
 13
268.081676
 23
62.903461
 33
0.0
  0
3DFACE
  8
0
  6
CONTINUOUS
 62
   249
 10
268.095396
 20
61.923461
 30
0.0
 11
268.109116
 21
61.923461
 31
0.0
 12
268.109116
 22
62.903461
 32
0.0
 13
268.095396
 23
62.903461
 33
0.0
  0
3DFACE
  8
0
  6
CONTINUOUS
 62
   249
 10
268.109116
 20
61.923461
 30
0.0
 11
268.122836
 21
61.923461
 31
0.0
 12
268.122836
 22
62.903461
 32
0.0
 13
268.109116
 23
62.903461
 33
0.0
  0
3DFACE
  8
0
  6
CONTINUOUS
 62
   249
 10
268.122836
 20
61.923461
 30
0.0
 11
268.136556
 21
61.923461
 31
0.0
 12
268.136556
 22
62.903461
 32
0.0
 13
268.122836
 23
62.903461
 33
0.0
  0
3DFACE
  8
0
  6
CONTINUOUS
 62
   249
 10
268.136556
 20
61.923461
 30
0.0
 11
268.150276
 21
61.923461
 31
0.0
 12
268.150276
 22
62.903461
 32
0.0
 13
268.136556
 23
62.903461
 33
0.0
  0
3DFACE
  8
0
  6
CONTINUOUS
 62
   249
 10
268.150276
 20
61.923461
 30
0.0
 11
268.163996
 21
61.923461
 31
0.0
 12
268.163996
 22
62.903461
 32
0.0
 13
268.150276
 23
62.903461
 33
0.0
  0
3DFACE
  8
0
  6
CONTINUOUS
 62
   249
 10
268.163996
 20
61.923461
 30
0.0
 11
268.177716
 21
61.923461
 31
0.0
 12
268.177716
 22
62.903461
 32
0.0
 13
268.163996
 23
62.903461
 33
0.0
  0
3DFACE
  8
0
  6
CONTINUOUS
 62
   249
 10
268.177716
 20
61.923461
 30
0.0
 11
268.191436
 21
61.923461
 31
0.0
 12
268.191436
 22
62.903461
 32
0.0
 13
268.177716
 23
62.903461
 33
0.0
  0
3DFACE
  8
0
  6
CONTINUOUS
 62
   249
 10
268.191436
 20
61.923461
 30
0.0
 11
268.205156
 21
61.923461
 31
0.0
 12
268.205156
 22
62.903461
 32
0.0
 13
268.191436
 23
62.903461
 33
0.0
  0
3DFACE
  8
0
  6
CONTINUOUS
 62
   249
 10
268.205156
 20
61.923461
 30
0.0
 11
268.218876
 21
61.923461
 31
0.0
 12
268.218876
 22
62.903461
 32
0.0
 13
268.205156
 23
62.903461
 33
0.0
  0
3DFACE
  8
0
  6
CONTINUOUS
 62
   249
 10
268.218876
 20
61.923461
 30
0.0
 11
268.232596
 21
61.923461
 31
0.0
 12
268.232596
 22
62.903461
 32
0.0
 13
268.218876
 23
62.903461
 33
0.0
  0
3DFACE
  8
0
  6
CONTINUOUS
 62
   249
 10
268.232596
 20
61.923461
 30
0.0
 11
268.246316
 21
61.923461
 31
0.0
 12
268.246316
 22
62.903461
 32
0.0
 13
268.232596
 23
62.903461
 33
0.0
  0
3DFACE
  8
0
  6
CONTINUOUS
 62
   249
 10
268.246316
 20
61.923461
 30
0.0
 11
268.260036
 21
61.923461
 31
0.0
 12
268.260036
 22
62.903461
 32
0.0
 13
268.246316
 23
62.903461
 33
0.0
  0
3DFACE
  8
0
  6
CONTINUOUS
 62
   249
 10
268.260036
 20
61.923461
 30
0.0
 11
268.273756
 21
61.923461
 31
0.0
 12
268.273756
 22
62.903461
 32
0.0
 13
268.260036
 23
62.903461
 33
0.0
  0
3DFACE
  8
0
  6
CONTINUOUS
 62
   249
 10
268.273756
 20
61.923461
 30
0.0
 11
268.287476
 21
61.923461
 31
0.0
 12
268.287476
 22
62.903461
 32
0.0
 13
268.273756
 23
62.903461
 33
0.0
  0
3DFACE
  8
0
  6
CONTINUOUS
 62
   249
 10
268.287476
 20
61.923461
 30
0.0
 11
268.301196
 21
61.923461
 31
0.0
 12
268.301196
 22
62.903461
 32
0.0
 13
268.287476
 23
62.903461
 33
0.0
  0
3DFACE
  8
0
  6
CONTINUOUS
 62
   249
 10
268.301196
 20
61.923461
 30
0.0
 11
268.314916
 21
61.923461
 31
0.0
 12
268.314916
 22
62.903461
 32
0.0
 13
268.301196
 23
62.903461
 33
0.0
  0
3DFACE
  8
0
  6
CONTINUOUS
 62
   249
 10
268.314916
 20
61.923461
 30
0.0
 11
268.328636
 21
61.923461
 31
0.0
 12
268.328636
 22
62.903461
 32
0.0
 13
268.314916
 23
62.903461
 33
0.0
  0
3DFACE
  8
0
  6
CONTINUOUS
 62
   249
 10
268.328636
 20
61.923461
 30
0.0
 11
268.342356
 21
61.923461
 31
0.0
 12
268.342356
 22
62.903461
 32
0.0
 13
268.328636
 23
62.903461
 33
0.0
  0
3DFACE
  8
0
  6
CONTINUOUS
 62
   249
 10
268.342356
 20
61.923461
 30
0.0
 11
268.356076
 21
61.923461
 31
0.0
 12
268.356076
 22
62.903461
 32
0.0
 13
268.342356
 23
62.903461
 33
0.0
  0
3DFACE
  8
0
  6
CONTINUOUS
 62
   249
 10
268.356076
 20
61.923461
 30
0.0
 11
268.369796
 21
61.923461
 31
0.0
 12
268.369796
 22
62.903461
 32
0.0
 13
268.356076
 23
62.903461
 33
0.0
  0
3DFACE
  8
0
  6
CONTINUOUS
 62
   249
 10
268.369796
 20
61.923461
 30
0.0
 11
268.383516
 21
61.923461
 31
0.0
 12
268.383516
 22
62.903461
 32
0.0
 13
268.369796
 23
62.903461
 33
0.0
  0
3DFACE
  8
0
  6
CONTINUOUS
 62
   249
 10
268.383516
 20
61.923461
 30
0.0
 11
268.397236
 21
61.923461
 31
0.0
 12
268.397236
 22
62.903461
 32
0.0
 13
268.383516
 23
62.903461
 33
0.0
  0
3DFACE
  8
0
  6
CONTINUOUS
 62
   249
 10
268.397236
 20
61.923461
 30
0.0
 11
268.410956
 21
61.923461
 31
0.0
 12
268.410956
 22
62.903461
 32
0.0
 13
268.397236
 23
62.903461
 33
0.0
  0
3DFACE
  8
0
  6
CONTINUOUS
 62
   249
 10
268.410956
 20
61.923461
 30
0.0
 11
268.424676
 21
61.923461
 31
0.0
 12
268.424676
 22
62.903461
 32
0.0
 13
268.410956
 23
62.903461
 33
0.0
  0
3DFACE
  8
0
  6
CONTINUOUS
 62
   249
 10
268.424676
 20
61.923461
 30
0.0
 11
268.438396
 21
61.923461
 31
0.0
 12
268.438396
 22
62.903461
 32
0.0
 13
268.424676
 23
62.903461
 33
0.0
  0
3DFACE
  8
0
  6
CONTINUOUS
 62
   249
 10
268.438396
 20
61.923461
 30
0.0
 11
268.452116
 21
61.923461
 31
0.0
 12
268.452116
 22
62.903461
 32
0.0
 13
268.438396
 23
62.903461
 33
0.0
  0
3DFACE
  8
0
  6
CONTINUOUS
 62
   249
 10
268.452116
 20
61.923461
 30
0.0
 11
268.465836
 21
61.923461
 31
0.0
 12
268.465836
 22
62.903461
 32
0.0
 13
268.452116
 23
62.903461
 33
0.0
  0
3DFACE
  8
0
  6
CONTINUOUS
 62
   249
 10
268.465836
 20
61.923461
 30
0.0
 11
268.479556
 21
61.923461
 31
0.0
 12
268.479556
 22
62.903461
 32
0.0
 13
268.465836
 23
62.903461
 33
0.0
  0
3DFACE
  8
0
  6
CONTINUOUS
 62
   249
 10
268.479556
 20
61.923461
 30
0.0
 11
268.493276
 21
61.923461
 31
0.0
 12
268.493276
 22
62.903461
 32
0.0
 13
268.479556
 23
62.903461
 33
0.0
  0
3DFACE
  8
0
  6
CONTINUOUS
 62
   249
 10
268.493276
 20
61.923461
 30
0.0
 11
268.506996
 21
61.923461
 31
0.0
 12
268.506996
 22
62.903461
 32
0.0
 13
268.493276
 23
62.903461
 33
0.0
  0
3DFACE
  8
0
  6
CONTINUOUS
 62
   249
 10
268.506996
 20
61.923461
 30
0.0
 11
268.520716
 21
61.923461
 31
0.0
 12
268.520716
 22
62.903461
 32
0.0
 13
268.506996
 23
62.903461
 33
0.0
  0
3DFACE
  8
0
  6
CONTINUOUS
 62
   249
 10
268.520716
 20
61.923461
 30
0.0
 11
268.534436
 21
61.923461
 31
0.0
 12
268.534436
 22
62.903461
 32
0.0
 13
268.520716
 23
62.903461
 33
0.0
  0
3DFACE
  8
0
  6
CONTINUOUS
 62
   249
 10
268.534436
 20
61.923461
 30
0.0
 11
268.548156
 21
61.923461
 31
0.0
 12
268.548156
 22
62.903461
 32
0.0
 13
268.534436
 23
62.903461
 33
0.0
  0
3DFACE
  8
0
  6
CONTINUOUS
 62
   249
 10
268.548156
 20
61.923461
 30
0.0
 11
268.561876
 21
61.923461
 31
0.0
 12
268.561876
 22
62.903461
 32
0.0
 13
268.548156
 23
62.903461
 33
0.0
  0
3DFACE
  8
0
  6
CONTINUOUS
 62
   249
 10
268.561876
 20
61.923461
 30
0.0
 11
268.575596
 21
61.923461
 31
0.0
 12
268.575596
 22
62.903461
 32
0.0
 13
268.561876
 23
62.903461
 33
0.0
  0
3DFACE
  8
0
  6
CONTINUOUS
 62
   249
 10
268.575596
 20
61.923461
 30
0.0
 11
268.589316
 21
61.923461
 31
0.0
 12
268.589316
 22
62.903461
 32
0.0
 13
268.575596
 23
62.903461
 33
0.0
  0
3DFACE
  8
0
  6
CONTINUOUS
 62
   249
 10
268.589316
 20
61.923461
 30
0.0
 11
268.603036
 21
61.923461
 31
0.0
 12
268.603036
 22
62.903461
 32
0.0
 13
268.589316
 23
62.903461
 33
0.0
  0
3DFACE
  8
0
  6
CONTINUOUS
 62
   249
 10
268.603036
 20
61.923461
 30
0.0
 11
268.616756
 21
61.923461
 31
0.0
 12
268.616756
 22
62.903461
 32
0.0
 13
268.603036
 23
62.903461
 33
0.0
  0
3DFACE
  8
0
  6
CONTINUOUS
 62
   249
 10
268.616756
 20
61.923461
 30
0.0
 11
268.630476
 21
61.923461
 31
0.0
 12
268.630476
 22
62.903461
 32
0.0
 13
268.616756
 23
62.903461
 33
0.0
  0
3DFACE
  8
0
  6
CONTINUOUS
 62
   249
 10
268.630476
 20
61.923461
 30
0.0
 11
268.644196
 21
61.923461
 31
0.0
 12
268.644196
 22
62.903461
 32
0.0
 13
268.630476
 23
62.903461
 33
0.0
  0
3DFACE
  8
0
  6
CONTINUOUS
 62
   249
 10
268.644196
 20
61.923461
 30
0.0
 11
268.657916
 21
61.923461
 31
0.0
 12
268.657916
 22
62.903461
 32
0.0
 13
268.644196
 23
62.903461
 33
0.0
  0
3DFACE
  8
0
  6
CONTINUOUS
 62
   249
 10
268.657916
 20
61.923461
 30
0.0
 11
268.671636
 21
61.923461
 31
0.0
 12
268.671636
 22
62.903461
 32
0.0
 13
268.657916
 23
62.903461
 33
0.0
  0
3DFACE
  8
0
  6
CONTINUOUS
 62
   249
 10
268.671636
 20
61.923461
 30
0.0
 11
268.685356
 21
61.923461
 31
0.0
 12
268.685356
 22
62.903461
 32
0.0
 13
268.671636
 23
62.903461
 33
0.0
  0
3DFACE
  8
0
  6
CONTINUOUS
 62
   249
 10
268.685356
 20
61.923461
 30
0.0
 11
268.699076
 21
61.923461
 31
0.0
 12
268.699076
 22
62.903461
 32
0.0
 13
268.685356
 23
62.903461
 33
0.0
  0
3DFACE
  8
0
  6
CONTINUOUS
 62
   249
 10
268.699076
 20
61.923461
 30
0.0
 11
268.712796
 21
61.923461
 31
0.0
 12
268.712796
 22
62.903461
 32
0.0
 13
268.699076
 23
62.903461
 33
0.0
  0
3DFACE
  8
0
  6
CONTINUOUS
 62
   249
 10
268.712796
 20
61.923461
 30
0.0
 11
268.726516
 21
61.923461
 31
0.0
 12
268.726516
 22
62.903461
 32
0.0
 13
268.712796
 23
62.903461
 33
0.0
  0
3DFACE
  8
0
  6
CONTINUOUS
 62
   249
 10
268.726516
 20
61.923461
 30
0.0
 11
268.740236
 21
61.923461
 31
0.0
 12
268.740236
 22
62.903461
 32
0.0
 13
268.726516
 23
62.903461
 33
0.0
  0
3DFACE
  8
0
  6
CONTINUOUS
 62
   249
 10
268.740236
 20
61.923461
 30
0.0
 11
268.753956
 21
61.923461
 31
0.0
 12
268.753956
 22
62.903461
 32
0.0
 13
268.740236
 23
62.903461
 33
0.0
  0
3DFACE
  8
0
  6
CONTINUOUS
 62
   249
 10
268.753956
 20
61.923461
 30
0.0
 11
268.767676
 21
61.923461
 31
0.0
 12
268.767676
 22
62.903461
 32
0.0
 13
268.753956
 23
62.903461
 33
0.0
  0
3DFACE
  8
0
  6
CONTINUOUS
 62
   249
 10
268.767676
 20
61.923461
 30
0.0
 11
268.781396
 21
61.923461
 31
0.0
 12
268.781396
 22
62.903461
 32
0.0
 13
268.767676
 23
62.903461
 33
0.0
  0
3DFACE
  8
0
  6
CONTINUOUS
 62
   249
 10
268.781396
 20
61.923461
 30
0.0
 11
268.795116
 21
61.923461
 31
0.0
 12
268.795116
 22
62.903461
 32
0.0
 13
268.781396
 23
62.903461
 33
0.0
  0
3DFACE
  8
0
  6
CONTINUOUS
 62
   249
 10
268.795116
 20
61.923461
 30
0.0
 11
268.808836
 21
61.923461
 31
0.0
 12
268.808836
 22
62.903461
 32
0.0
 13
268.795116
 23
62.903461
 33
0.0
  0
3DFACE
  8
0
  6
CONTINUOUS
 62
   249
 10
268.808836
 20
61.923461
 30
0.0
 11
268.822556
 21
61.923461
 31
0.0
 12
268.822556
 22
62.903461
 32
0.0
 13
268.808836
 23
62.903461
 33
0.0
  0
3DFACE
  8
0
  6
CONTINUOUS
 62
   249
 10
268.822556
 20
61.923461
 30
0.0
 11
268.836276
 21
61.923461
 31
0.0
 12
268.836276
 22
62.903461
 32
0.0
 13
268.822556
 23
62.903461
 33
0.0
  0
3DFACE
  8
0
  6
CONTINUOUS
 62
   249
 10
268.836276
 20
61.923461
 30
0.0
 11
268.849996
 21
61.923461
 31
0.0
 12
268.849996
 22
62.903461
 32
0.0
 13
268.836276
 23
62.903461
 33
0.0
  0
3DFACE
  8
0
  6
CONTINUOUS
 62
   249
 10
268.849996
 20
61.923461
 30
0.0
 11
268.863716
 21
61.923461
 31
0.0
 12
268.863716
 22
62.903461
 32
0.0
 13
268.849996
 23
62.903461
 33
0.0
  0
3DFACE
  8
0
  6
CONTINUOUS
 62
   249
 10
268.863716
 20
61.923461
 30
0.0
 11
268.877436
 21
61.923461
 31
0.0
 12
268.877436
 22
62.903461
 32
0.0
 13
268.863716
 23
62.903461
 33
0.0
  0
3DFACE
  8
0
  6
CONTINUOUS
 62
   249
 10
268.877436
 20
61.923461
 30
0.0
 11
268.891156
 21
61.923461
 31
0.0
 12
268.891156
 22
62.903461
 32
0.0
 13
268.877436
 23
62.903461
 33
0.0
  0
3DFACE
  8
0
  6
CONTINUOUS
 62
   249
 10
268.891156
 20
61.923461
 30
0.0
 11
268.904876
 21
61.923461
 31
0.0
 12
268.904876
 22
62.903461
 32
0.0
 13
268.891156
 23
62.903461
 33
0.0
  0
3DFACE
  8
0
  6
CONTINUOUS
 62
   249
 10
268.904876
 20
61.923461
 30
0.0
 11
268.918596
 21
61.923461
 31
0.0
 12
268.918596
 22
62.903461
 32
0.0
 13
268.904876
 23
62.903461
 33
0.0
  0
3DFACE
  8
0
  6
CONTINUOUS
 62
   249
 10
268.918596
 20
61.923461
 30
0.0
 11
268.932316
 21
61.923461
 31
0.0
 12
268.932316
 22
62.903461
 32
0.0
 13
268.918596
 23
62.903461
 33
0.0
  0
3DFACE
  8
0
  6
CONTINUOUS
 62
   249
 10
268.932316
 20
61.923461
 30
0.0
 11
268.946036
 21
61.923461
 31
0.0
 12
268.946036
 22
62.903461
 32
0.0
 13
268.932316
 23
62.903461
 33
0.0
  0
3DFACE
  8
0
  6
CONTINUOUS
 62
   249
 10
268.946036
 20
61.923461
 30
0.0
 11
268.959756
 21
61.923461
 31
0.0
 12
268.959756
 22
62.903461
 32
0.0
 13
268.946036
 23
62.903461
 33
0.0
  0
3DFACE
  8
0
  6
CONTINUOUS
 62
   249
 10
268.959756
 20
61.923461
 30
0.0
 11
268.973476
 21
61.923461
 31
0.0
 12
268.973476
 22
62.903461
 32
0.0
 13
268.959756
 23
62.903461
 33
0.0
  0
3DFACE
  8
0
  6
CONTINUOUS
 62
   249
 10
268.973476
 20
61.923461
 30
0.0
 11
268.987196
 21
61.923461
 31
0.0
 12
268.987196
 22
62.903461
 32
0.0
 13
268.973476
 23
62.903461
 33
0.0
  0
3DFACE
  8
0
  6
CONTINUOUS
 62
   249
 10
268.987196
 20
61.923461
 30
0.0
 11
269.000916
 21
61.923461
 31
0.0
 12
269.000916
 22
62.903461
 32
0.0
 13
268.987196
 23
62.903461
 33
0.0
  0
3DFACE
  8
0
  6
CONTINUOUS
 62
   249
 10
269.000916
 20
61.923461
 30
0.0
 11
269.014636
 21
61.923461
 31
0.0
 12
269.014636
 22
62.903461
 32
0.0
 13
269.000916
 23
62.903461
 33
0.0
  0
3DFACE
  8
0
  6
CONTINUOUS
 62
   249
 10
269.014636
 20
61.923461
 30
0.0
 11
269.028356
 21
61.923461
 31
0.0
 12
269.028356
 22
62.903461
 32
0.0
 13
269.014636
 23
62.903461
 33
0.0
  0
3DFACE
  8
0
  6
CONTINUOUS
 62
   249
 10
269.028356
 20
61.923461
 30
0.0
 11
269.042076
 21
61.923461
 31
0.0
 12
269.042076
 22
62.903461
 32
0.0
 13
269.028356
 23
62.903461
 33
0.0
  0
3DFACE
  8
0
  6
CONTINUOUS
 62
   249
 10
269.042076
 20
61.923461
 30
0.0
 11
269.055796
 21
61.923461
 31
0.0
 12
269.055796
 22
62.903461
 32
0.0
 13
269.042076
 23
62.903461
 33
0.0
  0
3DFACE
  8
0
  6
CONTINUOUS
 62
   249
 10
269.055796
 20
61.923461
 30
0.0
 11
269.069516
 21
61.923461
 31
0.0
 12
269.069516
 22
62.903461
 32
0.0
 13
269.055796
 23
62.903461
 33
0.0
  0
3DFACE
  8
0
  6
CONTINUOUS
 62
   249
 10
269.069516
 20
61.923461
 30
0.0
 11
269.083236
 21
61.923461
 31
0.0
 12
269.083236
 22
62.903461
 32
0.0
 13
269.069516
 23
62.903461
 33
0.0
  0
3DFACE
  8
0
  6
CONTINUOUS
 62
   249
 10
269.083236
 20
61.923461
 30
0.0
 11
269.096956
 21
61.923461
 31
0.0
 12
269.096956
 22
62.903461
 32
0.0
 13
269.083236
 23
62.903461
 33
0.0
  0
3DFACE
  8
0
  6
CONTINUOUS
 62
   249
 10
269.096956
 20
61.923461
 30
0.0
 11
269.110676
 21
61.923461
 31
0.0
 12
269.110676
 22
62.903461
 32
0.0
 13
269.096956
 23
62.903461
 33
0.0
  0
3DFACE
  8
0
  6
CONTINUOUS
 62
   249
 10
269.110676
 20
61.923461
 30
0.0
 11
269.124396
 21
61.923461
 31
0.0
 12
269.124396
 22
62.903461
 32
0.0
 13
269.110676
 23
62.903461
 33
0.0
  0
3DFACE
  8
0
  6
CONTINUOUS
 62
   249
 10
269.124396
 20
61.923461
 30
0.0
 11
269.138116
 21
61.923461
 31
0.0
 12
269.138116
 22
62.903461
 32
0.0
 13
269.124396
 23
62.903461
 33
0.0
  0
3DFACE
  8
0
  6
CONTINUOUS
 62
   249
 10
269.138116
 20
61.923461
 30
0.0
 11
269.151836
 21
61.923461
 31
0.0
 12
269.151836
 22
62.903461
 32
0.0
 13
269.138116
 23
62.903461
 33
0.0
  0
3DFACE
  8
0
  6
CONTINUOUS
 62
   249
 10
269.151836
 20
61.923461
 30
0.0
 11
269.165556
 21
61.923461
 31
0.0
 12
269.165556
 22
62.903461
 32
0.0
 13
269.151836
 23
62.903461
 33
0.0
  0
3DFACE
  8
0
  6
CONTINUOUS
 62
   249
 10
269.165556
 20
61.923461
 30
0.0
 11
269.179276
 21
61.923461
 31
0.0
 12
269.179276
 22
62.903461
 32
0.0
 13
269.165556
 23
62.903461
 33
0.0
  0
3DFACE
  8
0
  6
CONTINUOUS
 62
   249
 10
269.179276
 20
61.923461
 30
0.0
 11
269.192996
 21
61.923461
 31
0.0
 12
269.192996
 22
62.903461
 32
0.0
 13
269.179276
 23
62.903461
 33
0.0
  0
3DFACE
  8
0
  6
CONTINUOUS
 62
   249
 10
269.192996
 20
61.923461
 30
0.0
 11
269.206716
 21
61.923461
 31
0.0
 12
269.206716
 22
62.903461
 32
0.0
 13
269.192996
 23
62.903461
 33
0.0
  0
3DFACE
  8
0
  6
CONTINUOUS
 62
   249
 10
269.206716
 20
61.923461
 30
0.0
 11
269.220436
 21
61.923461
 31
0.0
 12
269.220436
 22
62.903461
 32
0.0
 13
269.206716
 23
62.903461
 33
0.0
  0
3DFACE
  8
0
  6
CONTINUOUS
 62
   249
 10
269.220436
 20
61.923461
 30
0.0
 11
269.234156
 21
61.923461
 31
0.0
 12
269.234156
 22
62.903461
 32
0.0
 13
269.220436
 23
62.903461
 33
0.0
  0
3DFACE
  8
0
  6
CONTINUOUS
 62
   249
 10
269.234156
 20
61.923461
 30
0.0
 11
269.247876
 21
61.923461
 31
0.0
 12
269.247876
 22
62.903461
 32
0.0
 13
269.234156
 23
62.903461
 33
0.0
  0
3DFACE
  8
0
  6
CONTINUOUS
 62
   249
 10
269.247876
 20
61.923461
 30
0.0
 11
269.261596
 21
61.923461
 31
0.0
 12
269.261596
 22
62.903461
 32
0.0
 13
269.247876
 23
62.903461
 33
0.0
  0
3DFACE
  8
0
  6
CONTINUOUS
 62
   249
 10
269.261596
 20
61.923461
 30
0.0
 11
269.275316
 21
61.923461
 31
0.0
 12
269.275316
 22
62.903461
 32
0.0
 13
269.261596
 23
62.903461
 33
0.0
  0
3DFACE
  8
0
  6
CONTINUOUS
 62
   249
 10
269.275316
 20
61.923461
 30
0.0
 11
269.289036
 21
61.923461
 31
0.0
 12
269.289036
 22
62.903461
 32
0.0
 13
269.275316
 23
62.903461
 33
0.0
  0
3DFACE
  8
0
  6
CONTINUOUS
 62
   249
 10
269.289036
 20
61.923461
 30
0.0
 11
269.302756
 21
61.923461
 31
0.0
 12
269.302756
 22
62.903461
 32
0.0
 13
269.289036
 23
62.903461
 33
0.0
  0
3DFACE
  8
0
  6
CONTINUOUS
 62
   249
 10
269.302756
 20
61.923461
 30
0.0
 11
269.316476
 21
61.923461
 31
0.0
 12
269.316476
 22
62.903461
 32
0.0
 13
269.302756
 23
62.903461
 33
0.0
  0
3DFACE
  8
0
  6
CONTINUOUS
 62
   249
 10
269.316476
 20
61.923461
 30
0.0
 11
269.330196
 21
61.923461
 31
0.0
 12
269.330196
 22
62.903461
 32
0.0
 13
269.316476
 23
62.903461
 33
0.0
  0
3DFACE
  8
0
  6
CONTINUOUS
 62
   249
 10
269.330196
 20
61.923461
 30
0.0
 11
269.343916
 21
61.923461
 31
0.0
 12
269.343916
 22
62.903461
 32
0.0
 13
269.330196
 23
62.903461
 33
0.0
  0
3DFACE
  8
0
  6
CONTINUOUS
 62
   249
 10
269.343916
 20
61.923461
 30
0.0
 11
269.357636
 21
61.923461
 31
0.0
 12
269.357636
 22
62.903461
 32
0.0
 13
269.343916
 23
62.903461
 33
0.0
  0
3DFACE
  8
0
  6
CONTINUOUS
 62
   249
 10
269.357636
 20
61.923461
 30
0.0
 11
269.371356
 21
61.923461
 31
0.0
 12
269.371356
 22
62.903461
 32
0.0
 13
269.357636
 23
62.903461
 33
0.0
  0
3DFACE
  8
0
  6
CONTINUOUS
 62
   249
 10
269.371356
 20
61.923461
 30
0.0
 11
269.385076
 21
61.923461
 31
0.0
 12
269.385076
 22
62.903461
 32
0.0
 13
269.371356
 23
62.903461
 33
0.0
  0
3DFACE
  8
0
  6
CONTINUOUS
 62
   249
 10
269.385076
 20
61.923461
 30
0.0
 11
269.398796
 21
61.923461
 31
0.0
 12
269.398796
 22
62.903461
 32
0.0
 13
269.385076
 23
62.903461
 33
0.0
  0
3DFACE
  8
0
  6
CONTINUOUS
 62
   249
 10
269.398796
 20
61.923461
 30
0.0
 11
269.412516
 21
61.923461
 31
0.0
 12
269.412516
 22
62.903461
 32
0.0
 13
269.398796
 23
62.903461
 33
0.0
  0
3DFACE
  8
0
  6
CONTINUOUS
 62
   249
 10
269.412516
 20
61.923461
 30
0.0
 11
269.426236
 21
61.923461
 31
0.0
 12
269.426236
 22
62.903461
 32
0.0
 13
269.412516
 23
62.903461
 33
0.0
  0
3DFACE
  8
0
  6
CONTINUOUS
 62
   249
 10
269.426236
 20
61.923461
 30
0.0
 11
269.439956
 21
61.923461
 31
0.0
 12
269.439956
 22
62.903461
 32
0.0
 13
269.426236
 23
62.903461
 33
0.0
  0
3DFACE
  8
0
  6
CONTINUOUS
 62
   249
 10
269.439956
 20
61.923461
 30
0.0
 11
269.453676
 21
61.923461
 31
0.0
 12
269.453676
 22
62.903461
 32
0.0
 13
269.439956
 23
62.903461
 33
0.0
  0
3DFACE
  8
0
  6
CONTINUOUS
 62
   249
 10
269.453676
 20
61.923461
 30
0.0
 11
269.467396
 21
61.923461
 31
0.0
 12
269.467396
 22
62.903461
 32
0.0
 13
269.453676
 23
62.903461
 33
0.0
  0
3DFACE
  8
0
  6
CONTINUOUS
 62
   249
 10
269.467396
 20
61.923461
 30
0.0
 11
269.481116
 21
61.923461
 31
0.0
 12
269.481116
 22
62.903461
 32
0.0
 13
269.467396
 23
62.903461
 33
0.0
  0
3DFACE
  8
0
  6
CONTINUOUS
 62
   249
 10
269.481116
 20
61.923461
 30
0.0
 11
269.494836
 21
61.923461
 31
0.0
 12
269.494836
 22
62.903461
 32
0.0
 13
269.481116
 23
62.903461
 33
0.0
  0
3DFACE
  8
0
  6
CONTINUOUS
 62
   249
 10
269.494836
 20
61.923461
 30
0.0
 11
269.508556
 21
61.923461
 31
0.0
 12
269.508556
 22
62.903461
 32
0.0
 13
269.494836
 23
62.903461
 33
0.0
  0
3DFACE
  8
0
  6
CONTINUOUS
 62
   249
 10
269.508556
 20
61.923461
 30
0.0
 11
269.522276
 21
61.923461
 31
0.0
 12
269.522276
 22
62.903461
 32
0.0
 13
269.508556
 23
62.903461
 33
0.0
  0
3DFACE
  8
0
  6
CONTINUOUS
 62
   249
 10
269.522276
 20
61.923461
 30
0.0
 11
269.535996
 21
61.923461
 31
0.0
 12
269.535996
 22
62.903461
 32
0.0
 13
269.522276
 23
62.903461
 33
0.0
  0
3DFACE
  8
0
  6
CONTINUOUS
 62
   249
 10
269.535996
 20
61.923461
 30
0.0
 11
269.549716
 21
61.923461
 31
0.0
 12
269.549716
 22
62.903461
 32
0.0
 13
269.535996
 23
62.903461
 33
0.0
  0
3DFACE
  8
0
  6
CONTINUOUS
 62
   249
 10
269.549716
 20
61.923461
 30
0.0
 11
269.563436
 21
61.923461
 31
0.0
 12
269.563436
 22
62.903461
 32
0.0
 13
269.549716
 23
62.903461
 33
0.0
  0
3DFACE
  8
0
  6
CONTINUOUS
 62
   249
 10
269.563436
 20
61.923461
 30
0.0
 11
269.577156
 21
61.923461
 31
0.0
 12
269.577156
 22
62.903461
 32
0.0
 13
269.563436
 23
62.903461
 33
0.0
  0
3DFACE
  8
0
  6
CONTINUOUS
 62
   249
 10
269.577156
 20
61.923461
 30
0.0
 11
269.590876
 21
61.923461
 31
0.0
 12
269.590876
 22
62.903461
 32
0.0
 13
269.577156
 23
62.903461
 33
0.0
  0
3DFACE
  8
0
  6
CONTINUOUS
 62
   249
 10
269.590876
 20
61.923461
 30
0.0
 11
269.604596
 21
61.923461
 31
0.0
 12
269.604596
 22
62.903461
 32
0.0
 13
269.590876
 23
62.903461
 33
0.0
  0
3DFACE
  8
0
  6
CONTINUOUS
 62
   249
 10
269.604596
 20
61.923461
 30
0.0
 11
269.618316
 21
61.923461
 31
0.0
 12
269.618316
 22
62.903461
 32
0.0
 13
269.604596
 23
62.903461
 33
0.0
  0
3DFACE
  8
0
  6
CONTINUOUS
 62
   249
 10
269.618316
 20
61.923461
 30
0.0
 11
269.632036
 21
61.923461
 31
0.0
 12
269.632036
 22
62.903461
 32
0.0
 13
269.618316
 23
62.903461
 33
0.0
  0
3DFACE
  8
0
  6
CONTINUOUS
 62
   249
 10
269.632036
 20
61.923461
 30
0.0
 11
269.645756
 21
61.923461
 31
0.0
 12
269.645756
 22
62.903461
 32
0.0
 13
269.632036
 23
62.903461
 33
0.0
  0
3DFACE
  8
0
  6
CONTINUOUS
 62
   249
 10
269.645756
 20
61.923461
 30
0.0
 11
269.659476
 21
61.923461
 31
0.0
 12
269.659476
 22
62.903461
 32
0.0
 13
269.645756
 23
62.903461
 33
0.0
  0
3DFACE
  8
0
  6
CONTINUOUS
 62
   249
 10
269.659476
 20
61.923461
 30
0.0
 11
269.673196
 21
61.923461
 31
0.0
 12
269.673196
 22
62.903461
 32
0.0
 13
269.659476
 23
62.903461
 33
0.0
  0
3DFACE
  8
0
  6
CONTINUOUS
 62
   249
 10
269.673196
 20
61.923461
 30
0.0
 11
269.686916
 21
61.923461
 31
0.0
 12
269.686916
 22
62.903461
 32
0.0
 13
269.673196
 23
62.903461
 33
0.0
  0
3DFACE
  8
0
  6
CONTINUOUS
 62
   249
 10
269.686916
 20
61.923461
 30
0.0
 11
269.700636
 21
61.923461
 31
0.0
 12
269.700636
 22
62.903461
 32
0.0
 13
269.686916
 23
62.903461
 33
0.0
  0
3DFACE
  8
0
  6
CONTINUOUS
 62
   249
 10
269.700636
 20
61.923461
 30
0.0
 11
269.714356
 21
61.923461
 31
0.0
 12
269.714356
 22
62.903461
 32
0.0
 13
269.700636
 23
62.903461
 33
0.0
  0
3DFACE
  8
0
  6
CONTINUOUS
 62
   249
 10
269.714356
 20
61.923461
 30
0.0
 11
269.728076
 21
61.923461
 31
0.0
 12
269.728076
 22
62.903461
 32
0.0
 13
269.714356
 23
62.903461
 33
0.0
  0
3DFACE
  8
0
  6
CONTINUOUS
 62
   249
 10
269.728076
 20
61.923461
 30
0.0
 11
269.741796
 21
61.923461
 31
0.0
 12
269.741796
 22
62.903461
 32
0.0
 13
269.728076
 23
62.903461
 33
0.0
  0
3DFACE
  8
0
  6
CONTINUOUS
 62
   249
 10
269.741796
 20
61.923461
 30
0.0
 11
269.755516
 21
61.923461
 31
0.0
 12
269.755516
 22
62.903461
 32
0.0
 13
269.741796
 23
62.903461
 33
0.0
  0
3DFACE
  8
0
  6
CONTINUOUS
 62
   249
 10
269.755516
 20
61.923461
 30
0.0
 11
269.769236
 21
61.923461
 31
0.0
 12
269.769236
 22
62.903461
 32
0.0
 13
269.755516
 23
62.903461
 33
0.0
  0
3DFACE
  8
0
  6
CONTINUOUS
 62
   249
 10
269.769236
 20
61.923461
 30
0.0
 11
269.782956
 21
61.923461
 31
0.0
 12
269.782956
 22
62.903461
 32
0.0
 13
269.769236
 23
62.903461
 33
0.0
  0
3DFACE
  8
0
  6
CONTINUOUS
 62
   249
 10
269.782956
 20
61.923461
 30
0.0
 11
269.796676
 21
61.923461
 31
0.0
 12
269.796676
 22
62.903461
 32
0.0
 13
269.782956
 23
62.903461
 33
0.0
  0
3DFACE
  8
0
  6
CONTINUOUS
 62
   249
 10
269.796676
 20
61.923461
 30
0.0
 11
269.810396
 21
61.923461
 31
0.0
 12
269.810396
 22
62.903461
 32
0.0
 13
269.796676
 23
62.903461
 33
0.0
  0
3DFACE
  8
0
  6
CONTINUOUS
 62
   249
 10
269.810396
 20
61.923461
 30
0.0
 11
269.824116
 21
61.923461
 31
0.0
 12
269.824116
 22
62.903461
 32
0.0
 13
269.810396
 23
62.903461
 33
0.0
  0
3DFACE
  8
0
  6
CONTINUOUS
 62
   249
 10
269.824116
 20
61.923461
 30
0.0
 11
269.837836
 21
61.923461
 31
0.0
 12
269.837836
 22
62.903461
 32
0.0
 13
269.824116
 23
62.903461
 33
0.0
  0
3DFACE
  8
0
  6
CONTINUOUS
 62
   249
 10
269.837836
 20
61.923461
 30
0.0
 11
269.851556
 21
61.923461
 31
0.0
 12
269.851556
 22
62.903461
 32
0.0
 13
269.837836
 23
62.903461
 33
0.0
  0
3DFACE
  8
0
  6
CONTINUOUS
 62
   249
 10
269.851556
 20
61.923461
 30
0.0
 11
269.865276
 21
61.923461
 31
0.0
 12
269.865276
 22
62.903461
 32
0.0
 13
269.851556
 23
62.903461
 33
0.0
  0
3DFACE
  8
0
  6
CONTINUOUS
 62
   249
 10
269.865276
 20
61.923461
 30
0.0
 11
269.878996
 21
61.923461
 31
0.0
 12
269.878996
 22
62.903461
 32
0.0
 13
269.865276
 23
62.903461
 33
0.0
  0
3DFACE
  8
0
  6
CONTINUOUS
 62
   249
 10
269.878996
 20
61.923461
 30
0.0
 11
269.892716
 21
61.923461
 31
0.0
 12
269.892716
 22
62.903461
 32
0.0
 13
269.878996
 23
62.903461
 33
0.0
  0
3DFACE
  8
0
  6
CONTINUOUS
 62
   249
 10
269.892716
 20
61.923461
 30
0.0
 11
269.906436
 21
61.923461
 31
0.0
 12
269.906436
 22
62.903461
 32
0.0
 13
269.892716
 23
62.903461
 33
0.0
  0
3DFACE
  8
0
  6
CONTINUOUS
 62
   249
 10
269.906436
 20
61.923461
 30
0.0
 11
269.920156
 21
61.923461
 31
0.0
 12
269.920156
 22
62.903461
 32
0.0
 13
269.906436
 23
62.903461
 33
0.0
  0
3DFACE
  8
0
  6
CONTINUOUS
 62
   249
 10
269.920156
 20
61.923461
 30
0.0
 11
269.933876
 21
61.923461
 31
0.0
 12
269.933876
 22
62.903461
 32
0.0
 13
269.920156
 23
62.903461
 33
0.0
  0
3DFACE
  8
0
  6
CONTINUOUS
 62
   249
 10
269.933876
 20
61.923461
 30
0.0
 11
269.947596
 21
61.923461
 31
0.0
 12
269.947596
 22
62.903461
 32
0.0
 13
269.933876
 23
62.903461
 33
0.0
  0
3DFACE
  8
0
  6
CONTINUOUS
 62
   249
 10
269.947596
 20
61.923461
 30
0.0
 11
269.961316
 21
61.923461
 31
0.0
 12
269.961316
 22
62.903461
 32
0.0
 13
269.947596
 23
62.903461
 33
0.0
  0
3DFACE
  8
0
  6
CONTINUOUS
 62
   249
 10
269.961316
 20
61.923461
 30
0.0
 11
269.975036
 21
61.923461
 31
0.0
 12
269.975036
 22
62.903461
 32
0.0
 13
269.961316
 23
62.903461
 33
0.0
  0
3DFACE
  8
0
  6
CONTINUOUS
 62
   249
 10
269.975036
 20
61.923461
 30
0.0
 11
269.988756
 21
61.923461
 31
0.0
 12
269.988756
 22
62.903461
 32
0.0
 13
269.975036
 23
62.903461
 33
0.0
  0
3DFACE
  8
0
  6
CONTINUOUS
 62
   249
 10
269.988756
 20
61.923461
 30
0.0
 11
270.002476
 21
61.923461
 31
0.0
 12
270.002476
 22
62.903461
 32
0.0
 13
269.988756
 23
62.903461
 33
0.0
  0
3DFACE
  8
0
  6
CONTINUOUS
 62
   249
 10
270.002476
 20
61.923461
 30
0.0
 11
270.016196
 21
61.923461
 31
0.0
 12
270.016196
 22
62.903461
 32
0.0
 13
270.002476
 23
62.903461
 33
0.0
  0
3DFACE
  8
0
  6
CONTINUOUS
 62
   249
 10
270.016196
 20
61.923461
 30
0.0
 11
270.029916
 21
61.923461
 31
0.0
 12
270.029916
 22
62.903461
 32
0.0
 13
270.016196
 23
62.903461
 33
0.0
  0
3DFACE
  8
0
  6
CONTINUOUS
 62
   249
 10
270.029916
 20
61.923461
 30
0.0
 11
270.043636
 21
61.923461
 31
0.0
 12
270.043636
 22
62.903461
 32
0.0
 13
270.029916
 23
62.903461
 33
0.0
  0
3DFACE
  8
0
  6
CONTINUOUS
 62
   249
 10
270.043636
 20
61.923461
 30
0.0
 11
270.057356
 21
61.923461
 31
0.0
 12
270.057356
 22
62.903461
 32
0.0
 13
270.043636
 23
62.903461
 33
0.0
  0
3DFACE
  8
0
  6
CONTINUOUS
 62
   249
 10
270.057356
 20
61.923461
 30
0.0
 11
270.071076
 21
61.923461
 31
0.0
 12
270.071076
 22
62.903461
 32
0.0
 13
270.057356
 23
62.903461
 33
0.0
  0
3DFACE
  8
0
  6
CONTINUOUS
 62
   249
 10
270.071076
 20
61.923461
 30
0.0
 11
270.084796
 21
61.923461
 31
0.0
 12
270.084796
 22
62.903461
 32
0.0
 13
270.071076
 23
62.903461
 33
0.0
  0
3DFACE
  8
0
  6
CONTINUOUS
 62
   249
 10
270.084796
 20
61.923461
 30
0.0
 11
270.098516
 21
61.923461
 31
0.0
 12
270.098516
 22
62.903461
 32
0.0
 13
270.084796
 23
62.903461
 33
0.0
  0
3DFACE
  8
0
  6
CONTINUOUS
 62
   249
 10
270.098516
 20
61.923461
 30
0.0
 11
270.112236
 21
61.923461
 31
0.0
 12
270.112236
 22
62.903461
 32
0.0
 13
270.098516
 23
62.903461
 33
0.0
  0
3DFACE
  8
0
  6
CONTINUOUS
 62
   249
 10
270.112236
 20
61.923461
 30
0.0
 11
270.125956
 21
61.923461
 31
0.0
 12
270.125956
 22
62.903461
 32
0.0
 13
270.112236
 23
62.903461
 33
0.0
  0
3DFACE
  8
0
  6
CONTINUOUS
 62
   249
 10
270.125956
 20
61.923461
 30
0.0
 11
270.139676
 21
61.923461
 31
0.0
 12
270.139676
 22
62.903461
 32
0.0
 13
270.125956
 23
62.903461
 33
0.0
  0
3DFACE
  8
0
  6
CONTINUOUS
 62
   249
 10
270.139676
 20
61.923461
 30
0.0
 11
270.153396
 21
61.923461
 31
0.0
 12
270.153396
 22
62.903461
 32
0.0
 13
270.139676
 23
62.903461
 33
0.0
  0
3DFACE
  8
0
  6
CONTINUOUS
 62
   249
 10
270.153396
 20
61.923461
 30
0.0
 11
270.167116
 21
61.923461
 31
0.0
 12
270.167116
 22
62.903461
 32
0.0
 13
270.153396
 23
62.903461
 33
0.0
  0
3DFACE
  8
0
  6
CONTINUOUS
 62
   249
 10
270.167116
 20
61.923461
 30
0.0
 11
270.180836
 21
61.923461
 31
0.0
 12
270.180836
 22
62.903461
 32
0.0
 13
270.167116
 23
62.903461
 33
0.0
  0
3DFACE
  8
0
  6
CONTINUOUS
 62
   249
 10
270.180836
 20
61.923461
 30
0.0
 11
270.194556
 21
61.923461
 31
0.0
 12
270.194556
 22
62.903461
 32
0.0
 13
270.180836
 23
62.903461
 33
0.0
  0
3DFACE
  8
0
  6
CONTINUOUS
 62
   249
 10
270.194556
 20
61.923461
 30
0.0
 11
270.208276
 21
61.923461
 31
0.0
 12
270.208276
 22
62.903461
 32
0.0
 13
270.194556
 23
62.903461
 33
0.0
  0
3DFACE
  8
0
  6
CONTINUOUS
 62
   249
 10
270.208276
 20
61.923461
 30
0.0
 11
270.221996
 21
61.923461
 31
0.0
 12
270.221996
 22
62.903461
 32
0.0
 13
270.208276
 23
62.903461
 33
0.0
  0
3DFACE
  8
0
  6
CONTINUOUS
 62
   249
 10
270.221996
 20
61.923461
 30
0.0
 11
270.235716
 21
61.923461
 31
0.0
 12
270.235716
 22
62.903461
 32
0.0
 13
270.221996
 23
62.903461
 33
0.0
  0
3DFACE
  8
0
  6
CONTINUOUS
 62
   249
 10
270.235716
 20
61.923461
 30
0.0
 11
270.249436
 21
61.923461
 31
0.0
 12
270.249436
 22
62.903461
 32
0.0
 13
270.235716
 23
62.903461
 33
0.0
  0
LINE
  8
0
  6
CONTINUOUS
 62
   249
 10
315.806523
 20
211.164644
 30
0.0
 11
313.460757
 21
212.499998
 31
0.0
  0
LINE
  8
0
  6
CONTINUOUS
 62
   249
 10
313.460757
 20
212.499998
 30
0.0
 11
315.806523
 21
213.689917
 31
0.0
  0
ARC
  8
0
  6
CONTINUOUS
 62
   249
 10
257.5
 20
135.0
 30
0.0
 40
0.5
 50
180.0
 51
0.0
  0
ARC
  8
0
  6
CONTINUOUS
 62
   249
 10
257.5
 20
135.0
 30
0.0
 40
0.5
 50
0.0
 51
180.0
  0
ARC
  8
0
  6
CONTINUOUS
 62
   249
 10
257.5
 20
142.5
 30
0.0
 40
0.5
 50
180.0
 51
0.0
  0
ARC
  8
0
  6
CONTINUOUS
 62
   249
 10
257.5
 20
142.5
 30
0.0
 40
0.5
 50
0.0
 51
180.0
  0
ARC
  8
0
  6
CONTINUOUS
 62
   249
 10
257.5
 20
150.0
 30
0.0
 40
0.5
 50
180.0
 51
0.0
  0
ARC
  8
0
  6
CONTINUOUS
 62
   249
 10
257.5
 20
150.0
 30
0.0
 40
0.5
 50
0.0
 51
180.0
  0
ARC
  8
0
  6
CONTINUOUS
 62
   249
 10
257.5
 20
170.0
 30
0.0
 40
0.5
 50
180.0
 51
0.0
  0
ARC
  8
0
  6
CONTINUOUS
 62
   249
 10
257.5
 20
170.0
 30
0.0
 40
0.5
 50
0.0
 51
180.0
  0
ARC
  8
0
  6
CONTINUOUS
 62
   249
 10
257.5
 20
177.5
 30
0.0
 40
0.5
 50
180.0
 51
0.0
  0
ARC
  8
0
  6
CONTINUOUS
 62
   249
 10
257.5
 20
177.5
 30
0.0
 40
0.5
 50
0.0
 51
180.0
  0
ARC
  8
0
  6
CONTINUOUS
 62
   249
 10
257.5
 20
185.0
 30
0.0
 40
0.5
 50
180.0
 51
0.0
  0
ARC
  8
0
  6
CONTINUOUS
 62
   249
 10
257.5
 20
185.0
 30
0.0
 40
0.5
 50
0.0
 51
180.0
  0
ARC
  8
0
  6
CONTINUOUS
 62
   249
 10
220.0
 20
148.598211
 30
0.0
 40
0.5
 50
180.0
 51
0.0
  0
ARC
  8
0
  6
CONTINUOUS
 62
   249
 10
220.0
 20
148.598211
 30
0.0
 40
0.5
 50
0.0
 51
180.0
  0
ARC
  8
0
  6
CONTINUOUS
 62
   249
 10
215.0
 20
155.995208
 30
0.0
 40
0.5
 50
180.0
 51
0.0
  0
ARC
  8
0
  6
CONTINUOUS
 62
   249
 10
215.0
 20
155.995208
 30
0.0
 40
0.5
 50
0.0
 51
180.0
  0
ARC
  8
0
  6
CONTINUOUS
 62
   249
 10
220.0
 20
164.267555
 30
0.0
 40
0.5
 50
180.0
 51
0.0
  0
ARC
  8
0
  6
CONTINUOUS
 62
   249
 10
220.0
 20
164.267555
 30
0.0
 40
0.5
 50
0.0
 51
180.0
  0
LINE
  8
0
  6
CONTINUOUS
 62
   249
 10
233.161367
 20
154.659857
 30
0.0
 11
230.815601
 21
155.995211
 31
0.0
  0
LINE
  8
0
  6
CONTINUOUS
 62
   249
 10
230.815601
 20
155.995211
 30
0.0
 11
233.161367
 21
157.18513
 31
0.0
  0
LINE
  8
0
  6
CONTINUOUS
 62
   249
 10
315.806523
 20
158.664644
 30
0.0
 11
313.460757
 21
159.999998
 31
0.0
  0
LINE
  8
0
  6
CONTINUOUS
 62
   249
 10
313.460757
 20
159.999998
 30
0.0
 11
315.806523
 21
161.189917
 31
0.0
  0
LINE
  8
0
  6
CONTINUOUS
 62
   249
 10
315.806523
 20
168.664644
 30
0.0
 11
313.460757
 21
169.999998
 31
0.0
  0
LINE
  8
0
  6
CONTINUOUS
 62
   249
 10
313.460757
 20
169.999998
 30
0.0
 11
315.806523
 21
171.189917
 31
0.0
  0
TEXT
  8
0
  6
CONTINUOUS
 62
   249
 10
279.344763
 20
206.50558
 30
0.0
 40
2.0
  1
-
  0
TEXT
  8
0
  6
CONTINUOUS
 62
   249
 10
279.353328
 20
211.513635
 30
0.0
 40
2.0
  1
+
  0
LINE
  8
0
  6
CONTINUOUS
 62
   249
 10
315.806523
 20
173.664644
 30
0.0
 11
313.460757
 21
174.999998
 31
0.0
  0
LINE
  8
0
  6
CONTINUOUS
 62
   249
 10
313.460757
 20
174.999998
 30
0.0
 11
315.806523
 21
176.189917
 31
0.0
  0
LINE
  8
0
  6
CONTINUOUS
 62
   249
 10
315.806523
 20
178.664644
 30
0.0
 11
313.460757
 21
179.999998
 31
0.0
  0
LINE
  8
0
  6
CONTINUOUS
 62
   249
 10
313.460757
 20
179.999998
 30
0.0
 11
315.806523
 21
181.189917
 31
0.0
  0
LINE
  8
0
  6
CONTINUOUS
 62
   249
 10
315.806523
 20
196.164644
 30
0.0
 11
313.460757
 21
197.499998
 31
0.0
  0
LINE
  8
0
  6
CONTINUOUS
 62
   249
 10
313.460757
 20
197.499998
 30
0.0
 11
315.806523
 21
198.689917
 31
0.0
  0
LINE
  8
0
  6
CONTINUOUS
 62
   249
 10
315.806523
 20
206.164644
 30
0.0
 11
313.460757
 21
207.499998
 31
0.0
  0
LINE
  8
0
  6
CONTINUOUS
 62
   249
 10
313.460757
 20
207.499998
 30
0.0
 11
315.806523
 21
208.689917
 31
0.0
  0
LINE
  8
0
  6
CONTINUOUS
 62
   249
 10
215.806523
 20
223.664644
 30
0.0
 11
213.460757
 21
224.999998
 31
0.0
  0
LINE
  8
0
  6
CONTINUOUS
 62
   249
 10
213.460757
 20
224.999998
 30
0.0
 11
215.806523
 21
226.189917
 31
0.0
  0
LINE
  8
0
  6
CONTINUOUS
 62
   249
 10
215.806523
 20
228.664644
 30
0.0
 11
213.460757
 21
229.999998
 31
0.0
  0
LINE
  8
0
  6
CONTINUOUS
 62
   249
 10
213.460757
 20
229.999998
 30
0.0
 11
215.806523
 21
231.189917
 31
0.0
  0
TEXT
  8
0
  6
CONTINUOUS
 62
   249
 10
279.344763
 20
216.50558
 30
0.0
 40
2.0
  1
-
  0
TEXT
  8
0
  6
CONTINUOUS
 62
   249
 10
279.353328
 20
221.513635
 30
0.0
 40
2.0
  1
+
  0
LINE
  8
0
  6
CONTINUOUS
 62
   249
 10
315.806523
 20
216.164644
 30
0.0
 11
313.460757
 21
217.499998
 31
0.0
  0
LINE
  8
0
  6
CONTINUOUS
 62
   249
 10
313.460757
 20
217.499998
 30
0.0
 11
315.806523
 21
218.689917
 31
0.0
  0
LINE
  8
0
  6
CONTINUOUS
 62
   249
 10
343.306523
 20
211.164644
 30
0.0
 11
340.960757
 21
212.499998
 31
0.0
  0
LINE
  8
0
  6
CONTINUOUS
 62
   249
 10
340.960757
 20
212.499998
 30
0.0
 11
343.306523
 21
213.689917
 31
0.0
  0
LINE
  8
0
  6
CONTINUOUS
 62
   249
 10
343.306523
 20
173.664644
 30
0.0
 11
340.960757
 21
174.999998
 31
0.0
  0
LINE
  8
0
  6
CONTINUOUS
 62
   249
 10
340.960757
 20
174.999998
 30
0.0
 11
343.306523
 21
176.189917
 31
0.0
  0
LINE
  8
0
  6
CONTINUOUS
 62
   249
 10
343.306523
 20
178.664644
 30
0.0
 11
340.960757
 21
179.999998
 31
0.0
  0
LINE
  8
0
  6
CONTINUOUS
 62
   249
 10
340.960757
 20
179.999998
 30
0.0
 11
343.306523
 21
181.189917
 31
0.0
  0
LINE
  8
0
  6
CONTINUOUS
 62
   249
 10
343.306523
 20
216.164644
 30
0.0
 11
340.960757
 21
217.499998
 31
0.0
  0
LINE
  8
0
  6
CONTINUOUS
 62
   249
 10
340.960757
 20
217.499998
 30
0.0
 11
343.306523
 21
218.689917
 31
0.0
  0
ENDSEC
  0
EOF
