  0
SECTION
  2
HEADER
  9
$ACADVER
  1
AC1009
  9
$INSBASE
 10
0.0
 20
0.0
 30
0.0
  9
$EXTMIN
 10
0.237099
 20
0.237999
 30
0.0
  9
$EXTMAX
 10
392.237099
 20
262.737999
 30
0.0
  9
$LIMMIN
 10
0.0
 20
0.0
  9
$LIMMAX
 10
12.0
 20
9.0
  9
$ORTHOMODE
 70
     1
  9
$REGENMODE
 70
     1
  9
$FILLMODE
 70
     1
  9
$QTEXTMODE
 70
     0
  9
$MIRRTEXT
 70
     1
  9
$DRAGMODE
 70
     2
  9
$LTSCALE
 40
5.0
  9
$OSMODE
 70
     0
  9
$ATTMODE
 70
     1
  9
$TEXTSIZE
 40
2.5
  9
$TRACEWID
 40
0.05
  9
$TEXTSTYLE
  7
STANDARD
  9
$CLAYER
  8
0
  9
$CELTYPE
  6
DASHED
  9
$CECOLOR
 62
   256
  9
$DIMSCALE
 40
1.0
  9
$DIMASZ
 40
0.18
  9
$DIMEXO
 40
0.0625
  9
$DIMDLI
 40
0.38
  9
$DIMRND
 40
0.0
  9
$DIMDLE
 40
0.0
  9
$DIMEXE
 40
0.18
  9
$DIMTP
 40
0.0
  9
$DIMTM
 40
0.0
  9
$DIMTXT
 40
0.18
  9
$DIMCEN
 40
0.09
  9
$DIMTSZ
 40
0.0
  9
$DIMTOL
 70
     0
  9
$DIMLIM
 70
     0
  9
$DIMTIH
 70
     1
  9
$DIMTOH
 70
     1
  9
$DIMSE1
 70
     0
  9
$DIMSE2
 70
     0
  9
$DIMTAD
 70
     0
  9
$DIMZIN
 70
     0
  9
$DIMBLK
  1

  9
$DIMASO
 70
     1
  9
$DIMSHO
 70
     1
  9
$DIMPOST
  1

  9
$DIMAPOST
  1

  9
$DIMALT
 70
     0
  9
$DIMALTD
 70
     2
  9
$DIMALTF
 40
25.4
  9
$DIMLFAC
 40
1.0
  9
$DIMTOFL
 70
     0
  9
$DIMTVP
 40
0.0
  9
$DIMTIX
 70
     0
  9
$DIMSOXD
 70
     0
  9
$DIMSAH
 70
     0
  9
$DIMBLK1
  1

  9
$DIMBLK2
  1

  9
$DIMSTYLE
  2
*UNNAMED
  9
$DIMCLRD
 70
     0
  9
$DIMCLRE
 70
     0
  9
$DIMCLRT
 70
     0
  9
$DIMTFAC
 40
1.0
  9
$DIMGAP
 40
0.09
  9
$LUNITS
 70
     2
  9
$LUPREC
 70
     4
  9
$SKETCHINC
 40
0.1
  9
$FILLETRAD
 40
0.0
  9
$AUNITS
 70
     0
  9
$AUPREC
 70
     0
  9
$MENU
  1
acad
  9
$ELEVATION
 40
0.0
  9
$PELEVATION
 40
0.0
  9
$THICKNESS
 40
0.0
  9
$LIMCHECK
 70
     0
  9
$BLIPMODE
 70
     1
  9
$CHAMFERA
 40
0.0
  9
$CHAMFERB
 40
0.0
  9
$SKPOLY
 70
     0
  9
$TDCREATE
 40
2448893.619596411
  9
$TDUPDATE
 40
2449018.622577199
  9
$TDINDWG
 40
0.0139755787
  9
$TDUSRTIMER
 40
0.0139755787
  9
$USRTIMER
 70
     1
  9
$ANGBASE
 50
0.0
  9
$ANGDIR
 70
     0
  9
$PDMODE
 70
     0
  9
$PDSIZE
 40
0.0
  9
$PLINEWID
 40
0.0
  9
$COORDS
 70
     2
  9
$SPLFRAME
 70
     0
  9
$SPLINETYPE
 70
     6
  9
$SPLINESEGS
 70
     8
  9
$ATTDIA
 70
     0
  9
$ATTREQ
 70
     1
  9
$HANDLING
 70
     0
  9
$HANDSEED
  5
0
  9
$SURFTAB1
 70
   250
  9
$SURFTAB2
 70
   250
  9
$SURFTYPE
 70
     6
  9
$SURFU
 70
     6
  9
$SURFV
 70
     6
  9
$UCSNAME
  2

  9
$UCSORG
 10
0.0
 20
0.0
 30
0.0
  9
$UCSXDIR
 10
1.0
 20
0.0
 30
0.0
  9
$UCSYDIR
 10
0.0
 20
1.0
 30
0.0
  9
$PUCSNAME
  2

  9
$PUCSORG
 10
0.0
 20
0.0
 30
0.0
  9
$PUCSXDIR
 10
1.0
 20
0.0
 30
0.0
  9
$PUCSYDIR
 10
0.0
 20
1.0
 30
0.0
  9
$USERI1
 70
     0
  9
$USERI2
 70
     0
  9
$USERI3
 70
     0
  9
$USERI4
 70
     0
  9
$USERI5
 70
     0
  9
$USERR1
 40
0.0
  9
$USERR2
 40
0.0
  9
$USERR3
 40
0.0
  9
$USERR4
 40
0.0
  9
$USERR5
 40
0.0
  9
$WORLDVIEW
 70
     1
  9
$SHADEDGE
 70
     3
  9
$SHADEDIF
 70
    70
  9
$TILEMODE
 70
     1
  9
$MAXACTVP
 70
    16
  9
$PINSBASE
 10
0.0
 20
0.0
 30
0.0
  9
$PLIMCHECK
 70
     0
  9
$PEXTMIN
 10
1.000000E+20
 20
1.000000E+20
 30
1.000000E+20
  9
$PEXTMAX
 10
-1.000000E+20
 20
-1.000000E+20
 30
-1.000000E+20
  9
$PLIMMIN
 10
0.0
 20
0.0
  9
$PLIMMAX
 10
12.0
 20
9.0
  9
$UNITMODE
 70
     0
  9
$VISRETAIN
 70
     0
  9
$PLINEGEN
 70
     0
  9
$PSLTSCALE
 70
     0
  9
$TREEDEPTH
 70
  3020
  9
$DWGCODEPAGE
  3
undefined
  0
ENDSEC
  0
SECTION
  2
TABLES
  0
TABLE
  2
VPORT
 70
     2
  0
VPORT
  2
*ACTIVE
 70
     0
 10
0.0
 20
0.0
 11
1.0
 21
1.0
 12
222.522843
 22
142.040485
 13
0.0
 23
0.0
 14
2.5
 24
2.5
 15
0.0
 25
0.0
 16
0.0
 26
0.0
 36
1.0
 17
0.0
 27
0.0
 37
0.0
 40
284.080971
 41
1.566616
 42
50.0
 43
0.0
 44
0.0
 50
0.0
 51
0.0
 71
     0
 72
   100
 73
     1
 74
     1
 75
     1
 76
     0
 77
     0
 78
     0
  0
ENDTAB
  0
TABLE
  2
LTYPE
 70
     4
  0
LTYPE
  2
CONTINUOUS
 70
    64
  3
Solid line
 72
    65
 73
     0
 40
0.0
  0
LTYPE
  2
DASHED
 70
    64
  3
__ __ __ __ __ __ __ __ __ __ __ __ __ __ __ __
 72
    65
 73
     2
 40
0.75
 49
0.5
 49
-0.25
  0
LTYPE
  2
CENTER
 70
    64
  3
____ _ ____ _ ____ _ ____ _ ____ _ ____ _ ____ 
 72
    65
 73
     4
 40
2.0
 49
1.25
 49
-0.25
 49
0.25
 49
-0.25
  0
LTYPE
  2
HIDDEN
 70
    64
  3
__ __ __ __ __ __ __ __ __ __ __ __ __ __ __ __
 72
    65
 73
     2
 40
0.375
 49
0.25
 49
-0.125
  0
ENDTAB
  0
TABLE
  2
LAYER
 70
    13
  0
LAYER
  2
0
 70
    64
 62
     7
  6
CONTINUOUS
  0
LAYER
  2
RAAMI
 70
    64
 62
    -4
  6
CONTINUOUS
  0
LAYER
  2
PAKSU
 70
    64
 62
    -3
  6
CONTINUOUS
  0
LAYER
  2
OHUT
 70
    64
 62
    -6
  6
CONTINUOUS
  0
LAYER
  2
SWEDEN
 70
    64
 62
    -7
  6
CONTINUOUS
  0
LAYER
  2
SWEDEN2
 70
    64
 62
    -5
  6
CONTINUOUS
  0
LAYER
  2
BASE
 70
    64
 62
    -7
  6
CONTINUOUS
  0
LAYER
  2
21
 70
    64
 62
    -2
  6
CONTINUOUS
  0
LAYER
  2
HEL035
 70
    64
 62
    -7
  6
CONTINUOUS
  0
LAYER
  2
MUO
 70
    64
 62
    -7
  6
CONTINUOUS
  0
LAYER
  2
1
 70
    64
 62
    -2
  6
CONTINUOUS
  0
LAYER
  2
BASE1
 70
    64
 62
    -1
  6
CONTINUOUS
  0
LAYER
  2
TEKS
 70
    64
 62
    -5
  6
CONTINUOUS
  0
ENDTAB
  0
TABLE
  2
STYLE
 70
     3
  0
STYLE
  2
STANDARD
 70
    64
 40
0.0
 41
1.0
 50
0.0
 71
     0
 42
2.5
  3
txt
  4

  0
STYLE
  2
ROMANS
 70
    64
 40
2.5
 41
1.0
 50
0.0
 71
     0
 42
2.5
  3
romans
  4

  0
STYLE
  2
GREEKS
 70
    64
 40
0.0
 41
1.0
 50
0.0
 71
     0
 42
3.0
  3
TXT
  4

  0
ENDTAB
  0
TABLE
  2
VIEW
 70
     0
  0
ENDTAB
  0
TABLE
  2
UCS
 70
     0
  0
ENDTAB
  0
TABLE
  2
APPID
 70
     1
  0
APPID
  2
ACAD
 70
    64
  0
ENDTAB
  0
TABLE
  2
DIMSTYLE
 70
     0
  0
ENDTAB
  0
ENDSEC
  0
SECTION
  2
BLOCKS
  0
BLOCK
  8
0
  2
1
 70
    64
 10
0.0
 20
0.0
 30
0.0
  3
1
  0
ENDBLK
  8
0
  0
BLOCK
  8
0
  2
BLC16
 70
    64
 10
0.0
 20
0.0
 30
0.0
  3
BLC16
  0
LINE
  8
0
  6
CONTINUOUS
 10
0.007689
 20
38.054928
 30
0.0
 11
19.983683
 21
38.054928
 31
0.0
  0
LINE
  8
0
  6
CONTINUOUS
 10
19.983683
 20
38.054928
 30
0.0
 11
19.983683
 21
-0.003751
 31
0.0
  0
LINE
  8
0
  6
CONTINUOUS
 10
19.983683
 20
-0.003751
 30
0.0
 11
0.007689
 21
-0.003751
 31
0.0
  0
LINE
  8
0
  6
CONTINUOUS
 10
0.007689
 20
-0.003751
 30
0.0
 11
0.007689
 21
38.054928
 31
0.0
  0
LINE
  8
0
  6
CONTINUOUS
 10
14.152643
 20
36.919738
 30
0.0
 11
14.152643
 21
33.528469
 31
0.0
  0
LINE
  8
0
  6
CONTINUOUS
 10
14.152643
 20
33.528469
 30
0.0
 11
11.560435
 21
33.528469
 31
0.0
  0
LINE
  8
0
  6
CONTINUOUS
 10
11.560435
 20
33.528469
 30
0.0
 11
11.560435
 21
30.778433
 31
0.0
  0
LINE
  8
0
  6
CONTINUOUS
 10
11.560435
 20
30.778433
 30
0.0
 11
14.152643
 21
30.778433
 31
0.0
  0
LINE
  8
0
  6
CONTINUOUS
 10
14.152643
 20
30.778433
 30
0.0
 11
14.152643
 21
27.387164
 31
0.0
  0
TEXT
  8
0
  6
CONTINUOUS
 10
6.558569
 20
30.805266
 30
0.0
 40
2.5
  1
2
 11
6.558569
 21
29.971932
 31
0.0
 73
     1
  0
TEXT
  8
0
  6
CONTINUOUS
 10
6.553289
 20
23.854078
 30
0.0
 40
2.5
  1
2 I
 11
6.553289
 21
23.020744
 31
0.0
 73
     1
  0
LINE
  8
0
  6
CONTINUOUS
 10
12.942534
 20
26.359129
 30
0.0
 11
15.288299
 21
25.023775
 31
0.0
  0
LINE
  8
0
  6
CONTINUOUS
 10
15.288299
 20
25.023775
 30
0.0
 11
12.942534
 21
23.833856
 31
0.0
  0
LINE
  8
0
  6
CONTINUOUS
 10
14.169823
 20
26.359129
 30
0.0
 11
16.515589
 21
25.023775
 31
0.0
  0
LINE
  8
0
  6
CONTINUOUS
 10
16.515589
 20
25.023775
 30
0.0
 11
14.169823
 21
23.833856
 31
0.0
  0
TEXT
  8
0
  6
CONTINUOUS
 10
11.566446
 20
19.235679
 30
0.0
 40
2.5
  1
I
 11
11.566446
 21
18.402346
 31
0.0
 73
     1
  0
TEXT
  8
0
  6
CONTINUOUS
 10
13.018181
 20
18.902346
 30
0.0
 40
1.5
  1
2
 11
13.018181
 21
18.402346
 31
0.0
 73
     1
  0
LINE
  8
0
  6
CONTINUOUS
 10
10.65733
 20
12.773825
 30
0.0
 11
13.003095
 21
13.963744
 31
0.0
  0
LINE
  8
0
  6
CONTINUOUS
 10
13.003095
 20
11.438471
 30
0.0
 11
10.65733
 21
12.773825
 31
0.0
  0
LINE
  8
0
  6
CONTINUOUS
 10
6.557002
 20
16.714658
 30
0.0
 11
15.281743
 21
16.714658
 31
0.0
  0
LINE
  8
0
  6
CONTINUOUS
 10
6.557002
 20
17.523984
 30
0.0
 11
6.557002
 21
15.908791
 31
0.0
  0
LINE
  8
0
  6
CONTINUOUS
 10
15.286518
 20
17.523984
 30
0.0
 11
15.286518
 21
15.908791
 31
0.0
  0
ARC
  8
0
  6
CONTINUOUS
 10
12.684846
 20
18.508045
 30
0.0
 40
2.922744
 50
193.105513
 51
283.105513
  0
TEXT
  8
0
  6
CONTINUOUS
 10
6.557002
 20
11.567974
 30
0.0
 40
2.5
  1
2I
 11
6.557002
 21
10.734641
 31
0.0
 73
     1
  0
LINE
  8
0
  6
CONTINUOUS
 10
6.557002
 20
9.441103
 30
0.0
 11
15.281743
 21
9.441103
 31
0.0
  0
LINE
  8
0
  6
CONTINUOUS
 10
15.286518
 20
10.250429
 30
0.0
 11
15.286518
 21
8.635236
 31
0.0
  0
LINE
  8
0
  6
CONTINUOUS
 10
6.557002
 20
10.250429
 30
0.0
 11
6.557002
 21
8.635236
 31
0.0
  0
TEXT
  8
0
  6
CONTINUOUS
 10
6.557002
 20
4.778631
 30
0.0
 40
2.5
  1
I
 11
6.557002
 21
3.945298
 31
0.0
 73
     1
  0
LINE
  8
0
  6
CONTINUOUS
 10
9.509029
 20
6.822462
 30
0.0
 11
9.509029
 21
5.477736
 31
0.0
  0
LINE
  8
0
  6
CONTINUOUS
 10
8.615065
 20
5.477736
 30
0.0
 11
9.52622
 21
5.477736
 31
0.0
  0
LINE
  8
0
  6
CONTINUOUS
 10
9.509029
 20
5.477736
 30
0.0
 11
10.402992
 21
5.477736
 31
0.0
  0
LINE
  8
0
  6
CONTINUOUS
 10
8.901592
 20
5.082328
 30
0.0
 11
9.509029
 21
5.082328
 31
0.0
  0
LINE
  8
0
  6
CONTINUOUS
 10
9.509029
 20
5.082328
 30
0.0
 11
10.150849
 21
5.082328
 31
0.0
  0
LINE
  8
0
  6
CONTINUOUS
 10
9.981861
 20
4.719969
 30
0.0
 11
9.072041
 21
4.719969
 31
0.0
  0
LINE
  8
0
  6
CONTINUOUS
 10
15.286518
 20
2.797924
 30
0.0
 11
15.286518
 21
1.182731
 31
0.0
  0
LINE
  8
0
  6
CONTINUOUS
 10
6.557002
 20
1.988598
 30
0.0
 11
15.281743
 21
1.988598
 31
0.0
  0
LINE
  8
0
  6
CONTINUOUS
 10
6.557002
 20
2.797924
 30
0.0
 11
6.557002
 21
1.182731
 31
0.0
  0
ENDBLK
  8
0
  0
BLOCK
  8
0
  2
BLC27
 70
    64
 10
0.0
 20
0.0
 30
0.0
  3
BLC27
  0
INSERT
  8
SWEDEN2
  6
CENTER
  2
BLC26
 10
0.08063
 20
0.037985
 30
0.0
 41
1.006225
 42
1.006225
 43
1.006225
  0
ENDBLK
  8
0
  0
BLOCK
  8
0
  2
BLC26
 70
    64
 10
0.0
 20
0.0
 30
0.0
  3
BLC26
  0
ARC
  8
0
  6
CONTINUOUS
 10
-0.180576
 20
1.17922
 30
0.0
 40
1.196859
 50
90.0
 51
265.706237
  0
LINE
  8
0
  6
CONTINUOUS
 10
-0.186638
 20
-0.01092
 30
0.0
 11
0.458942
 21
-0.01092
 31
0.0
  0
LINE
  8
0
  6
CONTINUOUS
 10
-0.186638
 20
2.375671
 30
0.0
 11
0.45288
 21
2.375671
 31
0.0
  0
LINE
  8
0
  6
CONTINUOUS
 10
-0.185509
 20
-2.404629
 30
0.0
 11
0.460071
 21
-2.404629
 31
0.0
  0
ARC
  8
0
  6
CONTINUOUS
 10
-0.180576
 20
-1.207779
 30
0.0
 40
1.196859
 50
90.0
 51
270.0
  0
LINE
  8
0
  6
CONTINUOUS
 10
0.451525
 20
-2.404586
 30
0.0
 11
1.401805
 21
-2.404586
 31
0.0
  0
LINE
  8
0
  6
CONTINUOUS
 10
0.446785
 20
2.375674
 30
0.0
 11
1.418544
 21
2.375674
 31
0.0
  0
LINE
  8
0
  6
CONTINUOUS
 10
0.456627
 20
-0.010911
 30
0.0
 11
1.422749
 21
-0.010911
 31
0.0
  0
ENDBLK
  8
0
  0
BLOCK
  8
0
  2
BLC28
 70
     0
 10
0.0
 20
0.0
 30
0.0
  3
BLC28
  0
LINE
  8
0
  6
CONTINUOUS
 10
0.484576
 20
2.400948
 30
0.0
 11
1.456712
 21
2.400948
 31
0.0
  0
LINE
  8
0
  6
CONTINUOUS
 10
0.474673
 20
4.802388
 30
0.0
 11
1.452481
 21
4.802388
 31
0.0
  0
LINE
  8
0
  6
CONTINUOUS
 10
0.479442
 20
-0.007627
 30
0.0
 11
1.435637
 21
-0.007627
 31
0.0
  0
ARC
  8
0
  6
CONTINUOUS
 10
-0.156593
 20
1.19663
 30
0.0
 40
1.204309
 50
90.0
 51
270.0
  0
LINE
  8
0
  6
CONTINUOUS
 10
-0.161557
 20
-0.007671
 30
0.0
 11
0.488041
 21
-0.007671
 31
0.0
  0
LINE
  8
0
  6
CONTINUOUS
 10
-0.162693
 20
4.802386
 30
0.0
 11
0.480806
 21
4.802386
 31
0.0
  0
LINE
  8
0
  6
CONTINUOUS
 10
-0.162693
 20
2.400939
 30
0.0
 11
0.486905
 21
2.400939
 31
0.0
  0
ARC
  8
0
  6
CONTINUOUS
 10
-0.156593
 20
3.598487
 30
0.0
 40
1.204309
 50
90.0
 51
265.706237
  0
LINE
  8
0
  6
CONTINUOUS
 10
0.484576
 20
-2.362961
 30
0.0
 11
1.456712
 21
-2.362961
 31
0.0
  0
LINE
  8
0
  6
CONTINUOUS
 10
0.479442
 20
-4.771537
 30
0.0
 11
1.435637
 21
-4.771537
 31
0.0
  0
ARC
  8
0
  6
CONTINUOUS
 10
-0.156593
 20
-3.567279
 30
0.0
 40
1.204309
 50
90.0
 51
270.0
  0
LINE
  8
0
  6
CONTINUOUS
 10
-0.161557
 20
-4.77158
 30
0.0
 11
0.488041
 21
-4.77158
 31
0.0
  0
LINE
  8
0
  6
CONTINUOUS
 10
-0.162693
 20
-2.36297
 30
0.0
 11
0.486905
 21
-2.36297
 31
0.0
  0
ARC
  8
0
  6
CONTINUOUS
 10
-0.156593
 20
-1.165422
 30
0.0
 40
1.204309
 50
101.28465
 51
265.706237
  0
ENDBLK
  8
0
  0
BLOCK
  8
0
  2
BLC22
 70
    64
 10
0.0
 20
0.0
 30
0.0
  3
BLC22
  0
LINE
  8
HEL035
 10
0.0
 20
-0.00155
 30
0.0
 11
0.0
 21
9.99845
 31
0.0
  0
LINE
  8
21
 10
2.5
 20
10.0
 30
0.0
 11
5.0
 21
10.0
 31
0.0
  0
LINE
  8
HEL035
 10
0.0
 20
9.99845
 30
0.0
 11
2.5
 21
9.99845
 31
0.0
  0
LINE
  8
HEL035
 10
-2.5
 20
5.0
 30
0.0
 11
2.5
 21
5.0
 31
0.0
  0
LINE
  8
21
 10
2.5
 20
5.0
 30
0.0
 11
5.0
 21
5.0
 31
0.0
  0
LINE
  8
21
 10
5.0
 20
5.0
 30
0.0
 11
5.0
 21
7.9
 31
0.0
  0
LINE
  8
HEL035
 10
3.88095
 20
6.944425
 30
0.0
 11
4.560313
 21
6.008681
 31
0.0
  0
LINE
  8
21
 10
10.0
 20
10.0
 30
0.0
 11
4.2
 21
6.5
 31
0.0
  0
LINE
  8
HEL035
 10
2.5
 20
-0.00155
 30
0.0
 11
0.0
 21
-0.00155
 31
0.0
  0
LINE
  8
21
 10
2.5
 20
0.0
 30
0.0
 11
5.0
 21
0.0
 31
0.0
  0
ENDBLK
  8
0
  0
BLOCK
  8
0
  2
BLC17
 70
     0
 10
0.0
 20
0.0
 30
0.0
  3
BLC17
  0
LINE
  8
0
  6
CONTINUOUS
 10
30.450615
 20
54.709828
 30
0.0
 11
30.450615
 21
0.0
 31
0.0
  0
LINE
  8
0
  6
CONTINUOUS
 10
30.450615
 20
0.0
 30
0.0
 11
0.012657
 21
0.0
 31
0.0
  0
LINE
  8
0
  6
CONTINUOUS
 10
0.012657
 20
0.0
 30
0.0
 11
0.012657
 21
54.709828
 31
0.0
  0
LINE
  8
0
  6
CONTINUOUS
 10
0.012657
 20
54.709828
 30
0.0
 11
30.450615
 21
54.709828
 31
0.0
  0
LINE
  8
0
  6
CONTINUOUS
 10
18.921474
 20
47.423701
 30
0.0
 11
18.921474
 21
44.032431
 31
0.0
  0
LINE
  8
0
  6
CONTINUOUS
 10
16.329266
 20
47.423701
 30
0.0
 11
18.921474
 21
47.423701
 31
0.0
  0
LINE
  8
0
  6
CONTINUOUS
 10
16.329266
 20
50.173736
 30
0.0
 11
16.329266
 21
47.423701
 31
0.0
  0
LINE
  8
0
  6
CONTINUOUS
 10
18.921474
 20
50.173736
 30
0.0
 11
16.329266
 21
50.173736
 31
0.0
  0
LINE
  8
0
  6
CONTINUOUS
 10
18.921474
 20
53.565006
 30
0.0
 11
18.921474
 21
50.173736
 31
0.0
  0
TEXT
  8
0
  6
CONTINUOUS
 10
11.908766
 20
1.295815
 30
0.0
 40
2.5
  1
IRF
 11
11.908766
 21
0.462481
 31
0.0
 73
     1
  0
LINE
  8
0
  6
CONTINUOUS
 10
0.012657
 20
5.232891
 30
0.0
 11
30.450615
 21
5.232891
 31
0.0
  0
LINE
  8
0
  6
CONTINUOUS
 10
21.416194
 20
54.709828
 30
0.0
 11
21.416194
 21
5.232891
 31
0.0
  0
LINE
  8
0
  6
CONTINUOUS
 10
0.011825
 20
37.58089
 30
0.0
 11
21.415362
 21
37.58089
 31
0.0
  0
TEXT
  8
0
  6
CONTINUOUS
 10
5.510524
 20
38.756802
 30
0.0
 40
2.5
  1
95%
 11
5.510524
 21
37.923468
 31
0.0
 73
     1
  0
LINE
  8
0
  6
CONTINUOUS
 10
4.315318
 20
39.921891
 30
0.0
 11
1.969552
 21
38.731972
 31
0.0
  0
LINE
  8
0
  6
CONTINUOUS
 10
1.969552
 20
41.257245
 30
0.0
 11
4.315318
 21
39.921891
 31
0.0
  0
LINE
  8
0
  6
CONTINUOUS
 10
0.059126
 20
43.413293
 30
0.0
 11
15.254454
 21
43.413293
 31
0.0
  0
LINE
  8
0
  6
CONTINUOUS
 10
15.254454
 20
43.413293
 30
0.0
 11
15.254454
 21
37.555196
 31
0.0
  0
TEXT
  8
0
  6
CONTINUOUS
 10
6.643071
 20
9.801915
 30
0.0
 40
2.5
  1
I
 11
6.643071
 21
8.968581
 31
0.0
 73
     1
  0
LINE
  8
0
  6
CONTINUOUS
 10
9.595097
 20
11.845745
 30
0.0
 11
9.595097
 21
10.491474
 31
0.0
  0
LINE
  8
0
  6
CONTINUOUS
 10
8.384869
 20
10.491474
 30
0.0
 11
9.57921
 21
10.491474
 31
0.0
  0
LINE
  8
0
  6
CONTINUOUS
 10
9.57921
 20
10.491474
 30
0.0
 11
10.773551
 21
10.491474
 31
0.0
  0
LINE
  8
0
  6
CONTINUOUS
 10
8.763274
 20
10.011864
 30
0.0
 11
10.347846
 21
10.011864
 31
0.0
  0
LINE
  8
0
  6
CONTINUOUS
 10
9.094379
 20
9.523689
 30
0.0
 11
9.981266
 21
9.523689
 31
0.0
  0
LINE
  8
0
  6
CONTINUOUS
 10
11.834315
 20
10.199281
 30
0.0
 11
20.559056
 21
10.199281
 31
0.0
  0
LINE
  8
0
  6
CONTINUOUS
 10
20.563831
 20
11.008607
 30
0.0
 11
20.563831
 21
9.393414
 31
0.0
  0
LINE
  8
0
  6
CONTINUOUS
 10
11.834315
 20
11.008607
 30
0.0
 11
11.834315
 21
9.393414
 31
0.0
  0
TEXT
  8
0
  6
CONTINUOUS
 10
1.771105
 20
17.124536
 30
0.0
 40
2.5
  1
I
 11
1.771105
 21
16.291202
 31
0.0
 73
     1
  0
LINE
  8
0
  6
CONTINUOUS
 10
3.269898
 20
18.259589
 30
0.0
 11
5.615664
 21
19.449509
 31
0.0
  0
LINE
  8
0
  6
CONTINUOUS
 10
5.615664
 20
16.924236
 30
0.0
 11
3.269898
 21
18.259589
 31
0.0
  0
LINE
  8
0
  6
CONTINUOUS
 10
11.834315
 20
18.785145
 30
0.0
 11
11.834315
 21
17.169952
 31
0.0
  0
LINE
  8
0
  6
CONTINUOUS
 10
20.563831
 20
18.785145
 30
0.0
 11
20.563831
 21
17.169952
 31
0.0
  0
LINE
  8
0
  6
CONTINUOUS
 10
11.834315
 20
17.975819
 30
0.0
 11
20.559056
 21
17.975819
 31
0.0
  0
LINE
  8
0
  6
CONTINUOUS
 10
10.616324
 20
26.165772
 30
0.0
 11
19.341064
 21
26.165772
 31
0.0
  0
LINE
  8
0
  6
CONTINUOUS
 10
10.616324
 20
26.975098
 30
0.0
 11
10.616324
 21
25.359905
 31
0.0
  0
LINE
  8
0
  6
CONTINUOUS
 10
19.34584
 20
26.975098
 30
0.0
 11
19.34584
 21
25.359905
 31
0.0
  0
ARC
  8
0
  6
CONTINUOUS
 10
16.744168
 20
27.959159
 30
0.0
 40
2.922744
 50
193.105513
 51
283.105513
  0
TEXT
  8
0
  6
CONTINUOUS
 10
1.743031
 20
25.483682
 30
0.0
 40
2.5
  1
I
 11
1.743031
 21
24.650348
 31
0.0
 73
     1
  0
TEXT
  8
0
  6
CONTINUOUS
 10
3.194767
 20
25.150348
 30
0.0
 40
1.5
  1
2
 11
3.194767
 21
24.650348
 31
0.0
 73
     1
  0
TEXT
  8
0
  6
CONTINUOUS
 10
1.924832
 20
33.140093
 30
0.0
 40
2.5
  1
I
 11
1.924832
 21
32.306759
 31
0.0
 73
     1
  0
LINE
  8
0
  6
CONTINUOUS
 10
3.734027
 20
35.656082
 30
0.0
 11
6.079793
 21
34.320728
 31
0.0
  0
LINE
  8
0
  6
CONTINUOUS
 10
6.079793
 20
34.320728
 30
0.0
 11
3.734027
 21
33.130809
 31
0.0
  0
LINE
  8
0
  6
CONTINUOUS
 10
4.961317
 20
35.656082
 30
0.0
 11
7.307083
 21
34.320728
 31
0.0
  0
LINE
  8
0
  6
CONTINUOUS
 10
7.307083
 20
34.320728
 30
0.0
 11
4.961317
 21
33.130809
 31
0.0
  0
TEXT
  8
0
  6
CONTINUOUS
 10
23.718599
 20
44.648458
 30
0.0
 40
2.5
  1
2I
 11
23.718599
 21
43.815125
 31
0.0
 73
     1
  0
TEXT
  8
0
  6
CONTINUOUS
 10
23.730424
 20
9.356562
 30
0.0
 40
2.5
  1
I
 11
23.730424
 21
8.523229
 31
0.0
 73
     1
  0
LINE
  8
0
  6
CONTINUOUS
 10
26.682451
 20
11.400392
 30
0.0
 11
26.682451
 21
10.046122
 31
0.0
  0
LINE
  8
0
  6
CONTINUOUS
 10
25.472223
 20
10.046122
 30
0.0
 11
26.666564
 21
10.046122
 31
0.0
  0
LINE
  8
0
  6
CONTINUOUS
 10
26.666564
 20
10.046122
 30
0.0
 11
27.860905
 21
10.046122
 31
0.0
  0
LINE
  8
0
  6
CONTINUOUS
 10
25.850628
 20
9.566512
 30
0.0
 11
27.435199
 21
9.566512
 31
0.0
  0
LINE
  8
0
  6
CONTINUOUS
 10
26.181732
 20
9.078337
 30
0.0
 11
27.068619
 21
9.078337
 31
0.0
  0
LINE
  8
0
  6
CONTINUOUS
 10
5.557824
 20
10.868311
 30
0.0
 11
3.299219
 21
10.868311
 31
0.0
  0
LINE
  8
0
  6
CONTINUOUS
 10
3.299219
 20
10.868311
 30
0.0
 11
1.194341
 21
9.669285
 31
0.0
  0
LINE
  8
0
  6
CONTINUOUS
 10
1.194341
 20
10.868311
 30
0.0
 11
0.0
 21
10.868311
 31
0.0
  0
LINE
  8
0
  6
CONTINUOUS
 10
1.348068
 20
9.977606
 30
0.0
 11
1.348068
 21
7.725151
 31
0.0
  0
LINE
  8
0
  6
CONTINUOUS
 10
1.348068
 20
7.725151
 30
0.0
 11
-0.011825
 21
7.725151
 31
0.0
  0
LINE
  8
0
  6
CONTINUOUS
 10
0.0
 20
13.728844
 30
0.0
 11
21.474488
 21
13.728844
 31
0.0
  0
LINE
  8
0
  6
CONTINUOUS
 10
0.0
 20
21.839396
 30
0.0
 11
21.474488
 21
21.839396
 31
0.0
  0
LINE
  8
0
  6
CONTINUOUS
 10
0.0
 20
30.095544
 30
0.0
 11
21.474488
 21
30.095544
 31
0.0
  0
ENDBLK
  8
0
  0
BLOCK
  8
0
  2
BLC18
 70
    64
 10
0.0
 20
0.0
 30
0.0
  3
BLC18
  0
LINE
  8
MUO
 10
-0.056268
 20
0.849555
 30
0.0
 11
8.307242
 21
9.215502
 31
0.0
  0
LINE
  8
MUO
 10
0.928025
 20
-0.107047
 30
0.0
 11
9.268386
 21
8.2307
 31
0.0
  0
LINE
  8
MUO
 10
-0.056268
 20
-0.107047
 30
0.0
 11
-0.056268
 21
9.215502
 31
0.0
  0
LINE
  8
MUO
 10
9.268386
 20
-0.107047
 30
0.0
 11
-0.056268
 21
-0.107047
 31
0.0
  0
LINE
  8
MUO
 10
9.268386
 20
9.215502
 30
0.0
 11
9.268386
 21
-0.107047
 31
0.0
  0
LINE
  8
MUO
 10
-0.056268
 20
9.215502
 30
0.0
 11
9.268386
 21
9.215502
 31
0.0
  0
ENDBLK
  8
0
  0
BLOCK
  8
0
  2
BLC11
 70
     0
 10
0.0
 20
0.0
 30
0.0
  3
BLC11
  0
INSERT
  8
BASE
  6
CONTINUOUS
  2
BLC18
 10
0.041067
 20
0.101044
 30
0.0
 41
0.96
 42
0.96
 43
0.96
  0
ENDBLK
  8
0
  0
BLOCK
  8
0
  2
BLC29
 70
    64
 10
0.0
 20
0.0
 30
0.0
  3
BLC29
  0
LINE
  8
0
  6
CONTINUOUS
 10
0.004865
 20
1.206889
 30
0.0
 11
2.350631
 21
-0.128465
 31
0.0
  0
LINE
  8
0
  6
CONTINUOUS
 10
2.350631
 20
-0.128465
 30
0.0
 11
0.004865
 21
-1.318384
 31
0.0
  0
ENDBLK
  8
0
  0
BLOCK
  8
0
  2
BLC8
 70
     0
 10
0.0
 20
0.0
 30
0.0
  3
BLC8
  0
LINE
  8
BASE
  6
CONTINUOUS
 10
4.30938
 20
7.248434
 30
0.0
 11
7.196163
 21
7.248434
 31
0.0
  0
LINE
  8
BASE
  6
CONTINUOUS
 10
2.021582
 20
1.434021
 30
0.0
 11
4.908367
 21
1.434021
 31
0.0
  0
LINE
  8
BASE
  6
CONTINUOUS
 10
4.908367
 20
7.248434
 30
0.0
 11
4.908367
 21
1.434021
 31
0.0
  0
LINE
  8
BASE
  6
CONTINUOUS
 10
4.30938
 20
7.248434
 30
0.0
 11
4.30938
 21
1.434021
 31
0.0
  0
INSERT
  8
BASE
  6
CONTINUOUS
  2
BLC29
 10
5.663756
 20
10.310489
 30
0.0
 41
0.8
 42
0.8
 43
0.8
  0
TEXT
  8
BASE
  6
CONTINUOUS
 10
3.010803
 20
9.256358
 30
0.0
 40
2.0
  1
R
 11
3.010803
 21
8.589691
 31
0.0
 73
     1
  0
LINE
  8
BASE
  6
CONTINUOUS
 10
10.003327
 20
0.005137
 30
0.0
 11
10.003327
 21
12.505137
 31
0.0
  0
LINE
  8
BASE
  6
CONTINUOUS
 10
0.003327
 20
0.005137
 30
0.0
 11
10.003327
 21
0.005137
 31
0.0
  0
LINE
  8
BASE
  6
CONTINUOUS
 10
0.003327
 20
12.505137
 30
0.0
 11
0.003327
 21
0.005137
 31
0.0
  0
LINE
  8
BASE
  6
CONTINUOUS
 10
10.003327
 20
12.505137
 30
0.0
 11
0.003327
 21
12.505137
 31
0.0
  0
ENDBLK
  8
0
  0
BLOCK
  8
0
  2
BLC19
 70
     0
 10
0.0
 20
0.0
 30
0.0
  3
BLC19
  0
CIRCLE
  8
0
  6
CONTINUOUS
 10
5.317218
 20
-0.888558
 30
0.0
 40
0.798019
  0
TEXT
  8
0
  6
CONTINUOUS
 10
7.274197
 20
1.270498
 30
0.0
 40
2.5
  1
1
 11
7.274197
 21
0.437165
 31
0.0
 73
     1
  0
LINE
  8
0
  6
CONTINUOUS
 10
2.832294
 20
0.605305
 30
0.0
 11
5.215754
 21
1.793497
 31
0.0
  0
LINE
  8
0
  6
CONTINUOUS
 10
2.840336
 20
3.930592
 30
0.0
 11
5.186101
 21
2.595238
 31
0.0
  0
LINE
  8
0
  6
CONTINUOUS
 10
5.186101
 20
2.595238
 30
0.0
 11
2.840336
 21
1.405319
 31
0.0
  0
LINE
  8
0
  6
CONTINUOUS
 10
0.170247
 20
-0.089675
 30
0.0
 11
11.344653
 21
-0.089675
 31
0.0
  0
LINE
  8
0
  6
CONTINUOUS
 10
0.170247
 20
4.988164
 30
0.0
 11
0.170247
 21
-0.089675
 31
0.0
  0
LINE
  8
0
  6
CONTINUOUS
 10
11.344653
 20
4.988164
 30
0.0
 11
0.170247
 21
4.988164
 31
0.0
  0
LINE
  8
0
  6
CONTINUOUS
 10
11.344653
 20
-0.089675
 30
0.0
 11
11.344653
 21
4.988164
 31
0.0
  0
ENDBLK
  8
0
  0
BLOCK
  8
0
  2
BLC24
 70
     0
 10
0.0
 20
0.0
 30
0.0
  3
BLC24
  0
LINE
  8
0
  6
CONTINUOUS
 10
4.595433
 20
2.687113
 30
0.0
 11
2.249668
 21
1.497194
 31
0.0
  0
LINE
  8
0
  6
CONTINUOUS
 10
2.249668
 20
4.022467
 30
0.0
 11
4.595433
 21
2.687113
 31
0.0
  0
LINE
  8
0
  6
CONTINUOUS
 10
2.241626
 20
0.69718
 30
0.0
 11
4.625086
 21
1.885372
 31
0.0
  0
TEXT
  8
0
  6
CONTINUOUS
 10
6.68353
 20
1.362373
 30
0.0
 40
2.5
  1
1
 11
6.68353
 21
0.52904
 31
0.0
 73
     1
  0
CIRCLE
  8
0
  6
CONTINUOUS
 10
4.984447
 20
-0.797999
 30
0.0
 40
0.798019
  0
LINE
  8
BASE
  6
CONTINUOUS
 10
10.0
 20
5.0
 30
0.0
 11
10.0
 21
0.0
 31
0.0
  0
LINE
  8
BASE
  6
CONTINUOUS
 10
0.0
 20
5.0
 30
0.0
 11
10.0
 21
5.0
 31
0.0
  0
LINE
  8
BASE
  6
CONTINUOUS
 10
0.0
 20
0.0
 30
0.0
 11
0.0
 21
5.0
 31
0.0
  0
LINE
  8
BASE
  6
CONTINUOUS
 10
10.0
 20
0.0
 30
0.0
 11
0.0
 21
0.0
 31
0.0
  0
ENDBLK
  8
0
  0
BLOCK
  8
0
  2
BLC32
 70
     0
 10
0.0
 20
0.0
 30
0.0
  3
BLC32
  0
LINE
  8
SWEDEN2
  6
CONTINUOUS
 10
2.0
 20
-0.943664
 30
0.0
 11
2.0
 21
-4.0
 31
0.0
  0
LINE
  8
SWEDEN2
  6
CONTINUOUS
 10
6.0
 20
-0.943664
 30
0.0
 11
6.0
 21
-4.0
 31
0.0
  0
LINE
  8
SWEDEN2
  6
CONTINUOUS
 10
6.0
 20
8.378885
 30
0.0
 11
6.0
 21
14.0
 31
0.0
  0
LINE
  8
SWEDEN2
  6
CONTINUOUS
 10
2.0
 20
8.378885
 30
0.0
 11
2.0
 21
14.0
 31
0.0
  0
TEXT
  8
SWEDEN2
  6
CONTINUOUS
 10
5.486983
 20
14.403284
 30
0.0
 40
2.0
  1
-
  0
TEXT
  8
SWEDEN2
  6
CONTINUOUS
 10
1.355281
 20
14.378715
 30
0.0
 40
2.0
  1
+
  0
LINE
  8
MUO
 10
-0.424332
 20
8.378885
 30
0.0
 11
8.900321
 21
8.378885
 31
0.0
  0
LINE
  8
MUO
 10
8.900321
 20
8.378885
 30
0.0
 11
8.900321
 21
-0.943664
 31
0.0
  0
LINE
  8
MUO
 10
8.900321
 20
-0.943664
 30
0.0
 11
-0.424332
 21
-0.943664
 31
0.0
  0
LINE
  8
MUO
 10
-0.424332
 20
-0.943664
 30
0.0
 11
-0.424332
 21
8.378885
 31
0.0
  0
LINE
  8
MUO
 10
0.55996
 20
-0.943664
 30
0.0
 11
8.900321
 21
7.394083
 31
0.0
  0
LINE
  8
MUO
 10
-0.424332
 20
0.012938
 30
0.0
 11
7.939178
 21
8.378885
 31
0.0
  0
LINE
  8
HEL035
 10
0.490466
 20
6.301194
 30
0.0
 11
4.490466
 21
6.301194
 31
0.0
  0
LINE
  8
HEL035
 10
4.246876
 20
1.355171
 30
0.0
 11
8.246876
 21
1.355171
 31
0.0
  0
INSERT
  8
HEL035
  2
WKU130
 10
4.586826
 20
-0.370382
 30
0.0
 41
0.8
 42
0.8
 43
0.8
  0
ENDBLK
  8
0
  0
BLOCK
  8
0
  2
WKU130
 70
    64
 10
190.0
 20
250.0
 30
0.0
  3
WKU130
  0
ARC
  8
21
 10
191.083333
 20
249.916667
 30
0.0
 40
1.086534
 50
32.471192
 51
175.601295
  0
ARC
  8
21
 10
192.916667
 20
251.083333
 30
0.0
 40
1.086534
 50
212.471192
 51
355.601295
  0
ENDBLK
  8
0
  0
BLOCK
  8
0
  2
BLC38
 70
     0
 10
0.0
 20
0.0
 30
0.0
  3
BLC38
  0
LINE
  8
BASE
  6
CONTINUOUS
 10
5.0
 20
0.429605
 30
0.0
 11
5.0
 21
-2.5
 31
0.0
  0
LINE
  8
BASE
  6
CONTINUOUS
 10
0.0
 20
0.429605
 30
0.0
 11
0.0
 21
-2.5
 31
0.0
  0
LINE
  8
BASE
  6
CONTINUOUS
 10
5.0
 20
15.0
 30
0.0
 11
5.0
 21
9.752154
 31
0.0
  0
LINE
  8
BASE
  6
CONTINUOUS
 10
0.0
 20
15.0
 30
0.0
 11
0.0
 21
9.752154
 31
0.0
  0
INSERT
  8
HEL035
  2
WKU130
 10
2.806261
 20
1.002888
 30
0.0
 41
0.8
 42
0.8
 43
0.8
  0
LINE
  8
HEL035
 10
2.466311
 20
2.72844
 30
0.0
 11
6.466311
 21
2.72844
 31
0.0
  0
LINE
  8
HEL035
 10
-1.290099
 20
7.674464
 30
0.0
 11
2.709901
 21
7.674464
 31
0.0
  0
LINE
  8
MUO
 10
-2.204897
 20
1.386207
 30
0.0
 11
6.158613
 21
9.752154
 31
0.0
  0
LINE
  8
MUO
 10
-1.220605
 20
0.429605
 30
0.0
 11
7.119756
 21
8.767352
 31
0.0
  0
LINE
  8
MUO
 10
-2.204897
 20
0.429605
 30
0.0
 11
-2.204897
 21
9.752154
 31
0.0
  0
LINE
  8
MUO
 10
7.119756
 20
0.429605
 30
0.0
 11
-2.204897
 21
0.429605
 31
0.0
  0
LINE
  8
MUO
 10
7.119756
 20
9.752154
 30
0.0
 11
7.119756
 21
0.429605
 31
0.0
  0
LINE
  8
MUO
 10
-2.204897
 20
9.752154
 30
0.0
 11
7.119756
 21
9.752154
 31
0.0
  0
TEXT
  8
SWEDEN2
  6
CONTINUOUS
 10
-0.633266
 20
15.55315
 30
0.0
 40
2.0
  1
+
  0
TEXT
  8
SWEDEN2
  6
CONTINUOUS
 10
4.297086
 20
15.577719
 30
0.0
 40
2.0
  1
-
  0
ENDBLK
  8
0
  0
BLOCK
  8
0
  2
BLC39
 70
     0
 10
0.0
 20
0.0
 30
0.0
  3
BLC39
  0
LINE
  8
BASE
  6
CONTINUOUS
 10
0.032888
 20
8.912306
 30
0.0
 11
0.032888
 21
-1.087694
 31
0.0
  0
LINE
  8
BASE
  6
CONTINUOUS
 10
0.032888
 20
-1.087694
 30
0.0
 11
2.532888
 21
-1.087694
 31
0.0
  0
LINE
  8
BASE
  6
CONTINUOUS
 10
2.334881
 20
-0.78829
 30
0.0
 11
1.595148
 21
-0.416716
 31
0.0
  0
LINE
  8
BASE
  6
CONTINUOUS
 10
0.026299
 20
-7.105729
 30
0.0
 11
2.334881
 21
-0.78829
 31
0.0
  0
CIRCLE
  8
BASE
  6
CONTINUOUS
 10
0.032888
 20
-7.846639
 30
0.0
 40
0.740939
  0
LINE
  8
BASE
  6
CONTINUOUS
 10
0.032888
 20
-8.587694
 30
0.0
 11
0.032888
 21
-18.587694
 31
0.0
  0
ENDBLK
  8
0
  0
BLOCK
  8
0
  2
BLC14
 70
     0
 10
0.0
 20
0.0
 30
0.0
  3
BLC14
  0
LINE
  8
BASE1
  6
CONTINUOUS
 10
12.100556
 20
7.489357
 30
0.0
 11
3.585754
 21
1.146244
 31
0.0
  0
LINE
  8
BASE1
  6
CONTINUOUS
 10
0.0
 20
7.5
 30
0.0
 11
5.0
 21
7.5
 31
0.0
  0
LINE
  8
BASE1
  6
CONTINUOUS
 10
5.0
 20
0.0
 30
0.0
 11
5.0
 21
2.5
 31
0.0
  0
LINE
  8
BASE1
  6
CONTINUOUS
 10
0.0
 20
0.0
 30
0.0
 11
5.0
 21
0.0
 31
0.0
  0
ENDBLK
  8
0
  0
BLOCK
  8
0
  2
ABBA3
 70
     0
 10
0.0
 20
0.0
 30
0.0
  3
ABBA3
  0
LINE
  8
PAKSU
 10
0.0
 20
0.0
 30
0.0
 11
0.0
 21
262.5
 31
0.0
  0
LINE
  8
PAKSU
 10
392.0
 20
262.5
 30
0.0
 11
392.0
 21
0.0
 31
0.0
  0
LINE
  8
PAKSU
 10
0.0
 20
0.0
 30
0.0
 11
392.0
 21
0.0
 31
0.0
  0
TEXT
  8
RAAMI
 10
42.0
 20
0.952381
 30
0.0
 40
2.5
  1
C
  7
ROMANS
  0
TEXT
  8
RAAMI
 10
42.0
 20
5.354421
 30
0.0
 40
2.5
  1
B
  7
ROMANS
  0
TEXT
  8
RAAMI
 10
257.169907
 20
1.503784
 30
0.0
 40
3.0
  1
Power
 41
0.8
  7
ROMANS
  0
TEXT
  8
RAAMI
 10
273.0
 20
7.0
 30
0.0
 40
1.4
  1
VAST.OSASTO RESP.DEPT.
  7
ROMANS
  0
TEXT
  8
RAAMI
 10
210.0
 20
32.0
 30
0.0
 40
1.4
  1
TEKI  PREPARED
  7
ROMANS
  0
LINE
  8
OHUT
 10
271.0
 20
9.5
 30
0.0
 11
271.0
 21
0.0
 31
0.0
  0
LINE
  8
OHUT
 10
257.0
 20
9.5
 30
0.0
 11
257.0
 21
35.0
 31
0.0
  0
LINE
  8
OHUT
 10
40.5
 20
4.5
 30
0.0
 11
209.0
 21
4.5
 31
0.0
  0
LINE
  8
OHUT
 10
46.5
 20
0.0
 30
0.0
 11
46.5
 21
9.0
 31
0.0
  0
LINE
  8
OHUT
 10
46.5
 20
9.0
 30
0.0
 11
209.0
 21
9.0
 31
0.0
  0
TEXT
  8
RAAMI
 10
27.5
 20
2.233333
 30
0.0
 40
1.4
  1
REVISION
  7
ROMANS
  0
TEXT
  8
RAAMI
 10
27.5
 20
4.5
 30
0.0
 40
1.4
  1
MUUTOS
  7
ROMANS
  0
LINE
  8
OHUT
 10
282.0
 20
9.5
 30
0.0
 11
282.0
 21
18.0
 31
0.0
  0
TEXT
  8
RAAMI
 10
237.5
 20
1.5
 30
0.0
 40
3.0
  1
Strömberg
 41
0.8
  7
ROMANS
  0
TEXT
  8
RAAMI
 10
229.5
 20
1.5
 30
0.0
 40
3.0
  1
ABB 
 41
0.8
  7
ROMANS
  0
LINE
  8
RAAMI
 10
222.9
 20
1.5
 30
0.0
 11
222.9
 21
4.86
 31
0.0
  0
LINE
  8
RAAMI
 10
222.9
 20
8.5
 30
0.0
 11
224.86
 21
8.5
 31
0.0
  0
LINE
  8
RAAMI
 10
224.86
 20
8.5
 30
0.0
 11
224.86
 21
5.14
 31
0.0
  0
LINE
  8
RAAMI
 10
224.86
 20
5.14
 30
0.0
 11
222.9
 21
5.14
 31
0.0
  0
LINE
  8
RAAMI
 10
222.9
 20
4.86
 30
0.0
 11
224.86
 21
4.86
 31
0.0
  0
LINE
  8
RAAMI
 10
224.86
 20
4.86
 30
0.0
 11
224.86
 21
1.5
 31
0.0
  0
LINE
  8
RAAMI
 10
224.86
 20
1.5
 30
0.0
 11
222.9
 21
1.5
 31
0.0
  0
LINE
  8
RAAMI
 10
222.9
 20
5.14
 30
0.0
 11
222.9
 21
8.5
 31
0.0
  0
ARC
  8
RAAMI
 10
225.7
 20
6.925
 30
0.0
 40
1.575
 50
298.455859
 51
90.052437
  0
LINE
  8
RAAMI
 10
225.14
 20
8.5
 30
0.0
 11
225.698559
 21
8.499999
 31
0.0
  0
LINE
  8
RAAMI
 10
225.14
 20
8.5
 30
0.0
 11
225.14
 21
5.14
 31
0.0
  0
LINE
  8
RAAMI
 10
225.14
 20
5.14
 30
0.0
 11
227.124443
 21
5.14
 31
0.0
  0
LINE
  8
RAAMI
 10
227.38
 20
4.86
 30
0.0
 11
225.14
 21
4.86
 31
0.0
  0
LINE
  8
RAAMI
 10
225.14
 20
4.86
 30
0.0
 11
225.14
 21
1.5
 31
0.0
  0
ARC
  8
RAAMI
 10
225.7
 20
3.6
 30
0.0
 40
2.1
 50
269.937724
 51
37.056553
  0
LINE
  8
RAAMI
 10
225.14
 20
1.5
 30
0.0
 11
225.697717
 21
1.500001
 31
0.0
  0
ARC
  8
RAAMI
 10
225.7
 20
3.6
 30
0.0
 40
2.1
 50
47.28622
 51
68.787999
  0
INSERT
  8
RAAMI
  2
*X23
 10
215.41
 20
1.5
 30
0.0
 41
0.7
 42
0.7
 43
0.7
  0
INSERT
  8
RAAMI
  2
*X24
 10
215.41
 20
1.5
 30
0.0
 41
0.7
 42
0.7
 43
0.7
  0
INSERT
  8
RAAMI
  2
*X25
 10
215.41
 20
1.5
 30
0.0
 41
0.7
 42
0.7
 43
0.7
  0
INSERT
  8
RAAMI
  2
*X26
 10
215.41
 20
1.5
 30
0.0
 41
0.7
 42
0.7
 43
0.7
  0
INSERT
  8
RAAMI
  2
*X26
 10
209.95
 20
1.5
 30
0.0
 41
0.7
 42
0.7
 43
0.7
  0
INSERT
  8
RAAMI
  2
*X25
 10
209.95
 20
1.5
 30
0.0
 41
0.7
 42
0.7
 43
0.7
  0
INSERT
  8
RAAMI
  2
*X24
 10
209.95
 20
1.5
 30
0.0
 41
0.7
 42
0.7
 43
0.7
  0
INSERT
  8
RAAMI
  2
*X23
 10
209.95
 20
1.5
 30
0.0
 41
0.7
 42
0.7
 43
0.7
  0
ARC
  8
RAAMI
 10
220.24
 20
3.6
 30
0.0
 40
2.1
 50
47.28622
 51
68.787999
  0
LINE
  8
RAAMI
 10
219.68
 20
1.5
 30
0.0
 11
220.237717
 21
1.500001
 31
0.0
  0
ARC
  8
RAAMI
 10
220.24
 20
3.6
 30
0.0
 40
2.1
 50
269.937724
 51
37.056553
  0
LINE
  8
RAAMI
 10
219.68
 20
4.86
 30
0.0
 11
219.68
 21
1.5
 31
0.0
  0
LINE
  8
RAAMI
 10
221.92
 20
4.86
 30
0.0
 11
219.68
 21
4.86
 31
0.0
  0
LINE
  8
RAAMI
 10
219.68
 20
5.14
 30
0.0
 11
221.664443
 21
5.14
 31
0.0
  0
LINE
  8
RAAMI
 10
219.68
 20
8.5
 30
0.0
 11
219.68
 21
5.14
 31
0.0
  0
LINE
  8
RAAMI
 10
219.68
 20
8.5
 30
0.0
 11
220.238559
 21
8.499999
 31
0.0
  0
ARC
  8
RAAMI
 10
220.24
 20
6.925
 30
0.0
 40
1.575
 50
298.455859
 51
90.052437
  0
LINE
  8
RAAMI
 10
217.44
 20
5.14
 30
0.0
 11
217.44
 21
8.5
 31
0.0
  0
LINE
  8
RAAMI
 10
219.4
 20
1.5
 30
0.0
 11
217.44
 21
1.5
 31
0.0
  0
LINE
  8
RAAMI
 10
219.4
 20
4.86
 30
0.0
 11
219.4
 21
1.5
 31
0.0
  0
LINE
  8
RAAMI
 10
217.44
 20
4.86
 30
0.0
 11
219.4
 21
4.86
 31
0.0
  0
LINE
  8
RAAMI
 10
219.4
 20
5.14
 30
0.0
 11
217.44
 21
5.14
 31
0.0
  0
LINE
  8
RAAMI
 10
219.4
 20
8.5
 30
0.0
 11
219.4
 21
5.14
 31
0.0
  0
LINE
  8
RAAMI
 10
217.44
 20
8.5
 30
0.0
 11
219.4
 21
8.5
 31
0.0
  0
LINE
  8
RAAMI
 10
217.44
 20
1.5
 30
0.0
 11
217.44
 21
4.86
 31
0.0
  0
INSERT
  8
RAAMI
  2
*X22
 10
209.95
 20
1.5
 30
0.0
 41
0.7
 42
0.7
 43
0.7
  0
INSERT
  8
RAAMI
  2
*X21
 10
209.95
 20
1.5
 30
0.0
 41
0.7
 42
0.7
 43
0.7
  0
INSERT
  8
RAAMI
  2
*X20
 10
209.95
 20
1.5
 30
0.0
 41
0.7
 42
0.7
 43
0.7
  0
INSERT
  8
RAAMI
  2
*X19
 10
209.95
 20
1.5
 30
0.0
 41
0.7
 42
0.7
 43
0.7
  0
LINE
  8
RAAMI
 10
211.119889
 20
4.842539
 30
0.0
 11
209.95
 21
1.5
 31
0.0
  0
LINE
  8
RAAMI
 10
213.31
 20
4.86
 30
0.0
 11
213.31
 21
2.9
 31
0.0
  0
LINE
  8
RAAMI
 10
213.59
 20
4.86
 30
0.0
 11
213.59
 21
2.9
 31
0.0
  0
LINE
  8
RAAMI
 10
213.59
 20
4.86
 30
0.0
 11
215.773257
 21
4.86
 31
0.0
  0
LINE
  8
RAAMI
 10
213.59
 20
5.14
 30
0.0
 11
215.675114
 21
5.14
 31
0.0
  0
LINE
  8
RAAMI
 10
215.774492
 20
4.858595
 30
0.0
 11
216.95
 21
1.5
 31
0.0
  0
LINE
  8
RAAMI
 10
211.122982
 20
4.86
 30
0.0
 11
213.31
 21
4.86
 31
0.0
  0
LINE
  8
RAAMI
 10
211.221941
 20
5.14
 30
0.0
 11
213.31
 21
5.14
 31
0.0
  0
LINE
  8
RAAMI
 10
213.31
 20
8.5
 30
0.0
 11
212.4
 21
8.5
 31
0.0
  0
LINE
  8
RAAMI
 10
213.59
 20
2.9
 30
0.0
 11
214.709893
 21
2.9
 31
0.0
  0
LINE
  8
RAAMI
 10
213.59
 20
8.5
 30
0.0
 11
213.59
 21
5.14
 31
0.0
  0
LINE
  8
RAAMI
 10
213.31
 20
8.5
 30
0.0
 11
213.31
 21
5.14
 31
0.0
  0
LINE
  8
RAAMI
 10
214.5
 20
8.5
 30
0.0
 11
213.59
 21
8.5
 31
0.0
  0
LINE
  8
RAAMI
 10
214.711098
 20
2.896864
 30
0.0
 11
215.2
 21
1.5
 31
0.0
  0
LINE
  8
RAAMI
 10
214.5
 20
8.5
 30
0.0
 11
215.676353
 21
5.138992
 31
0.0
  0
LINE
  8
RAAMI
 10
212.18879
 20
2.896543
 30
0.0
 11
211.7
 21
1.5
 31
0.0
  0
LINE
  8
RAAMI
 10
212.188787
 20
2.9
 30
0.0
 11
213.31
 21
2.9
 31
0.0
  0
LINE
  8
RAAMI
 10
212.4
 20
8.5
 30
0.0
 11
211.222472
 21
5.135635
 31
0.0
  0
LINE
  8
RAAMI
 10
215.2
 20
1.5
 30
0.0
 11
216.95
 21
1.5
 31
0.0
  0
LINE
  8
RAAMI
 10
209.95
 20
1.5
 30
0.0
 11
211.7
 21
1.5
 31
0.0
  0
LINE
  8
OHUT
 10
369.5
 20
9.5
 30
0.0
 11
369.5
 21
0.0
 31
0.0
  0
TEXT
  8
RAAMI
 10
371.0
 20
7.0
 30
0.0
 40
1.4
  1
PAINOS  REVISION
  7
ROMANS
  0
LINE
  8
OHUT
 10
349.5
 20
9.5
 30
0.0
 11
349.5
 21
18.0
 31
0.0
  0
TEXT
  8
RAAMI
 10
309.0
 20
7.0
 30
0.0
 40
1.4
  1
PIIRUSTUS NO  DRAWING NR
  7
ROMANS
  0
TEXT
  8
RAAMI
 10
351.5
 20
15.5
 30
0.0
 40
1.4
  1
JAKELU  DISTRIBUTION
  7
ROMANS
  0
TEXT
  8
RAAMI
 10
309.0
 20
15.5
 30
0.0
 40
1.4
  1
KOODI  CODE
  7
ROMANS
  0
TEXT
  8
RAAMI
 10
309.0
 20
32.5
 30
0.0
 40
1.4
  1
NIMITYS  NAME
  7
ROMANS
  0
TEXT
  8
RAAMI
 10
283.5
 20
15.0
 30
0.0
 40
1.4
  1
PROJ
  7
ROMANS
  0
TEXT
  8
RAAMI
 10
259.0
 20
15.5
 30
0.0
 40
1.4
  1
SUHDE  SCALE
  7
ROMANS
  0
TEXT
  8
RAAMI
 10
259.0
 20
23.5
 30
0.0
 40
1.4
  1
TOLERANSSIT  TOLERANCES
  7
ROMANS
  0
TEXT
  8
RAAMI
 10
259.0
 20
32.5
 30
0.0
 40
1.4
  1
LIITTYY  CONCERNING
  7
ROMANS
  0
LINE
  8
OHUT
 10
307.0
 20
0.0
 30
0.0
 11
307.0
 21
35.0
 31
0.0
  0
TEXT
  8
RAAMI
 10
209.742835
 20
15.466667
 30
0.0
 40
1.4
  1
HYVÄKSYI  APPROVED
  7
ROMANS
  0
TEXT
  8
RAAMI
 10
210.0
 20
23.733333
 30
0.0
 40
1.4
  1
TARKASTI  CHECKED
  7
ROMANS
  0
LINE
  8
PAKSU
 10
209.0
 20
35.0
 30
0.0
 11
392.0
 21
35.0
 31
0.0
  0
LINE
  8
OHUT
 10
209.0
 20
26.5
 30
0.0
 11
307.0
 21
26.5
 31
0.0
  0
LINE
  8
OHUT
 10
209.0
 20
9.5
 30
0.0
 11
392.0
 21
9.5
 31
0.0
  0
LINE
  8
OHUT
 10
209.0
 20
18.0
 30
0.0
 11
392.0
 21
18.0
 31
0.0
  0
LINE
  8
PAKSU
 10
392.0
 20
0.0
 30
0.0
 11
392.0
 21
35.0
 31
0.0
  0
LINE
  8
PAKSU
 10
209.0
 20
0.0
 30
0.0
 11
209.0
 21
35.0
 31
0.0
  0
LINE
  8
RAAMI
 10
291.043267
 20
12.19521
 30
0.0
 11
296.053761
 21
11.040875
 31
0.0
  0
LINE
  8
RAAMI
 10
296.053761
 20
15.658214
 30
0.0
 11
291.043267
 21
14.388446
 31
0.0
  0
LINE
  8
RAAMI
 10
296.053761
 20
11.040875
 30
0.0
 11
296.053761
 21
15.658214
 31
0.0
  0
LINE
  8
RAAMI
 10
291.043267
 20
14.388446
 30
0.0
 11
291.043267
 21
12.19521
 31
0.0
  0
CIRCLE
  8
RAAMI
 10
301.462194
 20
13.405639
 30
0.0
 40
1.114665
  0
CIRCLE
  8
RAAMI
 10
301.462194
 20
13.405639
 30
0.0
 40
2.343654
  0
LINE
  8
PAKSU
 10
209.0
 20
0.0
 30
0.0
 11
392.0
 21
0.0
 31
0.0
  0
LINE
  8
RAAMI
 10
18.0
 20
0.0
 30
0.0
 11
0.0
 21
0.0
 31
0.0
  0
LINE
  8
PAKSU
 10
0.0
 20
262.5
 30
0.0
 11
392.0
 21
262.5
 31
0.0
  0
ENDBLK
  8
0
  0
BLOCK
  8
0
  2
*X19
 70
    65
 10
0.0
 20
0.0
 30
0.0
  3
*X
  0
LINE
  8
0
 62
     0
 10
2.284499
 20
6.52714
 30
0.0
 11
4.8
 21
9.042641
 31
0.0
  0
LINE
  8
0
 62
     0
 10
2.379686
 20
6.799104
 30
0.0
 11
4.8
 21
9.219417
 31
0.0
  0
LINE
  8
0
 62
     0
 10
2.474874
 20
7.071068
 30
0.0
 11
4.8
 21
9.396194
 31
0.0
  0
LINE
  8
0
 62
     0
 10
2.570061
 20
7.343032
 30
0.0
 11
4.8
 21
9.572971
 31
0.0
  0
LINE
  8
0
 62
     0
 10
2.665249
 20
7.614996
 30
0.0
 11
4.8
 21
9.749747
 31
0.0
  0
LINE
  8
0
 62
     0
 10
2.760436
 20
7.88696
 30
0.0
 11
4.8
 21
9.926524
 31
0.0
  0
LINE
  8
0
 62
     0
 10
2.855624
 20
8.158924
 30
0.0
 11
4.696699
 21
10.0
 31
0.0
  0
LINE
  8
0
 62
     0
 10
2.950811
 20
8.430889
 30
0.0
 11
4.519922
 21
10.0
 31
0.0
  0
LINE
  8
0
 62
     0
 10
3.045998
 20
8.702853
 30
0.0
 11
4.343146
 21
10.0
 31
0.0
  0
LINE
  8
0
 62
     0
 10
3.141186
 20
8.974817
 30
0.0
 11
4.166369
 21
10.0
 31
0.0
  0
LINE
  8
0
 62
     0
 10
3.236373
 20
9.246781
 30
0.0
 11
3.989592
 21
10.0
 31
0.0
  0
LINE
  8
0
 62
     0
 10
3.331561
 20
9.518745
 30
0.0
 11
3.812816
 21
10.0
 31
0.0
  0
LINE
  8
0
 62
     0
 10
3.426748
 20
9.790709
 30
0.0
 11
3.636039
 21
10.0
 31
0.0
  0
LINE
  8
0
 62
     0
 10
2.189311
 20
6.255175
 30
0.0
 11
4.8
 21
8.865864
 31
0.0
  0
LINE
  8
0
 62
     0
 10
2.094124
 20
5.983211
 30
0.0
 11
4.8
 21
8.689087
 31
0.0
  0
LINE
  8
0
 62
     0
 10
1.998936
 20
5.711247
 30
0.0
 11
4.8
 21
8.512311
 31
0.0
  0
LINE
  8
0
 62
     0
 10
1.903749
 20
5.439283
 30
0.0
 11
4.8
 21
8.335534
 31
0.0
  0
LINE
  8
0
 62
     0
 10
1.841243
 20
5.2
 30
0.0
 11
4.8
 21
8.158757
 31
0.0
  0
LINE
  8
0
 62
     0
 10
2.018019
 20
5.2
 30
0.0
 11
4.8
 21
7.981981
 31
0.0
  0
LINE
  8
0
 62
     0
 10
2.194796
 20
5.2
 30
0.0
 11
4.8
 21
7.805204
 31
0.0
  0
LINE
  8
0
 62
     0
 10
2.371573
 20
5.2
 30
0.0
 11
4.8
 21
7.628427
 31
0.0
  0
LINE
  8
0
 62
     0
 10
2.54835
 20
5.2
 30
0.0
 11
4.8
 21
7.45165
 31
0.0
  0
LINE
  8
0
 62
     0
 10
2.725126
 20
5.2
 30
0.0
 11
4.8
 21
7.274874
 31
0.0
  0
LINE
  8
0
 62
     0
 10
2.901903
 20
5.2
 30
0.0
 11
4.8
 21
7.098097
 31
0.0
  0
LINE
  8
0
 62
     0
 10
3.07868
 20
5.2
 30
0.0
 11
4.8
 21
6.92132
 31
0.0
  0
LINE
  8
0
 62
     0
 10
3.255456
 20
5.2
 30
0.0
 11
4.8
 21
6.744544
 31
0.0
  0
LINE
  8
0
 62
     0
 10
3.432233
 20
5.2
 30
0.0
 11
4.8
 21
6.567767
 31
0.0
  0
LINE
  8
0
 62
     0
 10
3.60901
 20
5.2
 30
0.0
 11
4.8
 21
6.39099
 31
0.0
  0
LINE
  8
0
 62
     0
 10
3.785786
 20
5.2
 30
0.0
 11
4.8
 21
6.214214
 31
0.0
  0
LINE
  8
0
 62
     0
 10
3.962563
 20
5.2
 30
0.0
 11
4.8
 21
6.037437
 31
0.0
  0
LINE
  8
0
 62
     0
 10
4.13934
 20
5.2
 30
0.0
 11
4.8
 21
5.86066
 31
0.0
  0
LINE
  8
0
 62
     0
 10
4.316117
 20
5.2
 30
0.0
 11
4.8
 21
5.683883
 31
0.0
  0
LINE
  8
0
 62
     0
 10
4.492893
 20
5.2
 30
0.0
 11
4.8
 21
5.507107
 31
0.0
  0
LINE
  8
0
 62
     0
 10
4.66967
 20
5.2
 30
0.0
 11
4.8
 21
5.33033
 31
0.0
  0
ENDBLK
  8
0
  0
BLOCK
  8
0
  2
*X20
 70
    65
 10
0.0
 20
0.0
 30
0.0
  3
*X
  0
LINE
  8
0
 62
     0
 10
5.2
 20
6.083883
 30
0.0
 11
7.178252
 21
8.062136
 31
0.0
  0
LINE
  8
0
 62
     0
 10
5.2
 20
6.26066
 30
0.0
 11
7.132421
 21
8.193082
 31
0.0
  0
LINE
  8
0
 62
     0
 10
5.2
 20
6.437437
 30
0.0
 11
7.08659
 21
8.324027
 31
0.0
  0
LINE
  8
0
 62
     0
 10
5.2
 20
6.614214
 30
0.0
 11
7.040759
 21
8.454973
 31
0.0
  0
LINE
  8
0
 62
     0
 10
5.2
 20
6.79099
 30
0.0
 11
6.994928
 21
8.585919
 31
0.0
  0
LINE
  8
0
 62
     0
 10
5.2
 20
6.967767
 30
0.0
 11
6.949097
 21
8.716864
 31
0.0
  0
LINE
  8
0
 62
     0
 10
5.2
 20
7.144544
 30
0.0
 11
6.903266
 21
8.84781
 31
0.0
  0
LINE
  8
0
 62
     0
 10
5.2
 20
7.32132
 30
0.0
 11
6.857435
 21
8.978756
 31
0.0
  0
LINE
  8
0
 62
     0
 10
5.2
 20
7.498097
 30
0.0
 11
6.811604
 21
9.109702
 31
0.0
  0
LINE
  8
0
 62
     0
 10
5.2
 20
7.674874
 30
0.0
 11
6.765773
 21
9.240647
 31
0.0
  0
LINE
  8
0
 62
     0
 10
5.2
 20
7.85165
 30
0.0
 11
6.719942
 21
9.371593
 31
0.0
  0
LINE
  8
0
 62
     0
 10
5.2
 20
8.028427
 30
0.0
 11
6.674111
 21
9.502539
 31
0.0
  0
LINE
  8
0
 62
     0
 10
5.2
 20
8.205204
 30
0.0
 11
6.62828
 21
9.633484
 31
0.0
  0
LINE
  8
0
 62
     0
 10
5.2
 20
8.381981
 30
0.0
 11
6.582449
 21
9.76443
 31
0.0
  0
LINE
  8
0
 62
     0
 10
5.2
 20
8.558757
 30
0.0
 11
6.536619
 21
9.895376
 31
0.0
  0
LINE
  8
0
 62
     0
 10
5.2
 20
8.735534
 30
0.0
 11
6.464466
 21
10.0
 31
0.0
  0
LINE
  8
0
 62
     0
 10
5.2
 20
8.912311
 30
0.0
 11
6.287689
 21
10.0
 31
0.0
  0
LINE
  8
0
 62
     0
 10
5.2
 20
9.089087
 30
0.0
 11
6.110913
 21
10.0
 31
0.0
  0
LINE
  8
0
 62
     0
 10
5.2
 20
9.265864
 30
0.0
 11
5.934136
 21
10.0
 31
0.0
  0
LINE
  8
0
 62
     0
 10
5.2
 20
9.442641
 30
0.0
 11
5.757359
 21
10.0
 31
0.0
  0
LINE
  8
0
 62
     0
 10
5.2
 20
9.619417
 30
0.0
 11
5.580583
 21
10.0
 31
0.0
  0
LINE
  8
0
 62
     0
 10
5.2
 20
9.796194
 30
0.0
 11
5.403806
 21
10.0
 31
0.0
  0
LINE
  8
0
 62
     0
 10
5.2
 20
9.972971
 30
0.0
 11
5.227029
 21
10.0
 31
0.0
  0
LINE
  8
0
 62
     0
 10
5.2
 20
5.907107
 30
0.0
 11
7.224083
 21
7.93119
 31
0.0
  0
LINE
  8
0
 62
     0
 10
5.2
 20
5.73033
 30
0.0
 11
7.269914
 21
7.800245
 31
0.0
  0
LINE
  8
0
 62
     0
 10
5.2
 20
5.553553
 30
0.0
 11
7.315745
 21
7.669299
 31
0.0
  0
LINE
  8
0
 62
     0
 10
5.2
 20
5.376777
 30
0.0
 11
7.361576
 21
7.538353
 31
0.0
  0
LINE
  8
0
 62
     0
 10
5.2
 20
5.2
 30
0.0
 11
7.407407
 21
7.407407
 31
0.0
  0
LINE
  8
0
 62
     0
 10
5.376777
 20
5.2
 30
0.0
 11
7.453238
 21
7.276462
 31
0.0
  0
LINE
  8
0
 62
     0
 10
5.553553
 20
5.2
 30
0.0
 11
7.499069
 21
7.145516
 31
0.0
  0
LINE
  8
0
 62
     0
 10
5.73033
 20
5.2
 30
0.0
 11
7.5449
 21
7.01457
 31
0.0
  0
LINE
  8
0
 62
     0
 10
5.907107
 20
5.2
 30
0.0
 11
7.590731
 21
6.883625
 31
0.0
  0
LINE
  8
0
 62
     0
 10
6.083883
 20
5.2
 30
0.0
 11
7.636562
 21
6.752679
 31
0.0
  0
LINE
  8
0
 62
     0
 10
6.26066
 20
5.2
 30
0.0
 11
7.682393
 21
6.621733
 31
0.0
  0
LINE
  8
0
 62
     0
 10
6.437437
 20
5.2
 30
0.0
 11
7.728224
 21
6.490788
 31
0.0
  0
LINE
  8
0
 62
     0
 10
6.614214
 20
5.2
 30
0.0
 11
7.774055
 21
6.359842
 31
0.0
  0
LINE
  8
0
 62
     0
 10
6.79099
 20
5.2
 30
0.0
 11
7.819886
 21
6.228896
 31
0.0
  0
LINE
  8
0
 62
     0
 10
6.967767
 20
5.2
 30
0.0
 11
7.865717
 21
6.09795
 31
0.0
  0
LINE
  8
0
 62
     0
 10
7.144544
 20
5.2
 30
0.0
 11
7.911548
 21
5.967005
 31
0.0
  0
LINE
  8
0
 62
     0
 10
7.32132
 20
5.2
 30
0.0
 11
7.957379
 21
5.836059
 31
0.0
  0
LINE
  8
0
 62
     0
 10
7.498097
 20
5.2
 30
0.0
 11
8.00321
 21
5.705113
 31
0.0
  0
LINE
  8
0
 62
     0
 10
7.674874
 20
5.2
 30
0.0
 11
8.049041
 21
5.574168
 31
0.0
  0
LINE
  8
0
 62
     0
 10
7.85165
 20
5.2
 30
0.0
 11
8.094872
 21
5.443222
 31
0.0
  0
LINE
  8
0
 62
     0
 10
8.028427
 20
5.2
 30
0.0
 11
8.140703
 21
5.312276
 31
0.0
  0
ENDBLK
  8
0
  0
BLOCK
  8
0
  2
*X21
 70
    65
 10
0.0
 20
0.0
 30
0.0
  3
*X
  0
LINE
  8
0
 62
     0
 10
0.0
 20
0.0
 30
0.0
 11
4.8
 21
4.8
 31
0.0
  0
LINE
  8
0
 62
     0
 10
0.095187
 20
0.271964
 30
0.0
 11
4.623223
 21
4.8
 31
0.0
  0
LINE
  8
0
 62
     0
 10
0.190375
 20
0.543928
 30
0.0
 11
4.446447
 21
4.8
 31
0.0
  0
LINE
  8
0
 62
     0
 10
0.285562
 20
0.815892
 30
0.0
 11
4.26967
 21
4.8
 31
0.0
  0
LINE
  8
0
 62
     0
 10
0.38075
 20
1.087857
 30
0.0
 11
4.092893
 21
4.8
 31
0.0
  0
LINE
  8
0
 62
     0
 10
0.475937
 20
1.359821
 30
0.0
 11
3.916117
 21
4.8
 31
0.0
  0
LINE
  8
0
 62
     0
 10
0.571125
 20
1.631785
 30
0.0
 11
3.73934
 21
4.8
 31
0.0
  0
LINE
  8
0
 62
     0
 10
0.666312
 20
1.903749
 30
0.0
 11
3.562563
 21
4.8
 31
0.0
  0
LINE
  8
0
 62
     0
 10
0.7615
 20
2.175713
 30
0.0
 11
3.385786
 21
4.8
 31
0.0
  0
LINE
  8
0
 62
     0
 10
0.856687
 20
2.447677
 30
0.0
 11
3.20901
 21
4.8
 31
0.0
  0
LINE
  8
0
 62
     0
 10
0.951875
 20
2.719641
 30
0.0
 11
3.032233
 21
4.8
 31
0.0
  0
LINE
  8
0
 62
     0
 10
1.047062
 20
2.991606
 30
0.0
 11
2.855456
 21
4.8
 31
0.0
  0
LINE
  8
0
 62
     0
 10
1.142249
 20
3.26357
 30
0.0
 11
2.67868
 21
4.8
 31
0.0
  0
LINE
  8
0
 62
     0
 10
1.237437
 20
3.535534
 30
0.0
 11
2.501903
 21
4.8
 31
0.0
  0
LINE
  8
0
 62
     0
 10
1.332624
 20
3.807498
 30
0.0
 11
2.325126
 21
4.8
 31
0.0
  0
LINE
  8
0
 62
     0
 10
1.427812
 20
4.079462
 30
0.0
 11
2.14835
 21
4.8
 31
0.0
  0
LINE
  8
0
 62
     0
 10
1.522999
 20
4.351426
 30
0.0
 11
1.971573
 21
4.8
 31
0.0
  0
LINE
  8
0
 62
     0
 10
1.618187
 20
4.62339
 30
0.0
 11
1.794796
 21
4.8
 31
0.0
  0
LINE
  8
0
 62
     0
 10
0.176777
 20
0.0
 30
0.0
 11
4.8
 21
4.623223
 31
0.0
  0
LINE
  8
0
 62
     0
 10
0.353553
 20
0.0
 30
0.0
 11
4.8
 21
4.446447
 31
0.0
  0
LINE
  8
0
 62
     0
 10
0.53033
 20
0.0
 30
0.0
 11
4.8
 21
4.26967
 31
0.0
  0
LINE
  8
0
 62
     0
 10
0.707107
 20
0.0
 30
0.0
 11
4.8
 21
4.092893
 31
0.0
  0
LINE
  8
0
 62
     0
 10
0.883883
 20
0.0
 30
0.0
 11
4.8
 21
3.916117
 31
0.0
  0
LINE
  8
0
 62
     0
 10
1.06066
 20
0.0
 30
0.0
 11
4.8
 21
3.73934
 31
0.0
  0
LINE
  8
0
 62
     0
 10
1.237437
 20
0.0
 30
0.0
 11
3.179842
 21
1.942405
 31
0.0
  0
LINE
  8
0
 62
     0
 10
3.237437
 20
2.0
 30
0.0
 11
4.8
 21
3.562563
 31
0.0
  0
LINE
  8
0
 62
     0
 10
1.414214
 20
0.0
 30
0.0
 11
3.084654
 21
1.670441
 31
0.0
  0
LINE
  8
0
 62
     0
 10
3.414214
 20
2.0
 30
0.0
 11
4.8
 21
3.385786
 31
0.0
  0
LINE
  8
0
 62
     0
 10
1.59099
 20
0.0
 30
0.0
 11
2.989467
 21
1.398477
 31
0.0
  0
LINE
  8
0
 62
     0
 10
3.59099
 20
2.0
 30
0.0
 11
4.8
 21
3.20901
 31
0.0
  0
LINE
  8
0
 62
     0
 10
1.767767
 20
0.0
 30
0.0
 11
2.894279
 21
1.126512
 31
0.0
  0
LINE
  8
0
 62
     0
 10
3.767767
 20
2.0
 30
0.0
 11
4.8
 21
3.032233
 31
0.0
  0
LINE
  8
0
 62
     0
 10
1.944544
 20
0.0
 30
0.0
 11
2.799092
 21
0.854548
 31
0.0
  0
LINE
  8
0
 62
     0
 10
3.944544
 20
2.0
 30
0.0
 11
4.8
 21
2.855456
 31
0.0
  0
LINE
  8
0
 62
     0
 10
2.12132
 20
0.0
 30
0.0
 11
2.703904
 21
0.582584
 31
0.0
  0
LINE
  8
0
 62
     0
 10
4.12132
 20
2.0
 30
0.0
 11
4.8
 21
2.67868
 31
0.0
  0
LINE
  8
0
 62
     0
 10
2.298097
 20
0.0
 30
0.0
 11
2.608717
 21
0.31062
 31
0.0
  0
LINE
  8
0
 62
     0
 10
4.298097
 20
2.0
 30
0.0
 11
4.8
 21
2.501903
 31
0.0
  0
LINE
  8
0
 62
     0
 10
2.474874
 20
0.0
 30
0.0
 11
2.51353
 21
0.038656
 31
0.0
  0
LINE
  8
0
 62
     0
 10
4.474874
 20
2.0
 30
0.0
 11
4.8
 21
2.325126
 31
0.0
  0
LINE
  8
0
 62
     0
 10
4.65165
 20
2.0
 30
0.0
 11
4.8
 21
2.14835
 31
0.0
  0
ENDBLK
  8
0
  0
BLOCK
  8
0
  2
*X22
 70
    65
 10
0.0
 20
0.0
 30
0.0
  3
*X
  0
LINE
  8
0
 62
     0
 10
6.884654
 20
1.75813
 30
0.0
 11
8.736506
 21
3.609982
 31
0.0
  0
LINE
  8
0
 62
     0
 10
6.838823
 20
1.889076
 30
0.0
 11
8.690675
 21
3.740928
 31
0.0
  0
LINE
  8
0
 62
     0
 10
6.772971
 20
2.0
 30
0.0
 11
8.644844
 21
3.871874
 31
0.0
  0
LINE
  8
0
 62
     0
 10
6.596194
 20
2.0
 30
0.0
 11
8.599013
 21
4.002819
 31
0.0
  0
LINE
  8
0
 62
     0
 10
6.419417
 20
2.0
 30
0.0
 11
8.553182
 21
4.133765
 31
0.0
  0
LINE
  8
0
 62
     0
 10
6.242641
 20
2.0
 30
0.0
 11
8.507351
 21
4.264711
 31
0.0
  0
LINE
  8
0
 62
     0
 10
6.065864
 20
2.0
 30
0.0
 11
8.46152
 21
4.395656
 31
0.0
  0
LINE
  8
0
 62
     0
 10
5.889087
 20
2.0
 30
0.0
 11
8.415689
 21
4.526602
 31
0.0
  0
LINE
  8
0
 62
     0
 10
5.712311
 20
2.0
 30
0.0
 11
8.369858
 21
4.657548
 31
0.0
  0
LINE
  8
0
 62
     0
 10
5.535534
 20
2.0
 30
0.0
 11
8.324027
 21
4.788493
 31
0.0
  0
LINE
  8
0
 62
     0
 10
5.358757
 20
2.0
 30
0.0
 11
8.158757
 21
4.8
 31
0.0
  0
LINE
  8
0
 62
     0
 10
5.2
 20
2.018019
 30
0.0
 11
7.981981
 21
4.8
 31
0.0
  0
LINE
  8
0
 62
     0
 10
5.2
 20
2.194796
 30
0.0
 11
7.805204
 21
4.8
 31
0.0
  0
LINE
  8
0
 62
     0
 10
5.2
 20
2.371573
 30
0.0
 11
7.628427
 21
4.8
 31
0.0
  0
LINE
  8
0
 62
     0
 10
5.2
 20
2.54835
 30
0.0
 11
7.45165
 21
4.8
 31
0.0
  0
LINE
  8
0
 62
     0
 10
5.2
 20
2.725126
 30
0.0
 11
7.274874
 21
4.8
 31
0.0
  0
LINE
  8
0
 62
     0
 10
5.2
 20
2.901903
 30
0.0
 11
7.098097
 21
4.8
 31
0.0
  0
LINE
  8
0
 62
     0
 10
5.2
 20
3.07868
 30
0.0
 11
6.92132
 21
4.8
 31
0.0
  0
LINE
  8
0
 62
     0
 10
5.2
 20
3.255456
 30
0.0
 11
6.744544
 21
4.8
 31
0.0
  0
LINE
  8
0
 62
     0
 10
5.2
 20
3.432233
 30
0.0
 11
6.567767
 21
4.8
 31
0.0
  0
LINE
  8
0
 62
     0
 10
5.2
 20
3.60901
 30
0.0
 11
6.39099
 21
4.8
 31
0.0
  0
LINE
  8
0
 62
     0
 10
5.2
 20
3.785786
 30
0.0
 11
6.214214
 21
4.8
 31
0.0
  0
LINE
  8
0
 62
     0
 10
5.2
 20
3.962563
 30
0.0
 11
6.037437
 21
4.8
 31
0.0
  0
LINE
  8
0
 62
     0
 10
5.2
 20
4.13934
 30
0.0
 11
5.86066
 21
4.8
 31
0.0
  0
LINE
  8
0
 62
     0
 10
5.2
 20
4.316117
 30
0.0
 11
5.683883
 21
4.8
 31
0.0
  0
LINE
  8
0
 62
     0
 10
5.2
 20
4.492893
 30
0.0
 11
5.507107
 21
4.8
 31
0.0
  0
LINE
  8
0
 62
     0
 10
5.2
 20
4.66967
 30
0.0
 11
5.33033
 21
4.8
 31
0.0
  0
LINE
  8
0
 62
     0
 10
6.930485
 20
1.627185
 30
0.0
 11
8.782337
 21
3.479036
 31
0.0
  0
LINE
  8
0
 62
     0
 10
6.976316
 20
1.496239
 30
0.0
 11
8.828168
 21
3.348091
 31
0.0
  0
LINE
  8
0
 62
     0
 10
7.022147
 20
1.365293
 30
0.0
 11
8.873999
 21
3.217145
 31
0.0
  0
LINE
  8
0
 62
     0
 10
7.067978
 20
1.234347
 30
0.0
 11
8.91983
 21
3.086199
 31
0.0
  0
LINE
  8
0
 62
     0
 10
7.113809
 20
1.103402
 30
0.0
 11
8.965661
 21
2.955254
 31
0.0
  0
LINE
  8
0
 62
     0
 10
7.15964
 20
0.972456
 30
0.0
 11
9.011492
 21
2.824308
 31
0.0
  0
LINE
  8
0
 62
     0
 10
7.205471
 20
0.84151
 30
0.0
 11
9.057323
 21
2.693362
 31
0.0
  0
LINE
  8
0
 62
     0
 10
7.251302
 20
0.710565
 30
0.0
 11
9.103154
 21
2.562416
 31
0.0
  0
LINE
  8
0
 62
     0
 10
7.297133
 20
0.579619
 30
0.0
 11
9.148985
 21
2.431471
 31
0.0
  0
LINE
  8
0
 62
     0
 10
7.342964
 20
0.448673
 30
0.0
 11
9.194816
 21
2.300525
 31
0.0
  0
LINE
  8
0
 62
     0
 10
7.388795
 20
0.317728
 30
0.0
 11
9.240647
 21
2.169579
 31
0.0
  0
LINE
  8
0
 62
     0
 10
7.434626
 20
0.186782
 30
0.0
 11
9.286478
 21
2.038634
 31
0.0
  0
LINE
  8
0
 62
     0
 10
7.480457
 20
0.055836
 30
0.0
 11
9.332309
 21
1.907688
 31
0.0
  0
LINE
  8
0
 62
     0
 10
7.601398
 20
0.0
 30
0.0
 11
9.37814
 21
1.776742
 31
0.0
  0
LINE
  8
0
 62
     0
 10
7.778175
 20
0.0
 30
0.0
 11
9.423971
 21
1.645797
 31
0.0
  0
LINE
  8
0
 62
     0
 10
7.954951
 20
0.0
 30
0.0
 11
9.469802
 21
1.514851
 31
0.0
  0
LINE
  8
0
 62
     0
 10
8.131728
 20
0.0
 30
0.0
 11
9.515633
 21
1.383905
 31
0.0
  0
LINE
  8
0
 62
     0
 10
8.308505
 20
0.0
 30
0.0
 11
9.561464
 21
1.252959
 31
0.0
  0
LINE
  8
0
 62
     0
 10
8.485281
 20
0.0
 30
0.0
 11
9.607295
 21
1.122014
 31
0.0
  0
LINE
  8
0
 62
     0
 10
8.662058
 20
0.0
 30
0.0
 11
9.653126
 21
0.991068
 31
0.0
  0
LINE
  8
0
 62
     0
 10
8.838835
 20
0.0
 30
0.0
 11
9.698957
 21
0.860122
 31
0.0
  0
LINE
  8
0
 62
     0
 10
9.015611
 20
0.0
 30
0.0
 11
9.744788
 21
0.729177
 31
0.0
  0
LINE
  8
0
 62
     0
 10
9.192388
 20
0.0
 30
0.0
 11
9.790619
 21
0.598231
 31
0.0
  0
LINE
  8
0
 62
     0
 10
9.369165
 20
0.0
 30
0.0
 11
9.83645
 21
0.467285
 31
0.0
  0
LINE
  8
0
 62
     0
 10
9.545942
 20
0.0
 30
0.0
 11
9.882281
 21
0.33634
 31
0.0
  0
LINE
  8
0
 62
     0
 10
9.722718
 20
0.0
 30
0.0
 11
9.928112
 21
0.205394
 31
0.0
  0
LINE
  8
0
 62
     0
 10
9.899495
 20
0.0
 30
0.0
 11
9.973943
 21
0.074448
 31
0.0
  0
ENDBLK
  8
0
  0
BLOCK
  8
0
  2
*X23
 70
    65
 10
0.0
 20
0.0
 30
0.0
  3
*X
  0
LINE
  8
0
 62
     0
 10
10.7
 20
6.280583
 30
0.0
 11
13.5
 21
9.080583
 31
0.0
  0
LINE
  8
0
 62
     0
 10
10.7
 20
6.457359
 30
0.0
 11
13.5
 21
9.257359
 31
0.0
  0
LINE
  8
0
 62
     0
 10
10.7
 20
6.634136
 30
0.0
 11
13.5
 21
9.434136
 31
0.0
  0
LINE
  8
0
 62
     0
 10
10.7
 20
6.810913
 30
0.0
 11
13.5
 21
9.610913
 31
0.0
  0
LINE
  8
0
 62
     0
 10
10.7
 20
6.987689
 30
0.0
 11
13.5
 21
9.787689
 31
0.0
  0
LINE
  8
0
 62
     0
 10
10.7
 20
7.164466
 30
0.0
 11
13.5
 21
9.964466
 31
0.0
  0
LINE
  8
0
 62
     0
 10
10.7
 20
7.341243
 30
0.0
 11
13.358757
 21
10.0
 31
0.0
  0
LINE
  8
0
 62
     0
 10
10.7
 20
7.518019
 30
0.0
 11
13.181981
 21
10.0
 31
0.0
  0
LINE
  8
0
 62
     0
 10
10.7
 20
7.694796
 30
0.0
 11
13.005204
 21
10.0
 31
0.0
  0
LINE
  8
0
 62
     0
 10
10.7
 20
7.871573
 30
0.0
 11
12.828427
 21
10.0
 31
0.0
  0
LINE
  8
0
 62
     0
 10
10.7
 20
8.04835
 30
0.0
 11
12.65165
 21
10.0
 31
0.0
  0
LINE
  8
0
 62
     0
 10
10.7
 20
8.225126
 30
0.0
 11
12.474874
 21
10.0
 31
0.0
  0
LINE
  8
0
 62
     0
 10
10.7
 20
8.401903
 30
0.0
 11
12.298097
 21
10.0
 31
0.0
  0
LINE
  8
0
 62
     0
 10
10.7
 20
8.57868
 30
0.0
 11
12.12132
 21
10.0
 31
0.0
  0
LINE
  8
0
 62
     0
 10
10.7
 20
8.755456
 30
0.0
 11
11.944544
 21
10.0
 31
0.0
  0
LINE
  8
0
 62
     0
 10
10.7
 20
8.932233
 30
0.0
 11
11.767767
 21
10.0
 31
0.0
  0
LINE
  8
0
 62
     0
 10
10.7
 20
9.10901
 30
0.0
 11
11.59099
 21
10.0
 31
0.0
  0
LINE
  8
0
 62
     0
 10
10.7
 20
9.285786
 30
0.0
 11
11.414214
 21
10.0
 31
0.0
  0
LINE
  8
0
 62
     0
 10
10.7
 20
9.462563
 30
0.0
 11
11.237437
 21
10.0
 31
0.0
  0
LINE
  8
0
 62
     0
 10
10.7
 20
9.63934
 30
0.0
 11
11.06066
 21
10.0
 31
0.0
  0
LINE
  8
0
 62
     0
 10
10.7
 20
9.816117
 30
0.0
 11
10.883883
 21
10.0
 31
0.0
  0
LINE
  8
0
 62
     0
 10
10.7
 20
9.992893
 30
0.0
 11
10.707107
 21
10.0
 31
0.0
  0
LINE
  8
0
 62
     0
 10
10.7
 20
6.103806
 30
0.0
 11
13.5
 21
8.903806
 31
0.0
  0
LINE
  8
0
 62
     0
 10
10.7
 20
5.927029
 30
0.0
 11
13.5
 21
8.727029
 31
0.0
  0
LINE
  8
0
 62
     0
 10
10.7
 20
5.750253
 30
0.0
 11
13.5
 21
8.550253
 31
0.0
  0
LINE
  8
0
 62
     0
 10
10.7
 20
5.573476
 30
0.0
 11
13.5
 21
8.373476
 31
0.0
  0
LINE
  8
0
 62
     0
 10
10.7
 20
5.396699
 30
0.0
 11
13.5
 21
8.196699
 31
0.0
  0
LINE
  8
0
 62
     0
 10
10.7
 20
5.219922
 30
0.0
 11
13.5
 21
8.019922
 31
0.0
  0
LINE
  8
0
 62
     0
 10
10.856854
 20
5.2
 30
0.0
 11
13.5
 21
7.843146
 31
0.0
  0
LINE
  8
0
 62
     0
 10
11.033631
 20
5.2
 30
0.0
 11
13.5
 21
7.666369
 31
0.0
  0
LINE
  8
0
 62
     0
 10
11.210408
 20
5.2
 30
0.0
 11
13.5
 21
7.489592
 31
0.0
  0
LINE
  8
0
 62
     0
 10
11.387184
 20
5.2
 30
0.0
 11
13.5
 21
7.312816
 31
0.0
  0
LINE
  8
0
 62
     0
 10
11.563961
 20
5.2
 30
0.0
 11
13.5
 21
7.136039
 31
0.0
  0
LINE
  8
0
 62
     0
 10
11.740738
 20
5.2
 30
0.0
 11
13.5
 21
6.959262
 31
0.0
  0
LINE
  8
0
 62
     0
 10
11.917514
 20
5.2
 30
0.0
 11
13.5
 21
6.782486
 31
0.0
  0
LINE
  8
0
 62
     0
 10
12.094291
 20
5.2
 30
0.0
 11
13.5
 21
6.605709
 31
0.0
  0
LINE
  8
0
 62
     0
 10
12.271068
 20
5.2
 30
0.0
 11
13.5
 21
6.428932
 31
0.0
  0
LINE
  8
0
 62
     0
 10
12.447845
 20
5.2
 30
0.0
 11
13.5
 21
6.252155
 31
0.0
  0
LINE
  8
0
 62
     0
 10
12.624621
 20
5.2
 30
0.0
 11
13.5
 21
6.075379
 31
0.0
  0
LINE
  8
0
 62
     0
 10
12.801398
 20
5.2
 30
0.0
 11
13.5
 21
5.898602
 31
0.0
  0
LINE
  8
0
 62
     0
 10
12.978175
 20
5.2
 30
0.0
 11
13.5
 21
5.721825
 31
0.0
  0
LINE
  8
0
 62
     0
 10
13.154951
 20
5.2
 30
0.0
 11
13.5
 21
5.545049
 31
0.0
  0
LINE
  8
0
 62
     0
 10
13.331728
 20
5.2
 30
0.0
 11
13.5
 21
5.368272
 31
0.0
  0
ENDBLK
  8
0
  0
BLOCK
  8
0
  2
*X24
 70
    65
 10
0.0
 20
0.0
 30
0.0
  3
*X
  0
LINE
  8
0
 62
     0
 10
10.7
 20
1.154058
 30
0.0
 11
13.5
 21
3.954058
 31
0.0
  0
LINE
  8
0
 62
     0
 10
10.7
 20
1.330835
 30
0.0
 11
13.5
 21
4.130835
 31
0.0
  0
LINE
  8
0
 62
     0
 10
10.7
 20
1.507612
 30
0.0
 11
13.5
 21
4.307612
 31
0.0
  0
LINE
  8
0
 62
     0
 10
10.7
 20
1.684389
 30
0.0
 11
13.5
 21
4.484389
 31
0.0
  0
LINE
  8
0
 62
     0
 10
10.7
 20
1.861165
 30
0.0
 11
13.5
 21
4.661165
 31
0.0
  0
LINE
  8
0
 62
     0
 10
10.7
 20
2.037942
 30
0.0
 11
13.462058
 21
4.8
 31
0.0
  0
LINE
  8
0
 62
     0
 10
10.7
 20
2.214719
 30
0.0
 11
13.285281
 21
4.8
 31
0.0
  0
LINE
  8
0
 62
     0
 10
10.7
 20
2.391495
 30
0.0
 11
13.108505
 21
4.8
 31
0.0
  0
LINE
  8
0
 62
     0
 10
10.7
 20
2.568272
 30
0.0
 11
12.931728
 21
4.8
 31
0.0
  0
LINE
  8
0
 62
     0
 10
10.7
 20
2.745049
 30
0.0
 11
12.754951
 21
4.8
 31
0.0
  0
LINE
  8
0
 62
     0
 10
10.7
 20
2.921825
 30
0.0
 11
12.578175
 21
4.8
 31
0.0
  0
LINE
  8
0
 62
     0
 10
10.7
 20
3.098602
 30
0.0
 11
12.401398
 21
4.8
 31
0.0
  0
LINE
  8
0
 62
     0
 10
10.7
 20
3.275379
 30
0.0
 11
12.224621
 21
4.8
 31
0.0
  0
LINE
  8
0
 62
     0
 10
10.7
 20
3.452155
 30
0.0
 11
12.047845
 21
4.8
 31
0.0
  0
LINE
  8
0
 62
     0
 10
10.7
 20
3.628932
 30
0.0
 11
11.871068
 21
4.8
 31
0.0
  0
LINE
  8
0
 62
     0
 10
10.7
 20
3.805709
 30
0.0
 11
11.694291
 21
4.8
 31
0.0
  0
LINE
  8
0
 62
     0
 10
10.7
 20
3.982486
 30
0.0
 11
11.517514
 21
4.8
 31
0.0
  0
LINE
  8
0
 62
     0
 10
10.7
 20
4.159262
 30
0.0
 11
11.340738
 21
4.8
 31
0.0
  0
LINE
  8
0
 62
     0
 10
10.7
 20
4.336039
 30
0.0
 11
11.163961
 21
4.8
 31
0.0
  0
LINE
  8
0
 62
     0
 10
10.7
 20
4.512816
 30
0.0
 11
10.987184
 21
4.8
 31
0.0
  0
LINE
  8
0
 62
     0
 10
10.7
 20
4.689592
 30
0.0
 11
10.810408
 21
4.8
 31
0.0
  0
LINE
  8
0
 62
     0
 10
10.7
 20
0.977282
 30
0.0
 11
13.5
 21
3.777282
 31
0.0
  0
LINE
  8
0
 62
     0
 10
10.7
 20
0.800505
 30
0.0
 11
13.5
 21
3.600505
 31
0.0
  0
LINE
  8
0
 62
     0
 10
10.7
 20
0.623728
 30
0.0
 11
13.5
 21
3.423728
 31
0.0
  0
LINE
  8
0
 62
     0
 10
10.7
 20
0.446952
 30
0.0
 11
13.5
 21
3.246952
 31
0.0
  0
LINE
  8
0
 62
     0
 10
10.7
 20
0.270175
 30
0.0
 11
13.5
 21
3.070175
 31
0.0
  0
LINE
  8
0
 62
     0
 10
10.7
 20
0.093398
 30
0.0
 11
13.5
 21
2.893398
 31
0.0
  0
LINE
  8
0
 62
     0
 10
10.783378
 20
0.0
 30
0.0
 11
13.5
 21
2.716622
 31
0.0
  0
LINE
  8
0
 62
     0
 10
10.960155
 20
0.0
 30
0.0
 11
13.5
 21
2.539845
 31
0.0
  0
LINE
  8
0
 62
     0
 10
11.136932
 20
0.0
 30
0.0
 11
13.5
 21
2.363068
 31
0.0
  0
LINE
  8
0
 62
     0
 10
11.313708
 20
0.0
 30
0.0
 11
13.5
 21
2.186292
 31
0.0
  0
LINE
  8
0
 62
     0
 10
11.490485
 20
0.0
 30
0.0
 11
13.5
 21
2.009515
 31
0.0
  0
LINE
  8
0
 62
     0
 10
11.667262
 20
0.0
 30
0.0
 11
13.5
 21
1.832738
 31
0.0
  0
LINE
  8
0
 62
     0
 10
11.844039
 20
0.0
 30
0.0
 11
13.5
 21
1.655961
 31
0.0
  0
LINE
  8
0
 62
     0
 10
12.020815
 20
0.0
 30
0.0
 11
13.5
 21
1.479185
 31
0.0
  0
LINE
  8
0
 62
     0
 10
12.197592
 20
0.0
 30
0.0
 11
13.5
 21
1.302408
 31
0.0
  0
LINE
  8
0
 62
     0
 10
12.374369
 20
0.0
 30
0.0
 11
13.5
 21
1.125631
 31
0.0
  0
LINE
  8
0
 62
     0
 10
12.551145
 20
0.0
 30
0.0
 11
13.5
 21
0.948855
 31
0.0
  0
LINE
  8
0
 62
     0
 10
12.727922
 20
0.0
 30
0.0
 11
13.5
 21
0.772078
 31
0.0
  0
LINE
  8
0
 62
     0
 10
12.904699
 20
0.0
 30
0.0
 11
13.5
 21
0.595301
 31
0.0
  0
LINE
  8
0
 62
     0
 10
13.081475
 20
0.0
 30
0.0
 11
13.5
 21
0.418525
 31
0.0
  0
LINE
  8
0
 62
     0
 10
13.258252
 20
0.0
 30
0.0
 11
13.5
 21
0.241748
 31
0.0
  0
LINE
  8
0
 62
     0
 10
13.435029
 20
0.0
 30
0.0
 11
13.5
 21
0.064971
 31
0.0
  0
ENDBLK
  8
0
  0
BLOCK
  8
0
  2
*X25
 70
    65
 10
0.0
 20
0.0
 30
0.0
  3
*X
  0
LINE
  8
0
 62
     0
 10
13.9
 20
6.298602
 30
0.0
 11
16.582995
 21
8.981597
 31
0.0
  0
LINE
  8
0
 62
     0
 10
13.9
 20
6.475379
 30
0.0
 11
16.510503
 21
9.085882
 31
0.0
  0
LINE
  8
0
 62
     0
 10
13.9
 20
6.652155
 30
0.0
 11
16.432927
 21
9.185083
 31
0.0
  0
LINE
  8
0
 62
     0
 10
13.9
 20
6.828932
 30
0.0
 11
16.350372
 21
9.279304
 31
0.0
  0
LINE
  8
0
 62
     0
 10
13.9
 20
7.005709
 30
0.0
 11
16.262892
 21
9.368601
 31
0.0
  0
LINE
  8
0
 62
     0
 10
13.9
 20
7.182486
 30
0.0
 11
16.170495
 21
9.452981
 31
0.0
  0
LINE
  8
0
 62
     0
 10
13.9
 20
7.359262
 30
0.0
 11
16.073145
 21
9.532407
 31
0.0
  0
LINE
  8
0
 62
     0
 10
13.9
 20
7.536039
 30
0.0
 11
15.970755
 21
9.606794
 31
0.0
  0
LINE
  8
0
 62
     0
 10
13.9
 20
7.712816
 30
0.0
 11
15.863189
 21
9.676004
 31
0.0
  0
LINE
  8
0
 62
     0
 10
13.9
 20
7.889592
 30
0.0
 11
15.75025
 21
9.739843
 31
0.0
  0
LINE
  8
0
 62
     0
 10
13.9
 20
8.066369
 30
0.0
 11
15.631675
 21
9.798044
 31
0.0
  0
LINE
  8
0
 62
     0
 10
13.9
 20
8.243146
 30
0.0
 11
15.50711
 21
9.850256
 31
0.0
  0
LINE
  8
0
 62
     0
 10
13.9
 20
8.419922
 30
0.0
 11
15.376096
 21
9.896018
 31
0.0
  0
LINE
  8
0
 62
     0
 10
13.9
 20
8.596699
 30
0.0
 11
15.238027
 21
9.934726
 31
0.0
  0
LINE
  8
0
 62
     0
 10
13.9
 20
8.773476
 30
0.0
 11
15.092096
 21
9.965572
 31
0.0
  0
LINE
  8
0
 62
     0
 10
13.9
 20
8.950253
 30
0.0
 11
14.937209
 21
9.987461
 31
0.0
  0
LINE
  8
0
 62
     0
 10
13.9
 20
9.127029
 30
0.0
 11
14.771824
 21
9.998853
 31
0.0
  0
LINE
  8
0
 62
     0
 10
13.9
 20
9.303806
 30
0.0
 11
14.596193
 21
9.999999
 31
0.0
  0
LINE
  8
0
 62
     0
 10
13.9
 20
9.480583
 30
0.0
 11
14.419417
 21
9.999999
 31
0.0
  0
LINE
  8
0
 62
     0
 10
13.9
 20
9.657359
 30
0.0
 11
14.24264
 21
10.0
 31
0.0
  0
LINE
  8
0
 62
     0
 10
13.9
 20
9.834136
 30
0.0
 11
14.065864
 21
10.0
 31
0.0
  0
LINE
  8
0
 62
     0
 10
13.9
 20
6.121825
 30
0.0
 11
16.650245
 21
8.872071
 31
0.0
  0
LINE
  8
0
 62
     0
 10
13.9
 20
5.945049
 30
0.0
 11
16.712035
 21
8.757083
 31
0.0
  0
LINE
  8
0
 62
     0
 10
13.9
 20
5.768272
 30
0.0
 11
16.768067
 21
8.636339
 31
0.0
  0
LINE
  8
0
 62
     0
 10
13.9
 20
5.591495
 30
0.0
 11
16.817955
 21
8.509451
 31
0.0
  0
LINE
  8
0
 62
     0
 10
13.9
 20
5.414719
 30
0.0
 11
16.861189
 21
8.375908
 31
0.0
  0
LINE
  8
0
 62
     0
 10
13.9
 20
5.237942
 30
0.0
 11
16.897097
 21
8.235039
 31
0.0
  0
LINE
  8
0
 62
     0
 10
14.038835
 20
5.2
 30
0.0
 11
16.924779
 21
8.085944
 31
0.0
  0
LINE
  8
0
 62
     0
 10
14.215611
 20
5.2
 30
0.0
 11
16.942997
 21
7.927385
 31
0.0
  0
LINE
  8
0
 62
     0
 10
14.392388
 20
5.2
 30
0.0
 11
16.949987
 21
7.757599
 31
0.0
  0
LINE
  8
0
 62
     0
 10
14.569165
 20
5.2
 30
0.0
 11
16.943101
 21
7.573936
 31
0.0
  0
LINE
  8
0
 62
     0
 10
14.745942
 20
5.2
 30
0.0
 11
16.918037
 21
7.372095
 31
0.0
  0
LINE
  8
0
 62
     0
 10
14.922718
 20
5.2
 30
0.0
 11
16.866909
 21
7.144191
 31
0.0
  0
LINE
  8
0
 62
     0
 10
15.099495
 20
5.2
 30
0.0
 11
16.771715
 21
6.87222
 31
0.0
  0
LINE
  8
0
 62
     0
 10
15.276272
 20
5.2
 30
0.0
 11
15.847951
 21
5.77168
 31
0.0
  0
LINE
  8
0
 62
     0
 10
15.96673
 20
5.890458
 30
0.0
 11
16.559542
 21
6.48327
 31
0.0
  0
LINE
  8
0
 62
     0
 10
15.453048
 20
5.2
 30
0.0
 11
15.970661
 21
5.717613
 31
0.0
  0
LINE
  8
0
 62
     0
 10
15.629825
 20
5.2
 30
0.0
 11
16.088934
 21
5.659109
 31
0.0
  0
LINE
  8
0
 62
     0
 10
15.806602
 20
5.2
 30
0.0
 11
16.202964
 21
5.596363
 31
0.0
  0
LINE
  8
0
 62
     0
 10
15.983378
 20
5.2
 30
0.0
 11
16.312909
 21
5.529531
 31
0.0
  0
LINE
  8
0
 62
     0
 10
16.160155
 20
5.2
 30
0.0
 11
16.418895
 21
5.45874
 31
0.0
  0
LINE
  8
0
 62
     0
 10
16.336932
 20
5.2
 30
0.0
 11
16.521021
 21
5.384089
 31
0.0
  0
LINE
  8
0
 62
     0
 10
16.513708
 20
5.2
 30
0.0
 11
16.619363
 21
5.305655
 31
0.0
  0
LINE
  8
0
 62
     0
 10
16.690485
 20
5.2
 30
0.0
 11
16.713975
 21
5.22349
 31
0.0
  0
ENDBLK
  8
0
  0
BLOCK
  8
0
  2
*X26
 70
    65
 10
0.0
 20
0.0
 30
0.0
  3
*X
  0
LINE
  8
0
 62
     0
 10
13.9
 20
0.818525
 30
0.0
 11
17.39645
 21
4.314974
 31
0.0
  0
LINE
  8
0
 62
     0
 10
13.9
 20
0.995301
 30
0.0
 11
17.336354
 21
4.431655
 31
0.0
  0
LINE
  8
0
 62
     0
 10
13.9
 20
1.172078
 30
0.0
 11
17.272078
 21
4.544156
 31
0.0
  0
LINE
  8
0
 62
     0
 10
13.9
 20
1.348855
 30
0.0
 11
17.203766
 21
4.652621
 31
0.0
  0
LINE
  8
0
 62
     0
 10
13.9
 20
1.525631
 30
0.0
 11
17.131535
 21
4.757167
 31
0.0
  0
LINE
  8
0
 62
     0
 10
13.9
 20
1.702408
 30
0.0
 11
16.997592
 21
4.8
 31
0.0
  0
LINE
  8
0
 62
     0
 10
13.9
 20
1.879185
 30
0.0
 11
16.820815
 21
4.8
 31
0.0
  0
LINE
  8
0
 62
     0
 10
13.9
 20
2.055961
 30
0.0
 11
16.644039
 21
4.8
 31
0.0
  0
LINE
  8
0
 62
     0
 10
13.9
 20
2.232738
 30
0.0
 11
16.467262
 21
4.8
 31
0.0
  0
LINE
  8
0
 62
     0
 10
13.9
 20
2.409515
 30
0.0
 11
16.290485
 21
4.8
 31
0.0
  0
LINE
  8
0
 62
     0
 10
13.9
 20
2.586292
 30
0.0
 11
16.113708
 21
4.8
 31
0.0
  0
LINE
  8
0
 62
     0
 10
13.9
 20
2.763068
 30
0.0
 11
15.936932
 21
4.8
 31
0.0
  0
LINE
  8
0
 62
     0
 10
13.9
 20
2.939845
 30
0.0
 11
15.760155
 21
4.8
 31
0.0
  0
LINE
  8
0
 62
     0
 10
13.9
 20
3.116622
 30
0.0
 11
15.583378
 21
4.8
 31
0.0
  0
LINE
  8
0
 62
     0
 10
13.9
 20
3.293398
 30
0.0
 11
15.406602
 21
4.8
 31
0.0
  0
LINE
  8
0
 62
     0
 10
13.9
 20
3.470175
 30
0.0
 11
15.229825
 21
4.8
 31
0.0
  0
LINE
  8
0
 62
     0
 10
13.9
 20
3.646952
 30
0.0
 11
15.053048
 21
4.8
 31
0.0
  0
LINE
  8
0
 62
     0
 10
13.9
 20
3.823728
 30
0.0
 11
14.876272
 21
4.8
 31
0.0
  0
LINE
  8
0
 62
     0
 10
13.9
 20
4.000505
 30
0.0
 11
14.699495
 21
4.8
 31
0.0
  0
LINE
  8
0
 62
     0
 10
13.9
 20
4.177282
 30
0.0
 11
14.522718
 21
4.8
 31
0.0
  0
LINE
  8
0
 62
     0
 10
13.9
 20
4.354058
 30
0.0
 11
14.345942
 21
4.8
 31
0.0
  0
LINE
  8
0
 62
     0
 10
13.9
 20
4.530835
 30
0.0
 11
14.169165
 21
4.8
 31
0.0
  0
LINE
  8
0
 62
     0
 10
13.9
 20
4.707612
 30
0.0
 11
13.992388
 21
4.8
 31
0.0
  0
LINE
  8
0
 62
     0
 10
13.9
 20
0.641748
 30
0.0
 11
17.452185
 21
4.193933
 31
0.0
  0
LINE
  8
0
 62
     0
 10
13.9
 20
0.464971
 30
0.0
 11
17.503339
 21
4.068311
 31
0.0
  0
LINE
  8
0
 62
     0
 10
13.9
 20
0.288194
 30
0.0
 11
17.549642
 21
3.937837
 31
0.0
  0
LINE
  8
0
 62
     0
 10
13.9
 20
0.111418
 30
0.0
 11
17.590762
 21
3.80218
 31
0.0
  0
LINE
  8
0
 62
     0
 10
13.965359
 20
0.0
 30
0.0
 11
17.62629
 21
3.660931
 31
0.0
  0
LINE
  8
0
 62
     0
 10
14.142136
 20
0.000001
 30
0.0
 11
17.655713
 21
3.513577
 31
0.0
  0
LINE
  8
0
 62
     0
 10
14.318913
 20
0.000001
 30
0.0
 11
17.678385
 21
3.359473
 31
0.0
  0
LINE
  8
0
 62
     0
 10
14.49569
 20
0.000001
 30
0.0
 11
17.693473
 21
3.197784
 31
0.0
  0
LINE
  8
0
 62
     0
 10
14.672467
 20
0.000002
 30
0.0
 11
17.699875
 21
3.027409
 31
0.0
  0
LINE
  8
0
 62
     0
 10
14.853154
 20
0.003912
 30
0.0
 11
17.696088
 21
2.846846
 31
0.0
  0
LINE
  8
0
 62
     0
 10
15.046044
 20
0.020025
 30
0.0
 11
17.679975
 21
2.653956
 31
0.0
  0
LINE
  8
0
 62
     0
 10
15.254483
 20
0.051687
 30
0.0
 11
17.648313
 21
2.445517
 31
0.0
  0
LINE
  8
0
 62
     0
 10
15.483762
 20
0.10419
 30
0.0
 11
17.59581
 21
2.216238
 31
0.0
  0
LINE
  8
0
 62
     0
 10
15.743786
 20
0.187437
 30
0.0
 11
17.512563
 21
1.956214
 31
0.0
  0
LINE
  8
0
 62
     0
 10
16.058176
 20
0.32505
 30
0.0
 11
17.37495
 21
1.641824
 31
0.0
  0
LINE
  8
0
 62
     0
 10
16.54193
 20
0.632028
 30
0.0
 11
17.067972
 21
1.15807
 31
0.0
  0
ENDBLK
  8
0
  0
BLOCK
  8
0
  2
BLC15
 70
    64
 10
0.0
 20
0.0
 30
0.0
  3
BLC15
  0
LINE
  8
0
  6
CONTINUOUS
 10
0.142084
 20
3.490022
 30
0.0
 11
0.142084
 21
0.844365
 31
0.0
  0
LINE
  8
0
  6
CONTINUOUS
 10
-0.461611
 20
-0.937188
 30
0.0
 11
0.745779
 21
-0.937188
 31
0.0
  0
LINE
  8
0
  6
CONTINUOUS
 10
-0.894108
 20
-0.049675
 30
0.0
 11
1.169267
 21
-0.049675
 31
0.0
  0
LINE
  8
0
  6
CONTINUOUS
 10
-1.389679
 20
0.844365
 30
0.0
 11
1.673848
 21
0.844365
 31
0.0
  0
ENDBLK
  8
0
  0
BLOCK
  8
0
  2
BLC55
 70
     0
 10
0.0
 20
0.0
 30
0.0
  3
BLC55
  0
INSERT
  8
SWEDEN
  6
CENTER
  2
BLC5
 10
0.087066
 20
-0.756831
 30
0.0
 41
0.6
 42
0.6
 43
0.6
  0
ENDBLK
  8
0
  0
BLOCK
  8
0
  2
BLC5
 70
    64
 10
0.0
 20
0.0
 30
0.0
  3
BLC5
  0
TEXT
  8
0
 10
-3.043704
 20
-6.645912
 30
0.0
 40
3.2
  1
PE
  0
LINE
  8
0
 10
-2.946392
 20
1.181176
 30
0.0
 11
2.135458
 21
1.181176
 31
0.0
  0
LINE
  8
0
 10
-0.48656
 20
2.238362
 30
0.0
 11
-0.48656
 21
6.930438
 31
0.0
  0
LINE
  8
0
 10
-1.973271
 20
0.065258
 30
0.0
 11
1.225411
 21
0.065258
 31
0.0
  0
LINE
  8
0
 10
2.685091
 20
2.238362
 30
0.0
 11
1.68494
 21
2.238362
 31
0.0
  0
LINE
  8
0
 10
-3.505035
 20
2.238362
 30
0.0
 11
2.649049
 21
2.238362
 31
0.0
  0
CIRCLE
  8
0
 10
-0.47755
 20
1.422632
 30
0.0
 40
3.804563
  0
ENDBLK
  8
0
  0
BLOCK
  8
0
  2
BLC43
 70
    64
 10
0.0
 20
0.0
 30
0.0
  3
BLC43
  0
TEXT
  8
SWEDEN2
  6
CONTINUOUS
 10
-0.646672
 20
-0.986365
 30
0.0
 40
2.0
  1
+
  0
ENDBLK
  8
0
  0
BLOCK
  8
0
  2
BLC42
 70
    64
 10
0.0
 20
0.0
 30
0.0
  3
BLC42
  0
TEXT
  8
SWEDEN2
  6
CONTINUOUS
 10
-0.655237
 20
-0.99442
 30
0.0
 40
2.0
  1
-
  0
ENDBLK
  8
0
  0
BLOCK
  8
0
  2
BLC58
 70
     0
 10
0.0
 20
0.0
 30
0.0
  3
BLC58
  0
LINE
  8
BASE
  6
CONTINUOUS
 10
21.388391
 20
13.728844
 30
0.0
 11
30.450615
 21
13.728844
 31
0.0
  0
LINE
  8
0
  6
CONTINUOUS
 10
0.0
 20
30.095544
 30
0.0
 11
21.474488
 21
30.095544
 31
0.0
  0
LINE
  8
0
  6
CONTINUOUS
 10
0.0
 20
21.839396
 30
0.0
 11
21.474488
 21
21.839396
 31
0.0
  0
LINE
  8
0
  6
CONTINUOUS
 10
0.0
 20
13.728844
 30
0.0
 11
21.474488
 21
13.728844
 31
0.0
  0
LINE
  8
0
  6
CONTINUOUS
 10
1.348068
 20
7.725151
 30
0.0
 11
-0.011825
 21
7.725151
 31
0.0
  0
LINE
  8
0
  6
CONTINUOUS
 10
1.348068
 20
9.977606
 30
0.0
 11
1.348068
 21
7.725151
 31
0.0
  0
LINE
  8
0
  6
CONTINUOUS
 10
1.194341
 20
10.868311
 30
0.0
 11
0.0
 21
10.868311
 31
0.0
  0
LINE
  8
0
  6
CONTINUOUS
 10
3.299219
 20
10.868311
 30
0.0
 11
1.194341
 21
9.669285
 31
0.0
  0
LINE
  8
0
  6
CONTINUOUS
 10
5.557824
 20
10.868311
 30
0.0
 11
3.299219
 21
10.868311
 31
0.0
  0
LINE
  8
0
  6
CONTINUOUS
 10
26.181732
 20
9.078337
 30
0.0
 11
27.068619
 21
9.078337
 31
0.0
  0
LINE
  8
0
  6
CONTINUOUS
 10
25.850628
 20
9.566512
 30
0.0
 11
27.435199
 21
9.566512
 31
0.0
  0
LINE
  8
0
  6
CONTINUOUS
 10
26.666564
 20
10.046122
 30
0.0
 11
27.860905
 21
10.046122
 31
0.0
  0
LINE
  8
0
  6
CONTINUOUS
 10
25.472223
 20
10.046122
 30
0.0
 11
26.666564
 21
10.046122
 31
0.0
  0
LINE
  8
0
  6
CONTINUOUS
 10
26.682451
 20
11.400392
 30
0.0
 11
26.682451
 21
10.046122
 31
0.0
  0
TEXT
  8
0
  6
CONTINUOUS
 10
23.730424
 20
9.356562
 30
0.0
 40
2.5
  1
I
 11
23.730424
 21
8.523229
 31
0.0
 73
     1
  0
TEXT
  8
0
  6
CONTINUOUS
 10
23.718599
 20
44.648458
 30
0.0
 40
2.5
  1
2I
 11
23.718599
 21
43.815125
 31
0.0
 73
     1
  0
LINE
  8
0
  6
CONTINUOUS
 10
7.307083
 20
34.320728
 30
0.0
 11
4.961317
 21
33.130809
 31
0.0
  0
LINE
  8
0
  6
CONTINUOUS
 10
4.961317
 20
35.656082
 30
0.0
 11
7.307083
 21
34.320728
 31
0.0
  0
LINE
  8
0
  6
CONTINUOUS
 10
6.079793
 20
34.320728
 30
0.0
 11
3.734027
 21
33.130809
 31
0.0
  0
LINE
  8
0
  6
CONTINUOUS
 10
3.734027
 20
35.656082
 30
0.0
 11
6.079793
 21
34.320728
 31
0.0
  0
TEXT
  8
0
  6
CONTINUOUS
 10
1.924832
 20
33.140093
 30
0.0
 40
2.5
  1
I
 11
1.924832
 21
32.306759
 31
0.0
 73
     1
  0
TEXT
  8
0
  6
CONTINUOUS
 10
3.194767
 20
25.150348
 30
0.0
 40
1.5
  1
2
 11
3.194767
 21
24.650348
 31
0.0
 73
     1
  0
TEXT
  8
0
  6
CONTINUOUS
 10
1.743031
 20
25.483682
 30
0.0
 40
2.5
  1
I
 11
1.743031
 21
24.650348
 31
0.0
 73
     1
  0
ARC
  8
0
  6
CONTINUOUS
 10
16.744168
 20
27.959159
 30
0.0
 40
2.922744
 50
193.105513
 51
283.105513
  0
LINE
  8
0
  6
CONTINUOUS
 10
19.34584
 20
26.975098
 30
0.0
 11
19.34584
 21
25.359905
 31
0.0
  0
LINE
  8
0
  6
CONTINUOUS
 10
10.616324
 20
26.975098
 30
0.0
 11
10.616324
 21
25.359905
 31
0.0
  0
LINE
  8
0
  6
CONTINUOUS
 10
10.616324
 20
26.165772
 30
0.0
 11
19.341064
 21
26.165772
 31
0.0
  0
LINE
  8
0
  6
CONTINUOUS
 10
11.834315
 20
17.975819
 30
0.0
 11
20.559056
 21
17.975819
 31
0.0
  0
LINE
  8
0
  6
CONTINUOUS
 10
20.563831
 20
18.785145
 30
0.0
 11
20.563831
 21
17.169952
 31
0.0
  0
LINE
  8
0
  6
CONTINUOUS
 10
11.834315
 20
18.785145
 30
0.0
 11
11.834315
 21
17.169952
 31
0.0
  0
LINE
  8
0
  6
CONTINUOUS
 10
5.615664
 20
16.924236
 30
0.0
 11
3.269898
 21
18.259589
 31
0.0
  0
LINE
  8
0
  6
CONTINUOUS
 10
3.269898
 20
18.259589
 30
0.0
 11
5.615664
 21
19.449509
 31
0.0
  0
TEXT
  8
0
  6
CONTINUOUS
 10
1.771105
 20
17.124536
 30
0.0
 40
2.5
  1
I
 11
1.771105
 21
16.291202
 31
0.0
 73
     1
  0
LINE
  8
0
  6
CONTINUOUS
 10
11.834315
 20
11.008607
 30
0.0
 11
11.834315
 21
9.393414
 31
0.0
  0
LINE
  8
0
  6
CONTINUOUS
 10
20.563831
 20
11.008607
 30
0.0
 11
20.563831
 21
9.393414
 31
0.0
  0
LINE
  8
0
  6
CONTINUOUS
 10
11.834315
 20
10.199281
 30
0.0
 11
20.559056
 21
10.199281
 31
0.0
  0
LINE
  8
0
  6
CONTINUOUS
 10
9.094379
 20
9.523689
 30
0.0
 11
9.981266
 21
9.523689
 31
0.0
  0
LINE
  8
0
  6
CONTINUOUS
 10
8.763274
 20
10.011864
 30
0.0
 11
10.347846
 21
10.011864
 31
0.0
  0
LINE
  8
0
  6
CONTINUOUS
 10
9.57921
 20
10.491474
 30
0.0
 11
10.773551
 21
10.491474
 31
0.0
  0
LINE
  8
0
  6
CONTINUOUS
 10
8.384869
 20
10.491474
 30
0.0
 11
9.57921
 21
10.491474
 31
0.0
  0
LINE
  8
0
  6
CONTINUOUS
 10
9.595097
 20
11.845745
 30
0.0
 11
9.595097
 21
10.491474
 31
0.0
  0
TEXT
  8
0
  6
CONTINUOUS
 10
6.643071
 20
9.801915
 30
0.0
 40
2.5
  1
I
 11
6.643071
 21
8.968581
 31
0.0
 73
     1
  0
LINE
  8
0
  6
CONTINUOUS
 10
15.254454
 20
43.413293
 30
0.0
 11
15.254454
 21
37.555196
 31
0.0
  0
LINE
  8
0
  6
CONTINUOUS
 10
0.059126
 20
43.413293
 30
0.0
 11
15.254454
 21
43.413293
 31
0.0
  0
LINE
  8
0
  6
CONTINUOUS
 10
1.969552
 20
41.257245
 30
0.0
 11
4.315318
 21
39.921891
 31
0.0
  0
LINE
  8
0
  6
CONTINUOUS
 10
4.315318
 20
39.921891
 30
0.0
 11
1.969552
 21
38.731972
 31
0.0
  0
TEXT
  8
0
  6
CONTINUOUS
 10
5.510524
 20
38.756802
 30
0.0
 40
2.5
  1
95%
 11
5.510524
 21
37.923468
 31
0.0
 73
     1
  0
LINE
  8
0
  6
CONTINUOUS
 10
0.011825
 20
37.58089
 30
0.0
 11
21.415362
 21
37.58089
 31
0.0
  0
LINE
  8
0
  6
CONTINUOUS
 10
21.416194
 20
54.709828
 30
0.0
 11
21.416194
 21
5.232891
 31
0.0
  0
LINE
  8
0
  6
CONTINUOUS
 10
0.012657
 20
5.232891
 30
0.0
 11
30.450615
 21
5.232891
 31
0.0
  0
TEXT
  8
0
  6
CONTINUOUS
 10
11.908766
 20
1.295815
 30
0.0
 40
2.5
  1
IRF
 11
11.908766
 21
0.462481
 31
0.0
 73
     1
  0
LINE
  8
0
  6
CONTINUOUS
 10
18.921474
 20
53.565006
 30
0.0
 11
18.921474
 21
50.173736
 31
0.0
  0
LINE
  8
0
  6
CONTINUOUS
 10
18.921474
 20
50.173736
 30
0.0
 11
16.329266
 21
50.173736
 31
0.0
  0
LINE
  8
0
  6
CONTINUOUS
 10
16.329266
 20
50.173736
 30
0.0
 11
16.329266
 21
47.423701
 31
0.0
  0
LINE
  8
0
  6
CONTINUOUS
 10
16.329266
 20
47.423701
 30
0.0
 11
18.921474
 21
47.423701
 31
0.0
  0
LINE
  8
0
  6
CONTINUOUS
 10
18.921474
 20
47.423701
 30
0.0
 11
18.921474
 21
44.032431
 31
0.0
  0
LINE
  8
0
  6
CONTINUOUS
 10
0.012657
 20
54.709828
 30
0.0
 11
30.450615
 21
54.709828
 31
0.0
  0
LINE
  8
0
  6
CONTINUOUS
 10
0.012657
 20
0.0
 30
0.0
 11
0.012657
 21
54.709828
 31
0.0
  0
LINE
  8
0
  6
CONTINUOUS
 10
30.450615
 20
0.0
 30
0.0
 11
0.012657
 21
0.0
 31
0.0
  0
LINE
  8
0
  6
CONTINUOUS
 10
30.450615
 20
54.709828
 30
0.0
 11
30.450615
 21
0.0
 31
0.0
  0
ENDBLK
  8
0
  0
BLOCK
  8
0
  2
BLC56
 70
     0
 10
0.0
 20
0.0
 30
0.0
  3
BLC56
  0
LINE
  8
BASE
  6
CONTINUOUS
 10
10.0
 20
0.0
 30
0.0
 11
0.0
 21
0.0
 31
0.0
  0
LINE
  8
BASE
  6
CONTINUOUS
 10
0.0
 20
0.0
 30
0.0
 11
0.0
 21
5.0
 31
0.0
  0
LINE
  8
BASE
  6
CONTINUOUS
 10
0.0
 20
5.0
 30
0.0
 11
10.0
 21
5.0
 31
0.0
  0
LINE
  8
BASE
  6
CONTINUOUS
 10
10.0
 20
5.0
 30
0.0
 11
10.0
 21
0.0
 31
0.0
  0
CIRCLE
  8
0
  6
CONTINUOUS
 10
4.984447
 20
-0.797999
 30
0.0
 40
0.798019
  0
TEXT
  8
0
  6
CONTINUOUS
 10
6.68353
 20
1.362373
 30
0.0
 40
2.5
  1
1
 11
6.68353
 21
0.52904
 31
0.0
 73
     1
  0
LINE
  8
0
  6
CONTINUOUS
 10
2.241626
 20
0.69718
 30
0.0
 11
4.625086
 21
1.885372
 31
0.0
  0
LINE
  8
0
  6
CONTINUOUS
 10
2.249668
 20
4.022467
 30
0.0
 11
4.595433
 21
2.687113
 31
0.0
  0
LINE
  8
0
  6
CONTINUOUS
 10
4.595433
 20
2.687113
 30
0.0
 11
2.249668
 21
1.497194
 31
0.0
  0
ENDBLK
  8
0
  0
BLOCK
  8
0
  2
BLC57
 70
     0
 10
0.0
 20
0.0
 30
0.0
  3
BLC57
  0
TEXT
  8
0
  6
CONTINUOUS
 10
5.743694
 20
1.362373
 30
0.0
 40
2.5
  1
1
 11
5.743694
 21
0.52904
 31
0.0
 73
     1
  0
LINE
  8
0
  6
CONTINUOUS
 10
1.301791
 20
0.69718
 30
0.0
 11
3.685251
 21
1.885372
 31
0.0
  0
LINE
  8
0
  6
CONTINUOUS
 10
3.655598
 20
2.687113
 30
0.0
 11
1.309833
 21
1.497194
 31
0.0
  0
LINE
  8
0
  6
CONTINUOUS
 10
1.309833
 20
4.022467
 30
0.0
 11
3.655598
 21
2.687113
 31
0.0
  0
LINE
  8
BASE
  6
CONTINUOUS
 10
7.5
 20
0.0
 30
0.0
 11
7.5
 21
5.0
 31
0.0
  0
LINE
  8
BASE
  6
CONTINUOUS
 10
0.0
 20
0.0
 30
0.0
 11
7.5
 21
0.0
 31
0.0
  0
LINE
  8
BASE
  6
CONTINUOUS
 10
0.0
 20
5.0
 30
0.0
 11
0.0
 21
0.0
 31
0.0
  0
LINE
  8
BASE
  6
CONTINUOUS
 10
7.5
 20
5.0
 30
0.0
 11
0.0
 21
5.0
 31
0.0
  0
ENDBLK
  8
0
  0
BLOCK
  8
0
  2
B14
 70
     0
 10
0.0
 20
0.0
 30
0.0
  3
B14
  0
LINE
  8
BASE1
  6
CONTINUOUS
 10
2.5
 20
5.0
 30
0.0
 11
0.0
 21
5.0
 31
0.0
  0
LINE
  8
BASE1
  6
CONTINUOUS
 10
2.5
 20
5.0
 30
0.0
 11
2.5
 21
6.686532
 31
0.0
  0
LINE
  8
BASE1
  6
CONTINUOUS
 10
7.5
 20
5.0
 30
0.0
 11
2.345956
 21
6.475923
 31
0.0
  0
LINE
  8
BASE1
  6
CONTINUOUS
 10
10.0
 20
5.0
 30
0.0
 11
7.5
 21
5.0
 31
0.0
  0
LINE
  8
BASE1
 10
12.798812
 20
6.589925
 30
0.0
 11
12.798812
 21
-1.6
 31
0.0
  0
LINE
  8
BASE1
  6
CONTINUOUS
 10
12.798812
 20
5.0
 30
0.0
 11
8.098812
 21
5.0
 31
0.0
  0
LINE
  8
BASE1
  6
CONTINUOUS
 10
12.798812
 20
0.0
 30
0.0
 11
8.098812
 21
0.0
 31
0.0
  0
LINE
  8
BASE1
  6
CONTINUOUS
 10
10.0
 20
0.0
 30
0.0
 11
0.0
 21
0.0
 31
0.0
  0
LINE
  8
BASE1
 10
18.496971
 20
6.59384
 30
0.0
 11
16.642636
 21
4.315018
 31
0.0
  0
LINE
  8
BASE1
 10
17.004853
 20
6.59384
 30
0.0
 11
15.09105
 21
4.315018
 31
0.0
  0
LINE
  8
BASE1
 10
20.221556
 20
6.589925
 30
0.0
 11
12.798812
 21
6.589925
 31
0.0
  0
LINE
  8
BASE1
 10
20.221556
 20
-1.6
 30
0.0
 11
20.221556
 21
6.589925
 31
0.0
  0
LINE
  8
BASE1
 10
12.798812
 20
-1.6
 30
0.0
 11
20.221556
 21
-1.6
 31
0.0
  0
LINE
  8
BASE1
  6
CONTINUOUS
 10
20.221556
 20
2.5
 30
0.0
 11
23.098812
 21
2.5
 31
0.0
  0
TEXT
  8
BASE1
  6
CONTINUOUS
 10
0.988929
 20
-2.458581
 30
0.0
 40
2.0
  1
108:11
  0
TEXT
  8
BASE1
  6
CONTINUOUS
 10
0.988929
 20
2.654891
 30
0.0
 40
2.0
  1
14A
  0
TEXT
  8
BASE1
  6
CONTINUOUS
 10
2.505198
 20
7.263196
 30
0.0
 40
2.0
  1
101
  0
ENDBLK
  8
0
  0
BLOCK
  8
0
  2
B15
 70
     0
 10
0.0
 20
0.0
 30
0.0
  3
B15
  0
CIRCLE
  8
BASE1
  6
CONTINUOUS
 10
0.025538
 20
-0.001676
 30
0.0
 40
1.0
  0
ENDBLK
  8
0
  0
BLOCK
  8
0
  2
BLC44
 70
    64
 10
0.0
 20
0.0
 30
0.0
  3
BLC44
  0
LINE
  8
HEL035
 10
-2.520993
 20
1.697877
 30
0.0
 11
1.479007
 21
1.697877
 31
0.0
  0
INSERT
  8
HEL035
  2
WKU130
 10
-2.181043
 20
-0.027675
 30
0.0
 41
0.8
 42
0.8
 43
0.8
  0
ENDBLK
  8
0
  0
BLOCK
  8
0
  2
BLC13
 70
     0
 10
0.0
 20
0.0
 30
0.0
  3
BLC13
  0
LINE
  8
0
 10
-0.113126
 20
0.204294
 30
0.0
 11
16.227899
 21
0.204294
 31
0.0
  0
LINE
  8
0
  6
HIDDEN
 10
7.278095
 20
2.980501
 30
0.0
 11
6.770992
 21
3.671196
 31
0.0
  0
LINE
  8
0
  6
HIDDEN
 10
8.466383
 20
2.52552
 30
0.0
 11
7.48245
 21
2.865385
 31
0.0
  0
LINE
  8
0
  6
HIDDEN
 10
9.843889
 20
2.202099
 30
0.0
 11
8.769132
 21
2.432331
 31
0.0
  0
LINE
  8
0
  6
HIDDEN
 10
11.039745
 20
2.04313
 30
0.0
 11
10.260168
 21
2.10891
 31
0.0
  0
LINE
  8
0
  6
CONTINUOUS
 10
8.443677
 20
5.343115
 30
0.0
 11
9.344354
 21
4.219366
 31
0.0
  0
LINE
  8
0
  6
CONTINUOUS
 10
6.021689
 20
1.977349
 30
0.0
 11
8.8978
 21
4.805908
 31
0.0
  0
LINE
  8
0
  6
CONTINUOUS
 10
3.637545
 20
3.144952
 30
0.0
 11
11.42575
 21
3.144952
 31
0.0
  0
LINE
  8
0
  6
CONTINUOUS
 10
11.421208
 20
3.990231
 30
0.0
 11
11.421208
 21
2.202099
 31
0.0
  0
LINE
  8
0
  6
CONTINUOUS
 10
3.606513
 20
3.990231
 30
0.0
 11
3.606513
 21
2.202099
 31
0.0
  0
LINE
  8
0
  6
CONTINUOUS
 10
8.069666
 20
14.830198
 30
0.0
 11
10.415431
 21
13.494844
 31
0.0
  0
LINE
  8
0
  6
CONTINUOUS
 10
10.415431
 20
13.494844
 30
0.0
 11
8.069666
 21
12.304925
 31
0.0
  0
LINE
  8
0
 10
-0.113126
 20
28.866096
 30
0.0
 11
-0.113126
 21
0.204294
 31
0.0
  0
LINE
  8
0
  6
CONTINUOUS
 10
7.939274
 20
7.188094
 30
0.0
 11
7.029453
 21
7.188094
 31
0.0
  0
LINE
  8
0
  6
CONTINUOUS
 10
7.466441
 20
7.550453
 30
0.0
 11
8.108261
 21
7.550453
 31
0.0
  0
LINE
  8
0
  6
CONTINUOUS
 10
6.859004
 20
7.550453
 30
0.0
 11
7.466441
 21
7.550453
 31
0.0
  0
LINE
  8
0
  6
CONTINUOUS
 10
7.466441
 20
7.945861
 30
0.0
 11
8.360405
 21
7.945861
 31
0.0
  0
LINE
  8
0
  6
CONTINUOUS
 10
6.572478
 20
7.945861
 30
0.0
 11
7.483633
 21
7.945861
 31
0.0
  0
LINE
  8
0
  6
CONTINUOUS
 10
7.466441
 20
9.290587
 30
0.0
 11
7.466441
 21
7.945861
 31
0.0
  0
TEXT
  8
0
  6
CONTINUOUS
 10
4.514415
 20
7.246756
 30
0.0
 40
2.5
  1
I
 11
4.514415
 21
6.413423
 31
0.0
 73
     1
  0
LINE
  8
0
  6
CONTINUOUS
 10
8.582011
 20
13.494844
 30
0.0
 11
6.236245
 21
12.304925
 31
0.0
  0
LINE
  8
0
  6
CONTINUOUS
 10
6.236245
 20
14.830198
 30
0.0
 11
8.582011
 21
13.494844
 31
0.0
  0
LINE
  8
0
  6
CONTINUOUS
 10
12.885039
 20
24.912349
 30
0.0
 11
10.539273
 21
23.72243
 31
0.0
  0
LINE
  8
0
  6
CONTINUOUS
 10
10.539273
 20
26.247703
 30
0.0
 11
12.885039
 21
24.912349
 31
0.0
  0
TEXT
  8
0
  6
CONTINUOUS
 10
3.037954
 20
23.742652
 30
0.0
 40
2.5
  1
2 I
 11
3.037954
 21
22.909319
 31
0.0
 73
     1
  0
TEXT
  8
0
  6
CONTINUOUS
 10
3.403907
 20
12.419301
 30
0.0
 40
2.5
  1
2
 11
3.403907
 21
11.585968
 31
0.0
 73
     1
  0
LINE
  8
0
  6
CONTINUOUS
 10
16.227899
 20
28.866096
 30
0.0
 11
16.227899
 21
0.204294
 31
0.0
  0
LINE
  8
0
  6
CONTINUOUS
 10
-0.113126
 20
28.866096
 30
0.0
 11
16.227899
 21
28.866096
 31
0.0
  0
LINE
  8
0
  6
HIDDEN
 10
7.278095
 20
19.087963
 30
0.0
 11
6.770992
 21
19.778657
 31
0.0
  0
LINE
  8
0
  6
HIDDEN
 10
8.466383
 20
18.632981
 30
0.0
 11
7.48245
 21
18.972847
 31
0.0
  0
LINE
  8
0
  6
HIDDEN
 10
9.843889
 20
18.309561
 30
0.0
 11
8.769132
 21
18.539792
 31
0.0
  0
LINE
  8
0
  6
HIDDEN
 10
11.039745
 20
18.150591
 30
0.0
 11
10.260168
 21
18.216372
 31
0.0
  0
LINE
  8
0
  6
CONTINUOUS
 10
8.443677
 20
21.450576
 30
0.0
 11
9.344354
 21
20.326827
 31
0.0
  0
LINE
  8
0
  6
CONTINUOUS
 10
6.021689
 20
18.084811
 30
0.0
 11
8.8978
 21
20.91337
 31
0.0
  0
LINE
  8
0
  6
CONTINUOUS
 10
3.637545
 20
19.252414
 30
0.0
 11
11.42575
 21
19.252414
 31
0.0
  0
LINE
  8
0
  6
CONTINUOUS
 10
11.421208
 20
20.097692
 30
0.0
 11
11.421208
 21
18.309561
 31
0.0
  0
LINE
  8
0
  6
CONTINUOUS
 10
3.606513
 20
20.097692
 30
0.0
 11
3.606513
 21
18.309561
 31
0.0
  0
TEXT
  8
TEKS
 10
-8.041988
 20
-4.723508
 30
0.0
 40
2.0
  1
OVERCURRENT RELAY
 11
-8.041988
 21
-5.390175
 31
0.0
 73
     1
  0
ENDBLK
  8
0
  0
BLOCK
  8
0
  2
BLC6
 70
     0
 10
0.0
 20
0.0
 30
0.0
  3
BLC6
  0
LINE
  8
0
  6
CENTER
 10
13.663378
 20
7.674384
 30
0.0
 11
13.663378
 21
11.133077
 31
0.0
  0
LINE
  8
0
  6
CENTER
 10
10.212405
 20
7.674384
 30
0.0
 11
10.212405
 21
11.133077
 31
0.0
  0
LINE
  8
0
  6
CENTER
 10
6.806485
 20
7.674384
 30
0.0
 11
6.806485
 21
11.133077
 31
0.0
  0
LINE
  8
0
  6
CENTER
 10
3.400564
 20
7.674384
 30
0.0
 11
3.400564
 21
11.133077
 31
0.0
  0
LINE
  8
0
  6
CONTINUOUS
 10
0.027989
 20
7.679384
 30
0.0
 11
17.15534
 21
7.679384
 31
0.0
  0
LINE
  8
0
  6
CONTINUOUS
 10
17.15534
 20
7.633703
 30
0.0
 11
17.15534
 21
0.023085
 31
0.0
  0
LINE
  8
0
  6
CONTINUOUS
 10
17.15534
 20
0.023085
 30
0.0
 11
0.027989
 21
0.023085
 31
0.0
  0
LINE
  8
0
  6
CONTINUOUS
 10
0.027989
 20
0.023085
 30
0.0
 11
0.027989
 21
7.633703
 31
0.0
  0
LINE
  8
0
  6
CONTINUOUS
 10
0.027989
 20
7.607478
 30
0.0
 11
0.027989
 21
3.836262
 31
0.0
  0
LINE
  8
0
  6
CONTINUOUS
 10
4.279049
 20
6.133609
 30
0.0
 11
10.174044
 21
4.271604
 31
0.0
  0
LINE
  8
0
  6
CONTINUOUS
 10
10.174044
 20
4.271604
 30
0.0
 11
10.23198
 21
4.271604
 31
0.0
  0
LINE
  8
0
  6
CONTINUOUS
 10
0.027989
 20
5.698267
 30
0.0
 11
0.027989
 21
3.836262
 31
0.0
  0
LINE
  8
0
  6
CONTINUOUS
 10
0.027989
 20
3.836262
 30
0.0
 11
0.027989
 21
3.836262
 31
0.0
  0
LINE
  8
0
  6
CONTINUOUS
 10
10.23198
 20
4.271604
 30
0.0
 11
4.279049
 21
2.409599
 31
0.0
  0
LINE
  8
0
  6
CONTINUOUS
 10
4.279049
 20
1.187494
 30
0.0
 11
10.123349
 21
3.049499
 31
0.0
  0
TEXT
  8
0
  6
CONTINUOUS
 10
11.803495
 20
1.769698
 30
0.0
 40
4.8
  1
1
  0
LINE
  8
0
  6
CONTINUOUS
 10
8.57537
 20
0.013998
 30
0.0
 11
8.57537
 21
-2.405298
 31
0.0
  0
ENDBLK
  8
0
  0
BLOCK
  8
0
  2
BLC46
 70
     0
 10
0.0
 20
0.0
 30
0.0
  3
BLC46
  0
LINE
  8
BASE
  6
CONTINUOUS
 10
0.0
 20
0.0
 30
0.0
 11
5.0
 21
0.0
 31
0.0
  0
LINE
  8
BASE
  6
CONTINUOUS
 10
5.0
 20
-5.0
 30
0.0
 11
0.0
 21
-5.0
 31
0.0
  0
LINE
  8
BASE
  6
CONTINUOUS
 10
5.0
 20
-5.0
 30
0.0
 11
5.0
 21
-2.5
 31
0.0
  0
LINE
  8
BASE
  6
CONTINUOUS
 10
10.0
 20
0.0
 30
0.0
 11
15.0
 21
0.0
 31
0.0
  0
LINE
  8
BASE
  6
CONTINUOUS
 10
10.0
 20
0.0
 30
0.0
 11
4.256076
 21
-3.214703
 31
0.0
  0
ENDBLK
  8
0
  0
BLOCK
  8
0
  2
B25
 70
     0
 10
0.0
 20
0.0
 30
0.0
  3
B25
  0
LINE
  8
BASE
  6
CONTINUOUS
 10
7.993665
 20
0.0
 30
0.0
 11
0.0
 21
0.0
 31
0.0
  0
LINE
  8
BASE
  6
CONTINUOUS
 10
7.993665
 20
2.572693
 30
0.0
 11
7.993665
 21
0.0
 31
0.0
  0
LINE
  8
BASE
  6
CONTINUOUS
 10
17.5
 20
0.0
 30
0.0
 11
7.5
 21
2.5
 31
0.0
  0
LINE
  8
BASE
  6
CONTINUOUS
 10
22.5
 20
0.0
 30
0.0
 11
17.5
 21
0.0
 31
0.0
  0
TEXT
  8
BASE
  6
CONTINUOUS
 10
2.685974
 20
1.915936
 30
0.0
 40
1.5
  1
101
  0
TEXT
  8
BASE
  6
CONTINUOUS
 10
2.685974
 20
-2.144616
 30
0.0
 40
1.5
  1
17A
  0
ENDBLK
  8
0
  0
BLOCK
  8
0
  2
B24
 70
     0
 10
0.0
 20
0.0
 30
0.0
  3
B24
  0
LINE
  8
BASE
  6
CONTINUOUS
 10
10.0
 20
0.0
 30
0.0
 11
0.0
 21
0.0
 31
0.0
  0
LINE
  8
BASE
  6
CONTINUOUS
 10
12.798812
 20
0.0
 30
0.0
 11
8.098812
 21
0.0
 31
0.0
  0
LINE
  8
BASE
  6
CONTINUOUS
 10
2.5
 20
5.0
 30
0.0
 11
0.0
 21
5.0
 31
0.0
  0
LINE
  8
BASE
  6
CONTINUOUS
 10
2.5
 20
5.0
 30
0.0
 11
2.5
 21
6.686532
 31
0.0
  0
LINE
  8
BASE
  6
CONTINUOUS
 10
2.347355
 20
6.475523
 30
0.0
 11
1.954974
 21
5.510233
 31
0.0
  0
LINE
  8
BASE
  6
CONTINUOUS
 10
7.5
 20
5.0
 30
0.0
 11
2.347355
 21
6.475523
 31
0.0
  0
LINE
  8
BASE
  6
CONTINUOUS
 10
10.0
 20
5.0
 30
0.0
 11
7.5
 21
5.0
 31
0.0
  0
LINE
  8
BASE
  6
CONTINUOUS
 10
12.798812
 20
5.0
 30
0.0
 11
8.098812
 21
5.0
 31
0.0
  0
TEXT
  8
BASE
  6
CONTINUOUS
 10
0.988929
 20
-2.458581
 30
0.0
 40
2.0
  1
108:11
  0
TEXT
  8
BASE
  6
CONTINUOUS
 10
0.988929
 20
2.654891
 30
0.0
 40
2.0
  1
14A
  0
TEXT
  8
BASE
  6
CONTINUOUS
 10
2.505198
 20
7.263196
 30
0.0
 40
2.0
  1
101
  0
LINE
  8
BASE
 10
12.798812
 20
6.589925
 30
0.0
 11
12.798812
 21
-1.6
 31
0.0
  0
LINE
  8
BASE
 10
17.004853
 20
6.59384
 30
0.0
 11
15.09105
 21
4.315018
 31
0.0
  0
LINE
  8
BASE
 10
18.496971
 20
6.59384
 30
0.0
 11
16.642636
 21
4.315018
 31
0.0
  0
LINE
  8
BASE
 10
20.221556
 20
6.589925
 30
0.0
 11
12.798812
 21
6.589925
 31
0.0
  0
LINE
  8
BASE
 10
12.798812
 20
-1.6
 30
0.0
 11
20.221556
 21
-1.6
 31
0.0
  0
LINE
  8
BASE
 10
20.221556
 20
-1.6
 30
0.0
 11
20.221556
 21
6.589925
 31
0.0
  0
LINE
  8
BASE
  6
CONTINUOUS
 10
20.221556
 20
2.5
 30
0.0
 11
23.098812
 21
2.5
 31
0.0
  0
ENDBLK
  8
0
  0
BLOCK
  8
0
  2
BLC3
 70
     0
 10
0.0
 20
0.0
 30
0.0
  3
BLC3
  0
LINE
  8
0
 10
6.154084
 20
-0.026103
 30
0.0
 11
6.154084
 21
-4.333155
 31
0.0
  0
LINE
  8
0
 10
6.154084
 20
12.36646
 30
0.0
 11
6.154084
 21
17.052011
 31
0.0
  0
LINE
  8
0
 10
-0.036041
 20
12.36646
 30
0.0
 11
6.154084
 21
12.36646
 31
0.0
  0
TEXT
  8
0
 10
1.68494
 20
5.272876
 30
0.0
 40
2.0
  1
150ms
  0
LINE
  8
0
 10
9.68615
 20
10.872044
 30
0.0
 11
9.68615
 21
8.888189
 31
0.0
  0
LINE
  8
0
 10
2.342697
 20
10.872044
 30
0.0
 11
2.342697
 21
8.888189
 31
0.0
  0
LINE
  8
0
 10
2.342697
 20
9.880116
 30
0.0
 11
9.69516
 21
9.880116
 31
0.0
  0
LINE
  8
0
 10
0.0
 20
0.0
 30
0.0
 11
0.0
 21
12.372986
 31
0.0
  0
LINE
  8
0
 10
12.371241
 20
0.0
 30
0.0
 11
0.0
 21
0.0
 31
0.0
  0
LINE
  8
0
 10
12.371241
 20
12.372986
 30
0.0
 11
12.371241
 21
0.0
 31
0.0
  0
LINE
  8
0
 10
0.0
 20
12.372986
 30
0.0
 11
12.371241
 21
12.372986
 31
0.0
  0
ENDBLK
  8
0
  0
BLOCK
  8
0
  2
B26
 70
     0
 10
0.0
 20
0.0
 30
0.0
  3
B26
  0
LINE
  8
BASE
  6
CONTINUOUS
 10
0.0
 20
3.648475
 30
0.0
 11
0.0
 21
0.0
 31
0.0
  0
LINE
  8
BASE
  6
CONTINUOUS
 10
0.0
 20
11.8384
 30
0.0
 11
0.0
 21
15.0
 31
0.0
  0
LINE
  8
0
 10
-2.557808
 20
9.826555
 30
0.0
 11
2.76563
 21
9.826555
 31
0.0
  0
LINE
  8
0
 10
-2.557808
 20
10.544745
 30
0.0
 11
-2.557808
 21
9.108365
 31
0.0
  0
LINE
  8
0
 10
2.759106
 20
10.544745
 30
0.0
 11
2.759106
 21
9.108365
 31
0.0
  0
TEXT
  8
BASE
  6
CONTINUOUS
 10
-3.396424
 20
6.398368
 30
0.0
 40
1.5
  1
150ms
  0
LINE
  8
BASE
 10
4.135737
 20
3.648475
 30
0.0
 11
4.135737
 21
11.8384
 31
0.0
  0
LINE
  8
BASE
 10
-3.942086
 20
3.648475
 30
0.0
 11
4.135737
 21
3.648475
 31
0.0
  0
LINE
  8
BASE
 10
4.135737
 20
11.8384
 30
0.0
 11
-3.942086
 21
11.8384
 31
0.0
  0
LINE
  8
BASE
 10
-3.942086
 20
11.8384
 30
0.0
 11
-3.942086
 21
3.648475
 31
0.0
  0
ENDBLK
  8
0
  0
BLOCK
  8
0
  2
B11
 70
     0
 10
0.0
 20
0.0
 30
0.0
  3
B11
  0
TEXT
  8
BASE
  6
CONTINUOUS
 10
-4.579696
 20
-2.847581
 30
0.0
 40
2.0
  1
8A
  0
TEXT
  8
BASE
  6
CONTINUOUS
 10
-4.579696
 20
6.962947
 30
0.0
 40
2.0
  1
7A
  0
TEXT
  8
BASE
  6
CONTINUOUS
 10
-4.579696
 20
17.07474
 30
0.0
 40
2.0
  1
6A
  0
TEXT
  8
BASE
  6
CONTINUOUS
 10
-4.579696
 20
27.186533
 30
0.0
 40
2.0
  1
5A
  0
TEXT
  8
BASE
  6
CONTINUOUS
 10
-4.579696
 20
37.448958
 30
0.0
 40
2.0
  1
4A
  0
TEXT
  8
BASE
  6
CONTINUOUS
 10
-4.579696
 20
46.958222
 30
0.0
 40
2.0
  1
3A
  0
TEXT
  8
BASE
  6
CONTINUOUS
 10
-20.369738
 20
48.419138
 30
0.0
 40
1.5
  1
101
  0
INSERT
  8
BASE
  6
CONTINUOUS
  2
BLC29
 10
-27.142151
 20
29.871732
 30
0.0
 50
180.0
  0
INSERT
  8
BASE
  6
CONTINUOUS
  2
BLC29
 10
-27.142151
 20
-0.128536
 30
0.0
 50
180.0
  0
LINE
  8
BASE
  6
CONTINUOUS
 10
-20.0
 20
-5.0
 30
0.0
 11
-17.5
 21
-5.0
 31
0.0
  0
LINE
  8
BASE
  6
CONTINUOUS
 10
-20.0
 20
5.0
 30
0.0
 11
-17.5
 21
5.0
 31
0.0
  0
LINE
  8
BASE
  6
CONTINUOUS
 10
-20.0
 20
15.0
 30
0.0
 11
-17.5
 21
15.0
 31
0.0
  0
LINE
  8
BASE
  6
CONTINUOUS
 10
-20.0
 20
25.0
 30
0.0
 11
-17.5
 21
25.0
 31
0.0
  0
LINE
  8
BASE
  6
CONTINUOUS
 10
-20.0
 20
35.0
 30
0.0
 11
-17.5
 21
35.0
 31
0.0
  0
LINE
  8
BASE
  6
CONTINUOUS
 10
-20.0
 20
45.0
 30
0.0
 11
-17.5
 21
45.0
 31
0.0
  0
LINE
  8
BASE
  6
CONTINUOUS
 10
-22.5
 20
5.0
 30
0.0
 11
-21.5
 21
6.0
 31
0.0
  0
LINE
  8
BASE
  6
CONTINUOUS
 10
-22.5
 20
-5.0
 30
0.0
 11
-21.5
 21
-6.0
 31
0.0
  0
LINE
  8
BASE
  6
CONTINUOUS
 10
-22.5
 20
5.0
 30
0.0
 11
-22.5
 21
-5.0
 31
0.0
  0
LINE
  8
BASE
  6
CONTINUOUS
 10
-22.5
 20
15.0
 30
0.0
 11
-21.5
 21
14.0
 31
0.0
  0
LINE
  8
BASE
  6
CONTINUOUS
 10
-22.5
 20
45.0
 30
0.0
 11
-21.5
 21
46.0
 31
0.0
  0
LINE
  8
BASE
  6
CONTINUOUS
 10
-22.5
 20
45.0
 30
0.0
 11
-22.5
 21
15.0
 31
0.0
  0
LINE
  8
21
 10
-5.0
 20
0.0
 30
0.0
 11
-10.8
 21
-3.5
 31
0.0
  0
LINE
  8
HEL035
 10
-11.11905
 20
-3.055575
 30
0.0
 11
-10.439687
 21
-3.991319
 31
0.0
  0
LINE
  8
21
 10
-10.0
 20
-5.0
 30
0.0
 11
-10.0
 21
-2.1
 31
0.0
  0
LINE
  8
21
 10
-12.5
 20
-5.0
 30
0.0
 11
-10.0
 21
-5.0
 31
0.0
  0
LINE
  8
HEL035
 10
-17.5
 20
-5.0
 30
0.0
 11
-12.5
 21
-5.0
 31
0.0
  0
INSERT
  8
BASE
  6
CENTER
  2
BLC22
 10
-15.0
 20
0.0
 30
0.0
  0
LINE
  8
HEL035
 10
-17.5
 20
15.0
 30
0.0
 11
-12.5
 21
15.0
 31
0.0
  0
LINE
  8
21
 10
-12.5
 20
15.0
 30
0.0
 11
-10.0
 21
15.0
 31
0.0
  0
LINE
  8
21
 10
-10.0
 20
15.0
 30
0.0
 11
-10.0
 21
17.9
 31
0.0
  0
LINE
  8
HEL035
 10
-11.11905
 20
16.944425
 30
0.0
 11
-10.439687
 21
16.008681
 31
0.0
  0
LINE
  8
21
 10
-5.0
 20
20.0
 30
0.0
 11
-10.8
 21
16.5
 31
0.0
  0
INSERT
  8
BASE
  6
CENTER
  2
BLC22
 10
-15.0
 20
20.0
 30
0.0
  0
LINE
  8
21
 10
-5.0
 20
40.0
 30
0.0
 11
-10.8
 21
36.5
 31
0.0
  0
LINE
  8
HEL035
 10
-11.11905
 20
36.944425
 30
0.0
 11
-10.439687
 21
36.008681
 31
0.0
  0
LINE
  8
21
 10
-10.0
 20
35.0
 30
0.0
 11
-10.0
 21
37.9
 31
0.0
  0
LINE
  8
21
 10
-12.5
 20
35.0
 30
0.0
 11
-10.0
 21
35.0
 31
0.0
  0
LINE
  8
HEL035
 10
-17.5
 20
35.0
 30
0.0
 11
-12.5
 21
35.0
 31
0.0
  0
INSERT
  8
BASE
  6
CENTER
  2
BLC22
 10
-15.0
 20
40.0
 30
0.0
  0
LINE
  8
BASE
  6
CONTINUOUS
 10
-22.5
 20
0.0
 30
0.0
 11
-32.049385
 21
0.0
 31
0.0
  0
LINE
  8
BASE
  6
CONTINUOUS
 10
-22.5
 20
30.0
 30
0.0
 11
-32.049385
 21
30.0
 31
0.0
  0
LINE
  8
BASE
  6
CONTINUOUS
 10
-5.0
 20
50.0
 30
0.0
 11
0.0
 21
50.0
 31
0.0
  0
LINE
  8
BASE
  6
CONTINUOUS
 10
-5.0
 20
40.0
 30
0.0
 11
0.0
 21
40.0
 31
0.0
  0
LINE
  8
BASE
  6
CONTINUOUS
 10
-5.0
 20
30.0
 30
0.0
 11
0.0
 21
30.0
 31
0.0
  0
LINE
  8
BASE
  6
CONTINUOUS
 10
-5.0
 20
20.0
 30
0.0
 11
0.0
 21
20.0
 31
0.0
  0
LINE
  8
BASE
  6
CONTINUOUS
 10
-5.0
 20
10.0
 30
0.0
 11
0.0
 21
10.0
 31
0.0
  0
LINE
  8
BASE
  6
CONTINUOUS
 10
-5.0
 20
0.0
 30
0.0
 11
0.0
 21
0.0
 31
0.0
  0
ENDBLK
  8
0
  0
BLOCK
  8
0
  2
B8
 70
     0
 10
0.0
 20
0.0
 30
0.0
  3
B8
  0
POLYLINE
  8
0
  6
DASHED
 66
     1
 10
0.0
 20
0.0
 30
0.0
 70
     1
 40
0.25
 41
0.25
 71
     2
 72
   151
  0
VERTEX
  8
0
  6
DASHED
 10
42.125
 20
0.0
 30
0.0
 42
1.0
  0
VERTEX
  8
0
  6
DASHED
 10
42.875
 20
0.0
 30
0.0
 42
1.0
  0
SEQEND
  8
0
  6
DASHED
  0
TEXT
  8
0
  6
CONTINUOUS
 10
13.732328
 20
74.006967
 30
0.0
 40
2.0
  1
L3(T)
 11
13.732328
 21
73.3403
 31
0.0
 73
     1
  0
TEXT
  8
0
  6
CONTINUOUS
 10
13.732328
 20
81.428359
 30
0.0
 40
2.0
  1
L2(S)
 11
13.732328
 21
80.761693
 31
0.0
 73
     1
  0
TEXT
  8
0
  6
CONTINUOUS
 10
13.732328
 20
88.985054
 30
0.0
 40
2.0
  1
L1(R)
 11
13.732328
 21
88.318387
 31
0.0
 73
     1
  0
LINE
  8
0
  6
CONTINUOUS
 10
52.5
 20
22.5
 30
0.0
 11
52.5
 21
0.0
 31
0.0
  0
INSERT
  8
0
  6
DASHED
  2
BLC15
 10
42.357914
 20
-3.489387
 30
0.0
  0
LINE
  8
0
  6
DASHED
 10
57.483152
 20
5.189984
 30
0.0
 11
47.5
 21
5.189984
 31
0.0
  0
LINE
  8
0
  6
DASHED
 10
47.5
 20
0.0
 30
0.0
 11
47.5
 21
5.189984
 31
0.0
  0
INSERT
  8
0
  6
DASHED
  2
BLC15
 10
52.357914
 20
-3.489387
 30
0.0
  0
LINE
  8
0
  6
CONTINUOUS
 10
57.5
 20
7.591425
 30
0.0
 11
52.5
 21
7.591425
 31
0.0
  0
POLYLINE
  8
0
  6
DASHED
 66
     1
 10
0.0
 20
0.0
 30
0.0
 70
     1
 40
0.25
 41
0.25
 71
     2
 72
   151
  0
VERTEX
  8
0
  6
DASHED
 10
42.125
 20
20.0
 30
0.0
 42
1.0
  0
VERTEX
  8
0
  6
DASHED
 10
42.875
 20
20.0
 30
0.0
 42
1.0
  0
SEQEND
  8
0
  6
DASHED
  0
INSERT
  8
0
  6
DASHED
  2
BLC15
 10
42.357916
 20
16.509978
 30
0.0
  0
POLYLINE
  8
0
  6
DASHED
 66
     1
 10
0.0
 20
0.0
 30
0.0
 70
     1
 40
0.25
 41
0.25
 71
     2
 72
   151
  0
VERTEX
  8
0
  6
DASHED
 10
42.117941
 20
25.19257
 30
0.0
 42
1.0
  0
VERTEX
  8
0
  6
DASHED
 10
42.867941
 20
25.19257
 30
0.0
 42
1.0
  0
SEQEND
  8
0
  6
DASHED
  0
LINE
  8
0
  6
DASHED
 10
65.066785
 20
25.189984
 30
0.0
 11
42.5
 21
25.189984
 31
0.0
  0
LINE
  8
0
  6
DASHED
 10
42.5
 20
45.189992
 30
0.0
 11
42.5
 21
20.0
 31
0.0
  0
LINE
  8
0
  6
DASHED
 10
50.0
 20
45.189992
 30
0.0
 11
42.5
 21
45.189992
 31
0.0
  0
POLYLINE
  8
0
  6
DASHED
 66
     1
 10
0.0
 20
0.0
 30
0.0
 70
     1
 40
0.25
 41
0.25
 71
     2
 72
   151
  0
VERTEX
  8
0
  6
DASHED
 10
9.625
 20
20.0
 30
0.0
 42
1.0
  0
VERTEX
  8
0
  6
DASHED
 10
10.375
 20
20.0
 30
0.0
 42
1.0
  0
SEQEND
  8
0
  6
DASHED
  0
LINE
  8
0
  6
DASHED
 10
10.0
 20
40.0
 30
0.0
 11
10.0
 21
20.0
 31
0.0
  0
LINE
  8
0
  6
DASHED
 10
57.5
 20
12.5
 30
0.0
 11
57.5
 21
-7.5
 31
0.0
  0
POLYLINE
  8
0
  6
CONTINUOUS
 66
     1
 10
0.0
 20
0.0
 30
0.0
 70
     1
 40
0.25
 41
0.25
 71
     2
 72
   151
  0
VERTEX
  8
0
  6
CONTINUOUS
 10
52.125
 20
22.5
 30
0.0
 42
1.0
  0
VERTEX
  8
0
  6
CONTINUOUS
 10
52.875
 20
22.5
 30
0.0
 42
1.0
  0
SEQEND
  8
0
  6
CONTINUOUS
  0
INSERT
  8
0
  6
CONTINUOUS
  2
BLC27
 10
58.991155
 20
7.618431
 30
0.0
 50
180.0
  0
POLYLINE
  8
0
  6
CONTINUOUS
 66
     1
 10
0.0
 20
0.0
 30
0.0
 70
     1
 40
0.25
 41
0.25
 71
     2
 72
   151
  0
VERTEX
  8
0
  6
CONTINUOUS
 10
49.625
 20
90.0
 30
0.0
 42
1.0
  0
VERTEX
  8
0
  6
CONTINUOUS
 10
50.375
 20
90.0
 30
0.0
 42
1.0
  0
SEQEND
  8
0
  6
CONTINUOUS
  0
POLYLINE
  8
0
  6
CONTINUOUS
 66
     1
 10
0.0
 20
0.0
 30
0.0
 70
     1
 40
0.25
 41
0.25
 71
     2
 72
   151
  0
VERTEX
  8
0
  6
CONTINUOUS
 10
57.125
 20
82.5
 30
0.0
 42
1.0
  0
VERTEX
  8
0
  6
CONTINUOUS
 10
57.875
 20
82.5
 30
0.0
 42
1.0
  0
SEQEND
  8
0
  6
CONTINUOUS
  0
POLYLINE
  8
0
  6
CONTINUOUS
 66
     1
 10
0.0
 20
0.0
 30
0.0
 70
     1
 40
0.25
 41
0.25
 71
     2
 72
   151
  0
VERTEX
  8
0
  6
CONTINUOUS
 10
64.625
 20
75.0
 30
0.0
 42
1.0
  0
VERTEX
  8
0
  6
CONTINUOUS
 10
65.375
 20
75.0
 30
0.0
 42
1.0
  0
SEQEND
  8
0
  6
CONTINUOUS
  0
LINE
  8
0
  6
CONTINUOUS
 10
65.0
 20
62.5
 30
0.0
 11
64.5
 21
62.0
 31
0.0
  0
LINE
  8
0
  6
CONTINUOUS
 10
65.0
 20
62.5
 30
0.0
 11
64.5
 21
63.0
 31
0.0
  0
LINE
  8
0
  6
CONTINUOUS
 10
65.0
 20
62.5
 30
0.0
 11
65.5
 21
63.0
 31
0.0
  0
LINE
  8
0
  6
CONTINUOUS
 10
65.0
 20
62.5
 30
0.0
 11
65.5
 21
62.0
 31
0.0
  0
LINE
  8
0
  6
CONTINUOUS
 10
57.5
 20
62.5
 30
0.0
 11
57.0
 21
63.0
 31
0.0
  0
LINE
  8
0
  6
CONTINUOUS
 10
57.5
 20
62.5
 30
0.0
 11
57.0
 21
62.0
 31
0.0
  0
LINE
  8
0
  6
CONTINUOUS
 10
57.5
 20
62.5
 30
0.0
 11
58.0
 21
62.0
 31
0.0
  0
LINE
  8
0
  6
CONTINUOUS
 10
57.5
 20
62.5
 30
0.0
 11
58.0
 21
63.0
 31
0.0
  0
LINE
  8
0
  6
CONTINUOUS
 10
50.0
 20
62.5
 30
0.0
 11
49.5
 21
62.0
 31
0.0
  0
LINE
  8
0
  6
CONTINUOUS
 10
50.0
 20
62.5
 30
0.0
 11
50.5
 21
63.0
 31
0.0
  0
LINE
  8
0
  6
CONTINUOUS
 10
50.0
 20
62.5
 30
0.0
 11
50.5
 21
62.0
 31
0.0
  0
LINE
  8
0
  6
CONTINUOUS
 10
50.0
 20
62.5
 30
0.0
 11
49.5
 21
63.0
 31
0.0
  0
LINE
  8
0
  6
CONTINUOUS
 10
65.0
 20
55.0
 30
0.0
 11
62.5
 21
62.5
 31
0.0
  0
LINE
  8
0
  6
CONTINUOUS
 10
57.5
 20
55.0
 30
0.0
 11
55.0
 21
62.5
 31
0.0
  0
LINE
  8
0
  6
CONTINUOUS
 10
50.0
 20
55.0
 30
0.0
 11
47.5
 21
62.5
 31
0.0
  0
LINE
  8
0
  6
CONTINUOUS
 10
57.5
 20
12.5
 30
0.0
 11
62.5
 21
22.5
 31
0.0
  0
LINE
  8
0
  6
CONTINUOUS
 10
57.5
 20
12.5
 30
0.0
 11
52.5
 21
22.5
 31
0.0
  0
LINE
  8
0
  6
CONTINUOUS
 10
50.0
 20
22.5
 30
0.0
 11
65.0
 21
22.5
 31
0.0
  0
INSERT
  8
0
  6
CONTINUOUS
  2
BLC27
 10
66.491158
 20
27.61843
 30
0.0
 50
180.0
  0
LINE
  8
0
  6
DASHED
 10
50.0
 20
75.0
 30
0.0
 11
50.0
 21
90.0
 31
0.0
  0
LINE
  8
0
  6
DASHED
 10
57.5
 20
75.0
 30
0.0
 11
57.5
 21
82.5
 31
0.0
  0
LINE
  8
0
  6
DASHED
 10
80.0
 20
90.0
 30
0.0
 11
22.5
 21
90.0
 31
0.0
  0
LINE
  8
0
  6
DASHED
 10
80.0
 20
82.5
 30
0.0
 11
22.5
 21
82.5
 31
0.0
  0
LINE
  8
0
  6
DASHED
 10
80.0
 20
75.0
 30
0.0
 11
22.5
 21
75.0
 31
0.0
  0
LINE
  8
0
  6
DASHED
 10
65.0
 20
55.0
 30
0.0
 11
65.0
 21
22.5
 31
0.0
  0
LINE
  8
0
  6
DASHED
 10
65.0
 20
75.0
 30
0.0
 11
65.0
 21
62.5
 31
0.0
  0
LINE
  8
0
  6
DASHED
 10
57.5
 20
55.0
 30
0.0
 11
57.5
 21
22.5
 31
0.0
  0
LINE
  8
0
  6
DASHED
 10
57.5
 20
75.0
 30
0.0
 11
57.5
 21
62.5
 31
0.0
  0
LINE
  8
0
  6
DASHED
 10
50.0
 20
62.5
 30
0.0
 11
50.0
 21
75.0
 31
0.0
  0
LINE
  8
0
  6
DASHED
 10
50.0
 20
55.0
 30
0.0
 11
50.0
 21
22.5
 31
0.0
  0
INSERT
  8
0
  6
CONTINUOUS
  2
BLC27
 10
51.491154
 20
47.618433
 30
0.0
 50
180.0
  0
LINE
  8
0
  6
DASHED
 10
0.0
 20
0.0
 30
0.0
 11
47.5
 21
0.0
 31
0.0
  0
LINE
  8
0
  6
DASHED
 10
0.0
 20
10.0
 30
0.0
 11
57.5
 21
10.0
 31
0.0
  0
LINE
  8
0
  6
DASHED
 10
0.0
 20
20.0
 30
0.0
 11
42.5
 21
20.0
 31
0.0
  0
LINE
  8
0
  6
DASHED
 10
0.0
 20
30.0
 30
0.0
 11
65.0
 21
30.0
 31
0.0
  0
LINE
  8
0
  6
DASHED
 10
0.0
 20
40.0
 30
0.0
 11
10.0
 21
40.0
 31
0.0
  0
LINE
  8
0
  6
DASHED
 10
0.0
 20
50.0
 30
0.0
 11
50.0
 21
50.0
 31
0.0
  0
ENDBLK
  8
0
  0
BLOCK
  8
0
  2
B6
 70
     0
 10
0.0
 20
0.0
 30
0.0
  3
B6
  0
TEXT
  8
0
  6
DASHED
 10
0.813324
 20
-6.94985
 30
0.0
 40
2.0
  1
108 SPAJ 122
  0
TEXT
  8
0
  6
DASHED
 10
0.813324
 20
-3.616516
 30
0.0
 40
2.0
  1
101 RTXP 18
  0
TEXT
  8
0
  6
DASHED
 10
22.211341
 20
7.140379
 30
0.0
 40
2.0
  1
4S
  0
TEXT
  8
0
  6
DASHED
 10
9.617517
 20
15.041706
 30
0.0
 40
2.0
  1
30C
  0
TEXT
  8
0
  6
DASHED
 10
9.249881
 20
11.800442
 30
0.0
 40
2.0
  1
108
  0
TEXT
  8
0
  6
DASHED
 10
1.364387
 20
11.816142
 30
0.0
 40
2.0
  1
101  
  0
LINE
  8
0
  6
CONTINUOUS
 10
0.374793
 20
14.318353
 30
0.0
 11
21.053957
 21
14.318353
 31
0.0
  0
LINE
  8
0
  6
CONTINUOUS
 10
21.053957
 20
14.318353
 30
0.0
 11
21.053957
 21
0.172845
 31
0.0
  0
LINE
  8
0
  6
CONTINUOUS
 10
21.053957
 20
0.172845
 30
0.0
 11
0.374793
 21
0.172845
 31
0.0
  0
LINE
  8
0
  6
CONTINUOUS
 10
0.374793
 20
0.172845
 30
0.0
 11
0.374793
 21
14.318353
 31
0.0
  0
LINE
  8
0
  6
CONTINUOUS
 10
6.902051
 20
14.318353
 30
0.0
 11
6.902051
 21
0.172845
 31
0.0
  0
LINE
  8
0
  6
CONTINUOUS
 10
8.716235
 20
14.318353
 30
0.0
 11
8.716235
 21
0.172845
 31
0.0
  0
ENDBLK
  8
0
  0
BLOCK
  8
0
  2
B12
 70
     0
 10
0.0
 20
0.0
 30
0.0
  3
B12
  0
TEXT
  8
0
  6
CONTINUOUS
 10
6.847207
 20
12.309463
 30
0.0
 40
2.5
  1
I
 11
6.847207
 21
11.47613
 31
0.0
 73
     1
  0
LINE
  8
0
  6
CONTINUOUS
 10
4.034791
 20
20.097692
 30
0.0
 11
4.034791
 21
18.309561
 31
0.0
  0
LINE
  8
0
  6
CONTINUOUS
 10
11.849486
 20
20.097692
 30
0.0
 11
11.849486
 21
18.309561
 31
0.0
  0
LINE
  8
0
  6
CONTINUOUS
 10
4.065822
 20
19.252414
 30
0.0
 11
11.854027
 21
19.252414
 31
0.0
  0
LINE
  8
0
  6
CONTINUOUS
 10
6.449967
 20
18.084811
 30
0.0
 11
9.326077
 21
20.91337
 31
0.0
  0
LINE
  8
0
  6
CONTINUOUS
 10
8.871955
 20
21.450576
 30
0.0
 11
9.772631
 21
20.326827
 31
0.0
  0
LINE
  8
0
  6
HIDDEN
 10
11.468023
 20
18.150591
 30
0.0
 11
10.688446
 21
18.216372
 31
0.0
  0
LINE
  8
0
  6
HIDDEN
 10
10.272166
 20
18.309561
 30
0.0
 11
9.197409
 21
18.539792
 31
0.0
  0
LINE
  8
0
  6
HIDDEN
 10
8.894661
 20
18.632981
 30
0.0
 11
7.910728
 21
18.972847
 31
0.0
  0
LINE
  8
0
  6
HIDDEN
 10
7.706373
 20
19.087963
 30
0.0
 11
7.199269
 21
19.778657
 31
0.0
  0
LINE
  8
0
  6
CONTINUOUS
 10
0.315152
 20
28.866096
 30
0.0
 11
16.656177
 21
28.866096
 31
0.0
  0
LINE
  8
0
  6
CONTINUOUS
 10
16.656177
 20
28.866096
 30
0.0
 11
16.656177
 21
0.204294
 31
0.0
  0
TEXT
  8
0
  6
CONTINUOUS
 10
3.832185
 20
12.419301
 30
0.0
 40
2.5
  1
2
 11
3.832185
 21
11.585968
 31
0.0
 73
     1
  0
TEXT
  8
0
  6
CONTINUOUS
 10
3.466231
 20
23.742652
 30
0.0
 40
2.5
  1
2 I
 11
3.466231
 21
22.909319
 31
0.0
 73
     1
  0
LINE
  8
0
  6
CONTINUOUS
 10
10.967551
 20
26.247703
 30
0.0
 11
13.313316
 21
24.912349
 31
0.0
  0
LINE
  8
0
  6
CONTINUOUS
 10
13.313316
 20
24.912349
 30
0.0
 11
10.967551
 21
23.72243
 31
0.0
  0
LINE
  8
0
  6
CONTINUOUS
 10
8.328357
 20
14.830198
 30
0.0
 11
10.674122
 21
13.494844
 31
0.0
  0
LINE
  8
0
  6
CONTINUOUS
 10
10.674122
 20
13.494844
 30
0.0
 11
8.328357
 21
12.304925
 31
0.0
  0
TEXT
  8
0
  6
CONTINUOUS
 10
4.942692
 20
7.246756
 30
0.0
 40
2.5
  1
I
 11
4.942692
 21
6.413423
 31
0.0
 73
     1
  0
LINE
  8
0
  6
CONTINUOUS
 10
7.894719
 20
9.290587
 30
0.0
 11
7.894719
 21
7.945861
 31
0.0
  0
LINE
  8
0
  6
CONTINUOUS
 10
7.000755
 20
7.945861
 30
0.0
 11
7.91191
 21
7.945861
 31
0.0
  0
LINE
  8
0
  6
CONTINUOUS
 10
7.894719
 20
7.945861
 30
0.0
 11
8.788682
 21
7.945861
 31
0.0
  0
LINE
  8
0
  6
CONTINUOUS
 10
7.287282
 20
7.550453
 30
0.0
 11
7.894719
 21
7.550453
 31
0.0
  0
LINE
  8
0
  6
CONTINUOUS
 10
7.894719
 20
7.550453
 30
0.0
 11
8.536539
 21
7.550453
 31
0.0
  0
LINE
  8
0
  6
CONTINUOUS
 10
8.367551
 20
7.188094
 30
0.0
 11
7.457731
 21
7.188094
 31
0.0
  0
LINE
  8
0
 10
0.315152
 20
28.866096
 30
0.0
 11
0.315152
 21
0.204294
 31
0.0
  0
LINE
  8
0
  6
CONTINUOUS
 10
12.507543
 20
13.494844
 30
0.0
 11
10.161777
 21
12.304925
 31
0.0
  0
LINE
  8
0
  6
CONTINUOUS
 10
10.161777
 20
14.830198
 30
0.0
 11
12.507543
 21
13.494844
 31
0.0
  0
LINE
  8
0
  6
CONTINUOUS
 10
4.034791
 20
3.990231
 30
0.0
 11
4.034791
 21
2.202099
 31
0.0
  0
LINE
  8
0
  6
CONTINUOUS
 10
11.849486
 20
3.990231
 30
0.0
 11
11.849486
 21
2.202099
 31
0.0
  0
LINE
  8
0
  6
CONTINUOUS
 10
4.065822
 20
3.144952
 30
0.0
 11
11.854027
 21
3.144952
 31
0.0
  0
LINE
  8
0
  6
CONTINUOUS
 10
6.449967
 20
1.977349
 30
0.0
 11
9.326077
 21
4.805908
 31
0.0
  0
LINE
  8
0
  6
CONTINUOUS
 10
8.871955
 20
5.343115
 30
0.0
 11
9.772631
 21
4.219366
 31
0.0
  0
LINE
  8
0
  6
HIDDEN
 10
11.468023
 20
2.04313
 30
0.0
 11
10.688446
 21
2.10891
 31
0.0
  0
LINE
  8
0
  6
HIDDEN
 10
10.272166
 20
2.202099
 30
0.0
 11
9.197409
 21
2.432331
 31
0.0
  0
LINE
  8
0
  6
HIDDEN
 10
8.894661
 20
2.52552
 30
0.0
 11
7.910728
 21
2.865385
 31
0.0
  0
LINE
  8
0
  6
HIDDEN
 10
7.706373
 20
2.980501
 30
0.0
 11
7.199269
 21
3.671196
 31
0.0
  0
LINE
  8
0
 10
0.315152
 20
0.204294
 30
0.0
 11
16.656177
 21
0.204294
 31
0.0
  0
TEXT
  8
0
  6
DASHED
 10
-6.425168
 20
-8.885769
 30
0.0
 40
2.0
  1
ÖVERSTRÖMSRELÄ
  0
TEXT
  8
0
  6
DASHED
 10
-6.425168
 20
-5.552435
 30
0.0
 40
2.0
  1
OVERCURRENT RELAY
  0
ENDBLK
  8
0
  0
BLOCK
  8
0
  2
B17
 70
     0
 10
0.0
 20
0.0
 30
0.0
  3
B17
  0
TEXT
  8
0
 10
-5.0
 20
-13.107802
 30
0.0
 40
2.0
  1
MOTORSKYDDSRELÄ
 11
-5.0
 21
-13.774469
 31
0.0
 73
     1
  0
TEXT
  8
0
 10
-5.0
 20
-9.774469
 30
0.0
 40
2.0
  1
RELAY
 11
-5.0
 21
-10.441136
 31
0.0
 73
     1
  0
TEXT
  8
0
 10
-5.0
 20
-6.441136
 30
0.0
 40
2.0
  1
MOTOR PROTECTION
 11
-5.0
 21
-7.107802
 31
0.0
 73
     1
  0
INSERT
  8
0
  2
BLC16
 10
0.0
 20
0.0
 30
0.0
  0
ENDBLK
  8
0
  0
BLOCK
  8
0
  2
B20
 70
     0
 10
0.0
 20
0.0
 30
0.0
  3
B20
  0
INSERT
  8
0
  6
CONTINUOUS
  2
BLC25
 10
-0.49118
 20
1.171798
 30
0.0
  0
ENDBLK
  8
0
  0
BLOCK
  8
0
  2
BLC25
 70
    64
 10
0.0
 20
0.0
 30
0.0
  3
BLC25
  0
TEXT
  8
0
  6
CONTINUOUS
 10
2.0
 20
30.666667
 30
0.0
 40
2.0
  1
1)
 11
2.0
 21
30.0
 31
0.0
 73
     1
  0
TEXT
  8
0
 10
6.0
 20
2.0
 30
0.0
 40
2.0
  1
7B    27     26
 11
6.0
 21
1.333333
 31
0.0
 73
     1
  0
TEXT
  8
0
 10
6.0
 20
5.333333
 30
0.0
 40
2.0
  1
5B     9      8
 11
6.0
 21
4.666667
 31
0.0
 73
     1
  0
TEXT
  8
0
 10
6.0
 20
8.666667
 30
0.0
 40
2.0
  1
3B     3      2
 11
6.0
 21
8.0
 31
0.0
 73
     1
  0
TEXT
  8
0
 10
32.0
 20
12.666667
 30
0.0
 40
2.0
  1
In=5A
 11
32.0
 21
12.0
 31
0.0
 73
     1
  0
TEXT
  8
0
 10
16.0
 20
12.666667
 30
0.0
 40
2.0
  1
In=1A 
 11
16.0
 21
12.0
 31
0.0
 73
     1
  0
TEXT
  8
0
 10
26.0
 20
18.666667
 30
0.0
 40
2.0
  1
108:
 11
26.0
 21
18.0
 31
0.0
 73
     1
  0
TEXT
  8
0
 10
6.0
 20
18.666667
 30
0.0
 40
2.0
  1
101:       
 11
6.0
 21
18.0
 31
0.0
 73
     1
  0
TEXT
  8
0
 10
6.0
 20
24.666667
 30
0.0
 40
2.0
  1
TERMINALS / UTTAG
 11
6.0
 21
24.0
 31
0.0
 73
     1
  0
LINE
  8
0
 10
0.0
 20
12.0
 30
0.0
 11
44.0
 21
12.0
 31
0.0
  0
LINE
  8
0
 10
28.0
 20
18.0
 30
0.0
 11
28.0
 21
0.0
 31
0.0
  0
LINE
  8
0
 10
14.0
 20
18.0
 30
0.0
 11
44.0
 21
18.0
 31
0.0
  0
LINE
  8
0
 10
14.0
 20
24.0
 30
0.0
 11
14.0
 21
0.0
 31
0.0
  0
LINE
  8
0
 10
0.0
 20
24.0
 30
0.0
 11
44.0
 21
24.0
 31
0.0
  0
LINE
  8
0
 10
44.0
 20
0.0
 30
0.0
 11
44.0
 21
30.0
 31
0.0
  0
LINE
  8
0
 10
0.0
 20
0.0
 30
0.0
 11
44.0
 21
0.0
 31
0.0
  0
LINE
  8
0
 10
0.0
 20
30.0
 30
0.0
 11
0.0
 21
0.0
 31
0.0
  0
LINE
  8
0
 10
44.0
 20
30.0
 30
0.0
 11
0.0
 21
30.0
 31
0.0
  0
ENDBLK
  8
0
  0
BLOCK
  8
0
  2
B27
 70
     0
 10
0.0
 20
0.0
 30
0.0
  3
B27
  0
LINE
  8
BASE
  6
CONTINUOUS
 10
-5.0
 20
0.0
 30
0.0
 11
7.5
 21
0.0
 31
0.0
  0
LINE
  8
BASE
  6
CONTINUOUS
 10
-5.0
 20
5.0
 30
0.0
 11
-5.0
 21
0.0
 31
0.0
  0
LINE
  8
BASE
  6
CONTINUOUS
 10
-2.5
 20
5.0
 30
0.0
 11
-2.5
 21
13.652485
 31
0.0
  0
LINE
  8
BASE
  6
CONTINUOUS
 10
7.5
 20
5.0
 30
0.0
 11
7.5
 21
0.0
 31
0.0
  0
LINE
  8
BASE
  6
CONTINUOUS
 10
7.5
 20
5.0
 30
0.0
 11
-5.0
 21
5.0
 31
0.0
  0
LINE
  8
BASE
  6
CONTINUOUS
 10
5.0
 20
7.5
 30
0.0
 11
5.0
 21
10.0
 31
0.0
  0
LINE
  8
BASE
  6
CONTINUOUS
 10
2.5
 20
7.5
 30
0.0
 11
2.5
 21
10.0
 31
0.0
  0
LINE
  8
BASE
  6
CONTINUOUS
 10
0.0
 20
5.0
 30
0.0
 11
0.0
 21
13.652485
 31
0.0
  0
LINE
  8
BASE
  6
CONTINUOUS
 10
0.0
 20
-2.5
 30
0.0
 11
0.0
 21
-7.5
 31
0.0
  0
LINE
  8
BASE
  6
CONTINUOUS
 10
2.5
 20
5.0
 30
0.0
 11
2.5
 21
7.5
 31
0.0
  0
LINE
  8
BASE
  6
CONTINUOUS
 10
5.0
 20
5.0
 30
0.0
 11
5.0
 21
7.5
 31
0.0
  0
LINE
  8
BASE
  6
CONTINUOUS
 10
0.0
 20
0.0
 30
0.0
 11
0.0
 21
-2.5
 31
0.0
  0
LINE
  8
BASE
  6
CONTINUOUS
 10
1.24635
 20
2.789195
 30
0.0
 11
-1.099415
 21
1.599276
 31
0.0
  0
LINE
  8
BASE
  6
CONTINUOUS
 10
-1.107457
 20
0.799262
 30
0.0
 11
1.276004
 21
1.987454
 31
0.0
  0
LINE
  8
BASE
  6
CONTINUOUS
 10
-1.099415
 20
4.124549
 30
0.0
 11
1.24635
 21
2.789195
 31
0.0
  0
TEXT
  8
BASE
  6
CONTINUOUS
 10
3.334447
 20
1.464455
 30
0.0
 40
2.5
  1
1
 11
3.334447
 21
0.631122
 31
0.0
 73
     1
  0
ENDBLK
  8
0
  0
BLOCK
  8
0
  2
B28
 70
     0
 10
0.0
 20
0.0
 30
0.0
  3
B28
  0
TEXT
  8
BASE
  6
CENTER
 10
-5.533251
 20
-72.779029
 30
0.0
 40
2.0
  1
10A
  0
TEXT
  8
BASE
  6
CENTER
 10
-4.498916
 20
-62.62865
 30
0.0
 40
2.0
  1
9A
  0
LINE
  8
BASE
  6
CONTINUOUS
 10
-22.5
 20
-35.0
 30
0.0
 11
-22.5
 21
-55.0
 31
0.0
  0
LINE
  8
BASE
  6
CONTINUOUS
 10
-5.0
 20
-70.0
 30
0.0
 11
0.0
 21
-70.0
 31
0.0
  0
LINE
  8
BASE
  6
CONTINUOUS
 10
-5.0
 20
-60.0
 30
0.0
 11
0.0
 21
-60.0
 31
0.0
  0
LINE
  8
BASE
 10
-11.11905
 20
-73.055575
 30
0.0
 11
-10.439687
 21
-73.991319
 31
0.0
  0
LINE
  8
BASE
 10
-5.0
 20
-70.0
 30
0.0
 11
-10.8
 21
-73.5
 31
0.0
  0
LINE
  8
BASE
 10
-10.0
 20
-75.0
 30
0.0
 11
-10.0
 21
-72.1
 31
0.0
  0
LINE
  8
BASE
 10
-12.5
 20
-75.0
 30
0.0
 11
-10.0
 21
-75.0
 31
0.0
  0
INSERT
  8
BASE
  6
CENTER
  2
BLC22
 10
-15.0
 20
-70.0
 30
0.0
  0
LINE
  8
BASE
  6
CONTINUOUS
 10
-20.0
 20
-65.0
 30
0.0
 11
-17.5
 21
-65.0
 31
0.0
  0
LINE
  8
BASE
  6
CONTINUOUS
 10
-20.0
 20
-75.0
 30
0.0
 11
-17.5
 21
-75.0
 31
0.0
  0
LINE
  8
BASE
 10
-17.5
 20
-75.0
 30
0.0
 11
-12.5
 21
-75.0
 31
0.0
  0
LINE
  8
BASE
  6
CONTINUOUS
 10
-5.0
 20
-50.0
 30
0.0
 11
0.0
 21
-50.0
 31
0.0
  0
LINE
  8
BASE
  6
CONTINUOUS
 10
-5.0
 20
-40.0
 30
0.0
 11
0.0
 21
-40.0
 31
0.0
  0
LINE
  8
BASE
  6
CONTINUOUS
 10
-5.0
 20
-30.0
 30
0.0
 11
0.0
 21
-30.0
 31
0.0
  0
LINE
  8
BASE
  6
CONTINUOUS
 10
-5.0
 20
-20.0
 30
0.0
 11
0.0
 21
-20.0
 31
0.0
  0
LINE
  8
BASE
  6
CONTINUOUS
 10
-5.0
 20
-10.0
 30
0.0
 11
0.0
 21
-10.0
 31
0.0
  0
LINE
  8
BASE
  6
CONTINUOUS
 10
-5.0
 20
0.0
 30
0.0
 11
0.0
 21
0.0
 31
0.0
  0
INSERT
  8
BASE
  6
CENTER
  2
BLC22
 10
-15.0
 20
-10.0
 30
0.0
  0
LINE
  8
BASE
 10
-17.5
 20
-15.0
 30
0.0
 11
-12.5
 21
-15.0
 31
0.0
  0
LINE
  8
BASE
 10
-12.5
 20
-15.0
 30
0.0
 11
-10.0
 21
-15.0
 31
0.0
  0
LINE
  8
BASE
 10
-10.0
 20
-15.0
 30
0.0
 11
-10.0
 21
-12.1
 31
0.0
  0
LINE
  8
BASE
 10
-11.11905
 20
-13.055575
 30
0.0
 11
-10.439687
 21
-13.991319
 31
0.0
  0
LINE
  8
BASE
 10
-5.0
 20
-10.0
 30
0.0
 11
-10.8
 21
-13.5
 31
0.0
  0
INSERT
  8
BASE
  6
CENTER
  2
BLC22
 10
-15.0
 20
-30.0
 30
0.0
  0
LINE
  8
BASE
 10
-5.0
 20
-30.0
 30
0.0
 11
-10.8
 21
-33.5
 31
0.0
  0
LINE
  8
BASE
 10
-11.11905
 20
-33.055575
 30
0.0
 11
-10.439687
 21
-33.991319
 31
0.0
  0
LINE
  8
BASE
 10
-10.0
 20
-35.0
 30
0.0
 11
-10.0
 21
-32.1
 31
0.0
  0
LINE
  8
BASE
 10
-12.5
 20
-35.0
 30
0.0
 11
-10.0
 21
-35.0
 31
0.0
  0
LINE
  8
BASE
 10
-17.5
 20
-35.0
 30
0.0
 11
-12.5
 21
-35.0
 31
0.0
  0
INSERT
  8
BASE
  6
CENTER
  2
BLC22
 10
-15.0
 20
-50.0
 30
0.0
  0
LINE
  8
BASE
 10
-17.5
 20
-55.0
 30
0.0
 11
-12.5
 21
-55.0
 31
0.0
  0
LINE
  8
BASE
 10
-12.5
 20
-55.0
 30
0.0
 11
-10.0
 21
-55.0
 31
0.0
  0
LINE
  8
BASE
 10
-10.0
 20
-55.0
 30
0.0
 11
-10.0
 21
-52.1
 31
0.0
  0
LINE
  8
BASE
 10
-11.11905
 20
-53.055575
 30
0.0
 11
-10.439687
 21
-53.991319
 31
0.0
  0
LINE
  8
BASE
 10
-5.0
 20
-50.0
 30
0.0
 11
-10.8
 21
-53.5
 31
0.0
  0
LINE
  8
BASE
  6
CONTINUOUS
 10
-22.5
 20
-5.0
 30
0.0
 11
-22.5
 21
-35.0
 31
0.0
  0
LINE
  8
BASE
  6
CONTINUOUS
 10
-22.5
 20
-5.0
 30
0.0
 11
-21.5
 21
-4.0
 31
0.0
  0
LINE
  8
BASE
  6
CONTINUOUS
 10
-22.5
 20
-55.0
 30
0.0
 11
-21.5
 21
-56.0
 31
0.0
  0
LINE
  8
BASE
  6
CONTINUOUS
 10
-22.5
 20
-65.0
 30
0.0
 11
-22.5
 21
-75.0
 31
0.0
  0
LINE
  8
BASE
  6
CONTINUOUS
 10
-22.5
 20
-75.0
 30
0.0
 11
-21.5
 21
-76.0
 31
0.0
  0
LINE
  8
BASE
  6
CONTINUOUS
 10
-22.5
 20
-65.0
 30
0.0
 11
-21.5
 21
-64.0
 31
0.0
  0
LINE
  8
BASE
  6
CONTINUOUS
 10
-20.0
 20
-5.0
 30
0.0
 11
-17.5
 21
-5.0
 31
0.0
  0
LINE
  8
BASE
  6
CONTINUOUS
 10
-20.0
 20
-15.0
 30
0.0
 11
-17.5
 21
-15.0
 31
0.0
  0
LINE
  8
BASE
  6
CONTINUOUS
 10
-20.0
 20
-25.0
 30
0.0
 11
-17.5
 21
-25.0
 31
0.0
  0
LINE
  8
BASE
  6
CONTINUOUS
 10
-20.0
 20
-35.0
 30
0.0
 11
-17.5
 21
-35.0
 31
0.0
  0
LINE
  8
BASE
  6
CONTINUOUS
 10
-20.0
 20
-45.0
 30
0.0
 11
-17.5
 21
-45.0
 31
0.0
  0
LINE
  8
BASE
  6
CONTINUOUS
 10
-20.0
 20
-55.0
 30
0.0
 11
-17.5
 21
-55.0
 31
0.0
  0
TEXT
  8
BASE
  6
CONTINUOUS
 10
-20.369738
 20
-1.580862
 30
0.0
 40
1.5
  1
101
  0
TEXT
  8
BASE
  6
CONTINUOUS
 10
-4.579696
 20
-3.041778
 30
0.0
 40
2.0
  1
3A
  0
TEXT
  8
BASE
  6
CONTINUOUS
 10
-4.579696
 20
-12.551042
 30
0.0
 40
2.0
  1
4A
  0
TEXT
  8
BASE
  6
CONTINUOUS
 10
-4.579696
 20
-22.813467
 30
0.0
 40
2.0
  1
5A
  0
TEXT
  8
BASE
  6
CONTINUOUS
 10
-4.579696
 20
-32.92526
 30
0.0
 40
2.0
  1
6A
  0
TEXT
  8
BASE
  6
CONTINUOUS
 10
-4.579696
 20
-43.037053
 30
0.0
 40
2.0
  1
7A
  0
TEXT
  8
BASE
  6
CONTINUOUS
 10
-4.579696
 20
-52.847581
 30
0.0
 40
2.0
  1
8A
  0
LINE
  8
BASE
  6
CENTER
 10
0.0
 20
-2.5
 30
0.0
 11
0.0
 21
-25.0
 31
0.0
  0
LINE
  8
BASE
  6
CONTINUOUS
 10
0.0
 20
-37.5
 30
0.0
 11
0.0
 21
-37.5
 31
0.0
  0
LINE
  8
BASE
  6
CONTINUOUS
 10
-22.5
 20
-70.0
 30
0.0
 11
-30.0
 21
-70.0
 31
0.0
  0
INSERT
  8
BASE
  6
CONTINUOUS
  2
BLC29
 10
-25.505406
 20
-70.128467
 30
0.0
 50
180.0
  0
LINE
  8
BASE
  6
CONTINUOUS
 10
-22.5
 20
-30.0
 30
0.0
 11
-32.049385
 21
-30.0
 31
0.0
  0
INSERT
  8
BASE
  6
CONTINUOUS
  2
BLC29
 10
-25.505406
 20
-30.128476
 30
0.0
 50
180.0
  0
ENDBLK
  8
0
  0
BLOCK
  8
0
  2
B29
 70
     0
 10
0.0
 20
0.0
 30
0.0
  3
B29
  0
LINE
  8
0
  6
CONTINUOUS
 10
0.0
 20
0.0
 30
0.0
 11
0.0
 21
-0.672626
 31
0.0
  0
ARC
  8
0
  6
CONTINUOUS
 10
0.0
 20
-1.421276
 30
0.0
 40
0.74865
 50
270.0
 51
90.0
  0
ARC
  8
0
  6
CONTINUOUS
 10
0.0
 20
-2.918575
 30
0.0
 40
0.74865
 50
270.0
 51
90.0
  0
ARC
  8
0
  6
CONTINUOUS
 10
0.0
 20
-4.415875
 30
0.0
 40
0.74865
 50
270.0
 51
90.0
  0
ARC
  8
0
  6
CONTINUOUS
 10
0.0
 20
-5.913174
 30
0.0
 40
0.74865
 50
270.0
 51
90.0
  0
LINE
  8
0
  6
CONTINUOUS
 10
0.0
 20
-6.661823
 30
0.0
 11
0.0
 21
-7.334452
 31
0.0
  0
ENDBLK
  8
0
  0
BLOCK
  8
0
  2
ABBA3V
 70
    64
 10
0.0
 20
0.0
 30
0.0
  3
ABBA3V
  0
TEXT
  8
RAAMI
  6
DASHED
 10
292.217194
 20
11.813359
 30
0.0
 40
3.0
  1
A3
  7
GREEKS
  0
TEXT
  8
RAAMI
  6
DASHED
 10
351.818577
 20
15.69253
 30
0.0
 40
1.4
  1
LEHTI SHEET
  7
GREEKS
  0
LINE
  8
PAKSU
 10
0.237099
 20
262.737999
 30
0.0
 11
392.237099
 21
262.737999
 31
0.0
  0
LINE
  8
RAAMI
 10
18.237099
 20
0.237999
 30
0.0
 11
0.237099
 21
0.237999
 31
0.0
  0
LINE
  8
PAKSU
 10
209.237099
 20
0.237999
 30
0.0
 11
392.237099
 21
0.237999
 31
0.0
  0
LINE
  8
PAKSU
 10
209.237099
 20
0.237999
 30
0.0
 11
209.237099
 21
35.237999
 31
0.0
  0
LINE
  8
PAKSU
 10
392.237099
 20
0.237999
 30
0.0
 11
392.237099
 21
35.237999
 31
0.0
  0
LINE
  8
OHUT
 10
209.237099
 20
18.237999
 30
0.0
 11
392.237099
 21
18.237999
 31
0.0
  0
LINE
  8
OHUT
 10
209.237099
 20
9.737999
 30
0.0
 11
392.237099
 21
9.737999
 31
0.0
  0
LINE
  8
OHUT
 10
209.237099
 20
26.737999
 30
0.0
 11
307.237099
 21
26.737999
 31
0.0
  0
LINE
  8
PAKSU
 10
209.237099
 20
35.237999
 30
0.0
 11
392.237099
 21
35.237999
 31
0.0
  0
TEXT
  8
RAAMI
 10
210.237099
 20
23.971333
 30
0.0
 40
1.4
  1
TARKASTI  CHECKED
  7
ROMANS
  0
TEXT
  8
RAAMI
 10
209.979934
 20
15.704666
 30
0.0
 40
1.4
  1
HYVÄKSYI  APPROVED
  7
ROMANS
  0
LINE
  8
OHUT
 10
307.237099
 20
0.237999
 30
0.0
 11
307.237099
 21
35.237999
 31
0.0
  0
TEXT
  8
RAAMI
 10
259.237099
 20
32.737999
 30
0.0
 40
1.4
  1
LIITTYY  CONCERNING
  7
ROMANS
  0
TEXT
  8
RAAMI
 10
259.237099
 20
23.737999
 30
0.0
 40
1.4
  1
TOLERANSSIT  TOLERANCES
  7
ROMANS
  0
TEXT
  8
RAAMI
 10
259.237099
 20
15.737999
 30
0.0
 40
1.4
  1
SUHDE  SCALE
  7
ROMANS
  0
TEXT
  8
RAAMI
 10
309.237099
 20
32.737999
 30
0.0
 40
1.4
  1
NIMITYS  NAME
  7
ROMANS
  0
TEXT
  8
RAAMI
 10
309.237099
 20
15.737999
 30
0.0
 40
1.4
  1
KOODI  CODE
  7
ROMANS
  0
TEXT
  8
RAAMI
 10
309.237099
 20
7.237999
 30
0.0
 40
1.4
  1
PIIRUSTUS NO  DRAWING NR
  7
ROMANS
  0
LINE
  8
OHUT
 10
349.737099
 20
9.737999
 30
0.0
 11
349.737099
 21
18.237999
 31
0.0
  0
TEXT
  8
RAAMI
 10
371.237099
 20
7.237999
 30
0.0
 40
1.4
  1
PAINOS  REVISION
  7
ROMANS
  0
LINE
  8
OHUT
 10
369.737099
 20
9.737999
 30
0.0
 11
369.737099
 21
0.237999
 31
0.0
  0
LINE
  8
RAAMI
 10
210.187099
 20
1.737999
 30
0.0
 11
211.937099
 21
1.737999
 31
0.0
  0
LINE
  8
RAAMI
 10
215.437099
 20
1.737999
 30
0.0
 11
217.187099
 21
1.737999
 31
0.0
  0
LINE
  8
RAAMI
 10
212.637099
 20
8.737999
 30
0.0
 11
211.459571
 21
5.373634
 31
0.0
  0
LINE
  8
RAAMI
 10
212.425886
 20
3.137999
 30
0.0
 11
213.547099
 21
3.137999
 31
0.0
  0
LINE
  8
RAAMI
 10
212.425889
 20
3.134542
 30
0.0
 11
211.937099
 21
1.737999
 31
0.0
  0
LINE
  8
RAAMI
 10
214.737099
 20
8.737999
 30
0.0
 11
215.913452
 21
5.376991
 31
0.0
  0
LINE
  8
RAAMI
 10
214.948197
 20
3.134863
 30
0.0
 11
215.437099
 21
1.737999
 31
0.0
  0
LINE
  8
RAAMI
 10
214.737099
 20
8.737999
 30
0.0
 11
213.827099
 21
8.737999
 31
0.0
  0
LINE
  8
RAAMI
 10
213.547099
 20
8.737999
 30
0.0
 11
213.547099
 21
5.377999
 31
0.0
  0
LINE
  8
RAAMI
 10
213.827099
 20
8.737999
 30
0.0
 11
213.827099
 21
5.377999
 31
0.0
  0
LINE
  8
RAAMI
 10
213.827099
 20
3.137999
 30
0.0
 11
214.946992
 21
3.137999
 31
0.0
  0
LINE
  8
RAAMI
 10
213.547099
 20
8.737999
 30
0.0
 11
212.637099
 21
8.737999
 31
0.0
  0
LINE
  8
RAAMI
 10
211.45904
 20
5.377999
 30
0.0
 11
213.547099
 21
5.377999
 31
0.0
  0
LINE
  8
RAAMI
 10
211.360082
 20
5.097999
 30
0.0
 11
213.547099
 21
5.097999
 31
0.0
  0
LINE
  8
RAAMI
 10
216.011591
 20
5.096594
 30
0.0
 11
217.187099
 21
1.737999
 31
0.0
  0
LINE
  8
RAAMI
 10
213.827099
 20
5.377999
 30
0.0
 11
215.912213
 21
5.377999
 31
0.0
  0
LINE
  8
RAAMI
 10
213.827099
 20
5.097999
 30
0.0
 11
216.010356
 21
5.097999
 31
0.0
  0
LINE
  8
RAAMI
 10
213.827099
 20
5.097999
 30
0.0
 11
213.827099
 21
3.137999
 31
0.0
  0
LINE
  8
RAAMI
 10
213.547099
 20
5.097999
 30
0.0
 11
213.547099
 21
3.137999
 31
0.0
  0
LINE
  8
RAAMI
 10
211.356988
 20
5.080538
 30
0.0
 11
210.187099
 21
1.737999
 31
0.0
  0
INSERT
  8
RAAMI
  2
*X56
 10
210.187099
 20
1.737999
 30
0.0
 41
0.7
 42
0.7
 43
0.7
  0
INSERT
  8
RAAMI
  2
*X57
 10
210.187099
 20
1.737999
 30
0.0
 41
0.7
 42
0.7
 43
0.7
  0
INSERT
  8
RAAMI
  2
*X58
 10
210.187099
 20
1.737999
 30
0.0
 41
0.7
 42
0.7
 43
0.7
  0
INSERT
  8
RAAMI
  2
*X59
 10
210.187099
 20
1.737999
 30
0.0
 41
0.7
 42
0.7
 43
0.7
  0
LINE
  8
RAAMI
 10
217.677099
 20
1.737999
 30
0.0
 11
217.677099
 21
5.097999
 31
0.0
  0
LINE
  8
RAAMI
 10
217.677099
 20
8.737999
 30
0.0
 11
219.637099
 21
8.737999
 31
0.0
  0
LINE
  8
RAAMI
 10
219.637099
 20
8.737999
 30
0.0
 11
219.637099
 21
5.377999
 31
0.0
  0
LINE
  8
RAAMI
 10
219.637099
 20
5.377999
 30
0.0
 11
217.677099
 21
5.377999
 31
0.0
  0
LINE
  8
RAAMI
 10
217.677099
 20
5.097999
 30
0.0
 11
219.637099
 21
5.097999
 31
0.0
  0
LINE
  8
RAAMI
 10
219.637099
 20
5.097999
 30
0.0
 11
219.637099
 21
1.737999
 31
0.0
  0
LINE
  8
RAAMI
 10
219.637099
 20
1.737999
 30
0.0
 11
217.677099
 21
1.737999
 31
0.0
  0
LINE
  8
RAAMI
 10
217.677099
 20
5.377999
 30
0.0
 11
217.677099
 21
8.737999
 31
0.0
  0
ARC
  8
RAAMI
 10
220.477099
 20
7.162999
 30
0.0
 40
1.575
 50
298.455859
 51
90.052437
  0
LINE
  8
RAAMI
 10
219.917099
 20
8.737999
 30
0.0
 11
220.475658
 21
8.737999
 31
0.0
  0
LINE
  8
RAAMI
 10
219.917099
 20
8.737999
 30
0.0
 11
219.917099
 21
5.377999
 31
0.0
  0
LINE
  8
RAAMI
 10
219.917099
 20
5.377999
 30
0.0
 11
221.901542
 21
5.377999
 31
0.0
  0
LINE
  8
RAAMI
 10
222.157099
 20
5.097999
 30
0.0
 11
219.917099
 21
5.097999
 31
0.0
  0
LINE
  8
RAAMI
 10
219.917099
 20
5.097999
 30
0.0
 11
219.917099
 21
1.737999
 31
0.0
  0
ARC
  8
RAAMI
 10
220.477099
 20
3.837999
 30
0.0
 40
2.1
 50
269.937724
 51
37.056553
  0
LINE
  8
RAAMI
 10
219.917099
 20
1.737999
 30
0.0
 11
220.474817
 21
1.738
 31
0.0
  0
ARC
  8
RAAMI
 10
220.477099
 20
3.837999
 30
0.0
 40
2.1
 50
47.28622
 51
68.787999
  0
INSERT
  8
RAAMI
  2
*X60
 10
210.187099
 20
1.737999
 30
0.0
 41
0.7
 42
0.7
 43
0.7
  0
INSERT
  8
RAAMI
  2
*X61
 10
210.187099
 20
1.737999
 30
0.0
 41
0.7
 42
0.7
 43
0.7
  0
INSERT
  8
RAAMI
  2
*X62
 10
210.187099
 20
1.737999
 30
0.0
 41
0.7
 42
0.7
 43
0.7
  0
INSERT
  8
RAAMI
  2
*X63
 10
210.187099
 20
1.737999
 30
0.0
 41
0.7
 42
0.7
 43
0.7
  0
INSERT
  8
RAAMI
  2
*X63
 10
215.647099
 20
1.737999
 30
0.0
 41
0.7
 42
0.7
 43
0.7
  0
INSERT
  8
RAAMI
  2
*X62
 10
215.647099
 20
1.737999
 30
0.0
 41
0.7
 42
0.7
 43
0.7
  0
INSERT
  8
RAAMI
  2
*X61
 10
215.647099
 20
1.737999
 30
0.0
 41
0.7
 42
0.7
 43
0.7
  0
INSERT
  8
RAAMI
  2
*X60
 10
215.647099
 20
1.737999
 30
0.0
 41
0.7
 42
0.7
 43
0.7
  0
ARC
  8
RAAMI
 10
225.937099
 20
3.837999
 30
0.0
 40
2.1
 50
47.28622
 51
68.787999
  0
LINE
  8
RAAMI
 10
225.377099
 20
1.737999
 30
0.0
 11
225.934817
 21
1.738
 31
0.0
  0
ARC
  8
RAAMI
 10
225.937099
 20
3.837999
 30
0.0
 40
2.1
 50
269.937724
 51
37.056553
  0
LINE
  8
RAAMI
 10
225.377099
 20
5.097999
 30
0.0
 11
225.377099
 21
1.737999
 31
0.0
  0
LINE
  8
RAAMI
 10
227.617099
 20
5.097999
 30
0.0
 11
225.377099
 21
5.097999
 31
0.0
  0
LINE
  8
RAAMI
 10
225.377099
 20
5.377999
 30
0.0
 11
227.361542
 21
5.377999
 31
0.0
  0
LINE
  8
RAAMI
 10
225.377099
 20
8.737999
 30
0.0
 11
225.377099
 21
5.377999
 31
0.0
  0
LINE
  8
RAAMI
 10
225.377099
 20
8.737999
 30
0.0
 11
225.935658
 21
8.737999
 31
0.0
  0
ARC
  8
RAAMI
 10
225.937099
 20
7.162999
 30
0.0
 40
1.575
 50
298.455859
 51
90.052437
  0
LINE
  8
RAAMI
 10
223.137099
 20
5.377999
 30
0.0
 11
223.137099
 21
8.737999
 31
0.0
  0
LINE
  8
RAAMI
 10
225.097099
 20
1.737999
 30
0.0
 11
223.137099
 21
1.737999
 31
0.0
  0
LINE
  8
RAAMI
 10
225.097099
 20
5.097999
 30
0.0
 11
225.097099
 21
1.737999
 31
0.0
  0
LINE
  8
RAAMI
 10
223.137099
 20
5.097999
 30
0.0
 11
225.097099
 21
5.097999
 31
0.0
  0
LINE
  8
RAAMI
 10
225.097099
 20
5.377999
 30
0.0
 11
223.137099
 21
5.377999
 31
0.0
  0
LINE
  8
RAAMI
 10
225.097099
 20
8.737999
 30
0.0
 11
225.097099
 21
5.377999
 31
0.0
  0
LINE
  8
RAAMI
 10
223.137099
 20
8.737999
 30
0.0
 11
225.097099
 21
8.737999
 31
0.0
  0
LINE
  8
RAAMI
 10
223.137099
 20
1.737999
 30
0.0
 11
223.137099
 21
5.097999
 31
0.0
  0
TEXT
  8
RAAMI
 10
229.737099
 20
1.737999
 30
0.0
 40
3.0
  1
ABB 
 41
0.8
  7
ROMANS
  0
TEXT
  8
RAAMI
 10
237.737099
 20
1.737999
 30
0.0
 40
3.0
  1
Strömberg
 41
0.8
  7
ROMANS
  0
LINE
  8
OHUT
 10
282.237099
 20
9.737999
 30
0.0
 11
282.237099
 21
18.237999
 31
0.0
  0
TEXT
  8
RAAMI
 10
27.737099
 20
4.737999
 30
0.0
 40
1.4
  1
MUUTOS
  7
ROMANS
  0
TEXT
  8
RAAMI
 10
27.737099
 20
2.471333
 30
0.0
 40
1.4
  1
REVISION
  7
ROMANS
  0
LINE
  8
OHUT
 10
46.737099
 20
9.237999
 30
0.0
 11
209.237099
 21
9.237999
 31
0.0
  0
LINE
  8
OHUT
 10
46.737099
 20
0.237999
 30
0.0
 11
46.737099
 21
9.237999
 31
0.0
  0
LINE
  8
OHUT
 10
40.737099
 20
4.737999
 30
0.0
 11
209.237099
 21
4.737999
 31
0.0
  0
LINE
  8
OHUT
 10
257.237099
 20
9.737999
 30
0.0
 11
257.237099
 21
35.237999
 31
0.0
  0
LINE
  8
OHUT
 10
271.237099
 20
9.737999
 30
0.0
 11
271.237099
 21
0.237999
 31
0.0
  0
TEXT
  8
RAAMI
 10
210.237099
 20
32.237999
 30
0.0
 40
1.4
  1
TEKI  PREPARED
  7
ROMANS
  0
TEXT
  8
RAAMI
 10
273.237099
 20
7.237999
 30
0.0
 40
1.4
  1
VAST.OSASTO RESP.DEPT.
  7
ROMANS
  0
TEXT
  8
RAAMI
 10
257.407006
 20
1.741783
 30
0.0
 40
3.0
  1
Power
 41
0.8
  7
ROMANS
  0
TEXT
  8
RAAMI
 10
42.237099
 20
1.195292
 30
0.0
 40
2.5
  1
B
  7
ROMANS
  0
TEXT
  8
RAAMI
 10
42.237099
 20
5.587508
 30
0.0
 40
2.5
  1
C
  7
ROMANS
  0
LINE
  8
PAKSU
 10
0.237099
 20
0.237999
 30
0.0
 11
392.237099
 21
0.237999
 31
0.0
  0
LINE
  8
PAKSU
 10
392.237099
 20
262.737999
 30
0.0
 11
392.237099
 21
0.237999
 31
0.0
  0
LINE
  8
PAKSU
 10
0.237099
 20
0.237999
 30
0.0
 11
0.237099
 21
262.737999
 31
0.0
  0
ENDBLK
  8
0
  0
BLOCK
  8
0
  2
*X56
 70
    65
 10
0.0
 20
0.0
 30
0.0
  3
*X
  0
LINE
  8
0
 62
     0
 10
2.284499
 20
6.52714
 30
0.0
 11
4.8
 21
9.042641
 31
0.0
  0
LINE
  8
0
 62
     0
 10
2.379686
 20
6.799104
 30
0.0
 11
4.8
 21
9.219417
 31
0.0
  0
LINE
  8
0
 62
     0
 10
2.474874
 20
7.071068
 30
0.0
 11
4.8
 21
9.396194
 31
0.0
  0
LINE
  8
0
 62
     0
 10
2.570061
 20
7.343032
 30
0.0
 11
4.8
 21
9.572971
 31
0.0
  0
LINE
  8
0
 62
     0
 10
2.665249
 20
7.614996
 30
0.0
 11
4.8
 21
9.749747
 31
0.0
  0
LINE
  8
0
 62
     0
 10
2.760436
 20
7.88696
 30
0.0
 11
4.8
 21
9.926524
 31
0.0
  0
LINE
  8
0
 62
     0
 10
2.855624
 20
8.158924
 30
0.0
 11
4.696699
 21
10.0
 31
0.0
  0
LINE
  8
0
 62
     0
 10
2.950811
 20
8.430889
 30
0.0
 11
4.519922
 21
10.0
 31
0.0
  0
LINE
  8
0
 62
     0
 10
3.045998
 20
8.702853
 30
0.0
 11
4.343146
 21
10.0
 31
0.0
  0
LINE
  8
0
 62
     0
 10
3.141186
 20
8.974817
 30
0.0
 11
4.166369
 21
10.0
 31
0.0
  0
LINE
  8
0
 62
     0
 10
3.236373
 20
9.246781
 30
0.0
 11
3.989592
 21
10.0
 31
0.0
  0
LINE
  8
0
 62
     0
 10
3.331561
 20
9.518745
 30
0.0
 11
3.812816
 21
10.0
 31
0.0
  0
LINE
  8
0
 62
     0
 10
3.426748
 20
9.790709
 30
0.0
 11
3.636039
 21
10.0
 31
0.0
  0
LINE
  8
0
 62
     0
 10
2.189311
 20
6.255175
 30
0.0
 11
4.8
 21
8.865864
 31
0.0
  0
LINE
  8
0
 62
     0
 10
2.094124
 20
5.983211
 30
0.0
 11
4.8
 21
8.689087
 31
0.0
  0
LINE
  8
0
 62
     0
 10
1.998936
 20
5.711247
 30
0.0
 11
4.8
 21
8.512311
 31
0.0
  0
LINE
  8
0
 62
     0
 10
1.903749
 20
5.439283
 30
0.0
 11
4.8
 21
8.335534
 31
0.0
  0
LINE
  8
0
 62
     0
 10
1.841243
 20
5.2
 30
0.0
 11
4.8
 21
8.158757
 31
0.0
  0
LINE
  8
0
 62
     0
 10
2.018019
 20
5.2
 30
0.0
 11
4.8
 21
7.981981
 31
0.0
  0
LINE
  8
0
 62
     0
 10
2.194796
 20
5.2
 30
0.0
 11
4.8
 21
7.805204
 31
0.0
  0
LINE
  8
0
 62
     0
 10
2.371573
 20
5.2
 30
0.0
 11
4.8
 21
7.628427
 31
0.0
  0
LINE
  8
0
 62
     0
 10
2.54835
 20
5.2
 30
0.0
 11
4.8
 21
7.45165
 31
0.0
  0
LINE
  8
0
 62
     0
 10
2.725126
 20
5.2
 30
0.0
 11
4.8
 21
7.274874
 31
0.0
  0
LINE
  8
0
 62
     0
 10
2.901903
 20
5.2
 30
0.0
 11
4.8
 21
7.098097
 31
0.0
  0
LINE
  8
0
 62
     0
 10
3.07868
 20
5.2
 30
0.0
 11
4.8
 21
6.92132
 31
0.0
  0
LINE
  8
0
 62
     0
 10
3.255456
 20
5.2
 30
0.0
 11
4.8
 21
6.744544
 31
0.0
  0
LINE
  8
0
 62
     0
 10
3.432233
 20
5.2
 30
0.0
 11
4.8
 21
6.567767
 31
0.0
  0
LINE
  8
0
 62
     0
 10
3.60901
 20
5.2
 30
0.0
 11
4.8
 21
6.39099
 31
0.0
  0
LINE
  8
0
 62
     0
 10
3.785786
 20
5.2
 30
0.0
 11
4.8
 21
6.214214
 31
0.0
  0
LINE
  8
0
 62
     0
 10
3.962563
 20
5.2
 30
0.0
 11
4.8
 21
6.037437
 31
0.0
  0
LINE
  8
0
 62
     0
 10
4.13934
 20
5.2
 30
0.0
 11
4.8
 21
5.86066
 31
0.0
  0
LINE
  8
0
 62
     0
 10
4.316117
 20
5.2
 30
0.0
 11
4.8
 21
5.683883
 31
0.0
  0
LINE
  8
0
 62
     0
 10
4.492893
 20
5.2
 30
0.0
 11
4.8
 21
5.507107
 31
0.0
  0
LINE
  8
0
 62
     0
 10
4.66967
 20
5.2
 30
0.0
 11
4.8
 21
5.33033
 31
0.0
  0
ENDBLK
  8
0
  0
BLOCK
  8
0
  2
*X57
 70
    65
 10
0.0
 20
0.0
 30
0.0
  3
*X
  0
LINE
  8
0
 62
     0
 10
5.2
 20
6.083883
 30
0.0
 11
7.178252
 21
8.062136
 31
0.0
  0
LINE
  8
0
 62
     0
 10
5.2
 20
6.26066
 30
0.0
 11
7.132421
 21
8.193082
 31
0.0
  0
LINE
  8
0
 62
     0
 10
5.2
 20
6.437437
 30
0.0
 11
7.08659
 21
8.324027
 31
0.0
  0
LINE
  8
0
 62
     0
 10
5.2
 20
6.614214
 30
0.0
 11
7.040759
 21
8.454973
 31
0.0
  0
LINE
  8
0
 62
     0
 10
5.2
 20
6.79099
 30
0.0
 11
6.994928
 21
8.585919
 31
0.0
  0
LINE
  8
0
 62
     0
 10
5.2
 20
6.967767
 30
0.0
 11
6.949097
 21
8.716864
 31
0.0
  0
LINE
  8
0
 62
     0
 10
5.2
 20
7.144544
 30
0.0
 11
6.903266
 21
8.84781
 31
0.0
  0
LINE
  8
0
 62
     0
 10
5.2
 20
7.32132
 30
0.0
 11
6.857435
 21
8.978756
 31
0.0
  0
LINE
  8
0
 62
     0
 10
5.2
 20
7.498097
 30
0.0
 11
6.811604
 21
9.109702
 31
0.0
  0
LINE
  8
0
 62
     0
 10
5.2
 20
7.674874
 30
0.0
 11
6.765773
 21
9.240647
 31
0.0
  0
LINE
  8
0
 62
     0
 10
5.2
 20
7.85165
 30
0.0
 11
6.719942
 21
9.371593
 31
0.0
  0
LINE
  8
0
 62
     0
 10
5.2
 20
8.028427
 30
0.0
 11
6.674111
 21
9.502539
 31
0.0
  0
LINE
  8
0
 62
     0
 10
5.2
 20
8.205204
 30
0.0
 11
6.62828
 21
9.633484
 31
0.0
  0
LINE
  8
0
 62
     0
 10
5.2
 20
8.381981
 30
0.0
 11
6.582449
 21
9.76443
 31
0.0
  0
LINE
  8
0
 62
     0
 10
5.2
 20
8.558757
 30
0.0
 11
6.536619
 21
9.895376
 31
0.0
  0
LINE
  8
0
 62
     0
 10
5.2
 20
8.735534
 30
0.0
 11
6.464466
 21
10.0
 31
0.0
  0
LINE
  8
0
 62
     0
 10
5.2
 20
8.912311
 30
0.0
 11
6.287689
 21
10.0
 31
0.0
  0
LINE
  8
0
 62
     0
 10
5.2
 20
9.089087
 30
0.0
 11
6.110913
 21
10.0
 31
0.0
  0
LINE
  8
0
 62
     0
 10
5.2
 20
9.265864
 30
0.0
 11
5.934136
 21
10.0
 31
0.0
  0
LINE
  8
0
 62
     0
 10
5.2
 20
9.442641
 30
0.0
 11
5.757359
 21
10.0
 31
0.0
  0
LINE
  8
0
 62
     0
 10
5.2
 20
9.619417
 30
0.0
 11
5.580583
 21
10.0
 31
0.0
  0
LINE
  8
0
 62
     0
 10
5.2
 20
9.796194
 30
0.0
 11
5.403806
 21
10.0
 31
0.0
  0
LINE
  8
0
 62
     0
 10
5.2
 20
9.972971
 30
0.0
 11
5.227029
 21
10.0
 31
0.0
  0
LINE
  8
0
 62
     0
 10
5.2
 20
5.907107
 30
0.0
 11
7.224083
 21
7.93119
 31
0.0
  0
LINE
  8
0
 62
     0
 10
5.2
 20
5.73033
 30
0.0
 11
7.269914
 21
7.800245
 31
0.0
  0
LINE
  8
0
 62
     0
 10
5.2
 20
5.553553
 30
0.0
 11
7.315745
 21
7.669299
 31
0.0
  0
LINE
  8
0
 62
     0
 10
5.2
 20
5.376777
 30
0.0
 11
7.361576
 21
7.538353
 31
0.0
  0
LINE
  8
0
 62
     0
 10
5.2
 20
5.2
 30
0.0
 11
7.407407
 21
7.407407
 31
0.0
  0
LINE
  8
0
 62
     0
 10
5.376777
 20
5.2
 30
0.0
 11
7.453238
 21
7.276462
 31
0.0
  0
LINE
  8
0
 62
     0
 10
5.553553
 20
5.2
 30
0.0
 11
7.499069
 21
7.145516
 31
0.0
  0
LINE
  8
0
 62
     0
 10
5.73033
 20
5.2
 30
0.0
 11
7.5449
 21
7.01457
 31
0.0
  0
LINE
  8
0
 62
     0
 10
5.907107
 20
5.2
 30
0.0
 11
7.590731
 21
6.883625
 31
0.0
  0
LINE
  8
0
 62
     0
 10
6.083883
 20
5.2
 30
0.0
 11
7.636562
 21
6.752679
 31
0.0
  0
LINE
  8
0
 62
     0
 10
6.26066
 20
5.2
 30
0.0
 11
7.682393
 21
6.621733
 31
0.0
  0
LINE
  8
0
 62
     0
 10
6.437437
 20
5.2
 30
0.0
 11
7.728224
 21
6.490788
 31
0.0
  0
LINE
  8
0
 62
     0
 10
6.614214
 20
5.2
 30
0.0
 11
7.774055
 21
6.359842
 31
0.0
  0
LINE
  8
0
 62
     0
 10
6.79099
 20
5.2
 30
0.0
 11
7.819886
 21
6.228896
 31
0.0
  0
LINE
  8
0
 62
     0
 10
6.967767
 20
5.2
 30
0.0
 11
7.865717
 21
6.09795
 31
0.0
  0
LINE
  8
0
 62
     0
 10
7.144544
 20
5.2
 30
0.0
 11
7.911548
 21
5.967005
 31
0.0
  0
LINE
  8
0
 62
     0
 10
7.32132
 20
5.2
 30
0.0
 11
7.957379
 21
5.836059
 31
0.0
  0
LINE
  8
0
 62
     0
 10
7.498097
 20
5.2
 30
0.0
 11
8.00321
 21
5.705113
 31
0.0
  0
LINE
  8
0
 62
     0
 10
7.674874
 20
5.2
 30
0.0
 11
8.049041
 21
5.574168
 31
0.0
  0
LINE
  8
0
 62
     0
 10
7.85165
 20
5.2
 30
0.0
 11
8.094872
 21
5.443222
 31
0.0
  0
LINE
  8
0
 62
     0
 10
8.028427
 20
5.2
 30
0.0
 11
8.140703
 21
5.312276
 31
0.0
  0
ENDBLK
  8
0
  0
BLOCK
  8
0
  2
*X58
 70
    65
 10
0.0
 20
0.0
 30
0.0
  3
*X
  0
LINE
  8
0
 62
     0
 10
0.0
 20
0.0
 30
0.0
 11
4.8
 21
4.8
 31
0.0
  0
LINE
  8
0
 62
     0
 10
0.095187
 20
0.271964
 30
0.0
 11
4.623223
 21
4.8
 31
0.0
  0
LINE
  8
0
 62
     0
 10
0.190375
 20
0.543928
 30
0.0
 11
4.446447
 21
4.8
 31
0.0
  0
LINE
  8
0
 62
     0
 10
0.285562
 20
0.815892
 30
0.0
 11
4.26967
 21
4.8
 31
0.0
  0
LINE
  8
0
 62
     0
 10
0.38075
 20
1.087857
 30
0.0
 11
4.092893
 21
4.8
 31
0.0
  0
LINE
  8
0
 62
     0
 10
0.475937
 20
1.359821
 30
0.0
 11
3.916117
 21
4.8
 31
0.0
  0
LINE
  8
0
 62
     0
 10
0.571125
 20
1.631785
 30
0.0
 11
3.73934
 21
4.8
 31
0.0
  0
LINE
  8
0
 62
     0
 10
0.666312
 20
1.903749
 30
0.0
 11
3.562563
 21
4.8
 31
0.0
  0
LINE
  8
0
 62
     0
 10
0.7615
 20
2.175713
 30
0.0
 11
3.385786
 21
4.8
 31
0.0
  0
LINE
  8
0
 62
     0
 10
0.856687
 20
2.447677
 30
0.0
 11
3.20901
 21
4.8
 31
0.0
  0
LINE
  8
0
 62
     0
 10
0.951875
 20
2.719641
 30
0.0
 11
3.032233
 21
4.8
 31
0.0
  0
LINE
  8
0
 62
     0
 10
1.047062
 20
2.991606
 30
0.0
 11
2.855456
 21
4.8
 31
0.0
  0
LINE
  8
0
 62
     0
 10
1.142249
 20
3.26357
 30
0.0
 11
2.67868
 21
4.8
 31
0.0
  0
LINE
  8
0
 62
     0
 10
1.237437
 20
3.535534
 30
0.0
 11
2.501903
 21
4.8
 31
0.0
  0
LINE
  8
0
 62
     0
 10
1.332624
 20
3.807498
 30
0.0
 11
2.325126
 21
4.8
 31
0.0
  0
LINE
  8
0
 62
     0
 10
1.427812
 20
4.079462
 30
0.0
 11
2.14835
 21
4.8
 31
0.0
  0
LINE
  8
0
 62
     0
 10
1.522999
 20
4.351426
 30
0.0
 11
1.971573
 21
4.8
 31
0.0
  0
LINE
  8
0
 62
     0
 10
1.618187
 20
4.62339
 30
0.0
 11
1.794796
 21
4.8
 31
0.0
  0
LINE
  8
0
 62
     0
 10
0.176777
 20
0.0
 30
0.0
 11
4.8
 21
4.623223
 31
0.0
  0
LINE
  8
0
 62
     0
 10
0.353553
 20
0.0
 30
0.0
 11
4.8
 21
4.446447
 31
0.0
  0
LINE
  8
0
 62
     0
 10
0.53033
 20
0.0
 30
0.0
 11
4.8
 21
4.26967
 31
0.0
  0
LINE
  8
0
 62
     0
 10
0.707107
 20
0.0
 30
0.0
 11
4.8
 21
4.092893
 31
0.0
  0
LINE
  8
0
 62
     0
 10
0.883883
 20
0.0
 30
0.0
 11
4.8
 21
3.916117
 31
0.0
  0
LINE
  8
0
 62
     0
 10
1.06066
 20
0.0
 30
0.0
 11
4.8
 21
3.73934
 31
0.0
  0
LINE
  8
0
 62
     0
 10
1.237437
 20
0.0
 30
0.0
 11
3.179842
 21
1.942405
 31
0.0
  0
LINE
  8
0
 62
     0
 10
3.237437
 20
2.0
 30
0.0
 11
4.8
 21
3.562563
 31
0.0
  0
LINE
  8
0
 62
     0
 10
1.414214
 20
0.0
 30
0.0
 11
3.084654
 21
1.670441
 31
0.0
  0
LINE
  8
0
 62
     0
 10
3.414214
 20
2.0
 30
0.0
 11
4.8
 21
3.385786
 31
0.0
  0
LINE
  8
0
 62
     0
 10
1.59099
 20
0.0
 30
0.0
 11
2.989467
 21
1.398477
 31
0.0
  0
LINE
  8
0
 62
     0
 10
3.59099
 20
2.0
 30
0.0
 11
4.8
 21
3.20901
 31
0.0
  0
LINE
  8
0
 62
     0
 10
1.767767
 20
0.0
 30
0.0
 11
2.894279
 21
1.126512
 31
0.0
  0
LINE
  8
0
 62
     0
 10
3.767767
 20
2.0
 30
0.0
 11
4.8
 21
3.032233
 31
0.0
  0
LINE
  8
0
 62
     0
 10
1.944544
 20
0.0
 30
0.0
 11
2.799092
 21
0.854548
 31
0.0
  0
LINE
  8
0
 62
     0
 10
3.944544
 20
2.0
 30
0.0
 11
4.8
 21
2.855456
 31
0.0
  0
LINE
  8
0
 62
     0
 10
2.12132
 20
0.0
 30
0.0
 11
2.703904
 21
0.582584
 31
0.0
  0
LINE
  8
0
 62
     0
 10
4.12132
 20
2.0
 30
0.0
 11
4.8
 21
2.67868
 31
0.0
  0
LINE
  8
0
 62
     0
 10
2.298097
 20
0.0
 30
0.0
 11
2.608717
 21
0.31062
 31
0.0
  0
LINE
  8
0
 62
     0
 10
4.298097
 20
2.0
 30
0.0
 11
4.8
 21
2.501903
 31
0.0
  0
LINE
  8
0
 62
     0
 10
2.474874
 20
0.0
 30
0.0
 11
2.51353
 21
0.038656
 31
0.0
  0
LINE
  8
0
 62
     0
 10
4.474874
 20
2.0
 30
0.0
 11
4.8
 21
2.325126
 31
0.0
  0
LINE
  8
0
 62
     0
 10
4.65165
 20
2.0
 30
0.0
 11
4.8
 21
2.14835
 31
0.0
  0
ENDBLK
  8
0
  0
BLOCK
  8
0
  2
*X59
 70
    65
 10
0.0
 20
0.0
 30
0.0
  3
*X
  0
LINE
  8
0
 62
     0
 10
6.884654
 20
1.75813
 30
0.0
 11
8.736506
 21
3.609982
 31
0.0
  0
LINE
  8
0
 62
     0
 10
6.838823
 20
1.889076
 30
0.0
 11
8.690675
 21
3.740928
 31
0.0
  0
LINE
  8
0
 62
     0
 10
6.772971
 20
2.0
 30
0.0
 11
8.644844
 21
3.871874
 31
0.0
  0
LINE
  8
0
 62
     0
 10
6.596194
 20
2.0
 30
0.0
 11
8.599013
 21
4.002819
 31
0.0
  0
LINE
  8
0
 62
     0
 10
6.419417
 20
2.0
 30
0.0
 11
8.553182
 21
4.133765
 31
0.0
  0
LINE
  8
0
 62
     0
 10
6.242641
 20
2.0
 30
0.0
 11
8.507351
 21
4.264711
 31
0.0
  0
LINE
  8
0
 62
     0
 10
6.065864
 20
2.0
 30
0.0
 11
8.46152
 21
4.395656
 31
0.0
  0
LINE
  8
0
 62
     0
 10
5.889087
 20
2.0
 30
0.0
 11
8.415689
 21
4.526602
 31
0.0
  0
LINE
  8
0
 62
     0
 10
5.712311
 20
2.0
 30
0.0
 11
8.369858
 21
4.657548
 31
0.0
  0
LINE
  8
0
 62
     0
 10
5.535534
 20
2.0
 30
0.0
 11
8.324027
 21
4.788493
 31
0.0
  0
LINE
  8
0
 62
     0
 10
5.358757
 20
2.0
 30
0.0
 11
8.158757
 21
4.8
 31
0.0
  0
LINE
  8
0
 62
     0
 10
5.2
 20
2.018019
 30
0.0
 11
7.981981
 21
4.8
 31
0.0
  0
LINE
  8
0
 62
     0
 10
5.2
 20
2.194796
 30
0.0
 11
7.805204
 21
4.8
 31
0.0
  0
LINE
  8
0
 62
     0
 10
5.2
 20
2.371573
 30
0.0
 11
7.628427
 21
4.8
 31
0.0
  0
LINE
  8
0
 62
     0
 10
5.2
 20
2.54835
 30
0.0
 11
7.45165
 21
4.8
 31
0.0
  0
LINE
  8
0
 62
     0
 10
5.2
 20
2.725126
 30
0.0
 11
7.274874
 21
4.8
 31
0.0
  0
LINE
  8
0
 62
     0
 10
5.2
 20
2.901903
 30
0.0
 11
7.098097
 21
4.8
 31
0.0
  0
LINE
  8
0
 62
     0
 10
5.2
 20
3.07868
 30
0.0
 11
6.92132
 21
4.8
 31
0.0
  0
LINE
  8
0
 62
     0
 10
5.2
 20
3.255456
 30
0.0
 11
6.744544
 21
4.8
 31
0.0
  0
LINE
  8
0
 62
     0
 10
5.2
 20
3.432233
 30
0.0
 11
6.567767
 21
4.8
 31
0.0
  0
LINE
  8
0
 62
     0
 10
5.2
 20
3.60901
 30
0.0
 11
6.39099
 21
4.8
 31
0.0
  0
LINE
  8
0
 62
     0
 10
5.2
 20
3.785786
 30
0.0
 11
6.214214
 21
4.8
 31
0.0
  0
LINE
  8
0
 62
     0
 10
5.2
 20
3.962563
 30
0.0
 11
6.037437
 21
4.8
 31
0.0
  0
LINE
  8
0
 62
     0
 10
5.2
 20
4.13934
 30
0.0
 11
5.86066
 21
4.8
 31
0.0
  0
LINE
  8
0
 62
     0
 10
5.2
 20
4.316117
 30
0.0
 11
5.683883
 21
4.8
 31
0.0
  0
LINE
  8
0
 62
     0
 10
5.2
 20
4.492893
 30
0.0
 11
5.507107
 21
4.8
 31
0.0
  0
LINE
  8
0
 62
     0
 10
5.2
 20
4.66967
 30
0.0
 11
5.33033
 21
4.8
 31
0.0
  0
LINE
  8
0
 62
     0
 10
6.930485
 20
1.627185
 30
0.0
 11
8.782337
 21
3.479036
 31
0.0
  0
LINE
  8
0
 62
     0
 10
6.976316
 20
1.496239
 30
0.0
 11
8.828168
 21
3.348091
 31
0.0
  0
LINE
  8
0
 62
     0
 10
7.022147
 20
1.365293
 30
0.0
 11
8.873999
 21
3.217145
 31
0.0
  0
LINE
  8
0
 62
     0
 10
7.067978
 20
1.234347
 30
0.0
 11
8.91983
 21
3.086199
 31
0.0
  0
LINE
  8
0
 62
     0
 10
7.113809
 20
1.103402
 30
0.0
 11
8.965661
 21
2.955254
 31
0.0
  0
LINE
  8
0
 62
     0
 10
7.15964
 20
0.972456
 30
0.0
 11
9.011492
 21
2.824308
 31
0.0
  0
LINE
  8
0
 62
     0
 10
7.205471
 20
0.84151
 30
0.0
 11
9.057323
 21
2.693362
 31
0.0
  0
LINE
  8
0
 62
     0
 10
7.251302
 20
0.710565
 30
0.0
 11
9.103154
 21
2.562416
 31
0.0
  0
LINE
  8
0
 62
     0
 10
7.297133
 20
0.579619
 30
0.0
 11
9.148985
 21
2.431471
 31
0.0
  0
LINE
  8
0
 62
     0
 10
7.342964
 20
0.448673
 30
0.0
 11
9.194816
 21
2.300525
 31
0.0
  0
LINE
  8
0
 62
     0
 10
7.388795
 20
0.317728
 30
0.0
 11
9.240647
 21
2.169579
 31
0.0
  0
LINE
  8
0
 62
     0
 10
7.434626
 20
0.186782
 30
0.0
 11
9.286478
 21
2.038634
 31
0.0
  0
LINE
  8
0
 62
     0
 10
7.480457
 20
0.055836
 30
0.0
 11
9.332309
 21
1.907688
 31
0.0
  0
LINE
  8
0
 62
     0
 10
7.601398
 20
0.0
 30
0.0
 11
9.37814
 21
1.776742
 31
0.0
  0
LINE
  8
0
 62
     0
 10
7.778175
 20
0.0
 30
0.0
 11
9.423971
 21
1.645797
 31
0.0
  0
LINE
  8
0
 62
     0
 10
7.954951
 20
0.0
 30
0.0
 11
9.469802
 21
1.514851
 31
0.0
  0
LINE
  8
0
 62
     0
 10
8.131728
 20
0.0
 30
0.0
 11
9.515633
 21
1.383905
 31
0.0
  0
LINE
  8
0
 62
     0
 10
8.308505
 20
0.0
 30
0.0
 11
9.561464
 21
1.252959
 31
0.0
  0
LINE
  8
0
 62
     0
 10
8.485281
 20
0.0
 30
0.0
 11
9.607295
 21
1.122014
 31
0.0
  0
LINE
  8
0
 62
     0
 10
8.662058
 20
0.0
 30
0.0
 11
9.653126
 21
0.991068
 31
0.0
  0
LINE
  8
0
 62
     0
 10
8.838835
 20
0.0
 30
0.0
 11
9.698957
 21
0.860122
 31
0.0
  0
LINE
  8
0
 62
     0
 10
9.015611
 20
0.0
 30
0.0
 11
9.744788
 21
0.729177
 31
0.0
  0
LINE
  8
0
 62
     0
 10
9.192388
 20
0.0
 30
0.0
 11
9.790619
 21
0.598231
 31
0.0
  0
LINE
  8
0
 62
     0
 10
9.369165
 20
0.0
 30
0.0
 11
9.83645
 21
0.467285
 31
0.0
  0
LINE
  8
0
 62
     0
 10
9.545942
 20
0.0
 30
0.0
 11
9.882281
 21
0.33634
 31
0.0
  0
LINE
  8
0
 62
     0
 10
9.722718
 20
0.0
 30
0.0
 11
9.928112
 21
0.205394
 31
0.0
  0
LINE
  8
0
 62
     0
 10
9.899495
 20
0.0
 30
0.0
 11
9.973943
 21
0.074448
 31
0.0
  0
ENDBLK
  8
0
  0
BLOCK
  8
0
  2
*X60
 70
    65
 10
0.0
 20
0.0
 30
0.0
  3
*X
  0
LINE
  8
0
 62
     0
 10
10.7
 20
6.280583
 30
0.0
 11
13.5
 21
9.080583
 31
0.0
  0
LINE
  8
0
 62
     0
 10
10.7
 20
6.457359
 30
0.0
 11
13.5
 21
9.257359
 31
0.0
  0
LINE
  8
0
 62
     0
 10
10.7
 20
6.634136
 30
0.0
 11
13.5
 21
9.434136
 31
0.0
  0
LINE
  8
0
 62
     0
 10
10.7
 20
6.810913
 30
0.0
 11
13.5
 21
9.610913
 31
0.0
  0
LINE
  8
0
 62
     0
 10
10.7
 20
6.987689
 30
0.0
 11
13.5
 21
9.787689
 31
0.0
  0
LINE
  8
0
 62
     0
 10
10.7
 20
7.164466
 30
0.0
 11
13.5
 21
9.964466
 31
0.0
  0
LINE
  8
0
 62
     0
 10
10.7
 20
7.341243
 30
0.0
 11
13.358757
 21
10.0
 31
0.0
  0
LINE
  8
0
 62
     0
 10
10.7
 20
7.518019
 30
0.0
 11
13.181981
 21
10.0
 31
0.0
  0
LINE
  8
0
 62
     0
 10
10.7
 20
7.694796
 30
0.0
 11
13.005204
 21
10.0
 31
0.0
  0
LINE
  8
0
 62
     0
 10
10.7
 20
7.871573
 30
0.0
 11
12.828427
 21
10.0
 31
0.0
  0
LINE
  8
0
 62
     0
 10
10.7
 20
8.04835
 30
0.0
 11
12.65165
 21
10.0
 31
0.0
  0
LINE
  8
0
 62
     0
 10
10.7
 20
8.225126
 30
0.0
 11
12.474874
 21
10.0
 31
0.0
  0
LINE
  8
0
 62
     0
 10
10.7
 20
8.401903
 30
0.0
 11
12.298097
 21
10.0
 31
0.0
  0
LINE
  8
0
 62
     0
 10
10.7
 20
8.57868
 30
0.0
 11
12.12132
 21
10.0
 31
0.0
  0
LINE
  8
0
 62
     0
 10
10.7
 20
8.755456
 30
0.0
 11
11.944544
 21
10.0
 31
0.0
  0
LINE
  8
0
 62
     0
 10
10.7
 20
8.932233
 30
0.0
 11
11.767767
 21
10.0
 31
0.0
  0
LINE
  8
0
 62
     0
 10
10.7
 20
9.10901
 30
0.0
 11
11.59099
 21
10.0
 31
0.0
  0
LINE
  8
0
 62
     0
 10
10.7
 20
9.285786
 30
0.0
 11
11.414214
 21
10.0
 31
0.0
  0
LINE
  8
0
 62
     0
 10
10.7
 20
9.462563
 30
0.0
 11
11.237437
 21
10.0
 31
0.0
  0
LINE
  8
0
 62
     0
 10
10.7
 20
9.63934
 30
0.0
 11
11.06066
 21
10.0
 31
0.0
  0
LINE
  8
0
 62
     0
 10
10.7
 20
9.816117
 30
0.0
 11
10.883883
 21
10.0
 31
0.0
  0
LINE
  8
0
 62
     0
 10
10.7
 20
9.992893
 30
0.0
 11
10.707107
 21
10.0
 31
0.0
  0
LINE
  8
0
 62
     0
 10
10.7
 20
6.103806
 30
0.0
 11
13.5
 21
8.903806
 31
0.0
  0
LINE
  8
0
 62
     0
 10
10.7
 20
5.927029
 30
0.0
 11
13.5
 21
8.727029
 31
0.0
  0
LINE
  8
0
 62
     0
 10
10.7
 20
5.750253
 30
0.0
 11
13.5
 21
8.550253
 31
0.0
  0
LINE
  8
0
 62
     0
 10
10.7
 20
5.573476
 30
0.0
 11
13.5
 21
8.373476
 31
0.0
  0
LINE
  8
0
 62
     0
 10
10.7
 20
5.396699
 30
0.0
 11
13.5
 21
8.196699
 31
0.0
  0
LINE
  8
0
 62
     0
 10
10.7
 20
5.219922
 30
0.0
 11
13.5
 21
8.019922
 31
0.0
  0
LINE
  8
0
 62
     0
 10
10.856854
 20
5.2
 30
0.0
 11
13.5
 21
7.843146
 31
0.0
  0
LINE
  8
0
 62
     0
 10
11.033631
 20
5.2
 30
0.0
 11
13.5
 21
7.666369
 31
0.0
  0
LINE
  8
0
 62
     0
 10
11.210408
 20
5.2
 30
0.0
 11
13.5
 21
7.489592
 31
0.0
  0
LINE
  8
0
 62
     0
 10
11.387184
 20
5.2
 30
0.0
 11
13.5
 21
7.312816
 31
0.0
  0
LINE
  8
0
 62
     0
 10
11.563961
 20
5.2
 30
0.0
 11
13.5
 21
7.136039
 31
0.0
  0
LINE
  8
0
 62
     0
 10
11.740738
 20
5.2
 30
0.0
 11
13.5
 21
6.959262
 31
0.0
  0
LINE
  8
0
 62
     0
 10
11.917514
 20
5.2
 30
0.0
 11
13.5
 21
6.782486
 31
0.0
  0
LINE
  8
0
 62
     0
 10
12.094291
 20
5.2
 30
0.0
 11
13.5
 21
6.605709
 31
0.0
  0
LINE
  8
0
 62
     0
 10
12.271068
 20
5.2
 30
0.0
 11
13.5
 21
6.428932
 31
0.0
  0
LINE
  8
0
 62
     0
 10
12.447845
 20
5.2
 30
0.0
 11
13.5
 21
6.252155
 31
0.0
  0
LINE
  8
0
 62
     0
 10
12.624621
 20
5.2
 30
0.0
 11
13.5
 21
6.075379
 31
0.0
  0
LINE
  8
0
 62
     0
 10
12.801398
 20
5.2
 30
0.0
 11
13.5
 21
5.898602
 31
0.0
  0
LINE
  8
0
 62
     0
 10
12.978175
 20
5.2
 30
0.0
 11
13.5
 21
5.721825
 31
0.0
  0
LINE
  8
0
 62
     0
 10
13.154951
 20
5.2
 30
0.0
 11
13.5
 21
5.545049
 31
0.0
  0
LINE
  8
0
 62
     0
 10
13.331728
 20
5.2
 30
0.0
 11
13.5
 21
5.368272
 31
0.0
  0
ENDBLK
  8
0
  0
BLOCK
  8
0
  2
*X61
 70
    65
 10
0.0
 20
0.0
 30
0.0
  3
*X
  0
LINE
  8
0
 62
     0
 10
10.7
 20
1.154058
 30
0.0
 11
13.5
 21
3.954058
 31
0.0
  0
LINE
  8
0
 62
     0
 10
10.7
 20
1.330835
 30
0.0
 11
13.5
 21
4.130835
 31
0.0
  0
LINE
  8
0
 62
     0
 10
10.7
 20
1.507612
 30
0.0
 11
13.5
 21
4.307612
 31
0.0
  0
LINE
  8
0
 62
     0
 10
10.7
 20
1.684389
 30
0.0
 11
13.5
 21
4.484389
 31
0.0
  0
LINE
  8
0
 62
     0
 10
10.7
 20
1.861165
 30
0.0
 11
13.5
 21
4.661165
 31
0.0
  0
LINE
  8
0
 62
     0
 10
10.7
 20
2.037942
 30
0.0
 11
13.462058
 21
4.8
 31
0.0
  0
LINE
  8
0
 62
     0
 10
10.7
 20
2.214719
 30
0.0
 11
13.285281
 21
4.8
 31
0.0
  0
LINE
  8
0
 62
     0
 10
10.7
 20
2.391495
 30
0.0
 11
13.108505
 21
4.8
 31
0.0
  0
LINE
  8
0
 62
     0
 10
10.7
 20
2.568272
 30
0.0
 11
12.931728
 21
4.8
 31
0.0
  0
LINE
  8
0
 62
     0
 10
10.7
 20
2.745049
 30
0.0
 11
12.754951
 21
4.8
 31
0.0
  0
LINE
  8
0
 62
     0
 10
10.7
 20
2.921825
 30
0.0
 11
12.578175
 21
4.8
 31
0.0
  0
LINE
  8
0
 62
     0
 10
10.7
 20
3.098602
 30
0.0
 11
12.401398
 21
4.8
 31
0.0
  0
LINE
  8
0
 62
     0
 10
10.7
 20
3.275379
 30
0.0
 11
12.224621
 21
4.8
 31
0.0
  0
LINE
  8
0
 62
     0
 10
10.7
 20
3.452155
 30
0.0
 11
12.047845
 21
4.8
 31
0.0
  0
LINE
  8
0
 62
     0
 10
10.7
 20
3.628932
 30
0.0
 11
11.871068
 21
4.8
 31
0.0
  0
LINE
  8
0
 62
     0
 10
10.7
 20
3.805709
 30
0.0
 11
11.694291
 21
4.8
 31
0.0
  0
LINE
  8
0
 62
     0
 10
10.7
 20
3.982486
 30
0.0
 11
11.517514
 21
4.8
 31
0.0
  0
LINE
  8
0
 62
     0
 10
10.7
 20
4.159262
 30
0.0
 11
11.340738
 21
4.8
 31
0.0
  0
LINE
  8
0
 62
     0
 10
10.7
 20
4.336039
 30
0.0
 11
11.163961
 21
4.8
 31
0.0
  0
LINE
  8
0
 62
     0
 10
10.7
 20
4.512816
 30
0.0
 11
10.987184
 21
4.8
 31
0.0
  0
LINE
  8
0
 62
     0
 10
10.7
 20
4.689592
 30
0.0
 11
10.810408
 21
4.8
 31
0.0
  0
LINE
  8
0
 62
     0
 10
10.7
 20
0.977282
 30
0.0
 11
13.5
 21
3.777282
 31
0.0
  0
LINE
  8
0
 62
     0
 10
10.7
 20
0.800505
 30
0.0
 11
13.5
 21
3.600505
 31
0.0
  0
LINE
  8
0
 62
     0
 10
10.7
 20
0.623728
 30
0.0
 11
13.5
 21
3.423728
 31
0.0
  0
LINE
  8
0
 62
     0
 10
10.7
 20
0.446952
 30
0.0
 11
13.5
 21
3.246952
 31
0.0
  0
LINE
  8
0
 62
     0
 10
10.7
 20
0.270175
 30
0.0
 11
13.5
 21
3.070175
 31
0.0
  0
LINE
  8
0
 62
     0
 10
10.7
 20
0.093398
 30
0.0
 11
13.5
 21
2.893398
 31
0.0
  0
LINE
  8
0
 62
     0
 10
10.783378
 20
0.0
 30
0.0
 11
13.5
 21
2.716622
 31
0.0
  0
LINE
  8
0
 62
     0
 10
10.960155
 20
0.0
 30
0.0
 11
13.5
 21
2.539845
 31
0.0
  0
LINE
  8
0
 62
     0
 10
11.136932
 20
0.0
 30
0.0
 11
13.5
 21
2.363068
 31
0.0
  0
LINE
  8
0
 62
     0
 10
11.313708
 20
0.0
 30
0.0
 11
13.5
 21
2.186292
 31
0.0
  0
LINE
  8
0
 62
     0
 10
11.490485
 20
0.0
 30
0.0
 11
13.5
 21
2.009515
 31
0.0
  0
LINE
  8
0
 62
     0
 10
11.667262
 20
0.0
 30
0.0
 11
13.5
 21
1.832738
 31
0.0
  0
LINE
  8
0
 62
     0
 10
11.844039
 20
0.0
 30
0.0
 11
13.5
 21
1.655961
 31
0.0
  0
LINE
  8
0
 62
     0
 10
12.020815
 20
0.0
 30
0.0
 11
13.5
 21
1.479185
 31
0.0
  0
LINE
  8
0
 62
     0
 10
12.197592
 20
0.0
 30
0.0
 11
13.5
 21
1.302408
 31
0.0
  0
LINE
  8
0
 62
     0
 10
12.374369
 20
0.0
 30
0.0
 11
13.5
 21
1.125631
 31
0.0
  0
LINE
  8
0
 62
     0
 10
12.551145
 20
0.0
 30
0.0
 11
13.5
 21
0.948855
 31
0.0
  0
LINE
  8
0
 62
     0
 10
12.727922
 20
0.0
 30
0.0
 11
13.5
 21
0.772078
 31
0.0
  0
LINE
  8
0
 62
     0
 10
12.904699
 20
0.0
 30
0.0
 11
13.5
 21
0.595301
 31
0.0
  0
LINE
  8
0
 62
     0
 10
13.081475
 20
0.0
 30
0.0
 11
13.5
 21
0.418525
 31
0.0
  0
LINE
  8
0
 62
     0
 10
13.258252
 20
0.0
 30
0.0
 11
13.5
 21
0.241748
 31
0.0
  0
LINE
  8
0
 62
     0
 10
13.435029
 20
0.0
 30
0.0
 11
13.5
 21
0.064971
 31
0.0
  0
ENDBLK
  8
0
  0
BLOCK
  8
0
  2
*X62
 70
    65
 10
0.0
 20
0.0
 30
0.0
  3
*X
  0
LINE
  8
0
 62
     0
 10
13.9
 20
6.298602
 30
0.0
 11
16.582995
 21
8.981597
 31
0.0
  0
LINE
  8
0
 62
     0
 10
13.9
 20
6.475379
 30
0.0
 11
16.510503
 21
9.085882
 31
0.0
  0
LINE
  8
0
 62
     0
 10
13.9
 20
6.652155
 30
0.0
 11
16.432927
 21
9.185083
 31
0.0
  0
LINE
  8
0
 62
     0
 10
13.9
 20
6.828932
 30
0.0
 11
16.350372
 21
9.279304
 31
0.0
  0
LINE
  8
0
 62
     0
 10
13.9
 20
7.005709
 30
0.0
 11
16.262892
 21
9.368601
 31
0.0
  0
LINE
  8
0
 62
     0
 10
13.9
 20
7.182486
 30
0.0
 11
16.170495
 21
9.452981
 31
0.0
  0
LINE
  8
0
 62
     0
 10
13.9
 20
7.359262
 30
0.0
 11
16.073145
 21
9.532407
 31
0.0
  0
LINE
  8
0
 62
     0
 10
13.9
 20
7.536039
 30
0.0
 11
15.970755
 21
9.606794
 31
0.0
  0
LINE
  8
0
 62
     0
 10
13.9
 20
7.712816
 30
0.0
 11
15.863189
 21
9.676004
 31
0.0
  0
LINE
  8
0
 62
     0
 10
13.9
 20
7.889592
 30
0.0
 11
15.75025
 21
9.739843
 31
0.0
  0
LINE
  8
0
 62
     0
 10
13.9
 20
8.066369
 30
0.0
 11
15.631675
 21
9.798044
 31
0.0
  0
LINE
  8
0
 62
     0
 10
13.9
 20
8.243146
 30
0.0
 11
15.50711
 21
9.850256
 31
0.0
  0
LINE
  8
0
 62
     0
 10
13.9
 20
8.419922
 30
0.0
 11
15.376096
 21
9.896018
 31
0.0
  0
LINE
  8
0
 62
     0
 10
13.9
 20
8.596699
 30
0.0
 11
15.238027
 21
9.934726
 31
0.0
  0
LINE
  8
0
 62
     0
 10
13.9
 20
8.773476
 30
0.0
 11
15.092096
 21
9.965572
 31
0.0
  0
LINE
  8
0
 62
     0
 10
13.9
 20
8.950253
 30
0.0
 11
14.937209
 21
9.987461
 31
0.0
  0
LINE
  8
0
 62
     0
 10
13.9
 20
9.127029
 30
0.0
 11
14.771824
 21
9.998853
 31
0.0
  0
LINE
  8
0
 62
     0
 10
13.9
 20
9.303806
 30
0.0
 11
14.596193
 21
9.999999
 31
0.0
  0
LINE
  8
0
 62
     0
 10
13.9
 20
9.480583
 30
0.0
 11
14.419417
 21
9.999999
 31
0.0
  0
LINE
  8
0
 62
     0
 10
13.9
 20
9.657359
 30
0.0
 11
14.24264
 21
10.0
 31
0.0
  0
LINE
  8
0
 62
     0
 10
13.9
 20
9.834136
 30
0.0
 11
14.065864
 21
10.0
 31
0.0
  0
LINE
  8
0
 62
     0
 10
13.9
 20
6.121825
 30
0.0
 11
16.650245
 21
8.872071
 31
0.0
  0
LINE
  8
0
 62
     0
 10
13.9
 20
5.945049
 30
0.0
 11
16.712035
 21
8.757083
 31
0.0
  0
LINE
  8
0
 62
     0
 10
13.9
 20
5.768272
 30
0.0
 11
16.768067
 21
8.636339
 31
0.0
  0
LINE
  8
0
 62
     0
 10
13.9
 20
5.591495
 30
0.0
 11
16.817955
 21
8.509451
 31
0.0
  0
LINE
  8
0
 62
     0
 10
13.9
 20
5.414719
 30
0.0
 11
16.861189
 21
8.375908
 31
0.0
  0
LINE
  8
0
 62
     0
 10
13.9
 20
5.237942
 30
0.0
 11
16.897097
 21
8.235039
 31
0.0
  0
LINE
  8
0
 62
     0
 10
14.038835
 20
5.2
 30
0.0
 11
16.924779
 21
8.085944
 31
0.0
  0
LINE
  8
0
 62
     0
 10
14.215611
 20
5.2
 30
0.0
 11
16.942997
 21
7.927385
 31
0.0
  0
LINE
  8
0
 62
     0
 10
14.392388
 20
5.2
 30
0.0
 11
16.949987
 21
7.757599
 31
0.0
  0
LINE
  8
0
 62
     0
 10
14.569165
 20
5.2
 30
0.0
 11
16.943101
 21
7.573936
 31
0.0
  0
LINE
  8
0
 62
     0
 10
14.745942
 20
5.2
 30
0.0
 11
16.918037
 21
7.372095
 31
0.0
  0
LINE
  8
0
 62
     0
 10
14.922718
 20
5.2
 30
0.0
 11
16.866909
 21
7.144191
 31
0.0
  0
LINE
  8
0
 62
     0
 10
15.099495
 20
5.2
 30
0.0
 11
16.771715
 21
6.87222
 31
0.0
  0
LINE
  8
0
 62
     0
 10
15.276272
 20
5.2
 30
0.0
 11
15.847951
 21
5.77168
 31
0.0
  0
LINE
  8
0
 62
     0
 10
15.96673
 20
5.890458
 30
0.0
 11
16.559542
 21
6.48327
 31
0.0
  0
LINE
  8
0
 62
     0
 10
15.453048
 20
5.2
 30
0.0
 11
15.970661
 21
5.717613
 31
0.0
  0
LINE
  8
0
 62
     0
 10
15.629825
 20
5.2
 30
0.0
 11
16.088934
 21
5.659109
 31
0.0
  0
LINE
  8
0
 62
     0
 10
15.806602
 20
5.2
 30
0.0
 11
16.202964
 21
5.596363
 31
0.0
  0
LINE
  8
0
 62
     0
 10
15.983378
 20
5.2
 30
0.0
 11
16.312909
 21
5.529531
 31
0.0
  0
LINE
  8
0
 62
     0
 10
16.160155
 20
5.2
 30
0.0
 11
16.418895
 21
5.45874
 31
0.0
  0
LINE
  8
0
 62
     0
 10
16.336932
 20
5.2
 30
0.0
 11
16.521021
 21
5.384089
 31
0.0
  0
LINE
  8
0
 62
     0
 10
16.513708
 20
5.2
 30
0.0
 11
16.619363
 21
5.305655
 31
0.0
  0
LINE
  8
0
 62
     0
 10
16.690485
 20
5.2
 30
0.0
 11
16.713975
 21
5.22349
 31
0.0
  0
ENDBLK
  8
0
  0
BLOCK
  8
0
  2
*X63
 70
    65
 10
0.0
 20
0.0
 30
0.0
  3
*X
  0
LINE
  8
0
 62
     0
 10
13.9
 20
0.818525
 30
0.0
 11
17.39645
 21
4.314974
 31
0.0
  0
LINE
  8
0
 62
     0
 10
13.9
 20
0.995301
 30
0.0
 11
17.336354
 21
4.431655
 31
0.0
  0
LINE
  8
0
 62
     0
 10
13.9
 20
1.172078
 30
0.0
 11
17.272078
 21
4.544156
 31
0.0
  0
LINE
  8
0
 62
     0
 10
13.9
 20
1.348855
 30
0.0
 11
17.203766
 21
4.652621
 31
0.0
  0
LINE
  8
0
 62
     0
 10
13.9
 20
1.525631
 30
0.0
 11
17.131535
 21
4.757167
 31
0.0
  0
LINE
  8
0
 62
     0
 10
13.9
 20
1.702408
 30
0.0
 11
16.997592
 21
4.8
 31
0.0
  0
LINE
  8
0
 62
     0
 10
13.9
 20
1.879185
 30
0.0
 11
16.820815
 21
4.8
 31
0.0
  0
LINE
  8
0
 62
     0
 10
13.9
 20
2.055961
 30
0.0
 11
16.644039
 21
4.8
 31
0.0
  0
LINE
  8
0
 62
     0
 10
13.9
 20
2.232738
 30
0.0
 11
16.467262
 21
4.8
 31
0.0
  0
LINE
  8
0
 62
     0
 10
13.9
 20
2.409515
 30
0.0
 11
16.290485
 21
4.8
 31
0.0
  0
LINE
  8
0
 62
     0
 10
13.9
 20
2.586292
 30
0.0
 11
16.113708
 21
4.8
 31
0.0
  0
LINE
  8
0
 62
     0
 10
13.9
 20
2.763068
 30
0.0
 11
15.936932
 21
4.8
 31
0.0
  0
LINE
  8
0
 62
     0
 10
13.9
 20
2.939845
 30
0.0
 11
15.760155
 21
4.8
 31
0.0
  0
LINE
  8
0
 62
     0
 10
13.9
 20
3.116622
 30
0.0
 11
15.583378
 21
4.8
 31
0.0
  0
LINE
  8
0
 62
     0
 10
13.9
 20
3.293398
 30
0.0
 11
15.406602
 21
4.8
 31
0.0
  0
LINE
  8
0
 62
     0
 10
13.9
 20
3.470175
 30
0.0
 11
15.229825
 21
4.8
 31
0.0
  0
LINE
  8
0
 62
     0
 10
13.9
 20
3.646952
 30
0.0
 11
15.053048
 21
4.8
 31
0.0
  0
LINE
  8
0
 62
     0
 10
13.9
 20
3.823728
 30
0.0
 11
14.876272
 21
4.8
 31
0.0
  0
LINE
  8
0
 62
     0
 10
13.9
 20
4.000505
 30
0.0
 11
14.699495
 21
4.8
 31
0.0
  0
LINE
  8
0
 62
     0
 10
13.9
 20
4.177282
 30
0.0
 11
14.522718
 21
4.8
 31
0.0
  0
LINE
  8
0
 62
     0
 10
13.9
 20
4.354058
 30
0.0
 11
14.345942
 21
4.8
 31
0.0
  0
LINE
  8
0
 62
     0
 10
13.9
 20
4.530835
 30
0.0
 11
14.169165
 21
4.8
 31
0.0
  0
LINE
  8
0
 62
     0
 10
13.9
 20
4.707612
 30
0.0
 11
13.992388
 21
4.8
 31
0.0
  0
LINE
  8
0
 62
     0
 10
13.9
 20
0.641748
 30
0.0
 11
17.452185
 21
4.193933
 31
0.0
  0
LINE
  8
0
 62
     0
 10
13.9
 20
0.464971
 30
0.0
 11
17.503339
 21
4.068311
 31
0.0
  0
LINE
  8
0
 62
     0
 10
13.9
 20
0.288194
 30
0.0
 11
17.549642
 21
3.937837
 31
0.0
  0
LINE
  8
0
 62
     0
 10
13.9
 20
0.111418
 30
0.0
 11
17.590762
 21
3.80218
 31
0.0
  0
LINE
  8
0
 62
     0
 10
13.965359
 20
0.0
 30
0.0
 11
17.62629
 21
3.660931
 31
0.0
  0
LINE
  8
0
 62
     0
 10
14.142136
 20
0.000001
 30
0.0
 11
17.655713
 21
3.513577
 31
0.0
  0
LINE
  8
0
 62
     0
 10
14.318913
 20
0.000001
 30
0.0
 11
17.678385
 21
3.359473
 31
0.0
  0
LINE
  8
0
 62
     0
 10
14.49569
 20
0.000001
 30
0.0
 11
17.693473
 21
3.197784
 31
0.0
  0
LINE
  8
0
 62
     0
 10
14.672467
 20
0.000002
 30
0.0
 11
17.699875
 21
3.027409
 31
0.0
  0
LINE
  8
0
 62
     0
 10
14.853154
 20
0.003912
 30
0.0
 11
17.696088
 21
2.846846
 31
0.0
  0
LINE
  8
0
 62
     0
 10
15.046044
 20
0.020025
 30
0.0
 11
17.679975
 21
2.653956
 31
0.0
  0
LINE
  8
0
 62
     0
 10
15.254483
 20
0.051687
 30
0.0
 11
17.648313
 21
2.445517
 31
0.0
  0
LINE
  8
0
 62
     0
 10
15.483762
 20
0.10419
 30
0.0
 11
17.59581
 21
2.216238
 31
0.0
  0
LINE
  8
0
 62
     0
 10
15.743786
 20
0.187437
 30
0.0
 11
17.512563
 21
1.956214
 31
0.0
  0
LINE
  8
0
 62
     0
 10
16.058176
 20
0.32505
 30
0.0
 11
17.37495
 21
1.641824
 31
0.0
  0
LINE
  8
0
 62
     0
 10
16.54193
 20
0.632028
 30
0.0
 11
17.067972
 21
1.15807
 31
0.0
  0
ENDBLK
  8
0
  0
BLOCK
  8
0
  2
B39
 70
     0
 10
0.0
 20
0.0
 30
0.0
  3
B39
  0
LINE
  8
0
 10
-10.0
 20
2.5
 30
0.0
 11
-11.519867
 21
2.5
 31
0.0
  0
ARC
  8
0
 10
-9.934151
 20
3.75
 30
0.0
 40
1.251733
 50
266.984476
 51
93.015524
  0
LINE
  8
0
 10
-10.0
 20
5.0
 30
0.0
 11
-11.519867
 21
5.0
 31
0.0
  0
LINE
  8
0
 10
-10.0
 20
7.5
 30
0.0
 11
-11.519867
 21
7.5
 31
0.0
  0
ARC
  8
0
 10
-9.934151
 20
6.25
 30
0.0
 40
1.251733
 50
266.984476
 51
93.015524
  0
LINE
  8
0
 10
-5.0
 20
0.0
 30
0.0
 11
-2.5
 21
0.0
 31
0.0
  0
ARC
  8
0
 10
-5.065849
 20
1.25
 30
0.0
 40
1.251733
 50
86.984476
 51
273.015524
  0
ARC
  8
0
 10
-5.065849
 20
3.75
 30
0.0
 40
1.251733
 50
86.984476
 51
273.015524
  0
LINE
  8
0
 10
-5.0
 20
2.5
 30
0.0
 11
-2.5
 21
2.5
 31
0.0
  0
LINE
  8
0
 10
-5.0
 20
5.0
 30
0.0
 11
-2.5
 21
5.0
 31
0.0
  0
LINE
  8
0
 10
-2.5
 20
5.0
 30
0.0
 11
0.0
 21
5.0
 31
0.0
  0
LINE
  8
0
 10
-2.5
 20
0.0
 30
0.0
 11
0.0
 21
0.0
 31
0.0
  0
LINE
  8
0
 10
-2.5
 20
5.0
 30
0.0
 11
0.0
 21
5.0
 31
0.0
  0
LINE
  8
0
 10
-2.5
 20
10.0
 30
0.0
 11
0.0
 21
10.0
 31
0.0
  0
LINE
  8
0
 10
-5.0
 20
10.0
 30
0.0
 11
-2.5
 21
10.0
 31
0.0
  0
LINE
  8
0
 10
-5.0
 20
7.5
 30
0.0
 11
-2.5
 21
7.5
 31
0.0
  0
ARC
  8
0
 10
-5.065849
 20
8.75
 30
0.0
 40
1.251733
 50
86.984476
 51
273.015524
  0
ARC
  8
0
 10
-5.065849
 20
6.25
 30
0.0
 40
1.251733
 50
86.984476
 51
273.015524
  0
LINE
  8
0
 10
-5.0
 20
5.0
 30
0.0
 11
-2.5
 21
5.0
 31
0.0
  0
ENDBLK
  8
0
  0
BLOCK
  8
0
  2
B146
 70
     0
 10
0.0
 20
0.0
 30
0.0
  3
B146
  0
LINE
  8
0
 10
17.5
 20
-4.828202
 30
0.0
 11
62.5
 21
-4.828202
 31
0.0
  0
LINE
  8
0
  6
CONTINUOUS
 10
17.5
 20
-10.0
 30
0.0
 11
62.5
 21
-10.0
 31
0.0
  0
LINE
  8
0
  6
CONTINUOUS
 10
5.0
 20
0.0
 30
0.0
 11
62.5
 21
0.0
 31
0.0
  0
LINE
  8
0
  6
CONTINUOUS
 10
5.0
 20
-25.0
 30
0.0
 11
62.5
 21
-25.0
 31
0.0
  0
TEXT
  8
0
  6
CENTER
 10
20.0
 20
-21.666667
 30
0.0
 40
2.0
  1
25-28
  0
TEXT
  8
0
  6
CENTER
 10
19.998602
 20
-8.389298
 30
0.0
 40
2.0
  1
In=0,2A
  0
LINE
  8
0
  6
CONTINUOUS
 10
17.5
 20
-25.0
 30
0.0
 11
17.5
 21
0.0
 31
0.0
  0
LINE
  8
0
  6
CONTINUOUS
 10
12.616787
 20
-20.534894
 30
0.0
 11
12.616787
 21
-21.889164
 31
0.0
  0
LINE
  8
0
  6
CONTINUOUS
 10
11.406559
 20
-21.889164
 30
0.0
 11
12.6009
 21
-21.889164
 31
0.0
  0
LINE
  8
0
  6
CONTINUOUS
 10
12.6009
 20
-21.889164
 30
0.0
 11
13.795241
 21
-21.889164
 31
0.0
  0
LINE
  8
0
  6
CONTINUOUS
 10
11.784965
 20
-22.368774
 30
0.0
 11
13.369536
 21
-22.368774
 31
0.0
  0
LINE
  8
0
  6
CONTINUOUS
 10
12.116069
 20
-22.856949
 30
0.0
 11
13.002956
 21
-22.856949
 31
0.0
  0
TEXT
  8
0
  6
CENTER
 10
10.0
 20
-21.666667
 30
0.0
 40
2.0
  1
I
  0
TEXT
  8
0
  6
CENTER
 10
10.0
 20
-18.333333
 30
0.0
 40
2.0
  1
L3
  0
TEXT
  8
0
  6
CENTER
 10
10.0
 20
-15.0
 30
0.0
 40
2.0
  1
L1
  0
TEXT
  8
0
  6
CENTER
 10
50.0
 20
-21.666667
 30
0.0
 40
2.0
  1
25-26
  0
TEXT
  8
0
  6
CENTER
 10
50.0
 20
-18.333333
 30
0.0
 40
2.0
  1
7-8
  0
TEXT
  8
0
  6
CENTER
 10
50.0
 20
-15.0
 30
0.0
 40
2.0
  1
1-2
  0
TEXT
  8
0
  6
CENTER
 10
35.0
 20
-21.666667
 30
0.0
 40
2.0
  1
25-27
  0
TEXT
  8
0
  6
CENTER
 10
35.0
 20
-18.333333
 30
0.0
 40
2.0
  1
7-9
  0
TEXT
  8
0
  6
CENTER
 10
35.0
 20
-15.0
 30
0.0
 40
2.0
  1
1-3
  0
LINE
  8
0
 10
5.0
 20
0.0
 30
0.0
 11
5.0
 21
-25.0
 31
0.0
  0
LINE
  8
0
 10
62.5
 20
-25.0
 30
0.0
 11
62.5
 21
0.0
 31
0.0
  0
LINE
  8
0
 10
32.5
 20
-4.828202
 30
0.0
 11
32.5
 21
-25.0
 31
0.0
  0
LINE
  8
0
 10
47.5
 20
-4.828202
 30
0.0
 11
47.5
 21
-25.0
 31
0.0
  0
TEXT
  8
0
 10
23.041221
 20
-4.161535
 30
0.0
 40
2.0
  1
TERMINALS / UTTAG
 11
23.041221
 21
-4.828202
 31
0.0
 73
     1
  0
TEXT
  8
0
 10
35.120167
 20
-8.449983
 30
0.0
 40
2.0
  1
In=1A 
 11
35.120167
 21
-9.11665
 31
0.0
 73
     1
  0
TEXT
  8
0
 10
49.969965
 20
-8.449983
 30
0.0
 40
2.0
  1
In=5A
 11
49.969965
 21
-9.11665
 31
0.0
 73
     1
  0
TEXT
  8
0
  6
CONTINUOUS
 10
1.50882
 20
1.838465
 30
0.0
 40
2.0
  1
1)
 11
1.50882
 21
1.171798
 31
0.0
 73
     1
  0
ENDBLK
  8
0
  0
BLOCK
  8
0
  2
B147
 70
     0
 10
0.0
 20
0.0
 30
0.0
  3
B147
  0
TEXT
  8
0
  6
CONTINUOUS
 10
0.0
 20
0.0
 30
0.0
 40
2.0
  1
1)
  0
LINE
  8
BASE
  6
CONTINUOUS
 10
10.383131
 20
-27.812413
 30
0.0
 11
10.383131
 21
-29.166683
 31
0.0
  0
LINE
  8
BASE
  6
CONTINUOUS
 10
9.172903
 20
-29.166683
 30
0.0
 11
10.367244
 21
-29.166683
 31
0.0
  0
LINE
  8
BASE
  6
CONTINUOUS
 10
10.367244
 20
-29.166683
 30
0.0
 11
11.561585
 21
-29.166683
 31
0.0
  0
LINE
  8
BASE
  6
CONTINUOUS
 10
9.551308
 20
-29.646294
 30
0.0
 11
11.135879
 21
-29.646294
 31
0.0
  0
LINE
  8
BASE
  6
CONTINUOUS
 10
9.882412
 20
-30.134468
 30
0.0
 11
10.769299
 21
-30.134468
 31
0.0
  0
LINE
  8
0
  6
CONTINUOUS
 10
52.5
 20
-2.5
 30
0.0
 11
52.5
 21
-32.5
 31
0.0
  0
TEXT
  8
0
  6
CONTINUOUS
 10
37.5
 20
-29.166667
 30
0.0
 40
2.0
  1
25-26
  0
TEXT
  8
0
  6
CONTINUOUS
 10
37.5
 20
-25.833333
 30
0.0
 40
2.0
  1
7-8
  0
TEXT
  8
0
  6
CONTINUOUS
 10
37.5
 20
-22.5
 30
0.0
 40
2.0
  1
1-2
  0
TEXT
  8
0
  6
CONTINUOUS
 10
20.0
 20
-29.166667
 30
0.0
 40
2.0
  1
25-27
  0
TEXT
  8
0
  6
CONTINUOUS
 10
20.0
 20
-25.833333
 30
0.0
 40
2.0
  1
7-9
  0
TEXT
  8
0
  6
CONTINUOUS
 10
20.0
 20
-22.5
 30
0.0
 40
2.0
  1
1-3
  0
TEXT
  8
0
  6
CONTINUOUS
 10
7.5
 20
-29.166667
 30
0.0
 40
2.0
  1
I
  0
TEXT
  8
0
  6
CONTINUOUS
 10
7.5
 20
-25.833333
 30
0.0
 40
2.0
  1
L3
  0
TEXT
  8
0
  6
CONTINUOUS
 10
7.5
 20
-22.5
 30
0.0
 40
2.0
  1
L1
  0
TEXT
  8
0
  6
CONTINUOUS
 10
37.5
 20
-15.0
 30
0.0
 40
2.0
  1
In=5A
  0
TEXT
  8
0
  6
CONTINUOUS
 10
20.0
 20
-15.0
 30
0.0
 40
2.0
  1
In=1A
  0
TEXT
  8
0
  6
CONTINUOUS
 10
20.0
 20
-7.5
 30
0.0
 40
2.0
  1
TERMINALS/UTTAG
  0
LINE
  8
0
  6
CONTINUOUS
 10
32.5
 20
-10.0
 30
0.0
 11
32.5
 21
-32.5
 31
0.0
  0
LINE
  8
0
  6
CONTINUOUS
 10
15.0
 20
-17.5
 30
0.0
 11
52.5
 21
-17.5
 31
0.0
  0
LINE
  8
0
  6
CONTINUOUS
 10
15.0
 20
-10.0
 30
0.0
 11
52.5
 21
-10.0
 31
0.0
  0
LINE
  8
0
  6
CONTINUOUS
 10
2.5
 20
-32.5
 30
0.0
 11
52.5
 21
-32.5
 31
0.0
  0
LINE
  8
0
  6
CONTINUOUS
 10
2.5
 20
-2.5
 30
0.0
 11
52.5
 21
-2.5
 31
0.0
  0
LINE
  8
0
  6
CONTINUOUS
 10
15.0
 20
-2.5
 30
0.0
 11
15.0
 21
-32.5
 31
0.0
  0
LINE
  8
0
  6
CONTINUOUS
 10
2.5
 20
-2.5
 30
0.0
 11
2.5
 21
-32.5
 31
0.0
  0
ENDBLK
  8
0
  0
BLOCK
  8
0
  2
B91
 70
     0
 10
0.0
 20
0.0
 30
0.0
  3
B91
  0
LINE
  8
0
  6
DASHED
 10
0.0
 20
0.0
 30
0.0
 11
17.5
 21
0.0
 31
0.0
  0
LINE
  8
0
  6
DASHED
 10
0.0
 20
5.0
 30
0.0
 11
4.266471
 21
5.0
 31
0.0
  0
LINE
  8
0
  6
DASHED
 10
0.0
 20
10.0
 30
0.0
 11
4.266471
 21
10.0
 31
0.0
  0
LINE
  8
0
  6
CONTINUOUS
 10
6.0
 20
11.5
 30
0.0
 11
5.0
 21
12.5
 31
0.0
  0
LINE
  8
0
  6
DASHED
 10
6.0
 20
10.0
 30
0.0
 11
17.5
 21
10.0
 31
0.0
  0
LINE
  8
0
  6
CONTINUOUS
 10
6.0
 20
11.5
 30
0.0
 11
6.0
 21
4.5
 31
0.0
  0
LINE
  8
0
  6
CONTINUOUS
 10
6.0
 20
4.5
 30
0.0
 11
5.0
 21
3.5
 31
0.0
  0
ENDBLK
  8
0
  0
BLOCK
  8
0
  2
B69
 70
     0
 10
0.0
 20
0.0
 30
0.0
  3
B69
  0
LINE
  8
0
  6
CONTINUOUS
 10
0.0
 20
0.0
 30
0.0
 11
5.0
 21
0.0
 31
0.0
  0
LINE
  8
0
  6
CONTINUOUS
 10
0.0
 20
-10.0
 30
0.0
 11
5.0
 21
-10.0
 31
0.0
  0
LINE
  8
0
  6
CONTINUOUS
 10
0.0
 20
-20.0
 30
0.0
 11
5.0
 21
-20.0
 31
0.0
  0
LINE
  8
0
  6
CONTINUOUS
 10
0.0
 20
-30.0
 30
0.0
 11
5.0
 21
-30.0
 31
0.0
  0
LINE
  8
0
  6
CONTINUOUS
 10
0.0
 20
-40.0
 30
0.0
 11
5.0
 21
-40.0
 31
0.0
  0
LINE
  8
0
  6
CONTINUOUS
 10
0.0
 20
-50.0
 30
0.0
 11
5.0
 21
-50.0
 31
0.0
  0
LINE
  8
0
  6
CONTINUOUS
 10
0.0
 20
-60.0
 30
0.0
 11
5.0
 21
-60.0
 31
0.0
  0
LINE
  8
0
  6
CONTINUOUS
 10
0.0
 20
-70.0
 30
0.0
 11
5.0
 21
-70.0
 31
0.0
  0
LINE
  8
0
  6
CONTINUOUS
 10
7.5
 20
-70.0
 30
0.0
 11
6.5
 21
-71.0
 31
0.0
  0
LINE
  8
0
  6
CONTINUOUS
 10
7.5
 20
-60.0
 30
0.0
 11
7.5
 21
-70.0
 31
0.0
  0
LINE
  8
0
  6
CONTINUOUS
 10
7.5
 20
-60.0
 30
0.0
 11
6.5
 21
-59.0
 31
0.0
  0
LINE
  8
0
  6
CONTINUOUS
 10
7.5
 20
-50.0
 30
0.0
 11
6.5
 21
-51.0
 31
0.0
  0
LINE
  8
0
  6
CONTINUOUS
 10
7.5
 20
-50.0
 30
0.0
 11
7.5
 21
-20.0
 31
0.0
  0
LINE
  8
0
  6
CONTINUOUS
 10
7.5
 20
-20.0
 30
0.0
 11
7.5
 21
0.0
 31
0.0
  0
LINE
  8
0
  6
CONTINUOUS
 10
7.5
 20
0.0
 30
0.0
 11
6.5
 21
1.0
 31
0.0
  0
LINE
  8
0
  6
DASHED
 10
7.5
 20
-25.0
 30
0.0
 11
20.0
 21
-25.0
 31
0.0
  0
LINE
  8
0
  6
DASHED
 10
7.5
 20
-65.0
 30
0.0
 11
20.0
 21
-65.0
 31
0.0
  0
CIRCLE
  8
0
  6
CONTINUOUS
 10
22.5
 20
-65.0
 30
0.0
 40
2.5
  0
CIRCLE
  8
0
  6
CONTINUOUS
 10
22.5
 20
-25.0
 30
0.0
 40
2.5
  0
LINE
  8
0
  6
DASHED
 10
22.5
 20
-15.0
 30
0.0
 11
22.5
 21
-75.0
 31
0.0
  0
ENDBLK
  8
0
  0
BLOCK
  8
0
  2
B117
 70
     0
 10
0.0
 20
0.0
 30
0.0
  3
B117
  0
LINE
  8
0
  6
DASHED
 10
0.0
 20
37.5
 30
0.0
 11
0.0
 21
5.132058
 31
0.0
  0
CIRCLE
  8
0
  6
CONTINUOUS
 10
0.0
 20
22.440007
 30
0.0
 40
4.398585
  0
CIRCLE
  8
0
  6
CONTINUOUS
 10
0.0
 20
-6.055075
 30
0.0
 40
4.398585
  0
CIRCLE
  8
0
  6
CONTINUOUS
 10
0.0
 20
0.733473
 30
0.0
 40
4.398585
  0
LINE
  8
0
  6
CONTINUOUS
 10
2.330189
 20
-1.600047
 30
0.0
 11
-0.003212
 21
0.733355
 31
0.0
  0
LINE
  8
0
  6
CONTINUOUS
 10
-0.003212
 20
0.733355
 30
0.0
 11
-2.336614
 21
-1.600047
 31
0.0
  0
LINE
  8
0
  6
CONTINUOUS
 10
-0.003212
 20
0.733355
 30
0.0
 11
-0.003212
 21
3.066756
 31
0.0
  0
LINE
  8
0
  6
DASHED
 10
0.0
 20
0.733473
 30
0.0
 11
12.5
 21
0.733473
 31
0.0
  0
INSERT
  8
0
  6
DASHED
  2
B97
 10
14.158425
 20
0.733484
 30
0.0
 50
90.0
  0
ENDBLK
  8
0
  0
BLOCK
  8
0
  2
B97
 70
    64
 10
0.0
 20
0.0
 30
0.0
  3
B97
  0
INSERT
  8
0
  6
DASHED
  2
BLC15
 10
-0.142087
 20
-2.191142
 30
0.0
  0
ENDBLK
  8
0
  0
BLOCK
  8
0
  2
B74
 70
     0
 10
0.0
 20
0.0
 30
0.0
  3
B74
  0
TEXT
  8
0
  6
CONTINUOUS
 10
2.329422
 20
9.526264
 30
0.0
 40
1.8
  1
162 mm
  7
GREEKS
  0
TEXT
  8
0
  6
CONTINUOUS
 10
-12.590453
 20
20.563425
 30
0.0
 40
1.8
  1
142 mm
  7
GREEKS
  0
ARC
  8
0
  6
CONTINUOUS
 10
-0.685275
 20
1.784081
 30
0.0
 40
2.0
 50
270.0
 51
0.0
  0
ARC
  8
0
  6
CONTINUOUS
 10
-14.031047
 20
1.784081
 30
0.0
 40
2.0
 50
180.0
 51
270.0
  0
ARC
  8
0
  6
CONTINUOUS
 10
-14.031047
 20
17.282894
 30
0.0
 40
2.0
 50
90.0
 51
180.0
  0
ARC
  8
0
  6
CONTINUOUS
 10
-0.685275
 20
17.282894
 30
0.0
 40
2.0
 50
0.0
 51
90.0
  0
LINE
  8
0
  6
CONTINUOUS
 10
-16.031047
 20
17.282894
 30
0.0
 11
-16.031047
 21
1.784081
 31
0.0
  0
LINE
  8
0
  6
CONTINUOUS
 10
-0.685275
 20
19.282894
 30
0.0
 11
-14.031047
 21
19.282894
 31
0.0
  0
LINE
  8
0
  6
CONTINUOUS
 10
1.314725
 20
1.784081
 30
0.0
 11
1.314725
 21
17.282894
 31
0.0
  0
LINE
  8
0
  6
CONTINUOUS
 10
-14.031047
 20
-0.215919
 30
0.0
 11
-0.685275
 21
-0.215919
 31
0.0
  0
TEXT
  8
0
  6
CONTINUOUS
 10
-16.318348
 20
-4.949735
 30
0.0
 40
2.0
  1
SPAJ 160 C 
  7
GREEKS
  0
ENDBLK
  8
0
  0
BLOCK
  8
0
  2
B63
 70
     0
 10
0.0
 20
0.0
 30
0.0
  3
B63
  0
LINE
  8
BASE
  6
CONTINUOUS
 10
-5.0
 20
-5.0
 30
0.0
 11
-5.0
 21
-2.5
 31
0.0
  0
LINE
  8
BASE
  6
CONTINUOUS
 10
-5.0
 20
-5.0
 30
0.0
 11
-10.0
 21
-5.0
 31
0.0
  0
LINE
  8
BASE
  6
CONTINUOUS
 10
-0.373205
 20
-0.208872
 30
0.0
 11
-5.743924
 21
-3.214703
 31
0.0
  0
LINE
  8
BASE
  6
CONTINUOUS
 10
-10.0
 20
0.0
 30
0.0
 11
-5.0
 21
0.0
 31
0.0
  0
CIRCLE
  8
BASE
  6
CONTINUOUS
 10
0.0
 20
0.0
 30
0.0
 40
0.427679
  0
LINE
  8
BASE
  6
CONTINUOUS
 10
0.427679
 20
0.0
 30
0.0
 11
5.0
 21
0.0
 31
0.0
  0
ENDBLK
  8
0
  0
BLOCK
  8
0
  2
B31
 70
     0
 10
0.0
 20
0.0
 30
0.0
  3
B31
  0
LINE
  8
0
  6
DASHED
 10
65.0
 20
-52.5
 30
0.0
 11
65.0
 21
-67.5
 31
0.0
  0
LINE
  8
0
  6
DASHED
 10
57.5
 20
-52.5
 30
0.0
 11
57.5
 21
-67.5
 31
0.0
  0
LINE
  8
0
  6
DASHED
 10
50.0
 20
-52.5
 30
0.0
 11
50.0
 21
-67.5
 31
0.0
  0
POLYLINE
  8
0
  6
DASHED
 66
     1
 10
0.0
 20
0.0
 30
0.0
 70
     1
 40
0.25
 41
0.25
 71
     2
 72
   251
  0
VERTEX
  8
0
  6
DASHED
 10
42.125
 20
-50.0
 30
0.0
 42
1.0
  0
VERTEX
  8
0
  6
DASHED
 10
42.875
 20
-50.0
 30
0.0
 42
1.0
  0
SEQEND
  8
0
  6
DASHED
  0
LINE
  8
0
  6
DASHED
 10
10.0
 20
-10.0
 30
0.0
 11
10.0
 21
-50.0
 31
0.0
  0
LINE
  8
0
  6
DASHED
 10
10.0
 20
-50.0
 30
0.0
 11
42.5
 21
-50.0
 31
0.0
  0
POLYLINE
  8
0
  6
DASHED
 66
     1
 10
0.0
 20
0.0
 30
0.0
 70
     1
 40
0.25
 41
0.25
 71
     2
 72
   151
  0
VERTEX
  8
0
  6
DASHED
 10
42.124304
 20
-44.809877
 30
0.0
 42
1.0
  0
VERTEX
  8
0
  6
DASHED
 10
42.874304
 20
-44.809877
 30
0.0
 42
1.0
  0
SEQEND
  8
0
  6
DASHED
  0
POLYLINE
  8
0
  6
DASHED
 66
     1
 10
0.0
 20
0.0
 30
0.0
 70
     1
 40
0.25
 41
0.25
 71
     2
 72
   151
  0
VERTEX
  8
0
  6
DASHED
 10
42.124944
 20
-24.809955
 30
0.0
 42
1.0
  0
VERTEX
  8
0
  6
DASHED
 10
42.874944
 20
-24.809955
 30
0.0
 42
1.0
  0
SEQEND
  8
0
  6
DASHED
  0
LINE
  8
0
  6
DASHED
 10
65.006921
 20
-44.810016
 30
0.0
 11
42.923681
 21
-44.810016
 31
0.0
  0
LINE
  8
0
  6
DASHED
 10
57.569797
 20
-24.810016
 30
0.0
 11
42.695548
 21
-24.810016
 31
0.0
  0
POLYLINE
  8
0
  6
DASHED
 66
     1
 10
0.0
 20
0.0
 30
0.0
 70
     1
 40
0.25
 41
0.25
 71
     2
 72
   151
  0
VERTEX
  8
0
  6
DASHED
 10
9.625
 20
-50.0
 30
0.0
 42
1.0
  0
VERTEX
  8
0
  6
DASHED
 10
10.375
 20
-50.0
 30
0.0
 42
1.0
  0
SEQEND
  8
0
  6
DASHED
  0
POLYLINE
  8
0
  6
DASHED
 66
     1
 10
0.0
 20
0.0
 30
0.0
 70
     1
 40
0.25
 41
0.25
 71
     2
 72
   151
  0
VERTEX
  8
0
  6
DASHED
 10
9.625
 20
-30.0
 30
0.0
 42
1.0
  0
VERTEX
  8
0
  6
DASHED
 10
10.375
 20
-30.0
 30
0.0
 42
1.0
  0
SEQEND
  8
0
  6
DASHED
  0
LINE
  8
0
  6
DASHED
 10
42.5
 20
-4.810008
 30
0.0
 11
42.5
 21
-52.5
 31
0.0
  0
LINE
  8
0
  6
DASHED
 10
50.0
 20
-27.5
 30
0.0
 11
50.0
 21
-52.5
 31
0.0
  0
LINE
  8
0
  6
DASHED
 10
57.5
 20
-27.5
 30
0.0
 11
57.5
 21
-52.5
 31
0.0
  0
LINE
  8
0
  6
DASHED
 10
65.0
 20
-27.5
 30
0.0
 11
65.0
 21
-52.5
 31
0.0
  0
INSERT
  8
0
  6
CONTINUOUS
  2
BLC15
 10
42.357916
 20
-55.0
 30
0.0
  0
INSERT
  8
0
  6
CONTINUOUS
  2
BLC27
 10
51.491154
 20
-2.381567
 30
0.0
 50
180.0
  0
LINE
  8
0
  6
DASHED
 10
50.0
 20
5.0
 30
0.0
 11
50.0
 21
-27.5
 31
0.0
  0
LINE
  8
0
  6
DASHED
 10
50.0
 20
12.5
 30
0.0
 11
50.0
 21
25.0
 31
0.0
  0
LINE
  8
0
  6
DASHED
 10
57.5
 20
25.0
 30
0.0
 11
57.5
 21
12.5
 31
0.0
  0
LINE
  8
0
  6
DASHED
 10
57.5
 20
5.0
 30
0.0
 11
57.5
 21
-27.5
 31
0.0
  0
LINE
  8
0
  6
DASHED
 10
65.0
 20
25.0
 30
0.0
 11
65.0
 21
12.5
 31
0.0
  0
LINE
  8
0
  6
DASHED
 10
65.0
 20
5.0
 30
0.0
 11
65.0
 21
-27.5
 31
0.0
  0
LINE
  8
0
  6
DASHED
 10
80.0
 20
25.0
 30
0.0
 11
22.5
 21
25.0
 31
0.0
  0
LINE
  8
0
  6
DASHED
 10
80.0
 20
32.5
 30
0.0
 11
22.5
 21
32.5
 31
0.0
  0
LINE
  8
0
  6
DASHED
 10
80.0
 20
40.0
 30
0.0
 11
22.5
 21
40.0
 31
0.0
  0
LINE
  8
0
  6
DASHED
 10
57.5
 20
25.0
 30
0.0
 11
57.5
 21
32.5
 31
0.0
  0
LINE
  8
0
  6
DASHED
 10
50.0
 20
25.0
 30
0.0
 11
50.0
 21
40.0
 31
0.0
  0
INSERT
  8
0
  6
CONTINUOUS
  2
BLC27
 10
59.01227
 20
-22.38157
 30
0.0
 50
180.0
  0
LINE
  8
0
  6
CONTINUOUS
 10
50.0
 20
5.0
 30
0.0
 11
47.5
 21
12.5
 31
0.0
  0
LINE
  8
0
  6
CONTINUOUS
 10
57.5
 20
5.0
 30
0.0
 11
55.0
 21
12.5
 31
0.0
  0
LINE
  8
0
  6
CONTINUOUS
 10
65.0
 20
5.0
 30
0.0
 11
62.5
 21
12.5
 31
0.0
  0
LINE
  8
0
  6
CONTINUOUS
 10
50.0
 20
12.5
 30
0.0
 11
49.5
 21
13.0
 31
0.0
  0
LINE
  8
0
  6
CONTINUOUS
 10
50.0
 20
12.5
 30
0.0
 11
50.5
 21
12.0
 31
0.0
  0
LINE
  8
0
  6
CONTINUOUS
 10
50.0
 20
12.5
 30
0.0
 11
50.5
 21
13.0
 31
0.0
  0
LINE
  8
0
  6
CONTINUOUS
 10
50.0
 20
12.5
 30
0.0
 11
49.5
 21
12.0
 31
0.0
  0
LINE
  8
0
  6
CONTINUOUS
 10
57.5
 20
12.5
 30
0.0
 11
58.0
 21
13.0
 31
0.0
  0
LINE
  8
0
  6
CONTINUOUS
 10
57.5
 20
12.5
 30
0.0
 11
58.0
 21
12.0
 31
0.0
  0
LINE
  8
0
  6
CONTINUOUS
 10
57.5
 20
12.5
 30
0.0
 11
57.0
 21
12.0
 31
0.0
  0
LINE
  8
0
  6
CONTINUOUS
 10
57.5
 20
12.5
 30
0.0
 11
57.0
 21
13.0
 31
0.0
  0
LINE
  8
0
  6
CONTINUOUS
 10
65.0
 20
12.5
 30
0.0
 11
65.5
 21
12.0
 31
0.0
  0
LINE
  8
0
  6
CONTINUOUS
 10
65.0
 20
12.5
 30
0.0
 11
65.5
 21
13.0
 31
0.0
  0
LINE
  8
0
  6
CONTINUOUS
 10
65.0
 20
12.5
 30
0.0
 11
64.5
 21
13.0
 31
0.0
  0
LINE
  8
0
  6
CONTINUOUS
 10
65.0
 20
12.5
 30
0.0
 11
64.5
 21
12.0
 31
0.0
  0
POLYLINE
  8
0
  6
CONTINUOUS
 66
     1
 10
0.0
 20
0.0
 30
0.0
 70
     1
 40
0.25
 41
0.25
 71
     2
 72
   151
  0
VERTEX
  8
0
  6
CONTINUOUS
 10
64.625
 20
25.0
 30
0.0
 42
1.0
  0
VERTEX
  8
0
  6
CONTINUOUS
 10
65.375
 20
25.0
 30
0.0
 42
1.0
  0
SEQEND
  8
0
  6
CONTINUOUS
  0
POLYLINE
  8
0
  6
CONTINUOUS
 66
     1
 10
0.0
 20
0.0
 30
0.0
 70
     1
 40
0.25
 41
0.25
 71
     2
 72
   151
  0
VERTEX
  8
0
  6
CONTINUOUS
 10
57.125
 20
32.5
 30
0.0
 42
1.0
  0
VERTEX
  8
0
  6
CONTINUOUS
 10
57.875
 20
32.5
 30
0.0
 42
1.0
  0
SEQEND
  8
0
  6
CONTINUOUS
  0
POLYLINE
  8
0
  6
CONTINUOUS
 66
     1
 10
0.0
 20
0.0
 30
0.0
 70
     1
 40
0.25
 41
0.25
 71
     2
 72
   151
  0
VERTEX
  8
0
  6
CONTINUOUS
 10
49.625
 20
40.0
 30
0.0
 42
1.0
  0
VERTEX
  8
0
  6
CONTINUOUS
 10
50.375
 20
40.0
 30
0.0
 42
1.0
  0
SEQEND
  8
0
  6
CONTINUOUS
  0
INSERT
  8
0
  6
CONTINUOUS
  2
BLC27
 10
66.491155
 20
-42.381569
 30
0.0
 50
180.0
  0
LINE
  8
0
  6
DASHED
 10
50.0
 20
-4.810008
 30
0.0
 11
42.5
 21
-4.810008
 31
0.0
  0
TEXT
  8
0
  6
CONTINUOUS
 10
13.732328
 20
38.985054
 30
0.0
 40
2.0
  1
L1(R)
 11
13.732328
 21
38.318387
 31
0.0
 73
     1
  0
TEXT
  8
0
  6
CONTINUOUS
 10
13.732328
 20
31.428359
 30
0.0
 40
2.0
  1
L2(S)
 11
13.732328
 21
30.761693
 31
0.0
 73
     1
  0
TEXT
  8
0
  6
CONTINUOUS
 10
13.732328
 20
24.006967
 30
0.0
 40
2.0
  1
L3(T)
 11
13.732328
 21
23.3403
 31
0.0
 73
     1
  0
LINE
  8
0
  6
DASHED
 10
0.0
 20
-40.0
 30
0.0
 11
65.0
 21
-40.0
 31
0.0
  0
LINE
  8
0
  6
DASHED
 10
0.0
 20
-50.0
 30
0.0
 11
10.0
 21
-50.0
 31
0.0
  0
LINE
  8
0
  6
DASHED
 10
0.0
 20
-30.0
 30
0.0
 11
10.0
 21
-30.0
 31
0.0
  0
LINE
  8
0
  6
DASHED
 10
0.0
 20
-20.0
 30
0.0
 11
57.5
 21
-20.0
 31
0.0
  0
LINE
  8
0
  6
DASHED
 10
0.0
 20
-10.0
 30
0.0
 11
10.0
 21
-10.0
 31
0.0
  0
LINE
  8
0
  6
DASHED
 10
0.0
 20
0.0
 30
0.0
 11
50.0
 21
0.0
 31
0.0
  0
ENDBLK
  8
0
  0
BLOCK
  8
0
  2
B155
 70
    64
 10
0.0
 20
0.0
 30
0.0
  3
B155
  0
LINE
  8
0
  6
CONTINUOUS
 10
0.0
 20
0.0
 30
0.0
 11
0.0
 21
-1.35427
 31
0.0
  0
LINE
  8
0
  6
CONTINUOUS
 10
-1.210228
 20
-1.35427
 30
0.0
 11
-0.015887
 21
-1.35427
 31
0.0
  0
LINE
  8
0
  6
CONTINUOUS
 10
-0.015887
 20
-1.35427
 30
0.0
 11
1.178454
 21
-1.35427
 31
0.0
  0
LINE
  8
0
  6
CONTINUOUS
 10
-0.831823
 20
-1.833881
 30
0.0
 11
0.752749
 21
-1.833881
 31
0.0
  0
LINE
  8
0
  6
CONTINUOUS
 10
-0.500718
 20
-2.322055
 30
0.0
 11
0.386169
 21
-2.322055
 31
0.0
  0
ENDBLK
  8
0
  0
BLOCK
  8
0
  2
B148
 70
     0
 10
0.0
 20
0.0
 30
0.0
  3
B148
  0
TEXT
  8
0
  6
CENTER
 10
5.941562
 20
-39.004661
 30
0.0
 40
2.0
  1
1)
  0
TEXT
  8
0
  6
CENTER
 10
5.941562
 20
-19.08857
 30
0.0
 40
2.0
  1
1)
  0
TEXT
  8
0
  6
CENTER
 10
5.941562
 20
1.009749
 30
0.0
 40
2.0
  1
1)
  0
LINE
  8
0
  6
CONTINUOUS
 10
5.0
 20
-39.6532
 30
0.0
 11
5.0
 21
-45.33813
 31
0.0
  0
LINE
  8
0
  6
CONTINUOUS
 10
5.0
 20
-45.33813
 30
0.0
 11
4.0
 21
-46.33813
 31
0.0
  0
LINE
  8
0
  6
CONTINUOUS
 10
5.0
 20
-39.6532
 30
0.0
 11
4.0
 21
-38.6532
 31
0.0
  0
LINE
  8
0
  6
CONTINUOUS
 10
5.0
 20
-19.6532
 30
0.0
 11
4.0
 21
-18.6532
 31
0.0
  0
LINE
  8
0
  6
CONTINUOUS
 10
5.0
 20
-25.33813
 30
0.0
 11
4.0
 21
-26.33813
 31
0.0
  0
LINE
  8
0
  6
CONTINUOUS
 10
5.0
 20
-19.6532
 30
0.0
 11
5.0
 21
-25.33813
 31
0.0
  0
LINE
  8
0
  6
CONTINUOUS
 10
5.0
 20
0.3468
 30
0.0
 11
5.0
 21
-5.33813
 31
0.0
  0
LINE
  8
0
  6
CONTINUOUS
 10
5.0
 20
-5.33813
 30
0.0
 11
4.0
 21
-6.33813
 31
0.0
  0
LINE
  8
0
  6
CONTINUOUS
 10
5.0
 20
0.3468
 30
0.0
 11
4.0
 21
1.3468
 31
0.0
  0
LINE
  8
0
  6
CONTINUOUS
 10
0.0
 20
0.0
 30
0.0
 11
2.5
 21
0.0
 31
0.0
  0
LINE
  8
0
  6
CONTINUOUS
 10
0.0
 20
-5.0
 30
0.0
 11
2.5
 21
-5.0
 31
0.0
  0
LINE
  8
0
  6
CONTINUOUS
 10
0.0
 20
-20.0
 30
0.0
 11
2.5
 21
-20.0
 31
0.0
  0
LINE
  8
0
  6
CONTINUOUS
 10
0.0
 20
-25.0
 30
0.0
 11
2.5
 21
-25.0
 31
0.0
  0
LINE
  8
0
  6
CONTINUOUS
 10
0.0
 20
-40.0
 30
0.0
 11
2.5
 21
-40.0
 31
0.0
  0
LINE
  8
0
  6
CONTINUOUS
 10
0.0
 20
-45.0
 30
0.0
 11
2.5
 21
-45.0
 31
0.0
  0
TEXT
  8
0
  6
CONTINUOUS
 10
-1.267672
 20
38.985054
 30
0.0
 40
2.0
  1
L1(R)
 11
-1.267672
 21
38.318387
 31
0.0
 73
     1
  0
TEXT
  8
0
  6
CONTINUOUS
 10
-1.267672
 20
33.928359
 30
0.0
 40
2.0
  1
L2(S)
 11
-1.267672
 21
33.261693
 31
0.0
 73
     1
  0
TEXT
  8
0
  6
CONTINUOUS
 10
-1.267672
 20
29.006967
 30
0.0
 40
2.0
  1
L3(T)
 11
-1.267672
 21
28.3403
 31
0.0
 73
     1
  0
LINE
  8
0
  6
DASHED
 10
35.0
 20
-37.5
 30
0.0
 11
35.0
 21
-55.0
 31
0.0
  0
POLYLINE
  8
0
  6
DASHED
 66
     1
 10
0.0
 20
0.0
 30
0.0
 70
     1
 40
0.25
 41
0.25
 71
     2
 72
   151
  0
VERTEX
  8
0
  6
DASHED
 10
24.623777
 20
-30.00007
 30
0.0
 42
1.0
  0
VERTEX
  8
0
  6
DASHED
 10
25.373777
 20
-30.00007
 30
0.0
 42
1.0
  0
SEQEND
  8
0
  6
DASHED
  0
POLYLINE
  8
0
  6
DASHED
 66
     1
 10
0.0
 20
0.0
 30
0.0
 70
     1
 40
0.25
 41
0.25
 71
     2
 72
   151
  0
VERTEX
  8
0
  6
DASHED
 10
24.624033
 20
-24.810354
 30
0.0
 42
1.0
  0
VERTEX
  8
0
  6
DASHED
 10
25.374033
 20
-24.810354
 30
0.0
 42
1.0
  0
SEQEND
  8
0
  6
DASHED
  0
LINE
  8
0
  6
DASHED
 10
40.0
 20
-20.0
 30
0.0
 11
5.0
 21
-20.0
 31
0.0
  0
LINE
  8
0
  6
DASHED
 10
30.0
 20
0.0
 30
0.0
 11
5.0
 21
0.0
 31
0.0
  0
LINE
  8
0
  6
DASHED
 10
32.5
 20
-50.0
 30
0.0
 11
35.0
 21
-50.0
 31
0.0
  0
LINE
  8
0
  6
DASHED
 10
35.0
 20
-50.0
 30
0.0
 11
35.0
 21
-50.0
 31
0.0
  0
LINE
  8
0
  6
DASHED
 10
22.5
 20
-45.189984
 30
0.0
 11
35.0
 21
-45.189984
 31
0.0
  0
LINE
  8
0
  6
CONTINUOUS
 10
32.5
 20
-47.59856
 30
0.0
 11
35.0
 21
-47.59856
 31
0.0
  0
INSERT
  8
0
  6
CONTINUOUS
  2
BLC27
 10
36.49116
 20
-47.571554
 30
0.0
 50
180.0
  0
LINE
  8
0
  6
DASHED
 10
22.5
 20
-55.0
 30
0.0
 11
22.5
 21
-50.0
 31
0.0
  0
INSERT
  8
0
  6
CONTINUOUS
  2
BLC15
 10
22.357916
 20
-57.5
 30
0.0
  0
POLYLINE
  8
0
  6
DASHED
 66
     1
 10
0.0
 20
0.0
 30
0.0
 70
     1
 40
0.25
 41
0.25
 71
     2
 72
   151
  0
VERTEX
  8
0
  6
DASHED
 10
32.125
 20
-32.5
 30
0.0
 42
1.0
  0
VERTEX
  8
0
  6
DASHED
 10
32.875
 20
-32.5
 30
0.0
 42
1.0
  0
SEQEND
  8
0
  6
DASHED
  0
LINE
  8
0
  6
DASHED
 10
32.5
 20
-32.5
 30
0.0
 11
32.5
 21
-55.0
 31
0.0
  0
LINE
  8
0
  6
CONTINUOUS
 10
35.0
 20
-37.5
 30
0.0
 11
37.5
 21
-32.5
 31
0.0
  0
LINE
  8
0
  6
CONTINUOUS
 10
32.5
 20
-32.5
 30
0.0
 11
35.0
 21
-37.5
 31
0.0
  0
LINE
  8
0
  6
CONTINUOUS
 10
30.0
 20
-32.5
 30
0.0
 11
40.0
 21
-32.5
 31
0.0
  0
LINE
  8
0
  6
DASHED
 10
25.0
 20
-4.810008
 30
0.0
 11
25.0
 21
-32.5
 31
0.0
  0
POLYLINE
  8
0
  6
DASHED
 66
     1
 10
0.0
 20
0.0
 30
0.0
 70
     1
 40
0.25
 41
0.25
 71
     2
 72
   251
  0
VERTEX
  8
0
  6
DASHED
 10
22.125
 20
-50.0
 30
0.0
 42
1.0
  0
VERTEX
  8
0
  6
DASHED
 10
22.875
 20
-50.0
 30
0.0
 42
1.0
  0
SEQEND
  8
0
  6
DASHED
  0
INSERT
  8
0
  6
CONTINUOUS
  2
BLC15
 10
32.357916
 20
-57.5
 30
0.0
  0
LINE
  8
0
  6
DASHED
 10
22.5
 20
-40.0
 30
0.0
 11
22.5
 21
-45.189984
 31
0.0
  0
LINE
  8
0
  6
DASHED
 10
5.0
 20
-40.0
 30
0.0
 11
22.5
 21
-40.0
 31
0.0
  0
LINE
  8
0
  6
DASHED
 10
10.0
 20
-10.0
 30
0.0
 11
10.0
 21
-30.0
 31
0.0
  0
LINE
  8
0
  6
DASHED
 10
40.006921
 20
-24.810016
 30
0.0
 11
25.0
 21
-24.810016
 31
0.0
  0
POLYLINE
  8
0
  6
DASHED
 66
     1
 10
0.0
 20
0.0
 30
0.0
 70
     1
 40
0.25
 41
0.25
 71
     2
 72
   151
  0
VERTEX
  8
0
  6
DASHED
 10
9.625
 20
-30.0
 30
0.0
 42
1.0
  0
VERTEX
  8
0
  6
DASHED
 10
10.375
 20
-30.0
 30
0.0
 42
1.0
  0
SEQEND
  8
0
  6
DASHED
  0
LINE
  8
0
  6
DASHED
 10
30.0
 20
-27.5
 30
0.0
 11
30.0
 21
-30.0
 31
0.0
  0
LINE
  8
0
  6
DASHED
 10
35.0
 20
-27.5
 30
0.0
 11
35.0
 21
-30.0
 31
0.0
  0
LINE
  8
0
  6
DASHED
 10
40.0
 20
-27.5
 30
0.0
 11
40.0
 21
-30.0
 31
0.0
  0
INSERT
  8
0
  6
CONTINUOUS
  2
BLC15
 10
24.857916
 20
-35.0
 30
0.0
  0
INSERT
  8
0
  6
CONTINUOUS
  2
BLC27
 10
31.491154
 20
-2.381567
 30
0.0
 50
180.0
  0
LINE
  8
0
  6
DASHED
 10
30.0
 20
5.0
 30
0.0
 11
30.0
 21
-32.5
 31
0.0
  0
LINE
  8
0
  6
DASHED
 10
30.0
 20
12.5
 30
0.0
 11
30.0
 21
25.0
 31
0.0
  0
LINE
  8
0
  6
DASHED
 10
35.0
 20
35.0
 30
0.0
 11
35.0
 21
12.5
 31
0.0
  0
LINE
  8
0
  6
DASHED
 10
35.0
 20
5.0
 30
0.0
 11
35.0
 21
-32.5
 31
0.0
  0
LINE
  8
0
  6
DASHED
 10
40.0
 20
30.0
 30
0.0
 11
40.0
 21
12.5
 31
0.0
  0
LINE
  8
0
  6
DASHED
 10
40.0
 20
5.0
 30
0.0
 11
40.0
 21
-32.5
 31
0.0
  0
LINE
  8
0
  6
DASHED
 10
35.0
 20
25.0
 30
0.0
 11
35.0
 21
32.5
 31
0.0
  0
LINE
  8
0
  6
DASHED
 10
30.0
 20
25.0
 30
0.0
 11
30.0
 21
40.0
 31
0.0
  0
LINE
  8
0
  6
CONTINUOUS
 10
30.0
 20
5.0
 30
0.0
 11
27.5
 21
12.5
 31
0.0
  0
LINE
  8
0
  6
CONTINUOUS
 10
35.0
 20
5.0
 30
0.0
 11
32.5
 21
12.5
 31
0.0
  0
LINE
  8
0
  6
CONTINUOUS
 10
40.0
 20
5.0
 30
0.0
 11
37.5
 21
12.5
 31
0.0
  0
LINE
  8
0
  6
CONTINUOUS
 10
30.0
 20
12.5
 30
0.0
 11
29.5
 21
13.0
 31
0.0
  0
LINE
  8
0
  6
CONTINUOUS
 10
30.0
 20
12.5
 30
0.0
 11
30.5
 21
12.0
 31
0.0
  0
LINE
  8
0
  6
CONTINUOUS
 10
30.0
 20
12.5
 30
0.0
 11
30.5
 21
13.0
 31
0.0
  0
LINE
  8
0
  6
CONTINUOUS
 10
30.0
 20
12.5
 30
0.0
 11
29.5
 21
12.0
 31
0.0
  0
LINE
  8
0
  6
CONTINUOUS
 10
35.0
 20
12.5
 30
0.0
 11
35.5
 21
13.0
 31
0.0
  0
LINE
  8
0
  6
CONTINUOUS
 10
35.0
 20
12.5
 30
0.0
 11
35.5
 21
12.0
 31
0.0
  0
LINE
  8
0
  6
CONTINUOUS
 10
35.0
 20
12.5
 30
0.0
 11
34.5
 21
12.0
 31
0.0
  0
LINE
  8
0
  6
CONTINUOUS
 10
35.0
 20
12.5
 30
0.0
 11
34.5
 21
13.0
 31
0.0
  0
LINE
  8
0
  6
CONTINUOUS
 10
40.0
 20
12.5
 30
0.0
 11
40.5
 21
12.0
 31
0.0
  0
LINE
  8
0
  6
CONTINUOUS
 10
40.0
 20
12.5
 30
0.0
 11
40.5
 21
13.0
 31
0.0
  0
LINE
  8
0
  6
CONTINUOUS
 10
40.0
 20
12.5
 30
0.0
 11
39.5
 21
13.0
 31
0.0
  0
LINE
  8
0
  6
CONTINUOUS
 10
40.0
 20
12.5
 30
0.0
 11
39.5
 21
12.0
 31
0.0
  0
POLYLINE
  8
0
  6
CONTINUOUS
 66
     1
 10
0.0
 20
0.0
 30
0.0
 70
     1
 40
0.25
 41
0.25
 71
     2
 72
   151
  0
VERTEX
  8
0
  6
CONTINUOUS
 10
39.625
 20
30.0
 30
0.0
 42
1.0
  0
VERTEX
  8
0
  6
CONTINUOUS
 10
40.375
 20
30.0
 30
0.0
 42
1.0
  0
SEQEND
  8
0
  6
CONTINUOUS
  0
POLYLINE
  8
0
  6
CONTINUOUS
 66
     1
 10
0.0
 20
0.0
 30
0.0
 70
     1
 40
0.25
 41
0.25
 71
     2
 72
   151
  0
VERTEX
  8
0
  6
CONTINUOUS
 10
34.625
 20
35.0
 30
0.0
 42
1.0
  0
VERTEX
  8
0
  6
CONTINUOUS
 10
35.375
 20
35.0
 30
0.0
 42
1.0
  0
SEQEND
  8
0
  6
CONTINUOUS
  0
POLYLINE
  8
0
  6
CONTINUOUS
 66
     1
 10
0.0
 20
0.0
 30
0.0
 70
     1
 40
0.25
 41
0.25
 71
     2
 72
   151
  0
VERTEX
  8
0
  6
CONTINUOUS
 10
29.625
 20
40.0
 30
0.0
 42
1.0
  0
VERTEX
  8
0
  6
CONTINUOUS
 10
30.375
 20
40.0
 30
0.0
 42
1.0
  0
SEQEND
  8
0
  6
CONTINUOUS
  0
INSERT
  8
0
  6
CONTINUOUS
  2
BLC27
 10
41.491155
 20
-22.381569
 30
0.0
 50
180.0
  0
LINE
  8
0
  6
DASHED
 10
30.0
 20
-4.810008
 30
0.0
 11
25.0
 21
-4.810008
 31
0.0
  0
LINE
  8
0
  6
DASHED
 10
0.0
 20
-50.0
 30
0.0
 11
32.5
 21
-50.0
 31
0.0
  0
LINE
  8
0
  6
DASHED
 10
0.0
 20
-30.0
 30
0.0
 11
25.0
 21
-30.0
 31
0.0
  0
LINE
  8
0
  6
DASHED
 10
0.0
 20
-10.0
 30
0.0
 11
10.0
 21
-10.0
 31
0.0
  0
LINE
  8
0
  6
DASHED
 10
55.0
 20
30.0
 30
0.0
 11
7.5
 21
30.0
 31
0.0
  0
LINE
  8
0
  6
DASHED
 10
55.0
 20
35.0
 30
0.0
 11
7.5
 21
35.0
 31
0.0
  0
LINE
  8
0
  6
DASHED
 10
55.0
 20
40.0
 30
0.0
 11
7.5
 21
40.0
 31
0.0
  0
ENDBLK
  8
0
  0
BLOCK
  8
0
  2
B37
 70
     0
 10
0.0
 20
0.0
 30
0.0
  3
B37
  0
LINE
  8
BASE
  6
CONTINUOUS
 10
-0.006589
 20
-6.018035
 30
0.0
 11
2.434804
 21
0.662841
 31
0.0
  0
LINE
  8
BASE
  6
CONTINUOUS
 10
0.0
 20
0.0
 30
0.0
 11
2.765661
 21
0.0
 31
0.0
  0
LINE
  8
BASE
  6
CONTINUOUS
 10
2.434804
 20
0.662841
 30
0.0
 11
1.549106
 21
1.107734
 31
0.0
  0
CIRCLE
  8
BASE
  6
CONTINUOUS
 10
0.0
 20
-6.758945
 30
0.0
 40
0.740939
  0
ENDBLK
  8
0
  0
BLOCK
  8
0
  2
B70
 70
     0
 10
0.0
 20
0.0
 30
0.0
  3
B70
  0
TEXT
  8
BASE
  6
CONTINUOUS
 10
6.776354
 20
-58.880245
 30
0.0
 40
2.0
  1
9)
  0
TEXT
  8
BASE
  6
CONTINUOUS
 10
6.776354
 20
-38.880245
 30
0.0
 40
2.0
  1
9)
  0
TEXT
  8
BASE
  6
CONTINUOUS
 10
6.776354
 20
-18.880245
 30
0.0
 40
2.0
  1
9)
  0
TEXT
  8
BASE
  6
CONTINUOUS
 10
6.776354
 20
1.119755
 30
0.0
 40
2.0
  1
9)
  0
TEXT
  8
BASE
  6
CONTINUOUS
 10
8.134884
 20
-32.687464
 30
0.0
 40
2.0
  1
SI
  0
TEXT
  8
BASE
  6
CONTINUOUS
 10
8.134884
 20
-22.531619
 30
0.0
 40
2.0
  1
SI
  0
TEXT
  8
BASE
  6
CONTINUOUS
 10
8.173717
 20
-72.731978
 30
0.0
 40
2.0
  1
NI
  0
TEXT
  8
BASE
  6
CONTINUOUS
 10
14.735291
 20
-72.870666
 30
0.0
 40
2.0
  1
10B
  0
TEXT
  8
BASE
  6
CONTINUOUS
 10
14.735291
 20
-63.940088
 30
0.0
 40
2.0
  1
9B
  0
CIRCLE
  8
BASE
  6
CONTINUOUS
 10
23.449551
 20
-65.028782
 30
0.0
 40
1.0
  0
LINE
  8
BASE
 10
22.449552
 20
-65.030442
 30
0.0
 11
16.7
 21
-68.5
 31
0.0
  0
LINE
  8
BASE
 10
17.5
 20
-70.0
 30
0.0
 11
17.5
 21
-67.1
 31
0.0
  0
LINE
  8
BASE
 10
15.0
 20
-70.0
 30
0.0
 11
17.5
 21
-70.0
 31
0.0
  0
LINE
  8
BASE
 10
16.38095
 20
-68.055575
 30
0.0
 11
17.060313
 21
-68.991319
 31
0.0
  0
CIRCLE
  8
BASE
  6
CONTINUOUS
 10
23.449551
 20
-55.028782
 30
0.0
 40
1.0
  0
LINE
  8
BASE
 10
17.5
 20
-60.0
 30
0.0
 11
17.5
 21
-57.1
 31
0.0
  0
LINE
  8
BASE
 10
22.449552
 20
-55.030442
 30
0.0
 11
16.7
 21
-58.5
 31
0.0
  0
LINE
  8
BASE
 10
15.0
 20
-60.0
 30
0.0
 11
17.5
 21
-60.0
 31
0.0
  0
LINE
  8
BASE
 10
16.38095
 20
-58.055575
 30
0.0
 11
17.060313
 21
-58.991319
 31
0.0
  0
LINE
  8
BASE
 10
15.0
 20
-55.0
 30
0.0
 11
17.5
 21
-55.0
 31
0.0
  0
LINE
  8
BASE
 10
12.5
 20
-55.00155
 30
0.0
 11
15.0
 21
-55.00155
 31
0.0
  0
LINE
  8
BASE
 10
15.0
 20
-65.00155
 30
0.0
 11
12.5
 21
-65.00155
 31
0.0
  0
LINE
  8
BASE
 10
15.0
 20
-65.001549
 30
0.0
 11
17.5
 21
-65.001549
 31
0.0
  0
LINE
  8
BASE
 10
12.5
 20
-65.00155
 30
0.0
 11
12.5
 21
-55.00155
 31
0.0
  0
LINE
  8
BASE
 10
10.0
 20
-60.0
 30
0.0
 11
15.0
 21
-60.0
 31
0.0
  0
LINE
  8
BASE
  6
CONTINUOUS
 10
10.0
 20
-60.0
 30
0.0
 11
6.0
 21
-60.0
 31
0.0
  0
TEXT
  8
BASE
  6
CONTINUOUS
 10
8.173717
 20
-62.731978
 30
0.0
 40
2.0
  1
NI
  0
LINE
  8
BASE
  6
CONTINUOUS
 10
6.0
 20
-65.5
 30
0.0
 11
5.0
 21
-66.5
 31
0.0
  0
LINE
  8
BASE
  6
CONTINUOUS
 10
6.0
 20
-58.5
 30
0.0
 11
6.0
 21
-65.5
 31
0.0
  0
LINE
  8
BASE
  6
CONTINUOUS
 10
6.0
 20
-58.5
 30
0.0
 11
5.0
 21
-57.5
 31
0.0
  0
TEXT
  8
BASE
  6
CONTINUOUS
 10
12.887383
 20
9.086709
 30
0.0
 40
2.0
  1
101
  0
TEXT
  8
BASE
  6
CONTINUOUS
 10
8.173717
 20
-12.635823
 30
0.0
 40
2.0
  1
RI
  0
TEXT
  8
BASE
  6
CONTINUOUS
 10
8.173717
 20
-42.744992
 30
0.0
 40
2.0
  1
TI
  0
TEXT
  8
BASE
  6
CONTINUOUS
 10
8.173717
 20
-52.926075
 30
0.0
 40
2.0
  1
TI
  0
TEXT
  8
BASE
  6
CONTINUOUS
 10
8.173717
 20
-2.784001
 30
0.0
 40
2.0
  1
RI
  0
LINE
  8
BASE
  6
CONTINUOUS
 10
6.0
 20
-38.5
 30
0.0
 11
5.0
 21
-37.5
 31
0.0
  0
LINE
  8
BASE
  6
CONTINUOUS
 10
6.0
 20
-38.5
 30
0.0
 11
6.0
 21
-45.5
 31
0.0
  0
LINE
  8
BASE
  6
CONTINUOUS
 10
6.0
 20
-45.5
 30
0.0
 11
5.0
 21
-46.5
 31
0.0
  0
TEXT
  8
BASE
  6
DASHED
 10
14.717817
 20
-53.113746
 30
0.0
 40
2.0
  1
8B
 11
14.717817
 21
-53.780413
 31
0.0
 73
     1
  0
TEXT
  8
BASE
  6
DASHED
 10
14.538363
 20
-43.091225
 30
0.0
 40
2.0
  1
7B
 11
14.538363
 21
-43.757892
 31
0.0
 73
     1
  0
TEXT
  8
BASE
  6
DASHED
 10
14.538363
 20
-33.068703
 30
0.0
 40
2.0
  1
6B
 11
14.538363
 21
-33.73537
 31
0.0
 73
     1
  0
TEXT
  8
BASE
  6
DASHED
 10
14.538363
 20
-23.228142
 30
0.0
 40
2.0
  1
5B
 11
14.538363
 21
-23.894808
 31
0.0
 73
     1
  0
TEXT
  8
BASE
  6
DASHED
 10
14.538363
 20
-13.214285
 30
0.0
 40
2.0
  1
4B
 11
14.538363
 21
-13.880951
 31
0.0
 73
     1
  0
TEXT
  8
BASE
  6
DASHED
 10
14.538363
 20
-3.365058
 30
0.0
 40
2.0
  1
3B
 11
14.538363
 21
-4.031725
 31
0.0
 73
     1
  0
LINE
  8
BASE
  6
CONTINUOUS
 10
10.0
 20
-20.0
 30
0.0
 11
6.0
 21
-20.0
 31
0.0
  0
LINE
  8
BASE
  6
CONTINUOUS
 10
10.0
 20
-40.0
 30
0.0
 11
6.0
 21
-40.0
 31
0.0
  0
LINE
  8
BASE
  6
CONTINUOUS
 10
6.0
 20
-25.5
 30
0.0
 11
5.0
 21
-26.5
 31
0.0
  0
LINE
  8
BASE
  6
CONTINUOUS
 10
6.0
 20
-18.5
 30
0.0
 11
6.0
 21
-25.5
 31
0.0
  0
LINE
  8
BASE
  6
CONTINUOUS
 10
6.0
 20
-18.5
 30
0.0
 11
5.0
 21
-17.5
 31
0.0
  0
LINE
  8
BASE
  6
CONTINUOUS
 10
6.0
 20
1.5
 30
0.0
 11
5.0
 21
2.5
 31
0.0
  0
LINE
  8
BASE
  6
CONTINUOUS
 10
6.0
 20
-5.5
 30
0.0
 11
5.0
 21
-6.5
 31
0.0
  0
LINE
  8
BASE
  6
CONTINUOUS
 10
6.0
 20
1.5
 30
0.0
 11
6.0
 21
-5.5
 31
0.0
  0
LINE
  8
BASE
 10
16.38095
 20
-48.055575
 30
0.0
 11
17.060313
 21
-48.991319
 31
0.0
  0
LINE
  8
BASE
 10
15.0
 20
-50.0
 30
0.0
 11
17.5
 21
-50.0
 31
0.0
  0
CIRCLE
  8
BASE
  6
CONTINUOUS
 10
23.449551
 20
-45.028782
 30
0.0
 40
1.0
  0
LINE
  8
BASE
 10
17.5
 20
-50.0
 30
0.0
 11
17.5
 21
-47.1
 31
0.0
  0
LINE
  8
BASE
 10
22.449552
 20
-45.030442
 30
0.0
 11
16.7
 21
-48.5
 31
0.0
  0
CIRCLE
  8
BASE
  6
CONTINUOUS
 10
23.449551
 20
-35.028782
 30
0.0
 40
1.0
  0
LINE
  8
BASE
 10
15.0
 20
-45.001549
 30
0.0
 11
17.5
 21
-45.001549
 31
0.0
  0
LINE
  8
BASE
 10
15.0
 20
-45.00155
 30
0.0
 11
12.5
 21
-45.00155
 31
0.0
  0
LINE
  8
BASE
 10
12.5
 20
-45.00155
 30
0.0
 11
12.5
 21
-35.00155
 31
0.0
  0
LINE
  8
BASE
 10
22.449552
 20
-35.030442
 30
0.0
 11
16.7
 21
-38.5
 31
0.0
  0
LINE
  8
BASE
 10
16.38095
 20
-38.055575
 30
0.0
 11
17.060313
 21
-38.991319
 31
0.0
  0
LINE
  8
BASE
 10
17.5
 20
-40.0
 30
0.0
 11
17.5
 21
-37.1
 31
0.0
  0
LINE
  8
BASE
 10
15.0
 20
-40.0
 30
0.0
 11
17.5
 21
-40.0
 31
0.0
  0
LINE
  8
BASE
 10
10.0
 20
-40.0
 30
0.0
 11
15.0
 21
-40.0
 31
0.0
  0
LINE
  8
BASE
 10
12.5
 20
-35.00155
 30
0.0
 11
15.0
 21
-35.00155
 31
0.0
  0
LINE
  8
BASE
 10
15.0
 20
-35.0
 30
0.0
 11
17.5
 21
-35.0
 31
0.0
  0
CIRCLE
  8
BASE
  6
CONTINUOUS
 10
23.449551
 20
-25.028782
 30
0.0
 40
1.0
  0
LINE
  8
BASE
 10
15.0
 20
-30.0
 30
0.0
 11
17.5
 21
-30.0
 31
0.0
  0
LINE
  8
BASE
 10
17.5
 20
-30.0
 30
0.0
 11
17.5
 21
-27.1
 31
0.0
  0
LINE
  8
BASE
 10
22.449552
 20
-25.030442
 30
0.0
 11
16.7
 21
-28.5
 31
0.0
  0
LINE
  8
BASE
 10
16.38095
 20
-28.055575
 30
0.0
 11
17.060313
 21
-28.991319
 31
0.0
  0
LINE
  8
BASE
 10
15.0
 20
-25.0
 30
0.0
 11
17.5
 21
-25.0
 31
0.0
  0
LINE
  8
BASE
 10
15.0
 20
-25.00155
 30
0.0
 11
12.5
 21
-25.00155
 31
0.0
  0
LINE
  8
BASE
 10
12.5
 20
-25.00155
 30
0.0
 11
12.5
 21
-15.00155
 31
0.0
  0
CIRCLE
  8
BASE
  6
CONTINUOUS
 10
23.449551
 20
-15.028782
 30
0.0
 40
1.0
  0
LINE
  8
BASE
 10
15.0
 20
-15.0
 30
0.0
 11
17.5
 21
-15.0
 31
0.0
  0
LINE
  8
BASE
 10
12.5
 20
-15.00155
 30
0.0
 11
15.0
 21
-15.00155
 31
0.0
  0
LINE
  8
BASE
 10
10.0
 20
-20.0
 30
0.0
 11
15.0
 21
-20.0
 31
0.0
  0
LINE
  8
BASE
 10
15.0
 20
-20.0
 30
0.0
 11
17.5
 21
-20.0
 31
0.0
  0
LINE
  8
BASE
 10
17.5
 20
-20.0
 30
0.0
 11
17.5
 21
-17.1
 31
0.0
  0
LINE
  8
BASE
 10
16.38095
 20
-18.055575
 30
0.0
 11
17.060313
 21
-18.991319
 31
0.0
  0
LINE
  8
BASE
 10
22.449552
 20
-15.030442
 30
0.0
 11
16.7
 21
-18.5
 31
0.0
  0
CIRCLE
  8
BASE
  6
CONTINUOUS
 10
23.449551
 20
-5.028782
 30
0.0
 40
1.0
  0
LINE
  8
BASE
 10
17.5
 20
-10.0
 30
0.0
 11
17.5
 21
-7.1
 31
0.0
  0
LINE
  8
BASE
 10
15.0
 20
-10.0
 30
0.0
 11
17.5
 21
-10.0
 31
0.0
  0
LINE
  8
BASE
 10
16.38095
 20
-8.055575
 30
0.0
 11
17.060313
 21
-8.991319
 31
0.0
  0
LINE
  8
BASE
 10
22.449552
 20
-5.030442
 30
0.0
 11
16.7
 21
-8.5
 31
0.0
  0
LINE
  8
BASE
  6
CONTINUOUS
 10
10.0
 20
0.0
 30
0.0
 11
6.0
 21
0.0
 31
0.0
  0
LINE
  8
BASE
 10
15.0
 20
-5.0
 30
0.0
 11
17.5
 21
-5.0
 31
0.0
  0
LINE
  8
BASE
 10
15.0
 20
-5.00155
 30
0.0
 11
12.5
 21
-5.00155
 31
0.0
  0
LINE
  8
BASE
 10
22.449552
 20
4.969558
 30
0.0
 11
16.7
 21
1.5
 31
0.0
  0
LINE
  8
BASE
 10
16.38095
 20
1.944425
 30
0.0
 11
17.060313
 21
1.008681
 31
0.0
  0
LINE
  8
BASE
 10
17.5
 20
0.0
 30
0.0
 11
17.5
 21
2.9
 31
0.0
  0
LINE
  8
BASE
 10
15.0
 20
0.0
 30
0.0
 11
17.5
 21
0.0
 31
0.0
  0
LINE
  8
BASE
 10
10.0
 20
0.0
 30
0.0
 11
15.0
 21
0.0
 31
0.0
  0
LINE
  8
BASE
 10
12.5
 20
4.99845
 30
0.0
 11
15.0
 21
4.99845
 31
0.0
  0
LINE
  8
BASE
 10
15.0
 20
5.0
 30
0.0
 11
17.5
 21
5.0
 31
0.0
  0
LINE
  8
BASE
 10
12.5
 20
-5.00155
 30
0.0
 11
12.5
 21
4.99845
 31
0.0
  0
CIRCLE
  8
BASE
  6
CONTINUOUS
 10
23.449551
 20
4.971218
 30
0.0
 40
1.0
  0
LINE
  8
BASE
  6
CONTINUOUS
 10
15.0
 20
-70.0
 30
0.0
 11
0.0
 21
-70.0
 31
0.0
  0
LINE
  8
BASE
  6
CONTINUOUS
 10
0.0
 20
-65.0
 30
0.0
 11
4.266471
 21
-65.0
 31
0.0
  0
LINE
  8
BASE
  6
CONTINUOUS
 10
0.0
 20
-60.0
 30
0.0
 11
4.266471
 21
-60.0
 31
0.0
  0
LINE
  8
BASE
  6
CONTINUOUS
 10
15.0
 20
-50.0
 30
0.0
 11
0.0
 21
-50.0
 31
0.0
  0
LINE
  8
BASE
  6
CONTINUOUS
 10
0.0
 20
-45.0
 30
0.0
 11
4.266471
 21
-45.0
 31
0.0
  0
LINE
  8
BASE
  6
CONTINUOUS
 10
0.0
 20
-40.0
 30
0.0
 11
4.266471
 21
-40.0
 31
0.0
  0
LINE
  8
BASE
  6
CONTINUOUS
 10
15.0
 20
-30.0
 30
0.0
 11
0.0
 21
-30.0
 31
0.0
  0
LINE
  8
BASE
  6
CONTINUOUS
 10
0.0
 20
-25.0
 30
0.0
 11
4.266471
 21
-25.0
 31
0.0
  0
LINE
  8
BASE
  6
CONTINUOUS
 10
0.0
 20
-20.0
 30
0.0
 11
4.266471
 21
-20.0
 31
0.0
  0
LINE
  8
BASE
  6
CONTINUOUS
 10
0.0
 20
-10.0
 30
0.0
 11
15.0
 21
-10.0
 31
0.0
  0
LINE
  8
BASE
  6
CONTINUOUS
 10
0.0
 20
-5.0
 30
0.0
 11
4.266471
 21
-5.0
 31
0.0
  0
LINE
  8
BASE
  6
CONTINUOUS
 10
0.0
 20
0.0
 30
0.0
 11
4.266471
 21
0.0
 31
0.0
  0
TEXT
  8
BASE
  6
DASHED
 10
27.5
 20
2.265533
 30
0.0
 40
2.0
  1
3A
 11
27.5
 21
1.598866
 31
0.0
 73
     1
  0
LINE
  8
BASE
  6
CONTINUOUS
 10
24.449137
 20
5.0
 30
0.0
 11
32.5
 21
5.0
 31
0.0
  0
LINE
  8
BASE
  6
CONTINUOUS
 10
24.449137
 20
-5.0
 30
0.0
 11
32.5
 21
-5.0
 31
0.0
  0
TEXT
  8
BASE
  6
DASHED
 10
27.5
 20
-7.666667
 30
0.0
 40
2.0
  1
4A
 11
27.5
 21
-8.333333
 31
0.0
 73
     1
  0
LINE
  8
BASE
  6
CONTINUOUS
 10
24.449137
 20
-15.0
 30
0.0
 11
32.5
 21
-15.0
 31
0.0
  0
TEXT
  8
BASE
  6
DASHED
 10
27.5
 20
-17.962785
 30
0.0
 40
2.0
  1
5A
 11
27.5
 21
-18.629452
 31
0.0
 73
     1
  0
TEXT
  8
BASE
  6
DASHED
 10
27.5
 20
-27.713025
 30
0.0
 40
2.0
  1
6A
 11
27.5
 21
-28.379691
 31
0.0
 73
     1
  0
LINE
  8
BASE
  6
CONTINUOUS
 10
24.449137
 20
-25.0
 30
0.0
 11
32.5
 21
-25.0
 31
0.0
  0
LINE
  8
BASE
  6
CONTINUOUS
 10
24.449137
 20
-35.0
 30
0.0
 11
32.5
 21
-35.0
 31
0.0
  0
TEXT
  8
BASE
  6
DASHED
 10
27.5
 20
-37.666667
 30
0.0
 40
2.0
  1
7A
 11
27.5
 21
-38.333333
 31
0.0
 73
     1
  0
LINE
  8
BASE
  6
CONTINUOUS
 10
24.449137
 20
-45.0
 30
0.0
 11
32.5
 21
-45.0
 31
0.0
  0
TEXT
  8
BASE
  6
DASHED
 10
27.5
 20
-47.954121
 30
0.0
 40
2.0
  1
8A
 11
27.5
 21
-48.620787
 31
0.0
 73
     1
  0
LINE
  8
BASE
  6
CONTINUOUS
 10
24.449137
 20
-55.0
 30
0.0
 11
32.5
 21
-55.0
 31
0.0
  0
TEXT
  8
BASE
  6
CONTINUOUS
 10
27.5
 20
-57.948605
 30
0.0
 40
2.0
  1
9A
  0
LINE
  8
BASE
  6
CONTINUOUS
 10
24.449137
 20
-65.0
 30
0.0
 11
32.5
 21
-65.0
 31
0.0
  0
TEXT
  8
BASE
  6
CONTINUOUS
 10
27.5
 20
-67.74244
 30
0.0
 40
2.0
  1
10A
  0
ENDBLK
  8
0
  0
BLOCK
  8
0
  2
B102
 70
     0
 10
0.0
 20
0.0
 30
0.0
  3
B102
  0
TEXT
  8
BASE
  6
CONTINUOUS
 10
18.519596
 20
-15.712155
 30
0.0
 40
2.0
  1
101
 50
90.0
  0
TEXT
  8
BASE
  6
CONTINUOUS
 10
-1.480404
 20
-15.712155
 30
0.0
 40
2.0
  1
101
 50
90.0
  0
TEXT
  8
BASE
  6
CONTINUOUS
 10
30.710796
 20
-24.069736
 30
0.0
 40
2.0
  1
18A
 50
90.0
  0
TEXT
  8
BASE
  6
CONTINUOUS
 10
23.042942
 20
-24.069736
 30
0.0
 40
2.0
  1
1A
 50
90.0
  0
TEXT
  8
BASE
  6
CONTINUOUS
 10
13.078553
 20
-24.069736
 30
0.0
 40
2.0
  1
2A
 50
90.0
  0
TEXT
  8
BASE
  6
CONTINUOUS
 10
2.77957
 20
-24.069736
 30
0.0
 40
2.0
  1
13A
 50
90.0
  0
LINE
  8
BASE
  6
CONTINUOUS
 10
27.5
 20
-17.5
 30
0.0
 11
27.5
 21
-25.0
 31
0.0
  0
LINE
  8
BASE
  6
CONTINUOUS
 10
27.5
 20
-5.0
 30
0.0
 11
27.5
 21
-10.0
 31
0.0
  0
LINE
  8
BASE
  6
CONTINUOUS
 10
11.365905
 20
-4.186459
 30
0.0
 11
11.365905
 21
-2.499494
 31
0.0
  0
LINE
  8
BASE
  6
CONTINUOUS
 10
11.365905
 20
-2.499494
 30
0.0
 11
13.033279
 21
-2.499494
 31
0.0
  0
LINE
  8
BASE
  6
CONTINUOUS
 10
13.033279
 20
-2.499494
 30
0.0
 11
13.033279
 21
-4.186459
 31
0.0
  0
LINE
  8
BASE
  6
CONTINUOUS
 10
13.033279
 20
-4.186459
 30
0.0
 11
11.365905
 21
-4.186459
 31
0.0
  0
LINE
  8
BASE
  6
CONTINUOUS
 10
2.615221
 20
-2.655356
 30
0.0
 11
0.947848
 21
-2.655356
 31
0.0
  0
LINE
  8
BASE
  6
CONTINUOUS
 10
2.615221
 20
-0.968391
 30
0.0
 11
2.615221
 21
-2.655356
 31
0.0
  0
LINE
  8
BASE
  6
CONTINUOUS
 10
0.947848
 20
-0.968391
 30
0.0
 11
2.615221
 21
-0.968391
 31
0.0
  0
LINE
  8
BASE
  6
CONTINUOUS
 10
0.947848
 20
-2.655356
 30
0.0
 11
0.947848
 21
-0.968391
 31
0.0
  0
TEXT
  8
BASE
  6
DASHED
 10
30.718527
 20
-8.15218
 30
0.0
 40
2.0
  1
18B-
 50
90.0
  0
TEXT
  8
BASE
  6
DASHED
 10
23.045377
 20
-8.15218
 30
0.0
 40
2.0
  1
1B+
 50
90.0
  0
TEXT
  8
BASE
  6
DASHED
 10
13.214777
 20
-8.15218
 30
0.0
 40
2.0
  1
2B
 50
90.0
  0
TEXT
  8
BASE
  6
DASHED
 10
2.775535
 20
-8.15218
 30
0.0
 40
2.0
  1
13B
 50
90.0
  0
LINE
  8
BASE
  6
DASHED
 10
15.0
 20
0.0
 30
0.0
 11
15.0
 21
-25.0
 31
0.0
  0
POLYLINE
  8
BASE
  6
CONTINUOUS
 66
     1
 10
0.0
 20
0.0
 30
0.0
 70
     1
 40
0.25
 41
0.25
 71
     2
 72
   151
  0
VERTEX
  8
BASE
  6
CONTINUOUS
 10
9.625
 20
-5.0
 30
0.0
 42
1.0
  0
VERTEX
  8
BASE
  6
CONTINUOUS
 10
10.375
 20
-5.0
 30
0.0
 42
1.0
  0
SEQEND
  8
BASE
  6
CONTINUOUS
  0
LINE
  8
BASE
  6
CONTINUOUS
 10
5.0
 20
-5.0
 30
0.0
 11
10.0
 21
-5.0
 31
0.0
  0
LINE
  8
BASE
  6
CONTINUOUS
 10
5.0
 20
0.0
 30
0.0
 11
5.0
 21
-5.0
 31
0.0
  0
LINE
  8
BASE
  6
CONTINUOUS
 10
20.0
 20
0.0
 30
0.0
 11
20.0
 21
-10.0
 31
0.0
  0
CIRCLE
  8
BASE
  6
CONTINUOUS
 10
20.0
 20
-16.758945
 30
0.0
 40
0.740939
  0
LINE
  8
BASE
  6
CONTINUOUS
 10
20.0
 20
-17.5
 30
0.0
 11
20.0
 21
-25.0
 31
0.0
  0
LINE
  8
BASE
  6
CONTINUOUS
 10
0.0
 20
-17.5
 30
0.0
 11
0.0
 21
-25.0
 31
0.0
  0
CIRCLE
  8
BASE
  6
CONTINUOUS
 10
0.0
 20
-16.758945
 30
0.0
 40
0.740939
  0
LINE
  8
BASE
  6
CONTINUOUS
 10
-0.006589
 20
-16.018035
 30
0.0
 11
2.434804
 21
-9.337159
 31
0.0
  0
LINE
  8
BASE
  6
CONTINUOUS
 10
0.0
 20
-10.0
 30
0.0
 11
2.765661
 21
-10.0
 31
0.0
  0
LINE
  8
BASE
  6
CONTINUOUS
 10
2.434804
 20
-9.337159
 30
0.0
 11
1.549106
 21
-8.892266
 31
0.0
  0
LINE
  8
BASE
  6
CONTINUOUS
 10
0.0
 20
0.0
 30
0.0
 11
0.0
 21
-10.0
 31
0.0
  0
LINE
  8
BASE
  6
CONTINUOUS
 10
10.0
 20
-17.5
 30
0.0
 11
10.0
 21
-25.0
 31
0.0
  0
CIRCLE
  8
BASE
  6
CONTINUOUS
 10
10.0
 20
-16.758945
 30
0.0
 40
0.740939
  0
LINE
  8
BASE
  6
CONTINUOUS
 10
10.0
 20
0.0
 30
0.0
 11
10.0
 21
-10.0
 31
0.0
  0
LINE
  8
BASE
  6
CONTINUOUS
 10
9.993411
 20
-16.018035
 30
0.0
 11
12.434804
 21
-9.337159
 31
0.0
  0
LINE
  8
BASE
  6
CONTINUOUS
 10
10.0
 20
-10.0
 30
0.0
 11
12.765661
 21
-10.0
 31
0.0
  0
LINE
  8
BASE
  6
CONTINUOUS
 10
22.434804
 20
-9.337159
 30
0.0
 11
21.549106
 21
-8.892266
 31
0.0
  0
LINE
  8
BASE
  6
CONTINUOUS
 10
20.0
 20
-10.0
 30
0.0
 11
22.765661
 21
-10.0
 31
0.0
  0
LINE
  8
BASE
  6
CONTINUOUS
 10
19.993411
 20
-16.018035
 30
0.0
 11
22.434804
 21
-9.337159
 31
0.0
  0
LINE
  8
BASE
  6
CONTINUOUS
 10
27.493411
 20
-16.018035
 30
0.0
 11
29.934804
 21
-9.337159
 31
0.0
  0
LINE
  8
BASE
  6
CONTINUOUS
 10
27.5
 20
-10.0
 30
0.0
 11
30.265661
 21
-10.0
 31
0.0
  0
LINE
  8
BASE
  6
CONTINUOUS
 10
29.934804
 20
-9.337159
 30
0.0
 11
29.049106
 21
-8.892266
 31
0.0
  0
CIRCLE
  8
BASE
  6
CONTINUOUS
 10
27.5
 20
-16.758945
 30
0.0
 40
0.740939
  0
ENDBLK
  8
0
  0
BLOCK
  8
0
  2
B22
 70
     0
 10
0.0
 20
0.0
 30
0.0
  3
B22
  0
CIRCLE
  8
BASE
  6
CONTINUOUS
 10
-2.949561
 20
-1.638589
 30
0.0
 40
0.705054
  0
CIRCLE
  8
BASE
  6
CONTINUOUS
 10
-2.949561
 20
-1.638589
 30
0.0
 40
1.252595
  0
LINE
  8
BASE
  6
CONTINUOUS
 10
-10.000117
 20
0.000025
 30
0.0
 11
0.011081
 21
0.000025
 31
0.0
  0
LINE
  8
BASE
  6
CONTINUOUS
 10
-27.5
 20
-0.008493
 30
0.0
 11
-17.5
 21
-0.008493
 31
0.0
  0
LINE
  8
BASE
  6
CONTINUOUS
 10
-11.481965
 20
-0.006589
 30
0.0
 11
-18.162841
 21
2.434804
 31
0.0
  0
LINE
  8
BASE
  6
CONTINUOUS
 10
-17.5
 20
-0.008493
 30
0.0
 11
-17.5
 21
2.765661
 31
0.0
  0
LINE
  8
BASE
  6
CONTINUOUS
 10
-18.162841
 20
2.434804
 30
0.0
 11
-18.607734
 21
1.549106
 31
0.0
  0
CIRCLE
  8
BASE
  6
CONTINUOUS
 10
-10.741055
 20
0.0
 30
0.0
 40
0.740939
  0
ENDBLK
  8
0
  0
ENDSEC
  0
SECTION
  2
ENTITIES
  0
INSERT
  8
0
  2
1
 10
65.405438
 20
98.713066
 30
0.0
  0
INSERT
  8
0
  2
1
 10
72.541652
 20
49.71056
 30
0.0
  0
INSERT
  8
0
  2
1
 10
85.390443
 20
73.497234
 30
0.0
  0
LINE
  8
0
  6
CENTER
 62
   249
 10
250.0
 20
242.5
 30
0.0
 11
250.0
 21
102.5
 31
0.0
  0
LINE
  8
0
  6
CENTER
 62
   249
 10
250.0
 20
102.5
 30
0.0
 11
250.0
 21
80.0
 31
0.0
  0
LINE
  8
0
  6
CONTINUOUS
 62
   249
 10
232.5
 20
95.0
 30
0.0
 11
242.5
 21
95.0
 31
0.0
  0
LINE
  8
0
  6
CONTINUOUS
 62
   249
 10
232.5
 20
95.0
 30
0.0
 11
235.0
 21
97.5
 31
0.0
  0
LINE
  8
0
  6
CONTINUOUS
 62
   249
 10
237.5
 20
95.0
 30
0.0
 11
240.0
 21
97.5
 31
0.0
  0
LINE
  8
0
  6
CONTINUOUS
 62
   249
 10
242.5
 20
95.0
 30
0.0
 11
245.0
 21
97.5
 31
0.0
  0
LINE
  8
0
  6
CONTINUOUS
 62
   249
 10
237.5
 20
95.0
 30
0.0
 11
237.5
 21
80.0
 31
0.0
  0
LINE
  8
0
  6
CONTINUOUS
 62
   249
 10
225.0
 20
97.5
 30
0.0
 11
225.0
 21
80.0
 31
0.0
  0
LINE
  8
0
  6
CONTINUOUS
 62
   249
 10
220.0
 20
97.5
 30
0.0
 11
220.0
 21
80.0
 31
0.0
  0
LINE
  8
0
  6
DASHED
 62
   249
 10
225.0
 20
55.0
 30
0.0
 11
225.0
 21
47.5
 31
0.0
  0
LINE
  8
0
  6
DASHED
 62
   249
 10
237.5
 20
55.0
 30
0.0
 11
237.5
 21
47.5
 31
0.0
  0
LINE
  8
0
  6
DASHED
 62
   249
 10
220.0
 20
55.0
 30
0.0
 11
220.0
 21
47.5
 31
0.0
  0
LINE
  8
0
  6
DASHED
 62
   249
 10
210.0
 20
55.0
 30
0.0
 11
210.0
 21
47.5
 31
0.0
  0
LINE
  8
0
  6
DASHED
 62
   249
 10
180.0
 20
55.0
 30
0.0
 11
180.0
 21
47.5
 31
0.0
  0
LINE
  8
0
  6
CONTINUOUS
 62
   249
 10
187.5
 20
195.232891
 30
0.0
 11
217.950615
 21
195.232891
 31
0.0
  0
TEXT
  8
0
  6
CONTINUOUS
 62
   249
 10
199.408766
 20
191.295815
 30
0.0
 40
2.5
  1
IRF
 11
199.408766
 21
190.462481
 31
0.0
 73
     1
  0
LINE
  8
0
  6
CONTINUOUS
 62
   249
 10
217.950615
 20
190.0
 30
0.0
 11
187.5
 21
190.0
 31
0.0
  0
LINE
  8
0
  6
CONTINUOUS
 62
   249
 10
217.950615
 20
202.209828
 30
0.0
 11
217.950615
 21
190.0
 31
0.0
  0
LINE
  8
0
  6
CONTINUOUS
 62
   249
 10
217.950615
 20
237.5
 30
0.0
 11
217.950615
 21
202.18832
 31
0.0
  0
LINE
  8
0
  6
CONTINUOUS
 62
   249
 10
187.5
 20
200.0
 30
0.0
 11
217.950615
 21
200.0
 31
0.0
  0
LINE
  8
0
  6
CONTINUOUS
 62
   249
 10
216.844754
 20
226.16807
 30
0.0
 11
214.498989
 21
224.978151
 31
0.0
  0
LINE
  8
0
  6
CONTINUOUS
 62
   249
 10
214.498989
 20
227.503424
 30
0.0
 11
216.844754
 21
226.16807
 31
0.0
  0
LINE
  8
0
  6
CONTINUOUS
 62
   249
 10
198.926606
 20
227.820238
 30
0.0
 11
198.926606
 21
226.032107
 31
0.0
  0
LINE
  8
0
  6
CONTINUOUS
 62
   249
 10
198.957637
 20
226.97496
 30
0.0
 11
206.745842
 21
226.97496
 31
0.0
  0
LINE
  8
0
  6
CONTINUOUS
 62
   249
 10
201.341782
 20
225.807357
 30
0.0
 11
204.217892
 21
228.635916
 31
0.0
  0
LINE
  8
0
  6
CONTINUOUS
 62
   249
 10
203.787189
 20
229.173123
 30
0.0
 11
204.687866
 21
228.049374
 31
0.0
  0
LINE
  8
0
  6
CONTINUOUS
 62
   249
 10
206.741301
 20
227.820238
 30
0.0
 11
206.741301
 21
226.032107
 31
0.0
  0
ARC
  8
0
  6
HIDDEN
 62
   249
 10
205.652505
 20
230.903504
 30
0.0
 40
4.998196
 50
206.402922
 51
282.21115
  0
TEXT
  8
0
  6
CONTINUOUS
 62
   249
 10
189.300457
 20
221.065833
 30
0.0
 40
2.5
  1
I
 11
189.300457
 21
220.2325
 31
0.0
 73
     1
  0
LINE
  8
0
  6
CONTINUOUS
 62
   249
 10
193.455418
 20
222.246469
 30
0.0
 11
191.109652
 21
221.05655
 31
0.0
  0
LINE
  8
0
  6
CONTINUOUS
 62
   249
 10
195.353076
 20
222.246469
 30
0.0
 11
193.00731
 21
221.05655
 31
0.0
  0
LINE
  8
0
  6
CONTINUOUS
 62
   249
 10
191.109652
 20
223.581823
 30
0.0
 11
193.455418
 21
222.246469
 31
0.0
  0
LINE
  8
0
  6
CONTINUOUS
 62
   249
 10
193.00731
 20
223.581823
 30
0.0
 11
195.353076
 21
222.246469
 31
0.0
  0
TEXT
  8
0
  6
CONTINUOUS
 62
   249
 10
189.300457
 20
225.746654
 30
0.0
 40
2.5
  1
I
 11
189.300457
 21
224.913321
 31
0.0
 73
     1
  0
LINE
  8
0
  6
CONTINUOUS
 62
   249
 10
193.455418
 20
226.92729
 30
0.0
 11
191.109652
 21
225.737371
 31
0.0
  0
LINE
  8
0
  6
CONTINUOUS
 62
   249
 10
191.109652
 20
228.262644
 30
0.0
 11
193.455418
 21
226.92729
 31
0.0
  0
LINE
  8
0
  6
CONTINUOUS
 62
   249
 10
187.5
 20
215.0
 30
0.0
 11
187.5
 21
200.0
 31
0.0
  0
LINE
  8
0
  6
CONTINUOUS
 62
   249
 10
187.5
 20
215.0
 30
0.0
 11
187.5
 21
220.0
 31
0.0
  0
LINE
  8
0
  6
CONTINUOUS
 62
   249
 10
187.5
 20
200.0
 30
0.0
 11
187.5
 21
190.0
 31
0.0
  0
LINE
  8
0
  6
CENTER
 62
   249
 10
67.5
 20
242.5
 30
0.0
 11
67.5
 21
80.0
 31
0.0
  0
TEXT
  8
0
  6
DASHED
 62
   249
 10
80.697373
 20
143.403492
 30
0.0
 40
2.0
  1
A
  0
TEXT
  8
0
  6
DASHED
 62
   249
 10
99.143373
 20
133.774588
 30
0.0
 40
2.0
  1
B
  0
TEXT
  8
0
  6
DASHED
 62
   249
 10
116.055109
 20
123.134364
 30
0.0
 40
2.0
  1
C
  0
TEXT
  8
0
  6
DASHED
 62
   249
 10
133.484014
 20
113.255752
 30
0.0
 40
2.0
  1
D
  0
TEXT
  8
0
  6
DASHED
 62
   249
 10
163.171573
 20
93.364654
 30
0.0
 40
2.0
  1
E
  0
LINE
  8
0
  6
CENTER
 62
   249
 10
67.5
 20
80.0
 30
0.0
 11
77.5
 21
80.0
 31
0.0
  0
LINE
  8
0
  6
CENTER
 62
   249
 10
250.0
 20
242.5
 30
0.0
 11
77.5
 21
242.5
 31
0.0
  0
LINE
  8
0
  6
DASHED
 62
   249
 10
190.0
 20
55.0
 30
0.0
 11
190.0
 21
47.5
 31
0.0
  0
LINE
  8
0
  6
DASHED
 62
   249
 10
195.0
 20
55.0
 30
0.0
 11
195.0
 21
47.5
 31
0.0
  0
ARC
  8
0
  6
CONTINUOUS
 62
   249
 10
252.5
 20
155.0
 30
0.0
 40
2.5
 50
90.0
 51
270.0
  0
LINE
  8
0
  6
CONTINUOUS
 62
   249
 10
353.350579
 20
245.816754
 30
0.0
 11
355.696345
 21
244.4814
 31
0.0
  0
LINE
  8
0
  6
CONTINUOUS
 62
   249
 10
355.696345
 20
244.4814
 30
0.0
 11
353.350579
 21
243.291481
 31
0.0
  0
LINE
  8
0
  6
CONTINUOUS
 62
   249
 10
348.100275
 20
240.206143
 30
0.0
 11
348.100275
 21
238.418012
 31
0.0
  0
LINE
  8
0
  6
CONTINUOUS
 62
   249
 10
348.131307
 20
239.360865
 30
0.0
 11
355.919512
 21
239.360865
 31
0.0
  0
LINE
  8
0
  6
CONTINUOUS
 62
   249
 10
352.960859
 20
241.559027
 30
0.0
 11
353.861536
 21
240.435278
 31
0.0
  0
ARC
  8
0
  6
HIDDEN
 62
   249
 10
354.826175
 20
243.289409
 30
0.0
 40
4.998196
 50
206.402922
 51
282.21115
  0
LINE
  8
0
  6
CONTINUOUS
 62
   249
 10
350.515452
 20
238.193262
 30
0.0
 11
353.391562
 21
241.021821
 31
0.0
  0
LINE
  8
0
  6
CONTINUOUS
 62
   249
 10
355.914971
 20
240.206143
 30
0.0
 11
355.914971
 21
238.418012
 31
0.0
  0
LINE
  8
0
  6
CONTINUOUS
 62
   249
 10
355.938869
 20
234.50956
 30
0.0
 11
353.593104
 21
233.319641
 31
0.0
  0
LINE
  8
0
  6
CONTINUOUS
 62
   249
 10
353.593104
 20
235.844914
 30
0.0
 11
355.938869
 21
234.50956
 31
0.0
  0
LINE
  8
0
  6
CONTINUOUS
 62
   249
 10
355.415448
 20
235.844914
 30
0.0
 11
357.761214
 21
234.50956
 31
0.0
  0
LINE
  8
0
  6
CONTINUOUS
 62
   249
 10
357.761214
 20
234.50956
 30
0.0
 11
355.415448
 21
233.319641
 31
0.0
  0
LINE
  8
0
  6
CONTINUOUS
 62
   249
 10
355.914971
 20
230.552173
 30
0.0
 11
355.914971
 21
228.764041
 31
0.0
  0
LINE
  8
0
  6
CONTINUOUS
 62
   249
 10
352.960859
 20
231.905057
 30
0.0
 11
353.861536
 21
230.781308
 31
0.0
  0
LINE
  8
0
  6
CONTINUOUS
 62
   249
 10
350.515452
 20
228.539291
 30
0.0
 11
353.391562
 21
231.36785
 31
0.0
  0
LINE
  8
0
  6
CONTINUOUS
 62
   249
 10
348.131307
 20
229.706894
 30
0.0
 11
355.919512
 21
229.706894
 31
0.0
  0
LINE
  8
0
  6
CONTINUOUS
 62
   249
 10
348.100275
 20
230.552173
 30
0.0
 11
348.100275
 21
228.764041
 31
0.0
  0
LINE
  8
0
  6
CONTINUOUS
 62
   249
 10
187.5
 20
220.0
 30
0.0
 11
207.5
 21
220.0
 31
0.0
  0
LINE
  8
0
  6
CONTINUOUS
 62
   249
 10
197.5
 20
230.521206
 30
0.0
 11
200.0
 21
230.521206
 31
0.0
  0
LINE
  8
0
  6
CONTINUOUS
 62
   249
 10
197.5
 20
230.521206
 30
0.0
 11
195.275553
 21
229.960564
 31
0.0
  0
LINE
  8
0
  6
CONTINUOUS
 62
   249
 10
192.5
 20
230.521206
 30
0.0
 11
195.0
 21
230.521206
 31
0.0
  0
TEXT
  8
0
  6
CONTINUOUS
 62
   249
 10
188.406909
 20
229.763189
 30
0.0
 40
1.5
  1
EN
  0
TEXT
  8
0
  6
CONTINUOUS
 62
   249
 10
189.320715
 20
213.550653
 30
0.0
 40
2.5
  1
I
 11
189.320715
 21
212.71732
 31
0.0
 73
     1
  0
LINE
  8
0
  6
CONTINUOUS
 62
   249
 10
195.455787
 20
214.74318
 30
0.0
 11
193.110021
 21
213.55326
 31
0.0
  0
LINE
  8
0
  6
CONTINUOUS
 62
   249
 10
193.110021
 20
216.078533
 30
0.0
 11
195.455787
 21
214.74318
 31
0.0
  0
LINE
  8
0
  6
CONTINUOUS
 62
   249
 10
191.212364
 20
216.078533
 30
0.0
 11
193.558129
 21
214.74318
 31
0.0
  0
LINE
  8
0
  6
CONTINUOUS
 62
   249
 10
193.558129
 20
214.74318
 30
0.0
 11
191.212364
 21
213.55326
 31
0.0
  0
CIRCLE
  8
0
  6
CONTINUOUS
 62
   249
 10
186.512659
 20
218.016691
 30
0.0
 40
1.0
  0
LINE
  8
0
  6
CONTINUOUS
 62
   249
 10
198.653232
 20
214.957095
 30
0.0
 11
198.653232
 21
213.168963
 31
0.0
  0
LINE
  8
0
  6
CONTINUOUS
 62
   249
 10
198.684263
 20
214.111816
 30
0.0
 11
206.472468
 21
214.111816
 31
0.0
  0
LINE
  8
0
  6
CONTINUOUS
 62
   249
 10
201.068408
 20
212.944214
 30
0.0
 11
203.944519
 21
215.772772
 31
0.0
  0
LINE
  8
0
  6
CONTINUOUS
 62
   249
 10
203.490396
 20
216.309979
 30
0.0
 11
204.391073
 21
215.18623
 31
0.0
  0
LINE
  8
0
  6
CONTINUOUS
 62
   249
 10
206.467927
 20
214.957095
 30
0.0
 11
206.467927
 21
213.168963
 31
0.0
  0
LINE
  8
0
  6
CONTINUOUS
 62
   249
 10
187.5
 20
232.5
 30
0.0
 11
207.5
 21
232.5
 31
0.0
  0
LINE
  8
0
  6
CONTINUOUS
 62
   249
 10
187.5
 20
220.0
 30
0.0
 11
187.5
 21
237.5
 31
0.0
  0
LINE
  8
0
  6
CONTINUOUS
 62
   249
 10
187.5
 20
237.5
 30
0.0
 11
217.950615
 21
237.5
 31
0.0
  0
LINE
  8
0
  6
CONTINUOUS
 62
   249
 10
207.5
 20
200.0
 30
0.0
 11
207.5
 21
237.5
 31
0.0
  0
CIRCLE
  8
0
  6
CONTINUOUS
 62
   249
 10
186.512659
 20
205.784079
 30
0.0
 40
1.0
  0
TEXT
  8
0
  6
CONTINUOUS
 62
   249
 10
188.406909
 20
217.530577
 30
0.0
 40
1.5
  1
EN
  0
LINE
  8
0
  6
CONTINUOUS
 62
   249
 10
192.5
 20
218.288594
 30
0.0
 11
195.0
 21
218.288594
 31
0.0
  0
LINE
  8
0
  6
CONTINUOUS
 62
   249
 10
197.5
 20
218.288594
 30
0.0
 11
195.275553
 21
217.727951
 31
0.0
  0
LINE
  8
0
  6
CONTINUOUS
 62
   249
 10
197.5
 20
218.288594
 30
0.0
 11
200.0
 21
218.288594
 31
0.0
  0
TEXT
  8
0
  6
CONTINUOUS
 62
   249
 10
189.300457
 20
233.765669
 30
0.0
 40
2.5
  1
I
 11
189.300457
 21
232.932336
 31
0.0
 73
     1
  0
LINE
  8
0
  6
CONTINUOUS
 62
   249
 10
193.455418
 20
234.946305
 30
0.0
 11
191.109652
 21
233.756386
 31
0.0
  0
LINE
  8
0
  6
CONTINUOUS
 62
   249
 10
191.109652
 20
236.281659
 30
0.0
 11
193.455418
 21
234.946305
 31
0.0
  0
LINE
  8
0
  6
CONTINUOUS
 62
   249
 10
170.0
 20
157.5
 30
0.0
 11
170.0
 21
152.5
 31
0.0
  0
LINE
  8
0
  6
CONTINUOUS
 62
   249
 10
170.0
 20
193.325312
 30
0.0
 11
170.0
 21
157.5
 31
0.0
  0
LINE
  8
0
  6
CONTINUOUS
 62
   249
 10
132.5
 20
160.0
 30
0.0
 11
147.5
 21
160.0
 31
0.0
  0
LINE
  8
0
  6
CONTINUOUS
 62
   249
 10
132.5
 20
165.0
 30
0.0
 11
132.5
 21
160.0
 31
0.0
  0
LINE
  8
0
  6
CONTINUOUS
 62
   249
 10
147.5
 20
165.0
 30
0.0
 11
132.5
 21
165.0
 31
0.0
  0
LINE
  8
0
  6
CONTINUOUS
 62
   249
 10
140.0
 20
157.5
 30
0.0
 11
140.0
 21
152.5
 31
0.0
  0
LINE
  8
0
  6
CONTINUOUS
 62
   249
 10
140.0
 20
160.0
 30
0.0
 11
140.0
 21
157.5
 31
0.0
  0
LINE
  8
0
  6
CONTINUOUS
 62
   249
 10
139.724743
 20
162.789195
 30
0.0
 11
137.378977
 21
161.599276
 31
0.0
  0
LINE
  8
0
  6
CONTINUOUS
 62
   249
 10
137.370935
 20
160.799262
 30
0.0
 11
139.754396
 21
161.987454
 31
0.0
  0
LINE
  8
0
  6
CONTINUOUS
 62
   249
 10
137.378977
 20
164.124549
 30
0.0
 11
139.724743
 21
162.789195
 31
0.0
  0
TEXT
  8
0
  6
CONTINUOUS
 62
   249
 10
141.812839
 20
161.464455
 30
0.0
 40
2.5
  1
1
 11
141.812839
 21
160.631122
 31
0.0
 73
     1
  0
LINE
  8
0
  6
CONTINUOUS
 62
   249
 10
147.5
 20
165.0
 30
0.0
 11
147.5
 21
160.0
 31
0.0
  0
LINE
  8
0
  6
CONTINUOUS
 62
   249
 10
135.0
 20
165.0
 30
0.0
 11
135.0
 21
167.5
 31
0.0
  0
LINE
  8
0
  6
CONTINUOUS
 62
   249
 10
140.0
 20
165.0
 30
0.0
 11
140.0
 21
167.5
 31
0.0
  0
LINE
  8
0
  6
CONTINUOUS
 62
   249
 10
145.0
 20
165.0
 30
0.0
 11
145.0
 21
167.5
 31
0.0
  0
LINE
  8
0
  6
CONTINUOUS
 62
   249
 10
127.5
 20
165.0
 30
0.0
 11
127.5
 21
160.0
 31
0.0
  0
TEXT
  8
0
  6
CONTINUOUS
 62
   249
 10
124.312839
 20
161.464455
 30
0.0
 40
2.5
  1
1
 11
124.312839
 21
160.631122
 31
0.0
 73
     1
  0
LINE
  8
0
  6
CONTINUOUS
 62
   249
 10
119.878977
 20
164.124549
 30
0.0
 11
122.224743
 21
162.789195
 31
0.0
  0
LINE
  8
0
  6
CONTINUOUS
 62
   249
 10
119.870935
 20
160.799262
 30
0.0
 11
122.254396
 21
161.987454
 31
0.0
  0
LINE
  8
0
  6
CONTINUOUS
 62
   249
 10
122.224743
 20
162.789195
 30
0.0
 11
119.878977
 21
161.599276
 31
0.0
  0
LINE
  8
0
  6
CONTINUOUS
 62
   249
 10
122.5
 20
160.0
 30
0.0
 11
122.5
 21
157.5
 31
0.0
  0
LINE
  8
0
  6
CONTINUOUS
 62
   249
 10
122.5
 20
157.5
 30
0.0
 11
122.5
 21
152.5
 31
0.0
  0
LINE
  8
0
  6
CONTINUOUS
 62
   249
 10
127.5
 20
165.0
 30
0.0
 11
117.5
 21
165.0
 31
0.0
  0
LINE
  8
0
  6
CONTINUOUS
 62
   249
 10
117.5
 20
165.0
 30
0.0
 11
117.5
 21
160.0
 31
0.0
  0
LINE
  8
0
  6
CONTINUOUS
 62
   249
 10
117.5
 20
160.0
 30
0.0
 11
127.5
 21
160.0
 31
0.0
  0
LINE
  8
0
  6
CONTINUOUS
 62
   249
 10
107.5
 20
165.0
 30
0.0
 11
107.5
 21
167.5
 31
0.0
  0
LINE
  8
0
  6
CONTINUOUS
 62
   249
 10
102.5
 20
165.0
 30
0.0
 11
102.5
 21
167.5
 31
0.0
  0
LINE
  8
0
  6
CONTINUOUS
 62
   249
 10
110.0
 20
165.0
 30
0.0
 11
110.0
 21
160.0
 31
0.0
  0
TEXT
  8
0
  6
CONTINUOUS
 62
   249
 10
106.855307
 20
161.464455
 30
0.0
 40
2.5
  1
1
 11
106.855307
 21
160.631122
 31
0.0
 73
     1
  0
LINE
  8
0
  6
CONTINUOUS
 62
   249
 10
102.421446
 20
164.124549
 30
0.0
 11
104.767211
 21
162.789195
 31
0.0
  0
LINE
  8
0
  6
CONTINUOUS
 62
   249
 10
102.413404
 20
160.799262
 30
0.0
 11
104.796864
 21
161.987454
 31
0.0
  0
LINE
  8
0
  6
CONTINUOUS
 62
   249
 10
104.767211
 20
162.789195
 30
0.0
 11
102.421446
 21
161.599276
 31
0.0
  0
LINE
  8
0
  6
CONTINUOUS
 62
   249
 10
105.0
 20
160.0
 30
0.0
 11
105.0
 21
157.5
 31
0.0
  0
LINE
  8
0
  6
CONTINUOUS
 62
   249
 10
105.0
 20
157.5
 30
0.0
 11
105.0
 21
152.5
 31
0.0
  0
LINE
  8
0
  6
CONTINUOUS
 62
   249
 10
110.0
 20
165.0
 30
0.0
 11
100.0
 21
165.0
 31
0.0
  0
LINE
  8
0
  6
CONTINUOUS
 62
   249
 10
100.0
 20
165.0
 30
0.0
 11
100.0
 21
160.0
 31
0.0
  0
LINE
  8
0
  6
CONTINUOUS
 62
   249
 10
100.0
 20
160.0
 30
0.0
 11
110.0
 21
160.0
 31
0.0
  0
LINE
  8
0
  6
CONTINUOUS
 62
   249
 10
147.5
 20
112.5
 30
0.0
 11
190.0
 21
112.5
 31
0.0
  0
LINE
  8
0
  6
CONTINUOUS
 62
   249
 10
117.5
 20
132.5
 30
0.0
 11
200.0
 21
132.5
 31
0.0
  0
LINE
  8
0
  6
CONTINUOUS
 62
   249
 10
130.0
 20
122.5
 30
0.0
 11
195.0
 21
122.5
 31
0.0
  0
LINE
  8
0
  6
CONTINUOUS
 62
   249
 10
102.5
 20
132.5
 30
0.0
 11
77.5
 21
132.5
 31
0.0
  0
LINE
  8
0
  6
CONTINUOUS
 62
   249
 10
115.0
 20
122.5
 30
0.0
 11
77.5
 21
122.5
 31
0.0
  0
LINE
  8
0
  6
CONTINUOUS
 62
   249
 10
130.0
 20
112.5
 30
0.0
 11
77.5
 21
112.5
 31
0.0
  0
LINE
  8
0
  6
CONTINUOUS
 62
   249
 10
160.0
 20
92.5
 30
0.0
 11
77.5
 21
92.5
 31
0.0
  0
LINE
  8
0
  6
CONTINUOUS
 62
   249
 10
160.0
 20
87.5
 30
0.0
 11
77.5
 21
87.5
 31
0.0
  0
LINE
  8
0
  6
DASHED
 62
   249
 10
170.0
 20
152.5
 30
0.0
 11
170.0
 21
90.0
 31
0.0
  0
LINE
  8
0
  6
DASHED
 62
   249
 10
140.0
 20
152.5
 30
0.0
 11
140.0
 21
110.0
 31
0.0
  0
LINE
  8
0
  6
DASHED
 62
   249
 10
122.5
 20
152.5
 30
0.0
 11
122.5
 21
120.0
 31
0.0
  0
LINE
  8
0
  6
DASHED
 62
   249
 10
105.0
 20
152.5
 30
0.0
 11
105.0
 21
130.0
 31
0.0
  0
LINE
  8
0
  6
DASHED
 62
   249
 10
87.5
 20
152.5
 30
0.0
 11
87.5
 21
140.0
 31
0.0
  0
LINE
  8
0
  6
CONTINUOUS
 62
   249
 10
140.0
 20
210.0
 30
0.0
 11
187.5
 21
210.0
 31
0.0
  0
LINE
  8
0
  6
CONTINUOUS
 62
   249
 10
135.0
 20
222.5
 30
0.0
 11
187.5
 21
222.5
 31
0.0
  0
LINE
  8
0
  6
CONTINUOUS
 62
   249
 10
145.0
 20
172.5
 30
0.0
 11
145.0
 21
201.993304
 31
0.0
  0
LINE
  8
0
  6
CONTINUOUS
 62
   249
 10
140.0
 20
172.5
 30
0.0
 11
140.0
 21
210.0
 31
0.0
  0
LINE
  8
0
  6
CONTINUOUS
 62
   249
 10
140.0
 20
167.5
 30
0.0
 11
138.285914
 21
172.586297
 31
0.0
  0
LINE
  8
0
  6
CONTINUOUS
 62
   249
 10
145.0
 20
167.5
 30
0.0
 11
143.285914
 21
172.586297
 31
0.0
  0
LINE
  8
0
  6
CONTINUOUS
 62
   249
 10
135.0
 20
167.5
 30
0.0
 11
133.285914
 21
172.586297
 31
0.0
  0
LINE
  8
0
  6
CONTINUOUS
 62
   249
 10
85.0
 20
172.5
 30
0.0
 11
85.0
 21
214.493304
 31
0.0
  0
LINE
  8
0
  6
CONTINUOUS
 62
   249
 10
85.0
 20
214.493304
 30
0.0
 11
187.5
 21
214.493304
 31
0.0
  0
LINE
  8
0
  6
CONTINUOUS
 62
   249
 10
90.0
 20
201.993304
 30
0.0
 11
187.5
 21
201.993304
 31
0.0
  0
LINE
  8
0
  6
CONTINUOUS
 62
   249
 10
107.5
 20
167.5
 30
0.0
 11
107.5
 21
201.993304
 31
0.0
  0
LINE
  8
0
  6
CONTINUOUS
 62
   249
 10
135.0
 20
172.5
 30
0.0
 11
135.0
 21
222.5
 31
0.0
  0
LINE
  8
0
  6
CONTINUOUS
 62
   249
 10
185.513814
 20
217.968636
 30
0.0
 11
182.5
 21
217.968636
 31
0.0
  0
LINE
  8
0
  6
CONTINUOUS
 62
   249
 10
185.513509
 20
205.825312
 30
0.0
 11
182.5
 21
205.825312
 31
0.0
  0
LINE
  8
0
  6
CONTINUOUS
 62
   249
 10
230.0
 20
232.5
 30
0.0
 11
230.0
 21
207.5
 31
0.0
  0
LINE
  8
0
  6
CONTINUOUS
 62
   249
 10
230.0
 20
232.5
 30
0.0
 11
231.0
 21
233.5
 31
0.0
  0
LINE
  8
0
  6
CONTINUOUS
 62
   249
 10
230.0
 20
207.5
 30
0.0
 11
231.0
 21
206.5
 31
0.0
  0
LINE
  8
0
  6
CONTINUOUS
 62
   249
 10
230.0
 20
220.0
 30
0.0
 11
217.950615
 21
220.0
 31
0.0
  0
LINE
  8
0
  6
CONTINUOUS
 62
   249
 10
217.950615
 20
197.5
 30
0.0
 11
222.5
 21
197.5
 31
0.0
  0
LINE
  8
0
  6
CONTINUOUS
 62
   249
 10
222.5
 20
197.5
 30
0.0
 11
222.5
 21
155.0
 31
0.0
  0
LINE
  8
0
  6
CONTINUOUS
 62
   249
 10
342.5
 20
215.0
 30
0.0
 11
362.5
 21
215.0
 31
0.0
  0
LINE
  8
0
  6
CONTINUOUS
 62
   249
 10
342.5
 20
247.5
 30
0.0
 11
362.5
 21
247.5
 31
0.0
  0
LINE
  8
0
  6
CONTINUOUS
 62
   249
 10
362.5
 20
247.5
 30
0.0
 11
362.5
 21
215.0
 31
0.0
  0
LINE
  8
0
  6
CONTINUOUS
 62
   249
 10
342.5
 20
215.0
 30
0.0
 11
342.5
 21
247.5
 31
0.0
  0
TEXT
  8
0
  6
CONTINUOUS
 62
   249
 10
342.5
 20
147.5
 30
0.0
 40
2.0
  1
EXTERNAL BLOCKING
  0
TEXT
  8
0
  6
CONTINUOUS
 62
   249
 10
342.5
 20
144.166667
 30
0.0
 40
2.0
  1
EXTERN BLOCKERING
  0
TEXT
  8
0
  6
CONTINUOUS
 62
   249
 10
342.5
 20
124.166667
 30
0.0
 40
2.0
  1
TRIP
  0
TEXT
  8
0
  6
CONTINUOUS
 62
   249
 10
342.5
 20
120.833333
 30
0.0
 40
2.0
  1
UTLÖSNING
  0
TEXT
  8
0
  6
CONTINUOUS
 62
   249
 10
342.5
 20
112.5
 30
0.0
 40
2.0
  1
ALARM ETC.
  0
TEXT
  8
0
  6
CONTINUOUS
 62
   249
 10
342.5
 20
109.166667
 30
0.0
 40
2.0
  1
SIGNAL MM.
  0
TEXT
  8
0
  6
CONTINUOUS
 62
   249
 10
342.5
 20
100.833333
 30
0.0
 40
2.0
  1
START, BLOCKING ETC.
  0
TEXT
  8
0
  6
CONTINUOUS
 62
   249
 10
342.5
 20
97.5
 30
0.0
 40
2.0
  1
START, BLOCKERING MM.
  0
TEXT
  8
0
  6
CONTINUOUS
 62
   249
 10
335.0
 20
147.701531
 30
0.0
 40
2.0
  1
1)
  0
TEXT
  8
0
  6
CONTINUOUS
 62
   249
 10
335.0
 20
135.827468
 30
0.0
 40
2.0
  1
2)
  0
TEXT
  8
0
  6
CONTINUOUS
 62
   249
 10
335.0
 20
124.172532
 30
0.0
 40
2.0
  1
3)
  0
TEXT
  8
0
  6
CONTINUOUS
 62
   249
 10
335.0
 20
112.5
 30
0.0
 40
2.0
  1
4)
  0
TEXT
  8
0
  6
CONTINUOUS
 62
   249
 10
335.0
 20
100.815972
 30
0.0
 40
2.0
  1
5)
  0
TEXT
  8
0
  6
CONTINUOUS
 62
   249
 10
335.0
 20
89.184028
 30
0.0
 40
2.0
  1
6)
  0
LINE
  8
0
  6
DASHED
 62
   249
 10
255.0
 20
155.0
 30
0.0
 11
282.5
 21
155.0
 31
0.0
  0
LINE
  8
0
  6
CONTINUOUS
 62
   249
 10
246.063198
 20
154.25712
 30
0.0
 11
247.279906
 21
155.667057
 31
0.0
  0
TEXT
  8
0
  6
CONTINUOUS
 62
   249
 10
247.036564
 20
156.570297
 30
0.0
 40
2.0
  1
9
  0
LINE
  8
0
  6
DASHED
 62
   249
 10
40.0
 20
142.5
 30
0.0
 11
30.0
 21
142.5
 31
0.0
  0
LINE
  8
0
  6
DASHED
 62
   249
 10
40.0
 20
132.5
 30
0.0
 11
30.0
 21
132.5
 31
0.0
  0
LINE
  8
0
  6
DASHED
 62
   249
 10
40.0
 20
122.5
 30
0.0
 11
30.0
 21
122.5
 31
0.0
  0
LINE
  8
0
  6
DASHED
 62
   249
 10
40.0
 20
112.5
 30
0.0
 11
30.0
 21
112.5
 31
0.0
  0
LINE
  8
0
  6
DASHED
 62
   249
 10
40.0
 20
87.5
 30
0.0
 11
30.0
 21
87.5
 31
0.0
  0
LINE
  8
0
  6
CONTINUOUS
 62
   249
 10
27.5
 20
143.0
 30
0.0
 11
27.5
 21
132.0
 31
0.0
  0
LINE
  8
0
  6
CONTINUOUS
 62
   249
 10
27.5
 20
143.0
 30
0.0
 11
28.5
 21
144.0
 31
0.0
  0
LINE
  8
0
  6
CONTINUOUS
 62
   249
 10
27.5
 20
132.0
 30
0.0
 11
28.5
 21
131.0
 31
0.0
  0
TEXT
  8
0
  6
CONTINUOUS
 62
   249
 10
20.0
 20
136.532746
 30
0.0
 40
2.0
  1
3)
  0
TEXT
  8
0
  6
CONTINUOUS
 62
   249
 10
20.0
 20
121.400841
 30
0.0
 40
2.0
  1
4)
  0
TEXT
  8
0
  6
CONTINUOUS
 62
   249
 10
20.0
 20
106.258571
 30
0.0
 40
2.0
  1
5)
  0
TEXT
  8
0
  6
CONTINUOUS
 62
   249
 10
20.0
 20
86.491877
 30
0.0
 40
2.0
  1
6)
  0
LINE
  8
0
  6
CONTINUOUS
 62
   249
 10
80.0
 20
142.5
 30
0.0
 11
77.5
 21
142.5
 31
0.0
  0
LINE
  8
0
 62
   249
 10
235.0
 20
227.5
 30
0.0
 11
233.480133
 21
227.5
 31
0.0
  0
ARC
  8
0
 62
   249
 10
235.065849
 20
228.75
 30
0.0
 40
1.251733
 50
266.984476
 51
93.015524
  0
LINE
  8
0
 62
   249
 10
235.0
 20
230.0
 30
0.0
 11
233.480133
 21
230.0
 31
0.0
  0
LINE
  8
0
 62
   249
 10
235.0
 20
232.5
 30
0.0
 11
233.480133
 21
232.5
 31
0.0
  0
ARC
  8
0
 62
   249
 10
235.065849
 20
231.25
 30
0.0
 40
1.251733
 50
266.984476
 51
93.015524
  0
LINE
  8
0
 62
   249
 10
240.0
 20
225.0
 30
0.0
 11
242.5
 21
225.0
 31
0.0
  0
ARC
  8
0
 62
   249
 10
239.934151
 20
226.25
 30
0.0
 40
1.251733
 50
86.984476
 51
273.015524
  0
ARC
  8
0
 62
   249
 10
239.934151
 20
228.75
 30
0.0
 40
1.251733
 50
86.984476
 51
273.015524
  0
LINE
  8
0
 62
   249
 10
240.0
 20
227.5
 30
0.0
 11
242.5
 21
227.5
 31
0.0
  0
LINE
  8
0
 62
   249
 10
240.0
 20
230.0
 30
0.0
 11
242.5
 21
230.0
 31
0.0
  0
LINE
  8
0
 62
   249
 10
242.5
 20
230.0
 30
0.0
 11
245.0
 21
230.0
 31
0.0
  0
LINE
  8
0
 62
   249
 10
242.5
 20
225.0
 30
0.0
 11
250.0
 21
225.0
 31
0.0
  0
LINE
  8
0
 62
   249
 10
242.5
 20
230.0
 30
0.0
 11
250.0
 21
230.0
 31
0.0
  0
LINE
  8
0
 62
   249
 10
242.5
 20
235.0
 30
0.0
 11
250.0
 21
235.0
 31
0.0
  0
LINE
  8
0
 62
   249
 10
240.0
 20
235.0
 30
0.0
 11
242.5
 21
235.0
 31
0.0
  0
LINE
  8
0
 62
   249
 10
240.0
 20
232.5
 30
0.0
 11
242.5
 21
232.5
 31
0.0
  0
ARC
  8
0
 62
   249
 10
239.934151
 20
233.75
 30
0.0
 40
1.251733
 50
86.984476
 51
273.015524
  0
ARC
  8
0
 62
   249
 10
239.934151
 20
231.25
 30
0.0
 40
1.251733
 50
86.984476
 51
273.015524
  0
LINE
  8
0
 62
   249
 10
240.0
 20
230.0
 30
0.0
 11
242.5
 21
230.0
 31
0.0
  0
LINE
  8
0
 62
   249
 10
235.0
 20
207.5
 30
0.0
 11
233.480133
 21
207.5
 31
0.0
  0
ARC
  8
0
 62
   249
 10
235.065849
 20
208.75
 30
0.0
 40
1.251733
 50
266.984476
 51
93.015524
  0
LINE
  8
0
 62
   249
 10
235.0
 20
210.0
 30
0.0
 11
233.480133
 21
210.0
 31
0.0
  0
LINE
  8
0
 62
   249
 10
235.0
 20
212.5
 30
0.0
 11
233.480133
 21
212.5
 31
0.0
  0
ARC
  8
0
 62
   249
 10
235.065849
 20
211.25
 30
0.0
 40
1.251733
 50
266.984476
 51
93.015524
  0
LINE
  8
0
 62
   249
 10
240.0
 20
205.0
 30
0.0
 11
242.5
 21
205.0
 31
0.0
  0
ARC
  8
0
 62
   249
 10
239.934151
 20
206.25
 30
0.0
 40
1.251733
 50
86.984476
 51
273.015524
  0
ARC
  8
0
 62
   249
 10
239.934151
 20
208.75
 30
0.0
 40
1.251733
 50
86.984476
 51
273.015524
  0
LINE
  8
0
 62
   249
 10
240.0
 20
207.5
 30
0.0
 11
242.5
 21
207.5
 31
0.0
  0
LINE
  8
0
 62
   249
 10
240.0
 20
210.0
 30
0.0
 11
242.5
 21
210.0
 31
0.0
  0
LINE
  8
0
 62
   249
 10
242.5
 20
210.0
 30
0.0
 11
245.0
 21
210.0
 31
0.0
  0
LINE
  8
0
 62
   249
 10
242.5
 20
205.0
 30
0.0
 11
250.0
 21
205.0
 31
0.0
  0
LINE
  8
0
 62
   249
 10
242.5
 20
210.0
 30
0.0
 11
250.0
 21
210.0
 31
0.0
  0
LINE
  8
0
 62
   249
 10
242.5
 20
215.0
 30
0.0
 11
250.0
 21
215.0
 31
0.0
  0
LINE
  8
0
 62
   249
 10
240.0
 20
215.0
 30
0.0
 11
242.5
 21
215.0
 31
0.0
  0
LINE
  8
0
 62
   249
 10
240.0
 20
212.5
 30
0.0
 11
242.5
 21
212.5
 31
0.0
  0
ARC
  8
0
 62
   249
 10
239.934151
 20
213.75
 30
0.0
 40
1.251733
 50
86.984476
 51
273.015524
  0
ARC
  8
0
 62
   249
 10
239.934151
 20
211.25
 30
0.0
 40
1.251733
 50
86.984476
 51
273.015524
  0
LINE
  8
0
 62
   249
 10
240.0
 20
210.0
 30
0.0
 11
242.5
 21
210.0
 31
0.0
  0
LINE
  8
0
 62
   249
 10
235.0
 20
187.5
 30
0.0
 11
233.480133
 21
187.5
 31
0.0
  0
ARC
  8
0
 62
   249
 10
235.065849
 20
188.75
 30
0.0
 40
1.251733
 50
266.984476
 51
93.015524
  0
LINE
  8
0
 62
   249
 10
235.0
 20
190.0
 30
0.0
 11
233.480133
 21
190.0
 31
0.0
  0
LINE
  8
0
 62
   249
 10
235.0
 20
192.5
 30
0.0
 11
233.480133
 21
192.5
 31
0.0
  0
ARC
  8
0
 62
   249
 10
235.065849
 20
191.25
 30
0.0
 40
1.251733
 50
266.984476
 51
93.015524
  0
LINE
  8
0
 62
   249
 10
240.0
 20
185.0
 30
0.0
 11
242.5
 21
185.0
 31
0.0
  0
ARC
  8
0
 62
   249
 10
239.934151
 20
186.25
 30
0.0
 40
1.251733
 50
86.984476
 51
273.015524
  0
ARC
  8
0
 62
   249
 10
239.934151
 20
188.75
 30
0.0
 40
1.251733
 50
86.984476
 51
273.015524
  0
LINE
  8
0
 62
   249
 10
240.0
 20
187.5
 30
0.0
 11
242.5
 21
187.5
 31
0.0
  0
LINE
  8
0
 62
   249
 10
240.0
 20
190.0
 30
0.0
 11
242.5
 21
190.0
 31
0.0
  0
LINE
  8
0
 62
   249
 10
242.5
 20
190.0
 30
0.0
 11
245.0
 21
190.0
 31
0.0
  0
LINE
  8
0
 62
   249
 10
242.5
 20
185.0
 30
0.0
 11
250.0
 21
185.0
 31
0.0
  0
LINE
  8
0
 62
   249
 10
242.5
 20
190.0
 30
0.0
 11
250.0
 21
190.0
 31
0.0
  0
LINE
  8
0
 62
   249
 10
242.5
 20
195.0
 30
0.0
 11
250.0
 21
195.0
 31
0.0
  0
LINE
  8
0
 62
   249
 10
240.0
 20
195.0
 30
0.0
 11
242.5
 21
195.0
 31
0.0
  0
LINE
  8
0
 62
   249
 10
240.0
 20
192.5
 30
0.0
 11
242.5
 21
192.5
 31
0.0
  0
ARC
  8
0
 62
   249
 10
239.934151
 20
193.75
 30
0.0
 40
1.251733
 50
86.984476
 51
273.015524
  0
ARC
  8
0
 62
   249
 10
239.934151
 20
191.25
 30
0.0
 40
1.251733
 50
86.984476
 51
273.015524
  0
LINE
  8
0
 62
   249
 10
240.0
 20
190.0
 30
0.0
 11
242.5
 21
190.0
 31
0.0
  0
TEXT
  8
0
  6
CONTINUOUS
 62
   249
 10
245.0
 20
231.485611
 30
0.0
 40
2.0
  1
3
  0
TEXT
  8
0
  6
CONTINUOUS
 62
   249
 10
245.0
 20
226.487639
 30
0.0
 40
2.0
  1
2
  0
TEXT
  8
0
  6
CONTINUOUS
 62
   249
 10
245.502776
 20
221.827797
 30
0.0
 40
2.0
  1
1
  0
TEXT
  8
0
  6
CONTINUOUS
 62
   249
 10
245.0
 20
211.483938
 30
0.0
 40
2.0
  1
9
  0
TEXT
  8
0
  6
CONTINUOUS
 62
   249
 10
244.904233
 20
206.433947
 30
0.0
 40
2.0
  1
8
  0
TEXT
  8
0
  6
CONTINUOUS
 62
   249
 10
245.0
 20
201.531345
 30
0.0
 40
2.0
  1
7
  0
INSERT
  8
0
  6
CONTINUOUS
 62
   249
  2
BLC29
 10
231.529446
 20
154.871533
 30
0.0
 41
-1.0
 50
180.0
  0
LINE
  8
0
  6
CONTINUOUS
 62
   249
 10
250.0
 20
155.0
 30
0.0
 11
222.5
 21
155.0
 31
0.0
  0
TEXT
  8
0
  6
CONTINUOUS
 62
   249
 10
237.5
 20
150.0
 30
0.0
 40
2.0
  1
RX/TX
  0
LINE
  8
0
  6
DASHED
 62
   249
 10
205.0
 20
55.0
 30
0.0
 11
205.0
 21
47.5
 31
0.0
  0
LINE
  8
0
  6
CONTINUOUS
 62
   249
 10
180.0
 20
80.0
 30
0.0
 11
180.0
 21
92.5
 31
0.0
  0
LINE
  8
0
  6
CONTINUOUS
 62
   249
 10
190.0
 20
80.0
 30
0.0
 11
190.0
 21
112.5
 31
0.0
  0
LINE
  8
0
  6
CONTINUOUS
 62
   249
 10
195.0
 20
80.0
 30
0.0
 11
195.0
 21
122.5
 31
0.0
  0
LINE
  8
0
  6
CONTINUOUS
 62
   249
 10
200.0
 20
80.0
 30
0.0
 11
200.0
 21
132.5
 31
0.0
  0
LINE
  8
0
  6
CONTINUOUS
 62
   249
 10
205.0
 20
80.0
 30
0.0
 11
205.0
 21
142.5
 31
0.0
  0
LINE
  8
0
  6
CONTINUOUS
 62
   249
 10
160.0
 20
92.5
 30
0.0
 11
165.0
 21
92.5
 31
0.0
  0
LINE
  8
0
  6
CONTINUOUS
 62
   249
 10
167.5
 20
87.5
 30
0.0
 11
160.0
 21
87.5
 31
0.0
  0
LINE
  8
0
  6
CONTINUOUS
 62
   249
 10
167.5
 20
87.5
 30
0.0
 11
167.5
 21
90.0
 31
0.0
  0
LINE
  8
0
  6
CONTINUOUS
 62
   249
 10
172.5
 20
92.5
 30
0.0
 11
180.0
 21
92.5
 31
0.0
  0
TEXT
  8
0
  6
CONTINUOUS
 62
   249
 10
342.5
 20
135.83101
 30
0.0
 40
2.0
  1
BUS CONNECTION MODULE
  0
TEXT
  8
0
  6
CONTINUOUS
 62
   249
 10
342.5
 20
132.497677
 30
0.0
 40
2.0
  1
BUSSANSLUTNINGSMODUL
  0
TEXT
  8
0
  6
CONTINUOUS
 62
   249
 10
342.5
 20
89.179249
 30
0.0
 40
2.0
  1
INTERNAL RELAY FAULT
  0
TEXT
  8
0
  6
CONTINUOUS
 62
   249
 10
342.5
 20
85.845916
 30
0.0
 40
2.0
  1
INTERNT RELÄFEL
  0
TEXT
  8
0
  6
CONTINUOUS
 62
   249
 10
70.0
 20
139.031955
 30
0.0
 40
2.0
  1
65
  0
TEXT
  8
0
  6
CONTINUOUS
 62
   249
 10
70.0
 20
128.979378
 30
0.0
 40
2.0
  1
68
  0
TEXT
  8
0
  6
CONTINUOUS
 62
   249
 10
70.0
 20
118.940084
 30
0.0
 40
2.0
  1
80
  0
TEXT
  8
0
  6
CONTINUOUS
 62
   249
 10
70.0
 20
108.91813
 30
0.0
 40
2.0
  1
77
  0
TEXT
  8
0
  6
CONTINUOUS
 62
   249
 10
70.0
 20
89.200333
 30
0.0
 40
2.0
  1
70
  0
TEXT
  8
0
  6
CONTINUOUS
 62
   249
 10
70.0
 20
83.713799
 30
0.0
 40
2.0
  1
71
  0
TEXT
  8
0
  6
CONTINUOUS
 62
   249
 10
183.665298
 20
81.535271
 30
0.0
 40
2.0
  1
72
 50
90.0
  0
TEXT
  8
0
  6
CONTINUOUS
 62
   249
 10
193.671834
 20
81.535271
 30
0.0
 40
2.0
  1
78
 50
90.0
  0
TEXT
  8
0
  6
CONTINUOUS
 62
   249
 10
198.621233
 20
81.535271
 30
0.0
 40
2.0
  1
81
 50
90.0
  0
TEXT
  8
0
  6
CONTINUOUS
 62
   249
 10
203.54669
 20
81.535271
 30
0.0
 40
2.0
  1
69
 50
90.0
  0
TEXT
  8
0
  6
CONTINUOUS
 62
   249
 10
208.627769
 20
81.535271
 30
0.0
 40
2.0
  1
66
 50
90.0
  0
TEXT
  8
0
  6
CONTINUOUS
 62
   249
 10
223.684389
 20
81.535271
 30
0.0
 40
2.0
  1
61
 50
90.0
  0
TEXT
  8
0
  6
CONTINUOUS
 62
   249
 10
228.621817
 20
81.535271
 30
0.0
 40
2.0
  1
62
 50
90.0
  0
TEXT
  8
0
  6
CONTINUOUS
 62
   249
 10
335.0
 20
77.5
 30
0.0
 40
2.0
  1
7)
  0
LINE
  8
0
  6
CONTINUOUS
 62
   249
 10
90.0
 20
142.5
 30
0.0
 11
84.256076
 21
139.285297
 31
0.0
  0
LINE
  8
0
  6
CONTINUOUS
 62
   249
 10
80.0
 20
142.5
 30
0.0
 11
85.0
 21
142.5
 31
0.0
  0
LINE
  8
0
  6
CONTINUOUS
 62
   249
 10
90.0
 20
142.5
 30
0.0
 11
95.0
 21
142.5
 31
0.0
  0
LINE
  8
0
  6
CONTINUOUS
 62
   249
 10
107.5
 20
132.5
 30
0.0
 11
117.5
 21
132.5
 31
0.0
  0
LINE
  8
0
  6
CONTINUOUS
 62
   249
 10
115.0
 20
122.5
 30
0.0
 11
120.0
 21
122.5
 31
0.0
  0
LINE
  8
0
  6
CONTINUOUS
 62
   249
 10
125.0
 20
122.5
 30
0.0
 11
130.0
 21
122.5
 31
0.0
  0
LINE
  8
0
  6
CONTINUOUS
 62
   249
 10
130.0
 20
112.5
 30
0.0
 11
137.5
 21
112.5
 31
0.0
  0
LINE
  8
0
  6
CONTINUOUS
 62
   249
 10
142.5
 20
112.5
 30
0.0
 11
147.5
 21
112.5
 31
0.0
  0
LINE
  8
0
  6
CONTINUOUS
 62
   249
 10
107.5
 20
132.5
 30
0.0
 11
101.756076
 21
129.285297
 31
0.0
  0
LINE
  8
0
  6
CONTINUOUS
 62
   249
 10
125.0
 20
122.5
 30
0.0
 11
119.256076
 21
119.285297
 31
0.0
  0
LINE
  8
0
  6
CONTINUOUS
 62
   249
 10
142.5
 20
112.5
 30
0.0
 11
136.756076
 21
109.285297
 31
0.0
  0
LINE
  8
0
  6
CONTINUOUS
 62
   249
 10
172.5
 20
92.5
 30
0.0
 11
166.756076
 21
89.285297
 31
0.0
  0
TEXT
  8
0
  6
DASHED
 62
   249
 10
191.426232
 20
196.082908
 30
0.0
 40
2.5
  1
SERIAL I/O
  0
TEXT
  8
0
  6
DASHED
 62
   249
 10
372.5
 20
12.5
 30
0.0
 40
2.0
  1
1
  0
LINE
  8
0
  6
CONTINUOUS
 62
   249
 10
82.5
 20
160.0
 30
0.0
 11
92.5
 21
160.0
 31
0.0
  0
LINE
  8
0
  6
CONTINUOUS
 62
   249
 10
82.5
 20
165.0
 30
0.0
 11
82.5
 21
160.0
 31
0.0
  0
LINE
  8
0
  6
CONTINUOUS
 62
   249
 10
85.0
 20
165.0
 30
0.0
 11
85.0
 21
173.652485
 31
0.0
  0
LINE
  8
0
  6
CONTINUOUS
 62
   249
 10
92.5
 20
165.0
 30
0.0
 11
92.5
 21
160.0
 31
0.0
  0
LINE
  8
0
  6
CONTINUOUS
 62
   249
 10
92.5
 20
165.0
 30
0.0
 11
82.5
 21
165.0
 31
0.0
  0
LINE
  8
0
  6
CONTINUOUS
 62
   249
 10
87.5
 20
157.5
 30
0.0
 11
87.5
 21
152.5
 31
0.0
  0
LINE
  8
0
  6
CONTINUOUS
 62
   249
 10
90.0
 20
165.0
 30
0.0
 11
90.0
 21
167.5
 31
0.0
  0
LINE
  8
0
  6
CONTINUOUS
 62
   249
 10
87.5
 20
160.0
 30
0.0
 11
87.5
 21
157.5
 31
0.0
  0
LINE
  8
0
  6
CONTINUOUS
 62
   249
 10
87.251902
 20
162.789195
 30
0.0
 11
84.906137
 21
161.599276
 31
0.0
  0
LINE
  8
0
  6
CONTINUOUS
 62
   249
 10
84.898095
 20
160.799262
 30
0.0
 11
87.281556
 21
161.987454
 31
0.0
  0
LINE
  8
0
  6
CONTINUOUS
 62
   249
 10
84.906137
 20
164.124549
 30
0.0
 11
87.251902
 21
162.789195
 31
0.0
  0
TEXT
  8
0
  6
CONTINUOUS
 62
   249
 10
89.339999
 20
161.464455
 30
0.0
 40
2.5
  1
1
 11
89.339999
 21
160.631122
 31
0.0
 73
     1
  0
LINE
  8
0
  6
CONTINUOUS
 62
   249
 10
90.0
 20
167.5
 30
0.0
 11
88.285914
 21
172.586297
 31
0.0
  0
LINE
  8
0
  6
CONTINUOUS
 62
   249
 10
90.0
 20
172.5
 30
0.0
 11
90.0
 21
201.993304
 31
0.0
  0
LINE
  8
0
  6
CONTINUOUS
 62
   249
 10
95.0
 20
142.5
 30
0.0
 11
205.0
 21
142.5
 31
0.0
  0
LINE
  8
0
  6
CONTINUOUS
 62
   249
 10
102.5
 20
167.5
 30
0.0
 11
100.785914
 21
172.586297
 31
0.0
  0
LINE
  8
0
  6
CONTINUOUS
 62
   249
 10
102.5
 20
172.5
 30
0.0
 11
102.5
 21
214.493304
 31
0.0
  0
LINE
  8
0
  6
CONTINUOUS
 62
   249
 10
120.0
 20
167.5
 30
0.0
 11
118.285914
 21
172.586297
 31
0.0
  0
LINE
  8
0
  6
CONTINUOUS
 62
   249
 10
120.0
 20
172.5
 30
0.0
 11
120.0
 21
214.493304
 31
0.0
  0
LINE
  8
0
  6
CONTINUOUS
 62
   249
 10
120.0
 20
165.0
 30
0.0
 11
120.0
 21
167.5
 31
0.0
  0
LINE
  8
0
  6
CONTINUOUS
 62
   249
 10
125.0
 20
167.5
 30
0.0
 11
123.285914
 21
172.586297
 31
0.0
  0
LINE
  8
0
  6
CONTINUOUS
 62
   249
 10
125.0
 20
172.5
 30
0.0
 11
125.0
 21
201.993304
 31
0.0
  0
LINE
  8
0
  6
CONTINUOUS
 62
   249
 10
125.0
 20
165.0
 30
0.0
 11
125.0
 21
167.5
 31
0.0
  0
CIRCLE
  8
0
  6
CONTINUOUS
 62
   249
 10
186.512659
 20
193.284079
 30
0.0
 40
1.0
  0
LINE
  8
0
  6
CONTINUOUS
 62
   249
 10
185.513509
 20
193.325312
 30
0.0
 11
170.0
 21
193.325312
 31
0.0
  0
TEXT
  8
0
  6
DASHED
 62
   249
 10
88.895842
 20
174.781039
 30
0.0
 40
2.0
  1
SGR/6
 50
90.0
  0
TEXT
  8
0
  6
DASHED
 62
   249
 10
101.439391
 20
174.781039
 30
0.0
 40
2.0
  1
SGR/8
 50
90.0
  0
TEXT
  8
0
  6
DASHED
 62
   249
 10
118.819166
 20
174.781039
 30
0.0
 40
2.0
  1
SGR/7
 50
90.0
  0
TEXT
  8
0
  6
DASHED
 62
   249
 10
123.821075
 20
174.781039
 30
0.0
 40
2.0
  1
SGR/5
 50
90.0
  0
TEXT
  8
0
  6
DASHED
 62
   249
 10
133.697032
 20
174.781039
 30
0.0
 40
2.0
  1
SGR/3
 50
90.0
  0
TEXT
  8
0
  6
DASHED
 62
   249
 10
138.828712
 20
174.781039
 30
0.0
 40
2.0
  1
SGR/2
 50
90.0
  0
TEXT
  8
0
  6
DASHED
 62
   249
 10
143.960391
 20
174.781039
 30
0.0
 40
2.0
  1
SGR/4
 50
90.0
  0
TEXT
  8
0
 62
   249
 10
235.965704
 20
39.354458
 30
0.0
 40
1.92
  1
PE
  0
LINE
  8
0
 62
   249
 10
236.024091
 20
44.050711
 30
0.0
 11
239.073201
 21
44.050711
 31
0.0
  0
LINE
  8
0
 62
   249
 10
237.49999
 20
44.685023
 30
0.0
 11
237.49999
 21
47.500268
 31
0.0
  0
LINE
  8
0
 62
   249
 10
236.607964
 20
43.38116
 30
0.0
 11
238.527173
 21
43.38116
 31
0.0
  0
LINE
  8
0
 62
   249
 10
239.402981
 20
44.685023
 30
0.0
 11
238.80289
 21
44.685023
 31
0.0
  0
LINE
  8
0
 62
   249
 10
235.688906
 20
44.685023
 30
0.0
 11
239.381356
 21
44.685023
 31
0.0
  0
CIRCLE
  8
0
 62
   249
 10
237.505397
 20
44.195585
 30
0.0
 40
2.282738
  0
CIRCLE
  8
0
 62
   249
 10
241.040014
 20
83.318016
 30
0.0
 40
2.282738
  0
LINE
  8
0
 62
   249
 10
240.550576
 20
81.501525
 30
0.0
 11
240.550576
 21
85.193975
 31
0.0
  0
LINE
  8
0
 62
   249
 10
240.550576
 20
82.7156
 30
0.0
 11
240.550576
 21
82.11551
 31
0.0
  0
LINE
  8
0
 62
   249
 10
241.854438
 20
82.420583
 30
0.0
 11
241.854438
 21
84.339792
 31
0.0
  0
LINE
  8
0
 62
   249
 10
240.550576
 20
83.31261
 30
0.0
 11
239.154038
 21
83.31261
 31
0.0
  0
LINE
  8
0
 62
   249
 10
241.184888
 20
81.836711
 30
0.0
 11
241.184888
 21
84.885821
 31
0.0
  0
TEXT
  8
0
  6
DASHED
 62
   249
 10
290.0
 20
153.895869
 30
0.0
 40
2.0
  1
2)
  0
LINE
  8
0
  6
CONTINUOUS
 62
   249
 10
187.5
 20
225.0
 30
0.0
 11
207.5
 21
225.0
 31
0.0
  0
LINE
  8
0
  6
CONTINUOUS
 62
   249
 10
187.5
 20
212.5
 30
0.0
 11
217.950615
 21
212.5
 31
0.0
  0
LINE
  8
0
  6
CONTINUOUS
 62
   249
 10
193.609652
 20
211.281659
 30
0.0
 11
195.955418
 21
209.946305
 31
0.0
  0
LINE
  8
0
  6
CONTINUOUS
 62
   249
 10
195.955418
 20
209.946305
 30
0.0
 11
193.609652
 21
208.756386
 31
0.0
  0
TEXT
  8
0
  6
CONTINUOUS
 62
   249
 10
189.300457
 20
208.765669
 30
0.0
 40
2.5
  1
I
 11
189.300457
 21
207.932336
 31
0.0
 73
     1
  0
LINE
  8
0
  6
CONTINUOUS
 62
   249
 10
187.5
 20
207.5
 30
0.0
 11
207.5
 21
207.5
 31
0.0
  0
TEXT
  8
0
  6
CONTINUOUS
 62
   249
 10
188.406909
 20
204.763189
 30
0.0
 40
1.5
  1
EN
  0
LINE
  8
0
  6
CONTINUOUS
 62
   249
 10
192.5
 20
205.521206
 30
0.0
 11
195.0
 21
205.521206
 31
0.0
  0
LINE
  8
0
  6
CONTINUOUS
 62
   249
 10
197.5
 20
205.521206
 30
0.0
 11
195.275553
 21
204.960564
 31
0.0
  0
LINE
  8
0
  6
CONTINUOUS
 62
   249
 10
197.5
 20
205.521206
 30
0.0
 11
200.0
 21
205.521206
 31
0.0
  0
LINE
  8
0
  6
CONTINUOUS
 62
   249
 10
193.609652
 20
203.262644
 30
0.0
 11
195.955418
 21
201.92729
 31
0.0
  0
LINE
  8
0
  6
CONTINUOUS
 62
   249
 10
195.955418
 20
201.92729
 30
0.0
 11
193.609652
 21
200.737371
 31
0.0
  0
TEXT
  8
0
  6
CONTINUOUS
 62
   249
 10
189.300457
 20
200.746654
 30
0.0
 40
2.5
  1
I
 11
189.300457
 21
199.913321
 31
0.0
 73
     1
  0
ARC
  8
0
  6
HIDDEN
 62
   249
 10
205.652505
 20
205.903504
 30
0.0
 40
4.998196
 50
206.402922
 51
282.21115
  0
LINE
  8
0
  6
CONTINUOUS
 62
   249
 10
206.741301
 20
202.820238
 30
0.0
 11
206.741301
 21
201.032107
 31
0.0
  0
LINE
  8
0
  6
CONTINUOUS
 62
   249
 10
203.787189
 20
204.173123
 30
0.0
 11
204.687866
 21
203.049374
 31
0.0
  0
LINE
  8
0
  6
CONTINUOUS
 62
   249
 10
201.341782
 20
200.807357
 30
0.0
 11
204.217892
 21
203.635916
 31
0.0
  0
LINE
  8
0
  6
CONTINUOUS
 62
   249
 10
198.957637
 20
201.97496
 30
0.0
 11
206.745842
 21
201.97496
 31
0.0
  0
LINE
  8
0
  6
CONTINUOUS
 62
   249
 10
198.926606
 20
202.820238
 30
0.0
 11
198.926606
 21
201.032107
 31
0.0
  0
TEXT
  8
0
  6
CONTINUOUS
 62
   249
 10
211.147271
 20
205.228312
 30
0.0
 40
2.5
  1
I
 11
211.147271
 21
204.394979
 31
0.0
 73
     1
  0
TEXT
  8
0
  6
DASHED
 62
   249
 10
210.0
 20
225.0
 30
0.0
 40
2.5
  1
2I
  0
LINE
  8
0
  6
CONTINUOUS
 62
   249
 10
167.5
 20
226.96246
 30
0.0
 11
187.5
 21
226.96246
 31
0.0
  0
LINE
  8
0
  6
CONTINUOUS
 62
   249
 10
145.0
 20
102.5
 30
0.0
 11
152.5
 21
102.5
 31
0.0
  0
LINE
  8
0
  6
CONTINUOUS
 62
   249
 10
157.5
 20
102.5
 30
0.0
 11
151.756076
 21
99.285297
 31
0.0
  0
LINE
  8
0
  6
CONTINUOUS
 62
   249
 10
157.5
 20
102.5
 30
0.0
 11
162.5
 21
102.5
 31
0.0
  0
LINE
  8
0
  6
CONTINUOUS
 62
   249
 10
185.0
 20
80.0
 30
0.0
 11
185.0
 21
102.5
 31
0.0
  0
LINE
  8
0
  6
CONTINUOUS
 62
   249
 10
162.5
 20
102.5
 30
0.0
 11
185.0
 21
102.5
 31
0.0
  0
LINE
  8
0
  6
CONTINUOUS
 62
   249
 10
145.0
 20
102.5
 30
0.0
 11
77.5
 21
102.5
 31
0.0
  0
LINE
  8
0
  6
DASHED
 62
   249
 10
40.0
 20
102.5
 30
0.0
 11
30.0
 21
102.5
 31
0.0
  0
LINE
  8
0
  6
CONTINUOUS
 62
   249
 10
27.5
 20
102.0
 30
0.0
 11
28.5
 21
101.0
 31
0.0
  0
LINE
  8
0
  6
CONTINUOUS
 62
   249
 10
27.5
 20
113.0
 30
0.0
 11
28.5
 21
114.0
 31
0.0
  0
LINE
  8
0
  6
CONTINUOUS
 62
   249
 10
27.5
 20
113.0
 30
0.0
 11
27.5
 21
102.0
 31
0.0
  0
TEXT
  8
0
  6
CONTINUOUS
 62
   249
 10
188.421756
 20
81.572311
 30
0.0
 40
2.0
  1
75
 50
90.0
  0
TEXT
  8
0
  6
CONTINUOUS
 62
   249
 10
147.5
 20
103.413391
 30
0.0
 40
2.0
  1
F
  0
LINE
  8
0
  6
CONTINUOUS
 62
   249
 10
155.0
 20
235.0
 30
0.0
 11
155.0
 21
157.5
 31
0.0
  0
LINE
  8
0
  6
DASHED
 62
   249
 10
155.0
 20
152.5
 30
0.0
 11
155.0
 21
100.0
 31
0.0
  0
LINE
  8
0
  6
CONTINUOUS
 62
   249
 10
155.0
 20
157.5
 30
0.0
 11
155.0
 21
152.5
 31
0.0
  0
LINE
  8
0
  6
CONTINUOUS
 62
   249
 10
167.5
 20
214.493304
 30
0.0
 11
167.5
 21
226.96246
 31
0.0
  0
LINE
  8
0
  6
CONTINUOUS
 62
   249
 10
187.5
 20
235.0
 30
0.0
 11
155.0
 21
235.0
 31
0.0
  0
LINE
  8
0
  6
CONTINUOUS
 62
   249
 10
185.513814
 20
230.468636
 30
0.0
 11
182.5
 21
230.468636
 31
0.0
  0
CIRCLE
  8
0
  6
CONTINUOUS
 62
   249
 10
186.512659
 20
230.516691
 30
0.0
 40
1.0
  0
TEXT
  8
0
  6
CONTINUOUS
 62
   249
 10
245.0
 20
191.659011
 30
0.0
 40
2.0
  1
27
  0
TEXT
  8
0
  6
CONTINUOUS
 62
   249
 10
245.0
 20
186.635029
 30
0.0
 40
2.0
  1
26
  0
TEXT
  8
0
  6
CONTINUOUS
 62
   249
 10
245.0
 20
181.959894
 30
0.0
 40
2.0
  1
25
  0
LINE
  8
0
  6
CONTINUOUS
 62
   249
 10
232.5
 20
190.0
 30
0.0
 11
225.0
 21
190.0
 31
0.0
  0
LINE
  8
0
  6
CONTINUOUS
 62
   249
 10
225.0
 20
190.0
 30
0.0
 11
225.0
 21
205.0
 31
0.0
  0
LINE
  8
0
  6
CONTINUOUS
 62
   249
 10
225.0
 20
205.0
 30
0.0
 11
217.950615
 21
205.0
 31
0.0
  0
TEXT
  8
0
  6
CONTINUOUS
 62
   249
 10
257.145682
 20
236.199501
 30
0.0
 40
2.0
  1
7)
  0
TEXT
  8
0
  6
CONTINUOUS
 62
   249
 10
257.145682
 20
216.289142
 30
0.0
 40
2.0
  1
7)
  0
TEXT
  8
0
  6
CONTINUOUS
 62
   249
 10
257.145682
 20
196.378784
 30
0.0
 40
2.0
  1
7)
  0
TEXT
  8
0
  6
CONTINUOUS
 62
   249
 10
349.22456
 20
243.341752
 30
0.0
 40
2.5
  1
2I
  0
TEXT
  8
0
  6
CONTINUOUS
 62
   249
 10
349.22456
 20
233.3432
 30
0.0
 40
2.5
  1
2I
  0
LINE
  8
0
  6
CONTINUOUS
 62
   249
 10
350.515452
 20
218.193262
 30
0.0
 11
353.391562
 21
221.021821
 31
0.0
  0
LINE
  8
0
  6
CONTINUOUS
 62
   249
 10
355.914971
 20
220.206143
 30
0.0
 11
355.914971
 21
218.418012
 31
0.0
  0
ARC
  8
0
  6
HIDDEN
 62
   249
 10
354.826175
 20
223.289409
 30
0.0
 40
4.998196
 50
206.402922
 51
282.21115
  0
LINE
  8
0
  6
CONTINUOUS
 62
   249
 10
352.960859
 20
221.559027
 30
0.0
 11
353.861536
 21
220.435278
 31
0.0
  0
LINE
  8
0
  6
CONTINUOUS
 62
   249
 10
348.131307
 20
219.360865
 30
0.0
 11
355.919512
 21
219.360865
 31
0.0
  0
LINE
  8
0
  6
CONTINUOUS
 62
   249
 10
348.100275
 20
220.206143
 30
0.0
 11
348.100275
 21
218.418012
 31
0.0
  0
LINE
  8
0
  6
CONTINUOUS
 62
   249
 10
354.154601
 20
225.816754
 30
0.0
 11
356.500367
 21
224.4814
 31
0.0
  0
LINE
  8
0
  6
CONTINUOUS
 62
   249
 10
356.500367
 20
224.4814
 30
0.0
 11
354.154601
 21
223.291481
 31
0.0
  0
TEXT
  8
0
  6
CONTINUOUS
 62
   249
 10
349.22456
 20
223.325607
 30
0.0
 40
2.5
  1
I
  0
TEXT
  8
0
  6
CONTINUOUS
 62
   249
 10
337.5
 20
210.0
 30
0.0
 40
2.0
  1
OVERCURRENT AND
  0
TEXT
  8
0
  6
CONTINUOUS
 62
   249
 10
337.5
 20
206.666667
 30
0.0
 40
2.0
  1
EARTH-FAULT RELAY/
  0
TEXT
  8
0
  6
CONTINUOUS
 62
   249
 10
337.5
 20
203.333333
 30
0.0
 40
2.0
  1
ÖVERSTRÖMS- OCH
  0
TEXT
  8
0
  6
CONTINUOUS
 62
   249
 10
337.5
 20
200.0
 30
0.0
 40
2.0
  1
JORDFELSRELÄ
  0
TEXT
  8
0
  6
CONTINUOUS
 62
   249
 10
212.524609
 20
28.14713
 30
0.0
 40
2.0
  1
1992-09-26 HJ / RITU
  0
TEXT
  8
0
  6
CONTINUOUS
 62
   249
 10
49.134382
 20
1.218134
 30
0.0
 40
2.0
  1
REDRAWN WITH AUTOCAD 1992-09-26 HJ / RITU
  0
LINE
  8
0
  6
CONTINUOUS
 62
   249
 10
282.5
 20
240.0
 30
0.0
 11
287.5
 21
240.0
 31
0.0
  0
LINE
  8
0
  6
CONTINUOUS
 62
   249
 10
282.5
 20
230.0
 30
0.0
 11
287.5
 21
230.0
 31
0.0
  0
LINE
  8
0
  6
CONTINUOUS
 62
   249
 10
282.5
 20
220.0
 30
0.0
 11
287.5
 21
220.0
 31
0.0
  0
LINE
  8
0
  6
CONTINUOUS
 62
   249
 10
282.5
 20
210.0
 30
0.0
 11
287.5
 21
210.0
 31
0.0
  0
LINE
  8
0
  6
CONTINUOUS
 62
   249
 10
282.5
 20
200.0
 30
0.0
 11
287.5
 21
200.0
 31
0.0
  0
LINE
  8
0
  6
CONTINUOUS
 62
   249
 10
282.5
 20
190.0
 30
0.0
 11
287.5
 21
190.0
 31
0.0
  0
LINE
  8
0
  6
CONTINUOUS
 62
   249
 10
290.0
 20
190.0
 30
0.0
 11
289.0
 21
189.0
 31
0.0
  0
LINE
  8
0
  6
CONTINUOUS
 62
   249
 10
290.0
 20
200.0
 30
0.0
 11
290.0
 21
190.0
 31
0.0
  0
LINE
  8
0
  6
CONTINUOUS
 62
   249
 10
290.0
 20
200.0
 30
0.0
 11
289.0
 21
201.0
 31
0.0
  0
LINE
  8
0
  6
CONTINUOUS
 62
   249
 10
290.0
 20
210.0
 30
0.0
 11
289.0
 21
209.0
 31
0.0
  0
LINE
  8
0
  6
CONTINUOUS
 62
   249
 10
290.0
 20
210.0
 30
0.0
 11
290.0
 21
240.0
 31
0.0
  0
LINE
  8
0
  6
CONTINUOUS
 62
   249
 10
290.0
 20
240.0
 30
0.0
 11
290.0
 21
240.348693
 31
0.0
  0
LINE
  8
0
  6
CONTINUOUS
 62
   249
 10
290.0
 20
240.348693
 30
0.0
 11
289.0
 21
241.348693
 31
0.0
  0
LINE
  8
0
  6
DASHED
 62
   249
 10
290.0
 20
235.0
 30
0.0
 11
302.5
 21
235.0
 31
0.0
  0
LINE
  8
0
  6
DASHED
 62
   249
 10
290.0
 20
195.0
 30
0.0
 11
302.5
 21
195.0
 31
0.0
  0
CIRCLE
  8
0
  6
CONTINUOUS
 62
   249
 10
305.0
 20
195.0
 30
0.0
 40
2.5
  0
CIRCLE
  8
0
  6
CONTINUOUS
 62
   249
 10
305.0
 20
235.0
 30
0.0
 40
2.5
  0
LINE
  8
0
  6
DASHED
 62
   249
 10
305.0
 20
245.0
 30
0.0
 11
305.0
 21
185.0
 31
0.0
  0
TEXT
  8
0
  6
CONTINUOUS
 62
   249
 10
258.173717
 20
182.268022
 30
0.0
 40
2.0
  1
NI
  0
TEXT
  8
0
  6
CONTINUOUS
 62
   249
 10
264.735291
 20
182.129334
 30
0.0
 40
2.0
  1
10B
  0
TEXT
  8
0
  6
CONTINUOUS
 62
   249
 10
264.735291
 20
191.059912
 30
0.0
 40
2.0
  1
9B
  0
CIRCLE
  8
0
  6
CONTINUOUS
 62
   249
 10
273.449551
 20
189.971218
 30
0.0
 40
1.0
  0
LINE
  8
0
 62
   249
 10
272.449552
 20
189.969558
 30
0.0
 11
266.7
 21
186.5
 31
0.0
  0
LINE
  8
0
 62
   249
 10
267.5
 20
185.0
 30
0.0
 11
267.5
 21
187.9
 31
0.0
  0
LINE
  8
0
 62
   249
 10
265.0
 20
185.0
 30
0.0
 11
267.5
 21
185.0
 31
0.0
  0
LINE
  8
0
 62
   249
 10
266.38095
 20
186.944425
 30
0.0
 11
267.060313
 21
186.008681
 31
0.0
  0
CIRCLE
  8
0
  6
CONTINUOUS
 62
   249
 10
273.449551
 20
199.971218
 30
0.0
 40
1.0
  0
LINE
  8
0
 62
   249
 10
267.5
 20
195.0
 30
0.0
 11
267.5
 21
197.9
 31
0.0
  0
LINE
  8
0
 62
   249
 10
272.449552
 20
199.969558
 30
0.0
 11
266.7
 21
196.5
 31
0.0
  0
LINE
  8
0
 62
   249
 10
265.0
 20
195.0
 30
0.0
 11
267.5
 21
195.0
 31
0.0
  0
LINE
  8
0
 62
   249
 10
266.38095
 20
196.944425
 30
0.0
 11
267.060313
 21
196.008681
 31
0.0
  0
LINE
  8
0
 62
   249
 10
265.0
 20
200.0
 30
0.0
 11
267.5
 21
200.0
 31
0.0
  0
LINE
  8
0
 62
   249
 10
262.5
 20
199.99845
 30
0.0
 11
265.0
 21
199.99845
 31
0.0
  0
LINE
  8
0
 62
   249
 10
265.0
 20
189.99845
 30
0.0
 11
262.5
 21
189.99845
 31
0.0
  0
LINE
  8
0
 62
   249
 10
265.0
 20
189.998451
 30
0.0
 11
267.5
 21
189.998451
 31
0.0
  0
LINE
  8
0
 62
   249
 10
262.5
 20
189.99845
 30
0.0
 11
262.5
 21
199.99845
 31
0.0
  0
LINE
  8
0
 62
   249
 10
260.0
 20
195.0
 30
0.0
 11
265.0
 21
195.0
 31
0.0
  0
LINE
  8
0
  6
CONTINUOUS
 62
   249
 10
260.0
 20
195.0
 30
0.0
 11
256.0
 21
195.0
 31
0.0
  0
TEXT
  8
0
  6
CONTINUOUS
 62
   249
 10
258.173717
 20
192.268022
 30
0.0
 40
2.0
  1
NI
  0
LINE
  8
0
  6
CONTINUOUS
 62
   249
 10
256.0
 20
189.5
 30
0.0
 11
255.0
 21
188.5
 31
0.0
  0
LINE
  8
0
  6
CONTINUOUS
 62
   249
 10
256.0
 20
196.5
 30
0.0
 11
256.0
 21
189.5
 31
0.0
  0
LINE
  8
0
  6
CONTINUOUS
 62
   249
 10
256.0
 20
196.5
 30
0.0
 11
255.0
 21
197.5
 31
0.0
  0
TEXT
  8
0
  6
CONTINUOUS
 62
   249
 10
262.887383
 20
244.086709
 30
0.0
 40
2.0
  1
101
  0
TEXT
  8
0
  6
CONTINUOUS
 62
   249
 10
258.173717
 20
222.364177
 30
0.0
 40
2.0
  1
RI
  0
TEXT
  8
0
  6
CONTINUOUS
 62
   249
 10
258.173717
 20
212.255008
 30
0.0
 40
2.0
  1
TI
  0
TEXT
  8
0
  6
CONTINUOUS
 62
   249
 10
258.173717
 20
202.073925
 30
0.0
 40
2.0
  1
TI
  0
TEXT
  8
0
  6
CONTINUOUS
 62
   249
 10
258.173717
 20
232.215999
 30
0.0
 40
2.0
  1
RI
  0
LINE
  8
0
  6
CONTINUOUS
 62
   249
 10
256.0
 20
216.5
 30
0.0
 11
255.0
 21
217.5
 31
0.0
  0
LINE
  8
0
  6
CONTINUOUS
 62
   249
 10
256.0
 20
216.5
 30
0.0
 11
256.0
 21
209.5
 31
0.0
  0
LINE
  8
0
  6
CONTINUOUS
 62
   249
 10
256.0
 20
209.5
 30
0.0
 11
255.0
 21
208.5
 31
0.0
  0
TEXT
  8
0
  6
DASHED
 62
   249
 10
264.717817
 20
201.886254
 30
0.0
 40
2.0
  1
8B
 11
264.717817
 21
201.219587
 31
0.0
 73
     1
  0
TEXT
  8
0
  6
DASHED
 62
   249
 10
264.538363
 20
211.908775
 30
0.0
 40
2.0
  1
7B
 11
264.538363
 21
211.242108
 31
0.0
 73
     1
  0
TEXT
  8
0
  6
DASHED
 62
   249
 10
264.538363
 20
221.785715
 30
0.0
 40
2.0
  1
4B
 11
264.538363
 21
221.119049
 31
0.0
 73
     1
  0
TEXT
  8
0
  6
DASHED
 62
   249
 10
264.538363
 20
231.634942
 30
0.0
 40
2.0
  1
3B
 11
264.538363
 21
230.968275
 31
0.0
 73
     1
  0
LINE
  8
0
  6
CONTINUOUS
 62
   249
 10
260.0
 20
215.0
 30
0.0
 11
256.0
 21
215.0
 31
0.0
  0
LINE
  8
0
  6
CONTINUOUS
 62
   249
 10
256.0
 20
236.5
 30
0.0
 11
255.0
 21
237.5
 31
0.0
  0
LINE
  8
0
  6
CONTINUOUS
 62
   249
 10
256.0
 20
229.5
 30
0.0
 11
255.0
 21
228.5
 31
0.0
  0
LINE
  8
0
  6
CONTINUOUS
 62
   249
 10
256.0
 20
236.5
 30
0.0
 11
256.0
 21
229.5
 31
0.0
  0
LINE
  8
0
 62
   249
 10
266.38095
 20
206.944425
 30
0.0
 11
267.060313
 21
206.008681
 31
0.0
  0
LINE
  8
0
 62
   249
 10
265.0
 20
205.0
 30
0.0
 11
267.5
 21
205.0
 31
0.0
  0
CIRCLE
  8
0
  6
CONTINUOUS
 62
   249
 10
273.449551
 20
209.971218
 30
0.0
 40
1.0
  0
LINE
  8
0
 62
   249
 10
267.5
 20
205.0
 30
0.0
 11
267.5
 21
207.9
 31
0.0
  0
LINE
  8
0
 62
   249
 10
272.449552
 20
209.969558
 30
0.0
 11
266.7
 21
206.5
 31
0.0
  0
CIRCLE
  8
0
  6
CONTINUOUS
 62
   249
 10
273.449551
 20
219.971218
 30
0.0
 40
1.0
  0
LINE
  8
0
 62
   249
 10
265.0
 20
209.998451
 30
0.0
 11
267.5
 21
209.998451
 31
0.0
  0
LINE
  8
0
 62
   249
 10
265.0
 20
209.99845
 30
0.0
 11
262.5
 21
209.99845
 31
0.0
  0
LINE
  8
0
 62
   249
 10
262.5
 20
209.99845
 30
0.0
 11
262.5
 21
219.99845
 31
0.0
  0
LINE
  8
0
 62
   249
 10
272.449552
 20
219.969558
 30
0.0
 11
266.7
 21
216.5
 31
0.0
  0
LINE
  8
0
 62
   249
 10
266.38095
 20
216.944425
 30
0.0
 11
267.060313
 21
216.008681
 31
0.0
  0
LINE
  8
0
 62
   249
 10
267.5
 20
215.0
 30
0.0
 11
267.5
 21
217.9
 31
0.0
  0
LINE
  8
0
 62
   249
 10
265.0
 20
215.0
 30
0.0
 11
267.5
 21
215.0
 31
0.0
  0
LINE
  8
0
 62
   249
 10
260.0
 20
215.0
 30
0.0
 11
265.0
 21
215.0
 31
0.0
  0
LINE
  8
0
 62
   249
 10
262.5
 20
219.99845
 30
0.0
 11
265.0
 21
219.99845
 31
0.0
  0
LINE
  8
0
 62
   249
 10
265.0
 20
220.0
 30
0.0
 11
267.5
 21
220.0
 31
0.0
  0
CIRCLE
  8
0
  6
CONTINUOUS
 62
   249
 10
273.449551
 20
229.971218
 30
0.0
 40
1.0
  0
LINE
  8
0
 62
   249
 10
267.5
 20
225.0
 30
0.0
 11
267.5
 21
227.9
 31
0.0
  0
LINE
  8
0
 62
   249
 10
265.0
 20
225.0
 30
0.0
 11
267.5
 21
225.0
 31
0.0
  0
LINE
  8
0
 62
   249
 10
266.38095
 20
226.944425
 30
0.0
 11
267.060313
 21
226.008681
 31
0.0
  0
LINE
  8
0
 62
   249
 10
272.449552
 20
229.969558
 30
0.0
 11
266.7
 21
226.5
 31
0.0
  0
LINE
  8
0
  6
CONTINUOUS
 62
   249
 10
260.0
 20
235.0
 30
0.0
 11
256.0
 21
235.0
 31
0.0
  0
LINE
  8
0
 62
   249
 10
265.0
 20
230.0
 30
0.0
 11
267.5
 21
230.0
 31
0.0
  0
LINE
  8
0
 62
   249
 10
265.0
 20
229.99845
 30
0.0
 11
262.5
 21
229.99845
 31
0.0
  0
LINE
  8
0
 62
   249
 10
272.449552
 20
239.969558
 30
0.0
 11
266.7
 21
236.5
 31
0.0
  0
LINE
  8
0
 62
   249
 10
266.38095
 20
236.944425
 30
0.0
 11
267.060313
 21
236.008681
 31
0.0
  0
LINE
  8
0
 62
   249
 10
267.5
 20
235.0
 30
0.0
 11
267.5
 21
237.9
 31
0.0
  0
LINE
  8
0
 62
   249
 10
265.0
 20
235.0
 30
0.0
 11
267.5
 21
235.0
 31
0.0
  0
LINE
  8
0
 62
   249
 10
260.0
 20
235.0
 30
0.0
 11
265.0
 21
235.0
 31
0.0
  0
LINE
  8
0
 62
   249
 10
262.5
 20
239.99845
 30
0.0
 11
265.0
 21
239.99845
 31
0.0
  0
LINE
  8
0
 62
   249
 10
265.0
 20
240.0
 30
0.0
 11
267.5
 21
240.0
 31
0.0
  0
LINE
  8
0
 62
   249
 10
262.5
 20
229.99845
 30
0.0
 11
262.5
 21
239.99845
 31
0.0
  0
CIRCLE
  8
0
  6
CONTINUOUS
 62
   249
 10
273.449551
 20
239.971218
 30
0.0
 40
1.0
  0
LINE
  8
0
  6
CONTINUOUS
 62
   249
 10
265.0
 20
185.0
 30
0.0
 11
250.0
 21
185.0
 31
0.0
  0
LINE
  8
0
  6
CONTINUOUS
 62
   249
 10
250.0
 20
190.0
 30
0.0
 11
254.266471
 21
190.0
 31
0.0
  0
LINE
  8
0
  6
CONTINUOUS
 62
   249
 10
250.0
 20
195.0
 30
0.0
 11
254.266471
 21
195.0
 31
0.0
  0
LINE
  8
0
  6
CONTINUOUS
 62
   249
 10
265.0
 20
205.0
 30
0.0
 11
250.0
 21
205.0
 31
0.0
  0
LINE
  8
0
  6
CONTINUOUS
 62
   249
 10
250.0
 20
210.0
 30
0.0
 11
254.266471
 21
210.0
 31
0.0
  0
LINE
  8
0
  6
CONTINUOUS
 62
   249
 10
250.0
 20
215.0
 30
0.0
 11
254.266471
 21
215.0
 31
0.0
  0
LINE
  8
0
  6
CONTINUOUS
 62
   249
 10
250.0
 20
225.0
 30
0.0
 11
265.0
 21
225.0
 31
0.0
  0
LINE
  8
0
  6
CONTINUOUS
 62
   249
 10
250.0
 20
230.0
 30
0.0
 11
254.266471
 21
230.0
 31
0.0
  0
LINE
  8
0
  6
CONTINUOUS
 62
   249
 10
250.0
 20
235.0
 30
0.0
 11
254.266471
 21
235.0
 31
0.0
  0
TEXT
  8
0
  6
DASHED
 62
   249
 10
277.5
 20
237.265533
 30
0.0
 40
2.0
  1
3A
 11
277.5
 21
236.598866
 31
0.0
 73
     1
  0
LINE
  8
0
  6
CONTINUOUS
 62
   249
 10
274.449137
 20
240.0
 30
0.0
 11
282.5
 21
240.0
 31
0.0
  0
LINE
  8
0
  6
CONTINUOUS
 62
   249
 10
274.449137
 20
230.0
 30
0.0
 11
282.5
 21
230.0
 31
0.0
  0
TEXT
  8
0
  6
DASHED
 62
   249
 10
277.5
 20
227.333333
 30
0.0
 40
2.0
  1
4A
 11
277.5
 21
226.666667
 31
0.0
 73
     1
  0
LINE
  8
0
  6
CONTINUOUS
 62
   249
 10
274.449137
 20
220.0
 30
0.0
 11
282.5
 21
220.0
 31
0.0
  0
TEXT
  8
0
  6
DASHED
 62
   249
 10
277.5
 20
217.333333
 30
0.0
 40
2.0
  1
7A
 11
277.5
 21
216.666667
 31
0.0
 73
     1
  0
LINE
  8
0
  6
CONTINUOUS
 62
   249
 10
274.449137
 20
210.0
 30
0.0
 11
282.5
 21
210.0
 31
0.0
  0
TEXT
  8
0
  6
DASHED
 62
   249
 10
277.5
 20
207.045879
 30
0.0
 40
2.0
  1
8A
 11
277.5
 21
206.379213
 31
0.0
 73
     1
  0
LINE
  8
0
  6
CONTINUOUS
 62
   249
 10
274.449137
 20
200.0
 30
0.0
 11
282.5
 21
200.0
 31
0.0
  0
TEXT
  8
0
  6
CONTINUOUS
 62
   249
 10
277.5
 20
197.051395
 30
0.0
 40
2.0
  1
9A
  0
LINE
  8
0
  6
CONTINUOUS
 62
   249
 10
274.449137
 20
190.0
 30
0.0
 11
282.5
 21
190.0
 31
0.0
  0
TEXT
  8
0
  6
CONTINUOUS
 62
   249
 10
277.5
 20
187.25756
 30
0.0
 40
2.0
  1
10A
  0
LINE
  8
0
  6
CONTINUOUS
 62
   249
 10
225.0
 20
100.429605
 30
0.0
 11
225.0
 21
97.5
 31
0.0
  0
LINE
  8
0
  6
CONTINUOUS
 62
   249
 10
220.0
 20
100.429605
 30
0.0
 11
220.0
 21
97.5
 31
0.0
  0
LINE
  8
0
  6
CONTINUOUS
 62
   249
 10
225.0
 20
115.0
 30
0.0
 11
225.0
 21
109.752154
 31
0.0
  0
LINE
  8
0
  6
CONTINUOUS
 62
   249
 10
220.0
 20
115.0
 30
0.0
 11
220.0
 21
109.752154
 31
0.0
  0
LINE
  8
0
 62
   249
 10
222.466311
 20
102.72844
 30
0.0
 11
226.466311
 21
102.72844
 31
0.0
  0
LINE
  8
0
 62
   249
 10
218.709901
 20
107.674464
 30
0.0
 11
222.709901
 21
107.674464
 31
0.0
  0
LINE
  8
0
 62
   249
 10
217.795103
 20
101.386207
 30
0.0
 11
226.158613
 21
109.752154
 31
0.0
  0
LINE
  8
0
 62
   249
 10
218.779395
 20
100.429605
 30
0.0
 11
227.119756
 21
108.767352
 31
0.0
  0
LINE
  8
0
 62
   249
 10
217.795103
 20
100.429605
 30
0.0
 11
217.795103
 21
109.752154
 31
0.0
  0
LINE
  8
0
 62
   249
 10
227.119756
 20
100.429605
 30
0.0
 11
217.795103
 21
100.429605
 31
0.0
  0
LINE
  8
0
 62
   249
 10
227.119756
 20
109.752154
 30
0.0
 11
227.119756
 21
100.429605
 31
0.0
  0
LINE
  8
0
 62
   249
 10
217.795103
 20
109.752154
 30
0.0
 11
227.119756
 21
109.752154
 31
0.0
  0
TEXT
  8
0
  6
CONTINUOUS
 62
   249
 10
219.366734
 20
115.55315
 30
0.0
 40
2.0
  1
+
  0
TEXT
  8
0
  6
CONTINUOUS
 62
   249
 10
224.297086
 20
115.577719
 30
0.0
 40
2.0
  1
-
  0
ARC
  8
0
 62
   249
 10
223.672927
 20
100.936221
 30
0.0
 40
0.869227
 50
32.471192
 51
175.601295
  0
ARC
  8
0
 62
   249
 10
225.139595
 20
101.869554
 30
0.0
 40
0.869227
 50
212.471192
 51
355.601295
  0
LINE
  8
0
  6
CENTER
 62
   249
 10
77.5
 20
242.5
 30
0.0
 11
67.5
 21
242.5
 31
0.0
  0
LINE
  8
0
  6
CONTINUOUS
 62
   249
 10
77.5
 20
142.5
 30
0.0
 11
67.5
 21
142.5
 31
0.0
  0
LINE
  8
0
  6
CONTINUOUS
 62
   249
 10
77.5
 20
132.5
 30
0.0
 11
67.5
 21
132.5
 31
0.0
  0
LINE
  8
0
  6
CONTINUOUS
 62
   249
 10
77.5
 20
122.5
 30
0.0
 11
67.5
 21
122.5
 31
0.0
  0
LINE
  8
0
  6
CONTINUOUS
 62
   249
 10
77.5
 20
112.5
 30
0.0
 11
67.5
 21
112.5
 31
0.0
  0
LINE
  8
0
  6
CONTINUOUS
 62
   249
 10
77.5
 20
102.5
 30
0.0
 11
67.5
 21
102.5
 31
0.0
  0
LINE
  8
0
  6
CONTINUOUS
 62
   249
 10
77.5
 20
92.5
 30
0.0
 11
67.5
 21
92.5
 31
0.0
  0
LINE
  8
0
  6
CONTINUOUS
 62
   249
 10
77.5
 20
87.5
 30
0.0
 11
67.5
 21
87.5
 31
0.0
  0
LINE
  8
0
  6
CENTER
 62
   249
 10
77.5
 20
80.0
 30
0.0
 11
250.0
 21
80.0
 31
0.0
  0
TEXT
  8
0
  6
CONTINUOUS
 62
   249
 10
178.519596
 20
64.287845
 30
0.0
 40
2.0
  1
101
 50
90.0
  0
TEXT
  8
0
  6
CONTINUOUS
 62
   249
 10
213.210796
 20
55.930264
 30
0.0
 40
2.0
  1
18A
 50
90.0
  0
TEXT
  8
0
  6
CONTINUOUS
 62
   249
 10
208.042942
 20
55.930264
 30
0.0
 40
2.0
  1
1A
 50
90.0
  0
TEXT
  8
0
  6
CONTINUOUS
 62
   249
 10
198.078553
 20
55.930264
 30
0.0
 40
2.0
  1
2A
 50
90.0
  0
TEXT
  8
0
  6
CONTINUOUS
 62
   249
 10
193.282346
 20
55.930264
 30
0.0
 40
2.0
  1
13A
 50
90.0
  0
LINE
  8
0
  6
CONTINUOUS
 62
   249
 10
210.0
 20
62.5
 30
0.0
 11
210.0
 21
55.0
 31
0.0
  0
LINE
  8
0
  6
CONTINUOUS
 62
   249
 10
210.0
 20
75.0
 30
0.0
 11
210.0
 21
70.0
 31
0.0
  0
LINE
  8
0
  6
CONTINUOUS
 62
   249
 10
196.365905
 20
75.813541
 30
0.0
 11
196.365905
 21
77.500506
 31
0.0
  0
LINE
  8
0
  6
CONTINUOUS
 62
   249
 10
196.365905
 20
77.500506
 30
0.0
 11
198.033279
 21
77.500506
 31
0.0
  0
LINE
  8
0
  6
CONTINUOUS
 62
   249
 10
198.033279
 20
77.500506
 30
0.0
 11
198.033279
 21
75.813541
 31
0.0
  0
LINE
  8
0
  6
CONTINUOUS
 62
   249
 10
198.033279
 20
75.813541
 30
0.0
 11
196.365905
 21
75.813541
 31
0.0
  0
LINE
  8
0
  6
CONTINUOUS
 62
   249
 10
193.117997
 20
77.344644
 30
0.0
 11
191.450624
 21
77.344644
 31
0.0
  0
LINE
  8
0
  6
CONTINUOUS
 62
   249
 10
193.117997
 20
79.031609
 30
0.0
 11
193.117997
 21
77.344644
 31
0.0
  0
LINE
  8
0
  6
CONTINUOUS
 62
   249
 10
191.450624
 20
79.031609
 30
0.0
 11
193.117997
 21
79.031609
 31
0.0
  0
LINE
  8
0
  6
CONTINUOUS
 62
   249
 10
191.450624
 20
77.344644
 30
0.0
 11
191.450624
 21
79.031609
 31
0.0
  0
TEXT
  8
0
  6
DASHED
 62
   249
 10
213.218527
 20
71.84782
 30
0.0
 40
2.0
  1
18B-
 50
90.0
  0
TEXT
  8
0
  6
DASHED
 62
   249
 10
208.045377
 20
71.84782
 30
0.0
 40
2.0
  1
1B+
 50
90.0
  0
TEXT
  8
0
  6
DASHED
 62
   249
 10
198.214777
 20
71.84782
 30
0.0
 40
2.0
  1
2B
 50
90.0
  0
TEXT
  8
0
  6
DASHED
 62
   249
 10
193.278311
 20
71.84782
 30
0.0
 40
2.0
  1
13B
 50
90.0
  0
LINE
  8
0
  6
DASHED
 62
   249
 10
180.0
 20
80.0
 30
0.0
 11
180.0
 21
55.0
 31
0.0
  0
LINE
  8
0
  6
CONTINUOUS
 62
   249
 10
185.0
 20
75.0
 30
0.0
 11
190.0
 21
75.0
 31
0.0
  0
LINE
  8
0
  6
CONTINUOUS
 62
   249
 10
185.0
 20
80.0
 30
0.0
 11
185.0
 21
75.0
 31
0.0
  0
LINE
  8
0
  6
CONTINUOUS
 62
   249
 10
205.0
 20
80.0
 30
0.0
 11
205.0
 21
70.0
 31
0.0
  0
CIRCLE
  8
0
  6
CONTINUOUS
 62
   249
 10
205.0
 20
63.241055
 30
0.0
 40
0.740939
  0
LINE
  8
0
  6
CONTINUOUS
 62
   249
 10
205.0
 20
62.5
 30
0.0
 11
205.0
 21
55.0
 31
0.0
  0
LINE
  8
0
  6
CONTINUOUS
 62
   249
 10
190.0
 20
62.5
 30
0.0
 11
190.0
 21
55.0
 31
0.0
  0
CIRCLE
  8
0
  6
CONTINUOUS
 62
   249
 10
190.0
 20
63.241055
 30
0.0
 40
0.740939
  0
LINE
  8
0
  6
CONTINUOUS
 62
   249
 10
189.993411
 20
63.981965
 30
0.0
 11
192.434804
 21
70.662841
 31
0.0
  0
LINE
  8
0
  6
CONTINUOUS
 62
   249
 10
190.0
 20
70.0
 30
0.0
 11
192.765661
 21
70.0
 31
0.0
  0
LINE
  8
0
  6
CONTINUOUS
 62
   249
 10
192.434804
 20
70.662841
 30
0.0
 11
191.549106
 21
71.107734
 31
0.0
  0
LINE
  8
0
  6
CONTINUOUS
 62
   249
 10
190.0
 20
80.0
 30
0.0
 11
190.0
 21
70.0
 31
0.0
  0
LINE
  8
0
  6
CONTINUOUS
 62
   249
 10
195.0
 20
62.5
 30
0.0
 11
195.0
 21
55.0
 31
0.0
  0
CIRCLE
  8
0
  6
CONTINUOUS
 62
   249
 10
195.0
 20
63.241055
 30
0.0
 40
0.740939
  0
LINE
  8
0
  6
CONTINUOUS
 62
   249
 10
195.0
 20
80.0
 30
0.0
 11
195.0
 21
70.0
 31
0.0
  0
LINE
  8
0
  6
CONTINUOUS
 62
   249
 10
194.993411
 20
63.981965
 30
0.0
 11
197.434804
 21
70.662841
 31
0.0
  0
LINE
  8
0
  6
CONTINUOUS
 62
   249
 10
195.0
 20
70.0
 30
0.0
 11
197.765661
 21
70.0
 31
0.0
  0
LINE
  8
0
  6
CONTINUOUS
 62
   249
 10
207.434804
 20
70.662841
 30
0.0
 11
206.549106
 21
71.107734
 31
0.0
  0
LINE
  8
0
  6
CONTINUOUS
 62
   249
 10
205.0
 20
70.0
 30
0.0
 11
207.765661
 21
70.0
 31
0.0
  0
LINE
  8
0
  6
CONTINUOUS
 62
   249
 10
204.993411
 20
63.981965
 30
0.0
 11
207.434804
 21
70.662841
 31
0.0
  0
LINE
  8
0
  6
CONTINUOUS
 62
   249
 10
209.993411
 20
63.981965
 30
0.0
 11
212.434804
 21
70.662841
 31
0.0
  0
LINE
  8
0
  6
CONTINUOUS
 62
   249
 10
210.0
 20
70.0
 30
0.0
 11
212.765661
 21
70.0
 31
0.0
  0
LINE
  8
0
  6
CONTINUOUS
 62
   249
 10
212.434804
 20
70.662841
 30
0.0
 11
211.549106
 21
71.107734
 31
0.0
  0
CIRCLE
  8
0
  6
CONTINUOUS
 62
   249
 10
210.0
 20
63.241055
 30
0.0
 40
0.740939
  0
LINE
  8
0
  6
CONTINUOUS
 62
   249
 10
200.0
 20
80.0
 30
0.0
 11
200.0
 21
75.0
 31
0.0
  0
LINE
  8
0
  6
CONTINUOUS
 62
   249
 10
200.0
 20
75.0
 30
0.0
 11
205.0
 21
75.0
 31
0.0
  0
LINE
  8
0
  6
DASHED
 62
   249
 10
220.0
 20
80.0
 30
0.0
 11
220.0
 21
55.0
 31
0.0
  0
LINE
  8
0
  6
DASHED
 62
   249
 10
225.0
 20
80.0
 30
0.0
 11
225.0
 21
55.0
 31
0.0
  0
LINE
  8
0
  6
DASHED
 62
   249
 10
237.5
 20
80.0
 30
0.0
 11
237.5
 21
55.0
 31
0.0
  0
CIRCLE
  8
0
  6
CONTINUOUS
 62
   249
 10
65.148982
 20
140.029092
 30
0.0
 40
0.584064
  0
CIRCLE
  8
0
  6
CONTINUOUS
 62
   249
 10
65.148982
 20
140.029092
 30
0.0
 40
1.252595
  0
LINE
  8
0
  6
CONTINUOUS
 62
   249
 10
57.499883
 20
142.500025
 30
0.0
 11
67.511081
 21
142.500025
 31
0.0
  0
LINE
  8
0
  6
CONTINUOUS
 62
   249
 10
40.0
 20
142.491507
 30
0.0
 11
50.0
 21
142.491507
 31
0.0
  0
LINE
  8
0
  6
CONTINUOUS
 62
   249
 10
56.018035
 20
142.493411
 30
0.0
 11
49.337159
 21
144.934804
 31
0.0
  0
LINE
  8
0
  6
CONTINUOUS
 62
   249
 10
50.0
 20
142.491507
 30
0.0
 11
50.0
 21
145.265661
 31
0.0
  0
CIRCLE
  8
0
  6
CONTINUOUS
 62
   249
 10
56.758945
 20
142.5
 30
0.0
 40
0.740939
  0
LINE
  8
0
  6
CONTINUOUS
 62
   249
 10
57.499883
 20
132.500025
 30
0.0
 11
67.511081
 21
132.500025
 31
0.0
  0
LINE
  8
0
  6
CONTINUOUS
 62
   249
 10
40.0
 20
132.491507
 30
0.0
 11
50.0
 21
132.491507
 31
0.0
  0
LINE
  8
0
  6
CONTINUOUS
 62
   249
 10
56.018035
 20
132.493411
 30
0.0
 11
49.337159
 21
134.934804
 31
0.0
  0
LINE
  8
0
  6
CONTINUOUS
 62
   249
 10
50.0
 20
132.491507
 30
0.0
 11
50.0
 21
135.265661
 31
0.0
  0
CIRCLE
  8
0
  6
CONTINUOUS
 62
   249
 10
56.758945
 20
132.5
 30
0.0
 40
0.740939
  0
TEXT
  8
0
  6
CONTINUOUS
 62
   249
 10
43.23275
 20
139.009866
 30
0.0
 40
2.0
  1
17A
  0
TEXT
  8
0
  6
CONTINUOUS
 62
   249
 10
43.23275
 20
128.957289
 30
0.0
 40
2.0
  1
16A
  0
TEXT
  8
0
  6
CONTINUOUS
 62
   249
 10
58.004787
 20
139.018536
 30
0.0
 40
2.0
  1
17B
  0
TEXT
  8
0
  6
CONTINUOUS
 62
   249
 10
58.004787
 20
128.965959
 30
0.0
 40
2.0
  1
16B
  0
LINE
  8
0
  6
DASHED
 62
   249
 10
67.5
 20
122.5
 30
0.0
 11
40.0
 21
122.5
 31
0.0
  0
LINE
  8
0
  6
DASHED
 62
   249
 10
67.5
 20
112.5
 30
0.0
 11
40.0
 21
112.5
 31
0.0
  0
LINE
  8
0
  6
DASHED
 62
   249
 10
67.5
 20
102.5
 30
0.0
 11
40.0
 21
102.5
 31
0.0
  0
LINE
  8
0
  6
DASHED
 62
   249
 10
67.5
 20
87.5
 30
0.0
 11
40.0
 21
87.5
 31
0.0
  0
TEXT
  8
0
  6
DASHED
 62
   249
 10
70.0
 20
98.890241
 30
0.0
 40
2.0
  1
74
  0
LINE
  8
0
  6
CENTER
 62
   249
 10
282.5
 20
250.0
 30
0.0
 11
282.5
 21
55.0
 31
0.0
  0
LINE
  8
0
  6
CENTER
 62
   249
 10
282.5
 20
55.0
 30
0.0
 11
40.0
 21
55.0
 31
0.0
  0
LINE
  8
0
  6
CENTER
 62
   249
 10
40.0
 20
55.0
 30
0.0
 11
40.0
 21
250.0
 31
0.0
  0
LINE
  8
0
  6
CENTER
 62
   249
 10
40.0
 20
250.0
 30
0.0
 11
282.5
 21
250.0
 31
0.0
  0
TEXT
  8
0
  6
CENTER
 62
   249
 10
70.0
 20
243.465411
 30
0.0
 40
2.0
  1
108
  0
TEXT
  8
0
  6
CENTER
 62
   249
 10
42.5
 20
251.008761
 30
0.0
 40
2.0
  1
101
  0
LINE
  8
0
  6
DASHED
 62
   249
 10
287.5
 20
155.0
 30
0.0
 11
282.5
 21
155.0
 31
0.0
  0
TEXT
  8
0
  6
DASHED
 62
   249
 10
364.711341
 20
179.640379
 30
0.0
 40
2.0
  1
4S
  0
TEXT
  8
0
  6
DASHED
 62
   249
 10
352.117517
 20
187.992725
 30
0.0
 40
2.0
  1
30C
  0
TEXT
  8
0
  6
DASHED
 62
   249
 10
352.663221
 20
183.608881
 30
0.0
 40
2.0
  1
108
  0
TEXT
  8
0
  6
DASHED
 62
   249
 10
343.864387
 20
183.624581
 30
0.0
 40
2.0
  1
101  
  0
LINE
  8
0
  6
CONTINUOUS
 62
   249
 10
342.874793
 20
186.818353
 30
0.0
 11
363.553957
 21
186.818353
 31
0.0
  0
LINE
  8
0
  6
CONTINUOUS
 62
   249
 10
363.553957
 20
186.818353
 30
0.0
 11
363.553957
 21
172.672845
 31
0.0
  0
LINE
  8
0
  6
CONTINUOUS
 62
   249
 10
363.553957
 20
172.672845
 30
0.0
 11
342.874793
 21
172.672845
 31
0.0
  0
LINE
  8
0
  6
CONTINUOUS
 62
   249
 10
342.874793
 20
172.672845
 30
0.0
 11
342.874793
 21
186.818353
 31
0.0
  0
LINE
  8
0
  6
CONTINUOUS
 62
   249
 10
349.402051
 20
186.818353
 30
0.0
 11
349.402051
 21
172.672845
 31
0.0
  0
LINE
  8
0
  6
CONTINUOUS
 62
   249
 10
351.216235
 20
186.818353
 30
0.0
 11
351.216235
 21
172.672845
 31
0.0
  0
TEXT
  8
0
  6
DASHED
 62
   249
 10
342.5
 20
168.871398
 30
0.0
 40
2.0
  1
101 RTXP 18
  0
TEXT
  8
0
  6
DASHED
 62
   249
 10
342.5
 20
165.538065
 30
0.0
 40
2.0
  1
RK 926 115-AD
  0
TEXT
  8
0
  6
DASHED
 62
   249
 10
342.5
 20
162.204731
 30
0.0
 40
2.0
  1
108 SPAJ 135 C
  0
TEXT
  8
0
 62
   249
 10
374.00882
 20
59.438113
 30
0.0
 40
2.0
  1
In=5A
 11
374.00882
 21
58.771446
 31
0.0
 73
     1
  0
TEXT
  8
0
 62
   249
 10
358.00882
 20
59.438113
 30
0.0
 40
2.0
  1
In=1A 
 11
358.00882
 21
58.771446
 31
0.0
 73
     1
  0
TEXT
  8
0
 62
   249
 10
368.00882
 20
64.838465
 30
0.0
 40
2.0
  1
108:
 11
368.00882
 21
64.171798
 31
0.0
 73
     1
  0
TEXT
  8
0
 62
   249
 10
348.00882
 20
64.838465
 30
0.0
 40
2.0
  1
101:       
 11
348.00882
 21
64.171798
 31
0.0
 73
     1
  0
TEXT
  8
0
 62
   249
 10
348.00882
 20
70.838465
 30
0.0
 40
2.0
  1
TERMINALS / UTTAG
 11
348.00882
 21
70.171798
 31
0.0
 73
     1
  0
LINE
  8
0
 62
   249
 10
342.00882
 20
58.171798
 30
0.0
 11
386.00882
 21
58.171798
 31
0.0
  0
LINE
  8
0
 62
   249
 10
370.00882
 20
64.171798
 30
0.0
 11
370.00882
 21
46.171798
 31
0.0
  0
LINE
  8
0
 62
   249
 10
356.00882
 20
64.171798
 30
0.0
 11
386.00882
 21
64.171798
 31
0.0
  0
LINE
  8
0
 62
   249
 10
356.00882
 20
70.171798
 30
0.0
 11
356.00882
 21
46.171798
 31
0.0
  0
LINE
  8
0
 62
   249
 10
342.00882
 20
70.171798
 30
0.0
 11
386.00882
 21
70.171798
 31
0.0
  0
LINE
  8
0
 62
   249
 10
386.00882
 20
46.171798
 30
0.0
 11
386.00882
 21
76.171798
 31
0.0
  0
LINE
  8
0
 62
   249
 10
342.00882
 20
46.171798
 30
0.0
 11
386.00882
 21
46.171798
 31
0.0
  0
LINE
  8
0
 62
   249
 10
342.00882
 20
76.171798
 30
0.0
 11
342.00882
 21
46.171798
 31
0.0
  0
LINE
  8
0
 62
   249
 10
386.00882
 20
76.171798
 30
0.0
 11
342.00882
 21
76.171798
 31
0.0
  0
TEXT
  8
0
  6
DASHED
 62
   249
 10
325.0
 20
27.5
 30
0.0
 40
2.0
  1
CIRCUIT DIAGRAM / KRETSSCHEMA
  0
TEXT
  8
0
  6
DASHED
 62
   249
 10
325.0
 20
24.166667
 30
0.0
 40
2.0
  1
SPAJ 135 C WITH TEST SWITCH
  0
TEXT
  8
0
  6
DASHED
 62
   249
 10
325.0
 20
20.833333
 30
0.0
 40
2.0
  1
SPAJ 135 C MED PROVDON
  0
TEXT
  8
0
  6
DASHED
 62
   249
 10
325.0
 20
2.5
 30
0.0
 40
2.5
  1
RS 10164-AA
  0
TEXT
  8
0
  6
DASHED
 62
   249
 10
347.5
 20
55.0
 30
0.0
 40
2.0
  1
3B
  0
TEXT
  8
0
  6
DASHED
 62
   249
 10
347.5
 20
51.666667
 30
0.0
 40
2.0
  1
7B
  0
TEXT
  8
0
  6
DASHED
 62
   249
 10
347.5
 20
48.333333
 30
0.0
 40
2.0
  1
9B
  0
TEXT
  8
0
  6
DASHED
 62
   249
 10
361.755209
 20
55.0
 30
0.0
 40
2.0
  1
3
  0
TEXT
  8
0
  6
DASHED
 62
   249
 10
361.755209
 20
51.666667
 30
0.0
 40
2.0
  1
9
  0
TEXT
  8
0
  6
DASHED
 62
   249
 10
361.755209
 20
48.333333
 30
0.0
 40
2.0
  1
27
  0
TEXT
  8
0
  6
DASHED
 62
   249
 10
376.755209
 20
55.0
 30
0.0
 40
2.0
  1
2
  0
TEXT
  8
0
  6
DASHED
 62
   249
 10
376.755209
 20
51.666667
 30
0.0
 40
2.0
  1
8
  0
TEXT
  8
0
  6
DASHED
 62
   249
 10
376.755209
 20
48.333333
 30
0.0
 40
2.0
  1
26
  0
TEXT
  8
0
  6
DASHED
 62
   249
 10
380.0
 20
2.5
 30
0.0
 40
2.5
  1
B
  0
CIRCLE
  8
0
  6
CONTINUOUS
 62
   249
 10
65.148982
 20
130.0
 30
0.0
 40
1.252595
  0
CIRCLE
  8
0
  6
CONTINUOUS
 62
   249
 10
65.148982
 20
130.0
 30
0.0
 40
0.584064
  0
TEXT
  8
0
  6
DASHED
 62
   249
 10
292.217194
 20
11.813359
 30
0.0
 40
3.0
  1
A3
  7
GREEKS
  0
TEXT
  8
0
  6
DASHED
 62
   249
 10
351.818577
 20
15.69253
 30
0.0
 40
1.4
  1
LEHTI SHEET
  7
GREEKS
  0
LINE
  8
0
 62
   249
 10
0.237099
 20
262.737999
 30
0.0
 11
392.237099
 21
262.737999
 31
0.0
  0
LINE
  8
0
 62
   249
 10
18.237099
 20
0.237999
 30
0.0
 11
0.237099
 21
0.237999
 31
0.0
  0
LINE
  8
0
 62
   249
 10
209.237099
 20
0.237999
 30
0.0
 11
392.237099
 21
0.237999
 31
0.0
  0
LINE
  8
0
 62
   249
 10
209.237099
 20
0.237999
 30
0.0
 11
209.237099
 21
35.237999
 31
0.0
  0
LINE
  8
0
 62
   249
 10
392.237099
 20
0.237999
 30
0.0
 11
392.237099
 21
35.237999
 31
0.0
  0
LINE
  8
0
 62
   249
 10
209.237099
 20
18.237999
 30
0.0
 11
392.237099
 21
18.237999
 31
0.0
  0
LINE
  8
0
 62
   249
 10
209.237099
 20
9.737999
 30
0.0
 11
392.237099
 21
9.737999
 31
0.0
  0
LINE
  8
0
 62
   249
 10
209.237099
 20
26.737999
 30
0.0
 11
307.237099
 21
26.737999
 31
0.0
  0
LINE
  8
0
 62
   249
 10
209.237099
 20
35.237999
 30
0.0
 11
392.237099
 21
35.237999
 31
0.0
  0
TEXT
  8
0
 62
   249
 10
210.237099
 20
23.971333
 30
0.0
 40
1.4
  1
TARKASTI  CHECKED
  7
ROMANS
  0
TEXT
  8
0
 62
   249
 10
209.979934
 20
15.704666
 30
0.0
 40
1.4
  1
HYVÄKSYI  APPROVED
  7
ROMANS
  0
LINE
  8
0
 62
   249
 10
307.237099
 20
0.237999
 30
0.0
 11
307.237099
 21
35.237999
 31
0.0
  0
TEXT
  8
0
 62
   249
 10
259.237099
 20
32.737999
 30
0.0
 40
1.4
  1
LIITTYY  CONCERNING
  7
ROMANS
  0
TEXT
  8
0
 62
   249
 10
259.237099
 20
23.737999
 30
0.0
 40
1.4
  1
TOLERANSSIT  TOLERANCES
  7
ROMANS
  0
TEXT
  8
0
 62
   249
 10
259.237099
 20
15.737999
 30
0.0
 40
1.4
  1
SUHDE  SCALE
  7
ROMANS
  0
TEXT
  8
0
 62
   249
 10
309.237099
 20
32.737999
 30
0.0
 40
1.4
  1
NIMITYS  NAME
  7
ROMANS
  0
TEXT
  8
0
 62
   249
 10
309.237099
 20
15.737999
 30
0.0
 40
1.4
  1
KOODI  CODE
  7
ROMANS
  0
TEXT
  8
0
 62
   249
 10
309.237099
 20
7.237999
 30
0.0
 40
1.4
  1
PIIRUSTUS NO  DRAWING NR
  7
ROMANS
  0
LINE
  8
0
 62
   249
 10
349.737099
 20
9.737999
 30
0.0
 11
349.737099
 21
18.237999
 31
0.0
  0
TEXT
  8
0
 62
   249
 10
371.237099
 20
7.237999
 30
0.0
 40
1.4
  1
PAINOS  REVISION
  7
ROMANS
  0
LINE
  8
0
 62
   249
 10
369.737099
 20
9.737999
 30
0.0
 11
369.737099
 21
0.237999
 31
0.0
  0
LINE
  8
0
 62
   249
 10
210.187099
 20
1.737999
 30
0.0
 11
211.937099
 21
1.737999
 31
0.0
  0
LINE
  8
0
 62
   249
 10
215.437099
 20
1.737999
 30
0.0
 11
217.187099
 21
1.737999
 31
0.0
  0
LINE
  8
0
 62
   249
 10
212.637099
 20
8.737999
 30
0.0
 11
211.459571
 21
5.373634
 31
0.0
  0
LINE
  8
0
 62
   249
 10
212.425886
 20
3.137999
 30
0.0
 11
213.547099
 21
3.137999
 31
0.0
  0
LINE
  8
0
 62
   249
 10
212.425889
 20
3.134542
 30
0.0
 11
211.937099
 21
1.737999
 31
0.0
  0
LINE
  8
0
 62
   249
 10
214.737099
 20
8.737999
 30
0.0
 11
215.913452
 21
5.376991
 31
0.0
  0
LINE
  8
0
 62
   249
 10
214.948197
 20
3.134863
 30
0.0
 11
215.437099
 21
1.737999
 31
0.0
  0
LINE
  8
0
 62
   249
 10
214.737099
 20
8.737999
 30
0.0
 11
213.827099
 21
8.737999
 31
0.0
  0
LINE
  8
0
 62
   249
 10
213.547099
 20
8.737999
 30
0.0
 11
213.547099
 21
5.377999
 31
0.0
  0
LINE
  8
0
 62
   249
 10
213.827099
 20
8.737999
 30
0.0
 11
213.827099
 21
5.377999
 31
0.0
  0
LINE
  8
0
 62
   249
 10
213.827099
 20
3.137999
 30
0.0
 11
214.946992
 21
3.137999
 31
0.0
  0
LINE
  8
0
 62
   249
 10
213.547099
 20
8.737999
 30
0.0
 11
212.637099
 21
8.737999
 31
0.0
  0
LINE
  8
0
 62
   249
 10
211.45904
 20
5.377999
 30
0.0
 11
213.547099
 21
5.377999
 31
0.0
  0
LINE
  8
0
 62
   249
 10
211.360082
 20
5.097999
 30
0.0
 11
213.547099
 21
5.097999
 31
0.0
  0
LINE
  8
0
 62
   249
 10
216.011591
 20
5.096594
 30
0.0
 11
217.187099
 21
1.737999
 31
0.0
  0
LINE
  8
0
 62
   249
 10
213.827099
 20
5.377999
 30
0.0
 11
215.912213
 21
5.377999
 31
0.0
  0
LINE
  8
0
 62
   249
 10
213.827099
 20
5.097999
 30
0.0
 11
216.010356
 21
5.097999
 31
0.0
  0
LINE
  8
0
 62
   249
 10
213.827099
 20
5.097999
 30
0.0
 11
213.827099
 21
3.137999
 31
0.0
  0
LINE
  8
0
 62
   249
 10
213.547099
 20
5.097999
 30
0.0
 11
213.547099
 21
3.137999
 31
0.0
  0
LINE
  8
0
 62
   249
 10
211.356988
 20
5.080538
 30
0.0
 11
210.187099
 21
1.737999
 31
0.0
  0
INSERT
  8
0
 62
   249
  2
*X56
 10
210.187099
 20
1.737999
 30
0.0
 41
0.7
 42
0.7
 43
0.7
  0
INSERT
  8
0
 62
   249
  2
*X57
 10
210.187099
 20
1.737999
 30
0.0
 41
0.7
 42
0.7
 43
0.7
  0
INSERT
  8
0
 62
   249
  2
*X58
 10
210.187099
 20
1.737999
 30
0.0
 41
0.7
 42
0.7
 43
0.7
  0
INSERT
  8
0
 62
   249
  2
*X59
 10
210.187099
 20
1.737999
 30
0.0
 41
0.7
 42
0.7
 43
0.7
  0
LINE
  8
0
 62
   249
 10
217.677099
 20
1.737999
 30
0.0
 11
217.677099
 21
5.097999
 31
0.0
  0
LINE
  8
0
 62
   249
 10
217.677099
 20
8.737999
 30
0.0
 11
219.637099
 21
8.737999
 31
0.0
  0
LINE
  8
0
 62
   249
 10
219.637099
 20
8.737999
 30
0.0
 11
219.637099
 21
5.377999
 31
0.0
  0
LINE
  8
0
 62
   249
 10
219.637099
 20
5.377999
 30
0.0
 11
217.677099
 21
5.377999
 31
0.0
  0
LINE
  8
0
 62
   249
 10
217.677099
 20
5.097999
 30
0.0
 11
219.637099
 21
5.097999
 31
0.0
  0
LINE
  8
0
 62
   249
 10
219.637099
 20
5.097999
 30
0.0
 11
219.637099
 21
1.737999
 31
0.0
  0
LINE
  8
0
 62
   249
 10
219.637099
 20
1.737999
 30
0.0
 11
217.677099
 21
1.737999
 31
0.0
  0
LINE
  8
0
 62
   249
 10
217.677099
 20
5.377999
 30
0.0
 11
217.677099
 21
8.737999
 31
0.0
  0
ARC
  8
0
 62
   249
 10
220.477099
 20
7.162999
 30
0.0
 40
1.575
 50
298.455859
 51
90.052437
  0
LINE
  8
0
 62
   249
 10
219.917099
 20
8.737999
 30
0.0
 11
220.475658
 21
8.737999
 31
0.0
  0
LINE
  8
0
 62
   249
 10
219.917099
 20
8.737999
 30
0.0
 11
219.917099
 21
5.377999
 31
0.0
  0
LINE
  8
0
 62
   249
 10
219.917099
 20
5.377999
 30
0.0
 11
221.901542
 21
5.377999
 31
0.0
  0
LINE
  8
0
 62
   249
 10
222.157099
 20
5.097999
 30
0.0
 11
219.917099
 21
5.097999
 31
0.0
  0
LINE
  8
0
 62
   249
 10
219.917099
 20
5.097999
 30
0.0
 11
219.917099
 21
1.737999
 31
0.0
  0
ARC
  8
0
 62
   249
 10
220.477099
 20
3.837999
 30
0.0
 40
2.1
 50
269.937724
 51
37.056553
  0
LINE
  8
0
 62
   249
 10
219.917099
 20
1.737999
 30
0.0
 11
220.474817
 21
1.738
 31
0.0
  0
ARC
  8
0
 62
   249
 10
220.477099
 20
3.837999
 30
0.0
 40
2.1
 50
47.28622
 51
68.787999
  0
INSERT
  8
0
 62
   249
  2
*X60
 10
210.187099
 20
1.737999
 30
0.0
 41
0.7
 42
0.7
 43
0.7
  0
INSERT
  8
0
 62
   249
  2
*X61
 10
210.187099
 20
1.737999
 30
0.0
 41
0.7
 42
0.7
 43
0.7
  0
INSERT
  8
0
 62
   249
  2
*X62
 10
210.187099
 20
1.737999
 30
0.0
 41
0.7
 42
0.7
 43
0.7
  0
INSERT
  8
0
 62
   249
  2
*X63
 10
210.187099
 20
1.737999
 30
0.0
 41
0.7
 42
0.7
 43
0.7
  0
INSERT
  8
0
 62
   249
  2
*X63
 10
215.647099
 20
1.737999
 30
0.0
 41
0.7
 42
0.7
 43
0.7
  0
INSERT
  8
0
 62
   249
  2
*X62
 10
215.647099
 20
1.737999
 30
0.0
 41
0.7
 42
0.7
 43
0.7
  0
INSERT
  8
0
 62
   249
  2
*X61
 10
215.647099
 20
1.737999
 30
0.0
 41
0.7
 42
0.7
 43
0.7
  0
INSERT
  8
0
 62
   249
  2
*X60
 10
215.647099
 20
1.737999
 30
0.0
 41
0.7
 42
0.7
 43
0.7
  0
ARC
  8
0
 62
   249
 10
225.937099
 20
3.837999
 30
0.0
 40
2.1
 50
47.28622
 51
68.787999
  0
LINE
  8
0
 62
   249
 10
225.377099
 20
1.737999
 30
0.0
 11
225.934817
 21
1.738
 31
0.0
  0
ARC
  8
0
 62
   249
 10
225.937099
 20
3.837999
 30
0.0
 40
2.1
 50
269.937724
 51
37.056553
  0
LINE
  8
0
 62
   249
 10
225.377099
 20
5.097999
 30
0.0
 11
225.377099
 21
1.737999
 31
0.0
  0
LINE
  8
0
 62
   249
 10
227.617099
 20
5.097999
 30
0.0
 11
225.377099
 21
5.097999
 31
0.0
  0
LINE
  8
0
 62
   249
 10
225.377099
 20
5.377999
 30
0.0
 11
227.361542
 21
5.377999
 31
0.0
  0
LINE
  8
0
 62
   249
 10
225.377099
 20
8.737999
 30
0.0
 11
225.377099
 21
5.377999
 31
0.0
  0
LINE
  8
0
 62
   249
 10
225.377099
 20
8.737999
 30
0.0
 11
225.935658
 21
8.737999
 31
0.0
  0
ARC
  8
0
 62
   249
 10
225.937099
 20
7.162999
 30
0.0
 40
1.575
 50
298.455859
 51
90.052437
  0
LINE
  8
0
 62
   249
 10
223.137099
 20
5.377999
 30
0.0
 11
223.137099
 21
8.737999
 31
0.0
  0
LINE
  8
0
 62
   249
 10
225.097099
 20
1.737999
 30
0.0
 11
223.137099
 21
1.737999
 31
0.0
  0
LINE
  8
0
 62
   249
 10
225.097099
 20
5.097999
 30
0.0
 11
225.097099
 21
1.737999
 31
0.0
  0
LINE
  8
0
 62
   249
 10
223.137099
 20
5.097999
 30
0.0
 11
225.097099
 21
5.097999
 31
0.0
  0
LINE
  8
0
 62
   249
 10
225.097099
 20
5.377999
 30
0.0
 11
223.137099
 21
5.377999
 31
0.0
  0
LINE
  8
0
 62
   249
 10
225.097099
 20
8.737999
 30
0.0
 11
225.097099
 21
5.377999
 31
0.0
  0
LINE
  8
0
 62
   249
 10
223.137099
 20
8.737999
 30
0.0
 11
225.097099
 21
8.737999
 31
0.0
  0
LINE
  8
0
 62
   249
 10
223.137099
 20
1.737999
 30
0.0
 11
223.137099
 21
5.097999
 31
0.0
  0
TEXT
  8
0
 62
   249
 10
229.737099
 20
1.737999
 30
0.0
 40
3.0
  1
ABB 
 41
0.8
  7
ROMANS
  0
TEXT
  8
0
 62
   249
 10
237.737099
 20
1.737999
 30
0.0
 40
3.0
  1
Strömberg
 41
0.8
  7
ROMANS
  0
LINE
  8
0
 62
   249
 10
282.237099
 20
9.737999
 30
0.0
 11
282.237099
 21
18.237999
 31
0.0
  0
TEXT
  8
0
 62
   249
 10
27.737099
 20
4.737999
 30
0.0
 40
1.4
  1
MUUTOS
  7
ROMANS
  0
TEXT
  8
0
 62
   249
 10
27.737099
 20
2.471333
 30
0.0
 40
1.4
  1
REVISION
  7
ROMANS
  0
LINE
  8
0
 62
   249
 10
46.737099
 20
9.237999
 30
0.0
 11
209.237099
 21
9.237999
 31
0.0
  0
LINE
  8
0
 62
   249
 10
46.737099
 20
0.237999
 30
0.0
 11
46.737099
 21
9.237999
 31
0.0
  0
LINE
  8
0
 62
   249
 10
40.737099
 20
4.737999
 30
0.0
 11
209.237099
 21
4.737999
 31
0.0
  0
LINE
  8
0
 62
   249
 10
257.237099
 20
9.737999
 30
0.0
 11
257.237099
 21
35.237999
 31
0.0
  0
LINE
  8
0
 62
   249
 10
271.237099
 20
9.737999
 30
0.0
 11
271.237099
 21
0.237999
 31
0.0
  0
TEXT
  8
0
 62
   249
 10
210.237099
 20
32.237999
 30
0.0
 40
1.4
  1
TEKI  PREPARED
  7
ROMANS
  0
TEXT
  8
0
 62
   249
 10
273.237099
 20
7.237999
 30
0.0
 40
1.4
  1
VAST.OSASTO RESP.DEPT.
  7
ROMANS
  0
TEXT
  8
0
 62
   249
 10
257.407006
 20
1.741783
 30
0.0
 40
3.0
  1
Power
 41
0.8
  7
ROMANS
  0
TEXT
  8
0
 62
   249
 10
42.237099
 20
1.195292
 30
0.0
 40
2.5
  1
B
  7
ROMANS
  0
TEXT
  8
0
 62
   249
 10
42.237099
 20
5.587508
 30
0.0
 40
2.5
  1
C
  7
ROMANS
  0
LINE
  8
0
 62
   249
 10
0.237099
 20
0.237999
 30
0.0
 11
392.237099
 21
0.237999
 31
0.0
  0
LINE
  8
0
 62
   249
 10
392.237099
 20
262.737999
 30
0.0
 11
392.237099
 21
0.237999
 31
0.0
  0
LINE
  8
0
 62
   249
 10
0.237099
 20
0.237999
 30
0.0
 11
0.237099
 21
262.737999
 31
0.0
  0
TEXT
  8
0
  6
CONTINUOUS
 62
   249
 10
179.353328
 20
41.513635
 30
0.0
 40
2.0
  1
+
  0
TEXT
  8
0
  6
CONTINUOUS
 62
   249
 10
189.353328
 20
41.513635
 30
0.0
 40
2.0
  1
+
  0
TEXT
  8
0
  6
CONTINUOUS
 62
   249
 10
194.353328
 20
41.513635
 30
0.0
 40
2.0
  1
+
  0
ARC
  8
0
  6
DASHED
 62
   249
 10
190.0
 20
75.0
 30
0.0
 40
0.5
 50
180.0
 51
0.0
  0
ARC
  8
0
  6
DASHED
 62
   249
 10
190.0
 20
75.0
 30
0.0
 40
0.5
 50
0.0
 51
180.0
  0
LINE
  8
0
  6
CONTINUOUS
 62
   249
 10
178.898107
 20
213.15795
 30
0.0
 11
176.552341
 21
214.493304
 31
0.0
  0
LINE
  8
0
  6
CONTINUOUS
 62
   249
 10
176.552341
 20
214.493304
 30
0.0
 11
178.898107
 21
215.683223
 31
0.0
  0
ARC
  8
0
  6
DASHED
 62
   249
 10
107.5
 20
201.993304
 30
0.0
 40
0.5
 50
180.0
 51
0.0
  0
ARC
  8
0
  6
DASHED
 62
   249
 10
107.5
 20
201.993304
 30
0.0
 40
0.5
 50
0.0
 51
180.0
  0
ARC
  8
0
  6
DASHED
 62
   249
 10
125.0
 20
201.993304
 30
0.0
 40
0.5
 50
180.0
 51
0.0
  0
ARC
  8
0
  6
DASHED
 62
   249
 10
125.0
 20
201.993304
 30
0.0
 40
0.5
 50
0.0
 51
180.0
  0
ARC
  8
0
  6
DASHED
 62
   249
 10
145.0
 20
201.993304
 30
0.0
 40
0.5
 50
180.0
 51
0.0
  0
ARC
  8
0
  6
DASHED
 62
   249
 10
145.0
 20
201.993304
 30
0.0
 40
0.5
 50
0.0
 51
180.0
  0
LINE
  8
0
  6
CONTINUOUS
 62
   249
 10
178.904193
 20
191.989958
 30
0.0
 11
176.558427
 21
193.325312
 31
0.0
  0
LINE
  8
0
  6
CONTINUOUS
 62
   249
 10
176.558427
 20
193.325312
 30
0.0
 11
178.904193
 21
194.515231
 31
0.0
  0
LINE
  8
0
  6
CONTINUOUS
 62
   249
 10
178.898107
 20
200.65795
 30
0.0
 11
176.552341
 21
201.993304
 31
0.0
  0
LINE
  8
0
  6
CONTINUOUS
 62
   249
 10
176.552341
 20
201.993304
 30
0.0
 11
178.898107
 21
203.183223
 31
0.0
  0
LINE
  8
0
  6
CONTINUOUS
 62
   249
 10
178.898107
 20
208.664636
 30
0.0
 11
176.552341
 21
209.99999
 31
0.0
  0
LINE
  8
0
  6
CONTINUOUS
 62
   249
 10
176.552341
 20
209.99999
 30
0.0
 11
178.898107
 21
211.189909
 31
0.0
  0
LINE
  8
0
  6
CONTINUOUS
 62
   249
 10
191.833241
 20
202.811124
 30
0.0
 11
191.833241
 21
201.456854
 31
0.0
  0
LINE
  8
0
  6
CONTINUOUS
 62
   249
 10
190.623013
 20
201.456854
 30
0.0
 11
191.817354
 21
201.456854
 31
0.0
  0
LINE
  8
0
  6
CONTINUOUS
 62
   249
 10
191.817354
 20
201.456854
 30
0.0
 11
193.011695
 21
201.456854
 31
0.0
  0
LINE
  8
0
  6
CONTINUOUS
 62
   249
 10
191.001418
 20
200.977244
 30
0.0
 11
192.585989
 21
200.977244
 31
0.0
  0
LINE
  8
0
  6
CONTINUOUS
 62
   249
 10
191.332523
 20
200.489069
 30
0.0
 11
192.21941
 21
200.489069
 31
0.0
  0
LINE
  8
0
  6
CONTINUOUS
 62
   249
 10
191.833241
 20
210.900227
 30
0.0
 11
191.833241
 21
209.545957
 31
0.0
  0
LINE
  8
0
  6
CONTINUOUS
 62
   249
 10
190.623013
 20
209.545957
 30
0.0
 11
191.817354
 21
209.545957
 31
0.0
  0
LINE
  8
0
  6
CONTINUOUS
 62
   249
 10
191.817354
 20
209.545957
 30
0.0
 11
193.011695
 21
209.545957
 31
0.0
  0
LINE
  8
0
  6
CONTINUOUS
 62
   249
 10
191.001418
 20
209.066347
 30
0.0
 11
192.585989
 21
209.066347
 31
0.0
  0
LINE
  8
0
  6
CONTINUOUS
 62
   249
 10
191.332523
 20
208.578172
 30
0.0
 11
192.21941
 21
208.578172
 31
0.0
  0
ARC
  8
0
  6
DASHED
 62
   249
 10
102.5
 20
214.493304
 30
0.0
 40
0.5
 50
180.0
 51
0.0
  0
ARC
  8
0
  6
DASHED
 62
   249
 10
102.5
 20
214.493304
 30
0.0
 40
0.5
 50
0.0
 51
180.0
  0
ARC
  8
0
  6
DASHED
 62
   249
 10
120.0
 20
214.493304
 30
0.0
 40
0.5
 50
180.0
 51
0.0
  0
ARC
  8
0
  6
DASHED
 62
   249
 10
120.0
 20
214.493304
 30
0.0
 40
0.5
 50
0.0
 51
180.0
  0
ARC
  8
0
  6
CONTINUOUS
 62
   249
 10
155.0
 20
222.5
 30
0.0
 40
0.5
 50
180.0
 51
0.0
  0
ARC
  8
0
  6
CONTINUOUS
 62
   249
 10
155.0
 20
222.5
 30
0.0
 40
0.5
 50
0.0
 51
180.0
  0
LINE
  8
0
  6
CONTINUOUS
 62
   249
 10
178.844339
 20
233.664646
 30
0.0
 11
176.498573
 21
235.0
 31
0.0
  0
LINE
  8
0
  6
CONTINUOUS
 62
   249
 10
176.498573
 20
235.0
 30
0.0
 11
178.844339
 21
236.189919
 31
0.0
  0
ARC
  8
0
  6
CONTINUOUS
 62
   249
 10
167.5
 20
214.493304
 30
0.0
 40
0.5
 50
180.0
 51
0.0
  0
ARC
  8
0
  6
CONTINUOUS
 62
   249
 10
167.5
 20
214.493304
 30
0.0
 40
0.5
 50
0.0
 51
180.0
  0
LINE
  8
0
  6
CONTINUOUS
 62
   249
 10
178.898107
 20
221.164646
 30
0.0
 11
176.552341
 21
222.5
 31
0.0
  0
LINE
  8
0
  6
CONTINUOUS
 62
   249
 10
176.552341
 20
222.5
 30
0.0
 11
178.898107
 21
223.689919
 31
0.0
  0
LINE
  8
0
  6
CONTINUOUS
 62
   249
 10
178.856309
 20
225.627107
 30
0.0
 11
176.510544
 21
226.96246
 31
0.0
  0
LINE
  8
0
  6
CONTINUOUS
 62
   249
 10
176.510544
 20
226.96246
 30
0.0
 11
178.856309
 21
228.15238
 31
0.0
  0
TEXT
  8
0
  6
CONTINUOUS
 62
   249
 10
204.353328
 20
41.513635
 30
0.0
 40
2.0
  1
+
  0
TEXT
  8
0
  6
CONTINUOUS
 62
   249
 10
209.344763
 20
41.50558
 30
0.0
 40
2.0
  1
-
  0
LINE
  8
0
 62
   249
 10
220.565579
 20
40.783527
 30
0.0
 11
224.565579
 21
40.783527
 31
0.0
  0
INSERT
  8
0
 62
   249
  2
WKU130
 10
220.905529
 20
39.057974
 30
0.0
 41
0.8
 42
0.8
 43
0.8
  0
TEXT
  8
0
  6
CONTINUOUS
 62
   249
 10
219.353328
 20
41.513635
 30
0.0
 40
2.0
  1
+
  0
TEXT
  8
0
  6
CONTINUOUS
 62
   249
 10
224.344763
 20
41.50558
 30
0.0
 40
2.0
  1
-
  0
ARC
  8
0
  6
DASHED
 62
   249
 10
205.0
 20
75.0
 30
0.0
 40
0.5
 50
180.0
 51
0.0
  0
ARC
  8
0
  6
DASHED
 62
   249
 10
205.0
 20
75.0
 30
0.0
 40
0.5
 50
0.0
 51
180.0
  0
LINE
  8
0
  6
CONTINUOUS
 62
   249
 10
228.465688
 20
153.664644
 30
0.0
 11
226.119923
 21
154.999998
 31
0.0
  0
LINE
  8
0
  6
CONTINUOUS
 62
   249
 10
226.119923
 20
154.999998
 30
0.0
 11
228.465688
 21
156.189917
 31
0.0
  0
3DFACE
  8
0
  6
CONTINUOUS
 62
   249
 10
251.634024
 20
155.56
 30
0.0
 11
251.649704
 21
155.56
 31
0.0
 12
251.649704
 22
154.44
 32
0.0
 13
251.634024
 23
154.44
 33
0.0
  0
3DFACE
  8
0
  6
CONTINUOUS
 62
   249
 10
251.649704
 20
155.56
 30
0.0
 11
251.665384
 21
155.56
 31
0.0
 12
251.665384
 22
154.44
 32
0.0
 13
251.649704
 23
154.44
 33
0.0
  0
3DFACE
  8
0
  6
CONTINUOUS
 62
   249
 10
251.665384
 20
155.56
 30
0.0
 11
251.681064
 21
155.56
 31
0.0
 12
251.681064
 22
154.44
 32
0.0
 13
251.665384
 23
154.44
 33
0.0
  0
3DFACE
  8
0
  6
CONTINUOUS
 62
   249
 10
251.681064
 20
155.56
 30
0.0
 11
251.696744
 21
155.56
 31
0.0
 12
251.696744
 22
154.44
 32
0.0
 13
251.681064
 23
154.44
 33
0.0
  0
3DFACE
  8
0
  6
CONTINUOUS
 62
   249
 10
251.696744
 20
155.56
 30
0.0
 11
251.712424
 21
155.56
 31
0.0
 12
251.712424
 22
154.44
 32
0.0
 13
251.696744
 23
154.44
 33
0.0
  0
3DFACE
  8
0
  6
CONTINUOUS
 62
   249
 10
251.712424
 20
155.56
 30
0.0
 11
251.728104
 21
155.56
 31
0.0
 12
251.728104
 22
154.44
 32
0.0
 13
251.712424
 23
154.44
 33
0.0
  0
3DFACE
  8
0
  6
CONTINUOUS
 62
   249
 10
251.728104
 20
155.56
 30
0.0
 11
251.743784
 21
155.56
 31
0.0
 12
251.743784
 22
154.44
 32
0.0
 13
251.728104
 23
154.44
 33
0.0
  0
3DFACE
  8
0
  6
CONTINUOUS
 62
   249
 10
251.743784
 20
155.56
 30
0.0
 11
251.759464
 21
155.56
 31
0.0
 12
251.759464
 22
154.44
 32
0.0
 13
251.743784
 23
154.44
 33
0.0
  0
3DFACE
  8
0
  6
CONTINUOUS
 62
   249
 10
251.759464
 20
155.56
 30
0.0
 11
251.775144
 21
155.56
 31
0.0
 12
251.775144
 22
154.44
 32
0.0
 13
251.759464
 23
154.44
 33
0.0
  0
3DFACE
  8
0
  6
CONTINUOUS
 62
   249
 10
251.775144
 20
155.56
 30
0.0
 11
251.790824
 21
155.56
 31
0.0
 12
251.790824
 22
154.44
 32
0.0
 13
251.775144
 23
154.44
 33
0.0
  0
3DFACE
  8
0
  6
CONTINUOUS
 62
   249
 10
251.790824
 20
155.56
 30
0.0
 11
251.806504
 21
155.56
 31
0.0
 12
251.806504
 22
154.44
 32
0.0
 13
251.790824
 23
154.44
 33
0.0
  0
3DFACE
  8
0
  6
CONTINUOUS
 62
   249
 10
251.806504
 20
155.56
 30
0.0
 11
251.822184
 21
155.56
 31
0.0
 12
251.822184
 22
154.44
 32
0.0
 13
251.806504
 23
154.44
 33
0.0
  0
3DFACE
  8
0
  6
CONTINUOUS
 62
   249
 10
251.822184
 20
155.56
 30
0.0
 11
251.837864
 21
155.56
 31
0.0
 12
251.837864
 22
154.44
 32
0.0
 13
251.822184
 23
154.44
 33
0.0
  0
3DFACE
  8
0
  6
CONTINUOUS
 62
   249
 10
251.837864
 20
155.56
 30
0.0
 11
251.853544
 21
155.56
 31
0.0
 12
251.853544
 22
154.44
 32
0.0
 13
251.837864
 23
154.44
 33
0.0
  0
3DFACE
  8
0
  6
CONTINUOUS
 62
   249
 10
251.853544
 20
155.56
 30
0.0
 11
251.869224
 21
155.56
 31
0.0
 12
251.869224
 22
154.44
 32
0.0
 13
251.853544
 23
154.44
 33
0.0
  0
3DFACE
  8
0
  6
CONTINUOUS
 62
   249
 10
251.869224
 20
155.56
 30
0.0
 11
251.884904
 21
155.56
 31
0.0
 12
251.884904
 22
154.44
 32
0.0
 13
251.869224
 23
154.44
 33
0.0
  0
3DFACE
  8
0
  6
CONTINUOUS
 62
   249
 10
251.884904
 20
155.56
 30
0.0
 11
251.900584
 21
155.56
 31
0.0
 12
251.900584
 22
154.44
 32
0.0
 13
251.884904
 23
154.44
 33
0.0
  0
3DFACE
  8
0
  6
CONTINUOUS
 62
   249
 10
251.900584
 20
155.56
 30
0.0
 11
251.916264
 21
155.56
 31
0.0
 12
251.916264
 22
154.44
 32
0.0
 13
251.900584
 23
154.44
 33
0.0
  0
3DFACE
  8
0
  6
CONTINUOUS
 62
   249
 10
251.916264
 20
155.56
 30
0.0
 11
251.931944
 21
155.56
 31
0.0
 12
251.931944
 22
154.44
 32
0.0
 13
251.916264
 23
154.44
 33
0.0
  0
3DFACE
  8
0
  6
CONTINUOUS
 62
   249
 10
251.931944
 20
155.56
 30
0.0
 11
251.947624
 21
155.56
 31
0.0
 12
251.947624
 22
154.44
 32
0.0
 13
251.931944
 23
154.44
 33
0.0
  0
3DFACE
  8
0
  6
CONTINUOUS
 62
   249
 10
251.947624
 20
155.56
 30
0.0
 11
251.963304
 21
155.56
 31
0.0
 12
251.963304
 22
154.44
 32
0.0
 13
251.947624
 23
154.44
 33
0.0
  0
3DFACE
  8
0
  6
CONTINUOUS
 62
   249
 10
251.963304
 20
155.56
 30
0.0
 11
251.978984
 21
155.56
 31
0.0
 12
251.978984
 22
154.44
 32
0.0
 13
251.963304
 23
154.44
 33
0.0
  0
3DFACE
  8
0
  6
CONTINUOUS
 62
   249
 10
251.978984
 20
155.56
 30
0.0
 11
251.994664
 21
155.56
 31
0.0
 12
251.994664
 22
154.44
 32
0.0
 13
251.978984
 23
154.44
 33
0.0
  0
3DFACE
  8
0
  6
CONTINUOUS
 62
   249
 10
251.994664
 20
155.56
 30
0.0
 11
252.010344
 21
155.56
 31
0.0
 12
252.010344
 22
154.44
 32
0.0
 13
251.994664
 23
154.44
 33
0.0
  0
3DFACE
  8
0
  6
CONTINUOUS
 62
   249
 10
252.010344
 20
155.56
 30
0.0
 11
252.026024
 21
155.56
 31
0.0
 12
252.026024
 22
154.44
 32
0.0
 13
252.010344
 23
154.44
 33
0.0
  0
3DFACE
  8
0
  6
CONTINUOUS
 62
   249
 10
252.026024
 20
155.56
 30
0.0
 11
252.041704
 21
155.56
 31
0.0
 12
252.041704
 22
154.44
 32
0.0
 13
252.026024
 23
154.44
 33
0.0
  0
3DFACE
  8
0
  6
CONTINUOUS
 62
   249
 10
252.041704
 20
155.56
 30
0.0
 11
252.057384
 21
155.56
 31
0.0
 12
252.057384
 22
154.44
 32
0.0
 13
252.041704
 23
154.44
 33
0.0
  0
3DFACE
  8
0
  6
CONTINUOUS
 62
   249
 10
252.057384
 20
155.56
 30
0.0
 11
252.073064
 21
155.56
 31
0.0
 12
252.073064
 22
154.44
 32
0.0
 13
252.057384
 23
154.44
 33
0.0
  0
3DFACE
  8
0
  6
CONTINUOUS
 62
   249
 10
252.073064
 20
155.56
 30
0.0
 11
252.088744
 21
155.56
 31
0.0
 12
252.088744
 22
154.44
 32
0.0
 13
252.073064
 23
154.44
 33
0.0
  0
3DFACE
  8
0
  6
CONTINUOUS
 62
   249
 10
252.088744
 20
155.56
 30
0.0
 11
252.104424
 21
155.56
 31
0.0
 12
252.104424
 22
154.44
 32
0.0
 13
252.088744
 23
154.44
 33
0.0
  0
3DFACE
  8
0
  6
CONTINUOUS
 62
   249
 10
252.104424
 20
155.56
 30
0.0
 11
252.120104
 21
155.56
 31
0.0
 12
252.120104
 22
154.44
 32
0.0
 13
252.104424
 23
154.44
 33
0.0
  0
3DFACE
  8
0
  6
CONTINUOUS
 62
   249
 10
252.120104
 20
155.56
 30
0.0
 11
252.135784
 21
155.56
 31
0.0
 12
252.135784
 22
154.44
 32
0.0
 13
252.120104
 23
154.44
 33
0.0
  0
3DFACE
  8
0
  6
CONTINUOUS
 62
   249
 10
252.135784
 20
155.56
 30
0.0
 11
252.151464
 21
155.56
 31
0.0
 12
252.151464
 22
154.44
 32
0.0
 13
252.135784
 23
154.44
 33
0.0
  0
3DFACE
  8
0
  6
CONTINUOUS
 62
   249
 10
252.151464
 20
155.56
 30
0.0
 11
252.167144
 21
155.56
 31
0.0
 12
252.167144
 22
154.44
 32
0.0
 13
252.151464
 23
154.44
 33
0.0
  0
3DFACE
  8
0
  6
CONTINUOUS
 62
   249
 10
252.167144
 20
155.56
 30
0.0
 11
252.182824
 21
155.56
 31
0.0
 12
252.182824
 22
154.44
 32
0.0
 13
252.167144
 23
154.44
 33
0.0
  0
3DFACE
  8
0
  6
CONTINUOUS
 62
   249
 10
252.182824
 20
155.56
 30
0.0
 11
252.198504
 21
155.56
 31
0.0
 12
252.198504
 22
154.44
 32
0.0
 13
252.182824
 23
154.44
 33
0.0
  0
3DFACE
  8
0
  6
CONTINUOUS
 62
   249
 10
252.198504
 20
155.56
 30
0.0
 11
252.214184
 21
155.56
 31
0.0
 12
252.214184
 22
154.44
 32
0.0
 13
252.198504
 23
154.44
 33
0.0
  0
3DFACE
  8
0
  6
CONTINUOUS
 62
   249
 10
252.214184
 20
155.56
 30
0.0
 11
252.229864
 21
155.56
 31
0.0
 12
252.229864
 22
154.44
 32
0.0
 13
252.214184
 23
154.44
 33
0.0
  0
3DFACE
  8
0
  6
CONTINUOUS
 62
   249
 10
252.229864
 20
155.56
 30
0.0
 11
252.245544
 21
155.56
 31
0.0
 12
252.245544
 22
154.44
 32
0.0
 13
252.229864
 23
154.44
 33
0.0
  0
3DFACE
  8
0
  6
CONTINUOUS
 62
   249
 10
252.245544
 20
155.56
 30
0.0
 11
252.261224
 21
155.56
 31
0.0
 12
252.261224
 22
154.44
 32
0.0
 13
252.245544
 23
154.44
 33
0.0
  0
3DFACE
  8
0
  6
CONTINUOUS
 62
   249
 10
252.261224
 20
155.56
 30
0.0
 11
252.276904
 21
155.56
 31
0.0
 12
252.276904
 22
154.44
 32
0.0
 13
252.261224
 23
154.44
 33
0.0
  0
3DFACE
  8
0
  6
CONTINUOUS
 62
   249
 10
252.276904
 20
155.56
 30
0.0
 11
252.292584
 21
155.56
 31
0.0
 12
252.292584
 22
154.44
 32
0.0
 13
252.276904
 23
154.44
 33
0.0
  0
3DFACE
  8
0
  6
CONTINUOUS
 62
   249
 10
252.292584
 20
155.56
 30
0.0
 11
252.308264
 21
155.56
 31
0.0
 12
252.308264
 22
154.44
 32
0.0
 13
252.292584
 23
154.44
 33
0.0
  0
3DFACE
  8
0
  6
CONTINUOUS
 62
   249
 10
252.308264
 20
155.56
 30
0.0
 11
252.323944
 21
155.56
 31
0.0
 12
252.323944
 22
154.44
 32
0.0
 13
252.308264
 23
154.44
 33
0.0
  0
3DFACE
  8
0
  6
CONTINUOUS
 62
   249
 10
252.323944
 20
155.56
 30
0.0
 11
252.339624
 21
155.56
 31
0.0
 12
252.339624
 22
154.44
 32
0.0
 13
252.323944
 23
154.44
 33
0.0
  0
3DFACE
  8
0
  6
CONTINUOUS
 62
   249
 10
252.339624
 20
155.56
 30
0.0
 11
252.355304
 21
155.56
 31
0.0
 12
252.355304
 22
154.44
 32
0.0
 13
252.339624
 23
154.44
 33
0.0
  0
3DFACE
  8
0
  6
CONTINUOUS
 62
   249
 10
252.355304
 20
155.56
 30
0.0
 11
252.370984
 21
155.56
 31
0.0
 12
252.370984
 22
154.44
 32
0.0
 13
252.355304
 23
154.44
 33
0.0
  0
3DFACE
  8
0
  6
CONTINUOUS
 62
   249
 10
252.370984
 20
155.56
 30
0.0
 11
252.386664
 21
155.56
 31
0.0
 12
252.386664
 22
154.44
 32
0.0
 13
252.370984
 23
154.44
 33
0.0
  0
3DFACE
  8
0
  6
CONTINUOUS
 62
   249
 10
252.386664
 20
155.56
 30
0.0
 11
252.402344
 21
155.56
 31
0.0
 12
252.402344
 22
154.44
 32
0.0
 13
252.386664
 23
154.44
 33
0.0
  0
3DFACE
  8
0
  6
CONTINUOUS
 62
   249
 10
252.402344
 20
155.56
 30
0.0
 11
252.418024
 21
155.56
 31
0.0
 12
252.418024
 22
154.44
 32
0.0
 13
252.402344
 23
154.44
 33
0.0
  0
3DFACE
  8
0
  6
CONTINUOUS
 62
   249
 10
252.418024
 20
155.56
 30
0.0
 11
252.433704
 21
155.56
 31
0.0
 12
252.433704
 22
154.44
 32
0.0
 13
252.418024
 23
154.44
 33
0.0
  0
3DFACE
  8
0
  6
CONTINUOUS
 62
   249
 10
252.433704
 20
155.56
 30
0.0
 11
252.449384
 21
155.56
 31
0.0
 12
252.449384
 22
154.44
 32
0.0
 13
252.433704
 23
154.44
 33
0.0
  0
3DFACE
  8
0
  6
CONTINUOUS
 62
   249
 10
252.449384
 20
155.56
 30
0.0
 11
252.465064
 21
155.56
 31
0.0
 12
252.465064
 22
154.44
 32
0.0
 13
252.449384
 23
154.44
 33
0.0
  0
3DFACE
  8
0
  6
CONTINUOUS
 62
   249
 10
252.465064
 20
155.56
 30
0.0
 11
252.480744
 21
155.56
 31
0.0
 12
252.480744
 22
154.44
 32
0.0
 13
252.465064
 23
154.44
 33
0.0
  0
3DFACE
  8
0
  6
CONTINUOUS
 62
   249
 10
252.480744
 20
155.56
 30
0.0
 11
252.496424
 21
155.56
 31
0.0
 12
252.496424
 22
154.44
 32
0.0
 13
252.480744
 23
154.44
 33
0.0
  0
3DFACE
  8
0
  6
CONTINUOUS
 62
   249
 10
252.496424
 20
155.56
 30
0.0
 11
252.512104
 21
155.56
 31
0.0
 12
252.512104
 22
154.44
 32
0.0
 13
252.496424
 23
154.44
 33
0.0
  0
3DFACE
  8
0
  6
CONTINUOUS
 62
   249
 10
252.512104
 20
155.56
 30
0.0
 11
252.527784
 21
155.56
 31
0.0
 12
252.527784
 22
154.44
 32
0.0
 13
252.512104
 23
154.44
 33
0.0
  0
3DFACE
  8
0
  6
CONTINUOUS
 62
   249
 10
252.527784
 20
155.56
 30
0.0
 11
252.543464
 21
155.56
 31
0.0
 12
252.543464
 22
154.44
 32
0.0
 13
252.527784
 23
154.44
 33
0.0
  0
3DFACE
  8
0
  6
CONTINUOUS
 62
   249
 10
252.543464
 20
155.56
 30
0.0
 11
252.559144
 21
155.56
 31
0.0
 12
252.559144
 22
154.44
 32
0.0
 13
252.543464
 23
154.44
 33
0.0
  0
3DFACE
  8
0
  6
CONTINUOUS
 62
   249
 10
252.559144
 20
155.56
 30
0.0
 11
252.574824
 21
155.56
 31
0.0
 12
252.574824
 22
154.44
 32
0.0
 13
252.559144
 23
154.44
 33
0.0
  0
3DFACE
  8
0
  6
CONTINUOUS
 62
   249
 10
252.574824
 20
155.56
 30
0.0
 11
252.590504
 21
155.56
 31
0.0
 12
252.590504
 22
154.44
 32
0.0
 13
252.574824
 23
154.44
 33
0.0
  0
3DFACE
  8
0
  6
CONTINUOUS
 62
   249
 10
252.590504
 20
155.56
 30
0.0
 11
252.606184
 21
155.56
 31
0.0
 12
252.606184
 22
154.44
 32
0.0
 13
252.590504
 23
154.44
 33
0.0
  0
3DFACE
  8
0
  6
CONTINUOUS
 62
   249
 10
252.606184
 20
155.56
 30
0.0
 11
252.621864
 21
155.56
 31
0.0
 12
252.621864
 22
154.44
 32
0.0
 13
252.606184
 23
154.44
 33
0.0
  0
3DFACE
  8
0
  6
CONTINUOUS
 62
   249
 10
252.621864
 20
155.56
 30
0.0
 11
252.637544
 21
155.56
 31
0.0
 12
252.637544
 22
154.44
 32
0.0
 13
252.621864
 23
154.44
 33
0.0
  0
3DFACE
  8
0
  6
CONTINUOUS
 62
   249
 10
252.637544
 20
155.56
 30
0.0
 11
252.653224
 21
155.56
 31
0.0
 12
252.653224
 22
154.44
 32
0.0
 13
252.637544
 23
154.44
 33
0.0
  0
3DFACE
  8
0
  6
CONTINUOUS
 62
   249
 10
252.653224
 20
155.56
 30
0.0
 11
252.668904
 21
155.56
 31
0.0
 12
252.668904
 22
154.44
 32
0.0
 13
252.653224
 23
154.44
 33
0.0
  0
3DFACE
  8
0
  6
CONTINUOUS
 62
   249
 10
252.668904
 20
155.56
 30
0.0
 11
252.684584
 21
155.56
 31
0.0
 12
252.684584
 22
154.44
 32
0.0
 13
252.668904
 23
154.44
 33
0.0
  0
3DFACE
  8
0
  6
CONTINUOUS
 62
   249
 10
252.684584
 20
155.56
 30
0.0
 11
252.700264
 21
155.56
 31
0.0
 12
252.700264
 22
154.44
 32
0.0
 13
252.684584
 23
154.44
 33
0.0
  0
3DFACE
  8
0
  6
CONTINUOUS
 62
   249
 10
252.700264
 20
155.56
 30
0.0
 11
252.715944
 21
155.56
 31
0.0
 12
252.715944
 22
154.44
 32
0.0
 13
252.700264
 23
154.44
 33
0.0
  0
3DFACE
  8
0
  6
CONTINUOUS
 62
   249
 10
252.715944
 20
155.56
 30
0.0
 11
252.731624
 21
155.56
 31
0.0
 12
252.731624
 22
154.44
 32
0.0
 13
252.715944
 23
154.44
 33
0.0
  0
3DFACE
  8
0
  6
CONTINUOUS
 62
   249
 10
252.731624
 20
155.56
 30
0.0
 11
252.747304
 21
155.56
 31
0.0
 12
252.747304
 22
154.44
 32
0.0
 13
252.731624
 23
154.44
 33
0.0
  0
3DFACE
  8
0
  6
CONTINUOUS
 62
   249
 10
252.747304
 20
155.56
 30
0.0
 11
252.762984
 21
155.56
 31
0.0
 12
252.762984
 22
154.44
 32
0.0
 13
252.747304
 23
154.44
 33
0.0
  0
3DFACE
  8
0
  6
CONTINUOUS
 62
   249
 10
252.762984
 20
155.56
 30
0.0
 11
252.778664
 21
155.56
 31
0.0
 12
252.778664
 22
154.44
 32
0.0
 13
252.762984
 23
154.44
 33
0.0
  0
3DFACE
  8
0
  6
CONTINUOUS
 62
   249
 10
252.778664
 20
155.56
 30
0.0
 11
252.794344
 21
155.56
 31
0.0
 12
252.794344
 22
154.44
 32
0.0
 13
252.778664
 23
154.44
 33
0.0
  0
3DFACE
  8
0
  6
CONTINUOUS
 62
   249
 10
252.794344
 20
155.56
 30
0.0
 11
252.810024
 21
155.56
 31
0.0
 12
252.810024
 22
154.44
 32
0.0
 13
252.794344
 23
154.44
 33
0.0
  0
3DFACE
  8
0
  6
CONTINUOUS
 62
   249
 10
252.810024
 20
155.56
 30
0.0
 11
252.825704
 21
155.56
 31
0.0
 12
252.825704
 22
154.44
 32
0.0
 13
252.810024
 23
154.44
 33
0.0
  0
3DFACE
  8
0
  6
CONTINUOUS
 62
   249
 10
252.825704
 20
155.56
 30
0.0
 11
252.841384
 21
155.56
 31
0.0
 12
252.841384
 22
154.44
 32
0.0
 13
252.825704
 23
154.44
 33
0.0
  0
3DFACE
  8
0
  6
CONTINUOUS
 62
   249
 10
252.841384
 20
155.56
 30
0.0
 11
252.857064
 21
155.56
 31
0.0
 12
252.857064
 22
154.44
 32
0.0
 13
252.841384
 23
154.44
 33
0.0
  0
3DFACE
  8
0
  6
CONTINUOUS
 62
   249
 10
252.857064
 20
155.56
 30
0.0
 11
252.872744
 21
155.56
 31
0.0
 12
252.872744
 22
154.44
 32
0.0
 13
252.857064
 23
154.44
 33
0.0
  0
3DFACE
  8
0
  6
CONTINUOUS
 62
   249
 10
252.872744
 20
155.56
 30
0.0
 11
252.888424
 21
155.56
 31
0.0
 12
252.888424
 22
154.44
 32
0.0
 13
252.872744
 23
154.44
 33
0.0
  0
3DFACE
  8
0
  6
CONTINUOUS
 62
   249
 10
252.888424
 20
155.56
 30
0.0
 11
252.904104
 21
155.56
 31
0.0
 12
252.904104
 22
154.44
 32
0.0
 13
252.888424
 23
154.44
 33
0.0
  0
3DFACE
  8
0
  6
CONTINUOUS
 62
   249
 10
252.904104
 20
155.56
 30
0.0
 11
252.919784
 21
155.56
 31
0.0
 12
252.919784
 22
154.44
 32
0.0
 13
252.904104
 23
154.44
 33
0.0
  0
3DFACE
  8
0
  6
CONTINUOUS
 62
   249
 10
252.919784
 20
155.56
 30
0.0
 11
252.935464
 21
155.56
 31
0.0
 12
252.935464
 22
154.44
 32
0.0
 13
252.919784
 23
154.44
 33
0.0
  0
3DFACE
  8
0
  6
CONTINUOUS
 62
   249
 10
252.935464
 20
155.56
 30
0.0
 11
252.951144
 21
155.56
 31
0.0
 12
252.951144
 22
154.44
 32
0.0
 13
252.935464
 23
154.44
 33
0.0
  0
3DFACE
  8
0
  6
CONTINUOUS
 62
   249
 10
252.951144
 20
155.56
 30
0.0
 11
252.966824
 21
155.56
 31
0.0
 12
252.966824
 22
154.44
 32
0.0
 13
252.951144
 23
154.44
 33
0.0
  0
3DFACE
  8
0
  6
CONTINUOUS
 62
   249
 10
252.966824
 20
155.56
 30
0.0
 11
252.982504
 21
155.56
 31
0.0
 12
252.982504
 22
154.44
 32
0.0
 13
252.966824
 23
154.44
 33
0.0
  0
3DFACE
  8
0
  6
CONTINUOUS
 62
   249
 10
252.982504
 20
155.56
 30
0.0
 11
252.998184
 21
155.56
 31
0.0
 12
252.998184
 22
154.44
 32
0.0
 13
252.982504
 23
154.44
 33
0.0
  0
3DFACE
  8
0
  6
CONTINUOUS
 62
   249
 10
252.998184
 20
155.56
 30
0.0
 11
253.013864
 21
155.56
 31
0.0
 12
253.013864
 22
154.44
 32
0.0
 13
252.998184
 23
154.44
 33
0.0
  0
3DFACE
  8
0
  6
CONTINUOUS
 62
   249
 10
253.013864
 20
155.56
 30
0.0
 11
253.029544
 21
155.56
 31
0.0
 12
253.029544
 22
154.44
 32
0.0
 13
253.013864
 23
154.44
 33
0.0
  0
3DFACE
  8
0
  6
CONTINUOUS
 62
   249
 10
253.029544
 20
155.56
 30
0.0
 11
253.045224
 21
155.56
 31
0.0
 12
253.045224
 22
154.44
 32
0.0
 13
253.029544
 23
154.44
 33
0.0
  0
3DFACE
  8
0
  6
CONTINUOUS
 62
   249
 10
253.045224
 20
155.56
 30
0.0
 11
253.060904
 21
155.56
 31
0.0
 12
253.060904
 22
154.44
 32
0.0
 13
253.045224
 23
154.44
 33
0.0
  0
3DFACE
  8
0
  6
CONTINUOUS
 62
   249
 10
253.060904
 20
155.56
 30
0.0
 11
253.076584
 21
155.56
 31
0.0
 12
253.076584
 22
154.44
 32
0.0
 13
253.060904
 23
154.44
 33
0.0
  0
3DFACE
  8
0
  6
CONTINUOUS
 62
   249
 10
253.076584
 20
155.56
 30
0.0
 11
253.092264
 21
155.56
 31
0.0
 12
253.092264
 22
154.44
 32
0.0
 13
253.076584
 23
154.44
 33
0.0
  0
3DFACE
  8
0
  6
CONTINUOUS
 62
   249
 10
253.092264
 20
155.56
 30
0.0
 11
253.107944
 21
155.56
 31
0.0
 12
253.107944
 22
154.44
 32
0.0
 13
253.092264
 23
154.44
 33
0.0
  0
3DFACE
  8
0
  6
CONTINUOUS
 62
   249
 10
253.107944
 20
155.56
 30
0.0
 11
253.123624
 21
155.56
 31
0.0
 12
253.123624
 22
154.44
 32
0.0
 13
253.107944
 23
154.44
 33
0.0
  0
3DFACE
  8
0
  6
CONTINUOUS
 62
   249
 10
253.123624
 20
155.56
 30
0.0
 11
253.139304
 21
155.56
 31
0.0
 12
253.139304
 22
154.44
 32
0.0
 13
253.123624
 23
154.44
 33
0.0
  0
3DFACE
  8
0
  6
CONTINUOUS
 62
   249
 10
253.139304
 20
155.56
 30
0.0
 11
253.154984
 21
155.56
 31
0.0
 12
253.154984
 22
154.44
 32
0.0
 13
253.139304
 23
154.44
 33
0.0
  0
3DFACE
  8
0
  6
CONTINUOUS
 62
   249
 10
253.154984
 20
155.56
 30
0.0
 11
253.170664
 21
155.56
 31
0.0
 12
253.170664
 22
154.44
 32
0.0
 13
253.154984
 23
154.44
 33
0.0
  0
3DFACE
  8
0
  6
CONTINUOUS
 62
   249
 10
253.170664
 20
155.56
 30
0.0
 11
253.186344
 21
155.56
 31
0.0
 12
253.186344
 22
154.44
 32
0.0
 13
253.170664
 23
154.44
 33
0.0
  0
3DFACE
  8
0
  6
CONTINUOUS
 62
   249
 10
253.186344
 20
155.56
 30
0.0
 11
253.202024
 21
155.56
 31
0.0
 12
253.202024
 22
154.44
 32
0.0
 13
253.186344
 23
154.44
 33
0.0
  0
3DFACE
  8
0
  6
CONTINUOUS
 62
   249
 10
253.202024
 20
155.56
 30
0.0
 11
253.217704
 21
155.56
 31
0.0
 12
253.217704
 22
154.44
 32
0.0
 13
253.202024
 23
154.44
 33
0.0
  0
3DFACE
  8
0
  6
CONTINUOUS
 62
   249
 10
253.217704
 20
155.56
 30
0.0
 11
253.233384
 21
155.56
 31
0.0
 12
253.233384
 22
154.44
 32
0.0
 13
253.217704
 23
154.44
 33
0.0
  0
3DFACE
  8
0
  6
CONTINUOUS
 62
   249
 10
253.233384
 20
155.56
 30
0.0
 11
253.249064
 21
155.56
 31
0.0
 12
253.249064
 22
154.44
 32
0.0
 13
253.233384
 23
154.44
 33
0.0
  0
3DFACE
  8
0
  6
CONTINUOUS
 62
   249
 10
253.249064
 20
155.56
 30
0.0
 11
253.264744
 21
155.56
 31
0.0
 12
253.264744
 22
154.44
 32
0.0
 13
253.249064
 23
154.44
 33
0.0
  0
3DFACE
  8
0
  6
CONTINUOUS
 62
   249
 10
253.264744
 20
155.56
 30
0.0
 11
253.280424
 21
155.56
 31
0.0
 12
253.280424
 22
154.44
 32
0.0
 13
253.264744
 23
154.44
 33
0.0
  0
3DFACE
  8
0
  6
CONTINUOUS
 62
   249
 10
253.280424
 20
155.56
 30
0.0
 11
253.296104
 21
155.56
 31
0.0
 12
253.296104
 22
154.44
 32
0.0
 13
253.280424
 23
154.44
 33
0.0
  0
3DFACE
  8
0
  6
CONTINUOUS
 62
   249
 10
253.296104
 20
155.56
 30
0.0
 11
253.311784
 21
155.56
 31
0.0
 12
253.311784
 22
154.44
 32
0.0
 13
253.296104
 23
154.44
 33
0.0
  0
3DFACE
  8
0
  6
CONTINUOUS
 62
   249
 10
253.311784
 20
155.56
 30
0.0
 11
253.327464
 21
155.56
 31
0.0
 12
253.327464
 22
154.44
 32
0.0
 13
253.311784
 23
154.44
 33
0.0
  0
3DFACE
  8
0
  6
CONTINUOUS
 62
   249
 10
253.327464
 20
155.56
 30
0.0
 11
253.343144
 21
155.56
 31
0.0
 12
253.343144
 22
154.44
 32
0.0
 13
253.327464
 23
154.44
 33
0.0
  0
3DFACE
  8
0
  6
CONTINUOUS
 62
   249
 10
253.343144
 20
155.56
 30
0.0
 11
253.358824
 21
155.56
 31
0.0
 12
253.358824
 22
154.44
 32
0.0
 13
253.343144
 23
154.44
 33
0.0
  0
3DFACE
  8
0
  6
CONTINUOUS
 62
   249
 10
253.358824
 20
155.56
 30
0.0
 11
253.374504
 21
155.56
 31
0.0
 12
253.374504
 22
154.44
 32
0.0
 13
253.358824
 23
154.44
 33
0.0
  0
3DFACE
  8
0
  6
CONTINUOUS
 62
   249
 10
253.374504
 20
155.56
 30
0.0
 11
253.390184
 21
155.56
 31
0.0
 12
253.390184
 22
154.44
 32
0.0
 13
253.374504
 23
154.44
 33
0.0
  0
3DFACE
  8
0
  6
CONTINUOUS
 62
   249
 10
253.390184
 20
155.56
 30
0.0
 11
253.405864
 21
155.56
 31
0.0
 12
253.405864
 22
154.44
 32
0.0
 13
253.390184
 23
154.44
 33
0.0
  0
3DFACE
  8
0
  6
CONTINUOUS
 62
   249
 10
253.405864
 20
155.56
 30
0.0
 11
253.421544
 21
155.56
 31
0.0
 12
253.421544
 22
154.44
 32
0.0
 13
253.405864
 23
154.44
 33
0.0
  0
3DFACE
  8
0
  6
CONTINUOUS
 62
   249
 10
253.421544
 20
155.56
 30
0.0
 11
253.437224
 21
155.56
 31
0.0
 12
253.437224
 22
154.44
 32
0.0
 13
253.421544
 23
154.44
 33
0.0
  0
3DFACE
  8
0
  6
CONTINUOUS
 62
   249
 10
253.437224
 20
155.56
 30
0.0
 11
253.452904
 21
155.56
 31
0.0
 12
253.452904
 22
154.44
 32
0.0
 13
253.437224
 23
154.44
 33
0.0
  0
3DFACE
  8
0
  6
CONTINUOUS
 62
   249
 10
253.452904
 20
155.56
 30
0.0
 11
253.468584
 21
155.56
 31
0.0
 12
253.468584
 22
154.44
 32
0.0
 13
253.452904
 23
154.44
 33
0.0
  0
3DFACE
  8
0
  6
CONTINUOUS
 62
   249
 10
253.468584
 20
155.56
 30
0.0
 11
253.484264
 21
155.56
 31
0.0
 12
253.484264
 22
154.44
 32
0.0
 13
253.468584
 23
154.44
 33
0.0
  0
3DFACE
  8
0
  6
CONTINUOUS
 62
   249
 10
253.484264
 20
155.56
 30
0.0
 11
253.499944
 21
155.56
 31
0.0
 12
253.499944
 22
154.44
 32
0.0
 13
253.484264
 23
154.44
 33
0.0
  0
3DFACE
  8
0
  6
CONTINUOUS
 62
   249
 10
253.499944
 20
155.56
 30
0.0
 11
253.515624
 21
155.56
 31
0.0
 12
253.515624
 22
154.44
 32
0.0
 13
253.499944
 23
154.44
 33
0.0
  0
3DFACE
  8
0
  6
CONTINUOUS
 62
   249
 10
253.515624
 20
155.56
 30
0.0
 11
253.531304
 21
155.56
 31
0.0
 12
253.531304
 22
154.44
 32
0.0
 13
253.515624
 23
154.44
 33
0.0
  0
3DFACE
  8
0
  6
CONTINUOUS
 62
   249
 10
253.531304
 20
155.56
 30
0.0
 11
253.546984
 21
155.56
 31
0.0
 12
253.546984
 22
154.44
 32
0.0
 13
253.531304
 23
154.44
 33
0.0
  0
3DFACE
  8
0
  6
CONTINUOUS
 62
   249
 10
253.546984
 20
155.56
 30
0.0
 11
253.562664
 21
155.56
 31
0.0
 12
253.562664
 22
154.44
 32
0.0
 13
253.546984
 23
154.44
 33
0.0
  0
3DFACE
  8
0
  6
CONTINUOUS
 62
   249
 10
253.562664
 20
155.56
 30
0.0
 11
253.578344
 21
155.56
 31
0.0
 12
253.578344
 22
154.44
 32
0.0
 13
253.562664
 23
154.44
 33
0.0
  0
3DFACE
  8
0
  6
CONTINUOUS
 62
   249
 10
253.578344
 20
155.56
 30
0.0
 11
253.594024
 21
155.56
 31
0.0
 12
253.594024
 22
154.44
 32
0.0
 13
253.578344
 23
154.44
 33
0.0
  0
3DFACE
  8
0
  6
CONTINUOUS
 62
   249
 10
253.594024
 20
155.56
 30
0.0
 11
253.609704
 21
155.56
 31
0.0
 12
253.609704
 22
154.44
 32
0.0
 13
253.594024
 23
154.44
 33
0.0
  0
3DFACE
  8
0
  6
CONTINUOUS
 62
   249
 10
253.609704
 20
155.56
 30
0.0
 11
253.625384
 21
155.56
 31
0.0
 12
253.625384
 22
154.44
 32
0.0
 13
253.609704
 23
154.44
 33
0.0
  0
3DFACE
  8
0
  6
CONTINUOUS
 62
   249
 10
253.625384
 20
155.56
 30
0.0
 11
253.641064
 21
155.56
 31
0.0
 12
253.641064
 22
154.44
 32
0.0
 13
253.625384
 23
154.44
 33
0.0
  0
3DFACE
  8
0
  6
CONTINUOUS
 62
   249
 10
253.641064
 20
155.56
 30
0.0
 11
253.656744
 21
155.56
 31
0.0
 12
253.656744
 22
154.44
 32
0.0
 13
253.641064
 23
154.44
 33
0.0
  0
3DFACE
  8
0
  6
CONTINUOUS
 62
   249
 10
253.656744
 20
155.56
 30
0.0
 11
253.672424
 21
155.56
 31
0.0
 12
253.672424
 22
154.44
 32
0.0
 13
253.656744
 23
154.44
 33
0.0
  0
3DFACE
  8
0
  6
CONTINUOUS
 62
   249
 10
253.672424
 20
155.56
 30
0.0
 11
253.688104
 21
155.56
 31
0.0
 12
253.688104
 22
154.44
 32
0.0
 13
253.672424
 23
154.44
 33
0.0
  0
3DFACE
  8
0
  6
CONTINUOUS
 62
   249
 10
253.688104
 20
155.56
 30
0.0
 11
253.703784
 21
155.56
 31
0.0
 12
253.703784
 22
154.44
 32
0.0
 13
253.688104
 23
154.44
 33
0.0
  0
3DFACE
  8
0
  6
CONTINUOUS
 62
   249
 10
253.703784
 20
155.56
 30
0.0
 11
253.719464
 21
155.56
 31
0.0
 12
253.719464
 22
154.44
 32
0.0
 13
253.703784
 23
154.44
 33
0.0
  0
3DFACE
  8
0
  6
CONTINUOUS
 62
   249
 10
253.719464
 20
155.56
 30
0.0
 11
253.735144
 21
155.56
 31
0.0
 12
253.735144
 22
154.44
 32
0.0
 13
253.719464
 23
154.44
 33
0.0
  0
3DFACE
  8
0
  6
CONTINUOUS
 62
   249
 10
253.735144
 20
155.56
 30
0.0
 11
253.750824
 21
155.56
 31
0.0
 12
253.750824
 22
154.44
 32
0.0
 13
253.735144
 23
154.44
 33
0.0
  0
3DFACE
  8
0
  6
CONTINUOUS
 62
   249
 10
253.750824
 20
155.56
 30
0.0
 11
253.766504
 21
155.56
 31
0.0
 12
253.766504
 22
154.44
 32
0.0
 13
253.750824
 23
154.44
 33
0.0
  0
3DFACE
  8
0
  6
CONTINUOUS
 62
   249
 10
253.766504
 20
155.56
 30
0.0
 11
253.782184
 21
155.56
 31
0.0
 12
253.782184
 22
154.44
 32
0.0
 13
253.766504
 23
154.44
 33
0.0
  0
3DFACE
  8
0
  6
CONTINUOUS
 62
   249
 10
253.782184
 20
155.56
 30
0.0
 11
253.797864
 21
155.56
 31
0.0
 12
253.797864
 22
154.44
 32
0.0
 13
253.782184
 23
154.44
 33
0.0
  0
3DFACE
  8
0
  6
CONTINUOUS
 62
   249
 10
253.797864
 20
155.56
 30
0.0
 11
253.813544
 21
155.56
 31
0.0
 12
253.813544
 22
154.44
 32
0.0
 13
253.797864
 23
154.44
 33
0.0
  0
3DFACE
  8
0
  6
CONTINUOUS
 62
   249
 10
253.813544
 20
155.56
 30
0.0
 11
253.829224
 21
155.56
 31
0.0
 12
253.829224
 22
154.44
 32
0.0
 13
253.813544
 23
154.44
 33
0.0
  0
3DFACE
  8
0
  6
CONTINUOUS
 62
   249
 10
253.829224
 20
155.56
 30
0.0
 11
253.844904
 21
155.56
 31
0.0
 12
253.844904
 22
154.44
 32
0.0
 13
253.829224
 23
154.44
 33
0.0
  0
3DFACE
  8
0
  6
CONTINUOUS
 62
   249
 10
253.844904
 20
155.56
 30
0.0
 11
253.860584
 21
155.56
 31
0.0
 12
253.860584
 22
154.44
 32
0.0
 13
253.844904
 23
154.44
 33
0.0
  0
3DFACE
  8
0
  6
CONTINUOUS
 62
   249
 10
253.860584
 20
155.56
 30
0.0
 11
253.876264
 21
155.56
 31
0.0
 12
253.876264
 22
154.44
 32
0.0
 13
253.860584
 23
154.44
 33
0.0
  0
3DFACE
  8
0
  6
CONTINUOUS
 62
   249
 10
253.876264
 20
155.56
 30
0.0
 11
253.891944
 21
155.56
 31
0.0
 12
253.891944
 22
154.44
 32
0.0
 13
253.876264
 23
154.44
 33
0.0
  0
3DFACE
  8
0
  6
CONTINUOUS
 62
   249
 10
253.891944
 20
155.56
 30
0.0
 11
253.907624
 21
155.56
 31
0.0
 12
253.907624
 22
154.44
 32
0.0
 13
253.891944
 23
154.44
 33
0.0
  0
3DFACE
  8
0
  6
CONTINUOUS
 62
   249
 10
253.907624
 20
155.56
 30
0.0
 11
253.923304
 21
155.56
 31
0.0
 12
253.923304
 22
154.44
 32
0.0
 13
253.907624
 23
154.44
 33
0.0
  0
3DFACE
  8
0
  6
CONTINUOUS
 62
   249
 10
253.923304
 20
155.56
 30
0.0
 11
253.938984
 21
155.56
 31
0.0
 12
253.938984
 22
154.44
 32
0.0
 13
253.923304
 23
154.44
 33
0.0
  0
3DFACE
  8
0
  6
CONTINUOUS
 62
   249
 10
253.938984
 20
155.56
 30
0.0
 11
253.954664
 21
155.56
 31
0.0
 12
253.954664
 22
154.44
 32
0.0
 13
253.938984
 23
154.44
 33
0.0
  0
3DFACE
  8
0
  6
CONTINUOUS
 62
   249
 10
253.954664
 20
155.56
 30
0.0
 11
253.970344
 21
155.56
 31
0.0
 12
253.970344
 22
154.44
 32
0.0
 13
253.954664
 23
154.44
 33
0.0
  0
3DFACE
  8
0
  6
CONTINUOUS
 62
   249
 10
253.970344
 20
155.56
 30
0.0
 11
253.986024
 21
155.56
 31
0.0
 12
253.986024
 22
154.44
 32
0.0
 13
253.970344
 23
154.44
 33
0.0
  0
3DFACE
  8
0
  6
CONTINUOUS
 62
   249
 10
253.986024
 20
155.56
 30
0.0
 11
254.001704
 21
155.56
 31
0.0
 12
254.001704
 22
154.44
 32
0.0
 13
253.986024
 23
154.44
 33
0.0
  0
3DFACE
  8
0
  6
CONTINUOUS
 62
   249
 10
254.001704
 20
155.56
 30
0.0
 11
254.017384
 21
155.56
 31
0.0
 12
254.017384
 22
154.44
 32
0.0
 13
254.001704
 23
154.44
 33
0.0
  0
3DFACE
  8
0
  6
CONTINUOUS
 62
   249
 10
254.017384
 20
155.56
 30
0.0
 11
254.033064
 21
155.56
 31
0.0
 12
254.033064
 22
154.44
 32
0.0
 13
254.017384
 23
154.44
 33
0.0
  0
3DFACE
  8
0
  6
CONTINUOUS
 62
   249
 10
254.033064
 20
155.56
 30
0.0
 11
254.048744
 21
155.56
 31
0.0
 12
254.048744
 22
154.44
 32
0.0
 13
254.033064
 23
154.44
 33
0.0
  0
3DFACE
  8
0
  6
CONTINUOUS
 62
   249
 10
254.048744
 20
155.56
 30
0.0
 11
254.064424
 21
155.56
 31
0.0
 12
254.064424
 22
154.44
 32
0.0
 13
254.048744
 23
154.44
 33
0.0
  0
3DFACE
  8
0
  6
CONTINUOUS
 62
   249
 10
254.064424
 20
155.56
 30
0.0
 11
254.080104
 21
155.56
 31
0.0
 12
254.080104
 22
154.44
 32
0.0
 13
254.064424
 23
154.44
 33
0.0
  0
3DFACE
  8
0
  6
CONTINUOUS
 62
   249
 10
254.080104
 20
155.56
 30
0.0
 11
254.095784
 21
155.56
 31
0.0
 12
254.095784
 22
154.44
 32
0.0
 13
254.080104
 23
154.44
 33
0.0
  0
3DFACE
  8
0
  6
CONTINUOUS
 62
   249
 10
254.095784
 20
155.56
 30
0.0
 11
254.111464
 21
155.56
 31
0.0
 12
254.111464
 22
154.44
 32
0.0
 13
254.095784
 23
154.44
 33
0.0
  0
3DFACE
  8
0
  6
CONTINUOUS
 62
   249
 10
254.111464
 20
155.56
 30
0.0
 11
254.127144
 21
155.56
 31
0.0
 12
254.127144
 22
154.44
 32
0.0
 13
254.111464
 23
154.44
 33
0.0
  0
3DFACE
  8
0
  6
CONTINUOUS
 62
   249
 10
254.127144
 20
155.56
 30
0.0
 11
254.142824
 21
155.56
 31
0.0
 12
254.142824
 22
154.44
 32
0.0
 13
254.127144
 23
154.44
 33
0.0
  0
3DFACE
  8
0
  6
CONTINUOUS
 62
   249
 10
254.142824
 20
155.56
 30
0.0
 11
254.158504
 21
155.56
 31
0.0
 12
254.158504
 22
154.44
 32
0.0
 13
254.142824
 23
154.44
 33
0.0
  0
3DFACE
  8
0
  6
CONTINUOUS
 62
   249
 10
254.158504
 20
155.56
 30
0.0
 11
254.174184
 21
155.56
 31
0.0
 12
254.174184
 22
154.44
 32
0.0
 13
254.158504
 23
154.44
 33
0.0
  0
3DFACE
  8
0
  6
CONTINUOUS
 62
   249
 10
254.174184
 20
155.56
 30
0.0
 11
254.189864
 21
155.56
 31
0.0
 12
254.189864
 22
154.44
 32
0.0
 13
254.174184
 23
154.44
 33
0.0
  0
3DFACE
  8
0
  6
CONTINUOUS
 62
   249
 10
254.189864
 20
155.56
 30
0.0
 11
254.205544
 21
155.56
 31
0.0
 12
254.205544
 22
154.44
 32
0.0
 13
254.189864
 23
154.44
 33
0.0
  0
3DFACE
  8
0
  6
CONTINUOUS
 62
   249
 10
254.205544
 20
155.56
 30
0.0
 11
254.221224
 21
155.56
 31
0.0
 12
254.221224
 22
154.44
 32
0.0
 13
254.205544
 23
154.44
 33
0.0
  0
3DFACE
  8
0
  6
CONTINUOUS
 62
   249
 10
254.221224
 20
155.56
 30
0.0
 11
254.236904
 21
155.56
 31
0.0
 12
254.236904
 22
154.44
 32
0.0
 13
254.221224
 23
154.44
 33
0.0
  0
3DFACE
  8
0
  6
CONTINUOUS
 62
   249
 10
254.236904
 20
155.56
 30
0.0
 11
254.252584
 21
155.56
 31
0.0
 12
254.252584
 22
154.44
 32
0.0
 13
254.236904
 23
154.44
 33
0.0
  0
3DFACE
  8
0
  6
CONTINUOUS
 62
   249
 10
254.252584
 20
155.56
 30
0.0
 11
254.268264
 21
155.56
 31
0.0
 12
254.268264
 22
154.44
 32
0.0
 13
254.252584
 23
154.44
 33
0.0
  0
3DFACE
  8
0
  6
CONTINUOUS
 62
   249
 10
254.268264
 20
155.56
 30
0.0
 11
254.283944
 21
155.56
 31
0.0
 12
254.283944
 22
154.44
 32
0.0
 13
254.268264
 23
154.44
 33
0.0
  0
3DFACE
  8
0
  6
CONTINUOUS
 62
   249
 10
254.283944
 20
155.56
 30
0.0
 11
254.299624
 21
155.56
 31
0.0
 12
254.299624
 22
154.44
 32
0.0
 13
254.283944
 23
154.44
 33
0.0
  0
3DFACE
  8
0
  6
CONTINUOUS
 62
   249
 10
254.299624
 20
155.56
 30
0.0
 11
254.315304
 21
155.56
 31
0.0
 12
254.315304
 22
154.44
 32
0.0
 13
254.299624
 23
154.44
 33
0.0
  0
3DFACE
  8
0
  6
CONTINUOUS
 62
   249
 10
254.315304
 20
155.56
 30
0.0
 11
254.330984
 21
155.56
 31
0.0
 12
254.330984
 22
154.44
 32
0.0
 13
254.315304
 23
154.44
 33
0.0
  0
3DFACE
  8
0
  6
CONTINUOUS
 62
   249
 10
254.330984
 20
155.56
 30
0.0
 11
254.346664
 21
155.56
 31
0.0
 12
254.346664
 22
154.44
 32
0.0
 13
254.330984
 23
154.44
 33
0.0
  0
3DFACE
  8
0
  6
CONTINUOUS
 62
   249
 10
254.346664
 20
155.56
 30
0.0
 11
254.362344
 21
155.56
 31
0.0
 12
254.362344
 22
154.44
 32
0.0
 13
254.346664
 23
154.44
 33
0.0
  0
3DFACE
  8
0
  6
CONTINUOUS
 62
   249
 10
254.362344
 20
155.56
 30
0.0
 11
254.378024
 21
155.56
 31
0.0
 12
254.378024
 22
154.44
 32
0.0
 13
254.362344
 23
154.44
 33
0.0
  0
3DFACE
  8
0
  6
CONTINUOUS
 62
   249
 10
254.378024
 20
155.56
 30
0.0
 11
254.393704
 21
155.56
 31
0.0
 12
254.393704
 22
154.44
 32
0.0
 13
254.378024
 23
154.44
 33
0.0
  0
3DFACE
  8
0
  6
CONTINUOUS
 62
   249
 10
254.393704
 20
155.56
 30
0.0
 11
254.409384
 21
155.56
 31
0.0
 12
254.409384
 22
154.44
 32
0.0
 13
254.393704
 23
154.44
 33
0.0
  0
3DFACE
  8
0
  6
CONTINUOUS
 62
   249
 10
254.409384
 20
155.56
 30
0.0
 11
254.425064
 21
155.56
 31
0.0
 12
254.425064
 22
154.44
 32
0.0
 13
254.409384
 23
154.44
 33
0.0
  0
3DFACE
  8
0
  6
CONTINUOUS
 62
   249
 10
254.425064
 20
155.56
 30
0.0
 11
254.440744
 21
155.56
 31
0.0
 12
254.440744
 22
154.44
 32
0.0
 13
254.425064
 23
154.44
 33
0.0
  0
3DFACE
  8
0
  6
CONTINUOUS
 62
   249
 10
254.440744
 20
155.56
 30
0.0
 11
254.456424
 21
155.56
 31
0.0
 12
254.456424
 22
154.44
 32
0.0
 13
254.440744
 23
154.44
 33
0.0
  0
3DFACE
  8
0
  6
CONTINUOUS
 62
   249
 10
254.456424
 20
155.56
 30
0.0
 11
254.472104
 21
155.56
 31
0.0
 12
254.472104
 22
154.44
 32
0.0
 13
254.456424
 23
154.44
 33
0.0
  0
3DFACE
  8
0
  6
CONTINUOUS
 62
   249
 10
254.472104
 20
155.56
 30
0.0
 11
254.487784
 21
155.56
 31
0.0
 12
254.487784
 22
154.44
 32
0.0
 13
254.472104
 23
154.44
 33
0.0
  0
3DFACE
  8
0
  6
CONTINUOUS
 62
   249
 10
254.487784
 20
155.56
 30
0.0
 11
254.503464
 21
155.56
 31
0.0
 12
254.503464
 22
154.44
 32
0.0
 13
254.487784
 23
154.44
 33
0.0
  0
3DFACE
  8
0
  6
CONTINUOUS
 62
   249
 10
254.503464
 20
155.56
 30
0.0
 11
254.519144
 21
155.56
 31
0.0
 12
254.519144
 22
154.44
 32
0.0
 13
254.503464
 23
154.44
 33
0.0
  0
3DFACE
  8
0
  6
CONTINUOUS
 62
   249
 10
254.519144
 20
155.56
 30
0.0
 11
254.534824
 21
155.56
 31
0.0
 12
254.534824
 22
154.44
 32
0.0
 13
254.519144
 23
154.44
 33
0.0
  0
3DFACE
  8
0
  6
CONTINUOUS
 62
   249
 10
254.534824
 20
155.56
 30
0.0
 11
254.550504
 21
155.56
 31
0.0
 12
254.550504
 22
154.44
 32
0.0
 13
254.534824
 23
154.44
 33
0.0
  0
3DFACE
  8
0
  6
CONTINUOUS
 62
   249
 10
254.550504
 20
155.56
 30
0.0
 11
254.566184
 21
155.56
 31
0.0
 12
254.566184
 22
154.44
 32
0.0
 13
254.550504
 23
154.44
 33
0.0
  0
3DFACE
  8
0
  6
CONTINUOUS
 62
   249
 10
254.566184
 20
155.56
 30
0.0
 11
254.581864
 21
155.56
 31
0.0
 12
254.581864
 22
154.44
 32
0.0
 13
254.566184
 23
154.44
 33
0.0
  0
3DFACE
  8
0
  6
CONTINUOUS
 62
   249
 10
254.581864
 20
155.56
 30
0.0
 11
254.597544
 21
155.56
 31
0.0
 12
254.597544
 22
154.44
 32
0.0
 13
254.581864
 23
154.44
 33
0.0
  0
3DFACE
  8
0
  6
CONTINUOUS
 62
   249
 10
254.597544
 20
155.56
 30
0.0
 11
254.613224
 21
155.56
 31
0.0
 12
254.613224
 22
154.44
 32
0.0
 13
254.597544
 23
154.44
 33
0.0
  0
3DFACE
  8
0
  6
CONTINUOUS
 62
   249
 10
254.613224
 20
155.56
 30
0.0
 11
254.628904
 21
155.56
 31
0.0
 12
254.628904
 22
154.44
 32
0.0
 13
254.613224
 23
154.44
 33
0.0
  0
3DFACE
  8
0
  6
CONTINUOUS
 62
   249
 10
254.628904
 20
155.56
 30
0.0
 11
254.644584
 21
155.56
 31
0.0
 12
254.644584
 22
154.44
 32
0.0
 13
254.628904
 23
154.44
 33
0.0
  0
3DFACE
  8
0
  6
CONTINUOUS
 62
   249
 10
254.644584
 20
155.56
 30
0.0
 11
254.660264
 21
155.56
 31
0.0
 12
254.660264
 22
154.44
 32
0.0
 13
254.644584
 23
154.44
 33
0.0
  0
3DFACE
  8
0
  6
CONTINUOUS
 62
   249
 10
254.660264
 20
155.56
 30
0.0
 11
254.675944
 21
155.56
 31
0.0
 12
254.675944
 22
154.44
 32
0.0
 13
254.660264
 23
154.44
 33
0.0
  0
3DFACE
  8
0
  6
CONTINUOUS
 62
   249
 10
254.675944
 20
155.56
 30
0.0
 11
254.691624
 21
155.56
 31
0.0
 12
254.691624
 22
154.44
 32
0.0
 13
254.675944
 23
154.44
 33
0.0
  0
3DFACE
  8
0
  6
CONTINUOUS
 62
   249
 10
254.691624
 20
155.56
 30
0.0
 11
254.707304
 21
155.56
 31
0.0
 12
254.707304
 22
154.44
 32
0.0
 13
254.691624
 23
154.44
 33
0.0
  0
3DFACE
  8
0
  6
CONTINUOUS
 62
   249
 10
254.707304
 20
155.56
 30
0.0
 11
254.722984
 21
155.56
 31
0.0
 12
254.722984
 22
154.44
 32
0.0
 13
254.707304
 23
154.44
 33
0.0
  0
3DFACE
  8
0
  6
CONTINUOUS
 62
   249
 10
254.722984
 20
155.56
 30
0.0
 11
254.738664
 21
155.56
 31
0.0
 12
254.738664
 22
154.44
 32
0.0
 13
254.722984
 23
154.44
 33
0.0
  0
3DFACE
  8
0
  6
CONTINUOUS
 62
   249
 10
254.738664
 20
155.56
 30
0.0
 11
254.754344
 21
155.56
 31
0.0
 12
254.754344
 22
154.44
 32
0.0
 13
254.738664
 23
154.44
 33
0.0
  0
3DFACE
  8
0
  6
CONTINUOUS
 62
   249
 10
254.754344
 20
155.56
 30
0.0
 11
254.770024
 21
155.56
 31
0.0
 12
254.770024
 22
154.44
 32
0.0
 13
254.754344
 23
154.44
 33
0.0
  0
3DFACE
  8
0
  6
CONTINUOUS
 62
   249
 10
254.770024
 20
155.56
 30
0.0
 11
254.785704
 21
155.56
 31
0.0
 12
254.785704
 22
154.44
 32
0.0
 13
254.770024
 23
154.44
 33
0.0
  0
3DFACE
  8
0
  6
CONTINUOUS
 62
   249
 10
254.785704
 20
155.56
 30
0.0
 11
254.801384
 21
155.56
 31
0.0
 12
254.801384
 22
154.44
 32
0.0
 13
254.785704
 23
154.44
 33
0.0
  0
3DFACE
  8
0
  6
CONTINUOUS
 62
   249
 10
254.801384
 20
155.56
 30
0.0
 11
254.817064
 21
155.56
 31
0.0
 12
254.817064
 22
154.44
 32
0.0
 13
254.801384
 23
154.44
 33
0.0
  0
3DFACE
  8
0
  6
CONTINUOUS
 62
   249
 10
254.817064
 20
155.56
 30
0.0
 11
254.832744
 21
155.56
 31
0.0
 12
254.832744
 22
154.44
 32
0.0
 13
254.817064
 23
154.44
 33
0.0
  0
3DFACE
  8
0
  6
CONTINUOUS
 62
   249
 10
254.832744
 20
155.56
 30
0.0
 11
254.848424
 21
155.56
 31
0.0
 12
254.848424
 22
154.44
 32
0.0
 13
254.832744
 23
154.44
 33
0.0
  0
3DFACE
  8
0
  6
CONTINUOUS
 62
   249
 10
254.848424
 20
155.56
 30
0.0
 11
254.864104
 21
155.56
 31
0.0
 12
254.864104
 22
154.44
 32
0.0
 13
254.848424
 23
154.44
 33
0.0
  0
3DFACE
  8
0
  6
CONTINUOUS
 62
   249
 10
254.864104
 20
155.56
 30
0.0
 11
254.879784
 21
155.56
 31
0.0
 12
254.879784
 22
154.44
 32
0.0
 13
254.864104
 23
154.44
 33
0.0
  0
3DFACE
  8
0
  6
CONTINUOUS
 62
   249
 10
254.879784
 20
155.56
 30
0.0
 11
254.895464
 21
155.56
 31
0.0
 12
254.895464
 22
154.44
 32
0.0
 13
254.879784
 23
154.44
 33
0.0
  0
3DFACE
  8
0
  6
CONTINUOUS
 62
   249
 10
254.895464
 20
155.56
 30
0.0
 11
254.911144
 21
155.56
 31
0.0
 12
254.911144
 22
154.44
 32
0.0
 13
254.895464
 23
154.44
 33
0.0
  0
3DFACE
  8
0
  6
CONTINUOUS
 62
   249
 10
254.911144
 20
155.56
 30
0.0
 11
254.926824
 21
155.56
 31
0.0
 12
254.926824
 22
154.44
 32
0.0
 13
254.911144
 23
154.44
 33
0.0
  0
3DFACE
  8
0
  6
CONTINUOUS
 62
   249
 10
254.926824
 20
155.56
 30
0.0
 11
254.942504
 21
155.56
 31
0.0
 12
254.942504
 22
154.44
 32
0.0
 13
254.926824
 23
154.44
 33
0.0
  0
3DFACE
  8
0
  6
CONTINUOUS
 62
   249
 10
254.942504
 20
155.56
 30
0.0
 11
254.958184
 21
155.56
 31
0.0
 12
254.958184
 22
154.44
 32
0.0
 13
254.942504
 23
154.44
 33
0.0
  0
3DFACE
  8
0
  6
CONTINUOUS
 62
   249
 10
254.958184
 20
155.56
 30
0.0
 11
254.973864
 21
155.56
 31
0.0
 12
254.973864
 22
154.44
 32
0.0
 13
254.958184
 23
154.44
 33
0.0
  0
3DFACE
  8
0
  6
CONTINUOUS
 62
   249
 10
254.973864
 20
155.56
 30
0.0
 11
254.989544
 21
155.56
 31
0.0
 12
254.989544
 22
154.44
 32
0.0
 13
254.973864
 23
154.44
 33
0.0
  0
3DFACE
  8
0
  6
CONTINUOUS
 62
   249
 10
254.989544
 20
155.56
 30
0.0
 11
255.005224
 21
155.56
 31
0.0
 12
255.005224
 22
154.44
 32
0.0
 13
254.989544
 23
154.44
 33
0.0
  0
3DFACE
  8
0
  6
CONTINUOUS
 62
   249
 10
255.005224
 20
155.56
 30
0.0
 11
255.020904
 21
155.56
 31
0.0
 12
255.020904
 22
154.44
 32
0.0
 13
255.005224
 23
154.44
 33
0.0
  0
3DFACE
  8
0
  6
CONTINUOUS
 62
   249
 10
255.020904
 20
155.56
 30
0.0
 11
255.036584
 21
155.56
 31
0.0
 12
255.036584
 22
154.44
 32
0.0
 13
255.020904
 23
154.44
 33
0.0
  0
3DFACE
  8
0
  6
CONTINUOUS
 62
   249
 10
255.036584
 20
155.56
 30
0.0
 11
255.052264
 21
155.56
 31
0.0
 12
255.052264
 22
154.44
 32
0.0
 13
255.036584
 23
154.44
 33
0.0
  0
3DFACE
  8
0
  6
CONTINUOUS
 62
   249
 10
255.052264
 20
155.56
 30
0.0
 11
255.067944
 21
155.56
 31
0.0
 12
255.067944
 22
154.44
 32
0.0
 13
255.052264
 23
154.44
 33
0.0
  0
3DFACE
  8
0
  6
CONTINUOUS
 62
   249
 10
255.067944
 20
155.56
 30
0.0
 11
255.083624
 21
155.56
 31
0.0
 12
255.083624
 22
154.44
 32
0.0
 13
255.067944
 23
154.44
 33
0.0
  0
3DFACE
  8
0
  6
CONTINUOUS
 62
   249
 10
255.083624
 20
155.56
 30
0.0
 11
255.099304
 21
155.56
 31
0.0
 12
255.099304
 22
154.44
 32
0.0
 13
255.083624
 23
154.44
 33
0.0
  0
3DFACE
  8
0
  6
CONTINUOUS
 62
   249
 10
255.099304
 20
155.56
 30
0.0
 11
255.114984
 21
155.56
 31
0.0
 12
255.114984
 22
154.44
 32
0.0
 13
255.099304
 23
154.44
 33
0.0
  0
3DFACE
  8
0
  6
CONTINUOUS
 62
   249
 10
255.114984
 20
155.56
 30
0.0
 11
255.130664
 21
155.56
 31
0.0
 12
255.130664
 22
154.44
 32
0.0
 13
255.114984
 23
154.44
 33
0.0
  0
3DFACE
  8
0
  6
CONTINUOUS
 62
   249
 10
255.130664
 20
155.56
 30
0.0
 11
255.146344
 21
155.56
 31
0.0
 12
255.146344
 22
154.44
 32
0.0
 13
255.130664
 23
154.44
 33
0.0
  0
3DFACE
  8
0
  6
CONTINUOUS
 62
   249
 10
255.146344
 20
155.56
 30
0.0
 11
255.162024
 21
155.56
 31
0.0
 12
255.162024
 22
154.44
 32
0.0
 13
255.146344
 23
154.44
 33
0.0
  0
3DFACE
  8
0
  6
CONTINUOUS
 62
   249
 10
255.162024
 20
155.56
 30
0.0
 11
255.177704
 21
155.56
 31
0.0
 12
255.177704
 22
154.44
 32
0.0
 13
255.162024
 23
154.44
 33
0.0
  0
3DFACE
  8
0
  6
CONTINUOUS
 62
   249
 10
255.177704
 20
155.56
 30
0.0
 11
255.193384
 21
155.56
 31
0.0
 12
255.193384
 22
154.44
 32
0.0
 13
255.177704
 23
154.44
 33
0.0
  0
3DFACE
  8
0
  6
CONTINUOUS
 62
   249
 10
255.193384
 20
155.56
 30
0.0
 11
255.209064
 21
155.56
 31
0.0
 12
255.209064
 22
154.44
 32
0.0
 13
255.193384
 23
154.44
 33
0.0
  0
3DFACE
  8
0
  6
CONTINUOUS
 62
   249
 10
255.209064
 20
155.56
 30
0.0
 11
255.224744
 21
155.56
 31
0.0
 12
255.224744
 22
154.44
 32
0.0
 13
255.209064
 23
154.44
 33
0.0
  0
3DFACE
  8
0
  6
CONTINUOUS
 62
   249
 10
255.224744
 20
155.56
 30
0.0
 11
255.240424
 21
155.56
 31
0.0
 12
255.240424
 22
154.44
 32
0.0
 13
255.224744
 23
154.44
 33
0.0
  0
3DFACE
  8
0
  6
CONTINUOUS
 62
   249
 10
255.240424
 20
155.56
 30
0.0
 11
255.256104
 21
155.56
 31
0.0
 12
255.256104
 22
154.44
 32
0.0
 13
255.240424
 23
154.44
 33
0.0
  0
3DFACE
  8
0
  6
CONTINUOUS
 62
   249
 10
255.256104
 20
155.56
 30
0.0
 11
255.271784
 21
155.56
 31
0.0
 12
255.271784
 22
154.44
 32
0.0
 13
255.256104
 23
154.44
 33
0.0
  0
3DFACE
  8
0
  6
CONTINUOUS
 62
   249
 10
255.271784
 20
155.56
 30
0.0
 11
255.287464
 21
155.56
 31
0.0
 12
255.287464
 22
154.44
 32
0.0
 13
255.271784
 23
154.44
 33
0.0
  0
3DFACE
  8
0
  6
CONTINUOUS
 62
   249
 10
255.287464
 20
155.56
 30
0.0
 11
255.303144
 21
155.56
 31
0.0
 12
255.303144
 22
154.44
 32
0.0
 13
255.287464
 23
154.44
 33
0.0
  0
3DFACE
  8
0
  6
CONTINUOUS
 62
   249
 10
255.303144
 20
155.56
 30
0.0
 11
255.318824
 21
155.56
 31
0.0
 12
255.318824
 22
154.44
 32
0.0
 13
255.303144
 23
154.44
 33
0.0
  0
3DFACE
  8
0
  6
CONTINUOUS
 62
   249
 10
255.318824
 20
155.56
 30
0.0
 11
255.334504
 21
155.56
 31
0.0
 12
255.334504
 22
154.44
 32
0.0
 13
255.318824
 23
154.44
 33
0.0
  0
3DFACE
  8
0
  6
CONTINUOUS
 62
   249
 10
255.334504
 20
155.56
 30
0.0
 11
255.350184
 21
155.56
 31
0.0
 12
255.350184
 22
154.44
 32
0.0
 13
255.334504
 23
154.44
 33
0.0
  0
3DFACE
  8
0
  6
CONTINUOUS
 62
   249
 10
255.350184
 20
155.56
 30
0.0
 11
255.365864
 21
155.56
 31
0.0
 12
255.365864
 22
154.44
 32
0.0
 13
255.350184
 23
154.44
 33
0.0
  0
3DFACE
  8
0
  6
CONTINUOUS
 62
   249
 10
255.365864
 20
155.56
 30
0.0
 11
255.381544
 21
155.56
 31
0.0
 12
255.381544
 22
154.44
 32
0.0
 13
255.365864
 23
154.44
 33
0.0
  0
3DFACE
  8
0
  6
CONTINUOUS
 62
   249
 10
255.381544
 20
155.56
 30
0.0
 11
255.397224
 21
155.56
 31
0.0
 12
255.397224
 22
154.44
 32
0.0
 13
255.381544
 23
154.44
 33
0.0
  0
3DFACE
  8
0
  6
CONTINUOUS
 62
   249
 10
255.397224
 20
155.56
 30
0.0
 11
255.412904
 21
155.56
 31
0.0
 12
255.412904
 22
154.44
 32
0.0
 13
255.397224
 23
154.44
 33
0.0
  0
3DFACE
  8
0
  6
CONTINUOUS
 62
   249
 10
255.412904
 20
155.56
 30
0.0
 11
255.428584
 21
155.56
 31
0.0
 12
255.428584
 22
154.44
 32
0.0
 13
255.412904
 23
154.44
 33
0.0
  0
3DFACE
  8
0
  6
CONTINUOUS
 62
   249
 10
255.428584
 20
155.56
 30
0.0
 11
255.444264
 21
155.56
 31
0.0
 12
255.444264
 22
154.44
 32
0.0
 13
255.428584
 23
154.44
 33
0.0
  0
3DFACE
  8
0
  6
CONTINUOUS
 62
   249
 10
255.444264
 20
155.56
 30
0.0
 11
255.459944
 21
155.56
 31
0.0
 12
255.459944
 22
154.44
 32
0.0
 13
255.444264
 23
154.44
 33
0.0
  0
3DFACE
  8
0
  6
CONTINUOUS
 62
   249
 10
255.459944
 20
155.56
 30
0.0
 11
255.475624
 21
155.56
 31
0.0
 12
255.475624
 22
154.44
 32
0.0
 13
255.459944
 23
154.44
 33
0.0
  0
3DFACE
  8
0
  6
CONTINUOUS
 62
   249
 10
255.475624
 20
155.56
 30
0.0
 11
255.491304
 21
155.56
 31
0.0
 12
255.491304
 22
154.44
 32
0.0
 13
255.475624
 23
154.44
 33
0.0
  0
3DFACE
  8
0
  6
CONTINUOUS
 62
   249
 10
255.491304
 20
155.56
 30
0.0
 11
255.506984
 21
155.56
 31
0.0
 12
255.506984
 22
154.44
 32
0.0
 13
255.491304
 23
154.44
 33
0.0
  0
3DFACE
  8
0
  6
CONTINUOUS
 62
   249
 10
255.506984
 20
155.56
 30
0.0
 11
255.522664
 21
155.56
 31
0.0
 12
255.522664
 22
154.44
 32
0.0
 13
255.506984
 23
154.44
 33
0.0
  0
3DFACE
  8
0
  6
CONTINUOUS
 62
   249
 10
255.522664
 20
155.56
 30
0.0
 11
255.538344
 21
155.56
 31
0.0
 12
255.538344
 22
154.44
 32
0.0
 13
255.522664
 23
154.44
 33
0.0
  0
3DFACE
  8
0
  6
CONTINUOUS
 62
   249
 10
255.538344
 20
155.56
 30
0.0
 11
255.554024
 21
155.56
 31
0.0
 12
255.554024
 22
154.44
 32
0.0
 13
255.538344
 23
154.44
 33
0.0
  0
LINE
  8
0
  6
CONTINUOUS
 62
   249
 10
213.680055
 20
207.36287
 30
0.0
 11
213.680055
 21
206.0086
 31
0.0
  0
LINE
  8
0
  6
CONTINUOUS
 62
   249
 10
212.469827
 20
206.0086
 30
0.0
 11
213.664168
 21
206.0086
 31
0.0
  0
LINE
  8
0
  6
CONTINUOUS
 62
   249
 10
213.664168
 20
206.0086
 30
0.0
 11
214.858509
 21
206.0086
 31
0.0
  0
LINE
  8
0
  6
CONTINUOUS
 62
   249
 10
212.848232
 20
205.52899
 30
0.0
 11
214.432803
 21
205.52899
 31
0.0
  0
LINE
  8
0
  6
CONTINUOUS
 62
   249
 10
213.179337
 20
205.040815
 30
0.0
 11
214.066224
 21
205.040815
 31
0.0
  0
LINE
  8
0
  6
CONTINUOUS
 62
   249
 10
231.095766
 20
188.664646
 30
0.0
 11
228.75
 21
190.0
 31
0.0
  0
LINE
  8
0
  6
CONTINUOUS
 62
   249
 10
228.75
 20
190.0
 30
0.0
 11
231.095766
 21
191.189919
 31
0.0
  0
LINE
  8
0
  6
CONTINUOUS
 62
   249
 10
225.965688
 20
218.664635
 30
0.0
 11
223.619923
 21
219.999989
 31
0.0
  0
LINE
  8
0
  6
CONTINUOUS
 62
   249
 10
223.619923
 20
219.999989
 30
0.0
 11
225.965688
 21
221.189908
 31
0.0
  0
LINE
  8
0
  6
CONTINUOUS
 62
   249
 10
351.876632
 20
225.446293
 30
0.0
 11
351.876632
 21
224.092023
 31
0.0
  0
LINE
  8
0
  6
CONTINUOUS
 62
   249
 10
350.666405
 20
224.092023
 30
0.0
 11
351.860746
 21
224.092023
 31
0.0
  0
LINE
  8
0
  6
CONTINUOUS
 62
   249
 10
351.860746
 20
224.092023
 30
0.0
 11
353.055087
 21
224.092023
 31
0.0
  0
LINE
  8
0
  6
CONTINUOUS
 62
   249
 10
351.04481
 20
223.612412
 30
0.0
 11
352.629381
 21
223.612412
 31
0.0
  0
LINE
  8
0
  6
CONTINUOUS
 62
   249
 10
351.375914
 20
223.124238
 30
0.0
 11
352.262801
 21
223.124238
 31
0.0
  0
ENDSEC
  0
EOF
