  0
SECTION
  2
HEADER
  9
$ACADVER
  1
AC1009
  9
$INSBASE
 10
0.0
 20
0.0
 30
0.0
  9
$EXTMIN
 10
0.0
 20
0.579152
 30
0.0
  9
$EXTMAX
 10
392.579461
 20
263.079152
 30
0.0
  9
$LIMMIN
 10
0.0
 20
0.0
  9
$LIMMAX
 10
12.0
 20
9.0
  9
$ORTHOMODE
 70
     1
  9
$REGENMODE
 70
     1
  9
$FILLMODE
 70
     1
  9
$QTEXTMODE
 70
     0
  9
$MIRRTEXT
 70
     1
  9
$DRAGMODE
 70
     2
  9
$LTSCALE
 40
5.0
  9
$OSMODE
 70
     0
  9
$ATTMODE
 70
     1
  9
$TEXTSIZE
 40
2.0
  9
$TRACEWID
 40
0.05
  9
$TEXTSTYLE
  7
ROMANS
  9
$CLAYER
  8
0
  9
$CELTYPE
  6
CONTINUOUS
  9
$CECOLOR
 62
   256
  9
$DIMSCALE
 40
1.0
  9
$DIMASZ
 40
0.18
  9
$DIMEXO
 40
0.0625
  9
$DIMDLI
 40
0.38
  9
$DIMRND
 40
0.0
  9
$DIMDLE
 40
0.0
  9
$DIMEXE
 40
0.18
  9
$DIMTP
 40
0.0
  9
$DIMTM
 40
0.0
  9
$DIMTXT
 40
0.18
  9
$DIMCEN
 40
0.09
  9
$DIMTSZ
 40
0.0
  9
$DIMTOL
 70
     0
  9
$DIMLIM
 70
     0
  9
$DIMTIH
 70
     1
  9
$DIMTOH
 70
     1
  9
$DIMSE1
 70
     0
  9
$DIMSE2
 70
     0
  9
$DIMTAD
 70
     0
  9
$DIMZIN
 70
     0
  9
$DIMBLK
  1

  9
$DIMASO
 70
     1
  9
$DIMSHO
 70
     1
  9
$DIMPOST
  1

  9
$DIMAPOST
  1

  9
$DIMALT
 70
     0
  9
$DIMALTD
 70
     2
  9
$DIMALTF
 40
25.4
  9
$DIMLFAC
 40
1.0
  9
$DIMTOFL
 70
     0
  9
$DIMTVP
 40
0.0
  9
$DIMTIX
 70
     0
  9
$DIMSOXD
 70
     0
  9
$DIMSAH
 70
     0
  9
$DIMBLK1
  1

  9
$DIMBLK2
  1

  9
$DIMSTYLE
  2
*UNNAMED
  9
$DIMCLRD
 70
     0
  9
$DIMCLRE
 70
     0
  9
$DIMCLRT
 70
     0
  9
$DIMTFAC
 40
1.0
  9
$DIMGAP
 40
0.09
  9
$LUNITS
 70
     2
  9
$LUPREC
 70
     4
  9
$SKETCHINC
 40
0.1
  9
$FILLETRAD
 40
0.0
  9
$AUNITS
 70
     0
  9
$AUPREC
 70
     0
  9
$MENU
  1
acad
  9
$ELEVATION
 40
0.0
  9
$PELEVATION
 40
0.0
  9
$THICKNESS
 40
0.0
  9
$LIMCHECK
 70
     0
  9
$BLIPMODE
 70
     1
  9
$CHAMFERA
 40
0.0
  9
$CHAMFERB
 40
0.0
  9
$SKPOLY
 70
     0
  9
$TDCREATE
 40
2448868.665611690
  9
$TDUPDATE
 40
2449105.312733217
  9
$TDINDWG
 40
0.0311982639
  9
$TDUSRTIMER
 40
0.0311982639
  9
$USRTIMER
 70
     1
  9
$ANGBASE
 50
0.0
  9
$ANGDIR
 70
     0
  9
$PDMODE
 70
     0
  9
$PDSIZE
 40
0.0
  9
$PLINEWID
 40
0.0
  9
$COORDS
 70
     2
  9
$SPLFRAME
 70
     0
  9
$SPLINETYPE
 70
     6
  9
$SPLINESEGS
 70
     8
  9
$ATTDIA
 70
     0
  9
$ATTREQ
 70
     1
  9
$HANDLING
 70
     0
  9
$HANDSEED
  5
0
  9
$SURFTAB1
 70
   250
  9
$SURFTAB2
 70
   250
  9
$SURFTYPE
 70
     6
  9
$SURFU
 70
     6
  9
$SURFV
 70
     6
  9
$UCSNAME
  2

  9
$UCSORG
 10
0.0
 20
0.0
 30
0.0
  9
$UCSXDIR
 10
1.0
 20
0.0
 30
0.0
  9
$UCSYDIR
 10
0.0
 20
1.0
 30
0.0
  9
$PUCSNAME
  2

  9
$PUCSORG
 10
0.0
 20
0.0
 30
0.0
  9
$PUCSXDIR
 10
1.0
 20
0.0
 30
0.0
  9
$PUCSYDIR
 10
0.0
 20
1.0
 30
0.0
  9
$USERI1
 70
     0
  9
$USERI2
 70
     0
  9
$USERI3
 70
     0
  9
$USERI4
 70
     0
  9
$USERI5
 70
     0
  9
$USERR1
 40
0.0
  9
$USERR2
 40
0.0
  9
$USERR3
 40
0.0
  9
$USERR4
 40
0.0
  9
$USERR5
 40
0.0
  9
$WORLDVIEW
 70
     1
  9
$SHADEDGE
 70
     3
  9
$SHADEDIF
 70
    70
  9
$TILEMODE
 70
     1
  9
$MAXACTVP
 70
    16
  9
$PINSBASE
 10
0.0
 20
0.0
 30
0.0
  9
$PLIMCHECK
 70
     0
  9
$PEXTMIN
 10
1.000000E+20
 20
1.000000E+20
 30
1.000000E+20
  9
$PEXTMAX
 10
-1.000000E+20
 20
-1.000000E+20
 30
-1.000000E+20
  9
$PLIMMIN
 10
0.0
 20
0.0
  9
$PLIMMAX
 10
12.0
 20
9.0
  9
$UNITMODE
 70
     0
  9
$VISRETAIN
 70
     0
  9
$PLINEGEN
 70
     0
  9
$PSLTSCALE
 70
     0
  9
$TREEDEPTH
 70
  3020
  9
$DWGCODEPAGE
  3
undefined
  0
ENDSEC
  0
SECTION
  2
TABLES
  0
TABLE
  2
VPORT
 70
     2
  0
VPORT
  2
*ACTIVE
 70
     0
 10
0.0
 20
0.0
 11
1.0
 21
1.0
 12
222.717071
 22
142.164464
 13
0.0
 23
0.0
 14
2.5
 24
2.5
 15
0.0
 25
0.0
 16
0.0
 26
0.0
 36
1.0
 17
0.0
 27
0.0
 37
0.0
 40
284.328929
 41
1.566616
 42
50.0
 43
0.0
 44
0.0
 50
0.0
 51
0.0
 71
     0
 72
   100
 73
     1
 74
     1
 75
     1
 76
     0
 77
     0
 78
     0
  0
ENDTAB
  0
TABLE
  2
LTYPE
 70
     7
  0
LTYPE
  2
CONTINUOUS
 70
    64
  3
Solid line
 72
    65
 73
     0
 40
0.0
  0
LTYPE
  2
DASHED
 70
    64
  3
__ __ __ __ __ __ __ __ __ __ __ __ __ __ __ __
 72
    65
 73
     2
 40
0.75
 49
0.5
 49
-0.25
  0
LTYPE
  2
CENTER
 70
    64
  3
____ _ ____ _ ____ _ ____ _ ____ _ ____ _ ____ 
 72
    65
 73
     4
 40
2.0
 49
1.25
 49
-0.25
 49
0.25
 49
-0.25
  0
LTYPE
  2
HIDDEN
 70
    64
  3
__ __ __ __ __ __ __ __ __ __ __ __ __ __ __ __
 72
    65
 73
     2
 40
0.375
 49
0.25
 49
-0.125
  0
LTYPE
  2
DOT
 70
     0
  3
. . . . . . . . . . . . . . . . . . . . . . . .
 72
    65
 73
     2
 40
0.25
 49
0.0
 49
-0.25
  0
LTYPE
  2
DASHDOT
 70
     0
  3
__ . __ . __ . __ . __ . __ . __ . __ . __ . __
 72
    65
 73
     4
 40
1.0
 49
0.5
 49
-0.25
 49
0.0
 49
-0.25
  0
LTYPE
  2
PHANTOM
 70
     0
  3
______  __  __  ______  __  __  ______  __  __ 
 72
    65
 73
     6
 40
2.5
 49
1.25
 49
-0.25
 49
0.25
 49
-0.25
 49
0.25
 49
-0.25
  0
ENDTAB
  0
TABLE
  2
LAYER
 70
    13
  0
LAYER
  2
0
 70
    64
 62
     7
  6
CONTINUOUS
  0
LAYER
  2
RAAMI
 70
    64
 62
    -4
  6
CONTINUOUS
  0
LAYER
  2
PAKSU
 70
    64
 62
    -3
  6
CONTINUOUS
  0
LAYER
  2
OHUT
 70
    64
 62
    -6
  6
CONTINUOUS
  0
LAYER
  2
SWEDEN
 70
    64
 62
    -7
  6
CONTINUOUS
  0
LAYER
  2
SWEDEN2
 70
    64
 62
    -5
  6
CONTINUOUS
  0
LAYER
  2
BASE
 70
    64
 62
    -7
  6
CONTINUOUS
  0
LAYER
  2
21
 70
    64
 62
    -2
  6
CONTINUOUS
  0
LAYER
  2
HEL035
 70
    64
 62
    -7
  6
CONTINUOUS
  0
LAYER
  2
MUO
 70
    64
 62
    -7
  6
CONTINUOUS
  0
LAYER
  2
1
 70
    64
 62
    -2
  6
CONTINUOUS
  0
LAYER
  2
BASE1
 70
    64
 62
    -1
  6
CONTINUOUS
  0
LAYER
  2
TEKS
 70
    64
 62
    -5
  6
CONTINUOUS
  0
ENDTAB
  0
TABLE
  2
STYLE
 70
     6
  0
STYLE
  2
STANDARD
 70
    64
 40
0.0
 41
1.0
 50
0.0
 71
     0
 42
2.5
  3
txt
  4

  0
STYLE
  2
ROMANS
 70
    64
 40
0.0
 41
1.0
 50
0.0
 71
     0
 42
2.0
  3
romans
  4

  0
STYLE
  2
GREEKC
 70
     0
 40
0.0
 41
1.0
 50
0.0
 71
     0
 42
1.5
  3
GREEKC
  4

  0
STYLE
  2
GREEKS
 70
    64
 40
0.0
 41
1.0
 50
0.0
 71
     0
 42
2.0
  3
TXT
  4

  0
STYLE
  2
MONOTXT
 70
     0
 40
0.0
 41
1.0
 50
0.0
 71
     0
 42
2.0
  3
monotxt
  4

  0
STYLE
  2
ROMANT
 70
     0
 40
0.0
 41
1.0
 50
0.0
 71
     0
 42
2.5
  3
romant
  4

  0
ENDTAB
  0
TABLE
  2
VIEW
 70
     0
  0
ENDTAB
  0
TABLE
  2
UCS
 70
     0
  0
ENDTAB
  0
TABLE
  2
APPID
 70
     1
  0
APPID
  2
ACAD
 70
    64
  0
ENDTAB
  0
TABLE
  2
DIMSTYLE
 70
     0
  0
ENDTAB
  0
ENDSEC
  0
SECTION
  2
BLOCKS
  0
BLOCK
  8
0
  2
1
 70
    64
 10
0.0
 20
0.0
 30
0.0
  3
1
  0
ENDBLK
  8
0
  0
BLOCK
  8
0
  2
BLC16
 70
     0
 10
0.0
 20
0.0
 30
0.0
  3
BLC16
  0
LINE
  8
0
  6
CONTINUOUS
 10
0.007689
 20
38.054928
 30
0.0
 11
19.983683
 21
38.054928
 31
0.0
  0
LINE
  8
0
  6
CONTINUOUS
 10
19.983683
 20
38.054928
 30
0.0
 11
19.983683
 21
-0.003751
 31
0.0
  0
LINE
  8
0
  6
CONTINUOUS
 10
19.983683
 20
-0.003751
 30
0.0
 11
0.007689
 21
-0.003751
 31
0.0
  0
LINE
  8
0
  6
CONTINUOUS
 10
0.007689
 20
-0.003751
 30
0.0
 11
0.007689
 21
38.054928
 31
0.0
  0
LINE
  8
0
  6
CONTINUOUS
 10
14.152643
 20
36.919738
 30
0.0
 11
14.152643
 21
33.528469
 31
0.0
  0
LINE
  8
0
  6
CONTINUOUS
 10
14.152643
 20
33.528469
 30
0.0
 11
11.560435
 21
33.528469
 31
0.0
  0
LINE
  8
0
  6
CONTINUOUS
 10
11.560435
 20
33.528469
 30
0.0
 11
11.560435
 21
30.778433
 31
0.0
  0
LINE
  8
0
  6
CONTINUOUS
 10
11.560435
 20
30.778433
 30
0.0
 11
14.152643
 21
30.778433
 31
0.0
  0
LINE
  8
0
  6
CONTINUOUS
 10
14.152643
 20
30.778433
 30
0.0
 11
14.152643
 21
27.387164
 31
0.0
  0
TEXT
  8
0
  6
CONTINUOUS
 10
6.558569
 20
30.805266
 30
0.0
 40
2.5
  1
2
 11
6.558569
 21
29.971932
 31
0.0
 73
     1
  0
TEXT
  8
0
  6
CONTINUOUS
 10
6.553289
 20
23.854078
 30
0.0
 40
2.5
  1
2 I
 11
6.553289
 21
23.020744
 31
0.0
 73
     1
  0
LINE
  8
0
  6
CONTINUOUS
 10
12.942534
 20
26.359129
 30
0.0
 11
15.288299
 21
25.023775
 31
0.0
  0
LINE
  8
0
  6
CONTINUOUS
 10
15.288299
 20
25.023775
 30
0.0
 11
12.942534
 21
23.833856
 31
0.0
  0
LINE
  8
0
  6
CONTINUOUS
 10
14.169823
 20
26.359129
 30
0.0
 11
16.515589
 21
25.023775
 31
0.0
  0
LINE
  8
0
  6
CONTINUOUS
 10
16.515589
 20
25.023775
 30
0.0
 11
14.169823
 21
23.833856
 31
0.0
  0
TEXT
  8
0
  6
CONTINUOUS
 10
11.566446
 20
19.235679
 30
0.0
 40
2.5
  1
I
 11
11.566446
 21
18.402346
 31
0.0
 73
     1
  0
TEXT
  8
0
  6
CONTINUOUS
 10
13.018181
 20
18.902346
 30
0.0
 40
1.5
  1
2
 11
13.018181
 21
18.402346
 31
0.0
 73
     1
  0
LINE
  8
0
  6
CONTINUOUS
 10
10.65733
 20
12.773825
 30
0.0
 11
13.003095
 21
13.963744
 31
0.0
  0
LINE
  8
0
  6
CONTINUOUS
 10
13.003095
 20
11.438471
 30
0.0
 11
10.65733
 21
12.773825
 31
0.0
  0
LINE
  8
0
  6
CONTINUOUS
 10
6.557002
 20
16.714658
 30
0.0
 11
15.281743
 21
16.714658
 31
0.0
  0
LINE
  8
0
  6
CONTINUOUS
 10
6.557002
 20
17.523984
 30
0.0
 11
6.557002
 21
15.908791
 31
0.0
  0
LINE
  8
0
  6
CONTINUOUS
 10
15.286518
 20
17.523984
 30
0.0
 11
15.286518
 21
15.908791
 31
0.0
  0
ARC
  8
0
  6
CONTINUOUS
 10
12.684846
 20
18.508045
 30
0.0
 40
2.922744
 50
193.105513
 51
283.105513
  0
TEXT
  8
0
  6
CONTINUOUS
 10
6.557002
 20
11.567974
 30
0.0
 40
2.5
  1
2I
 11
6.557002
 21
10.734641
 31
0.0
 73
     1
  0
LINE
  8
0
  6
CONTINUOUS
 10
6.557002
 20
9.441103
 30
0.0
 11
15.281743
 21
9.441103
 31
0.0
  0
LINE
  8
0
  6
CONTINUOUS
 10
15.286518
 20
10.250429
 30
0.0
 11
15.286518
 21
8.635236
 31
0.0
  0
LINE
  8
0
  6
CONTINUOUS
 10
6.557002
 20
10.250429
 30
0.0
 11
6.557002
 21
8.635236
 31
0.0
  0
TEXT
  8
0
  6
CONTINUOUS
 10
6.557002
 20
4.778631
 30
0.0
 40
2.5
  1
I
 11
6.557002
 21
3.945298
 31
0.0
 73
     1
  0
LINE
  8
0
  6
CONTINUOUS
 10
9.509029
 20
6.822462
 30
0.0
 11
9.509029
 21
5.477736
 31
0.0
  0
LINE
  8
0
  6
CONTINUOUS
 10
8.615065
 20
5.477736
 30
0.0
 11
9.52622
 21
5.477736
 31
0.0
  0
LINE
  8
0
  6
CONTINUOUS
 10
9.509029
 20
5.477736
 30
0.0
 11
10.402992
 21
5.477736
 31
0.0
  0
LINE
  8
0
  6
CONTINUOUS
 10
8.901592
 20
5.082328
 30
0.0
 11
9.509029
 21
5.082328
 31
0.0
  0
LINE
  8
0
  6
CONTINUOUS
 10
9.509029
 20
5.082328
 30
0.0
 11
10.150849
 21
5.082328
 31
0.0
  0
LINE
  8
0
  6
CONTINUOUS
 10
9.981861
 20
4.719969
 30
0.0
 11
9.072041
 21
4.719969
 31
0.0
  0
LINE
  8
0
  6
CONTINUOUS
 10
15.286518
 20
2.797924
 30
0.0
 11
15.286518
 21
1.182731
 31
0.0
  0
LINE
  8
0
  6
CONTINUOUS
 10
6.557002
 20
1.988598
 30
0.0
 11
15.281743
 21
1.988598
 31
0.0
  0
LINE
  8
0
  6
CONTINUOUS
 10
6.557002
 20
2.797924
 30
0.0
 11
6.557002
 21
1.182731
 31
0.0
  0
ENDBLK
  8
0
  0
BLOCK
  8
0
  2
BLC27
 70
    64
 10
0.0
 20
0.0
 30
0.0
  3
BLC27
  0
INSERT
  8
SWEDEN2
  6
CENTER
  2
BLC26
 10
0.08063
 20
0.037985
 30
0.0
 41
1.006225
 42
1.006225
 43
1.006225
  0
ENDBLK
  8
0
  0
BLOCK
  8
0
  2
BLC26
 70
    64
 10
0.0
 20
0.0
 30
0.0
  3
BLC26
  0
ARC
  8
0
  6
CONTINUOUS
 10
-0.180576
 20
1.17922
 30
0.0
 40
1.196859
 50
90.0
 51
265.706237
  0
LINE
  8
0
  6
CONTINUOUS
 10
-0.186638
 20
-0.01092
 30
0.0
 11
0.458942
 21
-0.01092
 31
0.0
  0
LINE
  8
0
  6
CONTINUOUS
 10
-0.186638
 20
2.375671
 30
0.0
 11
0.45288
 21
2.375671
 31
0.0
  0
LINE
  8
0
  6
CONTINUOUS
 10
-0.185509
 20
-2.404629
 30
0.0
 11
0.460071
 21
-2.404629
 31
0.0
  0
ARC
  8
0
  6
CONTINUOUS
 10
-0.180576
 20
-1.207779
 30
0.0
 40
1.196859
 50
90.0
 51
270.0
  0
LINE
  8
0
  6
CONTINUOUS
 10
0.451525
 20
-2.404586
 30
0.0
 11
1.401805
 21
-2.404586
 31
0.0
  0
LINE
  8
0
  6
CONTINUOUS
 10
0.446785
 20
2.375674
 30
0.0
 11
1.418544
 21
2.375674
 31
0.0
  0
LINE
  8
0
  6
CONTINUOUS
 10
0.456627
 20
-0.010911
 30
0.0
 11
1.422749
 21
-0.010911
 31
0.0
  0
ENDBLK
  8
0
  0
BLOCK
  8
0
  2
BLC22
 70
     0
 10
0.0
 20
0.0
 30
0.0
  3
BLC22
  0
LINE
  8
HEL035
 10
0.0
 20
-0.00155
 30
0.0
 11
0.0
 21
9.99845
 31
0.0
  0
LINE
  8
21
 10
2.5
 20
10.0
 30
0.0
 11
5.0
 21
10.0
 31
0.0
  0
LINE
  8
HEL035
 10
0.0
 20
9.99845
 30
0.0
 11
2.5
 21
9.99845
 31
0.0
  0
LINE
  8
HEL035
 10
-2.5
 20
5.0
 30
0.0
 11
2.5
 21
5.0
 31
0.0
  0
LINE
  8
21
 10
2.5
 20
5.0
 30
0.0
 11
5.0
 21
5.0
 31
0.0
  0
LINE
  8
21
 10
5.0
 20
5.0
 30
0.0
 11
5.0
 21
7.9
 31
0.0
  0
LINE
  8
HEL035
 10
3.88095
 20
6.944425
 30
0.0
 11
4.560313
 21
6.008681
 31
0.0
  0
LINE
  8
21
 10
10.0
 20
10.0
 30
0.0
 11
4.2
 21
6.5
 31
0.0
  0
LINE
  8
HEL035
 10
2.5
 20
-0.00155
 30
0.0
 11
0.0
 21
-0.00155
 31
0.0
  0
LINE
  8
21
 10
2.5
 20
0.0
 30
0.0
 11
5.0
 21
0.0
 31
0.0
  0
ENDBLK
  8
0
  0
BLOCK
  8
0
  2
BLC18
 70
     0
 10
0.0
 20
0.0
 30
0.0
  3
BLC18
  0
LINE
  8
MUO
 10
-0.056268
 20
0.849555
 30
0.0
 11
8.307242
 21
9.215502
 31
0.0
  0
LINE
  8
MUO
 10
0.928025
 20
-0.107047
 30
0.0
 11
9.268386
 21
8.2307
 31
0.0
  0
LINE
  8
MUO
 10
-0.056268
 20
-0.107047
 30
0.0
 11
-0.056268
 21
9.215502
 31
0.0
  0
LINE
  8
MUO
 10
9.268386
 20
-0.107047
 30
0.0
 11
-0.056268
 21
-0.107047
 31
0.0
  0
LINE
  8
MUO
 10
9.268386
 20
9.215502
 30
0.0
 11
9.268386
 21
-0.107047
 31
0.0
  0
LINE
  8
MUO
 10
-0.056268
 20
9.215502
 30
0.0
 11
9.268386
 21
9.215502
 31
0.0
  0
ENDBLK
  8
0
  0
BLOCK
  8
0
  2
BLC29
 70
    64
 10
0.0
 20
0.0
 30
0.0
  3
BLC29
  0
LINE
  8
0
  6
CONTINUOUS
 10
0.004865
 20
1.206889
 30
0.0
 11
2.350631
 21
-0.128465
 31
0.0
  0
LINE
  8
0
  6
CONTINUOUS
 10
2.350631
 20
-0.128465
 30
0.0
 11
0.004865
 21
-1.318384
 31
0.0
  0
ENDBLK
  8
0
  0
BLOCK
  8
0
  2
WKU130
 70
     0
 10
190.0
 20
250.0
 30
0.0
  3
WKU130
  0
ARC
  8
21
 10
191.083333
 20
249.916667
 30
0.0
 40
1.086534
 50
32.471192
 51
175.601295
  0
ARC
  8
21
 10
192.916667
 20
251.083333
 30
0.0
 40
1.086534
 50
212.471192
 51
355.601295
  0
ENDBLK
  8
0
  0
BLOCK
  8
0
  2
BLC15
 70
    64
 10
0.0
 20
0.0
 30
0.0
  3
BLC15
  0
LINE
  8
0
  6
CONTINUOUS
 10
0.142084
 20
3.490022
 30
0.0
 11
0.142084
 21
0.844365
 31
0.0
  0
LINE
  8
0
  6
CONTINUOUS
 10
-0.461611
 20
-0.937188
 30
0.0
 11
0.745779
 21
-0.937188
 31
0.0
  0
LINE
  8
0
  6
CONTINUOUS
 10
-0.894108
 20
-0.049675
 30
0.0
 11
1.169267
 21
-0.049675
 31
0.0
  0
LINE
  8
0
  6
CONTINUOUS
 10
-1.389679
 20
0.844365
 30
0.0
 11
1.673848
 21
0.844365
 31
0.0
  0
ENDBLK
  8
0
  0
BLOCK
  8
0
  2
BLC5
 70
     0
 10
0.0
 20
0.0
 30
0.0
  3
BLC5
  0
TEXT
  8
0
 10
-3.043704
 20
-6.645912
 30
0.0
 40
3.2
  1
PE
  0
LINE
  8
0
 10
-2.946392
 20
1.181176
 30
0.0
 11
2.135458
 21
1.181176
 31
0.0
  0
LINE
  8
0
 10
-0.48656
 20
2.238362
 30
0.0
 11
-0.48656
 21
6.930438
 31
0.0
  0
LINE
  8
0
 10
-1.973271
 20
0.065258
 30
0.0
 11
1.225411
 21
0.065258
 31
0.0
  0
LINE
  8
0
 10
2.685091
 20
2.238362
 30
0.0
 11
1.68494
 21
2.238362
 31
0.0
  0
LINE
  8
0
 10
-3.505035
 20
2.238362
 30
0.0
 11
2.649049
 21
2.238362
 31
0.0
  0
CIRCLE
  8
0
 10
-0.47755
 20
1.422632
 30
0.0
 40
3.804563
  0
ENDBLK
  8
0
  0
BLOCK
  8
0
  2
BLC43
 70
    64
 10
0.0
 20
0.0
 30
0.0
  3
BLC43
  0
TEXT
  8
SWEDEN2
  6
CONTINUOUS
 10
-0.646672
 20
-0.986365
 30
0.0
 40
2.0
  1
+
  0
ENDBLK
  8
0
  0
BLOCK
  8
0
  2
BLC42
 70
    64
 10
0.0
 20
0.0
 30
0.0
  3
BLC42
  0
TEXT
  8
SWEDEN2
  6
CONTINUOUS
 10
-0.655237
 20
-0.99442
 30
0.0
 40
2.0
  1
-
  0
ENDBLK
  8
0
  0
BLOCK
  8
0
  2
BLC25
 70
     0
 10
0.0
 20
0.0
 30
0.0
  3
BLC25
  0
TEXT
  8
0
  6
CONTINUOUS
 10
2.0
 20
30.666667
 30
0.0
 40
2.0
  1
1)
 11
2.0
 21
30.0
 31
0.0
 73
     1
  0
TEXT
  8
0
 10
6.0
 20
2.0
 30
0.0
 40
2.0
  1
7B    27     26
 11
6.0
 21
1.333333
 31
0.0
 73
     1
  0
TEXT
  8
0
 10
6.0
 20
5.333333
 30
0.0
 40
2.0
  1
5B     9      8
 11
6.0
 21
4.666667
 31
0.0
 73
     1
  0
TEXT
  8
0
 10
6.0
 20
8.666667
 30
0.0
 40
2.0
  1
3B     3      2
 11
6.0
 21
8.0
 31
0.0
 73
     1
  0
TEXT
  8
0
 10
32.0
 20
12.666667
 30
0.0
 40
2.0
  1
In=5A
 11
32.0
 21
12.0
 31
0.0
 73
     1
  0
TEXT
  8
0
 10
16.0
 20
12.666667
 30
0.0
 40
2.0
  1
In=1A 
 11
16.0
 21
12.0
 31
0.0
 73
     1
  0
TEXT
  8
0
 10
26.0
 20
18.666667
 30
0.0
 40
2.0
  1
108:
 11
26.0
 21
18.0
 31
0.0
 73
     1
  0
TEXT
  8
0
 10
6.0
 20
18.666667
 30
0.0
 40
2.0
  1
101:       
 11
6.0
 21
18.0
 31
0.0
 73
     1
  0
TEXT
  8
0
 10
6.0
 20
24.666667
 30
0.0
 40
2.0
  1
TERMINALS / UTTAG
 11
6.0
 21
24.0
 31
0.0
 73
     1
  0
LINE
  8
0
 10
0.0
 20
12.0
 30
0.0
 11
44.0
 21
12.0
 31
0.0
  0
LINE
  8
0
 10
28.0
 20
18.0
 30
0.0
 11
28.0
 21
0.0
 31
0.0
  0
LINE
  8
0
 10
14.0
 20
18.0
 30
0.0
 11
44.0
 21
18.0
 31
0.0
  0
LINE
  8
0
 10
14.0
 20
24.0
 30
0.0
 11
14.0
 21
0.0
 31
0.0
  0
LINE
  8
0
 10
0.0
 20
24.0
 30
0.0
 11
44.0
 21
24.0
 31
0.0
  0
LINE
  8
0
 10
44.0
 20
0.0
 30
0.0
 11
44.0
 21
30.0
 31
0.0
  0
LINE
  8
0
 10
0.0
 20
0.0
 30
0.0
 11
44.0
 21
0.0
 31
0.0
  0
LINE
  8
0
 10
0.0
 20
30.0
 30
0.0
 11
0.0
 21
0.0
 31
0.0
  0
LINE
  8
0
 10
44.0
 20
30.0
 30
0.0
 11
0.0
 21
30.0
 31
0.0
  0
ENDBLK
  8
0
  0
BLOCK
  8
0
  2
ABBA3V
 70
    64
 10
0.0
 20
0.0
 30
0.0
  3
ABBA3V
  0
TEXT
  8
RAAMI
  6
DASHED
 10
292.217194
 20
11.813359
 30
0.0
 40
3.0
  1
A3
  7
GREEKS
  0
TEXT
  8
RAAMI
  6
DASHED
 10
351.818577
 20
15.69253
 30
0.0
 40
1.4
  1
LEHTI SHEET
  7
GREEKS
  0
LINE
  8
PAKSU
 10
0.237099
 20
262.737999
 30
0.0
 11
392.237099
 21
262.737999
 31
0.0
  0
LINE
  8
RAAMI
 10
18.237099
 20
0.237999
 30
0.0
 11
0.237099
 21
0.237999
 31
0.0
  0
LINE
  8
PAKSU
 10
209.237099
 20
0.237999
 30
0.0
 11
392.237099
 21
0.237999
 31
0.0
  0
LINE
  8
PAKSU
 10
209.237099
 20
0.237999
 30
0.0
 11
209.237099
 21
35.237999
 31
0.0
  0
LINE
  8
PAKSU
 10
392.237099
 20
0.237999
 30
0.0
 11
392.237099
 21
35.237999
 31
0.0
  0
LINE
  8
OHUT
 10
209.237099
 20
18.237999
 30
0.0
 11
392.237099
 21
18.237999
 31
0.0
  0
LINE
  8
OHUT
 10
209.237099
 20
9.737999
 30
0.0
 11
392.237099
 21
9.737999
 31
0.0
  0
LINE
  8
OHUT
 10
209.237099
 20
26.737999
 30
0.0
 11
307.237099
 21
26.737999
 31
0.0
  0
LINE
  8
PAKSU
 10
209.237099
 20
35.237999
 30
0.0
 11
392.237099
 21
35.237999
 31
0.0
  0
TEXT
  8
RAAMI
 10
210.237099
 20
23.971333
 30
0.0
 40
1.4
  1
TARKASTI  CHECKED
  7
ROMANS
  0
TEXT
  8
RAAMI
 10
209.979934
 20
15.704666
 30
0.0
 40
1.4
  1
HYVÄKSYI  APPROVED
  7
ROMANS
  0
LINE
  8
OHUT
 10
307.237099
 20
0.237999
 30
0.0
 11
307.237099
 21
35.237999
 31
0.0
  0
TEXT
  8
RAAMI
 10
259.237099
 20
32.737999
 30
0.0
 40
1.4
  1
LIITTYY  CONCERNING
  7
ROMANS
  0
TEXT
  8
RAAMI
 10
259.237099
 20
23.737999
 30
0.0
 40
1.4
  1
TOLERANSSIT  TOLERANCES
  7
ROMANS
  0
TEXT
  8
RAAMI
 10
259.237099
 20
15.737999
 30
0.0
 40
1.4
  1
SUHDE  SCALE
  7
ROMANS
  0
TEXT
  8
RAAMI
 10
309.237099
 20
32.737999
 30
0.0
 40
1.4
  1
NIMITYS  NAME
  7
ROMANS
  0
TEXT
  8
RAAMI
 10
309.237099
 20
15.737999
 30
0.0
 40
1.4
  1
KOODI  CODE
  7
ROMANS
  0
TEXT
  8
RAAMI
 10
309.237099
 20
7.237999
 30
0.0
 40
1.4
  1
PIIRUSTUS NO  DRAWING NR
  7
ROMANS
  0
LINE
  8
OHUT
 10
349.737099
 20
9.737999
 30
0.0
 11
349.737099
 21
18.237999
 31
0.0
  0
TEXT
  8
RAAMI
 10
371.237099
 20
7.237999
 30
0.0
 40
1.4
  1
PAINOS  REVISION
  7
ROMANS
  0
LINE
  8
OHUT
 10
369.737099
 20
9.737999
 30
0.0
 11
369.737099
 21
0.237999
 31
0.0
  0
LINE
  8
RAAMI
 10
210.187099
 20
1.737999
 30
0.0
 11
211.937099
 21
1.737999
 31
0.0
  0
LINE
  8
RAAMI
 10
215.437099
 20
1.737999
 30
0.0
 11
217.187099
 21
1.737999
 31
0.0
  0
LINE
  8
RAAMI
 10
212.637099
 20
8.737999
 30
0.0
 11
211.459571
 21
5.373634
 31
0.0
  0
LINE
  8
RAAMI
 10
212.425886
 20
3.137999
 30
0.0
 11
213.547099
 21
3.137999
 31
0.0
  0
LINE
  8
RAAMI
 10
212.425889
 20
3.134542
 30
0.0
 11
211.937099
 21
1.737999
 31
0.0
  0
LINE
  8
RAAMI
 10
214.737099
 20
8.737999
 30
0.0
 11
215.913452
 21
5.376991
 31
0.0
  0
LINE
  8
RAAMI
 10
214.948197
 20
3.134863
 30
0.0
 11
215.437099
 21
1.737999
 31
0.0
  0
LINE
  8
RAAMI
 10
214.737099
 20
8.737999
 30
0.0
 11
213.827099
 21
8.737999
 31
0.0
  0
LINE
  8
RAAMI
 10
213.547099
 20
8.737999
 30
0.0
 11
213.547099
 21
5.377999
 31
0.0
  0
LINE
  8
RAAMI
 10
213.827099
 20
8.737999
 30
0.0
 11
213.827099
 21
5.377999
 31
0.0
  0
LINE
  8
RAAMI
 10
213.827099
 20
3.137999
 30
0.0
 11
214.946992
 21
3.137999
 31
0.0
  0
LINE
  8
RAAMI
 10
213.547099
 20
8.737999
 30
0.0
 11
212.637099
 21
8.737999
 31
0.0
  0
LINE
  8
RAAMI
 10
211.45904
 20
5.377999
 30
0.0
 11
213.547099
 21
5.377999
 31
0.0
  0
LINE
  8
RAAMI
 10
211.360082
 20
5.097999
 30
0.0
 11
213.547099
 21
5.097999
 31
0.0
  0
LINE
  8
RAAMI
 10
216.011591
 20
5.096594
 30
0.0
 11
217.187099
 21
1.737999
 31
0.0
  0
LINE
  8
RAAMI
 10
213.827099
 20
5.377999
 30
0.0
 11
215.912213
 21
5.377999
 31
0.0
  0
LINE
  8
RAAMI
 10
213.827099
 20
5.097999
 30
0.0
 11
216.010356
 21
5.097999
 31
0.0
  0
LINE
  8
RAAMI
 10
213.827099
 20
5.097999
 30
0.0
 11
213.827099
 21
3.137999
 31
0.0
  0
LINE
  8
RAAMI
 10
213.547099
 20
5.097999
 30
0.0
 11
213.547099
 21
3.137999
 31
0.0
  0
LINE
  8
RAAMI
 10
211.356988
 20
5.080538
 30
0.0
 11
210.187099
 21
1.737999
 31
0.0
  0
INSERT
  8
RAAMI
  2
*X22
 10
210.187099
 20
1.737999
 30
0.0
 41
0.7
 42
0.7
 43
0.7
  0
INSERT
  8
RAAMI
  2
*X23
 10
210.187099
 20
1.737999
 30
0.0
 41
0.7
 42
0.7
 43
0.7
  0
INSERT
  8
RAAMI
  2
*X24
 10
210.187099
 20
1.737999
 30
0.0
 41
0.7
 42
0.7
 43
0.7
  0
INSERT
  8
RAAMI
  2
*X25
 10
210.187099
 20
1.737999
 30
0.0
 41
0.7
 42
0.7
 43
0.7
  0
LINE
  8
RAAMI
 10
217.677099
 20
1.737999
 30
0.0
 11
217.677099
 21
5.097999
 31
0.0
  0
LINE
  8
RAAMI
 10
217.677099
 20
8.737999
 30
0.0
 11
219.637099
 21
8.737999
 31
0.0
  0
LINE
  8
RAAMI
 10
219.637099
 20
8.737999
 30
0.0
 11
219.637099
 21
5.377999
 31
0.0
  0
LINE
  8
RAAMI
 10
219.637099
 20
5.377999
 30
0.0
 11
217.677099
 21
5.377999
 31
0.0
  0
LINE
  8
RAAMI
 10
217.677099
 20
5.097999
 30
0.0
 11
219.637099
 21
5.097999
 31
0.0
  0
LINE
  8
RAAMI
 10
219.637099
 20
5.097999
 30
0.0
 11
219.637099
 21
1.737999
 31
0.0
  0
LINE
  8
RAAMI
 10
219.637099
 20
1.737999
 30
0.0
 11
217.677099
 21
1.737999
 31
0.0
  0
LINE
  8
RAAMI
 10
217.677099
 20
5.377999
 30
0.0
 11
217.677099
 21
8.737999
 31
0.0
  0
ARC
  8
RAAMI
 10
220.477099
 20
7.162999
 30
0.0
 40
1.575
 50
298.455859
 51
90.052437
  0
LINE
  8
RAAMI
 10
219.917099
 20
8.737999
 30
0.0
 11
220.475658
 21
8.737999
 31
0.0
  0
LINE
  8
RAAMI
 10
219.917099
 20
8.737999
 30
0.0
 11
219.917099
 21
5.377999
 31
0.0
  0
LINE
  8
RAAMI
 10
219.917099
 20
5.377999
 30
0.0
 11
221.901542
 21
5.377999
 31
0.0
  0
LINE
  8
RAAMI
 10
222.157099
 20
5.097999
 30
0.0
 11
219.917099
 21
5.097999
 31
0.0
  0
LINE
  8
RAAMI
 10
219.917099
 20
5.097999
 30
0.0
 11
219.917099
 21
1.737999
 31
0.0
  0
ARC
  8
RAAMI
 10
220.477099
 20
3.837999
 30
0.0
 40
2.1
 50
269.937724
 51
37.056553
  0
LINE
  8
RAAMI
 10
219.917099
 20
1.737999
 30
0.0
 11
220.474817
 21
1.738
 31
0.0
  0
ARC
  8
RAAMI
 10
220.477099
 20
3.837999
 30
0.0
 40
2.1
 50
47.28622
 51
68.787999
  0
INSERT
  8
RAAMI
  2
*X26
 10
210.187099
 20
1.737999
 30
0.0
 41
0.7
 42
0.7
 43
0.7
  0
INSERT
  8
RAAMI
  2
*X27
 10
210.187099
 20
1.737999
 30
0.0
 41
0.7
 42
0.7
 43
0.7
  0
INSERT
  8
RAAMI
  2
*X28
 10
210.187099
 20
1.737999
 30
0.0
 41
0.7
 42
0.7
 43
0.7
  0
INSERT
  8
RAAMI
  2
*X29
 10
210.187099
 20
1.737999
 30
0.0
 41
0.7
 42
0.7
 43
0.7
  0
INSERT
  8
RAAMI
  2
*X29
 10
215.647099
 20
1.737999
 30
0.0
 41
0.7
 42
0.7
 43
0.7
  0
INSERT
  8
RAAMI
  2
*X28
 10
215.647099
 20
1.737999
 30
0.0
 41
0.7
 42
0.7
 43
0.7
  0
INSERT
  8
RAAMI
  2
*X27
 10
215.647099
 20
1.737999
 30
0.0
 41
0.7
 42
0.7
 43
0.7
  0
INSERT
  8
RAAMI
  2
*X26
 10
215.647099
 20
1.737999
 30
0.0
 41
0.7
 42
0.7
 43
0.7
  0
ARC
  8
RAAMI
 10
225.937099
 20
3.837999
 30
0.0
 40
2.1
 50
47.28622
 51
68.787999
  0
LINE
  8
RAAMI
 10
225.377099
 20
1.737999
 30
0.0
 11
225.934817
 21
1.738
 31
0.0
  0
ARC
  8
RAAMI
 10
225.937099
 20
3.837999
 30
0.0
 40
2.1
 50
269.937724
 51
37.056553
  0
LINE
  8
RAAMI
 10
225.377099
 20
5.097999
 30
0.0
 11
225.377099
 21
1.737999
 31
0.0
  0
LINE
  8
RAAMI
 10
227.617099
 20
5.097999
 30
0.0
 11
225.377099
 21
5.097999
 31
0.0
  0
LINE
  8
RAAMI
 10
225.377099
 20
5.377999
 30
0.0
 11
227.361542
 21
5.377999
 31
0.0
  0
LINE
  8
RAAMI
 10
225.377099
 20
8.737999
 30
0.0
 11
225.377099
 21
5.377999
 31
0.0
  0
LINE
  8
RAAMI
 10
225.377099
 20
8.737999
 30
0.0
 11
225.935658
 21
8.737999
 31
0.0
  0
ARC
  8
RAAMI
 10
225.937099
 20
7.162999
 30
0.0
 40
1.575
 50
298.455859
 51
90.052437
  0
LINE
  8
RAAMI
 10
223.137099
 20
5.377999
 30
0.0
 11
223.137099
 21
8.737999
 31
0.0
  0
LINE
  8
RAAMI
 10
225.097099
 20
1.737999
 30
0.0
 11
223.137099
 21
1.737999
 31
0.0
  0
LINE
  8
RAAMI
 10
225.097099
 20
5.097999
 30
0.0
 11
225.097099
 21
1.737999
 31
0.0
  0
LINE
  8
RAAMI
 10
223.137099
 20
5.097999
 30
0.0
 11
225.097099
 21
5.097999
 31
0.0
  0
LINE
  8
RAAMI
 10
225.097099
 20
5.377999
 30
0.0
 11
223.137099
 21
5.377999
 31
0.0
  0
LINE
  8
RAAMI
 10
225.097099
 20
8.737999
 30
0.0
 11
225.097099
 21
5.377999
 31
0.0
  0
LINE
  8
RAAMI
 10
223.137099
 20
8.737999
 30
0.0
 11
225.097099
 21
8.737999
 31
0.0
  0
LINE
  8
RAAMI
 10
223.137099
 20
1.737999
 30
0.0
 11
223.137099
 21
5.097999
 31
0.0
  0
TEXT
  8
RAAMI
 10
229.737099
 20
1.737999
 30
0.0
 40
3.0
  1
ABB 
 41
0.8
  7
ROMANS
  0
TEXT
  8
RAAMI
 10
237.737099
 20
1.737999
 30
0.0
 40
3.0
  1
Strömberg
 41
0.8
  7
ROMANS
  0
LINE
  8
OHUT
 10
282.237099
 20
9.737999
 30
0.0
 11
282.237099
 21
18.237999
 31
0.0
  0
TEXT
  8
RAAMI
 10
27.737099
 20
4.737999
 30
0.0
 40
1.4
  1
MUUTOS
  7
ROMANS
  0
TEXT
  8
RAAMI
 10
27.737099
 20
2.471333
 30
0.0
 40
1.4
  1
REVISION
  7
ROMANS
  0
LINE
  8
OHUT
 10
46.737099
 20
9.237999
 30
0.0
 11
209.237099
 21
9.237999
 31
0.0
  0
LINE
  8
OHUT
 10
46.737099
 20
0.237999
 30
0.0
 11
46.737099
 21
9.237999
 31
0.0
  0
LINE
  8
OHUT
 10
40.737099
 20
4.737999
 30
0.0
 11
209.237099
 21
4.737999
 31
0.0
  0
LINE
  8
OHUT
 10
257.237099
 20
9.737999
 30
0.0
 11
257.237099
 21
35.237999
 31
0.0
  0
LINE
  8
OHUT
 10
271.237099
 20
9.737999
 30
0.0
 11
271.237099
 21
0.237999
 31
0.0
  0
TEXT
  8
RAAMI
 10
210.237099
 20
32.237999
 30
0.0
 40
1.4
  1
TEKI  PREPARED
  7
ROMANS
  0
TEXT
  8
RAAMI
 10
273.237099
 20
7.237999
 30
0.0
 40
1.4
  1
VAST.OSASTO RESP.DEPT.
  7
ROMANS
  0
TEXT
  8
RAAMI
 10
257.407006
 20
1.741783
 30
0.0
 40
3.0
  1
Power
 41
0.8
  7
ROMANS
  0
TEXT
  8
RAAMI
 10
42.237099
 20
1.195292
 30
0.0
 40
2.5
  1
B
  7
ROMANS
  0
TEXT
  8
RAAMI
 10
42.237099
 20
5.587508
 30
0.0
 40
2.5
  1
C
  7
ROMANS
  0
LINE
  8
PAKSU
 10
0.237099
 20
0.237999
 30
0.0
 11
392.237099
 21
0.237999
 31
0.0
  0
LINE
  8
PAKSU
 10
392.237099
 20
262.737999
 30
0.0
 11
392.237099
 21
0.237999
 31
0.0
  0
LINE
  8
PAKSU
 10
0.237099
 20
0.237999
 30
0.0
 11
0.237099
 21
262.737999
 31
0.0
  0
ENDBLK
  8
0
  0
BLOCK
  8
0
  2
*X22
 70
    65
 10
0.0
 20
0.0
 30
0.0
  3
*X
  0
LINE
  8
0
 62
     0
 10
2.284499
 20
6.52714
 30
0.0
 11
4.8
 21
9.042641
 31
0.0
  0
LINE
  8
0
 62
     0
 10
2.379686
 20
6.799104
 30
0.0
 11
4.8
 21
9.219417
 31
0.0
  0
LINE
  8
0
 62
     0
 10
2.474874
 20
7.071068
 30
0.0
 11
4.8
 21
9.396194
 31
0.0
  0
LINE
  8
0
 62
     0
 10
2.570061
 20
7.343032
 30
0.0
 11
4.8
 21
9.572971
 31
0.0
  0
LINE
  8
0
 62
     0
 10
2.665249
 20
7.614996
 30
0.0
 11
4.8
 21
9.749747
 31
0.0
  0
LINE
  8
0
 62
     0
 10
2.760436
 20
7.88696
 30
0.0
 11
4.8
 21
9.926524
 31
0.0
  0
LINE
  8
0
 62
     0
 10
2.855624
 20
8.158924
 30
0.0
 11
4.696699
 21
10.0
 31
0.0
  0
LINE
  8
0
 62
     0
 10
2.950811
 20
8.430889
 30
0.0
 11
4.519922
 21
10.0
 31
0.0
  0
LINE
  8
0
 62
     0
 10
3.045998
 20
8.702853
 30
0.0
 11
4.343146
 21
10.0
 31
0.0
  0
LINE
  8
0
 62
     0
 10
3.141186
 20
8.974817
 30
0.0
 11
4.166369
 21
10.0
 31
0.0
  0
LINE
  8
0
 62
     0
 10
3.236373
 20
9.246781
 30
0.0
 11
3.989592
 21
10.0
 31
0.0
  0
LINE
  8
0
 62
     0
 10
3.331561
 20
9.518745
 30
0.0
 11
3.812816
 21
10.0
 31
0.0
  0
LINE
  8
0
 62
     0
 10
3.426748
 20
9.790709
 30
0.0
 11
3.636039
 21
10.0
 31
0.0
  0
LINE
  8
0
 62
     0
 10
2.189311
 20
6.255175
 30
0.0
 11
4.8
 21
8.865864
 31
0.0
  0
LINE
  8
0
 62
     0
 10
2.094124
 20
5.983211
 30
0.0
 11
4.8
 21
8.689087
 31
0.0
  0
LINE
  8
0
 62
     0
 10
1.998936
 20
5.711247
 30
0.0
 11
4.8
 21
8.512311
 31
0.0
  0
LINE
  8
0
 62
     0
 10
1.903749
 20
5.439283
 30
0.0
 11
4.8
 21
8.335534
 31
0.0
  0
LINE
  8
0
 62
     0
 10
1.841243
 20
5.2
 30
0.0
 11
4.8
 21
8.158757
 31
0.0
  0
LINE
  8
0
 62
     0
 10
2.018019
 20
5.2
 30
0.0
 11
4.8
 21
7.981981
 31
0.0
  0
LINE
  8
0
 62
     0
 10
2.194796
 20
5.2
 30
0.0
 11
4.8
 21
7.805204
 31
0.0
  0
LINE
  8
0
 62
     0
 10
2.371573
 20
5.2
 30
0.0
 11
4.8
 21
7.628427
 31
0.0
  0
LINE
  8
0
 62
     0
 10
2.54835
 20
5.2
 30
0.0
 11
4.8
 21
7.45165
 31
0.0
  0
LINE
  8
0
 62
     0
 10
2.725126
 20
5.2
 30
0.0
 11
4.8
 21
7.274874
 31
0.0
  0
LINE
  8
0
 62
     0
 10
2.901903
 20
5.2
 30
0.0
 11
4.8
 21
7.098097
 31
0.0
  0
LINE
  8
0
 62
     0
 10
3.07868
 20
5.2
 30
0.0
 11
4.8
 21
6.92132
 31
0.0
  0
LINE
  8
0
 62
     0
 10
3.255456
 20
5.2
 30
0.0
 11
4.8
 21
6.744544
 31
0.0
  0
LINE
  8
0
 62
     0
 10
3.432233
 20
5.2
 30
0.0
 11
4.8
 21
6.567767
 31
0.0
  0
LINE
  8
0
 62
     0
 10
3.60901
 20
5.2
 30
0.0
 11
4.8
 21
6.39099
 31
0.0
  0
LINE
  8
0
 62
     0
 10
3.785786
 20
5.2
 30
0.0
 11
4.8
 21
6.214214
 31
0.0
  0
LINE
  8
0
 62
     0
 10
3.962563
 20
5.2
 30
0.0
 11
4.8
 21
6.037437
 31
0.0
  0
LINE
  8
0
 62
     0
 10
4.13934
 20
5.2
 30
0.0
 11
4.8
 21
5.86066
 31
0.0
  0
LINE
  8
0
 62
     0
 10
4.316117
 20
5.2
 30
0.0
 11
4.8
 21
5.683883
 31
0.0
  0
LINE
  8
0
 62
     0
 10
4.492893
 20
5.2
 30
0.0
 11
4.8
 21
5.507107
 31
0.0
  0
LINE
  8
0
 62
     0
 10
4.66967
 20
5.2
 30
0.0
 11
4.8
 21
5.33033
 31
0.0
  0
ENDBLK
  8
0
  0
BLOCK
  8
0
  2
*X23
 70
    65
 10
0.0
 20
0.0
 30
0.0
  3
*X
  0
LINE
  8
0
 62
     0
 10
5.2
 20
6.083883
 30
0.0
 11
7.178252
 21
8.062136
 31
0.0
  0
LINE
  8
0
 62
     0
 10
5.2
 20
6.26066
 30
0.0
 11
7.132421
 21
8.193082
 31
0.0
  0
LINE
  8
0
 62
     0
 10
5.2
 20
6.437437
 30
0.0
 11
7.08659
 21
8.324027
 31
0.0
  0
LINE
  8
0
 62
     0
 10
5.2
 20
6.614214
 30
0.0
 11
7.040759
 21
8.454973
 31
0.0
  0
LINE
  8
0
 62
     0
 10
5.2
 20
6.79099
 30
0.0
 11
6.994928
 21
8.585919
 31
0.0
  0
LINE
  8
0
 62
     0
 10
5.2
 20
6.967767
 30
0.0
 11
6.949097
 21
8.716864
 31
0.0
  0
LINE
  8
0
 62
     0
 10
5.2
 20
7.144544
 30
0.0
 11
6.903266
 21
8.84781
 31
0.0
  0
LINE
  8
0
 62
     0
 10
5.2
 20
7.32132
 30
0.0
 11
6.857435
 21
8.978756
 31
0.0
  0
LINE
  8
0
 62
     0
 10
5.2
 20
7.498097
 30
0.0
 11
6.811604
 21
9.109702
 31
0.0
  0
LINE
  8
0
 62
     0
 10
5.2
 20
7.674874
 30
0.0
 11
6.765773
 21
9.240647
 31
0.0
  0
LINE
  8
0
 62
     0
 10
5.2
 20
7.85165
 30
0.0
 11
6.719942
 21
9.371593
 31
0.0
  0
LINE
  8
0
 62
     0
 10
5.2
 20
8.028427
 30
0.0
 11
6.674111
 21
9.502539
 31
0.0
  0
LINE
  8
0
 62
     0
 10
5.2
 20
8.205204
 30
0.0
 11
6.62828
 21
9.633484
 31
0.0
  0
LINE
  8
0
 62
     0
 10
5.2
 20
8.381981
 30
0.0
 11
6.582449
 21
9.76443
 31
0.0
  0
LINE
  8
0
 62
     0
 10
5.2
 20
8.558757
 30
0.0
 11
6.536619
 21
9.895376
 31
0.0
  0
LINE
  8
0
 62
     0
 10
5.2
 20
8.735534
 30
0.0
 11
6.464466
 21
10.0
 31
0.0
  0
LINE
  8
0
 62
     0
 10
5.2
 20
8.912311
 30
0.0
 11
6.287689
 21
10.0
 31
0.0
  0
LINE
  8
0
 62
     0
 10
5.2
 20
9.089087
 30
0.0
 11
6.110913
 21
10.0
 31
0.0
  0
LINE
  8
0
 62
     0
 10
5.2
 20
9.265864
 30
0.0
 11
5.934136
 21
10.0
 31
0.0
  0
LINE
  8
0
 62
     0
 10
5.2
 20
9.442641
 30
0.0
 11
5.757359
 21
10.0
 31
0.0
  0
LINE
  8
0
 62
     0
 10
5.2
 20
9.619417
 30
0.0
 11
5.580583
 21
10.0
 31
0.0
  0
LINE
  8
0
 62
     0
 10
5.2
 20
9.796194
 30
0.0
 11
5.403806
 21
10.0
 31
0.0
  0
LINE
  8
0
 62
     0
 10
5.2
 20
9.972971
 30
0.0
 11
5.227029
 21
10.0
 31
0.0
  0
LINE
  8
0
 62
     0
 10
5.2
 20
5.907107
 30
0.0
 11
7.224083
 21
7.93119
 31
0.0
  0
LINE
  8
0
 62
     0
 10
5.2
 20
5.73033
 30
0.0
 11
7.269914
 21
7.800245
 31
0.0
  0
LINE
  8
0
 62
     0
 10
5.2
 20
5.553553
 30
0.0
 11
7.315745
 21
7.669299
 31
0.0
  0
LINE
  8
0
 62
     0
 10
5.2
 20
5.376777
 30
0.0
 11
7.361576
 21
7.538353
 31
0.0
  0
LINE
  8
0
 62
     0
 10
5.2
 20
5.2
 30
0.0
 11
7.407407
 21
7.407407
 31
0.0
  0
LINE
  8
0
 62
     0
 10
5.376777
 20
5.2
 30
0.0
 11
7.453238
 21
7.276462
 31
0.0
  0
LINE
  8
0
 62
     0
 10
5.553553
 20
5.2
 30
0.0
 11
7.499069
 21
7.145516
 31
0.0
  0
LINE
  8
0
 62
     0
 10
5.73033
 20
5.2
 30
0.0
 11
7.5449
 21
7.01457
 31
0.0
  0
LINE
  8
0
 62
     0
 10
5.907107
 20
5.2
 30
0.0
 11
7.590731
 21
6.883625
 31
0.0
  0
LINE
  8
0
 62
     0
 10
6.083883
 20
5.2
 30
0.0
 11
7.636562
 21
6.752679
 31
0.0
  0
LINE
  8
0
 62
     0
 10
6.26066
 20
5.2
 30
0.0
 11
7.682393
 21
6.621733
 31
0.0
  0
LINE
  8
0
 62
     0
 10
6.437437
 20
5.2
 30
0.0
 11
7.728224
 21
6.490788
 31
0.0
  0
LINE
  8
0
 62
     0
 10
6.614214
 20
5.2
 30
0.0
 11
7.774055
 21
6.359842
 31
0.0
  0
LINE
  8
0
 62
     0
 10
6.79099
 20
5.2
 30
0.0
 11
7.819886
 21
6.228896
 31
0.0
  0
LINE
  8
0
 62
     0
 10
6.967767
 20
5.2
 30
0.0
 11
7.865717
 21
6.09795
 31
0.0
  0
LINE
  8
0
 62
     0
 10
7.144544
 20
5.2
 30
0.0
 11
7.911548
 21
5.967005
 31
0.0
  0
LINE
  8
0
 62
     0
 10
7.32132
 20
5.2
 30
0.0
 11
7.957379
 21
5.836059
 31
0.0
  0
LINE
  8
0
 62
     0
 10
7.498097
 20
5.2
 30
0.0
 11
8.00321
 21
5.705113
 31
0.0
  0
LINE
  8
0
 62
     0
 10
7.674874
 20
5.2
 30
0.0
 11
8.049041
 21
5.574168
 31
0.0
  0
LINE
  8
0
 62
     0
 10
7.85165
 20
5.2
 30
0.0
 11
8.094872
 21
5.443222
 31
0.0
  0
LINE
  8
0
 62
     0
 10
8.028427
 20
5.2
 30
0.0
 11
8.140703
 21
5.312276
 31
0.0
  0
ENDBLK
  8
0
  0
BLOCK
  8
0
  2
*X24
 70
    65
 10
0.0
 20
0.0
 30
0.0
  3
*X
  0
LINE
  8
0
 62
     0
 10
0.0
 20
0.0
 30
0.0
 11
4.8
 21
4.8
 31
0.0
  0
LINE
  8
0
 62
     0
 10
0.095187
 20
0.271964
 30
0.0
 11
4.623223
 21
4.8
 31
0.0
  0
LINE
  8
0
 62
     0
 10
0.190375
 20
0.543928
 30
0.0
 11
4.446447
 21
4.8
 31
0.0
  0
LINE
  8
0
 62
     0
 10
0.285562
 20
0.815892
 30
0.0
 11
4.26967
 21
4.8
 31
0.0
  0
LINE
  8
0
 62
     0
 10
0.38075
 20
1.087857
 30
0.0
 11
4.092893
 21
4.8
 31
0.0
  0
LINE
  8
0
 62
     0
 10
0.475937
 20
1.359821
 30
0.0
 11
3.916117
 21
4.8
 31
0.0
  0
LINE
  8
0
 62
     0
 10
0.571125
 20
1.631785
 30
0.0
 11
3.73934
 21
4.8
 31
0.0
  0
LINE
  8
0
 62
     0
 10
0.666312
 20
1.903749
 30
0.0
 11
3.562563
 21
4.8
 31
0.0
  0
LINE
  8
0
 62
     0
 10
0.7615
 20
2.175713
 30
0.0
 11
3.385786
 21
4.8
 31
0.0
  0
LINE
  8
0
 62
     0
 10
0.856687
 20
2.447677
 30
0.0
 11
3.20901
 21
4.8
 31
0.0
  0
LINE
  8
0
 62
     0
 10
0.951875
 20
2.719641
 30
0.0
 11
3.032233
 21
4.8
 31
0.0
  0
LINE
  8
0
 62
     0
 10
1.047062
 20
2.991606
 30
0.0
 11
2.855456
 21
4.8
 31
0.0
  0
LINE
  8
0
 62
     0
 10
1.142249
 20
3.26357
 30
0.0
 11
2.67868
 21
4.8
 31
0.0
  0
LINE
  8
0
 62
     0
 10
1.237437
 20
3.535534
 30
0.0
 11
2.501903
 21
4.8
 31
0.0
  0
LINE
  8
0
 62
     0
 10
1.332624
 20
3.807498
 30
0.0
 11
2.325126
 21
4.8
 31
0.0
  0
LINE
  8
0
 62
     0
 10
1.427812
 20
4.079462
 30
0.0
 11
2.14835
 21
4.8
 31
0.0
  0
LINE
  8
0
 62
     0
 10
1.522999
 20
4.351426
 30
0.0
 11
1.971573
 21
4.8
 31
0.0
  0
LINE
  8
0
 62
     0
 10
1.618187
 20
4.62339
 30
0.0
 11
1.794796
 21
4.8
 31
0.0
  0
LINE
  8
0
 62
     0
 10
0.176777
 20
0.0
 30
0.0
 11
4.8
 21
4.623223
 31
0.0
  0
LINE
  8
0
 62
     0
 10
0.353553
 20
0.0
 30
0.0
 11
4.8
 21
4.446447
 31
0.0
  0
LINE
  8
0
 62
     0
 10
0.53033
 20
0.0
 30
0.0
 11
4.8
 21
4.26967
 31
0.0
  0
LINE
  8
0
 62
     0
 10
0.707107
 20
0.0
 30
0.0
 11
4.8
 21
4.092893
 31
0.0
  0
LINE
  8
0
 62
     0
 10
0.883883
 20
0.0
 30
0.0
 11
4.8
 21
3.916117
 31
0.0
  0
LINE
  8
0
 62
     0
 10
1.06066
 20
0.0
 30
0.0
 11
4.8
 21
3.73934
 31
0.0
  0
LINE
  8
0
 62
     0
 10
1.237437
 20
0.0
 30
0.0
 11
3.179842
 21
1.942405
 31
0.0
  0
LINE
  8
0
 62
     0
 10
3.237437
 20
2.0
 30
0.0
 11
4.8
 21
3.562563
 31
0.0
  0
LINE
  8
0
 62
     0
 10
1.414214
 20
0.0
 30
0.0
 11
3.084654
 21
1.670441
 31
0.0
  0
LINE
  8
0
 62
     0
 10
3.414214
 20
2.0
 30
0.0
 11
4.8
 21
3.385786
 31
0.0
  0
LINE
  8
0
 62
     0
 10
1.59099
 20
0.0
 30
0.0
 11
2.989467
 21
1.398477
 31
0.0
  0
LINE
  8
0
 62
     0
 10
3.59099
 20
2.0
 30
0.0
 11
4.8
 21
3.20901
 31
0.0
  0
LINE
  8
0
 62
     0
 10
1.767767
 20
0.0
 30
0.0
 11
2.894279
 21
1.126512
 31
0.0
  0
LINE
  8
0
 62
     0
 10
3.767767
 20
2.0
 30
0.0
 11
4.8
 21
3.032233
 31
0.0
  0
LINE
  8
0
 62
     0
 10
1.944544
 20
0.0
 30
0.0
 11
2.799092
 21
0.854548
 31
0.0
  0
LINE
  8
0
 62
     0
 10
3.944544
 20
2.0
 30
0.0
 11
4.8
 21
2.855456
 31
0.0
  0
LINE
  8
0
 62
     0
 10
2.12132
 20
0.0
 30
0.0
 11
2.703904
 21
0.582584
 31
0.0
  0
LINE
  8
0
 62
     0
 10
4.12132
 20
2.0
 30
0.0
 11
4.8
 21
2.67868
 31
0.0
  0
LINE
  8
0
 62
     0
 10
2.298097
 20
0.0
 30
0.0
 11
2.608717
 21
0.31062
 31
0.0
  0
LINE
  8
0
 62
     0
 10
4.298097
 20
2.0
 30
0.0
 11
4.8
 21
2.501903
 31
0.0
  0
LINE
  8
0
 62
     0
 10
2.474874
 20
0.0
 30
0.0
 11
2.51353
 21
0.038656
 31
0.0
  0
LINE
  8
0
 62
     0
 10
4.474874
 20
2.0
 30
0.0
 11
4.8
 21
2.325126
 31
0.0
  0
LINE
  8
0
 62
     0
 10
4.65165
 20
2.0
 30
0.0
 11
4.8
 21
2.14835
 31
0.0
  0
ENDBLK
  8
0
  0
BLOCK
  8
0
  2
*X25
 70
    65
 10
0.0
 20
0.0
 30
0.0
  3
*X
  0
LINE
  8
0
 62
     0
 10
6.884654
 20
1.75813
 30
0.0
 11
8.736506
 21
3.609982
 31
0.0
  0
LINE
  8
0
 62
     0
 10
6.838823
 20
1.889076
 30
0.0
 11
8.690675
 21
3.740928
 31
0.0
  0
LINE
  8
0
 62
     0
 10
6.772971
 20
2.0
 30
0.0
 11
8.644844
 21
3.871874
 31
0.0
  0
LINE
  8
0
 62
     0
 10
6.596194
 20
2.0
 30
0.0
 11
8.599013
 21
4.002819
 31
0.0
  0
LINE
  8
0
 62
     0
 10
6.419417
 20
2.0
 30
0.0
 11
8.553182
 21
4.133765
 31
0.0
  0
LINE
  8
0
 62
     0
 10
6.242641
 20
2.0
 30
0.0
 11
8.507351
 21
4.264711
 31
0.0
  0
LINE
  8
0
 62
     0
 10
6.065864
 20
2.0
 30
0.0
 11
8.46152
 21
4.395656
 31
0.0
  0
LINE
  8
0
 62
     0
 10
5.889087
 20
2.0
 30
0.0
 11
8.415689
 21
4.526602
 31
0.0
  0
LINE
  8
0
 62
     0
 10
5.712311
 20
2.0
 30
0.0
 11
8.369858
 21
4.657548
 31
0.0
  0
LINE
  8
0
 62
     0
 10
5.535534
 20
2.0
 30
0.0
 11
8.324027
 21
4.788493
 31
0.0
  0
LINE
  8
0
 62
     0
 10
5.358757
 20
2.0
 30
0.0
 11
8.158757
 21
4.8
 31
0.0
  0
LINE
  8
0
 62
     0
 10
5.2
 20
2.018019
 30
0.0
 11
7.981981
 21
4.8
 31
0.0
  0
LINE
  8
0
 62
     0
 10
5.2
 20
2.194796
 30
0.0
 11
7.805204
 21
4.8
 31
0.0
  0
LINE
  8
0
 62
     0
 10
5.2
 20
2.371573
 30
0.0
 11
7.628427
 21
4.8
 31
0.0
  0
LINE
  8
0
 62
     0
 10
5.2
 20
2.54835
 30
0.0
 11
7.45165
 21
4.8
 31
0.0
  0
LINE
  8
0
 62
     0
 10
5.2
 20
2.725126
 30
0.0
 11
7.274874
 21
4.8
 31
0.0
  0
LINE
  8
0
 62
     0
 10
5.2
 20
2.901903
 30
0.0
 11
7.098097
 21
4.8
 31
0.0
  0
LINE
  8
0
 62
     0
 10
5.2
 20
3.07868
 30
0.0
 11
6.92132
 21
4.8
 31
0.0
  0
LINE
  8
0
 62
     0
 10
5.2
 20
3.255456
 30
0.0
 11
6.744544
 21
4.8
 31
0.0
  0
LINE
  8
0
 62
     0
 10
5.2
 20
3.432233
 30
0.0
 11
6.567767
 21
4.8
 31
0.0
  0
LINE
  8
0
 62
     0
 10
5.2
 20
3.60901
 30
0.0
 11
6.39099
 21
4.8
 31
0.0
  0
LINE
  8
0
 62
     0
 10
5.2
 20
3.785786
 30
0.0
 11
6.214214
 21
4.8
 31
0.0
  0
LINE
  8
0
 62
     0
 10
5.2
 20
3.962563
 30
0.0
 11
6.037437
 21
4.8
 31
0.0
  0
LINE
  8
0
 62
     0
 10
5.2
 20
4.13934
 30
0.0
 11
5.86066
 21
4.8
 31
0.0
  0
LINE
  8
0
 62
     0
 10
5.2
 20
4.316117
 30
0.0
 11
5.683883
 21
4.8
 31
0.0
  0
LINE
  8
0
 62
     0
 10
5.2
 20
4.492893
 30
0.0
 11
5.507107
 21
4.8
 31
0.0
  0
LINE
  8
0
 62
     0
 10
5.2
 20
4.66967
 30
0.0
 11
5.33033
 21
4.8
 31
0.0
  0
LINE
  8
0
 62
     0
 10
6.930485
 20
1.627185
 30
0.0
 11
8.782337
 21
3.479036
 31
0.0
  0
LINE
  8
0
 62
     0
 10
6.976316
 20
1.496239
 30
0.0
 11
8.828168
 21
3.348091
 31
0.0
  0
LINE
  8
0
 62
     0
 10
7.022147
 20
1.365293
 30
0.0
 11
8.873999
 21
3.217145
 31
0.0
  0
LINE
  8
0
 62
     0
 10
7.067978
 20
1.234347
 30
0.0
 11
8.91983
 21
3.086199
 31
0.0
  0
LINE
  8
0
 62
     0
 10
7.113809
 20
1.103402
 30
0.0
 11
8.965661
 21
2.955254
 31
0.0
  0
LINE
  8
0
 62
     0
 10
7.15964
 20
0.972456
 30
0.0
 11
9.011492
 21
2.824308
 31
0.0
  0
LINE
  8
0
 62
     0
 10
7.205471
 20
0.84151
 30
0.0
 11
9.057323
 21
2.693362
 31
0.0
  0
LINE
  8
0
 62
     0
 10
7.251302
 20
0.710565
 30
0.0
 11
9.103154
 21
2.562416
 31
0.0
  0
LINE
  8
0
 62
     0
 10
7.297133
 20
0.579619
 30
0.0
 11
9.148985
 21
2.431471
 31
0.0
  0
LINE
  8
0
 62
     0
 10
7.342964
 20
0.448673
 30
0.0
 11
9.194816
 21
2.300525
 31
0.0
  0
LINE
  8
0
 62
     0
 10
7.388795
 20
0.317728
 30
0.0
 11
9.240647
 21
2.169579
 31
0.0
  0
LINE
  8
0
 62
     0
 10
7.434626
 20
0.186782
 30
0.0
 11
9.286478
 21
2.038634
 31
0.0
  0
LINE
  8
0
 62
     0
 10
7.480457
 20
0.055836
 30
0.0
 11
9.332309
 21
1.907688
 31
0.0
  0
LINE
  8
0
 62
     0
 10
7.601398
 20
0.0
 30
0.0
 11
9.37814
 21
1.776742
 31
0.0
  0
LINE
  8
0
 62
     0
 10
7.778175
 20
0.0
 30
0.0
 11
9.423971
 21
1.645797
 31
0.0
  0
LINE
  8
0
 62
     0
 10
7.954951
 20
0.0
 30
0.0
 11
9.469802
 21
1.514851
 31
0.0
  0
LINE
  8
0
 62
     0
 10
8.131728
 20
0.0
 30
0.0
 11
9.515633
 21
1.383905
 31
0.0
  0
LINE
  8
0
 62
     0
 10
8.308505
 20
0.0
 30
0.0
 11
9.561464
 21
1.252959
 31
0.0
  0
LINE
  8
0
 62
     0
 10
8.485281
 20
0.0
 30
0.0
 11
9.607295
 21
1.122014
 31
0.0
  0
LINE
  8
0
 62
     0
 10
8.662058
 20
0.0
 30
0.0
 11
9.653126
 21
0.991068
 31
0.0
  0
LINE
  8
0
 62
     0
 10
8.838835
 20
0.0
 30
0.0
 11
9.698957
 21
0.860122
 31
0.0
  0
LINE
  8
0
 62
     0
 10
9.015611
 20
0.0
 30
0.0
 11
9.744788
 21
0.729177
 31
0.0
  0
LINE
  8
0
 62
     0
 10
9.192388
 20
0.0
 30
0.0
 11
9.790619
 21
0.598231
 31
0.0
  0
LINE
  8
0
 62
     0
 10
9.369165
 20
0.0
 30
0.0
 11
9.83645
 21
0.467285
 31
0.0
  0
LINE
  8
0
 62
     0
 10
9.545942
 20
0.0
 30
0.0
 11
9.882281
 21
0.33634
 31
0.0
  0
LINE
  8
0
 62
     0
 10
9.722718
 20
0.0
 30
0.0
 11
9.928112
 21
0.205394
 31
0.0
  0
LINE
  8
0
 62
     0
 10
9.899495
 20
0.0
 30
0.0
 11
9.973943
 21
0.074448
 31
0.0
  0
ENDBLK
  8
0
  0
BLOCK
  8
0
  2
*X26
 70
    65
 10
0.0
 20
0.0
 30
0.0
  3
*X
  0
LINE
  8
0
 62
     0
 10
10.7
 20
6.280583
 30
0.0
 11
13.5
 21
9.080583
 31
0.0
  0
LINE
  8
0
 62
     0
 10
10.7
 20
6.457359
 30
0.0
 11
13.5
 21
9.257359
 31
0.0
  0
LINE
  8
0
 62
     0
 10
10.7
 20
6.634136
 30
0.0
 11
13.5
 21
9.434136
 31
0.0
  0
LINE
  8
0
 62
     0
 10
10.7
 20
6.810913
 30
0.0
 11
13.5
 21
9.610913
 31
0.0
  0
LINE
  8
0
 62
     0
 10
10.7
 20
6.987689
 30
0.0
 11
13.5
 21
9.787689
 31
0.0
  0
LINE
  8
0
 62
     0
 10
10.7
 20
7.164466
 30
0.0
 11
13.5
 21
9.964466
 31
0.0
  0
LINE
  8
0
 62
     0
 10
10.7
 20
7.341243
 30
0.0
 11
13.358757
 21
10.0
 31
0.0
  0
LINE
  8
0
 62
     0
 10
10.7
 20
7.518019
 30
0.0
 11
13.181981
 21
10.0
 31
0.0
  0
LINE
  8
0
 62
     0
 10
10.7
 20
7.694796
 30
0.0
 11
13.005204
 21
10.0
 31
0.0
  0
LINE
  8
0
 62
     0
 10
10.7
 20
7.871573
 30
0.0
 11
12.828427
 21
10.0
 31
0.0
  0
LINE
  8
0
 62
     0
 10
10.7
 20
8.04835
 30
0.0
 11
12.65165
 21
10.0
 31
0.0
  0
LINE
  8
0
 62
     0
 10
10.7
 20
8.225126
 30
0.0
 11
12.474874
 21
10.0
 31
0.0
  0
LINE
  8
0
 62
     0
 10
10.7
 20
8.401903
 30
0.0
 11
12.298097
 21
10.0
 31
0.0
  0
LINE
  8
0
 62
     0
 10
10.7
 20
8.57868
 30
0.0
 11
12.12132
 21
10.0
 31
0.0
  0
LINE
  8
0
 62
     0
 10
10.7
 20
8.755456
 30
0.0
 11
11.944544
 21
10.0
 31
0.0
  0
LINE
  8
0
 62
     0
 10
10.7
 20
8.932233
 30
0.0
 11
11.767767
 21
10.0
 31
0.0
  0
LINE
  8
0
 62
     0
 10
10.7
 20
9.10901
 30
0.0
 11
11.59099
 21
10.0
 31
0.0
  0
LINE
  8
0
 62
     0
 10
10.7
 20
9.285786
 30
0.0
 11
11.414214
 21
10.0
 31
0.0
  0
LINE
  8
0
 62
     0
 10
10.7
 20
9.462563
 30
0.0
 11
11.237437
 21
10.0
 31
0.0
  0
LINE
  8
0
 62
     0
 10
10.7
 20
9.63934
 30
0.0
 11
11.06066
 21
10.0
 31
0.0
  0
LINE
  8
0
 62
     0
 10
10.7
 20
9.816117
 30
0.0
 11
10.883883
 21
10.0
 31
0.0
  0
LINE
  8
0
 62
     0
 10
10.7
 20
9.992893
 30
0.0
 11
10.707107
 21
10.0
 31
0.0
  0
LINE
  8
0
 62
     0
 10
10.7
 20
6.103806
 30
0.0
 11
13.5
 21
8.903806
 31
0.0
  0
LINE
  8
0
 62
     0
 10
10.7
 20
5.927029
 30
0.0
 11
13.5
 21
8.727029
 31
0.0
  0
LINE
  8
0
 62
     0
 10
10.7
 20
5.750253
 30
0.0
 11
13.5
 21
8.550253
 31
0.0
  0
LINE
  8
0
 62
     0
 10
10.7
 20
5.573476
 30
0.0
 11
13.5
 21
8.373476
 31
0.0
  0
LINE
  8
0
 62
     0
 10
10.7
 20
5.396699
 30
0.0
 11
13.5
 21
8.196699
 31
0.0
  0
LINE
  8
0
 62
     0
 10
10.7
 20
5.219922
 30
0.0
 11
13.5
 21
8.019922
 31
0.0
  0
LINE
  8
0
 62
     0
 10
10.856854
 20
5.2
 30
0.0
 11
13.5
 21
7.843146
 31
0.0
  0
LINE
  8
0
 62
     0
 10
11.033631
 20
5.2
 30
0.0
 11
13.5
 21
7.666369
 31
0.0
  0
LINE
  8
0
 62
     0
 10
11.210408
 20
5.2
 30
0.0
 11
13.5
 21
7.489592
 31
0.0
  0
LINE
  8
0
 62
     0
 10
11.387184
 20
5.2
 30
0.0
 11
13.5
 21
7.312816
 31
0.0
  0
LINE
  8
0
 62
     0
 10
11.563961
 20
5.2
 30
0.0
 11
13.5
 21
7.136039
 31
0.0
  0
LINE
  8
0
 62
     0
 10
11.740738
 20
5.2
 30
0.0
 11
13.5
 21
6.959262
 31
0.0
  0
LINE
  8
0
 62
     0
 10
11.917514
 20
5.2
 30
0.0
 11
13.5
 21
6.782486
 31
0.0
  0
LINE
  8
0
 62
     0
 10
12.094291
 20
5.2
 30
0.0
 11
13.5
 21
6.605709
 31
0.0
  0
LINE
  8
0
 62
     0
 10
12.271068
 20
5.2
 30
0.0
 11
13.5
 21
6.428932
 31
0.0
  0
LINE
  8
0
 62
     0
 10
12.447845
 20
5.2
 30
0.0
 11
13.5
 21
6.252155
 31
0.0
  0
LINE
  8
0
 62
     0
 10
12.624621
 20
5.2
 30
0.0
 11
13.5
 21
6.075379
 31
0.0
  0
LINE
  8
0
 62
     0
 10
12.801398
 20
5.2
 30
0.0
 11
13.5
 21
5.898602
 31
0.0
  0
LINE
  8
0
 62
     0
 10
12.978175
 20
5.2
 30
0.0
 11
13.5
 21
5.721825
 31
0.0
  0
LINE
  8
0
 62
     0
 10
13.154951
 20
5.2
 30
0.0
 11
13.5
 21
5.545049
 31
0.0
  0
LINE
  8
0
 62
     0
 10
13.331728
 20
5.2
 30
0.0
 11
13.5
 21
5.368272
 31
0.0
  0
ENDBLK
  8
0
  0
BLOCK
  8
0
  2
*X27
 70
    65
 10
0.0
 20
0.0
 30
0.0
  3
*X
  0
LINE
  8
0
 62
     0
 10
10.7
 20
1.154058
 30
0.0
 11
13.5
 21
3.954058
 31
0.0
  0
LINE
  8
0
 62
     0
 10
10.7
 20
1.330835
 30
0.0
 11
13.5
 21
4.130835
 31
0.0
  0
LINE
  8
0
 62
     0
 10
10.7
 20
1.507612
 30
0.0
 11
13.5
 21
4.307612
 31
0.0
  0
LINE
  8
0
 62
     0
 10
10.7
 20
1.684389
 30
0.0
 11
13.5
 21
4.484389
 31
0.0
  0
LINE
  8
0
 62
     0
 10
10.7
 20
1.861165
 30
0.0
 11
13.5
 21
4.661165
 31
0.0
  0
LINE
  8
0
 62
     0
 10
10.7
 20
2.037942
 30
0.0
 11
13.462058
 21
4.8
 31
0.0
  0
LINE
  8
0
 62
     0
 10
10.7
 20
2.214719
 30
0.0
 11
13.285281
 21
4.8
 31
0.0
  0
LINE
  8
0
 62
     0
 10
10.7
 20
2.391495
 30
0.0
 11
13.108505
 21
4.8
 31
0.0
  0
LINE
  8
0
 62
     0
 10
10.7
 20
2.568272
 30
0.0
 11
12.931728
 21
4.8
 31
0.0
  0
LINE
  8
0
 62
     0
 10
10.7
 20
2.745049
 30
0.0
 11
12.754951
 21
4.8
 31
0.0
  0
LINE
  8
0
 62
     0
 10
10.7
 20
2.921825
 30
0.0
 11
12.578175
 21
4.8
 31
0.0
  0
LINE
  8
0
 62
     0
 10
10.7
 20
3.098602
 30
0.0
 11
12.401398
 21
4.8
 31
0.0
  0
LINE
  8
0
 62
     0
 10
10.7
 20
3.275379
 30
0.0
 11
12.224621
 21
4.8
 31
0.0
  0
LINE
  8
0
 62
     0
 10
10.7
 20
3.452155
 30
0.0
 11
12.047845
 21
4.8
 31
0.0
  0
LINE
  8
0
 62
     0
 10
10.7
 20
3.628932
 30
0.0
 11
11.871068
 21
4.8
 31
0.0
  0
LINE
  8
0
 62
     0
 10
10.7
 20
3.805709
 30
0.0
 11
11.694291
 21
4.8
 31
0.0
  0
LINE
  8
0
 62
     0
 10
10.7
 20
3.982486
 30
0.0
 11
11.517514
 21
4.8
 31
0.0
  0
LINE
  8
0
 62
     0
 10
10.7
 20
4.159262
 30
0.0
 11
11.340738
 21
4.8
 31
0.0
  0
LINE
  8
0
 62
     0
 10
10.7
 20
4.336039
 30
0.0
 11
11.163961
 21
4.8
 31
0.0
  0
LINE
  8
0
 62
     0
 10
10.7
 20
4.512816
 30
0.0
 11
10.987184
 21
4.8
 31
0.0
  0
LINE
  8
0
 62
     0
 10
10.7
 20
4.689592
 30
0.0
 11
10.810408
 21
4.8
 31
0.0
  0
LINE
  8
0
 62
     0
 10
10.7
 20
0.977282
 30
0.0
 11
13.5
 21
3.777282
 31
0.0
  0
LINE
  8
0
 62
     0
 10
10.7
 20
0.800505
 30
0.0
 11
13.5
 21
3.600505
 31
0.0
  0
LINE
  8
0
 62
     0
 10
10.7
 20
0.623728
 30
0.0
 11
13.5
 21
3.423728
 31
0.0
  0
LINE
  8
0
 62
     0
 10
10.7
 20
0.446952
 30
0.0
 11
13.5
 21
3.246952
 31
0.0
  0
LINE
  8
0
 62
     0
 10
10.7
 20
0.270175
 30
0.0
 11
13.5
 21
3.070175
 31
0.0
  0
LINE
  8
0
 62
     0
 10
10.7
 20
0.093398
 30
0.0
 11
13.5
 21
2.893398
 31
0.0
  0
LINE
  8
0
 62
     0
 10
10.783378
 20
0.0
 30
0.0
 11
13.5
 21
2.716622
 31
0.0
  0
LINE
  8
0
 62
     0
 10
10.960155
 20
0.0
 30
0.0
 11
13.5
 21
2.539845
 31
0.0
  0
LINE
  8
0
 62
     0
 10
11.136932
 20
0.0
 30
0.0
 11
13.5
 21
2.363068
 31
0.0
  0
LINE
  8
0
 62
     0
 10
11.313708
 20
0.0
 30
0.0
 11
13.5
 21
2.186292
 31
0.0
  0
LINE
  8
0
 62
     0
 10
11.490485
 20
0.0
 30
0.0
 11
13.5
 21
2.009515
 31
0.0
  0
LINE
  8
0
 62
     0
 10
11.667262
 20
0.0
 30
0.0
 11
13.5
 21
1.832738
 31
0.0
  0
LINE
  8
0
 62
     0
 10
11.844039
 20
0.0
 30
0.0
 11
13.5
 21
1.655961
 31
0.0
  0
LINE
  8
0
 62
     0
 10
12.020815
 20
0.0
 30
0.0
 11
13.5
 21
1.479185
 31
0.0
  0
LINE
  8
0
 62
     0
 10
12.197592
 20
0.0
 30
0.0
 11
13.5
 21
1.302408
 31
0.0
  0
LINE
  8
0
 62
     0
 10
12.374369
 20
0.0
 30
0.0
 11
13.5
 21
1.125631
 31
0.0
  0
LINE
  8
0
 62
     0
 10
12.551145
 20
0.0
 30
0.0
 11
13.5
 21
0.948855
 31
0.0
  0
LINE
  8
0
 62
     0
 10
12.727922
 20
0.0
 30
0.0
 11
13.5
 21
0.772078
 31
0.0
  0
LINE
  8
0
 62
     0
 10
12.904699
 20
0.0
 30
0.0
 11
13.5
 21
0.595301
 31
0.0
  0
LINE
  8
0
 62
     0
 10
13.081475
 20
0.0
 30
0.0
 11
13.5
 21
0.418525
 31
0.0
  0
LINE
  8
0
 62
     0
 10
13.258252
 20
0.0
 30
0.0
 11
13.5
 21
0.241748
 31
0.0
  0
LINE
  8
0
 62
     0
 10
13.435029
 20
0.0
 30
0.0
 11
13.5
 21
0.064971
 31
0.0
  0
ENDBLK
  8
0
  0
BLOCK
  8
0
  2
*X28
 70
    65
 10
0.0
 20
0.0
 30
0.0
  3
*X
  0
LINE
  8
0
 62
     0
 10
13.9
 20
6.298602
 30
0.0
 11
16.582995
 21
8.981597
 31
0.0
  0
LINE
  8
0
 62
     0
 10
13.9
 20
6.475379
 30
0.0
 11
16.510503
 21
9.085882
 31
0.0
  0
LINE
  8
0
 62
     0
 10
13.9
 20
6.652155
 30
0.0
 11
16.432927
 21
9.185083
 31
0.0
  0
LINE
  8
0
 62
     0
 10
13.9
 20
6.828932
 30
0.0
 11
16.350372
 21
9.279304
 31
0.0
  0
LINE
  8
0
 62
     0
 10
13.9
 20
7.005709
 30
0.0
 11
16.262892
 21
9.368601
 31
0.0
  0
LINE
  8
0
 62
     0
 10
13.9
 20
7.182486
 30
0.0
 11
16.170495
 21
9.452981
 31
0.0
  0
LINE
  8
0
 62
     0
 10
13.9
 20
7.359262
 30
0.0
 11
16.073145
 21
9.532407
 31
0.0
  0
LINE
  8
0
 62
     0
 10
13.9
 20
7.536039
 30
0.0
 11
15.970755
 21
9.606794
 31
0.0
  0
LINE
  8
0
 62
     0
 10
13.9
 20
7.712816
 30
0.0
 11
15.863189
 21
9.676004
 31
0.0
  0
LINE
  8
0
 62
     0
 10
13.9
 20
7.889592
 30
0.0
 11
15.75025
 21
9.739843
 31
0.0
  0
LINE
  8
0
 62
     0
 10
13.9
 20
8.066369
 30
0.0
 11
15.631675
 21
9.798044
 31
0.0
  0
LINE
  8
0
 62
     0
 10
13.9
 20
8.243146
 30
0.0
 11
15.50711
 21
9.850256
 31
0.0
  0
LINE
  8
0
 62
     0
 10
13.9
 20
8.419922
 30
0.0
 11
15.376096
 21
9.896018
 31
0.0
  0
LINE
  8
0
 62
     0
 10
13.9
 20
8.596699
 30
0.0
 11
15.238027
 21
9.934726
 31
0.0
  0
LINE
  8
0
 62
     0
 10
13.9
 20
8.773476
 30
0.0
 11
15.092096
 21
9.965572
 31
0.0
  0
LINE
  8
0
 62
     0
 10
13.9
 20
8.950253
 30
0.0
 11
14.937209
 21
9.987461
 31
0.0
  0
LINE
  8
0
 62
     0
 10
13.9
 20
9.127029
 30
0.0
 11
14.771824
 21
9.998853
 31
0.0
  0
LINE
  8
0
 62
     0
 10
13.9
 20
9.303806
 30
0.0
 11
14.596193
 21
9.999999
 31
0.0
  0
LINE
  8
0
 62
     0
 10
13.9
 20
9.480583
 30
0.0
 11
14.419417
 21
9.999999
 31
0.0
  0
LINE
  8
0
 62
     0
 10
13.9
 20
9.657359
 30
0.0
 11
14.24264
 21
10.0
 31
0.0
  0
LINE
  8
0
 62
     0
 10
13.9
 20
9.834136
 30
0.0
 11
14.065864
 21
10.0
 31
0.0
  0
LINE
  8
0
 62
     0
 10
13.9
 20
6.121825
 30
0.0
 11
16.650245
 21
8.872071
 31
0.0
  0
LINE
  8
0
 62
     0
 10
13.9
 20
5.945049
 30
0.0
 11
16.712035
 21
8.757083
 31
0.0
  0
LINE
  8
0
 62
     0
 10
13.9
 20
5.768272
 30
0.0
 11
16.768067
 21
8.636339
 31
0.0
  0
LINE
  8
0
 62
     0
 10
13.9
 20
5.591495
 30
0.0
 11
16.817955
 21
8.509451
 31
0.0
  0
LINE
  8
0
 62
     0
 10
13.9
 20
5.414719
 30
0.0
 11
16.861189
 21
8.375908
 31
0.0
  0
LINE
  8
0
 62
     0
 10
13.9
 20
5.237942
 30
0.0
 11
16.897097
 21
8.235039
 31
0.0
  0
LINE
  8
0
 62
     0
 10
14.038835
 20
5.2
 30
0.0
 11
16.924779
 21
8.085944
 31
0.0
  0
LINE
  8
0
 62
     0
 10
14.215611
 20
5.2
 30
0.0
 11
16.942997
 21
7.927385
 31
0.0
  0
LINE
  8
0
 62
     0
 10
14.392388
 20
5.2
 30
0.0
 11
16.949987
 21
7.757599
 31
0.0
  0
LINE
  8
0
 62
     0
 10
14.569165
 20
5.2
 30
0.0
 11
16.943101
 21
7.573936
 31
0.0
  0
LINE
  8
0
 62
     0
 10
14.745942
 20
5.2
 30
0.0
 11
16.918037
 21
7.372095
 31
0.0
  0
LINE
  8
0
 62
     0
 10
14.922718
 20
5.2
 30
0.0
 11
16.866909
 21
7.144191
 31
0.0
  0
LINE
  8
0
 62
     0
 10
15.099495
 20
5.2
 30
0.0
 11
16.771715
 21
6.87222
 31
0.0
  0
LINE
  8
0
 62
     0
 10
15.276272
 20
5.2
 30
0.0
 11
15.847951
 21
5.77168
 31
0.0
  0
LINE
  8
0
 62
     0
 10
15.96673
 20
5.890458
 30
0.0
 11
16.559542
 21
6.48327
 31
0.0
  0
LINE
  8
0
 62
     0
 10
15.453048
 20
5.2
 30
0.0
 11
15.970661
 21
5.717613
 31
0.0
  0
LINE
  8
0
 62
     0
 10
15.629825
 20
5.2
 30
0.0
 11
16.088934
 21
5.659109
 31
0.0
  0
LINE
  8
0
 62
     0
 10
15.806602
 20
5.2
 30
0.0
 11
16.202964
 21
5.596363
 31
0.0
  0
LINE
  8
0
 62
     0
 10
15.983378
 20
5.2
 30
0.0
 11
16.312909
 21
5.529531
 31
0.0
  0
LINE
  8
0
 62
     0
 10
16.160155
 20
5.2
 30
0.0
 11
16.418895
 21
5.45874
 31
0.0
  0
LINE
  8
0
 62
     0
 10
16.336932
 20
5.2
 30
0.0
 11
16.521021
 21
5.384089
 31
0.0
  0
LINE
  8
0
 62
     0
 10
16.513708
 20
5.2
 30
0.0
 11
16.619363
 21
5.305655
 31
0.0
  0
LINE
  8
0
 62
     0
 10
16.690485
 20
5.2
 30
0.0
 11
16.713975
 21
5.22349
 31
0.0
  0
ENDBLK
  8
0
  0
BLOCK
  8
0
  2
*X29
 70
    65
 10
0.0
 20
0.0
 30
0.0
  3
*X
  0
LINE
  8
0
 62
     0
 10
13.9
 20
0.818525
 30
0.0
 11
17.39645
 21
4.314974
 31
0.0
  0
LINE
  8
0
 62
     0
 10
13.9
 20
0.995301
 30
0.0
 11
17.336354
 21
4.431655
 31
0.0
  0
LINE
  8
0
 62
     0
 10
13.9
 20
1.172078
 30
0.0
 11
17.272078
 21
4.544156
 31
0.0
  0
LINE
  8
0
 62
     0
 10
13.9
 20
1.348855
 30
0.0
 11
17.203766
 21
4.652621
 31
0.0
  0
LINE
  8
0
 62
     0
 10
13.9
 20
1.525631
 30
0.0
 11
17.131535
 21
4.757167
 31
0.0
  0
LINE
  8
0
 62
     0
 10
13.9
 20
1.702408
 30
0.0
 11
16.997592
 21
4.8
 31
0.0
  0
LINE
  8
0
 62
     0
 10
13.9
 20
1.879185
 30
0.0
 11
16.820815
 21
4.8
 31
0.0
  0
LINE
  8
0
 62
     0
 10
13.9
 20
2.055961
 30
0.0
 11
16.644039
 21
4.8
 31
0.0
  0
LINE
  8
0
 62
     0
 10
13.9
 20
2.232738
 30
0.0
 11
16.467262
 21
4.8
 31
0.0
  0
LINE
  8
0
 62
     0
 10
13.9
 20
2.409515
 30
0.0
 11
16.290485
 21
4.8
 31
0.0
  0
LINE
  8
0
 62
     0
 10
13.9
 20
2.586292
 30
0.0
 11
16.113708
 21
4.8
 31
0.0
  0
LINE
  8
0
 62
     0
 10
13.9
 20
2.763068
 30
0.0
 11
15.936932
 21
4.8
 31
0.0
  0
LINE
  8
0
 62
     0
 10
13.9
 20
2.939845
 30
0.0
 11
15.760155
 21
4.8
 31
0.0
  0
LINE
  8
0
 62
     0
 10
13.9
 20
3.116622
 30
0.0
 11
15.583378
 21
4.8
 31
0.0
  0
LINE
  8
0
 62
     0
 10
13.9
 20
3.293398
 30
0.0
 11
15.406602
 21
4.8
 31
0.0
  0
LINE
  8
0
 62
     0
 10
13.9
 20
3.470175
 30
0.0
 11
15.229825
 21
4.8
 31
0.0
  0
LINE
  8
0
 62
     0
 10
13.9
 20
3.646952
 30
0.0
 11
15.053048
 21
4.8
 31
0.0
  0
LINE
  8
0
 62
     0
 10
13.9
 20
3.823728
 30
0.0
 11
14.876272
 21
4.8
 31
0.0
  0
LINE
  8
0
 62
     0
 10
13.9
 20
4.000505
 30
0.0
 11
14.699495
 21
4.8
 31
0.0
  0
LINE
  8
0
 62
     0
 10
13.9
 20
4.177282
 30
0.0
 11
14.522718
 21
4.8
 31
0.0
  0
LINE
  8
0
 62
     0
 10
13.9
 20
4.354058
 30
0.0
 11
14.345942
 21
4.8
 31
0.0
  0
LINE
  8
0
 62
     0
 10
13.9
 20
4.530835
 30
0.0
 11
14.169165
 21
4.8
 31
0.0
  0
LINE
  8
0
 62
     0
 10
13.9
 20
4.707612
 30
0.0
 11
13.992388
 21
4.8
 31
0.0
  0
LINE
  8
0
 62
     0
 10
13.9
 20
0.641748
 30
0.0
 11
17.452185
 21
4.193933
 31
0.0
  0
LINE
  8
0
 62
     0
 10
13.9
 20
0.464971
 30
0.0
 11
17.503339
 21
4.068311
 31
0.0
  0
LINE
  8
0
 62
     0
 10
13.9
 20
0.288194
 30
0.0
 11
17.549642
 21
3.937837
 31
0.0
  0
LINE
  8
0
 62
     0
 10
13.9
 20
0.111418
 30
0.0
 11
17.590762
 21
3.80218
 31
0.0
  0
LINE
  8
0
 62
     0
 10
13.965359
 20
0.0
 30
0.0
 11
17.62629
 21
3.660931
 31
0.0
  0
LINE
  8
0
 62
     0
 10
14.142136
 20
0.000001
 30
0.0
 11
17.655713
 21
3.513577
 31
0.0
  0
LINE
  8
0
 62
     0
 10
14.318913
 20
0.000001
 30
0.0
 11
17.678385
 21
3.359473
 31
0.0
  0
LINE
  8
0
 62
     0
 10
14.49569
 20
0.000001
 30
0.0
 11
17.693473
 21
3.197784
 31
0.0
  0
LINE
  8
0
 62
     0
 10
14.672467
 20
0.000002
 30
0.0
 11
17.699875
 21
3.027409
 31
0.0
  0
LINE
  8
0
 62
     0
 10
14.853154
 20
0.003912
 30
0.0
 11
17.696088
 21
2.846846
 31
0.0
  0
LINE
  8
0
 62
     0
 10
15.046044
 20
0.020025
 30
0.0
 11
17.679975
 21
2.653956
 31
0.0
  0
LINE
  8
0
 62
     0
 10
15.254483
 20
0.051687
 30
0.0
 11
17.648313
 21
2.445517
 31
0.0
  0
LINE
  8
0
 62
     0
 10
15.483762
 20
0.10419
 30
0.0
 11
17.59581
 21
2.216238
 31
0.0
  0
LINE
  8
0
 62
     0
 10
15.743786
 20
0.187437
 30
0.0
 11
17.512563
 21
1.956214
 31
0.0
  0
LINE
  8
0
 62
     0
 10
16.058176
 20
0.32505
 30
0.0
 11
17.37495
 21
1.641824
 31
0.0
  0
LINE
  8
0
 62
     0
 10
16.54193
 20
0.632028
 30
0.0
 11
17.067972
 21
1.15807
 31
0.0
  0
ENDBLK
  8
0
  0
BLOCK
  8
0
  2
MAA
 70
    64
 10
0.0
 20
0.0
 30
0.0
  3
MAA
  0
LINE
  8
0
  6
CONTINUOUS
 10
-0.500718
 20
-2.587966
 30
0.0
 11
0.386169
 21
-2.587966
 31
0.0
  0
LINE
  8
0
  6
CONTINUOUS
 10
-0.831823
 20
-1.976333
 30
0.0
 11
0.752749
 21
-1.976333
 31
0.0
  0
LINE
  8
0
  6
CONTINUOUS
 10
-0.015887
 20
-1.35427
 30
0.0
 11
1.178454
 21
-1.35427
 31
0.0
  0
LINE
  8
0
  6
CONTINUOUS
 10
-1.210228
 20
-1.35427
 30
0.0
 11
-0.015887
 21
-1.35427
 31
0.0
  0
LINE
  8
0
  6
CONTINUOUS
 10
0.0
 20
0.0
 30
0.0
 11
0.0
 21
-1.35427
 31
0.0
  0
ENDBLK
  8
0
  0
BLOCK
  8
0
  2
B507
 70
    64
 10
0.0
 20
0.0
 30
0.0
  3
B507
  0
LINE
  8
0
  6
CONTINUOUS
 10
0.079622
 20
0.147754
 30
0.0
 11
0.079622
 21
-9.002074
 31
0.0
  0
INSERT
  8
0
  6
CONTINUOUS
  2
BLC29
 10
0.212369
 20
-6.641509
 30
0.0
 50
270.0
  0
ENDBLK
  8
0
  0
ENDSEC
  0
SECTION
  2
ENTITIES
  0
INSERT
  8
0
  2
1
 10
65.405438
 20
98.713066
 30
0.0
  0
INSERT
  8
0
  2
1
 10
72.541652
 20
49.71056
 30
0.0
  0
INSERT
  8
0
  2
1
 10
85.390443
 20
73.497234
 30
0.0
  0
LINE
  8
0
  6
CENTER
 62
     7
 10
250.0
 20
195.0
 30
0.0
 11
250.0
 21
87.5
 31
0.0
  0
LINE
  8
0
  6
CENTER
 62
     7
 10
250.0
 20
87.5
 30
0.0
 11
250.0
 21
57.5
 31
0.0
  0
LINE
  8
0
  6
CONTINUOUS
 62
     7
 10
210.450615
 20
187.209828
 30
0.0
 11
210.450615
 21
130.0
 31
0.0
  0
LINE
  8
0
  6
CONTINUOUS
 62
     7
 10
210.450615
 20
215.0
 30
0.0
 11
210.450615
 21
187.18832
 31
0.0
  0
LINE
  8
0
  6
CENTER
 62
     7
 10
250.0
 20
217.5
 30
0.0
 11
250.0
 21
195.0
 31
0.0
  0
LINE
  8
0
  6
CONTINUOUS
 62
     7
 10
180.0
 20
130.0
 30
0.0
 11
210.450615
 21
130.0
 31
0.0
  0
LINE
  8
0
  6
CONTINUOUS
 62
     7
 10
200.0
 20
130.0
 30
0.0
 11
200.0
 21
215.0
 31
0.0
  0
LINE
  8
0
  6
CONTINUOUS
 62
     7
 10
180.0
 20
200.0
 30
0.0
 11
180.0
 21
185.0
 31
0.0
  0
LINE
  8
0
  6
CONTINUOUS
 62
     7
 10
180.0
 20
200.0
 30
0.0
 11
180.0
 21
215.0
 31
0.0
  0
LINE
  8
0
  6
CONTINUOUS
 62
     7
 10
180.0
 20
185.0
 30
0.0
 11
180.0
 21
130.0
 31
0.0
  0
LINE
  8
0
  6
CENTER
 62
     7
 10
40.0
 20
242.5
 30
0.0
 11
40.0
 21
57.5
 31
0.0
  0
LINE
  8
0
  6
CONTINUOUS
 62
     7
 10
57.5
 20
132.5
 30
0.0
 11
51.756076
 21
129.285297
 31
0.0
  0
LINE
  8
0
  6
CONTINUOUS
 62
     7
 10
75.0
 20
122.5
 30
0.0
 11
69.256076
 21
119.285297
 31
0.0
  0
LINE
  8
0
  6
CONTINUOUS
 62
     7
 10
75.0
 20
122.5
 30
0.0
 11
77.5
 21
122.5
 31
0.0
  0
LINE
  8
0
  6
CONTINUOUS
 62
     7
 10
70.0
 20
122.5
 30
0.0
 11
40.0
 21
122.5
 31
0.0
  0
LINE
  8
0
  6
DASHED
 62
     7
 10
55.0
 20
137.5
 30
0.0
 11
55.0
 21
131.100824
 31
0.0
  0
LINE
  8
0
  6
DASHED
 62
     7
 10
72.5
 20
135.0
 30
0.0
 11
72.5
 21
121.100824
 31
0.0
  0
LINE
  8
0
  6
DASHED
 62
     7
 10
85.0
 20
135.0
 30
0.0
 11
85.0
 21
106.100824
 31
0.0
  0
LINE
  8
0
  6
DASHED
 62
     7
 10
107.5
 20
112.5
 30
0.0
 11
107.5
 21
76.100824
 31
0.0
  0
TEXT
  8
0
  6
DASHED
 62
     7
 10
50.697373
 20
133.403492
 30
0.0
 40
2.0
  1
A
  7
ROMANS
  0
TEXT
  8
0
  6
DASHED
 62
     7
 10
69.143373
 20
123.774588
 30
0.0
 40
2.0
  1
B
  7
ROMANS
  0
TEXT
  8
0
  6
DASHED
 62
     7
 10
81.055109
 20
108.134364
 30
0.0
 40
2.0
  1
C
  7
ROMANS
  0
TEXT
  8
0
  6
DASHED
 62
     7
 10
103.171573
 20
78.364654
 30
0.0
 40
2.0
  1
E
  7
ROMANS
  0
LINE
  8
0
  6
CENTER
 62
     7
 10
40.0
 20
57.5
 30
0.0
 11
250.0
 21
57.5
 31
0.0
  0
LINE
  8
0
  6
CONTINUOUS
 62
     7
 10
230.0
 20
167.5
 30
0.0
 11
231.0
 21
166.5
 31
0.0
  0
LINE
  8
0
  6
CONTINUOUS
 62
     7
 10
230.0
 20
212.5
 30
0.0
 11
231.0
 21
213.5
 31
0.0
  0
LINE
  8
0
  6
CONTINUOUS
 62
     7
 10
230.0
 20
212.5
 30
0.0
 11
230.0
 21
167.5
 31
0.0
  0
LINE
  8
0
  6
CENTER
 62
     7
 10
250.0
 20
217.5
 30
0.0
 11
250.0
 21
242.5
 31
0.0
  0
LINE
  8
0
  6
CENTER
 62
     7
 10
250.0
 20
242.5
 30
0.0
 11
40.0
 21
242.5
 31
0.0
  0
LINE
  8
0
  6
CONTINUOUS
 62
     7
 10
25.0
 20
107.5
 30
0.0
 11
25.0
 21
97.499655
 31
0.0
  0
LINE
  8
0
  6
CONTINUOUS
 62
     7
 10
25.0
 20
107.5
 30
0.0
 11
26.0
 21
108.5
 31
0.0
  0
LINE
  8
0
  6
CONTINUOUS
 62
     7
 10
25.0
 20
97.499655
 30
0.0
 11
26.0
 21
96.499655
 31
0.0
  0
TEXT
  8
0
  6
CONTINUOUS
 62
     7
 10
20.0
 20
131.534374
 30
0.0
 40
2.0
  1
3)
  7
ROMANS
  0
LINE
  8
0
  6
CONTINUOUS
 62
     7
 10
180.0
 20
155.0
 30
0.0
 11
210.450615
 21
155.0
 31
0.0
  0
TEXT
  8
0
 62
     7
 10
322.947956
 20
88.338465
 30
0.0
 40
2.0
  1
TERMINALS / UTTAG
  7
ROMANS
 11
322.947956
 21
87.671798
 31
0.0
 73
     1
  0
LINE
  8
0
 62
     7
 10
331.00882
 20
58.564865
 30
0.0
 11
361.00882
 21
58.564865
 31
0.0
  0
LINE
  8
0
 62
     7
 10
346.087138
 20
87.671798
 30
0.0
 11
346.087138
 21
44.019587
 31
0.0
  0
LINE
  8
0
 62
     7
 10
331.00882
 20
87.671798
 30
0.0
 11
331.00882
 21
44.019587
 31
0.0
  0
LINE
  8
0
 62
     7
 10
317.00882
 20
87.671798
 30
0.0
 11
361.00882
 21
87.671798
 31
0.0
  0
LINE
  8
0
 62
     7
 10
361.00882
 20
44.019587
 30
0.0
 11
361.00882
 21
93.671798
 31
0.0
  0
LINE
  8
0
 62
     7
 10
317.00882
 20
93.671798
 30
0.0
 11
317.00882
 21
44.019587
 31
0.0
  0
LINE
  8
0
  6
CONTINUOUS
 62
     7
 10
317.00882
 20
44.019587
 30
0.0
 11
361.00882
 21
44.019587
 31
0.0
  0
LINE
  8
0
  6
HIDDEN
 62
     7
 10
180.0
 20
170.0
 30
0.0
 11
200.0
 21
170.0
 31
0.0
  0
LINE
  8
0
  6
HIDDEN
 62
     7
 10
180.0
 20
165.0
 30
0.0
 11
200.0
 21
165.0
 31
0.0
  0
LINE
  8
0
  6
HIDDEN
 62
     7
 10
180.0
 20
180.0
 30
0.0
 11
200.0
 21
180.0
 31
0.0
  0
LINE
  8
0
  6
CONTINUOUS
 62
     7
 10
185.221986
 20
183.677597
 30
0.0
 11
187.567752
 21
182.342244
 31
0.0
  0
LINE
  8
0
  6
CONTINUOUS
 62
     7
 10
187.567752
 20
182.342244
 30
0.0
 11
185.221986
 21
181.152325
 31
0.0
  0
LINE
  8
0
  6
CONTINUOUS
 62
     7
 10
180.0
 20
215.0
 30
0.0
 11
210.450615
 21
215.0
 31
0.0
  0
LINE
  8
0
  6
CONTINUOUS
 62
     7
 10
52.798812
 20
215.0
 30
0.0
 11
47.5
 21
215.0
 31
0.0
  0
LINE
  8
0
  6
CONTINUOUS
 62
     7
 10
52.798812
 20
220.0
 30
0.0
 11
40.0
 21
220.0
 31
0.0
  0
LINE
  8
0
 62
     7
 10
52.798812
 20
221.589925
 30
0.0
 11
52.798812
 21
213.4
 31
0.0
  0
LINE
  8
0
 62
     7
 10
57.004853
 20
221.59384
 30
0.0
 11
55.09105
 21
219.315018
 31
0.0
  0
LINE
  8
0
 62
     7
 10
58.496971
 20
221.59384
 30
0.0
 11
56.642636
 21
219.315018
 31
0.0
  0
LINE
  8
0
 62
     7
 10
60.221556
 20
221.589925
 30
0.0
 11
52.798812
 21
221.589925
 31
0.0
  0
LINE
  8
0
 62
     7
 10
60.221556
 20
213.4
 30
0.0
 11
60.221556
 21
221.589925
 31
0.0
  0
LINE
  8
0
  6
CONTINUOUS
 62
     7
 10
60.221556
 20
217.5
 30
0.0
 11
65.0
 21
217.5
 31
0.0
  0
LINE
  8
0
  6
CONTINUOUS
 62
     7
 10
60.221556
 20
210.0
 30
0.0
 11
170.0
 21
210.0
 31
0.0
  0
LINE
  8
0
 62
     7
 10
60.221556
 20
206.204212
 30
0.0
 11
60.221556
 21
214.089925
 31
0.0
  0
LINE
  8
0
 62
     7
 10
60.221556
 20
213.704212
 30
0.0
 11
52.798812
 21
213.704212
 31
0.0
  0
LINE
  8
0
 62
     7
 10
58.496971
 20
213.708127
 30
0.0
 11
56.642636
 21
211.429305
 31
0.0
  0
LINE
  8
0
 62
     7
 10
57.004853
 20
213.708127
 30
0.0
 11
55.09105
 21
211.429305
 31
0.0
  0
LINE
  8
0
 62
     7
 10
52.798812
 20
214.089925
 30
0.0
 11
52.798812
 21
206.204212
 31
0.0
  0
LINE
  8
0
  6
CONTINUOUS
 62
     7
 10
52.798812
 20
212.5
 30
0.0
 11
40.0
 21
212.5
 31
0.0
  0
LINE
  8
0
  6
CONTINUOUS
 62
     7
 10
52.798812
 20
207.5
 30
0.0
 11
47.5
 21
207.5
 31
0.0
  0
LINE
  8
0
 62
     7
 10
60.221556
 20
206.204212
 30
0.0
 11
52.798812
 21
206.204212
 31
0.0
  0
LINE
  8
0
  6
CONTINUOUS
 62
     7
 10
222.5
 20
102.5
 30
0.0
 11
230.0
 21
102.5
 31
0.0
  0
LINE
  8
0
 62
     7
 10
235.0
 20
147.5
 30
0.0
 11
233.480133
 21
147.5
 31
0.0
  0
ARC
  8
0
 62
     7
 10
235.065849
 20
148.75
 30
0.0
 40
1.251733
 50
266.984476
 51
93.015524
  0
LINE
  8
0
 62
     7
 10
235.0
 20
150.0
 30
0.0
 11
233.480133
 21
150.0
 31
0.0
  0
LINE
  8
0
 62
     7
 10
235.0
 20
152.5
 30
0.0
 11
233.480133
 21
152.5
 31
0.0
  0
ARC
  8
0
 62
     7
 10
235.065849
 20
151.25
 30
0.0
 40
1.251733
 50
266.984476
 51
93.015524
  0
LINE
  8
0
 62
     7
 10
240.0
 20
145.0
 30
0.0
 11
242.5
 21
145.0
 31
0.0
  0
ARC
  8
0
 62
     7
 10
239.934151
 20
146.25
 30
0.0
 40
1.251733
 50
86.984476
 51
273.015524
  0
ARC
  8
0
 62
     7
 10
239.934151
 20
148.75
 30
0.0
 40
1.251733
 50
86.984476
 51
273.015524
  0
LINE
  8
0
 62
     7
 10
240.0
 20
147.5
 30
0.0
 11
242.5
 21
147.5
 31
0.0
  0
LINE
  8
0
 62
     7
 10
240.0
 20
150.0
 30
0.0
 11
242.5
 21
150.0
 31
0.0
  0
LINE
  8
0
 62
     7
 10
242.5
 20
150.0
 30
0.0
 11
245.0
 21
150.0
 31
0.0
  0
LINE
  8
0
 62
     7
 10
242.5
 20
145.0
 30
0.0
 11
250.0
 21
145.0
 31
0.0
  0
LINE
  8
0
 62
     7
 10
242.5
 20
150.0
 30
0.0
 11
250.0
 21
150.0
 31
0.0
  0
LINE
  8
0
 62
     7
 10
242.5
 20
155.0
 30
0.0
 11
250.0
 21
155.0
 31
0.0
  0
LINE
  8
0
 62
     7
 10
240.0
 20
155.0
 30
0.0
 11
242.5
 21
155.0
 31
0.0
  0
LINE
  8
0
 62
     7
 10
240.0
 20
152.5
 30
0.0
 11
242.5
 21
152.5
 31
0.0
  0
ARC
  8
0
 62
     7
 10
239.934151
 20
153.75
 30
0.0
 40
1.251733
 50
86.984476
 51
273.015524
  0
ARC
  8
0
 62
     7
 10
239.934151
 20
151.25
 30
0.0
 40
1.251733
 50
86.984476
 51
273.015524
  0
LINE
  8
0
 62
     7
 10
240.0
 20
150.0
 30
0.0
 11
242.5
 21
150.0
 31
0.0
  0
LINE
  8
0
 62
     7
 10
235.0
 20
167.5
 30
0.0
 11
233.480133
 21
167.5
 31
0.0
  0
ARC
  8
0
 62
     7
 10
235.065849
 20
168.75
 30
0.0
 40
1.251733
 50
266.984476
 51
93.015524
  0
LINE
  8
0
 62
     7
 10
235.0
 20
170.0
 30
0.0
 11
233.480133
 21
170.0
 31
0.0
  0
LINE
  8
0
 62
     7
 10
235.0
 20
172.5
 30
0.0
 11
233.480133
 21
172.5
 31
0.0
  0
ARC
  8
0
 62
     7
 10
235.065849
 20
171.25
 30
0.0
 40
1.251733
 50
266.984476
 51
93.015524
  0
LINE
  8
0
 62
     7
 10
240.0
 20
165.0
 30
0.0
 11
242.5
 21
165.0
 31
0.0
  0
ARC
  8
0
 62
     7
 10
239.934151
 20
166.25
 30
0.0
 40
1.251733
 50
86.984476
 51
273.015524
  0
ARC
  8
0
 62
     7
 10
239.934151
 20
168.75
 30
0.0
 40
1.251733
 50
86.984476
 51
273.015524
  0
LINE
  8
0
 62
     7
 10
240.0
 20
167.5
 30
0.0
 11
242.5
 21
167.5
 31
0.0
  0
LINE
  8
0
 62
     7
 10
240.0
 20
170.0
 30
0.0
 11
242.5
 21
170.0
 31
0.0
  0
LINE
  8
0
 62
     7
 10
242.5
 20
170.0
 30
0.0
 11
245.0
 21
170.0
 31
0.0
  0
LINE
  8
0
 62
     7
 10
242.5
 20
165.0
 30
0.0
 11
250.0
 21
165.0
 31
0.0
  0
LINE
  8
0
 62
     7
 10
242.5
 20
170.0
 30
0.0
 11
250.0
 21
170.0
 31
0.0
  0
LINE
  8
0
 62
     7
 10
242.5
 20
175.0
 30
0.0
 11
250.0
 21
175.0
 31
0.0
  0
LINE
  8
0
 62
     7
 10
240.0
 20
175.0
 30
0.0
 11
242.5
 21
175.0
 31
0.0
  0
LINE
  8
0
 62
     7
 10
240.0
 20
172.5
 30
0.0
 11
242.5
 21
172.5
 31
0.0
  0
ARC
  8
0
 62
     7
 10
239.934151
 20
173.75
 30
0.0
 40
1.251733
 50
86.984476
 51
273.015524
  0
ARC
  8
0
 62
     7
 10
239.934151
 20
171.25
 30
0.0
 40
1.251733
 50
86.984476
 51
273.015524
  0
LINE
  8
0
 62
     7
 10
240.0
 20
170.0
 30
0.0
 11
242.5
 21
170.0
 31
0.0
  0
LINE
  8
0
 62
     7
 10
235.0
 20
187.5
 30
0.0
 11
233.480133
 21
187.5
 31
0.0
  0
ARC
  8
0
 62
     7
 10
235.065849
 20
188.75
 30
0.0
 40
1.251733
 50
266.984476
 51
93.015524
  0
LINE
  8
0
 62
     7
 10
235.0
 20
190.0
 30
0.0
 11
233.480133
 21
190.0
 31
0.0
  0
LINE
  8
0
 62
     7
 10
235.0
 20
192.5
 30
0.0
 11
233.480133
 21
192.5
 31
0.0
  0
ARC
  8
0
 62
     7
 10
235.065849
 20
191.25
 30
0.0
 40
1.251733
 50
266.984476
 51
93.015524
  0
LINE
  8
0
 62
     7
 10
240.0
 20
185.0
 30
0.0
 11
242.5
 21
185.0
 31
0.0
  0
ARC
  8
0
 62
     7
 10
239.934151
 20
186.25
 30
0.0
 40
1.251733
 50
86.984476
 51
273.015524
  0
ARC
  8
0
 62
     7
 10
239.934151
 20
188.75
 30
0.0
 40
1.251733
 50
86.984476
 51
273.015524
  0
LINE
  8
0
 62
     7
 10
240.0
 20
187.5
 30
0.0
 11
242.5
 21
187.5
 31
0.0
  0
LINE
  8
0
 62
     7
 10
240.0
 20
190.0
 30
0.0
 11
242.5
 21
190.0
 31
0.0
  0
LINE
  8
0
 62
     7
 10
242.5
 20
190.0
 30
0.0
 11
245.0
 21
190.0
 31
0.0
  0
LINE
  8
0
 62
     7
 10
242.5
 20
185.0
 30
0.0
 11
250.0
 21
185.0
 31
0.0
  0
LINE
  8
0
 62
     7
 10
242.5
 20
190.0
 30
0.0
 11
250.0
 21
190.0
 31
0.0
  0
LINE
  8
0
 62
     7
 10
242.5
 20
195.0
 30
0.0
 11
250.0
 21
195.0
 31
0.0
  0
LINE
  8
0
 62
     7
 10
240.0
 20
195.0
 30
0.0
 11
242.5
 21
195.0
 31
0.0
  0
LINE
  8
0
 62
     7
 10
240.0
 20
192.5
 30
0.0
 11
242.5
 21
192.5
 31
0.0
  0
ARC
  8
0
 62
     7
 10
239.934151
 20
193.75
 30
0.0
 40
1.251733
 50
86.984476
 51
273.015524
  0
ARC
  8
0
 62
     7
 10
239.934151
 20
191.25
 30
0.0
 40
1.251733
 50
86.984476
 51
273.015524
  0
LINE
  8
0
 62
     7
 10
240.0
 20
190.0
 30
0.0
 11
242.5
 21
190.0
 31
0.0
  0
LINE
  8
0
 62
     7
 10
235.0
 20
207.5
 30
0.0
 11
233.480133
 21
207.5
 31
0.0
  0
ARC
  8
0
 62
     7
 10
235.065849
 20
208.75
 30
0.0
 40
1.251733
 50
266.984476
 51
93.015524
  0
LINE
  8
0
 62
     7
 10
235.0
 20
210.0
 30
0.0
 11
233.480133
 21
210.0
 31
0.0
  0
LINE
  8
0
 62
     7
 10
235.0
 20
212.5
 30
0.0
 11
233.480133
 21
212.5
 31
0.0
  0
ARC
  8
0
 62
     7
 10
235.065849
 20
211.25
 30
0.0
 40
1.251733
 50
266.984476
 51
93.015524
  0
LINE
  8
0
 62
     7
 10
240.0
 20
205.0
 30
0.0
 11
242.5
 21
205.0
 31
0.0
  0
ARC
  8
0
 62
     7
 10
239.934151
 20
206.25
 30
0.0
 40
1.251733
 50
86.984476
 51
273.015524
  0
ARC
  8
0
 62
     7
 10
239.934151
 20
208.75
 30
0.0
 40
1.251733
 50
86.984476
 51
273.015524
  0
LINE
  8
0
 62
     7
 10
240.0
 20
207.5
 30
0.0
 11
242.5
 21
207.5
 31
0.0
  0
LINE
  8
0
 62
     7
 10
240.0
 20
210.0
 30
0.0
 11
242.5
 21
210.0
 31
0.0
  0
LINE
  8
0
 62
     7
 10
242.5
 20
210.0
 30
0.0
 11
245.0
 21
210.0
 31
0.0
  0
LINE
  8
0
 62
     7
 10
242.5
 20
205.0
 30
0.0
 11
250.0
 21
205.0
 31
0.0
  0
LINE
  8
0
 62
     7
 10
242.5
 20
210.0
 30
0.0
 11
245.0
 21
210.0
 31
0.0
  0
LINE
  8
0
 62
     7
 10
242.5
 20
215.0
 30
0.0
 11
245.0
 21
215.0
 31
0.0
  0
LINE
  8
0
 62
     7
 10
240.0
 20
215.0
 30
0.0
 11
250.0
 21
215.0
 31
0.0
  0
LINE
  8
0
 62
     7
 10
240.0
 20
212.5
 30
0.0
 11
242.5
 21
212.5
 31
0.0
  0
ARC
  8
0
 62
     7
 10
239.934151
 20
213.75
 30
0.0
 40
1.251733
 50
86.984476
 51
273.015524
  0
ARC
  8
0
 62
     7
 10
239.934151
 20
211.25
 30
0.0
 40
1.251733
 50
86.984476
 51
273.015524
  0
LINE
  8
0
 62
     7
 10
240.0
 20
210.0
 30
0.0
 11
250.0
 21
210.0
 31
0.0
  0
TEXT
  8
0
  6
CONTINUOUS
 62
     7
 10
246.24857
 20
212.163714
 30
0.0
 40
2.0
  1
3
  7
ROMANS
  0
TEXT
  8
0
  6
CONTINUOUS
 62
     7
 10
246.24857
 20
207.199365
 30
0.0
 40
2.0
  1
2
  7
ROMANS
  0
TEXT
  8
0
  6
CONTINUOUS
 62
     7
 10
246.24857
 20
202.246037
 30
0.0
 40
2.0
  1
1
  7
ROMANS
  0
TEXT
  8
0
  6
CONTINUOUS
 62
     7
 10
246.24857
 20
172.106638
 30
0.0
 40
2.0
  1
9
  7
ROMANS
  0
TEXT
  8
0
  6
CONTINUOUS
 62
     7
 10
246.24857
 20
167.505961
 30
0.0
 40
2.0
  1
8
  7
ROMANS
  0
TEXT
  8
0
  6
CONTINUOUS
 62
     7
 10
246.24857
 20
162.001615
 30
0.0
 40
2.0
  1
7
  7
ROMANS
  0
LINE
  8
0
  6
HIDDEN
 62
     7
 10
250.0
 20
220.0
 30
0.0
 11
245.0
 21
220.0
 31
0.0
  0
LINE
  8
0
  6
HIDDEN
 62
     7
 10
245.0
 20
220.0
 30
0.0
 11
245.0
 21
72.5
 31
0.0
  0
LINE
  8
0
  6
HIDDEN
 62
     7
 10
245.0
 20
72.5
 30
0.0
 11
250.0
 21
72.5
 31
0.0
  0
TEXT
  8
0
  6
HIDDEN
 62
     7
 10
245.929881
 20
216.186149
 30
0.0
 40
2.0
  1
X0
  7
ROMANS
  0
LINE
  8
0
  6
CONTINUOUS
 62
     7
 10
230.0
 20
150.0
 30
0.0
 11
222.5
 21
150.0
 31
0.0
  0
LINE
  8
0
  6
CONTINUOUS
 62
     7
 10
222.5
 20
140.0
 30
0.0
 11
222.5
 21
170.570278
 31
0.0
  0
LINE
  8
0
  6
CONTINUOUS
 62
     7
 10
222.5
 20
170.570278
 30
0.0
 11
210.450615
 21
170.570278
 31
0.0
  0
LINE
  8
0
  6
CONTINUOUS
 62
     7
 10
215.0
 20
190.0
 30
0.0
 11
215.0
 21
57.5
 31
0.0
  0
LINE
  8
0
  6
CONTINUOUS
 62
     7
 10
230.0
 20
190.0
 30
0.0
 11
215.0
 21
190.0
 31
0.0
  0
LINE
  8
0
  6
DASHED
 62
     7
 10
40.0
 20
220.0
 30
0.0
 11
32.5
 21
220.0
 31
0.0
  0
LINE
  8
0
  6
DASHED
 62
     7
 10
40.0
 20
212.5
 30
0.0
 11
32.5
 21
212.5
 31
0.0
  0
LINE
  8
0
  6
DASHED
 62
     7
 10
40.0
 20
207.5
 30
0.0
 11
32.5
 21
207.5
 31
0.0
  0
LINE
  8
0
  6
CONTINUOUS
 62
     7
 10
22.5
 20
207.499655
 30
0.0
 11
23.5
 21
206.499655
 31
0.0
  0
LINE
  8
0
  6
CONTINUOUS
 62
     7
 10
22.5
 20
220.0
 30
0.0
 11
23.5
 21
221.0
 31
0.0
  0
LINE
  8
0
  6
CONTINUOUS
 62
     7
 10
22.5
 20
220.0
 30
0.0
 11
22.5
 21
207.499655
 31
0.0
  0
LINE
  8
0
  6
DASHED
 62
     7
 10
40.0
 20
107.5
 30
0.0
 11
27.5
 21
107.5
 31
0.0
  0
LINE
  8
0
  6
DASHED
 62
     7
 10
40.0
 20
97.5
 30
0.0
 11
27.5
 21
97.5
 31
0.0
  0
LINE
  8
0
  6
DASHED
 62
     7
 10
40.0
 20
77.5
 30
0.0
 11
27.5
 21
77.5
 31
0.0
  0
LINE
  8
0
  6
CONTINUOUS
 62
     7
 10
25.0
 20
77.5
 30
0.0
 11
26.0
 21
78.5
 31
0.0
  0
LINE
  8
0
  6
CONTINUOUS
 62
     7
 10
25.0
 20
67.499655
 30
0.0
 11
26.0
 21
66.499655
 31
0.0
  0
LINE
  8
0
  6
CONTINUOUS
 62
     7
 10
25.0
 20
77.5
 30
0.0
 11
25.0
 21
67.499655
 31
0.0
  0
LINE
  8
0
  6
CONTINUOUS
 62
     7
 10
375.727984
 20
200.0
 30
0.0
 11
375.727984
 21
215.0
 31
0.0
  0
LINE
  8
0
  6
CONTINUOUS
 62
     7
 10
355.727984
 20
215.0
 30
0.0
 11
355.727984
 21
200.0
 31
0.0
  0
LINE
  8
0
  6
CONTINUOUS
 62
     7
 10
363.185823
 20
206.796181
 30
0.0
 11
367.678973
 21
206.796181
 31
0.0
  0
TEXT
  8
0
  6
CONTINUOUS
 62
     7
 10
361.308659
 20
205.879555
 30
0.0
 40
2.0
  1
O
  0
TEXT
  8
0
  6
CONTINUOUS
 62
     7
 10
367.831775
 20
205.875304
 30
0.0
 40
2.0
  1
I
  0
LINE
  8
0
  6
CONTINUOUS
 62
     7
 10
355.727984
 20
215.0
 30
0.0
 11
355.727984
 21
237.5
 31
0.0
  0
LINE
  8
0
  6
CONTINUOUS
 62
     7
 10
375.727984
 20
217.5
 30
0.0
 11
355.727984
 21
217.5
 31
0.0
  0
LINE
  8
0
  6
CONTINUOUS
 62
     7
 10
375.727984
 20
237.5
 30
0.0
 11
375.727984
 21
215.0
 31
0.0
  0
LINE
  8
0
  6
CONTINUOUS
 62
     7
 10
355.727984
 20
237.5
 30
0.0
 11
375.727984
 21
237.5
 31
0.0
  0
LINE
  8
0
  6
CONTINUOUS
 62
     7
 10
369.142955
 20
220.783684
 30
0.0
 11
369.142955
 21
218.995552
 31
0.0
  0
LINE
  8
0
  6
CONTINUOUS
 62
     7
 10
366.188843
 20
222.136568
 30
0.0
 11
367.08952
 21
221.012819
 31
0.0
  0
LINE
  8
0
  6
CONTINUOUS
 62
     7
 10
363.743436
 20
218.770802
 30
0.0
 11
366.619546
 21
221.599361
 31
0.0
  0
LINE
  8
0
  6
CONTINUOUS
 62
     7
 10
361.359291
 20
219.938405
 30
0.0
 11
369.147496
 21
219.938405
 31
0.0
  0
LINE
  8
0
  6
CONTINUOUS
 62
     7
 10
361.32826
 20
220.783684
 30
0.0
 11
361.32826
 21
218.995552
 31
0.0
  0
LINE
  8
0
  6
CONTINUOUS
 62
     7
 10
366.430299
 20
207.507003
 30
0.0
 11
367.678973
 21
206.796181
 31
0.0
  0
LINE
  8
0
  6
CONTINUOUS
 62
     7
 10
367.678973
 20
206.796181
 30
0.0
 11
366.430299
 21
206.162776
 31
0.0
  0
TEXT
  8
0
  6
CONTINUOUS
 62
     7
 10
333.574498
 20
83.820117
 30
0.0
 40
2.0
  1
In=1A
  7
ROMANS
  0
TEXT
  8
0
  6
CONTINUOUS
 62
     7
 10
322.299383
 20
69.637557
 30
0.0
 40
2.0
  1
L3
  7
ROMANS
  0
TEXT
  8
0
  6
CONTINUOUS
 62
     7
 10
334.73092
 20
69.642738
 30
0.0
 40
2.0
  1
7-9
  7
ROMANS
  0
TEXT
  8
0
  6
CONTINUOUS
 62
     7
 10
349.870919
 20
69.642738
 30
0.0
 40
2.0
  1
7-8
  7
ROMANS
  0
TEXT
  8
0
  6
CONTINUOUS
 62
     7
 10
370.336545
 20
11.978665
 30
0.0
 40
2.0
  1
1/2
  7
ROMANS
  0
LINE
  8
0
  6
CONTINUOUS
 62
     7
 10
366.98588
 20
236.013348
 30
0.0
 11
369.331645
 21
234.677994
 31
0.0
  0
LINE
  8
0
  6
CONTINUOUS
 62
     7
 10
369.331645
 20
234.677994
 30
0.0
 11
366.98588
 21
233.488075
 31
0.0
  0
LINE
  8
0
 62
     7
 10
331.00882
 20
83.171798
 30
0.0
 11
361.00882
 21
83.171798
 31
0.0
  0
TEXT
  8
0
  6
DASHED
 62
     7
 10
348.577552
 20
83.820117
 30
0.0
 40
2.0
  1
In=5A
  7
ROMANS
  0
TEXT
  8
0
  6
DASHED
 62
     7
 10
322.299383
 20
77.869116
 30
0.0
 40
2.0
  1
L1            
  7
ROMANS
  0
TEXT
  8
0
  6
DASHED
 62
     7
 10
334.91794
 20
77.869116
 30
0.0
 40
2.0
  1
1-3
  7
ROMANS
  0
TEXT
  8
0
  6
DASHED
 62
     7
 10
350.073155
 20
77.869116
 30
0.0
 40
2.0
  1
1-2
  7
ROMANS
  0
TEXT
  8
0
  6
CONTINUOUS
 62
     7
 10
331.706231
 20
59.594715
 30
0.0
 40
2.0
  1
Un=100V
  7
ROMANS
  0
TEXT
  8
0
  6
CONTINUOUS
 62
     7
 10
346.656524
 20
59.594715
 30
0.0
 40
2.0
  1
Un=110V
  7
ROMANS
  0
LINE
  8
0
  6
CONTINUOUS
 62
     7
 10
47.5
 20
207.5
 30
0.0
 11
40.0
 21
207.5
 31
0.0
  0
LINE
  8
0
  6
CONTINUOUS
 62
     7
 10
47.5
 20
215.0
 30
0.0
 11
47.5
 21
207.5
 31
0.0
  0
LINE
  8
0
  6
CONTINUOUS
 62
     7
 10
180.0
 20
185.0
 30
0.0
 11
210.450615
 21
185.0
 31
0.0
  0
LINE
  8
0
  6
CONTINUOUS
 62
     7
 10
189.900936
 20
174.960055
 30
0.0
 11
192.400936
 21
174.960055
 31
0.0
  0
LINE
  8
0
  6
CONTINUOUS
 62
     7
 10
189.900936
 20
174.960055
 30
0.0
 11
187.676489
 21
174.399413
 31
0.0
  0
LINE
  8
0
  6
CONTINUOUS
 62
     7
 10
184.900936
 20
174.960055
 30
0.0
 11
187.400936
 21
174.960055
 31
0.0
  0
TEXT
  8
0
  6
HIDDEN
 62
     7
 10
181.080478
 20
174.226807
 30
0.0
 40
1.5
  1
EN
  0
TEXT
  8
0
  6
HIDDEN
 62
     7
 10
181.080478
 20
177.167847
 30
0.0
 40
1.5
  1
EN
  0
LINE
  8
0
  6
CONTINUOUS
 62
     7
 10
184.900936
 20
177.901095
 30
0.0
 11
187.400936
 21
177.901095
 31
0.0
  0
LINE
  8
0
  6
CONTINUOUS
 62
     7
 10
189.900936
 20
177.901095
 30
0.0
 11
187.676489
 21
177.340453
 31
0.0
  0
LINE
  8
0
  6
CONTINUOUS
 62
     7
 10
189.900936
 20
177.901095
 30
0.0
 11
192.400936
 21
177.901095
 31
0.0
  0
LINE
  8
0
  6
CONTINUOUS
 62
     7
 10
178.01273
 20
174.971652
 30
0.0
 11
172.5
 21
174.971652
 31
0.0
  0
LINE
  8
0
  6
CONTINUOUS
 62
     7
 10
178.01273
 20
178.000813
 30
0.0
 11
170.0
 21
178.000813
 31
0.0
  0
CIRCLE
  8
0
  6
CONTINUOUS
 62
     7
 10
179.012659
 20
177.994509
 30
0.0
 40
1.0
  0
CIRCLE
  8
0
  6
CONTINUOUS
 62
     7
 10
179.012659
 20
174.965349
 30
0.0
 40
1.0
  0
LINE
  8
0
  6
CONTINUOUS
 62
     7
 10
187.567752
 20
171.932945
 30
0.0
 11
185.221986
 21
170.743026
 31
0.0
  0
LINE
  8
0
  6
CONTINUOUS
 62
     7
 10
185.221986
 20
173.268299
 30
0.0
 11
187.567752
 21
171.932945
 31
0.0
  0
LINE
  8
0
  6
CONTINUOUS
 62
     7
 10
184.870591
 20
168.561795
 30
0.0
 11
187.216356
 21
167.226442
 31
0.0
  0
LINE
  8
0
  6
CONTINUOUS
 62
     7
 10
187.216356
 20
167.226442
 30
0.0
 11
184.870591
 21
166.036523
 31
0.0
  0
LINE
  8
0
  6
CONTINUOUS
 62
     7
 10
186.840722
 20
168.561795
 30
0.0
 11
189.186487
 21
167.226442
 31
0.0
  0
LINE
  8
0
  6
CONTINUOUS
 62
     7
 10
189.186487
 20
167.226442
 30
0.0
 11
186.840722
 21
166.036523
 31
0.0
  0
LINE
  8
0
  6
CONTINUOUS
 62
     7
 10
189.900936
 20
162.901095
 30
0.0
 11
192.400936
 21
162.901095
 31
0.0
  0
LINE
  8
0
  6
CONTINUOUS
 62
     7
 10
189.900936
 20
162.901095
 30
0.0
 11
187.676489
 21
162.340453
 31
0.0
  0
LINE
  8
0
  6
CONTINUOUS
 62
     7
 10
184.900936
 20
162.901095
 30
0.0
 11
187.400936
 21
162.901095
 31
0.0
  0
TEXT
  8
0
  6
HIDDEN
 62
     7
 10
181.080478
 20
162.167847
 30
0.0
 40
1.5
  1
EN
  0
TEXT
  8
0
  6
HIDDEN
 62
     7
 10
181.080478
 20
159.226807
 30
0.0
 40
1.5
  1
EN
  0
LINE
  8
0
  6
CONTINUOUS
 62
     7
 10
184.900936
 20
159.960055
 30
0.0
 11
187.400936
 21
159.960055
 31
0.0
  0
LINE
  8
0
  6
CONTINUOUS
 62
     7
 10
189.900936
 20
159.960055
 30
0.0
 11
187.676489
 21
159.399413
 31
0.0
  0
LINE
  8
0
  6
CONTINUOUS
 62
     7
 10
189.900936
 20
159.960055
 30
0.0
 11
192.400936
 21
159.960055
 31
0.0
  0
CIRCLE
  8
0
  6
CONTINUOUS
 62
     7
 10
179.012659
 20
159.965349
 30
0.0
 40
1.0
  0
LINE
  8
0
  6
CONTINUOUS
 62
     7
 10
178.01273
 20
159.971652
 30
0.0
 11
172.5
 21
159.971652
 31
0.0
  0
LINE
  8
0
  6
CONTINUOUS
 62
     7
 10
178.01273
 20
163.000813
 30
0.0
 11
170.0
 21
163.000813
 31
0.0
  0
CIRCLE
  8
0
  6
CONTINUOUS
 62
     7
 10
179.012659
 20
162.994509
 30
0.0
 40
1.0
  0
LINE
  8
0
  6
CONTINUOUS
 62
     7
 10
189.186487
 20
156.684962
 30
0.0
 11
186.840722
 21
155.495042
 31
0.0
  0
LINE
  8
0
  6
CONTINUOUS
 62
     7
 10
186.840722
 20
158.020315
 30
0.0
 11
189.186487
 21
156.684962
 31
0.0
  0
LINE
  8
0
  6
CONTINUOUS
 62
     7
 10
187.216356
 20
156.684962
 30
0.0
 11
184.870591
 21
155.495042
 31
0.0
  0
LINE
  8
0
  6
CONTINUOUS
 62
     7
 10
184.870591
 20
158.020315
 30
0.0
 11
187.216356
 21
156.684962
 31
0.0
  0
LINE
  8
0
  6
CONTINUOUS
 62
     7
 10
198.834995
 20
157.489158
 30
0.0
 11
198.834995
 21
155.701026
 31
0.0
  0
LINE
  8
0
  6
CONTINUOUS
 62
     7
 10
193.435476
 20
155.476276
 30
0.0
 11
196.311586
 21
158.304835
 31
0.0
  0
LINE
  8
0
  6
CONTINUOUS
 62
     7
 10
195.880883
 20
158.842042
 30
0.0
 11
196.78156
 21
157.718293
 31
0.0
  0
LINE
  8
0
  6
CONTINUOUS
 62
     7
 10
191.051331
 20
156.643879
 30
0.0
 11
198.839536
 21
156.643879
 31
0.0
  0
LINE
  8
0
  6
CONTINUOUS
 62
     7
 10
191.020299
 20
157.489158
 30
0.0
 11
191.020299
 21
155.701026
 31
0.0
  0
TEXT
  8
0
  6
CONTINUOUS
 62
     7
 10
205.0
 20
180.775586
 30
0.0
 40
2.5
  1
U2
  7
ROMANS
  0
TEXT
  8
0
  6
CONTINUOUS
 62
     7
 10
205.001359
 20
150.658649
 30
0.0
 40
2.5
  1
U3
  7
ROMANS
  0
LINE
  8
0
  6
HIDDEN
 62
     7
 10
180.0
 20
130.0
 30
0.0
 11
180.0
 21
57.5
 31
0.0
  0
LINE
  8
0
  6
HIDDEN
 62
     7
 10
210.450615
 20
130.0
 30
0.0
 11
210.450615
 21
57.5
 31
0.0
  0
ARC
  8
0
 62
     7
 10
239.934151
 20
123.75
 30
0.0
 40
1.251733
 50
86.984476
 51
273.015524
  0
ARC
  8
0
 62
     7
 10
239.934151
 20
126.25
 30
0.0
 40
1.251733
 50
86.984476
 51
273.015524
  0
LINE
  8
0
 62
     7
 10
240.0
 20
125.0
 30
0.0
 11
242.5
 21
125.0
 31
0.0
  0
LINE
  8
0
 62
     7
 10
242.5
 20
127.5
 30
0.0
 11
245.0
 21
127.5
 31
0.0
  0
LINE
  8
0
 62
     7
 10
242.5
 20
122.5
 30
0.0
 11
245.0
 21
122.5
 31
0.0
  0
LINE
  8
0
 62
     7
 10
242.5
 20
122.5
 30
0.0
 11
245.0
 21
122.5
 31
0.0
  0
LINE
  8
0
 62
     7
 10
240.0
 20
122.5
 30
0.0
 11
250.0
 21
122.5
 31
0.0
  0
LINE
  8
0
 62
     7
 10
240.0
 20
120.0
 30
0.0
 11
242.5
 21
120.0
 31
0.0
  0
ARC
  8
0
 62
     7
 10
239.934151
 20
121.25
 30
0.0
 40
1.251733
 50
86.984476
 51
273.015524
  0
ARC
  8
0
 62
     7
 10
239.934151
 20
118.75
 30
0.0
 40
1.251733
 50
86.984476
 51
273.015524
  0
LINE
  8
0
 62
     7
 10
240.0
 20
117.5
 30
0.0
 11
242.5
 21
117.5
 31
0.0
  0
ARC
  8
0
 62
     7
 10
235.065849
 20
123.75
 30
0.0
 40
1.251733
 50
266.984476
 51
93.015524
  0
LINE
  8
0
 62
     7
 10
235.0
 20
125.0
 30
0.0
 11
233.480133
 21
125.0
 31
0.0
  0
LINE
  8
0
 62
     7
 10
235.0
 20
122.5
 30
0.0
 11
233.480133
 21
122.5
 31
0.0
  0
ARC
  8
0
 62
     7
 10
235.065849
 20
121.25
 30
0.0
 40
1.251733
 50
266.984476
 51
93.015524
  0
LINE
  8
0
 62
     7
 10
235.0
 20
120.0
 30
0.0
 11
233.480133
 21
120.0
 31
0.0
  0
LINE
  8
0
 62
     7
 10
240.0
 20
102.5
 30
0.0
 11
242.5
 21
102.5
 31
0.0
  0
ARC
  8
0
 62
     7
 10
239.934151
 20
103.75
 30
0.0
 40
1.251733
 50
86.984476
 51
273.015524
  0
ARC
  8
0
 62
     7
 10
239.934151
 20
106.25
 30
0.0
 40
1.251733
 50
86.984476
 51
273.015524
  0
LINE
  8
0
 62
     7
 10
240.0
 20
105.0
 30
0.0
 11
242.5
 21
105.0
 31
0.0
  0
LINE
  8
0
 62
     7
 10
242.5
 20
102.5
 30
0.0
 11
245.0
 21
102.5
 31
0.0
  0
LINE
  8
0
 62
     7
 10
240.0
 20
102.5
 30
0.0
 11
250.0
 21
102.5
 31
0.0
  0
LINE
  8
0
 62
     7
 10
240.0
 20
100.0
 30
0.0
 11
242.5
 21
100.0
 31
0.0
  0
ARC
  8
0
 62
     7
 10
239.934151
 20
101.25
 30
0.0
 40
1.251733
 50
86.984476
 51
273.015524
  0
ARC
  8
0
 62
     7
 10
239.934151
 20
98.75
 30
0.0
 40
1.251733
 50
86.984476
 51
273.015524
  0
LINE
  8
0
 62
     7
 10
240.0
 20
97.5
 30
0.0
 11
242.5
 21
97.5
 31
0.0
  0
ARC
  8
0
 62
     7
 10
235.065849
 20
103.75
 30
0.0
 40
1.251733
 50
266.984476
 51
93.015524
  0
LINE
  8
0
 62
     7
 10
235.0
 20
105.0
 30
0.0
 11
233.480133
 21
105.0
 31
0.0
  0
LINE
  8
0
 62
     7
 10
235.0
 20
102.5
 30
0.0
 11
233.480133
 21
102.5
 31
0.0
  0
ARC
  8
0
 62
     7
 10
235.065849
 20
101.25
 30
0.0
 40
1.251733
 50
266.984476
 51
93.015524
  0
LINE
  8
0
 62
     7
 10
235.0
 20
100.0
 30
0.0
 11
233.480133
 21
100.0
 31
0.0
  0
LINE
  8
0
 62
     7
 10
240.0
 20
82.5
 30
0.0
 11
242.5
 21
82.5
 31
0.0
  0
ARC
  8
0
 62
     7
 10
239.934151
 20
83.75
 30
0.0
 40
1.251733
 50
86.984476
 51
273.015524
  0
ARC
  8
0
 62
     7
 10
239.934151
 20
86.25
 30
0.0
 40
1.251733
 50
86.984476
 51
273.015524
  0
LINE
  8
0
 62
     7
 10
240.0
 20
85.0
 30
0.0
 11
242.5
 21
85.0
 31
0.0
  0
LINE
  8
0
 62
     7
 10
242.5
 20
82.5
 30
0.0
 11
245.0
 21
82.5
 31
0.0
  0
LINE
  8
0
 62
     7
 10
240.0
 20
82.5
 30
0.0
 11
250.0
 21
82.5
 31
0.0
  0
LINE
  8
0
 62
     7
 10
240.0
 20
80.0
 30
0.0
 11
242.5
 21
80.0
 31
0.0
  0
ARC
  8
0
 62
     7
 10
239.934151
 20
81.25
 30
0.0
 40
1.251733
 50
86.984476
 51
273.015524
  0
ARC
  8
0
 62
     7
 10
239.934151
 20
78.75
 30
0.0
 40
1.251733
 50
86.984476
 51
273.015524
  0
LINE
  8
0
 62
     7
 10
240.0
 20
77.5
 30
0.0
 11
242.5
 21
77.5
 31
0.0
  0
ARC
  8
0
 62
     7
 10
235.065849
 20
83.75
 30
0.0
 40
1.251733
 50
266.984476
 51
93.015524
  0
LINE
  8
0
 62
     7
 10
235.0
 20
85.0
 30
0.0
 11
233.480133
 21
85.0
 31
0.0
  0
LINE
  8
0
 62
     7
 10
235.0
 20
82.5
 30
0.0
 11
233.480133
 21
82.5
 31
0.0
  0
ARC
  8
0
 62
     7
 10
235.065849
 20
81.25
 30
0.0
 40
1.251733
 50
266.984476
 51
93.015524
  0
LINE
  8
0
 62
     7
 10
235.0
 20
80.0
 30
0.0
 11
233.480133
 21
80.0
 31
0.0
  0
LINE
  8
0
 62
     7
 10
240.0
 20
127.5
 30
0.0
 11
250.0
 21
127.5
 31
0.0
  0
LINE
  8
0
 62
     7
 10
242.5
 20
117.5
 30
0.0
 11
250.0
 21
117.5
 31
0.0
  0
LINE
  8
0
 62
     7
 10
240.0
 20
87.5
 30
0.0
 11
250.0
 21
87.5
 31
0.0
  0
LINE
  8
0
 62
     7
 10
242.5
 20
77.5
 30
0.0
 11
250.0
 21
77.5
 31
0.0
  0
LINE
  8
0
 62
     7
 10
242.5
 20
97.5
 30
0.0
 11
250.0
 21
97.5
 31
0.0
  0
LINE
  8
0
 62
     7
 10
240.0
 20
107.5
 30
0.0
 11
250.0
 21
107.5
 31
0.0
  0
LINE
  8
0
  6
CONTINUOUS
 62
     7
 10
230.0
 20
125.0
 30
0.0
 11
230.0
 21
80.0
 31
0.0
  0
LINE
  8
0
  6
CONTINUOUS
 62
     7
 10
230.0
 20
80.0
 30
0.0
 11
231.0
 21
79.0
 31
0.0
  0
LINE
  8
0
  6
CONTINUOUS
 62
     7
 10
230.0
 20
125.0
 30
0.0
 11
231.0
 21
126.0
 31
0.0
  0
TEXT
  8
0
  6
HIDDEN
 62
     7
 10
246.231256
 20
192.505131
 30
0.0
 40
2.0
  1
6
  7
ROMANS
  0
TEXT
  8
0
  6
HIDDEN
 62
     7
 10
246.231256
 20
187.453437
 30
0.0
 40
2.0
  1
5
  7
ROMANS
  0
TEXT
  8
0
  6
HIDDEN
 62
     7
 10
246.231256
 20
182.390728
 30
0.0
 40
2.0
  1
4
  7
ROMANS
  0
TEXT
  8
0
  6
HIDDEN
 62
     7
 10
245.424212
 20
124.959045
 30
0.0
 40
2.0
  1
15
  7
ROMANS
  0
TEXT
  8
0
  6
HIDDEN
 62
     7
 10
245.424212
 20
119.852276
 30
0.0
 40
2.0
  1
14
  7
ROMANS
  0
TEXT
  8
0
  6
HIDDEN
 62
     7
 10
245.424212
 20
114.844643
 30
0.0
 40
2.0
  1
13
  7
ROMANS
  0
TEXT
  8
0
  6
HIDDEN
 62
     7
 10
245.424212
 20
104.825125
 30
0.0
 40
2.0
  1
18
  7
ROMANS
  0
TEXT
  8
0
  6
HIDDEN
 62
     7
 10
245.424212
 20
99.828507
 30
0.0
 40
2.0
  1
17
  7
ROMANS
  0
TEXT
  8
0
  6
HIDDEN
 62
     7
 10
245.424212
 20
94.820874
 30
0.0
 40
2.0
  1
16
  7
ROMANS
  0
TEXT
  8
0
  6
HIDDEN
 62
     7
 10
245.424212
 20
84.955568
 30
0.0
 40
2.0
  1
21
  7
ROMANS
  0
TEXT
  8
0
  6
HIDDEN
 62
     7
 10
245.424212
 20
79.793723
 30
0.0
 40
2.0
  1
20
  7
ROMANS
  0
TEXT
  8
0
  6
HIDDEN
 62
     7
 10
245.424212
 20
74.797105
 30
0.0
 40
2.0
  1
19
  7
ROMANS
  0
LINE
  8
0
  6
CONTINUOUS
 62
     7
 10
230.0
 20
147.5
 30
0.0
 11
231.0
 21
146.5
 31
0.0
  0
LINE
  8
0
  6
CONTINUOUS
 62
     7
 10
230.0
 20
152.5
 30
0.0
 11
231.0
 21
153.5
 31
0.0
  0
LINE
  8
0
  6
CONTINUOUS
 62
     7
 10
230.0
 20
152.5
 30
0.0
 11
230.0
 21
147.5
 31
0.0
  0
LINE
  8
0
  6
CONTINUOUS
 62
     7
 10
210.450615
 20
140.0
 30
0.0
 11
222.5
 21
140.0
 31
0.0
  0
LINE
  8
0
  6
CONTINUOUS
 62
     7
 10
222.5
 20
102.5
 30
0.0
 11
222.5
 21
57.5
 31
0.0
  0
TEXT
  8
0
  6
CONTINUOUS
 62
     7
 10
46.636438
 20
154.2654
 30
0.0
 40
2.0
  1
SGR
 50
90.0
  7
ROMANS
  0
LINE
  8
0
  6
CONTINUOUS
 62
     7
 10
50.0
 20
157.5
 30
0.0
 11
50.0
 21
171.972419
 31
0.0
  0
LINE
  8
0
  6
CONTINUOUS
 62
     7
 10
50.0
 20
152.5
 30
0.0
 11
48.285914
 21
157.586297
 31
0.0
  0
LINE
  8
0
  6
CONTINUOUS
 62
     7
 10
50.0
 20
145.0
 30
0.0
 11
50.0
 21
152.5
 31
0.0
  0
TEXT
  8
0
  6
CONTINUOUS
 62
     7
 10
55.41296
 20
141.464455
 30
0.0
 40
2.5
  1
1
 11
55.41296
 21
140.631122
 31
0.0
 73
     1
  0
LINE
  8
0
  6
CONTINUOUS
 62
     7
 10
50.979098
 20
144.124549
 30
0.0
 11
53.324863
 21
142.789195
 31
0.0
  0
LINE
  8
0
  6
CONTINUOUS
 62
     7
 10
50.971056
 20
140.799262
 30
0.0
 11
53.354516
 21
141.987454
 31
0.0
  0
LINE
  8
0
  6
CONTINUOUS
 62
     7
 10
53.324863
 20
142.789195
 30
0.0
 11
50.979098
 21
141.599276
 31
0.0
  0
LINE
  8
0
  6
CONTINUOUS
 62
     7
 10
55.0
 20
140.0
 30
0.0
 11
55.0
 21
137.5
 31
0.0
  0
LINE
  8
0
  6
CONTINUOUS
 62
     7
 10
60.0
 20
145.0
 30
0.0
 11
47.5
 21
145.0
 31
0.0
  0
LINE
  8
0
  6
CONTINUOUS
 62
     7
 10
60.0
 20
145.0
 30
0.0
 11
60.0
 21
140.0
 31
0.0
  0
LINE
  8
0
  6
CONTINUOUS
 62
     7
 10
47.5
 20
140.0
 30
0.0
 11
60.0
 21
140.0
 31
0.0
  0
LINE
  8
0
  6
CONTINUOUS
 62
     7
 10
47.5
 20
145.0
 30
0.0
 11
47.5
 21
140.0
 31
0.0
  0
LINE
  8
0
  6
CONTINUOUS
 62
     7
 10
67.5
 20
145.0
 30
0.0
 11
77.5
 21
145.0
 31
0.0
  0
LINE
  8
0
  6
CONTINUOUS
 62
     7
 10
77.5
 20
145.0
 30
0.0
 11
77.5
 21
140.0
 31
0.0
  0
LINE
  8
0
  6
CONTINUOUS
 62
     7
 10
77.5
 20
140.0
 30
0.0
 11
67.5
 21
140.0
 31
0.0
  0
LINE
  8
0
  6
CONTINUOUS
 62
     7
 10
67.5
 20
140.0
 30
0.0
 11
67.5
 21
145.0
 31
0.0
  0
LINE
  8
0
  6
CONTINUOUS
 62
     7
 10
71.707396
 20
142.789195
 30
0.0
 11
69.36163
 21
141.599276
 31
0.0
  0
LINE
  8
0
  6
CONTINUOUS
 62
     7
 10
69.353589
 20
140.799262
 30
0.0
 11
71.737049
 21
141.987454
 31
0.0
  0
LINE
  8
0
  6
CONTINUOUS
 62
     7
 10
69.36163
 20
144.124549
 30
0.0
 11
71.707396
 21
142.789195
 31
0.0
  0
TEXT
  8
0
  6
CONTINUOUS
 62
     7
 10
73.795492
 20
141.464455
 30
0.0
 40
2.5
  1
1
 11
73.795492
 21
140.631122
 31
0.0
 73
     1
  0
TEXT
  8
0
  6
CONTINUOUS
 62
     7
 10
86.295492
 20
141.464455
 30
0.0
 40
2.5
  1
1
 11
86.295492
 21
140.631122
 31
0.0
 73
     1
  0
LINE
  8
0
  6
CONTINUOUS
 62
     7
 10
81.86163
 20
144.124549
 30
0.0
 11
84.207396
 21
142.789195
 31
0.0
  0
LINE
  8
0
  6
CONTINUOUS
 62
     7
 10
81.853589
 20
140.799262
 30
0.0
 11
84.237049
 21
141.987454
 31
0.0
  0
LINE
  8
0
  6
CONTINUOUS
 62
     7
 10
84.207396
 20
142.789195
 30
0.0
 11
81.86163
 21
141.599276
 31
0.0
  0
LINE
  8
0
  6
CONTINUOUS
 62
     7
 10
80.0
 20
140.0
 30
0.0
 11
80.0
 21
145.0
 31
0.0
  0
LINE
  8
0
  6
CONTINUOUS
 62
     7
 10
90.0
 20
140.0
 30
0.0
 11
80.0
 21
140.0
 31
0.0
  0
LINE
  8
0
  6
CONTINUOUS
 62
     7
 10
90.0
 20
145.0
 30
0.0
 11
90.0
 21
140.0
 31
0.0
  0
LINE
  8
0
  6
CONTINUOUS
 62
     7
 10
80.0
 20
145.0
 30
0.0
 11
90.0
 21
145.0
 31
0.0
  0
LINE
  8
0
  6
CONTINUOUS
 62
     7
 10
87.5
 20
145.0
 30
0.0
 11
87.5
 21
152.5
 31
0.0
  0
LINE
  8
0
  6
CONTINUOUS
 62
     7
 10
87.5
 20
152.5
 30
0.0
 11
85.785914
 21
157.586297
 31
0.0
  0
LINE
  8
0
  6
CONTINUOUS
 62
     7
 10
87.5
 20
157.5
 30
0.0
 11
87.5
 21
160.0
 31
0.0
  0
LINE
  8
0
  6
CONTINUOUS
 62
     7
 10
75.0
 20
157.5
 30
0.0
 11
75.0
 21
162.5
 31
0.0
  0
LINE
  8
0
  6
CONTINUOUS
 62
     7
 10
75.0
 20
152.5
 30
0.0
 11
73.285914
 21
157.586297
 31
0.0
  0
LINE
  8
0
  6
CONTINUOUS
 62
     7
 10
75.0
 20
145.0
 30
0.0
 11
75.0
 21
152.5
 31
0.0
  0
TEXT
  8
0
  6
CONTINUOUS
 62
     7
 10
49.776285
 20
155.0
 30
0.0
 40
2.0
  1
3
  7
ROMANS
  0
TEXT
  8
0
  6
CONTINUOUS
 62
     7
 10
75.413852
 20
155.0
 30
0.0
 40
2.0
  1
7
  7
ROMANS
  0
TEXT
  8
0
  6
CONTINUOUS
 62
     7
 10
87.667359
 20
155.0
 30
0.0
 40
2.0
  1
8
  7
ROMANS
  0
LINE
  8
0
  6
CONTINUOUS
 62
     7
 10
52.5
 20
132.5
 30
0.0
 11
40.0
 21
132.5
 31
0.0
  0
LINE
  8
0
  6
CONTINUOUS
 62
     7
 10
60.0
 20
132.5
 30
0.0
 11
60.0
 21
127.5
 31
0.0
  0
LINE
  8
0
  6
CONTINUOUS
 62
     7
 10
60.0
 20
127.5
 30
0.0
 11
40.0
 21
127.5
 31
0.0
  0
LINE
  8
0
  6
CONTINUOUS
 62
     7
 10
57.5
 20
132.5
 30
0.0
 11
60.0
 21
132.5
 31
0.0
  0
LINE
  8
0
  6
CONTINUOUS
 62
     7
 10
77.5
 20
122.5
 30
0.0
 11
77.5
 21
117.5
 31
0.0
  0
LINE
  8
0
  6
CONTINUOUS
 62
     7
 10
77.5
 20
117.5
 30
0.0
 11
40.0
 21
117.5
 31
0.0
  0
LINE
  8
0
  6
CONTINUOUS
 62
     7
 10
120.0
 20
127.5
 30
0.0
 11
120.0
 21
125.0
 31
0.0
  0
LINE
  8
0
  6
CONTINUOUS
 62
     7
 10
117.5
 20
120.0
 30
0.0
 11
117.5
 21
119.999975
 31
0.0
  0
LINE
  8
0
  6
CONTINUOUS
 62
     7
 10
122.5
 20
125.0
 30
0.0
 11
122.5
 21
120.0
 31
0.0
  0
LINE
  8
0
  6
CONTINUOUS
 62
     7
 10
122.5
 20
120.0
 30
0.0
 11
115.0
 21
120.0
 31
0.0
  0
LINE
  8
0
  6
CONTINUOUS
 62
     7
 10
115.0
 20
120.0
 30
0.0
 11
115.0
 21
125.0
 31
0.0
  0
LINE
  8
0
  6
CONTINUOUS
 62
     7
 10
115.0
 20
125.0
 30
0.0
 11
122.5
 21
125.0
 31
0.0
  0
TEXT
  8
0
  6
CONTINUOUS
 62
     7
 10
148.151854
 20
121.464455
 30
0.0
 40
2.5
  1
1
 11
148.151854
 21
120.631122
 31
0.0
 73
     1
  0
LINE
  8
0
  6
CONTINUOUS
 62
     7
 10
143.717992
 20
124.124549
 30
0.0
 11
146.063758
 21
122.789195
 31
0.0
  0
LINE
  8
0
  6
CONTINUOUS
 62
     7
 10
143.70995
 20
120.799262
 30
0.0
 11
146.093411
 21
121.987454
 31
0.0
  0
LINE
  8
0
  6
CONTINUOUS
 62
     7
 10
146.063758
 20
122.789195
 30
0.0
 11
143.717992
 21
121.599276
 31
0.0
  0
LINE
  8
0
  6
CONTINUOUS
 62
     7
 10
140.0
 20
120.0
 30
0.0
 11
140.0
 21
125.0
 31
0.0
  0
LINE
  8
0
  6
CONTINUOUS
 62
     7
 10
152.5
 20
120.0
 30
0.0
 11
140.0
 21
120.0
 31
0.0
  0
LINE
  8
0
  6
CONTINUOUS
 62
     7
 10
152.5
 20
125.0
 30
0.0
 11
152.5
 21
120.0
 31
0.0
  0
LINE
  8
0
  6
CONTINUOUS
 62
     7
 10
140.0
 20
125.0
 30
0.0
 11
152.5
 21
125.0
 31
0.0
  0
LINE
  8
0
  6
CONTINUOUS
 62
     7
 10
147.5
 20
125.0
 30
0.0
 11
147.5
 21
127.5
 31
0.0
  0
LINE
  8
0
  6
CONTINUOUS
 62
     7
 10
72.5
 20
135.0
 30
0.0
 11
72.5
 21
140.0
 31
0.0
  0
LINE
  8
0
  6
CONTINUOUS
 62
     7
 10
85.0
 20
135.0
 30
0.0
 11
85.0
 21
140.0
 31
0.0
  0
LINE
  8
0
  6
CONTINUOUS
 62
     7
 10
120.0
 20
120.0
 30
0.0
 11
120.0
 21
57.5
 31
0.0
  0
LINE
  8
0
  6
CONTINUOUS
 62
     7
 10
147.5
 20
120.0
 30
0.0
 11
147.5
 21
57.5
 31
0.0
  0
TEXT
  8
0
  6
CONTINUOUS
 62
     7
 10
118.25176
 20
121.455036
 30
0.0
 40
2.5
  1
&
  7
GREEKS
  0
LINE
  8
0
  6
CONTINUOUS
 62
     7
 10
117.5
 20
127.5
 30
0.0
 11
117.5
 21
126.414794
 31
0.0
  0
CIRCLE
  8
0
  6
CONTINUOUS
 62
     7
 10
117.499507
 20
125.707385
 30
0.0
 40
0.707409
  0
LINE
  8
0
  6
CONTINUOUS
 62
     7
 10
107.5
 20
112.5
 30
0.0
 11
107.5
 21
182.5
 31
0.0
  0
LINE
  8
0
  6
CONTINUOUS
 62
     7
 10
107.5
 20
182.5
 30
0.0
 11
180.0
 21
182.5
 31
0.0
  0
LINE
  8
0
  6
CONTINUOUS
 62
     7
 10
65.0
 20
217.5
 30
0.0
 11
172.5
 21
217.5
 31
0.0
  0
LINE
  8
0
  6
CONTINUOUS
 62
     7
 10
172.5
 20
217.5
 30
0.0
 11
172.5
 21
159.971652
 31
0.0
  0
LINE
  8
0
  6
CONTINUOUS
 62
     7
 10
170.0
 20
210.0
 30
0.0
 11
170.0
 21
142.5
 31
0.0
  0
LINE
  8
0
  6
CONTINUOUS
 62
     7
 10
180.0
 20
167.5
 30
0.0
 11
147.5
 21
167.5
 31
0.0
  0
LINE
  8
0
  6
CONTINUOUS
 62
     7
 10
147.5
 20
167.5
 30
0.0
 11
147.5
 21
127.5
 31
0.0
  0
LINE
  8
0
  6
CONTINUOUS
 62
     7
 10
117.5
 20
127.5
 30
0.0
 11
117.5
 21
149.280914
 31
0.0
  0
LINE
  8
0
  6
CONTINUOUS
 62
     7
 10
50.0
 20
149.280914
 30
0.0
 11
117.5
 21
149.280914
 31
0.0
  0
LINE
  8
0
  6
CONTINUOUS
 62
     7
 10
40.0
 20
107.5
 30
0.0
 11
82.5
 21
107.5
 31
0.0
  0
LINE
  8
0
  6
CONTINUOUS
 62
     7
 10
82.5
 20
102.5
 30
0.0
 11
40.0
 21
102.5
 31
0.0
  0
LINE
  8
0
  6
CONTINUOUS
 62
     7
 10
82.5
 20
102.5
 30
0.0
 11
82.5
 21
105.0
 31
0.0
  0
LINE
  8
0
  6
CONTINUOUS
 62
     7
 10
87.5
 20
107.5
 30
0.0
 11
90.0
 21
107.5
 31
0.0
  0
LINE
  8
0
  6
CONTINUOUS
 62
     7
 10
87.5
 20
107.5
 30
0.0
 11
81.756076
 21
104.285297
 31
0.0
  0
LINE
  8
0
  6
CONTINUOUS
 62
     7
 10
40.0
 20
77.5
 30
0.0
 11
105.0
 21
77.5
 31
0.0
  0
LINE
  8
0
  6
CONTINUOUS
 62
     7
 10
105.0
 20
72.5
 30
0.0
 11
40.0
 21
72.5
 31
0.0
  0
LINE
  8
0
  6
CONTINUOUS
 62
     7
 10
105.0
 20
72.5
 30
0.0
 11
105.0
 21
75.0
 31
0.0
  0
LINE
  8
0
  6
CONTINUOUS
 62
     7
 10
110.0
 20
77.5
 30
0.0
 11
112.5
 21
77.5
 31
0.0
  0
LINE
  8
0
  6
CONTINUOUS
 62
     7
 10
110.0
 20
77.5
 30
0.0
 11
104.256076
 21
74.285297
 31
0.0
  0
LINE
  8
0
  6
CONTINUOUS
 62
     7
 10
90.0
 20
107.5
 30
0.0
 11
90.0
 21
97.5
 31
0.0
  0
LINE
  8
0
  6
CONTINUOUS
 62
     7
 10
90.0
 20
97.5
 30
0.0
 11
40.0
 21
97.5
 31
0.0
  0
LINE
  8
0
  6
CONTINUOUS
 62
     7
 10
112.5
 20
77.5
 30
0.0
 11
112.5
 21
67.5
 31
0.0
  0
LINE
  8
0
  6
CONTINUOUS
 62
     7
 10
112.5
 20
67.5
 30
0.0
 11
40.0
 21
67.5
 31
0.0
  0
LINE
  8
0
  6
CONTINUOUS
 62
     7
 10
180.0
 20
171.972419
 30
0.0
 11
50.0
 21
171.972419
 31
0.0
  0
LINE
  8
0
  6
CONTINUOUS
 62
     7
 10
57.5
 20
145.0
 30
0.0
 11
57.5
 21
165.0
 31
0.0
  0
LINE
  8
0
  6
CONTINUOUS
 62
     7
 10
57.5
 20
165.0
 30
0.0
 11
112.5
 21
165.0
 31
0.0
  0
LINE
  8
0
  6
CONTINUOUS
 62
     7
 10
112.5
 20
165.0
 30
0.0
 11
112.5
 21
156.937274
 31
0.0
  0
LINE
  8
0
  6
CONTINUOUS
 62
     7
 10
112.5
 20
156.937274
 30
0.0
 11
180.0
 21
156.937274
 31
0.0
  0
LINE
  8
0
  6
CONTINUOUS
 62
     7
 10
87.5
 20
160.0
 30
0.0
 11
87.5
 21
162.5
 31
0.0
  0
LINE
  8
0
  6
CONTINUOUS
 62
     7
 10
87.5
 20
162.5
 30
0.0
 11
65.0
 21
162.5
 31
0.0
  0
LINE
  8
0
  6
CONTINUOUS
 62
     7
 10
65.0
 20
162.5
 30
0.0
 11
65.0
 21
136.782052
 31
0.0
  0
LINE
  8
0
  6
CONTINUOUS
 62
     7
 10
65.0
 20
136.782052
 30
0.0
 11
55.0
 21
136.782052
 31
0.0
  0
LINE
  8
0
  6
CONTINUOUS
 62
     7
 10
85.0
 20
165.0
 30
0.0
 11
85.0
 21
145.0
 31
0.0
  0
LINE
  8
0
  6
CONTINUOUS
 62
     7
 10
82.5
 20
145.0
 30
0.0
 11
82.5
 21
171.972419
 31
0.0
  0
LINE
  8
0
  6
CONTINUOUS
 62
     7
 10
150.0
 20
125.0
 30
0.0
 11
150.0
 21
156.937274
 31
0.0
  0
LINE
  8
0
  6
CONTINUOUS
 62
     7
 10
145.0
 20
125.0
 30
0.0
 11
145.0
 21
171.972419
 31
0.0
  0
LINE
  8
0
  6
CONTINUOUS
 62
     7
 10
142.5
 20
125.0
 30
0.0
 11
142.5
 21
182.5
 31
0.0
  0
LINE
  8
0
  6
CONTINUOUS
 62
     7
 10
120.0
 20
127.5
 30
0.0
 11
120.0
 21
171.972419
 31
0.0
  0
LINE
  8
0
  6
CONTINUOUS
 62
     7
 10
180.0
 20
142.5
 30
0.0
 11
170.0
 21
142.5
 31
0.0
  0
LINE
  8
0
  6
HIDDEN
 62
     7
 10
40.0
 20
225.0
 30
0.0
 11
45.0
 21
225.0
 31
0.0
  0
LINE
  8
0
  6
HIDDEN
 62
     7
 10
45.0
 20
225.0
 30
0.0
 11
45.0
 21
202.5
 31
0.0
  0
LINE
  8
0
  6
HIDDEN
 62
     7
 10
45.0
 20
202.5
 30
0.0
 11
40.0
 21
202.5
 31
0.0
  0
TEXT
  8
0
  6
HIDDEN
 62
     7
 10
40.879157
 20
221.746473
 30
0.0
 40
2.0
  1
X2
  7
ROMANS
  0
TEXT
  8
0
  6
HIDDEN
 62
     7
 10
40.403348
 20
216.715917
 30
0.0
 40
2.0
  1
12
  7
ROMANS
  0
TEXT
  8
0
  6
HIDDEN
 62
     7
 10
40.403348
 20
209.563703
 30
0.0
 40
2.0
  1
10
  7
ROMANS
  0
TEXT
  8
0
  6
HIDDEN
 62
     7
 10
40.403348
 20
204.269024
 30
0.0
 40
2.0
  1
11
  7
ROMANS
  0
LINE
  8
0
  6
HIDDEN
 62
     7
 10
40.0
 20
137.5
 30
0.0
 11
45.0
 21
137.5
 31
0.0
  0
LINE
  8
0
  6
HIDDEN
 62
     7
 10
45.0
 20
137.5
 30
0.0
 11
45.0
 21
113.211798
 31
0.0
  0
LINE
  8
0
  6
HIDDEN
 62
     7
 10
45.0
 20
113.211798
 30
0.0
 11
40.0
 21
113.211798
 31
0.0
  0
LINE
  8
0
  6
HIDDEN
 62
     7
 10
40.0
 20
62.5
 30
0.0
 11
45.0
 21
62.5
 31
0.0
  0
LINE
  8
0
  6
HIDDEN
 62
     7
 10
45.0
 20
62.5
 30
0.0
 11
45.0
 21
111.97351
 31
0.0
  0
LINE
  8
0
  6
HIDDEN
 62
     7
 10
45.0
 20
111.97351
 30
0.0
 11
40.0
 21
111.97351
 31
0.0
  0
TEXT
  8
0
  6
HIDDEN
 62
     7
 10
40.752355
 20
133.629257
 30
0.0
 40
2.0
  1
X1
  7
ROMANS
  0
TEXT
  8
0
  6
HIDDEN
 62
     7
 10
41.1717
 20
129.910394
 30
0.0
 40
2.0
  1
4
  7
ROMANS
  0
TEXT
  8
0
  6
HIDDEN
 62
     7
 10
41.1717
 20
124.902761
 30
0.0
 40
2.0
  1
3
  7
ROMANS
  0
TEXT
  8
0
  6
HIDDEN
 62
     7
 10
41.1717
 20
119.61975
 30
0.0
 40
2.0
  1
7
  7
ROMANS
  0
TEXT
  8
0
  6
HIDDEN
 62
     7
 10
41.1717
 20
114.810389
 30
0.0
 40
2.0
  1
6
  7
ROMANS
  0
TEXT
  8
0
  6
HIDDEN
 62
     7
 10
40.745853
 20
108.976621
 30
0.0
 40
2.0
  1
X2
  7
ROMANS
  0
TEXT
  8
0
  6
HIDDEN
 62
     7
 10
41.1717
 20
104.773092
 30
0.0
 40
2.0
  1
3
  7
ROMANS
  0
TEXT
  8
0
  6
HIDDEN
 62
     7
 10
41.1717
 20
99.842565
 30
0.0
 40
2.0
  1
1
  7
ROMANS
  0
TEXT
  8
0
  6
HIDDEN
 62
     7
 10
41.1717
 20
94.625644
 30
0.0
 40
2.0
  1
2
  7
ROMANS
  0
TEXT
  8
0
  6
HIDDEN
 62
     7
 10
41.1717
 20
74.760338
 30
0.0
 40
2.0
  1
9
  7
ROMANS
  0
TEXT
  8
0
  6
HIDDEN
 62
     7
 10
41.1717
 20
69.686614
 30
0.0
 40
2.0
  1
7
  7
ROMANS
  0
TEXT
  8
0
  6
HIDDEN
 62
     7
 10
41.1717
 20
64.756087
 30
0.0
 40
2.0
  1
8
  7
ROMANS
  0
TEXT
  8
0
  6
HIDDEN
 62
     7
 10
17.455888
 20
212.527386
 30
0.0
 40
2.0
  1
2)
  7
ROMANS
  0
LINE
  8
0
  6
DASHED
 62
     7
 10
40.0
 20
132.5
 30
0.0
 11
27.5
 21
132.5
 31
0.0
  0
LINE
  8
0
  6
DASHED
 62
     7
 10
40.0
 20
127.5
 30
0.0
 11
27.5
 21
127.5
 31
0.0
  0
LINE
  8
0
  6
DASHED
 62
     7
 10
40.0
 20
117.5
 30
0.0
 11
27.5
 21
117.5
 31
0.0
  0
LINE
  8
0
  6
DASHED
 62
     7
 10
40.0
 20
122.5
 30
0.0
 11
27.5
 21
122.5
 31
0.0
  0
LINE
  8
0
  6
CONTINUOUS
 62
     7
 10
25.0
 20
122.5
 30
0.0
 11
26.0
 21
123.5
 31
0.0
  0
LINE
  8
0
  6
CONTINUOUS
 62
     7
 10
25.0
 20
117.499655
 30
0.0
 11
26.0
 21
116.499655
 31
0.0
  0
LINE
  8
0
  6
CONTINUOUS
 62
     7
 10
25.0
 20
122.5
 30
0.0
 11
25.0
 21
117.5
 31
0.0
  0
LINE
  8
0
  6
DASHED
 62
     7
 10
40.0
 20
67.5
 30
0.0
 11
27.5
 21
67.5
 31
0.0
  0
LINE
  8
0
  6
CONTINUOUS
 62
     7
 10
120.0
 20
45.0
 30
0.0
 11
222.500345
 21
45.0
 31
0.0
  0
LINE
  8
0
  6
CONTINUOUS
 62
     7
 10
222.500345
 20
45.0
 30
0.0
 11
223.500345
 21
46.0
 31
0.0
  0
LINE
  8
0
  6
CONTINUOUS
 62
     7
 10
120.0
 20
45.0
 30
0.0
 11
119.0
 21
46.0
 31
0.0
  0
LINE
  8
0
  6
CONTINUOUS
 62
     7
 10
120.0
 20
57.5
 30
0.0
 11
120.0
 21
50.0
 31
0.0
  0
LINE
  8
0
  6
CONTINUOUS
 62
     7
 10
147.5
 20
57.5
 30
0.0
 11
147.5
 21
50.0
 31
0.0
  0
LINE
  8
0
  6
CONTINUOUS
 62
     7
 10
215.0
 20
57.5
 30
0.0
 11
215.0
 21
50.0
 31
0.0
  0
LINE
  8
0
  6
CONTINUOUS
 62
     7
 10
222.5
 20
57.5
 30
0.0
 11
222.5
 21
50.0
 31
0.0
  0
LINE
  8
0
  6
HIDDEN
 62
     7
 10
180.0
 20
57.5
 30
0.0
 11
180.0
 21
50.0
 31
0.0
  0
LINE
  8
0
  6
HIDDEN
 62
     7
 10
210.450615
 20
57.5
 30
0.0
 11
210.450615
 21
50.0
 31
0.0
  0
TEXT
  8
0
  6
HIDDEN
 62
     7
 10
168.484926
 20
38.667815
 30
0.0
 40
2.0
  1
SHEET 2
  7
ROMANS
  0
LINE
  8
0
  6
CONTINUOUS
 62
     7
 10
355.727984
 20
200.0
 30
0.0
 11
375.727984
 21
200.0
 31
0.0
  0
LINE
  8
0
  6
CONTINUOUS
 62
     7
 10
372.519318
 20
203.102225
 30
0.0
 11
372.519318
 21
201.314094
 31
0.0
  0
LINE
  8
0
  6
CONTINUOUS
 62
     7
 10
369.565206
 20
204.45511
 30
0.0
 11
370.465883
 21
203.331361
 31
0.0
  0
LINE
  8
0
  6
CONTINUOUS
 62
     7
 10
367.119799
 20
201.089344
 30
0.0
 11
369.99591
 21
203.917903
 31
0.0
  0
LINE
  8
0
  6
CONTINUOUS
 62
     7
 10
364.735654
 20
202.256947
 30
0.0
 11
372.523859
 21
202.256947
 31
0.0
  0
LINE
  8
0
  6
CONTINUOUS
 62
     7
 10
364.704623
 20
203.102225
 30
0.0
 11
364.704623
 21
201.314094
 31
0.0
  0
TEXT
  8
0
  6
CONTINUOUS
 62
     7
 10
358.595465
 20
201.612471
 30
0.0
 40
2.5
  1
n
  7
GREEKS
  0
TEXT
  8
0
  6
CONTINUOUS
 62
     7
 10
361.987037
 20
201.59044
 30
0.0
 40
2.0
  1
x
  7
GREEKS
  0
TEXT
  8
0
  6
CONTINUOUS
 62
     7
 10
322.299383
 20
73.813619
 30
0.0
 40
2.0
  1
L2
  7
ROMANS
  0
TEXT
  8
0
  6
CONTINUOUS
 62
     7
 10
334.746136
 20
73.82464
 30
0.0
 40
2.0
  1
4-6
  7
ROMANS
  0
TEXT
  8
0
  6
CONTINUOUS
 62
     7
 10
349.840486
 20
73.82464
 30
0.0
 40
2.0
  1
4-5
  7
ROMANS
  0
LINE
  8
0
 62
     7
 10
361.00882
 20
93.671798
 30
0.0
 11
317.00882
 21
93.671798
 31
0.0
  0
TEXT
  8
0
  6
HIDDEN
 62
     7
 10
322.336213
 20
52.944869
 30
0.0
 40
2.0
  1
U12
  7
ROMANS
  0
TEXT
  8
0
  6
HIDDEN
 62
     7
 10
322.336213
 20
48.872315
 30
0.0
 40
2.0
  1
U23
  7
ROMANS
  0
TEXT
  8
0
  6
HIDDEN
 62
     7
 10
322.336213
 20
44.962756
 30
0.0
 40
2.0
  1
U31
  7
ROMANS
  0
LINE
  8
0
  6
CONTINUOUS
 62
     7
 10
331.00882
 20
63.060985
 30
0.0
 11
360.993873
 21
63.060985
 31
0.0
  0
TEXT
  8
0
  6
CONTINUOUS
 62
     7
 10
333.315824
 20
52.94301
 30
0.0
 40
2.0
  1
13-14
  7
ROMANS
  0
TEXT
  8
0
  6
CONTINUOUS
 62
     7
 10
333.315824
 20
48.860291
 30
0.0
 40
2.0
  1
16-17
  7
ROMANS
  0
TEXT
  8
0
  6
CONTINUOUS
 62
     7
 10
333.315824
 20
44.98696
 30
0.0
 40
2.0
  1
19-20
  7
ROMANS
  0
TEXT
  8
0
  6
CONTINUOUS
 62
     7
 10
348.790577
 20
52.920969
 30
0.0
 40
2.0
  1
13-15
  7
ROMANS
  0
TEXT
  8
0
  6
CONTINUOUS
 62
     7
 10
348.790577
 20
48.849271
 30
0.0
 40
2.0
  1
16-18
  7
ROMANS
  0
TEXT
  8
0
  6
CONTINUOUS
 62
     7
 10
348.790577
 20
44.99798
 30
0.0
 40
2.0
  1
19-21
  7
ROMANS
  0
TEXT
  8
0
  6
CONTINUOUS
 62
     7
 10
311.11889
 20
92.284112
 30
0.0
 40
2.0
  1
1)
  7
ROMANS
  0
TEXT
  8
0
  6
CONTINUOUS
 62
     7
 10
11.860934
 20
38.164692
 30
0.0
 40
2.0
  1
2) BLOCKING INPUT /
  7
ROMANS
  0
TEXT
  8
0
  6
CONTINUOUS
 62
     7
 10
13.199949
 20
34.831358
 30
0.0
 40
2.0
  1
  BLOCKERING IN
  7
ROMANS
  0
TEXT
  8
0
  6
CONTINUOUS
 62
     7
 10
11.860934
 20
28.998025
 30
0.0
 40
2.0
  1
3) TRIP 1 /
  7
ROMANS
  0
TEXT
  8
0
  6
CONTINUOUS
 62
     7
 10
13.199949
 20
25.664692
 30
0.0
 40
2.0
  1
  UTLÖSNING 1
  7
ROMANS
  0
TEXT
  8
0
  6
CONTINUOUS
 62
     7
 10
13.184733
 20
16.489903
 30
0.0
 40
2.0
  1
  UTLÖSNING 2 ELLER SIGNALUTGÅNG
  7
ROMANS
  0
TEXT
  8
0
  6
CONTINUOUS
 62
     7
 10
84.193637
 20
25.529715
 30
0.0
 40
2.0
  1
  SIGNALUTGÅNG
  7
ROMANS
  0
TEXT
  8
0
  6
CONTINUOUS
 62
     7
 10
84.216335
 20
16.472765
 30
0.0
 40
2.0
  1
  START, BLOCKERING MM.
  7
GREEKS
  0
TEXT
  8
0
  6
CONTINUOUS
 62
     7
 10
181.270128
 20
181.398838
 30
0.0
 40
2.5
  1
I
 11
181.270128
 21
180.565505
 31
0.0
 73
     1
  0
TEXT
  8
0
  6
CONTINUOUS
 62
     7
 10
181.270128
 20
171.079247
 30
0.0
 40
2.5
  1
I
 11
181.270128
 21
170.245914
 31
0.0
 73
     1
  0
TEXT
  8
0
  6
CONTINUOUS
 62
     7
 10
181.270128
 20
166.549875
 30
0.0
 40
2.5
  1
I
 11
181.270128
 21
165.716541
 31
0.0
 73
     1
  0
TEXT
  8
0
  6
CONTINUOUS
 62
     7
 10
181.270128
 20
156.04746
 30
0.0
 40
2.5
  1
I
 11
181.270128
 21
155.214127
 31
0.0
 73
     1
  0
TEXT
  8
0
  6
CONTINUOUS
 62
     7
 10
181.297415
 20
135.271995
 30
0.0
 40
2.5
  1
I
 11
181.297415
 21
134.438662
 31
0.0
 73
     1
  0
LINE
  8
0
  6
CONTINUOUS
 62
     7
 10
180.907148
 20
139.008285
 30
0.0
 11
187.860896
 21
139.008285
 31
0.0
  0
TEXT
  8
0
  6
CONTINUOUS
 62
     7
 10
183.219992
 20
140.264608
 30
0.0
 40
2.0
  1
2f
  0
TEXT
  8
0
  6
CONTINUOUS
 62
     7
 10
181.297415
 20
140.330346
 30
0.0
 40
2.5
  1
I
 11
181.297415
 21
139.497012
 31
0.0
 73
     1
  0
LINE
  8
0
  6
CONTINUOUS
 62
     7
 10
188.424509
 20
147.165528
 30
0.0
 11
186.078744
 21
145.975609
 31
0.0
  0
LINE
  8
0
  6
CONTINUOUS
 62
     7
 10
186.078744
 20
148.500881
 30
0.0
 11
188.424509
 21
147.165528
 31
0.0
  0
TEXT
  8
0
  6
CONTINUOUS
 62
     7
 10
181.297415
 20
146.446652
 30
0.0
 40
2.5
  1
I
 11
181.297415
 21
145.613318
 31
0.0
 73
     1
  0
TEXT
  8
0
  6
CONTINUOUS
 62
     7
 10
203.482459
 20
139.911571
 30
0.0
 40
2.5
  1
I
 11
203.482459
 21
139.078238
 31
0.0
 73
     1
  0
TEXT
  8
0
  6
CONTINUOUS
 62
     7
 10
203.482459
 20
170.175833
 30
0.0
 40
2.5
  1
I
 11
203.482459
 21
169.342499
 31
0.0
 73
     1
  0
LINE
  8
0
  6
CONTINUOUS
 62
     7
 10
191.019845
 20
172.48981
 30
0.0
 11
191.019845
 21
170.701678
 31
0.0
  0
LINE
  8
0
  6
CONTINUOUS
 62
     7
 10
191.050877
 20
171.644531
 30
0.0
 11
198.839082
 21
171.644531
 31
0.0
  0
LINE
  8
0
  6
CONTINUOUS
 62
     7
 10
195.880429
 20
173.842694
 30
0.0
 11
196.781105
 21
172.718945
 31
0.0
  0
ARC
  8
0
  6
HIDDEN
 62
     7
 10
197.745745
 20
175.573075
 30
0.0
 40
4.998196
 50
206.402922
 51
282.21115
  0
LINE
  8
0
  6
CONTINUOUS
 62
     7
 10
193.435021
 20
170.476928
 30
0.0
 11
196.311132
 21
173.305487
 31
0.0
  0
LINE
  8
0
  6
CONTINUOUS
 62
     7
 10
198.834541
 20
172.48981
 30
0.0
 11
198.834541
 21
170.701678
 31
0.0
  0
TEXT
  8
0
  6
CONTINUOUS
 62
     7
 10
245.437596
 20
152.293749
 30
0.0
 40
2.0
  1
27
  7
ROMANS
  0
TEXT
  8
0
  6
CONTINUOUS
 62
     7
 10
245.437596
 20
147.321829
 30
0.0
 40
2.0
  1
26
  7
ROMANS
  0
TEXT
  8
0
  6
CONTINUOUS
 62
     7
 10
245.437596
 20
142.156048
 30
0.0
 40
2.0
  1
25
  7
ROMANS
  0
TEXT
  8
0
  6
CONTINUOUS
 62
     7
 10
18.006694
 20
118.9968
 30
0.0
 40
2.0
  1
4a)
  7
ROMANS
  0
TEXT
  8
0
  6
CONTINUOUS
 62
     7
 10
18.006694
 20
101.381415
 30
0.0
 40
2.0
  1
4b)
  7
ROMANS
  0
TEXT
  8
0
  6
CONTINUOUS
 62
     7
 10
18.006694
 20
71.420315
 30
0.0
 40
2.0
  1
4c)
  7
ROMANS
  0
TEXT
  8
0
  6
CONTINUOUS
 62
     7
 10
362.114557
 20
212.482567
 30
0.0
 40
2.5
  1
I
 11
362.114557
 21
211.649233
 31
0.0
 73
     1
  0
TEXT
  8
0
  6
CONTINUOUS
 62
     7
 10
364.037134
 20
212.416829
 30
0.0
 40
2.0
  1
2f
  0
TEXT
  8
0
  6
CONTINUOUS
 62
     7
 10
362.140518
 20
233.492044
 30
0.0
 40
2.5
  1
I
 11
362.140518
 21
232.65871
 31
0.0
 73
     1
  0
TEXT
  8
0
  6
CONTINUOUS
 62
     7
 10
362.140518
 20
223.364322
 30
0.0
 40
2.5
  1
I
 11
362.140518
 21
222.530989
 31
0.0
 73
     1
  0
LINE
  8
0
  6
CONTINUOUS
 62
     7
 10
369.166854
 20
224.606769
 30
0.0
 11
366.821088
 21
223.41685
 31
0.0
  0
LINE
  8
0
  6
CONTINUOUS
 62
     7
 10
366.821088
 20
225.942123
 30
0.0
 11
369.166854
 21
224.606769
 31
0.0
  0
LINE
  8
0
  6
CONTINUOUS
 62
     7
 10
368.800389
 20
225.942123
 30
0.0
 11
371.146155
 21
224.606769
 31
0.0
  0
LINE
  8
0
  6
CONTINUOUS
 62
     7
 10
371.146155
 20
224.606769
 30
0.0
 11
368.800389
 21
223.41685
 31
0.0
  0
LINE
  8
0
  6
CONTINUOUS
 62
     7
 10
361.32826
 20
230.116006
 30
0.0
 11
361.32826
 21
228.327874
 31
0.0
  0
LINE
  8
0
  6
CONTINUOUS
 62
     7
 10
361.359291
 20
229.270727
 30
0.0
 11
369.147496
 21
229.270727
 31
0.0
  0
LINE
  8
0
  6
CONTINUOUS
 62
     7
 10
366.188843
 20
231.46889
 30
0.0
 11
367.08952
 21
230.345141
 31
0.0
  0
ARC
  8
0
  6
HIDDEN
 62
     7
 10
368.054159
 20
233.199272
 30
0.0
 40
4.998196
 50
206.402922
 51
282.21115
  0
LINE
  8
0
  6
CONTINUOUS
 62
     7
 10
363.743436
 20
228.103125
 30
0.0
 11
366.619546
 21
230.931683
 31
0.0
  0
LINE
  8
0
  6
CONTINUOUS
 62
     7
 10
369.142955
 20
230.116006
 30
0.0
 11
369.142955
 21
228.327874
 31
0.0
  0
LINE
  8
0
  6
CONTINUOUS
 62
     7
 10
355.727984
 20
210.0
 30
0.0
 11
375.727984
 21
210.0
 31
0.0
  0
TEXT
  8
0
  6
CONTINUOUS
 62
     7
 10
352.15333
 20
194.200508
 30
0.0
 40
2.0
  1
FEEDER TERMINAL
  7
ROMANS
  0
TEXT
  8
0
  6
CONTINUOUS
 62
     7
 10
352.15333
 20
190.867175
 30
0.0
 40
2.0
  1
LEDNINGSTERMINAL
  7
ROMANS
  0
TEXT
  8
0
  6
CONTINUOUS
 62
     7
 10
9.848161
 20
19.827224
 30
0.0
 40
2.0
  1
4a) TRIP 2 OR ALARM OUTPUT
  7
ROMANS
  0
TEXT
  8
0
  6
CONTINUOUS
 62
     7
 10
80.864061
 20
28.852465
 30
0.0
 40
2.0
  1
4b) ALARM OUTPUT /
  7
ROMANS
  0
TEXT
  8
0
  6
CONTINUOUS
 62
     7
 10
80.846501
 20
19.8069
 30
0.0
 40
2.0
  1
4c) START, BLOCKING ETC.
  7
ROMANS
  0
TEXT
  8
0
  6
CONTINUOUS
 62
     7
 10
322.137445
 20
65.541581
 30
0.0
 40
2.5
  1
I
 11
322.137445
 21
64.708248
 31
0.0
 73
     1
  0
TEXT
  8
0
  6
CONTINUOUS
 62
     7
 10
332.783262
 20
65.493589
 30
0.0
 40
2.0
  1
25-27
  7
ROMANS
  0
TEXT
  8
0
  6
CONTINUOUS
 62
     7
 10
347.801532
 20
65.493589
 30
0.0
 40
2.0
  1
25-26
  7
ROMANS
  0
LINE
  8
0
  6
CONTINUOUS
 62
     7
 10
255.0
 20
155.3468
 30
0.0
 11
254.0
 21
156.3468
 31
0.0
  0
LINE
  8
0
  6
CONTINUOUS
 62
     7
 10
255.0
 20
149.66187
 30
0.0
 11
254.0
 21
148.66187
 31
0.0
  0
LINE
  8
0
  6
CONTINUOUS
 62
     7
 10
255.0
 20
155.3468
 30
0.0
 11
255.0
 21
149.66187
 31
0.0
  0
LINE
  8
0
  6
CONTINUOUS
 62
     7
 10
255.0
 20
175.3468
 30
0.0
 11
255.0
 21
169.66187
 31
0.0
  0
LINE
  8
0
  6
CONTINUOUS
 62
     7
 10
255.0
 20
169.66187
 30
0.0
 11
254.0
 21
168.66187
 31
0.0
  0
LINE
  8
0
  6
CONTINUOUS
 62
     7
 10
255.0
 20
175.3468
 30
0.0
 11
254.0
 21
176.3468
 31
0.0
  0
LINE
  8
0
  6
CONTINUOUS
 62
     7
 10
255.0
 20
195.3468
 30
0.0
 11
254.0
 21
196.3468
 31
0.0
  0
LINE
  8
0
  6
CONTINUOUS
 62
     7
 10
255.0
 20
189.66187
 30
0.0
 11
254.0
 21
188.66187
 31
0.0
  0
LINE
  8
0
  6
CONTINUOUS
 62
     7
 10
255.0
 20
195.3468
 30
0.0
 11
255.0
 21
189.66187
 31
0.0
  0
LINE
  8
0
  6
CONTINUOUS
 62
     7
 10
255.0
 20
215.3468
 30
0.0
 11
255.0
 21
209.66187
 31
0.0
  0
LINE
  8
0
  6
CONTINUOUS
 62
     7
 10
255.0
 20
209.66187
 30
0.0
 11
254.0
 21
208.66187
 31
0.0
  0
LINE
  8
0
  6
CONTINUOUS
 62
     7
 10
255.0
 20
215.3468
 30
0.0
 11
254.0
 21
216.3468
 31
0.0
  0
LINE
  8
0
  6
DASHED
 62
     7
 10
285.0
 20
137.5
 30
0.0
 11
285.0
 21
130.0
 31
0.0
  0
LINE
  8
0
  6
DASHED
 62
     7
 10
290.0
 20
175.0
 30
0.0
 11
255.0
 21
175.0
 31
0.0
  0
LINE
  8
0
  6
DASHED
 62
     7
 10
285.0
 20
195.0
 30
0.0
 11
255.0
 21
195.0
 31
0.0
  0
LINE
  8
0
  6
DASHED
 62
     7
 10
280.0
 20
215.0
 30
0.0
 11
255.0
 21
215.0
 31
0.0
  0
LINE
  8
0
  6
DASHED
 62
     7
 10
282.5
 20
145.0
 30
0.0
 11
285.0
 21
145.0
 31
0.0
  0
LINE
  8
0
  6
DASHED
 62
     7
 10
285.0
 20
145.0
 30
0.0
 11
285.0
 21
145.0
 31
0.0
  0
LINE
  8
0
  6
DASHED
 62
     7
 10
272.5
 20
149.810016
 30
0.0
 11
285.0
 21
149.810016
 31
0.0
  0
LINE
  8
0
  6
CONTINUOUS
 62
     7
 10
282.5
 20
147.40144
 30
0.0
 11
285.0
 21
147.40144
 31
0.0
  0
LINE
  8
0
  6
DASHED
 62
     7
 10
272.5
 20
140.0
 30
0.0
 11
272.5
 21
145.0
 31
0.0
  0
LINE
  8
0
  6
DASHED
 62
     7
 10
282.5
 20
162.5
 30
0.0
 11
282.5
 21
140.0
 31
0.0
  0
LINE
  8
0
  6
CONTINUOUS
 62
     7
 10
285.0
 20
157.5
 30
0.0
 11
285.0
 21
137.5
 31
0.0
  0
LINE
  8
0
  6
CONTINUOUS
 62
     7
 10
285.0
 20
157.5
 30
0.0
 11
287.5
 21
162.5
 31
0.0
  0
LINE
  8
0
  6
CONTINUOUS
 62
     7
 10
282.5
 20
162.5
 30
0.0
 11
285.0
 21
157.5
 31
0.0
  0
LINE
  8
0
  6
CONTINUOUS
 62
     7
 10
280.0
 20
162.5
 30
0.0
 11
290.0
 21
162.5
 31
0.0
  0
LINE
  8
0
  6
DASHED
 62
     7
 10
275.0
 20
210.189992
 30
0.0
 11
275.0
 21
162.5
 31
0.0
  0
LINE
  8
0
  6
DASHED
 62
     7
 10
272.5
 20
155.0
 30
0.0
 11
272.5
 21
149.810016
 31
0.0
  0
LINE
  8
0
  6
DASHED
 62
     7
 10
255.0
 20
155.0
 30
0.0
 11
272.5
 21
155.0
 31
0.0
  0
LINE
  8
0
  6
DASHED
 62
     7
 10
260.0
 20
205.0
 30
0.0
 11
260.0
 21
165.0
 31
0.0
  0
LINE
  8
0
  6
DASHED
 62
     7
 10
290.006921
 20
170.189984
 30
0.0
 11
275.0
 21
170.189984
 31
0.0
  0
LINE
  8
0
  6
DASHED
 62
     7
 10
285.069797
 20
190.189984
 30
0.0
 11
275.0
 21
190.189984
 31
0.0
  0
LINE
  8
0
  6
DASHED
 62
     7
 10
280.0
 20
187.5
 30
0.0
 11
280.0
 21
162.5
 31
0.0
  0
LINE
  8
0
  6
DASHED
 62
     7
 10
285.0
 20
187.5
 30
0.0
 11
285.0
 21
162.5
 31
0.0
  0
LINE
  8
0
  6
DASHED
 62
     7
 10
290.0
 20
187.5
 30
0.0
 11
290.0
 21
162.5
 31
0.0
  0
LINE
  8
0
  6
DASHED
 62
     7
 10
280.0
 20
220.0
 30
0.0
 11
280.0
 21
187.5
 31
0.0
  0
LINE
  8
0
  6
DASHED
 62
     7
 10
280.0
 20
227.5
 30
0.0
 11
280.0
 21
240.0
 31
0.0
  0
LINE
  8
0
  6
DASHED
 62
     7
 10
285.0
 20
250.0
 30
0.0
 11
285.0
 21
227.5
 31
0.0
  0
LINE
  8
0
  6
DASHED
 62
     7
 10
285.0
 20
220.0
 30
0.0
 11
285.0
 21
187.5
 31
0.0
  0
LINE
  8
0
  6
DASHED
 62
     7
 10
290.0
 20
245.0
 30
0.0
 11
290.0
 21
227.5
 31
0.0
  0
LINE
  8
0
  6
DASHED
 62
     7
 10
290.0
 20
220.0
 30
0.0
 11
290.0
 21
187.5
 31
0.0
  0
LINE
  8
0
  6
DASHED
 62
     7
 10
285.0
 20
240.0
 30
0.0
 11
285.0
 21
247.5
 31
0.0
  0
LINE
  8
0
  6
DASHED
 62
     7
 10
280.0
 20
240.0
 30
0.0
 11
280.0
 21
255.0
 31
0.0
  0
LINE
  8
0
  6
CONTINUOUS
 62
     7
 10
280.0
 20
220.0
 30
0.0
 11
277.5
 21
227.5
 31
0.0
  0
LINE
  8
0
  6
CONTINUOUS
 62
     7
 10
285.0
 20
220.0
 30
0.0
 11
282.5
 21
227.5
 31
0.0
  0
LINE
  8
0
  6
CONTINUOUS
 62
     7
 10
290.0
 20
220.0
 30
0.0
 11
287.5
 21
227.5
 31
0.0
  0
LINE
  8
0
  6
CONTINUOUS
 62
     7
 10
280.0
 20
227.5
 30
0.0
 11
279.5
 21
228.0
 31
0.0
  0
LINE
  8
0
  6
CONTINUOUS
 62
     7
 10
280.0
 20
227.5
 30
0.0
 11
280.5
 21
227.0
 31
0.0
  0
LINE
  8
0
  6
CONTINUOUS
 62
     7
 10
280.0
 20
227.5
 30
0.0
 11
280.5
 21
228.0
 31
0.0
  0
LINE
  8
0
  6
CONTINUOUS
 62
     7
 10
280.0
 20
227.5
 30
0.0
 11
279.5
 21
227.0
 31
0.0
  0
LINE
  8
0
  6
CONTINUOUS
 62
     7
 10
285.0
 20
227.5
 30
0.0
 11
285.5
 21
228.0
 31
0.0
  0
LINE
  8
0
  6
CONTINUOUS
 62
     7
 10
285.0
 20
227.5
 30
0.0
 11
285.5
 21
227.0
 31
0.0
  0
LINE
  8
0
  6
CONTINUOUS
 62
     7
 10
285.0
 20
227.5
 30
0.0
 11
284.5
 21
227.0
 31
0.0
  0
LINE
  8
0
  6
CONTINUOUS
 62
     7
 10
285.0
 20
227.5
 30
0.0
 11
284.5
 21
228.0
 31
0.0
  0
LINE
  8
0
  6
CONTINUOUS
 62
     7
 10
290.0
 20
227.5
 30
0.0
 11
290.5
 21
227.0
 31
0.0
  0
LINE
  8
0
  6
CONTINUOUS
 62
     7
 10
290.0
 20
227.5
 30
0.0
 11
290.5
 21
228.0
 31
0.0
  0
LINE
  8
0
  6
CONTINUOUS
 62
     7
 10
290.0
 20
227.5
 30
0.0
 11
289.5
 21
228.0
 31
0.0
  0
LINE
  8
0
  6
CONTINUOUS
 62
     7
 10
290.0
 20
227.5
 30
0.0
 11
289.5
 21
227.0
 31
0.0
  0
LINE
  8
0
  6
DASHED
 62
     7
 10
280.0
 20
210.189992
 30
0.0
 11
275.0
 21
210.189992
 31
0.0
  0
TEXT
  8
0
  6
CONTINUOUS
 62
     7
 10
263.732328
 20
253.985054
 30
0.0
 40
2.0
  1
L1(R)
  7
ROMANS
 11
263.732328
 21
253.318387
 31
0.0
 73
     1
  0
TEXT
  8
0
  6
CONTINUOUS
 62
     7
 10
263.732328
 20
248.928359
 30
0.0
 40
2.0
  1
L2(S)
  7
ROMANS
 11
263.732328
 21
248.261693
 31
0.0
 73
     1
  0
TEXT
  8
0
  6
CONTINUOUS
 62
     7
 10
263.732328
 20
244.006967
 30
0.0
 40
2.0
  1
L3(T)
  7
ROMANS
 11
263.732328
 21
243.3403
 31
0.0
 73
     1
  0
LINE
  8
0
  6
DASHED
 62
     7
 10
250.0
 20
145.0
 30
0.0
 11
282.5
 21
145.0
 31
0.0
  0
LINE
  8
0
  6
CONTINUOUS
 62
     7
 10
250.0
 20
150.0
 30
0.0
 11
252.5
 21
150.0
 31
0.0
  0
LINE
  8
0
  6
CONTINUOUS
 62
     7
 10
250.0
 20
155.0
 30
0.0
 11
252.5
 21
155.0
 31
0.0
  0
LINE
  8
0
  6
DASHED
 62
     7
 10
250.0
 20
165.0
 30
0.0
 11
275.0
 21
165.0
 31
0.0
  0
LINE
  8
0
  6
CONTINUOUS
 62
     7
 10
250.0
 20
170.0
 30
0.0
 11
252.5
 21
170.0
 31
0.0
  0
LINE
  8
0
  6
CONTINUOUS
 62
     7
 10
250.0
 20
175.0
 30
0.0
 11
252.5
 21
175.0
 31
0.0
  0
LINE
  8
0
  6
DASHED
 62
     7
 10
250.0
 20
185.0
 30
0.0
 11
260.0
 21
185.0
 31
0.0
  0
LINE
  8
0
  6
CONTINUOUS
 62
     7
 10
250.0
 20
190.0
 30
0.0
 11
252.5
 21
190.0
 31
0.0
  0
LINE
  8
0
  6
CONTINUOUS
 62
     7
 10
250.0
 20
195.0
 30
0.0
 11
252.5
 21
195.0
 31
0.0
  0
LINE
  8
0
  6
DASHED
 62
     7
 10
250.0
 20
205.0
 30
0.0
 11
260.0
 21
205.0
 31
0.0
  0
LINE
  8
0
  6
CONTINUOUS
 62
     7
 10
250.0
 20
210.0
 30
0.0
 11
252.5
 21
210.0
 31
0.0
  0
LINE
  8
0
  6
CONTINUOUS
 62
     7
 10
250.0
 20
215.0
 30
0.0
 11
252.5
 21
215.0
 31
0.0
  0
LINE
  8
0
  6
DASHED
 62
     7
 10
302.5
 20
245.0
 30
0.0
 11
272.5
 21
245.0
 31
0.0
  0
LINE
  8
0
  6
DASHED
 62
     7
 10
302.5
 20
250.0
 30
0.0
 11
272.5
 21
250.0
 31
0.0
  0
LINE
  8
0
  6
DASHED
 62
     7
 10
302.5
 20
255.0
 30
0.0
 11
272.5
 21
255.0
 31
0.0
  0
LINE
  8
0
  6
DASHED
 62
     7
 10
372.5
 20
102.5
 30
0.0
 11
372.5
 21
140.0
 31
0.0
  0
LINE
  8
0
  6
DASHED
 62
     7
 10
365.0
 20
110.0
 30
0.0
 11
365.0
 21
140.0
 31
0.0
  0
LINE
  8
0
  6
DASHED
 62
     7
 10
357.5
 20
140.0
 30
0.0
 11
357.5
 21
117.5
 31
0.0
  0
TEXT
  8
0
  6
DASHED
 62
     7
 10
332.5
 20
168.991307
 30
0.0
 40
2.0
  1
L3(T)
  7
ROMANS
  0
TEXT
  8
0
  6
DASHED
 62
     7
 10
332.5
 20
174.010757
 30
0.0
 40
2.0
  1
L2(S)
  7
ROMANS
  0
TEXT
  8
0
  6
DASHED
 62
     7
 10
332.5
 20
179.030207
 30
0.0
 40
2.0
  1
L1(R)
  7
ROMANS
  0
LINE
  8
0
  6
DASHED
 62
     7
 10
380.0
 20
170.0
 30
0.0
 11
342.5
 21
170.0
 31
0.0
  0
LINE
  8
0
  6
DASHED
 62
     7
 10
380.0
 20
175.0
 30
0.0
 11
342.5
 21
175.0
 31
0.0
  0
LINE
  8
0
  6
DASHED
 62
     7
 10
380.0
 20
180.0
 30
0.0
 11
342.5
 21
180.0
 31
0.0
  0
LINE
  8
0
  6
DASHED
 62
     7
 10
357.5
 20
157.5
 30
0.0
 11
357.5
 21
180.0
 31
0.0
  0
LINE
  8
0
  6
DASHED
 62
     7
 10
365.0
 20
157.5
 30
0.0
 11
365.0
 21
175.0
 31
0.0
  0
LINE
  8
0
  6
DASHED
 62
     7
 10
372.5
 20
157.5
 30
0.0
 11
372.5
 21
170.0
 31
0.0
  0
LINE
  8
0
  6
CONTINUOUS
 62
     7
 10
356.506031
 20
145.098556
 30
0.0
 11
357.478167
 21
145.098556
 31
0.0
  0
LINE
  8
0
  6
CONTINUOUS
 62
     7
 10
356.496128
 20
147.499996
 30
0.0
 11
357.473936
 21
147.499996
 31
0.0
  0
LINE
  8
0
  6
CONTINUOUS
 62
     7
 10
356.500897
 20
142.68998
 30
0.0
 11
357.5
 21
142.68998
 31
0.0
  0
ARC
  8
0
  6
CONTINUOUS
 62
     7
 10
355.864862
 20
143.894238
 30
0.0
 40
1.204309
 50
90.0
 51
270.0
  0
LINE
  8
0
  6
CONTINUOUS
 62
     7
 10
355.859898
 20
142.689937
 30
0.0
 11
356.509496
 21
142.689937
 31
0.0
  0
LINE
  8
0
  6
CONTINUOUS
 62
     7
 10
355.858762
 20
147.499993
 30
0.0
 11
356.502261
 21
147.499993
 31
0.0
  0
LINE
  8
0
  6
CONTINUOUS
 62
     7
 10
355.858762
 20
145.098547
 30
0.0
 11
356.50836
 21
145.098547
 31
0.0
  0
ARC
  8
0
  6
CONTINUOUS
 62
     7
 10
355.864862
 20
146.296095
 30
0.0
 40
1.204309
 50
90.0
 51
265.706237
  0
LINE
  8
0
  6
CONTINUOUS
 62
     7
 10
364.006031
 20
145.098556
 30
0.0
 11
364.978167
 21
145.098556
 31
0.0
  0
LINE
  8
0
  6
CONTINUOUS
 62
     7
 10
363.996128
 20
147.499996
 30
0.0
 11
364.973936
 21
147.499996
 31
0.0
  0
LINE
  8
0
  6
CONTINUOUS
 62
     7
 10
364.000897
 20
142.68998
 30
0.0
 11
365.0
 21
142.68998
 31
0.0
  0
ARC
  8
0
  6
CONTINUOUS
 62
     7
 10
363.364862
 20
143.894238
 30
0.0
 40
1.204309
 50
90.0
 51
270.0
  0
LINE
  8
0
  6
CONTINUOUS
 62
     7
 10
363.359898
 20
142.689937
 30
0.0
 11
364.009496
 21
142.689937
 31
0.0
  0
LINE
  8
0
  6
CONTINUOUS
 62
     7
 10
363.358762
 20
147.499993
 30
0.0
 11
364.002261
 21
147.499993
 31
0.0
  0
LINE
  8
0
  6
CONTINUOUS
 62
     7
 10
363.358762
 20
145.098547
 30
0.0
 11
364.00836
 21
145.098547
 31
0.0
  0
ARC
  8
0
  6
CONTINUOUS
 62
     7
 10
363.364862
 20
146.296095
 30
0.0
 40
1.204309
 50
90.0
 51
265.706237
  0
LINE
  8
0
  6
CONTINUOUS
 62
     7
 10
365.0
 20
142.68998
 30
0.0
 11
365.0
 21
140.0
 31
0.0
  0
LINE
  8
0
  6
CONTINUOUS
 62
     7
 10
357.5
 20
142.68998
 30
0.0
 11
357.5
 21
140.0
 31
0.0
  0
LINE
  8
0
  6
CONTINUOUS
 62
     7
 10
357.5
 20
147.5
 30
0.0
 11
377.5
 21
147.5
 31
0.0
  0
LINE
  8
0
  6
CONTINUOUS
 62
     7
 10
371.506031
 20
145.098556
 30
0.0
 11
372.478167
 21
145.098556
 31
0.0
  0
LINE
  8
0
  6
CONTINUOUS
 62
     7
 10
371.496128
 20
147.499996
 30
0.0
 11
372.473936
 21
147.499996
 31
0.0
  0
LINE
  8
0
  6
CONTINUOUS
 62
     7
 10
371.500897
 20
142.68998
 30
0.0
 11
372.5
 21
142.68998
 31
0.0
  0
ARC
  8
0
  6
CONTINUOUS
 62
     7
 10
370.864862
 20
143.894238
 30
0.0
 40
1.204309
 50
90.0
 51
270.0
  0
LINE
  8
0
  6
CONTINUOUS
 62
     7
 10
370.859898
 20
142.689937
 30
0.0
 11
371.509496
 21
142.689937
 31
0.0
  0
LINE
  8
0
  6
CONTINUOUS
 62
     7
 10
370.858762
 20
147.499993
 30
0.0
 11
371.502261
 21
147.499993
 31
0.0
  0
LINE
  8
0
  6
CONTINUOUS
 62
     7
 10
370.858762
 20
145.098547
 30
0.0
 11
371.50836
 21
145.098547
 31
0.0
  0
ARC
  8
0
  6
CONTINUOUS
 62
     7
 10
370.864862
 20
146.296095
 30
0.0
 40
1.204309
 50
90.0
 51
265.706237
  0
LINE
  8
0
  6
CONTINUOUS
 62
     7
 10
372.5
 20
142.68998
 30
0.0
 11
372.5
 21
140.0
 31
0.0
  0
LINE
  8
0
  6
CONTINUOUS
 62
     7
 10
357.5
 20
152.68998
 30
0.0
 11
377.5
 21
152.68998
 31
0.0
  0
LINE
  8
0
  6
DASHED
 62
     7
 10
282.5
 20
102.5
 30
0.0
 11
372.5
 21
102.5
 31
0.0
  0
LINE
  8
0
  6
DASHED
 62
     7
 10
277.5
 20
110.0
 30
0.0
 11
365.0
 21
110.0
 31
0.0
  0
LINE
  8
0
  6
DASHED
 62
     7
 10
250.0
 20
117.5
 30
0.0
 11
262.5
 21
117.5
 31
0.0
  0
TEXT
  8
0
  6
DASHED
 62
     7
 10
256.160685
 20
88.291503
 30
0.0
 40
2.0
  1
1)
  7
ROMANS
  0
TEXT
  8
0
  6
DASHED
 62
     7
 10
256.160685
 20
108.291503
 30
0.0
 40
2.0
  1
1)
  7
ROMANS
  0
TEXT
  8
0
  6
DASHED
 62
     7
 10
256.160685
 20
128.291503
 30
0.0
 40
2.0
  1
1)
  7
ROMANS
  0
LINE
  8
0
  6
DASHED
 62
     7
 10
282.5
 20
87.5
 30
0.0
 11
282.5
 21
102.5
 31
0.0
  0
LINE
  8
0
  6
DASHED
 62
     7
 10
277.5
 20
107.5
 30
0.0
 11
277.5
 21
110.0
 31
0.0
  0
LINE
  8
0
  6
DASHED
 62
     7
 10
255.0
 20
87.5
 30
0.0
 11
282.5
 21
87.5
 31
0.0
  0
LINE
  8
0
  6
DASHED
 62
     7
 10
267.5
 20
127.5
 30
0.0
 11
267.5
 21
77.5
 31
0.0
  0
LINE
  8
0
  6
DASHED
 62
     7
 10
255.0
 20
127.5
 30
0.0
 11
272.5
 21
127.5
 31
0.0
  0
LINE
  8
0
  6
DASHED
 62
     7
 10
262.5
 20
97.5
 30
0.0
 11
262.5
 21
87.5
 31
0.0
  0
LINE
  8
0
  6
DASHED
 62
     7
 10
255.0
 20
107.5
 30
0.0
 11
277.5
 21
107.5
 31
0.0
  0
LINE
  8
0
  6
CONTINUOUS
 62
     7
 10
255.0
 20
87.8468
 30
0.0
 11
255.0
 21
82.16187
 31
0.0
  0
LINE
  8
0
  6
CONTINUOUS
 62
     7
 10
255.0
 20
82.16187
 30
0.0
 11
254.0
 21
81.16187
 31
0.0
  0
LINE
  8
0
  6
CONTINUOUS
 62
     7
 10
255.0
 20
87.8468
 30
0.0
 11
254.0
 21
88.8468
 31
0.0
  0
LINE
  8
0
  6
CONTINUOUS
 62
     7
 10
255.0
 20
107.8468
 30
0.0
 11
254.0
 21
108.8468
 31
0.0
  0
LINE
  8
0
  6
CONTINUOUS
 62
     7
 10
255.0
 20
102.16187
 30
0.0
 11
254.0
 21
101.16187
 31
0.0
  0
LINE
  8
0
  6
CONTINUOUS
 62
     7
 10
255.0
 20
107.8468
 30
0.0
 11
255.0
 21
102.16187
 31
0.0
  0
LINE
  8
0
  6
CONTINUOUS
 62
     7
 10
255.0
 20
127.8468
 30
0.0
 11
255.0
 21
122.16187
 31
0.0
  0
LINE
  8
0
  6
CONTINUOUS
 62
     7
 10
255.0
 20
122.16187
 30
0.0
 11
254.0
 21
121.16187
 31
0.0
  0
LINE
  8
0
  6
CONTINUOUS
 62
     7
 10
255.0
 20
127.8468
 30
0.0
 11
254.0
 21
128.8468
 31
0.0
  0
LINE
  8
0
  6
CONTINUOUS
 62
     7
 10
250.0
 20
127.5
 30
0.0
 11
252.5
 21
127.5
 31
0.0
  0
LINE
  8
0
  6
CONTINUOUS
 62
     7
 10
250.0
 20
122.5
 30
0.0
 11
252.5
 21
122.5
 31
0.0
  0
LINE
  8
0
  6
CONTINUOUS
 62
     7
 10
250.0
 20
107.5
 30
0.0
 11
252.5
 21
107.5
 31
0.0
  0
LINE
  8
0
  6
CONTINUOUS
 62
     7
 10
250.0
 20
102.5
 30
0.0
 11
252.5
 21
102.5
 31
0.0
  0
LINE
  8
0
  6
DASHED
 62
     7
 10
250.0
 20
97.5
 30
0.0
 11
262.5
 21
97.5
 31
0.0
  0
LINE
  8
0
  6
CONTINUOUS
 62
     7
 10
250.0
 20
87.5
 30
0.0
 11
252.5
 21
87.5
 31
0.0
  0
LINE
  8
0
  6
CONTINUOUS
 62
     7
 10
250.0
 20
82.5
 30
0.0
 11
252.5
 21
82.5
 31
0.0
  0
LINE
  8
0
  6
DASHED
 62
     7
 10
250.0
 20
77.5
 30
0.0
 11
267.5
 21
77.5
 31
0.0
  0
TEXT
  8
0
  6
DASHED
 62
     7
 10
256.160685
 20
155.791503
 30
0.0
 40
2.0
  1
1)
  7
ROMANS
  0
TEXT
  8
0
  6
DASHED
 62
     7
 10
256.160685
 20
175.791503
 30
0.0
 40
2.0
  1
1)
  7
ROMANS
  0
TEXT
  8
0
  6
DASHED
 62
     7
 10
256.160685
 20
195.791503
 30
0.0
 40
2.0
  1
1)
  7
ROMANS
  0
TEXT
  8
0
  6
DASHED
 62
     7
 10
256.160685
 20
215.791503
 30
0.0
 40
2.0
  1
1)
  7
ROMANS
  0
TEXT
  8
0
  6
CONTINUOUS
 62
     7
 10
40.0
 20
52.5
 30
0.0
 40
2.0
  1
DIM 185 X 210
  7
ROMANS
  0
TEXT
  8
0
  6
CONTINUOUS
 62
     7
 10
40.0
 20
49.166667
 30
0.0
 40
2.0
  1
RS 10105-AAE
  7
ROMANS
  0
TEXT
  8
0
  6
CONTINUOUS
 62
     7
 10
212.165401
 20
28.4431
 30
0.0
 40
2.0
  1
1992-08-29 HJ / RITU
  7
ROMANS
  0
TEXT
  8
0
  6
CONTINUOUS
 62
     7
 10
322.5
 20
27.5
 30
0.0
 40
2.0
  1
TERMINAL DIAGRAM / UTTAGSSCHEMA 
  7
ROMANS
  0
TEXT
  8
0
  6
CONTINUOUS
 62
     7
 10
322.5
 20
24.166667
 30
0.0
 40
2.0
  1
SPAC 633 C4
  7
ROMANS
  0
TEXT
  8
0
  6
CONTINUOUS
 62
     7
 10
322.5
 20
2.5
 30
0.0
 40
2.5
  1
RS 10105-AAE
  7
ROMANS
  0
TEXT
  8
0
  6
CONTINUOUS
 62
     7
 10
117.5
 20
60.0
 30
0.0
 40
2.0
  1
ARINH
 50
90.0
  7
ROMANS
  0
TEXT
  8
0
  6
CONTINUOUS
 62
     7
 10
145.22469
 20
60.0
 30
0.0
 40
2.0
  1
CH16
 50
90.0
  7
ROMANS
  0
TEXT
  8
0
  6
CONTINUOUS
 62
     7
 10
382.5
 20
2.5
 30
0.0
 40
2.0
  1
B
  7
ROMANS
  0
TEXT
  8
0
  6
CONTINUOUS
 62
     7
 10
75.0
 20
237.5
 30
0.0
 40
2.0
  1
RS 10105-AA  SPAC 633 C
  7
ROMANS
  0
TEXT
  8
0
  6
CONTINUOUS
 62
     7
 10
295.992165
 20
212.196712
 30
0.0
 40
2.0
  1
P/Q
  7
ROMANS
  0
LINE
  8
0
  6
DASHED
 62
     7
 10
262.5
 20
117.5
 30
0.0
 11
262.5
 21
107.5
 31
0.0
  0
LINE
  8
0
  6
DASHED
 62
     7
 10
272.5
 20
127.5
 30
0.0
 11
272.5
 21
117.5
 31
0.0
  0
LINE
  8
0
  6
DASHED
 62
     7
 10
272.5
 20
117.5
 30
0.0
 11
357.5
 21
117.5
 31
0.0
  0
TEXT
  8
0
  6
CONTINUOUS
 62
     7
 10
53.754128
 20
1.366716
 30
0.0
 40
2.0
  1
A CHANGE OF CONNECTION FOR THE VOLTAGE TRANSFORMER 1993-04-27  KM / RITU Power
  7
ROMANS
  0
TEXT
  8
0
  6
DASHED
 62
     7
 10
292.559556
 20
12.154511
 30
0.0
 40
3.0
  1
A3
  7
GREEKS
  0
TEXT
  8
0
  6
DASHED
 62
     7
 10
352.160939
 20
16.033682
 30
0.0
 40
1.4
  1
LEHTI SHEET
  7
GREEKS
  0
LINE
  8
0
 62
     7
 10
0.579461
 20
263.079152
 30
0.0
 11
392.579461
 21
263.079152
 31
0.0
  0
LINE
  8
0
 62
     7
 10
18.579461
 20
0.579152
 30
0.0
 11
0.579461
 21
0.579152
 31
0.0
  0
LINE
  8
0
 62
     7
 10
209.579461
 20
0.579152
 30
0.0
 11
392.579461
 21
0.579152
 31
0.0
  0
LINE
  8
0
 62
     7
 10
209.579461
 20
0.579152
 30
0.0
 11
209.579461
 21
35.579152
 31
0.0
  0
LINE
  8
0
 62
     7
 10
392.579461
 20
0.579152
 30
0.0
 11
392.579461
 21
35.579152
 31
0.0
  0
LINE
  8
0
 62
     7
 10
209.579461
 20
18.579152
 30
0.0
 11
392.579461
 21
18.579152
 31
0.0
  0
LINE
  8
0
 62
     7
 10
209.579461
 20
10.079152
 30
0.0
 11
392.579461
 21
10.079152
 31
0.0
  0
LINE
  8
0
 62
     7
 10
209.579461
 20
27.079152
 30
0.0
 11
307.579461
 21
27.079152
 31
0.0
  0
LINE
  8
0
 62
     7
 10
209.579461
 20
35.579152
 30
0.0
 11
392.579461
 21
35.579152
 31
0.0
  0
TEXT
  8
0
 62
     7
 10
210.579461
 20
24.312485
 30
0.0
 40
1.4
  1
TARKASTI  CHECKED
  7
ROMANS
  0
TEXT
  8
0
 62
     7
 10
210.322296
 20
16.045818
 30
0.0
 40
1.4
  1
HYVÄKSYI  APPROVED
  7
ROMANS
  0
LINE
  8
0
 62
     7
 10
307.579461
 20
0.579152
 30
0.0
 11
307.579461
 21
35.579152
 31
0.0
  0
TEXT
  8
0
 62
     7
 10
259.579461
 20
33.079152
 30
0.0
 40
1.4
  1
LIITTYY  CONCERNING
  7
ROMANS
  0
TEXT
  8
0
 62
     7
 10
259.579461
 20
24.079152
 30
0.0
 40
1.4
  1
TOLERANSSIT  TOLERANCES
  7
ROMANS
  0
TEXT
  8
0
 62
     7
 10
259.579461
 20
16.079152
 30
0.0
 40
1.4
  1
SUHDE  SCALE
  7
ROMANS
  0
TEXT
  8
0
 62
     7
 10
309.579461
 20
33.079152
 30
0.0
 40
1.4
  1
NIMITYS  NAME
  7
ROMANS
  0
TEXT
  8
0
 62
     7
 10
309.579461
 20
16.079152
 30
0.0
 40
1.4
  1
KOODI  CODE
  7
ROMANS
  0
TEXT
  8
0
 62
     7
 10
309.579461
 20
7.579152
 30
0.0
 40
1.4
  1
PIIRUSTUS NO  DRAWING NR
  7
ROMANS
  0
LINE
  8
0
 62
     7
 10
350.079461
 20
10.079152
 30
0.0
 11
350.079461
 21
18.579152
 31
0.0
  0
TEXT
  8
0
 62
     7
 10
371.579461
 20
7.579152
 30
0.0
 40
1.4
  1
PAINOS  REVISION
  7
ROMANS
  0
LINE
  8
0
 62
     7
 10
370.079461
 20
10.079152
 30
0.0
 11
370.079461
 21
0.579152
 31
0.0
  0
LINE
  8
0
 62
     7
 10
210.529461
 20
2.079152
 30
0.0
 11
212.279461
 21
2.079152
 31
0.0
  0
LINE
  8
0
 62
     7
 10
215.779461
 20
2.079152
 30
0.0
 11
217.529461
 21
2.079152
 31
0.0
  0
LINE
  8
0
 62
     7
 10
212.979461
 20
9.079152
 30
0.0
 11
211.801933
 21
5.714786
 31
0.0
  0
LINE
  8
0
 62
     7
 10
212.768248
 20
3.479152
 30
0.0
 11
213.889461
 21
3.479152
 31
0.0
  0
LINE
  8
0
 62
     7
 10
212.768251
 20
3.475694
 30
0.0
 11
212.279461
 21
2.079152
 31
0.0
  0
LINE
  8
0
 62
     7
 10
215.079461
 20
9.079152
 30
0.0
 11
216.255814
 21
5.718143
 31
0.0
  0
LINE
  8
0
 62
     7
 10
215.290559
 20
3.476015
 30
0.0
 11
215.779461
 21
2.079152
 31
0.0
  0
LINE
  8
0
 62
     7
 10
215.079461
 20
9.079152
 30
0.0
 11
214.169461
 21
9.079152
 31
0.0
  0
LINE
  8
0
 62
     7
 10
213.889461
 20
9.079152
 30
0.0
 11
213.889461
 21
5.719152
 31
0.0
  0
LINE
  8
0
 62
     7
 10
214.169461
 20
9.079152
 30
0.0
 11
214.169461
 21
5.719152
 31
0.0
  0
LINE
  8
0
 62
     7
 10
214.169461
 20
3.479152
 30
0.0
 11
215.289354
 21
3.479152
 31
0.0
  0
LINE
  8
0
 62
     7
 10
213.889461
 20
9.079152
 30
0.0
 11
212.979461
 21
9.079152
 31
0.0
  0
LINE
  8
0
 62
     7
 10
211.801402
 20
5.719152
 30
0.0
 11
213.889461
 21
5.719152
 31
0.0
  0
LINE
  8
0
 62
     7
 10
211.702443
 20
5.439152
 30
0.0
 11
213.889461
 21
5.439152
 31
0.0
  0
LINE
  8
0
 62
     7
 10
216.353953
 20
5.437746
 30
0.0
 11
217.529461
 21
2.079152
 31
0.0
  0
LINE
  8
0
 62
     7
 10
214.169461
 20
5.719152
 30
0.0
 11
216.254575
 21
5.719152
 31
0.0
  0
LINE
  8
0
 62
     7
 10
214.169461
 20
5.439152
 30
0.0
 11
216.352717
 21
5.439152
 31
0.0
  0
LINE
  8
0
 62
     7
 10
214.169461
 20
5.439152
 30
0.0
 11
214.169461
 21
3.479152
 31
0.0
  0
LINE
  8
0
 62
     7
 10
213.889461
 20
5.439152
 30
0.0
 11
213.889461
 21
3.479152
 31
0.0
  0
LINE
  8
0
 62
     7
 10
211.69935
 20
5.421691
 30
0.0
 11
210.529461
 21
2.079152
 31
0.0
  0
LINE
  8
0
 62
     7
 10
218.019461
 20
2.079152
 30
0.0
 11
218.019461
 21
5.439152
 31
0.0
  0
LINE
  8
0
 62
     7
 10
218.019461
 20
9.079152
 30
0.0
 11
219.979461
 21
9.079152
 31
0.0
  0
LINE
  8
0
 62
     7
 10
219.979461
 20
9.079152
 30
0.0
 11
219.979461
 21
5.719152
 31
0.0
  0
LINE
  8
0
 62
     7
 10
219.979461
 20
5.719152
 30
0.0
 11
218.019461
 21
5.719152
 31
0.0
  0
LINE
  8
0
 62
     7
 10
218.019461
 20
5.439152
 30
0.0
 11
219.979461
 21
5.439152
 31
0.0
  0
LINE
  8
0
 62
     7
 10
219.979461
 20
5.439152
 30
0.0
 11
219.979461
 21
2.079152
 31
0.0
  0
LINE
  8
0
 62
     7
 10
219.979461
 20
2.079152
 30
0.0
 11
218.019461
 21
2.079152
 31
0.0
  0
LINE
  8
0
 62
     7
 10
218.019461
 20
5.719152
 30
0.0
 11
218.019461
 21
9.079152
 31
0.0
  0
ARC
  8
0
 62
     7
 10
220.819461
 20
7.504152
 30
0.0
 40
1.575
 50
298.455859
 51
90.052437
  0
LINE
  8
0
 62
     7
 10
220.259461
 20
9.079152
 30
0.0
 11
220.818019
 21
9.079151
 31
0.0
  0
LINE
  8
0
 62
     7
 10
220.259461
 20
9.079152
 30
0.0
 11
220.259461
 21
5.719152
 31
0.0
  0
LINE
  8
0
 62
     7
 10
220.259461
 20
5.719152
 30
0.0
 11
222.243904
 21
5.719152
 31
0.0
  0
LINE
  8
0
 62
     7
 10
222.499461
 20
5.439152
 30
0.0
 11
220.259461
 21
5.439152
 31
0.0
  0
LINE
  8
0
 62
     7
 10
220.259461
 20
5.439152
 30
0.0
 11
220.259461
 21
2.079152
 31
0.0
  0
ARC
  8
0
 62
     7
 10
220.819461
 20
4.179152
 30
0.0
 40
2.1
 50
269.937724
 51
37.056553
  0
LINE
  8
0
 62
     7
 10
220.259461
 20
2.079152
 30
0.0
 11
220.817178
 21
2.079153
 31
0.0
  0
ARC
  8
0
 62
     7
 10
220.819461
 20
4.179152
 30
0.0
 40
2.1
 50
47.28622
 51
68.787999
  0
ARC
  8
0
 62
     7
 10
226.279461
 20
4.179152
 30
0.0
 40
2.1
 50
47.28622
 51
68.787999
  0
LINE
  8
0
 62
     7
 10
225.719461
 20
2.079152
 30
0.0
 11
226.277178
 21
2.079153
 31
0.0
  0
ARC
  8
0
 62
     7
 10
226.279461
 20
4.179152
 30
0.0
 40
2.1
 50
269.937724
 51
37.056553
  0
LINE
  8
0
 62
     7
 10
225.719461
 20
5.439152
 30
0.0
 11
225.719461
 21
2.079152
 31
0.0
  0
LINE
  8
0
 62
     7
 10
227.959461
 20
5.439152
 30
0.0
 11
225.719461
 21
5.439152
 31
0.0
  0
LINE
  8
0
 62
     7
 10
225.719461
 20
5.719152
 30
0.0
 11
227.703904
 21
5.719152
 31
0.0
  0
LINE
  8
0
 62
     7
 10
225.719461
 20
9.079152
 30
0.0
 11
225.719461
 21
5.719152
 31
0.0
  0
LINE
  8
0
 62
     7
 10
225.719461
 20
9.079152
 30
0.0
 11
226.278019
 21
9.079151
 31
0.0
  0
ARC
  8
0
 62
     7
 10
226.279461
 20
7.504152
 30
0.0
 40
1.575
 50
298.455859
 51
90.052437
  0
LINE
  8
0
 62
     7
 10
223.479461
 20
5.719152
 30
0.0
 11
223.479461
 21
9.079152
 31
0.0
  0
LINE
  8
0
 62
     7
 10
225.439461
 20
2.079152
 30
0.0
 11
223.479461
 21
2.079152
 31
0.0
  0
LINE
  8
0
 62
     7
 10
225.439461
 20
5.439152
 30
0.0
 11
225.439461
 21
2.079152
 31
0.0
  0
LINE
  8
0
 62
     7
 10
223.479461
 20
5.439152
 30
0.0
 11
225.439461
 21
5.439152
 31
0.0
  0
LINE
  8
0
 62
     7
 10
225.439461
 20
5.719152
 30
0.0
 11
223.479461
 21
5.719152
 31
0.0
  0
LINE
  8
0
 62
     7
 10
225.439461
 20
9.079152
 30
0.0
 11
225.439461
 21
5.719152
 31
0.0
  0
LINE
  8
0
 62
     7
 10
223.479461
 20
9.079152
 30
0.0
 11
225.439461
 21
9.079152
 31
0.0
  0
LINE
  8
0
 62
     7
 10
223.479461
 20
2.079152
 30
0.0
 11
223.479461
 21
5.439152
 31
0.0
  0
TEXT
  8
0
 62
     7
 10
230.079461
 20
2.079152
 30
0.0
 40
3.0
  1
ABB 
 41
0.8
  7
ROMANS
  0
TEXT
  8
0
 62
     7
 10
238.079461
 20
2.079152
 30
0.0
 40
3.0
  1
Strömberg
 41
0.8
  7
ROMANS
  0
LINE
  8
0
 62
     7
 10
282.579461
 20
10.079152
 30
0.0
 11
282.579461
 21
18.579152
 31
0.0
  0
TEXT
  8
0
 62
     7
 10
28.079461
 20
5.079152
 30
0.0
 40
1.4
  1
MUUTOS
  7
ROMANS
  0
TEXT
  8
0
 62
     7
 10
28.079461
 20
2.812485
 30
0.0
 40
1.4
  1
REVISION
  7
ROMANS
  0
LINE
  8
0
 62
     7
 10
47.079461
 20
9.579152
 30
0.0
 11
209.579461
 21
9.579152
 31
0.0
  0
LINE
  8
0
 62
     7
 10
47.079461
 20
0.579152
 30
0.0
 11
47.079461
 21
9.579152
 31
0.0
  0
LINE
  8
0
 62
     7
 10
41.079461
 20
5.079152
 30
0.0
 11
209.579461
 21
5.079152
 31
0.0
  0
LINE
  8
0
 62
     7
 10
257.579461
 20
10.079152
 30
0.0
 11
257.579461
 21
35.579152
 31
0.0
  0
LINE
  8
0
 62
     7
 10
271.579461
 20
10.079152
 30
0.0
 11
271.579461
 21
0.579152
 31
0.0
  0
TEXT
  8
0
 62
     7
 10
210.579461
 20
32.579152
 30
0.0
 40
1.4
  1
TEKI  PREPARED
  7
ROMANS
  0
TEXT
  8
0
 62
     7
 10
273.579461
 20
7.579152
 30
0.0
 40
1.4
  1
VAST.OSASTO RESP.DEPT.
  7
ROMANS
  0
TEXT
  8
0
 62
     7
 10
257.749368
 20
2.082935
 30
0.0
 40
3.0
  1
Power
 41
0.8
  7
ROMANS
  0
TEXT
  8
0
 62
     7
 10
42.579461
 20
1.536444
 30
0.0
 40
2.5
  1
B
  7
ROMANS
  0
TEXT
  8
0
 62
     7
 10
42.579461
 20
5.928661
 30
0.0
 40
2.5
  1
C
  7
ROMANS
  0
LINE
  8
0
 62
     7
 10
0.579461
 20
0.579152
 30
0.0
 11
392.579461
 21
0.579152
 31
0.0
  0
LINE
  8
0
 62
     7
 10
392.579461
 20
263.079152
 30
0.0
 11
392.579461
 21
0.579152
 31
0.0
  0
LINE
  8
0
 62
     7
 10
0.579461
 20
0.579152
 30
0.0
 11
0.579461
 21
263.079152
 31
0.0
  0
ARC
  8
0
  6
CONTINUOUS
 62
     7
 10
55.0
 20
136.782052
 30
0.0
 40
0.5
 50
180.0
 51
0.0
  0
ARC
  8
0
  6
CONTINUOUS
 62
     7
 10
55.0
 20
136.782052
 30
0.0
 40
0.5
 50
0.0
 51
180.0
  0
ARC
  8
0
  6
CONTINUOUS
 62
     7
 10
50.0
 20
149.280914
 30
0.0
 40
0.5
 50
180.0
 51
0.0
  0
ARC
  8
0
  6
CONTINUOUS
 62
     7
 10
50.0
 20
149.280914
 30
0.0
 40
0.5
 50
0.0
 51
180.0
  0
TEXT
  8
0
  6
CONTINUOUS
 62
     7
 10
26.844763
 20
206.50558
 30
0.0
 40
2.0
  1
-
  0
TEXT
  8
0
  6
CONTINUOUS
 62
     7
 10
26.853328
 20
211.513635
 30
0.0
 40
2.0
  1
+
  0
TEXT
  8
0
  6
CONTINUOUS
 62
     7
 10
26.853328
 20
219.013635
 30
0.0
 40
2.0
  1
+
  0
ARC
  8
0
  6
CONTINUOUS
 62
     7
 10
120.0
 20
171.972419
 30
0.0
 40
0.5
 50
180.0
 51
0.0
  0
ARC
  8
0
  6
CONTINUOUS
 62
     7
 10
120.0
 20
171.972419
 30
0.0
 40
0.5
 50
0.0
 51
180.0
  0
ARC
  8
0
  6
CONTINUOUS
 62
     7
 10
82.5
 20
171.972419
 30
0.0
 40
0.5
 50
180.0
 51
0.0
  0
ARC
  8
0
  6
CONTINUOUS
 62
     7
 10
82.5
 20
171.972419
 30
0.0
 40
0.5
 50
0.0
 51
180.0
  0
ARC
  8
0
  6
CONTINUOUS
 62
     7
 10
75.0
 20
162.5
 30
0.0
 40
0.5
 50
180.0
 51
0.0
  0
ARC
  8
0
  6
CONTINUOUS
 62
     7
 10
75.0
 20
162.5
 30
0.0
 40
0.5
 50
0.0
 51
180.0
  0
ARC
  8
0
  6
CONTINUOUS
 62
     7
 10
85.0
 20
165.0
 30
0.0
 40
0.5
 50
180.0
 51
0.0
  0
ARC
  8
0
  6
CONTINUOUS
 62
     7
 10
85.0
 20
165.0
 30
0.0
 40
0.5
 50
0.0
 51
180.0
  0
LINE
  8
0
  6
CONTINUOUS
 62
     7
 10
183.262557
 20
170.898151
 30
0.0
 11
184.149444
 21
170.898151
 31
0.0
  0
LINE
  8
0
  6
CONTINUOUS
 62
     7
 10
182.931453
 20
171.509784
 30
0.0
 11
184.516024
 21
171.509784
 31
0.0
  0
LINE
  8
0
  6
CONTINUOUS
 62
     7
 10
183.747389
 20
172.131847
 30
0.0
 11
184.94173
 21
172.131847
 31
0.0
  0
LINE
  8
0
  6
CONTINUOUS
 62
     7
 10
182.553048
 20
172.131847
 30
0.0
 11
183.747389
 21
172.131847
 31
0.0
  0
LINE
  8
0
  6
CONTINUOUS
 62
     7
 10
183.763275
 20
173.486117
 30
0.0
 11
183.763275
 21
172.131847
 31
0.0
  0
ARC
  8
0
  6
CONTINUOUS
 62
     7
 10
145.0
 20
171.972419
 30
0.0
 40
0.5
 50
180.0
 51
0.0
  0
ARC
  8
0
  6
CONTINUOUS
 62
     7
 10
145.0
 20
171.972419
 30
0.0
 40
0.5
 50
0.0
 51
180.0
  0
LINE
  8
0
  6
CONTINUOUS
 62
     7
 10
176.989729
 20
170.636551
 30
0.0
 11
174.643963
 21
171.971904
 31
0.0
  0
LINE
  8
0
  6
CONTINUOUS
 62
     7
 10
174.643963
 20
171.971904
 30
0.0
 11
176.989729
 21
173.161824
 31
0.0
  0
ARC
  8
0
  6
CONTINUOUS
 62
     7
 10
150.0
 20
156.937274
 30
0.0
 40
0.5
 50
180.0
 51
0.0
  0
ARC
  8
0
  6
CONTINUOUS
 62
     7
 10
150.0
 20
156.937274
 30
0.0
 40
0.5
 50
0.0
 51
180.0
  0
LINE
  8
0
  6
CONTINUOUS
 62
     7
 10
176.989729
 20
141.164635
 30
0.0
 11
174.643963
 21
142.499989
 31
0.0
  0
LINE
  8
0
  6
CONTINUOUS
 62
     7
 10
174.643963
 20
142.499989
 30
0.0
 11
176.989729
 21
143.689908
 31
0.0
  0
LINE
  8
0
  6
CONTINUOUS
 62
     7
 10
188.375077
 20
140.347751
 30
0.0
 11
190.720842
 21
139.012397
 31
0.0
  0
LINE
  8
0
  6
CONTINUOUS
 62
     7
 10
190.720842
 20
139.012397
 30
0.0
 11
188.375077
 21
137.822478
 31
0.0
  0
LINE
  8
0
  6
CONTINUOUS
 62
     7
 10
184.005398
 20
134.339591
 30
0.0
 11
184.892285
 21
134.339591
 31
0.0
  0
LINE
  8
0
  6
CONTINUOUS
 62
     7
 10
183.674294
 20
134.951224
 30
0.0
 11
185.258865
 21
134.951224
 31
0.0
  0
LINE
  8
0
  6
CONTINUOUS
 62
     7
 10
184.49023
 20
135.573287
 30
0.0
 11
185.684571
 21
135.573287
 31
0.0
  0
LINE
  8
0
  6
CONTINUOUS
 62
     7
 10
183.295889
 20
135.573287
 30
0.0
 11
184.49023
 21
135.573287
 31
0.0
  0
LINE
  8
0
  6
CONTINUOUS
 62
     7
 10
184.506116
 20
136.927557
 30
0.0
 11
184.506116
 21
135.573287
 31
0.0
  0
LINE
  8
0
  6
CONTINUOUS
 62
     7
 10
183.861622
 20
145.481578
 30
0.0
 11
184.748509
 21
145.481578
 31
0.0
  0
LINE
  8
0
  6
CONTINUOUS
 62
     7
 10
183.530518
 20
146.093211
 30
0.0
 11
185.115089
 21
146.093211
 31
0.0
  0
LINE
  8
0
  6
CONTINUOUS
 62
     7
 10
184.346454
 20
146.715274
 30
0.0
 11
185.540795
 21
146.715274
 31
0.0
  0
LINE
  8
0
  6
CONTINUOUS
 62
     7
 10
183.152113
 20
146.715274
 30
0.0
 11
184.346454
 21
146.715274
 31
0.0
  0
LINE
  8
0
  6
CONTINUOUS
 62
     7
 10
184.362341
 20
148.069544
 30
0.0
 11
184.362341
 21
146.715274
 31
0.0
  0
ARC
  8
0
  6
CONTINUOUS
 62
     7
 10
170.0
 20
163.000813
 30
0.0
 40
0.5
 50
180.0
 51
0.0
  0
ARC
  8
0
  6
CONTINUOUS
 62
     7
 10
170.0
 20
163.000813
 30
0.0
 40
0.5
 50
0.0
 51
180.0
  0
LINE
  8
0
  6
CONTINUOUS
 62
     7
 10
176.989729
 20
155.601712
 30
0.0
 11
174.643963
 21
156.937065
 31
0.0
  0
LINE
  8
0
  6
CONTINUOUS
 62
     7
 10
174.643963
 20
156.937065
 30
0.0
 11
176.989729
 21
158.126985
 31
0.0
  0
LINE
  8
0
  6
CONTINUOUS
 62
     7
 10
176.989729
 20
166.164635
 30
0.0
 11
174.643963
 21
167.499989
 31
0.0
  0
LINE
  8
0
  6
CONTINUOUS
 62
     7
 10
174.643963
 20
167.499989
 30
0.0
 11
176.989729
 21
168.689908
 31
0.0
  0
LINE
  8
0
  6
CONTINUOUS
 62
     7
 10
183.118782
 20
155.590936
 30
0.0
 11
184.005668
 21
155.590936
 31
0.0
  0
LINE
  8
0
  6
CONTINUOUS
 62
     7
 10
182.787677
 20
156.202569
 30
0.0
 11
184.372248
 21
156.202569
 31
0.0
  0
LINE
  8
0
  6
CONTINUOUS
 62
     7
 10
183.603613
 20
156.824631
 30
0.0
 11
184.797954
 21
156.824631
 31
0.0
  0
LINE
  8
0
  6
CONTINUOUS
 62
     7
 10
182.409272
 20
156.824631
 30
0.0
 11
183.603613
 21
156.824631
 31
0.0
  0
LINE
  8
0
  6
CONTINUOUS
 62
     7
 10
183.6195
 20
158.178901
 30
0.0
 11
183.6195
 21
156.824631
 31
0.0
  0
LINE
  8
0
  6
CONTINUOUS
 62
     7
 10
183.118782
 20
165.839134
 30
0.0
 11
184.005668
 21
165.839134
 31
0.0
  0
LINE
  8
0
  6
CONTINUOUS
 62
     7
 10
182.787677
 20
166.450767
 30
0.0
 11
184.372248
 21
166.450767
 31
0.0
  0
LINE
  8
0
  6
CONTINUOUS
 62
     7
 10
183.603613
 20
167.072829
 30
0.0
 11
184.797954
 21
167.072829
 31
0.0
  0
LINE
  8
0
  6
CONTINUOUS
 62
     7
 10
182.409272
 20
167.072829
 30
0.0
 11
183.603613
 21
167.072829
 31
0.0
  0
LINE
  8
0
  6
CONTINUOUS
 62
     7
 10
183.6195
 20
168.4271
 30
0.0
 11
183.6195
 21
167.072829
 31
0.0
  0
ARC
  8
0
  6
CONTINUOUS
 62
     7
 10
142.5
 20
182.5
 30
0.0
 40
0.5
 50
180.0
 51
0.0
  0
ARC
  8
0
  6
CONTINUOUS
 62
     7
 10
142.5
 20
182.5
 30
0.0
 40
0.5
 50
0.0
 51
180.0
  0
LINE
  8
0
  6
CONTINUOUS
 62
     7
 10
176.989729
 20
181.164635
 30
0.0
 11
174.643963
 21
182.499989
 31
0.0
  0
LINE
  8
0
  6
CONTINUOUS
 62
     7
 10
174.643963
 20
182.499989
 30
0.0
 11
176.989729
 21
183.689908
 31
0.0
  0
ARC
  8
0
  6
CONTINUOUS
 62
     7
 10
170.0
 20
178.000813
 30
0.0
 40
0.5
 50
180.0
 51
0.0
  0
ARC
  8
0
  6
CONTINUOUS
 62
     7
 10
170.0
 20
178.000813
 30
0.0
 40
0.5
 50
0.0
 51
180.0
  0
ARC
  8
0
  6
CONTINUOUS
 62
     7
 10
172.5
 20
174.971652
 30
0.0
 40
0.5
 50
180.0
 51
0.0
  0
ARC
  8
0
  6
CONTINUOUS
 62
     7
 10
172.5
 20
174.971652
 30
0.0
 40
0.5
 50
0.0
 51
180.0
  0
LINE
  8
0
  6
CONTINUOUS
 62
     7
 10
183.262557
 20
180.998831
 30
0.0
 11
184.149444
 21
180.998831
 31
0.0
  0
LINE
  8
0
  6
CONTINUOUS
 62
     7
 10
182.931453
 20
181.610464
 30
0.0
 11
184.516024
 21
181.610464
 31
0.0
  0
LINE
  8
0
  6
CONTINUOUS
 62
     7
 10
183.747389
 20
182.232526
 30
0.0
 11
184.94173
 21
182.232526
 31
0.0
  0
LINE
  8
0
  6
CONTINUOUS
 62
     7
 10
182.553048
 20
182.232526
 30
0.0
 11
183.747389
 21
182.232526
 31
0.0
  0
LINE
  8
0
  6
CONTINUOUS
 62
     7
 10
183.763275
 20
183.586797
 30
0.0
 11
183.763275
 21
182.232526
 31
0.0
  0
LINE
  8
0
  6
CONTINUOUS
 62
     7
 10
227.38991
 20
101.166103
 30
0.0
 11
225.044144
 21
102.501457
 31
0.0
  0
LINE
  8
0
  6
CONTINUOUS
 62
     7
 10
225.044144
 20
102.501457
 30
0.0
 11
227.38991
 21
103.691376
 31
0.0
  0
ARC
  8
0
  6
CONTINUOUS
 62
     7
 10
262.5
 20
87.5
 30
0.0
 40
0.5
 50
180.0
 51
0.0
  0
ARC
  8
0
  6
CONTINUOUS
 62
     7
 10
262.5
 20
87.5
 30
0.0
 40
0.5
 50
0.0
 51
180.0
  0
ARC
  8
0
  6
CONTINUOUS
 62
     7
 10
262.5
 20
107.5
 30
0.0
 40
0.5
 50
180.0
 51
0.0
  0
ARC
  8
0
  6
CONTINUOUS
 62
     7
 10
262.5
 20
107.5
 30
0.0
 40
0.5
 50
0.0
 51
180.0
  0
ARC
  8
0
  6
CONTINUOUS
 62
     7
 10
267.5
 20
127.5
 30
0.0
 40
0.5
 50
180.0
 51
0.0
  0
ARC
  8
0
  6
CONTINUOUS
 62
     7
 10
267.5
 20
127.5
 30
0.0
 40
0.5
 50
0.0
 51
180.0
  0
LINE
  8
0
  6
CONTINUOUS
 62
     7
 10
324.953478
 20
64.745561
 30
0.0
 11
325.840365
 21
64.745561
 31
0.0
  0
LINE
  8
0
  6
CONTINUOUS
 62
     7
 10
324.622373
 20
65.357194
 30
0.0
 11
326.206945
 21
65.357194
 31
0.0
  0
LINE
  8
0
  6
CONTINUOUS
 62
     7
 10
325.438309
 20
65.979256
 30
0.0
 11
326.63265
 21
65.979256
 31
0.0
  0
LINE
  8
0
  6
CONTINUOUS
 62
     7
 10
324.243968
 20
65.979256
 30
0.0
 11
325.438309
 21
65.979256
 31
0.0
  0
LINE
  8
0
  6
CONTINUOUS
 62
     7
 10
325.454196
 20
67.333526
 30
0.0
 11
325.454196
 21
65.979256
 31
0.0
  0
LINE
  8
0
  6
CONTINUOUS
 62
     7
 10
228.306523
 20
148.664644
 30
0.0
 11
225.960757
 21
149.999998
 31
0.0
  0
LINE
  8
0
  6
CONTINUOUS
 62
     7
 10
225.960757
 20
149.999998
 30
0.0
 11
228.306523
 21
151.189917
 31
0.0
  0
LINE
  8
0
  6
CONTINUOUS
 62
     7
 10
205.8593
 20
138.799857
 30
0.0
 11
206.746187
 21
138.799857
 31
0.0
  0
LINE
  8
0
  6
CONTINUOUS
 62
     7
 10
205.528195
 20
139.41149
 30
0.0
 11
207.112766
 21
139.41149
 31
0.0
  0
LINE
  8
0
  6
CONTINUOUS
 62
     7
 10
206.344131
 20
140.033552
 30
0.0
 11
207.538472
 21
140.033552
 31
0.0
  0
LINE
  8
0
  6
CONTINUOUS
 62
     7
 10
205.14979
 20
140.033552
 30
0.0
 11
206.344131
 21
140.033552
 31
0.0
  0
LINE
  8
0
  6
CONTINUOUS
 62
     7
 10
206.360018
 20
141.387823
 30
0.0
 11
206.360018
 21
140.033552
 31
0.0
  0
ARC
  8
0
  6
CONTINUOUS
 62
     7
 10
222.5
 20
150.0
 30
0.0
 40
0.5
 50
180.0
 51
0.0
  0
ARC
  8
0
  6
CONTINUOUS
 62
     7
 10
222.5
 20
150.0
 30
0.0
 40
0.5
 50
0.0
 51
180.0
  0
LINE
  8
0
  6
CONTINUOUS
 62
     7
 10
205.8593
 20
169.258093
 30
0.0
 11
206.746187
 21
169.258093
 31
0.0
  0
LINE
  8
0
  6
CONTINUOUS
 62
     7
 10
205.528195
 20
169.869726
 30
0.0
 11
207.112766
 21
169.869726
 31
0.0
  0
LINE
  8
0
  6
CONTINUOUS
 62
     7
 10
206.344131
 20
170.491788
 30
0.0
 11
207.538472
 21
170.491788
 31
0.0
  0
LINE
  8
0
  6
CONTINUOUS
 62
     7
 10
205.14979
 20
170.491788
 30
0.0
 11
206.344131
 21
170.491788
 31
0.0
  0
LINE
  8
0
  6
CONTINUOUS
 62
     7
 10
206.360018
 20
171.846058
 30
0.0
 11
206.360018
 21
170.491788
 31
0.0
  0
LINE
  8
0
  6
CONTINUOUS
 62
     7
 10
226.989729
 20
188.664635
 30
0.0
 11
224.643963
 21
189.999989
 31
0.0
  0
LINE
  8
0
  6
CONTINUOUS
 62
     7
 10
224.643963
 20
189.999989
 30
0.0
 11
226.989729
 21
191.189908
 31
0.0
  0
ARC
  8
0
  6
CONTINUOUS
 62
     7
 10
272.5
 20
145.0
 30
0.0
 40
0.5
 50
180.0
 51
0.0
  0
ARC
  8
0
  6
CONTINUOUS
 62
     7
 10
272.5
 20
145.0
 30
0.0
 40
0.5
 50
0.0
 51
180.0
  0
LINE
  8
0
  6
CONTINUOUS
 62
     7
 10
272.5
 20
140.990022
 30
0.0
 11
272.5
 21
138.344365
 31
0.0
  0
LINE
  8
0
  6
CONTINUOUS
 62
     7
 10
271.896305
 20
136.562812
 30
0.0
 11
273.103695
 21
136.562812
 31
0.0
  0
LINE
  8
0
  6
CONTINUOUS
 62
     7
 10
271.463807
 20
137.450325
 30
0.0
 11
273.527182
 21
137.450325
 31
0.0
  0
LINE
  8
0
  6
CONTINUOUS
 62
     7
 10
270.968237
 20
138.344365
 30
0.0
 11
274.031763
 21
138.344365
 31
0.0
  0
LINE
  8
0
  6
CONTINUOUS
 62
     7
 10
282.5
 20
140.990022
 30
0.0
 11
282.5
 21
138.344365
 31
0.0
  0
LINE
  8
0
  6
CONTINUOUS
 62
     7
 10
281.896305
 20
136.562812
 30
0.0
 11
283.103695
 21
136.562812
 31
0.0
  0
LINE
  8
0
  6
CONTINUOUS
 62
     7
 10
281.463807
 20
137.450325
 30
0.0
 11
283.527182
 21
137.450325
 31
0.0
  0
LINE
  8
0
  6
CONTINUOUS
 62
     7
 10
280.968237
 20
138.344365
 30
0.0
 11
284.031763
 21
138.344365
 31
0.0
  0
ARC
  8
0
  6
CONTINUOUS
 62
     7
 10
260.0
 20
165.0
 30
0.0
 40
0.5
 50
180.0
 51
0.0
  0
ARC
  8
0
  6
CONTINUOUS
 62
     7
 10
260.0
 20
165.0
 30
0.0
 40
0.5
 50
0.0
 51
180.0
  0
ARC
  8
0
  6
CONTINUOUS
 62
     7
 10
282.5
 20
162.5
 30
0.0
 40
0.5
 50
180.0
 51
0.0
  0
ARC
  8
0
  6
CONTINUOUS
 62
     7
 10
282.5
 20
162.5
 30
0.0
 40
0.5
 50
0.0
 51
180.0
  0
LINE
  8
0
  6
CONTINUOUS
 62
     7
 10
275.0
 20
163.490022
 30
0.0
 11
275.0
 21
160.844365
 31
0.0
  0
LINE
  8
0
  6
CONTINUOUS
 62
     7
 10
274.396305
 20
159.062812
 30
0.0
 11
275.603695
 21
159.062812
 31
0.0
  0
LINE
  8
0
  6
CONTINUOUS
 62
     7
 10
273.963807
 20
159.950325
 30
0.0
 11
276.027182
 21
159.950325
 31
0.0
  0
LINE
  8
0
  6
CONTINUOUS
 62
     7
 10
273.468237
 20
160.844365
 30
0.0
 11
276.531763
 21
160.844365
 31
0.0
  0
ARC
  8
0
  6
CONTINUOUS
 62
     7
 10
275.0
 20
165.0
 30
0.0
 40
0.5
 50
180.0
 51
0.0
  0
ARC
  8
0
  6
CONTINUOUS
 62
     7
 10
275.0
 20
165.0
 30
0.0
 40
0.5
 50
0.0
 51
180.0
  0
ARC
  8
0
  6
CONTINUOUS
 62
     7
 10
275.0
 20
170.189984
 30
0.0
 40
0.5
 50
180.0
 51
0.0
  0
ARC
  8
0
  6
CONTINUOUS
 62
     7
 10
275.0
 20
170.189984
 30
0.0
 40
0.5
 50
0.0
 51
180.0
  0
ARC
  8
0
  6
CONTINUOUS
 62
     7
 10
260.0
 20
185.0
 30
0.0
 40
0.5
 50
180.0
 51
0.0
  0
ARC
  8
0
  6
CONTINUOUS
 62
     7
 10
260.0
 20
185.0
 30
0.0
 40
0.5
 50
0.0
 51
180.0
  0
ARC
  8
0
  6
CONTINUOUS
 62
     7
 10
275.0
 20
190.189984
 30
0.0
 40
0.5
 50
180.0
 51
0.0
  0
ARC
  8
0
  6
CONTINUOUS
 62
     7
 10
275.0
 20
190.189984
 30
0.0
 40
0.5
 50
0.0
 51
180.0
  0
LINE
  8
0
  6
CONTINUOUS
 62
     7
 10
298.93532
 20
210.747795
 30
0.0
 11
298.93532
 21
201.597967
 31
0.0
  0
ARC
  8
0
  6
CONTINUOUS
 62
     7
 10
280.0
 20
255.0
 30
0.0
 40
0.5
 50
180.0
 51
0.0
  0
ARC
  8
0
  6
CONTINUOUS
 62
     7
 10
280.0
 20
255.0
 30
0.0
 40
0.5
 50
0.0
 51
180.0
  0
ARC
  8
0
  6
CONTINUOUS
 62
     7
 10
285.0
 20
250.0
 30
0.0
 40
0.5
 50
180.0
 51
0.0
  0
ARC
  8
0
  6
CONTINUOUS
 62
     7
 10
285.0
 20
250.0
 30
0.0
 40
0.5
 50
0.0
 51
180.0
  0
ARC
  8
0
  6
CONTINUOUS
 62
     7
 10
290.0
 20
245.0
 30
0.0
 40
0.5
 50
180.0
 51
0.0
  0
ARC
  8
0
  6
CONTINUOUS
 62
     7
 10
290.0
 20
245.0
 30
0.0
 40
0.5
 50
0.0
 51
180.0
  0
LINE
  8
0
  6
CONTINUOUS
 62
     7
 10
368.096661
 20
214.979555
 30
0.0
 11
370.442427
 21
213.644202
 31
0.0
  0
LINE
  8
0
  6
CONTINUOUS
 62
     7
 10
370.442427
 20
213.644202
 30
0.0
 11
368.096661
 21
212.454283
 31
0.0
  0
LINE
  8
0
  6
CONTINUOUS
 62
     7
 10
379.009978
 20
147.5
 30
0.0
 11
381.655635
 21
147.5
 31
0.0
  0
LINE
  8
0
  6
CONTINUOUS
 62
     7
 10
383.437188
 20
146.896305
 30
0.0
 11
383.437188
 21
148.103695
 31
0.0
  0
LINE
  8
0
  6
CONTINUOUS
 62
     7
 10
382.549675
 20
146.463807
 30
0.0
 11
382.549675
 21
148.527182
 31
0.0
  0
LINE
  8
0
  6
CONTINUOUS
 62
     7
 10
381.655635
 20
145.968237
 30
0.0
 11
381.655635
 21
149.031763
 31
0.0
  0
LINE
  8
0
  6
CONTINUOUS
 62
     7
 10
379.009978
 20
152.68998
 30
0.0
 11
381.655635
 21
152.68998
 31
0.0
  0
LINE
  8
0
  6
CONTINUOUS
 62
     7
 10
383.437188
 20
152.086285
 30
0.0
 11
383.437188
 21
153.293675
 31
0.0
  0
LINE
  8
0
  6
CONTINUOUS
 62
     7
 10
382.549675
 20
151.653787
 30
0.0
 11
382.549675
 21
153.717163
 31
0.0
  0
LINE
  8
0
  6
CONTINUOUS
 62
     7
 10
381.655635
 20
151.158217
 30
0.0
 11
381.655635
 21
154.221743
 31
0.0
  0
ARC
  8
0
  6
CONTINUOUS
 62
     7
 10
372.5
 20
170.0
 30
0.0
 40
0.5
 50
180.0
 51
0.0
  0
ARC
  8
0
  6
CONTINUOUS
 62
     7
 10
372.5
 20
170.0
 30
0.0
 40
0.5
 50
0.0
 51
180.0
  0
ARC
  8
0
  6
CONTINUOUS
 62
     7
 10
365.0
 20
175.0
 30
0.0
 40
0.5
 50
180.0
 51
0.0
  0
ARC
  8
0
  6
CONTINUOUS
 62
     7
 10
365.0
 20
175.0
 30
0.0
 40
0.5
 50
0.0
 51
180.0
  0
ARC
  8
0
  6
CONTINUOUS
 62
     7
 10
357.5
 20
180.0
 30
0.0
 40
0.5
 50
180.0
 51
0.0
  0
ARC
  8
0
  6
CONTINUOUS
 62
     7
 10
357.5
 20
180.0
 30
0.0
 40
0.5
 50
0.0
 51
180.0
  0
LINE
  8
0
  6
CONTINUOUS
 62
     7
 10
364.555735
 20
232.74786
 30
0.0
 11
365.442622
 21
232.74786
 31
0.0
  0
LINE
  8
0
  6
CONTINUOUS
 62
     7
 10
364.224631
 20
233.359493
 30
0.0
 11
365.809202
 21
233.359493
 31
0.0
  0
LINE
  8
0
  6
CONTINUOUS
 62
     7
 10
365.040567
 20
233.981556
 30
0.0
 11
366.234908
 21
233.981556
 31
0.0
  0
LINE
  8
0
  6
CONTINUOUS
 62
     7
 10
363.846226
 20
233.981556
 30
0.0
 11
365.040567
 21
233.981556
 31
0.0
  0
LINE
  8
0
  6
CONTINUOUS
 62
     7
 10
365.056454
 20
235.335826
 30
0.0
 11
365.056454
 21
233.981556
 31
0.0
  0
LINE
  8
0
  6
CONTINUOUS
 62
     7
 10
364.313562
 20
222.46412
 30
0.0
 11
365.200449
 21
222.46412
 31
0.0
  0
LINE
  8
0
  6
CONTINUOUS
 62
     7
 10
363.982458
 20
223.075753
 30
0.0
 11
365.567029
 21
223.075753
 31
0.0
  0
LINE
  8
0
  6
CONTINUOUS
 62
     7
 10
364.798394
 20
223.697815
 30
0.0
 11
365.992735
 21
223.697815
 31
0.0
  0
LINE
  8
0
  6
CONTINUOUS
 62
     7
 10
363.604053
 20
223.697815
 30
0.0
 11
364.798394
 21
223.697815
 31
0.0
  0
LINE
  8
0
  6
CONTINUOUS
 62
     7
 10
364.81428
 20
225.052086
 30
0.0
 11
364.81428
 21
223.697815
 31
0.0
  0
LINE
  8
0
 62
     7
 10
223.479461
 20
6.475559
 30
0.0
 11
225.439461
 21
8.435559
 31
0.0
  0
LINE
  8
0
 62
     7
 10
223.479461
 20
6.599303
 30
0.0
 11
225.439461
 21
8.559303
 31
0.0
  0
LINE
  8
0
 62
     7
 10
223.479461
 20
6.723047
 30
0.0
 11
225.439461
 21
8.683047
 31
0.0
  0
LINE
  8
0
 62
     7
 10
223.479461
 20
6.84679
 30
0.0
 11
225.439461
 21
8.80679
 31
0.0
  0
LINE
  8
0
 62
     7
 10
223.479461
 20
6.970534
 30
0.0
 11
225.439461
 21
8.930534
 31
0.0
  0
LINE
  8
0
 62
     7
 10
223.479461
 20
7.094278
 30
0.0
 11
225.439461
 21
9.054278
 31
0.0
  0
LINE
  8
0
 62
     7
 10
223.479461
 20
7.218021
 30
0.0
 11
225.340591
 21
9.079152
 31
0.0
  0
LINE
  8
0
 62
     7
 10
223.479461
 20
7.341765
 30
0.0
 11
225.216847
 21
9.079152
 31
0.0
  0
LINE
  8
0
 62
     7
 10
223.479461
 20
7.465509
 30
0.0
 11
225.093104
 21
9.079152
 31
0.0
  0
LINE
  8
0
 62
     7
 10
223.479461
 20
7.589253
 30
0.0
 11
224.96936
 21
9.079152
 31
0.0
  0
LINE
  8
0
 62
     7
 10
223.479461
 20
7.712996
 30
0.0
 11
224.845616
 21
9.079152
 31
0.0
  0
LINE
  8
0
 62
     7
 10
223.479461
 20
7.83674
 30
0.0
 11
224.721872
 21
9.079152
 31
0.0
  0
LINE
  8
0
 62
     7
 10
223.479461
 20
7.960484
 30
0.0
 11
224.598129
 21
9.079152
 31
0.0
  0
LINE
  8
0
 62
     7
 10
223.479461
 20
8.084227
 30
0.0
 11
224.474385
 21
9.079152
 31
0.0
  0
LINE
  8
0
 62
     7
 10
223.479461
 20
8.207971
 30
0.0
 11
224.350641
 21
9.079152
 31
0.0
  0
LINE
  8
0
 62
     7
 10
223.479461
 20
8.331715
 30
0.0
 11
224.226898
 21
9.079152
 31
0.0
  0
LINE
  8
0
 62
     7
 10
223.479461
 20
8.455458
 30
0.0
 11
224.103154
 21
9.079152
 31
0.0
  0
LINE
  8
0
 62
     7
 10
223.479461
 20
8.579202
 30
0.0
 11
223.97941
 21
9.079152
 31
0.0
  0
LINE
  8
0
 62
     7
 10
223.479461
 20
8.702946
 30
0.0
 11
223.855667
 21
9.079152
 31
0.0
  0
LINE
  8
0
 62
     7
 10
223.479461
 20
8.826689
 30
0.0
 11
223.731923
 21
9.079152
 31
0.0
  0
LINE
  8
0
 62
     7
 10
223.479461
 20
8.950433
 30
0.0
 11
223.608179
 21
9.079152
 31
0.0
  0
LINE
  8
0
 62
     7
 10
223.479461
 20
9.074177
 30
0.0
 11
223.484436
 21
9.079152
 31
0.0
  0
LINE
  8
0
 62
     7
 10
223.479461
 20
6.351816
 30
0.0
 11
225.439461
 21
8.311816
 31
0.0
  0
LINE
  8
0
 62
     7
 10
223.479461
 20
6.228072
 30
0.0
 11
225.439461
 21
8.188072
 31
0.0
  0
LINE
  8
0
 62
     7
 10
223.479461
 20
6.104328
 30
0.0
 11
225.439461
 21
8.064328
 31
0.0
  0
LINE
  8
0
 62
     7
 10
223.479461
 20
5.980585
 30
0.0
 11
225.439461
 21
7.940585
 31
0.0
  0
LINE
  8
0
 62
     7
 10
223.479461
 20
5.856841
 30
0.0
 11
225.439461
 21
7.816841
 31
0.0
  0
LINE
  8
0
 62
     7
 10
223.479461
 20
5.733097
 30
0.0
 11
225.439461
 21
7.693097
 31
0.0
  0
LINE
  8
0
 62
     7
 10
223.589259
 20
5.719152
 30
0.0
 11
225.439461
 21
7.569354
 31
0.0
  0
LINE
  8
0
 62
     7
 10
223.713003
 20
5.719152
 30
0.0
 11
225.439461
 21
7.44561
 31
0.0
  0
LINE
  8
0
 62
     7
 10
223.836746
 20
5.719152
 30
0.0
 11
225.439461
 21
7.321866
 31
0.0
  0
LINE
  8
0
 62
     7
 10
223.96049
 20
5.719152
 30
0.0
 11
225.439461
 21
7.198122
 31
0.0
  0
LINE
  8
0
 62
     7
 10
224.084234
 20
5.719152
 30
0.0
 11
225.439461
 21
7.074379
 31
0.0
  0
LINE
  8
0
 62
     7
 10
224.207977
 20
5.719152
 30
0.0
 11
225.439461
 21
6.950635
 31
0.0
  0
LINE
  8
0
 62
     7
 10
224.331721
 20
5.719152
 30
0.0
 11
225.439461
 21
6.826891
 31
0.0
  0
LINE
  8
0
 62
     7
 10
224.455465
 20
5.719152
 30
0.0
 11
225.439461
 21
6.703148
 31
0.0
  0
LINE
  8
0
 62
     7
 10
224.579208
 20
5.719152
 30
0.0
 11
225.439461
 21
6.579404
 31
0.0
  0
LINE
  8
0
 62
     7
 10
224.702952
 20
5.719152
 30
0.0
 11
225.439461
 21
6.45566
 31
0.0
  0
LINE
  8
0
 62
     7
 10
224.826696
 20
5.719152
 30
0.0
 11
225.439461
 21
6.331917
 31
0.0
  0
LINE
  8
0
 62
     7
 10
224.950439
 20
5.719152
 30
0.0
 11
225.439461
 21
6.208173
 31
0.0
  0
LINE
  8
0
 62
     7
 10
225.074183
 20
5.719152
 30
0.0
 11
225.439461
 21
6.084429
 31
0.0
  0
LINE
  8
0
 62
     7
 10
225.197927
 20
5.719152
 30
0.0
 11
225.439461
 21
5.960686
 31
0.0
  0
LINE
  8
0
 62
     7
 10
225.32167
 20
5.719152
 30
0.0
 11
225.439461
 21
5.836942
 31
0.0
  0
LINE
  8
0
 62
     7
 10
225.719461
 20
6.488173
 30
0.0
 11
227.597557
 21
8.366269
 31
0.0
  0
LINE
  8
0
 62
     7
 10
225.719461
 20
6.611917
 30
0.0
 11
227.546813
 21
8.439269
 31
0.0
  0
LINE
  8
0
 62
     7
 10
225.719461
 20
6.73566
 30
0.0
 11
227.49251
 21
8.50871
 31
0.0
  0
LINE
  8
0
 62
     7
 10
225.719461
 20
6.859404
 30
0.0
 11
227.434721
 21
8.574665
 31
0.0
  0
LINE
  8
0
 62
     7
 10
225.719461
 20
6.983148
 30
0.0
 11
227.373485
 21
8.637172
 31
0.0
  0
LINE
  8
0
 62
     7
 10
225.719461
 20
7.106891
 30
0.0
 11
227.308808
 21
8.696238
 31
0.0
  0
LINE
  8
0
 62
     7
 10
225.719461
 20
7.230635
 30
0.0
 11
227.240662
 21
8.751836
 31
0.0
  0
LINE
  8
0
 62
     7
 10
225.719461
 20
7.354379
 30
0.0
 11
227.168989
 21
8.803907
 31
0.0
  0
LINE
  8
0
 62
     7
 10
225.719461
 20
7.478122
 30
0.0
 11
227.093693
 21
8.852355
 31
0.0
  0
LINE
  8
0
 62
     7
 10
225.719461
 20
7.601866
 30
0.0
 11
227.014636
 21
8.897041
 31
0.0
  0
LINE
  8
0
 62
     7
 10
225.719461
 20
7.72561
 30
0.0
 11
226.931633
 21
8.937782
 31
0.0
  0
LINE
  8
0
 62
     7
 10
225.719461
 20
7.849354
 30
0.0
 11
226.844438
 21
8.97433
 31
0.0
  0
LINE
  8
0
 62
     7
 10
225.719461
 20
7.973097
 30
0.0
 11
226.752728
 21
9.006364
 31
0.0
  0
LINE
  8
0
 62
     7
 10
225.719461
 20
8.096841
 30
0.0
 11
226.65608
 21
9.03346
 31
0.0
  0
LINE
  8
0
 62
     7
 10
225.719461
 20
8.220585
 30
0.0
 11
226.553928
 21
9.055052
 31
0.0
  0
LINE
  8
0
 62
     7
 10
225.719461
 20
8.344328
 30
0.0
 11
226.445507
 21
9.070374
 31
0.0
  0
LINE
  8
0
 62
     7
 10
225.719461
 20
8.468072
 30
0.0
 11
226.329738
 21
9.078349
 31
0.0
  0
LINE
  8
0
 62
     7
 10
225.719461
 20
8.591816
 30
0.0
 11
226.206796
 21
9.079151
 31
0.0
  0
LINE
  8
0
 62
     7
 10
225.719461
 20
8.715559
 30
0.0
 11
226.083053
 21
9.079151
 31
0.0
  0
LINE
  8
0
 62
     7
 10
225.719461
 20
8.839303
 30
0.0
 11
225.959309
 21
9.079151
 31
0.0
  0
LINE
  8
0
 62
     7
 10
225.719461
 20
8.963047
 30
0.0
 11
225.835566
 21
9.079151
 31
0.0
  0
LINE
  8
0
 62
     7
 10
225.719461
 20
6.364429
 30
0.0
 11
227.644633
 21
8.289601
 31
0.0
  0
LINE
  8
0
 62
     7
 10
225.719461
 20
6.240686
 30
0.0
 11
227.687885
 21
8.20911
 31
0.0
  0
LINE
  8
0
 62
     7
 10
225.719461
 20
6.116942
 30
0.0
 11
227.727108
 21
8.124589
 31
0.0
  0
LINE
  8
0
 62
     7
 10
225.719461
 20
5.993198
 30
0.0
 11
227.76203
 21
8.035767
 31
0.0
  0
LINE
  8
0
 62
     7
 10
225.719461
 20
5.869455
 30
0.0
 11
227.792293
 21
7.942287
 31
0.0
  0
LINE
  8
0
 62
     7
 10
225.719461
 20
5.745711
 30
0.0
 11
227.817429
 21
7.843679
 31
0.0
  0
LINE
  8
0
 62
     7
 10
225.816645
 20
5.719152
 30
0.0
 11
227.836806
 21
7.739312
 31
0.0
  0
LINE
  8
0
 62
     7
 10
225.940389
 20
5.719152
 30
0.0
 11
227.849559
 21
7.628321
 31
0.0
  0
LINE
  8
0
 62
     7
 10
226.064133
 20
5.719152
 30
0.0
 11
227.854452
 21
7.509471
 31
0.0
  0
LINE
  8
0
 62
     7
 10
226.187876
 20
5.719152
 30
0.0
 11
227.849631
 21
7.380907
 31
0.0
  0
LINE
  8
0
 62
     7
 10
226.31162
 20
5.719152
 30
0.0
 11
227.832087
 21
7.239618
 31
0.0
  0
LINE
  8
0
 62
     7
 10
226.435364
 20
5.719152
 30
0.0
 11
227.796297
 21
7.080085
 31
0.0
  0
LINE
  8
0
 62
     7
 10
226.559107
 20
5.719152
 30
0.0
 11
227.729661
 21
6.889705
 31
0.0
  0
LINE
  8
0
 62
     7
 10
226.682851
 20
5.719152
 30
0.0
 11
227.083027
 21
6.119327
 31
0.0
  0
LINE
  8
0
 62
     7
 10
227.166172
 20
6.202472
 30
0.0
 11
227.58114
 21
6.617441
 31
0.0
  0
LINE
  8
0
 62
     7
 10
226.806595
 20
5.719152
 30
0.0
 11
227.168924
 21
6.081481
 31
0.0
  0
LINE
  8
0
 62
     7
 10
226.930338
 20
5.719152
 30
0.0
 11
227.251715
 21
6.040528
 31
0.0
  0
LINE
  8
0
 62
     7
 10
227.054082
 20
5.719152
 30
0.0
 11
227.331536
 21
5.996605
 31
0.0
  0
LINE
  8
0
 62
     7
 10
227.177826
 20
5.719152
 30
0.0
 11
227.408497
 21
5.949823
 31
0.0
  0
LINE
  8
0
 62
     7
 10
227.301569
 20
5.719152
 30
0.0
 11
227.482687
 21
5.900269
 31
0.0
  0
LINE
  8
0
 62
     7
 10
227.425313
 20
5.719152
 30
0.0
 11
227.554176
 21
5.848014
 31
0.0
  0
LINE
  8
0
 62
     7
 10
227.549057
 20
5.719152
 30
0.0
 11
227.623015
 21
5.79311
 31
0.0
  0
LINE
  8
0
 62
     7
 10
227.672801
 20
5.719152
 30
0.0
 11
227.689243
 21
5.735594
 31
0.0
  0
LINE
  8
0
 62
     7
 10
220.259461
 20
6.488173
 30
0.0
 11
222.137557
 21
8.366269
 31
0.0
  0
LINE
  8
0
 62
     7
 10
220.259461
 20
6.611917
 30
0.0
 11
222.086813
 21
8.439269
 31
0.0
  0
LINE
  8
0
 62
     7
 10
220.259461
 20
6.73566
 30
0.0
 11
222.03251
 21
8.50871
 31
0.0
  0
LINE
  8
0
 62
     7
 10
220.259461
 20
6.859404
 30
0.0
 11
221.974721
 21
8.574665
 31
0.0
  0
LINE
  8
0
 62
     7
 10
220.259461
 20
6.983148
 30
0.0
 11
221.913485
 21
8.637172
 31
0.0
  0
LINE
  8
0
 62
     7
 10
220.259461
 20
7.106891
 30
0.0
 11
221.848808
 21
8.696238
 31
0.0
  0
LINE
  8
0
 62
     7
 10
220.259461
 20
7.230635
 30
0.0
 11
221.780662
 21
8.751836
 31
0.0
  0
LINE
  8
0
 62
     7
 10
220.259461
 20
7.354379
 30
0.0
 11
221.708989
 21
8.803907
 31
0.0
  0
LINE
  8
0
 62
     7
 10
220.259461
 20
7.478122
 30
0.0
 11
221.633693
 21
8.852355
 31
0.0
  0
LINE
  8
0
 62
     7
 10
220.259461
 20
7.601866
 30
0.0
 11
221.554636
 21
8.897041
 31
0.0
  0
LINE
  8
0
 62
     7
 10
220.259461
 20
7.72561
 30
0.0
 11
221.471633
 21
8.937782
 31
0.0
  0
LINE
  8
0
 62
     7
 10
220.259461
 20
7.849354
 30
0.0
 11
221.384438
 21
8.97433
 31
0.0
  0
LINE
  8
0
 62
     7
 10
220.259461
 20
7.973097
 30
0.0
 11
221.292728
 21
9.006364
 31
0.0
  0
LINE
  8
0
 62
     7
 10
220.259461
 20
8.096841
 30
0.0
 11
221.19608
 21
9.03346
 31
0.0
  0
LINE
  8
0
 62
     7
 10
220.259461
 20
8.220585
 30
0.0
 11
221.093928
 21
9.055052
 31
0.0
  0
LINE
  8
0
 62
     7
 10
220.259461
 20
8.344328
 30
0.0
 11
220.985507
 21
9.070374
 31
0.0
  0
LINE
  8
0
 62
     7
 10
220.259461
 20
8.468072
 30
0.0
 11
220.869738
 21
9.078349
 31
0.0
  0
LINE
  8
0
 62
     7
 10
220.259461
 20
8.591816
 30
0.0
 11
220.746796
 21
9.079151
 31
0.0
  0
LINE
  8
0
 62
     7
 10
220.259461
 20
8.715559
 30
0.0
 11
220.623053
 21
9.079151
 31
0.0
  0
LINE
  8
0
 62
     7
 10
220.259461
 20
8.839303
 30
0.0
 11
220.499309
 21
9.079151
 31
0.0
  0
LINE
  8
0
 62
     7
 10
220.259461
 20
8.963047
 30
0.0
 11
220.375566
 21
9.079151
 31
0.0
  0
LINE
  8
0
 62
     7
 10
220.259461
 20
6.364429
 30
0.0
 11
222.184633
 21
8.289601
 31
0.0
  0
LINE
  8
0
 62
     7
 10
220.259461
 20
6.240686
 30
0.0
 11
222.227885
 21
8.20911
 31
0.0
  0
LINE
  8
0
 62
     7
 10
220.259461
 20
6.116942
 30
0.0
 11
222.267108
 21
8.124589
 31
0.0
  0
LINE
  8
0
 62
     7
 10
220.259461
 20
5.993198
 30
0.0
 11
222.30203
 21
8.035767
 31
0.0
  0
LINE
  8
0
 62
     7
 10
220.259461
 20
5.869455
 30
0.0
 11
222.332293
 21
7.942287
 31
0.0
  0
LINE
  8
0
 62
     7
 10
220.259461
 20
5.745711
 30
0.0
 11
222.357429
 21
7.843679
 31
0.0
  0
LINE
  8
0
 62
     7
 10
220.356645
 20
5.719152
 30
0.0
 11
222.376806
 21
7.739312
 31
0.0
  0
LINE
  8
0
 62
     7
 10
220.480389
 20
5.719152
 30
0.0
 11
222.389559
 21
7.628321
 31
0.0
  0
LINE
  8
0
 62
     7
 10
220.604133
 20
5.719152
 30
0.0
 11
222.394452
 21
7.509471
 31
0.0
  0
LINE
  8
0
 62
     7
 10
220.727876
 20
5.719152
 30
0.0
 11
222.389631
 21
7.380907
 31
0.0
  0
LINE
  8
0
 62
     7
 10
220.85162
 20
5.719152
 30
0.0
 11
222.372087
 21
7.239618
 31
0.0
  0
LINE
  8
0
 62
     7
 10
220.975364
 20
5.719152
 30
0.0
 11
222.336297
 21
7.080085
 31
0.0
  0
LINE
  8
0
 62
     7
 10
221.099107
 20
5.719152
 30
0.0
 11
222.269661
 21
6.889705
 31
0.0
  0
LINE
  8
0
 62
     7
 10
221.222851
 20
5.719152
 30
0.0
 11
221.623027
 21
6.119327
 31
0.0
  0
LINE
  8
0
 62
     7
 10
221.706172
 20
6.202472
 30
0.0
 11
222.12114
 21
6.617441
 31
0.0
  0
LINE
  8
0
 62
     7
 10
221.346595
 20
5.719152
 30
0.0
 11
221.708924
 21
6.081481
 31
0.0
  0
LINE
  8
0
 62
     7
 10
221.470338
 20
5.719152
 30
0.0
 11
221.791715
 21
6.040528
 31
0.0
  0
LINE
  8
0
 62
     7
 10
221.594082
 20
5.719152
 30
0.0
 11
221.871536
 21
5.996605
 31
0.0
  0
LINE
  8
0
 62
     7
 10
221.717826
 20
5.719152
 30
0.0
 11
221.948497
 21
5.949823
 31
0.0
  0
LINE
  8
0
 62
     7
 10
221.841569
 20
5.719152
 30
0.0
 11
222.022687
 21
5.900269
 31
0.0
  0
LINE
  8
0
 62
     7
 10
221.965313
 20
5.719152
 30
0.0
 11
222.094176
 21
5.848014
 31
0.0
  0
LINE
  8
0
 62
     7
 10
222.089057
 20
5.719152
 30
0.0
 11
222.163015
 21
5.79311
 31
0.0
  0
LINE
  8
0
 62
     7
 10
222.212801
 20
5.719152
 30
0.0
 11
222.229243
 21
5.735594
 31
0.0
  0
LINE
  8
0
 62
     7
 10
218.019461
 20
6.475559
 30
0.0
 11
219.979461
 21
8.435559
 31
0.0
  0
LINE
  8
0
 62
     7
 10
218.019461
 20
6.599303
 30
0.0
 11
219.979461
 21
8.559303
 31
0.0
  0
LINE
  8
0
 62
     7
 10
218.019461
 20
6.723047
 30
0.0
 11
219.979461
 21
8.683047
 31
0.0
  0
LINE
  8
0
 62
     7
 10
218.019461
 20
6.84679
 30
0.0
 11
219.979461
 21
8.80679
 31
0.0
  0
LINE
  8
0
 62
     7
 10
218.019461
 20
6.970534
 30
0.0
 11
219.979461
 21
8.930534
 31
0.0
  0
LINE
  8
0
 62
     7
 10
218.019461
 20
7.094278
 30
0.0
 11
219.979461
 21
9.054278
 31
0.0
  0
LINE
  8
0
 62
     7
 10
218.019461
 20
7.218021
 30
0.0
 11
219.880591
 21
9.079152
 31
0.0
  0
LINE
  8
0
 62
     7
 10
218.019461
 20
7.341765
 30
0.0
 11
219.756847
 21
9.079152
 31
0.0
  0
LINE
  8
0
 62
     7
 10
218.019461
 20
7.465509
 30
0.0
 11
219.633104
 21
9.079152
 31
0.0
  0
LINE
  8
0
 62
     7
 10
218.019461
 20
7.589253
 30
0.0
 11
219.50936
 21
9.079152
 31
0.0
  0
LINE
  8
0
 62
     7
 10
218.019461
 20
7.712996
 30
0.0
 11
219.385616
 21
9.079152
 31
0.0
  0
LINE
  8
0
 62
     7
 10
218.019461
 20
7.83674
 30
0.0
 11
219.261872
 21
9.079152
 31
0.0
  0
LINE
  8
0
 62
     7
 10
218.019461
 20
7.960484
 30
0.0
 11
219.138129
 21
9.079152
 31
0.0
  0
LINE
  8
0
 62
     7
 10
218.019461
 20
8.084227
 30
0.0
 11
219.014385
 21
9.079152
 31
0.0
  0
LINE
  8
0
 62
     7
 10
218.019461
 20
8.207971
 30
0.0
 11
218.890641
 21
9.079152
 31
0.0
  0
LINE
  8
0
 62
     7
 10
218.019461
 20
8.331715
 30
0.0
 11
218.766898
 21
9.079152
 31
0.0
  0
LINE
  8
0
 62
     7
 10
218.019461
 20
8.455458
 30
0.0
 11
218.643154
 21
9.079152
 31
0.0
  0
LINE
  8
0
 62
     7
 10
218.019461
 20
8.579202
 30
0.0
 11
218.51941
 21
9.079152
 31
0.0
  0
LINE
  8
0
 62
     7
 10
218.019461
 20
8.702946
 30
0.0
 11
218.395667
 21
9.079152
 31
0.0
  0
LINE
  8
0
 62
     7
 10
218.019461
 20
8.826689
 30
0.0
 11
218.271923
 21
9.079152
 31
0.0
  0
LINE
  8
0
 62
     7
 10
218.019461
 20
8.950433
 30
0.0
 11
218.148179
 21
9.079152
 31
0.0
  0
LINE
  8
0
 62
     7
 10
218.019461
 20
9.074177
 30
0.0
 11
218.024436
 21
9.079152
 31
0.0
  0
LINE
  8
0
 62
     7
 10
218.019461
 20
6.351816
 30
0.0
 11
219.979461
 21
8.311816
 31
0.0
  0
LINE
  8
0
 62
     7
 10
218.019461
 20
6.228072
 30
0.0
 11
219.979461
 21
8.188072
 31
0.0
  0
LINE
  8
0
 62
     7
 10
218.019461
 20
6.104328
 30
0.0
 11
219.979461
 21
8.064328
 31
0.0
  0
LINE
  8
0
 62
     7
 10
218.019461
 20
5.980585
 30
0.0
 11
219.979461
 21
7.940585
 31
0.0
  0
LINE
  8
0
 62
     7
 10
218.019461
 20
5.856841
 30
0.0
 11
219.979461
 21
7.816841
 31
0.0
  0
LINE
  8
0
 62
     7
 10
218.019461
 20
5.733097
 30
0.0
 11
219.979461
 21
7.693097
 31
0.0
  0
LINE
  8
0
 62
     7
 10
218.129259
 20
5.719152
 30
0.0
 11
219.979461
 21
7.569354
 31
0.0
  0
LINE
  8
0
 62
     7
 10
218.253003
 20
5.719152
 30
0.0
 11
219.979461
 21
7.44561
 31
0.0
  0
LINE
  8
0
 62
     7
 10
218.376746
 20
5.719152
 30
0.0
 11
219.979461
 21
7.321866
 31
0.0
  0
LINE
  8
0
 62
     7
 10
218.50049
 20
5.719152
 30
0.0
 11
219.979461
 21
7.198122
 31
0.0
  0
LINE
  8
0
 62
     7
 10
218.624234
 20
5.719152
 30
0.0
 11
219.979461
 21
7.074379
 31
0.0
  0
LINE
  8
0
 62
     7
 10
218.747977
 20
5.719152
 30
0.0
 11
219.979461
 21
6.950635
 31
0.0
  0
LINE
  8
0
 62
     7
 10
218.871721
 20
5.719152
 30
0.0
 11
219.979461
 21
6.826891
 31
0.0
  0
LINE
  8
0
 62
     7
 10
218.995465
 20
5.719152
 30
0.0
 11
219.979461
 21
6.703148
 31
0.0
  0
LINE
  8
0
 62
     7
 10
219.119208
 20
5.719152
 30
0.0
 11
219.979461
 21
6.579404
 31
0.0
  0
LINE
  8
0
 62
     7
 10
219.242952
 20
5.719152
 30
0.0
 11
219.979461
 21
6.45566
 31
0.0
  0
LINE
  8
0
 62
     7
 10
219.366696
 20
5.719152
 30
0.0
 11
219.979461
 21
6.331917
 31
0.0
  0
LINE
  8
0
 62
     7
 10
219.490439
 20
5.719152
 30
0.0
 11
219.979461
 21
6.208173
 31
0.0
  0
LINE
  8
0
 62
     7
 10
219.614183
 20
5.719152
 30
0.0
 11
219.979461
 21
6.084429
 31
0.0
  0
LINE
  8
0
 62
     7
 10
219.737927
 20
5.719152
 30
0.0
 11
219.979461
 21
5.960686
 31
0.0
  0
LINE
  8
0
 62
     7
 10
219.86167
 20
5.719152
 30
0.0
 11
219.979461
 21
5.836942
 31
0.0
  0
LINE
  8
0
 62
     7
 10
214.169461
 20
6.33787
 30
0.0
 11
215.554238
 21
7.722647
 31
0.0
  0
LINE
  8
0
 62
     7
 10
214.169461
 20
6.461614
 30
0.0
 11
215.522156
 21
7.814309
 31
0.0
  0
LINE
  8
0
 62
     7
 10
214.169461
 20
6.585357
 30
0.0
 11
215.490074
 21
7.905971
 31
0.0
  0
LINE
  8
0
 62
     7
 10
214.169461
 20
6.709101
 30
0.0
 11
215.457992
 21
7.997633
 31
0.0
  0
LINE
  8
0
 62
     7
 10
214.169461
 20
6.832845
 30
0.0
 11
215.425911
 21
8.089295
 31
0.0
  0
LINE
  8
0
 62
     7
 10
214.169461
 20
6.956588
 30
0.0
 11
215.393829
 21
8.180957
 31
0.0
  0
LINE
  8
0
 62
     7
 10
214.169461
 20
7.080332
 30
0.0
 11
215.361747
 21
8.272619
 31
0.0
  0
LINE
  8
0
 62
     7
 10
214.169461
 20
7.204076
 30
0.0
 11
215.329666
 21
8.364281
 31
0.0
  0
LINE
  8
0
 62
     7
 10
214.169461
 20
7.327819
 30
0.0
 11
215.297584
 21
8.455943
 31
0.0
  0
LINE
  8
0
 62
     7
 10
214.169461
 20
7.451563
 30
0.0
 11
215.265502
 21
8.547605
 31
0.0
  0
LINE
  8
0
 62
     7
 10
214.169461
 20
7.575307
 30
0.0
 11
215.233421
 21
8.639267
 31
0.0
  0
LINE
  8
0
 62
     7
 10
214.169461
 20
7.699051
 30
0.0
 11
215.201339
 21
8.730929
 31
0.0
  0
LINE
  8
0
 62
     7
 10
214.169461
 20
7.822794
 30
0.0
 11
215.169257
 21
8.822591
 31
0.0
  0
LINE
  8
0
 62
     7
 10
214.169461
 20
7.946538
 30
0.0
 11
215.137176
 21
8.914253
 31
0.0
  0
LINE
  8
0
 62
     7
 10
214.169461
 20
8.070282
 30
0.0
 11
215.105094
 21
9.005915
 31
0.0
  0
LINE
  8
0
 62
     7
 10
214.169461
 20
8.194025
 30
0.0
 11
215.054587
 21
9.079152
 31
0.0
  0
LINE
  8
0
 62
     7
 10
214.169461
 20
8.317769
 30
0.0
 11
214.930843
 21
9.079152
 31
0.0
  0
LINE
  8
0
 62
     7
 10
214.169461
 20
8.441513
 30
0.0
 11
214.8071
 21
9.079152
 31
0.0
  0
LINE
  8
0
 62
     7
 10
214.169461
 20
8.565256
 30
0.0
 11
214.683356
 21
9.079152
 31
0.0
  0
LINE
  8
0
 62
     7
 10
214.169461
 20
8.689
 30
0.0
 11
214.559612
 21
9.079152
 31
0.0
  0
LINE
  8
0
 62
     7
 10
214.169461
 20
8.812744
 30
0.0
 11
214.435869
 21
9.079152
 31
0.0
  0
LINE
  8
0
 62
     7
 10
214.169461
 20
8.936487
 30
0.0
 11
214.312125
 21
9.079152
 31
0.0
  0
LINE
  8
0
 62
     7
 10
214.169461
 20
9.060231
 30
0.0
 11
214.188381
 21
9.079152
 31
0.0
  0
LINE
  8
0
 62
     7
 10
214.169461
 20
6.214126
 30
0.0
 11
215.586319
 21
7.630985
 31
0.0
  0
LINE
  8
0
 62
     7
 10
214.169461
 20
6.090383
 30
0.0
 11
215.618401
 21
7.539323
 31
0.0
  0
LINE
  8
0
 62
     7
 10
214.169461
 20
5.966639
 30
0.0
 11
215.650483
 21
7.447661
 31
0.0
  0
LINE
  8
0
 62
     7
 10
214.169461
 20
5.842895
 30
0.0
 11
215.682564
 21
7.355999
 31
0.0
  0
LINE
  8
0
 62
     7
 10
214.169461
 20
5.719152
 30
0.0
 11
215.714646
 21
7.264337
 31
0.0
  0
LINE
  8
0
 62
     7
 10
214.293205
 20
5.719152
 30
0.0
 11
215.746728
 21
7.172675
 31
0.0
  0
LINE
  8
0
 62
     7
 10
214.416948
 20
5.719152
 30
0.0
 11
215.778809
 21
7.081013
 31
0.0
  0
LINE
  8
0
 62
     7
 10
214.540692
 20
5.719152
 30
0.0
 11
215.810891
 21
6.989351
 31
0.0
  0
LINE
  8
0
 62
     7
 10
214.664436
 20
5.719152
 30
0.0
 11
215.842973
 21
6.897689
 31
0.0
  0
LINE
  8
0
 62
     7
 10
214.788179
 20
5.719152
 30
0.0
 11
215.875055
 21
6.806027
 31
0.0
  0
LINE
  8
0
 62
     7
 10
214.911923
 20
5.719152
 30
0.0
 11
215.907136
 21
6.714365
 31
0.0
  0
LINE
  8
0
 62
     7
 10
215.035667
 20
5.719152
 30
0.0
 11
215.939218
 21
6.622703
 31
0.0
  0
LINE
  8
0
 62
     7
 10
215.15941
 20
5.719152
 30
0.0
 11
215.9713
 21
6.531041
 31
0.0
  0
LINE
  8
0
 62
     7
 10
215.283154
 20
5.719152
 30
0.0
 11
216.003381
 21
6.439379
 31
0.0
  0
LINE
  8
0
 62
     7
 10
215.406898
 20
5.719152
 30
0.0
 11
216.035463
 21
6.347717
 31
0.0
  0
LINE
  8
0
 62
     7
 10
215.530641
 20
5.719152
 30
0.0
 11
216.067545
 21
6.256055
 31
0.0
  0
LINE
  8
0
 62
     7
 10
215.654385
 20
5.719152
 30
0.0
 11
216.099626
 21
6.164393
 31
0.0
  0
LINE
  8
0
 62
     7
 10
215.778129
 20
5.719152
 30
0.0
 11
216.131708
 21
6.072731
 31
0.0
  0
LINE
  8
0
 62
     7
 10
215.901872
 20
5.719152
 30
0.0
 11
216.16379
 21
5.981069
 31
0.0
  0
LINE
  8
0
 62
     7
 10
216.025616
 20
5.719152
 30
0.0
 11
216.195872
 21
5.889407
 31
0.0
  0
LINE
  8
0
 62
     7
 10
216.14936
 20
5.719152
 30
0.0
 11
216.227953
 21
5.797745
 31
0.0
  0
LINE
  8
0
 62
     7
 10
212.12861
 20
6.648149
 30
0.0
 11
213.889461
 21
8.409
 31
0.0
  0
LINE
  8
0
 62
     7
 10
212.195241
 20
6.838524
 30
0.0
 11
213.889461
 21
8.532744
 31
0.0
  0
LINE
  8
0
 62
     7
 10
212.261872
 20
7.028899
 30
0.0
 11
213.889461
 21
8.656487
 31
0.0
  0
LINE
  8
0
 62
     7
 10
212.328504
 20
7.219274
 30
0.0
 11
213.889461
 21
8.780231
 31
0.0
  0
LINE
  8
0
 62
     7
 10
212.395135
 20
7.409649
 30
0.0
 11
213.889461
 21
8.903975
 31
0.0
  0
LINE
  8
0
 62
     7
 10
212.461766
 20
7.600024
 30
0.0
 11
213.889461
 21
9.027718
 31
0.0
  0
LINE
  8
0
 62
     7
 10
212.528397
 20
7.790399
 30
0.0
 11
213.81715
 21
9.079152
 31
0.0
  0
LINE
  8
0
 62
     7
 10
212.595029
 20
7.980774
 30
0.0
 11
213.693407
 21
9.079152
 31
0.0
  0
LINE
  8
0
 62
     7
 10
212.66166
 20
8.171148
 30
0.0
 11
213.569663
 21
9.079152
 31
0.0
  0
LINE
  8
0
 62
     7
 10
212.728291
 20
8.361523
 30
0.0
 11
213.445919
 21
9.079152
 31
0.0
  0
LINE
  8
0
 62
     7
 10
212.794922
 20
8.551898
 30
0.0
 11
213.322176
 21
9.079152
 31
0.0
  0
LINE
  8
0
 62
     7
 10
212.861553
 20
8.742273
 30
0.0
 11
213.198432
 21
9.079152
 31
0.0
  0
LINE
  8
0
 62
     7
 10
212.928185
 20
8.932648
 30
0.0
 11
213.074688
 21
9.079152
 31
0.0
  0
LINE
  8
0
 62
     7
 10
212.061979
 20
6.457774
 30
0.0
 11
213.889461
 21
8.285256
 31
0.0
  0
LINE
  8
0
 62
     7
 10
211.995348
 20
6.267399
 30
0.0
 11
213.889461
 21
8.161513
 31
0.0
  0
LINE
  8
0
 62
     7
 10
211.928716
 20
6.077024
 30
0.0
 11
213.889461
 21
8.037769
 31
0.0
  0
LINE
  8
0
 62
     7
 10
211.862085
 20
5.88665
 30
0.0
 11
213.889461
 21
7.914025
 31
0.0
  0
LINE
  8
0
 62
     7
 10
211.818331
 20
5.719152
 30
0.0
 11
213.889461
 21
7.790282
 31
0.0
  0
LINE
  8
0
 62
     7
 10
211.942075
 20
5.719152
 30
0.0
 11
213.889461
 21
7.666538
 31
0.0
  0
LINE
  8
0
 62
     7
 10
212.065818
 20
5.719152
 30
0.0
 11
213.889461
 21
7.542794
 31
0.0
  0
LINE
  8
0
 62
     7
 10
212.189562
 20
5.719152
 30
0.0
 11
213.889461
 21
7.419051
 31
0.0
  0
LINE
  8
0
 62
     7
 10
212.313306
 20
5.719152
 30
0.0
 11
213.889461
 21
7.295307
 31
0.0
  0
LINE
  8
0
 62
     7
 10
212.437049
 20
5.719152
 30
0.0
 11
213.889461
 21
7.171563
 31
0.0
  0
LINE
  8
0
 62
     7
 10
212.560793
 20
5.719152
 30
0.0
 11
213.889461
 21
7.047819
 31
0.0
  0
LINE
  8
0
 62
     7
 10
212.684537
 20
5.719152
 30
0.0
 11
213.889461
 21
6.924076
 31
0.0
  0
LINE
  8
0
 62
     7
 10
212.80828
 20
5.719152
 30
0.0
 11
213.889461
 21
6.800332
 31
0.0
  0
LINE
  8
0
 62
     7
 10
212.932024
 20
5.719152
 30
0.0
 11
213.889461
 21
6.676588
 31
0.0
  0
LINE
  8
0
 62
     7
 10
213.055768
 20
5.719152
 30
0.0
 11
213.889461
 21
6.552845
 31
0.0
  0
LINE
  8
0
 62
     7
 10
213.179511
 20
5.719152
 30
0.0
 11
213.889461
 21
6.429101
 31
0.0
  0
LINE
  8
0
 62
     7
 10
213.303255
 20
5.719152
 30
0.0
 11
213.889461
 21
6.305357
 31
0.0
  0
LINE
  8
0
 62
     7
 10
213.426999
 20
5.719152
 30
0.0
 11
213.889461
 21
6.181614
 31
0.0
  0
LINE
  8
0
 62
     7
 10
213.550742
 20
5.719152
 30
0.0
 11
213.889461
 21
6.05787
 31
0.0
  0
LINE
  8
0
 62
     7
 10
213.674486
 20
5.719152
 30
0.0
 11
213.889461
 21
5.934126
 31
0.0
  0
LINE
  8
0
 62
     7
 10
213.79823
 20
5.719152
 30
0.0
 11
213.889461
 21
5.810383
 31
0.0
  0
LINE
  8
0
 62
     7
 10
225.719461
 20
2.652119
 30
0.0
 11
228.166976
 21
5.099634
 31
0.0
  0
LINE
  8
0
 62
     7
 10
225.719461
 20
2.775862
 30
0.0
 11
228.124909
 21
5.18131
 31
0.0
  0
LINE
  8
0
 62
     7
 10
225.719461
 20
2.899606
 30
0.0
 11
228.079915
 21
5.26006
 31
0.0
  0
LINE
  8
0
 62
     7
 10
225.719461
 20
3.02335
 30
0.0
 11
228.032097
 21
5.335986
 31
0.0
  0
LINE
  8
0
 62
     7
 10
225.719461
 20
3.147093
 30
0.0
 11
227.981536
 21
5.409168
 31
0.0
  0
LINE
  8
0
 62
     7
 10
225.719461
 20
3.270837
 30
0.0
 11
227.887775
 21
5.439152
 31
0.0
  0
LINE
  8
0
 62
     7
 10
225.719461
 20
3.394581
 30
0.0
 11
227.764032
 21
5.439152
 31
0.0
  0
LINE
  8
0
 62
     7
 10
225.719461
 20
3.518325
 30
0.0
 11
227.640288
 21
5.439152
 31
0.0
  0
LINE
  8
0
 62
     7
 10
225.719461
 20
3.642068
 30
0.0
 11
227.516544
 21
5.439152
 31
0.0
  0
LINE
  8
0
 62
     7
 10
225.719461
 20
3.765812
 30
0.0
 11
227.392801
 21
5.439152
 31
0.0
  0
LINE
  8
0
 62
     7
 10
225.719461
 20
3.889556
 30
0.0
 11
227.269057
 21
5.439152
 31
0.0
  0
LINE
  8
0
 62
     7
 10
225.719461
 20
4.013299
 30
0.0
 11
227.145313
 21
5.439152
 31
0.0
  0
LINE
  8
0
 62
     7
 10
225.719461
 20
4.137043
 30
0.0
 11
227.021569
 21
5.439152
 31
0.0
  0
LINE
  8
0
 62
     7
 10
225.719461
 20
4.260787
 30
0.0
 11
226.897826
 21
5.439152
 31
0.0
  0
LINE
  8
0
 62
     7
 10
225.719461
 20
4.38453
 30
0.0
 11
226.774082
 21
5.439152
 31
0.0
  0
LINE
  8
0
 62
     7
 10
225.719461
 20
4.508274
 30
0.0
 11
226.650338
 21
5.439152
 31
0.0
  0
LINE
  8
0
 62
     7
 10
225.719461
 20
4.632018
 30
0.0
 11
226.526595
 21
5.439152
 31
0.0
  0
LINE
  8
0
 62
     7
 10
225.719461
 20
4.755761
 30
0.0
 11
226.402851
 21
5.439152
 31
0.0
  0
LINE
  8
0
 62
     7
 10
225.719461
 20
4.879505
 30
0.0
 11
226.279107
 21
5.439152
 31
0.0
  0
LINE
  8
0
 62
     7
 10
225.719461
 20
5.003249
 30
0.0
 11
226.155364
 21
5.439152
 31
0.0
  0
LINE
  8
0
 62
     7
 10
225.719461
 20
5.126992
 30
0.0
 11
226.03162
 21
5.439152
 31
0.0
  0
LINE
  8
0
 62
     7
 10
225.719461
 20
5.250736
 30
0.0
 11
225.907876
 21
5.439152
 31
0.0
  0
LINE
  8
0
 62
     7
 10
225.719461
 20
5.37448
 30
0.0
 11
225.784133
 21
5.439152
 31
0.0
  0
LINE
  8
0
 62
     7
 10
225.719461
 20
2.528375
 30
0.0
 11
228.205991
 21
5.014905
 31
0.0
  0
LINE
  8
0
 62
     7
 10
225.719461
 20
2.404631
 30
0.0
 11
228.241799
 21
4.926969
 31
0.0
  0
LINE
  8
0
 62
     7
 10
225.719461
 20
2.280888
 30
0.0
 11
228.274211
 21
4.835637
 31
0.0
  0
LINE
  8
0
 62
     7
 10
225.719461
 20
2.157144
 30
0.0
 11
228.302995
 21
4.740678
 31
0.0
  0
LINE
  8
0
 62
     7
 10
225.765212
 20
2.079152
 30
0.0
 11
228.327864
 21
4.641803
 31
0.0
  0
LINE
  8
0
 62
     7
 10
225.888956
 20
2.079152
 30
0.0
 11
228.34846
 21
4.538656
 31
0.0
  0
LINE
  8
0
 62
     7
 10
226.0127
 20
2.079152
 30
0.0
 11
228.364331
 21
4.430783
 31
0.0
  0
LINE
  8
0
 62
     7
 10
226.136444
 20
2.079152
 30
0.0
 11
228.374892
 21
4.3176
 31
0.0
  0
LINE
  8
0
 62
     7
 10
226.260188
 20
2.079153
 30
0.0
 11
228.379373
 21
4.198338
 31
0.0
  0
LINE
  8
0
 62
     7
 10
226.386669
 20
2.08189
 30
0.0
 11
228.376723
 21
4.071944
 31
0.0
  0
LINE
  8
0
 62
     7
 10
226.521691
 20
2.093169
 30
0.0
 11
228.365444
 21
3.936921
 31
0.0
  0
LINE
  8
0
 62
     7
 10
226.667599
 20
2.115333
 30
0.0
 11
228.34328
 21
3.791013
 31
0.0
  0
LINE
  8
0
 62
     7
 10
226.828094
 20
2.152084
 30
0.0
 11
228.306528
 21
3.630518
 31
0.0
  0
LINE
  8
0
 62
     7
 10
227.010111
 20
2.210357
 30
0.0
 11
228.248255
 21
3.448501
 31
0.0
  0
LINE
  8
0
 62
     7
 10
227.230184
 20
2.306686
 30
0.0
 11
228.151926
 21
3.228429
 31
0.0
  0
LINE
  8
0
 62
     7
 10
227.568812
 20
2.521571
 30
0.0
 11
227.937042
 21
2.8898
 31
0.0
  0
LINE
  8
0
 62
     7
 10
210.529461
 20
2.079152
 30
0.0
 11
213.889461
 21
5.439152
 31
0.0
  0
LINE
  8
0
 62
     7
 10
210.596092
 20
2.269526
 30
0.0
 11
213.765717
 21
5.439152
 31
0.0
  0
LINE
  8
0
 62
     7
 10
210.662723
 20
2.459901
 30
0.0
 11
213.641973
 21
5.439152
 31
0.0
  0
LINE
  8
0
 62
     7
 10
210.729355
 20
2.650276
 30
0.0
 11
213.51823
 21
5.439152
 31
0.0
  0
LINE
  8
0
 62
     7
 10
210.795986
 20
2.840651
 30
0.0
 11
213.394486
 21
5.439152
 31
0.0
  0
LINE
  8
0
 62
     7
 10
210.862617
 20
3.031026
 30
0.0
 11
213.270742
 21
5.439152
 31
0.0
  0
LINE
  8
0
 62
     7
 10
210.929248
 20
3.221401
 30
0.0
 11
213.146999
 21
5.439152
 31
0.0
  0
LINE
  8
0
 62
     7
 10
210.995879
 20
3.411776
 30
0.0
 11
213.023255
 21
5.439152
 31
0.0
  0
LINE
  8
0
 62
     7
 10
211.062511
 20
3.602151
 30
0.0
 11
212.899511
 21
5.439152
 31
0.0
  0
LINE
  8
0
 62
     7
 10
211.129142
 20
3.792526
 30
0.0
 11
212.775768
 21
5.439152
 31
0.0
  0
LINE
  8
0
 62
     7
 10
211.195773
 20
3.982901
 30
0.0
 11
212.652024
 21
5.439152
 31
0.0
  0
LINE
  8
0
 62
     7
 10
211.262404
 20
4.173275
 30
0.0
 11
212.52828
 21
5.439152
 31
0.0
  0
LINE
  8
0
 62
     7
 10
211.329035
 20
4.36365
 30
0.0
 11
212.404537
 21
5.439152
 31
0.0
  0
LINE
  8
0
 62
     7
 10
211.395667
 20
4.554025
 30
0.0
 11
212.280793
 21
5.439152
 31
0.0
  0
LINE
  8
0
 62
     7
 10
211.462298
 20
4.7444
 30
0.0
 11
212.157049
 21
5.439152
 31
0.0
  0
LINE
  8
0
 62
     7
 10
211.528929
 20
4.934775
 30
0.0
 11
212.033306
 21
5.439152
 31
0.0
  0
LINE
  8
0
 62
     7
 10
211.59556
 20
5.12515
 30
0.0
 11
211.909562
 21
5.439152
 31
0.0
  0
LINE
  8
0
 62
     7
 10
211.662192
 20
5.315525
 30
0.0
 11
211.785818
 21
5.439152
 31
0.0
  0
LINE
  8
0
 62
     7
 10
210.653205
 20
2.079152
 30
0.0
 11
213.889461
 21
5.315408
 31
0.0
  0
LINE
  8
0
 62
     7
 10
210.776948
 20
2.079152
 30
0.0
 11
213.889461
 21
5.191664
 31
0.0
  0
LINE
  8
0
 62
     7
 10
210.900692
 20
2.079152
 30
0.0
 11
213.889461
 21
5.06792
 31
0.0
  0
LINE
  8
0
 62
     7
 10
211.024436
 20
2.079152
 30
0.0
 11
213.889461
 21
4.944177
 31
0.0
  0
LINE
  8
0
 62
     7
 10
211.148179
 20
2.079152
 30
0.0
 11
213.889461
 21
4.820433
 31
0.0
  0
LINE
  8
0
 62
     7
 10
211.271923
 20
2.079152
 30
0.0
 11
213.889461
 21
4.696689
 31
0.0
  0
LINE
  8
0
 62
     7
 10
211.395667
 20
2.079152
 30
0.0
 11
212.75535
 21
3.438835
 31
0.0
  0
LINE
  8
0
 62
     7
 10
212.795667
 20
3.479152
 30
0.0
 11
213.889461
 21
4.572946
 31
0.0
  0
LINE
  8
0
 62
     7
 10
211.51941
 20
2.079152
 30
0.0
 11
212.688719
 21
3.24846
 31
0.0
  0
LINE
  8
0
 62
     7
 10
212.91941
 20
3.479152
 30
0.0
 11
213.889461
 21
4.449202
 31
0.0
  0
LINE
  8
0
 62
     7
 10
211.643154
 20
2.079152
 30
0.0
 11
212.622088
 21
3.058085
 31
0.0
  0
LINE
  8
0
 62
     7
 10
213.043154
 20
3.479152
 30
0.0
 11
213.889461
 21
4.325458
 31
0.0
  0
LINE
  8
0
 62
     7
 10
211.766898
 20
2.079152
 30
0.0
 11
212.555456
 21
2.86771
 31
0.0
  0
LINE
  8
0
 62
     7
 10
213.166898
 20
3.479152
 30
0.0
 11
213.889461
 21
4.201715
 31
0.0
  0
LINE
  8
0
 62
     7
 10
211.890641
 20
2.079152
 30
0.0
 11
212.488825
 21
2.677335
 31
0.0
  0
LINE
  8
0
 62
     7
 10
213.290641
 20
3.479152
 30
0.0
 11
213.889461
 21
4.077971
 31
0.0
  0
LINE
  8
0
 62
     7
 10
212.014385
 20
2.079152
 30
0.0
 11
212.422194
 21
2.48696
 31
0.0
  0
LINE
  8
0
 62
     7
 10
213.414385
 20
3.479152
 30
0.0
 11
213.889461
 21
3.954227
 31
0.0
  0
LINE
  8
0
 62
     7
 10
212.138129
 20
2.079152
 30
0.0
 11
212.355563
 21
2.296585
 31
0.0
  0
LINE
  8
0
 62
     7
 10
213.538129
 20
3.479152
 30
0.0
 11
213.889461
 21
3.830484
 31
0.0
  0
LINE
  8
0
 62
     7
 10
212.261872
 20
2.079152
 30
0.0
 11
212.288932
 21
2.106211
 31
0.0
  0
LINE
  8
0
 62
     7
 10
213.661872
 20
3.479152
 30
0.0
 11
213.889461
 21
3.70674
 31
0.0
  0
LINE
  8
0
 62
     7
 10
213.785616
 20
3.479152
 30
0.0
 11
213.889461
 21
3.582996
 31
0.0
  0
LINE
  8
0
 62
     7
 10
218.019461
 20
2.886992
 30
0.0
 11
219.979461
 21
4.846992
 31
0.0
  0
LINE
  8
0
 62
     7
 10
218.019461
 20
3.010736
 30
0.0
 11
219.979461
 21
4.970736
 31
0.0
  0
LINE
  8
0
 62
     7
 10
218.019461
 20
3.13448
 30
0.0
 11
219.979461
 21
5.09448
 31
0.0
  0
LINE
  8
0
 62
     7
 10
218.019461
 20
3.258224
 30
0.0
 11
219.979461
 21
5.218224
 31
0.0
  0
LINE
  8
0
 62
     7
 10
218.019461
 20
3.381967
 30
0.0
 11
219.979461
 21
5.341967
 31
0.0
  0
LINE
  8
0
 62
     7
 10
218.019461
 20
3.505711
 30
0.0
 11
219.952902
 21
5.439152
 31
0.0
  0
LINE
  8
0
 62
     7
 10
218.019461
 20
3.629455
 30
0.0
 11
219.829158
 21
5.439152
 31
0.0
  0
LINE
  8
0
 62
     7
 10
218.019461
 20
3.753198
 30
0.0
 11
219.705414
 21
5.439152
 31
0.0
  0
LINE
  8
0
 62
     7
 10
218.019461
 20
3.876942
 30
0.0
 11
219.58167
 21
5.439152
 31
0.0
  0
LINE
  8
0
 62
     7
 10
218.019461
 20
4.000686
 30
0.0
 11
219.457927
 21
5.439152
 31
0.0
  0
LINE
  8
0
 62
     7
 10
218.019461
 20
4.124429
 30
0.0
 11
219.334183
 21
5.439152
 31
0.0
  0
LINE
  8
0
 62
     7
 10
218.019461
 20
4.248173
 30
0.0
 11
219.210439
 21
5.439152
 31
0.0
  0
LINE
  8
0
 62
     7
 10
218.019461
 20
4.371917
 30
0.0
 11
219.086696
 21
5.439152
 31
0.0
  0
LINE
  8
0
 62
     7
 10
218.019461
 20
4.49566
 30
0.0
 11
218.962952
 21
5.439152
 31
0.0
  0
LINE
  8
0
 62
     7
 10
218.019461
 20
4.619404
 30
0.0
 11
218.839208
 21
5.439152
 31
0.0
  0
LINE
  8
0
 62
     7
 10
218.019461
 20
4.743148
 30
0.0
 11
218.715465
 21
5.439152
 31
0.0
  0
LINE
  8
0
 62
     7
 10
218.019461
 20
4.866891
 30
0.0
 11
218.591721
 21
5.439152
 31
0.0
  0
LINE
  8
0
 62
     7
 10
218.019461
 20
4.990635
 30
0.0
 11
218.467977
 21
5.439152
 31
0.0
  0
LINE
  8
0
 62
     7
 10
218.019461
 20
5.114379
 30
0.0
 11
218.344234
 21
5.439152
 31
0.0
  0
LINE
  8
0
 62
     7
 10
218.019461
 20
5.238122
 30
0.0
 11
218.22049
 21
5.439152
 31
0.0
  0
LINE
  8
0
 62
     7
 10
218.019461
 20
5.361866
 30
0.0
 11
218.096746
 21
5.439152
 31
0.0
  0
LINE
  8
0
 62
     7
 10
218.019461
 20
2.763249
 30
0.0
 11
219.979461
 21
4.723249
 31
0.0
  0
LINE
  8
0
 62
     7
 10
218.019461
 20
2.639505
 30
0.0
 11
219.979461
 21
4.599505
 31
0.0
  0
LINE
  8
0
 62
     7
 10
218.019461
 20
2.515761
 30
0.0
 11
219.979461
 21
4.475761
 31
0.0
  0
LINE
  8
0
 62
     7
 10
218.019461
 20
2.392018
 30
0.0
 11
219.979461
 21
4.352018
 31
0.0
  0
LINE
  8
0
 62
     7
 10
218.019461
 20
2.268274
 30
0.0
 11
219.979461
 21
4.228274
 31
0.0
  0
LINE
  8
0
 62
     7
 10
218.019461
 20
2.14453
 30
0.0
 11
219.979461
 21
4.10453
 31
0.0
  0
LINE
  8
0
 62
     7
 10
218.077826
 20
2.079152
 30
0.0
 11
219.979461
 21
3.980787
 31
0.0
  0
LINE
  8
0
 62
     7
 10
218.201569
 20
2.079152
 30
0.0
 11
219.979461
 21
3.857043
 31
0.0
  0
LINE
  8
0
 62
     7
 10
218.325313
 20
2.079152
 30
0.0
 11
219.979461
 21
3.733299
 31
0.0
  0
LINE
  8
0
 62
     7
 10
218.449057
 20
2.079152
 30
0.0
 11
219.979461
 21
3.609556
 31
0.0
  0
LINE
  8
0
 62
     7
 10
218.572801
 20
2.079152
 30
0.0
 11
219.979461
 21
3.485812
 31
0.0
  0
LINE
  8
0
 62
     7
 10
218.696544
 20
2.079152
 30
0.0
 11
219.979461
 21
3.362068
 31
0.0
  0
LINE
  8
0
 62
     7
 10
218.820288
 20
2.079152
 30
0.0
 11
219.979461
 21
3.238325
 31
0.0
  0
LINE
  8
0
 62
     7
 10
218.944032
 20
2.079152
 30
0.0
 11
219.979461
 21
3.114581
 31
0.0
  0
LINE
  8
0
 62
     7
 10
219.067775
 20
2.079152
 30
0.0
 11
219.979461
 21
2.990837
 31
0.0
  0
LINE
  8
0
 62
     7
 10
219.191519
 20
2.079152
 30
0.0
 11
219.979461
 21
2.867093
 31
0.0
  0
LINE
  8
0
 62
     7
 10
219.315263
 20
2.079152
 30
0.0
 11
219.979461
 21
2.74335
 31
0.0
  0
LINE
  8
0
 62
     7
 10
219.439006
 20
2.079152
 30
0.0
 11
219.979461
 21
2.619606
 31
0.0
  0
LINE
  8
0
 62
     7
 10
219.56275
 20
2.079152
 30
0.0
 11
219.979461
 21
2.495862
 31
0.0
  0
LINE
  8
0
 62
     7
 10
219.686494
 20
2.079152
 30
0.0
 11
219.979461
 21
2.372119
 31
0.0
  0
LINE
  8
0
 62
     7
 10
219.810237
 20
2.079152
 30
0.0
 11
219.979461
 21
2.248375
 31
0.0
  0
LINE
  8
0
 62
     7
 10
219.933981
 20
2.079152
 30
0.0
 11
219.979461
 21
2.124631
 31
0.0
  0
LINE
  8
0
 62
     7
 10
215.348719
 20
3.309843
 30
0.0
 11
216.645015
 21
4.606139
 31
0.0
  0
LINE
  8
0
 62
     7
 10
215.316637
 20
3.401505
 30
0.0
 11
216.612934
 21
4.697801
 31
0.0
  0
LINE
  8
0
 62
     7
 10
215.27054
 20
3.479152
 30
0.0
 11
216.580852
 21
4.789463
 31
0.0
  0
LINE
  8
0
 62
     7
 10
215.146797
 20
3.479152
 30
0.0
 11
216.54877
 21
4.881125
 31
0.0
  0
LINE
  8
0
 62
     7
 10
215.023053
 20
3.479152
 30
0.0
 11
216.516688
 21
4.972787
 31
0.0
  0
LINE
  8
0
 62
     7
 10
214.899309
 20
3.479152
 30
0.0
 11
216.484607
 21
5.064449
 31
0.0
  0
LINE
  8
0
 62
     7
 10
214.775566
 20
3.479152
 30
0.0
 11
216.452525
 21
5.156111
 31
0.0
  0
LINE
  8
0
 62
     7
 10
214.651822
 20
3.479152
 30
0.0
 11
216.420443
 21
5.247773
 31
0.0
  0
LINE
  8
0
 62
     7
 10
214.528078
 20
3.479152
 30
0.0
 11
216.388362
 21
5.339435
 31
0.0
  0
LINE
  8
0
 62
     7
 10
214.404335
 20
3.479152
 30
0.0
 11
216.35628
 21
5.431097
 31
0.0
  0
LINE
  8
0
 62
     7
 10
214.280591
 20
3.479152
 30
0.0
 11
216.240591
 21
5.439152
 31
0.0
  0
LINE
  8
0
 62
     7
 10
214.169461
 20
3.491765
 30
0.0
 11
216.116847
 21
5.439152
 31
0.0
  0
LINE
  8
0
 62
     7
 10
214.169461
 20
3.615509
 30
0.0
 11
215.993104
 21
5.439152
 31
0.0
  0
LINE
  8
0
 62
     7
 10
214.169461
 20
3.739253
 30
0.0
 11
215.86936
 21
5.439152
 31
0.0
  0
LINE
  8
0
 62
     7
 10
214.169461
 20
3.862996
 30
0.0
 11
215.745616
 21
5.439152
 31
0.0
  0
LINE
  8
0
 62
     7
 10
214.169461
 20
3.98674
 30
0.0
 11
215.621872
 21
5.439152
 31
0.0
  0
LINE
  8
0
 62
     7
 10
214.169461
 20
4.110484
 30
0.0
 11
215.498129
 21
5.439152
 31
0.0
  0
LINE
  8
0
 62
     7
 10
214.169461
 20
4.234227
 30
0.0
 11
215.374385
 21
5.439152
 31
0.0
  0
LINE
  8
0
 62
     7
 10
214.169461
 20
4.357971
 30
0.0
 11
215.250641
 21
5.439152
 31
0.0
  0
LINE
  8
0
 62
     7
 10
214.169461
 20
4.481715
 30
0.0
 11
215.126898
 21
5.439152
 31
0.0
  0
LINE
  8
0
 62
     7
 10
214.169461
 20
4.605458
 30
0.0
 11
215.003154
 21
5.439152
 31
0.0
  0
LINE
  8
0
 62
     7
 10
214.169461
 20
4.729202
 30
0.0
 11
214.87941
 21
5.439152
 31
0.0
  0
LINE
  8
0
 62
     7
 10
214.169461
 20
4.852946
 30
0.0
 11
214.755667
 21
5.439152
 31
0.0
  0
LINE
  8
0
 62
     7
 10
214.169461
 20
4.976689
 30
0.0
 11
214.631923
 21
5.439152
 31
0.0
  0
LINE
  8
0
 62
     7
 10
214.169461
 20
5.100433
 30
0.0
 11
214.508179
 21
5.439152
 31
0.0
  0
LINE
  8
0
 62
     7
 10
214.169461
 20
5.224177
 30
0.0
 11
214.384436
 21
5.439152
 31
0.0
  0
LINE
  8
0
 62
     7
 10
214.169461
 20
5.34792
 30
0.0
 11
214.260692
 21
5.439152
 31
0.0
  0
LINE
  8
0
 62
     7
 10
215.380801
 20
3.218181
 30
0.0
 11
216.677097
 21
4.514477
 31
0.0
  0
LINE
  8
0
 62
     7
 10
215.412882
 20
3.126519
 30
0.0
 11
216.709179
 21
4.422815
 31
0.0
  0
LINE
  8
0
 62
     7
 10
215.444964
 20
3.034857
 30
0.0
 11
216.74126
 21
4.331153
 31
0.0
  0
LINE
  8
0
 62
     7
 10
215.477046
 20
2.943195
 30
0.0
 11
216.773342
 21
4.239491
 31
0.0
  0
LINE
  8
0
 62
     7
 10
215.509127
 20
2.851533
 30
0.0
 11
216.805424
 21
4.147829
 31
0.0
  0
LINE
  8
0
 62
     7
 10
215.541209
 20
2.759871
 30
0.0
 11
216.837505
 21
4.056167
 31
0.0
  0
LINE
  8
0
 62
     7
 10
215.573291
 20
2.668209
 30
0.0
 11
216.869587
 21
3.964505
 31
0.0
  0
LINE
  8
0
 62
     7
 10
215.605373
 20
2.576547
 30
0.0
 11
216.901669
 21
3.872843
 31
0.0
  0
LINE
  8
0
 62
     7
 10
215.637454
 20
2.484885
 30
0.0
 11
216.933751
 21
3.781181
 31
0.0
  0
LINE
  8
0
 62
     7
 10
215.669536
 20
2.393223
 30
0.0
 11
216.965832
 21
3.689519
 31
0.0
  0
LINE
  8
0
 62
     7
 10
215.701618
 20
2.301561
 30
0.0
 11
216.997914
 21
3.597857
 31
0.0
  0
LINE
  8
0
 62
     7
 10
215.733699
 20
2.209899
 30
0.0
 11
217.029996
 21
3.506195
 31
0.0
  0
LINE
  8
0
 62
     7
 10
215.765781
 20
2.118237
 30
0.0
 11
217.062077
 21
3.414533
 31
0.0
  0
LINE
  8
0
 62
     7
 10
215.850439
 20
2.079152
 30
0.0
 11
217.094159
 21
3.322871
 31
0.0
  0
LINE
  8
0
 62
     7
 10
215.974183
 20
2.079152
 30
0.0
 11
217.126241
 21
3.231209
 31
0.0
  0
LINE
  8
0
 62
     7
 10
216.097927
 20
2.079152
 30
0.0
 11
217.158322
 21
3.139547
 31
0.0
  0
LINE
  8
0
 62
     7
 10
216.22167
 20
2.079152
 30
0.0
 11
217.190404
 21
3.047885
 31
0.0
  0
LINE
  8
0
 62
     7
 10
216.345414
 20
2.079152
 30
0.0
 11
217.222486
 21
2.956223
 31
0.0
  0
LINE
  8
0
 62
     7
 10
216.469158
 20
2.079152
 30
0.0
 11
217.254567
 21
2.864561
 31
0.0
  0
LINE
  8
0
 62
     7
 10
216.592902
 20
2.079152
 30
0.0
 11
217.286649
 21
2.772899
 31
0.0
  0
LINE
  8
0
 62
     7
 10
216.716645
 20
2.079152
 30
0.0
 11
217.318731
 21
2.681237
 31
0.0
  0
LINE
  8
0
 62
     7
 10
216.840389
 20
2.079152
 30
0.0
 11
217.350813
 21
2.589575
 31
0.0
  0
LINE
  8
0
 62
     7
 10
216.964133
 20
2.079152
 30
0.0
 11
217.382894
 21
2.497913
 31
0.0
  0
LINE
  8
0
 62
     7
 10
217.087876
 20
2.079152
 30
0.0
 11
217.414976
 21
2.406251
 31
0.0
  0
LINE
  8
0
 62
     7
 10
217.21162
 20
2.079152
 30
0.0
 11
217.447058
 21
2.314589
 31
0.0
  0
LINE
  8
0
 62
     7
 10
217.335364
 20
2.079152
 30
0.0
 11
217.479139
 21
2.222927
 31
0.0
  0
LINE
  8
0
 62
     7
 10
217.459107
 20
2.079152
 30
0.0
 11
217.511221
 21
2.131265
 31
0.0
  0
LINE
  8
0
 62
     7
 10
223.479461
 20
2.886992
 30
0.0
 11
225.439461
 21
4.846992
 31
0.0
  0
LINE
  8
0
 62
     7
 10
223.479461
 20
3.010736
 30
0.0
 11
225.439461
 21
4.970736
 31
0.0
  0
LINE
  8
0
 62
     7
 10
223.479461
 20
3.13448
 30
0.0
 11
225.439461
 21
5.09448
 31
0.0
  0
LINE
  8
0
 62
     7
 10
223.479461
 20
3.258224
 30
0.0
 11
225.439461
 21
5.218224
 31
0.0
  0
LINE
  8
0
 62
     7
 10
223.479461
 20
3.381967
 30
0.0
 11
225.439461
 21
5.341967
 31
0.0
  0
LINE
  8
0
 62
     7
 10
223.479461
 20
3.505711
 30
0.0
 11
225.412902
 21
5.439152
 31
0.0
  0
LINE
  8
0
 62
     7
 10
223.479461
 20
3.629455
 30
0.0
 11
225.289158
 21
5.439152
 31
0.0
  0
LINE
  8
0
 62
     7
 10
223.479461
 20
3.753198
 30
0.0
 11
225.165414
 21
5.439152
 31
0.0
  0
LINE
  8
0
 62
     7
 10
223.479461
 20
3.876942
 30
0.0
 11
225.04167
 21
5.439152
 31
0.0
  0
LINE
  8
0
 62
     7
 10
223.479461
 20
4.000686
 30
0.0
 11
224.917927
 21
5.439152
 31
0.0
  0
LINE
  8
0
 62
     7
 10
223.479461
 20
4.124429
 30
0.0
 11
224.794183
 21
5.439152
 31
0.0
  0
LINE
  8
0
 62
     7
 10
223.479461
 20
4.248173
 30
0.0
 11
224.670439
 21
5.439152
 31
0.0
  0
LINE
  8
0
 62
     7
 10
223.479461
 20
4.371917
 30
0.0
 11
224.546696
 21
5.439152
 31
0.0
  0
LINE
  8
0
 62
     7
 10
223.479461
 20
4.49566
 30
0.0
 11
224.422952
 21
5.439152
 31
0.0
  0
LINE
  8
0
 62
     7
 10
223.479461
 20
4.619404
 30
0.0
 11
224.299208
 21
5.439152
 31
0.0
  0
LINE
  8
0
 62
     7
 10
223.479461
 20
4.743148
 30
0.0
 11
224.175465
 21
5.439152
 31
0.0
  0
LINE
  8
0
 62
     7
 10
223.479461
 20
4.866891
 30
0.0
 11
224.051721
 21
5.439152
 31
0.0
  0
LINE
  8
0
 62
     7
 10
223.479461
 20
4.990635
 30
0.0
 11
223.927977
 21
5.439152
 31
0.0
  0
LINE
  8
0
 62
     7
 10
223.479461
 20
5.114379
 30
0.0
 11
223.804234
 21
5.439152
 31
0.0
  0
LINE
  8
0
 62
     7
 10
223.479461
 20
5.238122
 30
0.0
 11
223.68049
 21
5.439152
 31
0.0
  0
LINE
  8
0
 62
     7
 10
223.479461
 20
5.361866
 30
0.0
 11
223.556746
 21
5.439152
 31
0.0
  0
LINE
  8
0
 62
     7
 10
223.479461
 20
2.763249
 30
0.0
 11
225.439461
 21
4.723249
 31
0.0
  0
LINE
  8
0
 62
     7
 10
223.479461
 20
2.639505
 30
0.0
 11
225.439461
 21
4.599505
 31
0.0
  0
LINE
  8
0
 62
     7
 10
223.479461
 20
2.515761
 30
0.0
 11
225.439461
 21
4.475761
 31
0.0
  0
LINE
  8
0
 62
     7
 10
223.479461
 20
2.392018
 30
0.0
 11
225.439461
 21
4.352018
 31
0.0
  0
LINE
  8
0
 62
     7
 10
223.479461
 20
2.268274
 30
0.0
 11
225.439461
 21
4.228274
 31
0.0
  0
LINE
  8
0
 62
     7
 10
223.479461
 20
2.14453
 30
0.0
 11
225.439461
 21
4.10453
 31
0.0
  0
LINE
  8
0
 62
     7
 10
223.537826
 20
2.079152
 30
0.0
 11
225.439461
 21
3.980787
 31
0.0
  0
LINE
  8
0
 62
     7
 10
223.661569
 20
2.079152
 30
0.0
 11
225.439461
 21
3.857043
 31
0.0
  0
LINE
  8
0
 62
     7
 10
223.785313
 20
2.079152
 30
0.0
 11
225.439461
 21
3.733299
 31
0.0
  0
LINE
  8
0
 62
     7
 10
223.909057
 20
2.079152
 30
0.0
 11
225.439461
 21
3.609556
 31
0.0
  0
LINE
  8
0
 62
     7
 10
224.032801
 20
2.079152
 30
0.0
 11
225.439461
 21
3.485812
 31
0.0
  0
LINE
  8
0
 62
     7
 10
224.156544
 20
2.079152
 30
0.0
 11
225.439461
 21
3.362068
 31
0.0
  0
LINE
  8
0
 62
     7
 10
224.280288
 20
2.079152
 30
0.0
 11
225.439461
 21
3.238325
 31
0.0
  0
LINE
  8
0
 62
     7
 10
224.404032
 20
2.079152
 30
0.0
 11
225.439461
 21
3.114581
 31
0.0
  0
LINE
  8
0
 62
     7
 10
224.527775
 20
2.079152
 30
0.0
 11
225.439461
 21
2.990837
 31
0.0
  0
LINE
  8
0
 62
     7
 10
224.651519
 20
2.079152
 30
0.0
 11
225.439461
 21
2.867093
 31
0.0
  0
LINE
  8
0
 62
     7
 10
224.775263
 20
2.079152
 30
0.0
 11
225.439461
 21
2.74335
 31
0.0
  0
LINE
  8
0
 62
     7
 10
224.899006
 20
2.079152
 30
0.0
 11
225.439461
 21
2.619606
 31
0.0
  0
LINE
  8
0
 62
     7
 10
225.02275
 20
2.079152
 30
0.0
 11
225.439461
 21
2.495862
 31
0.0
  0
LINE
  8
0
 62
     7
 10
225.146494
 20
2.079152
 30
0.0
 11
225.439461
 21
2.372119
 31
0.0
  0
LINE
  8
0
 62
     7
 10
225.270237
 20
2.079152
 30
0.0
 11
225.439461
 21
2.248375
 31
0.0
  0
LINE
  8
0
 62
     7
 10
225.393981
 20
2.079152
 30
0.0
 11
225.439461
 21
2.124631
 31
0.0
  0
LINE
  8
0
 62
     7
 10
220.259461
 20
2.652119
 30
0.0
 11
222.706976
 21
5.099634
 31
0.0
  0
LINE
  8
0
 62
     7
 10
220.259461
 20
2.775862
 30
0.0
 11
222.664909
 21
5.18131
 31
0.0
  0
LINE
  8
0
 62
     7
 10
220.259461
 20
2.899606
 30
0.0
 11
222.619915
 21
5.26006
 31
0.0
  0
LINE
  8
0
 62
     7
 10
220.259461
 20
3.02335
 30
0.0
 11
222.572097
 21
5.335986
 31
0.0
  0
LINE
  8
0
 62
     7
 10
220.259461
 20
3.147093
 30
0.0
 11
222.521536
 21
5.409168
 31
0.0
  0
LINE
  8
0
 62
     7
 10
220.259461
 20
3.270837
 30
0.0
 11
222.427775
 21
5.439152
 31
0.0
  0
LINE
  8
0
 62
     7
 10
220.259461
 20
3.394581
 30
0.0
 11
222.304032
 21
5.439152
 31
0.0
  0
LINE
  8
0
 62
     7
 10
220.259461
 20
3.518325
 30
0.0
 11
222.180288
 21
5.439152
 31
0.0
  0
LINE
  8
0
 62
     7
 10
220.259461
 20
3.642068
 30
0.0
 11
222.056544
 21
5.439152
 31
0.0
  0
LINE
  8
0
 62
     7
 10
220.259461
 20
3.765812
 30
0.0
 11
221.932801
 21
5.439152
 31
0.0
  0
LINE
  8
0
 62
     7
 10
220.259461
 20
3.889556
 30
0.0
 11
221.809057
 21
5.439152
 31
0.0
  0
LINE
  8
0
 62
     7
 10
220.259461
 20
4.013299
 30
0.0
 11
221.685313
 21
5.439152
 31
0.0
  0
LINE
  8
0
 62
     7
 10
220.259461
 20
4.137043
 30
0.0
 11
221.561569
 21
5.439152
 31
0.0
  0
LINE
  8
0
 62
     7
 10
220.259461
 20
4.260787
 30
0.0
 11
221.437826
 21
5.439152
 31
0.0
  0
LINE
  8
0
 62
     7
 10
220.259461
 20
4.38453
 30
0.0
 11
221.314082
 21
5.439152
 31
0.0
  0
LINE
  8
0
 62
     7
 10
220.259461
 20
4.508274
 30
0.0
 11
221.190338
 21
5.439152
 31
0.0
  0
LINE
  8
0
 62
     7
 10
220.259461
 20
4.632018
 30
0.0
 11
221.066595
 21
5.439152
 31
0.0
  0
LINE
  8
0
 62
     7
 10
220.259461
 20
4.755761
 30
0.0
 11
220.942851
 21
5.439152
 31
0.0
  0
LINE
  8
0
 62
     7
 10
220.259461
 20
4.879505
 30
0.0
 11
220.819107
 21
5.439152
 31
0.0
  0
LINE
  8
0
 62
     7
 10
220.259461
 20
5.003249
 30
0.0
 11
220.695364
 21
5.439152
 31
0.0
  0
LINE
  8
0
 62
     7
 10
220.259461
 20
5.126992
 30
0.0
 11
220.57162
 21
5.439152
 31
0.0
  0
LINE
  8
0
 62
     7
 10
220.259461
 20
5.250736
 30
0.0
 11
220.447876
 21
5.439152
 31
0.0
  0
LINE
  8
0
 62
     7
 10
220.259461
 20
5.37448
 30
0.0
 11
220.324133
 21
5.439152
 31
0.0
  0
LINE
  8
0
 62
     7
 10
220.259461
 20
2.528375
 30
0.0
 11
222.745991
 21
5.014905
 31
0.0
  0
LINE
  8
0
 62
     7
 10
220.259461
 20
2.404631
 30
0.0
 11
222.781799
 21
4.926969
 31
0.0
  0
LINE
  8
0
 62
     7
 10
220.259461
 20
2.280888
 30
0.0
 11
222.814211
 21
4.835637
 31
0.0
  0
LINE
  8
0
 62
     7
 10
220.259461
 20
2.157144
 30
0.0
 11
222.842995
 21
4.740678
 31
0.0
  0
LINE
  8
0
 62
     7
 10
220.305212
 20
2.079152
 30
0.0
 11
222.867864
 21
4.641803
 31
0.0
  0
LINE
  8
0
 62
     7
 10
220.428956
 20
2.079152
 30
0.0
 11
222.88846
 21
4.538656
 31
0.0
  0
LINE
  8
0
 62
     7
 10
220.5527
 20
2.079152
 30
0.0
 11
222.904331
 21
4.430783
 31
0.0
  0
LINE
  8
0
 62
     7
 10
220.676444
 20
2.079152
 30
0.0
 11
222.914892
 21
4.3176
 31
0.0
  0
LINE
  8
0
 62
     7
 10
220.800188
 20
2.079153
 30
0.0
 11
222.919373
 21
4.198338
 31
0.0
  0
LINE
  8
0
 62
     7
 10
220.926669
 20
2.08189
 30
0.0
 11
222.916723
 21
4.071944
 31
0.0
  0
LINE
  8
0
 62
     7
 10
221.061691
 20
2.093169
 30
0.0
 11
222.905444
 21
3.936921
 31
0.0
  0
LINE
  8
0
 62
     7
 10
221.207599
 20
2.115333
 30
0.0
 11
222.88328
 21
3.791013
 31
0.0
  0
LINE
  8
0
 62
     7
 10
221.368094
 20
2.152084
 30
0.0
 11
222.846528
 21
3.630518
 31
0.0
  0
LINE
  8
0
 62
     7
 10
221.550111
 20
2.210357
 30
0.0
 11
222.788255
 21
3.448501
 31
0.0
  0
LINE
  8
0
 62
     7
 10
221.770184
 20
2.306686
 30
0.0
 11
222.691926
 21
3.228429
 31
0.0
  0
LINE
  8
0
 62
     7
 10
222.108812
 20
2.521571
 30
0.0
 11
222.477042
 21
2.8898
 31
0.0
  0
ARC
  8
0
  6
CONTINUOUS
 62
     7
 10
281.592224
 20
211.393888
 30
0.0
 40
1.204309
 50
270.0
 51
85.706237
  0
LINE
  8
0
  6
CONTINUOUS
 62
     7
 10
281.598324
 20
212.591436
 30
0.0
 11
280.948725
 21
212.591436
 31
0.0
  0
LINE
  8
0
  6
CONTINUOUS
 62
     7
 10
281.598324
 20
210.189989
 30
0.0
 11
280.954825
 21
210.189989
 31
0.0
  0
LINE
  8
0
  6
CONTINUOUS
 62
     7
 10
281.597188
 20
215.000045
 30
0.0
 11
280.947589
 21
215.000045
 31
0.0
  0
ARC
  8
0
  6
CONTINUOUS
 62
     7
 10
281.592224
 20
213.795745
 30
0.0
 40
1.204309
 50
270.0
 51
90.0
  0
LINE
  8
0
  6
CONTINUOUS
 62
     7
 10
280.956188
 20
215.000002
 30
0.0
 11
279.999994
 21
215.000002
 31
0.0
  0
LINE
  8
0
  6
CONTINUOUS
 62
     7
 10
280.960958
 20
210.189987
 30
0.0
 11
279.98315
 21
210.189987
 31
0.0
  0
LINE
  8
0
  6
CONTINUOUS
 62
     7
 10
280.951055
 20
212.591427
 30
0.0
 11
279.978919
 21
212.591427
 31
0.0
  0
ARC
  8
0
  6
CONTINUOUS
 62
     7
 10
291.592226
 20
171.393885
 30
0.0
 40
1.204309
 50
270.0
 51
85.706237
  0
LINE
  8
0
  6
CONTINUOUS
 62
     7
 10
291.598325
 20
172.591434
 30
0.0
 11
290.948727
 21
172.591434
 31
0.0
  0
LINE
  8
0
  6
CONTINUOUS
 62
     7
 10
291.598325
 20
170.189987
 30
0.0
 11
290.954826
 21
170.189987
 31
0.0
  0
LINE
  8
0
  6
CONTINUOUS
 62
     7
 10
291.597189
 20
175.000043
 30
0.0
 11
290.947591
 21
175.000043
 31
0.0
  0
ARC
  8
0
  6
CONTINUOUS
 62
     7
 10
291.592226
 20
173.795742
 30
0.0
 40
1.204309
 50
270.0
 51
90.0
  0
LINE
  8
0
  6
CONTINUOUS
 62
     7
 10
290.95619
 20
175.0
 30
0.0
 11
289.999995
 21
175.0
 31
0.0
  0
LINE
  8
0
  6
CONTINUOUS
 62
     7
 10
290.960959
 20
170.189984
 30
0.0
 11
289.983152
 21
170.189984
 31
0.0
  0
LINE
  8
0
  6
CONTINUOUS
 62
     7
 10
290.951056
 20
172.591424
 30
0.0
 11
289.978921
 21
172.591424
 31
0.0
  0
ARC
  8
0
  6
CONTINUOUS
 62
     7
 10
286.592231
 20
146.203901
 30
0.0
 40
1.204309
 50
270.0
 51
85.706237
  0
LINE
  8
0
  6
CONTINUOUS
 62
     7
 10
286.59833
 20
147.401449
 30
0.0
 11
285.948732
 21
147.401449
 31
0.0
  0
LINE
  8
0
  6
CONTINUOUS
 62
     7
 10
286.59833
 20
145.000003
 30
0.0
 11
285.954831
 21
145.000003
 31
0.0
  0
LINE
  8
0
  6
CONTINUOUS
 62
     7
 10
286.597194
 20
149.810059
 30
0.0
 11
285.947596
 21
149.810059
 31
0.0
  0
ARC
  8
0
  6
CONTINUOUS
 62
     7
 10
286.592231
 20
148.605758
 30
0.0
 40
1.204309
 50
270.0
 51
90.0
  0
LINE
  8
0
  6
CONTINUOUS
 62
     7
 10
285.956195
 20
149.810016
 30
0.0
 11
285.0
 21
149.810016
 31
0.0
  0
LINE
  8
0
  6
CONTINUOUS
 62
     7
 10
285.960964
 20
145.0
 30
0.0
 11
284.983157
 21
145.0
 31
0.0
  0
LINE
  8
0
  6
CONTINUOUS
 62
     7
 10
285.951061
 20
147.40144
 30
0.0
 11
284.978925
 21
147.40144
 31
0.0
  0
ARC
  8
0
  6
CONTINUOUS
 62
     7
 10
286.613341
 20
191.393885
 30
0.0
 40
1.204309
 50
270.0
 51
85.706237
  0
LINE
  8
0
  6
CONTINUOUS
 62
     7
 10
286.61944
 20
192.591433
 30
0.0
 11
285.969842
 21
192.591433
 31
0.0
  0
LINE
  8
0
  6
CONTINUOUS
 62
     7
 10
286.61944
 20
190.189987
 30
0.0
 11
285.975941
 21
190.189987
 31
0.0
  0
LINE
  8
0
  6
CONTINUOUS
 62
     7
 10
286.618304
 20
195.000043
 30
0.0
 11
285.968706
 21
195.000043
 31
0.0
  0
ARC
  8
0
  6
CONTINUOUS
 62
     7
 10
286.613341
 20
193.795742
 30
0.0
 40
1.204309
 50
270.0
 51
90.0
  0
LINE
  8
0
  6
CONTINUOUS
 62
     7
 10
285.977305
 20
195.0
 30
0.0
 11
285.02111
 21
195.0
 31
0.0
  0
LINE
  8
0
  6
CONTINUOUS
 62
     7
 10
285.982074
 20
190.189984
 30
0.0
 11
285.004267
 21
190.189984
 31
0.0
  0
LINE
  8
0
  6
CONTINUOUS
 62
     7
 10
285.972171
 20
192.591424
 30
0.0
 11
285.000035
 21
192.591424
 31
0.0
  0
LINE
  8
0
  6
CONTINUOUS
 62
     7
 10
300.274955
 20
203.953667
 30
0.0
 11
298.939601
 21
201.607901
 31
0.0
  0
LINE
  8
0
  6
CONTINUOUS
 62
     7
 10
298.939601
 20
201.607901
 30
0.0
 11
297.749682
 21
203.953667
 31
0.0
  0
ARC
  8
0
  6
CONTINUOUS
 62
     7
 10
363.364862
 20
156.296095
 30
0.0
 40
1.204309
 50
90.0
 51
265.706237
  0
LINE
  8
0
  6
CONTINUOUS
 62
     7
 10
363.358762
 20
155.098547
 30
0.0
 11
364.00836
 21
155.098547
 31
0.0
  0
LINE
  8
0
  6
CONTINUOUS
 62
     7
 10
363.358762
 20
157.499993
 30
0.0
 11
364.002261
 21
157.499993
 31
0.0
  0
LINE
  8
0
  6
CONTINUOUS
 62
     7
 10
363.359898
 20
152.689937
 30
0.0
 11
364.009496
 21
152.689937
 31
0.0
  0
ARC
  8
0
  6
CONTINUOUS
 62
     7
 10
363.364862
 20
153.894238
 30
0.0
 40
1.204309
 50
90.0
 51
270.0
  0
LINE
  8
0
  6
CONTINUOUS
 62
     7
 10
364.000897
 20
152.68998
 30
0.0
 11
364.957092
 21
152.68998
 31
0.0
  0
LINE
  8
0
  6
CONTINUOUS
 62
     7
 10
363.996128
 20
157.499996
 30
0.0
 11
364.973936
 21
157.499996
 31
0.0
  0
LINE
  8
0
  6
CONTINUOUS
 62
     7
 10
364.006031
 20
155.098556
 30
0.0
 11
364.978167
 21
155.098556
 31
0.0
  0
ARC
  8
0
  6
CONTINUOUS
 62
     7
 10
355.864862
 20
156.296095
 30
0.0
 40
1.204309
 50
90.0
 51
265.706237
  0
LINE
  8
0
  6
CONTINUOUS
 62
     7
 10
355.858762
 20
155.098547
 30
0.0
 11
356.50836
 21
155.098547
 31
0.0
  0
LINE
  8
0
  6
CONTINUOUS
 62
     7
 10
355.858762
 20
157.499993
 30
0.0
 11
356.502261
 21
157.499993
 31
0.0
  0
LINE
  8
0
  6
CONTINUOUS
 62
     7
 10
355.859898
 20
152.689937
 30
0.0
 11
356.509496
 21
152.689937
 31
0.0
  0
ARC
  8
0
  6
CONTINUOUS
 62
     7
 10
355.864862
 20
153.894238
 30
0.0
 40
1.204309
 50
90.0
 51
270.0
  0
LINE
  8
0
  6
CONTINUOUS
 62
     7
 10
356.500897
 20
152.68998
 30
0.0
 11
357.457092
 21
152.68998
 31
0.0
  0
LINE
  8
0
  6
CONTINUOUS
 62
     7
 10
356.496128
 20
157.499996
 30
0.0
 11
357.473936
 21
157.499996
 31
0.0
  0
LINE
  8
0
  6
CONTINUOUS
 62
     7
 10
356.506031
 20
155.098556
 30
0.0
 11
357.478167
 21
155.098556
 31
0.0
  0
ARC
  8
0
  6
CONTINUOUS
 62
     7
 10
370.864862
 20
156.296095
 30
0.0
 40
1.204309
 50
90.0
 51
265.706237
  0
LINE
  8
0
  6
CONTINUOUS
 62
     7
 10
370.858762
 20
155.098547
 30
0.0
 11
371.50836
 21
155.098547
 31
0.0
  0
LINE
  8
0
  6
CONTINUOUS
 62
     7
 10
370.858762
 20
157.499993
 30
0.0
 11
371.502261
 21
157.499993
 31
0.0
  0
LINE
  8
0
  6
CONTINUOUS
 62
     7
 10
370.859898
 20
152.689937
 30
0.0
 11
371.509496
 21
152.689937
 31
0.0
  0
ARC
  8
0
  6
CONTINUOUS
 62
     7
 10
370.864862
 20
153.894238
 30
0.0
 40
1.204309
 50
90.0
 51
270.0
  0
LINE
  8
0
  6
CONTINUOUS
 62
     7
 10
371.500897
 20
152.68998
 30
0.0
 11
372.457092
 21
152.68998
 31
0.0
  0
LINE
  8
0
  6
CONTINUOUS
 62
     7
 10
371.496128
 20
157.499996
 30
0.0
 11
372.473936
 21
157.499996
 31
0.0
  0
LINE
  8
0
  6
CONTINUOUS
 62
     7
 10
371.506031
 20
155.098556
 30
0.0
 11
372.478167
 21
155.098556
 31
0.0
  0
ENDSEC
  0
EOF
